  0
SECTION
  2
HEADER
  9
$ACADVER
  1
AC1021
  9
$DWGCODEPAGE
  3
ANSI_1252
  9
$EXTMAX
 10
558.8
 20
431.8
 30
0.0
  9
$EXTMIN
 10
0.0
 20
0.0
 30
0.0
  9
$LIMMIN
 10
0.0
 20
0.0
  9
$LIMMAX
 10
558.8
 20
431.8
  9
$VIEWCTR
 10
279.4
 20
215.9
  9
$VIEWSIZE
 40
431.8
  9
$CLAYER
  8
0
  9
$LTSCALE
 40
30.734
  9
$CELTYPE
  6
BYLAYER
  9
$DIMSCALE
 40
1.0
  9
$DIMASZ
 40
3.0
  9
$DIMEXO
 40
0.5
  9
$DIMDLI
 40
21.2344
  9
$DIMEXE
 40
1.5
  9
$DIMCEN
 40
5.0292
  9
$DIMLFAC
 40
1.0
  9
$DIMBLK
  1
_FILLED
  9
$DIMALT
 70
0
  9
$DIMALTF
 40
0.0393700787
  9
$DIMTXT
 40
3.0
  9
$DIMTOL
 70
1
  9
$DIMLIM
 70
0
  9
$DIMTFAC
 40
1.0
  9
$DIMTP
 40
0.01
  9
$DIMTM
 40
0.01
  9
$DIMGAP
 40
0.625
  9
$DIMDSEP
 70
44
  9
$AUNITS
 70
0
  9
$PDMODE
 70
3
  9
$PDSIZE
 40
3.0
  9
$HANDSEED
  5
5BE
  9
$TILEMODE
 70
1
  9
$MEASUREMENT
 70
1
  9
$INSUNITS
 70
4
  0
ENDSEC
  0
SECTION
  2
CLASSES
  0
CLASS
  1
ACDBDICTIONARYWDFLT
  2
AcDbDictionaryWithDefault
  3
AutoCAD 2000
 90
0
 91
1
280
0
281
0
  0
CLASS
  1
ACDBPLACEHOLDER
  2
AcDbPlaceHolder
  3
AutoCAD 2000
 90
0
 91
1
280
0
281
0
  0
CLASS
  1
LAYOUT
  2
AcDbLayout
  3
AutoCAD 2000
 90
0
 91
0
280
0
281
0
  0
ENDSEC
  0
SECTION
  2
TABLES
  0
TABLE
  2
VPORT
  5
8
100
AcDbSymbolTable
 70
2
  0
VPORT
  5
1F4
100
AcDbSymbolTableRecord
100
AcDbViewportTableRecord
  2
*ACTIVE
 70
0
 10
0.0
 20
0.0
 11
1.0
 21
1.0
 12
279.4
 22
215.9
 13
0.0
 23
0.0
 14
1.0
 24
1.0
 15
0.0
 25
0.0
 16
0.0
 26
0.0
 36
1.0
 17
0.0
 27
0.0
 37
0.0
 40
431.8
 41
1.2941176471
 42
50.0
 43
0.0
 44
0.0
 50
0.0
 51
0.0
 71
0
 72
100
 73
1
 74
1
 75
0
 76
0
 77
0
 78
0
  0
ENDTAB
  0
TABLE
  2
LTYPE
  5
5
100
AcDbSymbolTable
 70
6
  0
LTYPE
  5
14
100
AcDbSymbolTableRecord
100
AcDbLinetypeTableRecord
  2
BYBLOCK
 70
0
  3

 72
65
 73
0
 40
0.0
  0
LTYPE
  5
15
100
AcDbSymbolTableRecord
100
AcDbLinetypeTableRecord
  2
BYLAYER
 70
0
  3

 72
65
 73
0
 40
0.0
  0
LTYPE
  5
16
100
AcDbSymbolTableRecord
100
AcDbLinetypeTableRecord
  2
CONTINUOUS
 70
64
  3
Solid line
 72
65
 73
0
 40
0.0
  0
LTYPE
  5
1F5
100
AcDbSymbolTableRecord
100
AcDbLinetypeTableRecord
  2
CENTER
 70
64
  3
____ _ ____ _ ____ _ ____ _ ____ _ ____ _ ____
 72
65
 73
4
 40
0.6
 49
0.375
 74
0
 49
-0.075
 74
0
 49
0.075
 74
0
 49
-0.075
 74
0
  0
LTYPE
  5
1F6
100
AcDbSymbolTableRecord
100
AcDbLinetypeTableRecord
  2
HIDDEN
 70
64
  3
- - - - - - - - - - - - - - - - - - - -
 72
65
 73
2
 40
0.2
 49
0.1
 74
0
 49
-0.1
 74
0
  0
LTYPE
  5
1F7
100
AcDbSymbolTableRecord
100
AcDbLinetypeTableRecord
  2
PHANTOM
 70
64
  3
_____ _ _ _____ _ _ _____ _ _ _____
 72
65
 73
6
 40
0.8
 49
0.45
 74
0
 49
-0.05
 74
0
 49
0.1
 74
0
 49
-0.05
 74
0
 49
0.1
 74
0
 49
-0.05
 74
0
  0
LTYPE
  5
1F8
100
AcDbSymbolTableRecord
100
AcDbLinetypeTableRecord
  2
DOT
 70
64
  3
. . . . . . . . . . . . . . . . . . . .
 72
65
 73
2
 40
0.2
 49
0.1
 74
0
 49
-0.1
 74
0
  0
LTYPE
  5
1F9
100
AcDbSymbolTableRecord
100
AcDbLinetypeTableRecord
  2
DASHED
 70
64
  3
- - - - - - - - - - - - - - - - - - - -
 72
65
 73
2
 40
0.2
 49
0.1
 74
0
 49
-0.1
 74
0
  0
ENDTAB
  0
TABLE
  2
LAYER
  5
2
100
AcDbSymbolTable
 70
36
  0
LAYER
  5
10
100
AcDbSymbolTableRecord
100
AcDbLayerTableRecord
  2
0
 70
0
 62
7
  6
CONTINUOUS
370
-3
390
F
  0
LAYER
  5
1FA
100
AcDbSymbolTableRecord
100
AcDbLayerTableRecord
  2
DEFAULT_1
 70
0
 62
7
  6
CENTER
370
-3
390
F
  0
LAYER
  5
1FB
100
AcDbSymbolTableRecord
100
AcDbLayerTableRecord
  2
DEFAULT_2
 70
0
 62
7
  6
HIDDEN
370
-3
390
F
  0
LAYER
  5
1FC
100
AcDbSymbolTableRecord
100
AcDbLayerTableRecord
  2
DEFAULT_3
 70
0
 62
7
  6
PHANTOM
370
-3
390
F
  0
LAYER
  5
1FD
100
AcDbSymbolTableRecord
100
AcDbLayerTableRecord
  2
ALTRI_PIANI
 70
0
 62
7
  6
CONTINUOUS
370
-3
390
F
  0
LAYER
  5
1FE
100
AcDbSymbolTableRecord
100
AcDbLayerTableRecord
  2
ASSI
 70
0
 62
7
  6
CONTINUOUS
370
-3
390
F
  0
LAYER
  5
1FF
100
AcDbSymbolTableRecord
100
AcDbLayerTableRecord
  2
COORDINATE
 70
0
 62
7
  6
CONTINUOUS
370
-3
390
F
  0
LAYER
  5
200
100
AcDbSymbolTableRecord
100
AcDbLayerTableRecord
  2
COORD_ORIGINE
 70
0
 62
7
  6
CONTINUOUS
370
-3
390
F
  0
LAYER
  5
201
100
AcDbSymbolTableRecord
100
AcDbLayerTableRecord
  2
COPY_PUBLISH
 70
0
 62
7
  6
CONTINUOUS
370
-3
390
F
  0
LAYER
  5
202
100
AcDbSymbolTableRecord
100
AcDbLayerTableRecord
  2
COSMETICI
 70
0
 62
7
  6
CONTINUOUS
370
-3
390
F
  0
LAYER
  5
203
100
AcDbSymbolTableRecord
100
AcDbLayerTableRecord
  2
CURVE
 70
0
 62
7
  6
CONTINUOUS
370
-3
390
F
  0
LAYER
  5
204
100
AcDbSymbolTableRecord
100
AcDbLayerTableRecord
  2
DRAFT
 70
0
 62
7
  6
CONTINUOUS
370
-3
390
F
  0
LAYER
  5
205
100
AcDbSymbolTableRecord
100
AcDbLayerTableRecord
  2
IMPORT_IGES
 70
0
 62
7
  6
CONTINUOUS
370
-3
390
F
  0
LAYER
  5
206
100
AcDbSymbolTableRecord
100
AcDbLayerTableRecord
  2
NOTE
 70
0
 62
7
  6
CONTINUOUS
370
-3
390
F
  0
LAYER
  5
207
100
AcDbSymbolTableRecord
100
AcDbLayerTableRecord
  2
PIANI
 70
0
 62
7
  6
CONTINUOUS
370
-3
390
F
  0
LAYER
  5
208
100
AcDbSymbolTableRecord
100
AcDbLayerTableRecord
  2
PIANI_ORIGINE
 70
0
 62
7
  6
CONTINUOUS
370
-3
390
F
  0
LAYER
  5
209
100
AcDbSymbolTableRecord
100
AcDbLayerTableRecord
  2
PUNTI
 70
0
 62
7
  6
CONTINUOUS
370
-3
390
F
  0
LAYER
  5
20A
100
AcDbSymbolTableRecord
100
AcDbLayerTableRecord
  2
RACCORDO
 70
0
 62
7
  6
CONTINUOUS
370
-3
390
F
  0
LAYER
  5
20B
100
AcDbSymbolTableRecord
100
AcDbLayerTableRecord
  2
SIMBOLI
 70
0
 62
7
  6
CONTINUOUS
370
-3
390
F
  0
LAYER
  5
20C
100
AcDbSymbolTableRecord
100
AcDbLayerTableRecord
  2
SMUSSO
 70
0
 62
7
  6
CONTINUOUS
370
-3
390
F
  0
LAYER
  5
20D
100
AcDbSymbolTableRecord
100
AcDbLayerTableRecord
  2
SNAPLINE
 70
0
 62
7
  6
CONTINUOUS
370
-3
390
F
  0
LAYER
  5
20E
100
AcDbSymbolTableRecord
100
AcDbLayerTableRecord
  2
SUPERFICI
 70
0
 62
7
  6
CONTINUOUS
370
-3
390
F
  0
LAYER
  5
20F
100
AcDbSymbolTableRecord
100
AcDbLayerTableRecord
  2
TRASH
 70
0
 62
7
  6
CONTINUOUS
370
-3
390
F
  0
LAYER
  5
210
100
AcDbSymbolTableRecord
100
AcDbLayerTableRecord
  2
VECCHIO_NETSAFE
 70
0
 62
7
  6
CONTINUOUS
370
-3
390
F
  0
ENDTAB
  0
TABLE
  2
STYLE
  5
3
100
AcDbSymbolTable
 70
1
  0
STYLE
  5
11
100
AcDbSymbolTableRecord
100
AcDbTextStyleTableRecord
  2
STANDARD
 70
0
 40
0.0
 41
0.8
 50
0.0
 71
0
 42
0.2
  3
txt
  4

  0
STYLE
  5
211
100
AcDbSymbolTableRecord
100
AcDbTextStyleTableRecord
  2
TEXTSTYLE_1
 70
0
 40
0.0
 41
0.8
 50
0.0
 71
0
 42
0.2
  3
gdt
  4

  0
ENDTAB
  0
TABLE
  2
VIEW
  5
6
100
AcDbSymbolTable
 70
0
  0
ENDTAB
  0
TABLE
  2
UCS
  5
7
100
AcDbSymbolTable
 70
0
  0
ENDTAB
  0
TABLE
  2
APPID
  5
9
100
AcDbSymbolTable
 70
1
  0
APPID
  5
212
100
AcDbSymbolTableRecord
100
AcDbRegAppTableRecord
  2
ACAD
 70
0
  0
ENDTAB
  0
TABLE
  2
BLOCK_RECORD
  5
1
100
AcDbSymbolTable
 70
0
  0
BLOCK_RECORD
  5
213
100
AcDbSymbolTableRecord
100
AcDbBlockTableRecord
  2
*Model_Space
  0
BLOCK_RECORD
  5
214
100
AcDbSymbolTableRecord
100
AcDbBlockTableRecord
  2
*Paper_Space
  0
ENDTAB
  0
TABLE
  2
DIMSTYLE
  5
A
100
AcDbSymbolTable
 70
1
100
AcDbDimStyleTable
 71
0
  0
DIMSTYLE
105
215
100
AcDbSymbolTableRecord
100
AcDbDimStyleTableRecord
  2
STANDARD
 70
0
  3

  4

 40
1.0
 41
3.0
 42
0.5
 43
0.38
 44
1.5
 45
0.0
 46
0.0
 47
0.01
 48
0.01
140
3.0
141
0.09
142
0.0
143
25.4
144
1.0
145
0.0
146
1.0
147
0.625
 71
1.0
 72
0.0
 73
0
 74
0
 75
0
 76
0
 77
1
 78
8
170
0
171
2
172
0
173
0
174
0
175
0
176
0
177
0
178
0
270
2
271
2
272
2
273
2
274
2
275
0
280
0
281
0
282
0
283
1
284
8
285
0
286
0
287
3
288
0
340
11
278
44
  0
ENDTAB
  0
ENDSEC
  0
SECTION
  2
BLOCKS
  0
BLOCK
  5
20
100
AcDbEntity
  8
0
100
AcDbBlockBegin
  2
*Model_Space
 70
0
 10
0.0
 20
0.0
 30
0.0
  3
*Model_Space
  1

  0
ENDBLK
  5
21
100
AcDbEntity
  8
0
100
AcDbBlockEnd
  0
BLOCK
  5
1C
100
AcDbEntity
  8
0
100
AcDbBlockBegin
  2
*Paper_Space
 70
0
 10
0.0
 20
0.0
 30
0.0
  3
*Paper_Space
  1

  0
ENDBLK
  5
1D
100
AcDbEntity
  8
0
100
AcDbBlockEnd
  0
ENDSEC
  0
SECTION
  2
ENTITIES
  0
LWPOLYLINE
  5
216
100
AcDbEntity
  8
RACCORDO
100
AcDbPolyline
 62
253
  6
CONTINUOUS
 90
3
 70
0
 10
168.3522267433
 20
-202.1052424934
 10
168.3051129358
 20
-202.1178279566
 10
168.2542374014
 20
-202.1270455674
  0
LINE
  5
217
100
AcDbEntity
  8
RACCORDO
100
AcDbLine
 62
253
  6
CONTINUOUS
 10
170.2089436115
 20
-199.5327937948
 11
170.4329529648
 21
-199.4738616299
  0
LWPOLYLINE
  5
218
100
AcDbEntity
  8
RACCORDO
100
AcDbPolyline
 62
253
  6
CONTINUOUS
 90
21
 70
0
 10
170.4329529648
 20
-199.4738616299
 10
170.4877056749
 20
-199.4596777197
 10
170.5118234216
 20
-199.4535664735
 10
170.5338613383
 20
-199.4481079173
 10
170.5538351088
 20
-199.44333799
 10
170.5719964361
 20
-199.4391468478
 10
170.5883454592
 20
-199.4355602841
 10
170.6029024371
 20
-199.4326031808
 10
170.6159459709
 20
-199.4301558348
 10
170.6274887147
 20
-199.4282319278
 10
170.6375325251
 20
-199.4268519842
 10
170.646336793
 20
-199.4258994074
 10
170.6539050221
 20
-199.4253793675
 10
170.6602434563
 20
-199.4253088953
 10
170.6656131164
 20
-199.4255835873
 10
170.6700385145
 20
-199.4261982805
 10
170.6735009405
 20
-199.4271710285
 10
170.676194782
 20
-199.4284282743
 10
170.6781857507
 20
-199.4299474982
 10
170.6794114313
 20
-199.4317583999
 10
170.6798732273
 20
-199.4338640014
  0
LINE
  5
219
100
AcDbEntity
  8
RACCORDO
100
AcDbLine
 62
253
  6
CONTINUOUS
 10
170.1121806806
 20
-199.5577408291
 11
170.2089436115
 21
-199.5327937948
  0
LWPOLYLINE
  5
21A
100
AcDbEntity
  8
RACCORDO
100
AcDbPolyline
 62
253
  6
CONTINUOUS
 90
4
 70
0
 10
169.8846771691
 20
-199.6148320856
 10
169.9458206447
 20
-199.5998006568
 10
170.0041105621
 20
-199.5852191561
 10
170.1121806806
 20
-199.5577408291
  0
LINE
  5
21B
100
AcDbEntity
  8
RACCORDO
100
AcDbLine
 62
253
  6
CONTINUOUS
 10
170.113589026
 20
-199.3203921168
 11
170.5185190654
 21
-199.2416194891
  0
LWPOLYLINE
  5
21C
100
AcDbEntity
  8
RACCORDO
100
AcDbPolyline
 62
253
  6
CONTINUOUS
 90
21
 70
0
 10
170.5185190654
 20
-199.2416194891
 10
170.5873710546
 20
-199.2285332619
 10
170.6176003601
 20
-199.2229446341
 10
170.6452004912
 20
-199.2179912007
 10
170.67025432
 20
-199.2136649925
 10
170.6929115933
 20
-199.2099148055
 10
170.7132756379
 20
-199.2067489532
 10
170.7314640644
 20
-199.2041591223
 10
170.7476357984
 20
-199.2020691686
 10
170.7619059603
 20
-199.2004824337
 10
170.7743790369
 20
-199.1993955761
 10
170.7851839234
 20
-199.1987224274
 10
170.7944149747
 20
-199.1984618716
 10
170.8021979113
 20
-199.1986150248
 10
170.8086806949
 20
-199.1990990662
 10
170.8139480965
 20
-199.1999063442
 10
170.8180856198
 20
-199.2010445105
 10
170.8211976663
 20
-199.2024537001
 10
170.8233508341
 20
-199.2041139578
 10
170.8245978386
 20
-199.2060452387
 10
170.825
 20
-199.2082475428
  0
LINE
  5
21D
100
AcDbEntity
  8
RACCORDO
100
AcDbLine
 62
253
  6
CONTINUOUS
 10
169.825
 20
-199.3748374298
 11
170.113589026
 21
-199.3203921168
  0
LINE
  5
21E
100
AcDbEntity
  8
0
100
AcDbLine
 62
7
  6
CONTINUOUS
 10
-215.95
 20
1.775
 11
-215.95
 21
0.775
  0
LINE
  5
21F
100
AcDbEntity
  8
0
100
AcDbLine
 62
7
  6
CONTINUOUS
 10
-215.1
 20
1.775
 11
-215.1
 21
0.775
  0
LINE
  5
220
100
AcDbEntity
  8
0
100
AcDbLine
 62
7
  6
CONTINUOUS
 10
-212.825
 20
1.775
 11
-212.825
 21
0.775
  0
LINE
  5
221
100
AcDbEntity
  8
0
100
AcDbLine
 62
7
  6
CONTINUOUS
 10
-209.075
 20
1.775
 11
-209.075
 21
0.775
  0
LINE
  5
222
100
AcDbEntity
  8
0
100
AcDbLine
 62
7
  6
CONTINUOUS
 10
-206.55
 20
1.775
 11
-206.55
 21
0.775
  0
LINE
  5
223
100
AcDbEntity
  8
0
100
AcDbLine
 62
7
  6
CONTINUOUS
 10
-202.55
 20
-2.3
 11
-202.55
 21
4.85
  0
LINE
  5
224
100
AcDbEntity
  8
0
100
AcDbLine
 62
7
  6
CONTINUOUS
 10
-202.05
 20
-3.475
 11
-202.05
 21
6.025
  0
LWPOLYLINE
  5
225
100
AcDbEntity
  8
RACCORDO
100
AcDbPolyline
 62
253
  6
CONTINUOUS
 90
3
 70
0
 10
168.2542374014
 20
-202.1270455674
 10
168.1391024398
 20
-202.1395486255
 10
168.069228752
 20
-202.1463914851
  0
LWPOLYLINE
  5
226
100
AcDbEntity
  8
RACCORDO
100
AcDbPolyline
 62
253
  6
CONTINUOUS
 90
4
 70
0
 10
168.069228752
 20
-202.1463914851
 10
167.8179420533
 20
-202.1647150104
 10
167.7178924687
 20
-202.1707608691
 10
167.6111703695
 20
-202.1757569415
  0
LWPOLYLINE
  5
227
100
AcDbEntity
  8
RACCORDO
100
AcDbPolyline
 62
253
  6
CONTINUOUS
 90
10
 70
0
 10
152.899981889
 20
-199.7985119548
 10
152.9060767249
 20
-199.7980824397
 10
152.9139161162
 20
-199.7871022675
 10
152.9226346866
 20
-199.7655945273
 10
152.9307550387
 20
-199.7331666336
 10
152.9381211552
 20
-199.6904853838
 10
152.9460509511
 20
-199.6390508765
 10
152.9547090007
 20
-199.5793106966
 10
152.9628944897
 20
-199.5108820007
 10
152.970126757
 20
-199.4338641736
  0
LWPOLYLINE
  5
228
100
AcDbEntity
  8
RACCORDO
100
AcDbPolyline
 62
253
  6
CONTINUOUS
 90
10
 70
0
 10
168.6540583582
 20
-199.5210179857
 10
168.7843051701
 20
-199.5188344634
 10
168.9146188032
 20
-199.5131330846
 10
169.0449992575
 20
-199.5039138493
 10
169.1755830232
 20
-199.4911725363
 10
169.30623361
 20
-199.4749133668
 10
169.4365415482
 20
-199.455149005
 10
169.5663703475
 20
-199.4318836722
 10
169.6958564981
 20
-199.4051131472
 10
169.825
 20
-199.3748374298
  0
LINE
  5
229
100
AcDbEntity
  8
RACCORDO
100
AcDbLine
 62
253
  6
CONTINUOUS
 10
167.6111749532
 20
-202.1757611537
 11
167.3958855237
 21
-202.1792922765
  0
LWPOLYLINE
  5
22A
100
AcDbEntity
  8
RACCORDO
100
AcDbPolyline
 62
253
  6
CONTINUOUS
 90
10
 70
0
 10
168.6549251208
 20
-199.7659436262
 10
168.7917209083
 20
-199.7638947515
 10
168.9287054306
 20
-199.7581781745
 10
169.0657837411
 20
-199.7487810521
 10
169.2028666122
 20
-199.735688762
 10
169.3398518021
 20
-199.7188977137
 10
169.4766241401
 20
-199.698415932
 10
169.6130806759
 20
-199.6742457833
 10
169.7491307281
 20
-199.6463834425
 10
169.8846771691
 20
-199.6148320856
  0
LWPOLYLINE
  5
22B
100
AcDbEntity
  8
RACCORDO
100
AcDbPolyline
 62
253
  6
CONTINUOUS
 90
7
 70
0
 10
167.3958855237
 20
-202.1792922765
 10
167.157017377
 20
-202.1823963993
 10
166.8958091693
 20
-202.1850735222
 10
166.6139734814
 20
-202.1872706448
 10
166.3123312401
 20
-202.1890407674
 10
165.9906960972
 20
-202.1905428918
 10
165.650095191
 20
-202.1917892332
  0
LINE
  5
22C
100
AcDbEntity
  8
RACCORDO
100
AcDbLine
 62
253
  6
CONTINUOUS
 10
165.650095191
 20
-202.1917892332
 11
164.920089526
 21
-202.1936002767
  0
LINE
  5
22D
100
AcDbEntity
  8
RACCORDO
100
AcDbLine
 62
253
  6
CONTINUOUS
 10
164.920089526
 20
-202.1936002767
 11
164.1355632275
 21
-202.1948878982
  0
LINE
  5
22E
100
AcDbEntity
  8
RACCORDO
100
AcDbLine
 62
253
  6
CONTINUOUS
 10
164.1355632275
 20
-202.1948878982
 11
163.3129230678
 21
-202.1956949791
  0
LINE
  5
22F
100
AcDbEntity
  8
RACCORDO
100
AcDbLine
 62
253
  6
CONTINUOUS
 10
163.3129230678
 20
-202.1956949791
 11
162.4677480581
 21
-202.1960853649
  0
LINE
  5
230
100
AcDbEntity
  8
ASSI
100
AcDbLine
 62
7
  6
CONTINUOUS
 10
163.15
 20
-217.575
 11
160.5
 21
-217.575
  0
LINE
  5
231
100
AcDbEntity
  8
ASSI
100
AcDbLine
 62
7
  6
CONTINUOUS
 10
163.15
 20
-214.5041207375
 11
160.5
 21
-214.5041207375
  0
LINE
  5
232
100
AcDbEntity
  8
ASSI
100
AcDbLine
 62
7
  6
CONTINUOUS
 10
163.15
 20
-209.0458792625
 11
160.5
 21
-209.0458792625
  0
LINE
  5
233
100
AcDbEntity
  8
0
100
AcDbLine
 62
7
  6
CONTINUOUS
 10
163.15
 20
-205.975
 11
162.325
 21
-205.975
  0
LINE
  5
234
100
AcDbEntity
  8
0
100
AcDbLine
 62
253
  6
CONTINUOUS
 10
162.325
 20
-205.975
 11
161.325
 21
-205.975
  0
LINE
  5
235
100
AcDbEntity
  8
0
100
AcDbLine
 62
7
  6
CONTINUOUS
 10
161.325
 20
-205.975
 11
160.5
 21
-205.975
  0
LINE
  5
236
100
AcDbEntity
  8
0
100
AcDbLine
 62
7
  6
CONTINUOUS
 10
162.325
 20
-205.4017624511
 11
161.325
 21
-205.4017624511
  0
LINE
  5
237
100
AcDbEntity
  8
0
100
AcDbLine
 62
7
  6
CONTINUOUS
 10
162.325
 20
-204.0455380582
 11
161.325
 21
-204.0455380582
  0
LINE
  5
238
100
AcDbEntity
  8
0
100
AcDbLine
 62
7
  6
CONTINUOUS
 10
165.95
 20
-203.475
 11
157.7
 21
-203.475
  0
LINE
  5
239
100
AcDbEntity
  8
RACCORDO
100
AcDbLine
 62
7
  6
CONTINUOUS
 10
168.0541062129
 20
-202.2250050404
 11
168.0576003042
 21
-202.2249997428
  0
LINE
  5
23A
100
AcDbEntity
  8
ASSI
100
AcDbLine
 62
7
  6
CONTINUOUS
 10
167.425
 20
-202.225
 11
156.225
 21
-202.225
  0
LINE
  5
23B
100
AcDbEntity
  8
CURVE
100
AcDbLine
 62
252
  6
CONTINUOUS
 10
155.375
 20
-202.225
 11
155.5920458493
 21
-202.225
  0
LINE
  5
23C
100
AcDbEntity
  8
CURVE
100
AcDbLine
 62
252
  6
CONTINUOUS
 10
155.8268554842
 20
-202.225
 11
155.8963031723
 21
-202.225
  0
LINE
  5
23D
100
AcDbEntity
  8
CURVE
100
AcDbLine
 62
252
  6
CONTINUOUS
 10
156.0305305175
 20
-202.225
 11
156.1728219139
 21
-202.225
  0
LINE
  5
23E
100
AcDbEntity
  8
CURVE
100
AcDbLine
 62
252
  6
CONTINUOUS
 10
167.4771780863
 20
-202.225
 11
167.6195021688
 21
-202.225
  0
LINE
  5
23F
100
AcDbEntity
  8
CURVE
100
AcDbLine
 62
252
  6
CONTINUOUS
 10
167.7536699114
 20
-202.225
 11
167.8230537771
 21
-202.225
  0
LINE
  5
240
100
AcDbEntity
  8
CURVE
100
AcDbLine
 62
252
  6
CONTINUOUS
 10
168.0573941634
 20
-202.225
 11
168.275
 21
-202.225
  0
LINE
  5
241
100
AcDbEntity
  8
RACCORDO
100
AcDbLine
 62
253
  6
CONTINUOUS
 10
162.4677480581
 20
-202.1960853649
 11
161.614407329
 21
-202.1961686473
  0
LINE
  5
242
100
AcDbEntity
  8
RACCORDO
100
AcDbLine
 62
7
  6
CONTINUOUS
 10
167.4477211744
 20
-202.2249560563
 11
168.0554178389
 21
-202.2250033799
  0
LINE
  5
243
100
AcDbEntity
  8
RACCORDO
100
AcDbLine
 62
7
  6
CONTINUOUS
 10
167.4480349667
 20
-202.2249559126
 11
167.7867965658
 21
-202.2249949035
  0
LINE
  5
244
100
AcDbEntity
  8
RACCORDO
100
AcDbLine
 62
253
  6
CONTINUOUS
 10
161.614407329
 20
-202.1961686473
 11
160.7643516067
 21
-202.1959342126
  0
LINE
  5
245
100
AcDbEntity
  8
RACCORDO
100
AcDbLine
 62
7
  6
CONTINUOUS
 10
155.5923371132
 20
-202.2249996573
 11
156.2250000154
 21
-202.2249663976
  0
LINE
  5
246
100
AcDbEntity
  8
RACCORDO
100
AcDbLine
 62
7
  6
CONTINUOUS
 10
156.2067588943
 20
-202.2249558481
 11
156.2250000169
 21
-202.2249645543
  0
LINE
  5
247
100
AcDbEntity
  8
RACCORDO
100
AcDbLine
 62
253
  6
CONTINUOUS
 10
160.7643516067
 20
-202.1959342126
 11
159.9315284829
 21
-202.1953545803
  0
LINE
  5
248
100
AcDbEntity
  8
RACCORDO
100
AcDbLine
 62
253
  6
CONTINUOUS
 10
159.9315284829
 20
-202.1953545803
 11
159.1317056115
 21
-202.1943430227
  0
LWPOLYLINE
  5
249
100
AcDbEntity
  8
RACCORDO
100
AcDbPolyline
 62
253
  6
CONTINUOUS
 90
9
 70
0
 10
159.1317056115
 20
-202.1943430227
 10
158.3769150456
 20
-202.1928187627
 10
158.0203982914
 20
-202.1918549204
 10
157.6791372364
 20
-202.1906197934
 10
157.3549790066
 20
-202.1891266493
 10
157.0497771146
 20
-202.1873622205
 10
156.7642681282
 20
-202.1851600404
 10
156.4995967309
 20
-202.1824646203
 10
156.2573891607
 20
-202.1793314489
  0
LINE
  5
24A
100
AcDbEntity
  8
0
100
AcDbLine
 62
7
  6
CONTINUOUS
 10
-201.25
 20
-4.225
 11
-201.25
 21
6.775
  0
LINE
  5
24B
100
AcDbEntity
  8
0
100
AcDbLine
 62
7
  6
CONTINUOUS
 10
-200.0
 20
178.775
 11
-200.0
 21
-176.225
  0
LINE
  5
24C
100
AcDbEntity
  8
RACCORDO
100
AcDbLine
 62
7
  6
CONTINUOUS
 10
-200.0
 20
-197.225
 11
-200.0
 21
-178.725
  0
LINE
  5
24D
100
AcDbEntity
  8
0
100
AcDbLine
 62
7
  6
CONTINUOUS
 10
-200.0
 20
180.025
 11
-200.0
 21
181.275
  0
LINE
  5
24E
100
AcDbEntity
  8
RACCORDO
100
AcDbLine
 62
7
  6
CONTINUOUS
 10
-200.0
 20
181.275
 11
-200.0
 21
199.775
  0
LINE
  5
24F
100
AcDbEntity
  8
0
100
AcDbLine
 62
7
  6
CONTINUOUS
 10
-199.0
 20
-178.725
 11
-199.0
 21
-176.225
  0
LINE
  5
250
100
AcDbEntity
  8
0
100
AcDbLine
 62
253
  6
CONTINUOUS
 10
-199.0
 20
178.775
 11
-199.0
 21
-176.225
  0
LINE
  5
251
100
AcDbEntity
  8
0
100
AcDbLine
 62
7
  6
CONTINUOUS
 10
-199.0
 20
178.775
 11
-199.0
 21
181.275
  0
LINE
  5
252
100
AcDbEntity
  8
RACCORDO
100
AcDbLine
 62
7
  6
CONTINUOUS
 10
-184.125
 20
163.775
 11
-184.125
 21
137.275
  0
LINE
  5
253
100
AcDbEntity
  8
RACCORDO
100
AcDbLine
 62
7
  6
CONTINUOUS
 10
-184.125
 20
-134.725
 11
-184.125
 21
-161.225
  0
LINE
  5
254
100
AcDbEntity
  8
RACCORDO
100
AcDbLine
 62
7
  6
CONTINUOUS
 10
-182.625
 20
-161.225
 11
-182.625
 21
-134.725
  0
LINE
  5
255
100
AcDbEntity
  8
RACCORDO
100
AcDbLine
 62
7
  6
CONTINUOUS
 10
-182.625
 20
137.275
 11
-182.625
 21
163.775
  0
LWPOLYLINE
  5
256
100
AcDbEntity
  8
RACCORDO
100
AcDbPolyline
 62
253
  6
CONTINUOUS
 90
4
 70
0
 10
166.6139314681
 20
-199.7715267107
 10
167.1564387879
 20
-199.770048782
 10
167.6770237468
 20
-199.7686464231
 10
168.654925106
 20
-199.765943351
  0
LINE
  5
257
100
AcDbEntity
  8
RACCORDO
100
AcDbLine
 62
253
  6
CONTINUOUS
 10
165.4669416585
 20
-199.77445915
 11
166.6139314681
 21
-199.7715267107
  0
LINE
  5
258
100
AcDbEntity
  8
CURVE
100
AcDbLine
 62
252
  6
CONTINUOUS
 10
152.825
 20
-199.725
 11
152.8482131552
 21
-199.725
  0
LINE
  5
259
100
AcDbEntity
  8
CURVE
100
AcDbLine
 62
252
  6
CONTINUOUS
 10
170.8017868473
 20
-199.725
 11
170.825
 21
-199.725
  0
LINE
  5
25A
100
AcDbEntity
  8
RACCORDO
100
AcDbLine
 62
7
  6
CONTINUOUS
 10
198.5
 20
-198.725
 11
180.0
 21
-198.725
  0
LINE
  5
25B
100
AcDbEntity
  8
0
100
AcDbLine
 62
7
  6
CONTINUOUS
 10
177.5
 20
-198.725
 11
145.9732231974
 21
-198.725
  0
LINE
  5
25C
100
AcDbEntity
  8
0
100
AcDbLine
 62
7
  6
CONTINUOUS
 10
136.8117768026
 20
-198.725
 11
-136.8117768026
 21
-198.725
  0
LINE
  5
25D
100
AcDbEntity
  8
0
100
AcDbLine
 62
7
  6
CONTINUOUS
 10
-145.9732231974
 20
-198.725
 11
-177.5
 21
-198.725
  0
LINE
  5
25E
100
AcDbEntity
  8
0
100
AcDbLine
 62
7
  6
CONTINUOUS
 10
-178.75
 20
-198.725
 11
-180.0
 21
-198.725
  0
LINE
  5
25F
100
AcDbEntity
  8
RACCORDO
100
AcDbLine
 62
7
  6
CONTINUOUS
 10
-180.0
 20
-198.725
 11
-198.5
 21
-198.725
  0
LINE
  5
260
100
AcDbEntity
  8
0
100
AcDbLine
 62
7
  6
CONTINUOUS
 10
-177.0
 20
-198.075
 11
-177.5
 21
-198.075
  0
LINE
  5
261
100
AcDbEntity
  8
0
100
AcDbLine
 62
7
  6
CONTINUOUS
 10
180.0
 20
-197.725
 11
177.0
 21
-197.725
  0
LINE
  5
262
100
AcDbEntity
  8
0
100
AcDbLine
 62
253
  6
CONTINUOUS
 10
177.0
 20
-197.725
 11
147.7553135264
 21
-197.725
  0
LINE
  5
263
100
AcDbEntity
  8
0
100
AcDbLine
 62
253
  6
CONTINUOUS
 10
135.0296864736
 20
-197.725
 11
-135.0296864736
 21
-197.725
  0
LINE
  5
264
100
AcDbEntity
  8
0
100
AcDbLine
 62
253
  6
CONTINUOUS
 10
-147.7553135264
 20
-197.725
 11
-177.0
 21
-197.725
  0
LINE
  5
265
100
AcDbEntity
  8
0
100
AcDbLine
 62
7
  6
CONTINUOUS
 10
-177.0
 20
-197.725
 11
-180.0
 21
-197.725
  0
LINE
  5
266
100
AcDbEntity
  8
RACCORDO
100
AcDbLine
 62
7
  6
CONTINUOUS
 10
-162.5
 20
-182.85
 11
-151.1489638747
 21
-182.85
  0
LINE
  5
267
100
AcDbEntity
  8
RACCORDO
100
AcDbLine
 62
7
  6
CONTINUOUS
 10
151.1489638747
 20
-182.85
 11
162.5
 21
-182.85
  0
LINE
  5
268
100
AcDbEntity
  8
RACCORDO
100
AcDbLine
 62
7
  6
CONTINUOUS
 10
162.5
 20
-181.35
 11
150.1170523323
 21
-181.35
  0
LINE
  5
269
100
AcDbEntity
  8
RACCORDO
100
AcDbLine
 62
7
  6
CONTINUOUS
 10
-150.1170523323
 20
-181.35
 11
-162.5
 21
-181.35
  0
LWPOLYLINE
  5
26A
100
AcDbEntity
  8
RACCORDO
100
AcDbPolyline
 62
253
  6
CONTINUOUS
 90
10
 70
0
 10
159.1968622635
 20
-199.7766675789
 10
159.7886905881
 20
-199.7776733525
 10
160.3968471726
 20
-199.7784583302
 10
161.0197068544
 20
-199.7790322431
 10
161.6524681764
 20
-199.7792888761
 10
162.2996559531
 20
-199.7791740915
 10
162.9563117292
 20
-199.778742027
 10
163.6033920964
 20
-199.7780488809
 10
164.2376141693
 20
-199.7770567523
 10
165.4669416585
 20
-199.77445915
  0
LWPOLYLINE
  5
26B
100
AcDbEntity
  8
RACCORDO
100
AcDbPolyline
 62
253
  6
CONTINUOUS
 90
11
 70
0
 10
159.1976346479
 20
-199.5362309792
 10
159.7892684607
 20
-199.5377771199
 10
160.3972882349
 20
-199.5390032292
 10
161.0200664715
 20
-199.5399217835
 10
161.6525225303
 20
-199.5403368178
 10
162.2994162137
 20
-199.5401447685
 10
162.9559877192
 20
-199.5394491994
 10
163.6028769989
 20
-199.5383648364
 10
164.2368401483
 20
-199.5368317316
 10
164.8611210718
 20
-199.534909833
 10
168.6540583582
 20
-199.5210179857
  0
LWPOLYLINE
  5
26C
100
AcDbEntity
  8
RACCORDO
100
AcDbPolyline
 62
253
  6
CONTINUOUS
 90
7
 70
0
 10
154.9950749426
 20
-199.7659433483
 10
155.4698856022
 20
-199.767263289
 10
155.9588667455
 20
-199.7686029132
 10
156.4620935553
 20
-199.7699622209
 10
156.9794717498
 20
-199.7713729923
 10
157.5112411728
 20
-199.7728034472
 10
159.1968622635
 20
-199.7766675789
  0
LINE
  5
26D
100
AcDbEntity
  8
RACCORDO
100
AcDbLine
 62
253
  6
CONTINUOUS
 10
154.9959416904
 20
-199.5210179946
 11
155.4706642638
 21
-199.5227679971
  0
LWPOLYLINE
  5
26E
100
AcDbEntity
  8
RACCORDO
100
AcDbPolyline
 62
253
  6
CONTINUOUS
 90
5
 70
0
 10
155.4706642638
 20
-199.5227679971
 10
156.4630220951
 20
-199.5264542855
 10
156.9804398937
 20
-199.5284359899
 10
157.5121619205
 20
-199.5304797887
 10
159.1976346479
 20
-199.5362309792
  0
LINE
  5
26F
100
AcDbEntity
  8
RACCORDO
100
AcDbLine
 62
253
  6
CONTINUOUS
 10
156.2573891607
 20
-202.1793314489
 11
156.0390323491
 21
-202.1757605263
  0
LWPOLYLINE
  5
270
100
AcDbEntity
  8
RACCORDO
100
AcDbPolyline
 62
253
  6
CONTINUOUS
 90
3
 70
0
 10
156.0390338467
 20
-202.1757544372
 10
155.9314755931
 20
-202.1708089489
 10
155.8307556767
 20
-202.1647183759
  0
LINE
  5
271
100
AcDbEntity
  8
RACCORDO
100
AcDbLine
 62
253
  6
CONTINUOUS
 10
155.8307556767
 20
-202.1647183759
 11
155.5788416261
 21
-202.1462091418
  0
LINE
  5
272
100
AcDbEntity
  8
RACCORDO
100
AcDbLine
 62
253
  6
CONTINUOUS
 10
155.5788416261
 20
-202.1462091418
 11
155.5091558369
 21
-202.1393817886
  0
LWPOLYLINE
  5
273
100
AcDbEntity
  8
RACCORDO
100
AcDbPolyline
 62
253
  6
CONTINUOUS
 90
6
 70
0
 10
155.5091558369
 20
-202.1393817886
 10
155.3942822591
 20
-202.1267369094
 10
155.3438741258
 20
-202.117626153
 10
155.297313297
 20
-202.1052209317
 10
155.2613578414
 20
-202.0939845382
 10
155.2383462705
 20
-202.0858153548
  0
LINE
  5
274
100
AcDbEntity
  8
0
100
AcDbLine
 62
7
  6
CONTINUOUS
 10
-180.0
 20
201.275
 11
-180.0
 21
200.275
  0
LINE
  5
275
100
AcDbEntity
  8
0
100
AcDbLine
 62
7
  6
CONTINUOUS
 10
-180.0
 20
-198.725
 11
-180.0
 21
-197.725
  0
LINE
  5
276
100
AcDbEntity
  8
0
100
AcDbLine
 62
253
  6
CONTINUOUS
 10
-178.75
 20
-198.725
 11
-178.75
 21
-197.725
  0
LINE
  5
277
100
AcDbEntity
  8
0
100
AcDbLine
 62
7
  6
CONTINUOUS
 10
-177.5
 20
201.275
 11
-177.5
 21
200.275
  0
LINE
  5
278
100
AcDbEntity
  8
0
100
AcDbLine
 62
7
  6
CONTINUOUS
 10
-177.5
 20
-198.051824947
 11
-177.5
 21
-198.725
  0
LINE
  5
279
100
AcDbEntity
  8
0
100
AcDbLine
 62
7
  6
CONTINUOUS
 10
-177.0
 20
201.275
 11
-177.0
 21
200.275
  0
LINE
  5
27A
100
AcDbEntity
  8
0
100
AcDbLine
 62
7
  6
CONTINUOUS
 10
-177.0
 20
-197.725
 11
-177.0
 21
-198.725
  0
LINE
  5
27B
100
AcDbEntity
  8
0
100
AcDbLine
 62
7
  6
CONTINUOUS
 10
-200.0
 20
-178.725
 11
-199.0
 21
-178.725
  0
LINE
  5
27C
100
AcDbEntity
  8
0
100
AcDbLine
 62
7
  6
CONTINUOUS
 10
200.0
 20
-178.725
 11
199.0
 21
-178.725
  0
LINE
  5
27D
100
AcDbEntity
  8
0
100
AcDbLine
 62
253
  6
CONTINUOUS
 10
200.0
 20
-177.475
 11
199.0
 21
-177.475
  0
LINE
  5
27E
100
AcDbEntity
  8
0
100
AcDbLine
 62
7
  6
CONTINUOUS
 10
200.0
 20
-176.225
 11
199.0
 21
-176.225
  0
LINE
  5
27F
100
AcDbEntity
  8
0
100
AcDbLine
 62
7
  6
CONTINUOUS
 10
-200.0
 20
-176.225
 11
-199.0
 21
-176.225
  0
LINE
  5
280
100
AcDbEntity
  8
RACCORDO
100
AcDbLine
 62
253
  6
CONTINUOUS
 10
153.0323995391
 20
-199.2229446118
 11
153.0955917033
 21
-199.234749085
  0
LINE
  5
281
100
AcDbEntity
  8
RACCORDO
100
AcDbLine
 62
253
  6
CONTINUOUS
 10
153.5364108863
 20
-199.3203920857
 11
153.825
 21
-199.3748374216
  0
LWPOLYLINE
  5
282
100
AcDbEntity
  8
RACCORDO
100
AcDbPolyline
 62
253
  6
CONTINUOUS
 90
4
 70
0
 10
153.0955917033
 20
-199.234749085
 10
153.2575301802
 20
-199.2661849984
 10
153.3062122152
 20
-199.275720192
 10
153.5364108863
 20
-199.3203920857
  0
LINE
  5
283
100
AcDbEntity
  8
0
100
AcDbLine
 62
7
  6
CONTINUOUS
 10
-201.25
 20
6.775
 11
-202.05
 21
6.025
  0
LWPOLYLINE
  5
284
100
AcDbEntity
  8
RACCORDO
100
AcDbPolyline
 62
253
  6
CONTINUOUS
 90
10
 70
0
 10
153.7653228335
 20
-199.6148320805
 10
153.9008698406
 20
-199.6463835567
 10
154.0369202898
 20
-199.6742459558
 10
154.1733770502
 20
-199.6984161152
 10
154.3101493935
 20
-199.7188978673
 10
154.447134412
 20
-199.7356888676
 10
154.5842170685
 20
-199.7487811162
 10
154.7212951666
 20
-199.7581782094
 10
154.8582794344
 20
-199.7638947675
 10
154.9950749258
 20
-199.7659436369
  0
LWPOLYLINE
  5
285
100
AcDbEntity
  8
RACCORDO
100
AcDbPolyline
 62
253
  6
CONTINUOUS
 90
10
 70
0
 10
153.825
 20
-199.3748374216
 10
153.954154827
 20
-199.4051149839
 10
154.083647903
 20
-199.4318866277
 10
154.213479228
 20
-199.455152353
 10
154.3437831989
 20
-199.4749160273
 10
154.4744254188
 20
-199.4911737832
 10
154.6050026969
 20
-199.5039140181
 10
154.7353806365
 20
-199.5131328645
 10
154.8656936343
 20
-199.51883419
 10
154.9959416904
 20
-199.5210179946
  0
LINE
  5
286
100
AcDbEntity
  8
RACCORDO
100
AcDbLine
 62
253
  6
CONTINUOUS
 10
153.7041785307
 20
-199.5998004546
 11
153.7653228335
 21
-199.6148320805
  0
LINE
  5
287
100
AcDbEntity
  8
RACCORDO
100
AcDbLine
 62
253
  6
CONTINUOUS
 10
153.59044181
 20
-199.5711591688
 11
153.7041785307
 21
-199.5998004546
  0
LINE
  5
288
100
AcDbEntity
  8
RACCORDO
100
AcDbLine
 62
253
  6
CONTINUOUS
 10
153.1381761599
 20
-199.4535663587
 11
153.1885017065
 21
-199.4664078996
  0
LINE
  5
289
100
AcDbEntity
  8
RACCORDO
100
AcDbLine
 62
253
  6
CONTINUOUS
 10
153.4410554289
 20
-199.5327935453
 11
153.59044181
 21
-199.5711591688
  0
LINE
  5
28A
100
AcDbEntity
  8
RACCORDO
100
AcDbLine
 62
253
  6
CONTINUOUS
 10
153.1885017065
 20
-199.4664078996
 11
153.4410554289
 21
-199.5327935453
  0
LINE
  5
28B
100
AcDbEntity
  8
0
100
AcDbLine
 62
7
  6
CONTINUOUS
 10
-201.25
 20
-4.225
 11
-202.05
 21
-3.475
  0
LWPOLYLINE
  5
28C
100
AcDbEntity
  8
RACCORDO
100
AcDbPolyline
 62
253
  6
CONTINUOUS
 90
4
 70
0
 10
156.0389792466
 20
-202.1757840405
 10
156.1074734569
 20
-202.2026063014
 10
156.178441321
 20
-202.2190952284
 10
156.2251770433
 20
-202.2227126958
  0
LINE
  5
28D
100
AcDbEntity
  8
RACCORDO
100
AcDbLine
 62
7
  6
CONTINUOUS
 10
-119.5
 20
53.85
 11
-119.5
 21
52.625
  0
LINE
  5
28E
100
AcDbEntity
  8
ASSI
100
AcDbLine
 62
7
  6
CONTINUOUS
 10
-119.5
 20
51.6
 11
-119.5
 21
50.6
  0
LINE
  5
28F
100
AcDbEntity
  8
RACCORDO
100
AcDbLine
 62
7
  6
CONTINUOUS
 10
-119.5
 20
49.575
 11
-119.5
 21
48.35
  0
LINE
  5
290
100
AcDbEntity
  8
RACCORDO
100
AcDbLine
 62
7
  6
CONTINUOUS
 10
-119.5
 20
25.1
 11
-119.5
 21
23.875
  0
LINE
  5
291
100
AcDbEntity
  8
ASSI
100
AcDbLine
 62
7
  6
CONTINUOUS
 10
-119.5
 20
22.85
 11
-119.5
 21
21.85
  0
LINE
  5
292
100
AcDbEntity
  8
RACCORDO
100
AcDbLine
 62
7
  6
CONTINUOUS
 10
-119.5
 20
20.825
 11
-119.5
 21
19.6
  0
LINE
  5
293
100
AcDbEntity
  8
RACCORDO
100
AcDbLine
 62
7
  6
CONTINUOUS
 10
-119.5
 20
-13.025
 11
-119.5
 21
-14.25
  0
LINE
  5
294
100
AcDbEntity
  8
ASSI
100
AcDbLine
 62
7
  6
CONTINUOUS
 10
-119.5
 20
-15.275
 11
-119.5
 21
-16.275
  0
LINE
  5
295
100
AcDbEntity
  8
RACCORDO
100
AcDbLine
 62
7
  6
CONTINUOUS
 10
-119.5
 20
-17.3
 11
-119.5
 21
-18.525
  0
LINE
  5
296
100
AcDbEntity
  8
RACCORDO
100
AcDbLine
 62
7
  6
CONTINUOUS
 10
-119.5
 20
-41.775
 11
-119.5
 21
-43.0
  0
LINE
  5
297
100
AcDbEntity
  8
ASSI
100
AcDbLine
 62
7
  6
CONTINUOUS
 10
-119.5
 20
-44.025
 11
-119.5
 21
-45.025
  0
LINE
  5
298
100
AcDbEntity
  8
RACCORDO
100
AcDbLine
 62
7
  6
CONTINUOUS
 10
-119.5
 20
-46.05
 11
-119.5
 21
-47.275
  0
LINE
  5
299
100
AcDbEntity
  8
RACCORDO
100
AcDbLine
 62
7
  6
CONTINUOUS
 10
-119.4330127019
 20
49.5986569471
 11
-119.4330127019
 21
49.575
  0
LINE
  5
29A
100
AcDbEntity
  8
RACCORDO
100
AcDbLine
 62
7
  6
CONTINUOUS
 10
-119.4330127019
 20
20.8486569471
 11
-119.4330127019
 21
20.825
  0
LINE
  5
29B
100
AcDbEntity
  8
RACCORDO
100
AcDbLine
 62
7
  6
CONTINUOUS
 10
-119.4330127019
 20
-43.0236569471
 11
-119.4330127019
 21
-43.0
  0
LINE
  5
29C
100
AcDbEntity
  8
RACCORDO
100
AcDbLine
 62
7
  6
CONTINUOUS
 10
-119.4330127019
 20
-17.2763430529
 11
-119.4330127019
 21
-17.3
  0
LINE
  5
29D
100
AcDbEntity
  8
RACCORDO
100
AcDbLine
 62
7
  6
CONTINUOUS
 10
-119.4330127019
 20
-14.2736569471
 11
-119.4330127019
 21
-14.25
  0
LINE
  5
29E
100
AcDbEntity
  8
RACCORDO
100
AcDbLine
 62
7
  6
CONTINUOUS
 10
-119.4330127019
 20
-46.0263430529
 11
-119.4330127019
 21
-46.05
  0
LINE
  5
29F
100
AcDbEntity
  8
RACCORDO
100
AcDbLine
 62
7
  6
CONTINUOUS
 10
-119.4330127019
 20
23.8513430529
 11
-119.4330127019
 21
23.875
  0
LINE
  5
2A0
100
AcDbEntity
  8
RACCORDO
100
AcDbLine
 62
7
  6
CONTINUOUS
 10
-119.4330127019
 20
52.6013430529
 11
-119.4330127019
 21
52.625
  0
LINE
  5
2A1
100
AcDbEntity
  8
RACCORDO
100
AcDbLine
 62
253
  6
CONTINUOUS
 10
-119.0
 20
53.85
 11
-119.0
 21
52.4247498999
  0
LINE
  5
2A2
100
AcDbEntity
  8
RACCORDO
100
AcDbLine
 62
253
  6
CONTINUOUS
 10
-119.0
 20
49.7752501001
 11
-119.0
 21
48.35
  0
LINE
  5
2A3
100
AcDbEntity
  8
RACCORDO
100
AcDbLine
 62
253
  6
CONTINUOUS
 10
-119.0
 20
25.1
 11
-119.0
 21
23.6747498999
  0
LINE
  5
2A4
100
AcDbEntity
  8
RACCORDO
100
AcDbLine
 62
253
  6
CONTINUOUS
 10
-119.0
 20
21.0252501001
 11
-119.0
 21
19.6
  0
LINE
  5
2A5
100
AcDbEntity
  8
ASSI
100
AcDbLine
 62
7
  6
CONTINUOUS
 10
-119.0
 20
-45.8497498999
 11
-119.0
 21
-45.2252501001
  0
LINE
  5
2A6
100
AcDbEntity
  8
ASSI
100
AcDbLine
 62
7
  6
CONTINUOUS
 10
-119.0
 20
-43.8247498999
 11
-119.0
 21
-43.2002501001
  0
LINE
  5
2A7
100
AcDbEntity
  8
RACCORDO
100
AcDbLine
 62
253
  6
CONTINUOUS
 10
-119.0
 20
-13.025
 11
-119.0
 21
-14.4502501001
  0
LINE
  5
2A8
100
AcDbEntity
  8
RACCORDO
100
AcDbLine
 62
253
  6
CONTINUOUS
 10
-119.0
 20
-17.0997498999
 11
-119.0
 21
-18.525
  0
LINE
  5
2A9
100
AcDbEntity
  8
ASSI
100
AcDbLine
 62
7
  6
CONTINUOUS
 10
-119.0
 20
-17.0997498999
 11
-119.0
 21
-16.4752501001
  0
LINE
  5
2AA
100
AcDbEntity
  8
ASSI
100
AcDbLine
 62
7
  6
CONTINUOUS
 10
-119.0
 20
-15.0747498999
 11
-119.0
 21
-14.4502501001
  0
LINE
  5
2AB
100
AcDbEntity
  8
RACCORDO
100
AcDbLine
 62
253
  6
CONTINUOUS
 10
-119.0
 20
-41.775
 11
-119.0
 21
-43.2002501001
  0
LINE
  5
2AC
100
AcDbEntity
  8
RACCORDO
100
AcDbLine
 62
253
  6
CONTINUOUS
 10
-119.0
 20
-45.8497498999
 11
-119.0
 21
-47.275
  0
LINE
  5
2AD
100
AcDbEntity
  8
ASSI
100
AcDbLine
 62
7
  6
CONTINUOUS
 10
-119.0
 20
21.0252501001
 11
-119.0
 21
21.6497498999
  0
LINE
  5
2AE
100
AcDbEntity
  8
ASSI
100
AcDbLine
 62
7
  6
CONTINUOUS
 10
-119.0
 20
23.0502501001
 11
-119.0
 21
23.6747498999
  0
LINE
  5
2AF
100
AcDbEntity
  8
ASSI
100
AcDbLine
 62
7
  6
CONTINUOUS
 10
-119.0
 20
49.7752501001
 11
-119.0
 21
50.3997498999
  0
LINE
  5
2B0
100
AcDbEntity
  8
ASSI
100
AcDbLine
 62
7
  6
CONTINUOUS
 10
-119.0
 20
51.8002501001
 11
-119.0
 21
52.4247498999
  0
LINE
  5
2B1
100
AcDbEntity
  8
RACCORDO
100
AcDbLine
 62
7
  6
CONTINUOUS
 10
-118.575
 20
-47.775
 11
-118.575
 21
-47.525
  0
LINE
  5
2B2
100
AcDbEntity
  8
RACCORDO
100
AcDbLine
 62
7
  6
CONTINUOUS
 10
-118.575
 20
-41.525
 11
-118.575
 21
-41.275
  0
LINE
  5
2B3
100
AcDbEntity
  8
RACCORDO
100
AcDbLine
 62
7
  6
CONTINUOUS
 10
-118.575
 20
-19.025
 11
-118.575
 21
-18.775
  0
LINE
  5
2B4
100
AcDbEntity
  8
RACCORDO
100
AcDbLine
 62
7
  6
CONTINUOUS
 10
-118.575
 20
-12.775
 11
-118.575
 21
-12.525
  0
LINE
  5
2B5
100
AcDbEntity
  8
RACCORDO
100
AcDbLine
 62
7
  6
CONTINUOUS
 10
-118.575
 20
19.1
 11
-118.575
 21
19.35
  0
LINE
  5
2B6
100
AcDbEntity
  8
RACCORDO
100
AcDbLine
 62
7
  6
CONTINUOUS
 10
-118.575
 20
25.35
 11
-118.575
 21
25.6
  0
LINE
  5
2B7
100
AcDbEntity
  8
RACCORDO
100
AcDbLine
 62
7
  6
CONTINUOUS
 10
-118.575
 20
47.85
 11
-118.575
 21
48.1
  0
LINE
  5
2B8
100
AcDbEntity
  8
RACCORDO
100
AcDbLine
 62
7
  6
CONTINUOUS
 10
-118.575
 20
54.1
 11
-118.575
 21
54.35
  0
LINE
  5
2B9
100
AcDbEntity
  8
0
100
AcDbLine
 62
7
  6
CONTINUOUS
 10
-118.5
 20
61.475
 11
-118.5
 21
56.975
  0
LINE
  5
2BA
100
AcDbEntity
  8
0
100
AcDbLine
 62
7
  6
CONTINUOUS
 10
-118.5
 20
16.475
 11
-118.5
 21
11.975
  0
LINE
  5
2BB
100
AcDbEntity
  8
0
100
AcDbLine
 62
7
  6
CONTINUOUS
 10
-118.5
 20
-5.4
 11
-118.5
 21
-9.9
  0
LINE
  5
2BC
100
AcDbEntity
  8
0
100
AcDbLine
 62
7
  6
CONTINUOUS
 10
-118.5
 20
-50.4
 11
-118.5
 21
-54.9
  0
LINE
  5
2BD
100
AcDbEntity
  8
0
100
AcDbLine
 62
7
  6
CONTINUOUS
 10
-114.0
 20
-54.9
 11
-114.0
 21
-50.4
  0
LINE
  5
2BE
100
AcDbEntity
  8
0
100
AcDbLine
 62
7
  6
CONTINUOUS
 10
-114.0
 20
-9.9
 11
-114.0
 21
-5.4
  0
LINE
  5
2BF
100
AcDbEntity
  8
0
100
AcDbLine
 62
7
  6
CONTINUOUS
 10
-114.0
 20
11.975
 11
-114.0
 21
16.475
  0
LINE
  5
2C0
100
AcDbEntity
  8
0
100
AcDbLine
 62
7
  6
CONTINUOUS
 10
-114.0
 20
56.975
 11
-114.0
 21
61.475
  0
LINE
  5
2C1
100
AcDbEntity
  8
RACCORDO
100
AcDbLine
 62
7
  6
CONTINUOUS
 10
-113.925
 20
54.35
 11
-113.925
 21
54.1
  0
LINE
  5
2C2
100
AcDbEntity
  8
RACCORDO
100
AcDbLine
 62
7
  6
CONTINUOUS
 10
-113.925
 20
48.1
 11
-113.925
 21
47.85
  0
LINE
  5
2C3
100
AcDbEntity
  8
RACCORDO
100
AcDbLine
 62
7
  6
CONTINUOUS
 10
-113.925
 20
25.6
 11
-113.925
 21
25.35
  0
LINE
  5
2C4
100
AcDbEntity
  8
RACCORDO
100
AcDbLine
 62
7
  6
CONTINUOUS
 10
-113.925
 20
19.35
 11
-113.925
 21
19.1
  0
LINE
  5
2C5
100
AcDbEntity
  8
RACCORDO
100
AcDbLine
 62
7
  6
CONTINUOUS
 10
-113.925
 20
-12.525
 11
-113.925
 21
-12.775
  0
LINE
  5
2C6
100
AcDbEntity
  8
RACCORDO
100
AcDbLine
 62
7
  6
CONTINUOUS
 10
-113.925
 20
-18.775
 11
-113.925
 21
-19.025
  0
LINE
  5
2C7
100
AcDbEntity
  8
RACCORDO
100
AcDbLine
 62
7
  6
CONTINUOUS
 10
-113.925
 20
-41.275
 11
-113.925
 21
-41.525
  0
LINE
  5
2C8
100
AcDbEntity
  8
RACCORDO
100
AcDbLine
 62
7
  6
CONTINUOUS
 10
-113.925
 20
-47.525
 11
-113.925
 21
-47.775
  0
LINE
  5
2C9
100
AcDbEntity
  8
RACCORDO
100
AcDbLine
 62
253
  6
CONTINUOUS
 10
-113.5
 20
-47.275
 11
-113.5
 21
-45.8497498999
  0
LINE
  5
2CA
100
AcDbEntity
  8
ASSI
100
AcDbLine
 62
7
  6
CONTINUOUS
 10
-113.5
 20
-45.8497498999
 11
-113.5
 21
-45.2252501001
  0
LINE
  5
2CB
100
AcDbEntity
  8
ASSI
100
AcDbLine
 62
7
  6
CONTINUOUS
 10
-113.5
 20
-43.8247498999
 11
-113.5
 21
-43.2002501001
  0
LINE
  5
2CC
100
AcDbEntity
  8
RACCORDO
100
AcDbLine
 62
253
  6
CONTINUOUS
 10
-113.5
 20
-43.2002501001
 11
-113.5
 21
-41.775
  0
LINE
  5
2CD
100
AcDbEntity
  8
RACCORDO
100
AcDbLine
 62
253
  6
CONTINUOUS
 10
-113.5
 20
-18.525
 11
-113.5
 21
-17.0997498999
  0
LINE
  5
2CE
100
AcDbEntity
  8
ASSI
100
AcDbLine
 62
7
  6
CONTINUOUS
 10
-113.5
 20
-17.0997498999
 11
-113.5
 21
-16.4752501001
  0
LINE
  5
2CF
100
AcDbEntity
  8
ASSI
100
AcDbLine
 62
7
  6
CONTINUOUS
 10
-113.5
 20
-15.0747498999
 11
-113.5
 21
-14.4502501001
  0
LINE
  5
2D0
100
AcDbEntity
  8
RACCORDO
100
AcDbLine
 62
253
  6
CONTINUOUS
 10
-113.5
 20
-14.4502501001
 11
-113.5
 21
-13.025
  0
LINE
  5
2D1
100
AcDbEntity
  8
RACCORDO
100
AcDbLine
 62
253
  6
CONTINUOUS
 10
-113.5
 20
19.6
 11
-113.5
 21
21.0252501001
  0
LINE
  5
2D2
100
AcDbEntity
  8
ASSI
100
AcDbLine
 62
7
  6
CONTINUOUS
 10
-113.5
 20
21.0252501001
 11
-113.5
 21
21.6497498999
  0
LINE
  5
2D3
100
AcDbEntity
  8
ASSI
100
AcDbLine
 62
7
  6
CONTINUOUS
 10
-113.5
 20
23.0502501001
 11
-113.5
 21
23.6747498999
  0
LINE
  5
2D4
100
AcDbEntity
  8
RACCORDO
100
AcDbLine
 62
253
  6
CONTINUOUS
 10
-113.5
 20
23.6747498999
 11
-113.5
 21
25.1
  0
LINE
  5
2D5
100
AcDbEntity
  8
RACCORDO
100
AcDbLine
 62
253
  6
CONTINUOUS
 10
-113.5
 20
48.35
 11
-113.5
 21
49.7752501001
  0
LINE
  5
2D6
100
AcDbEntity
  8
ASSI
100
AcDbLine
 62
7
  6
CONTINUOUS
 10
-113.5
 20
49.7752501001
 11
-113.5
 21
50.3997498999
  0
LINE
  5
2D7
100
AcDbEntity
  8
ASSI
100
AcDbLine
 62
7
  6
CONTINUOUS
 10
-113.5
 20
51.8002501001
 11
-113.5
 21
52.4247498999
  0
LINE
  5
2D8
100
AcDbEntity
  8
RACCORDO
100
AcDbLine
 62
253
  6
CONTINUOUS
 10
-113.5
 20
52.4247498999
 11
-113.5
 21
53.85
  0
LINE
  5
2D9
100
AcDbEntity
  8
RACCORDO
100
AcDbLine
 62
7
  6
CONTINUOUS
 10
-113.0669872981
 20
49.5986569471
 11
-113.0669872981
 21
49.575
  0
LINE
  5
2DA
100
AcDbEntity
  8
RACCORDO
100
AcDbLine
 62
7
  6
CONTINUOUS
 10
-113.0669872981
 20
20.8486569471
 11
-113.0669872981
 21
20.825
  0
LINE
  5
2DB
100
AcDbEntity
  8
RACCORDO
100
AcDbLine
 62
7
  6
CONTINUOUS
 10
-113.0669872981
 20
-43.0236569471
 11
-113.0669872981
 21
-43.0
  0
LINE
  5
2DC
100
AcDbEntity
  8
RACCORDO
100
AcDbLine
 62
7
  6
CONTINUOUS
 10
-113.0669872981
 20
-17.2763430529
 11
-113.0669872981
 21
-17.3
  0
LINE
  5
2DD
100
AcDbEntity
  8
RACCORDO
100
AcDbLine
 62
7
  6
CONTINUOUS
 10
-113.0669872981
 20
-14.2736569471
 11
-113.0669872981
 21
-14.25
  0
LINE
  5
2DE
100
AcDbEntity
  8
RACCORDO
100
AcDbLine
 62
7
  6
CONTINUOUS
 10
-113.0669872981
 20
-46.0263430529
 11
-113.0669872981
 21
-46.05
  0
LINE
  5
2DF
100
AcDbEntity
  8
RACCORDO
100
AcDbLine
 62
7
  6
CONTINUOUS
 10
-113.0669872981
 20
23.8513430529
 11
-113.0669872981
 21
23.875
  0
LINE
  5
2E0
100
AcDbEntity
  8
RACCORDO
100
AcDbLine
 62
7
  6
CONTINUOUS
 10
-113.0669872981
 20
52.6013430529
 11
-113.0669872981
 21
52.625
  0
LINE
  5
2E1
100
AcDbEntity
  8
RACCORDO
100
AcDbLine
 62
7
  6
CONTINUOUS
 10
-113.0
 20
-47.275
 11
-113.0
 21
-46.05
  0
LINE
  5
2E2
100
AcDbEntity
  8
ASSI
100
AcDbLine
 62
7
  6
CONTINUOUS
 10
-113.0
 20
-45.025
 11
-113.0
 21
-44.025
  0
LINE
  5
2E3
100
AcDbEntity
  8
RACCORDO
100
AcDbLine
 62
7
  6
CONTINUOUS
 10
-113.0
 20
-43.0
 11
-113.0
 21
-41.775
  0
LINE
  5
2E4
100
AcDbEntity
  8
RACCORDO
100
AcDbLine
 62
7
  6
CONTINUOUS
 10
-113.0
 20
-18.525
 11
-113.0
 21
-17.3
  0
LINE
  5
2E5
100
AcDbEntity
  8
ASSI
100
AcDbLine
 62
7
  6
CONTINUOUS
 10
-113.0
 20
-16.275
 11
-113.0
 21
-15.275
  0
LINE
  5
2E6
100
AcDbEntity
  8
RACCORDO
100
AcDbLine
 62
7
  6
CONTINUOUS
 10
-113.0
 20
-14.25
 11
-113.0
 21
-13.025
  0
LINE
  5
2E7
100
AcDbEntity
  8
RACCORDO
100
AcDbLine
 62
7
  6
CONTINUOUS
 10
-113.0
 20
19.6
 11
-113.0
 21
20.825
  0
LINE
  5
2E8
100
AcDbEntity
  8
ASSI
100
AcDbLine
 62
7
  6
CONTINUOUS
 10
-113.0
 20
21.85
 11
-113.0
 21
22.85
  0
LINE
  5
2E9
100
AcDbEntity
  8
RACCORDO
100
AcDbLine
 62
7
  6
CONTINUOUS
 10
-113.0
 20
23.875
 11
-113.0
 21
25.1
  0
LINE
  5
2EA
100
AcDbEntity
  8
RACCORDO
100
AcDbLine
 62
7
  6
CONTINUOUS
 10
-113.0
 20
48.35
 11
-113.0
 21
49.575
  0
LINE
  5
2EB
100
AcDbEntity
  8
ASSI
100
AcDbLine
 62
7
  6
CONTINUOUS
 10
-113.0
 20
50.6
 11
-113.0
 21
51.6
  0
LINE
  5
2EC
100
AcDbEntity
  8
RACCORDO
100
AcDbLine
 62
7
  6
CONTINUOUS
 10
-113.0
 20
52.625
 11
-113.0
 21
53.85
  0
LINE
  5
2ED
100
AcDbEntity
  8
0
100
AcDbLine
 62
7
  6
CONTINUOUS
 10
-112.5
 20
69.525
 11
-112.5
 21
-64.975
  0
LINE
  5
2EE
100
AcDbEntity
  8
RACCORDO
100
AcDbLine
 62
7
  6
CONTINUOUS
 10
-111.0
 20
69.475
 11
-111.0
 21
68.975
  0
LINE
  5
2EF
100
AcDbEntity
  8
RACCORDO
100
AcDbLine
 62
7
  6
CONTINUOUS
 10
-111.0
 20
-63.9
 11
-111.0
 21
-63.4
  0
LINE
  5
2F0
100
AcDbEntity
  8
RACCORDO
100
AcDbLine
 62
7
  6
CONTINUOUS
 10
-111.0
 20
-62.9
 11
-111.0
 21
-62.4
  0
LINE
  5
2F1
100
AcDbEntity
  8
RACCORDO
100
AcDbLine
 62
7
  6
CONTINUOUS
 10
-111.0
 20
2.6
 11
-111.0
 21
2.1
  0
LINE
  5
2F2
100
AcDbEntity
  8
RACCORDO
100
AcDbLine
 62
7
  6
CONTINUOUS
 10
-111.0
 20
2.975
 11
-111.0
 21
3.475
  0
LINE
  5
2F3
100
AcDbEntity
  8
RACCORDO
100
AcDbLine
 62
7
  6
CONTINUOUS
 10
-111.0
 20
3.975
 11
-111.0
 21
4.475
  0
LINE
  5
2F4
100
AcDbEntity
  8
RACCORDO
100
AcDbLine
 62
7
  6
CONTINUOUS
 10
-110.0
 20
69.725
 11
-110.0
 21
68.975
  0
LINE
  5
2F5
100
AcDbEntity
  8
RACCORDO
100
AcDbLine
 62
7
  6
CONTINUOUS
 10
-110.0
 20
-64.15
 11
-110.0
 21
-63.4
  0
LINE
  5
2F6
100
AcDbEntity
  8
RACCORDO
100
AcDbLine
 62
7
  6
CONTINUOUS
 10
-110.0
 20
-63.15
 11
-110.0
 21
-62.4
  0
LINE
  5
2F7
100
AcDbEntity
  8
RACCORDO
100
AcDbLine
 62
7
  6
CONTINUOUS
 10
-110.0
 20
2.1
 11
-110.0
 21
3.475
  0
LINE
  5
2F8
100
AcDbEntity
  8
RACCORDO
100
AcDbLine
 62
7
  6
CONTINUOUS
 10
-110.0
 20
3.725
 11
-110.0
 21
4.475
  0
LINE
  5
2F9
100
AcDbEntity
  8
RACCORDO
100
AcDbLine
 62
253
  6
CONTINUOUS
 10
-108.5
 20
69.725
 11
-108.5
 21
68.975
  0
LINE
  5
2FA
100
AcDbEntity
  8
RACCORDO
100
AcDbLine
 62
253
  6
CONTINUOUS
 10
-108.5
 20
-64.15
 11
-108.5
 21
-63.4
  0
LINE
  5
2FB
100
AcDbEntity
  8
RACCORDO
100
AcDbLine
 62
253
  6
CONTINUOUS
 10
-108.5
 20
-63.15
 11
-108.5
 21
-62.4
  0
LINE
  5
2FC
100
AcDbEntity
  8
RACCORDO
100
AcDbLine
 62
253
  6
CONTINUOUS
 10
-108.5
 20
2.1
 11
-108.5
 21
3.475
  0
LINE
  5
2FD
100
AcDbEntity
  8
RACCORDO
100
AcDbLine
 62
253
  6
CONTINUOUS
 10
-108.5
 20
3.725
 11
-108.5
 21
4.475
  0
LINE
  5
2FE
100
AcDbEntity
  8
RACCORDO
100
AcDbLine
 62
7
  6
CONTINUOUS
 10
-119.0675675676
 20
48.2824324324
 11
-119.0
 21
48.35
  0
LINE
  5
2FF
100
AcDbEntity
  8
RACCORDO
100
AcDbLine
 62
7
  6
CONTINUOUS
 10
-113.4324324324
 20
53.9175675676
 11
-113.5
 21
53.85
  0
LINE
  5
300
100
AcDbEntity
  8
0
100
AcDbLine
 62
7
  6
CONTINUOUS
 10
-202.05
 20
5.1333333333
 11
-202.55
 21
4.85
  0
LINE
  5
301
100
AcDbEntity
  8
0
100
AcDbLine
 62
7
  6
CONTINUOUS
 10
157.7
 20
-203.475
 11
156.225
 21
-202.725
  0
LINE
  5
302
100
AcDbEntity
  8
0
100
AcDbLine
 62
7
  6
CONTINUOUS
 10
-202.05
 20
-2.5833333333
 11
-202.55
 21
-2.3
  0
LINE
  5
303
100
AcDbEntity
  8
RACCORDO
100
AcDbLine
 62
7
  6
CONTINUOUS
 10
-113.5
 20
-47.275
 11
-113.4324324324
 21
-47.3425675676
  0
LINE
  5
304
100
AcDbEntity
  8
RACCORDO
100
AcDbLine
 62
7
  6
CONTINUOUS
 10
-119.0
 20
-41.775
 11
-119.0675675676
 21
-41.7074324324
  0
LINE
  5
305
100
AcDbEntity
  8
RACCORDO
100
AcDbLine
 62
7
  6
CONTINUOUS
 10
-119.0675675676
 20
19.5324324324
 11
-119.0
 21
19.6
  0
LINE
  5
306
100
AcDbEntity
  8
RACCORDO
100
AcDbLine
 62
7
  6
CONTINUOUS
 10
-113.4324324324
 20
25.1675675676
 11
-113.5
 21
25.1
  0
LINE
  5
307
100
AcDbEntity
  8
RACCORDO
100
AcDbLine
 62
7
  6
CONTINUOUS
 10
-119.25
 20
53.85
 11
-118.575
 21
54.1
  0
LINE
  5
308
100
AcDbEntity
  8
RACCORDO
100
AcDbLine
 62
7
  6
CONTINUOUS
 10
-113.25
 20
48.35
 11
-113.925
 21
48.1
  0
LINE
  5
309
100
AcDbEntity
  8
ASSI
100
AcDbLine
 62
7
  6
CONTINUOUS
 10
-119.5
 20
51.6
 11
-119.1168000014
 21
51.735329269
  0
LINE
  5
30A
100
AcDbEntity
  8
RACCORDO
100
AcDbLine
 62
7
  6
CONTINUOUS
 10
-113.3831999986
 20
52.489670731
 11
-113.0669872981
 21
52.6013430529
  0
LINE
  5
30B
100
AcDbEntity
  8
RACCORDO
100
AcDbLine
 62
7
  6
CONTINUOUS
 10
-119.1168000014
 20
49.710329269
 11
-119.4330127019
 21
49.5986569471
  0
LINE
  5
30C
100
AcDbEntity
  8
ASSI
100
AcDbLine
 62
7
  6
CONTINUOUS
 10
-113.0
 20
50.6
 11
-113.3831999986
 21
50.464670731
  0
LINE
  5
30D
100
AcDbEntity
  8
ASSI
100
AcDbLine
 62
7
  6
CONTINUOUS
 10
-119.1168000014
 20
-45.160329269
 11
-119.5
 21
-45.025
  0
LINE
  5
30E
100
AcDbEntity
  8
RACCORDO
100
AcDbLine
 62
7
  6
CONTINUOUS
 10
-113.3831999986
 20
-45.914670731
 11
-113.0669872981
 21
-46.0263430529
  0
LINE
  5
30F
100
AcDbEntity
  8
RACCORDO
100
AcDbLine
 62
7
  6
CONTINUOUS
 10
-119.1168000014
 20
-43.135329269
 11
-119.4330127019
 21
-43.0236569471
  0
LINE
  5
310
100
AcDbEntity
  8
ASSI
100
AcDbLine
 62
7
  6
CONTINUOUS
 10
-113.3831999986
 20
-43.889670731
 11
-113.0
 21
-44.025
  0
LINE
  5
311
100
AcDbEntity
  8
RACCORDO
100
AcDbLine
 62
7
  6
CONTINUOUS
 10
-118.575
 20
-47.525
 11
-119.25
 21
-47.275
  0
LWPOLYLINE
  5
312
100
AcDbEntity
  8
RACCORDO
100
AcDbPolyline
 62
253
  6
CONTINUOUS
 90
7
 70
0
 10
155.2383462705
 20
-202.0858153548
 10
155.2343303572
 20
-202.0835179385
 10
155.2306899669
 20
-202.0812690803
 10
155.2274175181
 20
-202.0790693839
 10
155.2245048191
 20
-202.0769192431
 10
155.2219430633
 20
-202.074818839
 10
155.2197228238
 20
-202.0727681381
  0
LWPOLYLINE
  5
313
100
AcDbEntity
  8
RACCORDO
100
AcDbPolyline
 62
253
  6
CONTINUOUS
 90
6
 70
0
 10
155.2912331134
 20
-202.1284343179
 10
155.3491490221
 20
-202.1639210582
 10
155.4111392578
 20
-202.1916892043
 10
155.4761810524
 20
-202.2112806134
 10
155.5432012908
 20
-202.2223720495
 10
155.5947345682
 20
-202.2249987927
  0
LINE
  5
314
100
AcDbEntity
  8
RACCORDO
100
AcDbLine
 62
7
  6
CONTINUOUS
 10
-113.5
 20
-18.525
 11
-113.4324324324
 21
-18.5925675676
  0
LINE
  5
315
100
AcDbEntity
  8
RACCORDO
100
AcDbLine
 62
7
  6
CONTINUOUS
 10
-119.0
 20
-13.025
 11
-119.0675675676
 21
-12.9574324324
  0
LINE
  5
316
100
AcDbEntity
  8
0
100
AcDbLine
 62
7
  6
CONTINUOUS
 10
-75.0
 20
180.525
 11
-75.0
 21
130.525
  0
LINE
  5
317
100
AcDbEntity
  8
RACCORDO
100
AcDbLine
 62
7
  6
CONTINUOUS
 10
-119.0675675676
 20
-18.5925675676
 11
-119.0
 21
-18.525
  0
LINE
  5
318
100
AcDbEntity
  8
RACCORDO
100
AcDbLine
 62
7
  6
CONTINUOUS
 10
-113.4324324324
 20
-12.9574324324
 11
-113.5
 21
-13.025
  0
LINE
  5
319
100
AcDbEntity
  8
RACCORDO
100
AcDbLine
 62
7
  6
CONTINUOUS
 10
-119.25
 20
25.1
 11
-118.575
 21
25.35
  0
LINE
  5
31A
100
AcDbEntity
  8
ASSI
100
AcDbLine
 62
7
  6
CONTINUOUS
 10
-119.5
 20
22.85
 11
-119.1168000014
 21
22.985329269
  0
LINE
  5
31B
100
AcDbEntity
  8
RACCORDO
100
AcDbLine
 62
7
  6
CONTINUOUS
 10
-113.3831999986
 20
23.739670731
 11
-113.0669872981
 21
23.8513430529
  0
LINE
  5
31C
100
AcDbEntity
  8
RACCORDO
100
AcDbLine
 62
7
  6
CONTINUOUS
 10
-119.1168000014
 20
20.960329269
 11
-119.4330127019
 21
20.8486569471
  0
LINE
  5
31D
100
AcDbEntity
  8
0
100
AcDbLine
 62
7
  6
CONTINUOUS
 10
-112.5
 20
-64.975
 11
112.5
 21
-64.975
  0
LINE
  5
31E
100
AcDbEntity
  8
RACCORDO
100
AcDbLine
 62
7
  6
CONTINUOUS
 10
-112.5
 20
-64.15
 11
-111.25
 21
-64.15
  0
LINE
  5
31F
100
AcDbEntity
  8
RACCORDO
100
AcDbLine
 62
7
  6
CONTINUOUS
 10
110.0
 20
-64.15
 11
-110.0
 21
-64.15
  0
LINE
  5
320
100
AcDbEntity
  8
RACCORDO
100
AcDbLine
 62
7
  6
CONTINUOUS
 10
111.25
 20
-64.15
 11
112.5
 21
-64.15
  0
LINE
  5
321
100
AcDbEntity
  8
RACCORDO
100
AcDbLine
 62
7
  6
CONTINUOUS
 10
-110.0
 20
-63.4
 11
110.0
 21
-63.4
  0
LINE
  5
322
100
AcDbEntity
  8
RACCORDO
100
AcDbLine
 62
7
  6
CONTINUOUS
 10
-112.5
 20
-63.15
 11
-111.25
 21
-63.15
  0
LINE
  5
323
100
AcDbEntity
  8
RACCORDO
100
AcDbLine
 62
7
  6
CONTINUOUS
 10
-110.75
 20
-63.15
 11
-110.1999967498
 21
-63.15
  0
LINE
  5
324
100
AcDbEntity
  8
RACCORDO
100
AcDbLine
 62
253
  6
CONTINUOUS
 10
110.1999967498
 20
-63.15
 11
110.0
 21
-63.15
  0
LINE
  5
325
100
AcDbEntity
  8
RACCORDO
100
AcDbLine
 62
7
  6
CONTINUOUS
 10
110.0
 20
-63.15
 11
-110.0
 21
-63.15
  0
LINE
  5
326
100
AcDbEntity
  8
RACCORDO
100
AcDbLine
 62
7
  6
CONTINUOUS
 10
110.1999967498
 20
-63.15
 11
110.75
 21
-63.15
  0
LINE
  5
327
100
AcDbEntity
  8
RACCORDO
100
AcDbLine
 62
253
  6
CONTINUOUS
 10
-110.0
 20
-63.15
 11
-110.1999967498
 21
-63.15
  0
LINE
  5
328
100
AcDbEntity
  8
RACCORDO
100
AcDbLine
 62
7
  6
CONTINUOUS
 10
111.25
 20
-63.15
 11
112.5
 21
-63.15
  0
LINE
  5
329
100
AcDbEntity
  8
RACCORDO
100
AcDbLine
 62
7
  6
CONTINUOUS
 10
110.0
 20
-62.4
 11
-110.0
 21
-62.4
  0
LINE
  5
32A
100
AcDbEntity
  8
RACCORDO
100
AcDbLine
 62
7
  6
CONTINUOUS
 10
-110.75
 20
-62.15
 11
-110.1999967498
 21
-62.15
  0
LINE
  5
32B
100
AcDbEntity
  8
RACCORDO
100
AcDbLine
 62
7
  6
CONTINUOUS
 10
110.1999967498
 20
-62.15
 11
110.75
 21
-62.15
  0
LINE
  5
32C
100
AcDbEntity
  8
RACCORDO
100
AcDbLine
 62
253
  6
CONTINUOUS
 10
110.1999967498
 20
-62.15
 11
-110.1999967498
 21
-62.15
  0
LINE
  5
32D
100
AcDbEntity
  8
RACCORDO
100
AcDbLine
 62
7
  6
CONTINUOUS
 10
-113.925
 20
-41.525
 11
-113.25
 21
-41.775
  0
LINE
  5
32E
100
AcDbEntity
  8
RACCORDO
100
AcDbLine
 62
7
  6
CONTINUOUS
 10
-118.575
 20
-18.775
 11
-119.25
 21
-18.525
  0
LINE
  5
32F
100
AcDbEntity
  8
RACCORDO
100
AcDbLine
 62
253
  6
CONTINUOUS
 10
155.2383470778
 20
-202.0858144742
 11
155.2912331134
 21
-202.1284343179
  0
LINE
  5
330
100
AcDbEntity
  8
RACCORDO
100
AcDbLine
 62
7
  6
CONTINUOUS
 10
-113.5
 20
19.6
 11
-113.4324324324
 21
19.5324324324
  0
LINE
  5
331
100
AcDbEntity
  8
RACCORDO
100
AcDbLine
 62
7
  6
CONTINUOUS
 10
-119.0
 20
25.1
 11
-119.0675675676
 21
25.1675675676
  0
LINE
  5
332
100
AcDbEntity
  8
RACCORDO
100
AcDbLine
 62
7
  6
CONTINUOUS
 10
-119.0675675676
 20
-47.3425675676
 11
-119.0
 21
-47.275
  0
LINE
  5
333
100
AcDbEntity
  8
RACCORDO
100
AcDbLine
 62
7
  6
CONTINUOUS
 10
-113.4324324324
 20
-41.7074324324
 11
-113.5
 21
-41.775
  0
LINE
  5
334
100
AcDbEntity
  8
RACCORDO
100
AcDbLine
 62
7
  6
CONTINUOUS
 10
-113.25
 20
19.6
 11
-113.925
 21
19.35
  0
LINE
  5
335
100
AcDbEntity
  8
ASSI
100
AcDbLine
 62
7
  6
CONTINUOUS
 10
-113.0
 20
21.85
 11
-113.3831999986
 21
21.714670731
  0
LINE
  5
336
100
AcDbEntity
  8
0
100
AcDbLine
 62
7
  6
CONTINUOUS
 10
-118.5
 20
-54.9
 11
-114.0
 21
-54.9
  0
LINE
  5
337
100
AcDbEntity
  8
0
100
AcDbLine
 62
7
  6
CONTINUOUS
 10
114.0
 20
-54.9
 11
118.5
 21
-54.9
  0
LINE
  5
338
100
AcDbEntity
  8
ASSI
100
AcDbLine
 62
7
  6
CONTINUOUS
 10
-117.125
 20
-50.95
 11
-115.375
 21
-50.95
  0
LINE
  5
339
100
AcDbEntity
  8
ASSI
100
AcDbLine
 62
7
  6
CONTINUOUS
 10
115.375
 20
-50.95
 11
117.125
 21
-50.95
  0
LINE
  5
33A
100
AcDbEntity
  8
0
100
AcDbLine
 62
7
  6
CONTINUOUS
 10
-118.1022588698
 20
-50.65
 11
-114.3977411302
 21
-50.65
  0
LINE
  5
33B
100
AcDbEntity
  8
0
100
AcDbLine
 62
7
  6
CONTINUOUS
 10
114.3977411302
 20
-50.65
 11
118.1022588698
 21
-50.65
  0
LINE
  5
33C
100
AcDbEntity
  8
0
100
AcDbLine
 62
7
  6
CONTINUOUS
 10
118.5
 20
-50.4
 11
114.0
 21
-50.4
  0
LINE
  5
33D
100
AcDbEntity
  8
0
100
AcDbLine
 62
7
  6
CONTINUOUS
 10
-114.0
 20
-50.4
 11
-118.5
 21
-50.4
  0
LINE
  5
33E
100
AcDbEntity
  8
RACCORDO
100
AcDbLine
 62
7
  6
CONTINUOUS
 10
-118.575
 20
-47.775
 11
-113.925
 21
-47.775
  0
LINE
  5
33F
100
AcDbEntity
  8
RACCORDO
100
AcDbLine
 62
7
  6
CONTINUOUS
 10
113.925
 20
-47.775
 11
118.575
 21
-47.775
  0
LINE
  5
340
100
AcDbEntity
  8
RACCORDO
100
AcDbLine
 62
7
  6
CONTINUOUS
 10
119.5
 20
-47.275
 11
119.25
 21
-47.275
  0
LINE
  5
341
100
AcDbEntity
  8
RACCORDO
100
AcDbLine
 62
253
  6
CONTINUOUS
 10
-119.0
 20
-47.275
 11
-113.5
 21
-47.275
  0
LINE
  5
342
100
AcDbEntity
  8
RACCORDO
100
AcDbLine
 62
7
  6
CONTINUOUS
 10
113.25
 20
-47.275
 11
113.0
 21
-47.275
  0
LINE
  5
343
100
AcDbEntity
  8
RACCORDO
100
AcDbLine
 62
7
  6
CONTINUOUS
 10
-113.0
 20
-47.275
 11
-113.25
 21
-47.275
  0
LINE
  5
344
100
AcDbEntity
  8
RACCORDO
100
AcDbLine
 62
253
  6
CONTINUOUS
 10
113.5
 20
-47.275
 11
119.0
 21
-47.275
  0
LINE
  5
345
100
AcDbEntity
  8
RACCORDO
100
AcDbLine
 62
7
  6
CONTINUOUS
 10
-119.25
 20
-47.275
 11
-119.5
 21
-47.275
  0
LINE
  5
346
100
AcDbEntity
  8
RACCORDO
100
AcDbLine
 62
7
  6
CONTINUOUS
 10
-113.0669872981
 20
-46.05
 11
-113.0
 21
-46.05
  0
LINE
  5
347
100
AcDbEntity
  8
RACCORDO
100
AcDbLine
 62
7
  6
CONTINUOUS
 10
113.0669872981
 20
-46.05
 11
113.0
 21
-46.05
  0
LINE
  5
348
100
AcDbEntity
  8
RACCORDO
100
AcDbLine
 62
7
  6
CONTINUOUS
 10
-119.4330127019
 20
-46.05
 11
-119.5
 21
-46.05
  0
LINE
  5
349
100
AcDbEntity
  8
RACCORDO
100
AcDbLine
 62
7
  6
CONTINUOUS
 10
119.4330127019
 20
-46.05
 11
119.5
 21
-46.05
  0
LINE
  5
34A
100
AcDbEntity
  8
RACCORDO
100
AcDbLine
 62
7
  6
CONTINUOUS
 10
-113.0669872981
 20
-43.0
 11
-113.0
 21
-43.0
  0
LINE
  5
34B
100
AcDbEntity
  8
RACCORDO
100
AcDbLine
 62
7
  6
CONTINUOUS
 10
113.0669872981
 20
-43.0
 11
113.0
 21
-43.0
  0
LINE
  5
34C
100
AcDbEntity
  8
RACCORDO
100
AcDbLine
 62
7
  6
CONTINUOUS
 10
-119.4330127019
 20
-43.0
 11
-119.5
 21
-43.0
  0
LINE
  5
34D
100
AcDbEntity
  8
RACCORDO
100
AcDbLine
 62
7
  6
CONTINUOUS
 10
119.4330127019
 20
-43.0
 11
119.5
 21
-43.0
  0
LINE
  5
34E
100
AcDbEntity
  8
RACCORDO
100
AcDbLine
 62
7
  6
CONTINUOUS
 10
-119.5
 20
-41.775
 11
-119.25
 21
-41.775
  0
LINE
  5
34F
100
AcDbEntity
  8
RACCORDO
100
AcDbLine
 62
253
  6
CONTINUOUS
 10
119.0
 20
-41.775
 11
113.5
 21
-41.775
  0
LINE
  5
350
100
AcDbEntity
  8
RACCORDO
100
AcDbLine
 62
7
  6
CONTINUOUS
 10
-113.25
 20
-41.775
 11
-113.0
 21
-41.775
  0
LINE
  5
351
100
AcDbEntity
  8
RACCORDO
100
AcDbLine
 62
7
  6
CONTINUOUS
 10
113.0
 20
-41.775
 11
113.25
 21
-41.775
  0
LINE
  5
352
100
AcDbEntity
  8
RACCORDO
100
AcDbLine
 62
253
  6
CONTINUOUS
 10
-113.5
 20
-41.775
 11
-119.0
 21
-41.775
  0
LINE
  5
353
100
AcDbEntity
  8
RACCORDO
100
AcDbLine
 62
7
  6
CONTINUOUS
 10
119.25
 20
-41.775
 11
119.5
 21
-41.775
  0
LINE
  5
354
100
AcDbEntity
  8
RACCORDO
100
AcDbLine
 62
7
  6
CONTINUOUS
 10
118.575
 20
-41.275
 11
113.925
 21
-41.275
  0
LINE
  5
355
100
AcDbEntity
  8
RACCORDO
100
AcDbLine
 62
7
  6
CONTINUOUS
 10
-113.925
 20
-41.275
 11
-118.575
 21
-41.275
  0
LINE
  5
356
100
AcDbEntity
  8
ASSI
100
AcDbLine
 62
7
  6
CONTINUOUS
 10
-119.1168000014
 20
-16.410329269
 11
-119.5
 21
-16.275
  0
LINE
  5
357
100
AcDbEntity
  8
RACCORDO
100
AcDbLine
 62
7
  6
CONTINUOUS
 10
-113.3831999986
 20
-17.164670731
 11
-113.0669872981
 21
-17.2763430529
  0
LINE
  5
358
100
AcDbEntity
  8
RACCORDO
100
AcDbLine
 62
7
  6
CONTINUOUS
 10
-119.1168000014
 20
-14.385329269
 11
-119.4330127019
 21
-14.2736569471
  0
LINE
  5
359
100
AcDbEntity
  8
ASSI
100
AcDbLine
 62
7
  6
CONTINUOUS
 10
-113.3831999986
 20
-15.139670731
 11
-113.0
 21
-15.275
  0
LINE
  5
35A
100
AcDbEntity
  8
RACCORDO
100
AcDbLine
 62
7
  6
CONTINUOUS
 10
-113.925
 20
-12.775
 11
-113.25
 21
-13.025
  0
LINE
  5
35B
100
AcDbEntity
  8
RACCORDO
100
AcDbLine
 62
7
  6
CONTINUOUS
 10
-113.5
 20
48.35
 11
-113.4324324324
 21
48.2824324324
  0
LINE
  5
35C
100
AcDbEntity
  8
RACCORDO
100
AcDbLine
 62
7
  6
CONTINUOUS
 10
-119.0
 20
53.85
 11
-119.0675675676
 21
53.9175675676
  0
LINE
  5
35D
100
AcDbEntity
  8
0
100
AcDbLine
 62
7
  6
CONTINUOUS
 10
158.45
 20
202.875
 11
159.2
 21
203.675
  0
LINE
  5
35E
100
AcDbEntity
  8
RACCORDO
100
AcDbLine
 62
7
  6
CONTINUOUS
 10
-119.25
 20
-13.025
 11
-118.575
 21
-12.775
  0
LINE
  5
35F
100
AcDbEntity
  8
RACCORDO
100
AcDbLine
 62
7
  6
CONTINUOUS
 10
-113.25
 20
-18.525
 11
-113.925
 21
-18.775
  0
LINE
  5
360
100
AcDbEntity
  8
ASSI
100
AcDbLine
 62
7
  6
CONTINUOUS
 10
-119.5
 20
-15.275
 11
-119.1168000014
 21
-15.139670731
  0
LINE
  5
361
100
AcDbEntity
  8
RACCORDO
100
AcDbLine
 62
7
  6
CONTINUOUS
 10
-113.3831999986
 20
-14.385329269
 11
-113.0669872981
 21
-14.2736569471
  0
LINE
  5
362
100
AcDbEntity
  8
RACCORDO
100
AcDbLine
 62
7
  6
CONTINUOUS
 10
-119.1168000014
 20
-17.164670731
 11
-119.4330127019
 21
-17.2763430529
  0
LINE
  5
363
100
AcDbEntity
  8
ASSI
100
AcDbLine
 62
7
  6
CONTINUOUS
 10
-113.0
 20
-16.275
 11
-113.3831999986
 21
-16.410329269
  0
LINE
  5
364
100
AcDbEntity
  8
RACCORDO
100
AcDbLine
 62
7
  6
CONTINUOUS
 10
-118.575
 20
-19.025
 11
-113.925
 21
-19.025
  0
LINE
  5
365
100
AcDbEntity
  8
RACCORDO
100
AcDbLine
 62
7
  6
CONTINUOUS
 10
113.925
 20
-19.025
 11
118.575
 21
-19.025
  0
LINE
  5
366
100
AcDbEntity
  8
RACCORDO
100
AcDbLine
 62
7
  6
CONTINUOUS
 10
119.5
 20
-18.525
 11
119.25
 21
-18.525
  0
LINE
  5
367
100
AcDbEntity
  8
RACCORDO
100
AcDbLine
 62
253
  6
CONTINUOUS
 10
-119.0
 20
-18.525
 11
-113.5
 21
-18.525
  0
LINE
  5
368
100
AcDbEntity
  8
RACCORDO
100
AcDbLine
 62
7
  6
CONTINUOUS
 10
113.25
 20
-18.525
 11
113.0
 21
-18.525
  0
LINE
  5
369
100
AcDbEntity
  8
RACCORDO
100
AcDbLine
 62
7
  6
CONTINUOUS
 10
-113.0
 20
-18.525
 11
-113.25
 21
-18.525
  0
LINE
  5
36A
100
AcDbEntity
  8
RACCORDO
100
AcDbLine
 62
253
  6
CONTINUOUS
 10
113.5
 20
-18.525
 11
119.0
 21
-18.525
  0
LINE
  5
36B
100
AcDbEntity
  8
RACCORDO
100
AcDbLine
 62
7
  6
CONTINUOUS
 10
-119.25
 20
-18.525
 11
-119.5
 21
-18.525
  0
LINE
  5
36C
100
AcDbEntity
  8
ASSI
100
AcDbLine
 62
7
  6
CONTINUOUS
 10
-119.1168000014
 20
21.714670731
 11
-119.5
 21
21.85
  0
LINE
  5
36D
100
AcDbEntity
  8
RACCORDO
100
AcDbLine
 62
7
  6
CONTINUOUS
 10
-113.3831999986
 20
20.960329269
 11
-113.0669872981
 21
20.8486569471
  0
LINE
  5
36E
100
AcDbEntity
  8
RACCORDO
100
AcDbLine
 62
7
  6
CONTINUOUS
 10
-118.575
 20
19.35
 11
-119.25
 21
19.6
  0
LINE
  5
36F
100
AcDbEntity
  8
RACCORDO
100
AcDbLine
 62
7
  6
CONTINUOUS
 10
155.2197094757
 20
-202.0727543879
 11
152.8999821513
 21
-199.798511913
  0
LINE
  5
370
100
AcDbEntity
  8
CURVE
100
AcDbLine
 62
252
  6
CONTINUOUS
 10
152.825
 20
-199.725
 11
155.375
 21
-202.225
  0
LINE
  5
371
100
AcDbEntity
  8
RACCORDO
100
AcDbLine
 62
7
  6
CONTINUOUS
 10
113.25
 20
53.85
 11
113.925
 21
54.1
  0
LINE
  5
372
100
AcDbEntity
  8
RACCORDO
100
AcDbLine
 62
7
  6
CONTINUOUS
 10
119.25
 20
48.35
 11
118.575
 21
48.1
  0
LINE
  5
373
100
AcDbEntity
  8
RACCORDO
100
AcDbLine
 62
7
  6
CONTINUOUS
 10
-119.25
 20
-41.775
 11
-118.575
 21
-41.525
  0
LINE
  5
374
100
AcDbEntity
  8
ASSI
100
AcDbLine
 62
7
  6
CONTINUOUS
 10
113.0
 20
51.6
 11
113.3831999986
 21
51.735329269
  0
LINE
  5
375
100
AcDbEntity
  8
RACCORDO
100
AcDbLine
 62
7
  6
CONTINUOUS
 10
119.1168000014
 20
52.489670731
 11
119.4330127019
 21
52.6013430529
  0
LINE
  5
376
100
AcDbEntity
  8
RACCORDO
100
AcDbLine
 62
7
  6
CONTINUOUS
 10
113.3831999986
 20
49.710329269
 11
113.0669872981
 21
49.5986569471
  0
LINE
  5
377
100
AcDbEntity
  8
ASSI
100
AcDbLine
 62
7
  6
CONTINUOUS
 10
119.5
 20
50.6
 11
119.1168000014
 21
50.464670731
  0
LINE
  5
378
100
AcDbEntity
  8
ASSI
100
AcDbLine
 62
7
  6
CONTINUOUS
 10
-119.5
 20
-44.025
 11
-119.1168000014
 21
-43.889670731
  0
LINE
  5
379
100
AcDbEntity
  8
RACCORDO
100
AcDbLine
 62
7
  6
CONTINUOUS
 10
-113.0669872981
 20
-17.3
 11
-113.0
 21
-17.3
  0
LINE
  5
37A
100
AcDbEntity
  8
RACCORDO
100
AcDbLine
 62
7
  6
CONTINUOUS
 10
113.0669872981
 20
-17.3
 11
113.0
 21
-17.3
  0
LINE
  5
37B
100
AcDbEntity
  8
RACCORDO
100
AcDbLine
 62
7
  6
CONTINUOUS
 10
-119.4330127019
 20
-17.3
 11
-119.5
 21
-17.3
  0
LINE
  5
37C
100
AcDbEntity
  8
RACCORDO
100
AcDbLine
 62
7
  6
CONTINUOUS
 10
119.4330127019
 20
-17.3
 11
119.5
 21
-17.3
  0
LINE
  5
37D
100
AcDbEntity
  8
RACCORDO
100
AcDbLine
 62
7
  6
CONTINUOUS
 10
-113.0669872981
 20
-14.25
 11
-113.0
 21
-14.25
  0
LINE
  5
37E
100
AcDbEntity
  8
RACCORDO
100
AcDbLine
 62
7
  6
CONTINUOUS
 10
113.0669872981
 20
-14.25
 11
113.0
 21
-14.25
  0
LINE
  5
37F
100
AcDbEntity
  8
RACCORDO
100
AcDbLine
 62
7
  6
CONTINUOUS
 10
-119.4330127019
 20
-14.25
 11
-119.5
 21
-14.25
  0
LINE
  5
380
100
AcDbEntity
  8
RACCORDO
100
AcDbLine
 62
7
  6
CONTINUOUS
 10
119.4330127019
 20
-14.25
 11
119.5
 21
-14.25
  0
LINE
  5
381
100
AcDbEntity
  8
RACCORDO
100
AcDbLine
 62
7
  6
CONTINUOUS
 10
-119.5
 20
-13.025
 11
-119.25
 21
-13.025
  0
LINE
  5
382
100
AcDbEntity
  8
RACCORDO
100
AcDbLine
 62
253
  6
CONTINUOUS
 10
119.0
 20
-13.025
 11
113.5
 21
-13.025
  0
LINE
  5
383
100
AcDbEntity
  8
RACCORDO
100
AcDbLine
 62
7
  6
CONTINUOUS
 10
-113.25
 20
-13.025
 11
-113.0
 21
-13.025
  0
LINE
  5
384
100
AcDbEntity
  8
RACCORDO
100
AcDbLine
 62
7
  6
CONTINUOUS
 10
113.0
 20
-13.025
 11
113.25
 21
-13.025
  0
LINE
  5
385
100
AcDbEntity
  8
RACCORDO
100
AcDbLine
 62
253
  6
CONTINUOUS
 10
-113.5
 20
-13.025
 11
-119.0
 21
-13.025
  0
LINE
  5
386
100
AcDbEntity
  8
RACCORDO
100
AcDbLine
 62
7
  6
CONTINUOUS
 10
119.25
 20
-13.025
 11
119.5
 21
-13.025
  0
LINE
  5
387
100
AcDbEntity
  8
RACCORDO
100
AcDbLine
 62
7
  6
CONTINUOUS
 10
118.575
 20
-12.525
 11
113.925
 21
-12.525
  0
LINE
  5
388
100
AcDbEntity
  8
RACCORDO
100
AcDbLine
 62
7
  6
CONTINUOUS
 10
-113.925
 20
-12.525
 11
-118.575
 21
-12.525
  0
LINE
  5
389
100
AcDbEntity
  8
0
100
AcDbLine
 62
7
  6
CONTINUOUS
 10
-118.5
 20
-9.9
 11
-114.0
 21
-9.9
  0
LINE
  5
38A
100
AcDbEntity
  8
0
100
AcDbLine
 62
7
  6
CONTINUOUS
 10
114.0
 20
-9.9
 11
118.5
 21
-9.9
  0
LINE
  5
38B
100
AcDbEntity
  8
ASSI
100
AcDbLine
 62
7
  6
CONTINUOUS
 10
117.125
 20
-9.35
 11
115.375
 21
-9.35
  0
LINE
  5
38C
100
AcDbEntity
  8
ASSI
100
AcDbLine
 62
7
  6
CONTINUOUS
 10
-115.375
 20
-9.35
 11
-117.125
 21
-9.35
  0
LINE
  5
38D
100
AcDbEntity
  8
0
100
AcDbLine
 62
7
  6
CONTINUOUS
 10
118.5
 20
-5.4
 11
114.0
 21
-5.4
  0
LINE
  5
38E
100
AcDbEntity
  8
0
100
AcDbLine
 62
7
  6
CONTINUOUS
 10
-114.0
 20
-5.4
 11
-118.5
 21
-5.4
  0
LINE
  5
38F
100
AcDbEntity
  8
0
100
AcDbLine
 62
7
  6
CONTINUOUS
 10
200.0
 20
-4.225
 11
201.25
 21
-4.225
  0
LINE
  5
390
100
AcDbEntity
  8
0
100
AcDbLine
 62
7
  6
CONTINUOUS
 10
-200.0
 20
-4.225
 11
-201.25
 21
-4.225
  0
LINE
  5
391
100
AcDbEntity
  8
0
100
AcDbLine
 62
7
  6
CONTINUOUS
 10
202.55
 20
0.775
 11
215.95
 21
0.775
  0
LINE
  5
392
100
AcDbEntity
  8
0
100
AcDbLine
 62
7
  6
CONTINUOUS
 10
-202.55
 20
0.775
 11
-215.95
 21
0.775
  0
LINE
  5
393
100
AcDbEntity
  8
0
100
AcDbLine
 62
7
  6
CONTINUOUS
 10
202.55
 20
1.775
 11
215.95
 21
1.775
  0
LINE
  5
394
100
AcDbEntity
  8
0
100
AcDbLine
 62
7
  6
CONTINUOUS
 10
-202.55
 20
1.775
 11
-215.95
 21
1.775
  0
LINE
  5
395
100
AcDbEntity
  8
RACCORDO
100
AcDbLine
 62
7
  6
CONTINUOUS
 10
110.75
 20
1.85
 11
110.1999967498
 21
1.85
  0
LINE
  5
396
100
AcDbEntity
  8
RACCORDO
100
AcDbLine
 62
253
  6
CONTINUOUS
 10
-110.1999967498
 20
1.85
 11
110.1999967498
 21
1.85
  0
LINE
  5
397
100
AcDbEntity
  8
RACCORDO
100
AcDbLine
 62
7
  6
CONTINUOUS
 10
-110.1999967498
 20
1.85
 11
-110.75
 21
1.85
  0
LINE
  5
398
100
AcDbEntity
  8
RACCORDO
100
AcDbLine
 62
7
  6
CONTINUOUS
 10
110.0
 20
2.1
 11
-110.0
 21
2.1
  0
LINE
  5
399
100
AcDbEntity
  8
RACCORDO
100
AcDbLine
 62
7
  6
CONTINUOUS
 10
-119.1168000014
 20
23.739670731
 11
-119.4330127019
 21
23.8513430529
  0
LINE
  5
39A
100
AcDbEntity
  8
ASSI
100
AcDbLine
 62
7
  6
CONTINUOUS
 10
-113.3831999986
 20
22.985329269
 11
-113.0
 21
22.85
  0
LINE
  5
39B
100
AcDbEntity
  8
ASSI
100
AcDbLine
 62
7
  6
CONTINUOUS
 10
113.3831999986
 20
-45.160329269
 11
113.0
 21
-45.025
  0
LINE
  5
39C
100
AcDbEntity
  8
RACCORDO
100
AcDbLine
 62
7
  6
CONTINUOUS
 10
119.1168000014
 20
-45.914670731
 11
119.4330127019
 21
-46.0263430529
  0
LINE
  5
39D
100
AcDbEntity
  8
RACCORDO
100
AcDbLine
 62
7
  6
CONTINUOUS
 10
113.3831999986
 20
-43.135329269
 11
113.0669872981
 21
-43.0236569471
  0
LINE
  5
39E
100
AcDbEntity
  8
ASSI
100
AcDbLine
 62
7
  6
CONTINUOUS
 10
119.1168000014
 20
-43.889670731
 11
119.5
 21
-44.025
  0
LINE
  5
39F
100
AcDbEntity
  8
RACCORDO
100
AcDbLine
 62
7
  6
CONTINUOUS
 10
-113.925
 20
25.35
 11
-113.25
 21
25.1
  0
LINE
  5
3A0
100
AcDbEntity
  8
RACCORDO
100
AcDbLine
 62
7
  6
CONTINUOUS
 10
113.925
 20
-47.525
 11
113.25
 21
-47.275
  0
LINE
  5
3A1
100
AcDbEntity
  8
RACCORDO
100
AcDbLine
 62
7
  6
CONTINUOUS
 10
118.575
 20
-41.525
 11
119.25
 21
-41.775
  0
LINE
  5
3A2
100
AcDbEntity
  8
RACCORDO
100
AcDbLine
 62
7
  6
CONTINUOUS
 10
-113.25
 20
-47.275
 11
-113.925
 21
-47.525
  0
LINE
  5
3A3
100
AcDbEntity
  8
RACCORDO
100
AcDbLine
 62
7
  6
CONTINUOUS
 10
113.25
 20
25.1
 11
113.925
 21
25.35
  0
LINE
  5
3A4
100
AcDbEntity
  8
RACCORDO
100
AcDbLine
 62
7
  6
CONTINUOUS
 10
119.25
 20
19.6
 11
118.575
 21
19.35
  0
LINE
  5
3A5
100
AcDbEntity
  8
RACCORDO
100
AcDbLine
 62
7
  6
CONTINUOUS
 10
-113.3831999986
 20
-43.135329269
 11
-113.0669872981
 21
-43.0236569471
  0
LINE
  5
3A6
100
AcDbEntity
  8
RACCORDO
100
AcDbLine
 62
7
  6
CONTINUOUS
 10
-119.1168000014
 20
-45.914670731
 11
-119.4330127019
 21
-46.0263430529
  0
LINE
  5
3A7
100
AcDbEntity
  8
ASSI
100
AcDbLine
 62
7
  6
CONTINUOUS
 10
-113.0
 20
-45.025
 11
-113.3831999986
 21
-45.160329269
  0
LINE
  5
3A8
100
AcDbEntity
  8
ASSI
100
AcDbLine
 62
7
  6
CONTINUOUS
 10
113.0
 20
22.85
 11
113.3831999986
 21
22.985329269
  0
LINE
  5
3A9
100
AcDbEntity
  8
RACCORDO
100
AcDbLine
 62
7
  6
CONTINUOUS
 10
119.1168000014
 20
23.739670731
 11
119.4330127019
 21
23.8513430529
  0
LINE
  5
3AA
100
AcDbEntity
  8
RACCORDO
100
AcDbLine
 62
7
  6
CONTINUOUS
 10
113.3831999986
 20
20.960329269
 11
113.0669872981
 21
20.8486569471
  0
LINE
  5
3AB
100
AcDbEntity
  8
ASSI
100
AcDbLine
 62
7
  6
CONTINUOUS
 10
119.5
 20
21.85
 11
119.1168000014
 21
21.714670731
  0
LINE
  5
3AC
100
AcDbEntity
  8
RACCORDO
100
AcDbLine
 62
7
  6
CONTINUOUS
 10
112.5
 20
2.85
 11
111.25
 21
2.85
  0
LINE
  5
3AD
100
AcDbEntity
  8
RACCORDO
100
AcDbLine
 62
7
  6
CONTINUOUS
 10
-110.0
 20
2.85
 11
110.0
 21
2.85
  0
LINE
  5
3AE
100
AcDbEntity
  8
RACCORDO
100
AcDbLine
 62
7
  6
CONTINUOUS
 10
-111.25
 20
2.85
 11
-112.5
 21
2.85
  0
LINE
  5
3AF
100
AcDbEntity
  8
RACCORDO
100
AcDbLine
 62
7
  6
CONTINUOUS
 10
-110.0
 20
3.475
 11
110.0
 21
3.475
  0
LINE
  5
3B0
100
AcDbEntity
  8
RACCORDO
100
AcDbLine
 62
7
  6
CONTINUOUS
 10
-112.5
 20
3.725
 11
-111.25
 21
3.725
  0
LINE
  5
3B1
100
AcDbEntity
  8
RACCORDO
100
AcDbLine
 62
7
  6
CONTINUOUS
 10
-110.75
 20
3.725
 11
-110.1999967498
 21
3.725
  0
LINE
  5
3B2
100
AcDbEntity
  8
RACCORDO
100
AcDbLine
 62
253
  6
CONTINUOUS
 10
110.1999967498
 20
3.725
 11
110.0
 21
3.725
  0
LINE
  5
3B3
100
AcDbEntity
  8
RACCORDO
100
AcDbLine
 62
7
  6
CONTINUOUS
 10
110.0
 20
3.725
 11
-110.0
 21
3.725
  0
LINE
  5
3B4
100
AcDbEntity
  8
RACCORDO
100
AcDbLine
 62
7
  6
CONTINUOUS
 10
110.1999967498
 20
3.725
 11
110.75
 21
3.725
  0
LINE
  5
3B5
100
AcDbEntity
  8
RACCORDO
100
AcDbLine
 62
253
  6
CONTINUOUS
 10
-110.0
 20
3.725
 11
-110.1999967498
 21
3.725
  0
LINE
  5
3B6
100
AcDbEntity
  8
RACCORDO
100
AcDbLine
 62
7
  6
CONTINUOUS
 10
111.25
 20
3.725
 11
112.5
 21
3.725
  0
LINE
  5
3B7
100
AcDbEntity
  8
RACCORDO
100
AcDbLine
 62
7
  6
CONTINUOUS
 10
110.0
 20
4.475
 11
-110.0
 21
4.475
  0
LINE
  5
3B8
100
AcDbEntity
  8
RACCORDO
100
AcDbLine
 62
7
  6
CONTINUOUS
 10
-110.75
 20
4.725
 11
-110.1999967498
 21
4.725
  0
LINE
  5
3B9
100
AcDbEntity
  8
RACCORDO
100
AcDbLine
 62
7
  6
CONTINUOUS
 10
110.1999967498
 20
4.725
 11
110.75
 21
4.725
  0
LINE
  5
3BA
100
AcDbEntity
  8
RACCORDO
100
AcDbLine
 62
253
  6
CONTINUOUS
 10
110.1999967498
 20
4.725
 11
-110.1999967498
 21
4.725
  0
LINE
  5
3BB
100
AcDbEntity
  8
0
100
AcDbLine
 62
7
  6
CONTINUOUS
 10
200.0
 20
6.775
 11
201.25
 21
6.775
  0
LINE
  5
3BC
100
AcDbEntity
  8
0
100
AcDbLine
 62
7
  6
CONTINUOUS
 10
-200.0
 20
6.775
 11
-201.25
 21
6.775
  0
LINE
  5
3BD
100
AcDbEntity
  8
0
100
AcDbLine
 62
7
  6
CONTINUOUS
 10
-118.5
 20
11.975
 11
-114.0
 21
11.975
  0
LINE
  5
3BE
100
AcDbEntity
  8
0
100
AcDbLine
 62
7
  6
CONTINUOUS
 10
114.0
 20
11.975
 11
118.5
 21
11.975
  0
LINE
  5
3BF
100
AcDbEntity
  8
ASSI
100
AcDbLine
 62
7
  6
CONTINUOUS
 10
-117.125
 20
15.925
 11
-115.375
 21
15.925
  0
LINE
  5
3C0
100
AcDbEntity
  8
ASSI
100
AcDbLine
 62
7
  6
CONTINUOUS
 10
115.375
 20
15.925
 11
117.125
 21
15.925
  0
LINE
  5
3C1
100
AcDbEntity
  8
0
100
AcDbLine
 62
7
  6
CONTINUOUS
 10
-118.1022588698
 20
16.225
 11
-114.3977411302
 21
16.225
  0
LINE
  5
3C2
100
AcDbEntity
  8
0
100
AcDbLine
 62
7
  6
CONTINUOUS
 10
114.3977411302
 20
16.225
 11
118.1022588698
 21
16.225
  0
LINE
  5
3C3
100
AcDbEntity
  8
0
100
AcDbLine
 62
7
  6
CONTINUOUS
 10
118.5
 20
16.475
 11
114.0
 21
16.475
  0
LINE
  5
3C4
100
AcDbEntity
  8
0
100
AcDbLine
 62
7
  6
CONTINUOUS
 10
-114.0
 20
16.475
 11
-118.5
 21
16.475
  0
LINE
  5
3C5
100
AcDbEntity
  8
RACCORDO
100
AcDbLine
 62
7
  6
CONTINUOUS
 10
-118.575
 20
19.1
 11
-113.925
 21
19.1
  0
LINE
  5
3C6
100
AcDbEntity
  8
RACCORDO
100
AcDbLine
 62
7
  6
CONTINUOUS
 10
113.925
 20
19.1
 11
118.575
 21
19.1
  0
LINE
  5
3C7
100
AcDbEntity
  8
RACCORDO
100
AcDbLine
 62
7
  6
CONTINUOUS
 10
119.5
 20
19.6
 11
119.25
 21
19.6
  0
LINE
  5
3C8
100
AcDbEntity
  8
RACCORDO
100
AcDbLine
 62
253
  6
CONTINUOUS
 10
-119.0
 20
19.6
 11
-113.5
 21
19.6
  0
LINE
  5
3C9
100
AcDbEntity
  8
RACCORDO
100
AcDbLine
 62
7
  6
CONTINUOUS
 10
113.25
 20
19.6
 11
113.0
 21
19.6
  0
LINE
  5
3CA
100
AcDbEntity
  8
RACCORDO
100
AcDbLine
 62
7
  6
CONTINUOUS
 10
-113.0
 20
19.6
 11
-113.25
 21
19.6
  0
LINE
  5
3CB
100
AcDbEntity
  8
RACCORDO
100
AcDbLine
 62
253
  6
CONTINUOUS
 10
113.5
 20
19.6
 11
119.0
 21
19.6
  0
LINE
  5
3CC
100
AcDbEntity
  8
RACCORDO
100
AcDbLine
 62
7
  6
CONTINUOUS
 10
-119.25
 20
19.6
 11
-119.5
 21
19.6
  0
LINE
  5
3CD
100
AcDbEntity
  8
RACCORDO
100
AcDbLine
 62
7
  6
CONTINUOUS
 10
-113.0669872981
 20
20.825
 11
-113.0
 21
20.825
  0
LINE
  5
3CE
100
AcDbEntity
  8
RACCORDO
100
AcDbLine
 62
7
  6
CONTINUOUS
 10
113.0669872981
 20
20.825
 11
113.0
 21
20.825
  0
LINE
  5
3CF
100
AcDbEntity
  8
RACCORDO
100
AcDbLine
 62
7
  6
CONTINUOUS
 10
-119.4330127019
 20
20.825
 11
-119.5
 21
20.825
  0
LINE
  5
3D0
100
AcDbEntity
  8
RACCORDO
100
AcDbLine
 62
7
  6
CONTINUOUS
 10
119.4330127019
 20
20.825
 11
119.5
 21
20.825
  0
LINE
  5
3D1
100
AcDbEntity
  8
ASSI
100
AcDbLine
 62
7
  6
CONTINUOUS
 10
-119.1168000014
 20
50.464670731
 11
-119.5
 21
50.6
  0
LINE
  5
3D2
100
AcDbEntity
  8
RACCORDO
100
AcDbLine
 62
7
  6
CONTINUOUS
 10
-113.3831999986
 20
49.710329269
 11
-113.0669872981
 21
49.5986569471
  0
LINE
  5
3D3
100
AcDbEntity
  8
RACCORDO
100
AcDbLine
 62
7
  6
CONTINUOUS
 10
-119.1168000014
 20
52.489670731
 11
-119.4330127019
 21
52.6013430529
  0
LINE
  5
3D4
100
AcDbEntity
  8
ASSI
100
AcDbLine
 62
7
  6
CONTINUOUS
 10
-113.3831999986
 20
51.735329269
 11
-113.0
 21
51.6
  0
LINE
  5
3D5
100
AcDbEntity
  8
ASSI
100
AcDbLine
 62
7
  6
CONTINUOUS
 10
113.3831999986
 20
-16.410329269
 11
113.0
 21
-16.275
  0
LINE
  5
3D6
100
AcDbEntity
  8
RACCORDO
100
AcDbLine
 62
7
  6
CONTINUOUS
 10
-118.575
 20
48.1
 11
-119.25
 21
48.35
  0
LINE
  5
3D7
100
AcDbEntity
  8
RACCORDO
100
AcDbLine
 62
7
  6
CONTINUOUS
 10
-113.925
 20
54.1
 11
-113.25
 21
53.85
  0
LINE
  5
3D8
100
AcDbEntity
  8
RACCORDO
100
AcDbLine
 62
7
  6
CONTINUOUS
 10
113.925
 20
-18.775
 11
113.25
 21
-18.525
  0
LINE
  5
3D9
100
AcDbEntity
  8
0
100
AcDbLine
 62
7
  6
CONTINUOUS
 10
160.0916666667
 20
203.675
 11
160.375
 21
204.175
  0
LINE
  5
3DA
100
AcDbEntity
  8
RACCORDO
100
AcDbLine
 62
7
  6
CONTINUOUS
 10
-113.0669872981
 20
23.875
 11
-113.0
 21
23.875
  0
LINE
  5
3DB
100
AcDbEntity
  8
RACCORDO
100
AcDbLine
 62
7
  6
CONTINUOUS
 10
113.0669872981
 20
23.875
 11
113.0
 21
23.875
  0
LINE
  5
3DC
100
AcDbEntity
  8
RACCORDO
100
AcDbLine
 62
7
  6
CONTINUOUS
 10
-119.4330127019
 20
23.875
 11
-119.5
 21
23.875
  0
LINE
  5
3DD
100
AcDbEntity
  8
RACCORDO
100
AcDbLine
 62
7
  6
CONTINUOUS
 10
119.4330127019
 20
23.875
 11
119.5
 21
23.875
  0
LINE
  5
3DE
100
AcDbEntity
  8
RACCORDO
100
AcDbLine
 62
7
  6
CONTINUOUS
 10
-119.5
 20
25.1
 11
-119.25
 21
25.1
  0
LINE
  5
3DF
100
AcDbEntity
  8
RACCORDO
100
AcDbLine
 62
253
  6
CONTINUOUS
 10
119.0
 20
25.1
 11
113.5
 21
25.1
  0
LINE
  5
3E0
100
AcDbEntity
  8
RACCORDO
100
AcDbLine
 62
7
  6
CONTINUOUS
 10
-113.25
 20
25.1
 11
-113.0
 21
25.1
  0
LINE
  5
3E1
100
AcDbEntity
  8
RACCORDO
100
AcDbLine
 62
7
  6
CONTINUOUS
 10
113.0
 20
25.1
 11
113.25
 21
25.1
  0
LINE
  5
3E2
100
AcDbEntity
  8
RACCORDO
100
AcDbLine
 62
253
  6
CONTINUOUS
 10
-113.5
 20
25.1
 11
-119.0
 21
25.1
  0
LINE
  5
3E3
100
AcDbEntity
  8
RACCORDO
100
AcDbLine
 62
7
  6
CONTINUOUS
 10
119.25
 20
25.1
 11
119.5
 21
25.1
  0
LINE
  5
3E4
100
AcDbEntity
  8
RACCORDO
100
AcDbLine
 62
7
  6
CONTINUOUS
 10
118.575
 20
25.6
 11
113.925
 21
25.6
  0
LINE
  5
3E5
100
AcDbEntity
  8
RACCORDO
100
AcDbLine
 62
7
  6
CONTINUOUS
 10
-113.925
 20
25.6
 11
-118.575
 21
25.6
  0
LINE
  5
3E6
100
AcDbEntity
  8
RACCORDO
100
AcDbLine
 62
7
  6
CONTINUOUS
 10
119.1168000014
 20
-17.164670731
 11
119.4330127019
 21
-17.2763430529
  0
LINE
  5
3E7
100
AcDbEntity
  8
RACCORDO
100
AcDbLine
 62
7
  6
CONTINUOUS
 10
113.3831999986
 20
-14.385329269
 11
113.0669872981
 21
-14.2736569471
  0
LINE
  5
3E8
100
AcDbEntity
  8
ASSI
100
AcDbLine
 62
7
  6
CONTINUOUS
 10
119.1168000014
 20
-15.139670731
 11
119.5
 21
-15.275
  0
LINE
  5
3E9
100
AcDbEntity
  8
RACCORDO
100
AcDbLine
 62
7
  6
CONTINUOUS
 10
118.575
 20
-12.775
 11
119.25
 21
-13.025
  0
LINE
  5
3EA
100
AcDbEntity
  8
RACCORDO
100
AcDbLine
 62
7
  6
CONTINUOUS
 10
119.0675675676
 20
53.9175675676
 11
119.0
 21
53.85
  0
LINE
  5
3EB
100
AcDbEntity
  8
RACCORDO
100
AcDbLine
 62
7
  6
CONTINUOUS
 10
113.4324324324
 20
48.2824324324
 11
113.5
 21
48.35
  0
LINE
  5
3EC
100
AcDbEntity
  8
RACCORDO
100
AcDbLine
 62
7
  6
CONTINUOUS
 10
113.25
 20
-13.025
 11
113.925
 21
-12.775
  0
LINE
  5
3ED
100
AcDbEntity
  8
RACCORDO
100
AcDbLine
 62
7
  6
CONTINUOUS
 10
119.25
 20
-18.525
 11
118.575
 21
-18.775
  0
LINE
  5
3EE
100
AcDbEntity
  8
ASSI
100
AcDbLine
 62
7
  6
CONTINUOUS
 10
113.0
 20
-15.275
 11
113.3831999986
 21
-15.139670731
  0
LINE
  5
3EF
100
AcDbEntity
  8
RACCORDO
100
AcDbLine
 62
7
  6
CONTINUOUS
 10
119.1168000014
 20
-14.385329269
 11
119.4330127019
 21
-14.2736569471
  0
LINE
  5
3F0
100
AcDbEntity
  8
RACCORDO
100
AcDbLine
 62
7
  6
CONTINUOUS
 10
113.3831999986
 20
-17.164670731
 11
113.0669872981
 21
-17.2763430529
  0
LINE
  5
3F1
100
AcDbEntity
  8
ASSI
100
AcDbLine
 62
7
  6
CONTINUOUS
 10
119.5
 20
-16.275
 11
119.1168000014
 21
-16.410329269
  0
LINE
  5
3F2
100
AcDbEntity
  8
RACCORDO
100
AcDbLine
 62
7
  6
CONTINUOUS
 10
-118.575
 20
47.85
 11
-113.925
 21
47.85
  0
LINE
  5
3F3
100
AcDbEntity
  8
RACCORDO
100
AcDbLine
 62
7
  6
CONTINUOUS
 10
113.925
 20
47.85
 11
118.575
 21
47.85
  0
LINE
  5
3F4
100
AcDbEntity
  8
RACCORDO
100
AcDbLine
 62
7
  6
CONTINUOUS
 10
119.5
 20
48.35
 11
119.25
 21
48.35
  0
LINE
  5
3F5
100
AcDbEntity
  8
RACCORDO
100
AcDbLine
 62
253
  6
CONTINUOUS
 10
-119.0
 20
48.35
 11
-113.5
 21
48.35
  0
LINE
  5
3F6
100
AcDbEntity
  8
RACCORDO
100
AcDbLine
 62
7
  6
CONTINUOUS
 10
113.25
 20
48.35
 11
113.0
 21
48.35
  0
LINE
  5
3F7
100
AcDbEntity
  8
RACCORDO
100
AcDbLine
 62
7
  6
CONTINUOUS
 10
-113.0
 20
48.35
 11
-113.25
 21
48.35
  0
LINE
  5
3F8
100
AcDbEntity
  8
RACCORDO
100
AcDbLine
 62
253
  6
CONTINUOUS
 10
113.5
 20
48.35
 11
119.0
 21
48.35
  0
LINE
  5
3F9
100
AcDbEntity
  8
RACCORDO
100
AcDbLine
 62
7
  6
CONTINUOUS
 10
-119.25
 20
48.35
 11
-119.5
 21
48.35
  0
LINE
  5
3FA
100
AcDbEntity
  8
RACCORDO
100
AcDbLine
 62
7
  6
CONTINUOUS
 10
-113.0669872981
 20
49.575
 11
-113.0
 21
49.575
  0
LINE
  5
3FB
100
AcDbEntity
  8
RACCORDO
100
AcDbLine
 62
7
  6
CONTINUOUS
 10
113.0669872981
 20
49.575
 11
113.0
 21
49.575
  0
LINE
  5
3FC
100
AcDbEntity
  8
RACCORDO
100
AcDbLine
 62
7
  6
CONTINUOUS
 10
-119.4330127019
 20
49.575
 11
-119.5
 21
49.575
  0
LINE
  5
3FD
100
AcDbEntity
  8
RACCORDO
100
AcDbLine
 62
7
  6
CONTINUOUS
 10
119.4330127019
 20
49.575
 11
119.5
 21
49.575
  0
LINE
  5
3FE
100
AcDbEntity
  8
RACCORDO
100
AcDbLine
 62
7
  6
CONTINUOUS
 10
-113.0669872981
 20
52.625
 11
-113.0
 21
52.625
  0
LINE
  5
3FF
100
AcDbEntity
  8
RACCORDO
100
AcDbLine
 62
7
  6
CONTINUOUS
 10
113.0669872981
 20
52.625
 11
113.0
 21
52.625
  0
LINE
  5
400
100
AcDbEntity
  8
RACCORDO
100
AcDbLine
 62
7
  6
CONTINUOUS
 10
-119.4330127019
 20
52.625
 11
-119.5
 21
52.625
  0
LINE
  5
401
100
AcDbEntity
  8
RACCORDO
100
AcDbLine
 62
7
  6
CONTINUOUS
 10
119.4330127019
 20
52.625
 11
119.5
 21
52.625
  0
LINE
  5
402
100
AcDbEntity
  8
RACCORDO
100
AcDbLine
 62
7
  6
CONTINUOUS
 10
-119.5
 20
53.85
 11
-119.25
 21
53.85
  0
LINE
  5
403
100
AcDbEntity
  8
RACCORDO
100
AcDbLine
 62
253
  6
CONTINUOUS
 10
119.0
 20
53.85
 11
113.5
 21
53.85
  0
LINE
  5
404
100
AcDbEntity
  8
RACCORDO
100
AcDbLine
 62
7
  6
CONTINUOUS
 10
-113.25
 20
53.85
 11
-113.0
 21
53.85
  0
LINE
  5
405
100
AcDbEntity
  8
RACCORDO
100
AcDbLine
 62
7
  6
CONTINUOUS
 10
113.0
 20
53.85
 11
113.25
 21
53.85
  0
LINE
  5
406
100
AcDbEntity
  8
RACCORDO
100
AcDbLine
 62
253
  6
CONTINUOUS
 10
-113.5
 20
53.85
 11
-119.0
 21
53.85
  0
LINE
  5
407
100
AcDbEntity
  8
RACCORDO
100
AcDbLine
 62
7
  6
CONTINUOUS
 10
119.25
 20
53.85
 11
119.5
 21
53.85
  0
LINE
  5
408
100
AcDbEntity
  8
RACCORDO
100
AcDbLine
 62
7
  6
CONTINUOUS
 10
118.575
 20
54.35
 11
113.925
 21
54.35
  0
LINE
  5
409
100
AcDbEntity
  8
RACCORDO
100
AcDbLine
 62
7
  6
CONTINUOUS
 10
-113.925
 20
54.35
 11
-118.575
 21
54.35
  0
LINE
  5
40A
100
AcDbEntity
  8
0
100
AcDbLine
 62
7
  6
CONTINUOUS
 10
-118.5
 20
56.975
 11
-114.0
 21
56.975
  0
LINE
  5
40B
100
AcDbEntity
  8
0
100
AcDbLine
 62
7
  6
CONTINUOUS
 10
114.0
 20
56.975
 11
118.5
 21
56.975
  0
LINE
  5
40C
100
AcDbEntity
  8
ASSI
100
AcDbLine
 62
7
  6
CONTINUOUS
 10
117.125
 20
57.525
 11
115.375
 21
57.525
  0
LINE
  5
40D
100
AcDbEntity
  8
ASSI
100
AcDbLine
 62
7
  6
CONTINUOUS
 10
-115.375
 20
57.525
 11
-117.125
 21
57.525
  0
LINE
  5
40E
100
AcDbEntity
  8
0
100
AcDbLine
 62
7
  6
CONTINUOUS
 10
118.5
 20
61.475
 11
114.0
 21
61.475
  0
LINE
  5
40F
100
AcDbEntity
  8
0
100
AcDbLine
 62
7
  6
CONTINUOUS
 10
-114.0
 20
61.475
 11
-118.5
 21
61.475
  0
LINE
  5
410
100
AcDbEntity
  8
ASSI
100
AcDbLine
 62
7
  6
CONTINUOUS
 10
113.3831999986
 20
21.714670731
 11
113.0
 21
21.85
  0
LINE
  5
411
100
AcDbEntity
  8
RACCORDO
100
AcDbLine
 62
7
  6
CONTINUOUS
 10
119.1168000014
 20
20.960329269
 11
119.4330127019
 21
20.8486569471
  0
LINE
  5
412
100
AcDbEntity
  8
RACCORDO
100
AcDbLine
 62
7
  6
CONTINUOUS
 10
113.3831999986
 20
23.739670731
 11
113.0669872981
 21
23.8513430529
  0
LINE
  5
413
100
AcDbEntity
  8
ASSI
100
AcDbLine
 62
7
  6
CONTINUOUS
 10
119.1168000014
 20
22.985329269
 11
119.5
 21
22.85
  0
LINE
  5
414
100
AcDbEntity
  8
RACCORDO
100
AcDbLine
 62
7
  6
CONTINUOUS
 10
113.925
 20
19.35
 11
113.25
 21
19.6
  0
LINE
  5
415
100
AcDbEntity
  8
RACCORDO
100
AcDbLine
 62
7
  6
CONTINUOUS
 10
113.5
 20
-41.775
 11
113.4324324324
 21
-41.7074324324
  0
LINE
  5
416
100
AcDbEntity
  8
RACCORDO
100
AcDbLine
 62
7
  6
CONTINUOUS
 10
119.0
 20
-47.275
 11
119.0675675676
 21
-47.3425675676
  0
LINE
  5
417
100
AcDbEntity
  8
0
100
AcDbLine
 62
7
  6
CONTINUOUS
 10
75.0
 20
130.525
 11
75.0
 21
180.525
  0
LINE
  5
418
100
AcDbEntity
  8
RACCORDO
100
AcDbLine
 62
7
  6
CONTINUOUS
 10
119.0675675676
 20
25.1675675676
 11
119.0
 21
25.1
  0
LINE
  5
419
100
AcDbEntity
  8
RACCORDO
100
AcDbLine
 62
7
  6
CONTINUOUS
 10
113.4324324324
 20
19.5324324324
 11
113.5
 21
19.6
  0
LINE
  5
41A
100
AcDbEntity
  8
RACCORDO
100
AcDbLine
 62
7
  6
CONTINUOUS
 10
113.25
 20
-41.775
 11
113.925
 21
-41.525
  0
LINE
  5
41B
100
AcDbEntity
  8
ASSI
100
AcDbLine
 62
7
  6
CONTINUOUS
 10
113.0
 20
-44.025
 11
113.3831999986
 21
-43.889670731
  0
LINE
  5
41C
100
AcDbEntity
  8
RACCORDO
100
AcDbLine
 62
7
  6
CONTINUOUS
 10
119.1168000014
 20
-43.135329269
 11
119.4330127019
 21
-43.0236569471
  0
LINE
  5
41D
100
AcDbEntity
  8
RACCORDO
100
AcDbLine
 62
7
  6
CONTINUOUS
 10
113.3831999986
 20
-45.914670731
 11
113.0669872981
 21
-46.0263430529
  0
LINE
  5
41E
100
AcDbEntity
  8
ASSI
100
AcDbLine
 62
7
  6
CONTINUOUS
 10
119.5
 20
-45.025
 11
119.1168000014
 21
-45.160329269
  0
LINE
  5
41F
100
AcDbEntity
  8
RACCORDO
100
AcDbLine
 62
7
  6
CONTINUOUS
 10
110.75
 20
68.725
 11
110.1999967498
 21
68.725
  0
LINE
  5
420
100
AcDbEntity
  8
RACCORDO
100
AcDbLine
 62
253
  6
CONTINUOUS
 10
-110.1999967498
 20
68.725
 11
110.1999967498
 21
68.725
  0
LINE
  5
421
100
AcDbEntity
  8
RACCORDO
100
AcDbLine
 62
7
  6
CONTINUOUS
 10
-110.1999967498
 20
68.725
 11
-110.75
 21
68.725
  0
LINE
  5
422
100
AcDbEntity
  8
RACCORDO
100
AcDbLine
 62
7
  6
CONTINUOUS
 10
110.0
 20
68.975
 11
-110.0
 21
68.975
  0
LINE
  5
423
100
AcDbEntity
  8
0
100
AcDbLine
 62
7
  6
CONTINUOUS
 10
-111.0
 20
69.275
 11
-110.0
 21
69.275
  0
LINE
  5
424
100
AcDbEntity
  8
0
100
AcDbLine
 62
7
  6
CONTINUOUS
 10
110.0
 20
69.275
 11
111.0
 21
69.275
  0
LINE
  5
425
100
AcDbEntity
  8
0
100
AcDbLine
 62
7
  6
CONTINUOUS
 10
112.5
 20
69.525
 11
110.0
 21
69.525
  0
LINE
  5
426
100
AcDbEntity
  8
0
100
AcDbLine
 62
7
  6
CONTINUOUS
 10
-110.0
 20
69.525
 11
-112.5
 21
69.525
  0
LINE
  5
427
100
AcDbEntity
  8
RACCORDO
100
AcDbLine
 62
7
  6
CONTINUOUS
 10
-110.0
 20
69.725
 11
110.0
 21
69.725
  0
LINE
  5
428
100
AcDbEntity
  8
RACCORDO
100
AcDbLine
 62
7
  6
CONTINUOUS
 10
118.575
 20
25.35
 11
119.25
 21
25.1
  0
LINE
  5
429
100
AcDbEntity
  8
RACCORDO
100
AcDbLine
 62
7
  6
CONTINUOUS
 10
113.5
 20
-13.025
 11
113.4324324324
 21
-12.9574324324
  0
LINE
  5
42A
100
AcDbEntity
  8
RACCORDO
100
AcDbLine
 62
7
  6
CONTINUOUS
 10
119.0
 20
-18.525
 11
119.0675675676
 21
-18.5925675676
  0
LWPOLYLINE
  5
42B
100
AcDbEntity
  8
RACCORDO
100
AcDbPolyline
 62
253
  6
CONTINUOUS
 90
6
 70
0
 10
156.0390323491
 20
-202.1757605263
 10
156.0148188096
 20
-202.1089400798
 10
155.9907230567
 20
-202.0412746888
 10
155.9667790293
 20
-201.9727643534
 10
155.9433059181
 20
-201.9035864916
 10
155.896244882
 20
-201.7621636808
  0
LWPOLYLINE
  5
42C
100
AcDbEntity
  8
RACCORDO
100
AcDbPolyline
 62
253
  6
CONTINUOUS
 90
20
 70
0
 10
155.8464707392
 20
-201.6151665965
 10
155.8201581891
 20
-201.5391682222
 10
155.792634042
 20
-201.4613423924
 10
155.7639141316
 20
-201.3817053297
 10
155.7336205548
 20
-201.2998716672
 10
155.7016621097
 20
-201.2158333946
 10
155.6679987962
 20
-201.1295985224
 10
155.632290307
 20
-201.0408057148
 10
155.5944239392
 20
-200.9494404537
 10
155.5543256488
 20
-200.8555172573
 10
155.5116770654
 20
-200.7587183454
 10
155.4662395268
 20
-200.6588358755
 10
155.4179980187
 20
-200.5560776901
 10
155.3669537502
 20
-200.4507495365
 10
155.3129846937
 20
-200.34293405
 10
155.2559356052
 20
-200.2325485952
 10
155.1957625043
 20
-200.1196510135
 10
155.132351829
 20
-200.0042605854
 10
155.0655113082
 20
-199.8863580303
 10
154.9950749426
 20
-199.7659433483
  0
LINE
  5
42D
100
AcDbEntity
  8
RACCORDO
100
AcDbLine
 62
253
  6
CONTINUOUS
 10
155.896244882
 20
-201.7621636808
 11
155.8464707392
 21
-201.6151665965
  0
LINE
  5
42E
100
AcDbEntity
  8
RACCORDO
100
AcDbLine
 62
7
  6
CONTINUOUS
 10
119.0675675676
 20
-12.9574324324
 11
119.0
 21
-13.025
  0
LINE
  5
42F
100
AcDbEntity
  8
RACCORDO
100
AcDbLine
 62
7
  6
CONTINUOUS
 10
113.4324324324
 20
-18.5925675676
 11
113.5
 21
-18.525
  0
LINE
  5
430
100
AcDbEntity
  8
0
100
AcDbLine
 62
7
  6
CONTINUOUS
 10
202.05
 20
-2.5833333333
 11
202.55
 21
-2.3
  0
LINE
  5
431
100
AcDbEntity
  8
RACCORDO
100
AcDbLine
 62
7
  6
CONTINUOUS
 10
119.25
 20
-47.275
 11
118.575
 21
-47.525
  0
LINE
  5
432
100
AcDbEntity
  8
ASSI
100
AcDbLine
 62
7
  6
CONTINUOUS
 10
113.3831999986
 20
50.464670731
 11
113.0
 21
50.6
  0
LINE
  5
433
100
AcDbEntity
  8
RACCORDO
100
AcDbLine
 62
7
  6
CONTINUOUS
 10
119.1168000014
 20
49.710329269
 11
119.4330127019
 21
49.5986569471
  0
LINE
  5
434
100
AcDbEntity
  8
RACCORDO
100
AcDbLine
 62
7
  6
CONTINUOUS
 10
113.3831999986
 20
52.489670731
 11
113.0669872981
 21
52.6013430529
  0
LINE
  5
435
100
AcDbEntity
  8
ASSI
100
AcDbLine
 62
7
  6
CONTINUOUS
 10
119.1168000014
 20
51.735329269
 11
119.5
 21
51.6
  0
LINE
  5
436
100
AcDbEntity
  8
RACCORDO
100
AcDbLine
 62
7
  6
CONTINUOUS
 10
113.925
 20
48.1
 11
113.25
 21
48.35
  0
LINE
  5
437
100
AcDbEntity
  8
RACCORDO
100
AcDbLine
 62
7
  6
CONTINUOUS
 10
118.575
 20
54.1
 11
119.25
 21
53.85
  0
LINE
  5
438
100
AcDbEntity
  8
0
100
AcDbLine
 62
7
  6
CONTINUOUS
 10
202.05
 20
5.1333333333
 11
202.55
 21
4.85
  0
LINE
  5
439
100
AcDbEntity
  8
RACCORDO
100
AcDbLine
 62
7
  6
CONTINUOUS
 10
113.5
 20
25.1
 11
113.4324324324
 21
25.1675675676
  0
LINE
  5
43A
100
AcDbEntity
  8
RACCORDO
100
AcDbLine
 62
7
  6
CONTINUOUS
 10
119.0
 20
19.6
 11
119.0675675676
 21
19.5324324324
  0
LINE
  5
43B
100
AcDbEntity
  8
RACCORDO
100
AcDbLine
 62
253
  6
CONTINUOUS
 10
108.5
 20
69.725
 11
108.5
 21
68.975
  0
LINE
  5
43C
100
AcDbEntity
  8
RACCORDO
100
AcDbLine
 62
253
  6
CONTINUOUS
 10
108.5
 20
-64.15
 11
108.5
 21
-63.4
  0
LINE
  5
43D
100
AcDbEntity
  8
RACCORDO
100
AcDbLine
 62
253
  6
CONTINUOUS
 10
108.5
 20
-63.15
 11
108.5
 21
-62.4
  0
LINE
  5
43E
100
AcDbEntity
  8
RACCORDO
100
AcDbLine
 62
253
  6
CONTINUOUS
 10
108.5
 20
2.1
 11
108.5
 21
3.475
  0
LINE
  5
43F
100
AcDbEntity
  8
RACCORDO
100
AcDbLine
 62
253
  6
CONTINUOUS
 10
108.5
 20
3.725
 11
108.5
 21
4.475
  0
LINE
  5
440
100
AcDbEntity
  8
RACCORDO
100
AcDbLine
 62
7
  6
CONTINUOUS
 10
110.0
 20
69.725
 11
110.0
 21
68.975
  0
LINE
  5
441
100
AcDbEntity
  8
RACCORDO
100
AcDbLine
 62
7
  6
CONTINUOUS
 10
110.0
 20
-64.15
 11
110.0
 21
-63.4
  0
LINE
  5
442
100
AcDbEntity
  8
RACCORDO
100
AcDbLine
 62
7
  6
CONTINUOUS
 10
110.0
 20
-63.15
 11
110.0
 21
-62.4
  0
LINE
  5
443
100
AcDbEntity
  8
RACCORDO
100
AcDbLine
 62
7
  6
CONTINUOUS
 10
110.0
 20
2.1
 11
110.0
 21
3.475
  0
LINE
  5
444
100
AcDbEntity
  8
RACCORDO
100
AcDbLine
 62
7
  6
CONTINUOUS
 10
110.0
 20
3.725
 11
110.0
 21
4.475
  0
LINE
  5
445
100
AcDbEntity
  8
RACCORDO
100
AcDbLine
 62
7
  6
CONTINUOUS
 10
111.0
 20
69.475
 11
111.0
 21
68.975
  0
LINE
  5
446
100
AcDbEntity
  8
RACCORDO
100
AcDbLine
 62
7
  6
CONTINUOUS
 10
111.0
 20
-63.9
 11
111.0
 21
-63.4
  0
LINE
  5
447
100
AcDbEntity
  8
RACCORDO
100
AcDbLine
 62
7
  6
CONTINUOUS
 10
111.0
 20
-62.9
 11
111.0
 21
-62.4
  0
LINE
  5
448
100
AcDbEntity
  8
RACCORDO
100
AcDbLine
 62
7
  6
CONTINUOUS
 10
111.0
 20
2.6
 11
111.0
 21
2.1
  0
LINE
  5
449
100
AcDbEntity
  8
RACCORDO
100
AcDbLine
 62
7
  6
CONTINUOUS
 10
111.0
 20
2.975
 11
111.0
 21
3.475
  0
LINE
  5
44A
100
AcDbEntity
  8
RACCORDO
100
AcDbLine
 62
7
  6
CONTINUOUS
 10
111.0
 20
3.975
 11
111.0
 21
4.475
  0
LINE
  5
44B
100
AcDbEntity
  8
0
100
AcDbLine
 62
7
  6
CONTINUOUS
 10
112.5
 20
-64.975
 11
112.5
 21
69.525
  0
LINE
  5
44C
100
AcDbEntity
  8
RACCORDO
100
AcDbLine
 62
7
  6
CONTINUOUS
 10
113.0
 20
53.85
 11
113.0
 21
52.625
  0
LINE
  5
44D
100
AcDbEntity
  8
ASSI
100
AcDbLine
 62
7
  6
CONTINUOUS
 10
113.0
 20
51.6
 11
113.0
 21
50.6
  0
LINE
  5
44E
100
AcDbEntity
  8
RACCORDO
100
AcDbLine
 62
7
  6
CONTINUOUS
 10
113.0
 20
49.575
 11
113.0
 21
48.35
  0
LINE
  5
44F
100
AcDbEntity
  8
RACCORDO
100
AcDbLine
 62
7
  6
CONTINUOUS
 10
113.0
 20
25.1
 11
113.0
 21
23.875
  0
LINE
  5
450
100
AcDbEntity
  8
ASSI
100
AcDbLine
 62
7
  6
CONTINUOUS
 10
113.0
 20
22.85
 11
113.0
 21
21.85
  0
LINE
  5
451
100
AcDbEntity
  8
RACCORDO
100
AcDbLine
 62
7
  6
CONTINUOUS
 10
113.0
 20
20.825
 11
113.0
 21
19.6
  0
LINE
  5
452
100
AcDbEntity
  8
RACCORDO
100
AcDbLine
 62
7
  6
CONTINUOUS
 10
113.0
 20
-13.025
 11
113.0
 21
-14.25
  0
LINE
  5
453
100
AcDbEntity
  8
ASSI
100
AcDbLine
 62
7
  6
CONTINUOUS
 10
113.0
 20
-15.275
 11
113.0
 21
-16.275
  0
LINE
  5
454
100
AcDbEntity
  8
RACCORDO
100
AcDbLine
 62
7
  6
CONTINUOUS
 10
113.0
 20
-17.3
 11
113.0
 21
-18.525
  0
LINE
  5
455
100
AcDbEntity
  8
RACCORDO
100
AcDbLine
 62
7
  6
CONTINUOUS
 10
113.0
 20
-41.775
 11
113.0
 21
-43.0
  0
LINE
  5
456
100
AcDbEntity
  8
ASSI
100
AcDbLine
 62
7
  6
CONTINUOUS
 10
113.0
 20
-44.025
 11
113.0
 21
-45.025
  0
LINE
  5
457
100
AcDbEntity
  8
RACCORDO
100
AcDbLine
 62
7
  6
CONTINUOUS
 10
113.0
 20
-46.05
 11
113.0
 21
-47.275
  0
LINE
  5
458
100
AcDbEntity
  8
RACCORDO
100
AcDbLine
 62
7
  6
CONTINUOUS
 10
113.0669872981
 20
49.5986569471
 11
113.0669872981
 21
49.575
  0
LINE
  5
459
100
AcDbEntity
  8
RACCORDO
100
AcDbLine
 62
7
  6
CONTINUOUS
 10
113.0669872981
 20
20.8486569471
 11
113.0669872981
 21
20.825
  0
LINE
  5
45A
100
AcDbEntity
  8
RACCORDO
100
AcDbLine
 62
7
  6
CONTINUOUS
 10
113.0669872981
 20
-43.0236569471
 11
113.0669872981
 21
-43.0
  0
LINE
  5
45B
100
AcDbEntity
  8
RACCORDO
100
AcDbLine
 62
7
  6
CONTINUOUS
 10
113.0669872981
 20
-17.2763430529
 11
113.0669872981
 21
-17.3
  0
LINE
  5
45C
100
AcDbEntity
  8
RACCORDO
100
AcDbLine
 62
7
  6
CONTINUOUS
 10
113.0669872981
 20
-14.2736569471
 11
113.0669872981
 21
-14.25
  0
LINE
  5
45D
100
AcDbEntity
  8
RACCORDO
100
AcDbLine
 62
7
  6
CONTINUOUS
 10
113.0669872981
 20
-46.0263430529
 11
113.0669872981
 21
-46.05
  0
LINE
  5
45E
100
AcDbEntity
  8
RACCORDO
100
AcDbLine
 62
7
  6
CONTINUOUS
 10
113.0669872981
 20
23.8513430529
 11
113.0669872981
 21
23.875
  0
LINE
  5
45F
100
AcDbEntity
  8
RACCORDO
100
AcDbLine
 62
7
  6
CONTINUOUS
 10
113.0669872981
 20
52.6013430529
 11
113.0669872981
 21
52.625
  0
LINE
  5
460
100
AcDbEntity
  8
RACCORDO
100
AcDbLine
 62
253
  6
CONTINUOUS
 10
113.5
 20
53.85
 11
113.5
 21
52.4247498999
  0
LINE
  5
461
100
AcDbEntity
  8
RACCORDO
100
AcDbLine
 62
253
  6
CONTINUOUS
 10
113.5
 20
49.7752501001
 11
113.5
 21
48.35
  0
LINE
  5
462
100
AcDbEntity
  8
RACCORDO
100
AcDbLine
 62
253
  6
CONTINUOUS
 10
113.5
 20
25.1
 11
113.5
 21
23.6747498999
  0
LINE
  5
463
100
AcDbEntity
  8
RACCORDO
100
AcDbLine
 62
253
  6
CONTINUOUS
 10
113.5
 20
21.0252501001
 11
113.5
 21
19.6
  0
LINE
  5
464
100
AcDbEntity
  8
ASSI
100
AcDbLine
 62
7
  6
CONTINUOUS
 10
113.5
 20
-45.8497498999
 11
113.5
 21
-45.2252501001
  0
LINE
  5
465
100
AcDbEntity
  8
ASSI
100
AcDbLine
 62
7
  6
CONTINUOUS
 10
113.5
 20
-43.8247498999
 11
113.5
 21
-43.2002501001
  0
LINE
  5
466
100
AcDbEntity
  8
RACCORDO
100
AcDbLine
 62
253
  6
CONTINUOUS
 10
113.5
 20
-13.025
 11
113.5
 21
-14.4502501001
  0
LINE
  5
467
100
AcDbEntity
  8
RACCORDO
100
AcDbLine
 62
253
  6
CONTINUOUS
 10
113.5
 20
-17.0997498999
 11
113.5
 21
-18.525
  0
LINE
  5
468
100
AcDbEntity
  8
ASSI
100
AcDbLine
 62
7
  6
CONTINUOUS
 10
113.5
 20
-17.0997498999
 11
113.5
 21
-16.4752501001
  0
LINE
  5
469
100
AcDbEntity
  8
ASSI
100
AcDbLine
 62
7
  6
CONTINUOUS
 10
113.5
 20
-15.0747498999
 11
113.5
 21
-14.4502501001
  0
LINE
  5
46A
100
AcDbEntity
  8
RACCORDO
100
AcDbLine
 62
253
  6
CONTINUOUS
 10
113.5
 20
-41.775
 11
113.5
 21
-43.2002501001
  0
LINE
  5
46B
100
AcDbEntity
  8
RACCORDO
100
AcDbLine
 62
253
  6
CONTINUOUS
 10
113.5
 20
-45.8497498999
 11
113.5
 21
-47.275
  0
LINE
  5
46C
100
AcDbEntity
  8
ASSI
100
AcDbLine
 62
7
  6
CONTINUOUS
 10
113.5
 20
21.0252501001
 11
113.5
 21
21.6497498999
  0
LINE
  5
46D
100
AcDbEntity
  8
ASSI
100
AcDbLine
 62
7
  6
CONTINUOUS
 10
113.5
 20
23.0502501001
 11
113.5
 21
23.6747498999
  0
LINE
  5
46E
100
AcDbEntity
  8
ASSI
100
AcDbLine
 62
7
  6
CONTINUOUS
 10
113.5
 20
49.7752501001
 11
113.5
 21
50.3997498999
  0
LINE
  5
46F
100
AcDbEntity
  8
ASSI
100
AcDbLine
 62
7
  6
CONTINUOUS
 10
113.5
 20
51.8002501001
 11
113.5
 21
52.4247498999
  0
LINE
  5
470
100
AcDbEntity
  8
RACCORDO
100
AcDbLine
 62
7
  6
CONTINUOUS
 10
113.925
 20
-47.775
 11
113.925
 21
-47.525
  0
LINE
  5
471
100
AcDbEntity
  8
RACCORDO
100
AcDbLine
 62
7
  6
CONTINUOUS
 10
113.925
 20
-41.525
 11
113.925
 21
-41.275
  0
LINE
  5
472
100
AcDbEntity
  8
RACCORDO
100
AcDbLine
 62
7
  6
CONTINUOUS
 10
113.925
 20
-19.025
 11
113.925
 21
-18.775
  0
LINE
  5
473
100
AcDbEntity
  8
RACCORDO
100
AcDbLine
 62
7
  6
CONTINUOUS
 10
113.925
 20
-12.775
 11
113.925
 21
-12.525
  0
LINE
  5
474
100
AcDbEntity
  8
RACCORDO
100
AcDbLine
 62
7
  6
CONTINUOUS
 10
113.925
 20
19.1
 11
113.925
 21
19.35
  0
LINE
  5
475
100
AcDbEntity
  8
RACCORDO
100
AcDbLine
 62
7
  6
CONTINUOUS
 10
113.925
 20
25.35
 11
113.925
 21
25.6
  0
LINE
  5
476
100
AcDbEntity
  8
RACCORDO
100
AcDbLine
 62
7
  6
CONTINUOUS
 10
113.925
 20
47.85
 11
113.925
 21
48.1
  0
LINE
  5
477
100
AcDbEntity
  8
RACCORDO
100
AcDbLine
 62
7
  6
CONTINUOUS
 10
113.925
 20
54.1
 11
113.925
 21
54.35
  0
LINE
  5
478
100
AcDbEntity
  8
0
100
AcDbLine
 62
7
  6
CONTINUOUS
 10
114.0
 20
61.475
 11
114.0
 21
56.975
  0
LINE
  5
479
100
AcDbEntity
  8
0
100
AcDbLine
 62
7
  6
CONTINUOUS
 10
114.0
 20
16.475
 11
114.0
 21
11.975
  0
LINE
  5
47A
100
AcDbEntity
  8
0
100
AcDbLine
 62
7
  6
CONTINUOUS
 10
114.0
 20
-5.4
 11
114.0
 21
-9.9
  0
LINE
  5
47B
100
AcDbEntity
  8
0
100
AcDbLine
 62
7
  6
CONTINUOUS
 10
114.0
 20
-50.4
 11
114.0
 21
-54.9
  0
LINE
  5
47C
100
AcDbEntity
  8
0
100
AcDbLine
 62
7
  6
CONTINUOUS
 10
118.5
 20
-54.9
 11
118.5
 21
-50.4
  0
LINE
  5
47D
100
AcDbEntity
  8
0
100
AcDbLine
 62
7
  6
CONTINUOUS
 10
118.5
 20
-9.9
 11
118.5
 21
-5.4
  0
LINE
  5
47E
100
AcDbEntity
  8
0
100
AcDbLine
 62
7
  6
CONTINUOUS
 10
118.5
 20
11.975
 11
118.5
 21
16.475
  0
LINE
  5
47F
100
AcDbEntity
  8
0
100
AcDbLine
 62
7
  6
CONTINUOUS
 10
118.5
 20
56.975
 11
118.5
 21
61.475
  0
LINE
  5
480
100
AcDbEntity
  8
RACCORDO
100
AcDbLine
 62
7
  6
CONTINUOUS
 10
118.575
 20
54.35
 11
118.575
 21
54.1
  0
LINE
  5
481
100
AcDbEntity
  8
RACCORDO
100
AcDbLine
 62
7
  6
CONTINUOUS
 10
118.575
 20
48.1
 11
118.575
 21
47.85
  0
LINE
  5
482
100
AcDbEntity
  8
RACCORDO
100
AcDbLine
 62
7
  6
CONTINUOUS
 10
118.575
 20
25.6
 11
118.575
 21
25.35
  0
LINE
  5
483
100
AcDbEntity
  8
RACCORDO
100
AcDbLine
 62
7
  6
CONTINUOUS
 10
118.575
 20
19.35
 11
118.575
 21
19.1
  0
LINE
  5
484
100
AcDbEntity
  8
RACCORDO
100
AcDbLine
 62
7
  6
CONTINUOUS
 10
118.575
 20
-12.525
 11
118.575
 21
-12.775
  0
LINE
  5
485
100
AcDbEntity
  8
RACCORDO
100
AcDbLine
 62
7
  6
CONTINUOUS
 10
118.575
 20
-18.775
 11
118.575
 21
-19.025
  0
LINE
  5
486
100
AcDbEntity
  8
RACCORDO
100
AcDbLine
 62
7
  6
CONTINUOUS
 10
118.575
 20
-41.275
 11
118.575
 21
-41.525
  0
LINE
  5
487
100
AcDbEntity
  8
RACCORDO
100
AcDbLine
 62
7
  6
CONTINUOUS
 10
118.575
 20
-47.525
 11
118.575
 21
-47.775
  0
LINE
  5
488
100
AcDbEntity
  8
RACCORDO
100
AcDbLine
 62
253
  6
CONTINUOUS
 10
119.0
 20
-47.275
 11
119.0
 21
-45.8497498999
  0
LINE
  5
489
100
AcDbEntity
  8
ASSI
100
AcDbLine
 62
7
  6
CONTINUOUS
 10
119.0
 20
-45.8497498999
 11
119.0
 21
-45.2252501001
  0
LINE
  5
48A
100
AcDbEntity
  8
ASSI
100
AcDbLine
 62
7
  6
CONTINUOUS
 10
119.0
 20
-43.8247498999
 11
119.0
 21
-43.2002501001
  0
LINE
  5
48B
100
AcDbEntity
  8
RACCORDO
100
AcDbLine
 62
253
  6
CONTINUOUS
 10
119.0
 20
-43.2002501001
 11
119.0
 21
-41.775
  0
LINE
  5
48C
100
AcDbEntity
  8
RACCORDO
100
AcDbLine
 62
253
  6
CONTINUOUS
 10
119.0
 20
-18.525
 11
119.0
 21
-17.0997498999
  0
LINE
  5
48D
100
AcDbEntity
  8
ASSI
100
AcDbLine
 62
7
  6
CONTINUOUS
 10
119.0
 20
-17.0997498999
 11
119.0
 21
-16.4752501001
  0
LINE
  5
48E
100
AcDbEntity
  8
ASSI
100
AcDbLine
 62
7
  6
CONTINUOUS
 10
119.0
 20
-15.0747498999
 11
119.0
 21
-14.4502501001
  0
LINE
  5
48F
100
AcDbEntity
  8
RACCORDO
100
AcDbLine
 62
253
  6
CONTINUOUS
 10
119.0
 20
-14.4502501001
 11
119.0
 21
-13.025
  0
LINE
  5
490
100
AcDbEntity
  8
RACCORDO
100
AcDbLine
 62
253
  6
CONTINUOUS
 10
119.0
 20
19.6
 11
119.0
 21
21.0252501001
  0
LINE
  5
491
100
AcDbEntity
  8
ASSI
100
AcDbLine
 62
7
  6
CONTINUOUS
 10
119.0
 20
21.0252501001
 11
119.0
 21
21.6497498999
  0
LINE
  5
492
100
AcDbEntity
  8
ASSI
100
AcDbLine
 62
7
  6
CONTINUOUS
 10
119.0
 20
23.0502501001
 11
119.0
 21
23.6747498999
  0
LINE
  5
493
100
AcDbEntity
  8
RACCORDO
100
AcDbLine
 62
253
  6
CONTINUOUS
 10
119.0
 20
23.6747498999
 11
119.0
 21
25.1
  0
LINE
  5
494
100
AcDbEntity
  8
RACCORDO
100
AcDbLine
 62
253
  6
CONTINUOUS
 10
119.0
 20
48.35
 11
119.0
 21
49.7752501001
  0
LINE
  5
495
100
AcDbEntity
  8
ASSI
100
AcDbLine
 62
7
  6
CONTINUOUS
 10
119.0
 20
49.7752501001
 11
119.0
 21
50.3997498999
  0
LINE
  5
496
100
AcDbEntity
  8
ASSI
100
AcDbLine
 62
7
  6
CONTINUOUS
 10
119.0
 20
51.8002501001
 11
119.0
 21
52.4247498999
  0
LINE
  5
497
100
AcDbEntity
  8
RACCORDO
100
AcDbLine
 62
253
  6
CONTINUOUS
 10
119.0
 20
52.4247498999
 11
119.0
 21
53.85
  0
LINE
  5
498
100
AcDbEntity
  8
RACCORDO
100
AcDbLine
 62
7
  6
CONTINUOUS
 10
119.4330127019
 20
49.5986569471
 11
119.4330127019
 21
49.575
  0
LINE
  5
499
100
AcDbEntity
  8
RACCORDO
100
AcDbLine
 62
7
  6
CONTINUOUS
 10
119.4330127019
 20
20.8486569471
 11
119.4330127019
 21
20.825
  0
LINE
  5
49A
100
AcDbEntity
  8
RACCORDO
100
AcDbLine
 62
7
  6
CONTINUOUS
 10
119.4330127019
 20
-43.0236569471
 11
119.4330127019
 21
-43.0
  0
LINE
  5
49B
100
AcDbEntity
  8
RACCORDO
100
AcDbLine
 62
7
  6
CONTINUOUS
 10
119.4330127019
 20
-17.2763430529
 11
119.4330127019
 21
-17.3
  0
LINE
  5
49C
100
AcDbEntity
  8
RACCORDO
100
AcDbLine
 62
7
  6
CONTINUOUS
 10
119.4330127019
 20
-14.2736569471
 11
119.4330127019
 21
-14.25
  0
LINE
  5
49D
100
AcDbEntity
  8
RACCORDO
100
AcDbLine
 62
7
  6
CONTINUOUS
 10
119.4330127019
 20
-46.0263430529
 11
119.4330127019
 21
-46.05
  0
LINE
  5
49E
100
AcDbEntity
  8
RACCORDO
100
AcDbLine
 62
7
  6
CONTINUOUS
 10
119.4330127019
 20
23.8513430529
 11
119.4330127019
 21
23.875
  0
LINE
  5
49F
100
AcDbEntity
  8
RACCORDO
100
AcDbLine
 62
7
  6
CONTINUOUS
 10
119.4330127019
 20
52.6013430529
 11
119.4330127019
 21
52.625
  0
LINE
  5
4A0
100
AcDbEntity
  8
RACCORDO
100
AcDbLine
 62
7
  6
CONTINUOUS
 10
119.5
 20
-47.275
 11
119.5
 21
-46.05
  0
LINE
  5
4A1
100
AcDbEntity
  8
ASSI
100
AcDbLine
 62
7
  6
CONTINUOUS
 10
119.5
 20
-45.025
 11
119.5
 21
-44.025
  0
LINE
  5
4A2
100
AcDbEntity
  8
RACCORDO
100
AcDbLine
 62
7
  6
CONTINUOUS
 10
119.5
 20
-43.0
 11
119.5
 21
-41.775
  0
LINE
  5
4A3
100
AcDbEntity
  8
RACCORDO
100
AcDbLine
 62
7
  6
CONTINUOUS
 10
119.5
 20
-18.525
 11
119.5
 21
-17.3
  0
LINE
  5
4A4
100
AcDbEntity
  8
ASSI
100
AcDbLine
 62
7
  6
CONTINUOUS
 10
119.5
 20
-16.275
 11
119.5
 21
-15.275
  0
LINE
  5
4A5
100
AcDbEntity
  8
RACCORDO
100
AcDbLine
 62
7
  6
CONTINUOUS
 10
119.5
 20
-14.25
 11
119.5
 21
-13.025
  0
LINE
  5
4A6
100
AcDbEntity
  8
RACCORDO
100
AcDbLine
 62
7
  6
CONTINUOUS
 10
119.5
 20
19.6
 11
119.5
 21
20.825
  0
LINE
  5
4A7
100
AcDbEntity
  8
ASSI
100
AcDbLine
 62
7
  6
CONTINUOUS
 10
119.5
 20
21.85
 11
119.5
 21
22.85
  0
LINE
  5
4A8
100
AcDbEntity
  8
RACCORDO
100
AcDbLine
 62
7
  6
CONTINUOUS
 10
119.5
 20
23.875
 11
119.5
 21
25.1
  0
LINE
  5
4A9
100
AcDbEntity
  8
RACCORDO
100
AcDbLine
 62
7
  6
CONTINUOUS
 10
119.5
 20
48.35
 11
119.5
 21
49.575
  0
LINE
  5
4AA
100
AcDbEntity
  8
ASSI
100
AcDbLine
 62
7
  6
CONTINUOUS
 10
119.5
 20
50.6
 11
119.5
 21
51.6
  0
LINE
  5
4AB
100
AcDbEntity
  8
RACCORDO
100
AcDbLine
 62
7
  6
CONTINUOUS
 10
119.5
 20
52.625
 11
119.5
 21
53.85
  0
LINE
  5
4AC
100
AcDbEntity
  8
RACCORDO
100
AcDbLine
 62
7
  6
CONTINUOUS
 10
119.0675675676
 20
-41.7074324324
 11
119.0
 21
-41.775
  0
LINE
  5
4AD
100
AcDbEntity
  8
RACCORDO
100
AcDbLine
 62
7
  6
CONTINUOUS
 10
113.4324324324
 20
-47.3425675676
 11
113.5
 21
-47.275
  0
LINE
  5
4AE
100
AcDbEntity
  8
RACCORDO
100
AcDbLine
 62
7
  6
CONTINUOUS
 10
113.5
 20
53.85
 11
113.4324324324
 21
53.9175675676
  0
LINE
  5
4AF
100
AcDbEntity
  8
RACCORDO
100
AcDbLine
 62
7
  6
CONTINUOUS
 10
119.0
 20
48.35
 11
119.0675675676
 21
48.2824324324
  0
LINE
  5
4B0
100
AcDbEntity
  8
RACCORDO
100
AcDbLine
 62
253
  6
CONTINUOUS
 10
169.8250000006
 20
-199.3748374295
 11
169.8846758925
 21
-199.6148269511
  0
LWPOLYLINE
  5
4B1
100
AcDbEntity
  8
RACCORDO
100
AcDbPolyline
 62
253
  6
CONTINUOUS
 90
10
 70
0
 10
152.8250002035
 20
-199.2082477386
 10
152.826995724
 20
-199.2395883847
 10
152.8329504799
 20
-199.2704286985
 10
152.8427694072
 20
-199.3002763336
 10
152.8562957529
 20
-199.328654791
 10
152.8733135772
 20
-199.3551110263
 10
152.8935512011
 20
-199.3792226822
 10
152.9166855437
 20
-199.400604831
 10
152.9423472795
 20
-199.4189161202
 10
152.9701267348
 20
-199.4338642213
  0
LINE
  5
4B2
100
AcDbEntity
  8
0
100
AcDbLine
 62
7
  6
CONTINUOUS
 10
201.25
 20
-4.225
 11
202.05
 21
-3.475
  0
LINE
  5
4B3
100
AcDbEntity
  8
0
100
AcDbLine
 62
7
  6
CONTINUOUS
 10
-75.0
 20
130.525
 11
75.0
 21
130.525
  0
LINE
  5
4B4
100
AcDbEntity
  8
0
100
AcDbLine
 62
7
  6
CONTINUOUS
 10
201.25
 20
6.775
 11
202.05
 21
6.025
  0
LWPOLYLINE
  5
4B5
100
AcDbEntity
  8
RACCORDO
100
AcDbPolyline
 62
253
  6
CONTINUOUS
 90
10
 70
0
 10
170.6798732273
 20
-199.4338640014
 10
170.6871056227
 20
-199.5108779202
 10
170.6952918296
 20
-199.5793036583
 10
170.7039479634
 20
-199.6390409077
 10
170.7118770775
 20
-199.6904727183
 10
170.7192414667
 20
-199.7331528236
 10
170.7273607336
 20
-199.7655828015
 10
170.7360835092
 20
-199.7870956591
 10
170.7439199212
 20
-199.7980811192
 10
170.7500185605
 20
-199.7985134213
  0
LINE
  5
4B6
100
AcDbEntity
  8
RACCORDO
100
AcDbLine
 62
7
  6
CONTINUOUS
 10
152.825
 20
-198.725
 11
152.825
 21
-199.6199938488
  0
LINE
  5
4B7
100
AcDbEntity
  8
RACCORDO
100
AcDbLine
 62
253
  6
CONTINUOUS
 10
153.825
 20
-198.725
 11
153.825
 21
-199.3748374216
  0
LINE
  5
4B8
100
AcDbEntity
  8
0
100
AcDbLine
 62
7
  6
CONTINUOUS
 10
156.225
 20
-202.225
 11
156.225
 21
-202.725
  0
LINE
  5
4B9
100
AcDbEntity
  8
0
100
AcDbLine
 62
7
  6
CONTINUOUS
 10
158.45
 20
201.625
 11
158.45
 21
202.875
  0
LINE
  5
4BA
100
AcDbEntity
  8
ASSI
100
AcDbLine
 62
7
  6
CONTINUOUS
 10
160.5
 20
-217.575
 11
160.5
 21
-209.0458792625
  0
LINE
  5
4BB
100
AcDbEntity
  8
0
100
AcDbLine
 62
7
  6
CONTINUOUS
 10
160.5
 20
-209.0458792625
 11
160.5
 21
-205.975
  0
LINE
  5
4BC
100
AcDbEntity
  8
0
100
AcDbLine
 62
7
  6
CONTINUOUS
 10
161.325
 20
-205.975
 11
161.325
 21
-203.475
  0
LINE
  5
4BD
100
AcDbEntity
  8
0
100
AcDbLine
 62
7
  6
CONTINUOUS
 10
162.325
 20
-205.975
 11
162.325
 21
-203.475
  0
LINE
  5
4BE
100
AcDbEntity
  8
ASSI
100
AcDbLine
 62
7
  6
CONTINUOUS
 10
163.15
 20
-217.575
 11
163.15
 21
-209.0458792625
  0
LINE
  5
4BF
100
AcDbEntity
  8
0
100
AcDbLine
 62
7
  6
CONTINUOUS
 10
163.15
 20
-209.0458792625
 11
163.15
 21
-205.975
  0
LINE
  5
4C0
100
AcDbEntity
  8
0
100
AcDbLine
 62
7
  6
CONTINUOUS
 10
163.45
 20
217.575
 11
163.45
 21
204.175
  0
LINE
  5
4C1
100
AcDbEntity
  8
0
100
AcDbLine
 62
7
  6
CONTINUOUS
 10
164.45
 20
217.575
 11
164.45
 21
204.175
  0
LINE
  5
4C2
100
AcDbEntity
  8
RACCORDO
100
AcDbLine
 62
253
  6
CONTINUOUS
 10
154.9959416904
 20
-199.5210179946
 11
154.99507493
 21
-199.7659434167
  0
LINE
  5
4C3
100
AcDbEntity
  8
RACCORDO
100
AcDbLine
 62
253
  6
CONTINUOUS
 10
168.6540583582
 20
-199.5210179857
 11
168.654925123
 21
-199.7659410737
  0
LINE
  5
4C4
100
AcDbEntity
  8
0
100
AcDbLine
 62
7
  6
CONTINUOUS
 10
167.425
 20
-202.225
 11
167.425
 21
-202.725
  0
LINE
  5
4C5
100
AcDbEntity
  8
0
100
AcDbLine
 62
7
  6
CONTINUOUS
 10
169.45
 20
201.625
 11
169.45
 21
202.875
  0
LINE
  5
4C6
100
AcDbEntity
  8
RACCORDO
100
AcDbLine
 62
253
  6
CONTINUOUS
 10
169.825
 20
-199.3748374298
 11
169.825
 21
-198.725
  0
LINE
  5
4C7
100
AcDbEntity
  8
RACCORDO
100
AcDbLine
 62
7
  6
CONTINUOUS
 10
170.825
 20
-198.725
 11
170.825
 21
-199.6199948023
  0
LINE
  5
4C8
100
AcDbEntity
  8
0
100
AcDbLine
 62
7
  6
CONTINUOUS
 10
177.0
 20
201.275
 11
177.0
 21
200.275
  0
LINE
  5
4C9
100
AcDbEntity
  8
0
100
AcDbLine
 62
7
  6
CONTINUOUS
 10
177.0
 20
-197.725
 11
177.0
 21
-198.725
  0
LINE
  5
4CA
100
AcDbEntity
  8
0
100
AcDbLine
 62
7
  6
CONTINUOUS
 10
177.5
 20
201.275
 11
177.5
 21
200.775
  0
LINE
  5
4CB
100
AcDbEntity
  8
0
100
AcDbLine
 62
7
  6
CONTINUOUS
 10
177.5
 20
-197.725
 11
177.5
 21
-198.725
  0
LINE
  5
4CC
100
AcDbEntity
  8
0
100
AcDbLine
 62
253
  6
CONTINUOUS
 10
178.75
 20
201.275
 11
178.75
 21
200.275
  0
LINE
  5
4CD
100
AcDbEntity
  8
0
100
AcDbLine
 62
7
  6
CONTINUOUS
 10
180.0
 20
201.275
 11
180.0
 21
200.275
  0
LINE
  5
4CE
100
AcDbEntity
  8
0
100
AcDbLine
 62
7
  6
CONTINUOUS
 10
180.0
 20
-198.725
 11
180.0
 21
-197.725
  0
LINE
  5
4CF
100
AcDbEntity
  8
RACCORDO
100
AcDbLine
 62
7
  6
CONTINUOUS
 10
182.625
 20
163.775
 11
182.625
 21
137.275
  0
LINE
  5
4D0
100
AcDbEntity
  8
RACCORDO
100
AcDbLine
 62
7
  6
CONTINUOUS
 10
182.625
 20
-134.725
 11
182.625
 21
-161.225
  0
LINE
  5
4D1
100
AcDbEntity
  8
RACCORDO
100
AcDbLine
 62
7
  6
CONTINUOUS
 10
184.125
 20
-161.225
 11
184.125
 21
-134.725
  0
LINE
  5
4D2
100
AcDbEntity
  8
RACCORDO
100
AcDbLine
 62
7
  6
CONTINUOUS
 10
184.125
 20
137.275
 11
184.125
 21
163.775
  0
LWPOLYLINE
  5
4D3
100
AcDbEntity
  8
RACCORDO
100
AcDbPolyline
 62
253
  6
CONTINUOUS
 90
10
 70
0
 10
170.825
 20
-199.2082475428
 10
170.8230046343
 20
-199.2395882967
 10
170.8170500038
 20
-199.2704287362
 10
170.8072311709
 20
-199.3002765098
 10
170.7937048882
 20
-199.3286551134
 10
170.7766870959
 20
-199.3551114974
 10
170.756449474
 20
-199.3792232992
 10
170.7333151057
 20
-199.4006055868
 10
170.7076533192
 20
-199.4189170028
 10
170.6798737915
 20
-199.4338652152
  0
LWPOLYLINE
  5
4D4
100
AcDbEntity
  8
RACCORDO
100
AcDbPolyline
 62
253
  6
CONTINUOUS
 90
19
 70
0
 10
152.825
 20
-199.2082477386
 10
152.8254021609
 20
-199.2060454217
 10
152.826649164
 20
-199.2041141276
 10
152.8288023294
 20
-199.2024538563
 10
152.8319143725
 20
-199.2010446527
 10
152.8360518916
 20
-199.1999064719
 10
152.8413192883
 20
-199.1990991796
 10
152.8478020663
 20
-199.198615124
 10
152.8555849967
 20
-199.1984619568
 10
152.8648160413
 20
-199.1987224989
 10
152.8756209205
 20
-199.199395634
 10
152.8880939896
 20
-199.2004824783
 10
152.9023641437
 20
-199.2020692008
 10
152.9185358699
 20
-199.2041591429
 10
152.9367242887
 20
-199.2067489632
 10
152.9570883258
 20
-199.2099148057
 10
152.979745592
 20
-199.213664984
 10
153.0047994142
 20
-199.2179911847
 10
153.0323995391
 20
-199.2229446118
  0
LINE
  5
4D5
100
AcDbEntity
  8
0
100
AcDbLine
 62
7
  6
CONTINUOUS
 10
200.0
 20
178.775
 11
199.0
 21
178.775
  0
LINE
  5
4D6
100
AcDbEntity
  8
0
100
AcDbLine
 62
7
  6
CONTINUOUS
 10
-200.0
 20
178.775
 11
-199.0
 21
178.775
  0
LINE
  5
4D7
100
AcDbEntity
  8
0
100
AcDbLine
 62
253
  6
CONTINUOUS
 10
-200.0
 20
180.025
 11
-199.0
 21
180.025
  0
LINE
  5
4D8
100
AcDbEntity
  8
0
100
AcDbLine
 62
7
  6
CONTINUOUS
 10
75.0
 20
180.525
 11
-75.0
 21
180.525
  0
LINE
  5
4D9
100
AcDbEntity
  8
0
100
AcDbLine
 62
7
  6
CONTINUOUS
 10
-200.0
 20
181.275
 11
-199.0
 21
181.275
  0
LINE
  5
4DA
100
AcDbEntity
  8
0
100
AcDbLine
 62
7
  6
CONTINUOUS
 10
200.0
 20
181.275
 11
199.0
 21
181.275
  0
LINE
  5
4DB
100
AcDbEntity
  8
RACCORDO
100
AcDbLine
 62
7
  6
CONTINUOUS
 10
-162.5
 20
183.9
 11
-150.1170523323
 21
183.9
  0
LINE
  5
4DC
100
AcDbEntity
  8
RACCORDO
100
AcDbLine
 62
7
  6
CONTINUOUS
 10
150.1170523323
 20
183.9
 11
162.5
 21
183.9
  0
LINE
  5
4DD
100
AcDbEntity
  8
RACCORDO
100
AcDbLine
 62
7
  6
CONTINUOUS
 10
162.5
 20
185.4
 11
151.1489638747
 21
185.4
  0
LINE
  5
4DE
100
AcDbEntity
  8
RACCORDO
100
AcDbLine
 62
7
  6
CONTINUOUS
 10
-151.1489638747
 20
185.4
 11
-162.5
 21
185.4
  0
LINE
  5
4DF
100
AcDbEntity
  8
0
100
AcDbLine
 62
7
  6
CONTINUOUS
 10
199.0
 20
181.275
 11
199.0
 21
178.775
  0
LINE
  5
4E0
100
AcDbEntity
  8
0
100
AcDbLine
 62
253
  6
CONTINUOUS
 10
199.0
 20
178.775
 11
199.0
 21
-176.225
  0
LINE
  5
4E1
100
AcDbEntity
  8
0
100
AcDbLine
 62
7
  6
CONTINUOUS
 10
199.0
 20
-176.225
 11
199.0
 21
-178.725
  0
LINE
  5
4E2
100
AcDbEntity
  8
RACCORDO
100
AcDbLine
 62
7
  6
CONTINUOUS
 10
200.0
 20
199.775
 11
200.0
 21
181.275
  0
LINE
  5
4E3
100
AcDbEntity
  8
0
100
AcDbLine
 62
7
  6
CONTINUOUS
 10
200.0
 20
178.775
 11
200.0
 21
-176.225
  0
LINE
  5
4E4
100
AcDbEntity
  8
0
100
AcDbLine
 62
7
  6
CONTINUOUS
 10
200.0
 20
-177.475
 11
200.0
 21
-178.725
  0
LINE
  5
4E5
100
AcDbEntity
  8
RACCORDO
100
AcDbLine
 62
7
  6
CONTINUOUS
 10
200.0
 20
-178.725
 11
200.0
 21
-197.225
  0
LINE
  5
4E6
100
AcDbEntity
  8
0
100
AcDbLine
 62
7
  6
CONTINUOUS
 10
201.25
 20
6.775
 11
201.25
 21
-4.225
  0
LINE
  5
4E7
100
AcDbEntity
  8
0
100
AcDbLine
 62
7
  6
CONTINUOUS
 10
202.05
 20
6.025
 11
202.05
 21
-3.475
  0
LINE
  5
4E8
100
AcDbEntity
  8
0
100
AcDbLine
 62
7
  6
CONTINUOUS
 10
202.55
 20
4.85
 11
202.55
 21
-2.3
  0
LINE
  5
4E9
100
AcDbEntity
  8
0
100
AcDbLine
 62
7
  6
CONTINUOUS
 10
206.55
 20
0.775
 11
206.55
 21
1.775
  0
LWPOLYLINE
  5
4EA
100
AcDbEntity
  8
RACCORDO
100
AcDbPolyline
 62
253
  6
CONTINUOUS
 90
19
 70
0
 10
152.970126757
 20
-199.4338641736
 10
152.9705885509
 20
-199.4317585613
 10
152.9718142276
 20
-199.4299476477
 10
152.9738051904
 20
-199.4284284109
 10
152.9764990241
 20
-199.4271711512
 10
152.9799614403
 20
-199.4261983884
 10
152.9843868264
 20
-199.4255836799
 10
152.9897564722
 20
-199.4253089723
 10
152.9960948899
 20
-199.4253794285
 10
153.0036630999
 20
-199.4258994519
 10
153.0124673458
 20
-199.4268520116
 10
153.0225111314
 20
-199.4282319378
 10
153.0340538475
 20
-199.4301558271
 10
153.0470973506
 20
-199.4326031554
 10
153.0616542946
 20
-199.4355602409
 10
153.0780032802
 20
-199.4391467867
 10
153.096164566
 20
-199.4433379108
 10
153.1161382914
 20
-199.4481078201
 10
153.1381761599
 20
-199.4535663587
  0
LINE
  5
4EB
100
AcDbEntity
  8
RACCORDO
100
AcDbLine
 62
253
  6
CONTINUOUS
 10
153.825
 20
-199.3748374216
 11
153.765323229
 21
-199.6148304901
  0
LINE
  5
4EC
100
AcDbEntity
  8
0
100
AcDbLine
 62
7
  6
CONTINUOUS
 10
-180.0
 20
200.275
 11
-177.0
 21
200.275
  0
LINE
  5
4ED
100
AcDbEntity
  8
0
100
AcDbLine
 62
253
  6
CONTINUOUS
 10
177.0
 20
200.275
 11
147.7553135264
 21
200.275
  0
LINE
  5
4EE
100
AcDbEntity
  8
0
100
AcDbLine
 62
253
  6
CONTINUOUS
 10
135.0296864736
 20
200.275
 11
-135.0296864736
 21
200.275
  0
LINE
  5
4EF
100
AcDbEntity
  8
0
100
AcDbLine
 62
253
  6
CONTINUOUS
 10
-147.7553135264
 20
200.275
 11
-177.0
 21
200.275
  0
LINE
  5
4F0
100
AcDbEntity
  8
0
100
AcDbLine
 62
7
  6
CONTINUOUS
 10
177.0
 20
200.275
 11
180.0
 21
200.275
  0
LINE
  5
4F1
100
AcDbEntity
  8
0
100
AcDbLine
 62
7
  6
CONTINUOUS
 10
177.6338532682
 20
200.775
 11
177.0
 21
200.775
  0
LINE
  5
4F2
100
AcDbEntity
  8
RACCORDO
100
AcDbLine
 62
7
  6
CONTINUOUS
 10
-198.5
 20
201.275
 11
-180.0
 21
201.275
  0
LINE
  5
4F3
100
AcDbEntity
  8
0
100
AcDbLine
 62
7
  6
CONTINUOUS
 10
177.5
 20
201.275
 11
145.9732231974
 21
201.275
  0
LINE
  5
4F4
100
AcDbEntity
  8
0
100
AcDbLine
 62
7
  6
CONTINUOUS
 10
136.8117768026
 20
201.275
 11
-136.8117768026
 21
201.275
  0
LINE
  5
4F5
100
AcDbEntity
  8
0
100
AcDbLine
 62
7
  6
CONTINUOUS
 10
-145.9732231974
 20
201.275
 11
-177.5
 21
201.275
  0
LINE
  5
4F6
100
AcDbEntity
  8
0
100
AcDbLine
 62
7
  6
CONTINUOUS
 10
178.75
 20
201.275
 11
180.0
 21
201.275
  0
LINE
  5
4F7
100
AcDbEntity
  8
RACCORDO
100
AcDbLine
 62
7
  6
CONTINUOUS
 10
180.0
 20
201.275
 11
198.5
 21
201.275
  0
LINE
  5
4F8
100
AcDbEntity
  8
0
100
AcDbLine
 62
7
  6
CONTINUOUS
 10
169.45
 20
201.625
 11
158.45
 21
201.625
  0
LINE
  5
4F9
100
AcDbEntity
  8
0
100
AcDbLine
 62
7
  6
CONTINUOUS
 10
169.45
 20
202.875
 11
158.45
 21
202.875
  0
LINE
  5
4FA
100
AcDbEntity
  8
0
100
AcDbLine
 62
7
  6
CONTINUOUS
 10
168.7
 20
203.675
 11
159.2
 21
203.675
  0
LINE
  5
4FB
100
AcDbEntity
  8
0
100
AcDbLine
 62
7
  6
CONTINUOUS
 10
167.525
 20
204.175
 11
160.375
 21
204.175
  0
LINE
  5
4FC
100
AcDbEntity
  8
0
100
AcDbLine
 62
7
  6
CONTINUOUS
 10
163.45
 20
206.175
 11
164.45
 21
206.175
  0
LINE
  5
4FD
100
AcDbEntity
  8
0
100
AcDbLine
 62
7
  6
CONTINUOUS
 10
209.075
 20
0.775
 11
209.075
 21
1.775
  0
LINE
  5
4FE
100
AcDbEntity
  8
0
100
AcDbLine
 62
7
  6
CONTINUOUS
 10
212.825
 20
0.775
 11
212.825
 21
1.775
  0
LINE
  5
4FF
100
AcDbEntity
  8
0
100
AcDbLine
 62
7
  6
CONTINUOUS
 10
215.1
 20
0.775
 11
215.1
 21
1.775
  0
LINE
  5
500
100
AcDbEntity
  8
0
100
AcDbLine
 62
7
  6
CONTINUOUS
 10
215.95
 20
0.775
 11
215.95
 21
1.775
  0
LWPOLYLINE
  5
501
100
AcDbEntity
  8
RACCORDO
100
AcDbPolyline
 62
253
  6
CONTINUOUS
 90
5
 70
0
 10
167.6931207464
 20
-201.9438071822
 10
167.6728424705
 20
-202.0032867626
 10
167.6523160431
 20
-202.0618297077
 10
167.6317538331
 20
-202.1193211714
 10
167.6111749532
 20
-202.1757611537
  0
LINE
  5
502
100
AcDbEntity
  8
0
100
AcDbLine
 62
7
  6
CONTINUOUS
 10
163.45
 20
207.175
 11
164.45
 21
207.175
  0
LINE
  5
503
100
AcDbEntity
  8
0
100
AcDbLine
 62
7
  6
CONTINUOUS
 10
163.45
 20
208.175
 11
164.45
 21
208.175
  0
LINE
  5
504
100
AcDbEntity
  8
0
100
AcDbLine
 62
7
  6
CONTINUOUS
 10
163.45
 20
210.7
 11
164.45
 21
210.7
  0
LINE
  5
505
100
AcDbEntity
  8
0
100
AcDbLine
 62
7
  6
CONTINUOUS
 10
163.45
 20
214.45
 11
164.45
 21
214.45
  0
LINE
  5
506
100
AcDbEntity
  8
0
100
AcDbLine
 62
7
  6
CONTINUOUS
 10
163.45
 20
216.725
 11
164.45
 21
216.725
  0
LINE
  5
507
100
AcDbEntity
  8
0
100
AcDbLine
 62
7
  6
CONTINUOUS
 10
163.45
 20
217.575
 11
164.45
 21
217.575
  0
LWPOLYLINE
  5
508
100
AcDbEntity
  8
RACCORDO
100
AcDbPolyline
 62
253
  6
CONTINUOUS
 90
24
 70
0
 10
168.654925106
 20
-199.765943351
 10
168.5902872461
 20
-199.8763284253
 10
168.5287385015
 20
-199.9844768518
 10
168.4701467542
 20
-200.0903886304
 10
168.4143807053
 20
-200.1940357058
 10
168.3613260611
 20
-200.2954461333
 10
168.310883355
 20
-200.3947040788
 10
168.2629396812
 20
-200.4918466863
 10
168.2173920035
 20
-200.5868368117
 10
168.1741605466
 20
-200.6796471895
 10
168.1331677845
 20
-200.7702704401
 10
168.0943019538
 20
-200.858713943
 10
168.0574403132
 20
-200.9449725707
 10
168.0225283807
 20
-201.0290185781
 10
167.9894626037
 20
-201.1108797102
 10
167.9580620396
 20
-201.1906340741
 10
167.9282937705
 20
-201.2682420461
 10
167.9000674218
 20
-201.3437432498
 10
167.8731379937
 20
-201.4173346629
 10
167.8474871194
 20
-201.4890012949
 10
167.8230465136
 20
-201.5587581363
 10
167.7995239737
 20
-201.6268471365
 10
167.7769344611
 20
-201.6932583381
 10
167.6931207464
 20
-201.9438071822
  0
LWPOLYLINE
  5
509
100
AcDbEntity
  8
RACCORDO
100
AcDbPolyline
 62
253
  6
CONTINUOUS
 90
3
 70
0
 10
168.4115856775
 20
-202.0858314613
 10
168.3885961688
 20
-202.0938603724
 10
168.3522267433
 20
-202.1052424934
  0
LINE
  5
50A
100
AcDbEntity
  8
0
100
AcDbLine
 62
7
  6
CONTINUOUS
 10
167.8083333333
 20
203.675
 11
167.525
 21
204.175
  0
LINE
  5
50B
100
AcDbEntity
  8
RACCORDO
100
AcDbLine
 62
7
  6
CONTINUOUS
 10
170.7500173836
 20
-199.7985123691
 11
168.4302963123
 21
-202.0727487135
  0
LINE
  5
50C
100
AcDbEntity
  8
CURVE
100
AcDbLine
 62
252
  6
CONTINUOUS
 10
170.825
 20
-199.725
 11
170.7500173836
 21
-199.7985123691
  0
LINE
  5
50D
100
AcDbEntity
  8
CURVE
100
AcDbLine
 62
252
  6
CONTINUOUS
 10
168.4302915015
 20
-202.0727534299
 11
168.275
 21
-202.225
  0
LWPOLYLINE
  5
50E
100
AcDbEntity
  8
RACCORDO
100
AcDbPolyline
 62
253
  6
CONTINUOUS
 90
7
 70
0
 10
168.4302923113
 20
-202.0727425431
 10
168.4280325797
 20
-202.0748194874
 10
168.4254364802
 20
-202.0769374936
 10
168.4224936218
 20
-202.0791025669
 10
168.4192033944
 20
-202.0813101682
 10
168.4155667923
 20
-202.0835549271
 10
168.4115856775
 20
-202.0858314613
  0
LINE
  5
50F
100
AcDbEntity
  8
RACCORDO
100
AcDbLine
 62
253
  6
CONTINUOUS
 10
168.4115821251
 20
-202.0858275865
 11
168.3586995276
 21
-202.1284449703
  0
LWPOLYLINE
  5
510
100
AcDbEntity
  8
RACCORDO
100
AcDbPolyline
 62
253
  6
CONTINUOUS
 90
6
 70
0
 10
168.3586995276
 20
-202.1284449703
 10
168.3007872889
 20
-202.1639296628
 10
168.2388009005
 20
-202.1916962045
 10
168.1737630728
 20
-202.2112864776
 10
168.1067468615
 20
-202.2223772642
 10
168.0554178389
 20
-202.2250033799
  0
LINE
  5
511
100
AcDbEntity
  8
0
100
AcDbLine
 62
7
  6
CONTINUOUS
 10
167.425
 20
-202.725
 11
165.95
 21
-203.475
  0
LWPOLYLINE
  5
512
100
AcDbEntity
  8
RACCORDO
100
AcDbPolyline
 62
253
  6
CONTINUOUS
 90
4
 70
0
 10
167.6110975376
 20
-202.1757882963
 10
167.5425605341
 20
-202.2026289492
 10
167.4715520695
 20
-202.2191338426
 10
167.4248261451
 20
-202.2227593212
  0
LINE
  5
513
100
AcDbEntity
  8
0
100
AcDbLine
 62
7
  6
CONTINUOUS
 10
169.45
 20
202.875
 11
168.7
 21
203.675
  0
ARC
  5
514
100
AcDbEntity
  8
RACCORDO
100
AcDbCircle
 62
7
  6
CONTINUOUS
 10
-198.5
 20
-197.225
 40
1.5
100
AcDbArc
 50
180.0
 51
270.0
  0
ARC
  5
515
100
AcDbEntity
  8
0
100
AcDbCircle
 62
7
  6
CONTINUOUS
 10
-198.5
 20
-178.925
 40
1.5
100
AcDbArc
 50
109.4763631234
 51
172.3227874694
  0
ARC
  5
516
100
AcDbEntity
  8
0
100
AcDbCircle
 62
7
  6
CONTINUOUS
 10
-178.75
 20
-197.225
 40
1.5
100
AcDbArc
 50
270.0
 51
340.5236368766
  0
CIRCLE
  5
517
100
AcDbEntity
  8
ASSI
100
AcDbCircle
 62
7
  6
CONTINUOUS
 10
-162.5
 20
-148.725
 40
1.25
  0
CIRCLE
  5
518
100
AcDbEntity
  8
ASSI
100
AcDbCircle
 62
7
  6
CONTINUOUS
 10
-189.725
 20
-140.1175
 40
1.25
  0
CIRCLE
  5
519
100
AcDbEntity
  8
SMUSSO
100
AcDbCircle
 62
7
  6
CONTINUOUS
 10
-189.725
 20
-140.1175
 40
1.0
  0
CIRCLE
  5
51A
100
AcDbEntity
  8
SMUSSO
100
AcDbCircle
 62
7
  6
CONTINUOUS
 10
-189.725
 20
-140.1175
 40
0.75
  0
ARC
  5
51B
100
AcDbEntity
  8
RACCORDO
100
AcDbCircle
 62
7
  6
CONTINUOUS
 10
-183.375
 20
-161.225
 40
0.75
100
AcDbArc
 50
180.0
 51
360.0
  0
ARC
  5
51C
100
AcDbEntity
  8
RACCORDO
100
AcDbCircle
 62
7
  6
CONTINUOUS
 10
-183.375
 20
-134.725
 40
0.75
100
AcDbArc
 50
0.0
 51
180.0
  0
ARC
  5
51D
100
AcDbEntity
  8
RACCORDO
100
AcDbCircle
 62
7
  6
CONTINUOUS
 10
-162.5
 20
-182.1
 40
0.75
100
AcDbArc
 50
90.0
 51
270.0
  0
CIRCLE
  5
51E
100
AcDbEntity
  8
0
100
AcDbCircle
 62
7
  6
CONTINUOUS
 10
-141.3925
 20
-188.45
 40
11.25
  0
ARC
  5
51F
100
AcDbEntity
  8
ASSI
100
AcDbCircle
 62
7
  6
CONTINUOUS
 10
-117.125
 20
-49.2
 40
1.75
100
AcDbArc
 50
223.3094688668
 51
270.0
  0
ARC
  5
520
100
AcDbEntity
  8
ASSI
100
AcDbCircle
 62
7
  6
CONTINUOUS
 10
-115.375
 20
-49.2
 40
1.75
100
AcDbArc
 50
270.0
 51
316.6905311332
  0
CIRCLE
  5
521
100
AcDbEntity
  8
0
100
AcDbCircle
 62
7
  6
CONTINUOUS
 10
-116.25
 20
-44.525
 40
1.725
  0
CIRCLE
  5
522
100
AcDbEntity
  8
0
100
AcDbCircle
 62
7
  6
CONTINUOUS
 10
-116.25
 20
-44.525
 40
1.5
  0
CIRCLE
  5
523
100
AcDbEntity
  8
0
100
AcDbCircle
 62
7
  6
CONTINUOUS
 10
-116.25
 20
-44.525
 40
1.25
  0
ARC
  5
524
100
AcDbEntity
  8
0
100
AcDbCircle
 62
7
  6
CONTINUOUS
 10
-116.25
 20
-44.525
 40
1.125
100
AcDbArc
 50
255.0
 51
195.0
  0
ARC
  5
525
100
AcDbEntity
  8
RACCORDO
100
AcDbCircle
 62
7
  6
CONTINUOUS
 10
-119.25
 20
-43.5125
 40
0.4
100
AcDbArc
 50
289.4509645777
 51
70.5490354223
  0
ARC
  5
526
100
AcDbEntity
  8
RACCORDO
100
AcDbCircle
 62
7
  6
CONTINUOUS
 10
-119.25
 20
-45.5375
 40
0.4
100
AcDbArc
 50
289.4509645777
 51
70.5490354223
  0
ARC
  5
527
100
AcDbEntity
  8
ASSI
100
AcDbCircle
 62
7
  6
CONTINUOUS
 10
-117.125
 20
-11.1
 40
1.75
100
AcDbArc
 50
90.0
 51
136.6905311332
  0
ARC
  5
528
100
AcDbEntity
  8
ASSI
100
AcDbCircle
 62
7
  6
CONTINUOUS
 10
-115.375
 20
-11.1
 40
1.75
100
AcDbArc
 50
43.3094688668
 51
90.0
  0
CIRCLE
  5
529
100
AcDbEntity
  8
0
100
AcDbCircle
 62
7
  6
CONTINUOUS
 10
-116.25
 20
-15.775
 40
1.725
  0
CIRCLE
  5
52A
100
AcDbEntity
  8
0
100
AcDbCircle
 62
7
  6
CONTINUOUS
 10
-116.25
 20
-15.775
 40
1.5
  0
CIRCLE
  5
52B
100
AcDbEntity
  8
0
100
AcDbCircle
 62
7
  6
CONTINUOUS
 10
-116.25
 20
-15.775
 40
1.25
  0
ARC
  5
52C
100
AcDbEntity
  8
0
100
AcDbCircle
 62
7
  6
CONTINUOUS
 10
-116.25
 20
-15.775
 40
1.125
100
AcDbArc
 50
255.0
 51
195.0
  0
ARC
  5
52D
100
AcDbEntity
  8
RACCORDO
100
AcDbCircle
 62
7
  6
CONTINUOUS
 10
-119.25
 20
-14.7625
 40
0.4
100
AcDbArc
 50
289.4509645777
 51
70.5490354223
  0
ARC
  5
52E
100
AcDbEntity
  8
RACCORDO
100
AcDbCircle
 62
7
  6
CONTINUOUS
 10
-119.25
 20
-16.7875
 40
0.4
100
AcDbArc
 50
289.4509645777
 51
70.5490354223
  0
ARC
  5
52F
100
AcDbEntity
  8
RACCORDO
100
AcDbCircle
 62
7
  6
CONTINUOUS
 10
-113.25
 20
-43.5125
 40
0.4
100
AcDbArc
 50
109.4509645777
 51
250.5490354223
  0
ARC
  5
530
100
AcDbEntity
  8
RACCORDO
100
AcDbCircle
 62
7
  6
CONTINUOUS
 10
-113.25
 20
-45.5375
 40
0.4
100
AcDbArc
 50
109.4509645777
 51
250.5490354223
  0
ARC
  5
531
100
AcDbEntity
  8
RACCORDO
100
AcDbCircle
 62
7
  6
CONTINUOUS
 10
-111.25
 20
-63.9
 40
0.25
100
AcDbArc
 50
270.0
 51
360.0
  0
ARC
  5
532
100
AcDbEntity
  8
RACCORDO
100
AcDbCircle
 62
7
  6
CONTINUOUS
 10
-110.75
 20
-63.4
 40
0.25
100
AcDbArc
 50
90.0
 51
180.0
  0
ARC
  5
533
100
AcDbEntity
  8
RACCORDO
100
AcDbCircle
 62
7
  6
CONTINUOUS
 10
-111.25
 20
-62.9
 40
0.25
100
AcDbArc
 50
270.0
 51
360.0
  0
ARC
  5
534
100
AcDbEntity
  8
RACCORDO
100
AcDbCircle
 62
7
  6
CONTINUOUS
 10
-110.75
 20
-62.4
 40
0.25
100
AcDbArc
 50
90.0
 51
180.0
  0
ARC
  5
535
100
AcDbEntity
  8
RACCORDO
100
AcDbCircle
 62
7
  6
CONTINUOUS
 10
-110.2
 20
-63.35
 40
0.2
100
AcDbArc
 50
0.0
 51
90.0
  0
ARC
  5
536
100
AcDbEntity
  8
RACCORDO
100
AcDbCircle
 62
7
  6
CONTINUOUS
 10
-110.2
 20
-62.35
 40
0.2
100
AcDbArc
 50
0.0
 51
90.0
  0
ARC
  5
537
100
AcDbEntity
  8
RACCORDO
100
AcDbCircle
 62
7
  6
CONTINUOUS
 10
-113.25
 20
-14.7625
 40
0.4
100
AcDbArc
 50
109.4509645777
 51
250.5490354223
  0
ARC
  5
538
100
AcDbEntity
  8
RACCORDO
100
AcDbCircle
 62
7
  6
CONTINUOUS
 10
-113.25
 20
-16.7875
 40
0.4
100
AcDbArc
 50
109.4509645777
 51
250.5490354223
  0
CIRCLE
  5
539
100
AcDbEntity
  8
0
100
AcDbCircle
 62
7
  6
CONTINUOUS
 10
-141.3925
 20
191.0
 40
11.25
  0
ARC
  5
53A
100
AcDbEntity
  8
RACCORDO
100
AcDbCircle
 62
7
  6
CONTINUOUS
 10
-198.5
 20
199.775
 40
1.5
100
AcDbArc
 50
90.0
 51
180.0
  0
ARC
  5
53B
100
AcDbEntity
  8
0
100
AcDbCircle
 62
7
  6
CONTINUOUS
 10
-180.2
 20
199.775
 40
1.5
100
AcDbArc
 50
19.4763631234
 51
82.3227874694
  0
ARC
  5
53C
100
AcDbEntity
  8
0
100
AcDbCircle
 62
7
  6
CONTINUOUS
 10
-198.5
 20
180.025
 40
1.5
100
AcDbArc
 50
180.0
 51
236.5249006744
  0
CIRCLE
  5
53D
100
AcDbEntity
  8
ASSI
100
AcDbCircle
 62
7
  6
CONTINUOUS
 10
-162.5
 20
151.275
 40
1.25
  0
CIRCLE
  5
53E
100
AcDbEntity
  8
ASSI
100
AcDbCircle
 62
7
  6
CONTINUOUS
 10
-189.725
 20
142.6675
 40
1.25
  0
CIRCLE
  5
53F
100
AcDbEntity
  8
SMUSSO
100
AcDbCircle
 62
7
  6
CONTINUOUS
 10
-189.725
 20
142.6675
 40
1.0
  0
CIRCLE
  5
540
100
AcDbEntity
  8
SMUSSO
100
AcDbCircle
 62
7
  6
CONTINUOUS
 10
-189.725
 20
142.6675
 40
0.75
  0
ARC
  5
541
100
AcDbEntity
  8
RACCORDO
100
AcDbCircle
 62
7
  6
CONTINUOUS
 10
-162.5
 20
184.65
 40
0.75
100
AcDbArc
 50
90.0
 51
270.0
  0
ARC
  5
542
100
AcDbEntity
  8
RACCORDO
100
AcDbCircle
 62
7
  6
CONTINUOUS
 10
-183.375
 20
163.775
 40
0.75
100
AcDbArc
 50
0.0
 51
180.0
  0
ARC
  5
543
100
AcDbEntity
  8
RACCORDO
100
AcDbCircle
 62
7
  6
CONTINUOUS
 10
-183.375
 20
137.275
 40
0.75
100
AcDbArc
 50
180.0
 51
360.0
  0
ARC
  5
544
100
AcDbEntity
  8
ASSI
100
AcDbCircle
 62
7
  6
CONTINUOUS
 10
-117.125
 20
17.675
 40
1.75
100
AcDbArc
 50
223.3094688668
 51
270.0
  0
ARC
  5
545
100
AcDbEntity
  8
ASSI
100
AcDbCircle
 62
7
  6
CONTINUOUS
 10
-115.375
 20
17.675
 40
1.75
100
AcDbArc
 50
270.0
 51
316.6905311332
  0
CIRCLE
  5
546
100
AcDbEntity
  8
0
100
AcDbCircle
 62
7
  6
CONTINUOUS
 10
-116.25
 20
22.35
 40
1.725
  0
CIRCLE
  5
547
100
AcDbEntity
  8
0
100
AcDbCircle
 62
7
  6
CONTINUOUS
 10
-116.25
 20
22.35
 40
1.5
  0
CIRCLE
  5
548
100
AcDbEntity
  8
0
100
AcDbCircle
 62
7
  6
CONTINUOUS
 10
-116.25
 20
22.35
 40
1.25
  0
ARC
  5
549
100
AcDbEntity
  8
0
100
AcDbCircle
 62
7
  6
CONTINUOUS
 10
-116.25
 20
22.35
 40
1.125
100
AcDbArc
 50
255.0
 51
195.0
  0
ARC
  5
54A
100
AcDbEntity
  8
RACCORDO
100
AcDbCircle
 62
7
  6
CONTINUOUS
 10
-119.25
 20
23.3625
 40
0.4
100
AcDbArc
 50
289.4509645777
 51
70.5490354223
  0
ARC
  5
54B
100
AcDbEntity
  8
RACCORDO
100
AcDbCircle
 62
7
  6
CONTINUOUS
 10
-119.25
 20
21.3375
 40
0.4
100
AcDbArc
 50
289.4509645777
 51
70.5490354223
  0
ARC
  5
54C
100
AcDbEntity
  8
ASSI
100
AcDbCircle
 62
7
  6
CONTINUOUS
 10
-117.125
 20
55.775
 40
1.75
100
AcDbArc
 50
90.0
 51
136.6905311332
  0
ARC
  5
54D
100
AcDbEntity
  8
ASSI
100
AcDbCircle
 62
7
  6
CONTINUOUS
 10
-115.375
 20
55.775
 40
1.75
100
AcDbArc
 50
43.3094688668
 51
90.0
  0
CIRCLE
  5
54E
100
AcDbEntity
  8
0
100
AcDbCircle
 62
7
  6
CONTINUOUS
 10
-116.25
 20
51.1
 40
1.725
  0
CIRCLE
  5
54F
100
AcDbEntity
  8
0
100
AcDbCircle
 62
7
  6
CONTINUOUS
 10
-116.25
 20
51.1
 40
1.5
  0
CIRCLE
  5
550
100
AcDbEntity
  8
0
100
AcDbCircle
 62
7
  6
CONTINUOUS
 10
-116.25
 20
51.1
 40
1.25
  0
ARC
  5
551
100
AcDbEntity
  8
0
100
AcDbCircle
 62
7
  6
CONTINUOUS
 10
-116.25
 20
51.1
 40
1.125
100
AcDbArc
 50
255.0
 51
195.0
  0
ARC
  5
552
100
AcDbEntity
  8
RACCORDO
100
AcDbCircle
 62
7
  6
CONTINUOUS
 10
-119.25
 20
52.1125
 40
0.4
100
AcDbArc
 50
289.4509645777
 51
70.5490354223
  0
ARC
  5
553
100
AcDbEntity
  8
RACCORDO
100
AcDbCircle
 62
7
  6
CONTINUOUS
 10
-119.25
 20
50.0875
 40
0.4
100
AcDbArc
 50
289.4509645777
 51
70.5490354223
  0
ARC
  5
554
100
AcDbEntity
  8
RACCORDO
100
AcDbCircle
 62
7
  6
CONTINUOUS
 10
-113.25
 20
23.3625
 40
0.4
100
AcDbArc
 50
109.4509645777
 51
250.5490354223
  0
ARC
  5
555
100
AcDbEntity
  8
RACCORDO
100
AcDbCircle
 62
7
  6
CONTINUOUS
 10
-113.25
 20
21.3375
 40
0.4
100
AcDbArc
 50
109.4509645777
 51
250.5490354223
  0
ARC
  5
556
100
AcDbEntity
  8
RACCORDO
100
AcDbCircle
 62
7
  6
CONTINUOUS
 10
-111.25
 20
2.975
 40
0.25
100
AcDbArc
 50
311.2311392294
 51
360.0
  0
ARC
  5
557
100
AcDbEntity
  8
RACCORDO
100
AcDbCircle
 62
7
  6
CONTINUOUS
 10
-110.75
 20
3.475
 40
0.25
100
AcDbArc
 50
90.0
 51
180.0
  0
ARC
  5
558
100
AcDbEntity
  8
RACCORDO
100
AcDbCircle
 62
7
  6
CONTINUOUS
 10
-111.25
 20
2.6
 40
0.25
100
AcDbArc
 50
0.0
 51
90.0
  0
ARC
  5
559
100
AcDbEntity
  8
RACCORDO
100
AcDbCircle
 62
7
  6
CONTINUOUS
 10
-110.75
 20
2.1
 40
0.25
100
AcDbArc
 50
180.0
 51
270.0
  0
ARC
  5
55A
100
AcDbEntity
  8
RACCORDO
100
AcDbCircle
 62
7
  6
CONTINUOUS
 10
-111.25
 20
3.975
 40
0.25
100
AcDbArc
 50
270.0
 51
360.0
  0
ARC
  5
55B
100
AcDbEntity
  8
RACCORDO
100
AcDbCircle
 62
7
  6
CONTINUOUS
 10
-110.75
 20
4.475
 40
0.25
100
AcDbArc
 50
90.0
 51
180.0
  0
ARC
  5
55C
100
AcDbEntity
  8
RACCORDO
100
AcDbCircle
 62
7
  6
CONTINUOUS
 10
-110.2
 20
3.525
 40
0.2
100
AcDbArc
 50
0.0
 51
90.0
  0
ARC
  5
55D
100
AcDbEntity
  8
RACCORDO
100
AcDbCircle
 62
7
  6
CONTINUOUS
 10
-110.2
 20
2.05
 40
0.2
100
AcDbArc
 50
270.0
 51
360.0
  0
ARC
  5
55E
100
AcDbEntity
  8
RACCORDO
100
AcDbCircle
 62
7
  6
CONTINUOUS
 10
-110.2
 20
4.525
 40
0.2
100
AcDbArc
 50
0.0
 51
90.0
  0
ARC
  5
55F
100
AcDbEntity
  8
RACCORDO
100
AcDbCircle
 62
7
  6
CONTINUOUS
 10
-113.25
 20
52.1125
 40
0.4
100
AcDbArc
 50
109.4509645777
 51
250.5490354223
  0
ARC
  5
560
100
AcDbEntity
  8
RACCORDO
100
AcDbCircle
 62
7
  6
CONTINUOUS
 10
-113.25
 20
50.0875
 40
0.4
100
AcDbArc
 50
109.4509645777
 51
250.5490354223
  0
ARC
  5
561
100
AcDbEntity
  8
RACCORDO
100
AcDbCircle
 62
7
  6
CONTINUOUS
 10
-110.75
 20
68.975
 40
0.25
100
AcDbArc
 50
180.0
 51
270.0
  0
ARC
  5
562
100
AcDbEntity
  8
RACCORDO
100
AcDbCircle
 62
7
  6
CONTINUOUS
 10
-110.2
 20
68.925
 40
0.2
100
AcDbArc
 50
270.0
 51
360.0
  0
CIRCLE
  5
563
100
AcDbEntity
  8
0
100
AcDbCircle
 62
7
  6
CONTINUOUS
 10
-78.75
 20
145.425
 40
1.25
  0
ARC
  5
564
100
AcDbEntity
  8
0
100
AcDbCircle
 62
7
  6
CONTINUOUS
 10
-78.75
 20
145.425
 40
1.125
100
AcDbArc
 50
255.0
 51
195.0
  0
CIRCLE
  5
565
100
AcDbEntity
  8
0
100
AcDbCircle
 62
7
  6
CONTINUOUS
 10
141.3925
 20
-188.45
 40
11.25
  0
ARC
  5
566
100
AcDbEntity
  8
RACCORDO
100
AcDbCircle
 62
7
  6
CONTINUOUS
 10
153.075
 20
-199.6202108833
 40
0.25
100
AcDbArc
 50
179.9502596878
 51
225.5323536877
  0
ARC
  5
567
100
AcDbEntity
  8
RACCORDO
100
AcDbCircle
 62
7
  6
CONTINUOUS
 10
113.25
 20
-43.5125
 40
0.4
100
AcDbArc
 50
289.4509645777
 51
70.5490354223
  0
ARC
  5
568
100
AcDbEntity
  8
RACCORDO
100
AcDbCircle
 62
7
  6
CONTINUOUS
 10
113.25
 20
-45.5375
 40
0.4
100
AcDbArc
 50
289.4509645777
 51
70.5490354223
  0
ARC
  5
569
100
AcDbEntity
  8
RACCORDO
100
AcDbCircle
 62
7
  6
CONTINUOUS
 10
111.25
 20
-63.9
 40
0.25
100
AcDbArc
 50
180.0
 51
270.0
  0
ARC
  5
56A
100
AcDbEntity
  8
RACCORDO
100
AcDbCircle
 62
7
  6
CONTINUOUS
 10
110.75
 20
-63.4
 40
0.25
100
AcDbArc
 50
0.0
 51
90.0
  0
ARC
  5
56B
100
AcDbEntity
  8
RACCORDO
100
AcDbCircle
 62
7
  6
CONTINUOUS
 10
111.25
 20
-62.9
 40
0.25
100
AcDbArc
 50
180.0
 51
270.0
  0
ARC
  5
56C
100
AcDbEntity
  8
RACCORDO
100
AcDbCircle
 62
7
  6
CONTINUOUS
 10
110.75
 20
-62.4
 40
0.25
100
AcDbArc
 50
0.0
 51
90.0
  0
ARC
  5
56D
100
AcDbEntity
  8
RACCORDO
100
AcDbCircle
 62
7
  6
CONTINUOUS
 10
110.2
 20
-63.35
 40
0.2
100
AcDbArc
 50
90.0
 51
180.0
  0
ARC
  5
56E
100
AcDbEntity
  8
RACCORDO
100
AcDbCircle
 62
7
  6
CONTINUOUS
 10
110.2
 20
-62.35
 40
0.2
100
AcDbArc
 50
90.0
 51
180.0
  0
ARC
  5
56F
100
AcDbEntity
  8
RACCORDO
100
AcDbCircle
 62
7
  6
CONTINUOUS
 10
113.25
 20
-14.7625
 40
0.4
100
AcDbArc
 50
289.4509645777
 51
70.5490354223
  0
ARC
  5
570
100
AcDbEntity
  8
RACCORDO
100
AcDbCircle
 62
7
  6
CONTINUOUS
 10
113.25
 20
-16.7875
 40
0.4
100
AcDbArc
 50
289.4509645777
 51
70.5490354223
  0
ARC
  5
571
100
AcDbEntity
  8
ASSI
100
AcDbCircle
 62
7
  6
CONTINUOUS
 10
117.125
 20
-49.2
 40
1.75
100
AcDbArc
 50
270.0
 51
316.6905311332
  0
ARC
  5
572
100
AcDbEntity
  8
ASSI
100
AcDbCircle
 62
7
  6
CONTINUOUS
 10
115.375
 20
-49.2
 40
1.75
100
AcDbArc
 50
223.3094688668
 51
270.0
  0
CIRCLE
  5
573
100
AcDbEntity
  8
0
100
AcDbCircle
 62
7
  6
CONTINUOUS
 10
116.25
 20
-44.525
 40
1.725
  0
CIRCLE
  5
574
100
AcDbEntity
  8
0
100
AcDbCircle
 62
7
  6
CONTINUOUS
 10
116.25
 20
-44.525
 40
1.5
  0
CIRCLE
  5
575
100
AcDbEntity
  8
0
100
AcDbCircle
 62
7
  6
CONTINUOUS
 10
116.25
 20
-44.525
 40
1.25
  0
ARC
  5
576
100
AcDbEntity
  8
0
100
AcDbCircle
 62
7
  6
CONTINUOUS
 10
116.25
 20
-44.525
 40
1.125
100
AcDbArc
 50
255.0
 51
195.0
  0
ARC
  5
577
100
AcDbEntity
  8
RACCORDO
100
AcDbCircle
 62
7
  6
CONTINUOUS
 10
119.25
 20
-43.5125
 40
0.4
100
AcDbArc
 50
109.4509645777
 51
250.5490354223
  0
ARC
  5
578
100
AcDbEntity
  8
RACCORDO
100
AcDbCircle
 62
7
  6
CONTINUOUS
 10
119.25
 20
-45.5375
 40
0.4
100
AcDbArc
 50
109.4509645777
 51
250.5490354223
  0
ARC
  5
579
100
AcDbEntity
  8
ASSI
100
AcDbCircle
 62
7
  6
CONTINUOUS
 10
117.125
 20
-11.1
 40
1.75
100
AcDbArc
 50
43.3094688668
 51
90.0
  0
ARC
  5
57A
100
AcDbEntity
  8
ASSI
100
AcDbCircle
 62
7
  6
CONTINUOUS
 10
115.375
 20
-11.1
 40
1.75
100
AcDbArc
 50
90.0
 51
136.6905311332
  0
CIRCLE
  5
57B
100
AcDbEntity
  8
0
100
AcDbCircle
 62
7
  6
CONTINUOUS
 10
116.25
 20
-15.775
 40
1.725
  0
CIRCLE
  5
57C
100
AcDbEntity
  8
0
100
AcDbCircle
 62
7
  6
CONTINUOUS
 10
116.25
 20
-15.775
 40
1.5
  0
CIRCLE
  5
57D
100
AcDbEntity
  8
0
100
AcDbCircle
 62
7
  6
CONTINUOUS
 10
116.25
 20
-15.775
 40
1.25
  0
ARC
  5
57E
100
AcDbEntity
  8
0
100
AcDbCircle
 62
7
  6
CONTINUOUS
 10
116.25
 20
-15.775
 40
1.125
100
AcDbArc
 50
255.0
 51
195.0
  0
ARC
  5
57F
100
AcDbEntity
  8
RACCORDO
100
AcDbCircle
 62
7
  6
CONTINUOUS
 10
119.25
 20
-14.7625
 40
0.4
100
AcDbArc
 50
109.4509645777
 51
250.5490354223
  0
ARC
  5
580
100
AcDbEntity
  8
RACCORDO
100
AcDbCircle
 62
7
  6
CONTINUOUS
 10
119.25
 20
-16.7875
 40
0.4
100
AcDbArc
 50
109.4509645777
 51
250.5490354223
  0
ARC
  5
581
100
AcDbEntity
  8
RACCORDO
100
AcDbCircle
 62
7
  6
CONTINUOUS
 10
198.5
 20
-197.225
 40
1.5
100
AcDbArc
 50
270.0
 51
360.0
  0
ARC
  5
582
100
AcDbEntity
  8
0
100
AcDbCircle
 62
7
  6
CONTINUOUS
 10
180.2
 20
-197.225
 40
1.5
100
AcDbArc
 50
199.4763631234
 51
262.3227874694
  0
ARC
  5
583
100
AcDbEntity
  8
0
100
AcDbCircle
 62
7
  6
CONTINUOUS
 10
198.5
 20
-177.475
 40
1.5
100
AcDbArc
 50
0.0
 51
56.5249006744
  0
CIRCLE
  5
584
100
AcDbEntity
  8
ASSI
100
AcDbCircle
 62
7
  6
CONTINUOUS
 10
162.5
 20
-148.725
 40
1.25
  0
CIRCLE
  5
585
100
AcDbEntity
  8
ASSI
100
AcDbCircle
 62
7
  6
CONTINUOUS
 10
189.725
 20
-140.1175
 40
1.25
  0
CIRCLE
  5
586
100
AcDbEntity
  8
SMUSSO
100
AcDbCircle
 62
7
  6
CONTINUOUS
 10
189.725
 20
-140.1175
 40
1.0
  0
CIRCLE
  5
587
100
AcDbEntity
  8
SMUSSO
100
AcDbCircle
 62
7
  6
CONTINUOUS
 10
189.725
 20
-140.1175
 40
0.75
  0
ARC
  5
588
100
AcDbEntity
  8
RACCORDO
100
AcDbCircle
 62
7
  6
CONTINUOUS
 10
183.375
 20
-161.225
 40
0.75
100
AcDbArc
 50
180.0
 51
360.0
  0
ARC
  5
589
100
AcDbEntity
  8
RACCORDO
100
AcDbCircle
 62
7
  6
CONTINUOUS
 10
183.375
 20
-134.725
 40
0.75
100
AcDbArc
 50
0.0
 51
180.0
  0
ARC
  5
58A
100
AcDbEntity
  8
RACCORDO
100
AcDbCircle
 62
7
  6
CONTINUOUS
 10
162.5
 20
-182.1
 40
0.75
100
AcDbArc
 50
270.0
 51
90.0
  0
ARC
  5
58B
100
AcDbEntity
  8
RACCORDO
100
AcDbCircle
 62
7
  6
CONTINUOUS
 10
155.592490549
 20
-201.692490549
 40
0.532509451
100
AcDbArc
 50
225.5693110392
 51
269.9834298218
  0
ARC
  5
58C
100
AcDbEntity
  8
RACCORDO
100
AcDbCircle
 62
7
  6
CONTINUOUS
 10
168.0575029596
 20
-201.6924970404
 40
0.5325026951
100
AcDbArc
 50
270.0104257399
 51
314.4319345548
  0
ARC
  5
58D
100
AcDbEntity
  8
RACCORDO
100
AcDbCircle
 62
7
  6
CONTINUOUS
 10
170.575
 20
-199.6199936993
 40
0.25
100
AcDbArc
 50
314.4325830101
 51
359.9997472184
  0
ARC
  5
58E
100
AcDbEntity
  8
RACCORDO
100
AcDbCircle
 62
7
  6
CONTINUOUS
 10
113.25
 20
23.3625
 40
0.4
100
AcDbArc
 50
289.4509645777
 51
70.5490354223
  0
ARC
  5
58F
100
AcDbEntity
  8
RACCORDO
100
AcDbCircle
 62
7
  6
CONTINUOUS
 10
113.25
 20
21.3375
 40
0.4
100
AcDbArc
 50
289.4509645777
 51
70.5490354223
  0
ARC
  5
590
100
AcDbEntity
  8
RACCORDO
100
AcDbCircle
 62
7
  6
CONTINUOUS
 10
111.25
 20
2.975
 40
0.25
100
AcDbArc
 50
180.0
 51
228.786003043
  0
ARC
  5
591
100
AcDbEntity
  8
RACCORDO
100
AcDbCircle
 62
7
  6
CONTINUOUS
 10
110.75
 20
3.475
 40
0.25
100
AcDbArc
 50
0.0
 51
90.0
  0
ARC
  5
592
100
AcDbEntity
  8
RACCORDO
100
AcDbCircle
 62
7
  6
CONTINUOUS
 10
111.25
 20
2.6
 40
0.25
100
AcDbArc
 50
90.0
 51
180.0
  0
ARC
  5
593
100
AcDbEntity
  8
RACCORDO
100
AcDbCircle
 62
7
  6
CONTINUOUS
 10
110.75
 20
2.1
 40
0.25
100
AcDbArc
 50
270.0
 51
360.0
  0
ARC
  5
594
100
AcDbEntity
  8
RACCORDO
100
AcDbCircle
 62
7
  6
CONTINUOUS
 10
111.25
 20
3.975
 40
0.25
100
AcDbArc
 50
180.0
 51
270.0
  0
ARC
  5
595
100
AcDbEntity
  8
RACCORDO
100
AcDbCircle
 62
7
  6
CONTINUOUS
 10
110.75
 20
4.475
 40
0.25
100
AcDbArc
 50
0.0
 51
90.0
  0
ARC
  5
596
100
AcDbEntity
  8
RACCORDO
100
AcDbCircle
 62
7
  6
CONTINUOUS
 10
110.2
 20
3.525
 40
0.2
100
AcDbArc
 50
90.0
 51
180.0
  0
ARC
  5
597
100
AcDbEntity
  8
RACCORDO
100
AcDbCircle
 62
7
  6
CONTINUOUS
 10
110.2
 20
2.05
 40
0.2
100
AcDbArc
 50
180.0
 51
270.0
  0
ARC
  5
598
100
AcDbEntity
  8
RACCORDO
100
AcDbCircle
 62
7
  6
CONTINUOUS
 10
110.2
 20
4.525
 40
0.2
100
AcDbArc
 50
90.0
 51
180.0
  0
ARC
  5
599
100
AcDbEntity
  8
RACCORDO
100
AcDbCircle
 62
7
  6
CONTINUOUS
 10
113.25
 20
52.1125
 40
0.4
100
AcDbArc
 50
289.4509645777
 51
70.5490354222
  0
ARC
  5
59A
100
AcDbEntity
  8
RACCORDO
100
AcDbCircle
 62
7
  6
CONTINUOUS
 10
113.25
 20
50.0875
 40
0.4
100
AcDbArc
 50
289.4509645778
 51
70.5490354223
  0
ARC
  5
59B
100
AcDbEntity
  8
RACCORDO
100
AcDbCircle
 62
7
  6
CONTINUOUS
 10
110.75
 20
68.975
 40
0.25
100
AcDbArc
 50
270.0
 51
360.0
  0
ARC
  5
59C
100
AcDbEntity
  8
RACCORDO
100
AcDbCircle
 62
7
  6
CONTINUOUS
 10
110.2
 20
68.925
 40
0.2
100
AcDbArc
 50
180.0
 51
270.0
  0
ARC
  5
59D
100
AcDbEntity
  8
ASSI
100
AcDbCircle
 62
7
  6
CONTINUOUS
 10
117.125
 20
17.675
 40
1.75
100
AcDbArc
 50
270.0
 51
316.6905311332
  0
ARC
  5
59E
100
AcDbEntity
  8
ASSI
100
AcDbCircle
 62
7
  6
CONTINUOUS
 10
115.375
 20
17.675
 40
1.75
100
AcDbArc
 50
223.3094688668
 51
270.0
  0
CIRCLE
  5
59F
100
AcDbEntity
  8
0
100
AcDbCircle
 62
7
  6
CONTINUOUS
 10
116.25
 20
22.35
 40
1.725
  0
CIRCLE
  5
5A0
100
AcDbEntity
  8
0
100
AcDbCircle
 62
7
  6
CONTINUOUS
 10
116.25
 20
22.35
 40
1.5
  0
CIRCLE
  5
5A1
100
AcDbEntity
  8
0
100
AcDbCircle
 62
7
  6
CONTINUOUS
 10
116.25
 20
22.35
 40
1.25
  0
ARC
  5
5A2
100
AcDbEntity
  8
0
100
AcDbCircle
 62
7
  6
CONTINUOUS
 10
116.25
 20
22.35
 40
1.125
100
AcDbArc
 50
255.0
 51
195.0
  0
ARC
  5
5A3
100
AcDbEntity
  8
RACCORDO
100
AcDbCircle
 62
7
  6
CONTINUOUS
 10
119.25
 20
23.3625
 40
0.4
100
AcDbArc
 50
109.4509645777
 51
250.5490354223
  0
ARC
  5
5A4
100
AcDbEntity
  8
RACCORDO
100
AcDbCircle
 62
7
  6
CONTINUOUS
 10
119.25
 20
21.3375
 40
0.4
100
AcDbArc
 50
109.4509645777
 51
250.5490354223
  0
ARC
  5
5A5
100
AcDbEntity
  8
ASSI
100
AcDbCircle
 62
7
  6
CONTINUOUS
 10
117.125
 20
55.775
 40
1.75
100
AcDbArc
 50
43.3094688668
 51
90.0
  0
ARC
  5
5A6
100
AcDbEntity
  8
ASSI
100
AcDbCircle
 62
7
  6
CONTINUOUS
 10
115.375
 20
55.775
 40
1.75
100
AcDbArc
 50
90.0
 51
136.6905311332
  0
CIRCLE
  5
5A7
100
AcDbEntity
  8
0
100
AcDbCircle
 62
7
  6
CONTINUOUS
 10
116.25
 20
51.1
 40
1.725
  0
CIRCLE
  5
5A8
100
AcDbEntity
  8
0
100
AcDbCircle
 62
7
  6
CONTINUOUS
 10
116.25
 20
51.1
 40
1.5
  0
CIRCLE
  5
5A9
100
AcDbEntity
  8
0
100
AcDbCircle
 62
7
  6
CONTINUOUS
 10
116.25
 20
51.1
 40
1.25
  0
ARC
  5
5AA
100
AcDbEntity
  8
0
100
AcDbCircle
 62
7
  6
CONTINUOUS
 10
116.25
 20
51.1
 40
1.125
100
AcDbArc
 50
255.0
 51
195.0
  0
ARC
  5
5AB
100
AcDbEntity
  8
RACCORDO
100
AcDbCircle
 62
7
  6
CONTINUOUS
 10
119.25
 20
52.1125
 40
0.4
100
AcDbArc
 50
109.4509645777
 51
250.5490354223
  0
ARC
  5
5AC
100
AcDbEntity
  8
RACCORDO
100
AcDbCircle
 62
7
  6
CONTINUOUS
 10
119.25
 20
50.0875
 40
0.4
100
AcDbArc
 50
109.4509645777
 51
250.5490354223
  0
CIRCLE
  5
5AD
100
AcDbEntity
  8
0
100
AcDbCircle
 62
7
  6
CONTINUOUS
 10
78.75
 20
145.425
 40
1.25
  0
ARC
  5
5AE
100
AcDbEntity
  8
0
100
AcDbCircle
 62
7
  6
CONTINUOUS
 10
78.75
 20
145.425
 40
1.125
100
AcDbArc
 50
255.0
 51
195.0
  0
CIRCLE
  5
5AF
100
AcDbEntity
  8
0
100
AcDbCircle
 62
7
  6
CONTINUOUS
 10
141.3925
 20
191.0
 40
11.25
  0
ARC
  5
5B0
100
AcDbEntity
  8
RACCORDO
100
AcDbCircle
 62
7
  6
CONTINUOUS
 10
198.5
 20
199.775
 40
1.5
100
AcDbArc
 50
0.0
 51
90.0
  0
ARC
  5
5B1
100
AcDbEntity
  8
0
100
AcDbCircle
 62
7
  6
CONTINUOUS
 10
198.5
 20
181.475
 40
1.5
100
AcDbArc
 50
289.4763631234
 51
352.3227874694
  0
ARC
  5
5B2
100
AcDbEntity
  8
0
100
AcDbCircle
 62
7
  6
CONTINUOUS
 10
178.75
 20
199.775
 40
1.5
100
AcDbArc
 50
90.0
 51
160.5236368766
  0
CIRCLE
  5
5B3
100
AcDbEntity
  8
ASSI
100
AcDbCircle
 62
7
  6
CONTINUOUS
 10
162.5
 20
151.275
 40
1.25
  0
CIRCLE
  5
5B4
100
AcDbEntity
  8
ASSI
100
AcDbCircle
 62
7
  6
CONTINUOUS
 10
189.725
 20
142.6675
 40
1.25
  0
CIRCLE
  5
5B5
100
AcDbEntity
  8
SMUSSO
100
AcDbCircle
 62
7
  6
CONTINUOUS
 10
189.725
 20
142.6675
 40
1.0
  0
CIRCLE
  5
5B6
100
AcDbEntity
  8
SMUSSO
100
AcDbCircle
 62
7
  6
CONTINUOUS
 10
189.725
 20
142.6675
 40
0.75
  0
ARC
  5
5B7
100
AcDbEntity
  8
RACCORDO
100
AcDbCircle
 62
7
  6
CONTINUOUS
 10
183.375
 20
163.775
 40
0.75
100
AcDbArc
 50
0.0
 51
180.0
  0
ARC
  5
5B8
100
AcDbEntity
  8
RACCORDO
100
AcDbCircle
 62
7
  6
CONTINUOUS
 10
183.375
 20
137.275
 40
0.75
100
AcDbArc
 50
180.0
 51
360.0
  0
ARC
  5
5B9
100
AcDbEntity
  8
RACCORDO
100
AcDbCircle
 62
7
  6
CONTINUOUS
 10
162.5
 20
184.65
 40
0.75
100
AcDbArc
 50
270.0
 51
90.0
  0
ARC
  5
5BA
100
AcDbEntity
  8
0
100
AcDbCircle
 62
7
  6
CONTINUOUS
 10
158.85
 20
201.2
 40
0.425
100
AcDbArc
 50
90.0
 51
169.8247313415
  0
ARC
  5
5BB
100
AcDbEntity
  8
0
100
AcDbCircle
 62
7
  6
CONTINUOUS
 10
169.05
 20
201.2
 40
0.425
100
AcDbArc
 50
10.1752686585
 51
90.0
  0
ENDSEC
  0
SECTION
  2
OBJECTS
  0
DICTIONARY
  5
C
100
AcDbDictionary
280
0
281
1
  3
ACAD_GROUP
350
D
  3
ACAD_MLINESTYLE
350
17
  3
ACAD_LAYOUT
350
1A
  3
ACAD_PLOTSETTINGS
350
19
  3
ACAD_PLOTSTYLENAME
350
E
  0
DICTIONARY
  5
D
102
{ACAD_REACTORS
330
C
102
}
100
AcDbDictionary
280
0
281
1
  0
ACDBDICTIONARYWDFLT
  5
E
102
{ACAD_REACTORS
330
C
102
}
100
AcDbDictionary
281
1
  3
Normal
350
F
100
AcDbDictionaryWithDefault
340
F
  0
DICTIONARY
  5
17
102
{ACAD_REACTORS
330
C
102
}
100
AcDbDictionary
280
0
281
1
  3
Standard
350
18
  0
DICTIONARY
  5
19
102
{ACAD_REACTORS
330
C
102
}
100
AcDbDictionary
281
1
  0
DICTIONARY
  5
1A
102
{ACAD_REACTORS
330
C
102
}
100
AcDbDictionary
281
1
  3
Model
350
5BC
  3
Layout1
350
5BD
  0
ACDBPLACEHOLDER
  5
F
102
{ACAD_REACTORS
330
E
102
}
  0
MLINESTYLE
  5
18
102
{ACAD_REACTORS
330
17
102
}
100
AcDbMlineStyle
  2
STANDARD
 70
0
  3

 62
256
 51
90.0
 52
90.0
 71
2
 49
0.5
 62
256
  6
BYLAYER
 49
-0.5
 62
256
  6
BYLAYER
  0
LAYOUT
  5
5BC
102
{ACAD_REACTORS
330
1A
102
}
100
AcDbPlotSettings
  1

  2
none_device
  4
ANSI_C_(22.00_x_17.00_Inches)
  6

 40
0.0
 41
0.0
 42
0.0
 43
0.0
 44
558.8
 45
431.8
 46
0.0
 47
0.0
 48
0.0
 49
0.0
140
0.0
141
0.0
142
1.0
143
1.0
 70
1024
 72
1
 73
0
 74
0
  7

 75
0
147
1.0
148
0.0
149
0.0
100
AcDbLayout
  1
Model
 70
0
 71
0
 10
0.0
 20
0.0
 11
558.8
 21
431.8
 12
0.0
 22
0.0
 32
0.0
 14
0.0
 24
0.0
 34
0.0
 15
0.0
 25
0.0
 35
0.0
146
0.0
 13
0.0
 23
0.0
 33
0.0
 16
1.0
 26
0.0
 36
0.0
 17
0.0
 27
1.0
 37
0.0
 76
0
330
213
345
0
346
0
  0
LAYOUT
  5
5BD
102
{ACAD_REACTORS
330
1A
102
}
100
AcDbPlotSettings
  1

  2
none_device
  4
ANSI_C_(22.00_x_17.00_Inches)
  6

 40
0.0
 41
0.0
 42
0.0
 43
0.0
 44
558.8
 45
431.8
 46
0.0
 47
0.0
 48
0.0
 49
0.0
140
0.0
141
0.0
142
1.0
143
1.0
 70
0
 72
1
 73
0
 74
0
  7

 75
0
147
1.0
148
0.0
149
0.0
100
AcDbLayout
  1
Layout1
 70
0
 71
1
 10
0.0
 20
0.0
 11
558.8
 21
431.8
 12
0.0
 22
0.0
 32
0.0
 14
0.0
 24
0.0
 34
0.0
 15
0.0
 25
0.0
 35
0.0
146
0.0
 13
0.0
 23
0.0
 33
0.0
 16
1.0
 26
0.0
 36
0.0
 17
0.0
 27
1.0
 37
0.0
 76
0
330
214
345
0
346
0
  0
ENDSEC
  0
EOF
