  0
SECTION
  2
HEADER
  9
$ACADVER
  1
AC1021
  9
$DWGCODEPAGE
  3
ANSI_1252
  9
$EXTMAX
 10
558.8
 20
431.8
 30
0.0
  9
$EXTMIN
 10
0.0
 20
0.0
 30
0.0
  9
$LIMMIN
 10
0.0
 20
0.0
  9
$LIMMAX
 10
558.8
 20
431.8
  9
$VIEWCTR
 10
279.4
 20
215.9
  9
$VIEWSIZE
 40
431.8
  9
$CLAYER
  8
0
  9
$LTSCALE
 40
30.734
  9
$CELTYPE
  6
BYLAYER
  9
$DIMSCALE
 40
1.0
  9
$DIMASZ
 40
3.0
  9
$DIMEXO
 40
0.5
  9
$DIMDLI
 40
21.2344
  9
$DIMEXE
 40
1.5
  9
$DIMCEN
 40
5.0292
  9
$DIMLFAC
 40
1.0
  9
$DIMBLK
  1
_FILLED
  9
$DIMALT
 70
0
  9
$DIMALTF
 40
25.4
  9
$DIMTXT
 40
3.0
  9
$DIMTOL
 70
1
  9
$DIMLIM
 70
0
  9
$DIMTFAC
 40
1.0
  9
$DIMTP
 40
0.01
  9
$DIMTM
 40
0.01
  9
$DIMGAP
 40
0.625
  9
$DIMDSEP
 70
44
  9
$AUNITS
 70
0
  9
$PDMODE
 70
3
  9
$PDSIZE
 40
3.0
  9
$HANDSEED
  5
306
  9
$TILEMODE
 70
1
  9
$MEASUREMENT
 70
1
  9
$INSUNITS
 70
4
  0
ENDSEC
  0
SECTION
  2
CLASSES
  0
CLASS
  1
ACDBDICTIONARYWDFLT
  2
AcDbDictionaryWithDefault
  3
AutoCAD 2000
 90
0
 91
1
280
0
281
0
  0
CLASS
  1
ACDBPLACEHOLDER
  2
AcDbPlaceHolder
  3
AutoCAD 2000
 90
0
 91
1
280
0
281
0
  0
CLASS
  1
LAYOUT
  2
AcDbLayout
  3
AutoCAD 2000
 90
0
 91
0
280
0
281
0
  0
ENDSEC
  0
SECTION
  2
TABLES
  0
TABLE
  2
VPORT
  5
8
100
AcDbSymbolTable
 70
2
  0
VPORT
  5
1F4
100
AcDbSymbolTableRecord
100
AcDbViewportTableRecord
  2
*ACTIVE
 70
0
 10
0.0
 20
0.0
 11
1.0
 21
1.0
 12
279.4
 22
215.9
 13
0.0
 23
0.0
 14
1.0
 24
1.0
 15
0.0
 25
0.0
 16
0.0
 26
0.0
 36
1.0
 17
0.0
 27
0.0
 37
0.0
 40
431.8
 41
1.2941176471
 42
50.0
 43
0.0
 44
0.0
 50
0.0
 51
0.0
 71
0
 72
100
 73
1
 74
1
 75
0
 76
0
 77
0
 78
0
  0
ENDTAB
  0
TABLE
  2
LTYPE
  5
5
100
AcDbSymbolTable
 70
6
  0
LTYPE
  5
14
100
AcDbSymbolTableRecord
100
AcDbLinetypeTableRecord
  2
BYBLOCK
 70
0
  3

 72
65
 73
0
 40
0.0
  0
LTYPE
  5
15
100
AcDbSymbolTableRecord
100
AcDbLinetypeTableRecord
  2
BYLAYER
 70
0
  3

 72
65
 73
0
 40
0.0
  0
LTYPE
  5
16
100
AcDbSymbolTableRecord
100
AcDbLinetypeTableRecord
  2
CONTINUOUS
 70
64
  3
Solid line
 72
65
 73
0
 40
0.0
  0
LTYPE
  5
1F5
100
AcDbSymbolTableRecord
100
AcDbLinetypeTableRecord
  2
CENTER
 70
64
  3
____ _ ____ _ ____ _ ____ _ ____ _ ____ _ ____
 72
65
 73
4
 40
0.6
 49
0.375
 74
0
 49
-0.075
 74
0
 49
0.075
 74
0
 49
-0.075
 74
0
  0
LTYPE
  5
1F6
100
AcDbSymbolTableRecord
100
AcDbLinetypeTableRecord
  2
HIDDEN
 70
64
  3
- - - - - - - - - - - - - - - - - - - -
 72
65
 73
2
 40
0.2
 49
0.1
 74
0
 49
-0.1
 74
0
  0
LTYPE
  5
1F7
100
AcDbSymbolTableRecord
100
AcDbLinetypeTableRecord
  2
PHANTOM
 70
64
  3
_____ _ _ _____ _ _ _____ _ _ _____
 72
65
 73
6
 40
0.8
 49
0.45
 74
0
 49
-0.05
 74
0
 49
0.1
 74
0
 49
-0.05
 74
0
 49
0.1
 74
0
 49
-0.05
 74
0
  0
LTYPE
  5
1F8
100
AcDbSymbolTableRecord
100
AcDbLinetypeTableRecord
  2
DOT
 70
64
  3
. . . . . . . . . . . . . . . . . . . .
 72
65
 73
2
 40
0.2
 49
0.1
 74
0
 49
-0.1
 74
0
  0
LTYPE
  5
1F9
100
AcDbSymbolTableRecord
100
AcDbLinetypeTableRecord
  2
DASHED
 70
64
  3
- - - - - - - - - - - - - - - - - - - -
 72
65
 73
2
 40
0.2
 49
0.1
 74
0
 49
-0.1
 74
0
  0
ENDTAB
  0
TABLE
  2
LAYER
  5
2
100
AcDbSymbolTable
 70
36
  0
LAYER
  5
10
100
AcDbSymbolTableRecord
100
AcDbLayerTableRecord
  2
0
 70
0
 62
7
  6
CONTINUOUS
370
-3
390
F
  0
LAYER
  5
1FA
100
AcDbSymbolTableRecord
100
AcDbLayerTableRecord
  2
DEFAULT_1
 70
0
 62
7
  6
CENTER
370
-3
390
F
  0
LAYER
  5
1FB
100
AcDbSymbolTableRecord
100
AcDbLayerTableRecord
  2
DEFAULT_2
 70
0
 62
7
  6
HIDDEN
370
-3
390
F
  0
LAYER
  5
1FC
100
AcDbSymbolTableRecord
100
AcDbLayerTableRecord
  2
DEFAULT_3
 70
0
 62
7
  6
PHANTOM
370
-3
390
F
  0
LAYER
  5
1FD
100
AcDbSymbolTableRecord
100
AcDbLayerTableRecord
  2
ASSI
 70
0
 62
7
  6
CONTINUOUS
370
-3
390
F
  0
LAYER
  5
1FE
100
AcDbSymbolTableRecord
100
AcDbLayerTableRecord
  2
COORDINATE
 70
0
 62
7
  6
CONTINUOUS
370
-3
390
F
  0
LAYER
  5
1FF
100
AcDbSymbolTableRecord
100
AcDbLayerTableRecord
  2
COORD_ORIGINE
 70
0
 62
7
  6
CONTINUOUS
370
-3
390
F
  0
LAYER
  5
200
100
AcDbSymbolTableRecord
100
AcDbLayerTableRecord
  2
CURVE
 70
0
 62
7
  6
CONTINUOUS
370
-3
390
F
  0
LAYER
  5
201
100
AcDbSymbolTableRecord
100
AcDbLayerTableRecord
  2
DRAFT
 70
0
 62
7
  6
CONTINUOUS
370
-3
390
F
  0
LAYER
  5
202
100
AcDbSymbolTableRecord
100
AcDbLayerTableRecord
  2
PIANI
 70
0
 62
7
  6
CONTINUOUS
370
-3
390
F
  0
LAYER
  5
203
100
AcDbSymbolTableRecord
100
AcDbLayerTableRecord
  2
PIANI_ORIGINE
 70
0
 62
7
  6
CONTINUOUS
370
-3
390
F
  0
LAYER
  5
204
100
AcDbSymbolTableRecord
100
AcDbLayerTableRecord
  2
PUNTI
 70
0
 62
7
  6
CONTINUOUS
370
-3
390
F
  0
LAYER
  5
205
100
AcDbSymbolTableRecord
100
AcDbLayerTableRecord
  2
RACCORDO
 70
0
 62
7
  6
CONTINUOUS
370
-3
390
F
  0
LAYER
  5
206
100
AcDbSymbolTableRecord
100
AcDbLayerTableRecord
  2
SMUSSO
 70
0
 62
7
  6
CONTINUOUS
370
-3
390
F
  0
LAYER
  5
207
100
AcDbSymbolTableRecord
100
AcDbLayerTableRecord
  2
SNAPLINE
 70
0
 62
7
  6
CONTINUOUS
370
-3
390
F
  0
LAYER
  5
208
100
AcDbSymbolTableRecord
100
AcDbLayerTableRecord
  2
SUPERFICI
 70
0
 62
7
  6
CONTINUOUS
370
-3
390
F
  0
LAYER
  5
209
100
AcDbSymbolTableRecord
100
AcDbLayerTableRecord
  2
TRASH
 70
0
 62
7
  6
CONTINUOUS
370
-3
390
F
  0
LAYER
  5
20A
100
AcDbSymbolTableRecord
100
AcDbLayerTableRecord
  2
VECCHIO_NETSAFE
 70
0
 62
7
  6
CONTINUOUS
370
-3
390
F
  0
ENDTAB
  0
TABLE
  2
STYLE
  5
3
100
AcDbSymbolTable
 70
1
  0
STYLE
  5
11
100
AcDbSymbolTableRecord
100
AcDbTextStyleTableRecord
  2
STANDARD
 70
0
 40
0.0
 41
0.8
 50
0.0
 71
0
 42
0.2
  3
txt
  4

  0
STYLE
  5
20B
100
AcDbSymbolTableRecord
100
AcDbTextStyleTableRecord
  2
TEXTSTYLE_1
 70
0
 40
0.0
 41
0.8
 50
0.0
 71
0
 42
0.2
  3
gdt
  4

  0
ENDTAB
  0
TABLE
  2
VIEW
  5
6
100
AcDbSymbolTable
 70
0
  0
ENDTAB
  0
TABLE
  2
UCS
  5
7
100
AcDbSymbolTable
 70
0
  0
ENDTAB
  0
TABLE
  2
APPID
  5
9
100
AcDbSymbolTable
 70
1
  0
APPID
  5
20C
100
AcDbSymbolTableRecord
100
AcDbRegAppTableRecord
  2
ACAD
 70
0
  0
ENDTAB
  0
TABLE
  2
BLOCK_RECORD
  5
1
100
AcDbSymbolTable
 70
0
  0
BLOCK_RECORD
  5
20D
100
AcDbSymbolTableRecord
100
AcDbBlockTableRecord
  2
*Model_Space
  0
BLOCK_RECORD
  5
20E
100
AcDbSymbolTableRecord
100
AcDbBlockTableRecord
  2
*Paper_Space
  0
ENDTAB
  0
TABLE
  2
DIMSTYLE
  5
A
100
AcDbSymbolTable
 70
1
100
AcDbDimStyleTable
 71
0
  0
DIMSTYLE
105
20F
100
AcDbSymbolTableRecord
100
AcDbDimStyleTableRecord
  2
STANDARD
 70
0
  3

  4

 40
1.0
 41
3.0
 42
0.5
 43
0.38
 44
1.5
 45
0.0
 46
0.0
 47
0.01
 48
0.01
140
3.0
141
0.09
142
0.0
143
25.4
144
1.0
145
0.0
146
1.0
147
0.625
 71
1.0
 72
0.0
 73
0
 74
0
 75
0
 76
0
 77
1
 78
8
170
0
171
1
172
0
173
0
174
0
175
0
176
0
177
0
178
0
270
2
271
2
272
2
273
2
274
2
275
0
280
0
281
0
282
0
283
1
284
8
285
0
286
0
287
3
288
0
340
11
278
44
  0
ENDTAB
  0
ENDSEC
  0
SECTION
  2
BLOCKS
  0
BLOCK
  5
20
100
AcDbEntity
  8
0
100
AcDbBlockBegin
  2
*Model_Space
 70
0
 10
0.0
 20
0.0
 30
0.0
  3
*Model_Space
  1

  0
ENDBLK
  5
21
100
AcDbEntity
  8
0
100
AcDbBlockEnd
  0
BLOCK
  5
1C
100
AcDbEntity
  8
0
100
AcDbBlockBegin
  2
*Paper_Space
 70
0
 10
0.0
 20
0.0
 30
0.0
  3
*Paper_Space
  1

  0
ENDBLK
  5
1D
100
AcDbEntity
  8
0
100
AcDbBlockEnd
  0
ENDSEC
  0
SECTION
  2
ENTITIES
  0
LINE
  5
210
100
AcDbEntity
  8
0
100
AcDbLine
 62
7
  6
CONTINUOUS
 10
-181.225
 20
-10.525
 11
-181.225
 21
-3.275
  0
LINE
  5
211
100
AcDbEntity
  8
0
100
AcDbLine
 62
7
  6
CONTINUOUS
 10
-180.575
 20
-10.525
 11
-180.575
 21
-3.275
  0
LINE
  5
212
100
AcDbEntity
  8
0
100
AcDbLine
 62
7
  6
CONTINUOUS
 10
-180.475
 20
-2.525
 11
-180.475
 21
-10.625
  0
LINE
  5
213
100
AcDbEntity
  8
0
100
AcDbLine
 62
253
  6
CONTINUOUS
 10
-180.475
 20
-11.275
 11
-180.475
 21
-10.625
  0
LINE
  5
214
100
AcDbEntity
  8
0
100
AcDbLine
 62
7
  6
CONTINUOUS
 10
-177.975
 20
-12.625
 11
-177.975
 21
-12.375
  0
LINE
  5
215
100
AcDbEntity
  8
0
100
AcDbLine
 62
7
  6
CONTINUOUS
 10
-177.975
 20
-11.375
 11
-177.975
 21
-11.275
  0
LINE
  5
216
100
AcDbEntity
  8
0
100
AcDbLine
 62
7
  6
CONTINUOUS
 10
-175.475
 20
-12.625
 11
-175.475
 21
-12.375
  0
LINE
  5
217
100
AcDbEntity
  8
0
100
AcDbLine
 62
7
  6
CONTINUOUS
 10
-175.475
 20
-11.375
 11
-175.475
 21
-11.275
  0
LINE
  5
218
100
AcDbEntity
  8
0
100
AcDbLine
 62
7
  6
CONTINUOUS
 10
-175.475
 20
-5.875
 11
-175.475
 21
-5.375
  0
LINE
  5
219
100
AcDbEntity
  8
0
100
AcDbLine
 62
7
  6
CONTINUOUS
 10
-175.225
 20
-11.275
 11
-175.225
 21
-10.625
  0
LINE
  5
21A
100
AcDbEntity
  8
0
100
AcDbLine
 62
7
  6
CONTINUOUS
 10
-170.175
 20
-10.675
 11
-170.175
 21
-10.625
  0
LINE
  5
21B
100
AcDbEntity
  8
0
100
AcDbLine
 62
7
  6
CONTINUOUS
 10
-167.475
 20
-10.675
 11
-167.475
 21
-10.625
  0
LINE
  5
21C
100
AcDbEntity
  8
0
100
AcDbLine
 62
7
  6
CONTINUOUS
 10
-157.575
 20
-10.675
 11
-157.575
 21
-10.625
  0
LINE
  5
21D
100
AcDbEntity
  8
0
100
AcDbLine
 62
7
  6
CONTINUOUS
 10
-154.875
 20
-10.675
 11
-154.875
 21
-10.625
  0
LINE
  5
21E
100
AcDbEntity
  8
0
100
AcDbLine
 62
7
  6
CONTINUOUS
 10
-143.725
 20
-2.525
 11
-143.725
 21
-10.625
  0
LINE
  5
21F
100
AcDbEntity
  8
SMUSSO
100
AcDbLine
 62
7
  6
CONTINUOUS
 10
-170.175
 20
-10.675
 11
-170.225
 21
-10.625
  0
LINE
  5
220
100
AcDbEntity
  8
SMUSSO
100
AcDbLine
 62
7
  6
CONTINUOUS
 10
-167.475
 20
-10.675
 11
-167.425
 21
-10.625
  0
LINE
  5
221
100
AcDbEntity
  8
SMUSSO
100
AcDbLine
 62
7
  6
CONTINUOUS
 10
-157.575
 20
-10.675
 11
-157.625
 21
-10.625
  0
LINE
  5
222
100
AcDbEntity
  8
SMUSSO
100
AcDbLine
 62
7
  6
CONTINUOUS
 10
-154.875
 20
-10.675
 11
-154.825
 21
-10.625
  0
LWPOLYLINE
  5
223
100
AcDbEntity
  8
RACCORDO
100
AcDbPolyline
 62
253
  6
CONTINUOUS
 90
3
 70
0
 10
152.3227080333
 20
1.5051889383
 10
152.3698849517
 20
1.5178319488
 10
152.4207873849
 20
1.5270678822
  0
LINE
  5
224
100
AcDbEntity
  8
RACCORDO
100
AcDbLine
 62
253
  6
CONTINUOUS
 10
150.4660563764
 20
-1.0672062093
 11
150.2420470213
 21
-1.1261383762
  0
LWPOLYLINE
  5
225
100
AcDbEntity
  8
RACCORDO
100
AcDbPolyline
 62
253
  6
CONTINUOUS
 90
21
 70
0
 10
150.2420470213
 20
-1.1261383762
 10
150.1872943118
 20
-1.1403222862
 10
150.1631765655
 20
-1.146433532
 10
150.1411386492
 20
-1.1518920876
 10
150.1211648792
 20
-1.1566620141
 10
150.1030035525
 20
-1.1608531553
 10
150.0866545302
 20
-1.1644397179
 10
150.072097553
 20
-1.1673968198
 10
150.05905402
 20
-1.1698441644
 10
150.0475112769
 20
-1.1717680698
 10
150.0374674674
 20
-1.1731480117
 10
150.0286632003
 20
-1.1741005867
 10
150.0210949719
 20
-1.1746206248
 10
150.0147565383
 20
-1.174691095
 10
150.0093868789
 20
-1.174416401
 10
150.0049614814
 20
-1.1738017059
 10
150.0014990559
 20
-1.172828956
 10
149.9988052149
 20
-1.1715717082
 10
149.9968142466
 20
-1.1700524824
 10
149.9955885662
 20
-1.1682415788
 10
149.9951267704
 20
-1.1661359754
  0
LINE
  5
226
100
AcDbEntity
  8
RACCORDO
100
AcDbLine
 62
253
  6
CONTINUOUS
 10
150.56281931
 20
-1.0422591739
 11
150.4660563764
 21
-1.0672062093
  0
LWPOLYLINE
  5
227
100
AcDbEntity
  8
RACCORDO
100
AcDbPolyline
 62
253
  6
CONTINUOUS
 90
4
 70
0
 10
150.7903228314
 20
-0.9851679154
 10
150.7291793527
 20
-1.0001993446
 10
150.6708894326
 20
-1.0147808459
 10
150.56281931
 20
-1.0422591739
  0
LINE
  5
228
100
AcDbEntity
  8
RACCORDO
100
AcDbLine
 62
253
  6
CONTINUOUS
 10
150.5614109609
 20
-1.279607887
 11
150.1564809177
 21
-1.3583805164
  0
LWPOLYLINE
  5
229
100
AcDbEntity
  8
RACCORDO
100
AcDbPolyline
 62
253
  6
CONTINUOUS
 90
21
 70
0
 10
150.1564809177
 20
-1.3583805164
 10
150.0876289298
 20
-1.3714667428
 10
150.0573996251
 20
-1.3770553699
 10
150.0297994949
 20
-1.3820088025
 10
150.0047456671
 20
-1.3863350097
 10
149.9820883949
 20
-1.3900851955
 10
149.9617243514
 20
-1.3932510464
 10
149.943535926
 20
-1.3958408759
 10
149.9273641931
 20
-1.3979308279
 10
149.9130940324
 20
-1.3995175611
 10
149.9006209568
 20
-1.4006044169
 10
149.8898160715
 20
-1.4012775637
 10
149.8805850211
 20
-1.4015381175
 10
149.8728020854
 20
-1.4013849623
 10
149.8663193027
 20
-1.4009009188
 10
149.8610519017
 20
-1.4000936388
 10
149.856914379
 20
-1.3989554705
 10
149.8538023331
 20
-1.397546279
 10
149.8516491657
 20
-1.3958860194
 10
149.8504021613
 20
-1.3939547366
 10
149.85
 20
-1.3917524306
  0
LINE
  5
22A
100
AcDbEntity
  8
RACCORDO
100
AcDbLine
 62
253
  6
CONTINUOUS
 10
150.85
 20
-1.2251625717
 11
150.5614109609
 21
-1.279607887
  0
LINE
  5
22B
100
AcDbEntity
  8
RACCORDO
100
AcDbLine
 62
7
  6
CONTINUOUS
 10
181.225
 20
-10.9788166215
 11
180.6575527145
 21
-11.0431614754
  0
LINE
  5
22C
100
AcDbEntity
  8
RACCORDO
100
AcDbLine
 62
253
  6
CONTINUOUS
 10
181.225
 20
-10.8844372279
 11
180.646986562
 21
-10.9499802152
  0
LINE
  5
22D
100
AcDbEntity
  8
RACCORDO
100
AcDbLine
 62
7
  6
CONTINUOUS
 10
179.725
 20
-10.2812452513
 11
173.8275300887
 21
-10.9499802152
  0
LINE
  5
22E
100
AcDbEntity
  8
RACCORDO
100
AcDbLine
 62
7
  6
CONTINUOUS
 10
179.725
 20
-8.2812452513
 11
173.775
 21
-8.9559367877
  0
LINE
  5
22F
100
AcDbEntity
  8
RACCORDO
100
AcDbLine
 62
7
  6
CONTINUOUS
 10
173.125
 20
-9.0296425858
 11
173.025
 21
-9.0409819393
  0
LWPOLYLINE
  5
230
100
AcDbEntity
  8
RACCORDO
100
AcDbPolyline
 62
253
  6
CONTINUOUS
 90
3
 70
0
 10
152.4207873849
 20
1.5270678822
 10
152.5359018166
 20
1.5395500973
 10
152.6057941835
 20
1.5464054549
  0
LWPOLYLINE
  5
231
100
AcDbEntity
  8
RACCORDO
100
AcDbPolyline
 62
253
  6
CONTINUOUS
 90
10
 70
0
 10
167.7750180382
 20
-0.8014881174
 10
167.7689236961
 20
-0.8019183737
 10
167.7610833121
 20
-0.8128995343
 10
167.7523644457
 20
-0.834408399
 10
167.7442436982
 20
-0.8668370796
 10
167.7368779428
 20
-0.9095183766
 10
167.7289485106
 20
-0.9609524867
 10
167.7202905657
 20
-1.0206920039
 10
167.7121053846
 20
-1.089119536
 10
167.7048732443
 20
-1.1661358012
  0
LINE
  5
232
100
AcDbEntity
  8
RACCORDO
100
AcDbLine
 62
7
  6
CONTINUOUS
 10
180.6575527145
 20
-11.0431614754
 11
180.0941953198
 21
-11.075
  0
LINE
  5
233
100
AcDbEntity
  8
0
100
AcDbLine
 62
7
  6
CONTINUOUS
 10
161.2367513459
 20
-16.975
 11
156.4632486541
 21
-16.975
  0
LINE
  5
234
100
AcDbEntity
  8
0
100
AcDbLine
 62
7
  6
CONTINUOUS
 10
162.1
 20
-14.575
 11
155.6
 21
-14.575
  0
LINE
  5
235
100
AcDbEntity
  8
ASSI
100
AcDbLine
 62
7
  6
CONTINUOUS
 10
153.9750000001
 20
-14.075
 11
164.3001898095
 21
-14.075
  0
LINE
  5
236
100
AcDbEntity
  8
0
100
AcDbLine
 62
7
  6
CONTINUOUS
 10
-176.225
 20
-13.375
 11
-177.225
 21
-13.375
  0
LINE
  5
237
100
AcDbEntity
  8
RACCORDO
100
AcDbLine
 62
7
  6
CONTINUOUS
 10
153.2
 20
-13.175
 11
153.975
 21
-13.175
  0
LINE
  5
238
100
AcDbEntity
  8
0
100
AcDbLine
 62
7
  6
CONTINUOUS
 10
-175.725
 20
-12.875
 11
-177.725
 21
-12.875
  0
LINE
  5
239
100
AcDbEntity
  8
RACCORDO
100
AcDbLine
 62
253
  6
CONTINUOUS
 10
152.7
 20
-12.675
 11
153.975
 21
-12.675
  0
LINE
  5
23A
100
AcDbEntity
  8
0
100
AcDbLine
 62
253
  6
CONTINUOUS
 10
-175.475
 20
-12.625
 11
-177.975
 21
-12.625
  0
LINE
  5
23B
100
AcDbEntity
  8
0
100
AcDbLine
 62
7
  6
CONTINUOUS
 10
-175.475
 20
-12.375
 11
-177.975
 21
-12.375
  0
LINE
  5
23C
100
AcDbEntity
  8
ASSI
100
AcDbLine
 62
7
  6
CONTINUOUS
 10
164.4851518476
 20
-12.075
 11
163.7054819133
 21
-12.075
  0
LINE
  5
23D
100
AcDbEntity
  8
0
100
AcDbLine
 62
7
  6
CONTINUOUS
 10
163.7054819133
 20
-12.075
 11
152.6875
 21
-12.075
  0
LINE
  5
23E
100
AcDbEntity
  8
0
100
AcDbLine
 62
7
  6
CONTINUOUS
 10
-175.475
 20
-11.375
 11
-177.975
 21
-11.375
  0
LINE
  5
23F
100
AcDbEntity
  8
0
100
AcDbLine
 62
7
  6
CONTINUOUS
 10
167.775
 20
-11.275
 11
173.025
 21
-11.275
  0
LINE
  5
240
100
AcDbEntity
  8
0
100
AcDbLine
 62
7
  6
CONTINUOUS
 10
-175.225
 20
-11.275
 11
-180.475
 21
-11.275
  0
LINE
  5
241
100
AcDbEntity
  8
RACCORDO
100
AcDbLine
 62
7
  6
CONTINUOUS
 10
180.0941953198
 20
-11.075
 11
173.5347780754
 21
-11.075
  0
LINE
  5
242
100
AcDbEntity
  8
0
100
AcDbLine
 62
7
  6
CONTINUOUS
 10
165.0125
 20
-11.075
 11
156.4585071128
 21
-11.075
  0
LINE
  5
243
100
AcDbEntity
  8
0
100
AcDbLine
 62
7
  6
CONTINUOUS
 10
153.1704605803
 20
-11.075
 11
152.6875
 21
-11.075
  0
LINE
  5
244
100
AcDbEntity
  8
RACCORDO
100
AcDbLine
 62
253
  6
CONTINUOUS
 10
180.646986562
 20
-10.9499802152
 11
173.8275300887
 21
-10.9499802152
  0
LINE
  5
245
100
AcDbEntity
  8
0
100
AcDbLine
 62
7
  6
CONTINUOUS
 10
-170.175
 20
-10.675
 11
-167.475
 21
-10.675
  0
LINE
  5
246
100
AcDbEntity
  8
0
100
AcDbLine
 62
7
  6
CONTINUOUS
 10
-157.575
 20
-10.675
 11
-154.875
 21
-10.675
  0
LINE
  5
247
100
AcDbEntity
  8
SMUSSO
100
AcDbLine
 62
7
  6
CONTINUOUS
 10
-154.875
 20
-10.675
 11
-157.575
 21
-10.675
  0
LINE
  5
248
100
AcDbEntity
  8
SMUSSO
100
AcDbLine
 62
7
  6
CONTINUOUS
 10
-167.475
 20
-10.675
 11
-170.175
 21
-10.675
  0
LINE
  5
249
100
AcDbEntity
  8
0
100
AcDbLine
 62
7
  6
CONTINUOUS
 10
136.275
 20
-10.625
 11
173.025
 21
-10.625
  0
LINE
  5
24A
100
AcDbEntity
  8
0
100
AcDbLine
 62
7
  6
CONTINUOUS
 10
-143.725
 20
-10.625
 11
-180.475
 21
-10.625
  0
LINE
  5
24B
100
AcDbEntity
  8
0
100
AcDbLine
 62
253
  6
CONTINUOUS
 10
-181.225
 20
-10.525
 11
-180.575
 21
-10.525
  0
LINE
  5
24C
100
AcDbEntity
  8
0
100
AcDbLine
 62
253
  6
CONTINUOUS
 10
173.775
 20
-10.525
 11
173.125
 21
-10.525
  0
LWPOLYLINE
  5
24D
100
AcDbEntity
  8
RACCORDO
100
AcDbPolyline
 62
253
  6
CONTINUOUS
 90
4
 70
0
 10
152.6057941835
 20
1.5464054549
 10
152.8570413185
 20
1.5647101169
 10
152.9570876429
 20
1.5707580898
 10
153.0638070583
 20
1.5757578642
  0
LWPOLYLINE
  5
24E
100
AcDbEntity
  8
RACCORDO
100
AcDbPolyline
 62
253
  6
CONTINUOUS
 90
10
 70
0
 10
152.0209416493
 20
-1.0789820133
 10
151.8906935272
 20
-1.0811658228
 10
151.7603804852
 20
-1.0868671516
 10
151.6300025234
 20
-1.0960859996
 10
151.4994252505
 20
-1.1088262343
 10
151.3687830578
 20
-1.1250839883
 10
151.238479119
 20
-1.1448476592
 10
151.1086478254
 20
-1.1681133797
 10
150.9791547857
 20
-1.1948850172
 10
150.85
 20
-1.2251625717
  0
LINE
  5
24F
100
AcDbEntity
  8
RACCORDO
100
AcDbLine
 62
253
  6
CONTINUOUS
 10
153.063802656
 20
1.5757604536
 11
153.277679058
 21
1.579271147
  0
LWPOLYLINE
  5
250
100
AcDbEntity
  8
RACCORDO
100
AcDbPolyline
 62
253
  6
CONTINUOUS
 90
10
 70
0
 10
152.0200748864
 20
-0.8340563728
 10
151.8832793637
 20
-0.8361052399
 10
151.7462950766
 20
-0.8418217972
 10
151.6092169712
 20
-0.85121889
 10
151.4721343242
 20
-0.8643111376
 10
151.3351493276
 20
-0.8811021354
 10
151.1983770047
 20
-0.9015838847
 10
151.0619202592
 20
-0.9257540422
 10
150.9258698243
 20
-0.9536164399
 10
150.7903228314
 20
-0.9851679154
  0
LWPOLYLINE
  5
251
100
AcDbEntity
  8
RACCORDO
100
AcDbPolyline
 62
253
  6
CONTINUOUS
 90
7
 70
0
 10
153.277679058
 20
1.579271147
 10
153.5148388247
 20
1.5823599826
 10
153.7740630931
 20
1.5850269603
 10
154.0535431788
 20
1.5872205414
 10
154.3525783456
 20
1.5889922645
 10
154.6717907275
 20
1.5904967462
 10
155.01045767
 20
1.5917443582
  0
LWPOLYLINE
  5
252
100
AcDbEntity
  8
RACCORDO
100
AcDbPolyline
 62
253
  6
CONTINUOUS
 90
4
 70
0
 10
154.0260725273
 20
-0.8285669372
 10
153.4941234498
 20
-0.8300184362
 10
152.9826086536
 20
-0.8313980988
 10
152.0200749015
 20
-0.8340566494
  0
LINE
  5
253
100
AcDbEntity
  8
RACCORDO
100
AcDbLine
 62
253
  6
CONTINUOUS
 10
155.1507977012
 20
-0.8256778991
 11
154.0260725273
 21
-0.8285669372
  0
LINE
  5
254
100
AcDbEntity
  8
RACCORDO
100
AcDbLine
 62
253
  6
CONTINUOUS
 10
155.01045767
 20
1.5917443582
 11
155.7376482093
 21
1.5935613585
  0
LINE
  5
255
100
AcDbEntity
  8
RACCORDO
100
AcDbLine
 62
253
  6
CONTINUOUS
 10
155.7376482093
 20
1.5935613585
 11
156.5201723973
 21
1.5948658245
  0
LINE
  5
256
100
AcDbEntity
  8
RACCORDO
100
AcDbLine
 62
253
  6
CONTINUOUS
 10
156.5201723973
 20
1.5948658245
 11
157.3436202651
 21
1.5956840542
  0
LINE
  5
257
100
AcDbEntity
  8
RACCORDO
100
AcDbLine
 62
253
  6
CONTINUOUS
 10
157.3436202651
 20
1.5956840542
 11
158.6227683839
 21
1.5961648259
  0
LINE
  5
258
100
AcDbEntity
  8
0
100
AcDbLine
 62
7
  6
CONTINUOUS
 10
-175.5002551286
 20
-5.875
 11
-175.4497759329
 21
-5.875
  0
LINE
  5
259
100
AcDbEntity
  8
0
100
AcDbLine
 62
7
  6
CONTINUOUS
 10
-143.725
 20
-5.425
 11
136.275
 21
-5.425
  0
LINE
  5
25A
100
AcDbEntity
  8
0
100
AcDbLine
 62
7
  6
CONTINUOUS
 10
-175.5002551286
 20
-5.375
 11
-175.4497759329
 21
-5.375
  0
LINE
  5
25B
100
AcDbEntity
  8
0
100
AcDbLine
 62
7
  6
CONTINUOUS
 10
136.275
 20
-3.425
 11
-143.725
 21
-3.425
  0
LINE
  5
25C
100
AcDbEntity
  8
0
100
AcDbLine
 62
253
  6
CONTINUOUS
 10
-181.225
 20
-3.275
 11
-180.575
 21
-3.275
  0
LINE
  5
25D
100
AcDbEntity
  8
0
100
AcDbLine
 62
253
  6
CONTINUOUS
 10
173.775
 20
-3.275
 11
173.125
 21
-3.275
  0
LINE
  5
25E
100
AcDbEntity
  8
0
100
AcDbLine
 62
253
  6
CONTINUOUS
 10
136.275
 20
-3.175
 11
173.025
 21
-3.175
  0
LINE
  5
25F
100
AcDbEntity
  8
0
100
AcDbLine
 62
253
  6
CONTINUOUS
 10
-143.725
 20
-3.175
 11
-173.8868508386
 21
-3.175
  0
LINE
  5
260
100
AcDbEntity
  8
0
100
AcDbLine
 62
253
  6
CONTINUOUS
 10
-179.5631491614
 20
-3.175
 11
-180.475
 21
-3.175
  0
LINE
  5
261
100
AcDbEntity
  8
0
100
AcDbLine
 62
7
  6
CONTINUOUS
 10
136.275
 20
-2.525
 11
173.025
 21
-2.525
  0
LINE
  5
262
100
AcDbEntity
  8
0
100
AcDbLine
 62
7
  6
CONTINUOUS
 10
-143.725
 20
-2.525
 11
-174.6153555842
 21
-2.525
  0
LINE
  5
263
100
AcDbEntity
  8
0
100
AcDbLine
 62
7
  6
CONTINUOUS
 10
-178.8346444158
 20
-2.525
 11
-180.475
 21
-2.525
  0
LINE
  5
264
100
AcDbEntity
  8
RACCORDO
100
AcDbLine
 62
7
  6
CONTINUOUS
 10
167.85
 20
-2.025
 11
149.85
 21
-2.025
  0
LINE
  5
265
100
AcDbEntity
  8
RACCORDO
100
AcDbLine
 62
7
  6
CONTINUOUS
 10
164.8094924542
 20
1.6249951278
 11
164.4682488289
 21
1.6249558621
  0
LINE
  5
266
100
AcDbEntity
  8
RACCORDO
100
AcDbLine
 62
7
  6
CONTINUOUS
 10
165.025547384
 20
1.6250035714
 11
164.4727211744
 21
1.6249560563
  0
LINE
  5
267
100
AcDbEntity
  8
RACCORDO
100
AcDbLine
 62
7
  6
CONTINUOUS
 10
152.6209030267
 20
1.6250049761
 11
152.6173772705
 21
1.6249997116
  0
LINE
  5
268
100
AcDbEntity
  8
RACCORDO
100
AcDbLine
 62
7
  6
CONTINUOUS
 10
152.6209030257
 20
1.6249999485
 11
152.6173784963
 21
1.6249997325
  0
LINE
  5
269
100
AcDbEntity
  8
RACCORDO
100
AcDbLine
 62
7
  6
CONTINUOUS
 10
165.0802573614
 20
1.6250028293
 11
164.8094924542
 21
1.6249951278
  0
LINE
  5
26A
100
AcDbEntity
  8
RACCORDO
100
AcDbLine
 62
7
  6
CONTINUOUS
 10
164.4205499543
 20
1.625031241
 11
153.2269616584
 21
1.6249558297
  0
LINE
  5
26B
100
AcDbEntity
  8
RACCORDO
100
AcDbLine
 62
7
  6
CONTINUOUS
 10
165.0804178389
 20
1.6250033799
 11
165.025547384
 21
1.6250035714
  0
LINE
  5
26C
100
AcDbEntity
  8
RACCORDO
100
AcDbLine
 62
253
  6
CONTINUOUS
 10
158.6227683839
 20
1.5961648259
 11
159.4834843545
 21
1.5960909714
  0
LWPOLYLINE
  5
26D
100
AcDbEntity
  8
RACCORDO
100
AcDbPolyline
 62
253
  6
CONTINUOUS
 90
10
 70
0
 10
161.4227411046
 20
-0.8232281997
 10
160.8231461692
 20
-0.8222305627
 10
160.2068068311
 20
-0.8214667625
 10
159.5759583188
 20
-0.8209236477
 10
158.9377540679
 20
-0.8207020916
 10
158.2883832596
 20
-0.8208597679
 10
157.6321021503
 20
-0.8213390028
 10
156.9881725186
 20
-0.8220676482
 10
156.360599638
 20
-0.8230777439
 10
155.1507977012
 20
-0.8256778991
  0
LWPOLYLINE
  5
26E
100
AcDbEntity
  8
RACCORDO
100
AcDbPolyline
 62
253
  6
CONTINUOUS
 90
11
 70
0
 10
161.4219733662
 20
-1.0636088809
 10
160.8225834234
 20
-1.0620730455
 10
160.2063891288
 20
-1.0608792684
 10
159.5756220316
 20
-1.0600089333
 10
158.9377260313
 20
-1.059648917
 10
158.2886593246
 20
-1.0599085617
 10
157.6324637148
 20
-1.0606785253
 10
156.9887085104
 20
-1.0618176584
 10
156.3613802447
 20
-1.0633753509
 10
155.7464923845
 20
-1.065302213
 10
152.0209416493
 20
-1.0789820133
  0
LWPOLYLINE
  5
26F
100
AcDbEntity
  8
RACCORDO
100
AcDbPolyline
 62
253
  6
CONTINUOUS
 90
7
 70
0
 10
165.6799250553
 20
-0.834056652
 10
165.1984931257
 20
-0.8327170414
 10
164.702883072
 20
-0.8313591784
 10
164.1930175138
 20
-0.829983063
 10
163.6691070306
 20
-0.828555825
 10
163.1307926347
 20
-0.8271103347
 10
161.4227411046
 20
-0.8232281997
  0
LINE
  5
270
100
AcDbEntity
  8
RACCORDO
100
AcDbLine
 62
253
  6
CONTINUOUS
 10
162.5762855925
 20
-1.0674081525
 11
161.4219733662
 21
-1.0636088809
  0
LINE
  5
271
100
AcDbEntity
  8
RACCORDO
100
AcDbLine
 62
253
  6
CONTINUOUS
 10
165.6790583075
 20
-1.0789820035
 11
165.1977169226
 21
-1.0772056017
  0
LWPOLYLINE
  5
272
100
AcDbEntity
  8
RACCORDO
100
AcDbPolyline
 62
253
  6
CONTINUOUS
 90
4
 70
0
 10
165.1977169226
 20
-1.0772056017
 10
164.1920892718
 20
-1.0734697101
 10
163.6681387037
 20
-1.0714629716
 10
162.5762855925
 20
-1.0674081525
  0
LINE
  5
273
100
AcDbEntity
  8
0
100
AcDbLine
 62
7
  6
CONTINUOUS
 10
154.725
 20
2.875
 11
162.975
 21
2.875
  0
LINE
  5
274
100
AcDbEntity
  8
0
100
AcDbLine
 62
7
  6
CONTINUOUS
 10
159.35
 20
4.6790174003
 11
158.35
 21
4.6790174003
  0
LINE
  5
275
100
AcDbEntity
  8
0
100
AcDbLine
 62
7
  6
CONTINUOUS
 10
160.175
 20
5.375
 11
159.35
 21
5.375
  0
LINE
  5
276
100
AcDbEntity
  8
0
100
AcDbLine
 62
253
  6
CONTINUOUS
 10
159.35
 20
5.375
 11
158.35
 21
5.375
  0
LINE
  5
277
100
AcDbEntity
  8
0
100
AcDbLine
 62
7
  6
CONTINUOUS
 10
157.525
 20
5.375
 11
158.35
 21
5.375
  0
LINE
  5
278
100
AcDbEntity
  8
ASSI
100
AcDbLine
 62
7
  6
CONTINUOUS
 10
160.175
 20
8.4458792625
 11
157.525
 21
8.4458792625
  0
LINE
  5
279
100
AcDbEntity
  8
RACCORDO
100
AcDbLine
 62
7
  6
CONTINUOUS
 10
153.2274108087
 20
1.6249560357
 11
152.6195916385
 21
1.6250033548
  0
LINE
  5
27A
100
AcDbEntity
  8
RACCORDO
100
AcDbLine
 62
7
  6
CONTINUOUS
 10
165.0826633974
 20
1.6249996587
 11
165.0791105685
 21
1.6249999879
  0
LINE
  5
27B
100
AcDbEntity
  8
RACCORDO
100
AcDbLine
 62
7
  6
CONTINUOUS
 10
153.2269616584
 20
1.6249558297
 11
152.8882094338
 21
1.6249948843
  0
LINE
  5
27C
100
AcDbEntity
  8
RACCORDO
100
AcDbLine
 62
253
  6
CONTINUOUS
 10
159.4834843545
 20
1.5960909714
 11
160.3333156683
 21
1.595697603
  0
LINE
  5
27D
100
AcDbEntity
  8
RACCORDO
100
AcDbLine
 62
7
  6
CONTINUOUS
 10
164.4727211744
 20
1.6249560563
 11
164.4499999846
 21
1.6249664654
  0
LINE
  5
27E
100
AcDbEntity
  8
RACCORDO
100
AcDbLine
 62
7
  6
CONTINUOUS
 10
164.4682488289
 20
1.6249558621
 11
164.4205445958
 21
1.6249785967
  0
LINE
  5
27F
100
AcDbEntity
  8
RACCORDO
100
AcDbLine
 62
253
  6
CONTINUOUS
 10
160.3333156683
 20
1.595697603
 11
161.1576648195
 21
1.5948906956
  0
LINE
  5
280
100
AcDbEntity
  8
RACCORDO
100
AcDbLine
 62
253
  6
CONTINUOUS
 10
161.1576648195
 20
1.5948906956
 11
161.9413610361
 21
1.5936093907
  0
LWPOLYLINE
  5
281
100
AcDbEntity
  8
RACCORDO
100
AcDbPolyline
 62
253
  6
CONTINUOUS
 90
8
 70
0
 10
161.9413610361
 20
1.5936093907
 10
162.6689798368
 20
1.5918083748
 10
163.0089766176
 20
1.5905674171
 10
163.330920186
 20
1.5890723569
 10
163.6333672511
 20
1.5873092411
 10
163.9163304473
 20
1.5851129433
 10
164.1788745016
 20
1.5824284215
 10
164.4192060564
 20
1.5793107177
  0
LINE
  5
282
100
AcDbEntity
  8
RACCORDO
100
AcDbLine
 62
253
  6
CONTINUOUS
 10
164.4192060564
 20
1.5793107177
 11
164.635975296
 21
1.575759832
  0
LWPOLYLINE
  5
283
100
AcDbEntity
  8
RACCORDO
100
AcDbPolyline
 62
253
  6
CONTINUOUS
 90
3
 70
0
 10
164.6359741601
 20
1.5757551014
 10
164.7435323562
 20
1.5708120936
 10
164.8442514271
 20
1.5647231309
  0
LINE
  5
284
100
AcDbEntity
  8
RACCORDO
100
AcDbLine
 62
253
  6
CONTINUOUS
 10
164.8442514271
 20
1.5647231309
 11
165.0961844704
 21
1.5461981475
  0
LINE
  5
285
100
AcDbEntity
  8
ASSI
100
AcDbLine
 62
7
  6
CONTINUOUS
 10
160.175
 20
13.9041207375
 11
157.525
 21
13.9041207375
  0
LINE
  5
286
100
AcDbEntity
  8
ASSI
100
AcDbLine
 62
7
  6
CONTINUOUS
 10
160.175
 20
16.975
 11
157.525
 21
16.975
  0
LINE
  5
287
100
AcDbEntity
  8
RACCORDO
100
AcDbLine
 62
253
  6
CONTINUOUS
 10
165.0961844704
 20
1.5461981475
 11
165.165857256
 21
1.5393776806
  0
LWPOLYLINE
  5
288
100
AcDbEntity
  8
RACCORDO
100
AcDbPolyline
 62
253
  6
CONTINUOUS
 90
6
 70
0
 10
165.165857256
 20
1.5393776806
 10
165.2806989506
 20
1.5267576561
 10
165.3311290829
 20
1.5176290001
 10
165.377724865
 20
1.5051885065
 10
165.4136959671
 20
1.4939295996
 10
165.4366478198
 20
1.4858145436
  0
LWPOLYLINE
  5
289
100
AcDbEntity
  8
0
100
AcDbPolyline
 62
7
  6
CONTINUOUS
 90
28
 70
0
 10
157.406624327
 20
-14.7426532249
 10
157.5184321172
 20
-14.7677328699
 10
157.6289781233
 20
-14.7909179451
 10
157.7382623455
 20
-14.8122084506
 10
157.8459979842
 20
-14.8315908875
 10
157.952471839
 20
-14.8490787546
 10
158.058544308
 20
-14.8647125481
 10
158.1643737914
 20
-14.8785360121
 10
158.2698018892
 20
-14.8905054026
 10
158.3752137994
 20
-14.900529983
 10
158.4807188716
 20
-14.9086099373
 10
158.5862077563
 20
-14.9147450817
 10
158.6917376031
 20
-14.9188441284
 10
158.7973555633
 20
-14.9208765604
 10
158.9030144857
 20
-14.9208728947
 10
159.0086300662
 20
-14.918833395
 10
159.1141555416
 20
-14.9147275076
 10
159.2196376751
 20
-14.9085857861
 10
159.3251324526
 20
-14.9005001555
 10
159.4305334334
 20
-14.8904702185
 10
159.5359470581
 20
-14.8784963723
 10
159.6417486345
 20
-14.8646717341
 10
159.7477699325
 20
-14.8490417976
 10
159.8541791823
 20
-14.831561069
 10
159.9618563814
 20
-14.8121861839
 10
160.0710948625
 20
-14.7909026875
 10
160.181601293
 20
-14.7677250345
 10
160.293375673
 20
-14.7426532249
  0
LINE
  5
28A
100
AcDbEntity
  8
RACCORDO
100
AcDbLine
 62
253
  6
CONTINUOUS
 10
167.6426004705
 20
-1.3770553873
 11
167.5794083072
 21
-1.3652509155
  0
LINE
  5
28B
100
AcDbEntity
  8
RACCORDO
100
AcDbLine
 62
253
  6
CONTINUOUS
 10
167.1385891219
 20
-1.279607916
 11
166.85
 21
-1.2251625784
  0
LWPOLYLINE
  5
28C
100
AcDbEntity
  8
RACCORDO
100
AcDbPolyline
 62
253
  6
CONTINUOUS
 90
4
 70
0
 10
167.5794083072
 20
-1.3652509155
 10
167.4174698311
 20
-1.3338150036
 10
167.3687877959
 20
-1.3242798101
 10
167.1385891219
 20
-1.279607916
  0
LWPOLYLINE
  5
28D
100
AcDbEntity
  8
RACCORDO
100
AcDbPolyline
 62
253
  6
CONTINUOUS
 90
10
 70
0
 10
166.9096771667
 20
-0.9851679197
 10
166.774130705
 20
-0.9536165611
 10
166.6380806332
 20
-0.9257542181
 10
166.5016240788
 20
-0.9015840669
 10
166.3648517178
 20
-0.8811022821
 10
166.2278665049
 20
-0.8643112311
 10
166.0907836246
 20
-0.8512189396
 10
165.9537053234
 20
-0.8418218165
 10
165.8167208238
 20
-0.836105238
 10
165.6799250723
 20
-0.8340563602
  0
LWPOLYLINE
  5
28E
100
AcDbEntity
  8
RACCORDO
100
AcDbPolyline
 62
253
  6
CONTINUOUS
 90
10
 70
0
 10
166.85
 20
-1.2251625784
 10
166.7208564552
 20
-1.1948868528
 10
166.5913702666
 20
-1.1681163209
 10
166.4615414342
 20
-1.1448509827
 10
166.3312334621
 20
-1.1250866164
 10
166.2005828463
 20
-1.1088274439
 10
166.0699990741
 20
-1.0960861298
 10
165.9396186415
 20
-1.0868668959
 10
165.8093050526
 20
-1.0811655204
 10
165.6790583075
 20
-1.0789820035
  0
LWPOLYLINE
  5
28F
100
AcDbEntity
  8
RACCORDO
100
AcDbPolyline
 62
253
  6
CONTINUOUS
 90
3
 70
0
 10
152.2633990308
 20
1.4858237414
 10
152.2863132418
 20
1.4937773964
 10
152.3227080333
 20
1.5051889383
  0
LINE
  5
290
100
AcDbEntity
  8
RACCORDO
100
AcDbLine
 62
253
  6
CONTINUOUS
 10
166.9708214715
 20
-1.0001995461
 11
166.9096771667
 21
-0.9851679197
  0
LINE
  5
291
100
AcDbEntity
  8
RACCORDO
100
AcDbLine
 62
253
  6
CONTINUOUS
 10
167.0845581953
 20
-1.0288408326
 11
166.9708214715
 21
-1.0001995461
  0
LINE
  5
292
100
AcDbEntity
  8
RACCORDO
100
AcDbLine
 62
253
  6
CONTINUOUS
 10
167.536823849
 20
-1.1464336419
 11
167.4864983029
 21
-1.1335921022
  0
LINE
  5
293
100
AcDbEntity
  8
RACCORDO
100
AcDbLine
 62
253
  6
CONTINUOUS
 10
167.2339445793
 20
-1.067206457
 11
167.0845581953
 21
-1.0288408326
  0
LINE
  5
294
100
AcDbEntity
  8
RACCORDO
100
AcDbLine
 62
253
  6
CONTINUOUS
 10
167.4864983029
 20
-1.1335921022
 11
167.2339445793
 21
-1.067206457
  0
LWPOLYLINE
  5
295
100
AcDbEntity
  8
RACCORDO
100
AcDbPolyline
 62
253
  6
CONTINUOUS
 90
4
 70
0
 10
153.0638948331
 20
1.575787825
 10
153.1324321278
 20
1.6026287669
 10
153.2034409254
 20
1.6191339013
 10
153.2794455837
 20
1.6250312727
  0
LWPOLYLINE
  5
296
100
AcDbEntity
  8
RACCORDO
100
AcDbPolyline
 62
253
  6
CONTINUOUS
 90
4
 70
0
 10
164.6360238673
 20
1.575784836
 10
164.5675293329
 20
1.6026068129
 10
164.4965611944
 20
1.6190954695
 10
164.4205499606
 20
1.6249786003
  0
LWPOLYLINE
  5
297
100
AcDbEntity
  8
0
100
AcDbPolyline
 62
7
  6
CONTINUOUS
 90
28
 70
0
 10
160.293375673
 20
-14.7426532249
 10
160.3492934494
 20
-14.7677392732
 10
160.4045822234
 20
-14.7909302634
 10
160.4592419951
 20
-14.8122261958
 10
160.5131308537
 20
-14.8316140809
 10
160.56639071
 20
-14.8491069081
 10
160.6194472961
 20
-14.8647436451
 10
160.6723788585
 20
-14.878567314
 10
160.7251071508
 20
-14.8905348928
 10
160.7778231654
 20
-14.9005562837
 10
160.8305798199
 20
-14.9086314598
 10
160.8833241966
 20
-14.9147604479
 10
160.9360885353
 20
-14.9188532302
 10
160.9888953209
 20
-14.920880019
 10
161.0417220684
 20
-14.9208706021
 10
161.0945335622
 20
-14.9188243247
 10
161.1473092256
 20
-14.9147108464
 10
161.2000696352
 20
-14.9085605077
 10
161.2528413051
 20
-14.9004636762
 10
161.3055714951
 20
-14.8904194703
 10
161.3583129454
 20
-14.8784287717
 10
161.4112503906
 20
-14.8645845927
 10
161.4643198196
 20
-14.8489227238
 10
161.5175852435
 20
-14.8314073746
 10
161.5714234313
 20
-14.8120241861
 10
161.6259599724
 20
-14.7907683717
 10
161.6810692773
 20
-14.767644718
 10
161.7367513459
 20
-14.7426532249
  0
LWPOLYLINE
  5
298
100
AcDbEntity
  8
0
100
AcDbPolyline
 62
7
  6
CONTINUOUS
 90
28
 70
0
 10
155.9632486541
 20
-14.7426532249
 10
156.0188851621
 20
-14.7676270901
 10
156.0739638616
 20
-14.7907392553
 10
156.1284847525
 20
-14.8119897204
 10
156.1823264508
 20
-14.8313759147
 10
156.2356103406
 20
-14.8489004089
 10
156.2887005734
 20
-14.864570916
 10
156.3416567814
 20
-14.8784213113
 10
156.3944193324
 20
-14.8904177194
 10
156.4471734816
 20
-14.9004662268
 10
156.4999728422
 20
-14.9085659734
 10
156.552763801
 20
-14.9147178193
 10
156.6055707736
 20
-14.9188304314
 10
156.6584148147
 20
-14.9208729994
 10
156.7112748695
 20
-14.9208763337
 10
156.7641121893
 20
-14.9188415325
 10
156.8169043283
 20
-14.9147382231
 10
156.8696737322
 20
-14.9085967783
 10
156.9224489895
 20
-14.9005094143
 10
156.9751781413
 20
-14.8904753049
 10
157.0279131465
 20
-14.8784952764
 10
157.0808384696
 20
-14.8646640246
 10
157.1338723275
 20
-14.8490255962
 10
157.1870965033
 20
-14.8315359445
 10
157.2409408099
 20
-14.8121576259
 10
157.2955485182
 20
-14.7908781592
 10
157.3507763572
 20
-14.7677100255
 10
157.406624327
 20
-14.7426532249
  0
LINE
  5
299
100
AcDbEntity
  8
0
100
AcDbLine
 62
7
  6
CONTINUOUS
 10
155.6
 20
-14.575
 11
155.9632486541
 21
-14.7426532249
  0
LINE
  5
29A
100
AcDbEntity
  8
0
100
AcDbLine
 62
7
  6
CONTINUOUS
 10
153.25
 20
2.125
 11
154.725
 21
2.875
  0
LWPOLYLINE
  5
29B
100
AcDbEntity
  8
RACCORDO
100
AcDbPolyline
 62
253
  6
CONTINUOUS
 90
6
 70
0
 10
152.3162846575
 20
1.5284396017
 10
152.3741973933
 20
1.5639256703
 10
152.4361844695
 20
1.5916934698
 10
152.5012231539
 20
1.6112848564
 10
152.5682403655
 20
1.6223765904
 10
152.6195916385
 20
1.6250033548
  0
LWPOLYLINE
  5
29C
100
AcDbEntity
  8
0
100
AcDbPolyline
 62
7
  6
CONTINUOUS
 90
28
 70
0
 10
160.293375673
 20
-16.475
 10
160.1741434686
 20
-16.5326030651
 10
160.0576251653
 20
-16.5852477468
 10
159.9438207631
 20
-16.632934045
 10
159.8331379269
 20
-16.6754618592
 10
159.7251689917
 20
-16.71303129
 10
159.6186909632
 20
-16.7462426389
 10
159.5135597237
 20
-16.7752230714
 10
159.4099193907
 20
-16.7998454221
 10
159.3069793227
 20
-16.8203284962
 10
159.2046419364
 20
-16.8367306365
 10
159.103004815
 20
-16.8489935002
 10
159.0015700667
 20
-16.8571608634
 10
158.900303492
 20
-16.8612467193
 10
158.7992392903
 20
-16.8612370747
 10
158.6979821675
 20
-16.8571337261
 10
158.5965678224
 20
-16.8489511728
 10
158.4949605562
 20
-16.8366749156
 10
158.3926579784
 20
-16.8202632534
 10
158.2897551541
 20
-16.7997743186
 10
158.1861570181
 20
-16.7751499789
 10
158.0810759853
 20
-16.7461741362
 10
157.9746661738
 20
-16.7129786586
 10
157.8667734655
 20
-16.675431678
 10
157.7561479207
 20
-16.6329214921
 10
157.6423728927
 20
-16.5852442
 10
157.5258650281
 20
-16.5326037027
 10
157.406624327
 20
-16.475
  0
LINE
  5
29D
100
AcDbEntity
  8
0
100
AcDbLine
 62
7
  6
CONTINUOUS
 10
162.1
 20
-14.575
 11
161.7367513459
 21
-14.7426532249
  0
LWPOLYLINE
  5
29E
100
AcDbEntity
  8
RACCORDO
100
AcDbPolyline
 62
253
  6
CONTINUOUS
 90
7
 70
0
 10
180.646986562
 20
-10.9499802152
 10
180.5560376425
 20
-10.98806954
 10
180.4644445572
 20
-11.0193062414
 10
180.3723350578
 20
-11.0436467512
 10
180.2798376161
 20
-11.0610571199
 10
180.1870812454
 20
-11.0715130641
 10
180.0941953198
 20
-11.075
  0
LINE
  5
29F
100
AcDbEntity
  8
0
100
AcDbLine
 62
7
  6
CONTINUOUS
 10
164.45
 20
2.125
 11
162.975
 21
2.875
  0
LWPOLYLINE
  5
2A0
100
AcDbEntity
  8
RACCORDO
100
AcDbPolyline
 62
253
  6
CONTINUOUS
 90
7
 70
0
 10
165.4366478198
 20
1.4858145436
 10
165.4406664909
 20
1.4835158689
 10
165.4443086682
 20
1.4812666159
 10
165.4475822382
 20
1.4790670917
 10
165.4504956864
 20
1.4769173876
 10
165.4530581018
 20
1.4748173763
 10
165.4552791819
 20
1.4727667103
  0
LINE
  5
2A1
100
AcDbEntity
  8
RACCORDO
100
AcDbLine
 62
253
  6
CONTINUOUS
 10
152.2634017714
 20
1.4858207521
 11
152.3162846575
 21
1.5284396017
  0
LWPOLYLINE
  5
2A2
100
AcDbEntity
  8
RACCORDO
100
AcDbPolyline
 62
253
  6
CONTINUOUS
 90
6
 70
0
 10
165.3837616115
 20
1.5284335271
 10
165.325846313
 20
1.5639203457
 10
165.2638566565
 20
1.5916886209
 10
165.1988154062
 20
1.611280205
 10
165.1317956748
 20
1.6223718573
 10
165.0802573537
 20
1.6249988005
  0
LINE
  5
2A3
100
AcDbEntity
  8
0
100
AcDbLine
 62
7
  6
CONTINUOUS
 10
156.4632486541
 20
-16.975
 11
155.9632486541
 21
-16.475
  0
LINE
  5
2A4
100
AcDbEntity
  8
RACCORDO
100
AcDbLine
 62
7
  6
CONTINUOUS
 10
152.2447094757
 20
1.4727543879
 11
149.9249821513
 21
-0.801488087
  0
LWPOLYLINE
  5
2A5
100
AcDbEntity
  8
RACCORDO
100
AcDbPolyline
 62
253
  6
CONTINUOUS
 90
7
 70
0
 10
152.24470742
 20
1.4727446018
 10
152.2469631825
 20
1.4748201925
 10
152.2495611799
 20
1.4769417405
 10
152.2525045366
 20
1.4791075752
 10
152.255792932
 20
1.481313015
 10
152.2594251318
 20
1.4835533273
 10
152.2633990308
 20
1.4858237414
  0
LINE
  5
2A6
100
AcDbEntity
  8
RACCORDO
100
AcDbLine
 62
253
  6
CONTINUOUS
 10
165.43664701
 20
1.4858136604
 11
165.3837616115
 21
1.5284335271
  0
LWPOLYLINE
  5
2A7
100
AcDbEntity
  8
0
100
AcDbPolyline
 62
7
  6
CONTINUOUS
 90
28
 70
0
 10
157.406624327
 20
-16.475
 10
157.3470082248
 20
-16.5326030651
 10
157.2887490732
 20
-16.5852477468
 10
157.2318468721
 20
-16.632934045
 10
157.176505454
 20
-16.6754618592
 10
157.1225209864
 20
-16.71303129
 10
157.0692819721
 20
-16.7462426389
 10
157.0167163524
 20
-16.7752230714
 10
156.9648961859
 20
-16.7998454221
 10
156.9134261519
 20
-16.8203284962
 10
156.8622574588
 20
-16.8367306365
 10
156.8114388981
 20
-16.8489935002
 10
156.7607215239
 20
-16.8571608634
 10
156.7100882365
 20
-16.8612467193
 10
156.6595561357
 20
-16.8612370747
 10
156.6089275743
 20
-16.8571337261
 10
156.5582204017
 20
-16.8489511728
 10
156.5074167686
 20
-16.8366749156
 10
156.4562654798
 20
-16.8202632534
 10
156.4048140676
 20
-16.7997743186
 10
156.3530149996
 20
-16.7751499789
 10
156.3004744832
 20
-16.7461741362
 10
156.2472695775
 20
-16.7129786586
 10
156.1933232233
 20
-16.675431678
 10
156.1380104509
 20
-16.6329214921
 10
156.0811229369
 20
-16.5852442
 10
156.0228690046
 20
-16.5326037027
 10
155.9632486541
 20
-16.475
  0
LINE
  5
2A8
100
AcDbEntity
  8
ASSI
100
AcDbLine
 62
7
  6
CONTINUOUS
 10
166.1768185142
 20
-10.625
 11
164.4851518476
 21
-12.075
  0
LINE
  5
2A9
100
AcDbEntity
  8
ASSI
100
AcDbLine
 62
7
  6
CONTINUOUS
 10
165.9271682431
 20
-13.4731415059
 11
168.4916666667
 21
-11.275
  0
LINE
  5
2AA
100
AcDbEntity
  8
RACCORDO
100
AcDbLine
 62
7
  6
CONTINUOUS
 10
165.4552915015
 20
1.4727534299
 11
167.7750178679
 21
-0.8014881058
  0
LWPOLYLINE
  5
2AB
100
AcDbEntity
  8
RACCORDO
100
AcDbPolyline
 62
253
  6
CONTINUOUS
 90
24
 70
0
 10
152.0200749015
 20
-0.8340566494
 10
152.0848205989
 20
-0.7234860107
 10
152.1464781787
 20
-0.6151382067
 10
152.205179704
 20
-0.5090132374
 10
152.2610587752
 20
-0.4051353474
 10
152.3142272289
 20
-0.3034802922
 10
152.3647778099
 20
-0.2039753377
 10
152.4128245516
 20
-0.1065811721
 10
152.4584701789
 20
-0.0113371073
 10
152.5017864993
 20
0.0817116552
 10
152.5428514226
 20
0.1725579168
 10
152.5817779499
 20
0.261208876
 10
152.6186828649
 20
0.3476409266
 10
152.6536197227
 20
0.4318227006
 10
152.6866948895
 20
0.5137855659
 10
152.7180891499
 20
0.59360002
 10
152.7478345826
 20
0.6712224273
 10
152.7760237803
 20
0.7466964234
 10
152.8029058564
 20
0.8202234124
 10
152.8284992536
 20
0.891786726
 10
152.852872798
 20
0.9614030325
 10
152.8763230947
 20
1.0293237417
 10
152.8988363333
 20
1.095539683
 10
152.9823051193
 20
1.3450723451
  0
LINE
  5
2AC
100
AcDbEntity
  8
0
100
AcDbLine
 62
7
  6
CONTINUOUS
 10
161.2367513459
 20
-16.975
 11
161.7367513459
 21
-16.475
  0
LWPOLYLINE
  5
2AD
100
AcDbEntity
  8
0
100
AcDbPolyline
 62
7
  6
CONTINUOUS
 90
28
 70
0
 10
161.7367513459
 20
-16.475
 10
161.6771352437
 20
-16.5326030651
 10
161.6188760921
 20
-16.5852477468
 10
161.561973891
 20
-16.632934045
 10
161.5066324729
 20
-16.6754618592
 10
161.4526480053
 20
-16.71303129
 10
161.3994089911
 20
-16.7462426389
 10
161.3468433713
 20
-16.7752230714
 10
161.2950232048
 20
-16.7998454221
 10
161.2435531708
 20
-16.8203284962
 10
161.1923844777
 20
-16.8367306365
 10
161.141565917
 20
-16.8489935002
 10
161.0908485428
 20
-16.8571608634
 10
161.0402152554
 20
-16.8612467193
 10
160.9896831546
 20
-16.8612370747
 10
160.9390545932
 20
-16.8571337261
 10
160.8883474206
 20
-16.8489511728
 10
160.8375437876
 20
-16.8366749156
 10
160.7863924987
 20
-16.8202632534
 10
160.7349410865
 20
-16.7997743186
 10
160.6831420185
 20
-16.7751499789
 10
160.6306015021
 20
-16.7461741362
 10
160.5773965964
 20
-16.7129786586
 10
160.5234502422
 20
-16.675431678
 10
160.4681374698
 20
-16.6329214921
 10
160.4112499558
 20
-16.5852442
 10
160.3529960235
 20
-16.5326037027
 10
160.293375673
 20
-16.475
  0
LINE
  5
2AE
100
AcDbEntity
  8
0
100
AcDbLine
 62
7
  6
CONTINUOUS
 10
136.275
 20
-10.625
 11
136.275
 21
-2.525
  0
LWPOLYLINE
  5
2AF
100
AcDbEntity
  8
RACCORDO
100
AcDbPolyline
 62
253
  6
CONTINUOUS
 90
5
 70
0
 10
152.9823051193
 20
1.3450723451
 10
153.0024837858
 20
1.404253558
 10
153.0229010782
 20
1.4624872974
 10
153.0433468871
 20
1.5196562626
 10
153.063802656
 20
1.5757604536
  0
LINE
  5
2B0
100
AcDbEntity
  8
RACCORDO
100
AcDbLine
 62
253
  6
CONTINUOUS
 10
150.8499999994
 20
-1.225162572
 11
150.790324108
 21
-0.9851730498
  0
LWPOLYLINE
  5
2B1
100
AcDbEntity
  8
RACCORDO
100
AcDbPolyline
 62
253
  6
CONTINUOUS
 90
10
 70
0
 10
149.9951267704
 20
-1.1661359754
 10
149.9878943538
 20
-1.0891206765
 10
149.9797081629
 20
-1.0206939032
 10
149.9710516595
 20
-0.9609558346
 10
149.9631223478
 20
-0.9095233763
 10
149.9557574635
 20
-0.8668430541
 10
149.9476382807
 20
-0.8344137539
 10
149.938916153
 20
-0.8129022788
 10
149.9310796775
 20
-0.8019181774
 10
149.9249814791
 20
-0.8014867849
  0
LINE
  5
2B2
100
AcDbEntity
  8
RACCORDO
100
AcDbLine
 62
253
  6
CONTINUOUS
 10
152.0209416493
 20
-1.0789820133
 11
152.0200748838
 21
-0.8340588662
  0
LINE
  5
2B3
100
AcDbEntity
  8
RACCORDO
100
AcDbLine
 62
7
  6
CONTINUOUS
 10
149.85
 20
-2.025
 11
149.85
 21
-0.9800053202
  0
LINE
  5
2B4
100
AcDbEntity
  8
RACCORDO
100
AcDbLine
 62
253
  6
CONTINUOUS
 10
150.85
 20
-1.2251625717
 11
150.85
 21
-2.025
  0
LINE
  5
2B5
100
AcDbEntity
  8
0
100
AcDbLine
 62
7
  6
CONTINUOUS
 10
152.675
 20
-2.525
 11
152.675
 21
-2.025
  0
LINE
  5
2B6
100
AcDbEntity
  8
0
100
AcDbLine
 62
7
  6
CONTINUOUS
 10
152.6875
 20
-11.075
 11
152.6875
 21
-12.075
  0
LINE
  5
2B7
100
AcDbEntity
  8
RACCORDO
100
AcDbLine
 62
7
  6
CONTINUOUS
 10
152.7
 20
-10.625
 11
152.7
 21
-11.075
  0
LINE
  5
2B8
100
AcDbEntity
  8
RACCORDO
100
AcDbLine
 62
7
  6
CONTINUOUS
 10
152.7
 20
-12.075
 11
152.7
 21
-12.675
  0
LINE
  5
2B9
100
AcDbEntity
  8
0
100
AcDbLine
 62
7
  6
CONTINUOUS
 10
153.1704605803
 20
-11.075
 11
153.1704605803
 21
-10.625
  0
LINE
  5
2BA
100
AcDbEntity
  8
RACCORDO
100
AcDbLine
 62
253
  6
CONTINUOUS
 10
153.2
 20
-12.075
 11
153.2
 21
-13.175
  0
LINE
  5
2BB
100
AcDbEntity
  8
0
100
AcDbLine
 62
7
  6
CONTINUOUS
 10
153.25
 20
1.625
 11
153.25
 21
2.125
  0
LINE
  5
2BC
100
AcDbEntity
  8
ASSI
100
AcDbLine
 62
7
  6
CONTINUOUS
 10
153.975
 20
-14.075
 11
153.975
 21
-12.075
  0
LINE
  5
2BD
100
AcDbEntity
  8
0
100
AcDbLine
 62
7
  6
CONTINUOUS
 10
155.6
 20
-14.075
 11
155.6
 21
-14.575
  0
LINE
  5
2BE
100
AcDbEntity
  8
0
100
AcDbLine
 62
7
  6
CONTINUOUS
 10
155.9632486541
 20
-14.7426532249
 11
155.9632486541
 21
-16.475
  0
LINE
  5
2BF
100
AcDbEntity
  8
0
100
AcDbLine
 62
7
  6
CONTINUOUS
 10
156.4585071128
 20
-11.075
 11
156.4585071128
 21
-10.625
  0
LINE
  5
2C0
100
AcDbEntity
  8
0
100
AcDbLine
 62
7
  6
CONTINUOUS
 10
156.55
 20
-10.625
 11
156.55
 21
-11.075
  0
LINE
  5
2C1
100
AcDbEntity
  8
0
100
AcDbLine
 62
7
  6
CONTINUOUS
 10
157.406624327
 20
-14.7426532249
 11
157.406624327
 21
-16.475
  0
LINE
  5
2C2
100
AcDbEntity
  8
0
100
AcDbLine
 62
7
  6
CONTINUOUS
 10
157.525
 20
5.375
 11
157.525
 21
8.4458792625
  0
LINE
  5
2C3
100
AcDbEntity
  8
ASSI
100
AcDbLine
 62
7
  6
CONTINUOUS
 10
157.525
 20
8.4458792625
 11
157.525
 21
16.975
  0
LINE
  5
2C4
100
AcDbEntity
  8
0
100
AcDbLine
 62
7
  6
CONTINUOUS
 10
158.35
 20
2.875
 11
158.35
 21
5.375
  0
LINE
  5
2C5
100
AcDbEntity
  8
0
100
AcDbLine
 62
7
  6
CONTINUOUS
 10
159.35
 20
2.875
 11
159.35
 21
5.375
  0
LWPOLYLINE
  5
2C6
100
AcDbEntity
  8
RACCORDO
100
AcDbPolyline
 62
253
  6
CONTINUOUS
 90
10
 70
0
 10
149.85
 20
-1.3917524306
 10
149.8519953784
 20
-1.360411685
 10
149.8579500197
 20
-1.3295712552
 10
149.8677688612
 20
-1.2997234922
 10
149.8812951502
 20
-1.2713448998
 10
149.8983129467
 20
-1.2448885273
 10
149.9185505705
 20
-1.2207767367
 10
149.9416849387
 20
-1.1993944599
 10
149.9673467232
 20
-1.1810830537
 10
149.9951262473
 20
-1.16613485
  0
LWPOLYLINE
  5
2C7
100
AcDbEntity
  8
RACCORDO
100
AcDbPolyline
 62
253
  6
CONTINUOUS
 90
6
 70
0
 10
164.635975296
 20
1.575759832
 10
164.6600705778
 20
1.5092808828
 10
164.6840711643
 20
1.4418859465
 10
164.7079444927
 20
1.3735750228
 10
164.7313923577
 20
1.3044722313
 10
164.7784264089
 20
1.1631463285
  0
LWPOLYLINE
  5
2C8
100
AcDbEntity
  8
RACCORDO
100
AcDbPolyline
 62
253
  6
CONTINUOUS
 90
20
 70
0
 10
164.8279958332
 20
1.0167233004
 10
164.8541586816
 20
0.9411225275
 10
164.8814825021
 20
0.8638128269
 10
164.9099688117
 20
0.7847580401
 10
164.940060078
 20
0.7033929501
 10
164.9718558197
 20
0.6196823314
 10
165.0053902469
 20
0.5336614095
 10
165.0410521739
 20
0.4448706448
 10
165.0790104295
 20
0.3531745675
 10
165.1192938324
 20
0.2587086473
 10
165.1621145736
 20
0.1614197544
 10
165.2076704239
 20
0.0611953668
 10
165.2560147902
 20
-0.0418519935
 10
165.3071537301
 20
-0.1474378903
 10
165.3611949742
 20
-0.2554540678
 10
165.4183065886
 20
-0.3660087818
 10
165.4785841876
 20
-0.479142364
 10
165.5421622006
 20
-0.5948682584
 10
165.6092192696
 20
-0.7131730211
 10
165.6799250553
 20
-0.834056652
  0
LINE
  5
2C9
100
AcDbEntity
  8
RACCORDO
100
AcDbLine
 62
253
  6
CONTINUOUS
 10
164.7784264089
 20
1.1631463285
 11
164.8279958332
 21
1.0167233004
  0
LWPOLYLINE
  5
2CA
100
AcDbEntity
  8
RACCORDO
100
AcDbPolyline
 62
253
  6
CONTINUOUS
 90
10
 70
0
 10
167.8499997965
 20
-1.3917522337
 10
167.848004276
 20
-1.360411588
 10
167.8420495202
 20
-1.3295712746
 10
167.832230593
 20
-1.29972364
 10
167.8187042474
 20
-1.2713451829
 10
167.8016864233
 20
-1.2448889479
 10
167.7814487995
 20
-1.2207772923
 10
167.7583144572
 20
-1.1993951436
 10
167.7326527216
 20
-1.1810838545
 10
167.7048732665
 20
-1.1661357535
  0
LINE
  5
2CB
100
AcDbEntity
  8
0
100
AcDbLine
 62
7
  6
CONTINUOUS
 10
160.175
 20
5.375
 11
160.175
 21
8.4458792625
  0
LINE
  5
2CC
100
AcDbEntity
  8
ASSI
100
AcDbLine
 62
7
  6
CONTINUOUS
 10
160.175
 20
8.4458792625
 11
160.175
 21
16.975
  0
LINE
  5
2CD
100
AcDbEntity
  8
0
100
AcDbLine
 62
7
  6
CONTINUOUS
 10
160.293375673
 20
-14.7426532249
 11
160.293375673
 21
-16.475
  0
LINE
  5
2CE
100
AcDbEntity
  8
ASSI
100
AcDbLine
 62
253
  6
CONTINUOUS
 10
160.805603859
 20
-14.075
 11
160.805603859
 21
-12.075
  0
LINE
  5
2CF
100
AcDbEntity
  8
0
100
AcDbLine
 62
7
  6
CONTINUOUS
 10
161.15
 20
-10.625
 11
161.15
 21
-11.075
  0
LINE
  5
2D0
100
AcDbEntity
  8
0
100
AcDbLine
 62
7
  6
CONTINUOUS
 10
161.7367513459
 20
-14.7426532249
 11
161.7367513459
 21
-16.475
  0
LINE
  5
2D1
100
AcDbEntity
  8
0
100
AcDbLine
 62
7
  6
CONTINUOUS
 10
162.1
 20
-14.075
 11
162.1
 21
-14.575
  0
LINE
  5
2D2
100
AcDbEntity
  8
ASSI
100
AcDbLine
 62
7
  6
CONTINUOUS
 10
162.725
 20
-14.075
 11
162.725
 21
-12.075
  0
LINE
  5
2D3
100
AcDbEntity
  8
ASSI
100
AcDbLine
 62
7
  6
CONTINUOUS
 10
163.85
 20
-10.625
 11
163.85
 21
-11.075
  0
LINE
  5
2D4
100
AcDbEntity
  8
0
100
AcDbLine
 62
7
  6
CONTINUOUS
 10
164.45
 20
1.625
 11
164.45
 21
2.125
  0
LINE
  5
2D5
100
AcDbEntity
  8
0
100
AcDbLine
 62
7
  6
CONTINUOUS
 10
164.5295394197
 20
-11.075
 11
164.5295394197
 21
-10.625
  0
LINE
  5
2D6
100
AcDbEntity
  8
RACCORDO
100
AcDbLine
 62
7
  6
CONTINUOUS
 10
165.0
 20
-10.625
 11
165.0
 21
-11.075
  0
LINE
  5
2D7
100
AcDbEntity
  8
0
100
AcDbLine
 62
7
  6
CONTINUOUS
 10
165.0125
 20
-11.075
 11
165.0125
 21
-11.6229872979
  0
LINE
  5
2D8
100
AcDbEntity
  8
0
100
AcDbLine
 62
7
  6
CONTINUOUS
 10
165.025
 20
-2.025
 11
165.025
 21
-2.525
  0
LINE
  5
2D9
100
AcDbEntity
  8
RACCORDO
100
AcDbLine
 62
253
  6
CONTINUOUS
 10
166.85
 20
-2.025
 11
166.85
 21
-1.2251625784
  0
LINE
  5
2DA
100
AcDbEntity
  8
0
100
AcDbLine
 62
7
  6
CONTINUOUS
 10
167.775
 20
-11.275
 11
167.775
 21
-10.625
  0
LINE
  5
2DB
100
AcDbEntity
  8
RACCORDO
100
AcDbLine
 62
7
  6
CONTINUOUS
 10
167.85
 20
-2.025
 11
167.85
 21
-0.980006223
  0
LINE
  5
2DC
100
AcDbEntity
  8
0
100
AcDbLine
 62
253
  6
CONTINUOUS
 10
173.025
 20
-11.275
 11
173.025
 21
-10.625
  0
LINE
  5
2DD
100
AcDbEntity
  8
0
100
AcDbLine
 62
7
  6
CONTINUOUS
 10
173.025
 20
-10.625
 11
173.025
 21
-2.525
  0
LINE
  5
2DE
100
AcDbEntity
  8
0
100
AcDbLine
 62
7
  6
CONTINUOUS
 10
173.125
 20
-10.525
 11
173.125
 21
-3.275
  0
LINE
  5
2DF
100
AcDbEntity
  8
0
100
AcDbLine
 62
7
  6
CONTINUOUS
 10
173.775
 20
-10.525
 11
173.775
 21
-3.275
  0
LINE
  5
2E0
100
AcDbEntity
  8
RACCORDO
100
AcDbLine
 62
253
  6
CONTINUOUS
 10
179.725
 20
-10.2812452513
 11
179.725
 21
-8.2812452513
  0
LINE
  5
2E1
100
AcDbEntity
  8
RACCORDO
100
AcDbLine
 62
7
  6
CONTINUOUS
 10
181.225
 20
-10.9788158834
 11
181.225
 21
-8.4077226563
  0
LINE
  5
2E2
100
AcDbEntity
  8
RACCORDO
100
AcDbLine
 62
253
  6
CONTINUOUS
 10
165.6790583075
 20
-1.0789820035
 11
165.6799250683
 21
-0.8340565095
  0
LWPOLYLINE
  5
2E3
100
AcDbEntity
  8
RACCORDO
100
AcDbPolyline
 62
253
  6
CONTINUOUS
 90
19
 70
0
 10
167.85
 20
-1.3917522337
 10
167.8495978392
 20
-1.3939545522
 10
167.8483508362
 20
-1.3958858478
 10
167.846197671
 20
-1.3975461207
 10
167.8430856282
 20
-1.3989553259
 10
167.8389481096
 20
-1.4000935083
 10
167.8336807134
 20
-1.4009008023
 10
167.8271979359
 20
-1.4013848596
 10
167.8194150061
 20
-1.4015380284
 10
167.8101839621
 20
-1.4012774881
 10
167.7993790836
 20
-1.4006043546
 10
167.7869060153
 20
-1.3995175119
 10
167.772635862
 20
-1.397930791
 10
167.7564641365
 20
-1.3958408503
 10
167.7382757184
 20
-1.3932510314
 10
167.717911682
 20
-1.3900851901
 10
167.6952544165
 20
-1.386335013
 10
167.6702005949
 20
-1.3820088135
 10
167.6426004705
 20
-1.3770553873
  0
LWPOLYLINE
  5
2E4
100
AcDbEntity
  8
RACCORDO
100
AcDbPolyline
 62
253
  6
CONTINUOUS
 90
19
 70
0
 10
167.7048732443
 20
-1.1661358012
 10
167.7044114506
 20
-1.1682414151
 10
167.7031857741
 20
-1.1700523302
 10
167.7011948115
 20
-1.1715715686
 10
167.6985009781
 20
-1.1728288299
 10
167.6950385624
 20
-1.1738015944
 10
167.6906131767
 20
-1.1744163045
 10
167.6852435313
 20
-1.1746910138
 10
167.6789051141
 20
-1.1746205592
 10
167.6713369047
 20
-1.1741005375
 10
167.6625326593
 20
-1.1731479793
 10
167.6524888743
 20
-1.1717680548
 10
167.6409461588
 20
-1.1698441669
 10
167.6279026562
 20
-1.16739684
 10
167.6133457127
 20
-1.1644397558
 10
167.5969967276
 20
-1.1608532111
 10
167.5788354422
 20
-1.156662088
 10
167.5588617172
 20
-1.1518921797
 10
167.536823849
 20
-1.1464336419
  0
LINE
  5
2E5
100
AcDbEntity
  8
RACCORDO
100
AcDbLine
 62
253
  6
CONTINUOUS
 10
166.85
 20
-1.2251625784
 11
166.9096767166
 21
-0.98516973
  0
LINE
  5
2E6
100
AcDbEntity
  8
RACCORDO
100
AcDbLine
 62
253
  6
CONTINUOUS
 10
180.6575527145
 20
-11.0431614754
 11
180.646986562
 21
-10.9499802152
  0
ARC
  5
2E7
100
AcDbEntity
  8
0
100
AcDbCircle
 62
7
  6
CONTINUOUS
 10
158.85
 20
-0.875
 40
6.1326992426
100
AcDbArc
 50
24.05734945
 51
31.2513760806
  0
ARC
  5
2E8
100
AcDbEntity
  8
0
100
AcDbCircle
 62
7
  6
CONTINUOUS
 10
158.85
 20
-0.875
 40
6.1326992426
100
AcDbArc
 50
148.7486239194
 51
155.94265055
  0
CIRCLE
  5
2E9
100
AcDbEntity
  8
0
100
AcDbCircle
 62
7
  6
CONTINUOUS
 10
-176.725
 20
-5.625
 40
3.75
  0
ARC
  5
2EA
100
AcDbEntity
  8
ASSI
100
AcDbCircle
 62
7
  6
CONTINUOUS
 10
164.3001898095
 20
-11.575
 40
2.5
100
AcDbArc
 50
270.0
 51
310.601294645
  0
CIRCLE
  5
2EB
100
AcDbEntity
  8
0
100
AcDbCircle
 62
7
  6
CONTINUOUS
 10
-176.725
 20
-5.625
 40
1.3
  0
CIRCLE
  5
2EC
100
AcDbEntity
  8
SMUSSO
100
AcDbCircle
 62
7
  6
CONTINUOUS
 10
-176.725
 20
-5.625
 40
1.25
  0
CIRCLE
  5
2ED
100
AcDbEntity
  8
SMUSSO
100
AcDbCircle
 62
7
  6
CONTINUOUS
 10
-176.725
 20
-5.625
 40
0.85
  0
ARC
  5
2EE
100
AcDbEntity
  8
0
100
AcDbCircle
 62
7
  6
CONTINUOUS
 10
173.025
 20
-3.275
 40
0.75
100
AcDbArc
 50
0.0
 51
90.0
  0
ARC
  5
2EF
100
AcDbEntity
  8
0
100
AcDbCircle
 62
7
  6
CONTINUOUS
 10
173.025
 20
-10.525
 40
0.75
100
AcDbArc
 50
270.0
 51
360.0
  0
ARC
  5
2F0
100
AcDbEntity
  8
0
100
AcDbCircle
 62
7
  6
CONTINUOUS
 10
-180.475
 20
-3.275
 40
0.75
100
AcDbArc
 50
90.0
 51
180.0
  0
ARC
  5
2F1
100
AcDbEntity
  8
0
100
AcDbCircle
 62
7
  6
CONTINUOUS
 10
-180.475
 20
-10.525
 40
0.75
100
AcDbArc
 50
180.0
 51
270.0
  0
ARC
  5
2F2
100
AcDbEntity
  8
RACCORDO
100
AcDbCircle
 62
7
  6
CONTINUOUS
 10
165.082509451
 20
1.092490549
 40
0.532509451
100
AcDbArc
 50
45.5691637988
 51
89.9833731075
  0
ARC
  5
2F3
100
AcDbEntity
  8
RACCORDO
100
AcDbCircle
 62
7
  6
CONTINUOUS
 10
152.6174940034
 20
1.0924940034
 40
0.5325056834
100
AcDbArc
 50
90.0125277092
 51
134.4308913203
  0
ARC
  5
2F4
100
AcDbEntity
  8
0
100
AcDbCircle
 62
7
  6
CONTINUOUS
 10
-177.975
 20
-11.875
 40
0.5
100
AcDbArc
 50
90.0
 51
270.0
  0
ARC
  5
2F5
100
AcDbEntity
  8
0
100
AcDbCircle
 62
7
  6
CONTINUOUS
 10
-175.475
 20
-11.875
 40
0.5
100
AcDbArc
 50
270.0
 51
90.0
  0
ARC
  5
2F6
100
AcDbEntity
  8
0
100
AcDbCircle
 62
7
  6
CONTINUOUS
 10
-176.225
 20
-12.875
 40
0.5
100
AcDbArc
 50
270.0
 51
360.0
  0
ARC
  5
2F7
100
AcDbEntity
  8
0
100
AcDbCircle
 62
7
  6
CONTINUOUS
 10
-177.225
 20
-12.875
 40
0.5
100
AcDbArc
 50
180.0
 51
270.0
  0
ARC
  5
2F8
100
AcDbEntity
  8
RACCORDO
100
AcDbCircle
 62
7
  6
CONTINUOUS
 10
153.2
 20
-12.675
 40
0.5
100
AcDbArc
 50
180.0
 51
270.0
  0
ARC
  5
2F9
100
AcDbEntity
  8
0
100
AcDbCircle
 62
7
  6
CONTINUOUS
 10
-175.725
 20
-12.625
 40
0.25
100
AcDbArc
 50
270.0
 51
360.0
  0
ARC
  5
2FA
100
AcDbEntity
  8
0
100
AcDbCircle
 62
7
  6
CONTINUOUS
 10
-177.725
 20
-12.625
 40
0.25
100
AcDbArc
 50
180.0
 51
270.0
  0
ARC
  5
2FB
100
AcDbEntity
  8
RACCORDO
100
AcDbCircle
 62
7
  6
CONTINUOUS
 10
150.1
 20
-0.9800063007
 40
0.25
100
AcDbArc
 50
134.4326061581
 51
179.9997752925
  0
ARC
  5
2FC
100
AcDbEntity
  8
RACCORDO
100
AcDbCircle
 62
7
  6
CONTINUOUS
 10
167.6
 20
-0.9797895822
 40
0.25
100
AcDbArc
 50
359.9503499254
 51
45.5324277113
  0
ARC
  5
2FD
100
AcDbEntity
  8
0
100
AcDbCircle
 62
7
  6
CONTINUOUS
 10
173.025
 20
-3.275
 40
0.1
100
AcDbArc
 50
0.0
 51
90.0
  0
ARC
  5
2FE
100
AcDbEntity
  8
0
100
AcDbCircle
 62
7
  6
CONTINUOUS
 10
173.025
 20
-10.525
 40
0.1
100
AcDbArc
 50
270.0
 51
360.0
  0
ARC
  5
2FF
100
AcDbEntity
  8
0
100
AcDbCircle
 62
7
  6
CONTINUOUS
 10
-180.475
 20
-3.275
 40
0.1
100
AcDbArc
 50
90.0
 51
180.0
  0
ARC
  5
300
100
AcDbEntity
  8
0
100
AcDbCircle
 62
7
  6
CONTINUOUS
 10
-180.475
 20
-10.525
 40
0.1
100
AcDbArc
 50
180.0
 51
270.0
  0
ELLIPSE
  5
301
100
AcDbEntity
  8
RACCORDO
100
AcDbEllipse
 62
7
  6
CONTINUOUS
 10
179.725
 20
-8.5778129596
 30
0.0
 11
1.4996030284
 21
0.1768678
 31
0.0
 40
0.1951025079
 41
-0.0230069305
 42
1.5477893963
  0
ELLIPSE
  5
302
100
AcDbEntity
  8
RACCORDO
100
AcDbEllipse
 62
7
  6
CONTINUOUS
 10
171.5941953198
 20
-6.075
 30
0.0
 11
-10.0500064601
 21
0.0
 31
0.0
 40
0.497512118
 41
1.7745229712
 42
1.7948894191
  0
ELLIPSE
  5
303
100
AcDbEntity
  8
RACCORDO
100
AcDbEllipse
 62
7
  6
CONTINUOUS
 10
179.725
 20
-10.5778129596
 30
0.0
 11
1.4996030284
 21
0.1768678
 31
0.0
 40
0.1951025079
 41
-0.0230069305
 42
1.5477893963
  0
ENDSEC
  0
SECTION
  2
OBJECTS
  0
DICTIONARY
  5
C
100
AcDbDictionary
280
0
281
1
  3
ACAD_GROUP
350
D
  3
ACAD_MLINESTYLE
350
17
  3
ACAD_LAYOUT
350
1A
  3
ACAD_PLOTSETTINGS
350
19
  3
ACAD_PLOTSTYLENAME
350
E
  0
DICTIONARY
  5
D
102
{ACAD_REACTORS
330
C
102
}
100
AcDbDictionary
280
0
281
1
  0
ACDBDICTIONARYWDFLT
  5
E
102
{ACAD_REACTORS
330
C
102
}
100
AcDbDictionary
281
1
  3
Normal
350
F
100
AcDbDictionaryWithDefault
340
F
  0
DICTIONARY
  5
17
102
{ACAD_REACTORS
330
C
102
}
100
AcDbDictionary
280
0
281
1
  3
Standard
350
18
  0
DICTIONARY
  5
19
102
{ACAD_REACTORS
330
C
102
}
100
AcDbDictionary
281
1
  0
DICTIONARY
  5
1A
102
{ACAD_REACTORS
330
C
102
}
100
AcDbDictionary
281
1
  3
Model
350
304
  3
Layout1
350
305
  0
ACDBPLACEHOLDER
  5
F
102
{ACAD_REACTORS
330
E
102
}
  0
MLINESTYLE
  5
18
102
{ACAD_REACTORS
330
17
102
}
100
AcDbMlineStyle
  2
STANDARD
 70
0
  3

 62
256
 51
90.0
 52
90.0
 71
2
 49
0.5
 62
256
  6
BYLAYER
 49
-0.5
 62
256
  6
BYLAYER
  0
LAYOUT
  5
304
102
{ACAD_REACTORS
330
1A
102
}
100
AcDbPlotSettings
  1

  2
none_device
  4
ANSI_C_(22.00_x_17.00_Inches)
  6

 40
0.0
 41
0.0
 42
0.0
 43
0.0
 44
558.8
 45
431.8
 46
0.0
 47
0.0
 48
0.0
 49
0.0
140
0.0
141
0.0
142
1.0
143
1.0
 70
1024
 72
1
 73
0
 74
0
  7

 75
0
147
1.0
148
0.0
149
0.0
100
AcDbLayout
  1
Model
 70
0
 71
0
 10
0.0
 20
0.0
 11
558.8
 21
431.8
 12
0.0
 22
0.0
 32
0.0
 14
0.0
 24
0.0
 34
0.0
 15
0.0
 25
0.0
 35
0.0
146
0.0
 13
0.0
 23
0.0
 33
0.0
 16
1.0
 26
0.0
 36
0.0
 17
0.0
 27
1.0
 37
0.0
 76
0
330
20D
345
0
346
0
  0
LAYOUT
  5
305
102
{ACAD_REACTORS
330
1A
102
}
100
AcDbPlotSettings
  1

  2
none_device
  4
ANSI_C_(22.00_x_17.00_Inches)
  6

 40
0.0
 41
0.0
 42
0.0
 43
0.0
 44
558.8
 45
431.8
 46
0.0
 47
0.0
 48
0.0
 49
0.0
140
0.0
141
0.0
142
1.0
143
1.0
 70
0
 72
1
 73
0
 74
0
  7

 75
0
147
1.0
148
0.0
149
0.0
100
AcDbLayout
  1
Layout1
 70
0
 71
1
 10
0.0
 20
0.0
 11
558.8
 21
431.8
 12
0.0
 22
0.0
 32
0.0
 14
0.0
 24
0.0
 34
0.0
 15
0.0
 25
0.0
 35
0.0
146
0.0
 13
0.0
 23
0.0
 33
0.0
 16
1.0
 26
0.0
 36
0.0
 17
0.0
 27
1.0
 37
0.0
 76
0
330
20E
345
0
346
0
  0
ENDSEC
  0
EOF
