  0
SECTION
  2
HEADER
  9
$ACADVER
  1
AC1021
  9
$DWGCODEPAGE
  3
ANSI_1252
  9
$EXTMAX
 10
297.0
 20
210.0
 30
0.0
  9
$EXTMIN
 10
0.0
 20
0.0
 30
0.0
  9
$LIMMIN
 10
0.0
 20
0.0
  9
$LIMMAX
 10
297.0
 20
210.0
  9
$VIEWCTR
 10
148.5
 20
105.0
  9
$VIEWSIZE
 40
210.0
  9
$CLAYER
  8
0
  9
$LTSCALE
 40
16.335
  9
$CELTYPE
  6
BYLAYER
  9
$DIMSCALE
 40
1.0
  9
$DIMASZ
 40
3.0
  9
$DIMEXO
 40
0.5
  9
$DIMDLI
 40
11.286
  9
$DIMEXE
 40
1.5
  9
$DIMCEN
 40
2.673
  9
$DIMLFAC
 40
1.0
  9
$DIMBLK
  1
_FILLED
  9
$DIMALT
 70
0
  9
$DIMALTF
 40
25.4
  9
$DIMTXT
 40
3.0
  9
$DIMTOL
 70
1
  9
$DIMLIM
 70
0
  9
$DIMTFAC
 40
1.0
  9
$DIMTP
 40
0.01
  9
$DIMTM
 40
0.01
  9
$DIMGAP
 40
0.625
  9
$DIMDSEP
 70
44
  9
$AUNITS
 70
0
  9
$PDMODE
 70
3
  9
$PDSIZE
 40
3.0
  9
$HANDSEED
  5
3D5
  9
$TILEMODE
 70
1
  9
$MEASUREMENT
 70
1
  9
$INSUNITS
 70
4
  0
ENDSEC
  0
SECTION
  2
CLASSES
  0
CLASS
  1
ACDBDICTIONARYWDFLT
  2
AcDbDictionaryWithDefault
  3
AutoCAD 2000
 90
0
 91
1
280
0
281
0
  0
CLASS
  1
ACDBPLACEHOLDER
  2
AcDbPlaceHolder
  3
AutoCAD 2000
 90
0
 91
1
280
0
281
0
  0
CLASS
  1
LAYOUT
  2
AcDbLayout
  3
AutoCAD 2000
 90
0
 91
0
280
0
281
0
  0
ENDSEC
  0
SECTION
  2
TABLES
  0
TABLE
  2
VPORT
  5
8
100
AcDbSymbolTable
 70
2
  0
VPORT
  5
1F4
100
AcDbSymbolTableRecord
100
AcDbViewportTableRecord
  2
*ACTIVE
 70
0
 10
0.0
 20
0.0
 11
1.0
 21
1.0
 12
148.5
 22
105.0
 13
0.0
 23
0.0
 14
1.0
 24
1.0
 15
0.0
 25
0.0
 16
0.0
 26
0.0
 36
1.0
 17
0.0
 27
0.0
 37
0.0
 40
210.0
 41
1.4142857143
 42
50.0
 43
0.0
 44
0.0
 50
0.0
 51
0.0
 71
0
 72
100
 73
1
 74
1
 75
0
 76
0
 77
0
 78
0
  0
ENDTAB
  0
TABLE
  2
LTYPE
  5
5
100
AcDbSymbolTable
 70
6
  0
LTYPE
  5
14
100
AcDbSymbolTableRecord
100
AcDbLinetypeTableRecord
  2
BYBLOCK
 70
0
  3

 72
65
 73
0
 40
0.0
  0
LTYPE
  5
15
100
AcDbSymbolTableRecord
100
AcDbLinetypeTableRecord
  2
BYLAYER
 70
0
  3

 72
65
 73
0
 40
0.0
  0
LTYPE
  5
16
100
AcDbSymbolTableRecord
100
AcDbLinetypeTableRecord
  2
CONTINUOUS
 70
64
  3
Solid line
 72
65
 73
0
 40
0.0
  0
LTYPE
  5
1F5
100
AcDbSymbolTableRecord
100
AcDbLinetypeTableRecord
  2
CENTER
 70
64
  3
____ _ ____ _ ____ _ ____ _ ____ _ ____ _ ____
 72
65
 73
4
 40
0.6
 49
0.375
 74
0
 49
-0.075
 74
0
 49
0.075
 74
0
 49
-0.075
 74
0
  0
LTYPE
  5
1F6
100
AcDbSymbolTableRecord
100
AcDbLinetypeTableRecord
  2
HIDDEN
 70
64
  3
- - - - - - - - - - - - - - - - - - - -
 72
65
 73
2
 40
0.2
 49
0.1
 74
0
 49
-0.1
 74
0
  0
LTYPE
  5
1F7
100
AcDbSymbolTableRecord
100
AcDbLinetypeTableRecord
  2
PHANTOM
 70
64
  3
_____ _ _ _____ _ _ _____ _ _ _____
 72
65
 73
6
 40
0.8
 49
0.45
 74
0
 49
-0.05
 74
0
 49
0.1
 74
0
 49
-0.05
 74
0
 49
0.1
 74
0
 49
-0.05
 74
0
  0
LTYPE
  5
1F8
100
AcDbSymbolTableRecord
100
AcDbLinetypeTableRecord
  2
DOT
 70
64
  3
. . . . . . . . . . . . . . . . . . . .
 72
65
 73
2
 40
0.2
 49
0.1
 74
0
 49
-0.1
 74
0
  0
LTYPE
  5
1F9
100
AcDbSymbolTableRecord
100
AcDbLinetypeTableRecord
  2
DASHED
 70
64
  3
- - - - - - - - - - - - - - - - - - - -
 72
65
 73
2
 40
0.2
 49
0.1
 74
0
 49
-0.1
 74
0
  0
ENDTAB
  0
TABLE
  2
LAYER
  5
2
100
AcDbSymbolTable
 70
36
  0
LAYER
  5
10
100
AcDbSymbolTableRecord
100
AcDbLayerTableRecord
  2
0
 70
0
 62
7
  6
CONTINUOUS
370
-3
390
F
  0
LAYER
  5
1FA
100
AcDbSymbolTableRecord
100
AcDbLayerTableRecord
  2
DEFAULT_1
 70
0
 62
7
  6
CENTER
370
-3
390
F
  0
LAYER
  5
1FB
100
AcDbSymbolTableRecord
100
AcDbLayerTableRecord
  2
DEFAULT_2
 70
0
 62
7
  6
HIDDEN
370
-3
390
F
  0
LAYER
  5
1FC
100
AcDbSymbolTableRecord
100
AcDbLayerTableRecord
  2
DEFAULT_3
 70
0
 62
7
  6
PHANTOM
370
-3
390
F
  0
LAYER
  5
1FD
100
AcDbSymbolTableRecord
100
AcDbLayerTableRecord
  2
ASSI
 70
0
 62
7
  6
CONTINUOUS
370
-3
390
F
  0
LAYER
  5
1FE
100
AcDbSymbolTableRecord
100
AcDbLayerTableRecord
  2
COORDINATE
 70
0
 62
7
  6
CONTINUOUS
370
-3
390
F
  0
LAYER
  5
1FF
100
AcDbSymbolTableRecord
100
AcDbLayerTableRecord
  2
COORD_ORIGINE
 70
0
 62
7
  6
CONTINUOUS
370
-3
390
F
  0
LAYER
  5
200
100
AcDbSymbolTableRecord
100
AcDbLayerTableRecord
  2
COSMETICI
 70
0
 62
7
  6
CONTINUOUS
370
-3
390
F
  0
LAYER
  5
201
100
AcDbSymbolTableRecord
100
AcDbLayerTableRecord
  2
CURVE
 70
0
 62
7
  6
CONTINUOUS
370
-3
390
F
  0
LAYER
  5
202
100
AcDbSymbolTableRecord
100
AcDbLayerTableRecord
  2
NOTE
 70
0
 62
7
  6
CONTINUOUS
370
-3
390
F
  0
LAYER
  5
203
100
AcDbSymbolTableRecord
100
AcDbLayerTableRecord
  2
PIANI
 70
0
 62
7
  6
CONTINUOUS
370
-3
390
F
  0
LAYER
  5
204
100
AcDbSymbolTableRecord
100
AcDbLayerTableRecord
  2
PIANI_ORIGINE
 70
0
 62
7
  6
CONTINUOUS
370
-3
390
F
  0
LAYER
  5
205
100
AcDbSymbolTableRecord
100
AcDbLayerTableRecord
  2
PUNTI
 70
0
 62
7
  6
CONTINUOUS
370
-3
390
F
  0
LAYER
  5
206
100
AcDbSymbolTableRecord
100
AcDbLayerTableRecord
  2
RACCORDO
 70
0
 62
7
  6
CONTINUOUS
370
-3
390
F
  0
LAYER
  5
207
100
AcDbSymbolTableRecord
100
AcDbLayerTableRecord
  2
SIMBOLI
 70
0
 62
7
  6
CONTINUOUS
370
-3
390
F
  0
LAYER
  5
208
100
AcDbSymbolTableRecord
100
AcDbLayerTableRecord
  2
SNAPLINE
 70
0
 62
7
  6
CONTINUOUS
370
-3
390
F
  0
LAYER
  5
209
100
AcDbSymbolTableRecord
100
AcDbLayerTableRecord
  2
SUPERFICI
 70
0
 62
7
  6
CONTINUOUS
370
-3
390
F
  0
LAYER
  5
20A
100
AcDbSymbolTableRecord
100
AcDbLayerTableRecord
  2
TRASH
 70
0
 62
7
  6
CONTINUOUS
370
-3
390
F
  0
ENDTAB
  0
TABLE
  2
STYLE
  5
3
100
AcDbSymbolTable
 70
1
  0
STYLE
  5
11
100
AcDbSymbolTableRecord
100
AcDbTextStyleTableRecord
  2
STANDARD
 70
0
 40
0.0
 41
0.8
 50
0.0
 71
0
 42
0.2
  3
txt
  4

  0
STYLE
  5
20B
100
AcDbSymbolTableRecord
100
AcDbTextStyleTableRecord
  2
TEXTSTYLE_1
 70
0
 40
0.0
 41
0.8
 50
0.0
 71
0
 42
0.2
  3
gdt
  4

  0
ENDTAB
  0
TABLE
  2
VIEW
  5
6
100
AcDbSymbolTable
 70
0
  0
ENDTAB
  0
TABLE
  2
UCS
  5
7
100
AcDbSymbolTable
 70
0
  0
ENDTAB
  0
TABLE
  2
APPID
  5
9
100
AcDbSymbolTable
 70
1
  0
APPID
  5
20C
100
AcDbSymbolTableRecord
100
AcDbRegAppTableRecord
  2
ACAD
 70
0
  0
ENDTAB
  0
TABLE
  2
BLOCK_RECORD
  5
1
100
AcDbSymbolTable
 70
0
  0
BLOCK_RECORD
  5
20D
100
AcDbSymbolTableRecord
100
AcDbBlockTableRecord
  2
*Model_Space
  0
BLOCK_RECORD
  5
20E
100
AcDbSymbolTableRecord
100
AcDbBlockTableRecord
  2
*Paper_Space
  0
ENDTAB
  0
TABLE
  2
DIMSTYLE
  5
A
100
AcDbSymbolTable
 70
1
100
AcDbDimStyleTable
 71
0
  0
DIMSTYLE
105
20F
100
AcDbSymbolTableRecord
100
AcDbDimStyleTableRecord
  2
STANDARD
 70
0
  3

  4

 40
1.0
 41
3.0
 42
0.5
 43
0.38
 44
1.5
 45
0.0
 46
0.0
 47
0.01
 48
0.01
140
3.0
141
0.09
142
0.0
143
25.4
144
1.0
145
0.0
146
1.0
147
0.625
 71
1.0
 72
0.0
 73
0
 74
0
 75
0
 76
0
 77
1
 78
8
170
0
171
1
172
0
173
0
174
0
175
0
176
0
177
0
178
0
270
2
271
2
272
2
273
2
274
2
275
0
280
0
281
0
282
0
283
1
284
8
285
0
286
0
287
3
288
0
340
11
278
44
  0
ENDTAB
  0
ENDSEC
  0
SECTION
  2
BLOCKS
  0
BLOCK
  5
20
100
AcDbEntity
  8
0
100
AcDbBlockBegin
  2
*Model_Space
 70
0
 10
0.0
 20
0.0
 30
0.0
  3
*Model_Space
  1

  0
ENDBLK
  5
21
100
AcDbEntity
  8
0
100
AcDbBlockEnd
  0
BLOCK
  5
1C
100
AcDbEntity
  8
0
100
AcDbBlockBegin
  2
*Paper_Space
 70
0
 10
0.0
 20
0.0
 30
0.0
  3
*Paper_Space
  1

  0
ENDBLK
  5
1D
100
AcDbEntity
  8
0
100
AcDbBlockEnd
  0
ENDSEC
  0
SECTION
  2
ENTITIES
  0
LINE
  5
210
100
AcDbEntity
  8
RACCORDO
100
AcDbLine
 62
7
  6
CONTINUOUS
 10
-438.2525287117
 20
-535.9420860492
 11
-399.2525287117
 21
-535.9420860492
  0
LINE
  5
211
100
AcDbEntity
  8
RACCORDO
100
AcDbLine
 62
7
  6
CONTINUOUS
 10
-390.2525287117
 20
-535.9420860492
 11
-368.2525287117
 21
-535.9420860492
  0
LINE
  5
212
100
AcDbEntity
  8
0
100
AcDbLine
 62
7
  6
CONTINUOUS
 10
-390.2525287117
 20
-533.2420860492
 11
-399.2525287117
 21
-533.2420860492
  0
LINE
  5
213
100
AcDbEntity
  8
0
100
AcDbLine
 62
7
  6
CONTINUOUS
 10
-440.2525287117
 20
-514.9420860492
 11
-443.2525287117
 21
-514.9420860492
  0
LINE
  5
214
100
AcDbEntity
  8
RACCORDO
100
AcDbLine
 62
7
  6
CONTINUOUS
 10
-443.2525287117
 20
-514.9420860492
 11
-445.2525287117
 21
-514.9420860492
  0
LINE
  5
215
100
AcDbEntity
  8
RACCORDO
100
AcDbLine
 62
253
  6
CONTINUOUS
 10
-443.2525287117
 20
-512.9420860492
 11
-445.2525287117
 21
-512.9420860492
  0
LINE
  5
216
100
AcDbEntity
  8
RACCORDO
100
AcDbLine
 62
7
  6
CONTINUOUS
 10
-351.7525287117
 20
-507.4420860492
 11
-362.7525287117
 21
-507.4420860492
  0
LINE
  5
217
100
AcDbEntity
  8
0
100
AcDbLine
 62
7
  6
CONTINUOUS
 10
-362.7525287117
 20
-507.4420860492
 11
-366.2525287117
 21
-507.4420860492
  0
LINE
  5
218
100
AcDbEntity
  8
RACCORDO
100
AcDbLine
 62
7
  6
CONTINUOUS
 10
-338.2525287117
 20
-502.9420860492
 11
-349.7525287117
 21
-502.9420860492
  0
LINE
  5
219
100
AcDbEntity
  8
0
100
AcDbLine
 62
7
  6
CONTINUOUS
 10
-348.0525287117
 20
-497.3620860492
 11
-339.0525287117
 21
-497.3620860492
  0
LINE
  5
21A
100
AcDbEntity
  8
0
100
AcDbLine
 62
7
  6
CONTINUOUS
 10
-339.0525287117
 20
-488.3620860492
 11
-348.0525287117
 21
-488.3620860492
  0
LINE
  5
21B
100
AcDbEntity
  8
0
100
AcDbLine
 62
7
  6
CONTINUOUS
 10
-348.0525287117
 20
-481.4870860492
 11
-339.0525287117
 21
-481.4870860492
  0
LINE
  5
21C
100
AcDbEntity
  8
0
100
AcDbLine
 62
7
  6
CONTINUOUS
 10
-339.0525287117
 20
-472.4870860492
 11
-348.0525287117
 21
-472.4870860492
  0
LINE
  5
21D
100
AcDbEntity
  8
0
100
AcDbLine
 62
7
  6
CONTINUOUS
 10
-348.0525287117
 20
-468.7870860492
 11
-339.0525287117
 21
-468.7870860492
  0
LINE
  5
21E
100
AcDbEntity
  8
0
100
AcDbLine
 62
7
  6
CONTINUOUS
 10
-390.2525287117
 20
-464.1420860492
 11
-399.2525287117
 21
-464.1420860492
  0
LINE
  5
21F
100
AcDbEntity
  8
0
100
AcDbLine
 62
7
  6
CONTINUOUS
 10
-339.0525287117
 20
-459.7870860492
 11
-348.0525287117
 21
-459.7870860492
  0
LINE
  5
220
100
AcDbEntity
  8
0
100
AcDbLine
 62
7
  6
CONTINUOUS
 10
-390.2525287117
 20
-455.1420860492
 11
-399.2525287117
 21
-455.1420860492
  0
LINE
  5
221
100
AcDbEntity
  8
0
100
AcDbLine
 62
7
  6
CONTINUOUS
 10
-348.0525287117
 20
-452.9120860492
 11
-339.0525287117
 21
-452.9120860492
  0
LINE
  5
222
100
AcDbEntity
  8
0
100
AcDbLine
 62
7
  6
CONTINUOUS
 10
-339.0525287117
 20
-443.9120860492
 11
-348.0525287117
 21
-443.9120860492
  0
LINE
  5
223
100
AcDbEntity
  8
0
100
AcDbLine
 62
7
  6
CONTINUOUS
 10
-348.0525287117
 20
-437.0370860492
 11
-339.0525287117
 21
-437.0370860492
  0
LINE
  5
224
100
AcDbEntity
  8
0
100
AcDbLine
 62
7
  6
CONTINUOUS
 10
-339.0525287117
 20
-428.0370860492
 11
-348.0525287117
 21
-428.0370860492
  0
LINE
  5
225
100
AcDbEntity
  8
0
100
AcDbLine
 62
7
  6
CONTINUOUS
 10
-348.0525287117
 20
-424.3370860492
 11
-339.0525287117
 21
-424.3370860492
  0
LINE
  5
226
100
AcDbEntity
  8
0
100
AcDbLine
 62
7
  6
CONTINUOUS
 10
-390.2525287117
 20
-421.0920860492
 11
-399.2525287117
 21
-421.0920860492
  0
LINE
  5
227
100
AcDbEntity
  8
0
100
AcDbLine
 62
7
  6
CONTINUOUS
 10
-339.0525287117
 20
-415.3370860492
 11
-348.0525287117
 21
-415.3370860492
  0
LINE
  5
228
100
AcDbEntity
  8
0
100
AcDbLine
 62
7
  6
CONTINUOUS
 10
-390.2525287117
 20
-412.0920860492
 11
-399.2525287117
 21
-412.0920860492
  0
LINE
  5
229
100
AcDbEntity
  8
0
100
AcDbLine
 62
7
  6
CONTINUOUS
 10
-348.0525287117
 20
-408.4620860492
 11
-339.0525287117
 21
-408.4620860492
  0
LINE
  5
22A
100
AcDbEntity
  8
0
100
AcDbLine
 62
7
  6
CONTINUOUS
 10
-339.0525287117
 20
-399.4620860492
 11
-348.0525287117
 21
-399.4620860492
  0
LINE
  5
22B
100
AcDbEntity
  8
0
100
AcDbLine
 62
7
  6
CONTINUOUS
 10
-348.0525287117
 20
-392.5870860492
 11
-339.0525287117
 21
-392.5870860492
  0
LINE
  5
22C
100
AcDbEntity
  8
0
100
AcDbLine
 62
7
  6
CONTINUOUS
 10
-339.0525287117
 20
-383.5870860492
 11
-348.0525287117
 21
-383.5870860492
  0
LINE
  5
22D
100
AcDbEntity
  8
0
100
AcDbLine
 62
7
  6
CONTINUOUS
 10
-348.0525287117
 20
-379.8870860492
 11
-339.0525287117
 21
-379.8870860492
  0
LINE
  5
22E
100
AcDbEntity
  8
0
100
AcDbLine
 62
7
  6
CONTINUOUS
 10
-390.2525287117
 20
-378.0420860492
 11
-399.2525287117
 21
-378.0420860492
  0
LINE
  5
22F
100
AcDbEntity
  8
0
100
AcDbLine
 62
7
  6
CONTINUOUS
 10
-339.0525287117
 20
-370.8870860492
 11
-348.0525287117
 21
-370.8870860492
  0
LINE
  5
230
100
AcDbEntity
  8
0
100
AcDbLine
 62
7
  6
CONTINUOUS
 10
-390.2525287117
 20
-369.0420860492
 11
-399.2525287117
 21
-369.0420860492
  0
LINE
  5
231
100
AcDbEntity
  8
0
100
AcDbLine
 62
7
  6
CONTINUOUS
 10
-348.0525287117
 20
-364.0120860492
 11
-339.0525287117
 21
-364.0120860492
  0
LINE
  5
232
100
AcDbEntity
  8
0
100
AcDbLine
 62
7
  6
CONTINUOUS
 10
-339.0525287117
 20
-355.0120860492
 11
-348.0525287117
 21
-355.0120860492
  0
LINE
  5
233
100
AcDbEntity
  8
0
100
AcDbLine
 62
7
  6
CONTINUOUS
 10
-348.0525287117
 20
-348.1370860492
 11
-339.0525287117
 21
-348.1370860492
  0
LINE
  5
234
100
AcDbEntity
  8
0
100
AcDbLine
 62
7
  6
CONTINUOUS
 10
-339.0525287117
 20
-339.1370860492
 11
-348.0525287117
 21
-339.1370860492
  0
LINE
  5
235
100
AcDbEntity
  8
0
100
AcDbLine
 62
7
  6
CONTINUOUS
 10
-348.0525287117
 20
-335.4370860492
 11
-339.0525287117
 21
-335.4370860492
  0
LINE
  5
236
100
AcDbEntity
  8
0
100
AcDbLine
 62
7
  6
CONTINUOUS
 10
-390.2525287117
 20
-334.9920860492
 11
-399.2525287117
 21
-334.9920860492
  0
LINE
  5
237
100
AcDbEntity
  8
0
100
AcDbLine
 62
7
  6
CONTINUOUS
 10
-339.0525287117
 20
-326.4370860492
 11
-348.0525287117
 21
-326.4370860492
  0
LINE
  5
238
100
AcDbEntity
  8
0
100
AcDbLine
 62
7
  6
CONTINUOUS
 10
-390.2525287117
 20
-325.9920860492
 11
-399.2525287117
 21
-325.9920860492
  0
LINE
  5
239
100
AcDbEntity
  8
0
100
AcDbLine
 62
7
  6
CONTINUOUS
 10
-348.0525287117
 20
-319.5620860492
 11
-339.0525287117
 21
-319.5620860492
  0
LINE
  5
23A
100
AcDbEntity
  8
0
100
AcDbLine
 62
7
  6
CONTINUOUS
 10
-339.0525287117
 20
-310.5620860492
 11
-348.0525287117
 21
-310.5620860492
  0
LINE
  5
23B
100
AcDbEntity
  8
0
100
AcDbLine
 62
7
  6
CONTINUOUS
 10
-348.0525287117
 20
-303.6870860492
 11
-339.0525287117
 21
-303.6870860492
  0
LINE
  5
23C
100
AcDbEntity
  8
0
100
AcDbLine
 62
7
  6
CONTINUOUS
 10
-339.0525287117
 20
-294.6870860492
 11
-348.0525287117
 21
-294.6870860492
  0
LINE
  5
23D
100
AcDbEntity
  8
0
100
AcDbLine
 62
7
  6
CONTINUOUS
 10
-390.2525287117
 20
-291.9420860492
 11
-399.2525287117
 21
-291.9420860492
  0
LINE
  5
23E
100
AcDbEntity
  8
0
100
AcDbLine
 62
7
  6
CONTINUOUS
 10
-348.0525287117
 20
-290.9870860492
 11
-339.0525287117
 21
-290.9870860492
  0
LINE
  5
23F
100
AcDbEntity
  8
0
100
AcDbLine
 62
7
  6
CONTINUOUS
 10
-390.2525287117
 20
-282.9420860492
 11
-399.2525287117
 21
-282.9420860492
  0
LINE
  5
240
100
AcDbEntity
  8
0
100
AcDbLine
 62
7
  6
CONTINUOUS
 10
-339.0525287117
 20
-281.9870860492
 11
-348.0525287117
 21
-281.9870860492
  0
LINE
  5
241
100
AcDbEntity
  8
0
100
AcDbLine
 62
7
  6
CONTINUOUS
 10
-348.0525287117
 20
-275.1120860492
 11
-339.0525287117
 21
-275.1120860492
  0
LINE
  5
242
100
AcDbEntity
  8
0
100
AcDbLine
 62
7
  6
CONTINUOUS
 10
-339.0525287117
 20
-266.1120860492
 11
-348.0525287117
 21
-266.1120860492
  0
LINE
  5
243
100
AcDbEntity
  8
0
100
AcDbLine
 62
7
  6
CONTINUOUS
 10
-348.0525287117
 20
-259.2370860492
 11
-339.0525287117
 21
-259.2370860492
  0
LINE
  5
244
100
AcDbEntity
  8
0
100
AcDbLine
 62
7
  6
CONTINUOUS
 10
-339.0525287117
 20
-250.2370860492
 11
-348.0525287117
 21
-250.2370860492
  0
LINE
  5
245
100
AcDbEntity
  8
0
100
AcDbLine
 62
7
  6
CONTINUOUS
 10
-390.2525287117
 20
-248.8920860492
 11
-399.2525287117
 21
-248.8920860492
  0
LINE
  5
246
100
AcDbEntity
  8
0
100
AcDbLine
 62
7
  6
CONTINUOUS
 10
-348.0525287117
 20
-246.5370860492
 11
-339.0525287117
 21
-246.5370860492
  0
LINE
  5
247
100
AcDbEntity
  8
0
100
AcDbLine
 62
7
  6
CONTINUOUS
 10
-390.2525287117
 20
-239.8920860492
 11
-399.2525287117
 21
-239.8920860492
  0
LINE
  5
248
100
AcDbEntity
  8
0
100
AcDbLine
 62
7
  6
CONTINUOUS
 10
-339.0525287117
 20
-237.5370860492
 11
-348.0525287117
 21
-237.5370860492
  0
LINE
  5
249
100
AcDbEntity
  8
0
100
AcDbLine
 62
7
  6
CONTINUOUS
 10
-348.0525287117
 20
-230.6620860492
 11
-339.0525287117
 21
-230.6620860492
  0
LINE
  5
24A
100
AcDbEntity
  8
0
100
AcDbLine
 62
7
  6
CONTINUOUS
 10
-339.0525287117
 20
-221.6620860492
 11
-348.0525287117
 21
-221.6620860492
  0
LINE
  5
24B
100
AcDbEntity
  8
0
100
AcDbLine
 62
7
  6
CONTINUOUS
 10
-348.0525287117
 20
-214.7870860492
 11
-339.0525287117
 21
-214.7870860492
  0
LINE
  5
24C
100
AcDbEntity
  8
0
100
AcDbLine
 62
7
  6
CONTINUOUS
 10
-390.2525287117
 20
-205.8420860492
 11
-399.2525287117
 21
-205.8420860492
  0
LINE
  5
24D
100
AcDbEntity
  8
0
100
AcDbLine
 62
7
  6
CONTINUOUS
 10
-339.0525287117
 20
-205.7870860492
 11
-348.0525287117
 21
-205.7870860492
  0
LINE
  5
24E
100
AcDbEntity
  8
0
100
AcDbLine
 62
7
  6
CONTINUOUS
 10
-348.0525287117
 20
-202.0870860492
 11
-339.0525287117
 21
-202.0870860492
  0
LINE
  5
24F
100
AcDbEntity
  8
0
100
AcDbLine
 62
7
  6
CONTINUOUS
 10
-390.2525287117
 20
-196.8420860492
 11
-399.2525287117
 21
-196.8420860492
  0
LINE
  5
250
100
AcDbEntity
  8
0
100
AcDbLine
 62
7
  6
CONTINUOUS
 10
-339.0525287117
 20
-193.0870860492
 11
-348.0525287117
 21
-193.0870860492
  0
LINE
  5
251
100
AcDbEntity
  8
0
100
AcDbLine
 62
7
  6
CONTINUOUS
 10
-348.0525287117
 20
-186.2120860492
 11
-339.0525287117
 21
-186.2120860492
  0
LINE
  5
252
100
AcDbEntity
  8
0
100
AcDbLine
 62
7
  6
CONTINUOUS
 10
-339.0525287117
 20
-177.2120860492
 11
-348.0525287117
 21
-177.2120860492
  0
LINE
  5
253
100
AcDbEntity
  8
0
100
AcDbLine
 62
7
  6
CONTINUOUS
 10
-348.0525287117
 20
-170.3370860492
 11
-339.0525287117
 21
-170.3370860492
  0
LINE
  5
254
100
AcDbEntity
  8
0
100
AcDbLine
 62
7
  6
CONTINUOUS
 10
-390.2525287117
 20
-162.7920860492
 11
-399.2525287117
 21
-162.7920860492
  0
LINE
  5
255
100
AcDbEntity
  8
0
100
AcDbLine
 62
7
  6
CONTINUOUS
 10
-339.0525287117
 20
-161.3370860492
 11
-348.0525287117
 21
-161.3370860492
  0
LINE
  5
256
100
AcDbEntity
  8
0
100
AcDbLine
 62
7
  6
CONTINUOUS
 10
-348.0525287117
 20
-157.6370860492
 11
-339.0525287117
 21
-157.6370860492
  0
LINE
  5
257
100
AcDbEntity
  8
0
100
AcDbLine
 62
7
  6
CONTINUOUS
 10
-390.2525287117
 20
-153.7920860492
 11
-399.2525287117
 21
-153.7920860492
  0
LINE
  5
258
100
AcDbEntity
  8
0
100
AcDbLine
 62
7
  6
CONTINUOUS
 10
-339.0525287117
 20
-148.6370860492
 11
-348.0525287117
 21
-148.6370860492
  0
LINE
  5
259
100
AcDbEntity
  8
0
100
AcDbLine
 62
7
  6
CONTINUOUS
 10
-348.0525287117
 20
-141.7620860492
 11
-339.0525287117
 21
-141.7620860492
  0
LINE
  5
25A
100
AcDbEntity
  8
0
100
AcDbLine
 62
7
  6
CONTINUOUS
 10
-339.0525287117
 20
-132.7620860492
 11
-348.0525287117
 21
-132.7620860492
  0
LINE
  5
25B
100
AcDbEntity
  8
0
100
AcDbLine
 62
7
  6
CONTINUOUS
 10
-348.0525287117
 20
-125.8870860492
 11
-339.0525287117
 21
-125.8870860492
  0
LINE
  5
25C
100
AcDbEntity
  8
0
100
AcDbLine
 62
7
  6
CONTINUOUS
 10
-390.2525287117
 20
-119.7420860492
 11
-399.2525287117
 21
-119.7420860492
  0
LINE
  5
25D
100
AcDbEntity
  8
0
100
AcDbLine
 62
7
  6
CONTINUOUS
 10
-339.0525287117
 20
-116.8870860492
 11
-348.0525287117
 21
-116.8870860492
  0
LINE
  5
25E
100
AcDbEntity
  8
0
100
AcDbLine
 62
7
  6
CONTINUOUS
 10
-348.0525287117
 20
-113.1870860492
 11
-339.0525287117
 21
-113.1870860492
  0
LINE
  5
25F
100
AcDbEntity
  8
0
100
AcDbLine
 62
7
  6
CONTINUOUS
 10
-390.2525287117
 20
-110.7420860492
 11
-399.2525287117
 21
-110.7420860492
  0
LINE
  5
260
100
AcDbEntity
  8
0
100
AcDbLine
 62
7
  6
CONTINUOUS
 10
-339.0525287117
 20
-104.1870860492
 11
-348.0525287117
 21
-104.1870860492
  0
LINE
  5
261
100
AcDbEntity
  8
0
100
AcDbLine
 62
7
  6
CONTINUOUS
 10
-348.0525287117
 20
-97.3120860492
 11
-339.0525287117
 21
-97.3120860492
  0
LINE
  5
262
100
AcDbEntity
  8
0
100
AcDbLine
 62
7
  6
CONTINUOUS
 10
-339.0525287117
 20
-88.3120860492
 11
-348.0525287117
 21
-88.3120860492
  0
LINE
  5
263
100
AcDbEntity
  8
0
100
AcDbLine
 62
7
  6
CONTINUOUS
 10
-348.0525287117
 20
-81.4370860492
 11
-339.0525287117
 21
-81.4370860492
  0
LINE
  5
264
100
AcDbEntity
  8
0
100
AcDbLine
 62
7
  6
CONTINUOUS
 10
-390.2525287117
 20
-76.6920860492
 11
-399.2525287117
 21
-76.6920860492
  0
LINE
  5
265
100
AcDbEntity
  8
0
100
AcDbLine
 62
7
  6
CONTINUOUS
 10
-339.0525287117
 20
-72.4370860492
 11
-348.0525287117
 21
-72.4370860492
  0
LINE
  5
266
100
AcDbEntity
  8
0
100
AcDbLine
 62
7
  6
CONTINUOUS
 10
-348.0525287117
 20
-68.7370860492
 11
-339.0525287117
 21
-68.7370860492
  0
LINE
  5
267
100
AcDbEntity
  8
0
100
AcDbLine
 62
7
  6
CONTINUOUS
 10
-390.2525287117
 20
-67.6920860492
 11
-399.2525287117
 21
-67.6920860492
  0
LINE
  5
268
100
AcDbEntity
  8
0
100
AcDbLine
 62
7
  6
CONTINUOUS
 10
-339.0525287117
 20
-59.7370860492
 11
-348.0525287117
 21
-59.7370860492
  0
LINE
  5
269
100
AcDbEntity
  8
0
100
AcDbLine
 62
7
  6
CONTINUOUS
 10
-348.0525287117
 20
-52.8620860492
 11
-339.0525287117
 21
-52.8620860492
  0
LINE
  5
26A
100
AcDbEntity
  8
0
100
AcDbLine
 62
7
  6
CONTINUOUS
 10
-339.0525287117
 20
-43.8620860492
 11
-348.0525287117
 21
-43.8620860492
  0
LINE
  5
26B
100
AcDbEntity
  8
0
100
AcDbLine
 62
7
  6
CONTINUOUS
 10
-348.0525287117
 20
-36.9870860492
 11
-339.0525287117
 21
-36.9870860492
  0
LINE
  5
26C
100
AcDbEntity
  8
0
100
AcDbLine
 62
7
  6
CONTINUOUS
 10
-390.2525287117
 20
-33.6420860492
 11
-399.2525287117
 21
-33.6420860492
  0
LINE
  5
26D
100
AcDbEntity
  8
RACCORDO
100
AcDbLine
 62
7
  6
CONTINUOUS
 10
-445.2525287117
 20
-514.9420860492
 11
-445.2525287117
 21
595.2579139508
  0
LINE
  5
26E
100
AcDbEntity
  8
RACCORDO
100
AcDbLine
 62
7
  6
CONTINUOUS
 10
-443.2525287117
 20
595.2579139508
 11
-443.2525287117
 21
-514.9420860492
  0
LINE
  5
26F
100
AcDbEntity
  8
0
100
AcDbLine
 62
253
  6
CONTINUOUS
 10
-440.2525287117
 20
595.2579139508
 11
-440.2525287117
 21
-514.9420860492
  0
LINE
  5
270
100
AcDbEntity
  8
RACCORDO
100
AcDbLine
 62
7
  6
CONTINUOUS
 10
-440.2525287117
 20
-533.9420860492
 11
-440.2525287117
 21
-514.9420860492
  0
LINE
  5
271
100
AcDbEntity
  8
RACCORDO
100
AcDbLine
 62
7
  6
CONTINUOUS
 10
-440.2525287117
 20
595.2579139508
 11
-440.2525287117
 21
614.2579139508
  0
LINE
  5
272
100
AcDbEntity
  8
ASSI
100
AcDbLine
 62
7
  6
CONTINUOUS
 10
-433.2525287117
 20
607.9579139508
 11
-433.2525287117
 21
604.5579139508
  0
LINE
  5
273
100
AcDbEntity
  8
ASSI
100
AcDbLine
 62
7
  6
CONTINUOUS
 10
-433.2525287117
 20
-524.2420860492
 11
-433.2525287117
 21
-527.6420860492
  0
LINE
  5
274
100
AcDbEntity
  8
ASSI
100
AcDbLine
 62
7
  6
CONTINUOUS
 10
-426.2525287117
 20
-527.6420860492
 11
-426.2525287117
 21
-524.2420860492
  0
LINE
  5
275
100
AcDbEntity
  8
ASSI
100
AcDbLine
 62
7
  6
CONTINUOUS
 10
-426.2525287117
 20
604.5579139508
 11
-426.2525287117
 21
607.9579139508
  0
LINE
  5
276
100
AcDbEntity
  8
0
100
AcDbLine
 62
7
  6
CONTINUOUS
 10
-339.0525287117
 20
-27.9870860492
 11
-348.0525287117
 21
-27.9870860492
  0
LINE
  5
277
100
AcDbEntity
  8
0
100
AcDbLine
 62
7
  6
CONTINUOUS
 10
-390.2525287117
 20
-24.6420860492
 11
-399.2525287117
 21
-24.6420860492
  0
LINE
  5
278
100
AcDbEntity
  8
0
100
AcDbLine
 62
7
  6
CONTINUOUS
 10
-348.0525287117
 20
-24.2870860492
 11
-339.0525287117
 21
-24.2870860492
  0
LINE
  5
279
100
AcDbEntity
  8
0
100
AcDbLine
 62
7
  6
CONTINUOUS
 10
-339.0525287117
 20
-15.2870860492
 11
-348.0525287117
 21
-15.2870860492
  0
LINE
  5
27A
100
AcDbEntity
  8
0
100
AcDbLine
 62
7
  6
CONTINUOUS
 10
-348.0525287117
 20
-8.4120860492
 11
-339.0525287117
 21
-8.4120860492
  0
LINE
  5
27B
100
AcDbEntity
  8
0
100
AcDbLine
 62
7
  6
CONTINUOUS
 10
-339.0525287117
 20
0.5879139508
 11
-348.0525287117
 21
0.5879139508
  0
LINE
  5
27C
100
AcDbEntity
  8
0
100
AcDbLine
 62
7
  6
CONTINUOUS
 10
-399.2525287117
 20
616.2579139508
 11
-399.2525287117
 21
613.5579139508
  0
LINE
  5
27D
100
AcDbEntity
  8
0
100
AcDbLine
 62
7
  6
CONTINUOUS
 10
-399.2525287117
 20
578.0579139508
 11
-399.2525287117
 21
569.0579139508
  0
LINE
  5
27E
100
AcDbEntity
  8
0
100
AcDbLine
 62
7
  6
CONTINUOUS
 10
-399.2525287117
 20
535.0079139508
 11
-399.2525287117
 21
526.0079139508
  0
LINE
  5
27F
100
AcDbEntity
  8
0
100
AcDbLine
 62
7
  6
CONTINUOUS
 10
-399.2525287117
 20
-535.9420860492
 11
-399.2525287117
 21
-533.2420860492
  0
LINE
  5
280
100
AcDbEntity
  8
0
100
AcDbLine
 62
7
  6
CONTINUOUS
 10
-399.2525287117
 20
491.9579139508
 11
-399.2525287117
 21
482.9579139508
  0
LINE
  5
281
100
AcDbEntity
  8
0
100
AcDbLine
 62
7
  6
CONTINUOUS
 10
-399.2525287117
 20
448.9079139508
 11
-399.2525287117
 21
439.9079139508
  0
LINE
  5
282
100
AcDbEntity
  8
0
100
AcDbLine
 62
7
  6
CONTINUOUS
 10
-399.2525287117
 20
405.8579139508
 11
-399.2525287117
 21
396.8579139508
  0
LINE
  5
283
100
AcDbEntity
  8
0
100
AcDbLine
 62
7
  6
CONTINUOUS
 10
-399.2525287117
 20
362.8079139508
 11
-399.2525287117
 21
353.8079139508
  0
LINE
  5
284
100
AcDbEntity
  8
0
100
AcDbLine
 62
7
  6
CONTINUOUS
 10
-399.2525287117
 20
319.7579139508
 11
-399.2525287117
 21
310.7579139508
  0
LINE
  5
285
100
AcDbEntity
  8
0
100
AcDbLine
 62
7
  6
CONTINUOUS
 10
-399.2525287117
 20
276.7079139508
 11
-399.2525287117
 21
267.7079139508
  0
LINE
  5
286
100
AcDbEntity
  8
0
100
AcDbLine
 62
7
  6
CONTINUOUS
 10
-399.2525287117
 20
233.6579139508
 11
-399.2525287117
 21
224.6579139508
  0
LINE
  5
287
100
AcDbEntity
  8
0
100
AcDbLine
 62
7
  6
CONTINUOUS
 10
-399.2525287117
 20
190.6079139508
 11
-399.2525287117
 21
181.6079139508
  0
LINE
  5
288
100
AcDbEntity
  8
0
100
AcDbLine
 62
7
  6
CONTINUOUS
 10
-399.2525287117
 20
147.5579139508
 11
-399.2525287117
 21
138.5579139508
  0
LINE
  5
289
100
AcDbEntity
  8
0
100
AcDbLine
 62
7
  6
CONTINUOUS
 10
-399.2525287117
 20
104.5079139508
 11
-399.2525287117
 21
95.5079139508
  0
LINE
  5
28A
100
AcDbEntity
  8
0
100
AcDbLine
 62
7
  6
CONTINUOUS
 10
-399.2525287117
 20
61.4579139508
 11
-399.2525287117
 21
52.4579139508
  0
LINE
  5
28B
100
AcDbEntity
  8
0
100
AcDbLine
 62
7
  6
CONTINUOUS
 10
-399.2525287117
 20
18.4079139508
 11
-399.2525287117
 21
9.4079139508
  0
LINE
  5
28C
100
AcDbEntity
  8
0
100
AcDbLine
 62
7
  6
CONTINUOUS
 10
-399.2525287117
 20
-24.6420860492
 11
-399.2525287117
 21
-33.6420860492
  0
LINE
  5
28D
100
AcDbEntity
  8
0
100
AcDbLine
 62
7
  6
CONTINUOUS
 10
-399.2525287117
 20
-67.6920860492
 11
-399.2525287117
 21
-76.6920860492
  0
LINE
  5
28E
100
AcDbEntity
  8
0
100
AcDbLine
 62
7
  6
CONTINUOUS
 10
-399.2525287117
 20
-110.7420860492
 11
-399.2525287117
 21
-119.7420860492
  0
LINE
  5
28F
100
AcDbEntity
  8
0
100
AcDbLine
 62
7
  6
CONTINUOUS
 10
-399.2525287117
 20
-153.7920860492
 11
-399.2525287117
 21
-162.7920860492
  0
LINE
  5
290
100
AcDbEntity
  8
0
100
AcDbLine
 62
7
  6
CONTINUOUS
 10
-399.2525287117
 20
-196.8420860492
 11
-399.2525287117
 21
-205.8420860492
  0
LINE
  5
291
100
AcDbEntity
  8
0
100
AcDbLine
 62
7
  6
CONTINUOUS
 10
-399.2525287117
 20
-239.8920860492
 11
-399.2525287117
 21
-248.8920860492
  0
LINE
  5
292
100
AcDbEntity
  8
0
100
AcDbLine
 62
7
  6
CONTINUOUS
 10
-399.2525287117
 20
-282.9420860492
 11
-399.2525287117
 21
-291.9420860492
  0
LINE
  5
293
100
AcDbEntity
  8
0
100
AcDbLine
 62
7
  6
CONTINUOUS
 10
-399.2525287117
 20
-325.9920860492
 11
-399.2525287117
 21
-334.9920860492
  0
LINE
  5
294
100
AcDbEntity
  8
0
100
AcDbLine
 62
7
  6
CONTINUOUS
 10
-399.2525287117
 20
-369.0420860492
 11
-399.2525287117
 21
-378.0420860492
  0
LINE
  5
295
100
AcDbEntity
  8
0
100
AcDbLine
 62
7
  6
CONTINUOUS
 10
-399.2525287117
 20
-412.0920860492
 11
-399.2525287117
 21
-421.0920860492
  0
LINE
  5
296
100
AcDbEntity
  8
0
100
AcDbLine
 62
7
  6
CONTINUOUS
 10
-399.2525287117
 20
-455.1420860492
 11
-399.2525287117
 21
-464.1420860492
  0
LINE
  5
297
100
AcDbEntity
  8
0
100
AcDbLine
 62
7
  6
CONTINUOUS
 10
-390.2525287117
 20
616.2579139508
 11
-390.2525287117
 21
613.5579139508
  0
LINE
  5
298
100
AcDbEntity
  8
0
100
AcDbLine
 62
7
  6
CONTINUOUS
 10
-390.2525287117
 20
-535.9420860492
 11
-390.2525287117
 21
-533.2420860492
  0
LINE
  5
299
100
AcDbEntity
  8
0
100
AcDbLine
 62
7
  6
CONTINUOUS
 10
-390.2525287117
 20
-464.1420860492
 11
-390.2525287117
 21
-455.1420860492
  0
LINE
  5
29A
100
AcDbEntity
  8
0
100
AcDbLine
 62
7
  6
CONTINUOUS
 10
-390.2525287117
 20
-421.0920860492
 11
-390.2525287117
 21
-412.0920860492
  0
LINE
  5
29B
100
AcDbEntity
  8
0
100
AcDbLine
 62
7
  6
CONTINUOUS
 10
-390.2525287117
 20
-378.0420860492
 11
-390.2525287117
 21
-369.0420860492
  0
LINE
  5
29C
100
AcDbEntity
  8
0
100
AcDbLine
 62
7
  6
CONTINUOUS
 10
-390.2525287117
 20
-334.9920860492
 11
-390.2525287117
 21
-325.9920860492
  0
LINE
  5
29D
100
AcDbEntity
  8
0
100
AcDbLine
 62
7
  6
CONTINUOUS
 10
-390.2525287117
 20
-291.9420860492
 11
-390.2525287117
 21
-282.9420860492
  0
LINE
  5
29E
100
AcDbEntity
  8
0
100
AcDbLine
 62
7
  6
CONTINUOUS
 10
-390.2525287117
 20
-248.8920860492
 11
-390.2525287117
 21
-239.8920860492
  0
LINE
  5
29F
100
AcDbEntity
  8
0
100
AcDbLine
 62
7
  6
CONTINUOUS
 10
-390.2525287117
 20
-205.8420860492
 11
-390.2525287117
 21
-196.8420860492
  0
LINE
  5
2A0
100
AcDbEntity
  8
0
100
AcDbLine
 62
7
  6
CONTINUOUS
 10
-390.2525287117
 20
-162.7920860492
 11
-390.2525287117
 21
-153.7920860492
  0
LINE
  5
2A1
100
AcDbEntity
  8
0
100
AcDbLine
 62
7
  6
CONTINUOUS
 10
-390.2525287117
 20
-119.7420860492
 11
-390.2525287117
 21
-110.7420860492
  0
LINE
  5
2A2
100
AcDbEntity
  8
0
100
AcDbLine
 62
7
  6
CONTINUOUS
 10
-390.2525287117
 20
-76.6920860492
 11
-390.2525287117
 21
-67.6920860492
  0
LINE
  5
2A3
100
AcDbEntity
  8
0
100
AcDbLine
 62
7
  6
CONTINUOUS
 10
-390.2525287117
 20
-33.6420860492
 11
-390.2525287117
 21
-24.6420860492
  0
LINE
  5
2A4
100
AcDbEntity
  8
0
100
AcDbLine
 62
7
  6
CONTINUOUS
 10
-390.2525287117
 20
9.4079139508
 11
-390.2525287117
 21
18.4079139508
  0
LINE
  5
2A5
100
AcDbEntity
  8
0
100
AcDbLine
 62
7
  6
CONTINUOUS
 10
-390.2525287117
 20
52.4579139508
 11
-390.2525287117
 21
61.4579139508
  0
LINE
  5
2A6
100
AcDbEntity
  8
0
100
AcDbLine
 62
7
  6
CONTINUOUS
 10
-390.2525287117
 20
95.5079139508
 11
-390.2525287117
 21
104.5079139508
  0
LINE
  5
2A7
100
AcDbEntity
  8
0
100
AcDbLine
 62
7
  6
CONTINUOUS
 10
-390.2525287117
 20
138.5579139508
 11
-390.2525287117
 21
147.5579139508
  0
LINE
  5
2A8
100
AcDbEntity
  8
0
100
AcDbLine
 62
7
  6
CONTINUOUS
 10
-390.2525287117
 20
181.6079139508
 11
-390.2525287117
 21
190.6079139508
  0
LINE
  5
2A9
100
AcDbEntity
  8
0
100
AcDbLine
 62
7
  6
CONTINUOUS
 10
-390.2525287117
 20
224.6579139508
 11
-390.2525287117
 21
233.6579139508
  0
LINE
  5
2AA
100
AcDbEntity
  8
0
100
AcDbLine
 62
7
  6
CONTINUOUS
 10
-390.2525287117
 20
267.7079139508
 11
-390.2525287117
 21
276.7079139508
  0
LINE
  5
2AB
100
AcDbEntity
  8
0
100
AcDbLine
 62
7
  6
CONTINUOUS
 10
-390.2525287117
 20
310.7579139508
 11
-390.2525287117
 21
319.7579139508
  0
LINE
  5
2AC
100
AcDbEntity
  8
0
100
AcDbLine
 62
7
  6
CONTINUOUS
 10
-390.2525287117
 20
353.8079139508
 11
-390.2525287117
 21
362.8079139508
  0
LINE
  5
2AD
100
AcDbEntity
  8
0
100
AcDbLine
 62
7
  6
CONTINUOUS
 10
-390.2525287117
 20
396.8579139508
 11
-390.2525287117
 21
405.8579139508
  0
LINE
  5
2AE
100
AcDbEntity
  8
0
100
AcDbLine
 62
7
  6
CONTINUOUS
 10
-390.2525287117
 20
439.9079139508
 11
-390.2525287117
 21
448.9079139508
  0
LINE
  5
2AF
100
AcDbEntity
  8
0
100
AcDbLine
 62
7
  6
CONTINUOUS
 10
-390.2525287117
 20
482.9579139508
 11
-390.2525287117
 21
491.9579139508
  0
LINE
  5
2B0
100
AcDbEntity
  8
0
100
AcDbLine
 62
7
  6
CONTINUOUS
 10
-390.2525287117
 20
526.0079139508
 11
-390.2525287117
 21
535.0079139508
  0
LINE
  5
2B1
100
AcDbEntity
  8
0
100
AcDbLine
 62
7
  6
CONTINUOUS
 10
-390.2525287117
 20
569.0579139508
 11
-390.2525287117
 21
578.0579139508
  0
LINE
  5
2B2
100
AcDbEntity
  8
0
100
AcDbLine
 62
7
  6
CONTINUOUS
 10
-348.0525287117
 20
7.4629139508
 11
-339.0525287117
 21
7.4629139508
  0
LINE
  5
2B3
100
AcDbEntity
  8
0
100
AcDbLine
 62
7
  6
CONTINUOUS
 10
-390.2525287117
 20
9.4079139508
 11
-399.2525287117
 21
9.4079139508
  0
LINE
  5
2B4
100
AcDbEntity
  8
0
100
AcDbLine
 62
7
  6
CONTINUOUS
 10
-339.0525287117
 20
16.4629139508
 11
-348.0525287117
 21
16.4629139508
  0
LINE
  5
2B5
100
AcDbEntity
  8
0
100
AcDbLine
 62
7
  6
CONTINUOUS
 10
-390.2525287117
 20
18.4079139508
 11
-399.2525287117
 21
18.4079139508
  0
LINE
  5
2B6
100
AcDbEntity
  8
0
100
AcDbLine
 62
7
  6
CONTINUOUS
 10
-348.0525287117
 20
20.1629139508
 11
-339.0525287117
 21
20.1629139508
  0
LINE
  5
2B7
100
AcDbEntity
  8
0
100
AcDbLine
 62
7
  6
CONTINUOUS
 10
-339.0525287117
 20
29.1629139508
 11
-348.0525287117
 21
29.1629139508
  0
LINE
  5
2B8
100
AcDbEntity
  8
0
100
AcDbLine
 62
7
  6
CONTINUOUS
 10
-348.0525287117
 20
36.0379139508
 11
-339.0525287117
 21
36.0379139508
  0
LINE
  5
2B9
100
AcDbEntity
  8
0
100
AcDbLine
 62
7
  6
CONTINUOUS
 10
-339.0525287117
 20
45.0379139508
 11
-348.0525287117
 21
45.0379139508
  0
LINE
  5
2BA
100
AcDbEntity
  8
ASSI
100
AcDbLine
 62
7
  6
CONTINUOUS
 10
-380.2525287117
 20
607.9579139508
 11
-380.2525287117
 21
604.5579139508
  0
LINE
  5
2BB
100
AcDbEntity
  8
ASSI
100
AcDbLine
 62
7
  6
CONTINUOUS
 10
-380.2525287117
 20
-524.2420860492
 11
-380.2525287117
 21
-527.6420860492
  0
LINE
  5
2BC
100
AcDbEntity
  8
ASSI
100
AcDbLine
 62
7
  6
CONTINUOUS
 10
-373.2525287117
 20
-527.6420860492
 11
-373.2525287117
 21
-524.2420860492
  0
LINE
  5
2BD
100
AcDbEntity
  8
ASSI
100
AcDbLine
 62
7
  6
CONTINUOUS
 10
-373.2525287117
 20
604.5579139508
 11
-373.2525287117
 21
607.9579139508
  0
LINE
  5
2BE
100
AcDbEntity
  8
RACCORDO
100
AcDbLine
 62
7
  6
CONTINUOUS
 10
-366.2525287117
 20
614.2579139508
 11
-366.2525287117
 21
587.7579139508
  0
LINE
  5
2BF
100
AcDbEntity
  8
0
100
AcDbLine
 62
253
  6
CONTINUOUS
 10
-366.2525287117
 20
587.7579139508
 11
-366.2525287117
 21
-507.4420860492
  0
LINE
  5
2C0
100
AcDbEntity
  8
RACCORDO
100
AcDbLine
 62
7
  6
CONTINUOUS
 10
-366.2525287117
 20
-533.9420860492
 11
-366.2525287117
 21
-507.4420860492
  0
LINE
  5
2C1
100
AcDbEntity
  8
0
100
AcDbLine
 62
7
  6
CONTINUOUS
 10
-363.2525287117
 20
587.7579139508
 11
-363.2525287117
 21
-507.4420860492
  0
LINE
  5
2C2
100
AcDbEntity
  8
0
100
AcDbLine
 62
253
  6
CONTINUOUS
 10
-362.7525287117
 20
587.7579139508
 11
-362.7525287117
 21
-507.4420860492
  0
LINE
  5
2C3
100
AcDbEntity
  8
RACCORDO
100
AcDbLine
 62
7
  6
CONTINUOUS
 10
-349.7525287117
 20
585.7579139508
 11
-349.7525287117
 21
583.2579139508
  0
LINE
  5
2C4
100
AcDbEntity
  8
RACCORDO
100
AcDbLine
 62
7
  6
CONTINUOUS
 10
-349.7525287117
 20
-505.4420860492
 11
-349.7525287117
 21
-502.9420860492
  0
LINE
  5
2C5
100
AcDbEntity
  8
0
100
AcDbLine
 62
7
  6
CONTINUOUS
 10
-348.0525287117
 20
578.4379139508
 11
-348.0525287117
 21
569.4379139508
  0
LINE
  5
2C6
100
AcDbEntity
  8
0
100
AcDbLine
 62
7
  6
CONTINUOUS
 10
-348.0525287117
 20
562.5629139508
 11
-348.0525287117
 21
553.5629139508
  0
LINE
  5
2C7
100
AcDbEntity
  8
0
100
AcDbLine
 62
7
  6
CONTINUOUS
 10
-348.0525287117
 20
549.8629139508
 11
-348.0525287117
 21
540.8629139508
  0
LINE
  5
2C8
100
AcDbEntity
  8
0
100
AcDbLine
 62
7
  6
CONTINUOUS
 10
-348.0525287117
 20
533.9879139508
 11
-348.0525287117
 21
524.9879139508
  0
LINE
  5
2C9
100
AcDbEntity
  8
0
100
AcDbLine
 62
7
  6
CONTINUOUS
 10
-348.0525287117
 20
518.1129139508
 11
-348.0525287117
 21
509.1129139508
  0
LINE
  5
2CA
100
AcDbEntity
  8
0
100
AcDbLine
 62
7
  6
CONTINUOUS
 10
-348.0525287117
 20
505.4129139508
 11
-348.0525287117
 21
496.4129139508
  0
LINE
  5
2CB
100
AcDbEntity
  8
0
100
AcDbLine
 62
7
  6
CONTINUOUS
 10
-348.0525287117
 20
489.5379139508
 11
-348.0525287117
 21
480.5379139508
  0
LINE
  5
2CC
100
AcDbEntity
  8
0
100
AcDbLine
 62
7
  6
CONTINUOUS
 10
-348.0525287117
 20
473.6629139508
 11
-348.0525287117
 21
464.6629139508
  0
LINE
  5
2CD
100
AcDbEntity
  8
0
100
AcDbLine
 62
7
  6
CONTINUOUS
 10
-348.0525287117
 20
460.9629139508
 11
-348.0525287117
 21
451.9629139508
  0
LINE
  5
2CE
100
AcDbEntity
  8
0
100
AcDbLine
 62
7
  6
CONTINUOUS
 10
-348.0525287117
 20
445.0879139508
 11
-348.0525287117
 21
436.0879139508
  0
LINE
  5
2CF
100
AcDbEntity
  8
0
100
AcDbLine
 62
7
  6
CONTINUOUS
 10
-348.0525287117
 20
429.2129139508
 11
-348.0525287117
 21
420.2129139508
  0
LINE
  5
2D0
100
AcDbEntity
  8
0
100
AcDbLine
 62
7
  6
CONTINUOUS
 10
-348.0525287117
 20
416.5129139508
 11
-348.0525287117
 21
407.5129139508
  0
LINE
  5
2D1
100
AcDbEntity
  8
0
100
AcDbLine
 62
7
  6
CONTINUOUS
 10
-348.0525287117
 20
400.6379139508
 11
-348.0525287117
 21
391.6379139508
  0
LINE
  5
2D2
100
AcDbEntity
  8
0
100
AcDbLine
 62
7
  6
CONTINUOUS
 10
-348.0525287117
 20
384.7629139508
 11
-348.0525287117
 21
375.7629139508
  0
LINE
  5
2D3
100
AcDbEntity
  8
0
100
AcDbLine
 62
7
  6
CONTINUOUS
 10
-348.0525287117
 20
372.0629139508
 11
-348.0525287117
 21
363.0629139508
  0
LINE
  5
2D4
100
AcDbEntity
  8
0
100
AcDbLine
 62
7
  6
CONTINUOUS
 10
-348.0525287117
 20
356.1879139508
 11
-348.0525287117
 21
347.1879139508
  0
LINE
  5
2D5
100
AcDbEntity
  8
0
100
AcDbLine
 62
7
  6
CONTINUOUS
 10
-348.0525287117
 20
340.3129139508
 11
-348.0525287117
 21
331.3129139508
  0
LINE
  5
2D6
100
AcDbEntity
  8
0
100
AcDbLine
 62
7
  6
CONTINUOUS
 10
-348.0525287117
 20
327.6129139508
 11
-348.0525287117
 21
318.6129139508
  0
LINE
  5
2D7
100
AcDbEntity
  8
0
100
AcDbLine
 62
7
  6
CONTINUOUS
 10
-348.0525287117
 20
311.7379139508
 11
-348.0525287117
 21
302.7379139508
  0
LINE
  5
2D8
100
AcDbEntity
  8
0
100
AcDbLine
 62
7
  6
CONTINUOUS
 10
-348.0525287117
 20
295.8629139508
 11
-348.0525287117
 21
286.8629139508
  0
LINE
  5
2D9
100
AcDbEntity
  8
0
100
AcDbLine
 62
7
  6
CONTINUOUS
 10
-348.0525287117
 20
283.1629139508
 11
-348.0525287117
 21
274.1629139508
  0
LINE
  5
2DA
100
AcDbEntity
  8
0
100
AcDbLine
 62
7
  6
CONTINUOUS
 10
-348.0525287117
 20
267.2879139508
 11
-348.0525287117
 21
258.2879139508
  0
LINE
  5
2DB
100
AcDbEntity
  8
0
100
AcDbLine
 62
7
  6
CONTINUOUS
 10
-348.0525287117
 20
251.4129139508
 11
-348.0525287117
 21
242.4129139508
  0
LINE
  5
2DC
100
AcDbEntity
  8
0
100
AcDbLine
 62
7
  6
CONTINUOUS
 10
-348.0525287117
 20
238.7129139508
 11
-348.0525287117
 21
229.7129139508
  0
LINE
  5
2DD
100
AcDbEntity
  8
0
100
AcDbLine
 62
7
  6
CONTINUOUS
 10
-348.0525287117
 20
222.8379139508
 11
-348.0525287117
 21
213.8379139508
  0
LINE
  5
2DE
100
AcDbEntity
  8
0
100
AcDbLine
 62
7
  6
CONTINUOUS
 10
-348.0525287117
 20
206.9629139508
 11
-348.0525287117
 21
197.9629139508
  0
LINE
  5
2DF
100
AcDbEntity
  8
0
100
AcDbLine
 62
7
  6
CONTINUOUS
 10
-348.0525287117
 20
194.2629139508
 11
-348.0525287117
 21
185.2629139508
  0
LINE
  5
2E0
100
AcDbEntity
  8
0
100
AcDbLine
 62
7
  6
CONTINUOUS
 10
-348.0525287117
 20
178.3879139508
 11
-348.0525287117
 21
169.3879139508
  0
LINE
  5
2E1
100
AcDbEntity
  8
0
100
AcDbLine
 62
7
  6
CONTINUOUS
 10
-348.0525287117
 20
162.5129139508
 11
-348.0525287117
 21
153.5129139508
  0
LINE
  5
2E2
100
AcDbEntity
  8
0
100
AcDbLine
 62
7
  6
CONTINUOUS
 10
-348.0525287117
 20
149.8129139508
 11
-348.0525287117
 21
140.8129139508
  0
LINE
  5
2E3
100
AcDbEntity
  8
0
100
AcDbLine
 62
7
  6
CONTINUOUS
 10
-348.0525287117
 20
133.9379139508
 11
-348.0525287117
 21
124.9379139508
  0
LINE
  5
2E4
100
AcDbEntity
  8
0
100
AcDbLine
 62
7
  6
CONTINUOUS
 10
-348.0525287117
 20
118.0629139508
 11
-348.0525287117
 21
109.0629139508
  0
LINE
  5
2E5
100
AcDbEntity
  8
0
100
AcDbLine
 62
7
  6
CONTINUOUS
 10
-348.0525287117
 20
105.3629139508
 11
-348.0525287117
 21
96.3629139508
  0
LINE
  5
2E6
100
AcDbEntity
  8
0
100
AcDbLine
 62
7
  6
CONTINUOUS
 10
-348.0525287117
 20
89.4879139508
 11
-348.0525287117
 21
80.4879139508
  0
LINE
  5
2E7
100
AcDbEntity
  8
0
100
AcDbLine
 62
7
  6
CONTINUOUS
 10
-348.0525287117
 20
73.6129139508
 11
-348.0525287117
 21
64.6129139508
  0
LINE
  5
2E8
100
AcDbEntity
  8
0
100
AcDbLine
 62
7
  6
CONTINUOUS
 10
-348.0525287117
 20
60.9129139508
 11
-348.0525287117
 21
51.9129139508
  0
LINE
  5
2E9
100
AcDbEntity
  8
0
100
AcDbLine
 62
7
  6
CONTINUOUS
 10
-348.0525287117
 20
45.0379139508
 11
-348.0525287117
 21
36.0379139508
  0
LINE
  5
2EA
100
AcDbEntity
  8
0
100
AcDbLine
 62
7
  6
CONTINUOUS
 10
-348.0525287117
 20
29.1629139508
 11
-348.0525287117
 21
20.1629139508
  0
LINE
  5
2EB
100
AcDbEntity
  8
0
100
AcDbLine
 62
7
  6
CONTINUOUS
 10
-348.0525287117
 20
16.4629139508
 11
-348.0525287117
 21
7.4629139508
  0
LINE
  5
2EC
100
AcDbEntity
  8
0
100
AcDbLine
 62
7
  6
CONTINUOUS
 10
-348.0525287117
 20
0.5879139508
 11
-348.0525287117
 21
-8.4120860492
  0
LINE
  5
2ED
100
AcDbEntity
  8
0
100
AcDbLine
 62
7
  6
CONTINUOUS
 10
-348.0525287117
 20
-15.2870860492
 11
-348.0525287117
 21
-24.2870860492
  0
LINE
  5
2EE
100
AcDbEntity
  8
0
100
AcDbLine
 62
7
  6
CONTINUOUS
 10
-348.0525287117
 20
-27.9870860492
 11
-348.0525287117
 21
-36.9870860492
  0
LINE
  5
2EF
100
AcDbEntity
  8
0
100
AcDbLine
 62
7
  6
CONTINUOUS
 10
-348.0525287117
 20
-43.8620860492
 11
-348.0525287117
 21
-52.8620860492
  0
LINE
  5
2F0
100
AcDbEntity
  8
0
100
AcDbLine
 62
7
  6
CONTINUOUS
 10
-348.0525287117
 20
-59.7370860492
 11
-348.0525287117
 21
-68.7370860492
  0
LINE
  5
2F1
100
AcDbEntity
  8
0
100
AcDbLine
 62
7
  6
CONTINUOUS
 10
-348.0525287117
 20
-72.4370860492
 11
-348.0525287117
 21
-81.4370860492
  0
LINE
  5
2F2
100
AcDbEntity
  8
0
100
AcDbLine
 62
7
  6
CONTINUOUS
 10
-348.0525287117
 20
-88.3120860492
 11
-348.0525287117
 21
-97.3120860492
  0
LINE
  5
2F3
100
AcDbEntity
  8
0
100
AcDbLine
 62
7
  6
CONTINUOUS
 10
-348.0525287117
 20
-104.1870860492
 11
-348.0525287117
 21
-113.1870860492
  0
LINE
  5
2F4
100
AcDbEntity
  8
0
100
AcDbLine
 62
7
  6
CONTINUOUS
 10
-348.0525287117
 20
-116.8870860492
 11
-348.0525287117
 21
-125.8870860492
  0
LINE
  5
2F5
100
AcDbEntity
  8
0
100
AcDbLine
 62
7
  6
CONTINUOUS
 10
-348.0525287117
 20
-132.7620860492
 11
-348.0525287117
 21
-141.7620860492
  0
LINE
  5
2F6
100
AcDbEntity
  8
0
100
AcDbLine
 62
7
  6
CONTINUOUS
 10
-348.0525287117
 20
-148.6370860492
 11
-348.0525287117
 21
-157.6370860492
  0
LINE
  5
2F7
100
AcDbEntity
  8
0
100
AcDbLine
 62
7
  6
CONTINUOUS
 10
-348.0525287117
 20
-161.3370860492
 11
-348.0525287117
 21
-170.3370860492
  0
LINE
  5
2F8
100
AcDbEntity
  8
0
100
AcDbLine
 62
7
  6
CONTINUOUS
 10
-348.0525287117
 20
-177.2120860492
 11
-348.0525287117
 21
-186.2120860492
  0
LINE
  5
2F9
100
AcDbEntity
  8
0
100
AcDbLine
 62
7
  6
CONTINUOUS
 10
-348.0525287117
 20
-193.0870860492
 11
-348.0525287117
 21
-202.0870860492
  0
LINE
  5
2FA
100
AcDbEntity
  8
0
100
AcDbLine
 62
7
  6
CONTINUOUS
 10
-348.0525287117
 20
-205.7870860492
 11
-348.0525287117
 21
-214.7870860492
  0
LINE
  5
2FB
100
AcDbEntity
  8
0
100
AcDbLine
 62
7
  6
CONTINUOUS
 10
-348.0525287117
 20
-221.6620860492
 11
-348.0525287117
 21
-230.6620860492
  0
LINE
  5
2FC
100
AcDbEntity
  8
0
100
AcDbLine
 62
7
  6
CONTINUOUS
 10
-348.0525287117
 20
-237.5370860492
 11
-348.0525287117
 21
-246.5370860492
  0
LINE
  5
2FD
100
AcDbEntity
  8
0
100
AcDbLine
 62
7
  6
CONTINUOUS
 10
-348.0525287117
 20
-250.2370860492
 11
-348.0525287117
 21
-259.2370860492
  0
LINE
  5
2FE
100
AcDbEntity
  8
0
100
AcDbLine
 62
7
  6
CONTINUOUS
 10
-348.0525287117
 20
-266.1120860492
 11
-348.0525287117
 21
-275.1120860492
  0
LINE
  5
2FF
100
AcDbEntity
  8
0
100
AcDbLine
 62
7
  6
CONTINUOUS
 10
-348.0525287117
 20
-281.9870860492
 11
-348.0525287117
 21
-290.9870860492
  0
LINE
  5
300
100
AcDbEntity
  8
0
100
AcDbLine
 62
7
  6
CONTINUOUS
 10
-348.0525287117
 20
-294.6870860492
 11
-348.0525287117
 21
-303.6870860492
  0
LINE
  5
301
100
AcDbEntity
  8
0
100
AcDbLine
 62
7
  6
CONTINUOUS
 10
-348.0525287117
 20
-310.5620860492
 11
-348.0525287117
 21
-319.5620860492
  0
LINE
  5
302
100
AcDbEntity
  8
0
100
AcDbLine
 62
7
  6
CONTINUOUS
 10
-348.0525287117
 20
-326.4370860492
 11
-348.0525287117
 21
-335.4370860492
  0
LINE
  5
303
100
AcDbEntity
  8
0
100
AcDbLine
 62
7
  6
CONTINUOUS
 10
-348.0525287117
 20
-339.1370860492
 11
-348.0525287117
 21
-348.1370860492
  0
LINE
  5
304
100
AcDbEntity
  8
0
100
AcDbLine
 62
7
  6
CONTINUOUS
 10
-348.0525287117
 20
-355.0120860492
 11
-348.0525287117
 21
-364.0120860492
  0
LINE
  5
305
100
AcDbEntity
  8
0
100
AcDbLine
 62
7
  6
CONTINUOUS
 10
-348.0525287117
 20
-370.8870860492
 11
-348.0525287117
 21
-379.8870860492
  0
LINE
  5
306
100
AcDbEntity
  8
0
100
AcDbLine
 62
7
  6
CONTINUOUS
 10
-348.0525287117
 20
-383.5870860492
 11
-348.0525287117
 21
-392.5870860492
  0
LINE
  5
307
100
AcDbEntity
  8
0
100
AcDbLine
 62
7
  6
CONTINUOUS
 10
-348.0525287117
 20
-399.4620860492
 11
-348.0525287117
 21
-408.4620860492
  0
LINE
  5
308
100
AcDbEntity
  8
0
100
AcDbLine
 62
7
  6
CONTINUOUS
 10
-348.0525287117
 20
-415.3370860492
 11
-348.0525287117
 21
-424.3370860492
  0
LINE
  5
309
100
AcDbEntity
  8
0
100
AcDbLine
 62
7
  6
CONTINUOUS
 10
-348.0525287117
 20
-428.0370860492
 11
-348.0525287117
 21
-437.0370860492
  0
LINE
  5
30A
100
AcDbEntity
  8
0
100
AcDbLine
 62
7
  6
CONTINUOUS
 10
-348.0525287117
 20
-443.9120860492
 11
-348.0525287117
 21
-452.9120860492
  0
LINE
  5
30B
100
AcDbEntity
  8
0
100
AcDbLine
 62
7
  6
CONTINUOUS
 10
-348.0525287117
 20
-459.7870860492
 11
-348.0525287117
 21
-468.7870860492
  0
LINE
  5
30C
100
AcDbEntity
  8
0
100
AcDbLine
 62
7
  6
CONTINUOUS
 10
-348.0525287117
 20
-472.4870860492
 11
-348.0525287117
 21
-481.4870860492
  0
LINE
  5
30D
100
AcDbEntity
  8
0
100
AcDbLine
 62
7
  6
CONTINUOUS
 10
-348.0525287117
 20
-488.3620860492
 11
-348.0525287117
 21
-497.3620860492
  0
LINE
  5
30E
100
AcDbEntity
  8
0
100
AcDbLine
 62
7
  6
CONTINUOUS
 10
-348.0525287117
 20
51.9129139508
 11
-339.0525287117
 21
51.9129139508
  0
LINE
  5
30F
100
AcDbEntity
  8
0
100
AcDbLine
 62
7
  6
CONTINUOUS
 10
-390.2525287117
 20
52.4579139508
 11
-399.2525287117
 21
52.4579139508
  0
LINE
  5
310
100
AcDbEntity
  8
0
100
AcDbLine
 62
7
  6
CONTINUOUS
 10
-339.0525287117
 20
60.9129139508
 11
-348.0525287117
 21
60.9129139508
  0
LINE
  5
311
100
AcDbEntity
  8
0
100
AcDbLine
 62
7
  6
CONTINUOUS
 10
-390.2525287117
 20
61.4579139508
 11
-399.2525287117
 21
61.4579139508
  0
LINE
  5
312
100
AcDbEntity
  8
0
100
AcDbLine
 62
7
  6
CONTINUOUS
 10
-348.0525287117
 20
64.6129139508
 11
-339.0525287117
 21
64.6129139508
  0
LINE
  5
313
100
AcDbEntity
  8
0
100
AcDbLine
 62
7
  6
CONTINUOUS
 10
-339.0525287117
 20
73.6129139508
 11
-348.0525287117
 21
73.6129139508
  0
LINE
  5
314
100
AcDbEntity
  8
0
100
AcDbLine
 62
7
  6
CONTINUOUS
 10
-348.0525287117
 20
80.4879139508
 11
-339.0525287117
 21
80.4879139508
  0
LINE
  5
315
100
AcDbEntity
  8
0
100
AcDbLine
 62
7
  6
CONTINUOUS
 10
-339.0525287117
 20
-497.3620860492
 11
-339.0525287117
 21
-488.3620860492
  0
LINE
  5
316
100
AcDbEntity
  8
0
100
AcDbLine
 62
7
  6
CONTINUOUS
 10
-339.0525287117
 20
-481.4870860492
 11
-339.0525287117
 21
-472.4870860492
  0
LINE
  5
317
100
AcDbEntity
  8
0
100
AcDbLine
 62
7
  6
CONTINUOUS
 10
-339.0525287117
 20
-468.7870860492
 11
-339.0525287117
 21
-459.7870860492
  0
LINE
  5
318
100
AcDbEntity
  8
0
100
AcDbLine
 62
7
  6
CONTINUOUS
 10
-339.0525287117
 20
-452.9120860492
 11
-339.0525287117
 21
-443.9120860492
  0
LINE
  5
319
100
AcDbEntity
  8
0
100
AcDbLine
 62
7
  6
CONTINUOUS
 10
-339.0525287117
 20
-437.0370860492
 11
-339.0525287117
 21
-428.0370860492
  0
LINE
  5
31A
100
AcDbEntity
  8
0
100
AcDbLine
 62
7
  6
CONTINUOUS
 10
-339.0525287117
 20
-424.3370860492
 11
-339.0525287117
 21
-415.3370860492
  0
LINE
  5
31B
100
AcDbEntity
  8
0
100
AcDbLine
 62
7
  6
CONTINUOUS
 10
-339.0525287117
 20
-408.4620860492
 11
-339.0525287117
 21
-399.4620860492
  0
LINE
  5
31C
100
AcDbEntity
  8
0
100
AcDbLine
 62
7
  6
CONTINUOUS
 10
-339.0525287117
 20
-392.5870860492
 11
-339.0525287117
 21
-383.5870860492
  0
LINE
  5
31D
100
AcDbEntity
  8
0
100
AcDbLine
 62
7
  6
CONTINUOUS
 10
-339.0525287117
 20
-379.8870860492
 11
-339.0525287117
 21
-370.8870860492
  0
LINE
  5
31E
100
AcDbEntity
  8
0
100
AcDbLine
 62
7
  6
CONTINUOUS
 10
-339.0525287117
 20
-364.0120860492
 11
-339.0525287117
 21
-355.0120860492
  0
LINE
  5
31F
100
AcDbEntity
  8
0
100
AcDbLine
 62
7
  6
CONTINUOUS
 10
-339.0525287117
 20
-348.1370860492
 11
-339.0525287117
 21
-339.1370860492
  0
LINE
  5
320
100
AcDbEntity
  8
0
100
AcDbLine
 62
7
  6
CONTINUOUS
 10
-339.0525287117
 20
-335.4370860492
 11
-339.0525287117
 21
-326.4370860492
  0
LINE
  5
321
100
AcDbEntity
  8
0
100
AcDbLine
 62
7
  6
CONTINUOUS
 10
-339.0525287117
 20
-319.5620860492
 11
-339.0525287117
 21
-310.5620860492
  0
LINE
  5
322
100
AcDbEntity
  8
0
100
AcDbLine
 62
7
  6
CONTINUOUS
 10
-339.0525287117
 20
-303.6870860492
 11
-339.0525287117
 21
-294.6870860492
  0
LINE
  5
323
100
AcDbEntity
  8
0
100
AcDbLine
 62
7
  6
CONTINUOUS
 10
-339.0525287117
 20
-290.9870860492
 11
-339.0525287117
 21
-281.9870860492
  0
LINE
  5
324
100
AcDbEntity
  8
0
100
AcDbLine
 62
7
  6
CONTINUOUS
 10
-339.0525287117
 20
-275.1120860492
 11
-339.0525287117
 21
-266.1120860492
  0
LINE
  5
325
100
AcDbEntity
  8
0
100
AcDbLine
 62
7
  6
CONTINUOUS
 10
-339.0525287117
 20
-259.2370860492
 11
-339.0525287117
 21
-250.2370860492
  0
LINE
  5
326
100
AcDbEntity
  8
0
100
AcDbLine
 62
7
  6
CONTINUOUS
 10
-339.0525287117
 20
-246.5370860492
 11
-339.0525287117
 21
-237.5370860492
  0
LINE
  5
327
100
AcDbEntity
  8
0
100
AcDbLine
 62
7
  6
CONTINUOUS
 10
-339.0525287117
 20
-230.6620860492
 11
-339.0525287117
 21
-221.6620860492
  0
LINE
  5
328
100
AcDbEntity
  8
0
100
AcDbLine
 62
7
  6
CONTINUOUS
 10
-339.0525287117
 20
-214.7870860492
 11
-339.0525287117
 21
-205.7870860492
  0
LINE
  5
329
100
AcDbEntity
  8
0
100
AcDbLine
 62
7
  6
CONTINUOUS
 10
-339.0525287117
 20
-202.0870860492
 11
-339.0525287117
 21
-193.0870860492
  0
LINE
  5
32A
100
AcDbEntity
  8
0
100
AcDbLine
 62
7
  6
CONTINUOUS
 10
-339.0525287117
 20
-186.2120860492
 11
-339.0525287117
 21
-177.2120860492
  0
LINE
  5
32B
100
AcDbEntity
  8
0
100
AcDbLine
 62
7
  6
CONTINUOUS
 10
-339.0525287117
 20
-170.3370860492
 11
-339.0525287117
 21
-161.3370860492
  0
LINE
  5
32C
100
AcDbEntity
  8
0
100
AcDbLine
 62
7
  6
CONTINUOUS
 10
-339.0525287117
 20
-157.6370860492
 11
-339.0525287117
 21
-148.6370860492
  0
LINE
  5
32D
100
AcDbEntity
  8
0
100
AcDbLine
 62
7
  6
CONTINUOUS
 10
-339.0525287117
 20
-141.7620860492
 11
-339.0525287117
 21
-132.7620860492
  0
LINE
  5
32E
100
AcDbEntity
  8
0
100
AcDbLine
 62
7
  6
CONTINUOUS
 10
-339.0525287117
 20
-125.8870860492
 11
-339.0525287117
 21
-116.8870860492
  0
LINE
  5
32F
100
AcDbEntity
  8
0
100
AcDbLine
 62
7
  6
CONTINUOUS
 10
-339.0525287117
 20
-113.1870860492
 11
-339.0525287117
 21
-104.1870860492
  0
LINE
  5
330
100
AcDbEntity
  8
0
100
AcDbLine
 62
7
  6
CONTINUOUS
 10
-339.0525287117
 20
-97.3120860492
 11
-339.0525287117
 21
-88.3120860492
  0
LINE
  5
331
100
AcDbEntity
  8
0
100
AcDbLine
 62
7
  6
CONTINUOUS
 10
-339.0525287117
 20
-81.4370860492
 11
-339.0525287117
 21
-72.4370860492
  0
LINE
  5
332
100
AcDbEntity
  8
0
100
AcDbLine
 62
7
  6
CONTINUOUS
 10
-339.0525287117
 20
-68.7370860492
 11
-339.0525287117
 21
-59.7370860492
  0
LINE
  5
333
100
AcDbEntity
  8
0
100
AcDbLine
 62
7
  6
CONTINUOUS
 10
-339.0525287117
 20
-52.8620860492
 11
-339.0525287117
 21
-43.8620860492
  0
LINE
  5
334
100
AcDbEntity
  8
0
100
AcDbLine
 62
7
  6
CONTINUOUS
 10
-339.0525287117
 20
-36.9870860492
 11
-339.0525287117
 21
-27.9870860492
  0
LINE
  5
335
100
AcDbEntity
  8
0
100
AcDbLine
 62
7
  6
CONTINUOUS
 10
-339.0525287117
 20
-24.2870860492
 11
-339.0525287117
 21
-15.2870860492
  0
LINE
  5
336
100
AcDbEntity
  8
0
100
AcDbLine
 62
7
  6
CONTINUOUS
 10
-339.0525287117
 20
-8.4120860492
 11
-339.0525287117
 21
0.5879139508
  0
LINE
  5
337
100
AcDbEntity
  8
0
100
AcDbLine
 62
7
  6
CONTINUOUS
 10
-339.0525287117
 20
7.4629139508
 11
-339.0525287117
 21
16.4629139508
  0
LINE
  5
338
100
AcDbEntity
  8
0
100
AcDbLine
 62
7
  6
CONTINUOUS
 10
-339.0525287117
 20
20.1629139508
 11
-339.0525287117
 21
29.1629139508
  0
LINE
  5
339
100
AcDbEntity
  8
0
100
AcDbLine
 62
7
  6
CONTINUOUS
 10
-339.0525287117
 20
36.0379139508
 11
-339.0525287117
 21
45.0379139508
  0
LINE
  5
33A
100
AcDbEntity
  8
0
100
AcDbLine
 62
7
  6
CONTINUOUS
 10
-339.0525287117
 20
51.9129139508
 11
-339.0525287117
 21
60.9129139508
  0
LINE
  5
33B
100
AcDbEntity
  8
0
100
AcDbLine
 62
7
  6
CONTINUOUS
 10
-339.0525287117
 20
64.6129139508
 11
-339.0525287117
 21
73.6129139508
  0
LINE
  5
33C
100
AcDbEntity
  8
0
100
AcDbLine
 62
7
  6
CONTINUOUS
 10
-339.0525287117
 20
80.4879139508
 11
-339.0525287117
 21
89.4879139508
  0
LINE
  5
33D
100
AcDbEntity
  8
0
100
AcDbLine
 62
7
  6
CONTINUOUS
 10
-339.0525287117
 20
96.3629139508
 11
-339.0525287117
 21
105.3629139508
  0
LINE
  5
33E
100
AcDbEntity
  8
0
100
AcDbLine
 62
7
  6
CONTINUOUS
 10
-339.0525287117
 20
109.0629139508
 11
-339.0525287117
 21
118.0629139508
  0
LINE
  5
33F
100
AcDbEntity
  8
0
100
AcDbLine
 62
7
  6
CONTINUOUS
 10
-339.0525287117
 20
124.9379139508
 11
-339.0525287117
 21
133.9379139508
  0
LINE
  5
340
100
AcDbEntity
  8
0
100
AcDbLine
 62
7
  6
CONTINUOUS
 10
-339.0525287117
 20
140.8129139508
 11
-339.0525287117
 21
149.8129139508
  0
LINE
  5
341
100
AcDbEntity
  8
0
100
AcDbLine
 62
7
  6
CONTINUOUS
 10
-339.0525287117
 20
153.5129139508
 11
-339.0525287117
 21
162.5129139508
  0
LINE
  5
342
100
AcDbEntity
  8
0
100
AcDbLine
 62
7
  6
CONTINUOUS
 10
-339.0525287117
 20
169.3879139508
 11
-339.0525287117
 21
178.3879139508
  0
LINE
  5
343
100
AcDbEntity
  8
0
100
AcDbLine
 62
7
  6
CONTINUOUS
 10
-339.0525287117
 20
185.2629139508
 11
-339.0525287117
 21
194.2629139508
  0
LINE
  5
344
100
AcDbEntity
  8
0
100
AcDbLine
 62
7
  6
CONTINUOUS
 10
-339.0525287117
 20
197.9629139508
 11
-339.0525287117
 21
206.9629139508
  0
LINE
  5
345
100
AcDbEntity
  8
0
100
AcDbLine
 62
7
  6
CONTINUOUS
 10
-339.0525287117
 20
213.8379139508
 11
-339.0525287117
 21
222.8379139508
  0
LINE
  5
346
100
AcDbEntity
  8
0
100
AcDbLine
 62
7
  6
CONTINUOUS
 10
-339.0525287117
 20
229.7129139508
 11
-339.0525287117
 21
238.7129139508
  0
LINE
  5
347
100
AcDbEntity
  8
0
100
AcDbLine
 62
7
  6
CONTINUOUS
 10
-339.0525287117
 20
242.4129139508
 11
-339.0525287117
 21
251.4129139508
  0
LINE
  5
348
100
AcDbEntity
  8
0
100
AcDbLine
 62
7
  6
CONTINUOUS
 10
-339.0525287117
 20
258.2879139508
 11
-339.0525287117
 21
267.2879139508
  0
LINE
  5
349
100
AcDbEntity
  8
0
100
AcDbLine
 62
7
  6
CONTINUOUS
 10
-339.0525287117
 20
274.1629139508
 11
-339.0525287117
 21
283.1629139508
  0
LINE
  5
34A
100
AcDbEntity
  8
0
100
AcDbLine
 62
7
  6
CONTINUOUS
 10
-339.0525287117
 20
286.8629139508
 11
-339.0525287117
 21
295.8629139508
  0
LINE
  5
34B
100
AcDbEntity
  8
0
100
AcDbLine
 62
7
  6
CONTINUOUS
 10
-339.0525287117
 20
302.7379139508
 11
-339.0525287117
 21
311.7379139508
  0
LINE
  5
34C
100
AcDbEntity
  8
0
100
AcDbLine
 62
7
  6
CONTINUOUS
 10
-339.0525287117
 20
318.6129139508
 11
-339.0525287117
 21
327.6129139508
  0
LINE
  5
34D
100
AcDbEntity
  8
0
100
AcDbLine
 62
7
  6
CONTINUOUS
 10
-339.0525287117
 20
331.3129139508
 11
-339.0525287117
 21
340.3129139508
  0
LINE
  5
34E
100
AcDbEntity
  8
0
100
AcDbLine
 62
7
  6
CONTINUOUS
 10
-339.0525287117
 20
347.1879139508
 11
-339.0525287117
 21
356.1879139508
  0
LINE
  5
34F
100
AcDbEntity
  8
0
100
AcDbLine
 62
7
  6
CONTINUOUS
 10
-339.0525287117
 20
363.0629139508
 11
-339.0525287117
 21
372.0629139508
  0
LINE
  5
350
100
AcDbEntity
  8
0
100
AcDbLine
 62
7
  6
CONTINUOUS
 10
-339.0525287117
 20
375.7629139508
 11
-339.0525287117
 21
384.7629139508
  0
LINE
  5
351
100
AcDbEntity
  8
0
100
AcDbLine
 62
7
  6
CONTINUOUS
 10
-339.0525287117
 20
391.6379139508
 11
-339.0525287117
 21
400.6379139508
  0
LINE
  5
352
100
AcDbEntity
  8
0
100
AcDbLine
 62
7
  6
CONTINUOUS
 10
-339.0525287117
 20
407.5129139508
 11
-339.0525287117
 21
416.5129139508
  0
LINE
  5
353
100
AcDbEntity
  8
0
100
AcDbLine
 62
7
  6
CONTINUOUS
 10
-339.0525287117
 20
420.2129139508
 11
-339.0525287117
 21
429.2129139508
  0
LINE
  5
354
100
AcDbEntity
  8
0
100
AcDbLine
 62
7
  6
CONTINUOUS
 10
-339.0525287117
 20
436.0879139508
 11
-339.0525287117
 21
445.0879139508
  0
LINE
  5
355
100
AcDbEntity
  8
0
100
AcDbLine
 62
7
  6
CONTINUOUS
 10
-339.0525287117
 20
451.9629139508
 11
-339.0525287117
 21
460.9629139508
  0
LINE
  5
356
100
AcDbEntity
  8
0
100
AcDbLine
 62
7
  6
CONTINUOUS
 10
-339.0525287117
 20
464.6629139508
 11
-339.0525287117
 21
473.6629139508
  0
LINE
  5
357
100
AcDbEntity
  8
0
100
AcDbLine
 62
7
  6
CONTINUOUS
 10
-339.0525287117
 20
480.5379139508
 11
-339.0525287117
 21
489.5379139508
  0
LINE
  5
358
100
AcDbEntity
  8
0
100
AcDbLine
 62
7
  6
CONTINUOUS
 10
-339.0525287117
 20
496.4129139508
 11
-339.0525287117
 21
505.4129139508
  0
LINE
  5
359
100
AcDbEntity
  8
0
100
AcDbLine
 62
7
  6
CONTINUOUS
 10
-339.0525287117
 20
509.1129139508
 11
-339.0525287117
 21
518.1129139508
  0
LINE
  5
35A
100
AcDbEntity
  8
0
100
AcDbLine
 62
7
  6
CONTINUOUS
 10
-339.0525287117
 20
524.9879139508
 11
-339.0525287117
 21
533.9879139508
  0
LINE
  5
35B
100
AcDbEntity
  8
0
100
AcDbLine
 62
7
  6
CONTINUOUS
 10
-339.0525287117
 20
540.8629139508
 11
-339.0525287117
 21
549.8629139508
  0
LINE
  5
35C
100
AcDbEntity
  8
0
100
AcDbLine
 62
7
  6
CONTINUOUS
 10
-339.0525287117
 20
553.5629139508
 11
-339.0525287117
 21
562.5629139508
  0
LINE
  5
35D
100
AcDbEntity
  8
0
100
AcDbLine
 62
7
  6
CONTINUOUS
 10
-339.0525287117
 20
569.4379139508
 11
-339.0525287117
 21
578.4379139508
  0
LINE
  5
35E
100
AcDbEntity
  8
RACCORDO
100
AcDbLine
 62
7
  6
CONTINUOUS
 10
-336.2525287117
 20
581.2579139508
 11
-336.2525287117
 21
-500.9420860492
  0
LINE
  5
35F
100
AcDbEntity
  8
0
100
AcDbLine
 62
7
  6
CONTINUOUS
 10
-339.0525287117
 20
89.4879139508
 11
-348.0525287117
 21
89.4879139508
  0
LINE
  5
360
100
AcDbEntity
  8
0
100
AcDbLine
 62
7
  6
CONTINUOUS
 10
-390.2525287117
 20
95.5079139508
 11
-399.2525287117
 21
95.5079139508
  0
LINE
  5
361
100
AcDbEntity
  8
0
100
AcDbLine
 62
7
  6
CONTINUOUS
 10
-348.0525287117
 20
96.3629139508
 11
-339.0525287117
 21
96.3629139508
  0
LINE
  5
362
100
AcDbEntity
  8
0
100
AcDbLine
 62
7
  6
CONTINUOUS
 10
-390.2525287117
 20
104.5079139508
 11
-399.2525287117
 21
104.5079139508
  0
LINE
  5
363
100
AcDbEntity
  8
0
100
AcDbLine
 62
7
  6
CONTINUOUS
 10
-339.0525287117
 20
105.3629139508
 11
-348.0525287117
 21
105.3629139508
  0
LINE
  5
364
100
AcDbEntity
  8
0
100
AcDbLine
 62
7
  6
CONTINUOUS
 10
-348.0525287117
 20
109.0629139508
 11
-339.0525287117
 21
109.0629139508
  0
LINE
  5
365
100
AcDbEntity
  8
0
100
AcDbLine
 62
7
  6
CONTINUOUS
 10
-339.0525287117
 20
118.0629139508
 11
-348.0525287117
 21
118.0629139508
  0
LINE
  5
366
100
AcDbEntity
  8
0
100
AcDbLine
 62
7
  6
CONTINUOUS
 10
-348.0525287117
 20
124.9379139508
 11
-339.0525287117
 21
124.9379139508
  0
LINE
  5
367
100
AcDbEntity
  8
0
100
AcDbLine
 62
7
  6
CONTINUOUS
 10
-339.0525287117
 20
133.9379139508
 11
-348.0525287117
 21
133.9379139508
  0
LINE
  5
368
100
AcDbEntity
  8
0
100
AcDbLine
 62
7
  6
CONTINUOUS
 10
-390.2525287117
 20
138.5579139508
 11
-399.2525287117
 21
138.5579139508
  0
LINE
  5
369
100
AcDbEntity
  8
0
100
AcDbLine
 62
7
  6
CONTINUOUS
 10
-348.0525287117
 20
140.8129139508
 11
-339.0525287117
 21
140.8129139508
  0
LINE
  5
36A
100
AcDbEntity
  8
0
100
AcDbLine
 62
7
  6
CONTINUOUS
 10
-390.2525287117
 20
147.5579139508
 11
-399.2525287117
 21
147.5579139508
  0
LINE
  5
36B
100
AcDbEntity
  8
0
100
AcDbLine
 62
7
  6
CONTINUOUS
 10
-339.0525287117
 20
149.8129139508
 11
-348.0525287117
 21
149.8129139508
  0
LINE
  5
36C
100
AcDbEntity
  8
0
100
AcDbLine
 62
7
  6
CONTINUOUS
 10
-348.0525287117
 20
153.5129139508
 11
-339.0525287117
 21
153.5129139508
  0
LINE
  5
36D
100
AcDbEntity
  8
0
100
AcDbLine
 62
7
  6
CONTINUOUS
 10
-339.0525287117
 20
162.5129139508
 11
-348.0525287117
 21
162.5129139508
  0
LINE
  5
36E
100
AcDbEntity
  8
0
100
AcDbLine
 62
7
  6
CONTINUOUS
 10
-348.0525287117
 20
169.3879139508
 11
-339.0525287117
 21
169.3879139508
  0
LINE
  5
36F
100
AcDbEntity
  8
0
100
AcDbLine
 62
7
  6
CONTINUOUS
 10
-339.0525287117
 20
178.3879139508
 11
-348.0525287117
 21
178.3879139508
  0
LINE
  5
370
100
AcDbEntity
  8
0
100
AcDbLine
 62
7
  6
CONTINUOUS
 10
-390.2525287117
 20
181.6079139508
 11
-399.2525287117
 21
181.6079139508
  0
LINE
  5
371
100
AcDbEntity
  8
0
100
AcDbLine
 62
7
  6
CONTINUOUS
 10
-348.0525287117
 20
185.2629139508
 11
-339.0525287117
 21
185.2629139508
  0
LINE
  5
372
100
AcDbEntity
  8
0
100
AcDbLine
 62
7
  6
CONTINUOUS
 10
-390.2525287117
 20
190.6079139508
 11
-399.2525287117
 21
190.6079139508
  0
LINE
  5
373
100
AcDbEntity
  8
0
100
AcDbLine
 62
7
  6
CONTINUOUS
 10
-339.0525287117
 20
194.2629139508
 11
-348.0525287117
 21
194.2629139508
  0
LINE
  5
374
100
AcDbEntity
  8
0
100
AcDbLine
 62
7
  6
CONTINUOUS
 10
-348.0525287117
 20
197.9629139508
 11
-339.0525287117
 21
197.9629139508
  0
LINE
  5
375
100
AcDbEntity
  8
0
100
AcDbLine
 62
7
  6
CONTINUOUS
 10
-339.0525287117
 20
206.9629139508
 11
-348.0525287117
 21
206.9629139508
  0
LINE
  5
376
100
AcDbEntity
  8
0
100
AcDbLine
 62
7
  6
CONTINUOUS
 10
-348.0525287117
 20
213.8379139508
 11
-339.0525287117
 21
213.8379139508
  0
LINE
  5
377
100
AcDbEntity
  8
0
100
AcDbLine
 62
7
  6
CONTINUOUS
 10
-339.0525287117
 20
222.8379139508
 11
-348.0525287117
 21
222.8379139508
  0
LINE
  5
378
100
AcDbEntity
  8
0
100
AcDbLine
 62
7
  6
CONTINUOUS
 10
-390.2525287117
 20
224.6579139508
 11
-399.2525287117
 21
224.6579139508
  0
LINE
  5
379
100
AcDbEntity
  8
0
100
AcDbLine
 62
7
  6
CONTINUOUS
 10
-348.0525287117
 20
229.7129139508
 11
-339.0525287117
 21
229.7129139508
  0
LINE
  5
37A
100
AcDbEntity
  8
0
100
AcDbLine
 62
7
  6
CONTINUOUS
 10
-390.2525287117
 20
233.6579139508
 11
-399.2525287117
 21
233.6579139508
  0
LINE
  5
37B
100
AcDbEntity
  8
0
100
AcDbLine
 62
7
  6
CONTINUOUS
 10
-339.0525287117
 20
238.7129139508
 11
-348.0525287117
 21
238.7129139508
  0
LINE
  5
37C
100
AcDbEntity
  8
0
100
AcDbLine
 62
7
  6
CONTINUOUS
 10
-348.0525287117
 20
242.4129139508
 11
-339.0525287117
 21
242.4129139508
  0
LINE
  5
37D
100
AcDbEntity
  8
0
100
AcDbLine
 62
7
  6
CONTINUOUS
 10
-339.0525287117
 20
251.4129139508
 11
-348.0525287117
 21
251.4129139508
  0
LINE
  5
37E
100
AcDbEntity
  8
0
100
AcDbLine
 62
7
  6
CONTINUOUS
 10
-348.0525287117
 20
258.2879139508
 11
-339.0525287117
 21
258.2879139508
  0
LINE
  5
37F
100
AcDbEntity
  8
0
100
AcDbLine
 62
7
  6
CONTINUOUS
 10
-339.0525287117
 20
267.2879139508
 11
-348.0525287117
 21
267.2879139508
  0
LINE
  5
380
100
AcDbEntity
  8
0
100
AcDbLine
 62
7
  6
CONTINUOUS
 10
-390.2525287117
 20
267.7079139508
 11
-399.2525287117
 21
267.7079139508
  0
LINE
  5
381
100
AcDbEntity
  8
0
100
AcDbLine
 62
7
  6
CONTINUOUS
 10
-348.0525287117
 20
274.1629139508
 11
-339.0525287117
 21
274.1629139508
  0
LINE
  5
382
100
AcDbEntity
  8
0
100
AcDbLine
 62
7
  6
CONTINUOUS
 10
-390.2525287117
 20
276.7079139508
 11
-399.2525287117
 21
276.7079139508
  0
LINE
  5
383
100
AcDbEntity
  8
0
100
AcDbLine
 62
7
  6
CONTINUOUS
 10
-339.0525287117
 20
283.1629139508
 11
-348.0525287117
 21
283.1629139508
  0
LINE
  5
384
100
AcDbEntity
  8
0
100
AcDbLine
 62
7
  6
CONTINUOUS
 10
-348.0525287117
 20
286.8629139508
 11
-339.0525287117
 21
286.8629139508
  0
LINE
  5
385
100
AcDbEntity
  8
0
100
AcDbLine
 62
7
  6
CONTINUOUS
 10
-339.0525287117
 20
295.8629139508
 11
-348.0525287117
 21
295.8629139508
  0
LINE
  5
386
100
AcDbEntity
  8
0
100
AcDbLine
 62
7
  6
CONTINUOUS
 10
-348.0525287117
 20
302.7379139508
 11
-339.0525287117
 21
302.7379139508
  0
LINE
  5
387
100
AcDbEntity
  8
0
100
AcDbLine
 62
7
  6
CONTINUOUS
 10
-390.2525287117
 20
310.7579139508
 11
-399.2525287117
 21
310.7579139508
  0
LINE
  5
388
100
AcDbEntity
  8
0
100
AcDbLine
 62
7
  6
CONTINUOUS
 10
-339.0525287117
 20
311.7379139508
 11
-348.0525287117
 21
311.7379139508
  0
LINE
  5
389
100
AcDbEntity
  8
0
100
AcDbLine
 62
7
  6
CONTINUOUS
 10
-348.0525287117
 20
318.6129139508
 11
-339.0525287117
 21
318.6129139508
  0
LINE
  5
38A
100
AcDbEntity
  8
0
100
AcDbLine
 62
7
  6
CONTINUOUS
 10
-390.2525287117
 20
319.7579139508
 11
-399.2525287117
 21
319.7579139508
  0
LINE
  5
38B
100
AcDbEntity
  8
0
100
AcDbLine
 62
7
  6
CONTINUOUS
 10
-339.0525287117
 20
327.6129139508
 11
-348.0525287117
 21
327.6129139508
  0
LINE
  5
38C
100
AcDbEntity
  8
0
100
AcDbLine
 62
7
  6
CONTINUOUS
 10
-348.0525287117
 20
331.3129139508
 11
-339.0525287117
 21
331.3129139508
  0
LINE
  5
38D
100
AcDbEntity
  8
0
100
AcDbLine
 62
7
  6
CONTINUOUS
 10
-339.0525287117
 20
340.3129139508
 11
-348.0525287117
 21
340.3129139508
  0
LINE
  5
38E
100
AcDbEntity
  8
0
100
AcDbLine
 62
7
  6
CONTINUOUS
 10
-348.0525287117
 20
347.1879139508
 11
-339.0525287117
 21
347.1879139508
  0
LINE
  5
38F
100
AcDbEntity
  8
0
100
AcDbLine
 62
7
  6
CONTINUOUS
 10
-390.2525287117
 20
353.8079139508
 11
-399.2525287117
 21
353.8079139508
  0
LINE
  5
390
100
AcDbEntity
  8
0
100
AcDbLine
 62
7
  6
CONTINUOUS
 10
-339.0525287117
 20
356.1879139508
 11
-348.0525287117
 21
356.1879139508
  0
LINE
  5
391
100
AcDbEntity
  8
0
100
AcDbLine
 62
7
  6
CONTINUOUS
 10
-390.2525287117
 20
362.8079139508
 11
-399.2525287117
 21
362.8079139508
  0
LINE
  5
392
100
AcDbEntity
  8
0
100
AcDbLine
 62
7
  6
CONTINUOUS
 10
-348.0525287117
 20
363.0629139508
 11
-339.0525287117
 21
363.0629139508
  0
LINE
  5
393
100
AcDbEntity
  8
0
100
AcDbLine
 62
7
  6
CONTINUOUS
 10
-339.0525287117
 20
372.0629139508
 11
-348.0525287117
 21
372.0629139508
  0
LINE
  5
394
100
AcDbEntity
  8
0
100
AcDbLine
 62
7
  6
CONTINUOUS
 10
-348.0525287117
 20
375.7629139508
 11
-339.0525287117
 21
375.7629139508
  0
LINE
  5
395
100
AcDbEntity
  8
0
100
AcDbLine
 62
7
  6
CONTINUOUS
 10
-339.0525287117
 20
384.7629139508
 11
-348.0525287117
 21
384.7629139508
  0
LINE
  5
396
100
AcDbEntity
  8
0
100
AcDbLine
 62
7
  6
CONTINUOUS
 10
-348.0525287117
 20
391.6379139508
 11
-339.0525287117
 21
391.6379139508
  0
LINE
  5
397
100
AcDbEntity
  8
0
100
AcDbLine
 62
7
  6
CONTINUOUS
 10
-390.2525287117
 20
396.8579139508
 11
-399.2525287117
 21
396.8579139508
  0
LINE
  5
398
100
AcDbEntity
  8
0
100
AcDbLine
 62
7
  6
CONTINUOUS
 10
-339.0525287117
 20
400.6379139508
 11
-348.0525287117
 21
400.6379139508
  0
LINE
  5
399
100
AcDbEntity
  8
0
100
AcDbLine
 62
7
  6
CONTINUOUS
 10
-390.2525287117
 20
405.8579139508
 11
-399.2525287117
 21
405.8579139508
  0
LINE
  5
39A
100
AcDbEntity
  8
0
100
AcDbLine
 62
7
  6
CONTINUOUS
 10
-348.0525287117
 20
407.5129139508
 11
-339.0525287117
 21
407.5129139508
  0
LINE
  5
39B
100
AcDbEntity
  8
0
100
AcDbLine
 62
7
  6
CONTINUOUS
 10
-339.0525287117
 20
416.5129139508
 11
-348.0525287117
 21
416.5129139508
  0
LINE
  5
39C
100
AcDbEntity
  8
0
100
AcDbLine
 62
7
  6
CONTINUOUS
 10
-348.0525287117
 20
420.2129139508
 11
-339.0525287117
 21
420.2129139508
  0
LINE
  5
39D
100
AcDbEntity
  8
0
100
AcDbLine
 62
7
  6
CONTINUOUS
 10
-339.0525287117
 20
429.2129139508
 11
-348.0525287117
 21
429.2129139508
  0
LINE
  5
39E
100
AcDbEntity
  8
0
100
AcDbLine
 62
7
  6
CONTINUOUS
 10
-348.0525287117
 20
436.0879139508
 11
-339.0525287117
 21
436.0879139508
  0
LINE
  5
39F
100
AcDbEntity
  8
0
100
AcDbLine
 62
7
  6
CONTINUOUS
 10
-390.2525287117
 20
439.9079139508
 11
-399.2525287117
 21
439.9079139508
  0
LINE
  5
3A0
100
AcDbEntity
  8
0
100
AcDbLine
 62
7
  6
CONTINUOUS
 10
-339.0525287117
 20
445.0879139508
 11
-348.0525287117
 21
445.0879139508
  0
LINE
  5
3A1
100
AcDbEntity
  8
0
100
AcDbLine
 62
7
  6
CONTINUOUS
 10
-390.2525287117
 20
448.9079139508
 11
-399.2525287117
 21
448.9079139508
  0
LINE
  5
3A2
100
AcDbEntity
  8
0
100
AcDbLine
 62
7
  6
CONTINUOUS
 10
-348.0525287117
 20
451.9629139508
 11
-339.0525287117
 21
451.9629139508
  0
LINE
  5
3A3
100
AcDbEntity
  8
0
100
AcDbLine
 62
7
  6
CONTINUOUS
 10
-339.0525287117
 20
460.9629139508
 11
-348.0525287117
 21
460.9629139508
  0
LINE
  5
3A4
100
AcDbEntity
  8
0
100
AcDbLine
 62
7
  6
CONTINUOUS
 10
-348.0525287117
 20
464.6629139508
 11
-339.0525287117
 21
464.6629139508
  0
LINE
  5
3A5
100
AcDbEntity
  8
0
100
AcDbLine
 62
7
  6
CONTINUOUS
 10
-339.0525287117
 20
473.6629139508
 11
-348.0525287117
 21
473.6629139508
  0
LINE
  5
3A6
100
AcDbEntity
  8
0
100
AcDbLine
 62
7
  6
CONTINUOUS
 10
-348.0525287117
 20
480.5379139508
 11
-339.0525287117
 21
480.5379139508
  0
LINE
  5
3A7
100
AcDbEntity
  8
0
100
AcDbLine
 62
7
  6
CONTINUOUS
 10
-390.2525287117
 20
482.9579139508
 11
-399.2525287117
 21
482.9579139508
  0
LINE
  5
3A8
100
AcDbEntity
  8
0
100
AcDbLine
 62
7
  6
CONTINUOUS
 10
-339.0525287117
 20
489.5379139508
 11
-348.0525287117
 21
489.5379139508
  0
LINE
  5
3A9
100
AcDbEntity
  8
0
100
AcDbLine
 62
7
  6
CONTINUOUS
 10
-390.2525287117
 20
491.9579139508
 11
-399.2525287117
 21
491.9579139508
  0
LINE
  5
3AA
100
AcDbEntity
  8
0
100
AcDbLine
 62
7
  6
CONTINUOUS
 10
-348.0525287117
 20
496.4129139508
 11
-339.0525287117
 21
496.4129139508
  0
LINE
  5
3AB
100
AcDbEntity
  8
0
100
AcDbLine
 62
7
  6
CONTINUOUS
 10
-339.0525287117
 20
505.4129139508
 11
-348.0525287117
 21
505.4129139508
  0
LINE
  5
3AC
100
AcDbEntity
  8
0
100
AcDbLine
 62
7
  6
CONTINUOUS
 10
-348.0525287117
 20
509.1129139508
 11
-339.0525287117
 21
509.1129139508
  0
LINE
  5
3AD
100
AcDbEntity
  8
0
100
AcDbLine
 62
7
  6
CONTINUOUS
 10
-339.0525287117
 20
518.1129139508
 11
-348.0525287117
 21
518.1129139508
  0
LINE
  5
3AE
100
AcDbEntity
  8
0
100
AcDbLine
 62
7
  6
CONTINUOUS
 10
-348.0525287117
 20
524.9879139508
 11
-339.0525287117
 21
524.9879139508
  0
LINE
  5
3AF
100
AcDbEntity
  8
0
100
AcDbLine
 62
7
  6
CONTINUOUS
 10
-390.2525287117
 20
526.0079139508
 11
-399.2525287117
 21
526.0079139508
  0
LINE
  5
3B0
100
AcDbEntity
  8
0
100
AcDbLine
 62
7
  6
CONTINUOUS
 10
-339.0525287117
 20
533.9879139508
 11
-348.0525287117
 21
533.9879139508
  0
LINE
  5
3B1
100
AcDbEntity
  8
0
100
AcDbLine
 62
7
  6
CONTINUOUS
 10
-390.2525287117
 20
535.0079139508
 11
-399.2525287117
 21
535.0079139508
  0
LINE
  5
3B2
100
AcDbEntity
  8
0
100
AcDbLine
 62
7
  6
CONTINUOUS
 10
-348.0525287117
 20
540.8629139508
 11
-339.0525287117
 21
540.8629139508
  0
LINE
  5
3B3
100
AcDbEntity
  8
0
100
AcDbLine
 62
7
  6
CONTINUOUS
 10
-339.0525287117
 20
549.8629139508
 11
-348.0525287117
 21
549.8629139508
  0
LINE
  5
3B4
100
AcDbEntity
  8
0
100
AcDbLine
 62
7
  6
CONTINUOUS
 10
-348.0525287117
 20
553.5629139508
 11
-339.0525287117
 21
553.5629139508
  0
LINE
  5
3B5
100
AcDbEntity
  8
0
100
AcDbLine
 62
7
  6
CONTINUOUS
 10
-339.0525287117
 20
562.5629139508
 11
-348.0525287117
 21
562.5629139508
  0
LINE
  5
3B6
100
AcDbEntity
  8
0
100
AcDbLine
 62
7
  6
CONTINUOUS
 10
-390.2525287117
 20
569.0579139508
 11
-399.2525287117
 21
569.0579139508
  0
LINE
  5
3B7
100
AcDbEntity
  8
0
100
AcDbLine
 62
7
  6
CONTINUOUS
 10
-348.0525287117
 20
569.4379139508
 11
-339.0525287117
 21
569.4379139508
  0
LINE
  5
3B8
100
AcDbEntity
  8
0
100
AcDbLine
 62
7
  6
CONTINUOUS
 10
-390.2525287117
 20
578.0579139508
 11
-399.2525287117
 21
578.0579139508
  0
LINE
  5
3B9
100
AcDbEntity
  8
0
100
AcDbLine
 62
7
  6
CONTINUOUS
 10
-339.0525287117
 20
578.4379139508
 11
-348.0525287117
 21
578.4379139508
  0
LINE
  5
3BA
100
AcDbEntity
  8
RACCORDO
100
AcDbLine
 62
7
  6
CONTINUOUS
 10
-338.2525287117
 20
583.2579139508
 11
-349.7525287117
 21
583.2579139508
  0
LINE
  5
3BB
100
AcDbEntity
  8
RACCORDO
100
AcDbLine
 62
7
  6
CONTINUOUS
 10
-351.7525287117
 20
587.7579139508
 11
-362.7525287117
 21
587.7579139508
  0
LINE
  5
3BC
100
AcDbEntity
  8
0
100
AcDbLine
 62
7
  6
CONTINUOUS
 10
-362.7525287117
 20
587.7579139508
 11
-366.2525287117
 21
587.7579139508
  0
LINE
  5
3BD
100
AcDbEntity
  8
RACCORDO
100
AcDbLine
 62
253
  6
CONTINUOUS
 10
-443.2525287117
 20
593.2579139508
 11
-445.2525287117
 21
593.2579139508
  0
LINE
  5
3BE
100
AcDbEntity
  8
0
100
AcDbLine
 62
7
  6
CONTINUOUS
 10
-440.2525287117
 20
595.2579139508
 11
-443.2525287117
 21
595.2579139508
  0
LINE
  5
3BF
100
AcDbEntity
  8
RACCORDO
100
AcDbLine
 62
7
  6
CONTINUOUS
 10
-443.2525287117
 20
595.2579139508
 11
-445.2525287117
 21
595.2579139508
  0
LINE
  5
3C0
100
AcDbEntity
  8
0
100
AcDbLine
 62
7
  6
CONTINUOUS
 10
-390.2525287117
 20
613.5579139508
 11
-399.2525287117
 21
613.5579139508
  0
LINE
  5
3C1
100
AcDbEntity
  8
RACCORDO
100
AcDbLine
 62
7
  6
CONTINUOUS
 10
-438.2525287117
 20
616.2579139508
 11
-399.2525287117
 21
616.2579139508
  0
LINE
  5
3C2
100
AcDbEntity
  8
RACCORDO
100
AcDbLine
 62
7
  6
CONTINUOUS
 10
-390.2525287117
 20
616.2579139508
 11
-368.2525287117
 21
616.2579139508
  0
ARC
  5
3C3
100
AcDbEntity
  8
ASSI
100
AcDbCircle
 62
7
  6
CONTINUOUS
 10
-429.7525287117
 20
607.9579139508
 40
3.5
100
AcDbArc
 50
0.0
 51
180.0
  0
ARC
  5
3C4
100
AcDbEntity
  8
ASSI
100
AcDbCircle
 62
7
  6
CONTINUOUS
 10
-429.7525287117
 20
604.5579139508
 40
3.5
100
AcDbArc
 50
180.0
 51
360.0
  0
ARC
  5
3C5
100
AcDbEntity
  8
ASSI
100
AcDbCircle
 62
7
  6
CONTINUOUS
 10
-429.7525287117
 20
-524.2420860492
 40
3.5
100
AcDbArc
 50
0.0
 51
180.0
  0
ARC
  5
3C6
100
AcDbEntity
  8
ASSI
100
AcDbCircle
 62
7
  6
CONTINUOUS
 10
-429.7525287117
 20
-527.6420860492
 40
3.5
100
AcDbArc
 50
180.0
 51
360.0
  0
ARC
  5
3C7
100
AcDbEntity
  8
ASSI
100
AcDbCircle
 62
7
  6
CONTINUOUS
 10
-376.7525287117
 20
-527.6420860492
 40
3.5
100
AcDbArc
 50
180.0
 51
360.0
  0
ARC
  5
3C8
100
AcDbEntity
  8
ASSI
100
AcDbCircle
 62
7
  6
CONTINUOUS
 10
-376.7525287117
 20
-524.2420860492
 40
3.5
100
AcDbArc
 50
0.0
 51
180.0
  0
ARC
  5
3C9
100
AcDbEntity
  8
ASSI
100
AcDbCircle
 62
7
  6
CONTINUOUS
 10
-376.7525287117
 20
604.5579139508
 40
3.5
100
AcDbArc
 50
180.0
 51
360.0
  0
ARC
  5
3CA
100
AcDbEntity
  8
ASSI
100
AcDbCircle
 62
7
  6
CONTINUOUS
 10
-376.7525287117
 20
607.9579139508
 40
3.5
100
AcDbArc
 50
0.0
 51
180.0
  0
ARC
  5
3CB
100
AcDbEntity
  8
RACCORDO
100
AcDbCircle
 62
7
  6
CONTINUOUS
 10
-438.2525287117
 20
614.2579139508
 40
2.0
100
AcDbArc
 50
90.0
 51
180.0
  0
ARC
  5
3CC
100
AcDbEntity
  8
RACCORDO
100
AcDbCircle
 62
7
  6
CONTINUOUS
 10
-438.2525287117
 20
-533.9420860492
 40
2.0
100
AcDbArc
 50
180.0
 51
270.0
  0
ARC
  5
3CD
100
AcDbEntity
  8
RACCORDO
100
AcDbCircle
 62
7
  6
CONTINUOUS
 10
-368.2525287117
 20
-533.9420860492
 40
2.0
100
AcDbArc
 50
270.0
 51
360.0
  0
ARC
  5
3CE
100
AcDbEntity
  8
RACCORDO
100
AcDbCircle
 62
7
  6
CONTINUOUS
 10
-368.2525287117
 20
614.2579139508
 40
2.0
100
AcDbArc
 50
0.0
 51
90.0
  0
ARC
  5
3CF
100
AcDbEntity
  8
RACCORDO
100
AcDbCircle
 62
7
  6
CONTINUOUS
 10
-338.2525287117
 20
-500.9420860492
 40
2.0
100
AcDbArc
 50
270.0
 51
360.0
  0
ARC
  5
3D0
100
AcDbEntity
  8
RACCORDO
100
AcDbCircle
 62
7
  6
CONTINUOUS
 10
-338.2525287117
 20
581.2579139508
 40
2.0
100
AcDbArc
 50
0.0
 51
90.0
  0
ARC
  5
3D1
100
AcDbEntity
  8
RACCORDO
100
AcDbCircle
 62
7
  6
CONTINUOUS
 10
-351.7525287117
 20
585.7579139508
 40
2.0
100
AcDbArc
 50
0.0
 51
90.0
  0
ARC
  5
3D2
100
AcDbEntity
  8
RACCORDO
100
AcDbCircle
 62
7
  6
CONTINUOUS
 10
-351.7525287117
 20
-505.4420860492
 40
2.0
100
AcDbArc
 50
270.0
 51
360.0
  0
ENDSEC
  0
SECTION
  2
OBJECTS
  0
DICTIONARY
  5
C
100
AcDbDictionary
280
0
281
1
  3
ACAD_GROUP
350
D
  3
ACAD_MLINESTYLE
350
17
  3
ACAD_LAYOUT
350
1A
  3
ACAD_PLOTSETTINGS
350
19
  3
ACAD_PLOTSTYLENAME
350
E
  0
DICTIONARY
  5
D
102
{ACAD_REACTORS
330
C
102
}
100
AcDbDictionary
280
0
281
1
  0
ACDBDICTIONARYWDFLT
  5
E
102
{ACAD_REACTORS
330
C
102
}
100
AcDbDictionary
281
1
  3
Normal
350
F
100
AcDbDictionaryWithDefault
340
F
  0
DICTIONARY
  5
17
102
{ACAD_REACTORS
330
C
102
}
100
AcDbDictionary
280
0
281
1
  3
Standard
350
18
  0
DICTIONARY
  5
19
102
{ACAD_REACTORS
330
C
102
}
100
AcDbDictionary
281
1
  0
DICTIONARY
  5
1A
102
{ACAD_REACTORS
330
C
102
}
100
AcDbDictionary
281
1
  3
Model
350
3D3
  3
Layout1
350
3D4
  0
ACDBPLACEHOLDER
  5
F
102
{ACAD_REACTORS
330
E
102
}
  0
MLINESTYLE
  5
18
102
{ACAD_REACTORS
330
17
102
}
100
AcDbMlineStyle
  2
STANDARD
 70
0
  3

 62
256
 51
90.0
 52
90.0
 71
2
 49
0.5
 62
256
  6
BYLAYER
 49
-0.5
 62
256
  6
BYLAYER
  0
LAYOUT
  5
3D3
102
{ACAD_REACTORS
330
1A
102
}
100
AcDbPlotSettings
  1

  2
none_device
  4
ISO_A4_(297.00_x_210.00_MM)
  6

 40
0.0
 41
0.0
 42
0.0
 43
0.0
 44
297.0
 45
210.0
 46
0.0
 47
0.0
 48
0.0
 49
0.0
140
0.0
141
0.0
142
1.0
143
1.0
 70
1024
 72
1
 73
0
 74
0
  7

 75
0
147
1.0
148
0.0
149
0.0
100
AcDbLayout
  1
Model
 70
0
 71
0
 10
0.0
 20
0.0
 11
297.0
 21
210.0
 12
0.0
 22
0.0
 32
0.0
 14
0.0
 24
0.0
 34
0.0
 15
0.0
 25
0.0
 35
0.0
146
0.0
 13
0.0
 23
0.0
 33
0.0
 16
1.0
 26
0.0
 36
0.0
 17
0.0
 27
1.0
 37
0.0
 76
0
330
20D
345
0
346
0
  0
LAYOUT
  5
3D4
102
{ACAD_REACTORS
330
1A
102
}
100
AcDbPlotSettings
  1

  2
none_device
  4
ISO_A4_(297.00_x_210.00_MM)
  6

 40
0.0
 41
0.0
 42
0.0
 43
0.0
 44
297.0
 45
210.0
 46
0.0
 47
0.0
 48
0.0
 49
0.0
140
0.0
141
0.0
142
1.0
143
1.0
 70
0
 72
1
 73
0
 74
0
  7

 75
0
147
1.0
148
0.0
149
0.0
100
AcDbLayout
  1
Layout1
 70
0
 71
1
 10
0.0
 20
0.0
 11
297.0
 21
210.0
 12
0.0
 22
0.0
 32
0.0
 14
0.0
 24
0.0
 34
0.0
 15
0.0
 25
0.0
 35
0.0
146
0.0
 13
0.0
 23
0.0
 33
0.0
 16
1.0
 26
0.0
 36
0.0
 17
0.0
 27
1.0
 37
0.0
 76
0
330
20E
345
0
346
0
  0
ENDSEC
  0
EOF
