  0
SECTION
  2
HEADER
  9
$ACADVER
  1
AC1021
  9
$DWGCODEPAGE
  3
ANSI_1252
  9
$EXTMAX
 10
297.0
 20
210.0
 30
0.0
  9
$EXTMIN
 10
0.0
 20
0.0
 30
0.0
  9
$LIMMIN
 10
0.0
 20
0.0
  9
$LIMMAX
 10
297.0
 20
210.0
  9
$VIEWCTR
 10
148.5
 20
105.0
  9
$VIEWSIZE
 40
210.0
  9
$CLAYER
  8
0
  9
$LTSCALE
 40
16.335
  9
$CELTYPE
  6
BYLAYER
  9
$DIMSCALE
 40
1.0
  9
$DIMASZ
 40
3.0
  9
$DIMEXO
 40
0.5
  9
$DIMDLI
 40
11.286
  9
$DIMEXE
 40
1.5
  9
$DIMCEN
 40
2.673
  9
$DIMLFAC
 40
1.0
  9
$DIMBLK
  1
_FILLED
  9
$DIMALT
 70
0
  9
$DIMALTF
 40
25.4
  9
$DIMTXT
 40
3.0
  9
$DIMTOL
 70
1
  9
$DIMLIM
 70
0
  9
$DIMTFAC
 40
1.0
  9
$DIMTP
 40
0.01
  9
$DIMTM
 40
0.01
  9
$DIMGAP
 40
0.625
  9
$DIMDSEP
 70
44
  9
$AUNITS
 70
0
  9
$PDMODE
 70
3
  9
$PDSIZE
 40
3.0
  9
$HANDSEED
  5
4E5
  9
$TILEMODE
 70
1
  9
$MEASUREMENT
 70
1
  9
$INSUNITS
 70
4
  0
ENDSEC
  0
SECTION
  2
CLASSES
  0
CLASS
  1
ACDBDICTIONARYWDFLT
  2
AcDbDictionaryWithDefault
  3
AutoCAD 2000
 90
0
 91
1
280
0
281
0
  0
CLASS
  1
ACDBPLACEHOLDER
  2
AcDbPlaceHolder
  3
AutoCAD 2000
 90
0
 91
1
280
0
281
0
  0
CLASS
  1
LAYOUT
  2
AcDbLayout
  3
AutoCAD 2000
 90
0
 91
0
280
0
281
0
  0
ENDSEC
  0
SECTION
  2
TABLES
  0
TABLE
  2
VPORT
  5
8
100
AcDbSymbolTable
 70
2
  0
VPORT
  5
1F4
100
AcDbSymbolTableRecord
100
AcDbViewportTableRecord
  2
*ACTIVE
 70
0
 10
0.0
 20
0.0
 11
1.0
 21
1.0
 12
148.5
 22
105.0
 13
0.0
 23
0.0
 14
1.0
 24
1.0
 15
0.0
 25
0.0
 16
0.0
 26
0.0
 36
1.0
 17
0.0
 27
0.0
 37
0.0
 40
210.0
 41
1.4142857143
 42
50.0
 43
0.0
 44
0.0
 50
0.0
 51
0.0
 71
0
 72
100
 73
1
 74
1
 75
0
 76
0
 77
0
 78
0
  0
ENDTAB
  0
TABLE
  2
LTYPE
  5
5
100
AcDbSymbolTable
 70
6
  0
LTYPE
  5
14
100
AcDbSymbolTableRecord
100
AcDbLinetypeTableRecord
  2
BYBLOCK
 70
0
  3

 72
65
 73
0
 40
0.0
  0
LTYPE
  5
15
100
AcDbSymbolTableRecord
100
AcDbLinetypeTableRecord
  2
BYLAYER
 70
0
  3

 72
65
 73
0
 40
0.0
  0
LTYPE
  5
16
100
AcDbSymbolTableRecord
100
AcDbLinetypeTableRecord
  2
CONTINUOUS
 70
64
  3
Solid line
 72
65
 73
0
 40
0.0
  0
LTYPE
  5
1F5
100
AcDbSymbolTableRecord
100
AcDbLinetypeTableRecord
  2
CENTER
 70
64
  3
____ _ ____ _ ____ _ ____ _ ____ _ ____ _ ____
 72
65
 73
4
 40
0.6
 49
0.375
 74
0
 49
-0.075
 74
0
 49
0.075
 74
0
 49
-0.075
 74
0
  0
LTYPE
  5
1F6
100
AcDbSymbolTableRecord
100
AcDbLinetypeTableRecord
  2
HIDDEN
 70
64
  3
- - - - - - - - - - - - - - - - - - - -
 72
65
 73
2
 40
0.2
 49
0.1
 74
0
 49
-0.1
 74
0
  0
LTYPE
  5
1F7
100
AcDbSymbolTableRecord
100
AcDbLinetypeTableRecord
  2
PHANTOM
 70
64
  3
_____ _ _ _____ _ _ _____ _ _ _____
 72
65
 73
6
 40
0.8
 49
0.45
 74
0
 49
-0.05
 74
0
 49
0.1
 74
0
 49
-0.05
 74
0
 49
0.1
 74
0
 49
-0.05
 74
0
  0
LTYPE
  5
1F8
100
AcDbSymbolTableRecord
100
AcDbLinetypeTableRecord
  2
DOT
 70
64
  3
. . . . . . . . . . . . . . . . . . . .
 72
65
 73
2
 40
0.2
 49
0.1
 74
0
 49
-0.1
 74
0
  0
LTYPE
  5
1F9
100
AcDbSymbolTableRecord
100
AcDbLinetypeTableRecord
  2
DASHED
 70
64
  3
- - - - - - - - - - - - - - - - - - - -
 72
65
 73
2
 40
0.2
 49
0.1
 74
0
 49
-0.1
 74
0
  0
ENDTAB
  0
TABLE
  2
LAYER
  5
2
100
AcDbSymbolTable
 70
36
  0
LAYER
  5
10
100
AcDbSymbolTableRecord
100
AcDbLayerTableRecord
  2
0
 70
0
 62
7
  6
CONTINUOUS
370
-3
390
F
  0
LAYER
  5
1FA
100
AcDbSymbolTableRecord
100
AcDbLayerTableRecord
  2
DEFAULT_1
 70
0
 62
7
  6
CENTER
370
-3
390
F
  0
LAYER
  5
1FB
100
AcDbSymbolTableRecord
100
AcDbLayerTableRecord
  2
DEFAULT_2
 70
0
 62
7
  6
HIDDEN
370
-3
390
F
  0
LAYER
  5
1FC
100
AcDbSymbolTableRecord
100
AcDbLayerTableRecord
  2
DEFAULT_3
 70
0
 62
7
  6
PHANTOM
370
-3
390
F
  0
LAYER
  5
1FD
100
AcDbSymbolTableRecord
100
AcDbLayerTableRecord
  2
ASSI
 70
0
 62
7
  6
CONTINUOUS
370
-3
390
F
  0
LAYER
  5
1FE
100
AcDbSymbolTableRecord
100
AcDbLayerTableRecord
  2
COORDINATE
 70
0
 62
7
  6
CONTINUOUS
370
-3
390
F
  0
LAYER
  5
1FF
100
AcDbSymbolTableRecord
100
AcDbLayerTableRecord
  2
COORD_ORIGINE
 70
0
 62
7
  6
CONTINUOUS
370
-3
390
F
  0
LAYER
  5
200
100
AcDbSymbolTableRecord
100
AcDbLayerTableRecord
  2
COSMETICI
 70
0
 62
7
  6
CONTINUOUS
370
-3
390
F
  0
LAYER
  5
201
100
AcDbSymbolTableRecord
100
AcDbLayerTableRecord
  2
CURVE
 70
0
 62
7
  6
CONTINUOUS
370
-3
390
F
  0
LAYER
  5
202
100
AcDbSymbolTableRecord
100
AcDbLayerTableRecord
  2
NOTE
 70
0
 62
7
  6
CONTINUOUS
370
-3
390
F
  0
LAYER
  5
203
100
AcDbSymbolTableRecord
100
AcDbLayerTableRecord
  2
PIANI
 70
0
 62
7
  6
CONTINUOUS
370
-3
390
F
  0
LAYER
  5
204
100
AcDbSymbolTableRecord
100
AcDbLayerTableRecord
  2
PIANI_ORIGINE
 70
0
 62
7
  6
CONTINUOUS
370
-3
390
F
  0
LAYER
  5
205
100
AcDbSymbolTableRecord
100
AcDbLayerTableRecord
  2
PUNTI
 70
0
 62
7
  6
CONTINUOUS
370
-3
390
F
  0
LAYER
  5
206
100
AcDbSymbolTableRecord
100
AcDbLayerTableRecord
  2
RACCORDO
 70
0
 62
7
  6
CONTINUOUS
370
-3
390
F
  0
LAYER
  5
207
100
AcDbSymbolTableRecord
100
AcDbLayerTableRecord
  2
SIMBOLI
 70
0
 62
7
  6
CONTINUOUS
370
-3
390
F
  0
LAYER
  5
208
100
AcDbSymbolTableRecord
100
AcDbLayerTableRecord
  2
SNAPLINE
 70
0
 62
7
  6
CONTINUOUS
370
-3
390
F
  0
LAYER
  5
209
100
AcDbSymbolTableRecord
100
AcDbLayerTableRecord
  2
SUPERFICI
 70
0
 62
7
  6
CONTINUOUS
370
-3
390
F
  0
LAYER
  5
20A
100
AcDbSymbolTableRecord
100
AcDbLayerTableRecord
  2
TRASH
 70
0
 62
7
  6
CONTINUOUS
370
-3
390
F
  0
ENDTAB
  0
TABLE
  2
STYLE
  5
3
100
AcDbSymbolTable
 70
1
  0
STYLE
  5
11
100
AcDbSymbolTableRecord
100
AcDbTextStyleTableRecord
  2
STANDARD
 70
0
 40
0.0
 41
0.8
 50
0.0
 71
0
 42
0.2
  3
txt
  4

  0
STYLE
  5
20B
100
AcDbSymbolTableRecord
100
AcDbTextStyleTableRecord
  2
TEXTSTYLE_1
 70
0
 40
0.0
 41
0.8
 50
0.0
 71
0
 42
0.2
  3
gdt
  4

  0
ENDTAB
  0
TABLE
  2
VIEW
  5
6
100
AcDbSymbolTable
 70
0
  0
ENDTAB
  0
TABLE
  2
UCS
  5
7
100
AcDbSymbolTable
 70
0
  0
ENDTAB
  0
TABLE
  2
APPID
  5
9
100
AcDbSymbolTable
 70
1
  0
APPID
  5
20C
100
AcDbSymbolTableRecord
100
AcDbRegAppTableRecord
  2
ACAD
 70
0
  0
ENDTAB
  0
TABLE
  2
BLOCK_RECORD
  5
1
100
AcDbSymbolTable
 70
0
  0
BLOCK_RECORD
  5
20D
100
AcDbSymbolTableRecord
100
AcDbBlockTableRecord
  2
*Model_Space
  0
BLOCK_RECORD
  5
20E
100
AcDbSymbolTableRecord
100
AcDbBlockTableRecord
  2
*Paper_Space
  0
ENDTAB
  0
TABLE
  2
DIMSTYLE
  5
A
100
AcDbSymbolTable
 70
1
100
AcDbDimStyleTable
 71
0
  0
DIMSTYLE
105
20F
100
AcDbSymbolTableRecord
100
AcDbDimStyleTableRecord
  2
STANDARD
 70
0
  3

  4

 40
1.0
 41
3.0
 42
0.5
 43
0.38
 44
1.5
 45
0.0
 46
0.0
 47
0.01
 48
0.01
140
3.0
141
0.09
142
0.0
143
25.4
144
1.0
145
0.0
146
1.0
147
0.625
 71
1.0
 72
0.0
 73
0
 74
0
 75
0
 76
0
 77
1
 78
8
170
0
171
1
172
0
173
0
174
0
175
0
176
0
177
0
178
0
270
2
271
2
272
2
273
2
274
2
275
0
280
0
281
0
282
0
283
1
284
8
285
0
286
0
287
3
288
0
340
11
278
44
  0
ENDTAB
  0
ENDSEC
  0
SECTION
  2
BLOCKS
  0
BLOCK
  5
20
100
AcDbEntity
  8
0
100
AcDbBlockBegin
  2
*Model_Space
 70
0
 10
0.0
 20
0.0
 30
0.0
  3
*Model_Space
  1

  0
ENDBLK
  5
21
100
AcDbEntity
  8
0
100
AcDbBlockEnd
  0
BLOCK
  5
1C
100
AcDbEntity
  8
0
100
AcDbBlockBegin
  2
*Paper_Space
 70
0
 10
0.0
 20
0.0
 30
0.0
  3
*Paper_Space
  1

  0
ENDBLK
  5
1D
100
AcDbEntity
  8
0
100
AcDbBlockEnd
  0
ENDSEC
  0
SECTION
  2
ENTITIES
  0
LINE
  5
210
100
AcDbEntity
  8
RACCORDO
100
AcDbLine
 62
7
  6
CONTINUOUS
 10
-47.6833158713
 20
-953.3751036186
 11
-8.6833158713
 21
-953.3751036186
  0
LINE
  5
211
100
AcDbEntity
  8
RACCORDO
100
AcDbLine
 62
7
  6
CONTINUOUS
 10
0.3166841287
 20
-953.3751036186
 11
22.3166841287
 21
-953.3751036186
  0
LINE
  5
212
100
AcDbEntity
  8
0
100
AcDbLine
 62
7
  6
CONTINUOUS
 10
0.3166841287
 20
-950.6751036186
 11
-8.6833158713
 21
-950.6751036186
  0
LINE
  5
213
100
AcDbEntity
  8
0
100
AcDbLine
 62
7
  6
CONTINUOUS
 10
-49.6833158713
 20
-932.3751036186
 11
-52.6833158713
 21
-932.3751036186
  0
LINE
  5
214
100
AcDbEntity
  8
RACCORDO
100
AcDbLine
 62
7
  6
CONTINUOUS
 10
-52.6833158713
 20
-932.3751036186
 11
-54.6833158713
 21
-932.3751036186
  0
LINE
  5
215
100
AcDbEntity
  8
RACCORDO
100
AcDbLine
 62
253
  6
CONTINUOUS
 10
-52.6833158713
 20
-930.3751036186
 11
-54.6833158713
 21
-930.3751036186
  0
LINE
  5
216
100
AcDbEntity
  8
RACCORDO
100
AcDbLine
 62
7
  6
CONTINUOUS
 10
38.8166841287
 20
-924.8751036186
 11
27.8166841287
 21
-924.8751036186
  0
LINE
  5
217
100
AcDbEntity
  8
0
100
AcDbLine
 62
7
  6
CONTINUOUS
 10
24.3166841287
 20
-924.8751036186
 11
27.8166841287
 21
-924.8751036186
  0
LINE
  5
218
100
AcDbEntity
  8
RACCORDO
100
AcDbLine
 62
7
  6
CONTINUOUS
 10
52.3166841287
 20
-920.3751036186
 11
40.8166841287
 21
-920.3751036186
  0
LINE
  5
219
100
AcDbEntity
  8
0
100
AcDbLine
 62
7
  6
CONTINUOUS
 10
42.5166841287
 20
-915.6451036186
 11
51.5166841287
 21
-915.6451036186
  0
LINE
  5
21A
100
AcDbEntity
  8
0
100
AcDbLine
 62
7
  6
CONTINUOUS
 10
51.5166841287
 20
-906.6451036186
 11
42.5166841287
 21
-906.6451036186
  0
LINE
  5
21B
100
AcDbEntity
  8
0
100
AcDbLine
 62
7
  6
CONTINUOUS
 10
42.5166841287
 20
-899.7701036186
 11
51.5166841287
 21
-899.7701036186
  0
LINE
  5
21C
100
AcDbEntity
  8
0
100
AcDbLine
 62
7
  6
CONTINUOUS
 10
51.5166841287
 20
-890.7701036186
 11
42.5166841287
 21
-890.7701036186
  0
LINE
  5
21D
100
AcDbEntity
  8
0
100
AcDbLine
 62
7
  6
CONTINUOUS
 10
42.5166841287
 20
-887.0701036186
 11
51.5166841287
 21
-887.0701036186
  0
LINE
  5
21E
100
AcDbEntity
  8
0
100
AcDbLine
 62
7
  6
CONTINUOUS
 10
51.5166841287
 20
-878.0701036186
 11
42.5166841287
 21
-878.0701036186
  0
LINE
  5
21F
100
AcDbEntity
  8
0
100
AcDbLine
 62
7
  6
CONTINUOUS
 10
42.5166841287
 20
-871.1951036186
 11
51.5166841287
 21
-871.1951036186
  0
LINE
  5
220
100
AcDbEntity
  8
0
100
AcDbLine
 62
7
  6
CONTINUOUS
 10
51.5166841287
 20
-862.1951036186
 11
42.5166841287
 21
-862.1951036186
  0
LINE
  5
221
100
AcDbEntity
  8
0
100
AcDbLine
 62
7
  6
CONTINUOUS
 10
0.3166841287
 20
-858.6251036186
 11
-8.6833158713
 21
-858.6251036186
  0
LINE
  5
222
100
AcDbEntity
  8
0
100
AcDbLine
 62
7
  6
CONTINUOUS
 10
42.5166841287
 20
-855.3201036186
 11
51.5166841287
 21
-855.3201036186
  0
LINE
  5
223
100
AcDbEntity
  8
0
100
AcDbLine
 62
7
  6
CONTINUOUS
 10
0.3166841287
 20
-849.6251036186
 11
-8.6833158713
 21
-849.6251036186
  0
LINE
  5
224
100
AcDbEntity
  8
0
100
AcDbLine
 62
7
  6
CONTINUOUS
 10
51.5166841287
 20
-846.3201036186
 11
42.5166841287
 21
-846.3201036186
  0
LINE
  5
225
100
AcDbEntity
  8
0
100
AcDbLine
 62
7
  6
CONTINUOUS
 10
42.5166841287
 20
-842.6201036186
 11
51.5166841287
 21
-842.6201036186
  0
LINE
  5
226
100
AcDbEntity
  8
0
100
AcDbLine
 62
7
  6
CONTINUOUS
 10
51.5166841287
 20
-833.6201036186
 11
42.5166841287
 21
-833.6201036186
  0
LINE
  5
227
100
AcDbEntity
  8
0
100
AcDbLine
 62
7
  6
CONTINUOUS
 10
42.5166841287
 20
-826.7451036186
 11
51.5166841287
 21
-826.7451036186
  0
LINE
  5
228
100
AcDbEntity
  8
0
100
AcDbLine
 62
7
  6
CONTINUOUS
 10
51.5166841287
 20
-817.7451036186
 11
42.5166841287
 21
-817.7451036186
  0
LINE
  5
229
100
AcDbEntity
  8
0
100
AcDbLine
 62
7
  6
CONTINUOUS
 10
0.3166841287
 20
-815.5751036186
 11
-8.6833158713
 21
-815.5751036186
  0
LINE
  5
22A
100
AcDbEntity
  8
0
100
AcDbLine
 62
7
  6
CONTINUOUS
 10
42.5166841287
 20
-810.8701036186
 11
51.5166841287
 21
-810.8701036186
  0
LINE
  5
22B
100
AcDbEntity
  8
0
100
AcDbLine
 62
7
  6
CONTINUOUS
 10
0.3166841287
 20
-806.5751036186
 11
-8.6833158713
 21
-806.5751036186
  0
LINE
  5
22C
100
AcDbEntity
  8
0
100
AcDbLine
 62
7
  6
CONTINUOUS
 10
51.5166841287
 20
-801.8701036186
 11
42.5166841287
 21
-801.8701036186
  0
LINE
  5
22D
100
AcDbEntity
  8
0
100
AcDbLine
 62
7
  6
CONTINUOUS
 10
42.5166841287
 20
-798.1701036186
 11
51.5166841287
 21
-798.1701036186
  0
LINE
  5
22E
100
AcDbEntity
  8
0
100
AcDbLine
 62
7
  6
CONTINUOUS
 10
51.5166841287
 20
-789.1701036186
 11
42.5166841287
 21
-789.1701036186
  0
LINE
  5
22F
100
AcDbEntity
  8
0
100
AcDbLine
 62
7
  6
CONTINUOUS
 10
42.5166841287
 20
-782.2951036186
 11
51.5166841287
 21
-782.2951036186
  0
LINE
  5
230
100
AcDbEntity
  8
0
100
AcDbLine
 62
7
  6
CONTINUOUS
 10
51.5166841287
 20
-773.2951036186
 11
42.5166841287
 21
-773.2951036186
  0
LINE
  5
231
100
AcDbEntity
  8
0
100
AcDbLine
 62
7
  6
CONTINUOUS
 10
0.3166841287
 20
-772.5251036186
 11
-8.6833158713
 21
-772.5251036186
  0
LINE
  5
232
100
AcDbEntity
  8
0
100
AcDbLine
 62
7
  6
CONTINUOUS
 10
42.5166841287
 20
-766.4201036186
 11
51.5166841287
 21
-766.4201036186
  0
LINE
  5
233
100
AcDbEntity
  8
0
100
AcDbLine
 62
7
  6
CONTINUOUS
 10
0.3166841287
 20
-763.5251036186
 11
-8.6833158713
 21
-763.5251036186
  0
LINE
  5
234
100
AcDbEntity
  8
0
100
AcDbLine
 62
7
  6
CONTINUOUS
 10
51.5166841287
 20
-757.4201036186
 11
42.5166841287
 21
-757.4201036186
  0
LINE
  5
235
100
AcDbEntity
  8
0
100
AcDbLine
 62
7
  6
CONTINUOUS
 10
42.5166841287
 20
-753.7201036186
 11
51.5166841287
 21
-753.7201036186
  0
LINE
  5
236
100
AcDbEntity
  8
0
100
AcDbLine
 62
7
  6
CONTINUOUS
 10
51.5166841287
 20
-744.7201036186
 11
42.5166841287
 21
-744.7201036186
  0
LINE
  5
237
100
AcDbEntity
  8
0
100
AcDbLine
 62
7
  6
CONTINUOUS
 10
42.5166841287
 20
-737.8451036186
 11
51.5166841287
 21
-737.8451036186
  0
LINE
  5
238
100
AcDbEntity
  8
0
100
AcDbLine
 62
7
  6
CONTINUOUS
 10
0.3166841287
 20
-729.4751036186
 11
-8.6833158713
 21
-729.4751036186
  0
LINE
  5
239
100
AcDbEntity
  8
0
100
AcDbLine
 62
7
  6
CONTINUOUS
 10
51.5166841287
 20
-728.8451036186
 11
42.5166841287
 21
-728.8451036186
  0
LINE
  5
23A
100
AcDbEntity
  8
0
100
AcDbLine
 62
7
  6
CONTINUOUS
 10
42.5166841287
 20
-721.9701036186
 11
51.5166841287
 21
-721.9701036186
  0
LINE
  5
23B
100
AcDbEntity
  8
0
100
AcDbLine
 62
7
  6
CONTINUOUS
 10
0.3166841287
 20
-720.4751036186
 11
-8.6833158713
 21
-720.4751036186
  0
LINE
  5
23C
100
AcDbEntity
  8
0
100
AcDbLine
 62
7
  6
CONTINUOUS
 10
51.5166841287
 20
-712.9701036186
 11
42.5166841287
 21
-712.9701036186
  0
LINE
  5
23D
100
AcDbEntity
  8
0
100
AcDbLine
 62
7
  6
CONTINUOUS
 10
42.5166841287
 20
-709.2701036186
 11
51.5166841287
 21
-709.2701036186
  0
LINE
  5
23E
100
AcDbEntity
  8
0
100
AcDbLine
 62
7
  6
CONTINUOUS
 10
51.5166841287
 20
-700.2701036186
 11
42.5166841287
 21
-700.2701036186
  0
LINE
  5
23F
100
AcDbEntity
  8
0
100
AcDbLine
 62
7
  6
CONTINUOUS
 10
42.5166841287
 20
-693.3951036186
 11
51.5166841287
 21
-693.3951036186
  0
LINE
  5
240
100
AcDbEntity
  8
0
100
AcDbLine
 62
7
  6
CONTINUOUS
 10
0.3166841287
 20
-686.4251036186
 11
-8.6833158713
 21
-686.4251036186
  0
LINE
  5
241
100
AcDbEntity
  8
0
100
AcDbLine
 62
7
  6
CONTINUOUS
 10
51.5166841287
 20
-684.3951036186
 11
42.5166841287
 21
-684.3951036186
  0
LINE
  5
242
100
AcDbEntity
  8
0
100
AcDbLine
 62
7
  6
CONTINUOUS
 10
42.5166841287
 20
-677.5201036186
 11
51.5166841287
 21
-677.5201036186
  0
LINE
  5
243
100
AcDbEntity
  8
0
100
AcDbLine
 62
7
  6
CONTINUOUS
 10
0.3166841287
 20
-677.4251036186
 11
-8.6833158713
 21
-677.4251036186
  0
LINE
  5
244
100
AcDbEntity
  8
0
100
AcDbLine
 62
7
  6
CONTINUOUS
 10
51.5166841287
 20
-668.5201036186
 11
42.5166841287
 21
-668.5201036186
  0
LINE
  5
245
100
AcDbEntity
  8
0
100
AcDbLine
 62
7
  6
CONTINUOUS
 10
42.5166841287
 20
-664.8201036186
 11
51.5166841287
 21
-664.8201036186
  0
LINE
  5
246
100
AcDbEntity
  8
0
100
AcDbLine
 62
7
  6
CONTINUOUS
 10
51.5166841287
 20
-655.8201036186
 11
42.5166841287
 21
-655.8201036186
  0
LINE
  5
247
100
AcDbEntity
  8
0
100
AcDbLine
 62
7
  6
CONTINUOUS
 10
42.5166841287
 20
-648.9451036186
 11
51.5166841287
 21
-648.9451036186
  0
LINE
  5
248
100
AcDbEntity
  8
0
100
AcDbLine
 62
7
  6
CONTINUOUS
 10
0.3166841287
 20
-643.3751036186
 11
-8.6833158713
 21
-643.3751036186
  0
LINE
  5
249
100
AcDbEntity
  8
0
100
AcDbLine
 62
7
  6
CONTINUOUS
 10
51.5166841287
 20
-639.9451036186
 11
42.5166841287
 21
-639.9451036186
  0
LINE
  5
24A
100
AcDbEntity
  8
0
100
AcDbLine
 62
7
  6
CONTINUOUS
 10
0.3166841287
 20
-634.3751036186
 11
-8.6833158713
 21
-634.3751036186
  0
LINE
  5
24B
100
AcDbEntity
  8
0
100
AcDbLine
 62
7
  6
CONTINUOUS
 10
42.5166841287
 20
-633.0701036186
 11
51.5166841287
 21
-633.0701036186
  0
LINE
  5
24C
100
AcDbEntity
  8
0
100
AcDbLine
 62
7
  6
CONTINUOUS
 10
51.5166841287
 20
-624.0701036186
 11
42.5166841287
 21
-624.0701036186
  0
LINE
  5
24D
100
AcDbEntity
  8
0
100
AcDbLine
 62
7
  6
CONTINUOUS
 10
42.5166841287
 20
-620.3701036186
 11
51.5166841287
 21
-620.3701036186
  0
LINE
  5
24E
100
AcDbEntity
  8
0
100
AcDbLine
 62
7
  6
CONTINUOUS
 10
51.5166841287
 20
-611.3701036186
 11
42.5166841287
 21
-611.3701036186
  0
LINE
  5
24F
100
AcDbEntity
  8
0
100
AcDbLine
 62
7
  6
CONTINUOUS
 10
42.5166841287
 20
-604.4951036186
 11
51.5166841287
 21
-604.4951036186
  0
LINE
  5
250
100
AcDbEntity
  8
0
100
AcDbLine
 62
7
  6
CONTINUOUS
 10
0.3166841287
 20
-600.3251036186
 11
-8.6833158713
 21
-600.3251036186
  0
LINE
  5
251
100
AcDbEntity
  8
0
100
AcDbLine
 62
7
  6
CONTINUOUS
 10
51.5166841287
 20
-595.4951036186
 11
42.5166841287
 21
-595.4951036186
  0
LINE
  5
252
100
AcDbEntity
  8
0
100
AcDbLine
 62
7
  6
CONTINUOUS
 10
0.3166841287
 20
-591.3251036186
 11
-8.6833158713
 21
-591.3251036186
  0
LINE
  5
253
100
AcDbEntity
  8
0
100
AcDbLine
 62
7
  6
CONTINUOUS
 10
42.5166841287
 20
-588.6201036186
 11
51.5166841287
 21
-588.6201036186
  0
LINE
  5
254
100
AcDbEntity
  8
0
100
AcDbLine
 62
7
  6
CONTINUOUS
 10
51.5166841287
 20
-579.6201036186
 11
42.5166841287
 21
-579.6201036186
  0
LINE
  5
255
100
AcDbEntity
  8
0
100
AcDbLine
 62
7
  6
CONTINUOUS
 10
42.5166841287
 20
-575.9201036186
 11
51.5166841287
 21
-575.9201036186
  0
LINE
  5
256
100
AcDbEntity
  8
0
100
AcDbLine
 62
7
  6
CONTINUOUS
 10
51.5166841287
 20
-566.9201036186
 11
42.5166841287
 21
-566.9201036186
  0
LINE
  5
257
100
AcDbEntity
  8
0
100
AcDbLine
 62
7
  6
CONTINUOUS
 10
42.5166841287
 20
-560.0451036186
 11
51.5166841287
 21
-560.0451036186
  0
LINE
  5
258
100
AcDbEntity
  8
0
100
AcDbLine
 62
7
  6
CONTINUOUS
 10
0.3166841287
 20
-557.2751036186
 11
-8.6833158713
 21
-557.2751036186
  0
LINE
  5
259
100
AcDbEntity
  8
0
100
AcDbLine
 62
7
  6
CONTINUOUS
 10
51.5166841287
 20
-551.0451036186
 11
42.5166841287
 21
-551.0451036186
  0
LINE
  5
25A
100
AcDbEntity
  8
0
100
AcDbLine
 62
7
  6
CONTINUOUS
 10
0.3166841287
 20
-548.2751036186
 11
-8.6833158713
 21
-548.2751036186
  0
LINE
  5
25B
100
AcDbEntity
  8
0
100
AcDbLine
 62
7
  6
CONTINUOUS
 10
42.5166841287
 20
-544.1701036186
 11
51.5166841287
 21
-544.1701036186
  0
LINE
  5
25C
100
AcDbEntity
  8
0
100
AcDbLine
 62
7
  6
CONTINUOUS
 10
51.5166841287
 20
-535.1701036186
 11
42.5166841287
 21
-535.1701036186
  0
LINE
  5
25D
100
AcDbEntity
  8
0
100
AcDbLine
 62
7
  6
CONTINUOUS
 10
42.5166841287
 20
-531.4701036186
 11
51.5166841287
 21
-531.4701036186
  0
LINE
  5
25E
100
AcDbEntity
  8
0
100
AcDbLine
 62
7
  6
CONTINUOUS
 10
51.5166841287
 20
-522.4701036186
 11
42.5166841287
 21
-522.4701036186
  0
LINE
  5
25F
100
AcDbEntity
  8
0
100
AcDbLine
 62
7
  6
CONTINUOUS
 10
42.5166841287
 20
-515.5951036186
 11
51.5166841287
 21
-515.5951036186
  0
LINE
  5
260
100
AcDbEntity
  8
0
100
AcDbLine
 62
7
  6
CONTINUOUS
 10
0.3166841287
 20
-514.2251036186
 11
-8.6833158713
 21
-514.2251036186
  0
LINE
  5
261
100
AcDbEntity
  8
0
100
AcDbLine
 62
7
  6
CONTINUOUS
 10
51.5166841287
 20
-506.5951036186
 11
42.5166841287
 21
-506.5951036186
  0
LINE
  5
262
100
AcDbEntity
  8
0
100
AcDbLine
 62
7
  6
CONTINUOUS
 10
0.3166841287
 20
-505.2251036186
 11
-8.6833158713
 21
-505.2251036186
  0
LINE
  5
263
100
AcDbEntity
  8
0
100
AcDbLine
 62
7
  6
CONTINUOUS
 10
42.5166841287
 20
-499.7201036186
 11
51.5166841287
 21
-499.7201036186
  0
LINE
  5
264
100
AcDbEntity
  8
0
100
AcDbLine
 62
7
  6
CONTINUOUS
 10
51.5166841287
 20
-490.7201036186
 11
42.5166841287
 21
-490.7201036186
  0
LINE
  5
265
100
AcDbEntity
  8
0
100
AcDbLine
 62
7
  6
CONTINUOUS
 10
42.5166841287
 20
-487.0201036186
 11
51.5166841287
 21
-487.0201036186
  0
LINE
  5
266
100
AcDbEntity
  8
0
100
AcDbLine
 62
7
  6
CONTINUOUS
 10
51.5166841287
 20
-478.0201036186
 11
42.5166841287
 21
-478.0201036186
  0
LINE
  5
267
100
AcDbEntity
  8
0
100
AcDbLine
 62
7
  6
CONTINUOUS
 10
0.3166841287
 20
-471.1751036186
 11
-8.6833158713
 21
-471.1751036186
  0
LINE
  5
268
100
AcDbEntity
  8
0
100
AcDbLine
 62
7
  6
CONTINUOUS
 10
42.5166841287
 20
-471.1451036186
 11
51.5166841287
 21
-471.1451036186
  0
LINE
  5
269
100
AcDbEntity
  8
0
100
AcDbLine
 62
7
  6
CONTINUOUS
 10
0.3166841287
 20
-462.1751036186
 11
-8.6833158713
 21
-462.1751036186
  0
LINE
  5
26A
100
AcDbEntity
  8
0
100
AcDbLine
 62
7
  6
CONTINUOUS
 10
51.5166841287
 20
-462.1451036186
 11
42.5166841287
 21
-462.1451036186
  0
LINE
  5
26B
100
AcDbEntity
  8
0
100
AcDbLine
 62
7
  6
CONTINUOUS
 10
42.5166841287
 20
-455.2701036186
 11
51.5166841287
 21
-455.2701036186
  0
LINE
  5
26C
100
AcDbEntity
  8
0
100
AcDbLine
 62
7
  6
CONTINUOUS
 10
51.5166841287
 20
-446.2701036186
 11
42.5166841287
 21
-446.2701036186
  0
LINE
  5
26D
100
AcDbEntity
  8
0
100
AcDbLine
 62
7
  6
CONTINUOUS
 10
42.5166841287
 20
-442.5701036186
 11
51.5166841287
 21
-442.5701036186
  0
LINE
  5
26E
100
AcDbEntity
  8
0
100
AcDbLine
 62
7
  6
CONTINUOUS
 10
51.5166841287
 20
-433.5701036186
 11
42.5166841287
 21
-433.5701036186
  0
LINE
  5
26F
100
AcDbEntity
  8
0
100
AcDbLine
 62
7
  6
CONTINUOUS
 10
0.3166841287
 20
-428.1251036186
 11
-8.6833158713
 21
-428.1251036186
  0
LINE
  5
270
100
AcDbEntity
  8
0
100
AcDbLine
 62
7
  6
CONTINUOUS
 10
42.5166841287
 20
-426.6951036186
 11
51.5166841287
 21
-426.6951036186
  0
LINE
  5
271
100
AcDbEntity
  8
0
100
AcDbLine
 62
7
  6
CONTINUOUS
 10
0.3166841287
 20
-419.1251036186
 11
-8.6833158713
 21
-419.1251036186
  0
LINE
  5
272
100
AcDbEntity
  8
0
100
AcDbLine
 62
7
  6
CONTINUOUS
 10
51.5166841287
 20
-417.6951036186
 11
42.5166841287
 21
-417.6951036186
  0
LINE
  5
273
100
AcDbEntity
  8
0
100
AcDbLine
 62
7
  6
CONTINUOUS
 10
42.5166841287
 20
-410.8201036186
 11
51.5166841287
 21
-410.8201036186
  0
LINE
  5
274
100
AcDbEntity
  8
0
100
AcDbLine
 62
7
  6
CONTINUOUS
 10
51.5166841287
 20
-401.8201036186
 11
42.5166841287
 21
-401.8201036186
  0
LINE
  5
275
100
AcDbEntity
  8
0
100
AcDbLine
 62
7
  6
CONTINUOUS
 10
42.5166841287
 20
-398.1201036186
 11
51.5166841287
 21
-398.1201036186
  0
LINE
  5
276
100
AcDbEntity
  8
0
100
AcDbLine
 62
7
  6
CONTINUOUS
 10
51.5166841287
 20
-389.1201036186
 11
42.5166841287
 21
-389.1201036186
  0
LINE
  5
277
100
AcDbEntity
  8
0
100
AcDbLine
 62
7
  6
CONTINUOUS
 10
0.3166841287
 20
-385.0751036186
 11
-8.6833158713
 21
-385.0751036186
  0
LINE
  5
278
100
AcDbEntity
  8
0
100
AcDbLine
 62
7
  6
CONTINUOUS
 10
42.5166841287
 20
-382.2451036186
 11
51.5166841287
 21
-382.2451036186
  0
LINE
  5
279
100
AcDbEntity
  8
0
100
AcDbLine
 62
7
  6
CONTINUOUS
 10
0.3166841287
 20
-376.0751036186
 11
-8.6833158713
 21
-376.0751036186
  0
LINE
  5
27A
100
AcDbEntity
  8
0
100
AcDbLine
 62
7
  6
CONTINUOUS
 10
51.5166841287
 20
-373.2451036186
 11
42.5166841287
 21
-373.2451036186
  0
LINE
  5
27B
100
AcDbEntity
  8
0
100
AcDbLine
 62
7
  6
CONTINUOUS
 10
42.5166841287
 20
-366.3701036186
 11
51.5166841287
 21
-366.3701036186
  0
LINE
  5
27C
100
AcDbEntity
  8
0
100
AcDbLine
 62
7
  6
CONTINUOUS
 10
51.5166841287
 20
-357.3701036186
 11
42.5166841287
 21
-357.3701036186
  0
LINE
  5
27D
100
AcDbEntity
  8
0
100
AcDbLine
 62
7
  6
CONTINUOUS
 10
42.5166841287
 20
-353.6701036186
 11
51.5166841287
 21
-353.6701036186
  0
LINE
  5
27E
100
AcDbEntity
  8
0
100
AcDbLine
 62
7
  6
CONTINUOUS
 10
51.5166841287
 20
-344.6701036186
 11
42.5166841287
 21
-344.6701036186
  0
LINE
  5
27F
100
AcDbEntity
  8
0
100
AcDbLine
 62
7
  6
CONTINUOUS
 10
0.3166841287
 20
-342.0251036186
 11
-8.6833158713
 21
-342.0251036186
  0
LINE
  5
280
100
AcDbEntity
  8
0
100
AcDbLine
 62
7
  6
CONTINUOUS
 10
42.5166841287
 20
-337.7951036186
 11
51.5166841287
 21
-337.7951036186
  0
LINE
  5
281
100
AcDbEntity
  8
0
100
AcDbLine
 62
7
  6
CONTINUOUS
 10
0.3166841287
 20
-333.0251036186
 11
-8.6833158713
 21
-333.0251036186
  0
LINE
  5
282
100
AcDbEntity
  8
0
100
AcDbLine
 62
7
  6
CONTINUOUS
 10
51.5166841287
 20
-328.7951036186
 11
42.5166841287
 21
-328.7951036186
  0
LINE
  5
283
100
AcDbEntity
  8
0
100
AcDbLine
 62
7
  6
CONTINUOUS
 10
42.5166841287
 20
-321.9201036186
 11
51.5166841287
 21
-321.9201036186
  0
LINE
  5
284
100
AcDbEntity
  8
0
100
AcDbLine
 62
7
  6
CONTINUOUS
 10
51.5166841287
 20
-312.9201036186
 11
42.5166841287
 21
-312.9201036186
  0
LINE
  5
285
100
AcDbEntity
  8
0
100
AcDbLine
 62
7
  6
CONTINUOUS
 10
42.5166841287
 20
-309.2201036186
 11
51.5166841287
 21
-309.2201036186
  0
LINE
  5
286
100
AcDbEntity
  8
0
100
AcDbLine
 62
7
  6
CONTINUOUS
 10
51.5166841287
 20
-300.2201036186
 11
42.5166841287
 21
-300.2201036186
  0
LINE
  5
287
100
AcDbEntity
  8
0
100
AcDbLine
 62
7
  6
CONTINUOUS
 10
0.3166841287
 20
-298.9751036186
 11
-8.6833158713
 21
-298.9751036186
  0
LINE
  5
288
100
AcDbEntity
  8
0
100
AcDbLine
 62
7
  6
CONTINUOUS
 10
42.5166841287
 20
-293.3451036186
 11
51.5166841287
 21
-293.3451036186
  0
LINE
  5
289
100
AcDbEntity
  8
0
100
AcDbLine
 62
7
  6
CONTINUOUS
 10
0.3166841287
 20
-289.9751036186
 11
-8.6833158713
 21
-289.9751036186
  0
LINE
  5
28A
100
AcDbEntity
  8
0
100
AcDbLine
 62
7
  6
CONTINUOUS
 10
51.5166841287
 20
-284.3451036186
 11
42.5166841287
 21
-284.3451036186
  0
LINE
  5
28B
100
AcDbEntity
  8
0
100
AcDbLine
 62
7
  6
CONTINUOUS
 10
42.5166841287
 20
-277.4701036186
 11
51.5166841287
 21
-277.4701036186
  0
LINE
  5
28C
100
AcDbEntity
  8
0
100
AcDbLine
 62
7
  6
CONTINUOUS
 10
51.5166841287
 20
-268.4701036186
 11
42.5166841287
 21
-268.4701036186
  0
LINE
  5
28D
100
AcDbEntity
  8
0
100
AcDbLine
 62
7
  6
CONTINUOUS
 10
42.5166841287
 20
-264.7701036186
 11
51.5166841287
 21
-264.7701036186
  0
LINE
  5
28E
100
AcDbEntity
  8
0
100
AcDbLine
 62
7
  6
CONTINUOUS
 10
0.3166841287
 20
-255.9251036186
 11
-8.6833158713
 21
-255.9251036186
  0
LINE
  5
28F
100
AcDbEntity
  8
0
100
AcDbLine
 62
7
  6
CONTINUOUS
 10
51.5166841287
 20
-255.7701036186
 11
42.5166841287
 21
-255.7701036186
  0
LINE
  5
290
100
AcDbEntity
  8
0
100
AcDbLine
 62
7
  6
CONTINUOUS
 10
42.5166841287
 20
-248.8951036186
 11
51.5166841287
 21
-248.8951036186
  0
LINE
  5
291
100
AcDbEntity
  8
0
100
AcDbLine
 62
7
  6
CONTINUOUS
 10
0.3166841287
 20
-246.9251036186
 11
-8.6833158713
 21
-246.9251036186
  0
LINE
  5
292
100
AcDbEntity
  8
0
100
AcDbLine
 62
7
  6
CONTINUOUS
 10
51.5166841287
 20
-239.8951036186
 11
42.5166841287
 21
-239.8951036186
  0
LINE
  5
293
100
AcDbEntity
  8
0
100
AcDbLine
 62
7
  6
CONTINUOUS
 10
42.5166841287
 20
-233.0201036186
 11
51.5166841287
 21
-233.0201036186
  0
LINE
  5
294
100
AcDbEntity
  8
0
100
AcDbLine
 62
7
  6
CONTINUOUS
 10
51.5166841287
 20
-224.0201036186
 11
42.5166841287
 21
-224.0201036186
  0
LINE
  5
295
100
AcDbEntity
  8
0
100
AcDbLine
 62
7
  6
CONTINUOUS
 10
42.5166841287
 20
-220.3201036186
 11
51.5166841287
 21
-220.3201036186
  0
LINE
  5
296
100
AcDbEntity
  8
0
100
AcDbLine
 62
7
  6
CONTINUOUS
 10
0.3166841287
 20
-212.8751036186
 11
-8.6833158713
 21
-212.8751036186
  0
LINE
  5
297
100
AcDbEntity
  8
0
100
AcDbLine
 62
7
  6
CONTINUOUS
 10
51.5166841287
 20
-211.3201036186
 11
42.5166841287
 21
-211.3201036186
  0
LINE
  5
298
100
AcDbEntity
  8
0
100
AcDbLine
 62
7
  6
CONTINUOUS
 10
42.5166841287
 20
-204.4451036186
 11
51.5166841287
 21
-204.4451036186
  0
LINE
  5
299
100
AcDbEntity
  8
0
100
AcDbLine
 62
7
  6
CONTINUOUS
 10
0.3166841287
 20
-203.8751036186
 11
-8.6833158713
 21
-203.8751036186
  0
LINE
  5
29A
100
AcDbEntity
  8
0
100
AcDbLine
 62
7
  6
CONTINUOUS
 10
51.5166841287
 20
-195.4451036186
 11
42.5166841287
 21
-195.4451036186
  0
LINE
  5
29B
100
AcDbEntity
  8
0
100
AcDbLine
 62
7
  6
CONTINUOUS
 10
42.5166841287
 20
-188.5701036186
 11
51.5166841287
 21
-188.5701036186
  0
LINE
  5
29C
100
AcDbEntity
  8
0
100
AcDbLine
 62
7
  6
CONTINUOUS
 10
51.5166841287
 20
-179.5701036186
 11
42.5166841287
 21
-179.5701036186
  0
LINE
  5
29D
100
AcDbEntity
  8
0
100
AcDbLine
 62
7
  6
CONTINUOUS
 10
42.5166841287
 20
-175.8701036186
 11
51.5166841287
 21
-175.8701036186
  0
LINE
  5
29E
100
AcDbEntity
  8
0
100
AcDbLine
 62
7
  6
CONTINUOUS
 10
0.3166841287
 20
-169.8251036186
 11
-8.6833158713
 21
-169.8251036186
  0
LINE
  5
29F
100
AcDbEntity
  8
0
100
AcDbLine
 62
7
  6
CONTINUOUS
 10
51.5166841287
 20
-166.8701036186
 11
42.5166841287
 21
-166.8701036186
  0
LINE
  5
2A0
100
AcDbEntity
  8
0
100
AcDbLine
 62
7
  6
CONTINUOUS
 10
0.3166841287
 20
-160.8251036186
 11
-8.6833158713
 21
-160.8251036186
  0
LINE
  5
2A1
100
AcDbEntity
  8
0
100
AcDbLine
 62
7
  6
CONTINUOUS
 10
42.5166841287
 20
-159.9951036186
 11
51.5166841287
 21
-159.9951036186
  0
LINE
  5
2A2
100
AcDbEntity
  8
0
100
AcDbLine
 62
7
  6
CONTINUOUS
 10
51.5166841287
 20
-150.9951036186
 11
42.5166841287
 21
-150.9951036186
  0
LINE
  5
2A3
100
AcDbEntity
  8
0
100
AcDbLine
 62
7
  6
CONTINUOUS
 10
42.5166841287
 20
-144.1201036186
 11
51.5166841287
 21
-144.1201036186
  0
LINE
  5
2A4
100
AcDbEntity
  8
0
100
AcDbLine
 62
7
  6
CONTINUOUS
 10
51.5166841287
 20
-135.1201036186
 11
42.5166841287
 21
-135.1201036186
  0
LINE
  5
2A5
100
AcDbEntity
  8
0
100
AcDbLine
 62
7
  6
CONTINUOUS
 10
42.5166841287
 20
-131.4201036186
 11
51.5166841287
 21
-131.4201036186
  0
LINE
  5
2A6
100
AcDbEntity
  8
0
100
AcDbLine
 62
7
  6
CONTINUOUS
 10
0.3166841287
 20
-126.7751036186
 11
-8.6833158713
 21
-126.7751036186
  0
LINE
  5
2A7
100
AcDbEntity
  8
0
100
AcDbLine
 62
7
  6
CONTINUOUS
 10
51.5166841287
 20
-122.4201036186
 11
42.5166841287
 21
-122.4201036186
  0
LINE
  5
2A8
100
AcDbEntity
  8
0
100
AcDbLine
 62
7
  6
CONTINUOUS
 10
0.3166841287
 20
-117.7751036186
 11
-8.6833158713
 21
-117.7751036186
  0
LINE
  5
2A9
100
AcDbEntity
  8
0
100
AcDbLine
 62
7
  6
CONTINUOUS
 10
42.5166841287
 20
-115.5451036186
 11
51.5166841287
 21
-115.5451036186
  0
LINE
  5
2AA
100
AcDbEntity
  8
0
100
AcDbLine
 62
7
  6
CONTINUOUS
 10
51.5166841287
 20
-106.5451036186
 11
42.5166841287
 21
-106.5451036186
  0
LINE
  5
2AB
100
AcDbEntity
  8
0
100
AcDbLine
 62
7
  6
CONTINUOUS
 10
42.5166841287
 20
-99.6701036186
 11
51.5166841287
 21
-99.6701036186
  0
LINE
  5
2AC
100
AcDbEntity
  8
0
100
AcDbLine
 62
7
  6
CONTINUOUS
 10
51.5166841287
 20
-90.6701036186
 11
42.5166841287
 21
-90.6701036186
  0
LINE
  5
2AD
100
AcDbEntity
  8
0
100
AcDbLine
 62
7
  6
CONTINUOUS
 10
42.5166841287
 20
-86.9701036186
 11
51.5166841287
 21
-86.9701036186
  0
LINE
  5
2AE
100
AcDbEntity
  8
0
100
AcDbLine
 62
7
  6
CONTINUOUS
 10
0.3166841287
 20
-83.7251036186
 11
-8.6833158713
 21
-83.7251036186
  0
LINE
  5
2AF
100
AcDbEntity
  8
0
100
AcDbLine
 62
7
  6
CONTINUOUS
 10
51.5166841287
 20
-77.9701036186
 11
42.5166841287
 21
-77.9701036186
  0
LINE
  5
2B0
100
AcDbEntity
  8
0
100
AcDbLine
 62
7
  6
CONTINUOUS
 10
0.3166841287
 20
-74.7251036186
 11
-8.6833158713
 21
-74.7251036186
  0
LINE
  5
2B1
100
AcDbEntity
  8
0
100
AcDbLine
 62
7
  6
CONTINUOUS
 10
42.5166841287
 20
-71.0951036186
 11
51.5166841287
 21
-71.0951036186
  0
LINE
  5
2B2
100
AcDbEntity
  8
0
100
AcDbLine
 62
7
  6
CONTINUOUS
 10
51.5166841287
 20
-62.0951036186
 11
42.5166841287
 21
-62.0951036186
  0
LINE
  5
2B3
100
AcDbEntity
  8
0
100
AcDbLine
 62
7
  6
CONTINUOUS
 10
42.5166841287
 20
-55.2201036186
 11
51.5166841287
 21
-55.2201036186
  0
LINE
  5
2B4
100
AcDbEntity
  8
RACCORDO
100
AcDbLine
 62
7
  6
CONTINUOUS
 10
-54.6833158713
 20
-932.3751036186
 11
-54.6833158713
 21
932.6248963814
  0
LINE
  5
2B5
100
AcDbEntity
  8
RACCORDO
100
AcDbLine
 62
7
  6
CONTINUOUS
 10
-52.6833158713
 20
932.6248963814
 11
-52.6833158713
 21
-932.3751036186
  0
LINE
  5
2B6
100
AcDbEntity
  8
0
100
AcDbLine
 62
253
  6
CONTINUOUS
 10
-49.6833158713
 20
932.6248963814
 11
-49.6833158713
 21
-932.3751036186
  0
LINE
  5
2B7
100
AcDbEntity
  8
RACCORDO
100
AcDbLine
 62
7
  6
CONTINUOUS
 10
-49.6833158713
 20
-951.3751036186
 11
-49.6833158713
 21
-932.3751036186
  0
LINE
  5
2B8
100
AcDbEntity
  8
RACCORDO
100
AcDbLine
 62
7
  6
CONTINUOUS
 10
-49.6833158713
 20
932.6248963814
 11
-49.6833158713
 21
951.6248963814
  0
LINE
  5
2B9
100
AcDbEntity
  8
ASSI
100
AcDbLine
 62
7
  6
CONTINUOUS
 10
-42.6833158713
 20
945.3248963814
 11
-42.6833158713
 21
941.9248963814
  0
LINE
  5
2BA
100
AcDbEntity
  8
ASSI
100
AcDbLine
 62
7
  6
CONTINUOUS
 10
-42.6833158713
 20
-941.6751036186
 11
-42.6833158713
 21
-945.0751036186
  0
LINE
  5
2BB
100
AcDbEntity
  8
ASSI
100
AcDbLine
 62
7
  6
CONTINUOUS
 10
-35.6833158713
 20
-945.0751036186
 11
-35.6833158713
 21
-941.6751036186
  0
LINE
  5
2BC
100
AcDbEntity
  8
ASSI
100
AcDbLine
 62
7
  6
CONTINUOUS
 10
-35.6833158713
 20
941.9248963814
 11
-35.6833158713
 21
945.3248963814
  0
LINE
  5
2BD
100
AcDbEntity
  8
0
100
AcDbLine
 62
7
  6
CONTINUOUS
 10
-8.6833158713
 20
953.6248963814
 11
-8.6833158713
 21
950.9248963814
  0
LINE
  5
2BE
100
AcDbEntity
  8
0
100
AcDbLine
 62
7
  6
CONTINUOUS
 10
-8.6833158713
 20
915.4248963814
 11
-8.6833158713
 21
906.4248963814
  0
LINE
  5
2BF
100
AcDbEntity
  8
0
100
AcDbLine
 62
7
  6
CONTINUOUS
 10
-8.6833158713
 20
-953.3751036186
 11
-8.6833158713
 21
-950.6751036186
  0
LINE
  5
2C0
100
AcDbEntity
  8
0
100
AcDbLine
 62
7
  6
CONTINUOUS
 10
-8.6833158713
 20
872.3748963814
 11
-8.6833158713
 21
863.3748963814
  0
LINE
  5
2C1
100
AcDbEntity
  8
0
100
AcDbLine
 62
7
  6
CONTINUOUS
 10
-8.6833158713
 20
829.3248963814
 11
-8.6833158713
 21
820.3248963814
  0
LINE
  5
2C2
100
AcDbEntity
  8
0
100
AcDbLine
 62
7
  6
CONTINUOUS
 10
-8.6833158713
 20
786.2748963814
 11
-8.6833158713
 21
777.2748963814
  0
LINE
  5
2C3
100
AcDbEntity
  8
0
100
AcDbLine
 62
7
  6
CONTINUOUS
 10
-8.6833158713
 20
743.2248963814
 11
-8.6833158713
 21
734.2248963814
  0
LINE
  5
2C4
100
AcDbEntity
  8
0
100
AcDbLine
 62
7
  6
CONTINUOUS
 10
-8.6833158713
 20
700.1748963814
 11
-8.6833158713
 21
691.1748963814
  0
LINE
  5
2C5
100
AcDbEntity
  8
0
100
AcDbLine
 62
7
  6
CONTINUOUS
 10
-8.6833158713
 20
657.1248963814
 11
-8.6833158713
 21
648.1248963814
  0
LINE
  5
2C6
100
AcDbEntity
  8
0
100
AcDbLine
 62
7
  6
CONTINUOUS
 10
-8.6833158713
 20
614.0748963814
 11
-8.6833158713
 21
605.0748963814
  0
LINE
  5
2C7
100
AcDbEntity
  8
0
100
AcDbLine
 62
7
  6
CONTINUOUS
 10
-8.6833158713
 20
571.0248963814
 11
-8.6833158713
 21
562.0248963814
  0
LINE
  5
2C8
100
AcDbEntity
  8
0
100
AcDbLine
 62
7
  6
CONTINUOUS
 10
-8.6833158713
 20
527.9748963814
 11
-8.6833158713
 21
518.9748963814
  0
LINE
  5
2C9
100
AcDbEntity
  8
0
100
AcDbLine
 62
7
  6
CONTINUOUS
 10
-8.6833158713
 20
484.9248963814
 11
-8.6833158713
 21
475.9248963814
  0
LINE
  5
2CA
100
AcDbEntity
  8
0
100
AcDbLine
 62
7
  6
CONTINUOUS
 10
-8.6833158713
 20
441.8748963814
 11
-8.6833158713
 21
432.8748963814
  0
LINE
  5
2CB
100
AcDbEntity
  8
0
100
AcDbLine
 62
7
  6
CONTINUOUS
 10
-8.6833158713
 20
398.8248963814
 11
-8.6833158713
 21
389.8248963814
  0
LINE
  5
2CC
100
AcDbEntity
  8
0
100
AcDbLine
 62
7
  6
CONTINUOUS
 10
-8.6833158713
 20
355.7748963814
 11
-8.6833158713
 21
346.7748963814
  0
LINE
  5
2CD
100
AcDbEntity
  8
0
100
AcDbLine
 62
7
  6
CONTINUOUS
 10
-8.6833158713
 20
312.7248963814
 11
-8.6833158713
 21
303.7248963814
  0
LINE
  5
2CE
100
AcDbEntity
  8
0
100
AcDbLine
 62
7
  6
CONTINUOUS
 10
-8.6833158713
 20
269.6748963814
 11
-8.6833158713
 21
260.6748963814
  0
LINE
  5
2CF
100
AcDbEntity
  8
0
100
AcDbLine
 62
7
  6
CONTINUOUS
 10
-8.6833158713
 20
226.6248963814
 11
-8.6833158713
 21
217.6248963814
  0
LINE
  5
2D0
100
AcDbEntity
  8
0
100
AcDbLine
 62
7
  6
CONTINUOUS
 10
-8.6833158713
 20
183.5748963814
 11
-8.6833158713
 21
174.5748963814
  0
LINE
  5
2D1
100
AcDbEntity
  8
0
100
AcDbLine
 62
7
  6
CONTINUOUS
 10
-8.6833158713
 20
140.5248963814
 11
-8.6833158713
 21
131.5248963814
  0
LINE
  5
2D2
100
AcDbEntity
  8
0
100
AcDbLine
 62
7
  6
CONTINUOUS
 10
-8.6833158713
 20
97.4748963814
 11
-8.6833158713
 21
88.4748963814
  0
LINE
  5
2D3
100
AcDbEntity
  8
0
100
AcDbLine
 62
7
  6
CONTINUOUS
 10
-8.6833158713
 20
54.4248963814
 11
-8.6833158713
 21
45.4248963814
  0
LINE
  5
2D4
100
AcDbEntity
  8
0
100
AcDbLine
 62
7
  6
CONTINUOUS
 10
-8.6833158713
 20
11.3748963814
 11
-8.6833158713
 21
2.3748963814
  0
LINE
  5
2D5
100
AcDbEntity
  8
0
100
AcDbLine
 62
7
  6
CONTINUOUS
 10
-8.6833158713
 20
-31.6751036186
 11
-8.6833158713
 21
-40.6751036186
  0
LINE
  5
2D6
100
AcDbEntity
  8
0
100
AcDbLine
 62
7
  6
CONTINUOUS
 10
-8.6833158713
 20
-74.7251036186
 11
-8.6833158713
 21
-83.7251036186
  0
LINE
  5
2D7
100
AcDbEntity
  8
0
100
AcDbLine
 62
7
  6
CONTINUOUS
 10
-8.6833158713
 20
-117.7751036186
 11
-8.6833158713
 21
-126.7751036186
  0
LINE
  5
2D8
100
AcDbEntity
  8
0
100
AcDbLine
 62
7
  6
CONTINUOUS
 10
-8.6833158713
 20
-160.8251036186
 11
-8.6833158713
 21
-169.8251036186
  0
LINE
  5
2D9
100
AcDbEntity
  8
0
100
AcDbLine
 62
7
  6
CONTINUOUS
 10
-8.6833158713
 20
-203.8751036186
 11
-8.6833158713
 21
-212.8751036186
  0
LINE
  5
2DA
100
AcDbEntity
  8
0
100
AcDbLine
 62
7
  6
CONTINUOUS
 10
-8.6833158713
 20
-246.9251036186
 11
-8.6833158713
 21
-255.9251036186
  0
LINE
  5
2DB
100
AcDbEntity
  8
0
100
AcDbLine
 62
7
  6
CONTINUOUS
 10
-8.6833158713
 20
-289.9751036186
 11
-8.6833158713
 21
-298.9751036186
  0
LINE
  5
2DC
100
AcDbEntity
  8
0
100
AcDbLine
 62
7
  6
CONTINUOUS
 10
-8.6833158713
 20
-333.0251036186
 11
-8.6833158713
 21
-342.0251036186
  0
LINE
  5
2DD
100
AcDbEntity
  8
0
100
AcDbLine
 62
7
  6
CONTINUOUS
 10
-8.6833158713
 20
-376.0751036186
 11
-8.6833158713
 21
-385.0751036186
  0
LINE
  5
2DE
100
AcDbEntity
  8
0
100
AcDbLine
 62
7
  6
CONTINUOUS
 10
-8.6833158713
 20
-419.1251036186
 11
-8.6833158713
 21
-428.1251036186
  0
LINE
  5
2DF
100
AcDbEntity
  8
0
100
AcDbLine
 62
7
  6
CONTINUOUS
 10
-8.6833158713
 20
-462.1751036186
 11
-8.6833158713
 21
-471.1751036186
  0
LINE
  5
2E0
100
AcDbEntity
  8
0
100
AcDbLine
 62
7
  6
CONTINUOUS
 10
-8.6833158713
 20
-505.2251036186
 11
-8.6833158713
 21
-514.2251036186
  0
LINE
  5
2E1
100
AcDbEntity
  8
0
100
AcDbLine
 62
7
  6
CONTINUOUS
 10
-8.6833158713
 20
-548.2751036186
 11
-8.6833158713
 21
-557.2751036186
  0
LINE
  5
2E2
100
AcDbEntity
  8
0
100
AcDbLine
 62
7
  6
CONTINUOUS
 10
-8.6833158713
 20
-591.3251036186
 11
-8.6833158713
 21
-600.3251036186
  0
LINE
  5
2E3
100
AcDbEntity
  8
0
100
AcDbLine
 62
7
  6
CONTINUOUS
 10
-8.6833158713
 20
-634.3751036186
 11
-8.6833158713
 21
-643.3751036186
  0
LINE
  5
2E4
100
AcDbEntity
  8
0
100
AcDbLine
 62
7
  6
CONTINUOUS
 10
-8.6833158713
 20
-677.4251036186
 11
-8.6833158713
 21
-686.4251036186
  0
LINE
  5
2E5
100
AcDbEntity
  8
0
100
AcDbLine
 62
7
  6
CONTINUOUS
 10
-8.6833158713
 20
-720.4751036186
 11
-8.6833158713
 21
-729.4751036186
  0
LINE
  5
2E6
100
AcDbEntity
  8
0
100
AcDbLine
 62
7
  6
CONTINUOUS
 10
-8.6833158713
 20
-763.5251036186
 11
-8.6833158713
 21
-772.5251036186
  0
LINE
  5
2E7
100
AcDbEntity
  8
0
100
AcDbLine
 62
7
  6
CONTINUOUS
 10
-8.6833158713
 20
-806.5751036186
 11
-8.6833158713
 21
-815.5751036186
  0
LINE
  5
2E8
100
AcDbEntity
  8
0
100
AcDbLine
 62
7
  6
CONTINUOUS
 10
-8.6833158713
 20
-849.6251036186
 11
-8.6833158713
 21
-858.6251036186
  0
LINE
  5
2E9
100
AcDbEntity
  8
0
100
AcDbLine
 62
7
  6
CONTINUOUS
 10
0.3166841287
 20
953.6248963814
 11
0.3166841287
 21
950.9248963814
  0
LINE
  5
2EA
100
AcDbEntity
  8
0
100
AcDbLine
 62
7
  6
CONTINUOUS
 10
0.3166841287
 20
-953.3751036186
 11
0.3166841287
 21
-950.6751036186
  0
LINE
  5
2EB
100
AcDbEntity
  8
0
100
AcDbLine
 62
7
  6
CONTINUOUS
 10
0.3166841287
 20
-858.6251036186
 11
0.3166841287
 21
-849.6251036186
  0
LINE
  5
2EC
100
AcDbEntity
  8
0
100
AcDbLine
 62
7
  6
CONTINUOUS
 10
0.3166841287
 20
-815.5751036186
 11
0.3166841287
 21
-806.5751036186
  0
LINE
  5
2ED
100
AcDbEntity
  8
0
100
AcDbLine
 62
7
  6
CONTINUOUS
 10
0.3166841287
 20
-772.5251036186
 11
0.3166841287
 21
-763.5251036186
  0
LINE
  5
2EE
100
AcDbEntity
  8
0
100
AcDbLine
 62
7
  6
CONTINUOUS
 10
0.3166841287
 20
-729.4751036186
 11
0.3166841287
 21
-720.4751036186
  0
LINE
  5
2EF
100
AcDbEntity
  8
0
100
AcDbLine
 62
7
  6
CONTINUOUS
 10
0.3166841287
 20
-686.4251036186
 11
0.3166841287
 21
-677.4251036186
  0
LINE
  5
2F0
100
AcDbEntity
  8
0
100
AcDbLine
 62
7
  6
CONTINUOUS
 10
0.3166841287
 20
-643.3751036186
 11
0.3166841287
 21
-634.3751036186
  0
LINE
  5
2F1
100
AcDbEntity
  8
0
100
AcDbLine
 62
7
  6
CONTINUOUS
 10
0.3166841287
 20
-600.3251036186
 11
0.3166841287
 21
-591.3251036186
  0
LINE
  5
2F2
100
AcDbEntity
  8
0
100
AcDbLine
 62
7
  6
CONTINUOUS
 10
0.3166841287
 20
-557.2751036186
 11
0.3166841287
 21
-548.2751036186
  0
LINE
  5
2F3
100
AcDbEntity
  8
0
100
AcDbLine
 62
7
  6
CONTINUOUS
 10
0.3166841287
 20
-514.2251036186
 11
0.3166841287
 21
-505.2251036186
  0
LINE
  5
2F4
100
AcDbEntity
  8
0
100
AcDbLine
 62
7
  6
CONTINUOUS
 10
0.3166841287
 20
-471.1751036186
 11
0.3166841287
 21
-462.1751036186
  0
LINE
  5
2F5
100
AcDbEntity
  8
0
100
AcDbLine
 62
7
  6
CONTINUOUS
 10
0.3166841287
 20
-428.1251036186
 11
0.3166841287
 21
-419.1251036186
  0
LINE
  5
2F6
100
AcDbEntity
  8
0
100
AcDbLine
 62
7
  6
CONTINUOUS
 10
0.3166841287
 20
-385.0751036186
 11
0.3166841287
 21
-376.0751036186
  0
LINE
  5
2F7
100
AcDbEntity
  8
0
100
AcDbLine
 62
7
  6
CONTINUOUS
 10
0.3166841287
 20
-342.0251036186
 11
0.3166841287
 21
-333.0251036186
  0
LINE
  5
2F8
100
AcDbEntity
  8
0
100
AcDbLine
 62
7
  6
CONTINUOUS
 10
0.3166841287
 20
-298.9751036186
 11
0.3166841287
 21
-289.9751036186
  0
LINE
  5
2F9
100
AcDbEntity
  8
0
100
AcDbLine
 62
7
  6
CONTINUOUS
 10
0.3166841287
 20
-255.9251036186
 11
0.3166841287
 21
-246.9251036186
  0
LINE
  5
2FA
100
AcDbEntity
  8
0
100
AcDbLine
 62
7
  6
CONTINUOUS
 10
0.3166841287
 20
-212.8751036186
 11
0.3166841287
 21
-203.8751036186
  0
LINE
  5
2FB
100
AcDbEntity
  8
0
100
AcDbLine
 62
7
  6
CONTINUOUS
 10
0.3166841287
 20
-169.8251036186
 11
0.3166841287
 21
-160.8251036186
  0
LINE
  5
2FC
100
AcDbEntity
  8
0
100
AcDbLine
 62
7
  6
CONTINUOUS
 10
0.3166841287
 20
-126.7751036186
 11
0.3166841287
 21
-117.7751036186
  0
LINE
  5
2FD
100
AcDbEntity
  8
0
100
AcDbLine
 62
7
  6
CONTINUOUS
 10
0.3166841287
 20
-83.7251036186
 11
0.3166841287
 21
-74.7251036186
  0
LINE
  5
2FE
100
AcDbEntity
  8
0
100
AcDbLine
 62
7
  6
CONTINUOUS
 10
0.3166841287
 20
-40.6751036186
 11
0.3166841287
 21
-31.6751036186
  0
LINE
  5
2FF
100
AcDbEntity
  8
0
100
AcDbLine
 62
7
  6
CONTINUOUS
 10
0.3166841287
 20
2.3748963814
 11
0.3166841287
 21
11.3748963814
  0
LINE
  5
300
100
AcDbEntity
  8
0
100
AcDbLine
 62
7
  6
CONTINUOUS
 10
0.3166841287
 20
45.4248963814
 11
0.3166841287
 21
54.4248963814
  0
LINE
  5
301
100
AcDbEntity
  8
0
100
AcDbLine
 62
7
  6
CONTINUOUS
 10
0.3166841287
 20
88.4748963814
 11
0.3166841287
 21
97.4748963814
  0
LINE
  5
302
100
AcDbEntity
  8
0
100
AcDbLine
 62
7
  6
CONTINUOUS
 10
0.3166841287
 20
131.5248963814
 11
0.3166841287
 21
140.5248963814
  0
LINE
  5
303
100
AcDbEntity
  8
0
100
AcDbLine
 62
7
  6
CONTINUOUS
 10
0.3166841287
 20
174.5748963814
 11
0.3166841287
 21
183.5748963814
  0
LINE
  5
304
100
AcDbEntity
  8
0
100
AcDbLine
 62
7
  6
CONTINUOUS
 10
0.3166841287
 20
217.6248963814
 11
0.3166841287
 21
226.6248963814
  0
LINE
  5
305
100
AcDbEntity
  8
0
100
AcDbLine
 62
7
  6
CONTINUOUS
 10
0.3166841287
 20
260.6748963814
 11
0.3166841287
 21
269.6748963814
  0
LINE
  5
306
100
AcDbEntity
  8
0
100
AcDbLine
 62
7
  6
CONTINUOUS
 10
0.3166841287
 20
303.7248963814
 11
0.3166841287
 21
312.7248963814
  0
LINE
  5
307
100
AcDbEntity
  8
0
100
AcDbLine
 62
7
  6
CONTINUOUS
 10
0.3166841287
 20
346.7748963814
 11
0.3166841287
 21
355.7748963814
  0
LINE
  5
308
100
AcDbEntity
  8
0
100
AcDbLine
 62
7
  6
CONTINUOUS
 10
0.3166841287
 20
389.8248963814
 11
0.3166841287
 21
398.8248963814
  0
LINE
  5
309
100
AcDbEntity
  8
0
100
AcDbLine
 62
7
  6
CONTINUOUS
 10
0.3166841287
 20
432.8748963814
 11
0.3166841287
 21
441.8748963814
  0
LINE
  5
30A
100
AcDbEntity
  8
0
100
AcDbLine
 62
7
  6
CONTINUOUS
 10
0.3166841287
 20
475.9248963814
 11
0.3166841287
 21
484.9248963814
  0
LINE
  5
30B
100
AcDbEntity
  8
0
100
AcDbLine
 62
7
  6
CONTINUOUS
 10
0.3166841287
 20
518.9748963814
 11
0.3166841287
 21
527.9748963814
  0
LINE
  5
30C
100
AcDbEntity
  8
0
100
AcDbLine
 62
7
  6
CONTINUOUS
 10
0.3166841287
 20
562.0248963814
 11
0.3166841287
 21
571.0248963814
  0
LINE
  5
30D
100
AcDbEntity
  8
0
100
AcDbLine
 62
7
  6
CONTINUOUS
 10
0.3166841287
 20
605.0748963814
 11
0.3166841287
 21
614.0748963814
  0
LINE
  5
30E
100
AcDbEntity
  8
0
100
AcDbLine
 62
7
  6
CONTINUOUS
 10
0.3166841287
 20
648.1248963814
 11
0.3166841287
 21
657.1248963814
  0
LINE
  5
30F
100
AcDbEntity
  8
0
100
AcDbLine
 62
7
  6
CONTINUOUS
 10
0.3166841287
 20
691.1748963814
 11
0.3166841287
 21
700.1748963814
  0
LINE
  5
310
100
AcDbEntity
  8
0
100
AcDbLine
 62
7
  6
CONTINUOUS
 10
0.3166841287
 20
734.2248963814
 11
0.3166841287
 21
743.2248963814
  0
LINE
  5
311
100
AcDbEntity
  8
0
100
AcDbLine
 62
7
  6
CONTINUOUS
 10
0.3166841287
 20
777.2748963814
 11
0.3166841287
 21
786.2748963814
  0
LINE
  5
312
100
AcDbEntity
  8
0
100
AcDbLine
 62
7
  6
CONTINUOUS
 10
0.3166841287
 20
820.3248963814
 11
0.3166841287
 21
829.3248963814
  0
LINE
  5
313
100
AcDbEntity
  8
0
100
AcDbLine
 62
7
  6
CONTINUOUS
 10
0.3166841287
 20
863.3748963814
 11
0.3166841287
 21
872.3748963814
  0
LINE
  5
314
100
AcDbEntity
  8
0
100
AcDbLine
 62
7
  6
CONTINUOUS
 10
0.3166841287
 20
906.4248963814
 11
0.3166841287
 21
915.4248963814
  0
LINE
  5
315
100
AcDbEntity
  8
0
100
AcDbLine
 62
7
  6
CONTINUOUS
 10
51.5166841287
 20
-46.2201036186
 11
42.5166841287
 21
-46.2201036186
  0
LINE
  5
316
100
AcDbEntity
  8
0
100
AcDbLine
 62
7
  6
CONTINUOUS
 10
42.5166841287
 20
-42.5201036186
 11
51.5166841287
 21
-42.5201036186
  0
LINE
  5
317
100
AcDbEntity
  8
0
100
AcDbLine
 62
7
  6
CONTINUOUS
 10
0.3166841287
 20
-40.6751036186
 11
-8.6833158713
 21
-40.6751036186
  0
LINE
  5
318
100
AcDbEntity
  8
0
100
AcDbLine
 62
7
  6
CONTINUOUS
 10
51.5166841287
 20
-33.5201036186
 11
42.5166841287
 21
-33.5201036186
  0
LINE
  5
319
100
AcDbEntity
  8
0
100
AcDbLine
 62
7
  6
CONTINUOUS
 10
0.3166841287
 20
-31.6751036186
 11
-8.6833158713
 21
-31.6751036186
  0
LINE
  5
31A
100
AcDbEntity
  8
0
100
AcDbLine
 62
7
  6
CONTINUOUS
 10
42.5166841287
 20
-26.6451036186
 11
51.5166841287
 21
-26.6451036186
  0
LINE
  5
31B
100
AcDbEntity
  8
0
100
AcDbLine
 62
7
  6
CONTINUOUS
 10
51.5166841287
 20
-17.6451036186
 11
42.5166841287
 21
-17.6451036186
  0
LINE
  5
31C
100
AcDbEntity
  8
0
100
AcDbLine
 62
7
  6
CONTINUOUS
 10
42.5166841287
 20
-10.7701036186
 11
51.5166841287
 21
-10.7701036186
  0
LINE
  5
31D
100
AcDbEntity
  8
0
100
AcDbLine
 62
7
  6
CONTINUOUS
 10
51.5166841287
 20
-1.7701036186
 11
42.5166841287
 21
-1.7701036186
  0
LINE
  5
31E
100
AcDbEntity
  8
0
100
AcDbLine
 62
7
  6
CONTINUOUS
 10
42.5166841287
 20
1.9298963814
 11
51.5166841287
 21
1.9298963814
  0
LINE
  5
31F
100
AcDbEntity
  8
0
100
AcDbLine
 62
7
  6
CONTINUOUS
 10
0.3166841287
 20
2.3748963814
 11
-8.6833158713
 21
2.3748963814
  0
LINE
  5
320
100
AcDbEntity
  8
ASSI
100
AcDbLine
 62
7
  6
CONTINUOUS
 10
10.3166841287
 20
945.3248963814
 11
10.3166841287
 21
941.9248963814
  0
LINE
  5
321
100
AcDbEntity
  8
ASSI
100
AcDbLine
 62
7
  6
CONTINUOUS
 10
10.3166841287
 20
-941.6751036186
 11
10.3166841287
 21
-945.0751036186
  0
LINE
  5
322
100
AcDbEntity
  8
ASSI
100
AcDbLine
 62
7
  6
CONTINUOUS
 10
17.3166841287
 20
-945.0751036186
 11
17.3166841287
 21
-941.6751036186
  0
LINE
  5
323
100
AcDbEntity
  8
ASSI
100
AcDbLine
 62
7
  6
CONTINUOUS
 10
17.3166841287
 20
941.9248963814
 11
17.3166841287
 21
945.3248963814
  0
LINE
  5
324
100
AcDbEntity
  8
RACCORDO
100
AcDbLine
 62
7
  6
CONTINUOUS
 10
24.3166841287
 20
951.6248963814
 11
24.3166841287
 21
925.1248963814
  0
LINE
  5
325
100
AcDbEntity
  8
0
100
AcDbLine
 62
253
  6
CONTINUOUS
 10
24.3166841287
 20
925.1248963814
 11
24.3166841287
 21
-924.8751036186
  0
LINE
  5
326
100
AcDbEntity
  8
RACCORDO
100
AcDbLine
 62
7
  6
CONTINUOUS
 10
24.3166841287
 20
-951.3751036186
 11
24.3166841287
 21
-924.8751036186
  0
LINE
  5
327
100
AcDbEntity
  8
0
100
AcDbLine
 62
7
  6
CONTINUOUS
 10
27.3166841287
 20
925.1248963814
 11
27.3166841287
 21
-924.8751036186
  0
LINE
  5
328
100
AcDbEntity
  8
0
100
AcDbLine
 62
253
  6
CONTINUOUS
 10
27.8166841287
 20
925.1248963814
 11
27.8166841287
 21
-924.8751036186
  0
LINE
  5
329
100
AcDbEntity
  8
RACCORDO
100
AcDbLine
 62
7
  6
CONTINUOUS
 10
40.8166841287
 20
923.1248963814
 11
40.8166841287
 21
920.6248963814
  0
LINE
  5
32A
100
AcDbEntity
  8
RACCORDO
100
AcDbLine
 62
7
  6
CONTINUOUS
 10
40.8166841287
 20
-922.8751036186
 11
40.8166841287
 21
-920.3751036186
  0
LINE
  5
32B
100
AcDbEntity
  8
0
100
AcDbLine
 62
7
  6
CONTINUOUS
 10
42.5166841287
 20
915.8048963814
 11
42.5166841287
 21
906.8048963814
  0
LINE
  5
32C
100
AcDbEntity
  8
0
100
AcDbLine
 62
7
  6
CONTINUOUS
 10
42.5166841287
 20
899.9298963814
 11
42.5166841287
 21
890.9298963814
  0
LINE
  5
32D
100
AcDbEntity
  8
0
100
AcDbLine
 62
7
  6
CONTINUOUS
 10
42.5166841287
 20
887.2298963814
 11
42.5166841287
 21
878.2298963814
  0
LINE
  5
32E
100
AcDbEntity
  8
0
100
AcDbLine
 62
7
  6
CONTINUOUS
 10
42.5166841287
 20
871.3548963814
 11
42.5166841287
 21
862.3548963814
  0
LINE
  5
32F
100
AcDbEntity
  8
0
100
AcDbLine
 62
7
  6
CONTINUOUS
 10
42.5166841287
 20
855.4798963814
 11
42.5166841287
 21
846.4798963814
  0
LINE
  5
330
100
AcDbEntity
  8
0
100
AcDbLine
 62
7
  6
CONTINUOUS
 10
42.5166841287
 20
842.7798963814
 11
42.5166841287
 21
833.7798963814
  0
LINE
  5
331
100
AcDbEntity
  8
0
100
AcDbLine
 62
7
  6
CONTINUOUS
 10
42.5166841287
 20
826.9048963814
 11
42.5166841287
 21
817.9048963814
  0
LINE
  5
332
100
AcDbEntity
  8
0
100
AcDbLine
 62
7
  6
CONTINUOUS
 10
42.5166841287
 20
811.0298963814
 11
42.5166841287
 21
802.0298963814
  0
LINE
  5
333
100
AcDbEntity
  8
0
100
AcDbLine
 62
7
  6
CONTINUOUS
 10
42.5166841287
 20
798.3298963814
 11
42.5166841287
 21
789.3298963814
  0
LINE
  5
334
100
AcDbEntity
  8
0
100
AcDbLine
 62
7
  6
CONTINUOUS
 10
42.5166841287
 20
782.4548963814
 11
42.5166841287
 21
773.4548963814
  0
LINE
  5
335
100
AcDbEntity
  8
0
100
AcDbLine
 62
7
  6
CONTINUOUS
 10
42.5166841287
 20
766.5798963814
 11
42.5166841287
 21
757.5798963814
  0
LINE
  5
336
100
AcDbEntity
  8
0
100
AcDbLine
 62
7
  6
CONTINUOUS
 10
42.5166841287
 20
753.8798963814
 11
42.5166841287
 21
744.8798963814
  0
LINE
  5
337
100
AcDbEntity
  8
0
100
AcDbLine
 62
7
  6
CONTINUOUS
 10
42.5166841287
 20
738.0048963814
 11
42.5166841287
 21
729.0048963814
  0
LINE
  5
338
100
AcDbEntity
  8
0
100
AcDbLine
 62
7
  6
CONTINUOUS
 10
42.5166841287
 20
722.1298963814
 11
42.5166841287
 21
713.1298963814
  0
LINE
  5
339
100
AcDbEntity
  8
0
100
AcDbLine
 62
7
  6
CONTINUOUS
 10
42.5166841287
 20
709.4298963814
 11
42.5166841287
 21
700.4298963814
  0
LINE
  5
33A
100
AcDbEntity
  8
0
100
AcDbLine
 62
7
  6
CONTINUOUS
 10
42.5166841287
 20
693.5548963814
 11
42.5166841287
 21
684.5548963814
  0
LINE
  5
33B
100
AcDbEntity
  8
0
100
AcDbLine
 62
7
  6
CONTINUOUS
 10
42.5166841287
 20
677.6798963814
 11
42.5166841287
 21
668.6798963814
  0
LINE
  5
33C
100
AcDbEntity
  8
0
100
AcDbLine
 62
7
  6
CONTINUOUS
 10
42.5166841287
 20
664.9798963814
 11
42.5166841287
 21
655.9798963814
  0
LINE
  5
33D
100
AcDbEntity
  8
0
100
AcDbLine
 62
7
  6
CONTINUOUS
 10
42.5166841287
 20
649.1048963814
 11
42.5166841287
 21
640.1048963814
  0
LINE
  5
33E
100
AcDbEntity
  8
0
100
AcDbLine
 62
7
  6
CONTINUOUS
 10
42.5166841287
 20
633.2298963814
 11
42.5166841287
 21
624.2298963814
  0
LINE
  5
33F
100
AcDbEntity
  8
0
100
AcDbLine
 62
7
  6
CONTINUOUS
 10
42.5166841287
 20
620.5298963814
 11
42.5166841287
 21
611.5298963814
  0
LINE
  5
340
100
AcDbEntity
  8
0
100
AcDbLine
 62
7
  6
CONTINUOUS
 10
42.5166841287
 20
604.6548963814
 11
42.5166841287
 21
595.6548963814
  0
LINE
  5
341
100
AcDbEntity
  8
0
100
AcDbLine
 62
7
  6
CONTINUOUS
 10
42.5166841287
 20
588.7798963814
 11
42.5166841287
 21
579.7798963814
  0
LINE
  5
342
100
AcDbEntity
  8
0
100
AcDbLine
 62
7
  6
CONTINUOUS
 10
42.5166841287
 20
576.0798963814
 11
42.5166841287
 21
567.0798963814
  0
LINE
  5
343
100
AcDbEntity
  8
0
100
AcDbLine
 62
7
  6
CONTINUOUS
 10
42.5166841287
 20
560.2048963814
 11
42.5166841287
 21
551.2048963814
  0
LINE
  5
344
100
AcDbEntity
  8
0
100
AcDbLine
 62
7
  6
CONTINUOUS
 10
42.5166841287
 20
544.3298963814
 11
42.5166841287
 21
535.3298963814
  0
LINE
  5
345
100
AcDbEntity
  8
0
100
AcDbLine
 62
7
  6
CONTINUOUS
 10
42.5166841287
 20
531.6298963814
 11
42.5166841287
 21
522.6298963814
  0
LINE
  5
346
100
AcDbEntity
  8
0
100
AcDbLine
 62
7
  6
CONTINUOUS
 10
42.5166841287
 20
515.7548963814
 11
42.5166841287
 21
506.7548963814
  0
LINE
  5
347
100
AcDbEntity
  8
0
100
AcDbLine
 62
7
  6
CONTINUOUS
 10
42.5166841287
 20
499.8798963814
 11
42.5166841287
 21
490.8798963814
  0
LINE
  5
348
100
AcDbEntity
  8
0
100
AcDbLine
 62
7
  6
CONTINUOUS
 10
42.5166841287
 20
487.1798963814
 11
42.5166841287
 21
478.1798963814
  0
LINE
  5
349
100
AcDbEntity
  8
0
100
AcDbLine
 62
7
  6
CONTINUOUS
 10
42.5166841287
 20
471.3048963814
 11
42.5166841287
 21
462.3048963814
  0
LINE
  5
34A
100
AcDbEntity
  8
0
100
AcDbLine
 62
7
  6
CONTINUOUS
 10
42.5166841287
 20
455.4298963814
 11
42.5166841287
 21
446.4298963814
  0
LINE
  5
34B
100
AcDbEntity
  8
0
100
AcDbLine
 62
7
  6
CONTINUOUS
 10
42.5166841287
 20
442.7298963814
 11
42.5166841287
 21
433.7298963814
  0
LINE
  5
34C
100
AcDbEntity
  8
0
100
AcDbLine
 62
7
  6
CONTINUOUS
 10
42.5166841287
 20
426.8548963814
 11
42.5166841287
 21
417.8548963814
  0
LINE
  5
34D
100
AcDbEntity
  8
0
100
AcDbLine
 62
7
  6
CONTINUOUS
 10
42.5166841287
 20
410.9798963814
 11
42.5166841287
 21
401.9798963814
  0
LINE
  5
34E
100
AcDbEntity
  8
0
100
AcDbLine
 62
7
  6
CONTINUOUS
 10
42.5166841287
 20
398.2798963814
 11
42.5166841287
 21
389.2798963814
  0
LINE
  5
34F
100
AcDbEntity
  8
0
100
AcDbLine
 62
7
  6
CONTINUOUS
 10
42.5166841287
 20
382.4048963814
 11
42.5166841287
 21
373.4048963814
  0
LINE
  5
350
100
AcDbEntity
  8
0
100
AcDbLine
 62
7
  6
CONTINUOUS
 10
42.5166841287
 20
366.5298963814
 11
42.5166841287
 21
357.5298963814
  0
LINE
  5
351
100
AcDbEntity
  8
0
100
AcDbLine
 62
7
  6
CONTINUOUS
 10
42.5166841287
 20
353.8298963814
 11
42.5166841287
 21
344.8298963814
  0
LINE
  5
352
100
AcDbEntity
  8
0
100
AcDbLine
 62
7
  6
CONTINUOUS
 10
42.5166841287
 20
337.9548963814
 11
42.5166841287
 21
328.9548963814
  0
LINE
  5
353
100
AcDbEntity
  8
0
100
AcDbLine
 62
7
  6
CONTINUOUS
 10
42.5166841287
 20
322.0798963814
 11
42.5166841287
 21
313.0798963814
  0
LINE
  5
354
100
AcDbEntity
  8
0
100
AcDbLine
 62
7
  6
CONTINUOUS
 10
42.5166841287
 20
309.3798963814
 11
42.5166841287
 21
300.3798963814
  0
LINE
  5
355
100
AcDbEntity
  8
0
100
AcDbLine
 62
7
  6
CONTINUOUS
 10
42.5166841287
 20
293.5048963814
 11
42.5166841287
 21
284.5048963814
  0
LINE
  5
356
100
AcDbEntity
  8
0
100
AcDbLine
 62
7
  6
CONTINUOUS
 10
42.5166841287
 20
277.6298963814
 11
42.5166841287
 21
268.6298963814
  0
LINE
  5
357
100
AcDbEntity
  8
0
100
AcDbLine
 62
7
  6
CONTINUOUS
 10
42.5166841287
 20
264.9298963814
 11
42.5166841287
 21
255.9298963814
  0
LINE
  5
358
100
AcDbEntity
  8
0
100
AcDbLine
 62
7
  6
CONTINUOUS
 10
42.5166841287
 20
249.0548963814
 11
42.5166841287
 21
240.0548963814
  0
LINE
  5
359
100
AcDbEntity
  8
0
100
AcDbLine
 62
7
  6
CONTINUOUS
 10
42.5166841287
 20
233.1798963814
 11
42.5166841287
 21
224.1798963814
  0
LINE
  5
35A
100
AcDbEntity
  8
0
100
AcDbLine
 62
7
  6
CONTINUOUS
 10
42.5166841287
 20
220.4798963814
 11
42.5166841287
 21
211.4798963814
  0
LINE
  5
35B
100
AcDbEntity
  8
0
100
AcDbLine
 62
7
  6
CONTINUOUS
 10
42.5166841287
 20
204.6048963814
 11
42.5166841287
 21
195.6048963814
  0
LINE
  5
35C
100
AcDbEntity
  8
0
100
AcDbLine
 62
7
  6
CONTINUOUS
 10
42.5166841287
 20
188.7298963814
 11
42.5166841287
 21
179.7298963814
  0
LINE
  5
35D
100
AcDbEntity
  8
0
100
AcDbLine
 62
7
  6
CONTINUOUS
 10
42.5166841287
 20
176.0298963814
 11
42.5166841287
 21
167.0298963814
  0
LINE
  5
35E
100
AcDbEntity
  8
0
100
AcDbLine
 62
7
  6
CONTINUOUS
 10
42.5166841287
 20
160.1548963814
 11
42.5166841287
 21
151.1548963814
  0
LINE
  5
35F
100
AcDbEntity
  8
0
100
AcDbLine
 62
7
  6
CONTINUOUS
 10
42.5166841287
 20
144.2798963814
 11
42.5166841287
 21
135.2798963814
  0
LINE
  5
360
100
AcDbEntity
  8
0
100
AcDbLine
 62
7
  6
CONTINUOUS
 10
42.5166841287
 20
131.5798963814
 11
42.5166841287
 21
122.5798963814
  0
LINE
  5
361
100
AcDbEntity
  8
0
100
AcDbLine
 62
7
  6
CONTINUOUS
 10
42.5166841287
 20
115.7048963814
 11
42.5166841287
 21
106.7048963814
  0
LINE
  5
362
100
AcDbEntity
  8
0
100
AcDbLine
 62
7
  6
CONTINUOUS
 10
42.5166841287
 20
99.8298963814
 11
42.5166841287
 21
90.8298963814
  0
LINE
  5
363
100
AcDbEntity
  8
0
100
AcDbLine
 62
7
  6
CONTINUOUS
 10
42.5166841287
 20
87.1298963814
 11
42.5166841287
 21
78.1298963814
  0
LINE
  5
364
100
AcDbEntity
  8
0
100
AcDbLine
 62
7
  6
CONTINUOUS
 10
42.5166841287
 20
71.2548963814
 11
42.5166841287
 21
62.2548963814
  0
LINE
  5
365
100
AcDbEntity
  8
0
100
AcDbLine
 62
7
  6
CONTINUOUS
 10
42.5166841287
 20
55.3798963814
 11
42.5166841287
 21
46.3798963814
  0
LINE
  5
366
100
AcDbEntity
  8
0
100
AcDbLine
 62
7
  6
CONTINUOUS
 10
42.5166841287
 20
42.6798963814
 11
42.5166841287
 21
33.6798963814
  0
LINE
  5
367
100
AcDbEntity
  8
0
100
AcDbLine
 62
7
  6
CONTINUOUS
 10
42.5166841287
 20
26.8048963814
 11
42.5166841287
 21
17.8048963814
  0
LINE
  5
368
100
AcDbEntity
  8
0
100
AcDbLine
 62
7
  6
CONTINUOUS
 10
42.5166841287
 20
10.9298963814
 11
42.5166841287
 21
1.9298963814
  0
LINE
  5
369
100
AcDbEntity
  8
0
100
AcDbLine
 62
7
  6
CONTINUOUS
 10
42.5166841287
 20
-1.7701036186
 11
42.5166841287
 21
-10.7701036186
  0
LINE
  5
36A
100
AcDbEntity
  8
0
100
AcDbLine
 62
7
  6
CONTINUOUS
 10
42.5166841287
 20
-17.6451036186
 11
42.5166841287
 21
-26.6451036186
  0
LINE
  5
36B
100
AcDbEntity
  8
0
100
AcDbLine
 62
7
  6
CONTINUOUS
 10
42.5166841287
 20
-33.5201036186
 11
42.5166841287
 21
-42.5201036186
  0
LINE
  5
36C
100
AcDbEntity
  8
0
100
AcDbLine
 62
7
  6
CONTINUOUS
 10
42.5166841287
 20
-46.2201036186
 11
42.5166841287
 21
-55.2201036186
  0
LINE
  5
36D
100
AcDbEntity
  8
0
100
AcDbLine
 62
7
  6
CONTINUOUS
 10
42.5166841287
 20
-62.0951036186
 11
42.5166841287
 21
-71.0951036186
  0
LINE
  5
36E
100
AcDbEntity
  8
0
100
AcDbLine
 62
7
  6
CONTINUOUS
 10
42.5166841287
 20
-77.9701036186
 11
42.5166841287
 21
-86.9701036186
  0
LINE
  5
36F
100
AcDbEntity
  8
0
100
AcDbLine
 62
7
  6
CONTINUOUS
 10
42.5166841287
 20
-90.6701036186
 11
42.5166841287
 21
-99.6701036186
  0
LINE
  5
370
100
AcDbEntity
  8
0
100
AcDbLine
 62
7
  6
CONTINUOUS
 10
42.5166841287
 20
-106.5451036186
 11
42.5166841287
 21
-115.5451036186
  0
LINE
  5
371
100
AcDbEntity
  8
0
100
AcDbLine
 62
7
  6
CONTINUOUS
 10
42.5166841287
 20
-122.4201036186
 11
42.5166841287
 21
-131.4201036186
  0
LINE
  5
372
100
AcDbEntity
  8
0
100
AcDbLine
 62
7
  6
CONTINUOUS
 10
42.5166841287
 20
-135.1201036186
 11
42.5166841287
 21
-144.1201036186
  0
LINE
  5
373
100
AcDbEntity
  8
0
100
AcDbLine
 62
7
  6
CONTINUOUS
 10
42.5166841287
 20
-150.9951036186
 11
42.5166841287
 21
-159.9951036186
  0
LINE
  5
374
100
AcDbEntity
  8
0
100
AcDbLine
 62
7
  6
CONTINUOUS
 10
42.5166841287
 20
-166.8701036186
 11
42.5166841287
 21
-175.8701036186
  0
LINE
  5
375
100
AcDbEntity
  8
0
100
AcDbLine
 62
7
  6
CONTINUOUS
 10
42.5166841287
 20
-179.5701036186
 11
42.5166841287
 21
-188.5701036186
  0
LINE
  5
376
100
AcDbEntity
  8
0
100
AcDbLine
 62
7
  6
CONTINUOUS
 10
42.5166841287
 20
-195.4451036186
 11
42.5166841287
 21
-204.4451036186
  0
LINE
  5
377
100
AcDbEntity
  8
0
100
AcDbLine
 62
7
  6
CONTINUOUS
 10
42.5166841287
 20
-211.3201036186
 11
42.5166841287
 21
-220.3201036186
  0
LINE
  5
378
100
AcDbEntity
  8
0
100
AcDbLine
 62
7
  6
CONTINUOUS
 10
42.5166841287
 20
-224.0201036186
 11
42.5166841287
 21
-233.0201036186
  0
LINE
  5
379
100
AcDbEntity
  8
0
100
AcDbLine
 62
7
  6
CONTINUOUS
 10
42.5166841287
 20
-239.8951036186
 11
42.5166841287
 21
-248.8951036186
  0
LINE
  5
37A
100
AcDbEntity
  8
0
100
AcDbLine
 62
7
  6
CONTINUOUS
 10
42.5166841287
 20
-255.7701036186
 11
42.5166841287
 21
-264.7701036186
  0
LINE
  5
37B
100
AcDbEntity
  8
0
100
AcDbLine
 62
7
  6
CONTINUOUS
 10
42.5166841287
 20
-268.4701036186
 11
42.5166841287
 21
-277.4701036186
  0
LINE
  5
37C
100
AcDbEntity
  8
0
100
AcDbLine
 62
7
  6
CONTINUOUS
 10
42.5166841287
 20
-284.3451036186
 11
42.5166841287
 21
-293.3451036186
  0
LINE
  5
37D
100
AcDbEntity
  8
0
100
AcDbLine
 62
7
  6
CONTINUOUS
 10
42.5166841287
 20
-300.2201036186
 11
42.5166841287
 21
-309.2201036186
  0
LINE
  5
37E
100
AcDbEntity
  8
0
100
AcDbLine
 62
7
  6
CONTINUOUS
 10
42.5166841287
 20
-312.9201036186
 11
42.5166841287
 21
-321.9201036186
  0
LINE
  5
37F
100
AcDbEntity
  8
0
100
AcDbLine
 62
7
  6
CONTINUOUS
 10
42.5166841287
 20
-328.7951036186
 11
42.5166841287
 21
-337.7951036186
  0
LINE
  5
380
100
AcDbEntity
  8
0
100
AcDbLine
 62
7
  6
CONTINUOUS
 10
42.5166841287
 20
-344.6701036186
 11
42.5166841287
 21
-353.6701036186
  0
LINE
  5
381
100
AcDbEntity
  8
0
100
AcDbLine
 62
7
  6
CONTINUOUS
 10
42.5166841287
 20
-357.3701036186
 11
42.5166841287
 21
-366.3701036186
  0
LINE
  5
382
100
AcDbEntity
  8
0
100
AcDbLine
 62
7
  6
CONTINUOUS
 10
42.5166841287
 20
-373.2451036186
 11
42.5166841287
 21
-382.2451036186
  0
LINE
  5
383
100
AcDbEntity
  8
0
100
AcDbLine
 62
7
  6
CONTINUOUS
 10
42.5166841287
 20
-389.1201036186
 11
42.5166841287
 21
-398.1201036186
  0
LINE
  5
384
100
AcDbEntity
  8
0
100
AcDbLine
 62
7
  6
CONTINUOUS
 10
42.5166841287
 20
-401.8201036186
 11
42.5166841287
 21
-410.8201036186
  0
LINE
  5
385
100
AcDbEntity
  8
0
100
AcDbLine
 62
7
  6
CONTINUOUS
 10
42.5166841287
 20
-417.6951036186
 11
42.5166841287
 21
-426.6951036186
  0
LINE
  5
386
100
AcDbEntity
  8
0
100
AcDbLine
 62
7
  6
CONTINUOUS
 10
42.5166841287
 20
-433.5701036186
 11
42.5166841287
 21
-442.5701036186
  0
LINE
  5
387
100
AcDbEntity
  8
0
100
AcDbLine
 62
7
  6
CONTINUOUS
 10
42.5166841287
 20
-446.2701036186
 11
42.5166841287
 21
-455.2701036186
  0
LINE
  5
388
100
AcDbEntity
  8
0
100
AcDbLine
 62
7
  6
CONTINUOUS
 10
42.5166841287
 20
-462.1451036186
 11
42.5166841287
 21
-471.1451036186
  0
LINE
  5
389
100
AcDbEntity
  8
0
100
AcDbLine
 62
7
  6
CONTINUOUS
 10
42.5166841287
 20
-478.0201036186
 11
42.5166841287
 21
-487.0201036186
  0
LINE
  5
38A
100
AcDbEntity
  8
0
100
AcDbLine
 62
7
  6
CONTINUOUS
 10
42.5166841287
 20
-490.7201036186
 11
42.5166841287
 21
-499.7201036186
  0
LINE
  5
38B
100
AcDbEntity
  8
0
100
AcDbLine
 62
7
  6
CONTINUOUS
 10
42.5166841287
 20
-506.5951036186
 11
42.5166841287
 21
-515.5951036186
  0
LINE
  5
38C
100
AcDbEntity
  8
0
100
AcDbLine
 62
7
  6
CONTINUOUS
 10
42.5166841287
 20
-522.4701036186
 11
42.5166841287
 21
-531.4701036186
  0
LINE
  5
38D
100
AcDbEntity
  8
0
100
AcDbLine
 62
7
  6
CONTINUOUS
 10
42.5166841287
 20
-535.1701036186
 11
42.5166841287
 21
-544.1701036186
  0
LINE
  5
38E
100
AcDbEntity
  8
0
100
AcDbLine
 62
7
  6
CONTINUOUS
 10
42.5166841287
 20
-551.0451036186
 11
42.5166841287
 21
-560.0451036186
  0
LINE
  5
38F
100
AcDbEntity
  8
0
100
AcDbLine
 62
7
  6
CONTINUOUS
 10
42.5166841287
 20
-566.9201036186
 11
42.5166841287
 21
-575.9201036186
  0
LINE
  5
390
100
AcDbEntity
  8
0
100
AcDbLine
 62
7
  6
CONTINUOUS
 10
42.5166841287
 20
-579.6201036186
 11
42.5166841287
 21
-588.6201036186
  0
LINE
  5
391
100
AcDbEntity
  8
0
100
AcDbLine
 62
7
  6
CONTINUOUS
 10
42.5166841287
 20
-595.4951036186
 11
42.5166841287
 21
-604.4951036186
  0
LINE
  5
392
100
AcDbEntity
  8
0
100
AcDbLine
 62
7
  6
CONTINUOUS
 10
42.5166841287
 20
-611.3701036186
 11
42.5166841287
 21
-620.3701036186
  0
LINE
  5
393
100
AcDbEntity
  8
0
100
AcDbLine
 62
7
  6
CONTINUOUS
 10
42.5166841287
 20
-624.0701036186
 11
42.5166841287
 21
-633.0701036186
  0
LINE
  5
394
100
AcDbEntity
  8
0
100
AcDbLine
 62
7
  6
CONTINUOUS
 10
42.5166841287
 20
-639.9451036186
 11
42.5166841287
 21
-648.9451036186
  0
LINE
  5
395
100
AcDbEntity
  8
0
100
AcDbLine
 62
7
  6
CONTINUOUS
 10
42.5166841287
 20
-655.8201036186
 11
42.5166841287
 21
-664.8201036186
  0
LINE
  5
396
100
AcDbEntity
  8
0
100
AcDbLine
 62
7
  6
CONTINUOUS
 10
42.5166841287
 20
-668.5201036186
 11
42.5166841287
 21
-677.5201036186
  0
LINE
  5
397
100
AcDbEntity
  8
0
100
AcDbLine
 62
7
  6
CONTINUOUS
 10
42.5166841287
 20
-684.3951036186
 11
42.5166841287
 21
-693.3951036186
  0
LINE
  5
398
100
AcDbEntity
  8
0
100
AcDbLine
 62
7
  6
CONTINUOUS
 10
42.5166841287
 20
-700.2701036186
 11
42.5166841287
 21
-709.2701036186
  0
LINE
  5
399
100
AcDbEntity
  8
0
100
AcDbLine
 62
7
  6
CONTINUOUS
 10
42.5166841287
 20
-712.9701036186
 11
42.5166841287
 21
-721.9701036186
  0
LINE
  5
39A
100
AcDbEntity
  8
0
100
AcDbLine
 62
7
  6
CONTINUOUS
 10
42.5166841287
 20
-728.8451036186
 11
42.5166841287
 21
-737.8451036186
  0
LINE
  5
39B
100
AcDbEntity
  8
0
100
AcDbLine
 62
7
  6
CONTINUOUS
 10
42.5166841287
 20
-744.7201036186
 11
42.5166841287
 21
-753.7201036186
  0
LINE
  5
39C
100
AcDbEntity
  8
0
100
AcDbLine
 62
7
  6
CONTINUOUS
 10
42.5166841287
 20
-757.4201036186
 11
42.5166841287
 21
-766.4201036186
  0
LINE
  5
39D
100
AcDbEntity
  8
0
100
AcDbLine
 62
7
  6
CONTINUOUS
 10
42.5166841287
 20
-773.2951036186
 11
42.5166841287
 21
-782.2951036186
  0
LINE
  5
39E
100
AcDbEntity
  8
0
100
AcDbLine
 62
7
  6
CONTINUOUS
 10
42.5166841287
 20
-789.1701036186
 11
42.5166841287
 21
-798.1701036186
  0
LINE
  5
39F
100
AcDbEntity
  8
0
100
AcDbLine
 62
7
  6
CONTINUOUS
 10
42.5166841287
 20
-801.8701036186
 11
42.5166841287
 21
-810.8701036186
  0
LINE
  5
3A0
100
AcDbEntity
  8
0
100
AcDbLine
 62
7
  6
CONTINUOUS
 10
42.5166841287
 20
-817.7451036186
 11
42.5166841287
 21
-826.7451036186
  0
LINE
  5
3A1
100
AcDbEntity
  8
0
100
AcDbLine
 62
7
  6
CONTINUOUS
 10
42.5166841287
 20
-833.6201036186
 11
42.5166841287
 21
-842.6201036186
  0
LINE
  5
3A2
100
AcDbEntity
  8
0
100
AcDbLine
 62
7
  6
CONTINUOUS
 10
42.5166841287
 20
-846.3201036186
 11
42.5166841287
 21
-855.3201036186
  0
LINE
  5
3A3
100
AcDbEntity
  8
0
100
AcDbLine
 62
7
  6
CONTINUOUS
 10
42.5166841287
 20
-862.1951036186
 11
42.5166841287
 21
-871.1951036186
  0
LINE
  5
3A4
100
AcDbEntity
  8
0
100
AcDbLine
 62
7
  6
CONTINUOUS
 10
42.5166841287
 20
-878.0701036186
 11
42.5166841287
 21
-887.0701036186
  0
LINE
  5
3A5
100
AcDbEntity
  8
0
100
AcDbLine
 62
7
  6
CONTINUOUS
 10
42.5166841287
 20
-890.7701036186
 11
42.5166841287
 21
-899.7701036186
  0
LINE
  5
3A6
100
AcDbEntity
  8
0
100
AcDbLine
 62
7
  6
CONTINUOUS
 10
42.5166841287
 20
-906.6451036186
 11
42.5166841287
 21
-915.6451036186
  0
LINE
  5
3A7
100
AcDbEntity
  8
0
100
AcDbLine
 62
7
  6
CONTINUOUS
 10
51.5166841287
 20
-915.6451036186
 11
51.5166841287
 21
-906.6451036186
  0
LINE
  5
3A8
100
AcDbEntity
  8
0
100
AcDbLine
 62
7
  6
CONTINUOUS
 10
51.5166841287
 20
-899.7701036186
 11
51.5166841287
 21
-890.7701036186
  0
LINE
  5
3A9
100
AcDbEntity
  8
0
100
AcDbLine
 62
7
  6
CONTINUOUS
 10
51.5166841287
 20
-887.0701036186
 11
51.5166841287
 21
-878.0701036186
  0
LINE
  5
3AA
100
AcDbEntity
  8
0
100
AcDbLine
 62
7
  6
CONTINUOUS
 10
51.5166841287
 20
-871.1951036186
 11
51.5166841287
 21
-862.1951036186
  0
LINE
  5
3AB
100
AcDbEntity
  8
0
100
AcDbLine
 62
7
  6
CONTINUOUS
 10
51.5166841287
 20
-855.3201036186
 11
51.5166841287
 21
-846.3201036186
  0
LINE
  5
3AC
100
AcDbEntity
  8
0
100
AcDbLine
 62
7
  6
CONTINUOUS
 10
51.5166841287
 20
-842.6201036186
 11
51.5166841287
 21
-833.6201036186
  0
LINE
  5
3AD
100
AcDbEntity
  8
0
100
AcDbLine
 62
7
  6
CONTINUOUS
 10
51.5166841287
 20
-826.7451036186
 11
51.5166841287
 21
-817.7451036186
  0
LINE
  5
3AE
100
AcDbEntity
  8
0
100
AcDbLine
 62
7
  6
CONTINUOUS
 10
51.5166841287
 20
-810.8701036186
 11
51.5166841287
 21
-801.8701036186
  0
LINE
  5
3AF
100
AcDbEntity
  8
0
100
AcDbLine
 62
7
  6
CONTINUOUS
 10
51.5166841287
 20
-798.1701036186
 11
51.5166841287
 21
-789.1701036186
  0
LINE
  5
3B0
100
AcDbEntity
  8
0
100
AcDbLine
 62
7
  6
CONTINUOUS
 10
51.5166841287
 20
-782.2951036186
 11
51.5166841287
 21
-773.2951036186
  0
LINE
  5
3B1
100
AcDbEntity
  8
0
100
AcDbLine
 62
7
  6
CONTINUOUS
 10
51.5166841287
 20
-766.4201036186
 11
51.5166841287
 21
-757.4201036186
  0
LINE
  5
3B2
100
AcDbEntity
  8
0
100
AcDbLine
 62
7
  6
CONTINUOUS
 10
51.5166841287
 20
-753.7201036186
 11
51.5166841287
 21
-744.7201036186
  0
LINE
  5
3B3
100
AcDbEntity
  8
0
100
AcDbLine
 62
7
  6
CONTINUOUS
 10
51.5166841287
 20
-737.8451036186
 11
51.5166841287
 21
-728.8451036186
  0
LINE
  5
3B4
100
AcDbEntity
  8
0
100
AcDbLine
 62
7
  6
CONTINUOUS
 10
51.5166841287
 20
-721.9701036186
 11
51.5166841287
 21
-712.9701036186
  0
LINE
  5
3B5
100
AcDbEntity
  8
0
100
AcDbLine
 62
7
  6
CONTINUOUS
 10
51.5166841287
 20
-709.2701036186
 11
51.5166841287
 21
-700.2701036186
  0
LINE
  5
3B6
100
AcDbEntity
  8
0
100
AcDbLine
 62
7
  6
CONTINUOUS
 10
51.5166841287
 20
-693.3951036186
 11
51.5166841287
 21
-684.3951036186
  0
LINE
  5
3B7
100
AcDbEntity
  8
0
100
AcDbLine
 62
7
  6
CONTINUOUS
 10
51.5166841287
 20
-677.5201036186
 11
51.5166841287
 21
-668.5201036186
  0
LINE
  5
3B8
100
AcDbEntity
  8
0
100
AcDbLine
 62
7
  6
CONTINUOUS
 10
51.5166841287
 20
-664.8201036186
 11
51.5166841287
 21
-655.8201036186
  0
LINE
  5
3B9
100
AcDbEntity
  8
0
100
AcDbLine
 62
7
  6
CONTINUOUS
 10
51.5166841287
 20
-648.9451036186
 11
51.5166841287
 21
-639.9451036186
  0
LINE
  5
3BA
100
AcDbEntity
  8
0
100
AcDbLine
 62
7
  6
CONTINUOUS
 10
51.5166841287
 20
-633.0701036186
 11
51.5166841287
 21
-624.0701036186
  0
LINE
  5
3BB
100
AcDbEntity
  8
0
100
AcDbLine
 62
7
  6
CONTINUOUS
 10
51.5166841287
 20
-620.3701036186
 11
51.5166841287
 21
-611.3701036186
  0
LINE
  5
3BC
100
AcDbEntity
  8
0
100
AcDbLine
 62
7
  6
CONTINUOUS
 10
51.5166841287
 20
-604.4951036186
 11
51.5166841287
 21
-595.4951036186
  0
LINE
  5
3BD
100
AcDbEntity
  8
0
100
AcDbLine
 62
7
  6
CONTINUOUS
 10
51.5166841287
 20
-588.6201036186
 11
51.5166841287
 21
-579.6201036186
  0
LINE
  5
3BE
100
AcDbEntity
  8
0
100
AcDbLine
 62
7
  6
CONTINUOUS
 10
51.5166841287
 20
-575.9201036186
 11
51.5166841287
 21
-566.9201036186
  0
LINE
  5
3BF
100
AcDbEntity
  8
0
100
AcDbLine
 62
7
  6
CONTINUOUS
 10
51.5166841287
 20
-560.0451036186
 11
51.5166841287
 21
-551.0451036186
  0
LINE
  5
3C0
100
AcDbEntity
  8
0
100
AcDbLine
 62
7
  6
CONTINUOUS
 10
51.5166841287
 20
-544.1701036186
 11
51.5166841287
 21
-535.1701036186
  0
LINE
  5
3C1
100
AcDbEntity
  8
0
100
AcDbLine
 62
7
  6
CONTINUOUS
 10
51.5166841287
 20
-531.4701036186
 11
51.5166841287
 21
-522.4701036186
  0
LINE
  5
3C2
100
AcDbEntity
  8
0
100
AcDbLine
 62
7
  6
CONTINUOUS
 10
51.5166841287
 20
-515.5951036186
 11
51.5166841287
 21
-506.5951036186
  0
LINE
  5
3C3
100
AcDbEntity
  8
0
100
AcDbLine
 62
7
  6
CONTINUOUS
 10
51.5166841287
 20
-499.7201036186
 11
51.5166841287
 21
-490.7201036186
  0
LINE
  5
3C4
100
AcDbEntity
  8
0
100
AcDbLine
 62
7
  6
CONTINUOUS
 10
51.5166841287
 20
-487.0201036186
 11
51.5166841287
 21
-478.0201036186
  0
LINE
  5
3C5
100
AcDbEntity
  8
0
100
AcDbLine
 62
7
  6
CONTINUOUS
 10
51.5166841287
 20
-471.1451036186
 11
51.5166841287
 21
-462.1451036186
  0
LINE
  5
3C6
100
AcDbEntity
  8
0
100
AcDbLine
 62
7
  6
CONTINUOUS
 10
51.5166841287
 20
-455.2701036186
 11
51.5166841287
 21
-446.2701036186
  0
LINE
  5
3C7
100
AcDbEntity
  8
0
100
AcDbLine
 62
7
  6
CONTINUOUS
 10
51.5166841287
 20
-442.5701036186
 11
51.5166841287
 21
-433.5701036186
  0
LINE
  5
3C8
100
AcDbEntity
  8
0
100
AcDbLine
 62
7
  6
CONTINUOUS
 10
51.5166841287
 20
-426.6951036186
 11
51.5166841287
 21
-417.6951036186
  0
LINE
  5
3C9
100
AcDbEntity
  8
0
100
AcDbLine
 62
7
  6
CONTINUOUS
 10
51.5166841287
 20
-410.8201036186
 11
51.5166841287
 21
-401.8201036186
  0
LINE
  5
3CA
100
AcDbEntity
  8
0
100
AcDbLine
 62
7
  6
CONTINUOUS
 10
51.5166841287
 20
-398.1201036186
 11
51.5166841287
 21
-389.1201036186
  0
LINE
  5
3CB
100
AcDbEntity
  8
0
100
AcDbLine
 62
7
  6
CONTINUOUS
 10
51.5166841287
 20
-382.2451036186
 11
51.5166841287
 21
-373.2451036186
  0
LINE
  5
3CC
100
AcDbEntity
  8
0
100
AcDbLine
 62
7
  6
CONTINUOUS
 10
51.5166841287
 20
-366.3701036186
 11
51.5166841287
 21
-357.3701036186
  0
LINE
  5
3CD
100
AcDbEntity
  8
0
100
AcDbLine
 62
7
  6
CONTINUOUS
 10
51.5166841287
 20
-353.6701036186
 11
51.5166841287
 21
-344.6701036186
  0
LINE
  5
3CE
100
AcDbEntity
  8
0
100
AcDbLine
 62
7
  6
CONTINUOUS
 10
51.5166841287
 20
-337.7951036186
 11
51.5166841287
 21
-328.7951036186
  0
LINE
  5
3CF
100
AcDbEntity
  8
0
100
AcDbLine
 62
7
  6
CONTINUOUS
 10
51.5166841287
 20
-321.9201036186
 11
51.5166841287
 21
-312.9201036186
  0
LINE
  5
3D0
100
AcDbEntity
  8
0
100
AcDbLine
 62
7
  6
CONTINUOUS
 10
51.5166841287
 20
-309.2201036186
 11
51.5166841287
 21
-300.2201036186
  0
LINE
  5
3D1
100
AcDbEntity
  8
0
100
AcDbLine
 62
7
  6
CONTINUOUS
 10
51.5166841287
 20
-293.3451036186
 11
51.5166841287
 21
-284.3451036186
  0
LINE
  5
3D2
100
AcDbEntity
  8
0
100
AcDbLine
 62
7
  6
CONTINUOUS
 10
51.5166841287
 20
-277.4701036186
 11
51.5166841287
 21
-268.4701036186
  0
LINE
  5
3D3
100
AcDbEntity
  8
0
100
AcDbLine
 62
7
  6
CONTINUOUS
 10
51.5166841287
 20
-264.7701036186
 11
51.5166841287
 21
-255.7701036186
  0
LINE
  5
3D4
100
AcDbEntity
  8
0
100
AcDbLine
 62
7
  6
CONTINUOUS
 10
51.5166841287
 20
-248.8951036186
 11
51.5166841287
 21
-239.8951036186
  0
LINE
  5
3D5
100
AcDbEntity
  8
0
100
AcDbLine
 62
7
  6
CONTINUOUS
 10
51.5166841287
 20
-233.0201036186
 11
51.5166841287
 21
-224.0201036186
  0
LINE
  5
3D6
100
AcDbEntity
  8
0
100
AcDbLine
 62
7
  6
CONTINUOUS
 10
51.5166841287
 20
-220.3201036186
 11
51.5166841287
 21
-211.3201036186
  0
LINE
  5
3D7
100
AcDbEntity
  8
0
100
AcDbLine
 62
7
  6
CONTINUOUS
 10
51.5166841287
 20
-204.4451036186
 11
51.5166841287
 21
-195.4451036186
  0
LINE
  5
3D8
100
AcDbEntity
  8
0
100
AcDbLine
 62
7
  6
CONTINUOUS
 10
51.5166841287
 20
-188.5701036186
 11
51.5166841287
 21
-179.5701036186
  0
LINE
  5
3D9
100
AcDbEntity
  8
0
100
AcDbLine
 62
7
  6
CONTINUOUS
 10
51.5166841287
 20
-175.8701036186
 11
51.5166841287
 21
-166.8701036186
  0
LINE
  5
3DA
100
AcDbEntity
  8
0
100
AcDbLine
 62
7
  6
CONTINUOUS
 10
51.5166841287
 20
-159.9951036186
 11
51.5166841287
 21
-150.9951036186
  0
LINE
  5
3DB
100
AcDbEntity
  8
0
100
AcDbLine
 62
7
  6
CONTINUOUS
 10
51.5166841287
 20
-144.1201036186
 11
51.5166841287
 21
-135.1201036186
  0
LINE
  5
3DC
100
AcDbEntity
  8
0
100
AcDbLine
 62
7
  6
CONTINUOUS
 10
51.5166841287
 20
-131.4201036186
 11
51.5166841287
 21
-122.4201036186
  0
LINE
  5
3DD
100
AcDbEntity
  8
0
100
AcDbLine
 62
7
  6
CONTINUOUS
 10
51.5166841287
 20
-115.5451036186
 11
51.5166841287
 21
-106.5451036186
  0
LINE
  5
3DE
100
AcDbEntity
  8
0
100
AcDbLine
 62
7
  6
CONTINUOUS
 10
51.5166841287
 20
-99.6701036186
 11
51.5166841287
 21
-90.6701036186
  0
LINE
  5
3DF
100
AcDbEntity
  8
0
100
AcDbLine
 62
7
  6
CONTINUOUS
 10
51.5166841287
 20
-86.9701036186
 11
51.5166841287
 21
-77.9701036186
  0
LINE
  5
3E0
100
AcDbEntity
  8
0
100
AcDbLine
 62
7
  6
CONTINUOUS
 10
51.5166841287
 20
-71.0951036186
 11
51.5166841287
 21
-62.0951036186
  0
LINE
  5
3E1
100
AcDbEntity
  8
0
100
AcDbLine
 62
7
  6
CONTINUOUS
 10
51.5166841287
 20
-55.2201036186
 11
51.5166841287
 21
-46.2201036186
  0
LINE
  5
3E2
100
AcDbEntity
  8
0
100
AcDbLine
 62
7
  6
CONTINUOUS
 10
51.5166841287
 20
-42.5201036186
 11
51.5166841287
 21
-33.5201036186
  0
LINE
  5
3E3
100
AcDbEntity
  8
0
100
AcDbLine
 62
7
  6
CONTINUOUS
 10
51.5166841287
 20
-26.6451036186
 11
51.5166841287
 21
-17.6451036186
  0
LINE
  5
3E4
100
AcDbEntity
  8
0
100
AcDbLine
 62
7
  6
CONTINUOUS
 10
51.5166841287
 20
-10.7701036186
 11
51.5166841287
 21
-1.7701036186
  0
LINE
  5
3E5
100
AcDbEntity
  8
0
100
AcDbLine
 62
7
  6
CONTINUOUS
 10
51.5166841287
 20
1.9298963814
 11
51.5166841287
 21
10.9298963814
  0
LINE
  5
3E6
100
AcDbEntity
  8
0
100
AcDbLine
 62
7
  6
CONTINUOUS
 10
51.5166841287
 20
17.8048963814
 11
51.5166841287
 21
26.8048963814
  0
LINE
  5
3E7
100
AcDbEntity
  8
0
100
AcDbLine
 62
7
  6
CONTINUOUS
 10
51.5166841287
 20
33.6798963814
 11
51.5166841287
 21
42.6798963814
  0
LINE
  5
3E8
100
AcDbEntity
  8
0
100
AcDbLine
 62
7
  6
CONTINUOUS
 10
51.5166841287
 20
46.3798963814
 11
51.5166841287
 21
55.3798963814
  0
LINE
  5
3E9
100
AcDbEntity
  8
0
100
AcDbLine
 62
7
  6
CONTINUOUS
 10
51.5166841287
 20
62.2548963814
 11
51.5166841287
 21
71.2548963814
  0
LINE
  5
3EA
100
AcDbEntity
  8
0
100
AcDbLine
 62
7
  6
CONTINUOUS
 10
51.5166841287
 20
78.1298963814
 11
51.5166841287
 21
87.1298963814
  0
LINE
  5
3EB
100
AcDbEntity
  8
0
100
AcDbLine
 62
7
  6
CONTINUOUS
 10
51.5166841287
 20
90.8298963814
 11
51.5166841287
 21
99.8298963814
  0
LINE
  5
3EC
100
AcDbEntity
  8
0
100
AcDbLine
 62
7
  6
CONTINUOUS
 10
51.5166841287
 20
106.7048963814
 11
51.5166841287
 21
115.7048963814
  0
LINE
  5
3ED
100
AcDbEntity
  8
0
100
AcDbLine
 62
7
  6
CONTINUOUS
 10
51.5166841287
 20
122.5798963814
 11
51.5166841287
 21
131.5798963814
  0
LINE
  5
3EE
100
AcDbEntity
  8
0
100
AcDbLine
 62
7
  6
CONTINUOUS
 10
51.5166841287
 20
135.2798963814
 11
51.5166841287
 21
144.2798963814
  0
LINE
  5
3EF
100
AcDbEntity
  8
0
100
AcDbLine
 62
7
  6
CONTINUOUS
 10
51.5166841287
 20
151.1548963814
 11
51.5166841287
 21
160.1548963814
  0
LINE
  5
3F0
100
AcDbEntity
  8
0
100
AcDbLine
 62
7
  6
CONTINUOUS
 10
51.5166841287
 20
167.0298963814
 11
51.5166841287
 21
176.0298963814
  0
LINE
  5
3F1
100
AcDbEntity
  8
0
100
AcDbLine
 62
7
  6
CONTINUOUS
 10
51.5166841287
 20
179.7298963814
 11
51.5166841287
 21
188.7298963814
  0
LINE
  5
3F2
100
AcDbEntity
  8
0
100
AcDbLine
 62
7
  6
CONTINUOUS
 10
51.5166841287
 20
195.6048963814
 11
51.5166841287
 21
204.6048963814
  0
LINE
  5
3F3
100
AcDbEntity
  8
0
100
AcDbLine
 62
7
  6
CONTINUOUS
 10
51.5166841287
 20
211.4798963814
 11
51.5166841287
 21
220.4798963814
  0
LINE
  5
3F4
100
AcDbEntity
  8
0
100
AcDbLine
 62
7
  6
CONTINUOUS
 10
51.5166841287
 20
224.1798963814
 11
51.5166841287
 21
233.1798963814
  0
LINE
  5
3F5
100
AcDbEntity
  8
0
100
AcDbLine
 62
7
  6
CONTINUOUS
 10
51.5166841287
 20
240.0548963814
 11
51.5166841287
 21
249.0548963814
  0
LINE
  5
3F6
100
AcDbEntity
  8
0
100
AcDbLine
 62
7
  6
CONTINUOUS
 10
51.5166841287
 20
255.9298963814
 11
51.5166841287
 21
264.9298963814
  0
LINE
  5
3F7
100
AcDbEntity
  8
0
100
AcDbLine
 62
7
  6
CONTINUOUS
 10
51.5166841287
 20
268.6298963814
 11
51.5166841287
 21
277.6298963814
  0
LINE
  5
3F8
100
AcDbEntity
  8
0
100
AcDbLine
 62
7
  6
CONTINUOUS
 10
51.5166841287
 20
284.5048963814
 11
51.5166841287
 21
293.5048963814
  0
LINE
  5
3F9
100
AcDbEntity
  8
0
100
AcDbLine
 62
7
  6
CONTINUOUS
 10
51.5166841287
 20
300.3798963814
 11
51.5166841287
 21
309.3798963814
  0
LINE
  5
3FA
100
AcDbEntity
  8
0
100
AcDbLine
 62
7
  6
CONTINUOUS
 10
51.5166841287
 20
313.0798963814
 11
51.5166841287
 21
322.0798963814
  0
LINE
  5
3FB
100
AcDbEntity
  8
0
100
AcDbLine
 62
7
  6
CONTINUOUS
 10
51.5166841287
 20
328.9548963814
 11
51.5166841287
 21
337.9548963814
  0
LINE
  5
3FC
100
AcDbEntity
  8
0
100
AcDbLine
 62
7
  6
CONTINUOUS
 10
51.5166841287
 20
344.8298963814
 11
51.5166841287
 21
353.8298963814
  0
LINE
  5
3FD
100
AcDbEntity
  8
0
100
AcDbLine
 62
7
  6
CONTINUOUS
 10
51.5166841287
 20
357.5298963814
 11
51.5166841287
 21
366.5298963814
  0
LINE
  5
3FE
100
AcDbEntity
  8
0
100
AcDbLine
 62
7
  6
CONTINUOUS
 10
51.5166841287
 20
373.4048963814
 11
51.5166841287
 21
382.4048963814
  0
LINE
  5
3FF
100
AcDbEntity
  8
0
100
AcDbLine
 62
7
  6
CONTINUOUS
 10
51.5166841287
 20
389.2798963814
 11
51.5166841287
 21
398.2798963814
  0
LINE
  5
400
100
AcDbEntity
  8
0
100
AcDbLine
 62
7
  6
CONTINUOUS
 10
51.5166841287
 20
401.9798963814
 11
51.5166841287
 21
410.9798963814
  0
LINE
  5
401
100
AcDbEntity
  8
0
100
AcDbLine
 62
7
  6
CONTINUOUS
 10
51.5166841287
 20
417.8548963814
 11
51.5166841287
 21
426.8548963814
  0
LINE
  5
402
100
AcDbEntity
  8
0
100
AcDbLine
 62
7
  6
CONTINUOUS
 10
51.5166841287
 20
433.7298963814
 11
51.5166841287
 21
442.7298963814
  0
LINE
  5
403
100
AcDbEntity
  8
0
100
AcDbLine
 62
7
  6
CONTINUOUS
 10
51.5166841287
 20
446.4298963814
 11
51.5166841287
 21
455.4298963814
  0
LINE
  5
404
100
AcDbEntity
  8
0
100
AcDbLine
 62
7
  6
CONTINUOUS
 10
51.5166841287
 20
462.3048963814
 11
51.5166841287
 21
471.3048963814
  0
LINE
  5
405
100
AcDbEntity
  8
0
100
AcDbLine
 62
7
  6
CONTINUOUS
 10
51.5166841287
 20
478.1798963814
 11
51.5166841287
 21
487.1798963814
  0
LINE
  5
406
100
AcDbEntity
  8
0
100
AcDbLine
 62
7
  6
CONTINUOUS
 10
51.5166841287
 20
490.8798963814
 11
51.5166841287
 21
499.8798963814
  0
LINE
  5
407
100
AcDbEntity
  8
0
100
AcDbLine
 62
7
  6
CONTINUOUS
 10
51.5166841287
 20
506.7548963814
 11
51.5166841287
 21
515.7548963814
  0
LINE
  5
408
100
AcDbEntity
  8
0
100
AcDbLine
 62
7
  6
CONTINUOUS
 10
51.5166841287
 20
522.6298963814
 11
51.5166841287
 21
531.6298963814
  0
LINE
  5
409
100
AcDbEntity
  8
0
100
AcDbLine
 62
7
  6
CONTINUOUS
 10
51.5166841287
 20
535.3298963814
 11
51.5166841287
 21
544.3298963814
  0
LINE
  5
40A
100
AcDbEntity
  8
0
100
AcDbLine
 62
7
  6
CONTINUOUS
 10
51.5166841287
 20
551.2048963814
 11
51.5166841287
 21
560.2048963814
  0
LINE
  5
40B
100
AcDbEntity
  8
0
100
AcDbLine
 62
7
  6
CONTINUOUS
 10
51.5166841287
 20
567.0798963814
 11
51.5166841287
 21
576.0798963814
  0
LINE
  5
40C
100
AcDbEntity
  8
0
100
AcDbLine
 62
7
  6
CONTINUOUS
 10
51.5166841287
 20
579.7798963814
 11
51.5166841287
 21
588.7798963814
  0
LINE
  5
40D
100
AcDbEntity
  8
0
100
AcDbLine
 62
7
  6
CONTINUOUS
 10
51.5166841287
 20
595.6548963814
 11
51.5166841287
 21
604.6548963814
  0
LINE
  5
40E
100
AcDbEntity
  8
0
100
AcDbLine
 62
7
  6
CONTINUOUS
 10
51.5166841287
 20
611.5298963814
 11
51.5166841287
 21
620.5298963814
  0
LINE
  5
40F
100
AcDbEntity
  8
0
100
AcDbLine
 62
7
  6
CONTINUOUS
 10
51.5166841287
 20
624.2298963814
 11
51.5166841287
 21
633.2298963814
  0
LINE
  5
410
100
AcDbEntity
  8
0
100
AcDbLine
 62
7
  6
CONTINUOUS
 10
51.5166841287
 20
640.1048963814
 11
51.5166841287
 21
649.1048963814
  0
LINE
  5
411
100
AcDbEntity
  8
0
100
AcDbLine
 62
7
  6
CONTINUOUS
 10
51.5166841287
 20
655.9798963814
 11
51.5166841287
 21
664.9798963814
  0
LINE
  5
412
100
AcDbEntity
  8
0
100
AcDbLine
 62
7
  6
CONTINUOUS
 10
51.5166841287
 20
668.6798963814
 11
51.5166841287
 21
677.6798963814
  0
LINE
  5
413
100
AcDbEntity
  8
0
100
AcDbLine
 62
7
  6
CONTINUOUS
 10
51.5166841287
 20
684.5548963814
 11
51.5166841287
 21
693.5548963814
  0
LINE
  5
414
100
AcDbEntity
  8
0
100
AcDbLine
 62
7
  6
CONTINUOUS
 10
51.5166841287
 20
700.4298963814
 11
51.5166841287
 21
709.4298963814
  0
LINE
  5
415
100
AcDbEntity
  8
0
100
AcDbLine
 62
7
  6
CONTINUOUS
 10
51.5166841287
 20
713.1298963814
 11
51.5166841287
 21
722.1298963814
  0
LINE
  5
416
100
AcDbEntity
  8
0
100
AcDbLine
 62
7
  6
CONTINUOUS
 10
51.5166841287
 20
729.0048963814
 11
51.5166841287
 21
738.0048963814
  0
LINE
  5
417
100
AcDbEntity
  8
0
100
AcDbLine
 62
7
  6
CONTINUOUS
 10
51.5166841287
 20
744.8798963814
 11
51.5166841287
 21
753.8798963814
  0
LINE
  5
418
100
AcDbEntity
  8
0
100
AcDbLine
 62
7
  6
CONTINUOUS
 10
51.5166841287
 20
757.5798963814
 11
51.5166841287
 21
766.5798963814
  0
LINE
  5
419
100
AcDbEntity
  8
0
100
AcDbLine
 62
7
  6
CONTINUOUS
 10
51.5166841287
 20
773.4548963814
 11
51.5166841287
 21
782.4548963814
  0
LINE
  5
41A
100
AcDbEntity
  8
0
100
AcDbLine
 62
7
  6
CONTINUOUS
 10
51.5166841287
 20
789.3298963814
 11
51.5166841287
 21
798.3298963814
  0
LINE
  5
41B
100
AcDbEntity
  8
0
100
AcDbLine
 62
7
  6
CONTINUOUS
 10
51.5166841287
 20
802.0298963814
 11
51.5166841287
 21
811.0298963814
  0
LINE
  5
41C
100
AcDbEntity
  8
0
100
AcDbLine
 62
7
  6
CONTINUOUS
 10
51.5166841287
 20
817.9048963814
 11
51.5166841287
 21
826.9048963814
  0
LINE
  5
41D
100
AcDbEntity
  8
0
100
AcDbLine
 62
7
  6
CONTINUOUS
 10
51.5166841287
 20
833.7798963814
 11
51.5166841287
 21
842.7798963814
  0
LINE
  5
41E
100
AcDbEntity
  8
0
100
AcDbLine
 62
7
  6
CONTINUOUS
 10
51.5166841287
 20
846.4798963814
 11
51.5166841287
 21
855.4798963814
  0
LINE
  5
41F
100
AcDbEntity
  8
0
100
AcDbLine
 62
7
  6
CONTINUOUS
 10
51.5166841287
 20
862.3548963814
 11
51.5166841287
 21
871.3548963814
  0
LINE
  5
420
100
AcDbEntity
  8
0
100
AcDbLine
 62
7
  6
CONTINUOUS
 10
51.5166841287
 20
878.2298963814
 11
51.5166841287
 21
887.2298963814
  0
LINE
  5
421
100
AcDbEntity
  8
0
100
AcDbLine
 62
7
  6
CONTINUOUS
 10
51.5166841287
 20
890.9298963814
 11
51.5166841287
 21
899.9298963814
  0
LINE
  5
422
100
AcDbEntity
  8
0
100
AcDbLine
 62
7
  6
CONTINUOUS
 10
51.5166841287
 20
906.8048963814
 11
51.5166841287
 21
915.8048963814
  0
LINE
  5
423
100
AcDbEntity
  8
RACCORDO
100
AcDbLine
 62
7
  6
CONTINUOUS
 10
54.3166841287
 20
918.6248963814
 11
54.3166841287
 21
-918.3751036186
  0
LINE
  5
424
100
AcDbEntity
  8
0
100
AcDbLine
 62
7
  6
CONTINUOUS
 10
51.5166841287
 20
10.9298963814
 11
42.5166841287
 21
10.9298963814
  0
LINE
  5
425
100
AcDbEntity
  8
0
100
AcDbLine
 62
7
  6
CONTINUOUS
 10
0.3166841287
 20
11.3748963814
 11
-8.6833158713
 21
11.3748963814
  0
LINE
  5
426
100
AcDbEntity
  8
0
100
AcDbLine
 62
7
  6
CONTINUOUS
 10
42.5166841287
 20
17.8048963814
 11
51.5166841287
 21
17.8048963814
  0
LINE
  5
427
100
AcDbEntity
  8
0
100
AcDbLine
 62
7
  6
CONTINUOUS
 10
51.5166841287
 20
26.8048963814
 11
42.5166841287
 21
26.8048963814
  0
LINE
  5
428
100
AcDbEntity
  8
0
100
AcDbLine
 62
7
  6
CONTINUOUS
 10
42.5166841287
 20
33.6798963814
 11
51.5166841287
 21
33.6798963814
  0
LINE
  5
429
100
AcDbEntity
  8
0
100
AcDbLine
 62
7
  6
CONTINUOUS
 10
51.5166841287
 20
42.6798963814
 11
42.5166841287
 21
42.6798963814
  0
LINE
  5
42A
100
AcDbEntity
  8
0
100
AcDbLine
 62
7
  6
CONTINUOUS
 10
0.3166841287
 20
45.4248963814
 11
-8.6833158713
 21
45.4248963814
  0
LINE
  5
42B
100
AcDbEntity
  8
0
100
AcDbLine
 62
7
  6
CONTINUOUS
 10
42.5166841287
 20
46.3798963814
 11
51.5166841287
 21
46.3798963814
  0
LINE
  5
42C
100
AcDbEntity
  8
0
100
AcDbLine
 62
7
  6
CONTINUOUS
 10
0.3166841287
 20
54.4248963814
 11
-8.6833158713
 21
54.4248963814
  0
LINE
  5
42D
100
AcDbEntity
  8
0
100
AcDbLine
 62
7
  6
CONTINUOUS
 10
51.5166841287
 20
55.3798963814
 11
42.5166841287
 21
55.3798963814
  0
LINE
  5
42E
100
AcDbEntity
  8
0
100
AcDbLine
 62
7
  6
CONTINUOUS
 10
42.5166841287
 20
62.2548963814
 11
51.5166841287
 21
62.2548963814
  0
LINE
  5
42F
100
AcDbEntity
  8
0
100
AcDbLine
 62
7
  6
CONTINUOUS
 10
51.5166841287
 20
71.2548963814
 11
42.5166841287
 21
71.2548963814
  0
LINE
  5
430
100
AcDbEntity
  8
0
100
AcDbLine
 62
7
  6
CONTINUOUS
 10
42.5166841287
 20
78.1298963814
 11
51.5166841287
 21
78.1298963814
  0
LINE
  5
431
100
AcDbEntity
  8
0
100
AcDbLine
 62
7
  6
CONTINUOUS
 10
51.5166841287
 20
87.1298963814
 11
42.5166841287
 21
87.1298963814
  0
LINE
  5
432
100
AcDbEntity
  8
0
100
AcDbLine
 62
7
  6
CONTINUOUS
 10
0.3166841287
 20
88.4748963814
 11
-8.6833158713
 21
88.4748963814
  0
LINE
  5
433
100
AcDbEntity
  8
0
100
AcDbLine
 62
7
  6
CONTINUOUS
 10
42.5166841287
 20
90.8298963814
 11
51.5166841287
 21
90.8298963814
  0
LINE
  5
434
100
AcDbEntity
  8
0
100
AcDbLine
 62
7
  6
CONTINUOUS
 10
0.3166841287
 20
97.4748963814
 11
-8.6833158713
 21
97.4748963814
  0
LINE
  5
435
100
AcDbEntity
  8
0
100
AcDbLine
 62
7
  6
CONTINUOUS
 10
51.5166841287
 20
99.8298963814
 11
42.5166841287
 21
99.8298963814
  0
LINE
  5
436
100
AcDbEntity
  8
0
100
AcDbLine
 62
7
  6
CONTINUOUS
 10
42.5166841287
 20
106.7048963814
 11
51.5166841287
 21
106.7048963814
  0
LINE
  5
437
100
AcDbEntity
  8
0
100
AcDbLine
 62
7
  6
CONTINUOUS
 10
51.5166841287
 20
115.7048963814
 11
42.5166841287
 21
115.7048963814
  0
LINE
  5
438
100
AcDbEntity
  8
0
100
AcDbLine
 62
7
  6
CONTINUOUS
 10
42.5166841287
 20
122.5798963814
 11
51.5166841287
 21
122.5798963814
  0
LINE
  5
439
100
AcDbEntity
  8
0
100
AcDbLine
 62
7
  6
CONTINUOUS
 10
0.3166841287
 20
131.5248963814
 11
-8.6833158713
 21
131.5248963814
  0
LINE
  5
43A
100
AcDbEntity
  8
0
100
AcDbLine
 62
7
  6
CONTINUOUS
 10
51.5166841287
 20
131.5798963814
 11
42.5166841287
 21
131.5798963814
  0
LINE
  5
43B
100
AcDbEntity
  8
0
100
AcDbLine
 62
7
  6
CONTINUOUS
 10
42.5166841287
 20
135.2798963814
 11
51.5166841287
 21
135.2798963814
  0
LINE
  5
43C
100
AcDbEntity
  8
0
100
AcDbLine
 62
7
  6
CONTINUOUS
 10
0.3166841287
 20
140.5248963814
 11
-8.6833158713
 21
140.5248963814
  0
LINE
  5
43D
100
AcDbEntity
  8
0
100
AcDbLine
 62
7
  6
CONTINUOUS
 10
51.5166841287
 20
144.2798963814
 11
42.5166841287
 21
144.2798963814
  0
LINE
  5
43E
100
AcDbEntity
  8
0
100
AcDbLine
 62
7
  6
CONTINUOUS
 10
42.5166841287
 20
151.1548963814
 11
51.5166841287
 21
151.1548963814
  0
LINE
  5
43F
100
AcDbEntity
  8
0
100
AcDbLine
 62
7
  6
CONTINUOUS
 10
51.5166841287
 20
160.1548963814
 11
42.5166841287
 21
160.1548963814
  0
LINE
  5
440
100
AcDbEntity
  8
0
100
AcDbLine
 62
7
  6
CONTINUOUS
 10
42.5166841287
 20
167.0298963814
 11
51.5166841287
 21
167.0298963814
  0
LINE
  5
441
100
AcDbEntity
  8
0
100
AcDbLine
 62
7
  6
CONTINUOUS
 10
0.3166841287
 20
174.5748963814
 11
-8.6833158713
 21
174.5748963814
  0
LINE
  5
442
100
AcDbEntity
  8
0
100
AcDbLine
 62
7
  6
CONTINUOUS
 10
51.5166841287
 20
176.0298963814
 11
42.5166841287
 21
176.0298963814
  0
LINE
  5
443
100
AcDbEntity
  8
0
100
AcDbLine
 62
7
  6
CONTINUOUS
 10
42.5166841287
 20
179.7298963814
 11
51.5166841287
 21
179.7298963814
  0
LINE
  5
444
100
AcDbEntity
  8
0
100
AcDbLine
 62
7
  6
CONTINUOUS
 10
0.3166841287
 20
183.5748963814
 11
-8.6833158713
 21
183.5748963814
  0
LINE
  5
445
100
AcDbEntity
  8
0
100
AcDbLine
 62
7
  6
CONTINUOUS
 10
51.5166841287
 20
188.7298963814
 11
42.5166841287
 21
188.7298963814
  0
LINE
  5
446
100
AcDbEntity
  8
0
100
AcDbLine
 62
7
  6
CONTINUOUS
 10
42.5166841287
 20
195.6048963814
 11
51.5166841287
 21
195.6048963814
  0
LINE
  5
447
100
AcDbEntity
  8
0
100
AcDbLine
 62
7
  6
CONTINUOUS
 10
51.5166841287
 20
204.6048963814
 11
42.5166841287
 21
204.6048963814
  0
LINE
  5
448
100
AcDbEntity
  8
0
100
AcDbLine
 62
7
  6
CONTINUOUS
 10
42.5166841287
 20
211.4798963814
 11
51.5166841287
 21
211.4798963814
  0
LINE
  5
449
100
AcDbEntity
  8
0
100
AcDbLine
 62
7
  6
CONTINUOUS
 10
0.3166841287
 20
217.6248963814
 11
-8.6833158713
 21
217.6248963814
  0
LINE
  5
44A
100
AcDbEntity
  8
0
100
AcDbLine
 62
7
  6
CONTINUOUS
 10
51.5166841287
 20
220.4798963814
 11
42.5166841287
 21
220.4798963814
  0
LINE
  5
44B
100
AcDbEntity
  8
0
100
AcDbLine
 62
7
  6
CONTINUOUS
 10
42.5166841287
 20
224.1798963814
 11
51.5166841287
 21
224.1798963814
  0
LINE
  5
44C
100
AcDbEntity
  8
0
100
AcDbLine
 62
7
  6
CONTINUOUS
 10
0.3166841287
 20
226.6248963814
 11
-8.6833158713
 21
226.6248963814
  0
LINE
  5
44D
100
AcDbEntity
  8
0
100
AcDbLine
 62
7
  6
CONTINUOUS
 10
51.5166841287
 20
233.1798963814
 11
42.5166841287
 21
233.1798963814
  0
LINE
  5
44E
100
AcDbEntity
  8
0
100
AcDbLine
 62
7
  6
CONTINUOUS
 10
42.5166841287
 20
240.0548963814
 11
51.5166841287
 21
240.0548963814
  0
LINE
  5
44F
100
AcDbEntity
  8
0
100
AcDbLine
 62
7
  6
CONTINUOUS
 10
51.5166841287
 20
249.0548963814
 11
42.5166841287
 21
249.0548963814
  0
LINE
  5
450
100
AcDbEntity
  8
0
100
AcDbLine
 62
7
  6
CONTINUOUS
 10
42.5166841287
 20
255.9298963814
 11
51.5166841287
 21
255.9298963814
  0
LINE
  5
451
100
AcDbEntity
  8
0
100
AcDbLine
 62
7
  6
CONTINUOUS
 10
0.3166841287
 20
260.6748963814
 11
-8.6833158713
 21
260.6748963814
  0
LINE
  5
452
100
AcDbEntity
  8
0
100
AcDbLine
 62
7
  6
CONTINUOUS
 10
51.5166841287
 20
264.9298963814
 11
42.5166841287
 21
264.9298963814
  0
LINE
  5
453
100
AcDbEntity
  8
0
100
AcDbLine
 62
7
  6
CONTINUOUS
 10
42.5166841287
 20
268.6298963814
 11
51.5166841287
 21
268.6298963814
  0
LINE
  5
454
100
AcDbEntity
  8
0
100
AcDbLine
 62
7
  6
CONTINUOUS
 10
0.3166841287
 20
269.6748963814
 11
-8.6833158713
 21
269.6748963814
  0
LINE
  5
455
100
AcDbEntity
  8
0
100
AcDbLine
 62
7
  6
CONTINUOUS
 10
51.5166841287
 20
277.6298963814
 11
42.5166841287
 21
277.6298963814
  0
LINE
  5
456
100
AcDbEntity
  8
0
100
AcDbLine
 62
7
  6
CONTINUOUS
 10
42.5166841287
 20
284.5048963814
 11
51.5166841287
 21
284.5048963814
  0
LINE
  5
457
100
AcDbEntity
  8
0
100
AcDbLine
 62
7
  6
CONTINUOUS
 10
51.5166841287
 20
293.5048963814
 11
42.5166841287
 21
293.5048963814
  0
LINE
  5
458
100
AcDbEntity
  8
0
100
AcDbLine
 62
7
  6
CONTINUOUS
 10
42.5166841287
 20
300.3798963814
 11
51.5166841287
 21
300.3798963814
  0
LINE
  5
459
100
AcDbEntity
  8
0
100
AcDbLine
 62
7
  6
CONTINUOUS
 10
0.3166841287
 20
303.7248963814
 11
-8.6833158713
 21
303.7248963814
  0
LINE
  5
45A
100
AcDbEntity
  8
0
100
AcDbLine
 62
7
  6
CONTINUOUS
 10
51.5166841287
 20
309.3798963814
 11
42.5166841287
 21
309.3798963814
  0
LINE
  5
45B
100
AcDbEntity
  8
0
100
AcDbLine
 62
7
  6
CONTINUOUS
 10
0.3166841287
 20
312.7248963814
 11
-8.6833158713
 21
312.7248963814
  0
LINE
  5
45C
100
AcDbEntity
  8
0
100
AcDbLine
 62
7
  6
CONTINUOUS
 10
42.5166841287
 20
313.0798963814
 11
51.5166841287
 21
313.0798963814
  0
LINE
  5
45D
100
AcDbEntity
  8
0
100
AcDbLine
 62
7
  6
CONTINUOUS
 10
51.5166841287
 20
322.0798963814
 11
42.5166841287
 21
322.0798963814
  0
LINE
  5
45E
100
AcDbEntity
  8
0
100
AcDbLine
 62
7
  6
CONTINUOUS
 10
42.5166841287
 20
328.9548963814
 11
51.5166841287
 21
328.9548963814
  0
LINE
  5
45F
100
AcDbEntity
  8
0
100
AcDbLine
 62
7
  6
CONTINUOUS
 10
51.5166841287
 20
337.9548963814
 11
42.5166841287
 21
337.9548963814
  0
LINE
  5
460
100
AcDbEntity
  8
0
100
AcDbLine
 62
7
  6
CONTINUOUS
 10
42.5166841287
 20
344.8298963814
 11
51.5166841287
 21
344.8298963814
  0
LINE
  5
461
100
AcDbEntity
  8
0
100
AcDbLine
 62
7
  6
CONTINUOUS
 10
0.3166841287
 20
346.7748963814
 11
-8.6833158713
 21
346.7748963814
  0
LINE
  5
462
100
AcDbEntity
  8
0
100
AcDbLine
 62
7
  6
CONTINUOUS
 10
51.5166841287
 20
353.8298963814
 11
42.5166841287
 21
353.8298963814
  0
LINE
  5
463
100
AcDbEntity
  8
0
100
AcDbLine
 62
7
  6
CONTINUOUS
 10
0.3166841287
 20
355.7748963814
 11
-8.6833158713
 21
355.7748963814
  0
LINE
  5
464
100
AcDbEntity
  8
0
100
AcDbLine
 62
7
  6
CONTINUOUS
 10
42.5166841287
 20
357.5298963814
 11
51.5166841287
 21
357.5298963814
  0
LINE
  5
465
100
AcDbEntity
  8
0
100
AcDbLine
 62
7
  6
CONTINUOUS
 10
51.5166841287
 20
366.5298963814
 11
42.5166841287
 21
366.5298963814
  0
LINE
  5
466
100
AcDbEntity
  8
0
100
AcDbLine
 62
7
  6
CONTINUOUS
 10
42.5166841287
 20
373.4048963814
 11
51.5166841287
 21
373.4048963814
  0
LINE
  5
467
100
AcDbEntity
  8
0
100
AcDbLine
 62
7
  6
CONTINUOUS
 10
51.5166841287
 20
382.4048963814
 11
42.5166841287
 21
382.4048963814
  0
LINE
  5
468
100
AcDbEntity
  8
0
100
AcDbLine
 62
7
  6
CONTINUOUS
 10
42.5166841287
 20
389.2798963814
 11
51.5166841287
 21
389.2798963814
  0
LINE
  5
469
100
AcDbEntity
  8
0
100
AcDbLine
 62
7
  6
CONTINUOUS
 10
0.3166841287
 20
389.8248963814
 11
-8.6833158713
 21
389.8248963814
  0
LINE
  5
46A
100
AcDbEntity
  8
0
100
AcDbLine
 62
7
  6
CONTINUOUS
 10
51.5166841287
 20
398.2798963814
 11
42.5166841287
 21
398.2798963814
  0
LINE
  5
46B
100
AcDbEntity
  8
0
100
AcDbLine
 62
7
  6
CONTINUOUS
 10
0.3166841287
 20
398.8248963814
 11
-8.6833158713
 21
398.8248963814
  0
LINE
  5
46C
100
AcDbEntity
  8
0
100
AcDbLine
 62
7
  6
CONTINUOUS
 10
42.5166841287
 20
401.9798963814
 11
51.5166841287
 21
401.9798963814
  0
LINE
  5
46D
100
AcDbEntity
  8
0
100
AcDbLine
 62
7
  6
CONTINUOUS
 10
51.5166841287
 20
410.9798963814
 11
42.5166841287
 21
410.9798963814
  0
LINE
  5
46E
100
AcDbEntity
  8
0
100
AcDbLine
 62
7
  6
CONTINUOUS
 10
42.5166841287
 20
417.8548963814
 11
51.5166841287
 21
417.8548963814
  0
LINE
  5
46F
100
AcDbEntity
  8
0
100
AcDbLine
 62
7
  6
CONTINUOUS
 10
51.5166841287
 20
426.8548963814
 11
42.5166841287
 21
426.8548963814
  0
LINE
  5
470
100
AcDbEntity
  8
0
100
AcDbLine
 62
7
  6
CONTINUOUS
 10
0.3166841287
 20
432.8748963814
 11
-8.6833158713
 21
432.8748963814
  0
LINE
  5
471
100
AcDbEntity
  8
0
100
AcDbLine
 62
7
  6
CONTINUOUS
 10
42.5166841287
 20
433.7298963814
 11
51.5166841287
 21
433.7298963814
  0
LINE
  5
472
100
AcDbEntity
  8
0
100
AcDbLine
 62
7
  6
CONTINUOUS
 10
0.3166841287
 20
441.8748963814
 11
-8.6833158713
 21
441.8748963814
  0
LINE
  5
473
100
AcDbEntity
  8
0
100
AcDbLine
 62
7
  6
CONTINUOUS
 10
51.5166841287
 20
442.7298963814
 11
42.5166841287
 21
442.7298963814
  0
LINE
  5
474
100
AcDbEntity
  8
0
100
AcDbLine
 62
7
  6
CONTINUOUS
 10
42.5166841287
 20
446.4298963814
 11
51.5166841287
 21
446.4298963814
  0
LINE
  5
475
100
AcDbEntity
  8
0
100
AcDbLine
 62
7
  6
CONTINUOUS
 10
51.5166841287
 20
455.4298963814
 11
42.5166841287
 21
455.4298963814
  0
LINE
  5
476
100
AcDbEntity
  8
0
100
AcDbLine
 62
7
  6
CONTINUOUS
 10
42.5166841287
 20
462.3048963814
 11
51.5166841287
 21
462.3048963814
  0
LINE
  5
477
100
AcDbEntity
  8
0
100
AcDbLine
 62
7
  6
CONTINUOUS
 10
51.5166841287
 20
471.3048963814
 11
42.5166841287
 21
471.3048963814
  0
LINE
  5
478
100
AcDbEntity
  8
0
100
AcDbLine
 62
7
  6
CONTINUOUS
 10
0.3166841287
 20
475.9248963814
 11
-8.6833158713
 21
475.9248963814
  0
LINE
  5
479
100
AcDbEntity
  8
0
100
AcDbLine
 62
7
  6
CONTINUOUS
 10
42.5166841287
 20
478.1798963814
 11
51.5166841287
 21
478.1798963814
  0
LINE
  5
47A
100
AcDbEntity
  8
0
100
AcDbLine
 62
7
  6
CONTINUOUS
 10
0.3166841287
 20
484.9248963814
 11
-8.6833158713
 21
484.9248963814
  0
LINE
  5
47B
100
AcDbEntity
  8
0
100
AcDbLine
 62
7
  6
CONTINUOUS
 10
51.5166841287
 20
487.1798963814
 11
42.5166841287
 21
487.1798963814
  0
LINE
  5
47C
100
AcDbEntity
  8
0
100
AcDbLine
 62
7
  6
CONTINUOUS
 10
42.5166841287
 20
490.8798963814
 11
51.5166841287
 21
490.8798963814
  0
LINE
  5
47D
100
AcDbEntity
  8
0
100
AcDbLine
 62
7
  6
CONTINUOUS
 10
51.5166841287
 20
499.8798963814
 11
42.5166841287
 21
499.8798963814
  0
LINE
  5
47E
100
AcDbEntity
  8
0
100
AcDbLine
 62
7
  6
CONTINUOUS
 10
42.5166841287
 20
506.7548963814
 11
51.5166841287
 21
506.7548963814
  0
LINE
  5
47F
100
AcDbEntity
  8
0
100
AcDbLine
 62
7
  6
CONTINUOUS
 10
51.5166841287
 20
515.7548963814
 11
42.5166841287
 21
515.7548963814
  0
LINE
  5
480
100
AcDbEntity
  8
0
100
AcDbLine
 62
7
  6
CONTINUOUS
 10
0.3166841287
 20
518.9748963814
 11
-8.6833158713
 21
518.9748963814
  0
LINE
  5
481
100
AcDbEntity
  8
0
100
AcDbLine
 62
7
  6
CONTINUOUS
 10
42.5166841287
 20
522.6298963814
 11
51.5166841287
 21
522.6298963814
  0
LINE
  5
482
100
AcDbEntity
  8
0
100
AcDbLine
 62
7
  6
CONTINUOUS
 10
0.3166841287
 20
527.9748963814
 11
-8.6833158713
 21
527.9748963814
  0
LINE
  5
483
100
AcDbEntity
  8
0
100
AcDbLine
 62
7
  6
CONTINUOUS
 10
51.5166841287
 20
531.6298963814
 11
42.5166841287
 21
531.6298963814
  0
LINE
  5
484
100
AcDbEntity
  8
0
100
AcDbLine
 62
7
  6
CONTINUOUS
 10
42.5166841287
 20
535.3298963814
 11
51.5166841287
 21
535.3298963814
  0
LINE
  5
485
100
AcDbEntity
  8
0
100
AcDbLine
 62
7
  6
CONTINUOUS
 10
51.5166841287
 20
544.3298963814
 11
42.5166841287
 21
544.3298963814
  0
LINE
  5
486
100
AcDbEntity
  8
0
100
AcDbLine
 62
7
  6
CONTINUOUS
 10
42.5166841287
 20
551.2048963814
 11
51.5166841287
 21
551.2048963814
  0
LINE
  5
487
100
AcDbEntity
  8
0
100
AcDbLine
 62
7
  6
CONTINUOUS
 10
51.5166841287
 20
560.2048963814
 11
42.5166841287
 21
560.2048963814
  0
LINE
  5
488
100
AcDbEntity
  8
0
100
AcDbLine
 62
7
  6
CONTINUOUS
 10
0.3166841287
 20
562.0248963814
 11
-8.6833158713
 21
562.0248963814
  0
LINE
  5
489
100
AcDbEntity
  8
0
100
AcDbLine
 62
7
  6
CONTINUOUS
 10
42.5166841287
 20
567.0798963814
 11
51.5166841287
 21
567.0798963814
  0
LINE
  5
48A
100
AcDbEntity
  8
0
100
AcDbLine
 62
7
  6
CONTINUOUS
 10
0.3166841287
 20
571.0248963814
 11
-8.6833158713
 21
571.0248963814
  0
LINE
  5
48B
100
AcDbEntity
  8
0
100
AcDbLine
 62
7
  6
CONTINUOUS
 10
51.5166841287
 20
576.0798963814
 11
42.5166841287
 21
576.0798963814
  0
LINE
  5
48C
100
AcDbEntity
  8
0
100
AcDbLine
 62
7
  6
CONTINUOUS
 10
42.5166841287
 20
579.7798963814
 11
51.5166841287
 21
579.7798963814
  0
LINE
  5
48D
100
AcDbEntity
  8
0
100
AcDbLine
 62
7
  6
CONTINUOUS
 10
51.5166841287
 20
588.7798963814
 11
42.5166841287
 21
588.7798963814
  0
LINE
  5
48E
100
AcDbEntity
  8
0
100
AcDbLine
 62
7
  6
CONTINUOUS
 10
42.5166841287
 20
595.6548963814
 11
51.5166841287
 21
595.6548963814
  0
LINE
  5
48F
100
AcDbEntity
  8
0
100
AcDbLine
 62
7
  6
CONTINUOUS
 10
51.5166841287
 20
604.6548963814
 11
42.5166841287
 21
604.6548963814
  0
LINE
  5
490
100
AcDbEntity
  8
0
100
AcDbLine
 62
7
  6
CONTINUOUS
 10
0.3166841287
 20
605.0748963814
 11
-8.6833158713
 21
605.0748963814
  0
LINE
  5
491
100
AcDbEntity
  8
0
100
AcDbLine
 62
7
  6
CONTINUOUS
 10
42.5166841287
 20
611.5298963814
 11
51.5166841287
 21
611.5298963814
  0
LINE
  5
492
100
AcDbEntity
  8
0
100
AcDbLine
 62
7
  6
CONTINUOUS
 10
0.3166841287
 20
614.0748963814
 11
-8.6833158713
 21
614.0748963814
  0
LINE
  5
493
100
AcDbEntity
  8
0
100
AcDbLine
 62
7
  6
CONTINUOUS
 10
51.5166841287
 20
620.5298963814
 11
42.5166841287
 21
620.5298963814
  0
LINE
  5
494
100
AcDbEntity
  8
0
100
AcDbLine
 62
7
  6
CONTINUOUS
 10
42.5166841287
 20
624.2298963814
 11
51.5166841287
 21
624.2298963814
  0
LINE
  5
495
100
AcDbEntity
  8
0
100
AcDbLine
 62
7
  6
CONTINUOUS
 10
51.5166841287
 20
633.2298963814
 11
42.5166841287
 21
633.2298963814
  0
LINE
  5
496
100
AcDbEntity
  8
0
100
AcDbLine
 62
7
  6
CONTINUOUS
 10
42.5166841287
 20
640.1048963814
 11
51.5166841287
 21
640.1048963814
  0
LINE
  5
497
100
AcDbEntity
  8
0
100
AcDbLine
 62
7
  6
CONTINUOUS
 10
0.3166841287
 20
648.1248963814
 11
-8.6833158713
 21
648.1248963814
  0
LINE
  5
498
100
AcDbEntity
  8
0
100
AcDbLine
 62
7
  6
CONTINUOUS
 10
51.5166841287
 20
649.1048963814
 11
42.5166841287
 21
649.1048963814
  0
LINE
  5
499
100
AcDbEntity
  8
0
100
AcDbLine
 62
7
  6
CONTINUOUS
 10
42.5166841287
 20
655.9798963814
 11
51.5166841287
 21
655.9798963814
  0
LINE
  5
49A
100
AcDbEntity
  8
0
100
AcDbLine
 62
7
  6
CONTINUOUS
 10
0.3166841287
 20
657.1248963814
 11
-8.6833158713
 21
657.1248963814
  0
LINE
  5
49B
100
AcDbEntity
  8
0
100
AcDbLine
 62
7
  6
CONTINUOUS
 10
51.5166841287
 20
664.9798963814
 11
42.5166841287
 21
664.9798963814
  0
LINE
  5
49C
100
AcDbEntity
  8
0
100
AcDbLine
 62
7
  6
CONTINUOUS
 10
42.5166841287
 20
668.6798963814
 11
51.5166841287
 21
668.6798963814
  0
LINE
  5
49D
100
AcDbEntity
  8
0
100
AcDbLine
 62
7
  6
CONTINUOUS
 10
51.5166841287
 20
677.6798963814
 11
42.5166841287
 21
677.6798963814
  0
LINE
  5
49E
100
AcDbEntity
  8
0
100
AcDbLine
 62
7
  6
CONTINUOUS
 10
42.5166841287
 20
684.5548963814
 11
51.5166841287
 21
684.5548963814
  0
LINE
  5
49F
100
AcDbEntity
  8
0
100
AcDbLine
 62
7
  6
CONTINUOUS
 10
0.3166841287
 20
691.1748963814
 11
-8.6833158713
 21
691.1748963814
  0
LINE
  5
4A0
100
AcDbEntity
  8
0
100
AcDbLine
 62
7
  6
CONTINUOUS
 10
51.5166841287
 20
693.5548963814
 11
42.5166841287
 21
693.5548963814
  0
LINE
  5
4A1
100
AcDbEntity
  8
0
100
AcDbLine
 62
7
  6
CONTINUOUS
 10
0.3166841287
 20
700.1748963814
 11
-8.6833158713
 21
700.1748963814
  0
LINE
  5
4A2
100
AcDbEntity
  8
0
100
AcDbLine
 62
7
  6
CONTINUOUS
 10
42.5166841287
 20
700.4298963814
 11
51.5166841287
 21
700.4298963814
  0
LINE
  5
4A3
100
AcDbEntity
  8
0
100
AcDbLine
 62
7
  6
CONTINUOUS
 10
51.5166841287
 20
709.4298963814
 11
42.5166841287
 21
709.4298963814
  0
LINE
  5
4A4
100
AcDbEntity
  8
0
100
AcDbLine
 62
7
  6
CONTINUOUS
 10
42.5166841287
 20
713.1298963814
 11
51.5166841287
 21
713.1298963814
  0
LINE
  5
4A5
100
AcDbEntity
  8
0
100
AcDbLine
 62
7
  6
CONTINUOUS
 10
51.5166841287
 20
722.1298963814
 11
42.5166841287
 21
722.1298963814
  0
LINE
  5
4A6
100
AcDbEntity
  8
0
100
AcDbLine
 62
7
  6
CONTINUOUS
 10
42.5166841287
 20
729.0048963814
 11
51.5166841287
 21
729.0048963814
  0
LINE
  5
4A7
100
AcDbEntity
  8
0
100
AcDbLine
 62
7
  6
CONTINUOUS
 10
0.3166841287
 20
734.2248963814
 11
-8.6833158713
 21
734.2248963814
  0
LINE
  5
4A8
100
AcDbEntity
  8
0
100
AcDbLine
 62
7
  6
CONTINUOUS
 10
51.5166841287
 20
738.0048963814
 11
42.5166841287
 21
738.0048963814
  0
LINE
  5
4A9
100
AcDbEntity
  8
0
100
AcDbLine
 62
7
  6
CONTINUOUS
 10
0.3166841287
 20
743.2248963814
 11
-8.6833158713
 21
743.2248963814
  0
LINE
  5
4AA
100
AcDbEntity
  8
0
100
AcDbLine
 62
7
  6
CONTINUOUS
 10
42.5166841287
 20
744.8798963814
 11
51.5166841287
 21
744.8798963814
  0
LINE
  5
4AB
100
AcDbEntity
  8
0
100
AcDbLine
 62
7
  6
CONTINUOUS
 10
51.5166841287
 20
753.8798963814
 11
42.5166841287
 21
753.8798963814
  0
LINE
  5
4AC
100
AcDbEntity
  8
0
100
AcDbLine
 62
7
  6
CONTINUOUS
 10
42.5166841287
 20
757.5798963814
 11
51.5166841287
 21
757.5798963814
  0
LINE
  5
4AD
100
AcDbEntity
  8
0
100
AcDbLine
 62
7
  6
CONTINUOUS
 10
51.5166841287
 20
766.5798963814
 11
42.5166841287
 21
766.5798963814
  0
LINE
  5
4AE
100
AcDbEntity
  8
0
100
AcDbLine
 62
7
  6
CONTINUOUS
 10
42.5166841287
 20
773.4548963814
 11
51.5166841287
 21
773.4548963814
  0
LINE
  5
4AF
100
AcDbEntity
  8
0
100
AcDbLine
 62
7
  6
CONTINUOUS
 10
0.3166841287
 20
777.2748963814
 11
-8.6833158713
 21
777.2748963814
  0
LINE
  5
4B0
100
AcDbEntity
  8
0
100
AcDbLine
 62
7
  6
CONTINUOUS
 10
51.5166841287
 20
782.4548963814
 11
42.5166841287
 21
782.4548963814
  0
LINE
  5
4B1
100
AcDbEntity
  8
0
100
AcDbLine
 62
7
  6
CONTINUOUS
 10
0.3166841287
 20
786.2748963814
 11
-8.6833158713
 21
786.2748963814
  0
LINE
  5
4B2
100
AcDbEntity
  8
0
100
AcDbLine
 62
7
  6
CONTINUOUS
 10
42.5166841287
 20
789.3298963814
 11
51.5166841287
 21
789.3298963814
  0
LINE
  5
4B3
100
AcDbEntity
  8
0
100
AcDbLine
 62
7
  6
CONTINUOUS
 10
51.5166841287
 20
798.3298963814
 11
42.5166841287
 21
798.3298963814
  0
LINE
  5
4B4
100
AcDbEntity
  8
0
100
AcDbLine
 62
7
  6
CONTINUOUS
 10
42.5166841287
 20
802.0298963814
 11
51.5166841287
 21
802.0298963814
  0
LINE
  5
4B5
100
AcDbEntity
  8
0
100
AcDbLine
 62
7
  6
CONTINUOUS
 10
51.5166841287
 20
811.0298963814
 11
42.5166841287
 21
811.0298963814
  0
LINE
  5
4B6
100
AcDbEntity
  8
0
100
AcDbLine
 62
7
  6
CONTINUOUS
 10
42.5166841287
 20
817.9048963814
 11
51.5166841287
 21
817.9048963814
  0
LINE
  5
4B7
100
AcDbEntity
  8
0
100
AcDbLine
 62
7
  6
CONTINUOUS
 10
0.3166841287
 20
820.3248963814
 11
-8.6833158713
 21
820.3248963814
  0
LINE
  5
4B8
100
AcDbEntity
  8
0
100
AcDbLine
 62
7
  6
CONTINUOUS
 10
51.5166841287
 20
826.9048963814
 11
42.5166841287
 21
826.9048963814
  0
LINE
  5
4B9
100
AcDbEntity
  8
0
100
AcDbLine
 62
7
  6
CONTINUOUS
 10
0.3166841287
 20
829.3248963814
 11
-8.6833158713
 21
829.3248963814
  0
LINE
  5
4BA
100
AcDbEntity
  8
0
100
AcDbLine
 62
7
  6
CONTINUOUS
 10
42.5166841287
 20
833.7798963814
 11
51.5166841287
 21
833.7798963814
  0
LINE
  5
4BB
100
AcDbEntity
  8
0
100
AcDbLine
 62
7
  6
CONTINUOUS
 10
51.5166841287
 20
842.7798963814
 11
42.5166841287
 21
842.7798963814
  0
LINE
  5
4BC
100
AcDbEntity
  8
0
100
AcDbLine
 62
7
  6
CONTINUOUS
 10
42.5166841287
 20
846.4798963814
 11
51.5166841287
 21
846.4798963814
  0
LINE
  5
4BD
100
AcDbEntity
  8
0
100
AcDbLine
 62
7
  6
CONTINUOUS
 10
51.5166841287
 20
855.4798963814
 11
42.5166841287
 21
855.4798963814
  0
LINE
  5
4BE
100
AcDbEntity
  8
0
100
AcDbLine
 62
7
  6
CONTINUOUS
 10
42.5166841287
 20
862.3548963814
 11
51.5166841287
 21
862.3548963814
  0
LINE
  5
4BF
100
AcDbEntity
  8
0
100
AcDbLine
 62
7
  6
CONTINUOUS
 10
0.3166841287
 20
863.3748963814
 11
-8.6833158713
 21
863.3748963814
  0
LINE
  5
4C0
100
AcDbEntity
  8
0
100
AcDbLine
 62
7
  6
CONTINUOUS
 10
51.5166841287
 20
871.3548963814
 11
42.5166841287
 21
871.3548963814
  0
LINE
  5
4C1
100
AcDbEntity
  8
0
100
AcDbLine
 62
7
  6
CONTINUOUS
 10
0.3166841287
 20
872.3748963814
 11
-8.6833158713
 21
872.3748963814
  0
LINE
  5
4C2
100
AcDbEntity
  8
0
100
AcDbLine
 62
7
  6
CONTINUOUS
 10
42.5166841287
 20
878.2298963814
 11
51.5166841287
 21
878.2298963814
  0
LINE
  5
4C3
100
AcDbEntity
  8
0
100
AcDbLine
 62
7
  6
CONTINUOUS
 10
51.5166841287
 20
887.2298963814
 11
42.5166841287
 21
887.2298963814
  0
LINE
  5
4C4
100
AcDbEntity
  8
0
100
AcDbLine
 62
7
  6
CONTINUOUS
 10
42.5166841287
 20
890.9298963814
 11
51.5166841287
 21
890.9298963814
  0
LINE
  5
4C5
100
AcDbEntity
  8
0
100
AcDbLine
 62
7
  6
CONTINUOUS
 10
51.5166841287
 20
899.9298963814
 11
42.5166841287
 21
899.9298963814
  0
LINE
  5
4C6
100
AcDbEntity
  8
0
100
AcDbLine
 62
7
  6
CONTINUOUS
 10
0.3166841287
 20
906.4248963814
 11
-8.6833158713
 21
906.4248963814
  0
LINE
  5
4C7
100
AcDbEntity
  8
0
100
AcDbLine
 62
7
  6
CONTINUOUS
 10
42.5166841287
 20
906.8048963814
 11
51.5166841287
 21
906.8048963814
  0
LINE
  5
4C8
100
AcDbEntity
  8
0
100
AcDbLine
 62
7
  6
CONTINUOUS
 10
0.3166841287
 20
915.4248963814
 11
-8.6833158713
 21
915.4248963814
  0
LINE
  5
4C9
100
AcDbEntity
  8
0
100
AcDbLine
 62
7
  6
CONTINUOUS
 10
51.5166841287
 20
915.8048963814
 11
42.5166841287
 21
915.8048963814
  0
LINE
  5
4CA
100
AcDbEntity
  8
RACCORDO
100
AcDbLine
 62
7
  6
CONTINUOUS
 10
52.3166841287
 20
920.6248963814
 11
40.8166841287
 21
920.6248963814
  0
LINE
  5
4CB
100
AcDbEntity
  8
RACCORDO
100
AcDbLine
 62
7
  6
CONTINUOUS
 10
38.8166841287
 20
925.1248963814
 11
27.8166841287
 21
925.1248963814
  0
LINE
  5
4CC
100
AcDbEntity
  8
0
100
AcDbLine
 62
7
  6
CONTINUOUS
 10
24.3166841287
 20
925.1248963814
 11
27.8166841287
 21
925.1248963814
  0
LINE
  5
4CD
100
AcDbEntity
  8
RACCORDO
100
AcDbLine
 62
253
  6
CONTINUOUS
 10
-52.6833158713
 20
930.6248963814
 11
-54.6833158713
 21
930.6248963814
  0
LINE
  5
4CE
100
AcDbEntity
  8
0
100
AcDbLine
 62
7
  6
CONTINUOUS
 10
-49.6833158713
 20
932.6248963814
 11
-52.6833158713
 21
932.6248963814
  0
LINE
  5
4CF
100
AcDbEntity
  8
RACCORDO
100
AcDbLine
 62
7
  6
CONTINUOUS
 10
-52.6833158713
 20
932.6248963814
 11
-54.6833158713
 21
932.6248963814
  0
LINE
  5
4D0
100
AcDbEntity
  8
0
100
AcDbLine
 62
7
  6
CONTINUOUS
 10
0.3166841287
 20
950.9248963814
 11
-8.6833158713
 21
950.9248963814
  0
LINE
  5
4D1
100
AcDbEntity
  8
RACCORDO
100
AcDbLine
 62
7
  6
CONTINUOUS
 10
-47.6833158713
 20
953.6248963814
 11
-8.6833158713
 21
953.6248963814
  0
LINE
  5
4D2
100
AcDbEntity
  8
RACCORDO
100
AcDbLine
 62
7
  6
CONTINUOUS
 10
0.3166841287
 20
953.6248963814
 11
22.3166841287
 21
953.6248963814
  0
ARC
  5
4D3
100
AcDbEntity
  8
ASSI
100
AcDbCircle
 62
7
  6
CONTINUOUS
 10
-39.1833158713
 20
945.3248963814
 40
3.5
100
AcDbArc
 50
0.0
 51
180.0
  0
ARC
  5
4D4
100
AcDbEntity
  8
ASSI
100
AcDbCircle
 62
7
  6
CONTINUOUS
 10
-39.1833158713
 20
941.9248963814
 40
3.5
100
AcDbArc
 50
180.0
 51
360.0
  0
ARC
  5
4D5
100
AcDbEntity
  8
ASSI
100
AcDbCircle
 62
7
  6
CONTINUOUS
 10
-39.1833158713
 20
-941.6751036186
 40
3.5
100
AcDbArc
 50
0.0
 51
180.0
  0
ARC
  5
4D6
100
AcDbEntity
  8
ASSI
100
AcDbCircle
 62
7
  6
CONTINUOUS
 10
-39.1833158713
 20
-945.0751036186
 40
3.5
100
AcDbArc
 50
180.0
 51
360.0
  0
ARC
  5
4D7
100
AcDbEntity
  8
ASSI
100
AcDbCircle
 62
7
  6
CONTINUOUS
 10
13.8166841287
 20
-945.0751036186
 40
3.5
100
AcDbArc
 50
180.0
 51
360.0
  0
ARC
  5
4D8
100
AcDbEntity
  8
ASSI
100
AcDbCircle
 62
7
  6
CONTINUOUS
 10
13.8166841287
 20
-941.6751036186
 40
3.5
100
AcDbArc
 50
0.0
 51
180.0
  0
ARC
  5
4D9
100
AcDbEntity
  8
ASSI
100
AcDbCircle
 62
7
  6
CONTINUOUS
 10
13.8166841287
 20
941.9248963814
 40
3.5
100
AcDbArc
 50
180.0
 51
360.0
  0
ARC
  5
4DA
100
AcDbEntity
  8
ASSI
100
AcDbCircle
 62
7
  6
CONTINUOUS
 10
13.8166841287
 20
945.3248963814
 40
3.5
100
AcDbArc
 50
0.0
 51
180.0
  0
ARC
  5
4DB
100
AcDbEntity
  8
RACCORDO
100
AcDbCircle
 62
7
  6
CONTINUOUS
 10
-47.6833158713
 20
951.6248963814
 40
2.0
100
AcDbArc
 50
90.0
 51
180.0
  0
ARC
  5
4DC
100
AcDbEntity
  8
RACCORDO
100
AcDbCircle
 62
7
  6
CONTINUOUS
 10
-47.6833158713
 20
-951.3751036186
 40
2.0
100
AcDbArc
 50
180.0
 51
270.0
  0
ARC
  5
4DD
100
AcDbEntity
  8
RACCORDO
100
AcDbCircle
 62
7
  6
CONTINUOUS
 10
22.3166841287
 20
-951.3751036186
 40
2.0
100
AcDbArc
 50
270.0
 51
360.0
  0
ARC
  5
4DE
100
AcDbEntity
  8
RACCORDO
100
AcDbCircle
 62
7
  6
CONTINUOUS
 10
22.3166841287
 20
951.6248963814
 40
2.0
100
AcDbArc
 50
0.0
 51
90.0
  0
ARC
  5
4DF
100
AcDbEntity
  8
RACCORDO
100
AcDbCircle
 62
7
  6
CONTINUOUS
 10
52.3166841287
 20
-918.3751036186
 40
2.0
100
AcDbArc
 50
270.0
 51
360.0
  0
ARC
  5
4E0
100
AcDbEntity
  8
RACCORDO
100
AcDbCircle
 62
7
  6
CONTINUOUS
 10
52.3166841287
 20
918.6248963814
 40
2.0
100
AcDbArc
 50
0.0
 51
90.0
  0
ARC
  5
4E1
100
AcDbEntity
  8
RACCORDO
100
AcDbCircle
 62
7
  6
CONTINUOUS
 10
38.8166841287
 20
923.1248963814
 40
2.0
100
AcDbArc
 50
0.0
 51
90.0
  0
ARC
  5
4E2
100
AcDbEntity
  8
RACCORDO
100
AcDbCircle
 62
7
  6
CONTINUOUS
 10
38.8166841287
 20
-922.8751036186
 40
2.0
100
AcDbArc
 50
270.0
 51
360.0
  0
ENDSEC
  0
SECTION
  2
OBJECTS
  0
DICTIONARY
  5
C
100
AcDbDictionary
280
0
281
1
  3
ACAD_GROUP
350
D
  3
ACAD_MLINESTYLE
350
17
  3
ACAD_LAYOUT
350
1A
  3
ACAD_PLOTSETTINGS
350
19
  3
ACAD_PLOTSTYLENAME
350
E
  0
DICTIONARY
  5
D
102
{ACAD_REACTORS
330
C
102
}
100
AcDbDictionary
280
0
281
1
  0
ACDBDICTIONARYWDFLT
  5
E
102
{ACAD_REACTORS
330
C
102
}
100
AcDbDictionary
281
1
  3
Normal
350
F
100
AcDbDictionaryWithDefault
340
F
  0
DICTIONARY
  5
17
102
{ACAD_REACTORS
330
C
102
}
100
AcDbDictionary
280
0
281
1
  3
Standard
350
18
  0
DICTIONARY
  5
19
102
{ACAD_REACTORS
330
C
102
}
100
AcDbDictionary
281
1
  0
DICTIONARY
  5
1A
102
{ACAD_REACTORS
330
C
102
}
100
AcDbDictionary
281
1
  3
Model
350
4E3
  3
Layout1
350
4E4
  0
ACDBPLACEHOLDER
  5
F
102
{ACAD_REACTORS
330
E
102
}
  0
MLINESTYLE
  5
18
102
{ACAD_REACTORS
330
17
102
}
100
AcDbMlineStyle
  2
STANDARD
 70
0
  3

 62
256
 51
90.0
 52
90.0
 71
2
 49
0.5
 62
256
  6
BYLAYER
 49
-0.5
 62
256
  6
BYLAYER
  0
LAYOUT
  5
4E3
102
{ACAD_REACTORS
330
1A
102
}
100
AcDbPlotSettings
  1

  2
none_device
  4
ISO_A4_(297.00_x_210.00_MM)
  6

 40
0.0
 41
0.0
 42
0.0
 43
0.0
 44
297.0
 45
210.0
 46
0.0
 47
0.0
 48
0.0
 49
0.0
140
0.0
141
0.0
142
1.0
143
1.0
 70
1024
 72
1
 73
0
 74
0
  7

 75
0
147
1.0
148
0.0
149
0.0
100
AcDbLayout
  1
Model
 70
0
 71
0
 10
0.0
 20
0.0
 11
297.0
 21
210.0
 12
0.0
 22
0.0
 32
0.0
 14
0.0
 24
0.0
 34
0.0
 15
0.0
 25
0.0
 35
0.0
146
0.0
 13
0.0
 23
0.0
 33
0.0
 16
1.0
 26
0.0
 36
0.0
 17
0.0
 27
1.0
 37
0.0
 76
0
330
20D
345
0
346
0
  0
LAYOUT
  5
4E4
102
{ACAD_REACTORS
330
1A
102
}
100
AcDbPlotSettings
  1

  2
none_device
  4
ISO_A4_(297.00_x_210.00_MM)
  6

 40
0.0
 41
0.0
 42
0.0
 43
0.0
 44
297.0
 45
210.0
 46
0.0
 47
0.0
 48
0.0
 49
0.0
140
0.0
141
0.0
142
1.0
143
1.0
 70
0
 72
1
 73
0
 74
0
  7

 75
0
147
1.0
148
0.0
149
0.0
100
AcDbLayout
  1
Layout1
 70
0
 71
1
 10
0.0
 20
0.0
 11
297.0
 21
210.0
 12
0.0
 22
0.0
 32
0.0
 14
0.0
 24
0.0
 34
0.0
 15
0.0
 25
0.0
 35
0.0
146
0.0
 13
0.0
 23
0.0
 33
0.0
 16
1.0
 26
0.0
 36
0.0
 17
0.0
 27
1.0
 37
0.0
 76
0
330
20E
345
0
346
0
  0
ENDSEC
  0
EOF
