  0
SECTION
  2
HEADER
  9
$ACADVER
  1
AC1021
  9
$DWGCODEPAGE
  3
ANSI_1252
  9
$EXTMAX
 10
297.0
 20
210.0
 30
0.0
  9
$EXTMIN
 10
0.0
 20
0.0
 30
0.0
  9
$LIMMIN
 10
0.0
 20
0.0
  9
$LIMMAX
 10
297.0
 20
210.0
  9
$VIEWCTR
 10
148.5
 20
105.0
  9
$VIEWSIZE
 40
210.0
  9
$CLAYER
  8
0
  9
$LTSCALE
 40
16.335
  9
$CELTYPE
  6
BYLAYER
  9
$DIMSCALE
 40
1.0
  9
$DIMASZ
 40
3.0
  9
$DIMEXO
 40
0.5
  9
$DIMDLI
 40
11.286
  9
$DIMEXE
 40
1.5
  9
$DIMCEN
 40
2.673
  9
$DIMLFAC
 40
1.0
  9
$DIMBLK
  1
_FILLED
  9
$DIMALT
 70
0
  9
$DIMALTF
 40
25.4
  9
$DIMTXT
 40
3.0
  9
$DIMTOL
 70
1
  9
$DIMLIM
 70
0
  9
$DIMTFAC
 40
1.0
  9
$DIMTP
 40
0.01
  9
$DIMTM
 40
0.01
  9
$DIMGAP
 40
0.625
  9
$DIMDSEP
 70
44
  9
$AUNITS
 70
0
  9
$PDMODE
 70
3
  9
$PDSIZE
 40
3.0
  9
$HANDSEED
  5
453
  9
$TILEMODE
 70
1
  9
$MEASUREMENT
 70
1
  9
$INSUNITS
 70
4
  0
ENDSEC
  0
SECTION
  2
CLASSES
  0
CLASS
  1
ACDBDICTIONARYWDFLT
  2
AcDbDictionaryWithDefault
  3
AutoCAD 2000
 90
0
 91
1
280
0
281
0
  0
CLASS
  1
ACDBPLACEHOLDER
  2
AcDbPlaceHolder
  3
AutoCAD 2000
 90
0
 91
1
280
0
281
0
  0
CLASS
  1
LAYOUT
  2
AcDbLayout
  3
AutoCAD 2000
 90
0
 91
0
280
0
281
0
  0
ENDSEC
  0
SECTION
  2
TABLES
  0
TABLE
  2
VPORT
  5
8
100
AcDbSymbolTable
 70
2
  0
VPORT
  5
1F4
100
AcDbSymbolTableRecord
100
AcDbViewportTableRecord
  2
*ACTIVE
 70
0
 10
0.0
 20
0.0
 11
1.0
 21
1.0
 12
148.5
 22
105.0
 13
0.0
 23
0.0
 14
1.0
 24
1.0
 15
0.0
 25
0.0
 16
0.0
 26
0.0
 36
1.0
 17
0.0
 27
0.0
 37
0.0
 40
210.0
 41
1.4142857143
 42
50.0
 43
0.0
 44
0.0
 50
0.0
 51
0.0
 71
0
 72
100
 73
1
 74
1
 75
0
 76
0
 77
0
 78
0
  0
ENDTAB
  0
TABLE
  2
LTYPE
  5
5
100
AcDbSymbolTable
 70
6
  0
LTYPE
  5
14
100
AcDbSymbolTableRecord
100
AcDbLinetypeTableRecord
  2
BYBLOCK
 70
0
  3

 72
65
 73
0
 40
0.0
  0
LTYPE
  5
15
100
AcDbSymbolTableRecord
100
AcDbLinetypeTableRecord
  2
BYLAYER
 70
0
  3

 72
65
 73
0
 40
0.0
  0
LTYPE
  5
16
100
AcDbSymbolTableRecord
100
AcDbLinetypeTableRecord
  2
CONTINUOUS
 70
64
  3
Solid line
 72
65
 73
0
 40
0.0
  0
LTYPE
  5
1F5
100
AcDbSymbolTableRecord
100
AcDbLinetypeTableRecord
  2
CENTER
 70
64
  3
____ _ ____ _ ____ _ ____ _ ____ _ ____ _ ____
 72
65
 73
4
 40
0.6
 49
0.375
 74
0
 49
-0.075
 74
0
 49
0.075
 74
0
 49
-0.075
 74
0
  0
LTYPE
  5
1F6
100
AcDbSymbolTableRecord
100
AcDbLinetypeTableRecord
  2
HIDDEN
 70
64
  3
- - - - - - - - - - - - - - - - - - - -
 72
65
 73
2
 40
0.2
 49
0.1
 74
0
 49
-0.1
 74
0
  0
LTYPE
  5
1F7
100
AcDbSymbolTableRecord
100
AcDbLinetypeTableRecord
  2
PHANTOM
 70
64
  3
_____ _ _ _____ _ _ _____ _ _ _____
 72
65
 73
6
 40
0.8
 49
0.45
 74
0
 49
-0.05
 74
0
 49
0.1
 74
0
 49
-0.05
 74
0
 49
0.1
 74
0
 49
-0.05
 74
0
  0
LTYPE
  5
1F8
100
AcDbSymbolTableRecord
100
AcDbLinetypeTableRecord
  2
DOT
 70
64
  3
. . . . . . . . . . . . . . . . . . . .
 72
65
 73
2
 40
0.2
 49
0.1
 74
0
 49
-0.1
 74
0
  0
LTYPE
  5
1F9
100
AcDbSymbolTableRecord
100
AcDbLinetypeTableRecord
  2
DASHED
 70
64
  3
- - - - - - - - - - - - - - - - - - - -
 72
65
 73
2
 40
0.2
 49
0.1
 74
0
 49
-0.1
 74
0
  0
ENDTAB
  0
TABLE
  2
LAYER
  5
2
100
AcDbSymbolTable
 70
36
  0
LAYER
  5
10
100
AcDbSymbolTableRecord
100
AcDbLayerTableRecord
  2
0
 70
0
 62
7
  6
CONTINUOUS
370
-3
390
F
  0
LAYER
  5
1FA
100
AcDbSymbolTableRecord
100
AcDbLayerTableRecord
  2
DEFAULT_1
 70
0
 62
7
  6
CENTER
370
-3
390
F
  0
LAYER
  5
1FB
100
AcDbSymbolTableRecord
100
AcDbLayerTableRecord
  2
DEFAULT_2
 70
0
 62
7
  6
HIDDEN
370
-3
390
F
  0
LAYER
  5
1FC
100
AcDbSymbolTableRecord
100
AcDbLayerTableRecord
  2
DEFAULT_3
 70
0
 62
7
  6
PHANTOM
370
-3
390
F
  0
LAYER
  5
1FD
100
AcDbSymbolTableRecord
100
AcDbLayerTableRecord
  2
ASSI
 70
0
 62
7
  6
CONTINUOUS
370
-3
390
F
  0
LAYER
  5
1FE
100
AcDbSymbolTableRecord
100
AcDbLayerTableRecord
  2
COORDINATE
 70
0
 62
7
  6
CONTINUOUS
370
-3
390
F
  0
LAYER
  5
1FF
100
AcDbSymbolTableRecord
100
AcDbLayerTableRecord
  2
COORD_ORIGINE
 70
0
 62
7
  6
CONTINUOUS
370
-3
390
F
  0
LAYER
  5
200
100
AcDbSymbolTableRecord
100
AcDbLayerTableRecord
  2
COSMETICI
 70
0
 62
7
  6
CONTINUOUS
370
-3
390
F
  0
LAYER
  5
201
100
AcDbSymbolTableRecord
100
AcDbLayerTableRecord
  2
CURVE
 70
0
 62
7
  6
CONTINUOUS
370
-3
390
F
  0
LAYER
  5
202
100
AcDbSymbolTableRecord
100
AcDbLayerTableRecord
  2
NOTE
 70
0
 62
7
  6
CONTINUOUS
370
-3
390
F
  0
LAYER
  5
203
100
AcDbSymbolTableRecord
100
AcDbLayerTableRecord
  2
PIANI
 70
0
 62
7
  6
CONTINUOUS
370
-3
390
F
  0
LAYER
  5
204
100
AcDbSymbolTableRecord
100
AcDbLayerTableRecord
  2
PIANI_ORIGINE
 70
0
 62
7
  6
CONTINUOUS
370
-3
390
F
  0
LAYER
  5
205
100
AcDbSymbolTableRecord
100
AcDbLayerTableRecord
  2
PUNTI
 70
0
 62
7
  6
CONTINUOUS
370
-3
390
F
  0
LAYER
  5
206
100
AcDbSymbolTableRecord
100
AcDbLayerTableRecord
  2
RACCORDO
 70
0
 62
7
  6
CONTINUOUS
370
-3
390
F
  0
LAYER
  5
207
100
AcDbSymbolTableRecord
100
AcDbLayerTableRecord
  2
SIMBOLI
 70
0
 62
7
  6
CONTINUOUS
370
-3
390
F
  0
LAYER
  5
208
100
AcDbSymbolTableRecord
100
AcDbLayerTableRecord
  2
SNAPLINE
 70
0
 62
7
  6
CONTINUOUS
370
-3
390
F
  0
LAYER
  5
209
100
AcDbSymbolTableRecord
100
AcDbLayerTableRecord
  2
SUPERFICI
 70
0
 62
7
  6
CONTINUOUS
370
-3
390
F
  0
LAYER
  5
20A
100
AcDbSymbolTableRecord
100
AcDbLayerTableRecord
  2
TRASH
 70
0
 62
7
  6
CONTINUOUS
370
-3
390
F
  0
ENDTAB
  0
TABLE
  2
STYLE
  5
3
100
AcDbSymbolTable
 70
1
  0
STYLE
  5
11
100
AcDbSymbolTableRecord
100
AcDbTextStyleTableRecord
  2
STANDARD
 70
0
 40
0.0
 41
0.8
 50
0.0
 71
0
 42
0.2
  3
txt
  4

  0
STYLE
  5
20B
100
AcDbSymbolTableRecord
100
AcDbTextStyleTableRecord
  2
TEXTSTYLE_1
 70
0
 40
0.0
 41
0.8
 50
0.0
 71
0
 42
0.2
  3
gdt
  4

  0
ENDTAB
  0
TABLE
  2
VIEW
  5
6
100
AcDbSymbolTable
 70
0
  0
ENDTAB
  0
TABLE
  2
UCS
  5
7
100
AcDbSymbolTable
 70
0
  0
ENDTAB
  0
TABLE
  2
APPID
  5
9
100
AcDbSymbolTable
 70
1
  0
APPID
  5
20C
100
AcDbSymbolTableRecord
100
AcDbRegAppTableRecord
  2
ACAD
 70
0
  0
ENDTAB
  0
TABLE
  2
BLOCK_RECORD
  5
1
100
AcDbSymbolTable
 70
0
  0
BLOCK_RECORD
  5
20D
100
AcDbSymbolTableRecord
100
AcDbBlockTableRecord
  2
*Model_Space
  0
BLOCK_RECORD
  5
20E
100
AcDbSymbolTableRecord
100
AcDbBlockTableRecord
  2
*Paper_Space
  0
ENDTAB
  0
TABLE
  2
DIMSTYLE
  5
A
100
AcDbSymbolTable
 70
1
100
AcDbDimStyleTable
 71
0
  0
DIMSTYLE
105
20F
100
AcDbSymbolTableRecord
100
AcDbDimStyleTableRecord
  2
STANDARD
 70
0
  3

  4

 40
1.0
 41
3.0
 42
0.5
 43
0.38
 44
1.5
 45
0.0
 46
0.0
 47
0.01
 48
0.01
140
3.0
141
0.09
142
0.0
143
25.4
144
1.0
145
0.0
146
1.0
147
0.625
 71
1.0
 72
0.0
 73
0
 74
0
 75
0
 76
0
 77
1
 78
8
170
0
171
1
172
0
173
0
174
0
175
0
176
0
177
0
178
0
270
2
271
2
272
2
273
2
274
2
275
0
280
0
281
0
282
0
283
1
284
8
285
0
286
0
287
3
288
0
340
11
278
44
  0
ENDTAB
  0
ENDSEC
  0
SECTION
  2
BLOCKS
  0
BLOCK
  5
20
100
AcDbEntity
  8
0
100
AcDbBlockBegin
  2
*Model_Space
 70
0
 10
0.0
 20
0.0
 30
0.0
  3
*Model_Space
  1

  0
ENDBLK
  5
21
100
AcDbEntity
  8
0
100
AcDbBlockEnd
  0
BLOCK
  5
1C
100
AcDbEntity
  8
0
100
AcDbBlockBegin
  2
*Paper_Space
 70
0
 10
0.0
 20
0.0
 30
0.0
  3
*Paper_Space
  1

  0
ENDBLK
  5
1D
100
AcDbEntity
  8
0
100
AcDbBlockEnd
  0
ENDSEC
  0
SECTION
  2
ENTITIES
  0
LINE
  5
210
100
AcDbEntity
  8
RACCORDO
100
AcDbLine
 62
7
  6
CONTINUOUS
 10
-314.4909479219
 20
4.4547804457
 11
-314.4894587928
 21
4.440225915
  0
LINE
  5
211
100
AcDbEntity
  8
RACCORDO
100
AcDbLine
 62
7
  6
CONTINUOUS
 10
-314.49205149
 20
4.4675522916
 11
-314.4908487792
 21
4.4537313548
  0
LINE
  5
212
100
AcDbEntity
  8
RACCORDO
100
AcDbLine
 62
7
  6
CONTINUOUS
 10
-314.4929051461
 20
4.4796453219
 11
-314.4919803047
 21
4.4666536282
  0
LINE
  5
213
100
AcDbEntity
  8
RACCORDO
100
AcDbLine
 62
7
  6
CONTINUOUS
 10
-314.1633577004
 20
4.8500875989
 11
-314.1626262958
 21
4.8365452016
  0
LINE
  5
214
100
AcDbEntity
  8
RACCORDO
100
AcDbLine
 62
7
  6
CONTINUOUS
 10
-314.4935145387
 20
4.4909864364
 11
-314.4928578051
 21
4.4788900152
  0
LINE
  5
215
100
AcDbEntity
  8
RACCORDO
100
AcDbLine
 62
7
  6
CONTINUOUS
 10
-314.1653279209
 20
4.8901743202
 11
-314.1632579739
 21
4.848241102
  0
LINE
  5
216
100
AcDbEntity
  8
RACCORDO
100
AcDbLine
 62
7
  6
CONTINUOUS
 10
-314.1626215975
 20
4.8365454611
 11
-314.1620125118
 21
4.8231859044
  0
LINE
  5
217
100
AcDbEntity
  8
RACCORDO
100
AcDbLine
 62
7
  6
CONTINUOUS
 10
-314.1670076531
 20
4.9302741342
 11
-314.1652184786
 21
4.8877813389
  0
LINE
  5
218
100
AcDbEntity
  8
RACCORDO
100
AcDbLine
 62
253
  6
CONTINUOUS
 10
-314.1559256254
 20
4.8369151739
 11
-314.1548627924
 21
4.8108157159
  0
LINE
  5
219
100
AcDbEntity
  8
RACCORDO
100
AcDbLine
 62
7
  6
CONTINUOUS
 10
-314.1683967921
 20
4.9703846804
 11
-314.1669155575
 21
4.9278805757
  0
LWPOLYLINE
  5
21A
100
AcDbEntity
  8
RACCORDO
100
AcDbPolyline
 62
253
  6
CONTINUOUS
 90
13
 70
0
 10
-314.4877450367
 20
4.5317700554
 10
-314.4882062165
 20
4.5456999896
 10
-314.4867402824
 20
4.5595592169
 10
-314.4833757117
 20
4.573078509
 10
-314.4781778641
 20
4.5859952412
 10
-314.4712477127
 20
4.598058494
 10
-314.4627198821
 20
4.6090339275
 10
-314.4527600332
 20
4.6187083339
 10
-314.4415616454
 20
4.6268937789
 10
-314.4293422576
 20
4.6334312527
 10
-314.4163392428
 20
4.6381937587
 10
-314.4028051964
 20
4.6410887809
 10
-314.3890030299
 20
4.6420600808
  0
LWPOLYLINE
  5
21B
100
AcDbEntity
  8
RACCORDO
100
AcDbPolyline
 62
253
  6
CONTINUOUS
 90
10
 70
0
 10
-314.2395680686
 20
4.5317700607
 10
-314.240009721
 20
4.5457000141
 10
-314.2386059261
 20
4.5595592624
 10
-314.2353839541
 20
4.5730785766
 10
-314.2304063949
 20
4.5859953314
 10
-314.2237699421
 20
4.5980586065
 10
-314.2156035152
 20
4.6090340615
 10
-314.2060657548
 20
4.6187084878
 10
-314.1953419407
 20
4.6268939505
 10
-314.1846760735
 20
4.6328528194
  0
LINE
  5
21C
100
AcDbEntity
  8
RACCORDO
100
AcDbLine
 62
7
  6
CONTINUOUS
 10
-314.1694952806
 20
5.010503997
 11
-314.1683220425
 21
4.9679905909
  0
LINE
  5
21D
100
AcDbEntity
  8
RACCORDO
100
AcDbLine
 62
7
  6
CONTINUOUS
 10
-314.1620446325
 20
4.8244310956
 11
-314.1614592516
 21
4.8017382223
  0
LINE
  5
21E
100
AcDbEntity
  8
RACCORDO
100
AcDbLine
 62
7
  6
CONTINUOUS
 10
-314.1703030695
 20
5.0506302629
 11
-314.1694378788
 21
5.0081094423
  0
LINE
  5
21F
100
AcDbEntity
  8
RACCORDO
100
AcDbLine
 62
7
  6
CONTINUOUS
 10
-314.1708201158
 20
5.0907614462
 11
-314.1702630162
 21
5.0482352931
  0
LWPOLYLINE
  5
220
100
AcDbEntity
  8
RACCORDO
100
AcDbPolyline
 62
253
  6
CONTINUOUS
 90
7
 70
0
 10
-314.1548627924
 20
4.8108157159
 10
-314.1545355865
 20
4.7851305314
 10
-314.1549448628
 20
4.7599295201
 10
-314.1560930935
 20
4.7351953664
 10
-314.1579737252
 20
4.7110835996
 10
-314.1605712562
 20
4.687917531
 10
-314.1638816852
 20
4.6657384713
  0
LINE
  5
221
100
AcDbEntity
  8
RACCORDO
100
AcDbLine
 62
7
  6
CONTINUOUS
 10
-314.1710464007
 20
5.1308951222
 11
-314.1707974136
 21
5.0883660861
  0
LWPOLYLINE
  5
222
100
AcDbEntity
  8
RACCORDO
100
AcDbPolyline
 62
253
  6
CONTINUOUS
 90
10
 70
0
 10
-314.1643467767
 20
5.1420602927
 10
-314.1642429876
 20
5.1081498772
 10
-314.163931496
 20
5.0742567153
 10
-314.1634120668
 20
5.0403637719
 10
-314.1626832158
 20
5.0064228217
 10
-314.1617454843
 20
4.9724480993
 10
-314.1606014512
 20
4.9385167679
 10
-314.1592513669
 20
4.9046438957
 10
-314.157693141
 20
4.8707820334
 10
-314.1559256254
 20
4.8369151739
  0
LINE
  5
223
100
AcDbEntity
  8
0
100
AcDbLine
 62
253
  6
CONTINUOUS
 10
-311.8716153287
 20
0.1745435141
 11
-311.8716153287
 21
10.1095770712
  0
LINE
  5
224
100
AcDbEntity
  8
0
100
AcDbLine
 62
7
  6
CONTINUOUS
 10
-311.5623535837
 20
-42.3579397073
 11
-311.5623535837
 21
52.6420602927
  0
LINE
  5
225
100
AcDbEntity
  8
0
100
AcDbLine
 62
253
  6
CONTINUOUS
 10
-309.2192078332
 20
-42.3579397073
 11
-309.2192078332
 21
52.6420602927
  0
LINE
  5
226
100
AcDbEntity
  8
0
100
AcDbLine
 62
253
  6
CONTINUOUS
 10
-308.5623535837
 20
55.6420602927
 11
-308.5623535837
 21
53.1420602927
  0
LINE
  5
227
100
AcDbEntity
  8
0
100
AcDbLine
 62
7
  6
CONTINUOUS
 10
-308.5623535837
 20
-45.3579397073
 11
-308.5623535837
 21
-42.8579397073
  0
LINE
  5
228
100
AcDbEntity
  8
0
100
AcDbLine
 62
7
  6
CONTINUOUS
 10
-308.512101052
 20
53.1420602927
 11
-308.512101052
 21
55.6420602927
  0
LINE
  5
229
100
AcDbEntity
  8
0
100
AcDbLine
 62
253
  6
CONTINUOUS
 10
-307.5623535837
 20
53.1420602927
 11
-307.5623535837
 21
52.6420602927
  0
LINE
  5
22A
100
AcDbEntity
  8
0
100
AcDbLine
 62
253
  6
CONTINUOUS
 10
-307.5623535837
 20
-42.8579397073
 11
-307.5623535837
 21
-42.3579397073
  0
LINE
  5
22B
100
AcDbEntity
  8
0
100
AcDbLine
 62
7
  6
CONTINUOUS
 10
-299.5623535837
 20
53.1420602927
 11
-299.5623535837
 21
52.6420602927
  0
LINE
  5
22C
100
AcDbEntity
  8
0
100
AcDbLine
 62
7
  6
CONTINUOUS
 10
-299.5623535837
 20
-42.8579397073
 11
-299.5623535837
 21
-42.3579397073
  0
LINE
  5
22D
100
AcDbEntity
  8
0
100
AcDbLine
 62
7
  6
CONTINUOUS
 10
-297.8347886561
 20
55.6420602927
 11
-297.8347886561
 21
53.1420602927
  0
LINE
  5
22E
100
AcDbEntity
  8
0
100
AcDbLine
 62
7
  6
CONTINUOUS
 10
-297.0834104679
 20
55.6420602927
 11
-297.0834104679
 21
53.1420602927
  0
LINE
  5
22F
100
AcDbEntity
  8
0
100
AcDbLine
 62
7
  6
CONTINUOUS
 10
-296.5619964499
 20
55.6420602927
 11
-296.5619964499
 21
53.1420602927
  0
LINE
  5
230
100
AcDbEntity
  8
RACCORDO
100
AcDbLine
 62
7
  6
CONTINUOUS
 10
-314.1710410535
 20
5.155621194
 11
-314.1710410535
 21
5.1284993913
  0
LWPOLYLINE
  5
231
100
AcDbEntity
  8
RACCORDO
100
AcDbPolyline
 62
7
  6
CONTINUOUS
 90
10
 70
0
 10
-314.1614592516
 20
4.8017382223
 10
-314.1615176847
 20
4.7796265743
 10
-314.1621978552
 20
4.7583418662
 10
-314.1634524055
 20
4.7381624857
 10
-314.1652161058
 20
4.7192479558
 10
-314.1674251744
 20
4.7017517558
 10
-314.169986894
 20
4.6859000408
 10
-314.1728040237
 20
4.671769389
 10
-314.1757750201
 20
4.6594132601
 10
-314.1787619073
 20
4.6489677009
  0
LINE
  5
232
100
AcDbEntity
  8
RACCORDO
100
AcDbLine
 62
7
  6
CONTINUOUS
 10
-314.1707974136
 20
5.1957544992
 11
-314.1710433167
 21
5.153772443
  0
LINE
  5
233
100
AcDbEntity
  8
RACCORDO
100
AcDbLine
 62
7
  6
CONTINUOUS
 10
-314.1702630162
 20
5.2358852922
 11
-314.1708201158
 21
5.1933591391
  0
LWPOLYLINE
  5
234
100
AcDbEntity
  8
RACCORDO
100
AcDbPolyline
 62
7
  6
CONTINUOUS
 90
7
 70
0
 10
-314.4938890988
 20
5.7825515214
 10
-314.4940343626
 20
5.7727335922
 10
-314.4939548965
 20
5.7635981519
 10
-314.4936473663
 20
5.7550751124
 10
-314.4930965328
 20
5.7470358086
 10
-314.4922463361
 20
5.7391339438
 10
-314.4910015954
 20
5.7311432113
  0
LINE
  5
235
100
AcDbEntity
  8
RACCORDO
100
AcDbLine
 62
7
  6
CONTINUOUS
 10
-314.1694378788
 20
5.276011143
 11
-314.1703030695
 21
5.2334903224
  0
LWPOLYLINE
  5
236
100
AcDbEntity
  8
RACCORDO
100
AcDbPolyline
 62
7
  6
CONTINUOUS
 90
3
 70
0
 10
-314.1614293889
 20
5.4852513471
 10
-314.1619360159
 20
5.4626075107
 10
-314.1626234121
 20
5.4475753743
  0
LINE
  5
237
100
AcDbEntity
  8
RACCORDO
100
AcDbLine
 62
7
  6
CONTINUOUS
 10
-314.1683220425
 20
5.3161299944
 11
-314.1694952806
 21
5.2736165883
  0
LWPOLYLINE
  5
238
100
AcDbEntity
  8
RACCORDO
100
AcDbPolyline
 62
253
  6
CONTINUOUS
 90
10
 70
0
 10
-314.2395640834
 20
5.7523500905
 10
-314.2400069338
 20
5.7384198054
 10
-314.2386041833
 20
5.7245600651
 10
-314.2353830849
 20
5.7110401396
 10
-314.2304062188
 20
5.6981226968
 10
-314.2237702765
 20
5.6860586994
 10
-314.2156041824
 20
5.6750825293
 10
-314.2060665891
 20
5.6654074338
 10
-314.1953427948
 20
5.6572213826
 10
-314.1846563011
 20
5.6512506066
  0
LWPOLYLINE
  5
239
100
AcDbEntity
  8
RACCORDO
100
AcDbPolyline
 62
253
  6
CONTINUOUS
 90
10
 70
0
 10
-314.48774502
 20
5.7523505281
 10
-314.4882062177
 20
5.7384205717
 10
-314.4867402985
 20
5.7245613202
 10
-314.4833757393
 20
5.711042003
 10
-314.4781778999
 20
5.6981252456
 10
-314.4712477532
 20
5.6860619685
 10
-314.462719924
 20
5.6750865121
 10
-314.4527600735
 20
5.6654120853
 10
-314.4415616812
 20
5.6572266231
 10
-314.4293422866
 20
5.6506891357
  0
LINE
  5
23A
100
AcDbEntity
  8
RACCORDO
100
AcDbLine
 62
7
  6
CONTINUOUS
 10
-314.1669155575
 20
5.3562400096
 11
-314.1683967921
 21
5.313735905
  0
LINE
  5
23B
100
AcDbEntity
  8
RACCORDO
100
AcDbLine
 62
7
  6
CONTINUOUS
 10
-314.4934865341
 20
5.7937551488
 11
-314.4938760012
 21
5.7830462175
  0
LINE
  5
23C
100
AcDbEntity
  8
RACCORDO
100
AcDbLine
 62
253
  6
CONTINUOUS
 10
-314.1548629041
 20
5.4732232352
 11
-314.1559256254
 21
5.4472054114
  0
LINE
  5
23D
100
AcDbEntity
  8
RACCORDO
100
AcDbLine
 62
7
  6
CONTINUOUS
 10
-314.1652184786
 20
5.3963392464
 11
-314.1670076531
 21
5.3538464511
  0
LINE
  5
23E
100
AcDbEntity
  8
RACCORDO
100
AcDbLine
 62
7
  6
CONTINUOUS
 10
-314.1632309062
 20
5.4364253957
 11
-314.1653279209
 21
5.3939462651
  0
LWPOLYLINE
  5
23F
100
AcDbEntity
  8
RACCORDO
100
AcDbPolyline
 62
253
  6
CONTINUOUS
 90
10
 70
0
 10
-314.1559256254
 20
5.4472054114
 10
-314.1576931604
 20
5.4133380685
 10
-314.1592513988
 20
5.3794758676
 10
-314.1606014887
 20
5.345602801
 10
-314.161745518
 20
5.3116714485
 10
-314.1626832389
 20
5.2776968472
 10
-314.1634120804
 20
5.24375607
 10
-314.1639315039
 20
5.2098633219
 10
-314.164242991
 20
5.1759704078
 10
-314.1643467767
 20
5.1420602927
  0
LINE
  5
240
100
AcDbEntity
  8
RACCORDO
100
AcDbLine
 62
7
  6
CONTINUOUS
 10
-314.1626262958
 20
5.4475753837
 11
-314.1633577004
 21
5.4340329864
  0
LINE
  5
241
100
AcDbEntity
  8
RACCORDO
100
AcDbLine
 62
7
  6
CONTINUOUS
 10
-314.4928578051
 20
5.8052305701
 11
-314.4935145387
 21
5.7931341489
  0
LINE
  5
242
100
AcDbEntity
  8
RACCORDO
100
AcDbLine
 62
7
  6
CONTINUOUS
 10
-314.4919803047
 20
5.8174669571
 11
-314.4929051461
 21
5.8044752634
  0
LINE
  5
243
100
AcDbEntity
  8
RACCORDO
100
AcDbLine
 62
7
  6
CONTINUOUS
 10
-314.4908487792
 20
5.8303892305
 11
-314.49205149
 21
5.8165682937
  0
LWPOLYLINE
  5
244
100
AcDbEntity
  8
RACCORDO
100
AcDbPolyline
 62
253
  6
CONTINUOUS
 90
20
 70
0
 10
-314.4898331894
 20
5.8350691171
 10
-314.4906713972
 20
5.8260583925
 10
-314.4913783259
 20
5.8172357723
 10
-314.4919530225
 20
5.8086996454
 10
-314.4923885986
 20
5.8007844243
 10
-314.4926742161
 20
5.7935655699
 10
-314.4928228775
 20
5.7869346839
 10
-314.4928628688
 20
5.7809633423
 10
-314.4927919452
 20
5.7756980565
 10
-314.4926122788
 20
5.7710784335
 10
-314.4923584397
 20
5.7670317495
 10
-314.4920318217
 20
5.7635763271
 10
-314.4916301242
 20
5.7606955323
 10
-314.4911825807
 20
5.7582745741
 10
-314.4906923844
 20
5.7563205017
 10
-314.4901554877
 20
5.7548360112
 10
-314.489590661
 20
5.7537037193
 10
-314.4890040528
 20
5.7528881785
 10
-314.4883889536
 20
5.7524353779
 10
-314.4877450389
 20
5.7523505301
  0
LINE
  5
245
100
AcDbEntity
  8
RACCORDO
100
AcDbLine
 62
7
  6
CONTINUOUS
 10
-314.4894587928
 20
5.8438946703
 11
-314.4909479219
 21
5.8293401396
  0
LWPOLYLINE
  5
246
100
AcDbEntity
  8
RACCORDO
100
AcDbPolyline
 62
7
  6
CONTINUOUS
 90
7
 70
0
 10
-314.4922517706
 20
4.5449438929
 10
-314.4931067366
 20
4.5369687239
 10
-314.49365701
 20
4.5288544836
 10
-314.4939607945
 20
4.5202462888
 10
-314.494033009
 20
4.5110103522
 10
-314.4938760012
 20
4.5010743678
 10
-314.4934865341
 20
4.4903654365
  0
LINE
  5
247
100
AcDbEntity
  8
RACCORDO
100
AcDbLine
 62
7
  6
CONTINUOUS
 10
-314.4882714451
 20
5.8541295664
 11
-314.4895915206
 21
5.8426895825
  0
LINE
  5
248
100
AcDbEntity
  8
RACCORDO
100
AcDbLine
 62
253
  6
CONTINUOUS
 10
-314.4721263465
 20
5.9724528735
 11
-314.4803847893
 21
5.9121317399
  0
LINE
  5
249
100
AcDbEntity
  8
RACCORDO
100
AcDbLine
 62
253
  6
CONTINUOUS
 10
-314.4526090216
 20
6.0998003566
 11
-314.4628927482
 21
6.0350395163
  0
LINE
  5
24A
100
AcDbEntity
  8
RACCORDO
100
AcDbLine
 62
7
  6
CONTINUOUS
 10
-314.16109339
 20
7.2443170362
 11
-314.1615495956
 21
7.2415497746
  0
LINE
  5
24B
100
AcDbEntity
  8
RACCORDO
100
AcDbLine
 62
253
  6
CONTINUOUS
 10
-314.4284995044
 20
6.2362925442
 11
-314.4411825068
 21
6.1668053386
  0
LWPOLYLINE
  5
24C
100
AcDbEntity
  8
RACCORDO
100
AcDbPolyline
 62
7
  6
CONTINUOUS
 90
8
 70
0
 10
-314.1615495956
 20
7.2415497746
 10
-314.1618733564
 20
7.2398127182
 10
-314.1623460012
 20
7.2374245586
 10
-314.1629430868
 20
7.2345571342
 10
-314.1636458623
 20
7.2313277329
 10
-314.1644491761
 20
7.227773564
 10
-314.1653616963
 20
7.2238670002
 10
-314.1663800273
 20
7.219631426
  0
LINE
  5
24D
100
AcDbEntity
  8
RACCORDO
100
AcDbLine
 62
253
  6
CONTINUOUS
 10
-314.1638816852
 20
4.6657384713
 11
-314.1678936328
 21
4.6446246788
  0
LINE
  5
24E
100
AcDbEntity
  8
RACCORDO
100
AcDbLine
 62
253
  6
CONTINUOUS
 10
-314.3989433973
 20
6.3826599549
 11
-314.4144517579
 21
6.3082709605
  0
LINE
  5
24F
100
AcDbEntity
  8
RACCORDO
100
AcDbLine
 62
253
  6
CONTINUOUS
 10
-314.1678936328
 20
4.6446246788
 11
-314.1725780536
 21
4.6249380072
  0
LINE
  5
250
100
AcDbEntity
  8
RACCORDO
100
AcDbLine
 62
7
  6
CONTINUOUS
 10
-314.1663800273
 20
7.219631426
 11
-314.1677017315
 21
7.2142928212
  0
LWPOLYLINE
  5
251
100
AcDbEntity
  8
RACCORDO
100
AcDbPolyline
 62
253
  6
CONTINUOUS
 90
3
 70
0
 10
-314.3425950042
 20
6.6205377483
 10
-314.3631294828
 20
6.5388512958
 10
-314.38186951
 20
6.4595541662
  0
LINE
  5
252
100
AcDbEntity
  8
RACCORDO
100
AcDbLine
 62
7
  6
CONTINUOUS
 10
-314.1675046175
 20
7.2150705722
 11
-314.1689547587
 21
7.2093321529
  0
LINE
  5
253
100
AcDbEntity
  8
RACCORDO
100
AcDbLine
 62
7
  6
CONTINUOUS
 10
-314.1687352071
 20
7.2101888476
 11
-314.1714973548
 21
7.1995324128
  0
LINE
  5
254
100
AcDbEntity
  8
RACCORDO
100
AcDbLine
 62
7
  6
CONTINUOUS
 10
-314.1703072148
 20
7.2040772723
 11
-314.1733073555
 21
7.1927160624
  0
LWPOLYLINE
  5
255
100
AcDbEntity
  8
RACCORDO
100
AcDbPolyline
 62
253
  6
CONTINUOUS
 90
6
 70
0
 10
-314.167909411
 20
7.20981781
 10
-314.172588871
 20
7.1923859083
 10
-314.1779344362
 20
7.173169934
 10
-314.1839173705
 20
7.1522521332
 10
-314.1904517544
 20
7.1299698032
 10
-314.193583551
 20
7.1215454194
  0
LINE
  5
256
100
AcDbEntity
  8
RACCORDO
100
AcDbLine
 62
7
  6
CONTINUOUS
 10
-314.1730280277
 20
7.1937657699
 11
-314.1767052208
 21
7.1802272598
  0
LINE
  5
257
100
AcDbEntity
  8
RACCORDO
100
AcDbLine
 62
7
  6
CONTINUOUS
 10
-314.1763809714
 20
7.1814054179
 11
-314.1804943268
 21
7.1666481894
  0
LINE
  5
258
100
AcDbEntity
  8
RACCORDO
100
AcDbLine
 62
7
  6
CONTINUOUS
 10
-314.1801207368
 20
7.1679686908
 11
-314.1846632411
 21
7.1520184687
  0
LINE
  5
259
100
AcDbEntity
  8
RACCORDO
100
AcDbLine
 62
7
  6
CONTINUOUS
 10
-314.1842432888
 20
7.1534806546
 11
-314.1892011908
 21
7.1363895713
  0
LWPOLYLINE
  5
25A
100
AcDbEntity
  8
RACCORDO
100
AcDbPolyline
 62
253
  6
CONTINUOUS
 90
10
 70
0
 10
-314.1725780536
 20
4.6249380072
 10
-314.1779418277
 20
4.6066811238
 10
-314.1839519239
 20
4.5899366841
 10
-314.1905187064
 20
4.575151201
 10
-314.1976391908
 20
4.5623334508
 10
-314.205283793
 20
4.5514904304
 10
-314.2133258805
 20
4.5430109457
 10
-314.2217138146
 20
4.5369896629
 10
-314.2304671903
 20
4.5332567735
 10
-314.2395681198
 20
4.5317700552
  0
LINE
  5
25B
100
AcDbEntity
  8
RACCORDO
100
AcDbLine
 62
7
  6
CONTINUOUS
 10
-314.1887342396
 20
7.137990358
 11
-314.1940998721
 21
7.1198090895
  0
LWPOLYLINE
  5
25C
100
AcDbEntity
  8
RACCORDO
100
AcDbPolyline
 62
253
  6
CONTINUOUS
 90
3
 70
0
 10
-314.1966820852
 20
7.1111740003
 10
-314.1975221695
 20
7.1063593653
 10
-314.1993499258
 20
7.1023196641
  0
LWPOLYLINE
  5
25D
100
AcDbEntity
  8
RACCORDO
100
AcDbPolyline
 62
253
  6
CONTINUOUS
 90
3
 70
0
 10
-314.2687267479
 20
6.8811571509
 10
-314.2955271917
 20
6.7917639064
 10
-314.3201086909
 20
6.704833582
  0
LINE
  5
25E
100
AcDbEntity
  8
RACCORDO
100
AcDbLine
 62
7
  6
CONTINUOUS
 10
-314.193583551
 20
7.1215454194
 11
-314.2015079968
 21
7.0951963165
  0
LWPOLYLINE
  5
25F
100
AcDbEntity
  8
RACCORDO
100
AcDbPolyline
 62
253
  6
CONTINUOUS
 90
3
 70
0
 10
-314.2021008928
 20
7.0932539494
 10
-314.2051121964
 20
7.0814556445
 10
-314.2072020214
 20
7.0765952061
  0
LINE
  5
260
100
AcDbEntity
  8
RACCORDO
100
AcDbLine
 62
7
  6
CONTINUOUS
 10
-314.1993499258
 20
7.1023196641
 11
-314.2078423428
 21
7.0745214103
  0
LWPOLYLINE
  5
261
100
AcDbEntity
  8
RACCORDO
100
AcDbPolyline
 62
253
  6
CONTINUOUS
 90
3
 70
0
 10
-314.2108297066
 20
7.0648667925
 10
-314.2131359936
 20
7.0556038016
 10
-314.2163143357
 20
7.0472930407
  0
LWPOLYLINE
  5
262
100
AcDbEntity
  8
RACCORDO
100
AcDbPolyline
 62
253
  6
CONTINUOUS
 90
5
 70
0
 10
-314.1559182148
 20
7.2780732577
 10
-314.1597781814
 20
7.2657455844
 10
-314.1620189958
 20
7.2530223527
 10
-314.162603252
 20
7.2401159511
 10
-314.162368117
 20
7.2373183506
  0
LINE
  5
263
100
AcDbEntity
  8
RACCORDO
100
AcDbLine
 62
7
  6
CONTINUOUS
 10
-314.2072020214
 20
7.0765952061
 11
-314.2170269196
 21
7.0450213212
  0
LWPOLYLINE
  5
264
100
AcDbEntity
  8
RACCORDO
100
AcDbPolyline
 62
253
  6
CONTINUOUS
 90
3
 70
0
 10
-314.2202331328
 20
7.0348442465
 10
-314.2215541394
 20
7.0289384138
 10
-314.2260597627
 20
7.0165003412
  0
LWPOLYLINE
  5
265
100
AcDbEntity
  8
RACCORDO
100
AcDbPolyline
 62
7
  6
CONTINUOUS
 90
10
 70
0
 10
-314.2400726934
 20
6.9730957361
 10
-314.2716876599
 20
6.8732635561
 10
-314.3094768087
 20
6.7449857072
 10
-314.3443482802
 20
6.615885836
 10
-314.3762842157
 20
6.4860307856
 10
-314.4052690864
 20
6.355483867
 10
-314.4312883482
 20
6.2243110386
 10
-314.4543281517
 20
6.0925799911
 10
-314.4743767183
 20
5.9603574196
 10
-314.4882720109
 20
5.8541295826
  0
LINE
  5
266
100
AcDbEntity
  8
RACCORDO
100
AcDbLine
 62
7
  6
CONTINUOUS
 10
-314.2163143357
 20
7.0472930407
 11
-314.2268477407
 21
7.0140272207
  0
LINE
  5
267
100
AcDbEntity
  8
RACCORDO
100
AcDbLine
 62
253
  6
CONTINUOUS
 10
-314.2294375971
 20
7.0059456191
 11
-314.2303712909
 21
7.0013760641
  0
LWPOLYLINE
  5
268
100
AcDbEntity
  8
RACCORDO
100
AcDbPolyline
 62
7
  6
CONTINUOUS
 90
3
 70
0
 10
-314.2260597627
 20
7.0165003412
 10
-314.2363692508
 20
6.9844642431
 10
-314.240069358
 20
6.9730946475
  0
LWPOLYLINE
  5
269
100
AcDbEntity
  8
RACCORDO
100
AcDbPolyline
 62
7
  6
CONTINUOUS
 90
6
 70
0
 10
-314.1787619073
 20
4.6489677009
 10
-314.1816455183
 20
4.6404031989
 10
-314.1842945839
 20
4.6336823334
 10
-314.1865090408
 20
4.6288672011
 10
-314.1881274828
 20
4.6258431307
 10
-314.188368874
 20
4.6254344794
  0
LWPOLYLINE
  5
26A
100
AcDbEntity
  8
RACCORDO
100
AcDbPolyline
 62
7
  6
CONTINUOUS
 90
11
 70
0
 10
-314.1818831154
 20
5.6443623364
 10
-314.1790302913
 20
5.6360074829
 10
-314.1760630375
 20
5.6257952173
 10
-314.1731008391
 20
5.6136940341
 10
-314.170281946
 20
5.5998322149
 10
-314.1677014512
 20
5.584253135
 10
-314.1654542669
 20
5.5670207806
 10
-314.1636407076
 20
5.5483444977
 10
-314.1623267402
 20
5.5283713583
 10
-314.1615698623
 20
5.5072518339
 10
-314.1614293889
 20
5.4852513471
  0
LINE
  5
26B
100
AcDbEntity
  8
RACCORDO
100
AcDbLine
 62
7
  6
CONTINUOUS
 10
-314.24006934
 20
3.311025946
 11
-314.2302497454
 21
3.2807107459
  0
LINE
  5
26C
100
AcDbEntity
  8
RACCORDO
100
AcDbLine
 62
253
  6
CONTINUOUS
 10
-314.2303108081
 20
3.2825486452
 11
-314.2302497454
 21
3.2807107459
  0
LINE
  5
26D
100
AcDbEntity
  8
RACCORDO
100
AcDbLine
 62
253
  6
CONTINUOUS
 10
-314.226845237
 20
3.270085529
 11
-314.2214509365
 21
3.2548504737
  0
LINE
  5
26E
100
AcDbEntity
  8
RACCORDO
100
AcDbLine
 62
7
  6
CONTINUOUS
 10
-314.2302497454
 20
3.2807107459
 11
-314.2202283702
 21
3.2492612647
  0
LWPOLYLINE
  5
26F
100
AcDbEntity
  8
RACCORDO
100
AcDbPolyline
 62
253
  6
CONTINUOUS
 90
5
 70
0
 10
-314.1559255988
 20
3.0060444718
 10
-314.1597844354
 20
3.0183720929
 10
-314.1620241814
 20
3.0310950849
 10
-314.1626074539
 20
3.0440010932
 10
-314.1623700892
 20
3.0468228127
  0
LINE
  5
270
100
AcDbEntity
  8
RACCORDO
100
AcDbLine
 62
7
  6
CONTINUOUS
 10
-314.2202283702
 20
3.2492612647
 11
-314.2108210151
 21
3.2192257899
  0
LINE
  5
271
100
AcDbEntity
  8
RACCORDO
100
AcDbLine
 62
7
  6
CONTINUOUS
 10
-314.2108210151
 20
3.2192257899
 11
-314.2020881906
 21
3.1908249172
  0
LWPOLYLINE
  5
272
100
AcDbEntity
  8
RACCORDO
100
AcDbPolyline
 62
253
  6
CONTINUOUS
 90
6
 70
0
 10
-314.1915886692
 20
3.1558464597
 10
-314.190370569
 20
3.153876701
 10
-314.1838519805
 20
3.1316430097
 10
-314.1778846961
 20
3.1107746826
 10
-314.1725528907
 20
3.0916031025
 10
-314.1678845166
 20
3.074207574
  0
LINE
  5
273
100
AcDbEntity
  8
RACCORDO
100
AcDbLine
 62
7
  6
CONTINUOUS
 10
-314.2020881906
 20
3.1908249172
 11
-314.1940837041
 21
3.1642572142
  0
LINE
  5
274
100
AcDbEntity
  8
RACCORDO
100
AcDbLine
 62
7
  6
CONTINUOUS
 10
-314.1940837041
 20
3.1642572142
 11
-314.1891832747
 21
3.1476698505
  0
LINE
  5
275
100
AcDbEntity
  8
RACCORDO
100
AcDbLine
 62
7
  6
CONTINUOUS
 10
-314.1891832747
 20
3.1476698505
 11
-314.1846441656
 21
3.1320358052
  0
LINE
  5
276
100
AcDbEntity
  8
RACCORDO
100
AcDbLine
 62
7
  6
CONTINUOUS
 10
-314.1846441656
 20
3.1320358052
 11
-314.1804747336
 21
3.1174029423
  0
LWPOLYLINE
  5
277
100
AcDbEntity
  8
RACCORDO
100
AcDbPolyline
 62
253
  6
CONTINUOUS
 90
3
 70
0
 10
-314.3198686922
 20
3.5784136663
 10
-314.2953247913
 20
3.4916563619
 10
-314.2686025578
 20
3.4025543895
  0
LINE
  5
278
100
AcDbEntity
  8
RACCORDO
100
AcDbLine
 62
7
  6
CONTINUOUS
 10
-314.1804747336
 20
3.1174029423
 11
-314.1766858668
 21
3.1038231179
  0
LINE
  5
279
100
AcDbEntity
  8
RACCORDO
100
AcDbLine
 62
7
  6
CONTINUOUS
 10
-314.1766858668
 20
3.1038231179
 11
-314.1732889797
 21
3.0913359954
  0
LWPOLYLINE
  5
27A
100
AcDbEntity
  8
RACCORDO
100
AcDbPolyline
 62
7
  6
CONTINUOUS
 90
4
 70
0
 10
-314.1732889797
 20
3.0913359954
 10
-314.1702904792
 20
3.0799788523
 10
-314.1689390661
 20
3.074726887
 10
-314.1676872114
 20
3.0697696962
  0
LWPOLYLINE
  5
27B
100
AcDbEntity
  8
RACCORDO
100
AcDbPolyline
 62
253
  6
CONTINUOUS
 90
9
 70
0
 10
-314.1678845166
 20
3.074207574
 10
-314.1638771588
 20
3.0585769638
 10
-314.1605688101
 20
3.0448901183
 10
-314.1579729284
 20
3.0331891485
 10
-314.1560913874
 20
3.0234863445
 10
-314.1549424975
 20
3.0158964778
 10
-314.1545337567
 20
3.0104642274
 10
-314.1548617519
 20
3.0071751874
 10
-314.1559256254
 20
3.0060444615
  0
LWPOLYLINE
  5
27C
100
AcDbEntity
  8
RACCORDO
100
AcDbPolyline
 62
7
  6
CONTINUOUS
 90
10
 70
0
 10
-314.1676872114
 20
3.0697696962
 10
-314.1665407096
 20
3.0651357297
 10
-314.1654997464
 20
3.0608274458
 10
-314.1645649912
 20
3.0568499524
 10
-314.1637430839
 20
3.053237895
 10
-314.1630287982
 20
3.049978397
 10
-314.1624238741
 20
3.0470930135
 10
-314.1619403538
 20
3.0446639406
 10
-314.1615636488
 20
3.0426519195
 10
-314.161484954
 20
3.0422118292
  0
LINE
  5
27D
100
AcDbEntity
  8
RACCORDO
100
AcDbLine
 62
253
  6
CONTINUOUS
 10
-314.1725094689
 20
5.658922252
 11
-314.1678367393
 21
5.6392340943
  0
LWPOLYLINE
  5
27E
100
AcDbEntity
  8
RACCORDO
100
AcDbPolyline
 62
253
  6
CONTINUOUS
 90
3
 70
0
 10
-314.3817116704
 20
3.8238777075
 10
-314.3629393487
 20
3.7444929937
 10
-314.3423650736
 20
3.6626996731
  0
LWPOLYLINE
  5
27F
100
AcDbEntity
  8
RACCORDO
100
AcDbPolyline
 62
7
  6
CONTINUOUS
 90
3
 70
0
 10
-314.4909935615
 20
5.7311000976
 10
-314.4892256612
 20
5.7228903199
 10
-314.4868039695
 20
5.7144537832
  0
LINE
  5
280
100
AcDbEntity
  8
RACCORDO
100
AcDbLine
 62
253
  6
CONTINUOUS
 10
-314.4143165751
 20
3.9751789771
 11
-314.3987993109
 21
3.900790094
  0
LINE
  5
281
100
AcDbEntity
  8
RACCORDO
100
AcDbLine
 62
253
  6
CONTINUOUS
 10
-314.1678367393
 20
5.6392340943
 11
-314.1638381242
 21
5.6181301006
  0
LINE
  5
282
100
AcDbEntity
  8
RACCORDO
100
AcDbLine
 62
253
  6
CONTINUOUS
 10
-314.4410609057
 20
4.1166212893
 11
-314.4283726962
 21
4.0471564632
  0
LINE
  5
283
100
AcDbEntity
  8
RACCORDO
100
AcDbLine
 62
253
  6
CONTINUOUS
 10
-314.4627912353
 20
4.248418424
 11
-314.4524923795
 21
4.1836035176
  0
LWPOLYLINE
  5
284
100
AcDbEntity
  8
RACCORDO
100
AcDbPolyline
 62
253
  6
CONTINUOUS
 90
7
 70
0
 10
-314.1638381242
 20
5.6181301006
 10
-314.1605397723
 20
5.5959636539
 10
-314.1579522942
 20
5.5728049588
 10
-314.1560803665
 20
5.5487029423
 10
-314.1549387248
 20
5.5239955561
 10
-314.1545336512
 20
5.4988431421
 10
-314.1548629041
 20
5.4732232352
  0
LINE
  5
285
100
AcDbEntity
  8
RACCORDO
100
AcDbLine
 62
253
  6
CONTINUOUS
 10
-314.4803446097
 20
4.371701969
 11
-314.4720519629
 21
4.3111583244
  0
LWPOLYLINE
  5
286
100
AcDbEntity
  8
RACCORDO
100
AcDbPolyline
 62
7
  6
CONTINUOUS
 90
10
 70
0
 10
-314.4882719983
 20
4.4299909467
 10
-314.4747082516
 20
4.3261338534
 10
-314.4547127813
 20
4.193899781
 10
-314.4317259355
 20
4.0621572058
 10
-314.4057595623
 20
3.9309728285
 10
-314.3768275625
 20
3.8004144069
 10
-314.3449444583
 20
3.6705475486
 10
-314.3101257487
 20
3.5414354191
 10
-314.2723896125
 20
3.4131455517
 10
-314.2400727214
 20
3.3110248422
  0
LINE
  5
287
100
AcDbEntity
  8
RACCORDO
100
AcDbLine
 62
7
  6
CONTINUOUS
 10
-314.4895915206
 20
4.4414310029
 11
-314.4882714451
 21
4.4299910189
  0
LWPOLYLINE
  5
288
100
AcDbEntity
  8
0
100
AcDbPolyline
 62
7
  6
CONTINUOUS
 90
19
 70
0
 10
-285.884684054
 20
-42.3579397073
 10
-285.8778965372
 20
-42.5815763903
 10
-285.851766954
 20
-42.8091868337
 10
-285.8062953044
 20
-43.0393071654
 10
-285.7417451045
 20
-43.2708115559
 10
-285.6578528383
 20
-43.5013472207
 10
-285.5538279573
 20
-43.7274910795
 10
-285.4288868599
 20
-43.9470742444
 10
-285.2838131477
 20
-44.1583338228
 10
-285.1201670776
 20
-44.3585977399
 10
-284.9377802376
 20
-44.5454441196
 10
-284.7368210396
 20
-44.7174762485
 10
-284.5193549766
 20
-44.8734530028
 10
-284.2856024487
 20
-45.0108817408
 10
-284.0353430558
 20
-45.1281663238
 10
-283.7699810906
 20
-45.2243526853
 10
-283.4899846507
 20
-45.2968015228
 10
-283.1948856385
 20
-45.3422296106
 10
-282.884684054
 20
-45.3579397073
  0
LINE
  5
289
100
AcDbEntity
  8
0
100
AcDbLine
 62
253
  6
CONTINUOUS
 10
-291.5415383035
 20
-42.3579397073
 11
-291.5415383035
 21
52.6420602927
  0
LINE
  5
28A
100
AcDbEntity
  8
0
100
AcDbLine
 62
7
  6
CONTINUOUS
 10
-288.5623535837
 20
-45.3579397073
 11
-288.5623535837
 21
-42.8579397073
  0
LINE
  5
28B
100
AcDbEntity
  8
0
100
AcDbLine
 62
7
  6
CONTINUOUS
 10
-288.0623535837
 20
-45.8579397073
 11
-288.0623535837
 21
-55.5579397073
  0
LINE
  5
28C
100
AcDbEntity
  8
0
100
AcDbLine
 62
7
  6
CONTINUOUS
 10
-285.884684054
 20
55.6420602927
 11
-285.884684054
 21
52.6420602927
  0
LINE
  5
28D
100
AcDbEntity
  8
0
100
AcDbLine
 62
253
  6
CONTINUOUS
 10
-285.884684054
 20
-42.3579397073
 11
-285.884684054
 21
52.6420602927
  0
LINE
  5
28E
100
AcDbEntity
  8
0
100
AcDbLine
 62
7
  6
CONTINUOUS
 10
-285.5623535837
 20
-45.8579397073
 11
-285.5623535837
 21
-55.5579397073
  0
LWPOLYLINE
  5
28F
100
AcDbEntity
  8
RACCORDO
100
AcDbPolyline
 62
7
  6
CONTINUOUS
 90
13
 70
0
 10
-314.4868039695
 20
5.7144537832
 10
-314.4834997739
 20
5.7056026859
 10
-314.4791733848
 20
5.6965331114
 10
-314.4739303172
 20
5.6877759144
 10
-314.4678745505
 20
5.6795833052
 10
-314.4608943222
 20
5.6718733805
 10
-314.4529205249
 20
5.6647035897
 10
-314.4439859348
 20
5.6582429703
 10
-314.4341103677
 20
5.6526373711
 10
-314.4232059357
 20
5.6479993965
 10
-314.4113000149
 20
5.6445409491
 10
-314.3985677229
 20
5.6425123002
 10
-314.3889982466
 20
5.6420603767
  0
LWPOLYLINE
  5
290
100
AcDbEntity
  8
RACCORDO
100
AcDbPolyline
 62
7
  6
CONTINUOUS
 90
11
 70
0
 10
-314.4793817088
 20
5.6969236675
 10
-314.4742343631
 20
5.6882347686
 10
-314.4682883757
 20
5.6800928555
 10
-314.461432855
 20
5.6724152624
 10
-314.4535997729
 20
5.6652578167
 10
-314.4448200255
 20
5.6587856951
 10
-314.4351096773
 20
5.6531397202
 10
-314.4243783153
 20
5.6484270101
 10
-314.4126480103
 20
5.6448540721
 10
-314.4000856619
 20
5.6426675025
 10
-314.3890026584
 20
5.6420605078
  0
LINE
  5
291
100
AcDbEntity
  8
0
100
AcDbLine
 62
7
  6
CONTINUOUS
 10
-241.884684054
 20
-45.3579397073
 11
-241.884684054
 21
-55.5579397073
  0
LWPOLYLINE
  5
292
100
AcDbEntity
  8
RACCORDO
100
AcDbPolyline
 62
253
  6
CONTINUOUS
 90
9
 70
0
 10
-314.1559256254
 20
7.2780761238
 10
-314.1548588741
 20
7.2769640827
 10
-314.1545297213
 20
7.2736854462
 10
-314.1549390297
 20
7.2682540943
 10
-314.1560901833
 20
7.2606517164
 10
-314.1579756965
 20
7.2509242433
 10
-314.1605773114
 20
7.2391945542
 10
-314.1638930119
 20
7.2254794882
 10
-314.167909411
 20
7.20981781
  0
LWPOLYLINE
  5
293
100
AcDbEntity
  8
RACCORDO
100
AcDbPolyline
 62
7
  6
CONTINUOUS
 90
7
 70
0
 10
-314.1876891535
 20
5.6582136042
 10
-314.18885447
 20
5.6595131356
 10
-314.1890272002
 20
5.6597229929
 10
-314.1882203812
 20
5.6584373719
 10
-314.1866602538
 20
5.6555556499
 10
-314.1844930828
 20
5.6508999687
 10
-314.1818831154
 20
5.6443623364
  0
LINE
  5
294
100
AcDbEntity
  8
0
100
AcDbLine
 62
7
  6
CONTINUOUS
 10
-197.5973508321
 20
47.6420602927
 11
-197.5973508321
 21
45.1420602927
  0
LINE
  5
295
100
AcDbEntity
  8
0
100
AcDbLine
 62
7
  6
CONTINUOUS
 10
-197.5973508321
 20
-34.8579397073
 11
-197.5973508321
 21
-37.3579397073
  0
LINE
  5
296
100
AcDbEntity
  8
0
100
AcDbLine
 62
7
  6
CONTINUOUS
 10
-195.5973508321
 20
55.6420602927
 11
-195.5973508321
 21
47.6420602927
  0
LINE
  5
297
100
AcDbEntity
  8
0
100
AcDbLine
 62
7
  6
CONTINUOUS
 10
-195.5973508321
 20
47.6420602927
 11
-195.5973508321
 21
45.6420602927
  0
LINE
  5
298
100
AcDbEntity
  8
0
100
AcDbLine
 62
7
  6
CONTINUOUS
 10
-195.5973508321
 20
-37.3579397073
 11
-195.5973508321
 21
-55.5579397073
  0
LINE
  5
299
100
AcDbEntity
  8
0
100
AcDbLine
 62
253
  6
CONTINUOUS
 10
-194.5623535837
 20
-34.8579397073
 11
-194.5623535837
 21
45.1420602927
  0
LINE
  5
29A
100
AcDbEntity
  8
0
100
AcDbLine
 62
253
  6
CONTINUOUS
 10
-192.1264463362
 20
-34.8579397073
 11
-192.1264463362
 21
45.1420602927
  0
LINE
  5
29B
100
AcDbEntity
  8
0
100
AcDbLine
 62
253
  6
CONTINUOUS
 10
-191.1711885921
 20
-34.8579397073
 11
-191.1711885921
 21
45.1420602927
  0
LINE
  5
29C
100
AcDbEntity
  8
0
100
AcDbLine
 62
7
  6
CONTINUOUS
 10
-190.0623535837
 20
-44.8579397073
 11
-190.0623535837
 21
55.1420602927
  0
LWPOLYLINE
  5
29D
100
AcDbEntity
  8
RACCORDO
100
AcDbPolyline
 62
253
  6
CONTINUOUS
 90
22
 70
0
 10
-184.1726438212
 20
4.4300550156
 10
-184.1731565819
 20
4.4397201417
 10
-184.174467142
 20
4.4490514682
 10
-184.1765760807
 20
4.4580621928
 10
-184.1795863879
 20
4.466884813
 10
-184.1833968181
 20
4.4754209399
 10
-184.1877173025
 20
4.483336161
 10
-184.1925838262
 20
4.4905550154
 10
-184.1979978597
 20
4.4971859014
 10
-184.2036341158
 20
4.503157243
 10
-184.2094798569
 20
4.5084225288
 10
-184.2155851658
 20
4.5130421518
 10
-184.2217180126
 20
4.5170888358
 10
-184.2278586198
 20
4.5205442582
 10
-184.2340511848
 20
4.523425053
 10
-184.2401531389
 20
4.5258460112
 10
-184.2461380082
 20
4.5278000836
 10
-184.2520447074
 20
4.5292845741
 10
-184.2578232678
 20
4.530416866
 10
-184.2634580142
 20
4.5312324068
 10
-184.2689693163
 20
4.5316852074
 10
-184.2743588607
 20
4.5317700552
  0
LWPOLYLINE
  5
29E
100
AcDbEntity
  8
RACCORDO
100
AcDbPolyline
 62
253
  6
CONTINUOUS
 90
22
 70
0
 10
-182.9520633462
 20
5.8540655697
 10
-182.9515505855
 20
5.8444004436
 10
-182.9502400254
 20
5.8350691171
 10
-182.9481310867
 20
5.8260583925
 10
-182.9451207795
 20
5.8172357723
 10
-182.9413103493
 20
5.8086996454
 10
-182.9369898649
 20
5.8007844243
 10
-182.9321233412
 20
5.7935655699
 10
-182.9267093077
 20
5.7869346839
 10
-182.9210730516
 20
5.7809633423
 10
-182.9152273104
 20
5.7756980565
 10
-182.9091220016
 20
5.7710784335
 10
-182.9029891548
 20
5.7670317495
 10
-182.8968485476
 20
5.7635763271
 10
-182.8906559826
 20
5.7606955323
 10
-182.8845540285
 20
5.7582745741
 10
-182.8785691592
 20
5.7563205017
 10
-182.87266246
 20
5.7548360112
 10
-182.8668838996
 20
5.7537037193
 10
-182.8612491532
 20
5.7528881785
 10
-182.8557378511
 20
5.7524353779
 10
-182.8503483066
 20
5.7523505301
  0
LWPOLYLINE
  5
29F
100
AcDbEntity
  8
RACCORDO
100
AcDbPolyline
 62
253
  6
CONTINUOUS
 90
16
 70
0
 10
-183.8674982933
 20
3.0060473276
 10
-183.867711446
 20
3.0183750009
 10
-183.8678351709
 20
3.0310982326
 10
-183.8678674021
 20
3.0440046342
 10
-183.8678076013
 20
3.0568787594
 10
-183.8676567665
 20
3.0695057011
 10
-183.8674174152
 20
3.081674678
 10
-183.8670935423
 20
3.093182554
 10
-183.8666905538
 20
3.1038372284
 10
-183.8662151764
 20
3.1134608431
 10
-183.8656753451
 20
3.1218927514
 10
-183.8650800707
 20
3.1289921999
 10
-183.8644392897
 20
3.1346406774
 10
-183.8637636979
 20
3.1387438944
 10
-183.8630645727
 20
3.1412333557
 10
-183.862353584
 20
3.1420675051
  0
LWPOLYLINE
  5
2A0
100
AcDbEntity
  8
RACCORDO
100
AcDbPolyline
 62
253
  6
CONTINUOUS
 90
16
 70
0
 10
-183.2572088741
 20
7.2780732577
 10
-183.2569957213
 20
7.2657455844
 10
-183.2568719965
 20
7.2530223527
 10
-183.2568397653
 20
7.2401159511
 10
-183.256899566
 20
7.2272418259
 10
-183.2570504008
 20
7.2146148842
 10
-183.2572897522
 20
7.2024459073
 10
-183.2576136251
 20
7.1909380313
 10
-183.2580166136
 20
7.1802833569
 10
-183.2584919909
 20
7.1706597422
 10
-183.2590318223
 20
7.1622278339
 10
-183.2596270967
 20
7.1551283855
 10
-183.2602678777
 20
7.1494799079
 10
-183.2609434694
 20
7.1453766909
 10
-183.2616425947
 20
7.1428872296
 10
-183.2623535834
 20
7.1420530802
  0
LWPOLYLINE
  5
2A1
100
AcDbEntity
  8
RACCORDO
100
AcDbPolyline
 62
253
  6
CONTINUOUS
 90
13
 70
0
 10
-185.3932229782
 20
4.5317704949
 10
-185.3933675561
 20
4.5457007799
 10
-185.3929095901
 20
4.5595605202
 10
-185.3918579776
 20
4.5730804457
 10
-185.3902331499
 20
4.5859978885
 10
-185.3880666743
 20
4.5980618859
 10
-185.3854006417
 20
4.609038056
 10
-185.3822868484
 20
4.6187131515
 10
-185.3787857899
 20
4.6268992027
 10
-185.3749654857
 20
4.6334371692
 10
-185.3709001574
 20
4.6382000299
 10
-185.3666687873
 20
4.6410952512
 10
-185.3623535834
 20
4.642066584
  0
LWPOLYLINE
  5
2A2
100
AcDbEntity
  8
RACCORDO
100
AcDbPolyline
 62
253
  6
CONTINUOUS
 90
13
 70
0
 10
-181.7314841892
 20
5.7523500905
 10
-181.7313396113
 20
5.7384198054
 10
-181.7317975773
 20
5.7245600651
 10
-181.7328491897
 20
5.7110401396
 10
-181.7344740175
 20
5.6981226968
 10
-181.7366404931
 20
5.6860586994
 10
-181.7393065257
 20
5.6750825293
 10
-181.742420319
 20
5.6654074338
 10
-181.7459213775
 20
5.6572213826
 10
-181.7497416817
 20
5.6506834161
 10
-181.75380701
 20
5.6459205554
 10
-181.75803838
 20
5.6430253341
 10
-181.762353584
 20
5.6420540013
  0
LWPOLYLINE
  5
2A3
100
AcDbEntity
  8
RACCORDO
100
AcDbPolyline
 62
253
  6
CONTINUOUS
 90
13
 70
0
 10
-184.2743588584
 20
4.5317700572
 10
-184.2744149319
 20
4.5457000136
 10
-184.2742367021
 20
4.5595592651
 10
-184.2738276314
 20
4.5730785823
 10
-184.2731956663
 20
4.5859953397
 10
-184.2723530834
 20
4.5980586168
 10
-184.2713162506
 20
4.6090340732
 10
-184.2701053094
 20
4.6187085
 10
-184.2687437835
 20
4.6268939622
 10
-184.2672581219
 20
4.6334314496
 10
-184.2656771848
 20
4.6381939651
 10
-184.2640316836
 20
4.6410889923
 10
-184.2623535837
 20
4.6420602927
  0
LWPOLYLINE
  5
2A4
100
AcDbEntity
  8
RACCORDO
100
AcDbPolyline
 62
253
  6
CONTINUOUS
 90
13
 70
0
 10
-182.8503483089
 20
5.7523505281
 10
-182.8502922355
 20
5.7384205717
 10
-182.8504704653
 20
5.7245613202
 10
-182.850879536
 20
5.711042003
 10
-182.8515115011
 20
5.6981252456
 10
-182.852354084
 20
5.6860619685
 10
-182.8533909168
 20
5.6750865121
 10
-182.854601858
 20
5.6654120853
 10
-182.8559633839
 20
5.6572266231
 10
-182.8574490455
 20
5.6506891357
 10
-182.8590299826
 20
5.6459266202
 10
-182.8606754838
 20
5.643031593
 10
-182.8623535837
 20
5.6420602927
  0
LINE
  5
2A5
100
AcDbEntity
  8
RACCORDO
100
AcDbLine
 62
253
  6
CONTINUOUS
 10
-185.6983694148
 20
4.8369151739
 11
-185.6983694148
 21
5.4472054114
  0
LINE
  5
2A6
100
AcDbEntity
  8
RACCORDO
100
AcDbLine
 62
7
  6
CONTINUOUS
 10
-185.5623535837
 20
4.8420602927
 11
-185.5623535837
 21
5.4420602927
  0
LINE
  5
2A7
100
AcDbEntity
  8
RACCORDO
100
AcDbLine
 62
7
  6
CONTINUOUS
 10
-184.0623535837
 20
3.3420602927
 11
-184.0623535837
 21
4.4420602927
  0
LINE
  5
2A8
100
AcDbEntity
  8
RACCORDO
100
AcDbLine
 62
7
  6
CONTINUOUS
 10
-184.0623535837
 20
5.8420602927
 11
-184.0623535837
 21
6.9420602927
  0
LINE
  5
2A9
100
AcDbEntity
  8
RACCORDO
100
AcDbLine
 62
7
  6
CONTINUOUS
 10
-183.0623535837
 20
6.9420602927
 11
-183.0623535837
 21
5.8420602927
  0
LINE
  5
2AA
100
AcDbEntity
  8
RACCORDO
100
AcDbLine
 62
7
  6
CONTINUOUS
 10
-183.0623535837
 20
4.4420602927
 11
-183.0623535837
 21
3.3420602927
  0
LINE
  5
2AB
100
AcDbEntity
  8
RACCORDO
100
AcDbLine
 62
7
  6
CONTINUOUS
 10
-181.5623535837
 20
5.4420602927
 11
-181.5623535837
 21
4.8420602927
  0
LINE
  5
2AC
100
AcDbEntity
  8
RACCORDO
100
AcDbLine
 62
253
  6
CONTINUOUS
 10
-181.4263377526
 20
5.4472054114
 11
-181.4263377526
 21
4.8369151739
  0
LINE
  5
2AD
100
AcDbEntity
  8
RACCORDO
100
AcDbLine
 62
253
  6
CONTINUOUS
 10
-184.1726438212
 20
5.8540655697
 11
-184.1726438197
 21
6.705706919
  0
LINE
  5
2AE
100
AcDbEntity
  8
RACCORDO
100
AcDbLine
 62
253
  6
CONTINUOUS
 10
-184.172719941
 20
4.3719888454
 11
-184.1726438212
 21
4.4300550156
  0
LINE
  5
2AF
100
AcDbEntity
  8
RACCORDO
100
AcDbLine
 62
253
  6
CONTINUOUS
 10
-182.9519872264
 20
5.9121317399
 11
-182.9520633462
 21
5.8540655697
  0
LINE
  5
2B0
100
AcDbEntity
  8
RACCORDO
100
AcDbLine
 62
253
  6
CONTINUOUS
 10
-182.9520633462
 20
4.4300550156
 11
-182.9520633477
 21
3.5784136663
  0
LWPOLYLINE
  5
2B1
100
AcDbEntity
  8
RACCORDO
100
AcDbPolyline
 62
253
  6
CONTINUOUS
 90
3
 70
0
 10
-184.1726438197
 20
6.705706919
 10
-184.1724640501
 20
6.7924642234
 10
-184.1726438212
 20
6.9729310051
  0
LWPOLYLINE
  5
2B2
100
AcDbEntity
  8
RACCORDO
100
AcDbPolyline
 62
253
  6
CONTINUOUS
 90
3
 70
0
 10
-182.9520633477
 20
3.5784136663
 10
-182.9522431173
 20
3.4916563619
 10
-182.9520633462
 20
3.3111895803
  0
LINE
  5
2B3
100
AcDbEntity
  8
RACCORDO
100
AcDbLine
 62
253
  6
CONTINUOUS
 10
-184.1726438212
 20
3.3111895803
 11
-184.172719941
 21
4.3719888454
  0
LINE
  5
2B4
100
AcDbEntity
  8
RACCORDO
100
AcDbLine
 62
253
  6
CONTINUOUS
 10
-182.9520633462
 20
6.9729310051
 11
-182.9519872264
 21
5.9121317399
  0
LWPOLYLINE
  5
2B5
100
AcDbEntity
  8
RACCORDO
100
AcDbPolyline
 62
253
  6
CONTINUOUS
 90
13
 70
0
 10
-184.2743588605
 20
5.7523505299
 10
-184.2744149309
 20
5.7384205957
 10
-184.2742366986
 20
5.7245613684
 10
-184.2738276258
 20
5.7110420763
 10
-184.2731956593
 20
5.6981253441
 10
-184.2723530756
 20
5.6860620913
 10
-184.2713162426
 20
5.6750866578
 10
-184.2701053017
 20
5.6654122514
 10
-184.2687437766
 20
5.6572268064
 10
-184.2672581162
 20
5.6506893326
 10
-184.2656771808
 20
5.6459268266
 10
-184.2640316815
 20
5.6430318044
 10
-184.2623535837
 20
5.6420605045
  0
LWPOLYLINE
  5
2B6
100
AcDbEntity
  8
RACCORDO
100
AcDbPolyline
 62
253
  6
CONTINUOUS
 90
13
 70
0
 10
-182.8503483069
 20
4.5317700554
 10
-182.8502922365
 20
4.5456999896
 10
-182.8504704688
 20
4.5595592169
 10
-182.8508795415
 20
4.573078509
 10
-182.851511508
 20
4.5859952412
 10
-182.8523540918
 20
4.598058494
 10
-182.8533909248
 20
4.6090339275
 10
-182.8546018657
 20
4.6187083339
 10
-182.8559633908
 20
4.6268937789
 10
-182.8574490512
 20
4.6334312527
 10
-182.8590299866
 20
4.6381937587
 10
-182.8606754859
 20
4.6410887809
 10
-182.8623535837
 20
4.6420600808
  0
LWPOLYLINE
  5
2B7
100
AcDbEntity
  8
RACCORDO
100
AcDbPolyline
 62
253
  6
CONTINUOUS
 90
13
 70
0
 10
-185.3932242794
 20
5.7523505246
 10
-185.3933684682
 20
5.7384205712
 10
-185.3929101632
 20
5.7245613229
 10
-185.3918582675
 20
5.7110420087
 10
-185.3902332151
 20
5.6981252539
 10
-185.3880665743
 20
5.6860619788
 10
-185.385400434
 20
5.6750865238
 10
-185.3822865866
 20
5.6654120975
 10
-185.3787855214
 20
5.6572266348
 10
-185.37496525
 20
5.650689146
 10
-185.3708999846
 20
5.6459266281
 10
-185.3666686969
 20
5.6430315974
 10
-185.3623535837
 20
5.6420602927
  0
LWPOLYLINE
  5
2B8
100
AcDbEntity
  8
RACCORDO
100
AcDbPolyline
 62
253
  6
CONTINUOUS
 90
13
 70
0
 10
-181.731482888
 20
4.5317700607
 10
-181.7313386992
 20
4.5457000141
 10
-181.7317970042
 20
4.5595592624
 10
-181.7328488999
 20
4.5730785766
 10
-181.7344739523
 20
4.5859953314
 10
-181.7366405931
 20
4.5980586065
 10
-181.7393067334
 20
4.6090340615
 10
-181.7424205808
 20
4.6187084878
 10
-181.7459216459
 20
4.6268939505
 10
-181.7497419174
 20
4.6334314393
 10
-181.7538071828
 20
4.6381939572
 10
-181.7580384705
 20
4.6410889879
 10
-181.7623535837
 20
4.6420602927
  0
LWPOLYLINE
  5
2B9
100
AcDbEntity
  8
RACCORDO
100
AcDbPolyline
 62
253
  6
CONTINUOUS
 90
16
 70
0
 10
-183.867498701
 20
7.2780761135
 10
-183.8677118496
 20
7.2657484924
 10
-183.8678355653
 20
7.2530255004
 10
-183.8678677833
 20
7.2401194921
 10
-183.8678079656
 20
7.2272458771
 10
-183.8676571109
 20
7.214619524
 10
-183.8674177369
 20
7.2024511746
 10
-183.8670938392
 20
7.1909439263
 10
-183.8666908236
 20
7.1802898423
 10
-183.8662154167
 20
7.170666746
 10
-183.8656755535
 20
7.1622352529
 10
-183.8650802446
 20
7.15513609
 10
-183.8644394257
 20
7.1494877467
 10
-183.8637637926
 20
7.1453844974
 10
-183.8630646221
 20
7.142894828
 10
-183.8623535837
 20
7.1420602927
  0
LWPOLYLINE
  5
2BA
100
AcDbEntity
  8
RACCORDO
100
AcDbPolyline
 62
253
  6
CONTINUOUS
 90
16
 70
0
 10
-183.2572084664
 20
3.0060444718
 10
-183.2569953178
 20
3.0183720929
 10
-183.2568716021
 20
3.0310950849
 10
-183.2568393841
 20
3.0440010932
 10
-183.2568992018
 20
3.0568747082
 10
-183.2570500565
 20
3.0695010613
 10
-183.2572894305
 20
3.0816694107
 10
-183.2576133282
 20
3.093176659
 10
-183.2580163438
 20
3.103830743
 10
-183.2584917506
 20
3.1134538393
 10
-183.2590316139
 20
3.1218853324
 10
-183.2596269228
 20
3.1289844953
 10
-183.2602677417
 20
3.1346328386
 10
-183.2609433748
 20
3.1387360879
 10
-183.2616425453
 20
3.1412257573
 10
-183.2623535837
 20
3.1420602927
  0
LWPOLYLINE
  5
2BB
100
AcDbEntity
  8
RACCORDO
100
AcDbPolyline
 62
253
  6
CONTINUOUS
 90
19
 70
0
 10
-185.6983694148
 20
5.4472054114
 10
-185.6972296875
 20
5.4733048695
 10
-185.6939338626
 20
5.4989900539
 10
-185.6884976096
 20
5.5241910652
 10
-185.6809115309
 20
5.5489252189
 10
-185.6712166102
 20
5.5730369857
 10
-185.6595140077
 20
5.5962030543
 10
-185.6458188265
 20
5.618382114
 10
-185.6301691064
 20
5.6394959065
 10
-185.6127186778
 20
5.6591825781
 10
-185.5934398881
 20
5.6774394615
 10
-185.5724275988
 20
5.6941839012
 10
-185.550037312
 20
5.7089693843
 10
-185.5262716061
 20
5.7217871345
 10
-185.5012000083
 20
5.7326301549
 10
-185.4752898261
 20
5.7411096397
 10
-185.4487166992
 20
5.7471309224
 10
-185.421356789
 20
5.7508638118
 10
-185.3932242961
 20
5.7523505301
  0
LWPOLYLINE
  5
2BC
100
AcDbEntity
  8
RACCORDO
100
AcDbPolyline
 62
253
  6
CONTINUOUS
 90
19
 70
0
 10
-181.4263377526
 20
4.8369151739
 10
-181.4274774799
 20
4.8108157159
 10
-181.4307733048
 20
4.7851305314
 10
-181.4362095578
 20
4.7599295201
 10
-181.4437956365
 20
4.7351953664
 10
-181.4534905572
 20
4.7110835996
 10
-181.4651931597
 20
4.687917531
 10
-181.4788883409
 20
4.6657384713
 10
-181.494538061
 20
4.6446246788
 10
-181.5119884896
 20
4.6249380072
 10
-181.5312672792
 20
4.6066811238
 10
-181.5522795686
 20
4.5899366841
 10
-181.5746698554
 20
4.575151201
 10
-181.5984355613
 20
4.5623334508
 10
-181.6235071591
 20
4.5514904304
 10
-181.6494173413
 20
4.5430109457
 10
-181.6759904682
 20
4.5369896629
 10
-181.7033503784
 20
4.5332567735
 10
-181.7314828713
 20
4.5317700552
  0
LWPOLYLINE
  5
2BD
100
AcDbEntity
  8
RACCORDO
100
AcDbPolyline
 62
253
  6
CONTINUOUS
 90
19
 70
0
 10
-184.1726438212
 20
6.9729310051
 10
-184.1710424878
 20
7.0015719401
 10
-184.1672125301
 20
7.0292701116
 10
-184.1611175892
 20
7.056011183
 10
-184.1525991114
 20
7.0818590004
 10
-184.1417551618
 20
7.1066986733
 10
-184.1289623362
 20
7.1302438843
 10
-184.1142323826
 20
7.1524775756
 10
-184.0975684405
 20
7.1733459027
 10
-184.0793803174
 20
7.1925174828
 10
-184.0597360327
 20
7.2099130113
 10
-184.0386488667
 20
7.2255436215
 10
-184.0164810997
 20
7.239230467
 10
-183.9933007713
 20
7.2509314368
 10
-183.9691583545
 20
7.2606342408
 10
-183.9444084325
 20
7.2682241075
 10
-183.919217376
 20
7.2736563579
 10
-183.893557494
 20
7.2769453979
 10
-183.8674987024
 20
7.2780761238
  0
LWPOLYLINE
  5
2BE
100
AcDbEntity
  8
RACCORDO
100
AcDbPolyline
 62
253
  6
CONTINUOUS
 90
19
 70
0
 10
-182.9520633462
 20
3.3111895803
 10
-182.9536646796
 20
3.2825486452
 10
-182.9574946373
 20
3.2548504737
 10
-182.9635895782
 20
3.2281094023
 10
-182.972108056
 20
3.2022615849
 10
-182.9829520056
 20
3.177421912
 10
-182.9957448312
 20
3.153876701
 10
-183.0104747848
 20
3.1316430097
 10
-183.0271387269
 20
3.1107746826
 10
-183.04532685
 20
3.0916031025
 10
-183.0649711347
 20
3.074207574
 10
-183.0860583007
 20
3.0585769638
 10
-183.1082260677
 20
3.0448901183
 10
-183.1314063961
 20
3.0331891485
 10
-183.1555488129
 20
3.0234863445
 10
-183.1802987349
 20
3.0158964778
 10
-183.2054897914
 20
3.0104642274
 10
-183.2311496734
 20
3.0071751874
 10
-183.257208465
 20
3.0060444615
  0
LINE
  5
2BF
100
AcDbEntity
  8
RACCORDO
100
AcDbLine
 62
253
  6
CONTINUOUS
 10
-314.2395637264
 20
3.3111910148
 11
-314.2400693395
 21
3.3110259462
  0
LINE
  5
2C0
100
AcDbEntity
  8
RACCORDO
100
AcDbLine
 62
253
  6
CONTINUOUS
 10
-314.2395680533
 20
6.9729309834
 11
-314.2400726934
 21
6.9730957361
  0
LINE
  5
2C1
100
AcDbEntity
  8
RACCORDO
100
AcDbLine
 62
253
  6
CONTINUOUS
 10
-314.4293422866
 20
5.6506891357
 11
-314.4163392632
 21
5.6459266202
  0
LWPOLYLINE
  5
2C2
100
AcDbEntity
  8
0
100
AcDbPolyline
 62
7
  6
CONTINUOUS
 90
19
 70
0
 10
282.7599768866
 20
-45.3579397073
 10
283.0702061798
 20
-45.3422268371
 10
283.3653304035
 20
-45.2967907472
 10
283.6453495578
 20
-45.2243292162
 10
283.9107323725
 20
-45.128125988
 10
284.1610101178
 20
-45.0108210341
 10
284.3947766043
 20
-44.8733693968
 10
284.6122514196
 20
-44.7173682841
 10
284.8132149761
 20
-44.5453108896
 10
284.9956023216
 20
-44.3584385278
 10
285.1592446691
 20
-44.1581495457
 10
285.3043108055
 20
-43.9468654242
 10
285.4292421395
 20
-43.7272545158
 10
285.533256371
 20
-43.5010619084
 10
285.6171358
 20
-43.2704732097
 10
285.6816687353
 20
-43.0389634944
 10
285.7271179462
 20
-42.8089059279
 10
285.7532206633
 20
-42.5814103464
 10
285.7599768866
 20
-42.3579397073
  0
LINE
  5
2C3
100
AcDbEntity
  8
0
100
AcDbLine
 62
7
  6
CONTINUOUS
 10
195.4726436647
 20
-55.5579397073
 11
241.7599768866
 21
-55.5579397073
  0
LINE
  5
2C4
100
AcDbEntity
  8
0
100
AcDbLine
 62
7
  6
CONTINUOUS
 10
-195.5973508321
 20
-55.5579397073
 11
-241.884684054
 21
-55.5579397073
  0
LINE
  5
2C5
100
AcDbEntity
  8
0
100
AcDbLine
 62
7
  6
CONTINUOUS
 10
285.4376464163
 20
-55.5579397073
 11
287.9376464163
 21
-55.5579397073
  0
LINE
  5
2C6
100
AcDbEntity
  8
0
100
AcDbLine
 62
7
  6
CONTINUOUS
 10
-285.5623535837
 20
-55.5579397073
 11
-288.0623535837
 21
-55.5579397073
  0
LINE
  5
2C7
100
AcDbEntity
  8
0
100
AcDbLine
 62
253
  6
CONTINUOUS
 10
195.4726436647
 20
-45.8579397073
 11
241.7599768866
 21
-45.8579397073
  0
LINE
  5
2C8
100
AcDbEntity
  8
0
100
AcDbLine
 62
253
  6
CONTINUOUS
 10
-195.5973508321
 20
-45.8579397073
 11
-241.884684054
 21
-45.8579397073
  0
LINE
  5
2C9
100
AcDbEntity
  8
0
100
AcDbLine
 62
253
  6
CONTINUOUS
 10
285.4376464163
 20
-45.8579397073
 11
287.9376464163
 21
-45.8579397073
  0
LINE
  5
2CA
100
AcDbEntity
  8
0
100
AcDbLine
 62
253
  6
CONTINUOUS
 10
-285.5623535837
 20
-45.8579397073
 11
-288.0623535837
 21
-45.8579397073
  0
LINE
  5
2CB
100
AcDbEntity
  8
0
100
AcDbLine
 62
7
  6
CONTINUOUS
 10
-308.5623535837
 20
-45.3579397073
 11
-288.5623535837
 21
-45.3579397073
  0
LINE
  5
2CC
100
AcDbEntity
  8
0
100
AcDbLine
 62
7
  6
CONTINUOUS
 10
308.4376464163
 20
-45.3579397073
 11
288.4376464163
 21
-45.3579397073
  0
LINE
  5
2CD
100
AcDbEntity
  8
0
100
AcDbLine
 62
7
  6
CONTINUOUS
 10
195.4726436647
 20
-45.3579397073
 11
282.7599768866
 21
-45.3579397073
  0
LINE
  5
2CE
100
AcDbEntity
  8
0
100
AcDbLine
 62
7
  6
CONTINUOUS
 10
-195.5973508321
 20
-45.3579397073
 11
-282.884684054
 21
-45.3579397073
  0
LINE
  5
2CF
100
AcDbEntity
  8
0
100
AcDbLine
 62
7
  6
CONTINUOUS
 10
-190.0623535837
 20
-44.8579397073
 11
189.9376464163
 21
-44.8579397073
  0
LINE
  5
2D0
100
AcDbEntity
  8
0
100
AcDbLine
 62
7
  6
CONTINUOUS
 10
-308.5623535837
 20
-42.8579397073
 11
-288.5623535837
 21
-42.8579397073
  0
LINE
  5
2D1
100
AcDbEntity
  8
0
100
AcDbLine
 62
7
  6
CONTINUOUS
 10
308.4376464163
 20
-42.8579397073
 11
288.4376464163
 21
-42.8579397073
  0
LINE
  5
2D2
100
AcDbEntity
  8
0
100
AcDbLine
 62
7
  6
CONTINUOUS
 10
311.4376464163
 20
-42.3579397073
 11
285.7599768866
 21
-42.3579397073
  0
LINE
  5
2D3
100
AcDbEntity
  8
0
100
AcDbLine
 62
253
  6
CONTINUOUS
 10
195.4726436647
 20
-42.3579397073
 11
285.7599768866
 21
-42.3579397073
  0
LINE
  5
2D4
100
AcDbEntity
  8
0
100
AcDbLine
 62
253
  6
CONTINUOUS
 10
-195.5973508321
 20
-42.3579397073
 11
-285.884684054
 21
-42.3579397073
  0
LINE
  5
2D5
100
AcDbEntity
  8
0
100
AcDbLine
 62
7
  6
CONTINUOUS
 10
-285.884684054
 20
-42.3579397073
 11
-311.5623535837
 21
-42.3579397073
  0
LINE
  5
2D6
100
AcDbEntity
  8
0
100
AcDbLine
 62
253
  6
CONTINUOUS
 10
-190.0623535837
 20
-40.8579397073
 11
189.9376464163
 21
-40.8579397073
  0
LWPOLYLINE
  5
2D7
100
AcDbEntity
  8
RACCORDO
100
AcDbPolyline
 62
253
  6
CONTINUOUS
 90
10
 70
0
 10
-314.2395681198
 20
5.7523505301
 10
-314.2304167946
 20
5.7508314766
 10
-314.2216263388
 20
5.7470649924
 10
-314.2132152678
 20
5.7410101549
 10
-314.2051694925
 20
5.73249953
 10
-314.197536319
 20
5.7216288161
 10
-314.1904276959
 20
5.7087846874
 10
-314.1838676525
 20
5.6939698642
 10
-314.1778645868
 20
5.6771971747
 10
-314.1725094689
 20
5.658922252
  0
LINE
  5
2D8
100
AcDbEntity
  8
RACCORDO
100
AcDbLine
 62
253
  6
CONTINUOUS
 10
-314.4163392632
 20
5.6459266202
 11
-314.402805207
 21
5.643031593
  0
LWPOLYLINE
  5
2D9
100
AcDbEntity
  8
RACCORDO
100
AcDbPolyline
 62
253
  6
CONTINUOUS
 90
20
 70
0
 10
314.3630378715
 20
5.7523505301
 10
314.3636803921
 20
5.7524295894
 10
314.3642952606
 20
5.7528820735
 10
314.3648827872
 20
5.7537024651
 10
314.3654504934
 20
5.7548460688
 10
314.3659913868
 20
5.7563462224
 10
314.3664842288
 20
5.7583154588
 10
314.3669319659
 20
5.760751556
 10
314.3673325421
 20
5.7636476299
 10
314.3676576299
 20
5.7671137327
 10
314.3679094562
 20
5.7711672614
 10
314.368086701
 20
5.775789592
 10
314.3681559049
 20
5.7810469679
 10
314.368115027
 20
5.7869959205
 10
314.3679661743
 20
5.7935940581
 10
314.3676817695
 20
5.8007748194
 10
314.3672504907
 20
5.8086349102
 10
314.3666815418
 20
5.8171099367
 10
314.3659775087
 20
5.8259044652
 10
314.3651378556
 20
5.8349332218
  0
LINE
  5
2DA
100
AcDbEntity
  8
RACCORDO
100
AcDbLine
 62
253
  6
CONTINUOUS
 10
314.3630378577
 20
5.854065568
 11
314.3635648302
 21
5.8541296385
  0
LINE
  5
2DB
100
AcDbEntity
  8
0
100
AcDbLine
 62
7
  6
CONTINUOUS
 10
-197.5973508321
 20
-37.3579397073
 11
-195.5973508321
 21
-37.3579397073
  0
LINE
  5
2DC
100
AcDbEntity
  8
0
100
AcDbLine
 62
7
  6
CONTINUOUS
 10
195.4726436647
 20
-37.3579397073
 11
197.4726436647
 21
-37.3579397073
  0
LINE
  5
2DD
100
AcDbEntity
  8
0
100
AcDbLine
 62
7
  6
CONTINUOUS
 10
189.9376464163
 20
-34.8579397073
 11
197.4726436647
 21
-34.8579397073
  0
LINE
  5
2DE
100
AcDbEntity
  8
0
100
AcDbLine
 62
7
  6
CONTINUOUS
 10
-190.0623535837
 20
-34.8579397073
 11
-197.5973508321
 21
-34.8579397073
  0
LINE
  5
2DF
100
AcDbEntity
  8
RACCORDO
100
AcDbLine
 62
253
  6
CONTINUOUS
 10
-314.4877449414
 20
5.8540655578
 11
-314.4882713098
 21
5.8541294992
  0
LINE
  5
2E0
100
AcDbEntity
  8
RACCORDO
100
AcDbLine
 62
253
  6
CONTINUOUS
 10
314.0312105173
 20
5.4472049729
 11
314.0379144296
 21
5.4475751243
  0
LWPOLYLINE
  5
2E1
100
AcDbEntity
  8
RACCORDO
100
AcDbPolyline
 62
7
  6
CONTINUOUS
 90
15
 70
0
 10
314.264295491
 20
5.6420605078
 10
314.2753784945
 20
5.6426675025
 10
314.2879408429
 20
5.6448540721
 10
314.2996711479
 20
5.6484270101
 10
314.3104025099
 20
5.6531397202
 10
314.3201128581
 20
5.6587856951
 10
314.3288926055
 20
5.6652578167
 10
314.3367256876
 20
5.6724152624
 10
314.3435812083
 20
5.6800928555
 10
314.3495271957
 20
5.6882347686
 10
314.3546745414
 20
5.6969236675
 10
314.3589231646
 20
5.7059128418
 10
314.3621702809
 20
5.7146793456
 10
314.3645521453
 20
5.7230266805
 10
314.3662944281
 20
5.7311432113
  0
LWPOLYLINE
  5
2E2
100
AcDbEntity
  8
RACCORDO
100
AcDbPolyline
 62
7
  6
CONTINUOUS
 90
11
 70
0
 10
314.2642910793
 20
5.6420603767
 10
314.2738605555
 20
5.6425123002
 10
314.2865928475
 20
5.6445409491
 10
314.2984987683
 20
5.6479993965
 10
314.3094032003
 20
5.6526373711
 10
314.3192787674
 20
5.6582429703
 10
314.3282133576
 20
5.6647035897
 10
314.3361871549
 20
5.6718733805
 10
314.3431673831
 20
5.6795833052
 10
314.3492231499
 20
5.6877759144
 10
314.3544662174
 20
5.6965331114
  0
LWPOLYLINE
  5
2E3
100
AcDbEntity
  8
RACCORDO
100
AcDbPolyline
 62
253
  6
CONTINUOUS
 90
16
 70
0
 10
314.3630378715
 20
4.5317700552
 10
314.3549514925
 20
4.53157518
 10
314.3458472611
 20
4.5316000172
 10
314.3356340913
 20
4.5317700551
 10
314.3240997202
 20
4.5316843367
 10
314.3112449896
 20
4.5315040927
 10
314.2973466707
 20
4.5317700543
 10
314.2824861614
 20
4.5319846068
 10
314.2664885554
 20
4.5317563262
 10
314.2493013564
 20
4.5317700553
 10
314.2309654588
 20
4.5319642188
 10
314.2113375372
 20
4.531833029
 10
314.1900485542
 20
4.5317700566
 10
314.1668911706
 20
4.531926318
 10
314.141863385
 20
4.5319721087
 10
314.1148609524
 20
4.5317700552
  0
LWPOLYLINE
  5
2E4
100
AcDbEntity
  8
RACCORDO
100
AcDbPolyline
 62
253
  6
CONTINUOUS
 90
16
 70
0
 10
185.5736591763
 20
4.8369156124
 10
185.5613314995
 20
4.8367024576
 10
185.5486082514
 20
4.8365787307
 10
185.5357018227
 20
4.8365464973
 10
185.5228276622
 20
4.8366062959
 10
185.5102006798
 20
4.8367571287
 10
185.4980316594
 20
4.8369964781
 10
185.4865237399
 20
4.8373203492
 10
185.4758690246
 20
4.8377233359
 10
185.466245374
 20
4.8381987116
 10
185.4578134369
 20
4.8387385413
 10
185.4507139687
 20
4.839333814
 10
185.4450654819
 20
4.8399745933
 10
185.4409622673
 20
4.8406501831
 10
185.4384728204
 20
4.8413493061
 10
185.4376386979
 20
4.8420602925
  0
LWPOLYLINE
  5
2E5
100
AcDbEntity
  8
RACCORDO
100
AcDbPolyline
 62
253
  6
CONTINUOUS
 90
16
 70
0
 10
181.3016336563
 20
5.4472049729
 10
181.3139613331
 20
5.4474181277
 10
181.3266845812
 20
5.4475418546
 10
181.3395910099
 20
5.447574088
 10
181.3524651704
 20
5.4475142894
 10
181.3650921528
 20
5.4473634566
 10
181.3772611732
 20
5.4471241072
 10
181.3887690927
 20
5.4468002361
 10
181.399423808
 20
5.4463972494
 10
181.4090474586
 20
5.4459218737
 10
181.4174793957
 20
5.445382044
 10
181.4245788639
 20
5.4447867713
 10
181.4302273507
 20
5.444145992
 10
181.4343305653
 20
5.4434704022
 10
181.4368200122
 20
5.4427712792
 10
181.4376541347
 20
5.4420602928
  0
LWPOLYLINE
  5
2E6
100
AcDbEntity
  8
RACCORDO
100
AcDbPolyline
 62
253
  6
CONTINUOUS
 90
22
 70
0
 10
184.1496516934
 20
4.5317700552
 10
184.1442787042
 20
4.5316909959
 10
184.13876974
 20
4.5312385118
 10
184.1331231542
 20
4.5304181202
 10
184.1273101443
 20
4.5292745165
 10
184.121354864
 20
4.5277743629
 10
184.1153325811
 20
4.5258051265
 10
184.109213807
 20
4.5233690293
 10
184.1030153848
 20
4.5204729554
 10
184.09687661
 20
4.5170068526
 10
184.0907534613
 20
4.5129533239
 10
184.0846656277
 20
4.5083309933
 10
184.0788417623
 20
4.5030736174
 10
184.0732348603
 20
4.4971246648
 10
184.0678553396
 20
4.4905265272
 10
184.0630170822
 20
4.4833457659
 10
184.0587153914
 20
4.4754856751
 10
184.0549182793
 20
4.4670106486
 10
184.0519136381
 20
4.4582161201
 10
184.0498005589
 20
4.4491873635
 10
184.0484755024
 20
4.4398048064
 10
184.0479366538
 20
4.4300550156
  0
LWPOLYLINE
  5
2E7
100
AcDbEntity
  8
RACCORDO
100
AcDbPolyline
 62
253
  6
CONTINUOUS
 90
13
 70
0
 10
184.0479361752
 20
3.3111910148
 10
184.0340058633
 20
3.3110464053
 10
184.0201460832
 20
3.3115043436
 10
184.006626108
 20
3.3125559326
 10
183.9937086091
 20
3.3141807415
 10
183.9816445528
 20
3.3163472029
 10
183.9706683243
 20
3.3190132258
 10
183.9609931741
 20
3.3221270136
 10
183.9528070747
 20
3.3256280703
 10
183.9462690691
 20
3.3294483759
 10
183.94150618
 20
3.3335137079
 10
183.9386109429
 20
3.3377450832
 10
183.9376396074
 20
3.3420602931
  0
LWPOLYLINE
  5
2E8
100
AcDbEntity
  8
RACCORDO
100
AcDbPolyline
 62
253
  6
CONTINUOUS
 90
16
 70
0
 10
-314.2395681198
 20
4.5317700552
 10
-314.2660414962
 20
4.5319669738
 10
-314.2906277536
 20
4.5319226668
 10
-314.3134237104
 20
4.5317700574
 10
-314.3344043318
 20
4.5318500617
 10
-314.3537915422
 20
4.5319902663
 10
-314.3720029282
 20
4.5317700545
 10
-314.3891763887
 20
4.5317780638
 10
-314.4052501936
 20
4.5320461712
 10
-314.4202918132
 20
4.5317700552
 10
-314.434505452
 20
4.5314411449
 10
-314.447744503
 20
4.5316612164
 10
-314.459620285
 20
4.5317700553
 10
-314.4701049462
 20
4.5315600124
 10
-314.4794484446
 20
4.5315266237
 10
-314.4877450389
 20
4.5317700552
  0
LWPOLYLINE
  5
2E9
100
AcDbEntity
  8
RACCORDO
100
AcDbPolyline
 62
253
  6
CONTINUOUS
 90
13
 70
0
 10
-184.1726438139
 20
3.3111896019
 10
-184.1587138621
 20
3.3110454132
 10
-184.1448546153
 20
3.3115037181
 10
-184.1313353024
 20
3.3125556137
 10
-184.1184185488
 20
3.3141806657
 10
-184.1063552746
 20
3.3163473061
 10
-184.0953798202
 20
3.3190134459
 10
-184.0857053942
 20
3.3221272927
 10
-184.0775199313
 20
3.3256283572
 10
-184.0709824418
 20
3.329448628
 10
-184.0662199228
 20
3.3335138928
 10
-184.0633248905
 20
3.3377451799
 10
-184.0623535837
 20
3.3420602927
  0
LWPOLYLINE
  5
2EA
100
AcDbEntity
  8
RACCORDO
100
AcDbPolyline
 62
253
  6
CONTINUOUS
 90
16
 70
0
 10
-185.6983694129
 20
4.8369151742
 10
-185.68604179
 20
4.8367020255
 10
-185.6733187959
 20
4.8365783097
 10
-185.6604127854
 20
4.8365460917
 10
-185.6475391681
 20
4.8366059093
 10
-185.6349128129
 20
4.8367567641
 10
-185.6227444616
 20
4.8369961381
 10
-185.6112372116
 20
4.837320036
 10
-185.6005831264
 20
4.8377230517
 10
-185.5909600292
 20
4.8381984586
 10
-185.5825285359
 20
4.838738322
 10
-185.5754293733
 20
4.8393336311
 10
-185.5697810309
 20
4.8399744501
 10
-185.5656777833
 20
4.8406500834
 10
-185.5631881162
 20
4.8413492541
 10
-185.5623535837
 20
4.8420602927
  0
LWPOLYLINE
  5
2EB
100
AcDbEntity
  8
RACCORDO
100
AcDbPolyline
 62
253
  6
CONTINUOUS
 90
16
 70
0
 10
-181.4263377545
 20
5.4472054111
 10
-181.4386653774
 20
5.4474185599
 10
-181.4513883715
 20
5.4475422757
 10
-181.464294382
 20
5.4475744936
 10
-181.4771679992
 20
5.447514676
 10
-181.4897943545
 20
5.4473638212
 10
-181.5019627058
 20
5.4471244472
 10
-181.5134699558
 20
5.4468005493
 10
-181.524124041
 20
5.4463975336
 10
-181.5337471381
 20
5.4459221267
 10
-181.5421786315
 20
5.4453822633
 10
-181.5492777941
 20
5.4447869542
 10
-181.5549261364
 20
5.4441461352
 10
-181.5590293841
 20
5.4434705019
 10
-181.5615190512
 20
5.4427713312
 10
-181.5623535837
 20
5.4420602927
  0
LWPOLYLINE
  5
2EC
100
AcDbEntity
  8
RACCORDO
100
AcDbPolyline
 62
253
  6
CONTINUOUS
 90
19
 70
0
 10
-183.8674987024
 20
3.0060444615
 10
-183.8934850377
 20
3.0071565026
 10
-183.9191060633
 20
3.0104351392
 10
-183.9442916698
 20
3.015866491
 10
-183.9690836888
 20
3.023468869
 10
-183.9933004762
 20
3.033196342
 10
-184.0165434362
 20
3.0449260311
 10
-184.0387452569
 20
3.0586410971
 10
-184.0598547083
 20
3.0743027753
 10
-184.0795164873
 20
3.091734677
 10
-184.0977207912
 20
3.1109506513
 10
-184.1143956966
 20
3.1318684521
 10
-184.129127489
 20
3.1541507821
 10
-184.1419129371
 20
3.17776122
 10
-184.1527405047
 20
3.2026649408
 10
-184.1612326957
 20
3.2285167837
 10
-184.1672935897
 20
3.2551821715
 10
-184.1710845204
 20
3.2827445212
 10
-184.1726438212
 20
3.3111895803
  0
LWPOLYLINE
  5
2ED
100
AcDbEntity
  8
RACCORDO
100
AcDbPolyline
 62
253
  6
CONTINUOUS
 90
19
 70
0
 10
-183.257208465
 20
7.2780761238
 10
-183.2312221297
 20
7.2769640827
 10
-183.2056011041
 20
7.2736854462
 10
-183.1804154976
 20
7.2682540943
 10
-183.1556234785
 20
7.2606517164
 10
-183.1314066912
 20
7.2509242433
 10
-183.1081637312
 20
7.2391945542
 10
-183.0859619105
 20
7.2254794882
 10
-183.0648524591
 20
7.20981781
 10
-183.0451906801
 20
7.1923859083
 10
-183.0269863762
 20
7.173169934
 10
-183.0103114708
 20
7.1522521332
 10
-182.9955796784
 20
7.1299698032
 10
-182.9827942303
 20
7.1063593653
 10
-182.9719666627
 20
7.0814556445
 10
-182.9634744717
 20
7.0556038016
 10
-182.9574135777
 20
7.0289384138
 10
-182.953622647
 20
7.0013760641
 10
-182.9520633462
 20
6.9729310051
  0
LWPOLYLINE
  5
2EE
100
AcDbEntity
  8
RACCORDO
100
AcDbPolyline
 62
253
  6
CONTINUOUS
 90
19
 70
0
 10
-185.3932242961
 20
4.5317700552
 10
-185.4215191504
 20
4.5332891087
 10
-185.4489970523
 20
4.5370555929
 10
-185.4756436979
 20
4.5431104304
 10
-185.5015683391
 20
4.5516210553
 10
-185.5266098569
 20
4.5624917692
 10
-185.5503444835
 20
4.5753358979
 10
-185.5727191362
 20
4.5901507211
 10
-185.593714643
 20
4.6069234106
 10
-185.612969648
 20
4.6251983333
 10
-185.6303843848
 20
4.644886491
 10
-185.6459920882
 20
4.6659904847
 10
-185.6596488366
 20
4.6881569314
 10
-185.6713201741
 20
4.7113156265
 10
-185.6809873934
 20
4.735417643
 10
-185.6885486844
 20
4.7601250292
 10
-185.6939634719
 20
4.7852774432
 10
-185.6972420632
 20
4.8108973501
 10
-185.6983694148
 20
4.8369151739
  0
LWPOLYLINE
  5
2EF
100
AcDbEntity
  8
RACCORDO
100
AcDbPolyline
 62
253
  6
CONTINUOUS
 90
19
 70
0
 10
-181.7314828713
 20
5.7523505301
 10
-181.703188017
 20
5.7508314766
 10
-181.675710115
 20
5.7470649924
 10
-181.6490634695
 20
5.7410101549
 10
-181.6231388282
 20
5.73249953
 10
-181.5980973105
 20
5.7216288161
 10
-181.5743626839
 20
5.7087846874
 10
-181.5519880312
 20
5.6939698642
 10
-181.5309925244
 20
5.6771971747
 10
-181.5117375194
 20
5.658922252
 10
-181.4943227825
 20
5.6392340943
 10
-181.4787150792
 20
5.6181301006
 10
-181.4650583308
 20
5.5959636539
 10
-181.4533869933
 20
5.5728049588
 10
-181.443719774
 20
5.5487029423
 10
-181.436158483
 20
5.5239955561
 10
-181.4307436955
 20
5.4988431421
 10
-181.4274651041
 20
5.4732232352
 10
-181.4263377526
 20
5.4472054114
  0
LINE
  5
2F0
100
AcDbEntity
  8
RACCORDO
100
AcDbLine
 62
253
  6
CONTINUOUS
 10
-314.1559256204
 20
5.4472054111
 11
-314.1626262853
 21
5.4475755324
  0
LINE
  5
2F1
100
AcDbEntity
  8
RACCORDO
100
AcDbLine
 62
253
  6
CONTINUOUS
 10
-314.402805207
 20
5.643031593
 11
-314.3890030299
 21
5.6420602927
  0
LINE
  5
2F2
100
AcDbEntity
  8
RACCORDO
100
AcDbLine
 62
253
  6
CONTINUOUS
 10
-314.1559176847
 20
4.8369156124
 11
-314.162621597
 21
4.836545461
  0
LWPOLYLINE
  5
2F3
100
AcDbEntity
  8
RACCORDO
100
AcDbPolyline
 62
7
  6
CONTINUOUS
 90
16
 70
0
 10
-314.3890026584
 20
4.6420600775
 10
-314.4000856619
 20
4.6414530828
 10
-314.4126480103
 20
4.6392665132
 10
-314.4243783153
 20
4.6356935752
 10
-314.4351096773
 20
4.6309808651
 10
-314.4448200255
 20
4.6253348902
 10
-314.4535997729
 20
4.6188627686
 10
-314.461432855
 20
4.6117053229
 10
-314.4682883757
 20
4.6040277298
 10
-314.4742343631
 20
4.5958858167
 10
-314.4793817088
 20
4.5871969178
 10
-314.483630332
 20
4.5782077435
 10
-314.4868774483
 20
4.5694412397
 10
-314.4892593127
 20
4.5610939048
 10
-314.4910015954
 20
4.552977374
 10
-314.4922463361
 20
4.5449866415
  0
LWPOLYLINE
  5
2F4
100
AcDbEntity
  8
RACCORDO
100
AcDbPolyline
 62
7
  6
CONTINUOUS
 90
11
 70
0
 10
-314.3889982466
 20
4.6420602086
 10
-314.3985677229
 20
4.6416082851
 10
-314.4113000149
 20
4.6395796362
 10
-314.4232059357
 20
4.6361211888
 10
-314.4341103677
 20
4.6314832143
 10
-314.4439859348
 20
4.625877615
 10
-314.4529205249
 20
4.6194169956
 10
-314.4608943222
 20
4.6122472048
 10
-314.4678745505
 20
4.6045372801
 10
-314.4739303172
 20
4.5963446709
 10
-314.4791733848
 20
4.5875874739
  0
LWPOLYLINE
  5
2F5
100
AcDbEntity
  8
RACCORDO
100
AcDbPolyline
 62
253
  6
CONTINUOUS
 90
11
 70
0
 10
-314.4877450389
 20
5.7523505301
 10
-314.4796586599
 20
5.7525454053
 10
-314.4705544285
 20
5.7525205681
 10
-314.4603412587
 20
5.7523505302
 10
-314.4488068875
 20
5.7524362486
 10
-314.435952157
 20
5.7526164926
 10
-314.4220538381
 20
5.752350531
 10
-314.4071933288
 20
5.7521359785
 10
-314.3911957228
 20
5.7523642591
 10
-314.3740085238
 20
5.75235053
 10
-314.3556726261
 20
5.7521563665
  0
LWPOLYLINE
  5
2F6
100
AcDbEntity
  8
RACCORDO
100
AcDbPolyline
 62
253
  6
CONTINUOUS
 90
16
 70
0
 10
-181.4263408237
 20
4.8369156124
 10
-181.4386685005
 20
4.8367024576
 10
-181.4513917486
 20
4.8365787307
 10
-181.4642981773
 20
4.8365464973
 10
-181.4771723378
 20
4.8366062959
 10
-181.4897993202
 20
4.8367571287
 10
-181.5019683406
 20
4.8369964781
 10
-181.5134762601
 20
4.8373203492
 10
-181.5241309754
 20
4.8377233359
 10
-181.533754626
 20
4.8381987116
 10
-181.5421865631
 20
4.8387385413
 10
-181.5492860313
 20
4.839333814
 10
-181.5549345181
 20
4.8399745933
 10
-181.5590377327
 20
4.8406501831
 10
-181.5615271796
 20
4.8413493061
 10
-181.5623613021
 20
4.8420602925
  0
LWPOLYLINE
  5
2F7
100
AcDbEntity
  8
RACCORDO
100
AcDbPolyline
 62
253
  6
CONTINUOUS
 90
16
 70
0
 10
-185.6983663437
 20
5.4472049729
 10
-185.6860386669
 20
5.4474181277
 10
-185.6733154188
 20
5.4475418546
 10
-185.6604089901
 20
5.447574088
 10
-185.6475348296
 20
5.4475142894
 10
-185.6349078472
 20
5.4473634566
 10
-185.6227388268
 20
5.4471241072
 10
-185.6112309073
 20
5.4468002361
 10
-185.600576192
 20
5.4463972494
 10
-185.5909525414
 20
5.4459218737
 10
-185.5825206043
 20
5.445382044
 10
-185.5754211361
 20
5.4447867713
 10
-185.5697726493
 20
5.444145992
 10
-185.5656694347
 20
5.4434704022
 10
-185.5631799878
 20
5.4427712792
 10
-185.5623458653
 20
5.4420602928
  0
LWPOLYLINE
  5
2F8
100
AcDbEntity
  8
RACCORDO
100
AcDbPolyline
 62
253
  6
CONTINUOUS
 90
22
 70
0
 10
182.7256411393
 20
5.7523505301
 10
182.7310141284
 20
5.7524295894
 10
182.7365230926
 20
5.7528820735
 10
182.7421696784
 20
5.7537024651
 10
182.7479826883
 20
5.7548460688
 10
182.7539379686
 20
5.7563462224
 10
182.7599602515
 20
5.7583154588
 10
182.7660790256
 20
5.760751556
 10
182.7722774478
 20
5.7636476299
 10
182.7784162226
 20
5.7671137327
 10
182.7845393713
 20
5.7711672614
 10
182.790627205
 20
5.775789592
 10
182.7964510703
 20
5.7810469679
 10
182.8020579723
 20
5.7869959205
 10
182.807437493
 20
5.7935940581
 10
182.8122757504
 20
5.8007748194
 10
182.8165774412
 20
5.8086349102
 10
182.8203745533
 20
5.8171099367
 10
182.8233791945
 20
5.8259044652
 10
182.8254922737
 20
5.8349332218
 10
182.8268173302
 20
5.8443157789
 10
182.8273561788
 20
5.8540655697
  0
LWPOLYLINE
  5
2F9
100
AcDbEntity
  8
RACCORDO
100
AcDbPolyline
 62
253
  6
CONTINUOUS
 90
22
 70
0
 10
-182.8503483066
 20
4.5317700552
 10
-182.8557212958
 20
4.5316909959
 10
-182.86123026
 20
4.5312385118
 10
-182.8668768458
 20
4.5304181202
 10
-182.8726898557
 20
4.5292745165
 10
-182.878645136
 20
4.5277743629
 10
-182.8846674189
 20
4.5258051265
 10
-182.890786193
 20
4.5233690293
 10
-182.8969846152
 20
4.5204729554
 10
-182.90312339
 20
4.5170068526
 10
-182.9092465387
 20
4.5129533239
 10
-182.9153343723
 20
4.5083309933
 10
-182.9211582377
 20
4.5030736174
 10
-182.9267651397
 20
4.4971246648
 10
-182.9321446604
 20
4.4905265272
 10
-182.9369829178
 20
4.4833457659
 10
-182.9412846086
 20
4.4754856751
 10
-182.9450817207
 20
4.4670106486
 10
-182.9480863619
 20
4.4582161201
 10
-182.9501994411
 20
4.4491873635
 10
-182.9515244976
 20
4.4398048064
 10
-182.9520633462
 20
4.4300550156
  0
LWPOLYLINE
  5
2FA
100
AcDbEntity
  8
RACCORDO
100
AcDbPolyline
 62
253
  6
CONTINUOUS
 90
22
 70
0
 10
-184.2743588607
 20
5.7523505301
 10
-184.2689858716
 20
5.7524295894
 10
-184.2634769074
 20
5.7528820735
 10
-184.2578303216
 20
5.7537024651
 10
-184.2520173117
 20
5.7548460688
 10
-184.2460620314
 20
5.7563462224
 10
-184.2400397485
 20
5.7583154588
 10
-184.2339209744
 20
5.760751556
 10
-184.2277225522
 20
5.7636476299
 10
-184.2215837774
 20
5.7671137327
 10
-184.2154606287
 20
5.7711672614
 10
-184.209372795
 20
5.775789592
 10
-184.2035489297
 20
5.7810469679
 10
-184.1979420277
 20
5.7869959205
 10
-184.192562507
 20
5.7935940581
 10
-184.1877242496
 20
5.8007748194
 10
-184.1834225588
 20
5.8086349102
 10
-184.1796254467
 20
5.8171099367
 10
-184.1766208055
 20
5.8259044652
 10
-184.1745077263
 20
5.8349332218
 10
-184.1731826698
 20
5.8443157789
 10
-184.1726438212
 20
5.8540655697
  0
LWPOLYLINE
  5
2FB
100
AcDbEntity
  8
RACCORDO
100
AcDbPolyline
 62
253
  6
CONTINUOUS
 90
13
 70
0
 10
182.8273566574
 20
6.9729295705
 10
182.8412869693
 20
6.97307418
 10
182.8551467494
 20
6.9726162417
 10
182.8686667246
 20
6.9715646527
 10
182.8815842235
 20
6.9699398438
 10
182.8936482798
 20
6.9677733824
 10
182.9046245083
 20
6.9651073595
 10
182.9142996585
 20
6.9619935717
 10
182.9224857579
 20
6.958492515
 10
182.9290237635
 20
6.9546722094
 10
182.9337866526
 20
6.9506068775
 10
182.9366818898
 20
6.9463755021
 10
182.9376532252
 20
6.9420602923
  0
LWPOLYLINE
  5
2FC
100
AcDbEntity
  8
RACCORDO
100
AcDbPolyline
 62
253
  6
CONTINUOUS
 90
13
 70
0
 10
-182.9520638248
 20
3.3111910148
 10
-182.9659941367
 20
3.3110464053
 10
-182.9798539168
 20
3.3115043436
 10
-182.993373892
 20
3.3125559326
 10
-183.0062913909
 20
3.3141807415
 10
-183.0183554472
 20
3.3163472029
 10
-183.0293316757
 20
3.3190132258
 10
-183.0390068259
 20
3.3221270136
 10
-183.0471929253
 20
3.3256280703
 10
-183.0537309309
 20
3.3294483759
 10
-183.05849382
 20
3.3335137079
 10
-183.0613890571
 20
3.3377450832
 10
-183.0623603926
 20
3.3420602931
  0
LWPOLYLINE
  5
2FD
100
AcDbEntity
  8
RACCORDO
100
AcDbPolyline
 62
253
  6
CONTINUOUS
 90
13
 70
0
 10
-184.1726433426
 20
6.9729295705
 10
-184.1587130307
 20
6.97307418
 10
-184.1448532506
 20
6.9726162417
 10
-184.1313332754
 20
6.9715646527
 10
-184.1184157765
 20
6.9699398438
 10
-184.1063517202
 20
6.9677733824
 10
-184.0953754917
 20
6.9651073595
 10
-184.0857003415
 20
6.9619935717
 10
-184.0775142421
 20
6.958492515
 10
-184.0709762365
 20
6.9546722094
 10
-184.0662133474
 20
6.9506068775
 10
-184.0633181102
 20
6.9463755021
 10
-184.0623467748
 20
6.9420602923
  0
LWPOLYLINE
  5
2FE
100
AcDbEntity
  8
RACCORDO
100
AcDbPolyline
 62
253
  6
CONTINUOUS
 90
13
 70
0
 10
184.0479366523
 20
4.4300550173
 10
184.0340066954
 20
4.4299989438
 10
184.0201474435
 20
4.4301771737
 10
184.0066281259
 20
4.4305862445
 10
183.9937113682
 20
4.4312182097
 10
183.9816480907
 20
4.4320607928
 10
183.9706726342
 20
4.4330976258
 10
183.9609982073
 20
4.4343085672
 10
183.9528127451
 20
4.4356700933
 10
183.9462752579
 20
4.4371557551
 10
183.9415127427
 20
4.4387366921
 10
183.938617716
 20
4.4403821931
 10
183.9376464163
 20
4.4420602927
  0
LWPOLYLINE
  5
2FF
100
AcDbEntity
  8
RACCORDO
100
AcDbPolyline
 62
253
  6
CONTINUOUS
 90
13
 70
0
 10
182.8273561803
 20
5.854065568
 10
182.8412861372
 20
5.8541216415
 10
182.8551453891
 20
5.8539434116
 10
182.8686647067
 20
5.8535343408
 10
182.8815814644
 20
5.8529023756
 10
182.8936447419
 20
5.8520597925
 10
182.9046201984
 20
5.8510229595
 10
182.9142946253
 20
5.8498120181
 10
182.9224800875
 20
5.848450492
 10
182.9290175747
 20
5.8469648302
 10
182.9337800899
 20
5.8453838932
 10
182.9366751166
 20
5.8437383922
 10
182.9376464163
 20
5.8420602927
  0
LWPOLYLINE
  5
300
100
AcDbEntity
  8
RACCORDO
100
AcDbPolyline
 62
253
  6
CONTINUOUS
 90
13
 70
0
 10
-182.9520633477
 20
4.4300550173
 10
-182.9659933046
 20
4.4299989438
 10
-182.9798525565
 20
4.4301771737
 10
-182.9933718741
 20
4.4305862445
 10
-183.0062886318
 20
4.4312182097
 10
-183.0183519093
 20
4.4320607928
 10
-183.0293273658
 20
4.4330976258
 10
-183.0390017927
 20
4.4343085672
 10
-183.0471872549
 20
4.4356700933
 10
-183.0537247421
 20
4.4371557551
 10
-183.0584872573
 20
4.4387366921
 10
-183.061382284
 20
4.4403821931
 10
-183.0623535837
 20
4.4420602927
  0
LWPOLYLINE
  5
301
100
AcDbEntity
  8
RACCORDO
100
AcDbPolyline
 62
253
  6
CONTINUOUS
 90
13
 70
0
 10
-184.1726438197
 20
5.854065568
 10
-184.1587138628
 20
5.8541216415
 10
-184.1448546109
 20
5.8539434116
 10
-184.1313352933
 20
5.8535343408
 10
-184.1184185356
 20
5.8529023756
 10
-184.1063552581
 20
5.8520597925
 10
-184.0953798016
 20
5.8510229595
 10
-184.0857053747
 20
5.8498120181
 10
-184.0775199125
 20
5.848450492
 10
-184.0709824253
 20
5.8469648302
 10
-184.0662199101
 20
5.8453838932
 10
-184.0633248834
 20
5.8437383922
 10
-184.0623535837
 20
5.8420602927
  0
LINE
  5
302
100
AcDbEntity
  8
RACCORDO
100
AcDbLine
 62
253
  6
CONTINUOUS
 10
-314.1559256254
 20
3.0060444615
 11
-314.1643367973
 21
3.0060186127
  0
LINE
  5
303
100
AcDbEntity
  8
RACCORDO
100
AcDbLine
 62
253
  6
CONTINUOUS
 10
314.031218458
 20
7.2780761238
 11
314.0396296299
 21
7.2781019726
  0
LWPOLYLINE
  5
304
100
AcDbEntity
  8
RACCORDO
100
AcDbPolyline
 62
253
  6
CONTINUOUS
 90
5
 70
0
 10
-314.3556726261
 20
5.7521563665
 10
-314.3147557216
 20
5.7523505287
 10
-314.2915983379
 20
5.7521942673
 10
-314.2665705524
 20
5.7521484766
 10
-314.2395681198
 20
5.7523505301
  0
LWPOLYLINE
  5
305
100
AcDbEntity
  8
RACCORDO
100
AcDbPolyline
 62
253
  6
CONTINUOUS
 90
3
 70
0
 10
184.3517397752
 20
4.5317700553
 10
184.2146649958
 20
4.5315266237
 10
184.1496516934
 20
4.5317700552
  0
LWPOLYLINE
  5
306
100
AcDbEntity
  8
RACCORDO
100
AcDbPolyline
 62
253
  6
CONTINUOUS
 90
3
 70
0
 10
-182.6482602248
 20
4.5317700553
 10
-182.7853350042
 20
4.5315266237
 10
-182.8503483066
 20
4.5317700552
  0
LWPOLYLINE
  5
307
100
AcDbEntity
  8
RACCORDO
100
AcDbPolyline
 62
253
  6
CONTINUOUS
 90
3
 70
0
 10
182.5235530574
 20
5.75235053
 10
182.6606278368
 20
5.7525939616
 10
182.7256411393
 20
5.7523505301
  0
LWPOLYLINE
  5
308
100
AcDbEntity
  8
RACCORDO
100
AcDbPolyline
 62
253
  6
CONTINUOUS
 90
3
 70
0
 10
-184.4764469426
 20
5.75235053
 10
-184.3393721632
 20
5.7525939616
 10
-184.2743588607
 20
5.7523505301
  0
LINE
  5
309
100
AcDbEntity
  8
RACCORDO
100
AcDbLine
 62
253
  6
CONTINUOUS
 10
183.742791535
 20
3.0060444615
 11
183.1325012976
 21
3.0060444615
  0
LINE
  5
30A
100
AcDbEntity
  8
RACCORDO
100
AcDbLine
 62
253
  6
CONTINUOUS
 10
-183.257208465
 20
3.0060444615
 11
-183.8674987024
 21
3.0060444615
  0
LINE
  5
30B
100
AcDbEntity
  8
RACCORDO
100
AcDbLine
 62
7
  6
CONTINUOUS
 10
183.7376464163
 20
3.1420602927
 11
183.1376464163
 21
3.1420602927
  0
LINE
  5
30C
100
AcDbEntity
  8
RACCORDO
100
AcDbLine
 62
7
  6
CONTINUOUS
 10
-183.2623535837
 20
3.1420602927
 11
-183.8623535837
 21
3.1420602927
  0
LINE
  5
30D
100
AcDbEntity
  8
RACCORDO
100
AcDbLine
 62
7
  6
CONTINUOUS
 10
314.2642958626
 20
4.6420602927
 11
314.0563898989
 21
4.6420602927
  0
LINE
  5
30E
100
AcDbEntity
  8
RACCORDO
100
AcDbLine
 62
7
  6
CONTINUOUS
 10
185.2376464163
 20
4.6420602927
 11
184.1376464163
 21
4.6420602927
  0
LINE
  5
30F
100
AcDbEntity
  8
RACCORDO
100
AcDbLine
 62
7
  6
CONTINUOUS
 10
182.7376464163
 20
4.6420602927
 11
181.6376464163
 21
4.6420602927
  0
LINE
  5
310
100
AcDbEntity
  8
RACCORDO
100
AcDbLine
 62
7
  6
CONTINUOUS
 10
-181.7623535837
 20
4.6420602927
 11
-182.8623535837
 21
4.6420602927
  0
LINE
  5
311
100
AcDbEntity
  8
RACCORDO
100
AcDbLine
 62
7
  6
CONTINUOUS
 10
-184.2623535837
 20
4.6420602927
 11
-185.3623535837
 21
4.6420602927
  0
LINE
  5
312
100
AcDbEntity
  8
RACCORDO
100
AcDbLine
 62
7
  6
CONTINUOUS
 10
-314.1810875858
 20
4.6420602927
 11
-314.3890030299
 21
4.6420602927
  0
LINE
  5
313
100
AcDbEntity
  8
RACCORDO
100
AcDbLine
 62
7
  6
CONTINUOUS
 10
-314.3890030299
 20
5.6420602927
 11
-314.1810970662
 21
5.6420602927
  0
LINE
  5
314
100
AcDbEntity
  8
RACCORDO
100
AcDbLine
 62
7
  6
CONTINUOUS
 10
-185.3623535837
 20
5.6420602927
 11
-184.2623535837
 21
5.6420602927
  0
LINE
  5
315
100
AcDbEntity
  8
RACCORDO
100
AcDbLine
 62
7
  6
CONTINUOUS
 10
-182.8623535837
 20
5.6420602927
 11
-181.7623535837
 21
5.6420602927
  0
LINE
  5
316
100
AcDbEntity
  8
RACCORDO
100
AcDbLine
 62
7
  6
CONTINUOUS
 10
181.6376464163
 20
5.6420602927
 11
182.7376464163
 21
5.6420602927
  0
LINE
  5
317
100
AcDbEntity
  8
RACCORDO
100
AcDbLine
 62
7
  6
CONTINUOUS
 10
184.1376464163
 20
5.6420602927
 11
185.2376464163
 21
5.6420602927
  0
LINE
  5
318
100
AcDbEntity
  8
RACCORDO
100
AcDbLine
 62
7
  6
CONTINUOUS
 10
314.0563804185
 20
5.6420602927
 11
314.2642958626
 21
5.6420602927
  0
LINE
  5
319
100
AcDbEntity
  8
RACCORDO
100
AcDbLine
 62
7
  6
CONTINUOUS
 10
-183.8623535837
 20
7.1420602927
 11
-183.2623535837
 21
7.1420602927
  0
LINE
  5
31A
100
AcDbEntity
  8
RACCORDO
100
AcDbLine
 62
7
  6
CONTINUOUS
 10
183.1376464163
 20
7.1420602927
 11
183.7376464163
 21
7.1420602927
  0
LINE
  5
31B
100
AcDbEntity
  8
RACCORDO
100
AcDbLine
 62
253
  6
CONTINUOUS
 10
-183.8674987024
 20
7.2780761238
 11
-183.257208465
 21
7.2780761238
  0
LINE
  5
31C
100
AcDbEntity
  8
RACCORDO
100
AcDbLine
 62
253
  6
CONTINUOUS
 10
183.1325012976
 20
7.2780761238
 11
183.742791535
 21
7.2780761238
  0
LWPOLYLINE
  5
31D
100
AcDbEntity
  8
RACCORDO
100
AcDbPolyline
 62
253
  6
CONTINUOUS
 90
3
 70
0
 10
-184.7640907781
 20
4.5319846068
 10
-184.91369889
 20
4.5317700553
 10
-184.9894555036
 20
4.5319642188
  0
LWPOLYLINE
  5
31E
100
AcDbEntity
  8
RACCORDO
100
AcDbPolyline
 62
253
  6
CONTINUOUS
 90
4
 70
0
 10
-182.1277166559
 20
4.5319902663
 10
-182.2771636289
 20
4.5317780638
 10
-182.351284139
 20
4.5320461712
 10
-182.5006216763
 20
4.5314411449
  0
LWPOLYLINE
  5
31F
100
AcDbEntity
  8
RACCORDO
100
AcDbPolyline
 62
253
  6
CONTINUOUS
 90
4
 70
0
 10
184.8722833441
 20
4.5319902663
 10
184.7228363711
 20
4.5317780638
 10
184.648715861
 20
4.5320461712
 10
184.4993783237
 20
4.5314411449
  0
LWPOLYLINE
  5
320
100
AcDbEntity
  8
RACCORDO
100
AcDbPolyline
 62
253
  6
CONTINUOUS
 90
3
 70
0
 10
182.2359092219
 20
4.5319846068
 10
182.08630111
 20
4.5317700553
 10
182.0105444964
 20
4.5319642188
  0
LWPOLYLINE
  5
321
100
AcDbEntity
  8
RACCORDO
100
AcDbPolyline
 62
253
  6
CONTINUOUS
 90
3
 70
0
 10
-182.3606163893
 20
5.7521359785
 10
-182.2110082774
 20
5.75235053
 10
-182.1352516638
 20
5.7521563665
  0
LWPOLYLINE
  5
322
100
AcDbEntity
  8
RACCORDO
100
AcDbPolyline
 62
253
  6
CONTINUOUS
 90
4
 70
0
 10
-184.9969905115
 20
5.752130319
 10
-184.8475435385
 20
5.7523425215
 10
-184.7734230284
 20
5.7520744141
 10
-184.6240854911
 20
5.7526794404
  0
LWPOLYLINE
  5
323
100
AcDbEntity
  8
RACCORDO
100
AcDbPolyline
 62
253
  6
CONTINUOUS
 90
4
 70
0
 10
182.0030094885
 20
5.752130319
 10
182.1524564615
 20
5.7523425215
 10
182.2265769716
 20
5.7520744141
 10
182.3759145089
 20
5.7526794404
  0
LWPOLYLINE
  5
324
100
AcDbEntity
  8
RACCORDO
100
AcDbPolyline
 62
253
  6
CONTINUOUS
 90
3
 70
0
 10
184.6393836107
 20
5.7521359785
 10
184.7889917226
 20
5.75235053
 10
184.8647483362
 20
5.7521563665
  0
LWPOLYLINE
  5
325
100
AcDbEntity
  8
RACCORDO
100
AcDbPolyline
 62
253
  6
CONTINUOUS
 90
4
 70
0
 10
-184.2743588607
 20
4.5317700552
 10
-184.4036563692
 20
4.5316000172
 10
-184.4718382881
 20
4.5317700551
 10
-184.6161843057
 20
4.5315040927
  0
LWPOLYLINE
  5
326
100
AcDbEntity
  8
RACCORDO
100
AcDbPolyline
 62
253
  6
CONTINUOUS
 90
4
 70
0
 10
182.7256411393
 20
4.5317700552
 10
182.5963436308
 20
4.5316000172
 10
182.5281617119
 20
4.5317700551
 10
182.3838156943
 20
4.5315040927
  0
LWPOLYLINE
  5
327
100
AcDbEntity
  8
RACCORDO
100
AcDbPolyline
 62
253
  6
CONTINUOUS
 90
4
 70
0
 10
-182.8503483066
 20
5.7523505301
 10
-182.7210507981
 20
5.7525205681
 10
-182.6528688793
 20
5.7523505302
 10
-182.5085228617
 20
5.7526164926
  0
LWPOLYLINE
  5
328
100
AcDbEntity
  8
RACCORDO
100
AcDbPolyline
 62
253
  6
CONTINUOUS
 90
4
 70
0
 10
184.1496516934
 20
5.7523505301
 10
184.2789492019
 20
5.7525205681
 10
184.3471311207
 20
5.7523505302
 10
184.4914771383
 20
5.7526164926
  0
LINE
  5
329
100
AcDbEntity
  8
RACCORDO
100
AcDbLine
 62
253
  6
CONTINUOUS
 10
-184.9894555036
 20
4.5319642188
 11
-185.3932242961
 21
4.5317700552
  0
LINE
  5
32A
100
AcDbEntity
  8
RACCORDO
100
AcDbLine
 62
253
  6
CONTINUOUS
 10
182.0105444964
 20
4.5319642188
 11
181.6067757039
 21
4.5317700552
  0
LINE
  5
32B
100
AcDbEntity
  8
RACCORDO
100
AcDbLine
 62
253
  6
CONTINUOUS
 10
-182.1352516638
 20
5.7521563665
 11
-181.7314828713
 21
5.7523505301
  0
LINE
  5
32C
100
AcDbEntity
  8
RACCORDO
100
AcDbLine
 62
253
  6
CONTINUOUS
 10
184.8647483362
 20
5.7521563665
 11
185.2685171287
 21
5.7523505301
  0
LINE
  5
32D
100
AcDbEntity
  8
RACCORDO
100
AcDbLine
 62
253
  6
CONTINUOUS
 10
-181.7314828713
 20
4.5317700552
 11
-182.1277166559
 21
4.5319902663
  0
LINE
  5
32E
100
AcDbEntity
  8
RACCORDO
100
AcDbLine
 62
253
  6
CONTINUOUS
 10
185.2685171287
 20
4.5317700552
 11
184.8722833441
 21
4.5319902663
  0
LINE
  5
32F
100
AcDbEntity
  8
RACCORDO
100
AcDbLine
 62
253
  6
CONTINUOUS
 10
-185.3932242961
 20
5.7523505301
 11
-184.9969905115
 21
5.752130319
  0
LINE
  5
330
100
AcDbEntity
  8
RACCORDO
100
AcDbLine
 62
253
  6
CONTINUOUS
 10
181.6067757039
 20
5.7523505301
 11
182.0030094885
 21
5.752130319
  0
LINE
  5
331
100
AcDbEntity
  8
RACCORDO
100
AcDbLine
 62
253
  6
CONTINUOUS
 10
-182.5006216763
 20
4.5314411449
 11
-182.6482602248
 21
4.5317700553
  0
LINE
  5
332
100
AcDbEntity
  8
RACCORDO
100
AcDbLine
 62
253
  6
CONTINUOUS
 10
184.4993783237
 20
4.5314411449
 11
184.3517397752
 21
4.5317700553
  0
LINE
  5
333
100
AcDbEntity
  8
RACCORDO
100
AcDbLine
 62
253
  6
CONTINUOUS
 10
-184.6240854911
 20
5.7526794404
 11
-184.4764469426
 21
5.75235053
  0
LINE
  5
334
100
AcDbEntity
  8
RACCORDO
100
AcDbLine
 62
253
  6
CONTINUOUS
 10
182.3759145089
 20
5.7526794404
 11
182.5235530574
 21
5.75235053
  0
LINE
  5
335
100
AcDbEntity
  8
RACCORDO
100
AcDbLine
 62
253
  6
CONTINUOUS
 10
314.0396296299
 20
3.0060186127
 11
314.031218458
 21
3.0060444615
  0
LINE
  5
336
100
AcDbEntity
  8
RACCORDO
100
AcDbLine
 62
253
  6
CONTINUOUS
 10
-314.1643367973
 20
7.2781019726
 11
-314.1559256254
 21
7.2780761238
  0
LINE
  5
337
100
AcDbEntity
  8
RACCORDO
100
AcDbLine
 62
253
  6
CONTINUOUS
 10
-184.6161843057
 20
4.5315040927
 11
-184.7640907781
 21
4.5319846068
  0
LINE
  5
338
100
AcDbEntity
  8
RACCORDO
100
AcDbLine
 62
253
  6
CONTINUOUS
 10
-182.5085228617
 20
5.7526164926
 11
-182.3606163893
 21
5.7521359785
  0
LINE
  5
339
100
AcDbEntity
  8
RACCORDO
100
AcDbLine
 62
253
  6
CONTINUOUS
 10
182.3838156943
 20
4.5315040927
 11
182.2359092219
 21
4.5319846068
  0
LINE
  5
33A
100
AcDbEntity
  8
RACCORDO
100
AcDbLine
 62
253
  6
CONTINUOUS
 10
184.4914771383
 20
5.7526164926
 11
184.6393836107
 21
5.7521359785
  0
LWPOLYLINE
  5
33B
100
AcDbEntity
  8
RACCORDO
100
AcDbPolyline
 62
253
  6
CONTINUOUS
 90
13
 70
0
 10
-184.172643811
 20
4.4300550275
 10
-184.1587149415
 20
4.4299991252
 10
-184.1448568579
 20
4.4301774958
 10
-184.1313387454
 20
4.4305866742
 10
-184.1184231855
 20
4.4312187121
 10
-184.1063610554
 20
4.4320613324
 10
-184.0953866549
 20
4.433098168
 10
-184.0857131553
 20
4.4343090791
 10
-184.0775284587
 20
4.435670545
 10
-184.0709915481
 20
4.4371561204
 10
-184.0662293991
 20
4.4387369496
 10
-184.0633345138
 20
4.4403823265
 10
-184.0623631236
 20
4.4420602912
  0
LWPOLYLINE
  5
33C
100
AcDbEntity
  8
RACCORDO
100
AcDbPolyline
 62
253
  6
CONTINUOUS
 90
13
 70
0
 10
-182.9520633564
 20
5.8540655578
 10
-182.9659922259
 20
5.8541214601
 10
-182.9798503095
 20
5.8539430895
 10
-182.993368422
 20
5.8535339111
 10
-183.0062839819
 20
5.8529018732
 10
-183.018346112
 20
5.8520592529
 10
-183.0293205125
 20
5.8510224173
 10
-183.0389940121
 20
5.8498115062
 10
-183.0471787087
 20
5.8484500403
 10
-183.0537156193
 20
5.8469644649
 10
-183.0584777682
 20
5.8453836357
 10
-183.0613726536
 20
5.8437382588
 10
-183.0623440438
 20
5.8420602941
  0
LWPOLYLINE
  5
33D
100
AcDbEntity
  8
RACCORDO
100
AcDbPolyline
 62
253
  6
CONTINUOUS
 90
13
 70
0
 10
182.827356189
 20
4.4300550275
 10
182.8412850585
 20
4.4299991252
 10
182.8551431421
 20
4.4301774958
 10
182.8686612546
 20
4.4305866742
 10
182.8815768145
 20
4.4312187121
 10
182.8936389446
 20
4.4320613324
 10
182.9046133451
 20
4.433098168
 10
182.9142868447
 20
4.4343090791
 10
182.9224715413
 20
4.435670545
 10
182.9290084519
 20
4.4371561204
 10
182.9337706009
 20
4.4387369496
 10
182.9366654862
 20
4.4403823265
 10
182.9376368764
 20
4.4420602912
  0
LWPOLYLINE
  5
33E
100
AcDbEntity
  8
RACCORDO
100
AcDbPolyline
 62
253
  6
CONTINUOUS
 90
13
 70
0
 10
184.0479366436
 20
5.8540655578
 10
184.0340077741
 20
5.8541214601
 10
184.0201496905
 20
5.8539430895
 10
184.006631578
 20
5.8535339111
 10
183.9937160181
 20
5.8529018732
 10
183.981653888
 20
5.8520592529
 10
183.9706794875
 20
5.8510224173
 10
183.9610059879
 20
5.8498115062
 10
183.9528212913
 20
5.8484500403
 10
183.9462843807
 20
5.8469644649
 10
183.9415222318
 20
5.8453836357
 10
183.9386273464
 20
5.8437382588
 10
183.9376559562
 20
5.8420602941
  0
LWPOLYLINE
  5
33F
100
AcDbEntity
  8
RACCORDO
100
AcDbPolyline
 62
253
  6
CONTINUOUS
 90
12
 70
0
 10
314.188716543
 20
5.7523505279
 10
314.2290843748
 20
5.752130319
 10
314.2472957608
 20
5.7523505308
 10
314.2644692213
 20
5.7523425215
 10
314.2805430263
 20
5.7520744141
 10
314.2955846458
 20
5.7523505301
 10
314.3097982846
 20
5.7526794404
 10
314.3230373356
 20
5.7524593689
 10
314.3349131177
 20
5.75235053
 10
314.3453977788
 20
5.7525605729
 10
314.3547412772
 20
5.7525939616
 10
314.3630378715
 20
5.7523505301
  0
LWPOLYLINE
  5
340
100
AcDbEntity
  8
RACCORDO
100
AcDbPolyline
 62
253
  6
CONTINUOUS
 90
4
 70
0
 10
314.1148609524
 20
5.7523505301
 10
314.1413343288
 20
5.7521536115
 10
314.1659205862
 20
5.7521979185
 10
314.188716543
 20
5.7523505279
  0
LWPOLYLINE
  5
341
100
AcDbEntity
  8
RACCORDO
100
AcDbPolyline
 62
253
  6
CONTINUOUS
 90
13
 70
0
 10
-182.9520633535
 20
6.9729309834
 10
-182.9659933053
 20
6.9730751721
 10
-182.9798525521
 20
6.9726168672
 10
-182.993371865
 20
6.9715649717
 10
-183.0062886186
 20
6.9699399196
 10
-183.0183518928
 20
6.9677732792
 10
-183.0293273472
 20
6.9651071394
 10
-183.0390017732
 20
6.9619932926
 10
-183.0471872361
 20
6.9584922281
 10
-183.0537247256
 20
6.9546719573
 10
-183.0584872446
 20
6.9506066925
 10
-183.0613822769
 20
6.9463754054
 10
-183.0623535837
 20
6.9420602927
  0
LWPOLYLINE
  5
342
100
AcDbEntity
  8
RACCORDO
100
AcDbPolyline
 62
253
  6
CONTINUOUS
 90
13
 70
0
 10
182.8273561861
 20
3.3111896019
 10
182.8412861379
 20
3.3110454132
 10
182.8551453847
 20
3.3115037181
 10
182.8686646976
 20
3.3125556137
 10
182.8815814512
 20
3.3141806657
 10
182.8936447254
 20
3.3163473061
 10
182.9046201798
 20
3.3190134459
 10
182.9142946058
 20
3.3221272927
 10
182.9224800687
 20
3.3256283572
 10
182.9290175582
 20
3.329448628
 10
182.9337800772
 20
3.3335138928
 10
182.9366751095
 20
3.3377451799
 10
182.9376464163
 20
3.3420602927
  0
LWPOLYLINE
  5
343
100
AcDbEntity
  8
RACCORDO
100
AcDbPolyline
 62
253
  6
CONTINUOUS
 90
13
 70
0
 10
184.0479366465
 20
6.9729309834
 10
184.0340066947
 20
6.9730751721
 10
184.0201474479
 20
6.9726168672
 10
184.006628135
 20
6.9715649717
 10
183.9937113814
 20
6.9699399196
 10
183.9816481072
 20
6.9677732792
 10
183.9706726528
 20
6.9651071394
 10
183.9609982268
 20
6.9619932926
 10
183.9528127639
 20
6.9584922281
 10
183.9462752744
 20
6.9546719573
 10
183.9415127554
 20
6.9506066925
 10
183.9386177231
 20
6.9463754054
 10
183.9376464163
 20
6.9420602927
  0
LWPOLYLINE
  5
344
100
AcDbEntity
  8
RACCORDO
100
AcDbPolyline
 62
253
  6
CONTINUOUS
 90
16
 70
0
 10
181.3016305871
 20
4.8369151742
 10
181.31395821
 20
4.8367020255
 10
181.3266812041
 20
4.8365783097
 10
181.3395872146
 20
4.8365460917
 10
181.3524608319
 20
4.8366059093
 10
181.3650871871
 20
4.8367567641
 10
181.3772555384
 20
4.8369961381
 10
181.3887627884
 20
4.837320036
 10
181.3994168736
 20
4.8377230517
 10
181.4090399708
 20
4.8381984586
 10
181.4174714641
 20
4.838738322
 10
181.4245706267
 20
4.8393336311
 10
181.4302189691
 20
4.8399744501
 10
181.4343222167
 20
4.8406500834
 10
181.4368118838
 20
4.8413492541
 10
181.4376464163
 20
4.8420602927
  0
LWPOLYLINE
  5
345
100
AcDbEntity
  8
RACCORDO
100
AcDbPolyline
 62
253
  6
CONTINUOUS
 90
16
 70
0
 10
185.5736622455
 20
5.4472054111
 10
185.5613346226
 20
5.4474185599
 10
185.5486116285
 20
5.4475422757
 10
185.535705618
 20
5.4475744936
 10
185.5228320008
 20
5.447514676
 10
185.5102056455
 20
5.4473638212
 10
185.4980372942
 20
5.4471244472
 10
185.4865300442
 20
5.4468005493
 10
185.475875959
 20
5.4463975336
 10
185.4662528619
 20
5.4459221267
 10
185.4578213685
 20
5.4453822633
 10
185.4507222059
 20
5.4447869542
 10
185.4450738636
 20
5.4441461352
 10
185.4409706159
 20
5.4434705019
 10
185.4384809488
 20
5.4427713312
 10
185.4376464163
 20
5.4420602927
  0
LWPOLYLINE
  5
346
100
AcDbEntity
  8
RACCORDO
100
AcDbPolyline
 62
253
  6
CONTINUOUS
 90
19
 70
0
 10
183.1325012976
 20
3.0060444615
 10
183.1065149623
 20
3.0071565026
 10
183.0808939367
 20
3.0104351392
 10
183.0557083302
 20
3.015866491
 10
183.0309163112
 20
3.023468869
 10
183.0066995238
 20
3.033196342
 10
182.9834565638
 20
3.0449260311
 10
182.9612547431
 20
3.0586410971
 10
182.9401452917
 20
3.0743027753
 10
182.9204835127
 20
3.091734677
 10
182.9022792088
 20
3.1109506513
 10
182.8856043034
 20
3.1318684521
 10
182.870872511
 20
3.1541507821
 10
182.8580870629
 20
3.17776122
 10
182.8472594953
 20
3.2026649408
 10
182.8387673043
 20
3.2285167837
 10
182.8327064103
 20
3.2551821715
 10
182.8289154796
 20
3.2827445212
 10
182.8273561788
 20
3.3111895803
  0
LWPOLYLINE
  5
347
100
AcDbEntity
  8
RACCORDO
100
AcDbPolyline
 62
253
  6
CONTINUOUS
 90
19
 70
0
 10
183.742791535
 20
7.2780761238
 10
183.7687778703
 20
7.2769640827
 10
183.7943988959
 20
7.2736854462
 10
183.8195845024
 20
7.2682540943
 10
183.8443765215
 20
7.2606517164
 10
183.8685933088
 20
7.2509242433
 10
183.8918362688
 20
7.2391945542
 10
183.9140380895
 20
7.2254794882
 10
183.9351475409
 20
7.20981781
 10
183.9548093199
 20
7.1923859083
 10
183.9730136238
 20
7.173169934
 10
183.9896885292
 20
7.1522521332
 10
184.0044203216
 20
7.1299698032
 10
184.0172057697
 20
7.1063593653
 10
184.0280333373
 20
7.0814556445
 10
184.0365255283
 20
7.0556038016
 10
184.0425864223
 20
7.0289384138
 10
184.046377353
 20
7.0013760641
 10
184.0479366538
 20
6.9729310051
  0
LWPOLYLINE
  5
348
100
AcDbEntity
  8
RACCORDO
100
AcDbPolyline
 62
253
  6
CONTINUOUS
 90
19
 70
0
 10
181.6067757039
 20
4.5317700552
 10
181.5784808496
 20
4.5332891087
 10
181.5510029477
 20
4.5370555929
 10
181.5243563021
 20
4.5431104304
 10
181.4984316609
 20
4.5516210553
 10
181.4733901431
 20
4.5624917692
 10
181.4496555165
 20
4.5753358979
 10
181.4272808638
 20
4.5901507211
 10
181.406285357
 20
4.6069234106
 10
181.387030352
 20
4.6251983333
 10
181.3696156152
 20
4.644886491
 10
181.3540079118
 20
4.6659904847
 10
181.3403511634
 20
4.6881569314
 10
181.3286798259
 20
4.7113156265
 10
181.3190126066
 20
4.735417643
 10
181.3114513156
 20
4.7601250292
 10
181.3060365281
 20
4.7852774432
 10
181.3027579368
 20
4.8108973501
 10
181.3016305852
 20
4.8369151739
  0
LWPOLYLINE
  5
349
100
AcDbEntity
  8
RACCORDO
100
AcDbPolyline
 62
253
  6
CONTINUOUS
 90
19
 70
0
 10
185.2685171287
 20
5.7523505301
 10
185.296811983
 20
5.7508314766
 10
185.324289885
 20
5.7470649924
 10
185.3509365305
 20
5.7410101549
 10
185.3768611718
 20
5.73249953
 10
185.4019026895
 20
5.7216288161
 10
185.4256373161
 20
5.7087846874
 10
185.4480119688
 20
5.6939698642
 10
185.4690074756
 20
5.6771971747
 10
185.4882624806
 20
5.658922252
 10
185.5056772175
 20
5.6392340943
 10
185.5212849208
 20
5.6181301006
 10
185.5349416692
 20
5.5959636539
 10
185.5466130067
 20
5.5728049588
 10
185.556280226
 20
5.5487029423
 10
185.563841517
 20
5.5239955561
 10
185.5692563045
 20
5.4988431421
 10
185.5725348959
 20
5.4732232352
 10
185.5736622474
 20
5.4472054114
  0
LINE
  5
34A
100
AcDbEntity
  8
RACCORDO
100
AcDbLine
 62
253
  6
CONTINUOUS
 10
314.031218453
 20
4.8369151742
 11
314.0379191179
 21
4.8365450529
  0
LWPOLYLINE
  5
34B
100
AcDbEntity
  8
RACCORDO
100
AcDbPolyline
 62
253
  6
CONTINUOUS
 90
20
 70
0
 10
-314.4877450389
 20
4.5317700552
 10
-314.4883875594
 20
4.5316909959
 10
-314.4890024279
 20
4.5312385118
 10
-314.4895899545
 20
4.5304181202
 10
-314.4901576608
 20
4.5292745165
 10
-314.4906985542
 20
4.5277743629
 10
-314.4911913961
 20
4.5258051265
 10
-314.4916391333
 20
4.5233690293
 10
-314.4920397095
 20
4.5204729554
 10
-314.4923647973
 20
4.5170068526
 10
-314.4926166236
 20
4.5129533239
 10
-314.4927938684
 20
4.5083309933
 10
-314.4928630723
 20
4.5030736174
 10
-314.4928221944
 20
4.4971246648
 10
-314.4926733417
 20
4.4905265272
 10
-314.4923889369
 20
4.4833457659
 10
-314.4919576581
 20
4.4754856751
 10
-314.4913887092
 20
4.4670106486
 10
-314.4906846761
 20
4.4582161201
 10
-314.489845023
 20
4.4491873635
  0
LINE
  5
34C
100
AcDbEntity
  8
RACCORDO
100
AcDbLine
 62
253
  6
CONTINUOUS
 10
-314.4877450251
 20
4.4300550173
 11
-314.4882719976
 21
4.4299909468
  0
LINE
  5
34D
100
AcDbEntity
  8
0
100
AcDbLine
 62
7
  6
CONTINUOUS
 10
189.9376464163
 20
45.1420602927
 11
197.4726436647
 21
45.1420602927
  0
LINE
  5
34E
100
AcDbEntity
  8
0
100
AcDbLine
 62
7
  6
CONTINUOUS
 10
-190.0623535837
 20
45.1420602927
 11
-197.5973508321
 21
45.1420602927
  0
LINE
  5
34F
100
AcDbEntity
  8
RACCORDO
100
AcDbLine
 62
253
  6
CONTINUOUS
 10
314.2780980396
 20
4.6410889923
 11
314.2642958626
 21
4.6420602927
  0
LINE
  5
350
100
AcDbEntity
  8
RACCORDO
100
AcDbLine
 62
253
  6
CONTINUOUS
 10
314.3630377741
 20
4.4300550275
 11
314.3635641424
 21
4.4299910861
  0
LINE
  5
351
100
AcDbEntity
  8
0
100
AcDbLine
 62
7
  6
CONTINUOUS
 10
195.4726436647
 20
45.6420602927
 11
197.4726436647
 21
45.6420602927
  0
LINE
  5
352
100
AcDbEntity
  8
0
100
AcDbLine
 62
7
  6
CONTINUOUS
 10
-195.5973508321
 20
45.6420602927
 11
-197.5973508321
 21
45.6420602927
  0
LINE
  5
353
100
AcDbEntity
  8
0
100
AcDbLine
 62
7
  6
CONTINUOUS
 10
-197.5973508321
 20
47.6420602927
 11
-195.5973508321
 21
47.6420602927
  0
LINE
  5
354
100
AcDbEntity
  8
0
100
AcDbLine
 62
7
  6
CONTINUOUS
 10
195.4726436647
 20
47.6420602927
 11
197.4726436647
 21
47.6420602927
  0
LINE
  5
355
100
AcDbEntity
  8
0
100
AcDbLine
 62
253
  6
CONTINUOUS
 10
-190.0623535837
 20
51.1420602927
 11
189.9376464163
 21
51.1420602927
  0
LINE
  5
356
100
AcDbEntity
  8
0
100
AcDbLine
 62
7
  6
CONTINUOUS
 10
311.4376464163
 20
52.6420602927
 11
285.7599768866
 21
52.6420602927
  0
LINE
  5
357
100
AcDbEntity
  8
0
100
AcDbLine
 62
253
  6
CONTINUOUS
 10
195.4726436647
 20
52.6420602927
 11
285.7599768866
 21
52.6420602927
  0
LINE
  5
358
100
AcDbEntity
  8
0
100
AcDbLine
 62
253
  6
CONTINUOUS
 10
-195.5973508321
 20
52.6420602927
 11
-285.884684054
 21
52.6420602927
  0
LINE
  5
359
100
AcDbEntity
  8
0
100
AcDbLine
 62
7
  6
CONTINUOUS
 10
-285.884684054
 20
52.6420602927
 11
-311.5623535837
 21
52.6420602927
  0
LINE
  5
35A
100
AcDbEntity
  8
0
100
AcDbLine
 62
7
  6
CONTINUOUS
 10
-308.5623535837
 20
53.1420602927
 11
-297.0834104679
 21
53.1420602927
  0
LINE
  5
35B
100
AcDbEntity
  8
0
100
AcDbLine
 62
7
  6
CONTINUOUS
 10
-296.5619964499
 20
53.1420602927
 11
-285.884684054
 21
53.1420602927
  0
LINE
  5
35C
100
AcDbEntity
  8
0
100
AcDbLine
 62
7
  6
CONTINUOUS
 10
285.7599768866
 20
53.1420602927
 11
296.4372892826
 21
53.1420602927
  0
LINE
  5
35D
100
AcDbEntity
  8
0
100
AcDbLine
 62
7
  6
CONTINUOUS
 10
296.9587033005
 20
53.1420602927
 11
308.4376464163
 21
53.1420602927
  0
LINE
  5
35E
100
AcDbEntity
  8
0
100
AcDbLine
 62
7
  6
CONTINUOUS
 10
-190.0623535837
 20
55.1420602927
 11
189.9376464163
 21
55.1420602927
  0
LINE
  5
35F
100
AcDbEntity
  8
ASSI
100
AcDbLine
 62
7
  6
CONTINUOUS
 10
296.9587033005
 20
55.6420602927
 11
296.4372892826
 21
55.6420602927
  0
LINE
  5
360
100
AcDbEntity
  8
0
100
AcDbLine
 62
7
  6
CONTINUOUS
 10
195.4726436647
 20
55.6420602927
 11
296.4372892826
 21
55.6420602927
  0
LINE
  5
361
100
AcDbEntity
  8
0
100
AcDbLine
 62
7
  6
CONTINUOUS
 10
-195.5973508321
 20
55.6420602927
 11
-308.5623535837
 21
55.6420602927
  0
LINE
  5
362
100
AcDbEntity
  8
0
100
AcDbLine
 62
7
  6
CONTINUOUS
 10
296.9587033005
 20
55.6420602927
 11
308.4376464163
 21
55.6420602927
  0
LWPOLYLINE
  5
363
100
AcDbEntity
  8
RACCORDO
100
AcDbPolyline
 62
253
  6
CONTINUOUS
 90
10
 70
0
 10
314.1148609524
 20
4.5317700552
 10
314.1057096272
 20
4.5332891087
 10
314.0969191714
 20
4.5370555929
 10
314.0885081004
 20
4.5431104304
 10
314.0804623251
 20
4.5516210553
 10
314.0728291516
 20
4.5624917692
 10
314.0657205285
 20
4.5753358979
 10
314.0591604851
 20
4.5901507211
 10
314.0531574194
 20
4.6069234106
 10
314.0478023015
 20
4.6251983333
  0
LINE
  5
364
100
AcDbEntity
  8
RACCORDO
100
AcDbLine
 62
253
  6
CONTINUOUS
 10
314.2916320958
 20
4.6381939651
 11
314.2780980396
 21
4.6410889923
  0
LINE
  5
365
100
AcDbEntity
  8
RACCORDO
100
AcDbLine
 62
253
  6
CONTINUOUS
 10
314.114856559
 20
6.9729295705
 11
314.1153621721
 21
6.9730946392
  0
LINE
  5
366
100
AcDbEntity
  8
RACCORDO
100
AcDbLine
 62
253
  6
CONTINUOUS
 10
314.1148608859
 20
3.3111896019
 11
314.1153655261
 21
3.3110248492
  0
LINE
  5
367
100
AcDbEntity
  8
RACCORDO
100
AcDbLine
 62
253
  6
CONTINUOUS
 10
314.3046351193
 20
4.6334314496
 11
314.2916320958
 21
4.6381939651
  0
LWPOLYLINE
  5
368
100
AcDbEntity
  8
RACCORDO
100
AcDbPolyline
 62
253
  6
CONTINUOUS
 90
22
 70
0
 10
182.8273561788
 20
4.4300550156
 10
182.8268434181
 20
4.4397201417
 10
182.825532858
 20
4.4490514682
 10
182.8234239193
 20
4.4580621928
 10
182.8204136121
 20
4.466884813
 10
182.8166031819
 20
4.4754209399
 10
182.8122826975
 20
4.483336161
 10
182.8074161738
 20
4.4905550154
 10
182.8020021403
 20
4.4971859014
 10
182.7963658842
 20
4.503157243
 10
182.7905201431
 20
4.5084225288
 10
182.7844148342
 20
4.5130421518
 10
182.7782819874
 20
4.5170888358
 10
182.7721413802
 20
4.5205442582
 10
182.7659488152
 20
4.523425053
 10
182.7598468611
 20
4.5258460112
 10
182.7538619918
 20
4.5278000836
 10
182.7479552926
 20
4.5292845741
 10
182.7421767322
 20
4.530416866
 10
182.7365419858
 20
4.5312324068
 10
182.7310306837
 20
4.5316852074
 10
182.7256411393
 20
4.5317700552
  0
LWPOLYLINE
  5
369
100
AcDbEntity
  8
RACCORDO
100
AcDbPolyline
 62
253
  6
CONTINUOUS
 90
22
 70
0
 10
184.0479366538
 20
5.8540655697
 10
184.0484494145
 20
5.8444004436
 10
184.0497599746
 20
5.8350691171
 10
184.0518689133
 20
5.8260583925
 10
184.0548792205
 20
5.8172357723
 10
184.0586896507
 20
5.8086996454
 10
184.0630101351
 20
5.8007844243
 10
184.0678766588
 20
5.7935655699
 10
184.0732906923
 20
5.7869346839
 10
184.0789269484
 20
5.7809633423
 10
184.0847726896
 20
5.7756980565
 10
184.0908779984
 20
5.7710784335
 10
184.0970108452
 20
5.7670317495
 10
184.1031514524
 20
5.7635763271
 10
184.1093440174
 20
5.7606955323
 10
184.1154459715
 20
5.7582745741
 10
184.1214308408
 20
5.7563205017
 10
184.12733754
 20
5.7548360112
 10
184.1331161004
 20
5.7537037193
 10
184.1387508468
 20
5.7528881785
 10
184.1442621489
 20
5.7524353779
 10
184.1496516934
 20
5.7523505301
  0
LWPOLYLINE
  5
36A
100
AcDbEntity
  8
RACCORDO
100
AcDbPolyline
 62
253
  6
CONTINUOUS
 90
16
 70
0
 10
183.1325017067
 20
3.0060473276
 10
183.132288554
 20
3.0183750009
 10
183.1321648291
 20
3.0310982326
 10
183.1321325979
 20
3.0440046342
 10
183.1321923987
 20
3.0568787594
 10
183.1323432335
 20
3.0695057011
 10
183.1325825848
 20
3.081674678
 10
183.1329064577
 20
3.093182554
 10
183.1333094462
 20
3.1038372284
 10
183.1337848236
 20
3.1134608431
 10
183.1343246549
 20
3.1218927514
 10
183.1349199293
 20
3.1289921999
 10
183.1355607103
 20
3.1346406774
 10
183.1362363021
 20
3.1387438944
 10
183.1369354273
 20
3.1412333557
 10
183.137646416
 20
3.1420675051
  0
LWPOLYLINE
  5
36B
100
AcDbEntity
  8
RACCORDO
100
AcDbPolyline
 62
253
  6
CONTINUOUS
 90
16
 70
0
 10
183.7427911259
 20
7.2780732577
 10
183.7430042787
 20
7.2657455844
 10
183.7431280035
 20
7.2530223527
 10
183.7431602347
 20
7.2401159511
 10
183.743100434
 20
7.2272418259
 10
183.7429495992
 20
7.2146148842
 10
183.7427102478
 20
7.2024459073
 10
183.7423863749
 20
7.1909380313
 10
183.7419833864
 20
7.1802833569
 10
183.7415080091
 20
7.1706597422
 10
183.7409681777
 20
7.1622278339
 10
183.7403729033
 20
7.1551283855
 10
183.7397321223
 20
7.1494799079
 10
183.7390565306
 20
7.1453766909
 10
183.7383574053
 20
7.1428872296
 10
183.7376464166
 20
7.1420530802
  0
LWPOLYLINE
  5
36C
100
AcDbEntity
  8
RACCORDO
100
AcDbPolyline
 62
253
  6
CONTINUOUS
 90
13
 70
0
 10
181.6067770218
 20
4.5317704949
 10
181.6066324439
 20
4.5457007799
 10
181.6070904099
 20
4.5595605202
 10
181.6081420224
 20
4.5730804457
 10
181.6097668501
 20
4.5859978885
 10
181.6119333257
 20
4.5980618859
 10
181.6145993583
 20
4.609038056
 10
181.6177131516
 20
4.6187131515
 10
181.6212142101
 20
4.6268992027
 10
181.6250345143
 20
4.6334371692
 10
181.6290998426
 20
4.6382000299
 10
181.6333312127
 20
4.6410952512
 10
181.6376464166
 20
4.642066584
  0
LWPOLYLINE
  5
36D
100
AcDbEntity
  8
RACCORDO
100
AcDbPolyline
 62
253
  6
CONTINUOUS
 90
13
 70
0
 10
185.2685158108
 20
5.7523500905
 10
185.2686603887
 20
5.7384198054
 10
185.2682024227
 20
5.7245600651
 10
185.2671508103
 20
5.7110401396
 10
185.2655259825
 20
5.6981226968
 10
185.2633595069
 20
5.6860586994
 10
185.2606934743
 20
5.6750825293
 10
185.257579681
 20
5.6654074338
 10
185.2540786225
 20
5.6572213826
 10
185.2502583183
 20
5.6506834161
 10
185.24619299
 20
5.6459205554
 10
185.24196162
 20
5.6430253341
 10
185.237646416
 20
5.6420540013
  0
LWPOLYLINE
  5
36E
100
AcDbEntity
  8
RACCORDO
100
AcDbPolyline
 62
253
  6
CONTINUOUS
 90
13
 70
0
 10
182.7256411416
 20
4.5317700572
 10
182.7255850681
 20
4.5457000136
 10
182.7257632979
 20
4.5595592651
 10
182.7261723686
 20
4.5730785823
 10
182.7268043337
 20
4.5859953397
 10
182.7276469166
 20
4.5980586168
 10
182.7286837494
 20
4.6090340732
 10
182.7298946906
 20
4.6187085
 10
182.7312562165
 20
4.6268939622
 10
182.7327418781
 20
4.6334314496
 10
182.7343228152
 20
4.6381939651
 10
182.7359683164
 20
4.6410889923
 10
182.7376464163
 20
4.6420602927
  0
LWPOLYLINE
  5
36F
100
AcDbEntity
  8
RACCORDO
100
AcDbPolyline
 62
253
  6
CONTINUOUS
 90
13
 70
0
 10
184.1496516911
 20
5.7523505281
 10
184.1497077645
 20
5.7384205717
 10
184.1495295347
 20
5.7245613202
 10
184.149120464
 20
5.711042003
 10
184.1484884989
 20
5.6981252456
 10
184.147645916
 20
5.6860619685
 10
184.1466090832
 20
5.6750865121
 10
184.145398142
 20
5.6654120853
 10
184.1440366161
 20
5.6572266231
 10
184.1425509545
 20
5.6506891357
 10
184.1409700174
 20
5.6459266202
 10
184.1393245162
 20
5.643031593
 10
184.1376464163
 20
5.6420602927
  0
LINE
  5
370
100
AcDbEntity
  8
RACCORDO
100
AcDbLine
 62
253
  6
CONTINUOUS
 10
181.3016305852
 20
4.8369151739
 11
181.3016305852
 21
5.4472054114
  0
LINE
  5
371
100
AcDbEntity
  8
RACCORDO
100
AcDbLine
 62
7
  6
CONTINUOUS
 10
181.4376464163
 20
4.8420602927
 11
181.4376464163
 21
5.4420602927
  0
LINE
  5
372
100
AcDbEntity
  8
RACCORDO
100
AcDbLine
 62
7
  6
CONTINUOUS
 10
182.9376464163
 20
3.3420602927
 11
182.9376464163
 21
4.4420602927
  0
LINE
  5
373
100
AcDbEntity
  8
RACCORDO
100
AcDbLine
 62
7
  6
CONTINUOUS
 10
182.9376464163
 20
5.8420602927
 11
182.9376464163
 21
6.9420602927
  0
LINE
  5
374
100
AcDbEntity
  8
RACCORDO
100
AcDbLine
 62
7
  6
CONTINUOUS
 10
183.9376464163
 20
6.9420602927
 11
183.9376464163
 21
5.8420602927
  0
LINE
  5
375
100
AcDbEntity
  8
RACCORDO
100
AcDbLine
 62
7
  6
CONTINUOUS
 10
183.9376464163
 20
4.4420602927
 11
183.9376464163
 21
3.3420602927
  0
LINE
  5
376
100
AcDbEntity
  8
RACCORDO
100
AcDbLine
 62
7
  6
CONTINUOUS
 10
185.4376464163
 20
5.4420602927
 11
185.4376464163
 21
4.8420602927
  0
LINE
  5
377
100
AcDbEntity
  8
RACCORDO
100
AcDbLine
 62
253
  6
CONTINUOUS
 10
185.5736622474
 20
5.4472054114
 11
185.5736622474
 21
4.8369151739
  0
LINE
  5
378
100
AcDbEntity
  8
0
100
AcDbLine
 62
7
  6
CONTINUOUS
 10
189.9376464163
 20
-44.8579397073
 11
189.9376464163
 21
55.1420602927
  0
LINE
  5
379
100
AcDbEntity
  8
0
100
AcDbLine
 62
253
  6
CONTINUOUS
 10
191.0464814247
 20
-34.8579397073
 11
191.0464814247
 21
45.1420602927
  0
LINE
  5
37A
100
AcDbEntity
  8
0
100
AcDbLine
 62
253
  6
CONTINUOUS
 10
192.0017391688
 20
-34.8579397073
 11
192.0017391688
 21
45.1420602927
  0
LINE
  5
37B
100
AcDbEntity
  8
RACCORDO
100
AcDbLine
 62
253
  6
CONTINUOUS
 10
182.8273561788
 20
5.8540655697
 11
182.8273561803
 21
6.705706919
  0
LINE
  5
37C
100
AcDbEntity
  8
RACCORDO
100
AcDbLine
 62
253
  6
CONTINUOUS
 10
182.827280059
 20
4.3719888454
 11
182.8273561788
 21
4.4300550156
  0
LINE
  5
37D
100
AcDbEntity
  8
RACCORDO
100
AcDbLine
 62
253
  6
CONTINUOUS
 10
184.0480127736
 20
5.9121317399
 11
184.0479366538
 21
5.8540655697
  0
LINE
  5
37E
100
AcDbEntity
  8
RACCORDO
100
AcDbLine
 62
253
  6
CONTINUOUS
 10
184.0479366538
 20
4.4300550156
 11
184.0479366523
 21
3.5784136663
  0
LWPOLYLINE
  5
37F
100
AcDbEntity
  8
RACCORDO
100
AcDbPolyline
 62
253
  6
CONTINUOUS
 90
3
 70
0
 10
182.8273561803
 20
6.705706919
 10
182.8275359499
 20
6.7924642234
 10
182.8273561788
 20
6.9729310051
  0
LWPOLYLINE
  5
380
100
AcDbEntity
  8
RACCORDO
100
AcDbPolyline
 62
253
  6
CONTINUOUS
 90
3
 70
0
 10
184.0479366523
 20
3.5784136663
 10
184.0477568827
 20
3.4916563619
 10
184.0479366538
 20
3.3111895803
  0
LINE
  5
381
100
AcDbEntity
  8
RACCORDO
100
AcDbLine
 62
253
  6
CONTINUOUS
 10
182.8273561788
 20
3.3111895803
 11
182.827280059
 21
4.3719888454
  0
LINE
  5
382
100
AcDbEntity
  8
RACCORDO
100
AcDbLine
 62
253
  6
CONTINUOUS
 10
184.0479366538
 20
6.9729310051
 11
184.0480127736
 21
5.9121317399
  0
LWPOLYLINE
  5
383
100
AcDbEntity
  8
RACCORDO
100
AcDbPolyline
 62
253
  6
CONTINUOUS
 90
13
 70
0
 10
182.7256411395
 20
5.7523505299
 10
182.7255850691
 20
5.7384205957
 10
182.7257633014
 20
5.7245613684
 10
182.7261723742
 20
5.7110420763
 10
182.7268043407
 20
5.6981253441
 10
182.7276469244
 20
5.6860620913
 10
182.7286837574
 20
5.6750866578
 10
182.7298946983
 20
5.6654122514
 10
182.7312562234
 20
5.6572268064
 10
182.7327418838
 20
5.6506893326
 10
182.7343228192
 20
5.6459268266
 10
182.7359683185
 20
5.6430318044
 10
182.7376464163
 20
5.6420605045
  0
LWPOLYLINE
  5
384
100
AcDbEntity
  8
RACCORDO
100
AcDbPolyline
 62
253
  6
CONTINUOUS
 90
13
 70
0
 10
184.1496516931
 20
4.5317700554
 10
184.1497077635
 20
4.5456999896
 10
184.1495295312
 20
4.5595592169
 10
184.1491204585
 20
4.573078509
 10
184.148488492
 20
4.5859952412
 10
184.1476459082
 20
4.598058494
 10
184.1466090752
 20
4.6090339275
 10
184.1453981343
 20
4.6187083339
 10
184.1440366092
 20
4.6268937789
 10
184.1425509488
 20
4.6334312527
 10
184.1409700134
 20
4.6381937587
 10
184.1393245141
 20
4.6410887809
 10
184.1376464163
 20
4.6420600808
  0
LWPOLYLINE
  5
385
100
AcDbEntity
  8
RACCORDO
100
AcDbPolyline
 62
253
  6
CONTINUOUS
 90
13
 70
0
 10
181.6067757206
 20
5.7523505246
 10
181.6066315318
 20
5.7384205712
 10
181.6070898368
 20
5.7245613229
 10
181.6081417325
 20
5.7110420087
 10
181.6097667849
 20
5.6981252539
 10
181.6119334257
 20
5.6860619788
 10
181.614599566
 20
5.6750865238
 10
181.6177134134
 20
5.6654120975
 10
181.6212144786
 20
5.6572266348
 10
181.62503475
 20
5.650689146
 10
181.6291000154
 20
5.6459266281
 10
181.6333313031
 20
5.6430315974
 10
181.6376464163
 20
5.6420602927
  0
LWPOLYLINE
  5
386
100
AcDbEntity
  8
RACCORDO
100
AcDbPolyline
 62
253
  6
CONTINUOUS
 90
13
 70
0
 10
185.268517112
 20
4.5317700607
 10
185.2686613008
 20
4.5457000141
 10
185.2682029958
 20
4.5595592624
 10
185.2671511001
 20
4.5730785766
 10
185.2655260477
 20
4.5859953314
 10
185.2633594069
 20
4.5980586065
 10
185.2606932666
 20
4.6090340615
 10
185.2575794192
 20
4.6187084878
 10
185.2540783541
 20
4.6268939505
 10
185.2502580826
 20
4.6334314393
 10
185.2461928172
 20
4.6381939572
 10
185.2419615295
 20
4.6410889879
 10
185.2376464163
 20
4.6420602927
  0
LWPOLYLINE
  5
387
100
AcDbEntity
  8
RACCORDO
100
AcDbPolyline
 62
253
  6
CONTINUOUS
 90
16
 70
0
 10
183.132501299
 20
7.2780761135
 10
183.1322881504
 20
7.2657484924
 10
183.1321644347
 20
7.2530255004
 10
183.1321322167
 20
7.2401194921
 10
183.1321920344
 20
7.2272458771
 10
183.1323428891
 20
7.214619524
 10
183.1325822631
 20
7.2024511746
 10
183.1329061608
 20
7.1909439263
 10
183.1333091764
 20
7.1802898423
 10
183.1337845833
 20
7.170666746
 10
183.1343244465
 20
7.1622352529
 10
183.1349197554
 20
7.15513609
 10
183.1355605743
 20
7.1494877467
 10
183.1362362074
 20
7.1453844974
 10
183.1369353779
 20
7.142894828
 10
183.1376464163
 20
7.1420602927
  0
LWPOLYLINE
  5
388
100
AcDbEntity
  8
RACCORDO
100
AcDbPolyline
 62
253
  6
CONTINUOUS
 90
16
 70
0
 10
183.7427915336
 20
3.0060444718
 10
183.7430046822
 20
3.0183720929
 10
183.7431283979
 20
3.0310950849
 10
183.7431606159
 20
3.0440010932
 10
183.7431007982
 20
3.0568747082
 10
183.7429499435
 20
3.0695010613
 10
183.7427105695
 20
3.0816694107
 10
183.7423866718
 20
3.093176659
 10
183.7419836562
 20
3.103830743
 10
183.7415082494
 20
3.1134538393
 10
183.7409683861
 20
3.1218853324
 10
183.7403730772
 20
3.1289844953
 10
183.7397322583
 20
3.1346328386
 10
183.7390566252
 20
3.1387360879
 10
183.7383574547
 20
3.1412257573
 10
183.7376464163
 20
3.1420602927
  0
LWPOLYLINE
  5
389
100
AcDbEntity
  8
RACCORDO
100
AcDbPolyline
 62
253
  6
CONTINUOUS
 90
19
 70
0
 10
181.3016305852
 20
5.4472054114
 10
181.3027703125
 20
5.4733048695
 10
181.3060661374
 20
5.4989900539
 10
181.3115023904
 20
5.5241910652
 10
181.3190884691
 20
5.5489252189
 10
181.3287833898
 20
5.5730369857
 10
181.3404859923
 20
5.5962030543
 10
181.3541811735
 20
5.618382114
 10
181.3698308936
 20
5.6394959065
 10
181.3872813222
 20
5.6591825781
 10
181.4065601119
 20
5.6774394615
 10
181.4275724012
 20
5.6941839012
 10
181.449962688
 20
5.7089693843
 10
181.4737283939
 20
5.7217871345
 10
181.4987999917
 20
5.7326301549
 10
181.5247101739
 20
5.7411096397
 10
181.5512833008
 20
5.7471309224
 10
181.578643211
 20
5.7508638118
 10
181.6067757039
 20
5.7523505301
  0
LWPOLYLINE
  5
38A
100
AcDbEntity
  8
RACCORDO
100
AcDbPolyline
 62
253
  6
CONTINUOUS
 90
19
 70
0
 10
185.5736622474
 20
4.8369151739
 10
185.5725225201
 20
4.8108157159
 10
185.5692266952
 20
4.7851305314
 10
185.5637904422
 20
4.7599295201
 10
185.5562043635
 20
4.7351953664
 10
185.5465094428
 20
4.7110835996
 10
185.5348068403
 20
4.687917531
 10
185.5211116591
 20
4.6657384713
 10
185.505461939
 20
4.6446246788
 10
185.4880115104
 20
4.6249380072
 10
185.4687327208
 20
4.6066811238
 10
185.4477204314
 20
4.5899366841
 10
185.4253301446
 20
4.575151201
 10
185.4015644387
 20
4.5623334508
 10
185.3764928409
 20
4.5514904304
 10
185.3505826587
 20
4.5430109457
 10
185.3240095318
 20
4.5369896629
 10
185.2966496216
 20
4.5332567735
 10
185.2685171287
 20
4.5317700552
  0
LWPOLYLINE
  5
38B
100
AcDbEntity
  8
RACCORDO
100
AcDbPolyline
 62
253
  6
CONTINUOUS
 90
19
 70
0
 10
182.8273561788
 20
6.9729310051
 10
182.8289575122
 20
7.0015719401
 10
182.8327874699
 20
7.0292701116
 10
182.8388824108
 20
7.056011183
 10
182.8474008886
 20
7.0818590004
 10
182.8582448382
 20
7.1066986733
 10
182.8710376638
 20
7.1302438843
 10
182.8857676174
 20
7.1524775756
 10
182.9024315595
 20
7.1733459027
 10
182.9206196826
 20
7.1925174828
 10
182.9402639673
 20
7.2099130113
 10
182.9613511333
 20
7.2255436215
 10
182.9835189003
 20
7.239230467
 10
183.0066992287
 20
7.2509314368
 10
183.0308416455
 20
7.2606342408
 10
183.0555915675
 20
7.2682241075
 10
183.080782624
 20
7.2736563579
 10
183.106442506
 20
7.2769453979
 10
183.1325012976
 20
7.2780761238
  0
LWPOLYLINE
  5
38C
100
AcDbEntity
  8
RACCORDO
100
AcDbPolyline
 62
253
  6
CONTINUOUS
 90
19
 70
0
 10
184.0479366538
 20
3.3111895803
 10
184.0463353204
 20
3.2825486452
 10
184.0425053627
 20
3.2548504737
 10
184.0364104218
 20
3.2281094023
 10
184.027891944
 20
3.2022615849
 10
184.0170479944
 20
3.177421912
 10
184.0042551688
 20
3.153876701
 10
183.9895252152
 20
3.1316430097
 10
183.9728612731
 20
3.1107746826
 10
183.95467315
 20
3.0916031025
 10
183.9350288653
 20
3.074207574
 10
183.9139416993
 20
3.0585769638
 10
183.8917739323
 20
3.0448901183
 10
183.8685936039
 20
3.0331891485
 10
183.8444511871
 20
3.0234863445
 10
183.8197012651
 20
3.0158964778
 10
183.7945102086
 20
3.0104642274
 10
183.7688503266
 20
3.0071751874
 10
183.742791535
 20
3.0060444615
  0
LINE
  5
38D
100
AcDbEntity
  8
0
100
AcDbLine
 62
253
  6
CONTINUOUS
 10
194.4376464163
 20
-34.8579397073
 11
194.4376464163
 21
45.1420602927
  0
LINE
  5
38E
100
AcDbEntity
  8
0
100
AcDbLine
 62
7
  6
CONTINUOUS
 10
195.4726436647
 20
47.6420602927
 11
195.4726436647
 21
45.6420602927
  0
LINE
  5
38F
100
AcDbEntity
  8
0
100
AcDbLine
 62
7
  6
CONTINUOUS
 10
195.4726436647
 20
-37.3579397073
 11
195.4726436647
 21
-55.5579397073
  0
LINE
  5
390
100
AcDbEntity
  8
0
100
AcDbLine
 62
7
  6
CONTINUOUS
 10
195.4726436647
 20
47.6420602927
 11
195.4726436647
 21
55.6420602927
  0
LINE
  5
391
100
AcDbEntity
  8
0
100
AcDbLine
 62
7
  6
CONTINUOUS
 10
197.4726436647
 20
-37.3579397073
 11
197.4726436647
 21
-34.8579397073
  0
LINE
  5
392
100
AcDbEntity
  8
0
100
AcDbLine
 62
7
  6
CONTINUOUS
 10
197.4726436647
 20
45.1420602927
 11
197.4726436647
 21
47.6420602927
  0
LWPOLYLINE
  5
393
100
AcDbEntity
  8
RACCORDO
100
AcDbPolyline
 62
253
  6
CONTINUOUS
 90
9
 70
0
 10
314.031218458
 20
3.0060444615
 10
314.0301517067
 20
3.0071565026
 10
314.0298225539
 20
3.0104351392
 10
314.0302318623
 20
3.015866491
 10
314.0313830159
 20
3.023468869
 10
314.0332685291
 20
3.033196342
 10
314.0358701441
 20
3.0449260311
 10
314.0391858445
 20
3.0586410971
 10
314.0432022437
 20
3.0743027753
  0
LWPOLYLINE
  5
394
100
AcDbEntity
  8
RACCORDO
100
AcDbPolyline
 62
7
  6
CONTINUOUS
 90
7
 70
0
 10
314.0629819861
 20
4.6259069811
 10
314.0641473027
 20
4.6246074497
 10
314.0643200328
 20
4.6243975924
 10
314.0635132139
 20
4.6256832134
 10
314.0619530865
 20
4.6285649354
 10
314.0597859154
 20
4.6332206166
 10
314.0571759481
 20
4.6397582489
  0
LINE
  5
395
100
AcDbEntity
  8
0
100
AcDbLine
 62
7
  6
CONTINUOUS
 10
241.7599768866
 20
-45.3579397073
 11
241.7599768866
 21
-55.5579397073
  0
LWPOLYLINE
  5
396
100
AcDbEntity
  8
RACCORDO
100
AcDbPolyline
 62
7
  6
CONTINUOUS
 90
11
 70
0
 10
314.3546745414
 20
4.5871969178
 10
314.3495271957
 20
4.5958858167
 10
314.3435812083
 20
4.6040277298
 10
314.3367256876
 20
4.6117053229
 10
314.3288926055
 20
4.6188627686
 10
314.3201128581
 20
4.6253348902
 10
314.3104025099
 20
4.6309808651
 10
314.2996711479
 20
4.6356935752
 10
314.2879408429
 20
4.6392665132
 10
314.2753784945
 20
4.6414530828
 10
314.264295491
 20
4.6420600775
  0
LINE
  5
397
100
AcDbEntity
  8
RACCORDO
100
AcDbLine
 62
7
  6
CONTINUOUS
 10
314.3662407546
 20
5.8293401396
 11
314.3647516254
 21
5.8438946703
  0
LINE
  5
398
100
AcDbEntity
  8
RACCORDO
100
AcDbLine
 62
7
  6
CONTINUOUS
 10
314.3673443226
 20
5.8165682937
 11
314.3661416118
 21
5.8303892305
  0
LINE
  5
399
100
AcDbEntity
  8
RACCORDO
100
AcDbLine
 62
7
  6
CONTINUOUS
 10
314.3681979787
 20
5.8044752634
 11
314.3672731373
 21
5.8174669571
  0
LINE
  5
39A
100
AcDbEntity
  8
RACCORDO
100
AcDbLine
 62
7
  6
CONTINUOUS
 10
314.0386505331
 20
5.4340329864
 11
314.0379191284
 21
5.4475753837
  0
LINE
  5
39B
100
AcDbEntity
  8
RACCORDO
100
AcDbLine
 62
7
  6
CONTINUOUS
 10
314.3688073714
 20
5.7931341489
 11
314.3681506377
 21
5.8052305701
  0
LINE
  5
39C
100
AcDbEntity
  8
RACCORDO
100
AcDbLine
 62
7
  6
CONTINUOUS
 10
314.0406207535
 20
5.3939462651
 11
314.0385237388
 21
5.4364253957
  0
LINE
  5
39D
100
AcDbEntity
  8
RACCORDO
100
AcDbLine
 62
7
  6
CONTINUOUS
 10
314.0379144302
 20
5.4475751242
 11
314.0373053444
 21
5.4609346809
  0
LINE
  5
39E
100
AcDbEntity
  8
RACCORDO
100
AcDbLine
 62
7
  6
CONTINUOUS
 10
314.0423004857
 20
5.3538464511
 11
314.0405113112
 21
5.3963392464
  0
LINE
  5
39F
100
AcDbEntity
  8
RACCORDO
100
AcDbLine
 62
253
  6
CONTINUOUS
 10
314.031218458
 20
5.4472054114
 11
314.0301556251
 21
5.4733048695
  0
LINE
  5
3A0
100
AcDbEntity
  8
RACCORDO
100
AcDbLine
 62
7
  6
CONTINUOUS
 10
314.0436896247
 20
5.313735905
 11
314.0422083901
 21
5.3562400096
  0
LWPOLYLINE
  5
3A1
100
AcDbEntity
  8
RACCORDO
100
AcDbPolyline
 62
253
  6
CONTINUOUS
 90
13
 70
0
 10
314.3630378693
 20
5.7523505299
 10
314.3634990491
 20
5.7384205957
 10
314.362033115
 20
5.7245613684
 10
314.3586685443
 20
5.7110420763
 10
314.3534706967
 20
5.6981253441
 10
314.3465405453
 20
5.6860620913
 10
314.3380127147
 20
5.6750866578
 10
314.3280528659
 20
5.6654122514
 10
314.316854478
 20
5.6572268064
 10
314.3046350902
 20
5.6506893326
 10
314.2916320754
 20
5.6459268266
 10
314.278098029
 20
5.6430318044
 10
314.2642958626
 20
5.6420605045
  0
LWPOLYLINE
  5
3A2
100
AcDbEntity
  8
RACCORDO
100
AcDbPolyline
 62
253
  6
CONTINUOUS
 90
10
 70
0
 10
314.1148609012
 20
5.7523505246
 10
314.1153025536
 20
5.7384205712
 10
314.1138987587
 20
5.7245613229
 10
314.1106767868
 20
5.7110420087
 10
314.1056992275
 20
5.6981252539
 10
314.0990627747
 20
5.6860619788
 10
314.0908963479
 20
5.6750865238
 10
314.0813585874
 20
5.6654120975
 10
314.0706347733
 20
5.6572266348
 10
314.0599689062
 20
5.6512677659
  0
LINE
  5
3A3
100
AcDbEntity
  8
RACCORDO
100
AcDbLine
 62
7
  6
CONTINUOUS
 10
314.0447881132
 20
5.2736165883
 11
314.0436148751
 21
5.3161299944
  0
LINE
  5
3A4
100
AcDbEntity
  8
RACCORDO
100
AcDbLine
 62
7
  6
CONTINUOUS
 10
314.0373374651
 20
5.4596894897
 11
314.0367520842
 21
5.482382363
  0
LINE
  5
3A5
100
AcDbEntity
  8
RACCORDO
100
AcDbLine
 62
7
  6
CONTINUOUS
 10
314.0455959022
 20
5.2334903224
 11
314.0447307114
 21
5.276011143
  0
LINE
  5
3A6
100
AcDbEntity
  8
RACCORDO
100
AcDbLine
 62
7
  6
CONTINUOUS
 10
314.0461129484
 20
5.1933591391
 11
314.0455558488
 21
5.2358852922
  0
LWPOLYLINE
  5
3A7
100
AcDbEntity
  8
RACCORDO
100
AcDbPolyline
 62
253
  6
CONTINUOUS
 90
7
 70
0
 10
314.0301556251
 20
5.4733048695
 10
314.0298284191
 20
5.4989900539
 10
314.0302376955
 20
5.5241910652
 10
314.0313859261
 20
5.5489252189
 10
314.0332665578
 20
5.5730369857
 10
314.0358640888
 20
5.5962030543
 10
314.0391745179
 20
5.618382114
  0
LINE
  5
3A8
100
AcDbEntity
  8
RACCORDO
100
AcDbLine
 62
7
  6
CONTINUOUS
 10
314.0463392334
 20
5.1532254631
 11
314.0460902462
 21
5.1957544992
  0
LWPOLYLINE
  5
3A9
100
AcDbEntity
  8
RACCORDO
100
AcDbPolyline
 62
253
  6
CONTINUOUS
 90
10
 70
0
 10
314.0396396093
 20
5.1420602927
 10
314.0395358202
 20
5.1759707081
 10
314.0392243286
 20
5.20986387
 10
314.0387048994
 20
5.2437568134
 10
314.0379760485
 20
5.2776977636
 10
314.0370383169
 20
5.311672486
 10
314.0358942838
 20
5.3456038174
 10
314.0345441995
 20
5.3794766896
 10
314.0329859736
 20
5.4133385519
 10
314.031218458
 20
5.4472054114
  0
LINE
  5
3AA
100
AcDbEntity
  8
0
100
AcDbLine
 62
7
  6
CONTINUOUS
 10
285.4376464163
 20
-45.8579397073
 11
285.4376464163
 21
-55.5579397073
  0
LINE
  5
3AB
100
AcDbEntity
  8
0
100
AcDbLine
 62
7
  6
CONTINUOUS
 10
285.7599768866
 20
-9.3579397073
 11
285.7599768866
 21
-42.3579397073
  0
LINE
  5
3AC
100
AcDbEntity
  8
0
100
AcDbLine
 62
253
  6
CONTINUOUS
 10
285.7599768866
 20
-9.3579397073
 11
285.7599768866
 21
52.6420602927
  0
LINE
  5
3AD
100
AcDbEntity
  8
0
100
AcDbLine
 62
7
  6
CONTINUOUS
 10
285.7599768866
 20
52.6420602927
 11
285.7599768866
 21
55.6420602927
  0
LINE
  5
3AE
100
AcDbEntity
  8
0
100
AcDbLine
 62
7
  6
CONTINUOUS
 10
287.9376464163
 20
-45.8579397073
 11
287.9376464163
 21
-55.5579397073
  0
LINE
  5
3AF
100
AcDbEntity
  8
0
100
AcDbLine
 62
7
  6
CONTINUOUS
 10
288.4376464163
 20
-45.3579397073
 11
288.4376464163
 21
-42.8579397073
  0
LINE
  5
3B0
100
AcDbEntity
  8
0
100
AcDbLine
 62
253
  6
CONTINUOUS
 10
291.4168311361
 20
-42.3579397073
 11
291.4168311361
 21
52.6420602927
  0
LINE
  5
3B1
100
AcDbEntity
  8
0
100
AcDbLine
 62
7
  6
CONTINUOUS
 10
296.4372892826
 20
55.6420602927
 11
296.4372892826
 21
53.1420602927
  0
LINE
  5
3B2
100
AcDbEntity
  8
0
100
AcDbLine
 62
7
  6
CONTINUOUS
 10
296.9587033005
 20
55.6420602927
 11
296.9587033005
 21
53.1420602927
  0
LINE
  5
3B3
100
AcDbEntity
  8
0
100
AcDbLine
 62
7
  6
CONTINUOUS
 10
297.7100814887
 20
55.6420602927
 11
297.7100814887
 21
53.1420602927
  0
LINE
  5
3B4
100
AcDbEntity
  8
0
100
AcDbLine
 62
7
  6
CONTINUOUS
 10
299.4376464163
 20
53.1420602927
 11
299.4376464163
 21
52.6420602927
  0
LINE
  5
3B5
100
AcDbEntity
  8
0
100
AcDbLine
 62
7
  6
CONTINUOUS
 10
299.4376464163
 20
-42.8579397073
 11
299.4376464163
 21
-42.3579397073
  0
LINE
  5
3B6
100
AcDbEntity
  8
0
100
AcDbLine
 62
253
  6
CONTINUOUS
 10
307.4376464163
 20
53.1420602927
 11
307.4376464163
 21
52.6420602927
  0
LINE
  5
3B7
100
AcDbEntity
  8
0
100
AcDbLine
 62
253
  6
CONTINUOUS
 10
307.4376464163
 20
-42.8579397073
 11
307.4376464163
 21
-42.3579397073
  0
LINE
  5
3B8
100
AcDbEntity
  8
0
100
AcDbLine
 62
7
  6
CONTINUOUS
 10
308.3873938846
 20
53.1420602927
 11
308.3873938846
 21
55.6420602927
  0
LINE
  5
3B9
100
AcDbEntity
  8
0
100
AcDbLine
 62
253
  6
CONTINUOUS
 10
308.4376464163
 20
55.6420602927
 11
308.4376464163
 21
53.1420602927
  0
LINE
  5
3BA
100
AcDbEntity
  8
0
100
AcDbLine
 62
7
  6
CONTINUOUS
 10
308.4376464163
 20
-45.3579397073
 11
308.4376464163
 21
-42.8579397073
  0
LINE
  5
3BB
100
AcDbEntity
  8
0
100
AcDbLine
 62
253
  6
CONTINUOUS
 10
309.0945006658
 20
-42.3579397073
 11
309.0945006658
 21
52.6420602927
  0
LINE
  5
3BC
100
AcDbEntity
  8
0
100
AcDbLine
 62
7
  6
CONTINUOUS
 10
311.4376464163
 20
-42.3579397073
 11
311.4376464163
 21
52.6420602927
  0
LINE
  5
3BD
100
AcDbEntity
  8
0
100
AcDbLine
 62
253
  6
CONTINUOUS
 10
311.7469081613
 20
0.1745435141
 11
311.7469081613
 21
10.1095770712
  0
LINE
  5
3BE
100
AcDbEntity
  8
RACCORDO
100
AcDbLine
 62
7
  6
CONTINUOUS
 10
314.0463338861
 20
5.1284993913
 11
314.0463338861
 21
5.155621194
  0
LWPOLYLINE
  5
3BF
100
AcDbEntity
  8
RACCORDO
100
AcDbPolyline
 62
7
  6
CONTINUOUS
 90
10
 70
0
 10
314.0367520842
 20
5.482382363
 10
314.0368105173
 20
5.5044940111
 10
314.0374906878
 20
5.5257787191
 10
314.0387452381
 20
5.5459580996
 10
314.0405089384
 20
5.5648726295
 10
314.042718007
 20
5.5823688295
 10
314.0452797266
 20
5.5982205445
 10
314.0480968563
 20
5.6123511963
 10
314.0510678527
 20
5.6247073252
 10
314.0540547399
 20
5.6351528844
  0
LINE
  5
3C0
100
AcDbEntity
  8
RACCORDO
100
AcDbLine
 62
7
  6
CONTINUOUS
 10
314.0460902462
 20
5.0883660861
 11
314.0463392334
 21
5.1308951222
  0
LINE
  5
3C1
100
AcDbEntity
  8
RACCORDO
100
AcDbLine
 62
7
  6
CONTINUOUS
 10
314.0455558488
 20
5.0482352931
 11
314.0461129484
 21
5.0907614462
  0
LWPOLYLINE
  5
3C2
100
AcDbEntity
  8
RACCORDO
100
AcDbPolyline
 62
7
  6
CONTINUOUS
 90
6
 70
0
 10
314.3691819314
 20
4.5015690639
 10
314.3693271953
 20
4.5113869931
 10
314.3692477292
 20
4.5205224334
 10
314.3689401989
 20
4.5290454729
 10
314.3683893654
 20
4.5370847767
 10
314.3675391687
 20
4.5449866415
  0
LINE
  5
3C3
100
AcDbEntity
  8
RACCORDO
100
AcDbLine
 62
7
  6
CONTINUOUS
 10
314.0447307114
 20
5.0081094423
 11
314.0455959022
 21
5.0506302629
  0
LWPOLYLINE
  5
3C4
100
AcDbEntity
  8
RACCORDO
100
AcDbPolyline
 62
7
  6
CONTINUOUS
 90
3
 70
0
 10
314.0367222215
 20
4.7988692382
 10
314.0372288485
 20
4.8215130746
 10
314.0379162447
 20
4.836545211
  0
LINE
  5
3C5
100
AcDbEntity
  8
RACCORDO
100
AcDbLine
 62
7
  6
CONTINUOUS
 10
314.0436148751
 20
4.9679905909
 11
314.0447881132
 21
5.010503997
  0
LWPOLYLINE
  5
3C6
100
AcDbEntity
  8
RACCORDO
100
AcDbPolyline
 62
253
  6
CONTINUOUS
 90
10
 70
0
 10
314.114856916
 20
4.5317704949
 10
314.1152997664
 20
4.5457007799
 10
314.1138970159
 20
4.5595605202
 10
314.1106759175
 20
4.5730804457
 10
314.1056990514
 20
4.5859978885
 10
314.0990631091
 20
4.5980618859
 10
314.090897015
 20
4.609038056
 10
314.0813594217
 20
4.6187131515
 10
314.0706356275
 20
4.6268992027
 10
314.0599491337
 20
4.6328699787
  0
LWPOLYLINE
  5
3C7
100
AcDbEntity
  8
RACCORDO
100
AcDbPolyline
 62
253
  6
CONTINUOUS
 90
10
 70
0
 10
314.3630378526
 20
4.5317700572
 10
314.3634990503
 20
4.5457000136
 10
314.3620331311
 20
4.5595592651
 10
314.3586685719
 20
4.5730785823
 10
314.3534707325
 20
4.5859953397
 10
314.3465405858
 20
4.5980586168
 10
314.3380127566
 20
4.6090340732
 10
314.3280529061
 20
4.6187085
 10
314.3168545138
 20
4.6268939622
 10
314.3046351193
 20
4.6334314496
  0
LINE
  5
3C8
100
AcDbEntity
  8
RACCORDO
100
AcDbLine
 62
7
  6
CONTINUOUS
 10
314.0422083901
 20
4.9278805757
 11
314.0436896247
 21
4.9703846804
  0
LINE
  5
3C9
100
AcDbEntity
  8
RACCORDO
100
AcDbLine
 62
7
  6
CONTINUOUS
 10
314.3687793667
 20
4.4903654365
 11
314.3691688338
 21
4.5010743678
  0
LINE
  5
3CA
100
AcDbEntity
  8
RACCORDO
100
AcDbLine
 62
253
  6
CONTINUOUS
 10
314.0301557367
 20
4.8108973501
 11
314.031218458
 21
4.8369151739
  0
LINE
  5
3CB
100
AcDbEntity
  8
RACCORDO
100
AcDbLine
 62
7
  6
CONTINUOUS
 10
314.0405113112
 20
4.8877813389
 11
314.0423004857
 21
4.9302741342
  0
LINE
  5
3CC
100
AcDbEntity
  8
RACCORDO
100
AcDbLine
 62
7
  6
CONTINUOUS
 10
314.0385237388
 20
4.8476951896
 11
314.0406207535
 21
4.8901743202
  0
LWPOLYLINE
  5
3CD
100
AcDbEntity
  8
RACCORDO
100
AcDbPolyline
 62
253
  6
CONTINUOUS
 90
10
 70
0
 10
314.031218458
 20
4.8369151739
 10
314.032985993
 20
4.8707825168
 10
314.0345442314
 20
4.9046447177
 10
314.0358943213
 20
4.9385177843
 10
314.0370383506
 20
4.9724491368
 10
314.0379760715
 20
5.0064237381
 10
314.038704913
 20
5.0403645153
 10
314.0392243365
 20
5.0742572634
 10
314.0395358236
 20
5.1081501775
 10
314.0396396093
 20
5.1420602927
  0
LINE
  5
3CE
100
AcDbEntity
  8
RACCORDO
100
AcDbLine
 62
7
  6
CONTINUOUS
 10
314.0379191284
 20
4.8365452016
 11
314.0386505331
 21
4.8500875989
  0
LINE
  5
3CF
100
AcDbEntity
  8
RACCORDO
100
AcDbLine
 62
7
  6
CONTINUOUS
 10
314.3681506377
 20
4.4788900152
 11
314.3688073714
 21
4.4909864364
  0
LINE
  5
3D0
100
AcDbEntity
  8
RACCORDO
100
AcDbLine
 62
7
  6
CONTINUOUS
 10
314.3672731373
 20
4.4666536282
 11
314.3681979787
 21
4.4796453219
  0
LINE
  5
3D1
100
AcDbEntity
  8
RACCORDO
100
AcDbLine
 62
7
  6
CONTINUOUS
 10
314.3661416118
 20
4.4537313548
 11
314.3673443226
 21
4.4675522916
  0
LWPOLYLINE
  5
3D2
100
AcDbEntity
  8
RACCORDO
100
AcDbPolyline
 62
253
  6
CONTINUOUS
 90
20
 70
0
 10
314.365126022
 20
4.4490514682
 10
314.3659642298
 20
4.4580621928
 10
314.3666711585
 20
4.466884813
 10
314.3672458551
 20
4.4754209399
 10
314.3676814312
 20
4.483336161
 10
314.3679670487
 20
4.4905550154
 10
314.3681157102
 20
4.4971859014
 10
314.3681557014
 20
4.503157243
 10
314.3680847778
 20
4.5084225288
 10
314.3679051114
 20
4.5130421518
 10
314.3676512724
 20
4.5170888358
 10
314.3673246543
 20
4.5205442582
 10
314.3669229568
 20
4.523425053
 10
314.3664754133
 20
4.5258460112
 10
314.3659852171
 20
4.5278000836
 10
314.3654483203
 20
4.5292845741
 10
314.3648834936
 20
4.530416866
 10
314.3642968854
 20
4.5312324068
 10
314.3636817862
 20
4.5316852074
 10
314.3630378715
 20
4.5317700552
  0
LINE
  5
3D3
100
AcDbEntity
  8
RACCORDO
100
AcDbLine
 62
7
  6
CONTINUOUS
 10
314.3647516254
 20
4.440225915
 11
314.3662407546
 21
4.4547804457
  0
LINE
  5
3D4
100
AcDbEntity
  8
RACCORDO
100
AcDbLine
 62
7
  6
CONTINUOUS
 10
314.3635642777
 20
4.4299910189
 11
314.3648843532
 21
4.4414310029
  0
LINE
  5
3D5
100
AcDbEntity
  8
RACCORDO
100
AcDbLine
 62
253
  6
CONTINUOUS
 10
314.3474191791
 20
4.3116677118
 11
314.3556776219
 21
4.3719888454
  0
LWPOLYLINE
  5
3D6
100
AcDbEntity
  8
RACCORDO
100
AcDbPolyline
 62
7
  6
CONTINUOUS
 90
8
 70
0
 10
314.3662863941
 20
5.7311000976
 10
314.3675446032
 20
5.7391766924
 10
314.3683995692
 20
5.7471518614
 10
314.3689498426
 20
5.7552661017
 10
314.3692536271
 20
5.7638742965
 10
314.3693258416
 20
5.7731102331
 10
314.3691688338
 20
5.7830462175
 10
314.3687793667
 20
5.7937551488
  0
LINE
  5
3D7
100
AcDbEntity
  8
RACCORDO
100
AcDbLine
 62
253
  6
CONTINUOUS
 10
314.3279018542
 20
4.1843202287
 11
314.3381855808
 21
4.249081069
  0
LINE
  5
3D8
100
AcDbEntity
  8
RACCORDO
100
AcDbLine
 62
7
  6
CONTINUOUS
 10
314.0363862226
 20
3.0398035491
 11
314.0368424282
 21
3.0425708107
  0
LINE
  5
3D9
100
AcDbEntity
  8
RACCORDO
100
AcDbLine
 62
253
  6
CONTINUOUS
 10
314.303792337
 20
4.0478280411
 11
314.3164753394
 21
4.1173152467
  0
LWPOLYLINE
  5
3DA
100
AcDbEntity
  8
RACCORDO
100
AcDbPolyline
 62
7
  6
CONTINUOUS
 90
8
 70
0
 10
314.0368424282
 20
3.0425708107
 10
314.0371661891
 20
3.0443078671
 10
314.0376388338
 20
3.0466960267
 10
314.0382359194
 20
3.0495634511
 10
314.038938695
 20
3.0527928524
 10
314.0397420087
 20
3.0563470213
 10
314.0406545289
 20
3.0602535851
 10
314.0416728599
 20
3.0644891593
  0
LINE
  5
3DB
100
AcDbEntity
  8
RACCORDO
100
AcDbLine
 62
253
  6
CONTINUOUS
 10
314.0391745179
 20
5.618382114
 11
314.0431864654
 21
5.6394959065
  0
LINE
  5
3DC
100
AcDbEntity
  8
RACCORDO
100
AcDbLine
 62
253
  6
CONTINUOUS
 10
314.27423623
 20
3.9014606304
 11
314.2897445905
 21
3.9758496248
  0
LINE
  5
3DD
100
AcDbEntity
  8
RACCORDO
100
AcDbLine
 62
253
  6
CONTINUOUS
 10
314.0431864654
 20
5.6394959065
 11
314.0478708863
 21
5.6591825781
  0
LINE
  5
3DE
100
AcDbEntity
  8
RACCORDO
100
AcDbLine
 62
7
  6
CONTINUOUS
 10
314.0416728599
 20
3.0644891593
 11
314.0429945641
 21
3.0698277641
  0
LWPOLYLINE
  5
3DF
100
AcDbEntity
  8
RACCORDO
100
AcDbPolyline
 62
253
  6
CONTINUOUS
 90
3
 70
0
 10
314.2178878368
 20
3.663582837
 10
314.2384223155
 20
3.7452692895
 10
314.2571623426
 20
3.8245664191
  0
LINE
  5
3E0
100
AcDbEntity
  8
RACCORDO
100
AcDbLine
 62
7
  6
CONTINUOUS
 10
314.0427974501
 20
3.0690500131
 11
314.0442475913
 21
3.0747884324
  0
LINE
  5
3E1
100
AcDbEntity
  8
RACCORDO
100
AcDbLine
 62
7
  6
CONTINUOUS
 10
314.0440280397
 20
3.0739317377
 11
314.0467901874
 21
3.0845881726
  0
LINE
  5
3E2
100
AcDbEntity
  8
RACCORDO
100
AcDbLine
 62
7
  6
CONTINUOUS
 10
314.0456000474
 20
3.080043313
 11
314.0486001881
 21
3.0914045229
  0
LWPOLYLINE
  5
3E3
100
AcDbEntity
  8
RACCORDO
100
AcDbPolyline
 62
253
  6
CONTINUOUS
 90
6
 70
0
 10
314.0432022437
 20
3.0743027753
 10
314.0478817037
 20
3.091734677
 10
314.0532272688
 20
3.1109506513
 10
314.0592102031
 20
3.1318684521
 10
314.065744587
 20
3.1541507821
 10
314.0688763837
 20
3.1625751659
  0
LINE
  5
3E4
100
AcDbEntity
  8
RACCORDO
100
AcDbLine
 62
7
  6
CONTINUOUS
 10
314.0483208603
 20
3.0903548154
 11
314.0519980534
 21
3.1038933255
  0
LINE
  5
3E5
100
AcDbEntity
  8
RACCORDO
100
AcDbLine
 62
7
  6
CONTINUOUS
 10
314.051673804
 20
3.1027151674
 11
314.0557871594
 21
3.1174723959
  0
LINE
  5
3E6
100
AcDbEntity
  8
RACCORDO
100
AcDbLine
 62
7
  6
CONTINUOUS
 10
314.0554135695
 20
3.1161518945
 11
314.0599560738
 21
3.1321021166
  0
LINE
  5
3E7
100
AcDbEntity
  8
RACCORDO
100
AcDbLine
 62
7
  6
CONTINUOUS
 10
314.0595361214
 20
3.1306399307
 11
314.0644940234
 21
3.147731014
  0
LWPOLYLINE
  5
3E8
100
AcDbEntity
  8
RACCORDO
100
AcDbPolyline
 62
253
  6
CONTINUOUS
 90
10
 70
0
 10
314.0478708863
 20
5.6591825781
 10
314.0532346603
 20
5.6774394615
 10
314.0592447565
 20
5.6941839012
 10
314.0658115391
 20
5.7089693843
 10
314.0729320235
 20
5.7217871345
 10
314.0805766256
 20
5.7326301549
 10
314.0886187131
 20
5.7411096397
 10
314.0970066472
 20
5.7471309224
 10
314.1057600229
 20
5.7508638118
 10
314.1148609524
 20
5.7523505301
  0
LINE
  5
3E9
100
AcDbEntity
  8
RACCORDO
100
AcDbLine
 62
7
  6
CONTINUOUS
 10
314.0640270723
 20
3.1461302273
 11
314.0693927048
 21
3.1643114958
  0
LWPOLYLINE
  5
3EA
100
AcDbEntity
  8
RACCORDO
100
AcDbPolyline
 62
253
  6
CONTINUOUS
 90
3
 70
0
 10
314.0719749178
 20
3.172946585
 10
314.0728150021
 20
3.17776122
 10
314.0746427584
 20
3.1818009212
  0
LWPOLYLINE
  5
3EB
100
AcDbEntity
  8
RACCORDO
100
AcDbPolyline
 62
253
  6
CONTINUOUS
 90
3
 70
0
 10
314.1440195805
 20
3.4029634344
 10
314.1708200243
 20
3.4923566789
 10
314.1954015236
 20
3.5792870033
  0
LINE
  5
3EC
100
AcDbEntity
  8
RACCORDO
100
AcDbLine
 62
7
  6
CONTINUOUS
 10
314.0688763837
 20
3.1625751659
 11
314.0768008294
 21
3.1889242688
  0
LWPOLYLINE
  5
3ED
100
AcDbEntity
  8
RACCORDO
100
AcDbPolyline
 62
253
  6
CONTINUOUS
 90
3
 70
0
 10
314.0773937254
 20
3.1908666359
 10
314.080405029
 20
3.2026649408
 10
314.082494854
 20
3.2075253792
  0
LINE
  5
3EE
100
AcDbEntity
  8
RACCORDO
100
AcDbLine
 62
7
  6
CONTINUOUS
 10
314.0746427584
 20
3.1818009212
 11
314.0831351754
 21
3.209599175
  0
LWPOLYLINE
  5
3EF
100
AcDbEntity
  8
RACCORDO
100
AcDbPolyline
 62
253
  6
CONTINUOUS
 90
3
 70
0
 10
314.0861225392
 20
3.2192537928
 10
314.0884288262
 20
3.2285167837
 10
314.0916071684
 20
3.2368275446
  0
LINE
  5
3F0
100
AcDbEntity
  8
RACCORDO
100
AcDbLine
 62
7
  6
CONTINUOUS
 10
314.082494854
 20
3.2075253792
 11
314.0923197522
 21
3.2390992641
  0
LWPOLYLINE
  5
3F1
100
AcDbEntity
  8
RACCORDO
100
AcDbPolyline
 62
253
  6
CONTINUOUS
 90
5
 70
0
 10
314.0312110474
 20
3.0060473276
 10
314.035071014
 20
3.0183750009
 10
314.0373118284
 20
3.0310982326
 10
314.0378960846
 20
3.0440046342
 10
314.0376609496
 20
3.0468022347
  0
LWPOLYLINE
  5
3F2
100
AcDbEntity
  8
RACCORDO
100
AcDbPolyline
 62
253
  6
CONTINUOUS
 90
3
 70
0
 10
314.0955259654
 20
3.2492763388
 10
314.096846972
 20
3.2551821715
 10
314.1013525953
 20
3.2676202441
  0
LWPOLYLINE
  5
3F3
100
AcDbEntity
  8
RACCORDO
100
AcDbPolyline
 62
7
  6
CONTINUOUS
 90
10
 70
0
 10
314.1153655261
 20
3.3110248492
 10
314.1469804925
 20
3.4108570292
 10
314.1847696413
 20
3.5391348781
 10
314.2196411129
 20
3.6682347493
 10
314.2515770483
 20
3.7980897997
 10
314.280561919
 20
3.9286367183
 10
314.3065811809
 20
4.0598095467
 10
314.3296209843
 20
4.1915405942
 10
314.3496695509
 20
4.3237631657
 10
314.3635648435
 20
4.4299910027
  0
LINE
  5
3F4
100
AcDbEntity
  8
RACCORDO
100
AcDbLine
 62
7
  6
CONTINUOUS
 10
314.0916071684
 20
3.2368275446
 11
314.1021405733
 21
3.2700933646
  0
LINE
  5
3F5
100
AcDbEntity
  8
RACCORDO
100
AcDbLine
 62
253
  6
CONTINUOUS
 10
314.1047304297
 20
3.2781749662
 11
314.1056641236
 21
3.2827445212
  0
LWPOLYLINE
  5
3F6
100
AcDbEntity
  8
RACCORDO
100
AcDbPolyline
 62
7
  6
CONTINUOUS
 90
3
 70
0
 10
314.1013525953
 20
3.2676202441
 10
314.1116620834
 20
3.2996563422
 10
314.1153621906
 20
3.3110259378
  0
LWPOLYLINE
  5
3F7
100
AcDbEntity
  8
RACCORDO
100
AcDbPolyline
 62
7
  6
CONTINUOUS
 90
6
 70
0
 10
314.0540547399
 20
5.6351528844
 10
314.0569383509
 20
5.6437173864
 10
314.0595874165
 20
5.6504382519
 10
314.0618018734
 20
5.6552533842
 10
314.0634203154
 20
5.6582774546
 10
314.0636617066
 20
5.6586861059
  0
LWPOLYLINE
  5
3F8
100
AcDbEntity
  8
RACCORDO
100
AcDbPolyline
 62
7
  6
CONTINUOUS
 90
13
 70
0
 10
314.3620968021
 20
4.5696668021
 10
314.3587926065
 20
4.5785178994
 10
314.3544662174
 20
4.5875874739
 10
314.3492231499
 20
4.5963446709
 10
314.3431673831
 20
4.6045372801
 10
314.3361871549
 20
4.6122472048
 10
314.3282133576
 20
4.6194169956
 10
314.3192787674
 20
4.625877615
 10
314.3094032003
 20
4.6314832143
 10
314.2984987683
 20
4.6361211888
 10
314.2865928475
 20
4.6395796362
 10
314.2738605555
 20
4.6416082851
 10
314.2642910793
 20
4.6420602086
  0
LWPOLYLINE
  5
3F9
100
AcDbEntity
  8
RACCORDO
100
AcDbPolyline
 62
7
  6
CONTINUOUS
 90
11
 70
0
 10
314.0571759481
 20
4.6397582489
 10
314.0543231239
 20
4.6481131024
 10
314.0513558701
 20
4.658325368
 10
314.0483936717
 20
4.6704265512
 10
314.0455747786
 20
4.6842883704
 10
314.0429942838
 20
4.6998674503
 10
314.0407470995
 20
4.7170998047
 10
314.0389335402
 20
4.7357760877
 10
314.0376195728
 20
4.755749227
 10
314.0368626949
 20
4.7768687514
 10
314.0367222215
 20
4.7988692382
  0
LINE
  5
3FA
100
AcDbEntity
  8
RACCORDO
100
AcDbLine
 62
7
  6
CONTINUOUS
 10
314.1153621726
 20
6.9730946393
 11
314.105542578
 21
7.0034098394
  0
LINE
  5
3FB
100
AcDbEntity
  8
RACCORDO
100
AcDbLine
 62
253
  6
CONTINUOUS
 10
314.1056036407
 20
7.0015719401
 11
314.105542578
 21
7.0034098394
  0
LINE
  5
3FC
100
AcDbEntity
  8
RACCORDO
100
AcDbLine
 62
253
  6
CONTINUOUS
 10
314.1021380697
 20
7.0140350563
 11
314.0967437692
 21
7.0292701116
  0
LINE
  5
3FD
100
AcDbEntity
  8
RACCORDO
100
AcDbLine
 62
7
  6
CONTINUOUS
 10
314.105542578
 20
7.0034098394
 11
314.0955212028
 21
7.0348593206
  0
LWPOLYLINE
  5
3FE
100
AcDbEntity
  8
RACCORDO
100
AcDbPolyline
 62
253
  6
CONTINUOUS
 90
5
 70
0
 10
314.0312184314
 20
7.2780761135
 10
314.0350772681
 20
7.2657484924
 10
314.037317014
 20
7.2530255004
 10
314.0379002865
 20
7.2401194921
 10
314.0376629218
 20
7.2372977726
  0
LINE
  5
3FF
100
AcDbEntity
  8
RACCORDO
100
AcDbLine
 62
7
  6
CONTINUOUS
 10
314.0955212028
 20
7.0348593206
 11
314.0861138477
 21
7.0648947954
  0
LINE
  5
400
100
AcDbEntity
  8
RACCORDO
100
AcDbLine
 62
7
  6
CONTINUOUS
 10
314.0861138477
 20
7.0648947954
 11
314.0773810233
 21
7.0932956681
  0
LWPOLYLINE
  5
401
100
AcDbEntity
  8
RACCORDO
100
AcDbPolyline
 62
253
  6
CONTINUOUS
 90
6
 70
0
 10
314.0668815018
 20
7.1282741256
 10
314.0656634016
 20
7.1302438843
 10
314.0591448131
 20
7.1524775756
 10
314.0531775287
 20
7.1733459027
 10
314.0478457233
 20
7.1925174828
 10
314.0431773492
 20
7.2099130113
  0
LINE
  5
402
100
AcDbEntity
  8
RACCORDO
100
AcDbLine
 62
7
  6
CONTINUOUS
 10
314.0773810233
 20
7.0932956681
 11
314.0693765367
 21
7.1198633711
  0
LINE
  5
403
100
AcDbEntity
  8
RACCORDO
100
AcDbLine
 62
7
  6
CONTINUOUS
 10
314.0693765367
 20
7.1198633711
 11
314.0644761073
 21
7.1364507348
  0
LINE
  5
404
100
AcDbEntity
  8
RACCORDO
100
AcDbLine
 62
7
  6
CONTINUOUS
 10
314.0644761073
 20
7.1364507348
 11
314.0599369982
 21
7.1520847801
  0
LINE
  5
405
100
AcDbEntity
  8
RACCORDO
100
AcDbLine
 62
7
  6
CONTINUOUS
 10
314.0599369982
 20
7.1520847801
 11
314.0557675662
 21
7.166717643
  0
LWPOLYLINE
  5
406
100
AcDbEntity
  8
RACCORDO
100
AcDbPolyline
 62
253
  6
CONTINUOUS
 90
3
 70
0
 10
314.1951615248
 20
6.705706919
 10
314.1706176239
 20
6.7924642234
 10
314.1438953904
 20
6.8815661958
  0
LINE
  5
407
100
AcDbEntity
  8
RACCORDO
100
AcDbLine
 62
7
  6
CONTINUOUS
 10
314.0557675662
 20
7.166717643
 11
314.0519786994
 21
7.1802974674
  0
LINE
  5
408
100
AcDbEntity
  8
RACCORDO
100
AcDbLine
 62
7
  6
CONTINUOUS
 10
314.0519786994
 20
7.1802974674
 11
314.0485818123
 21
7.1927845899
  0
LWPOLYLINE
  5
409
100
AcDbEntity
  8
RACCORDO
100
AcDbPolyline
 62
7
  6
CONTINUOUS
 90
4
 70
0
 10
314.0485818123
 20
7.1927845899
 10
314.0455833118
 20
7.204141733
 10
314.0442318987
 20
7.2093936983
 10
314.042980044
 20
7.2143508891
  0
LWPOLYLINE
  5
40A
100
AcDbEntity
  8
RACCORDO
100
AcDbPolyline
 62
253
  6
CONTINUOUS
 90
9
 70
0
 10
314.0431773492
 20
7.2099130113
 10
314.0391699914
 20
7.2255436215
 10
314.0358616427
 20
7.239230467
 10
314.033265761
 20
7.2509314368
 10
314.03138422
 20
7.2606342408
 10
314.0302353301
 20
7.2682241075
 10
314.0298265894
 20
7.2736563579
 10
314.0301545845
 20
7.2769453979
 10
314.031218458
 20
7.2780761238
  0
LWPOLYLINE
  5
40B
100
AcDbEntity
  8
RACCORDO
100
AcDbPolyline
 62
7
  6
CONTINUOUS
 90
10
 70
0
 10
314.042980044
 20
7.2143508891
 10
314.0418335422
 20
7.2189848556
 10
314.0407925791
 20
7.2232931395
 10
314.0398578239
 20
7.2272706329
 10
314.0390359165
 20
7.2308826903
 10
314.0383216309
 20
7.2341421883
 10
314.0377167067
 20
7.2370275718
 10
314.0372331864
 20
7.2394566447
 10
314.0368564814
 20
7.2414686658
 10
314.0367777866
 20
7.2419087561
  0
LINE
  5
40C
100
AcDbEntity
  8
RACCORDO
100
AcDbLine
 62
253
  6
CONTINUOUS
 10
314.0478023015
 20
4.6251983333
 11
314.0431295719
 21
4.644886491
  0
LWPOLYLINE
  5
40D
100
AcDbEntity
  8
RACCORDO
100
AcDbPolyline
 62
253
  6
CONTINUOUS
 90
3
 70
0
 10
314.257004503
 20
6.4602428778
 10
314.2382321813
 20
6.5396275916
 10
314.2176579062
 20
6.6214209122
  0
LINE
  5
40E
100
AcDbEntity
  8
RACCORDO
100
AcDbLine
 62
253
  6
CONTINUOUS
 10
314.2896094077
 20
6.3089416082
 11
314.2740921435
 21
6.3833304913
  0
LINE
  5
40F
100
AcDbEntity
  8
RACCORDO
100
AcDbLine
 62
253
  6
CONTINUOUS
 10
314.0431295719
 20
4.644886491
 11
314.0391309568
 21
4.6659904847
  0
LINE
  5
410
100
AcDbEntity
  8
RACCORDO
100
AcDbLine
 62
253
  6
CONTINUOUS
 10
314.3163537384
 20
6.167499296
 11
314.3036655288
 21
6.2369641221
  0
LINE
  5
411
100
AcDbEntity
  8
RACCORDO
100
AcDbLine
 62
253
  6
CONTINUOUS
 10
314.338084068
 20
6.0357021613
 11
314.3277852121
 21
6.1005170677
  0
LWPOLYLINE
  5
412
100
AcDbEntity
  8
RACCORDO
100
AcDbPolyline
 62
7
  6
CONTINUOUS
 90
4
 70
0
 10
314.3675446032
 20
4.5449438929
 10
314.3662863941
 20
4.5530204877
 10
314.3645184938
 20
4.5612302654
 10
314.3620968021
 20
4.5696668021
  0
LWPOLYLINE
  5
413
100
AcDbEntity
  8
RACCORDO
100
AcDbPolyline
 62
253
  6
CONTINUOUS
 90
7
 70
0
 10
314.0391309568
 20
4.6659904847
 10
314.0358326049
 20
4.6881569314
 10
314.0332451268
 20
4.7113156265
 10
314.0313731992
 20
4.735417643
 10
314.0302315574
 20
4.7601250292
 10
314.0298264838
 20
4.7852774432
 10
314.0301557367
 20
4.8108973501
  0
LINE
  5
414
100
AcDbEntity
  8
RACCORDO
100
AcDbLine
 62
253
  6
CONTINUOUS
 10
314.3556374423
 20
5.9124186163
 11
314.3473447955
 21
5.9729622609
  0
LWPOLYLINE
  5
415
100
AcDbEntity
  8
RACCORDO
100
AcDbPolyline
 62
7
  6
CONTINUOUS
 90
10
 70
0
 10
314.3635648309
 20
5.8541296386
 10
314.3500010842
 20
5.9579867319
 10
314.3300056139
 20
6.0902208043
 10
314.3070187681
 20
6.2219633795
 10
314.2810523949
 20
6.3531477568
 10
314.2521203951
 20
6.4837061784
 10
314.2202372909
 20
6.6135730367
 10
314.1854185814
 20
6.7426851662
 10
314.1476824451
 20
6.8709750336
 10
314.115365554
 20
6.9730957431
  0
LINE
  5
416
100
AcDbEntity
  8
RACCORDO
100
AcDbLine
 62
7
  6
CONTINUOUS
 10
314.3648843532
 20
5.8426895825
 11
314.3635642777
 21
5.8541295664
  0
ARC
  5
417
100
AcDbEntity
  8
ASSI
100
AcDbCircle
 62
7
  6
CONTINUOUS
 10
-183.5623535837
 20
2.6420602927
 40
3.5
100
AcDbArc
 50
201.9077027941
 51
338.0922972059
  0
ARC
  5
418
100
AcDbEntity
  8
0
100
AcDbCircle
 62
7
  6
CONTINUOUS
 10
-288.5623535837
 20
-45.8579397073
 40
3.0
100
AcDbArc
 50
0.0
 51
90.0
  0
ARC
  5
419
100
AcDbEntity
  8
0
100
AcDbCircle
 62
7
  6
CONTINUOUS
 10
-308.5623535837
 20
-42.3579397073
 40
3.0
100
AcDbArc
 50
180.0
 51
270.0
  0
ARC
  5
41A
100
AcDbEntity
  8
0
100
AcDbCircle
 62
7
  6
CONTINUOUS
 10
-308.5623535837
 20
-42.3579397073
 40
0.5
100
AcDbArc
 50
180.0
 51
270.0000000001
  0
ARC
  5
41B
100
AcDbEntity
  8
0
100
AcDbCircle
 62
7
  6
CONTINUOUS
 10
-288.5623535837
 20
-45.8579397073
 40
0.5
100
AcDbArc
 50
0.0
 51
90.0
  0
ARC
  5
41C
100
AcDbEntity
  8
0
100
AcDbCircle
 62
7
  6
CONTINUOUS
 10
-311.7623535837
 20
0.3420602927
 40
0.2
100
AcDbArc
 50
236.8858572487
 51
360.0
  0
ARC
  5
41D
100
AcDbEntity
  8
RACCORDO
100
AcDbCircle
 62
7
  6
CONTINUOUS
 10
-183.8623535837
 20
3.3420602927
 40
0.2
100
AcDbArc
 50
180.0
 51
270.0000000003
  0
ARC
  5
41E
100
AcDbEntity
  8
RACCORDO
100
AcDbCircle
 62
7
  6
CONTINUOUS
 10
-183.2623535837
 20
3.3420602927
 40
0.2
100
AcDbArc
 50
270.0000000003
 51
360.0
  0
ARC
  5
41F
100
AcDbEntity
  8
RACCORDO
100
AcDbCircle
 62
7
  6
CONTINUOUS
 10
-314.0710576795
 20
3.0420602927
 40
0.1
100
AcDbArc
 50
164.7158483146
 51
201.1099185894
  0
ARC
  5
420
100
AcDbEntity
  8
0
100
AcDbCircle
 62
7
  6
CONTINUOUS
 10
-308.6315843529
 20
5.1420602927
 40
5.9307692308
100
AcDbArc
 50
123.1141427513
 51
158.890081301
  0
ARC
  5
421
100
AcDbEntity
  8
0
100
AcDbCircle
 62
7
  6
CONTINUOUS
 10
-308.6315843529
 20
5.1420602927
 40
5.9307692308
100
AcDbArc
 50
201.109918699
 51
236.8858572487
  0
CIRCLE
  5
422
100
AcDbEntity
  8
0
100
AcDbCircle
 62
7
  6
CONTINUOUS
 10
-183.5623535837
 20
5.1420602927
 40
5.0
  0
CIRCLE
  5
423
100
AcDbEntity
  8
0
100
AcDbCircle
 62
253
  6
CONTINUOUS
 10
-183.5623535837
 20
5.1420602927
 40
4.9675167785
  0
ARC
  5
424
100
AcDbEntity
  8
ASSI
100
AcDbCircle
 62
7
  6
CONTINUOUS
 10
-183.5623535837
 20
7.6420602927
 40
3.5
100
AcDbArc
 50
21.9077027941
 51
158.0922972059
  0
ARC
  5
425
100
AcDbEntity
  8
0
100
AcDbCircle
 62
7
  6
CONTINUOUS
 10
-308.5623535837
 20
52.6420602927
 40
3.0
100
AcDbArc
 50
90.0
 51
180.0
  0
ARC
  5
426
100
AcDbEntity
  8
0
100
AcDbCircle
 62
7
  6
CONTINUOUS
 10
-288.5623535837
 20
52.6420602927
 40
0.5
100
AcDbArc
 50
0.0
 51
90.0
  0
ARC
  5
427
100
AcDbEntity
  8
0
100
AcDbCircle
 62
7
  6
CONTINUOUS
 10
-308.5623535837
 20
52.6420602927
 40
0.5
100
AcDbArc
 50
90.0
 51
180.0
  0
ARC
  5
428
100
AcDbEntity
  8
0
100
AcDbCircle
 62
7
  6
CONTINUOUS
 10
-311.7623535837
 20
9.9420602927
 40
0.2
100
AcDbArc
 50
0.0
 51
123.1141427513
  0
ARC
  5
429
100
AcDbEntity
  8
RACCORDO
100
AcDbCircle
 62
7
  6
CONTINUOUS
 10
-185.3623535837
 20
5.4420602927
 40
0.2
100
AcDbArc
 50
89.9999999997
 51
180.0
  0
ARC
  5
42A
100
AcDbEntity
  8
RACCORDO
100
AcDbCircle
 62
7
  6
CONTINUOUS
 10
-185.3623535837
 20
4.8420602927
 40
0.2
100
AcDbArc
 50
180.0
 51
270.0000000003
  0
ARC
  5
42B
100
AcDbEntity
  8
RACCORDO
100
AcDbCircle
 62
7
  6
CONTINUOUS
 10
-181.7623535837
 20
4.8420602927
 40
0.2
100
AcDbArc
 50
270.0000000003
 51
360.0
  0
ARC
  5
42C
100
AcDbEntity
  8
RACCORDO
100
AcDbCircle
 62
7
  6
CONTINUOUS
 10
-181.7623535837
 20
5.4420602927
 40
0.2
100
AcDbArc
 50
0.0
 51
89.9999999997
  0
ARC
  5
42D
100
AcDbEntity
  8
RACCORDO
100
AcDbCircle
 62
7
  6
CONTINUOUS
 10
-183.2623535837
 20
6.9420602927
 40
0.2
100
AcDbArc
 50
0.0
 51
89.9999999997
  0
ARC
  5
42E
100
AcDbEntity
  8
RACCORDO
100
AcDbCircle
 62
7
  6
CONTINUOUS
 10
-183.8623535837
 20
6.9420602927
 40
0.2
100
AcDbArc
 50
89.9999999997
 51
180.0
  0
ARC
  5
42F
100
AcDbEntity
  8
RACCORDO
100
AcDbCircle
 62
7
  6
CONTINUOUS
 10
-184.2623535837
 20
4.4420602927
 40
0.2
100
AcDbArc
 50
0.0
 51
89.9999999997
  0
ARC
  5
430
100
AcDbEntity
  8
RACCORDO
100
AcDbCircle
 62
7
  6
CONTINUOUS
 10
-182.8623535837
 20
4.4420602927
 40
0.2
100
AcDbArc
 50
89.9999999997
 51
180.0
  0
ARC
  5
431
100
AcDbEntity
  8
RACCORDO
100
AcDbCircle
 62
7
  6
CONTINUOUS
 10
-184.2623535837
 20
5.8420602927
 40
0.2
100
AcDbArc
 50
270.0000000003
 51
360.0
  0
ARC
  5
432
100
AcDbEntity
  8
RACCORDO
100
AcDbCircle
 62
7
  6
CONTINUOUS
 10
-182.8623535837
 20
5.8420602927
 40
0.2
100
AcDbArc
 50
180.0
 51
270.0000000003
  0
ARC
  5
433
100
AcDbEntity
  8
RACCORDO
100
AcDbCircle
 62
7
  6
CONTINUOUS
 10
-314.0710576795
 20
7.2420602927
 40
0.1
100
AcDbArc
 50
158.8900814106
 51
195.2842862243
  0
ARC
  5
434
100
AcDbEntity
  8
ASSI
100
AcDbCircle
 62
7
  6
CONTINUOUS
 10
183.4376464163
 20
2.6420602927
 40
3.5
100
AcDbArc
 50
201.9077027941
 51
338.0922972059
  0
ARC
  5
435
100
AcDbEntity
  8
0
100
AcDbCircle
 62
7
  6
CONTINUOUS
 10
288.4376464163
 20
-45.8579397073
 40
3.0
100
AcDbArc
 50
90.0
 51
180.0
  0
ARC
  5
436
100
AcDbEntity
  8
0
100
AcDbCircle
 62
7
  6
CONTINUOUS
 10
308.4376464163
 20
-42.3579397073
 40
3.0
100
AcDbArc
 50
270.0
 51
360.0
  0
ARC
  5
437
100
AcDbEntity
  8
0
100
AcDbCircle
 62
7
  6
CONTINUOUS
 10
308.4376464163
 20
-42.3579397073
 40
0.5
100
AcDbArc
 50
270.0000000001
 51
360.0
  0
ARC
  5
438
100
AcDbEntity
  8
0
100
AcDbCircle
 62
7
  6
CONTINUOUS
 10
288.4376464163
 20
-45.8579397073
 40
0.5
100
AcDbArc
 50
90.0
 51
180.0
  0
ARC
  5
439
100
AcDbEntity
  8
0
100
AcDbCircle
 62
7
  6
CONTINUOUS
 10
311.6376464163
 20
0.3420602927
 40
0.2
100
AcDbArc
 50
180.0
 51
303.1141427513
  0
ARC
  5
43A
100
AcDbEntity
  8
RACCORDO
100
AcDbCircle
 62
7
  6
CONTINUOUS
 10
183.1376464163
 20
3.3420602927
 40
0.2
100
AcDbArc
 50
180.0
 51
270.0000000004
  0
ARC
  5
43B
100
AcDbEntity
  8
RACCORDO
100
AcDbCircle
 62
7
  6
CONTINUOUS
 10
183.7376464163
 20
3.3420602927
 40
0.2
100
AcDbArc
 50
270.0000000004
 51
360.0
  0
ARC
  5
43C
100
AcDbEntity
  8
RACCORDO
100
AcDbCircle
 62
7
  6
CONTINUOUS
 10
313.9463505121
 20
3.0420602927
 40
0.1
100
AcDbArc
 50
338.8900814106
 51
15.2842862243
  0
ARC
  5
43D
100
AcDbEntity
  8
0
100
AcDbCircle
 62
7
  6
CONTINUOUS
 10
308.5068771855
 20
5.1420602927
 40
5.9307692308
100
AcDbArc
 50
21.109918699
 51
56.8858572487
  0
ARC
  5
43E
100
AcDbEntity
  8
0
100
AcDbCircle
 62
7
  6
CONTINUOUS
 10
308.5068771855
 20
5.1420602927
 40
5.9307692308
100
AcDbArc
 50
303.1141427513
 51
338.890081301
  0
CIRCLE
  5
43F
100
AcDbEntity
  8
0
100
AcDbCircle
 62
7
  6
CONTINUOUS
 10
183.4376464163
 20
5.1420602927
 40
5.0
  0
CIRCLE
  5
440
100
AcDbEntity
  8
0
100
AcDbCircle
 62
253
  6
CONTINUOUS
 10
183.4376464163
 20
5.1420602927
 40
4.9675167785
  0
ARC
  5
441
100
AcDbEntity
  8
ASSI
100
AcDbCircle
 62
7
  6
CONTINUOUS
 10
183.4376464163
 20
7.6420602927
 40
3.5
100
AcDbArc
 50
21.9077027941
 51
158.0922972059
  0
ARC
  5
442
100
AcDbEntity
  8
0
100
AcDbCircle
 62
7
  6
CONTINUOUS
 10
308.4376464163
 20
52.6420602927
 40
3.0
100
AcDbArc
 50
0.0
 51
90.0
  0
ARC
  5
443
100
AcDbEntity
  8
0
100
AcDbCircle
 62
7
  6
CONTINUOUS
 10
288.4376464163
 20
52.6420602927
 40
0.5
100
AcDbArc
 50
90.0
 51
180.0
  0
ARC
  5
444
100
AcDbEntity
  8
0
100
AcDbCircle
 62
7
  6
CONTINUOUS
 10
308.4376464163
 20
52.6420602927
 40
0.5
100
AcDbArc
 50
0.0
 51
90.0
  0
ARC
  5
445
100
AcDbEntity
  8
0
100
AcDbCircle
 62
7
  6
CONTINUOUS
 10
311.6376464163
 20
9.9420602927
 40
0.2
100
AcDbArc
 50
56.8858572487
 51
180.0
  0
ARC
  5
446
100
AcDbEntity
  8
RACCORDO
100
AcDbCircle
 62
7
  6
CONTINUOUS
 10
181.6376464163
 20
5.4420602927
 40
0.2
100
AcDbArc
 50
89.9999999996
 51
180.0
  0
ARC
  5
447
100
AcDbEntity
  8
RACCORDO
100
AcDbCircle
 62
7
  6
CONTINUOUS
 10
181.6376464163
 20
4.8420602927
 40
0.2
100
AcDbArc
 50
180.0
 51
270.0000000004
  0
ARC
  5
448
100
AcDbEntity
  8
RACCORDO
100
AcDbCircle
 62
7
  6
CONTINUOUS
 10
185.2376464163
 20
4.8420602927
 40
0.2
100
AcDbArc
 50
270.0000000004
 51
360.0
  0
ARC
  5
449
100
AcDbEntity
  8
RACCORDO
100
AcDbCircle
 62
7
  6
CONTINUOUS
 10
185.2376464163
 20
5.4420602927
 40
0.2
100
AcDbArc
 50
0.0
 51
89.9999999996
  0
ARC
  5
44A
100
AcDbEntity
  8
RACCORDO
100
AcDbCircle
 62
7
  6
CONTINUOUS
 10
183.7376464163
 20
6.9420602927
 40
0.2
100
AcDbArc
 50
0.0
 51
89.9999999996
  0
ARC
  5
44B
100
AcDbEntity
  8
RACCORDO
100
AcDbCircle
 62
7
  6
CONTINUOUS
 10
183.1376464163
 20
6.9420602927
 40
0.2
100
AcDbArc
 50
89.9999999996
 51
180.0
  0
ARC
  5
44C
100
AcDbEntity
  8
RACCORDO
100
AcDbCircle
 62
7
  6
CONTINUOUS
 10
182.7376464163
 20
4.4420602927
 40
0.2
100
AcDbArc
 50
0.0
 51
89.9999999996
  0
ARC
  5
44D
100
AcDbEntity
  8
RACCORDO
100
AcDbCircle
 62
7
  6
CONTINUOUS
 10
184.1376464163
 20
4.4420602927
 40
0.2
100
AcDbArc
 50
89.9999999996
 51
180.0
  0
ARC
  5
44E
100
AcDbEntity
  8
RACCORDO
100
AcDbCircle
 62
7
  6
CONTINUOUS
 10
182.7376464163
 20
5.8420602927
 40
0.2
100
AcDbArc
 50
270.0000000004
 51
360.0
  0
ARC
  5
44F
100
AcDbEntity
  8
RACCORDO
100
AcDbCircle
 62
7
  6
CONTINUOUS
 10
184.1376464163
 20
5.8420602927
 40
0.2
100
AcDbArc
 50
180.0
 51
270.0000000004
  0
ARC
  5
450
100
AcDbEntity
  8
RACCORDO
100
AcDbCircle
 62
7
  6
CONTINUOUS
 10
313.9463505121
 20
7.2420602927
 40
0.1
100
AcDbArc
 50
344.7158483146
 51
21.1099185894
  0
ENDSEC
  0
SECTION
  2
OBJECTS
  0
DICTIONARY
  5
C
100
AcDbDictionary
280
0
281
1
  3
ACAD_GROUP
350
D
  3
ACAD_MLINESTYLE
350
17
  3
ACAD_LAYOUT
350
1A
  3
ACAD_PLOTSETTINGS
350
19
  3
ACAD_PLOTSTYLENAME
350
E
  0
DICTIONARY
  5
D
102
{ACAD_REACTORS
330
C
102
}
100
AcDbDictionary
280
0
281
1
  0
ACDBDICTIONARYWDFLT
  5
E
102
{ACAD_REACTORS
330
C
102
}
100
AcDbDictionary
281
1
  3
Normal
350
F
100
AcDbDictionaryWithDefault
340
F
  0
DICTIONARY
  5
17
102
{ACAD_REACTORS
330
C
102
}
100
AcDbDictionary
280
0
281
1
  3
Standard
350
18
  0
DICTIONARY
  5
19
102
{ACAD_REACTORS
330
C
102
}
100
AcDbDictionary
281
1
  0
DICTIONARY
  5
1A
102
{ACAD_REACTORS
330
C
102
}
100
AcDbDictionary
281
1
  3
Model
350
451
  3
Layout1
350
452
  0
ACDBPLACEHOLDER
  5
F
102
{ACAD_REACTORS
330
E
102
}
  0
MLINESTYLE
  5
18
102
{ACAD_REACTORS
330
17
102
}
100
AcDbMlineStyle
  2
STANDARD
 70
0
  3

 62
256
 51
90.0
 52
90.0
 71
2
 49
0.5
 62
256
  6
BYLAYER
 49
-0.5
 62
256
  6
BYLAYER
  0
LAYOUT
  5
451
102
{ACAD_REACTORS
330
1A
102
}
100
AcDbPlotSettings
  1

  2
none_device
  4
ISO_A4_(297.00_x_210.00_MM)
  6

 40
0.0
 41
0.0
 42
0.0
 43
0.0
 44
297.0
 45
210.0
 46
0.0
 47
0.0
 48
0.0
 49
0.0
140
0.0
141
0.0
142
1.0
143
1.0
 70
1024
 72
1
 73
0
 74
0
  7

 75
0
147
1.0
148
0.0
149
0.0
100
AcDbLayout
  1
Model
 70
0
 71
0
 10
0.0
 20
0.0
 11
297.0
 21
210.0
 12
0.0
 22
0.0
 32
0.0
 14
0.0
 24
0.0
 34
0.0
 15
0.0
 25
0.0
 35
0.0
146
0.0
 13
0.0
 23
0.0
 33
0.0
 16
1.0
 26
0.0
 36
0.0
 17
0.0
 27
1.0
 37
0.0
 76
0
330
20D
345
0
346
0
  0
LAYOUT
  5
452
102
{ACAD_REACTORS
330
1A
102
}
100
AcDbPlotSettings
  1

  2
none_device
  4
ISO_A4_(297.00_x_210.00_MM)
  6

 40
0.0
 41
0.0
 42
0.0
 43
0.0
 44
297.0
 45
210.0
 46
0.0
 47
0.0
 48
0.0
 49
0.0
140
0.0
141
0.0
142
1.0
143
1.0
 70
0
 72
1
 73
0
 74
0
  7

 75
0
147
1.0
148
0.0
149
0.0
100
AcDbLayout
  1
Layout1
 70
0
 71
1
 10
0.0
 20
0.0
 11
297.0
 21
210.0
 12
0.0
 22
0.0
 32
0.0
 14
0.0
 24
0.0
 34
0.0
 15
0.0
 25
0.0
 35
0.0
146
0.0
 13
0.0
 23
0.0
 33
0.0
 16
1.0
 26
0.0
 36
0.0
 17
0.0
 27
1.0
 37
0.0
 76
0
330
20E
345
0
346
0
  0
ENDSEC
  0
EOF
