  0
SECTION
  2
HEADER
  9
$ACADVER
  1
AC1015
  9
$DWGCODEPAGE
  3
ANSI_1252
  9
$EXTMAX
 10
297.0
 20
210.0
 30
0.0
  9
$EXTMIN
 10
0.0
 20
0.0
 30
0.0
  9
$LIMMIN
 10
0.0
 20
0.0
  9
$LIMMAX
 10
297.0
 20
210.0
  9
$VIEWCTR
 10
148.5
 20
105.0
  9
$VIEWSIZE
 40
210.0
  9
$CLAYER
  8
0
  9
$LTSCALE
 40
16.335
  9
$CELTYPE
  6
BYLAYER
  9
$DIMSCALE
 40
1.0
  9
$DIMASZ
 40
3.0
  9
$DIMEXO
 40
1.85625
  9
$DIMDLI
 40
11.286
  9
$DIMEXE
 40
5.346
  9
$DIMCEN
 40
2.673
  9
$DIMLFAC
 40
1.0
  9
$DIMBLK
  1
_FILLED
  9
$DIMTXT
 40
3.0
  9
$DIMTOL
 70
1
  9
$DIMLIM
 70
0
  9
$DIMTFAC
 40
1.0
  9
$DIMTP
 40
0.01
  9
$DIMTM
 40
0.01
  9
$PDMODE
 70
3
  9
$PDSIZE
 40
3.0
  9
$HANDSEED
  5
734
  9
$TILEMODE
 70
1
  9
$MEASUREMENT
 70
1
  9
$INSUNITS
 70
4
  0
ENDSEC
  0
SECTION
  2
CLASSES
  0
CLASS
  1
ACDBDICTIONARYWDFLT
  2
AcDbDictionaryWithDefault
  3
AutoCAD 2000
 90
0
280
0
281
0
  0
CLASS
  1
ACDBPLACEHOLDER
  2
AcDbPlaceHolder
  3
AutoCAD 2000
 90
0
280
0
281
0
  0
CLASS
  1
LAYOUT
  2
AcDbLayout
  3
AutoCAD 2000
 90
0
280
0
281
0
  0
ENDSEC
  0
SECTION
  2
TABLES
  0
TABLE
  2
VPORT
  5
8
100
AcDbSymbolTable
 70
2
  0
VPORT
  5
1F4
100
AcDbSymbolTableRecord
100
AcDbViewportTableRecord
  2
*ACTIVE
 70
0
 10
0.0
 20
0.0
 11
1.0
 21
1.0
 12
148.5
 22
105.0
 13
0.0
 23
0.0
 14
1.0
 24
1.0
 15
0.0
 25
0.0
 16
0.0
 26
0.0
 36
1.0
 17
0.0
 27
0.0
 37
0.0
 40
210.0
 41
1.4142857143
 42
50.0
 43
0.0
 44
0.0
 50
0.0
 51
0.0
 71
0
 72
100
 73
1
 74
1
 75
0
 76
0
 77
0
 78
0
  0
ENDTAB
  0
TABLE
  2
LTYPE
  5
5
100
AcDbSymbolTable
 70
6
  0
LTYPE
  5
14
100
AcDbSymbolTableRecord
100
AcDbLinetypeTableRecord
  2
BYBLOCK
 70
0
  3

 72
65
 73
0
 40
0.0
  0
LTYPE
  5
15
100
AcDbSymbolTableRecord
100
AcDbLinetypeTableRecord
  2
BYLAYER
 70
0
  3

 72
65
 73
0
 40
0.0
  0
LTYPE
  5
16
100
AcDbSymbolTableRecord
100
AcDbLinetypeTableRecord
  2
CONTINUOUS
 70
64
  3
Solid line
 72
65
 73
0
 40
0.0
  0
LTYPE
  5
1F5
100
AcDbSymbolTableRecord
100
AcDbLinetypeTableRecord
  2
CENTER
 70
64
  3
____ _ ____ _ ____ _ ____ _ ____ _ ____ _ ____
 72
65
 73
4
 40
0.6
 49
0.375
 74
0
 49
-0.075
 74
0
 49
0.075
 74
0
 49
-0.075
 74
0
  0
LTYPE
  5
1F6
100
AcDbSymbolTableRecord
100
AcDbLinetypeTableRecord
  2
HIDDEN
 70
64
  3
- - - - - - - - - - - - - - - - - - - -
 72
65
 73
2
 40
0.2
 49
0.1
 74
0
 49
-0.1
 74
0
  0
LTYPE
  5
1F7
100
AcDbSymbolTableRecord
100
AcDbLinetypeTableRecord
  2
PHANTOM
 70
64
  3
_____ _ _ _____ _ _ _____ _ _ _____
 72
65
 73
6
 40
0.8
 49
0.45
 74
0
 49
-0.05
 74
0
 49
0.1
 74
0
 49
-0.05
 74
0
 49
0.1
 74
0
 49
-0.05
 74
0
  0
LTYPE
  5
1F8
100
AcDbSymbolTableRecord
100
AcDbLinetypeTableRecord
  2
DOT
 70
64
  3
. . . . . . . . . . . . . . . . . . . .
 72
65
 73
2
 40
0.2
 49
0.1
 74
0
 49
-0.1
 74
0
  0
LTYPE
  5
1F9
100
AcDbSymbolTableRecord
100
AcDbLinetypeTableRecord
  2
DASHED
 70
64
  3
- - - - - - - - - - - - - - - - - - - -
 72
65
 73
2
 40
0.2
 49
0.1
 74
0
 49
-0.1
 74
0
  0
ENDTAB
  0
TABLE
  2
LAYER
  5
2
100
AcDbSymbolTable
 70
36
  0
LAYER
  5
10
100
AcDbSymbolTableRecord
100
AcDbLayerTableRecord
  2
0
 70
0
 62
7
  6
CONTINUOUS
370
-3
390
F
  0
LAYER
  5
1FA
100
AcDbSymbolTableRecord
100
AcDbLayerTableRecord
  2
DEFAULT_1
 70
0
 62
7
  6
CENTER
370
-3
390
F
  0
LAYER
  5
1FB
100
AcDbSymbolTableRecord
100
AcDbLayerTableRecord
  2
DEFAULT_2
 70
0
 62
7
  6
HIDDEN
370
-3
390
F
  0
LAYER
  5
1FC
100
AcDbSymbolTableRecord
100
AcDbLayerTableRecord
  2
DEFAULT_3
 70
0
 62
7
  6
PHANTOM
370
-3
390
F
  0
LAYER
  5
1FD
100
AcDbSymbolTableRecord
100
AcDbLayerTableRecord
  2
ALTRI_PIANI
 70
0
 62
7
  6
CONTINUOUS
370
-3
390
F
  0
LAYER
  5
1FE
100
AcDbSymbolTableRecord
100
AcDbLayerTableRecord
  2
ASSI
 70
0
 62
7
  6
CONTINUOUS
370
-3
390
F
  0
LAYER
  5
1FF
100
AcDbSymbolTableRecord
100
AcDbLayerTableRecord
  2
COORDINATE
 70
0
 62
7
  6
CONTINUOUS
370
-3
390
F
  0
LAYER
  5
200
100
AcDbSymbolTableRecord
100
AcDbLayerTableRecord
  2
COORD_ORIGINE
 70
0
 62
7
  6
CONTINUOUS
370
-3
390
F
  0
LAYER
  5
201
100
AcDbSymbolTableRecord
100
AcDbLayerTableRecord
  2
COSMETICI
 70
0
 62
7
  6
CONTINUOUS
370
-3
390
F
  0
LAYER
  5
202
100
AcDbSymbolTableRecord
100
AcDbLayerTableRecord
  2
CURVE
 70
0
 62
7
  6
CONTINUOUS
370
-3
390
F
  0
LAYER
  5
203
100
AcDbSymbolTableRecord
100
AcDbLayerTableRecord
  2
DRAFT
 70
0
 62
7
  6
CONTINUOUS
370
-3
390
F
  0
LAYER
  5
204
100
AcDbSymbolTableRecord
100
AcDbLayerTableRecord
  2
NOTE
 70
0
 62
7
  6
CONTINUOUS
370
-3
390
F
  0
LAYER
  5
205
100
AcDbSymbolTableRecord
100
AcDbLayerTableRecord
  2
PIANI
 70
0
 62
7
  6
CONTINUOUS
370
-3
390
F
  0
LAYER
  5
206
100
AcDbSymbolTableRecord
100
AcDbLayerTableRecord
  2
PIANI_ORIGINE
 70
0
 62
7
  6
CONTINUOUS
370
-3
390
F
  0
LAYER
  5
207
100
AcDbSymbolTableRecord
100
AcDbLayerTableRecord
  2
PUNTI
 70
0
 62
7
  6
CONTINUOUS
370
-3
390
F
  0
LAYER
  5
208
100
AcDbSymbolTableRecord
100
AcDbLayerTableRecord
  2
RACCORDO
 70
0
 62
7
  6
CONTINUOUS
370
-3
390
F
  0
LAYER
  5
209
100
AcDbSymbolTableRecord
100
AcDbLayerTableRecord
  2
SIMBOLI
 70
0
 62
7
  6
CONTINUOUS
370
-3
390
F
  0
LAYER
  5
20A
100
AcDbSymbolTableRecord
100
AcDbLayerTableRecord
  2
SMUSSO
 70
0
 62
7
  6
CONTINUOUS
370
-3
390
F
  0
LAYER
  5
20B
100
AcDbSymbolTableRecord
100
AcDbLayerTableRecord
  2
SNAPLINE
 70
0
 62
7
  6
CONTINUOUS
370
-3
390
F
  0
LAYER
  5
20C
100
AcDbSymbolTableRecord
100
AcDbLayerTableRecord
  2
SUPERFICI
 70
0
 62
7
  6
CONTINUOUS
370
-3
390
F
  0
LAYER
  5
20D
100
AcDbSymbolTableRecord
100
AcDbLayerTableRecord
  2
TRASH
 70
0
 62
7
  6
CONTINUOUS
370
-3
390
F
  0
LAYER
  5
20E
100
AcDbSymbolTableRecord
100
AcDbLayerTableRecord
  2
VECCHIO_NETSAFE
 70
0
 62
7
  6
CONTINUOUS
370
-3
390
F
  0
ENDTAB
  0
TABLE
  2
STYLE
  5
3
100
AcDbSymbolTable
 70
1
  0
STYLE
  5
11
100
AcDbSymbolTableRecord
100
AcDbTextStyleTableRecord
  2
STANDARD
 70
0
 40
0.0
 41
0.8
 50
0.0
 71
0
 42
0.2
  3
txt
  4

  0
STYLE
  5
20F
100
AcDbSymbolTableRecord
100
AcDbTextStyleTableRecord
  2
TEXTSTYLE_1
 70
0
 40
0.0
 41
0.8
 50
0.0
 71
0
 42
0.2
  3
gdt
  4

  0
ENDTAB
  0
TABLE
  2
VIEW
  5
6
100
AcDbSymbolTable
 70
0
  0
ENDTAB
  0
TABLE
  2
UCS
  5
7
100
AcDbSymbolTable
 70
0
  0
ENDTAB
  0
TABLE
  2
APPID
  5
9
100
AcDbSymbolTable
 70
1
  0
APPID
  5
210
100
AcDbSymbolTableRecord
100
AcDbRegAppTableRecord
  2
ACAD
 70
0
  0
ENDTAB
  0
TABLE
  2
BLOCK_RECORD
  5
1
100
AcDbSymbolTable
 70
0
  0
BLOCK_RECORD
  5
211
100
AcDbSymbolTableRecord
100
AcDbBlockTableRecord
  2
*Model_Space
  0
BLOCK_RECORD
  5
212
100
AcDbSymbolTableRecord
100
AcDbBlockTableRecord
  2
*Paper_Space
  0
ENDTAB
  0
TABLE
  2
DIMSTYLE
  5
A
100
AcDbSymbolTable
 70
1
100
AcDbDimStyleTable
 71
0
  0
DIMSTYLE
105
213
100
AcDbSymbolTableRecord
100
AcDbDimStyleTableRecord
  2
STANDARD
 70
0
  3

  4

 40
1.0
 41
3.0
 42
0.0625
 43
0.38
 44
0.18
 45
0.0
 46
0.0
 47
0.01
 48
0.01
140
3.0
141
0.09
142
0.0
143
25.4
144
1.0
145
0.0
146
1.0
147
0.09
 71
1.0
 72
0.0
 73
0
 74
0
 75
0
 76
0
 77
1
 78
8
170
0
171
2
172
0
173
0
174
0
175
0
176
0
177
0
178
0
270
2
271
2
272
2
273
2
274
2
275
0
280
0
281
0
282
0
283
1
284
8
285
0
286
0
287
3
288
0
340
11
  0
ENDTAB
  0
ENDSEC
  0
SECTION
  2
BLOCKS
  0
BLOCK
  5
20
100
AcDbEntity
  8
0
100
AcDbBlockBegin
  2
*Model_Space
 70
0
 10
0.0
 20
0.0
 30
0.0
  3
*Model_Space
  1

  0
ENDBLK
  5
21
100
AcDbEntity
  8
0
100
AcDbBlockEnd
  0
BLOCK
  5
1C
100
AcDbEntity
  8
0
100
AcDbBlockBegin
  2
*Paper_Space
 70
0
 10
0.0
 20
0.0
 30
0.0
  3
*Paper_Space
  1

  0
ENDBLK
  5
1D
100
AcDbEntity
  8
0
100
AcDbBlockEnd
  0
ENDSEC
  0
SECTION
  2
ENTITIES
  0
LWPOLYLINE
  5
214
100
AcDbEntity
  8
RACCORDO
100
AcDbPolyline
 62
7
  6
CONTINUOUS
 90
13
 70
0
 10
-26.5594521452
 20
77.8904892507
 10
-26.5603372549
 20
77.8901588312
 10
-26.5612442124
 20
77.8897261923
 10
-26.5621199321
 20
77.8892018855
 10
-26.562939193
 20
77.8885963088
 10
-26.5637101855
 20
77.887898286
 10
-26.5644271646
 20
77.8871009063
 10
-26.5650732265
 20
77.8862074473
 10
-26.5656337864
 20
77.8852198905
 10
-26.5660975839
 20
77.8841294473
 10
-26.5664434286
 20
77.8829388553
 10
-26.5666462935
 20
77.8816656261
 10
-26.5666914859
 20
77.8807086784
  0
LWPOLYLINE
  5
215
100
AcDbEntity
  8
RACCORDO
100
AcDbPolyline
 62
7
  6
CONTINUOUS
 90
11
 70
0
 10
-26.5664612899
 20
77.8599971653
 10
-26.5672967752
 20
77.8597118829
 10
-26.5683180018
 20
77.8594151575
 10
-26.5695281201
 20
77.8591189377
 10
-26.570914302
 20
77.8588370484
 10
-26.57247221
 20
77.8585789989
 10
-26.5741954455
 20
77.8583542805
 10
-26.5760630738
 20
77.8581729245
 10
-26.5780603877
 20
77.8580415278
 10
-26.5801723401
 20
77.85796584
 10
-26.5823723888
 20
77.8579517927
  0
LINE
  5
216
100
AcDbEntity
  8
RACCORDO
100
AcDbLine
 62
7
  6
CONTINUOUS
 10
-26.7997949289
 20
77.8658157878
 11
-26.8028264489
 21
77.8648338283
  0
LWPOLYLINE
  5
217
100
AcDbEntity
  8
RACCORDO
100
AcDbPolyline
 62
253
  6
CONTINUOUS
 90
10
 70
0
 10
-26.7997785655
 20
77.8657656657
 10
-26.8054124762
 20
77.8639539474
 10
-26.8080865833
 20
77.86310972
 10
-26.810671365
 20
77.862307534
 10
-26.8131553323
 20
77.8615507376
 10
-26.8155098534
 20
77.8608459107
 10
-26.8177332226
 20
77.8601940518
 10
-26.8198200553
 20
77.8595973234
 10
-26.8217372133
 20
77.8590641428
 10
-26.8234767661
 20
77.8585973054
  0
LINE
  5
218
100
AcDbEntity
  8
RACCORDO
100
AcDbLine
 62
7
  6
CONTINUOUS
 10
-26.8028264489
 20
77.8648338283
 11
-26.8059713971
 21
77.8638316908
  0
LINE
  5
219
100
AcDbEntity
  8
RACCORDO
100
AcDbLine
 62
7
  6
CONTINUOUS
 10
-26.7895829684
 20
77.869047815
 11
-26.7997950393
 21
77.8658161259
  0
LINE
  5
21A
100
AcDbEntity
  8
RACCORDO
100
AcDbLine
 62
7
  6
CONTINUOUS
 10
-19.2895829684
 20
77.869047815
 11
-19.2997950393
 21
77.8658161259
  0
LINE
  5
21B
100
AcDbEntity
  8
RACCORDO
100
AcDbLine
 62
7
  6
CONTINUOUS
 10
-19.3049375268
 20
77.8641592738
 11
-19.3079908677
 21
77.8631973222
  0
LWPOLYLINE
  5
21C
100
AcDbEntity
  8
RACCORDO
100
AcDbPolyline
 62
253
  6
CONTINUOUS
 90
5
 70
0
 10
-26.8302930763
 20
77.8574014137
 10
-26.8290603142
 20
77.8577872973
 10
-26.827788015
 20
77.8580112719
 10
-26.8264974142
 20
77.8580695992
 10
-26.8262152423
 20
77.8580458627
  0
LWPOLYLINE
  5
21D
100
AcDbEntity
  8
RACCORDO
100
AcDbPolyline
 62
253
  6
CONTINUOUS
 90
5
 70
0
 10
-19.3302930763
 20
77.8574014137
 10
-19.3290603142
 20
77.8577872973
 10
-19.327788015
 20
77.8580112719
 10
-19.3264974142
 20
77.8580695992
 10
-19.3262152423
 20
77.8580458627
  0
LINE
  5
21E
100
AcDbEntity
  8
RACCORDO
100
AcDbLine
 62
7
  6
CONTINUOUS
 10
-26.8059713971
 20
77.8638316908
 11
-26.8089749445
 21
77.8628909553
  0
LINE
  5
21F
100
AcDbEntity
  8
RACCORDO
100
AcDbLine
 62
7
  6
CONTINUOUS
 10
-19.3079908677
 20
77.8631973222
 11
-19.3108877356
 21
77.8623009461
  0
LINE
  5
220
100
AcDbEntity
  8
RACCORDO
100
AcDbLine
 62
7
  6
CONTINUOUS
 10
-26.8089749445
 20
77.8628909553
 11
-26.8118150318
 21
77.8620176728
  0
LINE
  5
221
100
AcDbEntity
  8
RACCORDO
100
AcDbLine
 62
7
  6
CONTINUOUS
 10
-19.3108877356
 20
77.8623009461
 11
-19.3136079001
 21
77.8614755509
  0
LINE
  5
222
100
AcDbEntity
  8
RACCORDO
100
AcDbLine
 62
7
  6
CONTINUOUS
 10
-26.8118150318
 20
77.8620176728
 11
-26.8144718021
 21
77.8612172242
  0
LINE
  5
223
100
AcDbEntity
  8
RACCORDO
100
AcDbLine
 62
7
  6
CONTINUOUS
 10
-19.3136079001
 20
77.8614755509
 11
-19.3153128776
 21
77.8609677207
  0
LINE
  5
224
100
AcDbEntity
  8
RACCORDO
100
AcDbLine
 62
7
  6
CONTINUOUS
 10
-26.8144718021
 20
77.8612172242
 11
-26.8161305385
 21
77.8607271812
  0
LINE
  5
225
100
AcDbEntity
  8
RACCORDO
100
AcDbLine
 62
7
  6
CONTINUOUS
 10
-19.3153128776
 20
77.8609677207
 11
-19.3169244002
 21
77.8604956685
  0
LWPOLYLINE
  5
226
100
AcDbEntity
  8
RACCORDO
100
AcDbPolyline
 62
7
  6
CONTINUOUS
 90
3
 70
0
 10
-26.8161305385
 20
77.8607271812
 10
-26.817693943
 20
77.8602732703
 10
-26.8184384639
 20
77.8600601144
  0
LINE
  5
227
100
AcDbEntity
  8
RACCORDO
100
AcDbLine
 62
7
  6
CONTINUOUS
 10
-19.3169244002
 20
77.8604956685
 11
-19.3184384639
 21
77.8600601144
  0
LWPOLYLINE
  5
228
100
AcDbEntity
  8
RACCORDO
100
AcDbPolyline
 62
7
  6
CONTINUOUS
 90
10
 70
0
 10
36.9169988425
 20
-128.8518996056
 10
36.9182031489
 20
-128.8517077222
 10
36.9193937409
 20
-128.8513618775
 10
36.9204841841
 20
-128.85089808
 10
36.9214717408
 20
-128.8503375201
 10
36.9223651999
 20
-128.8496914582
 10
36.9231625796
 20
-128.8489744791
 10
36.9238606024
 20
-128.8482034866
 10
36.9244661791
 20
-128.8473842257
 10
36.9249904859
 20
-128.846508506
  0
LINE
  5
229
100
AcDbEntity
  8
ASSI
100
AcDbLine
 62
7
  6
CONTINUOUS
 10
-41.9187971827
 20
-133.9519557879
 11
-41.8666557809
 21
-133.9519557879
  0
LINE
  5
22A
100
AcDbEntity
  8
0
100
AcDbLine
 62
7
  6
CONTINUOUS
 10
25.0368082306
 20
-133.9519557879
 11
36.3333085057
 21
-133.9519557879
  0
LINE
  5
22B
100
AcDbEntity
  8
0
100
AcDbLine
 62
7
  6
CONTINUOUS
 10
-31.7701912191
 20
-133.9519557879
 11
-41.8666557809
 21
-133.9519557879
  0
LINE
  5
22C
100
AcDbEntity
  8
0
100
AcDbLine
 62
7
  6
CONTINUOUS
 10
-41.9187971827
 20
-133.9519557879
 11
-43.0666914943
 21
-133.9519557879
  0
LINE
  5
22D
100
AcDbEntity
  8
0
100
AcDbLine
 62
7
  6
CONTINUOUS
 10
-31.2166914943
 20
-133.9019557879
 11
24.4833085057
 21
-133.9019557879
  0
LWPOLYLINE
  5
22E
100
AcDbEntity
  8
RACCORDO
100
AcDbPolyline
 62
253
  6
CONTINUOUS
 90
11
 70
0
 10
-43.6344129479
 20
-128.8409267641
 10
-43.6334978154
 20
-128.8410786695
 10
-43.6326187698
 20
-128.8414553179
 10
-43.6317776627
 20
-128.8420608016
 10
-43.6309730851
 20
-128.8429118641
 10
-43.6302097678
 20
-128.8439989355
 10
-43.6294989055
 20
-128.8452833484
 10
-43.6288429011
 20
-128.8467648307
 10
-43.6282425946
 20
-128.8484420996
 10
-43.6277070828
 20
-128.8502695919
 10
-43.627306886
 20
-128.8519557879
  0
LINE
  5
22F
100
AcDbEntity
  8
RACCORDO
100
AcDbLine
 62
253
  6
CONTINUOUS
 10
-43.6519880226
 20
-128.8515909821
 11
-43.6510222589
 21
-128.8517975655
  0
LINE
  5
230
100
AcDbEntity
  8
RACCORDO
100
AcDbLine
 62
253
  6
CONTINUOUS
 10
-43.6344129412
 20
-128.7188687188
 11
-43.6344634052
 21
-128.7188522435
  0
LINE
  5
231
100
AcDbEntity
  8
0
100
AcDbLine
 62
7
  6
CONTINUOUS
 10
-46.3866914943
 20
67.6230442121
 11
-45.9316914943
 21
68.0380442121
  0
LWPOLYLINE
  5
232
100
AcDbEntity
  8
RACCORDO
100
AcDbPolyline
 62
7
  6
CONTINUOUS
 90
11
 70
0
 10
-26.5612051568
 20
77.8897470247
 10
-26.5620740467
 20
77.8892322901
 10
-26.562888238
 20
77.8886376913
 10
-26.5636559973
 20
77.8879521393
 10
-26.5643717419
 20
77.8871688311
 10
-26.565018954
 20
77.8862908563
 10
-26.5655835515
 20
77.8853198215
 10
-26.5660548225
 20
77.8842466853
 10
-26.5664121163
 20
77.8830736548
 10
-26.5666307733
 20
77.88181742
 10
-26.5666914727
 20
77.8807091196
  0
LWPOLYLINE
  5
233
100
AcDbEntity
  8
RACCORDO
100
AcDbPolyline
 62
7
  6
CONTINUOUS
 90
11
 70
0
 10
-19.0612051568
 20
77.8897470247
 10
-19.0620740467
 20
77.8892322901
 10
-19.062888238
 20
77.8886376913
 10
-19.0636559973
 20
77.8879521393
 10
-19.0643717419
 20
77.8871688311
 10
-19.065018954
 20
77.8862908563
 10
-19.0655835515
 20
77.8853198215
 10
-19.0660548225
 20
77.8842466853
 10
-19.0664121163
 20
77.8830736548
 10
-19.0666307733
 20
77.88181742
 10
-19.0666914727
 20
77.8807091196
  0
LINE
  5
234
100
AcDbEntity
  8
0
100
AcDbLine
 62
7
  6
CONTINUOUS
 10
-43.8766914943
 20
67.6880442121
 11
-43.7766914943
 21
67.7447108788
  0
LWPOLYLINE
  5
235
100
AcDbEntity
  8
RACCORDO
100
AcDbPolyline
 62
7
  6
CONTINUOUS
 90
4
 70
0
 10
-26.5650618419
 20
77.8606265307
 10
-26.5653419585
 20
77.8604748792
 10
-26.5658075267
 20
77.8602581621
 10
-26.5664612899
 20
77.8599971653
  0
LWPOLYLINE
  5
236
100
AcDbEntity
  8
RACCORDO
100
AcDbPolyline
 62
7
  6
CONTINUOUS
 90
4
 70
0
 10
-19.0650618419
 20
77.8606265307
 10
-19.0653419585
 20
77.8604748792
 10
-19.0658075267
 20
77.8602581621
 10
-19.0664612899
 20
77.8599971653
  0
LWPOLYLINE
  5
237
100
AcDbEntity
  8
RACCORDO
100
AcDbPolyline
 62
7
  6
CONTINUOUS
 90
13
 70
0
 10
-19.0594521452
 20
77.8904892507
 10
-19.0603372549
 20
77.8901588312
 10
-19.0612442124
 20
77.8897261923
 10
-19.0621199321
 20
77.8892018855
 10
-19.062939193
 20
77.8885963088
 10
-19.0637101855
 20
77.887898286
 10
-19.0644271646
 20
77.8871009063
 10
-19.0650732265
 20
77.8862074473
 10
-19.0656337864
 20
77.8852198905
 10
-19.0660975839
 20
77.8841294473
 10
-19.0664434286
 20
77.8829388553
 10
-19.0666462935
 20
77.8816656261
 10
-19.0666914859
 20
77.8807086784
  0
LWPOLYLINE
  5
238
100
AcDbEntity
  8
RACCORDO
100
AcDbPolyline
 62
7
  6
CONTINUOUS
 90
11
 70
0
 10
-19.0664612899
 20
77.8599971653
 10
-19.0672967752
 20
77.8597118829
 10
-19.0683180018
 20
77.8594151575
 10
-19.0695281201
 20
77.8591189377
 10
-19.070914302
 20
77.8588370484
 10
-19.07247221
 20
77.8585789989
 10
-19.0741954455
 20
77.8583542805
 10
-19.0760630738
 20
77.8581729245
 10
-19.0780603877
 20
77.8580415278
 10
-19.0801723401
 20
77.85796584
 10
-19.0823723888
 20
77.8579517927
  0
LINE
  5
239
100
AcDbEntity
  8
RACCORDO
100
AcDbLine
 62
7
  6
CONTINUOUS
 10
-19.2997949289
 20
77.8658157878
 11
-19.3028264489
 21
77.8648338283
  0
LWPOLYLINE
  5
23A
100
AcDbEntity
  8
RACCORDO
100
AcDbPolyline
 62
253
  6
CONTINUOUS
 90
10
 70
0
 10
-19.2997785655
 20
77.8657656657
 10
-19.3054124762
 20
77.8639539474
 10
-19.3080865833
 20
77.86310972
 10
-19.310671365
 20
77.862307534
 10
-19.3131553323
 20
77.8615507376
 10
-19.3155098534
 20
77.8608459107
 10
-19.3177332226
 20
77.8601940518
 10
-19.3198200553
 20
77.8595973234
 10
-19.3217372133
 20
77.8590641428
 10
-19.3234767661
 20
77.8585973054
  0
LINE
  5
23B
100
AcDbEntity
  8
RACCORDO
100
AcDbLine
 62
7
  6
CONTINUOUS
 10
-19.3028264489
 20
77.8648338283
 11
-19.3049375268
 21
77.8641592738
  0
LWPOLYLINE
  5
23C
100
AcDbEntity
  8
RACCORDO
100
AcDbPolyline
 62
253
  6
CONTINUOUS
 90
22
 70
0
 10
36.9258476513
 20
-128.8409267641
 10
36.9259119033
 20
-128.8409188582
 10
36.9259733902
 20
-128.8408736098
 10
36.9260321428
 20
-128.8407915706
 10
36.9260889134
 20
-128.8406772102
 10
36.9261430028
 20
-128.8405271949
 10
36.926192287
 20
-128.8403302712
 10
36.9262370607
 20
-128.8400866615
 10
36.9262771183
 20
-128.8397970541
 10
36.9263096271
 20
-128.8394504438
 10
36.9263348097
 20
-128.839045091
 10
36.9263525342
 20
-128.8385828579
 10
36.9263594546
 20
-128.8380571203
 10
36.9263553668
 20
-128.8374622251
 10
36.9263404815
 20
-128.8368024113
 10
36.9263120411
 20
-128.8360843352
 10
36.9262689132
 20
-128.8352983261
 10
36.9262120183
 20
-128.8344508235
 10
36.926141615
 20
-128.8335713706
 10
36.9260576497
 20
-128.8326684949
 10
36.9259597511
 20
-128.8317302392
 10
36.9258476513
 20
-128.8307552602
  0
LINE
  5
23D
100
AcDbEntity
  8
RACCORDO
100
AcDbLine
 62
253
  6
CONTINUOUS
 10
36.9258476499
 20
-128.8307552603
 11
36.9259003471
 21
-128.8307488533
  0
LINE
  5
23E
100
AcDbEntity
  8
RACCORDO
100
AcDbLine
 62
253
  6
CONTINUOUS
 10
36.8926649158
 20
-128.8714413198
 11
36.8933353071
 21
-128.8714043047
  0
LINE
  5
23F
100
AcDbEntity
  8
RACCORDO
100
AcDbLine
 62
253
  6
CONTINUOUS
 10
-43.6260479044
 20
-128.9324702559
 11
-43.6267182956
 21
-128.932507271
  0
LWPOLYLINE
  5
240
100
AcDbEntity
  8
RACCORDO
100
AcDbPolyline
 62
7
  6
CONTINUOUS
 90
16
 70
0
 10
36.9159734132
 20
-128.8519557663
 10
36.9170817136
 20
-128.8518950669
 10
36.9183379484
 20
-128.8516764099
 10
36.9195109789
 20
-128.8513191161
 10
36.9205841151
 20
-128.8508478451
 10
36.9215551499
 20
-128.8502832476
 10
36.9224331247
 20
-128.8496360355
 10
36.9232164329
 20
-128.8489202909
 10
36.9239019849
 20
-128.8481525316
 10
36.9244965837
 20
-128.8473383403
 10
36.9250113182
 20
-128.8464694504
 10
36.9254361806
 20
-128.8455705329
 10
36.9257608922
 20
-128.8446938826
 10
36.9259990786
 20
-128.8438591491
 10
36.9261733069
 20
-128.843047496
 10
36.926297781
 20
-128.8422484227
  0
LWPOLYLINE
  5
241
100
AcDbEntity
  8
RACCORDO
100
AcDbPolyline
 62
7
  6
CONTINUOUS
 90
16
 70
0
 10
-43.6493564017
 20
-128.9519558094
 10
-43.6504647021
 20
-128.9520165088
 10
-43.6517209369
 20
-128.9522351658
 10
-43.6528939674
 20
-128.9525924596
 10
-43.6539671036
 20
-128.9530637306
 10
-43.6549381384
 20
-128.9536283281
 10
-43.6558161132
 20
-128.9542755403
 10
-43.6565994214
 20
-128.9549912848
 10
-43.6572849735
 20
-128.9557590441
 10
-43.6578795722
 20
-128.9565732355
 10
-43.6583943068
 20
-128.9574421253
 10
-43.6588191691
 20
-128.9583410428
 10
-43.6591438807
 20
-128.9592176932
 10
-43.6593820672
 20
-128.9600524266
 10
-43.6595562954
 20
-128.9608640797
 10
-43.6596807695
 20
-128.961663153
  0
LWPOLYLINE
  5
242
100
AcDbEntity
  8
RACCORDO
100
AcDbPolyline
 62
7
  6
CONTINUOUS
 90
11
 70
0
 10
-43.6493559606
 20
-128.9519557963
 10
-43.6503129082
 20
-128.9520009886
 10
-43.6515861374
 20
-128.9522038535
 10
-43.6527767295
 20
-128.9525496982
 10
-43.6538671727
 20
-128.9530134957
 10
-43.6548547294
 20
-128.9535740556
 10
-43.6557481884
 20
-128.9542201176
 10
-43.6565455681
 20
-128.9549370966
 10
-43.6572435909
 20
-128.9557080891
 10
-43.6578491676
 20
-128.95652735
 10
-43.6583734744
 20
-128.9574030697
  0
LWPOLYLINE
  5
243
100
AcDbEntity
  8
RACCORDO
100
AcDbPolyline
 62
253
  6
CONTINUOUS
 90
16
 70
0
 10
24.0469097817
 20
-128.9324702559
 10
24.0456770141
 20
-128.9324915714
 10
24.0444046892
 20
-128.9325039441
 10
24.0431140464
 20
-128.9325071674
 10
24.0418266303
 20
-128.9325011875
 10
24.0405639321
 20
-128.9324861043
 10
24.03934703
 20
-128.9324621693
 10
24.0381962381
 20
-128.9324297822
 10
24.0371307666
 20
-128.9323894835
 10
24.0361684015
 20
-128.932341946
 10
24.0353252078
 20
-128.932287963
 10
24.034615261
 20
-128.9322284357
 10
24.0340504123
 20
-128.9321643578
 10
24.0336400908
 20
-128.9320967988
 10
24.0333911461
 20
-128.9320268865
 10
24.0333077339
 20
-128.9319557879
  0
LWPOLYLINE
  5
244
100
AcDbEntity
  8
RACCORDO
100
AcDbPolyline
 62
253
  6
CONTINUOUS
 90
16
 70
0
 10
23.6197072297
 20
-128.8714413198
 10
23.6209399974
 20
-128.8714200044
 10
23.6222123222
 20
-128.8714076317
 10
23.6235029651
 20
-128.8714044083
 10
23.6247903812
 20
-128.8714103882
 10
23.6260530794
 20
-128.8714254715
 10
23.6272699814
 20
-128.8714494064
 10
23.6284207734
 20
-128.8714817935
 10
23.6294862449
 20
-128.8715220922
 10
23.63044861
 20
-128.8715696297
 10
23.6312918037
 20
-128.8716236127
 10
23.6320017505
 20
-128.87168314
 10
23.6325665992
 20
-128.8717472179
 10
23.6329769206
 20
-128.8718147769
 10
23.6332258653
 20
-128.8718846892
 10
23.6333092776
 20
-128.8719557878
  0
LWPOLYLINE
  5
245
100
AcDbEntity
  8
RACCORDO
100
AcDbPolyline
 62
253
  6
CONTINUOUS
 90
16
 70
0
 10
-30.3530902183
 20
-128.9324702559
 10
-30.3543229859
 20
-128.9324915714
 10
-30.3555953108
 20
-128.9325039441
 10
-30.3568859536
 20
-128.9325071674
 10
-30.3581733697
 20
-128.9325011875
 10
-30.3594360679
 20
-128.9324861043
 10
-30.36065297
 20
-128.9324621693
 10
-30.3618037619
 20
-128.9324297822
 10
-30.3628692334
 20
-128.9323894835
 10
-30.3638315985
 20
-128.932341946
 10
-30.3646747922
 20
-128.932287963
 10
-30.365384739
 20
-128.9322284357
 10
-30.3659495877
 20
-128.9321643578
 10
-30.3663599092
 20
-128.9320967988
 10
-30.3666088539
 20
-128.9320268865
 10
-30.3666922661
 20
-128.9319557879
  0
LWPOLYLINE
  5
246
100
AcDbEntity
  8
RACCORDO
100
AcDbPolyline
 62
253
  6
CONTINUOUS
 90
16
 70
0
 10
-30.7802927703
 20
-128.8714413198
 10
-30.7790600026
 20
-128.8714200044
 10
-30.7777876778
 20
-128.8714076317
 10
-30.7764970349
 20
-128.8714044083
 10
-30.7752096188
 20
-128.8714103882
 10
-30.7739469206
 20
-128.8714254715
 10
-30.7727300186
 20
-128.8714494064
 10
-30.7715792266
 20
-128.8714817935
 10
-30.7705137551
 20
-128.8715220922
 10
-30.76955139
 20
-128.8715696297
 10
-30.7687081963
 20
-128.8716236127
 10
-30.7679982495
 20
-128.87168314
 10
-30.7674334008
 20
-128.8717472179
 10
-30.7670230794
 20
-128.8718147769
 10
-30.7667741347
 20
-128.8718846892
 10
-30.7666907224
 20
-128.8719557878
  0
LWPOLYLINE
  5
247
100
AcDbEntity
  8
RACCORDO
100
AcDbPolyline
 62
253
  6
CONTINUOUS
 90
22
 70
0
 10
23.9045090334
 20
-128.9629848116
 10
23.9039717345
 20
-128.9629927175
 10
23.9034208381
 20
-128.9630379659
 10
23.9028561795
 20
-128.9631200051
 10
23.9022748785
 20
-128.9632343655
 10
23.9016793505
 20
-128.9633843808
 10
23.9010771222
 20
-128.9635813045
 10
23.9004652448
 20
-128.9638249142
 10
23.8998454026
 20
-128.9641145216
 10
23.8992315251
 20
-128.9644611319
 10
23.8986192102
 20
-128.9648664847
 10
23.8980104269
 20
-128.9653287178
 10
23.8974280403
 20
-128.9658544554
 10
23.8968673501
 20
-128.9664493506
 10
23.8963293981
 20
-128.9671091644
 10
23.8958455723
 20
-128.9678272405
 10
23.8954154032
 20
-128.9686132496
 10
23.895035692
 20
-128.9694607523
 10
23.8947352279
 20
-128.9703402051
 10
23.89452392
 20
-128.9712430808
 10
23.8943914144
 20
-128.9721813365
 10
23.8943375295
 20
-128.9731563156
  0
LWPOLYLINE
  5
248
100
AcDbEntity
  8
RACCORDO
100
AcDbPolyline
 62
253
  6
CONTINUOUS
 90
22
 70
0
 10
23.762107978
 20
-128.8409267641
 10
23.7626452769
 20
-128.8409188582
 10
23.7631961734
 20
-128.8408736098
 10
23.763760832
 20
-128.8407915706
 10
23.7643421329
 20
-128.8406772102
 10
23.764937661
 20
-128.8405271949
 10
23.7655398893
 20
-128.8403302712
 10
23.7661517667
 20
-128.8400866615
 10
23.7667716089
 20
-128.8397970541
 10
23.7673854864
 20
-128.8394504438
 10
23.7679978012
 20
-128.839045091
 10
23.7686065846
 20
-128.8385828579
 10
23.7691889711
 20
-128.8380571203
 10
23.7697496613
 20
-128.8374622251
 10
23.7702876134
 20
-128.8368024113
 10
23.7707714391
 20
-128.8360843352
 10
23.7712016082
 20
-128.8352983261
 10
23.7715813194
 20
-128.8344508235
 10
23.7718817836
 20
-128.8335713706
 10
23.7720930915
 20
-128.8326684949
 10
23.7722255971
 20
-128.8317302392
 10
23.772279482
 20
-128.8307552602
  0
LWPOLYLINE
  5
249
100
AcDbEntity
  8
RACCORDO
100
AcDbPolyline
 62
253
  6
CONTINUOUS
 90
22
 70
0
 10
-30.4954909666
 20
-128.9629848116
 10
-30.4960282655
 20
-128.9629927175
 10
-30.4965791619
 20
-128.9630379659
 10
-30.4971438205
 20
-128.9631200051
 10
-30.4977251215
 20
-128.9632343655
 10
-30.4983206495
 20
-128.9633843808
 10
-30.4989228778
 20
-128.9635813045
 10
-30.4995347552
 20
-128.9638249142
 10
-30.5001545974
 20
-128.9641145216
 10
-30.5007684749
 20
-128.9644611319
 10
-30.5013807898
 20
-128.9648664847
 10
-30.5019895731
 20
-128.9653287178
 10
-30.5025719597
 20
-128.9658544554
 10
-30.5031326499
 20
-128.9664493506
 10
-30.5036706019
 20
-128.9671091644
 10
-30.5041544277
 20
-128.9678272405
 10
-30.5045845968
 20
-128.9686132496
 10
-30.504964308
 20
-128.9694607523
 10
-30.5052647721
 20
-128.9703402051
 10
-30.50547608
 20
-128.9712430808
 10
-30.5056085856
 20
-128.9721813365
 10
-30.5056624705
 20
-128.9731563156
  0
LWPOLYLINE
  5
24A
100
AcDbEntity
  8
RACCORDO
100
AcDbPolyline
 62
253
  6
CONTINUOUS
 90
22
 70
0
 10
-30.637892022
 20
-128.8409267641
 10
-30.6373547231
 20
-128.8409188582
 10
-30.6368038266
 20
-128.8408736098
 10
-30.636239168
 20
-128.8407915706
 10
-30.6356578671
 20
-128.8406772102
 10
-30.635062339
 20
-128.8405271949
 10
-30.6344601107
 20
-128.8403302712
 10
-30.6338482333
 20
-128.8400866615
 10
-30.6332283911
 20
-128.8397970541
 10
-30.6326145136
 20
-128.8394504438
 10
-30.6320021988
 20
-128.839045091
 10
-30.6313934154
 20
-128.8385828579
 10
-30.6308110289
 20
-128.8380571203
 10
-30.6302503387
 20
-128.8374622251
 10
-30.6297123866
 20
-128.8368024113
 10
-30.6292285609
 20
-128.8360843352
 10
-30.6287983918
 20
-128.8352983261
 10
-30.6284186806
 20
-128.8344508235
 10
-30.6281182164
 20
-128.8335713706
 10
-30.6279069085
 20
-128.8326684949
 10
-30.6277744029
 20
-128.8317302392
 10
-30.627720518
 20
-128.8307552602
  0
LWPOLYLINE
  5
24B
100
AcDbEntity
  8
RACCORDO
100
AcDbPolyline
 62
253
  6
CONTINUOUS
 90
13
 70
0
 10
23.8943374816
 20
-129.0850427156
 10
23.8929444504
 20
-129.0850571766
 10
23.8915584724
 20
-129.0850113828
 10
23.8902064749
 20
-129.0849062239
 10
23.888914725
 20
-129.084743743
 10
23.8877083194
 20
-129.0845270968
 10
23.8866106965
 20
-129.0842604945
 10
23.8856431815
 20
-129.0839491158
 10
23.8848245716
 20
-129.0835990101
 10
23.884170771
 20
-129.0832169795
 10
23.8836944821
 20
-129.0828104463
 10
23.8834049584
 20
-129.0823873088
 10
23.8833078248
 20
-129.0819557878
  0
LWPOLYLINE
  5
24C
100
AcDbEntity
  8
RACCORDO
100
AcDbPolyline
 62
253
  6
CONTINUOUS
 90
13
 70
0
 10
23.7722795299
 20
-128.7188688601
 10
23.773672561
 20
-128.7188543991
 10
23.7750585391
 20
-128.7189001929
 10
23.7764105366
 20
-128.7190053518
 10
23.7777022865
 20
-128.7191678327
 10
23.7789086921
 20
-128.7193844789
 10
23.7800063149
 20
-128.7196510812
 10
23.78097383
 20
-128.71996246
 10
23.7817924399
 20
-128.7203125656
 10
23.7824462405
 20
-128.7206945962
 10
23.7829225294
 20
-128.7211011294
 10
23.7832120531
 20
-128.7215242669
 10
23.7833091866
 20
-128.7219557879
  0
LWPOLYLINE
  5
24D
100
AcDbEntity
  8
RACCORDO
100
AcDbPolyline
 62
253
  6
CONTINUOUS
 90
13
 70
0
 10
-30.5056625184
 20
-129.0850427156
 10
-30.5070555496
 20
-129.0850571766
 10
-30.5084415276
 20
-129.0850113828
 10
-30.5097935251
 20
-129.0849062239
 10
-30.511085275
 20
-129.084743743
 10
-30.5122916806
 20
-129.0845270968
 10
-30.5133893035
 20
-129.0842604945
 10
-30.5143568185
 20
-129.0839491158
 10
-30.5151754284
 20
-129.0835990101
 10
-30.515829229
 20
-129.0832169795
 10
-30.5163055179
 20
-129.0828104463
 10
-30.5165950416
 20
-129.0823873088
 10
-30.5166921752
 20
-129.0819557878
  0
LWPOLYLINE
  5
24E
100
AcDbEntity
  8
RACCORDO
100
AcDbPolyline
 62
253
  6
CONTINUOUS
 90
13
 70
0
 10
-30.6277204701
 20
-128.7188688601
 10
-30.626327439
 20
-128.7188543991
 10
-30.6249414609
 20
-128.7189001929
 10
-30.6235894634
 20
-128.7190053518
 10
-30.6222977135
 20
-128.7191678327
 10
-30.6210913079
 20
-128.7193844789
 10
-30.6199936851
 20
-128.7196510812
 10
-30.61902617
 20
-128.71996246
 10
-30.6182075601
 20
-128.7203125656
 10
-30.6175537595
 20
-128.7206945962
 10
-30.6170774706
 20
-128.7211011294
 10
-30.6167879469
 20
-128.7215242669
 10
-30.6166908134
 20
-128.7219557879
  0
LWPOLYLINE
  5
24F
100
AcDbEntity
  8
RACCORDO
100
AcDbPolyline
 62
253
  6
CONTINUOUS
 90
13
 70
0
 10
23.8943375293
 20
-128.9731563154
 10
23.8929445336
 20
-128.9731619227
 10
23.8915586085
 20
-128.9731440998
 10
23.8902066767
 20
-128.9731031927
 10
23.8889150009
 20
-128.9730399962
 10
23.8877086732
 20
-128.9729557378
 10
23.8866111275
 20
-128.9728520545
 10
23.8856436848
 20
-128.9727309604
 10
23.8848251386
 20
-128.9725948078
 10
23.8841713899
 20
-128.9724462416
 10
23.8836951384
 20
-128.9722881479
 10
23.8834056357
 20
-128.9721235978
 10
23.8833085057
 20
-128.9719557879
  0
LWPOLYLINE
  5
250
100
AcDbEntity
  8
RACCORDO
100
AcDbPolyline
 62
253
  6
CONTINUOUS
 90
13
 70
0
 10
23.7722794821
 20
-128.8307552603
 10
23.7736724778
 20
-128.830749653
 10
23.775058403
 20
-128.830767476
 10
23.7764103348
 20
-128.830808383
 10
23.7777020106
 20
-128.8308715796
 10
23.7789083383
 20
-128.8309558379
 10
23.780005884
 20
-128.8310595212
 10
23.7809733266
 20
-128.8311806153
 10
23.7817918729
 20
-128.8313167679
 10
23.7824456216
 20
-128.8314653341
 10
23.7829218731
 20
-128.8316234278
 10
23.7832113758
 20
-128.8317879779
 10
23.7833085057
 20
-128.8319557879
  0
LWPOLYLINE
  5
251
100
AcDbEntity
  8
RACCORDO
100
AcDbPolyline
 62
253
  6
CONTINUOUS
 90
13
 70
0
 10
-30.5056624707
 20
-128.9731563154
 10
-30.5070554664
 20
-128.9731619227
 10
-30.5084413915
 20
-128.9731440998
 10
-30.5097933233
 20
-128.9731031927
 10
-30.5110849991
 20
-128.9730399962
 10
-30.5122913268
 20
-128.9729557378
 10
-30.5133888725
 20
-128.9728520545
 10
-30.5143563152
 20
-128.9727309604
 10
-30.5151748614
 20
-128.9725948078
 10
-30.5158286101
 20
-128.9724462416
 10
-30.5163048616
 20
-128.9722881479
 10
-30.5165943643
 20
-128.9721235978
 10
-30.5166914943
 20
-128.9719557879
  0
LWPOLYLINE
  5
252
100
AcDbEntity
  8
RACCORDO
100
AcDbPolyline
 62
253
  6
CONTINUOUS
 90
13
 70
0
 10
-30.6277205179
 20
-128.8307552603
 10
-30.6263275222
 20
-128.830749653
 10
-30.624941597
 20
-128.830767476
 10
-30.6235896652
 20
-128.830808383
 10
-30.6222979894
 20
-128.8308715796
 10
-30.6210916617
 20
-128.8309558379
 10
-30.619994116
 20
-128.8310595212
 10
-30.6190266734
 20
-128.8311806153
 10
-30.6182081271
 20
-128.8313167679
 10
-30.6175543784
 20
-128.8314653341
 10
-30.6170781269
 20
-128.8316234278
 10
-30.6167886242
 20
-128.8317879779
 10
-30.6166914943
 20
-128.8319557879
  0
LINE
  5
253
100
AcDbEntity
  8
RACCORDO
100
AcDbLine
 62
253
  6
CONTINUOUS
 10
-43.6260486984
 20
-129.115557371
 11
-43.6268898156
 21
-129.1155599559
  0
LINE
  5
254
100
AcDbEntity
  8
RACCORDO
100
AcDbLine
 62
253
  6
CONTINUOUS
 10
36.8926657099
 20
-128.6883542047
 11
36.8935068271
 21
-128.6883516199
  0
LINE
  5
255
100
AcDbEntity
  8
RACCORDO
100
AcDbLine
 62
253
  6
CONTINUOUS
 10
36.8929990697
 20
-129.1155565767
 11
36.8926657099
 21
-129.115557371
  0
LINE
  5
256
100
AcDbEntity
  8
RACCORDO
100
AcDbLine
 62
253
  6
CONTINUOUS
 10
-43.6263820582
 20
-128.688354999
 11
-43.6260486984
 21
-128.6883542047
  0
LWPOLYLINE
  5
257
100
AcDbEntity
  8
RACCORDO
100
AcDbPolyline
 62
253
  6
CONTINUOUS
 90
3
 70
0
 10
23.9247178416
 20
-128.9629848116
 10
23.9110103637
 20
-128.9630091548
 10
23.9045090334
 20
-128.9629848116
  0
LWPOLYLINE
  5
258
100
AcDbEntity
  8
RACCORDO
100
AcDbPolyline
 62
253
  6
CONTINUOUS
 90
3
 70
0
 10
-30.4752821584
 20
-128.9629848116
 10
-30.4889896363
 20
-128.9630091548
 10
-30.4954909666
 20
-128.9629848116
  0
LWPOLYLINE
  5
259
100
AcDbEntity
  8
RACCORDO
100
AcDbPolyline
 62
253
  6
CONTINUOUS
 90
3
 70
0
 10
23.7418991699
 20
-128.8409267641
 10
23.7556066478
 20
-128.840902421
 10
23.762107978
 20
-128.8409267641
  0
LWPOLYLINE
  5
25A
100
AcDbEntity
  8
RACCORDO
100
AcDbPolyline
 62
253
  6
CONTINUOUS
 90
3
 70
0
 10
-30.6581008301
 20
-128.8409267641
 10
-30.6443933522
 20
-128.840902421
 10
-30.637892022
 20
-128.8409267641
  0
LINE
  5
25B
100
AcDbEntity
  8
0
100
AcDbLine
 62
7
  6
CONTINUOUS
 10
36.3333085057
 20
-133.7019557879
 11
35.1854141942
 21
-133.7019557879
  0
LINE
  5
25C
100
AcDbEntity
  8
0
100
AcDbLine
 62
7
  6
CONTINUOUS
 10
35.1332727924
 20
-133.7019557879
 11
34.0655415528
 21
-133.7019557879
  0
LINE
  5
25D
100
AcDbEntity
  8
0
100
AcDbLine
 62
7
  6
CONTINUOUS
 10
-40.7989245413
 20
-133.7019557879
 11
-41.8666557809
 21
-133.7019557879
  0
LINE
  5
25E
100
AcDbEntity
  8
0
100
AcDbLine
 62
7
  6
CONTINUOUS
 10
-41.9187971827
 20
-133.7019557879
 11
-43.0666914943
 21
-133.7019557879
  0
LINE
  5
25F
100
AcDbEntity
  8
0
100
AcDbLine
 62
7
  6
CONTINUOUS
 10
-43.3666914943
 20
-133.6519557879
 11
-40.7989245413
 21
-133.6519557879
  0
LINE
  5
260
100
AcDbEntity
  8
0
100
AcDbLine
 62
253
  6
CONTINUOUS
 10
25.0368082306
 20
-133.6519557879
 11
34.0655415528
 21
-133.6519557879
  0
LINE
  5
261
100
AcDbEntity
  8
0
100
AcDbLine
 62
7
  6
CONTINUOUS
 10
34.0655415528
 20
-133.6519557879
 11
36.6333085057
 21
-133.6519557879
  0
LINE
  5
262
100
AcDbEntity
  8
0
100
AcDbLine
 62
253
  6
CONTINUOUS
 10
-31.7701912191
 20
-133.6519557879
 11
-40.7989245413
 21
-133.6519557879
  0
LINE
  5
263
100
AcDbEntity
  8
0
100
AcDbLine
 62
253
  6
CONTINUOUS
 10
-31.2166914943
 20
-133.5019557879
 11
24.4833085057
 21
-133.5019557879
  0
LINE
  5
264
100
AcDbEntity
  8
0
100
AcDbLine
 62
7
  6
CONTINUOUS
 10
25.2368082306
 20
-133.1519557879
 11
25.0368082306
 21
-133.1519557879
  0
LINE
  5
265
100
AcDbEntity
  8
0
100
AcDbLine
 62
7
  6
CONTINUOUS
 10
-31.7701912191
 20
-133.1519557879
 11
-31.9701912191
 21
-133.1519557879
  0
LINE
  5
266
100
AcDbEntity
  8
0
100
AcDbLine
 62
7
  6
CONTINUOUS
 10
25.0368082306
 20
-132.9519557879
 11
25.2368082306
 21
-132.9519557879
  0
LINE
  5
267
100
AcDbEntity
  8
0
100
AcDbLine
 62
7
  6
CONTINUOUS
 10
-31.7701912191
 20
-132.9519557879
 11
-31.9701912191
 21
-132.9519557879
  0
LINE
  5
268
100
AcDbEntity
  8
0
100
AcDbLine
 62
7
  6
CONTINUOUS
 10
24.4833085057
 20
-132.9019557879
 11
25.2368082306
 21
-132.9019557879
  0
LINE
  5
269
100
AcDbEntity
  8
0
100
AcDbLine
 62
7
  6
CONTINUOUS
 10
-31.2166914943
 20
-132.9019557879
 11
-31.9701912191
 21
-132.9019557879
  0
LINE
  5
26A
100
AcDbEntity
  8
RACCORDO
100
AcDbLine
 62
253
  6
CONTINUOUS
 10
23.8638230176
 20
-129.115557371
 11
23.8027939939
 21
-129.115557371
  0
LINE
  5
26B
100
AcDbEntity
  8
RACCORDO
100
AcDbLine
 62
253
  6
CONTINUOUS
 10
-30.5361769824
 20
-129.115557371
 11
-30.5972060061
 21
-129.115557371
  0
LINE
  5
26C
100
AcDbEntity
  8
RACCORDO
100
AcDbLine
 62
7
  6
CONTINUOUS
 10
23.8633085057
 20
-129.1019557879
 11
23.8033085057
 21
-129.1019557879
  0
LINE
  5
26D
100
AcDbEntity
  8
RACCORDO
100
AcDbLine
 62
7
  6
CONTINUOUS
 10
-30.5366914943
 20
-129.1019557879
 11
-30.5966914943
 21
-129.1019557879
  0
LINE
  5
26E
100
AcDbEntity
  8
RACCORDO
100
AcDbLine
 62
253
  6
CONTINUOUS
 10
36.9258476513
 20
-128.9629848116
 11
36.9010299593
 21
-128.9629848116
  0
LINE
  5
26F
100
AcDbEntity
  8
RACCORDO
100
AcDbLine
 62
253
  6
CONTINUOUS
 10
23.762107978
 20
-128.9629848116
 11
23.6502214345
 21
-128.9629848116
  0
LINE
  5
270
100
AcDbEntity
  8
RACCORDO
100
AcDbLine
 62
253
  6
CONTINUOUS
 10
-30.637892022
 20
-128.9629848116
 11
-30.7497785655
 21
-128.9629848116
  0
LINE
  5
271
100
AcDbEntity
  8
RACCORDO
100
AcDbLine
 62
7
  6
CONTINUOUS
 10
36.9159734504
 20
-128.9519557879
 11
36.895182854
 21
-128.9519557879
  0
LINE
  5
272
100
AcDbEntity
  8
RACCORDO
100
AcDbLine
 62
7
  6
CONTINUOUS
 10
24.0133085057
 20
-128.9519557879
 11
23.9033085057
 21
-128.9519557879
  0
LINE
  5
273
100
AcDbEntity
  8
RACCORDO
100
AcDbLine
 62
7
  6
CONTINUOUS
 10
23.7633085057
 20
-128.9519557879
 11
23.6533085057
 21
-128.9519557879
  0
LINE
  5
274
100
AcDbEntity
  8
RACCORDO
100
AcDbLine
 62
7
  6
CONTINUOUS
 10
-30.3866914943
 20
-128.9519557879
 11
-30.4966914943
 21
-128.9519557879
  0
LINE
  5
275
100
AcDbEntity
  8
RACCORDO
100
AcDbLine
 62
7
  6
CONTINUOUS
 10
-30.6366914943
 20
-128.9519557879
 11
-30.7466914943
 21
-128.9519557879
  0
LINE
  5
276
100
AcDbEntity
  8
RACCORDO
100
AcDbLine
 62
7
  6
CONTINUOUS
 10
-43.6285658425
 20
-128.9519557879
 11
-43.6493564389
 21
-128.9519557879
  0
LINE
  5
277
100
AcDbEntity
  8
RACCORDO
100
AcDbLine
 62
7
  6
CONTINUOUS
 10
-43.6493564389
 20
-128.8519557879
 11
-43.6285648945
 21
-128.8519557879
  0
LINE
  5
278
100
AcDbEntity
  8
RACCORDO
100
AcDbLine
 62
7
  6
CONTINUOUS
 10
-30.7466914943
 20
-128.8519557879
 11
-30.6366914943
 21
-128.8519557879
  0
LINE
  5
279
100
AcDbEntity
  8
RACCORDO
100
AcDbLine
 62
7
  6
CONTINUOUS
 10
-30.4966914943
 20
-128.8519557879
 11
-30.3866914943
 21
-128.8519557879
  0
LINE
  5
27A
100
AcDbEntity
  8
RACCORDO
100
AcDbLine
 62
7
  6
CONTINUOUS
 10
23.6533085057
 20
-128.8519557879
 11
23.7633085057
 21
-128.8519557879
  0
LINE
  5
27B
100
AcDbEntity
  8
RACCORDO
100
AcDbLine
 62
7
  6
CONTINUOUS
 10
23.9033085057
 20
-128.8519557879
 11
24.0133085057
 21
-128.8519557879
  0
LINE
  5
27C
100
AcDbEntity
  8
RACCORDO
100
AcDbLine
 62
7
  6
CONTINUOUS
 10
36.895181906
 20
-128.8519557879
 11
36.9159734504
 21
-128.8519557879
  0
LINE
  5
27D
100
AcDbEntity
  8
RACCORDO
100
AcDbLine
 62
253
  6
CONTINUOUS
 10
-43.6592306398
 20
-128.8409267641
 11
-43.6344129479
 21
-128.8409267641
  0
LINE
  5
27E
100
AcDbEntity
  8
RACCORDO
100
AcDbLine
 62
253
  6
CONTINUOUS
 10
-30.4954909666
 20
-128.8409267641
 11
-30.383604423
 21
-128.8409267641
  0
LINE
  5
27F
100
AcDbEntity
  8
RACCORDO
100
AcDbLine
 62
253
  6
CONTINUOUS
 10
23.9045090334
 20
-128.8409267641
 11
24.016395577
 21
-128.8409267641
  0
LINE
  5
280
100
AcDbEntity
  8
RACCORDO
100
AcDbLine
 62
7
  6
CONTINUOUS
 10
-30.5966914943
 20
-128.7019557879
 11
-30.5366914943
 21
-128.7019557879
  0
LINE
  5
281
100
AcDbEntity
  8
RACCORDO
100
AcDbLine
 62
7
  6
CONTINUOUS
 10
23.8033085057
 20
-128.7019557879
 11
23.8633085057
 21
-128.7019557879
  0
LINE
  5
282
100
AcDbEntity
  8
RACCORDO
100
AcDbLine
 62
253
  6
CONTINUOUS
 10
-30.5972060061
 20
-128.6883542047
 11
-30.5361769824
 21
-128.6883542047
  0
LINE
  5
283
100
AcDbEntity
  8
RACCORDO
100
AcDbLine
 62
253
  6
CONTINUOUS
 10
23.8027939939
 20
-128.6883542047
 11
23.8638230176
 21
-128.6883542047
  0
LWPOLYLINE
  5
284
100
AcDbEntity
  8
RACCORDO
100
AcDbPolyline
 62
253
  6
CONTINUOUS
 90
4
 70
0
 10
-30.4232278015
 20
-128.9629627905
 10
-30.4381724988
 20
-128.9629840107
 10
-30.4455845498
 20
-128.9629572
 10
-30.4605183035
 20
-128.9630177026
  0
LWPOLYLINE
  5
285
100
AcDbEntity
  8
RACCORDO
100
AcDbPolyline
 62
253
  6
CONTINUOUS
 90
4
 70
0
 10
23.9767721985
 20
-128.9629627905
 10
23.9618275012
 20
-128.9629840107
 10
23.9544154502
 20
-128.9629572
 10
23.9394816965
 20
-128.9630177026
  0
LWPOLYLINE
  5
286
100
AcDbEntity
  8
RACCORDO
100
AcDbPolyline
 62
253
  6
CONTINUOUS
 90
4
 70
0
 10
-30.710155187
 20
-128.8409487852
 10
-30.6952104897
 20
-128.840927565
 10
-30.6877984387
 20
-128.8409543757
 10
-30.672864685
 20
-128.8408938731
  0
LWPOLYLINE
  5
287
100
AcDbEntity
  8
RACCORDO
100
AcDbPolyline
 62
253
  6
CONTINUOUS
 90
4
 70
0
 10
23.689844813
 20
-128.8409487852
 10
23.7047895103
 20
-128.840927565
 10
23.7122015613
 20
-128.8409543757
 10
23.727135315
 20
-128.8408938731
  0
LINE
  5
288
100
AcDbEntity
  8
RACCORDO
100
AcDbLine
 62
253
  6
CONTINUOUS
 10
-30.4157109846
 20
-128.962976811
 11
-30.4232278015
 21
-128.9629627905
  0
LINE
  5
289
100
AcDbEntity
  8
RACCORDO
100
AcDbLine
 62
253
  6
CONTINUOUS
 10
23.9842890154
 20
-128.962976811
 11
23.9767721985
 21
-128.9629627905
  0
LINE
  5
28A
100
AcDbEntity
  8
RACCORDO
100
AcDbLine
 62
253
  6
CONTINUOUS
 10
-30.717672004
 20
-128.8409347648
 11
-30.710155187
 21
-128.8409487852
  0
LINE
  5
28B
100
AcDbEntity
  8
RACCORDO
100
AcDbLine
 62
253
  6
CONTINUOUS
 10
23.682327996
 20
-128.8409347648
 11
23.689844813
 21
-128.8409487852
  0
LINE
  5
28C
100
AcDbEntity
  8
RACCORDO
100
AcDbLine
 62
253
  6
CONTINUOUS
 10
-30.383604423
 20
-128.9629848116
 11
-30.4157109846
 21
-128.962976811
  0
LINE
  5
28D
100
AcDbEntity
  8
RACCORDO
100
AcDbLine
 62
253
  6
CONTINUOUS
 10
-30.7497785655
 20
-128.8409267641
 11
-30.717672004
 21
-128.8409347648
  0
LINE
  5
28E
100
AcDbEntity
  8
RACCORDO
100
AcDbLine
 62
253
  6
CONTINUOUS
 10
24.016395577
 20
-128.9629848116
 11
23.9842890154
 21
-128.962976811
  0
LINE
  5
28F
100
AcDbEntity
  8
RACCORDO
100
AcDbLine
 62
253
  6
CONTINUOUS
 10
23.6502214345
 20
-128.8409267641
 11
23.682327996
 21
-128.8409347648
  0
LINE
  5
290
100
AcDbEntity
  8
RACCORDO
100
AcDbLine
 62
253
  6
CONTINUOUS
 10
-30.4605183035
 20
-128.9630177026
 11
-30.4752821584
 21
-128.9629848116
  0
LINE
  5
291
100
AcDbEntity
  8
RACCORDO
100
AcDbLine
 62
253
  6
CONTINUOUS
 10
-30.672864685
 20
-128.8408938731
 11
-30.6581008301
 21
-128.8409267641
  0
LINE
  5
292
100
AcDbEntity
  8
RACCORDO
100
AcDbLine
 62
253
  6
CONTINUOUS
 10
23.9394816965
 20
-128.9630177026
 11
23.9247178416
 21
-128.9629848116
  0
LINE
  5
293
100
AcDbEntity
  8
RACCORDO
100
AcDbLine
 62
253
  6
CONTINUOUS
 10
23.727135315
 20
-128.8408938731
 11
23.7418991699
 21
-128.8409267641
  0
LWPOLYLINE
  5
294
100
AcDbEntity
  8
RACCORDO
100
AcDbPolyline
 62
253
  6
CONTINUOUS
 90
13
 70
0
 10
-30.627720517
 20
-128.9731563144
 10
-30.62632763
 20
-128.9731619046
 10
-30.6249418217
 20
-128.9731440675
 10
-30.6235900104
 20
-128.9731031497
 10
-30.6222984544
 20
-128.9730399459
 10
-30.6210922414
 20
-128.9729556839
 10
-30.6199948014
 20
-128.9728520003
 10
-30.6190274514
 20
-128.9727309092
 10
-30.6182089818
 20
-128.9725947626
 10
-30.6175552907
 20
-128.9724462051
 10
-30.6170790758
 20
-128.9722881222
 10
-30.6167895873
 20
-128.9721235845
 10
-30.6166924482
 20
-128.971955788
  0
LWPOLYLINE
  5
295
100
AcDbEntity
  8
RACCORDO
100
AcDbPolyline
 62
253
  6
CONTINUOUS
 90
13
 70
0
 10
-30.5056624715
 20
-128.8307552613
 10
-30.5070553585
 20
-128.8307496711
 10
-30.5084411668
 20
-128.8307675082
 10
-30.5097929781
 20
-128.830808426
 10
-30.5110845341
 20
-128.8308716298
 10
-30.5122907471
 20
-128.8309558918
 10
-30.5133881871
 20
-128.8310595754
 10
-30.5143555371
 20
-128.8311806665
 10
-30.5151740068
 20
-128.8313168131
 10
-30.5158276978
 20
-128.8314653706
 10
-30.5163039127
 20
-128.8316234536
 10
-30.5165934012
 20
-128.8317879912
 10
-30.5166905403
 20
-128.8319557877
  0
LWPOLYLINE
  5
296
100
AcDbEntity
  8
RACCORDO
100
AcDbPolyline
 62
253
  6
CONTINUOUS
 90
13
 70
0
 10
23.772279483
 20
-128.9731563144
 10
23.77367237
 20
-128.9731619046
 10
23.7750581783
 20
-128.9731440675
 10
23.7764099896
 20
-128.9731031497
 10
23.7777015456
 20
-128.9730399459
 10
23.7789077586
 20
-128.9729556839
 10
23.7800051986
 20
-128.9728520003
 10
23.7809725486
 20
-128.9727309092
 10
23.7817910182
 20
-128.9725947626
 10
23.7824447093
 20
-128.9724462051
 10
23.7829209242
 20
-128.9722881222
 10
23.7832104127
 20
-128.9721235845
 10
23.7833075518
 20
-128.971955788
  0
LWPOLYLINE
  5
297
100
AcDbEntity
  8
RACCORDO
100
AcDbPolyline
 62
253
  6
CONTINUOUS
 90
13
 70
0
 10
23.8943375285
 20
-128.8307552613
 10
23.8929446415
 20
-128.8307496711
 10
23.8915588332
 20
-128.8307675082
 10
23.8902070219
 20
-128.830808426
 10
23.8889154659
 20
-128.8308716298
 10
23.8877092529
 20
-128.8309558918
 10
23.8866118129
 20
-128.8310595754
 10
23.8856444629
 20
-128.8311806665
 10
23.8848259932
 20
-128.8313168131
 10
23.8841723022
 20
-128.8314653706
 10
23.8836960873
 20
-128.8316234536
 10
23.8834065988
 20
-128.8317879912
 10
23.8833094597
 20
-128.8319557877
  0
LINE
  5
298
100
AcDbEntity
  8
RACCORDO
100
AcDbLine
 62
253
  6
CONTINUOUS
 10
-43.6268898156
 20
-128.6883516199
 11
-43.6263820582
 21
-128.688354999
  0
LINE
  5
299
100
AcDbEntity
  8
RACCORDO
100
AcDbLine
 62
253
  6
CONTINUOUS
 10
36.8935068271
 20
-129.1155599558
 11
36.8929990697
 21
-129.1155565767
  0
LWPOLYLINE
  5
29A
100
AcDbEntity
  8
RACCORDO
100
AcDbPolyline
 62
253
  6
CONTINUOUS
 90
12
 70
0
 10
-43.6417985069
 20
-128.9629848114
 10
-43.6458352901
 20
-128.9629627905
 10
-43.6476564287
 20
-128.9629848117
 10
-43.6493737748
 20
-128.9629840107
 10
-43.6509811553
 20
-128.9629572
 10
-43.6524853172
 20
-128.9629848116
 10
-43.6539066811
 20
-128.9630177026
 10
-43.6552305862
 20
-128.9629956955
 10
-43.6564181644
 20
-128.9629848116
 10
-43.6574666305
 20
-128.9630058159
 10
-43.6584009804
 20
-128.9630091548
 10
-43.6592306398
 20
-128.9629848116
  0
LWPOLYLINE
  5
29B
100
AcDbEntity
  8
RACCORDO
100
AcDbPolyline
 62
253
  6
CONTINUOUS
 90
12
 70
0
 10
36.9084155184
 20
-128.8409267643
 10
36.9124523016
 20
-128.8409487852
 10
36.9142734402
 20
-128.840926764
 10
36.9159907862
 20
-128.840927565
 10
36.9175981667
 20
-128.8409543757
 10
36.9191023287
 20
-128.8409267641
 10
36.9205236926
 20
-128.8408938731
 10
36.9218475977
 20
-128.8409158802
 10
36.9230351759
 20
-128.8409267641
 10
36.924083642
 20
-128.8409057598
 10
36.9250179918
 20
-128.840902421
 10
36.9258476513
 20
-128.8409267641
  0
LWPOLYLINE
  5
29C
100
AcDbEntity
  8
RACCORDO
100
AcDbPolyline
 62
253
  6
CONTINUOUS
 90
4
 70
0
 10
-43.6344129479
 20
-128.9629848116
 10
-43.6370602855
 20
-128.9629651197
 10
-43.6395189113
 20
-128.9629695504
 10
-43.6417985069
 20
-128.9629848114
  0
LWPOLYLINE
  5
29D
100
AcDbEntity
  8
RACCORDO
100
AcDbPolyline
 62
253
  6
CONTINUOUS
 90
4
 70
0
 10
36.9010299593
 20
-128.8409267641
 10
36.903677297
 20
-128.840946456
 10
36.9061359227
 20
-128.8409420253
 10
36.9084155184
 20
-128.8409267643
  0
LWPOLYLINE
  5
29E
100
AcDbEntity
  8
RACCORDO
100
AcDbPolyline
 62
253
  6
CONTINUOUS
 90
13
 70
0
 10
-30.6277205173
 20
-129.0850428569
 10
-30.6263275221
 20
-129.0850572758
 10
-30.6249415974
 20
-129.0850114453
 10
-30.6235896661
 20
-129.0849062558
 10
-30.6222979908
 20
-129.0847437506
 10
-30.6210916634
 20
-129.0845270865
 10
-30.6199941179
 20
-129.0842604725
 10
-30.6190266753
 20
-129.0839490879
 10
-30.618208129
 20
-129.0835989814
 10
-30.6175543801
 20
-129.0832169543
 10
-30.6170781282
 20
-129.0828104278
 10
-30.6167886249
 20
-129.0823872991
 10
-30.6166914943
 20
-129.0819557879
  0
LWPOLYLINE
  5
29F
100
AcDbEntity
  8
RACCORDO
100
AcDbPolyline
 62
253
  6
CONTINUOUS
 90
13
 70
0
 10
-30.5056624712
 20
-128.7188687188
 10
-30.5070554664
 20
-128.7188542999
 10
-30.5084413911
 20
-128.7189001304
 10
-30.5097933224
 20
-128.71900532
 10
-30.5110849977
 20
-128.7191678252
 10
-30.5122913252
 20
-128.7193844892
 10
-30.5133888706
 20
-128.7196511032
 10
-30.5143563132
 20
-128.7199624879
 10
-30.5151748595
 20
-128.7203125943
 10
-30.5158286084
 20
-128.7206946214
 10
-30.5163048604
 20
-128.7211011479
 10
-30.5165943636
 20
-128.7215242766
 10
-30.5166914943
 20
-128.7219557879
  0
LWPOLYLINE
  5
2A0
100
AcDbEntity
  8
RACCORDO
100
AcDbPolyline
 62
253
  6
CONTINUOUS
 90
13
 70
0
 10
23.7722794827
 20
-129.0850428569
 10
23.7736724779
 20
-129.0850572758
 10
23.7750584026
 20
-129.0850114453
 10
23.7764103339
 20
-129.0849062558
 10
23.7777020092
 20
-129.0847437506
 10
23.7789083366
 20
-129.0845270865
 10
23.7800058821
 20
-129.0842604725
 10
23.7809733247
 20
-129.0839490879
 10
23.781791871
 20
-129.0835989814
 10
23.7824456199
 20
-129.0832169543
 10
23.7829218718
 20
-129.0828104278
 10
23.7832113751
 20
-129.0823872991
 10
23.7833085057
 20
-129.0819557879
  0
LWPOLYLINE
  5
2A1
100
AcDbEntity
  8
RACCORDO
100
AcDbPolyline
 62
253
  6
CONTINUOUS
 90
13
 70
0
 10
23.8943375288
 20
-128.7188687188
 10
23.8929445336
 20
-128.7188542999
 10
23.8915586089
 20
-128.7189001304
 10
23.8902066776
 20
-128.71900532
 10
23.8889150023
 20
-128.7191678252
 10
23.8877086748
 20
-128.7193844892
 10
23.8866111294
 20
-128.7196511032
 10
23.8856436868
 20
-128.7199624879
 10
23.8848251405
 20
-128.7203125943
 10
23.8841713916
 20
-128.7206946214
 10
23.8836951396
 20
-128.7211011479
 10
23.8834056364
 20
-128.7215242766
 10
23.8833085057
 20
-128.7219557879
  0
LWPOLYLINE
  5
2A2
100
AcDbEntity
  8
RACCORDO
100
AcDbPolyline
 62
253
  6
CONTINUOUS
 90
16
 70
0
 10
-30.7802930772
 20
-128.9324702997
 10
-30.7790603149
 20
-128.9324916146
 10
-30.7777880155
 20
-128.9325039862
 10
-30.7764974144
 20
-128.932507208
 10
-30.7752100527
 20
-128.9325012262
 10
-30.7739474172
 20
-128.9324861407
 10
-30.772730582
 20
-128.9324622033
 10
-30.7715798571
 20
-128.9324298135
 10
-30.7705144485
 20
-128.932389512
 10
-30.7695521388
 20
-128.9323419713
 10
-30.7687089895
 20
-128.9322879849
 10
-30.7679990732
 20
-128.932228454
 10
-30.767434239
 20
-128.9321643721
 10
-30.7670239142
 20
-128.9320968088
 10
-30.7667749475
 20
-128.9320268917
 10
-30.7666914943
 20
-128.9319557879
  0
LWPOLYLINE
  5
2A3
100
AcDbEntity
  8
RACCORDO
100
AcDbPolyline
 62
253
  6
CONTINUOUS
 90
16
 70
0
 10
-30.3530899113
 20
-128.871441276
 10
-30.3543226736
 20
-128.8714199611
 10
-30.355594973
 20
-128.8714075896
 10
-30.3568855741
 20
-128.8714043678
 10
-30.3581729358
 20
-128.8714103495
 10
-30.3594355713
 20
-128.871425435
 10
-30.3606524065
 20
-128.8714493724
 10
-30.3618031315
 20
-128.8714817622
 10
-30.36286854
 20
-128.8715220638
 10
-30.3638308497
 20
-128.8715696045
 10
-30.364673999
 20
-128.8716235908
 10
-30.3653839153
 20
-128.8716831217
 10
-30.3659487495
 20
-128.8717472036
 10
-30.3663590743
 20
-128.8718147669
 10
-30.366608041
 20
-128.871884684
 10
-30.3666914943
 20
-128.8719557879
  0
LWPOLYLINE
  5
2A4
100
AcDbEntity
  8
RACCORDO
100
AcDbPolyline
 62
253
  6
CONTINUOUS
 90
16
 70
0
 10
23.6197069228
 20
-128.9324702997
 10
23.6209396851
 20
-128.9324916146
 10
23.6222119845
 20
-128.9325039862
 10
23.6235025856
 20
-128.932507208
 10
23.6247899473
 20
-128.9325012262
 10
23.6260525828
 20
-128.9324861407
 10
23.627269418
 20
-128.9324622033
 10
23.6284201429
 20
-128.9324298135
 10
23.6294855515
 20
-128.932389512
 10
23.6304478612
 20
-128.9323419713
 10
23.6312910105
 20
-128.9322879849
 10
23.6320009268
 20
-128.932228454
 10
23.632565761
 20
-128.9321643721
 10
23.6329760858
 20
-128.9320968088
 10
23.6332250525
 20
-128.9320268917
 10
23.6333085057
 20
-128.9319557879
  0
LWPOLYLINE
  5
2A5
100
AcDbEntity
  8
RACCORDO
100
AcDbPolyline
 62
253
  6
CONTINUOUS
 90
16
 70
0
 10
24.0469100887
 20
-128.871441276
 10
24.0456773264
 20
-128.8714199611
 10
24.044405027
 20
-128.8714075896
 10
24.0431144259
 20
-128.8714043678
 10
24.0418270642
 20
-128.8714103495
 10
24.0405644287
 20
-128.871425435
 10
24.0393475935
 20
-128.8714493724
 10
24.0381968685
 20
-128.8714817622
 10
24.03713146
 20
-128.8715220638
 10
24.0361691503
 20
-128.8715696045
 10
24.035326001
 20
-128.8716235908
 10
24.0346160847
 20
-128.8716831217
 10
24.0340512505
 20
-128.8717472036
 10
24.0336409257
 20
-128.8718147669
 10
24.033391959
 20
-128.871884684
 10
24.0333085057
 20
-128.8719557879
  0
LWPOLYLINE
  5
2A6
100
AcDbEntity
  8
RACCORDO
100
AcDbPolyline
 62
253
  6
CONTINUOUS
 90
19
 70
0
 10
-30.5972060061
 20
-129.115557371
 10
-30.5998046397
 20
-129.1154461669
 10
-30.6023667422
 20
-129.1151183032
 10
-30.6048853029
 20
-129.114575168
 10
-30.6073645048
 20
-129.1138149302
 10
-30.6097861835
 20
-129.1128421829
 10
-30.6121104795
 20
-129.111669214
 10
-30.6143306616
 20
-129.1102977074
 10
-30.6164416067
 20
-129.1087315396
 10
-30.6184077846
 20
-129.1069883494
 10
-30.620228215
 20
-129.105066752
 10
-30.6218957056
 20
-129.1029749719
 10
-30.6233688848
 20
-129.1007467389
 10
-30.6246474296
 20
-129.0983856951
 10
-30.6257301864
 20
-129.095895323
 10
-30.6265794055
 20
-129.0933101388
 10
-30.6271854949
 20
-129.0906436
 10
-30.6275645879
 20
-129.087887365
 10
-30.627720518
 20
-129.0850428591
  0
LWPOLYLINE
  5
2A7
100
AcDbEntity
  8
RACCORDO
100
AcDbPolyline
 62
253
  6
CONTINUOUS
 90
19
 70
0
 10
-30.5361769824
 20
-128.6883542047
 10
-30.5335783489
 20
-128.6884654088
 10
-30.5310162463
 20
-128.6887932725
 10
-30.5284976856
 20
-128.6893364077
 10
-30.5260184837
 20
-128.6900966455
 10
-30.523596805
 20
-128.6910693928
 10
-30.521272509
 20
-128.6922423617
 10
-30.5190523269
 20
-128.6936138683
 10
-30.5169413818
 20
-128.6951800361
 10
-30.5149752039
 20
-128.6969232263
 10
-30.5131547735
 20
-128.6988448237
 10
-30.511487283
 20
-128.7009366038
 10
-30.5100141037
 20
-128.7031648368
 10
-30.5087355589
 20
-128.7055258806
 10
-30.5076528022
 20
-128.7080162527
 10
-30.5068035831
 20
-128.710601437
 10
-30.5061974937
 20
-128.7132679757
 10
-30.5058184006
 20
-128.7160242107
 10
-30.5056624705
 20
-128.7188687166
  0
LWPOLYLINE
  5
2A8
100
AcDbEntity
  8
RACCORDO
100
AcDbPolyline
 62
253
  6
CONTINUOUS
 90
19
 70
0
 10
23.8027939939
 20
-129.115557371
 10
23.8001953603
 20
-129.1154461669
 10
23.7976332578
 20
-129.1151183032
 10
23.7951146971
 20
-129.114575168
 10
23.7926354952
 20
-129.1138149302
 10
23.7902138165
 20
-129.1128421829
 10
23.7878895205
 20
-129.111669214
 10
23.7856693384
 20
-129.1102977074
 10
23.7835583933
 20
-129.1087315396
 10
23.7815922154
 20
-129.1069883494
 10
23.779771785
 20
-129.105066752
 10
23.7781042944
 20
-129.1029749719
 10
23.7766311152
 20
-129.1007467389
 10
23.7753525704
 20
-129.0983856951
 10
23.7742698136
 20
-129.095895323
 10
23.7734205945
 20
-129.0933101388
 10
23.7728145051
 20
-129.0906436
 10
23.7724354121
 20
-129.087887365
 10
23.772279482
 20
-129.0850428591
  0
LWPOLYLINE
  5
2A9
100
AcDbEntity
  8
RACCORDO
100
AcDbPolyline
 62
253
  6
CONTINUOUS
 90
19
 70
0
 10
23.8638230176
 20
-128.6883542047
 10
23.8664216511
 20
-128.6884654088
 10
23.8689837537
 20
-128.6887932725
 10
23.8715023144
 20
-128.6893364077
 10
23.8739815163
 20
-128.6900966455
 10
23.876403195
 20
-128.6910693928
 10
23.878727491
 20
-128.6922423617
 10
23.8809476731
 20
-128.6936138683
 10
23.8830586182
 20
-128.6951800361
 10
23.8850247961
 20
-128.6969232263
 10
23.8868452265
 20
-128.6988448237
 10
23.888512717
 20
-128.7009366038
 10
23.8899858963
 20
-128.7031648368
 10
23.8912644411
 20
-128.7055258806
 10
23.8923471978
 20
-128.7080162527
 10
23.8931964169
 20
-128.710601437
 10
23.8938025063
 20
-128.7132679757
 10
23.8941815994
 20
-128.7160242107
 10
23.8943375295
 20
-128.7188687166
  0
LWPOLYLINE
  5
2AA
100
AcDbEntity
  8
RACCORDO
100
AcDbPolyline
 62
253
  6
CONTINUOUS
 90
19
 70
0
 10
-30.7497785655
 20
-128.9629848116
 10
-30.7526080509
 20
-128.9628329063
 10
-30.7553558411
 20
-128.9624562578
 10
-30.7580205057
 20
-128.9618507741
 10
-30.7606129698
 20
-128.9609997116
 10
-30.7631171216
 20
-128.9599126402
 10
-30.7654905842
 20
-128.9586282273
 10
-30.7677280495
 20
-128.957146745
 10
-30.7698276002
 20
-128.9554694761
 10
-30.7717531007
 20
-128.9536419838
 10
-30.7734945744
 20
-128.951673168
 10
-30.7750553447
 20
-128.9495627686
 10
-30.7764210195
 20
-128.947346124
 10
-30.7775881533
 20
-128.9450302545
 10
-30.7785548752
 20
-128.9426200528
 10
-30.7793110043
 20
-128.9401493142
 10
-30.7798524831
 20
-128.9376340728
 10
-30.7801803422
 20
-128.9350720821
 10
-30.7802930774
 20
-128.9324702997
  0
LWPOLYLINE
  5
2AB
100
AcDbEntity
  8
RACCORDO
100
AcDbPolyline
 62
253
  6
CONTINUOUS
 90
19
 70
0
 10
-30.383604423
 20
-128.8409267641
 10
-30.3807749376
 20
-128.8410786695
 10
-30.3780271474
 20
-128.8414553179
 10
-30.3753624828
 20
-128.8420608016
 10
-30.3727700187
 20
-128.8429118641
 10
-30.3702658669
 20
-128.8439989355
 10
-30.3678924043
 20
-128.8452833484
 10
-30.365654939
 20
-128.8467648307
 10
-30.3635553883
 20
-128.8484420996
 10
-30.3616298878
 20
-128.8502695919
 10
-30.3598884141
 20
-128.8522384077
 10
-30.3583276438
 20
-128.8543488071
 10
-30.356961969
 20
-128.8565654517
 10
-30.3557948352
 20
-128.8588813212
 10
-30.3548281133
 20
-128.8612915229
 10
-30.3540719842
 20
-128.8637622615
 10
-30.3535305054
 20
-128.8662775029
 10
-30.3532026463
 20
-128.8688394936
 10
-30.3530899111
 20
-128.871441276
  0
LWPOLYLINE
  5
2AC
100
AcDbEntity
  8
RACCORDO
100
AcDbPolyline
 62
253
  6
CONTINUOUS
 90
19
 70
0
 10
23.6502214345
 20
-128.9629848116
 10
23.6473919491
 20
-128.9628329063
 10
23.6446441589
 20
-128.9624562578
 10
23.6419794943
 20
-128.9618507741
 10
23.6393870302
 20
-128.9609997116
 10
23.6368828784
 20
-128.9599126402
 10
23.6345094158
 20
-128.9586282273
 10
23.6322719505
 20
-128.957146745
 10
23.6301723998
 20
-128.9554694761
 10
23.6282468993
 20
-128.9536419838
 10
23.6265054256
 20
-128.951673168
 10
23.6249446553
 20
-128.9495627686
 10
23.6235789805
 20
-128.947346124
 10
23.6224118467
 20
-128.9450302545
 10
23.6214451248
 20
-128.9426200528
 10
23.6206889957
 20
-128.9401493142
 10
23.6201475169
 20
-128.9376340728
 10
23.6198196578
 20
-128.9350720821
 10
23.6197069226
 20
-128.9324702997
  0
LWPOLYLINE
  5
2AD
100
AcDbEntity
  8
RACCORDO
100
AcDbPolyline
 62
253
  6
CONTINUOUS
 90
19
 70
0
 10
24.016395577
 20
-128.8409267641
 10
24.0192250624
 20
-128.8410786695
 10
24.0219728526
 20
-128.8414553179
 10
24.0246375172
 20
-128.8420608016
 10
24.0272299813
 20
-128.8429118641
 10
24.0297341331
 20
-128.8439989355
 10
24.0321075957
 20
-128.8452833484
 10
24.034345061
 20
-128.8467648307
 10
24.0364446117
 20
-128.8484420996
 10
24.0383701122
 20
-128.8502695919
 10
24.0401115859
 20
-128.8522384077
 10
24.0416723562
 20
-128.8543488071
 10
24.043038031
 20
-128.8565654517
 10
24.0442051648
 20
-128.8588813212
 10
24.0451718867
 20
-128.8612915229
 10
24.0459280158
 20
-128.8637622615
 10
24.0464694946
 20
-128.8662775029
 10
24.0467973537
 20
-128.8688394936
 10
24.0469100889
 20
-128.871441276
  0
LINE
  5
2AE
100
AcDbEntity
  8
RACCORDO
100
AcDbLine
 62
7
  6
CONTINUOUS
 10
-43.650381831
 20
-128.8518996056
 11
-43.6493559606
 21
-128.8519557794
  0
LINE
  5
2AF
100
AcDbEntity
  8
RACCORDO
100
AcDbLine
 62
253
  6
CONTINUOUS
 10
-43.6260486979
 20
-128.871441276
 11
-43.6267187644
 21
-128.8714042639
  0
LINE
  5
2B0
100
AcDbEntity
  8
RACCORDO
100
AcDbLine
 62
253
  6
CONTINUOUS
 10
36.8926657094
 20
-128.9324702997
 11
36.8933357759
 21
-128.9325073118
  0
LINE
  5
2B1
100
AcDbEntity
  8
RACCORDO
100
AcDbLine
 62
253
  6
CONTINUOUS
 10
-43.6505614393
 20
-128.8518709884
 11
-43.6493564389
 21
-128.8519557879
  0
LINE
  5
2B2
100
AcDbEntity
  8
RACCORDO
100
AcDbLine
 62
253
  6
CONTINUOUS
 10
-43.65923063
 20
-128.8307552613
 11
-43.6592832669
 21
-128.8307488672
  0
LWPOLYLINE
  5
2B3
100
AcDbEntity
  8
RACCORDO
100
AcDbPolyline
 62
253
  6
CONTINUOUS
 90
9
 70
0
 10
-43.6260486984
 20
-128.6883542047
 10
-43.6259420233
 20
-128.6884654088
 10
-43.625909108
 20
-128.6887932725
 10
-43.6259500389
 20
-128.6893364077
 10
-43.6260651542
 20
-128.6900966455
 10
-43.6262537055
 20
-128.6910693928
 10
-43.626513867
 20
-128.6922423617
 10
-43.6268454371
 20
-128.6936138683
 10
-43.627247077
 20
-128.6951800361
  0
LINE
  5
2B4
100
AcDbEntity
  8
0
100
AcDbLine
 62
7
  6
CONTINUOUS
 10
-45.9043513071
 20
67.3053843993
 11
-46.2366914943
 21
66.9730442121
  0
LINE
  5
2B5
100
AcDbEntity
  8
0
100
AcDbLine
 62
7
  6
CONTINUOUS
 10
-45.9043513071
 20
66.640704025
 11
-45.5720111199
 21
66.9730442121
  0
LINE
  5
2B6
100
AcDbEntity
  8
0
100
AcDbLine
 62
7
  6
CONTINUOUS
 10
-44.6766914943
 20
66.4130442121
 11
-45.1816914943
 21
65.9080442121
  0
LWPOLYLINE
  5
2B7
100
AcDbEntity
  8
RACCORDO
100
AcDbPolyline
 62
253
  6
CONTINUOUS
 90
9
 70
0
 10
-26.4030899111
 20
77.8574014163
 10
-26.4032011153
 20
77.8572947412
 10
-26.4035289789
 20
77.8572618259
 10
-26.4040721141
 20
77.8573027567
 10
-26.4048323519
 20
77.8574178721
 10
-26.4058050992
 20
77.8576064234
 10
-26.4069780681
 20
77.8578665849
 10
-26.4083495747
 20
77.858198155
 10
-26.4099157425
 20
77.8585997949
  0
LINE
  5
2B8
100
AcDbEntity
  8
0
100
AcDbLine
 62
7
  6
CONTINUOUS
 10
-43.7766914943
 20
67.9230442121
 11
-43.6166914943
 21
68.0730442121
  0
LINE
  5
2B9
100
AcDbEntity
  8
RACCORDO
100
AcDbLine
 62
7
  6
CONTINUOUS
 10
-26.5650761631
 20
77.8605777691
 11
-26.5649252242
 21
77.8607115738
  0
LWPOLYLINE
  5
2BA
100
AcDbEntity
  8
RACCORDO
100
AcDbPolyline
 62
7
  6
CONTINUOUS
 90
13
 70
0
 10
12.4405478548
 20
77.8904892507
 10
12.4396627451
 20
77.8901588312
 10
12.4387557876
 20
77.8897261923
 10
12.4378800679
 20
77.8892018855
 10
12.437060807
 20
77.8885963088
 10
12.4362898145
 20
77.887898286
 10
12.4355728354
 20
77.8871009063
 10
12.4349267735
 20
77.8862074473
 10
12.4343662136
 20
77.8852198905
 10
12.4339024161
 20
77.8841294473
 10
12.4335565714
 20
77.8829388553
 10
12.4333537065
 20
77.8816656261
 10
12.4333085141
 20
77.8807086784
  0
LWPOLYLINE
  5
2BB
100
AcDbEntity
  8
RACCORDO
100
AcDbPolyline
 62
7
  6
CONTINUOUS
 90
13
 70
0
 10
19.9405478548
 20
77.8904892507
 10
19.9396627451
 20
77.8901588312
 10
19.9387557876
 20
77.8897261923
 10
19.9378800679
 20
77.8892018855
 10
19.937060807
 20
77.8885963088
 10
19.9362898145
 20
77.887898286
 10
19.9355728354
 20
77.8871009063
 10
19.9349267735
 20
77.8862074473
 10
19.9343662136
 20
77.8852198905
 10
19.9339024161
 20
77.8841294473
 10
19.9335565714
 20
77.8829388553
 10
19.9333537065
 20
77.8816656261
 10
19.9333085141
 20
77.8807086784
  0
LWPOLYLINE
  5
2BC
100
AcDbEntity
  8
RACCORDO
100
AcDbPolyline
 62
7
  6
CONTINUOUS
 90
11
 70
0
 10
12.4335387101
 20
77.8599971653
 10
12.4327032248
 20
77.8597118829
 10
12.4316819982
 20
77.8594151575
 10
12.4304718799
 20
77.8591189377
 10
12.429085698
 20
77.8588370484
 10
12.42752779
 20
77.8585789989
 10
12.4258045545
 20
77.8583542805
 10
12.4239369262
 20
77.8581729245
 10
12.4219396123
 20
77.8580415278
 10
12.4198276599
 20
77.85796584
 10
12.4176276112
 20
77.8579517927
  0
LWPOLYLINE
  5
2BD
100
AcDbEntity
  8
RACCORDO
100
AcDbPolyline
 62
7
  6
CONTINUOUS
 90
11
 70
0
 10
19.9335387101
 20
77.8599971653
 10
19.9327032248
 20
77.8597118829
 10
19.9316819982
 20
77.8594151575
 10
19.9304718799
 20
77.8591189377
 10
19.929085698
 20
77.8588370484
 10
19.92752779
 20
77.8585789989
 10
19.9258045545
 20
77.8583542805
 10
19.9239369262
 20
77.8581729245
 10
19.9219396123
 20
77.8580415278
 10
19.9198276599
 20
77.85796584
 10
19.9176276112
 20
77.8579517927
  0
LINE
  5
2BE
100
AcDbEntity
  8
RACCORDO
100
AcDbLine
 62
7
  6
CONTINUOUS
 10
12.2002050711
 20
77.8658157878
 11
12.1971735511
 21
77.8648338283
  0
LINE
  5
2BF
100
AcDbEntity
  8
RACCORDO
100
AcDbLine
 62
7
  6
CONTINUOUS
 10
19.7002050711
 20
77.8658157878
 11
19.6971735511
 21
77.8648338283
  0
LWPOLYLINE
  5
2C0
100
AcDbEntity
  8
RACCORDO
100
AcDbPolyline
 62
253
  6
CONTINUOUS
 90
10
 70
0
 10
12.2002214345
 20
77.8657656657
 10
12.1945875238
 20
77.8639539474
 10
12.1919134167
 20
77.86310972
 10
12.189328635
 20
77.862307534
 10
12.1868446677
 20
77.8615507376
 10
12.1844901466
 20
77.8608459107
 10
12.1822667774
 20
77.8601940518
 10
12.1801799447
 20
77.8595973234
 10
12.1782627867
 20
77.8590641428
 10
12.1765232339
 20
77.8585973054
  0
LWPOLYLINE
  5
2C1
100
AcDbEntity
  8
RACCORDO
100
AcDbPolyline
 62
253
  6
CONTINUOUS
 90
10
 70
0
 10
19.7002214345
 20
77.8657656657
 10
19.6945875238
 20
77.8639539474
 10
19.6919134167
 20
77.86310972
 10
19.689328635
 20
77.862307534
 10
19.6868446677
 20
77.8615507376
 10
19.6844901466
 20
77.8608459107
 10
19.6822667774
 20
77.8601940518
 10
19.6801799447
 20
77.8595973234
 10
19.6782627867
 20
77.8590641428
 10
19.6765232339
 20
77.8585973054
  0
LINE
  5
2C2
100
AcDbEntity
  8
RACCORDO
100
AcDbLine
 62
7
  6
CONTINUOUS
 10
12.1971735511
 20
77.8648338283
 11
12.1940286029
 21
77.8638316908
  0
LINE
  5
2C3
100
AcDbEntity
  8
RACCORDO
100
AcDbLine
 62
7
  6
CONTINUOUS
 10
19.6971735511
 20
77.8648338283
 11
19.6940286029
 21
77.8638316908
  0
LINE
  5
2C4
100
AcDbEntity
  8
RACCORDO
100
AcDbLine
 62
7
  6
CONTINUOUS
 10
12.2104170316
 20
77.869047815
 11
12.2002049607
 21
77.8658161259
  0
LINE
  5
2C5
100
AcDbEntity
  8
RACCORDO
100
AcDbLine
 62
7
  6
CONTINUOUS
 10
19.7104170316
 20
77.869047815
 11
19.7002049607
 21
77.8658161259
  0
LWPOLYLINE
  5
2C6
100
AcDbEntity
  8
RACCORDO
100
AcDbPolyline
 62
253
  6
CONTINUOUS
 90
5
 70
0
 10
12.1697069237
 20
77.8574014137
 10
12.1709396858
 20
77.8577872973
 10
12.172211985
 20
77.8580112719
 10
12.1735025858
 20
77.8580695992
 10
12.1737847577
 20
77.8580458627
  0
LWPOLYLINE
  5
2C7
100
AcDbEntity
  8
RACCORDO
100
AcDbPolyline
 62
253
  6
CONTINUOUS
 90
5
 70
0
 10
19.6697069237
 20
77.8574014137
 10
19.6709396858
 20
77.8577872973
 10
19.672211985
 20
77.8580112719
 10
19.6735025858
 20
77.8580695992
 10
19.6737847577
 20
77.8580458627
  0
LINE
  5
2C8
100
AcDbEntity
  8
RACCORDO
100
AcDbLine
 62
7
  6
CONTINUOUS
 10
12.1940286029
 20
77.8638316908
 11
12.1910250555
 21
77.8628909553
  0
LINE
  5
2C9
100
AcDbEntity
  8
RACCORDO
100
AcDbLine
 62
7
  6
CONTINUOUS
 10
19.6940286029
 20
77.8638316908
 11
19.6910250555
 21
77.8628909553
  0
LINE
  5
2CA
100
AcDbEntity
  8
RACCORDO
100
AcDbLine
 62
7
  6
CONTINUOUS
 10
12.1910250555
 20
77.8628909553
 11
12.1881849682
 21
77.8620176728
  0
LINE
  5
2CB
100
AcDbEntity
  8
RACCORDO
100
AcDbLine
 62
7
  6
CONTINUOUS
 10
19.6910250555
 20
77.8628909553
 11
19.6881849682
 21
77.8620176728
  0
LINE
  5
2CC
100
AcDbEntity
  8
RACCORDO
100
AcDbLine
 62
7
  6
CONTINUOUS
 10
12.1881849682
 20
77.8620176728
 11
12.1855281979
 21
77.8612172242
  0
LINE
  5
2CD
100
AcDbEntity
  8
RACCORDO
100
AcDbLine
 62
7
  6
CONTINUOUS
 10
19.6881849682
 20
77.8620176728
 11
19.6855281979
 21
77.8612172242
  0
LINE
  5
2CE
100
AcDbEntity
  8
RACCORDO
100
AcDbLine
 62
7
  6
CONTINUOUS
 10
12.1855281979
 20
77.8612172242
 11
12.1838694615
 21
77.8607271812
  0
LINE
  5
2CF
100
AcDbEntity
  8
RACCORDO
100
AcDbLine
 62
7
  6
CONTINUOUS
 10
19.6855281979
 20
77.8612172242
 11
19.6838694615
 21
77.8607271812
  0
LWPOLYLINE
  5
2D0
100
AcDbEntity
  8
RACCORDO
100
AcDbPolyline
 62
7
  6
CONTINUOUS
 90
3
 70
0
 10
12.1838694615
 20
77.8607271812
 10
12.182306057
 20
77.8602732703
 10
12.1815615361
 20
77.8600601144
  0
LWPOLYLINE
  5
2D1
100
AcDbEntity
  8
RACCORDO
100
AcDbPolyline
 62
7
  6
CONTINUOUS
 90
3
 70
0
 10
19.6838694615
 20
77.8607271812
 10
19.682306057
 20
77.8602732703
 10
19.6815615361
 20
77.8600601144
  0
LWPOLYLINE
  5
2D2
100
AcDbEntity
  8
RACCORDO
100
AcDbPolyline
 62
253
  6
CONTINUOUS
 90
22
 70
0
 10
-43.6592306398
 20
-128.9629848116
 10
-43.6592948918
 20
-128.9629927175
 10
-43.6593563787
 20
-128.9630379659
 10
-43.6594151313
 20
-128.9631200051
 10
-43.659471902
 20
-128.9632343655
 10
-43.6595259913
 20
-128.9633843808
 10
-43.6595752755
 20
-128.9635813045
 10
-43.6596200492
 20
-128.9638249142
 10
-43.6596601068
 20
-128.9641145216
 10
-43.6596926156
 20
-128.9644611319
 10
-43.6597177983
 20
-128.9648664847
 10
-43.6597355227
 20
-128.9653287178
 10
-43.6597424431
 20
-128.9658544554
 10
-43.6597383553
 20
-128.9664493506
 10
-43.6597234701
 20
-128.9671091644
 10
-43.6596950296
 20
-128.9678272405
 10
-43.6596519017
 20
-128.9686132496
 10
-43.6595950068
 20
-128.9694607523
 10
-43.6595246035
 20
-128.9703402051
 10
-43.6594406382
 20
-128.9712430808
 10
-43.6593427396
 20
-128.9721813365
 10
-43.6592306398
 20
-128.9731563156
  0
LINE
  5
2D3
100
AcDbEntity
  8
RACCORDO
100
AcDbLine
 62
253
  6
CONTINUOUS
 10
-43.6592306384
 20
-128.9731563154
 11
-43.6592833356
 21
-128.9731627224
  0
LWPOLYLINE
  5
2D4
100
AcDbEntity
  8
0
100
AcDbPolyline
 62
7
  6
CONTINUOUS
 90
19
 70
0
 10
-40.4989245413
 20
-123.8519557879
 10
-40.5299474706
 20
-123.8535270749
 10
-40.559459893
 20
-123.8580706839
 10
-40.5874618084
 20
-123.865316837
 10
-40.6140000899
 20
-123.8749371598
 10
-40.6390278644
 20
-123.8866676552
 10
-40.6624045131
 20
-123.9004128189
 10
-40.6841519946
 20
-123.9160129302
 10
-40.7042483502
 20
-123.9332186696
 10
-40.7224870848
 20
-123.9519059058
 10
-40.7388513195
 20
-123.971934804
 10
-40.7533579332
 20
-123.9930632162
 10
-40.7658510666
 20
-124.015024307
 10
-40.7762524897
 20
-124.0376435678
 10
-40.7846404326
 20
-124.0607024376
 10
-40.7910937262
 20
-124.0838534092
 10
-40.7956386473
 20
-124.1068591658
 10
-40.798248919
 20
-124.129608724
 10
-40.7989245413
 20
-124.1519557879
  0
LINE
  5
2D5
100
AcDbEntity
  8
0
100
AcDbLine
 62
7
  6
CONTINUOUS
 10
24.4833085057
 20
-124.9019557879
 11
25.2368082306
 21
-124.9019557879
  0
LINE
  5
2D6
100
AcDbEntity
  8
0
100
AcDbLine
 62
7
  6
CONTINUOUS
 10
-31.2166914943
 20
-124.9019557879
 11
-31.9701912191
 21
-124.9019557879
  0
LINE
  5
2D7
100
AcDbEntity
  8
0
100
AcDbLine
 62
7
  6
CONTINUOUS
 10
25.2368082306
 20
-124.6519557879
 11
25.0368082306
 21
-124.6519557879
  0
LINE
  5
2D8
100
AcDbEntity
  8
0
100
AcDbLine
 62
7
  6
CONTINUOUS
 10
-31.7701912191
 20
-124.6519557879
 11
-31.9701912191
 21
-124.6519557879
  0
LINE
  5
2D9
100
AcDbEntity
  8
SMUSSO
100
AcDbLine
 62
7
  6
CONTINUOUS
 10
24.7618152456
 20
-124.5019557879
 11
25.0368082306
 21
-124.5019557879
  0
LINE
  5
2DA
100
AcDbEntity
  8
SMUSSO
100
AcDbLine
 62
7
  6
CONTINUOUS
 10
-31.4951982341
 20
-124.5019557879
 11
-31.7701912191
 21
-124.5019557879
  0
LINE
  5
2DB
100
AcDbEntity
  8
SMUSSO
100
AcDbLine
 62
7
  6
CONTINUOUS
 10
24.7118085057
 20
-124.4519557879
 11
25.0368082306
 21
-124.4519557879
  0
LINE
  5
2DC
100
AcDbEntity
  8
SMUSSO
100
AcDbLine
 62
7
  6
CONTINUOUS
 10
-31.4451914943
 20
-124.4519557879
 11
-31.7701912191
 21
-124.4519557879
  0
LINE
  5
2DD
100
AcDbEntity
  8
0
100
AcDbLine
 62
253
  6
CONTINUOUS
 10
-31.2166914943
 20
-124.3019557879
 11
24.4833085057
 21
-124.3019557879
  0
LINE
  5
2DE
100
AcDbEntity
  8
0
100
AcDbLine
 62
7
  6
CONTINUOUS
 10
-43.3666914943
 20
-124.1519557879
 11
-40.7989245413
 21
-124.1519557879
  0
LINE
  5
2DF
100
AcDbEntity
  8
0
100
AcDbLine
 62
253
  6
CONTINUOUS
 10
25.0368082306
 20
-124.1519557879
 11
34.0655415528
 21
-124.1519557879
  0
LINE
  5
2E0
100
AcDbEntity
  8
0
100
AcDbLine
 62
7
  6
CONTINUOUS
 10
34.0655415528
 20
-124.1519557879
 11
36.6333085057
 21
-124.1519557879
  0
LINE
  5
2E1
100
AcDbEntity
  8
0
100
AcDbLine
 62
253
  6
CONTINUOUS
 10
-31.7701912191
 20
-124.1519557879
 11
-40.7989245413
 21
-124.1519557879
  0
LINE
  5
2E2
100
AcDbEntity
  8
0
100
AcDbLine
 62
7
  6
CONTINUOUS
 10
-43.0666914943
 20
-124.1019557879
 11
-41.0666914943
 21
-124.1019557879
  0
LINE
  5
2E3
100
AcDbEntity
  8
0
100
AcDbLine
 62
7
  6
CONTINUOUS
 10
36.3333085057
 20
-124.1019557879
 11
34.3333085057
 21
-124.1019557879
  0
LINE
  5
2E4
100
AcDbEntity
  8
0
100
AcDbLine
 62
7
  6
CONTINUOUS
 10
-31.2166914943
 20
-123.9019557879
 11
24.4833085057
 21
-123.9019557879
  0
LINE
  5
2E5
100
AcDbEntity
  8
RACCORDO
100
AcDbLine
 62
7
  6
CONTINUOUS
 10
32.6333085057
 20
-123.8519557879
 11
36.6333085057
 21
-123.8519557879
  0
LINE
  5
2E6
100
AcDbEntity
  8
0
100
AcDbLine
 62
7
  6
CONTINUOUS
 10
32.6333085057
 20
-123.8519557879
 11
-39.3666914943
 21
-123.8519557879
  0
LINE
  5
2E7
100
AcDbEntity
  8
RACCORDO
100
AcDbLine
 62
7
  6
CONTINUOUS
 10
-39.3666914943
 20
-123.8519557879
 11
-43.3666914943
 21
-123.8519557879
  0
LINE
  5
2E8
100
AcDbEntity
  8
RACCORDO
100
AcDbLine
 62
7
  6
CONTINUOUS
 10
-43.3666914943
 20
-123.7019557879
 11
-39.3666914943
 21
-123.7019557879
  0
LINE
  5
2E9
100
AcDbEntity
  8
0
100
AcDbLine
 62
7
  6
CONTINUOUS
 10
-43.3666914943
 20
-123.7019557879
 11
-38.7666914943
 21
-123.7019557879
  0
LINE
  5
2EA
100
AcDbEntity
  8
RACCORDO
100
AcDbLine
 62
7
  6
CONTINUOUS
 10
32.6333085057
 20
-123.7019557879
 11
36.6333085057
 21
-123.7019557879
  0
LINE
  5
2EB
100
AcDbEntity
  8
0
100
AcDbLine
 62
7
  6
CONTINUOUS
 10
32.0333085057
 20
-123.7019557879
 11
36.6333085057
 21
-123.7019557879
  0
LINE
  5
2EC
100
AcDbEntity
  8
0
100
AcDbLine
 62
253
  6
CONTINUOUS
 10
32.0333085057
 20
-123.6519557879
 11
-38.7666914943
 21
-123.6519557879
  0
LINE
  5
2ED
100
AcDbEntity
  8
RACCORDO
100
AcDbLine
 62
253
  6
CONTINUOUS
 10
36.9171784508
 20
-128.9520405873
 11
36.9159734504
 21
-128.9519557879
  0
LINE
  5
2EE
100
AcDbEntity
  8
RACCORDO
100
AcDbLine
 62
253
  6
CONTINUOUS
 10
36.9258476415
 20
-128.9731563144
 11
36.9259002783
 21
-128.9731627085
  0
LWPOLYLINE
  5
2EF
100
AcDbEntity
  8
RACCORDO
100
AcDbPolyline
 62
253
  6
CONTINUOUS
 90
11
 70
0
 10
36.9010299593
 20
-128.9629848116
 10
36.9001148268
 20
-128.9628329063
 10
36.8992357813
 20
-128.9624562578
 10
36.8983946742
 20
-128.9618507741
 10
36.8975900966
 20
-128.9609997116
 10
36.8968267793
 20
-128.9599126402
 10
36.896115917
 20
-128.9586282273
 10
36.8954599126
 20
-128.957146745
 10
36.8948596061
 20
-128.9554694761
 10
36.8943240943
 20
-128.9536419838
 10
36.8939238975
 20
-128.9519557879
  0
LINE
  5
2F0
100
AcDbEntity
  8
RACCORDO
100
AcDbLine
 62
7
  6
CONTINUOUS
 10
-43.6292250512
 20
-128.8503404567
 11
-43.6293588559
 21
-128.8501895178
  0
LWPOLYLINE
  5
2F1
100
AcDbEntity
  8
RACCORDO
100
AcDbPolyline
 62
253
  6
CONTINUOUS
 90
9
 70
0
 10
-18.9030899111
 20
77.8574014163
 10
-18.9032011153
 20
77.8572947412
 10
-18.9035289789
 20
77.8572618259
 10
-18.9040721141
 20
77.8573027567
 10
-18.9048323519
 20
77.8574178721
 10
-18.9058050992
 20
77.8576064234
 10
-18.9069780681
 20
77.8578665849
 10
-18.9083495747
 20
77.858198155
 10
-18.9099157425
 20
77.8585997949
  0
LINE
  5
2F2
100
AcDbEntity
  8
RACCORDO
100
AcDbLine
 62
7
  6
CONTINUOUS
 10
-19.0650761631
 20
77.8605777691
 11
-19.0649252242
 21
77.8607115738
  0
LWPOLYLINE
  5
2F3
100
AcDbEntity
  8
RACCORDO
100
AcDbPolyline
 62
7
  6
CONTINUOUS
 90
11
 70
0
 10
12.4387948432
 20
77.8897470247
 10
12.4379259533
 20
77.8892322901
 10
12.437111762
 20
77.8886376913
 10
12.4363440027
 20
77.8879521393
 10
12.4356282581
 20
77.8871688311
 10
12.434981046
 20
77.8862908563
 10
12.4344164485
 20
77.8853198215
 10
12.4339451775
 20
77.8842466853
 10
12.4335878837
 20
77.8830736548
 10
12.4333692267
 20
77.88181742
 10
12.4333085273
 20
77.8807091196
  0
LWPOLYLINE
  5
2F4
100
AcDbEntity
  8
RACCORDO
100
AcDbPolyline
 62
7
  6
CONTINUOUS
 90
4
 70
0
 10
12.4349381581
 20
77.8606265307
 10
12.4346580415
 20
77.8604748792
 10
12.4341924733
 20
77.8602581621
 10
12.4335387101
 20
77.8599971653
  0
LINE
  5
2F5
100
AcDbEntity
  8
0
100
AcDbLine
 62
253
  6
CONTINUOUS
 10
32.0333085057
 20
-117.4519557879
 11
-38.7666914943
 21
-117.4519557879
  0
LINE
  5
2F6
100
AcDbEntity
  8
0
100
AcDbLine
 62
7
  6
CONTINUOUS
 10
-38.8666914943
 20
-117.2519557879
 11
32.0333085057
 21
-117.2519557879
  0
LINE
  5
2F7
100
AcDbEntity
  8
0
100
AcDbLine
 62
253
  6
CONTINUOUS
 10
30.2333085057
 20
-117.2019557879
 11
-36.9666914943
 21
-117.2019557879
  0
LINE
  5
2F8
100
AcDbEntity
  8
0
100
AcDbLine
 62
7
  6
CONTINUOUS
 10
-38.8666914943
 20
-117.0019557879
 11
-37.5168649457
 21
-117.0019557879
  0
LINE
  5
2F9
100
AcDbEntity
  8
0
100
AcDbLine
 62
7
  6
CONTINUOUS
 10
32.0833085057
 20
-117.0019557879
 11
-37.5168649457
 21
-117.0019557879
  0
LINE
  5
2FA
100
AcDbEntity
  8
0
100
AcDbLine
 62
7
  6
CONTINUOUS
 10
-38.5716914943
 20
-116.9019557879
 11
-38.6916914943
 21
-116.9019557879
  0
LINE
  5
2FB
100
AcDbEntity
  8
0
100
AcDbLine
 62
253
  6
CONTINUOUS
 10
32.2283085057
 20
-116.8019557879
 11
-38.5716914943
 21
-116.8019557879
  0
LINE
  5
2FC
100
AcDbEntity
  8
RACCORDO
100
AcDbLine
 62
253
  6
CONTINUOUS
 10
36.918605034
 20
-128.9523205936
 11
36.9176392703
 21
-128.9521140102
  0
LINE
  5
2FD
100
AcDbEntity
  8
RACCORDO
100
AcDbLine
 62
253
  6
CONTINUOUS
 10
36.9010299527
 20
-129.0850428569
 11
36.9010804167
 21
-129.0850593322
  0
LWPOLYLINE
  5
2FE
100
AcDbEntity
  8
RACCORDO
100
AcDbPolyline
 62
7
  6
CONTINUOUS
 90
5
 70
0
 10
-43.6293588559
 20
-128.8501895178
 10
-43.629278174
 20
-128.8503180799
 10
-43.6291221613
 20
-128.8506062521
 10
-43.6289054442
 20
-128.8510718203
 10
-43.6286444474
 20
-128.8517255835
  0
LWPOLYLINE
  5
2FF
100
AcDbEntity
  8
RACCORDO
100
AcDbPolyline
 62
7
  6
CONTINUOUS
 90
11
 70
0
 10
19.9387948432
 20
77.8897470247
 10
19.9379259533
 20
77.8892322901
 10
19.937111762
 20
77.8886376913
 10
19.9363440027
 20
77.8879521393
 10
19.9356282581
 20
77.8871688311
 10
19.934981046
 20
77.8862908563
 10
19.9344164485
 20
77.8853198215
 10
19.9339451775
 20
77.8842466853
 10
19.9335878837
 20
77.8830736548
 10
19.9333692267
 20
77.88181742
 10
19.9333085273
 20
77.8807091196
  0
LWPOLYLINE
  5
300
100
AcDbEntity
  8
RACCORDO
100
AcDbPolyline
 62
7
  6
CONTINUOUS
 90
4
 70
0
 10
19.9349381581
 20
77.8606265307
 10
19.9346580415
 20
77.8604748792
 10
19.9341924733
 20
77.8602581621
 10
19.9335387101
 20
77.8599971653
  0
LINE
  5
301
100
AcDbEntity
  8
RACCORDO
100
AcDbLine
 62
7
  6
CONTINUOUS
 10
12.4349238369
 20
77.8605777691
 11
12.4350747758
 21
77.8607115738
  0
LINE
  5
302
100
AcDbEntity
  8
RACCORDO
100
AcDbLine
 62
7
  6
CONTINUOUS
 10
-26.177720906
 20
-123.8585734349
 11
-26.1516914943
 21
-123.9019557879
  0
LWPOLYLINE
  5
303
100
AcDbEntity
  8
RACCORDO
100
AcDbPolyline
 62
7
  6
CONTINUOUS
 90
12
 70
0
 10
-43.6591365328
 20
-128.8447164388
 10
-43.6588061133
 20
-128.8456015485
 10
-43.6583734744
 20
-128.846508506
 10
-43.6578491676
 20
-128.8473842257
 10
-43.6572435909
 20
-128.8482034866
 10
-43.6565455681
 20
-128.8489744791
 10
-43.6557481884
 20
-128.8496914582
 10
-43.6548547294
 20
-128.8503375201
 10
-43.6538671727
 20
-128.85089808
 10
-43.6527767295
 20
-128.8513618775
 10
-43.6515861374
 20
-128.8517077222
 10
-43.650381831
 20
-128.8518996056
  0
LWPOLYLINE
  5
304
100
AcDbEntity
  8
RACCORDO
100
AcDbPolyline
 62
7
  6
CONTINUOUS
 90
11
 70
0
 10
-43.6286444474
 20
-128.8517255835
 10
-43.628359165
 20
-128.8525610688
 10
-43.6280624396
 20
-128.8535822954
 10
-43.6277662198
 20
-128.8547924137
 10
-43.6274843305
 20
-128.8561785956
 10
-43.627226281
 20
-128.8577365036
 10
-43.6270015626
 20
-128.8594597391
 10
-43.6268202067
 20
-128.8613273674
 10
-43.6266888099
 20
-128.8633246813
 10
-43.6266131221
 20
-128.8654366337
 10
-43.6265990748
 20
-128.8676366824
  0
LINE
  5
305
100
AcDbEntity
  8
RACCORDO
100
AcDbLine
 62
7
  6
CONTINUOUS
 10
-43.6344630699
 20
-129.0850592225
 11
-43.6334811104
 21
-129.0880907425
  0
LWPOLYLINE
  5
306
100
AcDbEntity
  8
RACCORDO
100
AcDbPolyline
 62
253
  6
CONTINUOUS
 90
10
 70
0
 10
-43.6344129479
 20
-129.0850428591
 10
-43.6326012295
 20
-129.0906767698
 10
-43.6317570021
 20
-129.0933508769
 10
-43.6309548161
 20
-129.0959356586
 10
-43.6301980197
 20
-129.0984196259
 10
-43.6294931928
 20
-129.100774147
 10
-43.6288413339
 20
-129.1029975162
 10
-43.6282446055
 20
-129.1050843489
 10
-43.627711425
 20
-129.1070015069
 10
-43.6272445876
 20
-129.1087410597
  0
LINE
  5
307
100
AcDbEntity
  8
RACCORDO
100
AcDbLine
 62
7
  6
CONTINUOUS
 10
-43.6334811104
 20
-129.0880907425
 11
-43.6324789729
 21
-129.0912356906
  0
LWPOLYLINE
  5
308
100
AcDbEntity
  8
RACCORDO
100
AcDbPolyline
 62
253
  6
CONTINUOUS
 90
5
 70
0
 10
-43.6260486958
 20
-129.1155573699
 10
-43.6264345794
 20
-129.1143246078
 10
-43.626658554
 20
-129.1130523086
 10
-43.6267168813
 20
-129.1117617078
 10
-43.6266931448
 20
-129.1114795359
  0
LINE
  5
309
100
AcDbEntity
  8
RACCORDO
100
AcDbLine
 62
7
  6
CONTINUOUS
 10
-43.6324789729
 20
-129.0912356906
 11
-43.6315382374
 21
-129.0942392381
  0
LINE
  5
30A
100
AcDbEntity
  8
RACCORDO
100
AcDbLine
 62
7
  6
CONTINUOUS
 10
-43.6315382374
 20
-129.0942392381
 11
-43.630664955
 21
-129.0970793254
  0
LINE
  5
30B
100
AcDbEntity
  8
RACCORDO
100
AcDbLine
 62
7
  6
CONTINUOUS
 10
-43.630664955
 20
-129.0970793254
 11
-43.630122833
 21
-129.0988721937
  0
LWPOLYLINE
  5
30C
100
AcDbEntity
  8
RACCORDO
100
AcDbPolyline
 62
253
  6
CONTINUOUS
 90
9
 70
0
 10
12.5969100889
 20
77.8574014163
 10
12.5967988847
 20
77.8572947412
 10
12.5964710211
 20
77.8572618259
 10
12.5959278859
 20
77.8573027567
 10
12.5951676481
 20
77.8574178721
 10
12.5941949008
 20
77.8576064234
 10
12.5930219319
 20
77.8578665849
 10
12.5916504253
 20
77.858198155
 10
12.5900842575
 20
77.8585997949
  0
LWPOLYLINE
  5
30D
100
AcDbEntity
  8
RACCORDO
100
AcDbPolyline
 62
253
  6
CONTINUOUS
 90
9
 70
0
 10
20.0969100889
 20
77.8574014163
 10
20.0967988847
 20
77.8572947412
 10
20.0964710211
 20
77.8572618259
 10
20.0959278859
 20
77.8573027567
 10
20.0951676481
 20
77.8574178721
 10
20.0941949008
 20
77.8576064234
 10
20.0930219319
 20
77.8578665849
 10
20.0916504253
 20
77.858198155
 10
20.0900842575
 20
77.8585997949
  0
LINE
  5
30E
100
AcDbEntity
  8
RACCORDO
100
AcDbLine
 62
7
  6
CONTINUOUS
 10
19.9349238369
 20
77.8605777691
 11
19.9350747758
 21
77.8607115738
  0
LINE
  5
30F
100
AcDbEntity
  8
0
100
AcDbLine
 62
7
  6
CONTINUOUS
 10
37.1433085057
 20
66.2580442121
 11
37.0433085057
 21
66.2013775455
  0
LINE
  5
310
100
AcDbEntity
  8
RACCORDO
100
AcDbLine
 62
7
  6
CONTINUOUS
 10
-43.630122833
 20
-129.0988721937
 11
-43.6296150028
 21
-129.1005771712
  0
LINE
  5
311
100
AcDbEntity
  8
RACCORDO
100
AcDbLine
 62
7
  6
CONTINUOUS
 10
-43.6296150028
 20
-129.1005771712
 11
-43.6291429507
 21
-129.1021886938
  0
LINE
  5
312
100
AcDbEntity
  8
RACCORDO
100
AcDbLine
 62
7
  6
CONTINUOUS
 10
-43.6291429507
 20
-129.1021886938
 11
-43.6287073965
 21
-129.1037027575
  0
LWPOLYLINE
  5
313
100
AcDbEntity
  8
RACCORDO
100
AcDbPolyline
 62
253
  6
CONTINUOUS
 90
4
 70
0
 10
-43.6424430051
 20
-129.0583204505
 10
-43.639988615
 20
-129.0669961809
 10
-43.6373163917
 20
-129.0759063782
 10
-43.6344129479
 20
-129.0850428591
  0
LINE
  5
314
100
AcDbEntity
  8
RACCORDO
100
AcDbLine
 62
7
  6
CONTINUOUS
 10
-43.6287073965
 20
-129.1037027575
 11
-43.6283093363
 21
-129.1051139071
  0
LINE
  5
315
100
AcDbEntity
  8
RACCORDO
100
AcDbLine
 62
7
  6
CONTINUOUS
 10
-43.6283093363
 20
-129.1051139071
 11
-43.6279499161
 21
-129.1064177905
  0
LINE
  5
316
100
AcDbEntity
  8
RACCORDO
100
AcDbLine
 62
7
  6
CONTINUOUS
 10
-43.6279499161
 20
-129.1064177905
 11
-43.627630117
 21
-129.1076104001
  0
LWPOLYLINE
  5
317
100
AcDbEntity
  8
RACCORDO
100
AcDbPolyline
 62
7
  6
CONTINUOUS
 90
4
 70
0
 10
-43.627630117
 20
-129.1076104001
 10
-43.6273500425
 20
-129.1086891284
 10
-43.627224857
 20
-129.1091848475
 10
-43.6271900497
 20
-129.1093255328
  0
LWPOLYLINE
  5
318
100
AcDbEntity
  8
RACCORDO
100
AcDbPolyline
 62
253
  6
CONTINUOUS
 90
9
 70
0
 10
-43.6272445876
 20
-129.1087410597
 10
-43.6268438518
 20
-129.1103041207
 10
-43.6265130169
 20
-129.1116728053
 10
-43.6262534287
 20
-129.1128429023
 10
-43.6260652746
 20
-129.1138131827
 10
-43.6259503856
 20
-129.1145721693
 10
-43.6259095116
 20
-129.1151153944
 10
-43.6259423111
 20
-129.1154442984
 10
-43.6260486984
 20
-129.115557371
  0
LWPOLYLINE
  5
319
100
AcDbEntity
  8
RACCORDO
100
AcDbPolyline
 62
253
  6
CONTINUOUS
 90
3
 70
0
 10
-43.6486273029
 20
-129.0337740464
 10
-43.6467500708
 20
-129.0417125178
 10
-43.6446926433
 20
-129.0498918498
  0
LINE
  5
31A
100
AcDbEntity
  8
RACCORDO
100
AcDbLine
 62
7
  6
CONTINUOUS
 10
-43.6271900497
 20
-129.1093255328
 11
-43.6266883924
 21
-129.1115034105
  0
LINE
  5
31B
100
AcDbEntity
  8
RACCORDO
100
AcDbLine
 62
253
  6
CONTINUOUS
 10
-43.627306886
 20
-128.8519557879
 11
-43.6272123977
 21
-128.8523830839
  0
LINE
  5
31C
100
AcDbEntity
  8
RACCORDO
100
AcDbLine
 62
253
  6
CONTINUOUS
 10
-43.6518877934
 20
-129.0186439194
 11
-43.650336067
 21
-129.0260828077
  0
LINE
  5
31D
100
AcDbEntity
  8
RACCORDO
100
AcDbLine
 62
253
  6
CONTINUOUS
 10
-26.4336044252
 20
77.8657656591
 11
-26.4335879499
 21
77.8658161231
  0
LINE
  5
31E
100
AcDbEntity
  8
RACCORDO
100
AcDbLine
 62
7
  6
CONTINUOUS
 10
-43.6266883924
 20
-129.1115034105
 11
-43.6266046313
 21
-129.1119406342
  0
LINE
  5
31F
100
AcDbEntity
  8
RACCORDO
100
AcDbLine
 62
7
  6
CONTINUOUS
 10
-43.6266911712
 20
-129.1114900715
 11
-43.6266001824
 21
-129.1119651559
  0
LINE
  5
320
100
AcDbEntity
  8
RACCORDO
100
AcDbLine
 62
253
  6
CONTINUOUS
 10
-43.6272123977
 20
-128.8523830839
 11
-43.6268399483
 21
-128.8543488071
  0
LINE
  5
321
100
AcDbEntity
  8
RACCORDO
100
AcDbLine
 62
253
  6
CONTINUOUS
 10
-43.6545622265
 20
-129.0044996882
 11
-43.6532934055
 21
-129.0114461708
  0
LINE
  5
322
100
AcDbEntity
  8
RACCORDO
100
AcDbLine
 62
253
  6
CONTINUOUS
 10
-43.6567352594
 20
-128.9913199747
 11
-43.6557053738
 21
-128.9978014654
  0
LWPOLYLINE
  5
323
100
AcDbEntity
  8
RACCORDO
100
AcDbPolyline
 62
7
  6
CONTINUOUS
 90
4
 70
0
 10
-43.659681313
 20
-128.8422441479
 10
-43.659555492
 20
-128.8430518074
 10
-43.659378702
 20
-128.8438727851
 10
-43.6591365328
 20
-128.8447164388
  0
LWPOLYLINE
  5
324
100
AcDbEntity
  8
RACCORDO
100
AcDbPolyline
 62
7
  6
CONTINUOUS
 90
9
 70
0
 10
-43.6579110797
 20
-128.9836534582
 10
-43.655927414
 20
-128.996771839
 10
-43.6536287294
 20
-129.0099460965
 10
-43.6510320921
 20
-129.0230645343
 10
-43.6481388921
 20
-129.0361203764
 10
-43.6449505817
 20
-129.0491070623
 10
-43.6414687108
 20
-129.0620182752
 10
-43.6376950971
 20
-129.074847262
 10
-43.634463408
 20
-129.0850593329
  0
LWPOLYLINE
  5
325
100
AcDbEntity
  8
RACCORDO
100
AcDbPolyline
 62
253
  6
CONTINUOUS
 90
7
 70
0
 10
-43.6268399483
 20
-128.8543488071
 10
-43.6265101131
 20
-128.8565654517
 10
-43.6262513653
 20
-128.8588813212
 10
-43.6260641725
 20
-128.8612915229
 10
-43.6259500084
 20
-128.8637622615
 10
-43.625909501
 20
-128.8662775029
 10
-43.6259424263
 20
-128.8688394936
  0
LINE
  5
326
100
AcDbEntity
  8
RACCORDO
100
AcDbLine
 62
7
  6
CONTINUOUS
 10
-43.659283337
 20
-128.9731627169
 11
-43.6579110797
 21
-128.9836534582
  0
LWPOLYLINE
  5
327
100
AcDbEntity
  8
RACCORDO
100
AcDbPolyline
 62
253
  6
CONTINUOUS
 90
3
 70
0
 10
-43.6592306398
 20
-128.9731563156
 10
-43.6584905969
 20
-128.9789916202
 10
-43.6576613322
 20
-128.9850459847
  0
LINE
  5
328
100
AcDbEntity
  8
RACCORDO
100
AcDbLine
 62
7
  6
CONTINUOUS
 10
-43.6595509281
 20
-128.9706837726
 11
-43.6594020152
 21
-128.9721392256
  0
LINE
  5
329
100
AcDbEntity
  8
RACCORDO
100
AcDbLine
 62
7
  6
CONTINUOUS
 10
-43.6596612849
 20
-128.969406588
 11
-43.6595410138
 21
-128.9707886816
  0
LINE
  5
32A
100
AcDbEntity
  8
RACCORDO
100
AcDbLine
 62
7
  6
CONTINUOUS
 10
-43.6597466505
 20
-128.9681972849
 11
-43.6596541664
 21
-128.9694964543
  0
LINE
  5
32B
100
AcDbEntity
  8
RACCORDO
100
AcDbLine
 62
7
  6
CONTINUOUS
 10
-43.6267919059
 20
-128.9311530572
 11
-43.6267187655
 21
-128.932507297
  0
LINE
  5
32C
100
AcDbEntity
  8
RACCORDO
100
AcDbLine
 62
7
  6
CONTINUOUS
 10
-43.6598075898
 20
-128.9670631735
 11
-43.6597419164
 21
-128.9682728156
  0
LINE
  5
32D
100
AcDbEntity
  8
RACCORDO
100
AcDbLine
 62
7
  6
CONTINUOUS
 10
-43.626988928
 20
-128.9271443851
 11
-43.6267792265
 21
-128.9313922982
  0
LINE
  5
32E
100
AcDbEntity
  8
RACCORDO
100
AcDbLine
 62
7
  6
CONTINUOUS
 10
-43.6267184771
 20
-128.932507296
 11
-43.6266573871
 21
-128.9338432267
  0
LINE
  5
32F
100
AcDbEntity
  8
RACCORDO
100
AcDbLine
 62
253
  6
CONTINUOUS
 10
-26.5663266885
 20
77.8833407404
 11
-26.5665332719
 21
77.8823749767
  0
LINE
  5
330
100
AcDbEntity
  8
RACCORDO
100
AcDbLine
 62
253
  6
CONTINUOUS
 10
-18.9336044252
 20
77.8657656591
 11
-18.9335879499
 21
77.8658161231
  0
LINE
  5
331
100
AcDbEntity
  8
0
100
AcDbLine
 62
7
  6
CONTINUOUS
 10
37.7433085057
 20
67.3230442121
 11
37.5433085057
 21
67.1530442121
  0
LINE
  5
332
100
AcDbEntity
  8
SMUSSO
100
AcDbLine
 62
7
  6
CONTINUOUS
 10
24.7118085057
 20
-124.4519557879
 11
24.7618085057
 21
-124.5019557879
  0
LINE
  5
333
100
AcDbEntity
  8
RACCORDO
100
AcDbLine
 62
7
  6
CONTINUOUS
 10
-43.6594152879
 20
-128.9720187168
 11
-43.6592832804
 21
-128.9731627152
  0
LINE
  5
334
100
AcDbEntity
  8
RACCORDO
100
AcDbLine
 62
7
  6
CONTINUOUS
 10
-43.6271569012
 20
-128.9231344037
 11
-43.6269779838
 21
-128.9273836832
  0
LINE
  5
335
100
AcDbEntity
  8
RACCORDO
100
AcDbLine
 62
253
  6
CONTINUOUS
 10
-43.6260486984
 20
-128.9324702997
 11
-43.6259424151
 21
-128.9350802455
  0
LINE
  5
336
100
AcDbEntity
  8
RACCORDO
100
AcDbLine
 62
7
  6
CONTINUOUS
 10
-43.659843736
 20
-128.9660543803
 11
-43.6598047893
 21
-128.9671252735
  0
LINE
  5
337
100
AcDbEntity
  8
RACCORDO
100
AcDbLine
 62
7
  6
CONTINUOUS
 10
-43.6272958151
 20
-128.9191233491
 11
-43.6271476916
 21
-128.9233737596
  0
LWPOLYLINE
  5
338
100
AcDbEntity
  8
RACCORDO
100
AcDbPolyline
 62
253
  6
CONTINUOUS
 90
13
 70
0
 10
-43.6592306396
 20
-128.9629848116
 10
-43.6592767575
 20
-128.9615918182
 10
-43.6591301641
 20
-128.9602058954
 10
-43.6587937071
 20
-128.9588539662
 10
-43.6582739223
 20
-128.957562293
 10
-43.6575809072
 20
-128.9563559677
 10
-43.6567281241
 20
-128.9552584244
 10
-43.6557321392
 20
-128.9542909837
 10
-43.6546123004
 20
-128.9534724392
 10
-43.6533903617
 20
-128.9528186919
 10
-43.6520900602
 20
-128.9523424413
 10
-43.6507366555
 20
-128.952052939
 10
-43.6493564389
 20
-128.951955809
  0
LWPOLYLINE
  5
339
100
AcDbEntity
  8
RACCORDO
100
AcDbPolyline
 62
253
  6
CONTINUOUS
 90
10
 70
0
 10
-43.6344129428
 20
-128.962984811
 10
-43.634457108
 20
-128.9615918157
 10
-43.6343167285
 20
-128.9602058909
 10
-43.6339945313
 20
-128.9588539595
 10
-43.6334967754
 20
-128.957562284
 10
-43.6328331301
 20
-128.9563559565
 10
-43.6320164874
 20
-128.955258411
 10
-43.6310627114
 20
-128.9542909683
 10
-43.62999033
 20
-128.9534724221
 10
-43.6289237432
 20
-128.9528765352
  0
LINE
  5
33A
100
AcDbEntity
  8
RACCORDO
100
AcDbLine
 62
7
  6
CONTINUOUS
 10
-43.627405664
 20
-128.9151114174
 11
-43.6272883401
 21
-128.919362758
  0
LINE
  5
33B
100
AcDbEntity
  8
RACCORDO
100
AcDbLine
 62
7
  6
CONTINUOUS
 10
-43.6266573871
 20
-128.9338432267
 11
-43.6266020611
 21
-128.9359879949
  0
LINE
  5
33C
100
AcDbEntity
  8
RACCORDO
100
AcDbLine
 62
7
  6
CONTINUOUS
 10
-43.6274864428
 20
-128.9110987908
 11
-43.6273999238
 21
-128.9153508729
  0
LINE
  5
33D
100
AcDbEntity
  8
RACCORDO
100
AcDbLine
 62
7
  6
CONTINUOUS
 10
-43.6598516255
 20
-128.9641095738
 11
-43.6598075898
 21
-128.9670631735
  0
LINE
  5
33E
100
AcDbEntity
  8
RACCORDO
100
AcDbLine
 62
7
  6
CONTINUOUS
 10
-43.6275381475
 20
-128.9070856725
 11
-43.6274824375
 21
-128.9113382878
  0
LWPOLYLINE
  5
33F
100
AcDbEntity
  8
RACCORDO
100
AcDbPolyline
 62
253
  6
CONTINUOUS
 90
7
 70
0
 10
-43.6259424151
 20
-128.9350802455
 10
-43.6259096945
 20
-128.937648764
 10
-43.6259506222
 20
-128.9401688651
 10
-43.6260654452
 20
-128.9426422805
 10
-43.6262535084
 20
-128.9450534572
 10
-43.6265132615
 20
-128.947370064
 10
-43.6268443044
 20
-128.94958797
  0
LINE
  5
340
100
AcDbEntity
  8
RACCORDO
100
AcDbLine
 62
7
  6
CONTINUOUS
 10
-43.6275604676
 20
-128.9031270029
 11
-43.6275358772
 21
-128.9073252085
  0
LWPOLYLINE
  5
341
100
AcDbEntity
  8
RACCORDO
100
AcDbPolyline
 62
253
  6
CONTINUOUS
 90
10
 70
0
 10
-43.6268908136
 20
-128.9019557879
 10
-43.6268804346
 20
-128.9053468294
 10
-43.6268492855
 20
-128.9087361456
 10
-43.6267973426
 20
-128.9121254399
 10
-43.6267244575
 20
-128.915519535
 10
-43.6266306843
 20
-128.9189170072
 10
-43.626516281
 20
-128.9223101403
 10
-43.6263812726
 20
-128.9256974275
 10
-43.62622545
 20
-128.9290836138
 10
-43.6260486984
 20
-128.9324702997
  0
LINE
  5
342
100
AcDbEntity
  8
0
100
AcDbLine
 62
7
  6
CONTINUOUS
 10
-46.5566914943
 20
66.6230442121
 11
-46.5566914943
 21
67.3230442121
  0
LINE
  5
343
100
AcDbEntity
  8
0
100
AcDbLine
 62
7
  6
CONTINUOUS
 10
-46.3866914943
 20
66.3230442121
 11
-46.3866914943
 21
66.6230442121
  0
LINE
  5
344
100
AcDbEntity
  8
0
100
AcDbLine
 62
7
  6
CONTINUOUS
 10
-46.3866914943
 20
67.3230442121
 11
-46.3866914943
 21
67.6230442121
  0
LINE
  5
345
100
AcDbEntity
  8
0
100
AcDbLine
 62
7
  6
CONTINUOUS
 10
-44.6766914943
 20
67.5330442121
 11
-44.6766914943
 21
67.3230442121
  0
LINE
  5
346
100
AcDbEntity
  8
0
100
AcDbLine
 62
7
  6
CONTINUOUS
 10
-44.6766914943
 20
66.6230442121
 11
-44.6766914943
 21
66.4130442121
  0
LINE
  5
347
100
AcDbEntity
  8
0
100
AcDbLine
 62
7
  6
CONTINUOUS
 10
-43.8766914943
 20
66.2580442121
 11
-43.8766914943
 21
67.6880442121
  0
LINE
  5
348
100
AcDbEntity
  8
0
100
AcDbLine
 62
7
  6
CONTINUOUS
 10
-43.7766914943
 20
66.0230442121
 11
-43.7766914943
 21
67.9230442121
  0
LINE
  5
349
100
AcDbEntity
  8
0
100
AcDbLine
 62
7
  6
CONTINUOUS
 10
-43.6166914943
 20
65.8730442121
 11
-43.6166914943
 21
68.0730442121
  0
LINE
  5
34A
100
AcDbEntity
  8
0
100
AcDbLine
 62
253
  6
CONTINUOUS
 10
-43.3976176688
 20
-128.40520411
 11
-43.3976176688
 21
-129.3987074657
  0
LINE
  5
34B
100
AcDbEntity
  8
0
100
AcDbLine
 62
7
  6
CONTINUOUS
 10
-43.3666914943
 20
-133.6519557879
 11
-43.3666914943
 21
-124.1519557879
  0
LINE
  5
34C
100
AcDbEntity
  8
RACCORDO
100
AcDbLine
 62
7
  6
CONTINUOUS
 10
-43.3666914943
 20
-123.8519557879
 11
-43.3666914943
 21
-123.7019557879
  0
LINE
  5
34D
100
AcDbEntity
  8
RACCORDO
100
AcDbLine
 62
7
  6
CONTINUOUS
 10
-43.3666914943
 20
77.4480442121
 11
-43.3666914943
 21
77.2980442121
  0
LINE
  5
34E
100
AcDbEntity
  8
0
100
AcDbLine
 62
7
  6
CONTINUOUS
 10
-43.3666914943
 20
77.2980442121
 11
-43.3666914943
 21
-123.7019557879
  0
LINE
  5
34F
100
AcDbEntity
  8
0
100
AcDbLine
 62
253
  6
CONTINUOUS
 10
-43.1323769192
 20
-124.1519557879
 11
-43.1323769192
 21
-133.6519557879
  0
LINE
  5
350
100
AcDbEntity
  8
0
100
AcDbLine
 62
253
  6
CONTINUOUS
 10
-43.0666914943
 20
-133.9519557879
 11
-43.0666914943
 21
-133.7019557879
  0
LINE
  5
351
100
AcDbEntity
  8
RACCORDO
100
AcDbLine
 62
253
  6
CONTINUOUS
 10
-43.0666914943
 20
-123.8519557879
 11
-43.0666914943
 21
-123.7019557879
  0
LINE
  5
352
100
AcDbEntity
  8
RACCORDO
100
AcDbLine
 62
253
  6
CONTINUOUS
 10
-43.0666914943
 20
77.4480442121
 11
-43.0666914943
 21
77.2980442121
  0
LINE
  5
353
100
AcDbEntity
  8
0
100
AcDbLine
 62
253
  6
CONTINUOUS
 10
-43.0666914943
 20
77.2980442121
 11
-43.0666914943
 21
-123.7019557879
  0
LINE
  5
354
100
AcDbEntity
  8
0
100
AcDbLine
 62
7
  6
CONTINUOUS
 10
-43.0666914943
 20
-123.8519557879
 11
-43.0666914943
 21
-124.1019557879
  0
LINE
  5
355
100
AcDbEntity
  8
0
100
AcDbLine
 62
7
  6
CONTINUOUS
 10
-43.0616662411
 20
-133.7019557879
 11
-43.0616662411
 21
-133.9519557879
  0
LINE
  5
356
100
AcDbEntity
  8
0
100
AcDbLine
 62
253
  6
CONTINUOUS
 10
-42.9666914943
 20
-133.7019557879
 11
-42.9666914943
 21
-133.6519557879
  0
LINE
  5
357
100
AcDbEntity
  8
0
100
AcDbLine
 62
253
  6
CONTINUOUS
 10
-42.9666914943
 20
-124.1019557879
 11
-42.9666914943
 21
-124.1519557879
  0
LINE
  5
358
100
AcDbEntity
  8
0
100
AcDbLine
 62
7
  6
CONTINUOUS
 10
-42.1666914943
 20
-133.7019557879
 11
-42.1666914943
 21
-133.6519557879
  0
LINE
  5
359
100
AcDbEntity
  8
0
100
AcDbLine
 62
7
  6
CONTINUOUS
 10
-42.1666914943
 20
-124.1019557879
 11
-42.1666914943
 21
-124.1519557879
  0
LINE
  5
35A
100
AcDbEntity
  8
0
100
AcDbLine
 62
7
  6
CONTINUOUS
 10
-41.9939350015
 20
-133.9519557879
 11
-41.9939350015
 21
-133.7019557879
  0
LINE
  5
35B
100
AcDbEntity
  8
0
100
AcDbLine
 62
7
  6
CONTINUOUS
 10
-41.9187971827
 20
-133.9519557879
 11
-41.9187971827
 21
-133.7019557879
  0
LINE
  5
35C
100
AcDbEntity
  8
0
100
AcDbLine
 62
7
  6
CONTINUOUS
 10
-41.8666557809
 20
-133.9519557879
 11
-41.8666557809
 21
-133.7019557879
  0
LINE
  5
35D
100
AcDbEntity
  8
0
100
AcDbLine
 62
7
  6
CONTINUOUS
 10
-41.5116914943
 20
-124.1019557879
 11
-41.5116914943
 21
-124.1519557879
  0
LINE
  5
35E
100
AcDbEntity
  8
0
100
AcDbLine
 62
253
  6
CONTINUOUS
 10
-41.3646099662
 20
-124.1519557879
 11
-41.3646099662
 21
-133.6519557879
  0
LINE
  5
35F
100
AcDbEntity
  8
0
100
AcDbLine
 62
7
  6
CONTINUOUS
 10
-41.1116914943
 20
-124.1019557879
 11
-41.1116914943
 21
-124.1519557879
  0
LINE
  5
360
100
AcDbEntity
  8
0
100
AcDbLine
 62
7
  6
CONTINUOUS
 10
-41.0666914943
 20
-123.8519557879
 11
-41.0666914943
 21
-124.1019557879
  0
LINE
  5
361
100
AcDbEntity
  8
0
100
AcDbLine
 62
7
  6
CONTINUOUS
 10
-40.7989245413
 20
-127.4519557879
 11
-40.7989245413
 21
-124.1519557879
  0
LINE
  5
362
100
AcDbEntity
  8
0
100
AcDbLine
 62
253
  6
CONTINUOUS
 10
-40.7989245413
 20
-127.4519557879
 11
-40.7989245413
 21
-133.6519557879
  0
LINE
  5
363
100
AcDbEntity
  8
0
100
AcDbLine
 62
7
  6
CONTINUOUS
 10
-40.7989245413
 20
-133.6519557879
 11
-40.7989245413
 21
-133.9519557879
  0
LINE
  5
364
100
AcDbEntity
  8
RACCORDO
100
AcDbLine
 62
7
  6
CONTINUOUS
 10
-43.6275602412
 20
-128.9005996977
 11
-43.6275602412
 21
-128.903311878
  0
LWPOLYLINE
  5
365
100
AcDbEntity
  8
RACCORDO
100
AcDbPolyline
 62
7
  6
CONTINUOUS
 90
10
 70
0
 10
-43.6266020611
 20
-128.9359879949
 10
-43.6266079044
 20
-128.9381991597
 10
-43.6266759214
 20
-128.9403276305
 10
-43.6268013764
 20
-128.9423455686
 10
-43.6269777465
 20
-128.9442370215
 10
-43.6271986533
 20
-128.9459866415
 10
-43.6274548253
 20
-128.947571813
 10
-43.6277365383
 20
-128.9489848782
 10
-43.6280336379
 20
-128.9502204911
 10
-43.6283323266
 20
-128.951265047
  0
LINE
  5
366
100
AcDbEntity
  8
RACCORDO
100
AcDbLine
 62
7
  6
CONTINUOUS
 10
-43.6275358772
 20
-128.8965863672
 11
-43.627560776
 21
-128.9008392708
  0
LINE
  5
367
100
AcDbEntity
  8
RACCORDO
100
AcDbLine
 62
7
  6
CONTINUOUS
 10
-43.6274824375
 20
-128.8925732879
 11
-43.6275381475
 21
-128.8968259032
  0
LINE
  5
368
100
AcDbEntity
  8
RACCORDO
100
AcDbLine
 62
7
  6
CONTINUOUS
 10
-43.6273999238
 20
-128.8885607028
 11
-43.6274864428
 21
-128.8928127849
  0
LINE
  5
369
100
AcDbEntity
  8
RACCORDO
100
AcDbLine
 62
7
  6
CONTINUOUS
 10
-43.6265990748
 20
-128.8676366824
 11
-43.6266573871
 21
-128.870068349
  0
LINE
  5
36A
100
AcDbEntity
  8
RACCORDO
100
AcDbLine
 62
7
  6
CONTINUOUS
 10
-43.6272883401
 20
-128.8845488177
 11
-43.627405664
 21
-128.8888001583
  0
LWPOLYLINE
  5
36B
100
AcDbEntity
  8
RACCORDO
100
AcDbPolyline
 62
253
  6
CONTINUOUS
 90
11
 70
0
 10
-26.5556624705
 20
77.8657656657
 10
-26.5558143759
 20
77.8648505332
 10
-26.5561910243
 20
77.8639714877
 10
-26.556796508
 20
77.8631303806
 10
-26.5576475705
 20
77.862325803
 10
-26.5587346419
 20
77.8615624857
 10
-26.5600190548
 20
77.8608516234
 10
-26.5615005371
 20
77.860195619
 10
-26.5631778061
 20
77.8595953125
 10
-26.5650052983
 20
77.8590598007
 10
-26.5666914943
 20
77.8586596039
  0
LINE
  5
36C
100
AcDbEntity
  8
RACCORDO
100
AcDbLine
 62
253
  6
CONTINUOUS
 10
-19.0663266885
 20
77.8833407404
 11
-19.0665332719
 21
77.8823749767
  0
LINE
  5
36D
100
AcDbEntity
  8
0
100
AcDbLine
 62
7
  6
CONTINUOUS
 10
38.4483085057
 20
68.0380442121
 11
37.9433085057
 21
67.5330442121
  0
LINE
  5
36E
100
AcDbEntity
  8
0
100
AcDbLine
 62
7
  6
CONTINUOUS
 10
38.8386281314
 20
66.9730442121
 11
39.1709683186
 21
67.3053843993
  0
LINE
  5
36F
100
AcDbEntity
  8
0
100
AcDbLine
 62
7
  6
CONTINUOUS
 10
37.0433085057
 20
66.0230442121
 11
36.8833085057
 21
65.8730442121
  0
LINE
  5
370
100
AcDbEntity
  8
0
100
AcDbLine
 62
7
  6
CONTINUOUS
 10
39.1983085057
 20
65.9080442121
 11
39.6533085057
 21
66.3230442121
  0
LWPOLYLINE
  5
371
100
AcDbEntity
  8
RACCORDO
100
AcDbPolyline
 62
253
  6
CONTINUOUS
 90
9
 70
0
 10
36.8926657099
 20
-129.115557371
 10
36.8925590348
 20
-129.1154461669
 10
36.8925261195
 20
-129.1151183032
 10
36.8925670503
 20
-129.114575168
 10
36.8926821657
 20
-129.1138149302
 10
36.892870717
 20
-129.1128421829
 10
36.8931308785
 20
-129.111669214
 10
36.8934624486
 20
-129.1102977074
 10
36.8938640885
 20
-129.1087315396
  0
LWPOLYLINE
  5
372
100
AcDbEntity
  8
RACCORDO
100
AcDbPolyline
 62
253
  6
CONTINUOUS
 90
22
 70
0
 10
-30.627720518
 20
-128.9731563156
 10
-30.6277717941
 20
-128.972189803
 10
-30.6279028501
 20
-128.9712566703
 10
-30.628113744
 20
-128.9703555978
 10
-30.6284147747
 20
-128.9694733358
 10
-30.6287958177
 20
-128.9686197231
 10
-30.6292278661
 20
-128.967828201
 10
-30.6297145185
 20
-128.9671063156
 10
-30.6302559219
 20
-128.966443227
 10
-30.6308195475
 20
-128.9658460928
 10
-30.6314041216
 20
-128.9653195642
 10
-30.6320146525
 20
-128.9648576019
 10
-30.6326279372
 20
-128.9644529335
 10
-30.6332419979
 20
-128.9641073913
 10
-30.6338612544
 20
-128.9638193118
 10
-30.6344714498
 20
-128.963577216
 10
-30.6350699367
 20
-128.9633818088
 10
-30.6356606066
 20
-128.9632333597
 10
-30.6362384627
 20
-128.9631201305
 10
-30.6368019373
 20
-128.9630385764
 10
-30.6373530675
 20
-128.9629932964
 10
-30.637892022
 20
-128.9629848116
  0
LWPOLYLINE
  5
373
100
AcDbEntity
  8
RACCORDO
100
AcDbPolyline
 62
253
  6
CONTINUOUS
 90
22
 70
0
 10
-30.5056624705
 20
-128.8307552602
 10
-30.5056111944
 20
-128.8317217728
 10
-30.5054801384
 20
-128.8326549054
 10
-30.5052692446
 20
-128.8335559779
 10
-30.5049682138
 20
-128.8344382399
 10
-30.5045871708
 20
-128.8352918526
 10
-30.5041551224
 20
-128.8360833747
 10
-30.50366847
 20
-128.8368052601
 10
-30.5031270667
 20
-128.8374683487
 10
-30.502563441
 20
-128.8380654829
 10
-30.5019788669
 20
-128.8385920115
 10
-30.5013683361
 20
-128.8390539738
 10
-30.5007550514
 20
-128.8394586422
 10
-30.5001409907
 20
-128.8398041844
 10
-30.4995217341
 20
-128.8400922639
 10
-30.4989115387
 20
-128.8403343597
 10
-30.4983130518
 20
-128.8405297669
 10
-30.4977223819
 20
-128.840678216
 10
-30.4971445259
 20
-128.8407914452
 10
-30.4965810512
 20
-128.8408729993
 10
-30.496029921
 20
-128.8409182793
 10
-30.4954909666
 20
-128.8409267641
  0
LINE
  5
374
100
AcDbEntity
  8
0
100
AcDbLine
 62
253
  6
CONTINUOUS
 10
-39.4066914943
 20
77.2980442121
 11
-39.4066914943
 21
-123.7019557879
  0
LINE
  5
375
100
AcDbEntity
  8
0
100
AcDbLine
 62
7
  6
CONTINUOUS
 10
-39.3666914943
 20
77.2980442121
 11
-39.3666914943
 21
77.4480442121
  0
LINE
  5
376
100
AcDbEntity
  8
0
100
AcDbLine
 62
7
  6
CONTINUOUS
 10
-39.3666914943
 20
-123.7019557879
 11
-39.3666914943
 21
-123.8519557879
  0
LINE
  5
377
100
AcDbEntity
  8
0
100
AcDbLine
 62
7
  6
CONTINUOUS
 10
-39.1066914943
 20
77.2980442121
 11
-39.1066914943
 21
-123.7019557879
  0
LINE
  5
378
100
AcDbEntity
  8
0
100
AcDbLine
 62
253
  6
CONTINUOUS
 10
-39.0066914943
 20
77.2980442121
 11
-39.0066914943
 21
-123.7019557879
  0
LINE
  5
379
100
AcDbEntity
  8
0
100
AcDbLine
 62
7
  6
CONTINUOUS
 10
-38.8666914943
 20
-117.2519557879
 11
-38.8666914943
 21
-117.0019557879
  0
LINE
  5
37A
100
AcDbEntity
  8
0
100
AcDbLine
 62
7
  6
CONTINUOUS
 10
-38.8666914943
 20
77.4480442121
 11
-38.8666914943
 21
70.7980442121
  0
LINE
  5
37B
100
AcDbEntity
  8
0
100
AcDbLine
 62
7
  6
CONTINUOUS
 10
-38.7666914943
 20
-117.2519557879
 11
-38.7666914943
 21
-123.8519557879
  0
LINE
  5
37C
100
AcDbEntity
  8
0
100
AcDbLine
 62
253
  6
CONTINUOUS
 10
-38.7166914943
 20
43.6530442121
 11
-38.7166914943
 21
43.3030442121
  0
LINE
  5
37D
100
AcDbEntity
  8
0
100
AcDbLine
 62
253
  6
CONTINUOUS
 10
-38.7166914943
 20
-89.7069557879
 11
-38.7166914943
 21
-90.0569557879
  0
LINE
  5
37E
100
AcDbEntity
  8
0
100
AcDbLine
 62
7
  6
CONTINUOUS
 10
-38.6916914943
 20
-116.9019557879
 11
-38.6916914943
 21
70.6980442121
  0
LINE
  5
37F
100
AcDbEntity
  8
0
100
AcDbLine
 62
7
  6
CONTINUOUS
 10
-38.5716914943
 20
70.7980442121
 11
-38.5716914943
 21
70.5980442121
  0
LINE
  5
380
100
AcDbEntity
  8
0
100
AcDbLine
 62
253
  6
CONTINUOUS
 10
-38.5716914943
 20
-116.8019557879
 11
-38.5716914943
 21
70.5980442121
  0
LINE
  5
381
100
AcDbEntity
  8
0
100
AcDbLine
 62
7
  6
CONTINUOUS
 10
-38.5716914943
 20
-116.8019557879
 11
-38.5716914943
 21
-117.0019557879
  0
LINE
  5
382
100
AcDbEntity
  8
0
100
AcDbLine
 62
7
  6
CONTINUOUS
 10
-37.3666914943
 20
-117.2519557879
 11
-37.3666914943
 21
-117.0019557879
  0
LINE
  5
383
100
AcDbEntity
  8
0
100
AcDbLine
 62
7
  6
CONTINUOUS
 10
-37.3666914943
 20
70.8480442121
 11
-37.3666914943
 21
70.7980442121
  0
LINE
  5
384
100
AcDbEntity
  8
0
100
AcDbLine
 62
7
  6
CONTINUOUS
 10
-36.9666914943
 20
70.7980442121
 11
-36.9666914943
 21
70.8480442121
  0
LINE
  5
385
100
AcDbEntity
  8
0
100
AcDbLine
 62
7
  6
CONTINUOUS
 10
-36.9666914943
 20
-117.0019557879
 11
-36.9666914943
 21
-117.2019557879
  0
LWPOLYLINE
  5
386
100
AcDbEntity
  8
RACCORDO
100
AcDbPolyline
 62
253
  6
CONTINUOUS
 90
10
 70
0
 10
-43.6344125442
 20
-128.8409268081
 10
-43.6344568293
 20
-128.8423198366
 10
-43.6343165542
 20
-128.8437058106
 10
-43.6339944444
 20
-128.8450578032
 10
-43.6334967578
 20
-128.8463495474
 10
-43.6328331635
 20
-128.8475559472
 10
-43.6320165541
 20
-128.8486535642
 10
-43.6310627948
 20
-128.8496210737
 10
-43.6299904154
 20
-128.8504396789
 10
-43.628921766
 20
-128.8510367565
  0
LWPOLYLINE
  5
387
100
AcDbEntity
  8
RACCORDO
100
AcDbPolyline
 62
253
  6
CONTINUOUS
 90
11
 70
0
 10
-43.6592306379
 20
-128.8409267643
 10
-43.6592767577
 20
-128.84231976
 10
-43.6591301657
 20
-128.8437056851
 10
-43.6587937098
 20
-128.8450576168
 10
-43.6582739259
 20
-128.8463492926
 10
-43.6575809112
 20
-128.8475556203
 10
-43.6567281283
 20
-128.8486531659
 10
-43.6557321432
 20
-128.8496206086
 10
-43.654612304
 20
-128.8504391548
 10
-43.6533903646
 20
-128.8510929035
 10
-43.6521931704
 20
-128.8515313905
  0
LINE
  5
388
100
AcDbEntity
  8
RACCORDO
100
AcDbLine
 62
7
  6
CONTINUOUS
 10
-43.6271476916
 20
-128.8805378162
 11
-43.6272958151
 21
-128.8847882266
  0
LWPOLYLINE
  5
389
100
AcDbEntity
  8
RACCORDO
100
AcDbPolyline
 62
7
  6
CONTINUOUS
 90
7
 70
0
 10
-43.6598047893
 20
-128.8367863022
 10
-43.659843736
 20
-128.8378571954
 10
-43.6598594368
 20
-128.8388507938
 10
-43.6598522153
 20
-128.8397743875
 10
-43.6598218369
 20
-128.840635207
 10
-43.6597668096
 20
-128.841446631
 10
-43.659681313
 20
-128.8422441479
  0
LINE
  5
38A
100
AcDbEntity
  8
RACCORDO
100
AcDbLine
 62
253
  6
CONTINUOUS
 10
-43.6259424263
 20
-128.8688394936
 11
-43.6260486984
 21
-128.871441276
  0
LINE
  5
38B
100
AcDbEntity
  8
RACCORDO
100
AcDbLine
 62
7
  6
CONTINUOUS
 10
-43.6269779838
 20
-128.8765278925
 11
-43.6271569012
 21
-128.880777172
  0
LINE
  5
38C
100
AcDbEntity
  8
RACCORDO
100
AcDbLine
 62
7
  6
CONTINUOUS
 10
-43.6266573871
 20
-128.870068349
 11
-43.6267184771
 21
-128.8714042797
  0
LINE
  5
38D
100
AcDbEntity
  8
RACCORDO
100
AcDbLine
 62
7
  6
CONTINUOUS
 10
-43.6267819333
 20
-128.8725738688
 11
-43.626988928
 21
-128.8767671906
  0
LWPOLYLINE
  5
38E
100
AcDbEntity
  8
RACCORDO
100
AcDbPolyline
 62
253
  6
CONTINUOUS
 90
10
 70
0
 10
-43.6260486984
 20
-128.871441276
 10
-43.6262254519
 20
-128.8748280103
 10
-43.6263812758
 20
-128.8782142304
 10
-43.6265162848
 20
-128.881601537
 10
-43.6266306877
 20
-128.8849946723
 10
-43.6267244598
 20
-128.8883921324
 10
-43.6267973439
 20
-128.8917862101
 10
-43.6268492863
 20
-128.8951754849
 10
-43.626880435
 20
-128.8985647763
 10
-43.6268908136
 20
-128.9019557879
  0
LINE
  5
38F
100
AcDbEntity
  8
RACCORDO
100
AcDbLine
 62
7
  6
CONTINUOUS
 10
-43.6267187655
 20
-128.8714042787
 11
-43.6267919059
 21
-128.8727585185
  0
LINE
  5
390
100
AcDbEntity
  8
RACCORDO
100
AcDbLine
 62
253
  6
CONTINUOUS
 10
-26.5666066948
 20
77.8819141572
 11
-26.5666914943
 21
77.8807091568
  0
LWPOLYLINE
  5
391
100
AcDbEntity
  8
RACCORDO
100
AcDbPolyline
 62
7
  6
CONTINUOUS
 90
5
 70
0
 10
-43.6594072384
 20
-128.8318231004
 10
-43.6595410138
 20
-128.8331228941
 10
-43.6596541664
 20
-128.8344151214
 10
-43.6597419164
 20
-128.8356387601
 10
-43.6598047893
 20
-128.8367863022
  0
LINE
  5
392
100
AcDbEntity
  8
RACCORDO
100
AcDbLine
 62
253
  6
CONTINUOUS
 10
-26.5454909677
 20
77.8905833479
 11
-26.5454845736
 21
77.8906359848
  0
LWPOLYLINE
  5
393
100
AcDbEntity
  8
RACCORDO
100
AcDbPolyline
 62
253
  6
CONTINUOUS
 90
11
 70
0
 10
-19.0556624705
 20
77.8657656657
 10
-19.0558143759
 20
77.8648505332
 10
-19.0561910243
 20
77.8639714877
 10
-19.056796508
 20
77.8631303806
 10
-19.0576475705
 20
77.862325803
 10
-19.0587346419
 20
77.8615624857
 10
-19.0600190548
 20
77.8608516234
 10
-19.0615005371
 20
77.860195619
 10
-19.0631778061
 20
77.8595953125
 10
-19.0650052983
 20
77.8590598007
 10
-19.0666914943
 20
77.8586596039
  0
LINE
  5
394
100
AcDbEntity
  8
0
100
AcDbLine
 62
7
  6
CONTINUOUS
 10
39.5033085057
 20
66.9730442121
 11
39.1709683186
 21
66.640704025
  0
LINE
  5
395
100
AcDbEntity
  8
RACCORDO
100
AcDbLine
 62
7
  6
CONTINUOUS
 10
36.8958420627
 20
-128.953571119
 11
36.8959758674
 21
-128.9537220579
  0
LWPOLYLINE
  5
396
100
AcDbEntity
  8
RACCORDO
100
AcDbPolyline
 62
253
  6
CONTINUOUS
 90
16
 70
0
 10
-30.5972059652
 20
-129.1155570844
 10
-30.5972272805
 20
-129.114324317
 10
-30.597239653
 20
-129.1130519939
 10
-30.5972428761
 20
-129.1117613537
 10
-30.597236896
 20
-129.1104739412
 10
-30.5972218125
 20
-129.109211247
 10
-30.5971978774
 20
-129.1079943493
 10
-30.5971654901
 20
-129.1068435617
 10
-30.5971251913
 20
-129.1057780943
 10
-30.5970776535
 20
-129.1048157328
 10
-30.5970236704
 20
-129.103972542
 10
-30.596964143
 20
-129.1032625971
 10
-30.5969000649
 20
-129.1026977494
 10
-30.5968325057
 20
-129.1022874277
 10
-30.5967625932
 20
-129.1020384815
 10
-30.5966914943
 20
-129.1019550666
  0
LWPOLYLINE
  5
397
100
AcDbEntity
  8
RACCORDO
100
AcDbPolyline
 62
253
  6
CONTINUOUS
 90
16
 70
0
 10
-30.5361770233
 20
-128.6883544913
 10
-30.536155708
 20
-128.6895872587
 10
-30.5361433355
 20
-128.6908595819
 10
-30.5361401124
 20
-128.692150222
 10
-30.5361460925
 20
-128.6934376345
 10
-30.536161176
 20
-128.6947003287
 10
-30.5361851111
 20
-128.6959172264
 10
-30.5362174984
 20
-128.697068014
 10
-30.5362577972
 20
-128.6981334814
 10
-30.536305335
 20
-128.6990958429
 10
-30.5363593181
 20
-128.6999390337
 10
-30.5364188456
 20
-128.7006489786
 10
-30.5364829237
 20
-128.7012138263
 10
-30.5365504828
 20
-128.701624148
 10
-30.5366203954
 20
-128.7018730942
 10
-30.5366914942
 20
-128.7019565091
  0
LWPOLYLINE
  5
398
100
AcDbEntity
  8
RACCORDO
100
AcDbPolyline
 62
253
  6
CONTINUOUS
 90
13
 70
0
 10
-30.7497784337
 20
-128.9629847676
 10
-30.7497928915
 20
-128.9615917391
 10
-30.7497470949
 20
-128.9602057651
 10
-30.7496419337
 20
-128.9588537726
 10
-30.7494794509
 20
-128.9575620283
 10
-30.7492628033
 20
-128.9563556285
 10
-30.7489962001
 20
-128.9552580115
 10
-30.7486848207
 20
-128.954290502
 10
-30.7483347149
 20
-128.9534718969
 10
-30.7479526845
 20
-128.9528181002
 10
-30.7475461516
 20
-128.9523418141
 10
-30.7471230146
 20
-128.952052292
 10
-30.7466914942
 20
-128.9519551587
  0
LWPOLYLINE
  5
399
100
AcDbEntity
  8
RACCORDO
100
AcDbPolyline
 62
253
  6
CONTINUOUS
 90
13
 70
0
 10
-30.3836045548
 20
-128.8409268081
 10
-30.383590097
 20
-128.8423198366
 10
-30.3836358936
 20
-128.8437058106
 10
-30.3837410549
 20
-128.8450578032
 10
-30.3839035376
 20
-128.8463495474
 10
-30.3841201852
 20
-128.8475559472
 10
-30.3843867885
 20
-128.8486535642
 10
-30.3846981678
 20
-128.8496210737
 10
-30.3850482736
 20
-128.8504396789
 10
-30.3854303041
 20
-128.8510934755
 10
-30.3858368369
 20
-128.8515697616
 10
-30.3862599739
 20
-128.8518592837
 10
-30.3866914943
 20
-128.851956417
  0
LWPOLYLINE
  5
39A
100
AcDbEntity
  8
RACCORDO
100
AcDbPolyline
 62
253
  6
CONTINUOUS
 90
13
 70
0
 10
-30.6378920217
 20
-128.9629848114
 10
-30.6378976291
 20
-128.9615918158
 10
-30.6378798061
 20
-128.9602058906
 10
-30.637838899
 20
-128.9588539589
 10
-30.6377757025
 20
-128.9575622832
 10
-30.6376914442
 20
-128.9563559554
 10
-30.637587761
 20
-128.9552584098
 10
-30.6374666668
 20
-128.9542909671
 10
-30.6373305142
 20
-128.9534724209
 10
-30.6371819481
 20
-128.9528186722
 10
-30.6370238544
 20
-128.9523424206
 10
-30.6368593043
 20
-128.9520529179
 10
-30.6366914943
 20
-128.9519557879
  0
LWPOLYLINE
  5
39B
100
AcDbEntity
  8
RACCORDO
100
AcDbPolyline
 62
253
  6
CONTINUOUS
 90
13
 70
0
 10
-30.4954909668
 20
-128.8409267643
 10
-30.4954853594
 20
-128.84231976
 10
-30.4955031824
 20
-128.8437056851
 10
-30.4955440895
 20
-128.8450576168
 10
-30.495607286
 20
-128.8463492926
 10
-30.4956915443
 20
-128.8475556203
 10
-30.4957952276
 20
-128.8486531659
 10
-30.4959163217
 20
-128.8496206086
 10
-30.4960524743
 20
-128.8504391548
 10
-30.4962010404
 20
-128.8510929035
 10
-30.4963591341
 20
-128.8515691551
 10
-30.4965236843
 20
-128.8518586578
 10
-30.4966914943
 20
-128.8519557879
  0
LINE
  5
39C
100
AcDbEntity
  8
RACCORDO
100
AcDbLine
 62
253
  6
CONTINUOUS
 10
-26.8302930774
 20
77.8574014163
 11
-26.8302956623
 21
77.8582425335
  0
LINE
  5
39D
100
AcDbEntity
  8
RACCORDO
100
AcDbLine
 62
253
  6
CONTINUOUS
 10
-26.4030907054
 20
77.8577347761
 11
-26.4030899111
 21
77.8574014163
  0
LINE
  5
39E
100
AcDbEntity
  8
0
100
AcDbLine
 62
7
  6
CONTINUOUS
 10
-31.9701912191
 20
-124.6519557879
 11
-31.9701912191
 21
-124.9019557879
  0
LINE
  5
39F
100
AcDbEntity
  8
0
100
AcDbLine
 62
7
  6
CONTINUOUS
 10
-31.9701912191
 20
-132.9019557879
 11
-31.9701912191
 21
-133.1519557879
  0
LINE
  5
3A0
100
AcDbEntity
  8
0
100
AcDbLine
 62
7
  6
CONTINUOUS
 10
-31.7701912191
 20
-133.1519557879
 11
-31.7701912191
 21
-132.9519557879
  0
LINE
  5
3A1
100
AcDbEntity
  8
0
100
AcDbLine
 62
7
  6
CONTINUOUS
 10
-31.7701912191
 20
-123.8519557879
 11
-31.7701912191
 21
-124.6519557879
  0
LINE
  5
3A2
100
AcDbEntity
  8
0
100
AcDbLine
 62
7
  6
CONTINUOUS
 10
-31.7701912191
 20
-133.1519557879
 11
-31.7701912191
 21
-133.9519557879
  0
LINE
  5
3A3
100
AcDbEntity
  8
0
100
AcDbLine
 62
253
  6
CONTINUOUS
 10
-31.6666914943
 20
-124.9019557879
 11
-31.6666914943
 21
-132.9019557879
  0
LINE
  5
3A4
100
AcDbEntity
  8
0
100
AcDbLine
 62
7
  6
CONTINUOUS
 10
-31.4451914943
 20
-123.8519557879
 11
-31.4451914943
 21
-124.4519557879
  0
LINE
  5
3A5
100
AcDbEntity
  8
0
100
AcDbLine
 62
253
  6
CONTINUOUS
 10
-31.4231007695
 20
-124.9019557879
 11
-31.4231007695
 21
-132.9019557879
  0
LINE
  5
3A6
100
AcDbEntity
  8
0
100
AcDbLine
 62
253
  6
CONTINUOUS
 10
-31.3275749951
 20
-124.9019557879
 11
-31.3275749951
 21
-132.9019557879
  0
LINE
  5
3A7
100
AcDbEntity
  8
0
100
AcDbLine
 62
7
  6
CONTINUOUS
 10
-31.2166914943
 20
-133.9019557879
 11
-31.2166914943
 21
-123.9019557879
  0
LINE
  5
3A8
100
AcDbEntity
  8
RACCORDO
100
AcDbLine
 62
253
  6
CONTINUOUS
 10
-30.7802930774
 20
-128.9324702997
 11
-30.7802930774
 21
-128.871441276
  0
LINE
  5
3A9
100
AcDbEntity
  8
RACCORDO
100
AcDbLine
 62
7
  6
CONTINUOUS
 10
-30.7666914943
 20
-128.9319557879
 11
-30.7666914943
 21
-128.8719557879
  0
LINE
  5
3AA
100
AcDbEntity
  8
RACCORDO
100
AcDbLine
 62
253
  6
CONTINUOUS
 10
-30.627720518
 20
-128.8307552602
 11
-30.627720518
 21
-128.7188687166
  0
LINE
  5
3AB
100
AcDbEntity
  8
RACCORDO
100
AcDbLine
 62
253
  6
CONTINUOUS
 10
-30.627720518
 20
-129.0850428591
 11
-30.627720518
 21
-128.9731563156
  0
LINE
  5
3AC
100
AcDbEntity
  8
RACCORDO
100
AcDbLine
 62
7
  6
CONTINUOUS
 10
-30.6166914943
 20
-128.8319557879
 11
-30.6166914943
 21
-128.7219557879
  0
LINE
  5
3AD
100
AcDbEntity
  8
RACCORDO
100
AcDbLine
 62
7
  6
CONTINUOUS
 10
-30.6166914943
 20
-129.0819557879
 11
-30.6166914943
 21
-128.9719557879
  0
LINE
  5
3AE
100
AcDbEntity
  8
RACCORDO
100
AcDbLine
 62
7
  6
CONTINUOUS
 10
-30.5166914943
 20
-128.9719557879
 11
-30.5166914943
 21
-129.0819557879
  0
LINE
  5
3AF
100
AcDbEntity
  8
RACCORDO
100
AcDbLine
 62
7
  6
CONTINUOUS
 10
-30.5166914943
 20
-128.7219557879
 11
-30.5166914943
 21
-128.8319557879
  0
LINE
  5
3B0
100
AcDbEntity
  8
RACCORDO
100
AcDbLine
 62
253
  6
CONTINUOUS
 10
-30.5056624705
 20
-128.7188687166
 11
-30.5056624705
 21
-128.8307552602
  0
LINE
  5
3B1
100
AcDbEntity
  8
RACCORDO
100
AcDbLine
 62
253
  6
CONTINUOUS
 10
-30.5056624705
 20
-128.9731563156
 11
-30.5056624705
 21
-129.0850428591
  0
LINE
  5
3B2
100
AcDbEntity
  8
RACCORDO
100
AcDbLine
 62
7
  6
CONTINUOUS
 10
-30.3666914943
 20
-128.8719557879
 11
-30.3666914943
 21
-128.9319557879
  0
LINE
  5
3B3
100
AcDbEntity
  8
RACCORDO
100
AcDbLine
 62
253
  6
CONTINUOUS
 10
-30.3530899111
 20
-128.871441276
 11
-30.3530899111
 21
-128.9324702997
  0
LINE
  5
3B4
100
AcDbEntity
  8
RACCORDO
100
AcDbLine
 62
7
  6
CONTINUOUS
 10
-27.4666914943
 20
77.5980442121
 11
-27.4666914943
 21
77.4480442121
  0
LINE
  5
3B5
100
AcDbEntity
  8
RACCORDO
100
AcDbLine
 62
253
  6
CONTINUOUS
 10
-27.0666914943
 20
77.5980442121
 11
-27.0666914943
 21
77.4480442121
  0
LINE
  5
3B6
100
AcDbEntity
  8
RACCORDO
100
AcDbLine
 62
7
  6
CONTINUOUS
 10
-26.6666914943
 20
77.8599176124
 11
-26.6666914943
 21
77.8807091568
  0
LINE
  5
3B7
100
AcDbEntity
  8
RACCORDO
100
AcDbLine
 62
7
  6
CONTINUOUS
 10
-26.5666914943
 20
77.8807091568
 11
-26.5666914943
 21
77.8599185604
  0
LINE
  5
3B8
100
AcDbEntity
  8
RACCORDO
100
AcDbLine
 62
253
  6
CONTINUOUS
 10
-26.5556624705
 20
77.8905833577
 11
-26.5556624705
 21
77.8657656657
  0
LINE
  5
3B9
100
AcDbEntity
  8
RACCORDO
100
AcDbLine
 62
253
  6
CONTINUOUS
 10
-25.6166914943
 20
77.5980442121
 11
-25.6166914943
 21
77.4480442121
  0
LINE
  5
3BA
100
AcDbEntity
  8
RACCORDO
100
AcDbLine
 62
7
  6
CONTINUOUS
 10
-25.5666914943
 20
77.5980442121
 11
-25.5666914943
 21
77.4480442121
  0
LINE
  5
3BB
100
AcDbEntity
  8
RACCORDO
100
AcDbLine
 62
253
  6
CONTINUOUS
 10
-25.5166914943
 20
77.4480442121
 11
-25.5166914943
 21
77.5980442121
  0
LINE
  5
3BC
100
AcDbEntity
  8
RACCORDO
100
AcDbLine
 62
253
  6
CONTINUOUS
 10
-25.4066914943
 20
77.4480442121
 11
-25.4066914943
 21
77.5980442121
  0
LINE
  5
3BD
100
AcDbEntity
  8
RACCORDO
100
AcDbLine
 62
7
  6
CONTINUOUS
 10
-25.3666914943
 20
-123.9019557879
 11
-25.3666914943
 21
-123.8519557879
  0
LINE
  5
3BE
100
AcDbEntity
  8
RACCORDO
100
AcDbLine
 62
7
  6
CONTINUOUS
 10
-25.3666914943
 20
77.4480442121
 11
-25.3666914943
 21
77.5940033916
  0
LWPOLYLINE
  5
3BF
100
AcDbEntity
  8
RACCORDO
100
AcDbPolyline
 62
253
  6
CONTINUOUS
 90
13
 70
0
 10
-30.6378920219
 20
-128.8409267641
 10
-30.637897629
 20
-128.8423197576
 10
-30.6378798057
 20
-128.8437056803
 10
-30.6378388985
 20
-128.8450576095
 10
-30.6377757018
 20
-128.8463492827
 10
-30.6376914435
 20
-128.847555608
 10
-30.6375877601
 20
-128.8486531513
 10
-30.6374666661
 20
-128.849620592
 10
-30.6373305136
 20
-128.8504391365
 10
-30.6371819475
 20
-128.8510928839
 10
-30.637023854
 20
-128.8515691345
 10
-30.636859304
 20
-128.8518586367
 10
-30.6366914943
 20
-128.8519557667
  0
LWPOLYLINE
  5
3C0
100
AcDbEntity
  8
RACCORDO
100
AcDbPolyline
 62
253
  6
CONTINUOUS
 90
13
 70
0
 10
-30.4954909666
 20
-128.9629848116
 10
-30.4954853595
 20
-128.9615918182
 10
-30.4955031828
 20
-128.9602058954
 10
-30.49554409
 20
-128.9588539662
 10
-30.4956072867
 20
-128.957562293
 10
-30.4956915451
 20
-128.9563559677
 10
-30.4957952284
 20
-128.9552584244
 10
-30.4959163225
 20
-128.9542909837
 10
-30.496052475
 20
-128.9534724392
 10
-30.496201041
 20
-128.9528186919
 10
-30.4963591345
 20
-128.9523424413
 10
-30.4965236845
 20
-128.952052939
 10
-30.4966914943
 20
-128.951955809
  0
LINE
  5
3C1
100
AcDbEntity
  8
RACCORDO
100
AcDbLine
 62
253
  6
CONTINUOUS
 10
-26.4030873263
 20
77.8582425335
 11
-26.4030907054
 21
77.8577347761
  0
LWPOLYLINE
  5
3C2
100
AcDbEntity
  8
RACCORDO
100
AcDbPolyline
 62
253
  6
CONTINUOUS
 90
12
 70
0
 10
-26.6777205178
 20
77.8731512248
 10
-26.6776984969
 20
77.877188008
 10
-26.6777205181
 20
77.8790091466
 10
-26.6777197171
 20
77.8807264926
 10
-26.6776929064
 20
77.8823338731
 10
-26.677720518
 20
77.8838380351
 10
-26.677753409
 20
77.885259399
 10
-26.6777314019
 20
77.8865833041
 10
-26.677720518
 20
77.8877708823
 10
-26.6777415223
 20
77.8888193484
 10
-26.6777448612
 20
77.8897536982
 10
-26.677720518
 20
77.8905833577
  0
LWPOLYLINE
  5
3C3
100
AcDbEntity
  8
RACCORDO
100
AcDbPolyline
 62
253
  6
CONTINUOUS
 90
4
 70
0
 10
-26.677720518
 20
77.8657656657
 10
-26.6777008261
 20
77.8684130034
 10
-26.6777052568
 20
77.8708716291
 10
-26.6777205178
 20
77.8731512248
  0
LWPOLYLINE
  5
3C4
100
AcDbEntity
  8
RACCORDO
100
AcDbPolyline
 62
253
  6
CONTINUOUS
 90
13
 70
0
 10
-30.7497785638
 20
-128.8409267647
 10
-30.7497929827
 20
-128.84231976
 10
-30.7497471522
 20
-128.8437056848
 10
-30.7496419626
 20
-128.8450576163
 10
-30.7494794574
 20
-128.8463492917
 10
-30.7492627933
 20
-128.8475556192
 10
-30.7489961793
 20
-128.8486531647
 10
-30.7486847945
 20
-128.8496206074
 10
-30.748334688
 20
-128.8504391536
 10
-30.7479526609
 20
-128.8510929025
 10
-30.7475461344
 20
-128.8515691543
 10
-30.7471230056
 20
-128.8518586574
 10
-30.7466914943
 20
-128.8519557879
  0
LWPOLYLINE
  5
3C5
100
AcDbEntity
  8
RACCORDO
100
AcDbPolyline
 62
253
  6
CONTINUOUS
 90
13
 70
0
 10
-30.3836044247
 20
-128.962984811
 10
-30.3835900058
 20
-128.9615918157
 10
-30.3836358363
 20
-128.9602058909
 10
-30.3837410259
 20
-128.9588539595
 10
-30.3839035311
 20
-128.957562284
 10
-30.3841201952
 20
-128.9563559565
 10
-30.3843868092
 20
-128.955258411
 10
-30.384698194
 20
-128.9542909683
 10
-30.3850483005
 20
-128.9534724221
 10
-30.3854303276
 20
-128.9528186732
 10
-30.3858368542
 20
-128.9523424214
 10
-30.3862599829
 20
-128.9520529183
 10
-30.3866914943
 20
-128.9519557879
  0
LWPOLYLINE
  5
3C6
100
AcDbEntity
  8
RACCORDO
100
AcDbPolyline
 62
253
  6
CONTINUOUS
 90
16
 70
0
 10
-30.597206006
 20
-128.6883542058
 10
-30.5972273209
 20
-128.6895869679
 10
-30.5972396924
 20
-128.6908592671
 10
-30.5972429142
 20
-128.6921498679
 10
-30.5972369325
 20
-128.6934372294
 10
-30.597221847
 20
-128.6946998647
 10
-30.5971979096
 20
-128.6959166997
 10
-30.5971655198
 20
-128.6970674245
 10
-30.5971252183
 20
-128.6981328329
 10
-30.5970776776
 20
-128.6990951425
 10
-30.5970236912
 20
-128.6999382918
 10
-30.5969641603
 20
-128.7006482081
 10
-30.5969000785
 20
-128.7012130425
 10
-30.5968325152
 20
-128.7016233674
 10
-30.5967625981
 20
-128.7018723343
 10
-30.5966914943
 20
-128.7019557879
  0
LWPOLYLINE
  5
3C7
100
AcDbEntity
  8
RACCORDO
100
AcDbPolyline
 62
253
  6
CONTINUOUS
 90
16
 70
0
 10
-30.5361769825
 20
-129.1155573699
 10
-30.5361556677
 20
-129.1143246078
 10
-30.5361432961
 20
-129.1130523086
 10
-30.5361400743
 20
-129.1117617078
 10
-30.5361460561
 20
-129.1104743463
 10
-30.5361611415
 20
-129.109211711
 10
-30.5361850789
 20
-129.1079948761
 10
-30.5362174687
 20
-129.1068441512
 10
-30.5362577703
 20
-129.1057787428
 10
-30.536305311
 20
-129.1048164332
 10
-30.5363592973
 20
-129.1039732839
 10
-30.5364188282
 20
-129.1032633676
 10
-30.5364829101
 20
-129.1026985333
 10
-30.5365504734
 20
-129.1022882083
 10
-30.5366203904
 20
-129.1020392414
 10
-30.5366914943
 20
-129.1019557879
  0
LWPOLYLINE
  5
3C8
100
AcDbEntity
  8
RACCORDO
100
AcDbPolyline
 62
253
  6
CONTINUOUS
 90
19
 70
0
 10
-30.7802930774
 20
-128.871441276
 10
-30.7801791046
 20
-128.8688313302
 10
-30.7798495222
 20
-128.8662628117
 10
-30.7793058969
 20
-128.8637427106
 10
-30.778547289
 20
-128.8612692952
 10
-30.7775777969
 20
-128.8588581186
 10
-30.7764075367
 20
-128.8565415117
 10
-30.7750380185
 20
-128.8543236057
 10
-30.7734730465
 20
-128.8522122265
 10
-30.7717280037
 20
-128.8502435593
 10
-30.7698001247
 20
-128.848417871
 10
-30.7676988958
 20
-128.846743427
 10
-30.7654598671
 20
-128.8452648787
 10
-30.7630832965
 20
-128.8439831037
 10
-30.7605761367
 20
-128.8428988016
 10
-30.7579851185
 20
-128.8420508532
 10
-30.7553278058
 20
-128.8414487249
 10
-30.7525918148
 20
-128.8410754359
 10
-30.7497785655
 20
-128.8409267641
  0
LWPOLYLINE
  5
3C9
100
AcDbEntity
  8
RACCORDO
100
AcDbPolyline
 62
253
  6
CONTINUOUS
 90
19
 70
0
 10
-30.3530899111
 20
-128.9324702997
 10
-30.3532038839
 20
-128.9350802455
 10
-30.3535334664
 20
-128.937648764
 10
-30.3540770917
 20
-128.9401688651
 10
-30.3548356995
 20
-128.9426422805
 10
-30.3558051916
 20
-128.9450534572
 10
-30.3569754519
 20
-128.947370064
 10
-30.35834497
 20
-128.94958797
 10
-30.359909942
 20
-128.9516993492
 10
-30.3616549848
 20
-128.9536680164
 10
-30.3635828638
 20
-128.9554937047
 10
-30.3656840928
 20
-128.9571681487
 10
-30.3679231214
 20
-128.958646697
 10
-30.370299692
 20
-128.959928472
 10
-30.3728068518
 20
-128.9610127741
 10
-30.37539787
 20
-128.9618607226
 10
-30.3780551827
 20
-128.9624628508
 10
-30.3807911737
 20
-128.9628361398
 10
-30.383604423
 20
-128.9629848116
  0
LINE
  5
3CA
100
AcDbEntity
  8
RACCORDO
100
AcDbLine
 62
253
  6
CONTINUOUS
 10
-26.5861769824
 20
77.8574014158
 11
-26.5861399703
 21
77.8580714823
  0
LINE
  5
3CB
100
AcDbEntity
  8
RACCORDO
100
AcDbLine
 62
253
  6
CONTINUOUS
 10
-19.0666066948
 20
77.8819141572
 11
-19.0666914943
 21
77.8807091568
  0
LWPOLYLINE
  5
3CC
100
AcDbEntity
  8
RACCORDO
100
AcDbPolyline
 62
253
  6
CONTINUOUS
 90
22
 70
0
 10
-43.6592306398
 20
-128.8307552602
 10
-43.6593419965
 20
-128.8317217728
 10
-43.6594394548
 20
-128.8326549054
 10
-43.6595232756
 20
-128.8335559779
 10
-43.6595939685
 20
-128.8344382399
 10
-43.6596514381
 20
-128.8352918526
 10
-43.6596949958
 20
-128.8360833747
 10
-43.6597235575
 20
-128.8368052601
 10
-43.6597384236
 20
-128.8374683487
 10
-43.6597424228
 20
-128.8380654829
 10
-43.6597353304
 20
-128.8385920115
 10
-43.6597173638
 20
-128.8390539738
 10
-43.6596919799
 20
-128.8394586422
 10
-43.6596593181
 20
-128.8398041844
 10
-43.6596191483
 20
-128.8400922639
 10
-43.659574394
 20
-128.8403343597
 10
-43.6595253743
 20
-128.8405297669
 10
-43.6594716847
 20
-128.840678216
 10
-43.659415202
 20
-128.8407914452
 10
-43.6593565412
 20
-128.8408729993
 10
-43.6592950313
 20
-128.8409182793
 10
-43.6592306398
 20
-128.8409267641
  0
LINE
  5
3CD
100
AcDbEntity
  8
RACCORDO
100
AcDbLine
 62
7
  6
CONTINUOUS
 10
-43.6592832804
 20
-128.8307488605
 11
-43.6594072384
 21
-128.8318231004
  0
LINE
  5
3CE
100
AcDbEntity
  8
RACCORDO
100
AcDbLine
 62
253
  6
CONTINUOUS
 10
-19.0454909677
 20
77.8905833479
 11
-19.0454845736
 21
77.8906359848
  0
LWPOLYLINE
  5
3CF
100
AcDbEntity
  8
RACCORDO
100
AcDbPolyline
 62
253
  6
CONTINUOUS
 90
3
 70
0
 10
-43.6576687705
 20
-128.8189165298
 10
-43.6584946148
 20
-128.8249486431
 10
-43.6592306398
 20
-128.8307552602
  0
LWPOLYLINE
  5
3D0
100
AcDbEntity
  8
RACCORDO
100
AcDbPolyline
 62
7
  6
CONTINUOUS
 90
6
 70
0
 10
-43.659555492
 20
-128.9608597684
 10
-43.659681313
 20
-128.9616674278
 10
-43.6597668096
 20
-128.9624649447
 10
-43.6598218369
 20
-128.9632763688
 10
-43.6598522153
 20
-128.9641371882
 10
-43.6598594368
 20
-128.9650607819
  0
LWPOLYLINE
  5
3D1
100
AcDbEntity
  8
RACCORDO
100
AcDbPolyline
 62
7
  6
CONTINUOUS
 90
7
 70
0
 10
18.6333085057
 20
77.5940033916
 10
18.6339267413
 20
77.5952557804
 10
18.6357545523
 20
77.5962718358
 10
18.6387244482
 20
77.5970515578
 10
18.6427287609
 20
77.5975476378
 10
18.647640313
 20
77.5978073843
 10
18.6533292493
 20
77.5979727229
  0
LINE
  5
3D2
100
AcDbEntity
  8
RACCORDO
100
AcDbLine
 62
7
  6
CONTINUOUS
 10
20.322279094
 20
-123.8585734349
 11
20.3483085057
 21
-123.9019557879
  0
LINE
  5
3D3
100
AcDbEntity
  8
RACCORDO
100
AcDbLine
 62
253
  6
CONTINUOUS
 10
-26.6472059623
 20
77.8574006222
 11
-26.6472429774
 21
77.8580710135
  0
LWPOLYLINE
  5
3D4
100
AcDbEntity
  8
RACCORDO
100
AcDbPolyline
 62
7
  6
CONTINUOUS
 90
16
 70
0
 10
-26.6666915158
 20
77.8807091196
 10
-26.6667522152
 20
77.88181742
 10
-26.6669708722
 20
77.8830736548
 10
-26.667328166
 20
77.8842466853
 10
-26.667799437
 20
77.8853198215
 10
-26.6683640345
 20
77.8862908563
 10
-26.6690112467
 20
77.8871688311
 10
-26.6697269912
 20
77.8879521393
 10
-26.6704947505
 20
77.8886376913
 10
-26.6713089419
 20
77.8892322901
 10
-26.6721778317
 20
77.8897470247
 10
-26.6730767492
 20
77.890171887
 10
-26.6739533996
 20
77.8904965986
 10
-26.674788133
 20
77.890734785
 10
-26.6755997861
 20
77.8909090133
 10
-26.6763988594
 20
77.8910334874
  0
LINE
  5
3D5
100
AcDbEntity
  8
RACCORDO
100
AcDbLine
 62
253
  6
CONTINUOUS
 10
-19.3302930774
 20
77.8574014163
 11
-19.3302956623
 21
77.8582425335
  0
LINE
  5
3D6
100
AcDbEntity
  8
RACCORDO
100
AcDbLine
 62
253
  6
CONTINUOUS
 10
-18.9030907054
 20
77.8577347761
 11
-18.9030899111
 21
77.8574014163
  0
LINE
  5
3D7
100
AcDbEntity
  8
RACCORDO
100
AcDbLine
 62
7
  6
CONTINUOUS
 10
-20.3666914943
 20
77.5980442121
 11
-20.3666914943
 21
77.4480442121
  0
LINE
  5
3D8
100
AcDbEntity
  8
RACCORDO
100
AcDbLine
 62
253
  6
CONTINUOUS
 10
-20.1666914943
 20
77.5980442121
 11
-20.1666914943
 21
77.4480442121
  0
LINE
  5
3D9
100
AcDbEntity
  8
0
100
AcDbLine
 62
7
  6
CONTINUOUS
 10
-19.3666914943
 20
-123.8519557879
 11
-19.3666914943
 21
-123.9019557879
  0
LINE
  5
3DA
100
AcDbEntity
  8
0
100
AcDbLine
 62
7
  6
CONTINUOUS
 10
-19.3416914943
 20
-123.9019557879
 11
-19.3416914943
 21
-123.8519557879
  0
LINE
  5
3DB
100
AcDbEntity
  8
RACCORDO
100
AcDbLine
 62
7
  6
CONTINUOUS
 10
-19.1666914943
 20
77.8599176124
 11
-19.1666914943
 21
77.8807091568
  0
LINE
  5
3DC
100
AcDbEntity
  8
RACCORDO
100
AcDbLine
 62
7
  6
CONTINUOUS
 10
-19.0666914943
 20
77.8807091568
 11
-19.0666914943
 21
77.8599185604
  0
LINE
  5
3DD
100
AcDbEntity
  8
RACCORDO
100
AcDbLine
 62
253
  6
CONTINUOUS
 10
-19.0556624705
 20
77.8905833577
 11
-19.0556624705
 21
77.8657656657
  0
LINE
  5
3DE
100
AcDbEntity
  8
0
100
AcDbLine
 62
7
  6
CONTINUOUS
 10
-18.8916914943
 20
-123.9019557879
 11
-18.8916914943
 21
-123.8519557879
  0
LINE
  5
3DF
100
AcDbEntity
  8
0
100
AcDbLine
 62
7
  6
CONTINUOUS
 10
-18.8666914943
 20
-123.8519557879
 11
-18.8666914943
 21
-123.9019557879
  0
LINE
  5
3E0
100
AcDbEntity
  8
RACCORDO
100
AcDbLine
 62
253
  6
CONTINUOUS
 10
-18.9030873263
 20
77.8582425335
 11
-18.9030907054
 21
77.8577347761
  0
LWPOLYLINE
  5
3E1
100
AcDbEntity
  8
RACCORDO
100
AcDbPolyline
 62
253
  6
CONTINUOUS
 90
12
 70
0
 10
-19.1777205178
 20
77.8731512248
 10
-19.1776984969
 20
77.877188008
 10
-19.1777205181
 20
77.8790091466
 10
-19.1777197171
 20
77.8807264926
 10
-19.1776929064
 20
77.8823338731
 10
-19.177720518
 20
77.8838380351
 10
-19.177753409
 20
77.885259399
 10
-19.1777314019
 20
77.8865833041
 10
-19.177720518
 20
77.8877708823
 10
-19.1777415223
 20
77.8888193484
 10
-19.1777448612
 20
77.8897536982
 10
-19.177720518
 20
77.8905833577
  0
LWPOLYLINE
  5
3E2
100
AcDbEntity
  8
RACCORDO
100
AcDbPolyline
 62
253
  6
CONTINUOUS
 90
4
 70
0
 10
-19.177720518
 20
77.8657656657
 10
-19.1777008261
 20
77.8684130034
 10
-19.1777052568
 20
77.8708716291
 10
-19.1777205178
 20
77.8731512248
  0
LINE
  5
3E3
100
AcDbEntity
  8
RACCORDO
100
AcDbLine
 62
253
  6
CONTINUOUS
 10
-19.0861769824
 20
77.8574014158
 11
-19.0861399703
 21
77.8580714823
  0
LWPOLYLINE
  5
3E4
100
AcDbEntity
  8
RACCORDO
100
AcDbPolyline
 62
253
  6
CONTINUOUS
 90
19
 70
0
 10
-30.627720518
 20
-128.7188687166
 10
-30.6275603847
 20
-128.7160046231
 10
-30.6271773889
 20
-128.713234806
 10
-30.6265678948
 20
-128.7105606988
 10
-30.625716047
 20
-128.7079759171
 10
-30.6246316521
 20
-128.7054919498
 10
-30.6233523695
 20
-128.7031374287
 10
-30.6218793742
 20
-128.7009140596
 10
-30.6202129799
 20
-128.6988272269
 10
-30.6183941676
 20
-128.6969100688
 10
-30.6164297392
 20
-128.695170516
 10
-30.6143210226
 20
-128.693607455
 10
-30.6121042459
 20
-128.6922387704
 10
-30.609786213
 20
-128.6910686734
 10
-30.6073719713
 20
-128.690098393
 10
-30.6048969791
 20
-128.6893394064
 10
-30.6023778735
 20
-128.6887961813
 10
-30.5998118853
 20
-128.6884672773
 10
-30.5972060061
 20
-128.6883542047
  0
LWPOLYLINE
  5
3E5
100
AcDbEntity
  8
RACCORDO
100
AcDbPolyline
 62
253
  6
CONTINUOUS
 90
19
 70
0
 10
-30.5056624705
 20
-129.0850428591
 10
-30.5058226038
 20
-129.0879069526
 10
-30.5062055996
 20
-129.0906767698
 10
-30.5068150937
 20
-129.0933508769
 10
-30.5076669415
 20
-129.0959356586
 10
-30.5087513365
 20
-129.0984196259
 10
-30.510030619
 20
-129.100774147
 10
-30.5115036144
 20
-129.1029975162
 10
-30.5131700086
 20
-129.1050843489
 10
-30.5149888209
 20
-129.1070015069
 10
-30.5169532494
 20
-129.1087410597
 10
-30.519061966
 20
-129.1103041207
 10
-30.5212787427
 20
-129.1116728053
 10
-30.5235967755
 20
-129.1128429023
 10
-30.5260110172
 20
-129.1138131827
 10
-30.5284860094
 20
-129.1145721693
 10
-30.531005115
 20
-129.1151153944
 10
-30.5335711032
 20
-129.1154442984
 10
-30.5361769824
 20
-129.115557371
  0
LINE
  5
3E6
100
AcDbEntity
  8
RACCORDO
100
AcDbLine
 62
7
  6
CONTINUOUS
 10
-43.6265654749
 20
-128.6917301135
 11
-43.6266882793
 21
-128.6924075633
  0
LWPOLYLINE
  5
3E7
100
AcDbEntity
  8
RACCORDO
100
AcDbPolyline
 62
253
  6
CONTINUOUS
 90
4
 70
0
 10
-43.6533060863
 20
-128.7925325627
 10
-43.6545743866
 20
-128.7994812833
 10
-43.6557170381
 20
-128.8061817815
 10
-43.6567454107
 20
-128.8126578655
  0
LINE
  5
3E8
100
AcDbEntity
  8
RACCORDO
100
AcDbLine
 62
253
  6
CONTINUOUS
 10
-43.6268443044
 20
-128.94958797
 11
-43.6273065184
 21
-128.9519557879
  0
LINE
  5
3E9
100
AcDbEntity
  8
RACCORDO
100
AcDbLine
 62
7
  6
CONTINUOUS
 10
-43.626690736
 20
-128.6924193613
 11
-43.6271898399
 21
-128.6945867977
  0
LINE
  5
3EA
100
AcDbEntity
  8
RACCORDO
100
AcDbLine
 62
253
  6
CONTINUOUS
 10
-43.6273065184
 20
-128.9519557879
 11
-43.6277139413
 21
-128.9536680164
  0
LWPOLYLINE
  5
3EB
100
AcDbEntity
  8
RACCORDO
100
AcDbPolyline
 62
7
  6
CONTINUOUS
 90
3
 70
0
 10
-43.6271898399
 20
-128.6945867977
 10
-43.6272065976
 20
-128.6946547599
 10
-43.6273296566
 20
-128.6951429324
  0
LINE
  5
3EC
100
AcDbEntity
  8
RACCORDO
100
AcDbLine
 62
253
  6
CONTINUOUS
 10
12.5663955748
 20
77.8657656591
 11
12.5664120501
 21
77.8658161231
  0
LWPOLYLINE
  5
3ED
100
AcDbEntity
  8
RACCORDO
100
AcDbPolyline
 62
7
  6
CONTINUOUS
 90
11
 70
0
 10
36.9250113182
 20
-128.9574421253
 10
36.9244965837
 20
-128.9565732355
 10
36.9239019849
 20
-128.9557590441
 10
36.9232164329
 20
-128.9549912848
 10
36.9224331247
 20
-128.9542755403
 10
36.9215551499
 20
-128.9536283281
 10
36.9205841151
 20
-128.9530637306
 10
36.9195109789
 20
-128.9525924596
 10
36.9183379484
 20
-128.9522351658
 10
36.9170817136
 20
-128.9520165088
 10
36.9159734132
 20
-128.9519558094
  0
LINE
  5
3EE
100
AcDbEntity
  8
RACCORDO
100
AcDbLine
 62
253
  6
CONTINUOUS
 10
-19.1472059623
 20
77.8574006222
 11
-19.1472429774
 21
77.8580710135
  0
LWPOLYLINE
  5
3EF
100
AcDbEntity
  8
RACCORDO
100
AcDbPolyline
 62
7
  6
CONTINUOUS
 90
16
 70
0
 10
-19.1666915158
 20
77.8807091196
 10
-19.1667522152
 20
77.88181742
 10
-19.1669708722
 20
77.8830736548
 10
-19.167328166
 20
77.8842466853
 10
-19.167799437
 20
77.8853198215
 10
-19.1683640345
 20
77.8862908563
 10
-19.1690112467
 20
77.8871688311
 10
-19.1697269912
 20
77.8879521393
 10
-19.1704947505
 20
77.8886376913
 10
-19.1713089419
 20
77.8892322901
 10
-19.1721778317
 20
77.8897470247
 10
-19.1730767492
 20
77.890171887
 10
-19.1739533996
 20
77.8904965986
 10
-19.174788133
 20
77.890734785
 10
-19.1755997861
 20
77.8909090133
 10
-19.1763988594
 20
77.8910334874
  0
LINE
  5
3F0
100
AcDbEntity
  8
RACCORDO
100
AcDbLine
 62
253
  6
CONTINUOUS
 10
12.4336733115
 20
77.8833407404
 11
12.4334667281
 21
77.8823749767
  0
LINE
  5
3F1
100
AcDbEntity
  8
RACCORDO
100
AcDbLine
 62
7
  6
CONTINUOUS
 10
-43.6273296566
 20
-128.6951429324
 11
-43.6276058714
 21
-128.6962085758
  0
LWPOLYLINE
  5
3F2
100
AcDbEntity
  8
RACCORDO
100
AcDbPolyline
 62
253
  6
CONTINUOUS
 90
8
 70
0
 10
-43.627247077
 20
-128.6951800361
 10
-43.627715023
 20
-128.6969232263
 10
-43.6282495795
 20
-128.6988448237
 10
-43.6288478729
 20
-128.7009366038
 10
-43.6295013113
 20
-128.7031648368
 10
-43.6302083528
 20
-128.7055258806
 10
-43.6309673555
 20
-128.7080162527
 10
-43.6317697352
 20
-128.710601437
  0
LINE
  5
3F3
100
AcDbEntity
  8
RACCORDO
100
AcDbLine
 62
7
  6
CONTINUOUS
 10
-43.6276058714
 20
-128.6962085758
 11
-43.6279217636
 21
-128.6973897284
  0
LINE
  5
3F4
100
AcDbEntity
  8
RACCORDO
100
AcDbLine
 62
7
  6
CONTINUOUS
 10
-43.6279217636
 20
-128.6973897284
 11
-43.6282763843
 21
-128.698679753
  0
LINE
  5
3F5
100
AcDbEntity
  8
RACCORDO
100
AcDbLine
 62
7
  6
CONTINUOUS
 10
-43.6282763843
 20
-128.698679753
 11
-43.6286696364
 21
-128.7000765099
  0
LINE
  5
3F6
100
AcDbEntity
  8
RACCORDO
100
AcDbLine
 62
7
  6
CONTINUOUS
 10
-43.6286696364
 20
-128.7000765099
 11
-43.6291004868
 21
-128.7015760496
  0
LINE
  5
3F7
100
AcDbEntity
  8
RACCORDO
100
AcDbLine
 62
7
  6
CONTINUOUS
 10
-43.6291004868
 20
-128.7015760496
 11
-43.6295675885
 21
-128.703173361
  0
LWPOLYLINE
  5
3F8
100
AcDbEntity
  8
RACCORDO
100
AcDbPolyline
 62
253
  6
CONTINUOUS
 90
10
 70
0
 10
-43.6277139413
 20
-128.9536680164
 10
-43.6282503187
 20
-128.9554937047
 10
-43.6288513283
 20
-128.9571681487
 10
-43.6295080065
 20
-128.958646697
 10
-43.630220055
 20
-128.959928472
 10
-43.6309845152
 20
-128.9610127741
 10
-43.6317887239
 20
-128.9618607226
 10
-43.6326275174
 20
-128.9624628508
 10
-43.6335028549
 20
-128.9628361398
 10
-43.6344129479
 20
-128.9629848116
  0
LWPOLYLINE
  5
3F9
100
AcDbEntity
  8
RACCORDO
100
AcDbPolyline
 62
7
  6
CONTINUOUS
 90
9
 70
0
 10
-43.6376548976
 20
-128.728937284
 10
-43.6414038168
 20
-128.7416632464
 10
-43.6448909639
 20
-128.7545732335
 10
-43.6480845575
 20
-128.7675587386
 10
-43.6509830445
 20
-128.7806134304
 10
-43.6535849707
 20
-128.7937307133
 10
-43.6558889511
 20
-128.806903818
 10
-43.6578938077
 20
-128.8201260752
 10
-43.659283337
 20
-128.8307488589
  0
LINE
  5
3FA
100
AcDbEntity
  8
RACCORDO
100
AcDbLine
 62
7
  6
CONTINUOUS
 10
-43.6295675885
 20
-128.703173361
 11
-43.6303343356
 21
-128.7057423861
  0
LINE
  5
3FB
100
AcDbEntity
  8
RACCORDO
100
AcDbLine
 62
7
  6
CONTINUOUS
 10
-43.6303343356
 20
-128.7057423861
 11
-43.631176338
 21
-128.7085022965
  0
LINE
  5
3FC
100
AcDbEntity
  8
RACCORDO
100
AcDbLine
 62
7
  6
CONTINUOUS
 10
-43.631176338
 20
-128.7085022965
 11
-43.6320875695
 21
-128.7114325131
  0
LWPOLYLINE
  5
3FD
100
AcDbEntity
  8
RACCORDO
100
AcDbPolyline
 62
253
  6
CONTINUOUS
 90
5
 70
0
 10
-43.6260479574
 20
-128.6883544913
 10
-43.626433954
 20
-128.6895872587
 10
-43.6266580355
 20
-128.6908595819
 10
-43.6267164611
 20
-128.692150222
 10
-43.6266929476
 20
-128.6924299821
  0
LINE
  5
3FE
100
AcDbEntity
  8
RACCORDO
100
AcDbLine
 62
7
  6
CONTINUOUS
 10
-43.634463408
 20
-128.7188522428
 11
-43.6376548976
 21
-128.728937284
  0
LWPOLYLINE
  5
3FF
100
AcDbEntity
  8
RACCORDO
100
AcDbPolyline
 62
253
  6
CONTINUOUS
 90
9
 70
0
 10
-43.6344129479
 20
-128.7188687166
 10
-43.6373288107
 20
-128.728046102
 10
-43.6400088551
 20
-128.7369854265
 10
-43.642467005
 20
-128.7456784589
 10
-43.6447156363
 20
-128.7541080423
 10
-43.6467690842
 20
-128.7622766875
 10
-43.6486430869
 20
-128.7702064005
 10
-43.6503504756
 20
-128.7778958216
 10
-43.6519013117
 20
-128.7853347211
  0
LINE
  5
400
100
AcDbEntity
  8
RACCORDO
100
AcDbLine
 62
7
  6
CONTINUOUS
 10
-43.6320875695
 20
-128.7114325131
 11
-43.6330621122
 21
-128.714511783
  0
LWPOLYLINE
  5
401
100
AcDbEntity
  8
RACCORDO
100
AcDbPolyline
 62
253
  6
CONTINUOUS
 90
3
 70
0
 10
-43.6317697352
 20
-128.710601437
 10
-43.633493265
 20
-128.7160242107
 10
-43.6344129479
 20
-128.7188687166
  0
LWPOLYLINE
  5
402
100
AcDbEntity
  8
RACCORDO
100
AcDbPolyline
 62
7
  6
CONTINUOUS
 90
3
 70
0
 10
-43.6330621122
 20
-128.714511783
 10
-43.634093061
 20
-128.7177153928
 10
-43.6344630717
 20
-128.7188523524
  0
LINE
  5
403
100
AcDbEntity
  8
RACCORDO
100
AcDbLine
 62
253
  6
CONTINUOUS
 10
20.0663955748
 20
77.8657656591
 11
20.0664120501
 21
77.8658161231
  0
LWPOLYLINE
  5
404
100
AcDbEntity
  8
RACCORDO
100
AcDbPolyline
 62
7
  6
CONTINUOUS
 90
4
 70
0
 10
36.8958908243
 20
-128.9535854403
 10
36.8957391728
 20
-128.9533053236
 10
36.8955224557
 20
-128.9528397555
 10
36.8952614589
 20
-128.9521859922
  0
LWPOLYLINE
  5
405
100
AcDbEntity
  8
RACCORDO
100
AcDbPolyline
 62
253
  6
CONTINUOUS
 90
22
 70
0
 10
-26.677720518
 20
77.8905833577
 10
-26.6777284239
 20
77.8906476097
 10
-26.6777736723
 20
77.8907090966
 10
-26.6778557115
 20
77.8907678492
 10
-26.6779700719
 20
77.8908246199
 10
-26.6781200872
 20
77.8908787092
 10
-26.6783170109
 20
77.8909279934
 10
-26.6785606206
 20
77.8909727671
 10
-26.678850228
 20
77.8910128247
 10
-26.6791968383
 20
77.8910453335
 10
-26.6796021911
 20
77.8910705161
 10
-26.6800644242
 20
77.8910882406
 10
-26.6805901618
 20
77.891095161
 10
-26.681185057
 20
77.8910910732
 10
-26.6818448708
 20
77.8910761879
 10
-26.6825629469
 20
77.8910477475
 10
-26.683348956
 20
77.8910046196
 10
-26.6841964587
 20
77.8909477247
 10
-26.6850759115
 20
77.8908773214
 10
-26.6859787872
 20
77.8907933561
 10
-26.6869170429
 20
77.8906954575
 10
-26.687892022
 20
77.8905833577
  0
LINE
  5
406
100
AcDbEntity
  8
RACCORDO
100
AcDbLine
 62
253
  6
CONTINUOUS
 10
-26.6878920218
 20
77.8905833563
 11
-26.6878984288
 21
77.8906360535
  0
LWPOLYLINE
  5
407
100
AcDbEntity
  8
RACCORDO
100
AcDbPolyline
 62
253
  6
CONTINUOUS
 90
11
 70
0
 10
12.4443375295
 20
77.8657656657
 10
12.4441856241
 20
77.8648505332
 10
12.4438089757
 20
77.8639714877
 10
12.443203492
 20
77.8631303806
 10
12.4423524295
 20
77.862325803
 10
12.4412653581
 20
77.8615624857
 10
12.4399809452
 20
77.8608516234
 10
12.4384994629
 20
77.860195619
 10
12.4368221939
 20
77.8595953125
 10
12.4349947017
 20
77.8590598007
 10
12.4333085057
 20
77.8586596039
  0
LINE
  5
408
100
AcDbEntity
  8
RACCORDO
100
AcDbLine
 62
253
  6
CONTINUOUS
 10
19.9336733115
 20
77.8833407404
 11
19.9334667281
 21
77.8823749767
  0
LWPOLYLINE
  5
409
100
AcDbEntity
  8
RACCORDO
100
AcDbPolyline
 62
7
  6
CONTINUOUS
 90
6
 70
0
 10
-43.6283323266
 20
-128.951265047
 10
-43.6286206877
 20
-128.9521214972
 10
-43.6288855943
 20
-128.9527935838
 10
-43.62910704
 20
-128.953275097
 10
-43.6292688842
 20
-128.9535775041
 10
-43.6292764559
 20
-128.9535903222
  0
LWPOLYLINE
  5
40A
100
AcDbEntity
  8
RACCORDO
100
AcDbPolyline
 62
7
  6
CONTINUOUS
 90
10
 70
0
 10
-26.6667476766
 20
77.8817345489
 10
-26.6669395599
 20
77.8829388553
 10
-26.6672854046
 20
77.8841294473
 10
-26.6677492021
 20
77.8852198905
 10
-26.668309762
 20
77.8862074473
 10
-26.668955824
 20
77.8871009063
 10
-26.669672803
 20
77.887898286
 10
-26.6704437955
 20
77.8885963088
 10
-26.6712630564
 20
77.8892018855
 10
-26.6721387761
 20
77.8897261923
  0
LWPOLYLINE
  5
40B
100
AcDbEntity
  8
RACCORDO
100
AcDbPolyline
 62
253
  6
CONTINUOUS
 90
22
 70
0
 10
-19.177720518
 20
77.8905833577
 10
-19.1777284239
 20
77.8906476097
 10
-19.1777736723
 20
77.8907090966
 10
-19.1778557115
 20
77.8907678492
 10
-19.1779700719
 20
77.8908246199
 10
-19.1781200872
 20
77.8908787092
 10
-19.1783170109
 20
77.8909279934
 10
-19.1785606206
 20
77.8909727671
 10
-19.178850228
 20
77.8910128247
 10
-19.1791968383
 20
77.8910453335
 10
-19.1796021911
 20
77.8910705161
 10
-19.1800644242
 20
77.8910882406
 10
-19.1805901618
 20
77.891095161
 10
-19.181185057
 20
77.8910910732
 10
-19.1818448708
 20
77.8910761879
 10
-19.1825629469
 20
77.8910477475
 10
-19.183348956
 20
77.8910046196
 10
-19.1841964587
 20
77.8909477247
 10
-19.1850759115
 20
77.8908773214
 10
-19.1859787872
 20
77.8907933561
 10
-19.1869170429
 20
77.8906954575
 10
-19.187892022
 20
77.8905833577
  0
LINE
  5
40C
100
AcDbEntity
  8
RACCORDO
100
AcDbLine
 62
253
  6
CONTINUOUS
 10
-19.1878920218
 20
77.8905833563
 11
-19.1878984288
 21
77.8906360535
  0
LINE
  5
40D
100
AcDbEntity
  8
RACCORDO
100
AcDbLine
 62
253
  6
CONTINUOUS
 10
12.4333933052
 20
77.8819141572
 11
12.4333085057
 21
77.8807091568
  0
LINE
  5
40E
100
AcDbEntity
  8
RACCORDO
100
AcDbLine
 62
253
  6
CONTINUOUS
 10
12.4545090323
 20
77.8905833479
 11
12.4545154264
 21
77.8906359848
  0
LWPOLYLINE
  5
40F
100
AcDbEntity
  8
RACCORDO
100
AcDbPolyline
 62
253
  6
CONTINUOUS
 90
11
 70
0
 10
19.9443375295
 20
77.8657656657
 10
19.9441856241
 20
77.8648505332
 10
19.9438089757
 20
77.8639714877
 10
19.943203492
 20
77.8631303806
 10
19.9423524295
 20
77.862325803
 10
19.9412653581
 20
77.8615624857
 10
19.9399809452
 20
77.8608516234
 10
19.9384994629
 20
77.860195619
 10
19.9368221939
 20
77.8595953125
 10
19.9349947017
 20
77.8590598007
 10
19.9333085057
 20
77.8586596039
  0
LINE
  5
410
100
AcDbEntity
  8
0
100
AcDbLine
 62
7
  6
CONTINUOUS
 10
29.3233085057
 20
-24.1669557879
 11
29.5233085057
 21
-24.1669557879
  0
LINE
  5
411
100
AcDbEntity
  8
0
100
AcDbLine
 62
7
  6
CONTINUOUS
 10
29.3233085057
 20
-23.7519557879
 11
29.5233085057
 21
-23.7519557879
  0
LINE
  5
412
100
AcDbEntity
  8
0
100
AcDbLine
 62
7
  6
CONTINUOUS
 10
29.3183085057
 20
-23.6669557879
 11
29.3233085057
 21
-23.6669557879
  0
LINE
  5
413
100
AcDbEntity
  8
0
100
AcDbLine
 62
7
  6
CONTINUOUS
 10
29.5233085057
 20
-23.6669557879
 11
29.5283085057
 21
-23.6669557879
  0
LINE
  5
414
100
AcDbEntity
  8
0
100
AcDbLine
 62
7
  6
CONTINUOUS
 10
29.3233085057
 20
-23.4519557879
 11
29.5233085057
 21
-23.4519557879
  0
LINE
  5
415
100
AcDbEntity
  8
0
100
AcDbLine
 62
7
  6
CONTINUOUS
 10
29.5283085057
 20
-22.8669557879
 11
29.5233085057
 21
-22.8669557879
  0
LINE
  5
416
100
AcDbEntity
  8
0
100
AcDbLine
 62
7
  6
CONTINUOUS
 10
29.3233085057
 20
-22.8669557879
 11
29.3183085057
 21
-22.8669557879
  0
LINE
  5
417
100
AcDbEntity
  8
0
100
AcDbLine
 62
7
  6
CONTINUOUS
 10
29.3233085057
 20
-22.7519557879
 11
29.5233085057
 21
-22.7519557879
  0
LINE
  5
418
100
AcDbEntity
  8
0
100
AcDbLine
 62
7
  6
CONTINUOUS
 10
29.3233085057
 20
-22.4519557879
 11
29.5233085057
 21
-22.4519557879
  0
LINE
  5
419
100
AcDbEntity
  8
0
100
AcDbLine
 62
7
  6
CONTINUOUS
 10
29.3233085057
 20
-22.0369557879
 11
29.5233085057
 21
-22.0369557879
  0
LWPOLYLINE
  5
41A
100
AcDbEntity
  8
RACCORDO
100
AcDbPolyline
 62
7
  6
CONTINUOUS
 90
13
 70
0
 10
36.9257535443
 20
-128.9591951369
 10
36.9254231248
 20
-128.9583100272
 10
36.9249904859
 20
-128.9574030697
 10
36.9244661791
 20
-128.95652735
 10
36.9238606024
 20
-128.9557080891
 10
36.9231625796
 20
-128.9549370966
 10
36.9223651999
 20
-128.9542201176
 10
36.9214717408
 20
-128.9535740556
 10
36.9204841841
 20
-128.9530134957
 10
36.9193937409
 20
-128.9525496982
 10
36.9182031489
 20
-128.9522038535
 10
36.9169299197
 20
-128.9520009886
 10
36.915972972
 20
-128.9519557963
  0
LWPOLYLINE
  5
41B
100
AcDbEntity
  8
RACCORDO
100
AcDbPolyline
 62
7
  6
CONTINUOUS
 90
11
 70
0
 10
36.8952614589
 20
-128.9521859922
 10
36.8949761765
 20
-128.9513505069
 10
36.8946794511
 20
-128.9503292803
 10
36.8943832313
 20
-128.949119162
 10
36.894101342
 20
-128.9477329801
 10
36.8938432925
 20
-128.9461750721
 10
36.8936185741
 20
-128.9444518367
 10
36.8934372181
 20
-128.9425842084
 10
36.8933058214
 20
-128.9405868944
 10
36.8932301336
 20
-128.938474942
 10
36.8932160863
 20
-128.9362748933
  0
LINE
  5
41C
100
AcDbEntity
  8
RACCORDO
100
AcDbLine
 62
7
  6
CONTINUOUS
 10
36.9010800814
 20
-128.7188523532
 11
36.9000981219
 21
-128.7158208332
  0
LWPOLYLINE
  5
41D
100
AcDbEntity
  8
RACCORDO
100
AcDbPolyline
 62
253
  6
CONTINUOUS
 90
10
 70
0
 10
36.9010299593
 20
-128.7188687166
 10
36.899218241
 20
-128.713234806
 10
36.8983740136
 20
-128.7105606988
 10
36.8975718276
 20
-128.7079759171
 10
36.8968150312
 20
-128.7054919498
 10
36.8961102043
 20
-128.7031374287
 10
36.8954583454
 20
-128.7009140596
 10
36.894861617
 20
-128.6988272269
 10
36.8943284364
 20
-128.6969100688
 10
36.893861599
 20
-128.695170516
  0
LINE
  5
41E
100
AcDbEntity
  8
RACCORDO
100
AcDbLine
 62
7
  6
CONTINUOUS
 10
36.9000981219
 20
-128.7158208332
 11
36.8990959844
 21
-128.7126758851
  0
LINE
  5
41F
100
AcDbEntity
  8
RACCORDO
100
AcDbLine
 62
7
  6
CONTINUOUS
 10
36.9043121086
 20
-128.7290643138
 11
36.9010804195
 21
-128.7188522428
  0
LWPOLYLINE
  5
420
100
AcDbEntity
  8
RACCORDO
100
AcDbPolyline
 62
253
  6
CONTINUOUS
 90
5
 70
0
 10
36.8926657072
 20
-128.6883542058
 10
36.8930515909
 20
-128.6895869679
 10
36.8932755655
 20
-128.6908592671
 10
36.8933338928
 20
-128.6921498679
 10
36.8933101563
 20
-128.6924320399
  0
LINE
  5
421
100
AcDbEntity
  8
RACCORDO
100
AcDbLine
 62
7
  6
CONTINUOUS
 10
36.8990959844
 20
-128.7126758851
 11
36.8981552489
 21
-128.7096723376
  0
LWPOLYLINE
  5
422
100
AcDbEntity
  8
RACCORDO
100
AcDbPolyline
 62
7
  6
CONTINUOUS
 90
10
 70
0
 10
-19.1667476766
 20
77.8817345489
 10
-19.1669395599
 20
77.8829388553
 10
-19.1672854046
 20
77.8841294473
 10
-19.1677492021
 20
77.8852198905
 10
-19.168309762
 20
77.8862074473
 10
-19.168955824
 20
77.8871009063
 10
-19.169672803
 20
77.887898286
 10
-19.1704437955
 20
77.8885963088
 10
-19.1712630564
 20
77.8892018855
 10
-19.1721387761
 20
77.8897261923
  0
LINE
  5
423
100
AcDbEntity
  8
RACCORDO
100
AcDbLine
 62
253
  6
CONTINUOUS
 10
12.1697069226
 20
77.8574014163
 11
12.1697043377
 21
77.8582425335
  0
LINE
  5
424
100
AcDbEntity
  8
RACCORDO
100
AcDbLine
 62
253
  6
CONTINUOUS
 10
12.5969092946
 20
77.8577347761
 11
12.5969100889
 21
77.8574014163
  0
LINE
  5
425
100
AcDbEntity
  8
0
100
AcDbLine
 62
7
  6
CONTINUOUS
 10
12.1333085057
 20
-123.8519557879
 11
12.1333085057
 21
-123.9019557879
  0
LINE
  5
426
100
AcDbEntity
  8
0
100
AcDbLine
 62
7
  6
CONTINUOUS
 10
12.1583085057
 20
-123.9019557879
 11
12.1583085057
 21
-123.8519557879
  0
LINE
  5
427
100
AcDbEntity
  8
RACCORDO
100
AcDbLine
 62
7
  6
CONTINUOUS
 10
12.3333085057
 20
77.8599176124
 11
12.3333085057
 21
77.8807091568
  0
LINE
  5
428
100
AcDbEntity
  8
RACCORDO
100
AcDbLine
 62
7
  6
CONTINUOUS
 10
12.4333085057
 20
77.8807091568
 11
12.4333085057
 21
77.8599185604
  0
LINE
  5
429
100
AcDbEntity
  8
RACCORDO
100
AcDbLine
 62
253
  6
CONTINUOUS
 10
12.4443375295
 20
77.8905833577
 11
12.4443375295
 21
77.8657656657
  0
LINE
  5
42A
100
AcDbEntity
  8
0
100
AcDbLine
 62
7
  6
CONTINUOUS
 10
12.6083085057
 20
-123.9019557879
 11
12.6083085057
 21
-123.8519557879
  0
LINE
  5
42B
100
AcDbEntity
  8
0
100
AcDbLine
 62
7
  6
CONTINUOUS
 10
12.6333085057
 20
-123.8519557879
 11
12.6333085057
 21
-123.9019557879
  0
LINE
  5
42C
100
AcDbEntity
  8
RACCORDO
100
AcDbLine
 62
253
  6
CONTINUOUS
 10
12.5969126737
 20
77.8582425335
 11
12.5969092946
 21
77.8577347761
  0
LWPOLYLINE
  5
42D
100
AcDbEntity
  8
RACCORDO
100
AcDbPolyline
 62
253
  6
CONTINUOUS
 90
12
 70
0
 10
12.3222794822
 20
77.8731512248
 10
12.3223015031
 20
77.877188008
 10
12.3222794819
 20
77.8790091466
 10
12.3222802829
 20
77.8807264926
 10
12.3223070936
 20
77.8823338731
 10
12.322279482
 20
77.8838380351
 10
12.322246591
 20
77.885259399
 10
12.3222685981
 20
77.8865833041
 10
12.322279482
 20
77.8877708823
 10
12.3222584777
 20
77.8888193484
 10
12.3222551388
 20
77.8897536982
 10
12.322279482
 20
77.8905833577
  0
LWPOLYLINE
  5
42E
100
AcDbEntity
  8
RACCORDO
100
AcDbPolyline
 62
253
  6
CONTINUOUS
 90
4
 70
0
 10
12.322279482
 20
77.8657656657
 10
12.3222991739
 20
77.8684130034
 10
12.3222947432
 20
77.8708716291
 10
12.3222794822
 20
77.8731512248
  0
LINE
  5
42F
100
AcDbEntity
  8
RACCORDO
100
AcDbLine
 62
253
  6
CONTINUOUS
 10
12.4138230176
 20
77.8574014158
 11
12.4138600297
 21
77.8580714823
  0
LINE
  5
430
100
AcDbEntity
  8
RACCORDO
100
AcDbLine
 62
253
  6
CONTINUOUS
 10
19.9333933052
 20
77.8819141572
 11
19.9333085057
 21
77.8807091568
  0
LINE
  5
431
100
AcDbEntity
  8
RACCORDO
100
AcDbLine
 62
253
  6
CONTINUOUS
 10
19.9545090323
 20
77.8905833479
 11
19.9545154264
 21
77.8906359848
  0
LINE
  5
432
100
AcDbEntity
  8
RACCORDO
100
AcDbLine
 62
253
  6
CONTINUOUS
 10
-26.799778422
 20
77.8657652264
 11
-26.7997949289
 21
77.8658157877
  0
LINE
  5
433
100
AcDbEntity
  8
RACCORDO
100
AcDbLine
 62
7
  6
CONTINUOUS
 10
36.8981552489
 20
-128.7096723376
 11
36.8972819664
 21
-128.7068322503
  0
LINE
  5
434
100
AcDbEntity
  8
RACCORDO
100
AcDbLine
 62
7
  6
CONTINUOUS
 10
36.8972819664
 20
-128.7068322503
 11
36.8964815178
 21
-128.70417548
  0
LINE
  5
435
100
AcDbEntity
  8
RACCORDO
100
AcDbLine
 62
7
  6
CONTINUOUS
 10
36.8964815178
 20
-128.70417548
 11
36.8959914748
 21
-128.7025167436
  0
LINE
  5
436
100
AcDbEntity
  8
RACCORDO
100
AcDbLine
 62
7
  6
CONTINUOUS
 10
36.8959914748
 20
-128.7025167436
 11
36.8955375639
 21
-128.7009533391
  0
LINE
  5
437
100
AcDbEntity
  8
RACCORDO
100
AcDbLine
 62
7
  6
CONTINUOUS
 10
36.8955375639
 20
-128.7009533391
 11
36.8951206207
 21
-128.6994900528
  0
LWPOLYLINE
  5
438
100
AcDbEntity
  8
RACCORDO
100
AcDbPolyline
 62
253
  6
CONTINUOUS
 90
4
 70
0
 10
36.9090600166
 20
-128.7455911252
 10
36.9066056265
 20
-128.7369153948
 10
36.9039334032
 20
-128.7280051975
 10
36.9010299593
 20
-128.7188687166
  0
LINE
  5
439
100
AcDbEntity
  8
RACCORDO
100
AcDbLine
 62
7
  6
CONTINUOUS
 10
36.8951206207
 20
-128.6994900528
 11
36.894741734
 21
-128.6981320704
  0
LINE
  5
43A
100
AcDbEntity
  8
RACCORDO
100
AcDbLine
 62
7
  6
CONTINUOUS
 10
36.894741734
 20
-128.6981320704
 11
36.8944020453
 21
-128.6968833581
  0
LWPOLYLINE
  5
43B
100
AcDbEntity
  8
RACCORDO
100
AcDbPolyline
 62
7
  6
CONTINUOUS
 90
5
 70
0
 10
36.8944020453
 20
-128.6968833581
 10
36.8941021953
 20
-128.6957476438
 10
36.893967054
 20
-128.6952224473
 10
36.8938418685
 20
-128.6947267282
 10
36.8938070612
 20
-128.6945860429
  0
LWPOLYLINE
  5
43C
100
AcDbEntity
  8
RACCORDO
100
AcDbPolyline
 62
253
  6
CONTINUOUS
 90
9
 70
0
 10
36.893861599
 20
-128.695170516
 10
36.8934608633
 20
-128.693607455
 10
36.8931300284
 20
-128.6922387704
 10
36.8928704402
 20
-128.6910686734
 10
36.8926822861
 20
-128.690098393
 10
36.8925673971
 20
-128.6893394064
 10
36.892526523
 20
-128.6887961813
 10
36.8925593226
 20
-128.6884672773
 10
36.8926657099
 20
-128.6883542047
  0
LWPOLYLINE
  5
43D
100
AcDbEntity
  8
RACCORDO
100
AcDbPolyline
 62
253
  6
CONTINUOUS
 90
3
 70
0
 10
36.9152443144
 20
-128.7701375293
 10
36.9133670822
 20
-128.762199058
 10
36.9113096547
 20
-128.7540197259
  0
LINE
  5
43E
100
AcDbEntity
  8
RACCORDO
100
AcDbLine
 62
253
  6
CONTINUOUS
 10
12.3527940377
 20
77.8574006222
 11
12.3527570226
 21
77.8580710135
  0
LWPOLYLINE
  5
43F
100
AcDbEntity
  8
RACCORDO
100
AcDbPolyline
 62
7
  6
CONTINUOUS
 90
15
 70
0
 10
12.3333084842
 20
77.8807091196
 10
12.3332477848
 20
77.88181742
 10
12.3330291278
 20
77.8830736548
 10
12.332671834
 20
77.8842466853
 10
12.332200563
 20
77.8853198215
 10
12.3316359655
 20
77.8862908563
 10
12.3309887533
 20
77.8871688311
 10
12.3302730088
 20
77.8879521393
 10
12.3295052495
 20
77.8886376913
 10
12.3286910581
 20
77.8892322901
 10
12.3278221683
 20
77.8897470247
 10
12.3269232508
 20
77.890171887
 10
12.3260466004
 20
77.8904965986
 10
12.325211867
 20
77.890734785
 10
12.3244002139
 20
77.8909090133
  0
LWPOLYLINE
  5
440
100
AcDbEntity
  8
RACCORDO
100
AcDbPolyline
 62
253
  6
CONTINUOUS
 90
22
 70
0
 10
23.772279482
 20
-128.9731563156
 10
23.7722282059
 20
-128.972189803
 10
23.7720971499
 20
-128.9712566703
 10
23.771886256
 20
-128.9703555978
 10
23.7715852253
 20
-128.9694733358
 10
23.7712041823
 20
-128.9686197231
 10
23.7707721339
 20
-128.967828201
 10
23.7702854815
 20
-128.9671063156
 10
23.7697440781
 20
-128.966443227
 10
23.7691804525
 20
-128.9658460928
 10
23.7685958784
 20
-128.9653195642
 10
23.7679853475
 20
-128.9648576019
 10
23.7673720628
 20
-128.9644529335
 10
23.7667580021
 20
-128.9641073913
 10
23.7661387456
 20
-128.9638193118
 10
23.7655285502
 20
-128.963577216
 10
23.7649300633
 20
-128.9633818088
 10
23.7643393934
 20
-128.9632333597
 10
23.7637615373
 20
-128.9631201305
 10
23.7631980627
 20
-128.9630385764
 10
23.7626469325
 20
-128.9629932964
 10
23.762107978
 20
-128.9629848116
  0
LWPOLYLINE
  5
441
100
AcDbEntity
  8
RACCORDO
100
AcDbPolyline
 62
253
  6
CONTINUOUS
 90
22
 70
0
 10
23.8943375295
 20
-128.8307552602
 10
23.8943888056
 20
-128.8317217728
 10
23.8945198616
 20
-128.8326549054
 10
23.8947307554
 20
-128.8335559779
 10
23.8950317862
 20
-128.8344382399
 10
23.8954128292
 20
-128.8352918526
 10
23.8958448776
 20
-128.8360833747
 10
23.89633153
 20
-128.8368052601
 10
23.8968729333
 20
-128.8374683487
 10
23.897436559
 20
-128.8380654829
 10
23.8980211331
 20
-128.8385920115
 10
23.8986316639
 20
-128.8390539738
 10
23.8992449486
 20
-128.8394586422
 10
23.8998590093
 20
-128.8398041844
 10
23.9004782659
 20
-128.8400922639
 10
23.9010884613
 20
-128.8403343597
 10
23.9016869482
 20
-128.8405297669
 10
23.9022776181
 20
-128.840678216
 10
23.9028554741
 20
-128.8407914452
 10
23.9034189488
 20
-128.8408729993
 10
23.903970079
 20
-128.8409182793
 10
23.9045090334
 20
-128.8409267641
  0
LINE
  5
442
100
AcDbEntity
  8
RACCORDO
100
AcDbLine
 62
253
  6
CONTINUOUS
 10
19.6697069226
 20
77.8574014163
 11
19.6697043377
 21
77.8582425335
  0
LINE
  5
443
100
AcDbEntity
  8
RACCORDO
100
AcDbLine
 62
253
  6
CONTINUOUS
 10
20.0969092946
 20
77.8577347761
 11
20.0969100889
 21
77.8574014163
  0
LINE
  5
444
100
AcDbEntity
  8
RACCORDO
100
AcDbLine
 62
253
  6
CONTINUOUS
 10
13.4333085057
 20
77.5980442121
 11
13.4333085057
 21
77.4480442121
  0
LINE
  5
445
100
AcDbEntity
  8
RACCORDO
100
AcDbLine
 62
7
  6
CONTINUOUS
 10
13.6333085057
 20
77.5980442121
 11
13.6333085057
 21
77.4480442121
  0
LINE
  5
446
100
AcDbEntity
  8
RACCORDO
100
AcDbLine
 62
7
  6
CONTINUOUS
 10
18.6333085057
 20
-123.9019557879
 11
18.6333085057
 21
-123.8519557879
  0
LINE
  5
447
100
AcDbEntity
  8
RACCORDO
100
AcDbLine
 62
7
  6
CONTINUOUS
 10
18.6333085057
 20
77.4480442121
 11
18.6333085057
 21
77.5940033916
  0
LINE
  5
448
100
AcDbEntity
  8
RACCORDO
100
AcDbLine
 62
253
  6
CONTINUOUS
 10
18.6733085057
 20
77.4480442121
 11
18.6733085057
 21
77.5980442121
  0
LINE
  5
449
100
AcDbEntity
  8
RACCORDO
100
AcDbLine
 62
253
  6
CONTINUOUS
 10
18.7833085057
 20
77.4480442121
 11
18.7833085057
 21
77.5980442121
  0
LINE
  5
44A
100
AcDbEntity
  8
RACCORDO
100
AcDbLine
 62
7
  6
CONTINUOUS
 10
18.8333085057
 20
77.5980442121
 11
18.8333085057
 21
77.4480442121
  0
LINE
  5
44B
100
AcDbEntity
  8
RACCORDO
100
AcDbLine
 62
253
  6
CONTINUOUS
 10
18.8833085057
 20
77.5980442121
 11
18.8833085057
 21
77.4480442121
  0
LINE
  5
44C
100
AcDbEntity
  8
RACCORDO
100
AcDbLine
 62
7
  6
CONTINUOUS
 10
19.8333085057
 20
77.8599176124
 11
19.8333085057
 21
77.8807091568
  0
LINE
  5
44D
100
AcDbEntity
  8
RACCORDO
100
AcDbLine
 62
7
  6
CONTINUOUS
 10
19.9333085057
 20
77.8807091568
 11
19.9333085057
 21
77.8599185604
  0
LINE
  5
44E
100
AcDbEntity
  8
RACCORDO
100
AcDbLine
 62
253
  6
CONTINUOUS
 10
19.9443375295
 20
77.8905833577
 11
19.9443375295
 21
77.8657656657
  0
LINE
  5
44F
100
AcDbEntity
  8
RACCORDO
100
AcDbLine
 62
253
  6
CONTINUOUS
 10
20.3333085057
 20
77.5980442121
 11
20.3333085057
 21
77.4480442121
  0
LINE
  5
450
100
AcDbEntity
  8
RACCORDO
100
AcDbLine
 62
253
  6
CONTINUOUS
 10
20.0969126737
 20
77.8582425335
 11
20.0969092946
 21
77.8577347761
  0
LWPOLYLINE
  5
451
100
AcDbEntity
  8
RACCORDO
100
AcDbPolyline
 62
253
  6
CONTINUOUS
 90
12
 70
0
 10
19.8222794822
 20
77.8731512248
 10
19.8223015031
 20
77.877188008
 10
19.8222794819
 20
77.8790091466
 10
19.8222802829
 20
77.8807264926
 10
19.8223070936
 20
77.8823338731
 10
19.822279482
 20
77.8838380351
 10
19.822246591
 20
77.885259399
 10
19.8222685981
 20
77.8865833041
 10
19.822279482
 20
77.8877708823
 10
19.8222584777
 20
77.8888193484
 10
19.8222551388
 20
77.8897536982
 10
19.822279482
 20
77.8905833577
  0
LWPOLYLINE
  5
452
100
AcDbEntity
  8
RACCORDO
100
AcDbPolyline
 62
253
  6
CONTINUOUS
 90
4
 70
0
 10
19.822279482
 20
77.8657656657
 10
19.8222991739
 20
77.8684130034
 10
19.8222947432
 20
77.8708716291
 10
19.8222794822
 20
77.8731512248
  0
LINE
  5
453
100
AcDbEntity
  8
RACCORDO
100
AcDbLine
 62
253
  6
CONTINUOUS
 10
19.9138230176
 20
77.8574014158
 11
19.9138600297
 21
77.8580714823
  0
LINE
  5
454
100
AcDbEntity
  8
RACCORDO
100
AcDbLine
 62
253
  6
CONTINUOUS
 10
-19.299778422
 20
77.8657652264
 11
-19.2997949289
 21
77.8658157877
  0
LINE
  5
455
100
AcDbEntity
  8
RACCORDO
100
AcDbLine
 62
7
  6
CONTINUOUS
 10
36.8938070612
 20
-128.6945860429
 11
36.8933054039
 21
-128.6924081653
  0
LINE
  5
456
100
AcDbEntity
  8
RACCORDO
100
AcDbLine
 62
253
  6
CONTINUOUS
 10
36.8939238975
 20
-128.9519557879
 11
36.8938294092
 21
-128.9515284918
  0
LINE
  5
457
100
AcDbEntity
  8
RACCORDO
100
AcDbLine
 62
253
  6
CONTINUOUS
 10
36.9185048049
 20
-128.7852676563
 11
36.9169530785
 21
-128.777828768
  0
LINE
  5
458
100
AcDbEntity
  8
RACCORDO
100
AcDbLine
 62
7
  6
CONTINUOUS
 10
36.8933054039
 20
-128.6924081653
 11
36.8932216428
 21
-128.6919709415
  0
LINE
  5
459
100
AcDbEntity
  8
RACCORDO
100
AcDbLine
 62
7
  6
CONTINUOUS
 10
36.8933081827
 20
-128.6924215043
 11
36.8932171939
 21
-128.6919464198
  0
LINE
  5
45A
100
AcDbEntity
  8
RACCORDO
100
AcDbLine
 62
253
  6
CONTINUOUS
 10
36.8938294092
 20
-128.9515284918
 11
36.8934569598
 21
-128.9495627686
  0
LINE
  5
45B
100
AcDbEntity
  8
RACCORDO
100
AcDbLine
 62
253
  6
CONTINUOUS
 10
36.9211792379
 20
-128.7994118875
 11
36.919910417
 21
-128.7924654049
  0
LINE
  5
45C
100
AcDbEntity
  8
RACCORDO
100
AcDbLine
 62
7
  6
CONTINUOUS
 10
36.9261679396
 20
-128.8332278032
 11
36.9260242499
 21
-128.8318231004
  0
LINE
  5
45D
100
AcDbEntity
  8
RACCORDO
100
AcDbLine
 62
7
  6
CONTINUOUS
 10
36.9262782964
 20
-128.8345049878
 11
36.9261580253
 21
-128.8331228941
  0
LINE
  5
45E
100
AcDbEntity
  8
RACCORDO
100
AcDbLine
 62
253
  6
CONTINUOUS
 10
19.8527940377
 20
77.8574006222
 11
19.8527570226
 21
77.8580710135
  0
LWPOLYLINE
  5
45F
100
AcDbEntity
  8
RACCORDO
100
AcDbPolyline
 62
7
  6
CONTINUOUS
 90
16
 70
0
 10
19.8333084842
 20
77.8807091196
 10
19.8332477848
 20
77.88181742
 10
19.8330291278
 20
77.8830736548
 10
19.832671834
 20
77.8842466853
 10
19.832200563
 20
77.8853198215
 10
19.8316359655
 20
77.8862908563
 10
19.8309887533
 20
77.8871688311
 10
19.8302730088
 20
77.8879521393
 10
19.8295052495
 20
77.8886376913
 10
19.8286910581
 20
77.8892322901
 10
19.8278221683
 20
77.8897470247
 10
19.8269232508
 20
77.890171887
 10
19.8260466004
 20
77.8904965986
 10
19.825211867
 20
77.890734785
 10
19.8244002139
 20
77.8909090133
 10
19.8236011406
 20
77.8910334874
  0
LWPOLYLINE
  5
460
100
AcDbEntity
  8
RACCORDO
100
AcDbPolyline
 62
253
  6
CONTINUOUS
 90
16
 70
0
 10
23.8027940348
 20
-129.1155570844
 10
23.8027727195
 20
-129.114324317
 10
23.802760347
 20
-129.1130519939
 10
23.8027571239
 20
-129.1117613537
 10
23.802763104
 20
-129.1104739412
 10
23.8027781875
 20
-129.109211247
 10
23.8028021226
 20
-129.1079943493
 10
23.8028345099
 20
-129.1068435617
 10
23.8028748087
 20
-129.1057780943
 10
23.8029223465
 20
-129.1048157328
 10
23.8029763296
 20
-129.103972542
 10
23.803035857
 20
-129.1032625971
 10
23.8030999351
 20
-129.1026977494
 10
23.8031674943
 20
-129.1022874277
 10
23.8032374068
 20
-129.1020384815
 10
23.8033085057
 20
-129.1019550666
  0
LWPOLYLINE
  5
461
100
AcDbEntity
  8
RACCORDO
100
AcDbPolyline
 62
253
  6
CONTINUOUS
 90
16
 70
0
 10
23.8638229767
 20
-128.6883544913
 10
23.863844292
 20
-128.6895872587
 10
23.8638566645
 20
-128.6908595819
 10
23.8638598876
 20
-128.692150222
 10
23.8638539075
 20
-128.6934376345
 10
23.863838824
 20
-128.6947003287
 10
23.8638148889
 20
-128.6959172264
 10
23.8637825016
 20
-128.697068014
 10
23.8637422028
 20
-128.6981334814
 10
23.863694665
 20
-128.6990958429
 10
23.8636406819
 20
-128.6999390337
 10
23.8635811544
 20
-128.7006489786
 10
23.8635170763
 20
-128.7012138263
 10
23.8634495172
 20
-128.701624148
 10
23.8633796046
 20
-128.7018730942
 10
23.8633085058
 20
-128.7019565091
  0
LWPOLYLINE
  5
462
100
AcDbEntity
  8
RACCORDO
100
AcDbPolyline
 62
253
  6
CONTINUOUS
 90
13
 70
0
 10
23.6502215663
 20
-128.9629847676
 10
23.6502071085
 20
-128.9615917391
 10
23.6502529051
 20
-128.9602057651
 10
23.6503580663
 20
-128.9588537726
 10
23.6505205491
 20
-128.9575620283
 10
23.6507371967
 20
-128.9563556285
 10
23.6510037999
 20
-128.9552580115
 10
23.6513151793
 20
-128.954290502
 10
23.6516652851
 20
-128.9534718969
 10
23.6520473155
 20
-128.9528181002
 10
23.6524538484
 20
-128.9523418141
 10
23.6528769854
 20
-128.952052292
 10
23.6533085058
 20
-128.9519551587
  0
LWPOLYLINE
  5
463
100
AcDbEntity
  8
RACCORDO
100
AcDbPolyline
 62
253
  6
CONTINUOUS
 90
13
 70
0
 10
24.0163954452
 20
-128.8409268081
 10
24.016409903
 20
-128.8423198366
 10
24.0163641064
 20
-128.8437058106
 10
24.0162589451
 20
-128.8450578032
 10
24.0160964624
 20
-128.8463495474
 10
24.0158798148
 20
-128.8475559472
 10
24.0156132115
 20
-128.8486535642
 10
24.0153018322
 20
-128.8496210737
 10
24.0149517264
 20
-128.8504396789
 10
24.0145696959
 20
-128.8510934755
 10
24.0141631631
 20
-128.8515697616
 10
24.0137400261
 20
-128.8518592837
 10
24.0133085057
 20
-128.851956417
  0
LWPOLYLINE
  5
464
100
AcDbEntity
  8
RACCORDO
100
AcDbPolyline
 62
253
  6
CONTINUOUS
 90
13
 70
0
 10
23.7621079783
 20
-128.9629848114
 10
23.7621023709
 20
-128.9615918158
 10
23.7621201939
 20
-128.9602058906
 10
23.762161101
 20
-128.9588539589
 10
23.7622242975
 20
-128.9575622832
 10
23.7623085558
 20
-128.9563559554
 10
23.762412239
 20
-128.9552584098
 10
23.7625333332
 20
-128.9542909671
 10
23.7626694858
 20
-128.9534724209
 10
23.7628180519
 20
-128.9528186722
 10
23.7629761456
 20
-128.9523424206
 10
23.7631406957
 20
-128.9520529179
 10
23.7633085057
 20
-128.9519557879
  0
LWPOLYLINE
  5
465
100
AcDbEntity
  8
RACCORDO
100
AcDbPolyline
 62
253
  6
CONTINUOUS
 90
13
 70
0
 10
23.9045090332
 20
-128.8409267643
 10
23.9045146406
 20
-128.84231976
 10
23.9044968176
 20
-128.8437056851
 10
23.9044559105
 20
-128.8450576168
 10
23.904392714
 20
-128.8463492926
 10
23.9043084557
 20
-128.8475556203
 10
23.9042047724
 20
-128.8486531659
 10
23.9040836783
 20
-128.8496206086
 10
23.9039475257
 20
-128.8504391548
 10
23.9037989596
 20
-128.8510929035
 10
23.9036408659
 20
-128.8515691551
 10
23.9034763157
 20
-128.8518586578
 10
23.9033085057
 20
-128.8519557879
  0
LINE
  5
466
100
AcDbEntity
  8
RACCORDO
100
AcDbLine
 62
7
  6
CONTINUOUS
 10
20.7333085057
 20
77.5980442121
 11
20.7333085057
 21
77.4480442121
  0
LINE
  5
467
100
AcDbEntity
  8
RACCORDO
100
AcDbLine
 62
253
  6
CONTINUOUS
 10
23.6197069226
 20
-128.9324702997
 11
23.6197069226
 21
-128.871441276
  0
LINE
  5
468
100
AcDbEntity
  8
RACCORDO
100
AcDbLine
 62
7
  6
CONTINUOUS
 10
23.6333085057
 20
-128.9319557879
 11
23.6333085057
 21
-128.8719557879
  0
LINE
  5
469
100
AcDbEntity
  8
RACCORDO
100
AcDbLine
 62
253
  6
CONTINUOUS
 10
23.772279482
 20
-128.8307552602
 11
23.772279482
 21
-128.7188687166
  0
LINE
  5
46A
100
AcDbEntity
  8
RACCORDO
100
AcDbLine
 62
253
  6
CONTINUOUS
 10
23.772279482
 20
-129.0850428591
 11
23.772279482
 21
-128.9731563156
  0
LINE
  5
46B
100
AcDbEntity
  8
RACCORDO
100
AcDbLine
 62
7
  6
CONTINUOUS
 10
23.7833085057
 20
-128.8319557879
 11
23.7833085057
 21
-128.7219557879
  0
LINE
  5
46C
100
AcDbEntity
  8
RACCORDO
100
AcDbLine
 62
7
  6
CONTINUOUS
 10
23.7833085057
 20
-129.0819557879
 11
23.7833085057
 21
-128.9719557879
  0
LINE
  5
46D
100
AcDbEntity
  8
RACCORDO
100
AcDbLine
 62
7
  6
CONTINUOUS
 10
23.8833085057
 20
-128.9719557879
 11
23.8833085057
 21
-129.0819557879
  0
LINE
  5
46E
100
AcDbEntity
  8
RACCORDO
100
AcDbLine
 62
7
  6
CONTINUOUS
 10
23.8833085057
 20
-128.7219557879
 11
23.8833085057
 21
-128.8319557879
  0
LINE
  5
46F
100
AcDbEntity
  8
RACCORDO
100
AcDbLine
 62
253
  6
CONTINUOUS
 10
23.8943375295
 20
-128.7188687166
 11
23.8943375295
 21
-128.8307552602
  0
LINE
  5
470
100
AcDbEntity
  8
RACCORDO
100
AcDbLine
 62
253
  6
CONTINUOUS
 10
23.8943375295
 20
-128.9731563156
 11
23.8943375295
 21
-129.0850428591
  0
LINE
  5
471
100
AcDbEntity
  8
RACCORDO
100
AcDbLine
 62
7
  6
CONTINUOUS
 10
24.0333085057
 20
-128.8719557879
 11
24.0333085057
 21
-128.9319557879
  0
LINE
  5
472
100
AcDbEntity
  8
RACCORDO
100
AcDbLine
 62
253
  6
CONTINUOUS
 10
24.0469100889
 20
-128.871441276
 11
24.0469100889
 21
-128.9324702997
  0
LINE
  5
473
100
AcDbEntity
  8
0
100
AcDbLine
 62
7
  6
CONTINUOUS
 10
24.4833085057
 20
-133.9019557879
 11
24.4833085057
 21
-123.9019557879
  0
LINE
  5
474
100
AcDbEntity
  8
0
100
AcDbLine
 62
253
  6
CONTINUOUS
 10
24.5941920066
 20
-124.9019557879
 11
24.5941920066
 21
-132.9019557879
  0
LINE
  5
475
100
AcDbEntity
  8
0
100
AcDbLine
 62
253
  6
CONTINUOUS
 10
24.689717781
 20
-124.9019557879
 11
24.689717781
 21
-132.9019557879
  0
LINE
  5
476
100
AcDbEntity
  8
0
100
AcDbLine
 62
7
  6
CONTINUOUS
 10
24.7118085057
 20
-123.8519557879
 11
24.7118085057
 21
-124.4519557879
  0
LINE
  5
477
100
AcDbEntity
  8
0
100
AcDbLine
 62
253
  6
CONTINUOUS
 10
24.9333085057
 20
-124.9019557879
 11
24.9333085057
 21
-132.9019557879
  0
LINE
  5
478
100
AcDbEntity
  8
0
100
AcDbLine
 62
7
  6
CONTINUOUS
 10
25.0368082306
 20
-133.1519557879
 11
25.0368082306
 21
-132.9519557879
  0
LINE
  5
479
100
AcDbEntity
  8
0
100
AcDbLine
 62
7
  6
CONTINUOUS
 10
25.0368082306
 20
-133.9519557879
 11
25.0368082306
 21
-133.1519557879
  0
LINE
  5
47A
100
AcDbEntity
  8
0
100
AcDbLine
 62
7
  6
CONTINUOUS
 10
25.0368082306
 20
-123.8519557879
 11
25.0368082306
 21
-124.6519557879
  0
LINE
  5
47B
100
AcDbEntity
  8
0
100
AcDbLine
 62
7
  6
CONTINUOUS
 10
25.2368082306
 20
-133.1519557879
 11
25.2368082306
 21
-132.9019557879
  0
LINE
  5
47C
100
AcDbEntity
  8
0
100
AcDbLine
 62
7
  6
CONTINUOUS
 10
25.2368082306
 20
-124.9019557879
 11
25.2368082306
 21
-124.6519557879
  0
LWPOLYLINE
  5
47D
100
AcDbEntity
  8
RACCORDO
100
AcDbPolyline
 62
253
  6
CONTINUOUS
 90
13
 70
0
 10
23.7621079781
 20
-128.8409267641
 10
23.762102371
 20
-128.8423197576
 10
23.7621201943
 20
-128.8437056803
 10
23.7621611015
 20
-128.8450576095
 10
23.7622242982
 20
-128.8463492827
 10
23.7623085565
 20
-128.847555608
 10
23.7624122399
 20
-128.8486531513
 10
23.7625333339
 20
-128.849620592
 10
23.7626694864
 20
-128.8504391365
 10
23.7628180525
 20
-128.8510928839
 10
23.762976146
 20
-128.8515691345
 10
23.763140696
 20
-128.8518586367
 10
23.7633085057
 20
-128.8519557667
  0
LWPOLYLINE
  5
47E
100
AcDbEntity
  8
RACCORDO
100
AcDbPolyline
 62
253
  6
CONTINUOUS
 90
13
 70
0
 10
23.9045090334
 20
-128.9629848116
 10
23.9045146405
 20
-128.9615918182
 10
23.9044968172
 20
-128.9602058954
 10
23.90445591
 20
-128.9588539662
 10
23.9043927133
 20
-128.957562293
 10
23.9043084549
 20
-128.9563559677
 10
23.9042047716
 20
-128.9552584244
 10
23.9040836775
 20
-128.9542909837
 10
23.903947525
 20
-128.9534724392
 10
23.903798959
 20
-128.9528186919
 10
23.9036408655
 20
-128.9523424413
 10
23.9034763155
 20
-128.952052939
 10
23.9033085057
 20
-128.951955809
  0
LWPOLYLINE
  5
47F
100
AcDbEntity
  8
RACCORDO
100
AcDbPolyline
 62
253
  6
CONTINUOUS
 90
13
 70
0
 10
23.6502214362
 20
-128.8409267647
 10
23.6502070173
 20
-128.84231976
 10
23.6502528478
 20
-128.8437056848
 10
23.6503580374
 20
-128.8450576163
 10
23.6505205426
 20
-128.8463492917
 10
23.6507372067
 20
-128.8475556192
 10
23.6510038207
 20
-128.8486531647
 10
23.6513152055
 20
-128.8496206074
 10
23.651665312
 20
-128.8504391536
 10
23.6520473391
 20
-128.8510929025
 10
23.6524538656
 20
-128.8515691543
 10
23.6528769944
 20
-128.8518586574
 10
23.6533085057
 20
-128.8519557879
  0
LWPOLYLINE
  5
480
100
AcDbEntity
  8
RACCORDO
100
AcDbPolyline
 62
253
  6
CONTINUOUS
 90
13
 70
0
 10
24.0163955753
 20
-128.962984811
 10
24.0164099942
 20
-128.9615918157
 10
24.0163641637
 20
-128.9602058909
 10
24.0162589741
 20
-128.9588539595
 10
24.0160964689
 20
-128.957562284
 10
24.0158798048
 20
-128.9563559565
 10
24.0156131908
 20
-128.955258411
 10
24.015301806
 20
-128.9542909683
 10
24.0149516995
 20
-128.9534724221
 10
24.0145696724
 20
-128.9528186732
 10
24.0141631458
 20
-128.9523424214
 10
24.0137400171
 20
-128.9520529183
 10
24.0133085057
 20
-128.9519557879
  0
LWPOLYLINE
  5
481
100
AcDbEntity
  8
RACCORDO
100
AcDbPolyline
 62
253
  6
CONTINUOUS
 90
16
 70
0
 10
23.802793994
 20
-128.6883542058
 10
23.8027726791
 20
-128.6895869679
 10
23.8027603076
 20
-128.6908592671
 10
23.8027570858
 20
-128.6921498679
 10
23.8027630675
 20
-128.6934372294
 10
23.802778153
 20
-128.6946998647
 10
23.8028020904
 20
-128.6959166997
 10
23.8028344802
 20
-128.6970674245
 10
23.8028747817
 20
-128.6981328329
 10
23.8029223224
 20
-128.6990951425
 10
23.8029763088
 20
-128.6999382918
 10
23.8030358397
 20
-128.7006482081
 10
23.8030999215
 20
-128.7012130425
 10
23.8031674848
 20
-128.7016233674
 10
23.8032374019
 20
-128.7018723343
 10
23.8033085057
 20
-128.7019557879
  0
LWPOLYLINE
  5
482
100
AcDbEntity
  8
RACCORDO
100
AcDbPolyline
 62
253
  6
CONTINUOUS
 90
16
 70
0
 10
23.8638230175
 20
-129.1155573699
 10
23.8638443323
 20
-129.1143246078
 10
23.8638567039
 20
-129.1130523086
 10
23.8638599257
 20
-129.1117617078
 10
23.8638539439
 20
-129.1104743463
 10
23.8638388585
 20
-129.109211711
 10
23.8638149211
 20
-129.1079948761
 10
23.8637825313
 20
-129.1068441512
 10
23.8637422297
 20
-129.1057787428
 10
23.863694689
 20
-129.1048164332
 10
23.8636407027
 20
-129.1039732839
 10
23.8635811718
 20
-129.1032633676
 10
23.8635170899
 20
-129.1026985333
 10
23.8634495266
 20
-129.1022882083
 10
23.8633796096
 20
-129.1020392414
 10
23.8633085057
 20
-129.1019557879
  0
LWPOLYLINE
  5
483
100
AcDbEntity
  8
RACCORDO
100
AcDbPolyline
 62
253
  6
CONTINUOUS
 90
19
 70
0
 10
23.6197069226
 20
-128.871441276
 10
23.6198208954
 20
-128.8688313302
 10
23.6201504778
 20
-128.8662628117
 10
23.6206941031
 20
-128.8637427106
 10
23.621452711
 20
-128.8612692952
 10
23.6224222031
 20
-128.8588581186
 10
23.6235924633
 20
-128.8565415117
 10
23.6249619815
 20
-128.8543236057
 10
23.6265269535
 20
-128.8522122265
 10
23.6282719963
 20
-128.8502435593
 10
23.6301998753
 20
-128.848417871
 10
23.6323011042
 20
-128.846743427
 10
23.6345401329
 20
-128.8452648787
 10
23.6369167035
 20
-128.8439831037
 10
23.6394238633
 20
-128.8428988016
 10
23.6420148815
 20
-128.8420508532
 10
23.6446721942
 20
-128.8414487249
 10
23.6474081852
 20
-128.8410754359
 10
23.6502214345
 20
-128.8409267641
  0
LINE
  5
484
100
AcDbEntity
  8
RACCORDO
100
AcDbLine
 62
7
  6
CONTINUOUS
 10
-27.0556620825
 20
-123.8585734349
 11
-27.0816914943
 21
-123.9019557879
  0
LINE
  5
485
100
AcDbEntity
  8
RACCORDO
100
AcDbLine
 62
253
  6
CONTINUOUS
 10
36.9233522709
 20
-128.812591601
 11
36.9223223853
 21
-128.8061101103
  0
LWPOLYLINE
  5
486
100
AcDbEntity
  8
RACCORDO
100
AcDbPolyline
 62
7
  6
CONTINUOUS
 90
4
 70
0
 10
36.9262983244
 20
-128.9616674278
 10
36.9261725035
 20
-128.9608597684
 10
36.9259957135
 20
-128.9600387906
 10
36.9257535443
 20
-128.9591951369
  0
LWPOLYLINE
  5
487
100
AcDbEntity
  8
RACCORDO
100
AcDbPolyline
 62
253
  6
CONTINUOUS
 90
7
 70
0
 10
36.8934569598
 20
-128.9495627686
 10
36.8931271246
 20
-128.947346124
 10
36.8928683768
 20
-128.9450302545
 10
36.892681184
 20
-128.9426200528
 10
36.8925670198
 20
-128.9401493142
 10
36.8925265125
 20
-128.9376340728
 10
36.8925594378
 20
-128.9350720821
  0
LWPOLYLINE
  5
488
100
AcDbEntity
  8
RACCORDO
100
AcDbPolyline
 62
7
  6
CONTINUOUS
 90
9
 70
0
 10
36.9259003472
 20
-128.8307488533
 10
36.9245439725
 20
-128.8203631439
 10
36.9225444255
 20
-128.8071397367
 10
36.9202457409
 20
-128.7939654792
 10
36.9176491036
 20
-128.7808470414
 10
36.9147559036
 20
-128.7677911993
 10
36.9115675932
 20
-128.7548045134
 10
36.9080857222
 20
-128.7418933005
 10
36.9043121086
 20
-128.7290643138
  0
LWPOLYLINE
  5
489
100
AcDbEntity
  8
RACCORDO
100
AcDbPolyline
 62
253
  6
CONTINUOUS
 90
3
 70
0
 10
36.9258476513
 20
-128.8307552602
 10
36.9251076083
 20
-128.8249199555
 10
36.9242783437
 20
-128.818865591
  0
LWPOLYLINE
  5
48A
100
AcDbEntity
  8
RACCORDO
100
AcDbPolyline
 62
253
  6
CONTINUOUS
 90
22
 70
0
 10
12.322279482
 20
77.8905833577
 10
12.3222715761
 20
77.8906476097
 10
12.3222263277
 20
77.8907090966
 10
12.3221442885
 20
77.8907678492
 10
12.3220299281
 20
77.8908246199
 10
12.3218799128
 20
77.8908787092
 10
12.3216829891
 20
77.8909279934
 10
12.3214393794
 20
77.8909727671
 10
12.321149772
 20
77.8910128247
 10
12.3208031617
 20
77.8910453335
 10
12.3203978089
 20
77.8910705161
 10
12.3199355758
 20
77.8910882406
 10
12.3194098382
 20
77.891095161
 10
12.318814943
 20
77.8910910732
 10
12.3181551292
 20
77.8910761879
 10
12.3174370531
 20
77.8910477475
 10
12.316651044
 20
77.8910046196
 10
12.3158035413
 20
77.8909477247
 10
12.3149240885
 20
77.8908773214
 10
12.3140212128
 20
77.8907933561
 10
12.3130829571
 20
77.8906954575
 10
12.312107978
 20
77.8905833577
  0
LINE
  5
48B
100
AcDbEntity
  8
RACCORDO
100
AcDbLine
 62
253
  6
CONTINUOUS
 10
12.3121079782
 20
77.8905833563
 11
12.3121015712
 21
77.8906360535
  0
LINE
  5
48C
100
AcDbEntity
  8
RACCORDO
100
AcDbLine
 62
7
  6
CONTINUOUS
 10
36.9260322994
 20
-128.8318928589
 11
36.9259002919
 21
-128.8307488605
  0
LINE
  5
48D
100
AcDbEntity
  8
RACCORDO
100
AcDbLine
 62
7
  6
CONTINUOUS
 10
36.926363662
 20
-128.8357142908
 11
36.9262711778
 21
-128.8344151214
  0
LINE
  5
48E
100
AcDbEntity
  8
RACCORDO
100
AcDbLine
 62
7
  6
CONTINUOUS
 10
36.8934089174
 20
-128.8727585185
 11
36.8933357759
 21
-128.8714042639
  0
LINE
  5
48F
100
AcDbEntity
  8
RACCORDO
100
AcDbLine
 62
7
  6
CONTINUOUS
 10
36.9264246012
 20
-128.8368484022
 11
36.9263589279
 21
-128.8356387601
  0
LINE
  5
490
100
AcDbEntity
  8
RACCORDO
100
AcDbLine
 62
7
  6
CONTINUOUS
 10
36.8936059395
 20
-128.8767671906
 11
36.8933989448
 21
-128.8725738688
  0
LINE
  5
491
100
AcDbEntity
  8
RACCORDO
100
AcDbLine
 62
7
  6
CONTINUOUS
 10
36.8933354886
 20
-128.8714042797
 11
36.8932743985
 21
-128.870068349
  0
LINE
  5
492
100
AcDbEntity
  8
RACCORDO
100
AcDbLine
 62
7
  6
CONTINUOUS
 10
36.8937739127
 20
-128.880777172
 11
36.8935949952
 21
-128.8765278925
  0
LINE
  5
493
100
AcDbEntity
  8
RACCORDO
100
AcDbLine
 62
253
  6
CONTINUOUS
 10
36.8926657099
 20
-128.871441276
 11
36.8925594266
 21
-128.8688313302
  0
LINE
  5
494
100
AcDbEntity
  8
RACCORDO
100
AcDbLine
 62
7
  6
CONTINUOUS
 10
36.9264607475
 20
-128.8378571954
 11
36.9264218008
 21
-128.8367863022
  0
LINE
  5
495
100
AcDbEntity
  8
RACCORDO
100
AcDbLine
 62
7
  6
CONTINUOUS
 10
36.8939128266
 20
-128.8847882266
 11
36.8937647031
 21
-128.8805378162
  0
LWPOLYLINE
  5
496
100
AcDbEntity
  8
RACCORDO
100
AcDbPolyline
 62
253
  6
CONTINUOUS
 90
13
 70
0
 10
36.925847651
 20
-128.8409267641
 10
36.925893769
 20
-128.8423197576
 10
36.9257471756
 20
-128.8437056803
 10
36.9254107185
 20
-128.8450576095
 10
36.9248909338
 20
-128.8463492827
 10
36.9241979186
 20
-128.847555608
 10
36.9233451356
 20
-128.8486531513
 10
36.9223491507
 20
-128.849620592
 10
36.9212293119
 20
-128.8504391365
 10
36.9200073731
 20
-128.8510928839
 10
36.9187070716
 20
-128.8515691345
 10
36.917353667
 20
-128.8518586367
 10
36.9159734504
 20
-128.8519557667
  0
LWPOLYLINE
  5
497
100
AcDbEntity
  8
RACCORDO
100
AcDbPolyline
 62
253
  6
CONTINUOUS
 90
10
 70
0
 10
36.9010299542
 20
-128.8409267647
 10
36.9010741195
 20
-128.84231976
 10
36.90093374
 20
-128.8437056848
 10
36.9006115428
 20
-128.8450576163
 10
36.9001137869
 20
-128.8463492917
 10
36.8994501416
 20
-128.8475556192
 10
36.8986334989
 20
-128.8486531647
 10
36.8976797228
 20
-128.8496206074
 10
36.8966073414
 20
-128.8504391536
 10
36.8955407547
 20
-128.8510350405
  0
LWPOLYLINE
  5
498
100
AcDbEntity
  8
0
100
AcDbPolyline
 62
7
  6
CONTINUOUS
 90
19
 70
0
 10
34.0655415528
 20
-124.1519557879
 10
34.0648628011
 20
-124.1295921196
 10
34.0622498428
 20
-124.1068310752
 10
34.0577026778
 20
-124.0838190421
 10
34.0512476578
 20
-124.060668603
 10
34.0428584312
 20
-124.0376150365
 10
34.0324559431
 20
-124.0150006506
 10
34.0199618334
 20
-123.9930423342
 10
34.0054544621
 20
-123.9719163763
 10
33.9890898551
 20
-123.9518899846
 10
33.9708511711
 20
-123.9332053466
 10
33.9507552513
 20
-123.9160021337
 10
33.929008645
 20
-123.9004044583
 10
33.9056333922
 20
-123.8866615845
 10
33.880607453
 20
-123.8749331262
 10
33.8540712564
 20
-123.8653144901
 10
33.8260716124
 20
-123.8580696063
 10
33.7965617112
 20
-123.8535267975
 10
33.7655415528
 20
-123.8519557879
  0
LINE
  5
499
100
AcDbEntity
  8
RACCORDO
100
AcDbLine
 62
7
  6
CONTINUOUS
 10
36.8940226754
 20
-128.8888001583
 11
36.8939053516
 21
-128.8845488177
  0
LINE
  5
49A
100
AcDbEntity
  8
RACCORDO
100
AcDbLine
 62
7
  6
CONTINUOUS
 10
36.8932743985
 20
-128.870068349
 11
36.8932190725
 21
-128.8679235808
  0
LINE
  5
49B
100
AcDbEntity
  8
RACCORDO
100
AcDbLine
 62
7
  6
CONTINUOUS
 10
36.8941034543
 20
-128.8928127849
 11
36.8940169352
 21
-128.8885607028
  0
LINE
  5
49C
100
AcDbEntity
  8
RACCORDO
100
AcDbLine
 62
7
  6
CONTINUOUS
 10
36.926468637
 20
-128.8398020019
 11
36.9264246012
 21
-128.8368484022
  0
LINE
  5
49D
100
AcDbEntity
  8
RACCORDO
100
AcDbLine
 62
7
  6
CONTINUOUS
 10
36.894155159
 20
-128.8968259032
 11
36.894099449
 21
-128.8925732879
  0
LWPOLYLINE
  5
49E
100
AcDbEntity
  8
RACCORDO
100
AcDbPolyline
 62
253
  6
CONTINUOUS
 90
7
 70
0
 10
36.8925594266
 20
-128.8688313302
 10
36.892526706
 20
-128.8662628117
 10
36.8925676337
 20
-128.8637427106
 10
36.8926824567
 20
-128.8612692952
 10
36.8928705199
 20
-128.8588581186
 10
36.893130273
 20
-128.8565415117
 10
36.8934613159
 20
-128.8543236057
  0
LINE
  5
49F
100
AcDbEntity
  8
0
100
AcDbLine
 62
7
  6
CONTINUOUS
 10
29.3183085057
 20
-22.8669557879
 11
29.3183085057
 21
-23.6669557879
  0
LINE
  5
4A0
100
AcDbEntity
  8
0
100
AcDbLine
 62
7
  6
CONTINUOUS
 10
29.3233085057
 20
-22.0369557879
 11
29.3233085057
 21
-24.1669557879
  0
LINE
  5
4A1
100
AcDbEntity
  8
0
100
AcDbLine
 62
7
  6
CONTINUOUS
 10
29.5233085057
 20
-22.0369557879
 11
29.5233085057
 21
-24.1669557879
  0
LINE
  5
4A2
100
AcDbEntity
  8
0
100
AcDbLine
 62
7
  6
CONTINUOUS
 10
29.5283085057
 20
-23.6669557879
 11
29.5283085057
 21
-22.8669557879
  0
LINE
  5
4A3
100
AcDbEntity
  8
0
100
AcDbLine
 62
7
  6
CONTINUOUS
 10
30.2333085057
 20
70.7980442121
 11
30.2333085057
 21
70.8480442121
  0
LINE
  5
4A4
100
AcDbEntity
  8
0
100
AcDbLine
 62
7
  6
CONTINUOUS
 10
30.2333085057
 20
-117.0019557879
 11
30.2333085057
 21
-117.2019557879
  0
LINE
  5
4A5
100
AcDbEntity
  8
0
100
AcDbLine
 62
7
  6
CONTINUOUS
 10
30.3333085057
 20
70.8480442121
 11
30.3333085057
 21
70.7980442121
  0
LINE
  5
4A6
100
AcDbEntity
  8
0
100
AcDbLine
 62
7
  6
CONTINUOUS
 10
30.3333085057
 20
-117.0019557879
 11
30.3333085057
 21
-117.2519557879
  0
LINE
  5
4A7
100
AcDbEntity
  8
0
100
AcDbLine
 62
253
  6
CONTINUOUS
 10
31.1833085057
 20
-120.5319557879
 11
31.1833085057
 21
-120.4919557879
  0
LINE
  5
4A8
100
AcDbEntity
  8
0
100
AcDbLine
 62
253
  6
CONTINUOUS
 10
31.1833085057
 20
-119.7519557879
 11
31.1833085057
 21
-119.7919557879
  0
LINE
  5
4A9
100
AcDbEntity
  8
0
100
AcDbLine
 62
253
  6
CONTINUOUS
 10
31.9833085057
 20
70.8480442121
 11
31.9833085057
 21
70.7980442121
  0
LINE
  5
4AA
100
AcDbEntity
  8
0
100
AcDbLine
 62
253
  6
CONTINUOUS
 10
31.9833085057
 20
-117.0019557879
 11
31.9833085057
 21
-117.2519557879
  0
LINE
  5
4AB
100
AcDbEntity
  8
0
100
AcDbLine
 62
7
  6
CONTINUOUS
 10
32.0333085057
 20
-117.2519557879
 11
32.0333085057
 21
-123.8519557879
  0
LINE
  5
4AC
100
AcDbEntity
  8
0
100
AcDbLine
 62
7
  6
CONTINUOUS
 10
32.0833085057
 20
-123.7019557879
 11
32.0833085057
 21
-117.0019557879
  0
LINE
  5
4AD
100
AcDbEntity
  8
0
100
AcDbLine
 62
7
  6
CONTINUOUS
 10
32.0833085057
 20
70.8480442121
 11
32.0833085057
 21
70.7980442121
  0
LINE
  5
4AE
100
AcDbEntity
  8
0
100
AcDbLine
 62
7
  6
CONTINUOUS
 10
32.1333085057
 20
77.4480442121
 11
32.1333085057
 21
70.8480442121
  0
LINE
  5
4AF
100
AcDbEntity
  8
0
100
AcDbLine
 62
7
  6
CONTINUOUS
 10
32.2283085057
 20
-116.9019557879
 11
32.2283085057
 21
-116.8019557879
  0
LINE
  5
4B0
100
AcDbEntity
  8
0
100
AcDbLine
 62
7
  6
CONTINUOUS
 10
32.2283085057
 20
70.5980442121
 11
32.2283085057
 21
70.6980442121
  0
LINE
  5
4B1
100
AcDbEntity
  8
0
100
AcDbLine
 62
253
  6
CONTINUOUS
 10
32.2283085057
 20
-116.8019557879
 11
32.2283085057
 21
70.5980442121
  0
LINE
  5
4B2
100
AcDbEntity
  8
0
100
AcDbLine
 62
253
  6
CONTINUOUS
 10
32.3833085057
 20
77.2980442121
 11
32.3833085057
 21
-123.7019557879
  0
LINE
  5
4B3
100
AcDbEntity
  8
0
100
AcDbLine
 62
7
  6
CONTINUOUS
 10
32.6333085057
 20
77.2980442121
 11
32.6333085057
 21
77.4480442121
  0
LINE
  5
4B4
100
AcDbEntity
  8
0
100
AcDbLine
 62
7
  6
CONTINUOUS
 10
32.6333085057
 20
-123.7019557879
 11
32.6333085057
 21
-123.8519557879
  0
LINE
  5
4B5
100
AcDbEntity
  8
0
100
AcDbLine
 62
7
  6
CONTINUOUS
 10
34.0655415528
 20
-133.9519557879
 11
34.0655415528
 21
-133.6519557879
  0
LINE
  5
4B6
100
AcDbEntity
  8
0
100
AcDbLine
 62
253
  6
CONTINUOUS
 10
34.0655415528
 20
-124.1519557879
 11
34.0655415528
 21
-133.6519557879
  0
LINE
  5
4B7
100
AcDbEntity
  8
0
100
AcDbLine
 62
7
  6
CONTINUOUS
 10
34.3333085057
 20
-123.8519557879
 11
34.3333085057
 21
-124.1019557879
  0
LINE
  5
4B8
100
AcDbEntity
  8
0
100
AcDbLine
 62
7
  6
CONTINUOUS
 10
34.3783085057
 20
-124.1019557879
 11
34.3783085057
 21
-124.1519557879
  0
LINE
  5
4B9
100
AcDbEntity
  8
0
100
AcDbLine
 62
253
  6
CONTINUOUS
 10
34.6312269777
 20
-124.1519557879
 11
34.6312269777
 21
-133.6519557879
  0
LINE
  5
4BA
100
AcDbEntity
  8
0
100
AcDbLine
 62
7
  6
CONTINUOUS
 10
34.7783085057
 20
-124.1019557879
 11
34.7783085057
 21
-124.1519557879
  0
LINE
  5
4BB
100
AcDbEntity
  8
0
100
AcDbLine
 62
7
  6
CONTINUOUS
 10
35.1332727924
 20
-133.9519557879
 11
35.1332727924
 21
-133.7019557879
  0
LINE
  5
4BC
100
AcDbEntity
  8
0
100
AcDbLine
 62
7
  6
CONTINUOUS
 10
35.1854141942
 20
-133.9519557879
 11
35.1854141942
 21
-133.7019557879
  0
LINE
  5
4BD
100
AcDbEntity
  8
0
100
AcDbLine
 62
7
  6
CONTINUOUS
 10
35.260552013
 20
-133.9519557879
 11
35.260552013
 21
-133.7019557879
  0
LINE
  5
4BE
100
AcDbEntity
  8
0
100
AcDbLine
 62
7
  6
CONTINUOUS
 10
35.4333085057
 20
-133.7019557879
 11
35.4333085057
 21
-133.6519557879
  0
LINE
  5
4BF
100
AcDbEntity
  8
0
100
AcDbLine
 62
7
  6
CONTINUOUS
 10
35.4333085057
 20
-124.1019557879
 11
35.4333085057
 21
-124.1519557879
  0
LWPOLYLINE
  5
4C0
100
AcDbEntity
  8
RACCORDO
100
AcDbPolyline
 62
253
  6
CONTINUOUS
 90
19
 70
0
 10
24.0469100889
 20
-128.9324702997
 10
24.0467961161
 20
-128.9350802455
 10
24.0464665336
 20
-128.937648764
 10
24.0459229083
 20
-128.9401688651
 10
24.0451643005
 20
-128.9426422805
 10
24.0441948084
 20
-128.9450534572
 10
24.0430245481
 20
-128.947370064
 10
24.04165503
 20
-128.94958797
 10
24.040090058
 20
-128.9516993492
 10
24.0383450152
 20
-128.9536680164
 10
24.0364171362
 20
-128.9554937047
 10
24.0343159072
 20
-128.9571681487
 10
24.0320768786
 20
-128.958646697
 10
24.029700308
 20
-128.959928472
 10
24.0271931482
 20
-128.9610127741
 10
24.02460213
 20
-128.9618607226
 10
24.0219448173
 20
-128.9624628508
 10
24.0192088263
 20
-128.9628361398
 10
24.016395577
 20
-128.9629848116
  0
LWPOLYLINE
  5
4C1
100
AcDbEntity
  8
RACCORDO
100
AcDbPolyline
 62
253
  6
CONTINUOUS
 90
19
 70
0
 10
23.772279482
 20
-128.7188687166
 10
23.7724396153
 20
-128.7160046231
 10
23.7728226111
 20
-128.713234806
 10
23.7734321052
 20
-128.7105606988
 10
23.774283953
 20
-128.7079759171
 10
23.7753683479
 20
-128.7054919498
 10
23.7766476305
 20
-128.7031374287
 10
23.7781206258
 20
-128.7009140596
 10
23.7797870201
 20
-128.6988272269
 10
23.7816058324
 20
-128.6969100688
 10
23.7835702608
 20
-128.695170516
 10
23.7856789774
 20
-128.693607455
 10
23.7878957541
 20
-128.6922387704
 10
23.790213787
 20
-128.6910686734
 10
23.7926280287
 20
-128.690098393
 10
23.7951030209
 20
-128.6893394064
 10
23.7976221265
 20
-128.6887961813
 10
23.8001881147
 20
-128.6884672773
 10
23.8027939939
 20
-128.6883542047
  0
LWPOLYLINE
  5
4C2
100
AcDbEntity
  8
RACCORDO
100
AcDbPolyline
 62
253
  6
CONTINUOUS
 90
19
 70
0
 10
23.8943375295
 20
-129.0850428591
 10
23.8941773962
 20
-129.0879069526
 10
23.8937944004
 20
-129.0906767698
 10
23.8931849063
 20
-129.0933508769
 10
23.8923330585
 20
-129.0959356586
 10
23.8912486635
 20
-129.0984196259
 10
23.889969381
 20
-129.100774147
 10
23.8884963856
 20
-129.1029975162
 10
23.8868299914
 20
-129.1050843489
 10
23.8850111791
 20
-129.1070015069
 10
23.8830467506
 20
-129.1087410597
 10
23.880938034
 20
-129.1103041207
 10
23.8787212573
 20
-129.1116728053
 10
23.8764032245
 20
-129.1128429023
 10
23.8739889828
 20
-129.1138131827
 10
23.8715139906
 20
-129.1145721693
 10
23.868994885
 20
-129.1151153944
 10
23.8664288968
 20
-129.1154442984
 10
23.8638230176
 20
-129.115557371
  0
LINE
  5
4C3
100
AcDbEntity
  8
0
100
AcDbLine
 62
7
  6
CONTINUOUS
 10
-46.2366914943
 20
66.9730442121
 11
-45.9043513071
 21
66.640704025
  0
LINE
  5
4C4
100
AcDbEntity
  8
0
100
AcDbLine
 62
7
  6
CONTINUOUS
 10
-45.5720111199
 20
66.9730442121
 11
-45.9043513071
 21
67.3053843993
  0
LINE
  5
4C5
100
AcDbEntity
  8
0
100
AcDbLine
 62
7
  6
CONTINUOUS
 10
-45.1816914943
 20
68.0380442121
 11
-44.6766914943
 21
67.5330442121
  0
LWPOLYLINE
  5
4C6
100
AcDbEntity
  8
RACCORDO
100
AcDbPolyline
 62
7
  6
CONTINUOUS
 90
10
 70
0
 10
12.3332523234
 20
77.8817345489
 10
12.3330604401
 20
77.8829388553
 10
12.3327145954
 20
77.8841294473
 10
12.3322507979
 20
77.8852198905
 10
12.331690238
 20
77.8862074473
 10
12.331044176
 20
77.8871009063
 10
12.330327197
 20
77.887898286
 10
12.3295562045
 20
77.8885963088
 10
12.3287369436
 20
77.8892018855
 10
12.3278612239
 20
77.8897261923
  0
LWPOLYLINE
  5
4C7
100
AcDbEntity
  8
RACCORDO
100
AcDbPolyline
 62
253
  6
CONTINUOUS
 90
22
 70
0
 10
19.822279482
 20
77.8905833577
 10
19.8222715761
 20
77.8906476097
 10
19.8222263277
 20
77.8907090966
 10
19.8221442885
 20
77.8907678492
 10
19.8220299281
 20
77.8908246199
 10
19.8218799128
 20
77.8908787092
 10
19.8216829891
 20
77.8909279934
 10
19.8214393794
 20
77.8909727671
 10
19.821149772
 20
77.8910128247
 10
19.8208031617
 20
77.8910453335
 10
19.8203978089
 20
77.8910705161
 10
19.8199355758
 20
77.8910882406
 10
19.8194098382
 20
77.891095161
 10
19.818814943
 20
77.8910910732
 10
19.8181551292
 20
77.8910761879
 10
19.8174370531
 20
77.8910477475
 10
19.816651044
 20
77.8910046196
 10
19.8158035413
 20
77.8909477247
 10
19.8149240885
 20
77.8908773214
 10
19.8140212128
 20
77.8907933561
 10
19.8130829571
 20
77.8906954575
 10
19.812107978
 20
77.8905833577
  0
LINE
  5
4C8
100
AcDbEntity
  8
RACCORDO
100
AcDbLine
 62
253
  6
CONTINUOUS
 10
19.8121079782
 20
77.8905833563
 11
19.8121015712
 21
77.8906360535
  0
LWPOLYLINE
  5
4C9
100
AcDbEntity
  8
RACCORDO
100
AcDbPolyline
 62
7
  6
CONTINUOUS
 90
6
 70
0
 10
36.9264765836
 20
-128.9650231178
 10
36.926468637
 20
-128.9641095738
 10
36.926437884
 20
-128.9632572698
 10
36.9263828007
 20
-128.9624533395
 10
36.926297781
 20
-128.961663153
 10
36.9261733069
 20
-128.9608640797
  0
LINE
  5
4CA
100
AcDbEntity
  8
RACCORDO
100
AcDbLine
 62
7
  6
CONTINUOUS
 10
36.8941777874
 20
-128.9008392708
 11
36.8941528887
 21
-128.8965863672
  0
LWPOLYLINE
  5
4CB
100
AcDbEntity
  8
RACCORDO
100
AcDbPolyline
 62
253
  6
CONTINUOUS
 90
10
 70
0
 10
36.893507825
 20
-128.9019557879
 10
36.8934974461
 20
-128.8985647463
 10
36.893466297
 20
-128.8951754301
 10
36.8934143541
 20
-128.8917861358
 10
36.893341469
 20
-128.8883920408
 10
36.8932476958
 20
-128.8849945685
 10
36.8931332925
 20
-128.8816014354
 10
36.8929982841
 20
-128.8782141482
 10
36.8928424615
 20
-128.8748279619
 10
36.8926657099
 20
-128.871441276
  0
LINE
  5
4CC
100
AcDbEntity
  8
0
100
AcDbLine
 62
253
  6
CONTINUOUS
 10
36.2333085057
 20
-133.7019557879
 11
36.2333085057
 21
-133.6519557879
  0
LINE
  5
4CD
100
AcDbEntity
  8
0
100
AcDbLine
 62
253
  6
CONTINUOUS
 10
36.2333085057
 20
-124.1019557879
 11
36.2333085057
 21
-124.1519557879
  0
LINE
  5
4CE
100
AcDbEntity
  8
0
100
AcDbLine
 62
7
  6
CONTINUOUS
 10
36.3282832526
 20
-133.7019557879
 11
36.3282832526
 21
-133.9519557879
  0
LINE
  5
4CF
100
AcDbEntity
  8
0
100
AcDbLine
 62
253
  6
CONTINUOUS
 10
36.3333085057
 20
-133.9519557879
 11
36.3333085057
 21
-133.7019557879
  0
LINE
  5
4D0
100
AcDbEntity
  8
RACCORDO
100
AcDbLine
 62
253
  6
CONTINUOUS
 10
36.3333085057
 20
-123.8519557879
 11
36.3333085057
 21
-123.7019557879
  0
LINE
  5
4D1
100
AcDbEntity
  8
RACCORDO
100
AcDbLine
 62
253
  6
CONTINUOUS
 10
36.3333085057
 20
77.4480442121
 11
36.3333085057
 21
77.2980442121
  0
LINE
  5
4D2
100
AcDbEntity
  8
0
100
AcDbLine
 62
253
  6
CONTINUOUS
 10
36.3333085057
 20
77.2980442121
 11
36.3333085057
 21
-123.7019557879
  0
LINE
  5
4D3
100
AcDbEntity
  8
0
100
AcDbLine
 62
7
  6
CONTINUOUS
 10
36.3333085057
 20
-123.8519557879
 11
36.3333085057
 21
-124.1019557879
  0
LINE
  5
4D4
100
AcDbEntity
  8
0
100
AcDbLine
 62
253
  6
CONTINUOUS
 10
36.3989939307
 20
-124.1519557879
 11
36.3989939307
 21
-133.6519557879
  0
LINE
  5
4D5
100
AcDbEntity
  8
0
100
AcDbLine
 62
7
  6
CONTINUOUS
 10
36.6333085057
 20
-133.6519557879
 11
36.6333085057
 21
-124.1519557879
  0
LINE
  5
4D6
100
AcDbEntity
  8
RACCORDO
100
AcDbLine
 62
7
  6
CONTINUOUS
 10
36.6333085057
 20
-123.8519557879
 11
36.6333085057
 21
-123.7019557879
  0
LINE
  5
4D7
100
AcDbEntity
  8
RACCORDO
100
AcDbLine
 62
7
  6
CONTINUOUS
 10
36.6333085057
 20
77.4480442121
 11
36.6333085057
 21
77.2980442121
  0
LINE
  5
4D8
100
AcDbEntity
  8
0
100
AcDbLine
 62
7
  6
CONTINUOUS
 10
36.6333085057
 20
77.2980442121
 11
36.6333085057
 21
-123.7019557879
  0
LINE
  5
4D9
100
AcDbEntity
  8
0
100
AcDbLine
 62
253
  6
CONTINUOUS
 10
36.6642346802
 20
-128.40520411
 11
36.6642346802
 21
-129.3987074657
  0
LINE
  5
4DA
100
AcDbEntity
  8
0
100
AcDbLine
 62
7
  6
CONTINUOUS
 10
36.8833085057
 20
65.8730442121
 11
36.8833085057
 21
68.0730442121
  0
LINE
  5
4DB
100
AcDbEntity
  8
0
100
AcDbLine
 62
7
  6
CONTINUOUS
 10
37.0433085057
 20
66.0230442121
 11
37.0433085057
 21
67.9230442121
  0
LINE
  5
4DC
100
AcDbEntity
  8
0
100
AcDbLine
 62
7
  6
CONTINUOUS
 10
37.1433085057
 20
66.2580442121
 11
37.1433085057
 21
67.6880442121
  0
LINE
  5
4DD
100
AcDbEntity
  8
0
100
AcDbLine
 62
7
  6
CONTINUOUS
 10
37.9433085057
 20
67.5330442121
 11
37.9433085057
 21
67.3230442121
  0
LINE
  5
4DE
100
AcDbEntity
  8
0
100
AcDbLine
 62
7
  6
CONTINUOUS
 10
37.9433085057
 20
66.6230442121
 11
37.9433085057
 21
66.4130442121
  0
LINE
  5
4DF
100
AcDbEntity
  8
0
100
AcDbLine
 62
7
  6
CONTINUOUS
 10
39.6533085057
 20
66.3230442121
 11
39.6533085057
 21
66.6230442121
  0
LINE
  5
4E0
100
AcDbEntity
  8
0
100
AcDbLine
 62
7
  6
CONTINUOUS
 10
39.6533085057
 20
67.3230442121
 11
39.6533085057
 21
67.6230442121
  0
LINE
  5
4E1
100
AcDbEntity
  8
0
100
AcDbLine
 62
7
  6
CONTINUOUS
 10
39.8233085057
 20
66.6230442121
 11
39.8233085057
 21
67.3230442121
  0
LINE
  5
4E2
100
AcDbEntity
  8
RACCORDO
100
AcDbLine
 62
7
  6
CONTINUOUS
 10
36.8941772527
 20
-128.903311878
 11
36.8941772527
 21
-128.9005996977
  0
LWPOLYLINE
  5
4E3
100
AcDbEntity
  8
RACCORDO
100
AcDbPolyline
 62
7
  6
CONTINUOUS
 90
10
 70
0
 10
36.8932190725
 20
-128.8679235808
 10
36.8932249158
 20
-128.865712416
 10
36.8932929329
 20
-128.8635839452
 10
36.8934183879
 20
-128.8615660072
 10
36.893594758
 20
-128.8596745542
 10
36.8938156648
 20
-128.8579249342
 10
36.8940718368
 20
-128.8563397627
 10
36.8943535497
 20
-128.8549266975
 10
36.8946506494
 20
-128.8536910846
 10
36.8949493381
 20
-128.8526465287
  0
LINE
  5
4E4
100
AcDbEntity
  8
RACCORDO
100
AcDbLine
 62
7
  6
CONTINUOUS
 10
36.8941528887
 20
-128.9073252085
 11
36.894177479
 21
-128.9031270029
  0
LINE
  5
4E5
100
AcDbEntity
  8
RACCORDO
100
AcDbLine
 62
7
  6
CONTINUOUS
 10
36.894099449
 20
-128.9113382878
 11
36.894155159
 21
-128.9070856725
  0
LINE
  5
4E6
100
AcDbEntity
  8
RACCORDO
100
AcDbLine
 62
7
  6
CONTINUOUS
 10
36.9264607475
 20
-128.9660543803
 11
36.9264764483
 21
-128.9650607819
  0
LINE
  5
4E7
100
AcDbEntity
  8
RACCORDO
100
AcDbLine
 62
7
  6
CONTINUOUS
 10
36.8940169352
 20
-128.9153508729
 11
36.8941034543
 21
-128.9110987908
  0
LINE
  5
4E8
100
AcDbEntity
  8
RACCORDO
100
AcDbLine
 62
7
  6
CONTINUOUS
 10
36.8932160863
 20
-128.9362748933
 11
36.8932743985
 21
-128.9338432267
  0
LINE
  5
4E9
100
AcDbEntity
  8
RACCORDO
100
AcDbLine
 62
7
  6
CONTINUOUS
 10
36.8939053516
 20
-128.919362758
 11
36.8940226754
 21
-128.9151114174
  0
LWPOLYLINE
  5
4EA
100
AcDbEntity
  8
RACCORDO
100
AcDbPolyline
 62
253
  6
CONTINUOUS
 90
10
 70
0
 10
36.9010295557
 20
-128.9629847676
 10
36.9010738407
 20
-128.9615917391
 10
36.9009335657
 20
-128.9602057651
 10
36.9006114559
 20
-128.9588537726
 10
36.9001137692
 20
-128.9575620283
 10
36.899450175
 20
-128.9563556285
 10
36.8986335656
 20
-128.9552580115
 10
36.8976798063
 20
-128.954290502
 10
36.8966074269
 20
-128.9534718969
 10
36.8955387775
 20
-128.9528748192
  0
LWPOLYLINE
  5
4EB
100
AcDbEntity
  8
RACCORDO
100
AcDbPolyline
 62
253
  6
CONTINUOUS
 90
11
 70
0
 10
36.9258476494
 20
-128.9629848114
 10
36.9258937691
 20
-128.9615918158
 10
36.9257471772
 20
-128.9602058906
 10
36.9254107213
 20
-128.9588539589
 10
36.9248909374
 20
-128.9575622832
 10
36.9241979227
 20
-128.9563559554
 10
36.9233451398
 20
-128.9552584098
 10
36.9223491547
 20
-128.9542909671
 10
36.9212293155
 20
-128.9534724209
 10
36.920007376
 20
-128.9528186722
 10
36.9188101819
 20
-128.9523801853
  0
LINE
  5
4EC
100
AcDbEntity
  8
RACCORDO
100
AcDbLine
 62
7
  6
CONTINUOUS
 10
36.8937647031
 20
-128.9233737596
 11
36.8939128266
 21
-128.9191233491
  0
LINE
  5
4ED
100
AcDbEntity
  8
RACCORDO
100
AcDbLine
 62
7
  6
CONTINUOUS
 10
36.9264218008
 20
-128.9671252735
 11
36.9264620573
 21
-128.9660049107
  0
LINE
  5
4EE
100
AcDbEntity
  8
RACCORDO
100
AcDbLine
 62
253
  6
CONTINUOUS
 10
36.8925594378
 20
-128.9350720821
 11
36.8926657099
 21
-128.9324702997
  0
LINE
  5
4EF
100
AcDbEntity
  8
RACCORDO
100
AcDbLine
 62
7
  6
CONTINUOUS
 10
36.8935949952
 20
-128.9273836832
 11
36.8937739127
 21
-128.9231344037
  0
LINE
  5
4F0
100
AcDbEntity
  8
RACCORDO
100
AcDbLine
 62
7
  6
CONTINUOUS
 10
36.8932743985
 20
-128.9338432267
 11
36.8933354886
 21
-128.932507296
  0
LINE
  5
4F1
100
AcDbEntity
  8
RACCORDO
100
AcDbLine
 62
7
  6
CONTINUOUS
 10
36.893396238
 20
-128.9313922982
 11
36.8936059395
 21
-128.9271443851
  0
LWPOLYLINE
  5
4F2
100
AcDbEntity
  8
RACCORDO
100
AcDbPolyline
 62
253
  6
CONTINUOUS
 90
10
 70
0
 10
36.8926657099
 20
-128.9324702997
 10
36.8928424634
 20
-128.9290835654
 10
36.8929982872
 20
-128.9256973454
 10
36.8931332962
 20
-128.9223100387
 10
36.8932476992
 20
-128.9189169034
 10
36.8933414713
 20
-128.9155194433
 10
36.8934143554
 20
-128.9121253656
 10
36.8934662978
 20
-128.9087360908
 10
36.8934974465
 20
-128.9053467994
 10
36.893507825
 20
-128.9019557879
  0
LINE
  5
4F3
100
AcDbEntity
  8
RACCORDO
100
AcDbLine
 62
7
  6
CONTINUOUS
 10
36.893335777
 20
-128.932507297
 11
36.8934089174
 21
-128.9311530572
  0
LINE
  5
4F4
100
AcDbEntity
  8
RACCORDO
100
AcDbLine
 62
7
  6
CONTINUOUS
 10
36.9263589279
 20
-128.9682728156
 11
36.9264246012
 21
-128.9670631735
  0
LINE
  5
4F5
100
AcDbEntity
  8
0
100
AcDbLine
 62
7
  6
CONTINUOUS
 10
-44.4766914943
 20
67.3230442121
 11
-44.2766914943
 21
67.1530442121
  0
LINE
  5
4F6
100
AcDbEntity
  8
0
100
AcDbLine
 62
7
  6
CONTINUOUS
 10
-45.9316914943
 20
65.9080442121
 11
-46.3866914943
 21
66.3230442121
  0
LINE
  5
4F7
100
AcDbEntity
  8
0
100
AcDbLine
 62
7
  6
CONTINUOUS
 10
-43.7766914943
 20
66.0230442121
 11
-43.6166914943
 21
65.8730442121
  0
LWPOLYLINE
  5
4F8
100
AcDbEntity
  8
RACCORDO
100
AcDbPolyline
 62
7
  6
CONTINUOUS
 90
10
 70
0
 10
19.8332523234
 20
77.8817345489
 10
19.8330604401
 20
77.8829388553
 10
19.8327145954
 20
77.8841294473
 10
19.8322507979
 20
77.8852198905
 10
19.831690238
 20
77.8862074473
 10
19.831044176
 20
77.8871009063
 10
19.830327197
 20
77.887898286
 10
19.8295562045
 20
77.8885963088
 10
19.8287369436
 20
77.8892018855
 10
19.8278612239
 20
77.8897261923
  0
LINE
  5
4F9
100
AcDbEntity
  8
RACCORDO
100
AcDbLine
 62
7
  6
CONTINUOUS
 10
36.9262711778
 20
-128.9694964543
 11
36.926363662
 21
-128.9681972849
  0
LINE
  5
4FA
100
AcDbEntity
  8
RACCORDO
100
AcDbLine
 62
7
  6
CONTINUOUS
 10
36.9261580253
 20
-128.9707886816
 11
36.9262782964
 21
-128.969406588
  0
LINE
  5
4FB
100
AcDbEntity
  8
RACCORDO
100
AcDbLine
 62
7
  6
CONTINUOUS
 10
36.9260190267
 20
-128.9721392256
 11
36.9261679396
 21
-128.9706837726
  0
LWPOLYLINE
  5
4FC
100
AcDbEntity
  8
RACCORDO
100
AcDbPolyline
 62
253
  6
CONTINUOUS
 90
22
 70
0
 10
36.9258476513
 20
-128.9731563156
 10
36.925959008
 20
-128.972189803
 10
36.9260564663
 20
-128.9712566703
 10
36.9261402871
 20
-128.9703555978
 10
36.92621098
 20
-128.9694733358
 10
36.9262684496
 20
-128.9686197231
 10
36.9263120072
 20
-128.967828201
 10
36.926340569
 20
-128.9671063156
 10
36.9263554351
 20
-128.966443227
 10
36.9263594343
 20
-128.9658460928
 10
36.9263523419
 20
-128.9653195642
 10
36.9263343752
 20
-128.9648576019
 10
36.9263089913
 20
-128.9644529335
 10
36.9262763295
 20
-128.9641073913
 10
36.9262361598
 20
-128.9638193118
 10
36.9261914054
 20
-128.963577216
 10
36.9261423858
 20
-128.9633818088
 10
36.9260886961
 20
-128.9632333597
 10
36.9260322135
 20
-128.9631201305
 10
36.9259735526
 20
-128.9630385764
 10
36.9259120427
 20
-128.9629932964
 10
36.9258476513
 20
-128.9629848116
  0
LINE
  5
4FD
100
AcDbEntity
  8
RACCORDO
100
AcDbLine
 62
7
  6
CONTINUOUS
 10
36.9259002919
 20
-128.9731627152
 11
36.9260322994
 21
-128.9720187168
  0
LINE
  5
4FE
100
AcDbEntity
  8
RACCORDO
100
AcDbLine
 62
7
  6
CONTINUOUS
 10
36.9245108192
 20
-128.9837855005
 11
36.9259003485
 21
-128.9731627169
  0
LWPOLYLINE
  5
4FF
100
AcDbEntity
  8
RACCORDO
100
AcDbPolyline
 62
253
  6
CONTINUOUS
 90
3
 70
0
 10
36.924285782
 20
-128.9849950459
 10
36.9251116263
 20
-128.9789629326
 10
36.9258476513
 20
-128.9731563156
  0
LINE
  5
500
100
AcDbEntity
  8
SMUSSO
100
AcDbLine
 62
7
  6
CONTINUOUS
 10
-31.4451914943
 20
-124.4519557879
 11
-31.4951914943
 21
-124.5019557879
  0
LINE
  5
501
100
AcDbEntity
  8
RACCORDO
100
AcDbLine
 62
253
  6
CONTINUOUS
 10
12.200221578
 20
77.8657652264
 11
12.2002050711
 21
77.8658157877
  0
LWPOLYLINE
  5
502
100
AcDbEntity
  8
RACCORDO
100
AcDbPolyline
 62
7
  6
CONTINUOUS
 90
6
 70
0
 10
36.9261725035
 20
-128.8430518074
 10
36.9262983244
 20
-128.8422441479
 10
36.926383821
 20
-128.841446631
 10
36.9264388484
 20
-128.840635207
 10
36.9264692268
 20
-128.8397743875
 10
36.9264764483
 20
-128.8388507938
  0
LINE
  5
503
100
AcDbEntity
  8
RACCORDO
100
AcDbLine
 62
7
  6
CONTINUOUS
 10
36.8931824864
 20
-129.1121814622
 11
36.8933052908
 21
-129.1115040124
  0
LWPOLYLINE
  5
504
100
AcDbEntity
  8
RACCORDO
100
AcDbPolyline
 62
253
  6
CONTINUOUS
 90
4
 70
0
 10
36.9199230978
 20
-129.011379013
 10
36.9211913981
 20
-129.0044302925
 10
36.9223340495
 20
-128.9977297943
 10
36.9233624222
 20
-128.9912537102
  0
LINE
  5
505
100
AcDbEntity
  8
RACCORDO
100
AcDbLine
 62
253
  6
CONTINUOUS
 10
36.8934613159
 20
-128.8543236057
 11
36.8939235299
 21
-128.8519557879
  0
LINE
  5
506
100
AcDbEntity
  8
RACCORDO
100
AcDbLine
 62
7
  6
CONTINUOUS
 10
36.8933077475
 20
-129.1114922144
 11
36.8938068514
 21
-129.109324778
  0
LINE
  5
507
100
AcDbEntity
  8
RACCORDO
100
AcDbLine
 62
253
  6
CONTINUOUS
 10
19.700221578
 20
77.8657652264
 11
19.7002050711
 21
77.8658157877
  0
LINE
  5
508
100
AcDbEntity
  8
RACCORDO
100
AcDbLine
 62
253
  6
CONTINUOUS
 10
36.8939235299
 20
-128.8519557879
 11
36.8943309527
 21
-128.8502435593
  0
LWPOLYLINE
  5
509
100
AcDbEntity
  8
RACCORDO
100
AcDbPolyline
 62
7
  6
CONTINUOUS
 90
3
 70
0
 10
36.8938068514
 20
-129.109324778
 10
36.8938236091
 20
-129.1092568158
 10
36.8939466681
 20
-129.1087686434
  0
LINE
  5
50A
100
AcDbEntity
  8
RACCORDO
100
AcDbLine
 62
7
  6
CONTINUOUS
 10
36.8939466681
 20
-129.1087686434
 11
36.8942228828
 21
-129.1077029999
  0
LWPOLYLINE
  5
50B
100
AcDbEntity
  8
RACCORDO
100
AcDbPolyline
 62
253
  6
CONTINUOUS
 90
8
 70
0
 10
36.8938640885
 20
-129.1087315396
 10
36.8943320345
 20
-129.1069883494
 10
36.894866591
 20
-129.105066752
 10
36.8954648844
 20
-129.1029749719
 10
36.8961183228
 20
-129.1007467389
 10
36.8968253643
 20
-129.0983856951
 10
36.897584367
 20
-129.095895323
 10
36.8983867467
 20
-129.0933101388
  0
LINE
  5
50C
100
AcDbEntity
  8
RACCORDO
100
AcDbLine
 62
7
  6
CONTINUOUS
 10
36.8942228828
 20
-129.1077029999
 11
36.8945387751
 21
-129.1065218473
  0
LINE
  5
50D
100
AcDbEntity
  8
RACCORDO
100
AcDbLine
 62
7
  6
CONTINUOUS
 10
36.8945387751
 20
-129.1065218473
 11
36.8948933958
 21
-129.1052318227
  0
LINE
  5
50E
100
AcDbEntity
  8
RACCORDO
100
AcDbLine
 62
7
  6
CONTINUOUS
 10
36.8948933958
 20
-129.1052318227
 11
36.8952866479
 21
-129.1038350658
  0
LINE
  5
50F
100
AcDbEntity
  8
RACCORDO
100
AcDbLine
 62
7
  6
CONTINUOUS
 10
36.8952866479
 20
-129.1038350658
 11
36.8957174983
 21
-129.1023355261
  0
LWPOLYLINE
  5
510
100
AcDbEntity
  8
RACCORDO
100
AcDbPolyline
 62
253
  6
CONTINUOUS
 90
10
 70
0
 10
36.8943309527
 20
-128.8502435593
 10
36.8948673301
 20
-128.848417871
 10
36.8954683398
 20
-128.846743427
 10
36.896125018
 20
-128.8452648787
 10
36.8968370665
 20
-128.8439831037
 10
36.8976015267
 20
-128.8428988016
 10
36.8984057354
 20
-128.8420508532
 10
36.8992445288
 20
-128.8414487249
 10
36.9001198664
 20
-128.8410754359
 10
36.9010299593
 20
-128.8409267641
  0
LINE
  5
511
100
AcDbEntity
  8
RACCORDO
100
AcDbLine
 62
7
  6
CONTINUOUS
 10
36.8957174983
 20
-129.1023355261
 11
36.8961845999
 21
-129.1007382148
  0
LINE
  5
512
100
AcDbEntity
  8
RACCORDO
100
AcDbLine
 62
7
  6
CONTINUOUS
 10
36.8961845999
 20
-129.1007382148
 11
36.896951347
 21
-129.0981691896
  0
LINE
  5
513
100
AcDbEntity
  8
RACCORDO
100
AcDbLine
 62
7
  6
CONTINUOUS
 10
36.896951347
 20
-129.0981691896
 11
36.8977933495
 21
-129.0954092792
  0
LINE
  5
514
100
AcDbEntity
  8
RACCORDO
100
AcDbLine
 62
7
  6
CONTINUOUS
 10
36.8977933495
 20
-129.0954092792
 11
36.8987045809
 21
-129.0924790627
  0
LWPOLYLINE
  5
515
100
AcDbEntity
  8
RACCORDO
100
AcDbPolyline
 62
253
  6
CONTINUOUS
 90
5
 70
0
 10
36.8926649688
 20
-129.1155570844
 10
36.8930509655
 20
-129.114324317
 10
36.8932750469
 20
-129.1130519939
 10
36.8933334726
 20
-129.1117613537
 10
36.8933099591
 20
-129.1114815937
  0
LWPOLYLINE
  5
516
100
AcDbEntity
  8
RACCORDO
100
AcDbPolyline
 62
7
  6
CONTINUOUS
 90
9
 70
0
 10
36.9010804167
 20
-129.0850593322
 10
36.9042419134
 20
-129.0750761142
 10
36.9080208282
 20
-129.0622483293
 10
36.9115079754
 20
-129.0493383422
 10
36.9147015689
 20
-129.0363528372
 10
36.917600056
 20
-129.0232981453
 10
36.9202019822
 20
-129.0101808625
 10
36.9225059625
 20
-128.9970077577
 10
36.9245108192
 20
-128.9837855005
  0
LWPOLYLINE
  5
517
100
AcDbEntity
  8
RACCORDO
100
AcDbPolyline
 62
253
  6
CONTINUOUS
 90
9
 70
0
 10
36.9010299593
 20
-129.0850428591
 10
36.9039458222
 20
-129.0758654737
 10
36.9066258665
 20
-129.0669261492
 10
36.9090840165
 20
-129.0582331168
 10
36.9113326478
 20
-129.0498035334
 10
36.9133860957
 20
-129.0416348882
 10
36.9152600984
 20
-129.0337051752
 10
36.9169674871
 20
-129.0260157541
 10
36.9185183232
 20
-129.0185768546
  0
LINE
  5
518
100
AcDbEntity
  8
RACCORDO
100
AcDbLine
 62
7
  6
CONTINUOUS
 10
36.8987045809
 20
-129.0924790627
 11
36.8996791236
 21
-129.0893997927
  0
LWPOLYLINE
  5
519
100
AcDbEntity
  8
RACCORDO
100
AcDbPolyline
 62
253
  6
CONTINUOUS
 90
3
 70
0
 10
36.8983867467
 20
-129.0933101388
 10
36.9001102765
 20
-129.087887365
 10
36.9010299593
 20
-129.0850428591
  0
LWPOLYLINE
  5
51A
100
AcDbEntity
  8
RACCORDO
100
AcDbPolyline
 62
7
  6
CONTINUOUS
 90
3
 70
0
 10
36.8996791236
 20
-129.0893997927
 10
36.9007100724
 20
-129.0861961829
 10
36.9010800832
 20
-129.0850592233
  0
LINE
  5
51B
100
AcDbEntity
  8
RACCORDO
100
AcDbLine
 62
7
  6
CONTINUOUS
 10
19.4443379175
 20
-123.8585734349
 11
19.4183085057
 21
-123.9019557879
  0
LINE
  5
51C
100
AcDbEntity
  8
0
100
AcDbLine
 62
7
  6
CONTINUOUS
 10
-43.8766914943
 20
66.2580442121
 11
-43.7766914943
 21
66.2013775455
  0
LWPOLYLINE
  5
51D
100
AcDbEntity
  8
RACCORDO
100
AcDbPolyline
 62
7
  6
CONTINUOUS
 90
5
 70
0
 10
36.8949493381
 20
-128.8526465287
 10
36.8952376992
 20
-128.8517900785
 10
36.8955026058
 20
-128.8511179919
 10
36.8957240514
 20
-128.8506364787
 10
36.8958313353
 20
-128.850436018
  0
LINE
  5
51E
100
AcDbEntity
  8
RACCORDO
100
AcDbLine
 62
7
  6
CONTINUOUS
 10
36.8958313353
 20
-128.850436018
 11
36.8959100348
 21
-128.8502932065
  0
LINE
  5
51F
100
AcDbEntity
  8
RACCORDO
100
AcDbLine
 62
253
  6
CONTINUOUS
 10
-43.6344125085
 20
-129.0850427156
 11
-43.6344630698
 21
-129.0850592225
  0
LINE
  5
520
100
AcDbEntity
  8
RACCORDO
100
AcDbLine
 62
7
  6
CONTINUOUS
 10
-26.6682112641
 20
77.8605670417
 11
-26.6683540756
 21
77.8606457412
  0
LINE
  5
521
100
AcDbEntity
  8
RACCORDO
100
AcDbLine
 62
7
  6
CONTINUOUS
 10
-19.1682112641
 20
77.8605670417
 11
-19.1683540756
 21
77.8606457412
  0
LWPOLYLINE
  5
522
100
AcDbEntity
  8
RACCORDO
100
AcDbPolyline
 62
253
  6
CONTINUOUS
 90
4
 70
0
 10
19.7269438431
 20
77.873795723
 10
19.7182681127
 20
77.8713413329
 10
19.7093579154
 20
77.8686691096
 10
19.7002214345
 20
77.8657656657
  0
LWPOLYLINE
  5
523
100
AcDbEntity
  8
RACCORDO
100
AcDbPolyline
 62
253
  6
CONTINUOUS
 90
4
 70
0
 10
12.2269438431
 20
77.873795723
 10
12.2182681127
 20
77.8713413329
 10
12.2093579154
 20
77.8686691096
 10
12.2002214345
 20
77.8657656657
  0
LINE
  5
524
100
AcDbEntity
  8
RACCORDO
100
AcDbLine
 62
7
  6
CONTINUOUS
 10
19.6815615361
 20
77.8600601144
 11
19.6801503865
 21
77.8596620542
  0
LINE
  5
525
100
AcDbEntity
  8
RACCORDO
100
AcDbLine
 62
7
  6
CONTINUOUS
 10
12.1815615361
 20
77.8600601144
 11
12.1801503865
 21
77.8596620542
  0
LINE
  5
526
100
AcDbEntity
  8
RACCORDO
100
AcDbLine
 62
7
  6
CONTINUOUS
 10
19.6801503865
 20
77.8596620542
 11
19.6788465031
 21
77.859302634
  0
LINE
  5
527
100
AcDbEntity
  8
RACCORDO
100
AcDbLine
 62
7
  6
CONTINUOUS
 10
12.1801503865
 20
77.8596620542
 11
12.1788465031
 21
77.859302634
  0
LINE
  5
528
100
AcDbEntity
  8
RACCORDO
100
AcDbLine
 62
7
  6
CONTINUOUS
 10
19.6788465031
 20
77.859302634
 11
19.6776538935
 21
77.8589828349
  0
LINE
  5
529
100
AcDbEntity
  8
RACCORDO
100
AcDbLine
 62
7
  6
CONTINUOUS
 10
12.1788465031
 20
77.859302634
 11
12.1776538935
 21
77.8589828349
  0
LWPOLYLINE
  5
52A
100
AcDbEntity
  8
RACCORDO
100
AcDbPolyline
 62
7
  6
CONTINUOUS
 90
4
 70
0
 10
19.6776538935
 20
77.8589828349
 10
19.6765751652
 20
77.8587027604
 10
19.6760794461
 20
77.8585775749
 10
19.6759387608
 20
77.8585427676
  0
LWPOLYLINE
  5
52B
100
AcDbEntity
  8
RACCORDO
100
AcDbPolyline
 62
7
  6
CONTINUOUS
 90
4
 70
0
 10
12.1776538935
 20
77.8589828349
 10
12.1765751652
 20
77.8587027604
 10
12.1760794461
 20
77.8585775749
 10
12.1759387608
 20
77.8585427676
  0
LWPOLYLINE
  5
52C
100
AcDbEntity
  8
RACCORDO
100
AcDbPolyline
 62
253
  6
CONTINUOUS
 90
9
 70
0
 10
19.6765232339
 20
77.8585973054
 10
19.6749601729
 20
77.8581965697
 10
19.6735914883
 20
77.8578657348
 10
19.6724213913
 20
77.8576061466
 10
19.6714511109
 20
77.8574179925
 10
19.6706921243
 20
77.8573031035
 10
19.6701488992
 20
77.8572622294
 10
19.6698199952
 20
77.857295029
 10
19.6697069226
 20
77.8574014163
  0
LWPOLYLINE
  5
52D
100
AcDbEntity
  8
RACCORDO
100
AcDbPolyline
 62
253
  6
CONTINUOUS
 90
9
 70
0
 10
12.1765232339
 20
77.8585973054
 10
12.1749601729
 20
77.8581965697
 10
12.1735914883
 20
77.8578657348
 10
12.1724213913
 20
77.8576061466
 10
12.1714511109
 20
77.8574179925
 10
12.1706921243
 20
77.8573031035
 10
12.1701488992
 20
77.8572622294
 10
12.1698199952
 20
77.857295029
 10
12.1697069226
 20
77.8574014163
  0
LWPOLYLINE
  5
52E
100
AcDbEntity
  8
RACCORDO
100
AcDbPolyline
 62
253
  6
CONTINUOUS
 90
3
 70
0
 10
19.7514902472
 20
77.8799800208
 10
19.7435517758
 20
77.8781027886
 10
19.7353724438
 20
77.8760453611
  0
LWPOLYLINE
  5
52F
100
AcDbEntity
  8
RACCORDO
100
AcDbPolyline
 62
253
  6
CONTINUOUS
 90
3
 70
0
 10
12.2514902472
 20
77.8799800208
 10
12.2435517758
 20
77.8781027886
 10
12.2353724438
 20
77.8760453611
  0
LINE
  5
530
100
AcDbEntity
  8
RACCORDO
100
AcDbLine
 62
7
  6
CONTINUOUS
 10
19.6759387608
 20
77.8585427676
 11
19.6737608831
 21
77.8580411103
  0
LINE
  5
531
100
AcDbEntity
  8
RACCORDO
100
AcDbLine
 62
7
  6
CONTINUOUS
 10
12.1759387608
 20
77.8585427676
 11
12.1737608831
 21
77.8580411103
  0
LINE
  5
532
100
AcDbEntity
  8
RACCORDO
100
AcDbLine
 62
253
  6
CONTINUOUS
 10
19.9333085057
 20
77.8586596039
 11
19.9328812097
 21
77.8585651156
  0
LINE
  5
533
100
AcDbEntity
  8
RACCORDO
100
AcDbLine
 62
253
  6
CONTINUOUS
 10
12.4333085057
 20
77.8586596039
 11
12.4328812097
 21
77.8585651156
  0
LINE
  5
534
100
AcDbEntity
  8
RACCORDO
100
AcDbLine
 62
253
  6
CONTINUOUS
 10
19.7666203742
 20
77.8832405113
 11
19.7591814859
 21
77.8816887849
  0
LINE
  5
535
100
AcDbEntity
  8
RACCORDO
100
AcDbLine
 62
7
  6
CONTINUOUS
 10
19.6737608831
 20
77.8580411103
 11
19.6733236594
 21
77.8579573492
  0
LINE
  5
536
100
AcDbEntity
  8
RACCORDO
100
AcDbLine
 62
7
  6
CONTINUOUS
 10
19.6737742221
 20
77.8580438891
 11
19.6732991377
 21
77.8579529003
  0
LINE
  5
537
100
AcDbEntity
  8
RACCORDO
100
AcDbLine
 62
253
  6
CONTINUOUS
 10
19.9328812097
 20
77.8585651156
 11
19.9309154865
 21
77.8581926662
  0
LINE
  5
538
100
AcDbEntity
  8
RACCORDO
100
AcDbLine
 62
253
  6
CONTINUOUS
 10
19.7807646054
 20
77.8859149443
 11
19.7738181228
 21
77.8846461234
  0
LINE
  5
539
100
AcDbEntity
  8
0
100
AcDbLine
 62
7
  6
CONTINUOUS
 10
-43.6166914943
 20
65.8730442121
 11
-43.3666914943
 21
65.8730442121
  0
LINE
  5
53A
100
AcDbEntity
  8
0
100
AcDbLine
 62
7
  6
CONTINUOUS
 10
36.8833085057
 20
65.8730442121
 11
36.6333085057
 21
65.8730442121
  0
LINE
  5
53B
100
AcDbEntity
  8
0
100
AcDbLine
 62
7
  6
CONTINUOUS
 10
38.4483085057
 20
65.9080442121
 11
39.1983085057
 21
65.9080442121
  0
LINE
  5
53C
100
AcDbEntity
  8
0
100
AcDbLine
 62
7
  6
CONTINUOUS
 10
-45.1816914943
 20
65.9080442121
 11
-45.9316914943
 21
65.9080442121
  0
LINE
  5
53D
100
AcDbEntity
  8
0
100
AcDbLine
 62
7
  6
CONTINUOUS
 10
37.1433085057
 20
66.6230442121
 11
37.9433085057
 21
66.6230442121
  0
LINE
  5
53E
100
AcDbEntity
  8
0
100
AcDbLine
 62
7
  6
CONTINUOUS
 10
39.6533085057
 20
66.6230442121
 11
39.8233085057
 21
66.6230442121
  0
LINE
  5
53F
100
AcDbEntity
  8
0
100
AcDbLine
 62
7
  6
CONTINUOUS
 10
-43.8766914943
 20
66.6230442121
 11
-44.6766914943
 21
66.6230442121
  0
LINE
  5
540
100
AcDbEntity
  8
0
100
AcDbLine
 62
7
  6
CONTINUOUS
 10
-46.3866914943
 20
66.6230442121
 11
-46.5566914943
 21
66.6230442121
  0
LINE
  5
541
100
AcDbEntity
  8
0
100
AcDbLine
 62
7
  6
CONTINUOUS
 10
-44.2766914943
 20
67.1530442121
 11
-43.8766914943
 21
67.1530442121
  0
LINE
  5
542
100
AcDbEntity
  8
0
100
AcDbLine
 62
7
  6
CONTINUOUS
 10
37.5433085057
 20
67.1530442121
 11
37.1433085057
 21
67.1530442121
  0
LINE
  5
543
100
AcDbEntity
  8
0
100
AcDbLine
 62
7
  6
CONTINUOUS
 10
-46.5566914943
 20
67.3230442121
 11
-46.3866914943
 21
67.3230442121
  0
LINE
  5
544
100
AcDbEntity
  8
0
100
AcDbLine
 62
7
  6
CONTINUOUS
 10
-44.6766914943
 20
67.3230442121
 11
-44.4766914943
 21
67.3230442121
  0
LINE
  5
545
100
AcDbEntity
  8
0
100
AcDbLine
 62
7
  6
CONTINUOUS
 10
39.8233085057
 20
67.3230442121
 11
39.6533085057
 21
67.3230442121
  0
LINE
  5
546
100
AcDbEntity
  8
0
100
AcDbLine
 62
7
  6
CONTINUOUS
 10
37.9433085057
 20
67.3230442121
 11
37.7433085057
 21
67.3230442121
  0
LINE
  5
547
100
AcDbEntity
  8
0
100
AcDbLine
 62
7
  6
CONTINUOUS
 10
-45.9316914943
 20
68.0380442121
 11
-45.1816914943
 21
68.0380442121
  0
LINE
  5
548
100
AcDbEntity
  8
0
100
AcDbLine
 62
7
  6
CONTINUOUS
 10
39.1983085057
 20
68.0380442121
 11
38.4483085057
 21
68.0380442121
  0
LINE
  5
549
100
AcDbEntity
  8
0
100
AcDbLine
 62
7
  6
CONTINUOUS
 10
-43.6166914943
 20
68.0730442121
 11
-43.3666914943
 21
68.0730442121
  0
LINE
  5
54A
100
AcDbEntity
  8
0
100
AcDbLine
 62
7
  6
CONTINUOUS
 10
36.8833085057
 20
68.0730442121
 11
36.6333085057
 21
68.0730442121
  0
LINE
  5
54B
100
AcDbEntity
  8
0
100
AcDbLine
 62
253
  6
CONTINUOUS
 10
32.2283085057
 20
70.5980442121
 11
-38.5716914943
 21
70.5980442121
  0
LINE
  5
54C
100
AcDbEntity
  8
0
100
AcDbLine
 62
7
  6
CONTINUOUS
 10
-38.5716914943
 20
70.6980442121
 11
-38.6916914943
 21
70.6980442121
  0
LINE
  5
54D
100
AcDbEntity
  8
0
100
AcDbLine
 62
7
  6
CONTINUOUS
 10
-37.5168649457
 20
70.7980442121
 11
32.0833085057
 21
70.7980442121
  0
LINE
  5
54E
100
AcDbEntity
  8
0
100
AcDbLine
 62
7
  6
CONTINUOUS
 10
-37.5168649457
 20
70.7980442121
 11
-38.8666914943
 21
70.7980442121
  0
LINE
  5
54F
100
AcDbEntity
  8
0
100
AcDbLine
 62
7
  6
CONTINUOUS
 10
32.1333085057
 20
70.8480442121
 11
-38.8666914943
 21
70.8480442121
  0
LINE
  5
550
100
AcDbEntity
  8
0
100
AcDbLine
 62
253
  6
CONTINUOUS
 10
32.1333085057
 20
71.0480442121
 11
-38.8666914943
 21
71.0480442121
  0
LINE
  5
551
100
AcDbEntity
  8
RACCORDO
100
AcDbLine
 62
7
  6
CONTINUOUS
 10
-26.4064658199
 20
77.8579181928
 11
-26.4071432697
 21
77.8580409972
  0
LWPOLYLINE
  5
552
100
AcDbEntity
  8
RACCORDO
100
AcDbPolyline
 62
253
  6
CONTINUOUS
 90
4
 70
0
 10
-26.5072682691
 20
77.8846588042
 10
-26.5142169897
 20
77.8859271045
 10
-26.5209174879
 20
77.8870697559
 10
-26.5273935719
 20
77.8880981286
  0
LINE
  5
553
100
AcDbEntity
  8
RACCORDO
100
AcDbLine
 62
253
  6
CONTINUOUS
 10
-26.6643236764
 20
77.8581970223
 11
-26.6666914943
 21
77.8586592363
  0
LINE
  5
554
100
AcDbEntity
  8
RACCORDO
100
AcDbLine
 62
7
  6
CONTINUOUS
 10
-26.4071550677
 20
77.8580434539
 11
-26.4093225041
 21
77.8585425578
  0
LINE
  5
555
100
AcDbEntity
  8
RACCORDO
100
AcDbLine
 62
7
  6
CONTINUOUS
 10
-18.9071550677
 20
77.8580434539
 11
-18.9093225041
 21
77.8585425578
  0
LINE
  5
556
100
AcDbEntity
  8
RACCORDO
100
AcDbLine
 62
253
  6
CONTINUOUS
 10
-26.6666914943
 20
77.8586592363
 11
-26.6684037228
 21
77.8590666591
  0
LINE
  5
557
100
AcDbEntity
  8
RACCORDO
100
AcDbLine
 62
253
  6
CONTINUOUS
 10
-19.1666914943
 20
77.8586592363
 11
-19.1684037228
 21
77.8590666591
  0
LWPOLYLINE
  5
558
100
AcDbEntity
  8
RACCORDO
100
AcDbPolyline
 62
7
  6
CONTINUOUS
 90
3
 70
0
 10
-26.4093225041
 20
77.8585425578
 10
-26.4093904663
 20
77.8585593155
 10
-26.4098786388
 20
77.8586823745
  0
LWPOLYLINE
  5
559
100
AcDbEntity
  8
RACCORDO
100
AcDbPolyline
 62
7
  6
CONTINUOUS
 90
3
 70
0
 10
-18.9093225041
 20
77.8585425578
 10
-18.9093904663
 20
77.8585593155
 10
-18.9098786388
 20
77.8586823745
  0
LINE
  5
55A
100
AcDbEntity
  8
RACCORDO
100
AcDbLine
 62
7
  6
CONTINUOUS
 10
-26.4098786388
 20
77.8586823745
 11
-26.4109442823
 21
77.8589585893
  0
LINE
  5
55B
100
AcDbEntity
  8
RACCORDO
100
AcDbLine
 62
7
  6
CONTINUOUS
 10
-18.9098786388
 20
77.8586823745
 11
-18.9109442823
 21
77.8589585893
  0
LWPOLYLINE
  5
55C
100
AcDbEntity
  8
RACCORDO
100
AcDbPolyline
 62
253
  6
CONTINUOUS
 90
8
 70
0
 10
-26.4099157425
 20
77.8585997949
 10
-26.4116589327
 20
77.8590677409
 10
-26.4135805301
 20
77.8596022974
 10
-26.4156723102
 20
77.8602005908
 10
-26.4179005432
 20
77.8608540292
 10
-26.420261587
 20
77.8615610707
 10
-26.4227519591
 20
77.8623200734
 10
-26.4253371434
 20
77.8631224531
  0
LWPOLYLINE
  5
55D
100
AcDbEntity
  8
RACCORDO
100
AcDbPolyline
 62
253
  6
CONTINUOUS
 90
8
 70
0
 10
-18.9099157425
 20
77.8585997949
 10
-18.9116589327
 20
77.8590677409
 10
-18.9135805301
 20
77.8596022974
 10
-18.9156723102
 20
77.8602005908
 10
-18.9179005432
 20
77.8608540292
 10
-18.920261587
 20
77.8615610707
 10
-18.9227519591
 20
77.8623200734
 10
-18.9253371434
 20
77.8631224531
  0
LINE
  5
55E
100
AcDbEntity
  8
RACCORDO
100
AcDbLine
 62
7
  6
CONTINUOUS
 10
-26.4109442823
 20
77.8589585893
 11
-26.4121254348
 21
77.8592744815
  0
LINE
  5
55F
100
AcDbEntity
  8
RACCORDO
100
AcDbLine
 62
7
  6
CONTINUOUS
 10
-18.9109442823
 20
77.8589585893
 11
-18.9121254348
 21
77.8592744815
  0
LINE
  5
560
100
AcDbEntity
  8
RACCORDO
100
AcDbLine
 62
7
  6
CONTINUOUS
 10
-26.4121254348
 20
77.8592744815
 11
-26.4134154594
 21
77.8596291022
  0
LINE
  5
561
100
AcDbEntity
  8
RACCORDO
100
AcDbLine
 62
7
  6
CONTINUOUS
 10
-18.9121254348
 20
77.8592744815
 11
-18.9134154594
 21
77.8596291022
  0
LINE
  5
562
100
AcDbEntity
  8
RACCORDO
100
AcDbLine
 62
7
  6
CONTINUOUS
 10
-26.4134154594
 20
77.8596291022
 11
-26.4148122163
 21
77.8600223543
  0
LINE
  5
563
100
AcDbEntity
  8
RACCORDO
100
AcDbLine
 62
7
  6
CONTINUOUS
 10
-18.9134154594
 20
77.8596291022
 11
-18.9148122163
 21
77.8600223543
  0
LINE
  5
564
100
AcDbEntity
  8
RACCORDO
100
AcDbLine
 62
7
  6
CONTINUOUS
 10
-26.4148122163
 20
77.8600223543
 11
-26.416311756
 21
77.8604532047
  0
LINE
  5
565
100
AcDbEntity
  8
RACCORDO
100
AcDbLine
 62
7
  6
CONTINUOUS
 10
-18.9148122163
 20
77.8600223543
 11
-18.916311756
 21
77.8604532047
  0
LWPOLYLINE
  5
566
100
AcDbEntity
  8
RACCORDO
100
AcDbPolyline
 62
253
  6
CONTINUOUS
 90
10
 70
0
 10
-26.6684037228
 20
77.8590666591
 10
-26.6702294111
 20
77.8596030365
 10
-26.6719038551
 20
77.8602040462
 10
-26.6733824034
 20
77.8608607244
 10
-26.6746641784
 20
77.8615727729
 10
-26.6757484805
 20
77.8623372331
 10
-26.676596429
 20
77.8631414418
 10
-26.6771985572
 20
77.8639802352
 10
-26.6775718462
 20
77.8648555728
 10
-26.677720518
 20
77.8657656657
  0
LINE
  5
567
100
AcDbEntity
  8
RACCORDO
100
AcDbLine
 62
7
  6
CONTINUOUS
 10
-26.416311756
 20
77.8604532047
 11
-26.4179090674
 21
77.8609203063
  0
LWPOLYLINE
  5
568
100
AcDbEntity
  8
RACCORDO
100
AcDbPolyline
 62
253
  6
CONTINUOUS
 90
10
 70
0
 10
-19.1684037228
 20
77.8590666591
 10
-19.1702294111
 20
77.8596030365
 10
-19.1719038551
 20
77.8602040462
 10
-19.1733824034
 20
77.8608607244
 10
-19.1746641784
 20
77.8615727729
 10
-19.1757484805
 20
77.8623372331
 10
-19.176596429
 20
77.8631414418
 10
-19.1771985572
 20
77.8639802352
 10
-19.1775718462
 20
77.8648555728
 10
-19.177720518
 20
77.8657656657
  0
LINE
  5
569
100
AcDbEntity
  8
RACCORDO
100
AcDbLine
 62
7
  6
CONTINUOUS
 10
-18.916311756
 20
77.8604532047
 11
-18.9179090674
 21
77.8609203063
  0
LINE
  5
56A
100
AcDbEntity
  8
RACCORDO
100
AcDbLine
 62
7
  6
CONTINUOUS
 10
-26.4179090674
 20
77.8609203063
 11
-26.4204780925
 21
77.8616870534
  0
LINE
  5
56B
100
AcDbEntity
  8
RACCORDO
100
AcDbLine
 62
7
  6
CONTINUOUS
 10
-18.9179090674
 20
77.8609203063
 11
-18.9204780925
 21
77.8616870534
  0
LINE
  5
56C
100
AcDbEntity
  8
RACCORDO
100
AcDbLine
 62
7
  6
CONTINUOUS
 10
-26.4204780925
 20
77.8616870534
 11
-26.4232380029
 21
77.8625290559
  0
LINE
  5
56D
100
AcDbEntity
  8
RACCORDO
100
AcDbLine
 62
7
  6
CONTINUOUS
 10
-18.9204780925
 20
77.8616870534
 11
-18.9232380029
 21
77.8625290559
  0
LINE
  5
56E
100
AcDbEntity
  8
RACCORDO
100
AcDbLine
 62
7
  6
CONTINUOUS
 10
-26.4232380029
 20
77.8625290559
 11
-26.4261682195
 21
77.8634402873
  0
LINE
  5
56F
100
AcDbEntity
  8
RACCORDO
100
AcDbLine
 62
7
  6
CONTINUOUS
 10
-18.9232380029
 20
77.8625290559
 11
-18.9261682195
 21
77.8634402873
  0
LWPOLYLINE
  5
570
100
AcDbEntity
  8
RACCORDO
100
AcDbPolyline
 62
253
  6
CONTINUOUS
 90
5
 70
0
 10
-26.4030901978
 20
77.8574006753
 10
-26.4043229651
 20
77.8577866719
 10
-26.4055952883
 20
77.8580107533
 10
-26.4068859284
 20
77.858069179
 10
-26.4071656885
 20
77.8580456655
  0
LWPOLYLINE
  5
571
100
AcDbEntity
  8
RACCORDO
100
AcDbPolyline
 62
253
  6
CONTINUOUS
 90
5
 70
0
 10
-18.9030901978
 20
77.8574006753
 10
-18.9043229651
 20
77.8577866719
 10
-18.9055952883
 20
77.8580107533
 10
-18.9068859284
 20
77.858069179
 10
-18.9071656885
 20
77.8580456655
  0
LWPOLYLINE
  5
572
100
AcDbEntity
  8
RACCORDO
100
AcDbPolyline
 62
7
  6
CONTINUOUS
 90
9
 70
0
 10
-26.4335879499
 20
77.8658161231
 10
-26.4435711679
 20
77.8689776198
 10
-26.4563989528
 20
77.8727565346
 10
-26.4693089399
 20
77.8762436818
 10
-26.482294445
 20
77.8794372753
 10
-26.4953491368
 20
77.8823357624
 10
-26.5084664197
 20
77.8849376886
 10
-26.5216395244
 20
77.8872416689
 10
-26.5348617816
 20
77.8892465256
  0
LWPOLYLINE
  5
573
100
AcDbEntity
  8
RACCORDO
100
AcDbPolyline
 62
7
  6
CONTINUOUS
 90
9
 70
0
 10
-18.9335879499
 20
77.8658161231
 10
-18.9435711679
 20
77.8689776198
 10
-18.9563989528
 20
77.8727565346
 10
-18.9693089399
 20
77.8762436818
 10
-18.982294445
 20
77.8794372753
 10
-18.9953491368
 20
77.8823357624
 10
-19.0084664197
 20
77.8849376886
 10
-19.0216395244
 20
77.8872416689
 10
-19.0348617816
 20
77.8892465256
  0
LWPOLYLINE
  5
574
100
AcDbEntity
  8
RACCORDO
100
AcDbPolyline
 62
253
  6
CONTINUOUS
 90
9
 70
0
 10
-26.433604423
 20
77.8657656657
 10
-26.4427818084
 20
77.8686815286
 10
-26.4517211329
 20
77.8713615729
 10
-26.4604141653
 20
77.8738197229
 10
-26.4688437487
 20
77.8760683542
 10
-26.4770123939
 20
77.8781218021
 10
-26.4849421069
 20
77.8799958048
 10
-26.492631528
 20
77.8817031935
 10
-26.5000704275
 20
77.8832540296
  0
LWPOLYLINE
  5
575
100
AcDbEntity
  8
RACCORDO
100
AcDbPolyline
 62
253
  6
CONTINUOUS
 90
9
 70
0
 10
-18.933604423
 20
77.8657656657
 10
-18.9427818084
 20
77.8686815286
 10
-18.9517211329
 20
77.8713615729
 10
-18.9604141653
 20
77.8738197229
 10
-18.9688437487
 20
77.8760683542
 10
-18.9770123939
 20
77.8781218021
 10
-18.9849421069
 20
77.8799958048
 10
-18.992631528
 20
77.8817031935
 10
-19.0000704275
 20
77.8832540296
  0
LINE
  5
576
100
AcDbEntity
  8
RACCORDO
100
AcDbLine
 62
7
  6
CONTINUOUS
 10
-26.4261682195
 20
77.8634402873
 11
-26.4292474894
 21
77.86441483
  0
LINE
  5
577
100
AcDbEntity
  8
RACCORDO
100
AcDbLine
 62
7
  6
CONTINUOUS
 10
-18.9261682195
 20
77.8634402873
 11
-18.9292474894
 21
77.86441483
  0
LWPOLYLINE
  5
578
100
AcDbEntity
  8
RACCORDO
100
AcDbPolyline
 62
253
  6
CONTINUOUS
 90
3
 70
0
 10
-26.4253371434
 20
77.8631224531
 10
-26.4307599171
 20
77.8648459829
 10
-26.433604423
 20
77.8657656657
  0
LWPOLYLINE
  5
579
100
AcDbEntity
  8
RACCORDO
100
AcDbPolyline
 62
253
  6
CONTINUOUS
 90
3
 70
0
 10
-18.9253371434
 20
77.8631224531
 10
-18.9307599171
 20
77.8648459829
 10
-18.933604423
 20
77.8657656657
  0
LWPOLYLINE
  5
57A
100
AcDbEntity
  8
RACCORDO
100
AcDbPolyline
 62
7
  6
CONTINUOUS
 90
3
 70
0
 10
-26.4292474894
 20
77.86441483
 10
-26.4324510992
 20
77.8654457788
 10
-26.4335880588
 20
77.8658157896
  0
LWPOLYLINE
  5
57B
100
AcDbEntity
  8
RACCORDO
100
AcDbPolyline
 62
7
  6
CONTINUOUS
 90
3
 70
0
 10
-18.9292474894
 20
77.86441483
 10
-18.9324510992
 20
77.8654457788
 10
-18.9335880588
 20
77.8658157896
  0
LWPOLYLINE
  5
57C
100
AcDbEntity
  8
RACCORDO
100
AcDbPolyline
 62
7
  6
CONTINUOUS
 90
5
 70
0
 10
-26.6660007534
 20
77.8596850445
 10
-26.6668572036
 20
77.8599734056
 10
-26.6675292902
 20
77.8602383122
 10
-26.6680108034
 20
77.8604597579
 10
-26.6682112641
 20
77.8605670417
  0
LWPOLYLINE
  5
57D
100
AcDbEntity
  8
RACCORDO
100
AcDbPolyline
 62
7
  6
CONTINUOUS
 90
5
 70
0
 10
-19.1660007534
 20
77.8596850445
 10
-19.1668572036
 20
77.8599734056
 10
-19.1675292902
 20
77.8602383122
 10
-19.1680108034
 20
77.8604597579
 10
-19.1682112641
 20
77.8605670417
  0
LINE
  5
57E
100
AcDbEntity
  8
0
100
AcDbLine
 62
7
  6
CONTINUOUS
 10
39.6533085057
 20
67.6230442121
 11
39.1983085057
 21
68.0380442121
  0
LINE
  5
57F
100
AcDbEntity
  8
0
100
AcDbLine
 62
7
  6
CONTINUOUS
 10
37.0433085057
 20
67.9230442121
 11
36.8833085057
 21
68.0730442121
  0
LINE
  5
580
100
AcDbEntity
  8
0
100
AcDbLine
 62
7
  6
CONTINUOUS
 10
37.9433085057
 20
66.4130442121
 11
38.4483085057
 21
65.9080442121
  0
LINE
  5
581
100
AcDbEntity
  8
0
100
AcDbLine
 62
7
  6
CONTINUOUS
 10
39.1709683186
 20
66.640704025
 11
38.8386281314
 21
66.9730442121
  0
LINE
  5
582
100
AcDbEntity
  8
0
100
AcDbLine
 62
7
  6
CONTINUOUS
 10
39.1709683186
 20
67.3053843993
 11
39.5033085057
 21
66.9730442121
  0
LINE
  5
583
100
AcDbEntity
  8
RACCORDO
100
AcDbLine
 62
253
  6
CONTINUOUS
 10
36.90102952
 20
-128.7188688601
 11
36.9010800813
 21
-128.7188523532
  0
LWPOLYLINE
  5
584
100
AcDbEntity
  8
RACCORDO
100
AcDbPolyline
 62
253
  6
CONTINUOUS
 90
4
 70
0
 10
-19.2730561569
 20
77.873795723
 10
-19.2817318873
 20
77.8713413329
 10
-19.2906420846
 20
77.8686691096
 10
-19.2997785655
 20
77.8657656657
  0
LWPOLYLINE
  5
585
100
AcDbEntity
  8
RACCORDO
100
AcDbPolyline
 62
253
  6
CONTINUOUS
 90
4
 70
0
 10
-26.7730561569
 20
77.873795723
 10
-26.7817318873
 20
77.8713413329
 10
-26.7906420846
 20
77.8686691096
 10
-26.7997785655
 20
77.8657656657
  0
LINE
  5
586
100
AcDbEntity
  8
RACCORDO
100
AcDbLine
 62
7
  6
CONTINUOUS
 10
-19.3184384639
 20
77.8600601144
 11
-19.3198496135
 21
77.8596620542
  0
LINE
  5
587
100
AcDbEntity
  8
RACCORDO
100
AcDbLine
 62
7
  6
CONTINUOUS
 10
-26.8184384639
 20
77.8600601144
 11
-26.8198496135
 21
77.8596620542
  0
LINE
  5
588
100
AcDbEntity
  8
RACCORDO
100
AcDbLine
 62
7
  6
CONTINUOUS
 10
-19.3198496135
 20
77.8596620542
 11
-19.3211534969
 21
77.859302634
  0
LINE
  5
589
100
AcDbEntity
  8
RACCORDO
100
AcDbLine
 62
7
  6
CONTINUOUS
 10
-26.8198496135
 20
77.8596620542
 11
-26.8211534969
 21
77.859302634
  0
LINE
  5
58A
100
AcDbEntity
  8
RACCORDO
100
AcDbLine
 62
7
  6
CONTINUOUS
 10
-19.3211534969
 20
77.859302634
 11
-19.3223461065
 21
77.8589828349
  0
LINE
  5
58B
100
AcDbEntity
  8
RACCORDO
100
AcDbLine
 62
7
  6
CONTINUOUS
 10
-26.8211534969
 20
77.859302634
 11
-26.8223461065
 21
77.8589828349
  0
LWPOLYLINE
  5
58C
100
AcDbEntity
  8
RACCORDO
100
AcDbPolyline
 62
7
  6
CONTINUOUS
 90
4
 70
0
 10
-19.3223461065
 20
77.8589828349
 10
-19.3234248348
 20
77.8587027604
 10
-19.3239205539
 20
77.8585775749
 10
-19.3240612392
 20
77.8585427676
  0
LWPOLYLINE
  5
58D
100
AcDbEntity
  8
RACCORDO
100
AcDbPolyline
 62
7
  6
CONTINUOUS
 90
4
 70
0
 10
-26.8223461065
 20
77.8589828349
 10
-26.8234248348
 20
77.8587027604
 10
-26.8239205539
 20
77.8585775749
 10
-26.8240612392
 20
77.8585427676
  0
LWPOLYLINE
  5
58E
100
AcDbEntity
  8
RACCORDO
100
AcDbPolyline
 62
253
  6
CONTINUOUS
 90
9
 70
0
 10
-19.3234767661
 20
77.8585973054
 10
-19.3250398271
 20
77.8581965697
 10
-19.3264085117
 20
77.8578657348
 10
-19.3275786087
 20
77.8576061466
 10
-19.3285488891
 20
77.8574179925
 10
-19.3293078757
 20
77.8573031035
 10
-19.3298511008
 20
77.8572622294
 10
-19.3301800048
 20
77.857295029
 10
-19.3302930774
 20
77.8574014163
  0
LWPOLYLINE
  5
58F
100
AcDbEntity
  8
RACCORDO
100
AcDbPolyline
 62
253
  6
CONTINUOUS
 90
9
 70
0
 10
-26.8234767661
 20
77.8585973054
 10
-26.8250398271
 20
77.8581965697
 10
-26.8264085117
 20
77.8578657348
 10
-26.8275786087
 20
77.8576061466
 10
-26.8285488891
 20
77.8574179925
 10
-26.8293078757
 20
77.8573031035
 10
-26.8298511008
 20
77.8572622294
 10
-26.8301800048
 20
77.857295029
 10
-26.8302930774
 20
77.8574014163
  0
LWPOLYLINE
  5
590
100
AcDbEntity
  8
RACCORDO
100
AcDbPolyline
 62
253
  6
CONTINUOUS
 90
3
 70
0
 10
-19.2485097528
 20
77.8799800208
 10
-19.2564482242
 20
77.8781027886
 10
-19.2646275562
 20
77.8760453611
  0
LWPOLYLINE
  5
591
100
AcDbEntity
  8
RACCORDO
100
AcDbPolyline
 62
253
  6
CONTINUOUS
 90
3
 70
0
 10
-26.7485097528
 20
77.8799800208
 10
-26.7564482242
 20
77.8781027886
 10
-26.7646275562
 20
77.8760453611
  0
LINE
  5
592
100
AcDbEntity
  8
RACCORDO
100
AcDbLine
 62
7
  6
CONTINUOUS
 10
-19.3240612392
 20
77.8585427676
 11
-19.3262391169
 21
77.8580411103
  0
LINE
  5
593
100
AcDbEntity
  8
RACCORDO
100
AcDbLine
 62
7
  6
CONTINUOUS
 10
-26.8240612392
 20
77.8585427676
 11
-26.8262391169
 21
77.8580411103
  0
LINE
  5
594
100
AcDbEntity
  8
RACCORDO
100
AcDbLine
 62
253
  6
CONTINUOUS
 10
-19.0666914943
 20
77.8586596039
 11
-19.0671187903
 21
77.8585651156
  0
LINE
  5
595
100
AcDbEntity
  8
RACCORDO
100
AcDbLine
 62
253
  6
CONTINUOUS
 10
-26.5666914943
 20
77.8586596039
 11
-26.5671187903
 21
77.8585651156
  0
LWPOLYLINE
  5
596
100
AcDbEntity
  8
RACCORDO
100
AcDbPolyline
 62
7
  6
CONTINUOUS
 90
3
 70
0
 10
-26.5577875138
 20
77.8909082099
 10
-26.5586084915
 20
77.8907314199
 10
-26.5594521452
 20
77.8904892507
  0
LINE
  5
597
100
AcDbEntity
  8
RACCORDO
100
AcDbLine
 62
253
  6
CONTINUOUS
 10
12.2666203742
 20
77.8832405113
 11
12.2591814859
 21
77.8816887849
  0
LINE
  5
598
100
AcDbEntity
  8
RACCORDO
100
AcDbLine
 62
253
  6
CONTINUOUS
 10
-19.2333796258
 20
77.8832405113
 11
-19.2408185141
 21
77.8816887849
  0
LINE
  5
599
100
AcDbEntity
  8
RACCORDO
100
AcDbLine
 62
253
  6
CONTINUOUS
 10
-26.7333796258
 20
77.8832405113
 11
-26.7408185141
 21
77.8816887849
  0
LINE
  5
59A
100
AcDbEntity
  8
RACCORDO
100
AcDbLine
 62
7
  6
CONTINUOUS
 10
12.1737608831
 20
77.8580411103
 11
12.1733236594
 21
77.8579573492
  0
LINE
  5
59B
100
AcDbEntity
  8
RACCORDO
100
AcDbLine
 62
7
  6
CONTINUOUS
 10
12.1737742221
 20
77.8580438891
 11
12.1732991377
 21
77.8579529003
  0
LINE
  5
59C
100
AcDbEntity
  8
RACCORDO
100
AcDbLine
 62
7
  6
CONTINUOUS
 10
-19.3262391169
 20
77.8580411103
 11
-19.3266763406
 21
77.8579573492
  0
LINE
  5
59D
100
AcDbEntity
  8
RACCORDO
100
AcDbLine
 62
7
  6
CONTINUOUS
 10
-19.3262257779
 20
77.8580438891
 11
-19.3267008623
 21
77.8579529003
  0
LINE
  5
59E
100
AcDbEntity
  8
RACCORDO
100
AcDbLine
 62
7
  6
CONTINUOUS
 10
-26.8262257779
 20
77.8580438891
 11
-26.8267008623
 21
77.8579529003
  0
LINE
  5
59F
100
AcDbEntity
  8
RACCORDO
100
AcDbLine
 62
7
  6
CONTINUOUS
 10
-26.8262391169
 20
77.8580411103
 11
-26.8266763406
 21
77.8579573492
  0
LINE
  5
5A0
100
AcDbEntity
  8
RACCORDO
100
AcDbLine
 62
253
  6
CONTINUOUS
 10
12.4328812097
 20
77.8585651156
 11
12.4309154865
 21
77.8581926662
  0
LINE
  5
5A1
100
AcDbEntity
  8
RACCORDO
100
AcDbLine
 62
253
  6
CONTINUOUS
 10
-19.0671187903
 20
77.8585651156
 11
-19.0690845135
 21
77.8581926662
  0
LINE
  5
5A2
100
AcDbEntity
  8
RACCORDO
100
AcDbLine
 62
253
  6
CONTINUOUS
 10
-26.5671187903
 20
77.8585651156
 11
-26.5690845135
 21
77.8581926662
  0
LINE
  5
5A3
100
AcDbEntity
  8
RACCORDO
100
AcDbLine
 62
253
  6
CONTINUOUS
 10
12.2807646054
 20
77.8859149443
 11
12.2738181228
 21
77.8846461234
  0
LINE
  5
5A4
100
AcDbEntity
  8
RACCORDO
100
AcDbLine
 62
253
  6
CONTINUOUS
 10
-19.2192353946
 20
77.8859149443
 11
-19.2261818772
 21
77.8846461234
  0
LINE
  5
5A5
100
AcDbEntity
  8
RACCORDO
100
AcDbLine
 62
253
  6
CONTINUOUS
 10
-26.7192353946
 20
77.8859149443
 11
-26.7261818772
 21
77.8846461234
  0
LINE
  5
5A6
100
AcDbEntity
  8
RACCORDO
100
AcDbLine
 62
253
  6
CONTINUOUS
 10
19.7939443189
 20
77.8880879773
 11
19.7874628282
 21
77.8870580917
  0
LINE
  5
5A7
100
AcDbEntity
  8
RACCORDO
100
AcDbLine
 62
253
  6
CONTINUOUS
 10
12.2939443189
 20
77.8880879773
 11
12.2874628282
 21
77.8870580917
  0
LINE
  5
5A8
100
AcDbEntity
  8
RACCORDO
100
AcDbLine
 62
253
  6
CONTINUOUS
 10
-19.2060556811
 20
77.8880879773
 11
-19.2125371718
 21
77.8870580917
  0
LINE
  5
5A9
100
AcDbEntity
  8
RACCORDO
100
AcDbLine
 62
253
  6
CONTINUOUS
 10
-26.7060556811
 20
77.8880879773
 11
-26.7125371718
 21
77.8870580917
  0
LWPOLYLINE
  5
5AA
100
AcDbEntity
  8
RACCORDO
100
AcDbPolyline
 62
7
  6
CONTINUOUS
 90
4
 70
0
 10
19.9430201457
 20
77.8910340308
 10
19.9422124862
 20
77.8909082099
 10
19.9413915085
 20
77.8907314199
 10
19.9405478548
 20
77.8904892507
  0
LWPOLYLINE
  5
5AB
100
AcDbEntity
  8
RACCORDO
100
AcDbPolyline
 62
7
  6
CONTINUOUS
 90
4
 70
0
 10
12.4430201457
 20
77.8910340308
 10
12.4422124862
 20
77.8909082099
 10
12.4413915085
 20
77.8907314199
 10
12.4405478548
 20
77.8904892507
  0
LWPOLYLINE
  5
5AC
100
AcDbEntity
  8
RACCORDO
100
AcDbPolyline
 62
7
  6
CONTINUOUS
 90
4
 70
0
 10
-19.0569798543
 20
77.8910340308
 10
-19.0577875138
 20
77.8909082099
 10
-19.0586084915
 20
77.8907314199
 10
-19.0594521452
 20
77.8904892507
  0
LWPOLYLINE
  5
5AD
100
AcDbEntity
  8
RACCORDO
100
AcDbPolyline
 62
253
  6
CONTINUOUS
 90
7
 70
0
 10
19.9309154865
 20
77.8581926662
 10
19.9286988419
 20
77.857862831
 10
19.9263829724
 20
77.8576040832
 10
19.9239727707
 20
77.8574168904
 10
19.9215020321
 20
77.8573027263
 10
19.9189867907
 20
77.8572622189
 10
19.9164248
 20
77.8572951442
  0
LWPOLYLINE
  5
5AE
100
AcDbEntity
  8
RACCORDO
100
AcDbPolyline
 62
253
  6
CONTINUOUS
 90
7
 70
0
 10
12.4309154865
 20
77.8581926662
 10
12.4286988419
 20
77.857862831
 10
12.4263829724
 20
77.8576040832
 10
12.4239727707
 20
77.8574168904
 10
12.4215020321
 20
77.8573027263
 10
12.4189867907
 20
77.8572622189
 10
12.4164248
 20
77.8572951442
  0
LWPOLYLINE
  5
5AF
100
AcDbEntity
  8
RACCORDO
100
AcDbPolyline
 62
253
  6
CONTINUOUS
 90
7
 70
0
 10
-19.0690845135
 20
77.8581926662
 10
-19.0713011581
 20
77.857862831
 10
-19.0736170276
 20
77.8576040832
 10
-19.0760272293
 20
77.8574168904
 10
-19.0784979679
 20
77.8573027263
 10
-19.0810132093
 20
77.8572622189
 10
-19.0835752
 20
77.8572951442
  0
LWPOLYLINE
  5
5B0
100
AcDbEntity
  8
RACCORDO
100
AcDbPolyline
 62
253
  6
CONTINUOUS
 90
7
 70
0
 10
-26.5690845135
 20
77.8581926662
 10
-26.5713011581
 20
77.857862831
 10
-26.5736170276
 20
77.8576040832
 10
-26.5760272293
 20
77.8574168904
 10
-26.5784979679
 20
77.8573027263
 10
-26.5810132093
 20
77.8572622189
 10
-26.5835752
 20
77.8572951442
  0
LWPOLYLINE
  5
5B1
100
AcDbEntity
  8
RACCORDO
100
AcDbPolyline
 62
7
  6
CONTINUOUS
 90
9
 70
0
 10
19.8121015711
 20
77.8906360536
 10
19.8017158618
 20
77.8892796789
 10
19.7884924546
 20
77.8872801319
 10
19.7753181971
 20
77.8849814473
 10
19.7621997593
 20
77.88238481
 10
19.7491439172
 20
77.87949161
 10
19.7361572313
 20
77.8763032996
 10
19.7232460184
 20
77.8728214286
 10
19.7104170316
 20
77.869047815
  0
LWPOLYLINE
  5
5B2
100
AcDbEntity
  8
RACCORDO
100
AcDbPolyline
 62
7
  6
CONTINUOUS
 90
9
 70
0
 10
12.3121015711
 20
77.8906360536
 10
12.3017158618
 20
77.8892796789
 10
12.2884924546
 20
77.8872801319
 10
12.2753181971
 20
77.8849814473
 10
12.2621997593
 20
77.88238481
 10
12.2491439172
 20
77.87949161
 10
12.2361572313
 20
77.8763032996
 10
12.2232460184
 20
77.8728214286
 10
12.2104170316
 20
77.869047815
  0
LWPOLYLINE
  5
5B3
100
AcDbEntity
  8
RACCORDO
100
AcDbPolyline
 62
7
  6
CONTINUOUS
 90
9
 70
0
 10
-19.1878984289
 20
77.8906360536
 10
-19.1982841382
 20
77.8892796789
 10
-19.2115075454
 20
77.8872801319
 10
-19.2246818029
 20
77.8849814473
 10
-19.2378002407
 20
77.88238481
 10
-19.2508560828
 20
77.87949161
 10
-19.2638427687
 20
77.8763032996
 10
-19.2767539816
 20
77.8728214286
 10
-19.2895829684
 20
77.869047815
  0
LWPOLYLINE
  5
5B4
100
AcDbEntity
  8
RACCORDO
100
AcDbPolyline
 62
7
  6
CONTINUOUS
 90
9
 70
0
 10
-26.6878984289
 20
77.8906360536
 10
-26.6982841382
 20
77.8892796789
 10
-26.7115075454
 20
77.8872801319
 10
-26.7246818029
 20
77.8849814473
 10
-26.7378002407
 20
77.88238481
 10
-26.7508560828
 20
77.87949161
 10
-26.7638427687
 20
77.8763032996
 10
-26.7767539816
 20
77.8728214286
 10
-26.7895829684
 20
77.869047815
  0
LWPOLYLINE
  5
5B5
100
AcDbEntity
  8
RACCORDO
100
AcDbPolyline
 62
253
  6
CONTINUOUS
 90
3
 70
0
 10
19.812107978
 20
77.8905833577
 10
19.8062726734
 20
77.8898433147
 10
19.8002183089
 20
77.8890140501
  0
LWPOLYLINE
  5
5B6
100
AcDbEntity
  8
RACCORDO
100
AcDbPolyline
 62
253
  6
CONTINUOUS
 90
3
 70
0
 10
12.312107978
 20
77.8905833577
 10
12.3062726734
 20
77.8898433147
 10
12.3002183089
 20
77.8890140501
  0
LWPOLYLINE
  5
5B7
100
AcDbEntity
  8
RACCORDO
100
AcDbPolyline
 62
253
  6
CONTINUOUS
 90
3
 70
0
 10
-19.187892022
 20
77.8905833577
 10
-19.1937273266
 20
77.8898433147
 10
-19.1997816911
 20
77.8890140501
  0
LWPOLYLINE
  5
5B8
100
AcDbEntity
  8
RACCORDO
100
AcDbPolyline
 62
253
  6
CONTINUOUS
 90
3
 70
0
 10
-26.687892022
 20
77.8905833577
 10
-26.6937273266
 20
77.8898433147
 10
-26.6997816911
 20
77.8890140501
  0
LINE
  5
5B9
100
AcDbEntity
  8
RACCORDO
100
AcDbLine
 62
7
  6
CONTINUOUS
 10
19.8132455768
 20
77.8907680058
 11
19.8121015784
 21
77.8906359983
  0
LINE
  5
5BA
100
AcDbEntity
  8
RACCORDO
100
AcDbLine
 62
7
  6
CONTINUOUS
 10
12.3132455768
 20
77.8907680058
 11
12.3121015784
 21
77.8906359983
  0
LINE
  5
5BB
100
AcDbEntity
  8
RACCORDO
100
AcDbLine
 62
7
  6
CONTINUOUS
 10
-19.1867544232
 20
77.8907680058
 11
-19.1878984216
 21
77.8906359983
  0
LINE
  5
5BC
100
AcDbEntity
  8
RACCORDO
100
AcDbLine
 62
7
  6
CONTINUOUS
 10
-26.6867544232
 20
77.8907680058
 11
-26.6878984216
 21
77.8906359983
  0
LINE
  5
5BD
100
AcDbEntity
  8
RACCORDO
100
AcDbLine
 62
7
  6
CONTINUOUS
 10
19.814580521
 20
77.890903646
 11
19.8131758182
 21
77.8907599563
  0
LINE
  5
5BE
100
AcDbEntity
  8
RACCORDO
100
AcDbLine
 62
7
  6
CONTINUOUS
 10
12.314580521
 20
77.890903646
 11
12.3131758182
 21
77.8907599563
  0
LINE
  5
5BF
100
AcDbEntity
  8
RACCORDO
100
AcDbLine
 62
7
  6
CONTINUOUS
 10
-19.185419479
 20
77.890903646
 11
-19.1868241818
 21
77.8907599563
  0
LINE
  5
5C0
100
AcDbEntity
  8
RACCORDO
100
AcDbLine
 62
7
  6
CONTINUOUS
 10
-26.685419479
 20
77.890903646
 11
-26.6868241818
 21
77.8907599563
  0
LINE
  5
5C1
100
AcDbEntity
  8
RACCORDO
100
AcDbLine
 62
7
  6
CONTINUOUS
 10
19.8158577056
 20
77.8910140028
 11
19.814475612
 21
77.8908937317
  0
LINE
  5
5C2
100
AcDbEntity
  8
RACCORDO
100
AcDbLine
 62
7
  6
CONTINUOUS
 10
12.3158577056
 20
77.8910140028
 11
12.314475612
 21
77.8908937317
  0
LINE
  5
5C3
100
AcDbEntity
  8
RACCORDO
100
AcDbLine
 62
7
  6
CONTINUOUS
 10
-19.1841422944
 20
77.8910140028
 11
-19.185524388
 21
77.8908937317
  0
LINE
  5
5C4
100
AcDbEntity
  8
RACCORDO
100
AcDbLine
 62
7
  6
CONTINUOUS
 10
-26.6841422944
 20
77.8910140028
 11
-26.685524388
 21
77.8908937317
  0
LINE
  5
5C5
100
AcDbEntity
  8
RACCORDO
100
AcDbLine
 62
7
  6
CONTINUOUS
 10
19.8170670087
 20
77.8910993684
 11
19.8157678393
 21
77.8910068842
  0
LINE
  5
5C6
100
AcDbEntity
  8
RACCORDO
100
AcDbLine
 62
7
  6
CONTINUOUS
 10
12.3170670087
 20
77.8910993684
 11
12.3157678393
 21
77.8910068842
  0
LINE
  5
5C7
100
AcDbEntity
  8
RACCORDO
100
AcDbLine
 62
7
  6
CONTINUOUS
 10
-19.1829329913
 20
77.8910993684
 11
-19.1842321607
 21
77.8910068842
  0
LINE
  5
5C8
100
AcDbEntity
  8
RACCORDO
100
AcDbLine
 62
7
  6
CONTINUOUS
 10
-26.6829329913
 20
77.8910993684
 11
-26.6842321607
 21
77.8910068842
  0
LINE
  5
5C9
100
AcDbEntity
  8
RACCORDO
100
AcDbLine
 62
7
  6
CONTINUOUS
 10
19.8541112364
 20
77.8581446238
 11
19.8527569818
 21
77.8580714823
  0
LINE
  5
5CA
100
AcDbEntity
  8
RACCORDO
100
AcDbLine
 62
7
  6
CONTINUOUS
 10
12.3541112364
 20
77.8581446238
 11
12.3527569818
 21
77.8580714823
  0
LINE
  5
5CB
100
AcDbEntity
  8
RACCORDO
100
AcDbLine
 62
7
  6
CONTINUOUS
 10
-19.1458887636
 20
77.8581446238
 11
-19.1472430034
 21
77.8580714834
  0
LINE
  5
5CC
100
AcDbEntity
  8
RACCORDO
100
AcDbLine
 62
7
  6
CONTINUOUS
 10
-26.6458887636
 20
77.8581446238
 11
-26.6472430034
 21
77.8580714834
  0
LINE
  5
5CD
100
AcDbEntity
  8
RACCORDO
100
AcDbLine
 62
7
  6
CONTINUOUS
 10
19.8182011201
 20
77.8911603076
 11
19.816991478
 21
77.8910946343
  0
LINE
  5
5CE
100
AcDbEntity
  8
RACCORDO
100
AcDbLine
 62
7
  6
CONTINUOUS
 10
12.3182011201
 20
77.8911603076
 11
12.316991478
 21
77.8910946343
  0
LINE
  5
5CF
100
AcDbEntity
  8
RACCORDO
100
AcDbLine
 62
7
  6
CONTINUOUS
 10
-19.1817988799
 20
77.8911603076
 11
-19.183008522
 21
77.8910946343
  0
LINE
  5
5D0
100
AcDbEntity
  8
RACCORDO
100
AcDbLine
 62
7
  6
CONTINUOUS
 10
-26.6817988799
 20
77.8911603076
 11
-26.683008522
 21
77.8910946343
  0
LINE
  5
5D1
100
AcDbEntity
  8
RACCORDO
100
AcDbLine
 62
7
  6
CONTINUOUS
 10
19.8581199085
 20
77.8583416459
 11
19.8539265867
 21
77.8581346512
  0
LINE
  5
5D2
100
AcDbEntity
  8
RACCORDO
100
AcDbLine
 62
7
  6
CONTINUOUS
 10
12.3581199085
 20
77.8583416459
 11
12.3539265867
 21
77.8581346512
  0
LINE
  5
5D3
100
AcDbEntity
  8
RACCORDO
100
AcDbLine
 62
7
  6
CONTINUOUS
 10
-19.1418800915
 20
77.8583416459
 11
-19.1460734133
 21
77.8581346512
  0
LINE
  5
5D4
100
AcDbEntity
  8
RACCORDO
100
AcDbLine
 62
7
  6
CONTINUOUS
 10
-26.6418800915
 20
77.8583416459
 11
-26.6460734133
 21
77.8581346512
  0
LINE
  5
5D5
100
AcDbEntity
  8
RACCORDO
100
AcDbLine
 62
7
  6
CONTINUOUS
 10
19.8527569976
 20
77.858071195
 11
19.8514210669
 21
77.858010105
  0
LINE
  5
5D6
100
AcDbEntity
  8
RACCORDO
100
AcDbLine
 62
7
  6
CONTINUOUS
 10
12.3527569976
 20
77.858071195
 11
12.3514210669
 21
77.858010105
  0
LINE
  5
5D7
100
AcDbEntity
  8
RACCORDO
100
AcDbLine
 62
7
  6
CONTINUOUS
 10
-19.1472430024
 20
77.858071195
 11
-19.1485789331
 21
77.858010105
  0
LINE
  5
5D8
100
AcDbEntity
  8
RACCORDO
100
AcDbLine
 62
7
  6
CONTINUOUS
 10
-26.6472430024
 20
77.858071195
 11
-26.6485789331
 21
77.858010105
  0
LINE
  5
5D9
100
AcDbEntity
  8
RACCORDO
100
AcDbLine
 62
7
  6
CONTINUOUS
 10
19.8621298899
 20
77.8585096191
 11
19.8578806104
 21
77.8583307016
  0
LINE
  5
5DA
100
AcDbEntity
  8
RACCORDO
100
AcDbLine
 62
7
  6
CONTINUOUS
 10
12.3621298899
 20
77.8585096191
 11
12.3578806104
 21
77.8583307016
  0
LINE
  5
5DB
100
AcDbEntity
  8
RACCORDO
100
AcDbLine
 62
7
  6
CONTINUOUS
 10
-19.1378701101
 20
77.8585096191
 11
-19.1421193896
 21
77.8583307016
  0
LINE
  5
5DC
100
AcDbEntity
  8
RACCORDO
100
AcDbLine
 62
7
  6
CONTINUOUS
 10
-26.6378701101
 20
77.8585096191
 11
-26.6421193896
 21
77.8583307016
  0
LINE
  5
5DD
100
AcDbEntity
  8
RACCORDO
100
AcDbLine
 62
253
  6
CONTINUOUS
 10
19.8527939939
 20
77.8574014163
 11
19.8501840481
 21
77.857295133
  0
LINE
  5
5DE
100
AcDbEntity
  8
RACCORDO
100
AcDbLine
 62
253
  6
CONTINUOUS
 10
12.3527939939
 20
77.8574014163
 11
12.3501840481
 21
77.857295133
  0
LINE
  5
5DF
100
AcDbEntity
  8
RACCORDO
100
AcDbLine
 62
253
  6
CONTINUOUS
 10
-19.1472060061
 20
77.8574014163
 11
-19.1498159519
 21
77.857295133
  0
LINE
  5
5E0
100
AcDbEntity
  8
RACCORDO
100
AcDbLine
 62
253
  6
CONTINUOUS
 10
-26.6472060061
 20
77.8574014163
 11
-26.6498159519
 21
77.857295133
  0
LINE
  5
5E1
100
AcDbEntity
  8
RACCORDO
100
AcDbLine
 62
7
  6
CONTINUOUS
 10
19.8192099133
 20
77.8911964539
 11
19.8181390201
 21
77.8911575072
  0
LINE
  5
5E2
100
AcDbEntity
  8
RACCORDO
100
AcDbLine
 62
7
  6
CONTINUOUS
 10
12.3192099133
 20
77.8911964539
 11
12.3181390201
 21
77.8911575072
  0
LINE
  5
5E3
100
AcDbEntity
  8
RACCORDO
100
AcDbLine
 62
7
  6
CONTINUOUS
 10
-19.1807900867
 20
77.8911964539
 11
-19.1818609799
 21
77.8911575072
  0
LINE
  5
5E4
100
AcDbEntity
  8
RACCORDO
100
AcDbLine
 62
7
  6
CONTINUOUS
 10
-26.6807900867
 20
77.8911964539
 11
-26.6818609799
 21
77.8911575072
  0
LINE
  5
5E5
100
AcDbEntity
  8
RACCORDO
100
AcDbLine
 62
7
  6
CONTINUOUS
 10
19.8661409445
 20
77.858648533
 11
19.861890534
 21
77.8585004095
  0
LINE
  5
5E6
100
AcDbEntity
  8
RACCORDO
100
AcDbLine
 62
7
  6
CONTINUOUS
 10
12.3661409445
 20
77.858648533
 11
12.361890534
 21
77.8585004095
  0
LINE
  5
5E7
100
AcDbEntity
  8
RACCORDO
100
AcDbLine
 62
7
  6
CONTINUOUS
 10
-19.1338590555
 20
77.858648533
 11
-19.138109466
 21
77.8585004095
  0
LINE
  5
5E8
100
AcDbEntity
  8
RACCORDO
100
AcDbLine
 62
7
  6
CONTINUOUS
 10
-26.6338590555
 20
77.858648533
 11
-26.638109466
 21
77.8585004095
  0
LWPOLYLINE
  5
5E9
100
AcDbEntity
  8
RACCORDO
100
AcDbPolyline
 62
253
  6
CONTINUOUS
 90
13
 70
0
 10
19.822279482
 20
77.8905833574
 10
19.8236724754
 20
77.8906294754
 10
19.8250583982
 20
77.890482882
 10
19.8264103274
 20
77.8901464249
 10
19.8277020006
 20
77.8896266402
 10
19.8289083259
 20
77.888933625
 10
19.8300058692
 20
77.888080842
 10
19.8309733099
 20
77.8870848571
 10
19.8317918544
 20
77.8859650183
 10
19.8324456017
 20
77.8847430795
 10
19.8329218523
 20
77.883442778
 10
19.8332113546
 20
77.8820893734
 10
19.8333084846
 20
77.8807091568
  0
LWPOLYLINE
  5
5EA
100
AcDbEntity
  8
RACCORDO
100
AcDbPolyline
 62
253
  6
CONTINUOUS
 90
13
 70
0
 10
12.322279482
 20
77.8905833574
 10
12.3236724754
 20
77.8906294754
 10
12.3250583982
 20
77.890482882
 10
12.3264103274
 20
77.8901464249
 10
12.3277020006
 20
77.8896266402
 10
12.3289083259
 20
77.888933625
 10
12.3300058692
 20
77.888080842
 10
12.3309733099
 20
77.8870848571
 10
12.3317918544
 20
77.8859650183
 10
12.3324456017
 20
77.8847430795
 10
12.3329218523
 20
77.883442778
 10
12.3332113546
 20
77.8820893734
 10
12.3333084846
 20
77.8807091568
  0
LWPOLYLINE
  5
5EB
100
AcDbEntity
  8
RACCORDO
100
AcDbPolyline
 62
253
  6
CONTINUOUS
 90
13
 70
0
 10
-19.177720518
 20
77.8905833574
 10
-19.1763275246
 20
77.8906294754
 10
-19.1749416018
 20
77.890482882
 10
-19.1735896726
 20
77.8901464249
 10
-19.1722979994
 20
77.8896266402
 10
-19.1710916741
 20
77.888933625
 10
-19.1699941308
 20
77.888080842
 10
-19.1690266901
 20
77.8870848571
 10
-19.1682081456
 20
77.8859650183
 10
-19.1675543983
 20
77.8847430795
 10
-19.1670781477
 20
77.883442778
 10
-19.1667886454
 20
77.8820893734
 10
-19.1666915154
 20
77.8807091568
  0
LWPOLYLINE
  5
5EC
100
AcDbEntity
  8
RACCORDO
100
AcDbPolyline
 62
253
  6
CONTINUOUS
 90
13
 70
0
 10
-26.677720518
 20
77.8905833574
 10
-26.6763275246
 20
77.8906294754
 10
-26.6749416018
 20
77.890482882
 10
-26.6735896726
 20
77.8901464249
 10
-26.6722979994
 20
77.8896266402
 10
-26.6710916741
 20
77.888933625
 10
-26.6699941308
 20
77.888080842
 10
-26.6690266901
 20
77.8870848571
 10
-26.6682081456
 20
77.8859650183
 10
-26.6675543983
 20
77.8847430795
 10
-26.6670781477
 20
77.883442778
 10
-26.6667886454
 20
77.8820893734
 10
-26.6666915154
 20
77.8807091568
  0
LWPOLYLINE
  5
5ED
100
AcDbEntity
  8
RACCORDO
100
AcDbPolyline
 62
253
  6
CONTINUOUS
 90
10
 70
0
 10
19.8222794825
 20
77.8657656606
 10
19.8236724779
 20
77.8658098259
 10
19.8250584027
 20
77.8656694464
 10
19.8264103341
 20
77.8653472492
 10
19.8277020096
 20
77.8648494933
 10
19.8289083371
 20
77.864185848
 10
19.8300058826
 20
77.8633692053
 10
19.8309733253
 20
77.8624154292
 10
19.8317918715
 20
77.8613430478
 10
19.8323877584
 20
77.8602764611
  0
LWPOLYLINE
  5
5EE
100
AcDbEntity
  8
RACCORDO
100
AcDbPolyline
 62
253
  6
CONTINUOUS
 90
10
 70
0
 10
12.3222794825
 20
77.8657656606
 10
12.3236724779
 20
77.8658098259
 10
12.3250584027
 20
77.8656694464
 10
12.3264103341
 20
77.8653472492
 10
12.3277020096
 20
77.8648494933
 10
12.3289083371
 20
77.864185848
 10
12.3300058826
 20
77.8633692053
 10
12.3309733253
 20
77.8624154292
 10
12.3317918715
 20
77.8613430478
 10
12.3323877584
 20
77.8602764611
  0
LWPOLYLINE
  5
5EF
100
AcDbEntity
  8
RACCORDO
100
AcDbPolyline
 62
253
  6
CONTINUOUS
 90
10
 70
0
 10
-19.1777205175
 20
77.8657656606
 10
-19.1763275221
 20
77.8658098259
 10
-19.1749415973
 20
77.8656694464
 10
-19.1735896659
 20
77.8653472492
 10
-19.1722979904
 20
77.8648494933
 10
-19.1710916629
 20
77.864185848
 10
-19.1699941174
 20
77.8633692053
 10
-19.1690266747
 20
77.8624154292
 10
-19.1682081285
 20
77.8613430478
 10
-19.1676122416
 20
77.8602764611
  0
LWPOLYLINE
  5
5F0
100
AcDbEntity
  8
RACCORDO
100
AcDbPolyline
 62
253
  6
CONTINUOUS
 90
10
 70
0
 10
-26.6777205175
 20
77.8657656606
 10
-26.6763275221
 20
77.8658098259
 10
-26.6749415973
 20
77.8656694464
 10
-26.6735896659
 20
77.8653472492
 10
-26.6722979904
 20
77.8648494933
 10
-26.6710916629
 20
77.864185848
 10
-26.6699941174
 20
77.8633692053
 10
-26.6690266747
 20
77.8624154292
 10
-26.6682081285
 20
77.8613430478
 10
-26.6676122416
 20
77.8602764611
  0
LINE
  5
5F1
100
AcDbEntity
  8
RACCORDO
100
AcDbLine
 62
7
  6
CONTINUOUS
 10
19.8701528762
 20
77.8587583818
 11
19.8659015356
 21
77.858641058
  0
LINE
  5
5F2
100
AcDbEntity
  8
RACCORDO
100
AcDbLine
 62
7
  6
CONTINUOUS
 10
12.3701528762
 20
77.8587583818
 11
12.3659015356
 21
77.858641058
  0
LINE
  5
5F3
100
AcDbEntity
  8
RACCORDO
100
AcDbLine
 62
7
  6
CONTINUOUS
 10
-19.1298471238
 20
77.8587583818
 11
-19.1340984644
 21
77.858641058
  0
LINE
  5
5F4
100
AcDbEntity
  8
RACCORDO
100
AcDbLine
 62
7
  6
CONTINUOUS
 10
-26.6298471238
 20
77.8587583818
 11
-26.6340984644
 21
77.858641058
  0
LINE
  5
5F5
100
AcDbEntity
  8
RACCORDO
100
AcDbLine
 62
7
  6
CONTINUOUS
 10
19.8514210669
 20
77.858010105
 11
19.8492762987
 21
77.8579547789
  0
LINE
  5
5F6
100
AcDbEntity
  8
RACCORDO
100
AcDbLine
 62
7
  6
CONTINUOUS
 10
12.3514210669
 20
77.858010105
 11
12.3492762987
 21
77.8579547789
  0
LINE
  5
5F7
100
AcDbEntity
  8
RACCORDO
100
AcDbLine
 62
7
  6
CONTINUOUS
 10
-19.1485789331
 20
77.858010105
 11
-19.1507237013
 21
77.8579547789
  0
LINE
  5
5F8
100
AcDbEntity
  8
RACCORDO
100
AcDbLine
 62
7
  6
CONTINUOUS
 10
-26.6485789331
 20
77.858010105
 11
-26.6507237013
 21
77.8579547789
  0
LINE
  5
5F9
100
AcDbEntity
  8
RACCORDO
100
AcDbLine
 62
7
  6
CONTINUOUS
 10
19.8741655028
 20
77.8588391607
 11
19.8699134207
 21
77.8587526417
  0
LINE
  5
5FA
100
AcDbEntity
  8
RACCORDO
100
AcDbLine
 62
7
  6
CONTINUOUS
 10
12.3741655028
 20
77.8588391607
 11
12.3699134207
 21
77.8587526417
  0
LINE
  5
5FB
100
AcDbEntity
  8
RACCORDO
100
AcDbLine
 62
7
  6
CONTINUOUS
 10
-19.1258344972
 20
77.8588391607
 11
-19.1300865793
 21
77.8587526417
  0
LINE
  5
5FC
100
AcDbEntity
  8
RACCORDO
100
AcDbLine
 62
7
  6
CONTINUOUS
 10
-26.6258344972
 20
77.8588391607
 11
-26.6300865793
 21
77.8587526417
  0
LWPOLYLINE
  5
5FD
100
AcDbEntity
  8
RACCORDO
100
AcDbPolyline
 62
7
  6
CONTINUOUS
 90
4
 70
0
 10
18.6533292493
 20
77.5979727229
 10
18.6596358391
 20
77.5980909621
 10
18.6663632466
 20
77.5981147933
 10
18.6733085057
 20
77.5980442166
  0
LINE
  5
5FE
100
AcDbEntity
  8
RACCORDO
100
AcDbLine
 62
7
  6
CONTINUOUS
 10
19.8211547198
 20
77.8912043434
 11
19.8182011201
 21
77.8911603076
  0
LINE
  5
5FF
100
AcDbEntity
  8
RACCORDO
100
AcDbLine
 62
7
  6
CONTINUOUS
 10
12.3211547198
 20
77.8912043434
 11
12.3182011201
 21
77.8911603076
  0
LINE
  5
600
100
AcDbEntity
  8
RACCORDO
100
AcDbLine
 62
7
  6
CONTINUOUS
 10
-19.1788452802
 20
77.8912043434
 11
-19.1817988799
 21
77.8911603076
  0
LINE
  5
601
100
AcDbEntity
  8
RACCORDO
100
AcDbLine
 62
7
  6
CONTINUOUS
 10
-26.6788452802
 20
77.8912043434
 11
-26.6817988799
 21
77.8911603076
  0
LINE
  5
602
100
AcDbEntity
  8
RACCORDO
100
AcDbLine
 62
7
  6
CONTINUOUS
 10
19.8781786211
 20
77.8588908654
 11
19.8739260058
 21
77.8588351554
  0
LINE
  5
603
100
AcDbEntity
  8
RACCORDO
100
AcDbLine
 62
7
  6
CONTINUOUS
 10
12.3781786211
 20
77.8588908654
 11
12.3739260058
 21
77.8588351554
  0
LINE
  5
604
100
AcDbEntity
  8
RACCORDO
100
AcDbLine
 62
7
  6
CONTINUOUS
 10
-19.1218213789
 20
77.8588908654
 11
-19.1260739942
 21
77.8588351554
  0
LINE
  5
605
100
AcDbEntity
  8
RACCORDO
100
AcDbLine
 62
7
  6
CONTINUOUS
 10
-26.6218213789
 20
77.8588908654
 11
-26.6260739942
 21
77.8588351554
  0
LWPOLYLINE
  5
606
100
AcDbEntity
  8
RACCORDO
100
AcDbPolyline
 62
253
  6
CONTINUOUS
 90
7
 70
0
 10
19.8501840481
 20
77.857295133
 10
19.8476155296
 20
77.8572624124
 10
19.8450954285
 20
77.8573033401
 10
19.8426220131
 20
77.8574181631
 10
19.8402108364
 20
77.8576062263
 10
19.8378942296
 20
77.8578659794
 10
19.8356763236
 20
77.8581970223
  0
LWPOLYLINE
  5
607
100
AcDbEntity
  8
RACCORDO
100
AcDbPolyline
 62
253
  6
CONTINUOUS
 90
7
 70
0
 10
12.3501840481
 20
77.857295133
 10
12.3476155296
 20
77.8572624124
 10
12.3450954285
 20
77.8573033401
 10
12.3426220131
 20
77.8574181631
 10
12.3402108364
 20
77.8576062263
 10
12.3378942296
 20
77.8578659794
 10
12.3356763236
 20
77.8581970223
  0
LWPOLYLINE
  5
608
100
AcDbEntity
  8
RACCORDO
100
AcDbPolyline
 62
253
  6
CONTINUOUS
 90
7
 70
0
 10
-19.1498159519
 20
77.857295133
 10
-19.1523844704
 20
77.8572624124
 10
-19.1549045715
 20
77.8573033401
 10
-19.1573779869
 20
77.8574181631
 10
-19.1597891636
 20
77.8576062263
 10
-19.1621057704
 20
77.8578659794
 10
-19.1643236764
 20
77.8581970223
  0
LWPOLYLINE
  5
609
100
AcDbEntity
  8
RACCORDO
100
AcDbPolyline
 62
253
  6
CONTINUOUS
 90
7
 70
0
 10
-26.6498159519
 20
77.857295133
 10
-26.6523844704
 20
77.8572624124
 10
-26.6549045715
 20
77.8573033401
 10
-26.6573779869
 20
77.8574181631
 10
-26.6597891636
 20
77.8576062263
 10
-26.6621057704
 20
77.8578659794
 10
-26.6643236764
 20
77.8581970223
  0
LWPOLYLINE
  5
60A
100
AcDbEntity
  8
RACCORDO
100
AcDbPolyline
 62
7
  6
CONTINUOUS
 90
3
 70
0
 10
-25.4066914943
 20
77.5980442167
 10
-25.3996608559
 20
77.598115477
 10
-25.392874291
 20
77.5980907356
  0
LWPOLYLINE
  5
60B
100
AcDbEntity
  8
RACCORDO
100
AcDbPolyline
 62
7
  6
CONTINUOUS
 90
6
 70
0
 10
19.9463758357
 20
77.89121229
 10
19.9454622917
 20
77.8912043434
 10
19.9446099877
 20
77.8911735904
 10
19.9438060573
 20
77.8911185071
 10
19.9430158709
 20
77.8910334874
 10
19.9422167976
 20
77.8909090133
  0
LWPOLYLINE
  5
60C
100
AcDbEntity
  8
RACCORDO
100
AcDbPolyline
 62
7
  6
CONTINUOUS
 90
6
 70
0
 10
12.4463758357
 20
77.89121229
 10
12.4454622917
 20
77.8912043434
 10
12.4446099877
 20
77.8911735904
 10
12.4438060573
 20
77.8911185071
 10
12.4430158709
 20
77.8910334874
 10
12.4422167976
 20
77.8909090133
  0
LWPOLYLINE
  5
60D
100
AcDbEntity
  8
RACCORDO
100
AcDbPolyline
 62
7
  6
CONTINUOUS
 90
5
 70
0
 10
-19.0536241643
 20
77.89121229
 10
-19.0545377083
 20
77.8912043434
 10
-19.0553900123
 20
77.8911735904
 10
-19.0561939427
 20
77.8911185071
 10
-19.0569841291
 20
77.8910334874
  0
LWPOLYLINE
  5
60E
100
AcDbEntity
  8
RACCORDO
100
AcDbPolyline
 62
7
  6
CONTINUOUS
 90
6
 70
0
 10
-26.5536241643
 20
77.89121229
 10
-26.5545377083
 20
77.8912043434
 10
-26.5553900123
 20
77.8911735904
 10
-26.5561939427
 20
77.8911185071
 10
-26.5569841291
 20
77.8910334874
 10
-26.5577832024
 20
77.8909090133
  0
LINE
  5
60F
100
AcDbEntity
  8
RACCORDO
100
AcDbLine
 62
7
  6
CONTINUOUS
 10
19.8821919887
 20
77.8589134938
 11
19.8779390851
 21
77.8588885951
  0
LINE
  5
610
100
AcDbEntity
  8
RACCORDO
100
AcDbLine
 62
7
  6
CONTINUOUS
 10
12.3821919887
 20
77.8589134938
 11
12.3779390851
 21
77.8588885951
  0
LINE
  5
611
100
AcDbEntity
  8
RACCORDO
100
AcDbLine
 62
7
  6
CONTINUOUS
 10
-19.1178080113
 20
77.8589134938
 11
-19.1220609149
 21
77.8588885951
  0
LINE
  5
612
100
AcDbEntity
  8
RACCORDO
100
AcDbLine
 62
7
  6
CONTINUOUS
 10
-26.6178080113
 20
77.8589134938
 11
-26.6220609149
 21
77.8588885951
  0
LWPOLYLINE
  5
613
100
AcDbEntity
  8
RACCORDO
100
AcDbPolyline
 62
253
  6
CONTINUOUS
 90
10
 70
0
 10
19.8833085057
 20
77.8582435314
 10
19.8799174642
 20
77.8582331525
 10
19.876528148
 20
77.8582020034
 10
19.8731388537
 20
77.8581500605
 10
19.8697447586
 20
77.8580771754
 10
19.8663472864
 20
77.8579834022
 10
19.8629541533
 20
77.8578689989
 10
19.859566866
 20
77.8577339905
 10
19.8561806798
 20
77.8575781679
 10
19.8527939939
 20
77.8574014163
  0
LWPOLYLINE
  5
614
100
AcDbEntity
  8
RACCORDO
100
AcDbPolyline
 62
253
  6
CONTINUOUS
 90
10
 70
0
 10
12.3833085057
 20
77.8582435314
 10
12.3799174642
 20
77.8582331525
 10
12.376528148
 20
77.8582020034
 10
12.3731388537
 20
77.8581500605
 10
12.3697447586
 20
77.8580771754
 10
12.3663472864
 20
77.8579834022
 10
12.3629541533
 20
77.8578689989
 10
12.359566866
 20
77.8577339905
 10
12.3561806798
 20
77.8575781679
 10
12.3527939939
 20
77.8574014163
  0
LWPOLYLINE
  5
615
100
AcDbEntity
  8
RACCORDO
100
AcDbPolyline
 62
253
  6
CONTINUOUS
 90
10
 70
0
 10
-19.1166914943
 20
77.8582435314
 10
-19.1200825358
 20
77.8582331525
 10
-19.123471852
 20
77.8582020034
 10
-19.1268611463
 20
77.8581500605
 10
-19.1302552414
 20
77.8580771754
 10
-19.1336527136
 20
77.8579834022
 10
-19.1370458467
 20
77.8578689989
 10
-19.140433134
 20
77.8577339905
 10
-19.1438193202
 20
77.8575781679
 10
-19.1472060061
 20
77.8574014163
  0
LWPOLYLINE
  5
616
100
AcDbEntity
  8
RACCORDO
100
AcDbPolyline
 62
253
  6
CONTINUOUS
 90
10
 70
0
 10
-26.6166914943
 20
77.8582435314
 10
-26.6200825358
 20
77.8582331525
 10
-26.623471852
 20
77.8582020034
 10
-26.6268611463
 20
77.8581500605
 10
-26.6302552414
 20
77.8580771754
 10
-26.6336527136
 20
77.8579834022
 10
-26.6370458467
 20
77.8578689989
 10
-26.640433134
 20
77.8577339905
 10
-26.6438193202
 20
77.8575781679
 10
-26.6472060061
 20
77.8574014163
  0
LINE
  5
617
100
AcDbEntity
  8
0
100
AcDbLine
 62
253
  6
CONTINUOUS
 10
32.1333085057
 20
77.2480442121
 11
-38.8666914943
 21
77.2480442121
  0
LINE
  5
618
100
AcDbEntity
  8
RACCORDO
100
AcDbLine
 62
7
  6
CONTINUOUS
 10
36.6333085057
 20
77.2980442121
 11
32.6333085057
 21
77.2980442121
  0
LINE
  5
619
100
AcDbEntity
  8
0
100
AcDbLine
 62
7
  6
CONTINUOUS
 10
32.1333085057
 20
77.2980442121
 11
36.6333085057
 21
77.2980442121
  0
LINE
  5
61A
100
AcDbEntity
  8
0
100
AcDbLine
 62
7
  6
CONTINUOUS
 10
-38.8666914943
 20
77.2980442121
 11
-43.3666914943
 21
77.2980442121
  0
LINE
  5
61B
100
AcDbEntity
  8
RACCORDO
100
AcDbLine
 62
7
  6
CONTINUOUS
 10
-39.3666914943
 20
77.2980442121
 11
-43.3666914943
 21
77.2980442121
  0
LINE
  5
61C
100
AcDbEntity
  8
RACCORDO
100
AcDbLine
 62
7
  6
CONTINUOUS
 10
32.6333085057
 20
77.4480442121
 11
36.6333085057
 21
77.4480442121
  0
LINE
  5
61D
100
AcDbEntity
  8
0
100
AcDbLine
 62
7
  6
CONTINUOUS
 10
32.6333085057
 20
77.4480442121
 11
-39.3666914943
 21
77.4480442121
  0
LINE
  5
61E
100
AcDbEntity
  8
RACCORDO
100
AcDbLine
 62
7
  6
CONTINUOUS
 10
-39.3666914943
 20
77.4480442121
 11
-43.3666914943
 21
77.4480442121
  0
LINE
  5
61F
100
AcDbEntity
  8
0
100
AcDbLine
 62
7
  6
CONTINUOUS
 10
18.6733072056
 20
77.5980442121
 11
13.6333085057
 21
77.5980442121
  0
LINE
  5
620
100
AcDbEntity
  8
RACCORDO
100
AcDbLine
 62
7
  6
CONTINUOUS
 10
20.7333085057
 20
77.5980442121
 11
-25.5634539512
 21
77.5980442121
  0
LINE
  5
621
100
AcDbEntity
  8
0
100
AcDbLine
 62
7
  6
CONTINUOUS
 10
-20.3666914943
 20
77.5980442121
 11
-25.4066901942
 21
77.5980442121
  0
LINE
  5
622
100
AcDbEntity
  8
RACCORDO
100
AcDbLine
 62
7
  6
CONTINUOUS
 10
-25.5666914943
 20
77.5980442121
 11
-27.4666914943
 21
77.5980442121
  0
LINE
  5
623
100
AcDbEntity
  8
0
100
AcDbLine
 62
253
  6
CONTINUOUS
 10
11.8865568279
 20
77.6289703866
 11
12.8800601836
 21
77.6289703866
  0
LINE
  5
624
100
AcDbEntity
  8
0
100
AcDbLine
 62
253
  6
CONTINUOUS
 10
19.3865568279
 20
77.6289703866
 11
20.3800601836
 21
77.6289703866
  0
LINE
  5
625
100
AcDbEntity
  8
0
100
AcDbLine
 62
253
  6
CONTINUOUS
 10
-18.6199398164
 20
77.6289703866
 11
-19.6134431721
 21
77.6289703866
  0
LINE
  5
626
100
AcDbEntity
  8
0
100
AcDbLine
 62
253
  6
CONTINUOUS
 10
-26.1199398164
 20
77.6289703866
 11
-27.1134431721
 21
77.6289703866
  0
LINE
  5
627
100
AcDbEntity
  8
RACCORDO
100
AcDbLine
 62
7
  6
CONTINUOUS
 10
-26.6153354041
 20
77.8589129591
 11
-26.6180475844
 21
77.8589129591
  0
LINE
  5
628
100
AcDbEntity
  8
RACCORDO
100
AcDbLine
 62
7
  6
CONTINUOUS
 10
-19.1153354041
 20
77.8589129591
 11
-19.1180475844
 21
77.8589129591
  0
LINE
  5
629
100
AcDbEntity
  8
RACCORDO
100
AcDbLine
 62
7
  6
CONTINUOUS
 10
12.3846645959
 20
77.8589129591
 11
12.3819524156
 21
77.8589129591
  0
LINE
  5
62A
100
AcDbEntity
  8
RACCORDO
100
AcDbLine
 62
7
  6
CONTINUOUS
 10
19.8846645959
 20
77.8589129591
 11
19.8819524156
 21
77.8589129591
  0
LWPOLYLINE
  5
62B
100
AcDbEntity
  8
RACCORDO
100
AcDbPolyline
 62
7
  6
CONTINUOUS
 90
10
 70
0
 10
-26.6507237013
 20
77.8579547789
 10
-26.6529348661
 20
77.8579606222
 10
-26.6550633369
 20
77.8580286393
 10
-26.657081275
 20
77.8581540943
 10
-26.658972728
 20
77.8583304644
 10
-26.6607223479
 20
77.8585513712
 10
-26.6623075194
 20
77.8588075432
 10
-26.6637205846
 20
77.8590892561
 10
-26.6649561975
 20
77.8593863558
 10
-26.6660007534
 20
77.8596850445
  0
LWPOLYLINE
  5
62C
100
AcDbEntity
  8
RACCORDO
100
AcDbPolyline
 62
7
  6
CONTINUOUS
 90
10
 70
0
 10
-19.1507237013
 20
77.8579547789
 10
-19.1529348661
 20
77.8579606222
 10
-19.1550633369
 20
77.8580286393
 10
-19.157081275
 20
77.8581540943
 10
-19.158972728
 20
77.8583304644
 10
-19.1607223479
 20
77.8585513712
 10
-19.1623075194
 20
77.8588075432
 10
-19.1637205846
 20
77.8590892561
 10
-19.1649561975
 20
77.8593863558
 10
-19.1660007534
 20
77.8596850445
  0
LWPOLYLINE
  5
62D
100
AcDbEntity
  8
RACCORDO
100
AcDbPolyline
 62
7
  6
CONTINUOUS
 90
10
 70
0
 10
12.3492762987
 20
77.8579547789
 10
12.3470651339
 20
77.8579606222
 10
12.3449366631
 20
77.8580286393
 10
12.342918725
 20
77.8581540943
 10
12.341027272
 20
77.8583304644
 10
12.3392776521
 20
77.8585513712
 10
12.3376924806
 20
77.8588075432
 10
12.3362794154
 20
77.8590892561
 10
12.3350438025
 20
77.8593863558
 10
12.3339992466
 20
77.8596850445
  0
LWPOLYLINE
  5
62E
100
AcDbEntity
  8
RACCORDO
100
AcDbPolyline
 62
7
  6
CONTINUOUS
 90
10
 70
0
 10
19.8492762987
 20
77.8579547789
 10
19.8470651339
 20
77.8579606222
 10
19.8449366631
 20
77.8580286393
 10
19.842918725
 20
77.8581540943
 10
19.841027272
 20
77.8583304644
 10
19.8392776521
 20
77.8585513712
 10
19.8376924806
 20
77.8588075432
 10
19.8362794154
 20
77.8590892561
 10
19.8350438025
 20
77.8593863558
 10
19.8339992466
 20
77.8596850445
  0
LINE
  5
62F
100
AcDbEntity
  8
RACCORDO
100
AcDbLine
 62
7
  6
CONTINUOUS
 10
-26.6113220736
 20
77.8588885951
 11
-26.6155202792
 21
77.8589131854
  0
LINE
  5
630
100
AcDbEntity
  8
RACCORDO
100
AcDbLine
 62
7
  6
CONTINUOUS
 10
-19.1113220736
 20
77.8588885951
 11
-19.1155202792
 21
77.8589131854
  0
LINE
  5
631
100
AcDbEntity
  8
RACCORDO
100
AcDbLine
 62
7
  6
CONTINUOUS
 10
12.3886779264
 20
77.8588885951
 11
12.3844797208
 21
77.8589131854
  0
LINE
  5
632
100
AcDbEntity
  8
RACCORDO
100
AcDbLine
 62
7
  6
CONTINUOUS
 10
19.8886779264
 20
77.8588885951
 11
19.8844797208
 21
77.8589131854
  0
LINE
  5
633
100
AcDbEntity
  8
RACCORDO
100
AcDbLine
 62
7
  6
CONTINUOUS
 10
-26.6073089943
 20
77.8588351554
 11
-26.6115616096
 21
77.8588908654
  0
LINE
  5
634
100
AcDbEntity
  8
RACCORDO
100
AcDbLine
 62
7
  6
CONTINUOUS
 10
-19.1073089943
 20
77.8588351554
 11
-19.1115616096
 21
77.8588908654
  0
LINE
  5
635
100
AcDbEntity
  8
RACCORDO
100
AcDbLine
 62
7
  6
CONTINUOUS
 10
12.3926910057
 20
77.8588351554
 11
12.3884383904
 21
77.8588908654
  0
LINE
  5
636
100
AcDbEntity
  8
RACCORDO
100
AcDbLine
 62
7
  6
CONTINUOUS
 10
19.8926910057
 20
77.8588351554
 11
19.8884383904
 21
77.8588908654
  0
LINE
  5
637
100
AcDbEntity
  8
RACCORDO
100
AcDbLine
 62
7
  6
CONTINUOUS
 10
-26.5525929018
 20
77.8911964539
 11
-26.5535865002
 21
77.8912121547
  0
LINE
  5
638
100
AcDbEntity
  8
RACCORDO
100
AcDbLine
 62
7
  6
CONTINUOUS
 10
-19.0525929018
 20
77.8911964539
 11
-19.0535865002
 21
77.8912121547
  0
LINE
  5
639
100
AcDbEntity
  8
RACCORDO
100
AcDbLine
 62
7
  6
CONTINUOUS
 10
12.4474070982
 20
77.8911964539
 11
12.4464134998
 21
77.8912121547
  0
LINE
  5
63A
100
AcDbEntity
  8
RACCORDO
100
AcDbLine
 62
7
  6
CONTINUOUS
 10
19.9474070982
 20
77.8911964539
 11
19.9464134998
 21
77.8912121547
  0
LWPOLYLINE
  5
63B
100
AcDbEntity
  8
RACCORDO
100
AcDbPolyline
 62
7
  6
CONTINUOUS
 90
8
 70
0
 10
-25.392874291
 20
77.5980907356
 10
-25.3865378519
 20
77.5979699927
 10
-25.3808453192
 20
77.5977986596
 10
-25.3759549275
 20
77.5975313249
 10
-25.3719936754
 20
77.5970317542
 10
-25.3690759947
 20
77.596254536
 10
-25.3672916481
 20
77.5952450818
 10
-25.3666914943
 20
77.5940033916
  0
LINE
  5
63C
100
AcDbEntity
  8
RACCORDO
100
AcDbLine
 62
7
  6
CONTINUOUS
 10
-26.6032964092
 20
77.8587526417
 11
-26.6075484913
 21
77.8588391607
  0
LINE
  5
63D
100
AcDbEntity
  8
RACCORDO
100
AcDbLine
 62
7
  6
CONTINUOUS
 10
-19.1032964092
 20
77.8587526417
 11
-19.1075484913
 21
77.8588391607
  0
LINE
  5
63E
100
AcDbEntity
  8
RACCORDO
100
AcDbLine
 62
7
  6
CONTINUOUS
 10
12.3967035908
 20
77.8587526417
 11
12.3924515087
 21
77.8588391607
  0
LINE
  5
63F
100
AcDbEntity
  8
RACCORDO
100
AcDbLine
 62
7
  6
CONTINUOUS
 10
19.8967035908
 20
77.8587526417
 11
19.8924515087
 21
77.8588391607
  0
LINE
  5
640
100
AcDbEntity
  8
RACCORDO
100
AcDbLine
 62
7
  6
CONTINUOUS
 10
-26.5823723888
 20
77.8579517927
 11
-26.5848040554
 21
77.858010105
  0
LINE
  5
641
100
AcDbEntity
  8
RACCORDO
100
AcDbLine
 62
7
  6
CONTINUOUS
 10
-19.0823723888
 20
77.8579517927
 11
-19.0848040554
 21
77.858010105
  0
LINE
  5
642
100
AcDbEntity
  8
RACCORDO
100
AcDbLine
 62
7
  6
CONTINUOUS
 10
12.4176276112
 20
77.8579517927
 11
12.4151959446
 21
77.858010105
  0
LINE
  5
643
100
AcDbEntity
  8
RACCORDO
100
AcDbLine
 62
7
  6
CONTINUOUS
 10
19.9176276112
 20
77.8579517927
 11
19.9151959446
 21
77.858010105
  0
LINE
  5
644
100
AcDbEntity
  8
RACCORDO
100
AcDbLine
 62
7
  6
CONTINUOUS
 10
-26.5992845241
 20
77.858641058
 11
-26.6035358647
 21
77.8587583818
  0
LINE
  5
645
100
AcDbEntity
  8
RACCORDO
100
AcDbLine
 62
7
  6
CONTINUOUS
 10
-19.0992845241
 20
77.858641058
 11
-19.1035358647
 21
77.8587583818
  0
LINE
  5
646
100
AcDbEntity
  8
RACCORDO
100
AcDbLine
 62
7
  6
CONTINUOUS
 10
12.4007154759
 20
77.858641058
 11
12.3964641353
 21
77.8587583818
  0
LINE
  5
647
100
AcDbEntity
  8
RACCORDO
100
AcDbLine
 62
7
  6
CONTINUOUS
 10
19.9007154759
 20
77.858641058
 11
19.8964641353
 21
77.8587583818
  0
LWPOLYLINE
  5
648
100
AcDbEntity
  8
RACCORDO
100
AcDbPolyline
 62
253
  6
CONTINUOUS
 90
10
 70
0
 10
-26.5556625145
 20
77.8657652621
 10
-26.557055543
 20
77.8658095471
 10
-26.558441517
 20
77.8656692721
 10
-26.5597935096
 20
77.8653471623
 10
-26.5610852538
 20
77.8648494757
 10
-26.5622916536
 20
77.8641858814
 10
-26.5633892706
 20
77.863369272
 10
-26.5643567801
 20
77.8624155127
 10
-26.5651753853
 20
77.8613431333
 10
-26.5657724629
 20
77.8602744839
  0
LWPOLYLINE
  5
649
100
AcDbEntity
  8
RACCORDO
100
AcDbPolyline
 62
253
  6
CONTINUOUS
 90
10
 70
0
 10
-19.0556625145
 20
77.8657652621
 10
-19.057055543
 20
77.8658095471
 10
-19.058441517
 20
77.8656692721
 10
-19.0597935096
 20
77.8653471623
 10
-19.0610852538
 20
77.8648494757
 10
-19.0622916536
 20
77.8641858814
 10
-19.0633892706
 20
77.863369272
 10
-19.0643567801
 20
77.8624155127
 10
-19.0651753853
 20
77.8613431333
 10
-19.0657724629
 20
77.8602744839
  0
LWPOLYLINE
  5
64A
100
AcDbEntity
  8
RACCORDO
100
AcDbPolyline
 62
253
  6
CONTINUOUS
 90
10
 70
0
 10
12.4443374855
 20
77.8657652621
 10
12.442944457
 20
77.8658095471
 10
12.441558483
 20
77.8656692721
 10
12.4402064904
 20
77.8653471623
 10
12.4389147462
 20
77.8648494757
 10
12.4377083464
 20
77.8641858814
 10
12.4366107294
 20
77.863369272
 10
12.4356432199
 20
77.8624155127
 10
12.4348246147
 20
77.8613431333
 10
12.4342275371
 20
77.8602744839
  0
LWPOLYLINE
  5
64B
100
AcDbEntity
  8
RACCORDO
100
AcDbPolyline
 62
253
  6
CONTINUOUS
 90
10
 70
0
 10
19.9443374855
 20
77.8657652621
 10
19.942944457
 20
77.8658095471
 10
19.941558483
 20
77.8656692721
 10
19.9402064904
 20
77.8653471623
 10
19.9389147462
 20
77.8648494757
 10
19.9377083464
 20
77.8641858814
 10
19.9366107294
 20
77.863369272
 10
19.9356432199
 20
77.8624155127
 10
19.9348246147
 20
77.8613431333
 10
19.9342275371
 20
77.8602744839
  0
LWPOLYLINE
  5
64C
100
AcDbEntity
  8
RACCORDO
100
AcDbPolyline
 62
253
  6
CONTINUOUS
 90
11
 70
0
 10
-26.5556624707
 20
77.8905833558
 10
-26.5570554664
 20
77.8906294755
 10
-26.5584413915
 20
77.8904828836
 10
-26.5597933232
 20
77.8901464277
 10
-26.561084999
 20
77.8896266438
 10
-26.5622913267
 20
77.8889336291
 10
-26.5633888723
 20
77.8880808462
 10
-26.564356315
 20
77.8870848611
 10
-26.5651748612
 20
77.8859650219
 10
-26.56582861
 20
77.8847430824
 10
-26.5662670969
 20
77.8835458883
  0
LWPOLYLINE
  5
64D
100
AcDbEntity
  8
RACCORDO
100
AcDbPolyline
 62
253
  6
CONTINUOUS
 90
11
 70
0
 10
-19.0556624707
 20
77.8905833558
 10
-19.0570554664
 20
77.8906294755
 10
-19.0584413915
 20
77.8904828836
 10
-19.0597933232
 20
77.8901464277
 10
-19.061084999
 20
77.8896266438
 10
-19.0622913267
 20
77.8889336291
 10
-19.0633888723
 20
77.8880808462
 10
-19.064356315
 20
77.8870848611
 10
-19.0651748612
 20
77.8859650219
 10
-19.06582861
 20
77.8847430824
 10
-19.0662670969
 20
77.8835458883
  0
LWPOLYLINE
  5
64E
100
AcDbEntity
  8
RACCORDO
100
AcDbPolyline
 62
253
  6
CONTINUOUS
 90
11
 70
0
 10
12.4443375293
 20
77.8905833558
 10
12.4429445336
 20
77.8906294755
 10
12.4415586085
 20
77.8904828836
 10
12.4402066768
 20
77.8901464277
 10
12.438915001
 20
77.8896266438
 10
12.4377086733
 20
77.8889336291
 10
12.4366111277
 20
77.8880808462
 10
12.435643685
 20
77.8870848611
 10
12.4348251388
 20
77.8859650219
 10
12.43417139
 20
77.8847430824
 10
12.4337329031
 20
77.8835458883
  0
LWPOLYLINE
  5
64F
100
AcDbEntity
  8
RACCORDO
100
AcDbPolyline
 62
253
  6
CONTINUOUS
 90
11
 70
0
 10
19.9443375293
 20
77.8905833558
 10
19.9429445336
 20
77.8906294755
 10
19.9415586085
 20
77.8904828836
 10
19.9402066768
 20
77.8901464277
 10
19.938915001
 20
77.8896266438
 10
19.9377086733
 20
77.8889336291
 10
19.9366111277
 20
77.8880808462
 10
19.935643685
 20
77.8870848611
 10
19.9348251388
 20
77.8859650219
 10
19.93417139
 20
77.8847430824
 10
19.9337329031
 20
77.8835458883
  0
LINE
  5
650
100
AcDbEntity
  8
RACCORDO
100
AcDbLine
 62
7
  6
CONTINUOUS
 10
-26.5952735226
 20
77.8585004095
 11
-26.599523933
 21
77.858648533
  0
LINE
  5
651
100
AcDbEntity
  8
RACCORDO
100
AcDbLine
 62
7
  6
CONTINUOUS
 10
-19.0952735226
 20
77.8585004095
 11
-19.099523933
 21
77.858648533
  0
LINE
  5
652
100
AcDbEntity
  8
RACCORDO
100
AcDbLine
 62
7
  6
CONTINUOUS
 10
12.4047264774
 20
77.8585004095
 11
12.400476067
 21
77.858648533
  0
LINE
  5
653
100
AcDbEntity
  8
RACCORDO
100
AcDbLine
 62
7
  6
CONTINUOUS
 10
19.9047264774
 20
77.8585004095
 11
19.900476067
 21
77.858648533
  0
LINE
  5
654
100
AcDbEntity
  8
RACCORDO
100
AcDbLine
 62
7
  6
CONTINUOUS
 10
-26.5515220086
 20
77.8911575072
 11
-26.5526423714
 21
77.8911977637
  0
LINE
  5
655
100
AcDbEntity
  8
RACCORDO
100
AcDbLine
 62
7
  6
CONTINUOUS
 10
-19.0515220086
 20
77.8911575072
 11
-19.0526423714
 21
77.8911977637
  0
LINE
  5
656
100
AcDbEntity
  8
RACCORDO
100
AcDbLine
 62
7
  6
CONTINUOUS
 10
12.4484779914
 20
77.8911575072
 11
12.4473576286
 21
77.8911977637
  0
LINE
  5
657
100
AcDbEntity
  8
RACCORDO
100
AcDbLine
 62
7
  6
CONTINUOUS
 10
19.9484779914
 20
77.8911575072
 11
19.9473576286
 21
77.8911977637
  0
LINE
  5
658
100
AcDbEntity
  8
RACCORDO
100
AcDbLine
 62
253
  6
CONTINUOUS
 10
-26.5835752
 20
77.8572951442
 11
-26.5861769824
 21
77.8574014163
  0
LINE
  5
659
100
AcDbEntity
  8
RACCORDO
100
AcDbLine
 62
253
  6
CONTINUOUS
 10
-19.0835752
 20
77.8572951442
 11
-19.0861769824
 21
77.8574014163
  0
LINE
  5
65A
100
AcDbEntity
  8
RACCORDO
100
AcDbLine
 62
253
  6
CONTINUOUS
 10
12.4164248
 20
77.8572951442
 11
12.4138230176
 21
77.8574014163
  0
LINE
  5
65B
100
AcDbEntity
  8
RACCORDO
100
AcDbLine
 62
253
  6
CONTINUOUS
 10
19.9164248
 20
77.8572951442
 11
19.9138230176
 21
77.8574014163
  0
LINE
  5
65C
100
AcDbEntity
  8
RACCORDO
100
AcDbLine
 62
7
  6
CONTINUOUS
 10
-26.5912635989
 20
77.8583307016
 11
-26.5955128784
 21
77.8585096191
  0
LINE
  5
65D
100
AcDbEntity
  8
RACCORDO
100
AcDbLine
 62
7
  6
CONTINUOUS
 10
-19.0912635989
 20
77.8583307016
 11
-19.0955128784
 21
77.8585096191
  0
LINE
  5
65E
100
AcDbEntity
  8
RACCORDO
100
AcDbLine
 62
7
  6
CONTINUOUS
 10
12.4087364011
 20
77.8583307016
 11
12.4044871216
 21
77.8585096191
  0
LINE
  5
65F
100
AcDbEntity
  8
RACCORDO
100
AcDbLine
 62
7
  6
CONTINUOUS
 10
19.9087364011
 20
77.8583307016
 11
19.9044871216
 21
77.8585096191
  0
LINE
  5
660
100
AcDbEntity
  8
RACCORDO
100
AcDbLine
 62
7
  6
CONTINUOUS
 10
-26.5848040554
 20
77.858010105
 11
-26.5861399861
 21
77.858071195
  0
LINE
  5
661
100
AcDbEntity
  8
RACCORDO
100
AcDbLine
 62
7
  6
CONTINUOUS
 10
-19.0848040554
 20
77.858010105
 11
-19.0861399861
 21
77.858071195
  0
LINE
  5
662
100
AcDbEntity
  8
RACCORDO
100
AcDbLine
 62
7
  6
CONTINUOUS
 10
12.4151959446
 20
77.858010105
 11
12.4138600139
 21
77.858071195
  0
LINE
  5
663
100
AcDbEntity
  8
RACCORDO
100
AcDbLine
 62
7
  6
CONTINUOUS
 10
19.9151959446
 20
77.858010105
 11
19.9138600139
 21
77.858071195
  0
LINE
  5
664
100
AcDbEntity
  8
RACCORDO
100
AcDbLine
 62
7
  6
CONTINUOUS
 10
-26.587254984
 20
77.8581319444
 11
-26.591502897
 21
77.8583416459
  0
LINE
  5
665
100
AcDbEntity
  8
RACCORDO
100
AcDbLine
 62
7
  6
CONTINUOUS
 10
-19.087254984
 20
77.8581319444
 11
-19.091502897
 21
77.8583416459
  0
LINE
  5
666
100
AcDbEntity
  8
RACCORDO
100
AcDbLine
 62
7
  6
CONTINUOUS
 10
12.412745016
 20
77.8581319444
 11
12.408497103
 21
77.8583416459
  0
LINE
  5
667
100
AcDbEntity
  8
RACCORDO
100
AcDbLine
 62
7
  6
CONTINUOUS
 10
19.912745016
 20
77.8581319444
 11
19.908497103
 21
77.8583416459
  0
LWPOLYLINE
  5
668
100
AcDbEntity
  8
RACCORDO
100
AcDbPolyline
 62
253
  6
CONTINUOUS
 90
10
 70
0
 10
-26.5861769824
 20
77.8574014163
 10
-26.5895637167
 20
77.8575781698
 10
-26.5929499368
 20
77.8577339936
 10
-26.5963372434
 20
77.8578690026
 10
-26.5997303787
 20
77.8579834056
 10
-26.6031278388
 20
77.8580771777
 10
-26.6065219165
 20
77.8581500618
 10
-26.6099111913
 20
77.8582020042
 10
-26.6133004827
 20
77.8582331529
 10
-26.6166914943
 20
77.8582435314
  0
LWPOLYLINE
  5
669
100
AcDbEntity
  8
RACCORDO
100
AcDbPolyline
 62
253
  6
CONTINUOUS
 90
10
 70
0
 10
-19.0861769824
 20
77.8574014163
 10
-19.0895637167
 20
77.8575781698
 10
-19.0929499368
 20
77.8577339936
 10
-19.0963372434
 20
77.8578690026
 10
-19.0997303787
 20
77.8579834056
 10
-19.1031278388
 20
77.8580771777
 10
-19.1065219165
 20
77.8581500618
 10
-19.1099111913
 20
77.8582020042
 10
-19.1133004827
 20
77.8582331529
 10
-19.1166914943
 20
77.8582435314
  0
LWPOLYLINE
  5
66A
100
AcDbEntity
  8
RACCORDO
100
AcDbPolyline
 62
253
  6
CONTINUOUS
 90
10
 70
0
 10
12.4138230176
 20
77.8574014163
 10
12.4104362833
 20
77.8575781698
 10
12.4070500632
 20
77.8577339936
 10
12.4036627566
 20
77.8578690026
 10
12.4002696213
 20
77.8579834056
 10
12.3968721612
 20
77.8580771777
 10
12.3934780835
 20
77.8581500618
 10
12.3900888087
 20
77.8582020042
 10
12.3866995173
 20
77.8582331529
 10
12.3833085057
 20
77.8582435314
  0
LWPOLYLINE
  5
66B
100
AcDbEntity
  8
RACCORDO
100
AcDbPolyline
 62
253
  6
CONTINUOUS
 90
10
 70
0
 10
19.9138230176
 20
77.8574014163
 10
19.9104362833
 20
77.8575781698
 10
19.9070500632
 20
77.8577339936
 10
19.9036627566
 20
77.8578690026
 10
19.9002696213
 20
77.8579834056
 10
19.8968721612
 20
77.8580771777
 10
19.8934780835
 20
77.8581500618
 10
19.8900888087
 20
77.8582020042
 10
19.8866995173
 20
77.8582331529
 10
19.8833085057
 20
77.8582435314
  0
LINE
  5
66C
100
AcDbEntity
  8
RACCORDO
100
AcDbLine
 62
7
  6
CONTINUOUS
 10
-26.5861399852
 20
77.8580714834
 11
-26.5874942249
 21
77.8581446238
  0
LINE
  5
66D
100
AcDbEntity
  8
RACCORDO
100
AcDbLine
 62
7
  6
CONTINUOUS
 10
-19.0861399852
 20
77.8580714834
 11
-19.0874942249
 21
77.8581446238
  0
LINE
  5
66E
100
AcDbEntity
  8
RACCORDO
100
AcDbLine
 62
7
  6
CONTINUOUS
 10
12.4138600148
 20
77.8580714834
 11
12.4125057751
 21
77.8581446238
  0
LINE
  5
66F
100
AcDbEntity
  8
RACCORDO
100
AcDbLine
 62
7
  6
CONTINUOUS
 10
19.9138600148
 20
77.8580714834
 11
19.9125057751
 21
77.8581446238
  0
LINE
  5
670
100
AcDbEntity
  8
RACCORDO
100
AcDbLine
 62
7
  6
CONTINUOUS
 10
-26.5503744665
 20
77.8910946343
 11
-26.5515841086
 21
77.8911603076
  0
LINE
  5
671
100
AcDbEntity
  8
RACCORDO
100
AcDbLine
 62
7
  6
CONTINUOUS
 10
-19.0503744665
 20
77.8910946343
 11
-19.0515841086
 21
77.8911603076
  0
LINE
  5
672
100
AcDbEntity
  8
RACCORDO
100
AcDbLine
 62
7
  6
CONTINUOUS
 10
12.4496255335
 20
77.8910946343
 11
12.4484158914
 21
77.8911603076
  0
LINE
  5
673
100
AcDbEntity
  8
RACCORDO
100
AcDbLine
 62
7
  6
CONTINUOUS
 10
19.9496255335
 20
77.8910946343
 11
19.9484158914
 21
77.8911603076
  0
LINE
  5
674
100
AcDbEntity
  8
RACCORDO
100
AcDbLine
 62
7
  6
CONTINUOUS
 10
-26.5491508278
 20
77.8910068842
 11
-26.5504499972
 21
77.8910993684
  0
LINE
  5
675
100
AcDbEntity
  8
RACCORDO
100
AcDbLine
 62
7
  6
CONTINUOUS
 10
-19.0491508278
 20
77.8910068842
 11
-19.0504499972
 21
77.8910993684
  0
LINE
  5
676
100
AcDbEntity
  8
RACCORDO
100
AcDbLine
 62
7
  6
CONTINUOUS
 10
12.4508491722
 20
77.8910068842
 11
12.4495500028
 21
77.8910993684
  0
LINE
  5
677
100
AcDbEntity
  8
RACCORDO
100
AcDbLine
 62
7
  6
CONTINUOUS
 10
19.9508491722
 20
77.8910068842
 11
19.9495500028
 21
77.8910993684
  0
LINE
  5
678
100
AcDbEntity
  8
RACCORDO
100
AcDbLine
 62
7
  6
CONTINUOUS
 10
-26.5478586005
 20
77.8908937317
 11
-26.5492406942
 21
77.8910140028
  0
LINE
  5
679
100
AcDbEntity
  8
RACCORDO
100
AcDbLine
 62
7
  6
CONTINUOUS
 10
-19.0478586005
 20
77.8908937317
 11
-19.0492406942
 21
77.8910140028
  0
LINE
  5
67A
100
AcDbEntity
  8
RACCORDO
100
AcDbLine
 62
7
  6
CONTINUOUS
 10
12.4521413995
 20
77.8908937317
 11
12.4507593058
 21
77.8910140028
  0
LINE
  5
67B
100
AcDbEntity
  8
RACCORDO
100
AcDbLine
 62
7
  6
CONTINUOUS
 10
19.9521413995
 20
77.8908937317
 11
19.9507593058
 21
77.8910140028
  0
LINE
  5
67C
100
AcDbEntity
  8
RACCORDO
100
AcDbLine
 62
7
  6
CONTINUOUS
 10
-26.5465080565
 20
77.8907547331
 11
-26.5479635096
 21
77.890903646
  0
LINE
  5
67D
100
AcDbEntity
  8
RACCORDO
100
AcDbLine
 62
7
  6
CONTINUOUS
 10
-19.0465080565
 20
77.8907547331
 11
-19.0479635096
 21
77.890903646
  0
LINE
  5
67E
100
AcDbEntity
  8
RACCORDO
100
AcDbLine
 62
7
  6
CONTINUOUS
 10
12.4534919435
 20
77.8907547331
 11
12.4520364904
 21
77.890903646
  0
LINE
  5
67F
100
AcDbEntity
  8
RACCORDO
100
AcDbLine
 62
7
  6
CONTINUOUS
 10
19.9534919435
 20
77.8907547331
 11
19.9520364904
 21
77.890903646
  0
LWPOLYLINE
  5
680
100
AcDbEntity
  8
RACCORDO
100
AcDbPolyline
 62
7
  6
CONTINUOUS
 90
5
 70
0
 10
19.8235968658
 20
77.8910340308
 10
19.8227993489
 20
77.8911195274
 10
19.8219879248
 20
77.8911745548
 10
19.8211271054
 20
77.8912049332
 10
19.8202035117
 20
77.8912121547
  0
LWPOLYLINE
  5
681
100
AcDbEntity
  8
RACCORDO
100
AcDbPolyline
 62
253
  6
CONTINUOUS
 90
22
 70
0
 10
-26.5454909666
 20
77.8905833577
 10
-26.5464574792
 20
77.8906947144
 10
-26.5473906118
 20
77.8907921727
 10
-26.5482916843
 20
77.8908759935
 10
-26.5491739463
 20
77.8909466864
 10
-26.550027559
 20
77.891004156
 10
-26.5508190811
 20
77.8910477136
 10
-26.5515409665
 20
77.8910762754
 10
-26.5522040551
 20
77.8910911415
 10
-26.5528011893
 20
77.8910951407
 10
-26.5533277179
 20
77.8910880483
 10
-26.5537896802
 20
77.8910700816
 10
-26.5541943486
 20
77.8910446977
 10
-26.5545398908
 20
77.8910120359
 10
-26.5548279703
 20
77.8909718662
 10
-26.5550700661
 20
77.8909271118
 10
-26.5552654734
 20
77.8908780922
 10
-26.5554139224
 20
77.8908244025
 10
-26.5555271516
 20
77.8907679199
 10
-26.5556087057
 20
77.890709259
 10
-26.5556539857
 20
77.8906477491
 10
-26.5556624705
 20
77.8905833577
  0
LWPOLYLINE
  5
682
100
AcDbEntity
  8
RACCORDO
100
AcDbPolyline
 62
253
  6
CONTINUOUS
 90
22
 70
0
 10
-19.0454909666
 20
77.8905833577
 10
-19.0464574792
 20
77.8906947144
 10
-19.0473906118
 20
77.8907921727
 10
-19.0482916843
 20
77.8908759935
 10
-19.0491739463
 20
77.8909466864
 10
-19.050027559
 20
77.891004156
 10
-19.0508190811
 20
77.8910477136
 10
-19.0515409665
 20
77.8910762754
 10
-19.0522040551
 20
77.8910911415
 10
-19.0528011893
 20
77.8910951407
 10
-19.0533277179
 20
77.8910880483
 10
-19.0537896802
 20
77.8910700816
 10
-19.0541943486
 20
77.8910446977
 10
-19.0545398908
 20
77.8910120359
 10
-19.0548279703
 20
77.8909718662
 10
-19.0550700661
 20
77.8909271118
 10
-19.0552654734
 20
77.8908780922
 10
-19.0554139224
 20
77.8908244025
 10
-19.0555271516
 20
77.8907679199
 10
-19.0556087057
 20
77.890709259
 10
-19.0556539857
 20
77.8906477491
 10
-19.0556624705
 20
77.8905833577
  0
LWPOLYLINE
  5
683
100
AcDbEntity
  8
RACCORDO
100
AcDbPolyline
 62
253
  6
CONTINUOUS
 90
22
 70
0
 10
12.4545090334
 20
77.8905833577
 10
12.4535425208
 20
77.8906947144
 10
12.4526093882
 20
77.8907921727
 10
12.4517083157
 20
77.8908759935
 10
12.4508260537
 20
77.8909466864
 10
12.449972441
 20
77.891004156
 10
12.4491809189
 20
77.8910477136
 10
12.4484590335
 20
77.8910762754
 10
12.4477959449
 20
77.8910911415
 10
12.4471988107
 20
77.8910951407
 10
12.4466722821
 20
77.8910880483
 10
12.4462103198
 20
77.8910700816
 10
12.4458056514
 20
77.8910446977
 10
12.4454601092
 20
77.8910120359
 10
12.4451720297
 20
77.8909718662
 10
12.4449299339
 20
77.8909271118
 10
12.4447345266
 20
77.8908780922
 10
12.4445860776
 20
77.8908244025
 10
12.4444728484
 20
77.8907679199
 10
12.4443912943
 20
77.890709259
 10
12.4443460143
 20
77.8906477491
 10
12.4443375295
 20
77.8905833577
  0
LWPOLYLINE
  5
684
100
AcDbEntity
  8
RACCORDO
100
AcDbPolyline
 62
253
  6
CONTINUOUS
 90
22
 70
0
 10
19.9545090334
 20
77.8905833577
 10
19.9535425208
 20
77.8906947144
 10
19.9526093882
 20
77.8907921727
 10
19.9517083157
 20
77.8908759935
 10
19.9508260537
 20
77.8909466864
 10
19.949972441
 20
77.891004156
 10
19.9491809189
 20
77.8910477136
 10
19.9484590335
 20
77.8910762754
 10
19.9477959449
 20
77.8910911415
 10
19.9471988107
 20
77.8910951407
 10
19.9466722821
 20
77.8910880483
 10
19.9462103198
 20
77.8910700816
 10
19.9458056514
 20
77.8910446977
 10
19.9454601092
 20
77.8910120359
 10
19.9451720297
 20
77.8909718662
 10
19.9449299339
 20
77.8909271118
 10
19.9447345266
 20
77.8908780922
 10
19.9445860776
 20
77.8908244025
 10
19.9444728484
 20
77.8907679199
 10
19.9443912943
 20
77.890709259
 10
19.9443460143
 20
77.8906477491
 10
19.9443375295
 20
77.8905833577
  0
LINE
  5
685
100
AcDbEntity
  8
RACCORDO
100
AcDbLine
 62
7
  6
CONTINUOUS
 10
-26.5454845669
 20
77.8906359983
 11
-26.5466285653
 21
77.8907680058
  0
LINE
  5
686
100
AcDbEntity
  8
RACCORDO
100
AcDbLine
 62
7
  6
CONTINUOUS
 10
-19.0454845669
 20
77.8906359983
 11
-19.0466285653
 21
77.8907680058
  0
LINE
  5
687
100
AcDbEntity
  8
RACCORDO
100
AcDbLine
 62
7
  6
CONTINUOUS
 10
12.4545154331
 20
77.8906359983
 11
12.4533714347
 21
77.8907680058
  0
LINE
  5
688
100
AcDbEntity
  8
RACCORDO
100
AcDbLine
 62
7
  6
CONTINUOUS
 10
19.9545154331
 20
77.8906359983
 11
19.9533714347
 21
77.8907680058
  0
LINE
  5
689
100
AcDbEntity
  8
RACCORDO
100
AcDbLine
 62
7
  6
CONTINUOUS
 10
-26.5348617816
 20
77.8892465256
 11
-26.5454845653
 21
77.8906360549
  0
LINE
  5
68A
100
AcDbEntity
  8
RACCORDO
100
AcDbLine
 62
7
  6
CONTINUOUS
 10
-19.0348617816
 20
77.8892465256
 11
-19.0454845653
 21
77.8906360549
  0
LINE
  5
68B
100
AcDbEntity
  8
RACCORDO
100
AcDbLine
 62
7
  6
CONTINUOUS
 10
12.4651382184
 20
77.8892465256
 11
12.4545154347
 21
77.8906360549
  0
LINE
  5
68C
100
AcDbEntity
  8
RACCORDO
100
AcDbLine
 62
7
  6
CONTINUOUS
 10
19.9651382184
 20
77.8892465256
 11
19.9545154347
 21
77.8906360549
  0
LWPOLYLINE
  5
68D
100
AcDbEntity
  8
RACCORDO
100
AcDbPolyline
 62
253
  6
CONTINUOUS
 90
3
 70
0
 10
-26.5336522362
 20
77.8890214884
 10
-26.5396843495
 20
77.8898473327
 10
-26.5454909666
 20
77.8905833577
  0
LWPOLYLINE
  5
68E
100
AcDbEntity
  8
RACCORDO
100
AcDbPolyline
 62
253
  6
CONTINUOUS
 90
3
 70
0
 10
-19.0336522362
 20
77.8890214884
 10
-19.0396843495
 20
77.8898473327
 10
-19.0454909666
 20
77.8905833577
  0
LWPOLYLINE
  5
68F
100
AcDbEntity
  8
RACCORDO
100
AcDbPolyline
 62
253
  6
CONTINUOUS
 90
3
 70
0
 10
12.4663477638
 20
77.8890214884
 10
12.4603156505
 20
77.8898473327
 10
12.4545090334
 20
77.8905833577
  0
LWPOLYLINE
  5
690
100
AcDbEntity
  8
RACCORDO
100
AcDbPolyline
 62
253
  6
CONTINUOUS
 90
3
 70
0
 10
19.9663477638
 20
77.8890214884
 10
19.9603156505
 20
77.8898473327
 10
19.9545090334
 20
77.8905833577
  0
LWPOLYLINE
  5
691
100
AcDbEntity
  8
RACCORDO
100
AcDbPolyline
 62
7
  6
CONTINUOUS
 90
6
 70
0
 10
-26.6755954748
 20
77.8909082099
 10
-26.6764031342
 20
77.8910340308
 10
-26.6772006511
 20
77.8911195274
 10
-26.6780120752
 20
77.8911745548
 10
-26.6788728946
 20
77.8912049332
 10
-26.6797964883
 20
77.8912121547
  0
LWPOLYLINE
  5
692
100
AcDbEntity
  8
RACCORDO
100
AcDbPolyline
 62
7
  6
CONTINUOUS
 90
6
 70
0
 10
-19.1755954748
 20
77.8909082099
 10
-19.1764031342
 20
77.8910340308
 10
-19.1772006511
 20
77.8911195274
 10
-19.1780120752
 20
77.8911745548
 10
-19.1788728946
 20
77.8912049332
 10
-19.1797964883
 20
77.8912121547
  0
LWPOLYLINE
  5
693
100
AcDbEntity
  8
RACCORDO
100
AcDbPolyline
 62
7
  6
CONTINUOUS
 90
6
 70
0
 10
12.3244045252
 20
77.8909082099
 10
12.3235968658
 20
77.8910340308
 10
12.3227993489
 20
77.8911195274
 10
12.3219879248
 20
77.8911745548
 10
12.3211271054
 20
77.8912049332
 10
12.3202035117
 20
77.8912121547
  0
LINE
  5
694
100
AcDbEntity
  8
RACCORDO
100
AcDbLine
 62
7
  6
CONTINUOUS
 10
-18.9064658199
 20
77.8579181928
 11
-18.9071432697
 21
77.8580409972
  0
LINE
  5
695
100
AcDbEntity
  8
RACCORDO
100
AcDbLine
 62
7
  6
CONTINUOUS
 10
12.5935341801
 20
77.8579181928
 11
12.5928567303
 21
77.8580409972
  0
LINE
  5
696
100
AcDbEntity
  8
RACCORDO
100
AcDbLine
 62
7
  6
CONTINUOUS
 10
20.0935341801
 20
77.8579181928
 11
20.0928567303
 21
77.8580409972
  0
LWPOLYLINE
  5
697
100
AcDbEntity
  8
RACCORDO
100
AcDbPolyline
 62
253
  6
CONTINUOUS
 90
4
 70
0
 10
-19.0072682691
 20
77.8846588042
 10
-19.0142169897
 20
77.8859271045
 10
-19.0209174879
 20
77.8870697559
 10
-19.0273935719
 20
77.8880981286
  0
LWPOLYLINE
  5
698
100
AcDbEntity
  8
RACCORDO
100
AcDbPolyline
 62
253
  6
CONTINUOUS
 90
4
 70
0
 10
12.4927317309
 20
77.8846588042
 10
12.4857830103
 20
77.8859271045
 10
12.4790825121
 20
77.8870697559
 10
12.4726064281
 20
77.8880981286
  0
LWPOLYLINE
  5
699
100
AcDbEntity
  8
RACCORDO
100
AcDbPolyline
 62
253
  6
CONTINUOUS
 90
4
 70
0
 10
19.9927317309
 20
77.8846588042
 10
19.9857830103
 20
77.8859271045
 10
19.9790825121
 20
77.8870697559
 10
19.9726064281
 20
77.8880981286
  0
LINE
  5
69A
100
AcDbEntity
  8
RACCORDO
100
AcDbLine
 62
253
  6
CONTINUOUS
 10
-19.1643236764
 20
77.8581970223
 11
-19.1666914943
 21
77.8586592363
  0
LINE
  5
69B
100
AcDbEntity
  8
RACCORDO
100
AcDbLine
 62
253
  6
CONTINUOUS
 10
12.3356763236
 20
77.8581970223
 11
12.3333085057
 21
77.8586592363
  0
LINE
  5
69C
100
AcDbEntity
  8
RACCORDO
100
AcDbLine
 62
253
  6
CONTINUOUS
 10
19.8356763236
 20
77.8581970223
 11
19.8333085057
 21
77.8586592363
  0
LINE
  5
69D
100
AcDbEntity
  8
RACCORDO
100
AcDbLine
 62
253
  6
CONTINUOUS
 10
20.007368472
 20
77.8817031935
 11
19.9999295725
 21
77.8832540296
  0
LINE
  5
69E
100
AcDbEntity
  8
RACCORDO
100
AcDbLine
 62
7
  6
CONTINUOUS
 10
12.5928449323
 20
77.8580434539
 11
12.5906774959
 21
77.8585425578
  0
LINE
  5
69F
100
AcDbEntity
  8
RACCORDO
100
AcDbLine
 62
7
  6
CONTINUOUS
 10
20.0928449323
 20
77.8580434539
 11
20.0906774959
 21
77.8585425578
  0
LINE
  5
6A0
100
AcDbEntity
  8
RACCORDO
100
AcDbLine
 62
253
  6
CONTINUOUS
 10
12.3333085057
 20
77.8586592363
 11
12.3315962772
 21
77.8590666591
  0
LINE
  5
6A1
100
AcDbEntity
  8
RACCORDO
100
AcDbLine
 62
253
  6
CONTINUOUS
 10
19.8333085057
 20
77.8586592363
 11
19.8315962772
 21
77.8590666591
  0
LWPOLYLINE
  5
6A2
100
AcDbEntity
  8
RACCORDO
100
AcDbPolyline
 62
7
  6
CONTINUOUS
 90
3
 70
0
 10
12.5906774959
 20
77.8585425578
 10
12.5906095337
 20
77.8585593155
 10
12.5901213612
 20
77.8586823745
  0
LWPOLYLINE
  5
6A3
100
AcDbEntity
  8
RACCORDO
100
AcDbPolyline
 62
7
  6
CONTINUOUS
 90
3
 70
0
 10
20.0906774959
 20
77.8585425578
 10
20.0906095337
 20
77.8585593155
 10
20.0901213612
 20
77.8586823745
  0
LINE
  5
6A4
100
AcDbEntity
  8
RACCORDO
100
AcDbLine
 62
7
  6
CONTINUOUS
 10
12.5901213612
 20
77.8586823745
 11
12.5890557177
 21
77.8589585893
  0
LINE
  5
6A5
100
AcDbEntity
  8
RACCORDO
100
AcDbLine
 62
7
  6
CONTINUOUS
 10
20.0901213612
 20
77.8586823745
 11
20.0890557177
 21
77.8589585893
  0
LWPOLYLINE
  5
6A6
100
AcDbEntity
  8
RACCORDO
100
AcDbPolyline
 62
253
  6
CONTINUOUS
 90
8
 70
0
 10
12.5900842575
 20
77.8585997949
 10
12.5883410673
 20
77.8590677409
 10
12.5864194699
 20
77.8596022974
 10
12.5843276898
 20
77.8602005908
 10
12.5820994568
 20
77.8608540292
 10
12.579738413
 20
77.8615610707
 10
12.5772480409
 20
77.8623200734
 10
12.5746628566
 20
77.8631224531
  0
LWPOLYLINE
  5
6A7
100
AcDbEntity
  8
RACCORDO
100
AcDbPolyline
 62
253
  6
CONTINUOUS
 90
8
 70
0
 10
20.0900842575
 20
77.8585997949
 10
20.0883410673
 20
77.8590677409
 10
20.0864194699
 20
77.8596022974
 10
20.0843276898
 20
77.8602005908
 10
20.0820994568
 20
77.8608540292
 10
20.079738413
 20
77.8615610707
 10
20.0772480409
 20
77.8623200734
 10
20.0746628566
 20
77.8631224531
  0
LINE
  5
6A8
100
AcDbEntity
  8
RACCORDO
100
AcDbLine
 62
7
  6
CONTINUOUS
 10
12.5890557177
 20
77.8589585893
 11
12.5878745652
 21
77.8592744815
  0
LINE
  5
6A9
100
AcDbEntity
  8
RACCORDO
100
AcDbLine
 62
7
  6
CONTINUOUS
 10
20.0890557177
 20
77.8589585893
 11
20.0878745652
 21
77.8592744815
  0
LINE
  5
6AA
100
AcDbEntity
  8
RACCORDO
100
AcDbLine
 62
7
  6
CONTINUOUS
 10
12.5878745652
 20
77.8592744815
 11
12.5865845406
 21
77.8596291022
  0
LINE
  5
6AB
100
AcDbEntity
  8
RACCORDO
100
AcDbLine
 62
7
  6
CONTINUOUS
 10
20.0878745652
 20
77.8592744815
 11
20.0865845406
 21
77.8596291022
  0
LINE
  5
6AC
100
AcDbEntity
  8
RACCORDO
100
AcDbLine
 62
7
  6
CONTINUOUS
 10
12.5865845406
 20
77.8596291022
 11
12.5851877837
 21
77.8600223543
  0
LINE
  5
6AD
100
AcDbEntity
  8
RACCORDO
100
AcDbLine
 62
7
  6
CONTINUOUS
 10
20.0865845406
 20
77.8596291022
 11
20.0851877837
 21
77.8600223543
  0
LINE
  5
6AE
100
AcDbEntity
  8
RACCORDO
100
AcDbLine
 62
7
  6
CONTINUOUS
 10
12.5851877837
 20
77.8600223543
 11
12.583688244
 21
77.8604532047
  0
LINE
  5
6AF
100
AcDbEntity
  8
RACCORDO
100
AcDbLine
 62
7
  6
CONTINUOUS
 10
20.0851877837
 20
77.8600223543
 11
20.083688244
 21
77.8604532047
  0
LWPOLYLINE
  5
6B0
100
AcDbEntity
  8
RACCORDO
100
AcDbPolyline
 62
253
  6
CONTINUOUS
 90
10
 70
0
 10
12.3315962772
 20
77.8590666591
 10
12.3297705889
 20
77.8596030365
 10
12.3280961449
 20
77.8602040462
 10
12.3266175966
 20
77.8608607244
 10
12.3253358216
 20
77.8615727729
 10
12.3242515195
 20
77.8623372331
 10
12.323403571
 20
77.8631414418
 10
12.3228014428
 20
77.8639802352
 10
12.3224281538
 20
77.8648555728
 10
12.322279482
 20
77.8657656657
  0
LINE
  5
6B1
100
AcDbEntity
  8
RACCORDO
100
AcDbLine
 62
7
  6
CONTINUOUS
 10
12.583688244
 20
77.8604532047
 11
12.5820909326
 21
77.8609203063
  0
LWPOLYLINE
  5
6B2
100
AcDbEntity
  8
RACCORDO
100
AcDbPolyline
 62
253
  6
CONTINUOUS
 90
10
 70
0
 10
19.8315962772
 20
77.8590666591
 10
19.8297705889
 20
77.8596030365
 10
19.8280961449
 20
77.8602040462
 10
19.8266175966
 20
77.8608607244
 10
19.8253358216
 20
77.8615727729
 10
19.8242515195
 20
77.8623372331
 10
19.823403571
 20
77.8631414418
 10
19.8228014428
 20
77.8639802352
 10
19.8224281538
 20
77.8648555728
 10
19.822279482
 20
77.8657656657
  0
LINE
  5
6B3
100
AcDbEntity
  8
RACCORDO
100
AcDbLine
 62
7
  6
CONTINUOUS
 10
20.083688244
 20
77.8604532047
 11
20.0820909326
 21
77.8609203063
  0
LINE
  5
6B4
100
AcDbEntity
  8
RACCORDO
100
AcDbLine
 62
7
  6
CONTINUOUS
 10
12.5820909326
 20
77.8609203063
 11
12.5795219075
 21
77.8616870534
  0
LINE
  5
6B5
100
AcDbEntity
  8
RACCORDO
100
AcDbLine
 62
7
  6
CONTINUOUS
 10
20.0820909326
 20
77.8609203063
 11
20.0795219075
 21
77.8616870534
  0
LINE
  5
6B6
100
AcDbEntity
  8
RACCORDO
100
AcDbLine
 62
7
  6
CONTINUOUS
 10
12.5795219075
 20
77.8616870534
 11
12.5767619971
 21
77.8625290559
  0
LINE
  5
6B7
100
AcDbEntity
  8
RACCORDO
100
AcDbLine
 62
7
  6
CONTINUOUS
 10
20.0795219075
 20
77.8616870534
 11
20.0767619971
 21
77.8625290559
  0
LINE
  5
6B8
100
AcDbEntity
  8
RACCORDO
100
AcDbLine
 62
7
  6
CONTINUOUS
 10
12.5767619971
 20
77.8625290559
 11
12.5738317805
 21
77.8634402873
  0
LINE
  5
6B9
100
AcDbEntity
  8
RACCORDO
100
AcDbLine
 62
7
  6
CONTINUOUS
 10
20.0767619971
 20
77.8625290559
 11
20.0738317805
 21
77.8634402873
  0
LWPOLYLINE
  5
6BA
100
AcDbEntity
  8
RACCORDO
100
AcDbPolyline
 62
253
  6
CONTINUOUS
 90
5
 70
0
 10
12.5969098022
 20
77.8574006753
 10
12.5956770349
 20
77.8577866719
 10
12.5944047117
 20
77.8580107533
 10
12.5931140716
 20
77.858069179
 10
12.5928343115
 20
77.8580456655
  0
LWPOLYLINE
  5
6BB
100
AcDbEntity
  8
RACCORDO
100
AcDbPolyline
 62
253
  6
CONTINUOUS
 90
5
 70
0
 10
20.0969098022
 20
77.8574006753
 10
20.0956770349
 20
77.8577866719
 10
20.0944047117
 20
77.8580107533
 10
20.0931140716
 20
77.858069179
 10
20.0928343115
 20
77.8580456655
  0
LWPOLYLINE
  5
6BC
100
AcDbEntity
  8
RACCORDO
100
AcDbPolyline
 62
7
  6
CONTINUOUS
 90
9
 70
0
 10
12.5664120501
 20
77.8658161231
 10
12.5564288321
 20
77.8689776198
 10
12.5436010472
 20
77.8727565346
 10
12.5306910601
 20
77.8762436818
 10
12.517705555
 20
77.8794372753
 10
12.5046508632
 20
77.8823357624
 10
12.4915335803
 20
77.8849376886
 10
12.4783604756
 20
77.8872416689
 10
12.4651382184
 20
77.8892465256
  0
LWPOLYLINE
  5
6BD
100
AcDbEntity
  8
RACCORDO
100
AcDbPolyline
 62
7
  6
CONTINUOUS
 90
9
 70
0
 10
20.0664120501
 20
77.8658161231
 10
20.0564288321
 20
77.8689776198
 10
20.0436010472
 20
77.8727565346
 10
20.0306910601
 20
77.8762436818
 10
20.017705555
 20
77.8794372753
 10
20.0046508632
 20
77.8823357624
 10
19.9915335803
 20
77.8849376886
 10
19.9783604756
 20
77.8872416689
 10
19.9651382184
 20
77.8892465256
  0
LWPOLYLINE
  5
6BE
100
AcDbEntity
  8
RACCORDO
100
AcDbPolyline
 62
253
  6
CONTINUOUS
 90
9
 70
0
 10
12.566395577
 20
77.8657656657
 10
12.5572181916
 20
77.8686815286
 10
12.5482788671
 20
77.8713615729
 10
12.5395858347
 20
77.8738197229
 10
12.5311562513
 20
77.8760683542
 10
12.5229876061
 20
77.8781218021
 10
12.5150578931
 20
77.8799958048
 10
12.507368472
 20
77.8817031935
 10
12.4999295725
 20
77.8832540296
  0
LWPOLYLINE
  5
6BF
100
AcDbEntity
  8
RACCORDO
100
AcDbPolyline
 62
253
  6
CONTINUOUS
 90
7
 70
0
 10
20.066395577
 20
77.8657656657
 10
20.0572181916
 20
77.8686815286
 10
20.0482788671
 20
77.8713615729
 10
20.0395858347
 20
77.8738197229
 10
20.0311562513
 20
77.8760683542
 10
20.0229876061
 20
77.8781218021
 10
20.0150578931
 20
77.8799958048
  0
LINE
  5
6C0
100
AcDbEntity
  8
RACCORDO
100
AcDbLine
 62
7
  6
CONTINUOUS
 10
12.5738317805
 20
77.8634402873
 11
12.5707525106
 21
77.86441483
  0
LINE
  5
6C1
100
AcDbEntity
  8
RACCORDO
100
AcDbLine
 62
7
  6
CONTINUOUS
 10
20.0738317805
 20
77.8634402873
 11
20.0707525106
 21
77.86441483
  0
LWPOLYLINE
  5
6C2
100
AcDbEntity
  8
RACCORDO
100
AcDbPolyline
 62
253
  6
CONTINUOUS
 90
3
 70
0
 10
12.5746628566
 20
77.8631224531
 10
12.5692400829
 20
77.8648459829
 10
12.566395577
 20
77.8657656657
  0
LWPOLYLINE
  5
6C3
100
AcDbEntity
  8
RACCORDO
100
AcDbPolyline
 62
253
  6
CONTINUOUS
 90
3
 70
0
 10
20.0746628566
 20
77.8631224531
 10
20.0692400829
 20
77.8648459829
 10
20.066395577
 20
77.8657656657
  0
LWPOLYLINE
  5
6C4
100
AcDbEntity
  8
RACCORDO
100
AcDbPolyline
 62
7
  6
CONTINUOUS
 90
3
 70
0
 10
12.5707525106
 20
77.86441483
 10
12.5675489008
 20
77.8654457788
 10
12.5664119412
 20
77.8658157896
  0
LWPOLYLINE
  5
6C5
100
AcDbEntity
  8
RACCORDO
100
AcDbPolyline
 62
7
  6
CONTINUOUS
 90
3
 70
0
 10
20.0707525106
 20
77.86441483
 10
20.0675489008
 20
77.8654457788
 10
20.0664119412
 20
77.8658157896
  0
LWPOLYLINE
  5
6C6
100
AcDbEntity
  8
RACCORDO
100
AcDbPolyline
 62
7
  6
CONTINUOUS
 90
5
 70
0
 10
12.3339992466
 20
77.8596850445
 10
12.3331427964
 20
77.8599734056
 10
12.3324707098
 20
77.8602383122
 10
12.3319891966
 20
77.8604597579
 10
12.3317887359
 20
77.8605670417
  0
LWPOLYLINE
  5
6C7
100
AcDbEntity
  8
RACCORDO
100
AcDbPolyline
 62
7
  6
CONTINUOUS
 90
5
 70
0
 10
19.8339992466
 20
77.8596850445
 10
19.8331427964
 20
77.8599734056
 10
19.8324707098
 20
77.8602383122
 10
19.8319891966
 20
77.8604597579
 10
19.8317887359
 20
77.8605670417
  0
LINE
  5
6C8
100
AcDbEntity
  8
RACCORDO
100
AcDbLine
 62
7
  6
CONTINUOUS
 10
12.3317887359
 20
77.8605670417
 11
12.3316459244
 21
77.8606457412
  0
LINE
  5
6C9
100
AcDbEntity
  8
RACCORDO
100
AcDbLine
 62
7
  6
CONTINUOUS
 10
19.8317887359
 20
77.8605670417
 11
19.8316459244
 21
77.8606457412
  0
LINE
  5
6CA
100
AcDbEntity
  8
0
100
AcDbLine
 62
7
  6
CONTINUOUS
 10
37.1433085057
 20
67.6880442121
 11
37.0433085057
 21
67.7447108788
  0
ARC
  5
6CB
100
AcDbEntity
  8
0
100
AcDbCircle
 62
7
  6
CONTINUOUS
 10
-43.0736145712
 20
-128.9019557879
 40
0.5930769231
100
AcDbArc
 50
201.1351283885
 51
236.8858572487
  0
ARC
  5
6CC
100
AcDbEntity
  8
0
100
AcDbCircle
 62
7
  6
CONTINUOUS
 10
-43.0736145712
 20
-128.9019557879
 40
0.5930769231
100
AcDbArc
 50
123.1141427513
 51
158.8648716115
  0
ARC
  5
6CD
100
AcDbEntity
  8
0
100
AcDbCircle
 62
7
  6
CONTINUOUS
 10
-38.1666914943
 20
-120.1419557879
 40
0.55
100
AcDbArc
 50
320.103909361
 51
39.896090639
  0
CIRCLE
  5
6CE
100
AcDbEntity
  8
ASSI
100
AcDbCircle
 62
7
  6
CONTINUOUS
 10
-37.9166914943
 20
-120.1419557879
 40
0.39
  0
ARC
  5
6CF
100
AcDbEntity
  8
0
100
AcDbCircle
 62
7
  6
CONTINUOUS
 10
-38.1666914943
 20
-120.1419557879
 40
0.35
100
AcDbArc
 50
280.2328862535
 51
79.7671137465
  0
ARC
  5
6D0
100
AcDbEntity
  8
SMUSSO
100
AcDbCircle
 62
7
  6
CONTINUOUS
 10
-38.1666914943
 20
-120.1419557879
 40
0.3
100
AcDbArc
 50
270.3729769394
 51
89.6270230606
  0
ARC
  5
6D1
100
AcDbEntity
  8
0
100
AcDbCircle
 62
7
  6
CONTINUOUS
 10
-41.0666914943
 20
-123.8019557879
 40
0.3
100
AcDbArc
 50
270.0
 51
350.3787241318
  0
ARC
  5
6D2
100
AcDbEntity
  8
0
100
AcDbCircle
 62
7
  6
CONTINUOUS
 10
-43.0666914943
 20
-124.1519557879
 40
0.3
100
AcDbArc
 50
90.0
 51
180.0
  0
ARC
  5
6D3
100
AcDbEntity
  8
0
100
AcDbCircle
 62
7
  6
CONTINUOUS
 10
-43.0666914943
 20
-133.6519557879
 40
0.3
100
AcDbArc
 50
180.0
 51
270.0
  0
ARC
  5
6D4
100
AcDbEntity
  8
SMUSSO
100
AcDbCircle
 62
7
  6
CONTINUOUS
 10
-38.1666914943
 20
-120.1419557879
 40
0.25
100
AcDbArc
 50
257.6736047002
 51
102.3263952998
  0
ARC
  5
6D5
100
AcDbEntity
  8
0
100
AcDbCircle
 62
7
  6
CONTINUOUS
 10
-43.0666914943
 20
-124.1519557879
 40
0.05
100
AcDbArc
 50
90.0
 51
180.0
  0
ARC
  5
6D6
100
AcDbEntity
  8
0
100
AcDbCircle
 62
7
  6
CONTINUOUS
 10
-41.0666914943
 20
-133.6519557879
 40
0.05
100
AcDbArc
 50
270.0
 51
360.0
  0
ARC
  5
6D7
100
AcDbEntity
  8
0
100
AcDbCircle
 62
7
  6
CONTINUOUS
 10
-43.0666914943
 20
-133.6519557879
 40
0.05
100
AcDbArc
 50
180.0
 51
270.0
  0
ARC
  5
6D8
100
AcDbEntity
  8
0
100
AcDbCircle
 62
7
  6
CONTINUOUS
 10
-43.3866914943
 20
-129.3819557879
 40
0.02
100
AcDbArc
 50
236.8858572487
 51
360.0
  0
ARC
  5
6D9
100
AcDbEntity
  8
0
100
AcDbCircle
 62
7
  6
CONTINUOUS
 10
-43.3866914943
 20
-128.4219557879
 40
0.02
100
AcDbArc
 50
0.0
 51
123.1141427513
  0
ARC
  5
6DA
100
AcDbEntity
  8
RACCORDO
100
AcDbCircle
 62
7
  6
CONTINUOUS
 10
-43.6175619038
 20
-129.1119557879
 40
0.01
100
AcDbArc
 50
164.7158483145
 51
201.1099185893
  0
ARC
  5
6DB
100
AcDbEntity
  8
RACCORDO
100
AcDbCircle
 62
7
  6
CONTINUOUS
 10
-43.6175619038
 20
-128.6919557879
 40
0.01
100
AcDbArc
 50
158.8900814107
 51
195.2842862244
  0
ARC
  5
6DC
100
AcDbEntity
  8
ASSI
100
AcDbCircle
 62
7
  6
CONTINUOUS
 10
-38.7416914943
 20
-89.8819557879
 40
0.175
100
AcDbArc
 50
90.0
 51
270.0
  0
ARC
  5
6DD
100
AcDbEntity
  8
RACCORDO
100
AcDbCircle
 62
7
  6
CONTINUOUS
 10
-30.7466914943
 20
-128.9319557879
 40
0.02
100
AcDbArc
 50
179.9999999999
 51
270.0
  0
ARC
  5
6DE
100
AcDbEntity
  8
RACCORDO
100
AcDbCircle
 62
7
  6
CONTINUOUS
 10
-30.5966914943
 20
-129.0819557879
 40
0.02
100
AcDbArc
 50
179.9999999999
 51
270.0
  0
ARC
  5
6DF
100
AcDbEntity
  8
RACCORDO
100
AcDbCircle
 62
7
  6
CONTINUOUS
 10
-30.6366914943
 20
-128.9719557879
 40
0.02
100
AcDbArc
 50
0.0000000001
 51
90.0
  0
ARC
  5
6E0
100
AcDbEntity
  8
RACCORDO
100
AcDbCircle
 62
7
  6
CONTINUOUS
 10
-30.5966914943
 20
-128.7219557879
 40
0.02
100
AcDbArc
 50
90.0
 51
179.9999999999
  0
ARC
  5
6E1
100
AcDbEntity
  8
RACCORDO
100
AcDbCircle
 62
7
  6
CONTINUOUS
 10
-30.7466914943
 20
-128.8719557879
 40
0.02
100
AcDbArc
 50
90.0
 51
179.9999999999
  0
ARC
  5
6E2
100
AcDbEntity
  8
RACCORDO
100
AcDbCircle
 62
7
  6
CONTINUOUS
 10
-30.6366914943
 20
-128.8319557879
 40
0.02
100
AcDbArc
 50
270.0
 51
360.0
  0
ARC
  5
6E3
100
AcDbEntity
  8
ASSI
100
AcDbCircle
 62
7
  6
CONTINUOUS
 10
-30.5666914943
 20
-129.1519557879
 40
0.35
100
AcDbArc
 50
201.9167530526
 51
338.0832469474
  0
ARC
  5
6E4
100
AcDbEntity
  8
RACCORDO
100
AcDbCircle
 62
7
  6
CONTINUOUS
 10
-30.3866914943
 20
-128.9319557879
 40
0.02
100
AcDbArc
 50
270.0
 51
360.0
  0
ARC
  5
6E5
100
AcDbEntity
  8
RACCORDO
100
AcDbCircle
 62
7
  6
CONTINUOUS
 10
-30.5366914943
 20
-129.0819557879
 40
0.02
100
AcDbArc
 50
270.0
 51
360.0
  0
ARC
  5
6E6
100
AcDbEntity
  8
RACCORDO
100
AcDbCircle
 62
7
  6
CONTINUOUS
 10
-30.4966914943
 20
-128.9719557879
 40
0.02
100
AcDbArc
 50
90.0
 51
179.9999999999
  0
CIRCLE
  5
6E7
100
AcDbEntity
  8
0
100
AcDbCircle
 62
7
  6
CONTINUOUS
 10
-30.5666914943
 20
-128.9019557879
 40
0.5
  0
CIRCLE
  5
6E8
100
AcDbEntity
  8
0
100
AcDbCircle
 62
253
  6
CONTINUOUS
 10
-30.5666914943
 20
-128.9019557879
 40
0.4967516779
  0
ARC
  5
6E9
100
AcDbEntity
  8
ASSI
100
AcDbCircle
 62
7
  6
CONTINUOUS
 10
-30.5666914943
 20
-128.6519557879
 40
0.35
100
AcDbArc
 50
21.9167530526
 51
158.0832469474
  0
ARC
  5
6EA
100
AcDbEntity
  8
RACCORDO
100
AcDbCircle
 62
7
  6
CONTINUOUS
 10
-30.3866914943
 20
-128.8719557879
 40
0.02
100
AcDbArc
 50
0.0000000001
 51
90.0
  0
ARC
  5
6EB
100
AcDbEntity
  8
RACCORDO
100
AcDbCircle
 62
7
  6
CONTINUOUS
 10
-30.5366914943
 20
-128.7219557879
 40
0.02
100
AcDbArc
 50
0.0000000001
 51
90.0
  0
ARC
  5
6EC
100
AcDbEntity
  8
RACCORDO
100
AcDbCircle
 62
7
  6
CONTINUOUS
 10
-30.4966914943
 20
-128.8319557879
 40
0.02
100
AcDbArc
 50
179.9999999999
 51
270.0
  0
ARC
  5
6ED
100
AcDbEntity
  8
0
100
AcDbCircle
 62
7
  6
CONTINUOUS
 10
-26.6166914943
 20
77.3049672891
 40
0.5930769231
100
AcDbArc
 50
33.1141427513
 51
68.8648716115
  0
ARC
  5
6EE
100
AcDbEntity
  8
0
100
AcDbCircle
 62
7
  6
CONTINUOUS
 10
-26.6166914943
 20
77.3049672891
 40
0.5930769231
100
AcDbArc
 50
111.1351283885
 51
146.8858572487
  0
ARC
  5
6EF
100
AcDbEntity
  8
0
100
AcDbCircle
 62
7
  6
CONTINUOUS
 10
-19.1166914943
 20
77.3049672891
 40
0.5930769231
100
AcDbArc
 50
33.1141427513
 51
68.8648716115
  0
ARC
  5
6F0
100
AcDbEntity
  8
0
100
AcDbCircle
 62
7
  6
CONTINUOUS
 10
-19.1166914943
 20
77.3049672891
 40
0.5930769231
100
AcDbArc
 50
111.1351283885
 51
146.8858572487
  0
ARC
  5
6F1
100
AcDbEntity
  8
ASSI
100
AcDbCircle
 62
7
  6
CONTINUOUS
 10
-38.7416914943
 20
43.4780442121
 40
0.175
100
AcDbArc
 50
90.0
 51
270.0
  0
ARC
  5
6F2
100
AcDbEntity
  8
0
100
AcDbCircle
 62
7
  6
CONTINUOUS
 10
-26.1366914943
 20
77.6180442121
 40
0.02
100
AcDbArc
 50
270.0
 51
33.1141427513
  0
ARC
  5
6F3
100
AcDbEntity
  8
0
100
AcDbCircle
 62
7
  6
CONTINUOUS
 10
-27.0966914943
 20
77.6180442121
 40
0.02
100
AcDbArc
 50
146.8858572487
 51
270.0
  0
ARC
  5
6F4
100
AcDbEntity
  8
0
100
AcDbCircle
 62
7
  6
CONTINUOUS
 10
-18.6366914943
 20
77.6180442121
 40
0.02
100
AcDbArc
 50
270.0
 51
33.1141427513
  0
ARC
  5
6F5
100
AcDbEntity
  8
0
100
AcDbCircle
 62
7
  6
CONTINUOUS
 10
-19.5966914943
 20
77.6180442121
 40
0.02
100
AcDbArc
 50
146.8858572487
 51
270.0
  0
ARC
  5
6F6
100
AcDbEntity
  8
RACCORDO
100
AcDbCircle
 62
7
  6
CONTINUOUS
 10
-26.4066914943
 20
77.8489146217
 40
0.01
100
AcDbArc
 50
68.8900814106
 51
105.2842862243
  0
ARC
  5
6F7
100
AcDbEntity
  8
RACCORDO
100
AcDbCircle
 62
7
  6
CONTINUOUS
 10
-26.8266914943
 20
77.8489146217
 40
0.01
100
AcDbArc
 50
74.7158483146
 51
111.1099185893
  0
ARC
  5
6F8
100
AcDbEntity
  8
RACCORDO
100
AcDbCircle
 62
7
  6
CONTINUOUS
 10
-18.9066914943
 20
77.8489146217
 40
0.01
100
AcDbArc
 50
68.8900814106
 51
105.2842862243
  0
ARC
  5
6F9
100
AcDbEntity
  8
RACCORDO
100
AcDbCircle
 62
7
  6
CONTINUOUS
 10
-19.3266914943
 20
77.8489146217
 40
0.01
100
AcDbArc
 50
74.7158483146
 51
111.1099185893
  0
ARC
  5
6FA
100
AcDbEntity
  8
RACCORDO
100
AcDbCircle
 62
7
  6
CONTINUOUS
 10
23.6533085057
 20
-128.9319557879
 40
0.02
100
AcDbArc
 50
179.9999999999
 51
270.0
  0
ARC
  5
6FB
100
AcDbEntity
  8
RACCORDO
100
AcDbCircle
 62
7
  6
CONTINUOUS
 10
23.8033085057
 20
-129.0819557879
 40
0.02
100
AcDbArc
 50
179.9999999999
 51
270.0
  0
ARC
  5
6FC
100
AcDbEntity
  8
RACCORDO
100
AcDbCircle
 62
7
  6
CONTINUOUS
 10
23.7633085057
 20
-128.9719557879
 40
0.02
100
AcDbArc
 50
0.0000000001
 51
90.0
  0
ARC
  5
6FD
100
AcDbEntity
  8
RACCORDO
100
AcDbCircle
 62
7
  6
CONTINUOUS
 10
23.8033085057
 20
-128.7219557879
 40
0.02
100
AcDbArc
 50
90.0
 51
179.9999999999
  0
ARC
  5
6FE
100
AcDbEntity
  8
RACCORDO
100
AcDbCircle
 62
7
  6
CONTINUOUS
 10
23.6533085057
 20
-128.8719557879
 40
0.02
100
AcDbArc
 50
90.0
 51
179.9999999999
  0
ARC
  5
6FF
100
AcDbEntity
  8
RACCORDO
100
AcDbCircle
 62
7
  6
CONTINUOUS
 10
23.7633085057
 20
-128.8319557879
 40
0.02
100
AcDbArc
 50
270.0
 51
360.0
  0
ARC
  5
700
100
AcDbEntity
  8
ASSI
100
AcDbCircle
 62
7
  6
CONTINUOUS
 10
23.8333085057
 20
-129.1519557879
 40
0.35
100
AcDbArc
 50
201.9167530526
 51
338.0832469474
  0
ARC
  5
701
100
AcDbEntity
  8
RACCORDO
100
AcDbCircle
 62
7
  6
CONTINUOUS
 10
24.0133085057
 20
-128.9319557879
 40
0.02
100
AcDbArc
 50
270.0
 51
360.0
  0
ARC
  5
702
100
AcDbEntity
  8
RACCORDO
100
AcDbCircle
 62
7
  6
CONTINUOUS
 10
23.8633085057
 20
-129.0819557879
 40
0.02
100
AcDbArc
 50
270.0
 51
360.0
  0
ARC
  5
703
100
AcDbEntity
  8
RACCORDO
100
AcDbCircle
 62
7
  6
CONTINUOUS
 10
23.9033085057
 20
-128.9719557879
 40
0.02
100
AcDbArc
 50
90.0
 51
179.9999999999
  0
CIRCLE
  5
704
100
AcDbEntity
  8
0
100
AcDbCircle
 62
7
  6
CONTINUOUS
 10
23.8333085057
 20
-128.9019557879
 40
0.5
  0
CIRCLE
  5
705
100
AcDbEntity
  8
0
100
AcDbCircle
 62
253
  6
CONTINUOUS
 10
23.8333085057
 20
-128.9019557879
 40
0.4967516779
  0
ARC
  5
706
100
AcDbEntity
  8
ASSI
100
AcDbCircle
 62
7
  6
CONTINUOUS
 10
23.8333085057
 20
-128.6519557879
 40
0.35
100
AcDbArc
 50
21.9167530526
 51
158.0832469474
  0
ARC
  5
707
100
AcDbEntity
  8
RACCORDO
100
AcDbCircle
 62
7
  6
CONTINUOUS
 10
24.0133085057
 20
-128.8719557879
 40
0.02
100
AcDbArc
 50
0.0000000001
 51
90.0
  0
ARC
  5
708
100
AcDbEntity
  8
RACCORDO
100
AcDbCircle
 62
7
  6
CONTINUOUS
 10
23.8633085057
 20
-128.7219557879
 40
0.02
100
AcDbArc
 50
0.0000000001
 51
90.0
  0
ARC
  5
709
100
AcDbEntity
  8
RACCORDO
100
AcDbCircle
 62
7
  6
CONTINUOUS
 10
23.9033085057
 20
-128.8319557879
 40
0.02
100
AcDbArc
 50
179.9999999999
 51
270.0
  0
ARC
  5
70A
100
AcDbEntity
  8
0
100
AcDbCircle
 62
7
  6
CONTINUOUS
 10
36.3402315827
 20
-128.9019557879
 40
0.5930769231
100
AcDbArc
 50
303.1141427513
 51
338.8648716115
  0
ARC
  5
70B
100
AcDbEntity
  8
0
100
AcDbCircle
 62
7
  6
CONTINUOUS
 10
36.3402315827
 20
-128.9019557879
 40
0.5930769231
100
AcDbArc
 50
21.1351283885
 51
56.8858572487
  0
ARC
  5
70C
100
AcDbEntity
  8
0
100
AcDbCircle
 62
7
  6
CONTINUOUS
 10
36.3333085057
 20
-133.6519557879
 40
0.3
100
AcDbArc
 50
270.0
 51
360.0
  0
ARC
  5
70D
100
AcDbEntity
  8
0
100
AcDbCircle
 62
7
  6
CONTINUOUS
 10
34.3333085057
 20
-133.6519557879
 40
0.05
100
AcDbArc
 50
180.0
 51
270.0
  0
ARC
  5
70E
100
AcDbEntity
  8
0
100
AcDbCircle
 62
7
  6
CONTINUOUS
 10
36.3333085057
 20
-133.6519557879
 40
0.05
100
AcDbArc
 50
270.0
 51
360.0
  0
ARC
  5
70F
100
AcDbEntity
  8
0
100
AcDbCircle
 62
7
  6
CONTINUOUS
 10
36.6533085057
 20
-129.3819557879
 40
0.02
100
AcDbArc
 50
180.0
 51
303.1141427513
  0
ARC
  5
710
100
AcDbEntity
  8
0
100
AcDbCircle
 62
7
  6
CONTINUOUS
 10
36.6533085057
 20
-128.4219557879
 40
0.02
100
AcDbArc
 50
56.8858572487
 51
180.0
  0
ARC
  5
711
100
AcDbEntity
  8
RACCORDO
100
AcDbCircle
 62
7
  6
CONTINUOUS
 10
36.8841789153
 20
-129.1119557879
 40
0.01
100
AcDbArc
 50
338.8900814107
 51
15.2842862244
  0
ARC
  5
712
100
AcDbEntity
  8
RACCORDO
100
AcDbCircle
 62
7
  6
CONTINUOUS
 10
36.8841789153
 20
-128.6919557879
 40
0.01
100
AcDbArc
 50
344.7158483145
 51
21.1099185893
  0
CIRCLE
  5
713
100
AcDbEntity
  8
ASSI
100
AcDbCircle
 62
7
  6
CONTINUOUS
 10
31.1833085057
 20
-120.1419557879
 40
0.39
  0
CIRCLE
  5
714
100
AcDbEntity
  8
0
100
AcDbCircle
 62
7
  6
CONTINUOUS
 10
31.1833085057
 20
-120.1419557879
 40
0.35
  0
CIRCLE
  5
715
100
AcDbEntity
  8
SMUSSO
100
AcDbCircle
 62
7
  6
CONTINUOUS
 10
31.1833085057
 20
-120.1419557879
 40
0.3
  0
ARC
  5
716
100
AcDbEntity
  8
0
100
AcDbCircle
 62
7
  6
CONTINUOUS
 10
34.3333085057
 20
-123.8019557879
 40
0.3
100
AcDbArc
 50
189.6212758682
 51
270.0
  0
ARC
  5
717
100
AcDbEntity
  8
0
100
AcDbCircle
 62
7
  6
CONTINUOUS
 10
36.3333085057
 20
-124.1519557879
 40
0.3
100
AcDbArc
 50
0.0
 51
62.1647379939
  0
CIRCLE
  5
718
100
AcDbEntity
  8
SMUSSO
100
AcDbCircle
 62
7
  6
CONTINUOUS
 10
31.1833085057
 20
-120.1419557879
 40
0.25
  0
ARC
  5
719
100
AcDbEntity
  8
0
100
AcDbCircle
 62
7
  6
CONTINUOUS
 10
36.3333085057
 20
-124.1519557879
 40
0.05
100
AcDbArc
 50
0.0
 51
90.0
  0
ARC
  5
71A
100
AcDbEntity
  8
0
100
AcDbCircle
 62
7
  6
CONTINUOUS
 10
19.8833085057
 20
77.3049672891
 40
0.5930769231
100
AcDbArc
 50
33.1141427513
 51
68.8648716115
  0
ARC
  5
71B
100
AcDbEntity
  8
0
100
AcDbCircle
 62
7
  6
CONTINUOUS
 10
19.8833085057
 20
77.3049672891
 40
0.5930769231
100
AcDbArc
 50
111.1351283885
 51
146.8858572487
  0
ARC
  5
71C
100
AcDbEntity
  8
0
100
AcDbCircle
 62
7
  6
CONTINUOUS
 10
12.3833085057
 20
77.3049672891
 40
0.5930769231
100
AcDbArc
 50
33.1141427513
 51
68.8648716115
  0
ARC
  5
71D
100
AcDbEntity
  8
0
100
AcDbCircle
 62
7
  6
CONTINUOUS
 10
12.3833085057
 20
77.3049672891
 40
0.5930769231
100
AcDbArc
 50
111.1351283885
 51
146.8858572487
  0
ARC
  5
71E
100
AcDbEntity
  8
0
100
AcDbCircle
 62
7
  6
CONTINUOUS
 10
20.3633085057
 20
77.6180442121
 40
0.02
100
AcDbArc
 50
270.0
 51
33.1141427513
  0
ARC
  5
71F
100
AcDbEntity
  8
0
100
AcDbCircle
 62
7
  6
CONTINUOUS
 10
19.4033085057
 20
77.6180442121
 40
0.02
100
AcDbArc
 50
146.8858572487
 51
270.0
  0
ARC
  5
720
100
AcDbEntity
  8
0
100
AcDbCircle
 62
7
  6
CONTINUOUS
 10
12.8633085057
 20
77.6180442121
 40
0.02
100
AcDbArc
 50
270.0
 51
33.1141427513
  0
ARC
  5
721
100
AcDbEntity
  8
0
100
AcDbCircle
 62
7
  6
CONTINUOUS
 10
11.9033085057
 20
77.6180442121
 40
0.02
100
AcDbArc
 50
146.8858572487
 51
270.0
  0
ARC
  5
722
100
AcDbEntity
  8
RACCORDO
100
AcDbCircle
 62
7
  6
CONTINUOUS
 10
20.0933085057
 20
77.8489146217
 40
0.01
100
AcDbArc
 50
68.8900814106
 51
105.2842862243
  0
ARC
  5
723
100
AcDbEntity
  8
RACCORDO
100
AcDbCircle
 62
7
  6
CONTINUOUS
 10
19.6733085057
 20
77.8489146217
 40
0.01
100
AcDbArc
 50
74.7158483146
 51
111.1099185893
  0
ARC
  5
724
100
AcDbEntity
  8
RACCORDO
100
AcDbCircle
 62
7
  6
CONTINUOUS
 10
12.5933085057
 20
77.8489146217
 40
0.01
100
AcDbArc
 50
68.8900814106
 51
105.2842862243
  0
ARC
  5
725
100
AcDbEntity
  8
RACCORDO
100
AcDbCircle
 62
7
  6
CONTINUOUS
 10
12.1733085057
 20
77.8489146217
 40
0.01
100
AcDbArc
 50
74.7158483146
 51
111.1099185894
  0
CIRCLE
  5
726
100
AcDbEntity
  8
0
100
AcDbCircle
 62
7
  6
CONTINUOUS
 10
29.4233085057
 20
-23.1019557879
 40
1.105
  0
CIRCLE
  5
727
100
AcDbEntity
  8
0
100
AcDbCircle
 62
7
  6
CONTINUOUS
 10
29.4233085057
 20
-23.1019557879
 40
1.1
  0
ARC
  5
728
100
AcDbEntity
  8
0
100
AcDbCircle
 62
7
  6
CONTINUOUS
 10
29.4233085057
 20
-23.1019557879
 40
0.95
100
AcDbArc
 50
276.0445657952
 51
83.9554342048
  0
ARC
  5
729
100
AcDbEntity
  8
0
100
AcDbCircle
 62
7
  6
CONTINUOUS
 10
29.4233085057
 20
-23.1019557879
 40
0.95
100
AcDbArc
 50
96.0445657952
 51
263.9554342048
  0
ARC
  5
72A
100
AcDbEntity
  8
0
100
AcDbCircle
 62
7
  6
CONTINUOUS
 10
29.4233085057
 20
-23.1019557879
 40
0.85
100
AcDbArc
 50
276.7565375415
 51
83.2434624585
  0
ARC
  5
72B
100
AcDbEntity
  8
0
100
AcDbCircle
 62
7
  6
CONTINUOUS
 10
29.4233085057
 20
-23.1019557879
 40
0.85
100
AcDbArc
 50
96.7565375415
 51
263.2434624585
  0
ARC
  5
72C
100
AcDbEntity
  8
0
100
AcDbCircle
 62
7
  6
CONTINUOUS
 10
29.4233085057
 20
-23.1019557879
 40
0.8
100
AcDbArc
 50
277.1809481452
 51
82.8190518548
  0
ARC
  5
72D
100
AcDbEntity
  8
0
100
AcDbCircle
 62
7
  6
CONTINUOUS
 10
29.4233085057
 20
-23.1019557879
 40
0.8
100
AcDbArc
 50
97.1809481452
 51
262.8190518548
  0
ARC
  5
72E
100
AcDbEntity
  8
0
100
AcDbCircle
 62
7
  6
CONTINUOUS
 10
29.4233085057
 20
-23.1019557879
 40
0.715
100
AcDbArc
 50
278.0439709356
 51
81.9560290644
  0
ARC
  5
72F
100
AcDbEntity
  8
0
100
AcDbCircle
 62
7
  6
CONTINUOUS
 10
29.4233085057
 20
-23.1019557879
 40
0.715
100
AcDbArc
 50
98.0439709356
 51
261.9560290644
  0
ARC
  5
730
100
AcDbEntity
  8
0
100
AcDbCircle
 62
7
  6
CONTINUOUS
 10
29.4233085057
 20
-23.1019557879
 40
0.325
100
AcDbArc
 50
288.8491065923
 51
72.0797868606
  0
ARC
  5
731
100
AcDbEntity
  8
0
100
AcDbCircle
 62
7
  6
CONTINUOUS
 10
29.4233085057
 20
-23.1019557879
 40
0.325
100
AcDbArc
 50
107.9202131394
 51
251.1508934077
  0
ENDSEC
  0
SECTION
  2
OBJECTS
  0
DICTIONARY
  5
C
100
AcDbDictionary
280
0
281
1
  3
ACAD_GROUP
350
D
  3
ACAD_MLINESTYLE
350
17
  3
ACAD_LAYOUT
350
1A
  3
ACAD_PLOTSETTINGS
350
19
  3
ACAD_PLOTSTYLENAME
350
E
  0
DICTIONARY
  5
D
102
{ACAD_REACTORS
330
C
102
}
100
AcDbDictionary
280
0
281
1
  0
ACDBDICTIONARYWDFLT
  5
E
102
{ACAD_REACTORS
330
C
102
}
100
AcDbDictionary
281
1
  3
Normal
350
F
100
AcDbDictionaryWithDefault
340
F
  0
DICTIONARY
  5
17
102
{ACAD_REACTORS
330
C
102
}
100
AcDbDictionary
280
0
281
1
  3
Standard
350
18
  0
DICTIONARY
  5
19
102
{ACAD_REACTORS
330
C
102
}
100
AcDbDictionary
281
1
  0
DICTIONARY
  5
1A
102
{ACAD_REACTORS
330
C
102
}
100
AcDbDictionary
281
1
  3
Model
350
732
  3
Layout1
350
733
  0
ACDBPLACEHOLDER
  5
F
102
{ACAD_REACTORS
330
E
102
}
  0
MLINESTYLE
  5
18
102
{ACAD_REACTORS
330
17
102
}
100
AcDbMlineStyle
  2
STANDARD
 70
0
  3

 62
256
 51
90.0
 52
90.0
 71
2
 49
0.5
 62
256
  6
BYLAYER
 49
-0.5
 62
256
  6
BYLAYER
  0
LAYOUT
  5
732
102
{ACAD_REACTORS
330
1A
102
}
100
AcDbPlotSettings
  1

  2
none_device
  4
ISO_A4_(297.00_x_210.00_MM)
  6

 40
0.0
 41
0.0
 42
0.0
 43
0.0
 44
297.0
 45
210.0
 46
0.0
 47
0.0
 48
0.0
 49
0.0
140
0.0
141
0.0
142
1.0
143
1.0
 70
1024
 72
1
 73
0
 74
0
  7

 75
0
147
1.0
148
0.0
149
0.0
100
AcDbLayout
  1
Model
 70
0
 71
0
 10
0.0
 20
0.0
 11
297.0
 21
210.0
 12
0.0
 22
0.0
 32
0.0
 14
0.0
 24
0.0
 34
0.0
 15
0.0
 25
0.0
 35
0.0
146
0.0
 13
0.0
 23
0.0
 33
0.0
 16
1.0
 26
0.0
 36
0.0
 17
0.0
 27
1.0
 37
0.0
 76
0
330
211
345
0
346
0
  0
LAYOUT
  5
733
102
{ACAD_REACTORS
330
1A
102
}
100
AcDbPlotSettings
  1

  2
none_device
  4
ISO_A4_(297.00_x_210.00_MM)
  6

 40
0.0
 41
0.0
 42
0.0
 43
0.0
 44
297.0
 45
210.0
 46
0.0
 47
0.0
 48
0.0
 49
0.0
140
0.0
141
0.0
142
1.0
143
1.0
 70
0
 72
1
 73
0
 74
0
  7

 75
0
147
1.0
148
0.0
149
0.0
100
AcDbLayout
  1
Layout1
 70
0
 71
1
 10
0.0
 20
0.0
 11
297.0
 21
210.0
 12
0.0
 22
0.0
 32
0.0
 14
0.0
 24
0.0
 34
0.0
 15
0.0
 25
0.0
 35
0.0
146
0.0
 13
0.0
 23
0.0
 33
0.0
 16
1.0
 26
0.0
 36
0.0
 17
0.0
 27
1.0
 37
0.0
 76
0
330
212
345
0
346
0
  0
ENDSEC
  0
EOF
