  0
SECTION
  2
HEADER
  9
$ACADVER
  1
AC1021
  9
$DWGCODEPAGE
  3
ANSI_1252
  9
$EXTMAX
 10
297.0
 20
210.0
 30
0.0
  9
$EXTMIN
 10
0.0
 20
0.0
 30
0.0
  9
$LIMMIN
 10
0.0
 20
0.0
  9
$LIMMAX
 10
297.0
 20
210.0
  9
$VIEWCTR
 10
148.5
 20
105.0
  9
$VIEWSIZE
 40
210.0
  9
$CLAYER
  8
0
  9
$LTSCALE
 40
16.335
  9
$CELTYPE
  6
BYLAYER
  9
$DIMSCALE
 40
1.0
  9
$DIMASZ
 40
3.0
  9
$DIMEXO
 40
0.5
  9
$DIMDLI
 40
11.286
  9
$DIMEXE
 40
1.5
  9
$DIMCEN
 40
2.673
  9
$DIMLFAC
 40
1.0
  9
$DIMBLK
  1
_FILLED
  9
$DIMALT
 70
0
  9
$DIMALTF
 40
25.4
  9
$DIMTXT
 40
3.0
  9
$DIMTOL
 70
1
  9
$DIMLIM
 70
0
  9
$DIMTFAC
 40
1.0
  9
$DIMTP
 40
0.01
  9
$DIMTM
 40
0.01
  9
$DIMGAP
 40
0.625
  9
$DIMDSEP
 70
44
  9
$AUNITS
 70
0
  9
$PDMODE
 70
3
  9
$PDSIZE
 40
3.0
  9
$HANDSEED
  5
5B4
  9
$TILEMODE
 70
1
  9
$MEASUREMENT
 70
1
  9
$INSUNITS
 70
4
  0
ENDSEC
  0
SECTION
  2
CLASSES
  0
CLASS
  1
ACDBDICTIONARYWDFLT
  2
AcDbDictionaryWithDefault
  3
AutoCAD 2000
 90
0
 91
1
280
0
281
0
  0
CLASS
  1
ACDBPLACEHOLDER
  2
AcDbPlaceHolder
  3
AutoCAD 2000
 90
0
 91
1
280
0
281
0
  0
CLASS
  1
LAYOUT
  2
AcDbLayout
  3
AutoCAD 2000
 90
0
 91
0
280
0
281
0
  0
ENDSEC
  0
SECTION
  2
TABLES
  0
TABLE
  2
VPORT
  5
8
100
AcDbSymbolTable
 70
2
  0
VPORT
  5
1F4
100
AcDbSymbolTableRecord
100
AcDbViewportTableRecord
  2
*ACTIVE
 70
0
 10
0.0
 20
0.0
 11
1.0
 21
1.0
 12
148.5
 22
105.0
 13
0.0
 23
0.0
 14
1.0
 24
1.0
 15
0.0
 25
0.0
 16
0.0
 26
0.0
 36
1.0
 17
0.0
 27
0.0
 37
0.0
 40
210.0
 41
1.4142857143
 42
50.0
 43
0.0
 44
0.0
 50
0.0
 51
0.0
 71
0
 72
100
 73
1
 74
1
 75
0
 76
0
 77
0
 78
0
  0
ENDTAB
  0
TABLE
  2
LTYPE
  5
5
100
AcDbSymbolTable
 70
6
  0
LTYPE
  5
14
100
AcDbSymbolTableRecord
100
AcDbLinetypeTableRecord
  2
BYBLOCK
 70
0
  3

 72
65
 73
0
 40
0.0
  0
LTYPE
  5
15
100
AcDbSymbolTableRecord
100
AcDbLinetypeTableRecord
  2
BYLAYER
 70
0
  3

 72
65
 73
0
 40
0.0
  0
LTYPE
  5
16
100
AcDbSymbolTableRecord
100
AcDbLinetypeTableRecord
  2
CONTINUOUS
 70
64
  3
Solid line
 72
65
 73
0
 40
0.0
  0
LTYPE
  5
1F5
100
AcDbSymbolTableRecord
100
AcDbLinetypeTableRecord
  2
CENTER
 70
64
  3
____ _ ____ _ ____ _ ____ _ ____ _ ____ _ ____
 72
65
 73
4
 40
0.6
 49
0.375
 74
0
 49
-0.075
 74
0
 49
0.075
 74
0
 49
-0.075
 74
0
  0
LTYPE
  5
1F6
100
AcDbSymbolTableRecord
100
AcDbLinetypeTableRecord
  2
HIDDEN
 70
64
  3
- - - - - - - - - - - - - - - - - - - -
 72
65
 73
2
 40
0.2
 49
0.1
 74
0
 49
-0.1
 74
0
  0
LTYPE
  5
1F7
100
AcDbSymbolTableRecord
100
AcDbLinetypeTableRecord
  2
PHANTOM
 70
64
  3
_____ _ _ _____ _ _ _____ _ _ _____
 72
65
 73
6
 40
0.8
 49
0.45
 74
0
 49
-0.05
 74
0
 49
0.1
 74
0
 49
-0.05
 74
0
 49
0.1
 74
0
 49
-0.05
 74
0
  0
LTYPE
  5
1F8
100
AcDbSymbolTableRecord
100
AcDbLinetypeTableRecord
  2
DOT
 70
64
  3
. . . . . . . . . . . . . . . . . . . .
 72
65
 73
2
 40
0.2
 49
0.1
 74
0
 49
-0.1
 74
0
  0
LTYPE
  5
1F9
100
AcDbSymbolTableRecord
100
AcDbLinetypeTableRecord
  2
DASHED
 70
64
  3
- - - - - - - - - - - - - - - - - - - -
 72
65
 73
2
 40
0.2
 49
0.1
 74
0
 49
-0.1
 74
0
  0
ENDTAB
  0
TABLE
  2
LAYER
  5
2
100
AcDbSymbolTable
 70
36
  0
LAYER
  5
10
100
AcDbSymbolTableRecord
100
AcDbLayerTableRecord
  2
0
 70
0
 62
7
  6
CONTINUOUS
370
-3
390
F
  0
LAYER
  5
1FA
100
AcDbSymbolTableRecord
100
AcDbLayerTableRecord
  2
DEFAULT_1
 70
0
 62
7
  6
CENTER
370
-3
390
F
  0
LAYER
  5
1FB
100
AcDbSymbolTableRecord
100
AcDbLayerTableRecord
  2
DEFAULT_2
 70
0
 62
7
  6
HIDDEN
370
-3
390
F
  0
LAYER
  5
1FC
100
AcDbSymbolTableRecord
100
AcDbLayerTableRecord
  2
DEFAULT_3
 70
0
 62
7
  6
PHANTOM
370
-3
390
F
  0
LAYER
  5
1FD
100
AcDbSymbolTableRecord
100
AcDbLayerTableRecord
  2
ALTRI_PIANI
 70
0
 62
7
  6
CONTINUOUS
370
-3
390
F
  0
LAYER
  5
1FE
100
AcDbSymbolTableRecord
100
AcDbLayerTableRecord
  2
ASSI
 70
0
 62
7
  6
CONTINUOUS
370
-3
390
F
  0
LAYER
  5
1FF
100
AcDbSymbolTableRecord
100
AcDbLayerTableRecord
  2
COORDINATE
 70
0
 62
7
  6
CONTINUOUS
370
-3
390
F
  0
LAYER
  5
200
100
AcDbSymbolTableRecord
100
AcDbLayerTableRecord
  2
COORD_ORIGINE
 70
0
 62
7
  6
CONTINUOUS
370
-3
390
F
  0
LAYER
  5
201
100
AcDbSymbolTableRecord
100
AcDbLayerTableRecord
  2
COPY_PUBLISH
 70
0
 62
7
  6
CONTINUOUS
370
-3
390
F
  0
LAYER
  5
202
100
AcDbSymbolTableRecord
100
AcDbLayerTableRecord
  2
COSMETICI
 70
0
 62
7
  6
CONTINUOUS
370
-3
390
F
  0
LAYER
  5
203
100
AcDbSymbolTableRecord
100
AcDbLayerTableRecord
  2
CURVE
 70
0
 62
7
  6
CONTINUOUS
370
-3
390
F
  0
LAYER
  5
204
100
AcDbSymbolTableRecord
100
AcDbLayerTableRecord
  2
DRAFT
 70
0
 62
7
  6
CONTINUOUS
370
-3
390
F
  0
LAYER
  5
205
100
AcDbSymbolTableRecord
100
AcDbLayerTableRecord
  2
IMPORT_IGES
 70
0
 62
7
  6
CONTINUOUS
370
-3
390
F
  0
LAYER
  5
206
100
AcDbSymbolTableRecord
100
AcDbLayerTableRecord
  2
NOTE
 70
0
 62
7
  6
CONTINUOUS
370
-3
390
F
  0
LAYER
  5
207
100
AcDbSymbolTableRecord
100
AcDbLayerTableRecord
  2
PIANI
 70
0
 62
7
  6
CONTINUOUS
370
-3
390
F
  0
LAYER
  5
208
100
AcDbSymbolTableRecord
100
AcDbLayerTableRecord
  2
PIANI_ORIGINE
 70
0
 62
7
  6
CONTINUOUS
370
-3
390
F
  0
LAYER
  5
209
100
AcDbSymbolTableRecord
100
AcDbLayerTableRecord
  2
PUNTI
 70
0
 62
7
  6
CONTINUOUS
370
-3
390
F
  0
LAYER
  5
20A
100
AcDbSymbolTableRecord
100
AcDbLayerTableRecord
  2
RACCORDO
 70
0
 62
7
  6
CONTINUOUS
370
-3
390
F
  0
LAYER
  5
20B
100
AcDbSymbolTableRecord
100
AcDbLayerTableRecord
  2
SIMBOLI
 70
0
 62
7
  6
CONTINUOUS
370
-3
390
F
  0
LAYER
  5
20C
100
AcDbSymbolTableRecord
100
AcDbLayerTableRecord
  2
SMUSSO
 70
0
 62
7
  6
CONTINUOUS
370
-3
390
F
  0
LAYER
  5
20D
100
AcDbSymbolTableRecord
100
AcDbLayerTableRecord
  2
SNAPLINE
 70
0
 62
7
  6
CONTINUOUS
370
-3
390
F
  0
LAYER
  5
20E
100
AcDbSymbolTableRecord
100
AcDbLayerTableRecord
  2
SUPERFICI
 70
0
 62
7
  6
CONTINUOUS
370
-3
390
F
  0
LAYER
  5
20F
100
AcDbSymbolTableRecord
100
AcDbLayerTableRecord
  2
TRASH
 70
0
 62
7
  6
CONTINUOUS
370
-3
390
F
  0
LAYER
  5
210
100
AcDbSymbolTableRecord
100
AcDbLayerTableRecord
  2
VECCHIO_NETSAFE
 70
0
 62
7
  6
CONTINUOUS
370
-3
390
F
  0
ENDTAB
  0
TABLE
  2
STYLE
  5
3
100
AcDbSymbolTable
 70
1
  0
STYLE
  5
11
100
AcDbSymbolTableRecord
100
AcDbTextStyleTableRecord
  2
STANDARD
 70
0
 40
0.0
 41
0.8
 50
0.0
 71
0
 42
0.2
  3
txt
  4

  0
STYLE
  5
211
100
AcDbSymbolTableRecord
100
AcDbTextStyleTableRecord
  2
TEXTSTYLE_1
 70
0
 40
0.0
 41
0.8
 50
0.0
 71
0
 42
0.2
  3
gdt
  4

  0
ENDTAB
  0
TABLE
  2
VIEW
  5
6
100
AcDbSymbolTable
 70
0
  0
ENDTAB
  0
TABLE
  2
UCS
  5
7
100
AcDbSymbolTable
 70
0
  0
ENDTAB
  0
TABLE
  2
APPID
  5
9
100
AcDbSymbolTable
 70
1
  0
APPID
  5
212
100
AcDbSymbolTableRecord
100
AcDbRegAppTableRecord
  2
ACAD
 70
0
  0
ENDTAB
  0
TABLE
  2
BLOCK_RECORD
  5
1
100
AcDbSymbolTable
 70
0
  0
BLOCK_RECORD
  5
213
100
AcDbSymbolTableRecord
100
AcDbBlockTableRecord
  2
*Model_Space
  0
BLOCK_RECORD
  5
214
100
AcDbSymbolTableRecord
100
AcDbBlockTableRecord
  2
*Paper_Space
  0
ENDTAB
  0
TABLE
  2
DIMSTYLE
  5
A
100
AcDbSymbolTable
 70
1
100
AcDbDimStyleTable
 71
0
  0
DIMSTYLE
105
215
100
AcDbSymbolTableRecord
100
AcDbDimStyleTableRecord
  2
STANDARD
 70
0
  3

  4

 40
1.0
 41
3.0
 42
0.5
 43
0.38
 44
1.5
 45
0.0
 46
0.0
 47
0.01
 48
0.01
140
3.0
141
0.09
142
0.0
143
25.4
144
1.0
145
0.0
146
1.0
147
0.625
 71
1.0
 72
0.0
 73
0
 74
0
 75
0
 76
0
 77
1
 78
8
170
0
171
1
172
0
173
0
174
0
175
0
176
0
177
0
178
0
270
2
271
2
272
2
273
2
274
2
275
0
280
0
281
0
282
0
283
1
284
8
285
0
286
0
287
3
288
0
340
11
278
44
  0
ENDTAB
  0
ENDSEC
  0
SECTION
  2
BLOCKS
  0
BLOCK
  5
20
100
AcDbEntity
  8
0
100
AcDbBlockBegin
  2
*Model_Space
 70
0
 10
0.0
 20
0.0
 30
0.0
  3
*Model_Space
  1

  0
ENDBLK
  5
21
100
AcDbEntity
  8
0
100
AcDbBlockEnd
  0
BLOCK
  5
1C
100
AcDbEntity
  8
0
100
AcDbBlockBegin
  2
*Paper_Space
 70
0
 10
0.0
 20
0.0
 30
0.0
  3
*Paper_Space
  1

  0
ENDBLK
  5
1D
100
AcDbEntity
  8
0
100
AcDbBlockEnd
  0
ENDSEC
  0
SECTION
  2
ENTITIES
  0
LWPOLYLINE
  5
216
100
AcDbEntity
  8
RACCORDO
100
AcDbPolyline
 62
253
  6
CONTINUOUS
 90
3
 70
0
 10
169.0548568725
 20
-200.6730130046
 10
169.007743065
 20
-200.6855984678
 10
168.9568675306
 20
-200.6948160786
  0
LINE
  5
217
100
AcDbEntity
  8
RACCORDO
100
AcDbLine
 62
253
  6
CONTINUOUS
 10
170.9115737408
 20
-198.100564306
 11
171.1355830941
 21
-198.0416321411
  0
LWPOLYLINE
  5
218
100
AcDbEntity
  8
RACCORDO
100
AcDbPolyline
 62
253
  6
CONTINUOUS
 90
21
 70
0
 10
171.1355830941
 20
-198.0416321411
 10
171.1903358041
 20
-198.0274482309
 10
171.2144535508
 20
-198.0213369847
 10
171.2364914675
 20
-198.0158784285
 10
171.2564652381
 20
-198.0111085012
 10
171.2746265653
 20
-198.0069173591
 10
171.2909755884
 20
-198.0033307953
 10
171.3055325663
 20
-198.000373692
 10
171.3185761001
 20
-197.997926346
 10
171.3301188439
 20
-197.996002439
 10
171.3401626543
 20
-197.9946224954
 10
171.3489669222
 20
-197.9936699186
 10
171.3565351513
 20
-197.9931498787
 10
171.3628735855
 20
-197.9930794065
 10
171.3682432456
 20
-197.9933540986
 10
171.3726686438
 20
-197.9939687917
 10
171.3761310697
 20
-197.9949415397
 10
171.3788249113
 20
-197.9961987855
 10
171.3808158799
 20
-197.9977180094
 10
171.3820415605
 20
-197.9995289111
 10
171.3825033565
 20
-198.0016345126
  0
LINE
  5
219
100
AcDbEntity
  8
RACCORDO
100
AcDbLine
 62
253
  6
CONTINUOUS
 10
170.8148108098
 20
-198.1255113403
 11
170.9115737408
 21
-198.100564306
  0
LWPOLYLINE
  5
21A
100
AcDbEntity
  8
RACCORDO
100
AcDbPolyline
 62
253
  6
CONTINUOUS
 90
4
 70
0
 10
170.5873072983
 20
-198.1826025968
 10
170.648450774
 20
-198.1675711681
 10
170.7067406913
 20
-198.1529896673
 10
170.8148108098
 20
-198.1255113403
  0
LINE
  5
21B
100
AcDbEntity
  8
RACCORDO
100
AcDbLine
 62
253
  6
CONTINUOUS
 10
170.8162191552
 20
-197.888162628
 11
171.2211491946
 21
-197.8093900003
  0
LWPOLYLINE
  5
21C
100
AcDbEntity
  8
RACCORDO
100
AcDbPolyline
 62
253
  6
CONTINUOUS
 90
21
 70
0
 10
171.2211491946
 20
-197.8093900003
 10
171.2900011838
 20
-197.7963037731
 10
171.3202304893
 20
-197.7907151453
 10
171.3478306204
 20
-197.7857617119
 10
171.3728844493
 20
-197.7814355037
 10
171.3955417225
 20
-197.7776853167
 10
171.4159057671
 20
-197.7745194645
 10
171.4340941936
 20
-197.7719296335
 10
171.4502659277
 20
-197.7698396798
 10
171.4645360895
 20
-197.7682529449
 10
171.4770091662
 20
-197.7671660873
 10
171.4878140526
 20
-197.7664929386
 10
171.4970451039
 20
-197.7662323828
 10
171.5048280405
 20
-197.766385536
 10
171.5113108241
 20
-197.7668695775
 10
171.5165782258
 20
-197.7676768555
 10
171.5207157491
 20
-197.7688150218
 10
171.5238277955
 20
-197.7702242113
 10
171.5259809633
 20
-197.771884469
 10
171.5272279679
 20
-197.7738157499
 10
171.5276301292
 20
-197.7760180541
  0
LINE
  5
21D
100
AcDbEntity
  8
RACCORDO
100
AcDbLine
 62
253
  6
CONTINUOUS
 10
170.5276301292
 20
-197.9426079411
 11
170.8162191552
 21
-197.888162628
  0
LINE
  5
21E
100
AcDbEntity
  8
0
100
AcDbLine
 62
7
  6
CONTINUOUS
 10
-215.2473698708
 20
3.2072294888
 11
-215.2473698708
 21
2.2072294888
  0
LINE
  5
21F
100
AcDbEntity
  8
0
100
AcDbLine
 62
7
  6
CONTINUOUS
 10
-214.3973698708
 20
3.2072294888
 11
-214.3973698708
 21
2.2072294888
  0
LINE
  5
220
100
AcDbEntity
  8
0
100
AcDbLine
 62
7
  6
CONTINUOUS
 10
-212.1223698708
 20
3.2072294888
 11
-212.1223698708
 21
2.2072294888
  0
LINE
  5
221
100
AcDbEntity
  8
0
100
AcDbLine
 62
7
  6
CONTINUOUS
 10
-208.3723698708
 20
3.2072294888
 11
-208.3723698708
 21
2.2072294888
  0
LINE
  5
222
100
AcDbEntity
  8
0
100
AcDbLine
 62
7
  6
CONTINUOUS
 10
-205.8473698708
 20
3.2072294888
 11
-205.8473698708
 21
2.2072294888
  0
LINE
  5
223
100
AcDbEntity
  8
0
100
AcDbLine
 62
7
  6
CONTINUOUS
 10
-201.8473698708
 20
-0.8677705112
 11
-201.8473698708
 21
6.2822294888
  0
LINE
  5
224
100
AcDbEntity
  8
0
100
AcDbLine
 62
7
  6
CONTINUOUS
 10
-201.3473698708
 20
-2.0427705112
 11
-201.3473698708
 21
7.4572294888
  0
LWPOLYLINE
  5
225
100
AcDbEntity
  8
RACCORDO
100
AcDbPolyline
 62
253
  6
CONTINUOUS
 90
3
 70
0
 10
168.9568675306
 20
-200.6948160786
 10
168.841732569
 20
-200.7073191367
 10
168.7718588812
 20
-200.7141619963
  0
LWPOLYLINE
  5
226
100
AcDbEntity
  8
RACCORDO
100
AcDbPolyline
 62
253
  6
CONTINUOUS
 90
4
 70
0
 10
168.7718588812
 20
-200.7141619963
 10
168.5205721825
 20
-200.7324855216
 10
168.4205225979
 20
-200.7385313803
 10
168.3138004987
 20
-200.7435274527
  0
LWPOLYLINE
  5
227
100
AcDbEntity
  8
RACCORDO
100
AcDbPolyline
 62
253
  6
CONTINUOUS
 90
10
 70
0
 10
153.6026120182
 20
-198.366282466
 10
153.6087068541
 20
-198.365852951
 10
153.6165462454
 20
-198.3548727787
 10
153.6252648158
 20
-198.3333650386
 10
153.633385168
 20
-198.3009371448
 10
153.6407512844
 20
-198.258255895
 10
153.6486810804
 20
-198.2068213877
 10
153.6573391299
 20
-198.1470812079
 10
153.665524619
 20
-198.078652512
 10
153.6727568862
 20
-198.0016346849
  0
LWPOLYLINE
  5
228
100
AcDbEntity
  8
RACCORDO
100
AcDbPolyline
 62
253
  6
CONTINUOUS
 90
10
 70
0
 10
169.3566884874
 20
-198.088788497
 10
169.4869352993
 20
-198.0866049746
 10
169.6172489324
 20
-198.0809035958
 10
169.7476293867
 20
-198.0716843605
 10
169.8782131524
 20
-198.0589430475
 10
170.0088637393
 20
-198.042683878
 10
170.1391716774
 20
-198.0229195162
 10
170.2690004767
 20
-197.9996541834
 10
170.3984866274
 20
-197.9728836584
 10
170.5276301292
 20
-197.9426079411
  0
LINE
  5
229
100
AcDbEntity
  8
RACCORDO
100
AcDbLine
 62
253
  6
CONTINUOUS
 10
168.3138050824
 20
-200.743531665
 11
168.0985156529
 21
-200.7470627877
  0
LWPOLYLINE
  5
22A
100
AcDbEntity
  8
RACCORDO
100
AcDbPolyline
 62
253
  6
CONTINUOUS
 90
10
 70
0
 10
169.35755525
 20
-198.3337141374
 10
169.4943510375
 20
-198.3316652627
 10
169.6313355598
 20
-198.3259486857
 10
169.7684138703
 20
-198.3165515633
 10
169.9054967415
 20
-198.3034592732
 10
170.0424819313
 20
-198.2866682249
 10
170.1792542693
 20
-198.2661864433
 10
170.3157108051
 20
-198.2420162946
 10
170.4517608573
 20
-198.2141539537
 10
170.5873072983
 20
-198.1826025968
  0
LWPOLYLINE
  5
22B
100
AcDbEntity
  8
RACCORDO
100
AcDbPolyline
 62
253
  6
CONTINUOUS
 90
7
 70
0
 10
168.0985156529
 20
-200.7470627877
 10
167.8596475062
 20
-200.7501669105
 10
167.5984392985
 20
-200.7528440335
 10
167.3166036106
 20
-200.755041156
 10
167.0149613694
 20
-200.7568112787
 10
166.6933262264
 20
-200.758313403
 10
166.3527253202
 20
-200.7595597445
  0
LINE
  5
22C
100
AcDbEntity
  8
RACCORDO
100
AcDbLine
 62
253
  6
CONTINUOUS
 10
166.3527253202
 20
-200.7595597445
 11
165.6227196553
 21
-200.7613707879
  0
LINE
  5
22D
100
AcDbEntity
  8
RACCORDO
100
AcDbLine
 62
253
  6
CONTINUOUS
 10
165.6227196553
 20
-200.7613707879
 11
164.8381933567
 21
-200.7626584094
  0
LINE
  5
22E
100
AcDbEntity
  8
RACCORDO
100
AcDbLine
 62
253
  6
CONTINUOUS
 10
164.8381933567
 20
-200.7626584094
 11
164.015553197
 21
-200.7634654903
  0
LINE
  5
22F
100
AcDbEntity
  8
RACCORDO
100
AcDbLine
 62
253
  6
CONTINUOUS
 10
164.015553197
 20
-200.7634654903
 11
163.1703781873
 21
-200.7638558761
  0
LINE
  5
230
100
AcDbEntity
  8
ASSI
100
AcDbLine
 62
7
  6
CONTINUOUS
 10
163.8526301292
 20
-216.1427705112
 11
161.2026301292
 21
-216.1427705112
  0
LINE
  5
231
100
AcDbEntity
  8
ASSI
100
AcDbLine
 62
7
  6
CONTINUOUS
 10
163.8526301292
 20
-213.0718912488
 11
161.2026301292
 21
-213.0718912488
  0
LINE
  5
232
100
AcDbEntity
  8
ASSI
100
AcDbLine
 62
7
  6
CONTINUOUS
 10
163.8526301292
 20
-207.6136497737
 11
161.2026301292
 21
-207.6136497737
  0
LINE
  5
233
100
AcDbEntity
  8
0
100
AcDbLine
 62
7
  6
CONTINUOUS
 10
163.8526301292
 20
-204.5427705112
 11
163.0276301292
 21
-204.5427705112
  0
LINE
  5
234
100
AcDbEntity
  8
0
100
AcDbLine
 62
253
  6
CONTINUOUS
 10
163.0276301292
 20
-204.5427705112
 11
162.0276301292
 21
-204.5427705112
  0
LINE
  5
235
100
AcDbEntity
  8
0
100
AcDbLine
 62
7
  6
CONTINUOUS
 10
162.0276301292
 20
-204.5427705112
 11
161.2026301292
 21
-204.5427705112
  0
LINE
  5
236
100
AcDbEntity
  8
0
100
AcDbLine
 62
7
  6
CONTINUOUS
 10
163.0276301292
 20
-203.9695329624
 11
162.0276301292
 21
-203.9695329624
  0
LINE
  5
237
100
AcDbEntity
  8
0
100
AcDbLine
 62
7
  6
CONTINUOUS
 10
163.0276301292
 20
-202.6133085694
 11
162.0276301292
 21
-202.6133085694
  0
LINE
  5
238
100
AcDbEntity
  8
0
100
AcDbLine
 62
7
  6
CONTINUOUS
 10
166.6526301292
 20
-202.0427705112
 11
158.4026301292
 21
-202.0427705112
  0
LINE
  5
239
100
AcDbEntity
  8
RACCORDO
100
AcDbLine
 62
7
  6
CONTINUOUS
 10
168.7567360743
 20
-200.7927755517
 11
168.7602304557
 21
-200.7927702523
  0
LINE
  5
23A
100
AcDbEntity
  8
ASSI
100
AcDbLine
 62
7
  6
CONTINUOUS
 10
168.1276301292
 20
-200.7927705112
 11
156.9276301292
 21
-200.7927705112
  0
LINE
  5
23B
100
AcDbEntity
  8
RACCORDO
100
AcDbLine
 62
253
  6
CONTINUOUS
 10
163.1703781873
 20
-200.7638558761
 11
162.3170374582
 21
-200.7639391585
  0
LINE
  5
23C
100
AcDbEntity
  8
RACCORDO
100
AcDbLine
 62
7
  6
CONTINUOUS
 10
156.2949672425
 20
-200.7927701686
 11
156.5681331794
 21
-200.792765729
  0
LINE
  5
23D
100
AcDbEntity
  8
RACCORDO
100
AcDbLine
 62
253
  6
CONTINUOUS
 10
162.3170374582
 20
-200.7639391585
 11
161.4669817359
 21
-200.7637047238
  0
LINE
  5
23E
100
AcDbEntity
  8
RACCORDO
100
AcDbLine
 62
7
  6
CONTINUOUS
 10
156.565839563
 20
-200.7927653955
 11
156.9276301446
 21
-200.7927369088
  0
LINE
  5
23F
100
AcDbEntity
  8
RACCORDO
100
AcDbLine
 62
7
  6
CONTINUOUS
 10
156.9093890235
 20
-200.7927263594
 11
156.9276301461
 21
-200.7927350655
  0
LINE
  5
240
100
AcDbEntity
  8
RACCORDO
100
AcDbLine
 62
7
  6
CONTINUOUS
 10
168.1503513036
 20
-200.7927265676
 11
168.7580479681
 21
-200.7927738911
  0
LINE
  5
241
100
AcDbEntity
  8
RACCORDO
100
AcDbLine
 62
7
  6
CONTINUOUS
 10
168.2480210609
 20
-200.7927308091
 11
168.338494545
 21
-200.7927801474
  0
LINE
  5
242
100
AcDbEntity
  8
RACCORDO
100
AcDbLine
 62
253
  6
CONTINUOUS
 10
161.4669817359
 20
-200.7637047238
 11
160.6341586122
 21
-200.7631250915
  0
LINE
  5
243
100
AcDbEntity
  8
RACCORDO
100
AcDbLine
 62
253
  6
CONTINUOUS
 10
160.6341586122
 20
-200.7631250915
 11
159.8343357407
 21
-200.7621135339
  0
LWPOLYLINE
  5
244
100
AcDbEntity
  8
RACCORDO
100
AcDbPolyline
 62
253
  6
CONTINUOUS
 90
9
 70
0
 10
159.8343357407
 20
-200.7621135339
 10
159.0795451748
 20
-200.760589274
 10
158.7230284206
 20
-200.7596254316
 10
158.3817673657
 20
-200.7583903046
 10
158.0576091358
 20
-200.7568971605
 10
157.7524072438
 20
-200.7551327317
 10
157.4668982574
 20
-200.7529305516
 10
157.2022268602
 20
-200.7502351315
 10
156.96001929
 20
-200.7471019602
  0
LINE
  5
245
100
AcDbEntity
  8
0
100
AcDbLine
 62
7
  6
CONTINUOUS
 10
-200.5473698708
 20
-2.7927705112
 11
-200.5473698708
 21
8.2072294888
  0
LINE
  5
246
100
AcDbEntity
  8
0
100
AcDbLine
 62
7
  6
CONTINUOUS
 10
-199.2973698708
 20
180.2072294888
 11
-199.2973698708
 21
-174.7927705112
  0
LINE
  5
247
100
AcDbEntity
  8
RACCORDO
100
AcDbLine
 62
7
  6
CONTINUOUS
 10
-199.2973698708
 20
-195.7927705112
 11
-199.2973698708
 21
-177.2927705112
  0
LINE
  5
248
100
AcDbEntity
  8
0
100
AcDbLine
 62
7
  6
CONTINUOUS
 10
-199.2973698708
 20
181.4572294888
 11
-199.2973698708
 21
182.7072294888
  0
LINE
  5
249
100
AcDbEntity
  8
RACCORDO
100
AcDbLine
 62
7
  6
CONTINUOUS
 10
-199.2973698708
 20
182.7072294888
 11
-199.2973698708
 21
201.2072294888
  0
LINE
  5
24A
100
AcDbEntity
  8
0
100
AcDbLine
 62
7
  6
CONTINUOUS
 10
-198.2973698708
 20
-177.2927705112
 11
-198.2973698708
 21
-174.7927705112
  0
LINE
  5
24B
100
AcDbEntity
  8
0
100
AcDbLine
 62
253
  6
CONTINUOUS
 10
-198.2973698708
 20
180.2072294888
 11
-198.2973698708
 21
-174.7927705112
  0
LINE
  5
24C
100
AcDbEntity
  8
0
100
AcDbLine
 62
7
  6
CONTINUOUS
 10
-198.2973698708
 20
180.2072294888
 11
-198.2973698708
 21
182.7072294888
  0
LINE
  5
24D
100
AcDbEntity
  8
RACCORDO
100
AcDbLine
 62
7
  6
CONTINUOUS
 10
-183.4223698708
 20
165.2072294888
 11
-183.4223698708
 21
138.7072294888
  0
LINE
  5
24E
100
AcDbEntity
  8
RACCORDO
100
AcDbLine
 62
7
  6
CONTINUOUS
 10
-183.4223698708
 20
-133.2927705112
 11
-183.4223698708
 21
-159.7927705112
  0
LINE
  5
24F
100
AcDbEntity
  8
RACCORDO
100
AcDbLine
 62
7
  6
CONTINUOUS
 10
-181.9223698708
 20
-159.7927705112
 11
-181.9223698708
 21
-133.2927705112
  0
LINE
  5
250
100
AcDbEntity
  8
RACCORDO
100
AcDbLine
 62
7
  6
CONTINUOUS
 10
-181.9223698708
 20
138.7072294888
 11
-181.9223698708
 21
165.2072294888
  0
LWPOLYLINE
  5
251
100
AcDbEntity
  8
RACCORDO
100
AcDbPolyline
 62
253
  6
CONTINUOUS
 90
4
 70
0
 10
167.3165615973
 20
-198.3392972219
 10
167.8590689171
 20
-198.3378192932
 10
168.379653876
 20
-198.3364169344
 10
169.3575552352
 20
-198.3337138622
  0
LINE
  5
252
100
AcDbEntity
  8
RACCORDO
100
AcDbLine
 62
253
  6
CONTINUOUS
 10
166.1695717878
 20
-198.3422296612
 11
167.3165615973
 21
-198.3392972219
  0
LINE
  5
253
100
AcDbEntity
  8
RACCORDO
100
AcDbLine
 62
7
  6
CONTINUOUS
 10
199.2026301292
 20
-197.2927705112
 11
180.7026301292
 21
-197.2927705112
  0
LINE
  5
254
100
AcDbEntity
  8
0
100
AcDbLine
 62
7
  6
CONTINUOUS
 10
178.2026301292
 20
-197.2927705112
 11
146.6758533266
 21
-197.2927705112
  0
LINE
  5
255
100
AcDbEntity
  8
0
100
AcDbLine
 62
7
  6
CONTINUOUS
 10
137.5144069318
 20
-197.2927705112
 11
-136.1091466734
 21
-197.2927705112
  0
LINE
  5
256
100
AcDbEntity
  8
0
100
AcDbLine
 62
7
  6
CONTINUOUS
 10
-145.2705930682
 20
-197.2927705112
 11
-176.7973698708
 21
-197.2927705112
  0
LINE
  5
257
100
AcDbEntity
  8
0
100
AcDbLine
 62
7
  6
CONTINUOUS
 10
-178.0473698708
 20
-197.2927705112
 11
-179.2973698708
 21
-197.2927705112
  0
LINE
  5
258
100
AcDbEntity
  8
RACCORDO
100
AcDbLine
 62
7
  6
CONTINUOUS
 10
-179.2973698708
 20
-197.2927705112
 11
-197.7973698708
 21
-197.2927705112
  0
LINE
  5
259
100
AcDbEntity
  8
0
100
AcDbLine
 62
7
  6
CONTINUOUS
 10
-176.2973698708
 20
-196.6427705112
 11
-176.7973698708
 21
-196.6427705112
  0
LINE
  5
25A
100
AcDbEntity
  8
0
100
AcDbLine
 62
7
  6
CONTINUOUS
 10
180.7026301292
 20
-196.2927705112
 11
177.7026301292
 21
-196.2927705112
  0
LINE
  5
25B
100
AcDbEntity
  8
0
100
AcDbLine
 62
253
  6
CONTINUOUS
 10
177.7026301292
 20
-196.2927705112
 11
148.4579436556
 21
-196.2927705112
  0
LINE
  5
25C
100
AcDbEntity
  8
0
100
AcDbLine
 62
253
  6
CONTINUOUS
 10
135.7323166029
 20
-196.2927705112
 11
-134.3270563444
 21
-196.2927705112
  0
LINE
  5
25D
100
AcDbEntity
  8
0
100
AcDbLine
 62
253
  6
CONTINUOUS
 10
-147.0526833971
 20
-196.2927705112
 11
-176.2973698708
 21
-196.2927705112
  0
LINE
  5
25E
100
AcDbEntity
  8
0
100
AcDbLine
 62
7
  6
CONTINUOUS
 10
-176.2973698708
 20
-196.2927705112
 11
-179.2973698708
 21
-196.2927705112
  0
LINE
  5
25F
100
AcDbEntity
  8
RACCORDO
100
AcDbLine
 62
7
  6
CONTINUOUS
 10
-161.7973698708
 20
-181.4177705112
 11
-150.4463337454
 21
-181.4177705112
  0
LINE
  5
260
100
AcDbEntity
  8
RACCORDO
100
AcDbLine
 62
7
  6
CONTINUOUS
 10
151.8515940039
 20
-181.4177705112
 11
163.2026301292
 21
-181.4177705112
  0
LINE
  5
261
100
AcDbEntity
  8
RACCORDO
100
AcDbLine
 62
7
  6
CONTINUOUS
 10
163.2026301292
 20
-179.9177705112
 11
150.8196824615
 21
-179.9177705112
  0
LINE
  5
262
100
AcDbEntity
  8
RACCORDO
100
AcDbLine
 62
7
  6
CONTINUOUS
 10
-149.4144222031
 20
-179.9177705112
 11
-161.7973698708
 21
-179.9177705112
  0
LWPOLYLINE
  5
263
100
AcDbEntity
  8
RACCORDO
100
AcDbPolyline
 62
253
  6
CONTINUOUS
 90
10
 70
0
 10
159.8994923927
 20
-198.3444380902
 10
160.4913207173
 20
-198.3454438637
 10
161.0994773018
 20
-198.3462288414
 10
161.7223369836
 20
-198.3468027543
 10
162.3550983056
 20
-198.3470593873
 10
163.0022860823
 20
-198.3469446027
 10
163.6589418584
 20
-198.3465125383
 10
164.3060222256
 20
-198.3458193921
 10
164.9402442985
 20
-198.3448272636
 10
166.1695717878
 20
-198.3422296612
  0
LWPOLYLINE
  5
264
100
AcDbEntity
  8
RACCORDO
100
AcDbPolyline
 62
253
  6
CONTINUOUS
 90
11
 70
0
 10
159.9002647771
 20
-198.1040014904
 10
160.4918985899
 20
-198.1055476312
 10
161.0999183641
 20
-198.1067737405
 10
161.7226966008
 20
-198.1076922947
 10
162.3551526595
 20
-198.108107329
 10
163.0020463429
 20
-198.1079152798
 10
163.6586178485
 20
-198.1072197106
 10
164.3055071282
 20
-198.1061353477
 10
164.9394702775
 20
-198.1046022428
 10
165.563751201
 20
-198.1026803442
 10
169.3566884874
 20
-198.088788497
  0
LWPOLYLINE
  5
265
100
AcDbEntity
  8
RACCORDO
100
AcDbPolyline
 62
253
  6
CONTINUOUS
 90
7
 70
0
 10
155.6977050718
 20
-198.3337138595
 10
156.1725157314
 20
-198.3350338002
 10
156.6614968747
 20
-198.3363734244
 10
157.1647236845
 20
-198.3377327321
 10
157.682101879
 20
-198.3391435035
 10
158.213871302
 20
-198.3405739584
 10
159.8994923927
 20
-198.3444380902
  0
LINE
  5
266
100
AcDbEntity
  8
RACCORDO
100
AcDbLine
 62
253
  6
CONTINUOUS
 10
155.6985718196
 20
-198.0887885058
 11
156.1732943931
 21
-198.0905385083
  0
LWPOLYLINE
  5
267
100
AcDbEntity
  8
RACCORDO
100
AcDbPolyline
 62
253
  6
CONTINUOUS
 90
5
 70
0
 10
156.1732943931
 20
-198.0905385083
 10
157.1656522243
 20
-198.0942247968
 10
157.6830700229
 20
-198.0962065011
 10
158.2147920497
 20
-198.0982503
 10
159.9002647771
 20
-198.1040014904
  0
LINE
  5
268
100
AcDbEntity
  8
RACCORDO
100
AcDbLine
 62
253
  6
CONTINUOUS
 10
156.96001929
 20
-200.7471019602
 11
156.7416624783
 21
-200.7435310376
  0
LWPOLYLINE
  5
269
100
AcDbEntity
  8
RACCORDO
100
AcDbPolyline
 62
253
  6
CONTINUOUS
 90
3
 70
0
 10
156.7416639759
 20
-200.7435249484
 10
156.6341057223
 20
-200.7385794601
 10
156.533385806
 20
-200.7324888871
  0
LINE
  5
26A
100
AcDbEntity
  8
RACCORDO
100
AcDbLine
 62
253
  6
CONTINUOUS
 10
156.533385806
 20
-200.7324888871
 11
156.2814717553
 21
-200.713979653
  0
LINE
  5
26B
100
AcDbEntity
  8
RACCORDO
100
AcDbLine
 62
253
  6
CONTINUOUS
 10
156.2814717553
 20
-200.713979653
 11
156.2117859661
 21
-200.7071522998
  0
LWPOLYLINE
  5
26C
100
AcDbEntity
  8
RACCORDO
100
AcDbPolyline
 62
253
  6
CONTINUOUS
 90
6
 70
0
 10
156.2117859661
 20
-200.7071522998
 10
156.0969123883
 20
-200.6945074206
 10
156.046504255
 20
-200.6853966642
 10
155.9999434262
 20
-200.6729914429
 10
155.9639879706
 20
-200.6617550495
 10
155.9409763997
 20
-200.653585866
  0
LINE
  5
26D
100
AcDbEntity
  8
0
100
AcDbLine
 62
7
  6
CONTINUOUS
 10
-179.2973698708
 20
202.7072294888
 11
-179.2973698708
 21
201.7072294888
  0
LINE
  5
26E
100
AcDbEntity
  8
0
100
AcDbLine
 62
7
  6
CONTINUOUS
 10
-179.2973698708
 20
-197.2927705112
 11
-179.2973698708
 21
-196.2927705112
  0
LINE
  5
26F
100
AcDbEntity
  8
0
100
AcDbLine
 62
253
  6
CONTINUOUS
 10
-178.0473698708
 20
-197.2927705112
 11
-178.0473698708
 21
-196.2927705112
  0
LINE
  5
270
100
AcDbEntity
  8
0
100
AcDbLine
 62
7
  6
CONTINUOUS
 10
-176.7973698708
 20
202.7072294888
 11
-176.7973698708
 21
201.7072294888
  0
LINE
  5
271
100
AcDbEntity
  8
0
100
AcDbLine
 62
7
  6
CONTINUOUS
 10
-176.7973698708
 20
-196.9018680753
 11
-176.7973698708
 21
-197.2927705112
  0
LINE
  5
272
100
AcDbEntity
  8
0
100
AcDbLine
 62
7
  6
CONTINUOUS
 10
-176.2973698708
 20
202.7072294888
 11
-176.2973698708
 21
201.7072294888
  0
LINE
  5
273
100
AcDbEntity
  8
0
100
AcDbLine
 62
7
  6
CONTINUOUS
 10
-176.2973698708
 20
-196.2927705112
 11
-176.2973698708
 21
-197.2927705112
  0
LINE
  5
274
100
AcDbEntity
  8
0
100
AcDbLine
 62
7
  6
CONTINUOUS
 10
200.7026301292
 20
-177.2927705112
 11
199.7026301292
 21
-177.2927705112
  0
LINE
  5
275
100
AcDbEntity
  8
0
100
AcDbLine
 62
7
  6
CONTINUOUS
 10
-199.2973698708
 20
-177.2927705112
 11
-198.2973698708
 21
-177.2927705112
  0
LINE
  5
276
100
AcDbEntity
  8
0
100
AcDbLine
 62
253
  6
CONTINUOUS
 10
200.7026301292
 20
-176.0427705112
 11
199.7026301292
 21
-176.0427705112
  0
LINE
  5
277
100
AcDbEntity
  8
0
100
AcDbLine
 62
7
  6
CONTINUOUS
 10
200.7026301292
 20
-174.7927705112
 11
199.7026301292
 21
-174.7927705112
  0
LINE
  5
278
100
AcDbEntity
  8
0
100
AcDbLine
 62
7
  6
CONTINUOUS
 10
-199.2973698708
 20
-174.7927705112
 11
-198.2973698708
 21
-174.7927705112
  0
LINE
  5
279
100
AcDbEntity
  8
RACCORDO
100
AcDbLine
 62
253
  6
CONTINUOUS
 10
153.7350296683
 20
-197.790715123
 11
153.7982218325
 21
-197.8025195962
  0
LINE
  5
27A
100
AcDbEntity
  8
RACCORDO
100
AcDbLine
 62
253
  6
CONTINUOUS
 10
154.2390410155
 20
-197.8881625969
 11
154.5276301292
 21
-197.9426079328
  0
LWPOLYLINE
  5
27B
100
AcDbEntity
  8
RACCORDO
100
AcDbPolyline
 62
253
  6
CONTINUOUS
 90
4
 70
0
 10
153.7982218325
 20
-197.8025195962
 10
153.9601603094
 20
-197.8339555096
 10
154.0088423444
 20
-197.8434907033
 10
154.2390410155
 20
-197.8881625969
  0
LINE
  5
27C
100
AcDbEntity
  8
0
100
AcDbLine
 62
7
  6
CONTINUOUS
 10
-200.5473698708
 20
8.2072294888
 11
-201.3473698708
 21
7.4572294888
  0
LWPOLYLINE
  5
27D
100
AcDbEntity
  8
RACCORDO
100
AcDbPolyline
 62
253
  6
CONTINUOUS
 90
10
 70
0
 10
154.4679529628
 20
-198.1826025917
 10
154.6034999698
 20
-198.2141540679
 10
154.739550419
 20
-198.2420164671
 10
154.8760071794
 20
-198.2661866264
 10
155.0127795228
 20
-198.2866683785
 10
155.1497645412
 20
-198.3034593788
 10
155.2868471977
 20
-198.3165516275
 10
155.4239252958
 20
-198.3259487206
 10
155.5609095636
 20
-198.3316652788
 10
155.697705055
 20
-198.3337141482
  0
LWPOLYLINE
  5
27E
100
AcDbEntity
  8
RACCORDO
100
AcDbPolyline
 62
253
  6
CONTINUOUS
 90
10
 70
0
 10
154.5276301292
 20
-197.9426079328
 10
154.6567849562
 20
-197.9728854951
 10
154.7862780322
 20
-197.9996571389
 10
154.9161093572
 20
-198.0229228642
 10
155.0464133281
 20
-198.0426865385
 10
155.177055548
 20
-198.0589442944
 10
155.3076328262
 20
-198.0716845293
 10
155.4380107657
 20
-198.0809033758
 10
155.5683237635
 20
-198.0866047013
 10
155.6985718196
 20
-198.0887885058
  0
LINE
  5
27F
100
AcDbEntity
  8
RACCORDO
100
AcDbLine
 62
253
  6
CONTINUOUS
 10
154.4068086599
 20
-198.1675709658
 11
154.4679529628
 21
-198.1826025917
  0
LINE
  5
280
100
AcDbEntity
  8
RACCORDO
100
AcDbLine
 62
253
  6
CONTINUOUS
 10
154.2930719392
 20
-198.13892968
 11
154.4068086599
 21
-198.1675709658
  0
LINE
  5
281
100
AcDbEntity
  8
RACCORDO
100
AcDbLine
 62
253
  6
CONTINUOUS
 10
153.8408062891
 20
-198.0213368699
 11
153.8911318357
 21
-198.0341784108
  0
LINE
  5
282
100
AcDbEntity
  8
RACCORDO
100
AcDbLine
 62
253
  6
CONTINUOUS
 10
154.1436855581
 20
-198.1005640565
 11
154.2930719392
 21
-198.13892968
  0
LINE
  5
283
100
AcDbEntity
  8
RACCORDO
100
AcDbLine
 62
253
  6
CONTINUOUS
 10
153.8911318357
 20
-198.0341784108
 11
154.1436855581
 21
-198.1005640565
  0
LINE
  5
284
100
AcDbEntity
  8
0
100
AcDbLine
 62
7
  6
CONTINUOUS
 10
-200.5473698708
 20
-2.7927705112
 11
-201.3473698708
 21
-2.0427705112
  0
LWPOLYLINE
  5
285
100
AcDbEntity
  8
RACCORDO
100
AcDbPolyline
 62
253
  6
CONTINUOUS
 90
4
 70
0
 10
156.7416093758
 20
-200.7435545517
 10
156.8101035862
 20
-200.7703768126
 10
156.8810714502
 20
-200.7868657397
 10
156.9278071726
 20
-200.790483207
  0
LINE
  5
286
100
AcDbEntity
  8
RACCORDO
100
AcDbLine
 62
7
  6
CONTINUOUS
 10
-118.7973698708
 20
55.2822294888
 11
-118.7973698708
 21
54.0572294888
  0
LINE
  5
287
100
AcDbEntity
  8
ASSI
100
AcDbLine
 62
7
  6
CONTINUOUS
 10
-118.7973698708
 20
53.0322294888
 11
-118.7973698708
 21
52.0322294888
  0
LINE
  5
288
100
AcDbEntity
  8
RACCORDO
100
AcDbLine
 62
7
  6
CONTINUOUS
 10
-118.7973698708
 20
51.0072294888
 11
-118.7973698708
 21
49.7822294888
  0
LINE
  5
289
100
AcDbEntity
  8
RACCORDO
100
AcDbLine
 62
7
  6
CONTINUOUS
 10
-118.7973698708
 20
26.5322294888
 11
-118.7973698708
 21
25.3072294888
  0
LINE
  5
28A
100
AcDbEntity
  8
ASSI
100
AcDbLine
 62
7
  6
CONTINUOUS
 10
-118.7973698708
 20
24.2822294888
 11
-118.7973698708
 21
23.2822294888
  0
LINE
  5
28B
100
AcDbEntity
  8
RACCORDO
100
AcDbLine
 62
7
  6
CONTINUOUS
 10
-118.7973698708
 20
22.2572294888
 11
-118.7973698708
 21
21.0322294888
  0
LINE
  5
28C
100
AcDbEntity
  8
RACCORDO
100
AcDbLine
 62
7
  6
CONTINUOUS
 10
-118.7973698708
 20
-11.5927705112
 11
-118.7973698708
 21
-12.8177705112
  0
LINE
  5
28D
100
AcDbEntity
  8
ASSI
100
AcDbLine
 62
7
  6
CONTINUOUS
 10
-118.7973698708
 20
-13.8427705112
 11
-118.7973698708
 21
-14.8427705112
  0
LINE
  5
28E
100
AcDbEntity
  8
RACCORDO
100
AcDbLine
 62
7
  6
CONTINUOUS
 10
-118.7973698708
 20
-15.8677705112
 11
-118.7973698708
 21
-17.0927705112
  0
LINE
  5
28F
100
AcDbEntity
  8
RACCORDO
100
AcDbLine
 62
7
  6
CONTINUOUS
 10
-118.7973698708
 20
-40.3427705112
 11
-118.7973698708
 21
-41.5677705112
  0
LINE
  5
290
100
AcDbEntity
  8
ASSI
100
AcDbLine
 62
7
  6
CONTINUOUS
 10
-118.7973698708
 20
-42.5927705112
 11
-118.7973698708
 21
-43.5927705112
  0
LINE
  5
291
100
AcDbEntity
  8
RACCORDO
100
AcDbLine
 62
7
  6
CONTINUOUS
 10
-118.7973698708
 20
-44.6177705112
 11
-118.7973698708
 21
-45.8427705112
  0
LINE
  5
292
100
AcDbEntity
  8
RACCORDO
100
AcDbLine
 62
7
  6
CONTINUOUS
 10
-118.7303825727
 20
51.0308864358
 11
-118.7303825727
 21
51.0072294888
  0
LINE
  5
293
100
AcDbEntity
  8
RACCORDO
100
AcDbLine
 62
7
  6
CONTINUOUS
 10
-118.7303825727
 20
22.2808864358
 11
-118.7303825727
 21
22.2572294888
  0
LINE
  5
294
100
AcDbEntity
  8
RACCORDO
100
AcDbLine
 62
7
  6
CONTINUOUS
 10
-118.7303825727
 20
-41.5914274583
 11
-118.7303825727
 21
-41.5677705112
  0
LINE
  5
295
100
AcDbEntity
  8
RACCORDO
100
AcDbLine
 62
7
  6
CONTINUOUS
 10
-118.7303825727
 20
-15.8441135642
 11
-118.7303825727
 21
-15.8677705112
  0
LINE
  5
296
100
AcDbEntity
  8
RACCORDO
100
AcDbLine
 62
7
  6
CONTINUOUS
 10
-118.7303825727
 20
-12.8414274583
 11
-118.7303825727
 21
-12.8177705112
  0
LINE
  5
297
100
AcDbEntity
  8
RACCORDO
100
AcDbLine
 62
7
  6
CONTINUOUS
 10
-118.7303825727
 20
-44.5941135642
 11
-118.7303825727
 21
-44.6177705112
  0
LINE
  5
298
100
AcDbEntity
  8
RACCORDO
100
AcDbLine
 62
7
  6
CONTINUOUS
 10
-118.7303825727
 20
25.2835725417
 11
-118.7303825727
 21
25.3072294888
  0
LINE
  5
299
100
AcDbEntity
  8
RACCORDO
100
AcDbLine
 62
7
  6
CONTINUOUS
 10
-118.7303825727
 20
54.0335725417
 11
-118.7303825727
 21
54.0572294888
  0
LINE
  5
29A
100
AcDbEntity
  8
RACCORDO
100
AcDbLine
 62
253
  6
CONTINUOUS
 10
-118.2973698708
 20
55.2822294888
 11
-118.2973698708
 21
53.8569793887
  0
LINE
  5
29B
100
AcDbEntity
  8
RACCORDO
100
AcDbLine
 62
253
  6
CONTINUOUS
 10
-118.2973698708
 20
51.2074795889
 11
-118.2973698708
 21
49.7822294888
  0
LINE
  5
29C
100
AcDbEntity
  8
RACCORDO
100
AcDbLine
 62
253
  6
CONTINUOUS
 10
-118.2973698708
 20
26.5322294888
 11
-118.2973698708
 21
25.1069793887
  0
LINE
  5
29D
100
AcDbEntity
  8
RACCORDO
100
AcDbLine
 62
253
  6
CONTINUOUS
 10
-118.2973698708
 20
22.4574795889
 11
-118.2973698708
 21
21.0322294888
  0
LINE
  5
29E
100
AcDbEntity
  8
ASSI
100
AcDbLine
 62
7
  6
CONTINUOUS
 10
-118.2973698708
 20
-44.4175204111
 11
-118.2973698708
 21
-43.7930206113
  0
LINE
  5
29F
100
AcDbEntity
  8
ASSI
100
AcDbLine
 62
7
  6
CONTINUOUS
 10
-118.2973698708
 20
-42.3925204111
 11
-118.2973698708
 21
-41.7680206113
  0
LINE
  5
2A0
100
AcDbEntity
  8
RACCORDO
100
AcDbLine
 62
253
  6
CONTINUOUS
 10
-118.2973698708
 20
-11.5927705112
 11
-118.2973698708
 21
-13.0180206113
  0
LINE
  5
2A1
100
AcDbEntity
  8
RACCORDO
100
AcDbLine
 62
253
  6
CONTINUOUS
 10
-118.2973698708
 20
-15.6675204111
 11
-118.2973698708
 21
-17.0927705112
  0
LINE
  5
2A2
100
AcDbEntity
  8
ASSI
100
AcDbLine
 62
7
  6
CONTINUOUS
 10
-118.2973698708
 20
-15.6675204111
 11
-118.2973698708
 21
-15.0430206113
  0
LINE
  5
2A3
100
AcDbEntity
  8
ASSI
100
AcDbLine
 62
7
  6
CONTINUOUS
 10
-118.2973698708
 20
-13.6425204111
 11
-118.2973698708
 21
-13.0180206113
  0
LINE
  5
2A4
100
AcDbEntity
  8
RACCORDO
100
AcDbLine
 62
253
  6
CONTINUOUS
 10
-118.2973698708
 20
-40.3427705112
 11
-118.2973698708
 21
-41.7680206113
  0
LINE
  5
2A5
100
AcDbEntity
  8
RACCORDO
100
AcDbLine
 62
253
  6
CONTINUOUS
 10
-118.2973698708
 20
-44.4175204111
 11
-118.2973698708
 21
-45.8427705112
  0
LINE
  5
2A6
100
AcDbEntity
  8
ASSI
100
AcDbLine
 62
7
  6
CONTINUOUS
 10
-118.2973698708
 20
22.4574795889
 11
-118.2973698708
 21
23.0819793887
  0
LINE
  5
2A7
100
AcDbEntity
  8
ASSI
100
AcDbLine
 62
7
  6
CONTINUOUS
 10
-118.2973698708
 20
24.4824795889
 11
-118.2973698708
 21
25.1069793887
  0
LINE
  5
2A8
100
AcDbEntity
  8
ASSI
100
AcDbLine
 62
7
  6
CONTINUOUS
 10
-118.2973698708
 20
51.2074795889
 11
-118.2973698708
 21
51.8319793887
  0
LINE
  5
2A9
100
AcDbEntity
  8
ASSI
100
AcDbLine
 62
7
  6
CONTINUOUS
 10
-118.2973698708
 20
53.2324795889
 11
-118.2973698708
 21
53.8569793887
  0
LINE
  5
2AA
100
AcDbEntity
  8
RACCORDO
100
AcDbLine
 62
7
  6
CONTINUOUS
 10
-117.8723698708
 20
-46.3427705112
 11
-117.8723698708
 21
-46.0927705112
  0
LINE
  5
2AB
100
AcDbEntity
  8
RACCORDO
100
AcDbLine
 62
7
  6
CONTINUOUS
 10
-117.8723698708
 20
-40.0927705112
 11
-117.8723698708
 21
-39.8427705112
  0
LINE
  5
2AC
100
AcDbEntity
  8
RACCORDO
100
AcDbLine
 62
7
  6
CONTINUOUS
 10
-117.8723698708
 20
-17.5927705112
 11
-117.8723698708
 21
-17.3427705112
  0
LINE
  5
2AD
100
AcDbEntity
  8
RACCORDO
100
AcDbLine
 62
7
  6
CONTINUOUS
 10
-117.8723698708
 20
-11.3427705112
 11
-117.8723698708
 21
-11.0927705112
  0
LINE
  5
2AE
100
AcDbEntity
  8
RACCORDO
100
AcDbLine
 62
7
  6
CONTINUOUS
 10
-117.8723698708
 20
20.5322294888
 11
-117.8723698708
 21
20.7822294888
  0
LINE
  5
2AF
100
AcDbEntity
  8
RACCORDO
100
AcDbLine
 62
7
  6
CONTINUOUS
 10
-117.8723698708
 20
26.7822294888
 11
-117.8723698708
 21
27.0322294888
  0
LINE
  5
2B0
100
AcDbEntity
  8
RACCORDO
100
AcDbLine
 62
7
  6
CONTINUOUS
 10
-117.8723698708
 20
49.2822294888
 11
-117.8723698708
 21
49.5322294888
  0
LINE
  5
2B1
100
AcDbEntity
  8
RACCORDO
100
AcDbLine
 62
7
  6
CONTINUOUS
 10
-117.8723698708
 20
55.5322294888
 11
-117.8723698708
 21
55.7822294888
  0
LINE
  5
2B2
100
AcDbEntity
  8
0
100
AcDbLine
 62
7
  6
CONTINUOUS
 10
-117.7973698708
 20
62.9072294888
 11
-117.7973698708
 21
58.4072294888
  0
LINE
  5
2B3
100
AcDbEntity
  8
0
100
AcDbLine
 62
7
  6
CONTINUOUS
 10
-117.7973698708
 20
17.9072294888
 11
-117.7973698708
 21
13.4072294888
  0
LINE
  5
2B4
100
AcDbEntity
  8
0
100
AcDbLine
 62
7
  6
CONTINUOUS
 10
-117.7973698708
 20
-3.9677705112
 11
-117.7973698708
 21
-8.4677705112
  0
LINE
  5
2B5
100
AcDbEntity
  8
0
100
AcDbLine
 62
7
  6
CONTINUOUS
 10
-117.7973698708
 20
-48.9677705112
 11
-117.7973698708
 21
-53.4677705112
  0
LINE
  5
2B6
100
AcDbEntity
  8
0
100
AcDbLine
 62
7
  6
CONTINUOUS
 10
-113.2973698708
 20
-53.4677705112
 11
-113.2973698708
 21
-48.9677705112
  0
LINE
  5
2B7
100
AcDbEntity
  8
0
100
AcDbLine
 62
7
  6
CONTINUOUS
 10
-113.2973698708
 20
-8.4677705112
 11
-113.2973698708
 21
-3.9677705112
  0
LINE
  5
2B8
100
AcDbEntity
  8
0
100
AcDbLine
 62
7
  6
CONTINUOUS
 10
-113.2973698708
 20
13.4072294888
 11
-113.2973698708
 21
17.9072294888
  0
LINE
  5
2B9
100
AcDbEntity
  8
0
100
AcDbLine
 62
7
  6
CONTINUOUS
 10
-113.2973698708
 20
58.4072294888
 11
-113.2973698708
 21
62.9072294888
  0
LINE
  5
2BA
100
AcDbEntity
  8
RACCORDO
100
AcDbLine
 62
7
  6
CONTINUOUS
 10
-113.2223698708
 20
55.7822294888
 11
-113.2223698708
 21
55.5322294888
  0
LINE
  5
2BB
100
AcDbEntity
  8
RACCORDO
100
AcDbLine
 62
7
  6
CONTINUOUS
 10
-113.2223698708
 20
49.5322294888
 11
-113.2223698708
 21
49.2822294888
  0
LINE
  5
2BC
100
AcDbEntity
  8
RACCORDO
100
AcDbLine
 62
7
  6
CONTINUOUS
 10
-113.2223698708
 20
27.0322294888
 11
-113.2223698708
 21
26.7822294888
  0
LINE
  5
2BD
100
AcDbEntity
  8
RACCORDO
100
AcDbLine
 62
7
  6
CONTINUOUS
 10
-113.2223698708
 20
20.7822294888
 11
-113.2223698708
 21
20.5322294888
  0
LINE
  5
2BE
100
AcDbEntity
  8
RACCORDO
100
AcDbLine
 62
7
  6
CONTINUOUS
 10
-113.2223698708
 20
-11.0927705112
 11
-113.2223698708
 21
-11.3427705112
  0
LINE
  5
2BF
100
AcDbEntity
  8
RACCORDO
100
AcDbLine
 62
7
  6
CONTINUOUS
 10
-113.2223698708
 20
-17.3427705112
 11
-113.2223698708
 21
-17.5927705112
  0
LINE
  5
2C0
100
AcDbEntity
  8
RACCORDO
100
AcDbLine
 62
7
  6
CONTINUOUS
 10
-113.2223698708
 20
-39.8427705112
 11
-113.2223698708
 21
-40.0927705112
  0
LINE
  5
2C1
100
AcDbEntity
  8
RACCORDO
100
AcDbLine
 62
7
  6
CONTINUOUS
 10
-113.2223698708
 20
-46.0927705112
 11
-113.2223698708
 21
-46.3427705112
  0
LINE
  5
2C2
100
AcDbEntity
  8
RACCORDO
100
AcDbLine
 62
253
  6
CONTINUOUS
 10
-112.7973698708
 20
-45.8427705112
 11
-112.7973698708
 21
-44.4175204111
  0
LINE
  5
2C3
100
AcDbEntity
  8
ASSI
100
AcDbLine
 62
7
  6
CONTINUOUS
 10
-112.7973698708
 20
-44.4175204111
 11
-112.7973698708
 21
-43.7930206113
  0
LINE
  5
2C4
100
AcDbEntity
  8
ASSI
100
AcDbLine
 62
7
  6
CONTINUOUS
 10
-112.7973698708
 20
-42.3925204111
 11
-112.7973698708
 21
-41.7680206113
  0
LINE
  5
2C5
100
AcDbEntity
  8
RACCORDO
100
AcDbLine
 62
253
  6
CONTINUOUS
 10
-112.7973698708
 20
-41.7680206113
 11
-112.7973698708
 21
-40.3427705112
  0
LINE
  5
2C6
100
AcDbEntity
  8
RACCORDO
100
AcDbLine
 62
253
  6
CONTINUOUS
 10
-112.7973698708
 20
-17.0927705112
 11
-112.7973698708
 21
-15.6675204111
  0
LINE
  5
2C7
100
AcDbEntity
  8
ASSI
100
AcDbLine
 62
7
  6
CONTINUOUS
 10
-112.7973698708
 20
-15.6675204111
 11
-112.7973698708
 21
-15.0430206113
  0
LINE
  5
2C8
100
AcDbEntity
  8
ASSI
100
AcDbLine
 62
7
  6
CONTINUOUS
 10
-112.7973698708
 20
-13.6425204111
 11
-112.7973698708
 21
-13.0180206113
  0
LINE
  5
2C9
100
AcDbEntity
  8
RACCORDO
100
AcDbLine
 62
253
  6
CONTINUOUS
 10
-112.7973698708
 20
-13.0180206113
 11
-112.7973698708
 21
-11.5927705112
  0
LINE
  5
2CA
100
AcDbEntity
  8
RACCORDO
100
AcDbLine
 62
253
  6
CONTINUOUS
 10
-112.7973698708
 20
21.0322294888
 11
-112.7973698708
 21
22.4574795889
  0
LINE
  5
2CB
100
AcDbEntity
  8
ASSI
100
AcDbLine
 62
7
  6
CONTINUOUS
 10
-112.7973698708
 20
22.4574795889
 11
-112.7973698708
 21
23.0819793887
  0
LINE
  5
2CC
100
AcDbEntity
  8
ASSI
100
AcDbLine
 62
7
  6
CONTINUOUS
 10
-112.7973698708
 20
24.4824795889
 11
-112.7973698708
 21
25.1069793887
  0
LINE
  5
2CD
100
AcDbEntity
  8
RACCORDO
100
AcDbLine
 62
253
  6
CONTINUOUS
 10
-112.7973698708
 20
25.1069793887
 11
-112.7973698708
 21
26.5322294888
  0
LINE
  5
2CE
100
AcDbEntity
  8
RACCORDO
100
AcDbLine
 62
253
  6
CONTINUOUS
 10
-112.7973698708
 20
49.7822294888
 11
-112.7973698708
 21
51.2074795889
  0
LINE
  5
2CF
100
AcDbEntity
  8
ASSI
100
AcDbLine
 62
7
  6
CONTINUOUS
 10
-112.7973698708
 20
51.2074795889
 11
-112.7973698708
 21
51.8319793887
  0
LINE
  5
2D0
100
AcDbEntity
  8
ASSI
100
AcDbLine
 62
7
  6
CONTINUOUS
 10
-112.7973698708
 20
53.2324795889
 11
-112.7973698708
 21
53.8569793887
  0
LINE
  5
2D1
100
AcDbEntity
  8
RACCORDO
100
AcDbLine
 62
253
  6
CONTINUOUS
 10
-112.7973698708
 20
53.8569793887
 11
-112.7973698708
 21
55.2822294888
  0
LINE
  5
2D2
100
AcDbEntity
  8
RACCORDO
100
AcDbLine
 62
7
  6
CONTINUOUS
 10
-112.3643571689
 20
51.0308864358
 11
-112.3643571689
 21
51.0072294888
  0
LINE
  5
2D3
100
AcDbEntity
  8
RACCORDO
100
AcDbLine
 62
7
  6
CONTINUOUS
 10
-112.3643571689
 20
22.2808864358
 11
-112.3643571689
 21
22.2572294888
  0
LINE
  5
2D4
100
AcDbEntity
  8
RACCORDO
100
AcDbLine
 62
7
  6
CONTINUOUS
 10
-112.3643571689
 20
-41.5914274583
 11
-112.3643571689
 21
-41.5677705112
  0
LINE
  5
2D5
100
AcDbEntity
  8
RACCORDO
100
AcDbLine
 62
7
  6
CONTINUOUS
 10
-112.3643571689
 20
-15.8441135642
 11
-112.3643571689
 21
-15.8677705112
  0
LINE
  5
2D6
100
AcDbEntity
  8
RACCORDO
100
AcDbLine
 62
7
  6
CONTINUOUS
 10
-112.3643571689
 20
-12.8414274583
 11
-112.3643571689
 21
-12.8177705112
  0
LINE
  5
2D7
100
AcDbEntity
  8
RACCORDO
100
AcDbLine
 62
7
  6
CONTINUOUS
 10
-112.3643571689
 20
-44.5941135642
 11
-112.3643571689
 21
-44.6177705112
  0
LINE
  5
2D8
100
AcDbEntity
  8
RACCORDO
100
AcDbLine
 62
7
  6
CONTINUOUS
 10
-112.3643571689
 20
25.2835725417
 11
-112.3643571689
 21
25.3072294888
  0
LINE
  5
2D9
100
AcDbEntity
  8
RACCORDO
100
AcDbLine
 62
7
  6
CONTINUOUS
 10
-112.3643571689
 20
54.0335725417
 11
-112.3643571689
 21
54.0572294888
  0
LINE
  5
2DA
100
AcDbEntity
  8
RACCORDO
100
AcDbLine
 62
7
  6
CONTINUOUS
 10
-112.2973698708
 20
-45.8427705112
 11
-112.2973698708
 21
-44.6177705112
  0
LINE
  5
2DB
100
AcDbEntity
  8
ASSI
100
AcDbLine
 62
7
  6
CONTINUOUS
 10
-112.2973698708
 20
-43.5927705112
 11
-112.2973698708
 21
-42.5927705112
  0
LINE
  5
2DC
100
AcDbEntity
  8
RACCORDO
100
AcDbLine
 62
7
  6
CONTINUOUS
 10
-112.2973698708
 20
-41.5677705112
 11
-112.2973698708
 21
-40.3427705112
  0
LINE
  5
2DD
100
AcDbEntity
  8
RACCORDO
100
AcDbLine
 62
7
  6
CONTINUOUS
 10
-112.2973698708
 20
-17.0927705112
 11
-112.2973698708
 21
-15.8677705112
  0
LINE
  5
2DE
100
AcDbEntity
  8
ASSI
100
AcDbLine
 62
7
  6
CONTINUOUS
 10
-112.2973698708
 20
-14.8427705112
 11
-112.2973698708
 21
-13.8427705112
  0
LINE
  5
2DF
100
AcDbEntity
  8
RACCORDO
100
AcDbLine
 62
7
  6
CONTINUOUS
 10
-112.2973698708
 20
-12.8177705112
 11
-112.2973698708
 21
-11.5927705112
  0
LINE
  5
2E0
100
AcDbEntity
  8
RACCORDO
100
AcDbLine
 62
7
  6
CONTINUOUS
 10
-112.2973698708
 20
21.0322294888
 11
-112.2973698708
 21
22.2572294888
  0
LINE
  5
2E1
100
AcDbEntity
  8
ASSI
100
AcDbLine
 62
7
  6
CONTINUOUS
 10
-112.2973698708
 20
23.2822294888
 11
-112.2973698708
 21
24.2822294888
  0
LINE
  5
2E2
100
AcDbEntity
  8
RACCORDO
100
AcDbLine
 62
7
  6
CONTINUOUS
 10
-112.2973698708
 20
25.3072294888
 11
-112.2973698708
 21
26.5322294888
  0
LINE
  5
2E3
100
AcDbEntity
  8
RACCORDO
100
AcDbLine
 62
7
  6
CONTINUOUS
 10
-112.2973698708
 20
49.7822294888
 11
-112.2973698708
 21
51.0072294888
  0
LINE
  5
2E4
100
AcDbEntity
  8
ASSI
100
AcDbLine
 62
7
  6
CONTINUOUS
 10
-112.2973698708
 20
52.0322294888
 11
-112.2973698708
 21
53.0322294888
  0
LINE
  5
2E5
100
AcDbEntity
  8
RACCORDO
100
AcDbLine
 62
7
  6
CONTINUOUS
 10
-112.2973698708
 20
54.0572294888
 11
-112.2973698708
 21
55.2822294888
  0
LINE
  5
2E6
100
AcDbEntity
  8
0
100
AcDbLine
 62
7
  6
CONTINUOUS
 10
-111.7973698708
 20
70.9572294888
 11
-111.7973698708
 21
-63.5427705112
  0
LINE
  5
2E7
100
AcDbEntity
  8
RACCORDO
100
AcDbLine
 62
7
  6
CONTINUOUS
 10
-110.2973698708
 20
70.9072294888
 11
-110.2973698708
 21
70.4072294888
  0
LINE
  5
2E8
100
AcDbEntity
  8
RACCORDO
100
AcDbLine
 62
7
  6
CONTINUOUS
 10
-110.2973698708
 20
-62.4677705112
 11
-110.2973698708
 21
-61.9677705112
  0
LINE
  5
2E9
100
AcDbEntity
  8
RACCORDO
100
AcDbLine
 62
7
  6
CONTINUOUS
 10
-110.2973698708
 20
-61.4677705112
 11
-110.2973698708
 21
-60.9677705112
  0
LINE
  5
2EA
100
AcDbEntity
  8
RACCORDO
100
AcDbLine
 62
7
  6
CONTINUOUS
 10
-110.2973698708
 20
4.0322294888
 11
-110.2973698708
 21
3.5322294888
  0
LINE
  5
2EB
100
AcDbEntity
  8
RACCORDO
100
AcDbLine
 62
7
  6
CONTINUOUS
 10
-110.2973698708
 20
4.4072294888
 11
-110.2973698708
 21
4.9072294888
  0
LINE
  5
2EC
100
AcDbEntity
  8
RACCORDO
100
AcDbLine
 62
7
  6
CONTINUOUS
 10
-110.2973698708
 20
5.4072294888
 11
-110.2973698708
 21
5.9072294888
  0
LINE
  5
2ED
100
AcDbEntity
  8
RACCORDO
100
AcDbLine
 62
7
  6
CONTINUOUS
 10
-109.2973698708
 20
71.1572294888
 11
-109.2973698708
 21
70.4072294888
  0
LINE
  5
2EE
100
AcDbEntity
  8
RACCORDO
100
AcDbLine
 62
7
  6
CONTINUOUS
 10
-109.2973698708
 20
-62.7177705112
 11
-109.2973698708
 21
-61.9677705112
  0
LINE
  5
2EF
100
AcDbEntity
  8
RACCORDO
100
AcDbLine
 62
7
  6
CONTINUOUS
 10
-109.2973698708
 20
-61.7177705112
 11
-109.2973698708
 21
-60.9677705112
  0
LINE
  5
2F0
100
AcDbEntity
  8
RACCORDO
100
AcDbLine
 62
7
  6
CONTINUOUS
 10
-109.2973698708
 20
3.5322294888
 11
-109.2973698708
 21
4.9072294888
  0
LINE
  5
2F1
100
AcDbEntity
  8
RACCORDO
100
AcDbLine
 62
7
  6
CONTINUOUS
 10
-109.2973698708
 20
5.1572294888
 11
-109.2973698708
 21
5.9072294888
  0
LINE
  5
2F2
100
AcDbEntity
  8
RACCORDO
100
AcDbLine
 62
253
  6
CONTINUOUS
 10
-107.7973698708
 20
71.1572294888
 11
-107.7973698708
 21
70.4072294888
  0
LINE
  5
2F3
100
AcDbEntity
  8
RACCORDO
100
AcDbLine
 62
253
  6
CONTINUOUS
 10
-107.7973698708
 20
-62.7177705112
 11
-107.7973698708
 21
-61.9677705112
  0
LINE
  5
2F4
100
AcDbEntity
  8
RACCORDO
100
AcDbLine
 62
253
  6
CONTINUOUS
 10
-107.7973698708
 20
-61.7177705112
 11
-107.7973698708
 21
-60.9677705112
  0
LINE
  5
2F5
100
AcDbEntity
  8
RACCORDO
100
AcDbLine
 62
253
  6
CONTINUOUS
 10
-107.7973698708
 20
3.5322294888
 11
-107.7973698708
 21
4.9072294888
  0
LINE
  5
2F6
100
AcDbEntity
  8
RACCORDO
100
AcDbLine
 62
253
  6
CONTINUOUS
 10
-107.7973698708
 20
5.1572294888
 11
-107.7973698708
 21
5.9072294888
  0
LINE
  5
2F7
100
AcDbEntity
  8
RACCORDO
100
AcDbLine
 62
7
  6
CONTINUOUS
 10
-118.3649374384
 20
49.7146619212
 11
-118.2973698708
 21
49.7822294888
  0
LINE
  5
2F8
100
AcDbEntity
  8
RACCORDO
100
AcDbLine
 62
7
  6
CONTINUOUS
 10
-112.7298023032
 20
55.3497970563
 11
-112.7973698708
 21
55.2822294888
  0
LINE
  5
2F9
100
AcDbEntity
  8
0
100
AcDbLine
 62
7
  6
CONTINUOUS
 10
-201.3473698708
 20
6.5655628221
 11
-201.8473698708
 21
6.2822294888
  0
LINE
  5
2FA
100
AcDbEntity
  8
0
100
AcDbLine
 62
7
  6
CONTINUOUS
 10
158.4026301292
 20
-202.0427705112
 11
156.9276301292
 21
-201.2927705112
  0
LINE
  5
2FB
100
AcDbEntity
  8
0
100
AcDbLine
 62
7
  6
CONTINUOUS
 10
-201.3473698708
 20
-1.1511038446
 11
-201.8473698708
 21
-0.8677705112
  0
LINE
  5
2FC
100
AcDbEntity
  8
RACCORDO
100
AcDbLine
 62
7
  6
CONTINUOUS
 10
-112.7973698708
 20
-45.8427705112
 11
-112.7298023032
 21
-45.9103380788
  0
LINE
  5
2FD
100
AcDbEntity
  8
RACCORDO
100
AcDbLine
 62
7
  6
CONTINUOUS
 10
-118.2973698708
 20
-40.3427705112
 11
-118.3649374384
 21
-40.2752029437
  0
LINE
  5
2FE
100
AcDbEntity
  8
RACCORDO
100
AcDbLine
 62
7
  6
CONTINUOUS
 10
-118.3649374384
 20
20.9646619212
 11
-118.2973698708
 21
21.0322294888
  0
LINE
  5
2FF
100
AcDbEntity
  8
RACCORDO
100
AcDbLine
 62
7
  6
CONTINUOUS
 10
-112.7298023032
 20
26.5997970563
 11
-112.7973698708
 21
26.5322294888
  0
LINE
  5
300
100
AcDbEntity
  8
RACCORDO
100
AcDbLine
 62
7
  6
CONTINUOUS
 10
-118.5473698708
 20
55.2822294888
 11
-117.8723698708
 21
55.5322294888
  0
LINE
  5
301
100
AcDbEntity
  8
RACCORDO
100
AcDbLine
 62
7
  6
CONTINUOUS
 10
-112.5473698708
 20
49.7822294888
 11
-113.2223698708
 21
49.5322294888
  0
LINE
  5
302
100
AcDbEntity
  8
ASSI
100
AcDbLine
 62
7
  6
CONTINUOUS
 10
-118.7973698708
 20
53.0322294888
 11
-118.4141698721
 21
53.1675587577
  0
LINE
  5
303
100
AcDbEntity
  8
RACCORDO
100
AcDbLine
 62
7
  6
CONTINUOUS
 10
-112.6805698694
 20
53.9219002198
 11
-112.3643571689
 21
54.0335725417
  0
LINE
  5
304
100
AcDbEntity
  8
RACCORDO
100
AcDbLine
 62
7
  6
CONTINUOUS
 10
-118.4141698721
 20
51.1425587577
 11
-118.7303825727
 21
51.0308864358
  0
LINE
  5
305
100
AcDbEntity
  8
ASSI
100
AcDbLine
 62
7
  6
CONTINUOUS
 10
-112.2973698708
 20
52.0322294888
 11
-112.6805698694
 21
51.8969002198
  0
LINE
  5
306
100
AcDbEntity
  8
ASSI
100
AcDbLine
 62
7
  6
CONTINUOUS
 10
-118.4141698721
 20
-43.7280997802
 11
-118.7973698708
 21
-43.5927705112
  0
LINE
  5
307
100
AcDbEntity
  8
RACCORDO
100
AcDbLine
 62
7
  6
CONTINUOUS
 10
-112.6805698694
 20
-44.4824412423
 11
-112.3643571689
 21
-44.5941135642
  0
LINE
  5
308
100
AcDbEntity
  8
RACCORDO
100
AcDbLine
 62
7
  6
CONTINUOUS
 10
-118.4141698721
 20
-41.7030997802
 11
-118.7303825727
 21
-41.5914274583
  0
LINE
  5
309
100
AcDbEntity
  8
ASSI
100
AcDbLine
 62
7
  6
CONTINUOUS
 10
-112.6805698694
 20
-42.4574412423
 11
-112.2973698708
 21
-42.5927705112
  0
LINE
  5
30A
100
AcDbEntity
  8
RACCORDO
100
AcDbLine
 62
7
  6
CONTINUOUS
 10
-117.8723698708
 20
-46.0927705112
 11
-118.5473698708
 21
-45.8427705112
  0
LWPOLYLINE
  5
30B
100
AcDbEntity
  8
RACCORDO
100
AcDbPolyline
 62
253
  6
CONTINUOUS
 90
7
 70
0
 10
155.9409763997
 20
-200.653585866
 10
155.9369604864
 20
-200.6512884497
 10
155.9333200961
 20
-200.6490395915
 10
155.9300476473
 20
-200.6468398952
 10
155.9271349484
 20
-200.6446897544
 10
155.9245731925
 20
-200.6425893502
 10
155.922352953
 20
-200.6405386493
  0
LWPOLYLINE
  5
30C
100
AcDbEntity
  8
RACCORDO
100
AcDbPolyline
 62
253
  6
CONTINUOUS
 90
6
 70
0
 10
155.9938632426
 20
-200.6962048292
 10
156.0517791513
 20
-200.7316915694
 10
156.113769387
 20
-200.7594597155
 10
156.1788111816
 20
-200.7790511246
 10
156.24583142
 20
-200.7901425608
 10
156.2973646974
 20
-200.7927693039
  0
LINE
  5
30D
100
AcDbEntity
  8
RACCORDO
100
AcDbLine
 62
7
  6
CONTINUOUS
 10
-112.7973698708
 20
-17.0927705112
 11
-112.7298023032
 21
-17.1603380788
  0
LINE
  5
30E
100
AcDbEntity
  8
RACCORDO
100
AcDbLine
 62
7
  6
CONTINUOUS
 10
-118.2973698708
 20
-11.5927705112
 11
-118.3649374384
 21
-11.5252029437
  0
LINE
  5
30F
100
AcDbEntity
  8
0
100
AcDbLine
 62
7
  6
CONTINUOUS
 10
-74.2973698708
 20
181.9572294888
 11
-74.2973698708
 21
131.9572294888
  0
LINE
  5
310
100
AcDbEntity
  8
RACCORDO
100
AcDbLine
 62
7
  6
CONTINUOUS
 10
-118.3649374384
 20
-17.1603380788
 11
-118.2973698708
 21
-17.0927705112
  0
LINE
  5
311
100
AcDbEntity
  8
RACCORDO
100
AcDbLine
 62
7
  6
CONTINUOUS
 10
-112.7298023032
 20
-11.5252029437
 11
-112.7973698708
 21
-11.5927705112
  0
LINE
  5
312
100
AcDbEntity
  8
RACCORDO
100
AcDbLine
 62
7
  6
CONTINUOUS
 10
-118.5473698708
 20
26.5322294888
 11
-117.8723698708
 21
26.7822294888
  0
LINE
  5
313
100
AcDbEntity
  8
ASSI
100
AcDbLine
 62
7
  6
CONTINUOUS
 10
-118.7973698708
 20
24.2822294888
 11
-118.4141698721
 21
24.4175587577
  0
LINE
  5
314
100
AcDbEntity
  8
RACCORDO
100
AcDbLine
 62
7
  6
CONTINUOUS
 10
-112.6805698694
 20
25.1719002198
 11
-112.3643571689
 21
25.2835725417
  0
LINE
  5
315
100
AcDbEntity
  8
RACCORDO
100
AcDbLine
 62
7
  6
CONTINUOUS
 10
-118.4141698721
 20
22.3925587577
 11
-118.7303825727
 21
22.2808864358
  0
LINE
  5
316
100
AcDbEntity
  8
0
100
AcDbLine
 62
7
  6
CONTINUOUS
 10
-111.7973698708
 20
-63.5427705112
 11
113.2026301292
 21
-63.5427705112
  0
LINE
  5
317
100
AcDbEntity
  8
RACCORDO
100
AcDbLine
 62
7
  6
CONTINUOUS
 10
-111.7973698708
 20
-62.7177705112
 11
-110.5473698708
 21
-62.7177705112
  0
LINE
  5
318
100
AcDbEntity
  8
RACCORDO
100
AcDbLine
 62
7
  6
CONTINUOUS
 10
110.7026301292
 20
-62.7177705112
 11
-109.2973698708
 21
-62.7177705112
  0
LINE
  5
319
100
AcDbEntity
  8
RACCORDO
100
AcDbLine
 62
7
  6
CONTINUOUS
 10
111.9526301292
 20
-62.7177705112
 11
113.2026301292
 21
-62.7177705112
  0
LINE
  5
31A
100
AcDbEntity
  8
RACCORDO
100
AcDbLine
 62
7
  6
CONTINUOUS
 10
-109.2973698708
 20
-61.9677705112
 11
110.7026301292
 21
-61.9677705112
  0
LINE
  5
31B
100
AcDbEntity
  8
RACCORDO
100
AcDbLine
 62
7
  6
CONTINUOUS
 10
-111.7973698708
 20
-61.7177705112
 11
-110.5473698708
 21
-61.7177705112
  0
LINE
  5
31C
100
AcDbEntity
  8
RACCORDO
100
AcDbLine
 62
253
  6
CONTINUOUS
 10
110.902626879
 20
-61.7177705112
 11
110.7026301292
 21
-61.7177705112
  0
LINE
  5
31D
100
AcDbEntity
  8
RACCORDO
100
AcDbLine
 62
7
  6
CONTINUOUS
 10
-110.0473698708
 20
-61.7177705112
 11
-109.4973666205
 21
-61.7177705112
  0
LINE
  5
31E
100
AcDbEntity
  8
RACCORDO
100
AcDbLine
 62
7
  6
CONTINUOUS
 10
110.7026301292
 20
-61.7177705112
 11
-109.2973698708
 21
-61.7177705112
  0
LINE
  5
31F
100
AcDbEntity
  8
RACCORDO
100
AcDbLine
 62
253
  6
CONTINUOUS
 10
-109.2973698708
 20
-61.7177705112
 11
-109.4973666205
 21
-61.7177705112
  0
LINE
  5
320
100
AcDbEntity
  8
RACCORDO
100
AcDbLine
 62
7
  6
CONTINUOUS
 10
110.902626879
 20
-61.7177705112
 11
111.4526301292
 21
-61.7177705112
  0
LINE
  5
321
100
AcDbEntity
  8
RACCORDO
100
AcDbLine
 62
7
  6
CONTINUOUS
 10
111.9526301292
 20
-61.7177705112
 11
113.2026301292
 21
-61.7177705112
  0
LINE
  5
322
100
AcDbEntity
  8
RACCORDO
100
AcDbLine
 62
7
  6
CONTINUOUS
 10
-109.2973698708
 20
-60.9677705112
 11
110.7026301292
 21
-60.9677705112
  0
LINE
  5
323
100
AcDbEntity
  8
RACCORDO
100
AcDbLine
 62
7
  6
CONTINUOUS
 10
-110.0473698708
 20
-60.7177705112
 11
-109.4973666205
 21
-60.7177705112
  0
LINE
  5
324
100
AcDbEntity
  8
RACCORDO
100
AcDbLine
 62
253
  6
CONTINUOUS
 10
110.902626879
 20
-60.7177705112
 11
-109.4973666205
 21
-60.7177705112
  0
LINE
  5
325
100
AcDbEntity
  8
RACCORDO
100
AcDbLine
 62
7
  6
CONTINUOUS
 10
110.902626879
 20
-60.7177705112
 11
111.4526301292
 21
-60.7177705112
  0
LINE
  5
326
100
AcDbEntity
  8
RACCORDO
100
AcDbLine
 62
7
  6
CONTINUOUS
 10
-113.2223698708
 20
-40.0927705112
 11
-112.5473698708
 21
-40.3427705112
  0
LINE
  5
327
100
AcDbEntity
  8
RACCORDO
100
AcDbLine
 62
7
  6
CONTINUOUS
 10
-117.8723698708
 20
-17.3427705112
 11
-118.5473698708
 21
-17.0927705112
  0
LINE
  5
328
100
AcDbEntity
  8
RACCORDO
100
AcDbLine
 62
253
  6
CONTINUOUS
 10
155.940977207
 20
-200.6535849855
 11
155.9938632426
 21
-200.6962048292
  0
LINE
  5
329
100
AcDbEntity
  8
RACCORDO
100
AcDbLine
 62
7
  6
CONTINUOUS
 10
-112.7973698708
 20
21.0322294888
 11
-112.7298023032
 21
20.9646619212
  0
LINE
  5
32A
100
AcDbEntity
  8
RACCORDO
100
AcDbLine
 62
7
  6
CONTINUOUS
 10
-118.2973698708
 20
26.5322294888
 11
-118.3649374384
 21
26.5997970563
  0
LINE
  5
32B
100
AcDbEntity
  8
RACCORDO
100
AcDbLine
 62
7
  6
CONTINUOUS
 10
-118.3649374384
 20
-45.9103380788
 11
-118.2973698708
 21
-45.8427705112
  0
LINE
  5
32C
100
AcDbEntity
  8
RACCORDO
100
AcDbLine
 62
7
  6
CONTINUOUS
 10
-112.7298023032
 20
-40.2752029437
 11
-112.7973698708
 21
-40.3427705112
  0
LINE
  5
32D
100
AcDbEntity
  8
RACCORDO
100
AcDbLine
 62
7
  6
CONTINUOUS
 10
-112.5473698708
 20
21.0322294888
 11
-113.2223698708
 21
20.7822294888
  0
LINE
  5
32E
100
AcDbEntity
  8
ASSI
100
AcDbLine
 62
7
  6
CONTINUOUS
 10
-112.2973698708
 20
23.2822294888
 11
-112.6805698694
 21
23.1469002198
  0
LINE
  5
32F
100
AcDbEntity
  8
0
100
AcDbLine
 62
7
  6
CONTINUOUS
 10
-117.7973698708
 20
-53.4677705112
 11
-113.2973698708
 21
-53.4677705112
  0
LINE
  5
330
100
AcDbEntity
  8
0
100
AcDbLine
 62
7
  6
CONTINUOUS
 10
114.7026301292
 20
-53.4677705112
 11
119.2026301292
 21
-53.4677705112
  0
LINE
  5
331
100
AcDbEntity
  8
ASSI
100
AcDbLine
 62
7
  6
CONTINUOUS
 10
-116.4223698708
 20
-49.5177705112
 11
-114.6723698708
 21
-49.5177705112
  0
LINE
  5
332
100
AcDbEntity
  8
ASSI
100
AcDbLine
 62
7
  6
CONTINUOUS
 10
116.0776301292
 20
-49.5177705112
 11
117.8276301292
 21
-49.5177705112
  0
LINE
  5
333
100
AcDbEntity
  8
0
100
AcDbLine
 62
7
  6
CONTINUOUS
 10
-117.3996287406
 20
-49.2177705112
 11
-113.6951110009
 21
-49.2177705112
  0
LINE
  5
334
100
AcDbEntity
  8
0
100
AcDbLine
 62
7
  6
CONTINUOUS
 10
115.1003712594
 20
-49.2177705112
 11
118.8048889991
 21
-49.2177705112
  0
LINE
  5
335
100
AcDbEntity
  8
0
100
AcDbLine
 62
7
  6
CONTINUOUS
 10
119.2026301292
 20
-48.9677705112
 11
114.7026301292
 21
-48.9677705112
  0
LINE
  5
336
100
AcDbEntity
  8
0
100
AcDbLine
 62
7
  6
CONTINUOUS
 10
-113.2973698708
 20
-48.9677705112
 11
-117.7973698708
 21
-48.9677705112
  0
LINE
  5
337
100
AcDbEntity
  8
RACCORDO
100
AcDbLine
 62
7
  6
CONTINUOUS
 10
-117.8723698708
 20
-46.3427705112
 11
-113.2223698708
 21
-46.3427705112
  0
LINE
  5
338
100
AcDbEntity
  8
RACCORDO
100
AcDbLine
 62
7
  6
CONTINUOUS
 10
114.6276301292
 20
-46.3427705112
 11
119.2776301292
 21
-46.3427705112
  0
LINE
  5
339
100
AcDbEntity
  8
RACCORDO
100
AcDbLine
 62
7
  6
CONTINUOUS
 10
120.2026301292
 20
-45.8427705112
 11
119.9526301292
 21
-45.8427705112
  0
LINE
  5
33A
100
AcDbEntity
  8
RACCORDO
100
AcDbLine
 62
253
  6
CONTINUOUS
 10
-118.2973698708
 20
-45.8427705112
 11
-112.7973698708
 21
-45.8427705112
  0
LINE
  5
33B
100
AcDbEntity
  8
RACCORDO
100
AcDbLine
 62
7
  6
CONTINUOUS
 10
113.9526301292
 20
-45.8427705112
 11
113.7026301292
 21
-45.8427705112
  0
LINE
  5
33C
100
AcDbEntity
  8
RACCORDO
100
AcDbLine
 62
7
  6
CONTINUOUS
 10
-112.2973698708
 20
-45.8427705112
 11
-112.5473698708
 21
-45.8427705112
  0
LINE
  5
33D
100
AcDbEntity
  8
RACCORDO
100
AcDbLine
 62
253
  6
CONTINUOUS
 10
114.2026301292
 20
-45.8427705112
 11
119.7026301292
 21
-45.8427705112
  0
LINE
  5
33E
100
AcDbEntity
  8
RACCORDO
100
AcDbLine
 62
7
  6
CONTINUOUS
 10
-118.5473698708
 20
-45.8427705112
 11
-118.7973698708
 21
-45.8427705112
  0
LINE
  5
33F
100
AcDbEntity
  8
RACCORDO
100
AcDbLine
 62
7
  6
CONTINUOUS
 10
113.7696174273
 20
-44.6177705112
 11
113.7026301292
 21
-44.6177705112
  0
LINE
  5
340
100
AcDbEntity
  8
RACCORDO
100
AcDbLine
 62
7
  6
CONTINUOUS
 10
-112.3643571689
 20
-44.6177705112
 11
-112.2973698708
 21
-44.6177705112
  0
LINE
  5
341
100
AcDbEntity
  8
RACCORDO
100
AcDbLine
 62
7
  6
CONTINUOUS
 10
-118.7303825727
 20
-44.6177705112
 11
-118.7973698708
 21
-44.6177705112
  0
LINE
  5
342
100
AcDbEntity
  8
RACCORDO
100
AcDbLine
 62
7
  6
CONTINUOUS
 10
120.1356428311
 20
-44.6177705112
 11
120.2026301292
 21
-44.6177705112
  0
LINE
  5
343
100
AcDbEntity
  8
RACCORDO
100
AcDbLine
 62
7
  6
CONTINUOUS
 10
113.7696174273
 20
-41.5677705112
 11
113.7026301292
 21
-41.5677705112
  0
LINE
  5
344
100
AcDbEntity
  8
RACCORDO
100
AcDbLine
 62
7
  6
CONTINUOUS
 10
-112.3643571689
 20
-41.5677705112
 11
-112.2973698708
 21
-41.5677705112
  0
LINE
  5
345
100
AcDbEntity
  8
RACCORDO
100
AcDbLine
 62
7
  6
CONTINUOUS
 10
-118.7303825727
 20
-41.5677705112
 11
-118.7973698708
 21
-41.5677705112
  0
LINE
  5
346
100
AcDbEntity
  8
RACCORDO
100
AcDbLine
 62
7
  6
CONTINUOUS
 10
120.1356428311
 20
-41.5677705112
 11
120.2026301292
 21
-41.5677705112
  0
LINE
  5
347
100
AcDbEntity
  8
RACCORDO
100
AcDbLine
 62
7
  6
CONTINUOUS
 10
-118.7973698708
 20
-40.3427705112
 11
-118.5473698708
 21
-40.3427705112
  0
LINE
  5
348
100
AcDbEntity
  8
RACCORDO
100
AcDbLine
 62
253
  6
CONTINUOUS
 10
119.7026301292
 20
-40.3427705112
 11
114.2026301292
 21
-40.3427705112
  0
LINE
  5
349
100
AcDbEntity
  8
RACCORDO
100
AcDbLine
 62
7
  6
CONTINUOUS
 10
-112.5473698708
 20
-40.3427705112
 11
-112.2973698708
 21
-40.3427705112
  0
LINE
  5
34A
100
AcDbEntity
  8
RACCORDO
100
AcDbLine
 62
7
  6
CONTINUOUS
 10
113.7026301292
 20
-40.3427705112
 11
113.9526301292
 21
-40.3427705112
  0
LINE
  5
34B
100
AcDbEntity
  8
RACCORDO
100
AcDbLine
 62
253
  6
CONTINUOUS
 10
-112.7973698708
 20
-40.3427705112
 11
-118.2973698708
 21
-40.3427705112
  0
LINE
  5
34C
100
AcDbEntity
  8
RACCORDO
100
AcDbLine
 62
7
  6
CONTINUOUS
 10
119.9526301292
 20
-40.3427705112
 11
120.2026301292
 21
-40.3427705112
  0
LINE
  5
34D
100
AcDbEntity
  8
RACCORDO
100
AcDbLine
 62
7
  6
CONTINUOUS
 10
119.2776301292
 20
-39.8427705112
 11
114.6276301292
 21
-39.8427705112
  0
LINE
  5
34E
100
AcDbEntity
  8
RACCORDO
100
AcDbLine
 62
7
  6
CONTINUOUS
 10
-113.2223698708
 20
-39.8427705112
 11
-117.8723698708
 21
-39.8427705112
  0
LINE
  5
34F
100
AcDbEntity
  8
ASSI
100
AcDbLine
 62
7
  6
CONTINUOUS
 10
-118.4141698721
 20
-14.9780997802
 11
-118.7973698708
 21
-14.8427705112
  0
LINE
  5
350
100
AcDbEntity
  8
RACCORDO
100
AcDbLine
 62
7
  6
CONTINUOUS
 10
-112.6805698694
 20
-15.7324412423
 11
-112.3643571689
 21
-15.8441135642
  0
LINE
  5
351
100
AcDbEntity
  8
RACCORDO
100
AcDbLine
 62
7
  6
CONTINUOUS
 10
-118.4141698721
 20
-12.9530997802
 11
-118.7303825727
 21
-12.8414274583
  0
LINE
  5
352
100
AcDbEntity
  8
ASSI
100
AcDbLine
 62
7
  6
CONTINUOUS
 10
-112.6805698694
 20
-13.7074412423
 11
-112.2973698708
 21
-13.8427705112
  0
LINE
  5
353
100
AcDbEntity
  8
RACCORDO
100
AcDbLine
 62
7
  6
CONTINUOUS
 10
-113.2223698708
 20
-11.3427705112
 11
-112.5473698708
 21
-11.5927705112
  0
LINE
  5
354
100
AcDbEntity
  8
RACCORDO
100
AcDbLine
 62
7
  6
CONTINUOUS
 10
-112.7973698708
 20
49.7822294888
 11
-112.7298023032
 21
49.7146619212
  0
LINE
  5
355
100
AcDbEntity
  8
RACCORDO
100
AcDbLine
 62
7
  6
CONTINUOUS
 10
-118.2973698708
 20
55.2822294888
 11
-118.3649374384
 21
55.3497970563
  0
LINE
  5
356
100
AcDbEntity
  8
0
100
AcDbLine
 62
7
  6
CONTINUOUS
 10
159.1526301292
 20
204.3072294888
 11
159.9026301292
 21
205.1072294888
  0
LINE
  5
357
100
AcDbEntity
  8
RACCORDO
100
AcDbLine
 62
7
  6
CONTINUOUS
 10
-118.5473698708
 20
-11.5927705112
 11
-117.8723698708
 21
-11.3427705112
  0
LINE
  5
358
100
AcDbEntity
  8
RACCORDO
100
AcDbLine
 62
7
  6
CONTINUOUS
 10
-112.5473698708
 20
-17.0927705112
 11
-113.2223698708
 21
-17.3427705112
  0
LINE
  5
359
100
AcDbEntity
  8
ASSI
100
AcDbLine
 62
7
  6
CONTINUOUS
 10
-118.7973698708
 20
-13.8427705112
 11
-118.4141698721
 21
-13.7074412423
  0
LINE
  5
35A
100
AcDbEntity
  8
RACCORDO
100
AcDbLine
 62
7
  6
CONTINUOUS
 10
-112.6805698694
 20
-12.9530997802
 11
-112.3643571689
 21
-12.8414274583
  0
LINE
  5
35B
100
AcDbEntity
  8
RACCORDO
100
AcDbLine
 62
7
  6
CONTINUOUS
 10
-118.4141698721
 20
-15.7324412423
 11
-118.7303825727
 21
-15.8441135642
  0
LINE
  5
35C
100
AcDbEntity
  8
ASSI
100
AcDbLine
 62
7
  6
CONTINUOUS
 10
-112.2973698708
 20
-14.8427705112
 11
-112.6805698694
 21
-14.9780997802
  0
LINE
  5
35D
100
AcDbEntity
  8
RACCORDO
100
AcDbLine
 62
7
  6
CONTINUOUS
 10
-117.8723698708
 20
-17.5927705112
 11
-113.2223698708
 21
-17.5927705112
  0
LINE
  5
35E
100
AcDbEntity
  8
RACCORDO
100
AcDbLine
 62
7
  6
CONTINUOUS
 10
114.6276301292
 20
-17.5927705112
 11
119.2776301292
 21
-17.5927705112
  0
LINE
  5
35F
100
AcDbEntity
  8
RACCORDO
100
AcDbLine
 62
7
  6
CONTINUOUS
 10
120.2026301292
 20
-17.0927705112
 11
119.9526301292
 21
-17.0927705112
  0
LINE
  5
360
100
AcDbEntity
  8
RACCORDO
100
AcDbLine
 62
253
  6
CONTINUOUS
 10
-118.2973698708
 20
-17.0927705112
 11
-112.7973698708
 21
-17.0927705112
  0
LINE
  5
361
100
AcDbEntity
  8
RACCORDO
100
AcDbLine
 62
7
  6
CONTINUOUS
 10
113.9526301292
 20
-17.0927705112
 11
113.7026301292
 21
-17.0927705112
  0
LINE
  5
362
100
AcDbEntity
  8
RACCORDO
100
AcDbLine
 62
7
  6
CONTINUOUS
 10
-112.2973698708
 20
-17.0927705112
 11
-112.5473698708
 21
-17.0927705112
  0
LINE
  5
363
100
AcDbEntity
  8
RACCORDO
100
AcDbLine
 62
253
  6
CONTINUOUS
 10
114.2026301292
 20
-17.0927705112
 11
119.7026301292
 21
-17.0927705112
  0
LINE
  5
364
100
AcDbEntity
  8
RACCORDO
100
AcDbLine
 62
7
  6
CONTINUOUS
 10
-118.5473698708
 20
-17.0927705112
 11
-118.7973698708
 21
-17.0927705112
  0
LINE
  5
365
100
AcDbEntity
  8
ASSI
100
AcDbLine
 62
7
  6
CONTINUOUS
 10
-118.4141698721
 20
23.1469002198
 11
-118.7973698708
 21
23.2822294888
  0
LINE
  5
366
100
AcDbEntity
  8
RACCORDO
100
AcDbLine
 62
7
  6
CONTINUOUS
 10
-112.6805698694
 20
22.3925587577
 11
-112.3643571689
 21
22.2808864358
  0
LINE
  5
367
100
AcDbEntity
  8
RACCORDO
100
AcDbLine
 62
7
  6
CONTINUOUS
 10
-117.8723698708
 20
20.7822294888
 11
-118.5473698708
 21
21.0322294888
  0
LINE
  5
368
100
AcDbEntity
  8
RACCORDO
100
AcDbLine
 62
7
  6
CONTINUOUS
 10
155.9223396049
 20
-200.6405248991
 11
153.6026122805
 21
-198.3662824243
  0
LINE
  5
369
100
AcDbEntity
  8
RACCORDO
100
AcDbLine
 62
7
  6
CONTINUOUS
 10
113.9526301292
 20
55.2822294888
 11
114.6276301292
 21
55.5322294888
  0
LINE
  5
36A
100
AcDbEntity
  8
RACCORDO
100
AcDbLine
 62
7
  6
CONTINUOUS
 10
119.9526301292
 20
49.7822294888
 11
119.2776301292
 21
49.5322294888
  0
LINE
  5
36B
100
AcDbEntity
  8
RACCORDO
100
AcDbLine
 62
7
  6
CONTINUOUS
 10
-118.5473698708
 20
-40.3427705112
 11
-117.8723698708
 21
-40.0927705112
  0
LINE
  5
36C
100
AcDbEntity
  8
ASSI
100
AcDbLine
 62
7
  6
CONTINUOUS
 10
113.7026301292
 20
53.0322294888
 11
114.0858301279
 21
53.1675587577
  0
LINE
  5
36D
100
AcDbEntity
  8
RACCORDO
100
AcDbLine
 62
7
  6
CONTINUOUS
 10
119.8194301306
 20
53.9219002198
 11
120.1356428311
 21
54.0335725417
  0
LINE
  5
36E
100
AcDbEntity
  8
RACCORDO
100
AcDbLine
 62
7
  6
CONTINUOUS
 10
114.0858301279
 20
51.1425587577
 11
113.7696174273
 21
51.0308864358
  0
LINE
  5
36F
100
AcDbEntity
  8
ASSI
100
AcDbLine
 62
7
  6
CONTINUOUS
 10
120.2026301292
 20
52.0322294888
 11
119.8194301306
 21
51.8969002198
  0
LINE
  5
370
100
AcDbEntity
  8
ASSI
100
AcDbLine
 62
7
  6
CONTINUOUS
 10
-118.7973698708
 20
-42.5927705112
 11
-118.4141698721
 21
-42.4574412423
  0
LINE
  5
371
100
AcDbEntity
  8
RACCORDO
100
AcDbLine
 62
7
  6
CONTINUOUS
 10
113.7696174273
 20
-15.8677705112
 11
113.7026301292
 21
-15.8677705112
  0
LINE
  5
372
100
AcDbEntity
  8
RACCORDO
100
AcDbLine
 62
7
  6
CONTINUOUS
 10
-112.3643571689
 20
-15.8677705112
 11
-112.2973698708
 21
-15.8677705112
  0
LINE
  5
373
100
AcDbEntity
  8
RACCORDO
100
AcDbLine
 62
7
  6
CONTINUOUS
 10
-118.7303825727
 20
-15.8677705112
 11
-118.7973698708
 21
-15.8677705112
  0
LINE
  5
374
100
AcDbEntity
  8
RACCORDO
100
AcDbLine
 62
7
  6
CONTINUOUS
 10
120.1356428311
 20
-15.8677705112
 11
120.2026301292
 21
-15.8677705112
  0
LINE
  5
375
100
AcDbEntity
  8
RACCORDO
100
AcDbLine
 62
7
  6
CONTINUOUS
 10
113.7696174273
 20
-12.8177705112
 11
113.7026301292
 21
-12.8177705112
  0
LINE
  5
376
100
AcDbEntity
  8
RACCORDO
100
AcDbLine
 62
7
  6
CONTINUOUS
 10
-112.3643571689
 20
-12.8177705112
 11
-112.2973698708
 21
-12.8177705112
  0
LINE
  5
377
100
AcDbEntity
  8
RACCORDO
100
AcDbLine
 62
7
  6
CONTINUOUS
 10
-118.7303825727
 20
-12.8177705112
 11
-118.7973698708
 21
-12.8177705112
  0
LINE
  5
378
100
AcDbEntity
  8
RACCORDO
100
AcDbLine
 62
7
  6
CONTINUOUS
 10
120.1356428311
 20
-12.8177705112
 11
120.2026301292
 21
-12.8177705112
  0
LINE
  5
379
100
AcDbEntity
  8
RACCORDO
100
AcDbLine
 62
7
  6
CONTINUOUS
 10
-118.7973698708
 20
-11.5927705112
 11
-118.5473698708
 21
-11.5927705112
  0
LINE
  5
37A
100
AcDbEntity
  8
RACCORDO
100
AcDbLine
 62
253
  6
CONTINUOUS
 10
119.7026301292
 20
-11.5927705112
 11
114.2026301292
 21
-11.5927705112
  0
LINE
  5
37B
100
AcDbEntity
  8
RACCORDO
100
AcDbLine
 62
7
  6
CONTINUOUS
 10
-112.5473698708
 20
-11.5927705112
 11
-112.2973698708
 21
-11.5927705112
  0
LINE
  5
37C
100
AcDbEntity
  8
RACCORDO
100
AcDbLine
 62
7
  6
CONTINUOUS
 10
113.7026301292
 20
-11.5927705112
 11
113.9526301292
 21
-11.5927705112
  0
LINE
  5
37D
100
AcDbEntity
  8
RACCORDO
100
AcDbLine
 62
253
  6
CONTINUOUS
 10
-112.7973698708
 20
-11.5927705112
 11
-118.2973698708
 21
-11.5927705112
  0
LINE
  5
37E
100
AcDbEntity
  8
RACCORDO
100
AcDbLine
 62
7
  6
CONTINUOUS
 10
119.9526301292
 20
-11.5927705112
 11
120.2026301292
 21
-11.5927705112
  0
LINE
  5
37F
100
AcDbEntity
  8
RACCORDO
100
AcDbLine
 62
7
  6
CONTINUOUS
 10
119.2776301292
 20
-11.0927705112
 11
114.6276301292
 21
-11.0927705112
  0
LINE
  5
380
100
AcDbEntity
  8
RACCORDO
100
AcDbLine
 62
7
  6
CONTINUOUS
 10
-113.2223698708
 20
-11.0927705112
 11
-117.8723698708
 21
-11.0927705112
  0
LINE
  5
381
100
AcDbEntity
  8
0
100
AcDbLine
 62
7
  6
CONTINUOUS
 10
-117.7973698708
 20
-8.4677705112
 11
-113.2973698708
 21
-8.4677705112
  0
LINE
  5
382
100
AcDbEntity
  8
0
100
AcDbLine
 62
7
  6
CONTINUOUS
 10
114.7026301292
 20
-8.4677705112
 11
119.2026301292
 21
-8.4677705112
  0
LINE
  5
383
100
AcDbEntity
  8
ASSI
100
AcDbLine
 62
7
  6
CONTINUOUS
 10
117.8276301292
 20
-7.9177705112
 11
116.0776301292
 21
-7.9177705112
  0
LINE
  5
384
100
AcDbEntity
  8
ASSI
100
AcDbLine
 62
7
  6
CONTINUOUS
 10
-114.6723698708
 20
-7.9177705112
 11
-116.4223698708
 21
-7.9177705112
  0
LINE
  5
385
100
AcDbEntity
  8
0
100
AcDbLine
 62
7
  6
CONTINUOUS
 10
119.2026301292
 20
-3.9677705112
 11
114.7026301292
 21
-3.9677705112
  0
LINE
  5
386
100
AcDbEntity
  8
0
100
AcDbLine
 62
7
  6
CONTINUOUS
 10
-113.2973698708
 20
-3.9677705112
 11
-117.7973698708
 21
-3.9677705112
  0
LINE
  5
387
100
AcDbEntity
  8
0
100
AcDbLine
 62
7
  6
CONTINUOUS
 10
200.7026301292
 20
-2.7927705112
 11
201.9526301292
 21
-2.7927705112
  0
LINE
  5
388
100
AcDbEntity
  8
0
100
AcDbLine
 62
7
  6
CONTINUOUS
 10
-199.2973698708
 20
-2.7927705112
 11
-200.5473698708
 21
-2.7927705112
  0
LINE
  5
389
100
AcDbEntity
  8
0
100
AcDbLine
 62
7
  6
CONTINUOUS
 10
-201.8473698708
 20
2.2072294888
 11
-215.2473698708
 21
2.2072294888
  0
LINE
  5
38A
100
AcDbEntity
  8
0
100
AcDbLine
 62
7
  6
CONTINUOUS
 10
203.2526301292
 20
2.2072294888
 11
216.6526301292
 21
2.2072294888
  0
LINE
  5
38B
100
AcDbEntity
  8
0
100
AcDbLine
 62
7
  6
CONTINUOUS
 10
-201.8473698708
 20
3.2072294888
 11
-215.2473698708
 21
3.2072294888
  0
LINE
  5
38C
100
AcDbEntity
  8
0
100
AcDbLine
 62
7
  6
CONTINUOUS
 10
203.2526301292
 20
3.2072294888
 11
216.6526301292
 21
3.2072294888
  0
LINE
  5
38D
100
AcDbEntity
  8
RACCORDO
100
AcDbLine
 62
7
  6
CONTINUOUS
 10
111.4526301292
 20
3.2822294888
 11
110.902626879
 21
3.2822294888
  0
LINE
  5
38E
100
AcDbEntity
  8
RACCORDO
100
AcDbLine
 62
7
  6
CONTINUOUS
 10
-109.4973666205
 20
3.2822294888
 11
-110.0473698708
 21
3.2822294888
  0
LINE
  5
38F
100
AcDbEntity
  8
RACCORDO
100
AcDbLine
 62
253
  6
CONTINUOUS
 10
-109.4973666205
 20
3.2822294888
 11
110.902626879
 21
3.2822294888
  0
LINE
  5
390
100
AcDbEntity
  8
RACCORDO
100
AcDbLine
 62
7
  6
CONTINUOUS
 10
110.7026301292
 20
3.5322294888
 11
-109.2973698708
 21
3.5322294888
  0
LINE
  5
391
100
AcDbEntity
  8
RACCORDO
100
AcDbLine
 62
7
  6
CONTINUOUS
 10
-118.4141698721
 20
25.1719002198
 11
-118.7303825727
 21
25.2835725417
  0
LINE
  5
392
100
AcDbEntity
  8
ASSI
100
AcDbLine
 62
7
  6
CONTINUOUS
 10
-112.6805698694
 20
24.4175587577
 11
-112.2973698708
 21
24.2822294888
  0
LINE
  5
393
100
AcDbEntity
  8
ASSI
100
AcDbLine
 62
7
  6
CONTINUOUS
 10
114.0858301279
 20
-43.7280997802
 11
113.7026301292
 21
-43.5927705112
  0
LINE
  5
394
100
AcDbEntity
  8
RACCORDO
100
AcDbLine
 62
7
  6
CONTINUOUS
 10
119.8194301306
 20
-44.4824412423
 11
120.1356428311
 21
-44.5941135642
  0
LINE
  5
395
100
AcDbEntity
  8
RACCORDO
100
AcDbLine
 62
7
  6
CONTINUOUS
 10
114.0858301279
 20
-41.7030997802
 11
113.7696174273
 21
-41.5914274583
  0
LINE
  5
396
100
AcDbEntity
  8
ASSI
100
AcDbLine
 62
7
  6
CONTINUOUS
 10
119.8194301306
 20
-42.4574412423
 11
120.2026301292
 21
-42.5927705112
  0
LINE
  5
397
100
AcDbEntity
  8
RACCORDO
100
AcDbLine
 62
7
  6
CONTINUOUS
 10
-113.2223698708
 20
26.7822294888
 11
-112.5473698708
 21
26.5322294888
  0
LINE
  5
398
100
AcDbEntity
  8
RACCORDO
100
AcDbLine
 62
7
  6
CONTINUOUS
 10
114.6276301292
 20
-46.0927705112
 11
113.9526301292
 21
-45.8427705112
  0
LINE
  5
399
100
AcDbEntity
  8
RACCORDO
100
AcDbLine
 62
7
  6
CONTINUOUS
 10
119.2776301292
 20
-40.0927705112
 11
119.9526301292
 21
-40.3427705112
  0
LINE
  5
39A
100
AcDbEntity
  8
RACCORDO
100
AcDbLine
 62
7
  6
CONTINUOUS
 10
-112.5473698708
 20
-45.8427705112
 11
-113.2223698708
 21
-46.0927705112
  0
LINE
  5
39B
100
AcDbEntity
  8
RACCORDO
100
AcDbLine
 62
7
  6
CONTINUOUS
 10
113.9526301292
 20
26.5322294888
 11
114.6276301292
 21
26.7822294888
  0
LINE
  5
39C
100
AcDbEntity
  8
RACCORDO
100
AcDbLine
 62
7
  6
CONTINUOUS
 10
119.9526301292
 20
21.0322294888
 11
119.2776301292
 21
20.7822294888
  0
LINE
  5
39D
100
AcDbEntity
  8
RACCORDO
100
AcDbLine
 62
7
  6
CONTINUOUS
 10
-112.6805698694
 20
-41.7030997802
 11
-112.3643571689
 21
-41.5914274583
  0
LINE
  5
39E
100
AcDbEntity
  8
RACCORDO
100
AcDbLine
 62
7
  6
CONTINUOUS
 10
-118.4141698721
 20
-44.4824412423
 11
-118.7303825727
 21
-44.5941135642
  0
LINE
  5
39F
100
AcDbEntity
  8
ASSI
100
AcDbLine
 62
7
  6
CONTINUOUS
 10
-112.2973698708
 20
-43.5927705112
 11
-112.6805698694
 21
-43.7280997802
  0
LINE
  5
3A0
100
AcDbEntity
  8
ASSI
100
AcDbLine
 62
7
  6
CONTINUOUS
 10
113.7026301292
 20
24.2822294888
 11
114.0858301279
 21
24.4175587577
  0
LINE
  5
3A1
100
AcDbEntity
  8
RACCORDO
100
AcDbLine
 62
7
  6
CONTINUOUS
 10
119.8194301306
 20
25.1719002198
 11
120.1356428311
 21
25.2835725417
  0
LINE
  5
3A2
100
AcDbEntity
  8
RACCORDO
100
AcDbLine
 62
7
  6
CONTINUOUS
 10
114.0858301279
 20
22.3925587577
 11
113.7696174273
 21
22.2808864358
  0
LINE
  5
3A3
100
AcDbEntity
  8
ASSI
100
AcDbLine
 62
7
  6
CONTINUOUS
 10
120.2026301292
 20
23.2822294888
 11
119.8194301306
 21
23.1469002198
  0
LINE
  5
3A4
100
AcDbEntity
  8
RACCORDO
100
AcDbLine
 62
7
  6
CONTINUOUS
 10
113.2026301292
 20
4.2822294888
 11
111.9526301292
 21
4.2822294888
  0
LINE
  5
3A5
100
AcDbEntity
  8
RACCORDO
100
AcDbLine
 62
7
  6
CONTINUOUS
 10
-109.2973698708
 20
4.2822294888
 11
110.7026301292
 21
4.2822294888
  0
LINE
  5
3A6
100
AcDbEntity
  8
RACCORDO
100
AcDbLine
 62
7
  6
CONTINUOUS
 10
-110.5473698708
 20
4.2822294888
 11
-111.7973698708
 21
4.2822294888
  0
LINE
  5
3A7
100
AcDbEntity
  8
RACCORDO
100
AcDbLine
 62
7
  6
CONTINUOUS
 10
-109.2973698708
 20
4.9072294888
 11
110.7026301292
 21
4.9072294888
  0
LINE
  5
3A8
100
AcDbEntity
  8
RACCORDO
100
AcDbLine
 62
7
  6
CONTINUOUS
 10
-111.7973698708
 20
5.1572294888
 11
-110.5473698708
 21
5.1572294888
  0
LINE
  5
3A9
100
AcDbEntity
  8
RACCORDO
100
AcDbLine
 62
253
  6
CONTINUOUS
 10
110.902626879
 20
5.1572294888
 11
110.7026301292
 21
5.1572294888
  0
LINE
  5
3AA
100
AcDbEntity
  8
RACCORDO
100
AcDbLine
 62
7
  6
CONTINUOUS
 10
-110.0473698708
 20
5.1572294888
 11
-109.4973666205
 21
5.1572294888
  0
LINE
  5
3AB
100
AcDbEntity
  8
RACCORDO
100
AcDbLine
 62
7
  6
CONTINUOUS
 10
110.7026301292
 20
5.1572294888
 11
-109.2973698708
 21
5.1572294888
  0
LINE
  5
3AC
100
AcDbEntity
  8
RACCORDO
100
AcDbLine
 62
253
  6
CONTINUOUS
 10
-109.2973698708
 20
5.1572294888
 11
-109.4973666205
 21
5.1572294888
  0
LINE
  5
3AD
100
AcDbEntity
  8
RACCORDO
100
AcDbLine
 62
7
  6
CONTINUOUS
 10
110.902626879
 20
5.1572294888
 11
111.4526301292
 21
5.1572294888
  0
LINE
  5
3AE
100
AcDbEntity
  8
RACCORDO
100
AcDbLine
 62
7
  6
CONTINUOUS
 10
111.9526301292
 20
5.1572294888
 11
113.2026301292
 21
5.1572294888
  0
LINE
  5
3AF
100
AcDbEntity
  8
RACCORDO
100
AcDbLine
 62
7
  6
CONTINUOUS
 10
-109.2973698708
 20
5.9072294888
 11
110.7026301292
 21
5.9072294888
  0
LINE
  5
3B0
100
AcDbEntity
  8
RACCORDO
100
AcDbLine
 62
7
  6
CONTINUOUS
 10
-110.0473698708
 20
6.1572294888
 11
-109.4973666205
 21
6.1572294888
  0
LINE
  5
3B1
100
AcDbEntity
  8
RACCORDO
100
AcDbLine
 62
253
  6
CONTINUOUS
 10
110.902626879
 20
6.1572294888
 11
-109.4973666205
 21
6.1572294888
  0
LINE
  5
3B2
100
AcDbEntity
  8
RACCORDO
100
AcDbLine
 62
7
  6
CONTINUOUS
 10
110.902626879
 20
6.1572294888
 11
111.4526301292
 21
6.1572294888
  0
LINE
  5
3B3
100
AcDbEntity
  8
0
100
AcDbLine
 62
7
  6
CONTINUOUS
 10
200.7026301292
 20
8.2072294888
 11
201.9526301292
 21
8.2072294888
  0
LINE
  5
3B4
100
AcDbEntity
  8
0
100
AcDbLine
 62
7
  6
CONTINUOUS
 10
-199.2973698708
 20
8.2072294888
 11
-200.5473698708
 21
8.2072294888
  0
LINE
  5
3B5
100
AcDbEntity
  8
0
100
AcDbLine
 62
7
  6
CONTINUOUS
 10
-117.7973698708
 20
13.4072294888
 11
-113.2973698708
 21
13.4072294888
  0
LINE
  5
3B6
100
AcDbEntity
  8
0
100
AcDbLine
 62
7
  6
CONTINUOUS
 10
114.7026301292
 20
13.4072294888
 11
119.2026301292
 21
13.4072294888
  0
LINE
  5
3B7
100
AcDbEntity
  8
ASSI
100
AcDbLine
 62
7
  6
CONTINUOUS
 10
-116.4223698708
 20
17.3572294888
 11
-114.6723698708
 21
17.3572294888
  0
LINE
  5
3B8
100
AcDbEntity
  8
ASSI
100
AcDbLine
 62
7
  6
CONTINUOUS
 10
116.0776301292
 20
17.3572294888
 11
117.8276301292
 21
17.3572294888
  0
LINE
  5
3B9
100
AcDbEntity
  8
0
100
AcDbLine
 62
7
  6
CONTINUOUS
 10
-117.3996287406
 20
17.6572294888
 11
-113.6951110009
 21
17.6572294888
  0
LINE
  5
3BA
100
AcDbEntity
  8
0
100
AcDbLine
 62
7
  6
CONTINUOUS
 10
115.1003712594
 20
17.6572294888
 11
118.8048889991
 21
17.6572294888
  0
LINE
  5
3BB
100
AcDbEntity
  8
0
100
AcDbLine
 62
7
  6
CONTINUOUS
 10
119.2026301292
 20
17.9072294888
 11
114.7026301292
 21
17.9072294888
  0
LINE
  5
3BC
100
AcDbEntity
  8
0
100
AcDbLine
 62
7
  6
CONTINUOUS
 10
-113.2973698708
 20
17.9072294888
 11
-117.7973698708
 21
17.9072294888
  0
LINE
  5
3BD
100
AcDbEntity
  8
RACCORDO
100
AcDbLine
 62
7
  6
CONTINUOUS
 10
-117.8723698708
 20
20.5322294888
 11
-113.2223698708
 21
20.5322294888
  0
LINE
  5
3BE
100
AcDbEntity
  8
RACCORDO
100
AcDbLine
 62
7
  6
CONTINUOUS
 10
114.6276301292
 20
20.5322294888
 11
119.2776301292
 21
20.5322294888
  0
LINE
  5
3BF
100
AcDbEntity
  8
RACCORDO
100
AcDbLine
 62
7
  6
CONTINUOUS
 10
120.2026301292
 20
21.0322294888
 11
119.9526301292
 21
21.0322294888
  0
LINE
  5
3C0
100
AcDbEntity
  8
RACCORDO
100
AcDbLine
 62
253
  6
CONTINUOUS
 10
-118.2973698708
 20
21.0322294888
 11
-112.7973698708
 21
21.0322294888
  0
LINE
  5
3C1
100
AcDbEntity
  8
RACCORDO
100
AcDbLine
 62
7
  6
CONTINUOUS
 10
113.9526301292
 20
21.0322294888
 11
113.7026301292
 21
21.0322294888
  0
LINE
  5
3C2
100
AcDbEntity
  8
RACCORDO
100
AcDbLine
 62
7
  6
CONTINUOUS
 10
-112.2973698708
 20
21.0322294888
 11
-112.5473698708
 21
21.0322294888
  0
LINE
  5
3C3
100
AcDbEntity
  8
RACCORDO
100
AcDbLine
 62
253
  6
CONTINUOUS
 10
114.2026301292
 20
21.0322294888
 11
119.7026301292
 21
21.0322294888
  0
LINE
  5
3C4
100
AcDbEntity
  8
RACCORDO
100
AcDbLine
 62
7
  6
CONTINUOUS
 10
-118.5473698708
 20
21.0322294888
 11
-118.7973698708
 21
21.0322294888
  0
LINE
  5
3C5
100
AcDbEntity
  8
RACCORDO
100
AcDbLine
 62
7
  6
CONTINUOUS
 10
113.7696174273
 20
22.2572294888
 11
113.7026301292
 21
22.2572294888
  0
LINE
  5
3C6
100
AcDbEntity
  8
RACCORDO
100
AcDbLine
 62
7
  6
CONTINUOUS
 10
-112.3643571689
 20
22.2572294888
 11
-112.2973698708
 21
22.2572294888
  0
LINE
  5
3C7
100
AcDbEntity
  8
RACCORDO
100
AcDbLine
 62
7
  6
CONTINUOUS
 10
-118.7303825727
 20
22.2572294888
 11
-118.7973698708
 21
22.2572294888
  0
LINE
  5
3C8
100
AcDbEntity
  8
RACCORDO
100
AcDbLine
 62
7
  6
CONTINUOUS
 10
120.1356428311
 20
22.2572294888
 11
120.2026301292
 21
22.2572294888
  0
LINE
  5
3C9
100
AcDbEntity
  8
ASSI
100
AcDbLine
 62
7
  6
CONTINUOUS
 10
-118.4141698721
 20
51.8969002198
 11
-118.7973698708
 21
52.0322294888
  0
LINE
  5
3CA
100
AcDbEntity
  8
RACCORDO
100
AcDbLine
 62
7
  6
CONTINUOUS
 10
-112.6805698694
 20
51.1425587577
 11
-112.3643571689
 21
51.0308864358
  0
LINE
  5
3CB
100
AcDbEntity
  8
RACCORDO
100
AcDbLine
 62
7
  6
CONTINUOUS
 10
-118.4141698721
 20
53.9219002198
 11
-118.7303825727
 21
54.0335725417
  0
LINE
  5
3CC
100
AcDbEntity
  8
ASSI
100
AcDbLine
 62
7
  6
CONTINUOUS
 10
-112.6805698694
 20
53.1675587577
 11
-112.2973698708
 21
53.0322294888
  0
LINE
  5
3CD
100
AcDbEntity
  8
ASSI
100
AcDbLine
 62
7
  6
CONTINUOUS
 10
114.0858301279
 20
-14.9780997802
 11
113.7026301292
 21
-14.8427705112
  0
LINE
  5
3CE
100
AcDbEntity
  8
RACCORDO
100
AcDbLine
 62
7
  6
CONTINUOUS
 10
-117.8723698708
 20
49.5322294888
 11
-118.5473698708
 21
49.7822294888
  0
LINE
  5
3CF
100
AcDbEntity
  8
RACCORDO
100
AcDbLine
 62
7
  6
CONTINUOUS
 10
-113.2223698708
 20
55.5322294888
 11
-112.5473698708
 21
55.2822294888
  0
LINE
  5
3D0
100
AcDbEntity
  8
RACCORDO
100
AcDbLine
 62
7
  6
CONTINUOUS
 10
114.6276301292
 20
-17.3427705112
 11
113.9526301292
 21
-17.0927705112
  0
LINE
  5
3D1
100
AcDbEntity
  8
0
100
AcDbLine
 62
7
  6
CONTINUOUS
 10
160.7942967959
 20
205.1072294888
 11
161.0776301292
 21
205.6072294888
  0
LINE
  5
3D2
100
AcDbEntity
  8
RACCORDO
100
AcDbLine
 62
7
  6
CONTINUOUS
 10
113.7696174273
 20
25.3072294888
 11
113.7026301292
 21
25.3072294888
  0
LINE
  5
3D3
100
AcDbEntity
  8
RACCORDO
100
AcDbLine
 62
7
  6
CONTINUOUS
 10
-112.3643571689
 20
25.3072294888
 11
-112.2973698708
 21
25.3072294888
  0
LINE
  5
3D4
100
AcDbEntity
  8
RACCORDO
100
AcDbLine
 62
7
  6
CONTINUOUS
 10
-118.7303825727
 20
25.3072294888
 11
-118.7973698708
 21
25.3072294888
  0
LINE
  5
3D5
100
AcDbEntity
  8
RACCORDO
100
AcDbLine
 62
7
  6
CONTINUOUS
 10
120.1356428311
 20
25.3072294888
 11
120.2026301292
 21
25.3072294888
  0
LINE
  5
3D6
100
AcDbEntity
  8
RACCORDO
100
AcDbLine
 62
7
  6
CONTINUOUS
 10
-118.7973698708
 20
26.5322294888
 11
-118.5473698708
 21
26.5322294888
  0
LINE
  5
3D7
100
AcDbEntity
  8
RACCORDO
100
AcDbLine
 62
253
  6
CONTINUOUS
 10
119.7026301292
 20
26.5322294888
 11
114.2026301292
 21
26.5322294888
  0
LINE
  5
3D8
100
AcDbEntity
  8
RACCORDO
100
AcDbLine
 62
7
  6
CONTINUOUS
 10
-112.5473698708
 20
26.5322294888
 11
-112.2973698708
 21
26.5322294888
  0
LINE
  5
3D9
100
AcDbEntity
  8
RACCORDO
100
AcDbLine
 62
7
  6
CONTINUOUS
 10
113.7026301292
 20
26.5322294888
 11
113.9526301292
 21
26.5322294888
  0
LINE
  5
3DA
100
AcDbEntity
  8
RACCORDO
100
AcDbLine
 62
253
  6
CONTINUOUS
 10
-112.7973698708
 20
26.5322294888
 11
-118.2973698708
 21
26.5322294888
  0
LINE
  5
3DB
100
AcDbEntity
  8
RACCORDO
100
AcDbLine
 62
7
  6
CONTINUOUS
 10
119.9526301292
 20
26.5322294888
 11
120.2026301292
 21
26.5322294888
  0
LINE
  5
3DC
100
AcDbEntity
  8
RACCORDO
100
AcDbLine
 62
7
  6
CONTINUOUS
 10
119.2776301292
 20
27.0322294888
 11
114.6276301292
 21
27.0322294888
  0
LINE
  5
3DD
100
AcDbEntity
  8
RACCORDO
100
AcDbLine
 62
7
  6
CONTINUOUS
 10
-113.2223698708
 20
27.0322294888
 11
-117.8723698708
 21
27.0322294888
  0
LINE
  5
3DE
100
AcDbEntity
  8
RACCORDO
100
AcDbLine
 62
7
  6
CONTINUOUS
 10
119.8194301306
 20
-15.7324412423
 11
120.1356428311
 21
-15.8441135642
  0
LINE
  5
3DF
100
AcDbEntity
  8
RACCORDO
100
AcDbLine
 62
7
  6
CONTINUOUS
 10
114.0858301279
 20
-12.9530997802
 11
113.7696174273
 21
-12.8414274583
  0
LINE
  5
3E0
100
AcDbEntity
  8
ASSI
100
AcDbLine
 62
7
  6
CONTINUOUS
 10
119.8194301306
 20
-13.7074412423
 11
120.2026301292
 21
-13.8427705112
  0
LINE
  5
3E1
100
AcDbEntity
  8
RACCORDO
100
AcDbLine
 62
7
  6
CONTINUOUS
 10
119.2776301292
 20
-11.3427705112
 11
119.9526301292
 21
-11.5927705112
  0
LINE
  5
3E2
100
AcDbEntity
  8
RACCORDO
100
AcDbLine
 62
7
  6
CONTINUOUS
 10
119.7701976968
 20
55.3497970563
 11
119.7026301292
 21
55.2822294888
  0
LINE
  5
3E3
100
AcDbEntity
  8
RACCORDO
100
AcDbLine
 62
7
  6
CONTINUOUS
 10
114.1350625616
 20
49.7146619212
 11
114.2026301292
 21
49.7822294888
  0
LINE
  5
3E4
100
AcDbEntity
  8
RACCORDO
100
AcDbLine
 62
7
  6
CONTINUOUS
 10
113.9526301292
 20
-11.5927705112
 11
114.6276301292
 21
-11.3427705112
  0
LINE
  5
3E5
100
AcDbEntity
  8
RACCORDO
100
AcDbLine
 62
7
  6
CONTINUOUS
 10
119.9526301292
 20
-17.0927705112
 11
119.2776301292
 21
-17.3427705112
  0
LINE
  5
3E6
100
AcDbEntity
  8
ASSI
100
AcDbLine
 62
7
  6
CONTINUOUS
 10
113.7026301292
 20
-13.8427705112
 11
114.0858301279
 21
-13.7074412423
  0
LINE
  5
3E7
100
AcDbEntity
  8
RACCORDO
100
AcDbLine
 62
7
  6
CONTINUOUS
 10
119.8194301306
 20
-12.9530997802
 11
120.1356428311
 21
-12.8414274583
  0
LINE
  5
3E8
100
AcDbEntity
  8
RACCORDO
100
AcDbLine
 62
7
  6
CONTINUOUS
 10
114.0858301279
 20
-15.7324412423
 11
113.7696174273
 21
-15.8441135642
  0
LINE
  5
3E9
100
AcDbEntity
  8
ASSI
100
AcDbLine
 62
7
  6
CONTINUOUS
 10
120.2026301292
 20
-14.8427705112
 11
119.8194301306
 21
-14.9780997802
  0
LINE
  5
3EA
100
AcDbEntity
  8
RACCORDO
100
AcDbLine
 62
7
  6
CONTINUOUS
 10
-117.8723698708
 20
49.2822294888
 11
-113.2223698708
 21
49.2822294888
  0
LINE
  5
3EB
100
AcDbEntity
  8
RACCORDO
100
AcDbLine
 62
7
  6
CONTINUOUS
 10
114.6276301292
 20
49.2822294888
 11
119.2776301292
 21
49.2822294888
  0
LINE
  5
3EC
100
AcDbEntity
  8
RACCORDO
100
AcDbLine
 62
7
  6
CONTINUOUS
 10
120.2026301292
 20
49.7822294888
 11
119.9526301292
 21
49.7822294888
  0
LINE
  5
3ED
100
AcDbEntity
  8
RACCORDO
100
AcDbLine
 62
253
  6
CONTINUOUS
 10
-118.2973698708
 20
49.7822294888
 11
-112.7973698708
 21
49.7822294888
  0
LINE
  5
3EE
100
AcDbEntity
  8
RACCORDO
100
AcDbLine
 62
7
  6
CONTINUOUS
 10
113.9526301292
 20
49.7822294888
 11
113.7026301292
 21
49.7822294888
  0
LINE
  5
3EF
100
AcDbEntity
  8
RACCORDO
100
AcDbLine
 62
7
  6
CONTINUOUS
 10
-112.2973698708
 20
49.7822294888
 11
-112.5473698708
 21
49.7822294888
  0
LINE
  5
3F0
100
AcDbEntity
  8
RACCORDO
100
AcDbLine
 62
253
  6
CONTINUOUS
 10
114.2026301292
 20
49.7822294888
 11
119.7026301292
 21
49.7822294888
  0
LINE
  5
3F1
100
AcDbEntity
  8
RACCORDO
100
AcDbLine
 62
7
  6
CONTINUOUS
 10
-118.5473698708
 20
49.7822294888
 11
-118.7973698708
 21
49.7822294888
  0
LINE
  5
3F2
100
AcDbEntity
  8
RACCORDO
100
AcDbLine
 62
7
  6
CONTINUOUS
 10
113.7696174273
 20
51.0072294888
 11
113.7026301292
 21
51.0072294888
  0
LINE
  5
3F3
100
AcDbEntity
  8
RACCORDO
100
AcDbLine
 62
7
  6
CONTINUOUS
 10
-112.3643571689
 20
51.0072294888
 11
-112.2973698708
 21
51.0072294888
  0
LINE
  5
3F4
100
AcDbEntity
  8
RACCORDO
100
AcDbLine
 62
7
  6
CONTINUOUS
 10
-118.7303825727
 20
51.0072294888
 11
-118.7973698708
 21
51.0072294888
  0
LINE
  5
3F5
100
AcDbEntity
  8
RACCORDO
100
AcDbLine
 62
7
  6
CONTINUOUS
 10
120.1356428311
 20
51.0072294888
 11
120.2026301292
 21
51.0072294888
  0
LINE
  5
3F6
100
AcDbEntity
  8
RACCORDO
100
AcDbLine
 62
7
  6
CONTINUOUS
 10
113.7696174273
 20
54.0572294888
 11
113.7026301292
 21
54.0572294888
  0
LINE
  5
3F7
100
AcDbEntity
  8
RACCORDO
100
AcDbLine
 62
7
  6
CONTINUOUS
 10
-112.3643571689
 20
54.0572294888
 11
-112.2973698708
 21
54.0572294888
  0
LINE
  5
3F8
100
AcDbEntity
  8
RACCORDO
100
AcDbLine
 62
7
  6
CONTINUOUS
 10
-118.7303825727
 20
54.0572294888
 11
-118.7973698708
 21
54.0572294888
  0
LINE
  5
3F9
100
AcDbEntity
  8
RACCORDO
100
AcDbLine
 62
7
  6
CONTINUOUS
 10
120.1356428311
 20
54.0572294888
 11
120.2026301292
 21
54.0572294888
  0
LINE
  5
3FA
100
AcDbEntity
  8
RACCORDO
100
AcDbLine
 62
7
  6
CONTINUOUS
 10
-118.7973698708
 20
55.2822294888
 11
-118.5473698708
 21
55.2822294888
  0
LINE
  5
3FB
100
AcDbEntity
  8
RACCORDO
100
AcDbLine
 62
253
  6
CONTINUOUS
 10
119.7026301292
 20
55.2822294888
 11
114.2026301292
 21
55.2822294888
  0
LINE
  5
3FC
100
AcDbEntity
  8
RACCORDO
100
AcDbLine
 62
7
  6
CONTINUOUS
 10
-112.5473698708
 20
55.2822294888
 11
-112.2973698708
 21
55.2822294888
  0
LINE
  5
3FD
100
AcDbEntity
  8
RACCORDO
100
AcDbLine
 62
7
  6
CONTINUOUS
 10
113.7026301292
 20
55.2822294888
 11
113.9526301292
 21
55.2822294888
  0
LINE
  5
3FE
100
AcDbEntity
  8
RACCORDO
100
AcDbLine
 62
253
  6
CONTINUOUS
 10
-112.7973698708
 20
55.2822294888
 11
-118.2973698708
 21
55.2822294888
  0
LINE
  5
3FF
100
AcDbEntity
  8
RACCORDO
100
AcDbLine
 62
7
  6
CONTINUOUS
 10
119.9526301292
 20
55.2822294888
 11
120.2026301292
 21
55.2822294888
  0
LINE
  5
400
100
AcDbEntity
  8
RACCORDO
100
AcDbLine
 62
7
  6
CONTINUOUS
 10
119.2776301292
 20
55.7822294888
 11
114.6276301292
 21
55.7822294888
  0
LINE
  5
401
100
AcDbEntity
  8
RACCORDO
100
AcDbLine
 62
7
  6
CONTINUOUS
 10
-113.2223698708
 20
55.7822294888
 11
-117.8723698708
 21
55.7822294888
  0
LINE
  5
402
100
AcDbEntity
  8
0
100
AcDbLine
 62
7
  6
CONTINUOUS
 10
-117.7973698708
 20
58.4072294888
 11
-113.2973698708
 21
58.4072294888
  0
LINE
  5
403
100
AcDbEntity
  8
0
100
AcDbLine
 62
7
  6
CONTINUOUS
 10
114.7026301292
 20
58.4072294888
 11
119.2026301292
 21
58.4072294888
  0
LINE
  5
404
100
AcDbEntity
  8
ASSI
100
AcDbLine
 62
7
  6
CONTINUOUS
 10
117.8276301292
 20
58.9572294888
 11
116.0776301292
 21
58.9572294888
  0
LINE
  5
405
100
AcDbEntity
  8
ASSI
100
AcDbLine
 62
7
  6
CONTINUOUS
 10
-114.6723698708
 20
58.9572294888
 11
-116.4223698708
 21
58.9572294888
  0
LINE
  5
406
100
AcDbEntity
  8
0
100
AcDbLine
 62
7
  6
CONTINUOUS
 10
119.2026301292
 20
62.9072294888
 11
114.7026301292
 21
62.9072294888
  0
LINE
  5
407
100
AcDbEntity
  8
0
100
AcDbLine
 62
7
  6
CONTINUOUS
 10
-113.2973698708
 20
62.9072294888
 11
-117.7973698708
 21
62.9072294888
  0
LINE
  5
408
100
AcDbEntity
  8
ASSI
100
AcDbLine
 62
7
  6
CONTINUOUS
 10
114.0858301279
 20
23.1469002198
 11
113.7026301292
 21
23.2822294888
  0
LINE
  5
409
100
AcDbEntity
  8
RACCORDO
100
AcDbLine
 62
7
  6
CONTINUOUS
 10
119.8194301306
 20
22.3925587577
 11
120.1356428311
 21
22.2808864358
  0
LINE
  5
40A
100
AcDbEntity
  8
RACCORDO
100
AcDbLine
 62
7
  6
CONTINUOUS
 10
114.0858301279
 20
25.1719002198
 11
113.7696174273
 21
25.2835725417
  0
LINE
  5
40B
100
AcDbEntity
  8
ASSI
100
AcDbLine
 62
7
  6
CONTINUOUS
 10
119.8194301306
 20
24.4175587577
 11
120.2026301292
 21
24.2822294888
  0
LINE
  5
40C
100
AcDbEntity
  8
RACCORDO
100
AcDbLine
 62
7
  6
CONTINUOUS
 10
114.6276301292
 20
20.7822294888
 11
113.9526301292
 21
21.0322294888
  0
LINE
  5
40D
100
AcDbEntity
  8
RACCORDO
100
AcDbLine
 62
7
  6
CONTINUOUS
 10
114.2026301292
 20
-40.3427705112
 11
114.1350625616
 21
-40.2752029437
  0
LINE
  5
40E
100
AcDbEntity
  8
RACCORDO
100
AcDbLine
 62
7
  6
CONTINUOUS
 10
119.7026301292
 20
-45.8427705112
 11
119.7701976968
 21
-45.9103380788
  0
LINE
  5
40F
100
AcDbEntity
  8
0
100
AcDbLine
 62
7
  6
CONTINUOUS
 10
75.7026301292
 20
131.9572294888
 11
75.7026301292
 21
181.9572294888
  0
LINE
  5
410
100
AcDbEntity
  8
RACCORDO
100
AcDbLine
 62
7
  6
CONTINUOUS
 10
119.7701976968
 20
26.5997970563
 11
119.7026301292
 21
26.5322294888
  0
LINE
  5
411
100
AcDbEntity
  8
RACCORDO
100
AcDbLine
 62
7
  6
CONTINUOUS
 10
114.1350625616
 20
20.9646619212
 11
114.2026301292
 21
21.0322294888
  0
LINE
  5
412
100
AcDbEntity
  8
RACCORDO
100
AcDbLine
 62
7
  6
CONTINUOUS
 10
113.9526301292
 20
-40.3427705112
 11
114.6276301292
 21
-40.0927705112
  0
LINE
  5
413
100
AcDbEntity
  8
ASSI
100
AcDbLine
 62
7
  6
CONTINUOUS
 10
113.7026301292
 20
-42.5927705112
 11
114.0858301279
 21
-42.4574412423
  0
LINE
  5
414
100
AcDbEntity
  8
RACCORDO
100
AcDbLine
 62
7
  6
CONTINUOUS
 10
119.8194301306
 20
-41.7030997802
 11
120.1356428311
 21
-41.5914274583
  0
LINE
  5
415
100
AcDbEntity
  8
RACCORDO
100
AcDbLine
 62
7
  6
CONTINUOUS
 10
114.0858301279
 20
-44.4824412423
 11
113.7696174273
 21
-44.5941135642
  0
LINE
  5
416
100
AcDbEntity
  8
ASSI
100
AcDbLine
 62
7
  6
CONTINUOUS
 10
120.2026301292
 20
-43.5927705112
 11
119.8194301306
 21
-43.7280997802
  0
LINE
  5
417
100
AcDbEntity
  8
RACCORDO
100
AcDbLine
 62
7
  6
CONTINUOUS
 10
111.4526301292
 20
70.1572294888
 11
110.902626879
 21
70.1572294888
  0
LINE
  5
418
100
AcDbEntity
  8
RACCORDO
100
AcDbLine
 62
7
  6
CONTINUOUS
 10
-109.4973666205
 20
70.1572294888
 11
-110.0473698708
 21
70.1572294888
  0
LINE
  5
419
100
AcDbEntity
  8
RACCORDO
100
AcDbLine
 62
253
  6
CONTINUOUS
 10
-109.4973666205
 20
70.1572294888
 11
110.902626879
 21
70.1572294888
  0
LINE
  5
41A
100
AcDbEntity
  8
RACCORDO
100
AcDbLine
 62
7
  6
CONTINUOUS
 10
110.7026301292
 20
70.4072294888
 11
-109.2973698708
 21
70.4072294888
  0
LINE
  5
41B
100
AcDbEntity
  8
0
100
AcDbLine
 62
7
  6
CONTINUOUS
 10
-110.2973698708
 20
70.7072294888
 11
-109.2973698708
 21
70.7072294888
  0
LINE
  5
41C
100
AcDbEntity
  8
0
100
AcDbLine
 62
7
  6
CONTINUOUS
 10
110.7026301292
 20
70.7072294888
 11
111.7026301292
 21
70.7072294888
  0
LINE
  5
41D
100
AcDbEntity
  8
0
100
AcDbLine
 62
7
  6
CONTINUOUS
 10
113.2026301292
 20
70.9572294888
 11
110.7026301292
 21
70.9572294888
  0
LINE
  5
41E
100
AcDbEntity
  8
0
100
AcDbLine
 62
7
  6
CONTINUOUS
 10
-109.2973698708
 20
70.9572294888
 11
-111.7973698708
 21
70.9572294888
  0
LINE
  5
41F
100
AcDbEntity
  8
RACCORDO
100
AcDbLine
 62
7
  6
CONTINUOUS
 10
-109.2973698708
 20
71.1572294888
 11
110.7026301292
 21
71.1572294888
  0
LINE
  5
420
100
AcDbEntity
  8
RACCORDO
100
AcDbLine
 62
7
  6
CONTINUOUS
 10
119.2776301292
 20
26.7822294888
 11
119.9526301292
 21
26.5322294888
  0
LINE
  5
421
100
AcDbEntity
  8
RACCORDO
100
AcDbLine
 62
7
  6
CONTINUOUS
 10
114.2026301292
 20
-11.5927705112
 11
114.1350625616
 21
-11.5252029437
  0
LINE
  5
422
100
AcDbEntity
  8
RACCORDO
100
AcDbLine
 62
7
  6
CONTINUOUS
 10
119.7026301292
 20
-17.0927705112
 11
119.7701976968
 21
-17.1603380788
  0
LWPOLYLINE
  5
423
100
AcDbEntity
  8
RACCORDO
100
AcDbPolyline
 62
253
  6
CONTINUOUS
 90
6
 70
0
 10
156.7416624783
 20
-200.7435310376
 10
156.7174489388
 20
-200.676710591
 10
156.6933531859
 20
-200.6090452
 10
156.6694091586
 20
-200.5405348647
 10
156.6459360474
 20
-200.4713570029
 10
156.5988750112
 20
-200.329934192
  0
LWPOLYLINE
  5
424
100
AcDbEntity
  8
RACCORDO
100
AcDbPolyline
 62
253
  6
CONTINUOUS
 90
20
 70
0
 10
156.5491008685
 20
-200.1829371077
 10
156.5227883183
 20
-200.1069387334
 10
156.4952641712
 20
-200.0291129036
 10
156.4665442608
 20
-199.9494758409
 10
156.436250684
 20
-199.8676421784
 10
156.4042922389
 20
-199.7836039059
 10
156.3706289255
 20
-199.6973690336
 10
156.3349204363
 20
-199.6085762261
 10
156.2970540685
 20
-199.5172109649
 10
156.256955778
 20
-199.4232877685
 10
156.2143071946
 20
-199.3264888567
 10
156.168869656
 20
-199.2266063868
 10
156.1206281479
 20
-199.1238482014
 10
156.0695838794
 20
-199.0185200477
 10
156.0156148229
 20
-198.9107045612
 10
155.9585657344
 20
-198.8003191064
 10
155.8983926336
 20
-198.6874215248
 10
155.8349819582
 20
-198.5720310966
 10
155.7681414374
 20
-198.4541285415
 10
155.6977050718
 20
-198.3337138595
  0
LINE
  5
425
100
AcDbEntity
  8
RACCORDO
100
AcDbLine
 62
253
  6
CONTINUOUS
 10
156.5988750112
 20
-200.329934192
 11
156.5491008685
 21
-200.1829371077
  0
LINE
  5
426
100
AcDbEntity
  8
RACCORDO
100
AcDbLine
 62
7
  6
CONTINUOUS
 10
119.7701976968
 20
-11.5252029437
 11
119.7026301292
 21
-11.5927705112
  0
LINE
  5
427
100
AcDbEntity
  8
RACCORDO
100
AcDbLine
 62
7
  6
CONTINUOUS
 10
114.1350625616
 20
-17.1603380788
 11
114.2026301292
 21
-17.0927705112
  0
LINE
  5
428
100
AcDbEntity
  8
0
100
AcDbLine
 62
7
  6
CONTINUOUS
 10
202.7526301292
 20
-1.1511038446
 11
203.2526301292
 21
-0.8677705112
  0
LINE
  5
429
100
AcDbEntity
  8
RACCORDO
100
AcDbLine
 62
7
  6
CONTINUOUS
 10
119.9526301292
 20
-45.8427705112
 11
119.2776301292
 21
-46.0927705112
  0
LINE
  5
42A
100
AcDbEntity
  8
ASSI
100
AcDbLine
 62
7
  6
CONTINUOUS
 10
114.0858301279
 20
51.8969002198
 11
113.7026301292
 21
52.0322294888
  0
LINE
  5
42B
100
AcDbEntity
  8
RACCORDO
100
AcDbLine
 62
7
  6
CONTINUOUS
 10
119.8194301306
 20
51.1425587577
 11
120.1356428311
 21
51.0308864358
  0
LINE
  5
42C
100
AcDbEntity
  8
RACCORDO
100
AcDbLine
 62
7
  6
CONTINUOUS
 10
114.0858301279
 20
53.9219002198
 11
113.7696174273
 21
54.0335725417
  0
LINE
  5
42D
100
AcDbEntity
  8
ASSI
100
AcDbLine
 62
7
  6
CONTINUOUS
 10
119.8194301306
 20
53.1675587577
 11
120.2026301292
 21
53.0322294888
  0
LINE
  5
42E
100
AcDbEntity
  8
RACCORDO
100
AcDbLine
 62
7
  6
CONTINUOUS
 10
114.6276301292
 20
49.5322294888
 11
113.9526301292
 21
49.7822294888
  0
LINE
  5
42F
100
AcDbEntity
  8
RACCORDO
100
AcDbLine
 62
7
  6
CONTINUOUS
 10
119.2776301292
 20
55.5322294888
 11
119.9526301292
 21
55.2822294888
  0
LINE
  5
430
100
AcDbEntity
  8
0
100
AcDbLine
 62
7
  6
CONTINUOUS
 10
202.7526301292
 20
6.5655628221
 11
203.2526301292
 21
6.2822294888
  0
LINE
  5
431
100
AcDbEntity
  8
RACCORDO
100
AcDbLine
 62
7
  6
CONTINUOUS
 10
114.2026301292
 20
26.5322294888
 11
114.1350625616
 21
26.5997970563
  0
LINE
  5
432
100
AcDbEntity
  8
RACCORDO
100
AcDbLine
 62
7
  6
CONTINUOUS
 10
119.7026301292
 20
21.0322294888
 11
119.7701976968
 21
20.9646619212
  0
LINE
  5
433
100
AcDbEntity
  8
RACCORDO
100
AcDbLine
 62
253
  6
CONTINUOUS
 10
109.2026301292
 20
71.1572294888
 11
109.2026301292
 21
70.4072294888
  0
LINE
  5
434
100
AcDbEntity
  8
RACCORDO
100
AcDbLine
 62
253
  6
CONTINUOUS
 10
109.2026301292
 20
-62.7177705112
 11
109.2026301292
 21
-61.9677705112
  0
LINE
  5
435
100
AcDbEntity
  8
RACCORDO
100
AcDbLine
 62
253
  6
CONTINUOUS
 10
109.2026301292
 20
-61.7177705112
 11
109.2026301292
 21
-60.9677705112
  0
LINE
  5
436
100
AcDbEntity
  8
RACCORDO
100
AcDbLine
 62
253
  6
CONTINUOUS
 10
109.2026301292
 20
3.5322294888
 11
109.2026301292
 21
4.9072294888
  0
LINE
  5
437
100
AcDbEntity
  8
RACCORDO
100
AcDbLine
 62
253
  6
CONTINUOUS
 10
109.2026301292
 20
5.1572294888
 11
109.2026301292
 21
5.9072294888
  0
LINE
  5
438
100
AcDbEntity
  8
RACCORDO
100
AcDbLine
 62
7
  6
CONTINUOUS
 10
110.7026301292
 20
71.1572294888
 11
110.7026301292
 21
70.4072294888
  0
LINE
  5
439
100
AcDbEntity
  8
RACCORDO
100
AcDbLine
 62
7
  6
CONTINUOUS
 10
110.7026301292
 20
-62.7177705112
 11
110.7026301292
 21
-61.9677705112
  0
LINE
  5
43A
100
AcDbEntity
  8
RACCORDO
100
AcDbLine
 62
7
  6
CONTINUOUS
 10
110.7026301292
 20
-61.7177705112
 11
110.7026301292
 21
-60.9677705112
  0
LINE
  5
43B
100
AcDbEntity
  8
RACCORDO
100
AcDbLine
 62
7
  6
CONTINUOUS
 10
110.7026301292
 20
3.5322294888
 11
110.7026301292
 21
4.9072294888
  0
LINE
  5
43C
100
AcDbEntity
  8
RACCORDO
100
AcDbLine
 62
7
  6
CONTINUOUS
 10
110.7026301292
 20
5.1572294888
 11
110.7026301292
 21
5.9072294888
  0
LINE
  5
43D
100
AcDbEntity
  8
RACCORDO
100
AcDbLine
 62
7
  6
CONTINUOUS
 10
111.7026301292
 20
70.9072294888
 11
111.7026301292
 21
70.4072294888
  0
LINE
  5
43E
100
AcDbEntity
  8
RACCORDO
100
AcDbLine
 62
7
  6
CONTINUOUS
 10
111.7026301292
 20
-62.4677705112
 11
111.7026301292
 21
-61.9677705112
  0
LINE
  5
43F
100
AcDbEntity
  8
RACCORDO
100
AcDbLine
 62
7
  6
CONTINUOUS
 10
111.7026301292
 20
-61.4677705112
 11
111.7026301292
 21
-60.9677705112
  0
LINE
  5
440
100
AcDbEntity
  8
RACCORDO
100
AcDbLine
 62
7
  6
CONTINUOUS
 10
111.7026301292
 20
4.0322294888
 11
111.7026301292
 21
3.5322294888
  0
LINE
  5
441
100
AcDbEntity
  8
RACCORDO
100
AcDbLine
 62
7
  6
CONTINUOUS
 10
111.7026301292
 20
4.4072294888
 11
111.7026301292
 21
4.9072294888
  0
LINE
  5
442
100
AcDbEntity
  8
RACCORDO
100
AcDbLine
 62
7
  6
CONTINUOUS
 10
111.7026301292
 20
5.4072294888
 11
111.7026301292
 21
5.9072294888
  0
LINE
  5
443
100
AcDbEntity
  8
0
100
AcDbLine
 62
7
  6
CONTINUOUS
 10
113.2026301292
 20
-63.5427705112
 11
113.2026301292
 21
70.9572294888
  0
LINE
  5
444
100
AcDbEntity
  8
RACCORDO
100
AcDbLine
 62
7
  6
CONTINUOUS
 10
113.7026301292
 20
55.2822294888
 11
113.7026301292
 21
54.0572294888
  0
LINE
  5
445
100
AcDbEntity
  8
ASSI
100
AcDbLine
 62
7
  6
CONTINUOUS
 10
113.7026301292
 20
53.0322294888
 11
113.7026301292
 21
52.0322294888
  0
LINE
  5
446
100
AcDbEntity
  8
RACCORDO
100
AcDbLine
 62
7
  6
CONTINUOUS
 10
113.7026301292
 20
51.0072294888
 11
113.7026301292
 21
49.7822294888
  0
LINE
  5
447
100
AcDbEntity
  8
RACCORDO
100
AcDbLine
 62
7
  6
CONTINUOUS
 10
113.7026301292
 20
26.5322294888
 11
113.7026301292
 21
25.3072294888
  0
LINE
  5
448
100
AcDbEntity
  8
ASSI
100
AcDbLine
 62
7
  6
CONTINUOUS
 10
113.7026301292
 20
24.2822294888
 11
113.7026301292
 21
23.2822294888
  0
LINE
  5
449
100
AcDbEntity
  8
RACCORDO
100
AcDbLine
 62
7
  6
CONTINUOUS
 10
113.7026301292
 20
22.2572294888
 11
113.7026301292
 21
21.0322294888
  0
LINE
  5
44A
100
AcDbEntity
  8
RACCORDO
100
AcDbLine
 62
7
  6
CONTINUOUS
 10
113.7026301292
 20
-11.5927705112
 11
113.7026301292
 21
-12.8177705112
  0
LINE
  5
44B
100
AcDbEntity
  8
ASSI
100
AcDbLine
 62
7
  6
CONTINUOUS
 10
113.7026301292
 20
-13.8427705112
 11
113.7026301292
 21
-14.8427705112
  0
LINE
  5
44C
100
AcDbEntity
  8
RACCORDO
100
AcDbLine
 62
7
  6
CONTINUOUS
 10
113.7026301292
 20
-15.8677705112
 11
113.7026301292
 21
-17.0927705112
  0
LINE
  5
44D
100
AcDbEntity
  8
RACCORDO
100
AcDbLine
 62
7
  6
CONTINUOUS
 10
113.7026301292
 20
-40.3427705112
 11
113.7026301292
 21
-41.5677705112
  0
LINE
  5
44E
100
AcDbEntity
  8
ASSI
100
AcDbLine
 62
7
  6
CONTINUOUS
 10
113.7026301292
 20
-42.5927705112
 11
113.7026301292
 21
-43.5927705112
  0
LINE
  5
44F
100
AcDbEntity
  8
RACCORDO
100
AcDbLine
 62
7
  6
CONTINUOUS
 10
113.7026301292
 20
-44.6177705112
 11
113.7026301292
 21
-45.8427705112
  0
LINE
  5
450
100
AcDbEntity
  8
RACCORDO
100
AcDbLine
 62
7
  6
CONTINUOUS
 10
113.7696174273
 20
51.0308864358
 11
113.7696174273
 21
51.0072294888
  0
LINE
  5
451
100
AcDbEntity
  8
RACCORDO
100
AcDbLine
 62
7
  6
CONTINUOUS
 10
113.7696174273
 20
22.2808864358
 11
113.7696174273
 21
22.2572294888
  0
LINE
  5
452
100
AcDbEntity
  8
RACCORDO
100
AcDbLine
 62
7
  6
CONTINUOUS
 10
113.7696174273
 20
-41.5914274583
 11
113.7696174273
 21
-41.5677705112
  0
LINE
  5
453
100
AcDbEntity
  8
RACCORDO
100
AcDbLine
 62
7
  6
CONTINUOUS
 10
113.7696174273
 20
-15.8441135642
 11
113.7696174273
 21
-15.8677705112
  0
LINE
  5
454
100
AcDbEntity
  8
RACCORDO
100
AcDbLine
 62
7
  6
CONTINUOUS
 10
113.7696174273
 20
-12.8414274583
 11
113.7696174273
 21
-12.8177705112
  0
LINE
  5
455
100
AcDbEntity
  8
RACCORDO
100
AcDbLine
 62
7
  6
CONTINUOUS
 10
113.7696174273
 20
-44.5941135642
 11
113.7696174273
 21
-44.6177705112
  0
LINE
  5
456
100
AcDbEntity
  8
RACCORDO
100
AcDbLine
 62
7
  6
CONTINUOUS
 10
113.7696174273
 20
25.2835725417
 11
113.7696174273
 21
25.3072294888
  0
LINE
  5
457
100
AcDbEntity
  8
RACCORDO
100
AcDbLine
 62
7
  6
CONTINUOUS
 10
113.7696174273
 20
54.0335725417
 11
113.7696174273
 21
54.0572294888
  0
LINE
  5
458
100
AcDbEntity
  8
RACCORDO
100
AcDbLine
 62
253
  6
CONTINUOUS
 10
114.2026301292
 20
55.2822294888
 11
114.2026301292
 21
53.8569793887
  0
LINE
  5
459
100
AcDbEntity
  8
RACCORDO
100
AcDbLine
 62
253
  6
CONTINUOUS
 10
114.2026301292
 20
51.2074795889
 11
114.2026301292
 21
49.7822294888
  0
LINE
  5
45A
100
AcDbEntity
  8
RACCORDO
100
AcDbLine
 62
253
  6
CONTINUOUS
 10
114.2026301292
 20
26.5322294888
 11
114.2026301292
 21
25.1069793887
  0
LINE
  5
45B
100
AcDbEntity
  8
RACCORDO
100
AcDbLine
 62
253
  6
CONTINUOUS
 10
114.2026301292
 20
22.4574795889
 11
114.2026301292
 21
21.0322294888
  0
LINE
  5
45C
100
AcDbEntity
  8
ASSI
100
AcDbLine
 62
7
  6
CONTINUOUS
 10
114.2026301292
 20
-44.4175204111
 11
114.2026301292
 21
-43.7930206113
  0
LINE
  5
45D
100
AcDbEntity
  8
ASSI
100
AcDbLine
 62
7
  6
CONTINUOUS
 10
114.2026301292
 20
-42.3925204111
 11
114.2026301292
 21
-41.7680206113
  0
LINE
  5
45E
100
AcDbEntity
  8
RACCORDO
100
AcDbLine
 62
253
  6
CONTINUOUS
 10
114.2026301292
 20
-11.5927705112
 11
114.2026301292
 21
-13.0180206113
  0
LINE
  5
45F
100
AcDbEntity
  8
RACCORDO
100
AcDbLine
 62
253
  6
CONTINUOUS
 10
114.2026301292
 20
-15.6675204111
 11
114.2026301292
 21
-17.0927705112
  0
LINE
  5
460
100
AcDbEntity
  8
ASSI
100
AcDbLine
 62
7
  6
CONTINUOUS
 10
114.2026301292
 20
-15.6675204111
 11
114.2026301292
 21
-15.0430206113
  0
LINE
  5
461
100
AcDbEntity
  8
ASSI
100
AcDbLine
 62
7
  6
CONTINUOUS
 10
114.2026301292
 20
-13.6425204111
 11
114.2026301292
 21
-13.0180206113
  0
LINE
  5
462
100
AcDbEntity
  8
RACCORDO
100
AcDbLine
 62
253
  6
CONTINUOUS
 10
114.2026301292
 20
-40.3427705112
 11
114.2026301292
 21
-41.7680206113
  0
LINE
  5
463
100
AcDbEntity
  8
RACCORDO
100
AcDbLine
 62
253
  6
CONTINUOUS
 10
114.2026301292
 20
-44.4175204111
 11
114.2026301292
 21
-45.8427705112
  0
LINE
  5
464
100
AcDbEntity
  8
ASSI
100
AcDbLine
 62
7
  6
CONTINUOUS
 10
114.2026301292
 20
22.4574795889
 11
114.2026301292
 21
23.0819793887
  0
LINE
  5
465
100
AcDbEntity
  8
ASSI
100
AcDbLine
 62
7
  6
CONTINUOUS
 10
114.2026301292
 20
24.4824795889
 11
114.2026301292
 21
25.1069793887
  0
LINE
  5
466
100
AcDbEntity
  8
ASSI
100
AcDbLine
 62
7
  6
CONTINUOUS
 10
114.2026301292
 20
51.2074795889
 11
114.2026301292
 21
51.8319793887
  0
LINE
  5
467
100
AcDbEntity
  8
ASSI
100
AcDbLine
 62
7
  6
CONTINUOUS
 10
114.2026301292
 20
53.2324795889
 11
114.2026301292
 21
53.8569793887
  0
LINE
  5
468
100
AcDbEntity
  8
RACCORDO
100
AcDbLine
 62
7
  6
CONTINUOUS
 10
114.6276301292
 20
-46.3427705112
 11
114.6276301292
 21
-46.0927705112
  0
LINE
  5
469
100
AcDbEntity
  8
RACCORDO
100
AcDbLine
 62
7
  6
CONTINUOUS
 10
114.6276301292
 20
-40.0927705112
 11
114.6276301292
 21
-39.8427705112
  0
LINE
  5
46A
100
AcDbEntity
  8
RACCORDO
100
AcDbLine
 62
7
  6
CONTINUOUS
 10
114.6276301292
 20
-17.5927705112
 11
114.6276301292
 21
-17.3427705112
  0
LINE
  5
46B
100
AcDbEntity
  8
RACCORDO
100
AcDbLine
 62
7
  6
CONTINUOUS
 10
114.6276301292
 20
-11.3427705112
 11
114.6276301292
 21
-11.0927705112
  0
LINE
  5
46C
100
AcDbEntity
  8
RACCORDO
100
AcDbLine
 62
7
  6
CONTINUOUS
 10
114.6276301292
 20
20.5322294888
 11
114.6276301292
 21
20.7822294888
  0
LINE
  5
46D
100
AcDbEntity
  8
RACCORDO
100
AcDbLine
 62
7
  6
CONTINUOUS
 10
114.6276301292
 20
26.7822294888
 11
114.6276301292
 21
27.0322294888
  0
LINE
  5
46E
100
AcDbEntity
  8
RACCORDO
100
AcDbLine
 62
7
  6
CONTINUOUS
 10
114.6276301292
 20
49.2822294888
 11
114.6276301292
 21
49.5322294888
  0
LINE
  5
46F
100
AcDbEntity
  8
RACCORDO
100
AcDbLine
 62
7
  6
CONTINUOUS
 10
114.6276301292
 20
55.5322294888
 11
114.6276301292
 21
55.7822294888
  0
LINE
  5
470
100
AcDbEntity
  8
0
100
AcDbLine
 62
7
  6
CONTINUOUS
 10
114.7026301292
 20
62.9072294888
 11
114.7026301292
 21
58.4072294888
  0
LINE
  5
471
100
AcDbEntity
  8
0
100
AcDbLine
 62
7
  6
CONTINUOUS
 10
114.7026301292
 20
17.9072294888
 11
114.7026301292
 21
13.4072294888
  0
LINE
  5
472
100
AcDbEntity
  8
0
100
AcDbLine
 62
7
  6
CONTINUOUS
 10
114.7026301292
 20
-3.9677705112
 11
114.7026301292
 21
-8.4677705112
  0
LINE
  5
473
100
AcDbEntity
  8
0
100
AcDbLine
 62
7
  6
CONTINUOUS
 10
114.7026301292
 20
-48.9677705112
 11
114.7026301292
 21
-53.4677705112
  0
LINE
  5
474
100
AcDbEntity
  8
0
100
AcDbLine
 62
7
  6
CONTINUOUS
 10
119.2026301292
 20
-53.4677705112
 11
119.2026301292
 21
-48.9677705112
  0
LINE
  5
475
100
AcDbEntity
  8
0
100
AcDbLine
 62
7
  6
CONTINUOUS
 10
119.2026301292
 20
-8.4677705112
 11
119.2026301292
 21
-3.9677705112
  0
LINE
  5
476
100
AcDbEntity
  8
0
100
AcDbLine
 62
7
  6
CONTINUOUS
 10
119.2026301292
 20
13.4072294888
 11
119.2026301292
 21
17.9072294888
  0
LINE
  5
477
100
AcDbEntity
  8
0
100
AcDbLine
 62
7
  6
CONTINUOUS
 10
119.2026301292
 20
58.4072294888
 11
119.2026301292
 21
62.9072294888
  0
LINE
  5
478
100
AcDbEntity
  8
RACCORDO
100
AcDbLine
 62
7
  6
CONTINUOUS
 10
119.2776301292
 20
55.7822294888
 11
119.2776301292
 21
55.5322294888
  0
LINE
  5
479
100
AcDbEntity
  8
RACCORDO
100
AcDbLine
 62
7
  6
CONTINUOUS
 10
119.2776301292
 20
49.5322294888
 11
119.2776301292
 21
49.2822294888
  0
LINE
  5
47A
100
AcDbEntity
  8
RACCORDO
100
AcDbLine
 62
7
  6
CONTINUOUS
 10
119.2776301292
 20
27.0322294888
 11
119.2776301292
 21
26.7822294888
  0
LINE
  5
47B
100
AcDbEntity
  8
RACCORDO
100
AcDbLine
 62
7
  6
CONTINUOUS
 10
119.2776301292
 20
20.7822294888
 11
119.2776301292
 21
20.5322294888
  0
LINE
  5
47C
100
AcDbEntity
  8
RACCORDO
100
AcDbLine
 62
7
  6
CONTINUOUS
 10
119.2776301292
 20
-11.0927705112
 11
119.2776301292
 21
-11.3427705112
  0
LINE
  5
47D
100
AcDbEntity
  8
RACCORDO
100
AcDbLine
 62
7
  6
CONTINUOUS
 10
119.2776301292
 20
-17.3427705112
 11
119.2776301292
 21
-17.5927705112
  0
LINE
  5
47E
100
AcDbEntity
  8
RACCORDO
100
AcDbLine
 62
7
  6
CONTINUOUS
 10
119.2776301292
 20
-39.8427705112
 11
119.2776301292
 21
-40.0927705112
  0
LINE
  5
47F
100
AcDbEntity
  8
RACCORDO
100
AcDbLine
 62
7
  6
CONTINUOUS
 10
119.2776301292
 20
-46.0927705112
 11
119.2776301292
 21
-46.3427705112
  0
LINE
  5
480
100
AcDbEntity
  8
RACCORDO
100
AcDbLine
 62
253
  6
CONTINUOUS
 10
119.7026301292
 20
-45.8427705112
 11
119.7026301292
 21
-44.4175204111
  0
LINE
  5
481
100
AcDbEntity
  8
ASSI
100
AcDbLine
 62
7
  6
CONTINUOUS
 10
119.7026301292
 20
-44.4175204111
 11
119.7026301292
 21
-43.7930206113
  0
LINE
  5
482
100
AcDbEntity
  8
ASSI
100
AcDbLine
 62
7
  6
CONTINUOUS
 10
119.7026301292
 20
-42.3925204111
 11
119.7026301292
 21
-41.7680206113
  0
LINE
  5
483
100
AcDbEntity
  8
RACCORDO
100
AcDbLine
 62
253
  6
CONTINUOUS
 10
119.7026301292
 20
-41.7680206113
 11
119.7026301292
 21
-40.3427705112
  0
LINE
  5
484
100
AcDbEntity
  8
RACCORDO
100
AcDbLine
 62
253
  6
CONTINUOUS
 10
119.7026301292
 20
-17.0927705112
 11
119.7026301292
 21
-15.6675204111
  0
LINE
  5
485
100
AcDbEntity
  8
ASSI
100
AcDbLine
 62
7
  6
CONTINUOUS
 10
119.7026301292
 20
-15.6675204111
 11
119.7026301292
 21
-15.0430206113
  0
LINE
  5
486
100
AcDbEntity
  8
ASSI
100
AcDbLine
 62
7
  6
CONTINUOUS
 10
119.7026301292
 20
-13.6425204111
 11
119.7026301292
 21
-13.0180206113
  0
LINE
  5
487
100
AcDbEntity
  8
RACCORDO
100
AcDbLine
 62
253
  6
CONTINUOUS
 10
119.7026301292
 20
-13.0180206113
 11
119.7026301292
 21
-11.5927705112
  0
LINE
  5
488
100
AcDbEntity
  8
RACCORDO
100
AcDbLine
 62
253
  6
CONTINUOUS
 10
119.7026301292
 20
21.0322294888
 11
119.7026301292
 21
22.4574795889
  0
LINE
  5
489
100
AcDbEntity
  8
ASSI
100
AcDbLine
 62
7
  6
CONTINUOUS
 10
119.7026301292
 20
22.4574795889
 11
119.7026301292
 21
23.0819793887
  0
LINE
  5
48A
100
AcDbEntity
  8
ASSI
100
AcDbLine
 62
7
  6
CONTINUOUS
 10
119.7026301292
 20
24.4824795889
 11
119.7026301292
 21
25.1069793887
  0
LINE
  5
48B
100
AcDbEntity
  8
RACCORDO
100
AcDbLine
 62
253
  6
CONTINUOUS
 10
119.7026301292
 20
25.1069793887
 11
119.7026301292
 21
26.5322294888
  0
LINE
  5
48C
100
AcDbEntity
  8
RACCORDO
100
AcDbLine
 62
253
  6
CONTINUOUS
 10
119.7026301292
 20
49.7822294888
 11
119.7026301292
 21
51.2074795889
  0
LINE
  5
48D
100
AcDbEntity
  8
ASSI
100
AcDbLine
 62
7
  6
CONTINUOUS
 10
119.7026301292
 20
51.2074795889
 11
119.7026301292
 21
51.8319793887
  0
LINE
  5
48E
100
AcDbEntity
  8
ASSI
100
AcDbLine
 62
7
  6
CONTINUOUS
 10
119.7026301292
 20
53.2324795889
 11
119.7026301292
 21
53.8569793887
  0
LINE
  5
48F
100
AcDbEntity
  8
RACCORDO
100
AcDbLine
 62
253
  6
CONTINUOUS
 10
119.7026301292
 20
53.8569793887
 11
119.7026301292
 21
55.2822294888
  0
LINE
  5
490
100
AcDbEntity
  8
RACCORDO
100
AcDbLine
 62
7
  6
CONTINUOUS
 10
120.1356428311
 20
51.0308864358
 11
120.1356428311
 21
51.0072294888
  0
LINE
  5
491
100
AcDbEntity
  8
RACCORDO
100
AcDbLine
 62
7
  6
CONTINUOUS
 10
120.1356428311
 20
22.2808864358
 11
120.1356428311
 21
22.2572294888
  0
LINE
  5
492
100
AcDbEntity
  8
RACCORDO
100
AcDbLine
 62
7
  6
CONTINUOUS
 10
120.1356428311
 20
-41.5914274583
 11
120.1356428311
 21
-41.5677705112
  0
LINE
  5
493
100
AcDbEntity
  8
RACCORDO
100
AcDbLine
 62
7
  6
CONTINUOUS
 10
120.1356428311
 20
-15.8441135642
 11
120.1356428311
 21
-15.8677705112
  0
LINE
  5
494
100
AcDbEntity
  8
RACCORDO
100
AcDbLine
 62
7
  6
CONTINUOUS
 10
120.1356428311
 20
-12.8414274583
 11
120.1356428311
 21
-12.8177705112
  0
LINE
  5
495
100
AcDbEntity
  8
RACCORDO
100
AcDbLine
 62
7
  6
CONTINUOUS
 10
120.1356428311
 20
-44.5941135642
 11
120.1356428311
 21
-44.6177705112
  0
LINE
  5
496
100
AcDbEntity
  8
RACCORDO
100
AcDbLine
 62
7
  6
CONTINUOUS
 10
120.1356428311
 20
25.2835725417
 11
120.1356428311
 21
25.3072294888
  0
LINE
  5
497
100
AcDbEntity
  8
RACCORDO
100
AcDbLine
 62
7
  6
CONTINUOUS
 10
120.1356428311
 20
54.0335725417
 11
120.1356428311
 21
54.0572294888
  0
LINE
  5
498
100
AcDbEntity
  8
RACCORDO
100
AcDbLine
 62
7
  6
CONTINUOUS
 10
120.2026301292
 20
-45.8427705112
 11
120.2026301292
 21
-44.6177705112
  0
LINE
  5
499
100
AcDbEntity
  8
ASSI
100
AcDbLine
 62
7
  6
CONTINUOUS
 10
120.2026301292
 20
-43.5927705112
 11
120.2026301292
 21
-42.5927705112
  0
LINE
  5
49A
100
AcDbEntity
  8
RACCORDO
100
AcDbLine
 62
7
  6
CONTINUOUS
 10
120.2026301292
 20
-41.5677705112
 11
120.2026301292
 21
-40.3427705112
  0
LINE
  5
49B
100
AcDbEntity
  8
RACCORDO
100
AcDbLine
 62
7
  6
CONTINUOUS
 10
120.2026301292
 20
-17.0927705112
 11
120.2026301292
 21
-15.8677705112
  0
LINE
  5
49C
100
AcDbEntity
  8
ASSI
100
AcDbLine
 62
7
  6
CONTINUOUS
 10
120.2026301292
 20
-14.8427705112
 11
120.2026301292
 21
-13.8427705112
  0
LINE
  5
49D
100
AcDbEntity
  8
RACCORDO
100
AcDbLine
 62
7
  6
CONTINUOUS
 10
120.2026301292
 20
-12.8177705112
 11
120.2026301292
 21
-11.5927705112
  0
LINE
  5
49E
100
AcDbEntity
  8
RACCORDO
100
AcDbLine
 62
7
  6
CONTINUOUS
 10
120.2026301292
 20
21.0322294888
 11
120.2026301292
 21
22.2572294888
  0
LINE
  5
49F
100
AcDbEntity
  8
ASSI
100
AcDbLine
 62
7
  6
CONTINUOUS
 10
120.2026301292
 20
23.2822294888
 11
120.2026301292
 21
24.2822294888
  0
LINE
  5
4A0
100
AcDbEntity
  8
RACCORDO
100
AcDbLine
 62
7
  6
CONTINUOUS
 10
120.2026301292
 20
25.3072294888
 11
120.2026301292
 21
26.5322294888
  0
LINE
  5
4A1
100
AcDbEntity
  8
RACCORDO
100
AcDbLine
 62
7
  6
CONTINUOUS
 10
120.2026301292
 20
49.7822294888
 11
120.2026301292
 21
51.0072294888
  0
LINE
  5
4A2
100
AcDbEntity
  8
ASSI
100
AcDbLine
 62
7
  6
CONTINUOUS
 10
120.2026301292
 20
52.0322294888
 11
120.2026301292
 21
53.0322294888
  0
LINE
  5
4A3
100
AcDbEntity
  8
RACCORDO
100
AcDbLine
 62
7
  6
CONTINUOUS
 10
120.2026301292
 20
54.0572294888
 11
120.2026301292
 21
55.2822294888
  0
LINE
  5
4A4
100
AcDbEntity
  8
RACCORDO
100
AcDbLine
 62
7
  6
CONTINUOUS
 10
119.7701976968
 20
-40.2752029437
 11
119.7026301292
 21
-40.3427705112
  0
LINE
  5
4A5
100
AcDbEntity
  8
RACCORDO
100
AcDbLine
 62
7
  6
CONTINUOUS
 10
114.1350625616
 20
-45.9103380788
 11
114.2026301292
 21
-45.8427705112
  0
LINE
  5
4A6
100
AcDbEntity
  8
RACCORDO
100
AcDbLine
 62
7
  6
CONTINUOUS
 10
114.2026301292
 20
55.2822294888
 11
114.1350625616
 21
55.3497970563
  0
LINE
  5
4A7
100
AcDbEntity
  8
RACCORDO
100
AcDbLine
 62
7
  6
CONTINUOUS
 10
119.7026301292
 20
49.7822294888
 11
119.7701976968
 21
49.7146619212
  0
LINE
  5
4A8
100
AcDbEntity
  8
RACCORDO
100
AcDbLine
 62
253
  6
CONTINUOUS
 10
170.5276301299
 20
-197.9426079408
 11
170.5873060217
 21
-198.1825974624
  0
LWPOLYLINE
  5
4A9
100
AcDbEntity
  8
RACCORDO
100
AcDbPolyline
 62
253
  6
CONTINUOUS
 90
10
 70
0
 10
153.5276303327
 20
-197.7760182499
 10
153.5296258532
 20
-197.807358896
 10
153.5355806091
 20
-197.8381992098
 10
153.5453995364
 20
-197.8680468448
 10
153.5589258821
 20
-197.8964253022
 10
153.5759437064
 20
-197.9228815375
 10
153.5961813303
 20
-197.9469931934
 10
153.6193156729
 20
-197.9683753423
 10
153.6449774087
 20
-197.9866866314
 10
153.672756864
 20
-198.0016347326
  0
LINE
  5
4AA
100
AcDbEntity
  8
0
100
AcDbLine
 62
7
  6
CONTINUOUS
 10
201.9526301292
 20
-2.7927705112
 11
202.7526301292
 21
-2.0427705112
  0
LINE
  5
4AB
100
AcDbEntity
  8
0
100
AcDbLine
 62
7
  6
CONTINUOUS
 10
-74.2973698708
 20
131.9572294888
 11
75.7026301292
 21
131.9572294888
  0
LINE
  5
4AC
100
AcDbEntity
  8
0
100
AcDbLine
 62
7
  6
CONTINUOUS
 10
201.9526301292
 20
8.2072294888
 11
202.7526301292
 21
7.4572294888
  0
LWPOLYLINE
  5
4AD
100
AcDbEntity
  8
RACCORDO
100
AcDbPolyline
 62
253
  6
CONTINUOUS
 90
10
 70
0
 10
171.3825033565
 20
-198.0016345126
 10
171.3897357519
 20
-198.0786484314
 10
171.3979219588
 20
-198.1470741695
 10
171.4065780926
 20
-198.2068114189
 10
171.4145072067
 20
-198.2582432295
 10
171.4218715959
 20
-198.3009233349
 10
171.4299908629
 20
-198.3333533127
 10
171.4387136384
 20
-198.3548661704
 10
171.4465500504
 20
-198.3658516304
 10
171.4526486897
 20
-198.3662839325
  0
LINE
  5
4AE
100
AcDbEntity
  8
RACCORDO
100
AcDbLine
 62
7
  6
CONTINUOUS
 10
153.5276301292
 20
-197.2927705112
 11
153.5276301292
 21
-198.18776436
  0
LINE
  5
4AF
100
AcDbEntity
  8
RACCORDO
100
AcDbLine
 62
253
  6
CONTINUOUS
 10
154.5276301292
 20
-197.2927705112
 11
154.5276301292
 21
-197.9426079328
  0
LINE
  5
4B0
100
AcDbEntity
  8
0
100
AcDbLine
 62
7
  6
CONTINUOUS
 10
156.9276301292
 20
-200.7927705112
 11
156.9276301292
 21
-201.2927705112
  0
LINE
  5
4B1
100
AcDbEntity
  8
0
100
AcDbLine
 62
7
  6
CONTINUOUS
 10
159.1526301292
 20
203.0572294888
 11
159.1526301292
 21
204.3072294888
  0
LINE
  5
4B2
100
AcDbEntity
  8
ASSI
100
AcDbLine
 62
7
  6
CONTINUOUS
 10
161.2026301292
 20
-216.1427705112
 11
161.2026301292
 21
-207.6136497737
  0
LINE
  5
4B3
100
AcDbEntity
  8
0
100
AcDbLine
 62
7
  6
CONTINUOUS
 10
161.2026301292
 20
-207.6136497737
 11
161.2026301292
 21
-204.5427705112
  0
LINE
  5
4B4
100
AcDbEntity
  8
0
100
AcDbLine
 62
7
  6
CONTINUOUS
 10
162.0276301292
 20
-204.5427705112
 11
162.0276301292
 21
-202.0427705112
  0
LINE
  5
4B5
100
AcDbEntity
  8
0
100
AcDbLine
 62
7
  6
CONTINUOUS
 10
163.0276301292
 20
-204.5427705112
 11
163.0276301292
 21
-202.0427705112
  0
LINE
  5
4B6
100
AcDbEntity
  8
ASSI
100
AcDbLine
 62
7
  6
CONTINUOUS
 10
163.8526301292
 20
-216.1427705112
 11
163.8526301292
 21
-207.6136497737
  0
LINE
  5
4B7
100
AcDbEntity
  8
0
100
AcDbLine
 62
7
  6
CONTINUOUS
 10
163.8526301292
 20
-207.6136497737
 11
163.8526301292
 21
-204.5427705112
  0
LINE
  5
4B8
100
AcDbEntity
  8
0
100
AcDbLine
 62
7
  6
CONTINUOUS
 10
164.1526301292
 20
219.0072294888
 11
164.1526301292
 21
205.6072294888
  0
LINE
  5
4B9
100
AcDbEntity
  8
0
100
AcDbLine
 62
7
  6
CONTINUOUS
 10
165.1526301292
 20
219.0072294888
 11
165.1526301292
 21
205.6072294888
  0
LINE
  5
4BA
100
AcDbEntity
  8
RACCORDO
100
AcDbLine
 62
253
  6
CONTINUOUS
 10
155.6985718196
 20
-198.0887885058
 11
155.6977050592
 21
-198.3337139279
  0
LINE
  5
4BB
100
AcDbEntity
  8
RACCORDO
100
AcDbLine
 62
253
  6
CONTINUOUS
 10
169.3566884874
 20
-198.088788497
 11
169.3575552522
 21
-198.3337115849
  0
LINE
  5
4BC
100
AcDbEntity
  8
0
100
AcDbLine
 62
7
  6
CONTINUOUS
 10
168.1276301292
 20
-200.7927705112
 11
168.1276301292
 21
-201.2927705112
  0
LINE
  5
4BD
100
AcDbEntity
  8
0
100
AcDbLine
 62
7
  6
CONTINUOUS
 10
170.1526301292
 20
203.0572294888
 11
170.1526301292
 21
204.3072294888
  0
LINE
  5
4BE
100
AcDbEntity
  8
RACCORDO
100
AcDbLine
 62
253
  6
CONTINUOUS
 10
170.5276301292
 20
-197.9426079411
 11
170.5276301292
 21
-197.2927705112
  0
LINE
  5
4BF
100
AcDbEntity
  8
RACCORDO
100
AcDbLine
 62
7
  6
CONTINUOUS
 10
171.5276301292
 20
-197.2927705112
 11
171.5276301292
 21
-198.1877653135
  0
LINE
  5
4C0
100
AcDbEntity
  8
0
100
AcDbLine
 62
7
  6
CONTINUOUS
 10
177.7026301292
 20
202.7072294888
 11
177.7026301292
 21
201.7072294888
  0
LINE
  5
4C1
100
AcDbEntity
  8
0
100
AcDbLine
 62
7
  6
CONTINUOUS
 10
177.7026301292
 20
-196.2927705112
 11
177.7026301292
 21
-197.2927705112
  0
LINE
  5
4C2
100
AcDbEntity
  8
0
100
AcDbLine
 62
7
  6
CONTINUOUS
 10
178.2026301292
 20
202.7072294888
 11
178.2026301292
 21
202.2072294888
  0
LINE
  5
4C3
100
AcDbEntity
  8
0
100
AcDbLine
 62
7
  6
CONTINUOUS
 10
178.2026301292
 20
-196.2927705112
 11
178.2026301292
 21
-197.2927705112
  0
LINE
  5
4C4
100
AcDbEntity
  8
0
100
AcDbLine
 62
253
  6
CONTINUOUS
 10
179.4526301292
 20
202.7072294888
 11
179.4526301292
 21
201.7072294888
  0
LINE
  5
4C5
100
AcDbEntity
  8
0
100
AcDbLine
 62
7
  6
CONTINUOUS
 10
180.7026301292
 20
202.7072294888
 11
180.7026301292
 21
201.7072294888
  0
LINE
  5
4C6
100
AcDbEntity
  8
0
100
AcDbLine
 62
7
  6
CONTINUOUS
 10
180.7026301292
 20
-197.2927705112
 11
180.7026301292
 21
-196.2927705112
  0
LINE
  5
4C7
100
AcDbEntity
  8
RACCORDO
100
AcDbLine
 62
7
  6
CONTINUOUS
 10
183.3276301292
 20
165.2072294888
 11
183.3276301292
 21
138.7072294888
  0
LINE
  5
4C8
100
AcDbEntity
  8
RACCORDO
100
AcDbLine
 62
7
  6
CONTINUOUS
 10
183.3276301292
 20
-133.2927705112
 11
183.3276301292
 21
-159.7927705112
  0
LINE
  5
4C9
100
AcDbEntity
  8
RACCORDO
100
AcDbLine
 62
7
  6
CONTINUOUS
 10
184.8276301292
 20
-159.7927705112
 11
184.8276301292
 21
-133.2927705112
  0
LINE
  5
4CA
100
AcDbEntity
  8
RACCORDO
100
AcDbLine
 62
7
  6
CONTINUOUS
 10
184.8276301292
 20
138.7072294888
 11
184.8276301292
 21
165.2072294888
  0
LWPOLYLINE
  5
4CB
100
AcDbEntity
  8
RACCORDO
100
AcDbPolyline
 62
253
  6
CONTINUOUS
 90
10
 70
0
 10
171.5276301292
 20
-197.7760180541
 10
171.5256347635
 20
-197.8073588079
 10
171.519680133
 20
-197.8381992475
 10
171.5098613001
 20
-197.8680470211
 10
171.4963350174
 20
-197.8964256247
 10
171.4793172251
 20
-197.9228820086
 10
171.4590796032
 20
-197.9469938105
 10
171.435945235
 20
-197.968376098
 10
171.4102834484
 20
-197.9866875141
 10
171.3825039207
 20
-198.0016357265
  0
LWPOLYLINE
  5
4CC
100
AcDbEntity
  8
RACCORDO
100
AcDbPolyline
 62
253
  6
CONTINUOUS
 90
19
 70
0
 10
153.5276301292
 20
-197.7760182499
 10
153.5280322901
 20
-197.7738159329
 10
153.5292792932
 20
-197.7718846388
 10
153.5314324586
 20
-197.7702243675
 10
153.5345445018
 20
-197.7688151639
 10
153.5386820208
 20
-197.7676769831
 10
153.5439494175
 20
-197.7668696908
 10
153.5504321955
 20
-197.7663856352
 10
153.5582151259
 20
-197.7662324681
 10
153.5674461706
 20
-197.7664930101
 10
153.5782510498
 20
-197.7671661452
 10
153.5907241188
 20
-197.7682529895
 10
153.6049942729
 20
-197.769839712
 10
153.6211659991
 20
-197.7719296541
 10
153.6393544179
 20
-197.7745194744
 10
153.659718455
 20
-197.777685317
 10
153.6823757212
 20
-197.7814354953
 10
153.7074295434
 20
-197.7857616959
 10
153.7350296683
 20
-197.790715123
  0
LINE
  5
4CD
100
AcDbEntity
  8
0
100
AcDbLine
 62
7
  6
CONTINUOUS
 10
200.7026301292
 20
180.2072294888
 11
199.7026301292
 21
180.2072294888
  0
LINE
  5
4CE
100
AcDbEntity
  8
0
100
AcDbLine
 62
7
  6
CONTINUOUS
 10
-199.2973698708
 20
180.2072294888
 11
-198.2973698708
 21
180.2072294888
  0
LINE
  5
4CF
100
AcDbEntity
  8
0
100
AcDbLine
 62
253
  6
CONTINUOUS
 10
-199.2973698708
 20
181.4572294888
 11
-198.2973698708
 21
181.4572294888
  0
LINE
  5
4D0
100
AcDbEntity
  8
0
100
AcDbLine
 62
7
  6
CONTINUOUS
 10
75.7026301292
 20
181.9572294888
 11
-74.2973698708
 21
181.9572294888
  0
LINE
  5
4D1
100
AcDbEntity
  8
0
100
AcDbLine
 62
7
  6
CONTINUOUS
 10
200.7026301292
 20
182.7072294888
 11
199.7026301292
 21
182.7072294888
  0
LINE
  5
4D2
100
AcDbEntity
  8
0
100
AcDbLine
 62
7
  6
CONTINUOUS
 10
-199.2973698708
 20
182.7072294888
 11
-198.2973698708
 21
182.7072294888
  0
LINE
  5
4D3
100
AcDbEntity
  8
RACCORDO
100
AcDbLine
 62
7
  6
CONTINUOUS
 10
-161.7973698708
 20
185.3322294888
 11
-149.4144222031
 21
185.3322294888
  0
LINE
  5
4D4
100
AcDbEntity
  8
RACCORDO
100
AcDbLine
 62
7
  6
CONTINUOUS
 10
150.8196824615
 20
185.3322294888
 11
163.2026301292
 21
185.3322294888
  0
LINE
  5
4D5
100
AcDbEntity
  8
RACCORDO
100
AcDbLine
 62
7
  6
CONTINUOUS
 10
163.2026301292
 20
186.8322294888
 11
151.8515940039
 21
186.8322294888
  0
LINE
  5
4D6
100
AcDbEntity
  8
RACCORDO
100
AcDbLine
 62
7
  6
CONTINUOUS
 10
-150.4463337454
 20
186.8322294888
 11
-161.7973698708
 21
186.8322294888
  0
LINE
  5
4D7
100
AcDbEntity
  8
0
100
AcDbLine
 62
7
  6
CONTINUOUS
 10
199.7026301292
 20
182.7072294888
 11
199.7026301292
 21
180.2072294888
  0
LINE
  5
4D8
100
AcDbEntity
  8
0
100
AcDbLine
 62
253
  6
CONTINUOUS
 10
199.7026301292
 20
180.2072294888
 11
199.7026301292
 21
-174.7927705112
  0
LINE
  5
4D9
100
AcDbEntity
  8
0
100
AcDbLine
 62
7
  6
CONTINUOUS
 10
199.7026301292
 20
-174.7927705112
 11
199.7026301292
 21
-177.2927705112
  0
LINE
  5
4DA
100
AcDbEntity
  8
RACCORDO
100
AcDbLine
 62
7
  6
CONTINUOUS
 10
200.7026301292
 20
201.2072294888
 11
200.7026301292
 21
182.7072294888
  0
LINE
  5
4DB
100
AcDbEntity
  8
0
100
AcDbLine
 62
7
  6
CONTINUOUS
 10
200.7026301292
 20
180.2072294888
 11
200.7026301292
 21
-174.7927705112
  0
LINE
  5
4DC
100
AcDbEntity
  8
0
100
AcDbLine
 62
7
  6
CONTINUOUS
 10
200.7026301292
 20
-176.0427705112
 11
200.7026301292
 21
-177.2927705112
  0
LINE
  5
4DD
100
AcDbEntity
  8
RACCORDO
100
AcDbLine
 62
7
  6
CONTINUOUS
 10
200.7026301292
 20
-177.2927705112
 11
200.7026301292
 21
-195.7927705112
  0
LINE
  5
4DE
100
AcDbEntity
  8
0
100
AcDbLine
 62
7
  6
CONTINUOUS
 10
201.9526301292
 20
8.2072294888
 11
201.9526301292
 21
-2.7927705112
  0
LINE
  5
4DF
100
AcDbEntity
  8
0
100
AcDbLine
 62
7
  6
CONTINUOUS
 10
202.7526301292
 20
7.4572294888
 11
202.7526301292
 21
-2.0427705112
  0
LINE
  5
4E0
100
AcDbEntity
  8
0
100
AcDbLine
 62
7
  6
CONTINUOUS
 10
203.2526301292
 20
6.2822294888
 11
203.2526301292
 21
-0.8677705112
  0
LINE
  5
4E1
100
AcDbEntity
  8
0
100
AcDbLine
 62
7
  6
CONTINUOUS
 10
207.2526301292
 20
2.2072294888
 11
207.2526301292
 21
3.2072294888
  0
LWPOLYLINE
  5
4E2
100
AcDbEntity
  8
RACCORDO
100
AcDbPolyline
 62
253
  6
CONTINUOUS
 90
19
 70
0
 10
153.6727568862
 20
-198.0016346849
 10
153.6732186801
 20
-197.9995290725
 10
153.6744443568
 20
-197.9977181589
 10
153.6764353196
 20
-197.9961989222
 10
153.6791291533
 20
-197.9949416624
 10
153.6825915695
 20
-197.9939688996
 10
153.6870169556
 20
-197.9933541911
 10
153.6923866015
 20
-197.9930794835
 10
153.6987250191
 20
-197.9931499397
 10
153.7062932291
 20
-197.9936699631
 10
153.715097475
 20
-197.9946225228
 10
153.7251412606
 20
-197.996002449
 10
153.7366839767
 20
-197.9979263383
 10
153.7497274798
 20
-198.0003736666
 10
153.7642844238
 20
-198.0033307521
 10
153.7806334094
 20
-198.0069172979
 10
153.7987946952
 20
-198.0111084221
 10
153.8187684206
 20
-198.0158783313
 10
153.8408062891
 20
-198.0213368699
  0
LINE
  5
4E3
100
AcDbEntity
  8
RACCORDO
100
AcDbLine
 62
253
  6
CONTINUOUS
 10
154.5276301292
 20
-197.9426079328
 11
154.4679533582
 21
-198.1826010013
  0
LINE
  5
4E4
100
AcDbEntity
  8
0
100
AcDbLine
 62
7
  6
CONTINUOUS
 10
-179.2973698708
 20
201.7072294888
 11
-176.2973698708
 21
201.7072294888
  0
LINE
  5
4E5
100
AcDbEntity
  8
0
100
AcDbLine
 62
253
  6
CONTINUOUS
 10
177.7026301292
 20
201.7072294888
 11
148.4579436556
 21
201.7072294888
  0
LINE
  5
4E6
100
AcDbEntity
  8
0
100
AcDbLine
 62
253
  6
CONTINUOUS
 10
135.7323166029
 20
201.7072294888
 11
-134.3270563444
 21
201.7072294888
  0
LINE
  5
4E7
100
AcDbEntity
  8
0
100
AcDbLine
 62
253
  6
CONTINUOUS
 10
-147.0526833971
 20
201.7072294888
 11
-176.2973698708
 21
201.7072294888
  0
LINE
  5
4E8
100
AcDbEntity
  8
0
100
AcDbLine
 62
7
  6
CONTINUOUS
 10
177.7026301292
 20
201.7072294888
 11
180.7026301292
 21
201.7072294888
  0
LINE
  5
4E9
100
AcDbEntity
  8
0
100
AcDbLine
 62
7
  6
CONTINUOUS
 10
178.3364833974
 20
202.2072294888
 11
177.7026301292
 21
202.2072294888
  0
LINE
  5
4EA
100
AcDbEntity
  8
RACCORDO
100
AcDbLine
 62
7
  6
CONTINUOUS
 10
-197.7973698708
 20
202.7072294888
 11
-179.2973698708
 21
202.7072294888
  0
LINE
  5
4EB
100
AcDbEntity
  8
0
100
AcDbLine
 62
7
  6
CONTINUOUS
 10
178.2026301292
 20
202.7072294888
 11
146.6758533266
 21
202.7072294888
  0
LINE
  5
4EC
100
AcDbEntity
  8
0
100
AcDbLine
 62
7
  6
CONTINUOUS
 10
137.5144069318
 20
202.7072294888
 11
-136.1091466734
 21
202.7072294888
  0
LINE
  5
4ED
100
AcDbEntity
  8
0
100
AcDbLine
 62
7
  6
CONTINUOUS
 10
-145.2705930682
 20
202.7072294888
 11
-176.7973698708
 21
202.7072294888
  0
LINE
  5
4EE
100
AcDbEntity
  8
0
100
AcDbLine
 62
7
  6
CONTINUOUS
 10
179.4526301292
 20
202.7072294888
 11
180.7026301292
 21
202.7072294888
  0
LINE
  5
4EF
100
AcDbEntity
  8
RACCORDO
100
AcDbLine
 62
7
  6
CONTINUOUS
 10
180.7026301292
 20
202.7072294888
 11
199.2026301292
 21
202.7072294888
  0
LINE
  5
4F0
100
AcDbEntity
  8
0
100
AcDbLine
 62
7
  6
CONTINUOUS
 10
170.1526301292
 20
203.0572294888
 11
159.1526301292
 21
203.0572294888
  0
LINE
  5
4F1
100
AcDbEntity
  8
0
100
AcDbLine
 62
7
  6
CONTINUOUS
 10
170.1526301292
 20
204.3072294888
 11
159.1526301292
 21
204.3072294888
  0
LINE
  5
4F2
100
AcDbEntity
  8
0
100
AcDbLine
 62
7
  6
CONTINUOUS
 10
169.4026301292
 20
205.1072294888
 11
159.9026301292
 21
205.1072294888
  0
LINE
  5
4F3
100
AcDbEntity
  8
0
100
AcDbLine
 62
7
  6
CONTINUOUS
 10
168.2276301292
 20
205.6072294888
 11
161.0776301292
 21
205.6072294888
  0
LINE
  5
4F4
100
AcDbEntity
  8
0
100
AcDbLine
 62
7
  6
CONTINUOUS
 10
164.1526301292
 20
207.6072294888
 11
165.1526301292
 21
207.6072294888
  0
LINE
  5
4F5
100
AcDbEntity
  8
0
100
AcDbLine
 62
7
  6
CONTINUOUS
 10
209.7776301292
 20
2.2072294888
 11
209.7776301292
 21
3.2072294888
  0
LINE
  5
4F6
100
AcDbEntity
  8
0
100
AcDbLine
 62
7
  6
CONTINUOUS
 10
213.5276301292
 20
2.2072294888
 11
213.5276301292
 21
3.2072294888
  0
LINE
  5
4F7
100
AcDbEntity
  8
0
100
AcDbLine
 62
7
  6
CONTINUOUS
 10
215.8026301292
 20
2.2072294888
 11
215.8026301292
 21
3.2072294888
  0
LINE
  5
4F8
100
AcDbEntity
  8
0
100
AcDbLine
 62
7
  6
CONTINUOUS
 10
216.6526301292
 20
2.2072294888
 11
216.6526301292
 21
3.2072294888
  0
LWPOLYLINE
  5
4F9
100
AcDbEntity
  8
RACCORDO
100
AcDbPolyline
 62
253
  6
CONTINUOUS
 90
5
 70
0
 10
168.3957508756
 20
-200.5115776935
 10
168.3754725997
 20
-200.5710572738
 10
168.3549461724
 20
-200.6296002189
 10
168.3343839623
 20
-200.6870916826
 10
168.3138050824
 20
-200.743531665
  0
LINE
  5
4FA
100
AcDbEntity
  8
0
100
AcDbLine
 62
7
  6
CONTINUOUS
 10
164.1526301292
 20
208.6072294888
 11
165.1526301292
 21
208.6072294888
  0
LINE
  5
4FB
100
AcDbEntity
  8
0
100
AcDbLine
 62
7
  6
CONTINUOUS
 10
164.1526301292
 20
209.6072294888
 11
165.1526301292
 21
209.6072294888
  0
LINE
  5
4FC
100
AcDbEntity
  8
0
100
AcDbLine
 62
7
  6
CONTINUOUS
 10
164.1526301292
 20
212.1322294888
 11
165.1526301292
 21
212.1322294888
  0
LINE
  5
4FD
100
AcDbEntity
  8
0
100
AcDbLine
 62
7
  6
CONTINUOUS
 10
164.1526301292
 20
215.8822294888
 11
165.1526301292
 21
215.8822294888
  0
LINE
  5
4FE
100
AcDbEntity
  8
0
100
AcDbLine
 62
7
  6
CONTINUOUS
 10
164.1526301292
 20
218.1572294888
 11
165.1526301292
 21
218.1572294888
  0
LINE
  5
4FF
100
AcDbEntity
  8
0
100
AcDbLine
 62
7
  6
CONTINUOUS
 10
164.1526301292
 20
219.0072294888
 11
165.1526301292
 21
219.0072294888
  0
LWPOLYLINE
  5
500
100
AcDbEntity
  8
RACCORDO
100
AcDbPolyline
 62
253
  6
CONTINUOUS
 90
24
 70
0
 10
169.3575552352
 20
-198.3337138622
 10
169.2929173753
 20
-198.4440989366
 10
169.2313686307
 20
-198.552247363
 10
169.1727768834
 20
-198.6581591416
 10
169.1170108346
 20
-198.761806217
 10
169.0639561903
 20
-198.8632166445
 10
169.0135134842
 20
-198.9624745901
 10
168.9655698104
 20
-199.0596171975
 10
168.9200221327
 20
-199.154607323
 10
168.8767906758
 20
-199.2474177007
 10
168.8357979138
 20
-199.3380409514
 10
168.796932083
 20
-199.4264844543
 10
168.7600704425
 20
-199.5127430819
 10
168.7251585099
 20
-199.5967890893
 10
168.6920927329
 20
-199.6786502215
 10
168.6606921688
 20
-199.7584045853
 10
168.6309238997
 20
-199.8360125573
 10
168.602697551
 20
-199.911513761
 10
168.5757681229
 20
-199.9851051742
 10
168.5501172486
 20
-200.0567718062
 10
168.5256766428
 20
-200.1265286476
 10
168.5021541029
 20
-200.1946176477
 10
168.4795645903
 20
-200.2610288493
 10
168.3957508756
 20
-200.5115776935
  0
LWPOLYLINE
  5
501
100
AcDbEntity
  8
RACCORDO
100
AcDbPolyline
 62
253
  6
CONTINUOUS
 90
3
 70
0
 10
169.1142158067
 20
-200.6536019725
 10
169.091226298
 20
-200.6616308836
 10
169.0548568725
 20
-200.6730130046
  0
LINE
  5
502
100
AcDbEntity
  8
0
100
AcDbLine
 62
7
  6
CONTINUOUS
 10
168.5109634626
 20
205.1072294888
 11
168.2276301292
 21
205.6072294888
  0
LINE
  5
503
100
AcDbEntity
  8
RACCORDO
100
AcDbLine
 62
7
  6
CONTINUOUS
 10
169.1329216307
 20
-200.6405239411
 11
171.4526479971
 21
-198.3662824054
  0
LWPOLYLINE
  5
504
100
AcDbEntity
  8
RACCORDO
100
AcDbPolyline
 62
253
  6
CONTINUOUS
 90
7
 70
0
 10
169.1329224405
 20
-200.6405130544
 10
169.1306627089
 20
-200.6425899986
 10
169.1280666094
 20
-200.6447080048
 10
169.125123751
 20
-200.6468730782
 10
169.1218335236
 20
-200.6490806794
 10
169.1181969216
 20
-200.6513254383
 10
169.1142158067
 20
-200.6536019725
  0
LINE
  5
505
100
AcDbEntity
  8
RACCORDO
100
AcDbLine
 62
253
  6
CONTINUOUS
 10
169.1142122543
 20
-200.6535980978
 11
169.0613296568
 21
-200.6962154815
  0
LWPOLYLINE
  5
506
100
AcDbEntity
  8
RACCORDO
100
AcDbPolyline
 62
253
  6
CONTINUOUS
 90
6
 70
0
 10
169.0613296568
 20
-200.6962154815
 10
169.0034174182
 20
-200.731700174
 10
168.9414310297
 20
-200.7594667157
 10
168.876393202
 20
-200.7790569889
 10
168.8093769907
 20
-200.7901477754
 10
168.7580479681
 20
-200.7927738911
  0
LINE
  5
507
100
AcDbEntity
  8
0
100
AcDbLine
 62
7
  6
CONTINUOUS
 10
168.1276301292
 20
-201.2927705112
 11
166.6526301292
 21
-202.0427705112
  0
LWPOLYLINE
  5
508
100
AcDbEntity
  8
RACCORDO
100
AcDbPolyline
 62
253
  6
CONTINUOUS
 90
4
 70
0
 10
168.3137276668
 20
-200.7435588076
 10
168.2451906633
 20
-200.7703994604
 10
168.1741821987
 20
-200.7869043539
 10
168.1274562743
 20
-200.7905298324
  0
LINE
  5
509
100
AcDbEntity
  8
0
100
AcDbLine
 62
7
  6
CONTINUOUS
 10
170.1526301292
 20
204.3072294888
 11
169.4026301292
 21
205.1072294888
  0
ARC
  5
50A
100
AcDbEntity
  8
RACCORDO
100
AcDbCircle
 62
7
  6
CONTINUOUS
 10
-197.7973698708
 20
-195.7927705112
 40
1.5
100
AcDbArc
 50
180.0
 51
270.0
  0
ARC
  5
50B
100
AcDbEntity
  8
0
100
AcDbCircle
 62
7
  6
CONTINUOUS
 10
-197.7973698708
 20
-177.4927705112
 40
1.5
100
AcDbArc
 50
109.4763631234
 51
172.3227874694
  0
ARC
  5
50C
100
AcDbEntity
  8
0
100
AcDbCircle
 62
7
  6
CONTINUOUS
 10
-178.0473698708
 20
-195.7927705112
 40
1.5
100
AcDbArc
 50
270.0
 51
340.5236368766
  0
CIRCLE
  5
50D
100
AcDbEntity
  8
ASSI
100
AcDbCircle
 62
7
  6
CONTINUOUS
 10
-161.7973698708
 20
-147.2927705112
 40
1.25
  0
CIRCLE
  5
50E
100
AcDbEntity
  8
ASSI
100
AcDbCircle
 62
7
  6
CONTINUOUS
 10
-189.0223698708
 20
-138.6852705112
 40
1.25
  0
CIRCLE
  5
50F
100
AcDbEntity
  8
SMUSSO
100
AcDbCircle
 62
7
  6
CONTINUOUS
 10
-189.0223698708
 20
-138.6852705112
 40
1.0
  0
CIRCLE
  5
510
100
AcDbEntity
  8
SMUSSO
100
AcDbCircle
 62
7
  6
CONTINUOUS
 10
-189.0223698708
 20
-138.6852705112
 40
0.75
  0
ARC
  5
511
100
AcDbEntity
  8
RACCORDO
100
AcDbCircle
 62
7
  6
CONTINUOUS
 10
-182.6723698708
 20
-159.7927705112
 40
0.75
100
AcDbArc
 50
180.0
 51
360.0
  0
ARC
  5
512
100
AcDbEntity
  8
RACCORDO
100
AcDbCircle
 62
7
  6
CONTINUOUS
 10
-182.6723698708
 20
-133.2927705112
 40
0.75
100
AcDbArc
 50
0.0
 51
180.0
  0
ARC
  5
513
100
AcDbEntity
  8
RACCORDO
100
AcDbCircle
 62
7
  6
CONTINUOUS
 10
-161.7973698708
 20
-180.6677705112
 40
0.75
100
AcDbArc
 50
90.0
 51
270.0
  0
CIRCLE
  5
514
100
AcDbEntity
  8
0
100
AcDbCircle
 62
7
  6
CONTINUOUS
 10
-140.6898698708
 20
-187.0177705112
 40
11.25
  0
ARC
  5
515
100
AcDbEntity
  8
ASSI
100
AcDbCircle
 62
7
  6
CONTINUOUS
 10
-116.4223698708
 20
-47.7677705112
 40
1.75
100
AcDbArc
 50
223.3094688668
 51
270.0
  0
ARC
  5
516
100
AcDbEntity
  8
ASSI
100
AcDbCircle
 62
7
  6
CONTINUOUS
 10
-114.6723698708
 20
-47.7677705112
 40
1.75
100
AcDbArc
 50
270.0
 51
316.6905311332
  0
CIRCLE
  5
517
100
AcDbEntity
  8
0
100
AcDbCircle
 62
7
  6
CONTINUOUS
 10
-115.5473698708
 20
-43.0927705112
 40
1.725
  0
CIRCLE
  5
518
100
AcDbEntity
  8
0
100
AcDbCircle
 62
7
  6
CONTINUOUS
 10
-115.5473698708
 20
-43.0927705112
 40
1.5
  0
CIRCLE
  5
519
100
AcDbEntity
  8
0
100
AcDbCircle
 62
7
  6
CONTINUOUS
 10
-115.5473698708
 20
-43.0927705112
 40
1.25
  0
ARC
  5
51A
100
AcDbEntity
  8
0
100
AcDbCircle
 62
7
  6
CONTINUOUS
 10
-115.5473698708
 20
-43.0927705112
 40
1.125
100
AcDbArc
 50
255.0
 51
195.0
  0
ARC
  5
51B
100
AcDbEntity
  8
RACCORDO
100
AcDbCircle
 62
7
  6
CONTINUOUS
 10
-118.5473698708
 20
-42.0802705112
 40
0.4
100
AcDbArc
 50
289.4509645777
 51
70.5490354223
  0
ARC
  5
51C
100
AcDbEntity
  8
RACCORDO
100
AcDbCircle
 62
7
  6
CONTINUOUS
 10
-118.5473698708
 20
-44.1052705112
 40
0.4
100
AcDbArc
 50
289.4509645777
 51
70.5490354223
  0
ARC
  5
51D
100
AcDbEntity
  8
ASSI
100
AcDbCircle
 62
7
  6
CONTINUOUS
 10
-116.4223698708
 20
-9.6677705112
 40
1.75
100
AcDbArc
 50
90.0
 51
136.6905311332
  0
ARC
  5
51E
100
AcDbEntity
  8
ASSI
100
AcDbCircle
 62
7
  6
CONTINUOUS
 10
-114.6723698708
 20
-9.6677705112
 40
1.75
100
AcDbArc
 50
43.3094688668
 51
90.0
  0
CIRCLE
  5
51F
100
AcDbEntity
  8
0
100
AcDbCircle
 62
7
  6
CONTINUOUS
 10
-115.5473698708
 20
-14.3427705112
 40
1.725
  0
CIRCLE
  5
520
100
AcDbEntity
  8
0
100
AcDbCircle
 62
7
  6
CONTINUOUS
 10
-115.5473698708
 20
-14.3427705112
 40
1.5
  0
CIRCLE
  5
521
100
AcDbEntity
  8
0
100
AcDbCircle
 62
7
  6
CONTINUOUS
 10
-115.5473698708
 20
-14.3427705112
 40
1.25
  0
ARC
  5
522
100
AcDbEntity
  8
0
100
AcDbCircle
 62
7
  6
CONTINUOUS
 10
-115.5473698708
 20
-14.3427705112
 40
1.125
100
AcDbArc
 50
255.0
 51
195.0
  0
ARC
  5
523
100
AcDbEntity
  8
RACCORDO
100
AcDbCircle
 62
7
  6
CONTINUOUS
 10
-118.5473698708
 20
-13.3302705112
 40
0.4
100
AcDbArc
 50
289.4509645777
 51
70.5490354223
  0
ARC
  5
524
100
AcDbEntity
  8
RACCORDO
100
AcDbCircle
 62
7
  6
CONTINUOUS
 10
-118.5473698708
 20
-15.3552705112
 40
0.4
100
AcDbArc
 50
289.4509645777
 51
70.5490354223
  0
ARC
  5
525
100
AcDbEntity
  8
RACCORDO
100
AcDbCircle
 62
7
  6
CONTINUOUS
 10
-112.5473698708
 20
-42.0802705112
 40
0.4
100
AcDbArc
 50
109.4509645777
 51
250.5490354223
  0
ARC
  5
526
100
AcDbEntity
  8
RACCORDO
100
AcDbCircle
 62
7
  6
CONTINUOUS
 10
-112.5473698708
 20
-44.1052705112
 40
0.4
100
AcDbArc
 50
109.4509645777
 51
250.5490354223
  0
ARC
  5
527
100
AcDbEntity
  8
RACCORDO
100
AcDbCircle
 62
7
  6
CONTINUOUS
 10
-110.5473698708
 20
-62.4677705112
 40
0.25
100
AcDbArc
 50
270.0
 51
360.0
  0
ARC
  5
528
100
AcDbEntity
  8
RACCORDO
100
AcDbCircle
 62
7
  6
CONTINUOUS
 10
-110.0473698708
 20
-61.9677705112
 40
0.25
100
AcDbArc
 50
90.0
 51
180.0
  0
ARC
  5
529
100
AcDbEntity
  8
RACCORDO
100
AcDbCircle
 62
7
  6
CONTINUOUS
 10
-110.5473698708
 20
-61.4677705112
 40
0.25
100
AcDbArc
 50
270.0
 51
360.0
  0
ARC
  5
52A
100
AcDbEntity
  8
RACCORDO
100
AcDbCircle
 62
7
  6
CONTINUOUS
 10
-110.0473698708
 20
-60.9677705112
 40
0.25
100
AcDbArc
 50
90.0
 51
180.0
  0
ARC
  5
52B
100
AcDbEntity
  8
RACCORDO
100
AcDbCircle
 62
7
  6
CONTINUOUS
 10
-109.4973698708
 20
-61.9177705112
 40
0.2
100
AcDbArc
 50
0.0
 51
90.0
  0
ARC
  5
52C
100
AcDbEntity
  8
RACCORDO
100
AcDbCircle
 62
7
  6
CONTINUOUS
 10
-109.4973698708
 20
-60.9177705112
 40
0.2
100
AcDbArc
 50
0.0
 51
90.0
  0
ARC
  5
52D
100
AcDbEntity
  8
RACCORDO
100
AcDbCircle
 62
7
  6
CONTINUOUS
 10
-112.5473698708
 20
-13.3302705112
 40
0.4
100
AcDbArc
 50
109.4509645777
 51
250.5490354223
  0
ARC
  5
52E
100
AcDbEntity
  8
RACCORDO
100
AcDbCircle
 62
7
  6
CONTINUOUS
 10
-112.5473698708
 20
-15.3552705112
 40
0.4
100
AcDbArc
 50
109.4509645777
 51
250.5490354223
  0
CIRCLE
  5
52F
100
AcDbEntity
  8
0
100
AcDbCircle
 62
7
  6
CONTINUOUS
 10
-140.6898698708
 20
192.4322294888
 40
11.25
  0
ARC
  5
530
100
AcDbEntity
  8
RACCORDO
100
AcDbCircle
 62
7
  6
CONTINUOUS
 10
-197.7973698708
 20
201.2072294888
 40
1.5
100
AcDbArc
 50
90.0
 51
180.0
  0
ARC
  5
531
100
AcDbEntity
  8
0
100
AcDbCircle
 62
7
  6
CONTINUOUS
 10
-179.4973698708
 20
201.2072294888
 40
1.5
100
AcDbArc
 50
19.4763631234
 51
82.3227874694
  0
ARC
  5
532
100
AcDbEntity
  8
0
100
AcDbCircle
 62
7
  6
CONTINUOUS
 10
-197.7973698708
 20
181.4572294888
 40
1.5
100
AcDbArc
 50
180.0
 51
225.0
  0
CIRCLE
  5
533
100
AcDbEntity
  8
ASSI
100
AcDbCircle
 62
7
  6
CONTINUOUS
 10
-161.7973698708
 20
152.7072294888
 40
1.25
  0
CIRCLE
  5
534
100
AcDbEntity
  8
ASSI
100
AcDbCircle
 62
7
  6
CONTINUOUS
 10
-189.0223698708
 20
144.0997294888
 40
1.25
  0
CIRCLE
  5
535
100
AcDbEntity
  8
SMUSSO
100
AcDbCircle
 62
7
  6
CONTINUOUS
 10
-189.0223698708
 20
144.0997294888
 40
1.0
  0
CIRCLE
  5
536
100
AcDbEntity
  8
SMUSSO
100
AcDbCircle
 62
7
  6
CONTINUOUS
 10
-189.0223698708
 20
144.0997294888
 40
0.75
  0
ARC
  5
537
100
AcDbEntity
  8
RACCORDO
100
AcDbCircle
 62
7
  6
CONTINUOUS
 10
-161.7973698708
 20
186.0822294888
 40
0.75
100
AcDbArc
 50
90.0
 51
270.0
  0
ARC
  5
538
100
AcDbEntity
  8
RACCORDO
100
AcDbCircle
 62
7
  6
CONTINUOUS
 10
-182.6723698708
 20
165.2072294888
 40
0.75
100
AcDbArc
 50
0.0
 51
180.0
  0
ARC
  5
539
100
AcDbEntity
  8
RACCORDO
100
AcDbCircle
 62
7
  6
CONTINUOUS
 10
-182.6723698708
 20
138.7072294888
 40
0.75
100
AcDbArc
 50
180.0
 51
360.0
  0
ARC
  5
53A
100
AcDbEntity
  8
ASSI
100
AcDbCircle
 62
7
  6
CONTINUOUS
 10
-116.4223698708
 20
19.1072294888
 40
1.75
100
AcDbArc
 50
223.3094688668
 51
270.0
  0
ARC
  5
53B
100
AcDbEntity
  8
ASSI
100
AcDbCircle
 62
7
  6
CONTINUOUS
 10
-114.6723698708
 20
19.1072294888
 40
1.75
100
AcDbArc
 50
270.0
 51
316.6905311332
  0
CIRCLE
  5
53C
100
AcDbEntity
  8
0
100
AcDbCircle
 62
7
  6
CONTINUOUS
 10
-115.5473698708
 20
23.7822294888
 40
1.725
  0
CIRCLE
  5
53D
100
AcDbEntity
  8
0
100
AcDbCircle
 62
7
  6
CONTINUOUS
 10
-115.5473698708
 20
23.7822294888
 40
1.5
  0
CIRCLE
  5
53E
100
AcDbEntity
  8
0
100
AcDbCircle
 62
7
  6
CONTINUOUS
 10
-115.5473698708
 20
23.7822294888
 40
1.25
  0
ARC
  5
53F
100
AcDbEntity
  8
0
100
AcDbCircle
 62
7
  6
CONTINUOUS
 10
-115.5473698708
 20
23.7822294888
 40
1.125
100
AcDbArc
 50
255.0
 51
195.0
  0
ARC
  5
540
100
AcDbEntity
  8
RACCORDO
100
AcDbCircle
 62
7
  6
CONTINUOUS
 10
-118.5473698708
 20
24.7947294888
 40
0.4
100
AcDbArc
 50
289.4509645777
 51
70.5490354223
  0
ARC
  5
541
100
AcDbEntity
  8
RACCORDO
100
AcDbCircle
 62
7
  6
CONTINUOUS
 10
-118.5473698708
 20
22.7697294888
 40
0.4
100
AcDbArc
 50
289.4509645777
 51
70.5490354223
  0
ARC
  5
542
100
AcDbEntity
  8
ASSI
100
AcDbCircle
 62
7
  6
CONTINUOUS
 10
-116.4223698708
 20
57.2072294888
 40
1.75
100
AcDbArc
 50
90.0
 51
136.6905311332
  0
ARC
  5
543
100
AcDbEntity
  8
ASSI
100
AcDbCircle
 62
7
  6
CONTINUOUS
 10
-114.6723698708
 20
57.2072294888
 40
1.75
100
AcDbArc
 50
43.3094688668
 51
90.0
  0
CIRCLE
  5
544
100
AcDbEntity
  8
0
100
AcDbCircle
 62
7
  6
CONTINUOUS
 10
-115.5473698708
 20
52.5322294888
 40
1.725
  0
CIRCLE
  5
545
100
AcDbEntity
  8
0
100
AcDbCircle
 62
7
  6
CONTINUOUS
 10
-115.5473698708
 20
52.5322294888
 40
1.5
  0
CIRCLE
  5
546
100
AcDbEntity
  8
0
100
AcDbCircle
 62
7
  6
CONTINUOUS
 10
-115.5473698708
 20
52.5322294888
 40
1.25
  0
ARC
  5
547
100
AcDbEntity
  8
0
100
AcDbCircle
 62
7
  6
CONTINUOUS
 10
-115.5473698708
 20
52.5322294888
 40
1.125
100
AcDbArc
 50
255.0
 51
195.0
  0
ARC
  5
548
100
AcDbEntity
  8
RACCORDO
100
AcDbCircle
 62
7
  6
CONTINUOUS
 10
-118.5473698708
 20
53.5447294888
 40
0.4
100
AcDbArc
 50
289.4509645777
 51
70.5490354223
  0
ARC
  5
549
100
AcDbEntity
  8
RACCORDO
100
AcDbCircle
 62
7
  6
CONTINUOUS
 10
-118.5473698708
 20
51.5197294888
 40
0.4
100
AcDbArc
 50
289.4509645777
 51
70.5490354223
  0
ARC
  5
54A
100
AcDbEntity
  8
RACCORDO
100
AcDbCircle
 62
7
  6
CONTINUOUS
 10
-112.5473698708
 20
24.7947294888
 40
0.4
100
AcDbArc
 50
109.4509645777
 51
250.5490354223
  0
ARC
  5
54B
100
AcDbEntity
  8
RACCORDO
100
AcDbCircle
 62
7
  6
CONTINUOUS
 10
-112.5473698708
 20
22.7697294888
 40
0.4
100
AcDbArc
 50
109.4509645777
 51
250.5490354223
  0
ARC
  5
54C
100
AcDbEntity
  8
RACCORDO
100
AcDbCircle
 62
7
  6
CONTINUOUS
 10
-110.5473698708
 20
4.4072294888
 40
0.25
100
AcDbArc
 50
311.2311392294
 51
360.0
  0
ARC
  5
54D
100
AcDbEntity
  8
RACCORDO
100
AcDbCircle
 62
7
  6
CONTINUOUS
 10
-110.0473698708
 20
4.9072294888
 40
0.25
100
AcDbArc
 50
90.0
 51
180.0
  0
ARC
  5
54E
100
AcDbEntity
  8
RACCORDO
100
AcDbCircle
 62
7
  6
CONTINUOUS
 10
-110.5473698708
 20
5.4072294888
 40
0.25
100
AcDbArc
 50
270.0
 51
360.0
  0
ARC
  5
54F
100
AcDbEntity
  8
RACCORDO
100
AcDbCircle
 62
7
  6
CONTINUOUS
 10
-110.0473698708
 20
5.9072294888
 40
0.25
100
AcDbArc
 50
90.0
 51
180.0
  0
ARC
  5
550
100
AcDbEntity
  8
RACCORDO
100
AcDbCircle
 62
7
  6
CONTINUOUS
 10
-110.5473698708
 20
4.0322294888
 40
0.25
100
AcDbArc
 50
0.0
 51
90.0
  0
ARC
  5
551
100
AcDbEntity
  8
RACCORDO
100
AcDbCircle
 62
7
  6
CONTINUOUS
 10
-110.0473698708
 20
3.5322294888
 40
0.25
100
AcDbArc
 50
180.0
 51
270.0
  0
ARC
  5
552
100
AcDbEntity
  8
RACCORDO
100
AcDbCircle
 62
7
  6
CONTINUOUS
 10
-109.4973698708
 20
4.9572294888
 40
0.2
100
AcDbArc
 50
0.0
 51
90.0
  0
ARC
  5
553
100
AcDbEntity
  8
RACCORDO
100
AcDbCircle
 62
7
  6
CONTINUOUS
 10
-109.4973698708
 20
5.9572294888
 40
0.2
100
AcDbArc
 50
0.0
 51
90.0
  0
ARC
  5
554
100
AcDbEntity
  8
RACCORDO
100
AcDbCircle
 62
7
  6
CONTINUOUS
 10
-109.4973698708
 20
3.4822294888
 40
0.2
100
AcDbArc
 50
270.0
 51
360.0
  0
ARC
  5
555
100
AcDbEntity
  8
RACCORDO
100
AcDbCircle
 62
7
  6
CONTINUOUS
 10
-112.5473698708
 20
53.5447294888
 40
0.4
100
AcDbArc
 50
109.4509645777
 51
250.5490354223
  0
ARC
  5
556
100
AcDbEntity
  8
RACCORDO
100
AcDbCircle
 62
7
  6
CONTINUOUS
 10
-112.5473698708
 20
51.5197294888
 40
0.4
100
AcDbArc
 50
109.4509645777
 51
250.5490354223
  0
ARC
  5
557
100
AcDbEntity
  8
RACCORDO
100
AcDbCircle
 62
7
  6
CONTINUOUS
 10
-110.0473698708
 20
70.4072294888
 40
0.25
100
AcDbArc
 50
180.0
 51
270.0
  0
ARC
  5
558
100
AcDbEntity
  8
RACCORDO
100
AcDbCircle
 62
7
  6
CONTINUOUS
 10
-109.4973698708
 20
70.3572294888
 40
0.2
100
AcDbArc
 50
270.0
 51
360.0
  0
CIRCLE
  5
559
100
AcDbEntity
  8
0
100
AcDbCircle
 62
7
  6
CONTINUOUS
 10
-78.0473698708
 20
146.8572294888
 40
1.25
  0
ARC
  5
55A
100
AcDbEntity
  8
0
100
AcDbCircle
 62
7
  6
CONTINUOUS
 10
-78.0473698708
 20
146.8572294888
 40
1.125
100
AcDbArc
 50
255.0
 51
195.0
  0
CIRCLE
  5
55B
100
AcDbEntity
  8
0
100
AcDbCircle
 62
7
  6
CONTINUOUS
 10
142.0951301292
 20
-187.0177705112
 40
11.25
  0
ARC
  5
55C
100
AcDbEntity
  8
RACCORDO
100
AcDbCircle
 62
7
  6
CONTINUOUS
 10
153.7776301292
 20
-198.1879813945
 40
0.25
100
AcDbArc
 50
179.9502596878
 51
225.5323536877
  0
ARC
  5
55D
100
AcDbEntity
  8
RACCORDO
100
AcDbCircle
 62
7
  6
CONTINUOUS
 10
113.9526301292
 20
-42.0802705112
 40
0.4
100
AcDbArc
 50
289.4509645777
 51
70.5490354223
  0
ARC
  5
55E
100
AcDbEntity
  8
RACCORDO
100
AcDbCircle
 62
7
  6
CONTINUOUS
 10
113.9526301292
 20
-44.1052705112
 40
0.4
100
AcDbArc
 50
289.4509645777
 51
70.5490354223
  0
ARC
  5
55F
100
AcDbEntity
  8
RACCORDO
100
AcDbCircle
 62
7
  6
CONTINUOUS
 10
111.9526301292
 20
-62.4677705112
 40
0.25
100
AcDbArc
 50
180.0
 51
270.0
  0
ARC
  5
560
100
AcDbEntity
  8
RACCORDO
100
AcDbCircle
 62
7
  6
CONTINUOUS
 10
111.4526301292
 20
-61.9677705112
 40
0.25
100
AcDbArc
 50
0.0
 51
90.0
  0
ARC
  5
561
100
AcDbEntity
  8
RACCORDO
100
AcDbCircle
 62
7
  6
CONTINUOUS
 10
111.9526301292
 20
-61.4677705112
 40
0.25
100
AcDbArc
 50
180.0
 51
270.0
  0
ARC
  5
562
100
AcDbEntity
  8
RACCORDO
100
AcDbCircle
 62
7
  6
CONTINUOUS
 10
111.4526301292
 20
-60.9677705112
 40
0.25
100
AcDbArc
 50
0.0
 51
90.0
  0
ARC
  5
563
100
AcDbEntity
  8
RACCORDO
100
AcDbCircle
 62
7
  6
CONTINUOUS
 10
110.9026301292
 20
-61.9177705112
 40
0.2
100
AcDbArc
 50
90.0
 51
180.0
  0
ARC
  5
564
100
AcDbEntity
  8
RACCORDO
100
AcDbCircle
 62
7
  6
CONTINUOUS
 10
110.9026301292
 20
-60.9177705112
 40
0.2
100
AcDbArc
 50
90.0
 51
180.0
  0
ARC
  5
565
100
AcDbEntity
  8
RACCORDO
100
AcDbCircle
 62
7
  6
CONTINUOUS
 10
113.9526301292
 20
-13.3302705112
 40
0.4
100
AcDbArc
 50
289.4509645777
 51
70.5490354223
  0
ARC
  5
566
100
AcDbEntity
  8
RACCORDO
100
AcDbCircle
 62
7
  6
CONTINUOUS
 10
113.9526301292
 20
-15.3552705112
 40
0.4
100
AcDbArc
 50
289.4509645777
 51
70.5490354223
  0
ARC
  5
567
100
AcDbEntity
  8
ASSI
100
AcDbCircle
 62
7
  6
CONTINUOUS
 10
117.8276301292
 20
-47.7677705112
 40
1.75
100
AcDbArc
 50
270.0
 51
316.6905311332
  0
ARC
  5
568
100
AcDbEntity
  8
ASSI
100
AcDbCircle
 62
7
  6
CONTINUOUS
 10
116.0776301292
 20
-47.7677705112
 40
1.75
100
AcDbArc
 50
223.3094688668
 51
270.0
  0
CIRCLE
  5
569
100
AcDbEntity
  8
0
100
AcDbCircle
 62
7
  6
CONTINUOUS
 10
116.9526301292
 20
-43.0927705112
 40
1.725
  0
CIRCLE
  5
56A
100
AcDbEntity
  8
0
100
AcDbCircle
 62
7
  6
CONTINUOUS
 10
116.9526301292
 20
-43.0927705112
 40
1.5
  0
CIRCLE
  5
56B
100
AcDbEntity
  8
0
100
AcDbCircle
 62
7
  6
CONTINUOUS
 10
116.9526301292
 20
-43.0927705112
 40
1.25
  0
ARC
  5
56C
100
AcDbEntity
  8
0
100
AcDbCircle
 62
7
  6
CONTINUOUS
 10
116.9526301292
 20
-43.0927705112
 40
1.125
100
AcDbArc
 50
255.0
 51
195.0
  0
ARC
  5
56D
100
AcDbEntity
  8
RACCORDO
100
AcDbCircle
 62
7
  6
CONTINUOUS
 10
119.9526301292
 20
-42.0802705112
 40
0.4
100
AcDbArc
 50
109.4509645777
 51
250.5490354223
  0
ARC
  5
56E
100
AcDbEntity
  8
RACCORDO
100
AcDbCircle
 62
7
  6
CONTINUOUS
 10
119.9526301292
 20
-44.1052705112
 40
0.4
100
AcDbArc
 50
109.4509645777
 51
250.5490354223
  0
ARC
  5
56F
100
AcDbEntity
  8
ASSI
100
AcDbCircle
 62
7
  6
CONTINUOUS
 10
117.8276301292
 20
-9.6677705112
 40
1.75
100
AcDbArc
 50
43.3094688668
 51
90.0
  0
ARC
  5
570
100
AcDbEntity
  8
ASSI
100
AcDbCircle
 62
7
  6
CONTINUOUS
 10
116.0776301292
 20
-9.6677705112
 40
1.75
100
AcDbArc
 50
90.0
 51
136.6905311332
  0
CIRCLE
  5
571
100
AcDbEntity
  8
0
100
AcDbCircle
 62
7
  6
CONTINUOUS
 10
116.9526301292
 20
-14.3427705112
 40
1.725
  0
CIRCLE
  5
572
100
AcDbEntity
  8
0
100
AcDbCircle
 62
7
  6
CONTINUOUS
 10
116.9526301292
 20
-14.3427705112
 40
1.5
  0
CIRCLE
  5
573
100
AcDbEntity
  8
0
100
AcDbCircle
 62
7
  6
CONTINUOUS
 10
116.9526301292
 20
-14.3427705112
 40
1.25
  0
ARC
  5
574
100
AcDbEntity
  8
0
100
AcDbCircle
 62
7
  6
CONTINUOUS
 10
116.9526301292
 20
-14.3427705112
 40
1.125
100
AcDbArc
 50
255.0
 51
195.0
  0
ARC
  5
575
100
AcDbEntity
  8
RACCORDO
100
AcDbCircle
 62
7
  6
CONTINUOUS
 10
119.9526301292
 20
-13.3302705112
 40
0.4
100
AcDbArc
 50
109.4509645777
 51
250.5490354223
  0
ARC
  5
576
100
AcDbEntity
  8
RACCORDO
100
AcDbCircle
 62
7
  6
CONTINUOUS
 10
119.9526301292
 20
-15.3552705112
 40
0.4
100
AcDbArc
 50
109.4509645777
 51
250.5490354223
  0
ARC
  5
577
100
AcDbEntity
  8
RACCORDO
100
AcDbCircle
 62
7
  6
CONTINUOUS
 10
199.2026301292
 20
-195.7927705112
 40
1.5
100
AcDbArc
 50
270.0
 51
360.0
  0
ARC
  5
578
100
AcDbEntity
  8
0
100
AcDbCircle
 62
7
  6
CONTINUOUS
 10
180.9026301292
 20
-195.7927705112
 40
1.5
100
AcDbArc
 50
199.4763631234
 51
262.3227874694
  0
ARC
  5
579
100
AcDbEntity
  8
0
100
AcDbCircle
 62
7
  6
CONTINUOUS
 10
199.2026301292
 20
-176.0427705112
 40
1.5
100
AcDbArc
 50
0.0
 51
45.0
  0
CIRCLE
  5
57A
100
AcDbEntity
  8
ASSI
100
AcDbCircle
 62
7
  6
CONTINUOUS
 10
163.2026301292
 20
-147.2927705112
 40
1.25
  0
CIRCLE
  5
57B
100
AcDbEntity
  8
ASSI
100
AcDbCircle
 62
7
  6
CONTINUOUS
 10
190.4276301292
 20
-138.6852705112
 40
1.25
  0
CIRCLE
  5
57C
100
AcDbEntity
  8
SMUSSO
100
AcDbCircle
 62
7
  6
CONTINUOUS
 10
190.4276301292
 20
-138.6852705112
 40
1.0
  0
CIRCLE
  5
57D
100
AcDbEntity
  8
SMUSSO
100
AcDbCircle
 62
7
  6
CONTINUOUS
 10
190.4276301292
 20
-138.6852705112
 40
0.75
  0
ARC
  5
57E
100
AcDbEntity
  8
RACCORDO
100
AcDbCircle
 62
7
  6
CONTINUOUS
 10
184.0776301292
 20
-159.7927705112
 40
0.75
100
AcDbArc
 50
180.0
 51
360.0
  0
ARC
  5
57F
100
AcDbEntity
  8
RACCORDO
100
AcDbCircle
 62
7
  6
CONTINUOUS
 10
184.0776301292
 20
-133.2927705112
 40
0.75
100
AcDbArc
 50
0.0
 51
180.0
  0
ARC
  5
580
100
AcDbEntity
  8
RACCORDO
100
AcDbCircle
 62
7
  6
CONTINUOUS
 10
163.2026301292
 20
-180.6677705112
 40
0.75
100
AcDbArc
 50
270.0
 51
90.0
  0
ARC
  5
581
100
AcDbEntity
  8
RACCORDO
100
AcDbCircle
 62
7
  6
CONTINUOUS
 10
156.2951206782
 20
-200.2602610602
 40
0.532509451
100
AcDbArc
 50
225.5693110392
 51
269.9834286537
  0
ARC
  5
582
100
AcDbEntity
  8
RACCORDO
100
AcDbCircle
 62
7
  6
CONTINUOUS
 10
168.7601330889
 20
-200.2602675516
 40
0.5325026951
100
AcDbArc
 50
270.0104250575
 51
314.4319345548
  0
ARC
  5
583
100
AcDbEntity
  8
RACCORDO
100
AcDbCircle
 62
7
  6
CONTINUOUS
 10
171.2776301292
 20
-198.1877642105
 40
0.25
100
AcDbArc
 50
314.4325830101
 51
359.9997472184
  0
ARC
  5
584
100
AcDbEntity
  8
RACCORDO
100
AcDbCircle
 62
7
  6
CONTINUOUS
 10
113.9526301292
 20
24.7947294888
 40
0.4
100
AcDbArc
 50
289.4509645777
 51
70.5490354223
  0
ARC
  5
585
100
AcDbEntity
  8
RACCORDO
100
AcDbCircle
 62
7
  6
CONTINUOUS
 10
113.9526301292
 20
22.7697294888
 40
0.4
100
AcDbArc
 50
289.4509645777
 51
70.5490354223
  0
ARC
  5
586
100
AcDbEntity
  8
RACCORDO
100
AcDbCircle
 62
7
  6
CONTINUOUS
 10
111.9526301292
 20
4.4072294888
 40
0.25
100
AcDbArc
 50
180.0
 51
228.7860030431
  0
ARC
  5
587
100
AcDbEntity
  8
RACCORDO
100
AcDbCircle
 62
7
  6
CONTINUOUS
 10
111.4526301292
 20
4.9072294888
 40
0.25
100
AcDbArc
 50
0.0
 51
90.0
  0
ARC
  5
588
100
AcDbEntity
  8
RACCORDO
100
AcDbCircle
 62
7
  6
CONTINUOUS
 10
111.9526301292
 20
5.4072294888
 40
0.25
100
AcDbArc
 50
180.0
 51
270.0
  0
ARC
  5
589
100
AcDbEntity
  8
RACCORDO
100
AcDbCircle
 62
7
  6
CONTINUOUS
 10
111.4526301292
 20
5.9072294888
 40
0.25
100
AcDbArc
 50
0.0
 51
90.0
  0
ARC
  5
58A
100
AcDbEntity
  8
RACCORDO
100
AcDbCircle
 62
7
  6
CONTINUOUS
 10
111.9526301292
 20
4.0322294888
 40
0.25
100
AcDbArc
 50
90.0
 51
180.0
  0
ARC
  5
58B
100
AcDbEntity
  8
RACCORDO
100
AcDbCircle
 62
7
  6
CONTINUOUS
 10
111.4526301292
 20
3.5322294888
 40
0.25
100
AcDbArc
 50
270.0
 51
360.0
  0
ARC
  5
58C
100
AcDbEntity
  8
RACCORDO
100
AcDbCircle
 62
7
  6
CONTINUOUS
 10
110.9026301292
 20
4.9572294888
 40
0.2
100
AcDbArc
 50
90.0
 51
180.0
  0
ARC
  5
58D
100
AcDbEntity
  8
RACCORDO
100
AcDbCircle
 62
7
  6
CONTINUOUS
 10
110.9026301292
 20
5.9572294888
 40
0.2
100
AcDbArc
 50
90.0
 51
180.0
  0
ARC
  5
58E
100
AcDbEntity
  8
RACCORDO
100
AcDbCircle
 62
7
  6
CONTINUOUS
 10
110.9026301292
 20
3.4822294888
 40
0.2
100
AcDbArc
 50
180.0
 51
270.0
  0
ARC
  5
58F
100
AcDbEntity
  8
RACCORDO
100
AcDbCircle
 62
7
  6
CONTINUOUS
 10
113.9526301292
 20
53.5447294888
 40
0.4
100
AcDbArc
 50
289.4509645777
 51
70.5490354223
  0
ARC
  5
590
100
AcDbEntity
  8
RACCORDO
100
AcDbCircle
 62
7
  6
CONTINUOUS
 10
113.9526301292
 20
51.5197294888
 40
0.4
100
AcDbArc
 50
289.4509645778
 51
70.5490354223
  0
ARC
  5
591
100
AcDbEntity
  8
RACCORDO
100
AcDbCircle
 62
7
  6
CONTINUOUS
 10
111.4526301292
 20
70.4072294888
 40
0.25
100
AcDbArc
 50
270.0
 51
360.0
  0
ARC
  5
592
100
AcDbEntity
  8
RACCORDO
100
AcDbCircle
 62
7
  6
CONTINUOUS
 10
110.9026301292
 20
70.3572294888
 40
0.2
100
AcDbArc
 50
180.0
 51
270.0
  0
ARC
  5
593
100
AcDbEntity
  8
ASSI
100
AcDbCircle
 62
7
  6
CONTINUOUS
 10
117.8276301292
 20
19.1072294888
 40
1.75
100
AcDbArc
 50
270.0
 51
316.6905311332
  0
ARC
  5
594
100
AcDbEntity
  8
ASSI
100
AcDbCircle
 62
7
  6
CONTINUOUS
 10
116.0776301292
 20
19.1072294888
 40
1.75
100
AcDbArc
 50
223.3094688668
 51
270.0
  0
CIRCLE
  5
595
100
AcDbEntity
  8
0
100
AcDbCircle
 62
7
  6
CONTINUOUS
 10
116.9526301292
 20
23.7822294888
 40
1.725
  0
CIRCLE
  5
596
100
AcDbEntity
  8
0
100
AcDbCircle
 62
7
  6
CONTINUOUS
 10
116.9526301292
 20
23.7822294888
 40
1.5
  0
CIRCLE
  5
597
100
AcDbEntity
  8
0
100
AcDbCircle
 62
7
  6
CONTINUOUS
 10
116.9526301292
 20
23.7822294888
 40
1.25
  0
ARC
  5
598
100
AcDbEntity
  8
0
100
AcDbCircle
 62
7
  6
CONTINUOUS
 10
116.9526301292
 20
23.7822294888
 40
1.125
100
AcDbArc
 50
255.0
 51
195.0
  0
ARC
  5
599
100
AcDbEntity
  8
RACCORDO
100
AcDbCircle
 62
7
  6
CONTINUOUS
 10
119.9526301292
 20
24.7947294888
 40
0.4
100
AcDbArc
 50
109.4509645777
 51
250.5490354223
  0
ARC
  5
59A
100
AcDbEntity
  8
RACCORDO
100
AcDbCircle
 62
7
  6
CONTINUOUS
 10
119.9526301292
 20
22.7697294888
 40
0.4
100
AcDbArc
 50
109.4509645777
 51
250.5490354223
  0
ARC
  5
59B
100
AcDbEntity
  8
ASSI
100
AcDbCircle
 62
7
  6
CONTINUOUS
 10
117.8276301292
 20
57.2072294888
 40
1.75
100
AcDbArc
 50
43.3094688668
 51
90.0
  0
ARC
  5
59C
100
AcDbEntity
  8
ASSI
100
AcDbCircle
 62
7
  6
CONTINUOUS
 10
116.0776301292
 20
57.2072294888
 40
1.75
100
AcDbArc
 50
90.0
 51
136.6905311332
  0
CIRCLE
  5
59D
100
AcDbEntity
  8
0
100
AcDbCircle
 62
7
  6
CONTINUOUS
 10
116.9526301292
 20
52.5322294888
 40
1.725
  0
CIRCLE
  5
59E
100
AcDbEntity
  8
0
100
AcDbCircle
 62
7
  6
CONTINUOUS
 10
116.9526301292
 20
52.5322294888
 40
1.5
  0
CIRCLE
  5
59F
100
AcDbEntity
  8
0
100
AcDbCircle
 62
7
  6
CONTINUOUS
 10
116.9526301292
 20
52.5322294888
 40
1.25
  0
ARC
  5
5A0
100
AcDbEntity
  8
0
100
AcDbCircle
 62
7
  6
CONTINUOUS
 10
116.9526301292
 20
52.5322294888
 40
1.125
100
AcDbArc
 50
255.0
 51
195.0
  0
ARC
  5
5A1
100
AcDbEntity
  8
RACCORDO
100
AcDbCircle
 62
7
  6
CONTINUOUS
 10
119.9526301292
 20
53.5447294888
 40
0.4
100
AcDbArc
 50
109.4509645777
 51
250.5490354223
  0
ARC
  5
5A2
100
AcDbEntity
  8
RACCORDO
100
AcDbCircle
 62
7
  6
CONTINUOUS
 10
119.9526301292
 20
51.5197294888
 40
0.4
100
AcDbArc
 50
109.4509645777
 51
250.5490354223
  0
CIRCLE
  5
5A3
100
AcDbEntity
  8
0
100
AcDbCircle
 62
7
  6
CONTINUOUS
 10
79.4526301292
 20
146.8572294888
 40
1.25
  0
ARC
  5
5A4
100
AcDbEntity
  8
0
100
AcDbCircle
 62
7
  6
CONTINUOUS
 10
79.4526301292
 20
146.8572294888
 40
1.125
100
AcDbArc
 50
255.0
 51
195.0
  0
CIRCLE
  5
5A5
100
AcDbEntity
  8
0
100
AcDbCircle
 62
7
  6
CONTINUOUS
 10
142.0951301292
 20
192.4322294888
 40
11.25
  0
ARC
  5
5A6
100
AcDbEntity
  8
RACCORDO
100
AcDbCircle
 62
7
  6
CONTINUOUS
 10
199.2026301292
 20
201.2072294888
 40
1.5
100
AcDbArc
 50
0.0
 51
90.0
  0
ARC
  5
5A7
100
AcDbEntity
  8
0
100
AcDbCircle
 62
7
  6
CONTINUOUS
 10
199.2026301292
 20
182.9072294888
 40
1.5
100
AcDbArc
 50
289.4763631234
 51
352.3227874694
  0
ARC
  5
5A8
100
AcDbEntity
  8
0
100
AcDbCircle
 62
7
  6
CONTINUOUS
 10
179.4526301292
 20
201.2072294888
 40
1.5
100
AcDbArc
 50
90.0
 51
160.5236368766
  0
CIRCLE
  5
5A9
100
AcDbEntity
  8
ASSI
100
AcDbCircle
 62
7
  6
CONTINUOUS
 10
163.2026301292
 20
152.7072294888
 40
1.25
  0
CIRCLE
  5
5AA
100
AcDbEntity
  8
ASSI
100
AcDbCircle
 62
7
  6
CONTINUOUS
 10
190.4276301292
 20
144.0997294888
 40
1.25
  0
CIRCLE
  5
5AB
100
AcDbEntity
  8
SMUSSO
100
AcDbCircle
 62
7
  6
CONTINUOUS
 10
190.4276301292
 20
144.0997294888
 40
1.0
  0
CIRCLE
  5
5AC
100
AcDbEntity
  8
SMUSSO
100
AcDbCircle
 62
7
  6
CONTINUOUS
 10
190.4276301292
 20
144.0997294888
 40
0.75
  0
ARC
  5
5AD
100
AcDbEntity
  8
RACCORDO
100
AcDbCircle
 62
7
  6
CONTINUOUS
 10
184.0776301292
 20
165.2072294888
 40
0.75
100
AcDbArc
 50
0.0
 51
180.0
  0
ARC
  5
5AE
100
AcDbEntity
  8
RACCORDO
100
AcDbCircle
 62
7
  6
CONTINUOUS
 10
184.0776301292
 20
138.7072294888
 40
0.75
100
AcDbArc
 50
180.0
 51
360.0
  0
ARC
  5
5AF
100
AcDbEntity
  8
RACCORDO
100
AcDbCircle
 62
7
  6
CONTINUOUS
 10
163.2026301292
 20
186.0822294888
 40
0.75
100
AcDbArc
 50
270.0
 51
90.0
  0
ARC
  5
5B0
100
AcDbEntity
  8
0
100
AcDbCircle
 62
7
  6
CONTINUOUS
 10
159.5526301292
 20
202.6322294888
 40
0.425
100
AcDbArc
 50
90.0
 51
169.8247313415
  0
ARC
  5
5B1
100
AcDbEntity
  8
0
100
AcDbCircle
 62
7
  6
CONTINUOUS
 10
169.7526301292
 20
202.6322294888
 40
0.425
100
AcDbArc
 50
10.1752686585
 51
90.0
  0
ENDSEC
  0
SECTION
  2
OBJECTS
  0
DICTIONARY
  5
C
100
AcDbDictionary
280
0
281
1
  3
ACAD_GROUP
350
D
  3
ACAD_MLINESTYLE
350
17
  3
ACAD_LAYOUT
350
1A
  3
ACAD_PLOTSETTINGS
350
19
  3
ACAD_PLOTSTYLENAME
350
E
  0
DICTIONARY
  5
D
102
{ACAD_REACTORS
330
C
102
}
100
AcDbDictionary
280
0
281
1
  0
ACDBDICTIONARYWDFLT
  5
E
102
{ACAD_REACTORS
330
C
102
}
100
AcDbDictionary
281
1
  3
Normal
350
F
100
AcDbDictionaryWithDefault
340
F
  0
DICTIONARY
  5
17
102
{ACAD_REACTORS
330
C
102
}
100
AcDbDictionary
280
0
281
1
  3
Standard
350
18
  0
DICTIONARY
  5
19
102
{ACAD_REACTORS
330
C
102
}
100
AcDbDictionary
281
1
  0
DICTIONARY
  5
1A
102
{ACAD_REACTORS
330
C
102
}
100
AcDbDictionary
281
1
  3
Model
350
5B2
  3
Layout1
350
5B3
  0
ACDBPLACEHOLDER
  5
F
102
{ACAD_REACTORS
330
E
102
}
  0
MLINESTYLE
  5
18
102
{ACAD_REACTORS
330
17
102
}
100
AcDbMlineStyle
  2
STANDARD
 70
0
  3

 62
256
 51
90.0
 52
90.0
 71
2
 49
0.5
 62
256
  6
BYLAYER
 49
-0.5
 62
256
  6
BYLAYER
  0
LAYOUT
  5
5B2
102
{ACAD_REACTORS
330
1A
102
}
100
AcDbPlotSettings
  1

  2
none_device
  4
ISO_A4_(297.00_x_210.00_MM)
  6

 40
0.0
 41
0.0
 42
0.0
 43
0.0
 44
297.0
 45
210.0
 46
0.0
 47
0.0
 48
0.0
 49
0.0
140
0.0
141
0.0
142
1.0
143
1.0
 70
1024
 72
1
 73
0
 74
0
  7

 75
0
147
1.0
148
0.0
149
0.0
100
AcDbLayout
  1
Model
 70
0
 71
0
 10
0.0
 20
0.0
 11
297.0
 21
210.0
 12
0.0
 22
0.0
 32
0.0
 14
0.0
 24
0.0
 34
0.0
 15
0.0
 25
0.0
 35
0.0
146
0.0
 13
0.0
 23
0.0
 33
0.0
 16
1.0
 26
0.0
 36
0.0
 17
0.0
 27
1.0
 37
0.0
 76
0
330
213
345
0
346
0
  0
LAYOUT
  5
5B3
102
{ACAD_REACTORS
330
1A
102
}
100
AcDbPlotSettings
  1

  2
none_device
  4
ISO_A4_(297.00_x_210.00_MM)
  6

 40
0.0
 41
0.0
 42
0.0
 43
0.0
 44
297.0
 45
210.0
 46
0.0
 47
0.0
 48
0.0
 49
0.0
140
0.0
141
0.0
142
1.0
143
1.0
 70
0
 72
1
 73
0
 74
0
  7

 75
0
147
1.0
148
0.0
149
0.0
100
AcDbLayout
  1
Layout1
 70
0
 71
1
 10
0.0
 20
0.0
 11
297.0
 21
210.0
 12
0.0
 22
0.0
 32
0.0
 14
0.0
 24
0.0
 34
0.0
 15
0.0
 25
0.0
 35
0.0
146
0.0
 13
0.0
 23
0.0
 33
0.0
 16
1.0
 26
0.0
 36
0.0
 17
0.0
 27
1.0
 37
0.0
 76
0
330
214
345
0
346
0
  0
ENDSEC
  0
EOF
