  0
SECTION
  2
HEADER
  9
$ACADVER
  1
AC1021
  9
$DWGCODEPAGE
  3
ANSI_1252
  9
$EXTMAX
 10
297.0
 20
210.0
 30
0.0
  9
$EXTMIN
 10
0.0
 20
0.0
 30
0.0
  9
$LIMMIN
 10
0.0
 20
0.0
  9
$LIMMAX
 10
297.0
 20
210.0
  9
$VIEWCTR
 10
148.5
 20
105.0
  9
$VIEWSIZE
 40
210.0
  9
$CLAYER
  8
0
  9
$LTSCALE
 40
16.335
  9
$CELTYPE
  6
BYLAYER
  9
$DIMSCALE
 40
1.0
  9
$DIMASZ
 40
3.0
  9
$DIMEXO
 40
0.5
  9
$DIMDLI
 40
11.286
  9
$DIMEXE
 40
1.5
  9
$DIMCEN
 40
2.673
  9
$DIMLFAC
 40
1.0
  9
$DIMBLK
  1
_FILLED
  9
$DIMALT
 70
0
  9
$DIMALTF
 40
25.4
  9
$DIMTXT
 40
3.0
  9
$DIMTOL
 70
1
  9
$DIMLIM
 70
0
  9
$DIMTFAC
 40
1.0
  9
$DIMTP
 40
0.01
  9
$DIMTM
 40
0.01
  9
$DIMGAP
 40
0.625
  9
$DIMDSEP
 70
44
  9
$AUNITS
 70
0
  9
$PDMODE
 70
3
  9
$PDSIZE
 40
3.0
  9
$HANDSEED
  5
456
  9
$TILEMODE
 70
1
  9
$MEASUREMENT
 70
1
  9
$INSUNITS
 70
4
  0
ENDSEC
  0
SECTION
  2
CLASSES
  0
CLASS
  1
ACDBDICTIONARYWDFLT
  2
AcDbDictionaryWithDefault
  3
AutoCAD 2000
 90
0
 91
1
280
0
281
0
  0
CLASS
  1
ACDBPLACEHOLDER
  2
AcDbPlaceHolder
  3
AutoCAD 2000
 90
0
 91
1
280
0
281
0
  0
CLASS
  1
LAYOUT
  2
AcDbLayout
  3
AutoCAD 2000
 90
0
 91
0
280
0
281
0
  0
ENDSEC
  0
SECTION
  2
TABLES
  0
TABLE
  2
VPORT
  5
8
100
AcDbSymbolTable
 70
2
  0
VPORT
  5
1F4
100
AcDbSymbolTableRecord
100
AcDbViewportTableRecord
  2
*ACTIVE
 70
0
 10
0.0
 20
0.0
 11
1.0
 21
1.0
 12
148.5
 22
105.0
 13
0.0
 23
0.0
 14
1.0
 24
1.0
 15
0.0
 25
0.0
 16
0.0
 26
0.0
 36
1.0
 17
0.0
 27
0.0
 37
0.0
 40
210.0
 41
1.4142857143
 42
50.0
 43
0.0
 44
0.0
 50
0.0
 51
0.0
 71
0
 72
100
 73
1
 74
1
 75
0
 76
0
 77
0
 78
0
  0
ENDTAB
  0
TABLE
  2
LTYPE
  5
5
100
AcDbSymbolTable
 70
6
  0
LTYPE
  5
14
100
AcDbSymbolTableRecord
100
AcDbLinetypeTableRecord
  2
BYBLOCK
 70
0
  3

 72
65
 73
0
 40
0.0
  0
LTYPE
  5
15
100
AcDbSymbolTableRecord
100
AcDbLinetypeTableRecord
  2
BYLAYER
 70
0
  3

 72
65
 73
0
 40
0.0
  0
LTYPE
  5
16
100
AcDbSymbolTableRecord
100
AcDbLinetypeTableRecord
  2
CONTINUOUS
 70
64
  3
Solid line
 72
65
 73
0
 40
0.0
  0
LTYPE
  5
1F5
100
AcDbSymbolTableRecord
100
AcDbLinetypeTableRecord
  2
CENTER
 70
64
  3
____ _ ____ _ ____ _ ____ _ ____ _ ____ _ ____
 72
65
 73
4
 40
0.6
 49
0.375
 74
0
 49
-0.075
 74
0
 49
0.075
 74
0
 49
-0.075
 74
0
  0
LTYPE
  5
1F6
100
AcDbSymbolTableRecord
100
AcDbLinetypeTableRecord
  2
HIDDEN
 70
64
  3
- - - - - - - - - - - - - - - - - - - -
 72
65
 73
2
 40
0.2
 49
0.1
 74
0
 49
-0.1
 74
0
  0
LTYPE
  5
1F7
100
AcDbSymbolTableRecord
100
AcDbLinetypeTableRecord
  2
PHANTOM
 70
64
  3
_____ _ _ _____ _ _ _____ _ _ _____
 72
65
 73
6
 40
0.8
 49
0.45
 74
0
 49
-0.05
 74
0
 49
0.1
 74
0
 49
-0.05
 74
0
 49
0.1
 74
0
 49
-0.05
 74
0
  0
LTYPE
  5
1F8
100
AcDbSymbolTableRecord
100
AcDbLinetypeTableRecord
  2
DOT
 70
64
  3
. . . . . . . . . . . . . . . . . . . .
 72
65
 73
2
 40
0.2
 49
0.1
 74
0
 49
-0.1
 74
0
  0
LTYPE
  5
1F9
100
AcDbSymbolTableRecord
100
AcDbLinetypeTableRecord
  2
DASHED
 70
64
  3
- - - - - - - - - - - - - - - - - - - -
 72
65
 73
2
 40
0.2
 49
0.1
 74
0
 49
-0.1
 74
0
  0
ENDTAB
  0
TABLE
  2
LAYER
  5
2
100
AcDbSymbolTable
 70
36
  0
LAYER
  5
10
100
AcDbSymbolTableRecord
100
AcDbLayerTableRecord
  2
0
 70
0
 62
7
  6
CONTINUOUS
370
-3
390
F
  0
LAYER
  5
1FA
100
AcDbSymbolTableRecord
100
AcDbLayerTableRecord
  2
DEFAULT_1
 70
0
 62
7
  6
CENTER
370
-3
390
F
  0
LAYER
  5
1FB
100
AcDbSymbolTableRecord
100
AcDbLayerTableRecord
  2
DEFAULT_2
 70
0
 62
7
  6
HIDDEN
370
-3
390
F
  0
LAYER
  5
1FC
100
AcDbSymbolTableRecord
100
AcDbLayerTableRecord
  2
DEFAULT_3
 70
0
 62
7
  6
PHANTOM
370
-3
390
F
  0
LAYER
  5
1FD
100
AcDbSymbolTableRecord
100
AcDbLayerTableRecord
  2
ASSI
 70
0
 62
7
  6
CONTINUOUS
370
-3
390
F
  0
LAYER
  5
1FE
100
AcDbSymbolTableRecord
100
AcDbLayerTableRecord
  2
COORDINATE
 70
0
 62
7
  6
CONTINUOUS
370
-3
390
F
  0
LAYER
  5
1FF
100
AcDbSymbolTableRecord
100
AcDbLayerTableRecord
  2
COORD_ORIGINE
 70
0
 62
7
  6
CONTINUOUS
370
-3
390
F
  0
LAYER
  5
200
100
AcDbSymbolTableRecord
100
AcDbLayerTableRecord
  2
COSMETICI
 70
0
 62
7
  6
CONTINUOUS
370
-3
390
F
  0
LAYER
  5
201
100
AcDbSymbolTableRecord
100
AcDbLayerTableRecord
  2
CURVE
 70
0
 62
7
  6
CONTINUOUS
370
-3
390
F
  0
LAYER
  5
202
100
AcDbSymbolTableRecord
100
AcDbLayerTableRecord
  2
NOTE
 70
0
 62
7
  6
CONTINUOUS
370
-3
390
F
  0
LAYER
  5
203
100
AcDbSymbolTableRecord
100
AcDbLayerTableRecord
  2
PIANI
 70
0
 62
7
  6
CONTINUOUS
370
-3
390
F
  0
LAYER
  5
204
100
AcDbSymbolTableRecord
100
AcDbLayerTableRecord
  2
PIANI_ORIGINE
 70
0
 62
7
  6
CONTINUOUS
370
-3
390
F
  0
LAYER
  5
205
100
AcDbSymbolTableRecord
100
AcDbLayerTableRecord
  2
PUNTI
 70
0
 62
7
  6
CONTINUOUS
370
-3
390
F
  0
LAYER
  5
206
100
AcDbSymbolTableRecord
100
AcDbLayerTableRecord
  2
RACCORDO
 70
0
 62
7
  6
CONTINUOUS
370
-3
390
F
  0
LAYER
  5
207
100
AcDbSymbolTableRecord
100
AcDbLayerTableRecord
  2
SIMBOLI
 70
0
 62
7
  6
CONTINUOUS
370
-3
390
F
  0
LAYER
  5
208
100
AcDbSymbolTableRecord
100
AcDbLayerTableRecord
  2
SNAPLINE
 70
0
 62
7
  6
CONTINUOUS
370
-3
390
F
  0
LAYER
  5
209
100
AcDbSymbolTableRecord
100
AcDbLayerTableRecord
  2
SUPERFICI
 70
0
 62
7
  6
CONTINUOUS
370
-3
390
F
  0
LAYER
  5
20A
100
AcDbSymbolTableRecord
100
AcDbLayerTableRecord
  2
TRASH
 70
0
 62
7
  6
CONTINUOUS
370
-3
390
F
  0
ENDTAB
  0
TABLE
  2
STYLE
  5
3
100
AcDbSymbolTable
 70
1
  0
STYLE
  5
11
100
AcDbSymbolTableRecord
100
AcDbTextStyleTableRecord
  2
STANDARD
 70
0
 40
0.0
 41
0.8
 50
0.0
 71
0
 42
0.2
  3
txt
  4

  0
STYLE
  5
20B
100
AcDbSymbolTableRecord
100
AcDbTextStyleTableRecord
  2
TEXTSTYLE_1
 70
0
 40
0.0
 41
0.8
 50
0.0
 71
0
 42
0.2
  3
gdt
  4

  0
ENDTAB
  0
TABLE
  2
VIEW
  5
6
100
AcDbSymbolTable
 70
0
  0
ENDTAB
  0
TABLE
  2
UCS
  5
7
100
AcDbSymbolTable
 70
0
  0
ENDTAB
  0
TABLE
  2
APPID
  5
9
100
AcDbSymbolTable
 70
1
  0
APPID
  5
20C
100
AcDbSymbolTableRecord
100
AcDbRegAppTableRecord
  2
ACAD
 70
0
  0
ENDTAB
  0
TABLE
  2
BLOCK_RECORD
  5
1
100
AcDbSymbolTable
 70
0
  0
BLOCK_RECORD
  5
20D
100
AcDbSymbolTableRecord
100
AcDbBlockTableRecord
  2
*Model_Space
  0
BLOCK_RECORD
  5
20E
100
AcDbSymbolTableRecord
100
AcDbBlockTableRecord
  2
*Paper_Space
  0
ENDTAB
  0
TABLE
  2
DIMSTYLE
  5
A
100
AcDbSymbolTable
 70
1
100
AcDbDimStyleTable
 71
0
  0
DIMSTYLE
105
20F
100
AcDbSymbolTableRecord
100
AcDbDimStyleTableRecord
  2
STANDARD
 70
0
  3

  4

 40
1.0
 41
3.0
 42
0.5
 43
0.38
 44
1.5
 45
0.0
 46
0.0
 47
0.01
 48
0.01
140
3.0
141
0.09
142
0.0
143
25.4
144
1.0
145
0.0
146
1.0
147
0.625
 71
1.0
 72
0.0
 73
0
 74
0
 75
0
 76
0
 77
1
 78
8
170
0
171
1
172
0
173
0
174
0
175
0
176
0
177
0
178
0
270
2
271
2
272
2
273
2
274
2
275
0
280
0
281
0
282
0
283
1
284
8
285
0
286
0
287
3
288
0
340
11
278
44
  0
ENDTAB
  0
ENDSEC
  0
SECTION
  2
BLOCKS
  0
BLOCK
  5
20
100
AcDbEntity
  8
0
100
AcDbBlockBegin
  2
*Model_Space
 70
0
 10
0.0
 20
0.0
 30
0.0
  3
*Model_Space
  1

  0
ENDBLK
  5
21
100
AcDbEntity
  8
0
100
AcDbBlockEnd
  0
BLOCK
  5
1C
100
AcDbEntity
  8
0
100
AcDbBlockBegin
  2
*Paper_Space
 70
0
 10
0.0
 20
0.0
 30
0.0
  3
*Paper_Space
  1

  0
ENDBLK
  5
1D
100
AcDbEntity
  8
0
100
AcDbBlockEnd
  0
ENDSEC
  0
SECTION
  2
ENTITIES
  0
LINE
  5
210
100
AcDbEntity
  8
RACCORDO
100
AcDbLine
 62
7
  6
CONTINUOUS
 10
-402.8404142806
 20
-5.5129943244
 11
-402.8389251515
 21
-5.527548855
  0
LINE
  5
211
100
AcDbEntity
  8
RACCORDO
100
AcDbLine
 62
7
  6
CONTINUOUS
 10
-402.8415178487
 20
-5.5002224785
 11
-402.8403151378
 21
-5.5140434153
  0
LINE
  5
212
100
AcDbEntity
  8
RACCORDO
100
AcDbLine
 62
7
  6
CONTINUOUS
 10
-402.8423715048
 20
-5.4881294482
 11
-402.8414466633
 21
-5.5011211418
  0
LINE
  5
213
100
AcDbEntity
  8
RACCORDO
100
AcDbLine
 62
7
  6
CONTINUOUS
 10
-402.5128240591
 20
-5.1176871712
 11
-402.5120926545
 21
-5.1312295685
  0
LINE
  5
214
100
AcDbEntity
  8
RACCORDO
100
AcDbLine
 62
7
  6
CONTINUOUS
 10
-402.8429808974
 20
-5.4767883336
 11
-402.8423241637
 21
-5.4888847548
  0
LINE
  5
215
100
AcDbEntity
  8
RACCORDO
100
AcDbLine
 62
7
  6
CONTINUOUS
 10
-402.5147942796
 20
-5.0776004498
 11
-402.5126972649
 21
-5.1200795805
  0
LINE
  5
216
100
AcDbEntity
  8
RACCORDO
100
AcDbLine
 62
7
  6
CONTINUOUS
 10
-402.5120879562
 20
-5.131229309
 11
-402.5114788704
 21
-5.1445888657
  0
LINE
  5
217
100
AcDbEntity
  8
RACCORDO
100
AcDbLine
 62
7
  6
CONTINUOUS
 10
-402.5164740117
 20
-5.0375006359
 11
-402.5146848373
 21
-5.0799934311
  0
LINE
  5
218
100
AcDbEntity
  8
RACCORDO
100
AcDbLine
 62
253
  6
CONTINUOUS
 10
-402.505391984
 20
-5.1308595962
 11
-402.5043291511
 21
-5.1569590542
  0
LINE
  5
219
100
AcDbEntity
  8
RACCORDO
100
AcDbLine
 62
7
  6
CONTINUOUS
 10
-402.5178631508
 20
-4.9973900897
 11
-402.5163819161
 21
-5.0398941944
  0
LWPOLYLINE
  5
21A
100
AcDbEntity
  8
RACCORDO
100
AcDbPolyline
 62
253
  6
CONTINUOUS
 90
13
 70
0
 10
-402.8372113953
 20
-5.4360047147
 10
-402.8376725751
 20
-5.4220747804
 10
-402.8362066411
 20
-5.4082155531
 10
-402.8328420703
 20
-5.3946962611
 10
-402.8276442228
 20
-5.3817795289
 10
-402.8207140714
 20
-5.3697162761
 10
-402.8121862408
 20
-5.3587408425
 10
-402.8022263919
 20
-5.3490664361
 10
-402.7910280041
 20
-5.3408809911
 10
-402.7788086163
 20
-5.3343435174
 10
-402.7658056014
 20
-5.3295810114
 10
-402.7522715551
 20
-5.3266859892
 10
-402.7384693886
 20
-5.3257146892
  0
LWPOLYLINE
  5
21B
100
AcDbEntity
  8
RACCORDO
100
AcDbPolyline
 62
253
  6
CONTINUOUS
 90
10
 70
0
 10
-402.5890344273
 20
-5.4360047093
 10
-402.5894760796
 20
-5.422074756
 10
-402.5880722848
 20
-5.4082155077
 10
-402.5848503128
 20
-5.3946961935
 10
-402.5798727535
 20
-5.3817794387
 10
-402.5732363008
 20
-5.3697161636
 10
-402.5650698739
 20
-5.3587407086
 10
-402.5555321134
 20
-5.3490662823
 10
-402.5448082993
 20
-5.3408808196
 10
-402.5341424322
 20
-5.3349219507
  0
LINE
  5
21C
100
AcDbEntity
  8
RACCORDO
100
AcDbLine
 62
7
  6
CONTINUOUS
 10
-402.5189616393
 20
-4.957270773
 11
-402.5177884012
 21
-4.9997841792
  0
LINE
  5
21D
100
AcDbEntity
  8
RACCORDO
100
AcDbLine
 62
7
  6
CONTINUOUS
 10
-402.5115109911
 20
-5.1433436745
 11
-402.5109256103
 21
-5.1660365477
  0
LINE
  5
21E
100
AcDbEntity
  8
RACCORDO
100
AcDbLine
 62
7
  6
CONTINUOUS
 10
-402.5197694282
 20
-4.9171445072
 11
-402.5189042374
 21
-4.9596653278
  0
LINE
  5
21F
100
AcDbEntity
  8
RACCORDO
100
AcDbLine
 62
7
  6
CONTINUOUS
 10
-402.5202864745
 20
-4.8770133239
 11
-402.5197293749
 21
-4.919539477
  0
LWPOLYLINE
  5
220
100
AcDbEntity
  8
RACCORDO
100
AcDbPolyline
 62
253
  6
CONTINUOUS
 90
7
 70
0
 10
-402.5043291511
 20
-5.1569590542
 10
-402.5040019452
 20
-5.1826442387
 10
-402.5044112215
 20
-5.2078452499
 10
-402.5055594522
 20
-5.2325794036
 10
-402.5074400839
 20
-5.2566911704
 10
-402.5100376149
 20
-5.2798572391
 10
-402.5133480439
 20
-5.3020362988
  0
LINE
  5
221
100
AcDbEntity
  8
RACCORDO
100
AcDbLine
 62
7
  6
CONTINUOUS
 10
-402.5205127594
 20
-4.8368796478
 11
-402.5202637722
 21
-4.879408684
  0
LWPOLYLINE
  5
222
100
AcDbEntity
  8
RACCORDO
100
AcDbPolyline
 62
253
  6
CONTINUOUS
 90
10
 70
0
 10
-402.5138131353
 20
-4.8257144774
 10
-402.5137093462
 20
-4.8596248928
 10
-402.5133978547
 20
-4.8935180548
 10
-402.5128784255
 20
-4.9274109981
 10
-402.5121495745
 20
-4.9613519484
 10
-402.511211843
 20
-4.9953266708
 10
-402.5100678099
 20
-5.0292580022
 10
-402.5087177256
 20
-5.0631308743
 10
-402.5071594997
 20
-5.0969927367
 10
-402.505391984
 20
-5.1308595962
  0
LINE
  5
223
100
AcDbEntity
  8
0
100
AcDbLine
 62
253
  6
CONTINUOUS
 10
-400.2210816873
 20
-9.7932312559
 11
-400.2210816873
 21
0.1418023011
  0
LINE
  5
224
100
AcDbEntity
  8
0
100
AcDbLine
 62
7
  6
CONTINUOUS
 10
-399.9118199424
 20
42.6742855226
 11
-399.9118199424
 21
-52.3257144774
  0
LINE
  5
225
100
AcDbEntity
  8
0
100
AcDbLine
 62
253
  6
CONTINUOUS
 10
-397.5686741918
 20
42.6742855226
 11
-397.5686741918
 21
-52.3257144774
  0
LINE
  5
226
100
AcDbEntity
  8
0
100
AcDbLine
 62
7
  6
CONTINUOUS
 10
-396.9118199424
 20
45.6742855226
 11
-396.9118199424
 21
43.1742855226
  0
LINE
  5
227
100
AcDbEntity
  8
0
100
AcDbLine
 62
253
  6
CONTINUOUS
 10
-396.9118199424
 20
-55.3257144774
 11
-396.9118199424
 21
-52.8257144774
  0
LINE
  5
228
100
AcDbEntity
  8
0
100
AcDbLine
 62
7
  6
CONTINUOUS
 10
-396.8615674107
 20
-52.8257144774
 11
-396.8615674107
 21
-55.3257144774
  0
LINE
  5
229
100
AcDbEntity
  8
0
100
AcDbLine
 62
253
  6
CONTINUOUS
 10
-395.9118199424
 20
43.1742855226
 11
-395.9118199424
 21
42.6742855226
  0
LINE
  5
22A
100
AcDbEntity
  8
0
100
AcDbLine
 62
253
  6
CONTINUOUS
 10
-395.9118199424
 20
-52.8257144774
 11
-395.9118199424
 21
-52.3257144774
  0
LINE
  5
22B
100
AcDbEntity
  8
0
100
AcDbLine
 62
7
  6
CONTINUOUS
 10
-387.9118199424
 20
43.1742855226
 11
-387.9118199424
 21
42.6742855226
  0
LINE
  5
22C
100
AcDbEntity
  8
0
100
AcDbLine
 62
7
  6
CONTINUOUS
 10
-387.9118199424
 20
-52.8257144774
 11
-387.9118199424
 21
-52.3257144774
  0
LINE
  5
22D
100
AcDbEntity
  8
0
100
AcDbLine
 62
7
  6
CONTINUOUS
 10
-386.1842550147
 20
-55.3257144774
 11
-386.1842550147
 21
-52.8257144774
  0
LINE
  5
22E
100
AcDbEntity
  8
0
100
AcDbLine
 62
7
  6
CONTINUOUS
 10
-385.4328768265
 20
-55.3257144774
 11
-385.4328768265
 21
-52.8257144774
  0
LINE
  5
22F
100
AcDbEntity
  8
0
100
AcDbLine
 62
7
  6
CONTINUOUS
 10
-384.9114628086
 20
-55.3257144774
 11
-384.9114628086
 21
-52.8257144774
  0
LINE
  5
230
100
AcDbEntity
  8
0
100
AcDbLine
 62
253
  6
CONTINUOUS
 10
-379.8910046622
 20
42.6742855226
 11
-379.8910046622
 21
-52.3257144774
  0
LINE
  5
231
100
AcDbEntity
  8
0
100
AcDbLine
 62
7
  6
CONTINUOUS
 10
-376.9118199424
 20
45.6742855226
 11
-376.9118199424
 21
43.1742855226
  0
LINE
  5
232
100
AcDbEntity
  8
0
100
AcDbLine
 62
7
  6
CONTINUOUS
 10
-376.4118199424
 20
46.1742855226
 11
-376.4118199424
 21
55.8742855226
  0
LINE
  5
233
100
AcDbEntity
  8
RACCORDO
100
AcDbLine
 62
7
  6
CONTINUOUS
 10
-402.5205074121
 20
-4.8121535761
 11
-402.5205074121
 21
-4.8392753787
  0
LWPOLYLINE
  5
234
100
AcDbEntity
  8
RACCORDO
100
AcDbPolyline
 62
7
  6
CONTINUOUS
 90
10
 70
0
 10
-402.5109256103
 20
-5.1660365477
 10
-402.5109840433
 20
-5.1881481958
 10
-402.5116642139
 20
-5.2094329038
 10
-402.5129187642
 20
-5.2296122844
 10
-402.5146824645
 20
-5.2485268143
 10
-402.516891533
 20
-5.2660230143
 10
-402.5194532527
 20
-5.2818747293
 10
-402.5222703824
 20
-5.2960053811
 10
-402.5252413788
 20
-5.30836151
 10
-402.528228266
 20
-5.3188070692
  0
LINE
  5
235
100
AcDbEntity
  8
RACCORDO
100
AcDbLine
 62
7
  6
CONTINUOUS
 10
-402.5202637722
 20
-4.7720202708
 11
-402.5205127594
 21
-4.814549307
  0
LINE
  5
236
100
AcDbEntity
  8
RACCORDO
100
AcDbLine
 62
7
  6
CONTINUOUS
 10
-402.5197293749
 20
-4.7318894779
 11
-402.5202864745
 21
-4.774415631
  0
LWPOLYLINE
  5
237
100
AcDbEntity
  8
RACCORDO
100
AcDbPolyline
 62
7
  6
CONTINUOUS
 90
7
 70
0
 10
-402.8433554575
 20
-4.1852232487
 10
-402.8435007213
 20
-4.1950411778
 10
-402.8434212552
 20
-4.2041766182
 10
-402.843113725
 20
-4.2126996577
 10
-402.8425628915
 20
-4.2207389615
 10
-402.8417126948
 20
-4.2286408263
 10
-402.8404679541
 20
-4.2366315588
  0
LINE
  5
238
100
AcDbEntity
  8
RACCORDO
100
AcDbLine
 62
7
  6
CONTINUOUS
 10
-402.5189042374
 20
-4.691763627
 11
-402.5197694282
 21
-4.7342844476
  0
LWPOLYLINE
  5
239
100
AcDbEntity
  8
RACCORDO
100
AcDbPolyline
 62
7
  6
CONTINUOUS
 90
3
 70
0
 10
-402.5108957475
 20
-4.482523423
 10
-402.5114023745
 20
-4.5051672594
 10
-402.5120897708
 20
-4.5201993958
  0
LINE
  5
23A
100
AcDbEntity
  8
RACCORDO
100
AcDbLine
 62
7
  6
CONTINUOUS
 10
-402.5177884012
 20
-4.6516447757
 11
-402.5189616393
 21
-4.6941581818
  0
LWPOLYLINE
  5
23B
100
AcDbEntity
  8
RACCORDO
100
AcDbPolyline
 62
253
  6
CONTINUOUS
 90
10
 70
0
 10
-402.589030442
 20
-4.2154246796
 10
-402.5894732924
 20
-4.2293549647
 10
-402.588070542
 20
-4.2432147049
 10
-402.5848494436
 20
-4.2567346304
 10
-402.5798725775
 20
-4.2696520733
 10
-402.5732366351
 20
-4.2817160707
 10
-402.565070541
 20
-4.2926922408
 10
-402.5555329477
 20
-4.3023673363
 10
-402.5448091535
 20
-4.3105533875
 10
-402.5341226598
 20
-4.3165241635
  0
LWPOLYLINE
  5
23C
100
AcDbEntity
  8
RACCORDO
100
AcDbPolyline
 62
253
  6
CONTINUOUS
 90
10
 70
0
 10
-402.8372113787
 20
-4.2154242419
 10
-402.8376725764
 20
-4.2293541984
 10
-402.8362066572
 20
-4.2432134499
 10
-402.832842098
 20
-4.2567327671
 10
-402.8276442586
 20
-4.2696495244
 10
-402.8207141119
 20
-4.2817128016
 10
-402.8121862827
 20
-4.2926882579
 10
-402.8022264321
 20
-4.3023626847
 10
-402.7910280399
 20
-4.310548147
 10
-402.7788086453
 20
-4.3170856343
  0
LINE
  5
23D
100
AcDbEntity
  8
RACCORDO
100
AcDbLine
 62
7
  6
CONTINUOUS
 10
-402.5163819161
 20
-4.6115347604
 11
-402.5178631508
 21
-4.6540388651
  0
LINE
  5
23E
100
AcDbEntity
  8
RACCORDO
100
AcDbLine
 62
7
  6
CONTINUOUS
 10
-402.8429528928
 20
-4.1740196213
 11
-402.8433423598
 21
-4.1847285526
  0
LINE
  5
23F
100
AcDbEntity
  8
RACCORDO
100
AcDbLine
 62
253
  6
CONTINUOUS
 10
-402.5043292628
 20
-4.4945515349
 11
-402.505391984
 21
-4.5205693587
  0
LINE
  5
240
100
AcDbEntity
  8
RACCORDO
100
AcDbLine
 62
7
  6
CONTINUOUS
 10
-402.5146848373
 20
-4.5714355237
 11
-402.5164740117
 21
-4.613928319
  0
LINE
  5
241
100
AcDbEntity
  8
RACCORDO
100
AcDbLine
 62
7
  6
CONTINUOUS
 10
-402.5126972649
 20
-4.5313493743
 11
-402.5147942796
 21
-4.573828505
  0
LWPOLYLINE
  5
242
100
AcDbEntity
  8
RACCORDO
100
AcDbPolyline
 62
253
  6
CONTINUOUS
 90
10
 70
0
 10
-402.505391984
 20
-4.5205693587
 10
-402.507159519
 20
-4.5544367016
 10
-402.5087177574
 20
-4.5882989024
 10
-402.5100678473
 20
-4.622171969
 10
-402.5112118766
 20
-4.6561033215
 10
-402.5121495975
 20
-4.6900779229
 10
-402.5128784391
 20
-4.7240187001
 10
-402.5133978626
 20
-4.7579114481
 10
-402.5137093496
 20
-4.7918043623
 10
-402.5138131353
 20
-4.8257144774
  0
LINE
  5
243
100
AcDbEntity
  8
RACCORDO
100
AcDbLine
 62
7
  6
CONTINUOUS
 10
-402.5120926545
 20
-4.5201993863
 11
-402.5128240591
 21
-4.5337417836
  0
LINE
  5
244
100
AcDbEntity
  8
RACCORDO
100
AcDbLine
 62
7
  6
CONTINUOUS
 10
-402.8423241637
 20
-4.1625442
 11
-402.8429808974
 21
-4.1746406212
  0
LINE
  5
245
100
AcDbEntity
  8
RACCORDO
100
AcDbLine
 62
7
  6
CONTINUOUS
 10
-402.8414466633
 20
-4.150307813
 11
-402.8423715048
 21
-4.1632995067
  0
LINE
  5
246
100
AcDbEntity
  8
RACCORDO
100
AcDbLine
 62
7
  6
CONTINUOUS
 10
-402.8403151378
 20
-4.1373855396
 11
-402.8415178487
 21
-4.1512064764
  0
LWPOLYLINE
  5
247
100
AcDbEntity
  8
RACCORDO
100
AcDbPolyline
 62
253
  6
CONTINUOUS
 90
20
 70
0
 10
-402.839299548
 20
-4.132705653
 10
-402.8401377559
 20
-4.1417163776
 10
-402.8408446846
 20
-4.1505389978
 10
-402.8414193811
 20
-4.1590751247
 10
-402.8418549573
 20
-4.1669903458
 10
-402.8421405747
 20
-4.1742092002
 10
-402.8422892362
 20
-4.1808400862
 10
-402.8423292275
 20
-4.1868114277
 10
-402.8422583038
 20
-4.1920767136
 10
-402.8420786374
 20
-4.1966963366
 10
-402.8418247984
 20
-4.2007430206
 10
-402.8414981804
 20
-4.204198443
 10
-402.8410964829
 20
-4.2070792378
 10
-402.8406489394
 20
-4.209500196
 10
-402.8401587431
 20
-4.2114542683
 10
-402.8396218464
 20
-4.2129387589
 10
-402.8390570197
 20
-4.2140710507
 10
-402.8384704114
 20
-4.2148865916
 10
-402.8378553123
 20
-4.2153393922
 10
-402.8372113976
 20
-4.21542424
  0
LINE
  5
248
100
AcDbEntity
  8
RACCORDO
100
AcDbLine
 62
7
  6
CONTINUOUS
 10
-402.8389251515
 20
-4.1238800998
 11
-402.8404142806
 21
-4.1384346305
  0
LWPOLYLINE
  5
249
100
AcDbEntity
  8
RACCORDO
100
AcDbPolyline
 62
7
  6
CONTINUOUS
 90
7
 70
0
 10
-402.8417181292
 20
-5.4228308772
 10
-402.8425730953
 20
-5.4308060461
 10
-402.8431233687
 20
-5.4389202865
 10
-402.8434271532
 20
-5.4475284813
 10
-402.8434993677
 20
-5.4567644178
 10
-402.8433423598
 20
-5.4667004023
 10
-402.8429528928
 20
-5.4774093336
  0
LINE
  5
24A
100
AcDbEntity
  8
RACCORDO
100
AcDbLine
 62
7
  6
CONTINUOUS
 10
-402.8377378037
 20
-4.1136452036
 11
-402.8390578792
 21
-4.1250851876
  0
LINE
  5
24B
100
AcDbEntity
  8
RACCORDO
100
AcDbLine
 62
253
  6
CONTINUOUS
 10
-402.8215927052
 20
-3.9953218966
 11
-402.829851148
 21
-4.0556430302
  0
LINE
  5
24C
100
AcDbEntity
  8
RACCORDO
100
AcDbLine
 62
253
  6
CONTINUOUS
 10
-402.8020753803
 20
-3.8679744134
 11
-402.8123591069
 21
-3.9327352538
  0
LINE
  5
24D
100
AcDbEntity
  8
RACCORDO
100
AcDbLine
 62
7
  6
CONTINUOUS
 10
-402.5105597486
 20
-2.7234577339
 11
-402.5110159542
 21
-2.7262249955
  0
LINE
  5
24E
100
AcDbEntity
  8
RACCORDO
100
AcDbLine
 62
253
  6
CONTINUOUS
 10
-402.7779658631
 20
-3.7314822259
 11
-402.7906488655
 21
-3.8009694314
  0
LWPOLYLINE
  5
24F
100
AcDbEntity
  8
RACCORDO
100
AcDbPolyline
 62
7
  6
CONTINUOUS
 90
8
 70
0
 10
-402.5110159542
 20
-2.7262249955
 10
-402.5113397151
 20
-2.7279620518
 10
-402.5118123599
 20
-2.7303502115
 10
-402.5124094455
 20
-2.7332176359
 10
-402.513112221
 20
-2.7364470372
 10
-402.5139155348
 20
-2.740001206
 10
-402.514828055
 20
-2.7439077698
 10
-402.5158463859
 20
-2.748143344
  0
LINE
  5
250
100
AcDbEntity
  8
RACCORDO
100
AcDbLine
 62
253
  6
CONTINUOUS
 10
-402.5133480439
 20
-5.3020362988
 11
-402.5173599915
 21
-5.3231500913
  0
LINE
  5
251
100
AcDbEntity
  8
RACCORDO
100
AcDbLine
 62
253
  6
CONTINUOUS
 10
-402.5173599915
 20
-5.3231500913
 11
-402.5220444123
 21
-5.3428367629
  0
LINE
  5
252
100
AcDbEntity
  8
RACCORDO
100
AcDbLine
 62
7
  6
CONTINUOUS
 10
-402.5158463859
 20
-2.748143344
 11
-402.5171680902
 21
-2.7534819489
  0
LWPOLYLINE
  5
253
100
AcDbEntity
  8
RACCORDO
100
AcDbPolyline
 62
253
  6
CONTINUOUS
 90
5
 70
0
 10
-402.6920613628
 20
-3.3472370217
 10
-402.7125958415
 20
-3.4289234743
 10
-402.7313358686
 20
-3.5082206039
 10
-402.748409756
 20
-3.5851148152
 10
-402.7639181166
 20
-3.6595038096
  0
LINE
  5
254
100
AcDbEntity
  8
RACCORDO
100
AcDbLine
 62
7
  6
CONTINUOUS
 10
-402.5169709762
 20
-2.7527041979
 11
-402.5184211173
 21
-2.7584426172
  0
LINE
  5
255
100
AcDbEntity
  8
RACCORDO
100
AcDbLine
 62
7
  6
CONTINUOUS
 10
-402.5182015657
 20
-2.7575859224
 11
-402.5209637135
 21
-2.7682423573
  0
LINE
  5
256
100
AcDbEntity
  8
RACCORDO
100
AcDbLine
 62
7
  6
CONTINUOUS
 10
-402.5197735735
 20
-2.7636974977
 11
-402.5227737142
 21
-2.7750587076
  0
LWPOLYLINE
  5
257
100
AcDbEntity
  8
RACCORDO
100
AcDbPolyline
 62
253
  6
CONTINUOUS
 90
6
 70
0
 10
-402.5173757697
 20
-2.7579569601
 10
-402.5220552297
 20
-2.7753888618
 10
-402.5274007949
 20
-2.7946048361
 10
-402.5333837292
 20
-2.8155226369
 10
-402.539918113
 20
-2.8378049669
 10
-402.5430499097
 20
-2.8462293507
  0
LINE
  5
258
100
AcDbEntity
  8
RACCORDO
100
AcDbLine
 62
7
  6
CONTINUOUS
 10
-402.5224943863
 20
-2.7740090001
 11
-402.5261715794
 21
-2.7875475102
  0
LINE
  5
259
100
AcDbEntity
  8
RACCORDO
100
AcDbLine
 62
7
  6
CONTINUOUS
 10
-402.5258473301
 20
-2.7863693521
 11
-402.5299606855
 21
-2.8011265807
  0
LINE
  5
25A
100
AcDbEntity
  8
RACCORDO
100
AcDbLine
 62
7
  6
CONTINUOUS
 10
-402.5295870955
 20
-2.7998060793
 11
-402.5341295998
 21
-2.8157563013
  0
LINE
  5
25B
100
AcDbEntity
  8
RACCORDO
100
AcDbLine
 62
7
  6
CONTINUOUS
 10
-402.5337096474
 20
-2.8142941155
 11
-402.5386675494
 21
-2.8313851987
  0
LWPOLYLINE
  5
25C
100
AcDbEntity
  8
RACCORDO
100
AcDbPolyline
 62
253
  6
CONTINUOUS
 90
10
 70
0
 10
-402.5220444123
 20
-5.3428367629
 10
-402.5274081864
 20
-5.3610936463
 10
-402.5334182826
 20
-5.377838086
 10
-402.5399850651
 20
-5.3926235691
 10
-402.5471055495
 20
-5.4054413193
 10
-402.5547501517
 20
-5.4162843397
 10
-402.5627922392
 20
-5.4247638244
 10
-402.5711801732
 20
-5.4307851072
 10
-402.5799335489
 20
-5.4345179965
 10
-402.5890344784
 20
-5.4360047149
  0
LINE
  5
25D
100
AcDbEntity
  8
RACCORDO
100
AcDbLine
 62
7
  6
CONTINUOUS
 10
-402.5382005983
 20
-2.8297844121
 11
-402.5435662308
 21
-2.8479656805
  0
LWPOLYLINE
  5
25E
100
AcDbEntity
  8
RACCORDO
100
AcDbPolyline
 62
253
  6
CONTINUOUS
 90
3
 70
0
 10
-402.5461484439
 20
-2.8566007698
 10
-402.5469885281
 20
-2.8614154047
 10
-402.5488162845
 20
-2.865455106
  0
LWPOLYLINE
  5
25F
100
AcDbEntity
  8
RACCORDO
100
AcDbPolyline
 62
253
  6
CONTINUOUS
 90
3
 70
0
 10
-402.6181931065
 20
-3.0866176192
 10
-402.6449935503
 20
-3.1760108637
 10
-402.6695750496
 20
-3.2629411881
  0
LINE
  5
260
100
AcDbEntity
  8
RACCORDO
100
AcDbLine
 62
7
  6
CONTINUOUS
 10
-402.5430499097
 20
-2.8462293507
 11
-402.5509743555
 21
-2.8725784535
  0
LWPOLYLINE
  5
261
100
AcDbEntity
  8
RACCORDO
100
AcDbPolyline
 62
253
  6
CONTINUOUS
 90
3
 70
0
 10
-402.5515672515
 20
-2.8745208207
 10
-402.554578555
 20
-2.8863191256
 10
-402.5566683801
 20
-2.891179564
  0
LINE
  5
262
100
AcDbEntity
  8
RACCORDO
100
AcDbLine
 62
7
  6
CONTINUOUS
 10
-402.5488162845
 20
-2.865455106
 11
-402.5573087014
 21
-2.8932533598
  0
LWPOLYLINE
  5
263
100
AcDbEntity
  8
RACCORDO
100
AcDbPolyline
 62
253
  6
CONTINUOUS
 90
3
 70
0
 10
-402.5602960652
 20
-2.9029079776
 10
-402.5626023522
 20
-2.9121709685
 10
-402.5657806944
 20
-2.9204817294
  0
LWPOLYLINE
  5
264
100
AcDbEntity
  8
RACCORDO
100
AcDbPolyline
 62
253
  6
CONTINUOUS
 90
5
 70
0
 10
-402.5053845734
 20
-2.6897015123
 10
-402.5092445401
 20
-2.7020291857
 10
-402.5114853544
 20
-2.7147524174
 10
-402.5120696106
 20
-2.727658819
 10
-402.5118344756
 20
-2.7304564194
  0
LINE
  5
265
100
AcDbEntity
  8
RACCORDO
100
AcDbLine
 62
7
  6
CONTINUOUS
 10
-402.5566683801
 20
-2.891179564
 11
-402.5664932783
 21
-2.9227534489
  0
LWPOLYLINE
  5
266
100
AcDbEntity
  8
RACCORDO
100
AcDbPolyline
 62
253
  6
CONTINUOUS
 90
3
 70
0
 10
-402.5696994915
 20
-2.9329305236
 10
-402.571020498
 20
-2.9388363562
 10
-402.5755261213
 20
-2.9512744288
  0
LWPOLYLINE
  5
267
100
AcDbEntity
  8
RACCORDO
100
AcDbPolyline
 62
7
  6
CONTINUOUS
 90
10
 70
0
 10
-402.5895390521
 20
-2.994679034
 10
-402.6211540185
 20
-3.094511214
 10
-402.6589431674
 20
-3.2227890629
 10
-402.6938146389
 20
-3.3518889341
 10
-402.7257505743
 20
-3.4817439845
 10
-402.7547354451
 20
-3.6122909031
 10
-402.7807547069
 20
-3.7434637315
 10
-402.8037945104
 20
-3.875194779
 10
-402.823843077
 20
-4.0074173505
 10
-402.8377383696
 20
-4.1136451874
  0
LINE
  5
268
100
AcDbEntity
  8
RACCORDO
100
AcDbLine
 62
7
  6
CONTINUOUS
 10
-402.5657806944
 20
-2.9204817294
 11
-402.5763140993
 21
-2.9537475494
  0
LINE
  5
269
100
AcDbEntity
  8
RACCORDO
100
AcDbLine
 62
253
  6
CONTINUOUS
 10
-402.5789039558
 20
-2.9618291509
 11
-402.5798376496
 21
-2.9663987059
  0
LINE
  5
26A
100
AcDbEntity
  8
RACCORDO
100
AcDbLine
 62
7
  6
CONTINUOUS
 10
-402.5755261213
 20
-2.9512744288
 11
-402.5858356094
 21
-2.983310527
  0
LINE
  5
26B
100
AcDbEntity
  8
RACCORDO
100
AcDbLine
 62
7
  6
CONTINUOUS
 10
-402.5858356094
 20
-2.983310527
 11
-402.5895357167
 21
-2.9946801226
  0
LWPOLYLINE
  5
26C
100
AcDbEntity
  8
RACCORDO
100
AcDbPolyline
 62
7
  6
CONTINUOUS
 90
6
 70
0
 10
-402.528228266
 20
-5.3188070692
 10
-402.531111877
 20
-5.3273715712
 10
-402.5337609426
 20
-5.3340924367
 10
-402.5359753995
 20
-5.338907569
 10
-402.5375938415
 20
-5.3419316394
 10
-402.5378352327
 20
-5.3423402907
  0
LWPOLYLINE
  5
26D
100
AcDbEntity
  8
RACCORDO
100
AcDbPolyline
 62
7
  6
CONTINUOUS
 90
13
 70
0
 10
-402.8362703282
 20
-4.2533209869
 10
-402.8329661326
 20
-4.2621720841
 10
-402.8286397435
 20
-4.2712416587
 10
-402.8233966759
 20
-4.2799988556
 10
-402.8173409091
 20
-4.2881914649
 10
-402.8103606809
 20
-4.2959013896
 10
-402.8023868836
 20
-4.3030711804
 10
-402.7934522934
 20
-4.3095317997
 10
-402.7835767264
 20
-4.315137399
 10
-402.7726722944
 20
-4.3197753736
 10
-402.7607663735
 20
-4.3232338209
 10
-402.7480340816
 20
-4.3252624699
 10
-402.7384646053
 20
-4.3257143933
  0
LWPOLYLINE
  5
26E
100
AcDbEntity
  8
RACCORDO
100
AcDbPolyline
 62
7
  6
CONTINUOUS
 90
11
 70
0
 10
-402.5313494741
 20
-4.3234124337
 10
-402.5284966499
 20
-4.3317672872
 10
-402.5255293961
 20
-4.3419795528
 10
-402.5225671977
 20
-4.3540807359
 10
-402.5197483046
 20
-4.3679425551
 10
-402.5171678098
 20
-4.3835216351
 10
-402.5149206256
 20
-4.4007539895
 10
-402.5131070663
 20
-4.4194302724
 10
-402.5117930988
 20
-4.4394034118
 10
-402.5110362209
 20
-4.4605229362
 10
-402.5108957475
 20
-4.482523423
  0
LINE
  5
26F
100
AcDbEntity
  8
RACCORDO
100
AcDbLine
 62
7
  6
CONTINUOUS
 10
-402.5895356987
 20
-6.6567488241
 11
-402.5797161041
 21
-6.6870640242
  0
LINE
  5
270
100
AcDbEntity
  8
RACCORDO
100
AcDbLine
 62
253
  6
CONTINUOUS
 10
-402.5797771667
 20
-6.6852261249
 11
-402.5797161041
 21
-6.6870640242
  0
LINE
  5
271
100
AcDbEntity
  8
RACCORDO
100
AcDbLine
 62
253
  6
CONTINUOUS
 10
-402.5763115957
 20
-6.6976892411
 11
-402.5709172952
 21
-6.7129242964
  0
LINE
  5
272
100
AcDbEntity
  8
RACCORDO
100
AcDbLine
 62
7
  6
CONTINUOUS
 10
-402.5797161041
 20
-6.6870640242
 11
-402.5696947288
 21
-6.7185135053
  0
LWPOLYLINE
  5
273
100
AcDbEntity
  8
RACCORDO
100
AcDbPolyline
 62
253
  6
CONTINUOUS
 90
5
 70
0
 10
-402.5053919575
 20
-6.9617302983
 10
-402.5092507941
 20
-6.9494026772
 10
-402.51149054
 20
-6.9366796851
 10
-402.5120738125
 20
-6.9237736769
 10
-402.5118364478
 20
-6.9209519574
  0
LINE
  5
274
100
AcDbEntity
  8
RACCORDO
100
AcDbLine
 62
7
  6
CONTINUOUS
 10
-402.5696947288
 20
-6.7185135053
 11
-402.5602873738
 21
-6.7485489802
  0
LINE
  5
275
100
AcDbEntity
  8
RACCORDO
100
AcDbLine
 62
7
  6
CONTINUOUS
 10
-402.5602873738
 20
-6.7485489802
 11
-402.5515545493
 21
-6.7769498528
  0
LWPOLYLINE
  5
276
100
AcDbEntity
  8
RACCORDO
100
AcDbPolyline
 62
253
  6
CONTINUOUS
 90
6
 70
0
 10
-402.5410550279
 20
-6.8119283104
 10
-402.5398369277
 20
-6.813898069
 10
-402.5333183392
 20
-6.8361317604
 10
-402.5273510547
 20
-6.8570000874
 10
-402.5220192493
 20
-6.8761716676
 10
-402.5173508753
 20
-6.893567196
  0
LINE
  5
277
100
AcDbEntity
  8
RACCORDO
100
AcDbLine
 62
7
  6
CONTINUOUS
 10
-402.5515545493
 20
-6.7769498528
 11
-402.5435500628
 21
-6.8035175559
  0
LINE
  5
278
100
AcDbEntity
  8
RACCORDO
100
AcDbLine
 62
7
  6
CONTINUOUS
 10
-402.5435500628
 20
-6.8035175559
 11
-402.5386496334
 21
-6.8201049196
  0
LINE
  5
279
100
AcDbEntity
  8
RACCORDO
100
AcDbLine
 62
7
  6
CONTINUOUS
 10
-402.5386496334
 20
-6.8201049196
 11
-402.5341105243
 21
-6.8357389649
  0
LINE
  5
27A
100
AcDbEntity
  8
RACCORDO
100
AcDbLine
 62
7
  6
CONTINUOUS
 10
-402.5341105243
 20
-6.8357389649
 11
-402.5299410922
 21
-6.8503718278
  0
LWPOLYLINE
  5
27B
100
AcDbEntity
  8
RACCORDO
100
AcDbPolyline
 62
253
  6
CONTINUOUS
 90
3
 70
0
 10
-402.6693350509
 20
-6.3893611038
 10
-402.6447911499
 20
-6.4761184082
 10
-402.6180689165
 20
-6.5652203806
  0
LINE
  5
27C
100
AcDbEntity
  8
RACCORDO
100
AcDbLine
 62
7
  6
CONTINUOUS
 10
-402.5299410922
 20
-6.8503718278
 11
-402.5261522254
 21
-6.8639516522
  0
LINE
  5
27D
100
AcDbEntity
  8
RACCORDO
100
AcDbLine
 62
7
  6
CONTINUOUS
 10
-402.5261522254
 20
-6.8639516522
 11
-402.5227553384
 21
-6.8764387747
  0
LWPOLYLINE
  5
27E
100
AcDbEntity
  8
RACCORDO
100
AcDbPolyline
 62
7
  6
CONTINUOUS
 90
4
 70
0
 10
-402.5227553384
 20
-6.8764387747
 10
-402.5197568379
 20
-6.8877959178
 10
-402.5184054248
 20
-6.8930478831
 10
-402.5171535701
 20
-6.8980050738
  0
LWPOLYLINE
  5
27F
100
AcDbEntity
  8
RACCORDO
100
AcDbPolyline
 62
253
  6
CONTINUOUS
 90
9
 70
0
 10
-402.5173508753
 20
-6.893567196
 10
-402.5133435175
 20
-6.9091978063
 10
-402.5100351688
 20
-6.9228846518
 10
-402.5074392871
 20
-6.9345856216
 10
-402.505557746
 20
-6.9442884255
 10
-402.5044088562
 20
-6.9518782923
 10
-402.5040001154
 20
-6.9573105426
 10
-402.5043281106
 20
-6.9605995827
 10
-402.505391984
 20
-6.9617303086
  0
LWPOLYLINE
  5
280
100
AcDbEntity
  8
RACCORDO
100
AcDbPolyline
 62
7
  6
CONTINUOUS
 90
10
 70
0
 10
-402.5171535701
 20
-6.8980050738
 10
-402.5160070683
 20
-6.9026390404
 10
-402.5149661051
 20
-6.9069473243
 10
-402.5140313499
 20
-6.9109248176
 10
-402.5132094425
 20
-6.9145368751
 10
-402.5124951569
 20
-6.917796373
 10
-402.5118902328
 20
-6.9206817566
 10
-402.5114067124
 20
-6.9231108295
 10
-402.5110300074
 20
-6.9251228506
 10
-402.5109513126
 20
-6.9255629409
  0
LINE
  5
281
100
AcDbEntity
  8
RACCORDO
100
AcDbLine
 62
253
  6
CONTINUOUS
 10
-402.5219758275
 20
-4.308852518
 11
-402.5173030979
 21
-4.3285406758
  0
LWPOLYLINE
  5
282
100
AcDbEntity
  8
RACCORDO
100
AcDbPolyline
 62
253
  6
CONTINUOUS
 90
3
 70
0
 10
-402.7311780291
 20
-6.1438970625
 10
-402.7124057074
 20
-6.2232817764
 10
-402.6918314323
 20
-6.305075097
  0
LWPOLYLINE
  5
283
100
AcDbEntity
  8
RACCORDO
100
AcDbPolyline
 62
7
  6
CONTINUOUS
 90
3
 70
0
 10
-402.8404599202
 20
-4.2366746724
 10
-402.8386920198
 20
-4.2448844502
 10
-402.8362703282
 20
-4.2533209869
  0
LINE
  5
284
100
AcDbEntity
  8
RACCORDO
100
AcDbLine
 62
253
  6
CONTINUOUS
 10
-402.7637829337
 20
-5.992595793
 11
-402.7482656696
 21
-6.0669846761
  0
LINE
  5
285
100
AcDbEntity
  8
RACCORDO
100
AcDbLine
 62
253
  6
CONTINUOUS
 10
-402.5173030979
 20
-4.3285406758
 11
-402.5133044828
 21
-4.3496446695
  0
LINE
  5
286
100
AcDbEntity
  8
RACCORDO
100
AcDbLine
 62
253
  6
CONTINUOUS
 10
-402.7905272644
 20
-5.8511534807
 11
-402.7778390549
 21
-5.9206183069
  0
LINE
  5
287
100
AcDbEntity
  8
RACCORDO
100
AcDbLine
 62
253
  6
CONTINUOUS
 10
-402.812257594
 20
-5.7193563461
 11
-402.8019587381
 21
-5.7841712525
  0
LWPOLYLINE
  5
288
100
AcDbEntity
  8
RACCORDO
100
AcDbPolyline
 62
253
  6
CONTINUOUS
 90
7
 70
0
 10
-402.5133044828
 20
-4.3496446695
 10
-402.510006131
 20
-4.3718111161
 10
-402.5074186528
 20
-4.3949698112
 10
-402.5055467252
 20
-4.4190718277
 10
-402.5044050834
 20
-4.443779214
 10
-402.5040000099
 20
-4.468931628
 10
-402.5043292628
 20
-4.4945515349
  0
LINE
  5
289
100
AcDbEntity
  8
RACCORDO
100
AcDbLine
 62
253
  6
CONTINUOUS
 10
-402.8298109684
 20
-5.5960728011
 11
-402.8215183216
 21
-5.6566164457
  0
LWPOLYLINE
  5
28A
100
AcDbEntity
  8
RACCORDO
100
AcDbPolyline
 62
7
  6
CONTINUOUS
 90
10
 70
0
 10
-402.837738357
 20
-5.5377838234
 10
-402.8241746102
 20
-5.6416409167
 10
-402.8041791399
 20
-5.7738749891
 10
-402.7811922942
 20
-5.9056175642
 10
-402.755225921
 20
-6.0368019415
 10
-402.7262939211
 20
-6.1673603631
 10
-402.6944108169
 20
-6.2972272215
 10
-402.6595921074
 20
-6.426339351
 10
-402.6218559712
 20
-6.5546292184
 10
-402.58953908
 20
-6.6567499278
  0
LINE
  5
28B
100
AcDbEntity
  8
RACCORDO
100
AcDbLine
 62
7
  6
CONTINUOUS
 10
-402.8390578792
 20
-5.5263437672
 11
-402.8377378037
 21
-5.5377837512
  0
LINE
  5
28C
100
AcDbEntity
  8
0
100
AcDbLine
 62
253
  6
CONTINUOUS
 10
-374.2341504127
 20
9.6742855226
 11
-374.2341504127
 21
-52.3257144774
  0
LINE
  5
28D
100
AcDbEntity
  8
0
100
AcDbLine
 62
7
  6
CONTINUOUS
 10
-374.2341504127
 20
-52.3257144774
 11
-374.2341504127
 21
-55.3257144774
  0
LINE
  5
28E
100
AcDbEntity
  8
0
100
AcDbLine
 62
7
  6
CONTINUOUS
 10
-374.2341504127
 20
9.6742855226
 11
-374.2341504127
 21
42.6742855226
  0
LINE
  5
28F
100
AcDbEntity
  8
0
100
AcDbLine
 62
7
  6
CONTINUOUS
 10
-373.9118199424
 20
46.1742855226
 11
-373.9118199424
 21
55.8742855226
  0
LWPOLYLINE
  5
290
100
AcDbEntity
  8
RACCORDO
100
AcDbPolyline
 62
7
  6
CONTINUOUS
 90
11
 70
0
 10
-402.8288480675
 20
-4.2708511026
 10
-402.8237007218
 20
-4.2795400015
 10
-402.8177547344
 20
-4.2876819146
 10
-402.8108992137
 20
-4.2953595077
 10
-402.8030661315
 20
-4.3025169534
 10
-402.7942863842
 20
-4.308989075
 10
-402.784576036
 20
-4.3146350499
 10
-402.773844674
 20
-4.3193477599
 10
-402.7621143689
 20
-4.322920698
 10
-402.7495520205
 20
-4.3251072676
 10
-402.7384690171
 20
-4.3257142623
  0
LINE
  5
291
100
AcDbEntity
  8
0
100
AcDbLine
 62
7
  6
CONTINUOUS
 10
-330.2341504127
 20
45.6742855226
 11
-330.2341504127
 21
55.8742855226
  0
LWPOLYLINE
  5
292
100
AcDbEntity
  8
RACCORDO
100
AcDbPolyline
 62
7
  6
CONTINUOUS
 90
7
 70
0
 10
-402.5371555121
 20
-4.3095611659
 10
-402.5383208287
 20
-4.3082616345
 10
-402.5384935589
 20
-4.3080517772
 10
-402.5376867399
 20
-4.3093373982
 10
-402.5361266125
 20
-4.3122191202
 10
-402.5339594415
 20
-4.3168748014
 10
-402.5313494741
 20
-4.3234124337
  0
LWPOLYLINE
  5
293
100
AcDbEntity
  8
RACCORDO
100
AcDbPolyline
 62
253
  6
CONTINUOUS
 90
22
 70
0
 10
-272.5221101798
 20
-5.5377197545
 10
-272.5226229405
 20
-5.5280546284
 10
-272.5239335007
 20
-5.5187233019
 10
-272.5260424394
 20
-5.5097125772
 10
-272.5290527465
 20
-5.5008899571
 10
-272.5328631767
 20
-5.4923538302
 10
-272.5371836612
 20
-5.484438609
 10
-272.5420501848
 20
-5.4772197546
 10
-272.5474642184
 20
-5.4705888687
 10
-272.5531004745
 20
-5.4646175271
 10
-272.5589462156
 20
-5.4593522413
 10
-272.5650515244
 20
-5.4547326182
 10
-272.5711843713
 20
-5.4506859343
 10
-272.5773249784
 20
-5.4472305119
 10
-272.5835175435
 20
-5.444349717
 10
-272.5896194976
 20
-5.4419287589
 10
-272.5956043669
 20
-5.4399746865
 10
-272.601511066
 20
-5.438490196
 10
-272.6072896264
 20
-5.4373579041
 10
-272.6129243728
 20
-5.4365423633
 10
-272.6184356749
 20
-5.4360895627
 10
-272.6238252194
 20
-5.4360047149
  0
LWPOLYLINE
  5
294
100
AcDbEntity
  8
RACCORDO
100
AcDbPolyline
 62
253
  6
CONTINUOUS
 90
22
 70
0
 10
-271.3015297049
 20
-4.1137092004
 10
-271.3010169442
 20
-4.1233743264
 10
-271.299706384
 20
-4.132705653
 10
-271.2975974454
 20
-4.1417163776
 10
-271.2945871382
 20
-4.1505389978
 10
-271.290776708
 20
-4.1590751247
 10
-271.2864562236
 20
-4.1669903458
 10
-271.2815896999
 20
-4.1742092002
 10
-271.2761756664
 20
-4.1808400862
 10
-271.2705394102
 20
-4.1868114277
 10
-271.2646936691
 20
-4.1920767136
 10
-271.2585883603
 20
-4.1966963366
 10
-271.2524555134
 20
-4.2007430206
 10
-271.2463149063
 20
-4.204198443
 10
-271.2401223412
 20
-4.2070792378
 10
-271.2340203871
 20
-4.209500196
 10
-271.2280355178
 20
-4.2114542683
 10
-271.2221288187
 20
-4.2129387589
 10
-271.2163502583
 20
-4.2140710507
 10
-271.2107155119
 20
-4.2148865916
 10
-271.2052042098
 20
-4.2153393922
 10
-271.1998146653
 20
-4.21542424
  0
LWPOLYLINE
  5
295
100
AcDbEntity
  8
RACCORDO
100
AcDbPolyline
 62
253
  6
CONTINUOUS
 90
16
 70
0
 10
-272.216964652
 20
-6.9617274425
 10
-272.2171778047
 20
-6.9493997691
 10
-272.2173015295
 20
-6.9366765374
 10
-272.2173337607
 20
-6.9237701359
 10
-272.21727396
 20
-6.9108960106
 10
-272.2171231252
 20
-6.898269069
 10
-272.2168837738
 20
-6.886100092
 10
-272.2165599009
 20
-6.8745922161
 10
-272.2161569125
 20
-6.8639375417
 10
-272.2156815351
 20
-6.854313927
 10
-272.2151417038
 20
-6.8458820186
 10
-272.2145464294
 20
-6.8387825702
 10
-272.2139056483
 20
-6.8331340926
 10
-272.2132300566
 20
-6.8290308757
 10
-272.2125309314
 20
-6.8265414143
 10
-272.2118199426
 20
-6.825707265
  0
LWPOLYLINE
  5
296
100
AcDbEntity
  8
RACCORDO
100
AcDbPolyline
 62
253
  6
CONTINUOUS
 90
16
 70
0
 10
-271.6066752327
 20
-2.6897015123
 10
-271.60646208
 20
-2.7020291857
 10
-271.6063383552
 20
-2.7147524174
 10
-271.606306124
 20
-2.727658819
 10
-271.6063659247
 20
-2.7405329442
 10
-271.6065167595
 20
-2.7531598858
 10
-271.6067561109
 20
-2.7653288628
 10
-271.6070799838
 20
-2.7768367388
 10
-271.6074829722
 20
-2.7874914132
 10
-271.6079583496
 20
-2.7971150279
 10
-271.6084981809
 20
-2.8055469362
 10
-271.6090934553
 20
-2.8126463846
 10
-271.6097342364
 20
-2.8182948622
 10
-271.6104098281
 20
-2.8223980791
 10
-271.6111089533
 20
-2.8248875405
 10
-271.6118199421
 20
-2.8257216899
  0
LWPOLYLINE
  5
297
100
AcDbEntity
  8
RACCORDO
100
AcDbPolyline
 62
253
  6
CONTINUOUS
 90
13
 70
0
 10
-273.7426893368
 20
-5.4360042752
 10
-273.7428339147
 20
-5.4220739902
 10
-273.7423759487
 20
-5.4082142499
 10
-273.7413243363
 20
-5.3946943244
 10
-273.7396995085
 20
-5.3817768816
 10
-273.7375330329
 20
-5.3697128842
 10
-273.7348670003
 20
-5.3587367141
 10
-273.731753207
 20
-5.3490616185
 10
-273.7282521486
 20
-5.3408755674
 10
-273.7244318443
 20
-5.3343376009
 10
-273.7203665161
 20
-5.3295747401
 10
-273.716135146
 20
-5.3266795189
 10
-273.7118199421
 20
-5.3257081861
  0
LWPOLYLINE
  5
298
100
AcDbEntity
  8
RACCORDO
100
AcDbPolyline
 62
253
  6
CONTINUOUS
 90
13
 70
0
 10
-270.0809505479
 20
-4.2154246796
 10
-270.08080597
 20
-4.2293549647
 10
-270.081263936
 20
-4.2432147049
 10
-270.0823155484
 20
-4.2567346304
 10
-270.0839403762
 20
-4.2696520733
 10
-270.0861068518
 20
-4.2817160707
 10
-270.0887728844
 20
-4.2926922408
 10
-270.0918866777
 20
-4.3023673363
 10
-270.0953877362
 20
-4.3105533875
 10
-270.0992080404
 20
-4.3170913539
 10
-270.1032733686
 20
-4.3218542147
 10
-270.1075047387
 20
-4.324749436
 10
-270.1118199426
 20
-4.3257207687
  0
LWPOLYLINE
  5
299
100
AcDbEntity
  8
RACCORDO
100
AcDbPolyline
 62
253
  6
CONTINUOUS
 90
13
 70
0
 10
-272.6238252171
 20
-5.4360047129
 10
-272.6238812906
 20
-5.4220747564
 10
-272.6237030608
 20
-5.408215505
 10
-272.6232939901
 20
-5.3946961878
 10
-272.622662025
 20
-5.3817794304
 10
-272.6218194421
 20
-5.3697161532
 10
-272.6207826093
 20
-5.3587406969
 10
-272.6195716681
 20
-5.3490662701
 10
-272.6182101422
 20
-5.3408808078
 10
-272.6167244805
 20
-5.3343433205
 10
-272.6151435435
 20
-5.329580805
 10
-272.6134980423
 20
-5.3266857777
 10
-272.6118199424
 20
-5.3257144774
  0
LWPOLYLINE
  5
29A
100
AcDbEntity
  8
RACCORDO
100
AcDbPolyline
 62
253
  6
CONTINUOUS
 90
13
 70
0
 10
-271.1998146676
 20
-4.2154242419
 10
-271.1997585942
 20
-4.2293541984
 10
-271.1999368239
 20
-4.2432134499
 10
-271.2003458946
 20
-4.2567327671
 10
-271.2009778597
 20
-4.2696495244
 10
-271.2018204427
 20
-4.2817128016
 10
-271.2028572754
 20
-4.2926882579
 10
-271.2040682166
 20
-4.3023626847
 10
-271.2054297425
 20
-4.310548147
 10
-271.2069154042
 20
-4.3170856343
 10
-271.2084963412
 20
-4.3218481498
 10
-271.2101418424
 20
-4.3247431771
 10
-271.2118199424
 20
-4.3257144774
  0
LINE
  5
29B
100
AcDbEntity
  8
0
100
AcDbLine
 62
7
  6
CONTINUOUS
 10
-285.9468171908
 20
37.6742855226
 11
-285.9468171908
 21
35.1742855226
  0
LINE
  5
29C
100
AcDbEntity
  8
0
100
AcDbLine
 62
7
  6
CONTINUOUS
 10
-285.9468171908
 20
-44.8257144774
 11
-285.9468171908
 21
-47.3257144774
  0
LINE
  5
29D
100
AcDbEntity
  8
0
100
AcDbLine
 62
7
  6
CONTINUOUS
 10
-283.9468171908
 20
-47.3257144774
 11
-283.9468171908
 21
-45.3257144774
  0
LINE
  5
29E
100
AcDbEntity
  8
0
100
AcDbLine
 62
7
  6
CONTINUOUS
 10
-283.9468171908
 20
-47.3257144774
 11
-283.9468171908
 21
-55.3257144774
  0
LINE
  5
29F
100
AcDbEntity
  8
0
100
AcDbLine
 62
7
  6
CONTINUOUS
 10
-283.9468171908
 20
37.6742855226
 11
-283.9468171908
 21
55.8742855226
  0
LINE
  5
2A0
100
AcDbEntity
  8
0
100
AcDbLine
 62
253
  6
CONTINUOUS
 10
-282.9118199424
 20
35.1742855226
 11
-282.9118199424
 21
-44.8257144774
  0
LINE
  5
2A1
100
AcDbEntity
  8
0
100
AcDbLine
 62
253
  6
CONTINUOUS
 10
-280.4759126949
 20
35.1742855226
 11
-280.4759126949
 21
-44.8257144774
  0
LINE
  5
2A2
100
AcDbEntity
  8
0
100
AcDbLine
 62
253
  6
CONTINUOUS
 10
-279.5206549508
 20
35.1742855226
 11
-279.5206549508
 21
-44.8257144774
  0
LINE
  5
2A3
100
AcDbEntity
  8
0
100
AcDbLine
 62
7
  6
CONTINUOUS
 10
-278.4118199424
 20
45.1742855226
 11
-278.4118199424
 21
-54.8257144774
  0
LINE
  5
2A4
100
AcDbEntity
  8
RACCORDO
100
AcDbLine
 62
253
  6
CONTINUOUS
 10
-274.0478357735
 20
-5.1308595962
 11
-274.0478357735
 21
-4.5205693587
  0
LINE
  5
2A5
100
AcDbEntity
  8
RACCORDO
100
AcDbLine
 62
7
  6
CONTINUOUS
 10
-273.9118199424
 20
-5.1257144774
 11
-273.9118199424
 21
-4.5257144774
  0
LINE
  5
2A6
100
AcDbEntity
  8
RACCORDO
100
AcDbLine
 62
7
  6
CONTINUOUS
 10
-272.4118199424
 20
-6.6257144774
 11
-272.4118199424
 21
-5.5257144774
  0
LINE
  5
2A7
100
AcDbEntity
  8
RACCORDO
100
AcDbLine
 62
7
  6
CONTINUOUS
 10
-272.4118199424
 20
-4.1257144774
 11
-272.4118199424
 21
-3.0257144774
  0
LINE
  5
2A8
100
AcDbEntity
  8
RACCORDO
100
AcDbLine
 62
7
  6
CONTINUOUS
 10
-271.4118199424
 20
-3.0257144774
 11
-271.4118199424
 21
-4.1257144774
  0
LINE
  5
2A9
100
AcDbEntity
  8
RACCORDO
100
AcDbLine
 62
7
  6
CONTINUOUS
 10
-271.4118199424
 20
-5.5257144774
 11
-271.4118199424
 21
-6.6257144774
  0
LINE
  5
2AA
100
AcDbEntity
  8
RACCORDO
100
AcDbLine
 62
7
  6
CONTINUOUS
 10
-269.9118199424
 20
-4.5257144774
 11
-269.9118199424
 21
-5.1257144774
  0
LINE
  5
2AB
100
AcDbEntity
  8
RACCORDO
100
AcDbLine
 62
253
  6
CONTINUOUS
 10
-269.7758041112
 20
-4.5205693587
 11
-269.7758041112
 21
-5.1308595962
  0
LINE
  5
2AC
100
AcDbEntity
  8
RACCORDO
100
AcDbLine
 62
253
  6
CONTINUOUS
 10
-272.5221101798
 20
-4.1137092004
 11
-272.5221101783
 21
-3.2620678511
  0
LINE
  5
2AD
100
AcDbEntity
  8
RACCORDO
100
AcDbLine
 62
253
  6
CONTINUOUS
 10
-272.5221862996
 20
-5.5957859247
 11
-272.5221101798
 21
-5.5377197545
  0
LINE
  5
2AE
100
AcDbEntity
  8
RACCORDO
100
AcDbLine
 62
253
  6
CONTINUOUS
 10
-271.3014535851
 20
-4.0556430302
 11
-271.3015297049
 21
-4.1137092004
  0
LINE
  5
2AF
100
AcDbEntity
  8
RACCORDO
100
AcDbLine
 62
253
  6
CONTINUOUS
 10
-271.3015297049
 20
-5.5377197545
 11
-271.3015297064
 21
-6.3893611038
  0
LWPOLYLINE
  5
2B0
100
AcDbEntity
  8
RACCORDO
100
AcDbPolyline
 62
253
  6
CONTINUOUS
 90
3
 70
0
 10
-272.5221101783
 20
-3.2620678511
 10
-272.5219304088
 20
-3.1753105467
 10
-272.5221101798
 20
-2.994843765
  0
LWPOLYLINE
  5
2B1
100
AcDbEntity
  8
RACCORDO
100
AcDbPolyline
 62
253
  6
CONTINUOUS
 90
3
 70
0
 10
-271.3015297064
 20
-6.3893611038
 10
-271.3017094759
 20
-6.4761184082
 10
-271.3015297049
 20
-6.6565851898
  0
LINE
  5
2B2
100
AcDbEntity
  8
RACCORDO
100
AcDbLine
 62
253
  6
CONTINUOUS
 10
-272.5221101798
 20
-6.6565851898
 11
-272.5221862996
 21
-5.5957859247
  0
LINE
  5
2B3
100
AcDbEntity
  8
RACCORDO
100
AcDbLine
 62
253
  6
CONTINUOUS
 10
-271.3015297049
 20
-2.994843765
 11
-271.3014535851
 21
-4.0556430302
  0
LWPOLYLINE
  5
2B4
100
AcDbEntity
  8
RACCORDO
100
AcDbPolyline
 62
253
  6
CONTINUOUS
 90
13
 70
0
 10
-272.6238252191
 20
-4.2154242402
 10
-272.6238812895
 20
-4.2293541744
 10
-272.6237030572
 20
-4.2432134017
 10
-272.6232939845
 20
-4.2567326938
 10
-272.622662018
 20
-4.2696494259
 10
-272.6218194343
 20
-4.2817126787
 10
-272.6207826012
 20
-4.2926881123
 10
-272.6195716604
 20
-4.3023625187
 10
-272.6182101353
 20
-4.3105479637
 10
-272.6167244749
 20
-4.3170854374
 10
-272.6151435395
 20
-4.3218479435
 10
-272.6134980402
 20
-4.3247429657
 10
-272.6118199423
 20
-4.3257142656
  0
LWPOLYLINE
  5
2B5
100
AcDbEntity
  8
RACCORDO
100
AcDbPolyline
 62
253
  6
CONTINUOUS
 90
13
 70
0
 10
-271.1998146656
 20
-5.4360047147
 10
-271.1997585952
 20
-5.4220747804
 10
-271.1999368275
 20
-5.4082155531
 10
-271.2003459002
 20
-5.3946962611
 10
-271.2009778667
 20
-5.3817795289
 10
-271.2018204505
 20
-5.3697162761
 10
-271.2028572835
 20
-5.3587408425
 10
-271.2040682243
 20
-5.3490664361
 10
-271.2054297494
 20
-5.3408809911
 10
-271.2069154098
 20
-5.3343435174
 10
-271.2084963452
 20
-5.3295810114
 10
-271.2101418445
 20
-5.3266859892
 10
-271.2118199424
 20
-5.3257146892
  0
LWPOLYLINE
  5
2B6
100
AcDbEntity
  8
RACCORDO
100
AcDbPolyline
 62
253
  6
CONTINUOUS
 90
13
 70
0
 10
-273.7426906381
 20
-4.2154242455
 10
-273.7428348268
 20
-4.2293541988
 10
-273.7423765219
 20
-4.2432134471
 10
-273.7413246261
 20
-4.2567327614
 10
-273.7396995738
 20
-4.2696495161
 10
-273.7375329329
 20
-4.2817127913
 10
-273.7348667926
 20
-4.2926882463
 10
-273.7317529452
 20
-4.3023626726
 10
-273.7282518801
 20
-4.3105481353
 10
-273.7244316087
 20
-4.3170856241
 10
-273.7203663433
 20
-4.321848142
 10
-273.7161350556
 20
-4.3247431727
 10
-273.7118199424
 20
-4.3257144774
  0
LWPOLYLINE
  5
2B7
100
AcDbEntity
  8
RACCORDO
100
AcDbPolyline
 62
253
  6
CONTINUOUS
 90
13
 70
0
 10
-270.0809492466
 20
-5.4360047093
 10
-270.0808050579
 20
-5.422074756
 10
-270.0812633629
 20
-5.4082155077
 10
-270.0823152586
 20
-5.3946961935
 10
-270.0839403109
 20
-5.3817794387
 10
-270.0861069518
 20
-5.3697161636
 10
-270.0887730921
 20
-5.3587407086
 10
-270.0918869395
 20
-5.3490662823
 10
-270.0953880046
 20
-5.3408808196
 10
-270.099208276
 20
-5.3343433308
 10
-270.1032735414
 20
-5.3295808128
 10
-270.1075048291
 20
-5.3266857821
 10
-270.1118199424
 20
-5.3257144774
  0
LWPOLYLINE
  5
2B8
100
AcDbEntity
  8
RACCORDO
100
AcDbPolyline
 62
253
  6
CONTINUOUS
 90
16
 70
0
 10
-272.2169650596
 20
-2.6896986566
 10
-272.2171782083
 20
-2.7020262777
 10
-272.217301924
 20
-2.7147492697
 10
-272.2173341419
 20
-2.7276552779
 10
-272.2172743243
 20
-2.740528893
 10
-272.2171234695
 20
-2.7531552461
 10
-272.2168840956
 20
-2.7653235955
 10
-272.2165601978
 20
-2.7768308438
 10
-272.2161571823
 20
-2.7874849277
 10
-272.2156817754
 20
-2.7971080241
 10
-272.2151419122
 20
-2.8055395172
 10
-272.2145466032
 20
-2.8126386801
 10
-272.2139057844
 20
-2.8182870234
 10
-272.2132301513
 20
-2.8223902727
 10
-272.2125309807
 20
-2.8248799421
 10
-272.2118199424
 20
-2.8257144774
  0
LWPOLYLINE
  5
2B9
100
AcDbEntity
  8
RACCORDO
100
AcDbPolyline
 62
253
  6
CONTINUOUS
 90
16
 70
0
 10
-271.6066748251
 20
-6.9617302983
 10
-271.6064616765
 20
-6.9494026772
 10
-271.6063379607
 20
-6.9366796851
 10
-271.6063057428
 20
-6.9237736769
 10
-271.6063655604
 20
-6.9109000619
 10
-271.6065164152
 20
-6.8982737088
 10
-271.6067557891
 20
-6.8861053594
 10
-271.6070796869
 20
-6.8745981111
 10
-271.6074827025
 20
-6.8639440271
 10
-271.6079581093
 20
-6.8543209308
 10
-271.6084979725
 20
-6.8458894377
 10
-271.6090932815
 20
-6.8387902747
 10
-271.6097341003
 20
-6.8331419314
 10
-271.6104097334
 20
-6.8290386822
 10
-271.611108904
 20
-6.8265490128
 10
-271.6118199424
 20
-6.8257144774
  0
LWPOLYLINE
  5
2BA
100
AcDbEntity
  8
RACCORDO
100
AcDbPolyline
 62
253
  6
CONTINUOUS
 90
19
 70
0
 10
-274.0478357735
 20
-4.5205693587
 10
-274.0466960462
 20
-4.4944699006
 10
-274.0434002213
 20
-4.4687847162
 10
-274.0379639682
 20
-4.4435837049
 10
-274.0303778895
 20
-4.4188495512
 10
-274.0206829689
 20
-4.3947377844
 10
-274.0089803664
 20
-4.3715717158
 10
-273.9952851852
 20
-4.3493926561
 10
-273.9796354651
 20
-4.3282788635
 10
-273.9621850365
 20
-4.308592192
 10
-273.9429062468
 20
-4.2903353085
 10
-273.9218939574
 20
-4.2735908689
 10
-273.8995036707
 20
-4.2588053858
 10
-273.8757379648
 20
-4.2459876356
 10
-273.8506663669
 20
-4.2351446152
 10
-273.8247561848
 20
-4.2266651304
 10
-273.7981830579
 20
-4.2206438477
 10
-273.7708231476
 20
-4.2169109583
 10
-273.7426906548
 20
-4.21542424
  0
LWPOLYLINE
  5
2BB
100
AcDbEntity
  8
RACCORDO
100
AcDbPolyline
 62
253
  6
CONTINUOUS
 90
19
 70
0
 10
-269.7758041112
 20
-5.1308595962
 10
-269.7769438386
 20
-5.1569590542
 10
-269.7802396634
 20
-5.1826442387
 10
-269.7856759165
 20
-5.2078452499
 10
-269.7932619952
 20
-5.2325794036
 10
-269.8029569158
 20
-5.2566911704
 10
-269.8146595183
 20
-5.2798572391
 10
-269.8283546995
 20
-5.3020362988
 10
-269.8440044197
 20
-5.3231500913
 10
-269.8614548482
 20
-5.3428367629
 10
-269.8807336379
 20
-5.3610936463
 10
-269.9017459273
 20
-5.377838086
 10
-269.9241362141
 20
-5.3926235691
 10
-269.9479019199
 20
-5.4054413193
 10
-269.9729735178
 20
-5.4162843397
 10
-269.9988836999
 20
-5.4247638244
 10
-270.0254568268
 20
-5.4307851072
 10
-270.0528167371
 20
-5.4345179965
 10
-270.08094923
 20
-5.4360047149
  0
LWPOLYLINE
  5
2BC
100
AcDbEntity
  8
RACCORDO
100
AcDbPolyline
 62
253
  6
CONTINUOUS
 90
19
 70
0
 10
-272.5221101798
 20
-2.994843765
 10
-272.5205088465
 20
-2.96620283
 10
-272.5166788887
 20
-2.9385046584
 10
-272.5105839479
 20
-2.9117635871
 10
-272.5020654701
 20
-2.8859157696
 10
-272.4912215204
 20
-2.8610760967
 10
-272.4784286949
 20
-2.8375308858
 10
-272.4636987413
 20
-2.8152971944
 10
-272.4470347992
 20
-2.7944288674
 10
-272.4288466761
 20
-2.7752572872
 10
-272.4092023914
 20
-2.7578617588
 10
-272.3881152254
 20
-2.7422311485
 10
-272.3659474584
 20
-2.7285443031
 10
-272.34276713
 20
-2.7168433333
 10
-272.3186247131
 20
-2.7071405293
 10
-272.2938747912
 20
-2.6995506625
 10
-272.2686837346
 20
-2.6941184122
 10
-272.2430238526
 20
-2.6908293722
 10
-272.2169650611
 20
-2.6896986463
  0
LWPOLYLINE
  5
2BD
100
AcDbEntity
  8
RACCORDO
100
AcDbPolyline
 62
253
  6
CONTINUOUS
 90
19
 70
0
 10
-271.3015297049
 20
-6.6565851898
 10
-271.3031310382
 20
-6.6852261249
 10
-271.306960996
 20
-6.7129242964
 10
-271.3130559369
 20
-6.7396653677
 10
-271.3215744146
 20
-6.7655131852
 10
-271.3324183643
 20
-6.7903528581
 10
-271.3452111898
 20
-6.813898069
 10
-271.3599411435
 20
-6.8361317604
 10
-271.3766050855
 20
-6.8570000874
 10
-271.3947932086
 20
-6.8761716676
 10
-271.4144374933
 20
-6.893567196
 10
-271.4355246593
 20
-6.9091978063
 10
-271.4576924264
 20
-6.9228846518
 10
-271.4808727547
 20
-6.9345856216
 10
-271.5050151716
 20
-6.9442884255
 10
-271.5297650935
 20
-6.9518782923
 10
-271.5549561501
 20
-6.9573105426
 10
-271.5806160321
 20
-6.9605995827
 10
-271.6066748236
 20
-6.9617303086
  0
LWPOLYLINE
  5
2BE
100
AcDbEntity
  8
RACCORDO
100
AcDbPolyline
 62
253
  6
CONTINUOUS
 90
9
 70
0
 10
-402.505391984
 20
-2.6896986463
 10
-402.5043252327
 20
-2.6908106873
 10
-402.5039960799
 20
-2.6940893239
 10
-402.5044053883
 20
-2.6995206758
 10
-402.5055565419
 20
-2.7071230537
 10
-402.5074420551
 20
-2.7168505267
 10
-402.5100436701
 20
-2.7285802158
 10
-402.5133593705
 20
-2.7422952819
 10
-402.5173757697
 20
-2.7579569601
  0
LINE
  5
2BF
100
AcDbEntity
  8
RACCORDO
100
AcDbLine
 62
253
  6
CONTINUOUS
 10
-402.7788086453
 20
-4.3170856343
 11
-402.7658056219
 21
-4.3218481498
  0
LINE
  5
2C0
100
AcDbEntity
  8
RACCORDO
100
AcDbLine
 62
253
  6
CONTINUOUS
 10
-402.589030085
 20
-6.6565837553
 11
-402.5895356982
 21
-6.6567488239
  0
LINE
  5
2C1
100
AcDbEntity
  8
RACCORDO
100
AcDbLine
 62
253
  6
CONTINUOUS
 10
-402.589034412
 20
-2.9948437867
 11
-402.5895390521
 21
-2.994679034
  0
LINE
  5
2C2
100
AcDbEntity
  8
RACCORDO
100
AcDbLine
 62
253
  6
CONTINUOUS
 10
-402.7658056219
 20
-4.3218481498
 11
-402.7522715656
 21
-4.3247431771
  0
LWPOLYLINE
  5
2C3
100
AcDbEntity
  8
RACCORDO
100
AcDbPolyline
 62
253
  6
CONTINUOUS
 90
20
 70
0
 10
403.0135715129
 20
-4.21542424
 10
403.0142140334
 20
-4.2153451807
 10
403.0148289019
 20
-4.2148926965
 10
403.0154164285
 20
-4.214072305
 10
403.0159841347
 20
-4.2129287012
 10
403.0165250282
 20
-4.2114285477
 10
403.0170178701
 20
-4.2094593113
 10
403.0174656073
 20
-4.2070232141
 10
403.0178661835
 20
-4.2041271402
 10
403.0181912713
 20
-4.2006610373
 10
403.0184430976
 20
-4.1966075087
 10
403.0186203423
 20
-4.1919851781
 10
403.0186895462
 20
-4.1867278022
 10
403.0186486684
 20
-4.1807788496
 10
403.0184998156
 20
-4.1741807119
 10
403.0182154108
 20
-4.1669999507
 10
403.0177841321
 20
-4.1591398599
 10
403.0172151832
 20
-4.1506648334
 10
403.01651115
 20
-4.1418703049
 10
403.0156714969
 20
-4.1328415483
  0
LINE
  5
2C4
100
AcDbEntity
  8
RACCORDO
100
AcDbLine
 62
253
  6
CONTINUOUS
 10
403.0135714991
 20
-4.113709202
 11
403.0140984715
 21
-4.1136451316
  0
LINE
  5
2C5
100
AcDbEntity
  8
ASSI
100
AcDbLine
 62
7
  6
CONTINUOUS
 10
-385.4328768265
 20
-55.3257144774
 11
-384.9114628086
 21
-55.3257144774
  0
LINE
  5
2C6
100
AcDbEntity
  8
0
100
AcDbLine
 62
7
  6
CONTINUOUS
 10
-283.9468171908
 20
-55.3257144774
 11
-384.9114628086
 21
-55.3257144774
  0
LINE
  5
2C7
100
AcDbEntity
  8
0
100
AcDbLine
 62
7
  6
CONTINUOUS
 10
284.1231773061
 20
-55.3257144774
 11
397.0881800576
 21
-55.3257144774
  0
LINE
  5
2C8
100
AcDbEntity
  8
0
100
AcDbLine
 62
7
  6
CONTINUOUS
 10
-385.4328768265
 20
-55.3257144774
 11
-396.9118199424
 21
-55.3257144774
  0
LINE
  5
2C9
100
AcDbEntity
  8
0
100
AcDbLine
 62
7
  6
CONTINUOUS
 10
278.5881800576
 20
-54.8257144774
 11
-278.4118199424
 21
-54.8257144774
  0
LINE
  5
2CA
100
AcDbEntity
  8
0
100
AcDbLine
 62
7
  6
CONTINUOUS
 10
397.0881800576
 20
-52.8257144774
 11
385.6092369418
 21
-52.8257144774
  0
LINE
  5
2CB
100
AcDbEntity
  8
0
100
AcDbLine
 62
7
  6
CONTINUOUS
 10
385.0878229239
 20
-52.8257144774
 11
374.410510528
 21
-52.8257144774
  0
LINE
  5
2CC
100
AcDbEntity
  8
0
100
AcDbLine
 62
7
  6
CONTINUOUS
 10
-374.2341504127
 20
-52.8257144774
 11
-384.9114628086
 21
-52.8257144774
  0
LINE
  5
2CD
100
AcDbEntity
  8
0
100
AcDbLine
 62
7
  6
CONTINUOUS
 10
-385.4328768265
 20
-52.8257144774
 11
-396.9118199424
 21
-52.8257144774
  0
LINE
  5
2CE
100
AcDbEntity
  8
0
100
AcDbLine
 62
7
  6
CONTINUOUS
 10
-399.9118199424
 20
-52.3257144774
 11
-374.2341504127
 21
-52.3257144774
  0
LINE
  5
2CF
100
AcDbEntity
  8
0
100
AcDbLine
 62
253
  6
CONTINUOUS
 10
284.1231773061
 20
-52.3257144774
 11
374.410510528
 21
-52.3257144774
  0
LINE
  5
2D0
100
AcDbEntity
  8
0
100
AcDbLine
 62
253
  6
CONTINUOUS
 10
-283.9468171908
 20
-52.3257144774
 11
-374.2341504127
 21
-52.3257144774
  0
LINE
  5
2D1
100
AcDbEntity
  8
0
100
AcDbLine
 62
7
  6
CONTINUOUS
 10
374.410510528
 20
-52.3257144774
 11
400.0881800576
 21
-52.3257144774
  0
LINE
  5
2D2
100
AcDbEntity
  8
0
100
AcDbLine
 62
253
  6
CONTINUOUS
 10
278.5881800576
 20
-50.8257144774
 11
-278.4118199424
 21
-50.8257144774
  0
LINE
  5
2D3
100
AcDbEntity
  8
RACCORDO
100
AcDbLine
 62
253
  6
CONTINUOUS
 10
-402.8372113001
 20
-4.1137092122
 11
-402.8377376684
 21
-4.1136452709
  0
LWPOLYLINE
  5
2D4
100
AcDbEntity
  8
RACCORDO
100
AcDbPolyline
 62
253
  6
CONTINUOUS
 90
10
 70
0
 10
-402.5890344784
 20
-4.21542424
 10
-402.5798831533
 20
-4.2169432935
 10
-402.5710926975
 20
-4.2207097777
 10
-402.5626816265
 20
-4.2267646152
 10
-402.5546358511
 20
-4.2352752401
 10
-402.5470026777
 20
-4.246145954
 10
-402.5398940545
 20
-4.2589900827
 10
-402.5333340112
 20
-4.2738049058
 10
-402.5273309455
 20
-4.2905775953
 10
-402.5219758275
 20
-4.308852518
  0
LINE
  5
2D5
100
AcDbEntity
  8
RACCORDO
100
AcDbLine
 62
253
  6
CONTINUOUS
 10
402.6817441587
 20
-4.5205697972
 11
402.688448071
 21
-4.5201996458
  0
LWPOLYLINE
  5
2D6
100
AcDbEntity
  8
RACCORDO
100
AcDbPolyline
 62
7
  6
CONTINUOUS
 90
15
 70
0
 10
402.9148291323
 20
-4.3257142623
 10
402.9259121358
 20
-4.3251072676
 10
402.9384744842
 20
-4.322920698
 10
402.9502047893
 20
-4.3193477599
 10
402.9609361513
 20
-4.3146350499
 10
402.9706464995
 20
-4.308989075
 10
402.9794262468
 20
-4.3025169534
 10
402.987259329
 20
-4.2953595077
 10
402.9941148496
 20
-4.2876819146
 10
403.0000608371
 20
-4.2795400015
 10
403.0052081827
 20
-4.2708511026
 10
403.009456806
 20
-4.2618619283
 10
403.0127039222
 20
-4.2530954245
 10
403.0150857866
 20
-4.2447480896
 10
403.0168280694
 20
-4.2366315588
  0
LWPOLYLINE
  5
2D7
100
AcDbEntity
  8
RACCORDO
100
AcDbPolyline
 62
7
  6
CONTINUOUS
 90
11
 70
0
 10
402.9148247206
 20
-4.3257143933
 10
402.9243941969
 20
-4.3252624699
 10
402.9371264888
 20
-4.3232338209
 10
402.9490324097
 20
-4.3197753736
 10
402.9599368417
 20
-4.315137399
 10
402.9698124087
 20
-4.3095317997
 10
402.9787469989
 20
-4.3030711804
 10
402.9867207962
 20
-4.2959013896
 10
402.9937010244
 20
-4.2881914649
 10
402.9997567912
 20
-4.2799988556
 10
403.0049998588
 20
-4.2712416587
  0
LINE
  5
2D8
100
AcDbEntity
  8
0
100
AcDbLine
 62
7
  6
CONTINUOUS
 10
286.1231773061
 20
-47.3257144774
 11
284.1231773061
 21
-47.3257144774
  0
LINE
  5
2D9
100
AcDbEntity
  8
0
100
AcDbLine
 62
7
  6
CONTINUOUS
 10
-283.9468171908
 20
-47.3257144774
 11
-285.9468171908
 21
-47.3257144774
  0
LINE
  5
2DA
100
AcDbEntity
  8
0
100
AcDbLine
 62
7
  6
CONTINUOUS
 10
284.1231773061
 20
-45.3257144774
 11
286.1231773061
 21
-45.3257144774
  0
LINE
  5
2DB
100
AcDbEntity
  8
0
100
AcDbLine
 62
7
  6
CONTINUOUS
 10
-283.9468171908
 20
-45.3257144774
 11
-285.9468171908
 21
-45.3257144774
  0
LINE
  5
2DC
100
AcDbEntity
  8
0
100
AcDbLine
 62
7
  6
CONTINUOUS
 10
278.5881800576
 20
-44.8257144774
 11
286.1231773061
 21
-44.8257144774
  0
LINE
  5
2DD
100
AcDbEntity
  8
0
100
AcDbLine
 62
7
  6
CONTINUOUS
 10
-278.4118199424
 20
-44.8257144774
 11
-285.9468171908
 21
-44.8257144774
  0
LINE
  5
2DE
100
AcDbEntity
  8
RACCORDO
100
AcDbLine
 62
253
  6
CONTINUOUS
 10
-402.505391979
 20
-4.520569359
 11
-402.512092644
 21
-4.5201992376
  0
LINE
  5
2DF
100
AcDbEntity
  8
RACCORDO
100
AcDbLine
 62
253
  6
CONTINUOUS
 10
-402.7522715656
 20
-4.3247431771
 11
-402.7384693886
 21
-4.3257144774
  0
LWPOLYLINE
  5
2E0
100
AcDbEntity
  8
RACCORDO
100
AcDbPolyline
 62
253
  6
CONTINUOUS
 90
11
 70
0
 10
403.0135715129
 20
-5.4360047149
 10
403.0054851338
 20
-5.4361995901
 10
402.9963809025
 20
-5.4361747528
 10
402.9861677327
 20
-5.436004715
 10
402.9746333615
 20
-5.4360904334
 10
402.9617786309
 20
-5.4362706774
 10
402.947880312
 20
-5.4360047158
 10
402.9330198027
 20
-5.4357901633
 10
402.9170221968
 20
-5.4360184438
 10
402.8998349977
 20
-5.4360047147
 10
402.8814991001
 20
-5.4358105512
  0
LWPOLYLINE
  5
2E1
100
AcDbEntity
  8
RACCORDO
100
AcDbPolyline
 62
253
  6
CONTINUOUS
 90
16
 70
0
 10
274.2241928177
 20
-5.1308591577
 10
274.2118651409
 20
-5.1310723125
 10
274.1991418927
 20
-5.1311960394
 10
274.186235464
 20
-5.1312282728
 10
274.1733613035
 20
-5.1311684742
 10
274.1607343211
 20
-5.1310176414
 10
274.1485653007
 20
-5.1307782919
 10
274.1370573813
 20
-5.1304544209
 10
274.126402666
 20
-5.1300514342
 10
274.1167790153
 20
-5.1295760585
 10
274.1083470782
 20
-5.1290362288
 10
274.1012476101
 20
-5.1284409561
 10
274.0955991232
 20
-5.1278001768
 10
274.0914959086
 20
-5.127124587
 10
274.0890064617
 20
-5.1264254639
 10
274.0881723393
 20
-5.1257144776
  0
LWPOLYLINE
  5
2E2
100
AcDbEntity
  8
RACCORDO
100
AcDbPolyline
 62
253
  6
CONTINUOUS
 90
16
 70
0
 10
269.9521672976
 20
-4.5205697972
 10
269.9644949744
 20
-4.5203566424
 10
269.9772182226
 20
-4.5202329154
 10
269.9901246513
 20
-4.5202006821
 10
270.0029988118
 20
-4.5202604807
 10
270.0156257941
 20
-4.5204113134
 10
270.0277948146
 20
-4.5206506629
 10
270.039302734
 20
-4.5209745339
 10
270.0499574493
 20
-4.5213775206
 10
270.0595811
 20
-4.5218528963
 10
270.0680130371
 20
-4.522392726
 10
270.0751125052
 20
-4.5229879987
 10
270.0807609921
 20
-4.523628778
 10
270.0848642067
 20
-4.5243043678
 10
270.0873536536
 20
-4.5250034909
 10
270.088187776
 20
-4.5257144772
  0
LWPOLYLINE
  5
2E3
100
AcDbEntity
  8
RACCORDO
100
AcDbPolyline
 62
253
  6
CONTINUOUS
 90
16
 70
0
 10
-269.7758071823
 20
-5.1308591577
 10
-269.7881348591
 20
-5.1310723125
 10
-269.8008581073
 20
-5.1311960394
 10
-269.813764536
 20
-5.1312282728
 10
-269.8266386965
 20
-5.1311684742
 10
-269.8392656789
 20
-5.1310176414
 10
-269.8514346993
 20
-5.1307782919
 10
-269.8629426187
 20
-5.1304544209
 10
-269.873597334
 20
-5.1300514342
 10
-269.8832209847
 20
-5.1295760585
 10
-269.8916529218
 20
-5.1290362288
 10
-269.8987523899
 20
-5.1284409561
 10
-269.9044008768
 20
-5.1278001768
 10
-269.9085040914
 20
-5.127124587
 10
-269.9109935383
 20
-5.1264254639
 10
-269.9118276607
 20
-5.1257144776
  0
LWPOLYLINE
  5
2E4
100
AcDbEntity
  8
RACCORDO
100
AcDbPolyline
 62
253
  6
CONTINUOUS
 90
16
 70
0
 10
-274.0478327024
 20
-4.5205697972
 10
-274.0355050256
 20
-4.5203566424
 10
-274.0227817774
 20
-4.5202329154
 10
-274.0098753487
 20
-4.5202006821
 10
-273.9970011882
 20
-4.5202604807
 10
-273.9843742059
 20
-4.5204113134
 10
-273.9722051854
 20
-4.5206506629
 10
-273.960697266
 20
-4.5209745339
 10
-273.9500425507
 20
-4.5213775206
 10
-273.9404189
 20
-4.5218528963
 10
-273.9319869629
 20
-4.522392726
 10
-273.9248874948
 20
-4.5229879987
 10
-273.9192390079
 20
-4.523628778
 10
-273.9151357933
 20
-4.5243043678
 10
-273.9126463464
 20
-4.5250034909
 10
-273.911812224
 20
-4.5257144772
  0
LWPOLYLINE
  5
2E5
100
AcDbEntity
  8
RACCORDO
100
AcDbPolyline
 62
253
  6
CONTINUOUS
 90
22
 70
0
 10
272.8001853347
 20
-5.4360047149
 10
272.7948123456
 20
-5.4360837741
 10
272.7893033813
 20
-5.4365362583
 10
272.7836567955
 20
-5.4373566498
 10
272.7778437856
 20
-5.4385002536
 10
272.7718885054
 20
-5.4400004072
 10
272.7658662224
 20
-5.4419696436
 10
272.7597474484
 20
-5.4444057407
 10
272.7535490261
 20
-5.4473018147
 10
272.7474102513
 20
-5.4507679175
 10
272.7412871027
 20
-5.4548214462
 10
272.735199269
 20
-5.4594437767
 10
272.7293754036
 20
-5.4647011527
 10
272.7237685017
 20
-5.4706501053
 10
272.718388981
 20
-5.4772482429
 10
272.7135507236
 20
-5.4844290041
 10
272.7092490327
 20
-5.4922890949
 10
272.7054519206
 20
-5.5007641214
 10
272.7024472795
 20
-5.5095586499
 10
272.7003342002
 20
-5.5185874065
 10
272.6990091438
 20
-5.5279699636
 10
272.6984702951
 20
-5.5377197545
  0
LWPOLYLINE
  5
2E6
100
AcDbEntity
  8
RACCORDO
100
AcDbPolyline
 62
253
  6
CONTINUOUS
 90
22
 70
0
 10
271.3761747806
 20
-4.21542424
 10
271.3815477697
 20
-4.2153451807
 10
271.387056734
 20
-4.2148926965
 10
271.3927033198
 20
-4.214072305
 10
271.3985163297
 20
-4.2129287012
 10
271.4044716099
 20
-4.2114285477
 10
271.4104938929
 20
-4.2094593113
 10
271.4166126669
 20
-4.2070232141
 10
271.4228110891
 20
-4.2041271402
 10
271.428949864
 20
-4.2006610373
 10
271.4350730126
 20
-4.1966075087
 10
271.4411608463
 20
-4.1919851781
 10
271.4469847116
 20
-4.1867278022
 10
271.4525916136
 20
-4.1807788496
 10
271.4579711343
 20
-4.1741807119
 10
271.4628093917
 20
-4.1669999507
 10
271.4671110826
 20
-4.1591398599
 10
271.4709081946
 20
-4.1506648334
 10
271.4739128358
 20
-4.1418703049
 10
271.476025915
 20
-4.1328415483
 10
271.4773509715
 20
-4.1234589912
 10
271.4778898202
 20
-4.1137092004
  0
LWPOLYLINE
  5
2E7
100
AcDbEntity
  8
RACCORDO
100
AcDbPolyline
 62
253
  6
CONTINUOUS
 90
22
 70
0
 10
-271.1998146653
 20
-5.4360047149
 10
-271.2051876544
 20
-5.4360837741
 10
-271.2106966187
 20
-5.4365362583
 10
-271.2163432045
 20
-5.4373566498
 10
-271.2221562144
 20
-5.4385002536
 10
-271.2281114946
 20
-5.4400004072
 10
-271.2341337776
 20
-5.4419696436
 10
-271.2402525516
 20
-5.4444057407
 10
-271.2464509739
 20
-5.4473018147
 10
-271.2525897487
 20
-5.4507679175
 10
-271.2587128973
 20
-5.4548214462
 10
-271.264800731
 20
-5.4594437767
 10
-271.2706245964
 20
-5.4647011527
 10
-271.2762314983
 20
-5.4706501053
 10
-271.281611019
 20
-5.4772482429
 10
-271.2864492764
 20
-5.4844290041
 10
-271.2907509673
 20
-5.4922890949
 10
-271.2945480794
 20
-5.5007641214
 10
-271.2975527205
 20
-5.5095586499
 10
-271.2996657998
 20
-5.5185874065
 10
-271.3009908562
 20
-5.5279699636
 10
-271.3015297049
 20
-5.5377197545
  0
LWPOLYLINE
  5
2E8
100
AcDbEntity
  8
RACCORDO
100
AcDbPolyline
 62
253
  6
CONTINUOUS
 90
22
 70
0
 10
-272.6238252194
 20
-4.21542424
 10
-272.6184522303
 20
-4.2153451807
 10
-272.612943266
 20
-4.2148926965
 10
-272.6072966802
 20
-4.214072305
 10
-272.6014836703
 20
-4.2129287012
 10
-272.5955283901
 20
-4.2114285477
 10
-272.5895061071
 20
-4.2094593113
 10
-272.5833873331
 20
-4.2070232141
 10
-272.5771889109
 20
-4.2041271402
 10
-272.571050136
 20
-4.2006610373
 10
-272.5649269874
 20
-4.1966075087
 10
-272.5588391537
 20
-4.1919851781
 10
-272.5530152884
 20
-4.1867278022
 10
-272.5474083864
 20
-4.1807788496
 10
-272.5420288657
 20
-4.1741807119
 10
-272.5371906083
 20
-4.1669999507
 10
-272.5328889174
 20
-4.1591398599
 10
-272.5290918054
 20
-4.1506648334
 10
-272.5260871642
 20
-4.1418703049
 10
-272.523974085
 20
-4.1328415483
 10
-272.5226490285
 20
-4.1234589912
 10
-272.5221101798
 20
-4.1137092004
  0
LWPOLYLINE
  5
2E9
100
AcDbEntity
  8
RACCORDO
100
AcDbPolyline
 62
253
  6
CONTINUOUS
 90
13
 70
0
 10
272.6984698165
 20
-6.6565837553
 10
272.6845395047
 20
-6.6567283648
 10
272.6706797245
 20
-6.6562704265
 10
272.6571597493
 20
-6.6552188375
 10
272.6442422504
 20
-6.6535940286
 10
272.6321781942
 20
-6.6514275672
 10
272.6212019657
 20
-6.6487615443
 10
272.6115268154
 20
-6.6456477565
 10
272.6033407161
 20
-6.6421466997
 10
272.5968027104
 20
-6.6383263942
 10
272.5920398213
 20
-6.6342610622
 10
272.5891445842
 20
-6.6300296869
 10
272.5881732488
 20
-6.625714477
  0
LWPOLYLINE
  5
2EA
100
AcDbEntity
  8
RACCORDO
100
AcDbPolyline
 62
253
  6
CONTINUOUS
 90
13
 70
0
 10
271.4778902988
 20
-2.9948451995
 10
271.4918206106
 20
-2.99470059
 10
271.5056803908
 20
-2.9951585283
 10
271.519200366
 20
-2.9962101173
 10
271.5321178648
 20
-2.9978349263
 10
271.5441819211
 20
-3.0000013877
 10
271.5551581496
 20
-3.0026674106
 10
271.5648332999
 20
-3.0057811984
 10
271.5730193992
 20
-3.0092822551
 10
271.5795574049
 20
-3.0131025607
 10
271.5843202939
 20
-3.0171678926
 10
271.5872155311
 20
-3.021399268
 10
271.5881868665
 20
-3.0257144778
  0
LWPOLYLINE
  5
2EB
100
AcDbEntity
  8
RACCORDO
100
AcDbPolyline
 62
253
  6
CONTINUOUS
 90
13
 70
0
 10
-271.3015301835
 20
-6.6565837553
 10
-271.3154604953
 20
-6.6567283648
 10
-271.3293202755
 20
-6.6562704265
 10
-271.3428402507
 20
-6.6552188375
 10
-271.3557577496
 20
-6.6535940286
 10
-271.3678218058
 20
-6.6514275672
 10
-271.3787980343
 20
-6.6487615443
 10
-271.3884731846
 20
-6.6456477565
 10
-271.3966592839
 20
-6.6421466997
 10
-271.4031972896
 20
-6.6383263942
 10
-271.4079601787
 20
-6.6342610622
 10
-271.4108554158
 20
-6.6300296869
 10
-271.4118267512
 20
-6.625714477
  0
LWPOLYLINE
  5
2EC
100
AcDbEntity
  8
RACCORDO
100
AcDbPolyline
 62
253
  6
CONTINUOUS
 90
13
 70
0
 10
-272.5221097012
 20
-2.9948451995
 10
-272.5081793894
 20
-2.99470059
 10
-272.4943196092
 20
-2.9951585283
 10
-272.480799634
 20
-2.9962101173
 10
-272.4678821352
 20
-2.9978349263
 10
-272.4558180789
 20
-3.0000013877
 10
-272.4448418504
 20
-3.0026674106
 10
-272.4351667001
 20
-3.0057811984
 10
-272.4269806008
 20
-3.0092822551
 10
-272.4204425951
 20
-3.0131025607
 10
-272.4156797061
 20
-3.0171678926
 10
-272.4127844689
 20
-3.021399268
 10
-272.4118131335
 20
-3.0257144778
  0
LWPOLYLINE
  5
2ED
100
AcDbEntity
  8
RACCORDO
100
AcDbPolyline
 62
253
  6
CONTINUOUS
 90
13
 70
0
 10
272.6984702937
 20
-5.5377197528
 10
272.6845403367
 20
-5.5377758262
 10
272.6706810849
 20
-5.5375975964
 10
272.6571617672
 20
-5.5371885256
 10
272.6442450095
 20
-5.5365565604
 10
272.632181732
 20
-5.5357139773
 10
272.6212062755
 20
-5.5346771443
 10
272.6115318486
 20
-5.5334662029
 10
272.6033463864
 20
-5.5321046767
 10
272.5968088992
 20
-5.530619015
 10
272.5920463841
 20
-5.529038078
 10
272.5891513573
 20
-5.527392577
 10
272.5881800576
 20
-5.5257144774
  0
LWPOLYLINE
  5
2EE
100
AcDbEntity
  8
RACCORDO
100
AcDbPolyline
 62
253
  6
CONTINUOUS
 90
13
 70
0
 10
271.4778898216
 20
-4.113709202
 10
271.4918197786
 20
-4.1136531286
 10
271.5056790304
 20
-4.1138313584
 10
271.5191983481
 20
-4.1142404292
 10
271.5321151058
 20
-4.1148723945
 10
271.5441783832
 20
-4.1157149776
 10
271.5551538398
 20
-4.1167518106
 10
271.5648282666
 20
-4.117962752
 10
271.5730137289
 20
-4.1193242781
 10
271.579551216
 20
-4.1208099399
 10
271.5843137312
 20
-4.1223908768
 10
271.587208758
 20
-4.1240363778
 10
271.5881800576
 20
-4.1257144774
  0
LWPOLYLINE
  5
2EF
100
AcDbEntity
  8
RACCORDO
100
AcDbPolyline
 62
253
  6
CONTINUOUS
 90
13
 70
0
 10
-271.3015297063
 20
-5.5377197528
 10
-271.3154596633
 20
-5.5377758262
 10
-271.3293189151
 20
-5.5375975964
 10
-271.3428382328
 20
-5.5371885256
 10
-271.3557549905
 20
-5.5365565604
 10
-271.367818268
 20
-5.5357139773
 10
-271.3787937245
 20
-5.5346771443
 10
-271.3884681514
 20
-5.5334662029
 10
-271.3966536136
 20
-5.5321046767
 10
-271.4031911008
 20
-5.530619015
 10
-271.4079536159
 20
-5.529038078
 10
-271.4108486427
 20
-5.527392577
 10
-271.4118199424
 20
-5.5257144774
  0
LWPOLYLINE
  5
2F0
100
AcDbEntity
  8
RACCORDO
100
AcDbPolyline
 62
253
  6
CONTINUOUS
 90
13
 70
0
 10
-272.5221101784
 20
-4.113709202
 10
-272.5081802214
 20
-4.1136531286
 10
-272.4943209696
 20
-4.1138313584
 10
-272.4808016519
 20
-4.1142404292
 10
-272.4678848942
 20
-4.1148723945
 10
-272.4558216168
 20
-4.1157149776
 10
-272.4448461602
 20
-4.1167518106
 10
-272.4351717334
 20
-4.117962752
 10
-272.4269862711
 20
-4.1193242781
 10
-272.420448784
 20
-4.1208099399
 10
-272.4156862688
 20
-4.1223908768
 10
-272.412791242
 20
-4.1240363778
 10
-272.4118199424
 20
-4.1257144774
  0
LWPOLYLINE
  5
2F1
100
AcDbEntity
  8
RACCORDO
100
AcDbPolyline
 62
253
  6
CONTINUOUS
 90
5
 70
0
 10
402.8814991001
 20
-5.4358105512
 10
402.8405821955
 20
-5.4360047135
 10
402.8174248119
 20
-5.435848452
 10
402.7923970264
 20
-5.4358026613
 10
402.7653945937
 20
-5.4360047149
  0
LINE
  5
2F2
100
AcDbEntity
  8
RACCORDO
100
AcDbLine
 62
253
  6
CONTINUOUS
 10
-402.505391984
 20
-6.9617303086
 11
-402.5138031559
 21
-6.9617561573
  0
LINE
  5
2F3
100
AcDbEntity
  8
RACCORDO
100
AcDbLine
 62
253
  6
CONTINUOUS
 10
402.6817520993
 20
-2.6896986463
 11
402.6901632712
 21
-2.6896727975
  0
LWPOLYLINE
  5
2F4
100
AcDbEntity
  8
RACCORDO
100
AcDbPolyline
 62
253
  6
CONTINUOUS
 90
5
 70
0
 10
-402.7051389848
 20
-4.2156184036
 10
-402.6642220802
 20
-4.2154242413
 10
-402.6410646966
 20
-4.2155805028
 10
-402.6160369111
 20
-4.2156262935
 10
-402.5890344784
 20
-4.21542424
  0
LWPOLYLINE
  5
2F5
100
AcDbEntity
  8
RACCORDO
100
AcDbPolyline
 62
253
  6
CONTINUOUS
 90
3
 70
0
 10
273.0022734165
 20
-5.4360047148
 10
272.8651986371
 20
-5.4362481464
 10
272.8001853347
 20
-5.4360047149
  0
LWPOLYLINE
  5
2F6
100
AcDbEntity
  8
RACCORDO
100
AcDbPolyline
 62
253
  6
CONTINUOUS
 90
3
 70
0
 10
-270.9977265835
 20
-5.4360047148
 10
-271.1348013629
 20
-5.4362481464
 10
-271.1998146653
 20
-5.4360047149
  0
LWPOLYLINE
  5
2F7
100
AcDbEntity
  8
RACCORDO
100
AcDbPolyline
 62
253
  6
CONTINUOUS
 90
3
 70
0
 10
271.1740866988
 20
-4.2154242401
 10
271.3111614782
 20
-4.2151808084
 10
271.3761747806
 20
-4.21542424
  0
LWPOLYLINE
  5
2F8
100
AcDbEntity
  8
RACCORDO
100
AcDbPolyline
 62
253
  6
CONTINUOUS
 90
3
 70
0
 10
-272.8259133012
 20
-4.2154242401
 10
-272.6888385218
 20
-4.2151808084
 10
-272.6238252194
 20
-4.21542424
  0
LINE
  5
2F9
100
AcDbEntity
  8
RACCORDO
100
AcDbLine
 62
253
  6
CONTINUOUS
 10
272.3933251764
 20
-6.9617303086
 11
271.7830349389
 21
-6.9617303086
  0
LINE
  5
2FA
100
AcDbEntity
  8
RACCORDO
100
AcDbLine
 62
253
  6
CONTINUOUS
 10
-271.6066748236
 20
-6.9617303086
 11
-272.2169650611
 21
-6.9617303086
  0
LINE
  5
2FB
100
AcDbEntity
  8
RACCORDO
100
AcDbLine
 62
7
  6
CONTINUOUS
 10
272.3881800576
 20
-6.8257144774
 11
271.7881800576
 21
-6.8257144774
  0
LINE
  5
2FC
100
AcDbEntity
  8
RACCORDO
100
AcDbLine
 62
7
  6
CONTINUOUS
 10
-271.6118199424
 20
-6.8257144774
 11
-272.2118199424
 21
-6.8257144774
  0
LINE
  5
2FD
100
AcDbEntity
  8
RACCORDO
100
AcDbLine
 62
7
  6
CONTINUOUS
 10
402.9148295039
 20
-5.3257144774
 11
402.7069235402
 21
-5.3257144774
  0
LINE
  5
2FE
100
AcDbEntity
  8
RACCORDO
100
AcDbLine
 62
7
  6
CONTINUOUS
 10
273.8881800576
 20
-5.3257144774
 11
272.7881800576
 21
-5.3257144774
  0
LINE
  5
2FF
100
AcDbEntity
  8
RACCORDO
100
AcDbLine
 62
7
  6
CONTINUOUS
 10
271.3881800576
 20
-5.3257144774
 11
270.2881800576
 21
-5.3257144774
  0
LINE
  5
300
100
AcDbEntity
  8
RACCORDO
100
AcDbLine
 62
7
  6
CONTINUOUS
 10
-270.1118199424
 20
-5.3257144774
 11
-271.2118199424
 21
-5.3257144774
  0
LINE
  5
301
100
AcDbEntity
  8
RACCORDO
100
AcDbLine
 62
7
  6
CONTINUOUS
 10
-272.6118199424
 20
-5.3257144774
 11
-273.7118199424
 21
-5.3257144774
  0
LINE
  5
302
100
AcDbEntity
  8
RACCORDO
100
AcDbLine
 62
7
  6
CONTINUOUS
 10
-402.5305539445
 20
-5.3257144774
 11
-402.7384693886
 21
-5.3257144774
  0
LINE
  5
303
100
AcDbEntity
  8
RACCORDO
100
AcDbLine
 62
7
  6
CONTINUOUS
 10
-402.7384693886
 20
-4.3257144774
 11
-402.5305634249
 21
-4.3257144774
  0
LINE
  5
304
100
AcDbEntity
  8
RACCORDO
100
AcDbLine
 62
7
  6
CONTINUOUS
 10
-273.7118199424
 20
-4.3257144774
 11
-272.6118199424
 21
-4.3257144774
  0
LINE
  5
305
100
AcDbEntity
  8
RACCORDO
100
AcDbLine
 62
7
  6
CONTINUOUS
 10
-271.2118199424
 20
-4.3257144774
 11
-270.1118199424
 21
-4.3257144774
  0
LINE
  5
306
100
AcDbEntity
  8
RACCORDO
100
AcDbLine
 62
7
  6
CONTINUOUS
 10
270.2881800576
 20
-4.3257144774
 11
271.3881800576
 21
-4.3257144774
  0
LINE
  5
307
100
AcDbEntity
  8
RACCORDO
100
AcDbLine
 62
7
  6
CONTINUOUS
 10
272.7881800576
 20
-4.3257144774
 11
273.8881800576
 21
-4.3257144774
  0
LINE
  5
308
100
AcDbEntity
  8
RACCORDO
100
AcDbLine
 62
7
  6
CONTINUOUS
 10
402.7069140598
 20
-4.3257144774
 11
402.9148295039
 21
-4.3257144774
  0
LINE
  5
309
100
AcDbEntity
  8
RACCORDO
100
AcDbLine
 62
7
  6
CONTINUOUS
 10
-272.2118199424
 20
-2.8257144774
 11
-271.6118199424
 21
-2.8257144774
  0
LINE
  5
30A
100
AcDbEntity
  8
RACCORDO
100
AcDbLine
 62
7
  6
CONTINUOUS
 10
271.7881800576
 20
-2.8257144774
 11
272.3881800576
 21
-2.8257144774
  0
LINE
  5
30B
100
AcDbEntity
  8
RACCORDO
100
AcDbLine
 62
253
  6
CONTINUOUS
 10
-272.2169650611
 20
-2.6896986463
 11
-271.6066748236
 21
-2.6896986463
  0
LINE
  5
30C
100
AcDbEntity
  8
RACCORDO
100
AcDbLine
 62
253
  6
CONTINUOUS
 10
271.7830349389
 20
-2.6896986463
 11
272.3933251764
 21
-2.6896986463
  0
LWPOLYLINE
  5
30D
100
AcDbEntity
  8
RACCORDO
100
AcDbPolyline
 62
253
  6
CONTINUOUS
 90
3
 70
0
 10
-273.1135571368
 20
-5.4357901633
 10
-273.2631652486
 20
-5.4360047147
 10
-273.3389218622
 20
-5.4358105512
  0
LWPOLYLINE
  5
30E
100
AcDbEntity
  8
RACCORDO
100
AcDbPolyline
 62
253
  6
CONTINUOUS
 90
4
 70
0
 10
-270.4771830145
 20
-5.4357845037
 10
-270.6266299876
 20
-5.4359967062
 10
-270.7007504976
 20
-5.4357285989
 10
-270.850088035
 20
-5.4363336252
  0
LWPOLYLINE
  5
30F
100
AcDbEntity
  8
RACCORDO
100
AcDbPolyline
 62
253
  6
CONTINUOUS
 90
4
 70
0
 10
273.5228169855
 20
-5.4357845037
 10
273.3733700124
 20
-5.4359967062
 10
273.2992495024
 20
-5.4357285989
 10
273.149911965
 20
-5.4363336252
  0
LWPOLYLINE
  5
310
100
AcDbEntity
  8
RACCORDO
100
AcDbPolyline
 62
253
  6
CONTINUOUS
 90
3
 70
0
 10
270.8864428632
 20
-5.4357901633
 10
270.7368347514
 20
-5.4360047147
 10
270.6610781378
 20
-5.4358105512
  0
LWPOLYLINE
  5
311
100
AcDbEntity
  8
RACCORDO
100
AcDbPolyline
 62
253
  6
CONTINUOUS
 90
3
 70
0
 10
-270.710082748
 20
-4.2156387916
 10
-270.5604746361
 20
-4.2154242401
 10
-270.4847180225
 20
-4.2156184036
  0
LWPOLYLINE
  5
312
100
AcDbEntity
  8
RACCORDO
100
AcDbPolyline
 62
253
  6
CONTINUOUS
 90
4
 70
0
 10
-273.3464568702
 20
-4.2156444511
 10
-273.1970098971
 20
-4.2154322486
 10
-273.1228893871
 20
-4.2157003559
 10
-272.9735518498
 20
-4.2150953297
  0
LWPOLYLINE
  5
313
100
AcDbEntity
  8
RACCORDO
100
AcDbPolyline
 62
253
  6
CONTINUOUS
 90
4
 70
0
 10
270.6535431298
 20
-4.2156444511
 10
270.8029901029
 20
-4.2154322486
 10
270.8771106129
 20
-4.2157003559
 10
271.0264481502
 20
-4.2150953297
  0
LWPOLYLINE
  5
314
100
AcDbEntity
  8
RACCORDO
100
AcDbPolyline
 62
253
  6
CONTINUOUS
 90
3
 70
0
 10
273.289917252
 20
-4.2156387916
 10
273.4395253639
 20
-4.2154242401
 10
273.5152819775
 20
-4.2156184036
  0
LWPOLYLINE
  5
315
100
AcDbEntity
  8
RACCORDO
100
AcDbPolyline
 62
253
  6
CONTINUOUS
 90
4
 70
0
 10
-272.6238252194
 20
-5.4360047149
 10
-272.7531227279
 20
-5.4361747528
 10
-272.8213046468
 20
-5.436004715
 10
-272.9656506643
 20
-5.4362706774
  0
LWPOLYLINE
  5
316
100
AcDbEntity
  8
RACCORDO
100
AcDbPolyline
 62
253
  6
CONTINUOUS
 90
4
 70
0
 10
271.3761747806
 20
-5.4360047149
 10
271.2468772721
 20
-5.4361747528
 10
271.1786953532
 20
-5.436004715
 10
271.0343493357
 20
-5.4362706774
  0
LWPOLYLINE
  5
317
100
AcDbEntity
  8
RACCORDO
100
AcDbPolyline
 62
253
  6
CONTINUOUS
 90
4
 70
0
 10
-271.1998146653
 20
-4.21542424
 10
-271.0705171568
 20
-4.215254202
 10
-271.0023352379
 20
-4.2154242399
 10
-270.8579892204
 20
-4.2151582775
  0
LWPOLYLINE
  5
318
100
AcDbEntity
  8
RACCORDO
100
AcDbPolyline
 62
253
  6
CONTINUOUS
 90
4
 70
0
 10
272.8001853347
 20
-4.21542424
 10
272.9294828432
 20
-4.215254202
 10
272.9976647621
 20
-4.2154242399
 10
273.1420107796
 20
-4.2151582775
  0
LINE
  5
319
100
AcDbEntity
  8
RACCORDO
100
AcDbLine
 62
253
  6
CONTINUOUS
 10
-273.3389218622
 20
-5.4358105512
 11
-273.7426906548
 21
-5.4360047149
  0
LINE
  5
31A
100
AcDbEntity
  8
RACCORDO
100
AcDbLine
 62
253
  6
CONTINUOUS
 10
270.6610781378
 20
-5.4358105512
 11
270.2573093452
 21
-5.4360047149
  0
LINE
  5
31B
100
AcDbEntity
  8
RACCORDO
100
AcDbLine
 62
253
  6
CONTINUOUS
 10
-270.4847180225
 20
-4.2156184036
 11
-270.08094923
 21
-4.21542424
  0
LINE
  5
31C
100
AcDbEntity
  8
RACCORDO
100
AcDbLine
 62
253
  6
CONTINUOUS
 10
273.5152819775
 20
-4.2156184036
 11
273.91905077
 21
-4.21542424
  0
LINE
  5
31D
100
AcDbEntity
  8
RACCORDO
100
AcDbLine
 62
253
  6
CONTINUOUS
 10
-270.08094923
 20
-5.4360047149
 11
-270.4771830145
 21
-5.4357845037
  0
LINE
  5
31E
100
AcDbEntity
  8
RACCORDO
100
AcDbLine
 62
253
  6
CONTINUOUS
 10
-273.7426906548
 20
-4.21542424
 11
-273.3464568702
 21
-4.2156444511
  0
LINE
  5
31F
100
AcDbEntity
  8
RACCORDO
100
AcDbLine
 62
253
  6
CONTINUOUS
 10
273.91905077
 20
-5.4360047149
 11
273.5228169855
 21
-5.4357845037
  0
LINE
  5
320
100
AcDbEntity
  8
RACCORDO
100
AcDbLine
 62
253
  6
CONTINUOUS
 10
270.2573093452
 20
-4.21542424
 11
270.6535431298
 21
-4.2156444511
  0
LINE
  5
321
100
AcDbEntity
  8
RACCORDO
100
AcDbLine
 62
253
  6
CONTINUOUS
 10
-270.850088035
 20
-5.4363336252
 11
-270.9977265835
 21
-5.4360047148
  0
LINE
  5
322
100
AcDbEntity
  8
RACCORDO
100
AcDbLine
 62
253
  6
CONTINUOUS
 10
-272.9735518498
 20
-4.2150953297
 11
-272.8259133012
 21
-4.2154242401
  0
LINE
  5
323
100
AcDbEntity
  8
RACCORDO
100
AcDbLine
 62
253
  6
CONTINUOUS
 10
273.149911965
 20
-5.4363336252
 11
273.0022734165
 21
-5.4360047148
  0
LINE
  5
324
100
AcDbEntity
  8
RACCORDO
100
AcDbLine
 62
253
  6
CONTINUOUS
 10
271.0264481502
 20
-4.2150953297
 11
271.1740866988
 21
-4.2154242401
  0
LINE
  5
325
100
AcDbEntity
  8
RACCORDO
100
AcDbLine
 62
253
  6
CONTINUOUS
 10
402.6901632712
 20
-6.9617561573
 11
402.6817520993
 21
-6.9617303086
  0
LINE
  5
326
100
AcDbEntity
  8
RACCORDO
100
AcDbLine
 62
253
  6
CONTINUOUS
 10
-402.5138031559
 20
-2.6896727975
 11
-402.505391984
 21
-2.6896986463
  0
LINE
  5
327
100
AcDbEntity
  8
RACCORDO
100
AcDbLine
 62
253
  6
CONTINUOUS
 10
-272.9656506643
 20
-5.4362706774
 11
-273.1135571368
 21
-5.4357901633
  0
LINE
  5
328
100
AcDbEntity
  8
RACCORDO
100
AcDbLine
 62
253
  6
CONTINUOUS
 10
-270.8579892204
 20
-4.2151582775
 11
-270.710082748
 21
-4.2156387916
  0
LINE
  5
329
100
AcDbEntity
  8
RACCORDO
100
AcDbLine
 62
253
  6
CONTINUOUS
 10
271.0343493357
 20
-5.4362706774
 11
270.8864428632
 21
-5.4357901633
  0
LINE
  5
32A
100
AcDbEntity
  8
RACCORDO
100
AcDbLine
 62
253
  6
CONTINUOUS
 10
273.1420107796
 20
-4.2151582775
 11
273.289917252
 21
-4.2156387916
  0
LWPOLYLINE
  5
32B
100
AcDbEntity
  8
RACCORDO
100
AcDbPolyline
 62
253
  6
CONTINUOUS
 90
13
 70
0
 10
-272.5221101697
 20
-5.5377197426
 10
-272.5081813001
 20
-5.5377756448
 10
-272.4943232165
 20
-5.5375972742
 10
-272.4808051041
 20
-5.5371880959
 10
-272.4678895442
 20
-5.536556058
 10
-272.4558274141
 20
-5.5357134377
 10
-272.4448530136
 20
-5.5346766021
 10
-272.435179514
 20
-5.5334656909
 10
-272.4269948174
 20
-5.5321042251
 10
-272.4204579068
 20
-5.5306186496
 10
-272.4156957578
 20
-5.5290378204
 10
-272.4128008725
 20
-5.5273924435
 10
-272.4118294822
 20
-5.5257144789
  0
LWPOLYLINE
  5
32C
100
AcDbEntity
  8
RACCORDO
100
AcDbPolyline
 62
253
  6
CONTINUOUS
 90
13
 70
0
 10
-271.301529715
 20
-4.1137092122
 10
-271.3154585846
 20
-4.11365331
 10
-271.3293166682
 20
-4.1138316806
 10
-271.3428347806
 20
-4.114240859
 10
-271.3557503405
 20
-4.1148728968
 10
-271.3678124706
 20
-4.1157155172
 10
-271.3787868711
 20
-4.1167523528
 10
-271.3884603708
 20
-4.1179632639
 10
-271.3966450673
 20
-4.1193247298
 10
-271.403181978
 20
-4.1208103052
 10
-271.4079441269
 20
-4.1223911344
 10
-271.4108390122
 20
-4.1240365113
 10
-271.4118104025
 20
-4.125714476
  0
LWPOLYLINE
  5
32D
100
AcDbEntity
  8
RACCORDO
100
AcDbPolyline
 62
253
  6
CONTINUOUS
 90
13
 70
0
 10
271.4778898303
 20
-5.5377197426
 10
271.4918186999
 20
-5.5377756448
 10
271.5056767835
 20
-5.5375972742
 10
271.5191948959
 20
-5.5371880959
 10
271.5321104558
 20
-5.536556058
 10
271.5441725859
 20
-5.5357134377
 10
271.5551469864
 20
-5.5346766021
 10
271.564820486
 20
-5.5334656909
 10
271.5730051826
 20
-5.5321042251
 10
271.5795420932
 20
-5.5306186496
 10
271.5843042422
 20
-5.5290378204
 10
271.5871991275
 20
-5.5273924435
 10
271.5881705178
 20
-5.5257144789
  0
LWPOLYLINE
  5
32E
100
AcDbEntity
  8
RACCORDO
100
AcDbPolyline
 62
253
  6
CONTINUOUS
 90
13
 70
0
 10
272.698470285
 20
-4.1137092122
 10
272.6845414154
 20
-4.11365331
 10
272.6706833318
 20
-4.1138316806
 10
272.6571652194
 20
-4.114240859
 10
272.6442496595
 20
-4.1148728968
 10
272.6321875294
 20
-4.1157155172
 10
272.6212131289
 20
-4.1167523528
 10
272.6115396292
 20
-4.1179632639
 10
272.6033549327
 20
-4.1193247298
 10
272.596818022
 20
-4.1208103052
 10
272.5920558731
 20
-4.1223911344
 10
272.5891609878
 20
-4.1240365113
 10
272.5881895975
 20
-4.125714476
  0
LWPOLYLINE
  5
32F
100
AcDbEntity
  8
RACCORDO
100
AcDbPolyline
 62
253
  6
CONTINUOUS
 90
12
 70
0
 10
-402.662890069
 20
-5.4360047127
 10
-402.7032579009
 20
-5.4357845037
 10
-402.7214692869
 20
-5.4360047156
 10
-402.7386427473
 20
-5.4359967062
 10
-402.7547165523
 20
-5.4357285989
 10
-402.7697581719
 20
-5.4360047149
 10
-402.7839718106
 20
-5.4363336252
 10
-402.7972108617
 20
-5.4361135537
 10
-402.8090866437
 20
-5.4360047148
 10
-402.8195713049
 20
-5.4362147576
 10
-402.8289148033
 20
-5.4362481464
 10
-402.8372113976
 20
-5.4360047149
  0
LWPOLYLINE
  5
330
100
AcDbEntity
  8
RACCORDO
100
AcDbPolyline
 62
253
  6
CONTINUOUS
 90
12
 70
0
 10
402.8392501843
 20
-4.2154242421
 10
402.8796180161
 20
-4.2156444511
 10
402.8978294021
 20
-4.2154242392
 10
402.9150028626
 20
-4.2154322486
 10
402.9310766676
 20
-4.2157003559
 10
402.9461182872
 20
-4.2154242399
 10
402.9603319259
 20
-4.2150953297
 10
402.973570977
 20
-4.2153154012
 10
402.985446759
 20
-4.2154242401
 10
402.9959314202
 20
-4.2152141972
 10
403.0052749186
 20
-4.2151808084
 10
403.0135715129
 20
-4.21542424
  0
LWPOLYLINE
  5
331
100
AcDbEntity
  8
RACCORDO
100
AcDbPolyline
 62
253
  6
CONTINUOUS
 90
4
 70
0
 10
-402.5890344784
 20
-5.4360047149
 10
-402.6155078548
 20
-5.4358077963
 10
-402.6400941123
 20
-5.4358521033
 10
-402.662890069
 20
-5.4360047127
  0
LWPOLYLINE
  5
332
100
AcDbEntity
  8
RACCORDO
100
AcDbPolyline
 62
253
  6
CONTINUOUS
 90
4
 70
0
 10
402.7653945937
 20
-4.21542424
 10
402.7918679701
 20
-4.2156211586
 10
402.8164542276
 20
-4.2155768516
 10
402.8392501843
 20
-4.2154242421
  0
LWPOLYLINE
  5
333
100
AcDbEntity
  8
RACCORDO
100
AcDbPolyline
 62
253
  6
CONTINUOUS
 90
13
 70
0
 10
-272.5221101726
 20
-6.6565851681
 10
-272.5081802207
 20
-6.6567293568
 10
-272.4943209739
 20
-6.6562710519
 10
-272.480801661
 20
-6.6552191564
 10
-272.4678849075
 20
-6.6535941044
 10
-272.4558216333
 20
-6.6514274639
 10
-272.4448461789
 20
-6.6487613242
 10
-272.4351717528
 20
-6.6456474773
 10
-272.4269862899
 20
-6.6421464129
 10
-272.4204488005
 20
-6.6383261421
 10
-272.4156862814
 20
-6.6342608773
 10
-272.4127912491
 20
-6.6300295902
 10
-272.4118199424
 20
-6.6257144774
  0
LWPOLYLINE
  5
334
100
AcDbEntity
  8
RACCORDO
100
AcDbPolyline
 62
253
  6
CONTINUOUS
 90
13
 70
0
 10
-271.3015297121
 20
-2.9948437867
 10
-271.315459664
 20
-2.994699598
 10
-271.3293189108
 20
-2.9951579029
 10
-271.3428382237
 20
-2.9962097984
 10
-271.3557549772
 20
-2.9978348505
 10
-271.3678182514
 20
-3.0000014909
 10
-271.3787937058
 20
-3.0026676307
 10
-271.3884681319
 20
-3.0057814775
 10
-271.3966535948
 20
-3.009282542
 10
-271.4031910842
 20
-3.0131028128
 10
-271.4079536033
 20
-3.0171680775
 10
-271.4108486356
 20
-3.0213993647
 10
-271.4118199424
 20
-3.0257144774
  0
LWPOLYLINE
  5
335
100
AcDbEntity
  8
RACCORDO
100
AcDbPolyline
 62
253
  6
CONTINUOUS
 90
13
 70
0
 10
271.4778898274
 20
-6.6565851681
 10
271.4918197793
 20
-6.6567293568
 10
271.5056790261
 20
-6.6562710519
 10
271.519198339
 20
-6.6552191564
 10
271.5321150925
 20
-6.6535941044
 10
271.5441783667
 20
-6.6514274639
 10
271.5551538211
 20
-6.6487613242
 10
271.5648282472
 20
-6.6456474773
 10
271.5730137101
 20
-6.6421464129
 10
271.5795511995
 20
-6.6383261421
 10
271.5843137186
 20
-6.6342608773
 10
271.5872087509
 20
-6.6300295902
 10
271.5881800576
 20
-6.6257144774
  0
LWPOLYLINE
  5
336
100
AcDbEntity
  8
RACCORDO
100
AcDbPolyline
 62
253
  6
CONTINUOUS
 90
13
 70
0
 10
272.6984702879
 20
-2.9948437867
 10
272.684540336
 20
-2.994699598
 10
272.6706810892
 20
-2.9951579029
 10
272.6571617763
 20
-2.9962097984
 10
272.6442450228
 20
-2.9978348505
 10
272.6321817486
 20
-3.0000014909
 10
272.6212062942
 20
-3.0026676307
 10
272.6115318681
 20
-3.0057814775
 10
272.6033464052
 20
-3.009282542
 10
272.5968089158
 20
-3.0131028128
 10
272.5920463967
 20
-3.0171680775
 10
272.5891513644
 20
-3.0213993647
 10
272.5881800576
 20
-3.0257144774
  0
LWPOLYLINE
  5
337
100
AcDbEntity
  8
RACCORDO
100
AcDbPolyline
 62
253
  6
CONTINUOUS
 90
16
 70
0
 10
-274.0478357716
 20
-5.1308595959
 10
-274.0355081486
 20
-5.1310727446
 10
-274.0227851545
 20
-5.1311964604
 10
-274.0098791441
 20
-5.1312286784
 10
-273.9970055268
 20
-5.1311688608
 10
-273.9843791716
 20
-5.1310180059
 10
-273.9722108202
 20
-5.1307786319
 10
-273.9607035703
 20
-5.1304547341
 10
-273.950049485
 20
-5.1300517184
 10
-273.9404263879
 20
-5.1295763114
 10
-273.9319948946
 20
-5.1290364481
 10
-273.9248957319
 20
-5.128441139
 10
-273.9192473896
 20
-5.12780032
 10
-273.915144142
 20
-5.1271246867
 10
-273.9126544748
 20
-5.126425516
 10
-273.9118199424
 20
-5.1257144774
  0
LWPOLYLINE
  5
338
100
AcDbEntity
  8
RACCORDO
100
AcDbPolyline
 62
253
  6
CONTINUOUS
 90
16
 70
0
 10
-269.7758041131
 20
-4.520569359
 10
-269.7881317361
 20
-4.5203562102
 10
-269.8008547302
 20
-4.5202324944
 10
-269.8137607407
 20
-4.5202002764
 10
-269.8266343579
 20
-4.5202600941
 10
-269.8392607131
 20
-4.5204109489
 10
-269.8514290645
 20
-4.5206503229
 10
-269.8629363144
 20
-4.5209742208
 10
-269.8735903997
 20
-4.5213772364
 10
-269.8832134968
 20
-4.5218526434
 10
-269.8916449902
 20
-4.5223925068
 10
-269.8987441528
 20
-4.5229878159
 10
-269.9043924951
 20
-4.5236286349
 10
-269.9084957427
 20
-4.5243042681
 10
-269.9109854099
 20
-4.5250034389
 10
-269.9118199424
 20
-4.5257144774
  0
LWPOLYLINE
  5
339
100
AcDbEntity
  8
RACCORDO
100
AcDbPolyline
 62
253
  6
CONTINUOUS
 90
16
 70
0
 10
269.9521642284
 20
-5.1308595959
 10
269.9644918514
 20
-5.1310727446
 10
269.9772148455
 20
-5.1311964604
 10
269.9901208559
 20
-5.1312286784
 10
270.0029944732
 20
-5.1311688608
 10
270.0156208284
 20
-5.1310180059
 10
270.0277891798
 20
-5.1307786319
 10
270.0392964297
 20
-5.1304547341
 10
270.049950515
 20
-5.1300517184
 10
270.0595736121
 20
-5.1295763114
 10
270.0680051054
 20
-5.1290364481
 10
270.0751042681
 20
-5.128441139
 10
270.0807526104
 20
-5.12780032
 10
270.084855858
 20
-5.1271246867
 10
270.0873455252
 20
-5.126425516
 10
270.0881800576
 20
-5.1257144774
  0
LWPOLYLINE
  5
33A
100
AcDbEntity
  8
RACCORDO
100
AcDbPolyline
 62
253
  6
CONTINUOUS
 90
16
 70
0
 10
274.2241958869
 20
-4.520569359
 10
274.2118682639
 20
-4.5203562102
 10
274.1991452698
 20
-4.5202324944
 10
274.1862392593
 20
-4.5202002764
 10
274.1733656421
 20
-4.5202600941
 10
274.1607392869
 20
-4.5204109489
 10
274.1485709355
 20
-4.5206503229
 10
274.1370636856
 20
-4.5209742208
 10
274.1264096003
 20
-4.5213772364
 10
274.1167865032
 20
-4.5218526434
 10
274.1083550098
 20
-4.5223925068
 10
274.1012558472
 20
-4.5229878159
 10
274.0956075049
 20
-4.5236286349
 10
274.0915042573
 20
-4.5243042681
 10
274.0890145901
 20
-4.5250034389
 10
274.0881800576
 20
-4.5257144774
  0
LWPOLYLINE
  5
33B
100
AcDbEntity
  8
RACCORDO
100
AcDbPolyline
 62
253
  6
CONTINUOUS
 90
19
 70
0
 10
-272.2169650611
 20
-6.9617303086
 10
-272.2429513964
 20
-6.9606182675
 10
-272.2685724219
 20
-6.9573396309
 10
-272.2937580285
 20
-6.951908279
 10
-272.3185500475
 20
-6.9443059011
 10
-272.3427668349
 20
-6.9345784281
 10
-272.3660097949
 20
-6.922848739
 10
-272.3882116156
 20
-6.909133673
 10
-272.4093210669
 20
-6.8934719947
 10
-272.4289828459
 20
-6.876040093
 10
-272.4471871498
 20
-6.8568241188
 10
-272.4638620553
 20
-6.835906318
 10
-272.4785938477
 20
-6.813623988
 10
-272.4913792957
 20
-6.7900135501
 10
-272.5022068633
 20
-6.7651098292
 10
-272.5106990543
 20
-6.7392579864
 10
-272.5167599484
 20
-6.7125925986
 10
-272.520550879
 20
-6.6850302489
 10
-272.5221101798
 20
-6.6565851898
  0
LWPOLYLINE
  5
33C
100
AcDbEntity
  8
RACCORDO
100
AcDbPolyline
 62
253
  6
CONTINUOUS
 90
19
 70
0
 10
-271.6066748236
 20
-2.6896986463
 10
-271.5806884884
 20
-2.6908106873
 10
-271.5550674628
 20
-2.6940893239
 10
-271.5298818562
 20
-2.6995206758
 10
-271.5050898372
 20
-2.7071230537
 10
-271.4808730498
 20
-2.7168505267
 10
-271.4576300898
 20
-2.7285802158
 10
-271.4354282692
 20
-2.7422952819
 10
-271.4143188178
 20
-2.7579569601
 10
-271.3946570388
 20
-2.7753888618
 10
-271.3764527349
 20
-2.7946048361
 10
-271.3597778295
 20
-2.8155226369
 10
-271.3450460371
 20
-2.8378049669
 10
-271.332260589
 20
-2.8614154047
 10
-271.3214330214
 20
-2.8863191256
 10
-271.3129408304
 20
-2.9121709685
 10
-271.3068799363
 20
-2.9388363562
 10
-271.3030890057
 20
-2.9663987059
 10
-271.3015297049
 20
-2.994843765
  0
LWPOLYLINE
  5
33D
100
AcDbEntity
  8
RACCORDO
100
AcDbPolyline
 62
253
  6
CONTINUOUS
 90
19
 70
0
 10
-273.7426906548
 20
-5.4360047149
 10
-273.770985509
 20
-5.4344856614
 10
-273.798463411
 20
-5.4307191772
 10
-273.8251100565
 20
-5.4246643396
 10
-273.8510346978
 20
-5.4161537148
 10
-273.8760762155
 20
-5.4052830009
 10
-273.8998108421
 20
-5.3924388722
 10
-273.9221854949
 20
-5.377624049
 10
-273.9431810017
 20
-5.3608513595
 10
-273.9624360067
 20
-5.3425764368
 10
-273.9798507435
 20
-5.322888279
 10
-273.9954584468
 20
-5.3017842853
 10
-274.0091151952
 20
-5.2796178387
 10
-274.0207865327
 20
-5.2564591436
 10
-274.030453752
 20
-5.2323571271
 10
-274.038015043
 20
-5.2076497409
 10
-274.0434298305
 20
-5.1824973269
 10
-274.0467084219
 20
-5.15687742
 10
-274.0478357735
 20
-5.1308595962
  0
LWPOLYLINE
  5
33E
100
AcDbEntity
  8
RACCORDO
100
AcDbPolyline
 62
253
  6
CONTINUOUS
 90
19
 70
0
 10
-270.08094923
 20
-4.21542424
 10
-270.0526543757
 20
-4.2169432935
 10
-270.0251764737
 20
-4.2207097777
 10
-269.9985298282
 20
-4.2267646152
 10
-269.9726051869
 20
-4.2352752401
 10
-269.9475636692
 20
-4.246145954
 10
-269.9238290426
 20
-4.2589900827
 10
-269.9014543899
 20
-4.2738049058
 10
-269.880458883
 20
-4.2905775953
 10
-269.861203878
 20
-4.308852518
 10
-269.8437891412
 20
-4.3285406758
 10
-269.8281814379
 20
-4.3496446695
 10
-269.8145246895
 20
-4.3718111161
 10
-269.802853352
 20
-4.3949698112
 10
-269.7931861327
 20
-4.4190718277
 10
-269.7856248417
 20
-4.443779214
 10
-269.7802100542
 20
-4.468931628
 10
-269.7769314628
 20
-4.4945515349
 10
-269.7758041112
 20
-4.5205693587
  0
LINE
  5
33F
100
AcDbEntity
  8
RACCORDO
100
AcDbLine
 62
253
  6
CONTINUOUS
 10
-402.5053840434
 20
-5.1308591577
 11
-402.5120879557
 21
-5.131229309
  0
LWPOLYLINE
  5
340
100
AcDbEntity
  8
RACCORDO
100
AcDbPolyline
 62
7
  6
CONTINUOUS
 90
16
 70
0
 10
-402.7384690171
 20
-5.3257146925
 10
-402.7495520205
 20
-5.3263216873
 10
-402.7621143689
 20
-5.3285082569
 10
-402.773844674
 20
-5.3320811949
 10
-402.784576036
 20
-5.336793905
 10
-402.7942863842
 20
-5.3424398799
 10
-402.8030661315
 20
-5.3489120014
 10
-402.8108992137
 20
-5.3560694472
 10
-402.8177547344
 20
-5.3637470403
 10
-402.8237007218
 20
-5.3718889534
 10
-402.8288480675
 20
-5.3805778523
 10
-402.8330966907
 20
-5.3895670266
 10
-402.8363438069
 20
-5.3983335303
 10
-402.8387256714
 20
-5.4066808652
 10
-402.8404679541
 20
-5.4147973961
 10
-402.8417126948
 20
-5.4227881286
  0
LWPOLYLINE
  5
341
100
AcDbEntity
  8
RACCORDO
100
AcDbPolyline
 62
7
  6
CONTINUOUS
 90
11
 70
0
 10
-402.7384646053
 20
-5.3257145615
 10
-402.7480340816
 20
-5.3261664849
 10
-402.7607663735
 20
-5.3281951339
 10
-402.7726722944
 20
-5.3316535812
 10
-402.7835767264
 20
-5.3362915558
 10
-402.7934522934
 20
-5.3418971551
 10
-402.8023868836
 20
-5.3483577745
 10
-402.8103606809
 20
-5.3555275653
 10
-402.8173409091
 20
-5.36323749
 10
-402.8233966759
 20
-5.3714300992
 10
-402.8286397435
 20
-5.3801872962
  0
LWPOLYLINE
  5
342
100
AcDbEntity
  8
RACCORDO
100
AcDbPolyline
 62
253
  6
CONTINUOUS
 90
11
 70
0
 10
-402.8372113976
 20
-4.21542424
 10
-402.8291250185
 20
-4.2152293648
 10
-402.8200207872
 20
-4.215254202
 10
-402.8098076174
 20
-4.2154242399
 10
-402.7982732462
 20
-4.2153385215
 10
-402.7854185156
 20
-4.2151582775
 10
-402.7715201967
 20
-4.215424239
 10
-402.7566596874
 20
-4.2156387916
 10
-402.7406620815
 20
-4.215410511
 10
-402.7234748824
 20
-4.2154242401
 10
-402.7051389848
 20
-4.2156184036
  0
LWPOLYLINE
  5
343
100
AcDbEntity
  8
RACCORDO
100
AcDbPolyline
 62
253
  6
CONTINUOUS
 90
19
 70
0
 10
271.7830349389
 20
-6.9617303086
 10
271.7570486036
 20
-6.9606182675
 10
271.7314275781
 20
-6.9573396309
 10
271.7062419715
 20
-6.951908279
 10
271.6814499525
 20
-6.9443059011
 10
271.6572331651
 20
-6.9345784281
 10
271.6339902051
 20
-6.922848739
 10
271.6117883844
 20
-6.909133673
 10
271.5906789331
 20
-6.8934719947
 10
271.5710171541
 20
-6.876040093
 10
271.5528128502
 20
-6.8568241188
 10
271.5361379447
 20
-6.835906318
 10
271.5214061523
 20
-6.813623988
 10
271.5086207043
 20
-6.7900135501
 10
271.4977931367
 20
-6.7651098292
 10
271.4893009457
 20
-6.7392579864
 10
271.4832400516
 20
-6.7125925986
 10
271.479449121
 20
-6.6850302489
 10
271.4778898202
 20
-6.6565851898
  0
LWPOLYLINE
  5
344
100
AcDbEntity
  8
RACCORDO
100
AcDbPolyline
 62
253
  6
CONTINUOUS
 90
19
 70
0
 10
272.3933251764
 20
-2.6896986463
 10
272.4193115116
 20
-2.6908106873
 10
272.4449325372
 20
-2.6940893239
 10
272.4701181438
 20
-2.6995206758
 10
272.4949101628
 20
-2.7071230537
 10
272.5191269502
 20
-2.7168505267
 10
272.5423699102
 20
-2.7285802158
 10
272.5645717308
 20
-2.7422952819
 10
272.5856811822
 20
-2.7579569601
 10
272.6053429612
 20
-2.7753888618
 10
272.6235472651
 20
-2.7946048361
 10
272.6402221705
 20
-2.8155226369
 10
272.6549539629
 20
-2.8378049669
 10
272.667739411
 20
-2.8614154047
 10
272.6785669786
 20
-2.8863191256
 10
272.6870591696
 20
-2.9121709685
 10
272.6931200637
 20
-2.9388363562
 10
272.6969109943
 20
-2.9663987059
 10
272.6984702951
 20
-2.994843765
  0
LWPOLYLINE
  5
345
100
AcDbEntity
  8
RACCORDO
100
AcDbPolyline
 62
253
  6
CONTINUOUS
 90
19
 70
0
 10
270.2573093452
 20
-5.4360047149
 10
270.229014491
 20
-5.4344856614
 10
270.201536589
 20
-5.4307191772
 10
270.1748899435
 20
-5.4246643396
 10
270.1489653022
 20
-5.4161537148
 10
270.1239237845
 20
-5.4052830009
 10
270.1001891579
 20
-5.3924388722
 10
270.0778145051
 20
-5.377624049
 10
270.0568189983
 20
-5.3608513595
 10
270.0375639933
 20
-5.3425764368
 10
270.0201492565
 20
-5.322888279
 10
270.0045415532
 20
-5.3017842853
 10
269.9908848048
 20
-5.2796178387
 10
269.9792134673
 20
-5.2564591436
 10
269.969546248
 20
-5.2323571271
 10
269.961984957
 20
-5.2076497409
 10
269.9565701695
 20
-5.1824973269
 10
269.9532915781
 20
-5.15687742
 10
269.9521642265
 20
-5.1308595962
  0
LWPOLYLINE
  5
346
100
AcDbEntity
  8
RACCORDO
100
AcDbPolyline
 62
253
  6
CONTINUOUS
 90
19
 70
0
 10
273.91905077
 20
-4.21542424
 10
273.9473456243
 20
-4.2169432935
 10
273.9748235263
 20
-4.2207097777
 10
274.0014701718
 20
-4.2267646152
 10
274.0273948131
 20
-4.2352752401
 10
274.0524363308
 20
-4.246145954
 10
274.0761709574
 20
-4.2589900827
 10
274.0985456101
 20
-4.2738049058
 10
274.119541117
 20
-4.2905775953
 10
274.138796122
 20
-4.308852518
 10
274.1562108588
 20
-4.3285406758
 10
274.1718185621
 20
-4.3496446695
 10
274.1854753105
 20
-4.3718111161
 10
274.197146648
 20
-4.3949698112
 10
274.2068138673
 20
-4.4190718277
 10
274.2143751583
 20
-4.443779214
 10
274.2197899458
 20
-4.468931628
 10
274.2230685372
 20
-4.4945515349
 10
274.2241958888
 20
-4.5205693587
  0
LINE
  5
347
100
AcDbEntity
  8
RACCORDO
100
AcDbLine
 62
253
  6
CONTINUOUS
 10
402.6817520943
 20
-5.1308595959
 11
402.6884527593
 21
-5.1312297172
  0
LINE
  5
348
100
AcDbEntity
  8
RACCORDO
100
AcDbLine
 62
253
  6
CONTINUOUS
 10
402.9286316809
 20
-5.3266857777
 11
402.9148295039
 21
-5.3257144774
  0
LWPOLYLINE
  5
349
100
AcDbEntity
  8
RACCORDO
100
AcDbPolyline
 62
253
  6
CONTINUOUS
 90
20
 70
0
 10
-402.8372113976
 20
-5.4360047149
 10
-402.8378539181
 20
-5.4360837741
 10
-402.8384687866
 20
-5.4365362583
 10
-402.8390563132
 20
-5.4373566498
 10
-402.8396240194
 20
-5.4385002536
 10
-402.8401649129
 20
-5.4400004072
 10
-402.8406577548
 20
-5.4419696436
 10
-402.841105492
 20
-5.4444057407
 10
-402.8415060682
 20
-5.4473018147
 10
-402.841831156
 20
-5.4507679175
 10
-402.8420829823
 20
-5.4548214462
 10
-402.842260227
 20
-5.4594437767
 10
-402.8423294309
 20
-5.4647011527
 10
-402.8422885531
 20
-5.4706501053
 10
-402.8421397003
 20
-5.4772482429
 10
-402.8418552955
 20
-5.4844290041
 10
-402.8414240168
 20
-5.4922890949
 10
-402.8408550679
 20
-5.5007641214
 10
-402.8401510347
 20
-5.5095586499
 10
-402.8393113817
 20
-5.5185874065
  0
LINE
  5
34A
100
AcDbEntity
  8
RACCORDO
100
AcDbLine
 62
253
  6
CONTINUOUS
 10
-402.8372113838
 20
-5.5377197528
 11
-402.8377383562
 21
-5.5377838233
  0
LINE
  5
34B
100
AcDbEntity
  8
0
100
AcDbLine
 62
7
  6
CONTINUOUS
 10
278.5881800576
 20
35.1742855226
 11
286.1231773061
 21
35.1742855226
  0
LINE
  5
34C
100
AcDbEntity
  8
0
100
AcDbLine
 62
7
  6
CONTINUOUS
 10
-278.4118199424
 20
35.1742855226
 11
-285.9468171908
 21
35.1742855226
  0
LINE
  5
34D
100
AcDbEntity
  8
0
100
AcDbLine
 62
7
  6
CONTINUOUS
 10
286.1231773061
 20
37.6742855226
 11
284.1231773061
 21
37.6742855226
  0
LINE
  5
34E
100
AcDbEntity
  8
0
100
AcDbLine
 62
7
  6
CONTINUOUS
 10
-283.9468171908
 20
37.6742855226
 11
-285.9468171908
 21
37.6742855226
  0
LINE
  5
34F
100
AcDbEntity
  8
0
100
AcDbLine
 62
253
  6
CONTINUOUS
 10
278.5881800576
 20
41.1742855226
 11
-278.4118199424
 21
41.1742855226
  0
LINE
  5
350
100
AcDbEntity
  8
0
100
AcDbLine
 62
7
  6
CONTINUOUS
 10
-399.9118199424
 20
42.6742855226
 11
-374.2341504127
 21
42.6742855226
  0
LINE
  5
351
100
AcDbEntity
  8
0
100
AcDbLine
 62
253
  6
CONTINUOUS
 10
284.1231773061
 20
42.6742855226
 11
374.410510528
 21
42.6742855226
  0
LINE
  5
352
100
AcDbEntity
  8
0
100
AcDbLine
 62
253
  6
CONTINUOUS
 10
-283.9468171908
 20
42.6742855226
 11
-374.2341504127
 21
42.6742855226
  0
LINE
  5
353
100
AcDbEntity
  8
0
100
AcDbLine
 62
7
  6
CONTINUOUS
 10
374.410510528
 20
42.6742855226
 11
400.0881800576
 21
42.6742855226
  0
LINE
  5
354
100
AcDbEntity
  8
0
100
AcDbLine
 62
7
  6
CONTINUOUS
 10
-396.9118199424
 20
43.1742855226
 11
-376.9118199424
 21
43.1742855226
  0
LINE
  5
355
100
AcDbEntity
  8
0
100
AcDbLine
 62
7
  6
CONTINUOUS
 10
397.0881800576
 20
43.1742855226
 11
377.0881800576
 21
43.1742855226
  0
LINE
  5
356
100
AcDbEntity
  8
0
100
AcDbLine
 62
7
  6
CONTINUOUS
 10
278.5881800576
 20
45.1742855226
 11
-278.4118199424
 21
45.1742855226
  0
LINE
  5
357
100
AcDbEntity
  8
0
100
AcDbLine
 62
7
  6
CONTINUOUS
 10
-396.9118199424
 20
45.6742855226
 11
-376.9118199424
 21
45.6742855226
  0
LINE
  5
358
100
AcDbEntity
  8
0
100
AcDbLine
 62
7
  6
CONTINUOUS
 10
397.0881800576
 20
45.6742855226
 11
377.0881800576
 21
45.6742855226
  0
LINE
  5
359
100
AcDbEntity
  8
0
100
AcDbLine
 62
7
  6
CONTINUOUS
 10
284.1231773061
 20
45.6742855226
 11
371.410510528
 21
45.6742855226
  0
LINE
  5
35A
100
AcDbEntity
  8
0
100
AcDbLine
 62
7
  6
CONTINUOUS
 10
-283.9468171908
 20
45.6742855226
 11
-371.2341504127
 21
45.6742855226
  0
LINE
  5
35B
100
AcDbEntity
  8
0
100
AcDbLine
 62
253
  6
CONTINUOUS
 10
284.1231773061
 20
46.1742855226
 11
330.410510528
 21
46.1742855226
  0
LINE
  5
35C
100
AcDbEntity
  8
0
100
AcDbLine
 62
253
  6
CONTINUOUS
 10
-283.9468171908
 20
46.1742855226
 11
-330.2341504127
 21
46.1742855226
  0
LINE
  5
35D
100
AcDbEntity
  8
0
100
AcDbLine
 62
253
  6
CONTINUOUS
 10
374.0881800576
 20
46.1742855226
 11
376.5881800576
 21
46.1742855226
  0
LINE
  5
35E
100
AcDbEntity
  8
0
100
AcDbLine
 62
253
  6
CONTINUOUS
 10
-373.9118199424
 20
46.1742855226
 11
-376.4118199424
 21
46.1742855226
  0
LINE
  5
35F
100
AcDbEntity
  8
0
100
AcDbLine
 62
7
  6
CONTINUOUS
 10
284.1231773061
 20
55.8742855226
 11
330.410510528
 21
55.8742855226
  0
LINE
  5
360
100
AcDbEntity
  8
0
100
AcDbLine
 62
7
  6
CONTINUOUS
 10
-283.9468171908
 20
55.8742855226
 11
-330.2341504127
 21
55.8742855226
  0
LINE
  5
361
100
AcDbEntity
  8
0
100
AcDbLine
 62
7
  6
CONTINUOUS
 10
374.0881800576
 20
55.8742855226
 11
376.5881800576
 21
55.8742855226
  0
LINE
  5
362
100
AcDbEntity
  8
0
100
AcDbLine
 62
7
  6
CONTINUOUS
 10
-373.9118199424
 20
55.8742855226
 11
-376.4118199424
 21
55.8742855226
  0
LINE
  5
363
100
AcDbEntity
  8
RACCORDO
100
AcDbLine
 62
253
  6
CONTINUOUS
 10
403.0135714154
 20
-5.5377197426
 11
403.0140977837
 21
-5.5377836839
  0
LWPOLYLINE
  5
364
100
AcDbEntity
  8
0
100
AcDbPolyline
 62
7
  6
CONTINUOUS
 90
19
 70
0
 10
-371.2341504127
 20
45.6742855226
 10
-371.5443797058
 20
45.6585726523
 10
-371.8395039296
 20
45.6131365624
 10
-372.1195230839
 20
45.5406750314
 10
-372.3849058986
 20
45.4444718033
 10
-372.6351836439
 20
45.3271668494
 10
-372.8689501304
 20
45.189715212
 10
-373.0864249457
 20
45.0337140994
 10
-373.2873885022
 20
44.8616567049
 10
-373.4697758476
 20
44.674784343
 10
-373.6334181951
 20
44.474495361
 10
-373.7784843315
 20
44.2632112394
 10
-373.9034156655
 20
44.043600331
 10
-374.007429897
 20
43.8174077236
 10
-374.0913093261
 20
43.5868190249
 10
-374.1558422613
 20
43.3553093096
 10
-374.2012914723
 20
43.1252517432
 10
-374.2273941894
 20
42.8977561616
 10
-374.2341504127
 20
42.6742855226
  0
LWPOLYLINE
  5
365
100
AcDbEntity
  8
RACCORDO
100
AcDbPolyline
 62
253
  6
CONTINUOUS
 90
10
 70
0
 10
402.7653945937
 20
-5.4360047149
 10
402.7562432685
 20
-5.4344856614
 10
402.7474528128
 20
-5.4307191772
 10
402.7390417418
 20
-5.4246643396
 10
402.7309959664
 20
-5.4161537148
 10
402.7233627929
 20
-5.4052830009
 10
402.7162541698
 20
-5.3924388722
 10
402.7096941264
 20
-5.377624049
 10
402.7036910608
 20
-5.3608513595
 10
402.6983359428
 20
-5.3425764368
  0
LINE
  5
366
100
AcDbEntity
  8
RACCORDO
100
AcDbLine
 62
253
  6
CONTINUOUS
 10
402.9421657371
 20
-5.329580805
 11
402.9286316809
 21
-5.3266857777
  0
LINE
  5
367
100
AcDbEntity
  8
RACCORDO
100
AcDbLine
 62
253
  6
CONTINUOUS
 10
402.7653902003
 20
-2.9948451995
 11
402.7658958135
 21
-2.9946801309
  0
LINE
  5
368
100
AcDbEntity
  8
RACCORDO
100
AcDbLine
 62
253
  6
CONTINUOUS
 10
402.7653945273
 20
-6.6565851681
 11
402.7658991674
 21
-6.6567499209
  0
LINE
  5
369
100
AcDbEntity
  8
RACCORDO
100
AcDbLine
 62
253
  6
CONTINUOUS
 10
402.9551687606
 20
-5.3343433205
 11
402.9421657371
 21
-5.329580805
  0
LWPOLYLINE
  5
36A
100
AcDbEntity
  8
RACCORDO
100
AcDbPolyline
 62
253
  6
CONTINUOUS
 90
22
 70
0
 10
271.4778898202
 20
-5.5377197545
 10
271.4773770595
 20
-5.5280546284
 10
271.4760664993
 20
-5.5187233019
 10
271.4739575606
 20
-5.5097125772
 10
271.4709472535
 20
-5.5008899571
 10
271.4671368233
 20
-5.4923538302
 10
271.4628163388
 20
-5.484438609
 10
271.4579498152
 20
-5.4772197546
 10
271.4525357816
 20
-5.4705888687
 10
271.4468995255
 20
-5.4646175271
 10
271.4410537844
 20
-5.4593522413
 10
271.4349484756
 20
-5.4547326182
 10
271.4288156287
 20
-5.4506859343
 10
271.4226750216
 20
-5.4472305119
 10
271.4164824565
 20
-5.444349717
 10
271.4103805024
 20
-5.4419287589
 10
271.4043956331
 20
-5.4399746865
 10
271.398488934
 20
-5.438490196
 10
271.3927103736
 20
-5.4373579041
 10
271.3870756272
 20
-5.4365423633
 10
271.3815643251
 20
-5.4360895627
 10
271.3761747806
 20
-5.4360047149
  0
LWPOLYLINE
  5
36B
100
AcDbEntity
  8
RACCORDO
100
AcDbPolyline
 62
253
  6
CONTINUOUS
 90
22
 70
0
 10
272.6984702951
 20
-4.1137092004
 10
272.6989830558
 20
-4.1233743264
 10
272.700293616
 20
-4.132705653
 10
272.7024025546
 20
-4.1417163776
 10
272.7054128618
 20
-4.1505389978
 10
272.709223292
 20
-4.1590751247
 10
272.7135437764
 20
-4.1669903458
 10
272.7184103001
 20
-4.1742092002
 10
272.7238243336
 20
-4.1808400862
 10
272.7294605898
 20
-4.1868114277
 10
272.7353063309
 20
-4.1920767136
 10
272.7414116397
 20
-4.1966963366
 10
272.7475444866
 20
-4.2007430206
 10
272.7536850937
 20
-4.204198443
 10
272.7598776588
 20
-4.2070792378
 10
272.7659796129
 20
-4.209500196
 10
272.7719644822
 20
-4.2114542683
 10
272.7778711813
 20
-4.2129387589
 10
272.7836497417
 20
-4.2140710507
 10
272.7892844881
 20
-4.2148865916
 10
272.7947957902
 20
-4.2153393922
 10
272.8001853347
 20
-4.21542424
  0
LWPOLYLINE
  5
36C
100
AcDbEntity
  8
RACCORDO
100
AcDbPolyline
 62
253
  6
CONTINUOUS
 90
16
 70
0
 10
271.783035348
 20
-6.9617274425
 10
271.7828221953
 20
-6.9493997691
 10
271.7826984705
 20
-6.9366765374
 10
271.7826662393
 20
-6.9237701359
 10
271.78272604
 20
-6.9108960106
 10
271.7828768748
 20
-6.898269069
 10
271.7831162262
 20
-6.886100092
 10
271.7834400991
 20
-6.8745922161
 10
271.7838430875
 20
-6.8639375417
 10
271.7843184649
 20
-6.854313927
 10
271.7848582962
 20
-6.8458820186
 10
271.7854535706
 20
-6.8387825702
 10
271.7860943517
 20
-6.8331340926
 10
271.7867699434
 20
-6.8290308757
 10
271.7874690686
 20
-6.8265414143
 10
271.7881800574
 20
-6.825707265
  0
LWPOLYLINE
  5
36D
100
AcDbEntity
  8
RACCORDO
100
AcDbPolyline
 62
253
  6
CONTINUOUS
 90
16
 70
0
 10
272.3933247673
 20
-2.6897015123
 10
272.39353792
 20
-2.7020291857
 10
272.3936616448
 20
-2.7147524174
 10
272.393693876
 20
-2.727658819
 10
272.3936340753
 20
-2.7405329442
 10
272.3934832405
 20
-2.7531598858
 10
272.3932438891
 20
-2.7653288628
 10
272.3929200162
 20
-2.7768367388
 10
272.3925170278
 20
-2.7874914132
 10
272.3920416504
 20
-2.7971150279
 10
272.3915018191
 20
-2.8055469362
 10
272.3909065447
 20
-2.8126463846
 10
272.3902657636
 20
-2.8182948622
 10
272.3895901719
 20
-2.8223980791
 10
272.3888910467
 20
-2.8248875405
 10
272.3881800579
 20
-2.8257216899
  0
LWPOLYLINE
  5
36E
100
AcDbEntity
  8
RACCORDO
100
AcDbPolyline
 62
253
  6
CONTINUOUS
 90
13
 70
0
 10
270.2573106632
 20
-5.4360042752
 10
270.2571660853
 20
-5.4220739902
 10
270.2576240513
 20
-5.4082142499
 10
270.2586756637
 20
-5.3946943244
 10
270.2603004915
 20
-5.3817768816
 10
270.2624669671
 20
-5.3697128842
 10
270.2651329997
 20
-5.3587367141
 10
270.268246793
 20
-5.3490616185
 10
270.2717478514
 20
-5.3408755674
 10
270.2755681557
 20
-5.3343376009
 10
270.2796334839
 20
-5.3295747401
 10
270.283864854
 20
-5.3266795189
 10
270.2881800579
 20
-5.3257081861
  0
LWPOLYLINE
  5
36F
100
AcDbEntity
  8
RACCORDO
100
AcDbPolyline
 62
253
  6
CONTINUOUS
 90
13
 70
0
 10
273.9190494521
 20
-4.2154246796
 10
273.91919403
 20
-4.2293549647
 10
273.918736064
 20
-4.2432147049
 10
273.9176844516
 20
-4.2567346304
 10
273.9160596238
 20
-4.2696520733
 10
273.9138931482
 20
-4.2817160707
 10
273.9112271156
 20
-4.2926922408
 10
273.9081133223
 20
-4.3023673363
 10
273.9046122638
 20
-4.3105533875
 10
273.9007919596
 20
-4.3170913539
 10
273.8967266314
 20
-4.3218542147
 10
273.8924952613
 20
-4.324749436
 10
273.8881800574
 20
-4.3257207687
  0
LWPOLYLINE
  5
370
100
AcDbEntity
  8
RACCORDO
100
AcDbPolyline
 62
253
  6
CONTINUOUS
 90
13
 70
0
 10
271.3761747829
 20
-5.4360047129
 10
271.3761187094
 20
-5.4220747564
 10
271.3762969392
 20
-5.408215505
 10
271.3767060099
 20
-5.3946961878
 10
271.377337975
 20
-5.3817794304
 10
271.3781805579
 20
-5.3697161532
 10
271.3792173907
 20
-5.3587406969
 10
271.3804283319
 20
-5.3490662701
 10
271.3817898578
 20
-5.3408808078
 10
271.3832755195
 20
-5.3343433205
 10
271.3848564565
 20
-5.329580805
 10
271.3865019577
 20
-5.3266857777
 10
271.3881800576
 20
-5.3257144774
  0
LWPOLYLINE
  5
371
100
AcDbEntity
  8
RACCORDO
100
AcDbPolyline
 62
253
  6
CONTINUOUS
 90
13
 70
0
 10
272.8001853324
 20
-4.2154242419
 10
272.8002414058
 20
-4.2293541984
 10
272.8000631761
 20
-4.2432134499
 10
272.7996541054
 20
-4.2567327671
 10
272.7990221403
 20
-4.2696495244
 10
272.7981795573
 20
-4.2817128016
 10
272.7971427246
 20
-4.2926882579
 10
272.7959317834
 20
-4.3023626847
 10
272.7945702575
 20
-4.310548147
 10
272.7930845958
 20
-4.3170856343
 10
272.7915036588
 20
-4.3218481498
 10
272.7898581576
 20
-4.3247431771
 10
272.7881800576
 20
-4.3257144774
  0
LINE
  5
372
100
AcDbEntity
  8
RACCORDO
100
AcDbLine
 62
253
  6
CONTINUOUS
 10
269.9521642265
 20
-5.1308595962
 11
269.9521642265
 21
-4.5205693587
  0
LINE
  5
373
100
AcDbEntity
  8
RACCORDO
100
AcDbLine
 62
7
  6
CONTINUOUS
 10
270.0881800576
 20
-5.1257144774
 11
270.0881800576
 21
-4.5257144774
  0
LINE
  5
374
100
AcDbEntity
  8
RACCORDO
100
AcDbLine
 62
7
  6
CONTINUOUS
 10
271.5881800576
 20
-6.6257144774
 11
271.5881800576
 21
-5.5257144774
  0
LINE
  5
375
100
AcDbEntity
  8
RACCORDO
100
AcDbLine
 62
7
  6
CONTINUOUS
 10
271.5881800576
 20
-4.1257144774
 11
271.5881800576
 21
-3.0257144774
  0
LINE
  5
376
100
AcDbEntity
  8
RACCORDO
100
AcDbLine
 62
7
  6
CONTINUOUS
 10
272.5881800576
 20
-3.0257144774
 11
272.5881800576
 21
-4.1257144774
  0
LINE
  5
377
100
AcDbEntity
  8
RACCORDO
100
AcDbLine
 62
7
  6
CONTINUOUS
 10
272.5881800576
 20
-5.5257144774
 11
272.5881800576
 21
-6.6257144774
  0
LINE
  5
378
100
AcDbEntity
  8
RACCORDO
100
AcDbLine
 62
7
  6
CONTINUOUS
 10
274.0881800576
 20
-4.5257144774
 11
274.0881800576
 21
-5.1257144774
  0
LINE
  5
379
100
AcDbEntity
  8
RACCORDO
100
AcDbLine
 62
253
  6
CONTINUOUS
 10
274.2241958888
 20
-4.5205693587
 11
274.2241958888
 21
-5.1308595962
  0
LINE
  5
37A
100
AcDbEntity
  8
RACCORDO
100
AcDbLine
 62
253
  6
CONTINUOUS
 10
271.4778898202
 20
-4.1137092004
 11
271.4778898217
 21
-3.2620678511
  0
LINE
  5
37B
100
AcDbEntity
  8
RACCORDO
100
AcDbLine
 62
253
  6
CONTINUOUS
 10
271.4778137004
 20
-5.5957859247
 11
271.4778898202
 21
-5.5377197545
  0
LINE
  5
37C
100
AcDbEntity
  8
RACCORDO
100
AcDbLine
 62
253
  6
CONTINUOUS
 10
272.6985464149
 20
-4.0556430302
 11
272.6984702951
 21
-4.1137092004
  0
LINE
  5
37D
100
AcDbEntity
  8
RACCORDO
100
AcDbLine
 62
253
  6
CONTINUOUS
 10
272.6984702951
 20
-5.5377197545
 11
272.6984702936
 21
-6.3893611038
  0
LWPOLYLINE
  5
37E
100
AcDbEntity
  8
RACCORDO
100
AcDbPolyline
 62
253
  6
CONTINUOUS
 90
3
 70
0
 10
271.4778898217
 20
-3.2620678511
 10
271.4780695912
 20
-3.1753105467
 10
271.4778898202
 20
-2.994843765
  0
LWPOLYLINE
  5
37F
100
AcDbEntity
  8
RACCORDO
100
AcDbPolyline
 62
253
  6
CONTINUOUS
 90
3
 70
0
 10
272.6984702936
 20
-6.3893611038
 10
272.6982905241
 20
-6.4761184082
 10
272.6984702951
 20
-6.6565851898
  0
LINE
  5
380
100
AcDbEntity
  8
RACCORDO
100
AcDbLine
 62
253
  6
CONTINUOUS
 10
271.4778898202
 20
-6.6565851898
 11
271.4778137004
 21
-5.5957859247
  0
LINE
  5
381
100
AcDbEntity
  8
RACCORDO
100
AcDbLine
 62
253
  6
CONTINUOUS
 10
272.6984702951
 20
-2.994843765
 11
272.6985464149
 21
-4.0556430302
  0
LWPOLYLINE
  5
382
100
AcDbEntity
  8
RACCORDO
100
AcDbPolyline
 62
253
  6
CONTINUOUS
 90
13
 70
0
 10
271.3761747809
 20
-4.2154242402
 10
271.3761187105
 20
-4.2293541744
 10
271.3762969428
 20
-4.2432134017
 10
271.3767060155
 20
-4.2567326938
 10
271.377337982
 20
-4.2696494259
 10
271.3781805657
 20
-4.2817126787
 10
271.3792173988
 20
-4.2926881123
 10
271.3804283396
 20
-4.3023625187
 10
271.3817898647
 20
-4.3105479637
 10
271.3832755251
 20
-4.3170854374
 10
271.3848564605
 20
-4.3218479435
 10
271.3865019598
 20
-4.3247429657
 10
271.3881800577
 20
-4.3257142656
  0
LWPOLYLINE
  5
383
100
AcDbEntity
  8
RACCORDO
100
AcDbPolyline
 62
253
  6
CONTINUOUS
 90
13
 70
0
 10
272.8001853344
 20
-5.4360047147
 10
272.8002414048
 20
-5.4220747804
 10
272.8000631725
 20
-5.4082155531
 10
272.7996540998
 20
-5.3946962611
 10
272.7990221333
 20
-5.3817795289
 10
272.7981795495
 20
-5.3697162761
 10
272.7971427165
 20
-5.3587408425
 10
272.7959317757
 20
-5.3490664361
 10
272.7945702506
 20
-5.3408809911
 10
272.7930845902
 20
-5.3343435174
 10
272.7915036548
 20
-5.3295810114
 10
272.7898581555
 20
-5.3266859892
 10
272.7881800576
 20
-5.3257146892
  0
LWPOLYLINE
  5
384
100
AcDbEntity
  8
RACCORDO
100
AcDbPolyline
 62
253
  6
CONTINUOUS
 90
13
 70
0
 10
270.2573093619
 20
-4.2154242455
 10
270.2571651732
 20
-4.2293541988
 10
270.2576234782
 20
-4.2432134471
 10
270.2586753739
 20
-4.2567327614
 10
270.2603004262
 20
-4.2696495161
 10
270.2624670671
 20
-4.2817127913
 10
270.2651332074
 20
-4.2926882463
 10
270.2682470548
 20
-4.3023626726
 10
270.2717481199
 20
-4.3105481353
 10
270.2755683913
 20
-4.3170856241
 10
270.2796336567
 20
-4.321848142
 10
270.2838649444
 20
-4.3247431727
 10
270.2881800576
 20
-4.3257144774
  0
LWPOLYLINE
  5
385
100
AcDbEntity
  8
RACCORDO
100
AcDbPolyline
 62
253
  6
CONTINUOUS
 90
13
 70
0
 10
273.9190507534
 20
-5.4360047093
 10
273.9191949421
 20
-5.422074756
 10
273.9187366371
 20
-5.4082155077
 10
273.9176847414
 20
-5.3946961935
 10
273.9160596891
 20
-5.3817794387
 10
273.9138930482
 20
-5.3697161636
 10
273.9112269079
 20
-5.3587407086
 10
273.9081130605
 20
-5.3490662823
 10
273.9046119954
 20
-5.3408808196
 10
273.900791724
 20
-5.3343433308
 10
273.8967264586
 20
-5.3295808128
 10
273.8924951709
 20
-5.3266857821
 10
273.8881800576
 20
-5.3257144774
  0
LWPOLYLINE
  5
386
100
AcDbEntity
  8
RACCORDO
100
AcDbPolyline
 62
253
  6
CONTINUOUS
 90
16
 70
0
 10
271.7830349404
 20
-2.6896986566
 10
271.7828217917
 20
-2.7020262777
 10
271.782698076
 20
-2.7147492697
 10
271.7826658581
 20
-2.7276552779
 10
271.7827256757
 20
-2.740528893
 10
271.7828765305
 20
-2.7531552461
 10
271.7831159044
 20
-2.7653235955
 10
271.7834398022
 20
-2.7768308438
 10
271.7838428177
 20
-2.7874849277
 10
271.7843182246
 20
-2.7971080241
 10
271.7848580878
 20
-2.8055395172
 10
271.7854533968
 20
-2.8126386801
 10
271.7860942156
 20
-2.8182870234
 10
271.7867698487
 20
-2.8223902727
 10
271.7874690193
 20
-2.8248799421
 10
271.7881800576
 20
-2.8257144774
  0
LWPOLYLINE
  5
387
100
AcDbEntity
  8
RACCORDO
100
AcDbPolyline
 62
253
  6
CONTINUOUS
 90
16
 70
0
 10
272.3933251749
 20
-6.9617302983
 10
272.3935383235
 20
-6.9494026772
 10
272.3936620393
 20
-6.9366796851
 10
272.3936942572
 20
-6.9237736769
 10
272.3936344396
 20
-6.9109000619
 10
272.3934835848
 20
-6.8982737088
 10
272.3932442109
 20
-6.8861053594
 10
272.3929203131
 20
-6.8745981111
 10
272.3925172975
 20
-6.8639440271
 10
272.3920418907
 20
-6.8543209308
 10
272.3915020275
 20
-6.8458894377
 10
272.3909067185
 20
-6.8387902747
 10
272.3902658997
 20
-6.8331419314
 10
272.3895902666
 20
-6.8290386822
 10
272.388891096
 20
-6.8265490128
 10
272.3881800576
 20
-6.8257144774
  0
LWPOLYLINE
  5
388
100
AcDbEntity
  8
RACCORDO
100
AcDbPolyline
 62
253
  6
CONTINUOUS
 90
19
 70
0
 10
269.9521642265
 20
-4.5205693587
 10
269.9533039538
 20
-4.4944699006
 10
269.9565997787
 20
-4.4687847162
 10
269.9620360318
 20
-4.4435837049
 10
269.9696221105
 20
-4.4188495512
 10
269.9793170311
 20
-4.3947377844
 10
269.9910196336
 20
-4.3715717158
 10
270.0047148148
 20
-4.3493926561
 10
270.0203645349
 20
-4.3282788635
 10
270.0378149635
 20
-4.308592192
 10
270.0570937532
 20
-4.2903353085
 10
270.0781060426
 20
-4.2735908689
 10
270.1004963293
 20
-4.2588053858
 10
270.1242620352
 20
-4.2459876356
 10
270.1493336331
 20
-4.2351446152
 10
270.1752438152
 20
-4.2266651304
 10
270.2018169421
 20
-4.2206438477
 10
270.2291768524
 20
-4.2169109583
 10
270.2573093452
 20
-4.21542424
  0
LWPOLYLINE
  5
389
100
AcDbEntity
  8
RACCORDO
100
AcDbPolyline
 62
253
  6
CONTINUOUS
 90
19
 70
0
 10
274.2241958888
 20
-5.1308595962
 10
274.2230561614
 20
-5.1569590542
 10
274.2197603366
 20
-5.1826442387
 10
274.2143240835
 20
-5.2078452499
 10
274.2067380048
 20
-5.2325794036
 10
274.1970430842
 20
-5.2566911704
 10
274.1853404817
 20
-5.2798572391
 10
274.1716453005
 20
-5.3020362988
 10
274.1559955803
 20
-5.3231500913
 10
274.1385451518
 20
-5.3428367629
 10
274.1192663621
 20
-5.3610936463
 10
274.0982540727
 20
-5.377838086
 10
274.0758637859
 20
-5.3926235691
 10
274.0520980801
 20
-5.4054413193
 10
274.0270264822
 20
-5.4162843397
 10
274.0011163001
 20
-5.4247638244
 10
273.9745431732
 20
-5.4307851072
 10
273.9471832629
 20
-5.4345179965
 10
273.91905077
 20
-5.4360047149
  0
LWPOLYLINE
  5
38A
100
AcDbEntity
  8
RACCORDO
100
AcDbPolyline
 62
253
  6
CONTINUOUS
 90
19
 70
0
 10
271.4778898202
 20
-2.994843765
 10
271.4794911535
 20
-2.96620283
 10
271.4833211113
 20
-2.9385046584
 10
271.4894160521
 20
-2.9117635871
 10
271.4979345299
 20
-2.8859157696
 10
271.5087784796
 20
-2.8610760967
 10
271.5215713051
 20
-2.8375308858
 10
271.5363012587
 20
-2.8152971944
 10
271.5529652008
 20
-2.7944288674
 10
271.5711533239
 20
-2.7752572872
 10
271.5907976086
 20
-2.7578617588
 10
271.6118847746
 20
-2.7422311485
 10
271.6340525416
 20
-2.7285443031
 10
271.65723287
 20
-2.7168433333
 10
271.6813752869
 20
-2.7071405293
 10
271.7061252088
 20
-2.6995506625
 10
271.7313162654
 20
-2.6941184122
 10
271.7569761474
 20
-2.6908293722
 10
271.7830349389
 20
-2.6896986463
  0
LWPOLYLINE
  5
38B
100
AcDbEntity
  8
RACCORDO
100
AcDbPolyline
 62
253
  6
CONTINUOUS
 90
19
 70
0
 10
272.6984702951
 20
-6.6565851898
 10
272.6968689618
 20
-6.6852261249
 10
272.693039004
 20
-6.7129242964
 10
272.6869440631
 20
-6.7396653677
 10
272.6784255854
 20
-6.7655131852
 10
272.6675816357
 20
-6.7903528581
 10
272.6547888102
 20
-6.813898069
 10
272.6400588565
 20
-6.8361317604
 10
272.6233949145
 20
-6.8570000874
 10
272.6052067914
 20
-6.8761716676
 10
272.5855625067
 20
-6.893567196
 10
272.5644753407
 20
-6.9091978063
 10
272.5423075736
 20
-6.9228846518
 10
272.5191272453
 20
-6.9345856216
 10
272.4949848284
 20
-6.9442884255
 10
272.4702349065
 20
-6.9518782923
 10
272.4450438499
 20
-6.9573105426
 10
272.4193839679
 20
-6.9605995827
 10
272.3933251764
 20
-6.9617303086
  0
LINE
  5
38C
100
AcDbEntity
  8
0
100
AcDbLine
 62
7
  6
CONTINUOUS
 10
278.5881800576
 20
45.1742855226
 11
278.5881800576
 21
-54.8257144774
  0
LINE
  5
38D
100
AcDbEntity
  8
0
100
AcDbLine
 62
253
  6
CONTINUOUS
 10
279.6970150661
 20
35.1742855226
 11
279.6970150661
 21
-44.8257144774
  0
LINE
  5
38E
100
AcDbEntity
  8
0
100
AcDbLine
 62
253
  6
CONTINUOUS
 10
280.6522728102
 20
35.1742855226
 11
280.6522728102
 21
-44.8257144774
  0
LINE
  5
38F
100
AcDbEntity
  8
0
100
AcDbLine
 62
253
  6
CONTINUOUS
 10
283.0881800576
 20
35.1742855226
 11
283.0881800576
 21
-44.8257144774
  0
LINE
  5
390
100
AcDbEntity
  8
0
100
AcDbLine
 62
7
  6
CONTINUOUS
 10
284.1231773061
 20
-55.3257144774
 11
284.1231773061
 21
-47.3257144774
  0
LINE
  5
391
100
AcDbEntity
  8
0
100
AcDbLine
 62
7
  6
CONTINUOUS
 10
284.1231773061
 20
-47.3257144774
 11
284.1231773061
 21
-45.3257144774
  0
LINE
  5
392
100
AcDbEntity
  8
0
100
AcDbLine
 62
7
  6
CONTINUOUS
 10
284.1231773061
 20
37.6742855226
 11
284.1231773061
 21
55.8742855226
  0
LINE
  5
393
100
AcDbEntity
  8
0
100
AcDbLine
 62
7
  6
CONTINUOUS
 10
286.1231773061
 20
-47.3257144774
 11
286.1231773061
 21
-44.8257144774
  0
LINE
  5
394
100
AcDbEntity
  8
0
100
AcDbLine
 62
7
  6
CONTINUOUS
 10
286.1231773061
 20
35.1742855226
 11
286.1231773061
 21
37.6742855226
  0
LWPOLYLINE
  5
395
100
AcDbEntity
  8
RACCORDO
100
AcDbPolyline
 62
253
  6
CONTINUOUS
 90
9
 70
0
 10
402.6817520993
 20
-6.9617303086
 10
402.680685348
 20
-6.9606182675
 10
402.6803561952
 20
-6.9573396309
 10
402.6807655036
 20
-6.951908279
 10
402.6819166572
 20
-6.9443059011
 10
402.6838021704
 20
-6.9345784281
 10
402.6864037854
 20
-6.922848739
 10
402.6897194858
 20
-6.909133673
 10
402.693735885
 20
-6.8934719947
  0
LWPOLYLINE
  5
396
100
AcDbEntity
  8
RACCORDO
100
AcDbPolyline
 62
7
  6
CONTINUOUS
 90
7
 70
0
 10
402.7135156274
 20
-5.341867789
 10
402.714680944
 20
-5.3431673204
 10
402.7148536742
 20
-5.3433771776
 10
402.7140468552
 20
-5.3420915567
 10
402.7124867278
 20
-5.3392098346
 10
402.7103195568
 20
-5.3345541534
 10
402.7077095894
 20
-5.3280165211
  0
LINE
  5
397
100
AcDbEntity
  8
0
100
AcDbLine
 62
7
  6
CONTINUOUS
 10
330.410510528
 20
45.6742855226
 11
330.410510528
 21
55.8742855226
  0
LWPOLYLINE
  5
398
100
AcDbEntity
  8
RACCORDO
100
AcDbPolyline
 62
7
  6
CONTINUOUS
 90
11
 70
0
 10
403.0052081827
 20
-5.3805778523
 10
403.0000608371
 20
-5.3718889534
 10
402.9941148496
 20
-5.3637470403
 10
402.987259329
 20
-5.3560694472
 10
402.9794262468
 20
-5.3489120014
 10
402.9706464995
 20
-5.3424398799
 10
402.9609361513
 20
-5.336793905
 10
402.9502047893
 20
-5.3320811949
 10
402.9384744842
 20
-5.3285082569
 10
402.9259121358
 20
-5.3263216873
 10
402.9148291323
 20
-5.3257146925
  0
LINE
  5
399
100
AcDbEntity
  8
RACCORDO
100
AcDbLine
 62
7
  6
CONTINUOUS
 10
403.0167743959
 20
-4.1384346305
 11
403.0152852668
 21
-4.1238800998
  0
LINE
  5
39A
100
AcDbEntity
  8
RACCORDO
100
AcDbLine
 62
7
  6
CONTINUOUS
 10
403.0178779639
 20
-4.1512064764
 11
403.0166752531
 21
-4.1373855396
  0
LINE
  5
39B
100
AcDbEntity
  8
RACCORDO
100
AcDbLine
 62
7
  6
CONTINUOUS
 10
403.01873162
 20
-4.1632995067
 11
403.0178067786
 21
-4.150307813
  0
LINE
  5
39C
100
AcDbEntity
  8
RACCORDO
100
AcDbLine
 62
7
  6
CONTINUOUS
 10
402.6891841744
 20
-4.5337417836
 11
402.6884527698
 21
-4.5201993863
  0
LINE
  5
39D
100
AcDbEntity
  8
RACCORDO
100
AcDbLine
 62
7
  6
CONTINUOUS
 10
403.0193410127
 20
-4.1746406212
 11
403.018684279
 21
-4.1625442
  0
LINE
  5
39E
100
AcDbEntity
  8
RACCORDO
100
AcDbLine
 62
7
  6
CONTINUOUS
 10
402.6911543949
 20
-4.573828505
 11
402.6890844479
 21
-4.5318952868
  0
LINE
  5
39F
100
AcDbEntity
  8
RACCORDO
100
AcDbLine
 62
7
  6
CONTINUOUS
 10
402.6884480715
 20
-4.5201996458
 11
402.6878389857
 21
-4.5068400891
  0
LINE
  5
3A0
100
AcDbEntity
  8
RACCORDO
100
AcDbLine
 62
7
  6
CONTINUOUS
 10
402.692834127
 20
-4.613928319
 11
402.6910449526
 21
-4.5714355237
  0
LINE
  5
3A1
100
AcDbEntity
  8
RACCORDO
100
AcDbLine
 62
253
  6
CONTINUOUS
 10
402.6817520993
 20
-4.5205693587
 11
402.6806892664
 21
-4.4944699006
  0
LINE
  5
3A2
100
AcDbEntity
  8
RACCORDO
100
AcDbLine
 62
7
  6
CONTINUOUS
 10
402.694223266
 20
-4.6540388651
 11
402.6927420314
 21
-4.6115347604
  0
LWPOLYLINE
  5
3A3
100
AcDbEntity
  8
RACCORDO
100
AcDbPolyline
 62
253
  6
CONTINUOUS
 90
13
 70
0
 10
403.0135715106
 20
-4.2154242402
 10
403.0140326904
 20
-4.2293541744
 10
403.0125667564
 20
-4.2432134017
 10
403.0092021856
 20
-4.2567326938
 10
403.004004338
 20
-4.2696494259
 10
402.9970741867
 20
-4.2817126787
 10
402.988546356
 20
-4.2926881123
 10
402.9785865072
 20
-4.3023625187
 10
402.9673881194
 20
-4.3105479637
 10
402.9551687316
 20
-4.3170854374
 10
402.9421657167
 20
-4.3218479435
 10
402.9286316704
 20
-4.3247429657
 10
402.9148295039
 20
-4.3257142656
  0
LWPOLYLINE
  5
3A4
100
AcDbEntity
  8
RACCORDO
100
AcDbPolyline
 62
253
  6
CONTINUOUS
 90
10
 70
0
 10
402.7653945426
 20
-4.2154242455
 10
402.7658361949
 20
-4.2293541988
 10
402.7644324001
 20
-4.2432134471
 10
402.7612104281
 20
-4.2567327614
 10
402.7562328688
 20
-4.2696495161
 10
402.7495964161
 20
-4.2817127913
 10
402.7414299892
 20
-4.2926882463
 10
402.7318922287
 20
-4.3023626726
 10
402.7211684146
 20
-4.3105481353
 10
402.7105025475
 20
-4.3165070042
  0
LWPOLYLINE
  5
3A5
100
AcDbEntity
  8
0
100
AcDbPolyline
 62
7
  6
CONTINUOUS
 90
19
 70
0
 10
374.410510528
 20
42.6742855226
 10
374.4037230111
 20
42.8979222056
 10
374.3775934279
 20
43.125532649
 10
374.3321217783
 20
43.3556529806
 10
374.2675715785
 20
43.5871573711
 10
374.1836793123
 20
43.8176930359
 10
374.0796544313
 20
44.0438368947
 10
373.9547133339
 20
44.2634200596
 10
373.8096396217
 20
44.474679638
 10
373.6459935516
 20
44.6749435551
 10
373.4636067115
 20
44.8617899348
 10
373.2626475136
 20
45.0338220638
 10
373.0451814506
 20
45.189798818
 10
372.8114289227
 20
45.3272275561
 10
372.5611695298
 20
45.444512139
 10
372.2958075646
 20
45.5406985005
 10
372.0158111247
 20
45.613147338
 10
371.7207121125
 20
45.6585754259
 10
371.410510528
 20
45.6742855226
  0
LINE
  5
3A6
100
AcDbEntity
  8
RACCORDO
100
AcDbLine
 62
7
  6
CONTINUOUS
 10
402.6953217546
 20
-4.6941581818
 11
402.6941485165
 21
-4.6516447757
  0
LINE
  5
3A7
100
AcDbEntity
  8
RACCORDO
100
AcDbLine
 62
7
  6
CONTINUOUS
 10
402.6878711064
 20
-4.5080852803
 11
402.6872857256
 21
-4.4853924071
  0
LINE
  5
3A8
100
AcDbEntity
  8
RACCORDO
100
AcDbLine
 62
7
  6
CONTINUOUS
 10
402.6961295435
 20
-4.7342844476
 11
402.6952643527
 21
-4.691763627
  0
LINE
  5
3A9
100
AcDbEntity
  8
RACCORDO
100
AcDbLine
 62
7
  6
CONTINUOUS
 10
402.6966465898
 20
-4.774415631
 11
402.6960894902
 21
-4.7318894779
  0
LWPOLYLINE
  5
3AA
100
AcDbEntity
  8
RACCORDO
100
AcDbPolyline
 62
253
  6
CONTINUOUS
 90
7
 70
0
 10
402.6806892664
 20
-4.4944699006
 10
402.6803620605
 20
-4.4687847162
 10
402.6807713368
 20
-4.4435837049
 10
402.6819195675
 20
-4.4188495512
 10
402.6838001991
 20
-4.3947377844
 10
402.6863977302
 20
-4.3715717158
 10
402.6897081592
 20
-4.3493926561
  0
LINE
  5
3AB
100
AcDbEntity
  8
RACCORDO
100
AcDbLine
 62
7
  6
CONTINUOUS
 10
402.6968728747
 20
-4.814549307
 11
402.6966238875
 21
-4.7720202708
  0
LWPOLYLINE
  5
3AC
100
AcDbEntity
  8
RACCORDO
100
AcDbPolyline
 62
253
  6
CONTINUOUS
 90
10
 70
0
 10
402.6901732506
 20
-4.8257144774
 10
402.6900694615
 20
-4.791804062
 10
402.68975797
 20
-4.7579109001
 10
402.6892385408
 20
-4.7240179567
 10
402.6885096898
 20
-4.6900770065
 10
402.6875719583
 20
-4.656102284
 10
402.6864279251
 20
-4.6221709527
 10
402.6850778408
 20
-4.5882980805
 10
402.6835196149
 20
-4.5544362182
 10
402.6817520993
 20
-4.5205693587
  0
LINE
  5
3AD
100
AcDbEntity
  8
0
100
AcDbLine
 62
7
  6
CONTINUOUS
 10
374.0881800576
 20
46.1742855226
 11
374.0881800576
 21
55.8742855226
  0
LINE
  5
3AE
100
AcDbEntity
  8
0
100
AcDbLine
 62
253
  6
CONTINUOUS
 10
374.410510528
 20
42.6742855226
 11
374.410510528
 21
-52.3257144774
  0
LINE
  5
3AF
100
AcDbEntity
  8
0
100
AcDbLine
 62
7
  6
CONTINUOUS
 10
374.410510528
 20
-55.3257144774
 11
374.410510528
 21
-52.3257144774
  0
LINE
  5
3B0
100
AcDbEntity
  8
0
100
AcDbLine
 62
7
  6
CONTINUOUS
 10
376.5881800576
 20
46.1742855226
 11
376.5881800576
 21
55.8742855226
  0
LINE
  5
3B1
100
AcDbEntity
  8
0
100
AcDbLine
 62
7
  6
CONTINUOUS
 10
377.0881800576
 20
45.6742855226
 11
377.0881800576
 21
43.1742855226
  0
LINE
  5
3B2
100
AcDbEntity
  8
0
100
AcDbLine
 62
253
  6
CONTINUOUS
 10
380.0673647775
 20
42.6742855226
 11
380.0673647775
 21
-52.3257144774
  0
LINE
  5
3B3
100
AcDbEntity
  8
0
100
AcDbLine
 62
7
  6
CONTINUOUS
 10
385.0878229239
 20
-55.3257144774
 11
385.0878229239
 21
-52.8257144774
  0
LINE
  5
3B4
100
AcDbEntity
  8
0
100
AcDbLine
 62
7
  6
CONTINUOUS
 10
385.6092369418
 20
-55.3257144774
 11
385.6092369418
 21
-52.8257144774
  0
LINE
  5
3B5
100
AcDbEntity
  8
0
100
AcDbLine
 62
7
  6
CONTINUOUS
 10
386.36061513
 20
-55.3257144774
 11
386.36061513
 21
-52.8257144774
  0
LINE
  5
3B6
100
AcDbEntity
  8
0
100
AcDbLine
 62
7
  6
CONTINUOUS
 10
388.0881800576
 20
43.1742855226
 11
388.0881800576
 21
42.6742855226
  0
LINE
  5
3B7
100
AcDbEntity
  8
0
100
AcDbLine
 62
7
  6
CONTINUOUS
 10
388.0881800576
 20
-52.8257144774
 11
388.0881800576
 21
-52.3257144774
  0
LINE
  5
3B8
100
AcDbEntity
  8
0
100
AcDbLine
 62
253
  6
CONTINUOUS
 10
396.0881800576
 20
43.1742855226
 11
396.0881800576
 21
42.6742855226
  0
LINE
  5
3B9
100
AcDbEntity
  8
0
100
AcDbLine
 62
253
  6
CONTINUOUS
 10
396.0881800576
 20
-52.8257144774
 11
396.0881800576
 21
-52.3257144774
  0
LINE
  5
3BA
100
AcDbEntity
  8
0
100
AcDbLine
 62
7
  6
CONTINUOUS
 10
397.0379275259
 20
-52.8257144774
 11
397.0379275259
 21
-55.3257144774
  0
LINE
  5
3BB
100
AcDbEntity
  8
0
100
AcDbLine
 62
7
  6
CONTINUOUS
 10
397.0881800576
 20
45.6742855226
 11
397.0881800576
 21
43.1742855226
  0
LINE
  5
3BC
100
AcDbEntity
  8
0
100
AcDbLine
 62
253
  6
CONTINUOUS
 10
397.0881800576
 20
-55.3257144774
 11
397.0881800576
 21
-52.8257144774
  0
LINE
  5
3BD
100
AcDbEntity
  8
0
100
AcDbLine
 62
253
  6
CONTINUOUS
 10
397.7450343071
 20
42.6742855226
 11
397.7450343071
 21
-52.3257144774
  0
LINE
  5
3BE
100
AcDbEntity
  8
0
100
AcDbLine
 62
7
  6
CONTINUOUS
 10
400.0881800576
 20
-52.3257144774
 11
400.0881800576
 21
42.6742855226
  0
LINE
  5
3BF
100
AcDbEntity
  8
0
100
AcDbLine
 62
253
  6
CONTINUOUS
 10
400.3974418026
 20
-9.7932312559
 11
400.3974418026
 21
0.1418023011
  0
LINE
  5
3C0
100
AcDbEntity
  8
RACCORDO
100
AcDbLine
 62
7
  6
CONTINUOUS
 10
402.6968675274
 20
-4.8392753787
 11
402.6968675274
 21
-4.8121535761
  0
LWPOLYLINE
  5
3C1
100
AcDbEntity
  8
RACCORDO
100
AcDbPolyline
 62
7
  6
CONTINUOUS
 90
10
 70
0
 10
402.6872857256
 20
-4.4853924071
 10
402.6873441586
 20
-4.463280759
 10
402.6880243292
 20
-4.441996051
 10
402.6892788794
 20
-4.4218166704
 10
402.6910425798
 20
-4.4029021405
 10
402.6932516483
 20
-4.3854059406
 10
402.6958133679
 20
-4.3695542256
 10
402.6986304976
 20
-4.3554235737
 10
402.7016014941
 20
-4.3430674449
 10
402.7045883813
 20
-4.3326218857
  0
LINE
  5
3C2
100
AcDbEntity
  8
RACCORDO
100
AcDbLine
 62
7
  6
CONTINUOUS
 10
402.6966238875
 20
-4.879408684
 11
402.6968697907
 21
-4.8374266278
  0
LINE
  5
3C3
100
AcDbEntity
  8
RACCORDO
100
AcDbLine
 62
7
  6
CONTINUOUS
 10
402.6960894902
 20
-4.919539477
 11
402.6966465898
 21
-4.8770133239
  0
LWPOLYLINE
  5
3C4
100
AcDbEntity
  8
RACCORDO
100
AcDbPolyline
 62
7
  6
CONTINUOUS
 90
6
 70
0
 10
403.0197155728
 20
-5.4662057062
 10
403.0198608366
 20
-5.456387777
 10
403.0197813705
 20
-5.4472523367
 10
403.0194738403
 20
-5.4387292971
 10
403.0189230068
 20
-5.4306899934
 10
403.0180728101
 20
-5.4227881286
  0
LINE
  5
3C5
100
AcDbEntity
  8
RACCORDO
100
AcDbLine
 62
7
  6
CONTINUOUS
 10
402.6952643527
 20
-4.9596653278
 11
402.6961295435
 21
-4.9171445072
  0
LWPOLYLINE
  5
3C6
100
AcDbEntity
  8
RACCORDO
100
AcDbPolyline
 62
7
  6
CONTINUOUS
 90
3
 70
0
 10
402.6872558628
 20
-5.1689055319
 10
402.6877624898
 20
-5.1462616955
 10
402.6884498861
 20
-5.1312295591
  0
LINE
  5
3C7
100
AcDbEntity
  8
RACCORDO
100
AcDbLine
 62
7
  6
CONTINUOUS
 10
402.6941485165
 20
-4.9997841792
 11
402.6953217546
 21
-4.957270773
  0
LWPOLYLINE
  5
3C8
100
AcDbEntity
  8
RACCORDO
100
AcDbPolyline
 62
253
  6
CONTINUOUS
 90
10
 70
0
 10
402.7653905573
 20
-5.4360042752
 10
402.7658334077
 20
-5.4220739902
 10
402.7644306573
 20
-5.4082142499
 10
402.7612095589
 20
-5.3946943244
 10
402.7562326927
 20
-5.3817768816
 10
402.7495967504
 20
-5.3697128842
 10
402.7414306563
 20
-5.3587367141
 10
402.731893063
 20
-5.3490616185
 10
402.7211692688
 20
-5.3408755674
 10
402.710482775
 20
-5.3349047913
  0
LWPOLYLINE
  5
3C9
100
AcDbEntity
  8
RACCORDO
100
AcDbPolyline
 62
253
  6
CONTINUOUS
 90
10
 70
0
 10
403.0135714939
 20
-5.4360047129
 10
403.0140326916
 20
-5.4220747564
 10
403.0125667725
 20
-5.408215505
 10
403.0092022133
 20
-5.3946961878
 10
403.0040043738
 20
-5.3817794304
 10
402.9970742272
 20
-5.3697161532
 10
402.988546398
 20
-5.3587406969
 10
402.9785865474
 20
-5.3490662701
 10
402.9673881552
 20
-5.3408808078
 10
402.9551687606
 20
-5.3343433205
  0
LINE
  5
3CA
100
AcDbEntity
  8
RACCORDO
100
AcDbLine
 62
7
  6
CONTINUOUS
 10
402.6927420314
 20
-5.0398941944
 11
402.694223266
 21
-4.9973900897
  0
LINE
  5
3CB
100
AcDbEntity
  8
RACCORDO
100
AcDbLine
 62
7
  6
CONTINUOUS
 10
403.0193130081
 20
-5.4774093336
 11
403.0197024751
 21
-5.4667004023
  0
LINE
  5
3CC
100
AcDbEntity
  8
RACCORDO
100
AcDbLine
 62
253
  6
CONTINUOUS
 10
402.6806893781
 20
-5.15687742
 11
402.6817520993
 21
-5.1308595962
  0
LINE
  5
3CD
100
AcDbEntity
  8
RACCORDO
100
AcDbLine
 62
7
  6
CONTINUOUS
 10
402.6910449526
 20
-5.0799934311
 11
402.692834127
 21
-5.0375006359
  0
LINE
  5
3CE
100
AcDbEntity
  8
RACCORDO
100
AcDbLine
 62
7
  6
CONTINUOUS
 10
402.6890573801
 20
-5.1200795805
 11
402.6911543949
 21
-5.0776004498
  0
LWPOLYLINE
  5
3CF
100
AcDbEntity
  8
RACCORDO
100
AcDbPolyline
 62
253
  6
CONTINUOUS
 90
10
 70
0
 10
402.6817520993
 20
-5.1308595962
 10
402.6835196343
 20
-5.0969922533
 10
402.6850778727
 20
-5.0631300524
 10
402.6864279626
 20
-5.0292569858
 10
402.6875719919
 20
-4.9953256333
 10
402.6885097128
 20
-4.961351032
 10
402.6892385543
 20
-4.9274102547
 10
402.6897579779
 20
-4.8935175067
 10
402.6900694649
 20
-4.8596245925
 10
402.6901732506
 20
-4.8257144774
  0
LINE
  5
3D0
100
AcDbEntity
  8
RACCORDO
100
AcDbLine
 62
7
  6
CONTINUOUS
 10
402.6884527698
 20
-5.1312295685
 11
402.6891841744
 21
-5.1176871712
  0
LINE
  5
3D1
100
AcDbEntity
  8
RACCORDO
100
AcDbLine
 62
7
  6
CONTINUOUS
 10
403.018684279
 20
-5.4888847548
 11
403.0193410127
 21
-5.4767883336
  0
LINE
  5
3D2
100
AcDbEntity
  8
RACCORDO
100
AcDbLine
 62
7
  6
CONTINUOUS
 10
403.0178067786
 20
-5.5011211418
 11
403.01873162
 21
-5.4881294482
  0
LINE
  5
3D3
100
AcDbEntity
  8
RACCORDO
100
AcDbLine
 62
7
  6
CONTINUOUS
 10
403.0166752531
 20
-5.5140434153
 11
403.0178779639
 21
-5.5002224785
  0
LWPOLYLINE
  5
3D4
100
AcDbEntity
  8
RACCORDO
100
AcDbPolyline
 62
253
  6
CONTINUOUS
 90
20
 70
0
 10
403.0156596633
 20
-5.5187233019
 10
403.0164978711
 20
-5.5097125772
 10
403.0172047999
 20
-5.5008899571
 10
403.0177794964
 20
-5.4923538302
 10
403.0182150726
 20
-5.484438609
 10
403.01850069
 20
-5.4772197546
 10
403.0186493515
 20
-5.4705888687
 10
403.0186893428
 20
-5.4646175271
 10
403.0186184191
 20
-5.4593522413
 10
403.0184387527
 20
-5.4547326182
 10
403.0181849137
 20
-5.4506859343
 10
403.0178582957
 20
-5.4472305119
 10
403.0174565982
 20
-5.444349717
 10
403.0170090546
 20
-5.4419287589
 10
403.0165188584
 20
-5.4399746865
 10
403.0159819617
 20
-5.438490196
 10
403.015417135
 20
-5.4373579041
 10
403.0148305267
 20
-5.4365423633
 10
403.0142154275
 20
-5.4360895627
 10
403.0135715129
 20
-5.4360047149
  0
LINE
  5
3D5
100
AcDbEntity
  8
RACCORDO
100
AcDbLine
 62
7
  6
CONTINUOUS
 10
403.0152852668
 20
-5.527548855
 11
403.0167743959
 21
-5.5129943244
  0
LINE
  5
3D6
100
AcDbEntity
  8
RACCORDO
100
AcDbLine
 62
7
  6
CONTINUOUS
 10
403.014097919
 20
-5.5377837512
 11
403.0154179945
 21
-5.5263437672
  0
LINE
  5
3D7
100
AcDbEntity
  8
RACCORDO
100
AcDbLine
 62
253
  6
CONTINUOUS
 10
402.9979528205
 20
-5.6561070582
 11
403.0062112633
 21
-5.5957859247
  0
LWPOLYLINE
  5
3D8
100
AcDbEntity
  8
RACCORDO
100
AcDbPolyline
 62
7
  6
CONTINUOUS
 90
8
 70
0
 10
403.0168200355
 20
-4.2366746724
 10
403.0180782445
 20
-4.2285980776
 10
403.0189332105
 20
-4.2206229087
 10
403.019483484
 20
-4.2125086684
 10
403.0197872685
 20
-4.2039004736
 10
403.0198594829
 20
-4.194664537
 10
403.0197024751
 20
-4.1847285526
 10
403.0193130081
 20
-4.1740196213
  0
LINE
  5
3D9
100
AcDbEntity
  8
RACCORDO
100
AcDbLine
 62
253
  6
CONTINUOUS
 10
402.9784354956
 20
-5.7834545414
 11
402.9887192222
 21
-5.7186937011
  0
LINE
  5
3DA
100
AcDbEntity
  8
RACCORDO
100
AcDbLine
 62
7
  6
CONTINUOUS
 10
402.6869198639
 20
-6.9279712209
 11
402.6873760695
 21
-6.9252039594
  0
LINE
  5
3DB
100
AcDbEntity
  8
RACCORDO
100
AcDbLine
 62
253
  6
CONTINUOUS
 10
402.9543259784
 20
-5.919946729
 11
402.9670089808
 21
-5.8504595234
  0
LWPOLYLINE
  5
3DC
100
AcDbEntity
  8
RACCORDO
100
AcDbPolyline
 62
7
  6
CONTINUOUS
 90
8
 70
0
 10
402.6873760695
 20
-6.9252039594
 10
402.6876998304
 20
-6.923466903
 10
402.6881724752
 20
-6.9210787433
 10
402.6887695607
 20
-6.9182113189
 10
402.6894723363
 20
-6.9149819176
 10
402.6902756501
 20
-6.9114277488
 10
402.6911881703
 20
-6.907521185
 10
402.6922065012
 20
-6.9032856108
  0
LINE
  5
3DD
100
AcDbEntity
  8
RACCORDO
100
AcDbLine
 62
253
  6
CONTINUOUS
 10
402.6897081592
 20
-4.3493926561
 11
402.6937201068
 21
-4.3282788635
  0
LINE
  5
3DE
100
AcDbEntity
  8
RACCORDO
100
AcDbLine
 62
253
  6
CONTINUOUS
 10
402.9247698713
 20
-6.0663141396
 11
402.9402782319
 21
-5.9919251452
  0
LINE
  5
3DF
100
AcDbEntity
  8
RACCORDO
100
AcDbLine
 62
253
  6
CONTINUOUS
 10
402.6937201068
 20
-4.3282788635
 11
402.6984045276
 21
-4.308592192
  0
LINE
  5
3E0
100
AcDbEntity
  8
RACCORDO
100
AcDbLine
 62
7
  6
CONTINUOUS
 10
402.6922065012
 20
-6.9032856108
 11
402.6935282055
 21
-6.897947006
  0
LWPOLYLINE
  5
3E1
100
AcDbEntity
  8
RACCORDO
100
AcDbPolyline
 62
253
  6
CONTINUOUS
 90
3
 70
0
 10
402.8684214781
 20
-6.3041919331
 10
402.8889559568
 20
-6.2225054805
 10
402.9076959839
 20
-6.1432083509
  0
LINE
  5
3E2
100
AcDbEntity
  8
RACCORDO
100
AcDbLine
 62
7
  6
CONTINUOUS
 10
402.6933310914
 20
-6.8987247569
 11
402.6947812326
 21
-6.8929863377
  0
LINE
  5
3E3
100
AcDbEntity
  8
RACCORDO
100
AcDbLine
 62
7
  6
CONTINUOUS
 10
402.694561681
 20
-6.8938430324
 11
402.6973238288
 21
-6.8831865975
  0
LINE
  5
3E4
100
AcDbEntity
  8
RACCORDO
100
AcDbLine
 62
7
  6
CONTINUOUS
 10
402.6961336888
 20
-6.8877314571
 11
402.6991338295
 21
-6.8763702472
  0
LWPOLYLINE
  5
3E5
100
AcDbEntity
  8
RACCORDO
100
AcDbPolyline
 62
253
  6
CONTINUOUS
 90
6
 70
0
 10
402.693735885
 20
-6.8934719947
 10
402.698415345
 20
-6.876040093
 10
402.7037609102
 20
-6.8568241188
 10
402.7097438445
 20
-6.835906318
 10
402.7162782283
 20
-6.813623988
 10
402.719410025
 20
-6.8051996041
  0
LINE
  5
3E6
100
AcDbEntity
  8
RACCORDO
100
AcDbLine
 62
7
  6
CONTINUOUS
 10
402.6988545016
 20
-6.8774199547
 11
402.7025316947
 21
-6.8638814446
  0
LINE
  5
3E7
100
AcDbEntity
  8
RACCORDO
100
AcDbLine
 62
7
  6
CONTINUOUS
 10
402.7022074454
 20
-6.8650596027
 11
402.7063208007
 21
-6.8503023741
  0
LINE
  5
3E8
100
AcDbEntity
  8
RACCORDO
100
AcDbLine
 62
7
  6
CONTINUOUS
 10
402.7059472108
 20
-6.8516228756
 11
402.7104897151
 21
-6.8356726535
  0
LINE
  5
3E9
100
AcDbEntity
  8
RACCORDO
100
AcDbLine
 62
7
  6
CONTINUOUS
 10
402.7100697627
 20
-6.8371348394
 11
402.7150276647
 21
-6.8200437561
  0
LWPOLYLINE
  5
3EA
100
AcDbEntity
  8
RACCORDO
100
AcDbPolyline
 62
253
  6
CONTINUOUS
 90
10
 70
0
 10
402.6984045276
 20
-4.308592192
 10
402.7037683017
 20
-4.2903353085
 10
402.7097783979
 20
-4.2735908689
 10
402.7163451804
 20
-4.2588053858
 10
402.7234656648
 20
-4.2459876356
 10
402.731110267
 20
-4.2351446152
 10
402.7391523545
 20
-4.2266651304
 10
402.7475402885
 20
-4.2206438477
 10
402.7562936642
 20
-4.2169109583
 10
402.7653945937
 20
-4.21542424
  0
LINE
  5
3EB
100
AcDbEntity
  8
RACCORDO
100
AcDbLine
 62
7
  6
CONTINUOUS
 10
402.7145607136
 20
-6.8216445427
 11
402.7199263461
 21
-6.8034632743
  0
LWPOLYLINE
  5
3EC
100
AcDbEntity
  8
RACCORDO
100
AcDbPolyline
 62
253
  6
CONTINUOUS
 90
3
 70
0
 10
402.7225085592
 20
-6.7948281851
 10
402.7233486434
 20
-6.7900135501
 10
402.7251763998
 20
-6.7859738489
  0
LWPOLYLINE
  5
3ED
100
AcDbEntity
  8
RACCORDO
100
AcDbPolyline
 62
253
  6
CONTINUOUS
 90
3
 70
0
 10
402.7945532218
 20
-6.5648113356
 10
402.8213536656
 20
-6.4754180912
 10
402.8459351649
 20
-6.3884877667
  0
LINE
  5
3EE
100
AcDbEntity
  8
RACCORDO
100
AcDbLine
 62
7
  6
CONTINUOUS
 10
402.719410025
 20
-6.8051996041
 11
402.7273344707
 21
-6.7788505013
  0
LWPOLYLINE
  5
3EF
100
AcDbEntity
  8
RACCORDO
100
AcDbPolyline
 62
253
  6
CONTINUOUS
 90
3
 70
0
 10
402.7279273668
 20
-6.7769081342
 10
402.7309386703
 20
-6.7651098292
 10
402.7330284954
 20
-6.7602493908
  0
LINE
  5
3F0
100
AcDbEntity
  8
RACCORDO
100
AcDbLine
 62
7
  6
CONTINUOUS
 10
402.7251763998
 20
-6.7859738489
 11
402.7336688167
 21
-6.7581755951
  0
LWPOLYLINE
  5
3F1
100
AcDbEntity
  8
RACCORDO
100
AcDbPolyline
 62
253
  6
CONTINUOUS
 90
3
 70
0
 10
402.7366561805
 20
-6.7485209773
 10
402.7389624675
 20
-6.7392579864
 10
402.7421408097
 20
-6.7309472254
  0
LINE
  5
3F2
100
AcDbEntity
  8
RACCORDO
100
AcDbLine
 62
7
  6
CONTINUOUS
 10
402.7330284954
 20
-6.7602493908
 11
402.7428533936
 21
-6.728675506
  0
LWPOLYLINE
  5
3F3
100
AcDbEntity
  8
RACCORDO
100
AcDbPolyline
 62
253
  6
CONTINUOUS
 90
5
 70
0
 10
402.6817446887
 20
-6.9617274425
 10
402.6856046554
 20
-6.9493997691
 10
402.6878454697
 20
-6.9366765374
 10
402.6884297259
 20
-6.9237701359
 10
402.6881945909
 20
-6.9209725354
  0
LWPOLYLINE
  5
3F4
100
AcDbEntity
  8
RACCORDO
100
AcDbPolyline
 62
253
  6
CONTINUOUS
 90
3
 70
0
 10
402.7460596068
 20
-6.7184984312
 10
402.7473806133
 20
-6.7125925986
 10
402.7518862366
 20
-6.700154526
  0
LWPOLYLINE
  5
3F5
100
AcDbEntity
  8
RACCORDO
100
AcDbPolyline
 62
7
  6
CONTINUOUS
 90
10
 70
0
 10
402.7658991674
 20
-6.6567499209
 10
402.7975141338
 20
-6.5569177409
 10
402.8353032827
 20
-6.428639892
 10
402.8701747542
 20
-6.2995400208
 10
402.9021106896
 20
-6.1696849704
 10
402.9310955603
 20
-6.0391380517
 10
402.9571148222
 20
-5.9079652234
 10
402.9801546256
 20
-5.7762341759
 10
403.0002031922
 20
-5.6440116043
 10
403.0140984848
 20
-5.5377837674
  0
LINE
  5
3F6
100
AcDbEntity
  8
RACCORDO
100
AcDbLine
 62
7
  6
CONTINUOUS
 10
402.7421408097
 20
-6.7309472254
 11
402.7526742146
 21
-6.6976814054
  0
LINE
  5
3F7
100
AcDbEntity
  8
RACCORDO
100
AcDbLine
 62
253
  6
CONTINUOUS
 10
402.7552640711
 20
-6.6895998039
 11
402.7561977649
 21
-6.6850302489
  0
LINE
  5
3F8
100
AcDbEntity
  8
RACCORDO
100
AcDbLine
 62
7
  6
CONTINUOUS
 10
402.7518862366
 20
-6.700154526
 11
402.7621957247
 21
-6.6681184279
  0
LINE
  5
3F9
100
AcDbEntity
  8
RACCORDO
100
AcDbLine
 62
7
  6
CONTINUOUS
 10
402.7621957247
 20
-6.6681184279
 11
402.765895832
 21
-6.6567488323
  0
LWPOLYLINE
  5
3FA
100
AcDbEntity
  8
RACCORDO
100
AcDbPolyline
 62
7
  6
CONTINUOUS
 90
6
 70
0
 10
402.7045883813
 20
-4.3326218857
 10
402.7074719923
 20
-4.3240573836
 10
402.7101210579
 20
-4.3173365182
 10
402.7123355147
 20
-4.3125213859
 10
402.7139539568
 20
-4.3094973155
 10
402.714195348
 20
-4.3090886642
  0
LWPOLYLINE
  5
3FB
100
AcDbEntity
  8
RACCORDO
100
AcDbPolyline
 62
7
  6
CONTINUOUS
 90
13
 70
0
 10
403.0126304435
 20
-5.3981079679
 10
403.0093262479
 20
-5.3892568707
 10
403.0049998588
 20
-5.3801872962
 10
402.9997567912
 20
-5.3714300992
 10
402.9937010244
 20
-5.36323749
 10
402.9867207962
 20
-5.3555275653
 10
402.9787469989
 20
-5.3483577745
 10
402.9698124087
 20
-5.3418971551
 10
402.9599368417
 20
-5.3362915558
 10
402.9490324097
 20
-5.3316535812
 10
402.9371264888
 20
-5.3281951339
 10
402.9243941969
 20
-5.3261664849
 10
402.9148247206
 20
-5.3257145615
  0
LWPOLYLINE
  5
3FC
100
AcDbEntity
  8
RACCORDO
100
AcDbPolyline
 62
7
  6
CONTINUOUS
 90
11
 70
0
 10
402.7077095894
 20
-5.3280165211
 10
402.7048567652
 20
-5.3196616676
 10
402.7018895114
 20
-5.309449402
 10
402.698927313
 20
-5.2973482189
 10
402.6961084199
 20
-5.2834863997
 10
402.6935279251
 20
-5.2679073197
 10
402.6912807409
 20
-5.2506749654
 10
402.6894671816
 20
-5.2319986824
 10
402.6881532141
 20
-5.2120255431
 10
402.6873963362
 20
-5.1909060186
 10
402.6872558628
 20
-5.1689055319
  0
LINE
  5
3FD
100
AcDbEntity
  8
RACCORDO
100
AcDbLine
 62
7
  6
CONTINUOUS
 10
402.765895832
 20
-2.9946801226
 11
402.7560762193
 21
-2.9643649306
  0
LINE
  5
3FE
100
AcDbEntity
  8
RACCORDO
100
AcDbLine
 62
253
  6
CONTINUOUS
 10
402.756137282
 20
-2.96620283
 11
402.7560762193
 21
-2.9643649306
  0
LINE
  5
3FF
100
AcDbEntity
  8
RACCORDO
100
AcDbLine
 62
253
  6
CONTINUOUS
 10
402.752671711
 20
-2.9537397137
 11
402.7472774105
 21
-2.9385046584
  0
LINE
  5
400
100
AcDbEntity
  8
RACCORDO
100
AcDbLine
 62
7
  6
CONTINUOUS
 10
402.7560762193
 20
-2.9643649306
 11
402.7460548441
 21
-2.9329154495
  0
LWPOLYLINE
  5
401
100
AcDbEntity
  8
RACCORDO
100
AcDbPolyline
 62
253
  6
CONTINUOUS
 90
5
 70
0
 10
402.6817520728
 20
-2.6896986566
 10
402.6856109094
 20
-2.7020262777
 10
402.6878506553
 20
-2.7147492697
 10
402.6884339278
 20
-2.7276552779
 10
402.6881965631
 20
-2.7304769974
  0
LINE
  5
402
100
AcDbEntity
  8
RACCORDO
100
AcDbLine
 62
7
  6
CONTINUOUS
 10
402.7460548441
 20
-2.9329154495
 11
402.7366474891
 21
-2.9028799747
  0
LINE
  5
403
100
AcDbEntity
  8
RACCORDO
100
AcDbLine
 62
7
  6
CONTINUOUS
 10
402.7366474891
 20
-2.9028799747
 11
402.7279146646
 21
-2.874479102
  0
LWPOLYLINE
  5
404
100
AcDbEntity
  8
RACCORDO
100
AcDbPolyline
 62
253
  6
CONTINUOUS
 90
6
 70
0
 10
402.7174151432
 20
-2.8395006444
 10
402.716197043
 20
-2.8375308858
 10
402.7096784545
 20
-2.8152971944
 10
402.70371117
 20
-2.7944288674
 10
402.6983793646
 20
-2.7752572872
 10
402.6937109905
 20
-2.7578617588
  0
LINE
  5
405
100
AcDbEntity
  8
RACCORDO
100
AcDbLine
 62
7
  6
CONTINUOUS
 10
402.7279146646
 20
-2.874479102
 11
402.7199101781
 21
-2.847911399
  0
LINE
  5
406
100
AcDbEntity
  8
RACCORDO
100
AcDbLine
 62
7
  6
CONTINUOUS
 10
402.7199101781
 20
-2.847911399
 11
402.7150097487
 21
-2.8313240353
  0
LINE
  5
407
100
AcDbEntity
  8
RACCORDO
100
AcDbLine
 62
7
  6
CONTINUOUS
 10
402.7150097487
 20
-2.8313240353
 11
402.7104706395
 21
-2.81568999
  0
LINE
  5
408
100
AcDbEntity
  8
RACCORDO
100
AcDbLine
 62
7
  6
CONTINUOUS
 10
402.7104706395
 20
-2.81568999
 11
402.7063012075
 21
-2.801057127
  0
LWPOLYLINE
  5
409
100
AcDbEntity
  8
RACCORDO
100
AcDbPolyline
 62
253
  6
CONTINUOUS
 90
3
 70
0
 10
402.8456951661
 20
-3.2620678511
 10
402.8211512652
 20
-3.1753105467
 10
402.7944290318
 20
-3.0862085743
  0
LINE
  5
40A
100
AcDbEntity
  8
RACCORDO
100
AcDbLine
 62
7
  6
CONTINUOUS
 10
402.7063012075
 20
-2.801057127
 11
402.7025123407
 21
-2.7874773027
  0
LINE
  5
40B
100
AcDbEntity
  8
RACCORDO
100
AcDbLine
 62
7
  6
CONTINUOUS
 10
402.7025123407
 20
-2.7874773027
 11
402.6991154537
 21
-2.7749901801
  0
LWPOLYLINE
  5
40C
100
AcDbEntity
  8
RACCORDO
100
AcDbPolyline
 62
7
  6
CONTINUOUS
 90
4
 70
0
 10
402.6991154537
 20
-2.7749901801
 10
402.6961169532
 20
-2.7636330371
 10
402.6947655401
 20
-2.7583810718
 10
402.6935136853
 20
-2.753423881
  0
LWPOLYLINE
  5
40D
100
AcDbEntity
  8
RACCORDO
100
AcDbPolyline
 62
253
  6
CONTINUOUS
 90
9
 70
0
 10
402.6937109905
 20
-2.7578617588
 10
402.6897036328
 20
-2.7422311485
 10
402.6863952841
 20
-2.7285443031
 10
402.6837994024
 20
-2.7168433333
 10
402.6819178613
 20
-2.7071405293
 10
402.6807689715
 20
-2.6995506625
 10
402.6803602307
 20
-2.6941184122
 10
402.6806882258
 20
-2.6908293722
 10
402.6817520993
 20
-2.6896986463
  0
LWPOLYLINE
  5
40E
100
AcDbEntity
  8
RACCORDO
100
AcDbPolyline
 62
7
  6
CONTINUOUS
 90
10
 70
0
 10
402.6935136853
 20
-2.753423881
 10
402.6923671836
 20
-2.7487899145
 10
402.6913262204
 20
-2.7444816306
 10
402.6903914652
 20
-2.7405041372
 10
402.6895695578
 20
-2.7368920798
 10
402.6888552722
 20
-2.7336325818
 10
402.6882503481
 20
-2.7307471983
 10
402.6877668277
 20
-2.7283181254
 10
402.6873901227
 20
-2.7263061042
 10
402.6873114279
 20
-2.7258660139
  0
LINE
  5
40F
100
AcDbEntity
  8
RACCORDO
100
AcDbLine
 62
253
  6
CONTINUOUS
 10
402.6983359428
 20
-5.3425764368
 11
402.6936632132
 21
-5.322888279
  0
LWPOLYLINE
  5
410
100
AcDbEntity
  8
RACCORDO
100
AcDbPolyline
 62
253
  6
CONTINUOUS
 90
3
 70
0
 10
402.9075381444
 20
-3.5075318923
 10
402.8887658227
 20
-3.4281471785
 10
402.8681915476
 20
-3.3463538578
  0
LINE
  5
411
100
AcDbEntity
  8
RACCORDO
100
AcDbLine
 62
253
  6
CONTINUOUS
 10
402.940143049
 20
-3.6588331619
 11
402.9246257849
 21
-3.5844442788
  0
LINE
  5
412
100
AcDbEntity
  8
RACCORDO
100
AcDbLine
 62
253
  6
CONTINUOUS
 10
402.6936632132
 20
-5.322888279
 11
402.6896645981
 21
-5.3017842853
  0
LINE
  5
413
100
AcDbEntity
  8
RACCORDO
100
AcDbLine
 62
253
  6
CONTINUOUS
 10
402.9668873797
 20
-3.8002754741
 11
402.9541991702
 21
-3.7308106479
  0
LINE
  5
414
100
AcDbEntity
  8
RACCORDO
100
AcDbLine
 62
253
  6
CONTINUOUS
 10
402.9886177093
 20
-3.9320726088
 11
402.9783188534
 21
-3.8672577023
  0
LWPOLYLINE
  5
415
100
AcDbEntity
  8
RACCORDO
100
AcDbPolyline
 62
7
  6
CONTINUOUS
 90
4
 70
0
 10
403.0180782445
 20
-5.4228308772
 10
403.0168200355
 20
-5.4147542824
 10
403.0150521351
 20
-5.4065445047
 10
403.0126304435
 20
-5.3981079679
  0
LWPOLYLINE
  5
416
100
AcDbEntity
  8
RACCORDO
100
AcDbPolyline
 62
253
  6
CONTINUOUS
 90
7
 70
0
 10
402.6896645981
 20
-5.3017842853
 10
402.6863662463
 20
-5.2796178387
 10
402.6837787681
 20
-5.2564591436
 10
402.6819068405
 20
-5.2323571271
 10
402.6807651987
 20
-5.2076497409
 10
402.6803601252
 20
-5.1824973269
 10
402.6806893781
 20
-5.15687742
  0
LINE
  5
417
100
AcDbEntity
  8
RACCORDO
100
AcDbLine
 62
253
  6
CONTINUOUS
 10
403.0061710837
 20
-4.0553561538
 11
402.9978784369
 21
-3.9948125092
  0
LWPOLYLINE
  5
418
100
AcDbEntity
  8
RACCORDO
100
AcDbPolyline
 62
7
  6
CONTINUOUS
 90
10
 70
0
 10
403.0140984723
 20
-4.1136451315
 10
403.0005347255
 20
-4.0097880382
 10
402.9805392552
 20
-3.8775539657
 10
402.9575524095
 20
-3.7458113906
 10
402.9315860363
 20
-3.6146270133
 10
402.9026540364
 20
-3.4840685917
 10
402.8707709322
 20
-3.3542017333
 10
402.8359522227
 20
-3.2250896039
 10
402.7982160864
 20
-3.0967997365
 10
402.7658991953
 20
-2.994679027
  0
LINE
  5
419
100
AcDbEntity
  8
RACCORDO
100
AcDbLine
 62
7
  6
CONTINUOUS
 10
403.0154179945
 20
-4.1250851876
 11
403.014097919
 21
-4.1136452036
  0
ARC
  5
41A
100
AcDbEntity
  8
0
100
AcDbCircle
 62
7
  6
CONTINUOUS
 10
-396.9118199424
 20
-52.3257144774
 40
3.0
100
AcDbArc
 50
180.0
 51
270.0
  0
ARC
  5
41B
100
AcDbEntity
  8
0
100
AcDbCircle
 62
7
  6
CONTINUOUS
 10
-376.9118199424
 20
-52.3257144774
 40
0.5
100
AcDbArc
 50
270.0
 51
360.0
  0
ARC
  5
41C
100
AcDbEntity
  8
0
100
AcDbCircle
 62
7
  6
CONTINUOUS
 10
-396.9118199424
 20
-52.3257144774
 40
0.5
100
AcDbArc
 50
180.0
 51
270.0
  0
ARC
  5
41D
100
AcDbEntity
  8
0
100
AcDbCircle
 62
7
  6
CONTINUOUS
 10
-396.9810507116
 20
-4.8257144774
 40
5.9307692308
100
AcDbArc
 50
201.109918699
 51
236.8858572487
  0
ARC
  5
41E
100
AcDbEntity
  8
0
100
AcDbCircle
 62
7
  6
CONTINUOUS
 10
-396.9810507116
 20
-4.8257144774
 40
5.9307692308
100
AcDbArc
 50
123.1141427513
 51
158.890081301
  0
ARC
  5
41F
100
AcDbEntity
  8
0
100
AcDbCircle
 62
7
  6
CONTINUOUS
 10
-400.1118199424
 20
-9.6257144774
 40
0.2
100
AcDbArc
 50
236.8858572487
 51
360.0
  0
ARC
  5
420
100
AcDbEntity
  8
RACCORDO
100
AcDbCircle
 62
7
  6
CONTINUOUS
 10
-402.4205240382
 20
-6.9257144774
 40
0.1
100
AcDbArc
 50
164.7158483146
 51
201.1099185894
  0
CIRCLE
  5
421
100
AcDbEntity
  8
0
100
AcDbCircle
 62
7
  6
CONTINUOUS
 10
-271.9118199424
 20
-4.8257144774
 40
5.0
  0
CIRCLE
  5
422
100
AcDbEntity
  8
0
100
AcDbCircle
 62
253
  6
CONTINUOUS
 10
-271.9118199424
 20
-4.8257144774
 40
4.9675167785
  0
ARC
  5
423
100
AcDbEntity
  8
ASSI
100
AcDbCircle
 62
7
  6
CONTINUOUS
 10
-271.9118199424
 20
-7.3257144774
 40
3.5
100
AcDbArc
 50
201.9167530526
 51
338.0832469474
  0
ARC
  5
424
100
AcDbEntity
  8
RACCORDO
100
AcDbCircle
 62
7
  6
CONTINUOUS
 10
-270.1118199424
 20
-5.1257144774
 40
0.2
100
AcDbArc
 50
270.0
 51
360.0
  0
ARC
  5
425
100
AcDbEntity
  8
RACCORDO
100
AcDbCircle
 62
7
  6
CONTINUOUS
 10
-270.1118199424
 20
-4.5257144774
 40
0.2
100
AcDbArc
 50
0.0
 51
90.0
  0
ARC
  5
426
100
AcDbEntity
  8
RACCORDO
100
AcDbCircle
 62
7
  6
CONTINUOUS
 10
-273.7118199424
 20
-4.5257144774
 40
0.2
100
AcDbArc
 50
90.0
 51
180.0
  0
ARC
  5
427
100
AcDbEntity
  8
RACCORDO
100
AcDbCircle
 62
7
  6
CONTINUOUS
 10
-273.7118199424
 20
-5.1257144774
 40
0.2
100
AcDbArc
 50
180.0
 51
270.0
  0
ARC
  5
428
100
AcDbEntity
  8
RACCORDO
100
AcDbCircle
 62
7
  6
CONTINUOUS
 10
-272.2118199424
 20
-6.6257144774
 40
0.2
100
AcDbArc
 50
180.0
 51
270.0
  0
ARC
  5
429
100
AcDbEntity
  8
RACCORDO
100
AcDbCircle
 62
7
  6
CONTINUOUS
 10
-271.6118199424
 20
-6.6257144774
 40
0.2
100
AcDbArc
 50
270.0
 51
360.0
  0
ARC
  5
42A
100
AcDbEntity
  8
RACCORDO
100
AcDbCircle
 62
7
  6
CONTINUOUS
 10
-271.2118199424
 20
-4.1257144774
 40
0.2
100
AcDbArc
 50
180.0
 51
270.0
  0
ARC
  5
42B
100
AcDbEntity
  8
RACCORDO
100
AcDbCircle
 62
7
  6
CONTINUOUS
 10
-272.6118199424
 20
-4.1257144774
 40
0.2
100
AcDbArc
 50
270.0
 51
360.0
  0
ARC
  5
42C
100
AcDbEntity
  8
RACCORDO
100
AcDbCircle
 62
7
  6
CONTINUOUS
 10
-271.2118199424
 20
-5.5257144774
 40
0.2
100
AcDbArc
 50
90.0
 51
180.0
  0
ARC
  5
42D
100
AcDbEntity
  8
RACCORDO
100
AcDbCircle
 62
7
  6
CONTINUOUS
 10
-272.6118199424
 20
-5.5257144774
 40
0.2
100
AcDbArc
 50
0.0
 51
90.0
  0
ARC
  5
42E
100
AcDbEntity
  8
ASSI
100
AcDbCircle
 62
7
  6
CONTINUOUS
 10
-271.9118199424
 20
-2.3257144774
 40
3.5
100
AcDbArc
 50
21.9167530526
 51
158.0832469474
  0
ARC
  5
42F
100
AcDbEntity
  8
0
100
AcDbCircle
 62
7
  6
CONTINUOUS
 10
-376.9118199424
 20
46.1742855226
 40
3.0
100
AcDbArc
 50
270.0
 51
360.0
  0
ARC
  5
430
100
AcDbEntity
  8
0
100
AcDbCircle
 62
7
  6
CONTINUOUS
 10
-396.9118199424
 20
42.6742855226
 40
3.0
100
AcDbArc
 50
90.0
 51
180.0
  0
ARC
  5
431
100
AcDbEntity
  8
0
100
AcDbCircle
 62
7
  6
CONTINUOUS
 10
-396.9118199424
 20
42.6742855226
 40
0.5
100
AcDbArc
 50
90.0
 51
180.0
  0
ARC
  5
432
100
AcDbEntity
  8
0
100
AcDbCircle
 62
7
  6
CONTINUOUS
 10
-376.9118199424
 20
46.1742855226
 40
0.5
100
AcDbArc
 50
270.0
 51
360.0
  0
ARC
  5
433
100
AcDbEntity
  8
0
100
AcDbCircle
 62
7
  6
CONTINUOUS
 10
-400.1118199424
 20
-0.0257144774
 40
0.2
100
AcDbArc
 50
0.0
 51
123.1141427513
  0
ARC
  5
434
100
AcDbEntity
  8
RACCORDO
100
AcDbCircle
 62
7
  6
CONTINUOUS
 10
-271.6118199424
 20
-3.0257144774
 40
0.2
100
AcDbArc
 50
0.0
 51
90.0
  0
ARC
  5
435
100
AcDbEntity
  8
RACCORDO
100
AcDbCircle
 62
7
  6
CONTINUOUS
 10
-272.2118199424
 20
-3.0257144774
 40
0.2
100
AcDbArc
 50
90.0
 51
180.0
  0
ARC
  5
436
100
AcDbEntity
  8
RACCORDO
100
AcDbCircle
 62
7
  6
CONTINUOUS
 10
-402.4205240382
 20
-2.7257144774
 40
0.1
100
AcDbArc
 50
158.8900814106
 51
195.2842862243
  0
CIRCLE
  5
437
100
AcDbEntity
  8
0
100
AcDbCircle
 62
7
  6
CONTINUOUS
 10
272.0881800576
 20
-4.8257144774
 40
5.0
  0
CIRCLE
  5
438
100
AcDbEntity
  8
0
100
AcDbCircle
 62
253
  6
CONTINUOUS
 10
272.0881800576
 20
-4.8257144774
 40
4.9675167785
  0
ARC
  5
439
100
AcDbEntity
  8
ASSI
100
AcDbCircle
 62
7
  6
CONTINUOUS
 10
272.0881800576
 20
-7.3257144774
 40
3.5
100
AcDbArc
 50
201.9167530526
 51
338.0832469474
  0
ARC
  5
43A
100
AcDbEntity
  8
RACCORDO
100
AcDbCircle
 62
7
  6
CONTINUOUS
 10
273.8881800576
 20
-5.1257144774
 40
0.2
100
AcDbArc
 50
270.0
 51
360.0
  0
ARC
  5
43B
100
AcDbEntity
  8
RACCORDO
100
AcDbCircle
 62
7
  6
CONTINUOUS
 10
273.8881800576
 20
-4.5257144774
 40
0.2
100
AcDbArc
 50
0.0
 51
90.0
  0
ARC
  5
43C
100
AcDbEntity
  8
RACCORDO
100
AcDbCircle
 62
7
  6
CONTINUOUS
 10
270.2881800576
 20
-4.5257144774
 40
0.2
100
AcDbArc
 50
90.0
 51
180.0
  0
ARC
  5
43D
100
AcDbEntity
  8
RACCORDO
100
AcDbCircle
 62
7
  6
CONTINUOUS
 10
270.2881800576
 20
-5.1257144774
 40
0.2
100
AcDbArc
 50
180.0
 51
270.0
  0
ARC
  5
43E
100
AcDbEntity
  8
RACCORDO
100
AcDbCircle
 62
7
  6
CONTINUOUS
 10
271.7881800576
 20
-6.6257144774
 40
0.2
100
AcDbArc
 50
180.0
 51
270.0
  0
ARC
  5
43F
100
AcDbEntity
  8
RACCORDO
100
AcDbCircle
 62
7
  6
CONTINUOUS
 10
272.3881800576
 20
-6.6257144774
 40
0.2
100
AcDbArc
 50
270.0
 51
360.0
  0
ARC
  5
440
100
AcDbEntity
  8
RACCORDO
100
AcDbCircle
 62
7
  6
CONTINUOUS
 10
272.7881800576
 20
-4.1257144774
 40
0.2
100
AcDbArc
 50
180.0
 51
270.0
  0
ARC
  5
441
100
AcDbEntity
  8
RACCORDO
100
AcDbCircle
 62
7
  6
CONTINUOUS
 10
271.3881800576
 20
-4.1257144774
 40
0.2
100
AcDbArc
 50
270.0
 51
360.0
  0
ARC
  5
442
100
AcDbEntity
  8
RACCORDO
100
AcDbCircle
 62
7
  6
CONTINUOUS
 10
272.7881800576
 20
-5.5257144774
 40
0.2
100
AcDbArc
 50
90.0
 51
180.0
  0
ARC
  5
443
100
AcDbEntity
  8
RACCORDO
100
AcDbCircle
 62
7
  6
CONTINUOUS
 10
271.3881800576
 20
-5.5257144774
 40
0.2
100
AcDbArc
 50
0.0
 51
90.0
  0
ARC
  5
444
100
AcDbEntity
  8
0
100
AcDbCircle
 62
7
  6
CONTINUOUS
 10
397.0881800576
 20
-52.3257144774
 40
3.0
100
AcDbArc
 50
270.0
 51
360.0
  0
ARC
  5
445
100
AcDbEntity
  8
0
100
AcDbCircle
 62
7
  6
CONTINUOUS
 10
377.0881800576
 20
-52.3257144774
 40
0.5
100
AcDbArc
 50
180.0
 51
270.0
  0
ARC
  5
446
100
AcDbEntity
  8
0
100
AcDbCircle
 62
7
  6
CONTINUOUS
 10
397.0881800576
 20
-52.3257144774
 40
0.5
100
AcDbArc
 50
270.0
 51
360.0
  0
ARC
  5
447
100
AcDbEntity
  8
0
100
AcDbCircle
 62
7
  6
CONTINUOUS
 10
397.1574108269
 20
-4.8257144774
 40
5.9307692308
100
AcDbArc
 50
303.1141427513
 51
338.890081301
  0
ARC
  5
448
100
AcDbEntity
  8
0
100
AcDbCircle
 62
7
  6
CONTINUOUS
 10
397.1574108269
 20
-4.8257144774
 40
5.9307692308
100
AcDbArc
 50
21.109918699
 51
56.8858572487
  0
ARC
  5
449
100
AcDbEntity
  8
0
100
AcDbCircle
 62
7
  6
CONTINUOUS
 10
400.2881800576
 20
-9.6257144774
 40
0.2
100
AcDbArc
 50
180.0
 51
303.1141427513
  0
ARC
  5
44A
100
AcDbEntity
  8
RACCORDO
100
AcDbCircle
 62
7
  6
CONTINUOUS
 10
402.5968841535
 20
-6.9257144774
 40
0.1
100
AcDbArc
 50
338.8900814106
 51
15.2842862243
  0
ARC
  5
44B
100
AcDbEntity
  8
ASSI
100
AcDbCircle
 62
7
  6
CONTINUOUS
 10
272.0881800576
 20
-2.3257144774
 40
3.5
100
AcDbArc
 50
21.9167530526
 51
158.0832469474
  0
ARC
  5
44C
100
AcDbEntity
  8
0
100
AcDbCircle
 62
7
  6
CONTINUOUS
 10
377.0881800576
 20
46.1742855226
 40
3.0
100
AcDbArc
 50
180.0
 51
270.0
  0
ARC
  5
44D
100
AcDbEntity
  8
0
100
AcDbCircle
 62
7
  6
CONTINUOUS
 10
397.0881800576
 20
42.6742855226
 40
3.0
100
AcDbArc
 50
0.0
 51
90.0
  0
ARC
  5
44E
100
AcDbEntity
  8
0
100
AcDbCircle
 62
7
  6
CONTINUOUS
 10
397.0881800576
 20
42.6742855226
 40
0.5
100
AcDbArc
 50
0.0
 51
90.0
  0
ARC
  5
44F
100
AcDbEntity
  8
0
100
AcDbCircle
 62
7
  6
CONTINUOUS
 10
377.0881800576
 20
46.1742855226
 40
0.5
100
AcDbArc
 50
180.0
 51
270.0
  0
ARC
  5
450
100
AcDbEntity
  8
0
100
AcDbCircle
 62
7
  6
CONTINUOUS
 10
400.2881800576
 20
-0.0257144774
 40
0.2
100
AcDbArc
 50
56.8858572487
 51
180.0
  0
ARC
  5
451
100
AcDbEntity
  8
RACCORDO
100
AcDbCircle
 62
7
  6
CONTINUOUS
 10
272.3881800576
 20
-3.0257144774
 40
0.2
100
AcDbArc
 50
0.0
 51
90.0
  0
ARC
  5
452
100
AcDbEntity
  8
RACCORDO
100
AcDbCircle
 62
7
  6
CONTINUOUS
 10
271.7881800576
 20
-3.0257144774
 40
0.2
100
AcDbArc
 50
90.0
 51
180.0
  0
ARC
  5
453
100
AcDbEntity
  8
RACCORDO
100
AcDbCircle
 62
7
  6
CONTINUOUS
 10
402.5968841535
 20
-2.7257144774
 40
0.1
100
AcDbArc
 50
344.7158483146
 51
21.1099185894
  0
ENDSEC
  0
SECTION
  2
OBJECTS
  0
DICTIONARY
  5
C
100
AcDbDictionary
280
0
281
1
  3
ACAD_GROUP
350
D
  3
ACAD_MLINESTYLE
350
17
  3
ACAD_LAYOUT
350
1A
  3
ACAD_PLOTSETTINGS
350
19
  3
ACAD_PLOTSTYLENAME
350
E
  0
DICTIONARY
  5
D
102
{ACAD_REACTORS
330
C
102
}
100
AcDbDictionary
280
0
281
1
  0
ACDBDICTIONARYWDFLT
  5
E
102
{ACAD_REACTORS
330
C
102
}
100
AcDbDictionary
281
1
  3
Normal
350
F
100
AcDbDictionaryWithDefault
340
F
  0
DICTIONARY
  5
17
102
{ACAD_REACTORS
330
C
102
}
100
AcDbDictionary
280
0
281
1
  3
Standard
350
18
  0
DICTIONARY
  5
19
102
{ACAD_REACTORS
330
C
102
}
100
AcDbDictionary
281
1
  0
DICTIONARY
  5
1A
102
{ACAD_REACTORS
330
C
102
}
100
AcDbDictionary
281
1
  3
Model
350
454
  3
Layout1
350
455
  0
ACDBPLACEHOLDER
  5
F
102
{ACAD_REACTORS
330
E
102
}
  0
MLINESTYLE
  5
18
102
{ACAD_REACTORS
330
17
102
}
100
AcDbMlineStyle
  2
STANDARD
 70
0
  3

 62
256
 51
90.0
 52
90.0
 71
2
 49
0.5
 62
256
  6
BYLAYER
 49
-0.5
 62
256
  6
BYLAYER
  0
LAYOUT
  5
454
102
{ACAD_REACTORS
330
1A
102
}
100
AcDbPlotSettings
  1

  2
none_device
  4
ISO_A4_(297.00_x_210.00_MM)
  6

 40
0.0
 41
0.0
 42
0.0
 43
0.0
 44
297.0
 45
210.0
 46
0.0
 47
0.0
 48
0.0
 49
0.0
140
0.0
141
0.0
142
1.0
143
1.0
 70
1024
 72
1
 73
0
 74
0
  7

 75
0
147
1.0
148
0.0
149
0.0
100
AcDbLayout
  1
Model
 70
0
 71
0
 10
0.0
 20
0.0
 11
297.0
 21
210.0
 12
0.0
 22
0.0
 32
0.0
 14
0.0
 24
0.0
 34
0.0
 15
0.0
 25
0.0
 35
0.0
146
0.0
 13
0.0
 23
0.0
 33
0.0
 16
1.0
 26
0.0
 36
0.0
 17
0.0
 27
1.0
 37
0.0
 76
0
330
20D
345
0
346
0
  0
LAYOUT
  5
455
102
{ACAD_REACTORS
330
1A
102
}
100
AcDbPlotSettings
  1

  2
none_device
  4
ISO_A4_(297.00_x_210.00_MM)
  6

 40
0.0
 41
0.0
 42
0.0
 43
0.0
 44
297.0
 45
210.0
 46
0.0
 47
0.0
 48
0.0
 49
0.0
140
0.0
141
0.0
142
1.0
143
1.0
 70
0
 72
1
 73
0
 74
0
  7

 75
0
147
1.0
148
0.0
149
0.0
100
AcDbLayout
  1
Layout1
 70
0
 71
1
 10
0.0
 20
0.0
 11
297.0
 21
210.0
 12
0.0
 22
0.0
 32
0.0
 14
0.0
 24
0.0
 34
0.0
 15
0.0
 25
0.0
 35
0.0
146
0.0
 13
0.0
 23
0.0
 33
0.0
 16
1.0
 26
0.0
 36
0.0
 17
0.0
 27
1.0
 37
0.0
 76
0
330
20E
345
0
346
0
  0
ENDSEC
  0
EOF
