  0
SECTION
  2
HEADER
  9
$ACADVER
  1
AC1021
  9
$DWGCODEPAGE
  3
ANSI_1252
  9
$EXTMAX
 10
297.0
 20
210.0
 30
0.0
  9
$EXTMIN
 10
0.0
 20
0.0
 30
0.0
  9
$LIMMIN
 10
0.0
 20
0.0
  9
$LIMMAX
 10
297.0
 20
210.0
  9
$VIEWCTR
 10
148.5
 20
105.0
  9
$VIEWSIZE
 40
210.0
  9
$CLAYER
  8
0
  9
$LTSCALE
 40
16.335
  9
$CELTYPE
  6
BYLAYER
  9
$DIMSCALE
 40
1.0
  9
$DIMASZ
 40
3.0
  9
$DIMEXO
 40
0.5
  9
$DIMDLI
 40
11.286
  9
$DIMEXE
 40
1.5
  9
$DIMCEN
 40
2.673
  9
$DIMLFAC
 40
1.0
  9
$DIMBLK
  1
_FILLED
  9
$DIMALT
 70
0
  9
$DIMALTF
 40
25.4
  9
$DIMTXT
 40
3.0
  9
$DIMTOL
 70
1
  9
$DIMLIM
 70
0
  9
$DIMTFAC
 40
1.0
  9
$DIMTP
 40
0.01
  9
$DIMTM
 40
0.01
  9
$DIMGAP
 40
0.625
  9
$DIMDSEP
 70
44
  9
$AUNITS
 70
0
  9
$PDMODE
 70
3
  9
$PDSIZE
 40
3.0
  9
$HANDSEED
  5
748
  9
$TILEMODE
 70
1
  9
$MEASUREMENT
 70
1
  9
$INSUNITS
 70
4
  0
ENDSEC
  0
SECTION
  2
CLASSES
  0
CLASS
  1
ACDBDICTIONARYWDFLT
  2
AcDbDictionaryWithDefault
  3
AutoCAD 2000
 90
0
 91
1
280
0
281
0
  0
CLASS
  1
ACDBPLACEHOLDER
  2
AcDbPlaceHolder
  3
AutoCAD 2000
 90
0
 91
1
280
0
281
0
  0
CLASS
  1
LAYOUT
  2
AcDbLayout
  3
AutoCAD 2000
 90
0
 91
0
280
0
281
0
  0
ENDSEC
  0
SECTION
  2
TABLES
  0
TABLE
  2
VPORT
  5
8
100
AcDbSymbolTable
 70
2
  0
VPORT
  5
1F4
100
AcDbSymbolTableRecord
100
AcDbViewportTableRecord
  2
*ACTIVE
 70
0
 10
0.0
 20
0.0
 11
1.0
 21
1.0
 12
148.5
 22
105.0
 13
0.0
 23
0.0
 14
1.0
 24
1.0
 15
0.0
 25
0.0
 16
0.0
 26
0.0
 36
1.0
 17
0.0
 27
0.0
 37
0.0
 40
210.0
 41
1.4142857143
 42
50.0
 43
0.0
 44
0.0
 50
0.0
 51
0.0
 71
0
 72
100
 73
1
 74
1
 75
0
 76
0
 77
0
 78
0
  0
ENDTAB
  0
TABLE
  2
LTYPE
  5
5
100
AcDbSymbolTable
 70
6
  0
LTYPE
  5
14
100
AcDbSymbolTableRecord
100
AcDbLinetypeTableRecord
  2
BYBLOCK
 70
0
  3

 72
65
 73
0
 40
0.0
  0
LTYPE
  5
15
100
AcDbSymbolTableRecord
100
AcDbLinetypeTableRecord
  2
BYLAYER
 70
0
  3

 72
65
 73
0
 40
0.0
  0
LTYPE
  5
16
100
AcDbSymbolTableRecord
100
AcDbLinetypeTableRecord
  2
CONTINUOUS
 70
64
  3
Solid line
 72
65
 73
0
 40
0.0
  0
LTYPE
  5
1F5
100
AcDbSymbolTableRecord
100
AcDbLinetypeTableRecord
  2
CENTER
 70
64
  3
____ _ ____ _ ____ _ ____ _ ____ _ ____ _ ____
 72
65
 73
4
 40
0.6
 49
0.375
 74
0
 49
-0.075
 74
0
 49
0.075
 74
0
 49
-0.075
 74
0
  0
LTYPE
  5
1F6
100
AcDbSymbolTableRecord
100
AcDbLinetypeTableRecord
  2
HIDDEN
 70
64
  3
- - - - - - - - - - - - - - - - - - - -
 72
65
 73
2
 40
0.2
 49
0.1
 74
0
 49
-0.1
 74
0
  0
LTYPE
  5
1F7
100
AcDbSymbolTableRecord
100
AcDbLinetypeTableRecord
  2
PHANTOM
 70
64
  3
_____ _ _ _____ _ _ _____ _ _ _____
 72
65
 73
6
 40
0.8
 49
0.45
 74
0
 49
-0.05
 74
0
 49
0.1
 74
0
 49
-0.05
 74
0
 49
0.1
 74
0
 49
-0.05
 74
0
  0
LTYPE
  5
1F8
100
AcDbSymbolTableRecord
100
AcDbLinetypeTableRecord
  2
DOT
 70
64
  3
. . . . . . . . . . . . . . . . . . . .
 72
65
 73
2
 40
0.2
 49
0.1
 74
0
 49
-0.1
 74
0
  0
LTYPE
  5
1F9
100
AcDbSymbolTableRecord
100
AcDbLinetypeTableRecord
  2
DASHED
 70
64
  3
- - - - - - - - - - - - - - - - - - - -
 72
65
 73
2
 40
0.2
 49
0.1
 74
0
 49
-0.1
 74
0
  0
ENDTAB
  0
TABLE
  2
LAYER
  5
2
100
AcDbSymbolTable
 70
36
  0
LAYER
  5
10
100
AcDbSymbolTableRecord
100
AcDbLayerTableRecord
  2
0
 70
0
 62
7
  6
CONTINUOUS
370
-3
390
F
  0
LAYER
  5
1FA
100
AcDbSymbolTableRecord
100
AcDbLayerTableRecord
  2
DEFAULT_1
 70
0
 62
7
  6
CENTER
370
-3
390
F
  0
LAYER
  5
1FB
100
AcDbSymbolTableRecord
100
AcDbLayerTableRecord
  2
DEFAULT_2
 70
0
 62
7
  6
HIDDEN
370
-3
390
F
  0
LAYER
  5
1FC
100
AcDbSymbolTableRecord
100
AcDbLayerTableRecord
  2
DEFAULT_3
 70
0
 62
7
  6
PHANTOM
370
-3
390
F
  0
LAYER
  5
1FD
100
AcDbSymbolTableRecord
100
AcDbLayerTableRecord
  2
ALTRI_PIANI
 70
0
 62
7
  6
CONTINUOUS
370
-3
390
F
  0
LAYER
  5
1FE
100
AcDbSymbolTableRecord
100
AcDbLayerTableRecord
  2
ASSI
 70
0
 62
7
  6
CONTINUOUS
370
-3
390
F
  0
LAYER
  5
1FF
100
AcDbSymbolTableRecord
100
AcDbLayerTableRecord
  2
COORDINATE
 70
0
 62
7
  6
CONTINUOUS
370
-3
390
F
  0
LAYER
  5
200
100
AcDbSymbolTableRecord
100
AcDbLayerTableRecord
  2
COORD_ORIGINE
 70
0
 62
7
  6
CONTINUOUS
370
-3
390
F
  0
LAYER
  5
201
100
AcDbSymbolTableRecord
100
AcDbLayerTableRecord
  2
COPY_PUBLISH
 70
0
 62
7
  6
CONTINUOUS
370
-3
390
F
  0
LAYER
  5
202
100
AcDbSymbolTableRecord
100
AcDbLayerTableRecord
  2
COSMETICI
 70
0
 62
7
  6
CONTINUOUS
370
-3
390
F
  0
LAYER
  5
203
100
AcDbSymbolTableRecord
100
AcDbLayerTableRecord
  2
CURVE
 70
0
 62
7
  6
CONTINUOUS
370
-3
390
F
  0
LAYER
  5
204
100
AcDbSymbolTableRecord
100
AcDbLayerTableRecord
  2
DRAFT
 70
0
 62
7
  6
CONTINUOUS
370
-3
390
F
  0
LAYER
  5
205
100
AcDbSymbolTableRecord
100
AcDbLayerTableRecord
  2
IMPORT_IGES
 70
0
 62
7
  6
CONTINUOUS
370
-3
390
F
  0
LAYER
  5
206
100
AcDbSymbolTableRecord
100
AcDbLayerTableRecord
  2
NOTE
 70
0
 62
7
  6
CONTINUOUS
370
-3
390
F
  0
LAYER
  5
207
100
AcDbSymbolTableRecord
100
AcDbLayerTableRecord
  2
PIANI
 70
0
 62
7
  6
CONTINUOUS
370
-3
390
F
  0
LAYER
  5
208
100
AcDbSymbolTableRecord
100
AcDbLayerTableRecord
  2
PIANI_ORIGINE
 70
0
 62
7
  6
CONTINUOUS
370
-3
390
F
  0
LAYER
  5
209
100
AcDbSymbolTableRecord
100
AcDbLayerTableRecord
  2
PUNTI
 70
0
 62
7
  6
CONTINUOUS
370
-3
390
F
  0
LAYER
  5
20A
100
AcDbSymbolTableRecord
100
AcDbLayerTableRecord
  2
RACCORDO
 70
0
 62
7
  6
CONTINUOUS
370
-3
390
F
  0
LAYER
  5
20B
100
AcDbSymbolTableRecord
100
AcDbLayerTableRecord
  2
SIMBOLI
 70
0
 62
7
  6
CONTINUOUS
370
-3
390
F
  0
LAYER
  5
20C
100
AcDbSymbolTableRecord
100
AcDbLayerTableRecord
  2
SMUSSO
 70
0
 62
7
  6
CONTINUOUS
370
-3
390
F
  0
LAYER
  5
20D
100
AcDbSymbolTableRecord
100
AcDbLayerTableRecord
  2
SNAPLINE
 70
0
 62
7
  6
CONTINUOUS
370
-3
390
F
  0
LAYER
  5
20E
100
AcDbSymbolTableRecord
100
AcDbLayerTableRecord
  2
SUPERFICI
 70
0
 62
7
  6
CONTINUOUS
370
-3
390
F
  0
LAYER
  5
20F
100
AcDbSymbolTableRecord
100
AcDbLayerTableRecord
  2
TRASH
 70
0
 62
7
  6
CONTINUOUS
370
-3
390
F
  0
LAYER
  5
210
100
AcDbSymbolTableRecord
100
AcDbLayerTableRecord
  2
VECCHIO_NETSAFE
 70
0
 62
7
  6
CONTINUOUS
370
-3
390
F
  0
ENDTAB
  0
TABLE
  2
STYLE
  5
3
100
AcDbSymbolTable
 70
1
  0
STYLE
  5
11
100
AcDbSymbolTableRecord
100
AcDbTextStyleTableRecord
  2
STANDARD
 70
0
 40
0.0
 41
0.8
 50
0.0
 71
0
 42
0.2
  3
txt
  4

  0
STYLE
  5
211
100
AcDbSymbolTableRecord
100
AcDbTextStyleTableRecord
  2
TEXTSTYLE_1
 70
0
 40
0.0
 41
0.8
 50
0.0
 71
0
 42
0.2
  3
gdt
  4

  0
ENDTAB
  0
TABLE
  2
VIEW
  5
6
100
AcDbSymbolTable
 70
0
  0
ENDTAB
  0
TABLE
  2
UCS
  5
7
100
AcDbSymbolTable
 70
0
  0
ENDTAB
  0
TABLE
  2
APPID
  5
9
100
AcDbSymbolTable
 70
1
  0
APPID
  5
212
100
AcDbSymbolTableRecord
100
AcDbRegAppTableRecord
  2
ACAD
 70
0
  0
ENDTAB
  0
TABLE
  2
BLOCK_RECORD
  5
1
100
AcDbSymbolTable
 70
0
  0
BLOCK_RECORD
  5
213
100
AcDbSymbolTableRecord
100
AcDbBlockTableRecord
  2
*Model_Space
  0
BLOCK_RECORD
  5
214
100
AcDbSymbolTableRecord
100
AcDbBlockTableRecord
  2
*Paper_Space
  0
ENDTAB
  0
TABLE
  2
DIMSTYLE
  5
A
100
AcDbSymbolTable
 70
1
100
AcDbDimStyleTable
 71
0
  0
DIMSTYLE
105
215
100
AcDbSymbolTableRecord
100
AcDbDimStyleTableRecord
  2
STANDARD
 70
0
  3

  4

 40
1.0
 41
3.0
 42
0.5
 43
0.38
 44
1.5
 45
0.0
 46
0.0
 47
0.01
 48
0.01
140
3.0
141
0.09
142
0.0
143
25.4
144
1.0
145
0.0
146
1.0
147
0.625
 71
1.0
 72
0.0
 73
0
 74
0
 75
0
 76
0
 77
1
 78
8
170
0
171
1
172
0
173
0
174
0
175
0
176
0
177
0
178
0
270
2
271
2
272
2
273
2
274
2
275
0
280
0
281
0
282
0
283
1
284
8
285
0
286
0
287
3
288
0
340
11
278
44
  0
ENDTAB
  0
ENDSEC
  0
SECTION
  2
BLOCKS
  0
BLOCK
  5
20
100
AcDbEntity
  8
0
100
AcDbBlockBegin
  2
*Model_Space
 70
0
 10
0.0
 20
0.0
 30
0.0
  3
*Model_Space
  1

  0
ENDBLK
  5
21
100
AcDbEntity
  8
0
100
AcDbBlockEnd
  0
BLOCK
  5
1C
100
AcDbEntity
  8
0
100
AcDbBlockBegin
  2
*Paper_Space
 70
0
 10
0.0
 20
0.0
 30
0.0
  3
*Paper_Space
  1

  0
ENDBLK
  5
1D
100
AcDbEntity
  8
0
100
AcDbBlockEnd
  0
ENDSEC
  0
SECTION
  2
ENTITIES
  0
LINE
  5
216
100
AcDbEntity
  8
0
100
AcDbLine
 62
7
  6
CONTINUOUS
 10
-168.4805126388
 20
253.0014977455
 11
-167.7305126388
 21
253.8014977455
  0
LINE
  5
217
100
AcDbEntity
  8
0
100
AcDbLine
 62
7
  6
CONTINUOUS
 10
-211.943811703
 20
211.5631986813
 11
-213.6055126388
 21
209.9014977455
  0
LINE
  5
218
100
AcDbEntity
  8
0
100
AcDbLine
 62
7
  6
CONTINUOUS
 10
-211.943811703
 20
208.2397968097
 11
-210.2821107673
 21
209.9014977455
  0
LINE
  5
219
100
AcDbEntity
  8
0
100
AcDbLine
 62
7
  6
CONTINUOUS
 10
-214.3555126388
 20
213.1514977455
 11
-212.0805126388
 21
215.2264977455
  0
LINE
  5
21A
100
AcDbEntity
  8
0
100
AcDbLine
 62
7
  6
CONTINUOUS
 10
-215.1055126388
 20
-210.8485022545
 11
-212.8305126388
 21
-212.9235022545
  0
LINE
  5
21B
100
AcDbEntity
  8
0
100
AcDbLine
 62
7
  6
CONTINUOUS
 10
-212.693811703
 20
-209.2602031903
 11
-214.3555126388
 21
-207.5985022545
  0
LINE
  5
21C
100
AcDbEntity
  8
0
100
AcDbLine
 62
7
  6
CONTINUOUS
 10
-212.693811703
 20
-205.9368013187
 11
-211.0321107673
 21
-207.5985022545
  0
LINE
  5
21D
100
AcDbEntity
  8
0
100
AcDbLine
 62
7
  6
CONTINUOUS
 10
-205.8055126388
 20
207.1014977455
 11
-208.3305126388
 21
204.5764977455
  0
LINE
  5
21E
100
AcDbEntity
  8
0
100
AcDbLine
 62
7
  6
CONTINUOUS
 10
-183.5055126388
 20
206.4014977455
 11
-183.7555126388
 21
206.1514977455
  0
LINE
  5
21F
100
AcDbEntity
  8
0
100
AcDbLine
 62
7
  6
CONTINUOUS
 10
-201.3055126388
 20
214.6514977455
 11
-200.5055126388
 21
215.4014977455
  0
LINE
  5
220
100
AcDbEntity
  8
0
100
AcDbLine
 62
7
  6
CONTINUOUS
 10
-201.8055126388
 20
213.4764977455
 11
-201.3055126388
 21
213.7598310788
  0
LWPOLYLINE
  5
221
100
AcDbEntity
  8
RACCORDO
100
AcDbPolyline
 62
253
  6
CONTINUOUS
 90
3
 70
0
 10
169.5967141044
 20
-252.2287447479
 10
169.5496002969
 20
-252.2413302111
 10
169.4987247625
 20
-252.2505478219
  0
LINE
  5
222
100
AcDbEntity
  8
RACCORDO
100
AcDbLine
 62
253
  6
CONTINUOUS
 10
171.4534309727
 20
-249.6562960493
 11
171.677440326
 21
-249.5973638844
  0
LWPOLYLINE
  5
223
100
AcDbEntity
  8
RACCORDO
100
AcDbPolyline
 62
253
  6
CONTINUOUS
 90
21
 70
0
 10
171.677440326
 20
-249.5973638844
 10
171.732193036
 20
-249.5831799742
 10
171.7563107827
 20
-249.577068728
 10
171.7783486995
 20
-249.5716101718
 10
171.79832247
 20
-249.5668402445
 10
171.8164837973
 20
-249.5626491024
 10
171.8328328203
 20
-249.5590625386
 10
171.8473897982
 20
-249.5561054353
 10
171.860433332
 20
-249.5536580893
 10
171.8719760759
 20
-249.5517341823
 10
171.8820198862
 20
-249.5503542387
 10
171.8908241541
 20
-249.5494016619
 10
171.8983923832
 20
-249.548881622
 10
171.9047308175
 20
-249.5488111498
 10
171.9101004775
 20
-249.5490858419
 10
171.9145258757
 20
-249.549700535
 10
171.9179883017
 20
-249.550673283
 10
171.9206821432
 20
-249.5519305288
 10
171.9226731118
 20
-249.5534497527
 10
171.9238987925
 20
-249.5552606544
 10
171.9243605884
 20
-249.5573662559
  0
LINE
  5
224
100
AcDbEntity
  8
RACCORDO
100
AcDbLine
 62
253
  6
CONTINUOUS
 10
171.3566680417
 20
-249.6812430836
 11
171.4534309727
 21
-249.6562960493
  0
LWPOLYLINE
  5
225
100
AcDbEntity
  8
RACCORDO
100
AcDbPolyline
 62
253
  6
CONTINUOUS
 90
4
 70
0
 10
171.1291645303
 20
-249.7383343401
 10
171.1903080059
 20
-249.7233029114
 10
171.2485979233
 20
-249.7087214106
 10
171.3566680417
 20
-249.6812430836
  0
LINE
  5
226
100
AcDbEntity
  8
RACCORDO
100
AcDbLine
 62
253
  6
CONTINUOUS
 10
171.3580763871
 20
-249.4438943713
 11
171.7630064266
 21
-249.3651217436
  0
LWPOLYLINE
  5
227
100
AcDbEntity
  8
RACCORDO
100
AcDbPolyline
 62
253
  6
CONTINUOUS
 90
21
 70
0
 10
171.7630064266
 20
-249.3651217436
 10
171.8318584158
 20
-249.3520355164
 10
171.8620877213
 20
-249.3464468886
 10
171.8896878524
 20
-249.3414934552
 10
171.9147416812
 20
-249.337167247
 10
171.9373989545
 20
-249.33341706
 10
171.9577629991
 20
-249.3302512078
 10
171.9759514256
 20
-249.3276613768
 10
171.9921231596
 20
-249.3255714231
 10
172.0063933215
 20
-249.3239846882
 10
172.0188663981
 20
-249.3228978306
 10
172.0296712845
 20
-249.3222246819
 10
172.0389023359
 20
-249.3219641261
 10
172.0466852724
 20
-249.3221172793
 10
172.053168056
 20
-249.3226013208
 10
172.0584354577
 20
-249.3234085988
 10
172.062572981
 20
-249.3245467651
 10
172.0656850275
 20
-249.3259559546
 10
172.0678381952
 20
-249.3276162123
 10
172.0690851998
 20
-249.3295474932
 10
172.0694873612
 20
-249.3317497974
  0
LINE
  5
228
100
AcDbEntity
  8
RACCORDO
100
AcDbLine
 62
253
  6
CONTINUOUS
 10
171.0694873612
 20
-249.4983396844
 11
171.3580763871
 21
-249.4438943713
  0
LINE
  5
229
100
AcDbEntity
  8
0
100
AcDbLine
 62
7
  6
CONTINUOUS
 10
-202.5555126388
 20
-211.1735022545
 11
-202.0555126388
 21
-211.4568355879
  0
LINE
  5
22A
100
AcDbEntity
  8
0
100
AcDbLine
 62
7
  6
CONTINUOUS
 10
-202.0555126388
 20
-212.3485022545
 11
-201.2555126388
 21
-213.0985022545
  0
LINE
  5
22B
100
AcDbEntity
  8
0
100
AcDbLine
 62
7
  6
CONTINUOUS
 10
-206.5555126388
 20
-204.7985022545
 11
-209.0805126388
 21
-202.2735022545
  0
LINE
  5
22C
100
AcDbEntity
  8
0
100
AcDbLine
 62
7
  6
CONTINUOUS
 10
-183.5055126388
 20
-204.0985022545
 11
-183.7555126388
 21
-203.8485022545
  0
LINE
  5
22D
100
AcDbEntity
  8
0
100
AcDbLine
 62
7
  6
CONTINUOUS
 10
-166.8388459722
 20
253.8014977455
 11
-166.5555126388
 21
254.3014977455
  0
LWPOLYLINE
  5
22E
100
AcDbEntity
  8
RACCORDO
100
AcDbPolyline
 62
253
  6
CONTINUOUS
 90
3
 70
0
 10
169.4987247625
 20
-252.2505478219
 10
169.383589801
 20
-252.26305088
 10
169.3137161132
 20
-252.2698937396
  0
LWPOLYLINE
  5
22F
100
AcDbEntity
  8
RACCORDO
100
AcDbPolyline
 62
253
  6
CONTINUOUS
 90
4
 70
0
 10
169.3137161132
 20
-252.2698937396
 10
169.0624294145
 20
-252.2882172649
 10
168.9623798299
 20
-252.2942631236
 10
168.8556577306
 20
-252.299259196
  0
LWPOLYLINE
  5
230
100
AcDbEntity
  8
RACCORDO
100
AcDbPolyline
 62
253
  6
CONTINUOUS
 90
10
 70
0
 10
154.1444692502
 20
-249.9220142093
 10
154.150564086
 20
-249.9215846943
 10
154.1584034774
 20
-249.910604522
 10
154.1671220477
 20
-249.8890967819
 10
154.1752423999
 20
-249.8566688881
 10
154.1826085164
 20
-249.8139876383
 10
154.1905383123
 20
-249.762553131
 10
154.1991963619
 20
-249.7028129512
 10
154.2073818509
 20
-249.6343842553
 10
154.2146141182
 20
-249.5573664282
  0
LWPOLYLINE
  5
231
100
AcDbEntity
  8
RACCORDO
100
AcDbPolyline
 62
253
  6
CONTINUOUS
 90
10
 70
0
 10
169.8985457194
 20
-249.6445202403
 10
170.0287925312
 20
-249.6423367179
 10
170.1591061643
 20
-249.6366353391
 10
170.2894866187
 20
-249.6274161038
 10
170.4200703843
 20
-249.6146747908
 10
170.5507209712
 20
-249.5984156213
 10
170.6810289093
 20
-249.5786512595
 10
170.8108577087
 20
-249.5553859268
 10
170.9403438593
 20
-249.5286154017
 10
171.0694873612
 20
-249.4983396844
  0
LINE
  5
232
100
AcDbEntity
  8
RACCORDO
100
AcDbLine
 62
253
  6
CONTINUOUS
 10
168.8556623144
 20
-252.2992634083
 11
168.6403728848
 21
-252.302794531
  0
LWPOLYLINE
  5
233
100
AcDbEntity
  8
RACCORDO
100
AcDbPolyline
 62
253
  6
CONTINUOUS
 90
10
 70
0
 10
169.899412482
 20
-249.8894458807
 10
170.0362082695
 20
-249.887397006
 10
170.1731927918
 20
-249.881680429
 10
170.3102711023
 20
-249.8722833066
 10
170.4473539734
 20
-249.8591910165
 10
170.5843391633
 20
-249.8423999682
 10
170.7211115013
 20
-249.8219181866
 10
170.8575680371
 20
-249.7977480379
 10
170.9936180893
 20
-249.769885697
 10
171.1291645303
 20
-249.7383343401
  0
LWPOLYLINE
  5
234
100
AcDbEntity
  8
RACCORDO
100
AcDbPolyline
 62
253
  6
CONTINUOUS
 90
7
 70
0
 10
168.6403728848
 20
-252.302794531
 10
168.4015047382
 20
-252.3058986538
 10
168.1402965305
 20
-252.3085757768
 10
167.8584608426
 20
-252.3107728993
 10
167.5568186013
 20
-252.312543022
 10
167.2351834583
 20
-252.3140451463
 10
166.8945825521
 20
-252.3152914878
  0
LWPOLYLINE
  5
235
100
AcDbEntity
  8
RACCORDO
100
AcDbPolyline
 62
253
  6
CONTINUOUS
 90
4
 70
0
 10
167.8584188293
 20
-249.8950289652
 10
168.400926149
 20
-249.8935510365
 10
168.921511108
 20
-249.8921486777
 10
169.8994124671
 20
-249.8894456055
  0
LINE
  5
236
100
AcDbEntity
  8
RACCORDO
100
AcDbLine
 62
253
  6
CONTINUOUS
 10
166.7114290197
 20
-249.8979614045
 11
167.8584188293
 21
-249.8950289652
  0
LINE
  5
237
100
AcDbEntity
  8
RACCORDO
100
AcDbLine
 62
253
  6
CONTINUOUS
 10
166.8945825521
 20
-252.3152914878
 11
166.1645768872
 21
-252.3171025312
  0
LINE
  5
238
100
AcDbEntity
  8
RACCORDO
100
AcDbLine
 62
253
  6
CONTINUOUS
 10
166.1645768872
 20
-252.3171025312
 11
165.3800505887
 21
-252.3183901527
  0
LINE
  5
239
100
AcDbEntity
  8
RACCORDO
100
AcDbLine
 62
253
  6
CONTINUOUS
 10
165.3800505887
 20
-252.3183901527
 11
164.5574104289
 21
-252.3191972336
  0
LINE
  5
23A
100
AcDbEntity
  8
RACCORDO
100
AcDbLine
 62
253
  6
CONTINUOUS
 10
164.5574104289
 20
-252.3191972336
 11
163.7122354193
 21
-252.3195876194
  0
LINE
  5
23B
100
AcDbEntity
  8
ASSI
100
AcDbLine
 62
7
  6
CONTINUOUS
 10
164.3944873612
 20
-267.6985022545
 11
161.7444873612
 21
-267.6985022545
  0
LINE
  5
23C
100
AcDbEntity
  8
ASSI
100
AcDbLine
 62
7
  6
CONTINUOUS
 10
164.3944873612
 20
-264.6276229921
 11
161.7444873612
 21
-264.6276229921
  0
LINE
  5
23D
100
AcDbEntity
  8
ASSI
100
AcDbLine
 62
7
  6
CONTINUOUS
 10
164.3944873612
 20
-259.169381517
 11
161.7444873612
 21
-259.169381517
  0
LINE
  5
23E
100
AcDbEntity
  8
0
100
AcDbLine
 62
7
  6
CONTINUOUS
 10
164.3944873612
 20
-256.0985022545
 11
163.5694873612
 21
-256.0985022545
  0
LINE
  5
23F
100
AcDbEntity
  8
0
100
AcDbLine
 62
253
  6
CONTINUOUS
 10
163.5694873612
 20
-256.0985022545
 11
162.5694873612
 21
-256.0985022545
  0
LINE
  5
240
100
AcDbEntity
  8
0
100
AcDbLine
 62
7
  6
CONTINUOUS
 10
162.5694873612
 20
-256.0985022545
 11
161.7444873612
 21
-256.0985022545
  0
LINE
  5
241
100
AcDbEntity
  8
0
100
AcDbLine
 62
7
  6
CONTINUOUS
 10
163.5694873612
 20
-255.5252647057
 11
162.5694873612
 21
-255.5252647057
  0
LINE
  5
242
100
AcDbEntity
  8
0
100
AcDbLine
 62
7
  6
CONTINUOUS
 10
163.5694873612
 20
-254.1690403127
 11
162.5694873612
 21
-254.1690403127
  0
LINE
  5
243
100
AcDbEntity
  8
0
100
AcDbLine
 62
7
  6
CONTINUOUS
 10
167.1944873612
 20
-253.5985022545
 11
158.9444873612
 21
-253.5985022545
  0
LINE
  5
244
100
AcDbEntity
  8
RACCORDO
100
AcDbLine
 62
7
  6
CONTINUOUS
 10
169.2985933062
 20
-252.348507295
 11
169.3020876877
 21
-252.3485019956
  0
LINE
  5
245
100
AcDbEntity
  8
ASSI
100
AcDbLine
 62
7
  6
CONTINUOUS
 10
168.6694873612
 20
-252.3485022545
 11
157.4694873612
 21
-252.3485022545
  0
LINE
  5
246
100
AcDbEntity
  8
RACCORDO
100
AcDbLine
 62
253
  6
CONTINUOUS
 10
163.7122354193
 20
-252.3195876194
 11
162.8588946902
 21
-252.3196709018
  0
LINE
  5
247
100
AcDbEntity
  8
RACCORDO
100
AcDbLine
 62
7
  6
CONTINUOUS
 10
156.8368244744
 20
-252.3485019119
 11
157.1099904113
 21
-252.3484974723
  0
LINE
  5
248
100
AcDbEntity
  8
RACCORDO
100
AcDbLine
 62
253
  6
CONTINUOUS
 10
162.8588946902
 20
-252.3196709018
 11
162.0088389678
 21
-252.3194364671
  0
LINE
  5
249
100
AcDbEntity
  8
RACCORDO
100
AcDbLine
 62
7
  6
CONTINUOUS
 10
157.107696795
 20
-252.3484971388
 11
157.4694873766
 21
-252.3484686521
  0
LINE
  5
24A
100
AcDbEntity
  8
RACCORDO
100
AcDbLine
 62
7
  6
CONTINUOUS
 10
157.4512462554
 20
-252.3484581027
 11
157.4694873781
 21
-252.3484668088
  0
LINE
  5
24B
100
AcDbEntity
  8
RACCORDO
100
AcDbLine
 62
7
  6
CONTINUOUS
 10
168.6922085356
 20
-252.3484583109
 11
169.2999052
 21
-252.3485056344
  0
LINE
  5
24C
100
AcDbEntity
  8
RACCORDO
100
AcDbLine
 62
7
  6
CONTINUOUS
 10
168.7898782929
 20
-252.3484625524
 11
168.8803517769
 21
-252.3485118907
  0
LINE
  5
24D
100
AcDbEntity
  8
RACCORDO
100
AcDbLine
 62
253
  6
CONTINUOUS
 10
162.0088389678
 20
-252.3194364671
 11
161.1760158441
 21
-252.3188568348
  0
LINE
  5
24E
100
AcDbEntity
  8
RACCORDO
100
AcDbLine
 62
253
  6
CONTINUOUS
 10
161.1760158441
 20
-252.3188568348
 11
160.3761929726
 21
-252.3178452772
  0
LWPOLYLINE
  5
24F
100
AcDbEntity
  8
RACCORDO
100
AcDbPolyline
 62
253
  6
CONTINUOUS
 90
10
 70
0
 10
160.4413496247
 20
-249.9001698335
 10
161.0331779492
 20
-249.901175607
 10
161.6413345338
 20
-249.9019605847
 10
162.2641942156
 20
-249.9025344976
 10
162.8969555376
 20
-249.9027911306
 10
163.5441433142
 20
-249.902676346
 10
164.2007990903
 20
-249.9022442816
 10
164.8478794576
 20
-249.9015511354
 10
165.4821015305
 20
-249.9005590069
 10
166.7114290197
 20
-249.8979614045
  0
LWPOLYLINE
  5
250
100
AcDbEntity
  8
RACCORDO
100
AcDbPolyline
 62
253
  6
CONTINUOUS
 90
9
 70
0
 10
160.3761929726
 20
-252.3178452772
 10
159.6214024067
 20
-252.3163210173
 10
159.2648856526
 20
-252.315357175
 10
158.9236245976
 20
-252.3141220479
 10
158.5994663677
 20
-252.3126289038
 10
158.2942644758
 20
-252.310864475
 10
158.0087554893
 20
-252.3086622949
 10
157.7440840921
 20
-252.3059668748
 10
157.5018765219
 20
-252.3028337035
  0
LWPOLYLINE
  5
251
100
AcDbEntity
  8
RACCORDO
100
AcDbPolyline
 62
253
  6
CONTINUOUS
 90
11
 70
0
 10
160.4421220091
 20
-249.6597332337
 10
161.0337558218
 20
-249.6612793745
 10
161.6417755961
 20
-249.6625054838
 10
162.2645538327
 20
-249.663424038
 10
162.8970098915
 20
-249.6638390723
 10
163.5439035749
 20
-249.6636470231
 10
164.2004750804
 20
-249.6629514539
 10
164.8473643601
 20
-249.661867091
 10
165.4813275095
 20
-249.6603339861
 10
166.105608433
 20
-249.6584120876
 10
169.8985457194
 20
-249.6445202403
  0
LWPOLYLINE
  5
252
100
AcDbEntity
  8
RACCORDO
100
AcDbPolyline
 62
253
  6
CONTINUOUS
 90
7
 70
0
 10
156.2395623037
 20
-249.8894456028
 10
156.7143729634
 20
-249.8907655435
 10
157.2033541067
 20
-249.8921051677
 10
157.7065809165
 20
-249.8934644754
 10
158.2239591109
 20
-249.8948752468
 10
158.755728534
 20
-249.8963057017
 10
160.4413496247
 20
-249.9001698335
  0
LINE
  5
253
100
AcDbEntity
  8
RACCORDO
100
AcDbLine
 62
253
  6
CONTINUOUS
 10
157.5018765219
 20
-252.3028337035
 11
157.2835197102
 21
-252.2992627809
  0
LINE
  5
254
100
AcDbEntity
  8
RACCORDO
100
AcDbLine
 62
7
  6
CONTINUOUS
 10
198.4944873612
 20
-248.8485022545
 11
179.9944873612
 21
-248.8485022545
  0
LINE
  5
255
100
AcDbEntity
  8
0
100
AcDbLine
 62
7
  6
CONTINUOUS
 10
176.9944873612
 20
-248.8485022545
 11
145.962011797
 21
-248.8485022545
  0
LINE
  5
256
100
AcDbEntity
  8
0
100
AcDbLine
 62
7
  6
CONTINUOUS
 10
136.8119629253
 20
-248.8485022545
 11
-136.822988203
 21
-248.8485022545
  0
LINE
  5
257
100
AcDbEntity
  8
0
100
AcDbLine
 62
7
  6
CONTINUOUS
 10
-145.9730370747
 20
-248.8485022545
 11
-177.0055126388
 21
-248.8485022545
  0
LINE
  5
258
100
AcDbEntity
  8
0
100
AcDbLine
 62
7
  6
CONTINUOUS
 10
178.7444873612
 20
-248.8485022545
 11
179.9944873612
 21
-248.8485022545
  0
LINE
  5
259
100
AcDbEntity
  8
0
100
AcDbLine
 62
7
  6
CONTINUOUS
 10
-178.7555126388
 20
-248.8485022545
 11
-180.0055126388
 21
-248.8485022545
  0
LINE
  5
25A
100
AcDbEntity
  8
RACCORDO
100
AcDbLine
 62
7
  6
CONTINUOUS
 10
-180.0055126388
 20
-248.8485022545
 11
-198.5055126388
 21
-248.8485022545
  0
LINE
  5
25B
100
AcDbEntity
  8
SUPERFICI
100
AcDbLine
 62
7
  6
CONTINUOUS
 10
172.7830548612
 20
-248.2485022545
 11
145.6444873612
 21
-248.2485022545
  0
LINE
  5
25C
100
AcDbEntity
  8
0
100
AcDbLine
 62
7
  6
CONTINUOUS
 10
176.9944873612
 20
-248.1985022545
 11
177.2444873612
 21
-248.1985022545
  0
LINE
  5
25D
100
AcDbEntity
  8
0
100
AcDbLine
 62
7
  6
CONTINUOUS
 10
179.9944873612
 20
-247.8485022545
 11
176.9944873612
 21
-247.8485022545
  0
LINE
  5
25E
100
AcDbEntity
  8
0
100
AcDbLine
 62
253
  6
CONTINUOUS
 10
176.9944873612
 20
-247.8485022545
 11
147.7516465848
 21
-247.8485022545
  0
LINE
  5
25F
100
AcDbEntity
  8
0
100
AcDbLine
 62
253
  6
CONTINUOUS
 10
135.0223281375
 20
-247.8485022545
 11
-135.0333534152
 21
-247.8485022545
  0
LINE
  5
260
100
AcDbEntity
  8
0
100
AcDbLine
 62
253
  6
CONTINUOUS
 10
-147.7626718625
 20
-247.8485022545
 11
-177.0055126388
 21
-247.8485022545
  0
LINE
  5
261
100
AcDbEntity
  8
0
100
AcDbLine
 62
7
  6
CONTINUOUS
 10
-177.0055126388
 20
-247.8485022545
 11
-180.0055126388
 21
-247.8485022545
  0
LINE
  5
262
100
AcDbEntity
  8
RACCORDO
100
AcDbLine
 62
7
  6
CONTINUOUS
 10
-162.5055126388
 20
-232.9735022545
 11
-151.1523596582
 21
-232.9735022545
  0
LINE
  5
263
100
AcDbEntity
  8
RACCORDO
100
AcDbLine
 62
7
  6
CONTINUOUS
 10
151.1413343805
 20
-232.9735022545
 11
162.4944873612
 21
-232.9735022545
  0
LINE
  5
264
100
AcDbEntity
  8
RACCORDO
100
AcDbLine
 62
7
  6
CONTINUOUS
 10
162.4944873612
 20
-231.4735022545
 11
150.1107371185
 21
-231.4735022545
  0
LINE
  5
265
100
AcDbEntity
  8
RACCORDO
100
AcDbLine
 62
7
  6
CONTINUOUS
 10
-150.1217623962
 20
-231.4735022545
 11
-162.5055126388
 21
-231.4735022545
  0
LINE
  5
266
100
AcDbEntity
  8
0
100
AcDbLine
 62
7
  6
CONTINUOUS
 10
-200.0055126388
 20
-228.8485022545
 11
-199.0055126388
 21
-228.8485022545
  0
LINE
  5
267
100
AcDbEntity
  8
0
100
AcDbLine
 62
7
  6
CONTINUOUS
 10
199.9944873612
 20
-228.8485022545
 11
198.9944873612
 21
-228.8485022545
  0
LINE
  5
268
100
AcDbEntity
  8
0
100
AcDbLine
 62
7
  6
CONTINUOUS
 10
199.9944873612
 20
-226.3485022545
 11
198.9944873612
 21
-226.3485022545
  0
LINE
  5
269
100
AcDbEntity
  8
0
100
AcDbLine
 62
7
  6
CONTINUOUS
 10
-200.0055126388
 20
-226.3485022545
 11
-199.0055126388
 21
-226.3485022545
  0
LINE
  5
26A
100
AcDbEntity
  8
RACCORDO
100
AcDbLine
 62
253
  6
CONTINUOUS
 10
156.2404290516
 20
-249.6445202491
 11
156.715151625
 21
-249.6462702516
  0
LWPOLYLINE
  5
26B
100
AcDbEntity
  8
RACCORDO
100
AcDbPolyline
 62
253
  6
CONTINUOUS
 90
5
 70
0
 10
156.715151625
 20
-249.6462702516
 10
157.7075094562
 20
-249.6499565401
 10
158.2249272549
 20
-249.6519382444
 10
158.7566492816
 20
-249.6539820433
 10
160.4421220091
 20
-249.6597332337
  0
LWPOLYLINE
  5
26C
100
AcDbEntity
  8
RACCORDO
100
AcDbPolyline
 62
253
  6
CONTINUOUS
 90
3
 70
0
 10
157.2835212078
 20
-252.2992566917
 10
157.1759629543
 20
-252.2943112034
 10
157.0752430379
 20
-252.2882206304
  0
LINE
  5
26D
100
AcDbEntity
  8
RACCORDO
100
AcDbLine
 62
253
  6
CONTINUOUS
 10
157.0752430379
 20
-252.2882206304
 11
156.8233289873
 21
-252.2697113963
  0
LINE
  5
26E
100
AcDbEntity
  8
RACCORDO
100
AcDbLine
 62
253
  6
CONTINUOUS
 10
156.8233289873
 20
-252.2697113963
 11
156.753643198
 21
-252.2628840431
  0
LWPOLYLINE
  5
26F
100
AcDbEntity
  8
RACCORDO
100
AcDbPolyline
 62
253
  6
CONTINUOUS
 90
6
 70
0
 10
156.753643198
 20
-252.2628840431
 10
156.6387696202
 20
-252.2502391639
 10
156.588361487
 20
-252.2411284075
 10
156.5418006581
 20
-252.2287231862
 10
156.5058452025
 20
-252.2174867928
 10
156.4828336317
 20
-252.2093176093
  0
LINE
  5
270
100
AcDbEntity
  8
0
100
AcDbLine
 62
7
  6
CONTINUOUS
 10
-215.9555126388
 20
1.6514977455
 11
-215.9555126388
 21
0.6514977455
  0
LINE
  5
271
100
AcDbEntity
  8
0
100
AcDbLine
 62
7
  6
CONTINUOUS
 10
-215.9555126388
 20
-205.8485022545
 11
-215.9555126388
 21
-209.3485022545
  0
LINE
  5
272
100
AcDbEntity
  8
0
100
AcDbLine
 62
7
  6
CONTINUOUS
 10
-215.2055126388
 20
208.1514977455
 11
-215.2055126388
 21
211.6514977455
  0
LINE
  5
273
100
AcDbEntity
  8
0
100
AcDbLine
 62
7
  6
CONTINUOUS
 10
-215.1055126388
 20
1.6514977455
 11
-215.1055126388
 21
0.6514977455
  0
LINE
  5
274
100
AcDbEntity
  8
0
100
AcDbLine
 62
7
  6
CONTINUOUS
 10
-215.1055126388
 20
-204.3485022545
 11
-215.1055126388
 21
-205.8485022545
  0
LINE
  5
275
100
AcDbEntity
  8
0
100
AcDbLine
 62
7
  6
CONTINUOUS
 10
-215.1055126388
 20
-209.3485022545
 11
-215.1055126388
 21
-210.8485022545
  0
LINE
  5
276
100
AcDbEntity
  8
0
100
AcDbLine
 62
7
  6
CONTINUOUS
 10
-214.3555126388
 20
206.6514977455
 11
-214.3555126388
 21
208.1514977455
  0
LINE
  5
277
100
AcDbEntity
  8
0
100
AcDbLine
 62
7
  6
CONTINUOUS
 10
-214.3555126388
 20
211.6514977455
 11
-214.3555126388
 21
213.1514977455
  0
LINE
  5
278
100
AcDbEntity
  8
0
100
AcDbLine
 62
7
  6
CONTINUOUS
 10
-212.8305126388
 20
1.6514977455
 11
-212.8305126388
 21
0.6514977455
  0
LINE
  5
279
100
AcDbEntity
  8
0
100
AcDbLine
 62
7
  6
CONTINUOUS
 10
-209.0805126388
 20
1.6514977455
 11
-209.0805126388
 21
0.6514977455
  0
LINE
  5
27A
100
AcDbEntity
  8
0
100
AcDbLine
 62
7
  6
CONTINUOUS
 10
-206.5555126388
 20
-210.3985022545
 11
-206.5555126388
 21
-209.3485022545
  0
LINE
  5
27B
100
AcDbEntity
  8
0
100
AcDbLine
 62
7
  6
CONTINUOUS
 10
-206.5555126388
 20
-205.8485022545
 11
-206.5555126388
 21
-204.7985022545
  0
LINE
  5
27C
100
AcDbEntity
  8
0
100
AcDbLine
 62
7
  6
CONTINUOUS
 10
-206.5555126388
 20
1.6514977455
 11
-206.5555126388
 21
0.6514977455
  0
LINE
  5
27D
100
AcDbEntity
  8
0
100
AcDbLine
 62
7
  6
CONTINUOUS
 10
-205.8055126388
 20
212.7014977455
 11
-205.8055126388
 21
211.6514977455
  0
LINE
  5
27E
100
AcDbEntity
  8
0
100
AcDbLine
 62
7
  6
CONTINUOUS
 10
-205.8055126388
 20
208.1514977455
 11
-205.8055126388
 21
207.1014977455
  0
LINE
  5
27F
100
AcDbEntity
  8
0
100
AcDbLine
 62
7
  6
CONTINUOUS
 10
-201.2555126388
 20
-213.0985022545
 11
-200.0055126388
 21
-213.0985022545
  0
LINE
  5
280
100
AcDbEntity
  8
0
100
AcDbLine
 62
7
  6
CONTINUOUS
 10
200.4944873612
 20
-213.0985022545
 11
199.9944873612
 21
-213.0985022545
  0
LINE
  5
281
100
AcDbEntity
  8
0
100
AcDbLine
 62
7
  6
CONTINUOUS
 10
-212.8305126388
 20
-212.9235022545
 11
-209.0805126388
 21
-212.9235022545
  0
LINE
  5
282
100
AcDbEntity
  8
0
100
AcDbLine
 62
7
  6
CONTINUOUS
 10
212.0694873612
 20
-212.9235022545
 11
208.3194873612
 21
-212.9235022545
  0
LINE
  5
283
100
AcDbEntity
  8
0
100
AcDbLine
 62
7
  6
CONTINUOUS
 10
-215.9555126388
 20
-209.3485022545
 11
-215.1055126388
 21
-209.3485022545
  0
LINE
  5
284
100
AcDbEntity
  8
0
100
AcDbLine
 62
7
  6
CONTINUOUS
 10
215.1944873612
 20
-209.3485022545
 11
214.3444873612
 21
-209.3485022545
  0
LINE
  5
285
100
AcDbEntity
  8
0
100
AcDbLine
 62
7
  6
CONTINUOUS
 10
-206.5555126388
 20
-209.3485022545
 11
-205.5555126388
 21
-209.3485022545
  0
LINE
  5
286
100
AcDbEntity
  8
0
100
AcDbLine
 62
7
  6
CONTINUOUS
 10
205.7944873612
 20
-209.3485022545
 11
204.7944873612
 21
-209.3485022545
  0
LINE
  5
287
100
AcDbEntity
  8
0
100
AcDbLine
 62
7
  6
CONTINUOUS
 10
-204.5555126388
 20
-208.4985022545
 11
-202.5555126388
 21
-208.4985022545
  0
LINE
  5
288
100
AcDbEntity
  8
0
100
AcDbLine
 62
7
  6
CONTINUOUS
 10
203.7944873612
 20
-208.4985022545
 11
201.7944873612
 21
-208.4985022545
  0
LINE
  5
289
100
AcDbEntity
  8
0
100
AcDbLine
 62
7
  6
CONTINUOUS
 10
183.7444873612
 20
-206.3485022545
 11
184.1194873612
 21
-206.3485022545
  0
LINE
  5
28A
100
AcDbEntity
  8
0
100
AcDbLine
 62
7
  6
CONTINUOUS
 10
-183.7555126388
 20
-206.3485022545
 11
-184.1305126388
 21
-206.3485022545
  0
LINE
  5
28B
100
AcDbEntity
  8
0
100
AcDbLine
 62
7
  6
CONTINUOUS
 10
201.7944873612
 20
-205.8485022545
 11
205.7944873612
 21
-205.8485022545
  0
LINE
  5
28C
100
AcDbEntity
  8
0
100
AcDbLine
 62
7
  6
CONTINUOUS
 10
-202.5555126388
 20
-205.8485022545
 11
-206.5555126388
 21
-205.8485022545
  0
LINE
  5
28D
100
AcDbEntity
  8
0
100
AcDbLine
 62
7
  6
CONTINUOUS
 10
214.3444873612
 20
-205.8485022545
 11
215.1944873612
 21
-205.8485022545
  0
LINE
  5
28E
100
AcDbEntity
  8
0
100
AcDbLine
 62
7
  6
CONTINUOUS
 10
-215.1055126388
 20
-205.8485022545
 11
-215.9555126388
 21
-205.8485022545
  0
LINE
  5
28F
100
AcDbEntity
  8
0
100
AcDbLine
 62
7
  6
CONTINUOUS
 10
183.7444873612
 20
-203.8485022545
 11
184.1194873612
 21
-203.8485022545
  0
LINE
  5
290
100
AcDbEntity
  8
0
100
AcDbLine
 62
7
  6
CONTINUOUS
 10
-183.7555126388
 20
-203.8485022545
 11
-184.1305126388
 21
-203.8485022545
  0
LINE
  5
291
100
AcDbEntity
  8
RACCORDO
100
AcDbLine
 62
253
  6
CONTINUOUS
 10
154.2768869003
 20
-249.3464468663
 11
154.3400790645
 21
-249.3582513396
  0
LINE
  5
292
100
AcDbEntity
  8
RACCORDO
100
AcDbLine
 62
253
  6
CONTINUOUS
 10
154.7808982475
 20
-249.4438943402
 11
155.0694873612
 21
-249.4983396761
  0
LWPOLYLINE
  5
293
100
AcDbEntity
  8
RACCORDO
100
AcDbPolyline
 62
253
  6
CONTINUOUS
 90
4
 70
0
 10
154.3400790645
 20
-249.3582513396
 10
154.5020175413
 20
-249.3896872529
 10
154.5506995764
 20
-249.3992224466
 10
154.7808982475
 20
-249.4438943402
  0
LWPOLYLINE
  5
294
100
AcDbEntity
  8
RACCORDO
100
AcDbPolyline
 62
253
  6
CONTINUOUS
 90
10
 70
0
 10
155.0098101947
 20
-249.738334335
 10
155.1453572017
 20
-249.7698858112
 10
155.2814076509
 20
-249.7977482104
 10
155.4178644114
 20
-249.8219183697
 10
155.5546367547
 20
-249.8424001218
 10
155.6916217731
 20
-249.8591911221
 10
155.8287044297
 20
-249.8722833708
 10
155.9657825278
 20
-249.8816804639
 10
156.1027667955
 20
-249.8873970221
 10
156.239562287
 20
-249.8894458915
  0
LWPOLYLINE
  5
295
100
AcDbEntity
  8
RACCORDO
100
AcDbPolyline
 62
253
  6
CONTINUOUS
 90
10
 70
0
 10
155.0694873612
 20
-249.4983396761
 10
155.1986421882
 20
-249.5286172384
 10
155.3281352642
 20
-249.5553888822
 10
155.4579665892
 20
-249.5786546075
 10
155.5882705601
 20
-249.5984182818
 10
155.7189127799
 20
-249.6146760377
 10
155.8494900581
 20
-249.6274162726
 10
155.9798679977
 20
-249.6366351191
 10
156.1101809955
 20
-249.6423364446
 10
156.2404290516
 20
-249.6445202491
  0
LINE
  5
296
100
AcDbEntity
  8
RACCORDO
100
AcDbLine
 62
253
  6
CONTINUOUS
 10
154.9486658918
 20
-249.7233027091
 11
155.0098101947
 21
-249.738334335
  0
LINE
  5
297
100
AcDbEntity
  8
RACCORDO
100
AcDbLine
 62
253
  6
CONTINUOUS
 10
154.8349291711
 20
-249.6946614233
 11
154.9486658918
 21
-249.7233027091
  0
LINE
  5
298
100
AcDbEntity
  8
RACCORDO
100
AcDbLine
 62
253
  6
CONTINUOUS
 10
154.7325031884
 20
-249.6684803535
 11
154.8349291711
 21
-249.6946614233
  0
LINE
  5
299
100
AcDbEntity
  8
RACCORDO
100
AcDbLine
 62
253
  6
CONTINUOUS
 10
154.382663521
 20
-249.5770686132
 11
154.4329890676
 21
-249.5899101541
  0
LINE
  5
29A
100
AcDbEntity
  8
0
100
AcDbLine
 62
7
  6
CONTINUOUS
 10
-202.5555126388
 20
-2.4235022545
 11
-202.5555126388
 21
4.7264977455
  0
LINE
  5
29B
100
AcDbEntity
  8
0
100
AcDbLine
 62
7
  6
CONTINUOUS
 10
-202.5555126388
 20
-204.0235022545
 11
-202.5555126388
 21
-211.1735022545
  0
LINE
  5
29C
100
AcDbEntity
  8
0
100
AcDbLine
 62
7
  6
CONTINUOUS
 10
-202.0555126388
 20
-3.5985022545
 11
-202.0555126388
 21
5.9014977455
  0
LINE
  5
29D
100
AcDbEntity
  8
0
100
AcDbLine
 62
7
  6
CONTINUOUS
 10
-202.0555126388
 20
-202.8485022545
 11
-202.0555126388
 21
-212.3485022545
  0
LINE
  5
29E
100
AcDbEntity
  8
0
100
AcDbLine
 62
7
  6
CONTINUOUS
 10
-201.8055126388
 20
206.3264977455
 11
-201.8055126388
 21
213.4764977455
  0
LINE
  5
29F
100
AcDbEntity
  8
0
100
AcDbLine
 62
7
  6
CONTINUOUS
 10
-201.3055126388
 20
205.1514977455
 11
-201.3055126388
 21
214.6514977455
  0
LINE
  5
2A0
100
AcDbEntity
  8
0
100
AcDbLine
 62
7
  6
CONTINUOUS
 10
-201.2555126388
 20
-4.3485022545
 11
-201.2555126388
 21
6.6514977455
  0
LINE
  5
2A1
100
AcDbEntity
  8
0
100
AcDbLine
 62
7
  6
CONTINUOUS
 10
-201.2555126388
 20
-202.0985022545
 11
-201.2555126388
 21
-213.0985022545
  0
LINE
  5
2A2
100
AcDbEntity
  8
0
100
AcDbLine
 62
7
  6
CONTINUOUS
 10
-200.5055126388
 20
204.4014977455
 11
-200.5055126388
 21
215.4014977455
  0
LINE
  5
2A3
100
AcDbEntity
  8
0
100
AcDbLine
 62
7
  6
CONTINUOUS
 10
-200.0055126388
 20
228.6514977455
 11
-200.0055126388
 21
6.3004021379
  0
LINE
  5
2A4
100
AcDbEntity
  8
RACCORDO
100
AcDbLine
 62
7
  6
CONTINUOUS
 10
-200.0055126388
 20
-247.3485022545
 11
-200.0055126388
 21
-228.8485022545
  0
LINE
  5
2A5
100
AcDbEntity
  8
0
100
AcDbLine
 62
7
  6
CONTINUOUS
 10
-200.0055126388
 20
-3.9974066469
 11
-200.0055126388
 21
-226.3485022545
  0
LINE
  5
2A6
100
AcDbEntity
  8
RACCORDO
100
AcDbLine
 62
7
  6
CONTINUOUS
 10
-200.0055126388
 20
231.1514977455
 11
-200.0055126388
 21
249.6514977455
  0
LINE
  5
2A7
100
AcDbEntity
  8
0
100
AcDbLine
 62
253
  6
CONTINUOUS
 10
-199.0055126388
 20
228.6514977455
 11
-199.0055126388
 21
7.8976985063
  0
LINE
  5
2A8
100
AcDbEntity
  8
0
100
AcDbLine
 62
7
  6
CONTINUOUS
 10
-199.0055126388
 20
-228.8485022545
 11
-199.0055126388
 21
-226.3485022545
  0
LINE
  5
2A9
100
AcDbEntity
  8
0
100
AcDbLine
 62
253
  6
CONTINUOUS
 10
-199.0055126388
 20
-5.5947030154
 11
-199.0055126388
 21
-226.3485022545
  0
LINE
  5
2AA
100
AcDbEntity
  8
0
100
AcDbLine
 62
7
  6
CONTINUOUS
 10
-199.0055126388
 20
228.6514977455
 11
-199.0055126388
 21
231.1514977455
  0
LINE
  5
2AB
100
AcDbEntity
  8
RACCORDO
100
AcDbLine
 62
7
  6
CONTINUOUS
 10
-184.1305126388
 20
213.6514977455
 11
-184.1305126388
 21
187.1514977455
  0
LINE
  5
2AC
100
AcDbEntity
  8
RACCORDO
100
AcDbLine
 62
7
  6
CONTINUOUS
 10
-184.1305126388
 20
-184.8485022545
 11
-184.1305126388
 21
-211.3485022545
  0
LINE
  5
2AD
100
AcDbEntity
  8
0
100
AcDbLine
 62
7
  6
CONTINUOUS
 10
-183.7555126388
 20
208.6514977455
 11
-183.7555126388
 21
206.1514977455
  0
LINE
  5
2AE
100
AcDbEntity
  8
0
100
AcDbLine
 62
7
  6
CONTINUOUS
 10
-183.7555126388
 20
-203.8485022545
 11
-183.7555126388
 21
-206.3485022545
  0
LINE
  5
2AF
100
AcDbEntity
  8
0
100
AcDbLine
 62
7
  6
CONTINUOUS
 10
-183.5055126388
 20
208.4014977455
 11
-183.5055126388
 21
206.4014977455
  0
LINE
  5
2B0
100
AcDbEntity
  8
0
100
AcDbLine
 62
7
  6
CONTINUOUS
 10
-183.5055126388
 20
-204.0985022545
 11
-183.5055126388
 21
-206.0985022545
  0
LINE
  5
2B1
100
AcDbEntity
  8
RACCORDO
100
AcDbLine
 62
7
  6
CONTINUOUS
 10
-182.6305126388
 20
-211.3485022545
 11
-182.6305126388
 21
-184.8485022545
  0
LINE
  5
2B2
100
AcDbEntity
  8
RACCORDO
100
AcDbLine
 62
7
  6
CONTINUOUS
 10
-182.6305126388
 20
187.1514977455
 11
-182.6305126388
 21
213.6514977455
  0
LINE
  5
2B3
100
AcDbEntity
  8
0
100
AcDbLine
 62
7
  6
CONTINUOUS
 10
208.3194873612
 20
-202.2735022545
 11
212.0694873612
 21
-202.2735022545
  0
LINE
  5
2B4
100
AcDbEntity
  8
0
100
AcDbLine
 62
7
  6
CONTINUOUS
 10
-209.0805126388
 20
-202.2735022545
 11
-212.8305126388
 21
-202.2735022545
  0
LINE
  5
2B5
100
AcDbEntity
  8
0
100
AcDbLine
 62
7
  6
CONTINUOUS
 10
-201.2555126388
 20
-202.0985022545
 11
-200.0055126388
 21
-202.0985022545
  0
LINE
  5
2B6
100
AcDbEntity
  8
0
100
AcDbLine
 62
7
  6
CONTINUOUS
 10
200.4944873612
 20
-202.0985022545
 11
199.9944873612
 21
-202.0985022545
  0
LWPOLYLINE
  5
2B7
100
AcDbEntity
  8
RACCORDO
100
AcDbPolyline
 62
253
  6
CONTINUOUS
 90
3
 70
0
 10
154.4329890676
 20
-249.5899101541
 10
154.5615781706
 20
-249.6237467343
 10
154.7325031884
 20
-249.6684803535
  0
LINE
  5
2B8
100
AcDbEntity
  8
0
100
AcDbLine
 62
7
  6
CONTINUOUS
 10
-180.0055126388
 20
251.1514977455
 11
-180.0055126388
 21
250.1514977455
  0
LINE
  5
2B9
100
AcDbEntity
  8
0
100
AcDbLine
 62
7
  6
CONTINUOUS
 10
-180.0055126388
 20
-248.8485022545
 11
-180.0055126388
 21
-247.8485022545
  0
LINE
  5
2BA
100
AcDbEntity
  8
0
100
AcDbLine
 62
253
  6
CONTINUOUS
 10
-178.7555126388
 20
251.1514977455
 11
-178.7555126388
 21
250.1514977455
  0
LINE
  5
2BB
100
AcDbEntity
  8
0
100
AcDbLine
 62
253
  6
CONTINUOUS
 10
-178.7555126388
 20
-248.8485022545
 11
-178.7555126388
 21
-247.8485022545
  0
LINE
  5
2BC
100
AcDbEntity
  8
0
100
AcDbLine
 62
7
  6
CONTINUOUS
 10
-177.0055126388
 20
251.1514977455
 11
-177.0055126388
 21
250.1514977455
  0
LINE
  5
2BD
100
AcDbEntity
  8
0
100
AcDbLine
 62
7
  6
CONTINUOUS
 10
-177.0055126388
 20
-247.8485022545
 11
-177.0055126388
 21
-248.8485022545
  0
LINE
  5
2BE
100
AcDbEntity
  8
0
100
AcDbLine
 62
7
  6
CONTINUOUS
 10
-168.4805126388
 20
251.7514977455
 11
-168.4805126388
 21
253.0014977455
  0
LINE
  5
2BF
100
AcDbEntity
  8
0
100
AcDbLine
 62
7
  6
CONTINUOUS
 10
-163.4805126388
 20
254.3014977455
 11
-163.4805126388
 21
267.7014977455
  0
LINE
  5
2C0
100
AcDbEntity
  8
0
100
AcDbLine
 62
7
  6
CONTINUOUS
 10
-162.4805126388
 20
254.3014977455
 11
-162.4805126388
 21
267.7014977455
  0
LINE
  5
2C1
100
AcDbEntity
  8
0
100
AcDbLine
 62
7
  6
CONTINUOUS
 10
-157.4805126388
 20
251.7514977455
 11
-157.4805126388
 21
253.0014977455
  0
LWPOLYLINE
  5
2C2
100
AcDbEntity
  8
RACCORDO
100
AcDbPolyline
 62
253
  6
CONTINUOUS
 90
4
 70
0
 10
157.2834666078
 20
-252.299286295
 10
157.3519608181
 20
-252.3261085559
 10
157.4229286821
 20
-252.342597483
 10
157.4696644045
 20
-252.3462149503
  0
LINE
  5
2C3
100
AcDbEntity
  8
RACCORDO
100
AcDbLine
 62
7
  6
CONTINUOUS
 10
-119.0730802064
 20
75.6589301779
 11
-119.0055126388
 21
75.7264977455
  0
LINE
  5
2C4
100
AcDbEntity
  8
RACCORDO
100
AcDbLine
 62
7
  6
CONTINUOUS
 10
-113.4379450713
 20
81.294065313
 11
-113.5055126388
 21
81.2264977455
  0
LINE
  5
2C5
100
AcDbEntity
  8
0
100
AcDbLine
 62
7
  6
CONTINUOUS
 10
-201.2555126388
 20
6.6514977455
 11
-202.0555126388
 21
5.9014977455
  0
LINE
  5
2C6
100
AcDbEntity
  8
0
100
AcDbLine
 62
7
  6
CONTINUOUS
 10
158.9444873612
 20
-253.5985022545
 11
157.4694873612
 21
-252.8485022545
  0
LWPOLYLINE
  5
2C7
100
AcDbEntity
  8
RACCORDO
100
AcDbPolyline
 62
253
  6
CONTINUOUS
 90
7
 70
0
 10
156.4828336317
 20
-252.2093176093
 10
156.4788177184
 20
-252.207020193
 10
156.4751773281
 20
-252.2047713348
 10
156.4719048793
 20
-252.2025716385
 10
156.4689921803
 20
-252.2004214977
 10
156.4664304245
 20
-252.1983210936
 10
156.464210185
 20
-252.1962703927
  0
LINE
  5
2C8
100
AcDbEntity
  8
0
100
AcDbLine
 62
7
  6
CONTINUOUS
 10
-201.2555126388
 20
-4.3485022545
 11
-202.0555126388
 21
-3.5985022545
  0
LINE
  5
2C9
100
AcDbEntity
  8
RACCORDO
100
AcDbLine
 62
7
  6
CONTINUOUS
 10
-113.5055126388
 20
-86.7735022545
 11
-113.4379450713
 21
-86.8410698221
  0
LINE
  5
2CA
100
AcDbEntity
  8
RACCORDO
100
AcDbLine
 62
7
  6
CONTINUOUS
 10
-119.0055126388
 20
-81.2735022545
 11
-119.0730802064
 21
-81.205934687
  0
LINE
  5
2CB
100
AcDbEntity
  8
RACCORDO
100
AcDbLine
 62
7
  6
CONTINUOUS
 10
-119.5055126388
 20
81.2264977455
 11
-119.5055126388
 21
80.0014977455
  0
LINE
  5
2CC
100
AcDbEntity
  8
ASSI
100
AcDbLine
 62
7
  6
CONTINUOUS
 10
-119.5055126388
 20
78.9764977455
 11
-119.5055126388
 21
77.9764977455
  0
LINE
  5
2CD
100
AcDbEntity
  8
RACCORDO
100
AcDbLine
 62
7
  6
CONTINUOUS
 10
-119.5055126388
 20
76.9514977455
 11
-119.5055126388
 21
75.7264977455
  0
LINE
  5
2CE
100
AcDbEntity
  8
RACCORDO
100
AcDbLine
 62
7
  6
CONTINUOUS
 10
-119.5055126388
 20
52.4764977455
 11
-119.5055126388
 21
51.2514977455
  0
LINE
  5
2CF
100
AcDbEntity
  8
ASSI
100
AcDbLine
 62
7
  6
CONTINUOUS
 10
-119.5055126388
 20
50.2264977455
 11
-119.5055126388
 21
49.2264977455
  0
LINE
  5
2D0
100
AcDbEntity
  8
RACCORDO
100
AcDbLine
 62
7
  6
CONTINUOUS
 10
-119.5055126388
 20
48.2014977455
 11
-119.5055126388
 21
46.9764977455
  0
LINE
  5
2D1
100
AcDbEntity
  8
RACCORDO
100
AcDbLine
 62
7
  6
CONTINUOUS
 10
-119.5055126388
 20
14.3514977455
 11
-119.5055126388
 21
13.1264977455
  0
LINE
  5
2D2
100
AcDbEntity
  8
ASSI
100
AcDbLine
 62
7
  6
CONTINUOUS
 10
-119.5055126388
 20
12.1014977455
 11
-119.5055126388
 21
11.1014977455
  0
LINE
  5
2D3
100
AcDbEntity
  8
RACCORDO
100
AcDbLine
 62
7
  6
CONTINUOUS
 10
-119.5055126388
 20
10.0764977455
 11
-119.5055126388
 21
8.8514977455
  0
LINE
  5
2D4
100
AcDbEntity
  8
RACCORDO
100
AcDbLine
 62
7
  6
CONTINUOUS
 10
-119.5055126388
 20
-14.3985022545
 11
-119.5055126388
 21
-15.6235022545
  0
LINE
  5
2D5
100
AcDbEntity
  8
ASSI
100
AcDbLine
 62
7
  6
CONTINUOUS
 10
-119.5055126388
 20
-16.6485022545
 11
-119.5055126388
 21
-17.6485022545
  0
LINE
  5
2D6
100
AcDbEntity
  8
RACCORDO
100
AcDbLine
 62
7
  6
CONTINUOUS
 10
-119.5055126388
 20
-18.6735022545
 11
-119.5055126388
 21
-19.8985022545
  0
LINE
  5
2D7
100
AcDbEntity
  8
RACCORDO
100
AcDbLine
 62
7
  6
CONTINUOUS
 10
-119.5055126388
 20
-52.5235022545
 11
-119.5055126388
 21
-53.7485022545
  0
LINE
  5
2D8
100
AcDbEntity
  8
ASSI
100
AcDbLine
 62
7
  6
CONTINUOUS
 10
-119.5055126388
 20
-54.7735022545
 11
-119.5055126388
 21
-55.7735022545
  0
LINE
  5
2D9
100
AcDbEntity
  8
RACCORDO
100
AcDbLine
 62
7
  6
CONTINUOUS
 10
-119.5055126388
 20
-56.7985022545
 11
-119.5055126388
 21
-58.0235022545
  0
LINE
  5
2DA
100
AcDbEntity
  8
RACCORDO
100
AcDbLine
 62
7
  6
CONTINUOUS
 10
-119.5055126388
 20
-81.2735022545
 11
-119.5055126388
 21
-82.4985022545
  0
LINE
  5
2DB
100
AcDbEntity
  8
ASSI
100
AcDbLine
 62
7
  6
CONTINUOUS
 10
-119.5055126388
 20
-83.5235022545
 11
-119.5055126388
 21
-84.5235022545
  0
LINE
  5
2DC
100
AcDbEntity
  8
RACCORDO
100
AcDbLine
 62
7
  6
CONTINUOUS
 10
-119.5055126388
 20
-85.5485022545
 11
-119.5055126388
 21
-86.7735022545
  0
LINE
  5
2DD
100
AcDbEntity
  8
RACCORDO
100
AcDbLine
 62
7
  6
CONTINUOUS
 10
-119.4385253407
 20
76.9751546925
 11
-119.4385253407
 21
76.9514977455
  0
LINE
  5
2DE
100
AcDbEntity
  8
RACCORDO
100
AcDbLine
 62
7
  6
CONTINUOUS
 10
-119.4385253407
 20
48.2251546925
 11
-119.4385253407
 21
48.2014977455
  0
LINE
  5
2DF
100
AcDbEntity
  8
RACCORDO
100
AcDbLine
 62
7
  6
CONTINUOUS
 10
-119.4385253407
 20
-82.5221592016
 11
-119.4385253407
 21
-82.4985022545
  0
LINE
  5
2E0
100
AcDbEntity
  8
RACCORDO
100
AcDbLine
 62
7
  6
CONTINUOUS
 10
-119.4385253407
 20
-53.7721592016
 11
-119.4385253407
 21
-53.7485022545
  0
LINE
  5
2E1
100
AcDbEntity
  8
RACCORDO
100
AcDbLine
 62
7
  6
CONTINUOUS
 10
-119.4385253407
 20
10.1001546925
 11
-119.4385253407
 21
10.0764977455
  0
LINE
  5
2E2
100
AcDbEntity
  8
RACCORDO
100
AcDbLine
 62
7
  6
CONTINUOUS
 10
-119.4385253407
 20
-18.6498453075
 11
-119.4385253407
 21
-18.6735022545
  0
LINE
  5
2E3
100
AcDbEntity
  8
RACCORDO
100
AcDbLine
 62
7
  6
CONTINUOUS
 10
-119.4385253407
 20
-15.6471592016
 11
-119.4385253407
 21
-15.6235022545
  0
LINE
  5
2E4
100
AcDbEntity
  8
RACCORDO
100
AcDbLine
 62
7
  6
CONTINUOUS
 10
-119.4385253407
 20
13.1028407984
 11
-119.4385253407
 21
13.1264977455
  0
LINE
  5
2E5
100
AcDbEntity
  8
RACCORDO
100
AcDbLine
 62
7
  6
CONTINUOUS
 10
-119.4385253407
 20
-56.7748453075
 11
-119.4385253407
 21
-56.7985022545
  0
LINE
  5
2E6
100
AcDbEntity
  8
RACCORDO
100
AcDbLine
 62
7
  6
CONTINUOUS
 10
-119.4385253407
 20
-85.5248453075
 11
-119.4385253407
 21
-85.5485022545
  0
LINE
  5
2E7
100
AcDbEntity
  8
RACCORDO
100
AcDbLine
 62
7
  6
CONTINUOUS
 10
-119.4385253407
 20
51.2278407984
 11
-119.4385253407
 21
51.2514977455
  0
LINE
  5
2E8
100
AcDbEntity
  8
RACCORDO
100
AcDbLine
 62
7
  6
CONTINUOUS
 10
-119.4385253407
 20
79.9778407984
 11
-119.4385253407
 21
80.0014977455
  0
LINE
  5
2E9
100
AcDbEntity
  8
RACCORDO
100
AcDbLine
 62
253
  6
CONTINUOUS
 10
-119.0055126388
 20
81.2264977455
 11
-119.0055126388
 21
79.8012476454
  0
LINE
  5
2EA
100
AcDbEntity
  8
RACCORDO
100
AcDbLine
 62
253
  6
CONTINUOUS
 10
-119.0055126388
 20
77.1517478455
 11
-119.0055126388
 21
75.7264977455
  0
LINE
  5
2EB
100
AcDbEntity
  8
RACCORDO
100
AcDbLine
 62
253
  6
CONTINUOUS
 10
-119.0055126388
 20
52.4764977455
 11
-119.0055126388
 21
51.0512476454
  0
LINE
  5
2EC
100
AcDbEntity
  8
RACCORDO
100
AcDbLine
 62
253
  6
CONTINUOUS
 10
-119.0055126388
 20
48.4017478456
 11
-119.0055126388
 21
46.9764977455
  0
LINE
  5
2ED
100
AcDbEntity
  8
ASSI
100
AcDbLine
 62
7
  6
CONTINUOUS
 10
-119.0055126388
 20
-85.3482521545
 11
-119.0055126388
 21
-84.7237523546
  0
LINE
  5
2EE
100
AcDbEntity
  8
ASSI
100
AcDbLine
 62
7
  6
CONTINUOUS
 10
-119.0055126388
 20
-83.3232521545
 11
-119.0055126388
 21
-82.6987523546
  0
LINE
  5
2EF
100
AcDbEntity
  8
ASSI
100
AcDbLine
 62
7
  6
CONTINUOUS
 10
-119.0055126388
 20
-56.5982521545
 11
-119.0055126388
 21
-55.9737523546
  0
LINE
  5
2F0
100
AcDbEntity
  8
RACCORDO
100
AcDbLine
 62
253
  6
CONTINUOUS
 10
-119.0055126388
 20
14.3514977455
 11
-119.0055126388
 21
12.9262476454
  0
LINE
  5
2F1
100
AcDbEntity
  8
ASSI
100
AcDbLine
 62
7
  6
CONTINUOUS
 10
-119.0055126388
 20
-54.5732521545
 11
-119.0055126388
 21
-53.9487523546
  0
LINE
  5
2F2
100
AcDbEntity
  8
RACCORDO
100
AcDbLine
 62
253
  6
CONTINUOUS
 10
-119.0055126388
 20
10.2767478455
 11
-119.0055126388
 21
8.8514977455
  0
LINE
  5
2F3
100
AcDbEntity
  8
RACCORDO
100
AcDbLine
 62
253
  6
CONTINUOUS
 10
-119.0055126388
 20
-14.3985022545
 11
-119.0055126388
 21
-15.8237523546
  0
LINE
  5
2F4
100
AcDbEntity
  8
RACCORDO
100
AcDbLine
 62
253
  6
CONTINUOUS
 10
-119.0055126388
 20
-18.4732521545
 11
-119.0055126388
 21
-19.8985022545
  0
LINE
  5
2F5
100
AcDbEntity
  8
ASSI
100
AcDbLine
 62
7
  6
CONTINUOUS
 10
-119.0055126388
 20
-18.4732521545
 11
-119.0055126388
 21
-17.8487523546
  0
LINE
  5
2F6
100
AcDbEntity
  8
ASSI
100
AcDbLine
 62
7
  6
CONTINUOUS
 10
-119.0055126388
 20
-16.4482521545
 11
-119.0055126388
 21
-15.8237523546
  0
LINE
  5
2F7
100
AcDbEntity
  8
ASSI
100
AcDbLine
 62
7
  6
CONTINUOUS
 10
-119.0055126388
 20
10.2767478455
 11
-119.0055126388
 21
10.9012476454
  0
LINE
  5
2F8
100
AcDbEntity
  8
RACCORDO
100
AcDbLine
 62
253
  6
CONTINUOUS
 10
-119.0055126388
 20
-52.5235022545
 11
-119.0055126388
 21
-53.9487523546
  0
LINE
  5
2F9
100
AcDbEntity
  8
ASSI
100
AcDbLine
 62
7
  6
CONTINUOUS
 10
-119.0055126388
 20
12.3017478455
 11
-119.0055126388
 21
12.9262476454
  0
LINE
  5
2FA
100
AcDbEntity
  8
RACCORDO
100
AcDbLine
 62
253
  6
CONTINUOUS
 10
-119.0055126388
 20
-56.5982521545
 11
-119.0055126388
 21
-58.0235022545
  0
LINE
  5
2FB
100
AcDbEntity
  8
RACCORDO
100
AcDbLine
 62
253
  6
CONTINUOUS
 10
-119.0055126388
 20
-81.2735022545
 11
-119.0055126388
 21
-82.6987523546
  0
LINE
  5
2FC
100
AcDbEntity
  8
RACCORDO
100
AcDbLine
 62
253
  6
CONTINUOUS
 10
-119.0055126388
 20
-85.3482521545
 11
-119.0055126388
 21
-86.7735022545
  0
LINE
  5
2FD
100
AcDbEntity
  8
ASSI
100
AcDbLine
 62
7
  6
CONTINUOUS
 10
-119.0055126388
 20
48.4017478456
 11
-119.0055126388
 21
49.0262476454
  0
LINE
  5
2FE
100
AcDbEntity
  8
ASSI
100
AcDbLine
 62
7
  6
CONTINUOUS
 10
-119.0055126388
 20
50.4267478456
 11
-119.0055126388
 21
51.0512476454
  0
LINE
  5
2FF
100
AcDbEntity
  8
ASSI
100
AcDbLine
 62
7
  6
CONTINUOUS
 10
-119.0055126388
 20
77.1517478455
 11
-119.0055126388
 21
77.7762476454
  0
LINE
  5
300
100
AcDbEntity
  8
ASSI
100
AcDbLine
 62
7
  6
CONTINUOUS
 10
-119.0055126388
 20
79.1767478455
 11
-119.0055126388
 21
79.8012476454
  0
LINE
  5
301
100
AcDbEntity
  8
RACCORDO
100
AcDbLine
 62
7
  6
CONTINUOUS
 10
-118.5805126388
 20
-87.2735022545
 11
-118.5805126388
 21
-87.0235022545
  0
LINE
  5
302
100
AcDbEntity
  8
RACCORDO
100
AcDbLine
 62
7
  6
CONTINUOUS
 10
-118.5805126388
 20
-81.0235022545
 11
-118.5805126388
 21
-80.7735022545
  0
LINE
  5
303
100
AcDbEntity
  8
RACCORDO
100
AcDbLine
 62
7
  6
CONTINUOUS
 10
-118.5805126388
 20
-58.5235022545
 11
-118.5805126388
 21
-58.2735022545
  0
LINE
  5
304
100
AcDbEntity
  8
RACCORDO
100
AcDbLine
 62
7
  6
CONTINUOUS
 10
-118.5805126388
 20
-52.2735022545
 11
-118.5805126388
 21
-52.0235022545
  0
LINE
  5
305
100
AcDbEntity
  8
RACCORDO
100
AcDbLine
 62
7
  6
CONTINUOUS
 10
-118.5805126388
 20
-20.3985022545
 11
-118.5805126388
 21
-20.1485022545
  0
LINE
  5
306
100
AcDbEntity
  8
RACCORDO
100
AcDbLine
 62
7
  6
CONTINUOUS
 10
-118.5805126388
 20
-14.1485022545
 11
-118.5805126388
 21
-13.8985022545
  0
LINE
  5
307
100
AcDbEntity
  8
RACCORDO
100
AcDbLine
 62
7
  6
CONTINUOUS
 10
-118.5805126388
 20
8.3514977455
 11
-118.5805126388
 21
8.6014977455
  0
LINE
  5
308
100
AcDbEntity
  8
RACCORDO
100
AcDbLine
 62
7
  6
CONTINUOUS
 10
-118.5805126388
 20
14.6014977455
 11
-118.5805126388
 21
14.8514977455
  0
LINE
  5
309
100
AcDbEntity
  8
RACCORDO
100
AcDbLine
 62
7
  6
CONTINUOUS
 10
-118.5805126388
 20
46.4764977455
 11
-118.5805126388
 21
46.7264977455
  0
LINE
  5
30A
100
AcDbEntity
  8
RACCORDO
100
AcDbLine
 62
7
  6
CONTINUOUS
 10
-118.5805126388
 20
52.7264977455
 11
-118.5805126388
 21
52.9764977455
  0
LINE
  5
30B
100
AcDbEntity
  8
RACCORDO
100
AcDbLine
 62
7
  6
CONTINUOUS
 10
-118.5805126388
 20
75.2264977455
 11
-118.5805126388
 21
75.4764977455
  0
LINE
  5
30C
100
AcDbEntity
  8
RACCORDO
100
AcDbLine
 62
7
  6
CONTINUOUS
 10
-118.5805126388
 20
81.4764977455
 11
-118.5805126388
 21
81.7264977455
  0
LINE
  5
30D
100
AcDbEntity
  8
0
100
AcDbLine
 62
7
  6
CONTINUOUS
 10
-118.5055126388
 20
88.8514977455
 11
-118.5055126388
 21
84.3514977455
  0
LINE
  5
30E
100
AcDbEntity
  8
0
100
AcDbLine
 62
7
  6
CONTINUOUS
 10
-118.5055126388
 20
43.8514977455
 11
-118.5055126388
 21
39.3514977455
  0
LINE
  5
30F
100
AcDbEntity
  8
0
100
AcDbLine
 62
7
  6
CONTINUOUS
 10
-118.5055126388
 20
21.9764977455
 11
-118.5055126388
 21
17.4764977455
  0
LINE
  5
310
100
AcDbEntity
  8
0
100
AcDbLine
 62
7
  6
CONTINUOUS
 10
-118.5055126388
 20
-23.0235022545
 11
-118.5055126388
 21
-27.5235022545
  0
LINE
  5
311
100
AcDbEntity
  8
0
100
AcDbLine
 62
7
  6
CONTINUOUS
 10
-118.5055126388
 20
-44.8985022545
 11
-118.5055126388
 21
-49.3985022545
  0
LINE
  5
312
100
AcDbEntity
  8
0
100
AcDbLine
 62
7
  6
CONTINUOUS
 10
-118.5055126388
 20
-89.8985022545
 11
-118.5055126388
 21
-94.3985022545
  0
LINE
  5
313
100
AcDbEntity
  8
0
100
AcDbLine
 62
7
  6
CONTINUOUS
 10
-114.0055126388
 20
-94.3985022545
 11
-114.0055126388
 21
-89.8985022545
  0
LINE
  5
314
100
AcDbEntity
  8
0
100
AcDbLine
 62
7
  6
CONTINUOUS
 10
-114.0055126388
 20
-49.3985022545
 11
-114.0055126388
 21
-44.8985022545
  0
LINE
  5
315
100
AcDbEntity
  8
0
100
AcDbLine
 62
7
  6
CONTINUOUS
 10
-114.0055126388
 20
-27.5235022545
 11
-114.0055126388
 21
-23.0235022545
  0
LINE
  5
316
100
AcDbEntity
  8
0
100
AcDbLine
 62
7
  6
CONTINUOUS
 10
-114.0055126388
 20
17.4764977455
 11
-114.0055126388
 21
21.9764977455
  0
LINE
  5
317
100
AcDbEntity
  8
0
100
AcDbLine
 62
7
  6
CONTINUOUS
 10
-114.0055126388
 20
39.3514977455
 11
-114.0055126388
 21
43.8514977455
  0
LINE
  5
318
100
AcDbEntity
  8
0
100
AcDbLine
 62
7
  6
CONTINUOUS
 10
-114.0055126388
 20
84.3514977455
 11
-114.0055126388
 21
88.8514977455
  0
LINE
  5
319
100
AcDbEntity
  8
RACCORDO
100
AcDbLine
 62
7
  6
CONTINUOUS
 10
-113.9305126388
 20
81.7264977455
 11
-113.9305126388
 21
81.4764977455
  0
LINE
  5
31A
100
AcDbEntity
  8
RACCORDO
100
AcDbLine
 62
7
  6
CONTINUOUS
 10
-113.9305126388
 20
75.4764977455
 11
-113.9305126388
 21
75.2264977455
  0
LINE
  5
31B
100
AcDbEntity
  8
RACCORDO
100
AcDbLine
 62
7
  6
CONTINUOUS
 10
-113.9305126388
 20
52.9764977455
 11
-113.9305126388
 21
52.7264977455
  0
LINE
  5
31C
100
AcDbEntity
  8
RACCORDO
100
AcDbLine
 62
7
  6
CONTINUOUS
 10
-113.9305126388
 20
46.7264977455
 11
-113.9305126388
 21
46.4764977455
  0
LINE
  5
31D
100
AcDbEntity
  8
RACCORDO
100
AcDbLine
 62
7
  6
CONTINUOUS
 10
-113.9305126388
 20
14.8514977455
 11
-113.9305126388
 21
14.6014977455
  0
LINE
  5
31E
100
AcDbEntity
  8
RACCORDO
100
AcDbLine
 62
7
  6
CONTINUOUS
 10
-113.9305126388
 20
8.6014977455
 11
-113.9305126388
 21
8.3514977455
  0
LINE
  5
31F
100
AcDbEntity
  8
RACCORDO
100
AcDbLine
 62
7
  6
CONTINUOUS
 10
-113.9305126388
 20
-13.8985022545
 11
-113.9305126388
 21
-14.1485022545
  0
LINE
  5
320
100
AcDbEntity
  8
RACCORDO
100
AcDbLine
 62
7
  6
CONTINUOUS
 10
-113.9305126388
 20
-20.1485022545
 11
-113.9305126388
 21
-20.3985022545
  0
LINE
  5
321
100
AcDbEntity
  8
RACCORDO
100
AcDbLine
 62
7
  6
CONTINUOUS
 10
-113.9305126388
 20
-52.0235022545
 11
-113.9305126388
 21
-52.2735022545
  0
LINE
  5
322
100
AcDbEntity
  8
RACCORDO
100
AcDbLine
 62
7
  6
CONTINUOUS
 10
-113.9305126388
 20
-58.2735022545
 11
-113.9305126388
 21
-58.5235022545
  0
LINE
  5
323
100
AcDbEntity
  8
RACCORDO
100
AcDbLine
 62
7
  6
CONTINUOUS
 10
-113.9305126388
 20
-80.7735022545
 11
-113.9305126388
 21
-81.0235022545
  0
LINE
  5
324
100
AcDbEntity
  8
RACCORDO
100
AcDbLine
 62
7
  6
CONTINUOUS
 10
-113.9305126388
 20
-87.0235022545
 11
-113.9305126388
 21
-87.2735022545
  0
LINE
  5
325
100
AcDbEntity
  8
RACCORDO
100
AcDbLine
 62
253
  6
CONTINUOUS
 10
-113.5055126388
 20
-86.7735022545
 11
-113.5055126388
 21
-85.3482521545
  0
LINE
  5
326
100
AcDbEntity
  8
ASSI
100
AcDbLine
 62
7
  6
CONTINUOUS
 10
-113.5055126388
 20
-85.3482521545
 11
-113.5055126388
 21
-84.7237523546
  0
LINE
  5
327
100
AcDbEntity
  8
ASSI
100
AcDbLine
 62
7
  6
CONTINUOUS
 10
-113.5055126388
 20
-83.3232521545
 11
-113.5055126388
 21
-82.6987523546
  0
LINE
  5
328
100
AcDbEntity
  8
RACCORDO
100
AcDbLine
 62
253
  6
CONTINUOUS
 10
-113.5055126388
 20
-82.6987523546
 11
-113.5055126388
 21
-81.2735022545
  0
LINE
  5
329
100
AcDbEntity
  8
RACCORDO
100
AcDbLine
 62
253
  6
CONTINUOUS
 10
-113.5055126388
 20
-58.0235022545
 11
-113.5055126388
 21
-56.5982521545
  0
LINE
  5
32A
100
AcDbEntity
  8
ASSI
100
AcDbLine
 62
7
  6
CONTINUOUS
 10
-113.5055126388
 20
-56.5982521545
 11
-113.5055126388
 21
-55.9737523546
  0
LINE
  5
32B
100
AcDbEntity
  8
ASSI
100
AcDbLine
 62
7
  6
CONTINUOUS
 10
-113.5055126388
 20
-54.5732521545
 11
-113.5055126388
 21
-53.9487523546
  0
LINE
  5
32C
100
AcDbEntity
  8
RACCORDO
100
AcDbLine
 62
253
  6
CONTINUOUS
 10
-113.5055126388
 20
-53.9487523546
 11
-113.5055126388
 21
-52.5235022545
  0
LINE
  5
32D
100
AcDbEntity
  8
RACCORDO
100
AcDbLine
 62
253
  6
CONTINUOUS
 10
-113.5055126388
 20
-19.8985022545
 11
-113.5055126388
 21
-18.4732521545
  0
LINE
  5
32E
100
AcDbEntity
  8
ASSI
100
AcDbLine
 62
7
  6
CONTINUOUS
 10
-113.5055126388
 20
-18.4732521545
 11
-113.5055126388
 21
-17.8487523546
  0
LINE
  5
32F
100
AcDbEntity
  8
ASSI
100
AcDbLine
 62
7
  6
CONTINUOUS
 10
-113.5055126388
 20
-16.4482521545
 11
-113.5055126388
 21
-15.8237523546
  0
LINE
  5
330
100
AcDbEntity
  8
RACCORDO
100
AcDbLine
 62
253
  6
CONTINUOUS
 10
-113.5055126388
 20
-15.8237523546
 11
-113.5055126388
 21
-14.3985022545
  0
LINE
  5
331
100
AcDbEntity
  8
RACCORDO
100
AcDbLine
 62
253
  6
CONTINUOUS
 10
-113.5055126388
 20
8.8514977455
 11
-113.5055126388
 21
10.2767478455
  0
LINE
  5
332
100
AcDbEntity
  8
ASSI
100
AcDbLine
 62
7
  6
CONTINUOUS
 10
-113.5055126388
 20
10.2767478455
 11
-113.5055126388
 21
10.9012476454
  0
LINE
  5
333
100
AcDbEntity
  8
ASSI
100
AcDbLine
 62
7
  6
CONTINUOUS
 10
-113.5055126388
 20
12.3017478455
 11
-113.5055126388
 21
12.9262476454
  0
LINE
  5
334
100
AcDbEntity
  8
RACCORDO
100
AcDbLine
 62
253
  6
CONTINUOUS
 10
-113.5055126388
 20
12.9262476454
 11
-113.5055126388
 21
14.3514977455
  0
LINE
  5
335
100
AcDbEntity
  8
RACCORDO
100
AcDbLine
 62
253
  6
CONTINUOUS
 10
-113.5055126388
 20
46.9764977455
 11
-113.5055126388
 21
48.4017478456
  0
LINE
  5
336
100
AcDbEntity
  8
ASSI
100
AcDbLine
 62
7
  6
CONTINUOUS
 10
-113.5055126388
 20
48.4017478456
 11
-113.5055126388
 21
49.0262476454
  0
LINE
  5
337
100
AcDbEntity
  8
ASSI
100
AcDbLine
 62
7
  6
CONTINUOUS
 10
-113.5055126388
 20
50.4267478456
 11
-113.5055126388
 21
51.0512476454
  0
LINE
  5
338
100
AcDbEntity
  8
RACCORDO
100
AcDbLine
 62
253
  6
CONTINUOUS
 10
-113.5055126388
 20
51.0512476454
 11
-113.5055126388
 21
52.4764977455
  0
LINE
  5
339
100
AcDbEntity
  8
RACCORDO
100
AcDbLine
 62
253
  6
CONTINUOUS
 10
-113.5055126388
 20
75.7264977455
 11
-113.5055126388
 21
77.1517478455
  0
LINE
  5
33A
100
AcDbEntity
  8
ASSI
100
AcDbLine
 62
7
  6
CONTINUOUS
 10
-113.5055126388
 20
77.1517478455
 11
-113.5055126388
 21
77.7762476454
  0
LINE
  5
33B
100
AcDbEntity
  8
ASSI
100
AcDbLine
 62
7
  6
CONTINUOUS
 10
-113.5055126388
 20
79.1767478455
 11
-113.5055126388
 21
79.8012476454
  0
LINE
  5
33C
100
AcDbEntity
  8
RACCORDO
100
AcDbLine
 62
253
  6
CONTINUOUS
 10
-113.5055126388
 20
79.8012476454
 11
-113.5055126388
 21
81.2264977455
  0
LINE
  5
33D
100
AcDbEntity
  8
RACCORDO
100
AcDbLine
 62
7
  6
CONTINUOUS
 10
-113.0724999369
 20
76.9751546925
 11
-113.0724999369
 21
76.9514977455
  0
LINE
  5
33E
100
AcDbEntity
  8
RACCORDO
100
AcDbLine
 62
7
  6
CONTINUOUS
 10
-113.0724999369
 20
48.2251546925
 11
-113.0724999369
 21
48.2014977455
  0
LINE
  5
33F
100
AcDbEntity
  8
RACCORDO
100
AcDbLine
 62
7
  6
CONTINUOUS
 10
-113.0724999369
 20
-82.5221592016
 11
-113.0724999369
 21
-82.4985022545
  0
LINE
  5
340
100
AcDbEntity
  8
RACCORDO
100
AcDbLine
 62
7
  6
CONTINUOUS
 10
-113.0724999369
 20
-53.7721592016
 11
-113.0724999369
 21
-53.7485022545
  0
LINE
  5
341
100
AcDbEntity
  8
RACCORDO
100
AcDbLine
 62
7
  6
CONTINUOUS
 10
-113.0724999369
 20
10.1001546925
 11
-113.0724999369
 21
10.0764977455
  0
LINE
  5
342
100
AcDbEntity
  8
RACCORDO
100
AcDbLine
 62
7
  6
CONTINUOUS
 10
-113.0724999369
 20
-18.6498453075
 11
-113.0724999369
 21
-18.6735022545
  0
LINE
  5
343
100
AcDbEntity
  8
RACCORDO
100
AcDbLine
 62
7
  6
CONTINUOUS
 10
-113.0724999369
 20
-15.6471592016
 11
-113.0724999369
 21
-15.6235022545
  0
LINE
  5
344
100
AcDbEntity
  8
RACCORDO
100
AcDbLine
 62
7
  6
CONTINUOUS
 10
-113.0724999369
 20
13.1028407984
 11
-113.0724999369
 21
13.1264977455
  0
LINE
  5
345
100
AcDbEntity
  8
RACCORDO
100
AcDbLine
 62
7
  6
CONTINUOUS
 10
-113.0724999369
 20
-56.7748453075
 11
-113.0724999369
 21
-56.7985022545
  0
LINE
  5
346
100
AcDbEntity
  8
RACCORDO
100
AcDbLine
 62
7
  6
CONTINUOUS
 10
-113.0724999369
 20
-85.5248453075
 11
-113.0724999369
 21
-85.5485022545
  0
LINE
  5
347
100
AcDbEntity
  8
RACCORDO
100
AcDbLine
 62
7
  6
CONTINUOUS
 10
-113.0724999369
 20
51.2278407984
 11
-113.0724999369
 21
51.2514977455
  0
LINE
  5
348
100
AcDbEntity
  8
RACCORDO
100
AcDbLine
 62
7
  6
CONTINUOUS
 10
-113.0724999369
 20
79.9778407984
 11
-113.0724999369
 21
80.0014977455
  0
LINE
  5
349
100
AcDbEntity
  8
RACCORDO
100
AcDbLine
 62
7
  6
CONTINUOUS
 10
-113.0055126388
 20
-86.7735022545
 11
-113.0055126388
 21
-85.5485022545
  0
LINE
  5
34A
100
AcDbEntity
  8
ASSI
100
AcDbLine
 62
7
  6
CONTINUOUS
 10
-113.0055126388
 20
-84.5235022545
 11
-113.0055126388
 21
-83.5235022545
  0
LINE
  5
34B
100
AcDbEntity
  8
RACCORDO
100
AcDbLine
 62
7
  6
CONTINUOUS
 10
-113.0055126388
 20
-82.4985022545
 11
-113.0055126388
 21
-81.2735022545
  0
LINE
  5
34C
100
AcDbEntity
  8
RACCORDO
100
AcDbLine
 62
7
  6
CONTINUOUS
 10
-113.0055126388
 20
-58.0235022545
 11
-113.0055126388
 21
-56.7985022545
  0
LINE
  5
34D
100
AcDbEntity
  8
ASSI
100
AcDbLine
 62
7
  6
CONTINUOUS
 10
-113.0055126388
 20
-55.7735022545
 11
-113.0055126388
 21
-54.7735022545
  0
LINE
  5
34E
100
AcDbEntity
  8
RACCORDO
100
AcDbLine
 62
7
  6
CONTINUOUS
 10
-113.0055126388
 20
-53.7485022545
 11
-113.0055126388
 21
-52.5235022545
  0
LINE
  5
34F
100
AcDbEntity
  8
RACCORDO
100
AcDbLine
 62
7
  6
CONTINUOUS
 10
-113.0055126388
 20
-19.8985022545
 11
-113.0055126388
 21
-18.6735022545
  0
LINE
  5
350
100
AcDbEntity
  8
ASSI
100
AcDbLine
 62
7
  6
CONTINUOUS
 10
-113.0055126388
 20
-17.6485022545
 11
-113.0055126388
 21
-16.6485022545
  0
LINE
  5
351
100
AcDbEntity
  8
RACCORDO
100
AcDbLine
 62
7
  6
CONTINUOUS
 10
-113.0055126388
 20
-15.6235022545
 11
-113.0055126388
 21
-14.3985022545
  0
LINE
  5
352
100
AcDbEntity
  8
RACCORDO
100
AcDbLine
 62
7
  6
CONTINUOUS
 10
-113.0055126388
 20
8.8514977455
 11
-113.0055126388
 21
10.0764977455
  0
LINE
  5
353
100
AcDbEntity
  8
ASSI
100
AcDbLine
 62
7
  6
CONTINUOUS
 10
-113.0055126388
 20
11.1014977455
 11
-113.0055126388
 21
12.1014977455
  0
LINE
  5
354
100
AcDbEntity
  8
RACCORDO
100
AcDbLine
 62
7
  6
CONTINUOUS
 10
-113.0055126388
 20
13.1264977455
 11
-113.0055126388
 21
14.3514977455
  0
LINE
  5
355
100
AcDbEntity
  8
RACCORDO
100
AcDbLine
 62
7
  6
CONTINUOUS
 10
-113.0055126388
 20
46.9764977455
 11
-113.0055126388
 21
48.2014977455
  0
LINE
  5
356
100
AcDbEntity
  8
ASSI
100
AcDbLine
 62
7
  6
CONTINUOUS
 10
-113.0055126388
 20
49.2264977455
 11
-113.0055126388
 21
50.2264977455
  0
LINE
  5
357
100
AcDbEntity
  8
RACCORDO
100
AcDbLine
 62
7
  6
CONTINUOUS
 10
-113.0055126388
 20
51.2514977455
 11
-113.0055126388
 21
52.4764977455
  0
LINE
  5
358
100
AcDbEntity
  8
RACCORDO
100
AcDbLine
 62
7
  6
CONTINUOUS
 10
-113.0055126388
 20
75.7264977455
 11
-113.0055126388
 21
76.9514977455
  0
LINE
  5
359
100
AcDbEntity
  8
ASSI
100
AcDbLine
 62
7
  6
CONTINUOUS
 10
-113.0055126388
 20
77.9764977455
 11
-113.0055126388
 21
78.9764977455
  0
LINE
  5
35A
100
AcDbEntity
  8
RACCORDO
100
AcDbLine
 62
7
  6
CONTINUOUS
 10
-113.0055126388
 20
80.0014977455
 11
-113.0055126388
 21
81.2264977455
  0
LINE
  5
35B
100
AcDbEntity
  8
0
100
AcDbLine
 62
7
  6
CONTINUOUS
 10
-112.5055126388
 20
96.9014977455
 11
-112.5055126388
 21
-103.0985022545
  0
LINE
  5
35C
100
AcDbEntity
  8
RACCORDO
100
AcDbLine
 62
7
  6
CONTINUOUS
 10
-119.0730802064
 20
46.9089301779
 11
-119.0055126388
 21
46.9764977455
  0
LINE
  5
35D
100
AcDbEntity
  8
RACCORDO
100
AcDbLine
 62
7
  6
CONTINUOUS
 10
-113.4379450713
 20
52.544065313
 11
-113.5055126388
 21
52.4764977455
  0
LINE
  5
35E
100
AcDbEntity
  8
RACCORDO
100
AcDbLine
 62
7
  6
CONTINUOUS
 10
-119.2555126388
 20
81.2264977455
 11
-118.5805126388
 21
81.4764977455
  0
LINE
  5
35F
100
AcDbEntity
  8
ASSI
100
AcDbLine
 62
7
  6
CONTINUOUS
 10
-119.5055126388
 20
78.9764977455
 11
-119.1223126402
 21
79.1118270144
  0
LINE
  5
360
100
AcDbEntity
  8
RACCORDO
100
AcDbLine
 62
7
  6
CONTINUOUS
 10
-113.3887126375
 20
79.8661684765
 11
-113.0724999369
 21
79.9778407984
  0
LINE
  5
361
100
AcDbEntity
  8
RACCORDO
100
AcDbLine
 62
7
  6
CONTINUOUS
 10
-119.1223126402
 20
77.0868270144
 11
-119.4385253407
 21
76.9751546925
  0
LINE
  5
362
100
AcDbEntity
  8
ASSI
100
AcDbLine
 62
7
  6
CONTINUOUS
 10
-119.1223126402
 20
-84.6588315235
 11
-119.5055126388
 21
-84.5235022545
  0
LINE
  5
363
100
AcDbEntity
  8
RACCORDO
100
AcDbLine
 62
7
  6
CONTINUOUS
 10
-113.3887126375
 20
-85.4131729856
 11
-113.0724999369
 21
-85.5248453075
  0
LINE
  5
364
100
AcDbEntity
  8
RACCORDO
100
AcDbLine
 62
7
  6
CONTINUOUS
 10
-119.1223126402
 20
-82.6338315235
 11
-119.4385253407
 21
-82.5221592016
  0
LINE
  5
365
100
AcDbEntity
  8
ASSI
100
AcDbLine
 62
7
  6
CONTINUOUS
 10
-113.3887126375
 20
-83.3881729856
 11
-113.0055126388
 21
-83.5235022545
  0
LINE
  5
366
100
AcDbEntity
  8
RACCORDO
100
AcDbLine
 62
7
  6
CONTINUOUS
 10
-118.5805126388
 20
-87.0235022545
 11
-119.2555126388
 21
-86.7735022545
  0
LINE
  5
367
100
AcDbEntity
  8
RACCORDO
100
AcDbLine
 62
7
  6
CONTINUOUS
 10
-113.9305126388
 20
-81.0235022545
 11
-113.2555126388
 21
-81.2735022545
  0
LWPOLYLINE
  5
368
100
AcDbEntity
  8
RACCORDO
100
AcDbPolyline
 62
253
  6
CONTINUOUS
 90
6
 70
0
 10
156.5357204745
 20
-252.2519365725
 10
156.5936363833
 20
-252.2874233127
 10
156.655626619
 20
-252.3151914588
 10
156.7206684136
 20
-252.3347828679
 10
156.7876886519
 20
-252.3458743041
 10
156.8392219294
 20
-252.3485010472
  0
LINE
  5
369
100
AcDbEntity
  8
RACCORDO
100
AcDbLine
 62
7
  6
CONTINUOUS
 10
-113.5055126388
 20
-58.0235022545
 11
-113.4379450713
 21
-58.0910698221
  0
LINE
  5
36A
100
AcDbEntity
  8
RACCORDO
100
AcDbLine
 62
7
  6
CONTINUOUS
 10
-119.0055126388
 20
-52.5235022545
 11
-119.0730802064
 21
-52.455934687
  0
LINE
  5
36B
100
AcDbEntity
  8
RACCORDO
100
AcDbLine
 62
7
  6
CONTINUOUS
 10
-111.0055126388
 20
96.8514977455
 11
-111.0055126388
 21
96.3514977455
  0
LINE
  5
36C
100
AcDbEntity
  8
RACCORDO
100
AcDbLine
 62
7
  6
CONTINUOUS
 10
-111.0055126388
 20
-102.3985022545
 11
-111.0055126388
 21
-101.8985022545
  0
LINE
  5
36D
100
AcDbEntity
  8
RACCORDO
100
AcDbLine
 62
7
  6
CONTINUOUS
 10
-111.0055126388
 20
29.9764977455
 11
-111.0055126388
 21
29.4764977455
  0
LINE
  5
36E
100
AcDbEntity
  8
RACCORDO
100
AcDbLine
 62
7
  6
CONTINUOUS
 10
-111.0055126388
 20
-35.5235022545
 11
-111.0055126388
 21
-35.0235022545
  0
LINE
  5
36F
100
AcDbEntity
  8
RACCORDO
100
AcDbLine
 62
7
  6
CONTINUOUS
 10
-111.0055126388
 20
-36.8985022545
 11
-111.0055126388
 21
-37.3985022545
  0
LINE
  5
370
100
AcDbEntity
  8
RACCORDO
100
AcDbLine
 62
7
  6
CONTINUOUS
 10
-111.0055126388
 20
31.3514977455
 11
-111.0055126388
 21
31.8514977455
  0
LINE
  5
371
100
AcDbEntity
  8
RACCORDO
100
AcDbLine
 62
7
  6
CONTINUOUS
 10
-110.0055126388
 20
97.1014977455
 11
-110.0055126388
 21
96.3514977455
  0
LINE
  5
372
100
AcDbEntity
  8
RACCORDO
100
AcDbLine
 62
7
  6
CONTINUOUS
 10
-110.0055126388
 20
-102.6485022545
 11
-110.0055126388
 21
-101.8985022545
  0
LINE
  5
373
100
AcDbEntity
  8
RACCORDO
100
AcDbLine
 62
7
  6
CONTINUOUS
 10
-110.0055126388
 20
30.2264977455
 11
-110.0055126388
 21
29.4764977455
  0
LINE
  5
374
100
AcDbEntity
  8
RACCORDO
100
AcDbLine
 62
7
  6
CONTINUOUS
 10
-110.0055126388
 20
-35.7735022545
 11
-110.0055126388
 21
-35.0235022545
  0
LINE
  5
375
100
AcDbEntity
  8
RACCORDO
100
AcDbLine
 62
7
  6
CONTINUOUS
 10
-110.0055126388
 20
-36.6485022545
 11
-110.0055126388
 21
-37.3985022545
  0
LINE
  5
376
100
AcDbEntity
  8
RACCORDO
100
AcDbLine
 62
7
  6
CONTINUOUS
 10
-110.0055126388
 20
31.1014977455
 11
-110.0055126388
 21
31.8514977455
  0
LINE
  5
377
100
AcDbEntity
  8
RACCORDO
100
AcDbLine
 62
253
  6
CONTINUOUS
 10
-108.5055126388
 20
97.1014977455
 11
-108.5055126388
 21
96.3514977455
  0
LINE
  5
378
100
AcDbEntity
  8
RACCORDO
100
AcDbLine
 62
253
  6
CONTINUOUS
 10
-108.5055126388
 20
-102.6485022545
 11
-108.5055126388
 21
-101.8985022545
  0
LINE
  5
379
100
AcDbEntity
  8
RACCORDO
100
AcDbLine
 62
253
  6
CONTINUOUS
 10
-108.5055126388
 20
30.2264977455
 11
-108.5055126388
 21
29.4764977455
  0
LINE
  5
37A
100
AcDbEntity
  8
RACCORDO
100
AcDbLine
 62
253
  6
CONTINUOUS
 10
-108.5055126388
 20
-35.7735022545
 11
-108.5055126388
 21
-35.0235022545
  0
LINE
  5
37B
100
AcDbEntity
  8
RACCORDO
100
AcDbLine
 62
253
  6
CONTINUOUS
 10
-108.5055126388
 20
-36.6485022545
 11
-108.5055126388
 21
-37.3985022545
  0
LINE
  5
37C
100
AcDbEntity
  8
RACCORDO
100
AcDbLine
 62
253
  6
CONTINUOUS
 10
-108.5055126388
 20
31.1014977455
 11
-108.5055126388
 21
31.8514977455
  0
LINE
  5
37D
100
AcDbEntity
  8
RACCORDO
100
AcDbLine
 62
7
  6
CONTINUOUS
 10
-119.0730802064
 20
8.7839301779
 11
-119.0055126388
 21
8.8514977455
  0
LINE
  5
37E
100
AcDbEntity
  8
RACCORDO
100
AcDbLine
 62
7
  6
CONTINUOUS
 10
-113.4379450713
 20
14.419065313
 11
-113.5055126388
 21
14.3514977455
  0
LINE
  5
37F
100
AcDbEntity
  8
0
100
AcDbLine
 62
7
  6
CONTINUOUS
 10
-202.0555126388
 20
5.0098310788
 11
-202.5555126388
 21
4.7264977455
  0
LINE
  5
380
100
AcDbEntity
  8
RACCORDO
100
AcDbLine
 62
7
  6
CONTINUOUS
 10
-113.2555126388
 20
75.7264977455
 11
-113.9305126388
 21
75.4764977455
  0
LINE
  5
381
100
AcDbEntity
  8
RACCORDO
100
AcDbLine
 62
7
  6
CONTINUOUS
 10
-119.2555126388
 20
52.4764977455
 11
-118.5805126388
 21
52.7264977455
  0
LINE
  5
382
100
AcDbEntity
  8
ASSI
100
AcDbLine
 62
7
  6
CONTINUOUS
 10
-113.0055126388
 20
77.9764977455
 11
-113.3887126375
 21
77.8411684765
  0
LINE
  5
383
100
AcDbEntity
  8
0
100
AcDbLine
 62
7
  6
CONTINUOUS
 10
-112.5055126388
 20
-103.0985022545
 11
112.4944873612
 21
-103.0985022545
  0
LINE
  5
384
100
AcDbEntity
  8
RACCORDO
100
AcDbLine
 62
7
  6
CONTINUOUS
 10
-112.5055126388
 20
-102.6485022545
 11
-111.2555126388
 21
-102.6485022545
  0
LINE
  5
385
100
AcDbEntity
  8
RACCORDO
100
AcDbLine
 62
7
  6
CONTINUOUS
 10
109.9944873612
 20
-102.6485022545
 11
-110.0055126388
 21
-102.6485022545
  0
LINE
  5
386
100
AcDbEntity
  8
RACCORDO
100
AcDbLine
 62
7
  6
CONTINUOUS
 10
111.2444873612
 20
-102.6485022545
 11
112.4944873612
 21
-102.6485022545
  0
LINE
  5
387
100
AcDbEntity
  8
RACCORDO
100
AcDbLine
 62
7
  6
CONTINUOUS
 10
109.9944873612
 20
-101.8985022545
 11
-110.0055126388
 21
-101.8985022545
  0
LINE
  5
388
100
AcDbEntity
  8
RACCORDO
100
AcDbLine
 62
7
  6
CONTINUOUS
 10
-110.7555126388
 20
-101.6485022545
 11
-110.2055093886
 21
-101.6485022545
  0
LINE
  5
389
100
AcDbEntity
  8
RACCORDO
100
AcDbLine
 62
7
  6
CONTINUOUS
 10
110.1944841109
 20
-101.6485022545
 11
110.7444873612
 21
-101.6485022545
  0
LINE
  5
38A
100
AcDbEntity
  8
RACCORDO
100
AcDbLine
 62
253
  6
CONTINUOUS
 10
110.1944841109
 20
-101.6485022545
 11
-110.2055093886
 21
-101.6485022545
  0
LINE
  5
38B
100
AcDbEntity
  8
0
100
AcDbLine
 62
7
  6
CONTINUOUS
 10
-118.5055126388
 20
-94.3985022545
 11
-114.0055126388
 21
-94.3985022545
  0
LINE
  5
38C
100
AcDbEntity
  8
0
100
AcDbLine
 62
7
  6
CONTINUOUS
 10
113.9944873612
 20
-94.3985022545
 11
118.4944873612
 21
-94.3985022545
  0
LINE
  5
38D
100
AcDbEntity
  8
ASSI
100
AcDbLine
 62
7
  6
CONTINUOUS
 10
-117.1305126388
 20
-90.4485022545
 11
-115.3805126388
 21
-90.4485022545
  0
LINE
  5
38E
100
AcDbEntity
  8
ASSI
100
AcDbLine
 62
7
  6
CONTINUOUS
 10
115.3694873612
 20
-90.4485022545
 11
117.1194873612
 21
-90.4485022545
  0
LINE
  5
38F
100
AcDbEntity
  8
0
100
AcDbLine
 62
7
  6
CONTINUOUS
 10
118.4944873612
 20
-89.8985022545
 11
113.9944873612
 21
-89.8985022545
  0
LINE
  5
390
100
AcDbEntity
  8
0
100
AcDbLine
 62
7
  6
CONTINUOUS
 10
-114.0055126388
 20
-89.8985022545
 11
-118.5055126388
 21
-89.8985022545
  0
LINE
  5
391
100
AcDbEntity
  8
ASSI
100
AcDbLine
 62
7
  6
CONTINUOUS
 10
-119.1223126402
 20
-55.9088315235
 11
-119.5055126388
 21
-55.7735022545
  0
LINE
  5
392
100
AcDbEntity
  8
RACCORDO
100
AcDbLine
 62
7
  6
CONTINUOUS
 10
-113.3887126375
 20
-56.6631729856
 11
-113.0724999369
 21
-56.7748453075
  0
LINE
  5
393
100
AcDbEntity
  8
RACCORDO
100
AcDbLine
 62
7
  6
CONTINUOUS
 10
-119.1223126402
 20
-53.8838315235
 11
-119.4385253407
 21
-53.7721592016
  0
LINE
  5
394
100
AcDbEntity
  8
ASSI
100
AcDbLine
 62
7
  6
CONTINUOUS
 10
-113.3887126375
 20
-54.6381729856
 11
-113.0055126388
 21
-54.7735022545
  0
LINE
  5
395
100
AcDbEntity
  8
RACCORDO
100
AcDbLine
 62
7
  6
CONTINUOUS
 10
-118.5805126388
 20
-58.2735022545
 11
-119.2555126388
 21
-58.0235022545
  0
LINE
  5
396
100
AcDbEntity
  8
0
100
AcDbLine
 62
7
  6
CONTINUOUS
 10
-202.0555126388
 20
-2.7068355879
 11
-202.5555126388
 21
-2.4235022545
  0
LINE
  5
397
100
AcDbEntity
  8
RACCORDO
100
AcDbLine
 62
253
  6
CONTINUOUS
 10
156.4828344389
 20
-252.2093167288
 11
156.5357204745
 21
-252.2519365725
  0
LINE
  5
398
100
AcDbEntity
  8
RACCORDO
100
AcDbLine
 62
7
  6
CONTINUOUS
 10
-113.5055126388
 20
-19.8985022545
 11
-113.4379450713
 21
-19.9660698221
  0
LINE
  5
399
100
AcDbEntity
  8
RACCORDO
100
AcDbLine
 62
7
  6
CONTINUOUS
 10
-119.0055126388
 20
-14.3985022545
 11
-119.0730802064
 21
-14.330934687
  0
LINE
  5
39A
100
AcDbEntity
  8
0
100
AcDbLine
 62
7
  6
CONTINUOUS
 10
-75.0055126388
 20
230.4014977455
 11
-75.0055126388
 21
180.4014977455
  0
LINE
  5
39B
100
AcDbEntity
  8
RACCORDO
100
AcDbLine
 62
7
  6
CONTINUOUS
 10
-119.0730802064
 20
-19.9660698221
 11
-119.0055126388
 21
-19.8985022545
  0
LINE
  5
39C
100
AcDbEntity
  8
RACCORDO
100
AcDbLine
 62
7
  6
CONTINUOUS
 10
-113.4379450713
 20
-14.330934687
 11
-113.5055126388
 21
-14.3985022545
  0
LINE
  5
39D
100
AcDbEntity
  8
0
100
AcDbLine
 62
7
  6
CONTINUOUS
 10
202.5444873612
 20
206.3264977455
 11
202.0444873612
 21
206.0431644121
  0
LINE
  5
39E
100
AcDbEntity
  8
RACCORDO
100
AcDbLine
 62
7
  6
CONTINUOUS
 10
-113.2555126388
 20
46.9764977455
 11
-113.9305126388
 21
46.7264977455
  0
LINE
  5
39F
100
AcDbEntity
  8
ASSI
100
AcDbLine
 62
7
  6
CONTINUOUS
 10
-119.5055126388
 20
50.2264977455
 11
-119.1223126402
 21
50.3618270144
  0
LINE
  5
3A0
100
AcDbEntity
  8
RACCORDO
100
AcDbLine
 62
7
  6
CONTINUOUS
 10
-113.3887126375
 20
51.1161684765
 11
-113.0724999369
 21
51.2278407984
  0
LINE
  5
3A1
100
AcDbEntity
  8
RACCORDO
100
AcDbLine
 62
7
  6
CONTINUOUS
 10
-119.1223126402
 20
48.3368270144
 11
-119.4385253407
 21
48.2251546925
  0
LINE
  5
3A2
100
AcDbEntity
  8
ASSI
100
AcDbLine
 62
7
  6
CONTINUOUS
 10
-113.0055126388
 20
49.2264977455
 11
-113.3887126375
 21
49.0911684765
  0
LINE
  5
3A3
100
AcDbEntity
  8
RACCORDO
100
AcDbLine
 62
7
  6
CONTINUOUS
 10
-118.5805126388
 20
-87.2735022545
 11
-113.9305126388
 21
-87.2735022545
  0
LINE
  5
3A4
100
AcDbEntity
  8
RACCORDO
100
AcDbLine
 62
7
  6
CONTINUOUS
 10
113.9194873612
 20
-87.2735022545
 11
118.5694873612
 21
-87.2735022545
  0
LINE
  5
3A5
100
AcDbEntity
  8
RACCORDO
100
AcDbLine
 62
7
  6
CONTINUOUS
 10
119.4944873612
 20
-86.7735022545
 11
119.2444873612
 21
-86.7735022545
  0
LINE
  5
3A6
100
AcDbEntity
  8
RACCORDO
100
AcDbLine
 62
253
  6
CONTINUOUS
 10
-119.0055126388
 20
-86.7735022545
 11
-113.5055126388
 21
-86.7735022545
  0
LINE
  5
3A7
100
AcDbEntity
  8
RACCORDO
100
AcDbLine
 62
7
  6
CONTINUOUS
 10
113.2444873612
 20
-86.7735022545
 11
112.9944873612
 21
-86.7735022545
  0
LINE
  5
3A8
100
AcDbEntity
  8
RACCORDO
100
AcDbLine
 62
7
  6
CONTINUOUS
 10
-113.0055126388
 20
-86.7735022545
 11
-113.2555126388
 21
-86.7735022545
  0
LINE
  5
3A9
100
AcDbEntity
  8
RACCORDO
100
AcDbLine
 62
253
  6
CONTINUOUS
 10
113.4944873612
 20
-86.7735022545
 11
118.9944873612
 21
-86.7735022545
  0
LINE
  5
3AA
100
AcDbEntity
  8
RACCORDO
100
AcDbLine
 62
7
  6
CONTINUOUS
 10
-119.2555126388
 20
-86.7735022545
 11
-119.5055126388
 21
-86.7735022545
  0
LINE
  5
3AB
100
AcDbEntity
  8
RACCORDO
100
AcDbLine
 62
7
  6
CONTINUOUS
 10
113.0614746593
 20
-85.5485022545
 11
112.9944873612
 21
-85.5485022545
  0
LINE
  5
3AC
100
AcDbEntity
  8
RACCORDO
100
AcDbLine
 62
7
  6
CONTINUOUS
 10
-113.0724999369
 20
-85.5485022545
 11
-113.0055126388
 21
-85.5485022545
  0
LINE
  5
3AD
100
AcDbEntity
  8
RACCORDO
100
AcDbLine
 62
7
  6
CONTINUOUS
 10
119.4275000631
 20
-85.5485022545
 11
119.4944873612
 21
-85.5485022545
  0
LINE
  5
3AE
100
AcDbEntity
  8
RACCORDO
100
AcDbLine
 62
7
  6
CONTINUOUS
 10
-119.4385253407
 20
-85.5485022545
 11
-119.5055126388
 21
-85.5485022545
  0
LINE
  5
3AF
100
AcDbEntity
  8
RACCORDO
100
AcDbLine
 62
7
  6
CONTINUOUS
 10
113.0614746593
 20
-82.4985022545
 11
112.9944873612
 21
-82.4985022545
  0
LINE
  5
3B0
100
AcDbEntity
  8
RACCORDO
100
AcDbLine
 62
7
  6
CONTINUOUS
 10
-113.0724999369
 20
-82.4985022545
 11
-113.0055126388
 21
-82.4985022545
  0
LINE
  5
3B1
100
AcDbEntity
  8
RACCORDO
100
AcDbLine
 62
7
  6
CONTINUOUS
 10
119.4275000631
 20
-82.4985022545
 11
119.4944873612
 21
-82.4985022545
  0
LINE
  5
3B2
100
AcDbEntity
  8
RACCORDO
100
AcDbLine
 62
7
  6
CONTINUOUS
 10
-119.4385253407
 20
-82.4985022545
 11
-119.5055126388
 21
-82.4985022545
  0
LINE
  5
3B3
100
AcDbEntity
  8
RACCORDO
100
AcDbLine
 62
7
  6
CONTINUOUS
 10
-119.5055126388
 20
-81.2735022545
 11
-119.2555126388
 21
-81.2735022545
  0
LINE
  5
3B4
100
AcDbEntity
  8
RACCORDO
100
AcDbLine
 62
253
  6
CONTINUOUS
 10
118.9944873612
 20
-81.2735022545
 11
113.4944873612
 21
-81.2735022545
  0
LINE
  5
3B5
100
AcDbEntity
  8
RACCORDO
100
AcDbLine
 62
7
  6
CONTINUOUS
 10
-113.2555126388
 20
-81.2735022545
 11
-113.0055126388
 21
-81.2735022545
  0
LINE
  5
3B6
100
AcDbEntity
  8
RACCORDO
100
AcDbLine
 62
7
  6
CONTINUOUS
 10
112.9944873612
 20
-81.2735022545
 11
113.2444873612
 21
-81.2735022545
  0
LINE
  5
3B7
100
AcDbEntity
  8
RACCORDO
100
AcDbLine
 62
253
  6
CONTINUOUS
 10
-113.5055126388
 20
-81.2735022545
 11
-119.0055126388
 21
-81.2735022545
  0
LINE
  5
3B8
100
AcDbEntity
  8
RACCORDO
100
AcDbLine
 62
7
  6
CONTINUOUS
 10
119.2444873612
 20
-81.2735022545
 11
119.4944873612
 21
-81.2735022545
  0
LINE
  5
3B9
100
AcDbEntity
  8
RACCORDO
100
AcDbLine
 62
7
  6
CONTINUOUS
 10
118.5694873612
 20
-80.7735022545
 11
113.9194873612
 21
-80.7735022545
  0
LINE
  5
3BA
100
AcDbEntity
  8
RACCORDO
100
AcDbLine
 62
7
  6
CONTINUOUS
 10
-113.9305126388
 20
-80.7735022545
 11
-118.5805126388
 21
-80.7735022545
  0
LINE
  5
3BB
100
AcDbEntity
  8
RACCORDO
100
AcDbLine
 62
7
  6
CONTINUOUS
 10
-113.9305126388
 20
-52.2735022545
 11
-113.2555126388
 21
-52.5235022545
  0
LINE
  5
3BC
100
AcDbEntity
  8
0
100
AcDbLine
 62
7
  6
CONTINUOUS
 10
201.7944873612
 20
-204.0235022545
 11
201.2944873612
 21
-203.7401689212
  0
LINE
  5
3BD
100
AcDbEntity
  8
RACCORDO
100
AcDbLine
 62
7
  6
CONTINUOUS
 10
156.4641968368
 20
-252.1962566424
 11
154.1444695125
 21
-249.9220141676
  0
LINE
  5
3BE
100
AcDbEntity
  8
RACCORDO
100
AcDbLine
 62
7
  6
CONTINUOUS
 10
-113.5055126388
 20
8.8514977455
 11
-113.4379450713
 21
8.7839301779
  0
LINE
  5
3BF
100
AcDbEntity
  8
RACCORDO
100
AcDbLine
 62
7
  6
CONTINUOUS
 10
-119.0055126388
 20
14.3514977455
 11
-119.0730802064
 21
14.419065313
  0
LINE
  5
3C0
100
AcDbEntity
  8
RACCORDO
100
AcDbLine
 62
7
  6
CONTINUOUS
 10
-119.0730802064
 20
-58.0910698221
 11
-119.0055126388
 21
-58.0235022545
  0
LINE
  5
3C1
100
AcDbEntity
  8
RACCORDO
100
AcDbLine
 62
7
  6
CONTINUOUS
 10
-113.4379450713
 20
-52.455934687
 11
-113.5055126388
 21
-52.5235022545
  0
LINE
  5
3C2
100
AcDbEntity
  8
RACCORDO
100
AcDbLine
 62
7
  6
CONTINUOUS
 10
-119.2555126388
 20
14.3514977455
 11
-118.5805126388
 21
14.6014977455
  0
LINE
  5
3C3
100
AcDbEntity
  8
RACCORDO
100
AcDbLine
 62
7
  6
CONTINUOUS
 10
-113.2555126388
 20
8.8514977455
 11
-113.9305126388
 21
8.6014977455
  0
LINE
  5
3C4
100
AcDbEntity
  8
ASSI
100
AcDbLine
 62
7
  6
CONTINUOUS
 10
-119.5055126388
 20
12.1014977455
 11
-119.1223126402
 21
12.2368270144
  0
LINE
  5
3C5
100
AcDbEntity
  8
RACCORDO
100
AcDbLine
 62
7
  6
CONTINUOUS
 10
-113.3887126375
 20
12.9911684765
 11
-113.0724999369
 21
13.1028407984
  0
LINE
  5
3C6
100
AcDbEntity
  8
RACCORDO
100
AcDbLine
 62
7
  6
CONTINUOUS
 10
-119.1223126402
 20
10.2118270144
 11
-119.4385253407
 21
10.1001546925
  0
LINE
  5
3C7
100
AcDbEntity
  8
ASSI
100
AcDbLine
 62
7
  6
CONTINUOUS
 10
-113.0055126388
 20
11.1014977455
 11
-113.3887126375
 21
10.9661684765
  0
LINE
  5
3C8
100
AcDbEntity
  8
RACCORDO
100
AcDbLine
 62
7
  6
CONTINUOUS
 10
-118.5805126388
 20
-58.5235022545
 11
-113.9305126388
 21
-58.5235022545
  0
LINE
  5
3C9
100
AcDbEntity
  8
RACCORDO
100
AcDbLine
 62
7
  6
CONTINUOUS
 10
113.9194873612
 20
-58.5235022545
 11
118.5694873612
 21
-58.5235022545
  0
LINE
  5
3CA
100
AcDbEntity
  8
RACCORDO
100
AcDbLine
 62
7
  6
CONTINUOUS
 10
119.4944873612
 20
-58.0235022545
 11
119.2444873612
 21
-58.0235022545
  0
LINE
  5
3CB
100
AcDbEntity
  8
RACCORDO
100
AcDbLine
 62
253
  6
CONTINUOUS
 10
-119.0055126388
 20
-58.0235022545
 11
-113.5055126388
 21
-58.0235022545
  0
LINE
  5
3CC
100
AcDbEntity
  8
RACCORDO
100
AcDbLine
 62
7
  6
CONTINUOUS
 10
113.2444873612
 20
-58.0235022545
 11
112.9944873612
 21
-58.0235022545
  0
LINE
  5
3CD
100
AcDbEntity
  8
RACCORDO
100
AcDbLine
 62
7
  6
CONTINUOUS
 10
-113.0055126388
 20
-58.0235022545
 11
-113.2555126388
 21
-58.0235022545
  0
LINE
  5
3CE
100
AcDbEntity
  8
RACCORDO
100
AcDbLine
 62
253
  6
CONTINUOUS
 10
113.4944873612
 20
-58.0235022545
 11
118.9944873612
 21
-58.0235022545
  0
LINE
  5
3CF
100
AcDbEntity
  8
RACCORDO
100
AcDbLine
 62
7
  6
CONTINUOUS
 10
-119.2555126388
 20
-58.0235022545
 11
-119.5055126388
 21
-58.0235022545
  0
LINE
  5
3D0
100
AcDbEntity
  8
RACCORDO
100
AcDbLine
 62
7
  6
CONTINUOUS
 10
113.0614746593
 20
-56.7985022545
 11
112.9944873612
 21
-56.7985022545
  0
LINE
  5
3D1
100
AcDbEntity
  8
RACCORDO
100
AcDbLine
 62
7
  6
CONTINUOUS
 10
-113.0724999369
 20
-56.7985022545
 11
-113.0055126388
 21
-56.7985022545
  0
LINE
  5
3D2
100
AcDbEntity
  8
RACCORDO
100
AcDbLine
 62
7
  6
CONTINUOUS
 10
119.4275000631
 20
-56.7985022545
 11
119.4944873612
 21
-56.7985022545
  0
LINE
  5
3D3
100
AcDbEntity
  8
RACCORDO
100
AcDbLine
 62
7
  6
CONTINUOUS
 10
-119.4385253407
 20
-56.7985022545
 11
-119.5055126388
 21
-56.7985022545
  0
LINE
  5
3D4
100
AcDbEntity
  8
RACCORDO
100
AcDbLine
 62
7
  6
CONTINUOUS
 10
113.0614746593
 20
-53.7485022545
 11
112.9944873612
 21
-53.7485022545
  0
LINE
  5
3D5
100
AcDbEntity
  8
RACCORDO
100
AcDbLine
 62
7
  6
CONTINUOUS
 10
-113.0724999369
 20
-53.7485022545
 11
-113.0055126388
 21
-53.7485022545
  0
LINE
  5
3D6
100
AcDbEntity
  8
RACCORDO
100
AcDbLine
 62
7
  6
CONTINUOUS
 10
119.4275000631
 20
-53.7485022545
 11
119.4944873612
 21
-53.7485022545
  0
LINE
  5
3D7
100
AcDbEntity
  8
RACCORDO
100
AcDbLine
 62
7
  6
CONTINUOUS
 10
-119.4385253407
 20
-53.7485022545
 11
-119.5055126388
 21
-53.7485022545
  0
LINE
  5
3D8
100
AcDbEntity
  8
RACCORDO
100
AcDbLine
 62
7
  6
CONTINUOUS
 10
-119.5055126388
 20
-52.5235022545
 11
-119.2555126388
 21
-52.5235022545
  0
LINE
  5
3D9
100
AcDbEntity
  8
RACCORDO
100
AcDbLine
 62
253
  6
CONTINUOUS
 10
118.9944873612
 20
-52.5235022545
 11
113.4944873612
 21
-52.5235022545
  0
LINE
  5
3DA
100
AcDbEntity
  8
RACCORDO
100
AcDbLine
 62
7
  6
CONTINUOUS
 10
-113.2555126388
 20
-52.5235022545
 11
-113.0055126388
 21
-52.5235022545
  0
LINE
  5
3DB
100
AcDbEntity
  8
RACCORDO
100
AcDbLine
 62
7
  6
CONTINUOUS
 10
112.9944873612
 20
-52.5235022545
 11
113.2444873612
 21
-52.5235022545
  0
LINE
  5
3DC
100
AcDbEntity
  8
RACCORDO
100
AcDbLine
 62
253
  6
CONTINUOUS
 10
-113.5055126388
 20
-52.5235022545
 11
-119.0055126388
 21
-52.5235022545
  0
LINE
  5
3DD
100
AcDbEntity
  8
RACCORDO
100
AcDbLine
 62
7
  6
CONTINUOUS
 10
119.2444873612
 20
-52.5235022545
 11
119.4944873612
 21
-52.5235022545
  0
LINE
  5
3DE
100
AcDbEntity
  8
RACCORDO
100
AcDbLine
 62
7
  6
CONTINUOUS
 10
118.5694873612
 20
-52.0235022545
 11
113.9194873612
 21
-52.0235022545
  0
LINE
  5
3DF
100
AcDbEntity
  8
RACCORDO
100
AcDbLine
 62
7
  6
CONTINUOUS
 10
-113.9305126388
 20
-52.0235022545
 11
-118.5805126388
 21
-52.0235022545
  0
LINE
  5
3E0
100
AcDbEntity
  8
0
100
AcDbLine
 62
7
  6
CONTINUOUS
 10
-118.5055126388
 20
-49.3985022545
 11
-114.0055126388
 21
-49.3985022545
  0
LINE
  5
3E1
100
AcDbEntity
  8
0
100
AcDbLine
 62
7
  6
CONTINUOUS
 10
113.9944873612
 20
-49.3985022545
 11
118.4944873612
 21
-49.3985022545
  0
LINE
  5
3E2
100
AcDbEntity
  8
ASSI
100
AcDbLine
 62
7
  6
CONTINUOUS
 10
117.1194873612
 20
-48.8485022545
 11
115.3694873612
 21
-48.8485022545
  0
LINE
  5
3E3
100
AcDbEntity
  8
ASSI
100
AcDbLine
 62
7
  6
CONTINUOUS
 10
-115.3805126388
 20
-48.8485022545
 11
-117.1305126388
 21
-48.8485022545
  0
LINE
  5
3E4
100
AcDbEntity
  8
0
100
AcDbLine
 62
7
  6
CONTINUOUS
 10
118.4944873612
 20
-44.8985022545
 11
113.9944873612
 21
-44.8985022545
  0
LINE
  5
3E5
100
AcDbEntity
  8
0
100
AcDbLine
 62
7
  6
CONTINUOUS
 10
-114.0055126388
 20
-44.8985022545
 11
-118.5055126388
 21
-44.8985022545
  0
LINE
  5
3E6
100
AcDbEntity
  8
ASSI
100
AcDbLine
 62
7
  6
CONTINUOUS
 10
-119.1223126402
 20
-17.7838315235
 11
-119.5055126388
 21
-17.6485022545
  0
LINE
  5
3E7
100
AcDbEntity
  8
RACCORDO
100
AcDbLine
 62
7
  6
CONTINUOUS
 10
-113.3887126375
 20
-18.5381729856
 11
-113.0724999369
 21
-18.6498453075
  0
LINE
  5
3E8
100
AcDbEntity
  8
RACCORDO
100
AcDbLine
 62
7
  6
CONTINUOUS
 10
-119.1223126402
 20
-15.7588315235
 11
-119.4385253407
 21
-15.6471592016
  0
LINE
  5
3E9
100
AcDbEntity
  8
ASSI
100
AcDbLine
 62
7
  6
CONTINUOUS
 10
-113.3887126375
 20
-16.5131729856
 11
-113.0055126388
 21
-16.6485022545
  0
LINE
  5
3EA
100
AcDbEntity
  8
RACCORDO
100
AcDbLine
 62
7
  6
CONTINUOUS
 10
-118.5805126388
 20
-20.1485022545
 11
-119.2555126388
 21
-19.8985022545
  0
LINE
  5
3EB
100
AcDbEntity
  8
RACCORDO
100
AcDbLine
 62
7
  6
CONTINUOUS
 10
-113.9305126388
 20
-14.1485022545
 11
-113.2555126388
 21
-14.3985022545
  0
LINE
  5
3EC
100
AcDbEntity
  8
RACCORDO
100
AcDbLine
 62
7
  6
CONTINUOUS
 10
-113.5055126388
 20
46.9764977455
 11
-113.4379450713
 21
46.9089301779
  0
LINE
  5
3ED
100
AcDbEntity
  8
RACCORDO
100
AcDbLine
 62
7
  6
CONTINUOUS
 10
-119.0055126388
 20
52.4764977455
 11
-119.0730802064
 21
52.544065313
  0
LINE
  5
3EE
100
AcDbEntity
  8
RACCORDO
100
AcDbLine
 62
7
  6
CONTINUOUS
 10
-119.0730802064
 20
-86.8410698221
 11
-119.0055126388
 21
-86.7735022545
  0
LINE
  5
3EF
100
AcDbEntity
  8
RACCORDO
100
AcDbLine
 62
7
  6
CONTINUOUS
 10
-113.4379450713
 20
-81.205934687
 11
-113.5055126388
 21
-81.2735022545
  0
LINE
  5
3F0
100
AcDbEntity
  8
0
100
AcDbLine
 62
7
  6
CONTINUOUS
 10
205.5444873612
 20
211.6514977455
 11
204.5444873612
 21
210.8014977455
  0
LINE
  5
3F1
100
AcDbEntity
  8
RACCORDO
100
AcDbLine
 62
7
  6
CONTINUOUS
 10
113.2444873612
 20
80.7264977455
 11
113.9194873612
 21
80.9764977455
  0
LINE
  5
3F2
100
AcDbEntity
  8
RACCORDO
100
AcDbLine
 62
7
  6
CONTINUOUS
 10
119.2444873612
 20
75.2264977455
 11
118.5694873612
 21
74.9764977455
  0
LINE
  5
3F3
100
AcDbEntity
  8
RACCORDO
100
AcDbLine
 62
7
  6
CONTINUOUS
 10
-119.2555126388
 20
-14.3985022545
 11
-118.5805126388
 21
-14.1485022545
  0
LINE
  5
3F4
100
AcDbEntity
  8
RACCORDO
100
AcDbLine
 62
7
  6
CONTINUOUS
 10
-113.2555126388
 20
-19.8985022545
 11
-113.9305126388
 21
-20.1485022545
  0
LINE
  5
3F5
100
AcDbEntity
  8
ASSI
100
AcDbLine
 62
7
  6
CONTINUOUS
 10
112.9944873612
 20
78.4764977455
 11
113.3776873598
 21
78.6118270144
  0
LINE
  5
3F6
100
AcDbEntity
  8
RACCORDO
100
AcDbLine
 62
7
  6
CONTINUOUS
 10
119.1112873625
 20
79.3661684765
 11
119.4275000631
 21
79.4778407984
  0
LINE
  5
3F7
100
AcDbEntity
  8
RACCORDO
100
AcDbLine
 62
7
  6
CONTINUOUS
 10
113.3776873598
 20
76.5868270144
 11
113.0614746593
 21
76.4751546925
  0
LINE
  5
3F8
100
AcDbEntity
  8
ASSI
100
AcDbLine
 62
7
  6
CONTINUOUS
 10
119.4944873612
 20
77.4764977455
 11
119.1112873625
 21
77.3411684765
  0
LINE
  5
3F9
100
AcDbEntity
  8
ASSI
100
AcDbLine
 62
7
  6
CONTINUOUS
 10
-119.5055126388
 20
-16.6485022545
 11
-119.1223126402
 21
-16.5131729856
  0
LINE
  5
3FA
100
AcDbEntity
  8
RACCORDO
100
AcDbLine
 62
7
  6
CONTINUOUS
 10
-113.3887126375
 20
-15.7588315235
 11
-113.0724999369
 21
-15.6471592016
  0
LINE
  5
3FB
100
AcDbEntity
  8
RACCORDO
100
AcDbLine
 62
7
  6
CONTINUOUS
 10
-119.1223126402
 20
-18.5381729856
 11
-119.4385253407
 21
-18.6498453075
  0
LINE
  5
3FC
100
AcDbEntity
  8
ASSI
100
AcDbLine
 62
7
  6
CONTINUOUS
 10
-113.0055126388
 20
-17.6485022545
 11
-113.3887126375
 21
-17.7838315235
  0
LINE
  5
3FD
100
AcDbEntity
  8
RACCORDO
100
AcDbLine
 62
7
  6
CONTINUOUS
 10
110.7444873612
 20
-37.6485022545
 11
110.1944841109
 21
-37.6485022545
  0
LINE
  5
3FE
100
AcDbEntity
  8
RACCORDO
100
AcDbLine
 62
253
  6
CONTINUOUS
 10
-110.2055093886
 20
-37.6485022545
 11
110.1944841109
 21
-37.6485022545
  0
LINE
  5
3FF
100
AcDbEntity
  8
RACCORDO
100
AcDbLine
 62
7
  6
CONTINUOUS
 10
-110.2055093886
 20
-37.6485022545
 11
-110.7555126388
 21
-37.6485022545
  0
LINE
  5
400
100
AcDbEntity
  8
RACCORDO
100
AcDbLine
 62
7
  6
CONTINUOUS
 10
109.9944873612
 20
-37.3985022545
 11
-110.0055126388
 21
-37.3985022545
  0
LINE
  5
401
100
AcDbEntity
  8
RACCORDO
100
AcDbLine
 62
7
  6
CONTINUOUS
 10
112.4944873612
 20
-36.6485022545
 11
111.2444873612
 21
-36.6485022545
  0
LINE
  5
402
100
AcDbEntity
  8
RACCORDO
100
AcDbLine
 62
7
  6
CONTINUOUS
 10
-110.0055126388
 20
-36.6485022545
 11
109.9944873612
 21
-36.6485022545
  0
LINE
  5
403
100
AcDbEntity
  8
RACCORDO
100
AcDbLine
 62
7
  6
CONTINUOUS
 10
-111.2555126388
 20
-36.6485022545
 11
-112.5055126388
 21
-36.6485022545
  0
LINE
  5
404
100
AcDbEntity
  8
RACCORDO
100
AcDbLine
 62
7
  6
CONTINUOUS
 10
-112.5055126388
 20
-35.7735022545
 11
-111.2555126388
 21
-35.7735022545
  0
LINE
  5
405
100
AcDbEntity
  8
RACCORDO
100
AcDbLine
 62
7
  6
CONTINUOUS
 10
109.9944873612
 20
-35.7735022545
 11
-110.0055126388
 21
-35.7735022545
  0
LINE
  5
406
100
AcDbEntity
  8
RACCORDO
100
AcDbLine
 62
7
  6
CONTINUOUS
 10
111.2444873612
 20
-35.7735022545
 11
112.4944873612
 21
-35.7735022545
  0
LINE
  5
407
100
AcDbEntity
  8
RACCORDO
100
AcDbLine
 62
7
  6
CONTINUOUS
 10
109.9944873612
 20
-35.0235022545
 11
-110.0055126388
 21
-35.0235022545
  0
LINE
  5
408
100
AcDbEntity
  8
RACCORDO
100
AcDbLine
 62
7
  6
CONTINUOUS
 10
-110.7555126388
 20
-34.7735022545
 11
-110.2055093886
 21
-34.7735022545
  0
LINE
  5
409
100
AcDbEntity
  8
RACCORDO
100
AcDbLine
 62
7
  6
CONTINUOUS
 10
110.1944841109
 20
-34.7735022545
 11
110.7444873612
 21
-34.7735022545
  0
LINE
  5
40A
100
AcDbEntity
  8
RACCORDO
100
AcDbLine
 62
253
  6
CONTINUOUS
 10
110.1944841109
 20
-34.7735022545
 11
-110.2055093886
 21
-34.7735022545
  0
LINE
  5
40B
100
AcDbEntity
  8
0
100
AcDbLine
 62
7
  6
CONTINUOUS
 10
-118.5055126388
 20
-27.5235022545
 11
-114.0055126388
 21
-27.5235022545
  0
LINE
  5
40C
100
AcDbEntity
  8
0
100
AcDbLine
 62
7
  6
CONTINUOUS
 10
113.9944873612
 20
-27.5235022545
 11
118.4944873612
 21
-27.5235022545
  0
LINE
  5
40D
100
AcDbEntity
  8
ASSI
100
AcDbLine
 62
7
  6
CONTINUOUS
 10
-117.1305126388
 20
-23.5735022545
 11
-115.3805126388
 21
-23.5735022545
  0
LINE
  5
40E
100
AcDbEntity
  8
ASSI
100
AcDbLine
 62
7
  6
CONTINUOUS
 10
115.3694873612
 20
-23.5735022545
 11
117.1194873612
 21
-23.5735022545
  0
LINE
  5
40F
100
AcDbEntity
  8
0
100
AcDbLine
 62
7
  6
CONTINUOUS
 10
118.4944873612
 20
-23.0235022545
 11
113.9944873612
 21
-23.0235022545
  0
LINE
  5
410
100
AcDbEntity
  8
0
100
AcDbLine
 62
7
  6
CONTINUOUS
 10
-114.0055126388
 20
-23.0235022545
 11
-118.5055126388
 21
-23.0235022545
  0
LINE
  5
411
100
AcDbEntity
  8
RACCORDO
100
AcDbLine
 62
7
  6
CONTINUOUS
 10
-118.5805126388
 20
-20.3985022545
 11
-113.9305126388
 21
-20.3985022545
  0
LINE
  5
412
100
AcDbEntity
  8
RACCORDO
100
AcDbLine
 62
7
  6
CONTINUOUS
 10
113.9194873612
 20
-20.3985022545
 11
118.5694873612
 21
-20.3985022545
  0
LINE
  5
413
100
AcDbEntity
  8
RACCORDO
100
AcDbLine
 62
7
  6
CONTINUOUS
 10
119.4944873612
 20
-19.8985022545
 11
119.2444873612
 21
-19.8985022545
  0
LINE
  5
414
100
AcDbEntity
  8
RACCORDO
100
AcDbLine
 62
253
  6
CONTINUOUS
 10
-119.0055126388
 20
-19.8985022545
 11
-113.5055126388
 21
-19.8985022545
  0
LINE
  5
415
100
AcDbEntity
  8
RACCORDO
100
AcDbLine
 62
7
  6
CONTINUOUS
 10
113.2444873612
 20
-19.8985022545
 11
112.9944873612
 21
-19.8985022545
  0
LINE
  5
416
100
AcDbEntity
  8
RACCORDO
100
AcDbLine
 62
7
  6
CONTINUOUS
 10
-113.0055126388
 20
-19.8985022545
 11
-113.2555126388
 21
-19.8985022545
  0
LINE
  5
417
100
AcDbEntity
  8
RACCORDO
100
AcDbLine
 62
253
  6
CONTINUOUS
 10
113.4944873612
 20
-19.8985022545
 11
118.9944873612
 21
-19.8985022545
  0
LINE
  5
418
100
AcDbEntity
  8
RACCORDO
100
AcDbLine
 62
7
  6
CONTINUOUS
 10
-119.2555126388
 20
-19.8985022545
 11
-119.5055126388
 21
-19.8985022545
  0
LINE
  5
419
100
AcDbEntity
  8
ASSI
100
AcDbLine
 62
7
  6
CONTINUOUS
 10
113.3776873598
 20
-84.6588315235
 11
112.9944873612
 21
-84.5235022545
  0
LINE
  5
41A
100
AcDbEntity
  8
RACCORDO
100
AcDbLine
 62
7
  6
CONTINUOUS
 10
119.1112873625
 20
-85.4131729856
 11
119.4275000631
 21
-85.5248453075
  0
LINE
  5
41B
100
AcDbEntity
  8
RACCORDO
100
AcDbLine
 62
7
  6
CONTINUOUS
 10
113.3776873598
 20
-82.6338315235
 11
113.0614746593
 21
-82.5221592016
  0
LINE
  5
41C
100
AcDbEntity
  8
ASSI
100
AcDbLine
 62
7
  6
CONTINUOUS
 10
119.1112873625
 20
-83.3881729856
 11
119.4944873612
 21
-83.5235022545
  0
LINE
  5
41D
100
AcDbEntity
  8
ASSI
100
AcDbLine
 62
7
  6
CONTINUOUS
 10
-119.1223126402
 20
10.9661684765
 11
-119.5055126388
 21
11.1014977455
  0
LINE
  5
41E
100
AcDbEntity
  8
RACCORDO
100
AcDbLine
 62
7
  6
CONTINUOUS
 10
-113.3887126375
 20
10.2118270144
 11
-113.0724999369
 21
10.1001546925
  0
LINE
  5
41F
100
AcDbEntity
  8
RACCORDO
100
AcDbLine
 62
7
  6
CONTINUOUS
 10
-119.1223126402
 20
12.9911684765
 11
-119.4385253407
 21
13.1028407984
  0
LINE
  5
420
100
AcDbEntity
  8
ASSI
100
AcDbLine
 62
7
  6
CONTINUOUS
 10
-113.3887126375
 20
12.2368270144
 11
-113.0055126388
 21
12.1014977455
  0
LINE
  5
421
100
AcDbEntity
  8
RACCORDO
100
AcDbLine
 62
7
  6
CONTINUOUS
 10
113.9194873612
 20
-87.0235022545
 11
113.2444873612
 21
-86.7735022545
  0
LINE
  5
422
100
AcDbEntity
  8
RACCORDO
100
AcDbLine
 62
7
  6
CONTINUOUS
 10
118.5694873612
 20
-81.0235022545
 11
119.2444873612
 21
-81.2735022545
  0
LINE
  5
423
100
AcDbEntity
  8
RACCORDO
100
AcDbLine
 62
7
  6
CONTINUOUS
 10
-118.5805126388
 20
8.6014977455
 11
-119.2555126388
 21
8.8514977455
  0
LINE
  5
424
100
AcDbEntity
  8
RACCORDO
100
AcDbLine
 62
7
  6
CONTINUOUS
 10
-113.9305126388
 20
14.6014977455
 11
-113.2555126388
 21
14.3514977455
  0
LINE
  5
425
100
AcDbEntity
  8
0
100
AcDbLine
 62
7
  6
CONTINUOUS
 10
204.7944873612
 20
-209.3485022545
 11
203.7944873612
 21
-208.4985022545
  0
LINE
  5
426
100
AcDbEntity
  8
RACCORDO
100
AcDbLine
 62
7
  6
CONTINUOUS
 10
-113.5055126388
 20
75.7264977455
 11
-113.4379450713
 21
75.6589301779
  0
LINE
  5
427
100
AcDbEntity
  8
RACCORDO
100
AcDbLine
 62
7
  6
CONTINUOUS
 10
-119.0055126388
 20
81.2264977455
 11
-119.0730802064
 21
81.294065313
  0
LINE
  5
428
100
AcDbEntity
  8
0
100
AcDbLine
 62
7
  6
CONTINUOUS
 10
183.4944873612
 20
208.4014977455
 11
183.7444873612
 21
208.6514977455
  0
LINE
  5
429
100
AcDbEntity
  8
0
100
AcDbLine
 62
7
  6
CONTINUOUS
 10
-214.3555126388
 20
-207.5985022545
 11
-212.693811703
 21
-205.9368013187
  0
LINE
  5
42A
100
AcDbEntity
  8
0
100
AcDbLine
 62
7
  6
CONTINUOUS
 10
209.0694873612
 20
215.2264977455
 11
206.5444873612
 21
212.7014977455
  0
LINE
  5
42B
100
AcDbEntity
  8
0
100
AcDbLine
 62
7
  6
CONTINUOUS
 10
-211.0321107673
 20
-207.5985022545
 11
-212.693811703
 21
-209.2602031903
  0
LINE
  5
42C
100
AcDbEntity
  8
0
100
AcDbLine
 62
7
  6
CONTINUOUS
 10
211.0210854896
 20
209.9014977455
 11
212.6827864254
 21
211.5631986813
  0
LINE
  5
42D
100
AcDbEntity
  8
0
100
AcDbLine
 62
7
  6
CONTINUOUS
 10
-209.0805126388
 20
-212.9235022545
 11
-206.5555126388
 21
-210.3985022545
  0
LINE
  5
42E
100
AcDbEntity
  8
0
100
AcDbLine
 62
7
  6
CONTINUOUS
 10
202.0444873612
 20
205.1514977455
 11
201.2444873612
 21
204.4014977455
  0
LINE
  5
42F
100
AcDbEntity
  8
0
100
AcDbLine
 62
7
  6
CONTINUOUS
 10
212.8194873612
 20
204.5764977455
 11
215.0944873612
 21
206.6514977455
  0
LINE
  5
430
100
AcDbEntity
  8
RACCORDO
100
AcDbLine
 62
7
  6
CONTINUOUS
 10
113.2444873612
 20
52.4764977455
 11
113.9194873612
 21
52.7264977455
  0
LINE
  5
431
100
AcDbEntity
  8
RACCORDO
100
AcDbLine
 62
7
  6
CONTINUOUS
 10
119.2444873612
 20
46.9764977455
 11
118.5694873612
 21
46.7264977455
  0
LINE
  5
432
100
AcDbEntity
  8
ASSI
100
AcDbLine
 62
7
  6
CONTINUOUS
 10
112.9944873612
 20
50.2264977455
 11
113.3776873598
 21
50.3618270144
  0
LINE
  5
433
100
AcDbEntity
  8
RACCORDO
100
AcDbLine
 62
7
  6
CONTINUOUS
 10
119.1112873625
 20
51.1161684765
 11
119.4275000631
 21
51.2278407984
  0
LINE
  5
434
100
AcDbEntity
  8
RACCORDO
100
AcDbLine
 62
7
  6
CONTINUOUS
 10
113.3776873598
 20
48.3368270144
 11
113.0614746593
 21
48.2251546925
  0
LINE
  5
435
100
AcDbEntity
  8
ASSI
100
AcDbLine
 62
7
  6
CONTINUOUS
 10
119.4944873612
 20
49.2264977455
 11
119.1112873625
 21
49.0911684765
  0
LINE
  5
436
100
AcDbEntity
  8
RACCORDO
100
AcDbLine
 62
7
  6
CONTINUOUS
 10
113.0614746593
 20
-18.6735022545
 11
112.9944873612
 21
-18.6735022545
  0
LINE
  5
437
100
AcDbEntity
  8
RACCORDO
100
AcDbLine
 62
7
  6
CONTINUOUS
 10
-113.0724999369
 20
-18.6735022545
 11
-113.0055126388
 21
-18.6735022545
  0
LINE
  5
438
100
AcDbEntity
  8
RACCORDO
100
AcDbLine
 62
7
  6
CONTINUOUS
 10
119.4275000631
 20
-18.6735022545
 11
119.4944873612
 21
-18.6735022545
  0
LINE
  5
439
100
AcDbEntity
  8
RACCORDO
100
AcDbLine
 62
7
  6
CONTINUOUS
 10
-119.4385253407
 20
-18.6735022545
 11
-119.5055126388
 21
-18.6735022545
  0
LINE
  5
43A
100
AcDbEntity
  8
RACCORDO
100
AcDbLine
 62
7
  6
CONTINUOUS
 10
113.0614746593
 20
-15.6235022545
 11
112.9944873612
 21
-15.6235022545
  0
LINE
  5
43B
100
AcDbEntity
  8
RACCORDO
100
AcDbLine
 62
7
  6
CONTINUOUS
 10
-113.0724999369
 20
-15.6235022545
 11
-113.0055126388
 21
-15.6235022545
  0
LINE
  5
43C
100
AcDbEntity
  8
RACCORDO
100
AcDbLine
 62
7
  6
CONTINUOUS
 10
119.4275000631
 20
-15.6235022545
 11
119.4944873612
 21
-15.6235022545
  0
LINE
  5
43D
100
AcDbEntity
  8
RACCORDO
100
AcDbLine
 62
7
  6
CONTINUOUS
 10
-119.4385253407
 20
-15.6235022545
 11
-119.5055126388
 21
-15.6235022545
  0
LINE
  5
43E
100
AcDbEntity
  8
RACCORDO
100
AcDbLine
 62
7
  6
CONTINUOUS
 10
-119.5055126388
 20
-14.3985022545
 11
-119.2555126388
 21
-14.3985022545
  0
LINE
  5
43F
100
AcDbEntity
  8
RACCORDO
100
AcDbLine
 62
253
  6
CONTINUOUS
 10
118.9944873612
 20
-14.3985022545
 11
113.4944873612
 21
-14.3985022545
  0
LINE
  5
440
100
AcDbEntity
  8
RACCORDO
100
AcDbLine
 62
7
  6
CONTINUOUS
 10
-113.2555126388
 20
-14.3985022545
 11
-113.0055126388
 21
-14.3985022545
  0
LINE
  5
441
100
AcDbEntity
  8
RACCORDO
100
AcDbLine
 62
7
  6
CONTINUOUS
 10
112.9944873612
 20
-14.3985022545
 11
113.2444873612
 21
-14.3985022545
  0
LINE
  5
442
100
AcDbEntity
  8
RACCORDO
100
AcDbLine
 62
253
  6
CONTINUOUS
 10
-113.5055126388
 20
-14.3985022545
 11
-119.0055126388
 21
-14.3985022545
  0
LINE
  5
443
100
AcDbEntity
  8
RACCORDO
100
AcDbLine
 62
7
  6
CONTINUOUS
 10
119.2444873612
 20
-14.3985022545
 11
119.4944873612
 21
-14.3985022545
  0
LINE
  5
444
100
AcDbEntity
  8
RACCORDO
100
AcDbLine
 62
7
  6
CONTINUOUS
 10
118.5694873612
 20
-13.8985022545
 11
113.9194873612
 21
-13.8985022545
  0
LINE
  5
445
100
AcDbEntity
  8
RACCORDO
100
AcDbLine
 62
7
  6
CONTINUOUS
 10
-113.9305126388
 20
-13.8985022545
 11
-118.5805126388
 21
-13.8985022545
  0
LINE
  5
446
100
AcDbEntity
  8
0
100
AcDbLine
 62
7
  6
CONTINUOUS
 10
199.9944873612
 20
-4.3485022545
 11
201.2444873612
 21
-4.3485022545
  0
LINE
  5
447
100
AcDbEntity
  8
0
100
AcDbLine
 62
7
  6
CONTINUOUS
 10
-200.0055126388
 20
-4.3485022545
 11
-201.2555126388
 21
-4.3485022545
  0
LINE
  5
448
100
AcDbEntity
  8
0
100
AcDbLine
 62
7
  6
CONTINUOUS
 10
202.5444873612
 20
0.6514977455
 11
215.9444873612
 21
0.6514977455
  0
LINE
  5
449
100
AcDbEntity
  8
0
100
AcDbLine
 62
7
  6
CONTINUOUS
 10
-202.5555126388
 20
0.6514977455
 11
-215.9555126388
 21
0.6514977455
  0
LINE
  5
44A
100
AcDbEntity
  8
0
100
AcDbLine
 62
7
  6
CONTINUOUS
 10
202.5444873612
 20
1.6514977455
 11
215.9444873612
 21
1.6514977455
  0
LINE
  5
44B
100
AcDbEntity
  8
0
100
AcDbLine
 62
7
  6
CONTINUOUS
 10
-202.5555126388
 20
1.6514977455
 11
-215.9555126388
 21
1.6514977455
  0
LINE
  5
44C
100
AcDbEntity
  8
ASSI
100
AcDbLine
 62
7
  6
CONTINUOUS
 10
113.3776873598
 20
-55.9088315235
 11
112.9944873612
 21
-55.7735022545
  0
LINE
  5
44D
100
AcDbEntity
  8
RACCORDO
100
AcDbLine
 62
7
  6
CONTINUOUS
 10
119.1112873625
 20
-56.6631729856
 11
119.4275000631
 21
-56.7748453075
  0
LINE
  5
44E
100
AcDbEntity
  8
RACCORDO
100
AcDbLine
 62
7
  6
CONTINUOUS
 10
113.3776873598
 20
-53.8838315235
 11
113.0614746593
 21
-53.7721592016
  0
LINE
  5
44F
100
AcDbEntity
  8
ASSI
100
AcDbLine
 62
7
  6
CONTINUOUS
 10
119.1112873625
 20
-54.6381729856
 11
119.4944873612
 21
-54.7735022545
  0
LINE
  5
450
100
AcDbEntity
  8
RACCORDO
100
AcDbLine
 62
7
  6
CONTINUOUS
 10
113.9194873612
 20
-58.2735022545
 11
113.2444873612
 21
-58.0235022545
  0
LINE
  5
451
100
AcDbEntity
  8
RACCORDO
100
AcDbLine
 62
7
  6
CONTINUOUS
 10
118.5694873612
 20
-52.2735022545
 11
119.2444873612
 21
-52.5235022545
  0
LINE
  5
452
100
AcDbEntity
  8
RACCORDO
100
AcDbLine
 62
7
  6
CONTINUOUS
 10
-118.5805126388
 20
46.7264977455
 11
-119.2555126388
 21
46.9764977455
  0
LINE
  5
453
100
AcDbEntity
  8
0
100
AcDbLine
 62
7
  6
CONTINUOUS
 10
212.0694873612
 20
-202.2735022545
 11
214.3444873612
 21
-204.3485022545
  0
LINE
  5
454
100
AcDbEntity
  8
0
100
AcDbLine
 62
7
  6
CONTINUOUS
 10
201.2944873612
 20
-202.8485022545
 11
200.4944873612
 21
-202.0985022545
  0
LINE
  5
455
100
AcDbEntity
  8
0
100
AcDbLine
 62
7
  6
CONTINUOUS
 10
183.4944873612
 20
-206.0985022545
 11
183.7444873612
 21
-206.3485022545
  0
LINE
  5
456
100
AcDbEntity
  8
0
100
AcDbLine
 62
7
  6
CONTINUOUS
 10
208.3194873612
 20
-212.9235022545
 11
205.7944873612
 21
-210.3985022545
  0
LINE
  5
457
100
AcDbEntity
  8
0
100
AcDbLine
 62
7
  6
CONTINUOUS
 10
-213.6055126388
 20
209.9014977455
 11
-211.943811703
 21
208.2397968097
  0
LINE
  5
458
100
AcDbEntity
  8
0
100
AcDbLine
 62
7
  6
CONTINUOUS
 10
-210.2821107673
 20
209.9014977455
 11
-211.943811703
 21
211.5631986813
  0
LINE
  5
459
100
AcDbEntity
  8
0
100
AcDbLine
 62
7
  6
CONTINUOUS
 10
210.2710854896
 20
-207.5985022545
 11
211.9327864254
 21
-209.2602031903
  0
LINE
  5
45A
100
AcDbEntity
  8
0
100
AcDbLine
 62
7
  6
CONTINUOUS
 10
-159.1221793055
 20
253.8014977455
 11
-159.4055126388
 21
254.3014977455
  0
LINE
  5
45B
100
AcDbEntity
  8
0
100
AcDbLine
 62
7
  6
CONTINUOUS
 10
214.3444873612
 20
209.9014977455
 11
212.6827864254
 21
208.2397968097
  0
LINE
  5
45C
100
AcDbEntity
  8
0
100
AcDbLine
 62
7
  6
CONTINUOUS
 10
-183.5055126388
 20
-206.0985022545
 11
-183.7555126388
 21
-206.3485022545
  0
LINE
  5
45D
100
AcDbEntity
  8
0
100
AcDbLine
 62
7
  6
CONTINUOUS
 10
-202.0555126388
 20
-202.8485022545
 11
-201.2555126388
 21
-202.0985022545
  0
LINE
  5
45E
100
AcDbEntity
  8
0
100
AcDbLine
 62
7
  6
CONTINUOUS
 10
-212.8305126388
 20
-202.2735022545
 11
-215.1055126388
 21
-204.3485022545
  0
LINE
  5
45F
100
AcDbEntity
  8
RACCORDO
100
AcDbLine
 62
7
  6
CONTINUOUS
 10
-119.2555126388
 20
-52.5235022545
 11
-118.5805126388
 21
-52.2735022545
  0
LINE
  5
460
100
AcDbEntity
  8
RACCORDO
100
AcDbLine
 62
7
  6
CONTINUOUS
 10
-113.2555126388
 20
-58.0235022545
 11
-113.9305126388
 21
-58.2735022545
  0
LINE
  5
461
100
AcDbEntity
  8
RACCORDO
100
AcDbLine
 62
7
  6
CONTINUOUS
 10
113.2444873612
 20
14.3514977455
 11
113.9194873612
 21
14.6014977455
  0
LINE
  5
462
100
AcDbEntity
  8
ASSI
100
AcDbLine
 62
7
  6
CONTINUOUS
 10
-119.5055126388
 20
-54.7735022545
 11
-119.1223126402
 21
-54.6381729856
  0
LINE
  5
463
100
AcDbEntity
  8
RACCORDO
100
AcDbLine
 62
7
  6
CONTINUOUS
 10
-113.3887126375
 20
-53.8838315235
 11
-113.0724999369
 21
-53.7721592016
  0
LINE
  5
464
100
AcDbEntity
  8
RACCORDO
100
AcDbLine
 62
7
  6
CONTINUOUS
 10
-119.1223126402
 20
-56.6631729856
 11
-119.4385253407
 21
-56.7748453075
  0
LINE
  5
465
100
AcDbEntity
  8
ASSI
100
AcDbLine
 62
7
  6
CONTINUOUS
 10
-113.0055126388
 20
-55.7735022545
 11
-113.3887126375
 21
-55.9088315235
  0
LINE
  5
466
100
AcDbEntity
  8
0
100
AcDbLine
 62
7
  6
CONTINUOUS
 10
199.9944873612
 20
6.6514977455
 11
201.2444873612
 21
6.6514977455
  0
LINE
  5
467
100
AcDbEntity
  8
0
100
AcDbLine
 62
7
  6
CONTINUOUS
 10
-200.0055126388
 20
6.6514977455
 11
-201.2555126388
 21
6.6514977455
  0
LINE
  5
468
100
AcDbEntity
  8
RACCORDO
100
AcDbLine
 62
7
  6
CONTINUOUS
 10
-118.5805126388
 20
8.3514977455
 11
-113.9305126388
 21
8.3514977455
  0
LINE
  5
469
100
AcDbEntity
  8
RACCORDO
100
AcDbLine
 62
7
  6
CONTINUOUS
 10
113.9194873612
 20
8.3514977455
 11
118.5694873612
 21
8.3514977455
  0
LINE
  5
46A
100
AcDbEntity
  8
RACCORDO
100
AcDbLine
 62
7
  6
CONTINUOUS
 10
119.4944873612
 20
8.8514977455
 11
119.2444873612
 21
8.8514977455
  0
LINE
  5
46B
100
AcDbEntity
  8
RACCORDO
100
AcDbLine
 62
253
  6
CONTINUOUS
 10
-119.0055126388
 20
8.8514977455
 11
-113.5055126388
 21
8.8514977455
  0
LINE
  5
46C
100
AcDbEntity
  8
RACCORDO
100
AcDbLine
 62
7
  6
CONTINUOUS
 10
113.2444873612
 20
8.8514977455
 11
112.9944873612
 21
8.8514977455
  0
LINE
  5
46D
100
AcDbEntity
  8
RACCORDO
100
AcDbLine
 62
7
  6
CONTINUOUS
 10
-113.0055126388
 20
8.8514977455
 11
-113.2555126388
 21
8.8514977455
  0
LINE
  5
46E
100
AcDbEntity
  8
RACCORDO
100
AcDbLine
 62
253
  6
CONTINUOUS
 10
113.4944873612
 20
8.8514977455
 11
118.9944873612
 21
8.8514977455
  0
LINE
  5
46F
100
AcDbEntity
  8
RACCORDO
100
AcDbLine
 62
7
  6
CONTINUOUS
 10
-119.2555126388
 20
8.8514977455
 11
-119.5055126388
 21
8.8514977455
  0
LINE
  5
470
100
AcDbEntity
  8
RACCORDO
100
AcDbLine
 62
7
  6
CONTINUOUS
 10
113.0614746593
 20
10.0764977455
 11
112.9944873612
 21
10.0764977455
  0
LINE
  5
471
100
AcDbEntity
  8
RACCORDO
100
AcDbLine
 62
7
  6
CONTINUOUS
 10
-113.0724999369
 20
10.0764977455
 11
-113.0055126388
 21
10.0764977455
  0
LINE
  5
472
100
AcDbEntity
  8
RACCORDO
100
AcDbLine
 62
7
  6
CONTINUOUS
 10
119.4275000631
 20
10.0764977455
 11
119.4944873612
 21
10.0764977455
  0
LINE
  5
473
100
AcDbEntity
  8
RACCORDO
100
AcDbLine
 62
7
  6
CONTINUOUS
 10
-119.4385253407
 20
10.0764977455
 11
-119.5055126388
 21
10.0764977455
  0
LINE
  5
474
100
AcDbEntity
  8
RACCORDO
100
AcDbLine
 62
7
  6
CONTINUOUS
 10
113.0614746593
 20
13.1264977455
 11
112.9944873612
 21
13.1264977455
  0
LINE
  5
475
100
AcDbEntity
  8
RACCORDO
100
AcDbLine
 62
7
  6
CONTINUOUS
 10
-113.0724999369
 20
13.1264977455
 11
-113.0055126388
 21
13.1264977455
  0
LINE
  5
476
100
AcDbEntity
  8
RACCORDO
100
AcDbLine
 62
7
  6
CONTINUOUS
 10
119.4275000631
 20
13.1264977455
 11
119.4944873612
 21
13.1264977455
  0
LINE
  5
477
100
AcDbEntity
  8
RACCORDO
100
AcDbLine
 62
7
  6
CONTINUOUS
 10
-119.4385253407
 20
13.1264977455
 11
-119.5055126388
 21
13.1264977455
  0
LINE
  5
478
100
AcDbEntity
  8
RACCORDO
100
AcDbLine
 62
7
  6
CONTINUOUS
 10
-119.5055126388
 20
14.3514977455
 11
-119.2555126388
 21
14.3514977455
  0
LINE
  5
479
100
AcDbEntity
  8
RACCORDO
100
AcDbLine
 62
253
  6
CONTINUOUS
 10
118.9944873612
 20
14.3514977455
 11
113.4944873612
 21
14.3514977455
  0
LINE
  5
47A
100
AcDbEntity
  8
RACCORDO
100
AcDbLine
 62
7
  6
CONTINUOUS
 10
-113.2555126388
 20
14.3514977455
 11
-113.0055126388
 21
14.3514977455
  0
LINE
  5
47B
100
AcDbEntity
  8
RACCORDO
100
AcDbLine
 62
7
  6
CONTINUOUS
 10
112.9944873612
 20
14.3514977455
 11
113.2444873612
 21
14.3514977455
  0
LINE
  5
47C
100
AcDbEntity
  8
RACCORDO
100
AcDbLine
 62
253
  6
CONTINUOUS
 10
-113.5055126388
 20
14.3514977455
 11
-119.0055126388
 21
14.3514977455
  0
LINE
  5
47D
100
AcDbEntity
  8
RACCORDO
100
AcDbLine
 62
7
  6
CONTINUOUS
 10
119.2444873612
 20
14.3514977455
 11
119.4944873612
 21
14.3514977455
  0
LINE
  5
47E
100
AcDbEntity
  8
RACCORDO
100
AcDbLine
 62
7
  6
CONTINUOUS
 10
118.5694873612
 20
14.8514977455
 11
113.9194873612
 21
14.8514977455
  0
LINE
  5
47F
100
AcDbEntity
  8
RACCORDO
100
AcDbLine
 62
7
  6
CONTINUOUS
 10
-113.9305126388
 20
14.8514977455
 11
-118.5805126388
 21
14.8514977455
  0
LINE
  5
480
100
AcDbEntity
  8
0
100
AcDbLine
 62
7
  6
CONTINUOUS
 10
-118.5055126388
 20
17.4764977455
 11
-114.0055126388
 21
17.4764977455
  0
LINE
  5
481
100
AcDbEntity
  8
0
100
AcDbLine
 62
7
  6
CONTINUOUS
 10
113.9944873612
 20
17.4764977455
 11
118.4944873612
 21
17.4764977455
  0
LINE
  5
482
100
AcDbEntity
  8
ASSI
100
AcDbLine
 62
7
  6
CONTINUOUS
 10
117.1194873612
 20
18.0264977455
 11
115.3694873612
 21
18.0264977455
  0
LINE
  5
483
100
AcDbEntity
  8
ASSI
100
AcDbLine
 62
7
  6
CONTINUOUS
 10
-115.3805126388
 20
18.0264977455
 11
-117.1305126388
 21
18.0264977455
  0
LINE
  5
484
100
AcDbEntity
  8
0
100
AcDbLine
 62
7
  6
CONTINUOUS
 10
118.4944873612
 20
21.9764977455
 11
113.9944873612
 21
21.9764977455
  0
LINE
  5
485
100
AcDbEntity
  8
0
100
AcDbLine
 62
7
  6
CONTINUOUS
 10
-114.0055126388
 20
21.9764977455
 11
-118.5055126388
 21
21.9764977455
  0
LINE
  5
486
100
AcDbEntity
  8
ASSI
100
AcDbLine
 62
7
  6
CONTINUOUS
 10
-119.1223126402
 20
49.0911684765
 11
-119.5055126388
 21
49.2264977455
  0
LINE
  5
487
100
AcDbEntity
  8
RACCORDO
100
AcDbLine
 62
7
  6
CONTINUOUS
 10
-113.3887126375
 20
48.3368270144
 11
-113.0724999369
 21
48.2251546925
  0
LINE
  5
488
100
AcDbEntity
  8
RACCORDO
100
AcDbLine
 62
7
  6
CONTINUOUS
 10
-119.1223126402
 20
51.1161684765
 11
-119.4385253407
 21
51.2278407984
  0
LINE
  5
489
100
AcDbEntity
  8
ASSI
100
AcDbLine
 62
7
  6
CONTINUOUS
 10
-113.3887126375
 20
50.3618270144
 11
-113.0055126388
 21
50.2264977455
  0
LINE
  5
48A
100
AcDbEntity
  8
ASSI
100
AcDbLine
 62
7
  6
CONTINUOUS
 10
113.3776873598
 20
-17.7838315235
 11
112.9944873612
 21
-17.6485022545
  0
LINE
  5
48B
100
AcDbEntity
  8
RACCORDO
100
AcDbLine
 62
7
  6
CONTINUOUS
 10
119.1112873625
 20
-18.5381729856
 11
119.4275000631
 21
-18.6498453075
  0
LINE
  5
48C
100
AcDbEntity
  8
RACCORDO
100
AcDbLine
 62
7
  6
CONTINUOUS
 10
113.3776873598
 20
-15.7588315235
 11
113.0614746593
 21
-15.6471592016
  0
LINE
  5
48D
100
AcDbEntity
  8
ASSI
100
AcDbLine
 62
7
  6
CONTINUOUS
 10
119.1112873625
 20
-16.5131729856
 11
119.4944873612
 21
-16.6485022545
  0
LINE
  5
48E
100
AcDbEntity
  8
RACCORDO
100
AcDbLine
 62
7
  6
CONTINUOUS
 10
-113.9305126388
 20
52.7264977455
 11
-113.2555126388
 21
52.4764977455
  0
LINE
  5
48F
100
AcDbEntity
  8
RACCORDO
100
AcDbLine
 62
7
  6
CONTINUOUS
 10
113.9194873612
 20
-20.1485022545
 11
113.2444873612
 21
-19.8985022545
  0
LINE
  5
490
100
AcDbEntity
  8
0
100
AcDbLine
 62
7
  6
CONTINUOUS
 10
-212.0805126388
 20
204.5764977455
 11
-214.3555126388
 21
206.6514977455
  0
LINE
  5
491
100
AcDbEntity
  8
0
100
AcDbLine
 62
7
  6
CONTINUOUS
 10
-201.3055126388
 20
205.1514977455
 11
-200.5055126388
 21
204.4014977455
  0
LINE
  5
492
100
AcDbEntity
  8
0
100
AcDbLine
 62
7
  6
CONTINUOUS
 10
213.5944873612
 20
-207.5985022545
 11
211.9327864254
 21
-205.9368013187
  0
LINE
  5
493
100
AcDbEntity
  8
0
100
AcDbLine
 62
7
  6
CONTINUOUS
 10
-208.3305126388
 20
215.2264977455
 11
-205.8055126388
 21
212.7014977455
  0
LINE
  5
494
100
AcDbEntity
  8
0
100
AcDbLine
 62
7
  6
CONTINUOUS
 10
-183.5055126388
 20
208.4014977455
 11
-183.7555126388
 21
208.6514977455
  0
LINE
  5
495
100
AcDbEntity
  8
RACCORDO
100
AcDbLine
 62
7
  6
CONTINUOUS
 10
113.4944873612
 20
-81.2735022545
 11
113.4269197936
 21
-81.205934687
  0
LINE
  5
496
100
AcDbEntity
  8
RACCORDO
100
AcDbLine
 62
7
  6
CONTINUOUS
 10
118.9944873612
 20
-86.7735022545
 11
119.0620549287
 21
-86.8410698221
  0
LINE
  5
497
100
AcDbEntity
  8
RACCORDO
100
AcDbLine
 62
7
  6
CONTINUOUS
 10
119.0620549287
 20
80.794065313
 11
118.9944873612
 21
80.7264977455
  0
LINE
  5
498
100
AcDbEntity
  8
RACCORDO
100
AcDbLine
 62
7
  6
CONTINUOUS
 10
113.4269197936
 20
75.1589301779
 11
113.4944873612
 21
75.2264977455
  0
LINE
  5
499
100
AcDbEntity
  8
RACCORDO
100
AcDbLine
 62
7
  6
CONTINUOUS
 10
119.0620549287
 20
52.544065313
 11
118.9944873612
 21
52.4764977455
  0
LINE
  5
49A
100
AcDbEntity
  8
RACCORDO
100
AcDbLine
 62
7
  6
CONTINUOUS
 10
113.4269197936
 20
46.9089301779
 11
113.4944873612
 21
46.9764977455
  0
LINE
  5
49B
100
AcDbEntity
  8
0
100
AcDbLine
 62
7
  6
CONTINUOUS
 10
-205.5555126388
 20
-209.3485022545
 11
-204.5555126388
 21
-208.4985022545
  0
LINE
  5
49C
100
AcDbEntity
  8
RACCORDO
100
AcDbLine
 62
7
  6
CONTINUOUS
 10
119.2444873612
 20
8.8514977455
 11
118.5694873612
 21
8.6014977455
  0
LINE
  5
49D
100
AcDbEntity
  8
RACCORDO
100
AcDbLine
 62
7
  6
CONTINUOUS
 10
-119.2555126388
 20
-81.2735022545
 11
-118.5805126388
 21
-81.0235022545
  0
LINE
  5
49E
100
AcDbEntity
  8
RACCORDO
100
AcDbLine
 62
7
  6
CONTINUOUS
 10
-113.2555126388
 20
-86.7735022545
 11
-113.9305126388
 21
-87.0235022545
  0
LINE
  5
49F
100
AcDbEntity
  8
ASSI
100
AcDbLine
 62
7
  6
CONTINUOUS
 10
112.9944873612
 20
12.1014977455
 11
113.3776873598
 21
12.2368270144
  0
LINE
  5
4A0
100
AcDbEntity
  8
RACCORDO
100
AcDbLine
 62
7
  6
CONTINUOUS
 10
119.1112873625
 20
12.9911684765
 11
119.4275000631
 21
13.1028407984
  0
LINE
  5
4A1
100
AcDbEntity
  8
RACCORDO
100
AcDbLine
 62
7
  6
CONTINUOUS
 10
113.3776873598
 20
10.2118270144
 11
113.0614746593
 21
10.1001546925
  0
LINE
  5
4A2
100
AcDbEntity
  8
ASSI
100
AcDbLine
 62
7
  6
CONTINUOUS
 10
119.4944873612
 20
11.1014977455
 11
119.1112873625
 21
10.9661684765
  0
LINE
  5
4A3
100
AcDbEntity
  8
ASSI
100
AcDbLine
 62
7
  6
CONTINUOUS
 10
-119.5055126388
 20
-83.5235022545
 11
-119.1223126402
 21
-83.3881729856
  0
LINE
  5
4A4
100
AcDbEntity
  8
RACCORDO
100
AcDbLine
 62
7
  6
CONTINUOUS
 10
-113.3887126375
 20
-82.6338315235
 11
-113.0724999369
 21
-82.5221592016
  0
LINE
  5
4A5
100
AcDbEntity
  8
RACCORDO
100
AcDbLine
 62
7
  6
CONTINUOUS
 10
-119.1223126402
 20
-85.4131729856
 11
-119.4385253407
 21
-85.5248453075
  0
LINE
  5
4A6
100
AcDbEntity
  8
ASSI
100
AcDbLine
 62
7
  6
CONTINUOUS
 10
-113.0055126388
 20
-84.5235022545
 11
-113.3887126375
 21
-84.6588315235
  0
LINE
  5
4A7
100
AcDbEntity
  8
RACCORDO
100
AcDbLine
 62
7
  6
CONTINUOUS
 10
110.7444873612
 20
29.2264977455
 11
110.1944841109
 21
29.2264977455
  0
LINE
  5
4A8
100
AcDbEntity
  8
RACCORDO
100
AcDbLine
 62
253
  6
CONTINUOUS
 10
-110.2055093886
 20
29.2264977455
 11
110.1944841109
 21
29.2264977455
  0
LINE
  5
4A9
100
AcDbEntity
  8
RACCORDO
100
AcDbLine
 62
7
  6
CONTINUOUS
 10
-110.2055093886
 20
29.2264977455
 11
-110.7555126388
 21
29.2264977455
  0
LINE
  5
4AA
100
AcDbEntity
  8
RACCORDO
100
AcDbLine
 62
7
  6
CONTINUOUS
 10
109.9944873612
 20
29.4764977455
 11
-110.0055126388
 21
29.4764977455
  0
LINE
  5
4AB
100
AcDbEntity
  8
RACCORDO
100
AcDbLine
 62
7
  6
CONTINUOUS
 10
112.4944873612
 20
30.2264977455
 11
111.2444873612
 21
30.2264977455
  0
LINE
  5
4AC
100
AcDbEntity
  8
RACCORDO
100
AcDbLine
 62
7
  6
CONTINUOUS
 10
-110.0055126388
 20
30.2264977455
 11
109.9944873612
 21
30.2264977455
  0
LINE
  5
4AD
100
AcDbEntity
  8
RACCORDO
100
AcDbLine
 62
7
  6
CONTINUOUS
 10
-111.2555126388
 20
30.2264977455
 11
-112.5055126388
 21
30.2264977455
  0
LINE
  5
4AE
100
AcDbEntity
  8
RACCORDO
100
AcDbLine
 62
7
  6
CONTINUOUS
 10
-112.5055126388
 20
31.1014977455
 11
-111.2555126388
 21
31.1014977455
  0
LINE
  5
4AF
100
AcDbEntity
  8
RACCORDO
100
AcDbLine
 62
7
  6
CONTINUOUS
 10
109.9944873612
 20
31.1014977455
 11
-110.0055126388
 21
31.1014977455
  0
LINE
  5
4B0
100
AcDbEntity
  8
RACCORDO
100
AcDbLine
 62
7
  6
CONTINUOUS
 10
111.2444873612
 20
31.1014977455
 11
112.4944873612
 21
31.1014977455
  0
LINE
  5
4B1
100
AcDbEntity
  8
RACCORDO
100
AcDbLine
 62
7
  6
CONTINUOUS
 10
109.9944873612
 20
31.8514977455
 11
-110.0055126388
 21
31.8514977455
  0
LINE
  5
4B2
100
AcDbEntity
  8
RACCORDO
100
AcDbLine
 62
7
  6
CONTINUOUS
 10
-110.7555126388
 20
32.1014977455
 11
-110.2055093886
 21
32.1014977455
  0
LINE
  5
4B3
100
AcDbEntity
  8
RACCORDO
100
AcDbLine
 62
7
  6
CONTINUOUS
 10
110.1944841109
 20
32.1014977455
 11
110.7444873612
 21
32.1014977455
  0
LINE
  5
4B4
100
AcDbEntity
  8
RACCORDO
100
AcDbLine
 62
253
  6
CONTINUOUS
 10
110.1944841109
 20
32.1014977455
 11
-110.2055093886
 21
32.1014977455
  0
LINE
  5
4B5
100
AcDbEntity
  8
0
100
AcDbLine
 62
7
  6
CONTINUOUS
 10
-118.5055126388
 20
39.3514977455
 11
-114.0055126388
 21
39.3514977455
  0
LINE
  5
4B6
100
AcDbEntity
  8
0
100
AcDbLine
 62
7
  6
CONTINUOUS
 10
113.9944873612
 20
39.3514977455
 11
118.4944873612
 21
39.3514977455
  0
LINE
  5
4B7
100
AcDbEntity
  8
ASSI
100
AcDbLine
 62
7
  6
CONTINUOUS
 10
-117.1305126388
 20
43.3014977455
 11
-115.3805126388
 21
43.3014977455
  0
LINE
  5
4B8
100
AcDbEntity
  8
ASSI
100
AcDbLine
 62
7
  6
CONTINUOUS
 10
115.3694873612
 20
43.3014977455
 11
117.1194873612
 21
43.3014977455
  0
LINE
  5
4B9
100
AcDbEntity
  8
0
100
AcDbLine
 62
7
  6
CONTINUOUS
 10
118.4944873612
 20
43.8514977455
 11
113.9944873612
 21
43.8514977455
  0
LINE
  5
4BA
100
AcDbEntity
  8
0
100
AcDbLine
 62
7
  6
CONTINUOUS
 10
-114.0055126388
 20
43.8514977455
 11
-118.5055126388
 21
43.8514977455
  0
LINE
  5
4BB
100
AcDbEntity
  8
RACCORDO
100
AcDbLine
 62
7
  6
CONTINUOUS
 10
-118.5805126388
 20
46.4764977455
 11
-113.9305126388
 21
46.4764977455
  0
LINE
  5
4BC
100
AcDbEntity
  8
RACCORDO
100
AcDbLine
 62
7
  6
CONTINUOUS
 10
113.9194873612
 20
46.4764977455
 11
118.5694873612
 21
46.4764977455
  0
LINE
  5
4BD
100
AcDbEntity
  8
RACCORDO
100
AcDbLine
 62
7
  6
CONTINUOUS
 10
119.4944873612
 20
46.9764977455
 11
119.2444873612
 21
46.9764977455
  0
LINE
  5
4BE
100
AcDbEntity
  8
RACCORDO
100
AcDbLine
 62
253
  6
CONTINUOUS
 10
-119.0055126388
 20
46.9764977455
 11
-113.5055126388
 21
46.9764977455
  0
LINE
  5
4BF
100
AcDbEntity
  8
RACCORDO
100
AcDbLine
 62
7
  6
CONTINUOUS
 10
113.2444873612
 20
46.9764977455
 11
112.9944873612
 21
46.9764977455
  0
LINE
  5
4C0
100
AcDbEntity
  8
RACCORDO
100
AcDbLine
 62
7
  6
CONTINUOUS
 10
-113.0055126388
 20
46.9764977455
 11
-113.2555126388
 21
46.9764977455
  0
LINE
  5
4C1
100
AcDbEntity
  8
RACCORDO
100
AcDbLine
 62
253
  6
CONTINUOUS
 10
113.4944873612
 20
46.9764977455
 11
118.9944873612
 21
46.9764977455
  0
LINE
  5
4C2
100
AcDbEntity
  8
RACCORDO
100
AcDbLine
 62
7
  6
CONTINUOUS
 10
-119.2555126388
 20
46.9764977455
 11
-119.5055126388
 21
46.9764977455
  0
LINE
  5
4C3
100
AcDbEntity
  8
RACCORDO
100
AcDbLine
 62
7
  6
CONTINUOUS
 10
-113.0724999369
 20
48.2014977455
 11
-113.0055126388
 21
48.2014977455
  0
LINE
  5
4C4
100
AcDbEntity
  8
RACCORDO
100
AcDbLine
 62
7
  6
CONTINUOUS
 10
113.0614746593
 20
48.2014977455
 11
112.9944873612
 21
48.2014977455
  0
LINE
  5
4C5
100
AcDbEntity
  8
RACCORDO
100
AcDbLine
 62
7
  6
CONTINUOUS
 10
-119.4385253407
 20
48.2014977455
 11
-119.5055126388
 21
48.2014977455
  0
LINE
  5
4C6
100
AcDbEntity
  8
RACCORDO
100
AcDbLine
 62
7
  6
CONTINUOUS
 10
119.4275000631
 20
48.2014977455
 11
119.4944873612
 21
48.2014977455
  0
LINE
  5
4C7
100
AcDbEntity
  8
ASSI
100
AcDbLine
 62
7
  6
CONTINUOUS
 10
-119.1223126402
 20
77.8411684765
 11
-119.5055126388
 21
77.9764977455
  0
LINE
  5
4C8
100
AcDbEntity
  8
RACCORDO
100
AcDbLine
 62
7
  6
CONTINUOUS
 10
-113.3887126375
 20
77.0868270144
 11
-113.0724999369
 21
76.9751546925
  0
LINE
  5
4C9
100
AcDbEntity
  8
RACCORDO
100
AcDbLine
 62
7
  6
CONTINUOUS
 10
-119.1223126402
 20
79.8661684765
 11
-119.4385253407
 21
79.9778407984
  0
LINE
  5
4CA
100
AcDbEntity
  8
ASSI
100
AcDbLine
 62
7
  6
CONTINUOUS
 10
-113.3887126375
 20
79.1118270144
 11
-113.0055126388
 21
78.9764977455
  0
LINE
  5
4CB
100
AcDbEntity
  8
ASSI
100
AcDbLine
 62
7
  6
CONTINUOUS
 10
113.3776873598
 20
10.9661684765
 11
112.9944873612
 21
11.1014977455
  0
LINE
  5
4CC
100
AcDbEntity
  8
RACCORDO
100
AcDbLine
 62
7
  6
CONTINUOUS
 10
118.5694873612
 20
-14.1485022545
 11
119.2444873612
 21
-14.3985022545
  0
LINE
  5
4CD
100
AcDbEntity
  8
RACCORDO
100
AcDbLine
 62
7
  6
CONTINUOUS
 10
-118.5805126388
 20
75.4764977455
 11
-119.2555126388
 21
75.7264977455
  0
LINE
  5
4CE
100
AcDbEntity
  8
RACCORDO
100
AcDbLine
 62
7
  6
CONTINUOUS
 10
-113.9305126388
 20
81.4764977455
 11
-113.2555126388
 21
81.2264977455
  0
LINE
  5
4CF
100
AcDbEntity
  8
RACCORDO
100
AcDbLine
 62
7
  6
CONTINUOUS
 10
113.9194873612
 20
8.6014977455
 11
113.2444873612
 21
8.8514977455
  0
LINE
  5
4D0
100
AcDbEntity
  8
0
100
AcDbLine
 62
7
  6
CONTINUOUS
 10
-204.8055126388
 20
211.6514977455
 11
-203.8055126388
 21
210.8014977455
  0
LINE
  5
4D1
100
AcDbEntity
  8
RACCORDO
100
AcDbLine
 62
7
  6
CONTINUOUS
 10
113.4944873612
 20
-52.5235022545
 11
113.4269197936
 21
-52.455934687
  0
LINE
  5
4D2
100
AcDbEntity
  8
RACCORDO
100
AcDbLine
 62
7
  6
CONTINUOUS
 10
118.9944873612
 20
-58.0235022545
 11
119.0620549287
 21
-58.0910698221
  0
LINE
  5
4D3
100
AcDbEntity
  8
RACCORDO
100
AcDbLine
 62
7
  6
CONTINUOUS
 10
113.2444873612
 20
-14.3985022545
 11
113.9194873612
 21
-14.1485022545
  0
LINE
  5
4D4
100
AcDbEntity
  8
RACCORDO
100
AcDbLine
 62
7
  6
CONTINUOUS
 10
119.2444873612
 20
-19.8985022545
 11
118.5694873612
 21
-20.1485022545
  0
LINE
  5
4D5
100
AcDbEntity
  8
ASSI
100
AcDbLine
 62
7
  6
CONTINUOUS
 10
112.9944873612
 20
-16.6485022545
 11
113.3776873598
 21
-16.5131729856
  0
LINE
  5
4D6
100
AcDbEntity
  8
RACCORDO
100
AcDbLine
 62
7
  6
CONTINUOUS
 10
119.1112873625
 20
-15.7588315235
 11
119.4275000631
 21
-15.6471592016
  0
LINE
  5
4D7
100
AcDbEntity
  8
RACCORDO
100
AcDbLine
 62
7
  6
CONTINUOUS
 10
113.3776873598
 20
-18.5381729856
 11
113.0614746593
 21
-18.6498453075
  0
LINE
  5
4D8
100
AcDbEntity
  8
ASSI
100
AcDbLine
 62
7
  6
CONTINUOUS
 10
119.4944873612
 20
-17.6485022545
 11
119.1112873625
 21
-17.7838315235
  0
LINE
  5
4D9
100
AcDbEntity
  8
RACCORDO
100
AcDbLine
 62
7
  6
CONTINUOUS
 10
-113.0724999369
 20
51.2514977455
 11
-113.0055126388
 21
51.2514977455
  0
LINE
  5
4DA
100
AcDbEntity
  8
RACCORDO
100
AcDbLine
 62
7
  6
CONTINUOUS
 10
113.0614746593
 20
51.2514977455
 11
112.9944873612
 21
51.2514977455
  0
LINE
  5
4DB
100
AcDbEntity
  8
RACCORDO
100
AcDbLine
 62
7
  6
CONTINUOUS
 10
-119.4385253407
 20
51.2514977455
 11
-119.5055126388
 21
51.2514977455
  0
LINE
  5
4DC
100
AcDbEntity
  8
RACCORDO
100
AcDbLine
 62
7
  6
CONTINUOUS
 10
119.4275000631
 20
51.2514977455
 11
119.4944873612
 21
51.2514977455
  0
LINE
  5
4DD
100
AcDbEntity
  8
RACCORDO
100
AcDbLine
 62
7
  6
CONTINUOUS
 10
-119.5055126388
 20
52.4764977455
 11
-119.2555126388
 21
52.4764977455
  0
LINE
  5
4DE
100
AcDbEntity
  8
RACCORDO
100
AcDbLine
 62
253
  6
CONTINUOUS
 10
118.9944873612
 20
52.4764977455
 11
113.4944873612
 21
52.4764977455
  0
LINE
  5
4DF
100
AcDbEntity
  8
RACCORDO
100
AcDbLine
 62
7
  6
CONTINUOUS
 10
-113.2555126388
 20
52.4764977455
 11
-113.0055126388
 21
52.4764977455
  0
LINE
  5
4E0
100
AcDbEntity
  8
RACCORDO
100
AcDbLine
 62
7
  6
CONTINUOUS
 10
112.9944873612
 20
52.4764977455
 11
113.2444873612
 21
52.4764977455
  0
LINE
  5
4E1
100
AcDbEntity
  8
RACCORDO
100
AcDbLine
 62
253
  6
CONTINUOUS
 10
-113.5055126388
 20
52.4764977455
 11
-119.0055126388
 21
52.4764977455
  0
LINE
  5
4E2
100
AcDbEntity
  8
RACCORDO
100
AcDbLine
 62
7
  6
CONTINUOUS
 10
119.2444873612
 20
52.4764977455
 11
119.4944873612
 21
52.4764977455
  0
LINE
  5
4E3
100
AcDbEntity
  8
RACCORDO
100
AcDbLine
 62
7
  6
CONTINUOUS
 10
118.5694873612
 20
52.9764977455
 11
113.9194873612
 21
52.9764977455
  0
LINE
  5
4E4
100
AcDbEntity
  8
RACCORDO
100
AcDbLine
 62
7
  6
CONTINUOUS
 10
-113.9305126388
 20
52.9764977455
 11
-118.5805126388
 21
52.9764977455
  0
LINE
  5
4E5
100
AcDbEntity
  8
RACCORDO
100
AcDbLine
 62
7
  6
CONTINUOUS
 10
119.1112873625
 20
10.2118270144
 11
119.4275000631
 21
10.1001546925
  0
LINE
  5
4E6
100
AcDbEntity
  8
RACCORDO
100
AcDbLine
 62
7
  6
CONTINUOUS
 10
113.3776873598
 20
12.9911684765
 11
113.0614746593
 21
13.1028407984
  0
LINE
  5
4E7
100
AcDbEntity
  8
ASSI
100
AcDbLine
 62
7
  6
CONTINUOUS
 10
119.1112873625
 20
12.2368270144
 11
119.4944873612
 21
12.1014977455
  0
LINE
  5
4E8
100
AcDbEntity
  8
RACCORDO
100
AcDbLine
 62
7
  6
CONTINUOUS
 10
118.5694873612
 20
14.6014977455
 11
119.2444873612
 21
14.3514977455
  0
LINE
  5
4E9
100
AcDbEntity
  8
RACCORDO
100
AcDbLine
 62
7
  6
CONTINUOUS
 10
113.4944873612
 20
-14.3985022545
 11
113.4269197936
 21
-14.330934687
  0
LINE
  5
4EA
100
AcDbEntity
  8
RACCORDO
100
AcDbLine
 62
7
  6
CONTINUOUS
 10
118.9944873612
 20
-19.8985022545
 11
119.0620549287
 21
-19.9660698221
  0
LINE
  5
4EB
100
AcDbEntity
  8
0
100
AcDbLine
 62
7
  6
CONTINUOUS
 10
-157.4805126388
 20
253.0014977455
 11
-158.2305126388
 21
253.8014977455
  0
LWPOLYLINE
  5
4EC
100
AcDbEntity
  8
RACCORDO
100
AcDbPolyline
 62
253
  6
CONTINUOUS
 90
6
 70
0
 10
157.2835197102
 20
-252.2992627809
 10
157.2593061708
 20
-252.2324423343
 10
157.2352104179
 20
-252.1647769433
 10
157.2112663905
 20
-252.096266608
 10
157.1877932793
 20
-252.0270887462
 10
157.1407322431
 20
-251.8856659353
  0
LWPOLYLINE
  5
4ED
100
AcDbEntity
  8
RACCORDO
100
AcDbPolyline
 62
253
  6
CONTINUOUS
 90
20
 70
0
 10
157.0909581004
 20
-251.738668851
 10
157.0646455503
 20
-251.6626704767
 10
157.0371214032
 20
-251.5848446469
 10
157.0084014928
 20
-251.5052075842
 10
156.978107916
 20
-251.4233739217
 10
156.9461494708
 20
-251.3393356492
 10
156.9124861574
 20
-251.2531007769
 10
156.8767776682
 20
-251.1643079694
 10
156.8389113004
 20
-251.0729427082
 10
156.79881301
 20
-250.9790195118
 10
156.7561644266
 20
-250.8822206
 10
156.710726888
 20
-250.7823381301
 10
156.6624853798
 20
-250.6795799447
 10
156.6114411113
 20
-250.574251791
 10
156.5574720549
 20
-250.4664363045
 10
156.5004229664
 20
-250.3560508497
 10
156.4402498655
 20
-250.2431532681
 10
156.3768391902
 20
-250.1277628399
 10
156.3099986694
 20
-250.0098602848
 10
156.2395623037
 20
-249.8894456028
  0
LINE
  5
4EE
100
AcDbEntity
  8
RACCORDO
100
AcDbLine
 62
253
  6
CONTINUOUS
 10
157.1407322431
 20
-251.8856659353
 11
157.0909581004
 21
-251.738668851
  0
LINE
  5
4EF
100
AcDbEntity
  8
0
100
AcDbLine
 62
7
  6
CONTINUOUS
 10
74.9944873612
 20
180.4014977455
 11
74.9944873612
 21
230.4014977455
  0
LINE
  5
4F0
100
AcDbEntity
  8
RACCORDO
100
AcDbLine
 62
7
  6
CONTINUOUS
 10
119.0620549287
 20
14.419065313
 11
118.9944873612
 21
14.3514977455
  0
LINE
  5
4F1
100
AcDbEntity
  8
RACCORDO
100
AcDbLine
 62
7
  6
CONTINUOUS
 10
113.4269197936
 20
8.7839301779
 11
113.4944873612
 21
8.8514977455
  0
LINE
  5
4F2
100
AcDbEntity
  8
RACCORDO
100
AcDbLine
 62
7
  6
CONTINUOUS
 10
119.0620549287
 20
-14.330934687
 11
118.9944873612
 21
-14.3985022545
  0
LINE
  5
4F3
100
AcDbEntity
  8
RACCORDO
100
AcDbLine
 62
7
  6
CONTINUOUS
 10
113.4269197936
 20
-19.9660698221
 11
113.4944873612
 21
-19.8985022545
  0
LINE
  5
4F4
100
AcDbEntity
  8
0
100
AcDbLine
 62
7
  6
CONTINUOUS
 10
-202.5555126388
 20
-204.0235022545
 11
-202.0555126388
 21
-203.7401689212
  0
LINE
  5
4F5
100
AcDbEntity
  8
RACCORDO
100
AcDbLine
 62
7
  6
CONTINUOUS
 10
113.2444873612
 20
-52.5235022545
 11
113.9194873612
 21
-52.2735022545
  0
LINE
  5
4F6
100
AcDbEntity
  8
ASSI
100
AcDbLine
 62
7
  6
CONTINUOUS
 10
112.9944873612
 20
-54.7735022545
 11
113.3776873598
 21
-54.6381729856
  0
LINE
  5
4F7
100
AcDbEntity
  8
RACCORDO
100
AcDbLine
 62
7
  6
CONTINUOUS
 10
119.1112873625
 20
-53.8838315235
 11
119.4275000631
 21
-53.7721592016
  0
LINE
  5
4F8
100
AcDbEntity
  8
RACCORDO
100
AcDbLine
 62
7
  6
CONTINUOUS
 10
113.3776873598
 20
-56.6631729856
 11
113.0614746593
 21
-56.7748453075
  0
LINE
  5
4F9
100
AcDbEntity
  8
ASSI
100
AcDbLine
 62
7
  6
CONTINUOUS
 10
119.4944873612
 20
-55.7735022545
 11
119.1112873625
 21
-55.9088315235
  0
LINE
  5
4FA
100
AcDbEntity
  8
RACCORDO
100
AcDbLine
 62
7
  6
CONTINUOUS
 10
113.9194873612
 20
74.7264977455
 11
118.5694873612
 21
74.7264977455
  0
LINE
  5
4FB
100
AcDbEntity
  8
RACCORDO
100
AcDbLine
 62
7
  6
CONTINUOUS
 10
119.4944873612
 20
75.2264977455
 11
119.2444873612
 21
75.2264977455
  0
LINE
  5
4FC
100
AcDbEntity
  8
RACCORDO
100
AcDbLine
 62
7
  6
CONTINUOUS
 10
-118.5805126388
 20
75.2264977455
 11
-113.9305126388
 21
75.2264977455
  0
LINE
  5
4FD
100
AcDbEntity
  8
RACCORDO
100
AcDbLine
 62
7
  6
CONTINUOUS
 10
113.2444873612
 20
75.2264977455
 11
112.9944873612
 21
75.2264977455
  0
LINE
  5
4FE
100
AcDbEntity
  8
RACCORDO
100
AcDbLine
 62
253
  6
CONTINUOUS
 10
113.4944873612
 20
75.2264977455
 11
118.9944873612
 21
75.2264977455
  0
LINE
  5
4FF
100
AcDbEntity
  8
RACCORDO
100
AcDbLine
 62
253
  6
CONTINUOUS
 10
-119.0055126388
 20
75.7264977455
 11
-113.5055126388
 21
75.7264977455
  0
LINE
  5
500
100
AcDbEntity
  8
RACCORDO
100
AcDbLine
 62
7
  6
CONTINUOUS
 10
-113.0055126388
 20
75.7264977455
 11
-113.2555126388
 21
75.7264977455
  0
LINE
  5
501
100
AcDbEntity
  8
RACCORDO
100
AcDbLine
 62
7
  6
CONTINUOUS
 10
-119.2555126388
 20
75.7264977455
 11
-119.5055126388
 21
75.7264977455
  0
LINE
  5
502
100
AcDbEntity
  8
RACCORDO
100
AcDbLine
 62
7
  6
CONTINUOUS
 10
113.0614746593
 20
76.4514977455
 11
112.9944873612
 21
76.4514977455
  0
LINE
  5
503
100
AcDbEntity
  8
RACCORDO
100
AcDbLine
 62
7
  6
CONTINUOUS
 10
119.4275000631
 20
76.4514977455
 11
119.4944873612
 21
76.4514977455
  0
LINE
  5
504
100
AcDbEntity
  8
ASSI
100
AcDbLine
 62
7
  6
CONTINUOUS
 10
116.9233676461
 20
76.6389977455
 11
115.5656070763
 21
76.6389977455
  0
LINE
  5
505
100
AcDbEntity
  8
RACCORDO
100
AcDbLine
 62
7
  6
CONTINUOUS
 10
-113.0724999369
 20
76.9514977455
 11
-113.0055126388
 21
76.9514977455
  0
LINE
  5
506
100
AcDbEntity
  8
RACCORDO
100
AcDbLine
 62
7
  6
CONTINUOUS
 10
-119.4385253407
 20
76.9514977455
 11
-119.5055126388
 21
76.9514977455
  0
LINE
  5
507
100
AcDbEntity
  8
RACCORDO
100
AcDbLine
 62
7
  6
CONTINUOUS
 10
113.0614746593
 20
79.5014977455
 11
112.9944873612
 21
79.5014977455
  0
LINE
  5
508
100
AcDbEntity
  8
RACCORDO
100
AcDbLine
 62
7
  6
CONTINUOUS
 10
119.4275000631
 20
79.5014977455
 11
119.4944873612
 21
79.5014977455
  0
LINE
  5
509
100
AcDbEntity
  8
RACCORDO
100
AcDbLine
 62
7
  6
CONTINUOUS
 10
-113.0724999369
 20
80.0014977455
 11
-113.0055126388
 21
80.0014977455
  0
LINE
  5
50A
100
AcDbEntity
  8
RACCORDO
100
AcDbLine
 62
7
  6
CONTINUOUS
 10
-119.4385253407
 20
80.0014977455
 11
-119.5055126388
 21
80.0014977455
  0
LINE
  5
50B
100
AcDbEntity
  8
RACCORDO
100
AcDbLine
 62
253
  6
CONTINUOUS
 10
118.9944873612
 20
80.7264977455
 11
113.4944873612
 21
80.7264977455
  0
LINE
  5
50C
100
AcDbEntity
  8
RACCORDO
100
AcDbLine
 62
7
  6
CONTINUOUS
 10
112.9944873612
 20
80.7264977455
 11
113.2444873612
 21
80.7264977455
  0
LINE
  5
50D
100
AcDbEntity
  8
RACCORDO
100
AcDbLine
 62
7
  6
CONTINUOUS
 10
119.2444873612
 20
80.7264977455
 11
119.4944873612
 21
80.7264977455
  0
LINE
  5
50E
100
AcDbEntity
  8
RACCORDO
100
AcDbLine
 62
7
  6
CONTINUOUS
 10
-119.5055126388
 20
81.2264977455
 11
-119.2555126388
 21
81.2264977455
  0
LINE
  5
50F
100
AcDbEntity
  8
RACCORDO
100
AcDbLine
 62
7
  6
CONTINUOUS
 10
118.5694873612
 20
81.2264977455
 11
113.9194873612
 21
81.2264977455
  0
LINE
  5
510
100
AcDbEntity
  8
RACCORDO
100
AcDbLine
 62
7
  6
CONTINUOUS
 10
-113.2555126388
 20
81.2264977455
 11
-113.0055126388
 21
81.2264977455
  0
LINE
  5
511
100
AcDbEntity
  8
RACCORDO
100
AcDbLine
 62
253
  6
CONTINUOUS
 10
-113.5055126388
 20
81.2264977455
 11
-119.0055126388
 21
81.2264977455
  0
LINE
  5
512
100
AcDbEntity
  8
RACCORDO
100
AcDbLine
 62
7
  6
CONTINUOUS
 10
-113.9305126388
 20
81.7264977455
 11
-118.5805126388
 21
81.7264977455
  0
LINE
  5
513
100
AcDbEntity
  8
0
100
AcDbLine
 62
7
  6
CONTINUOUS
 10
-118.5055126388
 20
84.3514977455
 11
-114.0055126388
 21
84.3514977455
  0
LINE
  5
514
100
AcDbEntity
  8
0
100
AcDbLine
 62
7
  6
CONTINUOUS
 10
113.9944873612
 20
84.3514977455
 11
118.4944873612
 21
84.3514977455
  0
LINE
  5
515
100
AcDbEntity
  8
ASSI
100
AcDbLine
 62
7
  6
CONTINUOUS
 10
117.1194873612
 20
84.9014977455
 11
115.3694873612
 21
84.9014977455
  0
LINE
  5
516
100
AcDbEntity
  8
ASSI
100
AcDbLine
 62
7
  6
CONTINUOUS
 10
-115.3805126388
 20
84.9014977455
 11
-117.1305126388
 21
84.9014977455
  0
LINE
  5
517
100
AcDbEntity
  8
0
100
AcDbLine
 62
7
  6
CONTINUOUS
 10
118.4944873612
 20
88.8514977455
 11
113.9944873612
 21
88.8514977455
  0
LINE
  5
518
100
AcDbEntity
  8
0
100
AcDbLine
 62
7
  6
CONTINUOUS
 10
-114.0055126388
 20
88.8514977455
 11
-118.5055126388
 21
88.8514977455
  0
LINE
  5
519
100
AcDbEntity
  8
ASSI
100
AcDbLine
 62
7
  6
CONTINUOUS
 10
113.3776873598
 20
49.0911684765
 11
112.9944873612
 21
49.2264977455
  0
LINE
  5
51A
100
AcDbEntity
  8
RACCORDO
100
AcDbLine
 62
7
  6
CONTINUOUS
 10
119.1112873625
 20
48.3368270144
 11
119.4275000631
 21
48.2251546925
  0
LINE
  5
51B
100
AcDbEntity
  8
RACCORDO
100
AcDbLine
 62
7
  6
CONTINUOUS
 10
113.3776873598
 20
51.1161684765
 11
113.0614746593
 21
51.2278407984
  0
LINE
  5
51C
100
AcDbEntity
  8
ASSI
100
AcDbLine
 62
7
  6
CONTINUOUS
 10
119.1112873625
 20
50.3618270144
 11
119.4944873612
 21
50.2264977455
  0
LINE
  5
51D
100
AcDbEntity
  8
RACCORDO
100
AcDbLine
 62
7
  6
CONTINUOUS
 10
113.9194873612
 20
46.7264977455
 11
113.2444873612
 21
46.9764977455
  0
LINE
  5
51E
100
AcDbEntity
  8
RACCORDO
100
AcDbLine
 62
7
  6
CONTINUOUS
 10
118.5694873612
 20
52.7264977455
 11
119.2444873612
 21
52.4764977455
  0
LINE
  5
51F
100
AcDbEntity
  8
0
100
AcDbLine
 62
7
  6
CONTINUOUS
 10
-201.8055126388
 20
206.3264977455
 11
-201.3055126388
 21
206.0431644121
  0
LINE
  5
520
100
AcDbEntity
  8
RACCORDO
100
AcDbLine
 62
7
  6
CONTINUOUS
 10
113.4944873612
 20
14.3514977455
 11
113.4269197936
 21
14.419065313
  0
LINE
  5
521
100
AcDbEntity
  8
RACCORDO
100
AcDbLine
 62
7
  6
CONTINUOUS
 10
118.9944873612
 20
8.8514977455
 11
119.0620549287
 21
8.7839301779
  0
LINE
  5
522
100
AcDbEntity
  8
RACCORDO
100
AcDbLine
 62
253
  6
CONTINUOUS
 10
108.4944873612
 20
97.1014977455
 11
108.4944873612
 21
96.3514977455
  0
LINE
  5
523
100
AcDbEntity
  8
RACCORDO
100
AcDbLine
 62
253
  6
CONTINUOUS
 10
108.4944873612
 20
-102.6485022545
 11
108.4944873612
 21
-101.8985022545
  0
LINE
  5
524
100
AcDbEntity
  8
RACCORDO
100
AcDbLine
 62
253
  6
CONTINUOUS
 10
108.4944873612
 20
30.2264977455
 11
108.4944873612
 21
29.4764977455
  0
LINE
  5
525
100
AcDbEntity
  8
RACCORDO
100
AcDbLine
 62
253
  6
CONTINUOUS
 10
108.4944873612
 20
-35.7735022545
 11
108.4944873612
 21
-35.0235022545
  0
LINE
  5
526
100
AcDbEntity
  8
RACCORDO
100
AcDbLine
 62
253
  6
CONTINUOUS
 10
108.4944873612
 20
-36.6485022545
 11
108.4944873612
 21
-37.3985022545
  0
LINE
  5
527
100
AcDbEntity
  8
RACCORDO
100
AcDbLine
 62
253
  6
CONTINUOUS
 10
108.4944873612
 20
31.1014977455
 11
108.4944873612
 21
31.8514977455
  0
LINE
  5
528
100
AcDbEntity
  8
RACCORDO
100
AcDbLine
 62
7
  6
CONTINUOUS
 10
109.9944873612
 20
97.1014977455
 11
109.9944873612
 21
96.3514977455
  0
LINE
  5
529
100
AcDbEntity
  8
RACCORDO
100
AcDbLine
 62
7
  6
CONTINUOUS
 10
109.9944873612
 20
-102.6485022545
 11
109.9944873612
 21
-101.8985022545
  0
LINE
  5
52A
100
AcDbEntity
  8
RACCORDO
100
AcDbLine
 62
7
  6
CONTINUOUS
 10
109.9944873612
 20
30.2264977455
 11
109.9944873612
 21
29.4764977455
  0
LINE
  5
52B
100
AcDbEntity
  8
RACCORDO
100
AcDbLine
 62
7
  6
CONTINUOUS
 10
109.9944873612
 20
-35.7735022545
 11
109.9944873612
 21
-35.0235022545
  0
LINE
  5
52C
100
AcDbEntity
  8
RACCORDO
100
AcDbLine
 62
7
  6
CONTINUOUS
 10
109.9944873612
 20
-36.6485022545
 11
109.9944873612
 21
-37.3985022545
  0
LINE
  5
52D
100
AcDbEntity
  8
RACCORDO
100
AcDbLine
 62
7
  6
CONTINUOUS
 10
109.9944873612
 20
31.1014977455
 11
109.9944873612
 21
31.8514977455
  0
LINE
  5
52E
100
AcDbEntity
  8
RACCORDO
100
AcDbLine
 62
7
  6
CONTINUOUS
 10
110.9944873612
 20
96.8514977455
 11
110.9944873612
 21
96.3514977455
  0
LINE
  5
52F
100
AcDbEntity
  8
RACCORDO
100
AcDbLine
 62
7
  6
CONTINUOUS
 10
110.9944873612
 20
-102.3985022545
 11
110.9944873612
 21
-101.8985022545
  0
LINE
  5
530
100
AcDbEntity
  8
RACCORDO
100
AcDbLine
 62
7
  6
CONTINUOUS
 10
110.9944873612
 20
29.9764977455
 11
110.9944873612
 21
29.4764977455
  0
LINE
  5
531
100
AcDbEntity
  8
RACCORDO
100
AcDbLine
 62
7
  6
CONTINUOUS
 10
110.9944873612
 20
-35.5235022545
 11
110.9944873612
 21
-35.0235022545
  0
LINE
  5
532
100
AcDbEntity
  8
RACCORDO
100
AcDbLine
 62
7
  6
CONTINUOUS
 10
110.9944873612
 20
-36.8985022545
 11
110.9944873612
 21
-37.3985022545
  0
LINE
  5
533
100
AcDbEntity
  8
RACCORDO
100
AcDbLine
 62
7
  6
CONTINUOUS
 10
110.9944873612
 20
31.3514977455
 11
110.9944873612
 21
31.8514977455
  0
LINE
  5
534
100
AcDbEntity
  8
0
100
AcDbLine
 62
7
  6
CONTINUOUS
 10
112.4944873612
 20
-103.0985022545
 11
112.4944873612
 21
96.9014977455
  0
LINE
  5
535
100
AcDbEntity
  8
RACCORDO
100
AcDbLine
 62
7
  6
CONTINUOUS
 10
112.9944873612
 20
80.7264977455
 11
112.9944873612
 21
79.5014977455
  0
LINE
  5
536
100
AcDbEntity
  8
ASSI
100
AcDbLine
 62
7
  6
CONTINUOUS
 10
112.9944873612
 20
78.4764977455
 11
112.9944873612
 21
77.4764977455
  0
LINE
  5
537
100
AcDbEntity
  8
RACCORDO
100
AcDbLine
 62
7
  6
CONTINUOUS
 10
112.9944873612
 20
76.4514977455
 11
112.9944873612
 21
75.2264977455
  0
LINE
  5
538
100
AcDbEntity
  8
RACCORDO
100
AcDbLine
 62
7
  6
CONTINUOUS
 10
112.9944873612
 20
52.4764977455
 11
112.9944873612
 21
51.2514977455
  0
LINE
  5
539
100
AcDbEntity
  8
ASSI
100
AcDbLine
 62
7
  6
CONTINUOUS
 10
112.9944873612
 20
50.2264977455
 11
112.9944873612
 21
49.2264977455
  0
LINE
  5
53A
100
AcDbEntity
  8
RACCORDO
100
AcDbLine
 62
7
  6
CONTINUOUS
 10
112.9944873612
 20
48.2014977455
 11
112.9944873612
 21
46.9764977455
  0
LINE
  5
53B
100
AcDbEntity
  8
RACCORDO
100
AcDbLine
 62
7
  6
CONTINUOUS
 10
112.9944873612
 20
14.3514977455
 11
112.9944873612
 21
13.1264977455
  0
LINE
  5
53C
100
AcDbEntity
  8
ASSI
100
AcDbLine
 62
7
  6
CONTINUOUS
 10
112.9944873612
 20
12.1014977455
 11
112.9944873612
 21
11.1014977455
  0
LINE
  5
53D
100
AcDbEntity
  8
RACCORDO
100
AcDbLine
 62
7
  6
CONTINUOUS
 10
112.9944873612
 20
10.0764977455
 11
112.9944873612
 21
8.8514977455
  0
LINE
  5
53E
100
AcDbEntity
  8
RACCORDO
100
AcDbLine
 62
7
  6
CONTINUOUS
 10
112.9944873612
 20
-14.3985022545
 11
112.9944873612
 21
-15.6235022545
  0
LINE
  5
53F
100
AcDbEntity
  8
ASSI
100
AcDbLine
 62
7
  6
CONTINUOUS
 10
112.9944873612
 20
-16.6485022545
 11
112.9944873612
 21
-17.6485022545
  0
LINE
  5
540
100
AcDbEntity
  8
RACCORDO
100
AcDbLine
 62
7
  6
CONTINUOUS
 10
112.9944873612
 20
-18.6735022545
 11
112.9944873612
 21
-19.8985022545
  0
LINE
  5
541
100
AcDbEntity
  8
RACCORDO
100
AcDbLine
 62
7
  6
CONTINUOUS
 10
112.9944873612
 20
-52.5235022545
 11
112.9944873612
 21
-53.7485022545
  0
LINE
  5
542
100
AcDbEntity
  8
ASSI
100
AcDbLine
 62
7
  6
CONTINUOUS
 10
112.9944873612
 20
-54.7735022545
 11
112.9944873612
 21
-55.7735022545
  0
LINE
  5
543
100
AcDbEntity
  8
RACCORDO
100
AcDbLine
 62
7
  6
CONTINUOUS
 10
112.9944873612
 20
-56.7985022545
 11
112.9944873612
 21
-58.0235022545
  0
LINE
  5
544
100
AcDbEntity
  8
RACCORDO
100
AcDbLine
 62
7
  6
CONTINUOUS
 10
112.9944873612
 20
-81.2735022545
 11
112.9944873612
 21
-82.4985022545
  0
LINE
  5
545
100
AcDbEntity
  8
ASSI
100
AcDbLine
 62
7
  6
CONTINUOUS
 10
112.9944873612
 20
-83.5235022545
 11
112.9944873612
 21
-84.5235022545
  0
LINE
  5
546
100
AcDbEntity
  8
RACCORDO
100
AcDbLine
 62
7
  6
CONTINUOUS
 10
112.9944873612
 20
-85.5485022545
 11
112.9944873612
 21
-86.7735022545
  0
LINE
  5
547
100
AcDbEntity
  8
RACCORDO
100
AcDbLine
 62
7
  6
CONTINUOUS
 10
113.0614746593
 20
76.4751546925
 11
113.0614746593
 21
76.4514977455
  0
LINE
  5
548
100
AcDbEntity
  8
RACCORDO
100
AcDbLine
 62
7
  6
CONTINUOUS
 10
113.0614746593
 20
48.2251546925
 11
113.0614746593
 21
48.2014977455
  0
LINE
  5
549
100
AcDbEntity
  8
RACCORDO
100
AcDbLine
 62
7
  6
CONTINUOUS
 10
113.0614746593
 20
-82.5221592016
 11
113.0614746593
 21
-82.4985022545
  0
LINE
  5
54A
100
AcDbEntity
  8
RACCORDO
100
AcDbLine
 62
7
  6
CONTINUOUS
 10
113.0614746593
 20
-53.7721592016
 11
113.0614746593
 21
-53.7485022545
  0
LINE
  5
54B
100
AcDbEntity
  8
RACCORDO
100
AcDbLine
 62
7
  6
CONTINUOUS
 10
113.0614746593
 20
10.1001546925
 11
113.0614746593
 21
10.0764977455
  0
LINE
  5
54C
100
AcDbEntity
  8
RACCORDO
100
AcDbLine
 62
7
  6
CONTINUOUS
 10
113.0614746593
 20
-18.6498453075
 11
113.0614746593
 21
-18.6735022545
  0
LINE
  5
54D
100
AcDbEntity
  8
RACCORDO
100
AcDbLine
 62
7
  6
CONTINUOUS
 10
113.0614746593
 20
-15.6471592016
 11
113.0614746593
 21
-15.6235022545
  0
LINE
  5
54E
100
AcDbEntity
  8
RACCORDO
100
AcDbLine
 62
7
  6
CONTINUOUS
 10
113.0614746593
 20
13.1028407984
 11
113.0614746593
 21
13.1264977455
  0
LINE
  5
54F
100
AcDbEntity
  8
RACCORDO
100
AcDbLine
 62
7
  6
CONTINUOUS
 10
113.0614746593
 20
-56.7748453075
 11
113.0614746593
 21
-56.7985022545
  0
LINE
  5
550
100
AcDbEntity
  8
RACCORDO
100
AcDbLine
 62
7
  6
CONTINUOUS
 10
113.0614746593
 20
-85.5248453075
 11
113.0614746593
 21
-85.5485022545
  0
LINE
  5
551
100
AcDbEntity
  8
RACCORDO
100
AcDbLine
 62
7
  6
CONTINUOUS
 10
113.0614746593
 20
51.2278407984
 11
113.0614746593
 21
51.2514977455
  0
LINE
  5
552
100
AcDbEntity
  8
RACCORDO
100
AcDbLine
 62
7
  6
CONTINUOUS
 10
113.0614746593
 20
79.4778407984
 11
113.0614746593
 21
79.5014977455
  0
LINE
  5
553
100
AcDbEntity
  8
RACCORDO
100
AcDbLine
 62
253
  6
CONTINUOUS
 10
113.4944873612
 20
80.7264977455
 11
113.4944873612
 21
79.3012476454
  0
LINE
  5
554
100
AcDbEntity
  8
RACCORDO
100
AcDbLine
 62
253
  6
CONTINUOUS
 10
113.4944873612
 20
76.6517478455
 11
113.4944873612
 21
75.2264977455
  0
LINE
  5
555
100
AcDbEntity
  8
RACCORDO
100
AcDbLine
 62
253
  6
CONTINUOUS
 10
113.4944873612
 20
52.4764977455
 11
113.4944873612
 21
51.0512476454
  0
LINE
  5
556
100
AcDbEntity
  8
RACCORDO
100
AcDbLine
 62
253
  6
CONTINUOUS
 10
113.4944873612
 20
48.4017478456
 11
113.4944873612
 21
46.9764977455
  0
LINE
  5
557
100
AcDbEntity
  8
ASSI
100
AcDbLine
 62
7
  6
CONTINUOUS
 10
113.4944873612
 20
-85.3482521545
 11
113.4944873612
 21
-84.7237523546
  0
LINE
  5
558
100
AcDbEntity
  8
ASSI
100
AcDbLine
 62
7
  6
CONTINUOUS
 10
113.4944873612
 20
-83.3232521545
 11
113.4944873612
 21
-82.6987523546
  0
LINE
  5
559
100
AcDbEntity
  8
ASSI
100
AcDbLine
 62
7
  6
CONTINUOUS
 10
113.4944873612
 20
-56.5982521545
 11
113.4944873612
 21
-55.9737523546
  0
LINE
  5
55A
100
AcDbEntity
  8
RACCORDO
100
AcDbLine
 62
253
  6
CONTINUOUS
 10
113.4944873612
 20
14.3514977455
 11
113.4944873612
 21
12.9262476454
  0
LINE
  5
55B
100
AcDbEntity
  8
ASSI
100
AcDbLine
 62
7
  6
CONTINUOUS
 10
113.4944873612
 20
-54.5732521545
 11
113.4944873612
 21
-53.9487523546
  0
LINE
  5
55C
100
AcDbEntity
  8
RACCORDO
100
AcDbLine
 62
253
  6
CONTINUOUS
 10
113.4944873612
 20
10.2767478456
 11
113.4944873612
 21
8.8514977455
  0
LINE
  5
55D
100
AcDbEntity
  8
RACCORDO
100
AcDbLine
 62
253
  6
CONTINUOUS
 10
113.4944873612
 20
-14.3985022545
 11
113.4944873612
 21
-15.8237523546
  0
LINE
  5
55E
100
AcDbEntity
  8
RACCORDO
100
AcDbLine
 62
253
  6
CONTINUOUS
 10
113.4944873612
 20
-18.4732521545
 11
113.4944873612
 21
-19.8985022545
  0
LINE
  5
55F
100
AcDbEntity
  8
ASSI
100
AcDbLine
 62
7
  6
CONTINUOUS
 10
113.4944873612
 20
-18.4732521545
 11
113.4944873612
 21
-17.8487523546
  0
LINE
  5
560
100
AcDbEntity
  8
ASSI
100
AcDbLine
 62
7
  6
CONTINUOUS
 10
113.4944873612
 20
-16.4482521545
 11
113.4944873612
 21
-15.8237523546
  0
LINE
  5
561
100
AcDbEntity
  8
ASSI
100
AcDbLine
 62
7
  6
CONTINUOUS
 10
113.4944873612
 20
10.2767478456
 11
113.4944873612
 21
10.9012476454
  0
LINE
  5
562
100
AcDbEntity
  8
RACCORDO
100
AcDbLine
 62
253
  6
CONTINUOUS
 10
113.4944873612
 20
-52.5235022545
 11
113.4944873612
 21
-53.9487523546
  0
LINE
  5
563
100
AcDbEntity
  8
ASSI
100
AcDbLine
 62
7
  6
CONTINUOUS
 10
113.4944873612
 20
12.3017478456
 11
113.4944873612
 21
12.9262476454
  0
LINE
  5
564
100
AcDbEntity
  8
RACCORDO
100
AcDbLine
 62
253
  6
CONTINUOUS
 10
113.4944873612
 20
-56.5982521545
 11
113.4944873612
 21
-58.0235022545
  0
LINE
  5
565
100
AcDbEntity
  8
RACCORDO
100
AcDbLine
 62
253
  6
CONTINUOUS
 10
113.4944873612
 20
-81.2735022545
 11
113.4944873612
 21
-82.6987523546
  0
LINE
  5
566
100
AcDbEntity
  8
RACCORDO
100
AcDbLine
 62
253
  6
CONTINUOUS
 10
113.4944873612
 20
-85.3482521545
 11
113.4944873612
 21
-86.7735022545
  0
LINE
  5
567
100
AcDbEntity
  8
ASSI
100
AcDbLine
 62
7
  6
CONTINUOUS
 10
113.4944873612
 20
48.4017478456
 11
113.4944873612
 21
49.0262476454
  0
LINE
  5
568
100
AcDbEntity
  8
ASSI
100
AcDbLine
 62
7
  6
CONTINUOUS
 10
113.4944873612
 20
50.4267478456
 11
113.4944873612
 21
51.0512476454
  0
LINE
  5
569
100
AcDbEntity
  8
ASSI
100
AcDbLine
 62
7
  6
CONTINUOUS
 10
113.4944873612
 20
76.6517478455
 11
113.4944873612
 21
77.2762476454
  0
LINE
  5
56A
100
AcDbEntity
  8
ASSI
100
AcDbLine
 62
7
  6
CONTINUOUS
 10
113.4944873612
 20
78.6767478455
 11
113.4944873612
 21
79.3012476454
  0
LINE
  5
56B
100
AcDbEntity
  8
RACCORDO
100
AcDbLine
 62
7
  6
CONTINUOUS
 10
113.9194873612
 20
-87.2735022545
 11
113.9194873612
 21
-87.0235022545
  0
LINE
  5
56C
100
AcDbEntity
  8
RACCORDO
100
AcDbLine
 62
7
  6
CONTINUOUS
 10
113.9194873612
 20
-81.0235022545
 11
113.9194873612
 21
-80.7735022545
  0
LINE
  5
56D
100
AcDbEntity
  8
RACCORDO
100
AcDbLine
 62
7
  6
CONTINUOUS
 10
113.9194873612
 20
-58.5235022545
 11
113.9194873612
 21
-58.2735022545
  0
LINE
  5
56E
100
AcDbEntity
  8
RACCORDO
100
AcDbLine
 62
7
  6
CONTINUOUS
 10
113.9194873612
 20
-52.2735022545
 11
113.9194873612
 21
-52.0235022545
  0
LINE
  5
56F
100
AcDbEntity
  8
RACCORDO
100
AcDbLine
 62
7
  6
CONTINUOUS
 10
113.9194873612
 20
-20.3985022545
 11
113.9194873612
 21
-20.1485022545
  0
LINE
  5
570
100
AcDbEntity
  8
RACCORDO
100
AcDbLine
 62
7
  6
CONTINUOUS
 10
113.9194873612
 20
-14.1485022545
 11
113.9194873612
 21
-13.8985022545
  0
LINE
  5
571
100
AcDbEntity
  8
RACCORDO
100
AcDbLine
 62
7
  6
CONTINUOUS
 10
113.9194873612
 20
8.3514977455
 11
113.9194873612
 21
8.6014977455
  0
LINE
  5
572
100
AcDbEntity
  8
RACCORDO
100
AcDbLine
 62
7
  6
CONTINUOUS
 10
113.9194873612
 20
14.6014977455
 11
113.9194873612
 21
14.8514977455
  0
LINE
  5
573
100
AcDbEntity
  8
RACCORDO
100
AcDbLine
 62
7
  6
CONTINUOUS
 10
113.9194873612
 20
46.4764977455
 11
113.9194873612
 21
46.7264977455
  0
LINE
  5
574
100
AcDbEntity
  8
RACCORDO
100
AcDbLine
 62
7
  6
CONTINUOUS
 10
113.9194873612
 20
52.7264977455
 11
113.9194873612
 21
52.9764977455
  0
LINE
  5
575
100
AcDbEntity
  8
RACCORDO
100
AcDbLine
 62
7
  6
CONTINUOUS
 10
113.9194873612
 20
74.7264977455
 11
113.9194873612
 21
74.9764977455
  0
LINE
  5
576
100
AcDbEntity
  8
RACCORDO
100
AcDbLine
 62
7
  6
CONTINUOUS
 10
113.9194873612
 20
80.9764977455
 11
113.9194873612
 21
81.2264977455
  0
LINE
  5
577
100
AcDbEntity
  8
0
100
AcDbLine
 62
7
  6
CONTINUOUS
 10
113.9944873612
 20
88.8514977455
 11
113.9944873612
 21
84.3514977455
  0
LINE
  5
578
100
AcDbEntity
  8
0
100
AcDbLine
 62
7
  6
CONTINUOUS
 10
113.9944873612
 20
43.8514977455
 11
113.9944873612
 21
39.3514977455
  0
LINE
  5
579
100
AcDbEntity
  8
0
100
AcDbLine
 62
7
  6
CONTINUOUS
 10
113.9944873612
 20
21.9764977455
 11
113.9944873612
 21
17.4764977455
  0
LINE
  5
57A
100
AcDbEntity
  8
0
100
AcDbLine
 62
7
  6
CONTINUOUS
 10
113.9944873612
 20
-23.0235022545
 11
113.9944873612
 21
-27.5235022545
  0
LINE
  5
57B
100
AcDbEntity
  8
0
100
AcDbLine
 62
7
  6
CONTINUOUS
 10
113.9944873612
 20
-44.8985022545
 11
113.9944873612
 21
-49.3985022545
  0
LINE
  5
57C
100
AcDbEntity
  8
0
100
AcDbLine
 62
7
  6
CONTINUOUS
 10
113.9944873612
 20
-89.8985022545
 11
113.9944873612
 21
-94.3985022545
  0
LINE
  5
57D
100
AcDbEntity
  8
0
100
AcDbLine
 62
7
  6
CONTINUOUS
 10
202.0444873612
 20
-2.7068355879
 11
202.5444873612
 21
-2.4235022545
  0
LINE
  5
57E
100
AcDbEntity
  8
RACCORDO
100
AcDbLine
 62
7
  6
CONTINUOUS
 10
119.2444873612
 20
-58.0235022545
 11
118.5694873612
 21
-58.2735022545
  0
LINE
  5
57F
100
AcDbEntity
  8
RACCORDO
100
AcDbLine
 62
7
  6
CONTINUOUS
 10
113.2444873612
 20
-81.2735022545
 11
113.9194873612
 21
-81.0235022545
  0
LINE
  5
580
100
AcDbEntity
  8
ASSI
100
AcDbLine
 62
7
  6
CONTINUOUS
 10
112.9944873612
 20
-83.5235022545
 11
113.3776873598
 21
-83.3881729856
  0
LINE
  5
581
100
AcDbEntity
  8
RACCORDO
100
AcDbLine
 62
7
  6
CONTINUOUS
 10
119.1112873625
 20
-82.6338315235
 11
119.4275000631
 21
-82.5221592016
  0
LINE
  5
582
100
AcDbEntity
  8
RACCORDO
100
AcDbLine
 62
7
  6
CONTINUOUS
 10
110.7444873612
 20
96.1014977455
 11
110.1944841109
 21
96.1014977455
  0
LINE
  5
583
100
AcDbEntity
  8
RACCORDO
100
AcDbLine
 62
253
  6
CONTINUOUS
 10
-110.2055093886
 20
96.1014977455
 11
110.1944841109
 21
96.1014977455
  0
LINE
  5
584
100
AcDbEntity
  8
RACCORDO
100
AcDbLine
 62
7
  6
CONTINUOUS
 10
-110.2055093886
 20
96.1014977455
 11
-110.7555126388
 21
96.1014977455
  0
LINE
  5
585
100
AcDbEntity
  8
RACCORDO
100
AcDbLine
 62
7
  6
CONTINUOUS
 10
109.9944873612
 20
96.3514977455
 11
-110.0055126388
 21
96.3514977455
  0
LINE
  5
586
100
AcDbEntity
  8
0
100
AcDbLine
 62
7
  6
CONTINUOUS
 10
112.4944873612
 20
96.9014977455
 11
109.9944873612
 21
96.9014977455
  0
LINE
  5
587
100
AcDbEntity
  8
0
100
AcDbLine
 62
7
  6
CONTINUOUS
 10
-110.0055126388
 20
96.9014977455
 11
-112.5055126388
 21
96.9014977455
  0
LINE
  5
588
100
AcDbEntity
  8
RACCORDO
100
AcDbLine
 62
7
  6
CONTINUOUS
 10
-110.0055126388
 20
97.1014977455
 11
109.9944873612
 21
97.1014977455
  0
LINE
  5
589
100
AcDbEntity
  8
ASSI
100
AcDbLine
 62
7
  6
CONTINUOUS
 10
113.3776873598
 20
77.3411684765
 11
112.9944873612
 21
77.4764977455
  0
LINE
  5
58A
100
AcDbEntity
  8
RACCORDO
100
AcDbLine
 62
7
  6
CONTINUOUS
 10
119.1112873625
 20
76.5868270144
 11
119.4275000631
 21
76.4751546925
  0
LINE
  5
58B
100
AcDbEntity
  8
RACCORDO
100
AcDbLine
 62
7
  6
CONTINUOUS
 10
113.3776873598
 20
79.3661684765
 11
113.0614746593
 21
79.4778407984
  0
LINE
  5
58C
100
AcDbEntity
  8
ASSI
100
AcDbLine
 62
7
  6
CONTINUOUS
 10
119.1112873625
 20
78.6118270144
 11
119.4944873612
 21
78.4764977455
  0
LINE
  5
58D
100
AcDbEntity
  8
RACCORDO
100
AcDbLine
 62
7
  6
CONTINUOUS
 10
113.9194873612
 20
74.9764977455
 11
113.2444873612
 21
75.2264977455
  0
LINE
  5
58E
100
AcDbEntity
  8
RACCORDO
100
AcDbLine
 62
7
  6
CONTINUOUS
 10
118.5694873612
 20
80.9764977455
 11
119.2444873612
 21
80.7264977455
  0
LINE
  5
58F
100
AcDbEntity
  8
0
100
AcDbLine
 62
7
  6
CONTINUOUS
 10
202.0444873612
 20
5.0098310788
 11
202.5444873612
 21
4.7264977455
  0
LINE
  5
590
100
AcDbEntity
  8
RACCORDO
100
AcDbLine
 62
7
  6
CONTINUOUS
 10
113.4944873612
 20
52.4764977455
 11
113.4269197936
 21
52.544065313
  0
LINE
  5
591
100
AcDbEntity
  8
RACCORDO
100
AcDbLine
 62
7
  6
CONTINUOUS
 10
118.9944873612
 20
46.9764977455
 11
119.0620549287
 21
46.9089301779
  0
LINE
  5
592
100
AcDbEntity
  8
RACCORDO
100
AcDbLine
 62
253
  6
CONTINUOUS
 10
171.0694873618
 20
-249.4983396841
 11
171.1291632537
 21
-249.7383292057
  0
LWPOLYLINE
  5
593
100
AcDbEntity
  8
RACCORDO
100
AcDbPolyline
 62
253
  6
CONTINUOUS
 90
10
 70
0
 10
154.0694875646
 20
-249.3317499932
 10
154.0714830852
 20
-249.3630906393
 10
154.0774378411
 20
-249.3939309531
 10
154.0872567684
 20
-249.4237785881
 10
154.100783114
 20
-249.4521570455
 10
154.1178009383
 20
-249.4786132808
 10
154.1380385623
 20
-249.5027249367
 10
154.1611729049
 20
-249.5241070856
 10
154.1868346406
 20
-249.5424183747
 10
154.214614096
 20
-249.5573664759
  0
LINE
  5
594
100
AcDbEntity
  8
0
100
AcDbLine
 62
7
  6
CONTINUOUS
 10
118.4944873612
 20
-94.3985022545
 11
118.4944873612
 21
-89.8985022545
  0
LINE
  5
595
100
AcDbEntity
  8
0
100
AcDbLine
 62
7
  6
CONTINUOUS
 10
118.4944873612
 20
-49.3985022545
 11
118.4944873612
 21
-44.8985022545
  0
LINE
  5
596
100
AcDbEntity
  8
0
100
AcDbLine
 62
7
  6
CONTINUOUS
 10
118.4944873612
 20
-27.5235022545
 11
118.4944873612
 21
-23.0235022545
  0
LINE
  5
597
100
AcDbEntity
  8
0
100
AcDbLine
 62
7
  6
CONTINUOUS
 10
118.4944873612
 20
17.4764977455
 11
118.4944873612
 21
21.9764977455
  0
LINE
  5
598
100
AcDbEntity
  8
0
100
AcDbLine
 62
7
  6
CONTINUOUS
 10
118.4944873612
 20
39.3514977455
 11
118.4944873612
 21
43.8514977455
  0
LINE
  5
599
100
AcDbEntity
  8
0
100
AcDbLine
 62
7
  6
CONTINUOUS
 10
118.4944873612
 20
84.3514977455
 11
118.4944873612
 21
88.8514977455
  0
LINE
  5
59A
100
AcDbEntity
  8
RACCORDO
100
AcDbLine
 62
7
  6
CONTINUOUS
 10
118.5694873612
 20
81.2264977455
 11
118.5694873612
 21
80.9764977455
  0
LINE
  5
59B
100
AcDbEntity
  8
RACCORDO
100
AcDbLine
 62
7
  6
CONTINUOUS
 10
118.5694873612
 20
74.9764977455
 11
118.5694873612
 21
74.7264977455
  0
LINE
  5
59C
100
AcDbEntity
  8
RACCORDO
100
AcDbLine
 62
7
  6
CONTINUOUS
 10
118.5694873612
 20
52.9764977455
 11
118.5694873612
 21
52.7264977455
  0
LINE
  5
59D
100
AcDbEntity
  8
RACCORDO
100
AcDbLine
 62
7
  6
CONTINUOUS
 10
118.5694873612
 20
46.7264977455
 11
118.5694873612
 21
46.4764977455
  0
LINE
  5
59E
100
AcDbEntity
  8
RACCORDO
100
AcDbLine
 62
7
  6
CONTINUOUS
 10
118.5694873612
 20
14.8514977455
 11
118.5694873612
 21
14.6014977455
  0
LINE
  5
59F
100
AcDbEntity
  8
RACCORDO
100
AcDbLine
 62
7
  6
CONTINUOUS
 10
118.5694873612
 20
8.6014977455
 11
118.5694873612
 21
8.3514977455
  0
LINE
  5
5A0
100
AcDbEntity
  8
RACCORDO
100
AcDbLine
 62
7
  6
CONTINUOUS
 10
118.5694873612
 20
-13.8985022545
 11
118.5694873612
 21
-14.1485022545
  0
LINE
  5
5A1
100
AcDbEntity
  8
RACCORDO
100
AcDbLine
 62
7
  6
CONTINUOUS
 10
118.5694873612
 20
-20.1485022545
 11
118.5694873612
 21
-20.3985022545
  0
LINE
  5
5A2
100
AcDbEntity
  8
RACCORDO
100
AcDbLine
 62
7
  6
CONTINUOUS
 10
118.5694873612
 20
-52.0235022545
 11
118.5694873612
 21
-52.2735022545
  0
LINE
  5
5A3
100
AcDbEntity
  8
RACCORDO
100
AcDbLine
 62
7
  6
CONTINUOUS
 10
118.5694873612
 20
-58.2735022545
 11
118.5694873612
 21
-58.5235022545
  0
LINE
  5
5A4
100
AcDbEntity
  8
RACCORDO
100
AcDbLine
 62
7
  6
CONTINUOUS
 10
118.5694873612
 20
-80.7735022545
 11
118.5694873612
 21
-81.0235022545
  0
LINE
  5
5A5
100
AcDbEntity
  8
RACCORDO
100
AcDbLine
 62
7
  6
CONTINUOUS
 10
118.5694873612
 20
-87.0235022545
 11
118.5694873612
 21
-87.2735022545
  0
LINE
  5
5A6
100
AcDbEntity
  8
RACCORDO
100
AcDbLine
 62
253
  6
CONTINUOUS
 10
118.9944873612
 20
-86.7735022545
 11
118.9944873612
 21
-85.3482521545
  0
LINE
  5
5A7
100
AcDbEntity
  8
ASSI
100
AcDbLine
 62
7
  6
CONTINUOUS
 10
118.9944873612
 20
-85.3482521545
 11
118.9944873612
 21
-84.7237523546
  0
LINE
  5
5A8
100
AcDbEntity
  8
ASSI
100
AcDbLine
 62
7
  6
CONTINUOUS
 10
118.9944873612
 20
-83.3232521545
 11
118.9944873612
 21
-82.6987523546
  0
LINE
  5
5A9
100
AcDbEntity
  8
RACCORDO
100
AcDbLine
 62
253
  6
CONTINUOUS
 10
118.9944873612
 20
-82.6987523546
 11
118.9944873612
 21
-81.2735022545
  0
LINE
  5
5AA
100
AcDbEntity
  8
RACCORDO
100
AcDbLine
 62
253
  6
CONTINUOUS
 10
118.9944873612
 20
-58.0235022545
 11
118.9944873612
 21
-56.5982521545
  0
LINE
  5
5AB
100
AcDbEntity
  8
ASSI
100
AcDbLine
 62
7
  6
CONTINUOUS
 10
118.9944873612
 20
-56.5982521545
 11
118.9944873612
 21
-55.9737523546
  0
LINE
  5
5AC
100
AcDbEntity
  8
ASSI
100
AcDbLine
 62
7
  6
CONTINUOUS
 10
118.9944873612
 20
-54.5732521545
 11
118.9944873612
 21
-53.9487523546
  0
LINE
  5
5AD
100
AcDbEntity
  8
RACCORDO
100
AcDbLine
 62
253
  6
CONTINUOUS
 10
118.9944873612
 20
-53.9487523546
 11
118.9944873612
 21
-52.5235022545
  0
LINE
  5
5AE
100
AcDbEntity
  8
RACCORDO
100
AcDbLine
 62
253
  6
CONTINUOUS
 10
118.9944873612
 20
-19.8985022545
 11
118.9944873612
 21
-18.4732521545
  0
LINE
  5
5AF
100
AcDbEntity
  8
ASSI
100
AcDbLine
 62
7
  6
CONTINUOUS
 10
118.9944873612
 20
-18.4732521545
 11
118.9944873612
 21
-17.8487523546
  0
LINE
  5
5B0
100
AcDbEntity
  8
ASSI
100
AcDbLine
 62
7
  6
CONTINUOUS
 10
118.9944873612
 20
-16.4482521545
 11
118.9944873612
 21
-15.8237523546
  0
LINE
  5
5B1
100
AcDbEntity
  8
RACCORDO
100
AcDbLine
 62
253
  6
CONTINUOUS
 10
118.9944873612
 20
-15.8237523546
 11
118.9944873612
 21
-14.3985022545
  0
LINE
  5
5B2
100
AcDbEntity
  8
RACCORDO
100
AcDbLine
 62
253
  6
CONTINUOUS
 10
118.9944873612
 20
8.8514977455
 11
118.9944873612
 21
10.2767478456
  0
LINE
  5
5B3
100
AcDbEntity
  8
ASSI
100
AcDbLine
 62
7
  6
CONTINUOUS
 10
118.9944873612
 20
10.2767478456
 11
118.9944873612
 21
10.9012476454
  0
LINE
  5
5B4
100
AcDbEntity
  8
ASSI
100
AcDbLine
 62
7
  6
CONTINUOUS
 10
118.9944873612
 20
12.3017478456
 11
118.9944873612
 21
12.9262476454
  0
LINE
  5
5B5
100
AcDbEntity
  8
RACCORDO
100
AcDbLine
 62
253
  6
CONTINUOUS
 10
118.9944873612
 20
12.9262476454
 11
118.9944873612
 21
14.3514977455
  0
LINE
  5
5B6
100
AcDbEntity
  8
RACCORDO
100
AcDbLine
 62
253
  6
CONTINUOUS
 10
118.9944873612
 20
46.9764977455
 11
118.9944873612
 21
48.4017478456
  0
LINE
  5
5B7
100
AcDbEntity
  8
ASSI
100
AcDbLine
 62
7
  6
CONTINUOUS
 10
118.9944873612
 20
48.4017478456
 11
118.9944873612
 21
49.0262476454
  0
LINE
  5
5B8
100
AcDbEntity
  8
ASSI
100
AcDbLine
 62
7
  6
CONTINUOUS
 10
118.9944873612
 20
50.4267478456
 11
118.9944873612
 21
51.0512476454
  0
LINE
  5
5B9
100
AcDbEntity
  8
RACCORDO
100
AcDbLine
 62
253
  6
CONTINUOUS
 10
118.9944873612
 20
51.0512476454
 11
118.9944873612
 21
52.4764977455
  0
LINE
  5
5BA
100
AcDbEntity
  8
RACCORDO
100
AcDbLine
 62
253
  6
CONTINUOUS
 10
118.9944873612
 20
75.2264977455
 11
118.9944873612
 21
76.6517478455
  0
LINE
  5
5BB
100
AcDbEntity
  8
ASSI
100
AcDbLine
 62
7
  6
CONTINUOUS
 10
118.9944873612
 20
76.6517478455
 11
118.9944873612
 21
77.2762476454
  0
LINE
  5
5BC
100
AcDbEntity
  8
ASSI
100
AcDbLine
 62
7
  6
CONTINUOUS
 10
118.9944873612
 20
78.6767478455
 11
118.9944873612
 21
79.3012476454
  0
LINE
  5
5BD
100
AcDbEntity
  8
RACCORDO
100
AcDbLine
 62
253
  6
CONTINUOUS
 10
118.9944873612
 20
79.3012476454
 11
118.9944873612
 21
80.7264977455
  0
LINE
  5
5BE
100
AcDbEntity
  8
RACCORDO
100
AcDbLine
 62
7
  6
CONTINUOUS
 10
119.4275000631
 20
76.4751546925
 11
119.4275000631
 21
76.4514977455
  0
LINE
  5
5BF
100
AcDbEntity
  8
RACCORDO
100
AcDbLine
 62
7
  6
CONTINUOUS
 10
119.4275000631
 20
48.2251546925
 11
119.4275000631
 21
48.2014977455
  0
LINE
  5
5C0
100
AcDbEntity
  8
RACCORDO
100
AcDbLine
 62
7
  6
CONTINUOUS
 10
119.4275000631
 20
-82.5221592016
 11
119.4275000631
 21
-82.4985022545
  0
LINE
  5
5C1
100
AcDbEntity
  8
RACCORDO
100
AcDbLine
 62
7
  6
CONTINUOUS
 10
119.4275000631
 20
-53.7721592016
 11
119.4275000631
 21
-53.7485022545
  0
LINE
  5
5C2
100
AcDbEntity
  8
RACCORDO
100
AcDbLine
 62
7
  6
CONTINUOUS
 10
119.4275000631
 20
10.1001546925
 11
119.4275000631
 21
10.0764977455
  0
LINE
  5
5C3
100
AcDbEntity
  8
RACCORDO
100
AcDbLine
 62
7
  6
CONTINUOUS
 10
119.4275000631
 20
-18.6498453075
 11
119.4275000631
 21
-18.6735022545
  0
LINE
  5
5C4
100
AcDbEntity
  8
RACCORDO
100
AcDbLine
 62
7
  6
CONTINUOUS
 10
119.4275000631
 20
-15.6471592016
 11
119.4275000631
 21
-15.6235022545
  0
LINE
  5
5C5
100
AcDbEntity
  8
RACCORDO
100
AcDbLine
 62
7
  6
CONTINUOUS
 10
119.4275000631
 20
13.1028407984
 11
119.4275000631
 21
13.1264977455
  0
LINE
  5
5C6
100
AcDbEntity
  8
RACCORDO
100
AcDbLine
 62
7
  6
CONTINUOUS
 10
119.4275000631
 20
-56.7748453075
 11
119.4275000631
 21
-56.7985022545
  0
LINE
  5
5C7
100
AcDbEntity
  8
RACCORDO
100
AcDbLine
 62
7
  6
CONTINUOUS
 10
119.4275000631
 20
-85.5248453075
 11
119.4275000631
 21
-85.5485022545
  0
LINE
  5
5C8
100
AcDbEntity
  8
RACCORDO
100
AcDbLine
 62
7
  6
CONTINUOUS
 10
119.4275000631
 20
51.2278407984
 11
119.4275000631
 21
51.2514977455
  0
LINE
  5
5C9
100
AcDbEntity
  8
RACCORDO
100
AcDbLine
 62
7
  6
CONTINUOUS
 10
119.4275000631
 20
79.4778407984
 11
119.4275000631
 21
79.5014977455
  0
LINE
  5
5CA
100
AcDbEntity
  8
RACCORDO
100
AcDbLine
 62
7
  6
CONTINUOUS
 10
119.4944873612
 20
-86.7735022545
 11
119.4944873612
 21
-85.5485022545
  0
LINE
  5
5CB
100
AcDbEntity
  8
ASSI
100
AcDbLine
 62
7
  6
CONTINUOUS
 10
119.4944873612
 20
-84.5235022545
 11
119.4944873612
 21
-83.5235022545
  0
LINE
  5
5CC
100
AcDbEntity
  8
RACCORDO
100
AcDbLine
 62
7
  6
CONTINUOUS
 10
119.4944873612
 20
-82.4985022545
 11
119.4944873612
 21
-81.2735022545
  0
LINE
  5
5CD
100
AcDbEntity
  8
RACCORDO
100
AcDbLine
 62
7
  6
CONTINUOUS
 10
119.4944873612
 20
-58.0235022545
 11
119.4944873612
 21
-56.7985022545
  0
LINE
  5
5CE
100
AcDbEntity
  8
ASSI
100
AcDbLine
 62
7
  6
CONTINUOUS
 10
119.4944873612
 20
-55.7735022545
 11
119.4944873612
 21
-54.7735022545
  0
LINE
  5
5CF
100
AcDbEntity
  8
RACCORDO
100
AcDbLine
 62
7
  6
CONTINUOUS
 10
119.4944873612
 20
-53.7485022545
 11
119.4944873612
 21
-52.5235022545
  0
LINE
  5
5D0
100
AcDbEntity
  8
RACCORDO
100
AcDbLine
 62
7
  6
CONTINUOUS
 10
119.4944873612
 20
-19.8985022545
 11
119.4944873612
 21
-18.6735022545
  0
LINE
  5
5D1
100
AcDbEntity
  8
ASSI
100
AcDbLine
 62
7
  6
CONTINUOUS
 10
119.4944873612
 20
-17.6485022545
 11
119.4944873612
 21
-16.6485022545
  0
LINE
  5
5D2
100
AcDbEntity
  8
RACCORDO
100
AcDbLine
 62
7
  6
CONTINUOUS
 10
119.4944873612
 20
-15.6235022545
 11
119.4944873612
 21
-14.3985022545
  0
LINE
  5
5D3
100
AcDbEntity
  8
RACCORDO
100
AcDbLine
 62
7
  6
CONTINUOUS
 10
119.4944873612
 20
8.8514977455
 11
119.4944873612
 21
10.0764977455
  0
LINE
  5
5D4
100
AcDbEntity
  8
ASSI
100
AcDbLine
 62
7
  6
CONTINUOUS
 10
119.4944873612
 20
11.1014977455
 11
119.4944873612
 21
12.1014977455
  0
LINE
  5
5D5
100
AcDbEntity
  8
RACCORDO
100
AcDbLine
 62
7
  6
CONTINUOUS
 10
119.4944873612
 20
13.1264977455
 11
119.4944873612
 21
14.3514977455
  0
LINE
  5
5D6
100
AcDbEntity
  8
RACCORDO
100
AcDbLine
 62
7
  6
CONTINUOUS
 10
119.4944873612
 20
46.9764977455
 11
119.4944873612
 21
48.2014977455
  0
LINE
  5
5D7
100
AcDbEntity
  8
ASSI
100
AcDbLine
 62
7
  6
CONTINUOUS
 10
119.4944873612
 20
49.2264977455
 11
119.4944873612
 21
50.2264977455
  0
LINE
  5
5D8
100
AcDbEntity
  8
RACCORDO
100
AcDbLine
 62
7
  6
CONTINUOUS
 10
119.4944873612
 20
51.2514977455
 11
119.4944873612
 21
52.4764977455
  0
LINE
  5
5D9
100
AcDbEntity
  8
RACCORDO
100
AcDbLine
 62
7
  6
CONTINUOUS
 10
119.4944873612
 20
75.2264977455
 11
119.4944873612
 21
76.4514977455
  0
LINE
  5
5DA
100
AcDbEntity
  8
ASSI
100
AcDbLine
 62
7
  6
CONTINUOUS
 10
119.4944873612
 20
77.4764977455
 11
119.4944873612
 21
78.4764977455
  0
LINE
  5
5DB
100
AcDbEntity
  8
RACCORDO
100
AcDbLine
 62
7
  6
CONTINUOUS
 10
119.4944873612
 20
79.5014977455
 11
119.4944873612
 21
80.7264977455
  0
LINE
  5
5DC
100
AcDbEntity
  8
RACCORDO
100
AcDbLine
 62
7
  6
CONTINUOUS
 10
119.0620549287
 20
-52.455934687
 11
118.9944873612
 21
-52.5235022545
  0
LINE
  5
5DD
100
AcDbEntity
  8
RACCORDO
100
AcDbLine
 62
7
  6
CONTINUOUS
 10
113.4269197936
 20
-58.0910698221
 11
113.4944873612
 21
-58.0235022545
  0
LINE
  5
5DE
100
AcDbEntity
  8
RACCORDO
100
AcDbLine
 62
7
  6
CONTINUOUS
 10
119.2444873612
 20
-86.7735022545
 11
118.5694873612
 21
-87.0235022545
  0
LINE
  5
5DF
100
AcDbEntity
  8
RACCORDO
100
AcDbLine
 62
7
  6
CONTINUOUS
 10
113.3776873598
 20
-85.4131729856
 11
113.0614746593
 21
-85.5248453075
  0
LINE
  5
5E0
100
AcDbEntity
  8
ASSI
100
AcDbLine
 62
7
  6
CONTINUOUS
 10
119.4944873612
 20
-84.5235022545
 11
119.1112873625
 21
-84.6588315235
  0
LINE
  5
5E1
100
AcDbEntity
  8
RACCORDO
100
AcDbLine
 62
7
  6
CONTINUOUS
 10
113.4944873612
 20
80.7264977455
 11
113.4269197936
 21
80.794065313
  0
LINE
  5
5E2
100
AcDbEntity
  8
RACCORDO
100
AcDbLine
 62
7
  6
CONTINUOUS
 10
118.9944873612
 20
75.2264977455
 11
119.0620549287
 21
75.1589301779
  0
LWPOLYLINE
  5
5E3
100
AcDbEntity
  8
RACCORDO
100
AcDbPolyline
 62
253
  6
CONTINUOUS
 90
10
 70
0
 10
171.9243605884
 20
-249.5573662559
 10
171.9315929839
 20
-249.6343801747
 10
171.9397791908
 20
-249.7028059128
 10
171.9484353246
 20
-249.7625431622
 10
171.9563644387
 20
-249.8139749728
 10
171.9637288278
 20
-249.8566550782
 10
171.9718480948
 20
-249.889085056
 10
171.9805708703
 20
-249.9105979137
 10
171.9884072824
 20
-249.9215833738
 10
171.9945059216
 20
-249.9220156758
  0
LINE
  5
5E4
100
AcDbEntity
  8
RACCORDO
100
AcDbLine
 62
7
  6
CONTINUOUS
 10
154.0694873612
 20
-248.8485022545
 11
154.0694873612
 21
-249.7434961033
  0
LINE
  5
5E5
100
AcDbEntity
  8
RACCORDO
100
AcDbLine
 62
253
  6
CONTINUOUS
 10
155.0694873612
 20
-248.8485022545
 11
155.0694873612
 21
-249.4983396761
  0
LINE
  5
5E6
100
AcDbEntity
  8
0
100
AcDbLine
 62
7
  6
CONTINUOUS
 10
157.4694873612
 20
-252.3485022545
 11
157.4694873612
 21
-252.8485022545
  0
LINE
  5
5E7
100
AcDbEntity
  8
ASSI
100
AcDbLine
 62
7
  6
CONTINUOUS
 10
161.7444873612
 20
-267.6985022545
 11
161.7444873612
 21
-259.169381517
  0
LINE
  5
5E8
100
AcDbEntity
  8
0
100
AcDbLine
 62
7
  6
CONTINUOUS
 10
161.7444873612
 20
-259.169381517
 11
161.7444873612
 21
-256.0985022545
  0
LINE
  5
5E9
100
AcDbEntity
  8
0
100
AcDbLine
 62
7
  6
CONTINUOUS
 10
162.5694873612
 20
-256.0985022545
 11
162.5694873612
 21
-253.5985022545
  0
LINE
  5
5EA
100
AcDbEntity
  8
0
100
AcDbLine
 62
7
  6
CONTINUOUS
 10
163.5694873612
 20
-256.0985022545
 11
163.5694873612
 21
-253.5985022545
  0
LINE
  5
5EB
100
AcDbEntity
  8
RACCORDO
100
AcDbLine
 62
253
  6
CONTINUOUS
 10
156.2404290516
 20
-249.6445202491
 11
156.2395622912
 21
-249.8894456712
  0
LINE
  5
5EC
100
AcDbEntity
  8
RACCORDO
100
AcDbLine
 62
7
  6
CONTINUOUS
 10
119.0620549287
 20
-81.205934687
 11
118.9944873612
 21
-81.2735022545
  0
LINE
  5
5ED
100
AcDbEntity
  8
RACCORDO
100
AcDbLine
 62
7
  6
CONTINUOUS
 10
113.4269197936
 20
-86.8410698221
 11
113.4944873612
 21
-86.7735022545
  0
LINE
  5
5EE
100
AcDbEntity
  8
0
100
AcDbLine
 62
7
  6
CONTINUOUS
 10
201.2444873612
 20
-4.3485022545
 11
202.0444873612
 21
-3.5985022545
  0
LINE
  5
5EF
100
AcDbEntity
  8
0
100
AcDbLine
 62
7
  6
CONTINUOUS
 10
201.2444873612
 20
6.6514977455
 11
202.0444873612
 21
5.9014977455
  0
LINE
  5
5F0
100
AcDbEntity
  8
RACCORDO
100
AcDbLine
 62
253
  6
CONTINUOUS
 10
169.8985457194
 20
-249.6445202403
 11
169.8994124841
 21
-249.8894433282
  0
LINE
  5
5F1
100
AcDbEntity
  8
ASSI
100
AcDbLine
 62
7
  6
CONTINUOUS
 10
164.3944873612
 20
-267.6985022545
 11
164.3944873612
 21
-259.169381517
  0
LINE
  5
5F2
100
AcDbEntity
  8
0
100
AcDbLine
 62
7
  6
CONTINUOUS
 10
164.3944873612
 20
-259.169381517
 11
164.3944873612
 21
-256.0985022545
  0
LINE
  5
5F3
100
AcDbEntity
  8
0
100
AcDbLine
 62
7
  6
CONTINUOUS
 10
168.6694873612
 20
-252.3485022545
 11
168.6694873612
 21
-252.8485022545
  0
LINE
  5
5F4
100
AcDbEntity
  8
RACCORDO
100
AcDbLine
 62
253
  6
CONTINUOUS
 10
171.0694873612
 20
-249.4983396844
 11
171.0694873612
 21
-248.8485022545
  0
LINE
  5
5F5
100
AcDbEntity
  8
RACCORDO
100
AcDbLine
 62
7
  6
CONTINUOUS
 10
172.0694873612
 20
-248.8485022545
 11
172.0694873612
 21
-249.7434970568
  0
LINE
  5
5F6
100
AcDbEntity
  8
0
100
AcDbLine
 62
7
  6
CONTINUOUS
 10
176.9944873612
 20
251.1514977455
 11
176.9944873612
 21
250.1514977455
  0
LINE
  5
5F7
100
AcDbEntity
  8
0
100
AcDbLine
 62
7
  6
CONTINUOUS
 10
176.9944873612
 20
-247.8485022545
 11
176.9944873612
 21
-248.8485022545
  0
LINE
  5
5F8
100
AcDbEntity
  8
0
100
AcDbLine
 62
7
  6
CONTINUOUS
 10
177.2444873612
 20
-248.1985022545
 11
177.2444873612
 21
-247.8485022545
  0
LINE
  5
5F9
100
AcDbEntity
  8
0
100
AcDbLine
 62
253
  6
CONTINUOUS
 10
178.7444873612
 20
251.1514977455
 11
178.7444873612
 21
250.1514977455
  0
LINE
  5
5FA
100
AcDbEntity
  8
0
100
AcDbLine
 62
253
  6
CONTINUOUS
 10
178.7444873612
 20
-248.8485022545
 11
178.7444873612
 21
-247.8485022545
  0
LINE
  5
5FB
100
AcDbEntity
  8
0
100
AcDbLine
 62
7
  6
CONTINUOUS
 10
179.9944873612
 20
251.1514977455
 11
179.9944873612
 21
250.1514977455
  0
LINE
  5
5FC
100
AcDbEntity
  8
0
100
AcDbLine
 62
7
  6
CONTINUOUS
 10
179.9944873612
 20
-248.8485022545
 11
179.9944873612
 21
-247.8485022545
  0
LINE
  5
5FD
100
AcDbEntity
  8
RACCORDO
100
AcDbLine
 62
7
  6
CONTINUOUS
 10
182.6194873612
 20
213.6514977455
 11
182.6194873612
 21
187.1514977455
  0
LINE
  5
5FE
100
AcDbEntity
  8
RACCORDO
100
AcDbLine
 62
7
  6
CONTINUOUS
 10
182.6194873612
 20
-184.8485022545
 11
182.6194873612
 21
-211.3485022545
  0
LINE
  5
5FF
100
AcDbEntity
  8
0
100
AcDbLine
 62
7
  6
CONTINUOUS
 10
183.4944873612
 20
-206.0985022545
 11
183.4944873612
 21
-204.0985022545
  0
LINE
  5
600
100
AcDbEntity
  8
0
100
AcDbLine
 62
7
  6
CONTINUOUS
 10
183.4944873612
 20
206.4014977455
 11
183.4944873612
 21
208.4014977455
  0
LINE
  5
601
100
AcDbEntity
  8
0
100
AcDbLine
 62
7
  6
CONTINUOUS
 10
183.7444873612
 20
-206.3485022545
 11
183.7444873612
 21
-203.8485022545
  0
LINE
  5
602
100
AcDbEntity
  8
0
100
AcDbLine
 62
7
  6
CONTINUOUS
 10
183.7444873612
 20
206.1514977455
 11
183.7444873612
 21
208.6514977455
  0
LINE
  5
603
100
AcDbEntity
  8
RACCORDO
100
AcDbLine
 62
7
  6
CONTINUOUS
 10
184.1194873612
 20
-211.3485022545
 11
184.1194873612
 21
-184.8485022545
  0
LINE
  5
604
100
AcDbEntity
  8
RACCORDO
100
AcDbLine
 62
7
  6
CONTINUOUS
 10
184.1194873612
 20
187.1514977455
 11
184.1194873612
 21
213.6514977455
  0
LINE
  5
605
100
AcDbEntity
  8
0
100
AcDbLine
 62
7
  6
CONTINUOUS
 10
-75.0055126388
 20
180.4014977455
 11
74.9944873612
 21
180.4014977455
  0
LINE
  5
606
100
AcDbEntity
  8
0
100
AcDbLine
 62
7
  6
CONTINUOUS
 10
198.9944873612
 20
231.1514977455
 11
198.9944873612
 21
228.6514977455
  0
LINE
  5
607
100
AcDbEntity
  8
0
100
AcDbLine
 62
253
  6
CONTINUOUS
 10
198.9944873612
 20
228.6514977455
 11
198.9944873612
 21
7.8976985063
  0
LINE
  5
608
100
AcDbEntity
  8
0
100
AcDbLine
 62
253
  6
CONTINUOUS
 10
198.9944873612
 20
-5.5947030154
 11
198.9944873612
 21
-226.3485022545
  0
LINE
  5
609
100
AcDbEntity
  8
0
100
AcDbLine
 62
7
  6
CONTINUOUS
 10
198.9944873612
 20
-226.3485022545
 11
198.9944873612
 21
-228.8485022545
  0
LINE
  5
60A
100
AcDbEntity
  8
RACCORDO
100
AcDbLine
 62
7
  6
CONTINUOUS
 10
199.9944873612
 20
249.6514977455
 11
199.9944873612
 21
231.1514977455
  0
LINE
  5
60B
100
AcDbEntity
  8
0
100
AcDbLine
 62
7
  6
CONTINUOUS
 10
199.9944873612
 20
228.6514977455
 11
199.9944873612
 21
6.3004021379
  0
LINE
  5
60C
100
AcDbEntity
  8
0
100
AcDbLine
 62
7
  6
CONTINUOUS
 10
199.9944873612
 20
-3.9974066469
 11
199.9944873612
 21
-226.3485022545
  0
LINE
  5
60D
100
AcDbEntity
  8
RACCORDO
100
AcDbLine
 62
7
  6
CONTINUOUS
 10
199.9944873612
 20
-228.8485022545
 11
199.9944873612
 21
-247.3485022545
  0
LINE
  5
60E
100
AcDbEntity
  8
0
100
AcDbLine
 62
7
  6
CONTINUOUS
 10
200.4944873612
 20
-202.0985022545
 11
200.4944873612
 21
-213.0985022545
  0
LINE
  5
60F
100
AcDbEntity
  8
0
100
AcDbLine
 62
7
  6
CONTINUOUS
 10
201.2444873612
 20
6.6514977455
 11
201.2444873612
 21
-4.3485022545
  0
LINE
  5
610
100
AcDbEntity
  8
0
100
AcDbLine
 62
7
  6
CONTINUOUS
 10
201.2444873612
 20
204.4014977455
 11
201.2444873612
 21
215.4014977455
  0
LINE
  5
611
100
AcDbEntity
  8
0
100
AcDbLine
 62
7
  6
CONTINUOUS
 10
201.2944873612
 20
-202.8485022545
 11
201.2944873612
 21
-212.3485022545
  0
LINE
  5
612
100
AcDbEntity
  8
0
100
AcDbLine
 62
7
  6
CONTINUOUS
 10
201.7944873612
 20
-204.0235022545
 11
201.7944873612
 21
-211.1735022545
  0
LINE
  5
613
100
AcDbEntity
  8
0
100
AcDbLine
 62
7
  6
CONTINUOUS
 10
202.0444873612
 20
5.9014977455
 11
202.0444873612
 21
-3.5985022545
  0
LINE
  5
614
100
AcDbEntity
  8
0
100
AcDbLine
 62
7
  6
CONTINUOUS
 10
202.0444873612
 20
205.1514977455
 11
202.0444873612
 21
214.6514977455
  0
LINE
  5
615
100
AcDbEntity
  8
0
100
AcDbLine
 62
7
  6
CONTINUOUS
 10
202.5444873612
 20
4.7264977455
 11
202.5444873612
 21
-2.4235022545
  0
LINE
  5
616
100
AcDbEntity
  8
0
100
AcDbLine
 62
7
  6
CONTINUOUS
 10
202.5444873612
 20
206.3264977455
 11
202.5444873612
 21
213.4764977455
  0
LINE
  5
617
100
AcDbEntity
  8
0
100
AcDbLine
 62
7
  6
CONTINUOUS
 10
205.7944873612
 20
-210.3985022545
 11
205.7944873612
 21
-209.3485022545
  0
LINE
  5
618
100
AcDbEntity
  8
0
100
AcDbLine
 62
7
  6
CONTINUOUS
 10
205.7944873612
 20
-205.8485022545
 11
205.7944873612
 21
-204.7985022545
  0
LINE
  5
619
100
AcDbEntity
  8
0
100
AcDbLine
 62
7
  6
CONTINUOUS
 10
206.5444873612
 20
212.7014977455
 11
206.5444873612
 21
211.6514977455
  0
LINE
  5
61A
100
AcDbEntity
  8
0
100
AcDbLine
 62
7
  6
CONTINUOUS
 10
206.5444873612
 20
208.1514977455
 11
206.5444873612
 21
207.1014977455
  0
LINE
  5
61B
100
AcDbEntity
  8
0
100
AcDbLine
 62
7
  6
CONTINUOUS
 10
206.5444873612
 20
0.6514977455
 11
206.5444873612
 21
1.6514977455
  0
LINE
  5
61C
100
AcDbEntity
  8
0
100
AcDbLine
 62
7
  6
CONTINUOUS
 10
209.0694873612
 20
0.6514977455
 11
209.0694873612
 21
1.6514977455
  0
LWPOLYLINE
  5
61D
100
AcDbEntity
  8
RACCORDO
100
AcDbPolyline
 62
253
  6
CONTINUOUS
 90
10
 70
0
 10
172.0694873612
 20
-249.3317497974
 10
172.0674919955
 20
-249.3630905512
 10
172.0615373649
 20
-249.3939309908
 10
172.051718532
 20
-249.4237787644
 10
172.0381922494
 20
-249.452157368
 10
172.021174457
 20
-249.4786137519
 10
172.0009368352
 20
-249.5027255538
 10
171.9778024669
 20
-249.5241078413
 10
171.9521406804
 20
-249.5424192574
 10
171.9243611527
 20
-249.5573674698
  0
LWPOLYLINE
  5
61E
100
AcDbEntity
  8
RACCORDO
100
AcDbPolyline
 62
253
  6
CONTINUOUS
 90
19
 70
0
 10
154.0694873612
 20
-249.3317499932
 10
154.069889522
 20
-249.3295476762
 10
154.0711365252
 20
-249.3276163821
 10
154.0732896906
 20
-249.3259561109
 10
154.0764017337
 20
-249.3245469072
 10
154.0805392528
 20
-249.3234087264
 10
154.0858066494
 20
-249.3226014341
 10
154.0922894274
 20
-249.3221173785
 10
154.1000723579
 20
-249.3219642114
 10
154.1093034025
 20
-249.3222247534
 10
154.1201082817
 20
-249.3228978885
 10
154.1325813508
 20
-249.3239847328
 10
154.1468515048
 20
-249.3255714553
 10
154.1630232311
 20
-249.3276613974
 10
154.1812116499
 20
-249.3302512177
 10
154.201575687
 20
-249.3334170603
 10
154.2242329531
 20
-249.3371672386
 10
154.2492867753
 20
-249.3414934392
 10
154.2768869003
 20
-249.3464468663
  0
LWPOLYLINE
  5
61F
100
AcDbEntity
  8
RACCORDO
100
AcDbPolyline
 62
253
  6
CONTINUOUS
 90
19
 70
0
 10
154.2146141182
 20
-249.5573664282
 10
154.215075912
 20
-249.5552608158
 10
154.2163015887
 20
-249.5534499022
 10
154.2182925516
 20
-249.5519306655
 10
154.2209863853
 20
-249.5506734057
 10
154.2244488014
 20
-249.5497006429
 10
154.2288741876
 20
-249.5490859345
 10
154.2342438334
 20
-249.5488112268
 10
154.2405822511
 20
-249.548881683
 10
154.248150461
 20
-249.5494017064
 10
154.256954707
 20
-249.5503542661
 10
154.2669984926
 20
-249.5517341923
 10
154.2785412087
 20
-249.5536580816
 10
154.2915847117
 20
-249.5561054099
 10
154.3061416558
 20
-249.5590624954
 10
154.3224906414
 20
-249.5626490413
 10
154.3406519272
 20
-249.5668401654
 10
154.3606256525
 20
-249.5716100746
 10
154.382663521
 20
-249.5770686132
  0
LINE
  5
620
100
AcDbEntity
  8
0
100
AcDbLine
 62
7
  6
CONTINUOUS
 10
-200.5055126388
 20
204.4014977455
 11
-200.0055126388
 21
204.4014977455
  0
LINE
  5
621
100
AcDbEntity
  8
0
100
AcDbLine
 62
7
  6
CONTINUOUS
 10
201.2444873612
 20
204.4014977455
 11
199.9944873612
 21
204.4014977455
  0
LINE
  5
622
100
AcDbEntity
  8
0
100
AcDbLine
 62
7
  6
CONTINUOUS
 10
209.0694873612
 20
204.5764977455
 11
212.8194873612
 21
204.5764977455
  0
LINE
  5
623
100
AcDbEntity
  8
0
100
AcDbLine
 62
7
  6
CONTINUOUS
 10
-208.3305126388
 20
204.5764977455
 11
-212.0805126388
 21
204.5764977455
  0
LINE
  5
624
100
AcDbEntity
  8
0
100
AcDbLine
 62
7
  6
CONTINUOUS
 10
183.7444873612
 20
206.1514977455
 11
184.1194873612
 21
206.1514977455
  0
LINE
  5
625
100
AcDbEntity
  8
0
100
AcDbLine
 62
7
  6
CONTINUOUS
 10
-183.7555126388
 20
206.1514977455
 11
-184.1305126388
 21
206.1514977455
  0
LINE
  5
626
100
AcDbEntity
  8
0
100
AcDbLine
 62
7
  6
CONTINUOUS
 10
202.5444873612
 20
208.1514977455
 11
206.5444873612
 21
208.1514977455
  0
LINE
  5
627
100
AcDbEntity
  8
0
100
AcDbLine
 62
7
  6
CONTINUOUS
 10
-201.8055126388
 20
208.1514977455
 11
-205.8055126388
 21
208.1514977455
  0
LINE
  5
628
100
AcDbEntity
  8
0
100
AcDbLine
 62
7
  6
CONTINUOUS
 10
-214.3555126388
 20
208.1514977455
 11
-215.2055126388
 21
208.1514977455
  0
LINE
  5
629
100
AcDbEntity
  8
0
100
AcDbLine
 62
7
  6
CONTINUOUS
 10
215.0944873612
 20
208.1514977455
 11
215.9444873612
 21
208.1514977455
  0
LINE
  5
62A
100
AcDbEntity
  8
0
100
AcDbLine
 62
7
  6
CONTINUOUS
 10
183.7444873612
 20
208.6514977455
 11
184.1194873612
 21
208.6514977455
  0
LINE
  5
62B
100
AcDbEntity
  8
0
100
AcDbLine
 62
7
  6
CONTINUOUS
 10
-183.7555126388
 20
208.6514977455
 11
-184.1305126388
 21
208.6514977455
  0
LINE
  5
62C
100
AcDbEntity
  8
0
100
AcDbLine
 62
7
  6
CONTINUOUS
 10
212.8194873612
 20
0.6514977455
 11
212.8194873612
 21
1.6514977455
  0
LINE
  5
62D
100
AcDbEntity
  8
0
100
AcDbLine
 62
7
  6
CONTINUOUS
 10
214.3444873612
 20
-204.3485022545
 11
214.3444873612
 21
-205.8485022545
  0
LINE
  5
62E
100
AcDbEntity
  8
0
100
AcDbLine
 62
7
  6
CONTINUOUS
 10
214.3444873612
 20
-209.3485022545
 11
214.3444873612
 21
-210.8485022545
  0
LINE
  5
62F
100
AcDbEntity
  8
0
100
AcDbLine
 62
7
  6
CONTINUOUS
 10
215.0944873612
 20
0.6514977455
 11
215.0944873612
 21
1.6514977455
  0
LINE
  5
630
100
AcDbEntity
  8
0
100
AcDbLine
 62
7
  6
CONTINUOUS
 10
215.0944873612
 20
206.6514977455
 11
215.0944873612
 21
208.1514977455
  0
LINE
  5
631
100
AcDbEntity
  8
0
100
AcDbLine
 62
7
  6
CONTINUOUS
 10
215.0944873612
 20
211.6514977455
 11
215.0944873612
 21
213.1514977455
  0
LINE
  5
632
100
AcDbEntity
  8
0
100
AcDbLine
 62
7
  6
CONTINUOUS
 10
215.1944873612
 20
-205.8485022545
 11
215.1944873612
 21
-209.3485022545
  0
LINE
  5
633
100
AcDbEntity
  8
0
100
AcDbLine
 62
7
  6
CONTINUOUS
 10
215.9444873612
 20
0.6514977455
 11
215.9444873612
 21
1.6514977455
  0
LINE
  5
634
100
AcDbEntity
  8
0
100
AcDbLine
 62
7
  6
CONTINUOUS
 10
215.9444873612
 20
208.1514977455
 11
215.9444873612
 21
211.6514977455
  0
LINE
  5
635
100
AcDbEntity
  8
RACCORDO
100
AcDbLine
 62
253
  6
CONTINUOUS
 10
155.0694873612
 20
-249.4983396761
 11
155.0098105901
 21
-249.7383327446
  0
LINE
  5
636
100
AcDbEntity
  8
0
100
AcDbLine
 62
7
  6
CONTINUOUS
 10
-203.8055126388
 20
210.8014977455
 11
-201.8055126388
 21
210.8014977455
  0
LINE
  5
637
100
AcDbEntity
  8
0
100
AcDbLine
 62
7
  6
CONTINUOUS
 10
204.5444873612
 20
210.8014977455
 11
202.5444873612
 21
210.8014977455
  0
LINE
  5
638
100
AcDbEntity
  8
0
100
AcDbLine
 62
7
  6
CONTINUOUS
 10
-215.2055126388
 20
211.6514977455
 11
-214.3555126388
 21
211.6514977455
  0
LINE
  5
639
100
AcDbEntity
  8
0
100
AcDbLine
 62
7
  6
CONTINUOUS
 10
215.9444873612
 20
211.6514977455
 11
215.0944873612
 21
211.6514977455
  0
LINE
  5
63A
100
AcDbEntity
  8
0
100
AcDbLine
 62
7
  6
CONTINUOUS
 10
-205.8055126388
 20
211.6514977455
 11
-204.8055126388
 21
211.6514977455
  0
LINE
  5
63B
100
AcDbEntity
  8
0
100
AcDbLine
 62
7
  6
CONTINUOUS
 10
206.5444873612
 20
211.6514977455
 11
205.5444873612
 21
211.6514977455
  0
LINE
  5
63C
100
AcDbEntity
  8
0
100
AcDbLine
 62
7
  6
CONTINUOUS
 10
-212.0805126388
 20
215.2264977455
 11
-208.3305126388
 21
215.2264977455
  0
LINE
  5
63D
100
AcDbEntity
  8
0
100
AcDbLine
 62
7
  6
CONTINUOUS
 10
212.8194873612
 20
215.2264977455
 11
209.0694873612
 21
215.2264977455
  0
LINE
  5
63E
100
AcDbEntity
  8
0
100
AcDbLine
 62
7
  6
CONTINUOUS
 10
-200.5055126388
 20
215.4014977455
 11
-200.0055126388
 21
215.4014977455
  0
LINE
  5
63F
100
AcDbEntity
  8
0
100
AcDbLine
 62
7
  6
CONTINUOUS
 10
201.2444873612
 20
215.4014977455
 11
199.9944873612
 21
215.4014977455
  0
LINE
  5
640
100
AcDbEntity
  8
0
100
AcDbLine
 62
7
  6
CONTINUOUS
 10
199.9944873612
 20
228.6514977455
 11
198.9944873612
 21
228.6514977455
  0
LINE
  5
641
100
AcDbEntity
  8
0
100
AcDbLine
 62
7
  6
CONTINUOUS
 10
-200.0055126388
 20
228.6514977455
 11
-199.0055126388
 21
228.6514977455
  0
LINE
  5
642
100
AcDbEntity
  8
0
100
AcDbLine
 62
7
  6
CONTINUOUS
 10
74.9944873612
 20
230.4014977455
 11
-75.0055126388
 21
230.4014977455
  0
LINE
  5
643
100
AcDbEntity
  8
0
100
AcDbLine
 62
7
  6
CONTINUOUS
 10
-200.0055126388
 20
231.1514977455
 11
-199.0055126388
 21
231.1514977455
  0
LINE
  5
644
100
AcDbEntity
  8
0
100
AcDbLine
 62
7
  6
CONTINUOUS
 10
199.9944873612
 20
231.1514977455
 11
198.9944873612
 21
231.1514977455
  0
LWPOLYLINE
  5
645
100
AcDbEntity
  8
RACCORDO
100
AcDbPolyline
 62
253
  6
CONTINUOUS
 90
5
 70
0
 10
168.9376081075
 20
-252.0673094368
 10
168.9173298316
 20
-252.1267890171
 10
168.8968034043
 20
-252.1853319622
 10
168.8762411942
 20
-252.2428234259
 10
168.8556623144
 20
-252.2992634083
  0
LINE
  5
646
100
AcDbEntity
  8
RACCORDO
100
AcDbLine
 62
7
  6
CONTINUOUS
 10
-162.5055126388
 20
233.7764977455
 11
-150.1217623962
 21
233.7764977455
  0
LINE
  5
647
100
AcDbEntity
  8
RACCORDO
100
AcDbLine
 62
7
  6
CONTINUOUS
 10
150.1107371185
 20
233.7764977455
 11
162.4944873612
 21
233.7764977455
  0
LINE
  5
648
100
AcDbEntity
  8
RACCORDO
100
AcDbLine
 62
7
  6
CONTINUOUS
 10
162.4944873612
 20
235.2764977455
 11
151.1413343805
 21
235.2764977455
  0
LINE
  5
649
100
AcDbEntity
  8
RACCORDO
100
AcDbLine
 62
7
  6
CONTINUOUS
 10
-151.1523596582
 20
235.2764977455
 11
-162.5055126388
 21
235.2764977455
  0
LINE
  5
64A
100
AcDbEntity
  8
0
100
AcDbLine
 62
7
  6
CONTINUOUS
 10
-180.0055126388
 20
250.1514977455
 11
-177.0055126388
 21
250.1514977455
  0
LINE
  5
64B
100
AcDbEntity
  8
0
100
AcDbLine
 62
253
  6
CONTINUOUS
 10
176.9944873612
 20
250.1514977455
 11
147.7516465848
 21
250.1514977455
  0
LINE
  5
64C
100
AcDbEntity
  8
0
100
AcDbLine
 62
253
  6
CONTINUOUS
 10
135.0223281375
 20
250.1514977455
 11
-135.0333534152
 21
250.1514977455
  0
LINE
  5
64D
100
AcDbEntity
  8
0
100
AcDbLine
 62
253
  6
CONTINUOUS
 10
-147.7626718625
 20
250.1514977455
 11
-177.0055126388
 21
250.1514977455
  0
LINE
  5
64E
100
AcDbEntity
  8
0
100
AcDbLine
 62
7
  6
CONTINUOUS
 10
176.9944873612
 20
250.1514977455
 11
179.9944873612
 21
250.1514977455
  0
LINE
  5
64F
100
AcDbEntity
  8
0
100
AcDbLine
 62
253
  6
CONTINUOUS
 10
-177.1055126388
 20
250.3014977455
 11
-177.2555126388
 21
250.3014977455
  0
LINE
  5
650
100
AcDbEntity
  8
RACCORDO
100
AcDbLine
 62
7
  6
CONTINUOUS
 10
-198.5055126388
 20
251.1514977455
 11
-180.0055126388
 21
251.1514977455
  0
LINE
  5
651
100
AcDbEntity
  8
0
100
AcDbLine
 62
7
  6
CONTINUOUS
 10
176.9944873612
 20
251.1514977455
 11
145.962011797
 21
251.1514977455
  0
LINE
  5
652
100
AcDbEntity
  8
0
100
AcDbLine
 62
7
  6
CONTINUOUS
 10
136.8119629253
 20
251.1514977455
 11
-136.822988203
 21
251.1514977455
  0
LINE
  5
653
100
AcDbEntity
  8
0
100
AcDbLine
 62
7
  6
CONTINUOUS
 10
-145.9730370747
 20
251.1514977455
 11
-177.0055126388
 21
251.1514977455
  0
LINE
  5
654
100
AcDbEntity
  8
0
100
AcDbLine
 62
7
  6
CONTINUOUS
 10
178.7444873612
 20
251.1514977455
 11
179.9944873612
 21
251.1514977455
  0
LINE
  5
655
100
AcDbEntity
  8
RACCORDO
100
AcDbLine
 62
7
  6
CONTINUOUS
 10
179.9944873612
 20
251.1514977455
 11
198.4944873612
 21
251.1514977455
  0
LINE
  5
656
100
AcDbEntity
  8
0
100
AcDbLine
 62
7
  6
CONTINUOUS
 10
-178.7555126388
 20
251.1514977455
 11
-180.0055126388
 21
251.1514977455
  0
LINE
  5
657
100
AcDbEntity
  8
0
100
AcDbLine
 62
7
  6
CONTINUOUS
 10
-168.4805126388
 20
251.7514977455
 11
-157.4805126388
 21
251.7514977455
  0
LINE
  5
658
100
AcDbEntity
  8
0
100
AcDbLine
 62
7
  6
CONTINUOUS
 10
-168.4805126388
 20
253.0014977455
 11
-157.4805126388
 21
253.0014977455
  0
LINE
  5
659
100
AcDbEntity
  8
0
100
AcDbLine
 62
7
  6
CONTINUOUS
 10
-167.7305126388
 20
253.8014977455
 11
-158.2305126388
 21
253.8014977455
  0
LINE
  5
65A
100
AcDbEntity
  8
0
100
AcDbLine
 62
7
  6
CONTINUOUS
 10
-166.5555126388
 20
254.3014977455
 11
-159.4055126388
 21
254.3014977455
  0
LWPOLYLINE
  5
65B
100
AcDbEntity
  8
RACCORDO
100
AcDbPolyline
 62
253
  6
CONTINUOUS
 90
24
 70
0
 10
169.8994124671
 20
-249.8894456055
 10
169.8347746073
 20
-249.9998306799
 10
169.7732258627
 20
-250.1079791063
 10
169.7146341153
 20
-250.2138908849
 10
169.6588680665
 20
-250.3175379603
 10
169.6058134223
 20
-250.4189483878
 10
169.5553707161
 20
-250.5182063334
 10
169.5074270423
 20
-250.6153489408
 10
169.4618793647
 20
-250.7103390663
 10
169.4186479078
 20
-250.803149444
 10
169.3776551457
 20
-250.8937726947
 10
169.338789315
 20
-250.9822161976
 10
169.3019276744
 20
-251.0684748252
 10
169.2670157418
 20
-251.1525208326
 10
169.2339499649
 20
-251.2343819648
 10
169.2025494007
 20
-251.3141363286
 10
169.1727811317
 20
-251.3917443006
 10
169.1445547829
 20
-251.4672455043
 10
169.1176253548
 20
-251.5408369175
 10
169.0919744806
 20
-251.6125035495
 10
169.0675338747
 20
-251.6822603909
 10
169.0440113348
 20
-251.750349391
 10
169.0214218223
 20
-251.8167605926
 10
168.9376081075
 20
-252.0673094368
  0
LINE
  5
65C
100
AcDbEntity
  8
0
100
AcDbLine
 62
7
  6
CONTINUOUS
 10
183.4944873612
 20
-204.0985022545
 11
183.7444873612
 21
-203.8485022545
  0
LINE
  5
65D
100
AcDbEntity
  8
0
100
AcDbLine
 62
7
  6
CONTINUOUS
 10
-162.4805126388
 20
258.3014977455
 11
-163.4805126388
 21
258.3014977455
  0
LINE
  5
65E
100
AcDbEntity
  8
0
100
AcDbLine
 62
7
  6
CONTINUOUS
 10
-162.4805126388
 20
260.8264977455
 11
-163.4805126388
 21
260.8264977455
  0
LINE
  5
65F
100
AcDbEntity
  8
0
100
AcDbLine
 62
7
  6
CONTINUOUS
 10
-162.4805126388
 20
264.5764977455
 11
-163.4805126388
 21
264.5764977455
  0
LINE
  5
660
100
AcDbEntity
  8
0
100
AcDbLine
 62
7
  6
CONTINUOUS
 10
-162.4805126388
 20
266.8514977455
 11
-163.4805126388
 21
266.8514977455
  0
LINE
  5
661
100
AcDbEntity
  8
0
100
AcDbLine
 62
7
  6
CONTINUOUS
 10
-162.4805126388
 20
267.7014977455
 11
-163.4805126388
 21
267.7014977455
  0
LINE
  5
662
100
AcDbEntity
  8
0
100
AcDbLine
 62
7
  6
CONTINUOUS
 10
183.4944873612
 20
206.4014977455
 11
183.7444873612
 21
206.1514977455
  0
LINE
  5
663
100
AcDbEntity
  8
0
100
AcDbLine
 62
7
  6
CONTINUOUS
 10
205.7944873612
 20
-204.7985022545
 11
208.3194873612
 21
-202.2735022545
  0
LINE
  5
664
100
AcDbEntity
  8
0
100
AcDbLine
 62
7
  6
CONTINUOUS
 10
211.9327864254
 20
-205.9368013187
 11
210.2710854896
 21
-207.5985022545
  0
LINE
  5
665
100
AcDbEntity
  8
0
100
AcDbLine
 62
7
  6
CONTINUOUS
 10
211.9327864254
 20
-209.2602031903
 11
213.5944873612
 21
-207.5985022545
  0
LINE
  5
666
100
AcDbEntity
  8
RACCORDO
100
AcDbLine
 62
7
  6
CONTINUOUS
 10
169.6747788627
 20
-252.1962556844
 11
171.9945052291
 21
-249.9220141487
  0
LINE
  5
667
100
AcDbEntity
  8
0
100
AcDbLine
 62
7
  6
CONTINUOUS
 10
201.2944873612
 20
-212.3485022545
 11
200.4944873612
 21
-213.0985022545
  0
LWPOLYLINE
  5
668
100
AcDbEntity
  8
RACCORDO
100
AcDbPolyline
 62
253
  6
CONTINUOUS
 90
7
 70
0
 10
169.6747796725
 20
-252.1962447977
 10
169.6725199408
 20
-252.1983217419
 10
169.6699238413
 20
-252.2004397481
 10
169.666980983
 20
-252.2026048215
 10
169.6636907555
 20
-252.2048124227
 10
169.6600541535
 20
-252.2070571816
 10
169.6560730386
 20
-252.2093337158
  0
LINE
  5
669
100
AcDbEntity
  8
0
100
AcDbLine
 62
7
  6
CONTINUOUS
 10
214.3444873612
 20
-210.8485022545
 11
212.0694873612
 21
-212.9235022545
  0
LINE
  5
66A
100
AcDbEntity
  8
0
100
AcDbLine
 62
7
  6
CONTINUOUS
 10
201.7944873612
 20
-211.1735022545
 11
201.2944873612
 21
-211.4568355879
  0
LWPOLYLINE
  5
66B
100
AcDbEntity
  8
RACCORDO
100
AcDbPolyline
 62
253
  6
CONTINUOUS
 90
4
 70
0
 10
168.8555848988
 20
-252.2992905509
 10
168.7870478953
 20
-252.3261312037
 10
168.7160394306
 20
-252.3426360972
 10
168.6693135062
 20
-252.3462615757
  0
LWPOLYLINE
  5
66C
100
AcDbEntity
  8
RACCORDO
100
AcDbPolyline
 62
253
  6
CONTINUOUS
 90
3
 70
0
 10
169.6560730386
 20
-252.2093337158
 10
169.6330835299
 20
-252.2173626269
 10
169.5967141044
 20
-252.2287447479
  0
LINE
  5
66D
100
AcDbEntity
  8
0
100
AcDbLine
 62
7
  6
CONTINUOUS
 10
202.5444873612
 20
213.4764977455
 11
202.0444873612
 21
213.7598310788
  0
LINE
  5
66E
100
AcDbEntity
  8
0
100
AcDbLine
 62
7
  6
CONTINUOUS
 10
202.0444873612
 20
214.6514977455
 11
201.2444873612
 21
215.4014977455
  0
LINE
  5
66F
100
AcDbEntity
  8
0
100
AcDbLine
 62
7
  6
CONTINUOUS
 10
206.5444873612
 20
207.1014977455
 11
209.0694873612
 21
204.5764977455
  0
LINE
  5
670
100
AcDbEntity
  8
0
100
AcDbLine
 62
7
  6
CONTINUOUS
 10
212.6827864254
 20
208.2397968097
 11
211.0210854896
 21
209.9014977455
  0
LINE
  5
671
100
AcDbEntity
  8
0
100
AcDbLine
 62
7
  6
CONTINUOUS
 10
212.6827864254
 20
211.5631986813
 11
214.3444873612
 21
209.9014977455
  0
LINE
  5
672
100
AcDbEntity
  8
RACCORDO
100
AcDbLine
 62
253
  6
CONTINUOUS
 10
169.6560694863
 20
-252.2093298411
 11
169.6031868887
 21
-252.2519472248
  0
LWPOLYLINE
  5
673
100
AcDbEntity
  8
RACCORDO
100
AcDbPolyline
 62
253
  6
CONTINUOUS
 90
6
 70
0
 10
169.6031868887
 20
-252.2519472248
 10
169.5452746501
 20
-252.2874319173
 10
169.4832882617
 20
-252.315198459
 10
169.4182504339
 20
-252.3347887322
 10
169.3512342227
 20
-252.3458795187
 10
169.2999052
 20
-252.3485056344
  0
LINE
  5
674
100
AcDbEntity
  8
0
100
AcDbLine
 62
7
  6
CONTINUOUS
 10
168.6694873612
 20
-252.8485022545
 11
167.1944873612
 21
-253.5985022545
  0
LINE
  5
675
100
AcDbEntity
  8
0
100
AcDbLine
 62
7
  6
CONTINUOUS
 10
215.0944873612
 20
213.1514977455
 11
212.8194873612
 21
215.2264977455
  0
ARC
  5
676
100
AcDbEntity
  8
RACCORDO
100
AcDbCircle
 62
7
  6
CONTINUOUS
 10
-198.5055126388
 20
-247.3485022545
 40
1.5
100
AcDbArc
 50
180.0
 51
270.0
  0
ARC
  5
677
100
AcDbEntity
  8
0
100
AcDbCircle
 62
7
  6
CONTINUOUS
 10
-198.5055126388
 20
-229.0485022545
 40
1.5
100
AcDbArc
 50
109.4763631234
 51
172.3227874694
  0
ARC
  5
678
100
AcDbEntity
  8
0
100
AcDbCircle
 62
7
  6
CONTINUOUS
 10
-178.7555126388
 20
-247.3485022545
 40
1.5
100
AcDbArc
 50
270.0
 51
340.5236368766
  0
CIRCLE
  5
679
100
AcDbEntity
  8
ASSI
100
AcDbCircle
 62
7
  6
CONTINUOUS
 10
-162.5055126388
 20
-198.8485022545
 40
1.25
  0
CIRCLE
  5
67A
100
AcDbEntity
  8
ASSI
100
AcDbCircle
 62
7
  6
CONTINUOUS
 10
-189.7305126388
 20
-190.2410022545
 40
1.25
  0
ARC
  5
67B
100
AcDbEntity
  8
RACCORDO
100
AcDbCircle
 62
7
  6
CONTINUOUS
 10
-183.3805126388
 20
-211.3485022545
 40
0.75
100
AcDbArc
 50
180.0
 51
360.0
  0
ARC
  5
67C
100
AcDbEntity
  8
RACCORDO
100
AcDbCircle
 62
7
  6
CONTINUOUS
 10
-183.3805126388
 20
-184.8485022545
 40
0.75
100
AcDbArc
 50
0.0
 51
180.0
  0
ARC
  5
67D
100
AcDbEntity
  8
RACCORDO
100
AcDbCircle
 62
7
  6
CONTINUOUS
 10
-162.5055126388
 20
-232.2235022545
 40
0.75
100
AcDbArc
 50
90.0
 51
270.0
  0
CIRCLE
  5
67E
100
AcDbEntity
  8
0
100
AcDbCircle
 62
7
  6
CONTINUOUS
 10
-141.3980126388
 20
-238.5735022545
 40
11.25
  0
ARC
  5
67F
100
AcDbEntity
  8
ASSI
100
AcDbCircle
 62
7
  6
CONTINUOUS
 10
-117.1305126388
 20
-88.6985022545
 40
1.75
100
AcDbArc
 50
223.3094688668
 51
270.0
  0
ARC
  5
680
100
AcDbEntity
  8
ASSI
100
AcDbCircle
 62
7
  6
CONTINUOUS
 10
-115.3805126388
 20
-88.6985022545
 40
1.75
100
AcDbArc
 50
270.0
 51
316.6905311332
  0
CIRCLE
  5
681
100
AcDbEntity
  8
0
100
AcDbCircle
 62
7
  6
CONTINUOUS
 10
-116.2555126388
 20
-84.0235022545
 40
1.725
  0
CIRCLE
  5
682
100
AcDbEntity
  8
0
100
AcDbCircle
 62
7
  6
CONTINUOUS
 10
-116.2555126388
 20
-84.0235022545
 40
1.5
  0
CIRCLE
  5
683
100
AcDbEntity
  8
0
100
AcDbCircle
 62
7
  6
CONTINUOUS
 10
-116.2555126388
 20
-84.0235022545
 40
1.25
  0
ARC
  5
684
100
AcDbEntity
  8
0
100
AcDbCircle
 62
7
  6
CONTINUOUS
 10
-116.2555126388
 20
-84.0235022545
 40
1.125
100
AcDbArc
 50
255.0
 51
195.0
  0
ARC
  5
685
100
AcDbEntity
  8
RACCORDO
100
AcDbCircle
 62
7
  6
CONTINUOUS
 10
-119.2555126388
 20
-83.0110022545
 40
0.4
100
AcDbArc
 50
289.4509645777
 51
70.5490354223
  0
ARC
  5
686
100
AcDbEntity
  8
RACCORDO
100
AcDbCircle
 62
7
  6
CONTINUOUS
 10
-119.2555126388
 20
-85.0360022545
 40
0.4
100
AcDbArc
 50
289.4509645777
 51
70.5490354223
  0
ARC
  5
687
100
AcDbEntity
  8
RACCORDO
100
AcDbCircle
 62
7
  6
CONTINUOUS
 10
-119.2555126388
 20
-54.2610022545
 40
0.4
100
AcDbArc
 50
289.4509645777
 51
70.5490354223
  0
ARC
  5
688
100
AcDbEntity
  8
RACCORDO
100
AcDbCircle
 62
7
  6
CONTINUOUS
 10
-119.2555126388
 20
-56.2860022545
 40
0.4
100
AcDbArc
 50
289.4509645777
 51
70.5490354223
  0
ARC
  5
689
100
AcDbEntity
  8
RACCORDO
100
AcDbCircle
 62
7
  6
CONTINUOUS
 10
-119.2555126388
 20
-16.1360022545
 40
0.4
100
AcDbArc
 50
289.4509645777
 51
70.5490354223
  0
ARC
  5
68A
100
AcDbEntity
  8
RACCORDO
100
AcDbCircle
 62
7
  6
CONTINUOUS
 10
-119.2555126388
 20
-18.1610022545
 40
0.4
100
AcDbArc
 50
289.4509645777
 51
70.5490354223
  0
ARC
  5
68B
100
AcDbEntity
  8
ASSI
100
AcDbCircle
 62
7
  6
CONTINUOUS
 10
-117.1305126388
 20
-50.5985022545
 40
1.75
100
AcDbArc
 50
90.0
 51
136.6905311332
  0
ARC
  5
68C
100
AcDbEntity
  8
ASSI
100
AcDbCircle
 62
7
  6
CONTINUOUS
 10
-115.3805126388
 20
-50.5985022545
 40
1.75
100
AcDbArc
 50
43.3094688668
 51
90.0
  0
CIRCLE
  5
68D
100
AcDbEntity
  8
0
100
AcDbCircle
 62
7
  6
CONTINUOUS
 10
-116.2555126388
 20
-55.2735022545
 40
1.725
  0
CIRCLE
  5
68E
100
AcDbEntity
  8
0
100
AcDbCircle
 62
7
  6
CONTINUOUS
 10
-116.2555126388
 20
-55.2735022545
 40
1.5
  0
CIRCLE
  5
68F
100
AcDbEntity
  8
0
100
AcDbCircle
 62
7
  6
CONTINUOUS
 10
-116.2555126388
 20
-55.2735022545
 40
1.25
  0
ARC
  5
690
100
AcDbEntity
  8
0
100
AcDbCircle
 62
7
  6
CONTINUOUS
 10
-116.2555126388
 20
-55.2735022545
 40
1.125
100
AcDbArc
 50
255.0
 51
195.0
  0
ARC
  5
691
100
AcDbEntity
  8
ASSI
100
AcDbCircle
 62
7
  6
CONTINUOUS
 10
-117.1305126388
 20
-21.8235022545
 40
1.75
100
AcDbArc
 50
223.3094688668
 51
270.0
  0
ARC
  5
692
100
AcDbEntity
  8
ASSI
100
AcDbCircle
 62
7
  6
CONTINUOUS
 10
-115.3805126388
 20
-21.8235022545
 40
1.75
100
AcDbArc
 50
270.0
 51
316.6905311332
  0
CIRCLE
  5
693
100
AcDbEntity
  8
0
100
AcDbCircle
 62
7
  6
CONTINUOUS
 10
-116.2555126388
 20
-17.1485022545
 40
1.725
  0
CIRCLE
  5
694
100
AcDbEntity
  8
0
100
AcDbCircle
 62
7
  6
CONTINUOUS
 10
-116.2555126388
 20
-17.1485022545
 40
1.5
  0
CIRCLE
  5
695
100
AcDbEntity
  8
0
100
AcDbCircle
 62
7
  6
CONTINUOUS
 10
-116.2555126388
 20
-17.1485022545
 40
1.25
  0
ARC
  5
696
100
AcDbEntity
  8
0
100
AcDbCircle
 62
7
  6
CONTINUOUS
 10
-116.2555126388
 20
-17.1485022545
 40
1.125
100
AcDbArc
 50
255.0
 51
195.0
  0
ARC
  5
697
100
AcDbEntity
  8
RACCORDO
100
AcDbCircle
 62
7
  6
CONTINUOUS
 10
-113.2555126388
 20
-83.0110022545
 40
0.4
100
AcDbArc
 50
109.4509645777
 51
250.5490354223
  0
ARC
  5
698
100
AcDbEntity
  8
RACCORDO
100
AcDbCircle
 62
7
  6
CONTINUOUS
 10
-113.2555126388
 20
-85.0360022545
 40
0.4
100
AcDbArc
 50
109.4509645777
 51
250.5490354223
  0
ARC
  5
699
100
AcDbEntity
  8
RACCORDO
100
AcDbCircle
 62
7
  6
CONTINUOUS
 10
-111.2555126388
 20
-102.3985022545
 40
0.25
100
AcDbArc
 50
270.0
 51
360.0
  0
ARC
  5
69A
100
AcDbEntity
  8
RACCORDO
100
AcDbCircle
 62
7
  6
CONTINUOUS
 10
-110.7555126388
 20
-101.8985022545
 40
0.25
100
AcDbArc
 50
90.0
 51
180.0
  0
ARC
  5
69B
100
AcDbEntity
  8
RACCORDO
100
AcDbCircle
 62
7
  6
CONTINUOUS
 10
-110.2055126388
 20
-101.8485022545
 40
0.2
100
AcDbArc
 50
0.0
 51
90.0
  0
ARC
  5
69C
100
AcDbEntity
  8
RACCORDO
100
AcDbCircle
 62
7
  6
CONTINUOUS
 10
-113.2555126388
 20
-16.1360022545
 40
0.4
100
AcDbArc
 50
109.4509645777
 51
250.5490354223
  0
ARC
  5
69D
100
AcDbEntity
  8
RACCORDO
100
AcDbCircle
 62
7
  6
CONTINUOUS
 10
-113.2555126388
 20
-18.1610022545
 40
0.4
100
AcDbArc
 50
109.4509645777
 51
250.5490354223
  0
ARC
  5
69E
100
AcDbEntity
  8
RACCORDO
100
AcDbCircle
 62
7
  6
CONTINUOUS
 10
-113.2555126388
 20
-54.2610022545
 40
0.4
100
AcDbArc
 50
109.4509645777
 51
250.5490354223
  0
ARC
  5
69F
100
AcDbEntity
  8
RACCORDO
100
AcDbCircle
 62
7
  6
CONTINUOUS
 10
-113.2555126388
 20
-56.2860022545
 40
0.4
100
AcDbArc
 50
109.4509645777
 51
250.5490354223
  0
ARC
  5
6A0
100
AcDbEntity
  8
RACCORDO
100
AcDbCircle
 62
7
  6
CONTINUOUS
 10
-111.2555126388
 20
-35.5235022545
 40
0.25
100
AcDbArc
 50
270.0
 51
360.0
  0
ARC
  5
6A1
100
AcDbEntity
  8
RACCORDO
100
AcDbCircle
 62
7
  6
CONTINUOUS
 10
-110.7555126388
 20
-35.0235022545
 40
0.25
100
AcDbArc
 50
90.0
 51
180.0
  0
ARC
  5
6A2
100
AcDbEntity
  8
RACCORDO
100
AcDbCircle
 62
7
  6
CONTINUOUS
 10
-111.2555126388
 20
-36.8985022545
 40
0.25
100
AcDbArc
 50
0.0
 51
90.0
  0
ARC
  5
6A3
100
AcDbEntity
  8
RACCORDO
100
AcDbCircle
 62
7
  6
CONTINUOUS
 10
-110.7555126388
 20
-37.3985022545
 40
0.25
100
AcDbArc
 50
180.0
 51
270.0
  0
ARC
  5
6A4
100
AcDbEntity
  8
RACCORDO
100
AcDbCircle
 62
7
  6
CONTINUOUS
 10
-110.2055126388
 20
-34.9735022545
 40
0.2
100
AcDbArc
 50
0.0
 51
90.0
  0
ARC
  5
6A5
100
AcDbEntity
  8
RACCORDO
100
AcDbCircle
 62
7
  6
CONTINUOUS
 10
-110.2055126388
 20
-37.4485022545
 40
0.2
100
AcDbArc
 50
270.0
 51
360.0
  0
CIRCLE
  5
6A6
100
AcDbEntity
  8
0
100
AcDbCircle
 62
7
  6
CONTINUOUS
 10
-190.0055126388
 20
1.1514977455
 40
11.25
  0
CIRCLE
  5
6A7
100
AcDbEntity
  8
0
100
AcDbCircle
 62
7
  6
CONTINUOUS
 10
-141.3980126388
 20
240.8764977455
 40
11.25
  0
ARC
  5
6A8
100
AcDbEntity
  8
RACCORDO
100
AcDbCircle
 62
7
  6
CONTINUOUS
 10
-198.5055126388
 20
249.6514977455
 40
1.5
100
AcDbArc
 50
90.0
 51
180.0
  0
ARC
  5
6A9
100
AcDbEntity
  8
0
100
AcDbCircle
 62
7
  6
CONTINUOUS
 10
-198.5055126388
 20
231.3514977455
 40
1.5
100
AcDbArc
 50
187.6772125306
 51
250.5236368766
  0
ARC
  5
6AA
100
AcDbEntity
  8
0
100
AcDbCircle
 62
7
  6
CONTINUOUS
 10
-178.7555126388
 20
249.6514977455
 40
1.5
100
AcDbArc
 50
19.4763631234
 51
90.0
  0
CIRCLE
  5
6AB
100
AcDbEntity
  8
ASSI
100
AcDbCircle
 62
7
  6
CONTINUOUS
 10
-162.5055126388
 20
201.1514977455
 40
1.25
  0
CIRCLE
  5
6AC
100
AcDbEntity
  8
ASSI
100
AcDbCircle
 62
7
  6
CONTINUOUS
 10
-189.7305126388
 20
192.5439977455
 40
1.25
  0
CIRCLE
  5
6AD
100
AcDbEntity
  8
SMUSSO
100
AcDbCircle
 62
7
  6
CONTINUOUS
 10
-189.7305126388
 20
192.5439977455
 40
1.0
  0
CIRCLE
  5
6AE
100
AcDbEntity
  8
SMUSSO
100
AcDbCircle
 62
7
  6
CONTINUOUS
 10
-189.7305126388
 20
192.5439977455
 40
0.75
  0
ARC
  5
6AF
100
AcDbEntity
  8
RACCORDO
100
AcDbCircle
 62
7
  6
CONTINUOUS
 10
-162.5055126388
 20
234.5264977455
 40
0.75
100
AcDbArc
 50
90.0
 51
270.0
  0
ARC
  5
6B0
100
AcDbEntity
  8
RACCORDO
100
AcDbCircle
 62
7
  6
CONTINUOUS
 10
-183.3805126388
 20
213.6514977455
 40
0.75
100
AcDbArc
 50
0.0
 51
180.0
  0
ARC
  5
6B1
100
AcDbEntity
  8
RACCORDO
100
AcDbCircle
 62
7
  6
CONTINUOUS
 10
-183.3805126388
 20
187.1514977455
 40
0.75
100
AcDbArc
 50
180.0
 51
360.0
  0
ARC
  5
6B2
100
AcDbEntity
  8
0
100
AcDbCircle
 62
7
  6
CONTINUOUS
 10
-177.0055126388
 20
250.3014977455
 40
0.6
100
AcDbArc
 50
90.0
 51
155.9941683335
  0
ARC
  5
6B3
100
AcDbEntity
  8
0
100
AcDbCircle
 62
7
  6
CONTINUOUS
 10
-157.8805126388
 20
251.3264977455
 40
0.425
100
AcDbArc
 50
335.6765248664
 51
90.0
  0
ARC
  5
6B4
100
AcDbEntity
  8
0
100
AcDbCircle
 62
7
  6
CONTINUOUS
 10
-168.0805126388
 20
251.3264977455
 40
0.425
100
AcDbArc
 50
90.0
 51
204.3234751336
  0
ARC
  5
6B5
100
AcDbEntity
  8
RACCORDO
100
AcDbCircle
 62
7
  6
CONTINUOUS
 10
-119.2555126388
 20
12.6139977455
 40
0.4
100
AcDbArc
 50
289.4509645777
 51
70.5490354223
  0
ARC
  5
6B6
100
AcDbEntity
  8
RACCORDO
100
AcDbCircle
 62
7
  6
CONTINUOUS
 10
-119.2555126388
 20
10.5889977455
 40
0.4
100
AcDbArc
 50
289.4509645777
 51
70.5490354223
  0
ARC
  5
6B7
100
AcDbEntity
  8
RACCORDO
100
AcDbCircle
 62
7
  6
CONTINUOUS
 10
-119.2555126388
 20
50.7389977455
 40
0.4
100
AcDbArc
 50
289.4509645777
 51
70.5490354223
  0
ARC
  5
6B8
100
AcDbEntity
  8
RACCORDO
100
AcDbCircle
 62
7
  6
CONTINUOUS
 10
-119.2555126388
 20
48.7139977455
 40
0.4
100
AcDbArc
 50
289.4509645777
 51
70.5490354223
  0
ARC
  5
6B9
100
AcDbEntity
  8
ASSI
100
AcDbCircle
 62
7
  6
CONTINUOUS
 10
-117.1305126388
 20
16.2764977455
 40
1.75
100
AcDbArc
 50
90.0
 51
136.6905311332
  0
ARC
  5
6BA
100
AcDbEntity
  8
ASSI
100
AcDbCircle
 62
7
  6
CONTINUOUS
 10
-115.3805126388
 20
16.2764977455
 40
1.75
100
AcDbArc
 50
43.3094688668
 51
90.0
  0
CIRCLE
  5
6BB
100
AcDbEntity
  8
0
100
AcDbCircle
 62
7
  6
CONTINUOUS
 10
-116.2555126388
 20
11.6014977455
 40
1.725
  0
CIRCLE
  5
6BC
100
AcDbEntity
  8
0
100
AcDbCircle
 62
7
  6
CONTINUOUS
 10
-116.2555126388
 20
11.6014977455
 40
1.5
  0
CIRCLE
  5
6BD
100
AcDbEntity
  8
0
100
AcDbCircle
 62
7
  6
CONTINUOUS
 10
-116.2555126388
 20
11.6014977455
 40
1.25
  0
ARC
  5
6BE
100
AcDbEntity
  8
0
100
AcDbCircle
 62
7
  6
CONTINUOUS
 10
-116.2555126388
 20
11.6014977455
 40
1.125
100
AcDbArc
 50
255.0
 51
195.0
  0
ARC
  5
6BF
100
AcDbEntity
  8
ASSI
100
AcDbCircle
 62
7
  6
CONTINUOUS
 10
-117.1305126388
 20
45.0514977455
 40
1.75
100
AcDbArc
 50
223.3094688668
 51
270.0
  0
ARC
  5
6C0
100
AcDbEntity
  8
ASSI
100
AcDbCircle
 62
7
  6
CONTINUOUS
 10
-115.3805126388
 20
45.0514977455
 40
1.75
100
AcDbArc
 50
270.0
 51
316.6905311332
  0
CIRCLE
  5
6C1
100
AcDbEntity
  8
0
100
AcDbCircle
 62
7
  6
CONTINUOUS
 10
-116.2555126388
 20
49.7264977455
 40
1.725
  0
CIRCLE
  5
6C2
100
AcDbEntity
  8
0
100
AcDbCircle
 62
7
  6
CONTINUOUS
 10
-116.2555126388
 20
49.7264977455
 40
1.5
  0
CIRCLE
  5
6C3
100
AcDbEntity
  8
0
100
AcDbCircle
 62
7
  6
CONTINUOUS
 10
-116.2555126388
 20
49.7264977455
 40
1.25
  0
ARC
  5
6C4
100
AcDbEntity
  8
0
100
AcDbCircle
 62
7
  6
CONTINUOUS
 10
-116.2555126388
 20
49.7264977455
 40
1.125
100
AcDbArc
 50
255.0
 51
195.0
  0
ARC
  5
6C5
100
AcDbEntity
  8
ASSI
100
AcDbCircle
 62
7
  6
CONTINUOUS
 10
-117.1305126388
 20
83.1514977455
 40
1.75
100
AcDbArc
 50
90.0
 51
136.6905311332
  0
ARC
  5
6C6
100
AcDbEntity
  8
ASSI
100
AcDbCircle
 62
7
  6
CONTINUOUS
 10
-115.3805126388
 20
83.1514977455
 40
1.75
100
AcDbArc
 50
43.3094688668
 51
90.0
  0
CIRCLE
  5
6C7
100
AcDbEntity
  8
0
100
AcDbCircle
 62
7
  6
CONTINUOUS
 10
-116.2555126388
 20
78.4764977455
 40
1.725
  0
CIRCLE
  5
6C8
100
AcDbEntity
  8
0
100
AcDbCircle
 62
7
  6
CONTINUOUS
 10
-116.2555126388
 20
78.4764977455
 40
1.5
  0
CIRCLE
  5
6C9
100
AcDbEntity
  8
0
100
AcDbCircle
 62
7
  6
CONTINUOUS
 10
-116.2555126388
 20
78.4764977455
 40
1.25
  0
ARC
  5
6CA
100
AcDbEntity
  8
0
100
AcDbCircle
 62
7
  6
CONTINUOUS
 10
-116.2555126388
 20
78.4764977455
 40
1.125
100
AcDbArc
 50
255.0
 51
195.0
  0
ARC
  5
6CB
100
AcDbEntity
  8
RACCORDO
100
AcDbCircle
 62
7
  6
CONTINUOUS
 10
-119.2555126388
 20
79.4889977455
 40
0.4
100
AcDbArc
 50
289.4509645777
 51
70.5490354223
  0
ARC
  5
6CC
100
AcDbEntity
  8
RACCORDO
100
AcDbCircle
 62
7
  6
CONTINUOUS
 10
-119.2555126388
 20
77.4639977455
 40
0.4
100
AcDbArc
 50
289.4509645777
 51
70.5490354223
  0
ARC
  5
6CD
100
AcDbEntity
  8
RACCORDO
100
AcDbCircle
 62
7
  6
CONTINUOUS
 10
-113.2555126388
 20
50.7389977455
 40
0.4
100
AcDbArc
 50
109.4509645777
 51
250.5490354223
  0
ARC
  5
6CE
100
AcDbEntity
  8
RACCORDO
100
AcDbCircle
 62
7
  6
CONTINUOUS
 10
-113.2555126388
 20
48.7139977455
 40
0.4
100
AcDbArc
 50
109.4509645777
 51
250.5490354223
  0
ARC
  5
6CF
100
AcDbEntity
  8
RACCORDO
100
AcDbCircle
 62
7
  6
CONTINUOUS
 10
-113.2555126388
 20
12.6139977455
 40
0.4
100
AcDbArc
 50
109.4509645777
 51
250.5490354223
  0
ARC
  5
6D0
100
AcDbEntity
  8
RACCORDO
100
AcDbCircle
 62
7
  6
CONTINUOUS
 10
-113.2555126388
 20
10.5889977455
 40
0.4
100
AcDbArc
 50
109.4509645777
 51
250.5490354223
  0
ARC
  5
6D1
100
AcDbEntity
  8
RACCORDO
100
AcDbCircle
 62
7
  6
CONTINUOUS
 10
-111.2555126388
 20
29.9764977455
 40
0.25
100
AcDbArc
 50
0.0
 51
90.0
  0
ARC
  5
6D2
100
AcDbEntity
  8
RACCORDO
100
AcDbCircle
 62
7
  6
CONTINUOUS
 10
-110.7555126388
 20
29.4764977455
 40
0.25
100
AcDbArc
 50
180.0
 51
270.0
  0
ARC
  5
6D3
100
AcDbEntity
  8
RACCORDO
100
AcDbCircle
 62
7
  6
CONTINUOUS
 10
-111.2555126388
 20
31.3514977455
 40
0.25
100
AcDbArc
 50
270.0
 51
360.0
  0
ARC
  5
6D4
100
AcDbEntity
  8
RACCORDO
100
AcDbCircle
 62
7
  6
CONTINUOUS
 10
-110.7555126388
 20
31.8514977455
 40
0.25
100
AcDbArc
 50
90.0
 51
180.0
  0
ARC
  5
6D5
100
AcDbEntity
  8
RACCORDO
100
AcDbCircle
 62
7
  6
CONTINUOUS
 10
-110.2055126388
 20
29.4264977455
 40
0.2
100
AcDbArc
 50
270.0
 51
360.0
  0
ARC
  5
6D6
100
AcDbEntity
  8
RACCORDO
100
AcDbCircle
 62
7
  6
CONTINUOUS
 10
-110.2055126388
 20
31.9014977455
 40
0.2
100
AcDbArc
 50
0.0
 51
90.0
  0
ARC
  5
6D7
100
AcDbEntity
  8
RACCORDO
100
AcDbCircle
 62
7
  6
CONTINUOUS
 10
-113.2555126388
 20
79.4889977455
 40
0.4
100
AcDbArc
 50
109.4509645777
 51
250.5490354223
  0
ARC
  5
6D8
100
AcDbEntity
  8
RACCORDO
100
AcDbCircle
 62
7
  6
CONTINUOUS
 10
-113.2555126388
 20
77.4639977455
 40
0.4
100
AcDbArc
 50
109.4509645777
 51
250.5490354223
  0
ARC
  5
6D9
100
AcDbEntity
  8
RACCORDO
100
AcDbCircle
 62
7
  6
CONTINUOUS
 10
-110.7555126388
 20
96.3514977455
 40
0.25
100
AcDbArc
 50
180.0
 51
270.0
  0
ARC
  5
6DA
100
AcDbEntity
  8
RACCORDO
100
AcDbCircle
 62
7
  6
CONTINUOUS
 10
-110.2055126388
 20
96.3014977455
 40
0.2
100
AcDbArc
 50
270.0
 51
360.0
  0
CIRCLE
  5
6DB
100
AcDbEntity
  8
0
100
AcDbCircle
 62
7
  6
CONTINUOUS
 10
-78.7555126388
 20
195.3014977455
 40
1.25
  0
ARC
  5
6DC
100
AcDbEntity
  8
0
100
AcDbCircle
 62
7
  6
CONTINUOUS
 10
-78.7555126388
 20
195.3014977455
 40
1.125
100
AcDbArc
 50
255.0
 51
195.0
  0
CIRCLE
  5
6DD
100
AcDbEntity
  8
0
100
AcDbCircle
 62
7
  6
CONTINUOUS
 10
141.3869873612
 20
-238.5735022545
 40
11.25
  0
ARC
  5
6DE
100
AcDbEntity
  8
RACCORDO
100
AcDbCircle
 62
7
  6
CONTINUOUS
 10
154.3194873612
 20
-249.7437131378
 40
0.25
100
AcDbArc
 50
179.9502596878
 51
225.5323536877
  0
ARC
  5
6DF
100
AcDbEntity
  8
RACCORDO
100
AcDbCircle
 62
7
  6
CONTINUOUS
 10
113.2444873612
 20
-83.0110022545
 40
0.4
100
AcDbArc
 50
289.4509645777
 51
70.5490354223
  0
ARC
  5
6E0
100
AcDbEntity
  8
RACCORDO
100
AcDbCircle
 62
7
  6
CONTINUOUS
 10
113.2444873612
 20
-85.0360022545
 40
0.4
100
AcDbArc
 50
289.4509645777
 51
70.5490354223
  0
ARC
  5
6E1
100
AcDbEntity
  8
RACCORDO
100
AcDbCircle
 62
7
  6
CONTINUOUS
 10
111.2444873612
 20
-102.3985022545
 40
0.25
100
AcDbArc
 50
180.0
 51
270.0
  0
ARC
  5
6E2
100
AcDbEntity
  8
RACCORDO
100
AcDbCircle
 62
7
  6
CONTINUOUS
 10
110.7444873612
 20
-101.8985022545
 40
0.25
100
AcDbArc
 50
0.0
 51
90.0
  0
ARC
  5
6E3
100
AcDbEntity
  8
RACCORDO
100
AcDbCircle
 62
7
  6
CONTINUOUS
 10
110.1944873612
 20
-101.8485022545
 40
0.2
100
AcDbArc
 50
90.0
 51
180.0
  0
ARC
  5
6E4
100
AcDbEntity
  8
RACCORDO
100
AcDbCircle
 62
7
  6
CONTINUOUS
 10
113.2444873612
 20
-54.2610022545
 40
0.4
100
AcDbArc
 50
289.4509645777
 51
70.5490354223
  0
ARC
  5
6E5
100
AcDbEntity
  8
RACCORDO
100
AcDbCircle
 62
7
  6
CONTINUOUS
 10
113.2444873612
 20
-56.2860022545
 40
0.4
100
AcDbArc
 50
289.4509645777
 51
70.5490354223
  0
ARC
  5
6E6
100
AcDbEntity
  8
RACCORDO
100
AcDbCircle
 62
7
  6
CONTINUOUS
 10
113.2444873612
 20
-16.1360022545
 40
0.4
100
AcDbArc
 50
289.4509645777
 51
70.5490354223
  0
ARC
  5
6E7
100
AcDbEntity
  8
RACCORDO
100
AcDbCircle
 62
7
  6
CONTINUOUS
 10
113.2444873612
 20
-18.1610022545
 40
0.4
100
AcDbArc
 50
289.4509645777
 51
70.5490354223
  0
ARC
  5
6E8
100
AcDbEntity
  8
RACCORDO
100
AcDbCircle
 62
7
  6
CONTINUOUS
 10
111.2444873612
 20
-35.5235022545
 40
0.25
100
AcDbArc
 50
180.0
 51
270.0
  0
ARC
  5
6E9
100
AcDbEntity
  8
RACCORDO
100
AcDbCircle
 62
7
  6
CONTINUOUS
 10
110.7444873612
 20
-35.0235022545
 40
0.25
100
AcDbArc
 50
0.0
 51
90.0
  0
ARC
  5
6EA
100
AcDbEntity
  8
RACCORDO
100
AcDbCircle
 62
7
  6
CONTINUOUS
 10
111.2444873612
 20
-36.8985022545
 40
0.25
100
AcDbArc
 50
90.0
 51
180.0
  0
ARC
  5
6EB
100
AcDbEntity
  8
RACCORDO
100
AcDbCircle
 62
7
  6
CONTINUOUS
 10
110.7444873612
 20
-37.3985022545
 40
0.25
100
AcDbArc
 50
270.0
 51
360.0
  0
ARC
  5
6EC
100
AcDbEntity
  8
RACCORDO
100
AcDbCircle
 62
7
  6
CONTINUOUS
 10
110.1944873612
 20
-34.9735022545
 40
0.2
100
AcDbArc
 50
90.0
 51
180.0
  0
ARC
  5
6ED
100
AcDbEntity
  8
RACCORDO
100
AcDbCircle
 62
7
  6
CONTINUOUS
 10
110.1944873612
 20
-37.4485022545
 40
0.2
100
AcDbArc
 50
180.0
 51
270.0
  0
ARC
  5
6EE
100
AcDbEntity
  8
ASSI
100
AcDbCircle
 62
7
  6
CONTINUOUS
 10
117.1194873612
 20
-88.6985022545
 40
1.75
100
AcDbArc
 50
270.0
 51
316.6905311332
  0
ARC
  5
6EF
100
AcDbEntity
  8
ASSI
100
AcDbCircle
 62
7
  6
CONTINUOUS
 10
115.3694873612
 20
-88.6985022545
 40
1.75
100
AcDbArc
 50
223.3094688668
 51
270.0
  0
CIRCLE
  5
6F0
100
AcDbEntity
  8
0
100
AcDbCircle
 62
7
  6
CONTINUOUS
 10
116.2444873612
 20
-84.0235022545
 40
1.725
  0
CIRCLE
  5
6F1
100
AcDbEntity
  8
0
100
AcDbCircle
 62
7
  6
CONTINUOUS
 10
116.2444873612
 20
-84.0235022545
 40
1.5
  0
CIRCLE
  5
6F2
100
AcDbEntity
  8
0
100
AcDbCircle
 62
7
  6
CONTINUOUS
 10
116.2444873612
 20
-84.0235022545
 40
1.25
  0
ARC
  5
6F3
100
AcDbEntity
  8
0
100
AcDbCircle
 62
7
  6
CONTINUOUS
 10
116.2444873612
 20
-84.0235022545
 40
1.125
100
AcDbArc
 50
255.0
 51
195.0
  0
ARC
  5
6F4
100
AcDbEntity
  8
RACCORDO
100
AcDbCircle
 62
7
  6
CONTINUOUS
 10
119.2444873612
 20
-83.0110022545
 40
0.4
100
AcDbArc
 50
109.4509645777
 51
250.5490354223
  0
ARC
  5
6F5
100
AcDbEntity
  8
RACCORDO
100
AcDbCircle
 62
7
  6
CONTINUOUS
 10
119.2444873612
 20
-85.0360022545
 40
0.4
100
AcDbArc
 50
109.4509645777
 51
250.5490354223
  0
ARC
  5
6F6
100
AcDbEntity
  8
ASSI
100
AcDbCircle
 62
7
  6
CONTINUOUS
 10
117.1194873612
 20
-50.5985022545
 40
1.75
100
AcDbArc
 50
43.3094688668
 51
90.0
  0
ARC
  5
6F7
100
AcDbEntity
  8
ASSI
100
AcDbCircle
 62
7
  6
CONTINUOUS
 10
115.3694873612
 20
-50.5985022545
 40
1.75
100
AcDbArc
 50
90.0
 51
136.6905311332
  0
CIRCLE
  5
6F8
100
AcDbEntity
  8
0
100
AcDbCircle
 62
7
  6
CONTINUOUS
 10
116.2444873612
 20
-55.2735022545
 40
1.725
  0
CIRCLE
  5
6F9
100
AcDbEntity
  8
0
100
AcDbCircle
 62
7
  6
CONTINUOUS
 10
116.2444873612
 20
-55.2735022545
 40
1.5
  0
CIRCLE
  5
6FA
100
AcDbEntity
  8
0
100
AcDbCircle
 62
7
  6
CONTINUOUS
 10
116.2444873612
 20
-55.2735022545
 40
1.25
  0
ARC
  5
6FB
100
AcDbEntity
  8
0
100
AcDbCircle
 62
7
  6
CONTINUOUS
 10
116.2444873612
 20
-55.2735022545
 40
1.125
100
AcDbArc
 50
255.0
 51
195.0
  0
ARC
  5
6FC
100
AcDbEntity
  8
ASSI
100
AcDbCircle
 62
7
  6
CONTINUOUS
 10
117.1194873612
 20
-21.8235022545
 40
1.75
100
AcDbArc
 50
270.0
 51
316.6905311332
  0
ARC
  5
6FD
100
AcDbEntity
  8
ASSI
100
AcDbCircle
 62
7
  6
CONTINUOUS
 10
115.3694873612
 20
-21.8235022545
 40
1.75
100
AcDbArc
 50
223.3094688668
 51
270.0
  0
CIRCLE
  5
6FE
100
AcDbEntity
  8
0
100
AcDbCircle
 62
7
  6
CONTINUOUS
 10
116.2444873612
 20
-17.1485022545
 40
1.725
  0
CIRCLE
  5
6FF
100
AcDbEntity
  8
0
100
AcDbCircle
 62
7
  6
CONTINUOUS
 10
116.2444873612
 20
-17.1485022545
 40
1.5
  0
CIRCLE
  5
700
100
AcDbEntity
  8
0
100
AcDbCircle
 62
7
  6
CONTINUOUS
 10
116.2444873612
 20
-17.1485022545
 40
1.25
  0
ARC
  5
701
100
AcDbEntity
  8
0
100
AcDbCircle
 62
7
  6
CONTINUOUS
 10
116.2444873612
 20
-17.1485022545
 40
1.125
100
AcDbArc
 50
255.0
 51
195.0
  0
ARC
  5
702
100
AcDbEntity
  8
RACCORDO
100
AcDbCircle
 62
7
  6
CONTINUOUS
 10
119.2444873612
 20
-54.2610022545
 40
0.4
100
AcDbArc
 50
109.4509645777
 51
250.5490354223
  0
ARC
  5
703
100
AcDbEntity
  8
RACCORDO
100
AcDbCircle
 62
7
  6
CONTINUOUS
 10
119.2444873612
 20
-56.2860022545
 40
0.4
100
AcDbArc
 50
109.4509645777
 51
250.5490354223
  0
ARC
  5
704
100
AcDbEntity
  8
RACCORDO
100
AcDbCircle
 62
7
  6
CONTINUOUS
 10
119.2444873612
 20
-16.1360022545
 40
0.4
100
AcDbArc
 50
109.4509645777
 51
250.5490354223
  0
ARC
  5
705
100
AcDbEntity
  8
RACCORDO
100
AcDbCircle
 62
7
  6
CONTINUOUS
 10
119.2444873612
 20
-18.1610022545
 40
0.4
100
AcDbArc
 50
109.4509645777
 51
250.5490354223
  0
ARC
  5
706
100
AcDbEntity
  8
RACCORDO
100
AcDbCircle
 62
7
  6
CONTINUOUS
 10
198.4944873612
 20
-247.3485022545
 40
1.5
100
AcDbArc
 50
270.0
 51
360.0
  0
ARC
  5
707
100
AcDbEntity
  8
0
100
AcDbCircle
 62
7
  6
CONTINUOUS
 10
198.4944873612
 20
-229.0485022545
 40
1.5
100
AcDbArc
 50
7.6772125306
 51
70.5236368766
  0
ARC
  5
708
100
AcDbEntity
  8
0
100
AcDbCircle
 62
7
  6
CONTINUOUS
 10
178.7444873612
 20
-247.3485022545
 40
1.5
100
AcDbArc
 50
199.4763631234
 51
270.0
  0
CIRCLE
  5
709
100
AcDbEntity
  8
ASSI
100
AcDbCircle
 62
7
  6
CONTINUOUS
 10
162.4944873612
 20
-198.8485022545
 40
1.25
  0
CIRCLE
  5
70A
100
AcDbEntity
  8
ASSI
100
AcDbCircle
 62
7
  6
CONTINUOUS
 10
189.7194873612
 20
-190.2410022545
 40
1.25
  0
ARC
  5
70B
100
AcDbEntity
  8
RACCORDO
100
AcDbCircle
 62
7
  6
CONTINUOUS
 10
183.3694873612
 20
-211.3485022545
 40
0.75
100
AcDbArc
 50
180.0
 51
360.0
  0
ARC
  5
70C
100
AcDbEntity
  8
RACCORDO
100
AcDbCircle
 62
7
  6
CONTINUOUS
 10
183.3694873612
 20
-184.8485022545
 40
0.75
100
AcDbArc
 50
0.0
 51
180.0
  0
ARC
  5
70D
100
AcDbEntity
  8
RACCORDO
100
AcDbCircle
 62
7
  6
CONTINUOUS
 10
162.4944873612
 20
-232.2235022545
 40
0.75
100
AcDbArc
 50
270.0
 51
90.0
  0
ARC
  5
70E
100
AcDbEntity
  8
RACCORDO
100
AcDbCircle
 62
7
  6
CONTINUOUS
 10
156.8369779101
 20
-251.8159928035
 40
0.532509451
100
AcDbArc
 50
225.5693110392
 51
269.9834286537
  0
ARC
  5
70F
100
AcDbEntity
  8
RACCORDO
100
AcDbCircle
 62
7
  6
CONTINUOUS
 10
169.3019903208
 20
-251.8159992949
 40
0.5325026951
100
AcDbArc
 50
270.0104250575
 51
314.4319345548
  0
ARC
  5
710
100
AcDbEntity
  8
RACCORDO
100
AcDbCircle
 62
7
  6
CONTINUOUS
 10
171.8194873612
 20
-249.7434959538
 40
0.25
100
AcDbArc
 50
314.4325830101
 51
359.9997472184
  0
ARC
  5
711
100
AcDbEntity
  8
RACCORDO
100
AcDbCircle
 62
7
  6
CONTINUOUS
 10
113.2444873612
 20
12.6139977455
 40
0.4
100
AcDbArc
 50
289.4509645777
 51
70.5490354223
  0
ARC
  5
712
100
AcDbEntity
  8
RACCORDO
100
AcDbCircle
 62
7
  6
CONTINUOUS
 10
113.2444873612
 20
10.5889977455
 40
0.4
100
AcDbArc
 50
289.4509645777
 51
70.5490354223
  0
ARC
  5
713
100
AcDbEntity
  8
RACCORDO
100
AcDbCircle
 62
7
  6
CONTINUOUS
 10
113.2444873612
 20
50.7389977455
 40
0.4
100
AcDbArc
 50
289.4509645777
 51
70.5490354223
  0
ARC
  5
714
100
AcDbEntity
  8
RACCORDO
100
AcDbCircle
 62
7
  6
CONTINUOUS
 10
113.2444873612
 20
48.7139977455
 40
0.4
100
AcDbArc
 50
289.4509645777
 51
70.5490354223
  0
ARC
  5
715
100
AcDbEntity
  8
RACCORDO
100
AcDbCircle
 62
7
  6
CONTINUOUS
 10
111.2444873612
 20
29.9764977455
 40
0.25
100
AcDbArc
 50
90.0
 51
180.0
  0
ARC
  5
716
100
AcDbEntity
  8
RACCORDO
100
AcDbCircle
 62
7
  6
CONTINUOUS
 10
110.7444873612
 20
29.4764977455
 40
0.25
100
AcDbArc
 50
270.0
 51
360.0
  0
ARC
  5
717
100
AcDbEntity
  8
RACCORDO
100
AcDbCircle
 62
7
  6
CONTINUOUS
 10
111.2444873612
 20
31.3514977455
 40
0.25
100
AcDbArc
 50
180.0
 51
270.0
  0
ARC
  5
718
100
AcDbEntity
  8
RACCORDO
100
AcDbCircle
 62
7
  6
CONTINUOUS
 10
110.7444873612
 20
31.8514977455
 40
0.25
100
AcDbArc
 50
0.0
 51
90.0
  0
ARC
  5
719
100
AcDbEntity
  8
RACCORDO
100
AcDbCircle
 62
7
  6
CONTINUOUS
 10
110.1944873612
 20
29.4264977455
 40
0.2
100
AcDbArc
 50
180.0
 51
270.0
  0
ARC
  5
71A
100
AcDbEntity
  8
RACCORDO
100
AcDbCircle
 62
7
  6
CONTINUOUS
 10
110.1944873612
 20
31.9014977455
 40
0.2
100
AcDbArc
 50
90.0
 51
180.0
  0
ARC
  5
71B
100
AcDbEntity
  8
RACCORDO
100
AcDbCircle
 62
7
  6
CONTINUOUS
 10
113.2444873612
 20
78.9889977455
 40
0.4
100
AcDbArc
 50
289.4509645777
 51
70.5490354223
  0
ARC
  5
71C
100
AcDbEntity
  8
RACCORDO
100
AcDbCircle
 62
7
  6
CONTINUOUS
 10
113.2444873612
 20
76.9639977455
 40
0.4
100
AcDbArc
 50
289.4509645777
 51
70.5490354223
  0
ARC
  5
71D
100
AcDbEntity
  8
RACCORDO
100
AcDbCircle
 62
7
  6
CONTINUOUS
 10
110.7444873612
 20
96.3514977455
 40
0.25
100
AcDbArc
 50
270.0
 51
360.0
  0
ARC
  5
71E
100
AcDbEntity
  8
RACCORDO
100
AcDbCircle
 62
7
  6
CONTINUOUS
 10
110.1944873612
 20
96.3014977455
 40
0.2
100
AcDbArc
 50
180.0
 51
270.0
  0
ARC
  5
71F
100
AcDbEntity
  8
ASSI
100
AcDbCircle
 62
7
  6
CONTINUOUS
 10
117.1194873612
 20
16.2764977455
 40
1.75
100
AcDbArc
 50
43.3094688668
 51
90.0
  0
ARC
  5
720
100
AcDbEntity
  8
ASSI
100
AcDbCircle
 62
7
  6
CONTINUOUS
 10
115.3694873612
 20
16.2764977455
 40
1.75
100
AcDbArc
 50
90.0
 51
136.6905311332
  0
CIRCLE
  5
721
100
AcDbEntity
  8
0
100
AcDbCircle
 62
7
  6
CONTINUOUS
 10
116.2444873612
 20
11.6014977455
 40
1.725
  0
CIRCLE
  5
722
100
AcDbEntity
  8
0
100
AcDbCircle
 62
7
  6
CONTINUOUS
 10
116.2444873612
 20
11.6014977455
 40
1.5
  0
CIRCLE
  5
723
100
AcDbEntity
  8
0
100
AcDbCircle
 62
7
  6
CONTINUOUS
 10
116.2444873612
 20
11.6014977455
 40
1.25
  0
ARC
  5
724
100
AcDbEntity
  8
0
100
AcDbCircle
 62
7
  6
CONTINUOUS
 10
116.2444873612
 20
11.6014977455
 40
1.125
100
AcDbArc
 50
255.0
 51
195.0
  0
ARC
  5
725
100
AcDbEntity
  8
ASSI
100
AcDbCircle
 62
7
  6
CONTINUOUS
 10
117.1194873612
 20
45.0514977455
 40
1.75
100
AcDbArc
 50
270.0
 51
316.6905311332
  0
ARC
  5
726
100
AcDbEntity
  8
ASSI
100
AcDbCircle
 62
7
  6
CONTINUOUS
 10
115.3694873612
 20
45.0514977455
 40
1.75
100
AcDbArc
 50
223.3094688668
 51
270.0
  0
CIRCLE
  5
727
100
AcDbEntity
  8
0
100
AcDbCircle
 62
7
  6
CONTINUOUS
 10
116.2444873612
 20
49.7264977455
 40
1.725
  0
CIRCLE
  5
728
100
AcDbEntity
  8
0
100
AcDbCircle
 62
7
  6
CONTINUOUS
 10
116.2444873612
 20
49.7264977455
 40
1.5
  0
CIRCLE
  5
729
100
AcDbEntity
  8
0
100
AcDbCircle
 62
7
  6
CONTINUOUS
 10
116.2444873612
 20
49.7264977455
 40
1.25
  0
ARC
  5
72A
100
AcDbEntity
  8
0
100
AcDbCircle
 62
7
  6
CONTINUOUS
 10
116.2444873612
 20
49.7264977455
 40
1.125
100
AcDbArc
 50
255.0
 51
195.0
  0
ARC
  5
72B
100
AcDbEntity
  8
RACCORDO
100
AcDbCircle
 62
7
  6
CONTINUOUS
 10
119.2444873612
 20
12.6139977455
 40
0.4
100
AcDbArc
 50
109.4509645777
 51
250.5490354223
  0
ARC
  5
72C
100
AcDbEntity
  8
RACCORDO
100
AcDbCircle
 62
7
  6
CONTINUOUS
 10
119.2444873612
 20
10.5889977455
 40
0.4
100
AcDbArc
 50
109.4509645777
 51
250.5490354223
  0
ARC
  5
72D
100
AcDbEntity
  8
RACCORDO
100
AcDbCircle
 62
7
  6
CONTINUOUS
 10
119.2444873612
 20
50.7389977455
 40
0.4
100
AcDbArc
 50
109.4509645777
 51
250.5490354223
  0
ARC
  5
72E
100
AcDbEntity
  8
RACCORDO
100
AcDbCircle
 62
7
  6
CONTINUOUS
 10
119.2444873612
 20
48.7139977455
 40
0.4
100
AcDbArc
 50
109.4509645777
 51
250.5490354223
  0
ARC
  5
72F
100
AcDbEntity
  8
ASSI
100
AcDbCircle
 62
7
  6
CONTINUOUS
 10
117.1194873612
 20
83.1514977455
 40
1.75
100
AcDbArc
 50
43.3094688668
 51
90.0
  0
ARC
  5
730
100
AcDbEntity
  8
ASSI
100
AcDbCircle
 62
7
  6
CONTINUOUS
 10
115.3694873612
 20
83.1514977455
 40
1.75
100
AcDbArc
 50
90.0
 51
136.6905311332
  0
CIRCLE
  5
731
100
AcDbEntity
  8
0
100
AcDbCircle
 62
7
  6
CONTINUOUS
 10
116.2444873612
 20
77.9764977455
 40
1.725
  0
CIRCLE
  5
732
100
AcDbEntity
  8
0
100
AcDbCircle
 62
7
  6
CONTINUOUS
 10
116.2444873612
 20
77.9764977455
 40
1.5
  0
CIRCLE
  5
733
100
AcDbEntity
  8
0
100
AcDbCircle
 62
7
  6
CONTINUOUS
 10
116.2444873612
 20
77.9764977455
 40
1.25
  0
ARC
  5
734
100
AcDbEntity
  8
0
100
AcDbCircle
 62
7
  6
CONTINUOUS
 10
116.2444873612
 20
77.9764977455
 40
1.125
100
AcDbArc
 50
255.0
 51
195.0
  0
ARC
  5
735
100
AcDbEntity
  8
RACCORDO
100
AcDbCircle
 62
7
  6
CONTINUOUS
 10
119.2444873612
 20
78.9889977455
 40
0.4
100
AcDbArc
 50
109.4509645777
 51
250.5490354223
  0
ARC
  5
736
100
AcDbEntity
  8
RACCORDO
100
AcDbCircle
 62
7
  6
CONTINUOUS
 10
119.2444873612
 20
76.9639977455
 40
0.4
100
AcDbArc
 50
109.4509645777
 51
250.5490354223
  0
CIRCLE
  5
737
100
AcDbEntity
  8
0
100
AcDbCircle
 62
7
  6
CONTINUOUS
 10
78.7444873612
 20
195.3014977455
 40
1.25
  0
ARC
  5
738
100
AcDbEntity
  8
0
100
AcDbCircle
 62
7
  6
CONTINUOUS
 10
78.7444873612
 20
195.3014977455
 40
1.125
100
AcDbArc
 50
255.0
 51
195.0
  0
CIRCLE
  5
739
100
AcDbEntity
  8
0
100
AcDbCircle
 62
7
  6
CONTINUOUS
 10
189.9944873612
 20
1.1514977455
 40
11.25
  0
CIRCLE
  5
73A
100
AcDbEntity
  8
0
100
AcDbCircle
 62
7
  6
CONTINUOUS
 10
141.3869873612
 20
240.8764977455
 40
11.25
  0
ARC
  5
73B
100
AcDbEntity
  8
0
100
AcDbCircle
 62
7
  6
CONTINUOUS
 10
174.7194873612
 20
247.6514977455
 40
3.75
100
AcDbArc
 50
68.964788167
 51
111.035211833
  0
ARC
  5
73C
100
AcDbEntity
  8
0
100
AcDbCircle
 62
7
  6
CONTINUOUS
 10
174.7194873612
 20
247.6514977455
 40
3.75
100
AcDbArc
 50
46.6666666667
 51
52.6447649605
  0
ARC
  5
73D
100
AcDbEntity
  8
RACCORDO
100
AcDbCircle
 62
7
  6
CONTINUOUS
 10
198.4944873612
 20
249.6514977455
 40
1.5
100
AcDbArc
 50
0.0
 51
90.0
  0
ARC
  5
73E
100
AcDbEntity
  8
0
100
AcDbCircle
 62
7
  6
CONTINUOUS
 10
198.4944873612
 20
231.3514977455
 40
1.5
100
AcDbArc
 50
289.4763631234
 51
352.3227874694
  0
ARC
  5
73F
100
AcDbEntity
  8
0
100
AcDbCircle
 62
7
  6
CONTINUOUS
 10
178.7444873612
 20
249.6514977455
 40
1.5
100
AcDbArc
 50
90.0
 51
160.5236368766
  0
CIRCLE
  5
740
100
AcDbEntity
  8
ASSI
100
AcDbCircle
 62
7
  6
CONTINUOUS
 10
162.4944873612
 20
201.1514977455
 40
1.25
  0
CIRCLE
  5
741
100
AcDbEntity
  8
ASSI
100
AcDbCircle
 62
7
  6
CONTINUOUS
 10
189.7194873612
 20
192.5439977455
 40
1.25
  0
ARC
  5
742
100
AcDbEntity
  8
RACCORDO
100
AcDbCircle
 62
7
  6
CONTINUOUS
 10
183.3694873612
 20
213.6514977455
 40
0.75
100
AcDbArc
 50
0.0
 51
180.0
  0
ARC
  5
743
100
AcDbEntity
  8
RACCORDO
100
AcDbCircle
 62
7
  6
CONTINUOUS
 10
183.3694873612
 20
187.1514977455
 40
0.75
100
AcDbArc
 50
180.0
 51
360.0
  0
ARC
  5
744
100
AcDbEntity
  8
RACCORDO
100
AcDbCircle
 62
7
  6
CONTINUOUS
 10
162.4944873612
 20
234.5264977455
 40
0.75
100
AcDbArc
 50
270.0
 51
90.0
  0
ARC
  5
745
100
AcDbEntity
  8
0
100
AcDbCircle
 62
7
  6
CONTINUOUS
 10
176.9944873612
 20
250.3014977455
 40
0.6
100
AcDbArc
 50
15.1692077588
 51
90.0
  0
ENDSEC
  0
SECTION
  2
OBJECTS
  0
DICTIONARY
  5
C
100
AcDbDictionary
280
0
281
1
  3
ACAD_GROUP
350
D
  3
ACAD_MLINESTYLE
350
17
  3
ACAD_LAYOUT
350
1A
  3
ACAD_PLOTSETTINGS
350
19
  3
ACAD_PLOTSTYLENAME
350
E
  0
DICTIONARY
  5
D
102
{ACAD_REACTORS
330
C
102
}
100
AcDbDictionary
280
0
281
1
  0
ACDBDICTIONARYWDFLT
  5
E
102
{ACAD_REACTORS
330
C
102
}
100
AcDbDictionary
281
1
  3
Normal
350
F
100
AcDbDictionaryWithDefault
340
F
  0
DICTIONARY
  5
17
102
{ACAD_REACTORS
330
C
102
}
100
AcDbDictionary
280
0
281
1
  3
Standard
350
18
  0
DICTIONARY
  5
19
102
{ACAD_REACTORS
330
C
102
}
100
AcDbDictionary
281
1
  0
DICTIONARY
  5
1A
102
{ACAD_REACTORS
330
C
102
}
100
AcDbDictionary
281
1
  3
Model
350
746
  3
Layout1
350
747
  0
ACDBPLACEHOLDER
  5
F
102
{ACAD_REACTORS
330
E
102
}
  0
MLINESTYLE
  5
18
102
{ACAD_REACTORS
330
17
102
}
100
AcDbMlineStyle
  2
STANDARD
 70
0
  3

 62
256
 51
90.0
 52
90.0
 71
2
 49
0.5
 62
256
  6
BYLAYER
 49
-0.5
 62
256
  6
BYLAYER
  0
LAYOUT
  5
746
102
{ACAD_REACTORS
330
1A
102
}
100
AcDbPlotSettings
  1

  2
none_device
  4
ISO_A4_(297.00_x_210.00_MM)
  6

 40
0.0
 41
0.0
 42
0.0
 43
0.0
 44
297.0
 45
210.0
 46
0.0
 47
0.0
 48
0.0
 49
0.0
140
0.0
141
0.0
142
1.0
143
1.0
 70
1024
 72
1
 73
0
 74
0
  7

 75
0
147
1.0
148
0.0
149
0.0
100
AcDbLayout
  1
Model
 70
0
 71
0
 10
0.0
 20
0.0
 11
297.0
 21
210.0
 12
0.0
 22
0.0
 32
0.0
 14
0.0
 24
0.0
 34
0.0
 15
0.0
 25
0.0
 35
0.0
146
0.0
 13
0.0
 23
0.0
 33
0.0
 16
1.0
 26
0.0
 36
0.0
 17
0.0
 27
1.0
 37
0.0
 76
0
330
213
345
0
346
0
  0
LAYOUT
  5
747
102
{ACAD_REACTORS
330
1A
102
}
100
AcDbPlotSettings
  1

  2
none_device
  4
ISO_A4_(297.00_x_210.00_MM)
  6

 40
0.0
 41
0.0
 42
0.0
 43
0.0
 44
297.0
 45
210.0
 46
0.0
 47
0.0
 48
0.0
 49
0.0
140
0.0
141
0.0
142
1.0
143
1.0
 70
0
 72
1
 73
0
 74
0
  7

 75
0
147
1.0
148
0.0
149
0.0
100
AcDbLayout
  1
Layout1
 70
0
 71
1
 10
0.0
 20
0.0
 11
297.0
 21
210.0
 12
0.0
 22
0.0
 32
0.0
 14
0.0
 24
0.0
 34
0.0
 15
0.0
 25
0.0
 35
0.0
146
0.0
 13
0.0
 23
0.0
 33
0.0
 16
1.0
 26
0.0
 36
0.0
 17
0.0
 27
1.0
 37
0.0
 76
0
330
214
345
0
346
0
  0
ENDSEC
  0
EOF
