0
SECTION
2
HEADER
9
$ACADVER
1
AC1014
9
$HANDSEED
5
       315
9
$EXTMAX
10
297.0000000000
20
210.0000000000
9
$EXTMIN
10
0.0000000000
20
0.0000000000
9
$LIMMIN
10
0.0000000000
20
0.0000000000
9
$LIMMAX
10
297.0000000000
20
210.0000000000
9
$VIEWCTR
10
148.5000000000
20
105.0000000000
9
$VIEWSIZE
40
210.0000000000
9
$CLAYER
8
0
9
$LTSCALE
40
16.3350000000
9
$CELTYPE
6
BYLAYER
9
$DIMSCALE
40
1
9
$DIMASZ
40
3.0000000000
9
$DIMEXO
40
1.8562500000
9
$DIMDLI
40
11.2860000000
9
$DIMEXE
40
5.3460000000
9
$DIMCEN
40
2.6730000000
9
$DIMLFAC
40
1.0000000000
9
$DIMTXT
40
3.0000000000
9
$DIMTOL
70
1
9
$DIMLIM
70
0
9
$DIMTFAC
40
1.0000000000
9
$DIMTP
40
0.0100000000
9
$DIMTM
40
0.0100000000
9
$MEASUREMENT
70
1
0
ENDSEC
0
SECTION
2
CLASSES
0
ENDSEC
0
SECTION
2
TABLES
0
TABLE
2
VPORT
5
8
100
AcDbSymbolTable
70
2
0
VPORT
5
1F4
100
AcDbSymbolTableRecord
100
AcDbViewportTableRecord
2
*ACTIVE
70
0
10
0.0
20
0.0
11
1.0
21
1.0
12
148.5000000000
22
105.0000000000
13
0.0
23
0.0
14
1.0
24
1.0
15
0.0
25
0.0
16
0.0
26
0.0
36
1.0
17
0.0
27
0.0
37
0.0
40
210.0000000000
41
1.4142857143
42
50.0
43
0.0
44
0.0
50
0.0
51
0.0
71
0
72
100
73
1
74
1
75
0
76
0
77
0
78
0
0
ENDTAB
0
TABLE
2
LTYPE
5
5
100
AcDbSymbolTable
70
6
0
LTYPE
5
14
100
AcDbSymbolTableRecord
100
AcDbLinetypeTableRecord
2
BYBLOCK
70
0
3

72
65
73
0
40
0.0
0
LTYPE
5
15
100
AcDbSymbolTableRecord
100
AcDbLinetypeTableRecord
2
BYLAYER
70
0
3

72
65
73
0
40
0.0
0
LTYPE
5
16
100
AcDbSymbolTableRecord
100
AcDbLinetypeTableRecord
2
CONTINUOUS
70
64
3
Solid line
72
65
73
0
40
0
0
LTYPE
5
1F5
100
AcDbSymbolTableRecord
100
AcDbLinetypeTableRecord
2
CENTER
70
64
3
____ _ ____ _ ____ _ ____ _ ____ _ ____ _ ____
72
65
73
4
40
0.6
49
0.375
74
0
49
-0.075
74
0
49
0.075
74
0
49
-0.075
74
0
0
LTYPE
5
1F6
100
AcDbSymbolTableRecord
100
AcDbLinetypeTableRecord
2
HIDDEN
70
64
3
- - - - - - - - - - - - - - - - - - - -
72
65
73
2
40
0.2
49
0.1
74
0
49
-0.1
74
0
0
LTYPE
5
1F7
100
AcDbSymbolTableRecord
100
AcDbLinetypeTableRecord
2
PHANTOM
70
64
3
_____ _ _ _____ _ _ _____ _ _ _____
72
65
73
6
40
0.8
49
0.45
74
0
49
-0.05
74
0
49
0.1
74
0
49
-0.05
74
0
49
0.1
74
0
49
-0.05
74
0
0
LTYPE
5
1F8
100
AcDbSymbolTableRecord
100
AcDbLinetypeTableRecord
2
DOT
70
64
3
. . . . . . . . . . . . . . . . . . . .
72
65
73
2
40
0.2
49
0.1
74
0
49
-0.1
74
0
0
LTYPE
5
1F9
100
AcDbSymbolTableRecord
100
AcDbLinetypeTableRecord
2
DASHED
70
64
3
- - - - - - - - - - - - - - - - - - - -
72
65
73
2
40
0.2
49
0.1
74
0
49
-0.1
74
0
0
ENDTAB
0
TABLE
2
LAYER
5
2
100
AcDbSymbolTable
70
36
0
LAYER
5
10
100
AcDbSymbolTableRecord
100
AcDbLayerTableRecord
2
0
70
0
62
7
6
CONTINUOUS
0
LAYER
5
1FA
100
AcDbSymbolTableRecord
100
AcDbLayerTableRecord
2
DEFAULT_1
70
0
62
7
6
CENTER
0
LAYER
5
1FB
100
AcDbSymbolTableRecord
100
AcDbLayerTableRecord
2
DEFAULT_2
70
0
62
8
6
HIDDEN
0
LAYER
5
1FC
100
AcDbSymbolTableRecord
100
AcDbLayerTableRecord
2
DEFAULT_3
70
0
62
7
6
PHANTOM
0
LAYER
5
1FD
100
AcDbSymbolTableRecord
100
AcDbLayerTableRecord
2
ASSI
70
0
62
7
6
CONTINUOUS
0
LAYER
5
1FE
100
AcDbSymbolTableRecord
100
AcDbLayerTableRecord
2
COORDINATE
70
0
62
7
6
CONTINUOUS
0
LAYER
5
1FF
100
AcDbSymbolTableRecord
100
AcDbLayerTableRecord
2
COORD_ORIGINE
70
0
62
7
6
CONTINUOUS
0
LAYER
5
200
100
AcDbSymbolTableRecord
100
AcDbLayerTableRecord
2
DRAFT
70
0
62
7
6
CONTINUOUS
0
LAYER
5
201
100
AcDbSymbolTableRecord
100
AcDbLayerTableRecord
2
PIANI
70
0
62
7
6
CONTINUOUS
0
LAYER
5
202
100
AcDbSymbolTableRecord
100
AcDbLayerTableRecord
2
PIANI_ORIGINE
70
0
62
7
6
CONTINUOUS
0
LAYER
5
203
100
AcDbSymbolTableRecord
100
AcDbLayerTableRecord
2
RACCORDO
70
0
62
7
6
CONTINUOUS
0
LAYER
5
204
100
AcDbSymbolTableRecord
100
AcDbLayerTableRecord
2
SNAPLINE
70
0
62
7
6
CONTINUOUS
0
LAYER
5
205
100
AcDbSymbolTableRecord
100
AcDbLayerTableRecord
2
SOLIDO
70
0
62
7
6
CONTINUOUS
0
LAYER
5
206
100
AcDbSymbolTableRecord
100
AcDbLayerTableRecord
2
SUPERFICI
70
0
62
7
6
CONTINUOUS
0
LAYER
5
207
100
AcDbSymbolTableRecord
100
AcDbLayerTableRecord
2
TRASH
70
0
62
7
6
CONTINUOUS
0
ENDTAB
0
TABLE
2
STYLE
5
3
100
AcDbSymbolTable
70
1
0
STYLE
5
11
100
AcDbSymbolTableRecord
100
AcDbTextStyleTableRecord
2
STANDARD
70
0
40
0.0
41
0.8000000000
50
0.0
71
0
42
0.2
3
txt
4

0
ENDTAB
0
TABLE
2
VIEW
5
6
100
AcDbSymbolTable
70
0
0
ENDTAB
0
TABLE
2
UCS
5
7
100
AcDbSymbolTable
70
0
0
ENDTAB
0
TABLE
2
APPID
5
9
100
AcDbSymbolTable
70
1
0
APPID
5
208
100
AcDbSymbolTableRecord
100
AcDbRegAppTableRecord
2
ACAD
70
0
0
ENDTAB
0
TABLE
2
DIMSTYLE
5
A
100
AcDbSymbolTable
70
1
0
DIMSTYLE
105
209
100
AcDbSymbolTableRecord
100
AcDbDimStyleTableRecord
2
STANDARD
70
0
3

4

5

6

7

40
1.0
41
3.0000000000
42
0.0625
43
0.38
44
0.18
45
0.0
46
0.0
47
0.0100000000
48
0.0100000000
140
3.0000000000
141
0.09
142
0.0
143
25.4
144
1.0000000000
145
0.0
146
1.0000000000
147
0.09
71
1
72
0
73
0
74
0
75
0
76
0
77
1
78
8
170
0
171
2
172
0
173
0
174
0
175
0
176
0
177
0
178
0
270
2
271
2
272
2
273
2
274
2
340
11
275
0
280
0
281
0
282
0
283
1
284
8
285
0
286
0
287
3
288
0
0
ENDTAB
0
TABLE
2
BLOCK_RECORD
5
1
100
AcDbSymbolTable
70
0
0
BLOCK_RECORD
5
1B
100
AcDbSymbolTableRecord
100
AcDbBlockTableRecord
2
*MODEL_SPACE
0
BLOCK_RECORD
5
1C
100
AcDbSymbolTableRecord
100
AcDbBlockTableRecord
2
*PAPER_SPACE
0
ENDTAB
0
ENDSEC
0
SECTION
2
BLOCKS
0
BLOCK
5
1E
100
AcDbEntity
8
0
100
AcDbBlockBegin
2
*MODEL_SPACE
70
0
10
0.0
20
0.0
30
0.0
3
*MODEL_SPACE
1

0
ENDBLK
5
1F
100
AcDbEntity
8
0
100
AcDbBlockEnd
0
BLOCK
5
20
100
AcDbEntity
8
0
100
AcDbBlockBegin
2
*PAPER_SPACE
70
0
10
0.0
20
0.0
30
0.0
3
*PAPER_SPACE
1

0
ENDBLK
5
21
100
AcDbEntity
8
0
100
AcDbBlockEnd
0
ENDSEC
0
SECTION
2
ENTITIES
0
LINE
5
20A
100
AcDbEntity
8
0
100
AcDbLine
62
7
6
CONTINUOUS
10
0.0531228742
20
-65.0250510189
11
2.1531228742
21
-65.0250510189
0
LINE
5
20B
100
AcDbEntity
8
0
100
AcDbLine
62
7
6
CONTINUOUS
10
3.3531228742
20
-43.1750510189
11
-1.1468771258
21
-43.1750510189
0
LINE
5
20C
100
AcDbEntity
8
0
100
AcDbLine
62
7
6
CONTINUOUS
10
3.3531228742
20
-42.5250510189
11
-1.1468771258
21
-42.5250510189
0
LINE
5
20D
100
AcDbEntity
8
0
100
AcDbLine
62
7
6
CONTINUOUS
10
7.8531220186
20
-40.5250510189
11
-5.6468762702
21
-40.5250510189
0
LINE
5
20E
100
AcDbEntity
8
0
100
AcDbLine
62
9
6
CONTINUOUS
10
8.8531228742
20
-39.5250510189
11
-6.6468771258
21
-39.5250510189
0
LINE
5
20F
100
AcDbEntity
8
0
100
AcDbLine
62
7
6
CONTINUOUS
10
-10.2968771258
20
117.6285388196
11
-10.0968771258
21
117.9749489811
0
LINE
5
210
100
AcDbEntity
8
0
100
AcDbLine
62
7
6
CONTINUOUS
10
-8.7968771258
20
117.6285388196
11
-8.5968771258
21
117.9749489811
0
LINE
5
211
100
AcDbEntity
8
0
100
AcDbLine
62
7
6
CONTINUOUS
10
-7.5468771258
20
117.6285388196
11
-7.3468771258
21
117.9749489811
0
LINE
5
212
100
AcDbEntity
8
0
100
AcDbLine
62
7
6
CONTINUOUS
10
-6.5468771258
20
117.6285388196
11
-6.3468771258
21
117.9749489811
0
LINE
5
213
100
AcDbEntity
8
0
100
AcDbLine
62
7
6
CONTINUOUS
10
8.8767144862
20
-22.0250510189
11
-6.6704687377
21
-22.0250510189
0
LINE
5
214
100
AcDbEntity
8
0
100
AcDbLine
62
9
6
CONTINUOUS
10
8.3323034110
20
-18.7538485861
11
-6.1260576626
21
-18.7538485861
0
LINE
5
215
100
AcDbEntity
8
0
100
AcDbLine
62
7
6
CONTINUOUS
10
13.6031228742
20
1.4749489811
11
-11.3968771258
21
1.4749489811
0
LINE
5
216
100
AcDbEntity
8
0
100
AcDbLine
62
7
6
CONTINUOUS
10
-11.3968771258
20
4.4749489811
11
13.6031228742
21
4.4749489811
0
LINE
5
217
100
AcDbEntity
8
0
100
AcDbLine
62
7
6
CONTINUOUS
10
-14.3968771258
20
82.4749489811
11
-13.9930309719
21
73.4749489811
0
LINE
5
218
100
AcDbEntity
8
0
100
AcDbLine
62
7
6
CONTINUOUS
10
-13.9032873822
20
71.4749489811
11
-13.8135437925
21
69.4749489811
0
LINE
5
219
100
AcDbEntity
8
0
100
AcDbLine
62
7
6
CONTINUOUS
10
-13.7238002027
20
67.4749489811
11
-13.6340566130
21
65.4749489811
0
LINE
5
21A
100
AcDbEntity
8
0
100
AcDbLine
62
7
6
CONTINUOUS
10
-13.5443130232
20
63.4749489811
11
-13.4545694335
21
61.4749489811
0
LINE
5
21B
100
AcDbEntity
8
0
100
AcDbLine
62
7
6
CONTINUOUS
10
-13.3648258437
20
59.4749489811
11
-13.2750822540
21
57.4749489811
0
LINE
5
21C
100
AcDbEntity
8
0
100
AcDbLine
62
7
6
CONTINUOUS
10
-13.1853386642
20
55.4749489811
11
-13.0955950745
21
53.4749489811
0
LINE
5
21D
100
AcDbEntity
8
0
100
AcDbLine
62
7
6
CONTINUOUS
10
-13.0058514848
20
51.4749489811
11
-12.9161078950
21
49.4749489811
0
LINE
5
21E
100
AcDbEntity
8
0
100
AcDbLine
62
7
6
CONTINUOUS
10
-12.8263643053
20
47.4749489811
11
-12.7366207155
21
45.4749489811
0
LINE
5
21F
100
AcDbEntity
8
0
100
AcDbLine
62
7
6
CONTINUOUS
10
-12.6468771258
20
43.4749489811
11
-12.5571335360
21
41.4749489811
0
LINE
5
220
100
AcDbEntity
8
0
100
AcDbLine
62
7
6
CONTINUOUS
10
-12.4673899463
20
39.4749489811
11
-12.3776463566
21
37.4749489811
0
LINE
5
221
100
AcDbEntity
8
0
100
AcDbLine
62
7
6
CONTINUOUS
10
-12.2879027668
20
35.4749489811
11
-12.1981591771
21
33.4749489811
0
LINE
5
222
100
AcDbEntity
8
0
100
AcDbLine
62
7
6
CONTINUOUS
10
-12.1084155873
20
31.4749489811
11
-12.0186719976
21
29.4749489811
0
LINE
5
223
100
AcDbEntity
8
0
100
AcDbLine
62
7
6
CONTINUOUS
10
-11.9289284078
20
27.4749489811
11
-11.8391848181
21
25.4749489811
0
LINE
5
224
100
AcDbEntity
8
0
100
AcDbLine
62
7
6
CONTINUOUS
10
-11.7494412284
20
23.4749489811
11
-11.6596976386
21
21.4749489811
0
LINE
5
225
100
AcDbEntity
8
0
100
AcDbLine
62
7
6
CONTINUOUS
10
-11.5699540489
20
19.4749489811
11
-11.4789138648
21
17.4460534505
0
LINE
5
226
100
AcDbEntity
8
0
100
AcDbLine
62
7
6
CONTINUOUS
10
-11.3943438517
20
15.5613503016
11
-11.2856595071
21
13.1392420493
0
LINE
5
227
100
AcDbEntity
8
0
100
AcDbLine
62
7
6
CONTINUOUS
10
-11.2324442627
20
11.9533023186
11
-10.8968771258
21
4.4749489811
0
LINE
5
228
100
AcDbEntity
8
0
100
AcDbLine
62
7
6
CONTINUOUS
10
-14.4013643053
20
82.5749489811
11
-15.4761215603
21
106.5266820932
0
LINE
5
229
100
AcDbEntity
8
0
100
AcDbLine
62
7
6
CONTINUOUS
10
-13.4925278556
20
73.4749489811
11
-13.4027842658
21
71.4749489811
0
LINE
5
22A
100
AcDbEntity
8
0
100
AcDbLine
62
7
6
CONTINUOUS
10
-13.3130406761
20
69.4749489811
11
-13.2232970863
21
67.4749489811
0
LINE
5
22B
100
AcDbEntity
8
0
100
AcDbLine
62
7
6
CONTINUOUS
10
-13.1335534966
20
65.4749489811
11
-13.0438099069
21
63.4749489811
0
LINE
5
22C
100
AcDbEntity
8
0
100
AcDbLine
62
7
6
CONTINUOUS
10
-12.9540663171
20
61.4749489811
11
-12.8643227274
21
59.4749489811
0
LINE
5
22D
100
AcDbEntity
8
0
100
AcDbLine
62
7
6
CONTINUOUS
10
-12.7745791376
20
57.4749489811
11
-12.6848355479
21
55.4749489811
0
LINE
5
22E
100
AcDbEntity
8
0
100
AcDbLine
62
7
6
CONTINUOUS
10
-12.5950919581
20
53.4749489811
11
-12.5053483684
21
51.4749489811
0
LINE
5
22F
100
AcDbEntity
8
0
100
AcDbLine
62
7
6
CONTINUOUS
10
-12.4156047787
20
49.4749489811
11
-12.3258611889
21
47.4749489811
0
LINE
5
230
100
AcDbEntity
8
0
100
AcDbLine
62
7
6
CONTINUOUS
10
-12.2349792398
20
45.4495798287
11
-12.1494610967
21
43.5437469256
0
LINE
5
231
100
AcDbEntity
8
0
100
AcDbLine
62
7
6
CONTINUOUS
10
-12.0456377983
20
41.2299705618
11
-11.9825552952
21
39.8241319209
0
LINE
5
232
100
AcDbEntity
8
0
100
AcDbLine
62
9
6
CONTINUOUS
10
-11.3968771258
20
1.4749489811
11
-11.3968771258
21
4.4749489811
0
LINE
5
233
100
AcDbEntity
8
0
100
AcDbLine
62
7
6
CONTINUOUS
10
-11.3968771258
20
82.4749489811
11
-11.3968771258
21
82.5749489811
0
LINE
5
234
100
AcDbEntity
8
0
100
AcDbLine
62
7
6
CONTINUOUS
10
-10.7968771258
20
115.3847224160
11
-10.7968771258
21
117.9749489811
0
LINE
5
235
100
AcDbEntity
8
0
100
AcDbLine
62
7
6
CONTINUOUS
10
-9.9703430839
20
-18.7538485861
11
-10.1468771258
21
1.4749489811
0
LINE
5
236
100
AcDbEntity
8
0
100
AcDbLine
62
7
6
CONTINUOUS
10
-10.3444751271
20
115.4294395002
11
-10.3444751271
21
117.7109809762
0
LINE
5
237
100
AcDbEntity
8
0
100
AcDbLine
62
7
6
CONTINUOUS
10
-6.6468771258
20
-22.0250510189
11
-6.6468771258
21
-39.5250510189
0
LINE
5
238
100
AcDbEntity
8
0
100
AcDbLine
62
9
6
CONTINUOUS
10
-6.1260576626
20
-22.0250510189
11
-6.1260576552
21
-18.7538485861
0
LINE
5
239
100
AcDbEntity
8
0
100
AcDbLine
62
7
6
CONTINUOUS
10
-5.7968771258
20
116.9155447191
11
-5.7968771258
21
117.9749489811
0
LINE
5
23A
100
AcDbEntity
8
0
100
AcDbLine
62
7
6
CONTINUOUS
10
-11.5699540489
20
19.4749489811
11
-11.5696941082
21
19.4749489811
0
LINE
5
23B
100
AcDbEntity
8
0
100
AcDbLine
62
7
6
CONTINUOUS
10
13.7759398566
20
19.4749489811
11
13.7761997973
21
19.4749489811
0
LINE
5
23C
100
AcDbEntity
8
0
100
AcDbLine
62
7
6
CONTINUOUS
10
-1.1468771258
20
-40.5250510189
11
-1.1468771258
21
-54.5250510189
0
LINE
5
23D
100
AcDbEntity
8
0
100
AcDbLine
62
7
6
CONTINUOUS
10
0.0531228742
20
-57.7746663808
11
0.0531228742
21
-65.0250510189
0
LINE
5
23E
100
AcDbEntity
8
0
100
AcDbLine
62
9
6
CONTINUOUS
10
1.0298604278
20
82.4749489811
11
-3.9299633919
21
4.4749489811
0
LINE
5
23F
100
AcDbEntity
8
0
100
AcDbLine
62
9
6
CONTINUOUS
10
-6.1260576626
20
-18.7538485861
11
-4.1526694916
21
1.4749489811
0
LINE
5
240
100
AcDbEntity
8
0
100
AcDbLine
62
9
6
CONTINUOUS
10
8.3323034110
20
-18.7538485861
11
6.3589152400
21
1.4749489811
0
LINE
5
241
100
AcDbEntity
8
0
100
AcDbLine
62
9
6
CONTINUOUS
10
6.1362091403
20
4.4749489811
11
1.1763853206
21
82.4749489811
0
LINE
5
242
100
AcDbEntity
8
0
100
AcDbLine
62
7
6
CONTINUOUS
10
2.1531228742
20
-57.7746663808
11
2.1531228742
21
-65.0250510189
0
LINE
5
243
100
AcDbEntity
8
0
100
AcDbLine
62
7
6
CONTINUOUS
10
3.3531228742
20
-40.5250510189
11
3.3531228742
21
-54.5250510189
0
LINE
5
244
100
AcDbEntity
8
0
100
AcDbLine
62
7
6
CONTINUOUS
10
-11.9289284078
20
27.4749489811
11
-11.8731856620
21
27.4749489811
0
LINE
5
245
100
AcDbEntity
8
0
100
AcDbLine
62
7
6
CONTINUOUS
10
14.0794314105
20
27.4749489811
11
14.1351741563
21
27.4749489811
0
LINE
5
246
100
AcDbEntity
8
0
100
AcDbLine
62
7
6
CONTINUOUS
10
-12.0186719976
20
29.4749489811
11
-11.9436128059
21
29.4749489811
0
LINE
5
247
100
AcDbEntity
8
0
100
AcDbLine
62
7
6
CONTINUOUS
10
14.1498585543
20
29.4749489811
11
14.2249177460
21
29.4749489811
0
LINE
5
248
100
AcDbEntity
8
0
100
AcDbLine
62
7
6
CONTINUOUS
10
-12.1084155873
20
31.4749489811
11
-11.9932904370
21
31.4749489811
0
LINE
5
249
100
AcDbEntity
8
0
100
AcDbLine
62
7
6
CONTINUOUS
10
14.1995361855
20
31.4749489811
11
14.3146613358
21
31.4749489811
0
LINE
5
24A
100
AcDbEntity
8
0
100
AcDbLine
62
7
6
CONTINUOUS
10
-12.1981591771
20
33.4749489811
11
-12.0571956923
21
33.4749489811
0
LINE
5
24B
100
AcDbEntity
8
0
100
AcDbLine
62
7
6
CONTINUOUS
10
14.2634414407
20
33.4749489811
11
14.4044049255
21
33.4749489811
0
LINE
5
24C
100
AcDbEntity
8
0
100
AcDbLine
62
9
6
CONTINUOUS
10
8.3323034110
20
-22.0250510189
11
8.3323034110
21
-18.7538485861
0
LINE
5
24D
100
AcDbEntity
8
0
100
AcDbLine
62
7
6
CONTINUOUS
10
8.8531228742
20
-22.0250510189
11
8.8531228742
21
-39.5250510189
0
LINE
5
24E
100
AcDbEntity
8
0
100
AcDbLine
62
9
6
CONTINUOUS
10
13.6031228742
20
1.4749489811
11
13.6031228742
21
4.4749489811
0
LINE
5
24F
100
AcDbEntity
8
0
100
AcDbLine
62
7
6
CONTINUOUS
10
13.6031228742
20
82.4749489811
11
13.6031228742
21
82.5749489811
0
LINE
5
250
100
AcDbEntity
8
0
100
AcDbLine
62
7
6
CONTINUOUS
10
12.1765888323
20
-18.7538485861
11
12.3531228742
21
1.4749489811
0
LINE
5
251
100
AcDbEntity
8
0
100
AcDbLine
62
7
6
CONTINUOUS
10
14.1888010436
20
39.8241319209
11
14.2518835467
21
41.2299705618
0
LINE
5
252
100
AcDbEntity
8
0
100
AcDbLine
62
7
6
CONTINUOUS
10
14.3557068451
20
43.5437469256
11
14.4412249882
21
45.4495798287
0
LINE
5
253
100
AcDbEntity
8
0
100
AcDbLine
62
7
6
CONTINUOUS
10
14.5321069373
20
47.4749489811
11
14.6218505271
21
49.4749489811
0
LINE
5
254
100
AcDbEntity
8
0
100
AcDbLine
62
7
6
CONTINUOUS
10
14.7115941168
20
51.4749489811
11
14.8013377066
21
53.4749489811
0
LINE
5
255
100
AcDbEntity
8
0
100
AcDbLine
62
7
6
CONTINUOUS
10
14.8910812963
20
55.4749489811
11
14.9808248860
21
57.4749489811
0
LINE
5
256
100
AcDbEntity
8
0
100
AcDbLine
62
7
6
CONTINUOUS
10
15.0705684758
20
59.4749489811
11
15.1603120655
21
61.4749489811
0
LINE
5
257
100
AcDbEntity
8
0
100
AcDbLine
62
7
6
CONTINUOUS
10
15.2500556553
20
63.4749489811
11
15.3397992450
21
65.4749489811
0
LINE
5
258
100
AcDbEntity
8
0
100
AcDbLine
62
7
6
CONTINUOUS
10
15.4295428348
20
67.4749489811
11
15.5192864245
21
69.4749489811
0
LINE
5
259
100
AcDbEntity
8
0
100
AcDbLine
62
7
6
CONTINUOUS
10
15.6090300143
20
71.4749489811
11
15.6987736040
21
73.4749489811
0
LINE
5
25A
100
AcDbEntity
8
0
100
AcDbLine
62
7
6
CONTINUOUS
10
13.1031228742
20
4.4749489811
11
13.4386900112
21
11.9533023186
0
LINE
5
25B
100
AcDbEntity
8
0
100
AcDbLine
62
7
6
CONTINUOUS
10
13.4919052555
20
13.1392420493
11
13.6005896001
21
15.5613503016
0
LINE
5
25C
100
AcDbEntity
8
0
100
AcDbLine
62
7
6
CONTINUOUS
10
13.6851596132
20
17.4460534505
11
13.7761997973
21
19.4749489811
0
LINE
5
25D
100
AcDbEntity
8
0
100
AcDbLine
62
7
6
CONTINUOUS
10
13.8659433870
20
21.4749489811
11
13.9556869768
21
23.4749489811
0
LINE
5
25E
100
AcDbEntity
8
0
100
AcDbLine
62
7
6
CONTINUOUS
10
14.0454305665
20
25.4749489811
11
14.1351741563
21
27.4749489811
0
LINE
5
25F
100
AcDbEntity
8
0
100
AcDbLine
62
7
6
CONTINUOUS
10
14.2249177460
20
29.4749489811
11
14.3146613358
21
31.4749489811
0
LINE
5
260
100
AcDbEntity
8
0
100
AcDbLine
62
7
6
CONTINUOUS
10
14.4044049255
20
33.4749489811
11
14.4941485152
21
35.4749489811
0
LINE
5
261
100
AcDbEntity
8
0
100
AcDbLine
62
7
6
CONTINUOUS
10
14.5838921050
20
37.4749489811
11
14.6736356947
21
39.4749489811
0
LINE
5
262
100
AcDbEntity
8
0
100
AcDbLine
62
7
6
CONTINUOUS
10
14.7633792845
20
41.4749489811
11
14.8531228742
21
43.4749489811
0
LINE
5
263
100
AcDbEntity
8
0
100
AcDbLine
62
7
6
CONTINUOUS
10
14.9428664640
20
45.4749489811
11
15.0326100537
21
47.4749489811
0
LINE
5
264
100
AcDbEntity
8
0
100
AcDbLine
62
7
6
CONTINUOUS
10
15.1223536434
20
49.4749489811
11
15.2120972332
21
51.4749489811
0
LINE
5
265
100
AcDbEntity
8
0
100
AcDbLine
62
7
6
CONTINUOUS
10
15.3018408229
20
53.4749489811
11
15.3915844127
21
55.4749489811
0
LINE
5
266
100
AcDbEntity
8
0
100
AcDbLine
62
7
6
CONTINUOUS
10
15.4813280024
20
57.4749489811
11
15.5710715922
21
59.4749489811
0
LINE
5
267
100
AcDbEntity
8
0
100
AcDbLine
62
7
6
CONTINUOUS
10
15.6608151819
20
61.4749489811
11
15.7505587716
21
63.4749489811
0
LINE
5
268
100
AcDbEntity
8
0
100
AcDbLine
62
7
6
CONTINUOUS
10
15.8403023614
20
65.4749489811
11
15.9300459511
21
67.4749489811
0
LINE
5
269
100
AcDbEntity
8
0
100
AcDbLine
62
7
6
CONTINUOUS
10
16.0197895409
20
69.4749489811
11
16.1095331306
21
71.4749489811
0
LINE
5
26A
100
AcDbEntity
8
0
100
AcDbLine
62
7
6
CONTINUOUS
10
16.1992767204
20
73.4749489811
11
16.6031228742
21
82.4749489811
0
LINE
5
26B
100
AcDbEntity
8
0
100
AcDbLine
62
7
6
CONTINUOUS
10
16.6076100537
20
82.5749489811
11
17.6823673087
21
106.5266820932
0
LINE
5
26C
100
AcDbEntity
8
0
100
AcDbLine
62
7
6
CONTINUOUS
10
-12.2879027668
20
35.4749489811
11
-12.0954456437
21
35.4749489811
0
LINE
5
26D
100
AcDbEntity
8
0
100
AcDbLine
62
7
6
CONTINUOUS
10
14.3016913921
20
35.4749489811
11
14.4941485152
21
35.4749489811
0
LINE
5
26E
100
AcDbEntity
8
0
100
AcDbLine
62
7
6
CONTINUOUS
10
-12.3776463566
20
37.4749489811
11
-12.1536154865
21
37.4749489811
0
LINE
5
26F
100
AcDbEntity
8
0
100
AcDbLine
62
7
6
CONTINUOUS
10
14.3598612349
20
37.4749489811
11
14.5838921050
21
37.4749489811
0
LINE
5
270
100
AcDbEntity
8
0
100
AcDbLine
62
7
6
CONTINUOUS
10
-12.4673899463
20
39.4749489811
11
-12.1814742335
21
39.4749489811
0
LINE
5
271
100
AcDbEntity
8
0
100
AcDbLine
62
7
6
CONTINUOUS
10
14.3877199819
20
39.4749489811
11
14.6736356947
21
39.4749489811
0
LINE
5
272
100
AcDbEntity
8
0
100
AcDbLine
62
7
6
CONTINUOUS
10
-12.5571335360
20
41.4749489811
11
-12.2345582739
21
41.4749489811
0
LINE
5
273
100
AcDbEntity
8
0
100
AcDbLine
62
7
6
CONTINUOUS
10
14.4408040223
20
41.4749489811
11
14.7633792845
21
41.4749489811
0
LINE
5
274
100
AcDbEntity
8
0
100
AcDbLine
62
7
6
CONTINUOUS
10
-12.6468771258
20
43.4749489811
11
-12.2528929396
21
43.4749489811
0
LINE
5
275
100
AcDbEntity
8
0
100
AcDbLine
62
7
6
CONTINUOUS
10
14.4591386880
20
43.4749489811
11
14.8531228742
21
43.4749489811
0
LINE
5
276
100
AcDbEntity
8
0
100
AcDbLine
62
7
6
CONTINUOUS
10
-12.7366207155
20
45.4749489811
11
-12.3014350351
21
45.4749489811
0
LINE
5
277
100
AcDbEntity
8
0
100
AcDbLine
62
7
6
CONTINUOUS
10
14.5076807835
20
45.4749489811
11
14.9428664640
21
45.4749489811
0
LINE
5
278
100
AcDbEntity
8
0
100
AcDbLine
62
7
6
CONTINUOUS
10
-12.8263643053
20
47.4749489811
11
-12.3109800233
21
47.4749489811
0
LINE
5
279
100
AcDbEntity
8
0
100
AcDbLine
62
7
6
CONTINUOUS
10
14.5172257717
20
47.4749489811
11
15.0326100537
21
47.4749489811
0
LINE
5
27A
100
AcDbEntity
8
0
100
AcDbLine
62
7
6
CONTINUOUS
10
-12.9161078950
20
49.4749489811
11
-12.3554408689
21
49.4749489811
0
LINE
5
27B
100
AcDbEntity
8
0
100
AcDbLine
62
7
6
CONTINUOUS
10
14.5616866173
20
49.4749489811
11
15.1223536434
21
49.4749489811
0
LINE
5
27C
100
AcDbEntity
8
0
100
AcDbLine
62
7
6
CONTINUOUS
10
-13.0058514848
20
51.4749489811
11
-12.3568248503
21
51.4749489811
0
LINE
5
27D
100
AcDbEntity
8
0
100
AcDbLine
62
7
6
CONTINUOUS
10
14.5630705987
20
51.4749489811
11
15.2120972332
21
51.4749489811
0
LINE
5
27E
100
AcDbEntity
8
0
100
AcDbLine
62
7
6
CONTINUOUS
10
-13.0955950745
20
53.4749489811
11
-12.3975987335
21
53.4749489811
0
LINE
5
27F
100
AcDbEntity
8
0
100
AcDbLine
62
7
6
CONTINUOUS
10
14.6038444819
20
53.4749489811
11
15.3018408229
21
53.4749489811
0
LINE
5
280
100
AcDbEntity
8
0
100
AcDbLine
62
7
6
CONTINUOUS
10
-13.1853386642
20
55.4749489811
11
-12.3913649256
21
55.4749489811
0
LINE
5
281
100
AcDbEntity
8
0
100
AcDbLine
62
7
6
CONTINUOUS
10
14.5976106740
20
55.4749489811
11
15.3915844127
21
55.4749489811
0
LINE
5
282
100
AcDbEntity
8
0
100
AcDbLine
62
7
6
CONTINUOUS
10
-13.2750822540
20
57.4749489811
11
-12.4287923870
21
57.4749489811
0
LINE
5
283
100
AcDbEntity
8
0
100
AcDbLine
62
7
6
CONTINUOUS
10
14.6350381354
20
57.4749489811
11
15.4813280024
21
57.4749489811
0
LINE
5
284
100
AcDbEntity
8
0
100
AcDbLine
62
7
6
CONTINUOUS
10
-13.3648258437
20
59.4749489811
11
-12.4154140624
21
59.4749489811
0
LINE
5
285
100
AcDbEntity
8
0
100
AcDbLine
62
7
6
CONTINUOUS
10
14.6216598108
20
59.4749489811
11
15.5710715922
21
59.4749489811
0
LINE
5
286
100
AcDbEntity
8
0
100
AcDbLine
62
7
6
CONTINUOUS
10
-13.4545694335
20
61.4749489811
11
-12.4497916213
21
61.4749489811
0
LINE
5
287
100
AcDbEntity
8
0
100
AcDbLine
62
7
6
CONTINUOUS
10
14.6560373698
20
61.4749489811
11
15.6608151819
21
61.4749489811
0
LINE
5
288
100
AcDbEntity
8
0
100
AcDbLine
62
7
6
CONTINUOUS
10
-13.5443130232
20
63.4749489811
11
-12.4296841516
21
63.4749489811
0
LINE
5
289
100
AcDbEntity
8
0
100
AcDbLine
62
7
6
CONTINUOUS
10
14.6359299000
20
63.4749489811
11
15.7505587716
21
63.4749489811
0
LINE
5
28A
100
AcDbEntity
8
0
100
AcDbLine
62
7
6
CONTINUOUS
10
-10.4968771258
20
117.9749489811
11
-10.2968771258
21
117.6285388196
0
LINE
5
28B
100
AcDbEntity
8
0
100
AcDbLine
62
7
6
CONTINUOUS
10
-8.9968771258
20
117.9749489811
11
-8.7968771258
21
117.6285388196
0
LINE
5
28C
100
AcDbEntity
8
0
100
AcDbLine
62
7
6
CONTINUOUS
10
-13.6340566130
20
65.4749489811
11
-12.4612718865
21
65.4749489811
0
LINE
5
28D
100
AcDbEntity
8
0
100
AcDbLine
62
7
6
CONTINUOUS
10
14.6675176350
20
65.4749489811
11
15.8403023614
21
65.4749489811
0
LINE
5
28E
100
AcDbEntity
8
0
100
AcDbLine
62
7
6
CONTINUOUS
10
-13.7238002027
20
67.4749489811
11
-12.4348022260
21
67.4749489811
0
LINE
5
28F
100
AcDbEntity
8
0
100
AcDbLine
62
7
6
CONTINUOUS
10
14.6410479744
20
67.4749489811
11
15.9300459511
21
67.4749489811
0
LINE
5
290
100
AcDbEntity
8
0
100
AcDbLine
62
7
6
CONTINUOUS
10
-13.8135437925
20
69.4749489811
11
-12.4638297607
21
69.4749489811
0
LINE
5
291
100
AcDbEntity
8
0
100
AcDbLine
62
7
6
CONTINUOUS
10
14.6700755091
20
69.4749489811
11
16.0197895409
21
69.4749489811
0
LINE
5
292
100
AcDbEntity
8
0
100
AcDbLine
62
7
6
CONTINUOUS
10
-7.7468771258
20
117.9749489811
11
-7.5468771258
21
117.6285388196
0
LINE
5
293
100
AcDbEntity
8
0
100
AcDbLine
62
7
6
CONTINUOUS
10
-6.7468771258
20
117.9749489811
11
-6.5468771258
21
117.6285388196
0
LINE
5
294
100
AcDbEntity
8
0
100
AcDbLine
62
7
6
CONTINUOUS
10
-13.9032873822
20
71.4749489811
11
-12.4313240061
21
71.4749489811
0
LINE
5
295
100
AcDbEntity
8
0
100
AcDbLine
62
7
6
CONTINUOUS
10
14.6375697545
20
71.4749489811
11
16.1095331306
21
71.4749489811
0
LINE
5
296
100
AcDbEntity
8
0
100
AcDbLine
62
7
6
CONTINUOUS
10
-13.9930309719
20
73.4749489811
11
-12.4579952927
21
73.4749489811
0
LINE
5
297
100
AcDbEntity
8
0
100
AcDbLine
62
7
6
CONTINUOUS
10
14.6642410411
20
73.4749489811
11
16.1992767204
21
73.4749489811
0
LINE
5
298
100
AcDbEntity
8
0
100
AcDbLine
62
7
6
CONTINUOUS
10
-14.3968771258
20
82.4749489811
11
16.6031228742
21
82.4749489811
0
LINE
5
299
100
AcDbEntity
8
0
100
AcDbLine
62
7
6
CONTINUOUS
10
16.6076100537
20
82.5749489811
11
-14.4013643053
21
82.5749489811
0
LINE
5
29A
100
AcDbEntity
8
0
100
AcDbLine
62
9
6
CONTINUOUS
10
16.9108782639
20
90.0749489811
11
16.6555926601
21
90.0749489811
0
LINE
5
29B
100
AcDbEntity
8
0
100
AcDbLine
62
9
6
CONTINUOUS
10
16.1359781955
20
90.0749489811
11
15.6709620139
21
90.0749489811
0
LINE
5
29C
100
AcDbEntity
8
0
100
AcDbLine
62
9
6
CONTINUOUS
10
-13.4647330458
20
90.0749489811
11
-13.9297498832
21
90.0749489811
0
LINE
5
29D
100
AcDbEntity
8
0
100
AcDbLine
62
9
6
CONTINUOUS
10
-14.4493574177
20
90.0749489811
11
-14.7046360973
21
90.0749489811
0
LINE
5
29E
100
AcDbEntity
8
0
100
AcDbLine
62
9
6
CONTINUOUS
10
-15.3155243481
20
103.7749489811
11
-15.0602456685
21
103.7749489811
0
LINE
5
29F
100
AcDbEntity
8
0
100
AcDbLine
62
9
6
CONTINUOUS
10
-14.5008274493
20
103.7749489811
11
-14.0358821200
21
103.7749489811
0
LINE
5
2A0
100
AcDbEntity
8
0
100
AcDbLine
62
9
6
CONTINUOUS
10
16.2421102825
20
103.7749489811
11
16.7070549561
21
103.7749489811
0
LINE
5
2A1
100
AcDbEntity
8
0
100
AcDbLine
62
9
6
CONTINUOUS
10
17.2664806365
20
103.7749489811
11
17.5217662403
21
103.7749489811
0
LINE
5
2A2
100
AcDbEntity
8
0
100
AcDbLine
62
9
6
CONTINUOUS
10
17.6823673087
20
106.5266820932
11
-15.4761215603
21
106.5266820932
0
LINE
5
2A3
100
AcDbEntity
8
0
100
AcDbLine
62
7
6
CONTINUOUS
10
-10.4197890841
20
115.3847224160
11
-10.8968771258
21
115.3847224160
0
LINE
5
2A4
100
AcDbEntity
8
0
100
AcDbLine
62
7
6
CONTINUOUS
10
7.6924195212
20
116.9749489811
11
-4.5710581506
21
116.9749489811
0
LINE
5
2A5
100
AcDbEntity
8
0
100
AcDbLine
62
7
6
CONTINUOUS
10
-10.7965441401
20
117.9749489811
11
-10.4968771258
21
117.9749489811
0
LINE
5
2A6
100
AcDbEntity
8
0
100
AcDbLine
62
7
6
CONTINUOUS
10
-10.0968771258
20
117.9749489811
11
-8.9968771258
21
117.9749489811
0
LINE
5
2A7
100
AcDbEntity
8
0
100
AcDbLine
62
7
6
CONTINUOUS
10
-8.5968771258
20
117.9749489811
11
-7.7468771258
21
117.9749489811
0
LINE
5
2A8
100
AcDbEntity
8
0
100
AcDbLine
62
7
6
CONTINUOUS
10
-7.3468771258
20
117.9749489811
11
-6.7468771258
21
117.9749489811
0
LINE
5
2A9
100
AcDbEntity
8
0
100
AcDbLine
62
7
6
CONTINUOUS
10
-6.3468771258
20
117.9749489811
11
-5.7968771258
21
117.9749489811
0
ARC
5
2AA
100
AcDbEntity
8
0
100
AcDbCircle
62
7
6
CONTINUOUS
10
7.8531228742
20
-39.5250510189
40
1.0000000000
100
AcDbArc
50
270.0000000000
51
360.0000000000
0
ARC
5
2AB
100
AcDbEntity
8
0
100
AcDbCircle
62
7
6
CONTINUOUS
10
-5.6468771258
20
-39.5250510189
40
1.0000000000
100
AcDbArc
50
180.0000000000
51
270.0000000000
0
ARC
5
2AC
100
AcDbEntity
8
0
100
AcDbCircle
62
7
6
CONTINUOUS
10
-5.4861737728
20
106.9749489811
40
10.0000000000
100
AcDbArc
50
122.7565309694
51
182.5692410201
0
ARC
5
2AD
100
AcDbEntity
8
0
100
AcDbCircle
62
7
6
CONTINUOUS
10
7.6924195212
20
106.9749489811
40
10.0000000000
100
AcDbArc
50
357.4307589799
51
90.0000000000
0
ARC
5
2AE
100
AcDbEntity
8
0
100
AcDbCircle
62
7
6
CONTINUOUS
10
7.1531228742
20
-57.7746663808
40
5.0000000000
100
AcDbArc
50
139.4641978887
51
180.0000000000
0
ARC
5
2AF
100
AcDbEntity
8
0
100
AcDbCircle
62
7
6
CONTINUOUS
10
-4.9468771258
20
-57.7746663808
40
5.0000000000
100
AcDbArc
50
0.0000000000
51
40.5358021113
0
ARC
5
2B0
100
AcDbEntity
8
0
100
AcDbCircle
62
7
6
CONTINUOUS
10
8.8767144862
20
-18.7250510189
40
3.3000000000
100
AcDbArc
50
270.0000000000
51
359.5000000000
0
ARC
5
2B1
100
AcDbEntity
8
0
100
AcDbCircle
62
7
6
CONTINUOUS
10
-6.6704608624
20
-18.7250510189
40
3.3000000000
100
AcDbArc
50
180.4999988069
51
269.9998632658
0
ARC
5
2B2
100
AcDbEntity
8
0
100
AcDbCircle
62
7
6
CONTINUOUS
10
13.6031228742
20
2.9749489811
40
1.5000000000
100
AcDbArc
50
270.0000000000
51
90.0000000000
0
ARC
5
2B3
100
AcDbEntity
8
0
100
AcDbCircle
62
7
6
CONTINUOUS
10
-11.3968771258
20
2.9749489811
40
1.5000000000
100
AcDbArc
50
90.0000000000
51
270.0000000000
0
SPLINE
5
2B4
100
AcDbEntity
8
0
100
AcDbSpline
62
7
6
CONTINUOUS
70
0
71
3
72
8
73
4
74
2
42
0.0000001000
43
0.0000001000
44
0.0000000001
12
0.0259586512
22
-0.0002888698
32
0.0000000000
13
0.0258496583
23
-0.0038160149
33
0.0000000000
40
0.0000000000
40
0.0000000000
40
0.0000000000
40
0.0000000000
40
1.0000000000
40
1.0000000000
40
1.0000000000
40
1.0000000000
10
-14.1959768611
20
104.7719421123
30
0.0000000000
10
-14.1873239774
20
104.7718458224
30
0.0000000000
10
-14.1786262122
20
104.7711428397
30
0.0000000000
10
-14.1700096594
20
104.7698708347
30
0.0000000000
11
-14.1959768611
21
104.7719421123
31
0.0000000000
11
-14.1700096594
21
104.7698708347
31
0.0000000000
0
SPLINE
5
2B5
100
AcDbEntity
8
0
100
AcDbSpline
62
7
6
CONTINUOUS
70
0
71
3
72
10
73
6
74
4
42
0.0000001000
43
0.0000001000
44
0.0000000001
12
0.4897268998
22
-0.0722951576
32
0.0000000000
13
0.1730480081
23
-0.4423625959
33
0.0000000000
40
0.0000000000
40
0.0000000000
40
0.0000000000
40
0.0000000000
40
0.0943460423
40
0.4697674591
40
1.0000000000
40
1.0000000000
40
1.0000000000
40
1.0000000000
10
-14.1700096594
20
104.7698708347
30
0.0000000000
10
-14.1546083944
20
104.7675972474
30
0.0000000000
10
-14.0792143698
20
104.7472248263
30
0.0000000000
10
-13.9704165880
20
104.6192682930
30
0.0000000000
10
-13.9064294214
20
104.4911892565
30
0.0000000000
10
-13.8758441931
20
104.4130042421
30
0.0000000000
11
-14.1700096594
21
104.7698708347
31
0.0000000000
11
-14.1253042907
21
104.7578114257
31
0.0000000000
11
-13.9931959283
21
104.6369819031
31
0.0000000000
11
-13.8758441931
21
104.4130042421
31
0.0000000000
0
SPLINE
5
2B6
100
AcDbEntity
8
0
100
AcDbSpline
62
7
6
CONTINUOUS
70
0
71
3
72
8
73
4
74
2
42
0.0000001000
43
0.0000001000
44
0.0000000001
12
0.0737132385
22
-0.1884331399
32
0.0000000000
13
0.0496447946
23
-0.1976740279
33
0.0000000000
40
0.0000000000
40
0.0000000000
40
0.0000000000
40
0.0000000000
40
1.0000000000
40
1.0000000000
40
1.0000000000
40
1.0000000000
10
-13.8758441931
20
104.4130042421
30
0.0000000000
10
-13.8512731136
20
104.3501931954
30
0.0000000000
10
-13.8311405967
20
104.2853177412
30
0.0000000000
10
-13.8145923319
20
104.2194263986
30
0.0000000000
11
-13.8758441931
21
104.4130042421
31
0.0000000000
11
-13.8145923319
21
104.2194263986
31
0.0000000000
0
SPLINE
5
2B7
100
AcDbEntity
8
0
100
AcDbSpline
62
7
6
CONTINUOUS
70
0
71
3
72
9
73
5
74
3
42
0.0000001000
43
0.0000001000
44
0.0000000001
12
0.1097244311
22
-0.4368971704
32
0.0000000000
13
0.0186976081
23
-0.4485829462
33
0.0000000000
40
0.0000000000
40
0.0000000000
40
0.0000000000
40
0.0000000000
40
0.2414765549
40
1.0000000000
40
1.0000000000
40
1.0000000000
40
1.0000000000
10
-13.8145923319
20
104.2194263986
30
0.0000000000
10
-13.8057603727
20
104.1842595908
30
0.0000000000
10
-13.7734135406
20
104.0374288602
30
0.0000000000
10
-13.7563482601
20
103.8883692083
30
0.0000000000
10
-13.7516207354
20
103.7749489811
30
0.0000000000
11
-13.8145923319
21
104.2194263986
31
0.0000000000
11
-13.7910294510
21
104.1132172624
31
0.0000000000
11
-13.7516207354
21
103.7749489811
31
0.0000000000
0
SPLINE
5
2B8
100
AcDbEntity
8
0
100
AcDbSpline
62
7
6
CONTINUOUS
70
0
71
3
72
12
73
8
74
6
42
0.0000001000
43
0.0000001000
44
0.0000000001
12
1.0719015416
22
-0.0579301590
32
0.0000000000
13
0.0458780149
23
-1.0289508990
33
0.0000000000
40
0.0000000000
40
0.0000000000
40
0.0000000000
40
0.0000000000
40
0.0246033310
40
0.1528024774
40
0.3764193504
40
0.6706026253
40
1.0000000000
40
1.0000000000
40
1.0000000000
40
1.0000000000
10
-15.2630485664
20
104.7640103900
30
0.0000000000
10
-15.2542577836
20
104.7635352983
30
0.0000000000
10
-15.1972683925
20
104.7498462814
30
0.0000000000
10
-15.1837151646
20
104.5911134958
30
0.0000000000
10
-15.1167960870
20
104.3965778560
30
0.0000000000
10
-15.0835342001
20
104.0991343654
30
0.0000000000
10
-15.0652830344
20
103.8879268894
30
0.0000000000
10
-15.0602456685
20
103.7749489811
30
0.0000000000
11
-15.2630485664
21
104.7640103900
31
0.0000000000
11
-15.2372404517
21
104.7578114257
31
0.0000000000
11
-15.1839935522
21
104.6369819031
31
0.0000000000
11
-15.1303183753
21
104.4130042421
31
0.0000000000
11
-15.0863035892
21
104.1132172624
31
0.0000000000
11
-15.0602456685
21
103.7749489811
31
0.0000000000
0
SPLINE
5
2B9
100
AcDbEntity
8
0
100
AcDbSpline
62
7
6
CONTINUOUS
70
0
71
3
72
12
73
8
74
6
42
0.0000001000
43
0.0000001000
44
0.0000000001
12
-1.0630418727
22
0.0730031388
32
0.0000000000
13
0.0453379152
23
1.0166889015
33
0.0000000000
40
0.0000000000
40
0.0000000000
40
0.0000000000
40
0.0000000000
40
0.0241745510
40
0.1505008031
40
0.3730852763
40
0.6676657022
40
1.0000000000
40
1.0000000000
40
1.0000000000
40
1.0000000000
10
16.7707611983
20
89.0859819009
30
0.0000000000
10
16.7621950116
20
89.0865701736
30
0.0000000000
10
16.7077291438
20
89.1002958185
30
0.0000000000
10
16.7062020348
20
89.2609182301
30
0.0000000000
10
16.6573041913
20
89.4543367585
30
0.0000000000
10
16.6499694636
20
89.7520852787
30
0.0000000000
10
16.6505702120
20
89.9623221170
30
0.0000000000
10
16.6555926601
20
90.0749489811
30
0.0000000000
11
16.7707611983
21
89.0859819009
31
0.0000000000
11
16.7460869796
21
89.0922972332
31
0.0000000000
11
16.7033077286
21
89.2135331966
31
0.0000000000
11
16.6692275063
21
89.4374789235
31
0.0000000000
11
16.6516232243
21
89.7367558957
31
0.0000000000
11
16.6555926601
21
90.0749489811
31
0.0000000000
0
SPLINE
5
2BA
100
AcDbEntity
8
0
100
AcDbSpline
62
7
6
CONTINUOUS
70
0
71
3
72
8
73
4
74
2
42
0.0000001000
43
0.0000001000
44
0.0000000001
12
-0.0262352550
22
0.0002676861
32
0.0000000000
13
-0.0259567386
23
0.0038897860
33
0.0000000000
40
0.0000000000
40
0.0000000000
40
0.0000000000
40
0.0000000000
40
1.0000000000
40
1.0000000000
40
1.0000000000
40
1.0000000000
10
15.7490412561
20
89.0780778593
30
0.0000000000
10
15.7402961711
20
89.0781670881
30
0.0000000000
10
15.7315326743
20
89.0788684364
30
0.0000000000
10
15.7228804281
20
89.0801650317
30
0.0000000000
11
15.7490412561
21
89.0780778593
31
0.0000000000
11
15.7228804281
21
89.0801650317
31
0.0000000000
0
SPLINE
5
2BB
100
AcDbEntity
8
0
100
AcDbSpline
62
7
6
CONTINUOUS
70
0
71
3
72
10
73
6
74
4
42
0.0000001000
43
0.0000001000
44
0.0000000001
12
-0.4712182978
22
0.0706151249
32
0.0000000000
13
-0.1347225927
23
0.4389043511
33
0.0000000000
40
0.0000000000
40
0.0000000000
40
0.0000000000
40
0.0000000000
40
0.0961030805
40
0.4693736998
40
1.0000000000
40
1.0000000000
40
1.0000000000
40
1.0000000000
10
15.7228804281
20
89.0801650317
30
0.0000000000
10
15.7077852514
20
89.0824271420
30
0.0000000000
10
15.6357133002
20
89.1023245003
30
0.0000000000
10
15.5343668885
20
89.2322410937
30
0.0000000000
10
15.4819340103
20
89.3598475261
30
0.0000000000
10
15.4581048934
20
89.4374789235
30
0.0000000000
11
15.7228804281
21
89.0801650317
31
0.0000000000
11
15.6792993381
21
89.0922972332
31
0.0000000000
11
15.5569947742
21
89.2135331966
31
0.0000000000
11
15.4581048934
21
89.4374789235
31
0.0000000000
0
SPLINE
5
2BC
100
AcDbEntity
8
0
100
AcDbSpline
62
7
6
CONTINUOUS
70
0
71
3
72
8
73
4
74
2
42
0.0000001000
43
0.0000001000
44
0.0000000001
12
-0.0579890801
22
0.1889190155
32
0.0000000000
13
-0.0332670781
23
0.1965284678
33
0.0000000000
40
0.0000000000
40
0.0000000000
40
0.0000000000
40
0.0000000000
40
1.0000000000
40
1.0000000000
40
1.0000000000
40
1.0000000000
10
15.4581048934
20
89.4374789235
30
0.0000000000
10
15.4387752000
20
89.5004519286
30
0.0000000000
10
15.4240195041
20
89.5652153477
30
0.0000000000
10
15.4129304781
20
89.6307248369
30
0.0000000000
11
15.4581048934
21
89.4374789235
31
0.0000000000
11
15.4129304781
21
89.6307248369
31
0.0000000000
0
SPLINE
5
2BD
100
AcDbEntity
8
0
100
AcDbSpline
62
7
6
CONTINUOUS
70
0
71
3
72
9
73
5
74
3
42
0.0000001000
43
0.0000001000
44
0.0000000001
12
-0.0745529897
22
0.4404289672
32
0.0000000000
13
0.0185362613
23
0.4446474127
33
0.0000000000
40
0.0000000000
40
0.0000000000
40
0.0000000000
40
0.0000000000
40
0.2396465025
40
1.0000000000
40
1.0000000000
40
1.0000000000
40
1.0000000000
10
15.4129304781
20
89.6307248369
30
0.0000000000
10
15.4069750237
20
89.6659072575
30
0.0000000000
10
15.3865371266
20
89.8136148621
30
0.0000000000
10
15.3820669716
20
89.9622525760
30
0.0000000000
10
15.3867650086
20
90.0749489811
30
0.0000000000
11
15.4129304781
21
89.6307248369
31
0.0000000000
11
15.3980963171
21
89.7367558957
31
0.0000000000
11
15.3867650086
21
90.0749489811
31
0.0000000000
0
SPLINE
5
2BE
100
AcDbEntity
8
0
100
AcDbSpline
62
7
6
CONTINUOUS
70
0
71
3
72
8
73
4
74
2
42
0.0000001000
43
0.0000001000
44
0.0000000001
12
0.0919696818
22
0.0000000000
32
0.0000000000
13
0.0803786190
23
-0.0520473250
33
0.0000000000
40
0.0000000000
40
0.0000000000
40
0.0000000000
40
0.0000000000
40
1.0000000000
40
1.0000000000
40
1.0000000000
40
1.0000000000
10
-12.3975987335
20
53.4749489811
30
0.0000000000
10
-12.3669421729
20
53.4749489811
30
0.0000000000
10
-12.3375932483
20
53.4631551988
30
0.0000000000
10
-12.3108003753
20
53.4458060905
30
0.0000000000
11
-12.3975987335
21
53.4749489811
31
0.0000000000
11
-12.3108003753
21
53.4458060905
31
0.0000000000
0
SPLINE
5
2BF
100
AcDbEntity
8
0
100
AcDbSpline
62
7
6
CONTINUOUS
70
0
71
3
72
16
73
12
74
10
42
0.0000001000
43
0.0000001000
44
0.0000000001
12
1.9030275164
22
-1.2322616759
32
0.0000000000
13
-2.1774551168
23
-0.0000000000
33
0.0000000000
40
0.0000000000
40
0.0000000000
40
0.0000000000
40
0.0000000000
40
0.0242959786
40
0.1261501794
40
0.2579387521
40
0.4072058288
40
0.5616639440
40
0.7089650712
40
0.8382138987
40
0.9360631550
40
1.0000000000
40
1.0000000000
40
1.0000000000
40
1.0000000000
10
-12.3108003753
20
53.4458060905
30
0.0000000000
10
-12.2953884034
20
53.4358264227
30
0.0000000000
10
-12.2197573617
20
53.3744655159
30
0.0000000000
10
-12.1248342490
20
53.2131276177
30
0.0000000000
10
-12.0319587712
20
52.9487653909
30
0.0000000000
10
-11.9811980395
20
52.6355468332
30
0.0000000000
10
-11.9768260990
20
52.3070280381
30
0.0000000000
10
-12.0182688022
20
51.9957937434
30
0.0000000000
10
-12.1013652558
20
51.7347343778
30
0.0000000000
10
-12.2016967066
20
51.5491246955
30
0.0000000000
10
-12.3104183135
20
51.4749489811
30
0.0000000000
10
-12.3568248503
20
51.4749489811
30
0.0000000000
11
-12.3108003753
21
53.4458060905
31
0.0000000000
11
-12.2673393575
21
53.4115399466
31
0.0000000000
11
-12.1414207630
21
53.2289689064
31
0.0000000000
11
-12.0439844452
21
52.9590534932
31
0.0000000000
11
-11.9896421323
21
52.6386062316
31
0.0000000000
11
-11.9851250093
21
52.3023109540
31
0.0000000000
11
-12.0298740940
21
51.9847063429
31
0.0000000000
11
-12.1173669631
21
51.7172183535
31
0.0000000000
11
-12.2327553551
21
51.5381064056
31
0.0000000000
11
-12.3568248503
21
51.4749489811
31
0.0000000000
0
SPLINE
5
2C0
100
AcDbEntity
8
0
100
AcDbSpline
62
7
6
CONTINUOUS
70
0
71
3
72
16
73
12
74
10
42
0.0000001000
43
0.0000001000
44
0.0000000001
12
-2.4542187504
22
0.0000000000
32
0.0000000000
13
2.4542187504
23
-0.0000000000
33
0.0000000000
40
0.0000000000
40
0.0000000000
40
0.0000000000
40
0.0000000000
40
0.0783804611
40
0.1782699872
40
0.2975232048
40
0.4272941696
40
0.5605920244
40
0.6913904789
40
0.8139431036
40
0.9189335834
40
1.0000000000
40
1.0000000000
40
1.0000000000
40
1.0000000000
10
14.6375697545
20
71.4749489811
30
0.0000000000
10
14.5734488220
20
71.4749489811
30
0.0000000000
10
14.4293773864
20
71.5378068166
30
0.0000000000
10
14.2747942455
20
71.7310953222
30
0.0000000000
10
14.1598634834
20
71.9952038283
30
0.0000000000
10
14.1003399728
20
72.3045500744
30
0.0000000000
10
14.1017499043
20
72.6286939931
30
0.0000000000
10
14.1647264109
20
72.9409859107
30
0.0000000000
10
14.2852717408
20
73.2111528706
30
0.0000000000
10
14.4476481415
20
73.4100074390
30
0.0000000000
10
14.5979228012
20
73.4749489811
30
0.0000000000
10
14.6642410411
20
73.4749489811
30
0.0000000000
11
14.6375697545
21
71.4749489811
31
0.0000000000
11
14.4567058245
21
71.5404599316
31
0.0000000000
11
14.2935137495
21
71.7234004569
31
0.0000000000
11
14.1732480567
21
71.9902223651
31
0.0000000000
11
14.1110847808
21
72.3025831704
31
0.0000000000
11
14.1124763739
21
72.6297223053
31
0.0000000000
11
14.1777869003
21
72.9440162500
31
0.0000000000
11
14.3037046565
21
73.2171606858
31
0.0000000000
11
14.4769150230
21
73.4079270187
31
0.0000000000
11
14.6642410411
21
73.4749489811
31
0.0000000000
0
SPLINE
5
2C1
100
AcDbEntity
8
0
100
AcDbSpline
62
7
6
CONTINUOUS
70
0
71
3
72
17
73
13
74
11
42
0.0000001000
43
0.0000001000
44
0.0000000001
12
-2.4198758347
22
0.0000000000
32
0.0000000000
13
2.4198758347
23
0.0000000000
33
0.0000000000
40
0.0000000000
40
0.0000000000
40
0.0000000000
40
0.0000000000
40
0.0678443120
40
0.1548644518
40
0.2604094301
40
0.3754955317
40
0.4950970748
40
0.6160107328
40
0.7329037739
40
0.8403252348
40
0.9304157464
40
1.0000000000
40
1.0000000000
40
1.0000000000
40
1.0000000000
10
14.6410479744
20
67.4749489811
30
0.0000000000
10
14.5863230374
20
67.4749489811
30
0.0000000000
10
14.4626867034
20
67.5267176630
30
0.0000000000
10
14.3251543855
20
67.6899565175
30
0.0000000000
10
14.2171501144
20
67.9155684952
30
0.0000000000
10
14.1503158884
20
68.1833595416
30
0.0000000000
10
14.1288139483
20
68.4706842199
30
0.0000000000
10
14.1549808197
20
68.7591253730
30
0.0000000000
10
14.2275784366
20
69.0296360728
30
0.0000000000
10
14.3422665749
20
69.2581142572
30
0.0000000000
10
14.4864569915
20
69.4227772970
30
0.0000000000
10
14.6139470912
20
69.4749489811
30
0.0000000000
10
14.6700755091
20
69.4749489811
30
0.0000000000
11
14.6410479744
21
67.4749489811
31
0.0000000000
11
14.4860269845
21
67.5290032253
31
0.0000000000
11
14.3419015551
21
67.6825314851
31
0.0000000000
11
14.2283066450
21
67.9112852604
31
0.0000000000
11
14.1588765023
21
68.1809858458
31
0.0000000000
11
14.1368437989
21
68.4695668709
31
0.0000000000
11
14.1637024707
21
68.7609275645
31
0.0000000000
11
14.2389808410
21
69.0335934886
31
0.0000000000
11
14.3588165312
21
69.2642699738
31
0.0000000000
11
14.5106714472
21
69.4206909059
31
0.0000000000
11
14.6700755091
21
69.4749489811
31
0.0000000000
0
SPLINE
5
2C2
100
AcDbEntity
8
0
100
AcDbSpline
62
7
6
CONTINUOUS
70
0
71
3
72
16
73
12
74
10
42
0.0000001000
43
0.0000001000
44
0.0000000001
12
-2.3809509524
22
0.0000000000
32
0.0000000000
13
2.3809509524
23
0.0000000000
33
0.0000000000
40
0.0000000000
40
0.0000000000
40
0.0000000000
40
0.0000000000
40
0.0715815655
40
0.1684923630
40
0.2878550926
40
0.4183819502
40
0.5590869593
40
0.7020173913
40
0.8267144593
40
0.9266527548
40
1.0000000000
40
1.0000000000
40
1.0000000000
40
1.0000000000
10
14.6359299000
20
63.4749489811
30
0.0000000000
10
14.5791191679
20
63.4749489811
30
0.0000000000
10
14.4489018943
20
63.5404471587
30
0.0000000000
10
14.3155774836
20
63.7295854448
30
0.0000000000
10
14.2137759024
20
63.9876125348
30
0.0000000000
10
14.1595174895
20
64.2946333921
30
0.0000000000
10
14.1598142111
20
64.6249846465
30
0.0000000000
10
14.2192135536
20
64.9457947527
30
0.0000000000
10
14.3322332542
20
65.2173899103
30
0.0000000000
10
14.4751484271
20
65.4096392656
30
0.0000000000
10
14.6093055705
20
65.4749489811
30
0.0000000000
10
14.6675176350
20
65.4749489811
30
0.0000000000
11
14.6359299000
21
63.4749489811
31
0.0000000000
11
14.4778945580
21
63.5387609259
31
0.0000000000
11
14.3333421943
21
63.7186094598
31
0.0000000000
11
14.2258694732
21
63.9817015310
31
0.0000000000
11
14.1697020556
21
64.2873618246
31
0.0000000000
11
14.1699163551
21
64.6223734814
31
0.0000000000
11
14.2342330815
21
64.9565508173
31
0.0000000000
11
14.3517608652
21
65.2291960202
31
0.0000000000
11
14.5048809057
21
65.4113322040
31
0.0000000000
11
14.6675176350
21
65.4749489811
31
0.0000000000
0
SPLINE
5
2C3
100
AcDbEntity
8
0
100
AcDbSpline
62
7
6
CONTINUOUS
70
0
71
3
72
16
73
12
74
10
42
0.0000001000
43
0.0000001000
44
0.0000000001
12
-2.3438343665
22
0.0000000000
32
0.0000000000
13
2.3438343665
23
0.0000000000
33
0.0000000000
40
0.0000000000
40
0.0000000000
40
0.0000000000
40
0.0000000000
40
0.0687153846
40
0.1652195021
40
0.2870967189
40
0.4219685148
40
0.5636138350
40
0.7040876007
40
0.8291451163
40
0.9291333348
40
1.0000000000
40
1.0000000000
40
1.0000000000
40
1.0000000000
10
14.6216598108
20
59.4749489811
30
0.0000000000
10
14.5679739841
20
59.4749489811
30
0.0000000000
10
14.4438361872
20
59.5436265626
30
0.0000000000
10
14.3207544284
20
59.7336745428
30
0.0000000000
10
14.2250328815
20
59.9947694758
30
0.0000000000
10
14.1758583442
20
60.3037633246
30
0.0000000000
10
14.1783989468
20
60.6309688306
30
0.0000000000
10
14.2345183278
20
60.9459077018
30
0.0000000000
10
14.3397292371
20
61.2138210769
30
0.0000000000
10
14.4719520172
20
61.4061635848
30
0.0000000000
10
14.6006707946
20
61.4749489811
30
0.0000000000
10
14.6560373698
20
61.4749489811
30
0.0000000000
11
14.6216598108
21
59.4749489811
31
0.0000000000
11
14.4739359624
21
59.5391142089
31
0.0000000000
11
14.3383591351
21
59.7201685915
31
0.0000000000
11
14.2370898627
21
59.9872756397
31
0.0000000000
11
14.1852150537
21
60.2991074164
31
0.0000000000
11
14.1877745058
21
60.6310907199
31
0.0000000000
11
14.2477913090
21
60.9548216699
31
0.0000000000
11
14.3579941570
21
61.2264302295
31
0.0000000000
11
14.5029023191
21
61.4106156693
31
0.0000000000
11
14.6560373698
21
61.4749489811
31
0.0000000000
0
SPLINE
5
2C4
100
AcDbEntity
8
0
100
AcDbSpline
62
7
6
CONTINUOUS
70
0
71
3
72
16
73
12
74
10
42
0.0000001000
43
0.0000001000
44
0.0000000001
12
-2.3066711255
22
0.0000000000
32
0.0000000000
13
2.3066711255
23
0.0000000000
33
0.0000000000
40
0.0000000000
40
0.0000000000
40
0.0000000000
40
0.0000000000
40
0.0651335062
40
0.1603018214
40
0.2834667941
40
0.4223662767
40
0.5674237007
40
0.7080322692
40
0.8335150321
40
0.9324900528
40
1.0000000000
40
1.0000000000
40
1.0000000000
40
1.0000000000
10
14.5976106740
20
55.4749489811
30
0.0000000000
10
14.5475301480
20
55.4749489811
30
0.0000000000
10
14.4308657497
20
55.5461437603
30
0.0000000000
10
14.3188862165
20
55.7343914116
30
0.0000000000
10
14.2291771071
20
55.9962274133
30
0.0000000000
10
14.1838900710
20
56.3074150039
30
0.0000000000
10
14.1877708936
20
56.6351352152
30
0.0000000000
10
14.2413724121
20
56.9481836758
30
0.0000000000
10
14.3400712029
20
57.2132949040
30
0.0000000000
10
14.4614326316
20
57.4035932193
30
0.0000000000
10
14.5831303868
20
57.4749489811
30
0.0000000000
10
14.6350381354
20
57.4749489811
30
0.0000000000
11
14.5976106740
21
55.4749489811
31
0.0000000000
11
14.4615305074
21
55.5386256644
31
0.0000000000
11
14.3359157897
21
55.7186558098
31
0.0000000000
11
14.2412256551
21
55.9865124985
31
0.0000000000
11
14.1927539643
21
56.3032201305
31
0.0000000000
11
14.1967411074
21
56.6377961453
31
0.0000000000
11
14.2537455974
21
56.9570851177
31
0.0000000000
11
14.3574313425
21
57.2273240894
31
0.0000000000
11
14.4930649867
21
57.4109696539
31
0.0000000000
11
14.6350381354
21
57.4749489811
31
0.0000000000
0
SPLINE
5
2C5
100
AcDbEntity
8
0
100
AcDbSpline
62
7
6
CONTINUOUS
70
0
71
3
72
16
73
12
74
10
42
0.0000001000
43
0.0000001000
44
0.0000000001
12
-2.1774551168
22
0.0000000000
32
0.0000000000
13
1.9030275164
23
1.2322616759
33
0.0000000000
40
0.0000000000
40
0.0000000000
40
0.0000000000
40
0.0000000000
40
0.0639368450
40
0.1617861013
40
0.2910349288
40
0.4383360560
40
0.5927941712
40
0.7420612479
40
0.8738498206
40
0.9757040214
40
1.0000000000
40
1.0000000000
40
1.0000000000
40
1.0000000000
10
14.5630705987
20
51.4749489811
30
0.0000000000
10
14.5166640619
20
51.4749489811
30
0.0000000000
10
14.4079424551
20
51.5491246955
30
0.0000000000
10
14.3076110043
20
51.7347343778
30
0.0000000000
10
14.2245145506
20
51.9957937434
30
0.0000000000
10
14.1830718474
20
52.3070280381
30
0.0000000000
10
14.1874437879
20
52.6355468332
30
0.0000000000
10
14.2382045196
20
52.9487653909
30
0.0000000000
10
14.3310799974
20
53.2131276177
30
0.0000000000
10
14.4260031101
20
53.3744655159
30
0.0000000000
10
14.5016341518
20
53.4358264227
30
0.0000000000
10
14.5170461237
20
53.4458060905
30
0.0000000000
11
14.5630705987
21
51.4749489811
31
0.0000000000
11
14.4390011036
21
51.5381064056
31
0.0000000000
11
14.3236127116
21
51.7172183535
31
0.0000000000
11
14.2361198424
21
51.9847063429
31
0.0000000000
11
14.1913707577
21
52.3023109540
31
0.0000000000
11
14.1958878807
21
52.6386062316
31
0.0000000000
11
14.2502301937
21
52.9590534932
31
0.0000000000
11
14.3476665114
21
53.2289689064
31
0.0000000000
11
14.4735851059
21
53.4115399466
31
0.0000000000
11
14.5170461237
21
53.4458060905
31
0.0000000000
0
SPLINE
5
2C6
100
AcDbEntity
8
0
100
AcDbSpline
62
7
6
CONTINUOUS
70
0
71
3
72
8
73
4
74
2
42
0.0000001000
43
0.0000001000
44
0.0000000001
12
0.0803786190
22
0.0520473250
32
0.0000000000
13
0.0919696818
23
0.0000000000
33
0.0000000000
40
0.0000000000
40
0.0000000000
40
0.0000000000
40
0.0000000000
40
1.0000000000
40
1.0000000000
40
1.0000000000
40
1.0000000000
10
14.5170461237
20
53.4458060905
30
0.0000000000
10
14.5438389967
20
53.4631551988
30
0.0000000000
10
14.5731879213
20
53.4749489811
30
0.0000000000
10
14.6038444819
20
53.4749489811
30
0.0000000000
11
14.5170461237
21
53.4458060905
31
0.0000000000
11
14.6038444819
21
53.4749489811
31
0.0000000000
0
SPLINE
5
2C7
100
AcDbEntity
8
0
100
AcDbSpline
62
7
6
CONTINUOUS
70
0
71
3
72
16
73
12
74
10
42
0.0000001000
43
0.0000001000
44
0.0000000001
12
-2.2321758243
22
0.0000000000
32
0.0000000000
13
2.2321758243
23
0.0000000000
33
0.0000000000
40
0.0000000000
40
0.0000000000
40
0.0000000000
40
0.0000000000
40
0.0573748558
40
0.1499897180
40
0.2749052077
40
0.4187557075
40
0.5701908308
40
0.7160945717
40
0.8435485355
40
0.9400188552
40
1.0000000000
40
1.0000000000
40
1.0000000000
40
1.0000000000
10
14.5172257717
20
47.4749489811
30
0.0000000000
10
14.4745355163
20
47.4749489811
30
0.0000000000
10
14.3744134302
20
47.5527038410
30
0.0000000000
10
14.2860126730
20
47.7349548526
30
0.0000000000
10
14.2097190068
20
47.9954508721
30
0.0000000000
10
14.1723298554
20
48.3066513100
30
0.0000000000
10
14.1772453087
20
48.6360009069
30
0.0000000000
10
14.2250524878
20
48.9493051434
30
0.0000000000
10
14.3119717006
20
49.2130726302
30
0.0000000000
10
14.4113024542
20
49.3976681126
30
0.0000000000
10
14.5170571302
20
49.4749489811
30
0.0000000000
10
14.5616866173
20
49.4749489811
30
0.0000000000
11
14.5172257717
21
47.4749489811
31
0.0000000000
11
14.4055299214
21
47.5376080439
31
0.0000000000
11
14.3007547594
21
47.7158229608
31
0.0000000000
11
14.2208075301
21
47.9829492792
31
0.0000000000
11
14.1800209568
21
48.3014479662
31
0.0000000000
11
14.1851276007
21
48.6394392120
31
0.0000000000
11
14.2366673627
21
48.9610180377
31
0.0000000000
11
14.3275851757
21
49.2305992052
31
0.0000000000
11
14.4434662415
21
49.4120994557
31
0.0000000000
11
14.5616866173
21
49.4749489811
31
0.0000000000
0
SPLINE
5
2C8
100
AcDbEntity
8
0
100
AcDbSpline
62
7
6
CONTINUOUS
70
0
71
3
72
16
73
12
74
10
42
0.0000001000
43
0.0000001000
44
0.0000000001
12
-2.1950748307
22
0.0000000000
32
0.0000000000
13
2.1950748307
23
0.0000000000
33
0.0000000000
40
0.0000000000
40
0.0000000000
40
0.0000000000
40
0.0000000000
40
0.0532202049
40
0.1446012342
40
0.2704852181
40
0.4169363699
40
0.5716932358
40
0.7203497522
40
0.8488483378
40
0.9440638284
40
1.0000000000
40
1.0000000000
40
1.0000000000
40
1.0000000000
10
14.4591386880
20
43.4749489811
30
0.0000000000
10
14.4201979106
20
43.4749489811
30
0.0000000000
10
14.3295808687
20
43.5570297296
30
0.0000000000
10
14.2532532906
20
43.7349543020
30
0.0000000000
10
14.1840357467
20
43.9952412207
30
0.0000000000
10
14.1509162421
20
44.3062799575
30
0.0000000000
10
14.1564362705
20
44.6365130019
30
0.0000000000
10
14.2011770965
20
44.9497763471
30
0.0000000000
10
14.2819501476
20
45.2132083463
30
0.0000000000
10
14.3700046718
20
45.3938229983
30
0.0000000000
10
14.4667527561
20
45.4749489811
30
0.0000000000
10
14.5076807835
20
45.4749489811
30
0.0000000000
11
14.4591386880
21
43.4749489811
31
0.0000000000
11
14.3602426082
21
43.5371343710
31
0.0000000000
11
14.2665210109
21
43.7144811699
31
0.0000000000
11
14.1945111461
21
43.9812581459
31
0.0000000000
11
14.1579558641
21
44.3006442255
31
0.0000000000
11
14.1637191897
21
44.6402982336
31
0.0000000000
11
14.2123013325
21
44.9629736318
31
0.0000000000
11
14.2963998583
21
45.2322087414
31
0.0000000000
11
14.4018779565
21
45.4126457495
31
0.0000000000
11
14.5076807835
21
45.4749489811
31
0.0000000000
0
SPLINE
5
2C9
100
AcDbEntity
8
0
100
AcDbSpline
62
7
6
CONTINUOUS
70
0
71
3
72
16
73
12
74
10
42
0.0000001000
43
0.0000001000
44
0.0000000001
12
-2.1583660756
22
0.0000000000
32
0.0000000000
13
2.1583660756
23
0.0000000000
33
0.0000000000
40
0.0000000000
40
0.0000000000
40
0.0000000000
40
0.0000000000
40
0.0488966844
40
0.1391051445
40
0.2660248004
40
0.4151462408
40
0.5732900272
40
0.7247477979
40
0.8543217088
40
0.9482951697
40
1.0000000000
40
1.0000000000
40
1.0000000000
40
1.0000000000
10
14.3877199819
20
39.4749489811
30
0.0000000000
10
14.3525410003
20
39.4749489811
30
0.0000000000
10
14.2727209544
20
39.5622873850
30
0.0000000000
10
14.2083184372
20
39.7345885703
30
0.0000000000
10
14.1466146184
20
39.9952270434
30
0.0000000000
10
14.1179666246
20
40.3059049989
30
0.0000000000
10
14.1241651213
20
40.6371055060
30
0.0000000000
10
14.1657407267
20
40.9501386177
30
0.0000000000
10
14.2400669097
20
41.2136487965
30
0.0000000000
10
14.3169099216
20
41.3891956557
30
0.0000000000
10
14.4036047051
20
41.4749489811
30
0.0000000000
10
14.4408040223
20
41.4749489811
30
0.0000000000
11
14.3877199819
21
39.4749489811
31
0.0000000000
11
14.3021275549
21
39.5366902409
31
0.0000000000
11
14.2199649742
21
39.7132080072
31
0.0000000000
11
14.1563361613
21
39.9796549879
31
0.0000000000
11
14.1243149892
21
40.2999168188
31
0.0000000000
11
14.1308111185
21
40.6411871806
31
0.0000000000
11
14.1762633885
21
40.9649132383
31
0.0000000000
11
14.2532043407
21
41.2337891259
31
0.0000000000
11
14.3478623396
21
41.4131756337
31
0.0000000000
11
14.4408040223
21
41.4749489811
31
0.0000000000
0
SPLINE
5
2CA
100
AcDbEntity
8
0
100
AcDbSpline
62
7
6
CONTINUOUS
70
0
71
3
72
16
73
12
74
10
42
0.0000001000
43
0.0000001000
44
0.0000000001
12
-2.1224515612
22
0.0000000000
32
0.0000000000
13
2.1224515612
23
0.0000000000
33
0.0000000000
40
0.0000000000
40
0.0000000000
40
0.0000000000
40
0.0000000000
40
0.0444514004
40
0.1335841687
40
0.2616057845
40
0.4134402700
40
0.5749955604
40
0.7292665668
40
0.8599300304
40
0.9526897422
40
1.0000000000
40
1.0000000000
40
1.0000000000
40
1.0000000000
10
14.3016913921
20
35.4749489811
30
0.0000000000
10
14.2702427441
20
35.4749489811
30
0.0000000000
10
14.2031327395
20
35.5686899442
30
0.0000000000
10
14.1499339713
20
35.7336626470
30
0.0000000000
10
14.0965043731
20
35.9955022491
30
0.0000000000
10
14.0724696710
20
36.3055164344
30
0.0000000000
10
14.0794410014
20
36.6378086296
30
0.0000000000
10
14.1177952195
20
36.9503277794
30
0.0000000000
10
14.1851585152
20
37.2145503776
30
0.0000000000
10
14.2512523461
20
37.3835980963
30
0.0000000000
10
14.3263899915
20
37.4749489811
30
0.0000000000
10
14.3598612349
20
37.4749489811
30
0.0000000000
11
14.3016913921
21
35.4749489811
31
0.0000000000
11
14.2300028307
21
35.5362833706
31
0.0000000000
11
14.1599844401
21
35.7120288998
31
0.0000000000
11
14.1052437693
21
35.9781774346
31
0.0000000000
11
14.0781009958
21
36.2992936778
31
0.0000000000
11
14.0854166534
21
36.6421089072
31
0.0000000000
11
14.1275453606
21
36.9668201176
31
0.0000000000
11
14.1969449975
21
37.2353231613
31
0.0000000000
11
14.2803036107
21
37.4136831530
31
0.0000000000
11
14.3598612349
21
37.4749489811
31
0.0000000000
0
SPLINE
5
2CB
100
AcDbEntity
8
0
100
AcDbSpline
62
7
6
CONTINUOUS
70
0
71
3
72
16
73
12
74
10
42
0.0000001000
43
0.0000001000
44
0.0000000001
12
-2.0880098096
22
0.0000000000
32
0.0000000000
13
2.0880098096
23
-0.0000000000
33
0.0000000000
40
0.0000000000
40
0.0000000000
40
0.0000000000
40
0.0000000000
40
0.0399933958
40
0.1281866248
40
0.2573608695
40
0.4119032283
40
0.5768311115
40
0.7338684252
40
0.8656009563
40
0.9571870270
40
1.0000000000
40
1.0000000000
40
1.0000000000
40
1.0000000000
10
14.1995361855
20
31.4749489811
30
0.0000000000
10
14.1717006512
20
31.4749489811
30
0.0000000000
10
14.1202425767
20
31.5764044836
30
0.0000000000
10
14.0764343198
20
31.7319299919
30
0.0000000000
10
14.0326609379
20
31.9961677461
30
0.0000000000
10
14.0132239337
20
32.3050937685
30
0.0000000000
10
14.0210961955
20
32.6386649813
30
0.0000000000
10
14.0562780233
20
32.9502700245
30
0.0000000000
10
14.1157507769
20
33.2161297391
30
0.0000000000
10
14.1723110443
20
33.3768421882
30
0.0000000000
10
14.2336434715
20
33.4749489811
30
0.0000000000
10
14.2634414407
20
33.4749489811
30
0.0000000000
11
14.1995361855
21
31.4749489811
31
0.0000000000
11
14.1424764418
21
31.5359206004
31
0.0000000000
11
14.0852895533
21
31.7109642127
31
0.0000000000
11
14.0400208953
21
31.9768552756
31
0.0000000000
11
14.0181478087
21
32.2987990557
31
0.0000000000
11
14.0263821528
21
32.6430716330
31
0.0000000000
11
14.0649711112
21
32.9686884621
31
0.0000000000
11
14.1263926627
21
33.2368017701
31
0.0000000000
11
14.1978936615
21
33.4141644488
31
0.0000000000
11
14.2634414407
21
33.4749489811
31
0.0000000000
0
SPLINE
5
2CC
100
AcDbEntity
8
0
100
AcDbSpline
62
7
6
CONTINUOUS
70
0
71
3
72
16
73
12
74
10
42
0.0000001000
43
0.0000001000
44
0.0000000001
12
-2.0562148583
22
0.0000000000
32
0.0000000000
13
2.0562148583
23
0.0000000000
33
0.0000000000
40
0.0000000000
40
0.0000000000
40
0.0000000000
40
0.0000000000
40
0.0357581782
40
0.1231939382
40
0.2535310882
40
0.4106826185
40
0.5788246769
40
0.7384715837
40
0.8711855037
40
0.9616465888
40
1.0000000000
40
1.0000000000
40
1.0000000000
40
1.0000000000
10
14.0794314105
20
27.4749489811
30
0.0000000000
10
14.0549225780
20
27.4749489811
30
0.0000000000
10
14.0237426607
20
27.5853178671
30
0.0000000000
10
13.9855562989
20
27.7292238316
30
0.0000000000
10
13.9539597168
20
27.9973055935
30
0.0000000000
10
13.9387790045
20
28.3046353272
30
0.0000000000
10
13.9477340188
20
28.6397179821
30
0.0000000000
10
13.9800126727
20
28.9498841665
30
0.0000000000
10
14.0298912978
20
29.2186080325
30
0.0000000000
10
14.0795176491
20
29.3688454548
30
0.0000000000
10
14.1235709363
20
29.4749489811
30
0.0000000000
10
14.1498585543
20
29.4749489811
30
0.0000000000
11
14.0794314105
21
27.4749489811
31
0.0000000000
11
14.0378856952
21
27.5356128035
31
0.0000000000
11
13.9943470416
21
27.7100480245
31
0.0000000000
11
13.9592305186
21
27.9757385675
31
0.0000000000
11
13.9430766958
21
28.2984718570
31
0.0000000000
11
13.9523438123
21
28.6440838355
31
0.0000000000
11
13.9871483703
21
28.9705018912
31
0.0000000000
11
14.0400893364
21
29.2382056398
31
0.0000000000
11
14.0990763923
21
29.4146122447
31
0.0000000000
11
14.1498585543
21
29.4749489811
31
0.0000000000
0
SPLINE
5
2CD
100
AcDbEntity
8
0
100
AcDbSpline
62
7
6
CONTINUOUS
70
0
71
3
72
16
73
12
74
10
42
0.0000001000
43
0.0000001000
44
0.0000000001
12
-2.0291191893
22
0.0000000000
32
0.0000000000
13
2.0291191893
23
0.0000000000
33
0.0000000000
40
0.0000000000
40
0.0000000000
40
0.0000000000
40
0.0000000000
40
0.0322434914
40
0.1192761236
40
0.2506995175
40
0.4101805557
40
0.5811359776
40
0.7429981266
40
0.8764378902
40
0.9657847778
40
1.0000000000
40
1.0000000000
40
1.0000000000
40
1.0000000000
10
13.9391530952
20
23.4749489811
30
0.0000000000
10
13.9173444662
20
23.4749489811
30
0.0000000000
10
13.9135518726
20
23.5945196055
30
0.0000000000
10
13.8742753739
20
23.7260889991
30
0.0000000000
10
13.8591442283
20
23.9991308116
30
0.0000000000
10
13.8473736537
20
24.3045154336
30
0.0000000000
10
13.8576700733
20
24.6412208177
30
0.0000000000
10
13.8877319261
20
24.9493378753
30
0.0000000000
10
13.9249658045
20
25.2221044584
30
0.0000000000
10
13.9725800136
20
25.3600443676
30
0.0000000000
10
13.9939271383
20
25.4749489811
30
0.0000000000
10
14.0170693930
20
25.4749489811
30
0.0000000000
11
13.9391530952
21
23.4749489811
31
0.0000000000
11
13.9142055813
21
23.5354317742
31
0.0000000000
11
13.8852740142
21
23.7096453716
31
0.0000000000
11
13.8611314961
21
23.9752240178
31
0.0000000000
11
13.8512375713
21
24.2986787690
31
0.0000000000
11
13.8616853837
21
24.6454103237
31
0.0000000000
11
13.8924323345
21
24.9724055488
31
0.0000000000
11
13.9363047862
21
25.2395927365
31
0.0000000000
11
13.9819863339
21
25.4150385937
31
0.0000000000
11
14.0170693930
21
25.4749489811
31
0.0000000000
0
SPLINE
5
2CE
100
AcDbEntity
8
0
100
AcDbSpline
62
7
6
CONTINUOUS
70
0
71
3
72
16
73
12
74
10
42
0.0000001000
43
0.0000001000
44
0.0000000001
12
-2.0101552428
22
0.0000000000
32
0.0000000000
13
2.0101552428
23
0.0000000000
33
0.0000000000
40
0.0000000000
40
0.0000000000
40
0.0000000000
40
0.0000000000
40
0.0302101060
40
0.1169497045
40
0.2492003907
40
0.4104488765
40
0.5835219897
40
0.7469642416
40
0.8807379844
40
0.9690095982
40
1.0000000000
40
1.0000000000
40
1.0000000000
40
1.0000000000
10
13.7759398566
20
19.4749489811
30
0.0000000000
10
13.7556975223
20
19.4749489811
30
0.0000000000
10
13.7886827347
20
19.6004707558
30
0.0000000000
10
13.7395445665
20
19.7236050499
30
0.0000000000
10
13.7465424518
20
20.0003595549
30
0.0000000000
10
13.7369398561
20
20.3043750386
30
0.0000000000
10
13.7487716517
20
20.6425371904
30
0.0000000000
10
13.7778704471
20
20.9485870258
30
0.0000000000
10
13.7976288411
20
21.2257234685
30
0.0000000000
10
13.8511393753
20
21.3521163693
30
0.0000000000
10
13.8417920090
20
21.4749489811
30
0.0000000000
10
13.8625571819
20
21.4749489811
30
0.0000000000
11
13.7759398566
21
19.4749489811
31
0.0000000000
11
13.7689990052
21
19.5352780245
31
0.0000000000
11
13.7559254375
21
19.7091472623
31
0.0000000000
11
13.7436855743
21
19.9747097526
31
0.0000000000
11
13.7406325189
21
20.2988298627
31
0.0000000000
11
13.7523923677
21
20.6465348786
31
0.0000000000
11
13.7787517717
21
20.9740200518
31
0.0000000000
11
13.8128736594
21
21.2407523679
31
0.0000000000
11
13.8443157211
21
21.4153840523
31
0.0000000000
11
13.8625571819
21
21.4749489811
31
0.0000000000
0
SPLINE
5
2CF
100
AcDbEntity
8
0
100
AcDbSpline
62
7
6
CONTINUOUS
70
0
71
3
72
8
73
4
74
2
42
0.0000001000
43
0.0000001000
44
0.0000000001
12
0.0021086359
22
0.0469924576
32
0.0000000000
13
0.0012010179
23
0.0470228437
33
0.0000000000
40
0.0000000000
40
0.0000000000
40
0.0000000000
40
0.0000000000
40
1.0000000000
40
1.0000000000
40
1.0000000000
40
1.0000000000
10
13.6005896001
20
15.5613503016
30
0.0000000000
10
13.6012924788
20
15.5770144542
30
0.0000000000
10
13.6018208527
20
15.5926846397
30
0.0000000000
10
13.6022211920
20
15.6083589210
30
0.0000000000
11
13.6005896001
21
15.5613503016
31
0.0000000000
11
13.6022211920
21
15.6083589210
31
0.0000000000
0
SPLINE
5
2D0
100
AcDbEntity
8
0
100
AcDbSpline
62
7
6
CONTINUOUS
70
0
71
3
72
15
73
11
74
9
42
0.0000001000
43
0.0000001000
44
0.0000000001
12
0.0469922321
22
1.8398629807
32
0.0000000000
13
0.0825046054
23
1.8386740635
33
0.0000000000
40
0.0000000000
40
0.0000000000
40
0.0000000000
40
0.0000000000
40
0.0658366334
40
0.1955941731
40
0.3497072305
40
0.5159861996
40
0.6794183146
40
0.8223235605
40
0.9340332078
40
1.0000000000
40
1.0000000000
40
1.0000000000
40
1.0000000000
10
13.6022211920
20
15.6083589210
30
0.0000000000
10
13.6032524621
20
15.6487357158
30
0.0000000000
10
13.6037921787
20
15.7687719515
30
0.0000000000
10
13.6038850710
20
15.9832937410
30
0.0000000000
10
13.6068080560
20
16.2594707415
30
0.0000000000
10
13.6163502073
20
16.5561749403
30
0.0000000000
10
13.6328555091
20
16.8456876836
30
0.0000000000
10
13.6537467196
20
17.1013448472
30
0.0000000000
10
13.6721636644
20
17.2971146887
30
0.0000000000
10
13.6833454252
20
17.4056229738
30
0.0000000000
10
13.6851596132
20
17.4460534505
30
0.0000000000
11
13.6022211920
21
15.6083589210
31
0.0000000000
11
13.6035605348
21
15.7295377236
31
0.0000000000
11
13.6042479828
21
15.9683586258
31
0.0000000000
11
13.6077097306
21
16.2519863122
31
0.0000000000
11
13.6176810613
21
16.5578642936
31
0.0000000000
11
13.6348846167
21
16.8581726954
31
0.0000000000
11
13.6559052297
21
17.1203519289
31
0.0000000000
11
13.6751767438
21
17.3250510753
31
0.0000000000
11
13.6851596132
21
17.4460534505
31
0.0000000000
0
SPLINE
5
2D1
100
AcDbEntity
8
0
100
AcDbSpline
62
7
6
CONTINUOUS
70
0
71
3
72
11
73
7
74
5
42
0.0000001000
43
0.0000001000
44
0.0000000001
12
0.0532157118
22
1.1859501498
32
0.0000000000
13
0.0532157118
23
1.1859501498
33
0.0000000000
40
0.0000000000
40
0.0000000000
40
0.0000000000
40
0.0000000000
40
0.2468524782
40
0.5137405757
40
0.7736732207
40
1.0000000000
40
1.0000000000
40
1.0000000000
40
1.0000000000
10
13.4386900112
20
11.9533023186
30
0.0000000000
10
13.4430688213
20
12.0508872297
30
0.0000000000
10
13.4505985464
20
12.2540444052
30
0.0000000000
10
13.4630122643
20
12.5599481654
30
0.0000000000
10
13.4776123644
20
12.8576236235
30
0.0000000000
10
13.4878905419
20
13.0497712900
30
0.0000000000
10
13.4919052555
20
13.1392420493
30
0.0000000000
11
13.4386900112
21
11.9533023186
31
0.0000000000
11
13.4504695848
21
12.2461147866
31
0.0000000000
11
13.4635754906
21
12.5626780746
31
0.0000000000
11
13.4785072368
21
12.8708939446
31
0.0000000000
11
13.4919052555
21
13.1392420493
31
0.0000000000
0
SPLINE
5
2D2
100
AcDbEntity
8
0
100
AcDbSpline
62
7
6
CONTINUOUS
70
0
71
3
72
8
73
4
74
2
42
0.0000001000
43
0.0000001000
44
0.0000000001
12
0.0065723034
22
-0.1464684768
32
0.0000000000
13
0.0148354682
23
-0.1459208499
33
0.0000000000
40
0.0000000000
40
0.0000000000
40
0.0000000000
40
0.0000000000
40
1.0000000000
40
1.0000000000
40
1.0000000000
40
1.0000000000
10
-11.4789138648
20
17.4460534505
30
0.0000000000
10
-11.4767230970
20
17.3972306249
30
0.0000000000
10
-11.4714785908
20
17.3486015204
30
0.0000000000
10
-11.4665334348
20
17.2999612371
30
0.0000000000
11
-11.4789138648
21
17.4460534505
31
0.0000000000
11
-11.4665334348
21
17.2999612371
31
0.0000000000
0
SPLINE
5
2D3
100
AcDbEntity
8
0
100
AcDbSpline
62
7
6
CONTINUOUS
70
0
71
3
72
13
73
9
74
7
42
0.0000001000
43
0.0000001000
44
0.0000000001
12
0.1761584111
22
-1.7326844463
32
0.0000000000
13
0.0780404443
23
-1.7391870436
33
0.0000000000
40
0.0000000000
40
0.0000000000
40
0.0000000000
40
0.0000000000
40
0.1440096227
40
0.3273443698
40
0.5286271469
40
0.7216974760
40
0.8857941859
40
1.0000000000
40
1.0000000000
40
1.0000000000
40
1.0000000000
10
-11.4665334348
20
17.2999612371
30
0.0000000000
10
-11.4580772660
20
17.2167868259
30
0.0000000000
10
-11.4408454431
20
17.0276510253
30
0.0000000000
10
-11.4182187809
20
16.7216626661
30
0.0000000000
10
-11.4034171412
20
16.3867064769
30
0.0000000000
10
-11.3978429347
20
16.0626376569
30
0.0000000000
10
-11.3974357465
20
15.7891322307
30
0.0000000000
10
-11.3973147425
20
15.6275587257
30
0.0000000000
10
-11.3943438517
20
15.5613503016
30
0.0000000000
11
-11.4665334348
21
17.2999612371
31
0.0000000000
11
-11.4435388870
21
17.0503062699
31
0.0000000000
11
-11.4204884024
21
16.7319654434
31
0.0000000000
11
-11.4048135965
21
16.3818955487
31
0.0000000000
11
-11.3985053156
21
16.0458314568
31
0.0000000000
11
-11.3974341618
21
15.7601514196
31
0.0000000000
11
-11.3943438517
21
15.5613503016
31
0.0000000000
0
SPLINE
5
2D4
100
AcDbEntity
8
0
100
AcDbSpline
62
7
6
CONTINUOUS
70
0
71
3
72
11
73
7
74
5
42
0.0000001000
43
0.0000001000
44
0.0000000001
12
0.0532157119
22
-1.1859501502
32
0.0000000000
13
0.0532157119
23
-1.1859501502
33
0.0000000000
40
0.0000000000
40
0.0000000000
40
0.0000000000
40
0.0000000000
40
0.2263793365
40
0.4862189519
40
0.7530565412
40
1.0000000000
40
1.0000000000
40
1.0000000000
40
1.0000000000
10
-11.2856595071
20
13.1392420493
30
0.0000000000
10
-11.2816438612
20
13.0497505133
30
0.0000000000
10
-11.2713662992
20
12.8576188510
30
0.0000000000
10
-11.2567682021
20
12.5599793423
30
0.0000000000
10
-11.2443545825
20
12.2540963933
30
0.0000000000
10
-11.2368246867
20
12.0509231959
30
0.0000000000
10
-11.2324442627
20
11.9533023186
30
0.0000000000
11
-11.2856595071
21
13.1392420493
31
0.0000000000
11
-11.2722582974
21
12.8708316331
31
0.0000000000
11
-11.2573318964
21
12.5627260731
31
0.0000000000
11
-11.2442280314
21
12.2462227123
31
0.0000000000
11
-11.2324442627
21
11.9533023186
31
0.0000000000
0
SPLINE
5
2D5
100
AcDbEntity
8
0
100
AcDbSpline
62
7
6
CONTINUOUS
70
0
71
3
72
16
73
12
74
10
42
0.0000001000
43
0.0000001000
44
0.0000000001
12
2.0101552428
22
0.0000000000
32
0.0000000000
13
-2.0101552428
23
0.0000000000
33
0.0000000000
40
0.0000000000
40
0.0000000000
40
0.0000000000
40
0.0000000000
40
0.0309904018
40
0.1192620156
40
0.2530357584
40
0.4164780103
40
0.5895511235
40
0.7507996093
40
0.8830502955
40
0.9697898940
40
1.0000000000
40
1.0000000000
40
1.0000000000
40
1.0000000000
10
-11.6563114334
20
21.4749489811
30
0.0000000000
10
-11.6355462606
20
21.4749489811
30
0.0000000000
10
-11.6448936268
20
21.3521163693
30
0.0000000000
10
-11.5913830927
20
21.2257234685
30
0.0000000000
10
-11.5716246986
20
20.9485870258
30
0.0000000000
10
-11.5425259033
20
20.6425371904
30
0.0000000000
10
-11.5306941076
20
20.3043750386
30
0.0000000000
10
-11.5402967034
20
20.0003595549
30
0.0000000000
10
-11.5332988181
20
19.7236050499
30
0.0000000000
10
-11.5824369863
20
19.6004707558
30
0.0000000000
10
-11.5494517739
20
19.4749489811
30
0.0000000000
10
-11.5696941082
20
19.4749489811
30
0.0000000000
11
-11.6563114334
21
21.4749489811
31
0.0000000000
11
-11.6380699727
21
21.4153840523
31
0.0000000000
11
-11.6066279109
21
21.2407523679
31
0.0000000000
11
-11.5725060233
21
20.9740200518
31
0.0000000000
11
-11.5461466192
21
20.6465348786
31
0.0000000000
11
-11.5343867705
21
20.2988298627
31
0.0000000000
11
-11.5374398259
21
19.9747097526
31
0.0000000000
11
-11.5496796890
21
19.7091472623
31
0.0000000000
11
-11.5627532568
21
19.5352780245
31
0.0000000000
11
-11.5696941082
21
19.4749489811
31
0.0000000000
0
SPLINE
5
2D6
100
AcDbEntity
8
0
100
AcDbSpline
62
7
6
CONTINUOUS
70
0
71
3
72
16
73
12
74
10
42
0.0000001000
43
0.0000001000
44
0.0000000001
12
2.0291191893
22
0.0000000000
32
0.0000000000
13
-2.0291191893
23
-0.0000000000
33
0.0000000000
40
0.0000000000
40
0.0000000000
40
0.0000000000
40
0.0000000000
40
0.0342152222
40
0.1235621098
40
0.2570018734
40
0.4188640224
40
0.5898194443
40
0.7493004825
40
0.8807238764
40
0.9677565086
40
1.0000000000
40
1.0000000000
40
1.0000000000
40
1.0000000000
10
-11.8108236446
20
25.4749489811
30
0.0000000000
10
-11.7876813899
20
25.4749489811
30
0.0000000000
10
-11.7663342651
20
25.3600443676
30
0.0000000000
10
-11.7187200561
20
25.2221044584
30
0.0000000000
10
-11.6814861777
20
24.9493378753
30
0.0000000000
10
-11.6514243249
20
24.6412208177
30
0.0000000000
10
-11.6411279053
20
24.3045154336
30
0.0000000000
10
-11.6528984799
20
23.9991308116
30
0.0000000000
10
-11.6680296255
20
23.7260889991
30
0.0000000000
10
-11.7073061242
20
23.5945196055
30
0.0000000000
10
-11.7110987177
20
23.4749489811
30
0.0000000000
10
-11.7329073468
20
23.4749489811
30
0.0000000000
11
-11.8108236446
21
25.4749489811
31
0.0000000000
11
-11.7757405855
21
25.4150385937
31
0.0000000000
11
-11.7300590378
21
25.2395927365
31
0.0000000000
11
-11.6861865861
21
24.9724055488
31
0.0000000000
11
-11.6554396353
21
24.6454103237
31
0.0000000000
11
-11.6449918228
21
24.2986787690
31
0.0000000000
11
-11.6548857477
21
23.9752240178
31
0.0000000000
11
-11.6790282658
21
23.7096453716
31
0.0000000000
11
-11.7079598329
21
23.5354317742
31
0.0000000000
11
-11.7329073468
21
23.4749489811
31
0.0000000000
0
SPLINE
5
2D7
100
AcDbEntity
8
0
100
AcDbSpline
62
7
6
CONTINUOUS
70
0
71
3
72
16
73
12
74
10
42
0.0000001000
43
0.0000001000
44
0.0000000001
12
2.0562148583
22
0.0000000000
32
0.0000000000
13
-2.0562148583
23
0.0000000000
33
0.0000000000
40
0.0000000000
40
0.0000000000
40
0.0000000000
40
0.0000000000
40
0.0383534112
40
0.1288144963
40
0.2615284163
40
0.4211753231
40
0.5893173815
40
0.7464689118
40
0.8768060618
40
0.9642418218
40
1.0000000000
40
1.0000000000
40
1.0000000000
40
1.0000000000
10
-11.9436128059
20
29.4749489811
30
0.0000000000
10
-11.9173251879
20
29.4749489811
30
0.0000000000
10
-11.8732719007
20
29.3688454548
30
0.0000000000
10
-11.8236455494
20
29.2186080325
30
0.0000000000
10
-11.7737669243
20
28.9498841665
30
0.0000000000
10
-11.7414882704
20
28.6397179821
30
0.0000000000
10
-11.7325332561
20
28.3046353272
30
0.0000000000
10
-11.7477139684
20
27.9973055935
30
0.0000000000
10
-11.7793105505
20
27.7292238316
30
0.0000000000
10
-11.8174969123
20
27.5853178671
30
0.0000000000
10
-11.8486768296
20
27.4749489811
30
0.0000000000
10
-11.8731856620
20
27.4749489811
30
0.0000000000
11
-11.9436128059
21
29.4749489811
31
0.0000000000
11
-11.8928306438
21
29.4146122447
31
0.0000000000
11
-11.8338435880
21
29.2382056398
31
0.0000000000
11
-11.7809026219
21
28.9705018912
31
0.0000000000
11
-11.7460980639
21
28.6440838355
31
0.0000000000
11
-11.7368309474
21
28.2984718570
31
0.0000000000
11
-11.7529847702
21
27.9757385675
31
0.0000000000
11
-11.7881012932
21
27.7100480245
31
0.0000000000
11
-11.8316399468
21
27.5356128035
31
0.0000000000
11
-11.8731856620
21
27.4749489811
31
0.0000000000
0
SPLINE
5
2D8
100
AcDbEntity
8
0
100
AcDbSpline
62
7
6
CONTINUOUS
70
0
71
3
72
16
73
12
74
10
42
0.0000001000
43
0.0000001000
44
0.0000000001
12
2.0880098096
22
0.0000000000
32
0.0000000000
13
-2.0880098096
23
-0.0000000000
33
0.0000000000
40
0.0000000000
40
0.0000000000
40
0.0000000000
40
0.0000000000
40
0.0428129730
40
0.1343990437
40
0.2661315748
40
0.4231688885
40
0.5880967717
40
0.7426391305
40
0.8718133752
40
0.9600066042
40
1.0000000000
40
1.0000000000
40
1.0000000000
40
1.0000000000
10
-12.0571956923
20
33.4749489811
30
0.0000000000
10
-12.0273977231
20
33.4749489811
30
0.0000000000
10
-11.9660652959
20
33.3768421882
30
0.0000000000
10
-11.9095050285
20
33.2161297391
30
0.0000000000
10
-11.8500322749
20
32.9502700245
30
0.0000000000
10
-11.8148504471
20
32.6386649813
30
0.0000000000
10
-11.8069781852
20
32.3050937685
30
0.0000000000
10
-11.8264151895
20
31.9961677461
30
0.0000000000
10
-11.8701885713
20
31.7319299919
30
0.0000000000
10
-11.9139968282
20
31.5764044836
30
0.0000000000
10
-11.9654549028
20
31.4749489811
30
0.0000000000
10
-11.9932904370
20
31.4749489811
30
0.0000000000
11
-12.0571956923
21
33.4749489811
31
0.0000000000
11
-11.9916479131
21
33.4141644488
31
0.0000000000
11
-11.9201469142
21
33.2368017701
31
0.0000000000
11
-11.8587253628
21
32.9686884621
31
0.0000000000
11
-11.8201364044
21
32.6430716330
31
0.0000000000
11
-11.8119020603
21
32.2987990557
31
0.0000000000
11
-11.8337751468
21
31.9768552756
31
0.0000000000
11
-11.8790438049
21
31.7109642127
31
0.0000000000
11
-11.9362306934
21
31.5359206004
31
0.0000000000
11
-11.9932904370
21
31.4749489811
31
0.0000000000
0
SPLINE
5
2D9
100
AcDbEntity
8
0
100
AcDbSpline
62
7
6
CONTINUOUS
70
0
71
3
72
16
73
12
74
10
42
0.0000001000
43
0.0000001000
44
0.0000000001
12
2.1224515612
22
0.0000000000
32
0.0000000000
13
-2.1224515612
23
0.0000000000
33
0.0000000000
40
0.0000000000
40
0.0000000000
40
0.0000000000
40
0.0000000000
40
0.0473102578
40
0.1400699696
40
0.2707334332
40
0.4250044396
40
0.5865597300
40
0.7383942155
40
0.8664158313
40
0.9555485996
40
1.0000000000
40
1.0000000000
40
1.0000000000
40
1.0000000000
10
-12.1536154865
20
37.4749489811
30
0.0000000000
10
-12.1201442430
20
37.4749489811
30
0.0000000000
10
-12.0450065977
20
37.3835980963
30
0.0000000000
10
-11.9789127667
20
37.2145503776
30
0.0000000000
10
-11.9115494710
20
36.9503277794
30
0.0000000000
10
-11.8731952530
20
36.6378086296
30
0.0000000000
10
-11.8662239226
20
36.3055164344
30
0.0000000000
10
-11.8902586247
20
35.9955022491
30
0.0000000000
10
-11.9436882229
20
35.7336626470
30
0.0000000000
10
-11.9968869911
20
35.5686899442
30
0.0000000000
10
-12.0639969956
20
35.4749489811
30
0.0000000000
10
-12.0954456437
20
35.4749489811
30
0.0000000000
11
-12.1536154865
21
37.4749489811
31
0.0000000000
11
-12.0740578623
21
37.4136831530
31
0.0000000000
11
-11.9906992491
21
37.2353231613
31
0.0000000000
11
-11.9212996122
21
36.9668201176
31
0.0000000000
11
-11.8791709050
21
36.6421089072
31
0.0000000000
11
-11.8718552474
21
36.2992936778
31
0.0000000000
11
-11.8989980208
21
35.9781774346
31
0.0000000000
11
-11.9537386917
21
35.7120288998
31
0.0000000000
11
-12.0237570823
21
35.5362833706
31
0.0000000000
11
-12.0954456437
21
35.4749489811
31
0.0000000000
0
SPLINE
5
2DA
100
AcDbEntity
8
0
100
AcDbSpline
62
7
6
CONTINUOUS
70
0
71
3
72
16
73
12
74
10
42
0.0000001000
43
0.0000001000
44
0.0000000001
12
2.1583660756
22
0.0000000000
32
0.0000000000
13
-2.1583660756
23
0.0000000000
33
0.0000000000
40
0.0000000000
40
0.0000000000
40
0.0000000000
40
0.0000000000
40
0.0517048303
40
0.1456782912
40
0.2752522021
40
0.4267099728
40
0.5848537592
40
0.7339751996
40
0.8608948555
40
0.9511033156
40
1.0000000000
40
1.0000000000
40
1.0000000000
40
1.0000000000
10
-12.2345582739
20
41.4749489811
30
0.0000000000
10
-12.1973589567
20
41.4749489811
30
0.0000000000
10
-12.1106641732
20
41.3891956557
30
0.0000000000
10
-12.0338211613
20
41.2136487965
30
0.0000000000
10
-11.9594949783
20
40.9501386177
30
0.0000000000
10
-11.9179193728
20
40.6371055060
30
0.0000000000
10
-11.9117208762
20
40.3059049989
30
0.0000000000
10
-11.9403688699
20
39.9952270434
30
0.0000000000
10
-12.0020726887
20
39.7345885703
30
0.0000000000
10
-12.0664752059
20
39.5622873850
30
0.0000000000
10
-12.1462952519
20
39.4749489811
30
0.0000000000
10
-12.1814742335
20
39.4749489811
30
0.0000000000
11
-12.2345582739
21
41.4749489811
31
0.0000000000
11
-12.1416165912
21
41.4131756337
31
0.0000000000
11
-12.0469585923
21
41.2337891259
31
0.0000000000
11
-11.9700176401
21
40.9649132383
31
0.0000000000
11
-11.9245653701
21
40.6411871806
31
0.0000000000
11
-11.9180692407
21
40.2999168188
31
0.0000000000
11
-11.9500904129
21
39.9796549879
31
0.0000000000
11
-12.0137192258
21
39.7132080072
31
0.0000000000
11
-12.0958818064
21
39.5366902409
31
0.0000000000
11
-12.1814742335
21
39.4749489811
31
0.0000000000
0
SPLINE
5
2DB
100
AcDbEntity
8
0
100
AcDbSpline
62
7
6
CONTINUOUS
70
0
71
3
72
16
73
12
74
10
42
0.0000001000
43
0.0000001000
44
0.0000000001
12
2.1950748307
22
0.0000000000
32
0.0000000000
13
-2.1950748307
23
0.0000000000
33
0.0000000000
40
0.0000000000
40
0.0000000000
40
0.0000000000
40
0.0000000000
40
0.0559361716
40
0.1511516622
40
0.2796502478
40
0.4283067642
40
0.5830636301
40
0.7295147819
40
0.8553987658
40
0.9467797951
40
1.0000000000
40
1.0000000000
40
1.0000000000
40
1.0000000000
10
-12.3014350351
20
45.4749489811
30
0.0000000000
10
-12.2605070077
20
45.4749489811
30
0.0000000000
10
-12.1637589234
20
45.3938229983
30
0.0000000000
10
-12.0757043992
20
45.2132083463
30
0.0000000000
10
-11.9949313480
20
44.9497763471
30
0.0000000000
10
-11.9501905221
20
44.6365130019
30
0.0000000000
10
-11.9446704937
20
44.3062799575
30
0.0000000000
10
-11.9777899983
20
43.9952412207
30
0.0000000000
10
-12.0470075422
20
43.7349543020
30
0.0000000000
10
-12.1233351202
20
43.5570297296
30
0.0000000000
10
-12.2139521622
20
43.4749489811
30
0.0000000000
10
-12.2528929396
20
43.4749489811
30
0.0000000000
11
-12.3014350351
21
45.4749489811
31
0.0000000000
11
-12.1956322081
21
45.4126457495
31
0.0000000000
11
-12.0901541099
21
45.2322087414
31
0.0000000000
11
-12.0060555841
21
44.9629736318
31
0.0000000000
11
-11.9574734413
21
44.6402982336
31
0.0000000000
11
-11.9517101156
21
44.3006442255
31
0.0000000000
11
-11.9882653977
21
43.9812581459
31
0.0000000000
11
-12.0602752625
21
43.7144811699
31
0.0000000000
11
-12.1539968598
21
43.5371343710
31
0.0000000000
11
-12.2528929396
21
43.4749489811
31
0.0000000000
0
SPLINE
5
2DC
100
AcDbEntity
8
0
100
AcDbSpline
62
7
6
CONTINUOUS
70
0
71
3
72
16
73
12
74
10
42
0.0000001000
43
0.0000001000
44
0.0000000001
12
2.2321758243
22
0.0000000000
32
0.0000000000
13
-2.2321758243
23
0.0000000000
33
0.0000000000
40
0.0000000000
40
0.0000000000
40
0.0000000000
40
0.0000000000
40
0.0599811448
40
0.1564514645
40
0.2839054283
40
0.4298091692
40
0.5812442925
40
0.7250947923
40
0.8500102820
40
0.9426251442
40
1.0000000000
40
1.0000000000
40
1.0000000000
40
1.0000000000
10
-12.3554408689
20
49.4749489811
30
0.0000000000
10
-12.3108113818
20
49.4749489811
30
0.0000000000
10
-12.2050567058
20
49.3976681126
30
0.0000000000
10
-12.1057259522
20
49.2130726302
30
0.0000000000
10
-12.0188067394
20
48.9493051434
30
0.0000000000
10
-11.9709995603
20
48.6360009069
30
0.0000000000
10
-11.9660841070
20
48.3066513100
30
0.0000000000
10
-12.0034732584
20
47.9954508721
30
0.0000000000
10
-12.0797669246
20
47.7349548526
30
0.0000000000
10
-12.1681676818
20
47.5527038410
30
0.0000000000
10
-12.2682897679
20
47.4749489811
30
0.0000000000
10
-12.3109800233
20
47.4749489811
30
0.0000000000
11
-12.3554408689
21
49.4749489811
31
0.0000000000
11
-12.2372204931
21
49.4120994557
31
0.0000000000
11
-12.1213394273
21
49.2305992052
31
0.0000000000
11
-12.0304216143
21
48.9610180377
31
0.0000000000
11
-11.9788818523
21
48.6394392120
31
0.0000000000
11
-11.9737752083
21
48.3014479662
31
0.0000000000
11
-12.0145617817
21
47.9829492792
31
0.0000000000
11
-12.0945090110
21
47.7158229608
31
0.0000000000
11
-12.1992841730
21
47.5376080439
31
0.0000000000
11
-12.3109800233
21
47.4749489811
31
0.0000000000
0
SPLINE
5
2DD
100
AcDbEntity
8
0
100
AcDbSpline
62
7
6
CONTINUOUS
70
0
71
3
72
16
73
12
74
10
42
0.0000001000
43
0.0000001000
44
0.0000000001
12
2.3066711255
22
0.0000000000
32
0.0000000000
13
-2.3066711255
23
0.0000000000
33
0.0000000000
40
0.0000000000
40
0.0000000000
40
0.0000000000
40
0.0000000000
40
0.0675099472
40
0.1664849679
40
0.2919677308
40
0.4325762993
40
0.5776337233
40
0.7165332059
40
0.8396981786
40
0.9348664938
40
1.0000000000
40
1.0000000000
40
1.0000000000
40
1.0000000000
10
-12.4287923870
20
57.4749489811
30
0.0000000000
10
-12.3768846384
20
57.4749489811
30
0.0000000000
10
-12.2551868832
20
57.4035932193
30
0.0000000000
10
-12.1338254545
20
57.2132949040
30
0.0000000000
10
-12.0351266636
20
56.9481836758
30
0.0000000000
10
-11.9815251452
20
56.6351352152
30
0.0000000000
10
-11.9776443225
20
56.3074150039
30
0.0000000000
10
-12.0229313586
20
55.9962274133
30
0.0000000000
10
-12.1126404680
20
55.7343914116
30
0.0000000000
10
-12.2246200013
20
55.5461437603
30
0.0000000000
10
-12.3412843996
20
55.4749489811
30
0.0000000000
10
-12.3913649256
20
55.4749489811
30
0.0000000000
11
-12.4287923870
21
57.4749489811
31
0.0000000000
11
-12.2868192383
21
57.4109696539
31
0.0000000000
11
-12.1511855941
21
57.2273240894
31
0.0000000000
11
-12.0474998490
21
56.9570851177
31
0.0000000000
11
-11.9904953589
21
56.6377961453
31
0.0000000000
11
-11.9865082158
21
56.3032201305
31
0.0000000000
11
-12.0349799067
21
55.9865124985
31
0.0000000000
11
-12.1296700412
21
55.7186558098
31
0.0000000000
11
-12.2552847589
21
55.5386256644
31
0.0000000000
11
-12.3913649256
21
55.4749489811
31
0.0000000000
0
SPLINE
5
2DE
100
AcDbEntity
8
0
100
AcDbSpline
62
7
6
CONTINUOUS
70
0
71
3
72
16
73
12
74
10
42
0.0000001000
43
0.0000001000
44
0.0000000001
12
2.3439039357
22
0.0000000000
32
0.0000000000
13
-2.3439039357
23
0.0000000000
33
0.0000000000
40
0.0000000000
40
0.0000000000
40
0.0000000000
40
0.0000000000
40
0.0706817128
40
0.1703136167
40
0.2930048410
40
0.4290516787
40
0.5745052481
40
0.7141862735
40
0.8363079987
40
0.9317245570
40
1.0000000000
40
1.0000000000
40
1.0000000000
40
1.0000000000
10
-12.4497916213
20
61.4749489811
30
0.0000000000
10
-12.3945679064
20
61.4749489811
30
0.0000000000
10
-12.2662091963
20
61.4065425412
30
0.0000000000
10
-12.1350167713
20
61.2162523370
30
0.0000000000
10
-12.0310096367
20
60.9539786654
30
0.0000000000
10
-11.9731902851
20
60.6418222419
30
0.0000000000
10
-11.9685212604
20
60.3112466313
30
0.0000000000
10
-12.0182630892
20
59.9951663895
30
0.0000000000
10
-12.1156521827
20
59.7313083880
30
0.0000000000
10
-12.2389596021
20
59.5425892839
30
0.0000000000
10
-12.3620703692
20
59.4749489811
30
0.0000000000
10
-12.4154140624
20
59.4749489811
30
0.0000000000
11
-12.4497916213
21
61.4749489811
31
0.0000000000
11
-12.2970013268
21
61.4109017004
31
0.0000000000
11
-12.1523749080
21
61.2275486413
31
0.0000000000
11
-12.0434481525
21
60.9613998617
31
0.0000000000
11
-11.9832125749
21
60.6482599766
31
0.0000000000
11
-11.9783424054
21
60.3073655697
31
0.0000000000
11
-12.0316231604
21
59.9843311995
31
0.0000000000
11
-12.1338192898
21
59.7169546853
31
0.0000000000
11
-12.2685037533
21
59.5384100520
31
0.0000000000
11
-12.4154140624
21
59.4749489811
31
0.0000000000
0
SPLINE
5
2DF
100
AcDbEntity
8
0
100
AcDbSpline
62
7
6
CONTINUOUS
70
0
71
3
72
16
73
12
74
10
42
0.0000001000
43
0.0000001000
44
0.0000000001
12
2.3808547553
22
0.0000000000
32
0.0000000000
13
-2.3808547553
23
0.0000000000
33
0.0000000000
40
0.0000000000
40
0.0000000000
40
0.0000000000
40
0.0000000000
40
0.0741547237
40
0.1754480538
40
0.2977552625
40
0.4302200158
40
0.5712249199
40
0.7086509179
40
0.8307508258
40
0.9279838787
40
1.0000000000
40
1.0000000000
40
1.0000000000
40
1.0000000000
10
-12.4612718865
20
65.4749489811
30
0.0000000000
10
-12.4024213443
20
65.4749489811
30
0.0000000000
10
-12.2667499780
20
65.4081361055
30
0.0000000000
10
-12.1250788905
20
65.2152617131
30
0.0000000000
10
-12.0159294022
20
64.9521638948
30
0.0000000000
10
-11.9558979819
20
64.6420028641
30
0.0000000000
10
-11.9512375012
20
64.3142776482
30
0.0000000000
10
-12.0037454929
20
63.9987589884
30
0.0000000000
10
-12.1073368590
20
63.7327833935
30
0.0000000000
10
-12.2418161784
20
63.5411173644
30
0.0000000000
10
-12.3725308433
20
63.4749489811
30
0.0000000000
10
-12.4296841516
20
63.4749489811
30
0.0000000000
11
-12.4612718865
21
65.4749489811
31
0.0000000000
11
-12.2970597784
21
65.4101040861
31
0.0000000000
11
-12.1428437594
21
65.2246914781
31
0.0000000000
11
-12.0281360131
21
64.9570404585
31
0.0000000000
11
-11.9661979827
21
64.6478029978
31
0.0000000000
11
-11.9613682364
21
64.3121255450
31
0.0000000000
11
-12.0173450266
21
63.9897580953
31
0.0000000000
11
-12.1261945636
21
63.7202038038
31
0.0000000000
11
-12.2708139745
21
63.5394375280
31
0.0000000000
11
-12.4296841516
21
63.4749489811
31
0.0000000000
0
SPLINE
5
2E0
100
AcDbEntity
8
0
100
AcDbSpline
62
7
6
CONTINUOUS
70
0
71
3
72
16
73
12
74
10
42
0.0000001000
43
0.0000001000
44
0.0000000001
12
2.4175738040
22
0.0000000000
32
0.0000000000
13
-2.4175738040
23
0.0000000000
33
0.0000000000
40
0.0000000000
40
0.0000000000
40
0.0000000000
40
0.0000000000
40
0.0779023628
40
0.1811199421
40
0.3032121319
40
0.4366063499
40
0.5733343968
40
0.7039818620
40
0.8244037156
40
0.9241716029
40
1.0000000000
40
1.0000000000
40
1.0000000000
40
1.0000000000
10
-12.4638297607
20
69.4749489811
30
0.0000000000
10
-12.4010515235
20
69.4749489811
30
0.0000000000
10
-12.2578054434
20
69.4088797735
30
0.0000000000
10
-12.1059005797
20
69.2128589693
30
0.0000000000
10
-11.9905792424
20
68.9451237325
30
0.0000000000
10
-11.9292192829
20
68.6329124109
30
0.0000000000
10
-11.9268228318
20
68.3081745448
30
0.0000000000
10
-11.9824052961
20
67.9985950347
30
0.0000000000
10
-12.0903569570
20
67.7347297425
30
0.0000000000
10
-12.2349023617
20
67.5404561870
30
0.0000000000
10
-12.3736953106
20
67.4749489811
30
0.0000000000
10
-12.4348022260
20
67.4749489811
30
0.0000000000
11
-12.4638297607
21
69.4749489811
31
0.0000000000
11
-12.2875408566
21
69.4086754129
31
0.0000000000
11
-12.1238437935
21
69.2203365038
31
0.0000000000
11
-12.0038426916
21
68.9506640683
31
0.0000000000
11
-11.9396525854
21
68.6346266226
31
0.0000000000
11
-11.9372259168
21
68.3040853856
31
0.0000000000
11
-11.9950454004
21
67.9935728095
31
0.0000000000
11
-12.1086063400
21
67.7255059451
31
0.0000000000
11
-12.2637170366
21
67.5407999798
31
0.0000000000
11
-12.4348022260
21
67.4749489811
31
0.0000000000
0
SPLINE
5
2E1
100
AcDbEntity
8
0
100
AcDbSpline
62
7
6
CONTINUOUS
70
0
71
3
72
16
73
12
74
10
42
0.0000001000
43
0.0000001000
44
0.0000000001
12
2.4542081012
22
0.0000000000
32
0.0000000000
13
-2.4542081012
23
0.0000000000
33
0.0000000000
40
0.0000000000
40
0.0000000000
40
0.0000000000
40
0.0000000000
40
0.0812011639
40
0.1858871958
40
0.3083780874
40
0.4392193092
40
0.5725193332
40
0.7023920076
40
0.8215808219
40
0.9214734293
40
1.0000000000
40
1.0000000000
40
1.0000000000
40
1.0000000000
10
-12.4579952927
20
73.4749489811
30
0.0000000000
10
-12.3915671079
20
73.4749489811
30
0.0000000000
10
-12.2414406675
20
73.4099634961
30
0.0000000000
10
-12.0791757732
20
73.2113404564
30
0.0000000000
10
-11.9586244936
20
72.9414515500
30
0.0000000000
10
-11.8955513133
20
72.6291962904
30
0.0000000000
10
-11.8940518425
20
72.3049330658
30
0.0000000000
10
-11.9535115879
20
71.9955400947
30
0.0000000000
10
-12.0683990111
20
71.7313778911
30
0.0000000000
10
-12.2229092875
20
71.5379755296
30
0.0000000000
10
-12.3670838241
20
71.4749489811
30
0.0000000000
10
-12.4313240061
20
71.4749489811
30
0.0000000000
11
-12.4579952927
21
73.4749489811
31
0.0000000000
11
-12.2703902936
21
73.4077277208
31
0.0000000000
11
-12.0976846277
21
73.2175138639
31
0.0000000000
11
-11.9717169758
21
72.9445607255
31
0.0000000000
11
-11.9062788174
21
72.6301875421
31
0.0000000000
11
-11.9047952448
21
72.3030449073
31
0.0000000000
11
-11.9669381182
21
71.9904269467
31
0.0000000000
11
-12.0870683293
21
71.7237187497
31
0.0000000000
11
-12.2501590035
21
71.5406791160
31
0.0000000000
11
-12.4313240061
21
71.4749489811
31
0.0000000000
0
SPLINE
5
2E2
100
AcDbEntity
8
0
100
AcDbSpline
62
7
6
CONTINUOUS
70
0
71
3
72
9
73
5
74
3
42
0.0000001000
43
0.0000001000
44
0.0000000001
12
-1.2273305061
22
0.0000000000
32
0.0000000000
13
-1.2221117494
23
-0.1195434403
33
0.0000000000
40
0.0000000000
40
0.0000000000
40
0.0000000000
40
0.0000000000
40
0.9607462459
40
1.0000000000
40
1.0000000000
40
1.0000000000
40
1.0000000000
10
-4.5710581506
20
116.9749489811
30
0.0000000000
10
-4.9641092093
20
116.9749489811
30
0.0000000000
10
-5.3735138735
20
116.9569343738
30
0.0000000000
10
-5.7809649495
20
116.9179129309
30
0.0000000000
10
-5.7969557742
20
116.9163487546
30
0.0000000000
11
-4.5710581506
21
116.9749489811
31
0.0000000000
11
-5.7489739706
21
116.9209440386
31
0.0000000000
11
-5.7969557742
21
116.9163487546
31
0.0000000000
0
SPLINE
5
2E3
100
AcDbEntity
8
0
100
AcDbSpline
62
7
6
CONTINUOUS
70
0
71
3
72
11
73
7
74
5
42
0.0000001000
43
0.0000001000
44
0.0000000001
12
-4.8891406300
22
-0.4782416102
32
0.0000000000
13
-4.1771416559
23
-2.5806531002
33
0.0000000000
40
0.0000000000
40
0.0000000000
40
0.0000000000
40
0.0000000000
40
0.2421244618
40
0.4985861017
40
0.7540022310
40
1.0000000000
40
1.0000000000
40
1.0000000000
40
1.0000000000
10
-5.7969557742
20
116.9163487546
30
0.0000000000
10
-6.1915492888
20
116.8777507571
30
0.0000000000
10
-7.0001399581
20
116.7575953299
30
0.0000000000
10
-8.1962185441
20
116.4425162238
30
0.0000000000
10
-9.3528367469
20
115.9866276741
30
0.0000000000
10
-10.0772665747
20
115.5963340511
30
0.0000000000
10
-10.4197890841
20
115.3847224160
30
0.0000000000
11
-5.7969557742
21
116.9163487546
31
0.0000000000
11
-6.9727188579
21
116.7402523719
31
0.0000000000
11
-8.1901450832
21
116.4184804467
31
0.0000000000
11
-9.3566251741
21
115.9579526340
31
0.0000000000
11
-10.4197890841
21
115.3847224160
31
0.0000000000
0
SPLINE
5
2E4
100
AcDbEntity
8
0
100
AcDbSpline
62
7
6
CONTINUOUS
70
0
71
3
72
8
73
4
74
2
42
0.0000001000
43
0.0000001000
44
0.0000000001
12
0.0144661597
22
-0.3470134191
32
0.0000000000
13
-0.0405783480
23
-0.3462571676
33
0.0000000000
40
0.0000000000
40
0.0000000000
40
0.0000000000
40
0.0000000000
40
1.0000000000
40
1.0000000000
40
1.0000000000
40
1.0000000000
10
-13.1805431694
20
90.0749489811
30
0.0000000000
10
-13.1757211162
20
89.9592778414
30
0.0000000000
10
-13.1793724096
20
89.8432730529
30
0.0000000000
10
-13.1928985256
20
89.7278539970
30
0.0000000000
11
-13.1805431694
21
90.0749489811
31
0.0000000000
11
-13.1928985256
21
89.7278539970
31
0.0000000000
0
SPLINE
5
2E5
100
AcDbEntity
8
0
100
AcDbSpline
62
7
6
CONTINUOUS
70
0
71
3
72
8
73
4
74
2
42
0.0000001000
43
0.0000001000
44
0.0000000001
12
-0.0252525688
22
-0.2154814917
32
0.0000000000
13
-0.0515287484
23
-0.2099589774
33
0.0000000000
40
0.0000000000
40
0.0000000000
40
0.0000000000
40
0.0000000000
40
1.0000000000
40
1.0000000000
40
1.0000000000
40
1.0000000000
10
-13.1928985256
20
89.7278539970
30
0.0000000000
10
-13.2013160486
20
89.6560268331
30
0.0000000000
10
-13.2135578693
20
89.5844265104
30
0.0000000000
10
-13.2307341188
20
89.5144401846
30
0.0000000000
11
-13.1928985256
21
89.7278539970
31
0.0000000000
11
-13.2307341188
21
89.5144401846
31
0.0000000000
0
SPLINE
5
2E6
100
AcDbEntity
8
0
100
AcDbSpline
62
7
6
CONTINUOUS
70
0
71
3
72
11
73
7
74
5
42
0.0000001000
43
0.0000001000
44
0.0000000001
12
-0.1314889824
22
-0.5357648522
32
0.0000000000
13
-0.5656044422
23
-0.0442369998
33
0.0000000000
40
0.0000000000
40
0.0000000000
40
0.0000000000
40
0.0000000000
40
0.1789525205
40
0.6184968464
40
0.9206518900
40
1.0000000000
40
1.0000000000
40
1.0000000000
40
1.0000000000
10
-13.2307341188
20
89.5144401846
30
0.0000000000
10
-13.2385775470
20
89.4824813610
30
0.0000000000
10
-13.2692422995
20
89.3731882790
30
0.0000000000
10
-13.3350630511
20
89.2188350690
30
0.0000000000
10
-13.4407967495
20
89.0942472024
30
0.0000000000
10
-13.5114444465
20
89.0798210408
30
0.0000000000
10
-13.5264043277
20
89.0786510000
30
0.0000000000
11
-13.2307341188
21
89.5144401846
31
0.0000000000
11
-13.2574569457
21
89.4197054695
31
0.0000000000
11
-13.3598073152
21
89.1999461402
31
0.0000000000
11
-13.4829875402
21
89.0877021962
31
0.0000000000
11
-13.5264043277
21
89.0786510000
31
0.0000000000
0
SPLINE
5
2E7
100
AcDbEntity
8
0
100
AcDbSpline
62
7
6
CONTINUOUS
70
0
71
3
72
8
73
4
74
2
42
0.0000001000
43
0.0000001000
44
0.0000000001
12
-0.0162455508
22
-0.0012705954
32
0.0000000000
13
-0.0163600740
23
0.0001613648
33
0.0000000000
40
0.0000000000
40
0.0000000000
40
0.0000000000
40
0.0000000000
40
1.0000000000
40
1.0000000000
40
1.0000000000
40
1.0000000000
10
-13.5264043277
20
89.0786510000
30
0.0000000000
10
-13.5318195113
20
89.0782274682
30
0.0000000000
10
-13.5372695490
20
89.0780437771
30
0.0000000000
10
-13.5427229070
20
89.0780975654
30
0.0000000000
11
-13.5264043277
21
89.0786510000
31
0.0000000000
11
-13.5427229070
21
89.0780975654
31
0.0000000000
0
SPLINE
5
2E8
100
AcDbEntity
8
0
100
AcDbSpline
62
7
6
CONTINUOUS
70
0
71
3
72
10
73
6
74
4
42
0.0000001000
43
0.0000001000
44
0.0000000001
12
0.5711193618
22
13.6999982241
32
0.0000000000
13
0.5710357569
23
13.7000017092
33
0.0000000000
40
0.0000000000
40
0.0000000000
40
0.0000000000
40
0.0000000000
40
0.3324896867
40
0.6658255404
40
1.0000000000
40
1.0000000000
40
1.0000000000
40
1.0000000000
10
15.3867650086
20
90.0749489811
30
0.0000000000
10
15.4500621079
20
91.5933183535
30
0.0000000000
10
15.5768141281
20
94.6339213965
30
0.0000000000
10
15.7671728944
20
99.2005880696
30
0.0000000000
10
15.8942332474
20
102.2488854250
30
0.0000000000
10
15.9578417693
20
103.7749489811
30
0.0000000000
11
15.3867650086
21
90.0749489811
31
0.0000000000
11
15.5766514759
21
94.6300572997
31
0.0000000000
11
15.7670117405
21
99.1967584989
31
0.0000000000
11
15.9578417693
21
103.7749489811
31
0.0000000000
0
SPLINE
5
2E9
100
AcDbEntity
8
0
100
AcDbSpline
62
7
6
CONTINUOUS
70
0
71
3
72
10
73
6
74
4
42
0.0000001000
43
0.0000001000
44
0.0000000001
12
0.6109335361
22
13.6999979684
32
0.0000000000
13
0.6108441252
23
13.7000019553
33
0.0000000000
40
0.0000000000
40
0.0000000000
40
0.0000000000
40
0.0000000000
40
0.3324896908
40
0.6658255444
40
1.0000000000
40
1.0000000000
40
1.0000000000
40
1.0000000000
10
16.6555926601
20
90.0749489811
30
0.0000000000
10
16.7233023609
20
91.5933183438
30
0.0000000000
10
16.8588905866
20
94.6339213681
30
0.0000000000
10
17.0625197474
20
99.2005880422
30
0.0000000000
10
17.1984378022
20
102.2488854161
30
0.0000000000
10
17.2664806365
20
103.7749489811
30
0.0000000000
11
16.6555926601
21
90.0749489811
31
0.0000000000
11
16.8587165967
21
94.6300572997
31
0.0000000000
11
17.0623473604
21
99.1967584989
31
0.0000000000
11
17.2664806365
21
103.7749489811
31
0.0000000000
0
SPLINE
5
2EA
100
AcDbEntity
8
0
100
AcDbSpline
62
7
6
CONTINUOUS
70
0
71
3
72
10
73
6
74
4
42
0.0000001000
43
0.0000001000
44
0.0000000001
12
0.6108443996
22
-13.7000019553
32
0.0000000000
13
0.6109338105
23
-13.6999979684
33
0.0000000000
40
0.0000000000
40
0.0000000000
40
0.0000000000
40
0.0000000000
40
0.3341661714
40
0.6675020133
40
1.0000000000
40
1.0000000000
40
1.0000000000
40
1.0000000000
10
-15.0602456685
20
103.7749489811
30
0.0000000000
10
-14.9922044904
20
102.2489232472
30
0.0000000000
10
-14.8562880639
20
99.2006637579
30
0.0000000000
10
-14.6526588119
20
94.6339970839
30
0.0000000000
10
-14.5170688384
20
91.5933562284
30
0.0000000000
10
-14.4493574177
20
90.0749489811
30
0.0000000000
11
-15.0602456685
21
103.7749489811
31
0.0000000000
11
-14.8561173613
21
99.1968719923
31
0.0000000000
11
-14.6524865135
21
94.6301709535
31
0.0000000000
11
-14.4493574177
21
90.0749489811
31
0.0000000000
0
SPLINE
5
2EB
100
AcDbEntity
8
0
100
AcDbSpline
62
7
6
CONTINUOUS
70
0
71
3
72
10
73
6
74
4
42
0.0000001000
43
0.0000001000
44
0.0000000001
12
0.5710365622
22
-13.7000017092
32
0.0000000000
13
0.5711201673
23
-13.6999982241
33
0.0000000000
40
0.0000000000
40
0.0000000000
40
0.0000000000
40
0.0000000000
40
0.3341642224
40
0.6675000624
40
1.0000000000
40
1.0000000000
40
1.0000000000
40
1.0000000000
10
-13.7516207354
20
103.7749489811
30
0.0000000000
10
-13.6880140725
20
102.2489321750
30
0.0000000000
10
-13.5609554916
20
99.2006816318
30
0.0000000000
10
-13.3705964572
20
94.6340149587
30
0.0000000000
10
-13.2438423094
20
91.5933651658
30
0.0000000000
10
-13.1805431694
20
90.0749489811
30
0.0000000000
11
-13.7516207354
21
103.7749489811
31
0.0000000000
11
-13.5607962837
21
99.1968987488
31
0.0000000000
11
-13.3704357586
21
94.6301977365
31
0.0000000000
11
-13.1805431694
21
90.0749489811
31
0.0000000000
0
SPLINE
5
2EC
100
AcDbEntity
8
0
100
AcDbSpline
62
7
6
CONTINUOUS
70
0
71
3
72
12
73
8
74
6
42
0.0000001000
43
0.0000001000
44
0.0000000001
12
0.0453730542
22
-1.0174764254
32
0.0000000000
13
-1.0641830540
23
0.0809728453
33
0.0000000000
40
0.0000000000
40
0.0000000000
40
0.0000000000
40
0.0000000000
40
0.3408145135
40
0.6439590684
40
0.8625107365
40
0.9805410564
40
1.0000000000
40
1.0000000000
40
1.0000000000
40
1.0000000000
10
-14.4493574177
20
90.0749489811
30
0.0000000000
10
-14.4442028193
20
89.9593587368
30
0.0000000000
10
-14.4435308193
20
89.7442180946
30
0.0000000000
10
-14.4526977603
20
89.4379915631
30
0.0000000000
10
-14.5003394451
20
89.2535273827
30
0.0000000000
10
-14.5078287855
20
89.0891545682
30
0.0000000000
10
-14.5560124789
20
89.0854585903
30
0.0000000000
10
-14.5629151049
20
89.0859838056
30
0.0000000000
11
-14.4493574177
21
90.0749489811
31
0.0000000000
11
-14.4455968084
21
89.7278539970
31
0.0000000000
11
-14.4648428864
21
89.4197054695
31
0.0000000000
11
-14.5002421595
21
89.1999461402
31
0.0000000000
11
-14.5432807734
21
89.0877021962
31
0.0000000000
11
-14.5629151049
21
89.0859838056
31
0.0000000000
0
SPLINE
5
2ED
100
AcDbEntity
8
0
100
AcDbSpline
62
7
6
CONTINUOUS
70
0
71
3
72
12
73
8
74
6
42
0.0000001000
43
0.0000001000
44
0.0000000001
12
0.0459049630
22
1.0295557513
32
0.0000000000
13
1.0805025502
23
-0.0856008231
33
0.0000000000
40
0.0000000000
40
0.0000000000
40
0.0000000000
40
0.0000000000
40
0.3372964096
40
0.6395448359
40
0.8594146929
40
0.9800224649
40
1.0000000000
40
1.0000000000
40
1.0000000000
40
1.0000000000
10
17.2664806365
20
103.7749489811
30
0.0000000000
10
17.2716418296
20
103.8907041339
30
0.0000000000
10
17.2903536575
20
104.1065112624
30
0.0000000000
10
17.3255782373
20
104.4118385195
30
0.0000000000
10
17.3914809970
20
104.5977243088
30
0.0000000000
10
17.4095926737
20
104.7604990553
30
0.0000000000
10
17.4606036296
20
104.7643197499
30
0.0000000000
10
17.4677988888
20
104.7637497187
30
0.0000000000
11
17.2664806365
21
103.7749489811
31
0.0000000000
11
17.2934655101
21
104.1215104568
31
0.0000000000
11
17.3397238889
21
104.4295472426
31
0.0000000000
11
17.3942346164
21
104.6494859793
31
0.0000000000
11
17.4469934808
21
104.7620290653
31
0.0000000000
11
17.4677988888
21
104.7637497187
31
0.0000000000
0
SPLINE
5
2EE
100
AcDbEntity
8
0
100
AcDbSpline
62
7
6
CONTINUOUS
70
0
71
3
72
8
73
4
74
2
42
0.0000001000
43
0.0000001000
44
0.0000000001
12
0.0145335272
22
0.3486810500
32
0.0000000000
13
0.0683205971
23
0.3434907008
33
0.0000000000
40
0.0000000000
40
0.0000000000
40
0.0000000000
40
0.0000000000
40
1.0000000000
40
1.0000000000
40
1.0000000000
40
1.0000000000
10
15.9578417693
20
103.7749489811
30
0.0000000000
10
15.9626862783
20
103.8911759977
30
0.0000000000
10
15.9761150588
20
104.0070135565
30
0.0000000000
10
15.9988885912
20
104.1215104568
30
0.0000000000
11
15.9578417693
21
103.7749489811
31
0.0000000000
11
15.9988885912
21
104.1215104568
31
0.0000000000
0
SPLINE
5
2EF
100
AcDbEntity
8
0
100
AcDbSpline
62
7
6
CONTINUOUS
70
0
71
3
72
8
73
4
74
2
42
0.0000001000
43
0.0000001000
44
0.0000000001
12
0.0430296367
22
0.2163371032
32
0.0000000000
13
0.0683700161
23
0.2089502396
33
0.0000000000
40
0.0000000000
40
0.0000000000
40
0.0000000000
40
0.0000000000
40
1.0000000000
40
1.0000000000
40
1.0000000000
40
1.0000000000
10
15.9988885912
20
104.1215104568
30
0.0000000000
10
16.0132318035
20
104.1936228245
30
0.0000000000
10
16.0312818214
20
104.2652033900
30
0.0000000000
10
16.0540718268
20
104.3348534698
30
0.0000000000
11
15.9988885912
21
104.1215104568
31
0.0000000000
11
16.0540718268
21
104.3348534698
31
0.0000000000
0
SPLINE
5
2F0
100
AcDbEntity
8
0
100
AcDbSpline
62
7
6
CONTINUOUS
70
0
71
3
72
11
73
7
74
5
42
0.0000001000
43
0.0000001000
44
0.0000000001
12
0.1771609608
22
0.5414336185
32
0.0000000000
13
0.5872513214
23
0.0478967571
33
0.0000000000
40
0.0000000000
40
0.0000000000
40
0.0000000000
40
0.0000000000
40
0.1774058577
40
0.6174364606
40
0.9222986900
40
1.0000000000
40
1.0000000000
40
1.0000000000
40
1.0000000000
10
16.0540718268
20
104.3348534698
30
0.0000000000
10
16.0645482909
20
104.3668713017
30
0.0000000000
10
16.1044962879
20
104.4768851066
30
0.0000000000
10
16.1841084529
20
104.6313789878
30
0.0000000000
10
16.2961739311
20
104.7548200848
30
0.0000000000
10
16.3700996725
20
104.7699014196
30
0.0000000000
10
16.3853097381
20
104.7711419665
30
0.0000000000
11
16.0540718268
21
104.3348534698
31
0.0000000000
11
16.0886065476
21
104.4295472426
31
0.0000000000
11
16.2087509461
21
104.6494859793
31
0.0000000000
11
16.3409696222
21
104.7620290653
31
0.0000000000
11
16.3853097381
21
104.7711419665
31
0.0000000000
0
SPLINE
5
2F1
100
AcDbEntity
8
0
100
AcDbSpline
62
7
6
CONTINUOUS
70
0
71
3
72
8
73
4
74
2
42
0.0000001000
43
0.0000001000
44
0.0000000001
12
0.0167619116
22
0.0013671169
32
0.0000000000
13
0.0168152352
23
-0.0001198917
33
0.0000000000
40
0.0000000000
40
0.0000000000
40
0.0000000000
40
0.0000000000
40
1.0000000000
40
1.0000000000
40
1.0000000000
40
1.0000000000
10
16.3853097381
20
104.7711419665
30
0.0000000000
10
16.3908970420
20
104.7715976722
30
0.0000000000
10
16.3965106909
20
104.7718074383
30
0.0000000000
10
16.4021157693
20
104.7717674744
30
0.0000000000
11
16.3853097381
21
104.7711419665
31
0.0000000000
11
16.4021157693
21
104.7717674744
31
0.0000000000
0
SPLINE
5
2F2
100
AcDbEntity
8
0
100
AcDbSpline
62
7
6
CONTINUOUS
70
0
71
3
72
12
73
8
74
6
42
0.0000001000
43
0.0000001000
44
0.0000000001
12
-1.1676035377
22
0.0115164563
32
0.0000000000
13
-0.0470907918
23
1.1296112466
33
0.0000000000
40
0.0000000000
40
0.0000000000
40
0.0000000000
40
0.0000000000
40
0.0617107172
40
0.2122135378
40
0.4280781351
40
0.6997962101
40
1.0000000000
40
1.0000000000
40
1.0000000000
40
1.0000000000
10
-13.5427229070
20
89.0780975654
30
0.0000000000
10
-13.5667407909
20
89.0783344617
30
0.0000000000
10
-13.6495560227
20
89.0949900081
30
0.0000000000
10
-13.7538838854
20
89.2336612571
30
0.0000000000
10
-13.8426510492
20
89.4543448303
30
0.0000000000
10
-13.9048984039
20
89.7472698812
30
0.0000000000
10
-13.9250376052
20
89.9619111220
30
0.0000000000
10
-13.9297498832
20
90.0749489811
30
0.0000000000
11
-13.5427229070
21
89.0780975654
31
0.0000000000
11
-13.6122758093
21
89.0924258975
31
0.0000000000
11
-13.7314875682
21
89.2138428536
31
0.0000000000
11
-13.8291374013
21
89.4375106613
31
0.0000000000
11
-13.8969930488
21
89.7371252723
31
0.0000000000
11
-13.9297498832
21
90.0749489811
31
0.0000000000
0
SPLINE
5
2F3
100
AcDbEntity
8
0
100
AcDbSpline
62
7
6
CONTINUOUS
70
0
71
3
72
10
73
6
74
4
42
0.0000001000
43
0.0000001000
44
0.0000000001
12
-0.6109338105
22
13.6999979684
32
0.0000000000
13
-0.6108443996
23
13.7000019553
33
0.0000000000
40
0.0000000000
40
0.0000000000
40
0.0000000000
40
0.0000000000
40
0.3324905269
40
0.6658263797
40
1.0000000000
40
1.0000000000
40
1.0000000000
40
1.0000000000
10
-14.7046360973
20
90.0749489811
30
0.0000000000
10
-14.7723459988
20
91.5933221621
30
0.0000000000
10
-14.9079344555
20
94.6339290010
30
0.0000000000
10
-15.1115637078
20
99.2005956750
30
0.0000000000
10
-15.2474816533
20
102.2488892307
30
0.0000000000
10
-15.3155243481
20
103.7749489811
30
0.0000000000
11
-14.7046360973
21
90.0749489811
31
0.0000000000
11
-14.9077606359
21
94.6300687544
31
0.0000000000
11
-15.1113914905
21
99.1967699427
31
0.0000000000
11
-15.3155243481
21
103.7749489811
31
0.0000000000
0
SPLINE
5
2F4
100
AcDbEntity
8
0
100
AcDbSpline
62
7
6
CONTINUOUS
70
0
71
3
72
10
73
6
74
4
42
0.0000001000
43
0.0000001000
44
0.0000000001
12
-0.5711201673
22
13.6999982241
32
0.0000000000
13
-0.5710365622
23
13.7000017092
33
0.0000000000
40
0.0000000000
40
0.0000000000
40
0.0000000000
40
0.0000000000
40
0.3324924951
40
0.6658283461
40
1.0000000000
40
1.0000000000
40
1.0000000000
40
1.0000000000
10
-13.9297498832
20
90.0749489811
30
0.0000000000
10
-13.9930476064
20
91.5933311788
30
0.0000000000
10
-14.1198003395
20
94.6339470347
30
0.0000000000
10
-14.3101593742
20
99.2006137078
30
0.0000000000
10
-14.4372193718
20
102.2488982380
30
0.0000000000
10
-14.5008274493
20
103.7749489811
30
0.0000000000
11
-13.9297498832
21
90.0749489811
31
0.0000000000
11
-14.1196382222
21
94.6300957755
31
0.0000000000
11
-14.3099987537
21
99.1967969378
31
0.0000000000
11
-14.5008274493
21
103.7749489811
31
0.0000000000
0
SPLINE
5
2F5
100
AcDbEntity
8
0
100
AcDbSpline
62
7
6
CONTINUOUS
70
0
71
3
72
12
73
8
74
6
42
0.0000001000
43
0.0000001000
44
0.0000000001
12
-0.0462550262
22
1.1097256822
32
0.0000000000
13
1.1454144593
23
-0.0127462570
33
0.0000000000
40
0.0000000000
40
0.0000000000
40
0.0000000000
40
0.0000000000
40
0.3121168101
40
0.5921412089
40
0.8035080946
40
0.9462515321
40
1.0000000000
40
1.0000000000
40
1.0000000000
40
1.0000000000
10
-14.5008274493
20
103.7749489811
30
0.0000000000
10
-14.5056397730
20
103.8904036611
30
0.0000000000
10
-14.5033499821
20
104.1096757620
30
0.0000000000
10
-14.4622110372
20
104.4072773210
30
0.0000000000
10
-14.3907396083
20
104.6277648701
30
0.0000000000
10
-14.2905969752
20
104.7605303188
30
0.0000000000
10
-14.2164982852
20
104.7721704763
30
0.0000000000
10
-14.1959768611
20
104.7719421123
30
0.0000000000
11
-14.5008274493
21
103.7749489811
31
0.0000000000
11
-14.4954389618
21
104.1215718865
31
0.0000000000
11
-14.4488807281
21
104.4290874593
31
0.0000000000
11
-14.3662474612
21
104.6488267952
31
0.0000000000
11
-14.2551017785
21
104.7618874469
31
0.0000000000
11
-14.1959768611
21
104.7719421123
31
0.0000000000
0
SPLINE
5
2F6
100
AcDbEntity
8
0
100
AcDbSpline
62
7
6
CONTINUOUS
70
0
71
3
72
12
73
8
74
6
42
0.0000001000
43
0.0000001000
44
0.0000000001
12
-0.0450288171
22
1.0099051135
32
0.0000000000
13
1.0520607436
23
-0.0568578772
33
0.0000000000
40
0.0000000000
40
0.0000000000
40
0.0000000000
40
0.0000000000
40
0.3430604268
40
0.6472577409
40
0.8651051938
40
0.9808492143
40
1.0000000000
40
1.0000000000
40
1.0000000000
40
1.0000000000
10
-15.3155243481
20
103.7749489811
30
0.0000000000
10
-15.3206735499
20
103.8904351408
30
0.0000000000
10
-15.3257022641
20
104.1045722077
30
0.0000000000
10
-15.3356855278
20
104.4104895734
30
0.0000000000
10
-15.3063559350
20
104.5930728854
30
0.0000000000
10
-15.3154862865
20
104.7598216109
30
0.0000000000
10
-15.2697644964
20
104.7643733476
30
0.0000000000
10
-15.2630485664
20
104.7640103900
30
0.0000000000
11
-15.3155243481
21
103.7749489811
31
0.0000000000
11
-15.3266898223
21
104.1215718865
31
0.0000000000
11
-15.3264850675
21
104.4290874593
31
0.0000000000
11
-15.3118850061
21
104.6488267952
31
0.0000000000
11
-15.2817546897
21
104.7618874469
31
0.0000000000
11
-15.2630485664
21
104.7640103900
31
0.0000000000
0
SPLINE
5
2F7
100
AcDbEntity
8
0
100
AcDbSpline
62
7
6
CONTINUOUS
70
0
71
3
72
8
73
4
74
2
42
0.0000001000
43
0.0000001000
44
0.0000000001
12
-0.0558067056
22
-0.1430119337
32
0.0000000000
13
-0.0340250488
23
-0.1480285236
33
0.0000000000
40
0.0000000000
40
0.0000000000
40
0.0000000000
40
0.0000000000
40
1.0000000000
40
1.0000000000
40
1.0000000000
40
1.0000000000
10
-13.9444910285
20
104.5585462860
30
0.0000000000
10
-13.9630932637
20
104.5108756414
30
0.0000000000
10
-13.9767936549
20
104.4623855392
30
0.0000000000
10
-13.9881353379
20
104.4130426980
30
0.0000000000
11
-13.9444910285
21
104.5585462860
31
0.0000000000
11
-13.9881353379
21
104.4130426980
31
0.0000000000
0
SPLINE
5
2F8
100
AcDbEntity
8
0
100
AcDbSpline
62
7
6
CONTINUOUS
70
0
71
3
72
8
73
4
74
2
42
0.0000001000
43
0.0000001000
44
0.0000000001
12
-0.0437964145
22
-0.1905395819
32
0.0000000000
13
-0.0231984934
23
-0.1962242160
33
0.0000000000
40
0.0000000000
40
0.0000000000
40
0.0000000000
40
0.0000000000
40
1.0000000000
40
1.0000000000
40
1.0000000000
40
1.0000000000
10
-13.9881353379
20
104.4130426980
30
0.0000000000
10
-14.0027341427
20
104.3495295040
30
0.0000000000
10
-14.0134249540
20
104.2846034612
30
0.0000000000
10
-14.0211577852
20
104.2191953892
30
0.0000000000
11
-13.9881353379
21
104.4130426980
31
0.0000000000
11
-14.0211577852
21
104.2191953892
31
0.0000000000
0
SPLINE
5
2F9
100
AcDbEntity
8
0
100
AcDbSpline
62
7
6
CONTINUOUS
70
0
71
3
72
9
73
5
74
3
42
0.0000001000
43
0.0000001000
44
0.0000000001
12
-0.0523629024
22
-0.4429110680
32
0.0000000000
13
0.0185071351
23
-0.4439607797
33
0.0000000000
40
0.0000000000
40
0.0000000000
40
0.0000000000
40
0.0000000000
40
0.2393833844
40
1.0000000000
40
1.0000000000
40
1.0000000000
40
1.0000000000
10
-14.0211577852
20
104.2191953892
30
0.0000000000
10
-14.0253360548
20
104.1838535390
30
0.0000000000
10
-14.0391827660
20
104.0356286276
30
0.0000000000
10
-14.0405743981
20
103.8875102963
30
0.0000000000
10
-14.0358821200
20
103.7749489811
30
0.0000000000
11
-14.0211577852
21
104.2191953892
31
0.0000000000
11
-14.0312516690
21
104.1128944847
31
0.0000000000
11
-14.0358821200
21
103.7749489811
31
0.0000000000
0
SPLINE
5
2FA
100
AcDbEntity
8
0
100
AcDbSpline
62
7
6
CONTINUOUS
70
0
71
3
72
8
73
4
74
2
42
0.0000001000
43
0.0000001000
44
0.0000000001
12
-0.0052539200
22
-0.1178175505
32
0.0000000000
13
-0.0065330655
23
-0.1171091043
33
0.0000000000
40
0.0000000000
40
0.0000000000
40
0.0000000000
40
0.0000000000
40
1.0000000000
40
1.0000000000
40
1.0000000000
40
1.0000000000
10
16.9108782639
20
90.0749489811
30
0.0000000000
10
16.9091269573
20
90.0356764642
30
0.0000000000
10
16.9071062888
20
89.9966359970
30
0.0000000000
10
16.9049286003
20
89.9575996289
30
0.0000000000
11
16.9108782639
21
90.0749489811
31
0.0000000000
11
16.9049286003
21
89.9575996289
31
0.0000000000
0
SPLINE
5
2FB
100
AcDbEntity
8
0
100
AcDbSpline
62
7
6
CONTINUOUS
70
0
71
3
72
12
73
8
74
6
42
0.0000001000
43
0.0000001000
44
0.0000000001
12
-0.0498655652
22
-0.8938700583
32
0.0000000000
13
-0.9402774238
23
0.0645724360
33
0.0000000000
40
0.0000000000
40
0.0000000000
40
0.0000000000
40
0.0000000000
40
0.2552328094
40
0.5982750807
40
0.8450582272
40
0.9779864438
40
1.0000000000
40
1.0000000000
40
1.0000000000
40
1.0000000000
10
16.9049286003
20
89.9575996289
30
0.0000000000
10
16.9006861575
20
89.8815513068
30
0.0000000000
10
16.8893448327
20
89.7033277129
30
0.0000000000
10
16.8751467126
20
89.4386289673
30
0.0000000000
10
16.8284296799
20
89.2547945117
30
0.0000000000
10
16.8253901299
20
89.0895540553
30
0.0000000000
10
16.7776608149
20
89.0855080779
30
0.0000000000
10
16.7707611983
20
89.0859819009
30
0.0000000000
11
16.9049286003
21
89.9575996289
31
0.0000000000
11
16.8912440988
21
89.7278159407
31
0.0000000000
11
16.8639854702
21
89.4202246335
31
0.0000000000
11
16.8302240454
21
89.2006580358
31
0.0000000000
11
16.7902834409
21
89.0878625517
31
0.0000000000
11
16.7707611983
21
89.0859819009
31
0.0000000000
0
SPLINE
5
2FC
100
AcDbEntity
8
0
100
AcDbSpline
62
7
6
CONTINUOUS
70
0
71
3
72
10
73
6
74
4
42
0.0000001000
43
0.0000001000
44
0.0000000001
12
-2.0693742749
22
0.4263704956
32
0.0000000000
13
-2.0693742749
23
-0.4263704956
33
0.0000000000
40
0.0000000000
40
0.0000000000
40
0.0000000000
40
0.0000000000
40
0.3342474036
40
0.6657527418
40
1.0000000000
40
1.0000000000
40
1.0000000000
40
1.0000000000
10
2.1531228742
20
-63.1318059868
30
0.0000000000
10
1.9225618814
20
-63.0843015764
30
0.0000000000
10
1.4562026937
20
-63.0211261329
30
0.0000000000
10
0.7500428491
20
-63.0211261537
30
0.0000000000
10
0.2836837668
20
-63.0843015971
30
0.0000000000
10
0.0531228742
20
-63.1318059868
30
0.0000000000
11
2.1531228742
21
-63.1318059868
31
0.0000000000
11
1.4533319360
21
-63.0367901634
31
0.0000000000
11
0.7529135051
21
-63.0367901841
31
0.0000000000
11
0.0531228742
21
-63.1318059868
31
0.0000000000
0
SPLINE
5
2FD
100
AcDbEntity
8
0
100
AcDbSpline
62
7
6
CONTINUOUS
70
0
71
3
72
12
73
8
74
6
42
0.0000001000
43
0.0000001000
44
0.0000000001
12
-0.0471100085
22
-1.1300738085
32
0.0000000000
13
-1.1676281225
23
0.0119136586
33
0.0000000000
40
0.0000000000
40
0.0000000000
40
0.0000000000
40
0.0000000000
40
0.3083991842
40
0.5876868724
40
0.8012204872
40
0.9470593397
40
1.0000000000
40
1.0000000000
40
1.0000000000
40
1.0000000000
10
16.1359781955
20
90.0749489811
30
0.0000000000
10
16.1311352994
20
89.9587777009
30
0.0000000000
10
16.1102355670
20
89.7381492903
30
0.0000000000
10
16.0448529175
20
89.4403053151
30
0.0000000000
10
15.9537228113
20
89.2204947344
30
0.0000000000
10
15.8466293154
20
89.0898377852
30
0.0000000000
10
15.7696462574
20
89.0778676204
30
0.0000000000
10
15.7490412561
20
89.0780778593
30
0.0000000000
11
16.1359781955
21
90.0749489811
31
0.0000000000
11
16.1017490824
21
89.7278159407
31
0.0000000000
11
16.0298187559
21
89.4202246335
31
0.0000000000
11
15.9292125201
21
89.2006580358
31
0.0000000000
11
15.8088535611
21
89.0878625517
31
0.0000000000
11
15.7490412561
21
89.0780778593
31
0.0000000000
0
SPLINE
5
2FE
100
AcDbEntity
8
0
100
AcDbSpline
62
7
6
CONTINUOUS
70
0
71
3
72
8
73
4
74
2
42
0.0000001000
43
0.0000001000
44
0.0000000001
12
0.0048991287
22
-0.1175044295
32
0.0000000000
13
0.0092020451
23
-0.1172146204
33
0.0000000000
40
0.0000000000
40
0.0000000000
40
0.0000000000
40
0.0000000000
40
1.0000000000
40
1.0000000000
40
1.0000000000
40
1.0000000000
10
-13.4647330458
20
90.0749489811
30
0.0000000000
10
-13.4631000029
20
90.0357808379
30
0.0000000000
10
-13.4607753884
20
89.9966573165
30
0.0000000000
10
-13.4577080400
20
89.9575857764
30
0.0000000000
11
-13.4647330458
21
90.0749489811
31
0.0000000000
11
-13.4577080400
21
89.9575857764
31
0.0000000000
0
SPLINE
5
2FF
100
AcDbEntity
8
0
100
AcDbSpline
62
7
6
CONTINUOUS
70
0
71
3
72
8
73
4
74
2
42
0.0000001000
43
0.0000001000
44
0.0000000001
12
0.0180894815
22
-0.2304217914
32
0.0000000000
13
0.0364768528
23
-0.2290488064
33
0.0000000000
40
0.0000000000
40
0.0000000000
40
0.0000000000
40
0.0000000000
40
1.0000000000
40
1.0000000000
40
1.0000000000
40
1.0000000000
10
-13.4577080400
20
89.9575857764
30
0.0000000000
10
-13.4516782129
20
89.8807785126
30
0.0000000000
10
-13.4427781556
20
89.8041721259
30
0.0000000000
10
-13.4306192047
20
89.7278225237
30
0.0000000000
11
-13.4577080400
21
89.9575857764
31
0.0000000000
11
-13.4306192047
21
89.7278225237
31
0.0000000000
0
SPLINE
5
300
100
AcDbEntity
8
0
100
AcDbSpline
62
7
6
CONTINUOUS
70
0
71
3
72
8
73
4
74
2
42
0.0000001000
43
0.0000001000
44
0.0000000001
12
0.0342255810
22
-0.2149124137
32
0.0000000000
13
0.0548999820
23
-0.2097983393
33
0.0000000000
40
0.0000000000
40
0.0000000000
40
0.0000000000
40
0.0000000000
40
1.0000000000
40
1.0000000000
40
1.0000000000
40
1.0000000000
10
-13.4306192047
20
89.7278225237
30
0.0000000000
10
-13.4192106777
20
89.6561850525
30
0.0000000000
10
-13.4049331072
20
89.5847736477
30
0.0000000000
10
-13.3866331132
20
89.5148408679
30
0.0000000000
11
-13.4306192047
21
89.7278225237
31
0.0000000000
11
-13.3866331132
21
89.5148408679
31
0.0000000000
0
SPLINE
5
301
100
AcDbEntity
8
0
100
AcDbSpline
62
7
6
CONTINUOUS
70
0
71
3
72
9
73
5
74
3
42
0.0000001000
43
0.0000001000
44
0.0000000001
12
0.0600950130
22
-0.2296509664
32
0.0000000000
13
0.1010009415
23
-0.2148913266
33
0.0000000000
40
0.0000000000
40
0.0000000000
40
0.0000000000
40
0.0000000000
40
0.4164997798
40
1.0000000000
40
1.0000000000
40
1.0000000000
40
1.0000000000
10
-13.3866331132
20
89.5148408679
30
0.0000000000
10
-13.3782899266
20
89.4829576756
30
0.0000000000
10
-13.3562508505
20
89.4071452667
30
0.0000000000
10
-13.3287620058
20
89.3337888041
30
0.0000000000
10
-13.3091173153
20
89.2919924253
30
0.0000000000
11
-13.3866331132
21
89.5148408679
31
0.0000000000
11
-13.3589860033
21
89.4202320104
31
0.0000000000
11
-13.3091173153
21
89.2919924253
31
0.0000000000
0
SPLINE
5
302
100
AcDbEntity
8
0
100
AcDbSpline
62
7
6
CONTINUOUS
70
0
71
3
72
8
73
4
74
2
42
0.0000001000
43
0.0000001000
44
0.0000000001
12
0.0144378756
22
0.3463453159
32
0.0000000000
13
-0.0267691894
23
0.3467661449
33
0.0000000000
40
0.0000000000
40
0.0000000000
40
0.0000000000
40
0.0000000000
40
1.0000000000
40
1.0000000000
40
1.0000000000
40
1.0000000000
10
16.2421102825
20
103.7749489811
30
0.0000000000
10
16.2469229077
20
103.8903974197
30
0.0000000000
10
16.2457541829
20
104.0059661814
30
0.0000000000
10
16.2368311198
20
104.1215548964
30
0.0000000000
11
16.2421102825
21
103.7749489811
31
0.0000000000
11
16.2368311198
21
104.1215548964
31
0.0000000000
0
SPLINE
5
303
100
AcDbEntity
8
0
100
AcDbSpline
62
7
6
CONTINUOUS
70
0
71
3
72
8
73
4
74
2
42
0.0000001000
43
0.0000001000
44
0.0000000001
12
-0.0165225066
22
0.2140313565
32
0.0000000000
13
-0.0377112883
23
0.2105408394
33
0.0000000000
40
0.0000000000
40
0.0000000000
40
0.0000000000
40
0.0000000000
40
1.0000000000
40
1.0000000000
40
1.0000000000
40
1.0000000000
10
16.2368311198
20
104.1215548964
30
0.0000000000
10
16.2313236176
20
104.1928986819
30
0.0000000000
10
16.2228620087
20
104.2642500688
30
0.0000000000
10
16.2102915792
20
104.3344303486
30
0.0000000000
11
16.2368311198
21
104.1215548964
31
0.0000000000
11
16.2102915792
21
104.3344303486
31
0.0000000000
0
SPLINE
5
304
100
AcDbEntity
8
0
100
AcDbSpline
62
7
6
CONTINUOUS
70
0
71
3
72
9
73
5
74
3
42
0.0000001000
43
0.0000001000
44
0.0000000001
12
-0.0410404761
22
0.2291275815
32
0.0000000000
13
-0.0843678441
23
0.2170766442
33
0.0000000000
40
0.0000000000
40
0.0000000000
40
0.0000000000
40
0.0000000000
40
0.4166681745
40
1.0000000000
40
1.0000000000
40
1.0000000000
40
1.0000000000
10
16.2102915792
20
104.3344303486
30
0.0000000000
10
16.2045914925
20
104.3662537390
30
0.0000000000
10
16.1888836999
20
104.4420516778
30
0.0000000000
10
16.1676894663
20
104.5158295861
30
0.0000000000
10
16.1512846502
20
104.5580388245
30
0.0000000000
11
16.2102915792
21
104.3344303486
31
0.0000000000
11
16.1905491040
21
104.4290682143
31
0.0000000000
11
16.1512846502
21
104.5580388245
31
0.0000000000
0
SPLINE
5
305
100
AcDbEntity
8
0
100
AcDbSpline
62
7
6
CONTINUOUS
70
0
71
3
72
10
73
6
74
4
42
0.0000001000
43
0.0000001000
44
0.0000000001
12
-0.5711959435
22
13.6999980460
32
0.0000000000
13
-0.5711040179
23
13.7000018783
33
0.0000000000
40
0.0000000000
40
0.0000000000
40
0.0000000000
40
0.0000000000
40
0.3324683135
40
0.6658041287
40
1.0000000000
40
1.0000000000
40
1.0000000000
40
1.0000000000
10
-13.4647330458
20
90.0749489811
30
0.0000000000
10
-13.5280345632
20
91.5932207295
30
0.0000000000
10
-13.6547991722
20
94.6337259668
30
0.0000000000
10
-13.8451820220
20
99.2003926407
30
0.0000000000
10
-13.9722619184
20
102.2487876262
30
0.0000000000
10
-14.0358821200
20
103.7749489811
30
0.0000000000
11
-13.4647330458
21
90.0749489811
31
0.0000000000
11
-13.6546322798
21
94.6297644480
31
0.0000000000
11
-13.8450166142
21
99.1964651206
31
0.0000000000
11
-14.0358821200
21
103.7749489811
31
0.0000000000
0
SPLINE
5
306
100
AcDbEntity
8
0
100
AcDbSpline
62
7
6
CONTINUOUS
70
0
71
3
72
10
73
6
74
4
42
0.0000001000
43
0.0000001000
44
0.0000000001
12
-0.5711032124
22
-13.7000018783
32
0.0000000000
13
-0.5711951380
23
-13.6999980460
33
0.0000000000
40
0.0000000000
40
0.0000000000
40
0.0000000000
40
0.0000000000
40
0.3341882886
40
0.6675240930
40
1.0000000000
40
1.0000000000
40
1.0000000000
40
1.0000000000
10
16.2421102825
20
103.7749489811
30
0.0000000000
10
16.1784916141
20
102.2488222541
30
0.0000000000
10
16.0514133426
20
99.2004619458
30
0.0000000000
10
15.8610307616
20
94.6337952718
30
0.0000000000
10
15.7342648877
20
91.5932554066
30
0.0000000000
10
15.6709620139
20
90.0749489811
30
0.0000000000
11
16.2421102825
21
103.7749489811
31
0.0000000000
11
16.0512493767
21
99.1965690044
31
0.0000000000
11
15.8608653172
21
94.6298684793
31
0.0000000000
11
15.6709620139
21
90.0749489811
31
0.0000000000
0
SPLINE
5
307
100
AcDbEntity
8
0
100
AcDbSpline
62
7
6
CONTINUOUS
70
0
71
3
72
12
73
8
74
6
42
0.0000001000
43
0.0000001000
44
0.0000000001
12
-1.0629249634
22
0.0808771182
32
0.0000000000
13
-0.0453194136
23
1.0162735519
33
0.0000000000
40
0.0000000000
40
0.0000000000
40
0.0000000000
40
0.0000000000
40
0.0240159290
40
0.1495312732
40
0.3717633858
40
0.6673918435
40
1.0000000000
40
1.0000000000
40
1.0000000000
40
1.0000000000
10
-14.5629151049
20
89.0859838056
30
0.0000000000
10
-14.5714241484
20
89.0866312520
30
0.0000000000
10
-14.6251911225
20
89.1005811759
30
0.0000000000
10
-14.6222582999
20
89.2618820035
30
0.0000000000
10
-14.6707177042
20
89.4547467232
30
0.0000000000
10
-14.6856506697
20
89.7521934166
30
0.0000000000
10
-14.6996115618
20
89.9622753569
30
0.0000000000
10
-14.7046360973
20
90.0749489811
30
0.0000000000
11
-14.5629151049
21
89.0859838056
31
0.0000000000
11
-14.5872776228
21
89.0924258975
31
0.0000000000
11
-14.6267909555
21
89.2138428536
31
0.0000000000
11
-14.6596808312
21
89.4375106613
31
0.0000000000
11
-14.6856501635
21
89.7371252723
31
0.0000000000
11
-14.7046360973
21
90.0749489811
31
0.0000000000
0
SPLINE
5
308
100
AcDbEntity
8
0
100
AcDbSpline
62
9
6
CONTINUOUS
70
0
71
3
72
14
73
10
74
8
42
0.0000001000
43
0.0000001000
44
0.0000000001
12
-3.8577424852
22
0.3221081571
32
0.0000000000
13
0.0292002772
23
-3.8710564566
33
0.0000000000
40
0.0000000000
40
0.0000000000
40
0.0000000000
40
0.0000000000
40
0.2212706542
40
0.4314134617
40
0.6198927889
40
0.7772923315
40
0.8958915746
40
0.9702708733
40
1.0000000000
40
1.0000000000
40
1.0000000000
40
1.0000000000
10
-6.1260576626
20
-18.7538485861
30
0.0000000000
10
-6.4105927304
20
-18.7300908918
30
0.0000000000
10
-6.9660308716
20
-18.6887500413
30
0.0000000000
10
-7.7637362185
20
-18.6445539407
30
0.0000000000
10
-8.4841210136
20
-18.6215486815
30
0.0000000000
10
-9.0745057000
20
-18.6178580781
30
0.0000000000
10
-9.5486072671
20
-18.6390807540
30
0.0000000000
10
-9.7928358824
20
-18.6665318334
30
0.0000000000
10
-9.9706324501
20
-18.7154875435
30
0.0000000000
10
-9.9703430839
20
-18.7538485861
30
0.0000000000
11
-6.1260576626
21
-18.7538485861
31
0.0000000000
11
-6.9802851187
21
-18.6904676027
31
0.0000000000
11
-7.7925843569
21
-18.6463241773
31
0.0000000000
11
-8.5218682682
21
-18.6236961875
31
0.0000000000
11
-9.1311881186
21
-18.6237000619
31
0.0000000000
11
-9.5897475640
21
-18.6463285126
31
0.0000000000
11
-9.8742780045
21
-18.6904736665
31
0.0000000000
11
-9.9703430839
21
-18.7538485861
31
0.0000000000
0
SPLINE
5
309
100
AcDbEntity
8
0
100
AcDbSpline
62
9
6
CONTINUOUS
70
0
71
3
72
14
73
10
74
8
42
0.0000001000
43
0.0000001000
44
0.0000000001
12
0.0294784670
22
3.8710574159
32
0.0000000000
13
-3.8576957569
23
-0.3227041131
33
0.0000000000
40
0.0000000000
40
0.0000000000
40
0.0000000000
40
0.0000000000
40
0.0297295254
40
0.1041077743
40
0.2227054758
40
0.3801041050
40
0.5685838796
40
0.7787272524
40
1.0000000000
40
1.0000000000
40
1.0000000000
40
1.0000000000
10
12.1765888323
20
-18.7538485861
30
0.0000000000
10
12.1768809592
20
-18.7154870195
30
0.0000000000
10
11.9990866245
20
-18.6665199316
30
0.0000000000
10
11.7548583944
20
-18.6390811323
30
0.0000000000
10
11.2807621395
20
-18.6178501627
30
0.0000000000
10
10.6903792782
20
-18.6215579168
30
0.0000000000
10
9.9699933637
20
-18.6445513067
30
0.0000000000
10
9.1722857674
20
-18.6887796446
30
0.0000000000
10
8.6168377241
20
-18.7300467108
30
0.0000000000
10
8.3323034110
20
-18.7538485861
30
0.0000000000
11
12.1765888323
21
-18.7538485861
31
0.0000000000
11
12.0805257954
21
-18.6904676027
31
0.0000000000
11
11.7959989683
21
-18.6463241773
31
0.0000000000
11
11.3374451109
21
-18.6236961875
31
0.0000000000
11
10.7281283136
21
-18.6237000619
31
0.0000000000
11
9.9988421054
21
-18.6463285126
31
0.0000000000
11
9.1865401236
21
-18.6904736665
31
0.0000000000
11
8.3323034110
21
-18.7538485861
31
0.0000000000
0
SPLINE
5
30A
100
AcDbEntity
8
0
100
AcDbSpline
62
7
6
CONTINUOUS
70
0
71
3
72
12
73
8
74
6
42
0.0000001000
43
0.0000001000
44
0.0000000001
12
1.0589361795
22
-0.0838922671
32
0.0000000000
13
-0.0449887194
23
-1.0090062570
33
0.0000000000
40
0.0000000000
40
0.0000000000
40
0.0000000000
40
0.0000000000
40
0.0230043587
40
0.1462034913
40
0.3680690040
40
0.6652294114
40
1.0000000000
40
1.0000000000
40
1.0000000000
40
1.0000000000
10
17.4677988888
20
104.7637497187
30
0.0000000000
10
17.4759189381
20
104.7631064228
30
0.0000000000
10
17.5270923850
20
104.7500094797
30
0.0000000000
10
17.5114673458
20
104.5863278606
30
0.0000000000
10
17.5426009181
20
104.3956544782
30
0.0000000000
10
17.5315094515
20
104.0973014038
30
0.0000000000
10
17.5267865403
20
103.8875441873
30
0.0000000000
10
17.5217662403
20
103.7749489811
30
0.0000000000
11
17.4677988888
21
104.7637497187
31
0.0000000000
11
17.4906021109
21
104.7576995407
31
0.0000000000
11
17.5196554790
21
104.6367066743
31
0.0000000000
11
17.5331211449
21
104.4130255240
31
0.0000000000
11
17.5327689647
21
104.1128911283
31
0.0000000000
11
17.5217662403
21
103.7749489811
31
0.0000000000
0
SPLINE
5
30B
100
AcDbEntity
8
0
100
AcDbSpline
62
7
6
CONTINUOUS
70
0
71
3
72
12
73
8
74
6
42
0.0000001000
43
0.0000001000
44
0.0000000001
12
1.1484340850
22
-0.0081882725
32
0.0000000000
13
-0.0462372578
23
-1.1093009562
33
0.0000000000
40
0.0000000000
40
0.0000000000
40
0.0000000000
40
0.0000000000
40
0.0616458993
40
0.2086000861
40
0.4224549823
40
0.6955901957
40
1.0000000000
40
1.0000000000
40
1.0000000000
40
1.0000000000
10
16.4021157693
20
104.7717674744
30
0.0000000000
10
16.4257145199
20
104.7715992166
30
0.0000000000
10
16.5050549212
20
104.7560504126
30
0.0000000000
10
16.6017848846
20
104.6153478875
30
0.0000000000
10
16.6711328722
20
104.3944296058
30
0.0000000000
10
16.7096701383
20
104.1012623720
30
0.0000000000
10
16.7117466476
20
103.8875096768
30
0.0000000000
10
16.7070549561
20
103.7749489811
30
0.0000000000
11
16.4021157693
21
104.7717674744
31
0.0000000000
11
16.4698504539
21
104.7576995407
31
0.0000000000
11
16.5793093422
21
104.6367066743
31
0.0000000000
11
16.6589480539
21
104.4130255240
31
0.0000000000
11
16.7023215923
21
104.1128911283
31
0.0000000000
11
16.7070549561
21
103.7749489811
31
0.0000000000
0
SPLINE
5
30C
100
AcDbEntity
8
0
100
AcDbSpline
62
7
6
CONTINUOUS
70
0
71
3
72
8
73
4
74
2
42
0.0000001000
43
0.0000001000
44
0.0000000001
12
0.0672130546
22
0.1428457840
32
0.0000000000
13
0.0467989842
23
0.1492513815
33
0.0000000000
40
0.0000000000
40
0.0000000000
40
0.0000000000
40
0.0000000000
40
1.0000000000
40
1.0000000000
40
1.0000000000
40
1.0000000000
10
15.5147548060
20
89.2914347992
30
0.0000000000
10
15.5371591575
20
89.3390500605
30
0.0000000000
10
15.5551405488
20
89.3877717361
30
0.0000000000
10
15.5707402102
20
89.4375221966
30
0.0000000000
11
15.5147548060
21
89.2914347992
31
0.0000000000
11
15.5707402102
21
89.4375221966
31
0.0000000000
0
SPLINE
5
30D
100
AcDbEntity
8
0
100
AcDbSpline
62
7
6
CONTINUOUS
70
0
71
3
72
8
73
4
74
2
42
0.0000001000
43
0.0000001000
44
0.0000000001
12
0.0594081330
22
0.1894644953
32
0.0000000000
13
0.0392252553
23
0.1965386578
33
0.0000000000
40
0.0000000000
40
0.0000000000
40
0.0000000000
40
0.0000000000
40
1.0000000000
40
1.0000000000
40
1.0000000000
40
1.0000000000
10
15.5707402102
20
89.4375221966
30
0.0000000000
10
15.5905429212
20
89.5006770284
30
0.0000000000
10
15.6065075748
20
89.5654897037
30
0.0000000000
10
15.6195826599
20
89.6310025896
30
0.0000000000
11
15.5707402102
21
89.4375221966
31
0.0000000000
11
15.6195826599
21
89.6310025896
31
0.0000000000
0
SPLINE
5
30E
100
AcDbEntity
8
0
100
AcDbSpline
62
7
6
CONTINUOUS
70
0
71
3
72
9
73
5
74
3
42
0.0000001000
43
0.0000001000
44
0.0000000001
12
0.0877392612
22
0.4396187226
32
0.0000000000
13
0.0186116463
23
0.4463965124
33
0.0000000000
40
0.0000000000
40
0.0000000000
40
0.0000000000
40
0.0000000000
40
0.2403696026
40
1.0000000000
40
1.0000000000
40
1.0000000000
40
1.0000000000
10
15.6195826599
20
89.6310025896
30
0.0000000000
10
15.6266126104
20
89.6662262488
30
0.0000000000
10
15.6523839177
20
89.8136079249
30
0.0000000000
10
15.6662493564
20
89.9619168610
30
0.0000000000
10
15.6709620139
20
90.0749489811
30
0.0000000000
11
15.6195826599
21
89.6310025896
31
0.0000000000
11
15.6383139963
21
89.7371319734
31
0.0000000000
11
15.6709620139
21
90.0749489811
31
0.0000000000
0
SPLINE
5
30F
100
AcDbEntity
8
0
100
AcDbSpline
62
7
6
CONTINUOUS
70
0
71
3
72
10
73
6
74
4
42
0.0000001000
43
0.0000001000
44
0.0000000001
12
-0.5710357569
22
-13.7000017092
32
0.0000000000
13
-0.5711193618
23
-13.6999982241
33
0.0000000000
40
0.0000000000
40
0.0000000000
40
0.0000000000
40
0.0000000000
40
0.3341670034
40
0.6675028462
40
1.0000000000
40
1.0000000000
40
1.0000000000
40
1.0000000000
10
16.7070549561
20
103.7749489811
30
0.0000000000
10
16.6434478535
20
102.2489194753
30
0.0000000000
10
16.5163889219
20
99.2006562198
30
0.0000000000
10
16.3260301559
20
94.6339895467
30
0.0000000000
10
16.1992767162
20
91.5933524535
30
0.0000000000
10
16.1359781955
20
90.0749489811
30
0.0000000000
11
16.7070549561
21
103.7749489811
31
0.0000000000
11
16.5162291854
21
99.1968606497
31
0.0000000000
11
16.3258689271
21
94.6301595997
31
0.0000000000
11
16.1359781955
21
90.0749489811
31
0.0000000000
0
SPLINE
5
310
100
AcDbEntity
8
0
100
AcDbSpline
62
7
6
CONTINUOUS
70
0
71
3
72
10
73
6
74
4
42
0.0000001000
43
0.0000001000
44
0.0000000001
12
-0.6108441252
22
-13.7000019553
32
0.0000000000
13
-0.6109335361
23
-13.6999979684
33
0.0000000000
40
0.0000000000
40
0.0000000000
40
0.0000000000
40
0.0000000000
40
0.3341669993
40
0.6675028421
40
1.0000000000
40
1.0000000000
40
1.0000000000
40
1.0000000000
10
17.5217662403
20
103.7749489811
30
0.0000000000
10
17.4537249242
20
102.2489194664
30
0.0000000000
10
17.3178083900
20
99.2006561924
30
0.0000000000
10
17.1141792294
20
94.6339895184
30
0.0000000000
10
16.9785894854
20
91.5933524438
30
0.0000000000
10
16.9108782639
20
90.0749489811
30
0.0000000000
11
17.5217662403
21
103.7749489811
31
0.0000000000
11
17.3176375190
21
99.1968606497
31
0.0000000000
11
17.1140067622
21
94.6301595997
31
0.0000000000
11
16.9108782639
21
90.0749489811
31
0.0000000000
0
ENDSEC
0
SECTION
2
OBJECTS
0
DICTIONARY
5
311
100
AcDbDictionary
3
ACAD_GROUP
350
312
3
ACAD_MLINESTYLE
350
313
0
DICTIONARY
5
312
102
{ACAD_REACTORS
330
311
102
}
100
AcDbDictionary
0
DICTIONARY
5
313
102
{ACAD_REACTORS
330
311
102
}
100
AcDbDictionary
3
STANDARD
350
314
0
MLINESTYLE
5
314
102
{ACAD_REACTORS
330
313
102
}
100
AcDbMlineStyle
2
STANDARD
70
0
3

62
256
51
90.0
52
90.0
71
2
49
0.5
62
256
6
BYLAYER
49
-0.5
62
256
6
BYLAYER
0
ENDSEC
0
EOF
