  0
SECTION
  2
HEADER
  9
$ACADVER
  1
AC1021
  9
$DWGCODEPAGE
  3
ANSI_1252
  9
$EXTMAX
 10
297.0
 20
210.0
 30
0.0
  9
$EXTMIN
 10
0.0
 20
0.0
 30
0.0
  9
$LIMMIN
 10
0.0
 20
0.0
  9
$LIMMAX
 10
297.0
 20
210.0
  9
$VIEWCTR
 10
148.5
 20
105.0
  9
$VIEWSIZE
 40
210.0
  9
$CLAYER
  8
0
  9
$LTSCALE
 40
16.335
  9
$CELTYPE
  6
BYLAYER
  9
$DIMSCALE
 40
1.0
  9
$DIMASZ
 40
3.0
  9
$DIMEXO
 40
0.5
  9
$DIMDLI
 40
11.286
  9
$DIMEXE
 40
1.5
  9
$DIMCEN
 40
2.673
  9
$DIMLFAC
 40
1.0
  9
$DIMBLK
  1
_FILLED
  9
$DIMALT
 70
0
  9
$DIMALTF
 40
25.4
  9
$DIMTXT
 40
3.0
  9
$DIMTOL
 70
1
  9
$DIMLIM
 70
0
  9
$DIMTFAC
 40
1.0
  9
$DIMTP
 40
0.01
  9
$DIMTM
 40
0.01
  9
$DIMGAP
 40
0.625
  9
$DIMDSEP
 70
44
  9
$AUNITS
 70
0
  9
$PDMODE
 70
3
  9
$PDSIZE
 40
3.0
  9
$HANDSEED
  5
563
  9
$TILEMODE
 70
1
  9
$MEASUREMENT
 70
1
  9
$INSUNITS
 70
4
  0
ENDSEC
  0
SECTION
  2
CLASSES
  0
CLASS
  1
ACDBDICTIONARYWDFLT
  2
AcDbDictionaryWithDefault
  3
AutoCAD 2000
 90
0
 91
1
280
0
281
0
  0
CLASS
  1
ACDBPLACEHOLDER
  2
AcDbPlaceHolder
  3
AutoCAD 2000
 90
0
 91
1
280
0
281
0
  0
CLASS
  1
LAYOUT
  2
AcDbLayout
  3
AutoCAD 2000
 90
0
 91
0
280
0
281
0
  0
ENDSEC
  0
SECTION
  2
TABLES
  0
TABLE
  2
VPORT
  5
8
100
AcDbSymbolTable
 70
2
  0
VPORT
  5
1F4
100
AcDbSymbolTableRecord
100
AcDbViewportTableRecord
  2
*ACTIVE
 70
0
 10
0.0
 20
0.0
 11
1.0
 21
1.0
 12
148.5
 22
105.0
 13
0.0
 23
0.0
 14
1.0
 24
1.0
 15
0.0
 25
0.0
 16
0.0
 26
0.0
 36
1.0
 17
0.0
 27
0.0
 37
0.0
 40
210.0
 41
1.4142857143
 42
50.0
 43
0.0
 44
0.0
 50
0.0
 51
0.0
 71
0
 72
100
 73
1
 74
1
 75
0
 76
0
 77
0
 78
0
  0
ENDTAB
  0
TABLE
  2
LTYPE
  5
5
100
AcDbSymbolTable
 70
6
  0
LTYPE
  5
14
100
AcDbSymbolTableRecord
100
AcDbLinetypeTableRecord
  2
BYBLOCK
 70
0
  3

 72
65
 73
0
 40
0.0
  0
LTYPE
  5
15
100
AcDbSymbolTableRecord
100
AcDbLinetypeTableRecord
  2
BYLAYER
 70
0
  3

 72
65
 73
0
 40
0.0
  0
LTYPE
  5
16
100
AcDbSymbolTableRecord
100
AcDbLinetypeTableRecord
  2
CONTINUOUS
 70
64
  3
Solid line
 72
65
 73
0
 40
0.0
  0
LTYPE
  5
1F5
100
AcDbSymbolTableRecord
100
AcDbLinetypeTableRecord
  2
CENTER
 70
64
  3
____ _ ____ _ ____ _ ____ _ ____ _ ____ _ ____
 72
65
 73
4
 40
0.6
 49
0.375
 74
0
 49
-0.075
 74
0
 49
0.075
 74
0
 49
-0.075
 74
0
  0
LTYPE
  5
1F6
100
AcDbSymbolTableRecord
100
AcDbLinetypeTableRecord
  2
HIDDEN
 70
64
  3
- - - - - - - - - - - - - - - - - - - -
 72
65
 73
2
 40
0.2
 49
0.1
 74
0
 49
-0.1
 74
0
  0
LTYPE
  5
1F7
100
AcDbSymbolTableRecord
100
AcDbLinetypeTableRecord
  2
PHANTOM
 70
64
  3
_____ _ _ _____ _ _ _____ _ _ _____
 72
65
 73
6
 40
0.8
 49
0.45
 74
0
 49
-0.05
 74
0
 49
0.1
 74
0
 49
-0.05
 74
0
 49
0.1
 74
0
 49
-0.05
 74
0
  0
LTYPE
  5
1F8
100
AcDbSymbolTableRecord
100
AcDbLinetypeTableRecord
  2
DOT
 70
64
  3
. . . . . . . . . . . . . . . . . . . .
 72
65
 73
2
 40
0.2
 49
0.1
 74
0
 49
-0.1
 74
0
  0
LTYPE
  5
1F9
100
AcDbSymbolTableRecord
100
AcDbLinetypeTableRecord
  2
DASHED
 70
64
  3
- - - - - - - - - - - - - - - - - - - -
 72
65
 73
2
 40
0.2
 49
0.1
 74
0
 49
-0.1
 74
0
  0
ENDTAB
  0
TABLE
  2
LAYER
  5
2
100
AcDbSymbolTable
 70
36
  0
LAYER
  5
10
100
AcDbSymbolTableRecord
100
AcDbLayerTableRecord
  2
0
 70
0
 62
7
  6
CONTINUOUS
370
-3
390
F
  0
LAYER
  5
1FA
100
AcDbSymbolTableRecord
100
AcDbLayerTableRecord
  2
DEFAULT_1
 70
0
 62
7
  6
CENTER
370
-3
390
F
  0
LAYER
  5
1FB
100
AcDbSymbolTableRecord
100
AcDbLayerTableRecord
  2
DEFAULT_2
 70
0
 62
7
  6
HIDDEN
370
-3
390
F
  0
LAYER
  5
1FC
100
AcDbSymbolTableRecord
100
AcDbLayerTableRecord
  2
DEFAULT_3
 70
0
 62
7
  6
PHANTOM
370
-3
390
F
  0
LAYER
  5
1FD
100
AcDbSymbolTableRecord
100
AcDbLayerTableRecord
  2
ASSI
 70
0
 62
7
  6
CONTINUOUS
370
-3
390
F
  0
LAYER
  5
1FE
100
AcDbSymbolTableRecord
100
AcDbLayerTableRecord
  2
COORDINATE
 70
0
 62
7
  6
CONTINUOUS
370
-3
390
F
  0
LAYER
  5
1FF
100
AcDbSymbolTableRecord
100
AcDbLayerTableRecord
  2
COORD_ORIGINE
 70
0
 62
7
  6
CONTINUOUS
370
-3
390
F
  0
LAYER
  5
200
100
AcDbSymbolTableRecord
100
AcDbLayerTableRecord
  2
COPY_PUBLISH
 70
0
 62
7
  6
CONTINUOUS
370
-3
390
F
  0
LAYER
  5
201
100
AcDbSymbolTableRecord
100
AcDbLayerTableRecord
  2
COSMETICI
 70
0
 62
7
  6
CONTINUOUS
370
-3
390
F
  0
LAYER
  5
202
100
AcDbSymbolTableRecord
100
AcDbLayerTableRecord
  2
CURVE
 70
0
 62
7
  6
CONTINUOUS
370
-3
390
F
  0
LAYER
  5
203
100
AcDbSymbolTableRecord
100
AcDbLayerTableRecord
  2
DRAFT
 70
0
 62
7
  6
CONTINUOUS
370
-3
390
F
  0
LAYER
  5
204
100
AcDbSymbolTableRecord
100
AcDbLayerTableRecord
  2
IMPORT
 70
0
 62
7
  6
CONTINUOUS
370
-3
390
F
  0
LAYER
  5
205
100
AcDbSymbolTableRecord
100
AcDbLayerTableRecord
  2
IMPORT_IGES
 70
0
 62
7
  6
CONTINUOUS
370
-3
390
F
  0
LAYER
  5
206
100
AcDbSymbolTableRecord
100
AcDbLayerTableRecord
  2
NOTE
 70
0
 62
7
  6
CONTINUOUS
370
-3
390
F
  0
LAYER
  5
207
100
AcDbSymbolTableRecord
100
AcDbLayerTableRecord
  2
PIANI
 70
0
 62
7
  6
CONTINUOUS
370
-3
390
F
  0
LAYER
  5
208
100
AcDbSymbolTableRecord
100
AcDbLayerTableRecord
  2
PIANI_ORIGINE
 70
0
 62
7
  6
CONTINUOUS
370
-3
390
F
  0
LAYER
  5
209
100
AcDbSymbolTableRecord
100
AcDbLayerTableRecord
  2
PUNTI
 70
0
 62
7
  6
CONTINUOUS
370
-3
390
F
  0
LAYER
  5
20A
100
AcDbSymbolTableRecord
100
AcDbLayerTableRecord
  2
RACCORDO
 70
0
 62
7
  6
CONTINUOUS
370
-3
390
F
  0
LAYER
  5
20B
100
AcDbSymbolTableRecord
100
AcDbLayerTableRecord
  2
SIMBOLI
 70
0
 62
7
  6
CONTINUOUS
370
-3
390
F
  0
LAYER
  5
20C
100
AcDbSymbolTableRecord
100
AcDbLayerTableRecord
  2
SMUSSO
 70
0
 62
7
  6
CONTINUOUS
370
-3
390
F
  0
LAYER
  5
20D
100
AcDbSymbolTableRecord
100
AcDbLayerTableRecord
  2
SNAPLINE
 70
0
 62
7
  6
CONTINUOUS
370
-3
390
F
  0
LAYER
  5
20E
100
AcDbSymbolTableRecord
100
AcDbLayerTableRecord
  2
SUPERFICI
 70
0
 62
7
  6
CONTINUOUS
370
-3
390
F
  0
LAYER
  5
20F
100
AcDbSymbolTableRecord
100
AcDbLayerTableRecord
  2
TRASH
 70
0
 62
7
  6
CONTINUOUS
370
-3
390
F
  0
LAYER
  5
210
100
AcDbSymbolTableRecord
100
AcDbLayerTableRecord
  2
XSEC_DATUMS
 70
0
 62
7
  6
CONTINUOUS
370
-3
390
F
  0
ENDTAB
  0
TABLE
  2
STYLE
  5
3
100
AcDbSymbolTable
 70
1
  0
STYLE
  5
11
100
AcDbSymbolTableRecord
100
AcDbTextStyleTableRecord
  2
STANDARD
 70
0
 40
0.0
 41
0.8
 50
0.0
 71
0
 42
0.2
  3
txt
  4

  0
STYLE
  5
211
100
AcDbSymbolTableRecord
100
AcDbTextStyleTableRecord
  2
TEXTSTYLE_1
 70
0
 40
0.0
 41
0.8
 50
0.0
 71
0
 42
0.2
  3
gdt
  4

  0
ENDTAB
  0
TABLE
  2
VIEW
  5
6
100
AcDbSymbolTable
 70
0
  0
ENDTAB
  0
TABLE
  2
UCS
  5
7
100
AcDbSymbolTable
 70
0
  0
ENDTAB
  0
TABLE
  2
APPID
  5
9
100
AcDbSymbolTable
 70
1
  0
APPID
  5
212
100
AcDbSymbolTableRecord
100
AcDbRegAppTableRecord
  2
ACAD
 70
0
  0
ENDTAB
  0
TABLE
  2
BLOCK_RECORD
  5
1
100
AcDbSymbolTable
 70
0
  0
BLOCK_RECORD
  5
213
100
AcDbSymbolTableRecord
100
AcDbBlockTableRecord
  2
*Model_Space
  0
BLOCK_RECORD
  5
214
100
AcDbSymbolTableRecord
100
AcDbBlockTableRecord
  2
*Paper_Space
  0
ENDTAB
  0
TABLE
  2
DIMSTYLE
  5
A
100
AcDbSymbolTable
 70
1
100
AcDbDimStyleTable
 71
0
  0
DIMSTYLE
105
215
100
AcDbSymbolTableRecord
100
AcDbDimStyleTableRecord
  2
STANDARD
 70
0
  3

  4

 40
1.0
 41
3.0
 42
0.5
 43
0.38
 44
1.5
 45
0.0
 46
0.0
 47
0.01
 48
0.01
140
3.0
141
0.09
142
0.0
143
25.4
144
1.0
145
0.0
146
1.0
147
0.625
 71
1.0
 72
0.0
 73
0
 74
0
 75
0
 76
0
 77
1
 78
8
170
0
171
1
172
0
173
0
174
0
175
0
176
0
177
0
178
0
270
2
271
2
272
2
273
2
274
2
275
0
280
0
281
0
282
0
283
1
284
8
285
0
286
0
287
3
288
0
340
11
278
44
  0
ENDTAB
  0
ENDSEC
  0
SECTION
  2
BLOCKS
  0
BLOCK
  5
20
100
AcDbEntity
  8
0
100
AcDbBlockBegin
  2
*Model_Space
 70
0
 10
0.0
 20
0.0
 30
0.0
  3
*Model_Space
  1

  0
ENDBLK
  5
21
100
AcDbEntity
  8
0
100
AcDbBlockEnd
  0
BLOCK
  5
1C
100
AcDbEntity
  8
0
100
AcDbBlockBegin
  2
*Paper_Space
 70
0
 10
0.0
 20
0.0
 30
0.0
  3
*Paper_Space
  1

  0
ENDBLK
  5
1D
100
AcDbEntity
  8
0
100
AcDbBlockEnd
  0
ENDSEC
  0
SECTION
  2
ENTITIES
  0
LINE
  5
216
100
AcDbEntity
  8
0
100
AcDbLine
 62
7
  6
CONTINUOUS
 10
-49.9614759999
 20
47.0014277761
 11
-49.9614759999
 21
-49.9985722239
  0
LINE
  5
217
100
AcDbEntity
  8
0
100
AcDbLine
 62
7
  6
CONTINUOUS
 10
-46.9614759999
 20
13.5014277761
 11
-46.9614759999
 21
-13.4985722239
  0
LWPOLYLINE
  5
218
100
AcDbEntity
  8
0
100
AcDbPolyline
 62
7
  6
CONTINUOUS
 90
24
 70
0
 10
4.117186656
 20
-46.9742946441
 10
4.1938323693
 20
-46.9734249692
 10
4.2684611402
 20
-46.9719924858
 10
4.3415633006
 20
-46.969909976
 10
4.4126485185
 20
-46.9671539866
 10
4.4802457981
 20
-46.9637845235
 10
4.5440674229
 20
-46.9597206465
 10
4.6044011094
 20
-46.9548875704
 10
4.6606390112
 20
-46.9493881557
 10
4.7125815844
 20
-46.943167642
 10
4.760428373
 20
-46.9361468088
 10
4.8041701627
 20
-46.9284483136
 10
4.843702577
 20
-46.9200474663
 10
4.8791299924
 20
-46.9108837332
 10
4.9107563245
 20
-46.9010815186
 10
4.9385516559
 20
-46.8906523294
 10
4.9625459039
 20
-46.879548193
 10
4.9831327361
 20
-46.8678421594
 10
5.0003456462
 20
-46.8555420843
 10
5.0141511403
 20
-46.8426271231
 10
5.0248424043
 20
-46.8291465994
 10
5.0325171665
 20
-46.8151198713
 10
5.0370776984
 20
-46.8005289081
 10
5.0385240001
 20
-46.7853738204
  0
LINE
  5
219
100
AcDbEntity
  8
0
100
AcDbLine
 62
7
  6
CONTINUOUS
 10
-49.9614759999
 20
-49.9985722239
 11
50.0385240001
 21
-49.9985722239
  0
LINE
  5
21A
100
AcDbEntity
  8
0
100
AcDbLine
 62
7
  6
CONTINUOUS
 10
-3.9614759999
 20
-49.9506865935
 11
4.0851412535
 21
-49.9504937402
  0
LINE
  5
21B
100
AcDbEntity
  8
0
100
AcDbLine
 62
7
  6
CONTINUOUS
 10
-3.9614759999
 20
-46.9746294087
 11
4.117186656
 21
-46.9742946441
  0
LINE
  5
21C
100
AcDbEntity
  8
0
100
AcDbLine
 62
7
  6
CONTINUOUS
 10
4.9035671056
 20
-46.9033097336
 11
-4.8265191054
 21
-46.9033097336
  0
LWPOLYLINE
  5
21D
100
AcDbEntity
  8
0
100
AcDbPolyline
 62
7
  6
CONTINUOUS
 90
28
 70
0
 10
-3.9614759999
 20
-49.9506865935
 10
-4.0080932533
 20
-49.9504937402
 10
-4.0548810698
 20
-49.9498557355
 10
-4.1018394494
 20
-49.9487638296
 10
-4.1490167302
 20
-49.9472199925
 10
-4.196364574
 20
-49.9451871495
 10
-4.2437379665
 20
-49.9425858963
 10
-4.2912015507
 20
-49.9393818406
 10
-4.3386906836
 20
-49.9355276829
 10
-4.3858664213
 20
-49.9309045102
 10
-4.4327904857
 20
-49.925439707
 10
-4.479401155
 20
-49.9190617364
 10
-4.5251743195
 20
-49.9116267461
 10
-4.5701855334
 20
-49.9030235921
 10
-4.6143592426
 20
-49.8931461339
 10
-4.6569446744
 20
-49.8818300291
 10
-4.6979437376
 20
-49.8689299386
 10
-4.7373545234
 20
-49.8542983989
 10
-4.7744205335
 20
-49.8377412444
 10
-4.8092135728
 20
-49.8190951784
 10
-4.8416618364
 20
-49.7981572862
 10
-4.8707934116
 20
-49.7746396938
 10
-4.896747756
 20
-49.7481032988
 10
-4.9193854119
 20
-49.7185017747
 10
-4.9373160929
 20
-49.6861983775
 10
-4.9500763702
 20
-49.6512480471
 10
-4.9581296725
 20
-49.6132952895
 10
-4.9614759999
 20
-49.5721754169
  0
LINE
  5
21E
100
AcDbEntity
  8
0
100
AcDbLine
 62
7
  6
CONTINUOUS
 10
-43.9614759999
 20
-13.4985722239
 11
-43.9614759999
 21
13.5014277761
  0
LINE
  5
21F
100
AcDbEntity
  8
0
100
AcDbLine
 62
253
  6
CONTINUOUS
 10
-49.9614759999
 20
-43.9985722239
 11
-4.9614759999
 21
-43.9985722239
  0
LINE
  5
220
100
AcDbEntity
  8
0
100
AcDbLine
 62
253
  6
CONTINUOUS
 10
5.0385240001
 20
-43.9985722239
 11
50.0385240001
 21
-43.9985722239
  0
LINE
  5
221
100
AcDbEntity
  8
0
100
AcDbLine
 62
7
  6
CONTINUOUS
 10
5.0385240001
 20
-41.9985722239
 11
-4.9614759999
 21
-41.9985722239
  0
LWPOLYLINE
  5
222
100
AcDbEntity
  8
RACCORDO
100
AcDbPolyline
 62
7
  6
CONTINUOUS
 90
5
 70
0
 10
7.5746290796
 20
-37.0302112809
 10
7.5665355046
 20
-37.0304304158
 10
7.5607181691
 20
-37.0306538446
 10
7.5570859241
 20
-37.0308832021
 10
7.5556387697
 20
-37.0311184883
  0
LINE
  5
223
100
AcDbEntity
  8
RACCORDO
100
AcDbLine
 62
7
  6
CONTINUOUS
 10
7.5970980547
 20
-37.0297957014
 11
7.5746290796
 21
-37.0302112809
  0
LINE
  5
224
100
AcDbEntity
  8
RACCORDO
100
AcDbLine
 62
7
  6
CONTINUOUS
 10
7.6448654015
 20
-37.0292584826
 11
7.5970980547
 21
-37.0297957014
  0
LINE
  5
225
100
AcDbEntity
  8
RACCORDO
100
AcDbLine
 62
7
  6
CONTINUOUS
 10
7.6848267595
 20
-37.0289683795
 11
7.6448654015
 21
-37.0292584826
  0
LINE
  5
226
100
AcDbEntity
  8
RACCORDO
100
AcDbLine
 62
7
  6
CONTINUOUS
 10
-7.5502080446
 20
-37.0294246239
 11
-7.6077787593
 21
-37.0289683795
  0
LINE
  5
227
100
AcDbEntity
  8
RACCORDO
100
AcDbLine
 62
7
  6
CONTINUOUS
 10
-7.5200500545
 20
-37.0297957014
 11
-7.5502080446
 21
-37.0294246239
  0
LWPOLYLINE
  5
228
100
AcDbEntity
  8
RACCORDO
100
AcDbPolyline
 62
7
  6
CONTINUOUS
 90
6
 70
0
 10
-7.4785907695
 20
-37.0311184883
 10
-7.4800379239
 20
-37.0308832021
 10
-7.4836701689
 20
-37.0306538446
 10
-7.4894875045
 20
-37.0304304158
 10
-7.4975810794
 20
-37.0302112809
 10
-7.5200500545
 20
-37.0297957014
  0
LINE
  5
229
100
AcDbEntity
  8
RACCORDO
100
AcDbLine
 62
7
  6
CONTINUOUS
 10
7.8046833059
 20
-37.028538572
 11
7.6848267595
 21
-37.0289683795
  0
LINE
  5
22A
100
AcDbEntity
  8
RACCORDO
100
AcDbLine
 62
7
  6
CONTINUOUS
 10
-7.9615140768
 20
-37.0485722239
 11
-4.9920200372
 21
-37.0485722239
  0
LINE
  5
22B
100
AcDbEntity
  8
RACCORDO
100
AcDbLine
 62
7
  6
CONTINUOUS
 10
5.0690680374
 20
-37.0485722239
 11
8.038562077
 21
-37.0485722239
  0
LINE
  5
22C
100
AcDbEntity
  8
RACCORDO
100
AcDbLine
 62
7
  6
CONTINUOUS
 10
7.5560005823
 20
-37.0311184883
 11
6.0211083414
 21
-37.0311184883
  0
LINE
  5
22D
100
AcDbEntity
  8
RACCORDO
100
AcDbLine
 62
7
  6
CONTINUOUS
 10
-5.9440603413
 20
-37.0311184883
 11
-7.4789525821
 21
-37.0311184883
  0
LINE
  5
22E
100
AcDbEntity
  8
RACCORDO
100
AcDbLine
 62
7
  6
CONTINUOUS
 10
8.0184902811
 20
-37.028500428
 11
7.8046833059
 21
-37.028538572
  0
LINE
  5
22F
100
AcDbEntity
  8
DRAFT
100
AcDbLine
 62
7
  6
CONTINUOUS
 10
5.0385240001
 20
-37.0180281866
 11
-4.9614759999
 21
-37.0180281866
  0
LINE
  5
230
100
AcDbEntity
  8
RACCORDO
100
AcDbLine
 62
7
  6
CONTINUOUS
 10
5.9949277381
 20
-37.004937885
 11
-5.9178797379
 21
-37.004937885
  0
LINE
  5
231
100
AcDbEntity
  8
RACCORDO
100
AcDbLine
 62
7
  6
CONTINUOUS
 10
-2.4614950384
 20
-35.0485722239
 11
2.5385430386
 21
-35.0485722239
  0
LINE
  5
232
100
AcDbEntity
  8
RACCORDO
100
AcDbLine
 62
7
  6
CONTINUOUS
 10
2.5385430386
 20
-33.0485722239
 11
-2.4614950384
 21
-33.0485722239
  0
LINE
  5
233
100
AcDbEntity
  8
RACCORDO
100
AcDbLine
 62
7
  6
CONTINUOUS
 10
9.0385240001
 20
-32.9985722239
 11
25.238562077
 21
-32.9985722239
  0
LINE
  5
234
100
AcDbEntity
  8
RACCORDO
100
AcDbLine
 62
7
  6
CONTINUOUS
 10
-8.9614759999
 20
-32.9985722239
 11
-25.1615140768
 21
-32.9985722239
  0
LINE
  5
235
100
AcDbEntity
  8
RACCORDO
100
AcDbLine
 62
7
  6
CONTINUOUS
 10
25.2211083414
 20
-32.9811184883
 11
12.5201975777
 21
-32.9811184883
  0
LINE
  5
236
100
AcDbEntity
  8
DRAFT
100
AcDbLine
 62
7
  6
CONTINUOUS
 10
9.2385240001
 20
-32.9811184883
 11
9.0385240001
 21
-32.9811184883
  0
LINE
  5
237
100
AcDbEntity
  8
DRAFT
100
AcDbLine
 62
7
  6
CONTINUOUS
 10
-8.9614759999
 20
-32.9811184883
 11
-9.1614759999
 21
-32.9811184883
  0
LINE
  5
238
100
AcDbEntity
  8
RACCORDO
100
AcDbLine
 62
7
  6
CONTINUOUS
 10
-12.4431495776
 20
-32.9811184883
 11
-25.1440603413
 21
-32.9811184883
  0
LINE
  5
239
100
AcDbEntity
  8
DRAFT
100
AcDbLine
 62
7
  6
CONTINUOUS
 10
12.5182636903
 20
-32.9791846009
 11
9.2404578875
 21
-32.9791846009
  0
LINE
  5
23A
100
AcDbEntity
  8
DRAFT
100
AcDbLine
 62
7
  6
CONTINUOUS
 10
-9.1634098873
 20
-32.9791846009
 11
-12.4412156902
 21
-32.9791846009
  0
LINE
  5
23B
100
AcDbEntity
  8
RACCORDO
100
AcDbLine
 62
253
  6
CONTINUOUS
 10
12.4521256491
 20
-32.6409924304
 11
9.2741920679
 21
-32.6409924304
  0
LINE
  5
23C
100
AcDbEntity
  8
RACCORDO
100
AcDbLine
 62
253
  6
CONTINUOUS
 10
-9.1971440677
 20
-32.6409924304
 11
-12.375077649
 21
-32.6409924304
  0
LINE
  5
23D
100
AcDbEntity
  8
RACCORDO
100
AcDbLine
 62
7
  6
CONTINUOUS
 10
-7.6530909875
 20
-37.0287426524
 11
-7.9414422809
 21
-37.028500428
  0
LINE
  5
23E
100
AcDbEntity
  8
RACCORDO
100
AcDbLine
 62
7
  6
CONTINUOUS
 10
-7.6077787593
 20
-37.0289683795
 11
-7.6530909875
 21
-37.0287426524
  0
LINE
  5
23F
100
AcDbEntity
  8
DRAFT
100
AcDbLine
 62
7
  6
CONTINUOUS
 10
-18.1614759999
 20
25.5014277761
 11
-18.1798024223
 21
25.4831013537
  0
LINE
  5
240
100
AcDbEntity
  8
DRAFT
100
AcDbLine
 62
7
  6
CONTINUOUS
 10
-10.7431495776
 20
32.0197541984
 11
-10.7614759999
 21
32.0014277761
  0
LINE
  5
241
100
AcDbEntity
  8
DRAFT
100
AcDbLine
 62
7
  6
CONTINUOUS
 10
-10.7606033131
 20
30.1523004629
 11
-10.7614759999
 21
30.1514277761
  0
LINE
  5
242
100
AcDbEntity
  8
RACCORDO
100
AcDbLine
 62
7
  6
CONTINUOUS
 10
-11.6662796856
 20
-32.0597462137
 11
-10.7003020102
 21
-32.0597462137
  0
LINE
  5
243
100
AcDbEntity
  8
RACCORDO
100
AcDbLine
 62
7
  6
CONTINUOUS
 10
10.7773500103
 20
-32.0597462137
 11
11.7433276858
 21
-32.0597462137
  0
LINE
  5
244
100
AcDbEntity
  8
DRAFT
100
AcDbLine
 62
7
  6
CONTINUOUS
 10
-18.1798024223
 20
-32.0168986463
 11
-12.4431495776
 21
-32.0168986463
  0
LINE
  5
245
100
AcDbEntity
  8
DRAFT
100
AcDbLine
 62
7
  6
CONTINUOUS
 10
12.5201975777
 20
-32.0168986463
 11
18.2568504224
 21
-32.0168986463
  0
LINE
  5
246
100
AcDbEntity
  8
DRAFT
100
AcDbLine
 62
7
  6
CONTINUOUS
 10
-18.1614759999
 20
-31.9985722239
 11
-10.7614759999
 21
-31.9985722239
  0
LINE
  5
247
100
AcDbEntity
  8
DRAFT
100
AcDbLine
 62
7
  6
CONTINUOUS
 10
10.8385240001
 20
-31.9985722239
 11
18.2385240001
 21
-31.9985722239
  0
LINE
  5
248
100
AcDbEntity
  8
RACCORDO
100
AcDbLine
 62
253
  6
CONTINUOUS
 10
10.7765632388
 20
-31.6447977323
 11
9.282158339
 21
-31.6447977323
  0
LINE
  5
249
100
AcDbEntity
  8
RACCORDO
100
AcDbLine
 62
253
  6
CONTINUOUS
 10
-9.2051103389
 20
-31.6447977323
 11
-10.6995152386
 21
-31.6447977323
  0
LINE
  5
24A
100
AcDbEntity
  8
DRAFT
100
AcDbLine
 62
7
  6
CONTINUOUS
 10
16.5385240001
 20
-31.2485722239
 11
12.5385240001
 21
-31.2485722239
  0
LINE
  5
24B
100
AcDbEntity
  8
DRAFT
100
AcDbLine
 62
7
  6
CONTINUOUS
 10
9.0385240001
 20
-31.2485722239
 11
9.2385240001
 21
-31.2485722239
  0
LINE
  5
24C
100
AcDbEntity
  8
DRAFT
100
AcDbLine
 62
7
  6
CONTINUOUS
 10
-8.9614759999
 20
-31.2485722239
 11
-9.1614759999
 21
-31.2485722239
  0
LINE
  5
24D
100
AcDbEntity
  8
DRAFT
100
AcDbLine
 62
7
  6
CONTINUOUS
 10
-12.4614759999
 20
-31.2485722239
 11
-16.4614759999
 21
-31.2485722239
  0
LINE
  5
24E
100
AcDbEntity
  8
DRAFT
100
AcDbLine
 62
7
  6
CONTINUOUS
 10
7.1094684828
 20
-31.2276277412
 11
9.1594684828
 21
-31.2276277412
  0
LINE
  5
24F
100
AcDbEntity
  8
DRAFT
100
AcDbLine
 62
7
  6
CONTINUOUS
 10
-7.0324204826
 20
-31.2276277412
 11
-9.0824204826
 21
-31.2276277412
  0
LINE
  5
250
100
AcDbEntity
  8
DRAFT
100
AcDbLine
 62
7
  6
CONTINUOUS
 10
7.132158339
 20
-31.204937885
 11
9.282158339
 21
-31.204937885
  0
LINE
  5
251
100
AcDbEntity
  8
DRAFT
100
AcDbLine
 62
7
  6
CONTINUOUS
 10
-7.0551103389
 20
-31.204937885
 11
-9.2051103389
 21
-31.204937885
  0
LINE
  5
252
100
AcDbEntity
  8
RACCORDO
100
AcDbLine
 62
7
  6
CONTINUOUS
 10
-4.4745853401
 20
-31.0616625256
 11
-3.4483666598
 21
-31.0616625256
  0
LINE
  5
253
100
AcDbEntity
  8
RACCORDO
100
AcDbLine
 62
7
  6
CONTINUOUS
 10
3.5254146599
 20
-31.0616625256
 11
4.5516333402
 21
-31.0616625256
  0
LINE
  5
254
100
AcDbEntity
  8
RACCORDO
100
AcDbLine
 62
7
  6
CONTINUOUS
 10
-4.4614950384
 20
-31.0485722239
 11
-3.4614569614
 21
-31.0485722239
  0
LINE
  5
255
100
AcDbEntity
  8
RACCORDO
100
AcDbLine
 62
7
  6
CONTINUOUS
 10
3.5385049616
 20
-31.0485722239
 11
4.5385430386
 21
-31.0485722239
  0
LINE
  5
256
100
AcDbEntity
  8
RACCORDO
100
AcDbLine
 62
7
  6
CONTINUOUS
 10
3.4117519244
 20
-31.0485722239
 11
-3.3347039242
 21
-31.0485722239
  0
LINE
  5
257
100
AcDbEntity
  8
DRAFT
100
AcDbLine
 62
7
  6
CONTINUOUS
 10
18.2385240001
 20
-30.1485722239
 11
16.5385240001
 21
-30.1485722239
  0
LINE
  5
258
100
AcDbEntity
  8
DRAFT
100
AcDbLine
 62
7
  6
CONTINUOUS
 10
12.5385240001
 20
-30.1485722239
 11
10.8385240001
 21
-30.1485722239
  0
LINE
  5
259
100
AcDbEntity
  8
DRAFT
100
AcDbLine
 62
7
  6
CONTINUOUS
 10
-10.7614759999
 20
-30.1485722239
 11
-12.4614759999
 21
-30.1485722239
  0
LINE
  5
25A
100
AcDbEntity
  8
DRAFT
100
AcDbLine
 62
7
  6
CONTINUOUS
 10
-16.4614759999
 20
-30.1485722239
 11
-18.1614759999
 21
-30.1485722239
  0
LINE
  5
25B
100
AcDbEntity
  8
0
100
AcDbLine
 62
7
  6
CONTINUOUS
 10
-18.1614759999
 20
-29.9985722239
 11
-15.3114759999
 21
-29.9985722239
  0
LINE
  5
25C
100
AcDbEntity
  8
0
100
AcDbLine
 62
7
  6
CONTINUOUS
 10
15.3885240001
 20
-29.9985722239
 11
18.2385240001
 21
-29.9985722239
  0
LINE
  5
25D
100
AcDbEntity
  8
DRAFT
100
AcDbLine
 62
7
  6
CONTINUOUS
 10
7.132158339
 20
-28.2422065629
 11
9.282158339
 21
-28.2422065629
  0
LINE
  5
25E
100
AcDbEntity
  8
DRAFT
100
AcDbLine
 62
7
  6
CONTINUOUS
 10
-7.0551103389
 20
-28.2422065629
 11
-9.2051103389
 21
-28.2422065629
  0
LINE
  5
25F
100
AcDbEntity
  8
DRAFT
100
AcDbLine
 62
7
  6
CONTINUOUS
 10
7.1094684828
 20
-28.2195167066
 11
9.1594684828
 21
-28.2195167066
  0
LINE
  5
260
100
AcDbEntity
  8
DRAFT
100
AcDbLine
 62
7
  6
CONTINUOUS
 10
-7.0324204826
 20
-28.2195167066
 11
-9.0824204826
 21
-28.2195167066
  0
LINE
  5
261
100
AcDbEntity
  8
DRAFT
100
AcDbLine
 62
7
  6
CONTINUOUS
 10
-9.1614759999
 20
-28.1985722239
 11
-9.0614759999
 21
-28.1985722239
  0
LINE
  5
262
100
AcDbEntity
  8
DRAFT
100
AcDbLine
 62
7
  6
CONTINUOUS
 10
9.1385240001
 20
-28.1985722239
 11
9.2385240001
 21
-28.1985722239
  0
LINE
  5
263
100
AcDbEntity
  8
DRAFT
100
AcDbLine
 62
7
  6
CONTINUOUS
 10
9.1385240001
 20
-27.9985722239
 11
9.0385240001
 21
-27.9985722239
  0
LINE
  5
264
100
AcDbEntity
  8
DRAFT
100
AcDbLine
 62
7
  6
CONTINUOUS
 10
-8.9614759999
 20
-27.9985722239
 11
-9.0614759999
 21
-27.9985722239
  0
LINE
  5
265
100
AcDbEntity
  8
RACCORDO
100
AcDbLine
 62
7
  6
CONTINUOUS
 10
-12.4098960936
 20
-32.0501521303
 11
-12.4431495776
 21
-32.0168986463
  0
LINE
  5
266
100
AcDbEntity
  8
DRAFT
100
AcDbLine
 62
7
  6
CONTINUOUS
 10
-18.1614759999
 20
-25.4985722239
 11
-18.1798024223
 21
-25.4802458016
  0
LINE
  5
267
100
AcDbEntity
  8
RACCORDO
100
AcDbLine
 62
7
  6
CONTINUOUS
 10
-10.7003020102
 20
-32.0597462137
 11
-10.7614759999
 21
-31.9985722239
  0
LINE
  5
268
100
AcDbEntity
  8
RACCORDO
100
AcDbLine
 62
7
  6
CONTINUOUS
 10
-24.4482714652
 20
-17.7117767586
 11
-24.4614759999
 21
-17.6985722239
  0
LINE
  5
269
100
AcDbEntity
  8
DRAFT
100
AcDbLine
 62
7
  6
CONTINUOUS
 10
-9.1614759999
 20
-32.9811184883
 11
-9.1634098873
 21
-32.9791846009
  0
LINE
  5
26A
100
AcDbEntity
  8
DRAFT
100
AcDbLine
 62
7
  6
CONTINUOUS
 10
-10.7614759999
 20
-30.1485722239
 11
-10.7606033131
 21
-30.1494449107
  0
LINE
  5
26B
100
AcDbEntity
  8
DRAFT
100
AcDbLine
 62
7
  6
CONTINUOUS
 10
-9.1614759999
 20
-31.2485722239
 11
-9.2051103389
 21
-31.204937885
  0
LINE
  5
26C
100
AcDbEntity
  8
DRAFT
100
AcDbLine
 62
7
  6
CONTINUOUS
 10
-9.0824204826
 20
-31.2276277412
 11
-9.0614759999
 21
-31.2485722239
  0
LINE
  5
26D
100
AcDbEntity
  8
DRAFT
100
AcDbLine
 62
7
  6
CONTINUOUS
 10
-24.4378919064
 20
18.9408405653
 11
-24.4614759999
 21
19.7350505958
  0
LINE
  5
26E
100
AcDbEntity
  8
DRAFT
100
AcDbLine
 62
7
  6
CONTINUOUS
 10
-24.4562326079
 20
17.7298072037
 11
-24.452685313
 21
15.2014277761
  0
LINE
  5
26F
100
AcDbEntity
  8
RACCORDO
100
AcDbLine
 62
7
  6
CONTINUOUS
 10
-26.1614759999
 20
32.001465853
 11
-26.1614759999
 21
-31.9986103008
  0
LINE
  5
270
100
AcDbEntity
  8
RACCORDO
100
AcDbLine
 62
7
  6
CONTINUOUS
 10
-26.1440222643
 20
-31.9811565653
 11
-26.1440222643
 21
31.9840121174
  0
LINE
  5
271
100
AcDbEntity
  8
DRAFT
100
AcDbLine
 62
7
  6
CONTINUOUS
 10
-24.4614759999
 20
19.7350505958
 11
-24.4614759999
 21
14.7014277761
  0
LINE
  5
272
100
AcDbEntity
  8
DRAFT
100
AcDbLine
 62
7
  6
CONTINUOUS
 10
-24.4614759999
 20
-17.6985722239
 11
-24.4614759999
 21
-19.6985722239
  0
LINE
  5
273
100
AcDbEntity
  8
RACCORDO
100
AcDbLine
 62
7
  6
CONTINUOUS
 10
-24.4352953965
 20
-19.2117196432
 11
-24.4352953965
 21
-19.6723916205
  0
LINE
  5
274
100
AcDbEntity
  8
RACCORDO
100
AcDbLine
 62
7
  6
CONTINUOUS
 10
-24.4500202453
 20
15.2892957417
 11
-24.4362159815
 21
17.9256918448
  0
LINE
  5
275
100
AcDbEntity
  8
DRAFT
100
AcDbLine
 62
7
  6
CONTINUOUS
 10
-10.7606033131
 20
26.0014277761
 11
-10.7614759999
 21
26.0005550893
  0
LINE
  5
276
100
AcDbEntity
  8
DRAFT
100
AcDbLine
 62
7
  6
CONTINUOUS
 10
-18.4614759999
 20
17.7350505958
 11
-18.466719392
 21
17.7298072037
  0
LWPOLYLINE
  5
277
100
AcDbEntity
  8
0
100
AcDbPolyline
 62
7
  6
CONTINUOUS
 90
13
 70
0
 10
2.278083006
 20
-23.611316363
 10
2.277948601
 20
-23.6113430507
 10
2.2771131012
 20
-23.6115017149
 10
2.2756911647
 20
-23.6117550566
 10
2.2737974132
 20
-23.6120722381
 10
2.2714413418
 20
-23.6124444986
 10
2.2685956852
 20
-23.6128696315
 10
2.2653236105
 20
-23.6133329031
 10
2.2616259361
 20
-23.6138302572
 10
2.2574854449
 20
-23.6143603724
 10
2.2529393917
 20
-23.614915444
 10
2.2479852781
 20
-23.6154933904
 10
2.2426108954
 20
-23.6160934094
  0
LWPOLYLINE
  5
278
100
AcDbEntity
  8
0
100
AcDbPolyline
 62
7
  6
CONTINUOUS
 90
13
 70
0
 10
-2.2008224165
 20
-24.1857860698
 10
-2.2006206318
 20
-24.1857470637
 10
-2.1995541046
 20
-24.1855497701
 10
-2.1979063307
 20
-24.1852636913
 10
-2.1958010563
 20
-24.1849197966
 10
-2.1932537742
 20
-24.1845268651
 10
-2.1902377914
 20
-24.1840864207
 10
-2.1868161694
 20
-24.1836122404
 10
-2.1829932937
 20
-24.1831082507
 10
-2.1787535784
 20
-24.1825754477
 10
-2.1741295757
 20
-24.1820204887
 10
-2.1691207501
 20
-24.1814453308
 10
-2.1637162797
 20
-24.1808506142
  0
LWPOLYLINE
  5
279
100
AcDbEntity
  8
0
100
AcDbPolyline
 62
7
  6
CONTINUOUS
 90
34
 70
0
 10
-2.2026110716
 20
-23.7829724539
 10
-2.2102126987
 20
-23.7837985582
 10
-2.2175490362
 20
-23.7846318824
 10
-2.2246291399
 20
-23.7854739408
 10
-2.2315019071
 20
-23.7863314955
 10
-2.2381745197
 20
-23.787206922
 10
-2.2446507932
 20
-23.7881023796
 10
-2.250977318
 20
-23.7890266128
 10
-2.2571477575
 20
-23.789981612
 10
-2.2631856023
 20
-23.7909743241
 10
-2.2691877274
 20
-23.7920260513
 10
-2.2751325359
 20
-23.7931401031
 10
-2.2810613996
 20
-23.7943323376
 10
-2.2871684238
 20
-23.7956559552
 10
-2.2934067051
 20
-23.7971204063
 10
-2.299837154
 20
-23.7987626578
 10
-2.3068127703
 20
-23.8007131592
 10
-2.3142936938
 20
-23.803020755
 10
-2.3223053311
 20
-23.8057641716
 10
-2.3312806382
 20
-23.8092039118
 10
-2.3413067889
 20
-23.8135490131
 10
-2.3521686559
 20
-23.818918302
 10
-2.3638018201
 20
-23.8255251782
 10
-2.3762025672
 20
-23.8336868981
 10
-2.3889976981
 20
-23.8435446029
 10
-2.4015594825
 20
-23.8549846318
 10
-2.4136185639
 20
-23.8681032387
 10
-2.4249680525
 20
-23.8829897244
 10
-2.4351668618
 20
-23.8993326851
 10
-2.4439876034
 20
-23.9169810056
 10
-2.4512663837
 20
-23.9358993316
 10
-2.4567461966
 20
-23.9558254061
 10
-2.46021678
 20
-23.9765434355
 10
-2.4614745269
 20
-23.9978254981
  0
LWPOLYLINE
  5
27A
100
AcDbEntity
  8
0
100
AcDbPolyline
 62
7
  6
CONTINUOUS
 90
34
 70
0
 10
2.2742127267
 20
-24.0147428407
 10
2.2825780593
 20
-24.0138589952
 10
2.2906032127
 20
-24.0129708714
 10
2.2983027349
 20
-24.0120767657
 10
2.3057155297
 20
-24.0111717306
 10
2.3128437097
 20
-24.0102548052
 10
2.3197090412
 20
-24.009322343
 10
2.3263821219
 20
-24.0083629515
 10
2.3328625162
 20
-24.0073740178
 10
2.3391742881
 20
-24.0063487937
 10
2.3454273952
 20
-24.0052641157
 10
2.3516086141
 20
-24.0041149103
 10
2.3577556986
 20
-24.0028856933
 10
2.3640588056
 20
-24.0015239709
 10
2.3704741738
 20
-24.0000192813
 10
2.3770673271
 20
-23.9983331644
 10
2.3841908007
 20
-23.9963343497
 10
2.3918115543
 20
-23.9939708125
 10
2.3999535883
 20
-23.9911626831
 10
2.4090355861
 20
-23.9876521116
 10
2.4191444284
 20
-23.983229158
 10
2.4300661539
 20
-23.9777749506
 10
2.4417225507
 20
-23.9710846332
 10
2.4540991601
 20
-23.962851993
 10
2.4668356476
 20
-23.9529363642
 10
2.4793242108
 20
-23.9414444027
 10
2.4912948883
 20
-23.9282886369
 10
2.5025484097
 20
-23.913381075
 10
2.512665586
 20
-23.8970037792
 10
2.5214112854
 20
-23.8793079218
 10
2.5286159127
 20
-23.8603233377
 10
2.5340248765
 20
-23.8402643635
 10
2.5374055878
 20
-23.8193290308
 10
2.5385239885
 20
-23.7985660925
  0
LINE
  5
27B
100
AcDbEntity
  8
0
100
AcDbLine
 62
7
  6
CONTINUOUS
 10
2.2426108954
 20
-23.6160934094
 11
2.2306704104
 21
-23.6173447152
  0
LINE
  5
27C
100
AcDbEntity
  8
0
100
AcDbLine
 62
7
  6
CONTINUOUS
 10
-2.1637162797
 20
-24.1808506142
 11
-2.1517666398
 21
-24.1796139077
  0
LINE
  5
27D
100
AcDbEntity
  8
0
100
AcDbLine
 62
7
  6
CONTINUOUS
 10
-2.1865579639
 20
-23.7813348182
 11
-2.2026110716
 21
-23.7829724539
  0
LINE
  5
27E
100
AcDbEntity
  8
0
100
AcDbLine
 62
7
  6
CONTINUOUS
 10
2.2564157338
 20
-24.0165024669
 11
2.2742127267
 21
-24.0147428407
  0
LINE
  5
27F
100
AcDbEntity
  8
0
100
AcDbLine
 62
7
  6
CONTINUOUS
 10
2.2306704104
 20
-23.6173447152
 11
2.2171170856
 21
-23.6186571998
  0
LINE
  5
280
100
AcDbEntity
  8
0
100
AcDbLine
 62
7
  6
CONTINUOUS
 10
-2.1517666398
 20
-24.1796139077
 11
-2.1382692697
 21
-24.1783201128
  0
LINE
  5
281
100
AcDbEntity
  8
0
100
AcDbLine
 62
7
  6
CONTINUOUS
 10
-2.1692186545
 20
-23.7797009751
 11
-2.1865579639
 21
-23.7813348182
  0
LINE
  5
282
100
AcDbEntity
  8
0
100
AcDbLine
 62
7
  6
CONTINUOUS
 10
2.2370901626
 20
-24.0182609071
 11
2.2564157338
 21
-24.0165024669
  0
LINE
  5
283
100
AcDbEntity
  8
0
100
AcDbLine
 62
7
  6
CONTINUOUS
 10
2.2171170856
 20
-23.6186571998
 11
2.2019643535
 21
-23.620019997
  0
LINE
  5
284
100
AcDbEntity
  8
0
100
AcDbLine
 62
7
  6
CONTINUOUS
 10
-2.1382692697
 20
-24.1783201128
 11
-2.1232165138
 21
-24.1769773804
  0
LINE
  5
285
100
AcDbEntity
  8
0
100
AcDbLine
 62
7
  6
CONTINUOUS
 10
-2.1504559804
 20
-23.7780599196
 11
-2.1692186545
 21
-23.7797009751
  0
LINE
  5
286
100
AcDbEntity
  8
0
100
AcDbLine
 62
7
  6
CONTINUOUS
 10
2.2161295401
 20
-24.0200257794
 11
2.2370901626
 21
-24.0182609071
  0
LINE
  5
287
100
AcDbEntity
  8
0
100
AcDbLine
 62
7
  6
CONTINUOUS
 10
2.2019643535
 20
-23.620019997
 11
2.1851976843
 21
-23.6214268152
  0
LINE
  5
288
100
AcDbEntity
  8
0
100
AcDbLine
 62
7
  6
CONTINUOUS
 10
-2.1232165138
 20
-24.1769773804
 11
-2.106580369
 21
-24.1755906066
  0
LINE
  5
289
100
AcDbEntity
  8
0
100
AcDbLine
 62
7
  6
CONTINUOUS
 10
-2.1301500619
 20
-23.7764043237
 11
-2.1504559804
 21
-23.7780599196
  0
LINE
  5
28A
100
AcDbEntity
  8
0
100
AcDbLine
 62
7
  6
CONTINUOUS
 10
2.1851976843
 20
-23.6214268152
 11
2.1667919522
 21
-23.6228733899
  0
LINE
  5
28B
100
AcDbEntity
  8
0
100
AcDbLine
 62
7
  6
CONTINUOUS
 10
2.1934458721
 20
-24.0218018847
 11
2.2161295401
 21
-24.0200257794
  0
LINE
  5
28C
100
AcDbEntity
  8
0
100
AcDbLine
 62
7
  6
CONTINUOUS
 10
-2.106580369
 20
-24.1755906066
 11
-2.0883265832
 21
-24.1741633303
  0
LINE
  5
28D
100
AcDbEntity
  8
0
100
AcDbLine
 62
7
  6
CONTINUOUS
 10
-2.1081548761
 20
-23.7747263488
 11
-2.1301500619
 21
-23.7764043237
  0
LINE
  5
28E
100
AcDbEntity
  8
0
100
AcDbLine
 62
7
  6
CONTINUOUS
 10
2.1689538741
 20
-24.0235930705
 11
2.1934458721
 21
-24.0218018847
  0
LINE
  5
28F
100
AcDbEntity
  8
0
100
AcDbLine
 62
7
  6
CONTINUOUS
 10
2.1667919522
 20
-23.6228733899
 11
2.1360676287
 21
-23.6251095062
  0
LINE
  5
290
100
AcDbEntity
  8
0
100
AcDbLine
 62
7
  6
CONTINUOUS
 10
-2.0883265832
 20
-24.1741633303
 11
-2.0578549124
 21
-24.1719538935
  0
LINE
  5
291
100
AcDbEntity
  8
0
100
AcDbLine
 62
7
  6
CONTINUOUS
 10
-2.0717000083
 20
-23.7721556951
 11
-2.1081548761
 21
-23.7747263488
  0
LINE
  5
292
100
AcDbEntity
  8
0
100
AcDbLine
 62
7
  6
CONTINUOUS
 10
2.1286777349
 20
-24.026312638
 11
2.1689538741
 21
-24.0235930705
  0
LINE
  5
293
100
AcDbEntity
  8
0
100
AcDbLine
 62
7
  6
CONTINUOUS
 10
2.1360676287
 20
-23.6251095062
 11
2.1015234182
 21
-23.6274178372
  0
LINE
  5
294
100
AcDbEntity
  8
0
100
AcDbLine
 62
7
  6
CONTINUOUS
 10
-2.0578549124
 20
-24.1719538935
 11
-2.0236162326
 21
-24.1696715089
  0
LINE
  5
295
100
AcDbEntity
  8
0
100
AcDbLine
 62
7
  6
CONTINUOUS
 10
-2.030789288
 20
-23.7695144416
 11
-2.0717000083
 21
-23.7721556951
  0
LINE
  5
296
100
AcDbEntity
  8
0
100
AcDbLine
 62
7
  6
CONTINUOUS
 10
2.0839841152
 20
-24.029075235
 11
2.1286777349
 21
-24.026312638
  0
LINE
  5
297
100
AcDbEntity
  8
0
100
AcDbLine
 62
7
  6
CONTINUOUS
 10
-2.0236162326
 20
-24.1696715089
 11
-1.985555698
 21
-24.1673246047
  0
LINE
  5
298
100
AcDbEntity
  8
0
100
AcDbLine
 62
7
  6
CONTINUOUS
 10
2.1015234182
 20
-23.6274178372
 11
2.0630669173
 21
-23.6297923032
  0
LINE
  5
299
100
AcDbEntity
  8
0
100
AcDbLine
 62
7
  6
CONTINUOUS
 10
-1.9851795197
 20
-23.7668022543
 11
-2.030789288
 21
-23.7695144416
  0
LINE
  5
29A
100
AcDbEntity
  8
0
100
AcDbLine
 62
7
  6
CONTINUOUS
 10
-1.985555698
 20
-24.1673246047
 11
-1.928797223
 21
-24.1641068752
  0
LINE
  5
29B
100
AcDbEntity
  8
0
100
AcDbLine
 62
7
  6
CONTINUOUS
 10
2.0630669173
 20
-23.6297923032
 11
2.0055473467
 21
-23.6330537237
  0
LINE
  5
29C
100
AcDbEntity
  8
0
100
AcDbLine
 62
7
  6
CONTINUOUS
 10
2.0172645513
 20
-24.0328283841
 11
2.0839841152
 21
-24.029075235
  0
LINE
  5
29D
100
AcDbEntity
  8
0
100
AcDbLine
 62
7
  6
CONTINUOUS
 10
-1.9167401131
 20
-23.7630791297
 11
-1.9851795197
 21
-23.7668022543
  0
LINE
  5
29E
100
AcDbEntity
  8
0
100
AcDbLine
 62
7
  6
CONTINUOUS
 10
1.9421689442
 20
-24.0366613461
 11
2.0172645513
 21
-24.0328283841
  0
LINE
  5
29F
100
AcDbEntity
  8
0
100
AcDbLine
 62
7
  6
CONTINUOUS
 10
-1.928797223
 20
-24.1641068752
 11
-1.8481234806
 21
-24.1599606129
  0
LINE
  5
2A0
100
AcDbEntity
  8
0
100
AcDbLine
 62
7
  6
CONTINUOUS
 10
2.0055473467
 20
-23.6330537237
 11
1.9233290628
 21
-23.6372738287
  0
LINE
  5
2A1
100
AcDbEntity
  8
0
100
AcDbLine
 62
7
  6
CONTINUOUS
 10
-1.8183564266
 20
-23.7582562911
 11
-1.9167401131
 21
-23.7630791297
  0
LINE
  5
2A2
100
AcDbEntity
  8
0
100
AcDbLine
 62
7
  6
CONTINUOUS
 10
1.835881319
 20
-24.0415802679
 11
1.9421689442
 21
-24.0366613461
  0
LINE
  5
2A3
100
AcDbEntity
  8
0
100
AcDbLine
 62
7
  6
CONTINUOUS
 10
-1.8481234806
 20
-24.1599606129
 11
-1.7369740436
 21
-24.1548248051
  0
LINE
  5
2A4
100
AcDbEntity
  8
0
100
AcDbLine
 62
7
  6
CONTINUOUS
 10
1.9233290628
 20
-23.6372738287
 11
1.8091850745
 21
-23.642531306
  0
LINE
  5
2A5
100
AcDbEntity
  8
0
100
AcDbLine
 62
7
  6
CONTINUOUS
 10
-1.6797816492
 20
-23.7521910018
 11
-1.8183564266
 21
-23.7582562911
  0
LINE
  5
2A6
100
AcDbEntity
  8
0
100
AcDbLine
 62
7
  6
CONTINUOUS
 10
1.6883700559
 20
-24.0477220499
 11
1.835881319
 21
-24.0415802679
  0
LINE
  5
2A7
100
AcDbEntity
  8
0
100
AcDbLine
 62
7
  6
CONTINUOUS
 10
-1.7369740436
 20
-24.1548248051
 11
-1.5875403173
 21
-24.1486343636
  0
LINE
  5
2A8
100
AcDbEntity
  8
0
100
AcDbLine
 62
7
  6
CONTINUOUS
 10
1.8091850745
 20
-23.642531306
 11
1.6544666896
 21
-23.6489068094
  0
LINE
  5
2A9
100
AcDbEntity
  8
0
100
AcDbLine
 62
7
  6
CONTINUOUS
 10
-1.4868084687
 20
-23.7446749007
 11
-1.6797816492
 21
-23.7521910018
  0
LINE
  5
2AA
100
AcDbEntity
  8
0
100
AcDbLine
 62
7
  6
CONTINUOUS
 10
1.45383642
 20
-24.0564189709
 11
1.6883700559
 21
-24.0477220499
  0
LINE
  5
2AB
100
AcDbEntity
  8
0
100
AcDbLine
 62
7
  6
CONTINUOUS
 10
-1.5875403173
 20
-24.1486343636
 11
-1.3648899557
 21
-24.1403960914
  0
LINE
  5
2AC
100
AcDbEntity
  8
0
100
AcDbLine
 62
7
  6
CONTINUOUS
 10
1.6544666896
 20
-23.6489068094
 11
1.4218831469
 21
-23.6574480174
  0
LINE
  5
2AD
100
AcDbEntity
  8
0
100
AcDbLine
 62
7
  6
CONTINUOUS
 10
-1.1499680785
 20
-23.7331164667
 11
-1.4868084687
 21
-23.7446749007
  0
LINE
  5
2AE
100
AcDbEntity
  8
0
100
AcDbLine
 62
7
  6
CONTINUOUS
 10
-1.3648899557
 20
-24.1403960914
 11
-1.0493378116
 21
-24.1299577966
  0
LINE
  5
2AF
100
AcDbEntity
  8
0
100
AcDbLine
 62
7
  6
CONTINUOUS
 10
1.4218831469
 20
-23.6574480174
 11
1.1200051243
 21
-23.6673872584
  0
LINE
  5
2B0
100
AcDbEntity
  8
0
100
AcDbLine
 62
7
  6
CONTINUOUS
 10
0.9847579197
 20
-24.0715945455
 11
1.45383642
 21
-24.0564189709
  0
LINE
  5
2B1
100
AcDbEntity
  8
0
100
AcDbLine
 62
7
  6
CONTINUOUS
 10
1.1200051243
 20
-23.6673872584
 11
0.6995512074
 21
-23.6800072999
  0
LINE
  5
2B2
100
AcDbEntity
  8
0
100
AcDbLine
 62
7
  6
CONTINUOUS
 10
-1.0493378116
 20
-24.1299577966
 11
-0.5178393928
 21
-24.1141306724
  0
LINE
  5
2B3
100
AcDbEntity
  8
0
100
AcDbLine
 62
7
  6
CONTINUOUS
 10
-0.5178393928
 20
-24.1141306724
 11
0.9847579197
 21
-24.0715945455
  0
LINE
  5
2B4
100
AcDbEntity
  8
0
100
AcDbLine
 62
7
  6
CONTINUOUS
 10
0.6995512074
 20
-23.6800072999
 11
-1.1499680785
 21
-23.7331164667
  0
LINE
  5
2B5
100
AcDbEntity
  8
RACCORDO
100
AcDbLine
 62
253
  6
CONTINUOUS
 10
-4.4614759999
 20
-25.7985722239
 11
-2.8944989437
 21
-25.7985722239
  0
LINE
  5
2B6
100
AcDbEntity
  8
RACCORDO
100
AcDbLine
 62
253
  6
CONTINUOUS
 10
2.9715469439
 20
-25.7985722239
 11
4.5385240001
 21
-25.7985722239
  0
LINE
  5
2B7
100
AcDbEntity
  8
RACCORDO
100
AcDbLine
 62
7
  6
CONTINUOUS
 10
2.5339089083
 20
-25.5532063541
 11
-2.4568609081
 21
-25.5532063541
  0
LINE
  5
2B8
100
AcDbEntity
  8
RACCORDO
100
AcDbLine
 62
7
  6
CONTINUOUS
 10
2.5385430386
 20
-25.5485722239
 11
-2.4614950384
 21
-25.5485722239
  0
LINE
  5
2B9
100
AcDbEntity
  8
DRAFT
100
AcDbLine
 62
7
  6
CONTINUOUS
 10
-18.1614759999
 20
-25.4985722239
 11
-10.7614759999
 21
-25.4985722239
  0
LINE
  5
2BA
100
AcDbEntity
  8
RACCORDO
100
AcDbLine
 62
7
  6
CONTINUOUS
 10
-4.4588579396
 20
-25.4985722239
 11
4.5359059397
 21
-25.4985722239
  0
LINE
  5
2BB
100
AcDbEntity
  8
DRAFT
100
AcDbLine
 62
7
  6
CONTINUOUS
 10
10.8385240001
 20
-25.4985722239
 11
18.2385240001
 21
-25.4985722239
  0
LINE
  5
2BC
100
AcDbEntity
  8
DRAFT
100
AcDbLine
 62
7
  6
CONTINUOUS
 10
18.2568504224
 20
-25.4802458016
 11
10.8201975777
 21
-25.4802458016
  0
LINE
  5
2BD
100
AcDbEntity
  8
DRAFT
100
AcDbLine
 62
7
  6
CONTINUOUS
 10
-10.7431495776
 20
-25.4802458016
 11
-18.1798024223
 21
-25.4802458016
  0
LINE
  5
2BE
100
AcDbEntity
  8
DRAFT
100
AcDbLine
 62
7
  6
CONTINUOUS
 10
9.2385240001
 20
-24.1985722239
 11
9.0385240001
 21
-24.1985722239
  0
LINE
  5
2BF
100
AcDbEntity
  8
DRAFT
100
AcDbLine
 62
7
  6
CONTINUOUS
 10
2.957816436
 20
-24.1985722239
 11
-2.8807684358
 21
-24.1985722239
  0
LINE
  5
2C0
100
AcDbEntity
  8
DRAFT
100
AcDbLine
 62
7
  6
CONTINUOUS
 10
-8.9614759999
 20
-24.1985722239
 11
-9.1614759999
 21
-24.1985722239
  0
LINE
  5
2C1
100
AcDbEntity
  8
DRAFT
100
AcDbLine
 62
7
  6
CONTINUOUS
 10
7.1094684828
 20
-24.1776277412
 11
9.1594684828
 21
-24.1776277412
  0
LINE
  5
2C2
100
AcDbEntity
  8
DRAFT
100
AcDbLine
 62
7
  6
CONTINUOUS
 10
-7.0324204826
 20
-24.1776277412
 11
-9.0824204826
 21
-24.1776277412
  0
LINE
  5
2C3
100
AcDbEntity
  8
DRAFT
100
AcDbLine
 62
7
  6
CONTINUOUS
 10
7.132158339
 20
-24.154937885
 11
9.282158339
 21
-24.154937885
  0
LINE
  5
2C4
100
AcDbEntity
  8
DRAFT
100
AcDbLine
 62
7
  6
CONTINUOUS
 10
-7.0551103389
 20
-24.154937885
 11
-9.2051103389
 21
-24.154937885
  0
LINE
  5
2C5
100
AcDbEntity
  8
0
100
AcDbLine
 62
7
  6
CONTINUOUS
 10
-0.5942158236
 20
-23.4808237959
 11
-1.0183043664
 21
-23.468159138
  0
LINE
  5
2C6
100
AcDbEntity
  8
0
100
AcDbLine
 62
7
  6
CONTINUOUS
 10
1.2027443342
 20
-23.532336063
 11
-0.5942158236
 21
-23.4808237959
  0
LINE
  5
2C7
100
AcDbEntity
  8
0
100
AcDbLine
 62
7
  6
CONTINUOUS
 10
-1.0183043664
 20
-23.468159138
 11
-1.3338726121
 21
-23.4578279931
  0
LINE
  5
2C8
100
AcDbEntity
  8
0
100
AcDbLine
 62
7
  6
CONTINUOUS
 10
-1.3338726121
 20
-23.4578279931
 11
-1.4103947569
 21
-23.4551376925
  0
LINE
  5
2C9
100
AcDbEntity
  8
0
100
AcDbLine
 62
7
  6
CONTINUOUS
 10
1.5401677932
 20
-23.543807132
 11
1.2027443342
 21
-23.532336063
  0
LINE
  5
2CA
100
AcDbEntity
  8
0
100
AcDbLine
 62
7
  6
CONTINUOUS
 10
1.734939186
 20
-23.5512916934
 11
1.5401677932
 21
-23.543807132
  0
LINE
  5
2CB
100
AcDbEntity
  8
0
100
AcDbLine
 62
7
  6
CONTINUOUS
 10
1.8761439363
 20
-23.5573690217
 11
1.734939186
 21
-23.5512916934
  0
LINE
  5
2CC
100
AcDbEntity
  8
0
100
AcDbLine
 62
7
  6
CONTINUOUS
 10
1.9776098613
 20
-23.5622481915
 11
1.8761439363
 21
-23.5573690217
  0
LINE
  5
2CD
100
AcDbEntity
  8
0
100
AcDbLine
 62
7
  6
CONTINUOUS
 10
2.0490564444
 20
-23.5660565954
 11
1.9776098613
 21
-23.5622481915
  0
LINE
  5
2CE
100
AcDbEntity
  8
0
100
AcDbLine
 62
7
  6
CONTINUOUS
 10
2.0971769953
 20
-23.5688608008
 11
2.0490564444
 21
-23.5660565954
  0
LINE
  5
2CF
100
AcDbEntity
  8
0
100
AcDbLine
 62
7
  6
CONTINUOUS
 10
2.1407401116
 20
-23.5716204976
 11
2.0971769953
 21
-23.5688608008
  0
LINE
  5
2D0
100
AcDbEntity
  8
0
100
AcDbLine
 62
7
  6
CONTINUOUS
 10
2.1673293749
 20
-23.5734366107
 11
2.1407401116
 21
-23.5716204976
  0
LINE
  5
2D1
100
AcDbEntity
  8
0
100
AcDbLine
 62
7
  6
CONTINUOUS
 10
2.1920251919
 20
-23.575235326
 11
2.1673293749
 21
-23.5734366107
  0
LINE
  5
2D2
100
AcDbEntity
  8
0
100
AcDbLine
 62
7
  6
CONTINUOUS
 10
2.214895286
 20
-23.5770187092
 11
2.1920251919
 21
-23.575235326
  0
LINE
  5
2D3
100
AcDbEntity
  8
0
100
AcDbLine
 62
7
  6
CONTINUOUS
 10
2.2360246129
 20
-23.5787905196
 11
2.214895286
 21
-23.5770187092
  0
LINE
  5
2D4
100
AcDbEntity
  8
0
100
AcDbLine
 62
7
  6
CONTINUOUS
 10
2.2555013012
 20
-23.5805554842
 11
2.2360246129
 21
-23.5787905196
  0
LINE
  5
2D5
100
AcDbEntity
  8
DRAFT
100
AcDbLine
 62
7
  6
CONTINUOUS
 10
-7.0324204826
 20
-31.2276277412
 11
-7.0551103389
 21
-31.204937885
  0
LINE
  5
2D6
100
AcDbEntity
  8
DRAFT
100
AcDbLine
 62
7
  6
CONTINUOUS
 10
-18.4876566033
 20
-19.6723916205
 11
-18.4614759999
 21
-19.6985722239
  0
LINE
  5
2D7
100
AcDbEntity
  8
DRAFT
100
AcDbLine
 62
7
  6
CONTINUOUS
 10
-10.7606033131
 20
-25.9985722239
 11
-10.7614759999
 21
-25.9976995371
  0
LINE
  5
2D8
100
AcDbEntity
  8
RACCORDO
100
AcDbLine
 62
253
  6
CONTINUOUS
 10
-3.4614569614
 20
-31.0485722239
 11
-3.4483666598
 21
-31.0616625256
  0
LINE
  5
2D9
100
AcDbEntity
  8
RACCORDO
100
AcDbLine
 62
253
  6
CONTINUOUS
 10
-2.9614759999
 20
-30.5485912624
 11
-2.9491360716
 21
-30.5609311907
  0
LINE
  5
2DA
100
AcDbEntity
  8
DRAFT
100
AcDbLine
 62
7
  6
CONTINUOUS
 10
-9.1614759999
 20
-24.1985722239
 11
-9.2051103389
 21
-24.154937885
  0
LINE
  5
2DB
100
AcDbEntity
  8
DRAFT
100
AcDbLine
 62
7
  6
CONTINUOUS
 10
-9.0824204826
 20
-24.1776277412
 11
-9.0614759999
 21
-24.1985722239
  0
LINE
  5
2DC
100
AcDbEntity
  8
RACCORDO
100
AcDbLine
 62
7
  6
CONTINUOUS
 10
-18.4729317545
 20
15.2892957417
 11
-18.4867360183
 21
17.9256918448
  0
LINE
  5
2DD
100
AcDbEntity
  8
ASSI
100
AcDbLine
 62
7
  6
CONTINUOUS
 10
-19.1114759999
 20
36.0014277761
 11
-19.1114759999
 21
33.0014277761
  0
LINE
  5
2DE
100
AcDbEntity
  8
ASSI
100
AcDbLine
 62
7
  6
CONTINUOUS
 10
-19.1114759999
 20
15.2014277761
 11
-19.1114759999
 21
14.7014277761
  0
LINE
  5
2DF
100
AcDbEntity
  8
RACCORDO
100
AcDbLine
 62
7
  6
CONTINUOUS
 10
-18.4876566033
 20
-19.6723916205
 11
-18.4876566033
 21
-19.2117196432
  0
LINE
  5
2E0
100
AcDbEntity
  8
DRAFT
100
AcDbLine
 62
7
  6
CONTINUOUS
 10
-18.4614759999
 20
-19.6985722239
 11
-18.4614759999
 21
-17.6985722239
  0
LINE
  5
2E1
100
AcDbEntity
  8
DRAFT
100
AcDbLine
 62
7
  6
CONTINUOUS
 10
-18.4614759999
 20
14.7014277761
 11
-18.4614759999
 21
19.7350505958
  0
LINE
  5
2E2
100
AcDbEntity
  8
DRAFT
100
AcDbLine
 62
7
  6
CONTINUOUS
 10
-18.466719392
 20
17.7298072037
 11
-18.4702666868
 21
15.2014277761
  0
LINE
  5
2E3
100
AcDbEntity
  8
DRAFT
100
AcDbLine
 62
7
  6
CONTINUOUS
 10
-18.4850600934
 20
18.9408405653
 11
-18.4614759999
 21
19.7350505958
  0
LWPOLYLINE
  5
2E4
100
AcDbEntity
  8
0
100
AcDbPolyline
 62
7
  6
CONTINUOUS
 90
19
 70
0
 10
0.9172820566
 20
-22.9426197499
 10
1.0272140208
 20
-22.9179766636
 10
1.1326413785
 20
-22.893795597
 10
1.2336416021
 20
-22.8700302875
 10
1.3300519123
 20
-22.8466965181
 10
1.4219014945
 20
-22.8237712643
 10
1.5095650247
 20
-22.8011452973
 10
1.5929980793
 20
-22.7788143927
 10
1.6721960921
 20
-22.7567687002
 10
1.7475626497
 20
-22.7348818499
 10
1.819110493
 20
-22.7131311752
 10
1.8868023268
 20
-22.6915114668
 10
1.9509396604
 20
-22.6699051455
 10
2.0116151863
 20
-22.6482493134
 10
2.0687254058
 20
-22.6265483993
 10
2.1223230067
 20
-22.6047507431
 10
2.1724258753
 20
-22.5828146638
 10
2.2191273439
 20
-22.5606600505
 10
2.2424703562
 20
-22.5485722239
  0
LWPOLYLINE
  5
2E5
100
AcDbEntity
  8
0
100
AcDbPolyline
 62
7
  6
CONTINUOUS
 90
16
 70
0
 10
-0.7880571146
 20
-22.9024278943
 10
-0.9052684737
 20
-22.9284627432
 10
-1.0203481218
 20
-22.9546232058
 10
-1.1331576549
 20
-22.9809660183
 10
-1.2433304002
 20
-23.0074990422
 10
-1.3504978509
 20
-23.0342308502
 10
-1.4545192307
 20
-23.0612313004
 10
-1.5550380688
 20
-23.0885225687
 10
-1.6516587058
 20
-23.1161191239
 10
-1.7442202343
 20
-23.1441098327
 10
-1.8322749655
 20
-23.1725084492
 10
-1.9155601885
 20
-23.2013935591
 10
-1.9942917933
 20
-23.2310486202
 10
-2.0683456738
 20
-23.2617105017
 10
-2.1371702116
 20
-23.2934907972
 10
-2.1902454487
 20
-23.3209781572
  0
LINE
  5
2E6
100
AcDbEntity
  8
0
100
AcDbLine
 62
7
  6
CONTINUOUS
 10
0.8844834677
 20
-22.5485722239
 11
0.670243346
 21
-22.5956915619
  0
LINE
  5
2E7
100
AcDbEntity
  8
0
100
AcDbLine
 62
7
  6
CONTINUOUS
 10
0.6837499107
 20
-22.9934647076
 11
0.9172820566
 21
-22.9426197499
  0
LINE
  5
2E8
100
AcDbEntity
  8
0
100
AcDbLine
 62
7
  6
CONTINUOUS
 10
-0.5486586936
 20
-22.8507154666
 11
-0.7880571146
 21
-22.9024278943
  0
LINE
  5
2E9
100
AcDbEntity
  8
0
100
AcDbLine
 62
7
  6
CONTINUOUS
 10
-0.6912113738
 20
-23.2822123512
 11
-0.4493409266
 21
-23.2300761481
  0
LINE
  5
2EA
100
AcDbEntity
  8
0
100
AcDbLine
 62
7
  6
CONTINUOUS
 10
0.670243346
 20
-22.5956915619
 11
0.4328600815
 21
-22.6462584213
  0
LINE
  5
2EB
100
AcDbEntity
  8
0
100
AcDbLine
 62
7
  6
CONTINUOUS
 10
0.4373039861
 20
-23.0455745717
 11
0.6837499107
 21
-22.9934647076
  0
LINE
  5
2EC
100
AcDbEntity
  8
0
100
AcDbLine
 62
7
  6
CONTINUOUS
 10
-0.4493409266
 20
-23.2300761481
 11
-0.1997733024
 21
-23.1776659802
  0
LINE
  5
2ED
100
AcDbEntity
  8
0
100
AcDbLine
 62
7
  6
CONTINUOUS
 10
-0.1813053331
 20
-22.7737488004
 11
-0.5486586936
 21
-22.8507154666
  0
LINE
  5
2EE
100
AcDbEntity
  8
0
100
AcDbLine
 62
7
  6
CONTINUOUS
 10
-0.1997733024
 20
-23.1776659802
 11
0.4373039861
 21
-23.0455745717
  0
LINE
  5
2EF
100
AcDbEntity
  8
0
100
AcDbLine
 62
7
  6
CONTINUOUS
 10
0.4328600815
 20
-22.6462584213
 11
-0.1813053331
 21
-22.7737488004
  0
LINE
  5
2F0
100
AcDbEntity
  8
RACCORDO
100
AcDbLine
 62
7
  6
CONTINUOUS
 10
4.5385430386
 20
-22.5485722239
 11
-4.4614950384
 21
-22.5485722239
  0
LINE
  5
2F1
100
AcDbEntity
  8
RACCORDO
100
AcDbLine
 62
7
  6
CONTINUOUS
 10
4.5516333402
 20
-22.5354819222
 11
-4.4745853401
 21
-22.5354819222
  0
LINE
  5
2F2
100
AcDbEntity
  8
DRAFT
100
AcDbLine
 62
7
  6
CONTINUOUS
 10
-24.4614759999
 20
-19.6985722239
 11
-18.4614759999
 21
-19.6985722239
  0
LINE
  5
2F3
100
AcDbEntity
  8
DRAFT
100
AcDbLine
 62
7
  6
CONTINUOUS
 10
18.5385240001
 20
-19.6985722239
 11
24.5385240001
 21
-19.6985722239
  0
LINE
  5
2F4
100
AcDbEntity
  8
DRAFT
100
AcDbLine
 62
7
  6
CONTINUOUS
 10
12.5201975777
 20
-19.6802458016
 11
10.8201975777
 21
-19.6802458016
  0
LINE
  5
2F5
100
AcDbEntity
  8
DRAFT
100
AcDbLine
 62
7
  6
CONTINUOUS
 10
-10.7431495776
 20
-19.6802458016
 11
-12.4431495776
 21
-19.6802458016
  0
LINE
  5
2F6
100
AcDbEntity
  8
DRAFT
100
AcDbLine
 62
7
  6
CONTINUOUS
 10
-24.4352953965
 20
-19.6723916205
 11
-18.4876566033
 21
-19.6723916205
  0
LINE
  5
2F7
100
AcDbEntity
  8
DRAFT
100
AcDbLine
 62
7
  6
CONTINUOUS
 10
18.5647046035
 20
-19.6723916205
 11
24.5123433967
 21
-19.6723916205
  0
LINE
  5
2F8
100
AcDbEntity
  8
RACCORDO
100
AcDbLine
 62
7
  6
CONTINUOUS
 10
-11.2099417859
 20
-19.6366114626
 11
-10.6995152386
 21
-19.6366114626
  0
LINE
  5
2F9
100
AcDbEntity
  8
RACCORDO
100
AcDbLine
 62
7
  6
CONTINUOUS
 10
11.2869897861
 20
-19.6366114626
 11
10.7765632388
 21
-19.6366114626
  0
LINE
  5
2FA
100
AcDbEntity
  8
RACCORDO
100
AcDbLine
 62
253
  6
CONTINUOUS
 10
12.4869440937
 20
-19.5278700105
 11
11.2869897861
 21
-19.5278700105
  0
LINE
  5
2FB
100
AcDbEntity
  8
RACCORDO
100
AcDbLine
 62
253
  6
CONTINUOUS
 10
-11.2099417859
 20
-19.5278700105
 11
-12.4098960936
 21
-19.5278700105
  0
LINE
  5
2FC
100
AcDbEntity
  8
RACCORDO
100
AcDbLine
 62
253
  6
CONTINUOUS
 10
-10.9125484227
 20
-19.2291733788
 11
-7.0551103389
 21
-19.2291733788
  0
LINE
  5
2FD
100
AcDbEntity
  8
RACCORDO
100
AcDbLine
 62
253
  6
CONTINUOUS
 10
7.132158339
 20
-19.2291733788
 11
10.9895964229
 21
-19.2291733788
  0
LINE
  5
2FE
100
AcDbEntity
  8
RACCORDO
100
AcDbLine
 62
253
  6
CONTINUOUS
 10
24.5123433967
 20
-19.2117196432
 11
18.5647046035
 21
-19.2117196432
  0
LINE
  5
2FF
100
AcDbEntity
  8
RACCORDO
100
AcDbLine
 62
253
  6
CONTINUOUS
 10
-18.4876566033
 20
-19.2117196432
 11
-24.4352953965
 21
-19.2117196432
  0
LINE
  5
300
100
AcDbEntity
  8
RACCORDO
100
AcDbLine
 62
253
  6
CONTINUOUS
 10
6.9948896611
 20
-18.5769993487
 11
-6.917841661
 21
-18.5769993487
  0
LINE
  5
301
100
AcDbEntity
  8
DRAFT
100
AcDbLine
 62
7
  6
CONTINUOUS
 10
5.0690680374
 20
-37.0485722239
 11
5.0385240001
 21
-37.0180281866
  0
LINE
  5
302
100
AcDbEntity
  8
RACCORDO
100
AcDbLine
 62
253
  6
CONTINUOUS
 10
-12.4431495776
 20
-19.1985151085
 11
-12.4124913073
 21
-19.2291733788
  0
LINE
  5
303
100
AcDbEntity
  8
DRAFT
100
AcDbLine
 62
7
  6
CONTINUOUS
 10
-7.0324204826
 20
-24.1776277412
 11
-7.0551103389
 21
-24.154937885
  0
LINE
  5
304
100
AcDbEntity
  8
RACCORDO
100
AcDbLine
 62
253
  6
CONTINUOUS
 10
5.9949277381
 20
-37.004937885
 11
6.0211083414
 21
-37.0311184883
  0
LINE
  5
305
100
AcDbEntity
  8
RACCORDO
100
AcDbLine
 62
253
  6
CONTINUOUS
 10
6.9948896611
 20
-36.0049759619
 11
7.0210702645
 21
-36.0311565653
  0
LINE
  5
306
100
AcDbEntity
  8
RACCORDO
100
AcDbLine
 62
253
  6
CONTINUOUS
 10
-2.9560713221
 20
-26.0539578632
 11
-2.9614759999
 21
-26.0485531854
  0
LINE
  5
307
100
AcDbEntity
  8
RACCORDO
100
AcDbLine
 62
253
  6
CONTINUOUS
 10
8.038562077
 20
-37.0485722239
 11
8.0184902811
 21
-37.028500428
  0
LINE
  5
308
100
AcDbEntity
  8
RACCORDO
100
AcDbLine
 62
253
  6
CONTINUOUS
 10
-10.943206693
 20
-17.6985722239
 11
-10.9125484227
 21
-17.7292304942
  0
LINE
  5
309
100
AcDbEntity
  8
RACCORDO
100
AcDbLine
 62
253
  6
CONTINUOUS
 10
-2.4568609081
 20
-25.5532063541
 11
-2.4614950384
 21
-25.5485722239
  0
LINE
  5
30A
100
AcDbEntity
  8
RACCORDO
100
AcDbLine
 62
253
  6
CONTINUOUS
 10
-4.9745663016
 20
-23.0354628838
 11
-4.9614759999
 21
-23.0485531854
  0
LINE
  5
30B
100
AcDbEntity
  8
RACCORDO
100
AcDbLine
 62
253
  6
CONTINUOUS
 10
9.0385240001
 20
-36.0486103008
 11
9.0184522042
 21
-36.0285385049
  0
LINE
  5
30C
100
AcDbEntity
  8
RACCORDO
100
AcDbLine
 62
253
  6
CONTINUOUS
 10
-4.4745853401
 20
-22.5354819222
 11
-4.4614950384
 21
-22.5485722239
  0
LINE
  5
30D
100
AcDbEntity
  8
RACCORDO
100
AcDbLine
 62
253
  6
CONTINUOUS
 10
4.5516333402
 20
-31.0616625256
 11
4.5385430386
 21
-31.0485722239
  0
LWPOLYLINE
  5
30E
100
AcDbEntity
  8
RACCORDO
100
AcDbPolyline
 62
253
  6
CONTINUOUS
 90
4
 70
0
 10
-12.4124913073
 20
-19.2291733788
 10
-12.412233551
 20
-19.2327711124
 10
-12.4119815354
 20
-19.2393468903
 10
-12.4117352604
 20
-19.2489007125
  0
LINE
  5
30F
100
AcDbEntity
  8
DRAFT
100
AcDbLine
 62
7
  6
CONTINUOUS
 10
-18.1798024223
 20
-32.0168986463
 11
-18.1798024223
 21
-25.4802458016
  0
LINE
  5
310
100
AcDbEntity
  8
DRAFT
100
AcDbLine
 62
7
  6
CONTINUOUS
 10
-18.1798024223
 20
25.4831013537
 11
-18.1798024223
 21
32.0197541984
  0
LINE
  5
311
100
AcDbEntity
  8
DRAFT
100
AcDbLine
 62
7
  6
CONTINUOUS
 10
-18.1614759999
 20
-31.9985722239
 11
-18.1614759999
 21
-25.4985722239
  0
LINE
  5
312
100
AcDbEntity
  8
DRAFT
100
AcDbLine
 62
7
  6
CONTINUOUS
 10
-18.1614759999
 20
25.5014277761
 11
-18.1614759999
 21
32.0014277761
  0
LINE
  5
313
100
AcDbEntity
  8
DRAFT
100
AcDbLine
 62
7
  6
CONTINUOUS
 10
-16.4614759999
 20
-31.2485722239
 11
-16.4614759999
 21
-30.1485722239
  0
LINE
  5
314
100
AcDbEntity
  8
DRAFT
100
AcDbLine
 62
7
  6
CONTINUOUS
 10
-16.4614759999
 20
30.1514277761
 11
-16.4614759999
 21
31.2514277761
  0
LINE
  5
315
100
AcDbEntity
  8
ASSI
100
AcDbLine
 62
7
  6
CONTINUOUS
 10
-15.3114759999
 20
-29.9985722239
 11
-15.3114759999
 21
-25.4985722239
  0
LINE
  5
316
100
AcDbEntity
  8
ASSI
100
AcDbLine
 62
7
  6
CONTINUOUS
 10
-15.3114759999
 20
25.5014277761
 11
-15.3114759999
 21
31.2514277761
  0
LINE
  5
317
100
AcDbEntity
  8
ASSI
100
AcDbLine
 62
7
  6
CONTINUOUS
 10
-15.3114759999
 20
33.0014277761
 11
-15.3114759999
 21
36.0014277761
  0
LWPOLYLINE
  5
318
100
AcDbEntity
  8
0
100
AcDbPolyline
 62
7
  6
CONTINUOUS
 90
30
 70
0
 10
0.899737335
 20
-13.9865032991
 10
1.0176861447
 20
-13.9601319824
 10
1.1315422228
 20
-13.9340486923
 10
1.2410374182
 20
-13.9082619978
 10
1.3460477709
 20
-13.8827539121
 10
1.4457699242
 20
-13.8576859881
 10
1.5399185498
 20
-13.8331159215
 10
1.6287503571
 20
-13.8089710614
 10
1.712405328
 20
-13.7852097191
 10
1.7908484186
 20
-13.7618450644
 10
1.8642513304
 20
-13.7388360831
 10
1.933075981
 20
-13.7160429837
 10
1.9974017118
 20
-13.6934391025
 10
2.0573234679
 20
-13.6709942626
 10
2.1133053969
 20
-13.6485266039
 10
2.1654888929
 20
-13.6259531411
 10
2.2139018238
 20
-13.6032319821
 10
2.2588640875
 20
-13.5801666881
 10
2.3004436893
 20
-13.5566505556
 10
2.3387599798
 20
-13.5325239536
 10
2.3742195095
 20
-13.5073668426
 10
2.4067213615
 20
-13.4810008773
 10
2.4362631873
 20
-13.4530957446
 10
2.4632047435
 20
-13.4227224694
 10
2.4875568904
 20
-13.3888420246
 10
2.5081866107
 20
-13.351699897
 10
2.5238344322
 20
-13.3125649703
 10
2.5339852819
 20
-13.2721948347
 10
2.5383783531
 20
-13.2305251725
 10
2.5385091505
 20
-13.2214871093
  0
LINE
  5
319
100
AcDbEntity
  8
0
100
AcDbLine
 62
7
  6
CONTINUOUS
 10
-0.8937763322
 20
-14.3674858742
 11
-0.6831422019
 21
-14.3204415735
  0
LINE
  5
31A
100
AcDbEntity
  8
0
100
AcDbLine
 62
7
  6
CONTINUOUS
 10
0.6555212477
 20
-14.0394979445
 11
0.899737335
 21
-13.9865032991
  0
LINE
  5
31B
100
AcDbEntity
  8
0
100
AcDbLine
 62
7
  6
CONTINUOUS
 10
-0.6831422019
 20
-14.3204415735
 11
-0.4583669529
 21
-14.2719914132
  0
LINE
  5
31C
100
AcDbEntity
  8
0
100
AcDbLine
 62
7
  6
CONTINUOUS
 10
0.4035160417
 20
-14.0926330343
 11
0.6555212477
 21
-14.0394979445
  0
LINE
  5
31D
100
AcDbEntity
  8
0
100
AcDbLine
 62
7
  6
CONTINUOUS
 10
-0.4583669529
 20
-14.2719914132
 11
-0.2216725972
 21
-14.22222532
  0
LINE
  5
31E
100
AcDbEntity
  8
0
100
AcDbLine
 62
7
  6
CONTINUOUS
 10
-0.2216725972
 20
-14.22222532
 11
0.4035160417
 21
-14.0926330343
  0
LWPOLYLINE
  5
31F
100
AcDbEntity
  8
RACCORDO
100
AcDbPolyline
 62
253
  6
CONTINUOUS
 90
16
 70
0
 10
-10.9125484227
 20
-19.2291733788
 10
-10.9421012601
 20
-19.2321088555
 10
-10.9709926991
 20
-19.2381704006
 10
-10.9992227394
 20
-19.2473580142
 10
-11.0270745381
 20
-19.2599441877
 10
-11.0542649383
 20
-19.2756564297
 10
-11.0799444694
 20
-19.2936772656
 10
-11.1041131313
 20
-19.3140066954
 10
-11.1267709241
 20
-19.3366447192
 10
-11.1470683773
 20
-19.3607738625
 10
-11.1650054907
 20
-19.3863941251
 10
-11.1805822644
 20
-19.4135055072
 10
-11.1929492279
 20
-19.4412905343
 10
-11.2018232241
 20
-19.4694767148
 10
-11.2074874102
 20
-19.4983365402
 10
-11.2099417859
 20
-19.5278700105
  0
LWPOLYLINE
  5
320
100
AcDbEntity
  8
RACCORDO
100
AcDbPolyline
 62
253
  6
CONTINUOUS
 90
19
 70
0
 10
-10.9125484227
 20
-17.7292304942
 10
-11.0432707376
 20
-17.7349476314
 10
-11.1729982732
 20
-17.752035627
 10
-11.3007438202
 20
-17.7803644435
 10
-11.4255352521
 20
-17.8197185023
 10
-11.5464229228
 20
-17.8697983245
 10
-11.6624868932
 20
-17.9302228091
 10
-11.7728439321
 20
-18.0005321341
 10
-11.8766542371
 20
-18.0801912547
 10
-11.9731278257
 20
-18.1685939757
 10
-12.0615305468
 20
-18.2650675643
 10
-12.1411896674
 20
-18.3688778694
 10
-12.2114989923
 20
-18.4792349082
 10
-12.271923477
 20
-18.5952988787
 10
-12.3220032991
 20
-18.7161865494
 10
-12.361357358
 20
-18.8409779813
 10
-12.3896861745
 20
-18.9687235283
 10
-12.40677417
 20
-19.0984510638
 10
-12.4124913073
 20
-19.2291733788
  0
LINE
  5
321
100
AcDbEntity
  8
RACCORDO
100
AcDbLine
 62
253
  6
CONTINUOUS
 10
-10.9125484227
 20
-17.7292304942
 11
-7.0421342702
 21
-17.7292304942
  0
LINE
  5
322
100
AcDbEntity
  8
RACCORDO
100
AcDbLine
 62
253
  6
CONTINUOUS
 10
7.1191822703
 20
-17.7292304942
 11
10.9895964229
 21
-17.7292304942
  0
LINE
  5
323
100
AcDbEntity
  8
DRAFT
100
AcDbLine
 62
7
  6
CONTINUOUS
 10
-9.0824204826
 20
-17.7195167066
 11
-7.0324204826
 21
-17.7195167066
  0
LINE
  5
324
100
AcDbEntity
  8
DRAFT
100
AcDbLine
 62
7
  6
CONTINUOUS
 10
7.1094684828
 20
-17.7195167066
 11
9.1594684828
 21
-17.7195167066
  0
LINE
  5
325
100
AcDbEntity
  8
RACCORDO
100
AcDbLine
 62
253
  6
CONTINUOUS
 10
24.5253194654
 20
-17.7117767586
 11
18.5517285348
 21
-17.7117767586
  0
LINE
  5
326
100
AcDbEntity
  8
RACCORDO
100
AcDbLine
 62
253
  6
CONTINUOUS
 10
-18.4746805346
 20
-17.7117767586
 11
-24.4482714652
 21
-17.7117767586
  0
LINE
  5
327
100
AcDbEntity
  8
DRAFT
100
AcDbLine
 62
7
  6
CONTINUOUS
 10
24.5385240001
 20
-17.6985722239
 11
18.5385240001
 21
-17.6985722239
  0
LINE
  5
328
100
AcDbEntity
  8
RACCORDO
100
AcDbLine
 62
7
  6
CONTINUOUS
 10
-10.943206693
 20
-17.6985722239
 11
-9.0614759999
 21
-17.6985722239
  0
LINE
  5
329
100
AcDbEntity
  8
DRAFT
100
AcDbLine
 62
7
  6
CONTINUOUS
 10
9.1385240001
 20
-17.6985722239
 11
8.8729362839
 21
-17.6985722239
  0
LINE
  5
32A
100
AcDbEntity
  8
DRAFT
100
AcDbLine
 62
7
  6
CONTINUOUS
 10
-8.7958882837
 20
-17.6985722239
 11
-9.0614759999
 21
-17.6985722239
  0
LINE
  5
32B
100
AcDbEntity
  8
RACCORDO
100
AcDbLine
 62
7
  6
CONTINUOUS
 10
9.1385240001
 20
-17.6985722239
 11
11.0202546931
 21
-17.6985722239
  0
LINE
  5
32C
100
AcDbEntity
  8
DRAFT
100
AcDbLine
 62
7
  6
CONTINUOUS
 10
-18.4614759999
 20
-17.6985722239
 11
-24.4614759999
 21
-17.6985722239
  0
LINE
  5
32D
100
AcDbEntity
  8
RACCORDO
100
AcDbLine
 62
7
  6
CONTINUOUS
 10
6.9385240001
 20
-17.2485722239
 11
8.0184141258
 21
-17.2485722239
  0
LINE
  5
32E
100
AcDbEntity
  8
RACCORDO
100
AcDbLine
 62
7
  6
CONTINUOUS
 10
-6.8614759999
 20
-17.2485722239
 11
-7.9413661256
 21
-17.2485722239
  0
LINE
  5
32F
100
AcDbEntity
  8
RACCORDO
100
AcDbLine
 62
253
  6
CONTINUOUS
 10
6.9385240001
 20
-17.1627857863
 11
-6.8614759999
 21
-17.1627857863
  0
LINE
  5
330
100
AcDbEntity
  8
RACCORDO
100
AcDbLine
 62
253
  6
CONTINUOUS
 10
-6.8614759999
 20
-14.8364401896
 11
6.9385240001
 21
-14.8364401896
  0
LINE
  5
331
100
AcDbEntity
  8
RACCORDO
100
AcDbLine
 62
7
  6
CONTINUOUS
 10
-6.8614759999
 20
-14.7485722239
 11
6.9385240001
 21
-14.7485722239
  0
LWPOLYLINE
  5
332
100
AcDbEntity
  8
RACCORDO
100
AcDbPolyline
 62
253
  6
CONTINUOUS
 90
19
 70
0
 10
10.9895964229
 20
-17.7292304942
 10
11.1189485165
 20
-17.7348282871
 10
11.2477124907
 20
-17.7516258612
 10
11.3749105019
 20
-17.7795952854
 10
11.4996824408
 20
-17.8186659059
 10
11.6209247776
 20
-17.8686138094
 10
11.7373408521
 20
-17.928958454
 10
11.847927956
 20
-17.9991592167
 10
11.9519683333
 20
-18.0787385308
 10
12.0486910491
 20
-18.1671112743
 10
12.1373659006
 20
-18.2636242632
 10
12.2172948588
 20
-18.367533028
 10
12.2878468972
 20
-18.4780237011
 10
12.3484792061
 20
-18.594244382
 10
12.3987336642
 20
-18.7153148295
 10
12.4382257449
 20
-18.8403084305
 10
12.4666540659
 20
-18.9682697901
 10
12.4838021183
 20
-19.0982222598
 10
12.4895393075
 20
-19.2291733788
  0
LWPOLYLINE
  5
333
100
AcDbEntity
  8
RACCORDO
100
AcDbPolyline
 62
253
  6
CONTINUOUS
 90
16
 70
0
 10
10.9895964229
 20
-19.2291733788
 10
11.0191284169
 20
-19.2327503478
 10
11.048003719
 20
-19.2393085321
 10
11.0762223291
 20
-19.2488479318
 10
11.1040680765
 20
-19.2616203451
 10
11.1312571319
 20
-19.2773739736
 10
11.1569380077
 20
-19.295353423
 10
11.1811107039
 20
-19.315558693
 10
11.2037752204
 20
-19.3379897838
 10
11.2240800695
 20
-19.3618913007
 10
11.2420252514
 20
-19.3872632438
 10
11.2576107659
 20
-19.414105613
 10
11.2699851254
 20
-19.4416630137
 10
11.2788645006
 20
-19.4696836478
 10
11.2845327209
 20
-19.4984193134
 10
11.2869897861
 20
-19.5278700105
  0
LWPOLYLINE
  5
334
100
AcDbEntity
  8
0
100
AcDbPolyline
 62
7
  6
CONTINUOUS
 90
4
 70
0
 10
-1.9544295106
 20
-14.7485722239
 10
-1.9699864552
 20
-14.7410317212
 10
-1.999159375
 20
-14.7255237756
 10
-2.017127565
 20
-14.7149428042
  0
LWPOLYLINE
  5
335
100
AcDbEntity
  8
RACCORDO
100
AcDbPolyline
 62
7
  6
CONTINUOUS
 90
9
 70
0
 10
12.0731128139
 20
-32.352258846
 10
12.1419730443
 20
-32.4116435847
 10
12.2053912954
 20
-32.4648007781
 10
12.2634561305
 20
-32.5119034365
 10
12.3153175431
 20
-32.5527785496
 10
12.3600479014
 20
-32.5862432884
 10
12.3975374723
 20
-32.6119033767
 10
12.4281691758
 20
-32.6301530907
 10
12.4521256491
 20
-32.6409924304
  0
LWPOLYLINE
  5
336
100
AcDbEntity
  8
RACCORDO
100
AcDbPolyline
 62
7
  6
CONTINUOUS
 90
4
 70
0
 10
11.7433276858
 20
-32.0597462137
 10
11.8331399133
 20
-32.1411646766
 10
11.918359971
 20
-32.2170193919
 10
12.0731128139
 20
-32.352258846
  0
LINE
  5
337
100
AcDbEntity
  8
RACCORDO
100
AcDbLine
 62
253
  6
CONTINUOUS
 10
5.0516143018
 20
-30.5616815641
 11
5.0385240001
 21
-30.5485912624
  0
LINE
  5
338
100
AcDbEntity
  8
DRAFT
100
AcDbLine
 62
7
  6
CONTINUOUS
 10
7.132158339
 20
-28.2422065629
 11
7.1094684828
 21
-28.2195167066
  0
LINE
  5
339
100
AcDbEntity
  8
DRAFT
100
AcDbLine
 62
7
  6
CONTINUOUS
 10
12.5201975777
 20
-32.9811184883
 11
12.5182636903
 21
-32.9791846009
  0
LINE
  5
33A
100
AcDbEntity
  8
RACCORDO
100
AcDbLine
 62
7
  6
CONTINUOUS
 10
-9.1971440677
 20
-32.6409924304
 11
-9.1634098873
 21
-32.9791846009
  0
LWPOLYLINE
  5
33B
100
AcDbEntity
  8
0
100
AcDbPolyline
 62
7
  6
CONTINUOUS
 90
25
 70
0
 10
-4.9614759999
 20
-46.7853738204
 10
-4.9600296982
 20
-46.8005289081
 10
-4.9554691663
 20
-46.8151198713
 10
-4.9477944041
 20
-46.8291465994
 10
-4.9371031402
 20
-46.8426271231
 10
-4.923297646
 20
-46.8555420843
 10
-4.9060847359
 20
-46.8678421594
 10
-4.8854979038
 20
-46.879548193
 10
-4.8615036557
 20
-46.8906523294
 10
-4.8337083243
 20
-46.9010815186
 10
-4.8020819923
 20
-46.9108837332
 10
-4.7666545768
 20
-46.9200474663
 10
-4.7271221625
 20
-46.9284483136
 10
-4.6833803728
 20
-46.9361468088
 10
-4.6355335842
 20
-46.943167642
 10
-4.5835910111
 20
-46.9493881557
 10
-4.5273531092
 20
-46.9548875704
 10
-4.4670194227
 20
-46.9597206465
 10
-4.4031977979
 20
-46.9637845235
 10
-4.3356005183
 20
-46.9671539866
 10
-4.2645153004
 20
-46.969909976
 10
-4.1914131401
 20
-46.9719924858
 10
-4.1167843692
 20
-46.9734249692
 10
-4.0401386558
 20
-46.9742946441
 10
-3.9614759999
 20
-46.9746294087
  0
LWPOLYLINE
  5
33C
100
AcDbEntity
  8
RACCORDO
100
AcDbPolyline
 62
253
  6
CONTINUOUS
 90
31
 70
0
 10
-10.9125484227
 20
-19.2291733788
 10
-10.9198814102
 20
-19.1193362898
 10
-10.9353030644
 20
-19.0120797504
 10
-10.9583399392
 20
-18.9079581309
 10
-10.9884615857
 20
-18.806662115
 10
-11.0252524963
 20
-18.7093720637
 10
-11.0685555116
 20
-18.6185979258
 10
-11.1185715904
 20
-18.5342930909
 10
-11.1745518805
 20
-18.456763561
 10
-11.2353458036
 20
-18.3885911633
 10
-11.3015337156
 20
-18.3301734933
 10
-11.3724741499
 20
-18.2811760704
 10
-11.4456479091
 20
-18.2426927351
 10
-11.5210125641
 20
-18.2151724214
 10
-11.5985229878
 20
-18.198543282
 10
-11.675969939
 20
-18.1927787844
 10
-11.7530665328
 20
-18.198212238
 10
-11.829682884
 20
-18.2150050187
 10
-11.9040780745
 20
-18.2424825602
 10
-11.9759015755
 20
-18.2807372716
 10
-12.0448097193
 20
-18.3298239727
 10
-12.1093499092
 20
-18.3885577543
 10
-12.1691876999
 20
-18.4567676388
 10
-12.2239094525
 20
-18.5340865878
 10
-12.2723329741
 20
-18.6185979258
 10
-12.3141577594
 20
-18.7095644029
 10
-12.3491176074
 20
-18.8065828854
 10
-12.3765742732
 20
-18.9078969071
 10
-12.3963461307
 20
-19.0123833146
 10
-12.4083894683
 20
-19.1197024098
 10
-12.4124913073
 20
-19.2291733788
  0
LINE
  5
33D
100
AcDbEntity
  8
RACCORDO
100
AcDbLine
 62
253
  6
CONTINUOUS
 10
-12.4117352604
 20
-19.2489007125
 11
-12.4112549815
 21
-19.2774459269
  0
LINE
  5
33E
100
AcDbEntity
  8
RACCORDO
100
AcDbLine
 62
253
  6
CONTINUOUS
 10
-12.4112549815
 20
-19.2774459269
 11
-12.4106221755
 21
-19.3380681457
  0
LINE
  5
33F
100
AcDbEntity
  8
RACCORDO
100
AcDbLine
 62
253
  6
CONTINUOUS
 10
-12.4106221755
 20
-19.3380681457
 11
-12.4100444596
 21
-19.4417114958
  0
LINE
  5
340
100
AcDbEntity
  8
DRAFT
100
AcDbLine
 62
7
  6
CONTINUOUS
 10
-12.4614759999
 20
31.2514277761
 11
-12.4614759999
 21
30.1514277761
  0
LINE
  5
341
100
AcDbEntity
  8
DRAFT
100
AcDbLine
 62
7
  6
CONTINUOUS
 10
-12.4614759999
 20
-30.1485722239
 11
-12.4614759999
 21
-31.2485722239
  0
LINE
  5
342
100
AcDbEntity
  8
DRAFT
100
AcDbLine
 62
7
  6
CONTINUOUS
 10
-12.4431495776
 20
-32.9811184883
 11
-12.4431495776
 21
-32.0168986463
  0
LINE
  5
343
100
AcDbEntity
  8
RACCORDO
100
AcDbLine
 62
7
  6
CONTINUOUS
 10
-12.4431495776
 20
-19.6802458016
 11
-12.4431495776
 21
-19.1985151085
  0
LINE
  5
344
100
AcDbEntity
  8
RACCORDO
100
AcDbLine
 62
253
  6
CONTINUOUS
 10
-12.4098960936
 20
-32.665199135
 11
-12.4098960936
 21
-32.0501521303
  0
LINE
  5
345
100
AcDbEntity
  8
RACCORDO
100
AcDbLine
 62
253
  6
CONTINUOUS
 10
-12.4098960936
 20
-19.6469923176
 11
-12.4100444596
 21
-19.4417114958
  0
LINE
  5
346
100
AcDbEntity
  8
RACCORDO
100
AcDbLine
 62
253
  6
CONTINUOUS
 10
-11.2099417859
 20
-19.6366114626
 11
-11.2099417859
 21
-19.5278700105
  0
LINE
  5
347
100
AcDbEntity
  8
RACCORDO
100
AcDbLine
 62
253
  6
CONTINUOUS
 10
-10.9125484227
 20
-17.7292304942
 11
-10.9125484227
 21
-19.2291733788
  0
LINE
  5
348
100
AcDbEntity
  8
DRAFT
100
AcDbLine
 62
7
  6
CONTINUOUS
 10
-10.7614759999
 20
32.0014277761
 11
-10.7614759999
 21
30.1514277761
  0
LINE
  5
349
100
AcDbEntity
  8
DRAFT
100
AcDbLine
 62
7
  6
CONTINUOUS
 10
-10.7614759999
 20
26.0005550893
 11
-10.7614759999
 21
25.5014277761
  0
LINE
  5
34A
100
AcDbEntity
  8
DRAFT
100
AcDbLine
 62
7
  6
CONTINUOUS
 10
-10.7614759999
 20
-25.4985722239
 11
-10.7614759999
 21
-25.9976995371
  0
LINE
  5
34B
100
AcDbEntity
  8
DRAFT
100
AcDbLine
 62
7
  6
CONTINUOUS
 10
-10.7614759999
 20
-30.1485722239
 11
-10.7614759999
 21
-31.9985722239
  0
LINE
  5
34C
100
AcDbEntity
  8
DRAFT
100
AcDbLine
 62
7
  6
CONTINUOUS
 10
-10.7606033131
 20
30.1523004629
 11
-10.7606033131
 21
26.0014277761
  0
LINE
  5
34D
100
AcDbEntity
  8
DRAFT
100
AcDbLine
 62
7
  6
CONTINUOUS
 10
-10.7606033131
 20
-25.9985722239
 11
-10.7606033131
 21
-30.1494449107
  0
LINE
  5
34E
100
AcDbEntity
  8
DRAFT
100
AcDbLine
 62
7
  6
CONTINUOUS
 10
-10.7431495776
 20
32.0197541984
 11
-10.7431495776
 21
25.4831013537
  0
LINE
  5
34F
100
AcDbEntity
  8
DRAFT
100
AcDbLine
 62
7
  6
CONTINUOUS
 10
-10.7431495776
 20
-25.4802458016
 11
-10.7431495776
 21
-19.6802458016
  0
LINE
  5
350
100
AcDbEntity
  8
RACCORDO
100
AcDbLine
 62
7
  6
CONTINUOUS
 10
-10.6995152386
 20
-19.6366114626
 11
-10.6995152386
 21
-31.6447977323
  0
LINE
  5
351
100
AcDbEntity
  8
RACCORDO
100
AcDbLine
 62
7
  6
CONTINUOUS
 10
-9.2051103389
 20
-31.6447977323
 11
-9.2051103389
 21
-31.204937885
  0
LINE
  5
352
100
AcDbEntity
  8
DRAFT
100
AcDbLine
 62
7
  6
CONTINUOUS
 10
-9.2051103389
 20
-24.154937885
 11
-9.2051103389
 21
-28.2422065629
  0
LINE
  5
353
100
AcDbEntity
  8
DRAFT
100
AcDbLine
 62
7
  6
CONTINUOUS
 10
-9.1614759999
 20
-24.1985722239
 11
-9.1614759999
 21
-28.1985722239
  0
LINE
  5
354
100
AcDbEntity
  8
DRAFT
100
AcDbLine
 62
7
  6
CONTINUOUS
 10
-9.1614759999
 20
-31.2485722239
 11
-9.1614759999
 21
-32.9811184883
  0
LINE
  5
355
100
AcDbEntity
  8
DRAFT
100
AcDbLine
 62
7
  6
CONTINUOUS
 10
-9.0614759999
 20
-17.6985722239
 11
-9.0614759999
 21
-17.7195167066
  0
LINE
  5
356
100
AcDbEntity
  8
DRAFT
100
AcDbLine
 62
7
  6
CONTINUOUS
 10
-9.0614759999
 20
-24.1776277412
 11
-9.0614759999
 21
-24.1985722239
  0
LINE
  5
357
100
AcDbEntity
  8
DRAFT
100
AcDbLine
 62
7
  6
CONTINUOUS
 10
-9.0614759999
 20
-27.9985722239
 11
-9.0614759999
 21
-28.2195167066
  0
LINE
  5
358
100
AcDbEntity
  8
DRAFT
100
AcDbLine
 62
7
  6
CONTINUOUS
 10
-9.0614759999
 20
-31.2276277412
 11
-9.0614759999
 21
-31.2485722239
  0
LINE
  5
359
100
AcDbEntity
  8
RACCORDO
100
AcDbLine
 62
7
  6
CONTINUOUS
 10
-8.9614759999
 20
-24.1776277412
 11
-8.9614759999
 21
-28.2195167066
  0
LINE
  5
35A
100
AcDbEntity
  8
RACCORDO
100
AcDbLine
 62
7
  6
CONTINUOUS
 10
-8.9614759999
 20
-31.2276277412
 11
-8.9614759999
 21
-36.0486103008
  0
LINE
  5
35B
100
AcDbEntity
  8
RACCORDO
100
AcDbLine
 62
7
  6
CONTINUOUS
 10
-8.941404204
 20
-24.1776277412
 11
-8.941404204
 21
-28.2195167066
  0
LINE
  5
35C
100
AcDbEntity
  8
RACCORDO
100
AcDbLine
 62
7
  6
CONTINUOUS
 10
-8.941404204
 20
-31.2276277412
 11
-8.941404204
 21
-36.0285385049
  0
LINE
  5
35D
100
AcDbEntity
  8
RACCORDO
100
AcDbLine
 62
7
  6
CONTINUOUS
 10
-12.4098960936
 20
-32.665199135
 11
-12.4412156902
 21
-32.9791846009
  0
LINE
  5
35E
100
AcDbEntity
  8
DRAFT
100
AcDbLine
 62
7
  6
CONTINUOUS
 10
3.0385240001
 20
17.7350505958
 11
3.033280608
 21
17.7298072037
  0
LINE
  5
35F
100
AcDbEntity
  8
DRAFT
100
AcDbLine
 62
7
  6
CONTINUOUS
 10
10.8385240001
 20
25.5014277761
 11
10.8201975777
 21
25.4831013537
  0
LINE
  5
360
100
AcDbEntity
  8
DRAFT
100
AcDbLine
 62
7
  6
CONTINUOUS
 10
18.2568504224
 20
32.0197541984
 11
18.2385240001
 21
32.0014277761
  0
LWPOLYLINE
  5
361
100
AcDbEntity
  8
0
100
AcDbPolyline
 62
7
  6
CONTINUOUS
 90
31
 70
0
 10
-0.8098361004
 20
-13.9472221835
 10
-0.9230455528
 20
-13.972460235
 10
-1.0320216169
 20
-13.9973128726
 10
-1.1362881843
 20
-14.0217063177
 10
-1.235522198
 20
-14.0455871301
 10
-1.3299153965
 20
-14.0690158499
 10
-1.4198187764
 20
-14.092094068
 10
-1.5051892904
 20
-14.11482379
 10
-1.5860434377
 20
-14.1372169285
 10
-1.6627976883
 20
-14.1593984962
 10
-1.7354583948
 20
-14.181383502
 10
-1.8040337966
 20
-14.2031842405
 10
-1.868908796
 20
-14.2249388594
 10
-1.9301905005
 20
-14.2467104585
 10
-1.9877861571
 20
-14.2684934368
 10
-2.0418079638
 20
-14.2903578127
 10
-2.092293385
 20
-14.3123512524
 10
-2.1393245376
 20
-14.3345465222
 10
-2.1831619384
 20
-14.3571231356
 10
-2.2238341645
 20
-14.3801756076
 10
-2.2614488538
 20
-14.4038653745
 10
-2.296397399
 20
-14.4286129906
 10
-2.3285595811
 20
-14.4545946835
 10
-2.3579052268
 20
-14.4821290391
 10
-2.3847753824
 20
-14.5121335954
 10
-2.4091642442
 20
-14.545629012
 10
-2.4299486955
 20
-14.5823956681
 10
-2.4458773316
 20
-14.6212468753
 10
-2.4564037829
 20
-14.6614741679
 10
-2.461223077
 20
-14.7031381061
 10
-2.4614577548
 20
-14.7150531115
  0
LINE
  5
362
100
AcDbEntity
  8
0
100
AcDbLine
 62
7
  6
CONTINUOUS
 10
0.8957877966
 20
-13.586061858
 11
0.6711554777
 21
-13.6354923336
  0
LINE
  5
363
100
AcDbEntity
  8
0
100
AcDbLine
 62
7
  6
CONTINUOUS
 10
-0.5709802792
 20
-13.89546788
 11
-0.8098361004
 21
-13.9472221835
  0
LINE
  5
364
100
AcDbEntity
  8
0
100
AcDbLine
 62
7
  6
CONTINUOUS
 10
0.6711554777
 20
-13.6354923336
 11
0.4339588061
 21
-13.6860251122
  0
LINE
  5
365
100
AcDbEntity
  8
0
100
AcDbLine
 62
7
  6
CONTINUOUS
 10
-0.3214911991
 20
-13.8428927485
 11
-0.5709802792
 21
-13.89546788
  0
LWPOLYLINE
  5
366
100
AcDbEntity
  8
0
100
AcDbPolyline
 62
7
  6
CONTINUOUS
 90
3
 70
0
 10
0.4339588061
 20
-13.6860251122
 10
0.0605427062
 20
-13.7637311783
 10
-0.3214911991
 20
-13.8428927485
  0
LWPOLYLINE
  5
367
100
AcDbEntity
  8
0
100
AcDbPolyline
 62
7
  6
CONTINUOUS
 90
13
 70
0
 10
-2.2009793937
 20
-12.8527039386
 10
-2.2008396581
 20
-12.8526763956
 10
-2.199995934
 20
-12.8525169566
 10
-2.1986179106
 20
-12.8522719839
 10
-2.1968070968
 20
-12.8519685607
 10
-2.1945694547
 20
-12.8516140269
 10
-2.191883057
 20
-12.8512106959
 10
-2.1888107653
 20
-12.8507726487
 10
-2.1853540143
 20
-12.8503035016
 10
-2.1814995611
 20
-12.8498046032
 10
-2.177291637
 20
-12.8492842106
 10
-2.1727348755
 20
-12.8487447558
 10
-2.1678172241
 20
-12.8481865342
  0
LWPOLYLINE
  5
368
100
AcDbEntity
  8
0
100
AcDbPolyline
 62
7
  6
CONTINUOUS
 90
13
 70
0
 10
2.2779998096
 20
-12.2782198866
 10
2.2778498735
 20
-12.2782493281
 10
2.2769387948
 20
-12.278420654
 10
2.2754594851
 20
-12.2786818778
 10
2.2735347325
 20
-12.2790017811
 10
2.271176868
 20
-12.2793719808
 10
2.2683632467
 20
-12.279790316
 10
2.2651706483
 20
-12.2802409345
 10
2.2616103109
 20
-12.2807192533
 10
2.2576663235
 20
-12.2812246815
 10
2.253376597
 20
-12.2817501023
 10
2.2487437147
 20
-12.2822935011
 10
2.2437597368
 20
-12.2828542399
  0
LWPOLYLINE
  5
369
100
AcDbEntity
  8
0
100
AcDbPolyline
 62
7
  6
CONTINUOUS
 90
34
 70
0
 10
-2.2011465611
 20
-12.4497042595
 10
-2.2088543733
 20
-12.450535233
 10
-2.2162938784
 20
-12.4513735648
 10
-2.2234726345
 20
-12.4522206128
 10
-2.2304292323
 20
-12.4530817953
 10
-2.2371687528
 20
-12.4539590036
 10
-2.2436994819
 20
-12.4548547418
 10
-2.2500684896
 20
-12.4557775418
 10
-2.2562698515
 20
-12.4567291982
 10
-2.2623282382
 20
-12.4577165182
 10
-2.2683413883
 20
-12.4587604688
 10
-2.2742883677
 20
-12.4598641249
 10
-2.2802104209
 20
-12.4610428052
 10
-2.286300435
 20
-12.4623484355
 10
-2.2925104612
 20
-12.463789487
 10
-2.2989025295
 20
-12.4654020075
 10
-2.305831134
 20
-12.4673143331
 10
-2.3132521877
 20
-12.4695722653
 10
-2.3211960193
 20
-12.4722535312
 10
-2.3301112773
 20
-12.475619539
 10
-2.3400800829
 20
-12.4798741307
 10
-2.3508965767
 20
-12.4851383862
 10
-2.3625325758
 20
-12.4916447077
 10
-2.374999169
 20
-12.4997259977
 10
-2.3879048276
 20
-12.50952492
 10
-2.4006053177
 20
-12.5209306268
 10
-2.412825207
 20
-12.5340506246
 10
-2.4243457453
 20
-12.5489819047
 10
-2.4347054267
 20
-12.5654011553
 10
-2.4436714533
 20
-12.5831559828
 10
-2.4510755037
 20
-12.6022101903
 10
-2.456650376
 20
-12.6222819656
 10
-2.4601840348
 20
-12.6431449263
 10
-2.4614759873
 20
-12.6654655762
  0
LWPOLYLINE
  5
36A
100
AcDbEntity
  8
0
100
AcDbPolyline
 62
7
  6
CONTINUOUS
 90
34
 70
0
 10
2.2777999253
 20
-12.6812556854
 10
2.2854637034
 20
-12.6804313934
 10
2.2928687627
 20
-12.6795992443
 10
2.300025575
 20
-12.6787574493
 10
2.3069785879
 20
-12.6778997136
 10
2.3137258413
 20
-12.6770247876
 10
2.3202787359
 20
-12.6761295255
 10
2.3267027672
 20
-12.6752023554
 10
2.3329976767
 20
-12.6742396804
 10
2.3391735893
 20
-12.6732358568
 10
2.3453173006
 20
-12.6721708066
 10
2.3514072909
 20
-12.6710405984
 10
2.3574832007
 20
-12.6698291076
 10
2.3637309903
 20
-12.6684844707
 10
2.3701048451
 20
-12.6669963475
 10
2.376667504
 20
-12.6653266783
 10
2.3837683051
 20
-12.6633453181
 10
2.391374682
 20
-12.6609999378
 10
2.3995084341
 20
-12.6582111649
 10
2.4085837877
 20
-12.6547236896
 10
2.4186845912
 20
-12.6503298447
 10
2.4296020276
 20
-12.6449089945
 10
2.4412668169
 20
-12.6382514756
 10
2.4536684607
 20
-12.6300470878
 10
2.4664424606
 20
-12.6201544123
 10
2.4789768565
 20
-12.6086789984
 10
2.4909991427
 20
-12.595530751
 10
2.5023077474
 20
-12.580618712
 10
2.5124797035
 20
-12.5642249756
 10
2.5212774717
 20
-12.546500793
 10
2.5285296272
 20
-12.5274755566
 10
2.5339787649
 20
-12.5073642925
 10
2.5373893928
 20
-12.486366188
 10
2.5385239882
 20
-12.4654529571
  0
LINE
  5
36B
100
AcDbEntity
  8
0
100
AcDbLine
 62
7
  6
CONTINUOUS
 10
-2.1678172241
 20
-12.8481865342
 11
-2.1569616658
 21
-12.8470265424
  0
LINE
  5
36C
100
AcDbEntity
  8
0
100
AcDbLine
 62
7
  6
CONTINUOUS
 10
2.2437597368
 20
-12.2828542399
 11
2.2328035342
 21
-12.2840153972
  0
LINE
  5
36D
100
AcDbEntity
  8
0
100
AcDbLine
 62
7
  6
CONTINUOUS
 10
-2.1848771143
 20
-12.4480577322
 11
-2.2011465611
 21
-12.4497042595
  0
LINE
  5
36E
100
AcDbEntity
  8
0
100
AcDbLine
 62
7
  6
CONTINUOUS
 10
2.261669671
 20
-12.6828854329
 11
2.2777999253
 21
-12.6812556854
  0
LINE
  5
36F
100
AcDbEntity
  8
0
100
AcDbLine
 62
7
  6
CONTINUOUS
 10
-2.1569616658
 20
-12.8470265424
 11
-2.1447320081
 21
-12.8458145945
  0
LINE
  5
370
100
AcDbEntity
  8
0
100
AcDbLine
 62
7
  6
CONTINUOUS
 10
2.2328035342
 20
-12.2840153972
 11
2.2205255479
 21
-12.2852233109
  0
LINE
  5
371
100
AcDbEntity
  8
0
100
AcDbLine
 62
7
  6
CONTINUOUS
 10
2.2443697752
 20
-12.6845018708
 11
2.261669671
 21
-12.6828854329
  0
LINE
  5
372
100
AcDbEntity
  8
0
100
AcDbLine
 62
7
  6
CONTINUOUS
 10
-2.1673408154
 20
-12.4464181925
 11
-2.1848771143
 21
-12.4480577322
  0
LINE
  5
373
100
AcDbEntity
  8
0
100
AcDbLine
 62
7
  6
CONTINUOUS
 10
-2.1447320081
 20
-12.8458145945
 11
-2.1311339556
 21
-12.8445588838
  0
LINE
  5
374
100
AcDbEntity
  8
0
100
AcDbLine
 62
7
  6
CONTINUOUS
 10
2.2205255479
 20
-12.2852233109
 11
2.2069486684
 21
-12.2864692877
  0
LINE
  5
375
100
AcDbEntity
  8
0
100
AcDbLine
 62
7
  6
CONTINUOUS
 10
2.2258212945
 20
-12.6861130882
 11
2.2443697752
 21
-12.6845018708
  0
LINE
  5
376
100
AcDbEntity
  8
0
100
AcDbLine
 62
7
  6
CONTINUOUS
 10
-2.1484509068
 20
-12.4447782262
 11
-2.1673408154
 21
-12.4464181925
  0
LINE
  5
377
100
AcDbEntity
  8
0
100
AcDbLine
 62
7
  6
CONTINUOUS
 10
-2.1311339556
 20
-12.8445588838
 11
-2.1161580444
 21
-12.8432647389
  0
LINE
  5
378
100
AcDbEntity
  8
0
100
AcDbLine
 62
7
  6
CONTINUOUS
 10
2.2069486684
 20
-12.2864692877
 11
2.1920758844
 21
-12.2877480224
  0
LINE
  5
379
100
AcDbEntity
  8
0
100
AcDbLine
 62
7
  6
CONTINUOUS
 10
-2.1161580444
 20
-12.8432647389
 11
-2.0997837801
 21
-12.8419356527
  0
LINE
  5
37A
100
AcDbEntity
  8
0
100
AcDbLine
 62
7
  6
CONTINUOUS
 10
2.2059618747
 20
-12.6877243473
 11
2.2258212945
 21
-12.6861130882
  0
LINE
  5
37B
100
AcDbEntity
  8
0
100
AcDbLine
 62
7
  6
CONTINUOUS
 10
2.1920758844
 20
-12.2877480224
 11
2.1758998099
 21
-12.2890559963
  0
LINE
  5
37C
100
AcDbEntity
  8
0
100
AcDbLine
 62
7
  6
CONTINUOUS
 10
-2.1281324721
 20
-12.4431327073
 11
-2.1484509068
 21
-12.4447782262
  0
LINE
  5
37D
100
AcDbEntity
  8
0
100
AcDbLine
 62
7
  6
CONTINUOUS
 10
2.1847250271
 20
-12.6893403361
 11
2.2059618747
 21
-12.6877243473
  0
LINE
  5
37E
100
AcDbEntity
  8
0
100
AcDbLine
 62
7
  6
CONTINUOUS
 10
-2.1063080879
 20
-12.4414771764
 11
-2.1281324721
 21
-12.4431327073
  0
LINE
  5
37F
100
AcDbEntity
  8
0
100
AcDbLine
 62
7
  6
CONTINUOUS
 10
-2.0997837801
 20
-12.8419356527
 11
-2.0725549043
 21
-12.8398826571
  0
LINE
  5
380
100
AcDbEntity
  8
0
100
AcDbLine
 62
7
  6
CONTINUOUS
 10
2.1758998099
 20
-12.2890559963
 11
2.1491780939
 21
-12.2910663958
  0
LINE
  5
381
100
AcDbEntity
  8
0
100
AcDbLine
 62
7
  6
CONTINUOUS
 10
2.1501718347
 20
-12.6917795249
 11
2.1847250271
 21
-12.6893403361
  0
LINE
  5
382
100
AcDbEntity
  8
0
100
AcDbLine
 62
7
  6
CONTINUOUS
 10
-2.0706104937
 20
-12.4389692625
 11
-2.1063080879
 21
-12.4414771764
  0
LINE
  5
383
100
AcDbEntity
  8
0
100
AcDbLine
 62
7
  6
CONTINUOUS
 10
-2.0725549043
 20
-12.8398826571
 11
-2.0420362795
 21
-12.8377633361
  0
LINE
  5
384
100
AcDbEntity
  8
0
100
AcDbLine
 62
7
  6
CONTINUOUS
 10
2.1491780939
 20
-12.2910663958
 11
2.1194630961
 21
-12.2931296938
  0
LINE
  5
385
100
AcDbEntity
  8
0
100
AcDbLine
 62
7
  6
CONTINUOUS
 10
2.1122398015
 20
-12.694243156
 11
2.1501718347
 21
-12.6917795249
  0
LINE
  5
386
100
AcDbEntity
  8
0
100
AcDbLine
 62
7
  6
CONTINUOUS
 10
2.1194630961
 20
-12.2931296938
 11
2.0866944159
 21
-12.2952419969
  0
LINE
  5
387
100
AcDbEntity
  8
0
100
AcDbLine
 62
7
  6
CONTINUOUS
 10
-2.0420362795
 20
-12.8377633361
 11
-2.0081285584
 21
-12.8355820261
  0
LINE
  5
388
100
AcDbEntity
  8
0
100
AcDbLine
 62
7
  6
CONTINUOUS
 10
-2.0311743501
 20
-12.4364252482
 11
-2.0706104937
 21
-12.4389692625
  0
LINE
  5
389
100
AcDbEntity
  8
0
100
AcDbLine
 62
7
  6
CONTINUOUS
 10
-1.9877833964
 20
-12.4338384603
 11
-2.0311743501
 21
-12.4364252482
  0
LINE
  5
38A
100
AcDbEntity
  8
0
100
AcDbLine
 62
7
  6
CONTINUOUS
 10
2.0866944159
 20
-12.2952419969
 11
2.0381290139
 21
-12.298130816
  0
LINE
  5
38B
100
AcDbEntity
  8
0
100
AcDbLine
 62
7
  6
CONTINUOUS
 10
2.0561687233
 20
-12.697574054
 11
2.1122398015
 21
-12.694243156
  0
LINE
  5
38C
100
AcDbEntity
  8
0
100
AcDbLine
 62
7
  6
CONTINUOUS
 10
-2.0081285584
 20
-12.8355820261
 11
-1.957504915
 21
-12.8325843405
  0
LINE
  5
38D
100
AcDbEntity
  8
0
100
AcDbLine
 62
7
  6
CONTINUOUS
 10
-1.9234054485
 20
-12.4303133918
 11
-1.9877833964
 21
-12.4338384603
  0
LINE
  5
38E
100
AcDbEntity
  8
0
100
AcDbLine
 62
7
  6
CONTINUOUS
 10
-1.957504915
 20
-12.8325843405
 11
-1.9005268523
 21
-12.8294913309
  0
LINE
  5
38F
100
AcDbEntity
  8
0
100
AcDbLine
 62
7
  6
CONTINUOUS
 10
1.9935446676
 20
-12.7009648975
 11
2.0561687233
 21
-12.697574054
  0
LINE
  5
390
100
AcDbEntity
  8
0
100
AcDbLine
 62
7
  6
CONTINUOUS
 10
2.0381290139
 20
-12.298130816
 11
1.9693658047
 21
-12.3018526379
  0
LINE
  5
391
100
AcDbEntity
  8
0
100
AcDbLine
 62
7
  6
CONTINUOUS
 10
-1.9005268523
 20
-12.8294913309
 11
-1.8201247772
 21
-12.8254995145
  0
LINE
  5
392
100
AcDbEntity
  8
0
100
AcDbLine
 62
7
  6
CONTINUOUS
 10
-1.8317659602
 20
-12.4257708599
 11
-1.9234054485
 21
-12.4303133918
  0
LINE
  5
393
100
AcDbEntity
  8
0
100
AcDbLine
 62
7
  6
CONTINUOUS
 10
1.9056230868
 20
-12.7052975949
 11
1.9935446676
 21
-12.7009648975
  0
LINE
  5
394
100
AcDbEntity
  8
0
100
AcDbLine
 62
7
  6
CONTINUOUS
 10
1.9693658047
 20
-12.3018526379
 11
1.8748316441
 21
-12.3064663504
  0
LINE
  5
395
100
AcDbEntity
  8
0
100
AcDbLine
 62
7
  6
CONTINUOUS
 10
-1.8201247772
 20
-12.8254995145
 11
-1.7098444788
 21
-12.8205355511
  0
LINE
  5
396
100
AcDbEntity
  8
0
100
AcDbLine
 62
7
  6
CONTINUOUS
 10
1.7854139781
 20
-12.7106444728
 11
1.9056230868
 21
-12.7052975949
  0
LINE
  5
397
100
AcDbEntity
  8
0
100
AcDbLine
 62
7
  6
CONTINUOUS
 10
-1.7042269632
 20
-12.4200991229
 11
-1.8317659602
 21
-12.4257708599
  0
LINE
  5
398
100
AcDbEntity
  8
0
100
AcDbLine
 62
7
  6
CONTINUOUS
 10
1.8748316441
 20
-12.3064663504
 11
1.7478761776
 21
-12.3120304457
  0
LINE
  5
399
100
AcDbEntity
  8
0
100
AcDbLine
 62
7
  6
CONTINUOUS
 10
-1.7098444788
 20
-12.8205355511
 11
-1.5388783693
 21
-12.8136360045
  0
LINE
  5
39A
100
AcDbEntity
  8
0
100
AcDbLine
 62
7
  6
CONTINUOUS
 10
-1.5297392465
 20
-12.4131615877
 11
-1.7042269632
 21
-12.4200991229
  0
LINE
  5
39B
100
AcDbEntity
  8
0
100
AcDbLine
 62
7
  6
CONTINUOUS
 10
1.5993182187
 20
-12.7180377005
 11
1.7854139781
 21
-12.7106444728
  0
LINE
  5
39C
100
AcDbEntity
  8
0
100
AcDbLine
 62
7
  6
CONTINUOUS
 10
1.7478761776
 20
-12.3120304457
 11
1.5586162832
 21
-12.31943662
  0
LINE
  5
39D
100
AcDbEntity
  8
0
100
AcDbLine
 62
7
  6
CONTINUOUS
 10
-1.5388783693
 20
-12.8136360045
 11
-1.2850547543
 21
-12.8045313763
  0
LINE
  5
39E
100
AcDbEntity
  8
0
100
AcDbLine
 62
7
  6
CONTINUOUS
 10
-1.2353778286
 20
-12.4027970951
 11
-1.5297392465
 21
-12.4131615877
  0
LINE
  5
39F
100
AcDbEntity
  8
0
100
AcDbLine
 62
7
  6
CONTINUOUS
 10
1.2950015518
 20
-12.7286975335
 11
1.5993182187
 21
-12.7180377005
  0
LINE
  5
3A0
100
AcDbEntity
  8
0
100
AcDbLine
 62
7
  6
CONTINUOUS
 10
1.5586162832
 20
-12.31943662
 11
1.2887703165
 21
-12.3288418892
  0
LINE
  5
3A1
100
AcDbEntity
  8
0
100
AcDbLine
 62
7
  6
CONTINUOUS
 10
-1.2850547543
 20
-12.8045313763
 11
-0.9520055983
 21
-12.793819934
  0
LINE
  5
3A2
100
AcDbEntity
  8
0
100
AcDbLine
 62
7
  6
CONTINUOUS
 10
1.2887703165
 20
-12.3288418892
 11
0.9475718226
 21
-12.3395781197
  0
LINE
  5
3A3
100
AcDbEntity
  8
0
100
AcDbLine
 62
7
  6
CONTINUOUS
 10
0.5808397553
 20
-12.7503099225
 11
1.2950015518
 21
-12.7286975335
  0
LINE
  5
3A4
100
AcDbEntity
  8
0
100
AcDbLine
 62
7
  6
CONTINUOUS
 10
-0.9520055983
 20
-12.793819934
 11
-0.3430297916
 21
-12.7760713519
  0
LINE
  5
3A5
100
AcDbEntity
  8
0
100
AcDbLine
 62
7
  6
CONTINUOUS
 10
0.9475718226
 20
-12.3395781197
 11
0.3881275605
 21
-12.3557430823
  0
LINE
  5
3A6
100
AcDbEntity
  8
0
100
AcDbLine
 62
7
  6
CONTINUOUS
 10
-0.3430297916
 20
-12.7760713519
 11
0.5808397553
 21
-12.7503099225
  0
LINE
  5
3A7
100
AcDbEntity
  8
0
100
AcDbLine
 62
7
  6
CONTINUOUS
 10
0.3881275605
 20
-12.3557430823
 11
-1.2353778286
 21
-12.4027970951
  0
LINE
  5
3A8
100
AcDbEntity
  8
DRAFT
100
AcDbLine
 62
7
  6
CONTINUOUS
 10
-2.8528424589
 20
-10.9985722239
 11
2.929890459
 21
-10.9985722239
  0
LINE
  5
3A9
100
AcDbEntity
  8
0
100
AcDbLine
 62
7
  6
CONTINUOUS
 10
0.8439485788
 20
-12.9882455657
 11
1.1801282228
 21
-12.9985483007
  0
LINE
  5
3AA
100
AcDbEntity
  8
0
100
AcDbLine
 62
7
  6
CONTINUOUS
 10
-1.2792443175
 20
-12.9266548777
 11
0.8439485788
 21
-12.9882455657
  0
LINE
  5
3AB
100
AcDbEntity
  8
0
100
AcDbLine
 62
7
  6
CONTINUOUS
 10
1.5381392839
 20
-12.2106202477
 11
1.1831173682
 21
-12.1985960164
  0
LINE
  5
3AC
100
AcDbEntity
  8
0
100
AcDbLine
 62
7
  6
CONTINUOUS
 10
-1.5441263708
 20
-12.9172123639
 11
-1.2792443175
 21
-12.9266548777
  0
LINE
  5
3AD
100
AcDbEntity
  8
0
100
AcDbLine
 62
7
  6
CONTINUOUS
 10
1.743380478
 20
-12.2185237922
 11
1.5381392839
 21
-12.2106202477
  0
LWPOLYLINE
  5
3AE
100
AcDbEntity
  8
0
100
AcDbPolyline
 62
7
  6
CONTINUOUS
 90
10
 70
0
 10
1.1801444192
 20
-12.9985488152
 10
1.2486651054
 20
-13.0014424721
 10
1.3315838515
 20
-13.0069386363
 10
1.4108737341
 20
-13.0144412987
 10
1.4864250969
 20
-13.0238796818
 10
1.5580459007
 20
-13.035166876
 10
1.6254376886
 20
-13.0481778793
 10
1.6884164608
 20
-13.0627789093
 10
1.7469396111
 20
-13.0788504077
 10
1.7887114073
 20
-13.0920705404
  0
LINE
  5
3AF
100
AcDbEntity
  8
0
100
AcDbLine
 62
7
  6
CONTINUOUS
 10
-1.7246895347
 20
-12.9099498418
 11
-1.5441263708
 21
-12.9172123639
  0
LINE
  5
3B0
100
AcDbEntity
  8
0
100
AcDbLine
 62
7
  6
CONTINUOUS
 10
1.8748091901
 20
-12.2241950832
 11
1.743380478
 21
-12.2185237922
  0
LINE
  5
3B1
100
AcDbEntity
  8
0
100
AcDbLine
 62
7
  6
CONTINUOUS
 10
-1.8416565583
 20
-12.904679115
 11
-1.7246895347
 21
-12.9099498418
  0
LINE
  5
3B2
100
AcDbEntity
  8
0
100
AcDbLine
 62
7
  6
CONTINUOUS
 10
1.9701586857
 20
-12.2287579543
 11
1.8748091901
 21
-12.2241950832
  0
LINE
  5
3B3
100
AcDbEntity
  8
0
100
AcDbLine
 62
7
  6
CONTINUOUS
 10
-1.9272364566
 20
-12.900403979
 11
-1.8416565583
 21
-12.904679115
  0
LINE
  5
3B4
100
AcDbEntity
  8
0
100
AcDbLine
 62
7
  6
CONTINUOUS
 10
2.0375673547
 20
-12.2323052534
 11
1.9701586857
 21
-12.2287579543
  0
LINE
  5
3B5
100
AcDbEntity
  8
0
100
AcDbLine
 62
7
  6
CONTINUOUS
 10
-1.988140442
 20
-12.8970593832
 11
-1.9272364566
 21
-12.900403979
  0
LINE
  5
3B6
100
AcDbEntity
  8
0
100
AcDbLine
 62
7
  6
CONTINUOUS
 10
2.0974760493
 20
-12.2357659122
 11
2.0375673547
 21
-12.2323052534
  0
LINE
  5
3B7
100
AcDbEntity
  8
0
100
AcDbLine
 62
7
  6
CONTINUOUS
 10
-2.0295810323
 20
-12.8945917073
 11
-1.988140442
 21
-12.8970593832
  0
LINE
  5
3B8
100
AcDbEntity
  8
0
100
AcDbLine
 62
7
  6
CONTINUOUS
 10
2.1377292814
 20
-12.2383086683
 11
2.0974760493
 21
-12.2357659122
  0
LINE
  5
3B9
100
AcDbEntity
  8
0
100
AcDbLine
 62
7
  6
CONTINUOUS
 10
-2.0675381601
 20
-12.8921550595
 11
-2.0295810323
 21
-12.8945917073
  0
LINE
  5
3BA
100
AcDbEntity
  8
0
100
AcDbLine
 62
7
  6
CONTINUOUS
 10
2.1741871883
 20
-12.2408112877
 11
2.1377292814
 21
-12.2383086683
  0
LINE
  5
3BB
100
AcDbEntity
  8
0
100
AcDbLine
 62
7
  6
CONTINUOUS
 10
-2.1021591813
 20
-12.8897445095
 11
-2.0675381601
 21
-12.8921550595
  0
LINE
  5
3BC
100
AcDbEntity
  8
0
100
AcDbLine
 62
7
  6
CONTINUOUS
 10
2.1964888007
 20
-12.2424606952
 11
2.1741871883
 21
-12.2408112877
  0
LINE
  5
3BD
100
AcDbEntity
  8
0
100
AcDbLine
 62
7
  6
CONTINUOUS
 10
-2.123465617
 20
-12.8881486681
 11
-2.1021591813
 21
-12.8897445095
  0
LINE
  5
3BE
100
AcDbEntity
  8
0
100
AcDbLine
 62
7
  6
CONTINUOUS
 10
2.217271297
 20
-12.244098452
 11
2.1964888007
 21
-12.2424606952
  0
LINE
  5
3BF
100
AcDbEntity
  8
0
100
AcDbLine
 62
7
  6
CONTINUOUS
 10
-2.143419018
 20
-12.8865581526
 11
-2.123465617
 21
-12.8881486681
  0
LINE
  5
3C0
100
AcDbEntity
  8
0
100
AcDbLine
 62
7
  6
CONTINUOUS
 10
2.2366037205
 20
-12.2457279766
 11
2.217271297
 21
-12.244098452
  0
LINE
  5
3C1
100
AcDbEntity
  8
0
100
AcDbLine
 62
7
  6
CONTINUOUS
 10
-2.1620732198
 20
-12.8849694898
 11
-2.143419018
 21
-12.8865581526
  0
LINE
  5
3C2
100
AcDbEntity
  8
0
100
AcDbLine
 62
7
  6
CONTINUOUS
 10
2.2545668187
 20
-12.2473544019
 11
2.2366037205
 21
-12.2457279766
  0
LINE
  5
3C3
100
AcDbEntity
  8
0
100
AcDbLine
 62
7
  6
CONTINUOUS
 10
-2.1794940537
 20
-12.8833774454
 11
-2.1620732198
 21
-12.8849694898
  0
LWPOLYLINE
  5
3C4
100
AcDbEntity
  8
0
100
AcDbPolyline
 62
253
  6
CONTINUOUS
 90
16
 70
0
 10
1.1801282228
 20
-12.9985483007
 10
1.1712510141
 20
-12.9974317772
 10
1.1609855379
 20
-12.9940706406
 10
1.1509425651
 20
-12.9885829376
 10
1.1412370405
 20
-12.9810689601
 10
1.1319682786
 20
-12.9716186028
 10
1.1232286082
 20
-12.9603040411
 10
1.1151183556
 20
-12.9471919059
 10
1.1077583737
 20
-12.932382531
 10
1.1012405755
 20
-12.9160598177
 10
1.0956141586
 20
-12.8984616633
 10
1.0909146399
 20
-12.8797934072
 10
1.0871810401
 20
-12.8602554457
 10
1.0844575434
 20
-12.8400580627
 10
1.0827904624
 20
-12.8194245708
 10
1.0822247713
 20
-12.7985722239
  0
LINE
  5
3C5
100
AcDbEntity
  8
0
100
AcDbLine
 62
7
  6
CONTINUOUS
 10
1.7888003076
 20
-13.0921004239
 11
1.7887114073
 21
-13.0920705404
  0
LWPOLYLINE
  5
3C6
100
AcDbEntity
  8
0
100
AcDbPolyline
 62
7
  6
CONTINUOUS
 90
9
 70
0
 10
1.7888003077
 20
-13.0921004239
 10
1.8334899965
 20
-13.1074631297
 10
1.8855450854
 20
-13.1263384744
 10
1.9329194448
 20
-13.1446525951
 10
1.9757379711
 20
-13.1623961639
 10
2.0139528302
 20
-13.1794778407
 10
2.0473142969
 20
-13.195675444
 10
2.0759613056
 20
-13.2109038386
 10
2.0941781729
 20
-13.2216116086
  0
LWPOLYLINE
  5
3C7
100
AcDbEntity
  8
0
100
AcDbPolyline
 62
253
  6
CONTINUOUS
 90
14
 70
0
 10
1.7887114073
 20
-13.0920705404
 10
1.7794936743
 20
-13.0885820766
 10
1.7643042519
 20
-13.0810678165
 10
1.749798654
 20
-13.0716173644
 10
1.7361210826
 20
-13.0603027632
 10
1.723428498
 20
-13.0471905777
 10
1.7119100941
 20
-13.0323811781
 10
1.7017096496
 20
-13.0160583558
 10
1.6929040962
 20
-12.9984597685
 10
1.6855491789
 20
-12.9797909192
 10
1.679706147
 20
-12.9602527554
 10
1.6754440884
 20
-12.9400558018
 10
1.6728353176
 20
-12.9194232097
 10
1.6719501075
 20
-12.8985722239
  0
LINE
  5
3C8
100
AcDbEntity
  8
DRAFT
100
AcDbLine
 62
7
  6
CONTINUOUS
 10
9.1594684828
 20
-28.2195167066
 11
9.1385240001
 21
-28.1985722239
  0
LINE
  5
3C9
100
AcDbEntity
  8
DRAFT
100
AcDbLine
 62
7
  6
CONTINUOUS
 10
9.2385240001
 20
-28.1985722239
 11
9.282158339
 21
-28.2422065629
  0
LINE
  5
3CA
100
AcDbEntity
  8
DRAFT
100
AcDbLine
 62
7
  6
CONTINUOUS
 10
10.8385240001
 20
-25.4985722239
 11
10.8201975777
 21
-25.4802458016
  0
LINE
  5
3CB
100
AcDbEntity
  8
DRAFT
100
AcDbLine
 62
7
  6
CONTINUOUS
 10
18.2568504224
 20
-32.0168986463
 11
18.2385240001
 21
-31.9985722239
  0
LINE
  5
3CC
100
AcDbEntity
  8
RACCORDO
100
AcDbLine
 62
253
  6
CONTINUOUS
 10
-7.778941159
 20
-37.028500428
 11
-7.778941159
 21
-31.2276277412
  0
LINE
  5
3CD
100
AcDbEntity
  8
RACCORDO
100
AcDbLine
 62
253
  6
CONTINUOUS
 10
-7.778941159
 20
-28.2195167066
 11
-7.778941159
 21
-24.1776277412
  0
LINE
  5
3CE
100
AcDbEntity
  8
RACCORDO
100
AcDbLine
 62
253
  6
CONTINUOUS
 10
-7.778941159
 20
-17.7195167066
 11
-7.778941159
 21
-17.2485722239
  0
LINE
  5
3CF
100
AcDbEntity
  8
RACCORDO
100
AcDbLine
 62
7
  6
CONTINUOUS
 10
-7.4789514943
 20
-17.7195167066
 11
-7.4789525821
 21
-17.2485722239
  0
LINE
  5
3D0
100
AcDbEntity
  8
RACCORDO
100
AcDbLine
 62
7
  6
CONTINUOUS
 10
-7.4789398898
 20
-28.2195167066
 11
-7.4789409656
 21
-24.1776277412
  0
LINE
  5
3D1
100
AcDbEntity
  8
RACCORDO
100
AcDbLine
 62
7
  6
CONTINUOUS
 10
-7.4789525821
 20
-37.0311184883
 11
-7.4789420722
 21
-31.2276277412
  0
LINE
  5
3D2
100
AcDbEntity
  8
DRAFT
100
AcDbLine
 62
7
  6
CONTINUOUS
 10
-7.0551103389
 20
-31.204937885
 11
-7.0551103389
 21
-28.2422065629
  0
LINE
  5
3D3
100
AcDbEntity
  8
RACCORDO
100
AcDbLine
 62
7
  6
CONTINUOUS
 10
-7.0551103389
 20
-24.154937885
 11
-7.0551103389
 21
-19.2291733788
  0
LINE
  5
3D4
100
AcDbEntity
  8
DRAFT
100
AcDbLine
 62
7
  6
CONTINUOUS
 10
-7.0324204826
 20
-31.2276277412
 11
-7.0324204826
 21
-28.2195167066
  0
LINE
  5
3D5
100
AcDbEntity
  8
DRAFT
100
AcDbLine
 62
7
  6
CONTINUOUS
 10
-7.0324204826
 20
-24.1776277412
 11
-7.0324204826
 21
-17.7195167066
  0
LINE
  5
3D6
100
AcDbEntity
  8
RACCORDO
100
AcDbLine
 62
7
  6
CONTINUOUS
 10
-6.9440222643
 20
-36.0311565653
 11
-6.9440222643
 21
-17.2485722239
  0
LINE
  5
3D7
100
AcDbEntity
  8
RACCORDO
100
AcDbLine
 62
7
  6
CONTINUOUS
 10
-6.917841661
 20
-18.5769993487
 11
-6.917841661
 21
-36.0049759619
  0
LINE
  5
3D8
100
AcDbEntity
  8
RACCORDO
100
AcDbLine
 62
7
  6
CONTINUOUS
 10
-6.8614759999
 20
-17.2485722239
 11
-6.8614759999
 21
-14.7485722239
  0
LINE
  5
3D9
100
AcDbEntity
  8
RACCORDO
100
AcDbLine
 62
7
  6
CONTINUOUS
 10
-4.9745663016
 20
-23.0354628838
 11
-4.9745663016
 21
-30.5616815641
  0
LINE
  5
3DA
100
AcDbEntity
  8
RACCORDO
100
AcDbLine
 62
7
  6
CONTINUOUS
 10
-4.9614759999
 20
-30.5485912624
 11
-4.9614759999
 21
-23.0485531854
  0
LINE
  5
3DB
100
AcDbEntity
  8
0
100
AcDbLine
 62
7
  6
CONTINUOUS
 10
-4.9614759999
 20
-37.0180281866
 11
-4.9614759999
 21
-49.5721754169
  0
LINE
  5
3DC
100
AcDbEntity
  8
RACCORDO
100
AcDbLine
 62
7
  6
CONTINUOUS
 10
-4.4614759999
 20
-25.7985722239
 11
-4.4614759999
 21
-22.5485722239
  0
LINE
  5
3DD
100
AcDbEntity
  8
RACCORDO
100
AcDbLine
 62
253
  6
CONTINUOUS
 10
-4.4422007355
 20
-25.4985722239
 11
-4.4422007355
 21
-22.5485722239
  0
LINE
  5
3DE
100
AcDbEntity
  8
ASSI
100
AcDbLine
 62
7
  6
CONTINUOUS
 10
-3.6846699999
 20
5.2514777761
 11
-4.2373639999
 21
3.5300147761
  0
LINE
  5
3DF
100
AcDbEntity
  8
ASSI
100
AcDbLine
 62
7
  6
CONTINUOUS
 10
-3.9873509999
 20
2.7513647761
 11
-3.1846449999
 21
5.2514777761
  0
LINE
  5
3E0
100
AcDbEntity
  8
RACCORDO
100
AcDbLine
 62
253
  6
CONTINUOUS
 10
25.238562077
 20
33.0014277761
 11
25.2211083414
 21
32.9839740405
  0
LINE
  5
3E1
100
AcDbEntity
  8
RACCORDO
100
AcDbLine
 62
253
  6
CONTINUOUS
 10
26.2385240001
 20
32.001465853
 11
26.2210702645
 21
31.9840121174
  0
LINE
  5
3E2
100
AcDbEntity
  8
RACCORDO
100
AcDbLine
 62
7
  6
CONTINUOUS
 10
7.1191822703
 20
-17.7292304942
 11
7.1094684828
 21
-17.7195167066
  0
LINE
  5
3E3
100
AcDbEntity
  8
DRAFT
100
AcDbLine
 62
7
  6
CONTINUOUS
 10
10.8201975777
 20
-19.6802458016
 11
10.7765632388
 21
-19.6366114626
  0
LINE
  5
3E4
100
AcDbEntity
  8
DRAFT
100
AcDbLine
 62
7
  6
CONTINUOUS
 10
9.1594684828
 20
-17.7195167066
 11
9.1385240001
 21
-17.6985722239
  0
LINE
  5
3E5
100
AcDbEntity
  8
RACCORDO
100
AcDbLine
 62
253
  6
CONTINUOUS
 10
25.2211083414
 20
-32.9811184883
 11
25.238562077
 21
-32.9985722239
  0
LINE
  5
3E6
100
AcDbEntity
  8
RACCORDO
100
AcDbLine
 62
7
  6
CONTINUOUS
 10
12.4869440937
 20
-19.6469923176
 11
12.5201975777
 21
-19.6802458016
  0
LINE
  5
3E7
100
AcDbEntity
  8
DRAFT
100
AcDbLine
 62
7
  6
CONTINUOUS
 10
-24.4614759999
 20
17.7350505958
 11
-24.4562326079
 21
17.7298072037
  0
LINE
  5
3E8
100
AcDbEntity
  8
RACCORDO
100
AcDbLine
 62
253
  6
CONTINUOUS
 10
26.2210702645
 20
-31.9811565653
 11
26.2385240001
 21
-31.9986103008
  0
LWPOLYLINE
  5
3E9
100
AcDbEntity
  8
0
100
AcDbPolyline
 62
253
  6
CONTINUOUS
 90
13
 70
0
 10
-2.4517287774
 20
-23.6598255068
 10
-2.4515036308
 20
-23.6602554596
 10
-2.4439913621
 20
-23.6797934198
 10
-2.4345355973
 20
-23.6984616726
 10
-2.4232148479
 20
-23.7160598244
 10
-2.4101005752
 20
-23.7323825367
 10
-2.3952917688
 20
-23.747191911
 10
-2.3789733647
 20
-23.7603040455
 10
-2.3613885277
 20
-23.7716186063
 10
-2.3427391216
 20
-23.7810689627
 10
-2.3232109183
 20
-23.7885829393
 10
-2.3030037462
 20
-23.7940706413
 10
-2.2896629968
 20
-23.796241562
  0
LWPOLYLINE
  5
3EA
100
AcDbEntity
  8
0
100
AcDbPolyline
 62
7
  6
CONTINUOUS
 90
20
 70
0
 10
-2.4614759999
 20
-23.9985722239
 10
-2.4601870339
 20
-24.0198173133
 10
-2.4568629109
 20
-24.0403984019
 10
-2.4515036308
 20
-24.0603154898
 10
-2.4440216486
 20
-24.0797752954
 10
-2.4345045094
 20
-24.0985711002
 10
-2.4232148479
 20
-24.1160827488
 10
-2.4100760707
 20
-24.1322653999
 10
-2.3951647712
 20
-24.1471638948
 10
-2.3789733647
 20
-24.1602926013
 10
-2.3614604899
 20
-24.171576894
 10
-2.3426675081
 20
-24.1810913984
 10
-2.3232109183
 20
-24.1885743591
 10
-2.3030750177
 20
-24.1940019258
 10
-2.2822755091
 20
-24.1973979488
 10
-2.2614759999
 20
-24.1985722239
 10
-2.2406764896
 20
-24.1973979483
 10
-2.2198769788
 20
-24.1940019247
 10
-2.1997410764
 20
-24.1885743574
 10
-2.1868518322
 20
-24.1836171827
  0
LWPOLYLINE
  5
3EB
100
AcDbEntity
  8
0
100
AcDbPolyline
 62
7
  6
CONTINUOUS
 90
20
 70
0
 10
-2.4614746145
 20
-23.5992964031
 10
-2.4603939538
 20
-23.6189877264
 10
-2.4570727472
 20
-23.6398179761
 10
-2.4517287774
 20
-23.6598255068
 10
-2.4445827059
 20
-23.6788033667
 10
-2.4358887543
 20
-23.6965135432
 10
-2.4258129517
 20
-23.7129232837
 10
-2.4145862625
 20
-23.7278789977
 10
-2.4026384784
 20
-23.7410799452
 10
-2.3901739415
 20
-23.7526093898
 10
-2.3774594212
 20
-23.7625583652
 10
-2.3651065805
 20
-23.7708178497
 10
-2.3534786395
 20
-23.7775283921
 10
-2.3425915446
 20
-23.7829976328
 10
-2.3325265087
 20
-23.7874304617
 10
-2.3234990188
 20
-23.7909458549
 10
-2.3154254009
 20
-23.7937538133
 10
-2.3078940513
 20
-23.7961120551
 10
-2.3008885943
 20
-23.7980994708
 10
-2.2990772748
 20
-23.7985685947
  0
LWPOLYLINE
  5
3EC
100
AcDbEntity
  8
0
100
AcDbPolyline
 62
7
  6
CONTINUOUS
 90
36
 70
0
 10
-2.4614759888
 20
-12.6654531716
 10
-2.4603829333
 20
-12.6859787091
 10
-2.4570486974
 20
-12.7068173705
 10
-2.4517011686
 20
-12.72679821
 10
-2.4445680167
 20
-12.7457242147
 10
-2.4358998456
 20
-12.7633803805
 10
-2.4258634283
 20
-12.7797360537
 10
-2.4146902005
 20
-12.7946400494
 10
-2.4027947264
 20
-12.8078091123
 10
-2.3903734724
 20
-12.8193268002
 10
-2.3776924356
 20
-12.8292770614
 10
-2.3653536694
 20
-12.8375515904
 10
-2.353710785
 20
-12.8442905195
 10
-2.3427847943
 20
-12.8497938315
 10
-2.3326698862
 20
-12.8542581895
 10
-2.3235824207
 20
-12.8578022017
 10
-2.3154365731
 20
-12.8606370899
 10
-2.307829626
 20
-12.863018164
 10
-2.3007455003
 20
-12.8650250861
 10
-2.2942143911
 20
-12.866712415
 10
-2.2878852905
 20
-12.8682131801
 10
-2.2816972308
 20
-12.8695659754
 10
-2.2756960191
 20
-12.8707816321
 10
-2.2696899282
 20
-12.8719141537
 10
-2.2636377357
 20
-12.8729802119
 10
-2.2575622218
 20
-12.8739835755
 10
-2.2513737365
 20
-12.8749451024
 10
-2.245057376
 20
-12.8758711666
 10
-2.2386165354
 20
-12.8767648671
 10
-2.2319955993
 20
-12.877636651
 10
-2.2251887725
 20
-12.8784891823
 10
-2.2181941485
 20
-12.8793244059
 10
-2.2109639762
 20
-12.8801492107
 10
-2.2034871656
 20
-12.8809655424
 10
-2.195765475
 20
-12.8817738166
 10
-2.1794940537
 20
-12.8833774454
  0
LWPOLYLINE
  5
3ED
100
AcDbEntity
  8
0
100
AcDbPolyline
 62
253
  6
CONTINUOUS
 90
21
 70
0
 10
-2.2913399858
 20
-23.4985722239
 10
-2.290279333
 20
-23.5194236072
 10
-2.2871535483
 20
-23.5400564567
 10
-2.2820468699
 20
-23.5602535255
 10
-2.2750460005
 20
-23.5797916174
 10
-2.2662337406
 20
-23.5984602775
 10
-2.2556834163
 20
-23.6160587169
 10
-2.2434617647
 20
-23.632381483
 10
-2.2296609854
 20
-23.6471908514
 10
-2.2144533747
 20
-23.6603029982
 10
-2.1980656265
 20
-23.6716175497
 10
-2.1806857946
 20
-23.6810679522
 10
-2.1624866613
 20
-23.6885821631
 10
-2.1436542046
 20
-23.6940702369
 10
-2.124404154
 20
-23.6974316725
 10
-2.1049508669
 20
-23.6985722239
 10
-2.085497527
 20
-23.6974316663
 10
-2.0662473691
 20
-23.6940701996
 10
-2.0474148264
 20
-23.6885820766
 10
-2.0292156548
 20
-23.6810678166
 10
-2.0141014051
 20
-23.6729876244
  0
LINE
  5
3EE
100
AcDbEntity
  8
DRAFT
100
AcDbLine
 62
7
  6
CONTINUOUS
 10
-2.9378919064
 20
18.9408405653
 11
-2.9614759999
 21
19.7350505958
  0
LWPOLYLINE
  5
3EF
100
AcDbEntity
  8
0
100
AcDbPolyline
 62
7
  6
CONTINUOUS
 90
3
 70
0
 10
-2.4614718263
 20
-14.7140818551
 10
-2.4613300777
 20
-14.7238657641
 10
-2.4587245224
 20
-14.7485722239
  0
LINE
  5
3F0
100
AcDbEntity
  8
0
100
AcDbLine
 62
7
  6
CONTINUOUS
 10
-2.4614759999
 20
-23.5985722239
 11
-2.4614746145
 21
-23.5992964031
  0
LINE
  5
3F1
100
AcDbEntity
  8
RACCORDO
100
AcDbLine
 62
7
  6
CONTINUOUS
 10
-2.9491360716
 20
-30.5609311907
 11
-2.9560713221
 21
-26.0539578632
  0
LINE
  5
3F2
100
AcDbEntity
  8
DRAFT
100
AcDbLine
 62
7
  6
CONTINUOUS
 10
-2.9562326079
 20
17.7298072037
 11
-2.952685313
 21
15.2014277761
  0
LINE
  5
3F3
100
AcDbEntity
  8
0
100
AcDbLine
 62
253
  6
CONTINUOUS
 10
-3.9614759999
 20
-49.9506865935
 11
-3.9614759999
 21
-46.9746294087
  0
LINE
  5
3F4
100
AcDbEntity
  8
RACCORDO
100
AcDbLine
 62
253
  6
CONTINUOUS
 10
-3.4422388124
 20
-25.4985722239
 11
-3.4422388124
 21
-22.5485722239
  0
LINE
  5
3F5
100
AcDbEntity
  8
RACCORDO
100
AcDbLine
 62
7
  6
CONTINUOUS
 10
-2.9614759999
 20
-26.0485531854
 11
-2.9614759999
 21
-30.5485912624
  0
LINE
  5
3F6
100
AcDbEntity
  8
RACCORDO
100
AcDbLine
 62
7
  6
CONTINUOUS
 10
-2.9614759999
 20
-33.5485531854
 11
-2.9614759999
 21
-34.5485912624
  0
LINE
  5
3F7
100
AcDbEntity
  8
DRAFT
100
AcDbLine
 62
7
  6
CONTINUOUS
 10
-2.9614759999
 20
14.7014277761
 11
-2.9614759999
 21
19.7350505958
  0
LINE
  5
3F8
100
AcDbEntity
  8
DRAFT
100
AcDbLine
 62
7
  6
CONTINUOUS
 10
-2.8807684358
 20
-24.1985722239
 11
-2.8807684358
 21
-22.5485722239
  0
LINE
  5
3F9
100
AcDbEntity
  8
RACCORDO
100
AcDbLine
 62
7
  6
CONTINUOUS
 10
-2.8528424589
 20
-10.9985722239
 11
-2.8528424589
 21
-14.7485722239
  0
LINE
  5
3FA
100
AcDbEntity
  8
RACCORDO
100
AcDbLine
 62
7
  6
CONTINUOUS
 10
-2.8528424588
 20
-22.5485722239
 11
-2.8528424589
 21
-24.1985722239
  0
LINE
  5
3FB
100
AcDbEntity
  8
ASSI
100
AcDbLine
 62
7
  6
CONTINUOUS
 10
-2.8513009999
 20
5.2514777761
 11
-2.8513069999
 21
2.7513587761
  0
LINE
  5
3FC
100
AcDbEntity
  8
ASSI
100
AcDbLine
 62
7
  6
CONTINUOUS
 10
-2.3512889999
 20
2.7513647761
 11
-2.3512819999
 21
5.2514777761
  0
LINE
  5
3FD
100
AcDbEntity
  8
ASSI
100
AcDbLine
 62
7
  6
CONTINUOUS
 10
-1.8512819999
 20
5.2514777761
 11
-1.8512819999
 21
2.7513647761
  0
LINE
  5
3FE
100
AcDbEntity
  8
ASSI
100
AcDbLine
 62
7
  6
CONTINUOUS
 10
-1.3512639999
 20
2.7513647761
 11
-1.3512639999
 21
4.4000217761
  0
LINE
  5
3FF
100
AcDbEntity
  8
ASSI
100
AcDbLine
 62
7
  6
CONTINUOUS
 10
0.0942180001
 20
4.4000217761
 11
0.0942240001
 21
2.7513647761
  0
LINE
  5
400
100
AcDbEntity
  8
ASSI
100
AcDbLine
 62
7
  6
CONTINUOUS
 10
0.5942430001
 20
2.7513647761
 11
0.5942430001
 21
5.2514777761
  0
LINE
  5
401
100
AcDbEntity
  8
RACCORDO
100
AcDbLine
 62
7
  6
CONTINUOUS
 10
-2.9500202453
 20
15.2892957417
 11
-2.9362159815
 21
17.9256918448
  0
LWPOLYLINE
  5
402
100
AcDbEntity
  8
RACCORDO
100
AcDbPolyline
 62
7
  6
CONTINUOUS
 90
16
 70
0
 10
-2.9614759999
 20
-26.0485531854
 10
-2.9587372753
 20
-25.9962907435
 10
-2.9505508622
 20
-25.9446009443
 10
-2.9370063655
 20
-25.8940500229
 10
-2.9182520742
 20
-25.8451916769
 10
-2.89449336
 20
-25.7985612649
 10
-2.8659904989
 20
-25.7546699067
 10
-2.8330556934
 20
-25.7139984635
 10
-2.7960497603
 20
-25.6769925304
 10
-2.7553783172
 20
-25.6440577249
 10
-2.7114869589
 20
-25.6155548638
 10
-2.6648565469
 20
-25.5917961496
 10
-2.6159982009
 20
-25.5730418583
 10
-2.5654472796
 20
-25.5594973616
 10
-2.5137574804
 20
-25.5513109486
 10
-2.4614950384
 20
-25.5485722239
  0
LINE
  5
403
100
AcDbEntity
  8
ASSI
100
AcDbLine
 62
7
  6
CONTINUOUS
 10
-0.1616509999
 20
5.2514777761
 11
-0.6285199999
 21
3.6233147761
  0
LINE
  5
404
100
AcDbEntity
  8
ASSI
100
AcDbLine
 62
7
  6
CONTINUOUS
 10
-0.3785199999
 20
2.7513717761
 11
0.0942180001
 21
4.4000217761
  0
LINE
  5
405
100
AcDbEntity
  8
ASSI
100
AcDbLine
 62
7
  6
CONTINUOUS
 10
1.7302800001
 20
5.2514837761
 11
0.9275870001
 21
2.7513647761
  0
LINE
  5
406
100
AcDbEntity
  8
ASSI
100
AcDbLine
 62
7
  6
CONTINUOUS
 10
1.4276050001
 20
2.7513717761
 11
1.5854620001
 21
3.2430337761
  0
LINE
  5
407
100
AcDbEntity
  8
ASSI
100
AcDbLine
 62
7
  6
CONTINUOUS
 10
1.7379800001
 20
3.7180527761
 11
1.9802990001
 21
4.4728277761
  0
LINE
  5
408
100
AcDbEntity
  8
DRAFT
100
AcDbLine
 62
7
  6
CONTINUOUS
 10
-24.4352953965
 20
-19.6723916205
 11
-24.4614759999
 21
-19.6985722239
  0
LINE
  5
409
100
AcDbEntity
  8
RACCORDO
100
AcDbLine
 62
7
  6
CONTINUOUS
 10
-18.4746805346
 20
-17.7117767586
 11
-18.4614759999
 21
-17.6985722239
  0
LINE
  5
40A
100
AcDbEntity
  8
RACCORDO
100
AcDbLine
 62
7
  6
CONTINUOUS
 10
18.5517285348
 20
-17.7117767586
 11
18.5385240001
 21
-17.6985722239
  0
LINE
  5
40B
100
AcDbEntity
  8
ASSI
100
AcDbLine
 62
7
  6
CONTINUOUS
 10
-5.2900889999
 20
5.2514777761
 11
-4.4873889999
 21
2.7513587761
  0
LINE
  5
40C
100
AcDbEntity
  8
ASSI
100
AcDbLine
 62
7
  6
CONTINUOUS
 10
-4.2373639999
 20
3.5300147761
 11
-4.7900639999
 21
5.2514777761
  0
LINE
  5
40D
100
AcDbEntity
  8
ASSI
100
AcDbLine
 62
7
  6
CONTINUOUS
 10
-1.3512639999
 20
4.4000217761
 11
-0.8785259999
 21
2.7513647761
  0
LINE
  5
40E
100
AcDbEntity
  8
ASSI
100
AcDbLine
 62
7
  6
CONTINUOUS
 10
-0.6285199999
 20
3.6233147761
 11
-1.0953889999
 21
5.2514777761
  0
LWPOLYLINE
  5
40F
100
AcDbEntity
  8
0
100
AcDbPolyline
 62
7
  6
CONTINUOUS
 90
35
 70
0
 10
2.5385239883
 20
-23.7985784114
 10
2.5372464847
 20
-23.7763834853
 10
2.5337532341
 20
-23.7556408772
 10
2.5282600563
 20
-23.7357347888
 10
2.520986208
 20
-23.71686929
 10
2.5121848563
 20
-23.699279196
 10
2.5020212113
 20
-23.6829971837
 10
2.4907238173
 20
-23.6681715015
 10
2.4787163054
 20
-23.6550927752
 10
2.4661966188
 20
-23.6436708288
 10
2.4534338903
 20
-23.6338171754
 10
2.4410452437
 20
-23.625644399
 10
2.4293937095
 20
-23.6190119515
 10
2.4184879177
 20
-23.6136105096
 10
2.4084045434
 20
-23.609234753
 10
2.3993615625
 20
-23.6057671426
 10
2.3912669358
 20
-23.6029965187
 10
2.383687318
 20
-23.6006623837
 10
2.3765928654
 20
-23.5986848851
 10
2.3700215345
 20
-23.5970147789
 10
2.3636221699
 20
-23.5955225754
 10
2.3573296105
 20
-23.5941705423
 10
2.3511871884
 20
-23.5929485447
 10
2.345004621
 20
-23.5918046414
 10
2.3387433262
 20
-23.5907235322
 10
2.3324166227
 20
-23.5897004152
 10
2.3259153145
 20
-23.5887125295
 10
2.3192144655
 20
-23.587753168
 10
2.3123143632
 20
-23.5868198403
 10
2.3051462725
 20
-23.5859015444
 10
2.2976884149
 20
-23.5849947047
 10
2.2899380394
 20
-23.5840983409
 10
2.2818574671
 20
-23.5832077083
 10
2.2734322375
 20
-23.5823211447
 10
2.2555013012
 20
-23.5805554842
  0
LWPOLYLINE
  5
410
100
AcDbEntity
  8
0
100
AcDbPolyline
 62
7
  6
CONTINUOUS
 90
36
 70
0
 10
2.5385239877
 20
-12.4654655076
 10
2.5372446635
 20
-12.4432545776
 10
2.5337332168
 20
-12.4224379426
 10
2.528188381
 20
-12.4024053549
 10
2.5208201784
 20
-12.3833820308
 10
2.5118934452
 20
-12.3656485905
 10
2.5015749931
 20
-12.3492414452
 10
2.4900958374
 20
-12.3343130864
 10
2.4779143533
 20
-12.3211867561
 10
2.4652472323
 20
-12.309767873
 10
2.4523682332
 20
-12.2999509564
 10
2.4399185967
 20
-12.2918479147
 10
2.4282862307
 20
-12.2853164586
 10
2.4174635388
 20
-12.2800268999
 10
2.4074872184
 20
-12.2757509916
 10
2.3985656127
 20
-12.2723681846
 10
2.3906156766
 20
-12.2696733706
 10
2.383192465
 20
-12.2674051298
 10
2.3762673475
 20
-12.2654855819
 10
2.3698836509
 20
-12.2638682316
 10
2.3636867959
 20
-12.2624239784
 10
2.3576154196
 20
-12.261116609
 10
2.3517175779
 20
-12.2599374923
 10
2.3457993502
 20
-12.2588341679
 10
2.3398196395
 20
-12.2577912121
 10
2.3337997876
 20
-12.2568055482
 10
2.3276411931
 20
-12.2558559277
 10
2.3213191962
 20
-12.2549354886
 10
2.314840007
 20
-12.2540424463
 10
2.3081558699
 20
-12.2531681171
 10
2.3012567032
 20
-12.25230976
 10
2.294139145
 20
-12.251465698
 10
2.2867696695
 20
-12.2506310399
 10
2.2791442233
 20
-12.2498047157
 10
2.2712558814
 20
-12.2489854342
 10
2.2545668187
 20
-12.2473544019
  0
LWPOLYLINE
  5
411
100
AcDbEntity
  8
RACCORDO
100
AcDbPolyline
 62
7
  6
CONTINUOUS
 90
16
 70
0
 10
3.0385240001
 20
-26.0485531854
 10
3.0357852754
 20
-25.9962907435
 10
3.0275988624
 20
-25.9446009443
 10
3.0140543657
 20
-25.8940500229
 10
2.9953000744
 20
-25.8451916769
 10
2.9715413602
 20
-25.7985612649
 10
2.9430384991
 20
-25.7546699067
 10
2.9101036936
 20
-25.7139984635
 10
2.8730977605
 20
-25.6769925304
 10
2.8324263173
 20
-25.6440577249
 10
2.7885349591
 20
-25.6155548638
 10
2.7419045471
 20
-25.5917961496
 10
2.6930462011
 20
-25.5730418583
 10
2.6424952797
 20
-25.5594973616
 10
2.5908054805
 20
-25.5513109486
 10
2.5385430386
 20
-25.5485722239
  0
LWPOLYLINE
  5
412
100
AcDbEntity
  8
0
100
AcDbPolyline
 62
7
  6
CONTINUOUS
 90
22
 70
0
 10
2.5385213374
 20
-13.2223095429
 10
2.5383784726
 20
-13.2126683145
 10
2.5344456347
 20
-13.1736711784
 10
2.5254652822
 20
-13.1358366193
 10
2.5116689161
 20
-13.0990757364
 10
2.4935168068
 20
-13.0640761077
 10
2.472132248
 20
-13.0320433677
 10
2.4485334828
 20
-13.0032556527
 10
2.4227732286
 20
-12.9768276912
 10
2.3946317075
 20
-12.9519799375
 10
2.3642127486
 20
-12.9284373765
 10
2.3316489922
 20
-12.9060191849
 10
2.296582352
 20
-12.8842931593
 10
2.2589426104
 20
-12.8631083048
 10
2.2187170175
 20
-12.8423716718
 10
2.1755903688
 20
-12.821864771
 10
2.1294490941
 20
-12.8015039634
 10
2.0802586561
 20
-12.7812493604
 10
2.0278548864
 20
-12.7610145691
 10
1.9721634464
 20
-12.7407581225
 10
1.9131686419
 20
-12.720461419
 10
1.8717610357
 20
-12.7068606359
  0
LINE
  5
413
100
AcDbEntity
  8
RACCORDO
100
AcDbLine
 62
7
  6
CONTINUOUS
 10
3.0270682455
 20
15.2892957417
 11
3.0132639817
 21
17.9256918448
  0
LINE
  5
414
100
AcDbEntity
  8
RACCORDO
100
AcDbLine
 62
7
  6
CONTINUOUS
 10
2.929890459
 20
-10.9985722239
 11
2.929890459
 21
-14.7485722239
  0
LINE
  5
415
100
AcDbEntity
  8
RACCORDO
100
AcDbLine
 62
7
  6
CONTINUOUS
 10
2.929890459
 20
-24.1985722239
 11
2.929890459
 21
-22.5485722239
  0
LINE
  5
416
100
AcDbEntity
  8
DRAFT
100
AcDbLine
 62
7
  6
CONTINUOUS
 10
2.957816436
 20
-22.5485722239
 11
2.957816436
 21
-24.1985722239
  0
LINE
  5
417
100
AcDbEntity
  8
RACCORDO
100
AcDbLine
 62
7
  6
CONTINUOUS
 10
3.0385240001
 20
-34.5485912624
 11
3.0385240001
 21
-33.5485531854
  0
LINE
  5
418
100
AcDbEntity
  8
RACCORDO
100
AcDbLine
 62
7
  6
CONTINUOUS
 10
3.0385240001
 20
-26.0485531854
 11
3.0385240001
 21
-30.5485912624
  0
LINE
  5
419
100
AcDbEntity
  8
DRAFT
100
AcDbLine
 62
7
  6
CONTINUOUS
 10
3.0385240001
 20
14.7014277761
 11
3.0385240001
 21
19.7350505958
  0
LINE
  5
41A
100
AcDbEntity
  8
ASSI
100
AcDbLine
 62
7
  6
CONTINUOUS
 10
3.3663740001
 20
5.2514837761
 11
3.3663740001
 21
2.7513717761
  0
LINE
  5
41B
100
AcDbEntity
  8
RACCORDO
100
AcDbLine
 62
253
  6
CONTINUOUS
 10
3.5192868126
 20
-22.5485722239
 11
3.5192868126
 21
-25.4985722239
  0
LINE
  5
41C
100
AcDbEntity
  8
ASSI
100
AcDbLine
 62
7
  6
CONTINUOUS
 10
3.8595050001
 20
4.1805777761
 11
3.8594990001
 21
4.7889657761
  0
LINE
  5
41D
100
AcDbEntity
  8
0
100
AcDbLine
 62
253
  6
CONTINUOUS
 10
4.0385240001
 20
-49.9506865935
 11
4.0385240001
 21
-46.9746294087
  0
LINE
  5
41E
100
AcDbEntity
  8
RACCORDO
100
AcDbLine
 62
253
  6
CONTINUOUS
 10
4.5192487356
 20
-22.5485722239
 11
4.5192487356
 21
-25.4985722239
  0
LINE
  5
41F
100
AcDbEntity
  8
RACCORDO
100
AcDbLine
 62
7
  6
CONTINUOUS
 10
4.5385240001
 20
-22.5485722239
 11
4.5385240001
 21
-25.7985722239
  0
LINE
  5
420
100
AcDbEntity
  8
RACCORDO
100
AcDbLine
 62
7
  6
CONTINUOUS
 10
5.0385240001
 20
-23.0485531854
 11
5.0385240001
 21
-30.5485912624
  0
LINE
  5
421
100
AcDbEntity
  8
0
100
AcDbLine
 62
7
  6
CONTINUOUS
 10
5.0385240001
 20
-37.0180281866
 11
5.0385240001
 21
-49.5721754169
  0
LINE
  5
422
100
AcDbEntity
  8
RACCORDO
100
AcDbLine
 62
7
  6
CONTINUOUS
 10
5.0516143018
 20
-30.5616815641
 11
5.0516143018
 21
-23.0354628838
  0
LINE
  5
423
100
AcDbEntity
  8
ASSI
100
AcDbLine
 62
7
  6
CONTINUOUS
 10
3.8663990001
 20
2.7513717761
 11
3.8664550001
 21
3.7180587761
  0
LINE
  5
424
100
AcDbEntity
  8
DRAFT
100
AcDbLine
 62
7
  6
CONTINUOUS
 10
3.033280608
 20
17.7298072037
 11
3.0297333132
 21
15.2014277761
  0
LINE
  5
425
100
AcDbEntity
  8
RACCORDO
100
AcDbLine
 62
7
  6
CONTINUOUS
 10
3.0261840718
 20
-30.5609311907
 11
3.0331193223
 21
-26.0539578632
  0
LWPOLYLINE
  5
426
100
AcDbEntity
  8
0
100
AcDbPolyline
 62
253
  6
CONTINUOUS
 90
5
 70
0
 10
1.0822247713
 20
-12.7985722239
 10
1.0827904624
 20
-12.7777198771
 10
1.0844575434
 20
-12.7570863851
 10
1.0871810401
 20
-12.7368890022
 10
1.087479206
 20
-12.7353286975
  0
LINE
  5
427
100
AcDbEntity
  8
DRAFT
100
AcDbLine
 62
7
  6
CONTINUOUS
 10
3.0149399066
 20
18.9408405653
 11
3.0385240001
 21
19.7350505958
  0
LWPOLYLINE
  5
428
100
AcDbEntity
  8
0
100
AcDbPolyline
 62
253
  6
CONTINUOUS
 90
13
 70
0
 10
1.6719501075
 20
-12.8985722239
 10
1.6728353176
 20
-12.877721238
 10
1.6754440884
 20
-12.8570886459
 10
1.6797061471
 20
-12.8368916923
 10
1.685549179
 20
-12.8173535286
 10
1.6929040962
 20
-12.7986846793
 10
1.7017096497
 20
-12.781086092
 10
1.7119100941
 20
-12.7647632697
 10
1.723428498
 20
-12.7499538701
 10
1.7361210826
 20
-12.7368416845
 10
1.7497986542
 20
-12.7255270834
 10
1.7643042522
 20
-12.7160766312
 10
1.7743464858
 20
-12.7111087033
  0
LWPOLYLINE
  5
429
100
AcDbEntity
  8
0
100
AcDbPolyline
 62
7
  6
CONTINUOUS
 90
14
 70
0
 10
1.08747492
 20
-12.3352910473
 10
1.0908995878
 20
-12.3173691653
 10
1.0956296096
 20
-12.2985733571
 10
1.1012405755
 20
-12.2810617057
 10
1.1077705523
 20
-12.2648790535
 10
1.1151814734
 20
-12.2499805581
 10
1.1232286082
 20
-12.236851851
 10
1.1319325134
 20
-12.2255675574
 10
1.1412726324
 20
-12.216053052
 10
1.1509425651
 20
-12.2085700904
 10
1.1609501159
 20
-12.2031425231
 10
1.1712874805
 20
-12.1997464995
 10
1.1816248447
 20
-12.1985722239
 10
1.1831173541
 20
-12.1985976943
  0
LINE
  5
42A
100
AcDbEntity
  8
RACCORDO
100
AcDbLine
 62
253
  6
CONTINUOUS
 10
-26.1614759999
 20
-31.9986103008
 11
-26.1440222643
 21
-31.9811565653
  0
LINE
  5
42B
100
AcDbEntity
  8
DRAFT
100
AcDbLine
 62
7
  6
CONTINUOUS
 10
24.5385240001
 20
17.7350505958
 11
24.533280608
 21
17.7298072037
  0
LINE
  5
42C
100
AcDbEntity
  8
RACCORDO
100
AcDbLine
 62
7
  6
CONTINUOUS
 10
-12.4098960936
 20
-19.6469923176
 11
-12.4431495776
 21
-19.6802458016
  0
LINE
  5
42D
100
AcDbEntity
  8
ASSI
100
AcDbLine
 62
7
  6
CONTINUOUS
 10
4.8039430001
 20
2.7513717761
 11
5.3671370001
 21
2.7513777761
  0
LINE
  5
42E
100
AcDbEntity
  8
ASSI
100
AcDbLine
 62
7
  6
CONTINUOUS
 10
0.9275870001
 20
2.7513647761
 11
1.4276050001
 21
2.7513717761
  0
LINE
  5
42F
100
AcDbEntity
  8
ASSI
100
AcDbLine
 62
7
  6
CONTINUOUS
 10
-1.8512819999
 20
2.7513647761
 11
-1.3512639999
 21
2.7513647761
  0
LINE
  5
430
100
AcDbEntity
  8
ASSI
100
AcDbLine
 62
7
  6
CONTINUOUS
 10
0.0942240001
 20
2.7513647761
 11
0.5942430001
 21
2.7513647761
  0
LINE
  5
431
100
AcDbEntity
  8
ASSI
100
AcDbLine
 62
7
  6
CONTINUOUS
 10
3.3663740001
 20
2.7513717761
 11
3.8663990001
 21
2.7513717761
  0
LINE
  5
432
100
AcDbEntity
  8
ASSI
100
AcDbLine
 62
7
  6
CONTINUOUS
 10
-0.8785259999
 20
2.7513647761
 11
-0.3785199999
 21
2.7513717761
  0
LINE
  5
433
100
AcDbEntity
  8
ASSI
100
AcDbLine
 62
7
  6
CONTINUOUS
 10
-2.8513069999
 20
2.7513587761
 11
-2.3512889999
 21
2.7513647761
  0
LINE
  5
434
100
AcDbEntity
  8
ASSI
100
AcDbLine
 62
7
  6
CONTINUOUS
 10
2.5330050001
 20
2.7513717761
 11
3.0330300001
 21
2.7513647761
  0
LINE
  5
435
100
AcDbEntity
  8
ASSI
100
AcDbLine
 62
7
  6
CONTINUOUS
 10
-4.4873889999
 20
2.7513587761
 11
-3.9873509999
 21
2.7513647761
  0
LINE
  5
436
100
AcDbEntity
  8
ASSI
100
AcDbLine
 62
7
  6
CONTINUOUS
 10
1.5854620001
 20
3.2430337761
 11
2.3751550001
 21
3.2430337761
  0
LINE
  5
437
100
AcDbEntity
  8
ASSI
100
AcDbLine
 62
7
  6
CONTINUOUS
 10
2.2226300001
 20
3.7180527761
 11
1.7379800001
 21
3.7180527761
  0
LINE
  5
438
100
AcDbEntity
  8
ASSI
100
AcDbLine
 62
7
  6
CONTINUOUS
 10
3.8664550001
 20
3.7180587761
 11
4.3028620001
 21
3.7180527761
  0
LINE
  5
439
100
AcDbEntity
  8
ASSI
100
AcDbLine
 62
7
  6
CONTINUOUS
 10
4.4678557627
 20
4.1805777761
 11
3.8595050001
 21
4.1805777761
  0
LINE
  5
43A
100
AcDbEntity
  8
ASSI
100
AcDbLine
 62
7
  6
CONTINUOUS
 10
3.8594990001
 20
4.7889657761
 11
4.4678470001
 21
4.7889657761
  0
LINE
  5
43B
100
AcDbEntity
  8
ASSI
100
AcDbLine
 62
7
  6
CONTINUOUS
 10
0.5942430001
 20
5.2514777761
 11
-0.1616509999
 21
5.2514777761
  0
LINE
  5
43C
100
AcDbEntity
  8
ASSI
100
AcDbLine
 62
7
  6
CONTINUOUS
 10
-1.0953889999
 20
5.2514777761
 11
-1.8512819999
 21
5.2514777761
  0
LINE
  5
43D
100
AcDbEntity
  8
ASSI
100
AcDbLine
 62
7
  6
CONTINUOUS
 10
-2.3512819999
 20
5.2514777761
 11
-2.8513009999
 21
5.2514777761
  0
LINE
  5
43E
100
AcDbEntity
  8
ASSI
100
AcDbLine
 62
7
  6
CONTINUOUS
 10
-3.1846449999
 20
5.2514777761
 11
-3.6846699999
 21
5.2514777761
  0
LINE
  5
43F
100
AcDbEntity
  8
ASSI
100
AcDbLine
 62
7
  6
CONTINUOUS
 10
-4.7900639999
 20
5.2514777761
 11
-5.2900889999
 21
5.2514777761
  0
LINE
  5
440
100
AcDbEntity
  8
ASSI
100
AcDbLine
 62
7
  6
CONTINUOUS
 10
4.5372621227
 20
5.2514837761
 11
3.3663740001
 21
5.2514837761
  0
LINE
  5
441
100
AcDbEntity
  8
ASSI
100
AcDbLine
 62
7
  6
CONTINUOUS
 10
2.2303240001
 20
5.2514837761
 11
1.7302800001
 21
5.2514837761
  0
LINE
  5
442
100
AcDbEntity
  8
DRAFT
100
AcDbLine
 62
7
  6
CONTINUOUS
 10
24.5123433967
 20
-19.6723916205
 11
24.5385240001
 21
-19.6985722239
  0
LINE
  5
443
100
AcDbEntity
  8
RACCORDO
100
AcDbLine
 62
253
  6
CONTINUOUS
 10
-26.1440222643
 20
31.9840121174
 11
-26.1614759999
 21
32.001465853
  0
LINE
  5
444
100
AcDbEntity
  8
ASSI
100
AcDbLine
 62
7
  6
CONTINUOUS
 10
2.3751550001
 20
3.2430337761
 11
2.5330050001
 21
2.7513717761
  0
LINE
  5
445
100
AcDbEntity
  8
ASSI
100
AcDbLine
 62
7
  6
CONTINUOUS
 10
1.9802990001
 20
4.4728277761
 11
2.2226300001
 21
3.7180527761
  0
LINE
  5
446
100
AcDbEntity
  8
ASSI
100
AcDbLine
 62
7
  6
CONTINUOUS
 10
3.0330300001
 20
2.7513647761
 11
2.2303240001
 21
5.2514837761
  0
LINE
  5
447
100
AcDbEntity
  8
RACCORDO
100
AcDbLine
 62
7
  6
CONTINUOUS
 10
12.5182636903
 20
-32.9791846009
 11
12.4869440937
 21
-32.665199135
  0
LINE
  5
448
100
AcDbEntity
  8
RACCORDO
100
AcDbLine
 62
7
  6
CONTINUOUS
 10
6.9385240001
 20
-17.2485722239
 11
6.9385240001
 21
-14.7485722239
  0
LINE
  5
449
100
AcDbEntity
  8
RACCORDO
100
AcDbLine
 62
7
  6
CONTINUOUS
 10
6.9948896611
 20
-18.5769993487
 11
6.9948896611
 21
-36.0049759619
  0
LINE
  5
44A
100
AcDbEntity
  8
RACCORDO
100
AcDbLine
 62
7
  6
CONTINUOUS
 10
7.0210702645
 20
-36.0311565653
 11
7.0210702645
 21
-17.2485722239
  0
LINE
  5
44B
100
AcDbEntity
  8
DRAFT
100
AcDbLine
 62
7
  6
CONTINUOUS
 10
7.1094684828
 20
-31.2276277412
 11
7.1094684828
 21
-28.2195167066
  0
LINE
  5
44C
100
AcDbEntity
  8
DRAFT
100
AcDbLine
 62
7
  6
CONTINUOUS
 10
7.1094684828
 20
-24.1776277412
 11
7.1094684828
 21
-17.7195167066
  0
LINE
  5
44D
100
AcDbEntity
  8
DRAFT
100
AcDbLine
 62
7
  6
CONTINUOUS
 10
7.132158339
 20
-31.204937885
 11
7.132158339
 21
-28.2422065629
  0
LINE
  5
44E
100
AcDbEntity
  8
RACCORDO
100
AcDbLine
 62
7
  6
CONTINUOUS
 10
7.132158339
 20
-24.154937885
 11
7.132158339
 21
-19.2291733788
  0
LINE
  5
44F
100
AcDbEntity
  8
RACCORDO
100
AcDbLine
 62
7
  6
CONTINUOUS
 10
7.5559900723
 20
-31.2276277412
 11
7.5560005823
 21
-37.0311184883
  0
LINE
  5
450
100
AcDbEntity
  8
RACCORDO
100
AcDbLine
 62
7
  6
CONTINUOUS
 10
7.5559889658
 20
-24.1776277412
 11
7.5559878899
 21
-28.2195167066
  0
LINE
  5
451
100
AcDbEntity
  8
RACCORDO
100
AcDbLine
 62
7
  6
CONTINUOUS
 10
7.5560005823
 20
-17.2485722239
 11
7.5559994945
 21
-17.7195167066
  0
LINE
  5
452
100
AcDbEntity
  8
RACCORDO
100
AcDbLine
 62
253
  6
CONTINUOUS
 10
7.8559891592
 20
-17.2485722239
 11
7.8559891592
 21
-17.7195167066
  0
LINE
  5
453
100
AcDbEntity
  8
RACCORDO
100
AcDbLine
 62
253
  6
CONTINUOUS
 10
7.8559891592
 20
-24.1776277412
 11
7.8559891592
 21
-28.2195167066
  0
LINE
  5
454
100
AcDbEntity
  8
RACCORDO
100
AcDbLine
 62
253
  6
CONTINUOUS
 10
7.8559891592
 20
-31.2276277412
 11
7.8559891592
 21
-37.028500428
  0
LINE
  5
455
100
AcDbEntity
  8
RACCORDO
100
AcDbLine
 62
7
  6
CONTINUOUS
 10
9.0184522042
 20
-24.1776277412
 11
9.0184522042
 21
-28.2195167066
  0
LINE
  5
456
100
AcDbEntity
  8
RACCORDO
100
AcDbLine
 62
7
  6
CONTINUOUS
 10
9.0184522042
 20
-31.2276277412
 11
9.0184522042
 21
-36.0285385049
  0
LINE
  5
457
100
AcDbEntity
  8
RACCORDO
100
AcDbLine
 62
7
  6
CONTINUOUS
 10
9.0385240001
 20
-24.1776277412
 11
9.0385240001
 21
-28.2195167066
  0
LINE
  5
458
100
AcDbEntity
  8
RACCORDO
100
AcDbLine
 62
7
  6
CONTINUOUS
 10
9.0385240001
 20
-31.2276277412
 11
9.0385240001
 21
-36.0486103008
  0
LINE
  5
459
100
AcDbEntity
  8
DRAFT
100
AcDbLine
 62
7
  6
CONTINUOUS
 10
9.1385240001
 20
-17.6985722239
 11
9.1385240001
 21
-17.7195167066
  0
LINE
  5
45A
100
AcDbEntity
  8
DRAFT
100
AcDbLine
 62
7
  6
CONTINUOUS
 10
9.1385240001
 20
-24.1776277412
 11
9.1385240001
 21
-24.1985722239
  0
LINE
  5
45B
100
AcDbEntity
  8
DRAFT
100
AcDbLine
 62
7
  6
CONTINUOUS
 10
9.1385240001
 20
-27.9985722239
 11
9.1385240001
 21
-28.2195167066
  0
LINE
  5
45C
100
AcDbEntity
  8
DRAFT
100
AcDbLine
 62
7
  6
CONTINUOUS
 10
9.1385240001
 20
-31.2276277412
 11
9.1385240001
 21
-31.2485722239
  0
LINE
  5
45D
100
AcDbEntity
  8
DRAFT
100
AcDbLine
 62
7
  6
CONTINUOUS
 10
9.2385240001
 20
-32.9811184883
 11
9.2385240001
 21
-31.2485722239
  0
LINE
  5
45E
100
AcDbEntity
  8
DRAFT
100
AcDbLine
 62
7
  6
CONTINUOUS
 10
9.2385240001
 20
-28.1985722239
 11
9.2385240001
 21
-24.1985722239
  0
LINE
  5
45F
100
AcDbEntity
  8
RACCORDO
100
AcDbLine
 62
7
  6
CONTINUOUS
 10
9.282158339
 20
-31.6447977323
 11
9.282158339
 21
-31.204937885
  0
LINE
  5
460
100
AcDbEntity
  8
DRAFT
100
AcDbLine
 62
7
  6
CONTINUOUS
 10
9.282158339
 20
-28.2422065629
 11
9.282158339
 21
-24.154937885
  0
LWPOLYLINE
  5
461
100
AcDbEntity
  8
0
100
AcDbPolyline
 62
7
  6
CONTINUOUS
 90
27
 70
0
 10
5.0385240001
 20
-49.5721754169
 10
5.0351776727
 20
-49.6132952895
 10
5.0271243704
 20
-49.6512480471
 10
5.0143640931
 20
-49.6861983775
 10
4.9964334121
 20
-49.7185017747
 10
4.9737957562
 20
-49.7481032988
 10
4.9478414117
 20
-49.7746396938
 10
4.9187098366
 20
-49.7981572862
 10
4.886261573
 20
-49.8190951784
 10
4.8514685337
 20
-49.8377412444
 10
4.8144025235
 20
-49.8542983989
 10
4.7749917377
 20
-49.8689299386
 10
4.7339926746
 20
-49.8818300291
 10
4.6914072428
 20
-49.8931461339
 10
4.6472335336
 20
-49.9030235921
 10
4.6022223196
 20
-49.9116267461
 10
4.5564491552
 20
-49.9190617364
 10
4.5098384859
 20
-49.925439707
 10
4.4629144215
 20
-49.9309045102
 10
4.4157386838
 20
-49.9355276829
 10
4.3682495509
 20
-49.9393818406
 10
4.3207859667
 20
-49.9425858963
 10
4.2734125742
 20
-49.9451871495
 10
4.2260647303
 20
-49.9472199925
 10
4.1788874495
 20
-49.9487638296
 10
4.13192907
 20
-49.9498557355
 10
4.0851412535
 20
-49.9504937402
  0
LINE
  5
462
100
AcDbEntity
  8
RACCORDO
100
AcDbLine
 62
253
  6
CONTINUOUS
 10
-25.1615140768
 20
-32.9985722239
 11
-25.1440603413
 21
-32.9811184883
  0
LINE
  5
463
100
AcDbEntity
  8
DRAFT
100
AcDbLine
 62
7
  6
CONTINUOUS
 10
-9.0614759999
 20
-17.6985722239
 11
-9.0824204826
 21
-17.7195167066
  0
LINE
  5
464
100
AcDbEntity
  8
DRAFT
100
AcDbLine
 62
7
  6
CONTINUOUS
 10
-10.7431495776
 20
-19.6802458016
 11
-10.6995152386
 21
-19.6366114626
  0
LINE
  5
465
100
AcDbEntity
  8
RACCORDO
100
AcDbLine
 62
7
  6
CONTINUOUS
 10
-7.0324204826
 20
-17.7195167066
 11
-7.0421342702
 21
-17.7292304942
  0
LINE
  5
466
100
AcDbEntity
  8
DRAFT
100
AcDbLine
 62
7
  6
CONTINUOUS
 10
-18.1798024223
 20
-32.0168986463
 11
-18.1614759999
 21
-31.9985722239
  0
LWPOLYLINE
  5
467
100
AcDbEntity
  8
0
100
AcDbPolyline
 62
7
  6
CONTINUOUS
 90
3
 70
0
 10
-2.0644369067
 20
-14.7485722239
 10
-2.0565124605
 20
-14.7417237729
 10
-2.0419952266
 20
-14.7308901988
  0
LINE
  5
468
100
AcDbEntity
  8
RACCORDO
100
AcDbLine
 62
253
  6
CONTINUOUS
 10
-25.1440603413
 20
32.9839740405
 11
-25.1615140768
 21
33.0014277761
  0
LINE
  5
469
100
AcDbEntity
  8
DRAFT
100
AcDbLine
 62
7
  6
CONTINUOUS
 10
-18.1798024223
 20
32.0197541984
 11
-18.1614759999
 21
32.0014277761
  0
LINE
  5
46A
100
AcDbEntity
  8
ASSI
100
AcDbLine
 62
7
  6
CONTINUOUS
 10
4.3028620001
 20
3.7180527761
 11
4.8039430001
 21
2.7513717761
  0
LINE
  5
46B
100
AcDbEntity
  8
ASSI
100
AcDbLine
 62
7
  6
CONTINUOUS
 10
5.3671370001
 20
2.7513777761
 11
4.8348917134
 21
3.7781862584
  0
LWPOLYLINE
  5
46C
100
AcDbEntity
  8
RACCORDO
100
AcDbPolyline
 62
253
  6
CONTINUOUS
 90
31
 70
0
 10
12.4895393075
 20
-19.2291733788
 10
12.4854315797
 20
-19.1193423837
 10
12.4733749746
 20
-19.012079528
 10
12.4536279221
 20
-18.9079463652
 10
12.4261399497
 20
-18.8066506468
 10
12.3910959093
 20
-18.7093707524
 10
12.3493809743
 20
-18.6185979258
 10
12.30102268
 20
-18.5342908954
 10
12.2461262544
 20
-18.4567665295
 10
12.1864121276
 20
-18.3885970053
 10
12.1221534607
 20
-18.3301752275
 10
12.0531386572
 20
-18.2811744897
 10
11.9812303414
 20
-18.2426933607
 10
11.9070593116
 20
-18.2151738136
 10
11.8304756479
 20
-18.1985416738
 10
11.753017992
 20
-18.1927788549
 10
11.6755290522
 20
-18.1982168357
 10
11.5982818575
 20
-18.2150109111
 10
11.522509719
 20
-18.2424883482
 10
11.4490783931
 20
-18.2807411697
 10
11.3786437424
 20
-18.3298233528
 10
11.3123469189
 20
-18.3885524219
 10
11.2510989731
 20
-18.4567630048
 10
11.1953745258
 20
-18.5340859692
 10
11.1456035117
 20
-18.6185979258
 10
11.1018514099
 20
-18.7095642249
 10
11.0647400611
 20
-18.8065837831
 10
11.0352076239
 20
-18.9078964782
 10
11.0133017579
 20
-19.0123805868
 10
10.9983048933
 20
-19.1196996931
 10
10.9895964229
 20
-19.2291733788
  0
LINE
  5
46D
100
AcDbEntity
  8
RACCORDO
100
AcDbLine
 62
7
  6
CONTINUOUS
 10
10.7765632388
 20
-31.6447977323
 11
10.7765632388
 21
-19.6366114626
  0
LINE
  5
46E
100
AcDbEntity
  8
DRAFT
100
AcDbLine
 62
7
  6
CONTINUOUS
 10
10.8201975777
 20
-19.6802458016
 11
10.8201975777
 21
-25.4802458016
  0
LINE
  5
46F
100
AcDbEntity
  8
DRAFT
100
AcDbLine
 62
7
  6
CONTINUOUS
 10
10.8201975777
 20
25.4831013537
 11
10.8201975777
 21
32.0197541984
  0
LINE
  5
470
100
AcDbEntity
  8
DRAFT
100
AcDbLine
 62
7
  6
CONTINUOUS
 10
10.8376513133
 20
-30.1494449107
 11
10.8376513133
 21
-25.9985722239
  0
LINE
  5
471
100
AcDbEntity
  8
DRAFT
100
AcDbLine
 62
7
  6
CONTINUOUS
 10
10.8376513133
 20
26.0014277761
 11
10.8376513133
 21
30.1523004629
  0
LINE
  5
472
100
AcDbEntity
  8
DRAFT
100
AcDbLine
 62
7
  6
CONTINUOUS
 10
10.8385240001
 20
-31.9985722239
 11
10.8385240001
 21
-30.1485722239
  0
LINE
  5
473
100
AcDbEntity
  8
DRAFT
100
AcDbLine
 62
7
  6
CONTINUOUS
 10
10.8385240001
 20
-25.9976995371
 11
10.8385240001
 21
-25.4985722239
  0
LINE
  5
474
100
AcDbEntity
  8
DRAFT
100
AcDbLine
 62
7
  6
CONTINUOUS
 10
10.8385240001
 20
25.5014277761
 11
10.8385240001
 21
26.0005550893
  0
LINE
  5
475
100
AcDbEntity
  8
DRAFT
100
AcDbLine
 62
7
  6
CONTINUOUS
 10
10.8385240001
 20
30.1514277761
 11
10.8385240001
 21
32.0014277761
  0
LINE
  5
476
100
AcDbEntity
  8
RACCORDO
100
AcDbLine
 62
253
  6
CONTINUOUS
 10
10.9895964229
 20
-17.7292304942
 11
10.9895964229
 21
-19.2291733788
  0
LINE
  5
477
100
AcDbEntity
  8
RACCORDO
100
AcDbLine
 62
253
  6
CONTINUOUS
 10
11.2869897861
 20
-19.6366114626
 11
11.2869897861
 21
-19.5278700105
  0
LINE
  5
478
100
AcDbEntity
  8
RACCORDO
100
AcDbLine
 62
253
  6
CONTINUOUS
 10
12.4869440937
 20
-32.665199135
 11
12.4869440937
 21
-32.0501521303
  0
LINE
  5
479
100
AcDbEntity
  8
DRAFT
100
AcDbLine
 62
7
  6
CONTINUOUS
 10
12.5201975777
 20
-32.9811184883
 11
12.5201975777
 21
-32.0168986463
  0
LINE
  5
47A
100
AcDbEntity
  8
RACCORDO
100
AcDbLine
 62
7
  6
CONTINUOUS
 10
12.5201975777
 20
-19.6802458016
 11
12.5201975777
 21
-19.1985151085
  0
LINE
  5
47B
100
AcDbEntity
  8
DRAFT
100
AcDbLine
 62
7
  6
CONTINUOUS
 10
12.5385240001
 20
-31.2485722239
 11
12.5385240001
 21
-30.1485722239
  0
LINE
  5
47C
100
AcDbEntity
  8
DRAFT
100
AcDbLine
 62
7
  6
CONTINUOUS
 10
12.5385240001
 20
30.1514277761
 11
12.5385240001
 21
31.2514277761
  0
LINE
  5
47D
100
AcDbEntity
  8
RACCORDO
100
AcDbLine
 62
253
  6
CONTINUOUS
 10
12.4872002519
 20
-19.4135459773
 11
12.4869440937
 21
-19.6469923176
  0
LINE
  5
47E
100
AcDbEntity
  8
RACCORDO
100
AcDbLine
 62
253
  6
CONTINUOUS
 10
12.4878674851
 20
-19.3140358282
 11
12.4872002519
 21
-19.4135459773
  0
LINE
  5
47F
100
AcDbEntity
  8
RACCORDO
100
AcDbLine
 62
253
  6
CONTINUOUS
 10
12.4883024737
 20
-19.2756730217
 11
12.4878674851
 21
-19.3140358282
  0
LWPOLYLINE
  5
480
100
AcDbEntity
  8
RACCORDO
100
AcDbPolyline
 62
253
  6
CONTINUOUS
 90
5
 70
0
 10
12.4895393075
 20
-19.2291733788
 10
12.4892813615
 20
-19.232108943
 10
12.4890291989
 20
-19.2381720736
 10
12.4887828199
 20
-19.2473627706
 10
12.4883024737
 20
-19.2756730217
  0
LINE
  5
481
100
AcDbEntity
  8
RACCORDO
100
AcDbLine
 62
7
  6
CONTINUOUS
 10
9.2741920679
 20
-32.6409924304
 11
9.2404578875
 21
-32.9791846009
  0
LWPOLYLINE
  5
482
100
AcDbEntity
  8
0
100
AcDbPolyline
 62
7
  6
CONTINUOUS
 90
24
 70
0
 10
2.1493909154
 20
-13.1801898197
 10
2.1489294194
 20
-13.1807214525
 10
2.143946975
 20
-13.1858374869
 10
2.1340126879
 20
-13.1944769474
 10
2.1195182653
 20
-13.2053414143
 10
2.1002820154
 20
-13.2180220605
 10
2.0758158432
 20
-13.2324101286
 10
2.0463871808
 20
-13.2480273573
 10
2.0118838518
 20
-13.2647159393
 10
1.9721361964
 20
-13.2823805759
 10
1.9273682147
 20
-13.3007913115
 10
1.8775354177
 20
-13.3198762975
 10
1.8225465273
 20
-13.3395974024
 10
1.7625479542
 20
-13.3598489004
 10
1.697545692
 20
-13.3805940186
 10
1.6275068547
 20
-13.4018182801
 10
1.5525135963
 20
-13.423481646
 10
1.4725774382
 20
-13.4455747814
 10
1.3877617628
 20
-13.4680814476
 10
1.2982378439
 20
-13.4909661564
 10
1.2040809645
 20
-13.5142271113
 10
1.1054343987
 20
-13.5378523976
 10
1.0026087436
 20
-13.5617988553
 10
0.8957877966
 20
-13.586061858
  0
LINE
  5
483
100
AcDbEntity
  8
DRAFT
100
AcDbLine
 62
7
  6
CONTINUOUS
 10
-10.7614759999
 20
-25.4985722239
 11
-10.7431495776
 21
-25.4802458016
  0
LINE
  5
484
100
AcDbEntity
  8
DRAFT
100
AcDbLine
 62
7
  6
CONTINUOUS
 10
-9.1614759999
 20
-28.1985722239
 11
-9.2051103389
 21
-28.2422065629
  0
LINE
  5
485
100
AcDbEntity
  8
DRAFT
100
AcDbLine
 62
7
  6
CONTINUOUS
 10
-9.0824204826
 20
-28.2195167066
 11
-9.0614759999
 21
-28.1985722239
  0
LINE
  5
486
100
AcDbEntity
  8
DRAFT
100
AcDbLine
 62
7
  6
CONTINUOUS
 10
-12.4412156902
 20
-32.9791846009
 11
-12.4431495776
 21
-32.9811184883
  0
LINE
  5
487
100
AcDbEntity
  8
0
100
AcDbLine
 62
7
  6
CONTINUOUS
 10
-2.0419952266
 20
-14.7308901988
 11
-2.0228776244
 21
-14.7183210272
  0
LWPOLYLINE
  5
488
100
AcDbEntity
  8
0
100
AcDbPolyline
 62
7
  6
CONTINUOUS
 90
19
 70
0
 10
-2.0228776244
 20
-14.7183210272
 10
-1.9987105044
 20
-14.704122579
 10
-1.9698520321
 20
-14.6887972015
 10
-1.9362480148
 20
-14.6725041844
 10
-1.8977667151
 20
-14.6553313089
 10
-1.8547143735
 20
-14.6375220483
 10
-1.8071150975
 20
-14.6191536786
 10
-1.7549069189
 20
-14.6002553738
 10
-1.6982618391
 20
-14.5809265217
 10
-1.637242314
 20
-14.5612095109
 10
-1.5718271949
 20
-14.5411110775
 10
-1.5020372381
 20
-14.5206458009
 10
-1.4279288907
 20
-14.4998322152
 10
-1.3495353276
 20
-14.4786760645
 10
-1.2668115716
 20
-14.4571582749
 10
-1.1798202077
 20
-14.435284554
 10
-1.0886519026
 20
-14.4130619547
 10
-0.9932872121
 20
-14.3904661167
 10
-0.8937763322
 20
-14.3674858742
  0
LINE
  5
489
100
AcDbEntity
  8
DRAFT
100
AcDbLine
 62
7
  6
CONTINUOUS
 10
-24.4614759999
 20
14.7014277761
 11
-18.4614759999
 21
14.7014277761
  0
LINE
  5
48A
100
AcDbEntity
  8
DRAFT
100
AcDbLine
 62
7
  6
CONTINUOUS
 10
-2.9614759999
 20
14.7014277761
 11
3.0385240001
 21
14.7014277761
  0
LINE
  5
48B
100
AcDbEntity
  8
DRAFT
100
AcDbLine
 62
7
  6
CONTINUOUS
 10
18.5385240001
 20
14.7014277761
 11
24.5385240001
 21
14.7014277761
  0
LINE
  5
48C
100
AcDbEntity
  8
DRAFT
100
AcDbLine
 62
7
  6
CONTINUOUS
 10
-10.7614759999
 20
25.5014277761
 11
-10.7431495776
 21
25.4831013537
  0
LINE
  5
48D
100
AcDbEntity
  8
DRAFT
100
AcDbLine
 62
7
  6
CONTINUOUS
 10
-2.9614759999
 20
17.7350505958
 11
-2.9562326079
 21
17.7298072037
  0
LINE
  5
48E
100
AcDbEntity
  8
DRAFT
100
AcDbLine
 62
7
  6
CONTINUOUS
 10
18.5621080936
 20
18.9408405653
 11
18.5385240001
 21
19.7350505958
  0
LINE
  5
48F
100
AcDbEntity
  8
DRAFT
100
AcDbLine
 62
7
  6
CONTINUOUS
 10
18.5437673921
 20
17.7298072037
 11
18.547314687
 21
15.2014277761
  0
LINE
  5
490
100
AcDbEntity
  8
ASSI
100
AcDbLine
 62
7
  6
CONTINUOUS
 10
15.3885240001
 20
36.0014277761
 11
15.3885240001
 21
33.0014277761
  0
LINE
  5
491
100
AcDbEntity
  8
ASSI
100
AcDbLine
 62
7
  6
CONTINUOUS
 10
15.3885240001
 20
31.2514277761
 11
15.3885240001
 21
25.5014277761
  0
LINE
  5
492
100
AcDbEntity
  8
ASSI
100
AcDbLine
 62
7
  6
CONTINUOUS
 10
15.3885240001
 20
-25.4985722239
 11
15.3885240001
 21
-29.9985722239
  0
LINE
  5
493
100
AcDbEntity
  8
DRAFT
100
AcDbLine
 62
7
  6
CONTINUOUS
 10
16.5385240001
 20
31.2514277761
 11
16.5385240001
 21
30.1514277761
  0
LINE
  5
494
100
AcDbEntity
  8
DRAFT
100
AcDbLine
 62
7
  6
CONTINUOUS
 10
16.5385240001
 20
-30.1485722239
 11
16.5385240001
 21
-31.2485722239
  0
LINE
  5
495
100
AcDbEntity
  8
DRAFT
100
AcDbLine
 62
7
  6
CONTINUOUS
 10
18.2385240001
 20
32.0014277761
 11
18.2385240001
 21
25.5014277761
  0
LINE
  5
496
100
AcDbEntity
  8
DRAFT
100
AcDbLine
 62
7
  6
CONTINUOUS
 10
18.2385240001
 20
-25.4985722239
 11
18.2385240001
 21
-31.9985722239
  0
LINE
  5
497
100
AcDbEntity
  8
DRAFT
100
AcDbLine
 62
7
  6
CONTINUOUS
 10
18.2568504224
 20
32.0197541984
 11
18.2568504224
 21
25.4831013537
  0
LINE
  5
498
100
AcDbEntity
  8
DRAFT
100
AcDbLine
 62
7
  6
CONTINUOUS
 10
18.2568504224
 20
-25.4802458016
 11
18.2568504224
 21
-32.0168986463
  0
LINE
  5
499
100
AcDbEntity
  8
DRAFT
100
AcDbLine
 62
7
  6
CONTINUOUS
 10
18.5385240001
 20
-17.6985722239
 11
18.5385240001
 21
-19.6985722239
  0
LINE
  5
49A
100
AcDbEntity
  8
DRAFT
100
AcDbLine
 62
7
  6
CONTINUOUS
 10
18.5385240001
 20
14.7014277761
 11
18.5385240001
 21
19.7350505958
  0
LINE
  5
49B
100
AcDbEntity
  8
RACCORDO
100
AcDbLine
 62
7
  6
CONTINUOUS
 10
18.5647046035
 20
-19.2117196432
 11
18.5647046035
 21
-19.6723916205
  0
LINE
  5
49C
100
AcDbEntity
  8
ASSI
100
AcDbLine
 62
7
  6
CONTINUOUS
 10
19.1885240001
 20
14.7014277761
 11
19.1885240001
 21
15.2014277761
  0
LINE
  5
49D
100
AcDbEntity
  8
ASSI
100
AcDbLine
 62
7
  6
CONTINUOUS
 10
19.1885240001
 20
33.0014277761
 11
19.1885240001
 21
36.0014277761
  0
LINE
  5
49E
100
AcDbEntity
  8
RACCORDO
100
AcDbLine
 62
7
  6
CONTINUOUS
 10
18.5499797547
 20
15.2892957417
 11
18.5637840185
 21
17.9256918448
  0
LINE
  5
49F
100
AcDbEntity
  8
DRAFT
100
AcDbLine
 62
7
  6
CONTINUOUS
 10
-7.0324204826
 20
-28.2195167066
 11
-7.0551103389
 21
-28.2422065629
  0
LINE
  5
4A0
100
AcDbEntity
  8
RACCORDO
100
AcDbLine
 62
253
  6
CONTINUOUS
 10
-4.9745663016
 20
-30.5616815641
 11
-4.9614759999
 21
-30.5485912624
  0
LINE
  5
4A1
100
AcDbEntity
  8
RACCORDO
100
AcDbLine
 62
253
  6
CONTINUOUS
 10
-4.4745853401
 20
-31.0616625256
 11
-4.4614950384
 21
-31.0485722239
  0
LINE
  5
4A2
100
AcDbEntity
  8
RACCORDO
100
AcDbLine
 62
253
  6
CONTINUOUS
 10
4.5516333402
 20
-22.5354819222
 11
4.5385430386
 21
-22.5485722239
  0
LINE
  5
4A3
100
AcDbEntity
  8
RACCORDO
100
AcDbLine
 62
253
  6
CONTINUOUS
 10
-8.941404204
 20
-36.0285385049
 11
-8.9614759999
 21
-36.0486103008
  0
LWPOLYLINE
  5
4A4
100
AcDbEntity
  8
RACCORDO
100
AcDbPolyline
 62
7
  6
CONTINUOUS
 90
3
 70
0
 10
-11.8107842858
 20
-32.1895759416
 10
-11.7402057254
 20
-32.1265554483
 10
-11.6662796856
 20
-32.0597462137
  0
LWPOLYLINE
  5
4A5
100
AcDbEntity
  8
0
100
AcDbPolyline
 62
7
  6
CONTINUOUS
 90
13
 70
0
 10
-2.1252049847
 20
-23.7423917607
 10
-2.1252659217
 20
-23.7424402349
 10
-2.1254473898
 20
-23.7425829752
 10
-2.1252856912
 20
-23.7424599008
 10
-2.1247524249
 20
-23.7420621779
 10
-2.1239138572
 20
-23.7414493083
 10
-2.1227694616
 20
-23.7406280714
 10
-2.1213028884
 20
-23.7395932025
 10
-2.119563196
 20
-23.7383843733
 10
-2.1175528128
 20
-23.7370068599
 10
-2.1152600398
 20
-23.7354558964
 10
-2.1127170019
 20
-23.7337558078
 10
-2.10992558
 20
-23.7319097345
  0
LINE
  5
4A6
100
AcDbEntity
  8
0
100
AcDbLine
 62
7
  6
CONTINUOUS
 10
-2.10992558
 20
-23.7319097345
 11
-2.1035917604
 21
-23.7277821968
  0
LINE
  5
4A7
100
AcDbEntity
  8
0
100
AcDbLine
 62
7
  6
CONTINUOUS
 10
-2.1035917604
 20
-23.7277821968
 11
-2.0962971121
 21
-23.7231086737
  0
LINE
  5
4A8
100
AcDbEntity
  8
0
100
AcDbLine
 62
7
  6
CONTINUOUS
 10
-2.0962971121
 20
-23.7231086737
 11
-2.0880783852
 21
-23.7179193885
  0
LINE
  5
4A9
100
AcDbEntity
  8
0
100
AcDbLine
 62
7
  6
CONTINUOUS
 10
-2.0880783852
 20
-23.7179193885
 11
-2.0789558321
 21
-23.7122313629
  0
LINE
  5
4AA
100
AcDbEntity
  8
0
100
AcDbLine
 62
7
  6
CONTINUOUS
 10
-2.0789558321
 20
-23.7122313629
 11
-2.0636589365
 21
-23.7028198032
  0
LWPOLYLINE
  5
4AB
100
AcDbEntity
  8
0
100
AcDbPolyline
 62
7
  6
CONTINUOUS
 90
30
 70
0
 10
-2.3229406007
 20
-23.3962435864
 10
-2.3277182058
 20
-23.3991606007
 10
-2.3323582855
 20
-23.4020255566
 10
-2.3368867337
 20
-23.404856065
 10
-2.3413064169
 20
-23.4076560079
 10
-2.3456187275
 20
-23.4104285852
 10
-2.3498507603
 20
-23.4131941563
 10
-2.3539970194
 20
-23.4159526712
 10
-2.3580717965
 20
-23.4187176443
 10
-2.362135313
 20
-23.421535912
 10
-2.3661730741
 20
-23.4244051278
 10
-2.3702071664
 20
-23.4273498132
 10
-2.3743505525
 20
-23.4304667382
 10
-2.3785685449
 20
-23.4337491696
 10
-2.3828903346
 20
-23.4372423211
 10
-2.3875101683
 20
-23.4411415598
 10
-2.3923676853
 20
-23.4454510562
 10
-2.3974729237
 20
-23.4502454839
 10
-2.4030842832
 20
-23.4558774717
 10
-2.4091928413
 20
-23.462508782
 10
-2.415631628
 20
-23.4701588099
 10
-2.4223612985
 20
-23.4790218491
 10
-2.4292875654
 20
-23.4892915581
 10
-2.4361602827
 20
-23.5009796988
 10
-2.4426814901
 20
-23.5139876707
 10
-2.4486082486
 20
-23.5282717516
 10
-2.453740434
 20
-23.543916953
 10
-2.4578166608
 20
-23.5609574716
 10
-2.460516941
 20
-23.5793517668
 10
-2.4614755524
 20
-23.5981606982
  0
LINE
  5
4AC
100
AcDbEntity
  8
0
100
AcDbLine
 62
7
  6
CONTINUOUS
 10
-2.0636589365
 20
-23.7028198032
 11
-2.0465185819
 21
-23.6924109153
  0
LINE
  5
4AD
100
AcDbEntity
  8
0
100
AcDbLine
 62
7
  6
CONTINUOUS
 10
-2.3129675748
 20
-23.3902452945
 11
-2.3229406007
 21
-23.3962435864
  0
LWPOLYLINE
  5
4AE
100
AcDbEntity
  8
0
100
AcDbPolyline
 62
7
  6
CONTINUOUS
 90
3
 70
0
 10
-2.0465185819
 20
-23.6924109153
 10
-2.0210091211
 20
-23.6771041488
 10
-2.0141014051
 20
-23.6729876245
  0
LINE
  5
4AF
100
AcDbEntity
  8
0
100
AcDbLine
 62
7
  6
CONTINUOUS
 10
-2.3023378603
 20
-23.3839621962
 11
-2.3129675748
 21
-23.3902452945
  0
LWPOLYLINE
  5
4B0
100
AcDbEntity
  8
0
100
AcDbPolyline
 62
253
  6
CONTINUOUS
 90
12
 70
0
 10
-2.1902454487
 20
-23.3209781572
 10
-2.1980656265
 20
-23.3255268982
 10
-2.2144533747
 20
-23.3368414496
 10
-2.2296609854
 20
-23.3499535964
 10
-2.2434617647
 20
-23.3647629648
 10
-2.2556834163
 20
-23.3810857309
 10
-2.2662337406
 20
-23.3986841703
 10
-2.2750460005
 20
-23.4173528304
 10
-2.2820468699
 20
-23.4368909223
 10
-2.2871535483
 20
-23.4570879911
 10
-2.290279333
 20
-23.4777208407
 10
-2.2913399858
 20
-23.4985722239
  0
LINE
  5
4B1
100
AcDbEntity
  8
0
100
AcDbLine
 62
7
  6
CONTINUOUS
 10
-2.2909978568
 20
-23.3773577877
 11
-2.3023378603
 21
-23.3839621962
  0
LINE
  5
4B2
100
AcDbEntity
  8
0
100
AcDbLine
 62
7
  6
CONTINUOUS
 10
-2.2789140477
 20
-23.3704087789
 11
-2.2909978568
 21
-23.3773577877
  0
LINE
  5
4B3
100
AcDbEntity
  8
0
100
AcDbLine
 62
7
  6
CONTINUOUS
 10
-2.2593551234
 20
-23.3593096512
 11
-2.2789140477
 21
-23.3704087789
  0
LINE
  5
4B4
100
AcDbEntity
  8
0
100
AcDbLine
 62
7
  6
CONTINUOUS
 10
-2.2380544086
 20
-23.3473775105
 11
-2.2593551234
 21
-23.3593096512
  0
LINE
  5
4B5
100
AcDbEntity
  8
0
100
AcDbLine
 62
7
  6
CONTINUOUS
 10
-2.206978105
 20
-23.3301712427
 11
-2.2380544086
 21
-23.3473775105
  0
LINE
  5
4B6
100
AcDbEntity
  8
0
100
AcDbLine
 62
7
  6
CONTINUOUS
 10
-2.1900551333
 20
-23.3208736837
 11
-2.1902454487
 21
-23.3209781572
  0
LINE
  5
4B7
100
AcDbEntity
  8
0
100
AcDbLine
 62
7
  6
CONTINUOUS
 10
-2.1900551334
 20
-23.3208736837
 11
-2.206978105
 21
-23.3301712427
  0
LINE
  5
4B8
100
AcDbEntity
  8
RACCORDO
100
AcDbLine
 62
7
  6
CONTINUOUS
 10
-24.4511309762
 20
15.2014277761
 11
-18.4718210236
 21
15.2014277761
  0
LINE
  5
4B9
100
AcDbEntity
  8
RACCORDO
100
AcDbLine
 62
7
  6
CONTINUOUS
 10
-2.9511309762
 20
15.2014277761
 11
3.0281789764
 21
15.2014277761
  0
LINE
  5
4BA
100
AcDbEntity
  8
RACCORDO
100
AcDbLine
 62
7
  6
CONTINUOUS
 10
18.5488690238
 20
15.2014277761
 11
24.5281789764
 21
15.2014277761
  0
LINE
  5
4BB
100
AcDbEntity
  8
RACCORDO
100
AcDbLine
 62
253
  6
CONTINUOUS
 10
-24.4500202453
 20
15.2892957417
 11
-18.4729317545
 21
15.2892957417
  0
LINE
  5
4BC
100
AcDbEntity
  8
RACCORDO
100
AcDbLine
 62
253
  6
CONTINUOUS
 10
-2.9500202453
 20
15.2892957417
 11
3.0270682455
 21
15.2892957417
  0
LINE
  5
4BD
100
AcDbEntity
  8
RACCORDO
100
AcDbLine
 62
253
  6
CONTINUOUS
 10
18.5499797547
 20
15.2892957417
 11
24.5270682455
 21
15.2892957417
  0
LINE
  5
4BE
100
AcDbEntity
  8
DRAFT
100
AcDbLine
 62
253
  6
CONTINUOUS
 10
24.5132639817
 20
17.9256918448
 11
18.5637840185
 21
17.9256918448
  0
LINE
  5
4BF
100
AcDbEntity
  8
DRAFT
100
AcDbLine
 62
253
  6
CONTINUOUS
 10
3.0132639817
 20
17.9256918448
 11
-2.9362159815
 21
17.9256918448
  0
LINE
  5
4C0
100
AcDbEntity
  8
DRAFT
100
AcDbLine
 62
253
  6
CONTINUOUS
 10
-18.4867360183
 20
17.9256918448
 11
-24.4362159815
 21
17.9256918448
  0
LINE
  5
4C1
100
AcDbEntity
  8
DRAFT
100
AcDbLine
 62
253
  6
CONTINUOUS
 10
24.5149399066
 20
18.9408405653
 11
18.5621080936
 21
18.9408405653
  0
LINE
  5
4C2
100
AcDbEntity
  8
DRAFT
100
AcDbLine
 62
253
  6
CONTINUOUS
 10
3.0149399066
 20
18.9408405653
 11
-2.9378919064
 21
18.9408405653
  0
LINE
  5
4C3
100
AcDbEntity
  8
DRAFT
100
AcDbLine
 62
253
  6
CONTINUOUS
 10
-18.4850600934
 20
18.9408405653
 11
-24.4378919064
 21
18.9408405653
  0
LINE
  5
4C4
100
AcDbEntity
  8
DRAFT
100
AcDbLine
 62
7
  6
CONTINUOUS
 10
24.5149399066
 20
18.9408405653
 11
24.5385240001
 21
19.7350505958
  0
LINE
  5
4C5
100
AcDbEntity
  8
RACCORDO
100
AcDbLine
 62
253
  6
CONTINUOUS
 10
5.0516143018
 20
-23.0354628838
 11
5.0385240001
 21
-23.0485531854
  0
LINE
  5
4C6
100
AcDbEntity
  8
RACCORDO
100
AcDbLine
 62
253
  6
CONTINUOUS
 10
2.5385430386
 20
-25.5485722239
 11
2.5339089083
 21
-25.5532063541
  0
LINE
  5
4C7
100
AcDbEntity
  8
RACCORDO
100
AcDbLine
 62
253
  6
CONTINUOUS
 10
10.9895964229
 20
-17.7292304942
 11
11.0202546931
 21
-17.6985722239
  0
LINE
  5
4C8
100
AcDbEntity
  8
RACCORDO
100
AcDbLine
 62
253
  6
CONTINUOUS
 10
-7.9414422809
 20
-37.028500428
 11
-7.9615140768
 21
-37.0485722239
  0
LINE
  5
4C9
100
AcDbEntity
  8
RACCORDO
100
AcDbLine
 62
253
  6
CONTINUOUS
 10
3.0385240001
 20
-26.0485531854
 11
3.0331193223
 21
-26.0539578632
  0
LINE
  5
4CA
100
AcDbEntity
  8
RACCORDO
100
AcDbLine
 62
253
  6
CONTINUOUS
 10
-6.9440222643
 20
-36.0311565653
 11
-6.917841661
 21
-36.0049759619
  0
LINE
  5
4CB
100
AcDbEntity
  8
RACCORDO
100
AcDbLine
 62
253
  6
CONTINUOUS
 10
-5.9440603413
 20
-37.0311184883
 11
-5.9178797379
 21
-37.004937885
  0
LINE
  5
4CC
100
AcDbEntity
  8
DRAFT
100
AcDbLine
 62
7
  6
CONTINUOUS
 10
7.132158339
 20
-24.154937885
 11
7.1094684828
 21
-24.1776277412
  0
LINE
  5
4CD
100
AcDbEntity
  8
RACCORDO
100
AcDbLine
 62
253
  6
CONTINUOUS
 10
12.4895393075
 20
-19.2291733788
 11
12.5201975777
 21
-19.1985151085
  0
LINE
  5
4CE
100
AcDbEntity
  8
DRAFT
100
AcDbLine
 62
7
  6
CONTINUOUS
 10
-4.9920200372
 20
-37.0485722239
 11
-4.9614759999
 21
-37.0180281866
  0
LINE
  5
4CF
100
AcDbEntity
  8
DRAFT
100
AcDbLine
 62
7
  6
CONTINUOUS
 10
9.1594684828
 20
-24.1776277412
 11
9.1385240001
 21
-24.1985722239
  0
LINE
  5
4D0
100
AcDbEntity
  8
DRAFT
100
AcDbLine
 62
7
  6
CONTINUOUS
 10
9.2385240001
 20
-24.1985722239
 11
9.282158339
 21
-24.154937885
  0
LINE
  5
4D1
100
AcDbEntity
  8
RACCORDO
100
AcDbLine
 62
253
  6
CONTINUOUS
 10
3.0261840718
 20
-30.5609311907
 11
3.0385240001
 21
-30.5485912624
  0
LWPOLYLINE
  5
4D2
100
AcDbEntity
  8
0
100
AcDbPolyline
 62
7
  6
CONTINUOUS
 90
18
 70
0
 10
-2.0139927391
 20
-23.6729228983
 10
-1.9906145103
 20
-23.6596723289
 10
-1.9552917092
 20
-23.6415643461
 10
-1.9133807507
 20
-23.6221381648
 10
-1.8644543486
 20
-23.6014424307
 10
-1.8085357119
 20
-23.5796865547
 10
-1.7461350824
 20
-23.5571903929
 10
-1.6772411861
 20
-23.5340181258
 10
-1.601814471
 20
-23.5102056971
 10
-1.5204561555
 20
-23.4859608953
 10
-1.4333032102
 20
-23.461315132
 10
-1.340472006
 20
-23.4362824884
 10
-1.2426597365
 20
-23.4110151397
 10
-1.1401471515
 20
-23.385534636
 10
-1.0331606352
 20
-23.3598418166
 10
-0.9224131489
 20
-23.3340442729
 10
-0.8083536196
 20
-23.3081748571
 10
-0.6912113738
 20
-23.2822123512
  0
LWPOLYLINE
  5
4D3
100
AcDbEntity
  8
0
100
AcDbPolyline
 62
253
  6
CONTINUOUS
 90
5
 70
0
 10
-2.1793758833
 20
-23.7806448262
 10
-2.161563466
 20
-23.7716186028
 10
-2.1439786289
 20
-23.7603040411
 10
-2.1276602253
 20
-23.7471919059
 10
-2.1173140935
 20
-23.7368453765
  0
LINE
  5
4D4
100
AcDbEntity
  8
DRAFT
100
AcDbLine
 62
7
  6
CONTINUOUS
 10
24.5385240001
 20
19.7350505958
 11
18.5385240001
 21
19.7350505958
  0
LINE
  5
4D5
100
AcDbEntity
  8
DRAFT
100
AcDbLine
 62
7
  6
CONTINUOUS
 10
3.0385240001
 20
19.7350505958
 11
-2.9614759999
 21
19.7350505958
  0
LINE
  5
4D6
100
AcDbEntity
  8
DRAFT
100
AcDbLine
 62
7
  6
CONTINUOUS
 10
-18.4614759999
 20
19.7350505958
 11
-24.4614759999
 21
19.7350505958
  0
LINE
  5
4D7
100
AcDbEntity
  8
RACCORDO
100
AcDbLine
 62
7
  6
CONTINUOUS
 10
24.5270682455
 20
15.2892957417
 11
24.5132639817
 21
17.9256918448
  0
LINE
  5
4D8
100
AcDbEntity
  8
RACCORDO
100
AcDbLine
 62
7
  6
CONTINUOUS
 10
24.5123433967
 20
-19.6723916205
 11
24.5123433967
 21
-19.2117196432
  0
LINE
  5
4D9
100
AcDbEntity
  8
DRAFT
100
AcDbLine
 62
7
  6
CONTINUOUS
 10
24.5385240001
 20
-19.6985722239
 11
24.5385240001
 21
-17.6985722239
  0
LINE
  5
4DA
100
AcDbEntity
  8
DRAFT
100
AcDbLine
 62
7
  6
CONTINUOUS
 10
24.5385240001
 20
14.7014277761
 11
24.5385240001
 21
19.7350505958
  0
LINE
  5
4DB
100
AcDbEntity
  8
RACCORDO
100
AcDbLine
 62
7
  6
CONTINUOUS
 10
26.2210702645
 20
-31.9811565653
 11
26.2210702645
 21
31.9840121174
  0
LINE
  5
4DC
100
AcDbEntity
  8
RACCORDO
100
AcDbLine
 62
7
  6
CONTINUOUS
 10
26.2385240001
 20
32.001465853
 11
26.2385240001
 21
-31.9986103008
  0
LINE
  5
4DD
100
AcDbEntity
  8
DRAFT
100
AcDbLine
 62
7
  6
CONTINUOUS
 10
24.533280608
 20
17.7298072037
 11
24.5297333132
 21
15.2014277761
  0
LINE
  5
4DE
100
AcDbEntity
  8
RACCORDO
100
AcDbLine
 62
253
  6
CONTINUOUS
 10
3.5254146599
 20
-31.0616625256
 11
3.5385049616
 21
-31.0485722239
  0
LINE
  5
4DF
100
AcDbEntity
  8
DRAFT
100
AcDbLine
 62
7
  6
CONTINUOUS
 10
10.8376513133
 20
-25.9985722239
 11
10.8385240001
 21
-25.9976995371
  0
LINE
  5
4E0
100
AcDbEntity
  8
DRAFT
100
AcDbLine
 62
7
  6
CONTINUOUS
 10
18.5647046035
 20
-19.6723916205
 11
18.5385240001
 21
-19.6985722239
  0
LINE
  5
4E1
100
AcDbEntity
  8
DRAFT
100
AcDbLine
 62
7
  6
CONTINUOUS
 10
7.132158339
 20
-31.204937885
 11
7.1094684828
 21
-31.2276277412
  0
LINE
  5
4E2
100
AcDbEntity
  8
DRAFT
100
AcDbLine
 62
7
  6
CONTINUOUS
 10
9.1594684828
 20
-31.2276277412
 11
9.1385240001
 21
-31.2485722239
  0
LINE
  5
4E3
100
AcDbEntity
  8
DRAFT
100
AcDbLine
 62
7
  6
CONTINUOUS
 10
9.2385240001
 20
-31.2485722239
 11
9.282158339
 21
-31.204937885
  0
LWPOLYLINE
  5
4E4
100
AcDbEntity
  8
RACCORDO
100
AcDbPolyline
 62
7
  6
CONTINUOUS
 90
13
 70
0
 10
-12.375077649
 20
-32.6409924304
 10
-12.3567272818
 20
-32.6330633476
 10
-12.3342126326
 20
-32.6204751731
 10
-12.3074195885
 20
-32.6032279069
 10
-12.2761853569
 20
-32.5812523963
 10
-12.2404868823
 20
-32.554617794
 10
-12.2005215586
 20
-32.5235315576
 10
-12.1563674573
 20
-32.4878827305
 10
-12.1080583003
 20
-32.4477822695
 10
-12.05586774
 20
-32.4037705024
 10
-12.000163448
 20
-32.3559866839
 10
-11.9409169445
 20
-32.3042915594
 10
-11.8107842858
 20
-32.1895759416
  0
LINE
  5
4E5
100
AcDbEntity
  8
DRAFT
100
AcDbLine
 62
7
  6
CONTINUOUS
 10
18.2568504224
 20
25.4831013537
 11
10.8201975777
 21
25.4831013537
  0
LINE
  5
4E6
100
AcDbEntity
  8
DRAFT
100
AcDbLine
 62
7
  6
CONTINUOUS
 10
-10.7431495776
 20
25.4831013537
 11
-18.1798024223
 21
25.4831013537
  0
LINE
  5
4E7
100
AcDbEntity
  8
DRAFT
100
AcDbLine
 62
7
  6
CONTINUOUS
 10
18.2385240001
 20
25.5014277761
 11
10.8385240001
 21
25.5014277761
  0
LINE
  5
4E8
100
AcDbEntity
  8
DRAFT
100
AcDbLine
 62
7
  6
CONTINUOUS
 10
-10.7614759999
 20
25.5014277761
 11
-18.1614759999
 21
25.5014277761
  0
LINE
  5
4E9
100
AcDbEntity
  8
DRAFT
100
AcDbLine
 62
7
  6
CONTINUOUS
 10
18.5385240001
 20
17.7350505958
 11
18.5437673921
 21
17.7298072037
  0
LINE
  5
4EA
100
AcDbEntity
  8
DRAFT
100
AcDbLine
 62
7
  6
CONTINUOUS
 10
10.8376513133
 20
26.0014277761
 11
10.8385240001
 21
26.0005550893
  0
LINE
  5
4EB
100
AcDbEntity
  8
DRAFT
100
AcDbLine
 62
7
  6
CONTINUOUS
 10
10.8385240001
 20
-30.1485722239
 11
10.8376513133
 21
-30.1494449107
  0
LINE
  5
4EC
100
AcDbEntity
  8
DRAFT
100
AcDbLine
 62
7
  6
CONTINUOUS
 10
9.2404578875
 20
-32.9791846009
 11
9.2385240001
 21
-32.9811184883
  0
LINE
  5
4ED
100
AcDbEntity
  8
RACCORDO
100
AcDbLine
 62
7
  6
CONTINUOUS
 10
24.5253194654
 20
-17.7117767586
 11
24.5385240001
 21
-17.6985722239
  0
LINE
  5
4EE
100
AcDbEntity
  8
RACCORDO
100
AcDbLine
 62
7
  6
CONTINUOUS
 10
10.7773500103
 20
-32.0597462137
 11
10.8385240001
 21
-31.9985722239
  0
LINE
  5
4EF
100
AcDbEntity
  8
DRAFT
100
AcDbLine
 62
7
  6
CONTINUOUS
 10
18.2385240001
 20
-25.4985722239
 11
18.2568504224
 21
-25.4802458016
  0
LINE
  5
4F0
100
AcDbEntity
  8
RACCORDO
100
AcDbLine
 62
7
  6
CONTINUOUS
 10
12.4869440937
 20
-32.0501521303
 11
12.5201975777
 21
-32.0168986463
  0
LINE
  5
4F1
100
AcDbEntity
  8
DRAFT
100
AcDbLine
 62
7
  6
CONTINUOUS
 10
-18.1614759999
 20
30.1514277761
 11
-16.4614759999
 21
30.1514277761
  0
LINE
  5
4F2
100
AcDbEntity
  8
DRAFT
100
AcDbLine
 62
7
  6
CONTINUOUS
 10
-12.4614759999
 20
30.1514277761
 11
-10.7614759999
 21
30.1514277761
  0
LINE
  5
4F3
100
AcDbEntity
  8
DRAFT
100
AcDbLine
 62
7
  6
CONTINUOUS
 10
10.8385240001
 20
30.1514277761
 11
12.5385240001
 21
30.1514277761
  0
LINE
  5
4F4
100
AcDbEntity
  8
DRAFT
100
AcDbLine
 62
7
  6
CONTINUOUS
 10
16.5385240001
 20
30.1514277761
 11
18.2385240001
 21
30.1514277761
  0
LINE
  5
4F5
100
AcDbEntity
  8
DRAFT
100
AcDbLine
 62
7
  6
CONTINUOUS
 10
-16.4614759999
 20
31.2514277761
 11
-12.4614759999
 21
31.2514277761
  0
LINE
  5
4F6
100
AcDbEntity
  8
DRAFT
100
AcDbLine
 62
7
  6
CONTINUOUS
 10
12.5385240001
 20
31.2514277761
 11
16.5385240001
 21
31.2514277761
  0
LINE
  5
4F7
100
AcDbEntity
  8
DRAFT
100
AcDbLine
 62
7
  6
CONTINUOUS
 10
18.2385240001
 20
32.0014277761
 11
10.8385240001
 21
32.0014277761
  0
LINE
  5
4F8
100
AcDbEntity
  8
DRAFT
100
AcDbLine
 62
7
  6
CONTINUOUS
 10
-10.7614759999
 20
32.0014277761
 11
-18.1614759999
 21
32.0014277761
  0
LINE
  5
4F9
100
AcDbEntity
  8
DRAFT
100
AcDbLine
 62
7
  6
CONTINUOUS
 10
18.2568504224
 20
32.0197541984
 11
10.8201975777
 21
32.0197541984
  0
LINE
  5
4FA
100
AcDbEntity
  8
DRAFT
100
AcDbLine
 62
7
  6
CONTINUOUS
 10
-10.7431495776
 20
32.0197541984
 11
-18.1798024223
 21
32.0197541984
  0
LINE
  5
4FB
100
AcDbEntity
  8
RACCORDO
100
AcDbLine
 62
7
  6
CONTINUOUS
 10
25.2211083414
 20
32.9839740405
 11
-25.1440603413
 21
32.9839740405
  0
LINE
  5
4FC
100
AcDbEntity
  8
RACCORDO
100
AcDbLine
 62
7
  6
CONTINUOUS
 10
25.238562077
 20
33.0014277761
 11
-25.1615140768
 21
33.0014277761
  0
LINE
  5
4FD
100
AcDbEntity
  8
DRAFT
100
AcDbLine
 62
7
  6
CONTINUOUS
 10
10.8376513133
 20
30.1523004629
 11
10.8385240001
 21
30.1514277761
  0
LINE
  5
4FE
100
AcDbEntity
  8
DRAFT
100
AcDbLine
 62
7
  6
CONTINUOUS
 10
10.8201975777
 20
32.0197541984
 11
10.8385240001
 21
32.0014277761
  0
LINE
  5
4FF
100
AcDbEntity
  8
DRAFT
100
AcDbLine
 62
7
  6
CONTINUOUS
 10
18.2385240001
 20
25.5014277761
 11
18.2568504224
 21
25.4831013537
  0
LINE
  5
500
100
AcDbEntity
  8
0
100
AcDbLine
 62
7
  6
CONTINUOUS
 10
44.0385240001
 20
13.5014277761
 11
44.0385240001
 21
-13.4985722239
  0
LINE
  5
501
100
AcDbEntity
  8
0
100
AcDbLine
 62
7
  6
CONTINUOUS
 10
47.0385240001
 20
-13.4985722239
 11
47.0385240001
 21
13.5014277761
  0
LINE
  5
502
100
AcDbEntity
  8
0
100
AcDbLine
 62
7
  6
CONTINUOUS
 10
-13.4614759999
 20
44.0014277761
 11
13.5385240001
 21
44.0014277761
  0
LINE
  5
503
100
AcDbEntity
  8
0
100
AcDbLine
 62
7
  6
CONTINUOUS
 10
13.5385240001
 20
47.0014277761
 11
-13.4614759999
 21
47.0014277761
  0
LINE
  5
504
100
AcDbEntity
  8
0
100
AcDbLine
 62
7
  6
CONTINUOUS
 10
50.0385240001
 20
-49.9985722239
 11
50.0385240001
 21
47.0014277761
  0
LINE
  5
505
100
AcDbEntity
  8
0
100
AcDbLine
 62
7
  6
CONTINUOUS
 10
47.0385240001
 20
50.0014277761
 11
-46.9614759999
 21
50.0014277761
  0
ARC
  5
506
100
AcDbEntity
  8
0
100
AcDbCircle
 62
7
  6
CONTINUOUS
 10
-46.9614759999
 20
47.0014277761
 40
3.0
100
AcDbArc
 50
90.0
 51
180.0
  0
ARC
  5
507
100
AcDbEntity
  8
0
100
AcDbCircle
 62
7
  6
CONTINUOUS
 10
47.0385240001
 20
47.0014277761
 40
3.0
100
AcDbArc
 50
0.0
 51
90.0
  0
ARC
  5
508
100
AcDbEntity
  8
ASSI
100
AcDbCircle
 62
7
  6
CONTINUOUS
 10
17.2885240001
 20
36.0014277761
 40
1.9
100
AcDbArc
 50
0.0
 51
180.0
  0
ARC
  5
509
100
AcDbEntity
  8
ASSI
100
AcDbCircle
 62
7
  6
CONTINUOUS
 10
17.2885240001
 20
-29.9985722239
 40
1.9
100
AcDbArc
 50
180.0
 51
221.1564506576
  0
ARC
  5
50A
100
AcDbEntity
  8
ASSI
100
AcDbCircle
 62
7
  6
CONTINUOUS
 10
-17.2114759999
 20
-29.9985722239
 40
1.9
100
AcDbArc
 50
318.8435493424
 51
360.0
  0
ARC
  5
50B
100
AcDbEntity
  8
ASSI
100
AcDbCircle
 62
7
  6
CONTINUOUS
 10
-17.2114759999
 20
36.0014277761
 40
1.9
100
AcDbArc
 50
0.0
 51
180.0
  0
ARC
  5
50C
100
AcDbEntity
  8
0
100
AcDbCircle
 62
7
  6
CONTINUOUS
 10
13.5385240001
 20
45.5014277761
 40
1.5
100
AcDbArc
 50
270.0
 51
90.0
  0
ARC
  5
50D
100
AcDbEntity
  8
0
100
AcDbCircle
 62
7
  6
CONTINUOUS
 10
-13.4614759999
 20
45.5014277761
 40
1.5
100
AcDbArc
 50
90.0
 51
270.0
  0
ARC
  5
50E
100
AcDbEntity
  8
0
100
AcDbCircle
 62
7
  6
CONTINUOUS
 10
-45.4614759999
 20
13.5014277761
 40
1.5
100
AcDbArc
 50
0.0
 51
180.0
  0
ARC
  5
50F
100
AcDbEntity
  8
0
100
AcDbCircle
 62
7
  6
CONTINUOUS
 10
-45.4614759999
 20
-13.4985722239
 40
1.5
100
AcDbArc
 50
180.0
 51
360.0
  0
ARC
  5
510
100
AcDbEntity
  8
0
100
AcDbCircle
 62
7
  6
CONTINUOUS
 10
45.5385240001
 20
-13.4985722239
 40
1.5
100
AcDbArc
 50
180.0
 51
360.0
  0
ARC
  5
511
100
AcDbEntity
  8
0
100
AcDbCircle
 62
7
  6
CONTINUOUS
 10
45.5385240001
 20
13.5014277761
 40
1.5
100
AcDbArc
 50
0.0
 51
180.0
  0
CIRCLE
  5
512
100
AcDbEntity
  8
0
100
AcDbCircle
 62
7
  6
CONTINUOUS
 10
-17.2114759999
 20
0.0014277761
 40
1.49
  0
CIRCLE
  5
513
100
AcDbEntity
  8
0
100
AcDbCircle
 62
7
  6
CONTINUOUS
 10
17.2885240001
 20
0.0014277761
 40
1.49
  0
ARC
  5
514
100
AcDbEntity
  8
ASSI
100
AcDbCircle
 62
7
  6
CONTINUOUS
 10
4.5372490001
 20
4.4847707761
 40
0.7667158029
100
AcDbArc
 50
292.8428447433
 51
89.9990193551
  0
ARC
  5
515
100
AcDbEntity
  8
ASSI
100
AcDbCircle
 62
7
  6
CONTINUOUS
 10
4.4678470001
 20
4.4847707761
 40
0.304195
100
AcDbArc
 50
270.0016504601
 51
90.0
  0
ELLIPSE
  5
516
100
AcDbEntity
  8
RACCORDO
100
AcDbEllipse
 62
7
  6
CONTINUOUS
 10
-2.4614569607
 20
-33.5485912631
 30
0.0
 11
-0.3535803156
 21
0.3535803156
 31
0.0
 40
0.9999238505
 41
-0.7853600872
 42
0.7853600872
  0
ELLIPSE
  5
517
100
AcDbEntity
  8
RACCORDO
100
AcDbEllipse
 62
7
  6
CONTINUOUS
 10
-2.4614569607
 20
-34.5485531847
 30
0.0
 11
0.3535803156
 21
0.3535803156
 31
0.0
 40
0.9999238505
 41
2.3562325664
 42
3.9269527408
  0
ELLIPSE
  5
518
100
AcDbEntity
  8
RACCORDO
100
AcDbEllipse
 62
7
  6
CONTINUOUS
 10
2.5385049609
 20
-34.5485531847
 30
0.0
 11
0.3535803156
 21
-0.3535803156
 31
0.0
 40
0.9999238505
 41
-0.7853600872
 42
0.7853600872
  0
ELLIPSE
  5
519
100
AcDbEntity
  8
RACCORDO
100
AcDbEllipse
 62
7
  6
CONTINUOUS
 10
2.5385049609
 20
-33.5485912631
 30
0.0
 11
0.3535803156
 21
0.3535803156
 31
0.0
 40
0.9999238505
 41
-0.7853600872
 42
0.7853600872
  0
ELLIPSE
  5
51A
100
AcDbEntity
  8
RACCORDO
100
AcDbEllipse
 62
7
  6
CONTINUOUS
 10
-4.4614569607
 20
-30.5485531847
 30
0.0
 11
-0.3535803156
 21
-0.3535803156
 31
0.0
 40
0.9999238505
 41
-0.7853600872
 42
0.7853600872
  0
ELLIPSE
  5
51B
100
AcDbEntity
  8
RACCORDO
100
AcDbEllipse
 62
7
  6
CONTINUOUS
 10
4.5385049609
 20
-30.5485531847
 30
0.0
 11
0.3535803156
 21
-0.3535803156
 31
0.0
 40
0.9999238505
 41
-0.7853600872
 42
0.7853600872
  0
ELLIPSE
  5
51C
100
AcDbEntity
  8
RACCORDO
100
AcDbEllipse
 62
7
  6
CONTINUOUS
 10
-4.4614569607
 20
-23.0485912631
 30
0.0
 11
-0.3535803156
 21
0.3535803156
 31
0.0
 40
0.9999238505
 41
-0.7853600872
 42
0.7853600872
  0
ELLIPSE
  5
51D
100
AcDbEntity
  8
RACCORDO
100
AcDbEllipse
 62
7
  6
CONTINUOUS
 10
4.5385049609
 20
-23.0485912631
 30
0.0
 11
0.3535803156
 21
0.3535803156
 31
0.0
 40
0.9999238505
 41
-0.7853600872
 42
0.7853600872
  0
ELLIPSE
  5
51E
100
AcDbEntity
  8
RACCORDO
100
AcDbEllipse
 62
7
  6
CONTINUOUS
 10
-3.4614950391
 20
-30.5485531847
 30
0.0
 11
-0.3535803156
 21
0.3535803156
 31
0.0
 40
0.9999238505
 41
2.3562325664
 42
3.9269527408
  0
ELLIPSE
  5
51F
100
AcDbEntity
  8
RACCORDO
100
AcDbEllipse
 62
7
  6
CONTINUOUS
 10
3.5385430393
 20
-30.5485531847
 30
0.0
 11
-0.3535803156
 21
-0.3535803156
 31
0.0
 40
0.9999238505
 41
-0.7853600872
 42
0.7853600872
  0
ELLIPSE
  5
520
100
AcDbEntity
  8
RACCORDO
100
AcDbEllipse
 62
7
  6
CONTINUOUS
 10
8.0384859217
 20
-36.0485341455
 30
0.0
 11
0.7071606311
 21
-0.7071606311
 31
0.0
 40
0.9999238505
 41
-0.7853600872
 42
0.7853600872
  0
ELLIPSE
  5
521
100
AcDbEntity
  8
RACCORDO
100
AcDbEllipse
 62
7
  6
CONTINUOUS
 10
8.0384859217
 20
-18.2485722239
 30
0.0
 11
1.0000380784
 21
0.0
 31
0.0
 40
0.9999619231
 41
0.5579934503
 42
1.5707963268
  0
ELLIPSE
  5
522
100
AcDbEntity
  8
RACCORDO
100
AcDbEllipse
 62
7
  6
CONTINUOUS
 10
-7.9614379215
 20
-18.2485722239
 30
0.0
 11
1.0000380784
 21
-0.0
 31
0.0
 40
0.9999619231
 41
1.5707963268
 42
2.5835992033
  0
ELLIPSE
  5
523
100
AcDbEntity
  8
RACCORDO
100
AcDbEllipse
 62
7
  6
CONTINUOUS
 10
-7.9614379215
 20
-36.0485341455
 30
0.0
 11
0.7071606311
 21
0.7071606311
 31
0.0
 40
0.9999238505
 41
-3.9269527408
 42
-2.3562325664
  0
ELLIPSE
  5
524
100
AcDbEntity
  8
RACCORDO
100
AcDbEllipse
 62
7
  6
CONTINUOUS
 10
-4.4745472624
 20
-30.5616434864
 30
0.0
 11
0.3535803156
 21
0.3535803156
 31
0.0
 40
0.9999238505
 41
-3.9269527408
 42
-2.3562325664
  0
ELLIPSE
  5
525
100
AcDbEntity
  8
RACCORDO
100
AcDbEllipse
 62
7
  6
CONTINUOUS
 10
8.0184141258
 20
-18.2485722239
 30
0.0
 11
-1.0000380784
 21
-0.0
 31
0.0
 40
0.9999619231
 41
-2.5835992033
 42
-1.5707963268
  0
ELLIPSE
  5
526
100
AcDbEntity
  8
RACCORDO
100
AcDbEllipse
 62
7
  6
CONTINUOUS
 10
8.0184141258
 20
-36.0284623496
 30
0.0
 11
-0.7071606311
 21
0.7071606311
 31
0.0
 40
0.9999238505
 41
2.3562325664
 42
3.9269527408
  0
ELLIPSE
  5
527
100
AcDbEntity
  8
RACCORDO
100
AcDbEllipse
 62
7
  6
CONTINUOUS
 10
7.0123433967
 20
-18.5769993487
 30
0.0
 11
-0.0
 21
2.0
 31
0.0
 40
0.0087268678
 41
0.8443550313
 42
1.5707963268
  0
ELLIPSE
  5
528
100
AcDbEntity
  8
RACCORDO
100
AcDbEllipse
 62
7
  6
CONTINUOUS
 10
-3.4491551695
 20
-30.5608930544
 30
0.0
 11
-0.1974604745
 21
0.4604056033
 31
0.0
 40
0.9977701902
 41
-3.3166167002
 42
-1.97522005
  0
ELLIPSE
  5
529
100
AcDbEntity
  8
RACCORDO
100
AcDbEllipse
 62
7
  6
CONTINUOUS
 10
-5.9178035826
 20
-36.0048998066
 30
0.0
 11
0.7071606311
 21
0.7071606311
 31
0.0
 40
0.9999238505
 41
2.3562325664
 42
3.9269527408
  0
ELLIPSE
  5
52A
100
AcDbEntity
  8
RACCORDO
100
AcDbEllipse
 62
7
  6
CONTINUOUS
 10
5.9948515827
 20
-36.0048998066
 30
0.0
 11
0.7071606311
 21
-0.7071606311
 31
0.0
 40
0.9999238505
 41
-0.7853600872
 42
0.7853600872
  0
ELLIPSE
  5
52B
100
AcDbEntity
  8
RACCORDO
100
AcDbEllipse
 62
7
  6
CONTINUOUS
 10
-4.4745472624
 20
-23.0355009614
 30
0.0
 11
0.3535803156
 21
-0.3535803156
 31
0.0
 40
0.9999238505
 41
2.3562325664
 42
3.9269527408
  0
ELLIPSE
  5
52C
100
AcDbEntity
  8
RACCORDO
100
AcDbEllipse
 62
7
  6
CONTINUOUS
 10
4.5515952626
 20
-30.5616434864
 30
0.0
 11
0.3535803156
 21
-0.3535803156
 31
0.0
 40
0.9999238505
 41
-0.7853600872
 42
0.7853600872
  0
ELLIPSE
  5
52D
100
AcDbEntity
  8
RACCORDO
100
AcDbEllipse
 62
7
  6
CONTINUOUS
 10
6.0210321861
 20
-36.0310804099
 30
0.0
 11
0.7071606311
 21
-0.7071606311
 31
0.0
 40
0.9999238505
 41
-0.7853600872
 42
0.7853600872
  0
ELLIPSE
  5
52E
100
AcDbEntity
  8
RACCORDO
100
AcDbEllipse
 62
7
  6
CONTINUOUS
 10
4.5515952626
 20
-23.0355009614
 30
0.0
 11
0.3535803156
 21
0.3535803156
 31
0.0
 40
0.9999238505
 41
-0.7853600872
 42
0.7853600872
  0
ELLIPSE
  5
52F
100
AcDbEntity
  8
RACCORDO
100
AcDbEllipse
 62
7
  6
CONTINUOUS
 10
-6.9352953965
 20
-18.5769993487
 30
0.0
 11
-0.0
 21
2.0
 31
0.0
 40
0.0087268678
 41
-1.5707963268
 42
-0.8443550313
  0
ELLIPSE
  5
530
100
AcDbEntity
  8
RACCORDO
100
AcDbEllipse
 62
7
  6
CONTINUOUS
 10
-5.9439841859
 20
-36.0310804099
 30
0.0
 11
0.7071606311
 21
0.7071606311
 31
0.0
 40
0.9999238505
 41
-3.9269527408
 42
-2.3562325664
  0
ELLIPSE
  5
531
100
AcDbEntity
  8
RACCORDO
100
AcDbEllipse
 62
7
  6
CONTINUOUS
 10
-7.9413661256
 20
-36.0284623496
 30
0.0
 11
-0.7071606311
 21
-0.7071606311
 31
0.0
 40
0.9999238505
 41
-0.7853600872
 42
0.7853600872
  0
ELLIPSE
  5
532
100
AcDbEntity
  8
RACCORDO
100
AcDbEllipse
 62
7
  6
CONTINUOUS
 10
-7.9413661256
 20
-18.2485722239
 30
0.0
 11
-1.0000380784
 21
-0.0
 31
0.0
 40
0.9999619231
 41
-1.5707963268
 42
-0.5579934503
  0
ELLIPSE
  5
533
100
AcDbEntity
  8
RACCORDO
100
AcDbEllipse
 62
7
  6
CONTINUOUS
 10
3.5262031696
 20
-30.5608930544
 30
0.0
 11
0.1974604745
 21
0.4604056033
 31
0.0
 40
0.9977701902
 41
-4.3079652572
 42
-2.966568607
  0
ELLIPSE
  5
534
100
AcDbEntity
  8
RACCORDO
100
AcDbEllipse
 62
7
  6
CONTINUOUS
 10
-2.4560522243
 20
-26.0539959996
 30
0.0
 11
-0.1974604745
 21
0.4604056033
 31
0.0
 40
0.9977701902
 41
-0.4043475708
 42
1.1663726036
  0
ELLIPSE
  5
535
100
AcDbEntity
  8
RACCORDO
100
AcDbEllipse
 62
7
  6
CONTINUOUS
 10
2.5331002244
 20
-26.0539959996
 30
0.0
 11
0.1974604745
 21
0.4604056033
 31
0.0
 40
0.9977701902
 41
-1.1663726036
 42
0.4043475708
  0
ELLIPSE
  5
536
100
AcDbEntity
  8
RACCORDO
100
AcDbEllipse
 62
7
  6
CONTINUOUS
 10
3.5254527376
 20
-30.5616434864
 30
0.0
 11
0.3535803156
 21
0.3535803156
 31
0.0
 40
0.9999238505
 41
-2.5855560905
 42
-2.3562325664
  0
ELLIPSE
  5
537
100
AcDbEntity
  8
RACCORDO
100
AcDbEllipse
 62
7
  6
CONTINUOUS
 10
-3.4484047374
 20
-30.5616434864
 30
0.0
 11
-0.3535803156
 21
0.3535803156
 31
0.0
 40
0.9999238505
 41
-3.9269527408
 42
-3.6976292167
  0
ELLIPSE
  5
538
100
AcDbEntity
  8
RACCORDO
100
AcDbEllipse
 62
7
  6
CONTINUOUS
 10
25.2384859217
 20
-31.9985341455
 30
0.0
 11
-0.7071606311
 21
0.7071606311
 31
0.0
 40
0.9999238505
 41
-3.9269527408
 42
-2.3562325664
  0
ELLIPSE
  5
539
100
AcDbEntity
  8
RACCORDO
100
AcDbEllipse
 62
7
  6
CONTINUOUS
 10
25.2384859217
 20
32.0013896977
 30
0.0
 11
0.7071606311
 21
0.7071606311
 31
0.0
 40
0.9999238505
 41
-0.7853600872
 42
0.7853600872
  0
ELLIPSE
  5
53A
100
AcDbEntity
  8
RACCORDO
100
AcDbEllipse
 62
7
  6
CONTINUOUS
 10
-25.1614379215
 20
32.0013896977
 30
0.0
 11
-0.7071606311
 21
0.7071606311
 31
0.0
 40
0.9999238505
 41
-0.7853600872
 42
0.7853600872
  0
ELLIPSE
  5
53B
100
AcDbEntity
  8
RACCORDO
100
AcDbEllipse
 62
7
  6
CONTINUOUS
 10
-25.1614379215
 20
-31.9985341455
 30
0.0
 11
0.7071606311
 21
0.7071606311
 31
0.0
 40
0.9999238505
 41
-3.9269527408
 42
-2.3562325664
  0
ELLIPSE
  5
53C
100
AcDbEntity
  8
RACCORDO
100
AcDbEllipse
 62
7
  6
CONTINUOUS
 10
4.5359059397
 20
-25.7985722239
 30
0.0
 11
0.0
 21
0.3
 31
0.0
 40
0.0087268678
 41
-1.5707963268
 42
0.0
  0
ELLIPSE
  5
53D
100
AcDbEntity
  8
RACCORDO
100
AcDbEllipse
 62
7
  6
CONTINUOUS
 10
-4.4588579396
 20
-25.7985722239
 30
0.0
 11
-0.0
 21
0.3
 31
0.0
 40
0.0087268678
 41
0.0
 42
1.5707963268
  0
ELLIPSE
  5
53E
100
AcDbEntity
  8
RACCORDO
100
AcDbEllipse
 62
7
  6
CONTINUOUS
 10
11.0201404601
 20
-19.1986293415
 30
0.0
 11
1.0607409467
 21
1.0607409467
 31
0.0
 40
0.9999238505
 41
-0.7853600872
 42
0.7853600872
  0
ELLIPSE
  5
53F
100
AcDbEntity
  8
RACCORDO
100
AcDbEllipse
 62
7
  6
CONTINUOUS
 10
-2.9511309762
 20
15.5014277761
 30
0.0
 11
-0.0
 21
0.3
 31
0.0
 40
0.0052360356
 41
-3.1415926536
 42
-2.3561944902
  0
ELLIPSE
  5
540
100
AcDbEntity
  8
RACCORDO
100
AcDbEllipse
 62
7
  6
CONTINUOUS
 10
-18.4718210236
 20
15.5014277761
 30
0.0
 11
0.0
 21
0.3
 31
0.0
 40
0.0052360356
 41
-3.926990817
 42
-3.1415926536
  0
ELLIPSE
  5
541
100
AcDbEntity
  8
RACCORDO
100
AcDbEllipse
 62
7
  6
CONTINUOUS
 10
18.5488690238
 20
15.5014277761
 30
0.0
 11
-0.0
 21
0.3
 31
0.0
 40
0.0052360356
 41
-3.1415926536
 42
-2.3561944902
  0
ELLIPSE
  5
542
100
AcDbEntity
  8
RACCORDO
100
AcDbEllipse
 62
7
  6
CONTINUOUS
 10
3.0281789764
 20
15.5014277761
 30
0.0
 11
-0.0
 21
0.3
 31
0.0
 40
0.0052360356
 41
-3.926990817
 42
-3.1415926536
  0
ELLIPSE
  5
543
100
AcDbEntity
  8
DRAFT
100
AcDbEllipse
 62
7
  6
CONTINUOUS
 10
-24.4384374432
 20
18.3499559135
 30
0.0
 11
0.0
 21
0.6
 31
0.0
 40
0.0052360356
 41
-2.3561944902
 42
-0.1745329252
  0
ELLIPSE
  5
544
100
AcDbEntity
  8
RACCORDO
100
AcDbEllipse
 62
7
  6
CONTINUOUS
 10
-10.94309246
 20
-19.1986293415
 30
0.0
 11
-1.0607409467
 21
1.0607409467
 31
0.0
 40
0.9999238505
 41
-0.7853600872
 42
0.7853600872
  0
ELLIPSE
  5
545
100
AcDbEntity
  8
DRAFT
100
AcDbEllipse
 62
7
  6
CONTINUOUS
 10
3.0154854434
 20
18.3499559135
 30
0.0
 11
0.0
 21
0.6
 31
0.0
 40
0.0052360356
 41
0.1745329252
 42
2.3561944902
  0
ELLIPSE
  5
546
100
AcDbEntity
  8
DRAFT
100
AcDbEllipse
 62
7
  6
CONTINUOUS
 10
-2.9384374432
 20
18.3499559135
 30
0.0
 11
-0.0
 21
0.6
 31
0.0
 40
0.0052360356
 41
-2.3561944902
 42
-0.1745329252
  0
ELLIPSE
  5
547
100
AcDbEntity
  8
DRAFT
100
AcDbEllipse
 62
7
  6
CONTINUOUS
 10
18.5615625568
 20
18.3499559135
 30
0.0
 11
0.0
 21
0.6
 31
0.0
 40
0.0052360356
 41
-2.3561944902
 42
-0.1745329252
  0
ELLIPSE
  5
548
100
AcDbEntity
  8
DRAFT
100
AcDbEllipse
 62
7
  6
CONTINUOUS
 10
-18.4845145566
 20
18.3499559135
 30
0.0
 11
0.0
 21
0.6
 31
0.0
 40
0.0052360356
 41
0.1745329252
 42
2.3561944902
  0
ELLIPSE
  5
549
100
AcDbEntity
  8
RACCORDO
100
AcDbEllipse
 62
7
  6
CONTINUOUS
 10
-24.4511309762
 20
15.5014277761
 30
0.0
 11
-0.0
 21
0.3
 31
0.0
 40
0.0052360356
 41
-3.1415926536
 42
-2.3561944902
  0
ELLIPSE
  5
54A
100
AcDbEntity
  8
DRAFT
100
AcDbEllipse
 62
7
  6
CONTINUOUS
 10
24.5154854434
 20
18.3499559135
 30
0.0
 11
-0.0
 21
0.6
 31
0.0
 40
0.0052360356
 41
0.1745329252
 42
2.3561944902
  0
ELLIPSE
  5
54B
100
AcDbEntity
  8
RACCORDO
100
AcDbEllipse
 62
7
  6
CONTINUOUS
 10
24.5281789764
 20
15.5014277761
 30
0.0
 11
0.0
 21
0.3
 31
0.0
 40
0.0052360356
 41
-3.926990817
 42
-3.1415926536
  0
ELLIPSE
  5
54C
100
AcDbEntity
  8
RACCORDO
100
AcDbEllipse
 62
7
  6
CONTINUOUS
 10
11.2869897861
 20
-19.6470837039
 30
0.0
 11
1.2
 21
0.0
 31
0.0
 40
0.0087268678
 41
0.0087266463
 42
1.5707963268
  0
ELLIPSE
  5
54D
100
AcDbEntity
  8
RACCORDO
100
AcDbEllipse
 62
7
  6
CONTINUOUS
 10
-11.2099417859
 20
-19.6470837039
 30
0.0
 11
1.2
 21
0.0
 31
0.0
 40
0.0087268678
 41
1.5707963268
 42
3.1328660073
  0
ELLIPSE
  5
54E
100
AcDbEntity
  8
RACCORDO
100
AcDbEllipse
 62
7
  6
CONTINUOUS
 10
-11.2099417859
 20
-32.0500607439
 30
0.0
 11
1.2
 21
0.0
 31
0.0
 40
0.0087268678
 41
-3.1328660073
 42
-1.960897061
  0
ELLIPSE
  5
54F
100
AcDbEntity
  8
RACCORDO
100
AcDbEllipse
 62
7
  6
CONTINUOUS
 10
11.2869897861
 20
-32.0500607439
 30
0.0
 11
1.2
 21
0.0
 31
0.0
 40
0.0087268678
 41
-1.1806955926
 42
-0.0087266463
  0
ELLIPSE
  5
550
100
AcDbEntity
  8
RACCORDO
100
AcDbEllipse
 62
7
  6
CONTINUOUS
 10
10.7852901066
 20
-31.6447977323
 30
0.0
 11
-0.0
 21
1.0
 31
0.0
 40
0.0087268678
 41
1.5707963268
 42
1.9986825055
  0
ELLIPSE
  5
551
100
AcDbEntity
  8
RACCORDO
100
AcDbEllipse
 62
7
  6
CONTINUOUS
 10
-10.7082421064
 20
-31.6447977323
 30
0.0
 11
-0.0
 21
1.0
 31
0.0
 40
0.0087268678
 41
-1.9986825055
 42
-1.5707963268
  0
ELLIPSE
  5
552
100
AcDbEntity
  8
RACCORDO
100
AcDbEllipse
 62
7
  6
CONTINUOUS
 10
-9.1963834711
 20
-31.6447977323
 30
0.0
 11
0.0
 21
1.0
 31
0.0
 40
0.0087268678
 41
-4.7123889804
 42
-3.2288591162
  0
ELLIPSE
  5
553
100
AcDbEntity
  8
RACCORDO
100
AcDbEllipse
 62
7
  6
CONTINUOUS
 10
-25.1439841859
 20
-31.9810804099
 30
0.0
 11
0.7071606311
 21
0.7071606311
 31
0.0
 40
0.9999238505
 41
2.3562325664
 42
3.9269527408
  0
ELLIPSE
  5
554
100
AcDbEntity
  8
RACCORDO
100
AcDbEllipse
 62
7
  6
CONTINUOUS
 10
9.2734314712
 20
-31.6447977323
 30
0.0
 11
0.0
 21
1.0
 31
0.0
 40
0.0087268678
 41
-3.054326191
 42
-1.5707963268
  0
ELLIPSE
  5
555
100
AcDbEntity
  8
RACCORDO
100
AcDbEllipse
 62
7
  6
CONTINUOUS
 10
-25.1439841859
 20
31.9839359621
 30
0.0
 11
-0.7071606311
 21
0.7071606311
 31
0.0
 40
0.9999238505
 41
-0.7853600872
 42
0.7853600872
  0
ELLIPSE
  5
556
100
AcDbEntity
  8
RACCORDO
100
AcDbEllipse
 62
7
  6
CONTINUOUS
 10
25.2210321861
 20
31.9839359621
 30
0.0
 11
-0.7071606311
 21
-0.7071606311
 31
0.0
 40
0.9999238505
 41
2.3562325664
 42
3.9269527408
  0
ELLIPSE
  5
557
100
AcDbEntity
  8
RACCORDO
100
AcDbEllipse
 62
7
  6
CONTINUOUS
 10
25.2210321861
 20
-31.9810804099
 30
0.0
 11
0.7071606311
 21
-0.7071606311
 31
0.0
 40
0.9999238505
 41
-0.7853600872
 42
0.7853600872
  0
ELLIPSE
  5
558
100
AcDbEntity
  8
RACCORDO
100
AcDbEllipse
 62
7
  6
CONTINUOUS
 10
-11.2099417859
 20
-32.6661153025
 30
0.0
 11
1.2
 21
0.0
 31
0.0
 40
0.0874886635
 41
2.8999514672
 42
3.1328660073
  0
ELLIPSE
  5
559
100
AcDbEntity
  8
RACCORDO
100
AcDbEllipse
 62
7
  6
CONTINUOUS
 10
-7.0420200372
 20
-19.2291733788
 30
0.0
 11
-0.0
 21
1.5
 31
0.0
 40
0.0087268678
 41
0.0087266463
 42
1.5707963268
  0
ELLIPSE
  5
55A
100
AcDbEntity
  8
RACCORDO
100
AcDbEllipse
 62
7
  6
CONTINUOUS
 10
7.1190680374
 20
-19.2291733788
 30
0.0
 11
-0.0
 21
1.5
 31
0.0
 40
0.0087268678
 41
-1.5707963268
 42
-0.0087266463
  0
ELLIPSE
  5
55B
100
AcDbEntity
  8
RACCORDO
100
AcDbEllipse
 62
7
  6
CONTINUOUS
 10
11.2869897861
 20
-32.6661153025
 30
0.0
 11
1.2
 21
0.0
 31
0.0
 40
0.0874886635
 41
0.0087266463
 42
0.2416411864
  0
ELLIPSE
  5
55C
100
AcDbEntity
  8
DRAFT
100
AcDbEllipse
 62
7
  6
CONTINUOUS
 10
0.0385240001
 20
-10.9915907297
 30
0.0
 11
3.0
 21
-0.0
 31
0.0
 40
0.0087268678
 41
-2.8716598578
 42
-0.2699327958
  0
ELLIPSE
  5
55D
100
AcDbEntity
  8
RACCORDO
100
AcDbEllipse
 62
7
  6
CONTINUOUS
 10
-18.4745663016
 20
-19.2117196432
 30
0.0
 11
-0.0
 21
1.5
 31
0.0
 40
0.0087268678
 41
0.0087266463
 42
1.5707963268
  0
ELLIPSE
  5
55E
100
AcDbEntity
  8
RACCORDO
100
AcDbEllipse
 62
7
  6
CONTINUOUS
 10
-24.4483856982
 20
-19.2117196432
 30
0.0
 11
-0.0
 21
1.5
 31
0.0
 40
0.0087268678
 41
-1.5707963268
 42
-0.0087266463
  0
ELLIPSE
  5
55F
100
AcDbEntity
  8
RACCORDO
100
AcDbEllipse
 62
7
  6
CONTINUOUS
 10
24.5254336984
 20
-19.2117196432
 30
0.0
 11
-0.0
 21
1.5
 31
0.0
 40
0.0087268678
 41
0.0087266463
 42
1.5707963268
  0
ELLIPSE
  5
560
100
AcDbEntity
  8
RACCORDO
100
AcDbEllipse
 62
7
  6
CONTINUOUS
 10
18.5516143018
 20
-19.2117196432
 30
0.0
 11
-0.0
 21
1.5
 31
0.0
 40
0.0087268678
 41
-1.5707963268
 42
-0.0087266463
  0
ENDSEC
  0
SECTION
  2
OBJECTS
  0
DICTIONARY
  5
C
100
AcDbDictionary
280
0
281
1
  3
ACAD_GROUP
350
D
  3
ACAD_MLINESTYLE
350
17
  3
ACAD_LAYOUT
350
1A
  3
ACAD_PLOTSETTINGS
350
19
  3
ACAD_PLOTSTYLENAME
350
E
  0
DICTIONARY
  5
D
102
{ACAD_REACTORS
330
C
102
}
100
AcDbDictionary
280
0
281
1
  0
ACDBDICTIONARYWDFLT
  5
E
102
{ACAD_REACTORS
330
C
102
}
100
AcDbDictionary
281
1
  3
Normal
350
F
100
AcDbDictionaryWithDefault
340
F
  0
DICTIONARY
  5
17
102
{ACAD_REACTORS
330
C
102
}
100
AcDbDictionary
280
0
281
1
  3
Standard
350
18
  0
DICTIONARY
  5
19
102
{ACAD_REACTORS
330
C
102
}
100
AcDbDictionary
281
1
  0
DICTIONARY
  5
1A
102
{ACAD_REACTORS
330
C
102
}
100
AcDbDictionary
281
1
  3
Model
350
561
  3
Layout1
350
562
  0
ACDBPLACEHOLDER
  5
F
102
{ACAD_REACTORS
330
E
102
}
  0
MLINESTYLE
  5
18
102
{ACAD_REACTORS
330
17
102
}
100
AcDbMlineStyle
  2
STANDARD
 70
0
  3

 62
256
 51
90.0
 52
90.0
 71
2
 49
0.5
 62
256
  6
BYLAYER
 49
-0.5
 62
256
  6
BYLAYER
  0
LAYOUT
  5
561
102
{ACAD_REACTORS
330
1A
102
}
100
AcDbPlotSettings
  1

  2
none_device
  4
ISO_A4_(297.00_x_210.00_MM)
  6

 40
0.0
 41
0.0
 42
0.0
 43
0.0
 44
297.0
 45
210.0
 46
0.0
 47
0.0
 48
0.0
 49
0.0
140
0.0
141
0.0
142
1.0
143
1.0
 70
1024
 72
1
 73
0
 74
0
  7

 75
0
147
1.0
148
0.0
149
0.0
100
AcDbLayout
  1
Model
 70
0
 71
0
 10
0.0
 20
0.0
 11
297.0
 21
210.0
 12
0.0
 22
0.0
 32
0.0
 14
0.0
 24
0.0
 34
0.0
 15
0.0
 25
0.0
 35
0.0
146
0.0
 13
0.0
 23
0.0
 33
0.0
 16
1.0
 26
0.0
 36
0.0
 17
0.0
 27
1.0
 37
0.0
 76
0
330
213
345
0
346
0
  0
LAYOUT
  5
562
102
{ACAD_REACTORS
330
1A
102
}
100
AcDbPlotSettings
  1

  2
none_device
  4
ISO_A4_(297.00_x_210.00_MM)
  6

 40
0.0
 41
0.0
 42
0.0
 43
0.0
 44
297.0
 45
210.0
 46
0.0
 47
0.0
 48
0.0
 49
0.0
140
0.0
141
0.0
142
1.0
143
1.0
 70
0
 72
1
 73
0
 74
0
  7

 75
0
147
1.0
148
0.0
149
0.0
100
AcDbLayout
  1
Layout1
 70
0
 71
1
 10
0.0
 20
0.0
 11
297.0
 21
210.0
 12
0.0
 22
0.0
 32
0.0
 14
0.0
 24
0.0
 34
0.0
 15
0.0
 25
0.0
 35
0.0
146
0.0
 13
0.0
 23
0.0
 33
0.0
 16
1.0
 26
0.0
 36
0.0
 17
0.0
 27
1.0
 37
0.0
 76
0
330
214
345
0
346
0
  0
ENDSEC
  0
EOF
