  0
SECTION
  2
HEADER
  9
$ACADVER
  1
AC1024
  9
$DWGCODEPAGE
  3
ANSI_1252
  9
$EXTMAX
 10
297.0
 20
210.0
 30
0.0
  9
$EXTMIN
 10
0.0
 20
0.0
 30
0.0
  9
$LIMMIN
 10
0.0
 20
0.0
  9
$LIMMAX
 10
297.0
 20
210.0
  9
$VIEWCTR
 10
148.5
 20
105.0
  9
$VIEWSIZE
 40
210.0
  9
$CLAYER
  8
0
  9
$LTSCALE
 40
16.335
  9
$CELTYPE
  6
BYLAYER
  9
$DIMSCALE
 40
1.0
  9
$DIMASZ
 40
3.0
  9
$DIMEXO
 40
0.5
  9
$DIMDLI
 40
11.286
  9
$DIMEXE
 40
1.5
  9
$DIMCEN
 40
2.673
  9
$DIMLFAC
 40
1.0
  9
$DIMBLK
  1
_FILLED
  9
$DIMALT
 70
0
  9
$DIMALTF
 40
0.0393700787
  9
$DIMTXT
 40
3.0
  9
$DIMTOL
 70
1
  9
$DIMLIM
 70
0
  9
$DIMTFAC
 40
1.0
  9
$DIMTP
 40
0.01
  9
$DIMTM
 40
0.01
  9
$DIMGAP
 40
0.625
  9
$DIMDSEP
 70
44
  9
$AUNITS
 70
0
  9
$PDMODE
 70
3
  9
$PDSIZE
 40
3.0
  9
$HANDSEED
  5
591
  9
$TILEMODE
 70
1
  9
$MEASUREMENT
 70
1
  9
$INSUNITS
 70
4
  0
ENDSEC
  0
SECTION
  2
CLASSES
  0
CLASS
  1
ACDBDICTIONARYWDFLT
  2
AcDbDictionaryWithDefault
  3
AutoCAD 2000
 90
0
 91
1
280
0
281
0
  0
CLASS
  1
ACDBPLACEHOLDER
  2
AcDbPlaceHolder
  3
AutoCAD 2000
 90
0
 91
1
280
0
281
0
  0
CLASS
  1
LAYOUT
  2
AcDbLayout
  3
AutoCAD 2000
 90
0
 91
0
280
0
281
0
  0
ENDSEC
  0
SECTION
  2
TABLES
  0
TABLE
  2
VPORT
  5
8
100
AcDbSymbolTable
 70
2
  0
VPORT
  5
1F4
100
AcDbSymbolTableRecord
100
AcDbViewportTableRecord
  2
*ACTIVE
 70
0
 10
0.0
 20
0.0
 11
1.0
 21
1.0
 12
148.5
 22
105.0
 13
0.0
 23
0.0
 14
1.0
 24
1.0
 15
0.0
 25
0.0
 16
0.0
 26
0.0
 36
1.0
 17
0.0
 27
0.0
 37
0.0
 40
210.0
 41
1.4142857143
 42
50.0
 43
0.0
 44
0.0
 50
0.0
 51
0.0
 71
0
 72
100
 73
1
 74
1
 75
0
 76
0
 77
0
 78
0
  0
ENDTAB
  0
TABLE
  2
LTYPE
  5
5
100
AcDbSymbolTable
 70
6
  0
LTYPE
  5
14
100
AcDbSymbolTableRecord
100
AcDbLinetypeTableRecord
  2
BYBLOCK
 70
0
  3

 72
65
 73
0
 40
0.0
  0
LTYPE
  5
15
100
AcDbSymbolTableRecord
100
AcDbLinetypeTableRecord
  2
BYLAYER
 70
0
  3

 72
65
 73
0
 40
0.0
  0
LTYPE
  5
16
100
AcDbSymbolTableRecord
100
AcDbLinetypeTableRecord
  2
CONTINUOUS
 70
64
  3
Solid line
 72
65
 73
0
 40
0.0
  0
LTYPE
  5
1F5
100
AcDbSymbolTableRecord
100
AcDbLinetypeTableRecord
  2
CENTER
 70
64
  3
____ _ ____ _ ____ _ ____ _ ____ _ ____ _ ____
 72
65
 73
4
 40
0.6
 49
0.375
 74
0
 49
-0.075
 74
0
 49
0.075
 74
0
 49
-0.075
 74
0
  0
LTYPE
  5
1F6
100
AcDbSymbolTableRecord
100
AcDbLinetypeTableRecord
  2
HIDDEN
 70
64
  3
- - - - - - - - - - - - - - - - - - - -
 72
65
 73
2
 40
0.2
 49
0.1
 74
0
 49
-0.1
 74
0
  0
LTYPE
  5
1F7
100
AcDbSymbolTableRecord
100
AcDbLinetypeTableRecord
  2
PHANTOM
 70
64
  3
_____ _ _ _____ _ _ _____ _ _ _____
 72
65
 73
6
 40
0.8
 49
0.45
 74
0
 49
-0.05
 74
0
 49
0.1
 74
0
 49
-0.05
 74
0
 49
0.1
 74
0
 49
-0.05
 74
0
  0
LTYPE
  5
1F8
100
AcDbSymbolTableRecord
100
AcDbLinetypeTableRecord
  2
DOT
 70
64
  3
. . . . . . . . . . . . . . . . . . . .
 72
65
 73
2
 40
0.2
 49
0.1
 74
0
 49
-0.1
 74
0
  0
LTYPE
  5
1F9
100
AcDbSymbolTableRecord
100
AcDbLinetypeTableRecord
  2
DASHED
 70
64
  3
- - - - - - - - - - - - - - - - - - - -
 72
65
 73
2
 40
0.2
 49
0.1
 74
0
 49
-0.1
 74
0
  0
ENDTAB
  0
TABLE
  2
LAYER
  5
2
100
AcDbSymbolTable
 70
36
  0
LAYER
  5
10
100
AcDbSymbolTableRecord
100
AcDbLayerTableRecord
  2
0
 70
0
 62
7
  6
CONTINUOUS
370
-3
390
F
  0
LAYER
  5
1FA
100
AcDbSymbolTableRecord
100
AcDbLayerTableRecord
  2
DEFAULT_1
 70
0
 62
7
  6
CENTER
370
-3
390
F
  0
LAYER
  5
1FB
100
AcDbSymbolTableRecord
100
AcDbLayerTableRecord
  2
DEFAULT_2
 70
0
 62
7
  6
HIDDEN
370
-3
390
F
  0
LAYER
  5
1FC
100
AcDbSymbolTableRecord
100
AcDbLayerTableRecord
  2
DEFAULT_3
 70
0
 62
7
  6
PHANTOM
370
-3
390
F
  0
LAYER
  5
1FD
100
AcDbSymbolTableRecord
100
AcDbLayerTableRecord
  2
ASSI
 70
0
 62
7
  6
CONTINUOUS
370
-3
390
F
  0
LAYER
  5
1FE
100
AcDbSymbolTableRecord
100
AcDbLayerTableRecord
  2
COORDINATE
 70
0
 62
7
  6
CONTINUOUS
370
-3
390
F
  0
LAYER
  5
1FF
100
AcDbSymbolTableRecord
100
AcDbLayerTableRecord
  2
COSMETICI
 70
0
 62
7
  6
CONTINUOUS
370
-3
390
F
  0
LAYER
  5
200
100
AcDbSymbolTableRecord
100
AcDbLayerTableRecord
  2
CURVE
 70
0
 62
7
  6
CONTINUOUS
370
-3
390
F
  0
LAYER
  5
201
100
AcDbSymbolTableRecord
100
AcDbLayerTableRecord
  2
NONE_2
 70
0
 62
7
  6
CONTINUOUS
370
-3
390
F
  0
LAYER
  5
202
100
AcDbSymbolTableRecord
100
AcDbLayerTableRecord
  2
NONE_3
 70
0
 62
7
  6
CONTINUOUS
370
-3
390
F
  0
LAYER
  5
203
100
AcDbSymbolTableRecord
100
AcDbLayerTableRecord
  2
NOTE
 70
0
 62
7
  6
CONTINUOUS
370
-3
390
F
  0
LAYER
  5
204
100
AcDbSymbolTableRecord
100
AcDbLayerTableRecord
  2
PIANI
 70
0
 62
7
  6
CONTINUOUS
370
-3
390
F
  0
LAYER
  5
205
100
AcDbSymbolTableRecord
100
AcDbLayerTableRecord
  2
PUNTI
 70
0
 62
7
  6
CONTINUOUS
370
-3
390
F
  0
LAYER
  5
206
100
AcDbSymbolTableRecord
100
AcDbLayerTableRecord
  2
SIMBOLI
 70
0
 62
7
  6
CONTINUOUS
370
-3
390
F
  0
LAYER
  5
207
100
AcDbSymbolTableRecord
100
AcDbLayerTableRecord
  2
SUPERFICI
 70
0
 62
7
  6
CONTINUOUS
370
-3
390
F
  0
ENDTAB
  0
TABLE
  2
STYLE
  5
3
100
AcDbSymbolTable
 70
1
  0
STYLE
  5
11
100
AcDbSymbolTableRecord
100
AcDbTextStyleTableRecord
  2
STANDARD
 70
0
 40
0.0
 41
0.8
 50
0.0
 71
0
 42
0.2
  3
txt
  4

  0
STYLE
  5
208
100
AcDbSymbolTableRecord
100
AcDbTextStyleTableRecord
  2
TEXTSTYLE_1
 70
0
 40
0.0
 41
0.8
 50
0.0
 71
0
 42
0.2
  3
gdt
  4

  0
ENDTAB
  0
TABLE
  2
VIEW
  5
6
100
AcDbSymbolTable
 70
0
  0
ENDTAB
  0
TABLE
  2
UCS
  5
7
100
AcDbSymbolTable
 70
0
  0
ENDTAB
  0
TABLE
  2
APPID
  5
9
100
AcDbSymbolTable
 70
1
  0
APPID
  5
209
100
AcDbSymbolTableRecord
100
AcDbRegAppTableRecord
  2
ACAD
 70
0
  0
ENDTAB
  0
TABLE
  2
BLOCK_RECORD
  5
1
100
AcDbSymbolTable
 70
0
  0
BLOCK_RECORD
  5
20A
100
AcDbSymbolTableRecord
100
AcDbBlockTableRecord
  2
*Model_Space
  0
BLOCK_RECORD
  5
20B
100
AcDbSymbolTableRecord
100
AcDbBlockTableRecord
  2
*Paper_Space
  0
BLOCK_RECORD
  5
20C
100
AcDbSymbolTableRecord
100
AcDbBlockTableRecord
  2
_FILLED
  0
ENDTAB
  0
TABLE
  2
DIMSTYLE
  5
A
100
AcDbSymbolTable
 70
1
100
AcDbDimStyleTable
 71
0
  0
DIMSTYLE
105
20D
100
AcDbSymbolTableRecord
100
AcDbDimStyleTableRecord
  2
STANDARD
 70
0
  3

  4

 40
1.0
 41
3.0
 42
0.5
 43
0.38
 44
1.5
 45
0.0
 46
0.0
 47
0.01
 48
0.01
140
3.0
141
0.09
142
0.0
143
25.4
144
1.0
145
0.0
146
1.0
147
0.625
 71
1
 72
0
 73
0
 74
0
 75
0
 76
0
 77
1
 78
8
 79
2
170
0
171
1
172
0
173
0
174
0
175
0
176
0
177
0
178
0
270
2
179
2
271
2
272
2
273
2
274
2
275
0
280
0
281
0
282
0
283
1
284
8
285
0
286
0
287
3
288
0
340
11
278
44
341
20C
342
20C
343
20C
344
20C
  0
ENDTAB
  0
ENDSEC
  0
SECTION
  2
BLOCKS
  0
BLOCK
  5
20
100
AcDbEntity
  8
0
100
AcDbBlockBegin
  2
*Model_Space
 70
0
 10
0.0
 20
0.0
 30
0.0
  3
*Model_Space
  1

  0
ENDBLK
  5
21
100
AcDbEntity
  8
0
100
AcDbBlockEnd
  0
BLOCK
  5
1C
100
AcDbEntity
  8
0
100
AcDbBlockBegin
  2
*Paper_Space
 70
0
 10
0.0
 20
0.0
 30
0.0
  3
*Paper_Space
  1

  0
ENDBLK
  5
1D
100
AcDbEntity
  8
0
100
AcDbBlockEnd
  0
BLOCK
  5
20E
100
AcDbEntity
  8
0
100
AcDbBlockBegin
  2
_FILLED
 70
64
 10
0.0
 20
0.0
  3
_FILLED
  1

  0
SOLID
  5
20F
100
AcDbEntity
  8
0
  6
BYBLOCK
 62
0
100
AcDbTrace
 10
0.0
 20
0.0
 11
-1.0
 21
0.3166666667
 12
-1.0
 22
-0.3166666667
 13
-1.0
 23
-0.3166666667
  0
ENDBLK
  5
210
100
AcDbEntity
  8
0
  6
BYBLOCK
 62
0
100
AcDbBlockEnd
  0
ENDSEC
  0
SECTION
  2
ENTITIES
  0
LINE
  5
211
100
AcDbEntity
  8
0
100
AcDbLine
 62
7
  6
CONTINUOUS
 10
-154.9748737439
 20
139.2175144066
 11
-159.2175144933
 21
134.974873654
  0
LINE
  5
212
100
AcDbEntity
  8
0
100
AcDbLine
 62
7
  6
CONTINUOUS
 10
-154.2554262728
 20
138.498066888
 11
-158.4980670908
 21
134.25542607
  0
LINE
  5
213
100
AcDbEntity
  8
0
100
AcDbLine
 62
250
  6
CONTINUOUS
 10
-158.4731645069
 20
134.2305237015
 11
-154.230523771
 21
138.4731644374
  0
LINE
  5
214
100
AcDbEntity
  8
0
100
AcDbLine
 62
250
  6
CONTINUOUS
 10
-157.7661653622
 20
133.5235246755
 11
-153.5235246769
 21
137.7661653608
  0
LINE
  5
215
100
AcDbEntity
  8
0
100
AcDbLine
 62
7
  6
CONTINUOUS
 10
-152.4012592418
 20
136.6438999289
 11
-156.6438999288
 21
132.4012592419
  0
LWPOLYLINE
  5
216
100
AcDbEntity
  8
0
100
AcDbPolyline
 62
7
  6
CONTINUOUS
 90
15
 70
0
 10
-146.2986343098
 20
-154.9127246799
 10
-146.2932631895
 20
-154.9163411081
 10
-146.2450712082
 20
-154.9239614084
 10
-146.1447700632
 20
-154.9314229385
 10
-145.9944614465
 20
-154.9387325287
 10
-145.8003688126
 20
-154.9455994165
 10
-145.5614983355
 20
-154.951998773
 10
-145.2788438412
 20
-154.9579554271
 10
-144.9616102623
 20
-154.9632531025
 10
-144.60732729
 20
-154.9678831489
 10
-144.2184652331
 20
-154.9718542166
 10
-143.8116399507
 20
-154.9749759803
 10
-143.3923900626
 20
-154.9771849981
 10
-142.9551769489
 20
-154.978544712
 10
-142.5000006098
 20
-154.9790551217
  0
LWPOLYLINE
  5
217
100
AcDbEntity
  8
0
100
AcDbPolyline
 62
7
  6
CONTINUOUS
 90
15
 70
0
 10
-138.7013668169
 20
-154.9127246708
 10
-138.7067379355
 20
-154.9091082433
 10
-138.7549299004
 20
-154.9014879445
 10
-138.8552310099
 20
-154.8940264159
 10
-139.0055395733
 20
-154.8867168271
 10
-139.1996321403
 20
-154.8798499406
 10
-139.4385025363
 20
-154.873450585
 10
-139.7211569358
 20
-154.8674939316
 10
-140.0383904122
 20
-154.8621962567
 10
-140.3926732276
 20
-154.8575662105
 10
-140.7815351199
 20
-154.8535951427
 10
-141.1883603756
 20
-154.8504733782
 10
-141.6076104236
 20
-154.8482643585
 10
-142.044823835
 20
-154.8469046421
 10
-142.5000006098
 20
-154.846394229
  0
LINE
  5
218
100
AcDbEntity
  8
0
100
AcDbLine
 62
7
  6
CONTINUOUS
 10
-159.2175144519
 20
-134.9748736986
 11
-154.9748736439
 21
-139.2175145034
  0
LINE
  5
219
100
AcDbEntity
  8
0
100
AcDbLine
 62
7
  6
CONTINUOUS
 10
-158.498066888
 20
-134.2554262728
 11
-154.25542607
 21
-138.4980670908
  0
LINE
  5
21A
100
AcDbEntity
  8
0
100
AcDbLine
 62
250
  6
CONTINUOUS
 10
-154.2305237015
 20
-138.4731645069
 11
-158.4731644374
 21
-134.230523771
  0
LINE
  5
21B
100
AcDbEntity
  8
0
100
AcDbLine
 62
250
  6
CONTINUOUS
 10
-153.5235246755
 20
-137.7661653622
 11
-157.7661653608
 21
-133.5235246769
  0
LINE
  5
21C
100
AcDbEntity
  8
0
100
AcDbLine
 62
7
  6
CONTINUOUS
 10
-156.6438999289
 20
-132.4012592418
 11
-152.4012592419
 21
-136.6438999288
  0
LINE
  5
21D
100
AcDbEntity
  8
0
100
AcDbLine
 62
7
  6
CONTINUOUS
 10
-152.5987407582
 20
128.3561000711
 11
-148.3561000712
 21
132.5987407581
  0
LINE
  5
21E
100
AcDbEntity
  8
0
100
AcDbLine
 62
250
  6
CONTINUOUS
 10
-147.2338346379
 20
131.4764753244
 11
-151.4764753231
 21
127.2338346392
  0
LINE
  5
21F
100
AcDbEntity
  8
0
100
AcDbLine
 62
250
  6
CONTINUOUS
 10
-146.5268354931
 20
130.7694762985
 11
-150.769476229
 21
126.5268355626
  0
LINE
  5
220
100
AcDbEntity
  8
0
100
AcDbLine
 62
7
  6
CONTINUOUS
 10
-150.7445737272
 20
126.501933112
 11
-146.5019329092
 21
130.74457393
  0
LINE
  5
221
100
AcDbEntity
  8
0
100
AcDbLine
 62
7
  6
CONTINUOUS
 10
-150.0251263057
 20
125.7824855438
 11
-145.7824855067
 21
130.025126346
  0
LINE
  5
222
100
AcDbEntity
  8
0
100
AcDbLine
 62
7
  6
CONTINUOUS
 10
-121.5471954237
 20
149.0219070983
 11
-121.4942193233
 21
149.0748815586
  0
LINE
  5
223
100
AcDbEntity
  8
0
100
AcDbLine
 62
7
  6
CONTINUOUS
 10
-118.4888088891
 20
147.1105817987
 11
-118.5255193704
 21
147.073871394
  0
LINE
  5
224
100
AcDbEntity
  8
0
100
AcDbLine
 62
7
  6
CONTINUOUS
 10
-148.3561000711
 20
-132.5987407582
 11
-152.5987407581
 21
-128.3561000712
  0
LINE
  5
225
100
AcDbEntity
  8
0
100
AcDbLine
 62
250
  6
CONTINUOUS
 10
-151.4764753244
 20
-127.2338346379
 11
-147.2338346392
 21
-131.4764753231
  0
LINE
  5
226
100
AcDbEntity
  8
0
100
AcDbLine
 62
250
  6
CONTINUOUS
 10
-150.7694762985
 20
-126.5268354931
 11
-146.5268355626
 21
-130.769476229
  0
LINE
  5
227
100
AcDbEntity
  8
0
100
AcDbLine
 62
7
  6
CONTINUOUS
 10
-145.7824855963
 20
-130.0251262532
 11
-150.0251263561
 21
-125.7824854966
  0
LINE
  5
228
100
AcDbEntity
  8
0
100
AcDbLine
 62
7
  6
CONTINUOUS
 10
-175.0
 20
-129.9999999855
 11
-175.0
 21
129.999999985
  0
LINE
  5
229
100
AcDbEntity
  8
0
100
AcDbLine
 62
7
  6
CONTINUOUS
 10
-174.1272387776
 20
-129.9999999688
 11
-174.1272387776
 21
129.9999999679
  0
LINE
  5
22A
100
AcDbEntity
  8
0
100
AcDbLine
 62
7
  6
CONTINUOUS
 10
-121.5814962878
 20
139.5178944
 11
-120.4731168371
 21
140.6262738507
  0
LINE
  5
22B
100
AcDbEntity
  8
0
100
AcDbLine
 62
7
  6
CONTINUOUS
 10
-99.5530829325
 20
151.1772052333
 11
-98.5380819936
 21
152.1922045323
  0
LINE
  5
22C
100
AcDbEntity
  8
0
100
AcDbLine
 62
7
  6
CONTINUOUS
 10
-99.6767385693
 20
150.3226521185
 11
-99.5530829325
 21
150.4463077553
  0
LINE
  5
22D
100
AcDbEntity
  8
0
100
AcDbLine
 62
7
  6
CONTINUOUS
 10
-169.0748815588
 20
-129.9999999723
 11
-169.0748815588
 21
129.9999999712
  0
LINE
  5
22E
100
AcDbEntity
  8
0
100
AcDbLine
 62
250
  6
CONTINUOUS
 10
-169.0219070982
 20
-129.9999999905
 11
-169.0219070982
 21
129.99999999
  0
LINE
  5
22F
100
AcDbEntity
  8
0
100
AcDbLine
 62
250
  6
CONTINUOUS
 10
-167.0222117079
 20
130.0000000005
 11
-167.0222117079
 21
-130.0000000006
  0
LWPOLYLINE
  5
230
100
AcDbEntity
  8
0
100
AcDbPolyline
 62
7
  6
CONTINUOUS
 90
15
 70
0
 10
142.4999993902
 20
-154.9790551217
 10
142.9535156966
 20
-154.9785408804
 10
143.3886945434
 20
-154.9771942036
 10
143.8055359307
 20
-154.9750150915
 10
144.209095032
 20
-154.9719440712
 10
144.5943166738
 20
-154.9680406155
 10
144.9460353354
 20
-154.963483143
 10
145.2622605999
 20
-154.9582669556
 10
145.5449828841
 20
-154.9523967513
 10
145.7850079186
 20
-154.9460650431
 10
145.9816804743
 20
-154.9392352716
 10
146.1356557803
 20
-154.9319439961
 10
146.2397052541
 20
-154.9244934066
 10
146.2914465754
 20
-154.916880482
 10
146.2986331831
 20
-154.9127246708
  0
LWPOLYLINE
  5
231
100
AcDbEntity
  8
0
100
AcDbPolyline
 62
7
  6
CONTINUOUS
 90
15
 70
0
 10
142.4999993902
 20
-154.846394229
 10
142.0464835204
 20
-154.846908467
 10
141.6113049725
 20
-154.8482551411
 10
141.1944637465
 20
-154.8504342514
 10
140.7909046206
 20
-154.8535052709
 10
140.4056828166
 20
-154.8574087265
 10
140.0539639998
 20
-154.8619661992
 10
139.7377386337
 20
-154.867182387
 10
139.4550162547
 20
-154.8730525919
 10
139.2149911385
 20
-154.8793843011
 10
139.0183185143
 20
-154.8862140737
 10
138.8643431527
 20
-154.8935053506
 10
138.7602936409
 20
-154.9009559416
 10
138.7085523008
 20
-154.9085688678
 10
138.7013656902
 20
-154.9127246799
  0
LWPOLYLINE
  5
232
100
AcDbEntity
  8
0
100
AcDbPolyline
 62
7
  6
CONTINUOUS
 90
15
 70
0
 10
-142.5000006098
 20
-154.9790551217
 10
-142.0464843034
 20
-154.9785408804
 10
-141.6113054566
 20
-154.9771942036
 10
-141.1944640693
 20
-154.9750150915
 10
-140.790904968
 20
-154.9719440712
 10
-140.4056833262
 20
-154.9680406155
 10
-140.0539646646
 20
-154.963483143
 10
-139.7377394001
 20
-154.9582669556
 10
-139.4550171159
 20
-154.9523967513
 10
-139.2149920814
 20
-154.9460650431
 10
-139.0183195257
 20
-154.9392352716
 10
-138.8643442197
 20
-154.9319439961
 10
-138.7602947459
 20
-154.9244934066
 10
-138.7085534246
 20
-154.916880482
 10
-138.7013668169
 20
-154.9127246708
  0
LWPOLYLINE
  5
233
100
AcDbEntity
  8
0
100
AcDbPolyline
 62
7
  6
CONTINUOUS
 90
15
 70
0
 10
-142.5000006098
 20
-154.846394229
 10
-142.9535164796
 20
-154.846908467
 10
-143.3886950275
 20
-154.8482551411
 10
-143.8055362535
 20
-154.8504342514
 10
-144.2090953794
 20
-154.8535052709
 10
-144.5943171834
 20
-154.8574087265
 10
-144.9460360002
 20
-154.8619661992
 10
-145.2622613663
 20
-154.867182387
 10
-145.5449837453
 20
-154.8730525919
 10
-145.7850088615
 20
-154.8793843011
 10
-145.9816814857
 20
-154.8862140737
 10
-146.1356568473
 20
-154.8935053506
 10
-146.2397063591
 20
-154.9009559416
 10
-146.2914476992
 20
-154.9085688678
 10
-146.2986343098
 20
-154.9127246799
  0
LINE
  5
234
100
AcDbEntity
  8
0
100
AcDbLine
 62
7
  6
CONTINUOUS
 10
149.9999999855
 20
-155.0
 11
-149.999999985
 21
-155.0
  0
LINE
  5
235
100
AcDbEntity
  8
0
100
AcDbLine
 62
7
  6
CONTINUOUS
 10
149.9999999688
 20
-154.1272387776
 11
-149.9999999679
 21
-154.1272387776
  0
LINE
  5
236
100
AcDbEntity
  8
0
100
AcDbLine
 62
250
  6
CONTINUOUS
 10
-150.0
 20
149.0219070982
 11
-150.0
 21
147.0222117079
  0
LINE
  5
237
100
AcDbEntity
  8
0
100
AcDbLine
 62
250
  6
CONTINUOUS
 10
-149.999999985
 20
-155.0
 11
-149.9999999712
 21
-149.0748815584
  0
LINE
  5
238
100
AcDbEntity
  8
0
100
AcDbLine
 62
250
  6
CONTINUOUS
 10
-150.0
 20
-147.0222117079
 11
-150.0
 21
-149.0219070982
  0
LINE
  5
239
100
AcDbEntity
  8
0
100
AcDbLine
 62
250
  6
CONTINUOUS
 10
-149.9999999799
 20
149.0748815586
 11
-149.9999999855
 21
155.0
  0
LINE
  5
23A
100
AcDbEntity
  8
0
100
AcDbLine
 62
7
  6
CONTINUOUS
 10
-80.0
 20
130.4079159817
 11
-79.850565733
 21
130.5573502487
  0
LINE
  5
23B
100
AcDbEntity
  8
0
100
AcDbLine
 62
7
  6
CONTINUOUS
 10
-70.149434267
 20
137.5562841147
 11
-70.0
 21
137.7057183817
  0
LINE
  5
23C
100
AcDbEntity
  8
0
100
AcDbLine
 62
7
  6
CONTINUOUS
 10
-69.0
 20
137.7057183817
 11
-68.9301797403
 21
137.7755386414
  0
LINE
  5
23D
100
AcDbEntity
  8
0
100
AcDbLine
 62
7
  6
CONTINUOUS
 10
149.9999999723
 20
-149.0748815588
 11
-149.9999999712
 21
-149.0748815588
  0
LINE
  5
23E
100
AcDbEntity
  8
0
100
AcDbLine
 62
250
  6
CONTINUOUS
 10
149.9999999905
 20
-149.0219070982
 11
-149.99999999
 21
-149.0219070982
  0
LINE
  5
23F
100
AcDbEntity
  8
0
100
AcDbLine
 62
250
  6
CONTINUOUS
 10
-150.0000000005
 20
-147.0222117079
 11
150.0000000006
 21
-147.0222117079
  0
LINE
  5
240
100
AcDbEntity
  8
0
100
AcDbLine
 62
7
  6
CONTINUOUS
 10
-132.1266374414
 20
7.0568171764
 11
-132.1266374414
 21
19.0568171627
  0
LINE
  5
241
100
AcDbEntity
  8
0
100
AcDbLine
 62
7
  6
CONTINUOUS
 10
-132.0742695881
 20
19.0568171325
 11
-132.0742695881
 21
7.0568171583
  0
LINE
  5
242
100
AcDbEntity
  8
0
100
AcDbLine
 62
7
  6
CONTINUOUS
 10
-121.4942193233
 20
149.0748815586
 11
-121.4619180064
 21
152.1922045323
  0
LINE
  5
243
100
AcDbEntity
  8
0
100
AcDbLine
 62
7
  6
CONTINUOUS
 10
133.9135818565
 20
-137.7786717266
 11
110.3000525069
 21
-137.7786717266
  0
LINE
  5
244
100
AcDbEntity
  8
0
100
AcDbLine
 62
7
  6
CONTINUOUS
 10
-28.7999474931
 20
-137.7786717267
 11
-5.1864181435
 21
-137.7786717267
  0
LINE
  5
245
100
AcDbEntity
  8
0
100
AcDbLine
 62
7
  6
CONTINUOUS
 10
132.6568171817
 20
-136.5219070518
 11
111.5568171817
 21
-136.5219070518
  0
LINE
  5
246
100
AcDbEntity
  8
0
100
AcDbLine
 62
7
  6
CONTINUOUS
 10
-6.4431828183
 20
-136.5219070519
 11
-27.5431828183
 21
-136.5219070518
  0
LINE
  5
247
100
AcDbEntity
  8
0
100
AcDbLine
 62
250
  6
CONTINUOUS
 10
-169.0219070982
 20
-130.0
 11
-167.0222117079
 21
-130.0
  0
LINE
  5
248
100
AcDbEntity
  8
0
100
AcDbLine
 62
250
  6
CONTINUOUS
 10
167.0222117079
 20
-130.0
 11
169.0219070982
 21
-130.0
  0
LINE
  5
249
100
AcDbEntity
  8
0
100
AcDbLine
 62
250
  6
CONTINUOUS
 10
175.0
 20
-129.999999985
 11
169.0748815584
 21
-129.9999999712
  0
LINE
  5
24A
100
AcDbEntity
  8
0
100
AcDbLine
 62
250
  6
CONTINUOUS
 10
-169.0748815584
 20
-129.9999999723
 11
-175.0
 21
-129.9999999855
  0
LINE
  5
24B
100
AcDbEntity
  8
0
100
AcDbLine
 62
7
  6
CONTINUOUS
 10
-119.8967930069
 20
144.9993906878
 11
-120.0066787389
 21
151.2993906878
  0
LINE
  5
24C
100
AcDbEntity
  8
0
100
AcDbLine
 62
7
  6
CONTINUOUS
 10
-110.6503912787
 20
148.1817620552
 11
-110.6886915815
 21
150.7967350544
  0
LINE
  5
24D
100
AcDbEntity
  8
0
100
AcDbLine
 62
7
  6
CONTINUOUS
 10
-118.5266290614
 20
151.2993906878
 11
-118.5257707759
 21
147.073871394
  0
LINE
  5
24E
100
AcDbEntity
  8
0
100
AcDbLine
 62
7
  6
CONTINUOUS
 10
-109.4266290614
 20
151.2993906878
 11
-109.4257707759
 21
147.073871394
  0
LINE
  5
24F
100
AcDbEntity
  8
0
100
AcDbLine
 62
7
  6
CONTINUOUS
 10
-121.5814962878
 20
147.0222117079
 11
-121.5814962878
 21
139.5178944
  0
LINE
  5
250
100
AcDbEntity
  8
0
100
AcDbLine
 62
7
  6
CONTINUOUS
 10
-120.4469170675
 20
150.4463077553
 11
-120.4469170675
 21
151.1772052333
  0
LINE
  5
251
100
AcDbEntity
  8
0
100
AcDbLine
 62
7
  6
CONTINUOUS
 10
-118.4113084185
 20
150.7967350544
 11
-118.4113084185
 21
151.2993906878
  0
LINE
  5
252
100
AcDbEntity
  8
0
100
AcDbLine
 62
7
  6
CONTINUOUS
 10
-110.6886915815
 20
150.7967350544
 11
-110.6886915815
 21
151.2993906878
  0
LINE
  5
253
100
AcDbEntity
  8
0
100
AcDbLine
 62
7
  6
CONTINUOUS
 10
-109.3113084185
 20
150.7967350544
 11
-109.3113084185
 21
151.2993906878
  0
LINE
  5
254
100
AcDbEntity
  8
0
100
AcDbLine
 62
7
  6
CONTINUOUS
 10
-110.573193332
 20
151.2993906878
 11
-110.5744806296
 21
147.073871394
  0
LINE
  5
255
100
AcDbEntity
  8
0
100
AcDbLine
 62
7
  6
CONTINUOUS
 10
-120.3232614307
 20
150.3226521185
 11
-120.4600501145
 21
140.9833339359
  0
LINE
  5
256
100
AcDbEntity
  8
0
100
AcDbLine
 62
7
  6
CONTINUOUS
 10
-118.4113084185
 20
150.7967350544
 11
-118.4496087213
 21
148.181762055
  0
LINE
  5
257
100
AcDbEntity
  8
0
100
AcDbLine
 62
7
  6
CONTINUOUS
 10
-109.3113084185
 20
150.7967350544
 11
-109.3496087213
 21
148.181762055
  0
LINE
  5
258
100
AcDbEntity
  8
0
100
AcDbLine
 62
7
  6
CONTINUOUS
 10
-27.4082726884
 20
-118.5568171817
 11
-12.4424866759
 21
-118.5568171817
  0
LINE
  5
259
100
AcDbEntity
  8
0
100
AcDbLine
 62
7
  6
CONTINUOUS
 10
117.556108049
 20
-118.5568171817
 11
132.5219070518
 21
-118.5568171817
  0
LINE
  5
25A
100
AcDbEntity
  8
0
100
AcDbLine
 62
7
  6
CONTINUOUS
 10
-27.4082726884
 20
-117.5568171817
 11
-27.5431828183
 21
-117.5568171817
  0
LINE
  5
25B
100
AcDbEntity
  8
0
100
AcDbLine
 62
7
  6
CONTINUOUS
 10
132.5219070518
 20
-117.5568171817
 11
132.6568171817
 21
-117.5568171817
  0
LINE
  5
25C
100
AcDbEntity
  8
0
100
AcDbLine
 62
7
  6
CONTINUOUS
 10
131.3349626367
 20
-116.3698727666
 11
110.3698727666
 21
-116.3698727666
  0
LINE
  5
25D
100
AcDbEntity
  8
0
100
AcDbLine
 62
7
  6
CONTINUOUS
 10
-26.2213282733
 20
-116.3698727666
 11
-5.2562384032
 21
-116.3698727666
  0
LINE
  5
25E
100
AcDbEntity
  8
0
100
AcDbLine
 62
7
  6
CONTINUOUS
 10
133.9135818565
 20
-116.3000525069
 11
110.3000525069
 21
-116.3000525069
  0
LINE
  5
25F
100
AcDbEntity
  8
0
100
AcDbLine
 62
7
  6
CONTINUOUS
 10
-28.7999474931
 20
-116.3000525069
 11
-5.1864181435
 21
-116.3000525069
  0
LINE
  5
260
100
AcDbEntity
  8
0
100
AcDbLine
 62
7
  6
CONTINUOUS
 10
-101.5503912787
 20
148.1817620552
 11
-101.5886915815
 21
150.7967350544
  0
LINE
  5
261
100
AcDbEntity
  8
0
100
AcDbLine
 62
7
  6
CONTINUOUS
 10
-99.6767385693
 20
150.3226521186
 11
-99.5399498855
 21
140.9833339361
  0
LINE
  5
262
100
AcDbEntity
  8
0
100
AcDbLine
 62
7
  6
CONTINUOUS
 10
-98.5380819936
 20
152.1922045323
 11
-98.5057806767
 21
149.0748815588
  0
LINE
  5
263
100
AcDbEntity
  8
0
100
AcDbLine
 62
7
  6
CONTINUOUS
 10
-101.5886915815
 20
150.7967350544
 11
-101.5886915815
 21
151.2993906878
  0
LINE
  5
264
100
AcDbEntity
  8
0
100
AcDbLine
 62
7
  6
CONTINUOUS
 10
-99.5530829325
 20
150.4463077553
 11
-99.5530829325
 21
151.1772052333
  0
LINE
  5
265
100
AcDbEntity
  8
0
100
AcDbLine
 62
7
  6
CONTINUOUS
 10
-98.4185037122
 20
147.0222117079
 11
-98.4185037122
 21
139.5178943999
  0
LINE
  5
266
100
AcDbEntity
  8
0
100
AcDbLine
 62
7
  6
CONTINUOUS
 10
-101.4742292242
 20
147.073871394
 11
-101.4733709387
 21
151.2993906878
  0
LINE
  5
267
100
AcDbEntity
  8
0
100
AcDbLine
 62
7
  6
CONTINUOUS
 10
-99.993321261
 20
151.2993906878
 11
-100.1032069931
 21
144.9993906878
  0
LINE
  5
268
100
AcDbEntity
  8
0
100
AcDbLine
 62
7
  6
CONTINUOUS
 10
-27.5431828183
 20
-117.5568171817
 11
-28.7999474931
 21
-116.3000525069
  0
LINE
  5
269
100
AcDbEntity
  8
0
100
AcDbLine
 62
7
  6
CONTINUOUS
 10
-5.1864181435
 20
-137.7786717267
 11
-6.4431828183
 21
-136.5219070519
  0
LINE
  5
26A
100
AcDbEntity
  8
0
100
AcDbLine
 62
7
  6
CONTINUOUS
 10
-81.0698202597
 20
137.7755386414
 11
-81.0698202597
 21
130.3380957219
  0
LINE
  5
26B
100
AcDbEntity
  8
0
100
AcDbLine
 62
7
  6
CONTINUOUS
 10
-81.0
 20
137.7057183817
 11
-81.0
 21
130.4079159817
  0
LINE
  5
26C
100
AcDbEntity
  8
0
100
AcDbLine
 62
7
  6
CONTINUOUS
 10
16.0
 20
145.0568171817
 11
15.8639270756
 21
144.9207442552
  0
LINE
  5
26D
100
AcDbEntity
  8
0
100
AcDbLine
 62
7
  6
CONTINUOUS
 10
-69.0
 20
137.7057183817
 11
-69.0
 21
130.4079159817
  0
LINE
  5
26E
100
AcDbEntity
  8
0
100
AcDbLine
 62
7
  6
CONTINUOUS
 10
-68.9301797403
 20
137.7755386414
 11
-68.9301797403
 21
130.338095722
  0
LWPOLYLINE
  5
26F
100
AcDbEntity
  8
0
100
AcDbPolyline
 62
7
  6
CONTINUOUS
 90
15
 70
0
 10
138.7013656902
 20
-154.9127246799
 10
138.7067368105
 20
-154.9163411081
 10
138.7549287918
 20
-154.9239614084
 10
138.8552299368
 20
-154.9314229385
 10
139.0055385535
 20
-154.9387325287
 10
139.1996311874
 20
-154.9455994165
 10
139.4385016645
 20
-154.951998773
 10
139.7211561588
 20
-154.9579554271
 10
140.0383897377
 20
-154.9632531025
 10
140.39267271
 20
-154.9678831489
 10
140.7815347669
 20
-154.9718542166
 10
141.1883600493
 20
-154.9749759803
 10
141.6076099374
 20
-154.9771849981
 10
142.0448230511
 20
-154.978544712
 10
142.4999993902
 20
-154.9790551217
  0
LWPOLYLINE
  5
270
100
AcDbEntity
  8
0
100
AcDbPolyline
 62
7
  6
CONTINUOUS
 90
15
 70
0
 10
146.2986331831
 20
-154.9127246708
 10
146.2932620645
 20
-154.9091082433
 10
146.2450700996
 20
-154.9014879445
 10
146.1447689901
 20
-154.8940264159
 10
145.9944604267
 20
-154.8867168271
 10
145.8003678597
 20
-154.8798499406
 10
145.5614974637
 20
-154.873450585
 10
145.2788430642
 20
-154.8674939316
 10
144.9616095878
 20
-154.8621962567
 10
144.6073267724
 20
-154.8575662105
 10
144.2184648801
 20
-154.8535951427
 10
143.8116396244
 20
-154.8504733782
 10
143.3923895764
 20
-154.8482643585
 10
142.955176165
 20
-154.8469046421
 10
142.4999993902
 20
-154.846394229
  0
LINE
  5
271
100
AcDbEntity
  8
0
100
AcDbLine
 62
7
  6
CONTINUOUS
 10
-30.0393647753
 20
7.0568172309
 11
-30.0393647753
 21
19.0568172051
  0
LINE
  5
272
100
AcDbEntity
  8
0
100
AcDbLine
 62
7
  6
CONTINUOUS
 10
-29.986996922
 20
19.056817187
 11
-29.986996922
 21
7.0568172008
  0
LINE
  5
273
100
AcDbEntity
  8
0
100
AcDbLine
 62
7
  6
CONTINUOUS
 10
98.4528045763
 20
149.0219070982
 11
98.5057806767
 21
149.0748815588
  0
LINE
  5
274
100
AcDbEntity
  8
0
100
AcDbLine
 62
7
  6
CONTINUOUS
 10
50.6122634791
 20
94.0
 11
50.4761905526
 21
93.8639270735
  0
LINE
  5
275
100
AcDbEntity
  8
0
100
AcDbLine
 62
7
  6
CONTINUOUS
 10
118.9431828248
 20
-37.012471078
 11
65.9431828467
 21
-37.012471078
  0
LINE
  5
276
100
AcDbEntity
  8
0
100
AcDbLine
 62
7
  6
CONTINUOUS
 10
65.9431828915
 20
-36.9601032247
 11
118.9431828472
 21
-36.9601032247
  0
LINE
  5
277
100
AcDbEntity
  8
0
100
AcDbLine
 62
7
  6
CONTINUOUS
 10
-28.7999474931
 20
-116.3000525069
 11
-28.7999474931
 21
-137.7786717267
  0
LINE
  5
278
100
AcDbEntity
  8
0
100
AcDbLine
 62
7
  6
CONTINUOUS
 10
-27.5431828183
 20
-136.5219070518
 11
-27.5431828183
 21
-117.5568171817
  0
LINE
  5
279
100
AcDbEntity
  8
0
100
AcDbLine
 62
7
  6
CONTINUOUS
 10
-27.4082726884
 20
-118.5568171817
 11
-27.4082726884
 21
-117.5568171817
  0
LINE
  5
27A
100
AcDbEntity
  8
0
100
AcDbLine
 62
7
  6
CONTINUOUS
 10
-16.3023651948
 20
3.2500000001
 11
-16.3023651948
 21
-13.2500000001
  0
LINE
  5
27B
100
AcDbEntity
  8
0
100
AcDbLine
 62
7
  6
CONTINUOUS
 10
99.5268831629
 20
140.6262738508
 11
98.4185037122
 21
139.5178944
  0
LINE
  5
27C
100
AcDbEntity
  8
0
100
AcDbLine
 62
7
  6
CONTINUOUS
 10
120.4469170675
 20
151.1772052333
 11
120.569102522
 21
151.2993906878
  0
LINE
  5
27D
100
AcDbEntity
  8
0
100
AcDbLine
 62
7
  6
CONTINUOUS
 10
120.3232614307
 20
150.3226521185
 11
120.4469170675
 21
150.4463077553
  0
LINE
  5
27E
100
AcDbEntity
  8
0
100
AcDbLine
 62
250
  6
CONTINUOUS
 10
-150.74457393
 20
-126.5019329092
 11
-150.0251264431
 21
-125.7824854072
  0
LINE
  5
27F
100
AcDbEntity
  8
0
100
AcDbLine
 62
250
  6
CONTINUOUS
 10
-150.7694762393
 20
-126.5268355522
 11
-151.4764753247
 21
-127.2338346376
  0
LINE
  5
280
100
AcDbEntity
  8
0
100
AcDbLine
 62
250
  6
CONTINUOUS
 10
-157.7661653624
 20
-133.5235246753
 11
-158.4731644478
 21
-134.2305237607
  0
LINE
  5
281
100
AcDbEntity
  8
0
100
AcDbLine
 62
250
  6
CONTINUOUS
 10
-159.2175143876
 20
-134.9748737637
 11
-158.498066888
 21
-134.2554262728
  0
LINE
  5
282
100
AcDbEntity
  8
0
100
AcDbLine
 62
7
  6
CONTINUOUS
 10
121.4673004659
 20
152.1922045323
 11
120.569102522
 21
151.2993906879
  0
LINE
  5
283
100
AcDbEntity
  8
0
100
AcDbLine
 62
7
  6
CONTINUOUS
 10
118.94318277
 20
-24.9251984119
 11
65.943182796
 21
-24.9251984119
  0
LINE
  5
284
100
AcDbEntity
  8
0
100
AcDbLine
 62
7
  6
CONTINUOUS
 10
65.9431828052
 20
-24.8728305586
 11
118.9431827899
 21
-24.8728305586
  0
LINE
  5
285
100
AcDbEntity
  8
0
100
AcDbLine
 62
7
  6
CONTINUOUS
 10
47.776028222
 20
-24.526184983
 11
37.6363877026
 21
-24.526184983
  0
LINE
  5
286
100
AcDbEntity
  8
0
100
AcDbLine
 62
7
  6
CONTINUOUS
 10
47.7062079623
 20
-24.4563647233
 11
37.7062079623
 21
-24.4563647233
  0
LINE
  5
287
100
AcDbEntity
  8
0
100
AcDbLine
 62
7
  6
CONTINUOUS
 10
38.7879977507
 20
-22.9745140037
 11
46.6244181739
 21
-22.9745140037
  0
LINE
  5
288
100
AcDbEntity
  8
0
100
AcDbLine
 62
7
  6
CONTINUOUS
 10
38.776028222
 20
-22.5865444636
 11
46.6363877026
 21
-22.5865444636
  0
LINE
  5
289
100
AcDbEntity
  8
0
100
AcDbLine
 62
7
  6
CONTINUOUS
 10
46.6363877026
 20
-21.986584387
 11
38.776028222
 21
-21.986584387
  0
LINE
  5
28A
100
AcDbEntity
  8
0
100
AcDbLine
 62
7
  6
CONTINUOUS
 10
46.6014775727
 20
-20.7848631489
 11
38.8109383519
 21
-20.7848631489
  0
LINE
  5
28B
100
AcDbEntity
  8
0
100
AcDbLine
 62
250
  6
CONTINUOUS
 10
39.003248699
 20
-20.5925528018
 11
46.4091673197
 21
-20.5925528958
  0
LINE
  5
28C
100
AcDbEntity
  8
0
100
AcDbLine
 62
7
  6
CONTINUOUS
 10
-9.25
 20
-20.3023651948
 11
9.2500000001
 21
-20.3023651948
  0
LINE
  5
28D
100
AcDbEntity
  8
0
100
AcDbLine
 62
250
  6
CONTINUOUS
 10
39.0032475277
 20
-18.5582555038
 11
46.4091683969
 21
-18.5582555038
  0
LINE
  5
28E
100
AcDbEntity
  8
0
100
AcDbLine
 62
7
  6
CONTINUOUS
 10
47.7062079623
 20
-18.2612112011
 11
46.7062079623
 21
-18.2612112011
  0
LINE
  5
28F
100
AcDbEntity
  8
0
100
AcDbLine
 62
7
  6
CONTINUOUS
 10
38.7062079623
 20
-18.2612112011
 11
37.7062079623
 21
-18.2612112011
  0
LINE
  5
290
100
AcDbEntity
  8
0
100
AcDbLine
 62
7
  6
CONTINUOUS
 10
47.776028222
 20
-18.1913909413
 11
37.6363877026
 21
-18.1913909413
  0
LINE
  5
291
100
AcDbEntity
  8
0
100
AcDbLine
 62
7
  6
CONTINUOUS
 10
110.3698727666
 20
-135.3349626367
 11
111.5568171817
 21
-136.5219070518
  0
LINE
  5
292
100
AcDbEntity
  8
0
100
AcDbLine
 62
250
  6
CONTINUOUS
 10
-150.025126237
 20
125.7824856117
 11
-150.7445737272
 21
126.501933112
  0
LINE
  5
293
100
AcDbEntity
  8
0
100
AcDbLine
 62
250
  6
CONTINUOUS
 10
-158.4731644478
 20
134.2305237607
 11
-157.7661653624
 21
133.5235246753
  0
LINE
  5
294
100
AcDbEntity
  8
0
100
AcDbLine
 62
250
  6
CONTINUOUS
 10
-151.4764753247
 20
127.2338346376
 11
-150.7694762393
 21
126.5268355522
  0
LINE
  5
295
100
AcDbEntity
  8
0
100
AcDbLine
 62
250
  6
CONTINUOUS
 10
-158.4980670908
 20
134.25542607
 11
-159.2175145907
 21
134.974873559
  0
LINE
  5
296
100
AcDbEntity
  8
0
100
AcDbLine
 62
7
  6
CONTINUOUS
 10
-7.4431828183
 20
-123.5561210392
 11
-7.4431828183
 21
-136.5219070518
  0
LINE
  5
297
100
AcDbEntity
  8
0
100
AcDbLine
 62
7
  6
CONTINUOUS
 10
-5.2562384032
 20
-116.3698727666
 11
-5.2562384032
 21
-135.3349626367
  0
LINE
  5
298
100
AcDbEntity
  8
0
100
AcDbLine
 62
7
  6
CONTINUOUS
 10
-5.1864181435
 20
-116.3000525069
 11
-5.1864181435
 21
-137.7786717267
  0
LWPOLYLINE
  5
299
100
AcDbEntity
  8
0
100
AcDbPolyline
 62
7
  6
CONTINUOUS
 90
5
 70
0
 10
15.8639270734
 20
144.9207442551
 10
15.8594648553
 20
144.8986155467
 10
15.855210053
 20
144.8478631734
 10
15.8511626664
 20
144.7684871352
 10
15.8472664675
 20
144.6583683724
  0
LINE
  5
29A
100
AcDbEntity
  8
0
100
AcDbLine
 62
250
  6
CONTINUOUS
 10
-154.25542607
 20
-138.4980670908
 11
-154.9748735569
 21
-139.2175145928
  0
LINE
  5
29B
100
AcDbEntity
  8
0
100
AcDbLine
 62
250
  6
CONTINUOUS
 10
-154.2305237607
 20
-138.4731644478
 11
-153.5235246753
 21
-137.7661653624
  0
LINE
  5
29C
100
AcDbEntity
  8
0
100
AcDbLine
 62
250
  6
CONTINUOUS
 10
-147.2338346376
 20
-131.4764753247
 11
-146.5268355522
 21
-130.7694762393
  0
LINE
  5
29D
100
AcDbEntity
  8
0
100
AcDbLine
 62
250
  6
CONTINUOUS
 10
-145.7824856124
 20
-130.0251262363
 11
-146.501933112
 21
-130.7445737272
  0
LINE
  5
29E
100
AcDbEntity
  8
0
100
AcDbLine
 62
7
  6
CONTINUOUS
 10
25.1831652338
 20
25.1278447504
 11
24.9525146705
 21
24.897194187
  0
LINE
  5
29F
100
AcDbEntity
  8
0
100
AcDbLine
 62
7
  6
CONTINUOUS
 10
50.5568171817
 20
-3.2166131753
 11
51.5959005269
 21
-3.198475908
  0
LINE
  5
2A0
100
AcDbEntity
  8
0
100
AcDbLine
 62
7
  6
CONTINUOUS
 10
35.5568171817
 20
-1.7585053311
 11
34.5177338365
 21
-1.7766425984
  0
LINE
  5
2A1
100
AcDbEntity
  8
0
100
AcDbLine
 62
7
  6
CONTINUOUS
 10
49.5568171817
 20
-10.782942422
 11
36.5568171817
 21
-10.782942422
  0
LINE
  5
2A2
100
AcDbEntity
  8
0
100
AcDbLine
 62
7
  6
CONTINUOUS
 10
35.7647582543
 20
-10.5721552496
 11
36.5568171817
 21
-10.5721552496
  0
LINE
  5
2A3
100
AcDbEntity
  8
0
100
AcDbLine
 62
7
  6
CONTINUOUS
 10
43.7858711038
 20
-9.7375592532
 11
42.3277632596
 21
-9.7375592532
  0
LINE
  5
2A4
100
AcDbEntity
  8
0
100
AcDbLine
 62
7
  6
CONTINUOUS
 10
37.7568171817
 20
-9.3721552496
 11
36.5568161173
 21
-9.3721548528
  0
LINE
  5
2A5
100
AcDbEntity
  8
0
100
AcDbLine
 62
7
  6
CONTINUOUS
 10
35.5568195479
 20
-9.3721554771
 11
34.6646673885
 21
-9.3721552496
  0
LINE
  5
2A6
100
AcDbEntity
  8
0
100
AcDbLine
 62
7
  6
CONTINUOUS
 10
37.5568171817
 20
-8.6921760844
 11
48.5568171817
 21
-8.6921760844
  0
LINE
  5
2A7
100
AcDbEntity
  8
0
100
AcDbLine
 62
7
  6
CONTINUOUS
 10
36.786119819
 20
-8.3721548734
 11
36.5568148155
 21
-8.3721550222
  0
LINE
  5
2A8
100
AcDbEntity
  8
0
100
AcDbLine
 62
7
  6
CONTINUOUS
 10
34.5568171817
 20
-8.3721552496
 11
35.5568182461
 21
-8.3721556465
  0
LINE
  5
2A9
100
AcDbEntity
  8
0
100
AcDbLine
 62
7
  6
CONTINUOUS
 10
35.5568171817
 20
-7.1721552496
 11
36.5568171817
 21
-7.1721552496
  0
LINE
  5
2AA
100
AcDbEntity
  8
0
100
AcDbLine
 62
7
  6
CONTINUOUS
 10
50.5568171817
 20
-3.2166131753
 11
49.5358711038
 21
-3.2166131753
  0
LINE
  5
2AB
100
AcDbEntity
  8
0
100
AcDbLine
 62
7
  6
CONTINUOUS
 10
36.5777632596
 20
-3.2166131753
 11
35.5568171817
 21
-3.2166131753
  0
LINE
  5
2AC
100
AcDbEntity
  8
0
100
AcDbLine
 62
7
  6
CONTINUOUS
 10
35.5568171817
 20
-1.7585053311
 11
36.5777632596
 21
-1.7585053311
  0
LINE
  5
2AD
100
AcDbEntity
  8
0
100
AcDbLine
 62
7
  6
CONTINUOUS
 10
49.5358711038
 20
-1.7585053311
 11
50.5568171817
 21
-1.7585053311
  0
LINE
  5
2AE
100
AcDbEntity
  8
0
100
AcDbLine
 62
7
  6
CONTINUOUS
 10
50.2593132259
 20
-1.0721552496
 11
49.5568171817
 21
-1.0721552496
  0
LINE
  5
2AF
100
AcDbEntity
  8
0
100
AcDbLine
 62
7
  6
CONTINUOUS
 10
36.5568171817
 20
-1.0721552496
 11
35.8543211375
 21
-1.0721552496
  0
LINE
  5
2B0
100
AcDbEntity
  8
0
100
AcDbLine
 62
7
  6
CONTINUOUS
 10
41.0481991715
 20
-1.0721552496
 11
41.1068171817
 21
-1.0721552496
  0
LINE
  5
2B1
100
AcDbEntity
  8
0
100
AcDbLine
 62
7
  6
CONTINUOUS
 10
-36.0568171764
 20
0.986996922
 11
-126.0568171627
 21
0.986996922
  0
LINE
  5
2B2
100
AcDbEntity
  8
0
100
AcDbLine
 62
7
  6
CONTINUOUS
 10
-126.0568171325
 20
1.0393647753
 11
-36.0568171583
 21
1.0393647753
  0
LINE
  5
2B3
100
AcDbEntity
  8
0
100
AcDbLine
 62
7
  6
CONTINUOUS
 10
34.5177338365
 20
-3.198475908
 11
35.5568171817
 21
-3.2166131753
  0
LINE
  5
2B4
100
AcDbEntity
  8
0
100
AcDbLine
 62
7
  6
CONTINUOUS
 10
51.5959005269
 20
-1.7766425984
 11
50.5568171817
 21
-1.7585053311
  0
LINE
  5
2B5
100
AcDbEntity
  8
0
100
AcDbLine
 62
250
  6
CONTINUOUS
 10
-154.974873763
 20
139.2175143883
 11
-154.2554262728
 21
138.498066888
  0
LINE
  5
2B6
100
AcDbEntity
  8
0
100
AcDbLine
 62
250
  6
CONTINUOUS
 10
-146.5268355522
 20
130.7694762393
 11
-147.2338346376
 21
131.4764753247
  0
LINE
  5
2B7
100
AcDbEntity
  8
0
100
AcDbLine
 62
250
  6
CONTINUOUS
 10
-153.5235246753
 20
137.7661653624
 11
-154.2305237607
 21
138.4731644478
  0
LINE
  5
2B8
100
AcDbEntity
  8
0
100
AcDbLine
 62
250
  6
CONTINUOUS
 10
-146.5019329092
 20
130.74457393
 11
-145.7824854093
 21
130.025126441
  0
LINE
  5
2B9
100
AcDbEntity
  8
0
100
AcDbLine
 62
7
  6
CONTINUOUS
 10
132.6568171817
 20
-136.5219070518
 11
133.9135818565
 21
-137.7786717266
  0
LINE
  5
2BA
100
AcDbEntity
  8
0
100
AcDbLine
 62
7
  6
CONTINUOUS
 10
8.0284278302
 20
129.4187271027
 11
8.0872753246
 21
126.0473564026
  0
LINE
  5
2BB
100
AcDbEntity
  8
0
100
AcDbLine
 62
7
  6
CONTINUOUS
 10
2.8733625586
 20
55.0568171764
 11
2.8733625586
 21
108.0568171627
  0
LINE
  5
2BC
100
AcDbEntity
  8
0
100
AcDbLine
 62
7
  6
CONTINUOUS
 10
2.9257304119
 20
108.0568171325
 11
2.9257304119
 21
55.0568171583
  0
LINE
  5
2BD
100
AcDbEntity
  8
0
100
AcDbLine
 62
7
  6
CONTINUOUS
 10
6.9301797403
 20
145.1266374414
 11
6.9301797403
 21
124.8902608182
  0
LINE
  5
2BE
100
AcDbEntity
  8
0
100
AcDbLine
 62
7
  6
CONTINUOUS
 10
7.0
 20
145.0568171817
 11
7.0
 21
124.9600810779
  0
LINE
  5
2BF
100
AcDbEntity
  8
0
100
AcDbLine
 62
7
  6
CONTINUOUS
 10
16.3023651948
 20
-13.2500000001
 11
16.3023651948
 21
3.2500000001
  0
LINE
  5
2C0
100
AcDbEntity
  8
0
100
AcDbLine
 62
7
  6
CONTINUOUS
 10
17.0
 20
145.0568171817
 11
17.0
 21
124.9600810779
  0
LINE
  5
2C1
100
AcDbEntity
  8
0
100
AcDbLine
 62
7
  6
CONTINUOUS
 10
17.0698202597
 20
145.1266374414
 11
17.0698202597
 21
124.8902608182
  0
LINE
  5
2C2
100
AcDbEntity
  8
0
100
AcDbLine
 62
7
  6
CONTINUOUS
 10
8.1621579069
 20
141.6321262079
 11
8.0262189549
 21
132.3922005448
  0
LINE
  5
2C3
100
AcDbEntity
  8
0
100
AcDbLine
 62
7
  6
CONTINUOUS
 10
15.9127246754
 20
126.0473564026
 11
15.9715721698
 21
129.4187271028
  0
LWPOLYLINE
  5
2C4
100
AcDbEntity
  8
0
100
AcDbPolyline
 62
7
  6
CONTINUOUS
 90
15
 70
0
 10
15.8472664675
 20
144.6583683724
 10
15.8435776844
 20
144.5196259446
 10
15.8402650017
 20
144.3586170307
 10
15.8373458953
 20
144.1743103937
 10
15.8348028893
 20
143.9677372706
 10
15.8327522413
 20
143.7483485507
 10
15.8312167922
 20
143.5155478007
 10
15.830173701
 20
143.2699314539
 10
15.8296707028
 20
143.0227396999
 10
15.829732896
 20
142.7738992607
 10
15.8303351822
 20
142.5234834142
 10
15.8314500011
 20
142.2829521837
 10
15.8330681658
 20
142.0561255769
 10
15.8351988631
 20
141.8391835861
 10
15.837842093
 20
141.6321262113
  0
LINE
  5
2C5
100
AcDbEntity
  8
0
100
AcDbLine
 62
250
  6
CONTINUOUS
 10
47.9882231487
 20
43.9932487539
 11
48.0580434084
 21
44.0630690137
  0
LINE
  5
2C6
100
AcDbEntity
  8
0
100
AcDbLine
 62
250
  6
CONTINUOUS
 10
145.7824856124
 20
130.0251262363
 11
146.501933112
 21
130.7445737272
  0
LINE
  5
2C7
100
AcDbEntity
  8
0
100
AcDbLine
 62
250
  6
CONTINUOUS
 10
154.2305237607
 20
138.4731644478
 11
153.5235246753
 21
137.7661653624
  0
LINE
  5
2C8
100
AcDbEntity
  8
0
100
AcDbLine
 62
250
  6
CONTINUOUS
 10
147.2338346376
 20
131.4764753247
 11
146.5268355522
 21
130.7694762393
  0
LINE
  5
2C9
100
AcDbEntity
  8
0
100
AcDbLine
 62
250
  6
CONTINUOUS
 10
154.25542607
 20
138.4980670908
 11
154.9748735569
 21
139.2175145928
  0
LINE
  5
2CA
100
AcDbEntity
  8
0
100
AcDbLine
 62
7
  6
CONTINUOUS
 10
43.986996922
 20
19.8780244907
 11
44.0568171817
 21
19.9478447504
  0
LINE
  5
2CB
100
AcDbEntity
  8
0
100
AcDbLine
 62
250
  6
CONTINUOUS
 10
159.2175143876
 20
134.9748737637
 11
158.498066888
 21
134.2554262728
  0
LINE
  5
2CC
100
AcDbEntity
  8
0
100
AcDbLine
 62
250
  6
CONTINUOUS
 10
150.7694762393
 20
126.5268355522
 11
151.4764753247
 21
127.2338346376
  0
LINE
  5
2CD
100
AcDbEntity
  8
0
100
AcDbLine
 62
250
  6
CONTINUOUS
 10
157.7661653624
 20
133.5235246753
 11
158.4731644478
 21
134.2305237607
  0
LINE
  5
2CE
100
AcDbEntity
  8
0
100
AcDbLine
 62
250
  6
CONTINUOUS
 10
150.74457393
 20
126.5019329092
 11
150.0251264431
 21
125.7824854072
  0
LINE
  5
2CF
100
AcDbEntity
  8
0
100
AcDbLine
 62
7
  6
CONTINUOUS
 10
34.5177338365
 20
9.7233574016
 11
34.5568171817
 21
9.7624407468
  0
LWPOLYLINE
  5
2D0
100
AcDbEntity
  8
0
100
AcDbPolyline
 62
7
  6
CONTINUOUS
 90
10
 70
0
 10
23.1816987405
 20
17.215120075
 10
23.1984766797
 20
17.2310513461
 10
23.2156001852
 20
17.2469825069
 10
23.2330692568
 20
17.2629135575
 10
23.251114272
 20
17.2788444243
 10
23.2695048535
 20
17.2947751807
 10
23.2875498687
 20
17.3107060475
 10
23.3050189403
 20
17.326637098
 10
23.3221424457
 20
17.3425682588
 10
23.3389203849
 20
17.3584995299
  0
LWPOLYLINE
  5
2D1
100
AcDbEntity
  8
0
100
AcDbPolyline
 62
7
  6
CONTINUOUS
 90
10
 70
0
 10
23.3389203849
 20
17.3584995299
 10
23.3599340069
 20
17.3609260928
 10
23.4002751708
 20
17.3631731491
 10
23.4599438764
 20
17.3652406988
 10
23.5415845912
 20
17.3671900049
 10
23.6425528479
 20
17.3689598044
 10
23.7549152436
 20
17.3703663081
 10
23.8760273109
 20
17.3713482528
 10
24.0085335172
 20
17.3719669018
 10
24.1524338627
 20
17.372222255
  0
LINE
  5
2D2
100
AcDbEntity
  8
0
100
AcDbLine
 62
7
  6
CONTINUOUS
 10
21.9799775024
 20
17.1802099452
 11
23.1816987405
 21
17.215120075
  0
LINE
  5
2D3
100
AcDbEntity
  8
0
100
AcDbLine
 62
7
  6
CONTINUOUS
 10
50.5568171817
 20
8.2833868247
 11
51.5959005269
 21
8.301524092
  0
LINE
  5
2D4
100
AcDbEntity
  8
0
100
AcDbLine
 62
7
  6
CONTINUOUS
 10
35.5568171817
 20
9.7414946689
 11
34.5177338365
 21
9.7233574016
  0
LINE
  5
2D5
100
AcDbEntity
  8
0
100
AcDbLine
 62
7
  6
CONTINUOUS
 10
49.5568171817
 20
3.4278447504
 11
50.5568171817
 21
3.4278447504
  0
LINE
  5
2D6
100
AcDbEntity
  8
0
100
AcDbLine
 62
7
  6
CONTINUOUS
 10
51.5568171817
 20
4.6278447504
 11
50.5568161173
 21
4.6278451472
  0
LINE
  5
2D7
100
AcDbEntity
  8
0
100
AcDbLine
 62
7
  6
CONTINUOUS
 10
50.5568148155
 20
5.6278449778
 11
51.5568171817
 21
5.6278447504
  0
LINE
  5
2D8
100
AcDbEntity
  8
0
100
AcDbLine
 62
7
  6
CONTINUOUS
 10
49.5568171817
 20
6.8278447504
 11
50.5568171817
 21
6.8278447504
  0
LINE
  5
2D9
100
AcDbEntity
  8
0
100
AcDbLine
 62
7
  6
CONTINUOUS
 10
50.5568171817
 20
8.2833868247
 11
49.5358711038
 21
8.2833868247
  0
LINE
  5
2DA
100
AcDbEntity
  8
0
100
AcDbLine
 62
7
  6
CONTINUOUS
 10
36.5777632596
 20
8.2833868247
 11
35.5568171817
 21
8.2833868247
  0
LINE
  5
2DB
100
AcDbEntity
  8
0
100
AcDbLine
 62
7
  6
CONTINUOUS
 10
35.5568171817
 20
9.7414946689
 11
36.5777632596
 21
9.7414946689
  0
LINE
  5
2DC
100
AcDbEntity
  8
0
100
AcDbLine
 62
7
  6
CONTINUOUS
 10
49.5358711038
 20
9.7414946689
 11
50.5568171817
 21
9.7414946689
  0
LINE
  5
2DD
100
AcDbEntity
  8
0
100
AcDbLine
 62
7
  6
CONTINUOUS
 10
9.2500000001
 20
10.3023651948
 11
-9.2500000001
 21
10.3023651948
  0
LINE
  5
2DE
100
AcDbEntity
  8
0
100
AcDbLine
 62
7
  6
CONTINUOUS
 10
34.5568171817
 20
10.3778447504
 11
36.5568171817
 21
10.3778447504
  0
LINE
  5
2DF
100
AcDbEntity
  8
0
100
AcDbLine
 62
7
  6
CONTINUOUS
 10
49.5568171817
 20
10.3778447504
 11
51.5568171817
 21
10.3778447504
  0
LINE
  5
2E0
100
AcDbEntity
  8
0
100
AcDbLine
 62
7
  6
CONTINUOUS
 10
51.5568171817
 20
11.5580244907
 11
49.5568171817
 21
11.5580244907
  0
LINE
  5
2E1
100
AcDbEntity
  8
0
100
AcDbLine
 62
7
  6
CONTINUOUS
 10
36.5568171817
 20
11.5580244907
 11
34.5568171817
 21
11.5580244907
  0
LINE
  5
2E2
100
AcDbEntity
  8
0
100
AcDbLine
 62
7
  6
CONTINUOUS
 10
34.5568171817
 20
11.6278447504
 11
36.5568171817
 21
11.6278447504
  0
LINE
  5
2E3
100
AcDbEntity
  8
0
100
AcDbLine
 62
7
  6
CONTINUOUS
 10
49.5568171817
 20
11.6278447504
 11
51.5568171817
 21
11.6278447504
  0
LINE
  5
2E4
100
AcDbEntity
  8
0
100
AcDbLine
 62
7
  6
CONTINUOUS
 10
51.5568171817
 20
12.6278447504
 11
49.5568171817
 21
12.6278447504
  0
LINE
  5
2E5
100
AcDbEntity
  8
0
100
AcDbLine
 62
7
  6
CONTINUOUS
 10
36.5568171817
 20
12.6278447504
 11
34.5568171817
 21
12.6278447504
  0
LINE
  5
2E6
100
AcDbEntity
  8
0
100
AcDbLine
 62
7
  6
CONTINUOUS
 10
48.5568171817
 20
15.217057578
 11
47.0568171817
 21
15.217057578
  0
LINE
  5
2E7
100
AcDbEntity
  8
0
100
AcDbLine
 62
7
  6
CONTINUOUS
 10
39.0568171817
 20
15.217057578
 11
37.5568171817
 21
15.217057578
  0
LINE
  5
2E8
100
AcDbEntity
  8
0
100
AcDbLine
 62
7
  6
CONTINUOUS
 10
25.2529854935
 20
16.0580244907
 11
19.4578319713
 21
16.0580244907
  0
LINE
  5
2E9
100
AcDbEntity
  8
0
100
AcDbLine
 62
7
  6
CONTINUOUS
 10
25.1831652338
 20
16.1278447504
 11
19.527652231
 21
16.1278447504
  0
LINE
  5
2EA
100
AcDbEntity
  8
0
100
AcDbLine
 62
7
  6
CONTINUOUS
 10
21.9799775024
 20
17.1802099452
 11
21.3800174258
 21
17.1802099451
  0
LINE
  5
2EB
100
AcDbEntity
  8
0
100
AcDbLine
 62
7
  6
CONTINUOUS
 10
36.5568171817
 20
17.3078239156
 11
37.0557432599
 21
17.3078239156
  0
LINE
  5
2EC
100
AcDbEntity
  8
0
100
AcDbLine
 62
7
  6
CONTINUOUS
 10
49.0578911035
 20
17.3078239156
 11
49.5568171817
 21
17.3078239156
  0
LINE
  5
2ED
100
AcDbEntity
  8
0
100
AcDbLine
 62
7
  6
CONTINUOUS
 10
34.5568171817
 20
12.6943074278
 11
36.5568171817
 21
12.6939016337
  0
LINE
  5
2EE
100
AcDbEntity
  8
0
100
AcDbLine
 62
7
  6
CONTINUOUS
 10
49.5568171817
 20
12.6907088175
 11
51.5568171817
 21
12.690132191
  0
LWPOLYLINE
  5
2EF
100
AcDbEntity
  8
0
100
AcDbPolyline
 62
7
  6
CONTINUOUS
 90
10
 70
0
 10
24.1524338627
 20
17.372222255
 10
24.296767648
 20
17.3719539155
 10
24.4291921326
 20
17.3713380201
 10
24.5497073164
 20
17.3703745686
 10
24.6609128687
 20
17.3690190145
 10
24.7602091201
 20
17.3673159044
 10
24.8397970634
 20
17.3653988786
 10
24.8970770294
 20
17.3633124839
 10
24.9346486872
 20
17.3610121735
 10
24.9525120368
 20
17.3584979474
  0
LINE
  5
2F0
100
AcDbEntity
  8
0
100
AcDbLine
 62
7
  6
CONTINUOUS
 10
34.5177338365
 20
8.301524092
 11
35.5568171817
 21
8.2833868247
  0
LINE
  5
2F1
100
AcDbEntity
  8
0
100
AcDbLine
 62
7
  6
CONTINUOUS
 10
51.5959005269
 20
9.7233574016
 11
50.5568171817
 21
9.7414946689
  0
LINE
  5
2F2
100
AcDbEntity
  8
0
100
AcDbLine
 62
7
  6
CONTINUOUS
 10
131.3349626367
 20
-116.3698727666
 11
132.5219070518
 21
-117.5568171817
  0
LINE
  5
2F3
100
AcDbEntity
  8
0
100
AcDbLine
 62
250
  6
CONTINUOUS
 10
146.5019329092
 20
-130.74457393
 11
145.7824854093
 21
-130.025126441
  0
LINE
  5
2F4
100
AcDbEntity
  8
0
100
AcDbLine
 62
250
  6
CONTINUOUS
 10
146.5268355522
 20
-130.7694762393
 11
147.2338346376
 21
-131.4764753247
  0
LINE
  5
2F5
100
AcDbEntity
  8
0
100
AcDbLine
 62
250
  6
CONTINUOUS
 10
153.5235246753
 20
-137.7661653624
 11
154.2305237607
 21
-138.4731644478
  0
LINE
  5
2F6
100
AcDbEntity
  8
0
100
AcDbLine
 62
250
  6
CONTINUOUS
 10
154.974873763
 20
-139.2175143883
 11
154.2554262728
 21
-138.498066888
  0
LINE
  5
2F7
100
AcDbEntity
  8
0
100
AcDbLine
 62
7
  6
CONTINUOUS
 10
39.0032475277
 20
-18.5582555038
 11
38.7062079623
 21
-18.2612112011
  0
LINE
  5
2F8
100
AcDbEntity
  8
0
100
AcDbLine
 62
250
  6
CONTINUOUS
 10
158.4980670908
 20
-134.25542607
 11
159.2175145907
 21
-134.974873559
  0
LINE
  5
2F9
100
AcDbEntity
  8
0
100
AcDbLine
 62
250
  6
CONTINUOUS
 10
158.4731644478
 20
-134.2305237607
 11
157.7661653624
 21
-133.5235246753
  0
LINE
  5
2FA
100
AcDbEntity
  8
0
100
AcDbLine
 62
250
  6
CONTINUOUS
 10
151.4764753247
 20
-127.2338346376
 11
150.7694762393
 21
-126.5268355522
  0
LINE
  5
2FB
100
AcDbEntity
  8
0
100
AcDbLine
 62
250
  6
CONTINUOUS
 10
150.025126237
 20
-125.7824856117
 11
150.7445737272
 21
-126.501933112
  0
LINE
  5
2FC
100
AcDbEntity
  8
0
100
AcDbLine
 62
7
  6
CONTINUOUS
 10
15.8378420192
 20
141.6321262113
 11
15.9737810451
 21
132.3922005446
  0
LINE
  5
2FD
100
AcDbEntity
  8
0
100
AcDbLine
 62
250
  6
CONTINUOUS
 10
18.9431828417
 20
49.0393647753
 11
18.9431828236
 21
48.986996922
  0
LINE
  5
2FE
100
AcDbEntity
  8
0
100
AcDbLine
 62
7
  6
CONTINUOUS
 10
19.4578319713
 20
26.1976650101
 11
19.4578319713
 21
16.0580244906
  0
LINE
  5
2FF
100
AcDbEntity
  8
0
100
AcDbLine
 62
7
  6
CONTINUOUS
 10
19.527652231
 20
26.1278447504
 11
19.527652231
 21
16.1278447504
  0
LINE
  5
300
100
AcDbEntity
  8
0
100
AcDbLine
 62
7
  6
CONTINUOUS
 10
20.9920478857
 20
17.1921794739
 11
20.9920478857
 21
25.0635100269
  0
LINE
  5
301
100
AcDbEntity
  8
0
100
AcDbLine
 62
7
  6
CONTINUOUS
 10
21.3800174258
 20
17.1802099451
 11
21.3800174258
 21
25.0754795556
  0
LINE
  5
302
100
AcDbEntity
  8
0
100
AcDbLine
 62
7
  6
CONTINUOUS
 10
21.9799775024
 20
25.0754795556
 11
21.9799775024
 21
17.1802099452
  0
LINE
  5
303
100
AcDbEntity
  8
0
100
AcDbLine
 62
7
  6
CONTINUOUS
 10
23.1816987405
 20
25.0405694257
 11
23.1816987405
 21
17.215120075
  0
LINE
  5
304
100
AcDbEntity
  8
0
100
AcDbLine
 62
250
  6
CONTINUOUS
 10
23.3250824115
 20
17.3584995299
 11
23.3250824115
 21
24.8971899709
  0
LINE
  5
305
100
AcDbEntity
  8
0
100
AcDbLine
 62
250
  6
CONTINUOUS
 10
24.9525134309
 20
17.3584965533
 11
24.9525146705
 21
24.897194187
  0
LINE
  5
306
100
AcDbEntity
  8
0
100
AcDbLine
 62
7
  6
CONTINUOUS
 10
24.9606352247
 20
55.0568172309
 11
24.9606352247
 21
108.0568172051
  0
LINE
  5
307
100
AcDbEntity
  8
0
100
AcDbLine
 62
7
  6
CONTINUOUS
 10
25.013003078
 20
108.056817187
 11
25.013003078
 21
55.0568172007
  0
LINE
  5
308
100
AcDbEntity
  8
0
100
AcDbLine
 62
7
  6
CONTINUOUS
 10
25.1831652338
 20
26.1278447504
 11
25.1831652338
 21
25.1278447504
  0
LINE
  5
309
100
AcDbEntity
  8
0
100
AcDbLine
 62
7
  6
CONTINUOUS
 10
25.1831652338
 20
17.1278447504
 11
25.1831652338
 21
16.1278447504
  0
LINE
  5
30A
100
AcDbEntity
  8
0
100
AcDbLine
 62
7
  6
CONTINUOUS
 10
25.2529854936
 20
26.1976650101
 11
25.2529854936
 21
16.0580244906
  0
LINE
  5
30B
100
AcDbEntity
  8
0
100
AcDbLine
 62
7
  6
CONTINUOUS
 10
31.4630072172
 20
95.0698202597
 11
31.4630072172
 21
84.9301797403
  0
LINE
  5
30C
100
AcDbEntity
  8
0
100
AcDbLine
 62
7
  6
CONTINUOUS
 10
31.5328274769
 20
95.0
 11
31.5328274769
 21
85.0
  0
LINE
  5
30D
100
AcDbEntity
  8
0
100
AcDbLine
 62
7
  6
CONTINUOUS
 10
32.6026503951
 20
93.9301770818
 11
32.6026503951
 21
86.0698229182
  0
LWPOLYLINE
  5
30E
100
AcDbEntity
  8
0
100
AcDbPolyline
 62
7
  6
CONTINUOUS
 90
22
 70
0
 10
37.7068171817
 20
31.4778249135
 10
37.703107676
 20
31.4581095159
 10
37.6996511766
 20
31.4122068342
 10
37.6964476833
 20
31.3401168685
 10
37.6934480928
 20
31.2390347834
 10
37.6907015085
 20
31.1117654143
 10
37.6883552408
 20
30.9667232671
 10
37.6864271266
 20
30.8032707955
 10
37.6848993291
 20
30.6220455458
 10
37.6838656477
 20
30.4333746631
 10
37.6833565867
 20
30.2358441407
 10
37.6833416418
 20
30.0308679854
 10
37.6838231
 20
29.8330153619
 10
37.6848295911
 20
29.643712597
 10
37.6863324852
 20
29.4615333639
 10
37.6882481798
 20
29.2967678471
 10
37.6906016509
 20
29.1497564253
 10
37.6933679224
 20
29.0201587198
 10
37.6963884643
 20
28.9172437785
 10
37.6996104332
 20
28.8441012843
 10
37.7030866723
 20
28.7976415544
 10
37.7068171817
 20
28.7778645888
  0
LINE
  5
30F
100
AcDbEntity
  8
0
100
AcDbLine
 62
7
  6
CONTINUOUS
 10
51.5959005269
 20
8.301524092
 11
51.5568171817
 21
8.2624407468
  0
LWPOLYLINE
  5
310
100
AcDbEntity
  8
0
100
AcDbPolyline
 62
7
  6
CONTINUOUS
 90
6
 70
0
 10
24.9525146705
 20
24.897194187
 10
24.9388997802
 20
24.8949714585
 10
24.909113886
 20
24.8929065669
 10
24.8631569879
 20
24.8909995122
 10
24.7988660291
 20
24.8892184187
 10
24.7184040664
 20
24.8875951621
  0
LINE
  5
311
100
AcDbEntity
  8
0
100
AcDbLine
 62
7
  6
CONTINUOUS
 10
21.3800174258
 20
25.0754795556
 11
20.9920478857
 21
25.0635100269
  0
LWPOLYLINE
  5
312
100
AcDbEntity
  8
0
100
AcDbPolyline
 62
7
  6
CONTINUOUS
 90
6
 70
0
 10
24.7184040664
 20
24.8875951621
 10
24.6282602698
 20
24.8862253697
 10
24.5282285707
 20
24.8851277764
 10
24.4185150377
 20
24.8842836472
 10
24.3062270464
 20
24.883732404
 10
24.1912502214
 20
24.8834937944
  0
LINE
  5
313
100
AcDbEntity
  8
0
100
AcDbLine
 62
7
  6
CONTINUOUS
 10
43.986996922
 20
19.8780244907
 11
42.1266374414
 21
19.8780244907
  0
LINE
  5
314
100
AcDbEntity
  8
0
100
AcDbLine
 62
7
  6
CONTINUOUS
 10
44.0568171817
 20
19.9478447504
 11
42.0568171817
 21
19.9478447504
  0
LINE
  5
315
100
AcDbEntity
  8
NONE_2
100
AcDbLine
 62
7
  6
CONTINUOUS
 10
39.9318171817
 20
20.4478447504
 11
40.0568171817
 21
20.4478447504
  0
LINE
  5
316
100
AcDbEntity
  8
NONE_2
100
AcDbLine
 62
7
  6
CONTINUOUS
 10
46.0568171817
 20
20.4478447504
 11
46.2818171817
 21
20.4478447504
  0
LINE
  5
317
100
AcDbEntity
  8
0
100
AcDbLine
 62
7
  6
CONTINUOUS
 10
41.0568171816
 20
21.9024615815
 11
45.0568171818
 21
21.9024615815
  0
LINE
  5
318
100
AcDbEntity
  8
0
100
AcDbLine
 62
7
  6
CONTINUOUS
 10
-36.0568172141
 20
25.0742695881
 11
-126.0568171958
 21
25.0742695881
  0
LINE
  5
319
100
AcDbEntity
  8
0
100
AcDbLine
 62
7
  6
CONTINUOUS
 10
21.9799775024
 20
25.0754795556
 11
21.3800174258
 21
25.0754795556
  0
LINE
  5
31A
100
AcDbEntity
  8
0
100
AcDbLine
 62
7
  6
CONTINUOUS
 10
-126.056817187
 20
25.1266374414
 11
-36.0568172008
 21
25.1266374414
  0
LINE
  5
31B
100
AcDbEntity
  8
0
100
AcDbLine
 62
7
  6
CONTINUOUS
 10
25.1831652338
 20
26.1278447504
 11
19.527652231
 21
26.1278447504
  0
LINE
  5
31C
100
AcDbEntity
  8
0
100
AcDbLine
 62
7
  6
CONTINUOUS
 10
25.2529854935
 20
26.1976650101
 11
19.4578319713
 21
26.1976650101
  0
LINE
  5
31D
100
AcDbEntity
  8
0
100
AcDbLine
 62
7
  6
CONTINUOUS
 10
48.4068171817
 20
28.7778447504
 11
48.2068171817
 21
28.7778447504
  0
LINE
  5
31E
100
AcDbEntity
  8
0
100
AcDbLine
 62
7
  6
CONTINUOUS
 10
37.7068171816
 20
28.7778447504
 11
37.9068171817
 21
28.7778447504
  0
LINE
  5
31F
100
AcDbEntity
  8
NONE_2
100
AcDbLine
 62
250
  6
CONTINUOUS
 10
48.2068171817
 20
30.1278447504
 11
46.2818171817
 21
30.1278447504
  0
LINE
  5
320
100
AcDbEntity
  8
NONE_2
100
AcDbLine
 62
250
  6
CONTINUOUS
 10
39.9318171817
 20
30.1278447504
 11
37.9068171817
 21
30.1278447504
  0
LINE
  5
321
100
AcDbEntity
  8
NONE_2
100
AcDbLine
 62
7
  6
CONTINUOUS
 10
39.9318171817
 20
31.3478447504
 11
46.2818171817
 21
31.3478447504
  0
LINE
  5
322
100
AcDbEntity
  8
0
100
AcDbLine
 62
7
  6
CONTINUOUS
 10
48.4068171817
 20
31.4778447504
 11
48.2068171817
 21
31.4778447504
  0
LINE
  5
323
100
AcDbEntity
  8
0
100
AcDbLine
 62
7
  6
CONTINUOUS
 10
37.7068171817
 20
31.4778447504
 11
37.9068171817
 21
31.4778447504
  0
LINE
  5
324
100
AcDbEntity
  8
NONE_2
100
AcDbLine
 62
7
  6
CONTINUOUS
 10
37.9068171817
 20
32.9278447504
 11
48.2068171817
 21
32.9278447504
  0
LWPOLYLINE
  5
325
100
AcDbEntity
  8
0
100
AcDbPolyline
 62
7
  6
CONTINUOUS
 90
11
 70
0
 10
24.1912502214
 20
24.8834937944
 10
23.9610236979
 20
24.8838754127
 10
23.8543361725
 20
24.8844877792
 10
23.7525246904
 20
24.885373211
 10
23.6597047387
 20
24.8864760092
 10
23.5758006561
 20
24.8877907973
 10
23.500888104
 20
24.8893229519
 10
23.4393095537
 20
24.8910329034
 10
23.3925124956
 20
24.8929074622
 10
23.3590494393
 20
24.894959818
 10
23.3389203849
 20
24.8971899709
  0
LINE
  5
326
100
AcDbEntity
  8
0
100
AcDbLine
 62
7
  6
CONTINUOUS
 10
23.1816987405
 20
25.0405694257
 11
21.9799775024
 21
25.0754795556
  0
LINE
  5
327
100
AcDbEntity
  8
0
100
AcDbLine
 62
7
  6
CONTINUOUS
 10
20.9920478857
 20
17.1921794739
 11
21.3800174258
 21
17.1802099452
  0
LINE
  5
328
100
AcDbEntity
  8
0
100
AcDbLine
 62
7
  6
CONTINUOUS
 10
-110.6111911109
 20
147.1105817987
 11
-110.5742292241
 21
147.073871394
  0
LINE
  5
329
100
AcDbEntity
  8
0
100
AcDbLine
 62
7
  6
CONTINUOUS
 10
-120.569102522
 20
151.2993906878
 11
-121.4673004659
 21
152.1922045322
  0
LINE
  5
32A
100
AcDbEntity
  8
0
100
AcDbLine
 62
7
  6
CONTINUOUS
 10
46.6014775727
 20
-20.7848631489
 11
46.4091677639
 21
-20.59255334
  0
LINE
  5
32B
100
AcDbEntity
  8
0
100
AcDbLine
 62
7
  6
CONTINUOUS
 10
-120.4469170675
 20
150.4463077553
 11
-120.3232614307
 21
150.3226521185
  0
LINE
  5
32C
100
AcDbEntity
  8
0
100
AcDbLine
 62
7
  6
CONTINUOUS
 10
-120.4469170675
 20
151.1772052333
 11
-120.569102522
 21
151.2993906878
  0
LINE
  5
32D
100
AcDbEntity
  8
0
100
AcDbLine
 62
7
  6
CONTINUOUS
 10
34.5568171817
 20
-3.2375592532
 11
34.5177338365
 21
-3.198475908
  0
LINE
  5
32E
100
AcDbEntity
  8
0
100
AcDbLine
 62
7
  6
CONTINUOUS
 10
42.3459005269
 20
-10.7766425984
 11
42.3068171817
 21
-10.7375592532
  0
LINE
  5
32F
100
AcDbEntity
  8
0
100
AcDbLine
 62
7
  6
CONTINUOUS
 10
-98.4185037122
 20
139.5178943999
 11
-99.5268831629
 21
140.6262738507
  0
LINE
  5
330
100
AcDbEntity
  8
0
100
AcDbLine
 62
7
  6
CONTINUOUS
 10
25.1831652338
 20
17.1278447504
 11
24.9525134309
 21
17.3584965533
  0
LINE
  5
331
100
AcDbEntity
  8
0
100
AcDbLine
 62
7
  6
CONTINUOUS
 10
34.5568171817
 20
8.2624407468
 11
34.5177338365
 21
8.301524092
  0
LINE
  5
332
100
AcDbEntity
  8
0
100
AcDbLine
 62
7
  6
CONTINUOUS
 10
37.7068171817
 20
35.6215602964
 11
37.1255635196
 21
41.4932487539
  0
LINE
  5
333
100
AcDbEntity
  8
0
100
AcDbLine
 62
7
  6
CONTINUOUS
 10
38.776028222
 20
-22.5865444636
 11
38.7879977507
 21
-22.9745140037
  0
LINE
  5
334
100
AcDbEntity
  8
0
100
AcDbLine
 62
7
  6
CONTINUOUS
 10
46.6363877026
 20
-21.986584387
 11
46.6014775727
 21
-20.7848631489
  0
LWPOLYLINE
  5
335
100
AcDbEntity
  8
0
100
AcDbPolyline
 62
7
  6
CONTINUOUS
 90
9
 70
0
 10
39.0114048063
 20
-18.7198262097
 10
39.0133356762
 20
-18.7903656612
 10
39.0150775241
 20
-18.874221049
 10
39.016619403
 20
-18.9736679586
 10
39.0179722599
 20
-19.0864308046
 10
39.0190365291
 20
-19.2054279858
 10
39.0197790219
 20
-19.3282989686
 10
39.0202329269
 20
-19.4574042865
 10
39.0203982441
 20
-19.5927439397
  0
LINE
  5
336
100
AcDbEntity
  8
0
100
AcDbLine
 62
7
  6
CONTINUOUS
 10
42.3277632596
 20
-9.7375592532
 11
42.3459005269
 21
-10.7766425984
  0
LWPOLYLINE
  5
337
100
AcDbEntity
  8
0
100
AcDbPolyline
 62
7
  6
CONTINUOUS
 90
3
 70
0
 10
46.3933376609
 20
-19.9742466504
 10
46.3921943456
 20
-19.7268010406
 10
46.3920167321
 20
-19.5927216824
  0
LINE
  5
338
100
AcDbEntity
  8
0
100
AcDbLine
 62
7
  6
CONTINUOUS
 10
34.5114340129
 20
-8.7375592532
 11
34.5114340129
 21
15.2624407468
  0
LINE
  5
339
100
AcDbEntity
  8
0
100
AcDbLine
 62
7
  6
CONTINUOUS
 10
34.5177338365
 20
-3.198475908
 11
34.5177338365
 21
-1.7766425984
  0
LINE
  5
33A
100
AcDbEntity
  8
0
100
AcDbLine
 62
7
  6
CONTINUOUS
 10
34.5177338365
 20
8.301524092
 11
34.5177338365
 21
9.7233574016
  0
LINE
  5
33B
100
AcDbEntity
  8
0
100
AcDbLine
 62
250
  6
CONTINUOUS
 10
34.9741734
 20
86.0284278302
 11
34.9741734
 21
93.9715721698
  0
LINE
  5
33C
100
AcDbEntity
  8
0
100
AcDbLine
 62
7
  6
CONTINUOUS
 10
35.5568171817
 20
-10.4696100608
 11
35.5568195479
 21
-9.3721554771
  0
LINE
  5
33D
100
AcDbEntity
  8
0
100
AcDbLine
 62
7
  6
CONTINUOUS
 10
35.5568171817
 20
-3.2166131753
 11
35.5568171817
 21
-1.7585053311
  0
LINE
  5
33E
100
AcDbEntity
  8
0
100
AcDbLine
 62
7
  6
CONTINUOUS
 10
35.5568171817
 20
8.2833868247
 11
35.5568171817
 21
9.7414946689
  0
LINE
  5
33F
100
AcDbEntity
  8
0
100
AcDbLine
 62
7
  6
CONTINUOUS
 10
35.5568171817
 20
-7.1721552496
 11
35.5568182461
 21
-8.3721556465
  0
LINE
  5
340
100
AcDbEntity
  8
0
100
AcDbLine
 62
7
  6
CONTINUOUS
 10
35.8543211375
 20
-1.7375592532
 11
35.8543211375
 21
-1.0721552496
  0
LINE
  5
341
100
AcDbEntity
  8
0
100
AcDbLine
 62
7
  6
CONTINUOUS
 10
36.5568148155
 20
-8.3721550222
 11
36.5568108441
 21
-7.7375592533
  0
LINE
  5
342
100
AcDbEntity
  8
0
100
AcDbLine
 62
7
  6
CONTINUOUS
 10
36.5568171817
 20
-10.5721552496
 11
36.5568161173
 21
-9.3721548528
  0
LINE
  5
343
100
AcDbEntity
  8
0
100
AcDbLine
 62
7
  6
CONTINUOUS
 10
36.6022003505
 20
14.2624407468
 11
36.6022003505
 21
-7.7375592532
  0
LINE
  5
344
100
AcDbEntity
  8
0
100
AcDbLine
 62
7
  6
CONTINUOUS
 10
37.0557432599
 20
17.3078239156
 11
37.0557432599
 21
43.0632213185
  0
LINE
  5
345
100
AcDbEntity
  8
0
100
AcDbLine
 62
7
  6
CONTINUOUS
 10
37.1255635196
 20
17.2868778377
 11
37.1255635196
 21
18.7624407468
  0
LINE
  5
346
100
AcDbEntity
  8
0
100
AcDbLine
 62
7
  6
CONTINUOUS
 10
37.1255635196
 20
41.4932487539
 11
37.1255635196
 21
42.9934010588
  0
LINE
  5
347
100
AcDbEntity
  8
0
100
AcDbLine
 62
7
  6
CONTINUOUS
 10
37.6363877026
 20
-24.526184983
 11
37.6363877026
 21
-18.1913909413
  0
LINE
  5
348
100
AcDbEntity
  8
0
100
AcDbLine
 62
7
  6
CONTINUOUS
 10
37.7062079623
 20
-24.4563647233
 11
37.7062079623
 21
-18.2612112011
  0
LINE
  5
349
100
AcDbEntity
  8
0
100
AcDbLine
 62
7
  6
CONTINUOUS
 10
37.7068171817
 20
35.6215602964
 11
37.7068171817
 21
31.4778249135
  0
LINE
  5
34A
100
AcDbEntity
  8
0
100
AcDbLine
 62
7
  6
CONTINUOUS
 10
37.7068171817
 20
28.7778645888
 11
37.7068171817
 21
24.6341292044
  0
LINE
  5
34B
100
AcDbEntity
  8
0
100
AcDbLine
 62
7
  6
CONTINUOUS
 10
37.7568171817
 20
-9.3721552496
 11
37.7568171817
 21
-8.7375592532
  0
LINE
  5
34C
100
AcDbEntity
  8
NONE_2
100
AcDbLine
 62
7
  6
CONTINUOUS
 10
37.9068171817
 20
34.5278447504
 11
37.9068171817
 21
15.2624407468
  0
LINE
  5
34D
100
AcDbEntity
  8
0
100
AcDbLine
 62
250
  6
CONTINUOUS
 10
37.9476468419
 20
93.9737810451
 11
37.9476468419
 21
86.0262189549
  0
LINE
  5
34E
100
AcDbEntity
  8
NONE_2
100
AcDbLine
 62
7
  6
CONTINUOUS
 10
38.5068171817
 20
32.9278447504
 11
38.5068171817
 21
34.5278447504
  0
LINE
  5
34F
100
AcDbEntity
  8
0
100
AcDbLine
 62
7
  6
CONTINUOUS
 10
38.776028222
 20
-22.5865444636
 11
38.776028222
 21
-21.986584387
  0
LINE
  5
350
100
AcDbEntity
  8
NONE_2
100
AcDbLine
 62
7
  6
CONTINUOUS
 10
39.9318171817
 20
20.4478447504
 11
39.9318171817
 21
31.3478447504
  0
LINE
  5
351
100
AcDbEntity
  8
NONE_2
100
AcDbLine
 62
7
  6
CONTINUOUS
 10
39.9318171817
 20
32.9278447504
 11
39.9318171817
 21
43.9932487539
  0
LINE
  5
352
100
AcDbEntity
  8
0
100
AcDbLine
 62
7
  6
CONTINUOUS
 10
40.1022003505
 20
16.2624407468
 11
40.1022003505
 21
20.9478447503
  0
LINE
  5
353
100
AcDbEntity
  8
NONE_3
100
AcDbLine
 62
7
  6
CONTINUOUS
 10
41.1068171817
 20
1.4784565963
 11
41.1068171817
 21
-1.1594807737
  0
LINE
  5
354
100
AcDbEntity
  8
0
100
AcDbLine
 62
7
  6
CONTINUOUS
 10
42.0568171817
 20
4.5473771579
 11
42.0568171817
 21
19.9478447504
  0
LINE
  5
355
100
AcDbEntity
  8
0
100
AcDbLine
 62
7
  6
CONTINUOUS
 10
42.1266374414
 20
19.8780244907
 11
42.1266374414
 21
4.491321771
  0
LINE
  5
356
100
AcDbEntity
  8
0
100
AcDbLine
 62
7
  6
CONTINUOUS
 10
42.3277632596
 20
-9.7375592532
 11
42.3277632596
 21
-8.7166131753
  0
LINE
  5
357
100
AcDbEntity
  8
0
100
AcDbLine
 62
7
  6
CONTINUOUS
 10
43.7858711038
 20
-8.7166131753
 11
43.7858711038
 21
-9.7375592532
  0
LINE
  5
358
100
AcDbEntity
  8
0
100
AcDbLine
 62
7
  6
CONTINUOUS
 10
43.986996922
 20
4.491321771
 11
43.986996922
 21
19.8780244907
  0
LINE
  5
359
100
AcDbEntity
  8
0
100
AcDbLine
 62
7
  6
CONTINUOUS
 10
44.0568171817
 20
19.9478447504
 11
44.0568171817
 21
4.5473771579
  0
LINE
  5
35A
100
AcDbEntity
  8
0
100
AcDbLine
 62
7
  6
CONTINUOUS
 10
46.0114340129
 20
20.9478447503
 11
46.0114340129
 21
16.2624407468
  0
LINE
  5
35B
100
AcDbEntity
  8
NONE_2
100
AcDbLine
 62
7
  6
CONTINUOUS
 10
46.2818171817
 20
20.4478447504
 11
46.2818171817
 21
31.3478447504
  0
LINE
  5
35C
100
AcDbEntity
  8
NONE_2
100
AcDbLine
 62
7
  6
CONTINUOUS
 10
46.2818171817
 20
32.9278447504
 11
46.2818171817
 21
43.9932487539
  0
LINE
  5
35D
100
AcDbEntity
  8
0
100
AcDbLine
 62
7
  6
CONTINUOUS
 10
46.6363877026
 20
-22.5865444636
 11
46.6363877026
 21
-21.986584387
  0
LINE
  5
35E
100
AcDbEntity
  8
0
100
AcDbLine
 62
250
  6
CONTINUOUS
 10
47.1875725053
 20
93.8378420193
 11
47.1875725086
 21
86.1621579808
  0
LINE
  5
35F
100
AcDbEntity
  8
NONE_2
100
AcDbLine
 62
7
  6
CONTINUOUS
 10
47.6068171817
 20
34.5278447504
 11
47.6068171817
 21
32.9278447504
  0
LINE
  5
360
100
AcDbEntity
  8
0
100
AcDbLine
 62
7
  6
CONTINUOUS
 10
47.7062079623
 20
-24.4563647233
 11
47.7062079623
 21
-18.2612112011
  0
LINE
  5
361
100
AcDbEntity
  8
0
100
AcDbLine
 62
7
  6
CONTINUOUS
 10
47.776028222
 20
-24.526184983
 11
47.776028222
 21
-18.1913909413
  0
LINE
  5
362
100
AcDbEntity
  8
NONE_2
100
AcDbLine
 62
7
  6
CONTINUOUS
 10
48.2068171817
 20
15.2624407468
 11
48.2068171817
 21
34.5278447504
  0
LINE
  5
363
100
AcDbEntity
  8
0
100
AcDbLine
 62
7
  6
CONTINUOUS
 10
48.4068171817
 20
24.6341292044
 11
48.4068171817
 21
28.7778447504
  0
LINE
  5
364
100
AcDbEntity
  8
0
100
AcDbLine
 62
7
  6
CONTINUOUS
 10
48.4068171817
 20
31.4778447504
 11
48.4068171817
 21
35.6215602964
  0
LWPOLYLINE
  5
365
100
AcDbEntity
  8
0
100
AcDbPolyline
 62
7
  6
CONTINUOUS
 90
13
 70
0
 10
46.3920167321
 20
-19.5927216824
 10
46.3921855541
 20
-19.4570657638
 10
46.3926407906
 20
-19.3278205308
 10
46.3933824416
 20
-19.2049859834
 10
46.3944419138
 20
-19.0863315943
 10
46.3957878005
 20
-18.9740878908
 10
46.3973258813
 20
-18.8749464545
 10
46.3990704401
 20
-18.7909525368
 10
46.4010071929
 20
-18.7200608862
 10
46.4029990669
 20
-18.6628273302
 10
46.4050003714
 20
-18.6194371443
 10
46.4070567971
 20
-18.5897050529
 10
46.4091683442
 20
-18.573631056
  0
LWPOLYLINE
  5
366
100
AcDbEntity
  8
0
100
AcDbPolyline
 62
7
  6
CONTINUOUS
 90
12
 70
0
 10
39.0203982441
 20
-19.5927439397
 10
39.0197807849
 20
-19.8539806135
 10
39.0190779533
 20
-19.9742470379
 10
39.0180923842
 20
-20.0891172039
 10
39.0168440805
 20
-20.1970860949
 10
39.0153930504
 20
-20.2936386613
 10
39.0137334338
 20
-20.3784412778
 10
39.0118710909
 20
-20.4518275696
 10
39.0098836094
 20
-20.5102833631
 10
39.007796852
 20
-20.5526372669
 10
39.0055849561
 20
-20.5800606722
 10
39.0032479216
 20
-20.5925535792
  0
LINE
  5
367
100
AcDbEntity
  8
0
100
AcDbLine
 62
7
  6
CONTINUOUS
 10
43.7677338365
 20
-10.7766425984
 11
43.7858711038
 21
-9.7375592532
  0
LINE
  5
368
100
AcDbEntity
  8
0
100
AcDbLine
 62
7
  6
CONTINUOUS
 10
38.8109383519
 20
-20.7848631489
 11
38.776028222
 21
-21.986584387
  0
LINE
  5
369
100
AcDbEntity
  8
0
100
AcDbLine
 62
7
  6
CONTINUOUS
 10
46.6244181739
 20
-22.9745140037
 11
46.6363877026
 21
-22.5865444636
  0
LINE
  5
36A
100
AcDbEntity
  8
0
100
AcDbLine
 62
7
  6
CONTINUOUS
 10
37.7068171817
 20
24.6341292044
 11
37.1255635196
 21
18.7624407468
  0
LINE
  5
36B
100
AcDbEntity
  8
0
100
AcDbLine
 62
7
  6
CONTINUOUS
 10
48.4068171817
 20
35.6215602964
 11
48.9880708438
 21
41.4932487539
  0
LINE
  5
36C
100
AcDbEntity
  8
0
100
AcDbLine
 62
7
  6
CONTINUOUS
 10
46.4091683442
 20
-18.573631056
 11
46.7062079623
 21
-18.2612112011
  0
LINE
  5
36D
100
AcDbEntity
  8
0
100
AcDbLine
 62
7
  6
CONTINUOUS
 10
38.8109383519
 20
-20.7848631489
 11
39.003248699
 21
-20.5925528018
  0
LINE
  5
36E
100
AcDbEntity
  8
NONE_2
100
AcDbLine
 62
7
  6
CONTINUOUS
 10
48.2068171817
 20
33.7278447504
 11
47.6068171817
 21
33.7278447504
  0
LINE
  5
36F
100
AcDbEntity
  8
NONE_2
100
AcDbLine
 62
7
  6
CONTINUOUS
 10
37.9068171817
 20
33.7278447504
 11
38.5068171817
 21
33.7278447504
  0
LINE
  5
370
100
AcDbEntity
  8
NONE_2
100
AcDbLine
 62
7
  6
CONTINUOUS
 10
48.2068171817
 20
34.5278447504
 11
47.6068171817
 21
34.5278447504
  0
LINE
  5
371
100
AcDbEntity
  8
NONE_2
100
AcDbLine
 62
7
  6
CONTINUOUS
 10
37.9068171817
 20
34.5278447504
 11
38.5068171817
 21
34.5278447504
  0
LINE
  5
372
100
AcDbEntity
  8
0
100
AcDbLine
 62
7
  6
CONTINUOUS
 10
38.1254112147
 20
43.9932487539
 11
47.9882231486
 21
43.9932487539
  0
LINE
  5
373
100
AcDbEntity
  8
0
100
AcDbLine
 62
7
  6
CONTINUOUS
 10
38.055590955
 20
44.0630690137
 11
48.0580434084
 21
44.0630690137
  0
LINE
  5
374
100
AcDbEntity
  8
0
100
AcDbLine
 62
7
  6
CONTINUOUS
 10
-98.4528045763
 20
149.0219070982
 11
-98.5111631363
 21
149.0748815588
  0
LWPOLYLINE
  5
375
100
AcDbEntity
  8
0
100
AcDbPolyline
 62
7
  6
CONTINUOUS
 90
10
 70
0
 10
23.3389203849
 20
24.8971899709
 10
23.3221424457
 20
24.9131212419
 10
23.3050189403
 20
24.9290524027
 10
23.2875498687
 20
24.9449834532
 10
23.2695048535
 20
24.96091432
 10
23.251114272
 20
24.9768450765
 10
23.2330692568
 20
24.9927759432
 10
23.2156001852
 20
25.0087069938
 10
23.1984766797
 20
25.0246381546
 10
23.1816987405
 20
25.0405694257
  0
LINE
  5
376
100
AcDbEntity
  8
0
100
AcDbLine
 62
7
  6
CONTINUOUS
 10
51.5568171817
 20
-1.7375592532
 11
51.5959005269
 21
-1.7766425984
  0
LINE
  5
377
100
AcDbEntity
  8
0
100
AcDbLine
 62
7
  6
CONTINUOUS
 10
-79.850565733
 20
137.5562841147
 11
-80.0
 21
137.7057183817
  0
LINE
  5
378
100
AcDbEntity
  8
0
100
AcDbLine
 62
7
  6
CONTINUOUS
 10
-70.0
 20
130.4079159817
 11
-70.149434267
 21
130.5573502487
  0
LINE
  5
379
100
AcDbEntity
  8
0
100
AcDbLine
 62
7
  6
CONTINUOUS
 10
51.5568171817
 20
9.7624407468
 11
51.5959005269
 21
9.7233574016
  0
LINE
  5
37A
100
AcDbEntity
  8
0
100
AcDbLine
 62
7
  6
CONTINUOUS
 10
42.1266374414
 20
19.8780244907
 11
42.0568171817
 21
19.9478447504
  0
LWPOLYLINE
  5
37B
100
AcDbEntity
  8
0
100
AcDbPolyline
 62
7
  6
CONTINUOUS
 90
10
 70
0
 10
46.4091677639
 20
-20.59255334
 10
46.4068308808
 20
-20.5800573685
 10
46.4046190903
 20
-20.5526317162
 10
46.4025323925
 20
-20.510276383
 10
46.4005449166
 20
-20.4518200519
 10
46.3986825334
 20
-20.3784340399
 10
46.397022855
 20
-20.2936322986
 10
46.395571755
 20
-20.1970823584
 10
46.3943233599
 20
-20.0891166888
 10
46.3933376609
 20
-19.9742466504
  0
LWPOLYLINE
  5
37C
100
AcDbEntity
  8
0
100
AcDbPolyline
 62
7
  6
CONTINUOUS
 90
5
 70
0
 10
39.0032475805
 20
-18.573631056
 10
39.0053607759
 20
-18.5898024362
 10
39.0074173561
 20
-18.6195445972
 10
39.009417321
 20
-18.662857539
 10
39.0114048063
 20
-18.7198262097
  0
LINE
  5
37D
100
AcDbEntity
  8
0
100
AcDbLine
 62
7
  6
CONTINUOUS
 10
48.4068171817
 20
24.6341292044
 11
48.9880708438
 21
18.7624407468
  0
LINE
  5
37E
100
AcDbEntity
  8
0
100
AcDbLine
 62
7
  6
CONTINUOUS
 10
48.9880708438
 20
17.2868778377
 11
48.9880708438
 21
18.7624407468
  0
LINE
  5
37F
100
AcDbEntity
  8
0
100
AcDbLine
 62
7
  6
CONTINUOUS
 10
48.9880708438
 20
41.4932487539
 11
48.9880708438
 21
42.9934010588
  0
LINE
  5
380
100
AcDbEntity
  8
0
100
AcDbLine
 62
7
  6
CONTINUOUS
 10
49.0578911035
 20
17.3078239156
 11
49.0578911035
 21
43.0632213186
  0
LINE
  5
381
100
AcDbEntity
  8
0
100
AcDbLine
 62
7
  6
CONTINUOUS
 10
49.5114340129
 20
-7.7375592532
 11
49.5114340129
 21
14.2624407468
  0
LINE
  5
382
100
AcDbEntity
  8
0
100
AcDbLine
 62
7
  6
CONTINUOUS
 10
50.2593132259
 20
-1.0721552496
 11
50.2593132259
 21
-1.7375592532
  0
LINE
  5
383
100
AcDbEntity
  8
0
100
AcDbLine
 62
250
  6
CONTINUOUS
 10
50.4761905525
 20
86.1360729244
 11
50.4761905526
 21
93.8639270757
  0
LINE
  5
384
100
AcDbEntity
  8
0
100
AcDbLine
 62
7
  6
CONTINUOUS
 10
50.5568171817
 20
9.7414946689
 11
50.5568171817
 21
8.2833868247
  0
LINE
  5
385
100
AcDbEntity
  8
0
100
AcDbLine
 62
7
  6
CONTINUOUS
 10
50.5568161173
 20
4.6278451472
 11
50.5568171817
 21
3.4278447504
  0
LINE
  5
386
100
AcDbEntity
  8
0
100
AcDbLine
 62
7
  6
CONTINUOUS
 10
50.5568171817
 20
-1.7585053311
 11
50.5568171817
 21
-3.2166131753
  0
LINE
  5
387
100
AcDbEntity
  8
0
100
AcDbLine
 62
7
  6
CONTINUOUS
 10
50.5568148155
 20
5.6278449778
 11
50.5568171817
 21
6.8278447504
  0
LINE
  5
388
100
AcDbEntity
  8
0
100
AcDbLine
 62
7
  6
CONTINUOUS
 10
50.612263479
 20
95.0
 11
50.612263479
 21
94.0
  0
LINE
  5
389
100
AcDbEntity
  8
0
100
AcDbLine
 62
7
  6
CONTINUOUS
 10
50.612263479
 20
86.0
 11
50.612263479
 21
85.0
  0
LINE
  5
38A
100
AcDbEntity
  8
0
100
AcDbLine
 62
7
  6
CONTINUOUS
 10
50.6820837388
 20
95.0698202597
 11
50.6820837388
 21
84.9301797403
  0
LINE
  5
38B
100
AcDbEntity
  8
0
100
AcDbLine
 62
7
  6
CONTINUOUS
 10
51.5959005269
 20
-1.7766425984
 11
51.5959005269
 21
-3.198475908
  0
LINE
  5
38C
100
AcDbEntity
  8
0
100
AcDbLine
 62
7
  6
CONTINUOUS
 10
51.6022003505
 20
15.2624407468
 11
51.6022003505
 21
-8.7375592532
  0
LINE
  5
38D
100
AcDbEntity
  8
0
100
AcDbLine
 62
7
  6
CONTINUOUS
 10
-26.2213282733
 20
-116.3698727666
 11
-27.4082726884
 21
-117.5568171817
  0
LINE
  5
38E
100
AcDbEntity
  8
0
100
AcDbLine
 62
7
  6
CONTINUOUS
 10
18.9431828236
 20
48.986996922
 11
8.9431828373
 21
48.986996922
  0
LINE
  5
38F
100
AcDbEntity
  8
0
100
AcDbLine
 62
7
  6
CONTINUOUS
 10
8.9431828675
 20
49.0393647753
 11
18.9431828417
 21
49.0393647753
  0
LINE
  5
390
100
AcDbEntity
  8
0
100
AcDbLine
 62
250
  6
CONTINUOUS
 10
37.0557432599
 20
43.0632213185
 11
37.1255635196
 21
42.9934010588
  0
LINE
  5
391
100
AcDbEntity
  8
0
100
AcDbLine
 62
250
  6
CONTINUOUS
 10
38.055590955
 20
44.0630690137
 11
38.1254112147
 21
43.9932487539
  0
LINE
  5
392
100
AcDbEntity
  8
0
100
AcDbLine
 62
7
  6
CONTINUOUS
 10
-28.7999474931
 20
-137.7786717267
 11
-27.5431828183
 21
-136.5219070519
  0
LINE
  5
393
100
AcDbEntity
  8
0
100
AcDbLine
 62
7
  6
CONTINUOUS
 10
-5.2562384032
 20
-135.3349626367
 11
-6.4431828183
 21
-136.5219070519
  0
LINE
  5
394
100
AcDbEntity
  8
0
100
AcDbLine
 62
7
  6
CONTINUOUS
 10
34.9741734001
 20
93.9715721698
 11
32.6026503951
 21
93.9301770818
  0
LINE
  5
395
100
AcDbEntity
  8
0
100
AcDbLine
 62
7
  6
CONTINUOUS
 10
47.1875725086
 20
86.1621579808
 11
37.9476468419
 21
86.0262189549
  0
LINE
  5
396
100
AcDbEntity
  8
0
100
AcDbLine
 62
7
  6
CONTINUOUS
 10
136.0
 20
84.9301797403
 11
108.0
 21
84.9301797403
  0
LINE
  5
397
100
AcDbEntity
  8
0
100
AcDbLine
 62
7
  6
CONTINUOUS
 10
96.0
 20
84.9301797403
 11
68.0
 21
84.9301797403
  0
LINE
  5
398
100
AcDbEntity
  8
0
100
AcDbLine
 62
7
  6
CONTINUOUS
 10
50.6820837388
 20
84.9301797403
 11
31.4630072172
 21
84.9301797403
  0
LINE
  5
399
100
AcDbEntity
  8
0
100
AcDbLine
 62
7
  6
CONTINUOUS
 10
-68.0
 20
84.9301797403
 11
-96.0
 21
84.9301797403
  0
LINE
  5
39A
100
AcDbEntity
  8
0
100
AcDbLine
 62
7
  6
CONTINUOUS
 10
-108.0
 20
84.9301797403
 11
-136.0
 21
84.9301797403
  0
LINE
  5
39B
100
AcDbEntity
  8
0
100
AcDbLine
 62
7
  6
CONTINUOUS
 10
136.0
 20
85.0
 11
108.0
 21
85.0
  0
LINE
  5
39C
100
AcDbEntity
  8
0
100
AcDbLine
 62
7
  6
CONTINUOUS
 10
96.0
 20
85.0
 11
68.0
 21
85.0
  0
LINE
  5
39D
100
AcDbEntity
  8
0
100
AcDbLine
 62
7
  6
CONTINUOUS
 10
50.612263479
 20
85.0
 11
31.5328274769
 21
85.0
  0
LINE
  5
39E
100
AcDbEntity
  8
0
100
AcDbLine
 62
7
  6
CONTINUOUS
 10
-68.0
 20
85.0
 11
-96.0
 21
85.0
  0
LINE
  5
39F
100
AcDbEntity
  8
0
100
AcDbLine
 62
7
  6
CONTINUOUS
 10
-108.0
 20
85.0
 11
-136.0
 21
85.0
  0
LINE
  5
3A0
100
AcDbEntity
  8
0
100
AcDbLine
 62
7
  6
CONTINUOUS
 10
-136.0
 20
87.0
 11
-108.0
 21
87.0
  0
LINE
  5
3A1
100
AcDbEntity
  8
0
100
AcDbLine
 62
7
  6
CONTINUOUS
 10
-96.0
 20
87.0
 11
-68.0
 21
87.0
  0
LINE
  5
3A2
100
AcDbEntity
  8
0
100
AcDbLine
 62
7
  6
CONTINUOUS
 10
68.0
 20
87.0
 11
96.0
 21
87.0
  0
LINE
  5
3A3
100
AcDbEntity
  8
0
100
AcDbLine
 62
7
  6
CONTINUOUS
 10
108.0
 20
87.0
 11
136.0
 21
87.0
  0
LINE
  5
3A4
100
AcDbEntity
  8
0
100
AcDbLine
 62
7
  6
CONTINUOUS
 10
-136.0
 20
87.0698202597
 11
-108.0
 21
87.0698202597
  0
LINE
  5
3A5
100
AcDbEntity
  8
0
100
AcDbLine
 62
7
  6
CONTINUOUS
 10
-96.0
 20
87.0698202597
 11
-68.0
 21
87.0698202597
  0
LINE
  5
3A6
100
AcDbEntity
  8
0
100
AcDbLine
 62
7
  6
CONTINUOUS
 10
68.0
 20
87.0698202597
 11
96.0
 21
87.0698202597
  0
LINE
  5
3A7
100
AcDbEntity
  8
0
100
AcDbLine
 62
7
  6
CONTINUOUS
 10
108.0
 20
87.0698202597
 11
136.0
 21
87.0698202597
  0
LINE
  5
3A8
100
AcDbEntity
  8
0
100
AcDbLine
 62
7
  6
CONTINUOUS
 10
136.0
 20
89.9301797403
 11
108.0
 21
89.9301797403
  0
LINE
  5
3A9
100
AcDbEntity
  8
0
100
AcDbLine
 62
7
  6
CONTINUOUS
 10
96.0
 20
89.9301797403
 11
68.0
 21
89.9301797403
  0
LINE
  5
3AA
100
AcDbEntity
  8
0
100
AcDbLine
 62
7
  6
CONTINUOUS
 10
-68.0
 20
89.9301797403
 11
-96.0
 21
89.9301797403
  0
LINE
  5
3AB
100
AcDbEntity
  8
0
100
AcDbLine
 62
7
  6
CONTINUOUS
 10
-108.0
 20
89.9301797403
 11
-136.0
 21
89.9301797403
  0
LINE
  5
3AC
100
AcDbEntity
  8
0
100
AcDbLine
 62
7
  6
CONTINUOUS
 10
136.0
 20
90.0
 11
108.0
 21
90.0
  0
LINE
  5
3AD
100
AcDbEntity
  8
0
100
AcDbLine
 62
7
  6
CONTINUOUS
 10
96.0
 20
90.0
 11
68.0
 21
90.0
  0
LINE
  5
3AE
100
AcDbEntity
  8
0
100
AcDbLine
 62
7
  6
CONTINUOUS
 10
-68.0
 20
90.0
 11
-96.0
 21
90.0
  0
LINE
  5
3AF
100
AcDbEntity
  8
0
100
AcDbLine
 62
7
  6
CONTINUOUS
 10
-108.0
 20
90.0
 11
-136.0
 21
90.0
  0
LINE
  5
3B0
100
AcDbEntity
  8
0
100
AcDbLine
 62
7
  6
CONTINUOUS
 10
-136.0
 20
92.0
 11
-108.0
 21
92.0
  0
LINE
  5
3B1
100
AcDbEntity
  8
0
100
AcDbLine
 62
7
  6
CONTINUOUS
 10
-96.0
 20
92.0
 11
-68.0
 21
92.0
  0
LINE
  5
3B2
100
AcDbEntity
  8
0
100
AcDbLine
 62
7
  6
CONTINUOUS
 10
68.0
 20
92.0
 11
96.0
 21
92.0
  0
LINE
  5
3B3
100
AcDbEntity
  8
0
100
AcDbLine
 62
7
  6
CONTINUOUS
 10
108.0
 20
92.0
 11
136.0
 21
92.0
  0
LINE
  5
3B4
100
AcDbEntity
  8
0
100
AcDbLine
 62
7
  6
CONTINUOUS
 10
-136.0
 20
92.0698202597
 11
-108.0
 21
92.0698202597
  0
LINE
  5
3B5
100
AcDbEntity
  8
0
100
AcDbLine
 62
7
  6
CONTINUOUS
 10
-96.0
 20
92.0698202597
 11
-68.0
 21
92.0698202597
  0
LINE
  5
3B6
100
AcDbEntity
  8
0
100
AcDbLine
 62
7
  6
CONTINUOUS
 10
68.0
 20
92.0698202597
 11
96.0
 21
92.0698202597
  0
LINE
  5
3B7
100
AcDbEntity
  8
0
100
AcDbLine
 62
7
  6
CONTINUOUS
 10
108.0
 20
92.0698202597
 11
136.0
 21
92.0698202597
  0
LINE
  5
3B8
100
AcDbEntity
  8
0
100
AcDbLine
 62
7
  6
CONTINUOUS
 10
136.0
 20
94.9301797403
 11
108.0
 21
94.9301797403
  0
LINE
  5
3B9
100
AcDbEntity
  8
0
100
AcDbLine
 62
7
  6
CONTINUOUS
 10
96.0
 20
94.9301797403
 11
68.0
 21
94.9301797403
  0
LINE
  5
3BA
100
AcDbEntity
  8
0
100
AcDbLine
 62
7
  6
CONTINUOUS
 10
-68.0
 20
94.9301797403
 11
-96.0
 21
94.9301797403
  0
LINE
  5
3BB
100
AcDbEntity
  8
0
100
AcDbLine
 62
7
  6
CONTINUOUS
 10
-108.0
 20
94.9301797403
 11
-136.0
 21
94.9301797403
  0
LINE
  5
3BC
100
AcDbEntity
  8
0
100
AcDbLine
 62
7
  6
CONTINUOUS
 10
136.0
 20
95.0
 11
108.0
 21
95.0
  0
LINE
  5
3BD
100
AcDbEntity
  8
0
100
AcDbLine
 62
7
  6
CONTINUOUS
 10
96.0
 20
95.0
 11
68.0
 21
95.0
  0
LINE
  5
3BE
100
AcDbEntity
  8
0
100
AcDbLine
 62
7
  6
CONTINUOUS
 10
50.6122634791
 20
95.0
 11
31.5328274769
 21
95.0
  0
LINE
  5
3BF
100
AcDbEntity
  8
0
100
AcDbLine
 62
7
  6
CONTINUOUS
 10
-68.0
 20
95.0
 11
-96.0
 21
95.0
  0
LINE
  5
3C0
100
AcDbEntity
  8
0
100
AcDbLine
 62
7
  6
CONTINUOUS
 10
-108.0
 20
95.0
 11
-136.0
 21
95.0
  0
LINE
  5
3C1
100
AcDbEntity
  8
0
100
AcDbLine
 62
7
  6
CONTINUOUS
 10
50.6820837388
 20
95.0698202597
 11
31.4630072172
 21
95.0698202597
  0
LWPOLYLINE
  5
3C2
100
AcDbEntity
  8
0
100
AcDbPolyline
 62
7
  6
CONTINUOUS
 90
19
 70
0
 10
47.1875725053
 20
93.8378420931
 10
47.3946270787
 20
93.8351988602
 10
47.6115691066
 20
93.8330681627
 10
47.8383985891
 20
93.8314500005
 10
48.0789363735
 20
93.8303351734
 10
48.3293616125
 20
93.8297328817
 10
48.5782117643
 20
93.8296707257
 10
48.8254137171
 20
93.8301738233
 10
49.0710405826
 20
93.8312170565
 10
49.3038491548
 20
93.832752672
 10
49.5232425131
 20
93.8348035367
 10
49.7298175781
 20
93.8373467836
 10
49.9141219044
 20
93.8402660589
 10
50.0751219698
 20
93.8435788195
 10
50.2138512967
 20
93.8472676084
 10
50.3239580062
 20
93.8511637008
 10
50.4033248056
 20
93.855210855
 10
50.4540689877
 20
93.8594653125
 10
50.4761905526
 20
93.8639270735
  0
LINE
  5
3C3
100
AcDbEntity
  8
0
100
AcDbLine
 62
7
  6
CONTINUOUS
 10
47.1875725053
 20
93.8378420931
 11
37.9476468419
 21
93.9737810451
  0
LINE
  5
3C4
100
AcDbEntity
  8
0
100
AcDbLine
 62
7
  6
CONTINUOUS
 10
32.6026503951
 20
86.0698229182
 11
34.9741734
 21
86.0284278302
  0
LWPOLYLINE
  5
3C5
100
AcDbEntity
  8
0
100
AcDbPolyline
 62
7
  6
CONTINUOUS
 90
15
 70
0
 10
50.2138522392
 20
86.1527323657
 10
50.0751237572
 20
86.1564211405
 10
49.9141247091
 20
86.1597338905
 10
49.7298216671
 20
86.1626531603
 10
49.5232480591
 20
86.1651964055
 10
49.3038559837
 20
86.1672472738
 10
49.0710485206
 20
86.1687829008
 10
48.8254225901
 20
86.1698261511
 10
48.5782210525
 20
86.170329266
 10
48.3293706871
 20
86.1702671297
 10
48.0789447147
 20
86.1696648581
 10
47.8384056583
 20
86.1685500411
 10
47.611574359
 20
86.1669318752
 10
47.3946299758
 20
86.1648011638
 10
47.1875725086
 20
86.162157907
  0
LWPOLYLINE
  5
3C6
100
AcDbEntity
  8
0
100
AcDbPolyline
 62
7
  6
CONTINUOUS
 90
5
 70
0
 10
50.4761905525
 20
86.1360729266
 10
50.4540688622
 20
86.1405346853
 10
50.4033247917
 20
86.1447891381
 10
50.3239583412
 20
86.1488362851
 10
50.2138522392
 20
86.1527323657
  0
LINE
  5
3C7
100
AcDbEntity
  8
0
100
AcDbLine
 62
7
  6
CONTINUOUS
 10
100.1032069931
 20
144.9993906878
 11
99.993321261
 21
151.2993906879
  0
LINE
  5
3C8
100
AcDbEntity
  8
0
100
AcDbLine
 62
7
  6
CONTINUOUS
 10
101.4733709386
 20
151.2993906879
 11
101.4742292241
 21
147.073871394
  0
LINE
  5
3C9
100
AcDbEntity
  8
0
100
AcDbLine
 62
7
  6
CONTINUOUS
 10
110.5733709386
 20
151.2993906879
 11
110.5742292241
 21
147.073871394
  0
LINE
  5
3CA
100
AcDbEntity
  8
0
100
AcDbLine
 62
7
  6
CONTINUOUS
 10
98.4185037122
 20
147.0222117079
 11
98.4185037122
 21
139.5178944
  0
LINE
  5
3CB
100
AcDbEntity
  8
0
100
AcDbLine
 62
7
  6
CONTINUOUS
 10
99.5530829325
 20
150.4463077553
 11
99.5530829325
 21
151.1772052333
  0
LINE
  5
3CC
100
AcDbEntity
  8
0
100
AcDbLine
 62
7
  6
CONTINUOUS
 10
101.5886915815
 20
150.7967350544
 11
101.5886915815
 21
151.2993906879
  0
LINE
  5
3CD
100
AcDbEntity
  8
0
100
AcDbLine
 62
7
  6
CONTINUOUS
 10
109.3113084185
 20
150.7967350544
 11
109.3113084185
 21
151.2993906879
  0
LINE
  5
3CE
100
AcDbEntity
  8
0
100
AcDbLine
 62
7
  6
CONTINUOUS
 10
110.3000525069
 20
-137.7786717267
 11
110.3000525069
 21
-116.3000525069
  0
LINE
  5
3CF
100
AcDbEntity
  8
0
100
AcDbLine
 62
7
  6
CONTINUOUS
 10
110.3698727666
 20
-135.3349626367
 11
110.3698727666
 21
-116.3698727666
  0
LINE
  5
3D0
100
AcDbEntity
  8
0
100
AcDbLine
 62
7
  6
CONTINUOUS
 10
110.6886915815
 20
150.7967350544
 11
110.6886915815
 21
151.2993906879
  0
LINE
  5
3D1
100
AcDbEntity
  8
0
100
AcDbLine
 62
7
  6
CONTINUOUS
 10
109.426806668
 20
151.2993906879
 11
109.4255193704
 21
147.073871394
  0
LINE
  5
3D2
100
AcDbEntity
  8
0
100
AcDbLine
 62
7
  6
CONTINUOUS
 10
98.5057806767
 20
149.0748815588
 11
98.5380819936
 21
152.1922045323
  0
LINE
  5
3D3
100
AcDbEntity
  8
0
100
AcDbLine
 62
7
  6
CONTINUOUS
 10
99.5399498855
 20
140.9833339362
 11
99.6767385693
 21
150.3226521185
  0
LINE
  5
3D4
100
AcDbEntity
  8
0
100
AcDbLine
 62
7
  6
CONTINUOUS
 10
101.5886915815
 20
150.7967350544
 11
101.5503912787
 21
148.1817620549
  0
LINE
  5
3D5
100
AcDbEntity
  8
0
100
AcDbLine
 62
7
  6
CONTINUOUS
 10
110.6886915815
 20
150.7967350544
 11
110.6503912787
 21
148.1817620549
  0
LINE
  5
3D6
100
AcDbEntity
  8
0
100
AcDbLine
 62
7
  6
CONTINUOUS
 10
-136.0
 20
97.0
 11
-108.0
 21
97.0
  0
LINE
  5
3D7
100
AcDbEntity
  8
0
100
AcDbLine
 62
7
  6
CONTINUOUS
 10
-96.0
 20
97.0
 11
-68.0
 21
97.0
  0
LINE
  5
3D8
100
AcDbEntity
  8
0
100
AcDbLine
 62
7
  6
CONTINUOUS
 10
68.0
 20
97.0
 11
96.0
 21
97.0
  0
LINE
  5
3D9
100
AcDbEntity
  8
0
100
AcDbLine
 62
7
  6
CONTINUOUS
 10
108.0
 20
97.0
 11
136.0
 21
97.0
  0
LINE
  5
3DA
100
AcDbEntity
  8
0
100
AcDbLine
 62
7
  6
CONTINUOUS
 10
-136.0
 20
97.0698202597
 11
-108.0
 21
97.0698202597
  0
LINE
  5
3DB
100
AcDbEntity
  8
0
100
AcDbLine
 62
7
  6
CONTINUOUS
 10
-96.0
 20
97.0698202597
 11
-68.0
 21
97.0698202597
  0
LINE
  5
3DC
100
AcDbEntity
  8
0
100
AcDbLine
 62
7
  6
CONTINUOUS
 10
68.0
 20
97.0698202597
 11
96.0
 21
97.0698202597
  0
LINE
  5
3DD
100
AcDbEntity
  8
0
100
AcDbLine
 62
7
  6
CONTINUOUS
 10
108.0
 20
97.0698202597
 11
136.0
 21
97.0698202597
  0
LINE
  5
3DE
100
AcDbEntity
  8
0
100
AcDbLine
 62
7
  6
CONTINUOUS
 10
136.0
 20
99.9301797403
 11
108.0
 21
99.9301797403
  0
LINE
  5
3DF
100
AcDbEntity
  8
0
100
AcDbLine
 62
7
  6
CONTINUOUS
 10
96.0
 20
99.9301797403
 11
68.0
 21
99.9301797403
  0
LINE
  5
3E0
100
AcDbEntity
  8
0
100
AcDbLine
 62
7
  6
CONTINUOUS
 10
-68.0
 20
99.9301797403
 11
-96.0
 21
99.9301797403
  0
LINE
  5
3E1
100
AcDbEntity
  8
0
100
AcDbLine
 62
7
  6
CONTINUOUS
 10
-108.0
 20
99.9301797403
 11
-136.0
 21
99.9301797403
  0
LINE
  5
3E2
100
AcDbEntity
  8
0
100
AcDbLine
 62
7
  6
CONTINUOUS
 10
136.0
 20
100.0
 11
108.0
 21
100.0
  0
LINE
  5
3E3
100
AcDbEntity
  8
0
100
AcDbLine
 62
7
  6
CONTINUOUS
 10
96.0
 20
100.0
 11
68.0
 21
100.0
  0
LINE
  5
3E4
100
AcDbEntity
  8
0
100
AcDbLine
 62
7
  6
CONTINUOUS
 10
-68.0
 20
100.0
 11
-96.0
 21
100.0
  0
LINE
  5
3E5
100
AcDbEntity
  8
0
100
AcDbLine
 62
7
  6
CONTINUOUS
 10
-108.0
 20
100.0
 11
-136.0
 21
100.0
  0
LINE
  5
3E6
100
AcDbEntity
  8
0
100
AcDbLine
 62
7
  6
CONTINUOUS
 10
-136.0
 20
102.0
 11
-108.0
 21
102.0
  0
LINE
  5
3E7
100
AcDbEntity
  8
0
100
AcDbLine
 62
7
  6
CONTINUOUS
 10
-96.0
 20
102.0
 11
-68.0
 21
102.0
  0
LINE
  5
3E8
100
AcDbEntity
  8
0
100
AcDbLine
 62
7
  6
CONTINUOUS
 10
68.0
 20
102.0
 11
96.0
 21
102.0
  0
LINE
  5
3E9
100
AcDbEntity
  8
0
100
AcDbLine
 62
7
  6
CONTINUOUS
 10
108.0
 20
102.0
 11
136.0
 21
102.0
  0
LINE
  5
3EA
100
AcDbEntity
  8
0
100
AcDbLine
 62
7
  6
CONTINUOUS
 10
-136.0
 20
102.0698202597
 11
-108.0
 21
102.0698202597
  0
LINE
  5
3EB
100
AcDbEntity
  8
0
100
AcDbLine
 62
7
  6
CONTINUOUS
 10
-96.0
 20
102.0698202597
 11
-68.0
 21
102.0698202597
  0
LINE
  5
3EC
100
AcDbEntity
  8
0
100
AcDbLine
 62
7
  6
CONTINUOUS
 10
68.0
 20
102.0698202597
 11
96.0
 21
102.0698202597
  0
LINE
  5
3ED
100
AcDbEntity
  8
0
100
AcDbLine
 62
7
  6
CONTINUOUS
 10
108.0
 20
102.0698202597
 11
136.0
 21
102.0698202597
  0
LINE
  5
3EE
100
AcDbEntity
  8
0
100
AcDbLine
 62
7
  6
CONTINUOUS
 10
136.0
 20
104.9301797403
 11
108.0
 21
104.9301797403
  0
LINE
  5
3EF
100
AcDbEntity
  8
0
100
AcDbLine
 62
7
  6
CONTINUOUS
 10
96.0
 20
104.9301797403
 11
68.0
 21
104.9301797403
  0
LINE
  5
3F0
100
AcDbEntity
  8
0
100
AcDbLine
 62
7
  6
CONTINUOUS
 10
-68.0
 20
104.9301797403
 11
-96.0
 21
104.9301797403
  0
LINE
  5
3F1
100
AcDbEntity
  8
0
100
AcDbLine
 62
7
  6
CONTINUOUS
 10
-108.0
 20
104.9301797403
 11
-136.0
 21
104.9301797403
  0
LINE
  5
3F2
100
AcDbEntity
  8
0
100
AcDbLine
 62
7
  6
CONTINUOUS
 10
136.0
 20
105.0
 11
108.0
 21
105.0
  0
LINE
  5
3F3
100
AcDbEntity
  8
0
100
AcDbLine
 62
7
  6
CONTINUOUS
 10
96.0
 20
105.0
 11
68.0
 21
105.0
  0
LINE
  5
3F4
100
AcDbEntity
  8
0
100
AcDbLine
 62
7
  6
CONTINUOUS
 10
-68.0
 20
105.0
 11
-96.0
 21
105.0
  0
LINE
  5
3F5
100
AcDbEntity
  8
0
100
AcDbLine
 62
7
  6
CONTINUOUS
 10
-108.0
 20
105.0
 11
-136.0
 21
105.0
  0
LINE
  5
3F6
100
AcDbEntity
  8
0
100
AcDbLine
 62
7
  6
CONTINUOUS
 10
-136.0
 20
107.0
 11
-108.0
 21
107.0
  0
LINE
  5
3F7
100
AcDbEntity
  8
0
100
AcDbLine
 62
7
  6
CONTINUOUS
 10
-96.0
 20
107.0
 11
-68.0
 21
107.0
  0
LINE
  5
3F8
100
AcDbEntity
  8
0
100
AcDbLine
 62
7
  6
CONTINUOUS
 10
68.0
 20
107.0
 11
96.0
 21
107.0
  0
LINE
  5
3F9
100
AcDbEntity
  8
0
100
AcDbLine
 62
7
  6
CONTINUOUS
 10
108.0
 20
107.0
 11
136.0
 21
107.0
  0
LINE
  5
3FA
100
AcDbEntity
  8
0
100
AcDbLine
 62
7
  6
CONTINUOUS
 10
-136.0
 20
107.0698202597
 11
-108.0
 21
107.0698202597
  0
LINE
  5
3FB
100
AcDbEntity
  8
0
100
AcDbLine
 62
7
  6
CONTINUOUS
 10
-96.0
 20
107.0698202597
 11
-68.0
 21
107.0698202597
  0
LINE
  5
3FC
100
AcDbEntity
  8
0
100
AcDbLine
 62
7
  6
CONTINUOUS
 10
68.0
 20
107.0698202597
 11
96.0
 21
107.0698202597
  0
LINE
  5
3FD
100
AcDbEntity
  8
0
100
AcDbLine
 62
7
  6
CONTINUOUS
 10
108.0
 20
107.0698202597
 11
136.0
 21
107.0698202597
  0
LINE
  5
3FE
100
AcDbEntity
  8
0
100
AcDbLine
 62
7
  6
CONTINUOUS
 10
50.612263479
 20
86.0
 11
50.4761905525
 21
86.1360729244
  0
LINE
  5
3FF
100
AcDbEntity
  8
0
100
AcDbLine
 62
7
  6
CONTINUOUS
 10
17.0
 20
124.960081078
 11
17.0698202597
 21
124.8902608182
  0
LINE
  5
400
100
AcDbEntity
  8
0
100
AcDbLine
 62
7
  6
CONTINUOUS
 10
8.0
 20
145.0568171817
 11
8.1360729265
 21
144.9207442552
  0
LINE
  5
401
100
AcDbEntity
  8
0
100
AcDbLine
 62
7
  6
CONTINUOUS
 10
109.3496087213
 20
148.1817620551
 11
109.3113084185
 21
150.7967350544
  0
LINE
  5
402
100
AcDbEntity
  8
0
100
AcDbLine
 62
7
  6
CONTINUOUS
 10
118.4496087213
 20
148.1817620551
 11
118.4113084185
 21
150.7967350544
  0
LINE
  5
403
100
AcDbEntity
  8
0
100
AcDbLine
 62
7
  6
CONTINUOUS
 10
120.4600501145
 20
140.9833339361
 11
120.3232614307
 21
150.3226521185
  0
LINE
  5
404
100
AcDbEntity
  8
0
100
AcDbLine
 62
7
  6
CONTINUOUS
 10
121.4619180064
 20
152.1922045323
 11
121.4942193233
 21
149.0748815586
  0
LINE
  5
405
100
AcDbEntity
  8
0
100
AcDbLine
 62
7
  6
CONTINUOUS
 10
112.5568171817
 20
-136.5219070518
 11
112.5568171817
 21
-123.556108049
  0
LINE
  5
406
100
AcDbEntity
  8
0
100
AcDbLine
 62
7
  6
CONTINUOUS
 10
118.4113084185
 20
150.7967350544
 11
118.4113084185
 21
151.2993906879
  0
LINE
  5
407
100
AcDbEntity
  8
0
100
AcDbLine
 62
7
  6
CONTINUOUS
 10
120.4469170675
 20
150.4463077553
 11
120.4469170675
 21
151.1772052333
  0
LINE
  5
408
100
AcDbEntity
  8
0
100
AcDbLine
 62
7
  6
CONTINUOUS
 10
121.5814962878
 20
147.0222117079
 11
121.5814962878
 21
139.5178944
  0
LINE
  5
409
100
AcDbEntity
  8
0
100
AcDbLine
 62
7
  6
CONTINUOUS
 10
118.5257707758
 20
147.073871394
 11
118.5266290613
 21
151.2993906879
  0
LINE
  5
40A
100
AcDbEntity
  8
0
100
AcDbLine
 62
7
  6
CONTINUOUS
 10
120.006678739
 20
151.2993906879
 11
119.8967930069
 21
144.9993906878
  0
LINE
  5
40B
100
AcDbEntity
  8
0
100
AcDbLine
 62
7
  6
CONTINUOUS
 10
18.9431827859
 20
114.0742695881
 11
8.9431828042
 21
114.0742695881
  0
LINE
  5
40C
100
AcDbEntity
  8
0
100
AcDbLine
 62
7
  6
CONTINUOUS
 10
8.943182813
 20
114.1266374414
 11
18.9431827993
 21
114.1266374414
  0
LINE
  5
40D
100
AcDbEntity
  8
0
100
AcDbLine
 62
7
  6
CONTINUOUS
 10
17.0698202597
 20
124.8902608182
 11
6.9301797403
 21
124.8902608182
  0
LINE
  5
40E
100
AcDbEntity
  8
0
100
AcDbLine
 62
7
  6
CONTINUOUS
 10
17.0
 20
124.9600810779
 11
7.0
 21
124.9600810779
  0
LINE
  5
40F
100
AcDbEntity
  8
0
100
AcDbLine
 62
7
  6
CONTINUOUS
 10
15.9127246754
 20
126.0473564026
 11
8.0872753246
 21
126.0473564026
  0
LINE
  5
410
100
AcDbEntity
  8
0
100
AcDbLine
 62
7
  6
CONTINUOUS
 10
132.5219070518
 20
-118.5568171817
 11
132.5219070518
 21
-117.5568171817
  0
LINE
  5
411
100
AcDbEntity
  8
0
100
AcDbLine
 62
7
  6
CONTINUOUS
 10
132.6568171817
 20
-117.5568171817
 11
132.6568171817
 21
-136.5219070518
  0
LINE
  5
412
100
AcDbEntity
  8
0
100
AcDbLine
 62
7
  6
CONTINUOUS
 10
133.9135818565
 20
-137.7786717267
 11
133.9135818565
 21
-116.3000525069
  0
LINE
  5
413
100
AcDbEntity
  8
0
100
AcDbLine
 62
7
  6
CONTINUOUS
 10
54.0
 20
127.986996922
 11
26.0
 21
127.986996922
  0
LINE
  5
414
100
AcDbEntity
  8
0
100
AcDbLine
 62
7
  6
CONTINUOUS
 10
-26.0
 20
127.986996922
 11
-54.0
 21
127.986996922
  0
LINE
  5
415
100
AcDbEntity
  8
0
100
AcDbLine
 62
7
  6
CONTINUOUS
 10
54.0
 20
128.0568171817
 11
26.0
 21
128.0568171817
  0
LINE
  5
416
100
AcDbEntity
  8
0
100
AcDbLine
 62
7
  6
CONTINUOUS
 10
-26.0
 20
128.0568171817
 11
-54.0
 21
128.0568171817
  0
LINE
  5
417
100
AcDbEntity
  8
0
100
AcDbLine
 62
250
  6
CONTINUOUS
 10
15.9715721698
 20
129.4187271027
 11
8.0284278302
 21
129.4187271027
  0
LINE
  5
418
100
AcDbEntity
  8
0
100
AcDbLine
 62
250
  6
CONTINUOUS
 10
-175.0
 20
129.999999985
 11
-169.0748815584
 21
129.9999999712
  0
LINE
  5
419
100
AcDbEntity
  8
0
100
AcDbLine
 62
250
  6
CONTINUOUS
 10
169.0219070982
 20
130.0
 11
167.0222117079
 21
130.0
  0
LINE
  5
41A
100
AcDbEntity
  8
0
100
AcDbLine
 62
250
  6
CONTINUOUS
 10
-167.0222117079
 20
130.0
 11
-169.0219070982
 21
130.0
  0
LINE
  5
41B
100
AcDbEntity
  8
0
100
AcDbLine
 62
250
  6
CONTINUOUS
 10
169.0748815584
 20
129.9999999723
 11
175.0
 21
129.9999999855
  0
LINE
  5
41C
100
AcDbEntity
  8
0
100
AcDbLine
 62
7
  6
CONTINUOUS
 10
-54.0
 20
130.0568171817
 11
-26.0
 21
130.0568171817
  0
LINE
  5
41D
100
AcDbEntity
  8
0
100
AcDbLine
 62
7
  6
CONTINUOUS
 10
26.0
 20
130.0568171817
 11
54.0
 21
130.0568171817
  0
LINE
  5
41E
100
AcDbEntity
  8
0
100
AcDbLine
 62
7
  6
CONTINUOUS
 10
-54.0
 20
130.1266374414
 11
-26.0
 21
130.1266374414
  0
LINE
  5
41F
100
AcDbEntity
  8
0
100
AcDbLine
 62
7
  6
CONTINUOUS
 10
26.0
 20
130.1266374414
 11
54.0
 21
130.1266374414
  0
LINE
  5
420
100
AcDbEntity
  8
0
100
AcDbLine
 62
7
  6
CONTINUOUS
 10
-81.0698202597
 20
130.3380957219
 11
-68.9301797403
 21
130.3380957219
  0
LINE
  5
421
100
AcDbEntity
  8
0
100
AcDbLine
 62
7
  6
CONTINUOUS
 10
-81.0
 20
130.4079159817
 11
-80.0
 21
130.4079159817
  0
LINE
  5
422
100
AcDbEntity
  8
0
100
AcDbLine
 62
7
  6
CONTINUOUS
 10
-70.0
 20
130.4079159817
 11
-69.0
 21
130.4079159817
  0
LINE
  5
423
100
AcDbEntity
  8
0
100
AcDbLine
 62
7
  6
CONTINUOUS
 10
-81.0
 20
130.5568171817
 11
-69.0
 21
130.5568171817
  0
LINE
  5
424
100
AcDbEntity
  8
0
100
AcDbLine
 62
250
  6
CONTINUOUS
 10
-70.149434267
 20
130.5573502487
 11
-79.850565733
 21
130.5573502487
  0
LINE
  5
425
100
AcDbEntity
  8
0
100
AcDbLine
 62
250
  6
CONTINUOUS
 10
8.0262189549
 20
132.3922005446
 11
15.9737810451
 21
132.3922005446
  0
LINE
  5
426
100
AcDbEntity
  8
0
100
AcDbLine
 62
7
  6
CONTINUOUS
 10
54.0
 20
132.986996922
 11
26.0
 21
132.986996922
  0
LINE
  5
427
100
AcDbEntity
  8
0
100
AcDbLine
 62
7
  6
CONTINUOUS
 10
-26.0
 20
132.986996922
 11
-54.0
 21
132.986996922
  0
LINE
  5
428
100
AcDbEntity
  8
0
100
AcDbLine
 62
7
  6
CONTINUOUS
 10
54.0
 20
133.0568171817
 11
26.0
 21
133.0568171817
  0
LINE
  5
429
100
AcDbEntity
  8
0
100
AcDbLine
 62
7
  6
CONTINUOUS
 10
-26.0
 20
133.0568171817
 11
-54.0
 21
133.0568171817
  0
LINE
  5
42A
100
AcDbEntity
  8
0
100
AcDbLine
 62
7
  6
CONTINUOUS
 10
-54.0
 20
135.0568171817
 11
-26.0
 21
135.0568171817
  0
LINE
  5
42B
100
AcDbEntity
  8
0
100
AcDbLine
 62
7
  6
CONTINUOUS
 10
26.0
 20
135.0568171817
 11
54.0
 21
135.0568171817
  0
LINE
  5
42C
100
AcDbEntity
  8
0
100
AcDbLine
 62
7
  6
CONTINUOUS
 10
-54.0
 20
135.1266374414
 11
-26.0
 21
135.1266374414
  0
LINE
  5
42D
100
AcDbEntity
  8
0
100
AcDbLine
 62
7
  6
CONTINUOUS
 10
26.0
 20
135.1266374414
 11
54.0
 21
135.1266374414
  0
LINE
  5
42E
100
AcDbEntity
  8
0
100
AcDbLine
 62
250
  6
CONTINUOUS
 10
-79.850565733
 20
137.5562841147
 11
-70.149434267
 21
137.5562841147
  0
LINE
  5
42F
100
AcDbEntity
  8
0
100
AcDbLine
 62
7
  6
CONTINUOUS
 10
-81.0
 20
137.5568171817
 11
-69.0
 21
137.5568171817
  0
LINE
  5
430
100
AcDbEntity
  8
0
100
AcDbLine
 62
7
  6
CONTINUOUS
 10
-81.0
 20
137.7057183817
 11
-80.0
 21
137.7057183817
  0
LINE
  5
431
100
AcDbEntity
  8
0
100
AcDbLine
 62
7
  6
CONTINUOUS
 10
-70.0
 20
137.7057183817
 11
-69.0
 21
137.7057183817
  0
LINE
  5
432
100
AcDbEntity
  8
0
100
AcDbLine
 62
7
  6
CONTINUOUS
 10
-81.0698202597
 20
137.7755386414
 11
-68.9301797403
 21
137.7755386414
  0
LINE
  5
433
100
AcDbEntity
  8
0
100
AcDbLine
 62
7
  6
CONTINUOUS
 10
54.0
 20
137.986996922
 11
26.0
 21
137.986996922
  0
LINE
  5
434
100
AcDbEntity
  8
0
100
AcDbLine
 62
7
  6
CONTINUOUS
 10
-26.0
 20
137.986996922
 11
-54.0
 21
137.986996922
  0
LINE
  5
435
100
AcDbEntity
  8
0
100
AcDbLine
 62
7
  6
CONTINUOUS
 10
54.0
 20
138.0568171817
 11
26.0
 21
138.0568171817
  0
LINE
  5
436
100
AcDbEntity
  8
0
100
AcDbLine
 62
7
  6
CONTINUOUS
 10
-26.0
 20
138.0568171817
 11
-54.0
 21
138.0568171817
  0
LINE
  5
437
100
AcDbEntity
  8
0
100
AcDbLine
 62
7
  6
CONTINUOUS
 10
-121.5814962878
 20
139.5178944
 11
-98.4185037122
 21
139.5178944
  0
LINE
  5
438
100
AcDbEntity
  8
0
100
AcDbLine
 62
7
  6
CONTINUOUS
 10
121.5814962878
 20
139.5178944
 11
98.4185037122
 21
139.5178944
  0
LINE
  5
439
100
AcDbEntity
  8
0
100
AcDbLine
 62
7
  6
CONTINUOUS
 10
-54.0
 20
140.0568171817
 11
-26.0
 21
140.0568171817
  0
LINE
  5
43A
100
AcDbEntity
  8
0
100
AcDbLine
 62
7
  6
CONTINUOUS
 10
26.0
 20
140.0568171817
 11
54.0
 21
140.0568171817
  0
LINE
  5
43B
100
AcDbEntity
  8
0
100
AcDbLine
 62
7
  6
CONTINUOUS
 10
-54.0
 20
140.1266374414
 11
-26.0
 21
140.1266374414
  0
LINE
  5
43C
100
AcDbEntity
  8
0
100
AcDbLine
 62
7
  6
CONTINUOUS
 10
26.0
 20
140.1266374414
 11
54.0
 21
140.1266374414
  0
LINE
  5
43D
100
AcDbEntity
  8
0
100
AcDbLine
 62
250
  6
CONTINUOUS
 10
120.4731168371
 20
140.6262738507
 11
99.5268831629
 21
140.6262738507
  0
LINE
  5
43E
100
AcDbEntity
  8
0
100
AcDbLine
 62
250
  6
CONTINUOUS
 10
-99.5268831629
 20
140.6262738507
 11
-120.4731168371
 21
140.6262738507
  0
LINE
  5
43F
100
AcDbEntity
  8
0
100
AcDbLine
 62
250
  6
CONTINUOUS
 10
-120.4600501145
 20
140.9833339361
 11
-99.5399498855
 21
140.9833339361
  0
LINE
  5
440
100
AcDbEntity
  8
0
100
AcDbLine
 62
250
  6
CONTINUOUS
 10
99.5399498855
 20
140.9833339362
 11
120.4600501145
 21
140.9833339362
  0
LINE
  5
441
100
AcDbEntity
  8
0
100
AcDbLine
 62
250
  6
CONTINUOUS
 10
8.1621579807
 20
141.632126208
 11
15.8378420192
 21
141.6321262113
  0
LINE
  5
442
100
AcDbEntity
  8
0
100
AcDbLine
 62
250
  6
CONTINUOUS
 10
150.0
 20
-149.0219070982
 11
150.0
 21
-147.0222117079
  0
LINE
  5
443
100
AcDbEntity
  8
0
100
AcDbLine
 62
250
  6
CONTINUOUS
 10
149.9999999723
 20
-149.0748815584
 11
149.9999999855
 21
-155.0
  0
LINE
  5
444
100
AcDbEntity
  8
0
100
AcDbLine
 62
250
  6
CONTINUOUS
 10
150.0
 20
147.0222117079
 11
150.0
 21
149.0219070982
  0
LINE
  5
445
100
AcDbEntity
  8
0
100
AcDbLine
 62
250
  6
CONTINUOUS
 10
149.99999998
 20
149.0748815586
 11
149.999999985
 21
155.0
  0
LINE
  5
446
100
AcDbEntity
  8
0
100
AcDbLine
 62
250
  6
CONTINUOUS
 10
15.8639270756
 20
144.9207442552
 11
8.1360729243
 21
144.9207442553
  0
LINE
  5
447
100
AcDbEntity
  8
0
100
AcDbLine
 62
7
  6
CONTINUOUS
 10
119.8967930069
 20
144.9993906878
 11
100.1032069931
 21
144.9993906878
  0
LINE
  5
448
100
AcDbEntity
  8
0
100
AcDbLine
 62
7
  6
CONTINUOUS
 10
-100.1032069931
 20
144.9993906878
 11
-119.8967930069
 21
144.9993906878
  0
LINE
  5
449
100
AcDbEntity
  8
0
100
AcDbLine
 62
7
  6
CONTINUOUS
 10
17.0
 20
145.0568171817
 11
16.0
 21
145.0568171817
  0
LINE
  5
44A
100
AcDbEntity
  8
0
100
AcDbLine
 62
7
  6
CONTINUOUS
 10
8.0
 20
145.0568171817
 11
7.0
 21
145.0568171817
  0
LINE
  5
44B
100
AcDbEntity
  8
0
100
AcDbLine
 62
7
  6
CONTINUOUS
 10
17.0698202597
 20
145.1266374414
 11
6.9301797403
 21
145.1266374414
  0
LINE
  5
44C
100
AcDbEntity
  8
0
100
AcDbLine
 62
250
  6
CONTINUOUS
 10
150.0000000005
 20
147.0222117079
 11
121.5814962878
 21
147.0222117079
  0
LINE
  5
44D
100
AcDbEntity
  8
0
100
AcDbLine
 62
250
  6
CONTINUOUS
 10
98.4185037122
 20
147.0222117079
 11
-98.4185037122
 21
147.0222117079
  0
LINE
  5
44E
100
AcDbEntity
  8
0
100
AcDbLine
 62
250
  6
CONTINUOUS
 10
-121.5814962878
 20
147.0222117079
 11
-150.0000000005
 21
147.0222117079
  0
LINE
  5
44F
100
AcDbEntity
  8
0
100
AcDbLine
 62
7
  6
CONTINUOUS
 10
101.4742292241
 20
147.073871394
 11
109.4257707759
 21
147.073871394
  0
LINE
  5
450
100
AcDbEntity
  8
0
100
AcDbLine
 62
7
  6
CONTINUOUS
 10
-101.4742292241
 20
147.073871394
 11
-109.4257707759
 21
147.073871394
  0
LINE
  5
451
100
AcDbEntity
  8
0
100
AcDbLine
 62
7
  6
CONTINUOUS
 10
110.5742292241
 20
147.073871394
 11
118.5257707758
 21
147.073871394
  0
LINE
  5
452
100
AcDbEntity
  8
0
100
AcDbLine
 62
7
  6
CONTINUOUS
 10
-110.5742292241
 20
147.073871394
 11
-118.5257707759
 21
147.073871394
  0
LINE
  5
453
100
AcDbEntity
  8
0
100
AcDbLine
 62
250
  6
CONTINUOUS
 10
-110.6111911109
 20
147.1105817987
 11
-118.4888088891
 21
147.1105817987
  0
LINE
  5
454
100
AcDbEntity
  8
0
100
AcDbLine
 62
250
  6
CONTINUOUS
 10
-118.4496087213
 20
148.1817620551
 11
-110.6503912787
 21
148.1817620551
  0
LINE
  5
455
100
AcDbEntity
  8
0
100
AcDbLine
 62
250
  6
CONTINUOUS
 10
-109.3496087213
 20
148.1817620551
 11
-101.5503912787
 21
148.1817620551
  0
LINE
  5
456
100
AcDbEntity
  8
0
100
AcDbLine
 62
250
  6
CONTINUOUS
 10
101.5503912787
 20
148.181762055
 11
109.3496087213
 21
148.181762055
  0
LINE
  5
457
100
AcDbEntity
  8
0
100
AcDbLine
 62
250
  6
CONTINUOUS
 10
110.6503912787
 20
148.181762055
 11
118.4496087213
 21
148.181762055
  0
LINE
  5
458
100
AcDbEntity
  8
0
100
AcDbLine
 62
250
  6
CONTINUOUS
 10
-149.9999999896
 20
149.0219070982
 11
-121.5471954237
 21
149.0219070982
  0
LINE
  5
459
100
AcDbEntity
  8
0
100
AcDbLine
 62
250
  6
CONTINUOUS
 10
-98.4528045763
 20
149.0219070982
 11
98.4528045763
 21
149.0219070982
  0
LINE
  5
45A
100
AcDbEntity
  8
0
100
AcDbLine
 62
250
  6
CONTINUOUS
 10
121.5471954237
 20
149.0219070982
 11
149.99999999
 21
149.0219070982
  0
LINE
  5
45B
100
AcDbEntity
  8
0
100
AcDbLine
 62
7
  6
CONTINUOUS
 10
-149.9999999799
 20
149.0748815588
 11
-121.4888368637
 21
149.0748815588
  0
LINE
  5
45C
100
AcDbEntity
  8
0
100
AcDbLine
 62
7
  6
CONTINUOUS
 10
-98.5111631363
 20
149.0748815588
 11
98.5111631363
 21
149.0748815588
  0
LINE
  5
45D
100
AcDbEntity
  8
0
100
AcDbLine
 62
7
  6
CONTINUOUS
 10
121.4888368637
 20
149.0748815588
 11
149.99999998
 21
149.0748815588
  0
LINE
  5
45E
100
AcDbEntity
  8
0
100
AcDbLine
 62
7
  6
CONTINUOUS
 10
-120.3232614308
 20
150.3226521186
 11
-119.9896422893
 21
150.3226521186
  0
LINE
  5
45F
100
AcDbEntity
  8
0
100
AcDbLine
 62
7
  6
CONTINUOUS
 10
120.3232614307
 20
150.3226521185
 11
119.9896422893
 21
150.3226521185
  0
LINE
  5
460
100
AcDbEntity
  8
0
100
AcDbLine
 62
7
  6
CONTINUOUS
 10
-100.0103577107
 20
150.3226521186
 11
-99.6767385693
 21
150.3226521186
  0
LINE
  5
461
100
AcDbEntity
  8
0
100
AcDbLine
 62
7
  6
CONTINUOUS
 10
100.0103577107
 20
150.3226521185
 11
99.6767385693
 21
150.3226521185
  0
LINE
  5
462
100
AcDbEntity
  8
0
100
AcDbLine
 62
7
  6
CONTINUOUS
 10
-118.4113084185
 20
150.7967350544
 11
-110.6886915815
 21
150.7967350544
  0
LINE
  5
463
100
AcDbEntity
  8
0
100
AcDbLine
 62
7
  6
CONTINUOUS
 10
118.4113084185
 20
150.7967350544
 11
110.6886915815
 21
150.7967350544
  0
LINE
  5
464
100
AcDbEntity
  8
0
100
AcDbLine
 62
7
  6
CONTINUOUS
 10
-109.3113084185
 20
150.7967350544
 11
-101.5886915815
 21
150.7967350544
  0
LINE
  5
465
100
AcDbEntity
  8
0
100
AcDbLine
 62
7
  6
CONTINUOUS
 10
109.3113084185
 20
150.7967350544
 11
101.5886915815
 21
150.7967350544
  0
LINE
  5
466
100
AcDbEntity
  8
0
100
AcDbLine
 62
7
  6
CONTINUOUS
 10
-120.4469170675
 20
150.8772052334
 11
-120.0051757729
 21
150.8772052334
  0
LINE
  5
467
100
AcDbEntity
  8
0
100
AcDbLine
 62
7
  6
CONTINUOUS
 10
-99.9948242271
 20
150.8772052334
 11
-99.5530829325
 21
150.8772052334
  0
LINE
  5
468
100
AcDbEntity
  8
0
100
AcDbLine
 62
7
  6
CONTINUOUS
 10
99.5530829325
 20
150.8772052334
 11
99.9948242271
 21
150.8772052334
  0
LINE
  5
469
100
AcDbEntity
  8
0
100
AcDbLine
 62
7
  6
CONTINUOUS
 10
120.0051757729
 20
150.8772052334
 11
120.4469170675
 21
150.8772052334
  0
LINE
  5
46A
100
AcDbEntity
  8
0
100
AcDbLine
 62
7
  6
CONTINUOUS
 10
-120.569102522
 20
151.2993906878
 11
-99.430897478
 21
151.2993906878
  0
LINE
  5
46B
100
AcDbEntity
  8
0
100
AcDbLine
 62
7
  6
CONTINUOUS
 10
120.569102522
 20
151.2993906879
 11
99.430897478
 21
151.2993906879
  0
LINE
  5
46C
100
AcDbEntity
  8
0
100
AcDbLine
 62
7
  6
CONTINUOUS
 10
-121.4673004659
 20
152.1922045322
 11
-98.5326995341
 21
152.1922045322
  0
LINE
  5
46D
100
AcDbEntity
  8
0
100
AcDbLine
 62
7
  6
CONTINUOUS
 10
121.4673004659
 20
152.1922045323
 11
98.5326995341
 21
152.1922045323
  0
LINE
  5
46E
100
AcDbEntity
  8
0
100
AcDbLine
 62
7
  6
CONTINUOUS
 10
-149.9999999796
 20
154.1272387776
 11
149.999999979
 21
154.1272387776
  0
LINE
  5
46F
100
AcDbEntity
  8
0
100
AcDbLine
 62
7
  6
CONTINUOUS
 10
-149.9999999855
 20
155.0
 11
149.999999985
 21
155.0
  0
LINE
  5
470
100
AcDbEntity
  8
0
100
AcDbLine
 62
250
  6
CONTINUOUS
 10
167.0222117079
 20
-130.0000000005
 11
167.0222117079
 21
130.0000000006
  0
LINE
  5
471
100
AcDbEntity
  8
0
100
AcDbLine
 62
250
  6
CONTINUOUS
 10
169.0219070982
 20
129.9999999905
 11
169.0219070982
 21
-129.99999999
  0
LINE
  5
472
100
AcDbEntity
  8
0
100
AcDbLine
 62
7
  6
CONTINUOUS
 10
169.0748815588
 20
129.9999999723
 11
169.0748815588
 21
-129.9999999712
  0
LINE
  5
473
100
AcDbEntity
  8
0
100
AcDbLine
 62
7
  6
CONTINUOUS
 10
174.1272387776
 20
129.9999999688
 11
174.1272387776
 21
-129.9999999679
  0
LINE
  5
474
100
AcDbEntity
  8
0
100
AcDbLine
 62
7
  6
CONTINUOUS
 10
175.0
 20
129.9999999855
 11
175.0
 21
-129.999999985
  0
LINE
  5
475
100
AcDbEntity
  8
0
100
AcDbLine
 62
7
  6
CONTINUOUS
 10
111.5568171817
 20
-136.5219070518
 11
110.3000525069
 21
-137.7786717267
  0
LINE
  5
476
100
AcDbEntity
  8
0
100
AcDbLine
 62
7
  6
CONTINUOUS
 10
133.9135818565
 20
-116.3000525069
 11
132.6568171817
 21
-117.5568171817
  0
LINE
  5
477
100
AcDbEntity
  8
0
100
AcDbLine
 62
7
  6
CONTINUOUS
 10
99.5530829325
 20
150.4463077553
 11
99.6767385693
 21
150.3226521185
  0
LINE
  5
478
100
AcDbEntity
  8
0
100
AcDbLine
 62
7
  6
CONTINUOUS
 10
98.5380819936
 20
152.1922045323
 11
99.5530829325
 21
151.1772052333
  0
LINE
  5
479
100
AcDbEntity
  8
0
100
AcDbLine
 62
7
  6
CONTINUOUS
 10
120.4731168371
 20
140.6262738507
 11
121.5814962878
 21
139.5178944
  0
LINE
  5
47A
100
AcDbEntity
  8
0
100
AcDbLine
 62
7
  6
CONTINUOUS
 10
150.0251262561
 20
-125.7824855934
 11
145.7824855067
 21
-130.025126346
  0
LINE
  5
47B
100
AcDbEntity
  8
0
100
AcDbLine
 62
7
  6
CONTINUOUS
 10
150.7445737272
 20
-126.501933112
 11
146.5019329092
 21
-130.74457393
  0
LINE
  5
47C
100
AcDbEntity
  8
0
100
AcDbLine
 62
250
  6
CONTINUOUS
 10
146.5268354931
 20
-130.7694762985
 11
150.769476229
 21
-126.5268355626
  0
LINE
  5
47D
100
AcDbEntity
  8
0
100
AcDbLine
 62
250
  6
CONTINUOUS
 10
147.2338346378
 20
-131.4764753245
 11
151.4764753231
 21
-127.2338346392
  0
LINE
  5
47E
100
AcDbEntity
  8
0
100
AcDbLine
 62
7
  6
CONTINUOUS
 10
152.5987407589
 20
-128.3561000704
 11
148.3561000712
 21
-132.5987407581
  0
LINE
  5
47F
100
AcDbEntity
  8
0
100
AcDbLine
 62
7
  6
CONTINUOUS
 10
152.4012592418
 20
-136.6438999289
 11
156.6438999288
 21
-132.4012592419
  0
LINE
  5
480
100
AcDbEntity
  8
0
100
AcDbLine
 62
7
  6
CONTINUOUS
 10
121.5471954237
 20
149.0219070982
 11
121.4888368637
 21
149.0748815588
  0
LINE
  5
481
100
AcDbEntity
  8
0
100
AcDbLine
 62
7
  6
CONTINUOUS
 10
145.7824855481
 20
130.0251263014
 11
150.0251263561
 21
125.7824854966
  0
LINE
  5
482
100
AcDbEntity
  8
0
100
AcDbLine
 62
250
  6
CONTINUOUS
 10
150.7694762985
 20
126.5268354931
 11
146.5268355626
 21
130.769476229
  0
LINE
  5
483
100
AcDbEntity
  8
0
100
AcDbLine
 62
250
  6
CONTINUOUS
 10
151.4764753245
 20
127.2338346378
 11
147.2338346392
 21
131.4764753231
  0
LINE
  5
484
100
AcDbEntity
  8
0
100
AcDbLine
 62
7
  6
CONTINUOUS
 10
148.3561000704
 20
132.5987407589
 11
152.5987407581
 21
128.3561000712
  0
LINE
  5
485
100
AcDbEntity
  8
0
100
AcDbLine
 62
7
  6
CONTINUOUS
 10
156.6438999302
 20
132.4012592405
 11
152.4012592419
 21
136.6438999288
  0
LWPOLYLINE
  5
486
100
AcDbEntity
  8
0
100
AcDbPolyline
 62
250
  6
CONTINUOUS
 90
28
 70
0
 10
158.4780365219
 20
132.5935929063
 10
158.6949777131
 20
132.1590525084
 10
158.8623826264
 20
131.7150894349
 10
158.9802512619
 20
131.2617036858
 10
159.0486263572
 20
130.7936085679
 10
159.0674651748
 20
130.3160907744
 10
159.0366395011
 20
129.8450103855
 10
158.9545479096
 20
129.3806466537
 10
158.822791827
 20
128.9227203265
 10
158.6460473197
 20
128.4862537265
 10
158.4228920657
 20
128.0719900665
 10
158.1547483871
 20
127.6791861335
 10
157.850559317
 20
127.3206346116
 10
157.5091780131
 20
126.9974390019
 10
157.1317513177
 20
126.7084958033
 10
156.7306627907
 20
126.4632871962
 10
156.3051458855
 20
126.2632080269
 10
155.8559671486
 20
126.1068634492
 10
155.3978097797
 20
125.9995511044
 10
154.9303268697
 20
125.9428380728
 10
154.4538653277
 20
125.9351572742
 10
153.9841490806
 20
125.9771051086
 10
153.5213259305
 20
126.0703008047
 10
153.0652480752
 20
126.2131251338
 10
152.631196035
 20
126.4013168102
 10
152.2242633164
 20
126.6334554054
 10
151.839356413
 20
126.9109613479
 10
151.4764753245
 20
127.2338346378
  0
LINE
  5
487
100
AcDbEntity
  8
0
100
AcDbLine
 62
250
  6
CONTINUOUS
 10
157.7661653621
 20
-133.5235246756
 11
153.5235246769
 21
-137.7661653608
  0
LINE
  5
488
100
AcDbEntity
  8
0
100
AcDbLine
 62
250
  6
CONTINUOUS
 10
158.4731645069
 20
-134.2305237015
 11
154.230523771
 21
-138.4731644374
  0
LINE
  5
489
100
AcDbEntity
  8
0
100
AcDbLine
 62
7
  6
CONTINUOUS
 10
154.9748736943
 20
-139.2175144562
 11
159.2175144933
 21
-134.974873654
  0
LINE
  5
48A
100
AcDbEntity
  8
0
100
AcDbLine
 62
250
  6
CONTINUOUS
 10
153.5235246756
 20
137.7661653621
 11
157.7661653608
 21
133.5235246769
  0
LINE
  5
48B
100
AcDbEntity
  8
0
100
AcDbLine
 62
250
  6
CONTINUOUS
 10
154.2305237015
 20
138.4731645069
 11
158.4731644374
 21
134.230523771
  0
LINE
  5
48C
100
AcDbEntity
  8
0
100
AcDbLine
 62
7
  6
CONTINUOUS
 10
158.498066888
 20
134.2554262728
 11
154.25542607
 21
138.4980670908
  0
LINE
  5
48D
100
AcDbEntity
  8
0
100
AcDbLine
 62
7
  6
CONTINUOUS
 10
159.2175144037
 20
134.9748737468
 11
154.9748736439
 21
139.2175145034
  0
ARC
  5
48E
100
AcDbEntity
  8
0
100
AcDbCircle
 62
7
  6
CONTINUOUS
 10
-150.0
 20
-130.0
 40
25.0
100
AcDbArc
 50
180.0
 51
270.0
  0
ARC
  5
48F
100
AcDbEntity
  8
0
100
AcDbCircle
 62
7
  6
CONTINUOUS
 10
-150.0
 20
-130.0
 40
24.1272387781
100
AcDbArc
 50
179.9999999218
 51
270.0000000809
  0
ARC
  5
490
100
AcDbEntity
  8
0
100
AcDbCircle
 62
7
  6
CONTINUOUS
 10
-150.0
 20
-130.0
 40
19.0748815588
100
AcDbArc
 50
179.9999999441
 51
270.0000000583
  0
ARC
  5
491
100
AcDbEntity
  8
0
100
AcDbCircle
 62
250
  6
CONTINUOUS
 10
-150.0
 20
-130.0
 40
19.0219070982
100
AcDbArc
 50
179.9999999441
 51
270.0000000583
  0
ARC
  5
492
100
AcDbEntity
  8
0
100
AcDbCircle
 62
250
  6
CONTINUOUS
 10
-150.0
 20
-130.0
 40
17.0222117079
100
AcDbArc
 50
180.0000000019
 51
269.9999999982
  0
ARC
  5
493
100
AcDbEntity
  8
0
100
AcDbCircle
 62
7
  6
CONTINUOUS
 10
-154.6213203436
 20
-130.3786796564
 40
6.5
100
AcDbArc
 50
45.0000010734
 51
224.9999995883
  0
ARC
  5
494
100
AcDbEntity
  8
0
100
AcDbCircle
 62
7
  6
CONTINUOUS
 10
-150.3786796564
 20
-134.6213203436
 40
6.5
100
AcDbArc
 50
225.0000010734
 51
45.0000001885
  0
ARC
  5
495
100
AcDbEntity
  8
0
100
AcDbCircle
 62
7
  6
CONTINUOUS
 10
-150.3786796564
 20
-134.6213203436
 40
5.4825475936
100
AcDbArc
 50
225.0000023081
 51
45.0000004581
  0
ARC
  5
496
100
AcDbEntity
  8
0
100
AcDbCircle
 62
7
  6
CONTINUOUS
 10
-154.6213203436
 20
-130.3786796564
 40
5.4825475936
100
AcDbArc
 50
45.0000023081
 51
225.0000004582
  0
ARC
  5
497
100
AcDbEntity
  8
0
100
AcDbCircle
 62
250
  6
CONTINUOUS
 10
-154.6213203436
 20
-130.3786796564
 40
5.4473301723
100
AcDbArc
 50
45.0000016746
 51
225.000000344
  0
ARC
  5
498
100
AcDbEntity
  8
0
100
AcDbCircle
 62
250
  6
CONTINUOUS
 10
-150.3786796564
 20
-134.6213203436
 40
5.4473301723
100
AcDbArc
 50
225.0000016746
 51
45.000000344
  0
ARC
  5
499
100
AcDbEntity
  8
0
100
AcDbCircle
 62
250
  6
CONTINUOUS
 10
-150.3786796564
 20
-134.6213203436
 40
4.4474824772
100
AcDbArc
 50
224.9999999953
 51
45.0000000304
  0
ARC
  5
49A
100
AcDbEntity
  8
0
100
AcDbCircle
 62
250
  6
CONTINUOUS
 10
-154.6213203436
 20
-130.3786796564
 40
4.4474824772
100
AcDbArc
 50
44.9999999934
 51
225.0000000303
  0
ARC
  5
49B
100
AcDbEntity
  8
0
100
AcDbCircle
 62
7
  6
CONTINUOUS
 10
-154.6213203436
 20
-130.3786796564
 40
2.8603594806
100
AcDbArc
 50
44.999999997
 51
225.0000000022
  0
ARC
  5
49C
100
AcDbEntity
  8
0
100
AcDbCircle
 62
7
  6
CONTINUOUS
 10
-150.3786796564
 20
-134.6213203436
 40
2.8603594806
100
AcDbArc
 50
224.9999999968
 51
45.0000000023
  0
CIRCLE
  5
49D
100
AcDbEntity
  8
0
100
AcDbCircle
 62
7
  6
CONTINUOUS
 10
-151.9568171817
 20
-27.0568171817
 40
1.5
  0
CIRCLE
  5
49E
100
AcDbEntity
  8
0
100
AcDbCircle
 62
7
  6
CONTINUOUS
 10
-151.9568171817
 20
-27.0568171817
 40
1.2381740261
  0
CIRCLE
  5
49F
100
AcDbEntity
  8
0
100
AcDbCircle
 62
7
  6
CONTINUOUS
 10
-67.5000000135
 20
-90.1352126554
 40
3.1920057142
  0
CIRCLE
  5
4A0
100
AcDbEntity
  8
0
100
AcDbCircle
 62
250
  6
CONTINUOUS
 10
-67.5000000135
 20
-90.1352126554
 40
3.017150432
  0
CIRCLE
  5
4A1
100
AcDbEntity
  8
0
100
AcDbCircle
 62
250
  6
CONTINUOUS
 10
-67.5000000135
 20
-90.1352126554
 40
2.0173027369
  0
CIRCLE
  5
4A2
100
AcDbEntity
  8
0
100
AcDbCircle
 62
7
  6
CONTINUOUS
 10
-39.6568171817
 20
-91.0568171817
 40
1.5
  0
CIRCLE
  5
4A3
100
AcDbEntity
  8
0
100
AcDbCircle
 62
7
  6
CONTINUOUS
 10
-39.6568171817
 20
-91.0568171817
 40
1.2381740261
  0
ARC
  5
4A4
100
AcDbEntity
  8
0
100
AcDbCircle
 62
7
  6
CONTINUOUS
 10
-9.25
 20
-13.25
 40
7.0523651948
100
AcDbArc
 50
180.0000000005
 51
269.9999999997
  0
CIRCLE
  5
4A5
100
AcDbEntity
  8
0
100
AcDbCircle
 62
7
  6
CONTINUOUS
 10
-39.6568171817
 20
-27.0568171817
 40
1.5
  0
CIRCLE
  5
4A6
100
AcDbEntity
  8
0
100
AcDbCircle
 62
7
  6
CONTINUOUS
 10
-39.6568171817
 20
-27.0568171817
 40
1.2381740261
  0
ARC
  5
4A7
100
AcDbEntity
  8
0
100
AcDbCircle
 62
7
  6
CONTINUOUS
 10
-126.0568171817
 20
7.0568171817
 40
6.0698202597
100
AcDbArc
 50
180.0000000015
 51
270.0000000008
  0
ARC
  5
4A8
100
AcDbEntity
  8
0
100
AcDbCircle
 62
7
  6
CONTINUOUS
 10
-126.0568171817
 20
19.0568171817
 40
6.0698202597
100
AcDbArc
 50
90.0000000004
 51
179.9999999994
  0
ARC
  5
4A9
100
AcDbEntity
  8
0
100
AcDbCircle
 62
7
  6
CONTINUOUS
 10
-126.0568171817
 20
7.0568171817
 40
6.0174524064
100
AcDbArc
 50
180.0
 51
270.0000003234
  0
ARC
  5
4AA
100
AcDbEntity
  8
0
100
AcDbCircle
 62
7
  6
CONTINUOUS
 10
-126.0568171817
 20
19.0568171817
 40
6.0174524064
100
AcDbArc
 50
90.0
 51
180.0000003235
  0
ARC
  5
4AB
100
AcDbEntity
  8
0
100
AcDbCircle
 62
7
  6
CONTINUOUS
 10
-136.0
 20
91.0
 40
1.0698202597
100
AcDbArc
 50
90.0000000013
 51
269.9999999995
  0
ARC
  5
4AC
100
AcDbEntity
  8
0
100
AcDbCircle
 62
7
  6
CONTINUOUS
 10
-136.0
 20
86.0
 40
1.0698202597
100
AcDbArc
 50
90.0000000013
 51
269.9999999995
  0
ARC
  5
4AD
100
AcDbEntity
  8
0
100
AcDbCircle
 62
7
  6
CONTINUOUS
 10
-136.0
 20
106.0
 40
1.0698202597
100
AcDbArc
 50
90.0000000067
 51
269.9999999914
  0
ARC
  5
4AE
100
AcDbEntity
  8
0
100
AcDbCircle
 62
7
  6
CONTINUOUS
 10
-136.0
 20
101.0
 40
1.0698202597
100
AcDbArc
 50
90.0000000067
 51
269.9999999995
  0
ARC
  5
4AF
100
AcDbEntity
  8
0
100
AcDbCircle
 62
7
  6
CONTINUOUS
 10
-136.0
 20
96.0
 40
1.0698202597
100
AcDbArc
 50
90.0000000013
 51
269.9999999995
  0
ARC
  5
4B0
100
AcDbEntity
  8
0
100
AcDbCircle
 62
7
  6
CONTINUOUS
 10
-136.0
 20
106.0
 40
1.0
100
AcDbArc
 50
89.9999999999
 51
270.0000000001
  0
ARC
  5
4B1
100
AcDbEntity
  8
0
100
AcDbCircle
 62
7
  6
CONTINUOUS
 10
-136.0
 20
101.0
 40
1.0
100
AcDbArc
 50
89.9999999999
 51
270.0000000001
  0
ARC
  5
4B2
100
AcDbEntity
  8
0
100
AcDbCircle
 62
7
  6
CONTINUOUS
 10
-136.0
 20
96.0
 40
1.0
100
AcDbArc
 50
89.9999999999
 51
270.0000000001
  0
ARC
  5
4B3
100
AcDbEntity
  8
0
100
AcDbCircle
 62
7
  6
CONTINUOUS
 10
-136.0
 20
91.0
 40
1.0
100
AcDbArc
 50
89.9999999999
 51
270.0000000001
  0
ARC
  5
4B4
100
AcDbEntity
  8
0
100
AcDbCircle
 62
7
  6
CONTINUOUS
 10
-136.0
 20
86.0
 40
1.0
100
AcDbArc
 50
89.9999999999
 51
270.0000000001
  0
ARC
  5
4B5
100
AcDbEntity
  8
0
100
AcDbCircle
 62
7
  6
CONTINUOUS
 10
-150.0
 20
130.0
 40
25.0
100
AcDbArc
 50
90.0
 51
180.0000000344
  0
ARC
  5
4B6
100
AcDbEntity
  8
0
100
AcDbCircle
 62
7
  6
CONTINUOUS
 10
-150.0
 20
130.0
 40
24.1272387781
100
AcDbArc
 50
90.0
 51
180.0000000809
  0
ARC
  5
4B7
100
AcDbEntity
  8
0
100
AcDbCircle
 62
7
  6
CONTINUOUS
 10
-150.0
 20
130.0
 40
19.0748815588
100
AcDbArc
 50
89.9999999541
 51
180.0000000583
  0
ARC
  5
4B8
100
AcDbEntity
  8
0
100
AcDbCircle
 62
250
  6
CONTINUOUS
 10
-150.0
 20
130.0
 40
19.0219070982
100
AcDbArc
 50
89.9999999541
 51
180.0000000583
  0
ARC
  5
4B9
100
AcDbEntity
  8
0
100
AcDbCircle
 62
250
  6
CONTINUOUS
 10
-150.0
 20
130.0
 40
17.0222117079
100
AcDbArc
 50
90.0000000016
 51
179.9999999982
  0
ARC
  5
4BA
100
AcDbEntity
  8
0
100
AcDbCircle
 62
7
  6
CONTINUOUS
 10
-154.6213203436
 20
130.3786796564
 40
6.5
100
AcDbArc
 50
135.0000009485
 51
314.9999995343
  0
ARC
  5
4BB
100
AcDbEntity
  8
0
100
AcDbCircle
 62
7
  6
CONTINUOUS
 10
-150.3786796564
 20
134.6213203436
 40
6.5
100
AcDbArc
 50
315.0000009485
 51
135.0000001526
  0
ARC
  5
4BC
100
AcDbEntity
  8
0
100
AcDbCircle
 62
7
  6
CONTINUOUS
 10
-154.6213203436
 20
130.3786796564
 40
5.4825475936
100
AcDbArc
 50
135.0000022943
 51
315.0000004534
  0
ARC
  5
4BD
100
AcDbEntity
  8
0
100
AcDbCircle
 62
7
  6
CONTINUOUS
 10
-150.3786796564
 20
134.6213203436
 40
5.4825475936
100
AcDbArc
 50
315.0000022943
 51
135.0000004533
  0
ARC
  5
4BE
100
AcDbEntity
  8
0
100
AcDbCircle
 62
250
  6
CONTINUOUS
 10
-150.3786796564
 20
134.6213203436
 40
5.4473301723
100
AcDbArc
 50
315.0000016746
 51
135.000000344
  0
ARC
  5
4BF
100
AcDbEntity
  8
0
100
AcDbCircle
 62
250
  6
CONTINUOUS
 10
-154.6213203436
 20
130.3786796564
 40
5.4473301723
100
AcDbArc
 50
135.0000016746
 51
315.000000344
  0
ARC
  5
4C0
100
AcDbEntity
  8
0
100
AcDbCircle
 62
250
  6
CONTINUOUS
 10
-154.6213203436
 20
130.3786796564
 40
4.4474824772
100
AcDbArc
 50
134.9999999953
 51
315.0000000303
  0
ARC
  5
4C1
100
AcDbEntity
  8
0
100
AcDbCircle
 62
250
  6
CONTINUOUS
 10
-150.3786796564
 20
134.6213203436
 40
4.4474824772
100
AcDbArc
 50
314.9999999934
 51
135.0000000304
  0
ARC
  5
4C2
100
AcDbEntity
  8
0
100
AcDbCircle
 62
7
  6
CONTINUOUS
 10
-154.6213203436
 20
130.3786796564
 40
2.8603594806
100
AcDbArc
 50
134.9999999968
 51
315.0000000023
  0
ARC
  5
4C3
100
AcDbEntity
  8
0
100
AcDbCircle
 62
7
  6
CONTINUOUS
 10
-150.3786796564
 20
134.6213203436
 40
2.8603594806
100
AcDbArc
 50
314.9999999968
 51
135.0000000023
  0
ARC
  5
4C4
100
AcDbEntity
  8
0
100
AcDbCircle
 62
7
  6
CONTINUOUS
 10
-108.0
 20
91.0
 40
1.0698202597
100
AcDbArc
 50
270.0000000013
 51
89.9999999995
  0
ARC
  5
4C5
100
AcDbEntity
  8
0
100
AcDbCircle
 62
7
  6
CONTINUOUS
 10
-108.0
 20
86.0
 40
1.0698202597
100
AcDbArc
 50
270.0000000013
 51
89.9999999995
  0
ARC
  5
4C6
100
AcDbEntity
  8
0
100
AcDbCircle
 62
7
  6
CONTINUOUS
 10
-108.0
 20
91.0
 40
1.0
100
AcDbArc
 50
269.9999999999
 51
90.0000000001
  0
ARC
  5
4C7
100
AcDbEntity
  8
0
100
AcDbCircle
 62
7
  6
CONTINUOUS
 10
-108.0
 20
86.0
 40
1.0
100
AcDbArc
 50
269.9999999999
 51
90.0000000001
  0
ARC
  5
4C8
100
AcDbEntity
  8
0
100
AcDbCircle
 62
7
  6
CONTINUOUS
 10
-108.0
 20
106.0
 40
1.0698202597
100
AcDbArc
 50
270.0000000067
 51
89.9999999914
  0
ARC
  5
4C9
100
AcDbEntity
  8
0
100
AcDbCircle
 62
7
  6
CONTINUOUS
 10
-108.0
 20
101.0
 40
1.0698202597
100
AcDbArc
 50
270.0000000013
 51
89.9999999914
  0
ARC
  5
4CA
100
AcDbEntity
  8
0
100
AcDbCircle
 62
7
  6
CONTINUOUS
 10
-108.0
 20
96.0
 40
1.0698202597
100
AcDbArc
 50
270.0000000013
 51
89.9999999995
  0
ARC
  5
4CB
100
AcDbEntity
  8
0
100
AcDbCircle
 62
7
  6
CONTINUOUS
 10
-108.0
 20
106.0
 40
1.0
100
AcDbArc
 50
269.9999999999
 51
90.0000000001
  0
ARC
  5
4CC
100
AcDbEntity
  8
0
100
AcDbCircle
 62
7
  6
CONTINUOUS
 10
-108.0
 20
101.0
 40
1.0
100
AcDbArc
 50
269.9999999999
 51
90.0000000001
  0
ARC
  5
4CD
100
AcDbEntity
  8
0
100
AcDbCircle
 62
7
  6
CONTINUOUS
 10
-108.0
 20
96.0
 40
1.0
100
AcDbArc
 50
269.9999999999
 51
90.0000000001
  0
ARC
  5
4CE
100
AcDbEntity
  8
0
100
AcDbCircle
 62
7
  6
CONTINUOUS
 10
-96.0
 20
91.0
 40
1.0698202597
100
AcDbArc
 50
90.0000000013
 51
269.9999999989
  0
ARC
  5
4CF
100
AcDbEntity
  8
0
100
AcDbCircle
 62
7
  6
CONTINUOUS
 10
-96.0
 20
86.0
 40
1.0698202597
100
AcDbArc
 50
90.0000000013
 51
269.9999999989
  0
ARC
  5
4D0
100
AcDbEntity
  8
0
100
AcDbCircle
 62
7
  6
CONTINUOUS
 10
-96.0
 20
91.0
 40
1.0
100
AcDbArc
 50
89.9999999999
 51
270.0000000001
  0
ARC
  5
4D1
100
AcDbEntity
  8
0
100
AcDbCircle
 62
7
  6
CONTINUOUS
 10
-96.0
 20
86.0
 40
1.0
100
AcDbArc
 50
89.9999999999
 51
270.0000000001
  0
ARC
  5
4D2
100
AcDbEntity
  8
0
100
AcDbCircle
 62
7
  6
CONTINUOUS
 10
-96.0
 20
106.0
 40
1.0698202597
100
AcDbArc
 50
90.0000000067
 51
269.9999999936
  0
ARC
  5
4D3
100
AcDbEntity
  8
0
100
AcDbCircle
 62
7
  6
CONTINUOUS
 10
-96.0
 20
101.0
 40
1.0698202597
100
AcDbArc
 50
90.0000000067
 51
269.9999999989
  0
ARC
  5
4D4
100
AcDbEntity
  8
0
100
AcDbCircle
 62
7
  6
CONTINUOUS
 10
-96.0
 20
96.0
 40
1.0698202597
100
AcDbArc
 50
90.0000000013
 51
269.9999999995
  0
ARC
  5
4D5
100
AcDbEntity
  8
0
100
AcDbCircle
 62
7
  6
CONTINUOUS
 10
-96.0
 20
106.0
 40
1.0
100
AcDbArc
 50
89.9999999999
 51
270.0000000001
  0
ARC
  5
4D6
100
AcDbEntity
  8
0
100
AcDbCircle
 62
7
  6
CONTINUOUS
 10
-96.0
 20
101.0
 40
1.0
100
AcDbArc
 50
89.9999999999
 51
270.0000000001
  0
ARC
  5
4D7
100
AcDbEntity
  8
0
100
AcDbCircle
 62
7
  6
CONTINUOUS
 10
-96.0
 20
96.0
 40
1.0
100
AcDbArc
 50
89.9999999999
 51
270.0000000001
  0
ARC
  5
4D8
100
AcDbEntity
  8
0
100
AcDbCircle
 62
7
  6
CONTINUOUS
 10
-9.25
 20
3.25
 40
7.0523651948
100
AcDbArc
 50
90.0000000005
 51
179.9999999995
  0
ARC
  5
4D9
100
AcDbEntity
  8
0
100
AcDbCircle
 62
7
  6
CONTINUOUS
 10
-36.0568171817
 20
7.0568171817
 40
6.0698202597
100
AcDbArc
 50
270.0
 51
359.9999999998
  0
ARC
  5
4DA
100
AcDbEntity
  8
0
100
AcDbCircle
 62
7
  6
CONTINUOUS
 10
-36.0568171817
 20
19.0568171817
 40
6.0698202597
100
AcDbArc
 50
0.0000000004
 51
90.0
  0
ARC
  5
4DB
100
AcDbEntity
  8
0
100
AcDbCircle
 62
7
  6
CONTINUOUS
 10
-36.0568171817
 20
19.0568171817
 40
6.0174524064
100
AcDbArc
 50
0.0
 51
90.000000244
  0
ARC
  5
4DC
100
AcDbEntity
  8
0
100
AcDbCircle
 62
7
  6
CONTINUOUS
 10
-36.0568171817
 20
7.0568171817
 40
6.0174524064
100
AcDbArc
 50
270.0
 51
0.0000003236
  0
ARC
  5
4DD
100
AcDbEntity
  8
0
100
AcDbCircle
 62
7
  6
CONTINUOUS
 10
-68.0
 20
106.0
 40
1.0698202597
100
AcDbArc
 50
270.0000000058
 51
89.9999999962
  0
ARC
  5
4DE
100
AcDbEntity
  8
0
100
AcDbCircle
 62
7
  6
CONTINUOUS
 10
-68.0
 20
101.0
 40
1.0698202597
100
AcDbArc
 50
270.0000000012
 51
89.9999999962
  0
ARC
  5
4DF
100
AcDbEntity
  8
0
100
AcDbCircle
 62
7
  6
CONTINUOUS
 10
-68.0
 20
96.0
 40
1.0698202597
100
AcDbArc
 50
270.0000000012
 51
89.999999999
  0
ARC
  5
4E0
100
AcDbEntity
  8
0
100
AcDbCircle
 62
7
  6
CONTINUOUS
 10
-26.0
 20
129.0568171817
 40
1.0698202597
100
AcDbArc
 50
270.0000000067
 51
89.9999999936
  0
ARC
  5
4E1
100
AcDbEntity
  8
0
100
AcDbCircle
 62
7
  6
CONTINUOUS
 10
-54.0
 20
129.0568171817
 40
1.0698202597
100
AcDbArc
 50
90.0000000058
 51
269.9999999962
  0
ARC
  5
4E2
100
AcDbEntity
  8
0
100
AcDbCircle
 62
7
  6
CONTINUOUS
 10
-26.0
 20
134.0568171817
 40
1.0698202597
100
AcDbArc
 50
270.0000000058
 51
89.999999994
  0
ARC
  5
4E3
100
AcDbEntity
  8
0
100
AcDbCircle
 62
7
  6
CONTINUOUS
 10
-54.0
 20
134.0568171817
 40
1.0698202597
100
AcDbArc
 50
90.0000000058
 51
269.999999994
  0
ARC
  5
4E4
100
AcDbEntity
  8
0
100
AcDbCircle
 62
7
  6
CONTINUOUS
 10
-26.0
 20
139.0568171817
 40
1.0698202597
100
AcDbArc
 50
270.0000000067
 51
89.9999999936
  0
ARC
  5
4E5
100
AcDbEntity
  8
0
100
AcDbCircle
 62
7
  6
CONTINUOUS
 10
-54.0
 20
139.0568171817
 40
1.0698202597
100
AcDbArc
 50
90.0000000058
 51
269.999999994
  0
ARC
  5
4E6
100
AcDbEntity
  8
0
100
AcDbCircle
 62
7
  6
CONTINUOUS
 10
-68.0
 20
91.0
 40
1.0698202597
100
AcDbArc
 50
270.0000000012
 51
89.9999999995
  0
ARC
  5
4E7
100
AcDbEntity
  8
0
100
AcDbCircle
 62
7
  6
CONTINUOUS
 10
-68.0
 20
86.0
 40
1.0698202597
100
AcDbArc
 50
270.0000000012
 51
89.9999999995
  0
ARC
  5
4E8
100
AcDbEntity
  8
0
100
AcDbCircle
 62
7
  6
CONTINUOUS
 10
-68.0
 20
91.0
 40
1.0
100
AcDbArc
 50
269.9999999999
 51
90.0000000001
  0
ARC
  5
4E9
100
AcDbEntity
  8
0
100
AcDbCircle
 62
7
  6
CONTINUOUS
 10
-68.0
 20
86.0
 40
1.0
100
AcDbArc
 50
269.9999999999
 51
90.0000000001
  0
ARC
  5
4EA
100
AcDbEntity
  8
0
100
AcDbCircle
 62
7
  6
CONTINUOUS
 10
-68.0
 20
106.0
 40
1.0
100
AcDbArc
 50
269.9999999999
 51
90.0000000001
  0
ARC
  5
4EB
100
AcDbEntity
  8
0
100
AcDbCircle
 62
7
  6
CONTINUOUS
 10
-68.0
 20
101.0
 40
1.0
100
AcDbArc
 50
269.9999999999
 51
90.0000000001
  0
ARC
  5
4EC
100
AcDbEntity
  8
0
100
AcDbCircle
 62
7
  6
CONTINUOUS
 10
-68.0
 20
96.0
 40
1.0
100
AcDbArc
 50
269.9999999999
 51
90.0000000001
  0
ARC
  5
4ED
100
AcDbEntity
  8
0
100
AcDbCircle
 62
7
  6
CONTINUOUS
 10
-26.0
 20
129.0568171817
 40
1.0
100
AcDbArc
 50
269.9999999999
 51
90.0000000001
  0
ARC
  5
4EE
100
AcDbEntity
  8
0
100
AcDbCircle
 62
7
  6
CONTINUOUS
 10
-54.0
 20
129.0568171817
 40
1.0
100
AcDbArc
 50
89.9999999999
 51
270.0000000001
  0
ARC
  5
4EF
100
AcDbEntity
  8
0
100
AcDbCircle
 62
7
  6
CONTINUOUS
 10
-26.0
 20
134.0568171817
 40
1.0
100
AcDbArc
 50
269.9999999999
 51
90.0000000001
  0
ARC
  5
4F0
100
AcDbEntity
  8
0
100
AcDbCircle
 62
7
  6
CONTINUOUS
 10
-54.0
 20
134.0568171817
 40
1.0
100
AcDbArc
 50
89.9999999999
 51
270.0000000001
  0
ARC
  5
4F1
100
AcDbEntity
  8
0
100
AcDbCircle
 62
7
  6
CONTINUOUS
 10
-26.0
 20
139.0568171817
 40
1.0
100
AcDbArc
 50
269.9999999999
 51
90.0000000001
  0
ARC
  5
4F2
100
AcDbEntity
  8
0
100
AcDbCircle
 62
7
  6
CONTINUOUS
 10
-54.0
 20
139.0568171817
 40
1.0
100
AcDbArc
 50
89.9999999999
 51
270.0000000001
  0
ARC
  5
4F3
100
AcDbEntity
  8
0
100
AcDbCircle
 62
7
  6
CONTINUOUS
 10
9.25
 20
-13.25
 40
7.0523651948
100
AcDbArc
 50
270.0000000005
 51
359.9999999994
  0
ARC
  5
4F4
100
AcDbEntity
  8
0
100
AcDbCircle
 62
7
  6
CONTINUOUS
 10
65.9431828183
 20
-30.9426508183
 40
6.0698202597
100
AcDbArc
 50
90.0000000004
 51
269.9999999998
  0
ARC
  5
4F5
100
AcDbEntity
  8
0
100
AcDbCircle
 62
7
  6
CONTINUOUS
 10
65.9431828183
 20
-30.9426508183
 40
6.0174524064
100
AcDbArc
 50
90.0000001677
 51
270.0000004817
  0
ARC
  5
4F6
100
AcDbEntity
  8
0
100
AcDbCircle
 62
7
  6
CONTINUOUS
 10
43.0568171817
 20
0.1598949642
 40
4.5
100
AcDbArc
 50
102.8395884069
 51
77.1604115931
  0
ARC
  5
4F7
100
AcDbEntity
  8
0
100
AcDbCircle
 62
7
  6
CONTINUOUS
 10
43.0568171817
 20
0.1598949642
 40
4.4301797403
100
AcDbArc
 50
102.1202621563
 51
77.8797378436
  0
ARC
  5
4F8
100
AcDbEntity
  8
0
100
AcDbCircle
 62
7
  6
CONTINUOUS
 10
36.0568171817
 20
-8.8721552496
 40
4.1
100
AcDbArc
 50
82.9933965022
 51
111.4727498068
  0
ARC
  5
4F9
100
AcDbEntity
  8
0
100
AcDbCircle
 62
7
  6
CONTINUOUS
 10
36.0568171817
 20
-8.8721552496
 40
4.1
100
AcDbArc
 50
332.9244547082
 51
1.8872209004
  0
CIRCLE
  5
4FA
100
AcDbEntity
  8
0
100
AcDbCircle
 62
7
  6
CONTINUOUS
 10
43.0568171817
 20
0.1598949642
 40
2.3603594806
  0
ARC
  5
4FB
100
AcDbEntity
  8
0
100
AcDbCircle
 62
7
  6
CONTINUOUS
 10
36.5568171817
 20
-8.7375592532
 40
2.0453831688
100
AcDbArc
 50
180.000000001
 51
270.0
  0
ARC
  5
4FC
100
AcDbEntity
  8
0
100
AcDbCircle
 62
7
  6
CONTINUOUS
 10
49.5568171817
 20
-8.7375592532
 40
2.0453831688
100
AcDbArc
 50
270.0000000007
 51
360.0
  0
ARC
  5
4FD
100
AcDbEntity
  8
0
100
AcDbCircle
 62
7
  6
CONTINUOUS
 10
36.0568171817
 20
-8.8721552496
 40
1.65
100
AcDbArc
 50
72.3406469333
 51
107.6607258951
  0
ARC
  5
4FE
100
AcDbEntity
  8
0
100
AcDbCircle
 62
7
  6
CONTINUOUS
 10
36.0568171817
 20
-8.8721552496
 40
1.65
100
AcDbArc
 50
252.3406469329
 51
287.6607258951
  0
ARC
  5
4FF
100
AcDbEntity
  8
0
100
AcDbCircle
 62
7
  6
CONTINUOUS
 10
36.0568171817
 20
-8.8721552496
 40
1.65
100
AcDbArc
 50
342.3549388096
 51
4.679583049
  0
ARC
  5
500
100
AcDbEntity
  8
0
100
AcDbCircle
 62
250
  6
CONTINUOUS
 10
36.0568171817
 20
-8.8721552496
 40
1.3
100
AcDbArc
 50
292.6197257326
 51
337.3801921905
  0
ARC
  5
501
100
AcDbEntity
  8
0
100
AcDbCircle
 62
250
  6
CONTINUOUS
 10
36.0568171817
 20
-8.8721552496
 40
1.3
100
AcDbArc
 50
202.6198974491
 51
247.3804544972
  0
ARC
  5
502
100
AcDbEntity
  8
0
100
AcDbCircle
 62
250
  6
CONTINUOUS
 10
36.0568171817
 20
-8.8721552496
 40
1.3
100
AcDbArc
 50
112.6197257326
 51
157.380192298
  0
ARC
  5
503
100
AcDbEntity
  8
0
100
AcDbCircle
 62
7
  6
CONTINUOUS
 10
37.5568171817
 20
-7.7375592532
 40
0.9546168312
100
AcDbArc
 50
180.000000004
 51
269.9999999996
  0
ARC
  5
504
100
AcDbEntity
  8
0
100
AcDbCircle
 62
7
  6
CONTINUOUS
 10
48.5568171817
 20
-7.7375592532
 40
0.9546168312
100
AcDbArc
 50
270.0000000002
 51
360.0
  0
ARC
  5
505
100
AcDbEntity
  8
0
100
AcDbCircle
 62
7
  6
CONTINUOUS
 10
150.0
 20
-130.0
 40
25.0
100
AcDbArc
 50
270.0
 51
360.0
  0
ARC
  5
506
100
AcDbEntity
  8
0
100
AcDbCircle
 62
7
  6
CONTINUOUS
 10
150.0
 20
-130.0
 40
24.1272387781
100
AcDbArc
 50
269.9999999218
 51
0.0000000809
  0
ARC
  5
507
100
AcDbEntity
  8
0
100
AcDbCircle
 62
7
  6
CONTINUOUS
 10
150.0
 20
-130.0
 40
19.0748815588
100
AcDbArc
 50
269.9999999441
 51
0.0000000583
  0
ARC
  5
508
100
AcDbEntity
  8
0
100
AcDbCircle
 62
250
  6
CONTINUOUS
 10
150.0
 20
-130.0
 40
19.0219070982
100
AcDbArc
 50
269.9999999441
 51
0.0000000583
  0
ARC
  5
509
100
AcDbEntity
  8
0
100
AcDbCircle
 62
250
  6
CONTINUOUS
 10
150.0
 20
-130.0
 40
17.0222117079
100
AcDbArc
 50
270.0000000019
 51
359.9999999982
  0
ARC
  5
50A
100
AcDbEntity
  8
0
100
AcDbCircle
 62
7
  6
CONTINUOUS
 10
150.3786796564
 20
-134.6213203436
 40
6.5
100
AcDbArc
 50
135.0000009485
 51
314.9999995343
  0
ARC
  5
50B
100
AcDbEntity
  8
0
100
AcDbCircle
 62
7
  6
CONTINUOUS
 10
154.6213203436
 20
-130.3786796564
 40
6.5
100
AcDbArc
 50
315.0000009485
 51
135.0000001526
  0
ARC
  5
50C
100
AcDbEntity
  8
0
100
AcDbCircle
 62
7
  6
CONTINUOUS
 10
150.3786796564
 20
-134.6213203436
 40
5.4825475936
100
AcDbArc
 50
135.0000022943
 51
315.0000004534
  0
ARC
  5
50D
100
AcDbEntity
  8
0
100
AcDbCircle
 62
7
  6
CONTINUOUS
 10
154.6213203436
 20
-130.3786796564
 40
5.4825475936
100
AcDbArc
 50
315.0000022943
 51
135.0000004533
  0
ARC
  5
50E
100
AcDbEntity
  8
0
100
AcDbCircle
 62
250
  6
CONTINUOUS
 10
154.6213203436
 20
-130.3786796564
 40
5.4473301723
100
AcDbArc
 50
315.0000016746
 51
135.000000344
  0
ARC
  5
50F
100
AcDbEntity
  8
0
100
AcDbCircle
 62
250
  6
CONTINUOUS
 10
150.3786796564
 20
-134.6213203436
 40
5.4473301723
100
AcDbArc
 50
135.0000016746
 51
315.000000344
  0
ARC
  5
510
100
AcDbEntity
  8
0
100
AcDbCircle
 62
250
  6
CONTINUOUS
 10
150.3786796564
 20
-134.6213203436
 40
4.4474824772
100
AcDbArc
 50
134.9999999953
 51
315.0000000304
  0
ARC
  5
511
100
AcDbEntity
  8
0
100
AcDbCircle
 62
250
  6
CONTINUOUS
 10
154.6213203436
 20
-130.3786796564
 40
4.4474824772
100
AcDbArc
 50
314.9999999934
 51
135.0000000303
  0
ARC
  5
512
100
AcDbEntity
  8
0
100
AcDbCircle
 62
7
  6
CONTINUOUS
 10
154.6213203436
 20
-130.3786796564
 40
2.8603594806
100
AcDbArc
 50
314.999999997
 51
134.9999999824
  0
ARC
  5
513
100
AcDbEntity
  8
0
100
AcDbCircle
 62
7
  6
CONTINUOUS
 10
150.3786796564
 20
-134.6213203436
 40
2.8603594806
100
AcDbArc
 50
134.999999997
 51
315.0000000022
  0
ARC
  5
514
100
AcDbEntity
  8
0
100
AcDbCircle
 62
7
  6
CONTINUOUS
 10
118.9431828183
 20
-30.9426508183
 40
6.0698202597
100
AcDbArc
 50
270.0000000004
 51
90.0
  0
ARC
  5
515
100
AcDbEntity
  8
0
100
AcDbCircle
 62
7
  6
CONTINUOUS
 10
118.9431828183
 20
-30.9426508183
 40
6.0174524064
100
AcDbArc
 50
270.0
 51
90.0000003636
  0
ARC
  5
516
100
AcDbEntity
  8
0
100
AcDbCircle
 62
7
  6
CONTINUOUS
 10
9.25
 20
3.25
 40
7.0523651948
100
AcDbArc
 50
0.0000000005
 51
89.9999999995
  0
ARC
  5
517
100
AcDbEntity
  8
0
100
AcDbCircle
 62
7
  6
CONTINUOUS
 10
8.9431828183
 20
55.0568171817
 40
6.0698202597
100
AcDbArc
 50
180.0000000001
 51
269.9999999999
  0
ARC
  5
518
100
AcDbEntity
  8
0
100
AcDbCircle
 62
7
  6
CONTINUOUS
 10
18.9431828183
 20
55.0568171817
 40
6.0698202597
100
AcDbArc
 50
270.0000000004
 51
360.0
  0
ARC
  5
519
100
AcDbEntity
  8
0
100
AcDbCircle
 62
7
  6
CONTINUOUS
 10
18.9431828183
 20
55.0568171817
 40
6.0174524064
100
AcDbArc
 50
270.0
 51
0.0000003236
  0
ARC
  5
51A
100
AcDbEntity
  8
0
100
AcDbCircle
 62
7
  6
CONTINUOUS
 10
8.9431828183
 20
55.0568171817
 40
6.0174524064
100
AcDbArc
 50
180.0
 51
270.0000003236
  0
ARC
  5
51B
100
AcDbEntity
  8
0
100
AcDbCircle
 62
7
  6
CONTINUOUS
 10
50.0568171817
 20
5.1278447504
 40
4.1
100
AcDbArc
 50
262.9933965019
 51
291.4727498065
  0
ARC
  5
51C
100
AcDbEntity
  8
0
100
AcDbCircle
 62
7
  6
CONTINUOUS
 10
36.5568171817
 20
15.2624407468
 40
2.0453831688
100
AcDbArc
 50
90.0000000008
 51
179.9999999999
  0
ARC
  5
51D
100
AcDbEntity
  8
0
100
AcDbCircle
 62
7
  6
CONTINUOUS
 10
49.5568171817
 20
15.2624407468
 40
2.0453831688
100
AcDbArc
 50
0.0
 51
89.9999999985
  0
ARC
  5
51E
100
AcDbEntity
  8
0
100
AcDbCircle
 62
7
  6
CONTINUOUS
 10
50.0568171817
 20
5.1278447504
 40
1.65
100
AcDbArc
 50
72.3406469329
 51
107.6607258955
  0
ARC
  5
51F
100
AcDbEntity
  8
0
100
AcDbCircle
 62
7
  6
CONTINUOUS
 10
50.0568171817
 20
5.1278447504
 40
1.65
100
AcDbArc
 50
252.3406469325
 51
287.6607258951
  0
ARC
  5
520
100
AcDbEntity
  8
0
100
AcDbCircle
 62
250
  6
CONTINUOUS
 10
50.0568171817
 20
5.1278447504
 40
1.3
100
AcDbArc
 50
292.6197257326
 51
337.3801921905
  0
ARC
  5
521
100
AcDbEntity
  8
0
100
AcDbCircle
 62
250
  6
CONTINUOUS
 10
50.0568171817
 20
5.1278447504
 40
1.3
100
AcDbArc
 50
22.6198974491
 51
67.3804544972
  0
ARC
  5
522
100
AcDbEntity
  8
0
100
AcDbCircle
 62
7
  6
CONTINUOUS
 10
39.0568171817
 20
16.2624407468
 40
1.0453831688
100
AcDbArc
 50
270.0000000019
 51
359.9999999984
  0
ARC
  5
523
100
AcDbEntity
  8
0
100
AcDbCircle
 62
7
  6
CONTINUOUS
 10
47.0568171817
 20
16.2624407468
 40
1.0453831688
100
AcDbArc
 50
180.0000000019
 51
269.9999999984
  0
ARC
  5
524
100
AcDbEntity
  8
0
100
AcDbCircle
 62
7
  6
CONTINUOUS
 10
41.0568171817
 20
20.9478447504
 40
0.9546168312
100
AcDbArc
 50
90.0000000038
 51
180.000000002
  0
ARC
  5
525
100
AcDbEntity
  8
0
100
AcDbCircle
 62
7
  6
CONTINUOUS
 10
37.5568171817
 20
14.2624407468
 40
0.9546168312
100
AcDbArc
 50
89.9999999978
 51
179.9999999961
  0
ARC
  5
526
100
AcDbEntity
  8
0
100
AcDbCircle
 62
7
  6
CONTINUOUS
 10
48.5568171817
 20
14.2624407468
 40
0.9546168312
100
AcDbArc
 50
0.0
 51
90.0000000021
  0
ARC
  5
527
100
AcDbEntity
  8
0
100
AcDbCircle
 62
7
  6
CONTINUOUS
 10
45.0568171817
 20
20.9478447504
 40
0.9546168312
100
AcDbArc
 50
0.0
 51
89.9999999961
  0
ARC
  5
528
100
AcDbEntity
  8
0
100
AcDbCircle
 62
7
  6
CONTINUOUS
 10
18.9431828183
 20
108.0568171817
 40
6.0698202597
100
AcDbArc
 50
0.0000000004
 51
89.9999999994
  0
ARC
  5
529
100
AcDbEntity
  8
0
100
AcDbCircle
 62
7
  6
CONTINUOUS
 10
8.9431828183
 20
108.0568171817
 40
6.0698202597
100
AcDbArc
 50
90.0000000015
 51
180.0000000008
  0
ARC
  5
52A
100
AcDbEntity
  8
0
100
AcDbCircle
 62
7
  6
CONTINUOUS
 10
18.9431828183
 20
108.0568171817
 40
6.0174524064
100
AcDbArc
 50
0.0
 51
90.0000002439
  0
ARC
  5
52B
100
AcDbEntity
  8
0
100
AcDbCircle
 62
7
  6
CONTINUOUS
 10
8.9431828183
 20
108.0568171817
 40
6.0174524064
100
AcDbArc
 50
90.0
 51
180.0000003234
  0
ARC
  5
52C
100
AcDbEntity
  8
0
100
AcDbCircle
 62
7
  6
CONTINUOUS
 10
68.0
 20
106.0
 40
1.0698202597
100
AcDbArc
 50
90.0000000067
 51
269.9999999957
  0
ARC
  5
52D
100
AcDbEntity
  8
0
100
AcDbCircle
 62
7
  6
CONTINUOUS
 10
68.0
 20
91.0
 40
1.0698202597
100
AcDbArc
 50
90.0000000013
 51
269.9999999989
  0
ARC
  5
52E
100
AcDbEntity
  8
0
100
AcDbCircle
 62
7
  6
CONTINUOUS
 10
68.0
 20
86.0
 40
1.0698202597
100
AcDbArc
 50
90.0000000013
 51
269.9999999989
  0
ARC
  5
52F
100
AcDbEntity
  8
0
100
AcDbCircle
 62
7
  6
CONTINUOUS
 10
54.0
 20
129.0568171817
 40
1.0698202597
100
AcDbArc
 50
270.0000000058
 51
89.999999994
  0
ARC
  5
530
100
AcDbEntity
  8
0
100
AcDbCircle
 62
7
  6
CONTINUOUS
 10
26.0
 20
129.0568171817
 40
1.0698202597
100
AcDbArc
 50
90.0000000058
 51
269.999999994
  0
ARC
  5
531
100
AcDbEntity
  8
0
100
AcDbCircle
 62
7
  6
CONTINUOUS
 10
54.0
 20
134.0568171817
 40
1.0698202597
100
AcDbArc
 50
270.0000000058
 51
89.999999994
  0
ARC
  5
532
100
AcDbEntity
  8
0
100
AcDbCircle
 62
7
  6
CONTINUOUS
 10
26.0
 20
134.0568171817
 40
1.0698202597
100
AcDbArc
 50
90.0000000058
 51
269.999999994
  0
ARC
  5
533
100
AcDbEntity
  8
0
100
AcDbCircle
 62
7
  6
CONTINUOUS
 10
54.0
 20
139.0568171817
 40
1.0698202597
100
AcDbArc
 50
270.0000000067
 51
89.9999999936
  0
ARC
  5
534
100
AcDbEntity
  8
0
100
AcDbCircle
 62
7
  6
CONTINUOUS
 10
26.0
 20
139.0568171817
 40
1.0698202597
100
AcDbArc
 50
90.0000000058
 51
269.999999994
  0
ARC
  5
535
100
AcDbEntity
  8
0
100
AcDbCircle
 62
7
  6
CONTINUOUS
 10
68.0
 20
96.0
 40
1.0698202597
100
AcDbArc
 50
90.0000000013
 51
269.9999999989
  0
ARC
  5
536
100
AcDbEntity
  8
0
100
AcDbCircle
 62
7
  6
CONTINUOUS
 10
68.0
 20
101.0
 40
1.0698202597
100
AcDbArc
 50
90.0000000067
 51
269.9999999989
  0
ARC
  5
537
100
AcDbEntity
  8
0
100
AcDbCircle
 62
7
  6
CONTINUOUS
 10
68.0
 20
96.0
 40
1.0
100
AcDbArc
 50
89.9999999999
 51
270.0000000001
  0
ARC
  5
538
100
AcDbEntity
  8
0
100
AcDbCircle
 62
7
  6
CONTINUOUS
 10
68.0
 20
101.0
 40
1.0
100
AcDbArc
 50
89.9999999999
 51
270.0000000001
  0
ARC
  5
539
100
AcDbEntity
  8
0
100
AcDbCircle
 62
7
  6
CONTINUOUS
 10
68.0
 20
106.0
 40
1.0
100
AcDbArc
 50
89.9999999999
 51
270.0000000001
  0
ARC
  5
53A
100
AcDbEntity
  8
0
100
AcDbCircle
 62
7
  6
CONTINUOUS
 10
68.0
 20
91.0
 40
1.0
100
AcDbArc
 50
89.9999999999
 51
270.0000000001
  0
ARC
  5
53B
100
AcDbEntity
  8
0
100
AcDbCircle
 62
7
  6
CONTINUOUS
 10
68.0
 20
86.0
 40
1.0
100
AcDbArc
 50
89.9999999999
 51
270.0000000001
  0
ARC
  5
53C
100
AcDbEntity
  8
0
100
AcDbCircle
 62
7
  6
CONTINUOUS
 10
54.0
 20
129.0568171817
 40
1.0
100
AcDbArc
 50
269.9999999999
 51
90.0000000001
  0
ARC
  5
53D
100
AcDbEntity
  8
0
100
AcDbCircle
 62
7
  6
CONTINUOUS
 10
26.0
 20
129.0568171817
 40
1.0
100
AcDbArc
 50
89.9999999999
 51
270.0000000001
  0
ARC
  5
53E
100
AcDbEntity
  8
0
100
AcDbCircle
 62
7
  6
CONTINUOUS
 10
54.0
 20
134.0568171817
 40
1.0
100
AcDbArc
 50
269.9999999999
 51
90.0000000001
  0
ARC
  5
53F
100
AcDbEntity
  8
0
100
AcDbCircle
 62
7
  6
CONTINUOUS
 10
26.0
 20
134.0568171817
 40
1.0
100
AcDbArc
 50
89.9999999999
 51
270.0000000001
  0
ARC
  5
540
100
AcDbEntity
  8
0
100
AcDbCircle
 62
7
  6
CONTINUOUS
 10
54.0
 20
139.0568171817
 40
1.0
100
AcDbArc
 50
269.9999999999
 51
90.0000000001
  0
ARC
  5
541
100
AcDbEntity
  8
0
100
AcDbCircle
 62
7
  6
CONTINUOUS
 10
26.0
 20
139.0568171817
 40
1.0
100
AcDbArc
 50
89.9999999999
 51
270.0000000001
  0
ARC
  5
542
100
AcDbEntity
  8
0
100
AcDbCircle
 62
7
  6
CONTINUOUS
 10
96.0
 20
106.0
 40
1.0698202597
100
AcDbArc
 50
270.0000000058
 51
89.999999994
  0
ARC
  5
543
100
AcDbEntity
  8
0
100
AcDbCircle
 62
7
  6
CONTINUOUS
 10
96.0
 20
91.0
 40
1.0698202597
100
AcDbArc
 50
270.0000000012
 51
89.999999999
  0
ARC
  5
544
100
AcDbEntity
  8
0
100
AcDbCircle
 62
7
  6
CONTINUOUS
 10
96.0
 20
86.0
 40
1.0698202597
100
AcDbArc
 50
270.0000000012
 51
89.999999999
  0
ARC
  5
545
100
AcDbEntity
  8
0
100
AcDbCircle
 62
7
  6
CONTINUOUS
 10
108.0
 20
106.0
 40
1.0698202597
100
AcDbArc
 50
90.0000000067
 51
269.9999999968
  0
ARC
  5
546
100
AcDbEntity
  8
0
100
AcDbCircle
 62
7
  6
CONTINUOUS
 10
108.0
 20
101.0
 40
1.0698202597
100
AcDbArc
 50
90.0000000067
 51
269.9999999995
  0
ARC
  5
547
100
AcDbEntity
  8
0
100
AcDbCircle
 62
7
  6
CONTINUOUS
 10
108.0
 20
96.0
 40
1.0698202597
100
AcDbArc
 50
90.0000000013
 51
269.9999999995
  0
ARC
  5
548
100
AcDbEntity
  8
0
100
AcDbCircle
 62
7
  6
CONTINUOUS
 10
108.0
 20
91.0
 40
1.0698202597
100
AcDbArc
 50
90.0000000013
 51
269.9999999995
  0
ARC
  5
549
100
AcDbEntity
  8
0
100
AcDbCircle
 62
7
  6
CONTINUOUS
 10
108.0
 20
86.0
 40
1.0698202597
100
AcDbArc
 50
90.0000000013
 51
269.9999999995
  0
ARC
  5
54A
100
AcDbEntity
  8
0
100
AcDbCircle
 62
7
  6
CONTINUOUS
 10
96.0
 20
96.0
 40
1.0698202597
100
AcDbArc
 50
270.0000000012
 51
89.999999999
  0
ARC
  5
54B
100
AcDbEntity
  8
0
100
AcDbCircle
 62
7
  6
CONTINUOUS
 10
96.0
 20
101.0
 40
1.0698202597
100
AcDbArc
 50
270.0000000012
 51
89.999999994
  0
ARC
  5
54C
100
AcDbEntity
  8
0
100
AcDbCircle
 62
7
  6
CONTINUOUS
 10
96.0
 20
96.0
 40
1.0
100
AcDbArc
 50
269.9999999999
 51
90.0000000001
  0
ARC
  5
54D
100
AcDbEntity
  8
0
100
AcDbCircle
 62
7
  6
CONTINUOUS
 10
96.0
 20
101.0
 40
1.0
100
AcDbArc
 50
269.9999999999
 51
90.0000000001
  0
ARC
  5
54E
100
AcDbEntity
  8
0
100
AcDbCircle
 62
7
  6
CONTINUOUS
 10
96.0
 20
106.0
 40
1.0
100
AcDbArc
 50
269.9999999999
 51
90.0000000001
  0
ARC
  5
54F
100
AcDbEntity
  8
0
100
AcDbCircle
 62
7
  6
CONTINUOUS
 10
96.0
 20
91.0
 40
1.0
100
AcDbArc
 50
269.9999999999
 51
90.0000000001
  0
ARC
  5
550
100
AcDbEntity
  8
0
100
AcDbCircle
 62
7
  6
CONTINUOUS
 10
96.0
 20
86.0
 40
1.0
100
AcDbArc
 50
269.9999999999
 51
90.0000000001
  0
ARC
  5
551
100
AcDbEntity
  8
0
100
AcDbCircle
 62
7
  6
CONTINUOUS
 10
108.0
 20
106.0
 40
1.0
100
AcDbArc
 50
89.9999999999
 51
270.0000000001
  0
ARC
  5
552
100
AcDbEntity
  8
0
100
AcDbCircle
 62
7
  6
CONTINUOUS
 10
108.0
 20
101.0
 40
1.0
100
AcDbArc
 50
89.9999999999
 51
270.0000000001
  0
ARC
  5
553
100
AcDbEntity
  8
0
100
AcDbCircle
 62
7
  6
CONTINUOUS
 10
108.0
 20
96.0
 40
1.0
100
AcDbArc
 50
89.9999999999
 51
270.0000000001
  0
ARC
  5
554
100
AcDbEntity
  8
0
100
AcDbCircle
 62
7
  6
CONTINUOUS
 10
108.0
 20
91.0
 40
1.0
100
AcDbArc
 50
89.9999999999
 51
270.0000000001
  0
ARC
  5
555
100
AcDbEntity
  8
0
100
AcDbCircle
 62
7
  6
CONTINUOUS
 10
108.0
 20
86.0
 40
1.0
100
AcDbArc
 50
89.9999999999
 51
270.0000000001
  0
ARC
  5
556
100
AcDbEntity
  8
0
100
AcDbCircle
 62
7
  6
CONTINUOUS
 10
136.0
 20
106.0
 40
1.0698202597
100
AcDbArc
 50
270.0000000067
 51
89.9999999914
  0
ARC
  5
557
100
AcDbEntity
  8
0
100
AcDbCircle
 62
7
  6
CONTINUOUS
 10
136.0
 20
101.0
 40
1.0698202597
100
AcDbArc
 50
270.0000000013
 51
89.9999999914
  0
ARC
  5
558
100
AcDbEntity
  8
0
100
AcDbCircle
 62
7
  6
CONTINUOUS
 10
136.0
 20
96.0
 40
1.0698202597
100
AcDbArc
 50
270.0000000013
 51
89.9999999995
  0
ARC
  5
559
100
AcDbEntity
  8
0
100
AcDbCircle
 62
7
  6
CONTINUOUS
 10
136.0
 20
91.0
 40
1.0698202597
100
AcDbArc
 50
270.0000000013
 51
89.9999999995
  0
ARC
  5
55A
100
AcDbEntity
  8
0
100
AcDbCircle
 62
7
  6
CONTINUOUS
 10
136.0
 20
86.0
 40
1.0698202597
100
AcDbArc
 50
270.0000000013
 51
89.9999999995
  0
ARC
  5
55B
100
AcDbEntity
  8
0
100
AcDbCircle
 62
7
  6
CONTINUOUS
 10
136.0
 20
106.0
 40
1.0
100
AcDbArc
 50
269.9999999999
 51
90.0000000001
  0
ARC
  5
55C
100
AcDbEntity
  8
0
100
AcDbCircle
 62
7
  6
CONTINUOUS
 10
136.0
 20
101.0
 40
1.0
100
AcDbArc
 50
269.9999999999
 51
90.0000000001
  0
ARC
  5
55D
100
AcDbEntity
  8
0
100
AcDbCircle
 62
7
  6
CONTINUOUS
 10
136.0
 20
96.0
 40
1.0
100
AcDbArc
 50
269.9999999999
 51
90.0000000001
  0
ARC
  5
55E
100
AcDbEntity
  8
0
100
AcDbCircle
 62
7
  6
CONTINUOUS
 10
136.0
 20
91.0
 40
1.0
100
AcDbArc
 50
269.9999999999
 51
90.0000000001
  0
ARC
  5
55F
100
AcDbEntity
  8
0
100
AcDbCircle
 62
7
  6
CONTINUOUS
 10
136.0
 20
86.0
 40
1.0
100
AcDbArc
 50
269.9999999999
 51
90.0000000001
  0
ARC
  5
560
100
AcDbEntity
  8
0
100
AcDbCircle
 62
7
  6
CONTINUOUS
 10
150.0
 20
130.0
 40
25.0
100
AcDbArc
 50
0.0
 51
90.0000000344
  0
ARC
  5
561
100
AcDbEntity
  8
0
100
AcDbCircle
 62
7
  6
CONTINUOUS
 10
150.0
 20
130.0
 40
24.1272387781
100
AcDbArc
 50
359.9999999218
 51
90.0
  0
ARC
  5
562
100
AcDbEntity
  8
0
100
AcDbCircle
 62
7
  6
CONTINUOUS
 10
150.0
 20
130.0
 40
19.0748815588
100
AcDbArc
 50
0.0
 51
90.0000000451
  0
ARC
  5
563
100
AcDbEntity
  8
0
100
AcDbCircle
 62
250
  6
CONTINUOUS
 10
150.0
 20
130.0
 40
19.0219070982
100
AcDbArc
 50
0.0
 51
90.0000000451
  0
ARC
  5
564
100
AcDbEntity
  8
0
100
AcDbCircle
 62
250
  6
CONTINUOUS
 10
150.0
 20
130.0
 40
17.0222117079
100
AcDbArc
 50
0.0000000019
 51
89.9999999982
  0
ARC
  5
565
100
AcDbEntity
  8
0
100
AcDbCircle
 62
7
  6
CONTINUOUS
 10
150.3786796564
 20
134.6213203436
 40
6.5
100
AcDbArc
 50
45.0000010734
 51
224.9999995883
  0
ARC
  5
566
100
AcDbEntity
  8
0
100
AcDbCircle
 62
7
  6
CONTINUOUS
 10
154.6213203436
 20
130.3786796564
 40
6.5
100
AcDbArc
 50
225.0000010734
 51
45.0000001885
  0
ARC
  5
567
100
AcDbEntity
  8
0
100
AcDbCircle
 62
7
  6
CONTINUOUS
 10
154.6213203436
 20
130.3786796564
 40
5.4825475936
100
AcDbArc
 50
225.0000023081
 51
45.0000004581
  0
ARC
  5
568
100
AcDbEntity
  8
0
100
AcDbCircle
 62
7
  6
CONTINUOUS
 10
150.3786796564
 20
134.6213203436
 40
5.4825475936
100
AcDbArc
 50
45.0000023081
 51
225.0000004582
  0
ARC
  5
569
100
AcDbEntity
  8
0
100
AcDbCircle
 62
250
  6
CONTINUOUS
 10
150.3786796564
 20
134.6213203436
 40
5.4473301723
100
AcDbArc
 50
45.0000016746
 51
225.000000344
  0
ARC
  5
56A
100
AcDbEntity
  8
0
100
AcDbCircle
 62
250
  6
CONTINUOUS
 10
154.6213203436
 20
130.3786796564
 40
5.4473301723
100
AcDbArc
 50
225.0000016746
 51
45.000000344
  0
ARC
  5
56B
100
AcDbEntity
  8
0
100
AcDbCircle
 62
250
  6
CONTINUOUS
 10
154.6213203436
 20
130.3786796564
 40
4.4474824772
100
AcDbArc
 50
29.8687640447
 51
45.0000000303
  0
ARC
  5
56C
100
AcDbEntity
  8
0
100
AcDbCircle
 62
250
  6
CONTINUOUS
 10
150.3786796564
 20
134.6213203436
 40
4.4474824772
100
AcDbArc
 50
44.9999999934
 51
225.0000000303
  0
ARC
  5
56D
100
AcDbEntity
  8
0
100
AcDbCircle
 62
7
  6
CONTINUOUS
 10
154.6213203436
 20
130.3786796564
 40
2.8603594806
100
AcDbArc
 50
224.9999999968
 51
44.9999999655
  0
ARC
  5
56E
100
AcDbEntity
  8
0
100
AcDbCircle
 62
7
  6
CONTINUOUS
 10
150.3786796564
 20
134.6213203436
 40
2.8603594806
100
AcDbArc
 50
44.999999997
 51
224.9999999824
  0
ELLIPSE
  5
56F
100
AcDbEntity
  8
0
100
AcDbEllipse
 62
7
  6
CONTINUOUS
 10
118.4897227878
 20
150.1101248842
 30
0.0
 11
0.0
 21
3.0
 31
0.0
 40
0.0174550649
 41
-4.0142572796
 42
-3.1590459462
  0
ELLIPSE
  5
570
100
AcDbEntity
  8
0
100
AcDbEllipse
 62
7
  6
CONTINUOUS
 10
110.6102772122
 20
150.1101248842
 30
0.0
 11
-0.0
 21
3.0
 31
0.0
 40
0.0174550649
 41
-3.124139361
 42
-2.2689280277
  0
ELLIPSE
  5
571
100
AcDbEntity
  8
0
100
AcDbEllipse
 62
7
  6
CONTINUOUS
 10
-0.0
 20
204.0976981995
 30
0.0
 11
3061.0
 21
0.0
 31
0.0
 40
0.0174550649
 41
-1.5315843861
 42
-1.5314371267
  0
ELLIPSE
  5
572
100
AcDbEntity
  8
0
100
AcDbEllipse
 62
7
  6
CONTINUOUS
 10
-0.0
 20
204.0976981995
 30
0.0
 11
3061.0
 21
0.0
 31
0.0
 40
0.0174550649
 41
-1.5382671081
 42
-1.5381197264
  0
ELLIPSE
  5
573
100
AcDbEntity
  8
0
100
AcDbEllipse
 62
7
  6
CONTINUOUS
 10
-0.0
 20
204.0976981995
 30
0.0
 11
3061.0
 21
0.0
 31
0.0
 40
0.0174550649
 41
-1.6034729272
 42
-1.6033255455
  0
ELLIPSE
  5
574
100
AcDbEntity
  8
0
100
AcDbEllipse
 62
7
  6
CONTINUOUS
 10
-0.0
 20
204.0976981995
 30
0.0
 11
3061.0
 21
0.0
 31
0.0
 40
0.0174550649
 41
-1.6101555268
 42
-1.6100082675
  0
ELLIPSE
  5
575
100
AcDbEntity
  8
0
100
AcDbEllipse
 62
7
  6
CONTINUOUS
 10
-118.4897227878
 20
150.1101248842
 30
0.0
 11
-0.0
 21
3.0
 31
0.0
 40
0.0174550649
 41
-3.124139361
 42
-2.2689280276
  0
ELLIPSE
  5
576
100
AcDbEntity
  8
0
100
AcDbEllipse
 62
7
  6
CONTINUOUS
 10
-110.6102772122
 20
150.1101248842
 30
0.0
 11
0.0
 21
3.0
 31
0.0
 40
0.0174550649
 41
-4.0142572796
 42
-3.1590459462
  0
ELLIPSE
  5
577
100
AcDbEntity
  8
0
100
AcDbEllipse
 62
7
  6
CONTINUOUS
 10
-109.3897227878
 20
150.1101248842
 30
0.0
 11
-0.0
 21
3.0
 31
0.0
 40
0.0174550649
 41
-3.124139361
 42
-2.2689280276
  0
ELLIPSE
  5
578
100
AcDbEntity
  8
0
100
AcDbEllipse
 62
7
  6
CONTINUOUS
 10
-101.5102772122
 20
150.1101248842
 30
0.0
 11
0.0
 21
3.0
 31
0.0
 40
0.0174550649
 41
-4.0142572796
 42
-3.1590459462
  0
ELLIPSE
  5
579
100
AcDbEntity
  8
0
100
AcDbEllipse
 62
7
  6
CONTINUOUS
 10
109.3897227878
 20
150.1101248842
 30
0.0
 11
0.0
 21
3.0
 31
0.0
 40
0.0174550649
 41
-4.0142572796
 42
-3.1590459462
  0
ELLIPSE
  5
57A
100
AcDbEntity
  8
0
100
AcDbEllipse
 62
7
  6
CONTINUOUS
 10
101.5102772122
 20
150.1101248842
 30
0.0
 11
0.0
 21
3.0
 31
0.0
 40
0.0174550649
 41
-3.124139361
 42
-2.2689280277
  0
ELLIPSE
  5
57B
100
AcDbEntity
  8
0
100
AcDbEllipse
 62
7
  6
CONTINUOUS
 10
36.5298083187
 20
86.0555815387
 30
0.0
 11
2.2
 21
0.0
 31
0.0
 40
0.0174550649
 41
-2.3561944902
 42
-0.8704637034
  0
ELLIPSE
  5
57C
100
AcDbEntity
  8
0
100
AcDbEllipse
 62
7
  6
CONTINUOUS
 10
36.5298083187
 20
93.9444184613
 30
0.0
 11
2.2
 21
0.0
 31
0.0
 40
0.0174550649
 41
0.8704637034
 42
2.3561944902
  0
ELLIPSE
  5
57D
100
AcDbEntity
  8
0
100
AcDbEllipse
 62
7
  6
CONTINUOUS
 10
8.1354643235
 20
142.9210482021
 30
0.0
 11
-0.0
 21
2.0
 31
0.0
 40
0.0174550649
 41
-2.2711144867
 42
-0.0174343032
  0
ELLIPSE
  5
57E
100
AcDbEntity
  8
0
100
AcDbEllipse
 62
7
  6
CONTINUOUS
 10
8.0555815387
 20
130.9743620213
 30
0.0
 11
-0.0
 21
2.2
 31
0.0
 40
0.0174550649
 41
0.8704637032
 42
2.3561944902
  0
ELLIPSE
  5
57F
100
AcDbEntity
  8
0
100
AcDbEllipse
 62
7
  6
CONTINUOUS
 10
15.9444184613
 20
130.9743620213
 30
0.0
 11
0.0
 21
2.2
 31
0.0
 40
0.0174550649
 41
-2.3561944901
 42
-0.8704637032
  0
ELLIPSE
  5
580
100
AcDbEntity
  8
0
100
AcDbEllipse
 62
7
  6
CONTINUOUS
 10
47.9879185158
 20
42.9930964259
 30
0.0
 11
-0.7073221892
 21
-0.7073221892
 31
0.0
 40
0.9996954599
 41
2.3563467834
 42
3.9268385237
  0
ELLIPSE
  5
581
100
AcDbEntity
  8
0
100
AcDbEllipse
 62
7
  6
CONTINUOUS
 10
38.1257158476
 20
42.9930964259
 30
0.0
 11
-0.7073221892
 21
0.7073221892
 31
0.0
 40
0.9996954599
 41
-0.7852458701
 42
0.7852458701
  0
ELLIPSE
  5
582
100
AcDbEntity
  8
0
100
AcDbEllipse
 62
7
  6
CONTINUOUS
 10
-12.4439444585
 20
-123.5575788219
 30
0.0
 11
-3.5366109458
 21
-3.5366109458
 31
0.0
 40
0.9996954599
 41
2.3563337091
 42
3.9268515981
  0
ELLIPSE
  5
583
100
AcDbEntity
  8
0
100
AcDbEllipse
 62
7
  6
CONTINUOUS
 10
117.5575788219
 20
-123.5575788219
 30
0.0
 11
3.5366109458
 21
-3.5366109458
 31
0.0
 40
0.9996954599
 41
2.3563363067
 42
3.9268490004
  0
ELLIPSE
  5
584
100
AcDbEntity
  8
0
100
AcDbEllipse
 62
7
  6
CONTINUOUS
 10
48.4068171817
 20
30.1278447504
 30
0.0
 11
0.0
 21
1.35
 31
0.0
 40
0.0174550649
 41
3.1415926536
 42
6.2831853072
  0
ELLIPSE
  5
585
100
AcDbEntity
  8
0
100
AcDbEllipse
 62
7
  6
CONTINUOUS
 10
121.546586158
 20
147.0222117079
 30
0.0
 11
-0.0
 21
2.0
 31
0.0
 40
0.0174550649
 41
-1.5707963268
 42
-0.0174532924
  0
ELLIPSE
  5
586
100
AcDbEntity
  8
0
100
AcDbEllipse
 62
7
  6
CONTINUOUS
 10
99.5265785301
 20
141.6261215459
 30
0.0
 11
0.0
 21
1.0
 31
0.0
 40
0.0174550649
 41
-3.1241393607
 42
-2.2689280274
  0
ELLIPSE
  5
587
100
AcDbEntity
  8
0
100
AcDbEllipse
 62
7
  6
CONTINUOUS
 10
120.4734214699
 20
141.6261215459
 30
0.0
 11
-0.0
 21
1.0
 31
0.0
 40
0.0174550649
 41
-4.0142572794
 42
-3.1590459465
  0
ELLIPSE
  5
588
100
AcDbEntity
  8
0
100
AcDbEllipse
 62
7
  6
CONTINUOUS
 10
-98.453413842
 20
147.0222117079
 30
0.0
 11
0.0
 21
2.0
 31
0.0
 40
0.0174550649
 41
-1.5707963268
 42
-0.0174532925
  0
ELLIPSE
  5
589
100
AcDbEntity
  8
0
100
AcDbEllipse
 62
7
  6
CONTINUOUS
 10
98.453413842
 20
147.0222117079
 30
0.0
 11
0.0
 21
2.0
 31
0.0
 40
0.0174550649
 41
0.0174532925
 42
1.5707963268
  0
ELLIPSE
  5
58A
100
AcDbEntity
  8
0
100
AcDbEllipse
 62
7
  6
CONTINUOUS
 10
-99.5265785301
 20
141.6261215459
 30
0.0
 11
0.0
 21
1.0
 31
0.0
 40
0.0174550649
 41
-4.0142572791
 42
-3.1590459459
  0
ELLIPSE
  5
58B
100
AcDbEntity
  8
0
100
AcDbEllipse
 62
7
  6
CONTINUOUS
 10
-120.4734214699
 20
141.6261215459
 30
0.0
 11
-0.0
 21
1.0
 31
0.0
 40
0.0174550649
 41
-3.1241393613
 42
-2.268928028
  0
ELLIPSE
  5
58C
100
AcDbEntity
  8
0
100
AcDbEllipse
 62
7
  6
CONTINUOUS
 10
-121.546586158
 20
147.0222117079
 30
0.0
 11
0.0
 21
2.0
 31
0.0
 40
0.0174550649
 41
0.0174532924
 42
1.5707963268
  0
ELLIPSE
  5
58D
100
AcDbEntity
  8
0
100
AcDbEllipse
 62
7
  6
CONTINUOUS
 10
48.0577387755
 20
43.0629166856
 30
0.0
 11
0.7073221892
 21
0.7073221892
 31
0.0
 40
0.9996954599
 41
-0.7852458701
 42
0.7852458702
  0
ELLIPSE
  5
58E
100
AcDbEntity
  8
0
100
AcDbEllipse
 62
7
  6
CONTINUOUS
 10
38.0558955879
 20
43.0629166856
 30
0.0
 11
0.7073221892
 21
-0.7073221892
 31
0.0
 40
0.9996954599
 41
2.3563467834
 42
3.9268385237
  0
ENDSEC
  0
SECTION
  2
OBJECTS
  0
DICTIONARY
  5
C
100
AcDbDictionary
280
0
281
1
  3
ACAD_GROUP
350
D
  3
ACAD_MLINESTYLE
350
17
  3
ACAD_LAYOUT
350
1A
  3
ACAD_PLOTSETTINGS
350
19
  3
ACAD_PLOTSTYLENAME
350
E
  0
DICTIONARY
  5
D
102
{ACAD_REACTORS
330
C
102
}
100
AcDbDictionary
280
0
281
1
  0
ACDBDICTIONARYWDFLT
  5
E
102
{ACAD_REACTORS
330
C
102
}
100
AcDbDictionary
281
1
  3
Normal
350
F
100
AcDbDictionaryWithDefault
340
F
  0
DICTIONARY
  5
17
102
{ACAD_REACTORS
330
C
102
}
100
AcDbDictionary
280
0
281
1
  3
Standard
350
18
  0
DICTIONARY
  5
19
102
{ACAD_REACTORS
330
C
102
}
100
AcDbDictionary
281
1
  0
DICTIONARY
  5
1A
102
{ACAD_REACTORS
330
C
102
}
100
AcDbDictionary
281
1
  3
Model
350
58F
  3
Layout1
350
590
  0
ACDBPLACEHOLDER
  5
F
102
{ACAD_REACTORS
330
E
102
}
  0
MLINESTYLE
  5
18
102
{ACAD_REACTORS
330
17
102
}
100
AcDbMlineStyle
  2
STANDARD
 70
0
  3

 62
256
 51
90.0
 52
90.0
 71
2
 49
0.5
 62
256
  6
BYLAYER
 49
-0.5
 62
256
  6
BYLAYER
  0
LAYOUT
  5
58F
102
{ACAD_REACTORS
330
1A
102
}
100
AcDbPlotSettings
  1

  2
none_device
  4
ISO_A4_(297.00_x_210.00_MM)
  6

 40
0.0
 41
0.0
 42
0.0
 43
0.0
 44
297.0
 45
210.0
 46
0.0
 47
0.0
 48
0.0
 49
0.0
140
0.0
141
0.0
142
1.0
143
1.0
 70
1024
 72
1
 73
0
 74
0
  7

 75
0
147
1.0
148
0.0
149
0.0
100
AcDbLayout
  1
Model
 70
0
 71
0
 10
0.0
 20
0.0
 11
297.0
 21
210.0
 12
0.0
 22
0.0
 32
0.0
 14
0.0
 24
0.0
 34
0.0
 15
0.0
 25
0.0
 35
0.0
146
0.0
 13
0.0
 23
0.0
 33
0.0
 16
1.0
 26
0.0
 36
0.0
 17
0.0
 27
1.0
 37
0.0
 76
0
330
20A
345
0
346
0
  0
LAYOUT
  5
590
102
{ACAD_REACTORS
330
1A
102
}
100
AcDbPlotSettings
  1

  2
none_device
  4
ISO_A4_(297.00_x_210.00_MM)
  6

 40
0.0
 41
0.0
 42
0.0
 43
0.0
 44
297.0
 45
210.0
 46
0.0
 47
0.0
 48
0.0
 49
0.0
140
0.0
141
0.0
142
1.0
143
1.0
 70
0
 72
1
 73
0
 74
0
  7

 75
0
147
1.0
148
0.0
149
0.0
100
AcDbLayout
  1
Layout1
 70
0
 71
1
 10
0.0
 20
0.0
 11
297.0
 21
210.0
 12
0.0
 22
0.0
 32
0.0
 14
0.0
 24
0.0
 34
0.0
 15
0.0
 25
0.0
 35
0.0
146
0.0
 13
0.0
 23
0.0
 33
0.0
 16
1.0
 26
0.0
 36
0.0
 17
0.0
 27
1.0
 37
0.0
 76
0
330
20B
345
0
346
0
  0
ENDSEC
  0
EOF
