  0
SECTION
  2
HEADER
  9
$ACADVER
  1
AC1024
  9
$DWGCODEPAGE
  3
ANSI_1252
  9
$EXTMAX
 10
297.0
 20
210.0
 30
0.0
  9
$EXTMIN
 10
0.0
 20
0.0
 30
0.0
  9
$LIMMIN
 10
0.0
 20
0.0
  9
$LIMMAX
 10
297.0
 20
210.0
  9
$VIEWCTR
 10
148.5
 20
105.0
  9
$VIEWSIZE
 40
210.0
  9
$CLAYER
  8
0
  9
$LTSCALE
 40
16.335
  9
$CELTYPE
  6
BYLAYER
  9
$DIMSCALE
 40
1.0
  9
$DIMASZ
 40
3.0
  9
$DIMEXO
 40
0.5
  9
$DIMDLI
 40
11.286
  9
$DIMEXE
 40
1.5
  9
$DIMCEN
 40
2.673
  9
$DIMLFAC
 40
1.0
  9
$DIMBLK
  1
_FILLED
  9
$DIMALT
 70
0
  9
$DIMALTF
 40
0.0393700787
  9
$DIMTXT
 40
3.0
  9
$DIMTOL
 70
1
  9
$DIMLIM
 70
0
  9
$DIMTFAC
 40
1.0
  9
$DIMTP
 40
0.01
  9
$DIMTM
 40
0.01
  9
$DIMGAP
 40
0.625
  9
$DIMDSEP
 70
44
  9
$AUNITS
 70
0
  9
$PDMODE
 70
3
  9
$PDSIZE
 40
3.0
  9
$HANDSEED
  5
4DD
  9
$TILEMODE
 70
1
  9
$MEASUREMENT
 70
1
  9
$INSUNITS
 70
4
  0
ENDSEC
  0
SECTION
  2
CLASSES
  0
CLASS
  1
ACDBDICTIONARYWDFLT
  2
AcDbDictionaryWithDefault
  3
AutoCAD 2000
 90
0
 91
1
280
0
281
0
  0
CLASS
  1
ACDBPLACEHOLDER
  2
AcDbPlaceHolder
  3
AutoCAD 2000
 90
0
 91
1
280
0
281
0
  0
CLASS
  1
LAYOUT
  2
AcDbLayout
  3
AutoCAD 2000
 90
0
 91
0
280
0
281
0
  0
ENDSEC
  0
SECTION
  2
TABLES
  0
TABLE
  2
VPORT
  5
8
100
AcDbSymbolTable
 70
2
  0
VPORT
  5
1F4
100
AcDbSymbolTableRecord
100
AcDbViewportTableRecord
  2
*ACTIVE
 70
0
 10
0.0
 20
0.0
 11
1.0
 21
1.0
 12
148.5
 22
105.0
 13
0.0
 23
0.0
 14
1.0
 24
1.0
 15
0.0
 25
0.0
 16
0.0
 26
0.0
 36
1.0
 17
0.0
 27
0.0
 37
0.0
 40
210.0
 41
1.4142857143
 42
50.0
 43
0.0
 44
0.0
 50
0.0
 51
0.0
 71
0
 72
100
 73
1
 74
1
 75
0
 76
0
 77
0
 78
0
  0
ENDTAB
  0
TABLE
  2
LTYPE
  5
5
100
AcDbSymbolTable
 70
6
  0
LTYPE
  5
14
100
AcDbSymbolTableRecord
100
AcDbLinetypeTableRecord
  2
BYBLOCK
 70
0
  3

 72
65
 73
0
 40
0.0
  0
LTYPE
  5
15
100
AcDbSymbolTableRecord
100
AcDbLinetypeTableRecord
  2
BYLAYER
 70
0
  3

 72
65
 73
0
 40
0.0
  0
LTYPE
  5
16
100
AcDbSymbolTableRecord
100
AcDbLinetypeTableRecord
  2
CONTINUOUS
 70
64
  3
Solid line
 72
65
 73
0
 40
0.0
  0
LTYPE
  5
1F5
100
AcDbSymbolTableRecord
100
AcDbLinetypeTableRecord
  2
CENTER
 70
64
  3
____ _ ____ _ ____ _ ____ _ ____ _ ____ _ ____
 72
65
 73
4
 40
0.6
 49
0.375
 74
0
 49
-0.075
 74
0
 49
0.075
 74
0
 49
-0.075
 74
0
  0
LTYPE
  5
1F6
100
AcDbSymbolTableRecord
100
AcDbLinetypeTableRecord
  2
HIDDEN
 70
64
  3
- - - - - - - - - - - - - - - - - - - -
 72
65
 73
2
 40
0.2
 49
0.1
 74
0
 49
-0.1
 74
0
  0
LTYPE
  5
1F7
100
AcDbSymbolTableRecord
100
AcDbLinetypeTableRecord
  2
PHANTOM
 70
64
  3
_____ _ _ _____ _ _ _____ _ _ _____
 72
65
 73
6
 40
0.8
 49
0.45
 74
0
 49
-0.05
 74
0
 49
0.1
 74
0
 49
-0.05
 74
0
 49
0.1
 74
0
 49
-0.05
 74
0
  0
LTYPE
  5
1F8
100
AcDbSymbolTableRecord
100
AcDbLinetypeTableRecord
  2
DOT
 70
64
  3
. . . . . . . . . . . . . . . . . . . .
 72
65
 73
2
 40
0.2
 49
0.1
 74
0
 49
-0.1
 74
0
  0
LTYPE
  5
1F9
100
AcDbSymbolTableRecord
100
AcDbLinetypeTableRecord
  2
DASHED
 70
64
  3
- - - - - - - - - - - - - - - - - - - -
 72
65
 73
2
 40
0.2
 49
0.1
 74
0
 49
-0.1
 74
0
  0
ENDTAB
  0
TABLE
  2
LAYER
  5
2
100
AcDbSymbolTable
 70
36
  0
LAYER
  5
10
100
AcDbSymbolTableRecord
100
AcDbLayerTableRecord
  2
0
 70
0
 62
7
  6
CONTINUOUS
370
-3
390
F
  0
LAYER
  5
1FA
100
AcDbSymbolTableRecord
100
AcDbLayerTableRecord
  2
DEFAULT_1
 70
0
 62
7
  6
CENTER
370
-3
390
F
  0
LAYER
  5
1FB
100
AcDbSymbolTableRecord
100
AcDbLayerTableRecord
  2
DEFAULT_2
 70
0
 62
7
  6
HIDDEN
370
-3
390
F
  0
LAYER
  5
1FC
100
AcDbSymbolTableRecord
100
AcDbLayerTableRecord
  2
DEFAULT_3
 70
0
 62
7
  6
PHANTOM
370
-3
390
F
  0
LAYER
  5
1FD
100
AcDbSymbolTableRecord
100
AcDbLayerTableRecord
  2
ANGOLARE
 70
0
 62
7
  6
CONTINUOUS
370
-3
390
F
  0
LAYER
  5
1FE
100
AcDbSymbolTableRecord
100
AcDbLayerTableRecord
  2
ANGOLARE_1
 70
0
 62
7
  6
CONTINUOUS
370
-3
390
F
  0
LAYER
  5
1FF
100
AcDbSymbolTableRecord
100
AcDbLayerTableRecord
  2
ANGOLARE_2
 70
0
 62
7
  6
CONTINUOUS
370
-3
390
F
  0
LAYER
  5
200
100
AcDbSymbolTableRecord
100
AcDbLayerTableRecord
  2
ANGOLARE_3
 70
0
 62
7
  6
CONTINUOUS
370
-3
390
F
  0
LAYER
  5
201
100
AcDbSymbolTableRecord
100
AcDbLayerTableRecord
  2
ANGOLARE_DI_FISSAGGIO
 70
0
 62
7
  6
CONTINUOUS
370
-3
390
F
  0
LAYER
  5
202
100
AcDbSymbolTableRecord
100
AcDbLayerTableRecord
  2
ANGOLARE_DI_FISSAGGIO_1
 70
0
 62
7
  6
CONTINUOUS
370
-3
390
F
  0
LAYER
  5
203
100
AcDbSymbolTableRecord
100
AcDbLayerTableRecord
  2
ANGOLARE_DI_FISSAGGIO_2
 70
0
 62
7
  6
CONTINUOUS
370
-3
390
F
  0
LAYER
  5
204
100
AcDbSymbolTableRecord
100
AcDbLayerTableRecord
  2
ANGOLARE_DI_FISSAGGIO_3
 70
0
 62
7
  6
CONTINUOUS
370
-3
390
F
  0
LAYER
  5
205
100
AcDbSymbolTableRecord
100
AcDbLayerTableRecord
  2
ANTIAPERTURA
 70
0
 62
7
  6
CONTINUOUS
370
-3
390
F
  0
LAYER
  5
206
100
AcDbSymbolTableRecord
100
AcDbLayerTableRecord
  2
ASSI
 70
0
 62
7
  6
CONTINUOUS
370
-3
390
F
  0
LAYER
  5
207
100
AcDbSymbolTableRecord
100
AcDbLayerTableRecord
  2
BASE-PRIME-GRANDE-112993
 70
0
 62
7
  6
CONTINUOUS
370
-3
390
F
  0
LAYER
  5
208
100
AcDbSymbolTableRecord
100
AcDbLayerTableRecord
  2
BASE-PRIME-GRANDE-112994
 70
0
 62
7
  6
CONTINUOUS
370
-3
390
F
  0
LAYER
  5
209
100
AcDbSymbolTableRecord
100
AcDbLayerTableRecord
  2
CENTRALE-VIMAR
 70
0
 62
7
  6
CONTINUOUS
370
-3
390
F
  0
LAYER
  5
20A
100
AcDbSymbolTableRecord
100
AcDbLayerTableRecord
  2
COLONNINAM3X20
 70
0
 62
7
  6
CONTINUOUS
370
-3
390
F
  0
LAYER
  5
20B
100
AcDbSymbolTableRecord
100
AcDbLayerTableRecord
  2
COLONNINAM3X20_1
 70
0
 62
7
  6
CONTINUOUS
370
-3
390
F
  0
LAYER
  5
20C
100
AcDbSymbolTableRecord
100
AcDbLayerTableRecord
  2
COLONNINAM3X20_2
 70
0
 62
7
  6
CONTINUOUS
370
-3
390
F
  0
LAYER
  5
20D
100
AcDbSymbolTableRecord
100
AcDbLayerTableRecord
  2
COLONNINAM3X20_3
 70
0
 62
7
  6
CONTINUOUS
370
-3
390
F
  0
LAYER
  5
20E
100
AcDbSymbolTableRecord
100
AcDbLayerTableRecord
  2
COLONNINAM3X20_4
 70
0
 62
7
  6
CONTINUOUS
370
-3
390
F
  0
LAYER
  5
20F
100
AcDbSymbolTableRecord
100
AcDbLayerTableRecord
  2
COLONNINAM3X20_5
 70
0
 62
7
  6
CONTINUOUS
370
-3
390
F
  0
LAYER
  5
210
100
AcDbSymbolTableRecord
100
AcDbLayerTableRecord
  2
COLONNINAM3X20_6
 70
0
 62
7
  6
CONTINUOUS
370
-3
390
F
  0
LAYER
  5
211
100
AcDbSymbolTableRecord
100
AcDbLayerTableRecord
  2
COLONNINAM3X20_7
 70
0
 62
7
  6
CONTINUOUS
370
-3
390
F
  0
LAYER
  5
212
100
AcDbSymbolTableRecord
100
AcDbLayerTableRecord
  2
COLOR22
 70
0
 62
7
  6
CONTINUOUS
370
-3
390
F
  0
LAYER
  5
213
100
AcDbSymbolTableRecord
100
AcDbLayerTableRecord
  2
COLOR63
 70
0
 62
7
  6
CONTINUOUS
370
-3
390
F
  0
LAYER
  5
214
100
AcDbSymbolTableRecord
100
AcDbLayerTableRecord
  2
COLOR64
 70
0
 62
7
  6
CONTINUOUS
370
-3
390
F
  0
LAYER
  5
215
100
AcDbSymbolTableRecord
100
AcDbLayerTableRecord
  2
COLOR65
 70
0
 62
7
  6
CONTINUOUS
370
-3
390
F
  0
LAYER
  5
216
100
AcDbSymbolTableRecord
100
AcDbLayerTableRecord
  2
COLOR66
 70
0
 62
7
  6
CONTINUOUS
370
-3
390
F
  0
LAYER
  5
217
100
AcDbSymbolTableRecord
100
AcDbLayerTableRecord
  2
COLOR67
 70
0
 62
7
  6
CONTINUOUS
370
-3
390
F
  0
LAYER
  5
218
100
AcDbSymbolTableRecord
100
AcDbLayerTableRecord
  2
COLOR68
 70
0
 62
7
  6
CONTINUOUS
370
-3
390
F
  0
LAYER
  5
219
100
AcDbSymbolTableRecord
100
AcDbLayerTableRecord
  2
COLOR69
 70
0
 62
7
  6
CONTINUOUS
370
-3
390
F
  0
LAYER
  5
21A
100
AcDbSymbolTableRecord
100
AcDbLayerTableRecord
  2
COLOR70
 70
0
 62
7
  6
CONTINUOUS
370
-3
390
F
  0
LAYER
  5
21B
100
AcDbSymbolTableRecord
100
AcDbLayerTableRecord
  2
COLOR71
 70
0
 62
7
  6
CONTINUOUS
370
-3
390
F
  0
LAYER
  5
21C
100
AcDbSymbolTableRecord
100
AcDbLayerTableRecord
  2
COLOR72
 70
0
 62
7
  6
CONTINUOUS
370
-3
390
F
  0
LAYER
  5
21D
100
AcDbSymbolTableRecord
100
AcDbLayerTableRecord
  2
COLOR73
 70
0
 62
7
  6
CONTINUOUS
370
-3
390
F
  0
LAYER
  5
21E
100
AcDbSymbolTableRecord
100
AcDbLayerTableRecord
  2
COLOR74
 70
0
 62
7
  6
CONTINUOUS
370
-3
390
F
  0
LAYER
  5
21F
100
AcDbSymbolTableRecord
100
AcDbLayerTableRecord
  2
COLOR75
 70
0
 62
7
  6
CONTINUOUS
370
-3
390
F
  0
LAYER
  5
220
100
AcDbSymbolTableRecord
100
AcDbLayerTableRecord
  2
COLOR76
 70
0
 62
7
  6
CONTINUOUS
370
-3
390
F
  0
LAYER
  5
221
100
AcDbSymbolTableRecord
100
AcDbLayerTableRecord
  2
COLOR77
 70
0
 62
7
  6
CONTINUOUS
370
-3
390
F
  0
LAYER
  5
222
100
AcDbSymbolTableRecord
100
AcDbLayerTableRecord
  2
COLOR78
 70
0
 62
7
  6
CONTINUOUS
370
-3
390
F
  0
LAYER
  5
223
100
AcDbSymbolTableRecord
100
AcDbLayerTableRecord
  2
COLOR79
 70
0
 62
7
  6
CONTINUOUS
370
-3
390
F
  0
LAYER
  5
224
100
AcDbSymbolTableRecord
100
AcDbLayerTableRecord
  2
COLOR80
 70
0
 62
7
  6
CONTINUOUS
370
-3
390
F
  0
LAYER
  5
225
100
AcDbSymbolTableRecord
100
AcDbLayerTableRecord
  2
COLOR81
 70
0
 62
7
  6
CONTINUOUS
370
-3
390
F
  0
LAYER
  5
226
100
AcDbSymbolTableRecord
100
AcDbLayerTableRecord
  2
COLOR82
 70
0
 62
7
  6
CONTINUOUS
370
-3
390
F
  0
LAYER
  5
227
100
AcDbSymbolTableRecord
100
AcDbLayerTableRecord
  2
COORDINATE
 70
0
 62
7
  6
CONTINUOUS
370
-3
390
F
  0
LAYER
  5
228
100
AcDbSymbolTableRecord
100
AcDbLayerTableRecord
  2
COPY_PUBLISH
 70
0
 62
7
  6
CONTINUOUS
370
-3
390
F
  0
LAYER
  5
229
100
AcDbSymbolTableRecord
100
AcDbLayerTableRecord
  2
COSMETICI
 70
0
 62
7
  6
CONTINUOUS
370
-3
390
F
  0
LAYER
  5
22A
100
AcDbSymbolTableRecord
100
AcDbLayerTableRecord
  2
COVER-PRIME-GRANDE
 70
0
 62
7
  6
CONTINUOUS
370
-3
390
F
  0
LAYER
  5
22B
100
AcDbSymbolTableRecord
100
AcDbLayerTableRecord
  2
COVER-SPRING-GRANDE-NEW
 70
0
 62
7
  6
CONTINUOUS
370
-3
390
F
  0
LAYER
  5
22C
100
AcDbSymbolTableRecord
100
AcDbLayerTableRecord
  2
CURVE
 70
0
 62
7
  6
CONTINUOUS
370
-3
390
F
  0
LAYER
  5
22D
100
AcDbSymbolTableRecord
100
AcDbLayerTableRecord
  2
DRAFT
 70
0
 62
7
  6
CONTINUOUS
370
-3
390
F
  0
LAYER
  5
22E
100
AcDbSymbolTableRecord
100
AcDbLayerTableRecord
  2
FASTON_MASCHIO
 70
0
 62
7
  6
CONTINUOUS
370
-3
390
F
  0
LAYER
  5
22F
100
AcDbSymbolTableRecord
100
AcDbLayerTableRecord
  2
IMPORT_IGES
 70
0
 62
7
  6
CONTINUOUS
370
-3
390
F
  0
LAYER
  5
230
100
AcDbSymbolTableRecord
100
AcDbLayerTableRecord
  2
INSERTOM3
 70
0
 62
7
  6
CONTINUOUS
370
-3
390
F
  0
LAYER
  5
231
100
AcDbSymbolTableRecord
100
AcDbLayerTableRecord
  2
INSERTOM3_1
 70
0
 62
7
  6
CONTINUOUS
370
-3
390
F
  0
LAYER
  5
232
100
AcDbSymbolTableRecord
100
AcDbLayerTableRecord
  2
INSERTOM3_10
 70
0
 62
7
  6
CONTINUOUS
370
-3
390
F
  0
LAYER
  5
233
100
AcDbSymbolTableRecord
100
AcDbLayerTableRecord
  2
INSERTOM3_2
 70
0
 62
7
  6
CONTINUOUS
370
-3
390
F
  0
LAYER
  5
234
100
AcDbSymbolTableRecord
100
AcDbLayerTableRecord
  2
INSERTOM3_3
 70
0
 62
7
  6
CONTINUOUS
370
-3
390
F
  0
LAYER
  5
235
100
AcDbSymbolTableRecord
100
AcDbLayerTableRecord
  2
INSERTOM3_4
 70
0
 62
7
  6
CONTINUOUS
370
-3
390
F
  0
LAYER
  5
236
100
AcDbSymbolTableRecord
100
AcDbLayerTableRecord
  2
INSERTOM3_5
 70
0
 62
7
  6
CONTINUOUS
370
-3
390
F
  0
LAYER
  5
237
100
AcDbSymbolTableRecord
100
AcDbLayerTableRecord
  2
INSERTOM3_6
 70
0
 62
7
  6
CONTINUOUS
370
-3
390
F
  0
LAYER
  5
238
100
AcDbSymbolTableRecord
100
AcDbLayerTableRecord
  2
INSERTOM3_7
 70
0
 62
7
  6
CONTINUOUS
370
-3
390
F
  0
LAYER
  5
239
100
AcDbSymbolTableRecord
100
AcDbLayerTableRecord
  2
INSERTOM3_8
 70
0
 62
7
  6
CONTINUOUS
370
-3
390
F
  0
LAYER
  5
23A
100
AcDbSymbolTableRecord
100
AcDbLayerTableRecord
  2
INSERTOM3_9
 70
0
 62
7
  6
CONTINUOUS
370
-3
390
F
  0
LAYER
  5
23B
100
AcDbSymbolTableRecord
100
AcDbLayerTableRecord
  2
INSERTOM4
 70
0
 62
7
  6
CONTINUOUS
370
-3
390
F
  0
LAYER
  5
23C
100
AcDbSymbolTableRecord
100
AcDbLayerTableRecord
  2
INSERTOM4_1
 70
0
 62
7
  6
CONTINUOUS
370
-3
390
F
  0
LAYER
  5
23D
100
AcDbSymbolTableRecord
100
AcDbLayerTableRecord
  2
INSERTOM4_2
 70
0
 62
7
  6
CONTINUOUS
370
-3
390
F
  0
LAYER
  5
23E
100
AcDbSymbolTableRecord
100
AcDbLayerTableRecord
  2
INSERTOM4_3
 70
0
 62
7
  6
CONTINUOUS
370
-3
390
F
  0
LAYER
  5
23F
100
AcDbSymbolTableRecord
100
AcDbLayerTableRecord
  2
INTFCLR_3
 70
0
 62
7
  6
CONTINUOUS
370
-3
390
F
  0
LAYER
  5
240
100
AcDbSymbolTableRecord
100
AcDbLayerTableRecord
  2
LIVELLO_1
 70
0
 62
7
  6
CONTINUOUS
370
-3
390
F
  0
LAYER
  5
241
100
AcDbSymbolTableRecord
100
AcDbLayerTableRecord
  2
LIVELLO_2
 70
0
 62
7
  6
CONTINUOUS
370
-3
390
F
  0
LAYER
  5
242
100
AcDbSymbolTableRecord
100
AcDbLayerTableRecord
  2
NOTE
 70
0
 62
7
  6
CONTINUOUS
370
-3
390
F
  0
LAYER
  5
243
100
AcDbSymbolTableRecord
100
AcDbLayerTableRecord
  2
PERM3X10
 70
0
 62
7
  6
CONTINUOUS
370
-3
390
F
  0
LAYER
  5
244
100
AcDbSymbolTableRecord
100
AcDbLayerTableRecord
  2
PERM3X10_1
 70
0
 62
7
  6
CONTINUOUS
370
-3
390
F
  0
LAYER
  5
245
100
AcDbSymbolTableRecord
100
AcDbLayerTableRecord
  2
PERM3X15
 70
0
 62
7
  6
CONTINUOUS
370
-3
390
F
  0
LAYER
  5
246
100
AcDbSymbolTableRecord
100
AcDbLayerTableRecord
  2
PIANI
 70
0
 62
7
  6
CONTINUOUS
370
-3
390
F
  0
LAYER
  5
247
100
AcDbSymbolTableRecord
100
AcDbLayerTableRecord
  2
PUNTI
 70
0
 62
7
  6
CONTINUOUS
370
-3
390
F
  0
LAYER
  5
248
100
AcDbSymbolTableRecord
100
AcDbLayerTableRecord
  2
RACCORDO
 70
0
 62
7
  6
CONTINUOUS
370
-3
390
F
  0
LAYER
  5
249
100
AcDbSymbolTableRecord
100
AcDbLayerTableRecord
  2
RINFORZO_BATTERIA
 70
0
 62
7
  6
CONTINUOUS
370
-3
390
F
  0
LAYER
  5
24A
100
AcDbSymbolTableRecord
100
AcDbLayerTableRecord
  2
SIMBOLI
 70
0
 62
7
  6
CONTINUOUS
370
-3
390
F
  0
LAYER
  5
24B
100
AcDbSymbolTableRecord
100
AcDbLayerTableRecord
  2
SMUSSO
 70
0
 62
7
  6
CONTINUOUS
370
-3
390
F
  0
LAYER
  5
24C
100
AcDbSymbolTableRecord
100
AcDbLayerTableRecord
  2
SUPERFICI
 70
0
 62
7
  6
CONTINUOUS
370
-3
390
F
  0
LAYER
  5
24D
100
AcDbSymbolTableRecord
100
AcDbLayerTableRecord
  2
TRASH
 70
0
 62
7
  6
CONTINUOUS
370
-3
390
F
  0
LAYER
  5
24E
100
AcDbSymbolTableRecord
100
AcDbLayerTableRecord
  2
VITEM3X6-113004
 70
0
 62
7
  6
CONTINUOUS
370
-3
390
F
  0
LAYER
  5
24F
100
AcDbSymbolTableRecord
100
AcDbLayerTableRecord
  2
VITEM3X6-TESTA-LARGA
 70
0
 62
7
  6
CONTINUOUS
370
-3
390
F
  0
LAYER
  5
250
100
AcDbSymbolTableRecord
100
AcDbLayerTableRecord
  2
VITEM3X6-TESTA-LARGA_1
 70
0
 62
7
  6
CONTINUOUS
370
-3
390
F
  0
LAYER
  5
251
100
AcDbSymbolTableRecord
100
AcDbLayerTableRecord
  2
WHITE
 70
0
 62
7
  6
CONTINUOUS
370
-3
390
F
  0
LAYER
  5
252
100
AcDbSymbolTableRecord
100
AcDbLayerTableRecord
  2
___SHELL
 70
0
 62
7
  6
CONTINUOUS
370
-3
390
F
  0
ENDTAB
  0
TABLE
  2
STYLE
  5
3
100
AcDbSymbolTable
 70
1
  0
STYLE
  5
11
100
AcDbSymbolTableRecord
100
AcDbTextStyleTableRecord
  2
STANDARD
 70
0
 40
0.0
 41
0.8
 50
0.0
 71
0
 42
0.2
  3
txt
  4

  0
STYLE
  5
253
100
AcDbSymbolTableRecord
100
AcDbTextStyleTableRecord
  2
TEXTSTYLE_1
 70
0
 40
0.0
 41
0.8
 50
0.0
 71
0
 42
0.2
  3
gdt
  4

  0
ENDTAB
  0
TABLE
  2
VIEW
  5
6
100
AcDbSymbolTable
 70
0
  0
ENDTAB
  0
TABLE
  2
UCS
  5
7
100
AcDbSymbolTable
 70
0
  0
ENDTAB
  0
TABLE
  2
APPID
  5
9
100
AcDbSymbolTable
 70
1
  0
APPID
  5
254
100
AcDbSymbolTableRecord
100
AcDbRegAppTableRecord
  2
ACAD
 70
0
  0
ENDTAB
  0
TABLE
  2
BLOCK_RECORD
  5
1
100
AcDbSymbolTable
 70
0
  0
BLOCK_RECORD
  5
255
100
AcDbSymbolTableRecord
100
AcDbBlockTableRecord
  2
*Model_Space
  0
BLOCK_RECORD
  5
256
100
AcDbSymbolTableRecord
100
AcDbBlockTableRecord
  2
*Paper_Space
  0
BLOCK_RECORD
  5
257
100
AcDbSymbolTableRecord
100
AcDbBlockTableRecord
  2
_FILLED
  0
ENDTAB
  0
TABLE
  2
DIMSTYLE
  5
A
100
AcDbSymbolTable
 70
1
100
AcDbDimStyleTable
 71
0
  0
DIMSTYLE
105
258
100
AcDbSymbolTableRecord
100
AcDbDimStyleTableRecord
  2
STANDARD
 70
0
  3

  4

 40
1.0
 41
3.0
 42
0.5
 43
0.38
 44
1.5
 45
0.0
 46
0.0
 47
0.01
 48
0.01
140
3.0
141
0.09
142
0.0
143
25.4
144
1.0
145
0.0
146
1.0
147
0.625
 71
1
 72
0
 73
0
 74
0
 75
0
 76
0
 77
1
 78
8
 79
2
170
0
171
1
172
0
173
0
174
0
175
0
176
0
177
0
178
0
270
2
179
2
271
2
272
2
273
2
274
2
275
0
280
0
281
0
282
0
283
1
284
8
285
0
286
0
287
3
288
0
340
11
278
44
341
257
342
257
343
257
344
257
  0
ENDTAB
  0
ENDSEC
  0
SECTION
  2
BLOCKS
  0
BLOCK
  5
20
100
AcDbEntity
  8
0
100
AcDbBlockBegin
  2
*Model_Space
 70
0
 10
0.0
 20
0.0
 30
0.0
  3
*Model_Space
  1

  0
ENDBLK
  5
21
100
AcDbEntity
  8
0
100
AcDbBlockEnd
  0
BLOCK
  5
1C
100
AcDbEntity
  8
0
100
AcDbBlockBegin
  2
*Paper_Space
 70
0
 10
0.0
 20
0.0
 30
0.0
  3
*Paper_Space
  1

  0
ENDBLK
  5
1D
100
AcDbEntity
  8
0
100
AcDbBlockEnd
  0
BLOCK
  5
259
100
AcDbEntity
  8
0
100
AcDbBlockBegin
  2
_FILLED
 70
64
 10
0.0
 20
0.0
  3
_FILLED
  1

  0
SOLID
  5
25A
100
AcDbEntity
  8
0
  6
BYBLOCK
 62
0
100
AcDbTrace
 10
0.0
 20
0.0
 11
-1.0
 21
0.3166666667
 12
-1.0
 22
-0.3166666667
 13
-1.0
 23
-0.3166666667
  0
ENDBLK
  5
25B
100
AcDbEntity
  8
0
  6
BYBLOCK
 62
0
100
AcDbBlockEnd
  0
ENDSEC
  0
SECTION
  2
ENTITIES
  0
LWPOLYLINE
  5
25C
100
AcDbEntity
  8
IMPORT_IGES
100
AcDbPolyline
 62
7
  6
CONTINUOUS
 90
13
 70
0
 10
-185.8636681534
 20
231.1625367528
 10
-185.8768423194
 20
231.1514932193
 10
-185.8898127899
 20
231.1415069337
 10
-185.9025781718
 20
231.1325778961
 10
-185.9151069322
 20
231.1247492291
 10
-185.9274289089
 20
231.1179778099
 10
-185.9396315558
 20
231.112134271
 10
-185.9518648491
 20
231.1071709126
 10
-185.9639656532
 20
231.1031354345
 10
-185.9755639867
 20
231.1000415679
 10
-185.9865509868
 20
231.0978938899
 10
-185.9970614839
 20
231.0966878236
 10
-186.0071068136
 20
231.0964233688
  0
LWPOLYLINE
  5
25D
100
AcDbEntity
  8
IMPORT_IGES
100
AcDbPolyline
 62
7
  6
CONTINUOUS
 90
7
 70
0
 10
-186.1504073483
 20
231.4521115715
 10
-186.1374428375
 20
231.4615686372
 10
-186.1244019923
 20
231.4716892006
 10
-186.1112848125
 20
231.4824686117
 10
-186.0980648194
 20
231.4938949991
 10
-186.0847684918
 20
231.5059697308
 10
-186.0801722132
 20
231.5103738545
  0
LWPOLYLINE
  5
25E
100
AcDbEntity
  8
IMPORT_IGES
100
AcDbPolyline
 62
7
  6
CONTINUOUS
 90
4
 70
0
 10
-186.1504073483
 20
-231.4521115715
 10
-186.1234807038
 20
-231.4719579244
 10
-186.097008935
 20
-231.4939024664
 10
-186.0793485006
 20
-231.510199785
  0
LWPOLYLINE
  5
25F
100
AcDbEntity
  8
IMPORT_IGES
100
AcDbPolyline
 62
7
  6
CONTINUOUS
 90
13
 70
0
 10
-185.8636746259
 20
-231.1625472766
 10
-185.8767524463
 20
-231.1515348337
 10
-185.8896457917
 20
-231.1415706193
 10
-185.9023527308
 20
-231.1326546335
 10
-185.9148407577
 20
-231.1248298909
 10
-185.9271395465
 20
-231.1180533768
 10
-185.9393371568
 20
-231.1121960471
 10
-185.9515840909
 20
-231.1072027435
 10
-185.9637152763
 20
-231.1031286243
 10
-185.975357683
 20
-231.1000101202
 10
-185.9864010941
 20
-231.0978593746
 10
-185.9969805472
 20
-231.096664244
 10
-186.0071066742
 20
-231.0964247249
  0
LWPOLYLINE
  5
260
100
AcDbEntity
  8
IMPORT_IGES
100
AcDbPolyline
 62
7
  6
CONTINUOUS
 90
7
 70
0
 10
-186.2103698451
 20
231.3801985524
 10
-186.2059180862
 20
231.3848437815
 10
-186.193838104
 20
231.3981442139
 10
-186.1824141678
 20
231.411358984
 10
-186.1716450845
 20
231.4244607677
 10
-186.1615426556
 20
231.4374768892
 10
-186.1521115715
 20
231.4504073483
  0
LWPOLYLINE
  5
261
100
AcDbEntity
  8
IMPORT_IGES
100
AcDbPolyline
 62
7
  6
CONTINUOUS
 90
18
 70
0
 10
-183.1011107754
 20
229.6706385037
 10
-183.1293504461
 20
229.641902936
 10
-183.158737352
 20
229.6146116793
 10
-183.1892331606
 20
229.5887647336
 10
-183.2208431286
 20
229.5643261841
 10
-183.2534734389
 20
229.5413319455
 10
-183.2869355774
 20
229.5198897619
 10
-183.3212296538
 20
229.4999899683
 10
-183.356251861
 20
229.4816422296
 10
-183.391666851
 20
229.4649832847
 10
-183.427374192
 20
229.4500440451
 10
-183.4633742172
 20
229.4367935992
 10
-183.4994945807
 20
229.4252759517
 10
-183.5357116071
 20
229.4154742491
 10
-183.571941665
 20
229.4074053449
 10
-183.6079354937
 20
229.4011638031
 10
-183.6435830876
 20
229.3967811453
 10
-183.6789013527
 20
229.39422585
  0
LWPOLYLINE
  5
262
100
AcDbEntity
  8
IMPORT_IGES
100
AcDbPolyline
 62
7
  6
CONTINUOUS
 90
36
 70
0
 10
-183.0209622178
 20
229.7507870613
 10
-183.0080953247
 20
229.7631233149
 10
-182.9953120257
 20
229.776031031
 10
-182.9826123209
 20
229.7895037434
 10
-182.9699683546
 20
229.8035433016
 10
-182.9574079825
 20
229.8181334362
 10
-182.9450147719
 20
229.8332400746
 10
-182.9327925249
 20
229.8488568751
 10
-182.9207374395
 20
229.8649733889
 10
-182.9089216767
 20
229.8815493421
 10
-182.8973429814
 20
229.898586442
 10
-182.8860036087
 20
229.9160637835
 10
-182.8749824849
 20
229.9339078389
 10
-182.8642772897
 20
229.9521254123
 10
-182.8538903433
 20
229.9706893682
 10
-182.8439075322
 20
229.9894776903
 10
-182.834339037
 20
230.0084774367
 10
-182.8251746771
 20
230.0276831266
 10
-182.816469797
 20
230.0469876384
 10
-182.8082342935
 20
230.0663709356
 10
-182.8004582697
 20
230.0858372098
 10
-182.7931673794
 20
230.1053188873
 10
-182.7863631428
 20
230.1248133357
 10
-182.7800440397
 20
230.144308766
 10
-182.774231163
 20
230.1637269836
 10
-182.7689270771
 20
230.1830687968
 10
-182.7641292175
 20
230.2023220421
 10
-182.7598509836
 20
230.2213934695
 10
-182.7560989482
 20
230.2402617639
 10
-182.7528665385
 20
230.258942427
 10
-182.7501474357
 20
230.27740107
 10
-182.7479412767
 20
230.2956155324
 10
-182.7462484245
 20
230.3136044791
 10
-182.7450636494
 20
230.3313948486
 10
-182.7443849029
 20
230.3489964403
 10
-182.744207356
 20
230.3635150484
  0
LWPOLYLINE
  5
263
100
AcDbEntity
  8
IMPORT_IGES
100
AcDbPolyline
 62
7
  6
CONTINUOUS
 90
7
 70
0
 10
-186.1521102208
 20
-231.4504092439
 10
-186.1615314164
 20
-231.4374909696
 10
-186.1716260043
 20
-231.4244840809
 10
-186.1823892854
 20
-231.4113885776
 10
-186.1938102474
 20
-231.3981760674
 10
-186.2058892664
 20
-231.3848749428
 10
-186.2103630053
 20
-231.3802061284
  0
LWPOLYLINE
  5
264
100
AcDbEntity
  8
IMPORT_IGES
100
AcDbPolyline
 62
250
  6
CONTINUOUS
 90
16
 70
0
 10
-159.978472622
 20
-208.6137493131
 10
-159.9893129427
 20
-208.5973297178
 10
-160.0314144539
 20
-208.5275318644
 10
-160.0712366682
 20
-208.4550028662
 10
-160.1092066935
 20
-208.3789007233
 10
-160.1448974218
 20
-208.3000674355
 10
-160.1773730004
 20
-208.2203497988
 10
-160.2063818225
 20
-208.140034617
 10
-160.232175495
 20
-208.0588350861
 10
-160.2545729847
 20
-207.9777375912
 10
-160.273532169
 20
-207.8967935735
 10
-160.2890951706
 20
-207.8159515918
 10
-160.3012073252
 20
-207.7360437063
 10
-160.3098504116
 20
-207.6573472705
 10
-160.3150426509
 20
-207.5795849311
 10
-160.3167840434
 20
-207.5027566879
  0
LWPOLYLINE
  5
265
100
AcDbEntity
  8
IMPORT_IGES
100
AcDbPolyline
 62
7
  6
CONTINUOUS
 90
46
 70
0
 10
-186.0071068229
 20
-231.0964247285
 10
-186.0135306414
 20
-231.0965797562
 10
-186.0199175552
 20
-231.0970578095
 10
-186.0262663893
 20
-231.0978588884
 10
-186.0325762014
 20
-231.0989814328
 10
-186.0388455537
 20
-231.1004270029
 10
-186.045072537
 20
-231.1022002788
 10
-186.0512545689
 20
-231.1042981777
 10
-186.0573918819
 20
-231.1067237824
 10
-186.0634866869
 20
-231.1094910218
 10
-186.0695374849
 20
-231.112596451
 10
-186.0755431252
 20
-231.116043515
 10
-186.0815060818
 20
-231.1198564772
 10
-186.0874164542
 20
-231.1240220106
 10
-186.0932813617
 20
-231.1285534422
 10
-186.0991275863
 20
-231.1335150168
 10
-186.1049566401
 20
-231.1388997449
 10
-186.1107616181
 20
-231.1447146159
 10
-186.1165549185
 20
-231.1510448436
 10
-186.1223487855
 20
-231.1579055144
 10
-186.1281236512
 20
-231.1652815418
 10
-186.1338448971
 20
-231.1732128803
 10
-186.1395129322
 20
-231.181706914
 10
-186.1451229724
 20
-231.1907562588
 10
-186.1506358505
 20
-231.2003787166
 10
-186.1560485522
 20
-231.2105715304
 10
-186.1613635691
 20
-231.2213374572
 10
-186.1665533218
 20
-231.2327025702
 10
-186.1716212784
 20
-231.2446723123
 10
-186.1765662952
 20
-231.2572412405
 10
-186.1813571934
 20
-231.2704190987
 10
-186.1860016744
 20
-231.284224494
 10
-186.1904979908
 20
-231.2986388194
 10
-186.1948051862
 20
-231.3136159978
 10
-186.1989289174
 20
-231.329168299
 10
-186.2028745556
 20
-231.3452834532
 10
-186.2066055949
 20
-231.3618785744
 10
-186.2101288226
 20
-231.378968178
 10
-186.2134524525
 20
-231.3965377486
 10
-186.2165462689
 20
-231.4144608536
 10
-186.2194163902
 20
-231.4327412298
 10
-186.222073881
 20
-231.4513751404
 10
-186.2244987269
 20
-231.4702249431
 10
-186.2266903783
 20
-231.4892447571
 10
-186.2286662139
 20
-231.5084804631
 10
-186.2304335177
 20
-231.5279320612
  0
LINE
  5
266
100
AcDbEntity
  8
IMPORT_IGES
100
AcDbLine
 62
7
  6
CONTINUOUS
 10
184.8789013527
 20
-229.39422585
 11
184.9138403344
 21
-229.3934979172
  0
LINE
  5
267
100
AcDbEntity
  8
IMPORT_IGES
100
AcDbLine
 62
7
  6
CONTINUOUS
 10
186.298
 20
-232.8
 11
-186.298
 21
-232.8
  0
LINE
  5
268
100
AcDbEntity
  8
IMPORT_IGES
100
AcDbLine
 62
7
  6
CONTINUOUS
 10
187.5
 20
-231.6
 11
186.3
 21
-231.6
  0
LINE
  5
269
100
AcDbEntity
  8
IMPORT_IGES
100
AcDbLine
 62
7
  6
CONTINUOUS
 10
186.298
 20
-231.6
 11
-186.298
 21
-231.6
  0
LINE
  5
26A
100
AcDbEntity
  8
IMPORT_IGES
100
AcDbLine
 62
7
  6
CONTINUOUS
 10
-186.3
 20
-231.598
 11
-187.5
 21
-231.598
  0
LINE
  5
26B
100
AcDbEntity
  8
IMPORT_IGES
100
AcDbLine
 62
7
  6
CONTINUOUS
 10
-184.2996252
 20
-230.9493014859
 11
185.4996252
 21
-230.9493014859
  0
LINE
  5
26C
100
AcDbEntity
  8
IMPORT_IGES
100
AcDbLine
 62
250
  6
CONTINUOUS
 10
-185.3
 20
-230.6
 11
-184.2996252
 21
-230.6
  0
LINE
  5
26D
100
AcDbEntity
  8
IMPORT_IGES
100
AcDbLine
 62
7
  6
CONTINUOUS
 10
-184.2996252
 20
-229.9493014859
 11
-183.1996252
 21
-229.9493014859
  0
LINE
  5
26E
100
AcDbEntity
  8
IMPORT_IGES
100
AcDbLine
 62
7
  6
CONTINUOUS
 10
184.3996252
 20
-229.9493014859
 11
185.4996252
 21
-229.9493014859
  0
LINE
  5
26F
100
AcDbEntity
  8
IMPORT_IGES
100
AcDbLine
 62
7
  6
CONTINUOUS
 10
185.4996252
 20
-229.8493014859
 11
184.4996252
 21
-229.8493014859
  0
LINE
  5
270
100
AcDbEntity
  8
IMPORT_IGES
100
AcDbLine
 62
7
  6
CONTINUOUS
 10
-183.2996252
 20
-229.8493014859
 11
-184.2996252
 21
-229.8493014859
  0
LINE
  5
271
100
AcDbEntity
  8
IMPORT_IGES
100
AcDbLine
 62
250
  6
CONTINUOUS
 10
183.4996252
 20
-228.9493014859
 11
-182.2996252
 21
-228.9493014859
  0
LWPOLYLINE
  5
272
100
AcDbEntity
  8
IMPORT_IGES
100
AcDbPolyline
 62
7
  6
CONTINUOUS
 90
19
 70
0
 10
-183.7138402544
 20
-229.393439728
 10
-183.6789371762
 20
-229.3941193019
 10
-183.6436511286
 20
-229.396627282
 10
-183.608032234
 20
-229.4009636721
 10
-183.5720635269
 20
-229.4071571682
 10
-183.5358543726
 20
-229.4151790743
 10
-183.4996527477
 20
-229.4249433025
 10
-183.4635338189
 20
-229.4364393619
 10
-183.427528816
 20
-229.4496777435
 10
-183.3918339068
 20
-229.4646038317
 10
-183.3564714987
 20
-229.4812386938
 10
-183.3215212299
 20
-229.4995612624
 10
-183.2872763596
 20
-229.5194537203
 10
-183.2538262881
 20
-229.5409102025
 10
-183.22118331
 20
-229.5639365738
 10
-183.1895325859
 20
-229.5884326119
 10
-183.1589663944
 20
-229.6143649092
 10
-183.1294798279
 20
-229.6417668731
 10
-183.1011107754
 20
-229.6706385037
  0
LWPOLYLINE
  5
273
100
AcDbEntity
  8
IMPORT_IGES
100
AcDbPolyline
 62
7
  6
CONTINUOUS
 90
46
 70
0
 10
186.0071068317
 20
-231.0964312562
 10
186.0135003753
 20
-231.0965725335
 10
186.0198663547
 20
-231.0970354683
 10
186.0262033543
 20
-231.0978200607
 10
186.0325070369
 20
-231.0989207248
 10
186.0387789218
 20
-231.1003430464
 10
186.045026094
 20
-231.102103783
 10
186.0512480599
 20
-231.1041998233
 10
186.0574417778
 20
-231.1066342784
 10
186.0636100629
 20
-231.1094332399
 10
186.0697514581
 20
-231.1125939266
 10
186.0758634498
 20
-231.1161191197
 10
186.0819469713
 20
-231.1200432536
 10
186.0880011649
 20
-231.1243638703
 10
186.0940225184
 20
-231.1290834279
 10
186.1000078705
 20
-231.1342437356
 10
186.1059565787
 20
-231.1398430425
 10
186.1118648076
 20
-231.1458830994
 10
186.1177248345
 20
-231.1524109678
 10
186.1235372324
 20
-231.1594271462
 10
186.1292972314
 20
-231.1669311361
 10
186.1349898866
 20
-231.174968504
 10
186.1406166265
 20
-231.1835412547
 10
186.1461729109
 20
-231.1926473834
 10
186.1516364609
 20
-231.2023264418
 10
186.1570121123
 20
-231.2125885607
 10
186.1622939145
 20
-231.2234236093
 10
186.1674463388
 20
-231.2348407465
 10
186.1724717638
 20
-231.2468448051
 10
186.1773706925
 20
-231.2594309524
 10
186.1821087097
 20
-231.2725938496
 10
186.1866917498
 20
-231.2863464997
 10
186.191120779
 20
-231.3006758998
 10
186.1953583046
 20
-231.3155377025
 10
186.1994093263
 20
-231.3309393728
 10
186.2032802988
 20
-231.3468734456
 10
186.2069402305
 20
-231.363273179
 10
186.2103958749
 20
-231.380149862
 10
186.2136551441
 20
-231.3974922056
 10
186.2166923064
 20
-231.4151996001
 10
186.2195129963
 20
-231.4332739566
 10
186.2221279396
 20
-231.4517133641
 10
186.2245213333
 20
-231.4704114796
 10
186.2266935841
 20
-231.4893328552
 10
186.228660042
 20
-231.5085129388
 10
186.2304275815
 20
-231.5279517303
  0
LWPOLYLINE
  5
274
100
AcDbEntity
  8
IMPORT_IGES
100
AcDbPolyline
 62
7
  6
CONTINUOUS
 90
51
 70
0
 10
-183.1996252
 20
-230.8284906018
 10
-183.1876984827
 20
-230.8267122577
 10
-183.1756730974
 20
-230.824744976
 10
-183.1635490441
 20
-230.82258471
 10
-183.151324063
 20
-230.8202333771
 10
-183.1390004139
 20
-230.8176800288
 10
-183.1265848758
 20
-230.8149002517
 10
-183.1140730212
 20
-230.8118879555
 10
-183.1014692777
 20
-230.8086367037
 10
-183.088793707
 20
-230.8051197306
 10
-183.0760409358
 20
-230.8013280164
 10
-183.0632163374
 20
-230.7972539666
 10
-183.050356093
 20
-230.7928708759
 10
-183.037450249
 20
-230.7881646403
 10
-183.024508759
 20
-230.7831281764
 10
-183.0115976658
 20
-230.7777435243
 10
-182.9987121614
 20
-230.7719945601
 10
-182.9858570538
 20
-230.7658723323
 10
-182.9731128096
 20
-230.7593687836
 10
-182.9604777262
 20
-230.7524663767
 10
-182.9479535063
 20
-230.7451549387
 10
-182.9356257241
 20
-230.7374378818
 10
-182.9234963012
 20
-230.7292978299
 10
-182.9115633161
 20
-230.7207236572
 10
-182.8999065784
 20
-230.7117300283
 10
-182.8885278028
 20
-230.7022995106
 10
-182.8774252746
 20
-230.692422198
 10
-182.8666736597
 20
-230.6821275275
 10
-182.8562740365
 20
-230.6713975034
 10
-182.8462253265
 20
-230.6602262329
 10
-182.8365989603
 20
-230.6486669123
 10
-182.8274038085
 20
-230.6367134433
 10
-182.8186310005
 20
-230.624354955
 10
-182.8103253544
 20
-230.6116441188
 10
-182.8024970092
 20
-230.5985870013
 10
-182.7951358259
 20
-230.5851674253
 10
-182.7882562063
 20
-230.5714094005
 10
-182.7818574601
 20
-230.5573053529
 10
-182.7759402776
 20
-230.5428555697
 10
-182.7705211313
 20
-230.5280994395
 10
-182.7656010363
 20
-230.5130294073
 10
-182.7611789775
 20
-230.497650222
 10
-182.7572683819
 20
-230.4820247159
 10
-182.7538744959
 20
-230.466169016
 10
-182.7509920732
 20
-230.4500708783
 10
-182.7486188018
 20
-230.4337544181
 10
-182.7467539678
 20
-230.4172337348
 10
-182.7453982851
 20
-230.4005005591
 10
-182.7445515838
 20
-230.383545966
 10
-182.7442141026
 20
-230.3663652385
 10
-182.744207361
 20
-230.3635150483
  0
LWPOLYLINE
  5
275
100
AcDbEntity
  8
IMPORT_IGES
100
AcDbPolyline
 62
7
  6
CONTINUOUS
 90
46
 70
0
 10
-186.2279355709
 20
-231.5304339267
 10
-186.2084660644
 20
-231.5286648363
 10
-186.1892135109
 20
-231.5266869567
 10
-186.1701779104
 20
-231.5244929883
 10
-186.1513134342
 20
-231.5220655242
 10
-186.1326659109
 20
-231.5194051061
 10
-186.1143728269
 20
-231.5165317654
 10
-186.096437183
 20
-231.5134342386
 10
-186.0788559784
 20
-231.510106563
 10
-186.0617576959
 20
-231.5065795385
 10
-186.0451583105
 20
-231.5028452885
 10
-186.0290418472
 20
-231.4988967331
 10
-186.0134888652
 20
-231.4947700339
 10
-185.9985106685
 20
-231.4904595941
 10
-185.9840959531
 20
-231.4859599748
 10
-185.9702913655
 20
-231.4813124526
 10
-185.957116074
 20
-231.4765190117
 10
-185.9445509104
 20
-231.4715717612
 10
-185.9325850164
 20
-231.4665015612
 10
-185.9212235197
 20
-231.4613094761
 10
-185.9104612925
 20
-231.4559921188
 10
-185.9002720939
 20
-231.4505769672
 10
-185.8906540979
 20
-231.4450623124
 10
-185.8816091305
 20
-231.4394504062
 10
-185.8731164277
 20
-231.4337778686
 10
-185.8651810776
 20
-231.4280477345
 10
-185.8577979923
 20
-231.4222610553
 10
-185.8509311437
 20
-231.4164547078
 10
-185.8445958093
 20
-231.4106475305
 10
-185.8387767117
 20
-231.4048279749
 10
-185.8333919908
 20
-231.3989883304
 10
-185.828436546
 20
-231.3931372696
 10
-185.8239154779
 20
-231.3872718946
 10
-185.8197622277
 20
-231.3813655578
 10
-185.8159639772
 20
-231.3754130107
 10
-185.8125335446
 20
-231.3694226338
 10
-185.8094428262
 20
-231.3633868167
 10
-185.8066869092
 20
-231.357304552
 10
-185.8042707064
 20
-231.3511793933
 10
-185.8021808526
 20
-231.3450101681
 10
-185.800414558
 20
-231.3387980965
 10
-185.7989746125
 20
-231.3325443503
 10
-185.7978560204
 20
-231.3262475183
 10
-185.7970571164
 20
-231.3199078278
 10
-185.7965795659
 20
-231.3135272302
 10
-185.7964233688
 20
-231.3071068137
  0
LINE
  5
276
100
AcDbEntity
  8
IMPORT_IGES
100
AcDbLine
 62
250
  6
CONTINUOUS
 10
-161.5
 20
-207.5027566879
 11
-160.3167840434
 21
-207.5027566879
  0
LWPOLYLINE
  5
277
100
AcDbEntity
  8
IMPORT_IGES
100
AcDbPolyline
 62
7
  6
CONTINUOUS
 90
46
 70
0
 10
186.2279320612
 20
-231.5304335177
 10
186.2086329027
 20
-231.5286812013
 10
186.189543283
 20
-231.5267231139
 10
186.1706632021
 20
-231.5245521267
 10
186.1519471679
 20
-231.5221512252
 10
186.1334406726
 20
-231.519520962
 10
186.1152801918
 20
-231.5166809478
 10
186.0974684323
 20
-231.5136200828
 10
186.0800026874
 20
-231.5103326319
 10
186.0630113126
 20
-231.5068489904
 10
186.0465105466
 20
-231.5031615222
 10
186.0304841508
 20
-231.4992632421
 10
186.0150117641
 20
-231.4951895725
 10
186.0001056979
 20
-231.4909355022
 10
185.9857536408
 20
-231.48649523
 10
185.9719982987
 20
-231.481907645
 10
185.9588549089
 20
-231.4771731283
 10
185.946308234
 20
-231.4722852182
 10
185.9343552685
 20
-231.467276879
 10
185.9230014756
 20
-231.4621485732
 10
185.9122413921
 20
-231.4568975746
 10
185.9020556224
 20
-231.4515556683
 10
185.8924540666
 20
-231.4461295805
 10
185.8834268247
 20
-231.4406138787
 10
185.8749248008
 20
-231.4350245124
 10
185.8669481641
 20
-231.429365503
 10
185.8594967455
 20
-231.4236354767
 10
185.8525209424
 20
-231.4178433488
 10
185.8460191175
 20
-231.4119914525
 10
185.8399929082
 20
-231.4060806724
 10
185.8343976242
 20
-231.4001183033
 10
185.8292298299
 20
-231.3941051485
 10
185.8244929609
 20
-231.3880439635
 10
185.8201526344
 20
-231.3819455204
 10
185.8162074389
 20
-231.3758136712
 10
185.8126587857
 20
-231.369648746
 10
185.8094765259
 20
-231.3634566701
 10
185.8066583224
 20
-231.3572383125
 10
185.8042065123
 20
-231.3509970192
 10
185.8020979573
 20
-231.3447427764
 10
185.8003317588
 20
-231.3384798729
 10
185.7989088155
 20
-231.3322086087
 10
185.797808685
 20
-231.325933245
 10
185.7970245533
 20
-231.3196567064
 10
185.7965632345
 20
-231.3133805138
 10
185.7964247285
 20
-231.3071068229
  0
LWPOLYLINE
  5
278
100
AcDbEntity
  8
IMPORT_IGES
100
AcDbPolyline
 62
7
  6
CONTINUOUS
 90
6
 70
0
 10
184.3405430755
 20
-229.8836546808
 10
184.3042036442
 20
-229.8792096792
 10
184.2698522767
 20
-229.8742507439
 10
184.2374889732
 20
-229.8687424278
 10
184.2071345925
 20
-229.8625805311
 10
184.1787682756
 20
-229.8557869317
  0
LWPOLYLINE
  5
279
100
AcDbEntity
  8
IMPORT_IGES
100
AcDbPolyline
 62
7
  6
CONTINUOUS
 90
13
 70
0
 10
-185.7964233688
 20
-231.3071068137
 10
-185.7966709252
 20
-231.2969264348
 10
-185.7978765972
 20
-231.2863013788
 10
-185.8000403848
 20
-231.2752212612
 10
-185.8031773891
 20
-231.2635506347
 10
-185.8072725089
 20
-231.2514009334
 10
-185.8122804411
 20
-231.2391481601
 10
-185.8181438331
 20
-231.2269614119
 10
-185.8249200375
 20
-231.2146872756
 10
-185.8327358086
 20
-231.202230054
 10
-185.8416333979
 20
-231.1895575153
 10
-185.8515705539
 20
-231.176705008
 10
-185.8625472766
 20
-231.1636746259
  0
LWPOLYLINE
  5
27A
100
AcDbEntity
  8
IMPORT_IGES
100
AcDbPolyline
 62
7
  6
CONTINUOUS
 90
36
 70
0
 10
-182.744207361
 20
-230.3635150483
 10
-182.7443856027
 20
-230.3489677267
 10
-182.7450651976
 20
-230.3313655554
 10
-182.7462508927
 20
-230.3135742963
 10
-182.7479446827
 20
-230.2955843582
 10
-182.7501516653
 20
-230.2773695394
 10
-182.7528714409
 20
-230.2589115994
 10
-182.756104409
 20
-230.2402323249
 10
-182.7598568664
 20
-230.2213656522
 10
-182.7641353531
 20
-230.2022960373
 10
-182.7689333291
 20
-230.1830448466
 10
-182.7742374702
 20
-230.1637049925
 10
-182.780050381
 20
-230.1442884607
 10
-182.786369457
 20
-230.1247946072
 10
-182.7931735596
 20
-230.1053017973
 10
-182.800464217
 20
-230.0858218445
 10
-182.8082399009
 20
-230.0663573563
 10
-182.8164748884
 20
-230.0469760094
 10
-182.825178989
 20
-230.027673779
 10
-182.834342393
 20
-230.0084705404
 10
-182.8439099484
 20
-229.9894730206
 10
-182.8538918344
 20
-229.9706866227
 10
-182.8642778718
 20
-229.9521243516
 10
-182.8749823709
 20
-229.9339080278
 10
-182.8860031069
 20
-229.9160646203
 10
-182.8973423046
 20
-229.8985874721
 10
-182.9089209486
 20
-229.8815503874
 10
-182.9207367936
 20
-229.8649742985
 10
-182.9327920849
 20
-229.8488574657
 10
-182.9450145436
 20
-229.8332403592
 10
-182.9574079668
 20
-229.8181334635
 10
-182.9699685574
 20
-229.8035430857
 10
-182.9826126448
 20
-229.7895033924
 10
-182.9953123389
 20
-229.7760306858
 10
-183.0080955299
 20
-229.7631230864
 10
-183.0209622178
 20
-229.7507870612
  0
LWPOLYLINE
  5
27B
100
AcDbEntity
  8
IMPORT_IGES
100
AcDbPolyline
 62
7
  6
CONTINUOUS
 90
51
 70
0
 10
-182.744207356
 20
230.3635150484
 10
-182.7442142335
 20
230.3663934634
 10
-182.7445525566
 20
230.3835738616
 10
-182.7454001719
 20
230.4005286093
 10
-182.7467567797
 20
230.4172620783
 10
-182.7486223971
 20
230.43378229
 10
-182.750996312
 20
230.4500971984
 10
-182.7538792365
 20
230.46619309
 10
-182.7572733238
 20
230.4820460286
 10
-182.7611838556
 20
230.4976683987
 10
-182.7656055502
 20
230.5130439813
 10
-182.7705247149
 20
230.5281097757
 10
-182.7759422699
 20
230.5428608409
 10
-182.781857295
 20
230.5573050022
 10
-182.7882533368
 20
230.5714033799
 10
-182.7951294633
 20
230.5851554572
 10
-182.8024866065
 20
230.5985690686
 10
-182.8103111094
 20
230.6116213628
 10
-182.8186132
 20
230.6243287939
 10
-182.8273826503
 20
230.6366849087
 10
-182.8365751186
 20
230.6486371307
 10
-182.8461997108
 20
230.6601965251
 10
-182.8562473211
 20
230.6713688741
 10
-182.8666462906
 20
230.6821003359
 10
-182.8773976914
 20
230.6923966916
 10
-182.8885004515
 20
230.702276011
 10
-182.899879696
 20
230.7117085411
 10
-182.9115371362
 20
230.7207041422
 10
-182.9234710608
 20
230.7292802903
 10
-182.9356014608
 20
230.7374221651
 10
-182.947930197
 20
230.7451408466
 10
-182.9604554086
 20
230.752453772
 10
-182.9730915035
 20
230.7593575424
 10
-182.9858367643
 20
230.7658623308
 10
-182.9986929083
 20
230.771985686
 10
-183.0115794958
 20
230.7777356932
 10
-183.0244917378
 20
230.7831213171
 10
-183.0374344233
 20
230.7881586763
 10
-183.0503414803
 20
230.7928657294
 10
-183.0632029487
 20
230.7972495609
 10
-183.0760287887
 20
230.8013242813
 10
-183.0887828074
 20
230.8051166028
 10
-183.1014596373
 20
230.808634124
 10
-183.114064646
 20
230.8118858661
 10
-183.1265777445
 20
230.8148985976
 10
-183.1389944895
 20
230.8176787539
 10
-183.1513193242
 20
230.8202324308
 10
-183.1635454886
 20
230.8225840532
 10
-183.1756707294
 20
230.8247445742
 10
-183.1876972999
 20
230.8267120744
 10
-183.1996252
 20
230.8284906019
  0
LINE
  5
27C
100
AcDbEntity
  8
IMPORT_IGES
100
AcDbLine
 62
7
  6
CONTINUOUS
 10
-187.5
 20
-231.598
 11
-187.5
 21
231.598
  0
LINE
  5
27D
100
AcDbEntity
  8
IMPORT_IGES
100
AcDbLine
 62
7
  6
CONTINUOUS
 10
-186.3
 20
231.598
 11
-186.3
 21
-231.598
  0
LINE
  5
27E
100
AcDbEntity
  8
IMPORT_IGES
100
AcDbLine
 62
7
  6
CONTINUOUS
 10
-186.298
 20
232.8
 11
-186.298
 21
231.6
  0
LINE
  5
27F
100
AcDbEntity
  8
IMPORT_IGES
100
AcDbLine
 62
7
  6
CONTINUOUS
 10
-186.298
 20
-232.8
 11
-186.298
 21
-231.6
  0
LINE
  5
280
100
AcDbEntity
  8
IMPORT_IGES
100
AcDbLine
 62
250
  6
CONTINUOUS
 10
-185.3
 20
230.6
 11
-185.3
 21
-230.6
  0
LINE
  5
281
100
AcDbEntity
  8
IMPORT_IGES
100
AcDbLine
 62
7
  6
CONTINUOUS
 10
-184.2996252
 20
229.8493014859
 11
-184.2996252
 21
-229.8493014859
  0
LINE
  5
282
100
AcDbEntity
  8
IMPORT_IGES
100
AcDbLine
 62
7
  6
CONTINUOUS
 10
-184.2996252
 20
-229.9493014859
 11
-184.2996252
 21
-230.9493014859
  0
LINE
  5
283
100
AcDbEntity
  8
IMPORT_IGES
100
AcDbLine
 62
7
  6
CONTINUOUS
 10
-184.2996252
 20
229.9493014859
 11
-184.2996252
 21
230.9493014859
  0
LINE
  5
284
100
AcDbEntity
  8
IMPORT_IGES
100
AcDbLine
 62
7
  6
CONTINUOUS
 10
-183.1996252
 20
-230.9493014859
 11
-183.1996252
 21
-229.9493014859
  0
LINE
  5
285
100
AcDbEntity
  8
IMPORT_IGES
100
AcDbLine
 62
7
  6
CONTINUOUS
 10
-183.1996252
 20
229.9493014859
 11
-183.1996252
 21
230.9493014859
  0
LINE
  5
286
100
AcDbEntity
  8
IMPORT_IGES
100
AcDbLine
 62
250
  6
CONTINUOUS
 10
-182.2996252
 20
-228.9493014859
 11
-182.2996252
 21
228.9493014859
  0
LWPOLYLINE
  5
287
100
AcDbEntity
  8
IMPORT_IGES
100
AcDbPolyline
 62
7
  6
CONTINUOUS
 90
13
 70
0
 10
-185.7964231139
 20
231.3071067057
 10
-185.7966915288
 20
231.2968860909
 10
-185.7979115077
 20
231.2862263864
 10
-185.8000830527
 20
231.2751175745
 10
-185.8032165994
 20
231.2634229248
 10
-185.8073017122
 20
231.2512556746
 10
-185.8123070841
 20
231.2389969497
 10
-185.8181872745
 20
231.2268211981
 10
-185.824987724
 20
231.2145707198
 10
-185.8328134475
 20
231.202140306
 10
-185.8416994499
 20
231.1894944451
 10
-185.8516107263
 20
231.1766718315
 10
-185.8625472766
 20
231.1636746259
  0
LWPOLYLINE
  5
288
100
AcDbEntity
  8
IMPORT_IGES
100
AcDbPolyline
 62
7
  6
CONTINUOUS
 90
6
 70
0
 10
-182.9792783165
 20
-229.8559170617
 10
-183.0077681158
 20
-229.8627155098
 10
-183.0381392082
 20
-229.8688646826
 10
-183.0703925376
 20
-229.874346126
 10
-183.1045271601
 20
-229.8792638638
 10
-183.1405430755
 20
-229.8836546808
  0
LINE
  5
289
100
AcDbEntity
  8
IMPORT_IGES
100
AcDbLine
 62
7
  6
CONTINUOUS
 10
187.5
 20
-188.9503679044
 11
186.3
 21
-188.9503679044
  0
LINE
  5
28A
100
AcDbEntity
  8
IMPORT_IGES
100
AcDbLine
 62
7
  6
CONTINUOUS
 10
185.4996252
 20
-188.7503679044
 11
187.5
 21
-188.7503679044
  0
LINE
  5
28B
100
AcDbEntity
  8
IMPORT_IGES
100
AcDbLine
 62
7
  6
CONTINUOUS
 10
-103.0614610313
 20
-188.3027566879
 11
-93.3730039823
 21
-188.3027566879
  0
LINE
  5
28C
100
AcDbEntity
  8
IMPORT_IGES
100
AcDbLine
 62
7
  6
CONTINUOUS
 10
173.9996252
 20
-180.9473014859
 11
175.9996252
 21
-180.9473014859
  0
LINE
  5
28D
100
AcDbEntity
  8
IMPORT_IGES
100
AcDbLine
 62
7
  6
CONTINUOUS
 10
173.9996252
 20
-179.9493014859
 11
153.9996252
 21
-179.9493014859
  0
LINE
  5
28E
100
AcDbEntity
  8
IMPORT_IGES
100
AcDbLine
 62
7
  6
CONTINUOUS
 10
175.9996252
 20
-179.9473014859
 11
173.9996252
 21
-179.9473014859
  0
LINE
  5
28F
100
AcDbEntity
  8
IMPORT_IGES
100
AcDbLine
 62
7
  6
CONTINUOUS
 10
-167.717247845
 20
123.8323854849
 11
-167.717247845
 21
111.8324094849
  0
LINE
  5
290
100
AcDbEntity
  8
IMPORT_IGES
100
AcDbLine
 62
7
  6
CONTINUOUS
 10
-164.717253845
 20
117.8323974849
 11
-164.717253845
 21
120.8323914849
  0
LINE
  5
291
100
AcDbEntity
  8
IMPORT_IGES
100
AcDbLine
 62
7
  6
CONTINUOUS
 10
-163.217256845
 20
111.8324094849
 11
-163.217256845
 21
117.8323974849
  0
LINE
  5
292
100
AcDbEntity
  8
IMPORT_IGES
100
AcDbLine
 62
7
  6
CONTINUOUS
 10
-161.5
 20
-207.5027566879
 11
-161.5
 21
-204.2999897008
  0
LINE
  5
293
100
AcDbEntity
  8
IMPORT_IGES
100
AcDbLine
 62
250
  6
CONTINUOUS
 10
-160.3167840434
 20
-207.5027566879
 11
-160.3167840434
 21
-203.394734428
  0
LINE
  5
294
100
AcDbEntity
  8
IMPORT_IGES
100
AcDbLine
 62
7
  6
CONTINUOUS
 10
-160.217262845
 20
117.8323974849
 11
-160.217262845
 21
111.8324094849
  0
LINE
  5
295
100
AcDbEntity
  8
IMPORT_IGES
100
AcDbLine
 62
7
  6
CONTINUOUS
 10
-159.0408161266
 20
-68.1445063823
 11
-159.0408161266
 21
-56.1445303823
  0
LINE
  5
296
100
AcDbEntity
  8
IMPORT_IGES
100
AcDbLine
 62
7
  6
CONTINUOUS
 10
-159.0408161266
 20
-1.0932842318
 11
-159.0408161266
 21
-13.0932602318
  0
LINE
  5
297
100
AcDbEntity
  8
IMPORT_IGES
100
AcDbLine
 62
7
  6
CONTINUOUS
 10
-158.717265845
 20
120.8323914849
 11
-158.717265845
 21
117.8323974849
  0
LWPOLYLINE
  5
298
100
AcDbEntity
  8
IMPORT_IGES
100
AcDbPolyline
 62
7
  6
CONTINUOUS
 90
3
 70
0
 10
184.1368541461
 20
229.8436672137
 10
184.1527709964
 20
229.8486646782
 10
184.1793245267
 20
229.8559298633
  0
LINE
  5
299
100
AcDbEntity
  8
IMPORT_IGES
100
AcDbLine
 62
7
  6
CONTINUOUS
 10
173.9996252
 20
-159.9513014859
 11
175.9996252
 21
-159.9513014859
  0
LINE
  5
29A
100
AcDbEntity
  8
IMPORT_IGES
100
AcDbLine
 62
7
  6
CONTINUOUS
 10
153.9996252
 20
-159.9493014859
 11
173.9996252
 21
-159.9493014859
  0
LINE
  5
29B
100
AcDbEntity
  8
IMPORT_IGES
100
AcDbLine
 62
7
  6
CONTINUOUS
 10
173.9996252
 20
-158.9513014859
 11
175.9996252
 21
-158.9513014859
  0
LINE
  5
29C
100
AcDbEntity
  8
IMPORT_IGES
100
AcDbLine
 62
7
  6
CONTINUOUS
 10
187.5
 20
-158.7545585207
 11
185.4996252
 21
-158.7545585207
  0
LINE
  5
29D
100
AcDbEntity
  8
IMPORT_IGES
100
AcDbLine
 62
7
  6
CONTINUOUS
 10
187.5
 20
-158.5545585207
 11
186.3
 21
-158.5545585207
  0
LWPOLYLINE
  5
29E
100
AcDbEntity
  8
IMPORT_IGES
100
AcDbPolyline
 62
7
  6
CONTINUOUS
 90
3
 70
0
 10
184.1787682756
 20
-229.8557869317
 10
184.1523274462
 20
-229.8485339283
 10
184.1368537713
 20
-229.8436676758
  0
LINE
  5
29F
100
AcDbEntity
  8
IMPORT_IGES
100
AcDbLine
 62
7
  6
CONTINUOUS
 10
-156.0408221266
 20
-7.0932722318
 11
-156.0408221266
 21
-4.0932782318
  0
LINE
  5
2A0
100
AcDbEntity
  8
IMPORT_IGES
100
AcDbLine
 62
7
  6
CONTINUOUS
 10
-156.0408221266
 20
-62.1445183823
 11
-156.0408221266
 21
-65.1445123823
  0
LINE
  5
2A1
100
AcDbEntity
  8
IMPORT_IGES
100
AcDbLine
 62
7
  6
CONTINUOUS
 10
-155.717271845
 20
111.8324094849
 11
-155.717271845
 21
123.8323854849
  0
LINE
  5
2A2
100
AcDbEntity
  8
IMPORT_IGES
100
AcDbLine
 62
7
  6
CONTINUOUS
 10
-154.5408251266
 20
-13.0932602318
 11
-154.5408251266
 21
-7.0932722318
  0
LINE
  5
2A3
100
AcDbEntity
  8
IMPORT_IGES
100
AcDbLine
 62
7
  6
CONTINUOUS
 10
-154.5408251266
 20
-56.1445303823
 11
-154.5408251266
 21
-62.1445183823
  0
LINE
  5
2A4
100
AcDbEntity
  8
IMPORT_IGES
100
AcDbLine
 62
7
  6
CONTINUOUS
 10
-151.5408311266
 20
-62.1445183823
 11
-151.5408311266
 21
-56.1445303823
  0
LINE
  5
2A5
100
AcDbEntity
  8
IMPORT_IGES
100
AcDbLine
 62
7
  6
CONTINUOUS
 10
-151.5408311266
 20
-7.0932722318
 11
-151.5408311266
 21
-13.0932602318
  0
LINE
  5
2A6
100
AcDbEntity
  8
IMPORT_IGES
100
AcDbLine
 62
7
  6
CONTINUOUS
 10
-150.0408341266
 20
-65.1445123823
 11
-150.0408341266
 21
-62.1445183823
  0
LINE
  5
2A7
100
AcDbEntity
  8
IMPORT_IGES
100
AcDbLine
 62
7
  6
CONTINUOUS
 10
-150.0408341266
 20
-4.0932782318
 11
-150.0408341266
 21
-7.0932722318
  0
LINE
  5
2A8
100
AcDbEntity
  8
IMPORT_IGES
100
AcDbLine
 62
7
  6
CONTINUOUS
 10
-147.0408401266
 20
-13.0932602318
 11
-147.0408401266
 21
-1.0932842318
  0
LINE
  5
2A9
100
AcDbEntity
  8
IMPORT_IGES
100
AcDbLine
 62
7
  6
CONTINUOUS
 10
-147.0408401266
 20
-56.1445303823
 11
-147.0408401266
 21
-68.1445063823
  0
LINE
  5
2AA
100
AcDbEntity
  8
IMPORT_IGES
100
AcDbLine
 62
7
  6
CONTINUOUS
 10
-146.7300586303
 20
144.1051104532
 11
-146.7300586303
 21
132.1051344532
  0
LINE
  5
2AB
100
AcDbEntity
  8
IMPORT_IGES
100
AcDbLine
 62
7
  6
CONTINUOUS
 10
-143.7300646303
 20
138.1051224532
 11
-143.7300646303
 21
141.1051164532
  0
LINE
  5
2AC
100
AcDbEntity
  8
IMPORT_IGES
100
AcDbLine
 62
7
  6
CONTINUOUS
 10
-142.2300676303
 20
132.1051344532
 11
-142.2300676303
 21
138.1051224532
  0
LINE
  5
2AD
100
AcDbEntity
  8
IMPORT_IGES
100
AcDbLine
 62
7
  6
CONTINUOUS
 10
-139.2300736303
 20
138.1051224532
 11
-139.2300736303
 21
132.1051344532
  0
LINE
  5
2AE
100
AcDbEntity
  8
IMPORT_IGES
100
AcDbLine
 62
7
  6
CONTINUOUS
 10
-137.7300766303
 20
141.1051164532
 11
-137.7300766303
 21
138.1051224532
  0
LWPOLYLINE
  5
2AF
100
AcDbEntity
  8
IMPORT_IGES
100
AcDbPolyline
 62
7
  6
CONTINUOUS
 90
28
 70
0
 10
-184.1788143159
 20
-229.8493014859
 10
-184.1753226708
 20
-229.8262145876
 10
-184.1711131578
 20
-229.8029083872
 10
-184.1661537879
 20
-229.779382885
 10
-184.160424841
 20
-229.7555099956
 10
-184.1538682041
 20
-229.7314178043
 10
-184.1463836053
 20
-229.7074905662
 10
-184.1378835558
 20
-229.6837336521
 10
-184.1283381561
 20
-229.6601416912
 10
-184.1177256769
 20
-229.6370828261
 10
-184.1059428151
 20
-229.6145791586
 10
-184.0929531646
 20
-229.5926085868
 10
-184.0788470833
 20
-229.5714729473
 10
-184.0635793136
 20
-229.5512124155
 10
-184.0470688146
 20
-229.531786816
 10
-184.0293750763
 20
-229.51337746
 10
-184.0104657431
 20
-229.4959646307
 10
-183.9902617278
 20
-229.4795680448
 10
-183.968768239
 20
-229.4644281638
 10
-183.9459240699
 20
-229.4505482541
 10
-183.9216860647
 20
-229.4379250494
 10
-183.8961005399
 20
-229.4267892124
 10
-183.8691054678
 20
-229.4171520938
 10
-183.840677472
 20
-229.409002343
 10
-183.810944024
 20
-229.4025365704
 10
-183.7799367842
 20
-229.3978203127
 10
-183.7475767042
 20
-229.3947880332
 10
-183.7138408159
 20
-229.3934397318
  0
LINE
  5
2B0
100
AcDbEntity
  8
IMPORT_IGES
100
AcDbLine
 62
7
  6
CONTINUOUS
 10
-104.2171778214
 20
-143.5646392291
 11
-92.2172018214
 21
-143.5646392291
  0
LINE
  5
2B1
100
AcDbEntity
  8
IMPORT_IGES
100
AcDbLine
 62
7
  6
CONTINUOUS
 10
-95.2171958214
 20
-140.5646452291
 11
-98.2171898214
 21
-140.5646452291
  0
LINE
  5
2B2
100
AcDbEntity
  8
IMPORT_IGES
100
AcDbLine
 62
7
  6
CONTINUOUS
 10
-98.2171898214
 20
-139.0646482291
 11
-104.2171778214
 21
-139.0646482291
  0
LWPOLYLINE
  5
2B3
100
AcDbEntity
  8
IMPORT_IGES
100
AcDbPolyline
 62
7
  6
CONTINUOUS
 90
49
 70
0
 10
-184.1788143159
 20
229.8493014859
 10
-184.1769857775
 20
229.8370496379
 10
-184.1749575757
 20
229.8246949276
 10
-184.1727253049
 20
229.812237355
 10
-184.1702912384
 20
229.7996752362
 10
-184.1676432518
 20
229.787010255
 10
-184.1647541291
 20
229.7742474627
 10
-184.1616167301
 20
229.7613802356
 10
-184.1582243696
 20
229.7484151974
 10
-184.1545484518
 20
229.73537727
 10
-184.1505788478
 20
229.7222605706
 10
-184.1463073044
 20
229.709070982
 10
-184.1417057654
 20
229.6958510744
 10
-184.136758728
 20
229.6825907126
 10
-184.1314582766
 20
229.6693000319
 10
-184.1257858296
 20
229.6560520089
 10
-184.1197230894
 20
229.6428408853
 10
-184.1132606954
 20
229.6296724193
 10
-184.1063927276
 20
229.6166368623
 10
-184.0991012183
 20
229.6037348149
 10
-184.0913739877
 20
229.5909656765
 10
-184.0832144471
 20
229.578417897
 10
-184.0746024914
 20
229.5660920121
 10
-184.065527233
 20
229.553987486
 10
-184.0560082342
 20
229.5421911619
 10
-184.0460268198
 20
229.5307053017
 10
-184.0355725833
 20
229.5195276435
 10
-184.0246818467
 20
229.5087382442
 10
-184.0133340312
 20
229.4983380097
 10
-184.0015250641
 20
229.4883260342
 10
-183.989323052
 20
229.4787796564
 10
-183.9767312778
 20
229.4697139083
 10
-183.9637310947
 20
229.461113758
 10
-183.9503647573
 20
229.4530114483
 10
-183.9366351754
 20
229.4454133099
 10
-183.922529566
 20
229.4383130121
 10
-183.9080707823
 20
229.4317238057
 10
-183.8932417564
 20
229.4256424517
 10
-183.878052278
 20
229.4200721892
 10
-183.8625704101
 20
229.4150359859
 10
-183.8467916205
 20
229.4105389153
 10
-183.8307207706
 20
229.4065759039
 10
-183.8144474835
 20
229.403154699
 10
-183.7979768328
 20
229.4002972528
 10
-183.7813124052
 20
229.3979816132
 10
-183.7645492741
 20
229.3961496707
 10
-183.747725995
 20
229.3947820557
 10
-183.7308204737
 20
229.3938981379
 10
-183.7138405454
 20
229.3934979192
  0
LWPOLYLINE
  5
2B4
100
AcDbEntity
  8
IMPORT_IGES
100
AcDbPolyline
 62
7
  6
CONTINUOUS
 90
6
 70
0
 10
-183.233978395
 20
229.7902193613
 10
-183.2297603988
 20
229.7551322429
 10
-183.2249338602
 20
229.7214706429
 10
-183.21945377
 20
229.6892345613
 10
-183.2131975121
 20
229.6582875275
 10
-183.2061805007
 20
229.628766012
  0
LINE
  5
2B5
100
AcDbEntity
  8
IMPORT_IGES
100
AcDbLine
 62
7
  6
CONTINUOUS
 10
-134.7300826303
 20
132.1051344532
 11
-134.7300826303
 21
144.1051104532
  0
LINE
  5
2B6
100
AcDbEntity
  8
IMPORT_IGES
100
AcDbLine
 62
250
  6
CONTINUOUS
 10
-125.9439180576
 20
191.1038351659
 11
-125.9439180576
 21
184.1038571659
  0
LINE
  5
2B7
100
AcDbEntity
  8
IMPORT_IGES
100
AcDbLine
 62
7
  6
CONTINUOUS
 10
-125.9439180576
 20
183.1038571659
 11
-125.9439180576
 21
184.1038571659
  0
LINE
  5
2B8
100
AcDbEntity
  8
IMPORT_IGES
100
AcDbLine
 62
7
  6
CONTINUOUS
 10
-125.9439180576
 20
191.1038351659
 11
-125.9439180576
 21
192.1038351659
  0
LINE
  5
2B9
100
AcDbEntity
  8
IMPORT_IGES
100
AcDbLine
 62
7
  6
CONTINUOUS
 10
-124.9419180576
 20
193.1038351659
 11
-124.9419180576
 21
192.1038351659
  0
LINE
  5
2BA
100
AcDbEntity
  8
IMPORT_IGES
100
AcDbLine
 62
7
  6
CONTINUOUS
 10
-124.9419180576
 20
183.1038571659
 11
-124.9419180576
 21
182.1038571659
  0
LINE
  5
2BB
100
AcDbEntity
  8
IMPORT_IGES
100
AcDbLine
 62
7
  6
CONTINUOUS
 10
-124.9419180576
 20
184.1038571659
 11
-124.9419180576
 21
191.1038351659
  0
LINE
  5
2BC
100
AcDbEntity
  8
IMPORT_IGES
100
AcDbLine
 62
7
  6
CONTINUOUS
 10
-124.8512548123
 20
-68.1445063823
 11
-124.8512548123
 21
-56.1445303823
  0
LINE
  5
2BD
100
AcDbEntity
  8
IMPORT_IGES
100
AcDbLine
 62
7
  6
CONTINUOUS
 10
-124.8512548123
 20
-1.0932842318
 11
-124.8512548123
 21
-13.0932602318
  0
LINE
  5
2BE
100
AcDbEntity
  8
IMPORT_IGES
100
AcDbLine
 62
7
  6
CONTINUOUS
 10
-121.8512608123
 20
-7.0932722318
 11
-121.8512608123
 21
-4.0932782318
  0
LINE
  5
2BF
100
AcDbEntity
  8
IMPORT_IGES
100
AcDbLine
 62
7
  6
CONTINUOUS
 10
-121.8512608123
 20
-62.1445183823
 11
-121.8512608123
 21
-65.1445123823
  0
LINE
  5
2C0
100
AcDbEntity
  8
IMPORT_IGES
100
AcDbLine
 62
7
  6
CONTINUOUS
 10
-120.3512638123
 20
-13.0932602318
 11
-120.3512638123
 21
-7.0932722318
  0
LINE
  5
2C1
100
AcDbEntity
  8
IMPORT_IGES
100
AcDbLine
 62
7
  6
CONTINUOUS
 10
-120.3512638123
 20
-56.1445303823
 11
-120.3512638123
 21
-62.1445183823
  0
LINE
  5
2C2
100
AcDbEntity
  8
IMPORT_IGES
100
AcDbLine
 62
7
  6
CONTINUOUS
 10
-118.9419180576
 20
184.6038571659
 11
-118.9419180576
 21
190.6038351659
  0
LINE
  5
2C3
100
AcDbEntity
  8
IMPORT_IGES
100
AcDbLine
 62
7
  6
CONTINUOUS
 10
-117.3512698123
 20
-62.1445183823
 11
-117.3512698123
 21
-56.1445303823
  0
LINE
  5
2C4
100
AcDbEntity
  8
IMPORT_IGES
100
AcDbLine
 62
7
  6
CONTINUOUS
 10
-117.3512698123
 20
-7.0932722318
 11
-117.3512698123
 21
-13.0932602318
  0
LWPOLYLINE
  5
2C5
100
AcDbEntity
  8
IMPORT_IGES
100
AcDbPolyline
 62
7
  6
CONTINUOUS
 90
6
 70
0
 10
-183.2061924453
 20
-229.6288126317
 10
-183.2132088975
 20
-229.6583408537
 10
-183.2194635321
 20
-229.6892869643
 10
-183.2249412167
 20
-229.721513208
 10
-183.2297644768
 20
-229.7551573404
 10
-183.233978395
 20
-229.7902193613
  0
LINE
  5
2C6
100
AcDbEntity
  8
IMPORT_IGES
100
AcDbLine
 62
7
  6
CONTINUOUS
 10
-104.2171778214
 20
-136.0646542291
 11
-98.2171898214
 21
-136.0646542291
  0
LINE
  5
2C7
100
AcDbEntity
  8
IMPORT_IGES
100
AcDbLine
 62
7
  6
CONTINUOUS
 10
-98.2171898214
 20
-134.5646572291
 11
-95.2171958214
 21
-134.5646572291
  0
LINE
  5
2C8
100
AcDbEntity
  8
IMPORT_IGES
100
AcDbLine
 62
7
  6
CONTINUOUS
 10
-92.2172018214
 20
-131.5646632291
 11
-104.2171778214
 21
-131.5646632291
  0
LINE
  5
2C9
100
AcDbEntity
  8
IMPORT_IGES
100
AcDbLine
 62
7
  6
CONTINUOUS
 10
-115.8512728123
 20
-65.1445123823
 11
-115.8512728123
 21
-62.1445183823
  0
LINE
  5
2CA
100
AcDbEntity
  8
IMPORT_IGES
100
AcDbLine
 62
7
  6
CONTINUOUS
 10
-115.8512728123
 20
-4.0932782318
 11
-115.8512728123
 21
-7.0932722318
  0
LINE
  5
2CB
100
AcDbEntity
  8
IMPORT_IGES
100
AcDbLine
 62
7
  6
CONTINUOUS
 10
-114.9419380576
 20
184.6038521659
 11
-114.9419380576
 21
190.6038401659
  0
LINE
  5
2CC
100
AcDbEntity
  8
IMPORT_IGES
100
AcDbLine
 62
7
  6
CONTINUOUS
 10
-113.4020603989
 20
217.4468630598
 11
-113.4020603989
 21
205.4468870598
  0
LINE
  5
2CD
100
AcDbEntity
  8
IMPORT_IGES
100
AcDbLine
 62
7
  6
CONTINUOUS
 10
-112.8512788123
 20
-13.0932602318
 11
-112.8512788123
 21
-1.0932842318
  0
LINE
  5
2CE
100
AcDbEntity
  8
IMPORT_IGES
100
AcDbLine
 62
7
  6
CONTINUOUS
 10
-112.8512788123
 20
-56.1445303823
 11
-112.8512788123
 21
-68.1445063823
  0
LINE
  5
2CF
100
AcDbEntity
  8
IMPORT_IGES
100
AcDbLine
 62
7
  6
CONTINUOUS
 10
-110.7171898214
 20
-113.348955599
 11
-110.7171898214
 21
-98.348955599
  0
LINE
  5
2D0
100
AcDbEntity
  8
IMPORT_IGES
100
AcDbLine
 62
7
  6
CONTINUOUS
 10
-110.7171898214
 20
-161.7803468593
 11
-110.7171898214
 21
-176.7803468593
  0
LINE
  5
2D1
100
AcDbEntity
  8
IMPORT_IGES
100
AcDbLine
 62
7
  6
CONTINUOUS
 10
-110.4020663989
 20
208.4468810598
 11
-110.4020663989
 21
214.4468690598
  0
LINE
  5
2D2
100
AcDbEntity
  8
IMPORT_IGES
100
AcDbLine
 62
7
  6
CONTINUOUS
 10
-107.4020723989
 20
214.4468690598
 11
-107.4020723989
 21
212.9468720598
  0
LINE
  5
2D3
100
AcDbEntity
  8
IMPORT_IGES
100
AcDbLine
 62
7
  6
CONTINUOUS
 10
-107.4020723989
 20
209.9468780598
 11
-107.4020723989
 21
208.4468810598
  0
LINE
  5
2D4
100
AcDbEntity
  8
IMPORT_IGES
100
AcDbLine
 62
7
  6
CONTINUOUS
 10
-104.2171778214
 20
-131.5646632291
 11
-104.2171778214
 21
-136.0646542291
  0
LINE
  5
2D5
100
AcDbEntity
  8
IMPORT_IGES
100
AcDbLine
 62
7
  6
CONTINUOUS
 10
-104.2171778214
 20
-139.0646482291
 11
-104.2171778214
 21
-143.5646392291
  0
LINE
  5
2D6
100
AcDbEntity
  8
IMPORT_IGES
100
AcDbLine
 62
7
  6
CONTINUOUS
 10
-101.4020843989
 20
205.4468870598
 11
-101.4020843989
 21
209.9468780598
  0
LINE
  5
2D7
100
AcDbEntity
  8
IMPORT_IGES
100
AcDbLine
 62
7
  6
CONTINUOUS
 10
-101.4020843989
 20
212.9468720598
 11
-101.4020843989
 21
217.4468630598
  0
LINE
  5
2D8
100
AcDbEntity
  8
IMPORT_IGES
100
AcDbLine
 62
7
  6
CONTINUOUS
 10
-98.2171898214
 20
-140.5646452291
 11
-98.2171898214
 21
-139.0646482291
  0
LINE
  5
2D9
100
AcDbEntity
  8
IMPORT_IGES
100
AcDbLine
 62
7
  6
CONTINUOUS
 10
-98.2171898214
 20
-136.0646542291
 11
-98.2171898214
 21
-134.5646572291
  0
LWPOLYLINE
  5
2DA
100
AcDbEntity
  8
IMPORT_IGES
100
AcDbPolyline
 62
7
  6
CONTINUOUS
 90
3
 70
0
 10
-183.1935645285
 20
-229.585312095
 10
-183.1985948704
 20
-229.6011155649
 10
-183.2061924453
 20
-229.6288126317
  0
LWPOLYLINE
  5
2DB
100
AcDbEntity
  8
IMPORT_IGES
100
AcDbPolyline
 62
7
  6
CONTINUOUS
 90
3
 70
0
 10
-183.2061805007
 20
229.628766012
 10
-183.1985841516
 20
229.6010794271
 10
-183.1935914206
 20
229.585395241
  0
LINE
  5
2DC
100
AcDbEntity
  8
IMPORT_IGES
100
AcDbLine
 62
7
  6
CONTINUOUS
 10
-95.2171958214
 20
-134.5646572291
 11
-95.2171958214
 21
-140.5646452291
  0
LINE
  5
2DD
100
AcDbEntity
  8
IMPORT_IGES
100
AcDbLine
 62
7
  6
CONTINUOUS
 10
-92.2172018214
 20
-143.5646392291
 11
-92.2172018214
 21
-131.5646632291
  0
LINE
  5
2DE
100
AcDbEntity
  8
IMPORT_IGES
100
AcDbLine
 62
7
  6
CONTINUOUS
 10
-85.7171898214
 20
-176.7803468593
 11
-85.7171898214
 21
-161.7803468593
  0
LINE
  5
2DF
100
AcDbEntity
  8
IMPORT_IGES
100
AcDbLine
 62
7
  6
CONTINUOUS
 10
-85.7171898214
 20
-98.348955599
 11
-85.7171898214
 21
-113.3489555989
  0
LINE
  5
2E0
100
AcDbEntity
  8
IMPORT_IGES
100
AcDbLine
 62
7
  6
CONTINUOUS
 10
-83.1512228065
 20
-50.9991166118
 11
-83.1512228065
 21
-28.4991166118
  0
LINE
  5
2E1
100
AcDbEntity
  8
IMPORT_IGES
100
AcDbLine
 62
7
  6
CONTINUOUS
 10
-80.0512228065
 20
-28.4991166118
 11
-80.0512228065
 21
-17.4991166118
  0
LINE
  5
2E2
100
AcDbEntity
  8
IMPORT_IGES
100
AcDbLine
 62
7
  6
CONTINUOUS
 10
-112.8512788123
 20
-68.1445063823
 11
-124.8512548123
 21
-68.1445063823
  0
LINE
  5
2E3
100
AcDbEntity
  8
IMPORT_IGES
100
AcDbLine
 62
7
  6
CONTINUOUS
 10
-147.0408401266
 20
-68.1445063823
 11
-159.0408161266
 21
-68.1445063823
  0
LINE
  5
2E4
100
AcDbEntity
  8
IMPORT_IGES
100
AcDbLine
 62
7
  6
CONTINUOUS
 10
-156.0408221266
 20
-65.1445123823
 11
-150.0408341266
 21
-65.1445123823
  0
LINE
  5
2E5
100
AcDbEntity
  8
IMPORT_IGES
100
AcDbLine
 62
7
  6
CONTINUOUS
 10
-121.8512608123
 20
-65.1445123823
 11
-115.8512728123
 21
-65.1445123823
  0
LINE
  5
2E6
100
AcDbEntity
  8
IMPORT_IGES
100
AcDbLine
 62
7
  6
CONTINUOUS
 10
-115.8512728123
 20
-62.1445183823
 11
-117.3512698123
 21
-62.1445183823
  0
LINE
  5
2E7
100
AcDbEntity
  8
IMPORT_IGES
100
AcDbLine
 62
7
  6
CONTINUOUS
 10
-120.3512638123
 20
-62.1445183823
 11
-121.8512608123
 21
-62.1445183823
  0
LINE
  5
2E8
100
AcDbEntity
  8
IMPORT_IGES
100
AcDbLine
 62
7
  6
CONTINUOUS
 10
-150.0408341266
 20
-62.1445183823
 11
-151.5408311266
 21
-62.1445183823
  0
LINE
  5
2E9
100
AcDbEntity
  8
IMPORT_IGES
100
AcDbLine
 62
7
  6
CONTINUOUS
 10
-154.5408251266
 20
-62.1445183823
 11
-156.0408221266
 21
-62.1445183823
  0
LINE
  5
2EA
100
AcDbEntity
  8
IMPORT_IGES
100
AcDbLine
 62
7
  6
CONTINUOUS
 10
-52.2512228065
 20
-17.4991166118
 11
-52.2512228065
 21
-28.4994863521
  0
LINE
  5
2EB
100
AcDbEntity
  8
IMPORT_IGES
100
AcDbLine
 62
7
  6
CONTINUOUS
 10
-49.1512228065
 20
-28.4994863521
 11
-49.1512228065
 21
-50.9991166118
  0
LINE
  5
2EC
100
AcDbEntity
  8
IMPORT_IGES
100
AcDbLine
 62
7
  6
CONTINUOUS
 10
183.4996252
 20
228.9493014859
 11
184.3011107754
 21
229.6706385037
  0
LINE
  5
2ED
100
AcDbEntity
  8
IMPORT_IGES
100
AcDbLine
 62
7
  6
CONTINUOUS
 10
184.433978395
 20
229.7902193613
 11
184.4996252
 21
229.8493014859
  0
LINE
  5
2EE
100
AcDbEntity
  8
IMPORT_IGES
100
AcDbLine
 62
7
  6
CONTINUOUS
 10
-159.0408161266
 20
-56.1445303823
 11
-154.5408251266
 21
-56.1445303823
  0
LINE
  5
2EF
100
AcDbEntity
  8
IMPORT_IGES
100
AcDbLine
 62
7
  6
CONTINUOUS
 10
-151.5408311266
 20
-56.1445303823
 11
-147.0408401266
 21
-56.1445303823
  0
LINE
  5
2F0
100
AcDbEntity
  8
IMPORT_IGES
100
AcDbLine
 62
7
  6
CONTINUOUS
 10
-124.8512548123
 20
-56.1445303823
 11
-120.3512638123
 21
-56.1445303823
  0
LINE
  5
2F1
100
AcDbEntity
  8
IMPORT_IGES
100
AcDbLine
 62
7
  6
CONTINUOUS
 10
-117.3512698123
 20
-56.1445303823
 11
-112.8512788123
 21
-56.1445303823
  0
LINE
  5
2F2
100
AcDbEntity
  8
IMPORT_IGES
100
AcDbLine
 62
7
  6
CONTINUOUS
 10
-49.1512228065
 20
-50.9991166118
 11
-83.1512228065
 21
-50.9991166118
  0
LINE
  5
2F3
100
AcDbEntity
  8
IMPORT_IGES
100
AcDbLine
 62
7
  6
CONTINUOUS
 10
-158.8512668123
 20
-49.618895307
 11
-113.0408281266
 21
-49.618895307
  0
LINE
  5
2F4
100
AcDbEntity
  8
IMPORT_IGES
100
AcDbLine
 62
7
  6
CONTINUOUS
 10
-19.8512668123
 20
-49.618895307
 11
60.1487331877
 21
-49.618895307
  0
LINE
  5
2F5
100
AcDbEntity
  8
IMPORT_IGES
100
AcDbLine
 62
7
  6
CONTINUOUS
 10
183.4996252
 20
-228.9493014859
 11
184.3011107754
 21
-229.6706385037
  0
LINE
  5
2F6
100
AcDbEntity
  8
IMPORT_IGES
100
AcDbLine
 62
7
  6
CONTINUOUS
 10
184.433978395
 20
-229.7902193613
 11
184.4996252
 21
-229.8493014859
  0
LINE
  5
2F7
100
AcDbEntity
  8
IMPORT_IGES
100
AcDbLine
 62
7
  6
CONTINUOUS
 10
-24.0408161266
 20
-1.0932842318
 11
-24.0408161266
 21
-13.0932602318
  0
LINE
  5
2F8
100
AcDbEntity
  8
IMPORT_IGES
100
AcDbLine
 62
7
  6
CONTINUOUS
 10
-21.0408221266
 20
-7.0932722318
 11
-21.0408221266
 21
-4.0932782318
  0
LINE
  5
2F9
100
AcDbEntity
  8
IMPORT_IGES
100
AcDbLine
 62
7
  6
CONTINUOUS
 10
-19.5408251266
 20
-13.0932602318
 11
-19.5408251266
 21
-7.0932722318
  0
LINE
  5
2FA
100
AcDbEntity
  8
IMPORT_IGES
100
AcDbLine
 62
7
  6
CONTINUOUS
 10
186.298
 20
231.6
 11
186.2281036055
 21
231.5299635326
  0
LINE
  5
2FB
100
AcDbEntity
  8
IMPORT_IGES
100
AcDbLine
 62
7
  6
CONTINUOUS
 10
186.1021336484
 20
231.4037411306
 11
185.4996252
 21
230.8000252505
  0
LINE
  5
2FC
100
AcDbEntity
  8
IMPORT_IGES
100
AcDbLine
 62
7
  6
CONTINUOUS
 10
186.0478306744
 20
231.3463350131
 11
186.1521115715
 21
231.4504073483
  0
LINE
  5
2FD
100
AcDbEntity
  8
IMPORT_IGES
100
AcDbLine
 62
7
  6
CONTINUOUS
 10
186.2299649463
 20
231.5281050164
 11
186.3
 21
231.598
  0
LINE
  5
2FE
100
AcDbEntity
  8
IMPORT_IGES
100
AcDbLine
 62
7
  6
CONTINUOUS
 10
-52.2512228065
 20
-28.4994863521
 11
-49.1512228065
 21
-28.4994863521
  0
LINE
  5
2FF
100
AcDbEntity
  8
IMPORT_IGES
100
AcDbLine
 62
7
  6
CONTINUOUS
 10
-83.1512228065
 20
-28.4991166118
 11
-80.0512228065
 21
-28.4991166118
  0
LINE
  5
300
100
AcDbEntity
  8
IMPORT_IGES
100
AcDbLine
 62
7
  6
CONTINUOUS
 10
60.1487331877
 20
-19.618895307
 11
-19.8512668123
 21
-19.618895307
  0
LINE
  5
301
100
AcDbEntity
  8
IMPORT_IGES
100
AcDbLine
 62
7
  6
CONTINUOUS
 10
-113.0408281266
 20
-19.618895307
 11
-158.8512668123
 21
-19.618895307
  0
LINE
  5
302
100
AcDbEntity
  8
IMPORT_IGES
100
AcDbLine
 62
7
  6
CONTINUOUS
 10
-80.0512228065
 20
-17.4991166118
 11
-52.2512228065
 21
-17.4991166118
  0
LINE
  5
303
100
AcDbEntity
  8
IMPORT_IGES
100
AcDbLine
 62
7
  6
CONTINUOUS
 10
185.4996252
 20
-230.7992259496
 11
186.1037411307
 21
-231.4021336484
  0
LINE
  5
304
100
AcDbEntity
  8
IMPORT_IGES
100
AcDbLine
 62
7
  6
CONTINUOUS
 10
186.2299635326
 20
-231.5281036055
 11
186.3
 21
-231.598
  0
LINE
  5
305
100
AcDbEntity
  8
IMPORT_IGES
100
AcDbLine
 62
7
  6
CONTINUOUS
 10
186.298
 20
-231.6
 11
186.2280959434
 21
-231.5299558551
  0
LINE
  5
306
100
AcDbEntity
  8
IMPORT_IGES
100
AcDbLine
 62
7
  6
CONTINUOUS
 10
186.0463537603
 20
-231.3478494592
 11
186.1504073484
 21
-231.4521115715
  0
LINE
  5
307
100
AcDbEntity
  8
IMPORT_IGES
100
AcDbLine
 62
7
  6
CONTINUOUS
 10
-16.5408311266
 20
-7.0932722318
 11
-16.5408311266
 21
-13.0932602318
  0
LINE
  5
308
100
AcDbEntity
  8
IMPORT_IGES
100
AcDbLine
 62
7
  6
CONTINUOUS
 10
-15.0408341266
 20
-4.0932782318
 11
-15.0408341266
 21
-7.0932722318
  0
LINE
  5
309
100
AcDbEntity
  8
IMPORT_IGES
100
AcDbLine
 62
7
  6
CONTINUOUS
 10
-12.0408401266
 20
-13.0932602318
 11
-12.0408401266
 21
-1.0932842318
  0
LINE
  5
30A
100
AcDbEntity
  8
IMPORT_IGES
100
AcDbLine
 62
7
  6
CONTINUOUS
 10
1.9500000003
 20
173.0083119615
 11
1.9500000003
 21
173.0244993393
  0
LINE
  5
30B
100
AcDbEntity
  8
IMPORT_IGES
100
AcDbLine
 62
7
  6
CONTINUOUS
 10
183.4996252
 20
228.9493014859
 11
184.2209622178
 21
229.7507870612
  0
LINE
  5
30C
100
AcDbEntity
  8
IMPORT_IGES
100
AcDbLine
 62
7
  6
CONTINUOUS
 10
184.3405430755
 20
229.8836546808
 11
184.3996252
 21
229.9493014859
  0
LINE
  5
30D
100
AcDbEntity
  8
IMPORT_IGES
100
AcDbLine
 62
7
  6
CONTINUOUS
 10
-159.0408161266
 20
-13.0932602318
 11
-154.5408251266
 21
-13.0932602318
  0
LINE
  5
30E
100
AcDbEntity
  8
IMPORT_IGES
100
AcDbLine
 62
7
  6
CONTINUOUS
 10
-151.5408311266
 20
-13.0932602318
 11
-147.0408401266
 21
-13.0932602318
  0
LINE
  5
30F
100
AcDbEntity
  8
IMPORT_IGES
100
AcDbLine
 62
7
  6
CONTINUOUS
 10
-124.8512548123
 20
-13.0932602318
 11
-120.3512638123
 21
-13.0932602318
  0
LINE
  5
310
100
AcDbEntity
  8
IMPORT_IGES
100
AcDbLine
 62
7
  6
CONTINUOUS
 10
-117.3512698123
 20
-13.0932602318
 11
-112.8512788123
 21
-13.0932602318
  0
LINE
  5
311
100
AcDbEntity
  8
IMPORT_IGES
100
AcDbLine
 62
7
  6
CONTINUOUS
 10
-24.0408161266
 20
-13.0932602318
 11
-19.5408251266
 21
-13.0932602318
  0
LINE
  5
312
100
AcDbEntity
  8
IMPORT_IGES
100
AcDbLine
 62
7
  6
CONTINUOUS
 10
-16.5408311266
 20
-13.0932602318
 11
-12.0408401266
 21
-13.0932602318
  0
LINE
  5
313
100
AcDbEntity
  8
IMPORT_IGES
100
AcDbLine
 62
7
  6
CONTINUOUS
 10
11.8241764732
 20
-13.0932602318
 11
16.3241674732
 21
-13.0932602318
  0
LINE
  5
314
100
AcDbEntity
  8
IMPORT_IGES
100
AcDbLine
 62
7
  6
CONTINUOUS
 10
19.3241614732
 20
-13.0932602318
 11
23.8241524732
 21
-13.0932602318
  0
LINE
  5
315
100
AcDbEntity
  8
IMPORT_IGES
100
AcDbLine
 62
7
  6
CONTINUOUS
 10
54.1487451877
 20
-13.0932602318
 11
58.6487361877
 21
-13.0932602318
  0
LINE
  5
316
100
AcDbEntity
  8
IMPORT_IGES
100
AcDbLine
 62
7
  6
CONTINUOUS
 10
61.6487301877
 20
-13.0932602318
 11
66.1487211877
 21
-13.0932602318
  0
LINE
  5
317
100
AcDbEntity
  8
IMPORT_IGES
100
AcDbLine
 62
7
  6
CONTINUOUS
 10
63.1487271877
 20
-7.0932722318
 11
61.6487301877
 21
-7.0932722318
  0
LINE
  5
318
100
AcDbEntity
  8
IMPORT_IGES
100
AcDbLine
 62
7
  6
CONTINUOUS
 10
58.6487361877
 20
-7.0932722318
 11
57.1487391877
 21
-7.0932722318
  0
LINE
  5
319
100
AcDbEntity
  8
IMPORT_IGES
100
AcDbLine
 62
7
  6
CONTINUOUS
 10
20.8241584732
 20
-7.0932722318
 11
19.3241614732
 21
-7.0932722318
  0
LINE
  5
31A
100
AcDbEntity
  8
IMPORT_IGES
100
AcDbLine
 62
7
  6
CONTINUOUS
 10
16.3241674732
 20
-7.0932722318
 11
14.8241704732
 21
-7.0932722318
  0
LINE
  5
31B
100
AcDbEntity
  8
IMPORT_IGES
100
AcDbLine
 62
7
  6
CONTINUOUS
 10
-15.0408341266
 20
-7.0932722318
 11
-16.5408311266
 21
-7.0932722318
  0
LINE
  5
31C
100
AcDbEntity
  8
IMPORT_IGES
100
AcDbLine
 62
7
  6
CONTINUOUS
 10
-19.5408251266
 20
-7.0932722318
 11
-21.0408221266
 21
-7.0932722318
  0
LINE
  5
31D
100
AcDbEntity
  8
IMPORT_IGES
100
AcDbLine
 62
7
  6
CONTINUOUS
 10
-115.8512728123
 20
-7.0932722318
 11
-117.3512698123
 21
-7.0932722318
  0
LINE
  5
31E
100
AcDbEntity
  8
IMPORT_IGES
100
AcDbLine
 62
7
  6
CONTINUOUS
 10
-120.3512638123
 20
-7.0932722318
 11
-121.8512608123
 21
-7.0932722318
  0
LINE
  5
31F
100
AcDbEntity
  8
IMPORT_IGES
100
AcDbLine
 62
7
  6
CONTINUOUS
 10
-150.0408341266
 20
-7.0932722318
 11
-151.5408311266
 21
-7.0932722318
  0
LINE
  5
320
100
AcDbEntity
  8
IMPORT_IGES
100
AcDbLine
 62
7
  6
CONTINUOUS
 10
-154.5408251266
 20
-7.0932722318
 11
-156.0408221266
 21
-7.0932722318
  0
LINE
  5
321
100
AcDbEntity
  8
IMPORT_IGES
100
AcDbLine
 62
7
  6
CONTINUOUS
 10
-156.0408221266
 20
-4.0932782318
 11
-150.0408341266
 21
-4.0932782318
  0
LINE
  5
322
100
AcDbEntity
  8
IMPORT_IGES
100
AcDbLine
 62
7
  6
CONTINUOUS
 10
-121.8512608123
 20
-4.0932782318
 11
-115.8512728123
 21
-4.0932782318
  0
LINE
  5
323
100
AcDbEntity
  8
IMPORT_IGES
100
AcDbLine
 62
7
  6
CONTINUOUS
 10
-21.0408221266
 20
-4.0932782318
 11
-15.0408341266
 21
-4.0932782318
  0
LINE
  5
324
100
AcDbEntity
  8
IMPORT_IGES
100
AcDbLine
 62
7
  6
CONTINUOUS
 10
14.8241704732
 20
-4.0932782318
 11
20.8241584732
 21
-4.0932782318
  0
LINE
  5
325
100
AcDbEntity
  8
IMPORT_IGES
100
AcDbLine
 62
7
  6
CONTINUOUS
 10
57.1487391877
 20
-4.0932782318
 11
63.1487271877
 21
-4.0932782318
  0
LINE
  5
326
100
AcDbEntity
  8
IMPORT_IGES
100
AcDbLine
 62
7
  6
CONTINUOUS
 10
66.1487211877
 20
-1.0932842318
 11
54.1487451877
 21
-1.0932842318
  0
LINE
  5
327
100
AcDbEntity
  8
IMPORT_IGES
100
AcDbLine
 62
7
  6
CONTINUOUS
 10
23.8241524732
 20
-1.0932842318
 11
11.8241764732
 21
-1.0932842318
  0
LINE
  5
328
100
AcDbEntity
  8
IMPORT_IGES
100
AcDbLine
 62
7
  6
CONTINUOUS
 10
-12.0408401266
 20
-1.0932842318
 11
-24.0408161266
 21
-1.0932842318
  0
LINE
  5
329
100
AcDbEntity
  8
IMPORT_IGES
100
AcDbLine
 62
7
  6
CONTINUOUS
 10
-112.8512788123
 20
-1.0932842318
 11
-124.8512548123
 21
-1.0932842318
  0
LINE
  5
32A
100
AcDbEntity
  8
IMPORT_IGES
100
AcDbLine
 62
7
  6
CONTINUOUS
 10
-147.0408401266
 20
-1.0932842318
 11
-159.0408161266
 21
-1.0932842318
  0
LINE
  5
32B
100
AcDbEntity
  8
IMPORT_IGES
100
AcDbLine
 62
7
  6
CONTINUOUS
 10
183.4996252
 20
-228.9493014859
 11
184.2209622178
 21
-229.7507870612
  0
LINE
  5
32C
100
AcDbEntity
  8
IMPORT_IGES
100
AcDbLine
 62
7
  6
CONTINUOUS
 10
184.3405430755
 20
-229.8836546808
 11
184.3996252
 21
-229.9493014859
  0
LINE
  5
32D
100
AcDbEntity
  8
IMPORT_IGES
100
AcDbLine
 62
7
  6
CONTINUOUS
 10
3.55
 20
173.0083119615
 11
3.55
 21
173.0244993393
  0
LINE
  5
32E
100
AcDbEntity
  8
IMPORT_IGES
100
AcDbLine
 62
7
  6
CONTINUOUS
 10
11.8241764732
 20
-1.0932842318
 11
11.8241764732
 21
-13.0932602318
  0
LINE
  5
32F
100
AcDbEntity
  8
IMPORT_IGES
100
AcDbLine
 62
7
  6
CONTINUOUS
 10
14.8241704732
 20
-7.0932722318
 11
14.8241704732
 21
-4.0932782318
  0
LINE
  5
330
100
AcDbEntity
  8
IMPORT_IGES
100
AcDbLine
 62
7
  6
CONTINUOUS
 10
16.3241674732
 20
-13.0932602318
 11
16.3241674732
 21
-7.0932722318
  0
LINE
  5
331
100
AcDbEntity
  8
IMPORT_IGES
100
AcDbLine
 62
7
  6
CONTINUOUS
 10
19.3241614732
 20
-7.0932722318
 11
19.3241614732
 21
-13.0932602318
  0
LINE
  5
332
100
AcDbEntity
  8
IMPORT_IGES
100
AcDbLine
 62
7
  6
CONTINUOUS
 10
20.8241584732
 20
-4.0932782318
 11
20.8241584732
 21
-7.0932722318
  0
LINE
  5
333
100
AcDbEntity
  8
IMPORT_IGES
100
AcDbLine
 62
7
  6
CONTINUOUS
 10
-182.2996252
 20
-228.9493014859
 11
-183.0209622178
 21
-229.7507870612
  0
LINE
  5
334
100
AcDbEntity
  8
IMPORT_IGES
100
AcDbLine
 62
7
  6
CONTINUOUS
 10
-183.1405430755
 20
-229.8836546808
 11
-183.1996252
 21
-229.9493014859
  0
LINE
  5
335
100
AcDbEntity
  8
IMPORT_IGES
100
AcDbLine
 62
7
  6
CONTINUOUS
 10
109.8016154377
 20
12.9493014859
 11
121.8015914377
 21
12.9493014859
  0
LINE
  5
336
100
AcDbEntity
  8
IMPORT_IGES
100
AcDbLine
 62
7
  6
CONTINUOUS
 10
118.8015974377
 20
15.9492954859
 11
115.8016034377
 21
15.9492954859
  0
LINE
  5
337
100
AcDbEntity
  8
IMPORT_IGES
100
AcDbLine
 62
7
  6
CONTINUOUS
 10
115.8016034377
 20
17.4492924859
 11
109.8016154377
 21
17.4492924859
  0
LINE
  5
338
100
AcDbEntity
  8
IMPORT_IGES
100
AcDbLine
 62
7
  6
CONTINUOUS
 10
109.8016154377
 20
20.4492864859
 11
115.8016034377
 21
20.4492864859
  0
LINE
  5
339
100
AcDbEntity
  8
IMPORT_IGES
100
AcDbLine
 62
7
  6
CONTINUOUS
 10
115.8016034377
 20
21.9492834859
 11
118.8015974377
 21
21.9492834859
  0
LINE
  5
33A
100
AcDbEntity
  8
IMPORT_IGES
100
AcDbLine
 62
7
  6
CONTINUOUS
 10
-183.1405430755
 20
229.8836546809
 11
-183.1996252
 21
229.9493014859
  0
LINE
  5
33B
100
AcDbEntity
  8
IMPORT_IGES
100
AcDbLine
 62
7
  6
CONTINUOUS
 10
-182.2996252
 20
228.9493014859
 11
-183.0209622178
 21
229.7507870613
  0
LINE
  5
33C
100
AcDbEntity
  8
IMPORT_IGES
100
AcDbLine
 62
7
  6
CONTINUOUS
 10
23.8241524732
 20
-13.0932602318
 11
23.8241524732
 21
-1.0932842318
  0
LINE
  5
33D
100
AcDbEntity
  8
IMPORT_IGES
100
AcDbLine
 62
7
  6
CONTINUOUS
 10
-186.298
 20
-231.6
 11
-186.2280986859
 21
-231.5299586032
  0
LINE
  5
33E
100
AcDbEntity
  8
IMPORT_IGES
100
AcDbLine
 62
7
  6
CONTINUOUS
 10
-186.1504070531
 20
-231.4521112757
 11
-185.3
 21
-230.6
  0
LINE
  5
33F
100
AcDbEntity
  8
IMPORT_IGES
100
AcDbLine
 62
7
  6
CONTINUOUS
 10
-186.3
 20
-231.598
 11
-186.2299558551
 21
-231.5280959434
  0
LINE
  5
340
100
AcDbEntity
  8
IMPORT_IGES
100
AcDbLine
 62
7
  6
CONTINUOUS
 10
-185.8636746258
 20
-231.1625472766
 11
-186.1521115714
 21
-231.4504073483
  0
LINE
  5
341
100
AcDbEntity
  8
IMPORT_IGES
100
AcDbLine
 62
7
  6
CONTINUOUS
 10
121.8015914377
 20
24.9492774859
 11
109.8016154377
 21
24.9492774859
  0
LINE
  5
342
100
AcDbEntity
  8
IMPORT_IGES
100
AcDbLine
 62
7
  6
CONTINUOUS
 10
-185.3
 20
230.6
 11
-186.1521112757
 21
231.4504070532
  0
LINE
  5
343
100
AcDbEntity
  8
IMPORT_IGES
100
AcDbLine
 62
7
  6
CONTINUOUS
 10
-186.2299586032
 20
231.528098686
 11
-186.3
 21
231.598
  0
LINE
  5
344
100
AcDbEntity
  8
IMPORT_IGES
100
AcDbLine
 62
7
  6
CONTINUOUS
 10
-186.298
 20
231.6
 11
-186.2281050164
 21
231.5299649463
  0
LINE
  5
345
100
AcDbEntity
  8
IMPORT_IGES
100
AcDbLine
 62
7
  6
CONTINUOUS
 10
-185.8625472766
 20
231.1636746259
 11
-186.1504073483
 21
231.4521115715
  0
LINE
  5
346
100
AcDbEntity
  8
IMPORT_IGES
100
AcDbLine
 62
7
  6
CONTINUOUS
 10
54.1487451877
 20
-1.0932842318
 11
54.1487451877
 21
-13.0932602318
  0
LINE
  5
347
100
AcDbEntity
  8
IMPORT_IGES
100
AcDbLine
 62
7
  6
CONTINUOUS
 10
57.1487391877
 20
-7.0932722318
 11
57.1487391877
 21
-4.0932782318
  0
LINE
  5
348
100
AcDbEntity
  8
IMPORT_IGES
100
AcDbLine
 62
7
  6
CONTINUOUS
 10
58.5987662324
 20
217.4468630598
 11
58.5987662324
 21
205.4468870598
  0
LINE
  5
349
100
AcDbEntity
  8
IMPORT_IGES
100
AcDbLine
 62
7
  6
CONTINUOUS
 10
58.6487361877
 20
-13.0932602318
 11
58.6487361877
 21
-7.0932722318
  0
LINE
  5
34A
100
AcDbEntity
  8
IMPORT_IGES
100
AcDbLine
 62
7
  6
CONTINUOUS
 10
61.5987602324
 20
208.4468810598
 11
61.5987602324
 21
214.4468690598
  0
LINE
  5
34B
100
AcDbEntity
  8
IMPORT_IGES
100
AcDbLine
 62
7
  6
CONTINUOUS
 10
61.6487301877
 20
-7.0932722318
 11
61.6487301877
 21
-13.0932602318
  0
LINE
  5
34C
100
AcDbEntity
  8
IMPORT_IGES
100
AcDbLine
 62
7
  6
CONTINUOUS
 10
-182.2996252
 20
-228.9493014859
 11
-183.1011107754
 21
-229.6706385037
  0
LINE
  5
34D
100
AcDbEntity
  8
IMPORT_IGES
100
AcDbLine
 62
7
  6
CONTINUOUS
 10
-183.233978395
 20
-229.7902193613
 11
-183.2996252
 21
-229.8493014859
  0
LINE
  5
34E
100
AcDbEntity
  8
IMPORT_IGES
100
AcDbLine
 62
7
  6
CONTINUOUS
 10
121.8015914377
 20
47.9493254859
 11
109.8016154377
 21
47.9493254859
  0
LINE
  5
34F
100
AcDbEntity
  8
IMPORT_IGES
100
AcDbLine
 62
7
  6
CONTINUOUS
 10
115.8016034377
 20
50.9493194859
 11
118.8015974377
 21
50.9493194859
  0
LINE
  5
350
100
AcDbEntity
  8
IMPORT_IGES
100
AcDbLine
 62
7
  6
CONTINUOUS
 10
109.8016154377
 20
52.4493164859
 11
115.8016034377
 21
52.4493164859
  0
LINE
  5
351
100
AcDbEntity
  8
IMPORT_IGES
100
AcDbLine
 62
7
  6
CONTINUOUS
 10
115.8016034377
 20
55.4493104859
 11
109.8016154377
 21
55.4493104859
  0
LINE
  5
352
100
AcDbEntity
  8
IMPORT_IGES
100
AcDbLine
 62
7
  6
CONTINUOUS
 10
118.8015974377
 20
56.9493074859
 11
115.8016034377
 21
56.9493074859
  0
LINE
  5
353
100
AcDbEntity
  8
IMPORT_IGES
100
AcDbLine
 62
7
  6
CONTINUOUS
 10
109.8016154377
 20
59.9493014859
 11
121.8015914377
 21
59.9493014859
  0
LINE
  5
354
100
AcDbEntity
  8
IMPORT_IGES
100
AcDbLine
 62
7
  6
CONTINUOUS
 10
-182.2996252
 20
228.9493014859
 11
-183.1011107754
 21
229.6706385037
  0
LINE
  5
355
100
AcDbEntity
  8
IMPORT_IGES
100
AcDbLine
 62
7
  6
CONTINUOUS
 10
-183.233978395
 20
229.7902193613
 11
-183.2996252
 21
229.8493014859
  0
LINE
  5
356
100
AcDbEntity
  8
IMPORT_IGES
100
AcDbLine
 62
7
  6
CONTINUOUS
 10
63.1487271877
 20
-4.0932782318
 11
63.1487271877
 21
-7.0932722318
  0
LINE
  5
357
100
AcDbEntity
  8
IMPORT_IGES
100
AcDbLine
 62
7
  6
CONTINUOUS
 10
64.5987542324
 20
214.4468690598
 11
64.5987542324
 21
212.9468720598
  0
LINE
  5
358
100
AcDbEntity
  8
IMPORT_IGES
100
AcDbLine
 62
7
  6
CONTINUOUS
 10
64.5987542324
 20
209.9468780598
 11
64.5987542324
 21
208.4468810598
  0
LINE
  5
359
100
AcDbEntity
  8
IMPORT_IGES
100
AcDbLine
 62
7
  6
CONTINUOUS
 10
66.1487211877
 20
-13.0932602318
 11
66.1487211877
 21
-1.0932842318
  0
LINE
  5
35A
100
AcDbEntity
  8
IMPORT_IGES
100
AcDbLine
 62
7
  6
CONTINUOUS
 10
66.3039923092
 20
92.164985116
 11
66.3039923092
 21
87.664994116
  0
LINE
  5
35B
100
AcDbEntity
  8
IMPORT_IGES
100
AcDbLine
 62
7
  6
CONTINUOUS
 10
66.3039923092
 20
84.665000116
 11
66.3039923092
 21
80.165009116
  0
LINE
  5
35C
100
AcDbEntity
  8
IMPORT_IGES
100
AcDbLine
 62
7
  6
CONTINUOUS
 10
70.5987422324
 20
205.4468870598
 11
70.5987422324
 21
209.9468780598
  0
LINE
  5
35D
100
AcDbEntity
  8
IMPORT_IGES
100
AcDbLine
 62
7
  6
CONTINUOUS
 10
70.5987422324
 20
212.9468720598
 11
70.5987422324
 21
217.4468630598
  0
LINE
  5
35E
100
AcDbEntity
  8
IMPORT_IGES
100
AcDbLine
 62
7
  6
CONTINUOUS
 10
72.3039803092
 20
83.165003116
 11
72.3039803092
 21
84.665000116
  0
LINE
  5
35F
100
AcDbEntity
  8
IMPORT_IGES
100
AcDbLine
 62
7
  6
CONTINUOUS
 10
72.3039803092
 20
87.664994116
 11
72.3039803092
 21
89.164991116
  0
LINE
  5
360
100
AcDbEntity
  8
IMPORT_IGES
100
AcDbLine
 62
7
  6
CONTINUOUS
 10
75.3039743092
 20
89.164991116
 11
75.3039743092
 21
83.165003116
  0
LINE
  5
361
100
AcDbEntity
  8
IMPORT_IGES
100
AcDbLine
 62
7
  6
CONTINUOUS
 10
78.3039683092
 20
80.165009116
 11
78.3039683092
 21
92.164985116
  0
LINE
  5
362
100
AcDbEntity
  8
IMPORT_IGES
100
AcDbLine
 62
7
  6
CONTINUOUS
 10
79.8039803092
 20
153.9493014859
 11
79.8039803092
 21
118.9493014859
  0
LINE
  5
363
100
AcDbEntity
  8
IMPORT_IGES
100
AcDbLine
 62
7
  6
CONTINUOUS
 10
79.8039803092
 20
53.9493014859
 11
79.8039803092
 21
18.9493014859
  0
LINE
  5
364
100
AcDbEntity
  8
IMPORT_IGES
100
AcDbLine
 62
7
  6
CONTINUOUS
 10
66.3039923092
 20
80.165009116
 11
78.3039683092
 21
80.165009116
  0
LINE
  5
365
100
AcDbEntity
  8
IMPORT_IGES
100
AcDbLine
 62
7
  6
CONTINUOUS
 10
85.6587662324
 20
186.164997116
 11
85.6587662324
 21
174.165021116
  0
LINE
  5
366
100
AcDbEntity
  8
IMPORT_IGES
100
AcDbLine
 62
7
  6
CONTINUOUS
 10
88.6587602324
 20
177.165015116
 11
88.6587602324
 21
183.165003116
  0
LINE
  5
367
100
AcDbEntity
  8
IMPORT_IGES
100
AcDbLine
 62
7
  6
CONTINUOUS
 10
91.6587542324
 20
183.165003116
 11
91.6587542324
 21
181.665006116
  0
LINE
  5
368
100
AcDbEntity
  8
IMPORT_IGES
100
AcDbLine
 62
7
  6
CONTINUOUS
 10
91.6587542324
 20
178.665012116
 11
91.6587542324
 21
177.165015116
  0
LINE
  5
369
100
AcDbEntity
  8
IMPORT_IGES
100
AcDbLine
 62
7
  6
CONTINUOUS
 10
97.6587422324
 20
174.165021116
 11
97.6587422324
 21
178.665012116
  0
LINE
  5
36A
100
AcDbEntity
  8
IMPORT_IGES
100
AcDbLine
 62
7
  6
CONTINUOUS
 10
97.6587422324
 20
181.665006116
 11
97.6587422324
 21
186.164997116
  0
LINE
  5
36B
100
AcDbEntity
  8
IMPORT_IGES
100
AcDbLine
 62
7
  6
CONTINUOUS
 10
75.3039743092
 20
83.165003116
 11
72.3039803092
 21
83.165003116
  0
LINE
  5
36C
100
AcDbEntity
  8
IMPORT_IGES
100
AcDbLine
 62
7
  6
CONTINUOUS
 10
72.3039803092
 20
84.665000116
 11
66.3039923092
 21
84.665000116
  0
LINE
  5
36D
100
AcDbEntity
  8
IMPORT_IGES
100
AcDbLine
 62
7
  6
CONTINUOUS
 10
66.3039923092
 20
87.664994116
 11
72.3039803092
 21
87.664994116
  0
LINE
  5
36E
100
AcDbEntity
  8
IMPORT_IGES
100
AcDbLine
 62
7
  6
CONTINUOUS
 10
72.3039803092
 20
89.164991116
 11
75.3039743092
 21
89.164991116
  0
LINE
  5
36F
100
AcDbEntity
  8
IMPORT_IGES
100
AcDbLine
 62
7
  6
CONTINUOUS
 10
78.3039683092
 20
92.164985116
 11
66.3039923092
 21
92.164985116
  0
LINE
  5
370
100
AcDbEntity
  8
IMPORT_IGES
100
AcDbLine
 62
7
  6
CONTINUOUS
 10
104.8039803092
 20
18.9493014859
 11
104.8039803092
 21
53.9493014859
  0
LINE
  5
371
100
AcDbEntity
  8
IMPORT_IGES
100
AcDbLine
 62
7
  6
CONTINUOUS
 10
104.8039803092
 20
118.9493014859
 11
104.8039803092
 21
153.9493014859
  0
LINE
  5
372
100
AcDbEntity
  8
IMPORT_IGES
100
AcDbLine
 62
7
  6
CONTINUOUS
 10
109.8016154377
 20
124.9492774859
 11
109.8016154377
 21
120.4492864859
  0
LINE
  5
373
100
AcDbEntity
  8
IMPORT_IGES
100
AcDbLine
 62
7
  6
CONTINUOUS
 10
109.8016154377
 20
117.4492924859
 11
109.8016154377
 21
112.9493014859
  0
LINE
  5
374
100
AcDbEntity
  8
IMPORT_IGES
100
AcDbLine
 62
7
  6
CONTINUOUS
 10
109.8016154377
 20
24.9492774859
 11
109.8016154377
 21
20.4492864859
  0
LINE
  5
375
100
AcDbEntity
  8
IMPORT_IGES
100
AcDbLine
 62
7
  6
CONTINUOUS
 10
109.8016154377
 20
17.4492924859
 11
109.8016154377
 21
12.9493014859
  0
LINE
  5
376
100
AcDbEntity
  8
IMPORT_IGES
100
AcDbLine
 62
7
  6
CONTINUOUS
 10
109.8016154377
 20
47.9493254859
 11
109.8016154377
 21
52.4493164859
  0
LINE
  5
377
100
AcDbEntity
  8
IMPORT_IGES
100
AcDbLine
 62
7
  6
CONTINUOUS
 10
109.8016154377
 20
55.4493104859
 11
109.8016154377
 21
59.9493014859
  0
LINE
  5
378
100
AcDbEntity
  8
IMPORT_IGES
100
AcDbLine
 62
7
  6
CONTINUOUS
 10
109.8016154377
 20
147.9493254859
 11
109.8016154377
 21
152.4493164859
  0
LINE
  5
379
100
AcDbEntity
  8
IMPORT_IGES
100
AcDbLine
 62
7
  6
CONTINUOUS
 10
109.8016154377
 20
155.4493104859
 11
109.8016154377
 21
159.9493014859
  0
LINE
  5
37A
100
AcDbEntity
  8
IMPORT_IGES
100
AcDbLine
 62
7
  6
CONTINUOUS
 10
115.8016034377
 20
156.9493074859
 11
115.8016034377
 21
155.4493104859
  0
LINE
  5
37B
100
AcDbEntity
  8
IMPORT_IGES
100
AcDbLine
 62
7
  6
CONTINUOUS
 10
115.8016034377
 20
152.4493164859
 11
115.8016034377
 21
150.9493194859
  0
LINE
  5
37C
100
AcDbEntity
  8
IMPORT_IGES
100
AcDbLine
 62
7
  6
CONTINUOUS
 10
115.8016034377
 20
56.9493074859
 11
115.8016034377
 21
55.4493104859
  0
LINE
  5
37D
100
AcDbEntity
  8
IMPORT_IGES
100
AcDbLine
 62
7
  6
CONTINUOUS
 10
115.8016034377
 20
52.4493164859
 11
115.8016034377
 21
50.9493194859
  0
LINE
  5
37E
100
AcDbEntity
  8
IMPORT_IGES
100
AcDbLine
 62
7
  6
CONTINUOUS
 10
115.8016034377
 20
15.9492954859
 11
115.8016034377
 21
17.4492924859
  0
LINE
  5
37F
100
AcDbEntity
  8
IMPORT_IGES
100
AcDbLine
 62
7
  6
CONTINUOUS
 10
115.8016034377
 20
20.4492864859
 11
115.8016034377
 21
21.9492834859
  0
LINE
  5
380
100
AcDbEntity
  8
IMPORT_IGES
100
AcDbLine
 62
7
  6
CONTINUOUS
 10
115.8016034377
 20
115.9492954859
 11
115.8016034377
 21
117.4492924859
  0
LINE
  5
381
100
AcDbEntity
  8
IMPORT_IGES
100
AcDbLine
 62
7
  6
CONTINUOUS
 10
115.8016034377
 20
120.4492864859
 11
115.8016034377
 21
121.9492834859
  0
LINE
  5
382
100
AcDbEntity
  8
IMPORT_IGES
100
AcDbLine
 62
7
  6
CONTINUOUS
 10
118.8015974377
 20
121.9492834859
 11
118.8015974377
 21
115.9492954859
  0
LINE
  5
383
100
AcDbEntity
  8
IMPORT_IGES
100
AcDbLine
 62
7
  6
CONTINUOUS
 10
118.8015974377
 20
21.9492834859
 11
118.8015974377
 21
15.9492954859
  0
LINE
  5
384
100
AcDbEntity
  8
IMPORT_IGES
100
AcDbLine
 62
7
  6
CONTINUOUS
 10
118.8015974377
 20
50.9493194859
 11
118.8015974377
 21
56.9493074859
  0
LINE
  5
385
100
AcDbEntity
  8
IMPORT_IGES
100
AcDbLine
 62
7
  6
CONTINUOUS
 10
118.8015974377
 20
150.9493194859
 11
118.8015974377
 21
156.9493074859
  0
LINE
  5
386
100
AcDbEntity
  8
IMPORT_IGES
100
AcDbLine
 62
7
  6
CONTINUOUS
 10
121.8015914377
 20
159.9493014859
 11
121.8015914377
 21
147.9493254859
  0
LINE
  5
387
100
AcDbEntity
  8
IMPORT_IGES
100
AcDbLine
 62
7
  6
CONTINUOUS
 10
121.8015914377
 20
59.9493014859
 11
121.8015914377
 21
47.9493254859
  0
LINE
  5
388
100
AcDbEntity
  8
IMPORT_IGES
100
AcDbLine
 62
7
  6
CONTINUOUS
 10
121.8015914377
 20
12.9493014859
 11
121.8015914377
 21
24.9492774859
  0
LINE
  5
389
100
AcDbEntity
  8
IMPORT_IGES
100
AcDbLine
 62
7
  6
CONTINUOUS
 10
121.8015914377
 20
112.9493014859
 11
121.8015914377
 21
124.9492774859
  0
LWPOLYLINE
  5
38A
100
AcDbEntity
  8
IMPORT_IGES
100
AcDbPolyline
 62
7
  6
CONTINUOUS
 90
3
 70
0
 10
184.3935650972
 20
229.5853116549
 10
184.3986035411
 20
229.6011448027
 10
184.4061972866
 20
229.6288320007
  0
LINE
  5
38B
100
AcDbEntity
  8
IMPORT_IGES
100
AcDbLine
 62
7
  6
CONTINUOUS
 10
-167.717247845
 20
111.8324094849
 11
-163.217256845
 21
111.8324094849
  0
LINE
  5
38C
100
AcDbEntity
  8
IMPORT_IGES
100
AcDbLine
 62
7
  6
CONTINUOUS
 10
-160.217262845
 20
111.8324094849
 11
-155.717271845
 21
111.8324094849
  0
LINE
  5
38D
100
AcDbEntity
  8
IMPORT_IGES
100
AcDbLine
 62
7
  6
CONTINUOUS
 10
109.8016154377
 20
112.9493014859
 11
121.8015914377
 21
112.9493014859
  0
LINE
  5
38E
100
AcDbEntity
  8
IMPORT_IGES
100
AcDbLine
 62
7
  6
CONTINUOUS
 10
118.8015974377
 20
115.9492954859
 11
115.8016034377
 21
115.9492954859
  0
LINE
  5
38F
100
AcDbEntity
  8
IMPORT_IGES
100
AcDbLine
 62
7
  6
CONTINUOUS
 10
115.8016034377
 20
117.4492924859
 11
109.8016154377
 21
117.4492924859
  0
LINE
  5
390
100
AcDbEntity
  8
IMPORT_IGES
100
AcDbLine
 62
7
  6
CONTINUOUS
 10
-158.717265845
 20
117.8323974849
 11
-160.217262845
 21
117.8323974849
  0
LINE
  5
391
100
AcDbEntity
  8
IMPORT_IGES
100
AcDbLine
 62
7
  6
CONTINUOUS
 10
-163.217256845
 20
117.8323974849
 11
-164.717253845
 21
117.8323974849
  0
LINE
  5
392
100
AcDbEntity
  8
IMPORT_IGES
100
AcDbLine
 62
7
  6
CONTINUOUS
 10
109.8016154377
 20
120.4492864859
 11
115.8016034377
 21
120.4492864859
  0
LINE
  5
393
100
AcDbEntity
  8
IMPORT_IGES
100
AcDbLine
 62
7
  6
CONTINUOUS
 10
-164.717253845
 20
120.8323914849
 11
-158.717265845
 21
120.8323914849
  0
LINE
  5
394
100
AcDbEntity
  8
IMPORT_IGES
100
AcDbLine
 62
7
  6
CONTINUOUS
 10
115.8016034377
 20
121.9492834859
 11
118.8015974377
 21
121.9492834859
  0
LWPOLYLINE
  5
395
100
AcDbEntity
  8
IMPORT_IGES
100
AcDbPolyline
 62
7
  6
CONTINUOUS
 90
3
 70
0
 10
184.4061808957
 20
-229.6287671744
 10
184.3985838262
 20
-229.60107833
 10
184.3935912845
 20
-229.5853953462
  0
LWPOLYLINE
  5
396
100
AcDbEntity
  8
IMPORT_IGES
100
AcDbPolyline
 62
7
  6
CONTINUOUS
 90
6
 70
0
 10
186.1488869043
 20
-231.4471891737
 10
186.147689195
 20
-231.4426332953
 10
186.1472770152
 20
-231.4387534352
 10
186.1476505646
 20
-231.4355495935
 10
186.1490540277
 20
-231.4332614579
 10
186.1534818655
 20
-231.4299941782
  0
LWPOLYLINE
  5
397
100
AcDbEntity
  8
IMPORT_IGES
100
AcDbPolyline
 62
7
  6
CONTINUOUS
 90
6
 70
0
 10
184.4061972866
 20
229.6288320007
 10
184.413211396
 20
229.6583520912
 10
184.4194645006
 20
229.6892921636
 10
184.4249412148
 20
229.721514581
 10
184.4297641728
 20
229.7551569802
 10
184.433978395
 20
229.7902193613
  0
LINE
  5
398
100
AcDbEntity
  8
IMPORT_IGES
100
AcDbLine
 62
7
  6
CONTINUOUS
 10
-155.717271845
 20
123.8323854849
 11
-167.717247845
 21
123.8323854849
  0
LINE
  5
399
100
AcDbEntity
  8
IMPORT_IGES
100
AcDbLine
 62
7
  6
CONTINUOUS
 10
121.8015914377
 20
124.9492774859
 11
109.8016154377
 21
124.9492774859
  0
LINE
  5
39A
100
AcDbEntity
  8
IMPORT_IGES
100
AcDbLine
 62
7
  6
CONTINUOUS
 10
-146.7300586303
 20
132.1051344532
 11
-142.2300676303
 21
132.1051344532
  0
LINE
  5
39B
100
AcDbEntity
  8
IMPORT_IGES
100
AcDbLine
 62
7
  6
CONTINUOUS
 10
-139.2300736303
 20
132.1051344532
 11
-134.7300826303
 21
132.1051344532
  0
LINE
  5
39C
100
AcDbEntity
  8
IMPORT_IGES
100
AcDbLine
 62
7
  6
CONTINUOUS
 10
-137.7300766303
 20
138.1051224532
 11
-139.2300736303
 21
138.1051224532
  0
LINE
  5
39D
100
AcDbEntity
  8
IMPORT_IGES
100
AcDbLine
 62
7
  6
CONTINUOUS
 10
-142.2300676303
 20
138.1051224532
 11
-143.7300646303
 21
138.1051224532
  0
LINE
  5
39E
100
AcDbEntity
  8
IMPORT_IGES
100
AcDbLine
 62
7
  6
CONTINUOUS
 10
-143.7300646303
 20
141.1051164532
 11
-137.7300766303
 21
141.1051164532
  0
LINE
  5
39F
100
AcDbEntity
  8
IMPORT_IGES
100
AcDbLine
 62
7
  6
CONTINUOUS
 10
153.9996252
 20
-179.9493014859
 11
153.9996252
 21
-159.9493014859
  0
LWPOLYLINE
  5
3A0
100
AcDbEntity
  8
IMPORT_IGES
100
AcDbPolyline
 62
7
  6
CONTINUOUS
 90
28
 70
0
 10
185.378814316
 20
229.8493014859
 10
185.3753226708
 20
229.8262145875
 10
185.3711131578
 20
229.8029083872
 10
185.3661537879
 20
229.7793828849
 10
185.3604248411
 20
229.7555099956
 10
185.3538682041
 20
229.7314178043
 10
185.3463836053
 20
229.7074905662
 10
185.3378835559
 20
229.6837336521
 10
185.3283381561
 20
229.6601416912
 10
185.3177256769
 20
229.6370828261
 10
185.3059428151
 20
229.6145791586
 10
185.2929531646
 20
229.5926085867
 10
185.2788470833
 20
229.5714729473
 10
185.2635793136
 20
229.5512124155
 10
185.2470688146
 20
229.531786816
 10
185.2293750763
 20
229.51337746
 10
185.2104657432
 20
229.4959646307
 10
185.1902617278
 20
229.4795680447
 10
185.168768239
 20
229.4644281638
 10
185.1459240699
 20
229.4505482541
 10
185.1216860648
 20
229.4379250494
 10
185.09610054
 20
229.4267892124
 10
185.0691054679
 20
229.4171520938
 10
185.0406774721
 20
229.409002343
 10
185.010944024
 20
229.4025365704
 10
184.9799367843
 20
229.3978203127
 10
184.9475767042
 20
229.3947880332
 10
184.9138408159
 20
229.3934397318
  0
LINE
  5
3A1
100
AcDbEntity
  8
IMPORT_IGES
100
AcDbLine
 62
7
  6
CONTINUOUS
 10
-134.7300826303
 20
144.1051104532
 11
-146.7300586303
 21
144.1051104532
  0
LINE
  5
3A2
100
AcDbEntity
  8
IMPORT_IGES
100
AcDbLine
 62
7
  6
CONTINUOUS
 10
121.8015914377
 20
147.9493254859
 11
109.8016154377
 21
147.9493254859
  0
LINE
  5
3A3
100
AcDbEntity
  8
IMPORT_IGES
100
AcDbLine
 62
7
  6
CONTINUOUS
 10
115.8016034377
 20
150.9493194859
 11
118.8015974377
 21
150.9493194859
  0
LINE
  5
3A4
100
AcDbEntity
  8
IMPORT_IGES
100
AcDbLine
 62
7
  6
CONTINUOUS
 10
109.8016154377
 20
152.4493164859
 11
115.8016034377
 21
152.4493164859
  0
LINE
  5
3A5
100
AcDbEntity
  8
IMPORT_IGES
100
AcDbLine
 62
7
  6
CONTINUOUS
 10
115.8016034377
 20
155.4493104859
 11
109.8016154377
 21
155.4493104859
  0
LINE
  5
3A6
100
AcDbEntity
  8
IMPORT_IGES
100
AcDbLine
 62
7
  6
CONTINUOUS
 10
118.8015974377
 20
156.9493074859
 11
115.8016034377
 21
156.9493074859
  0
LINE
  5
3A7
100
AcDbEntity
  8
IMPORT_IGES
100
AcDbLine
 62
7
  6
CONTINUOUS
 10
187.5
 20
158.5496320956
 11
186.3
 21
158.5496320956
  0
LINE
  5
3A8
100
AcDbEntity
  8
IMPORT_IGES
100
AcDbLine
 62
7
  6
CONTINUOUS
 10
185.4996252
 20
158.7496320956
 11
187.5
 21
158.7496320956
  0
LINE
  5
3A9
100
AcDbEntity
  8
IMPORT_IGES
100
AcDbLine
 62
7
  6
CONTINUOUS
 10
109.8016154377
 20
159.9493014859
 11
121.8015914377
 21
159.9493014859
  0
LWPOLYLINE
  5
3AA
100
AcDbEntity
  8
IMPORT_IGES
100
AcDbPolyline
 62
7
  6
CONTINUOUS
 90
49
 70
0
 10
185.378814316
 20
-229.8493014859
 10
185.3769857776
 20
-229.8370496379
 10
185.3749575757
 20
-229.8246949276
 10
185.3727253049
 20
-229.812237355
 10
185.3702912384
 20
-229.7996752362
 10
185.3676432519
 20
-229.787010255
 10
185.3647541291
 20
-229.7742474627
 10
185.3616167301
 20
-229.7613802356
 10
185.3582243697
 20
-229.7484151974
 10
185.3545484518
 20
-229.73537727
 10
185.3505788479
 20
-229.7222605706
 10
185.3463073044
 20
-229.709070982
 10
185.3417057654
 20
-229.6958510744
 10
185.3367587281
 20
-229.6825907126
 10
185.3314582766
 20
-229.6693000319
 10
185.3257858296
 20
-229.6560520089
 10
185.3197230894
 20
-229.6428408853
 10
185.3132606955
 20
-229.6296724193
 10
185.3063927276
 20
-229.6166368623
 10
185.2991012183
 20
-229.6037348149
 10
185.2913739877
 20
-229.5909656765
 10
185.2832144471
 20
-229.578417897
 10
185.2746024915
 20
-229.5660920121
 10
185.265527233
 20
-229.553987486
 10
185.2560082343
 20
-229.5421911619
 10
185.2460268198
 20
-229.5307053017
 10
185.2355725833
 20
-229.5195276435
 10
185.2246818467
 20
-229.5087382442
 10
185.2133340312
 20
-229.4983380097
 10
185.2015250641
 20
-229.4883260342
 10
185.189323052
 20
-229.4787796564
 10
185.1767312778
 20
-229.4697139083
 10
185.1637310947
 20
-229.461113758
 10
185.1503647574
 20
-229.4530114483
 10
185.1366351754
 20
-229.4454133099
 10
185.122529566
 20
-229.4383130121
 10
185.1080707823
 20
-229.4317238057
 10
185.0932417564
 20
-229.4256424518
 10
185.078052278
 20
-229.4200721892
 10
185.0625704101
 20
-229.4150359859
 10
185.0467916206
 20
-229.4105389153
 10
185.0307207707
 20
-229.4065759039
 10
185.0144474836
 20
-229.403154699
 10
184.9979768328
 20
-229.4002972528
 10
184.9813124053
 20
-229.3979816132
 10
184.9645492741
 20
-229.3961496707
 10
184.947725995
 20
-229.3947820557
 10
184.9308204737
 20
-229.3938981379
 10
184.9138405455
 20
-229.3934979192
  0
LWPOLYLINE
  5
3AB
100
AcDbEntity
  8
IMPORT_IGES
100
AcDbPolyline
 62
7
  6
CONTINUOUS
 90
6
 70
0
 10
184.433978395
 20
-229.7902193613
 10
184.4297606601
 20
-229.7551336888
 10
184.424934273
 20
-229.7214728832
 10
184.4194542141
 20
-229.6892369446
 10
184.4131980004
 20
-229.658289626
 10
184.4061808957
 20
-229.6287671744
  0
LINE
  5
3AC
100
AcDbEntity
  8
IMPORT_IGES
100
AcDbLine
 62
7
  6
CONTINUOUS
 10
173.9996252
 20
-159.9493014859
 11
173.9996252
 21
-158.9513014859
  0
LINE
  5
3AD
100
AcDbEntity
  8
IMPORT_IGES
100
AcDbLine
 62
7
  6
CONTINUOUS
 10
173.9996252
 20
-159.9513014859
 11
173.9996252
 21
-179.9473014859
  0
LINE
  5
3AE
100
AcDbEntity
  8
IMPORT_IGES
100
AcDbLine
 62
7
  6
CONTINUOUS
 10
173.9996252
 20
-179.9493014859
 11
173.9996252
 21
-180.9473014859
  0
LINE
  5
3AF
100
AcDbEntity
  8
IMPORT_IGES
100
AcDbLine
 62
250
  6
CONTINUOUS
 10
175.9996252
 20
-179.9473014859
 11
175.9996252
 21
-159.9513014859
  0
LINE
  5
3B0
100
AcDbEntity
  8
IMPORT_IGES
100
AcDbLine
 62
7
  6
CONTINUOUS
 10
175.9996252
 20
-158.9513014859
 11
175.9996252
 21
-159.9513014859
  0
LINE
  5
3B1
100
AcDbEntity
  8
IMPORT_IGES
100
AcDbLine
 62
7
  6
CONTINUOUS
 10
175.9996252
 20
-179.9473014859
 11
175.9996252
 21
-180.9473014859
  0
LWPOLYLINE
  5
3B2
100
AcDbEntity
  8
IMPORT_IGES
100
AcDbPolyline
 62
7
  6
CONTINUOUS
 90
46
 70
0
 10
186.2304337949
 20
231.5279437302
 10
186.2286789929
 20
231.5086333703
 10
186.226720111
 20
231.489539124
 10
186.224550086
 20
231.4706609911
 10
186.2221522746
 20
231.4519541305
 10
186.2195270363
 20
231.4334633834
 10
186.2166931743
 20
231.4153232736
 10
186.2136394213
 20
231.3975364788
 10
186.2103603343
 20
231.3801003212
 10
186.2068861366
 20
231.3631412916
 10
186.2032095105
 20
231.3466767995
 10
186.1993232815
 20
231.3306894353
 10
186.1952618608
 20
231.3152534608
 10
186.1910208337
 20
231.300381713
 10
186.1865938215
 20
231.2860613548
 10
186.1820167059
 20
231.272328137
 10
186.177289411
 20
231.2591957112
 10
186.1724055676
 20
231.2466504258
 10
186.1673956617
 20
231.2346870767
 10
186.1622590918
 20
231.2233097132
 10
186.1569935599
 20
231.212514286
 10
186.1516304935
 20
231.2022834433
 10
186.1461740011
 20
231.1926236688
 10
186.1406206
 20
231.1835284787
 10
186.1349930855
 20
231.1749610697
 10
186.1292943186
 20
231.1669221141
 10
186.123524156
 20
231.1594109396
 10
186.1177027846
 20
231.152388726
 10
186.1118372226
 20
231.145858503
 10
186.1059248473
 20
231.1398172409
 10
186.0999723716
 20
231.1342170307
 10
186.0939835744
 20
231.1290557148
 10
186.087959194
 20
231.1243354508
 10
186.0819015319
 20
231.1200148021
 10
186.075814059
 20
231.1160915229
 10
186.0696976488
 20
231.112567859
 10
186.0635505325
 20
231.109409111
 10
186.0573730785
 20
231.1066123914
 10
186.051168766
 20
231.1041805876
 10
186.0449403487
 20
231.1020876632
 10
186.0386922601
 20
231.1003312874
 10
186.0324239022
 20
231.098913791
 10
186.0261302653
 20
231.0978161301
 10
186.019810668
 20
231.0970319566
 10
186.0134689841
 20
231.0965676185
 10
186.0071068019
 20
231.0964231159
  0
LWPOLYLINE
  5
3B3
100
AcDbEntity
  8
IMPORT_IGES
100
AcDbPolyline
 62
7
  6
CONTINUOUS
 90
3
 70
0
 10
-182.9368555967
 20
-229.8436653601
 10
-182.9526669775
 20
-229.848634044
 10
-182.9792783165
 20
-229.8559170617
  0
LWPOLYLINE
  5
3B4
100
AcDbEntity
  8
IMPORT_IGES
100
AcDbPolyline
 62
7
  6
CONTINUOUS
 90
6
 70
0
 10
186.1471891737
 20
231.4488869043
 10
186.1426332953
 20
231.447689195
 10
186.1387534352
 20
231.4472770151
 10
186.1355495935
 20
231.4476505646
 10
186.1332614579
 20
231.4490540277
 10
186.1299941782
 20
231.4534818655
  0
LWPOLYLINE
  5
3B5
100
AcDbEntity
  8
IMPORT_IGES
100
AcDbPolyline
 62
7
  6
CONTINUOUS
 90
6
 70
0
 10
184.1793245267
 20
229.8559298633
 10
184.207753965
 20
229.8627139793
 10
184.2380877001
 20
229.8688550133
 10
184.270335195
 20
229.87433486
 10
184.3044869868
 20
229.8792559754
 10
184.3405430755
 20
229.8836546808
  0
LINE
  5
3B6
100
AcDbEntity
  8
IMPORT_IGES
100
AcDbLine
 62
7
  6
CONTINUOUS
 10
1.95
 20
173.0083119615
 11
3.55
 21
173.0083119615
  0
LINE
  5
3B7
100
AcDbEntity
  8
IMPORT_IGES
100
AcDbLine
 62
7
  6
CONTINUOUS
 10
1.9500000003
 20
173.0244993393
 11
3.55
 21
173.0244993393
  0
LINE
  5
3B8
100
AcDbEntity
  8
IMPORT_IGES
100
AcDbLine
 62
7
  6
CONTINUOUS
 10
85.6587662324
 20
174.165021116
 11
97.6587422324
 21
174.165021116
  0
LINE
  5
3B9
100
AcDbEntity
  8
IMPORT_IGES
100
AcDbLine
 62
7
  6
CONTINUOUS
 10
91.6587542324
 20
177.165015116
 11
88.6587602324
 21
177.165015116
  0
LINE
  5
3BA
100
AcDbEntity
  8
IMPORT_IGES
100
AcDbLine
 62
7
  6
CONTINUOUS
 10
97.6587422324
 20
178.665012116
 11
91.6587542324
 21
178.665012116
  0
LINE
  5
3BB
100
AcDbEntity
  8
IMPORT_IGES
100
AcDbLine
 62
7
  6
CONTINUOUS
 10
91.6587542324
 20
181.665006116
 11
97.6587422324
 21
181.665006116
  0
LWPOLYLINE
  5
3BC
100
AcDbEntity
  8
IMPORT_IGES
100
AcDbPolyline
 62
7
  6
CONTINUOUS
 90
3
 70
0
 10
-182.9787088155
 20
229.8557717246
 10
-182.9522272738
 20
229.8485043555
 10
-182.936854884
 20
229.8436662541
  0
LWPOLYLINE
  5
3BD
100
AcDbEntity
  8
IMPORT_IGES
100
AcDbPolyline
 62
7
  6
CONTINUOUS
 90
13
 70
0
 10
185.7964312562
 20
231.3071068317
 10
185.7967467638
 20
231.2964774196
 10
185.7980395098
 20
231.2854702324
 10
185.8003094943
 20
231.2740781681
 10
185.8035896798
 20
231.2621611388
 10
185.8078471038
 20
231.2498417526
 10
185.8129828786
 20
231.2375242653
 10
185.8189454432
 20
231.2254071782
 10
185.8257863587
 20
231.2133168064
 10
185.8335614203
 20
231.2011102083
 10
185.8422892263
 20
231.1887399345
 10
185.8519511784
 20
231.1762600994
 10
185.8625472766
 20
231.1636746259
  0
LWPOLYLINE
  5
3BE
100
AcDbEntity
  8
IMPORT_IGES
100
AcDbPolyline
 62
7
  6
CONTINUOUS
 90
36
 70
0
 10
183.944207361
 20
230.3635150483
 10
183.9443856027
 20
230.3489677267
 10
183.9450651977
 20
230.3313655554
 10
183.9462508928
 20
230.3135742963
 10
183.9479446827
 20
230.2955843582
 10
183.9501516653
 20
230.2773695394
 10
183.9528714409
 20
230.2589115994
 10
183.9561044091
 20
230.2402323249
 10
183.9598568664
 20
230.2213656522
 10
183.9641353532
 20
230.2022960373
 10
183.9689333291
 20
230.1830448466
 10
183.9742374702
 20
230.1637049925
 10
183.9800503811
 20
230.1442884607
 10
183.986369457
 20
230.1247946072
 10
183.9931735596
 20
230.1053017973
 10
184.000464217
 20
230.0858218445
 10
184.008239901
 20
230.0663573563
 10
184.0164748884
 20
230.0469760094
 10
184.025178989
 20
230.027673779
 10
184.034342393
 20
230.0084705404
 10
184.0439099485
 20
229.9894730206
 10
184.0538918345
 20
229.9706866227
 10
184.0642778719
 20
229.9521243516
 10
184.074982371
 20
229.9339080278
 10
184.086003107
 20
229.9160646203
 10
184.0973423046
 20
229.8985874721
 10
184.1089209487
 20
229.8815503874
 10
184.1207367936
 20
229.8649742985
 10
184.132792085
 20
229.8488574657
 10
184.1450145436
 20
229.8332403592
 10
184.1574079668
 20
229.8181334635
 10
184.1699685574
 20
229.8035430856
 10
184.1826126448
 20
229.7895033924
 10
184.195312339
 20
229.7760306858
 10
184.20809553
 20
229.7631230864
 10
184.2209622178
 20
229.7507870612
  0
LWPOLYLINE
  5
3BF
100
AcDbEntity
  8
IMPORT_IGES
100
AcDbPolyline
 62
7
  6
CONTINUOUS
 90
51
 70
0
 10
183.944207356
 20
-230.3635150483
 10
183.9442142335
 20
-230.3663934634
 10
183.9445525566
 20
-230.3835738615
 10
183.9454001719
 20
-230.4005286092
 10
183.9467567797
 20
-230.4172620783
 10
183.9486223971
 20
-230.43378229
 10
183.950996312
 20
-230.4500971984
 10
183.9538792366
 20
-230.46619309
 10
183.9572733238
 20
-230.4820460285
 10
183.9611838557
 20
-230.4976683986
 10
183.9656055502
 20
-230.5130439812
 10
183.9705247149
 20
-230.5281097756
 10
183.9759422699
 20
-230.5428608409
 10
183.981857295
 20
-230.5573050021
 10
183.9882533369
 20
-230.5714033798
 10
183.9951294633
 20
-230.5851554572
 10
184.0024866066
 20
-230.5985690685
 10
184.0103111094
 20
-230.6116213627
 10
184.0186132
 20
-230.6243287939
 10
184.0273826503
 20
-230.6366849087
 10
184.0365751187
 20
-230.6486371306
 10
184.0461997109
 20
-230.660196525
 10
184.0562473211
 20
-230.671368874
 10
184.0666462906
 20
-230.6821003359
 10
184.0773976915
 20
-230.6923966915
 10
184.0885004516
 20
-230.7022760109
 10
184.099879696
 20
-230.711708541
 10
184.1115371363
 20
-230.7207041421
 10
184.1234710609
 20
-230.7292802902
 10
184.1356014608
 20
-230.737422165
 10
184.1479301971
 20
-230.7451408465
 10
184.1604554087
 20
-230.752453772
 10
184.1730915036
 20
-230.7593575423
 10
184.1858367643
 20
-230.7658623308
 10
184.1986929083
 20
-230.7719856859
 10
184.2115794959
 20
-230.7777356931
 10
184.2244917378
 20
-230.7831213171
 10
184.2374344233
 20
-230.7881586762
 10
184.2503414803
 20
-230.7928657293
 10
184.2632029488
 20
-230.7972495609
 10
184.2760287887
 20
-230.8013242813
 10
184.2887828075
 20
-230.8051166028
 10
184.3014596373
 20
-230.8086341239
 10
184.3140646461
 20
-230.8118858661
 10
184.3265777445
 20
-230.8148985975
 10
184.3389944895
 20
-230.8176787538
 10
184.3513193243
 20
-230.8202324307
 10
184.3635454887
 20
-230.8225840531
 10
184.3756707294
 20
-230.8247445741
 10
184.3876972999
 20
-230.8267120743
 10
184.3996252
 20
-230.8284906018
  0
LINE
  5
3C0
100
AcDbEntity
  8
IMPORT_IGES
100
AcDbLine
 62
250
  6
CONTINUOUS
 10
183.4996252
 20
228.9493014859
 11
183.4996252
 21
-228.9493014859
  0
LINE
  5
3C1
100
AcDbEntity
  8
IMPORT_IGES
100
AcDbLine
 62
7
  6
CONTINUOUS
 10
184.3996252
 20
230.9493014859
 11
184.3996252
 21
229.9493014859
  0
LINE
  5
3C2
100
AcDbEntity
  8
IMPORT_IGES
100
AcDbLine
 62
7
  6
CONTINUOUS
 10
184.3996252
 20
-229.9493014859
 11
184.3996252
 21
-230.9493014859
  0
LINE
  5
3C3
100
AcDbEntity
  8
IMPORT_IGES
100
AcDbLine
 62
250
  6
CONTINUOUS
 10
185.3
 20
229.9493014859
 11
185.3
 21
229.8493014859
  0
LINE
  5
3C4
100
AcDbEntity
  8
IMPORT_IGES
100
AcDbLine
 62
250
  6
CONTINUOUS
 10
185.3
 20
-229.8493014859
 11
185.3
 21
-229.9493014859
  0
LINE
  5
3C5
100
AcDbEntity
  8
IMPORT_IGES
100
AcDbLine
 62
7
  6
CONTINUOUS
 10
185.4996252
 20
-229.9493014859
 11
185.4996252
 21
-230.9493014859
  0
LINE
  5
3C6
100
AcDbEntity
  8
IMPORT_IGES
100
AcDbLine
 62
7
  6
CONTINUOUS
 10
185.4996252
 20
-229.8493014859
 11
185.4996252
 21
229.8493014859
  0
LINE
  5
3C7
100
AcDbEntity
  8
IMPORT_IGES
100
AcDbLine
 62
7
  6
CONTINUOUS
 10
185.4996252
 20
229.9493014859
 11
185.4996252
 21
230.9493014859
  0
LINE
  5
3C8
100
AcDbEntity
  8
IMPORT_IGES
100
AcDbLine
 62
250
  6
CONTINUOUS
 10
185.8
 20
188.7454414793
 11
185.8
 21
158.7496320956
  0
LINE
  5
3C9
100
AcDbEntity
  8
IMPORT_IGES
100
AcDbLine
 62
250
  6
CONTINUOUS
 10
185.8
 20
-158.7545585207
 11
185.8
 21
-188.7503679044
  0
LINE
  5
3CA
100
AcDbEntity
  8
IMPORT_IGES
100
AcDbLine
 62
7
  6
CONTINUOUS
 10
186.298
 20
232.8
 11
186.298
 21
231.6
  0
LINE
  5
3CB
100
AcDbEntity
  8
IMPORT_IGES
100
AcDbLine
 62
7
  6
CONTINUOUS
 10
186.298
 20
-232.8
 11
186.298
 21
-231.6
  0
LINE
  5
3CC
100
AcDbEntity
  8
IMPORT_IGES
100
AcDbLine
 62
7
  6
CONTINUOUS
 10
186.3
 20
-188.7503679044
 11
186.3
 21
-231.6
  0
LINE
  5
3CD
100
AcDbEntity
  8
IMPORT_IGES
100
AcDbLine
 62
7
  6
CONTINUOUS
 10
186.3
 20
-158.7545585207
 11
186.3
 21
158.7496320956
  0
LINE
  5
3CE
100
AcDbEntity
  8
IMPORT_IGES
100
AcDbLine
 62
7
  6
CONTINUOUS
 10
186.3
 20
188.7454414793
 11
186.3
 21
231.598
  0
LINE
  5
3CF
100
AcDbEntity
  8
IMPORT_IGES
100
AcDbLine
 62
7
  6
CONTINUOUS
 10
187.5
 20
-231.6
 11
187.5
 21
231.598
  0
LWPOLYLINE
  5
3D0
100
AcDbEntity
  8
IMPORT_IGES
100
AcDbPolyline
 62
7
  6
CONTINUOUS
 90
13
 70
0
 10
185.7964247258
 20
-231.3071066908
 10
185.7966960648
 20
-231.2970073562
 10
185.7979119611
 20
-231.2864508665
 10
185.8000724176
 20
-231.2754263933
 10
185.8031847928
 20
-231.2637988883
 10
185.8072417281
 20
-231.251678207
 10
185.8122211474
 20
-231.2394366345
 10
185.818074151
 20
-231.2272392172
 10
185.8248496385
 20
-231.2149350556
 10
185.8326722326
 20
-231.2024347272
 10
185.8415834741
 20
-231.1897079293
 10
185.8515418221
 20
-231.1767873241
 10
185.8625472766
 20
-231.1636746259
  0
LWPOLYLINE
  5
3D1
100
AcDbEntity
  8
IMPORT_IGES
100
AcDbPolyline
 62
7
  6
CONTINUOUS
 90
51
 70
0
 10
184.3996252
 20
230.8284906018
 10
184.3876984828
 20
230.8267122577
 10
184.3756730975
 20
230.824744976
 10
184.3635490441
 20
230.82258471
 10
184.351324063
 20
230.8202333771
 10
184.3390004139
 20
230.8176800288
 10
184.3265848758
 20
230.8149002517
 10
184.3140730213
 20
230.8118879555
 10
184.3014692778
 20
230.8086367037
 10
184.288793707
 20
230.8051197306
 10
184.2760409358
 20
230.8013280164
 10
184.2632163374
 20
230.7972539666
 10
184.2503560931
 20
230.7928708759
 10
184.237450249
 20
230.7881646403
 10
184.2245087591
 20
230.7831281764
 10
184.2115976659
 20
230.7777435243
 10
184.1987121615
 20
230.7719945601
 10
184.1858570538
 20
230.7658723323
 10
184.1731128096
 20
230.7593687836
 10
184.1604777263
 20
230.7524663767
 10
184.1479535063
 20
230.7451549387
 10
184.1356257242
 20
230.7374378818
 10
184.1234963013
 20
230.7292978299
 10
184.1115633161
 20
230.7207236572
 10
184.0999065784
 20
230.7117300283
 10
184.0885278028
 20
230.7022995106
 10
184.0774252746
 20
230.692422198
 10
184.0666736597
 20
230.6821275275
 10
184.0562740365
 20
230.6713975034
 10
184.0462253266
 20
230.6602262329
 10
184.0365989603
 20
230.6486669123
 10
184.0274038086
 20
230.6367134433
 10
184.0186310005
 20
230.624354955
 10
184.0103253545
 20
230.6116441188
 10
184.0024970092
 20
230.5985870013
 10
183.995135826
 20
230.5851674253
 10
183.9882562064
 20
230.5714094005
 10
183.9818574602
 20
230.5573053529
 10
183.9759402777
 20
230.5428555697
 10
183.9705211314
 20
230.5280994395
 10
183.9656010363
 20
230.5130294073
 10
183.9611789775
 20
230.497650222
 10
183.9572683819
 20
230.4820247159
 10
183.9538744959
 20
230.466169016
 10
183.9509920732
 20
230.4500708783
 10
183.9486188018
 20
230.4337544181
 10
183.9467539678
 20
230.4172337348
 10
183.9453982852
 20
230.4005005591
 10
183.9445515838
 20
230.383545966
 10
183.9442141026
 20
230.3663652385
 10
183.944207361
 20
230.3635150483
  0
LINE
  5
3D2
100
AcDbEntity
  8
IMPORT_IGES
100
AcDbLine
 62
7
  6
CONTINUOUS
 10
-124.9419180576
 20
182.1038571659
 11
-117.4419330576
 21
182.1038571659
  0
LINE
  5
3D3
100
AcDbEntity
  8
IMPORT_IGES
100
AcDbLine
 62
7
  6
CONTINUOUS
 10
-124.9419180576
 20
183.1038571659
 11
-125.9439180576
 21
183.1038571659
  0
LINE
  5
3D4
100
AcDbEntity
  8
IMPORT_IGES
100
AcDbLine
 62
7
  6
CONTINUOUS
 10
88.6587602324
 20
183.165003116
 11
91.6587542324
 21
183.165003116
  0
LINE
  5
3D5
100
AcDbEntity
  8
IMPORT_IGES
100
AcDbLine
 62
7
  6
CONTINUOUS
 10
-119.4419180576
 20
184.1038571659
 11
-125.9439180576
 21
184.1038571659
  0
LINE
  5
3D6
100
AcDbEntity
  8
IMPORT_IGES
100
AcDbLine
 62
7
  6
CONTINUOUS
 10
97.6587422324
 20
186.164997116
 11
85.6587662324
 21
186.164997116
  0
LINE
  5
3D7
100
AcDbEntity
  8
IMPORT_IGES
100
AcDbLine
 62
7
  6
CONTINUOUS
 10
185.4996252
 20
188.7454414793
 11
187.5
 21
188.7454414793
  0
LINE
  5
3D8
100
AcDbEntity
  8
IMPORT_IGES
100
AcDbLine
 62
7
  6
CONTINUOUS
 10
186.3
 20
188.9454414793
 11
187.5
 21
188.9454414793
  0
LINE
  5
3D9
100
AcDbEntity
  8
IMPORT_IGES
100
AcDbLine
 62
7
  6
CONTINUOUS
 10
-119.4419180576
 20
191.1038351659
 11
-125.9439180576
 21
191.1038351659
  0
LINE
  5
3DA
100
AcDbEntity
  8
IMPORT_IGES
100
AcDbLine
 62
7
  6
CONTINUOUS
 10
-124.9419180576
 20
192.1038351659
 11
-125.9439180576
 21
192.1038351659
  0
LINE
  5
3DB
100
AcDbEntity
  8
IMPORT_IGES
100
AcDbLine
 62
7
  6
CONTINUOUS
 10
-117.4419330576
 20
193.1038351659
 11
-124.9419180576
 21
193.1038351659
  0
LWPOLYLINE
  5
3DC
100
AcDbEntity
  8
IMPORT_IGES
100
AcDbPolyline
 62
7
  6
CONTINUOUS
 90
46
 70
0
 10
186.2279517303
 20
231.5304275815
 10
186.208503882
 20
231.5286590632
 10
186.1893167497
 20
231.5266917487
 10
186.1703903334
 20
231.5245187665
 10
186.1516897253
 20
231.5221248064
 10
186.1332498333
 20
231.5195094318
 10
186.11517538
 20
231.5166883405
 10
186.0974679396
 20
231.513650806
 10
186.080125938
 20
231.5103911974
 10
186.0632493754
 20
231.5069351371
 10
186.0468498654
 20
231.5032748506
 10
186.0309157944
 20
231.4994034438
 10
186.015512322
 20
231.4953513474
 10
186.0006457994
 20
231.4911117653
 10
185.9863098754
 20
231.4866799544
 10
185.9725506565
 20
231.4820937323
 10
185.9593816303
 20
231.4773522182
 10
185.9467893091
 20
231.4724493596
 10
185.9347793366
 20
231.4674196157
 10
185.9233562521
 20
231.4622622631
 10
185.9125155163
 20
231.4569751083
 10
185.9022491538
 20
231.4515943746
 10
185.8925677303
 20
231.446126186
 10
185.8834606802
 20
231.4405655844
 10
185.8748883321
 20
231.4349351511
 10
185.8668528048
 20
231.4292395277
 10
185.8593519795
 20
231.4234772571
 10
185.8523398285
 20
231.4176634079
 10
185.8458168144
 20
231.411802746
 10
185.8397824747
 20
231.405894775
 10
185.8341893944
 20
231.3999474748
 10
185.8290359946
 20
231.3939649959
 10
185.8243238542
 20
231.3879477574
 10
185.8200102949
 20
231.3818983537
 10
185.8160927826
 20
231.3758205416
 10
185.8125738514
 20
231.369714973
 10
185.8094184248
 20
231.3635794032
 10
185.8066233364
 20
231.3574156483
 10
185.8041917527
 20
231.3512257908
 10
185.8020980961
 20
231.3450076658
 10
185.8003394041
 20
231.3387647271
 10
185.7989186392
 20
231.332497054
 10
185.797819111
 20
231.3261969777
 10
185.7970352561
 20
231.3198627626
 10
185.7965726378
 20
231.3134989156
 10
185.7964312562
 20
231.3071068317
  0
LINE
  5
3DD
100
AcDbEntity
  8
IMPORT_IGES
100
AcDbLine
 62
7
  6
CONTINUOUS
 10
-113.4020603989
 20
205.4468870598
 11
-101.4020843989
 21
205.4468870598
  0
LINE
  5
3DE
100
AcDbEntity
  8
IMPORT_IGES
100
AcDbLine
 62
7
  6
CONTINUOUS
 10
-96.4
 20
205.4468870598
 11
-78.4
 21
205.4468870598
  0
LINE
  5
3DF
100
AcDbEntity
  8
IMPORT_IGES
100
AcDbLine
 62
7
  6
CONTINUOUS
 10
-74.4
 20
205.4468870598
 11
-56.4
 21
205.4468870598
  0
LINE
  5
3E0
100
AcDbEntity
  8
IMPORT_IGES
100
AcDbLine
 62
7
  6
CONTINUOUS
 10
-52.4
 20
205.4468870598
 11
-34.4
 21
205.4468870598
  0
LINE
  5
3E1
100
AcDbEntity
  8
IMPORT_IGES
100
AcDbLine
 62
7
  6
CONTINUOUS
 10
-30.4
 20
205.4468870598
 11
-12.4
 21
205.4468870598
  0
LINE
  5
3E2
100
AcDbEntity
  8
IMPORT_IGES
100
AcDbLine
 62
7
  6
CONTINUOUS
 10
-8.4
 20
205.4468870598
 11
9.6
 21
205.4468870598
  0
LINE
  5
3E3
100
AcDbEntity
  8
IMPORT_IGES
100
AcDbLine
 62
7
  6
CONTINUOUS
 10
13.6
 20
205.4468870598
 11
31.6
 21
205.4468870598
  0
LINE
  5
3E4
100
AcDbEntity
  8
IMPORT_IGES
100
AcDbLine
 62
7
  6
CONTINUOUS
 10
35.6
 20
205.4468870598
 11
53.6
 21
205.4468870598
  0
LINE
  5
3E5
100
AcDbEntity
  8
IMPORT_IGES
100
AcDbLine
 62
7
  6
CONTINUOUS
 10
58.5987662324
 20
205.4468870598
 11
70.5987422324
 21
205.4468870598
  0
LINE
  5
3E6
100
AcDbEntity
  8
IMPORT_IGES
100
AcDbLine
 62
7
  6
CONTINUOUS
 10
53.6
 20
207.4468870598
 11
35.6
 21
207.4468870598
  0
LINE
  5
3E7
100
AcDbEntity
  8
IMPORT_IGES
100
AcDbLine
 62
7
  6
CONTINUOUS
 10
31.6
 20
207.4468870598
 11
13.6
 21
207.4468870598
  0
LINE
  5
3E8
100
AcDbEntity
  8
IMPORT_IGES
100
AcDbLine
 62
7
  6
CONTINUOUS
 10
9.6
 20
207.4468870598
 11
-8.4
 21
207.4468870598
  0
LINE
  5
3E9
100
AcDbEntity
  8
IMPORT_IGES
100
AcDbLine
 62
7
  6
CONTINUOUS
 10
-12.4
 20
207.4468870598
 11
-30.4
 21
207.4468870598
  0
LINE
  5
3EA
100
AcDbEntity
  8
IMPORT_IGES
100
AcDbLine
 62
7
  6
CONTINUOUS
 10
-34.4
 20
207.4468870598
 11
-52.4
 21
207.4468870598
  0
LINE
  5
3EB
100
AcDbEntity
  8
IMPORT_IGES
100
AcDbLine
 62
7
  6
CONTINUOUS
 10
-56.4
 20
207.4468870598
 11
-74.4
 21
207.4468870598
  0
LINE
  5
3EC
100
AcDbEntity
  8
IMPORT_IGES
100
AcDbLine
 62
7
  6
CONTINUOUS
 10
-78.4
 20
207.4468870598
 11
-96.4
 21
207.4468870598
  0
LINE
  5
3ED
100
AcDbEntity
  8
IMPORT_IGES
100
AcDbLine
 62
7
  6
CONTINUOUS
 10
64.5987542324
 20
208.4468810598
 11
61.5987602324
 21
208.4468810598
  0
LINE
  5
3EE
100
AcDbEntity
  8
IMPORT_IGES
100
AcDbLine
 62
7
  6
CONTINUOUS
 10
-107.4020723989
 20
208.4468810598
 11
-110.4020663989
 21
208.4468810598
  0
LINE
  5
3EF
100
AcDbEntity
  8
IMPORT_IGES
100
AcDbLine
 62
7
  6
CONTINUOUS
 10
-96.4
 20
209.4468870598
 11
-78.4
 21
209.4468870598
  0
LINE
  5
3F0
100
AcDbEntity
  8
IMPORT_IGES
100
AcDbLine
 62
7
  6
CONTINUOUS
 10
-74.4
 20
209.4468870598
 11
-56.4
 21
209.4468870598
  0
LINE
  5
3F1
100
AcDbEntity
  8
IMPORT_IGES
100
AcDbLine
 62
7
  6
CONTINUOUS
 10
-52.4
 20
209.4468870598
 11
-34.4
 21
209.4468870598
  0
LINE
  5
3F2
100
AcDbEntity
  8
IMPORT_IGES
100
AcDbLine
 62
7
  6
CONTINUOUS
 10
-30.4
 20
209.4468870598
 11
-12.4
 21
209.4468870598
  0
LINE
  5
3F3
100
AcDbEntity
  8
IMPORT_IGES
100
AcDbLine
 62
7
  6
CONTINUOUS
 10
-8.4
 20
209.4468870598
 11
9.6
 21
209.4468870598
  0
LINE
  5
3F4
100
AcDbEntity
  8
IMPORT_IGES
100
AcDbLine
 62
7
  6
CONTINUOUS
 10
13.6
 20
209.4468870598
 11
31.6
 21
209.4468870598
  0
LINE
  5
3F5
100
AcDbEntity
  8
IMPORT_IGES
100
AcDbLine
 62
7
  6
CONTINUOUS
 10
35.6
 20
209.4468870598
 11
53.6
 21
209.4468870598
  0
LINE
  5
3F6
100
AcDbEntity
  8
IMPORT_IGES
100
AcDbLine
 62
7
  6
CONTINUOUS
 10
70.5987422324
 20
209.9468780598
 11
64.5987542324
 21
209.9468780598
  0
LINE
  5
3F7
100
AcDbEntity
  8
IMPORT_IGES
100
AcDbLine
 62
7
  6
CONTINUOUS
 10
-101.4020843989
 20
209.9468780598
 11
-107.4020723989
 21
209.9468780598
  0
LINE
  5
3F8
100
AcDbEntity
  8
IMPORT_IGES
100
AcDbLine
 62
7
  6
CONTINUOUS
 10
53.6
 20
211.4468870598
 11
35.6
 21
211.4468870598
  0
LINE
  5
3F9
100
AcDbEntity
  8
IMPORT_IGES
100
AcDbLine
 62
7
  6
CONTINUOUS
 10
31.6
 20
211.4468870598
 11
13.6
 21
211.4468870598
  0
LINE
  5
3FA
100
AcDbEntity
  8
IMPORT_IGES
100
AcDbLine
 62
7
  6
CONTINUOUS
 10
9.6
 20
211.4468870598
 11
-8.4
 21
211.4468870598
  0
LINE
  5
3FB
100
AcDbEntity
  8
IMPORT_IGES
100
AcDbLine
 62
7
  6
CONTINUOUS
 10
-12.4
 20
211.4468870598
 11
-30.4
 21
211.4468870598
  0
LINE
  5
3FC
100
AcDbEntity
  8
IMPORT_IGES
100
AcDbLine
 62
7
  6
CONTINUOUS
 10
-34.4
 20
211.4468870598
 11
-52.4
 21
211.4468870598
  0
LINE
  5
3FD
100
AcDbEntity
  8
IMPORT_IGES
100
AcDbLine
 62
7
  6
CONTINUOUS
 10
-56.4
 20
211.4468870598
 11
-74.4
 21
211.4468870598
  0
LINE
  5
3FE
100
AcDbEntity
  8
IMPORT_IGES
100
AcDbLine
 62
7
  6
CONTINUOUS
 10
-78.4
 20
211.4468870598
 11
-96.4
 21
211.4468870598
  0
LINE
  5
3FF
100
AcDbEntity
  8
IMPORT_IGES
100
AcDbLine
 62
7
  6
CONTINUOUS
 10
-107.4020723989
 20
212.9468720598
 11
-101.4020843989
 21
212.9468720598
  0
LINE
  5
400
100
AcDbEntity
  8
IMPORT_IGES
100
AcDbLine
 62
7
  6
CONTINUOUS
 10
64.5987542324
 20
212.9468720598
 11
70.5987422324
 21
212.9468720598
  0
LINE
  5
401
100
AcDbEntity
  8
IMPORT_IGES
100
AcDbLine
 62
7
  6
CONTINUOUS
 10
-96.4
 20
213.4468870598
 11
-78.4
 21
213.4468870598
  0
LINE
  5
402
100
AcDbEntity
  8
IMPORT_IGES
100
AcDbLine
 62
7
  6
CONTINUOUS
 10
-74.4
 20
213.4468870598
 11
-56.4
 21
213.4468870598
  0
LINE
  5
403
100
AcDbEntity
  8
IMPORT_IGES
100
AcDbLine
 62
7
  6
CONTINUOUS
 10
-52.4
 20
213.4468870598
 11
-34.4
 21
213.4468870598
  0
LINE
  5
404
100
AcDbEntity
  8
IMPORT_IGES
100
AcDbLine
 62
7
  6
CONTINUOUS
 10
-30.4
 20
213.4468870598
 11
-12.4
 21
213.4468870598
  0
LINE
  5
405
100
AcDbEntity
  8
IMPORT_IGES
100
AcDbLine
 62
7
  6
CONTINUOUS
 10
-8.4
 20
213.4468870598
 11
9.6
 21
213.4468870598
  0
LINE
  5
406
100
AcDbEntity
  8
IMPORT_IGES
100
AcDbLine
 62
7
  6
CONTINUOUS
 10
13.6
 20
213.4468870598
 11
31.6
 21
213.4468870598
  0
LINE
  5
407
100
AcDbEntity
  8
IMPORT_IGES
100
AcDbLine
 62
7
  6
CONTINUOUS
 10
35.6
 20
213.4468870598
 11
53.6
 21
213.4468870598
  0
LINE
  5
408
100
AcDbEntity
  8
IMPORT_IGES
100
AcDbLine
 62
7
  6
CONTINUOUS
 10
-110.4020663989
 20
214.4468690598
 11
-107.4020723989
 21
214.4468690598
  0
LINE
  5
409
100
AcDbEntity
  8
IMPORT_IGES
100
AcDbLine
 62
7
  6
CONTINUOUS
 10
61.5987602324
 20
214.4468690598
 11
64.5987542324
 21
214.4468690598
  0
LINE
  5
40A
100
AcDbEntity
  8
IMPORT_IGES
100
AcDbLine
 62
7
  6
CONTINUOUS
 10
53.6
 20
215.4468870598
 11
35.6
 21
215.4468870598
  0
LINE
  5
40B
100
AcDbEntity
  8
IMPORT_IGES
100
AcDbLine
 62
7
  6
CONTINUOUS
 10
31.6
 20
215.4468870598
 11
13.6
 21
215.4468870598
  0
LINE
  5
40C
100
AcDbEntity
  8
IMPORT_IGES
100
AcDbLine
 62
7
  6
CONTINUOUS
 10
9.6
 20
215.4468870598
 11
-8.4
 21
215.4468870598
  0
LINE
  5
40D
100
AcDbEntity
  8
IMPORT_IGES
100
AcDbLine
 62
7
  6
CONTINUOUS
 10
-12.4
 20
215.4468870598
 11
-30.4
 21
215.4468870598
  0
LINE
  5
40E
100
AcDbEntity
  8
IMPORT_IGES
100
AcDbLine
 62
7
  6
CONTINUOUS
 10
-34.4
 20
215.4468870598
 11
-52.4
 21
215.4468870598
  0
LINE
  5
40F
100
AcDbEntity
  8
IMPORT_IGES
100
AcDbLine
 62
7
  6
CONTINUOUS
 10
-56.4
 20
215.4468870598
 11
-74.4
 21
215.4468870598
  0
LINE
  5
410
100
AcDbEntity
  8
IMPORT_IGES
100
AcDbLine
 62
7
  6
CONTINUOUS
 10
-78.4
 20
215.4468870598
 11
-96.4
 21
215.4468870598
  0
LINE
  5
411
100
AcDbEntity
  8
IMPORT_IGES
100
AcDbLine
 62
7
  6
CONTINUOUS
 10
70.5987422324
 20
217.4468630598
 11
58.5987662324
 21
217.4468630598
  0
LINE
  5
412
100
AcDbEntity
  8
IMPORT_IGES
100
AcDbLine
 62
7
  6
CONTINUOUS
 10
-101.4020843989
 20
217.4468630598
 11
-113.4020603989
 21
217.4468630598
  0
LINE
  5
413
100
AcDbEntity
  8
IMPORT_IGES
100
AcDbLine
 62
7
  6
CONTINUOUS
 10
-96.4
 20
217.4468870598
 11
-78.4
 21
217.4468870598
  0
LINE
  5
414
100
AcDbEntity
  8
IMPORT_IGES
100
AcDbLine
 62
7
  6
CONTINUOUS
 10
-74.4
 20
217.4468870598
 11
-56.4
 21
217.4468870598
  0
LINE
  5
415
100
AcDbEntity
  8
IMPORT_IGES
100
AcDbLine
 62
7
  6
CONTINUOUS
 10
-52.4
 20
217.4468870598
 11
-34.4
 21
217.4468870598
  0
LINE
  5
416
100
AcDbEntity
  8
IMPORT_IGES
100
AcDbLine
 62
7
  6
CONTINUOUS
 10
-30.4
 20
217.4468870598
 11
-12.4
 21
217.4468870598
  0
LINE
  5
417
100
AcDbEntity
  8
IMPORT_IGES
100
AcDbLine
 62
7
  6
CONTINUOUS
 10
-8.4
 20
217.4468870598
 11
9.6
 21
217.4468870598
  0
LINE
  5
418
100
AcDbEntity
  8
IMPORT_IGES
100
AcDbLine
 62
7
  6
CONTINUOUS
 10
13.6
 20
217.4468870598
 11
31.6
 21
217.4468870598
  0
LINE
  5
419
100
AcDbEntity
  8
IMPORT_IGES
100
AcDbLine
 62
7
  6
CONTINUOUS
 10
35.6
 20
217.4468870598
 11
53.6
 21
217.4468870598
  0
LINE
  5
41A
100
AcDbEntity
  8
IMPORT_IGES
100
AcDbLine
 62
7
  6
CONTINUOUS
 10
53.6
 20
219.4468870598
 11
35.6
 21
219.4468870598
  0
LINE
  5
41B
100
AcDbEntity
  8
IMPORT_IGES
100
AcDbLine
 62
7
  6
CONTINUOUS
 10
31.6
 20
219.4468870598
 11
13.6
 21
219.4468870598
  0
LINE
  5
41C
100
AcDbEntity
  8
IMPORT_IGES
100
AcDbLine
 62
7
  6
CONTINUOUS
 10
9.6
 20
219.4468870598
 11
-8.4
 21
219.4468870598
  0
LINE
  5
41D
100
AcDbEntity
  8
IMPORT_IGES
100
AcDbLine
 62
7
  6
CONTINUOUS
 10
-12.4
 20
219.4468870598
 11
-30.4
 21
219.4468870598
  0
LINE
  5
41E
100
AcDbEntity
  8
IMPORT_IGES
100
AcDbLine
 62
7
  6
CONTINUOUS
 10
-34.4
 20
219.4468870598
 11
-52.4
 21
219.4468870598
  0
LINE
  5
41F
100
AcDbEntity
  8
IMPORT_IGES
100
AcDbLine
 62
7
  6
CONTINUOUS
 10
-56.4
 20
219.4468870598
 11
-74.4
 21
219.4468870598
  0
LINE
  5
420
100
AcDbEntity
  8
IMPORT_IGES
100
AcDbLine
 62
7
  6
CONTINUOUS
 10
-78.4
 20
219.4468870598
 11
-96.4
 21
219.4468870598
  0
LINE
  5
421
100
AcDbEntity
  8
IMPORT_IGES
100
AcDbLine
 62
7
  6
CONTINUOUS
 10
-96.4
 20
221.4468870598
 11
-78.4
 21
221.4468870598
  0
LINE
  5
422
100
AcDbEntity
  8
IMPORT_IGES
100
AcDbLine
 62
7
  6
CONTINUOUS
 10
-74.4
 20
221.4468870598
 11
-56.4
 21
221.4468870598
  0
LINE
  5
423
100
AcDbEntity
  8
IMPORT_IGES
100
AcDbLine
 62
7
  6
CONTINUOUS
 10
-52.4
 20
221.4468870598
 11
-34.4
 21
221.4468870598
  0
LINE
  5
424
100
AcDbEntity
  8
IMPORT_IGES
100
AcDbLine
 62
7
  6
CONTINUOUS
 10
-30.4
 20
221.4468870598
 11
-12.4
 21
221.4468870598
  0
LINE
  5
425
100
AcDbEntity
  8
IMPORT_IGES
100
AcDbLine
 62
7
  6
CONTINUOUS
 10
-8.4
 20
221.4468870598
 11
9.6
 21
221.4468870598
  0
LINE
  5
426
100
AcDbEntity
  8
IMPORT_IGES
100
AcDbLine
 62
7
  6
CONTINUOUS
 10
13.6
 20
221.4468870598
 11
31.6
 21
221.4468870598
  0
LINE
  5
427
100
AcDbEntity
  8
IMPORT_IGES
100
AcDbLine
 62
7
  6
CONTINUOUS
 10
35.6
 20
221.4468870598
 11
53.6
 21
221.4468870598
  0
LWPOLYLINE
  5
428
100
AcDbEntity
  8
IMPORT_IGES
100
AcDbPolyline
 62
7
  6
CONTINUOUS
 90
46
 70
0
 10
-186.2279437302
 20
231.5304337948
 10
-186.2086333703
 20
231.5286789928
 10
-186.189539124
 20
231.526720111
 10
-186.1706609911
 20
231.5245500859
 10
-186.1519541305
 20
231.5221522746
 10
-186.1334633834
 20
231.5195270362
 10
-186.1153232736
 20
231.5166931743
 10
-186.0975364788
 20
231.5136394213
 10
-186.0801003212
 20
231.5103603343
 10
-186.0631412916
 20
231.5068861365
 10
-186.0466767995
 20
231.5032095105
 10
-186.0306894353
 20
231.4993232815
 10
-186.0152534608
 20
231.4952618607
 10
-186.0003817129
 20
231.4910208337
 10
-185.9860613548
 20
231.4865938215
 10
-185.972328137
 20
231.4820167059
 10
-185.9591957112
 20
231.477289411
 10
-185.9466504258
 20
231.4724055676
 10
-185.9346870767
 20
231.4673956617
 10
-185.9233097132
 20
231.4622590917
 10
-185.912514286
 20
231.4569935598
 10
-185.9022834433
 20
231.4516304935
 10
-185.8926236687
 20
231.4461740011
 10
-185.8835284786
 20
231.4406205999
 10
-185.8749610696
 20
231.4349930855
 10
-185.8669221141
 20
231.4292943186
 10
-185.8594109396
 20
231.4235241559
 10
-185.852388726
 20
231.4177027846
 10
-185.845858503
 20
231.4118372225
 10
-185.8398172409
 20
231.4059248473
 10
-185.8342170307
 20
231.3999723716
 10
-185.8290557148
 20
231.3939835744
 10
-185.8243354508
 20
231.387959194
 10
-185.8200148021
 20
231.3819015318
 10
-185.8160915229
 20
231.375814059
 10
-185.812567859
 20
231.3696976488
 10
-185.809409111
 20
231.3635505325
 10
-185.8066123913
 20
231.3573730784
 10
-185.8041805876
 20
231.351168766
 10
-185.8020876632
 20
231.3449403487
 10
-185.8003312874
 20
231.3386922601
 10
-185.798913791
 20
231.3324239022
 10
-185.7978161301
 20
231.3261302653
 10
-185.7970319566
 20
231.319810668
 10
-185.7965676185
 20
231.313468984
 10
-185.7964231159
 20
231.3071068018
  0
LWPOLYLINE
  5
429
100
AcDbEntity
  8
IMPORT_IGES
100
AcDbPolyline
 62
7
  6
CONTINUOUS
 90
6
 70
0
 10
-183.1405430755
 20
229.8836546809
 10
-183.1042156444
 20
229.8792125948
 10
-183.069864799
 20
229.874253852
 10
-183.0374905392
 20
229.8687427228
 10
-183.0071113845
 20
229.8625749125
 10
-182.9787088155
 20
229.8557717246
  0
LINE
  5
42A
100
AcDbEntity
  8
IMPORT_IGES
100
AcDbLine
 62
7
  6
CONTINUOUS
 10
-183.6789013527
 20
229.39422585
 11
-183.7138403344
 21
229.3934979172
  0
LINE
  5
42B
100
AcDbEntity
  8
IMPORT_IGES
100
AcDbLine
 62
7
  6
CONTINUOUS
 10
53.6
 20
223.4468870598
 11
35.6
 21
223.4468870598
  0
LINE
  5
42C
100
AcDbEntity
  8
IMPORT_IGES
100
AcDbLine
 62
7
  6
CONTINUOUS
 10
31.6
 20
223.4468870598
 11
13.6
 21
223.4468870598
  0
LINE
  5
42D
100
AcDbEntity
  8
IMPORT_IGES
100
AcDbLine
 62
7
  6
CONTINUOUS
 10
9.6
 20
223.4468870598
 11
-8.4
 21
223.4468870598
  0
LINE
  5
42E
100
AcDbEntity
  8
IMPORT_IGES
100
AcDbLine
 62
7
  6
CONTINUOUS
 10
-12.4
 20
223.4468870598
 11
-30.4
 21
223.4468870598
  0
LINE
  5
42F
100
AcDbEntity
  8
IMPORT_IGES
100
AcDbLine
 62
7
  6
CONTINUOUS
 10
-34.4
 20
223.4468870598
 11
-52.4
 21
223.4468870598
  0
LINE
  5
430
100
AcDbEntity
  8
IMPORT_IGES
100
AcDbLine
 62
7
  6
CONTINUOUS
 10
-56.4
 20
223.4468870598
 11
-74.4
 21
223.4468870598
  0
LINE
  5
431
100
AcDbEntity
  8
IMPORT_IGES
100
AcDbLine
 62
7
  6
CONTINUOUS
 10
-78.4
 20
223.4468870598
 11
-96.4
 21
223.4468870598
  0
LINE
  5
432
100
AcDbEntity
  8
IMPORT_IGES
100
AcDbLine
 62
250
  6
CONTINUOUS
 10
-182.2996252
 20
228.9493014859
 11
183.4996252
 21
228.9493014859
  0
LINE
  5
433
100
AcDbEntity
  8
IMPORT_IGES
100
AcDbLine
 62
7
  6
CONTINUOUS
 10
-184.2996252
 20
229.8493014859
 11
-183.2996252
 21
229.8493014859
  0
LINE
  5
434
100
AcDbEntity
  8
IMPORT_IGES
100
AcDbLine
 62
7
  6
CONTINUOUS
 10
184.4996252
 20
229.8493014859
 11
185.4996252
 21
229.8493014859
  0
LINE
  5
435
100
AcDbEntity
  8
IMPORT_IGES
100
AcDbLine
 62
7
  6
CONTINUOUS
 10
185.4996252
 20
229.9493014859
 11
184.3996252
 21
229.9493014859
  0
LINE
  5
436
100
AcDbEntity
  8
IMPORT_IGES
100
AcDbLine
 62
7
  6
CONTINUOUS
 10
-183.1996252
 20
229.9493014859
 11
-184.2996252
 21
229.9493014859
  0
LINE
  5
437
100
AcDbEntity
  8
IMPORT_IGES
100
AcDbLine
 62
250
  6
CONTINUOUS
 10
-185.3
 20
230.6
 11
-184.2996252
 21
230.6
  0
LINE
  5
438
100
AcDbEntity
  8
IMPORT_IGES
100
AcDbLine
 62
7
  6
CONTINUOUS
 10
185.4996252
 20
230.9493014859
 11
-184.2996252
 21
230.9493014859
  0
LINE
  5
439
100
AcDbEntity
  8
IMPORT_IGES
100
AcDbLine
 62
7
  6
CONTINUOUS
 10
-187.5
 20
231.598
 11
-186.3
 21
231.598
  0
LINE
  5
43A
100
AcDbEntity
  8
IMPORT_IGES
100
AcDbLine
 62
7
  6
CONTINUOUS
 10
186.3
 20
231.598
 11
187.5
 21
231.598
  0
LINE
  5
43B
100
AcDbEntity
  8
IMPORT_IGES
100
AcDbLine
 62
7
  6
CONTINUOUS
 10
-186.298
 20
231.6
 11
186.298
 21
231.6
  0
LINE
  5
43C
100
AcDbEntity
  8
IMPORT_IGES
100
AcDbLine
 62
7
  6
CONTINUOUS
 10
-186.298
 20
232.8
 11
186.298
 21
232.8
  0
LWPOLYLINE
  5
43D
100
AcDbEntity
  8
IMPORT_IGES
100
AcDbPolyline
 62
7
  6
CONTINUOUS
 90
19
 70
0
 10
184.9138402544
 20
229.393439728
 10
184.8789371762
 20
229.3941193019
 10
184.8436511286
 20
229.396627282
 10
184.808032234
 20
229.4009636721
 10
184.7720635269
 20
229.4071571682
 10
184.7358543726
 20
229.4151790743
 10
184.6996527478
 20
229.4249433025
 10
184.663533819
 20
229.4364393619
 10
184.6275288161
 20
229.4496777435
 10
184.5918339069
 20
229.4646038317
 10
184.5564714987
 20
229.4812386937
 10
184.5215212299
 20
229.4995612624
 10
184.4872763597
 20
229.5194537203
 10
184.4538262881
 20
229.5409102025
 10
184.42118331
 20
229.5639365738
 10
184.3895325859
 20
229.5884326119
 10
184.3589663944
 20
229.6143649092
 10
184.3294798279
 20
229.6417668731
 10
184.3011107754
 20
229.6706385037
  0
LWPOLYLINE
  5
43E
100
AcDbEntity
  8
IMPORT_IGES
100
AcDbPolyline
 62
7
  6
CONTINUOUS
 90
46
 70
0
 10
-186.0071068136
 20
231.0964233688
 10
-186.0133821391
 20
231.0965625494
 10
-186.0196599686
 20
231.0970245654
 10
-186.0259381444
 20
231.0978094168
 10
-186.0322154597
 20
231.0989103768
 10
-186.0384886661
 20
231.1003341722
 10
-186.0447525726
 20
231.1021009831
 10
-186.051006043
 20
231.1042096109
 10
-186.0572456991
 20
231.1066612542
 10
-186.0634632206
 20
231.1094796886
 10
-186.069656244
 20
231.1126630478
 10
-186.0758228422
 20
231.1162131981
 10
-186.0819556892
 20
231.1201595132
 10
-186.0880536215
 20
231.124500007
 10
-186.094113688
 20
231.1292366655
 10
-186.1001263223
 20
231.134404821
 10
-186.1060894394
 20
231.1400016375
 10
-186.1120015007
 20
231.1460299509
 10
-186.1178542982
 20
231.1525336005
 10
-186.1236465199
 20
231.1595104911
 10
-186.1293763018
 20
231.1669627179
 10
-186.1350351788
 20
231.1749404062
 10
-186.1406247086
 20
231.1834439542
 10
-186.1461406696
 20
231.1924729636
 10
-186.1515669731
 20
231.2020763654
 10
-186.1569090132
 20
231.2122640131
 10
-186.1621601062
 20
231.2230260532
 10
-186.1672884559
 20
231.2343818556
 10
-186.1722968341
 20
231.246337032
 10
-186.1771847357
 20
231.2588859707
 10
-186.1819190624
 20
231.2720312057
 10
-186.1865061763
 20
231.2857876397
 10
-186.1909458197
 20
231.3001403701
 10
-186.195199301
 20
231.3150472233
 10
-186.1992725749
 20
231.3305211813
 10
-186.2031704903
 20
231.3465492621
 10
-186.2068573529
 20
231.363050347
 10
-186.2103399718
 20
231.38003981
 10
-186.2136261917
 20
231.3975022772
 10
-186.21668592
 20
231.4153105074
 10
-186.2195249805
 20
231.4334676744
 10
-186.2221543708
 20
231.4519706045
 10
-186.2245544793
 20
231.4706825354
 10
-186.2267247497
 20
231.4895578797
 10
-186.2286821907
 20
231.5086422249
 10
-186.2304339267
 20
231.5279355709
  0
LWPOLYLINE
  5
43F
100
AcDbEntity
  8
IMPORT_IGES
100
AcDbPolyline
 62
7
  6
CONTINUOUS
 90
13
 70
0
 10
186.0071067057
 20
231.0964231139
 10
185.9968860909
 20
231.0966915288
 10
185.9862263865
 20
231.0979115077
 10
185.9751175745
 20
231.1000830528
 10
185.9634229248
 20
231.1032165994
 10
185.9512556746
 20
231.1073017122
 10
185.9389969497
 20
231.1123070841
 10
185.9268211981
 20
231.1181872745
 10
185.9145707198
 20
231.124987724
 10
185.902140306
 20
231.1328134476
 10
185.8894944451
 20
231.1416994499
 10
185.8766718316
 20
231.1516107263
 10
185.8636746259
 20
231.1625472766
  0
LWPOLYLINE
  5
440
100
AcDbEntity
  8
IMPORT_IGES
100
AcDbPolyline
 62
7
  6
CONTINUOUS
 90
18
 70
0
 10
184.3011107754
 20
-229.6706385037
 10
184.3293504461
 20
-229.641902936
 10
184.358737352
 20
-229.6146116793
 10
184.3892331606
 20
-229.5887647336
 10
184.4208431286
 20
-229.5643261841
 10
184.453473439
 20
-229.5413319455
 10
184.4869355774
 20
-229.5198897619
 10
184.5212296538
 20
-229.4999899683
 10
184.556251861
 20
-229.4816422296
 10
184.591666851
 20
-229.4649832847
 10
184.627374192
 20
-229.4500440451
 10
184.6633742172
 20
-229.4367935992
 10
184.6994945807
 20
-229.4252759517
 10
184.7357116071
 20
-229.4154742491
 10
184.771941665
 20
-229.4074053449
 10
184.8079354937
 20
-229.4011638031
 10
184.8435830876
 20
-229.3967811453
 10
184.8789013527
 20
-229.39422585
  0
LWPOLYLINE
  5
441
100
AcDbEntity
  8
IMPORT_IGES
100
AcDbPolyline
 62
7
  6
CONTINUOUS
 90
36
 70
0
 10
184.2209622178
 20
-229.7507870612
 10
184.2080953247
 20
-229.7631233149
 10
184.1953120257
 20
-229.776031031
 10
184.1826123209
 20
-229.7895037434
 10
184.1699683546
 20
-229.8035433016
 10
184.1574079825
 20
-229.8181334361
 10
184.1450147719
 20
-229.8332400745
 10
184.1327925249
 20
-229.8488568751
 10
184.1207374395
 20
-229.8649733889
 10
184.1089216767
 20
-229.881549342
 10
184.0973429814
 20
-229.8985864419
 10
184.0860036088
 20
-229.9160637835
 10
184.0749824849
 20
-229.9339078388
 10
184.0642772897
 20
-229.9521254122
 10
184.0538903433
 20
-229.9706893682
 10
184.0439075322
 20
-229.9894776903
 10
184.034339037
 20
-230.0084774367
 10
184.0251746771
 20
-230.0276831266
 10
184.016469797
 20
-230.0469876384
 10
184.0082342935
 20
-230.0663709356
 10
184.0004582697
 20
-230.0858372097
 10
183.9931673794
 20
-230.1053188872
 10
183.9863631429
 20
-230.1248133357
 10
183.9800440398
 20
-230.1443087659
 10
183.974231163
 20
-230.1637269835
 10
183.9689270771
 20
-230.1830687968
 10
183.9641292175
 20
-230.2023220421
 10
183.9598509836
 20
-230.2213934695
 10
183.9560989482
 20
-230.2402617638
 10
183.9528665385
 20
-230.2589424269
 10
183.9501474357
 20
-230.27740107
 10
183.9479412767
 20
-230.2956155323
 10
183.9462484245
 20
-230.313604479
 10
183.9450636494
 20
-230.3313948485
 10
183.9443849029
 20
-230.3489964402
 10
183.944207356
 20
-230.3635150483
  0
LINE
  5
442
100
AcDbEntity
  8
IMPORT_IGES
100
AcDbLine
 62
7
  6
CONTINUOUS
 10
186.1534818655
 20
-231.4299941782
 11
186.1597766512
 21
-231.4240513562
  0
LINE
  5
443
100
AcDbEntity
  8
IMPORT_IGES
100
AcDbLine
 62
7
  6
CONTINUOUS
 10
186.1597766512
 20
-231.4240513562
 11
186.1667503898
 21
-231.4175331257
  0
LINE
  5
444
100
AcDbEntity
  8
IMPORT_IGES
100
AcDbLine
 62
7
  6
CONTINUOUS
 10
186.1667503898
 20
-231.4175331257
 11
186.1743769396
 21
-231.4104835566
  0
LINE
  5
445
100
AcDbEntity
  8
IMPORT_IGES
100
AcDbLine
 62
7
  6
CONTINUOUS
 10
186.1743769396
 20
-231.4104835566
 11
186.1826929802
 21
-231.4028903971
  0
LWPOLYLINE
  5
446
100
AcDbEntity
  8
IMPORT_IGES
100
AcDbPolyline
 62
7
  6
CONTINUOUS
 90
3
 70
0
 10
186.0981760675
 20
-231.4938102474
 10
186.0848749428
 20
-231.5058892664
 10
186.0801992211
 20
-231.510369624
  0
LINE
  5
447
100
AcDbEntity
  8
IMPORT_IGES
100
AcDbLine
 62
7
  6
CONTINUOUS
 10
186.1826929802
 20
-231.4028903971
 11
186.1886493279
 21
-231.397511244
  0
LWPOLYLINE
  5
448
100
AcDbEntity
  8
IMPORT_IGES
100
AcDbPolyline
 62
7
  6
CONTINUOUS
 90
3
 70
0
 10
186.1886493279
 20
-231.397511244
 10
186.1949677593
 20
-231.3918613257
 10
186.1982658361
 20
-231.388933012
  0
LINE
  5
449
100
AcDbEntity
  8
IMPORT_IGES
100
AcDbLine
 62
7
  6
CONTINUOUS
 10
186.1982658361
 20
-231.388933012
 11
186.2100744091
 21
-231.3785798865
  0
LINE
  5
44A
100
AcDbEntity
  8
IMPORT_IGES
100
AcDbLine
 62
7
  6
CONTINUOUS
 10
186.1113885776
 20
-231.4823892855
 11
186.0981760675
 21
-231.4938102474
  0
LWPOLYLINE
  5
44B
100
AcDbEntity
  8
IMPORT_IGES
100
AcDbPolyline
 62
7
  6
CONTINUOUS
 90
13
 70
0
 10
185.8636746259
 20
-231.1625472766
 10
185.8770053004
 20
-231.152161571
 10
185.8900506743
 20
-231.1425985637
 10
185.9028120246
 20
-231.1338582548
 10
185.9152189266
 20
-231.1258890655
 10
185.9273466933
 20
-231.1187425746
 10
185.9394075703
 20
-231.1125735177
 10
185.9515958533
 20
-231.1074321219
 10
185.9636993194
 20
-231.1032681602
 10
185.9753287222
 20
-231.1000856873
 10
185.9863683116
 20
-231.0978860548
 10
185.9969576112
 20
-231.0966679111
 10
186.0071068317
 20
-231.0964312562
  0
LWPOLYLINE
  5
44C
100
AcDbEntity
  8
IMPORT_IGES
100
AcDbPolyline
 62
7
  6
CONTINUOUS
 90
4
 70
0
 10
186.1504092439
 20
-231.4521102208
 10
186.1374909697
 20
-231.4615314164
 10
186.1244840809
 20
-231.4716260043
 10
186.1113885776
 20
-231.4823892855
  0
LINE
  5
44D
100
AcDbEntity
  8
IMPORT_IGES
100
AcDbLine
 62
7
  6
CONTINUOUS
 10
186.1299941782
 20
231.4534818655
 11
186.1240513562
 21
231.4597766511
  0
LINE
  5
44E
100
AcDbEntity
  8
IMPORT_IGES
100
AcDbLine
 62
7
  6
CONTINUOUS
 10
186.1240513562
 20
231.4597766511
 11
186.1175331258
 21
231.4667503897
  0
LINE
  5
44F
100
AcDbEntity
  8
IMPORT_IGES
100
AcDbLine
 62
7
  6
CONTINUOUS
 10
186.1175331258
 20
231.4667503897
 11
186.1104835567
 21
231.4743769395
  0
LINE
  5
450
100
AcDbEntity
  8
IMPORT_IGES
100
AcDbLine
 62
7
  6
CONTINUOUS
 10
186.1104835567
 20
231.4743769395
 11
186.1028903971
 21
231.4826929801
  0
LWPOLYLINE
  5
451
100
AcDbEntity
  8
IMPORT_IGES
100
AcDbPolyline
 62
7
  6
CONTINUOUS
 90
3
 70
0
 10
186.1938949991
 20
231.3980648194
 10
186.2059697308
 20
231.3847684918
 10
186.2103738545
 20
231.3801722132
  0
LINE
  5
452
100
AcDbEntity
  8
IMPORT_IGES
100
AcDbLine
 62
7
  6
CONTINUOUS
 10
186.1028903971
 20
231.4826929801
 11
186.0975112441
 21
231.4886493278
  0
LWPOLYLINE
  5
453
100
AcDbEntity
  8
IMPORT_IGES
100
AcDbPolyline
 62
7
  6
CONTINUOUS
 90
3
 70
0
 10
186.0975112441
 20
231.4886493278
 10
186.0918613257
 20
231.4949677592
 10
186.0889330121
 20
231.498265836
  0
LINE
  5
454
100
AcDbEntity
  8
IMPORT_IGES
100
AcDbLine
 62
7
  6
CONTINUOUS
 10
186.0889330121
 20
231.498265836
 11
186.0785797533
 21
231.5100745626
  0
LINE
  5
455
100
AcDbEntity
  8
IMPORT_IGES
100
AcDbLine
 62
7
  6
CONTINUOUS
 10
186.1824686117
 20
231.4112848125
 11
186.1938949991
 21
231.3980648194
  0
LWPOLYLINE
  5
456
100
AcDbEntity
  8
IMPORT_IGES
100
AcDbPolyline
 62
7
  6
CONTINUOUS
 90
4
 70
0
 10
186.1521115715
 20
231.4504073483
 10
186.1615686372
 20
231.4374428375
 10
186.1716892006
 20
231.4244019923
 10
186.1824686117
 20
231.4112848125
  0
ARC
  5
457
100
AcDbEntity
  8
IMPORT_IGES
100
AcDbCircle
 62
7
  6
CONTINUOUS
 10
-19.8512668123
 20
-34.618895307
 40
15.0
100
AcDbArc
 50
90.0
 51
270.0
  0
ARC
  5
458
100
AcDbEntity
  8
IMPORT_IGES
100
AcDbCircle
 62
7
  6
CONTINUOUS
 10
-158.8512668123
 20
-34.618895307
 40
15.0
100
AcDbArc
 50
90.0
 51
270.0
  0
ARC
  5
459
100
AcDbEntity
  8
IMPORT_IGES
100
AcDbCircle
 62
7
  6
CONTINUOUS
 10
-113.0408281266
 20
-34.618895307
 40
15.0
100
AcDbArc
 50
270.0
 51
90.0
  0
ARC
  5
45A
100
AcDbEntity
  8
IMPORT_IGES
100
AcDbCircle
 62
7
  6
CONTINUOUS
 10
-98.2171898214
 20
-113.348955599
 40
12.5
100
AcDbArc
 50
180.0
 51
360.0
  0
ARC
  5
45B
100
AcDbEntity
  8
IMPORT_IGES
100
AcDbCircle
 62
7
  6
CONTINUOUS
 10
-98.2171898214
 20
-98.348955599
 40
12.5
100
AcDbArc
 50
0.0
 51
180.0
  0
ARC
  5
45C
100
AcDbEntity
  8
IMPORT_IGES
100
AcDbCircle
 62
7
  6
CONTINUOUS
 10
-98.2171898214
 20
-161.7803468593
 40
12.5
100
AcDbArc
 50
0.0
 51
180.0
  0
ARC
  5
45D
100
AcDbEntity
  8
IMPORT_IGES
100
AcDbCircle
 62
7
  6
CONTINUOUS
 10
-98.2171898214
 20
-176.7803468593
 40
12.5
100
AcDbArc
 50
180.0
 51
360.0
  0
CIRCLE
  5
45E
100
AcDbEntity
  8
IMPORT_IGES
100
AcDbCircle
 62
7
  6
CONTINUOUS
 10
-159.2997452
 20
-205.9493514859
 40
12.2670143704
  0
CIRCLE
  5
45F
100
AcDbEntity
  8
IMPORT_IGES
100
AcDbCircle
 62
250
  6
CONTINUOUS
 10
-159.2997452
 20
-205.9493514859
 40
7.7788173754
  0
CIRCLE
  5
460
100
AcDbEntity
  8
IMPORT_IGES
100
AcDbCircle
 62
250
  6
CONTINUOUS
 10
-159.2997452
 20
-205.9493514859
 40
7.1360297657
  0
ARC
  5
461
100
AcDbEntity
  8
IMPORT_IGES
100
AcDbCircle
 62
7
  6
CONTINUOUS
 10
-158.3
 20
-207.5027566878
 40
3.2
100
AcDbArc
 50
180.0000000014
 51
181.7566614317
  0
CIRCLE
  5
462
100
AcDbEntity
  8
IMPORT_IGES
100
AcDbCircle
 62
7
  6
CONTINUOUS
 10
-159.2997452
 20
-205.9493514859
 40
2.75
  0
ARC
  5
463
100
AcDbEntity
  8
IMPORT_IGES
100
AcDbCircle
 62
7
  6
CONTINUOUS
 10
-182.2996252
 20
-227.8493014859
 40
2.0
100
AcDbArc
 50
243.0203504245
 51
249.6028456758
  0
CIRCLE
  5
464
100
AcDbEntity
  8
IMPORT_IGES
100
AcDbCircle
 62
7
  6
CONTINUOUS
 10
-125.9671898214
 20
-88.0646512291
 40
1.6
  0
CIRCLE
  5
465
100
AcDbEntity
  8
IMPORT_IGES
100
AcDbCircle
 62
7
  6
CONTINUOUS
 10
-70.4671898214
 20
-185.0646512291
 40
1.6
  0
CIRCLE
  5
466
100
AcDbEntity
  8
IMPORT_IGES
100
AcDbCircle
 62
7
  6
CONTINUOUS
 10
-172.4671898214
 20
-185.0646512291
 40
1.6
  0
CIRCLE
  5
467
100
AcDbEntity
  8
IMPORT_IGES
100
AcDbCircle
 62
7
  6
CONTINUOUS
 10
-23.9671898214
 20
-88.0646512291
 40
1.6
  0
CIRCLE
  5
468
100
AcDbEntity
  8
IMPORT_IGES
100
AcDbCircle
 62
7
  6
CONTINUOUS
 10
-140.7300706303
 20
111.6658989836
 40
10.0
  0
CIRCLE
  5
469
100
AcDbEntity
  8
IMPORT_IGES
100
AcDbCircle
 62
7
  6
CONTINUOUS
 10
-161.717259845
 20
91.3931740153
 40
10.0
  0
CIRCLE
  5
46A
100
AcDbEntity
  8
IMPORT_IGES
100
AcDbCircle
 62
7
  6
CONTINUOUS
 10
-118.7496343
 20
114.3094970389
 40
2.10999578
  0
CIRCLE
  5
46B
100
AcDbEntity
  8
IMPORT_IGES
100
AcDbCircle
 62
7
  6
CONTINUOUS
 10
-110.1386882513
 20
94.5302335614
 40
1.6
  0
CIRCLE
  5
46C
100
AcDbEntity
  8
IMPORT_IGES
100
AcDbCircle
 62
7
  6
CONTINUOUS
 10
-110.1386182513
 20
29.5302335614
 40
1.6
  0
CIRCLE
  5
46D
100
AcDbEntity
  8
IMPORT_IGES
100
AcDbCircle
 62
7
  6
CONTINUOUS
 10
-145.1386882513
 20
94.5301958691
 40
1.6
  0
CIRCLE
  5
46E
100
AcDbEntity
  8
IMPORT_IGES
100
AcDbCircle
 62
7
  6
CONTINUOUS
 10
-145.1386182513
 20
29.5301958691
 40
1.6
  0
CIRCLE
  5
46F
100
AcDbEntity
  8
IMPORT_IGES
100
AcDbCircle
 62
7
  6
CONTINUOUS
 10
-159.2996252
 20
205.9493014859
 40
12.2670143704
  0
CIRCLE
  5
470
100
AcDbEntity
  8
IMPORT_IGES
100
AcDbCircle
 62
250
  6
CONTINUOUS
 10
-159.2996252
 20
205.9493014859
 40
7.7788173754
  0
CIRCLE
  5
471
100
AcDbEntity
  8
IMPORT_IGES
100
AcDbCircle
 62
250
  6
CONTINUOUS
 10
-159.2996252
 20
205.9493014859
 40
7.1360297657
  0
CIRCLE
  5
472
100
AcDbEntity
  8
IMPORT_IGES
100
AcDbCircle
 62
7
  6
CONTINUOUS
 10
-159.2996252
 20
205.9493014859
 40
2.75
  0
ARC
  5
473
100
AcDbEntity
  8
IMPORT_IGES
100
AcDbCircle
 62
7
  6
CONTINUOUS
 10
-117.4419330576
 20
184.6038521659
 40
2.499995
100
AcDbArc
 50
270.0000000004
 51
360.0
  0
ARC
  5
474
100
AcDbEntity
  8
IMPORT_IGES
100
AcDbCircle
 62
7
  6
CONTINUOUS
 10
-117.4419330576
 20
190.6038401659
 40
2.499995
100
AcDbArc
 50
0.0
 51
89.9999999996
  0
CIRCLE
  5
475
100
AcDbEntity
  8
IMPORT_IGES
100
AcDbCircle
 62
7
  6
CONTINUOUS
 10
-163.8395629008
 20
185.4866214593
 40
2.1
  0
ARC
  5
476
100
AcDbEntity
  8
IMPORT_IGES
100
AcDbCircle
 62
7
  6
CONTINUOUS
 10
-182.2996252
 20
227.8493014859
 40
2.0
100
AcDbArc
 50
110.3971426954
 51
116.979636554
  0
CIRCLE
  5
477
100
AcDbEntity
  8
IMPORT_IGES
100
AcDbCircle
 62
7
  6
CONTINUOUS
 10
-166.2996252
 20
155.9993014859
 40
1.6
  0
CIRCLE
  5
478
100
AcDbEntity
  8
IMPORT_IGES
100
AcDbCircle
 62
7
  6
CONTINUOUS
 10
-150.3996252
 20
155.9993014859
 40
1.6
  0
CIRCLE
  5
479
100
AcDbEntity
  8
IMPORT_IGES
100
AcDbCircle
 62
7
  6
CONTINUOUS
 10
-171.2996252
 20
155.9993014859
 40
1.6
  0
ARC
  5
47A
100
AcDbEntity
  8
IMPORT_IGES
100
AcDbCircle
 62
7
  6
CONTINUOUS
 10
-96.4
 20
206.4468870598
 40
1.0
100
AcDbArc
 50
90.0
 51
270.0000000008
  0
ARC
  5
47B
100
AcDbEntity
  8
IMPORT_IGES
100
AcDbCircle
 62
7
  6
CONTINUOUS
 10
-96.4
 20
210.4468870598
 40
1.0
100
AcDbArc
 50
90.0
 51
270.0000000008
  0
ARC
  5
47C
100
AcDbEntity
  8
IMPORT_IGES
100
AcDbCircle
 62
7
  6
CONTINUOUS
 10
-96.4
 20
222.4468870598
 40
1.0
100
AcDbArc
 50
90.0
 51
270.0
  0
ARC
  5
47D
100
AcDbEntity
  8
IMPORT_IGES
100
AcDbCircle
 62
7
  6
CONTINUOUS
 10
-96.4
 20
214.4468870598
 40
1.0
100
AcDbArc
 50
90.0
 51
270.0
  0
ARC
  5
47E
100
AcDbEntity
  8
IMPORT_IGES
100
AcDbCircle
 62
7
  6
CONTINUOUS
 10
-96.4
 20
218.4468870598
 40
1.0
100
AcDbArc
 50
90.0
 51
270.0
  0
ARC
  5
47F
100
AcDbEntity
  8
IMPORT_IGES
100
AcDbCircle
 62
7
  6
CONTINUOUS
 10
-119.4419180576
 20
184.6038571659
 40
0.5
100
AcDbArc
 50
270.0
 51
360.0
  0
ARC
  5
480
100
AcDbEntity
  8
IMPORT_IGES
100
AcDbCircle
 62
7
  6
CONTINUOUS
 10
-119.4419180576
 20
190.6038351659
 40
0.5
100
AcDbArc
 50
0.0
 51
90.0
  0
CIRCLE
  5
481
100
AcDbEntity
  8
IMPORT_IGES
100
AcDbCircle
 62
7
  6
CONTINUOUS
 10
-32.6389992513
 20
29.5304055614
 40
1.6
  0
CIRCLE
  5
482
100
AcDbEntity
  8
IMPORT_IGES
100
AcDbCircle
 62
7
  6
CONTINUOUS
 10
-32.6388432513
 20
94.5302335614
 40
1.6
  0
ARC
  5
483
100
AcDbEntity
  8
IMPORT_IGES
100
AcDbCircle
 62
7
  6
CONTINUOUS
 10
-78.4
 20
206.4468870598
 40
1.0
100
AcDbArc
 50
269.9999999993
 51
90.0
  0
ARC
  5
484
100
AcDbEntity
  8
IMPORT_IGES
100
AcDbCircle
 62
7
  6
CONTINUOUS
 10
-74.4
 20
206.4468870598
 40
1.0
100
AcDbArc
 50
90.0
 51
270.0000000006
  0
ARC
  5
485
100
AcDbEntity
  8
IMPORT_IGES
100
AcDbCircle
 62
7
  6
CONTINUOUS
 10
-56.4
 20
206.4468870598
 40
1.0
100
AcDbArc
 50
269.9999999995
 51
90.0
  0
ARC
  5
486
100
AcDbEntity
  8
IMPORT_IGES
100
AcDbCircle
 62
7
  6
CONTINUOUS
 10
-52.4
 20
206.4468870598
 40
1.0
100
AcDbArc
 50
90.0
 51
270.0000000004
  0
ARC
  5
487
100
AcDbEntity
  8
IMPORT_IGES
100
AcDbCircle
 62
7
  6
CONTINUOUS
 10
-78.4
 20
210.4468870598
 40
1.0
100
AcDbArc
 50
269.9999999993
 51
90.0
  0
ARC
  5
488
100
AcDbEntity
  8
IMPORT_IGES
100
AcDbCircle
 62
7
  6
CONTINUOUS
 10
-74.4
 20
210.4468870598
 40
1.0
100
AcDbArc
 50
90.0
 51
270.0000000006
  0
ARC
  5
489
100
AcDbEntity
  8
IMPORT_IGES
100
AcDbCircle
 62
7
  6
CONTINUOUS
 10
-56.4
 20
210.4468870598
 40
1.0
100
AcDbArc
 50
269.9999999995
 51
90.0
  0
ARC
  5
48A
100
AcDbEntity
  8
IMPORT_IGES
100
AcDbCircle
 62
7
  6
CONTINUOUS
 10
-52.4
 20
210.4468870598
 40
1.0
100
AcDbArc
 50
90.0
 51
270.0000000004
  0
ARC
  5
48B
100
AcDbEntity
  8
IMPORT_IGES
100
AcDbCircle
 62
7
  6
CONTINUOUS
 10
-78.4
 20
222.4468870598
 40
1.0
100
AcDbArc
 50
270.0000000001
 51
90.0
  0
ARC
  5
48C
100
AcDbEntity
  8
IMPORT_IGES
100
AcDbCircle
 62
7
  6
CONTINUOUS
 10
-74.4
 20
222.4468870598
 40
1.0
100
AcDbArc
 50
90.0
 51
270.0000000006
  0
ARC
  5
48D
100
AcDbEntity
  8
IMPORT_IGES
100
AcDbCircle
 62
7
  6
CONTINUOUS
 10
-56.4
 20
222.4468870598
 40
1.0
100
AcDbArc
 50
269.9999999995
 51
90.0
  0
ARC
  5
48E
100
AcDbEntity
  8
IMPORT_IGES
100
AcDbCircle
 62
7
  6
CONTINUOUS
 10
-52.4
 20
222.4468870598
 40
1.0
100
AcDbArc
 50
90.0
 51
270.0000000004
  0
ARC
  5
48F
100
AcDbEntity
  8
IMPORT_IGES
100
AcDbCircle
 62
7
  6
CONTINUOUS
 10
-78.4
 20
214.4468870598
 40
1.0
100
AcDbArc
 50
270.0000000001
 51
90.0
  0
ARC
  5
490
100
AcDbEntity
  8
IMPORT_IGES
100
AcDbCircle
 62
7
  6
CONTINUOUS
 10
-74.4
 20
214.4468870598
 40
1.0
100
AcDbArc
 50
90.0
 51
270.0000000006
  0
ARC
  5
491
100
AcDbEntity
  8
IMPORT_IGES
100
AcDbCircle
 62
7
  6
CONTINUOUS
 10
-56.4
 20
214.4468870598
 40
1.0
100
AcDbArc
 50
269.9999999995
 51
90.0
  0
ARC
  5
492
100
AcDbEntity
  8
IMPORT_IGES
100
AcDbCircle
 62
7
  6
CONTINUOUS
 10
-52.4
 20
214.4468870598
 40
1.0
100
AcDbArc
 50
90.0
 51
270.0000000004
  0
ARC
  5
493
100
AcDbEntity
  8
IMPORT_IGES
100
AcDbCircle
 62
7
  6
CONTINUOUS
 10
-78.4
 20
218.4468870598
 40
1.0
100
AcDbArc
 50
270.0000000001
 51
90.0
  0
ARC
  5
494
100
AcDbEntity
  8
IMPORT_IGES
100
AcDbCircle
 62
7
  6
CONTINUOUS
 10
-74.4
 20
218.4468870598
 40
1.0
100
AcDbArc
 50
90.0
 51
270.0000000006
  0
ARC
  5
495
100
AcDbEntity
  8
IMPORT_IGES
100
AcDbCircle
 62
7
  6
CONTINUOUS
 10
-56.4
 20
218.4468870598
 40
1.0
100
AcDbArc
 50
269.9999999995
 51
90.0
  0
ARC
  5
496
100
AcDbEntity
  8
IMPORT_IGES
100
AcDbCircle
 62
7
  6
CONTINUOUS
 10
-52.4
 20
218.4468870598
 40
1.0
100
AcDbArc
 50
90.0
 51
270.0000000004
  0
ARC
  5
497
100
AcDbEntity
  8
IMPORT_IGES
100
AcDbCircle
 62
7
  6
CONTINUOUS
 10
-34.4
 20
206.4468870598
 40
1.0
100
AcDbArc
 50
269.9999999997
 51
90.0
  0
ARC
  5
498
100
AcDbEntity
  8
IMPORT_IGES
100
AcDbCircle
 62
7
  6
CONTINUOUS
 10
-30.4
 20
206.4468870598
 40
1.0
100
AcDbArc
 50
90.0
 51
270.0000000002
  0
ARC
  5
499
100
AcDbEntity
  8
IMPORT_IGES
100
AcDbCircle
 62
7
  6
CONTINUOUS
 10
-12.4
 20
206.4468870598
 40
1.0
100
AcDbArc
 50
269.9999999999
 51
90.0
  0
ARC
  5
49A
100
AcDbEntity
  8
IMPORT_IGES
100
AcDbCircle
 62
7
  6
CONTINUOUS
 10
-34.4
 20
210.4468870598
 40
1.0
100
AcDbArc
 50
269.9999999997
 51
90.0
  0
ARC
  5
49B
100
AcDbEntity
  8
IMPORT_IGES
100
AcDbCircle
 62
7
  6
CONTINUOUS
 10
-30.4
 20
210.4468870598
 40
1.0
100
AcDbArc
 50
90.0
 51
270.0000000002
  0
ARC
  5
49C
100
AcDbEntity
  8
IMPORT_IGES
100
AcDbCircle
 62
7
  6
CONTINUOUS
 10
-12.4
 20
210.4468870598
 40
1.0
100
AcDbArc
 50
269.9999999999
 51
90.0
  0
ARC
  5
49D
100
AcDbEntity
  8
IMPORT_IGES
100
AcDbCircle
 62
7
  6
CONTINUOUS
 10
-8.4
 20
206.4468870598
 40
1.0
100
AcDbArc
 50
90.0
 51
270.0000000001
  0
ARC
  5
49E
100
AcDbEntity
  8
IMPORT_IGES
100
AcDbCircle
 62
7
  6
CONTINUOUS
 10
-8.4
 20
210.4468870598
 40
1.0
100
AcDbArc
 50
90.0
 51
270.0000000001
  0
ARC
  5
49F
100
AcDbEntity
  8
IMPORT_IGES
100
AcDbCircle
 62
7
  6
CONTINUOUS
 10
-34.4
 20
222.4468870598
 40
1.0
100
AcDbArc
 50
269.9999999997
 51
90.0
  0
ARC
  5
4A0
100
AcDbEntity
  8
IMPORT_IGES
100
AcDbCircle
 62
7
  6
CONTINUOUS
 10
-30.4
 20
222.4468870598
 40
1.0
100
AcDbArc
 50
90.0
 51
270.0000000002
  0
ARC
  5
4A1
100
AcDbEntity
  8
IMPORT_IGES
100
AcDbCircle
 62
7
  6
CONTINUOUS
 10
-12.4
 20
222.4468870598
 40
1.0
100
AcDbArc
 50
269.9999999999
 51
90.0
  0
ARC
  5
4A2
100
AcDbEntity
  8
IMPORT_IGES
100
AcDbCircle
 62
7
  6
CONTINUOUS
 10
-34.4
 20
214.4468870598
 40
1.0
100
AcDbArc
 50
269.9999999997
 51
90.0
  0
ARC
  5
4A3
100
AcDbEntity
  8
IMPORT_IGES
100
AcDbCircle
 62
7
  6
CONTINUOUS
 10
-30.4
 20
214.4468870598
 40
1.0
100
AcDbArc
 50
90.0
 51
270.0000000002
  0
ARC
  5
4A4
100
AcDbEntity
  8
IMPORT_IGES
100
AcDbCircle
 62
7
  6
CONTINUOUS
 10
-12.4
 20
214.4468870598
 40
1.0
100
AcDbArc
 50
269.9999999999
 51
90.0
  0
ARC
  5
4A5
100
AcDbEntity
  8
IMPORT_IGES
100
AcDbCircle
 62
7
  6
CONTINUOUS
 10
-34.4
 20
218.4468870598
 40
1.0
100
AcDbArc
 50
269.9999999997
 51
90.0
  0
ARC
  5
4A6
100
AcDbEntity
  8
IMPORT_IGES
100
AcDbCircle
 62
7
  6
CONTINUOUS
 10
-30.4
 20
218.4468870598
 40
1.0
100
AcDbArc
 50
90.0
 51
270.0000000002
  0
ARC
  5
4A7
100
AcDbEntity
  8
IMPORT_IGES
100
AcDbCircle
 62
7
  6
CONTINUOUS
 10
-12.4
 20
218.4468870598
 40
1.0
100
AcDbArc
 50
269.9999999999
 51
90.0
  0
ARC
  5
4A8
100
AcDbEntity
  8
IMPORT_IGES
100
AcDbCircle
 62
7
  6
CONTINUOUS
 10
-8.4
 20
214.4468870598
 40
1.0
100
AcDbArc
 50
90.0
 51
270.0000000001
  0
ARC
  5
4A9
100
AcDbEntity
  8
IMPORT_IGES
100
AcDbCircle
 62
7
  6
CONTINUOUS
 10
-8.4
 20
222.4468870598
 40
1.0
100
AcDbArc
 50
90.0
 51
270.0000000001
  0
ARC
  5
4AA
100
AcDbEntity
  8
IMPORT_IGES
100
AcDbCircle
 62
7
  6
CONTINUOUS
 10
-8.4
 20
218.4468870598
 40
1.0
100
AcDbArc
 50
90.0
 51
270.0000000001
  0
ARC
  5
4AB
100
AcDbEntity
  8
IMPORT_IGES
100
AcDbCircle
 62
7
  6
CONTINUOUS
 10
60.1487331877
 20
-34.618895307
 40
15.0
100
AcDbArc
 50
270.0
 51
90.0
  0
CIRCLE
  5
4AC
100
AcDbEntity
  8
IMPORT_IGES
100
AcDbCircle
 62
7
  6
CONTINUOUS
 10
160.4997452
 20
-205.9493514859
 40
12.2670143704
  0
CIRCLE
  5
4AD
100
AcDbEntity
  8
IMPORT_IGES
100
AcDbCircle
 62
250
  6
CONTINUOUS
 10
160.4997452
 20
-205.9493514859
 40
7.7788173754
  0
CIRCLE
  5
4AE
100
AcDbEntity
  8
IMPORT_IGES
100
AcDbCircle
 62
250
  6
CONTINUOUS
 10
160.4997452
 20
-205.9493514859
 40
7.1360297657
  0
CIRCLE
  5
4AF
100
AcDbEntity
  8
IMPORT_IGES
100
AcDbCircle
 62
7
  6
CONTINUOUS
 10
160.4997452
 20
-205.9493514859
 40
2.75
  0
ARC
  5
4B0
100
AcDbEntity
  8
IMPORT_IGES
100
AcDbCircle
 62
7
  6
CONTINUOUS
 10
183.4996252
 20
-227.8493014859
 40
2.0
100
AcDbArc
 50
290.3971426954
 51
296.9796396279
  0
CIRCLE
  5
4B1
100
AcDbEntity
  8
IMPORT_IGES
100
AcDbCircle
 62
7
  6
CONTINUOUS
 10
127.0539803092
 20
-12.0506985141
 40
1.6
  0
ARC
  5
4B2
100
AcDbEntity
  8
IMPORT_IGES
100
AcDbCircle
 62
7
  6
CONTINUOUS
 10
92.3039803092
 20
118.9493014859
 40
12.5
100
AcDbArc
 50
180.0
 51
360.0
  0
ARC
  5
4B3
100
AcDbEntity
  8
IMPORT_IGES
100
AcDbCircle
 62
7
  6
CONTINUOUS
 10
92.3039803092
 20
53.9493014859
 40
12.5
100
AcDbArc
 50
0.0
 51
180.0
  0
ARC
  5
4B4
100
AcDbEntity
  8
IMPORT_IGES
100
AcDbCircle
 62
7
  6
CONTINUOUS
 10
92.3039803092
 20
18.9493014859
 40
12.5
100
AcDbArc
 50
180.0
 51
360.0
  0
CIRCLE
  5
4B5
100
AcDbEntity
  8
IMPORT_IGES
100
AcDbCircle
 62
7
  6
CONTINUOUS
 10
72.2499837
 20
114.3094970389
 40
2.10999578
  0
CIRCLE
  5
4B6
100
AcDbEntity
  8
IMPORT_IGES
100
AcDbCircle
 62
7
  6
CONTINUOUS
 10
41.3610087487
 20
29.5303635614
 40
1.6
  0
CIRCLE
  5
4B7
100
AcDbEntity
  8
IMPORT_IGES
100
AcDbCircle
 62
7
  6
CONTINUOUS
 10
18.3610547487
 20
94.5302345614
 40
1.6
  0
ARC
  5
4B8
100
AcDbEntity
  8
IMPORT_IGES
100
AcDbCircle
 62
7
  6
CONTINUOUS
 10
92.3039803092
 20
153.9493014859
 40
12.5
100
AcDbArc
 50
0.0
 51
180.0
  0
CIRCLE
  5
4B9
100
AcDbEntity
  8
IMPORT_IGES
100
AcDbCircle
 62
7
  6
CONTINUOUS
 10
3.6578279424
 20
139.5583797812
 40
1.5
  0
ARC
  5
4BA
100
AcDbEntity
  8
IMPORT_IGES
100
AcDbCircle
 62
7
  6
CONTINUOUS
 10
9.6
 20
206.4468870598
 40
1.0
100
AcDbArc
 50
270.0000000001
 51
90.0
  0
ARC
  5
4BB
100
AcDbEntity
  8
IMPORT_IGES
100
AcDbCircle
 62
7
  6
CONTINUOUS
 10
13.6
 20
206.4468870598
 40
1.0
100
AcDbArc
 50
90.0
 51
270.0000000007
  0
ARC
  5
4BC
100
AcDbEntity
  8
IMPORT_IGES
100
AcDbCircle
 62
7
  6
CONTINUOUS
 10
31.6
 20
206.4468870598
 40
1.0
100
AcDbArc
 50
269.9999999995
 51
90.0
  0
ARC
  5
4BD
100
AcDbEntity
  8
IMPORT_IGES
100
AcDbCircle
 62
7
  6
CONTINUOUS
 10
35.6
 20
206.4468870598
 40
1.0
100
AcDbArc
 50
90.0
 51
270.0000000005
  0
ARC
  5
4BE
100
AcDbEntity
  8
IMPORT_IGES
100
AcDbCircle
 62
7
  6
CONTINUOUS
 10
53.6
 20
206.4468870598
 40
1.0
100
AcDbArc
 50
269.9999999997
 51
90.0
  0
ARC
  5
4BF
100
AcDbEntity
  8
IMPORT_IGES
100
AcDbCircle
 62
7
  6
CONTINUOUS
 10
9.6
 20
210.4468870598
 40
1.0
100
AcDbArc
 50
270.0000000001
 51
90.0
  0
ARC
  5
4C0
100
AcDbEntity
  8
IMPORT_IGES
100
AcDbCircle
 62
7
  6
CONTINUOUS
 10
13.6
 20
210.4468870598
 40
1.0
100
AcDbArc
 50
90.0
 51
270.0000000007
  0
ARC
  5
4C1
100
AcDbEntity
  8
IMPORT_IGES
100
AcDbCircle
 62
7
  6
CONTINUOUS
 10
31.6
 20
210.4468870598
 40
1.0
100
AcDbArc
 50
269.9999999995
 51
90.0
  0
ARC
  5
4C2
100
AcDbEntity
  8
IMPORT_IGES
100
AcDbCircle
 62
7
  6
CONTINUOUS
 10
35.6
 20
210.4468870598
 40
1.0
100
AcDbArc
 50
90.0
 51
270.0000000005
  0
ARC
  5
4C3
100
AcDbEntity
  8
IMPORT_IGES
100
AcDbCircle
 62
7
  6
CONTINUOUS
 10
53.6
 20
210.4468870598
 40
1.0
100
AcDbArc
 50
269.9999999997
 51
90.0
  0
ARC
  5
4C4
100
AcDbEntity
  8
IMPORT_IGES
100
AcDbCircle
 62
7
  6
CONTINUOUS
 10
9.6
 20
214.4468870598
 40
1.0
100
AcDbArc
 50
270.0000000001
 51
90.0
  0
ARC
  5
4C5
100
AcDbEntity
  8
IMPORT_IGES
100
AcDbCircle
 62
7
  6
CONTINUOUS
 10
13.6
 20
214.4468870598
 40
1.0
100
AcDbArc
 50
90.0
 51
270.0000000007
  0
ARC
  5
4C6
100
AcDbEntity
  8
IMPORT_IGES
100
AcDbCircle
 62
7
  6
CONTINUOUS
 10
31.6
 20
214.4468870598
 40
1.0
100
AcDbArc
 50
269.9999999995
 51
90.0
  0
ARC
  5
4C7
100
AcDbEntity
  8
IMPORT_IGES
100
AcDbCircle
 62
7
  6
CONTINUOUS
 10
35.6
 20
214.4468870598
 40
1.0
100
AcDbArc
 50
90.0
 51
270.0000000005
  0
ARC
  5
4C8
100
AcDbEntity
  8
IMPORT_IGES
100
AcDbCircle
 62
7
  6
CONTINUOUS
 10
53.6
 20
214.4468870598
 40
1.0
100
AcDbArc
 50
269.9999999997
 51
90.0
  0
ARC
  5
4C9
100
AcDbEntity
  8
IMPORT_IGES
100
AcDbCircle
 62
7
  6
CONTINUOUS
 10
9.6
 20
222.4468870598
 40
1.0
100
AcDbArc
 50
270.0000000001
 51
90.0
  0
ARC
  5
4CA
100
AcDbEntity
  8
IMPORT_IGES
100
AcDbCircle
 62
7
  6
CONTINUOUS
 10
13.6
 20
222.4468870598
 40
1.0
100
AcDbArc
 50
90.0
 51
270.0000000007
  0
ARC
  5
4CB
100
AcDbEntity
  8
IMPORT_IGES
100
AcDbCircle
 62
7
  6
CONTINUOUS
 10
31.6
 20
222.4468870598
 40
1.0
100
AcDbArc
 50
269.9999999995
 51
90.0
  0
ARC
  5
4CC
100
AcDbEntity
  8
IMPORT_IGES
100
AcDbCircle
 62
7
  6
CONTINUOUS
 10
35.6
 20
222.4468870598
 40
1.0
100
AcDbArc
 50
90.0
 51
270.0000000005
  0
ARC
  5
4CD
100
AcDbEntity
  8
IMPORT_IGES
100
AcDbCircle
 62
7
  6
CONTINUOUS
 10
53.6
 20
222.4468870598
 40
1.0
100
AcDbArc
 50
269.9999999997
 51
90.0
  0
ARC
  5
4CE
100
AcDbEntity
  8
IMPORT_IGES
100
AcDbCircle
 62
7
  6
CONTINUOUS
 10
9.6
 20
218.4468870598
 40
1.0
100
AcDbArc
 50
270.0000000001
 51
90.0
  0
ARC
  5
4CF
100
AcDbEntity
  8
IMPORT_IGES
100
AcDbCircle
 62
7
  6
CONTINUOUS
 10
13.6
 20
218.4468870598
 40
1.0
100
AcDbArc
 50
90.0
 51
270.0000000007
  0
ARC
  5
4D0
100
AcDbEntity
  8
IMPORT_IGES
100
AcDbCircle
 62
7
  6
CONTINUOUS
 10
31.6
 20
218.4468870598
 40
1.0
100
AcDbArc
 50
269.9999999995
 51
90.0
  0
ARC
  5
4D1
100
AcDbEntity
  8
IMPORT_IGES
100
AcDbCircle
 62
7
  6
CONTINUOUS
 10
35.6
 20
218.4468870598
 40
1.0
100
AcDbArc
 50
90.0
 51
270.0000000005
  0
ARC
  5
4D2
100
AcDbEntity
  8
IMPORT_IGES
100
AcDbCircle
 62
7
  6
CONTINUOUS
 10
53.6
 20
218.4468870598
 40
1.0
100
AcDbArc
 50
269.9999999997
 51
90.0
  0
CIRCLE
  5
4D3
100
AcDbEntity
  8
IMPORT_IGES
100
AcDbCircle
 62
7
  6
CONTINUOUS
 10
173.5539803092
 20
84.9493014859
 40
1.6
  0
CIRCLE
  5
4D4
100
AcDbEntity
  8
IMPORT_IGES
100
AcDbCircle
 62
7
  6
CONTINUOUS
 10
127.0539803092
 20
87.9493014859
 40
1.6
  0
CIRCLE
  5
4D5
100
AcDbEntity
  8
IMPORT_IGES
100
AcDbCircle
 62
7
  6
CONTINUOUS
 10
160.4996252
 20
205.9493014859
 40
12.2670143704
  0
CIRCLE
  5
4D6
100
AcDbEntity
  8
IMPORT_IGES
100
AcDbCircle
 62
250
  6
CONTINUOUS
 10
160.4996252
 20
205.9493014859
 40
7.7788173754
  0
CIRCLE
  5
4D7
100
AcDbEntity
  8
IMPORT_IGES
100
AcDbCircle
 62
250
  6
CONTINUOUS
 10
160.4996252
 20
205.9493014859
 40
7.1360297657
  0
CIRCLE
  5
4D8
100
AcDbEntity
  8
IMPORT_IGES
100
AcDbCircle
 62
7
  6
CONTINUOUS
 10
160.4996252
 20
205.9493014859
 40
2.75
  0
ARC
  5
4D9
100
AcDbEntity
  8
IMPORT_IGES
100
AcDbCircle
 62
7
  6
CONTINUOUS
 10
183.4996252
 20
227.8493014859
 40
2.0
100
AcDbArc
 50
63.0203445886
 51
69.6028456757
  0
CIRCLE
  5
4DA
100
AcDbEntity
  8
IMPORT_IGES
100
AcDbCircle
 62
7
  6
CONTINUOUS
 10
173.5539803092
 20
184.9493014859
 40
1.6
  0
ENDSEC
  0
SECTION
  2
OBJECTS
  0
DICTIONARY
  5
C
100
AcDbDictionary
280
0
281
1
  3
ACAD_GROUP
350
D
  3
ACAD_MLINESTYLE
350
17
  3
ACAD_LAYOUT
350
1A
  3
ACAD_PLOTSETTINGS
350
19
  3
ACAD_PLOTSTYLENAME
350
E
  0
DICTIONARY
  5
D
102
{ACAD_REACTORS
330
C
102
}
100
AcDbDictionary
280
0
281
1
  0
ACDBDICTIONARYWDFLT
  5
E
102
{ACAD_REACTORS
330
C
102
}
100
AcDbDictionary
281
1
  3
Normal
350
F
100
AcDbDictionaryWithDefault
340
F
  0
DICTIONARY
  5
17
102
{ACAD_REACTORS
330
C
102
}
100
AcDbDictionary
280
0
281
1
  3
Standard
350
18
  0
DICTIONARY
  5
19
102
{ACAD_REACTORS
330
C
102
}
100
AcDbDictionary
281
1
  0
DICTIONARY
  5
1A
102
{ACAD_REACTORS
330
C
102
}
100
AcDbDictionary
281
1
  3
Model
350
4DB
  3
Layout1
350
4DC
  0
ACDBPLACEHOLDER
  5
F
102
{ACAD_REACTORS
330
E
102
}
  0
MLINESTYLE
  5
18
102
{ACAD_REACTORS
330
17
102
}
100
AcDbMlineStyle
  2
STANDARD
 70
0
  3

 62
256
 51
90.0
 52
90.0
 71
2
 49
0.5
 62
256
  6
BYLAYER
 49
-0.5
 62
256
  6
BYLAYER
  0
LAYOUT
  5
4DB
102
{ACAD_REACTORS
330
1A
102
}
100
AcDbPlotSettings
  1

  2
none_device
  4
ISO_A4_(297.00_x_210.00_MM)
  6

 40
0.0
 41
0.0
 42
0.0
 43
0.0
 44
297.0
 45
210.0
 46
0.0
 47
0.0
 48
0.0
 49
0.0
140
0.0
141
0.0
142
1.0
143
1.0
 70
1024
 72
1
 73
0
 74
0
  7

 75
0
147
1.0
148
0.0
149
0.0
100
AcDbLayout
  1
Model
 70
0
 71
0
 10
0.0
 20
0.0
 11
297.0
 21
210.0
 12
0.0
 22
0.0
 32
0.0
 14
0.0
 24
0.0
 34
0.0
 15
0.0
 25
0.0
 35
0.0
146
0.0
 13
0.0
 23
0.0
 33
0.0
 16
1.0
 26
0.0
 36
0.0
 17
0.0
 27
1.0
 37
0.0
 76
0
330
255
345
0
346
0
  0
LAYOUT
  5
4DC
102
{ACAD_REACTORS
330
1A
102
}
100
AcDbPlotSettings
  1

  2
none_device
  4
ISO_A4_(297.00_x_210.00_MM)
  6

 40
0.0
 41
0.0
 42
0.0
 43
0.0
 44
297.0
 45
210.0
 46
0.0
 47
0.0
 48
0.0
 49
0.0
140
0.0
141
0.0
142
1.0
143
1.0
 70
0
 72
1
 73
0
 74
0
  7

 75
0
147
1.0
148
0.0
149
0.0
100
AcDbLayout
  1
Layout1
 70
0
 71
1
 10
0.0
 20
0.0
 11
297.0
 21
210.0
 12
0.0
 22
0.0
 32
0.0
 14
0.0
 24
0.0
 34
0.0
 15
0.0
 25
0.0
 35
0.0
146
0.0
 13
0.0
 23
0.0
 33
0.0
 16
1.0
 26
0.0
 36
0.0
 17
0.0
 27
1.0
 37
0.0
 76
0
330
256
345
0
346
0
  0
ENDSEC
  0
EOF
