  0
SECTION
  2
HEADER
  9
$ACADVER
  1
AC1024
  9
$DWGCODEPAGE
  3
ANSI_1252
  9
$EXTMAX
 10
297.0
 20
210.0
 30
0.0
  9
$EXTMIN
 10
0.0
 20
0.0
 30
0.0
  9
$LIMMIN
 10
0.0
 20
0.0
  9
$LIMMAX
 10
297.0
 20
210.0
  9
$VIEWCTR
 10
148.5
 20
105.0
  9
$VIEWSIZE
 40
210.0
  9
$CLAYER
  8
0
  9
$LTSCALE
 40
16.335
  9
$CELTYPE
  6
BYLAYER
  9
$DIMSCALE
 40
1.0
  9
$DIMASZ
 40
3.0
  9
$DIMEXO
 40
0.5
  9
$DIMDLI
 40
11.286
  9
$DIMEXE
 40
1.5
  9
$DIMCEN
 40
2.673
  9
$DIMLFAC
 40
1.0
  9
$DIMBLK
  1
_FILLED
  9
$DIMALT
 70
0
  9
$DIMALTF
 40
0.0393700787
  9
$DIMTXT
 40
3.0
  9
$DIMTOL
 70
1
  9
$DIMLIM
 70
0
  9
$DIMTFAC
 40
1.0
  9
$DIMTP
 40
0.01
  9
$DIMTM
 40
0.01
  9
$DIMGAP
 40
0.625
  9
$DIMDSEP
 70
44
  9
$AUNITS
 70
0
  9
$PDMODE
 70
3
  9
$PDSIZE
 40
3.0
  9
$HANDSEED
  5
595
  9
$TILEMODE
 70
1
  9
$MEASUREMENT
 70
1
  9
$INSUNITS
 70
4
  0
ENDSEC
  0
SECTION
  2
CLASSES
  0
CLASS
  1
ACDBDICTIONARYWDFLT
  2
AcDbDictionaryWithDefault
  3
AutoCAD 2000
 90
0
 91
1
280
0
281
0
  0
CLASS
  1
ACDBPLACEHOLDER
  2
AcDbPlaceHolder
  3
AutoCAD 2000
 90
0
 91
1
280
0
281
0
  0
CLASS
  1
LAYOUT
  2
AcDbLayout
  3
AutoCAD 2000
 90
0
 91
0
280
0
281
0
  0
ENDSEC
  0
SECTION
  2
TABLES
  0
TABLE
  2
VPORT
  5
8
100
AcDbSymbolTable
 70
2
  0
VPORT
  5
1F4
100
AcDbSymbolTableRecord
100
AcDbViewportTableRecord
  2
*ACTIVE
 70
0
 10
0.0
 20
0.0
 11
1.0
 21
1.0
 12
148.5
 22
105.0
 13
0.0
 23
0.0
 14
1.0
 24
1.0
 15
0.0
 25
0.0
 16
0.0
 26
0.0
 36
1.0
 17
0.0
 27
0.0
 37
0.0
 40
210.0
 41
1.4142857143
 42
50.0
 43
0.0
 44
0.0
 50
0.0
 51
0.0
 71
0
 72
100
 73
1
 74
1
 75
0
 76
0
 77
0
 78
0
  0
ENDTAB
  0
TABLE
  2
LTYPE
  5
5
100
AcDbSymbolTable
 70
6
  0
LTYPE
  5
14
100
AcDbSymbolTableRecord
100
AcDbLinetypeTableRecord
  2
BYBLOCK
 70
0
  3

 72
65
 73
0
 40
0.0
  0
LTYPE
  5
15
100
AcDbSymbolTableRecord
100
AcDbLinetypeTableRecord
  2
BYLAYER
 70
0
  3

 72
65
 73
0
 40
0.0
  0
LTYPE
  5
16
100
AcDbSymbolTableRecord
100
AcDbLinetypeTableRecord
  2
CONTINUOUS
 70
64
  3
Solid line
 72
65
 73
0
 40
0.0
  0
LTYPE
  5
1F5
100
AcDbSymbolTableRecord
100
AcDbLinetypeTableRecord
  2
CENTER
 70
64
  3
____ _ ____ _ ____ _ ____ _ ____ _ ____ _ ____
 72
65
 73
4
 40
0.6
 49
0.375
 74
0
 49
-0.075
 74
0
 49
0.075
 74
0
 49
-0.075
 74
0
  0
LTYPE
  5
1F6
100
AcDbSymbolTableRecord
100
AcDbLinetypeTableRecord
  2
HIDDEN
 70
64
  3
- - - - - - - - - - - - - - - - - - - -
 72
65
 73
2
 40
0.2
 49
0.1
 74
0
 49
-0.1
 74
0
  0
LTYPE
  5
1F7
100
AcDbSymbolTableRecord
100
AcDbLinetypeTableRecord
  2
PHANTOM
 70
64
  3
_____ _ _ _____ _ _ _____ _ _ _____
 72
65
 73
6
 40
0.8
 49
0.45
 74
0
 49
-0.05
 74
0
 49
0.1
 74
0
 49
-0.05
 74
0
 49
0.1
 74
0
 49
-0.05
 74
0
  0
LTYPE
  5
1F8
100
AcDbSymbolTableRecord
100
AcDbLinetypeTableRecord
  2
DOT
 70
64
  3
. . . . . . . . . . . . . . . . . . . .
 72
65
 73
2
 40
0.2
 49
0.1
 74
0
 49
-0.1
 74
0
  0
LTYPE
  5
1F9
100
AcDbSymbolTableRecord
100
AcDbLinetypeTableRecord
  2
DASHED
 70
64
  3
- - - - - - - - - - - - - - - - - - - -
 72
65
 73
2
 40
0.2
 49
0.1
 74
0
 49
-0.1
 74
0
  0
ENDTAB
  0
TABLE
  2
LAYER
  5
2
100
AcDbSymbolTable
 70
36
  0
LAYER
  5
10
100
AcDbSymbolTableRecord
100
AcDbLayerTableRecord
  2
0
 70
0
 62
7
  6
CONTINUOUS
370
-3
390
F
  0
LAYER
  5
1FA
100
AcDbSymbolTableRecord
100
AcDbLayerTableRecord
  2
DEFAULT_1
 70
0
 62
7
  6
CENTER
370
-3
390
F
  0
LAYER
  5
1FB
100
AcDbSymbolTableRecord
100
AcDbLayerTableRecord
  2
DEFAULT_2
 70
0
 62
7
  6
HIDDEN
370
-3
390
F
  0
LAYER
  5
1FC
100
AcDbSymbolTableRecord
100
AcDbLayerTableRecord
  2
DEFAULT_3
 70
0
 62
7
  6
PHANTOM
370
-3
390
F
  0
LAYER
  5
1FD
100
AcDbSymbolTableRecord
100
AcDbLayerTableRecord
  2
02___PRT_ALL_AXES_1
 70
0
 62
7
  6
CONTINUOUS
370
-3
390
F
  0
LAYER
  5
1FE
100
AcDbSymbolTableRecord
100
AcDbLayerTableRecord
  2
02___PRT_ALL_AXES_11
 70
0
 62
7
  6
CONTINUOUS
370
-3
390
F
  0
LAYER
  5
1FF
100
AcDbSymbolTableRecord
100
AcDbLayerTableRecord
  2
02___PRT_ALL_AXES_15
 70
0
 62
7
  6
CONTINUOUS
370
-3
390
F
  0
LAYER
  5
200
100
AcDbSymbolTableRecord
100
AcDbLayerTableRecord
  2
02___PRT_ALL_AXES_16
 70
0
 62
7
  6
CONTINUOUS
370
-3
390
F
  0
LAYER
  5
201
100
AcDbSymbolTableRecord
100
AcDbLayerTableRecord
  2
02___PRT_ALL_AXES_18
 70
0
 62
7
  6
CONTINUOUS
370
-3
390
F
  0
LAYER
  5
202
100
AcDbSymbolTableRecord
100
AcDbLayerTableRecord
  2
02___PRT_ALL_AXES_6
 70
0
 62
7
  6
CONTINUOUS
370
-3
390
F
  0
LAYER
  5
203
100
AcDbSymbolTableRecord
100
AcDbLayerTableRecord
  2
02___PRT_ALL_AXES_7
 70
0
 62
7
  6
CONTINUOUS
370
-3
390
F
  0
LAYER
  5
204
100
AcDbSymbolTableRecord
100
AcDbLayerTableRecord
  2
02___PRT_ALL_AXES_9
 70
0
 62
7
  6
CONTINUOUS
370
-3
390
F
  0
LAYER
  5
205
100
AcDbSymbolTableRecord
100
AcDbLayerTableRecord
  2
03___PRT_ALL_CURVES
 70
0
 62
7
  6
CONTINUOUS
370
-3
390
F
  0
LAYER
  5
206
100
AcDbSymbolTableRecord
100
AcDbLayerTableRecord
  2
03___PRT_ALL_CURVES_18
 70
0
 62
7
  6
CONTINUOUS
370
-3
390
F
  0
LAYER
  5
207
100
AcDbSymbolTableRecord
100
AcDbLayerTableRecord
  2
04___PRT_ALL_DTM_PNT_16
 70
0
 62
7
  6
CONTINUOUS
370
-3
390
F
  0
LAYER
  5
208
100
AcDbSymbolTableRecord
100
AcDbLayerTableRecord
  2
04___PRT_ALL_DTM_PNT_8
 70
0
 62
7
  6
CONTINUOUS
370
-3
390
F
  0
LAYER
  5
209
100
AcDbSymbolTableRecord
100
AcDbLayerTableRecord
  2
0906_DEFAULT_4_1
 70
0
 62
7
  6
CONTINUOUS
370
-3
390
F
  0
LAYER
  5
20A
100
AcDbSymbolTableRecord
100
AcDbLayerTableRecord
  2
0906_DEFAULT_4_1_1
 70
0
 62
7
  6
CONTINUOUS
370
-3
390
F
  0
LAYER
  5
20B
100
AcDbSymbolTableRecord
100
AcDbLayerTableRecord
  2
0906_DEFAULT_4_1_2
 70
0
 62
7
  6
CONTINUOUS
370
-3
390
F
  0
LAYER
  5
20C
100
AcDbSymbolTableRecord
100
AcDbLayerTableRecord
  2
0906_DEFAULT_4_1_3
 70
0
 62
7
  6
CONTINUOUS
370
-3
390
F
  0
LAYER
  5
20D
100
AcDbSymbolTableRecord
100
AcDbLayerTableRecord
  2
0906_DEFAULT_4_1_4
 70
0
 62
7
  6
CONTINUOUS
370
-3
390
F
  0
LAYER
  5
20E
100
AcDbSymbolTableRecord
100
AcDbLayerTableRecord
  2
0906_DEFAULT_4_1_5
 70
0
 62
7
  6
CONTINUOUS
370
-3
390
F
  0
LAYER
  5
20F
100
AcDbSymbolTableRecord
100
AcDbLayerTableRecord
  2
0906_DEFAULT_4_1_6
 70
0
 62
7
  6
CONTINUOUS
370
-3
390
F
  0
LAYER
  5
210
100
AcDbSymbolTableRecord
100
AcDbLayerTableRecord
  2
0906_DEFAULT_4_1_7
 70
0
 62
7
  6
CONTINUOUS
370
-3
390
F
  0
LAYER
  5
211
100
AcDbSymbolTableRecord
100
AcDbLayerTableRecord
  2
0_9
 70
0
 62
7
  6
CONTINUOUS
370
-3
390
F
  0
LAYER
  5
212
100
AcDbSymbolTableRecord
100
AcDbLayerTableRecord
  2
ALARM_KEYPAD_P441_3817_ASM_1
 70
0
 62
7
  6
CONTINUOUS
370
-3
390
F
  0
LAYER
  5
213
100
AcDbSymbolTableRecord
100
AcDbLayerTableRecord
  2
ASM_BASE_ASM_50_ASM_1
 70
0
 62
7
  6
CONTINUOUS
370
-3
390
F
  0
LAYER
  5
214
100
AcDbSymbolTableRecord
100
AcDbLayerTableRecord
  2
ASM_COVER_ASM_75_ASM_1
 70
0
 62
7
  6
CONTINUOUS
370
-3
390
F
  0
LAYER
  5
215
100
AcDbSymbolTableRecord
100
AcDbLayerTableRecord
  2
ASM_DISPLAY_ASM_16_ASM_1
 70
0
 62
7
  6
CONTINUOUS
370
-3
390
F
  0
LAYER
  5
216
100
AcDbSymbolTableRecord
100
AcDbLayerTableRecord
  2
ASSI
 70
0
 62
7
  6
CONTINUOUS
370
-3
390
F
  0
LAYER
  5
217
100
AcDbSymbolTableRecord
100
AcDbLayerTableRecord
  2
ASSI_1
 70
0
 62
7
  6
CONTINUOUS
370
-3
390
F
  0
LAYER
  5
218
100
AcDbSymbolTableRecord
100
AcDbLayerTableRecord
  2
ASSI_2
 70
0
 62
7
  6
CONTINUOUS
370
-3
390
F
  0
LAYER
  5
219
100
AcDbSymbolTableRecord
100
AcDbLayerTableRecord
  2
BACK-DISPLAY-VIMAR_1_1
 70
0
 62
7
  6
CONTINUOUS
370
-3
390
F
  0
LAYER
  5
21A
100
AcDbSymbolTableRecord
100
AcDbLayerTableRecord
  2
BACKLIGHT_TASTIERA_9_1
 70
0
 62
7
  6
CONTINUOUS
370
-3
390
F
  0
LAYER
  5
21B
100
AcDbSymbolTableRecord
100
AcDbLayerTableRecord
  2
BASE_199_1
 70
0
 62
7
  6
CONTINUOUS
370
-3
390
F
  0
LAYER
  5
21C
100
AcDbSymbolTableRecord
100
AcDbLayerTableRecord
  2
COLOR15
 70
0
 62
7
  6
CONTINUOUS
370
-3
390
F
  0
LAYER
  5
21D
100
AcDbSymbolTableRecord
100
AcDbLayerTableRecord
  2
COLOR41
 70
0
 62
7
  6
CONTINUOUS
370
-3
390
F
  0
LAYER
  5
21E
100
AcDbSymbolTableRecord
100
AcDbLayerTableRecord
  2
COLOR44
 70
0
 62
7
  6
CONTINUOUS
370
-3
390
F
  0
LAYER
  5
21F
100
AcDbSymbolTableRecord
100
AcDbLayerTableRecord
  2
COLOR45
 70
0
 62
7
  6
CONTINUOUS
370
-3
390
F
  0
LAYER
  5
220
100
AcDbSymbolTableRecord
100
AcDbLayerTableRecord
  2
COLOR46
 70
0
 62
7
  6
CONTINUOUS
370
-3
390
F
  0
LAYER
  5
221
100
AcDbSymbolTableRecord
100
AcDbLayerTableRecord
  2
COLOR47
 70
0
 62
7
  6
CONTINUOUS
370
-3
390
F
  0
LAYER
  5
222
100
AcDbSymbolTableRecord
100
AcDbLayerTableRecord
  2
COLOR48
 70
0
 62
7
  6
CONTINUOUS
370
-3
390
F
  0
LAYER
  5
223
100
AcDbSymbolTableRecord
100
AcDbLayerTableRecord
  2
COLOR49
 70
0
 62
7
  6
CONTINUOUS
370
-3
390
F
  0
LAYER
  5
224
100
AcDbSymbolTableRecord
100
AcDbLayerTableRecord
  2
COLOR50
 70
0
 62
7
  6
CONTINUOUS
370
-3
390
F
  0
LAYER
  5
225
100
AcDbSymbolTableRecord
100
AcDbLayerTableRecord
  2
COLOR51
 70
0
 62
7
  6
CONTINUOUS
370
-3
390
F
  0
LAYER
  5
226
100
AcDbSymbolTableRecord
100
AcDbLayerTableRecord
  2
COLOR52
 70
0
 62
7
  6
CONTINUOUS
370
-3
390
F
  0
LAYER
  5
227
100
AcDbSymbolTableRecord
100
AcDbLayerTableRecord
  2
COLOR53
 70
0
 62
7
  6
CONTINUOUS
370
-3
390
F
  0
LAYER
  5
228
100
AcDbSymbolTableRecord
100
AcDbLayerTableRecord
  2
COLOR54
 70
0
 62
7
  6
CONTINUOUS
370
-3
390
F
  0
LAYER
  5
229
100
AcDbSymbolTableRecord
100
AcDbLayerTableRecord
  2
COORDINATE
 70
0
 62
7
  6
CONTINUOUS
370
-3
390
F
  0
LAYER
  5
22A
100
AcDbSymbolTableRecord
100
AcDbLayerTableRecord
  2
COPY_PUBLISH
 70
0
 62
7
  6
CONTINUOUS
370
-3
390
F
  0
LAYER
  5
22B
100
AcDbSymbolTableRecord
100
AcDbLayerTableRecord
  2
COSMETICI
 70
0
 62
7
  6
CONTINUOUS
370
-3
390
F
  0
LAYER
  5
22C
100
AcDbSymbolTableRecord
100
AcDbLayerTableRecord
  2
COVER_109_1
 70
0
 62
7
  6
CONTINUOUS
370
-3
390
F
  0
LAYER
  5
22D
100
AcDbSymbolTableRecord
100
AcDbLayerTableRecord
  2
CURVE
 70
0
 62
7
  6
CONTINUOUS
370
-3
390
F
  0
LAYER
  5
22E
100
AcDbSymbolTableRecord
100
AcDbLayerTableRecord
  2
DISPLAY-ARIA-VIMAR_2_1
 70
0
 62
7
  6
CONTINUOUS
370
-3
390
F
  0
LAYER
  5
22F
100
AcDbSymbolTableRecord
100
AcDbLayerTableRecord
  2
DRAFT
 70
0
 62
7
  6
CONTINUOUS
370
-3
390
F
  0
LAYER
  5
230
100
AcDbSymbolTableRecord
100
AcDbLayerTableRecord
  2
FVRFVR
 70
0
 62
7
  6
CONTINUOUS
370
-3
390
F
  0
LAYER
  5
231
100
AcDbSymbolTableRecord
100
AcDbLayerTableRecord
  2
IMPORT_IGES
 70
0
 62
7
  6
CONTINUOUS
370
-3
390
F
  0
LAYER
  5
232
100
AcDbSymbolTableRecord
100
AcDbLayerTableRecord
  2
INTFCLR_158073
 70
0
 62
7
  6
CONTINUOUS
370
-3
390
F
  0
LAYER
  5
233
100
AcDbSymbolTableRecord
100
AcDbLayerTableRecord
  2
INTFCLR_159114
 70
0
 62
7
  6
CONTINUOUS
370
-3
390
F
  0
LAYER
  5
234
100
AcDbSymbolTableRecord
100
AcDbLayerTableRecord
  2
INTFCLR_199509
 70
0
 62
7
  6
CONTINUOUS
370
-3
390
F
  0
LAYER
  5
235
100
AcDbSymbolTableRecord
100
AcDbLayerTableRecord
  2
INTFCLR_199510
 70
0
 62
7
  6
CONTINUOUS
370
-3
390
F
  0
LAYER
  5
236
100
AcDbSymbolTableRecord
100
AcDbLayerTableRecord
  2
INTFCLR_24
 70
0
 62
7
  6
CONTINUOUS
370
-3
390
F
  0
LAYER
  5
237
100
AcDbSymbolTableRecord
100
AcDbLayerTableRecord
  2
INTFCLR_24_1
 70
0
 62
7
  6
CONTINUOUS
370
-3
390
F
  0
LAYER
  5
238
100
AcDbSymbolTableRecord
100
AcDbLayerTableRecord
  2
INTFCLR_2599
 70
0
 62
7
  6
CONTINUOUS
370
-3
390
F
  0
LAYER
  5
239
100
AcDbSymbolTableRecord
100
AcDbLayerTableRecord
  2
INTFCLR_2599_1
 70
0
 62
7
  6
CONTINUOUS
370
-3
390
F
  0
LAYER
  5
23A
100
AcDbSymbolTableRecord
100
AcDbLayerTableRecord
  2
INTFCLR_2599_1_1
 70
0
 62
7
  6
CONTINUOUS
370
-3
390
F
  0
LAYER
  5
23B
100
AcDbSymbolTableRecord
100
AcDbLayerTableRecord
  2
INTFCLR_2599_1_2
 70
0
 62
7
  6
CONTINUOUS
370
-3
390
F
  0
LAYER
  5
23C
100
AcDbSymbolTableRecord
100
AcDbLayerTableRecord
  2
INTFCLR_29
 70
0
 62
7
  6
CONTINUOUS
370
-3
390
F
  0
LAYER
  5
23D
100
AcDbSymbolTableRecord
100
AcDbLayerTableRecord
  2
INTFCLR_3
 70
0
 62
7
  6
CONTINUOUS
370
-3
390
F
  0
LAYER
  5
23E
100
AcDbSymbolTableRecord
100
AcDbLayerTableRecord
  2
INTFCLR_36681
 70
0
 62
7
  6
CONTINUOUS
370
-3
390
F
  0
LAYER
  5
23F
100
AcDbSymbolTableRecord
100
AcDbLayerTableRecord
  2
INTFCLR_4
 70
0
 62
7
  6
CONTINUOUS
370
-3
390
F
  0
LAYER
  5
240
100
AcDbSymbolTableRecord
100
AcDbLayerTableRecord
  2
INTFCLR_47875
 70
0
 62
7
  6
CONTINUOUS
370
-3
390
F
  0
LAYER
  5
241
100
AcDbSymbolTableRecord
100
AcDbLayerTableRecord
  2
INTFCLR_47876
 70
0
 62
7
  6
CONTINUOUS
370
-3
390
F
  0
LAYER
  5
242
100
AcDbSymbolTableRecord
100
AcDbLayerTableRecord
  2
INTFCLR_5
 70
0
 62
7
  6
CONTINUOUS
370
-3
390
F
  0
LAYER
  5
243
100
AcDbSymbolTableRecord
100
AcDbLayerTableRecord
  2
INTFCLR_528
 70
0
 62
7
  6
CONTINUOUS
370
-3
390
F
  0
LAYER
  5
244
100
AcDbSymbolTableRecord
100
AcDbLayerTableRecord
  2
INTFCLR_53242
 70
0
 62
7
  6
CONTINUOUS
370
-3
390
F
  0
LAYER
  5
245
100
AcDbSymbolTableRecord
100
AcDbLayerTableRecord
  2
INTFCLR_6
 70
0
 62
7
  6
CONTINUOUS
370
-3
390
F
  0
LAYER
  5
246
100
AcDbSymbolTableRecord
100
AcDbLayerTableRecord
  2
INTFCLR_63147
 70
0
 62
7
  6
CONTINUOUS
370
-3
390
F
  0
LAYER
  5
247
100
AcDbSymbolTableRecord
100
AcDbLayerTableRecord
  2
INTFCLR_7
 70
0
 62
7
  6
CONTINUOUS
370
-3
390
F
  0
LAYER
  5
248
100
AcDbSymbolTableRecord
100
AcDbLayerTableRecord
  2
INTFCLR_8
 70
0
 62
7
  6
CONTINUOUS
370
-3
390
F
  0
LAYER
  5
249
100
AcDbSymbolTableRecord
100
AcDbLayerTableRecord
  2
INTF_1
 70
0
 62
7
  6
CONTINUOUS
370
-3
390
F
  0
LAYER
  5
24A
100
AcDbSymbolTableRecord
100
AcDbLayerTableRecord
  2
INTF_127
 70
0
 62
7
  6
CONTINUOUS
370
-3
390
F
  0
LAYER
  5
24B
100
AcDbSymbolTableRecord
100
AcDbLayerTableRecord
  2
INTF_128
 70
0
 62
7
  6
CONTINUOUS
370
-3
390
F
  0
LAYER
  5
24C
100
AcDbSymbolTableRecord
100
AcDbLayerTableRecord
  2
INTF_129
 70
0
 62
7
  6
CONTINUOUS
370
-3
390
F
  0
LAYER
  5
24D
100
AcDbSymbolTableRecord
100
AcDbLayerTableRecord
  2
INTF_134
 70
0
 62
7
  6
CONTINUOUS
370
-3
390
F
  0
LAYER
  5
24E
100
AcDbSymbolTableRecord
100
AcDbLayerTableRecord
  2
INTF_135
 70
0
 62
7
  6
CONTINUOUS
370
-3
390
F
  0
LAYER
  5
24F
100
AcDbSymbolTableRecord
100
AcDbLayerTableRecord
  2
INTF_136
 70
0
 62
7
  6
CONTINUOUS
370
-3
390
F
  0
LAYER
  5
250
100
AcDbSymbolTableRecord
100
AcDbLayerTableRecord
  2
INTF_137
 70
0
 62
7
  6
CONTINUOUS
370
-3
390
F
  0
LAYER
  5
251
100
AcDbSymbolTableRecord
100
AcDbLayerTableRecord
  2
INTF_138
 70
0
 62
7
  6
CONTINUOUS
370
-3
390
F
  0
LAYER
  5
252
100
AcDbSymbolTableRecord
100
AcDbLayerTableRecord
  2
INTF_139
 70
0
 62
7
  6
CONTINUOUS
370
-3
390
F
  0
LAYER
  5
253
100
AcDbSymbolTableRecord
100
AcDbLayerTableRecord
  2
INTF_144
 70
0
 62
7
  6
CONTINUOUS
370
-3
390
F
  0
LAYER
  5
254
100
AcDbSymbolTableRecord
100
AcDbLayerTableRecord
  2
INTF_155
 70
0
 62
7
  6
CONTINUOUS
370
-3
390
F
  0
LAYER
  5
255
100
AcDbSymbolTableRecord
100
AcDbLayerTableRecord
  2
INTF_157
 70
0
 62
7
  6
CONTINUOUS
370
-3
390
F
  0
LAYER
  5
256
100
AcDbSymbolTableRecord
100
AcDbLayerTableRecord
  2
INTF_158
 70
0
 62
7
  6
CONTINUOUS
370
-3
390
F
  0
LAYER
  5
257
100
AcDbSymbolTableRecord
100
AcDbLayerTableRecord
  2
INTF_160
 70
0
 62
7
  6
CONTINUOUS
370
-3
390
F
  0
LAYER
  5
258
100
AcDbSymbolTableRecord
100
AcDbLayerTableRecord
  2
INTF_165
 70
0
 62
7
  6
CONTINUOUS
370
-3
390
F
  0
LAYER
  5
259
100
AcDbSymbolTableRecord
100
AcDbLayerTableRecord
  2
INTF_166
 70
0
 62
7
  6
CONTINUOUS
370
-3
390
F
  0
LAYER
  5
25A
100
AcDbSymbolTableRecord
100
AcDbLayerTableRecord
  2
INTF_167
 70
0
 62
7
  6
CONTINUOUS
370
-3
390
F
  0
LAYER
  5
25B
100
AcDbSymbolTableRecord
100
AcDbLayerTableRecord
  2
INTF_172
 70
0
 62
7
  6
CONTINUOUS
370
-3
390
F
  0
LAYER
  5
25C
100
AcDbSymbolTableRecord
100
AcDbLayerTableRecord
  2
INTF_173
 70
0
 62
7
  6
CONTINUOUS
370
-3
390
F
  0
LAYER
  5
25D
100
AcDbSymbolTableRecord
100
AcDbLayerTableRecord
  2
INTF_174
 70
0
 62
7
  6
CONTINUOUS
370
-3
390
F
  0
LAYER
  5
25E
100
AcDbSymbolTableRecord
100
AcDbLayerTableRecord
  2
INTF_175
 70
0
 62
7
  6
CONTINUOUS
370
-3
390
F
  0
LAYER
  5
25F
100
AcDbSymbolTableRecord
100
AcDbLayerTableRecord
  2
INTF_176
 70
0
 62
7
  6
CONTINUOUS
370
-3
390
F
  0
LAYER
  5
260
100
AcDbSymbolTableRecord
100
AcDbLayerTableRecord
  2
INTF_177
 70
0
 62
7
  6
CONTINUOUS
370
-3
390
F
  0
LAYER
  5
261
100
AcDbSymbolTableRecord
100
AcDbLayerTableRecord
  2
INTF_178
 70
0
 62
7
  6
CONTINUOUS
370
-3
390
F
  0
LAYER
  5
262
100
AcDbSymbolTableRecord
100
AcDbLayerTableRecord
  2
INTF_186
 70
0
 62
7
  6
CONTINUOUS
370
-3
390
F
  0
LAYER
  5
263
100
AcDbSymbolTableRecord
100
AcDbLayerTableRecord
  2
INTF_49
 70
0
 62
7
  6
CONTINUOUS
370
-3
390
F
  0
LAYER
  5
264
100
AcDbSymbolTableRecord
100
AcDbLayerTableRecord
  2
INTF_50
 70
0
 62
7
  6
CONTINUOUS
370
-3
390
F
  0
LAYER
  5
265
100
AcDbSymbolTableRecord
100
AcDbLayerTableRecord
  2
INTF_51
 70
0
 62
7
  6
CONTINUOUS
370
-3
390
F
  0
LAYER
  5
266
100
AcDbSymbolTableRecord
100
AcDbLayerTableRecord
  2
INTF_52
 70
0
 62
7
  6
CONTINUOUS
370
-3
390
F
  0
LAYER
  5
267
100
AcDbSymbolTableRecord
100
AcDbLayerTableRecord
  2
INTF_53
 70
0
 62
7
  6
CONTINUOUS
370
-3
390
F
  0
LAYER
  5
268
100
AcDbSymbolTableRecord
100
AcDbLayerTableRecord
  2
INTF_54
 70
0
 62
7
  6
CONTINUOUS
370
-3
390
F
  0
LAYER
  5
269
100
AcDbSymbolTableRecord
100
AcDbLayerTableRecord
  2
INTF_55
 70
0
 62
7
  6
CONTINUOUS
370
-3
390
F
  0
LAYER
  5
26A
100
AcDbSymbolTableRecord
100
AcDbLayerTableRecord
  2
INTF_56
 70
0
 62
7
  6
CONTINUOUS
370
-3
390
F
  0
LAYER
  5
26B
100
AcDbSymbolTableRecord
100
AcDbLayerTableRecord
  2
INTF_65
 70
0
 62
7
  6
CONTINUOUS
370
-3
390
F
  0
LAYER
  5
26C
100
AcDbSymbolTableRecord
100
AcDbLayerTableRecord
  2
INTF_66
 70
0
 62
7
  6
CONTINUOUS
370
-3
390
F
  0
LAYER
  5
26D
100
AcDbSymbolTableRecord
100
AcDbLayerTableRecord
  2
INTF_67
 70
0
 62
7
  6
CONTINUOUS
370
-3
390
F
  0
LAYER
  5
26E
100
AcDbSymbolTableRecord
100
AcDbLayerTableRecord
  2
INTF_75
 70
0
 62
7
  6
CONTINUOUS
370
-3
390
F
  0
LAYER
  5
26F
100
AcDbSymbolTableRecord
100
AcDbLayerTableRecord
  2
INTF_79
 70
0
 62
7
  6
CONTINUOUS
370
-3
390
F
  0
LAYER
  5
270
100
AcDbSymbolTableRecord
100
AcDbLayerTableRecord
  2
INTF_81
 70
0
 62
7
  6
CONTINUOUS
370
-3
390
F
  0
LAYER
  5
271
100
AcDbSymbolTableRecord
100
AcDbLayerTableRecord
  2
INTF_86
 70
0
 62
7
  6
CONTINUOUS
370
-3
390
F
  0
LAYER
  5
272
100
AcDbSymbolTableRecord
100
AcDbLayerTableRecord
  2
INTF_98
 70
0
 62
7
  6
CONTINUOUS
370
-3
390
F
  0
LAYER
  5
273
100
AcDbSymbolTableRecord
100
AcDbLayerTableRecord
  2
INTF_BLANK
 70
0
 62
7
  6
CONTINUOUS
370
-3
390
F
  0
LAYER
  5
274
100
AcDbSymbolTableRecord
100
AcDbLayerTableRecord
  2
INTF_RED
 70
0
 62
7
  6
CONTINUOUS
370
-3
390
F
  0
LAYER
  5
275
100
AcDbSymbolTableRecord
100
AcDbLayerTableRecord
  2
INTF_YELLOW
 70
0
 62
7
  6
CONTINUOUS
370
-3
390
F
  0
LAYER
  5
276
100
AcDbSymbolTableRecord
100
AcDbLayerTableRecord
  2
INTF_YELLOW_1
 70
0
 62
7
  6
CONTINUOUS
370
-3
390
F
  0
LAYER
  5
277
100
AcDbSymbolTableRecord
100
AcDbLayerTableRecord
  2
INTF_YELLOW_10
 70
0
 62
7
  6
CONTINUOUS
370
-3
390
F
  0
LAYER
  5
278
100
AcDbSymbolTableRecord
100
AcDbLayerTableRecord
  2
INTF_YELLOW_10_1
 70
0
 62
7
  6
CONTINUOUS
370
-3
390
F
  0
LAYER
  5
279
100
AcDbSymbolTableRecord
100
AcDbLayerTableRecord
  2
INTF_YELLOW_11
 70
0
 62
7
  6
CONTINUOUS
370
-3
390
F
  0
LAYER
  5
27A
100
AcDbSymbolTableRecord
100
AcDbLayerTableRecord
  2
INTF_YELLOW_1_1
 70
0
 62
7
  6
CONTINUOUS
370
-3
390
F
  0
LAYER
  5
27B
100
AcDbSymbolTableRecord
100
AcDbLayerTableRecord
  2
INTF_YELLOW_2
 70
0
 62
7
  6
CONTINUOUS
370
-3
390
F
  0
LAYER
  5
27C
100
AcDbSymbolTableRecord
100
AcDbLayerTableRecord
  2
INTF_YELLOW_2_1
 70
0
 62
7
  6
CONTINUOUS
370
-3
390
F
  0
LAYER
  5
27D
100
AcDbSymbolTableRecord
100
AcDbLayerTableRecord
  2
INTF_YELLOW_3
 70
0
 62
7
  6
CONTINUOUS
370
-3
390
F
  0
LAYER
  5
27E
100
AcDbSymbolTableRecord
100
AcDbLayerTableRecord
  2
INTF_YELLOW_3_1
 70
0
 62
7
  6
CONTINUOUS
370
-3
390
F
  0
LAYER
  5
27F
100
AcDbSymbolTableRecord
100
AcDbLayerTableRecord
  2
INTF_YELLOW_4
 70
0
 62
7
  6
CONTINUOUS
370
-3
390
F
  0
LAYER
  5
280
100
AcDbSymbolTableRecord
100
AcDbLayerTableRecord
  2
INTF_YELLOW_4_1
 70
0
 62
7
  6
CONTINUOUS
370
-3
390
F
  0
LAYER
  5
281
100
AcDbSymbolTableRecord
100
AcDbLayerTableRecord
  2
INTF_YELLOW_5
 70
0
 62
7
  6
CONTINUOUS
370
-3
390
F
  0
LAYER
  5
282
100
AcDbSymbolTableRecord
100
AcDbLayerTableRecord
  2
INTF_YELLOW_5_1
 70
0
 62
7
  6
CONTINUOUS
370
-3
390
F
  0
LAYER
  5
283
100
AcDbSymbolTableRecord
100
AcDbLayerTableRecord
  2
INTF_YELLOW_6
 70
0
 62
7
  6
CONTINUOUS
370
-3
390
F
  0
LAYER
  5
284
100
AcDbSymbolTableRecord
100
AcDbLayerTableRecord
  2
INTF_YELLOW_6_1
 70
0
 62
7
  6
CONTINUOUS
370
-3
390
F
  0
LAYER
  5
285
100
AcDbSymbolTableRecord
100
AcDbLayerTableRecord
  2
INTF_YELLOW_7
 70
0
 62
7
  6
CONTINUOUS
370
-3
390
F
  0
LAYER
  5
286
100
AcDbSymbolTableRecord
100
AcDbLayerTableRecord
  2
INTF_YELLOW_8
 70
0
 62
7
  6
CONTINUOUS
370
-3
390
F
  0
LAYER
  5
287
100
AcDbSymbolTableRecord
100
AcDbLayerTableRecord
  2
INTF_YELLOW_8_1
 70
0
 62
7
  6
CONTINUOUS
370
-3
390
F
  0
LAYER
  5
288
100
AcDbSymbolTableRecord
100
AcDbLayerTableRecord
  2
INTF_YELLOW_9
 70
0
 62
7
  6
CONTINUOUS
370
-3
390
F
  0
LAYER
  5
289
100
AcDbSymbolTableRecord
100
AcDbLayerTableRecord
  2
INTF_YELLOW_9_1
 70
0
 62
7
  6
CONTINUOUS
370
-3
390
F
  0
LAYER
  5
28A
100
AcDbSymbolTableRecord
100
AcDbLayerTableRecord
  2
KF127-5_0-2P_3_1
 70
0
 62
7
  6
CONTINUOUS
370
-3
390
F
  0
LAYER
  5
28B
100
AcDbSymbolTableRecord
100
AcDbLayerTableRecord
  2
KF127-5_0-2P_3_1_1
 70
0
 62
7
  6
CONTINUOUS
370
-3
390
F
  0
LAYER
  5
28C
100
AcDbSymbolTableRecord
100
AcDbLayerTableRecord
  2
KF127-5_0-2P_3_1_2
 70
0
 62
7
  6
CONTINUOUS
370
-3
390
F
  0
LAYER
  5
28D
100
AcDbSymbolTableRecord
100
AcDbLayerTableRecord
  2
LAYER_690
 70
0
 62
7
  6
CONTINUOUS
370
-3
390
F
  0
LAYER
  5
28E
100
AcDbSymbolTableRecord
100
AcDbLayerTableRecord
  2
LAYER_690_1
 70
0
 62
7
  6
CONTINUOUS
370
-3
390
F
  0
LAYER
  5
28F
100
AcDbSymbolTableRecord
100
AcDbLayerTableRecord
  2
LAYER_690_1_1
 70
0
 62
7
  6
CONTINUOUS
370
-3
390
F
  0
LAYER
  5
290
100
AcDbSymbolTableRecord
100
AcDbLayerTableRecord
  2
LAYER_690_1_2
 70
0
 62
7
  6
CONTINUOUS
370
-3
390
F
  0
LAYER
  5
291
100
AcDbSymbolTableRecord
100
AcDbLayerTableRecord
  2
LED_SIGN_1_3_1
 70
0
 62
7
  6
CONTINUOUS
370
-3
390
F
  0
LAYER
  5
292
100
AcDbSymbolTableRecord
100
AcDbLayerTableRecord
  2
LED_SIGN_1_3_1_1
 70
0
 62
7
  6
CONTINUOUS
370
-3
390
F
  0
LAYER
  5
293
100
AcDbSymbolTableRecord
100
AcDbLayerTableRecord
  2
LED_SIGN_1_3_1_2
 70
0
 62
7
  6
CONTINUOUS
370
-3
390
F
  0
LAYER
  5
294
100
AcDbSymbolTableRecord
100
AcDbLayerTableRecord
  2
LED_SIGN_1_3_1_3
 70
0
 62
7
  6
CONTINUOUS
370
-3
390
F
  0
LAYER
  5
295
100
AcDbSymbolTableRecord
100
AcDbLayerTableRecord
  2
LED_SIGN_2_5_1_1
 70
0
 62
7
  6
CONTINUOUS
370
-3
390
F
  0
LAYER
  5
296
100
AcDbSymbolTableRecord
100
AcDbLayerTableRecord
  2
LED_SIGN_2_5_2_1
 70
0
 62
7
  6
CONTINUOUS
370
-3
390
F
  0
LAYER
  5
297
100
AcDbSymbolTableRecord
100
AcDbLayerTableRecord
  2
LED_SIGN_2_5_ASM_1
 70
0
 62
7
  6
CONTINUOUS
370
-3
390
F
  0
LAYER
  5
298
100
AcDbSymbolTableRecord
100
AcDbLayerTableRecord
  2
LIVELLO_1
 70
0
 62
7
  6
CONTINUOUS
370
-3
390
F
  0
LAYER
  5
299
100
AcDbSymbolTableRecord
100
AcDbLayerTableRecord
  2
LIVELLO_1_1
 70
0
 62
7
  6
CONTINUOUS
370
-3
390
F
  0
LAYER
  5
29A
100
AcDbSymbolTableRecord
100
AcDbLayerTableRecord
  2
MILL-MAX-823-22-008-10-004101_1
 70
0
 62
7
  6
CONTINUOUS
370
-3
390
F
  0
LAYER
  5
29B
100
AcDbSymbolTableRecord
100
AcDbLayerTableRecord
  2
MILL-MAX-823-22-008-10-004101_A
 70
0
 62
7
  6
CONTINUOUS
370
-3
390
F
  0
LAYER
  5
29C
100
AcDbSymbolTableRecord
100
AcDbLayerTableRecord
  2
NONE
 70
0
 62
7
  6
CONTINUOUS
370
-3
390
F
  0
LAYER
  5
29D
100
AcDbSymbolTableRecord
100
AcDbLayerTableRecord
  2
NONE_1
 70
0
 62
7
  6
CONTINUOUS
370
-3
390
F
  0
LAYER
  5
29E
100
AcDbSymbolTableRecord
100
AcDbLayerTableRecord
  2
NONE_1_1
 70
0
 62
7
  6
CONTINUOUS
370
-3
390
F
  0
LAYER
  5
29F
100
AcDbSymbolTableRecord
100
AcDbLayerTableRecord
  2
NONE_1_1_1
 70
0
 62
7
  6
CONTINUOUS
370
-3
390
F
  0
LAYER
  5
2A0
100
AcDbSymbolTableRecord
100
AcDbLayerTableRecord
  2
NONE_1_2
 70
0
 62
7
  6
CONTINUOUS
370
-3
390
F
  0
LAYER
  5
2A1
100
AcDbSymbolTableRecord
100
AcDbLayerTableRecord
  2
NONE_2
 70
0
 62
7
  6
CONTINUOUS
370
-3
390
F
  0
LAYER
  5
2A2
100
AcDbSymbolTableRecord
100
AcDbLayerTableRecord
  2
NOTE
 70
0
 62
7
  6
CONTINUOUS
370
-3
390
F
  0
LAYER
  5
2A3
100
AcDbSymbolTableRecord
100
AcDbLayerTableRecord
  2
P441_03817_TASTIERA_LCD
 70
0
 62
7
  6
CONTINUOUS
370
-3
390
F
  0
LAYER
  5
2A4
100
AcDbSymbolTableRecord
100
AcDbLayerTableRecord
  2
P4XX-28-010-00-090000_P408-28-0
 70
0
 62
7
  6
CONTINUOUS
370
-3
390
F
  0
LAYER
  5
2A5
100
AcDbSymbolTableRecord
100
AcDbLayerTableRecord
  2
PCB-IN261-VIMAR-8635_ASM_2_ASM_
 70
0
 62
7
  6
CONTINUOUS
370
-3
390
F
  0
LAYER
  5
2A6
100
AcDbSymbolTableRecord
100
AcDbLayerTableRecord
  2
PCB_DISPLAY_16_1
 70
0
 62
7
  6
CONTINUOUS
370
-3
390
F
  0
LAYER
  5
2A7
100
AcDbSymbolTableRecord
100
AcDbLayerTableRecord
  2
PCB_MORSETTIERA_13_1
 70
0
 62
7
  6
CONTINUOUS
370
-3
390
F
  0
LAYER
  5
2A8
100
AcDbSymbolTableRecord
100
AcDbLayerTableRecord
  2
PCB_MORSETTIERA_ASM_27_ASM_1
 70
0
 62
7
  6
CONTINUOUS
370
-3
390
F
  0
LAYER
  5
2A9
100
AcDbSymbolTableRecord
100
AcDbLayerTableRecord
  2
PCB_TASTIERA_15_1
 70
0
 62
7
  6
CONTINUOUS
370
-3
390
F
  0
LAYER
  5
2AA
100
AcDbSymbolTableRecord
100
AcDbLayerTableRecord
  2
PCB_TASTIERA_ASM_15_ASM_1
 70
0
 62
7
  6
CONTINUOUS
370
-3
390
F
  0
LAYER
  5
2AB
100
AcDbSymbolTableRecord
100
AcDbLayerTableRecord
  2
PIANI
 70
0
 62
7
  6
CONTINUOUS
370
-3
390
F
  0
LAYER
  5
2AC
100
AcDbSymbolTableRecord
100
AcDbLayerTableRecord
  2
PMMA_35_1
 70
0
 62
7
  6
CONTINUOUS
370
-3
390
F
  0
LAYER
  5
2AD
100
AcDbSymbolTableRecord
100
AcDbLayerTableRecord
  2
PRT0001
 70
0
 62
7
  6
CONTINUOUS
370
-3
390
F
  0
LAYER
  5
2AE
100
AcDbSymbolTableRecord
100
AcDbLayerTableRecord
  2
PTS-5232R_4_1
 70
0
 62
7
  6
CONTINUOUS
370
-3
390
F
  0
LAYER
  5
2AF
100
AcDbSymbolTableRecord
100
AcDbLayerTableRecord
  2
PUNTI
 70
0
 62
7
  6
CONTINUOUS
370
-3
390
F
  0
LAYER
  5
2B0
100
AcDbSymbolTableRecord
100
AcDbLayerTableRecord
  2
RACCORDO
 70
0
 62
7
  6
CONTINUOUS
370
-3
390
F
  0
LAYER
  5
2B1
100
AcDbSymbolTableRecord
100
AcDbLayerTableRecord
  2
SCREW_2_2X4_5_4_1
 70
0
 62
7
  6
CONTINUOUS
370
-3
390
F
  0
LAYER
  5
2B2
100
AcDbSymbolTableRecord
100
AcDbLayerTableRecord
  2
SCREW_2_2X4_5_4_1_1
 70
0
 62
7
  6
CONTINUOUS
370
-3
390
F
  0
LAYER
  5
2B3
100
AcDbSymbolTableRecord
100
AcDbLayerTableRecord
  2
SCREW_2_2X4_5_4_1_2
 70
0
 62
7
  6
CONTINUOUS
370
-3
390
F
  0
LAYER
  5
2B4
100
AcDbSymbolTableRecord
100
AcDbLayerTableRecord
  2
SCREW_2_2X4_5_4_1_3
 70
0
 62
7
  6
CONTINUOUS
370
-3
390
F
  0
LAYER
  5
2B5
100
AcDbSymbolTableRecord
100
AcDbLayerTableRecord
  2
SCREW_2_2X4_5_4_1_4
 70
0
 62
7
  6
CONTINUOUS
370
-3
390
F
  0
LAYER
  5
2B6
100
AcDbSymbolTableRecord
100
AcDbLayerTableRecord
  2
SCREW_2_2X4_5_4_1_5
 70
0
 62
7
  6
CONTINUOUS
370
-3
390
F
  0
LAYER
  5
2B7
100
AcDbSymbolTableRecord
100
AcDbLayerTableRecord
  2
SCREW_2_9X9_5_3_1
 70
0
 62
7
  6
CONTINUOUS
370
-3
390
F
  0
LAYER
  5
2B8
100
AcDbSymbolTableRecord
100
AcDbLayerTableRecord
  2
SIMBOLI
 70
0
 62
7
  6
CONTINUOUS
370
-3
390
F
  0
LAYER
  5
2B9
100
AcDbSymbolTableRecord
100
AcDbLayerTableRecord
  2
SMUSSO
 70
0
 62
7
  6
CONTINUOUS
370
-3
390
F
  0
LAYER
  5
2BA
100
AcDbSymbolTableRecord
100
AcDbLayerTableRecord
  2
SUPERFICI
 70
0
 62
7
  6
CONTINUOUS
370
-3
390
F
  0
LAYER
  5
2BB
100
AcDbSymbolTableRecord
100
AcDbLayerTableRecord
  2
SUPP_IND_IN287_2_1
 70
0
 62
7
  6
CONTINUOUS
370
-3
390
F
  0
LAYER
  5
2BC
100
AcDbSymbolTableRecord
100
AcDbLayerTableRecord
  2
TRASH
 70
0
 62
7
  6
CONTINUOUS
370
-3
390
F
  0
LAYER
  5
2BD
100
AcDbSymbolTableRecord
100
AcDbLayerTableRecord
  2
WHITE
 70
0
 62
7
  6
CONTINUOUS
370
-3
390
F
  0
LAYER
  5
2BE
100
AcDbSymbolTableRecord
100
AcDbLayerTableRecord
  2
WHITE_5
 70
0
 62
7
  6
CONTINUOUS
370
-3
390
F
  0
LAYER
  5
2BF
100
AcDbSymbolTableRecord
100
AcDbLayerTableRecord
  2
_1000
 70
0
 62
7
  6
CONTINUOUS
370
-3
390
F
  0
LAYER
  5
2C0
100
AcDbSymbolTableRecord
100
AcDbLayerTableRecord
  2
_1448
 70
0
 62
7
  6
CONTINUOUS
370
-3
390
F
  0
LAYER
  5
2C1
100
AcDbSymbolTableRecord
100
AcDbLayerTableRecord
  2
_BLACK_HOLE
 70
0
 62
7
  6
CONTINUOUS
370
-3
390
F
  0
ENDTAB
  0
TABLE
  2
STYLE
  5
3
100
AcDbSymbolTable
 70
1
  0
STYLE
  5
11
100
AcDbSymbolTableRecord
100
AcDbTextStyleTableRecord
  2
STANDARD
 70
0
 40
0.0
 41
0.8
 50
0.0
 71
0
 42
0.2
  3
txt
  4

  0
STYLE
  5
2C2
100
AcDbSymbolTableRecord
100
AcDbTextStyleTableRecord
  2
TEXTSTYLE_1
 70
0
 40
0.0
 41
0.8
 50
0.0
 71
0
 42
0.2
  3
gdt
  4

  0
ENDTAB
  0
TABLE
  2
VIEW
  5
6
100
AcDbSymbolTable
 70
0
  0
ENDTAB
  0
TABLE
  2
UCS
  5
7
100
AcDbSymbolTable
 70
0
  0
ENDTAB
  0
TABLE
  2
APPID
  5
9
100
AcDbSymbolTable
 70
1
  0
APPID
  5
2C3
100
AcDbSymbolTableRecord
100
AcDbRegAppTableRecord
  2
ACAD
 70
0
  0
ENDTAB
  0
TABLE
  2
BLOCK_RECORD
  5
1
100
AcDbSymbolTable
 70
0
  0
BLOCK_RECORD
  5
2C4
100
AcDbSymbolTableRecord
100
AcDbBlockTableRecord
  2
*Model_Space
  0
BLOCK_RECORD
  5
2C5
100
AcDbSymbolTableRecord
100
AcDbBlockTableRecord
  2
*Paper_Space
  0
BLOCK_RECORD
  5
2C6
100
AcDbSymbolTableRecord
100
AcDbBlockTableRecord
  2
_FILLED
  0
ENDTAB
  0
TABLE
  2
DIMSTYLE
  5
A
100
AcDbSymbolTable
 70
1
100
AcDbDimStyleTable
 71
0
  0
DIMSTYLE
105
2C7
100
AcDbSymbolTableRecord
100
AcDbDimStyleTableRecord
  2
STANDARD
 70
0
  3

  4

 40
1.0
 41
3.0
 42
0.5
 43
0.38
 44
1.5
 45
0.0
 46
0.0
 47
0.01
 48
0.01
140
3.0
141
0.09
142
0.0
143
25.4
144
1.0
145
0.0
146
1.0
147
0.625
 71
1
 72
0
 73
0
 74
0
 75
0
 76
0
 77
1
 78
8
 79
2
170
0
171
1
172
0
173
0
174
0
175
0
176
0
177
0
178
0
270
2
179
2
271
2
272
2
273
2
274
2
275
0
280
0
281
0
282
0
283
1
284
8
285
0
286
0
287
3
288
0
340
11
278
44
341
2C6
342
2C6
343
2C6
344
2C6
  0
ENDTAB
  0
ENDSEC
  0
SECTION
  2
BLOCKS
  0
BLOCK
  5
20
100
AcDbEntity
  8
0
100
AcDbBlockBegin
  2
*Model_Space
 70
0
 10
0.0
 20
0.0
 30
0.0
  3
*Model_Space
  1

  0
ENDBLK
  5
21
100
AcDbEntity
  8
0
100
AcDbBlockEnd
  0
BLOCK
  5
1C
100
AcDbEntity
  8
0
100
AcDbBlockBegin
  2
*Paper_Space
 70
0
 10
0.0
 20
0.0
 30
0.0
  3
*Paper_Space
  1

  0
ENDBLK
  5
1D
100
AcDbEntity
  8
0
100
AcDbBlockEnd
  0
BLOCK
  5
2C8
100
AcDbEntity
  8
0
100
AcDbBlockBegin
  2
_FILLED
 70
64
 10
0.0
 20
0.0
  3
_FILLED
  1

  0
SOLID
  5
2C9
100
AcDbEntity
  8
0
  6
BYBLOCK
 62
0
100
AcDbTrace
 10
0.0
 20
0.0
 11
-1.0
 21
0.3166666667
 12
-1.0
 22
-0.3166666667
 13
-1.0
 23
-0.3166666667
  0
ENDBLK
  5
2CA
100
AcDbEntity
  8
0
  6
BYBLOCK
 62
0
100
AcDbBlockEnd
  0
ENDSEC
  0
SECTION
  2
ENTITIES
  0
LINE
  5
2CB
100
AcDbEntity
  8
IMPORT_IGES
100
AcDbLine
 62
7
  6
CONTINUOUS
 10
-48.7499999992
 20
71.0500699424
 11
-48.81679176
 21
70.9832781816
  0
LINE
  5
2CC
100
AcDbEntity
  8
IMPORT_IGES
100
AcDbLine
 62
7
  6
CONTINUOUS
 10
-46.1047410224
 20
72.9999999999
 11
-45.9565364777
 21
73.1482045446
  0
LINE
  5
2CD
100
AcDbEntity
  8
IMPORT_IGES
100
AcDbLine
 62
7
  6
CONTINUOUS
 10
-48.8604294223
 20
68.2139687235
 11
-48.81679176
 21
68.2576063858
  0
LINE
  5
2CE
100
AcDbEntity
  8
IMPORT_IGES
100
AcDbLine
 62
7
  6
CONTINUOUS
 10
-45.0543848701
 20
-72.9201657785
 11
-44.9301797395
 21
-73.0443709091
  0
LINE
  5
2CF
100
AcDbEntity
  8
IMPORT_IGES
100
AcDbLine
 62
7
  6
CONTINUOUS
 10
-42.1834304971
 20
-72.8609404118
 11
-41.9999999992
 21
-73.0443709091
  0
LWPOLYLINE
  5
2D0
100
AcDbEntity
  8
IMPORT_IGES
100
AcDbPolyline
 62
7
  6
CONTINUOUS
 90
13
 70
0
 10
68.6573321652
 20
-73.7094607795
 10
68.6639622038
 20
-73.7091053886
 10
68.6703959367
 20
-73.7078745818
 10
68.676633364
 20
-73.7057683589
 10
68.682828614
 20
-73.7027176976
 10
68.6888275584
 20
-73.6987916203
 10
68.6941678116
 20
-73.694197194
 10
68.6987689955
 20
-73.6888433445
 10
68.7027114882
 20
-73.682821146
 10
68.7057740381
 20
-73.676610888
 10
68.7078828948
 20
-73.6703726671
 10
68.7091118088
 20
-73.6639463867
 10
68.70946078
 20
-73.6573320469
  0
LWPOLYLINE
  5
2D1
100
AcDbEntity
  8
IMPORT_IGES
100
AcDbPolyline
 62
7
  6
CONTINUOUS
 90
8
 70
0
 10
-3.2815873254
 20
-75.0998861399
 10
-3.3009801933
 20
-75.1005264652
 10
-3.3175269229
 20
-75.1011908552
 10
-3.3312871425
 20
-75.1018789146
 10
-3.3420706294
 20
-75.102579402
 10
-3.3498139762
 20
-75.1032885703
 10
-3.3545805903
 20
-75.1040101666
 10
-3.3557846378
 20
-75.1045039424
  0
LWPOLYLINE
  5
2D2
100
AcDbEntity
  8
IMPORT_IGES
100
AcDbPolyline
 62
7
  6
CONTINUOUS
 90
25
 70
0
 10
66.8610909425
 20
-72.8609404112
 10
66.926555817
 20
-72.8587854726
 10
66.9917225985
 20
-72.852351602
 10
67.0563122039
 20
-72.8416696781
 10
67.1200465997
 20
-72.8267892518
 10
67.1826553755
 20
-72.807777003
 10
67.2438765478
 20
-72.7847152541
 10
67.3034489557
 20
-72.7577047088
 10
67.3611185634
 20
-72.7268629641
 10
67.4166441369
 20
-72.6923208446
 10
67.4697887127
 20
-72.6542271063
 10
67.520325875
 20
-72.6127454771
 10
67.568044374
 20
-72.5680500533
 10
67.6127402103
 20
-72.5203318803
 10
67.6542223238
 20
-72.4697949444
 10
67.6923166026
 20
-72.4166504841
 10
67.7268593012
 20
-72.3611249057
 10
67.7577016451
 20
-72.3034551661
 10
67.7847127894
 20
-72.2438824956
 10
67.8077751175
 20
-72.1826609275
 10
67.8267879052
 20
-72.1200516232
 10
67.8416688094
 20
-72.0563165703
 10
67.8523511301
 20
-71.991726185
 10
67.858785297
 20
-71.9265585077
 10
67.8609404123
 20
-71.8610926318
  0
LWPOLYLINE
  5
2D3
100
AcDbEntity
  8
IMPORT_IGES
100
AcDbPolyline
 62
7
  6
CONTINUOUS
 90
28
 70
0
 10
68.6573323561
 20
-75.1571035599
 10
68.7444801064
 20
-75.1545524517
 10
68.8313410967
 20
-75.146938167
 10
68.917621633
 20
-75.1342845303
 10
69.0030278375
 20
-75.1166308844
 10
69.0872724916
 20
-75.0940365798
 10
69.1700759638
 20
-75.0665805963
 10
69.2511664478
 20
-75.0343526395
 10
69.3302593997
 20
-74.9974601174
 10
69.407066103
 20
-74.9560361524
 10
69.481319549
 20
-74.910227699
 10
69.5527778544
 20
-74.860186947
 10
69.6212041051
 20
-74.8060795805
 10
69.6863657721
 20
-74.7480898904
 10
69.7480445573
 20
-74.686413828
 10
69.8060394868
 20
-74.6212519019
 10
69.8601554003
 20
-74.5528202521
 10
69.910205937
 20
-74.4813526673
 10
69.9560215256
 20
-74.4070914689
 10
69.9974488854
 20
-74.330281785
 10
70.0343432595
 20
-74.2511881892
 10
70.0665730549
 20
-74.1700966346
 10
70.0940311069
 20
-74.0872906208
 10
70.1166272252
 20
-74.0030429616
 10
70.1342823746
 20
-73.9176333816
 10
70.1469371563
 20
-73.8313491509
 10
70.1545521756
 20
-73.7444841544
 10
70.1571035606
 20
-73.6573321238
  0
LINE
  5
2D4
100
AcDbEntity
  8
IMPORT_IGES
100
AcDbLine
 62
7
  6
CONTINUOUS
 10
-3.2348111675
 20
-75.0986865527
 11
-3.2815873254
 21
-75.0998861399
  0
LINE
  5
2D5
100
AcDbEntity
  8
IMPORT_IGES
100
AcDbLine
 62
7
  6
CONTINUOUS
 10
-3.1782892654
 20
-75.097622941
 11
-3.2348111675
 21
-75.0986865527
  0
LINE
  5
2D6
100
AcDbEntity
  8
IMPORT_IGES
100
AcDbLine
 62
7
  6
CONTINUOUS
 10
-3.0782137151
 20
-75.0963324259
 11
-3.1782892654
 21
-75.097622941
  0
LINE
  5
2D7
100
AcDbEntity
  8
IMPORT_IGES
100
AcDbLine
 62
7
  6
CONTINUOUS
 10
-2.9641135797
 20
-75.0954622881
 11
-3.0782137151
 21
-75.0963324259
  0
LINE
  5
2D8
100
AcDbEntity
  8
IMPORT_IGES
100
AcDbLine
 62
7
  6
CONTINUOUS
 10
-2.8000250194
 20
-75.0950292595
 11
-2.9641135797
 21
-75.0954622881
  0
LINE
  5
2D9
100
AcDbEntity
  8
IMPORT_IGES
100
AcDbLine
 62
7
  6
CONTINUOUS
 10
68.6573322606
 20
-75.1571035617
 11
3.3567513642
 21
-75.1571034779
  0
LINE
  5
2DA
100
AcDbEntity
  8
IMPORT_IGES
100
AcDbLine
 62
7
  6
CONTINUOUS
 10
-3.3567513626
 20
-75.1571034781
 11
-68.6573323999
 21
-75.1571034781
  0
LINE
  5
2DB
100
AcDbEntity
  8
IMPORT_IGES
100
AcDbLine
 62
7
  6
CONTINUOUS
 10
-2.8000250194
 20
-75.0950292595
 11
2.9244232136
 21
-75.0952757117
  0
LINE
  5
2DC
100
AcDbEntity
  8
IMPORT_IGES
100
AcDbLine
 62
7
  6
CONTINUOUS
 10
2.9244232136
 20
-75.0952757117
 11
3.041956744
 21
-75.0959969226
  0
LINE
  5
2DD
100
AcDbEntity
  8
IMPORT_IGES
100
AcDbLine
 62
7
  6
CONTINUOUS
 10
3.041956744
 20
-75.0959969226
 11
3.1470512789
 21
-75.0971526863
  0
LINE
  5
2DE
100
AcDbEntity
  8
IMPORT_IGES
100
AcDbLine
 62
7
  6
CONTINUOUS
 10
3.1470512789
 20
-75.0971526863
 11
3.2077589777
 21
-75.0981378792
  0
LWPOLYLINE
  5
2DF
100
AcDbEntity
  8
IMPORT_IGES
100
AcDbPolyline
 62
7
  6
CONTINUOUS
 90
10
 70
0
 10
3.2077589777
 20
-75.0981378792
 10
3.2592994595
 20
-75.0992664763
 10
3.281452756
 20
-75.0998815526
 10
3.3008377314
 20
-75.1005206895
 10
3.3174168325
 20
-75.1011842826
 10
3.3312276126
 20
-75.1018719363
 10
3.3420147121
 20
-75.1025728355
 10
3.3496930111
 20
-75.1032833751
 10
3.3543476296
 20
-75.1040071602
 10
3.3559785675
 20
-75.1047441908
  0
LWPOLYLINE
  5
2E0
100
AcDbEntity
  8
IMPORT_IGES
100
AcDbPolyline
 62
7
  6
CONTINUOUS
 90
28
 70
0
 10
-68.6573323999
 20
-75.1571035599
 10
-68.7431118581
 20
-75.1546320199
 10
-68.8288830386
 20
-75.1472242028
 10
-68.9143592859
 20
-75.1348569383
 10
-68.9992715731
 20
-75.1175168007
 10
-69.0833050629
 20
-75.0952188981
 10
-69.1661036046
 20
-75.0680203785
 10
-69.2473876624
 20
-75.0359767387
 10
-69.3268564657
 20
-74.9991639802
 10
-69.4041353542
 20
-74.9577240685
 10
-69.4789456704
 20
-74.9117860465
 10
-69.551027573
 20
-74.8614882699
 10
-69.6200603523
 20
-74.8070386176
 10
-69.6857997213
 20
-74.7486239215
 10
-69.7480213591
 20
-74.6864386836
 10
-69.80646691
 20
-74.6207426208
 10
-69.8609381027
 20
-74.5517684025
 10
-69.9112558732
 20
-74.4797547288
 10
-69.9572273604
 20
-74.4049998116
 10
-69.9987131058
 20
-74.3277595705
 10
-70.0355802757
 20
-74.2483132997
 10
-70.0676907394
 20
-74.1670163183
 10
-70.0949643267
 20
-74.0841611494
 10
-70.1173371312
 20
-74.0000323015
 10
-70.1347462138
 20
-73.9149860427
 10
-70.147170479
 20
-73.8293376578
 10
-70.1546171871
 20
-73.7433569257
 10
-70.157103559
 20
-73.6573321109
  0
LWPOLYLINE
  5
2E1
100
AcDbEntity
  8
IMPORT_IGES
100
AcDbPolyline
 62
7
  6
CONTINUOUS
 90
13
 70
0
 10
-68.6573321654
 20
-73.7094545024
 10
-68.6645113477
 20
-73.7089170823
 10
-68.6712787058
 20
-73.707566555
 10
-68.6776342398
 20
-73.7054029204
 10
-68.6836386946
 20
-73.702346397
 10
-68.6892313252
 20
-73.6984767663
 10
-68.6942298968
 20
-73.6940333735
 10
-68.6986448065
 20
-73.6890393577
 10
-68.7024656572
 20
-73.6834715798
 10
-68.7054790224
 20
-73.6774999669
 10
-68.7076137599
 20
-73.6711811614
 10
-68.7089410119
 20
-73.6644585209
 10
-68.7094607784
 20
-73.6573320454
  0
LINE
  5
2E2
100
AcDbEntity
  8
IMPORT_IGES
100
AcDbLine
 62
7
  6
CONTINUOUS
 10
-41.9999999992
 20
-72.2442490467
 11
-42.1920057134
 21
-72.0522433325
  0
LINE
  5
2E3
100
AcDbEntity
  8
IMPORT_IGES
100
AcDbLine
 62
7
  6
CONTINUOUS
 10
-33.0543848701
 20
-72.9201657785
 11
-32.9999999992
 21
-72.9745506494
  0
LWPOLYLINE
  5
2E4
100
AcDbEntity
  8
IMPORT_IGES
100
AcDbPolyline
 62
7
  6
CONTINUOUS
 90
25
 70
0
 10
-67.9745475019
 20
-71.9721654095
 10
-67.9723160013
 20
-72.0384837372
 10
-67.9658058795
 20
-72.1043293806
 10
-67.9550639466
 20
-72.1694292592
 10
-67.9401636874
 20
-72.2334951072
 10
-67.9211811944
 20
-72.2962850969
 10
-67.8981774273
 20
-72.3575996892
 10
-67.8712505392
 20
-72.4171616704
 10
-67.8405187172
 20
-72.4747468532
 10
-67.8060645274
 20
-72.5302316319
 10
-67.7679692774
 20
-72.5834363646
 10
-67.7264218974
 20
-72.6340581941
 10
-67.6816943766
 20
-72.6818084765
 10
-67.6340284958
 20
-72.7264662947
 10
-67.5835945805
 20
-72.7678799769
 10
-67.5305934725
 20
-72.8058985412
 10
-67.4752580684
 20
-72.8403651889
 10
-67.4178209271
 20
-72.8711389226
 10
-67.3584900128
 20
-72.8981046703
 10
-67.2975072808
 20
-72.9211465233
 10
-67.2351387684
 20
-72.9401617639
 10
-67.1716350735
 20
-72.9550701112
 10
-67.1072604523
 20
-72.9658030287
 10
-67.0422925682
 20
-72.9723069719
 10
-66.9770078245
 20
-72.9745476166
  0
LWPOLYLINE
  5
2E5
100
AcDbEntity
  8
IMPORT_IGES
100
AcDbPolyline
 62
7
  6
CONTINUOUS
 90
25
 70
0
 10
-67.8609404104
 20
-71.8610926065
 10
-67.8587853777
 20
-71.9265572493
 10
-67.8523514407
 20
-71.9917238157
 10
-67.8416694739
 20
-72.0563132249
 10
-67.8267890239
 20
-72.1200474458
 10
-67.8077767667
 20
-72.1826560684
 10
-67.7847150207
 20
-72.2438771087
 10
-67.7577044858
 20
-72.3034494055
 10
-67.7268627551
 20
-72.3611189232
 10
-67.69232065
 20
-72.4166444262
 10
-67.654226923
 20
-72.4697889499
 10
-67.6127452986
 20
-72.5203260769
 10
-67.5680498703
 20
-72.5680445555
 10
-67.520331681
 20
-72.6127403836
 10
-67.4697947145
 20
-72.6542224989
 10
-67.4166502071
 20
-72.6923167864
 10
-67.3611245636
 20
-72.7268594976
 10
-67.3034547395
 20
-72.7577018543
 10
-67.2438819638
 20
-72.7847130087
 10
-67.1826602696
 20
-72.8077753399
 10
-67.1200508183
 20
-72.82678812
 10
-67.0563155965
 20
-72.8416690023
 10
-66.9917250212
 20
-72.8523512826
 10
-66.9265571348
 20
-72.8587853863
 10
-66.861091033
 20
-72.8609404117
  0
LINE
  5
2E6
100
AcDbEntity
  8
IMPORT_IGES
100
AcDbLine
 62
7
  6
CONTINUOUS
 10
-70.157103559
 20
73.6573324005
 11
-70.157103559
 21
-73.6573321109
  0
LINE
  5
2E7
100
AcDbEntity
  8
IMPORT_IGES
100
AcDbLine
 62
7
  6
CONTINUOUS
 10
-68.7094607783
 20
73.657332166
 11
-68.7094607783
 21
-73.6573320454
  0
LINE
  5
2E8
100
AcDbEntity
  8
IMPORT_IGES
100
AcDbLine
 62
250
  6
CONTINUOUS
 10
-68.6573320773
 20
75.1571035614
 11
-68.6573320445
 21
73.709460779
  0
LINE
  5
2E9
100
AcDbEntity
  8
IMPORT_IGES
100
AcDbLine
 62
250
  6
CONTINUOUS
 10
-68.6573323999
 20
-75.1571034781
 11
-68.6573322826
 21
-73.7094607792
  0
LINE
  5
2EA
100
AcDbEntity
  8
IMPORT_IGES
100
AcDbLine
 62
7
  6
CONTINUOUS
 10
-68.1745506485
 20
-72.6746268018
 11
-68.1745506485
 21
72.6746268016
  0
LINE
  5
2EB
100
AcDbEntity
  8
IMPORT_IGES
100
AcDbLine
 62
7
  6
CONTINUOUS
 10
-67.9999999992
 20
-72.5000761525
 11
-67.9999999992
 21
72.5000761523
  0
LINE
  5
2EC
100
AcDbEntity
  8
IMPORT_IGES
100
AcDbLine
 62
7
  6
CONTINUOUS
 10
-67.9745506424
 20
-71.9721654125
 11
-67.9745506498
 21
71.9748802014
  0
LINE
  5
2ED
100
AcDbEntity
  8
IMPORT_IGES
100
AcDbLine
 62
250
  6
CONTINUOUS
 10
-67.8609404103
 20
-71.8610926065
 11
-67.8609404103
 21
71.8610926322
  0
LINE
  5
2EE
100
AcDbEntity
  8
IMPORT_IGES
100
AcDbLine
 62
7
  6
CONTINUOUS
 10
-31.1395705761
 20
71.1604993655
 11
-31.2499999992
 21
71.0500699424
  0
LWPOLYLINE
  5
2EF
100
AcDbEntity
  8
IMPORT_IGES
100
AcDbPolyline
 62
7
  6
CONTINUOUS
 90
6
 70
0
 10
-3.3170193943
 20
-72.9625217572
 10
-3.3126636455
 20
-72.9618493207
 10
-3.3054921074
 20
-72.9611885173
 10
-3.2954307708
 20
-72.960535864
 10
-3.2825536448
 20
-72.9598948438
 10
-3.2670827568
 20
-72.9592759047
  0
LINE
  5
2F0
100
AcDbEntity
  8
IMPORT_IGES
100
AcDbLine
 62
7
  6
CONTINUOUS
 10
-3.2670827568
 20
-72.9592759047
 11
-3.2489774949
 21
-72.9586794116
  0
LINE
  5
2F1
100
AcDbEntity
  8
IMPORT_IGES
100
AcDbLine
 62
7
  6
CONTINUOUS
 10
-5.1280900828
 20
-72.9398527382
 11
-5.0319602103
 21
-72.9366604345
  0
LINE
  5
2F2
100
AcDbEntity
  8
IMPORT_IGES
100
AcDbLine
 62
7
  6
CONTINUOUS
 10
-5.6347151067
 20
-72.9362096764
 11
-5.5145304596
 21
-72.9322156905
  0
LINE
  5
2F3
100
AcDbEntity
  8
IMPORT_IGES
100
AcDbLine
 62
7
  6
CONTINUOUS
 10
-5.0319602103
 20
-72.9366604345
 11
-4.9173877219
 21
-72.9336558563
  0
LINE
  5
2F4
100
AcDbEntity
  8
IMPORT_IGES
100
AcDbLine
 62
7
  6
CONTINUOUS
 10
-5.5145304596
 20
-72.9322156905
 11
-5.3712059208
 21
-72.9284552304
  0
LINE
  5
2F5
100
AcDbEntity
  8
IMPORT_IGES
100
AcDbLine
 62
7
  6
CONTINUOUS
 10
-3.2489774949
 20
-72.9586794116
 11
-3.2053295481
 21
-72.9575620222
  0
LINE
  5
2F6
100
AcDbEntity
  8
IMPORT_IGES
100
AcDbLine
 62
7
  6
CONTINUOUS
 10
-4.9173877219
 20
-72.9336558563
 11
-4.7139369379
 21
-72.9295789382
  0
LINE
  5
2F7
100
AcDbEntity
  8
IMPORT_IGES
100
AcDbLine
 62
7
  6
CONTINUOUS
 10
-5.3712059208
 20
-72.9284552304
 11
-5.1165767474
 21
-72.9233520763
  0
LINE
  5
2F8
100
AcDbEntity
  8
IMPORT_IGES
100
AcDbLine
 62
7
  6
CONTINUOUS
 10
-3.2053295481
 20
-72.9575620222
 11
-3.1526112187
 21
-72.9565713731
  0
LINE
  5
2F9
100
AcDbEntity
  8
IMPORT_IGES
100
AcDbLine
 62
7
  6
CONTINUOUS
 10
-4.7139369379
 20
-72.9295789382
 11
-4.4768558181
 21
-72.9260991766
  0
LINE
  5
2FA
100
AcDbEntity
  8
IMPORT_IGES
100
AcDbLine
 62
7
  6
CONTINUOUS
 10
-5.1165767474
 20
-72.9233520763
 11
-4.8198101175
 21
-72.9189975112
  0
LINE
  5
2FB
100
AcDbEntity
  8
IMPORT_IGES
100
AcDbLine
 62
7
  6
CONTINUOUS
 10
-3.1526112187
 20
-72.9565713731
 11
-3.0593021877
 21
-72.9553694915
  0
LINE
  5
2FC
100
AcDbEntity
  8
IMPORT_IGES
100
AcDbLine
 62
7
  6
CONTINUOUS
 10
-4.4768558181
 20
-72.9260991766
 11
-4.1181964283
 21
-72.9225294914
  0
LINE
  5
2FD
100
AcDbEntity
  8
IMPORT_IGES
100
AcDbLine
 62
7
  6
CONTINUOUS
 10
-4.8198101175
 20
-72.9189975112
 11
-4.3710349899
 21
-72.9145344483
  0
LINE
  5
2FE
100
AcDbEntity
  8
IMPORT_IGES
100
AcDbLine
 62
7
  6
CONTINUOUS
 10
-3.0593021877
 20
-72.9553694915
 11
-2.9529420931
 21
-72.9545591799
  0
LINE
  5
2FF
100
AcDbEntity
  8
IMPORT_IGES
100
AcDbLine
 62
7
  6
CONTINUOUS
 10
-4.1181964283
 20
-72.9225294914
 11
-3.6224049342
 21
-72.9199901587
  0
LINE
  5
300
100
AcDbEntity
  8
IMPORT_IGES
100
AcDbLine
 62
7
  6
CONTINUOUS
 10
-4.3710349899
 20
-72.9145344483
 11
-3.7514874409
 21
-72.911366075
  0
LINE
  5
301
100
AcDbEntity
  8
IMPORT_IGES
100
AcDbLine
 62
7
  6
CONTINUOUS
 10
-2.9529420931
 20
-72.9545591799
 11
-2.8000021754
 21
-72.9541561452
  0
LINE
  5
302
100
AcDbEntity
  8
IMPORT_IGES
100
AcDbLine
 62
7
  6
CONTINUOUS
 10
-1.8499714538
 20
-73.9000000001
 11
1.8499714553
 21
-73.9000000001
  0
LINE
  5
303
100
AcDbEntity
  8
IMPORT_IGES
100
AcDbLine
 62
7
  6
CONTINUOUS
 10
-68.6573322826
 20
-73.7094607792
 11
-3.3301451715
 21
-73.7094595934
  0
LINE
  5
304
100
AcDbEntity
  8
IMPORT_IGES
100
AcDbLine
 62
7
  6
CONTINUOUS
 10
3.3301451731
 20
-73.7094595934
 11
68.6573321652
 21
-73.7094595934
  0
LINE
  5
305
100
AcDbEntity
  8
IMPORT_IGES
100
AcDbLine
 62
250
  6
CONTINUOUS
 10
-68.7094607783
 20
-73.6573320454
 11
-70.1571035608
 21
-73.6573320782
  0
LINE
  5
306
100
AcDbEntity
  8
IMPORT_IGES
100
AcDbLine
 62
250
  6
CONTINUOUS
 10
70.1571035614
 20
-73.6573321238
 11
68.7094607799
 21
-73.6573320469
  0
LINE
  5
307
100
AcDbEntity
  8
IMPORT_IGES
100
AcDbLine
 62
7
  6
CONTINUOUS
 10
67.6746268025
 20
-73.1745506494
 11
5.3254493515
 21
-73.1745506494
  0
LINE
  5
308
100
AcDbEntity
  8
IMPORT_IGES
100
AcDbLine
 62
7
  6
CONTINUOUS
 10
-5.3254493499
 20
-73.1745506494
 11
-67.6746268009
 21
-73.1745506494
  0
LINE
  5
309
100
AcDbEntity
  8
IMPORT_IGES
100
AcDbLine
 62
7
  6
CONTINUOUS
 10
-45.2999999992
 20
-73.1012393767
 11
-34.6999999992
 21
-73.1012393767
  0
LINE
  5
30A
100
AcDbEntity
  8
IMPORT_IGES
100
AcDbLine
 62
7
  6
CONTINUOUS
 10
45.3000000008
 20
-73.1012393767
 11
34.7000000008
 21
-73.1012393767
  0
LINE
  5
30B
100
AcDbEntity
  8
IMPORT_IGES
100
AcDbLine
 62
250
  6
CONTINUOUS
 10
-2.6499999992
 20
-73.1000000001
 11
2.6500000008
 21
-73.1000000001
  0
LINE
  5
30C
100
AcDbEntity
  8
IMPORT_IGES
100
AcDbLine
 62
7
  6
CONTINUOUS
 10
-45.2999999992
 20
-73.0453831689
 11
-41.9999999992
 21
-73.0443709091
  0
LINE
  5
30D
100
AcDbEntity
  8
IMPORT_IGES
100
AcDbLine
 62
7
  6
CONTINUOUS
 10
45.3000000008
 20
-73.0453831689
 11
42.0000000008
 21
-73.0443709091
  0
LINE
  5
30E
100
AcDbEntity
  8
IMPORT_IGES
100
AcDbLine
 62
7
  6
CONTINUOUS
 10
34.7000000008
 20
-73.0453831689
 11
38.0000000008
 21
-73.0443709091
  0
LINE
  5
30F
100
AcDbEntity
  8
IMPORT_IGES
100
AcDbLine
 62
7
  6
CONTINUOUS
 10
-34.6999999992
 20
-73.0453831689
 11
-37.9999999992
 21
-73.0443709091
  0
LINE
  5
310
100
AcDbEntity
  8
IMPORT_IGES
100
AcDbLine
 62
7
  6
CONTINUOUS
 10
67.5000761532
 20
-73.0000000001
 11
44.9745506501
 21
-73.0000000001
  0
LINE
  5
311
100
AcDbEntity
  8
IMPORT_IGES
100
AcDbLine
 62
7
  6
CONTINUOUS
 10
35.0254493515
 20
-73.0000000001
 11
5.5000000008
 21
-73.0000000001
  0
LINE
  5
312
100
AcDbEntity
  8
IMPORT_IGES
100
AcDbLine
 62
7
  6
CONTINUOUS
 10
-5.4999999992
 20
-73.0000000001
 11
-35.0254493499
 21
-73.0000000001
  0
LINE
  5
313
100
AcDbEntity
  8
IMPORT_IGES
100
AcDbLine
 62
7
  6
CONTINUOUS
 10
-44.9745506485
 20
-73.0000000001
 11
-67.5000761516
 21
-73.0000000001
  0
LINE
  5
314
100
AcDbEntity
  8
IMPORT_IGES
100
AcDbLine
 62
7
  6
CONTINUOUS
 10
-66.9770078221
 20
-72.9745492064
 11
-46.9999999992
 21
-72.9745499279
  0
LINE
  5
315
100
AcDbEntity
  8
IMPORT_IGES
100
AcDbLine
 62
7
  6
CONTINUOUS
 10
47.0000000008
 20
-72.9745506494
 11
66.977007822
 21
-72.9745499246
  0
LINE
  5
316
100
AcDbEntity
  8
IMPORT_IGES
100
AcDbLine
 62
7
  6
CONTINUOUS
 10
-32.9999999992
 20
-72.9745506494
 11
-5.8847965707
 21
-72.9745506494
  0
LINE
  5
317
100
AcDbEntity
  8
IMPORT_IGES
100
AcDbLine
 62
7
  6
CONTINUOUS
 10
5.8847965723
 20
-72.9745506494
 11
33.0000000008
 21
-72.9745506494
  0
LINE
  5
318
100
AcDbEntity
  8
IMPORT_IGES
100
AcDbLine
 62
7
  6
CONTINUOUS
 10
5.3254493515
 20
-72.9675686234
 11
3.3200650989
 21
-72.9675686253
  0
LINE
  5
319
100
AcDbEntity
  8
IMPORT_IGES
100
AcDbLine
 62
7
  6
CONTINUOUS
 10
-3.3200650973
 20
-72.9675686272
 11
-5.3254493499
 21
-72.9675686253
  0
LINE
  5
31A
100
AcDbEntity
  8
IMPORT_IGES
100
AcDbLine
 62
7
  6
CONTINUOUS
 10
-3.6224049342
 20
-72.9199901587
 11
3.3120824065
 21
-72.9195669704
  0
LINE
  5
31B
100
AcDbEntity
  8
IMPORT_IGES
100
AcDbLine
 62
7
  6
CONTINUOUS
 10
-3.7514874409
 20
-72.911366075
 11
3.3643757518
 21
-72.9108396195
  0
LINE
  5
31C
100
AcDbEntity
  8
IMPORT_IGES
100
AcDbLine
 62
7
  6
CONTINUOUS
 10
-46.0457522027
 20
-72.9047303897
 11
-45.9542477957
 21
-72.9047303897
  0
LINE
  5
31D
100
AcDbEntity
  8
IMPORT_IGES
100
AcDbLine
 62
7
  6
CONTINUOUS
 10
-34.0457522027
 20
-72.9047303897
 11
-33.9542477957
 21
-72.9047303897
  0
LINE
  5
31E
100
AcDbEntity
  8
IMPORT_IGES
100
AcDbLine
 62
7
  6
CONTINUOUS
 10
33.9542477973
 20
-72.9047303897
 11
34.0457522043
 21
-72.9047303897
  0
LINE
  5
31F
100
AcDbEntity
  8
IMPORT_IGES
100
AcDbLine
 62
7
  6
CONTINUOUS
 10
45.9542477973
 20
-72.9047303897
 11
46.0457522043
 21
-72.9047303897
  0
LINE
  5
320
100
AcDbEntity
  8
IMPORT_IGES
100
AcDbLine
 62
250
  6
CONTINUOUS
 10
-66.8610910333
 20
-72.8609404118
 11
-42.1834304971
 21
-72.8609404118
  0
LINE
  5
321
100
AcDbEntity
  8
IMPORT_IGES
100
AcDbLine
 62
250
  6
CONTINUOUS
 10
-37.816569501
 20
-72.8609404109
 11
37.8165695026
 21
-72.8609404109
  0
LINE
  5
322
100
AcDbEntity
  8
IMPORT_IGES
100
AcDbLine
 62
250
  6
CONTINUOUS
 10
42.183430499
 20
-72.8609404111
 11
66.8610909425
 21
-72.8609404111
  0
LINE
  5
323
100
AcDbEntity
  8
IMPORT_IGES
100
AcDbLine
 62
250
  6
CONTINUOUS
 10
42.192005715
 20
-72.3610165646
 11
66.8610782777
 21
-72.3610151007
  0
LINE
  5
324
100
AcDbEntity
  8
IMPORT_IGES
100
AcDbLine
 62
250
  6
CONTINUOUS
 10
-66.8610928713
 20
-72.3610163849
 11
-42.1920057134
 21
-72.3610163849
  0
LINE
  5
325
100
AcDbEntity
  8
IMPORT_IGES
100
AcDbLine
 62
250
  6
CONTINUOUS
 10
-37.807994285
 20
-72.3610165633
 11
37.8079942866
 21
-72.3610165633
  0
LINE
  5
326
100
AcDbEntity
  8
IMPORT_IGES
100
AcDbLine
 62
7
  6
CONTINUOUS
 10
-41.9999999992
 20
-72.2442490467
 11
-37.9999999992
 21
-72.2442490467
  0
LINE
  5
327
100
AcDbEntity
  8
IMPORT_IGES
100
AcDbLine
 62
7
  6
CONTINUOUS
 10
38.0000000008
 20
-72.2442490467
 11
42.0000000008
 21
-72.2442490467
  0
LINE
  5
328
100
AcDbEntity
  8
IMPORT_IGES
100
AcDbLine
 62
7
  6
CONTINUOUS
 10
-42.1920057134
 20
-72.0522433325
 11
-37.807994285
 21
-72.0522433325
  0
LINE
  5
329
100
AcDbEntity
  8
IMPORT_IGES
100
AcDbLine
 62
7
  6
CONTINUOUS
 10
37.8079942866
 20
-72.0522433325
 11
42.192005715
 21
-72.0522433325
  0
LINE
  5
32A
100
AcDbEntity
  8
IMPORT_IGES
100
AcDbLine
 62
250
  6
CONTINUOUS
 10
-67.8609404101
 20
-71.8610856642
 11
-67.3610162767
 21
-71.8610917898
  0
LINE
  5
32B
100
AcDbEntity
  8
IMPORT_IGES
100
AcDbLine
 62
250
  6
CONTINUOUS
 10
67.8609404126
 20
-71.8610926321
 11
67.361016385
 21
-71.861088887
  0
LINE
  5
32C
100
AcDbEntity
  8
IMPORT_IGES
100
AcDbLine
 62
7
  6
CONTINUOUS
 10
-2.8000010873
 20
-72.9541561452
 11
2.9155494773
 21
-72.9543837199
  0
LINE
  5
32D
100
AcDbEntity
  8
IMPORT_IGES
100
AcDbLine
 62
7
  6
CONTINUOUS
 10
3.3120824065
 20
-72.9195669704
 11
3.8253337933
 21
-72.9207371174
  0
LINE
  5
32E
100
AcDbEntity
  8
IMPORT_IGES
100
AcDbLine
 62
7
  6
CONTINUOUS
 10
3.3643684755
 20
-72.9108394481
 11
4.0049076702
 21
-72.9122969262
  0
LINE
  5
32F
100
AcDbEntity
  8
IMPORT_IGES
100
AcDbLine
 62
7
  6
CONTINUOUS
 10
2.9155494773
 20
-72.9543837199
 11
3.0251214171
 21
-72.9550535937
  0
LINE
  5
330
100
AcDbEntity
  8
IMPORT_IGES
100
AcDbLine
 62
7
  6
CONTINUOUS
 10
3.8253337933
 20
-72.9207371174
 11
4.3027545028
 21
-72.9241518237
  0
LINE
  5
331
100
AcDbEntity
  8
IMPORT_IGES
100
AcDbLine
 62
7
  6
CONTINUOUS
 10
4.0049076702
 20
-72.9122969262
 11
4.6019037969
 21
-72.916561991
  0
LINE
  5
332
100
AcDbEntity
  8
IMPORT_IGES
100
AcDbLine
 62
7
  6
CONTINUOUS
 10
3.0251214171
 20
-72.9550535937
 11
3.1233232499
 21
-72.9561309942
  0
LINE
  5
333
100
AcDbEntity
  8
IMPORT_IGES
100
AcDbLine
 62
7
  6
CONTINUOUS
 10
4.3027545028
 20
-72.9241518237
 11
4.6384501326
 21
-72.9283496385
  0
LINE
  5
334
100
AcDbEntity
  8
IMPORT_IGES
100
AcDbLine
 62
7
  6
CONTINUOUS
 10
4.6019037969
 20
-72.916561991
 11
5.0220717666
 21
-72.9218134815
  0
LINE
  5
335
100
AcDbEntity
  8
IMPORT_IGES
100
AcDbLine
 62
7
  6
CONTINUOUS
 10
3.1233232499
 20
-72.9561309942
 11
3.1800922168
 21
-72.9570509219
  0
LINE
  5
336
100
AcDbEntity
  8
IMPORT_IGES
100
AcDbLine
 62
7
  6
CONTINUOUS
 10
4.6384501326
 20
-72.9283496385
 11
4.8536715547
 21
-72.9322376288
  0
LINE
  5
337
100
AcDbEntity
  8
IMPORT_IGES
100
AcDbLine
 62
7
  6
CONTINUOUS
 10
5.0220717666
 20
-72.9218134815
 11
5.291460076
 21
-72.9266799578
  0
LWPOLYLINE
  5
338
100
AcDbEntity
  8
IMPORT_IGES
100
AcDbPolyline
 62
7
  6
CONTINUOUS
 90
4
 70
0
 10
3.1800922168
 20
-72.9570509219
 10
3.228276249
 20
-72.9581049431
 10
3.2489756975
 20
-72.9586793576
 10
3.2670813395
 20
-72.9592758533
  0
LINE
  5
339
100
AcDbEntity
  8
IMPORT_IGES
100
AcDbLine
 62
7
  6
CONTINUOUS
 10
4.8536715547
 20
-72.9322376288
 11
4.9768160568
 21
-72.9351303042
  0
LINE
  5
33A
100
AcDbEntity
  8
IMPORT_IGES
100
AcDbLine
 62
7
  6
CONTINUOUS
 10
5.291460076
 20
-72.9266799578
 11
5.4455448379
 21
-72.9303005571
  0
LWPOLYLINE
  5
33B
100
AcDbEntity
  8
IMPORT_IGES
100
AcDbPolyline
 62
7
  6
CONTINUOUS
 90
11
 70
0
 10
4.9768160568
 20
-72.9351303042
 10
5.0824034188
 20
-72.9382345123
 10
5.1280941825
 20
-72.939852779
 10
5.1690724026
 20
-72.9415149244
 10
5.2049990325
 20
-72.9432080487
 10
5.2358373929
 20
-72.9449324147
 10
5.261624163
 20
-72.9466877596
 10
5.2821303337
 20
-72.9484603945
 10
5.2972795685
 20
-72.9502457563
 10
5.3071482038
 20
-72.952048408
 10
5.3117362396
 20
-72.9538683497
  0
LWPOLYLINE
  5
33C
100
AcDbEntity
  8
IMPORT_IGES
100
AcDbPolyline
 62
7
  6
CONTINUOUS
 90
11
 70
0
 10
5.4455448379
 20
-72.9303005571
 10
5.5775988954
 20
-72.9341851395
 10
5.6347128613
 20
-72.9362095918
 10
5.6859153528
 20
-72.9382885296
 10
5.730791638
 20
-72.9404054878
 10
5.7692926427
 20
-72.9425607818
 10
5.8014674412
 20
-72.9447540964
 10
5.8270485239
 20
-72.9469680211
 10
5.8459467212
 20
-72.9491967525
 10
5.8582512028
 20
-72.9514460941
 10
5.8639619687
 20
-72.9537160458
  0
LWPOLYLINE
  5
33D
100
AcDbEntity
  8
IMPORT_IGES
100
AcDbPolyline
 62
7
  6
CONTINUOUS
 90
7
 70
0
 10
3.2670813395
 20
-72.9592758533
 10
3.2825524288
 20
-72.9598947952
 10
3.2954297117
 20
-72.9605358183
 10
3.3054915314
 20
-72.9611884732
 10
3.3126640022
 20
-72.9618492769
 10
3.3170210099
 20
-72.9625217123
 10
3.3185625543
 20
-72.9632057796
  0
LWPOLYLINE
  5
33E
100
AcDbEntity
  8
IMPORT_IGES
100
AcDbPolyline
 62
7
  6
CONTINUOUS
 90
31
 70
0
 10
-59.3785442177
 20
-62.3798006544
 10
-59.375684588
 20
-62.4849800516
 10
-59.3674278381
 20
-62.5892753723
 10
-59.3537739679
 20
-62.6926866163
 10
-59.3346532832
 20
-62.7954885606
 10
-59.3101354782
 20
-62.8974064283
 10
-59.2804296361
 20
-62.9976158888
 10
-59.2454948554
 20
-63.0961027542
 10
-59.2053720375
 20
-63.1928812125
 10
-59.1603929699
 20
-63.2871694975
 10
-59.110519232
 20
-63.3789474435
 10
-59.0557892443
 20
-63.4682352162
 10
-58.9966500564
 20
-63.5543115469
 10
-58.9330667236
 20
-63.6371507265
 10
-58.8650741906
 20
-63.7167784642
 10
-58.7932243408
 20
-63.792550618
 10
-58.7174864953
 20
-63.8644365188
 10
-58.6378913329
 20
-63.9324668359
 10
-58.5550827734
 20
-63.9960894347
 10
-58.4690350973
 20
-64.0552693793
 10
-58.3797740241
 20
-64.1100416056
 10
-58.2880206321
 20
-64.1599587875
 10
-58.1937547443
 20
-64.2049825117
 10
-58.0969965377
 20
-64.2451511915
 10
-57.9985276218
 20
-64.2801327401
 10
-57.8983337961
 20
-64.3098861189
 10
-57.7964292611
 20
-64.3344523666
 10
-57.6936382278
 20
-64.3536225117
 10
-57.5902354333
 20
-64.3673268972
 10
-57.4859461404
 20
-64.3756351802
 10
-57.3807703493
 20
-64.3785473606
  0
LWPOLYLINE
  5
33F
100
AcDbEntity
  8
IMPORT_IGES
100
AcDbPolyline
 62
7
  6
CONTINUOUS
 90
34
 70
0
 10
-60.3523581868
 20
-62.3547196441
 10
-60.3488040219
 20
-62.4980115818
 10
-60.3385395009
 20
-62.6403144094
 10
-60.3215646239
 20
-62.781628127
 10
-60.2978085875
 20
-62.9222656298
 10
-60.2673421951
 20
-63.0619140225
 10
-60.2303778562
 20
-63.1996346196
 10
-60.1868726282
 20
-63.3354142976
 10
-60.1368694538
 20
-63.46926618
 10
-60.0807095712
 20
-63.600290952
 10
-60.0183520466
 20
-63.7284695473
 10
-59.9498378138
 20
-63.8538210323
 10
-59.8756309119
 20
-63.9755032907
 10
-59.7956935787
 20
-64.0934916248
 10
-59.7100635764
 20
-64.2078107324
 10
-59.6193182309
 20
-64.3176925908
 10
-59.5234234281
 20
-64.4231076832
 10
-59.4224132821
 20
-64.5240855264
 10
-59.3169674608
 20
-64.6199466478
 10
-59.2070564561
 20
-64.7106569256
 10
-59.0927097762
 20
-64.7962504815
 10
-58.9746956126
 20
-64.876150208
 10
-58.8529892771
 20
-64.9503183363
 10
-58.727615458
 20
-65.0187926351
 10
-58.5994164126
 20
-65.0811093033
 10
-58.4683730847
 20
-65.1372274016
 10
-58.3345045304
 20
-65.1871878691
 10
-58.1987101751
 20
-65.230649722
 10
-58.0609769059
 20
-65.2675700128
 10
-57.9213178356
 20
-65.2979916889
 10
-57.7806717279
 20
-65.3217026089
 10
-57.6393515039
 20
-65.338632059
 10
-57.4970442425
 20
-65.3488507529
 10
-57.3537499437
 20
-65.3523586908
  0
LINE
  5
340
100
AcDbEntity
  8
IMPORT_IGES
100
AcDbLine
 62
250
  6
CONTINUOUS
 10
-67.3610162767
 20
71.8610869624
 11
-67.3610151031
 21
-71.8610783242
  0
LINE
  5
341
100
AcDbEntity
  8
IMPORT_IGES
100
AcDbLine
 62
250
  6
CONTINUOUS
 10
-66.8610864816
 20
72.8609404062
 11
-66.8610920311
 21
72.3610163841
  0
LINE
  5
342
100
AcDbEntity
  8
IMPORT_IGES
100
AcDbLine
 62
250
  6
CONTINUOUS
 10
-66.8610928713
 20
-72.3610163849
 11
-66.8610910333
 21
-72.8609404118
  0
LWPOLYLINE
  5
343
100
AcDbEntity
  8
IMPORT_IGES
100
AcDbPolyline
 62
7
  6
CONTINUOUS
 90
34
 70
0
 10
-60.3698131295
 20
62.3692738852
 10
-60.3663890829
 20
62.5127473782
 10
-60.3562373
 20
62.6552346008
 10
-60.3393577808
 20
62.7967355529
 10
-60.3156796551
 20
62.9375643344
 10
-60.285273793
 20
63.0774068455
 10
-60.2483528056
 20
63.2153207864
 10
-60.2048735518
 20
63.3512929946
 10
-60.1548791727
 20
63.4853366327
 10
-60.098711702
 20
63.616548889
 10
-60.0363299969
 20
63.7449106207
 10
-59.9677752004
 20
63.8704409706
 10
-59.8935127755
 20
63.9922945553
 10
-59.8135047684
 20
64.1104465649
 10
-59.7277891329
 20
64.2249218093
 10
-59.6369451935
 20
64.3349493354
 10
-59.540938666
 20
64.4404994845
 10
-59.4398038345
 20
64.5416019153
 10
-59.3342228759
 20
64.637574651
 10
-59.2241661407
 20
64.7283833995
 10
-59.1096632783
 20
64.814062453
 10
-58.9914854146
 20
64.8940327111
 10
-58.8696077494
 20
64.9682562134
 10
-58.7440550828
 20
65.0367709203
 10
-58.6156729415
 20
65.0991116134
 10
-58.4844421932
 20
65.1552371439
 10
-58.3503819703
 20
65.2051886607
 10
-58.2143951953
 20
65.248624391
 10
-58.0764687171
 20
65.2855009172
 10
-57.9366156869
 20
65.315861657
 10
-57.7957784809
 20
65.3394950911
 10
-57.6542712247
 20
65.3563307132
 10
-57.5117797928
 20
65.3664390297
 10
-57.3683041852
 20
65.3698200406
  0
LWPOLYLINE
  5
344
100
AcDbEntity
  8
IMPORT_IGES
100
AcDbPolyline
 62
7
  6
CONTINUOUS
 90
31
 70
0
 10
-59.3959985996
 20
62.3943494611
 10
-59.3932812753
 20
62.4997298033
 10
-59.3851458231
 20
62.6042290313
 10
-59.3715922432
 20
62.7078471449
 10
-59.3525507282
 20
62.810860516
 10
-59.3280910854
 20
62.9129927728
 10
-59.2984227365
 20
63.0134148003
 10
-59.2635044651
 20
63.1121123395
 10
-59.2233774876
 20
63.2090996494
 10
-59.1783748747
 20
63.3035903916
 10
-59.1284579105
 20
63.395564273
 10
-59.0736653109
 20
63.4850415867
 10
-59.0144462937
 20
63.5712968742
 10
-58.9507656487
 20
63.6543042467
 10
-58.8826585861
 20
63.7340895931
 10
-58.8106799533
 20
63.8100051215
 10
-58.7347988448
 20
63.8820199367
 10
-58.6550461663
 20
63.9501649339
 10
-58.5720694817
 20
64.0138850075
 10
-58.4858428912
 20
64.0731449565
 10
-58.3963922947
 20
64.1279799818
 10
-58.3044429566
 20
64.1779405805
 10
-58.2099745717
 20
64.2229880448
 10
-58.1130074451
 20
64.2631610824
 10
-58.0143277568
 20
64.2981263142
 10
-57.9139212349
 20
64.3278424098
 10
-57.8118021514
 20
64.3523506994
 10
-57.7087995013
 20
64.3714417948
 10
-57.6051896165
 20
64.3850458997
 10
-57.5006961652
 20
64.3932328103
 10
-57.3953191475
 20
64.3960025266
  0
LWPOLYLINE
  5
345
100
AcDbEntity
  8
IMPORT_IGES
100
AcDbPolyline
 62
7
  6
CONTINUOUS
 90
31
 70
0
 10
57.3962857151
 20
-64.396002527
 10
57.501799705
 20
-64.3931667882
 10
57.6063846071
 20
-64.3849167139
 10
57.7100404214
 20
-64.3712523042
 10
57.8130386242
 20
-64.3520986332
 10
57.9151077392
 20
-64.3275306268
 10
58.0154333377
 20
-64.2977730621
 10
58.1140001676
 20
-64.2627872654
 10
58.2108234809
 20
-64.2226119105
 10
58.3051346049
 20
-64.1775877963
 10
58.3969133105
 20
-64.1276790257
 10
58.4861798267
 20
-64.0729214959
 10
58.5722261681
 20
-64.0137636974
 10
58.655027515
 20
-63.9501729387
 10
58.7346086872
 20
-63.8821819114
 10
58.810336159
 20
-63.810337181
 10
58.8821809441
 20
-63.7346097609
 10
58.9501720288
 20
-63.6550286379
 10
59.0137628473
 20
-63.5722273369
 10
59.0729207078
 20
-63.4861810381
 10
59.1276783021
 20
-63.3969145614
 10
59.1775871389
 20
-63.3051358919
 10
59.2226113212
 20
-63.2108248003
 10
59.2627867459
 20
-63.114001516
 10
59.2977726138
 20
-63.0154347113
 10
59.3275302386
 20
-62.9151091344
 10
59.3520983065
 20
-62.8130400371
 10
59.3712520762
 20
-62.7100418481
 10
59.384916634
 20
-62.6063860436
 10
59.3931668936
 20
-62.5018011475
 10
59.3960028549
 20
-62.3962871596
  0
LWPOLYLINE
  5
346
100
AcDbEntity
  8
IMPORT_IGES
100
AcDbPolyline
 62
7
  6
CONTINUOUS
 90
31
 70
0
 10
57.3526583565
 20
-64.3523651981
 10
57.4574670885
 20
-64.3496181966
 10
57.5619599376
 20
-64.3413858976
 10
57.6658503786
 20
-64.3276951028
 10
57.7688514039
 20
-64.3085881608
 10
57.8706838326
 20
-64.2841212733
 10
57.9710767593
 20
-64.2543629855
 10
58.0697563653
 20
-64.219397497
 10
58.1664528513
 20
-64.1793235325
 10
58.2609080551
 20
-64.134250549
 10
58.3528642599
 20
-64.0843036585
 10
58.4420706144
 20
-64.0296213494
 10
58.5282888307
 20
-63.9703512685
 10
58.6112835371
 20
-63.906656371
 10
58.690828215
 20
-63.8387117495
 10
58.7667100479
 20
-63.76669978
 10
58.8387214194
 20
-63.6908174757
 10
58.9066653342
 20
-63.6112724688
 10
58.9703594357
 20
-63.5282775901
 10
59.0296286517
 20
-63.4420593705
 10
59.084310049
 20
-63.3528531918
 10
59.1342560037
 20
-63.26089735
 10
59.1793280511
 20
-63.1664427021
 10
59.2194011037
 20
-63.0697469683
 10
59.2543657293
 20
-62.9710683121
 10
59.2841233272
 20
-62.8706761628
 10
59.3085895853
 20
-62.7688446945
 10
59.3276958036
 20
-62.6658459396
 10
59.3413859429
 20
-62.5619594759
 10
59.3496179386
 20
-62.4574719316
 10
59.3523651934
 20
-62.352669804
  0
LWPOLYLINE
  5
347
100
AcDbEntity
  8
IMPORT_IGES
100
AcDbPolyline
 62
7
  6
CONTINUOUS
 90
34
 70
0
 10
57.3547196447
 20
-65.3523581877
 10
57.4980115824
 20
-65.3488040228
 10
57.6403144101
 20
-65.3385395018
 10
57.7816281277
 20
-65.3215646248
 10
57.9222656305
 20
-65.2978085884
 10
58.0619140232
 20
-65.267342196
 10
58.1996346203
 20
-65.2303778572
 10
58.3354142983
 20
-65.1868726291
 10
58.4692661806
 20
-65.1368694547
 10
58.6002909526
 20
-65.0807095721
 10
58.728469548
 20
-65.0183520475
 10
58.8538210329
 20
-64.9498378147
 10
58.9755032914
 20
-64.8756309128
 10
59.0934916255
 20
-64.7956935796
 10
59.2078107331
 20
-64.7100635773
 10
59.3176925915
 20
-64.6193182318
 10
59.4231076839
 20
-64.523423429
 10
59.5240855271
 20
-64.422413283
 10
59.6199466484
 20
-64.3169674617
 10
59.7106569262
 20
-64.2070564571
 10
59.7962504822
 20
-64.0927097771
 10
59.8761502087
 20
-63.9746956136
 10
59.950318337
 20
-63.852989278
 10
60.0187926358
 20
-63.727615459
 10
60.0811093039
 20
-63.5994164135
 10
60.1372274022
 20
-63.4683730856
 10
60.1871878698
 20
-63.3345045314
 10
60.2306497227
 20
-63.198710176
 10
60.2675697821
 20
-63.0609769068
 10
60.2979912268
 20
-62.9213178364
 10
60.3217026096
 20
-62.7806717288
 10
60.3386334478
 20
-62.6393515052
 10
60.3488542241
 20
-62.4970442443
 10
60.3523649383
 20
-62.3537499462
  0
LINE
  5
348
100
AcDbEntity
  8
IMPORT_IGES
100
AcDbLine
 62
7
  6
CONTINUOUS
 10
57.368295865
 20
-65.3698203003
 11
-57.3692686851
 21
-65.3698202546
  0
LINE
  5
349
100
AcDbEntity
  8
IMPORT_IGES
100
AcDbLine
 62
7
  6
CONTINUOUS
 10
-57.3537499453
 20
-65.3523651895
 11
57.3547196485
 21
-65.3523651706
  0
LINE
  5
34A
100
AcDbEntity
  8
IMPORT_IGES
100
AcDbLine
 62
7
  6
CONTINUOUS
 10
-57.3943448504
 20
-64.3959988881
 11
57.3962857151
 21
-64.396002527
  0
LINE
  5
34B
100
AcDbEntity
  8
IMPORT_IGES
100
AcDbLine
 62
7
  6
CONTINUOUS
 10
49.8261839274
 20
-64.378546463
 11
48.3785464637
 21
-64.378546463
  0
LINE
  5
34C
100
AcDbEntity
  8
IMPORT_IGES
100
AcDbLine
 62
7
  6
CONTINUOUS
 10
38.8261786027
 20
-64.3785476815
 11
-57.3807703493
 21
-64.3785473606
  0
LINE
  5
34D
100
AcDbEntity
  8
IMPORT_IGES
100
AcDbLine
 62
7
  6
CONTINUOUS
 10
38.8523651956
 20
-64.3523651949
 11
48.3523651956
 21
-64.3523651949
  0
LINE
  5
34E
100
AcDbEntity
  8
IMPORT_IGES
100
AcDbLine
 62
7
  6
CONTINUOUS
 10
49.8523651956
 20
-64.3523651949
 11
57.352668653
 21
-64.3523651949
  0
LINE
  5
34F
100
AcDbEntity
  8
IMPORT_IGES
100
AcDbLine
 62
7
  6
CONTINUOUS
 10
49.8349101307
 20
-63.8698202598
 11
48.3698202605
 21
-63.8698202598
  0
LINE
  5
350
100
AcDbEntity
  8
IMPORT_IGES
100
AcDbLine
 62
7
  6
CONTINUOUS
 10
40.8523651956
 20
-62.8523651949
 11
48.3523651956
 21
-62.8523651949
  0
LINE
  5
351
100
AcDbEntity
  8
IMPORT_IGES
100
AcDbLine
 62
7
  6
CONTINUOUS
 10
49.8523651956
 20
-62.8523651949
 11
57.3523651956
 21
-62.8523651949
  0
LINE
  5
352
100
AcDbEntity
  8
IMPORT_IGES
100
AcDbLine
 62
7
  6
CONTINUOUS
 10
49.8349101306
 20
-62.83491013
 11
48.3698202605
 21
-62.83491013
  0
LINE
  5
353
100
AcDbEntity
  8
IMPORT_IGES
100
AcDbLine
 62
7
  6
CONTINUOUS
 10
57.3523651956
 20
-62.8087275326
 11
40.8523651956
 21
-62.8087275326
  0
LINE
  5
354
100
AcDbEntity
  8
IMPORT_IGES
100
AcDbLine
 62
250
  6
CONTINUOUS
 10
57.8523651956
 20
-62.3523651949
 11
57.8087275332
 21
-62.3523651949
  0
LINE
  5
355
100
AcDbEntity
  8
IMPORT_IGES
100
AcDbLine
 62
250
  6
CONTINUOUS
 10
40.3960028579
 20
-62.3523651949
 11
40.3523651956
 21
-62.3523651949
  0
LINE
  5
356
100
AcDbEntity
  8
IMPORT_IGES
100
AcDbLine
 62
7
  6
CONTINUOUS
 10
56.8698202605
 20
-61.8698202598
 11
41.3349101306
 21
-61.8698202598
  0
LINE
  5
357
100
AcDbEntity
  8
IMPORT_IGES
100
AcDbLine
 62
7
  6
CONTINUOUS
 10
56.8523651956
 20
-61.8523651949
 11
41.3523651956
 21
-61.8523651949
  0
LWPOLYLINE
  5
358
100
AcDbEntity
  8
IMPORT_IGES
100
AcDbPolyline
 62
7
  6
CONTINUOUS
 90
34
 70
0
 10
-57.3692686851
 20
-65.3698200397
 10
-57.5127425044
 20
-65.3663931541
 10
-57.6552300581
 20
-65.3562392691
 10
-57.7967313461
 20
-65.3393583849
 10
-57.9375604703
 20
-65.315679887
 10
-58.0774033289
 20
-65.2852743897
 10
-58.2153176161
 20
-65.2483537363
 10
-58.3512901691
 20
-65.2048745294
 10
-58.4853341506
 20
-65.1548801663
 10
-58.6165467427
 20
-65.0987126823
 10
-58.7449088025
 20
-65.0363309342
 10
-58.8704394728
 20
-64.9677760652
 10
-58.9922933645
 20
-64.893513541
 10
-59.1104456673
 20
-64.8135054075
 10
-59.2249211914
 20
-64.7277896189
 10
-59.3349489785
 20
-64.636945503
 10
-59.4404993695
 20
-64.5409387755
 10
-59.5416020235
 20
-64.4398037207
 10
-59.6375749592
 20
-64.3342225202
 10
-59.7283838841
 20
-64.2241655239
 10
-59.8140630907
 20
-64.1096623818
 10
-59.8940334752
 20
-63.9914842249
 10
-59.9682570766
 20
-63.8696062528
 10
-60.0367718559
 20
-63.7440532658
 10
-60.099112592
 20
-63.6156707964
 10
-60.1552381358
 20
-63.4844397123
 10
-60.2051896364
 20
-63.3503791459
 10
-60.2486253198
 20
-63.2143920261
 10
-60.2855017677
 20
-63.0764652017
 10
-60.3158623985
 20
-62.9366118239
 10
-60.3394956929
 20
-62.7957742755
 10
-60.3563311447
 20
-62.6542666842
 10
-60.3664392602
 20
-62.5117749222
 10
-60.3698200394
 20
-62.3682989896
  0
LWPOLYLINE
  5
359
100
AcDbEntity
  8
IMPORT_IGES
100
AcDbPolyline
 62
7
  6
CONTINUOUS
 90
31
 70
0
 10
-57.3943448504
 20
-64.3959988881
 10
-57.4997255127
 20
-64.39328166
 10
-57.6042250651
 20
-64.3851463031
 10
-57.7078435076
 20
-64.3715928176
 10
-57.8108572145
 20
-64.3525514067
 10
-57.9129898115
 20
-64.3280918671
 10
-58.0134121761
 20
-64.2984235886
 10
-58.1121100491
 20
-64.2635053438
 10
-58.2090976897
 20
-64.2233783601
 10
-58.3035887528
 20
-64.1783757099
 10
-58.3955629453
 20
-64.128458677
 10
-58.4850405604
 20
-64.0736659776
 10
-58.5712961326
 20
-64.0144468331
 10
-58.6543037727
 20
-63.9507660329
 10
-58.7340893699
 20
-63.8826587874
 10
-58.8100051264
 20
-63.8106799492
 10
-58.8820201464
 20
-63.7347986123
 10
-58.9501653258
 20
-63.6550456826
 10
-59.013885554
 20
-63.5720687304
 10
-59.0731456295
 20
-63.4858418552
 10
-59.1279807537
 20
-63.3963909575
 10
-59.1779414204
 20
-63.3044413086
 10
-59.2229889211
 20
-63.2099726033
 10
-59.2631619642
 20
-63.1130051468
 10
-59.2981271687
 20
-63.0143251256
 10
-59.3278432039
 20
-62.9139182677
 10
-59.3523514005
 20
-62.8117988451
 10
-59.3714423699
 20
-62.7087958607
 10
-59.3850463157
 20
-62.6051856486
 10
-59.3932330343
 20
-62.5006918747
 10
-59.3960025256
 20
-62.3953145388
  0
LINE
  5
35A
100
AcDbEntity
  8
IMPORT_IGES
100
AcDbLine
 62
7
  6
CONTINUOUS
 10
-60.3698202996
 20
-62.3682989896
 11
-60.3698202771
 21
62.3692738824
  0
LINE
  5
35B
100
AcDbEntity
  8
IMPORT_IGES
100
AcDbLine
 62
7
  6
CONTINUOUS
 10
-60.3523651897
 20
62.3537582679
 11
-60.3523651509
 21
-62.3547196478
  0
LINE
  5
35C
100
AcDbEntity
  8
IMPORT_IGES
100
AcDbLine
 62
7
  6
CONTINUOUS
 10
-59.3960028799
 20
-62.3953145388
 11
-59.3960028799
 21
62.3943494573
  0
LINE
  5
35D
100
AcDbEntity
  8
IMPORT_IGES
100
AcDbLine
 62
7
  6
CONTINUOUS
 10
-59.3785477398
 20
62.3807732274
 11
-59.3785477641
 21
-62.3798006558
  0
LINE
  5
35E
100
AcDbEntity
  8
IMPORT_IGES
100
AcDbLine
 62
7
  6
CONTINUOUS
 10
58.8698202605
 20
-59.08491013
 11
59.3785464637
 21
-59.0761839268
  0
LINE
  5
35F
100
AcDbEntity
  8
IMPORT_IGES
100
AcDbLine
 62
7
  6
CONTINUOUS
 10
39.3523651956
 20
-59.1023651949
 11
38.8525122658
 21
-59.1109391945
  0
LINE
  5
360
100
AcDbEntity
  8
IMPORT_IGES
100
AcDbLine
 62
7
  6
CONTINUOUS
 10
58.8523651956
 20
-57.6023651949
 11
59.3522181254
 21
-57.5937911953
  0
LINE
  5
361
100
AcDbEntity
  8
IMPORT_IGES
100
AcDbLine
 62
7
  6
CONTINUOUS
 10
39.3349101307
 20
-57.6198202598
 11
38.8261744041
 21
-57.6285473249
  0
LINE
  5
362
100
AcDbEntity
  8
IMPORT_IGES
100
AcDbLine
 62
7
  6
CONTINUOUS
 10
58.8523651956
 20
-59.1023651949
 11
57.8523651956
 21
-59.1023651949
  0
LINE
  5
363
100
AcDbEntity
  8
IMPORT_IGES
100
AcDbLine
 62
7
  6
CONTINUOUS
 10
40.3523651956
 20
-59.1023651949
 11
39.3523651956
 21
-59.1023651949
  0
LINE
  5
364
100
AcDbEntity
  8
IMPORT_IGES
100
AcDbLine
 62
7
  6
CONTINUOUS
 10
58.8698202605
 20
-59.08491013
 11
57.8349101306
 21
-59.08491013
  0
LINE
  5
365
100
AcDbEntity
  8
IMPORT_IGES
100
AcDbLine
 62
7
  6
CONTINUOUS
 10
39.3349101307
 20
-59.08491013
 11
40.3698202605
 21
-59.08491013
  0
LINE
  5
366
100
AcDbEntity
  8
IMPORT_IGES
100
AcDbLine
 62
7
  6
CONTINUOUS
 10
58.8698202605
 20
-57.6198202598
 11
57.8349101306
 21
-57.6198202598
  0
LINE
  5
367
100
AcDbEntity
  8
IMPORT_IGES
100
AcDbLine
 62
7
  6
CONTINUOUS
 10
40.3698202605
 20
-57.6198202598
 11
39.3349101307
 21
-57.6198202598
  0
LINE
  5
368
100
AcDbEntity
  8
IMPORT_IGES
100
AcDbLine
 62
7
  6
CONTINUOUS
 10
40.3523651956
 20
-57.6023651949
 11
39.3523651956
 21
-57.6023651949
  0
LINE
  5
369
100
AcDbEntity
  8
IMPORT_IGES
100
AcDbLine
 62
7
  6
CONTINUOUS
 10
57.8523651956
 20
-57.6023651949
 11
58.8523651956
 21
-57.6023651949
  0
LINE
  5
36A
100
AcDbEntity
  8
IMPORT_IGES
100
AcDbLine
 62
7
  6
CONTINUOUS
 10
56.8523651956
 20
-54.8523651949
 11
41.3523651956
 21
-54.8523651949
  0
LINE
  5
36B
100
AcDbEntity
  8
IMPORT_IGES
100
AcDbLine
 62
7
  6
CONTINUOUS
 10
41.3349101306
 20
-54.83491013
 11
56.8698202605
 21
-54.83491013
  0
LINE
  5
36C
100
AcDbEntity
  8
IMPORT_IGES
100
AcDbLine
 62
250
  6
CONTINUOUS
 10
40.3960028579
 20
-54.3523651949
 11
40.3523651956
 21
-54.3523651949
  0
LINE
  5
36D
100
AcDbEntity
  8
IMPORT_IGES
100
AcDbLine
 62
250
  6
CONTINUOUS
 10
57.8087275332
 20
-54.3523651949
 11
57.8523651956
 21
-54.3523651949
  0
LINE
  5
36E
100
AcDbEntity
  8
IMPORT_IGES
100
AcDbLine
 62
7
  6
CONTINUOUS
 10
38.8261744041
 20
-59.0761830651
 11
39.3349101307
 21
-59.08491013
  0
LINE
  5
36F
100
AcDbEntity
  8
IMPORT_IGES
100
AcDbLine
 62
7
  6
CONTINUOUS
 10
59.3522181248
 20
-59.1109391945
 11
58.8523651956
 21
-59.1023651949
  0
LINE
  5
370
100
AcDbEntity
  8
IMPORT_IGES
100
AcDbLine
 62
7
  6
CONTINUOUS
 10
38.8525122658
 20
-57.5937911953
 11
39.3523651956
 21
-57.6023651949
  0
LINE
  5
371
100
AcDbEntity
  8
IMPORT_IGES
100
AcDbLine
 62
7
  6
CONTINUOUS
 10
59.3785464637
 20
-57.628546463
 11
58.8698202605
 21
-57.6198202598
  0
LINE
  5
372
100
AcDbEntity
  8
IMPORT_IGES
100
AcDbLine
 62
7
  6
CONTINUOUS
 10
-5.3254493499
 20
-73.1745506494
 11
-5.4999999992
 21
-73.0000000001
  0
LINE
  5
373
100
AcDbEntity
  8
IMPORT_IGES
100
AcDbLine
 62
7
  6
CONTINUOUS
 10
-48.8604294223
 20
71.1604993655
 11
-48.8604294223
 21
68.2139687235
  0
LINE
  5
374
100
AcDbEntity
  8
IMPORT_IGES
100
AcDbLine
 62
7
  6
CONTINUOUS
 10
-48.81679176
 20
70.9832781816
 11
-48.81679176
 21
68.2576063858
  0
LINE
  5
375
100
AcDbEntity
  8
IMPORT_IGES
100
AcDbLine
 62
250
  6
CONTINUOUS
 10
-47.4999999992
 20
-39.7000000001
 11
-47.4999999992
 21
-39.6825449352
  0
LINE
  5
376
100
AcDbEntity
  8
IMPORT_IGES
100
AcDbLine
 62
250
  6
CONTINUOUS
 10
-47.4999999992
 20
-45.3000000001
 11
-47.4999999992
 21
-45.317455065
  0
LINE
  5
377
100
AcDbEntity
  8
IMPORT_IGES
100
AcDbLine
 62
250
  6
CONTINUOUS
 10
-47.4999999992
 20
39.682544935
 11
-47.4999999992
 21
39.6999999999
  0
LINE
  5
378
100
AcDbEntity
  8
IMPORT_IGES
100
AcDbLine
 62
250
  6
CONTINUOUS
 10
-47.4999999992
 20
45.2999999999
 11
-47.4999999992
 21
45.3174550648
  0
LINE
  5
379
100
AcDbEntity
  8
IMPORT_IGES
100
AcDbLine
 62
7
  6
CONTINUOUS
 10
-47.4499999992
 20
71.0500699424
 11
-47.4499999992
 21
69.3245504747
  0
LWPOLYLINE
  5
37A
100
AcDbEntity
  8
IMPORT_IGES
100
AcDbPolyline
 62
7
  6
CONTINUOUS
 90
31
 70
0
 10
40.852062634
 20
-52.3523651931
 10
40.7472575878
 20
-52.3551124943
 10
40.6427675083
 20
-52.3633448032
 10
40.5388789092
 20
-52.3770354631
 10
40.435878503
 20
-52.3961423331
 10
40.3340457958
 20
-52.4206093221
 10
40.2336526004
 20
-52.4503677406
 10
40.134973023
 20
-52.4853332788
 10
40.0382765678
 20
-52.5254072911
 10
39.9438213974
 20
-52.5704803199
 10
39.8518652287
 20
-52.6204272532
 10
39.7626589124
 20
-52.6751096025
 10
39.6764407362
 20
-52.7343797208
 10
39.5934460716
 20
-52.7980746531
 10
39.513901437
 20
-52.8660193065
 10
39.4380196485
 20
-52.9380313051
 10
39.3660083224
 20
-53.0139136359
 10
39.2980644537
 20
-53.0934586665
 10
39.234370399
 20
-53.1764535662
 10
39.1751012301
 20
-53.2626718043
 10
39.1204198802
 20
-53.351877999
 10
39.0704739729
 20
-53.4438338544
 10
39.0254019727
 20
-53.538288514
 10
38.9853289673
 20
-53.6349842572
 10
38.9503643889
 20
-53.7336629201
 10
38.920606838
 20
-53.8340550733
 10
38.8961406266
 20
-53.9358865428
 10
38.8770344545
 20
-54.0388852963
 10
38.8633443608
 20
-54.1427717561
 10
38.85511241
 20
-54.2472592939
 10
38.8523651991
 20
-54.3520614127
  0
LINE
  5
37B
100
AcDbEntity
  8
IMPORT_IGES
100
AcDbLine
 62
7
  6
CONTINUOUS
 10
40.8523651955
 20
-53.8960028572
 11
57.3523651956
 21
-53.8960028572
  0
LINE
  5
37C
100
AcDbEntity
  8
IMPORT_IGES
100
AcDbLine
 62
7
  6
CONTINUOUS
 10
49.8349101306
 20
-53.8698202598
 11
48.3698202605
 21
-53.8698202598
  0
LINE
  5
37D
100
AcDbEntity
  8
IMPORT_IGES
100
AcDbLine
 62
7
  6
CONTINUOUS
 10
57.3523651956
 20
-53.8523651949
 11
49.8523651956
 21
-53.8523651949
  0
LINE
  5
37E
100
AcDbEntity
  8
IMPORT_IGES
100
AcDbLine
 62
7
  6
CONTINUOUS
 10
48.3523651956
 20
-53.8523651949
 11
40.8523651956
 21
-53.8523651949
  0
LINE
  5
37F
100
AcDbEntity
  8
IMPORT_IGES
100
AcDbLine
 62
7
  6
CONTINUOUS
 10
49.8349101306
 20
-52.83491013
 11
48.3698202605
 21
-52.83491013
  0
LINE
  5
380
100
AcDbEntity
  8
IMPORT_IGES
100
AcDbLine
 62
7
  6
CONTINUOUS
 10
59.3523651956
 20
-52.3523651949
 11
49.8523651956
 21
-52.3523651949
  0
LINE
  5
381
100
AcDbEntity
  8
IMPORT_IGES
100
AcDbLine
 62
7
  6
CONTINUOUS
 10
48.3523651956
 20
-52.3523651949
 11
40.8520605867
 21
-52.3523651943
  0
LINE
  5
382
100
AcDbEntity
  8
IMPORT_IGES
100
AcDbLine
 62
7
  6
CONTINUOUS
 10
59.3785476822
 20
-52.326182867
 11
40.8258821611
 21
-52.3261826723
  0
LINE
  5
383
100
AcDbEntity
  8
IMPORT_IGES
100
AcDbLine
 62
7
  6
CONTINUOUS
 10
5.3117362396
 20
-72.9538683497
 11
5.3254493515
 21
-72.9675686234
  0
LINE
  5
384
100
AcDbEntity
  8
IMPORT_IGES
100
AcDbLine
 62
7
  6
CONTINUOUS
 10
5.8639619963
 20
-72.9537161983
 11
5.8847965723
 21
-72.9745506494
  0
LINE
  5
385
100
AcDbEntity
  8
IMPORT_IGES
100
AcDbLine
 62
7
  6
CONTINUOUS
 10
-46.1047410224
 20
72.9745507113
 11
-46.1047410224
 21
72.9999999999
  0
LINE
  5
386
100
AcDbEntity
  8
IMPORT_IGES
100
AcDbLine
 62
7
  6
CONTINUOUS
 10
-45.9565364777
 20
73.1482045446
 11
-45.9565364777
 21
72.9745507113
  0
LINE
  5
387
100
AcDbEntity
  8
IMPORT_IGES
100
AcDbLine
 62
7
  6
CONTINUOUS
 10
-45.2999999992
 20
-73.1012393767
 11
-45.2999999992
 21
-73.0453831689
  0
LINE
  5
388
100
AcDbEntity
  8
IMPORT_IGES
100
AcDbLine
 62
7
  6
CONTINUOUS
 10
-44.9999999992
 20
72.9745507113
 11
-44.9999999992
 21
73.1482045446
  0
LINE
  5
389
100
AcDbEntity
  8
IMPORT_IGES
100
AcDbLine
 62
7
  6
CONTINUOUS
 10
-44.9301797395
 20
-73.0443709091
 11
-44.9301797395
 21
-73.1012393767
  0
LINE
  5
38A
100
AcDbEntity
  8
IMPORT_IGES
100
AcDbLine
 62
7
  6
CONTINUOUS
 10
-44.5999999992
 20
-2.5000000002
 11
-44.5999999992
 21
2.4999999998
  0
LINE
  5
38B
100
AcDbEntity
  8
IMPORT_IGES
100
AcDbLine
 62
7
  6
CONTINUOUS
 10
-43.5615988564
 20
-2.5000000002
 11
-43.5615988564
 21
2.4999999998
  0
LINE
  5
38C
100
AcDbEntity
  8
IMPORT_IGES
100
AcDbLine
 62
250
  6
CONTINUOUS
 10
-42.4999999992
 20
39.6999999999
 11
-42.4999999992
 21
39.682544935
  0
LINE
  5
38D
100
AcDbEntity
  8
IMPORT_IGES
100
AcDbLine
 62
250
  6
CONTINUOUS
 10
-42.4999999992
 20
-39.6825449352
 11
-42.4999999992
 21
-39.7000000001
  0
LINE
  5
38E
100
AcDbEntity
  8
IMPORT_IGES
100
AcDbLine
 62
250
  6
CONTINUOUS
 10
-42.4999999992
 20
-45.3000000001
 11
-42.4999999992
 21
-45.317455065
  0
LINE
  5
38F
100
AcDbEntity
  8
IMPORT_IGES
100
AcDbLine
 62
250
  6
CONTINUOUS
 10
-42.4999999992
 20
45.2999999999
 11
-42.4999999992
 21
45.3174550648
  0
LINE
  5
390
100
AcDbEntity
  8
IMPORT_IGES
100
AcDbLine
 62
7
  6
CONTINUOUS
 10
-42.1920057134
 20
-72.3610165633
 11
-42.1920057134
 21
-72.0522433325
  0
LINE
  5
391
100
AcDbEntity
  8
IMPORT_IGES
100
AcDbLine
 62
7
  6
CONTINUOUS
 10
-41.9999999992
 20
-73.0443709091
 11
-41.9999999992
 21
-72.2442490467
  0
LINE
  5
392
100
AcDbEntity
  8
IMPORT_IGES
100
AcDbLine
 62
7
  6
CONTINUOUS
 10
-40.4999999992
 20
72.9745507113
 11
-40.4999999992
 21
73.1572684429
  0
LINE
  5
393
100
AcDbEntity
  8
IMPORT_IGES
100
AcDbLine
 62
7
  6
CONTINUOUS
 10
-31.2630238626
 20
27.1037013651
 11
-31.3061976875
 21
27.0214967193
  0
LWPOLYLINE
  5
394
100
AcDbEntity
  8
IMPORT_IGES
100
AcDbPolyline
 62
7
  6
CONTINUOUS
 90
5
 70
0
 10
-31.1469044865
 20
27.3045397505
 10
-31.1733740736
 20
27.267082639
 10
-31.1983114311
 20
27.2283565772
 10
-31.2209814068
 20
27.1876395169
 10
-31.2630238626
 20
27.1037013651
  0
LWPOLYLINE
  5
395
100
AcDbEntity
  8
IMPORT_IGES
100
AcDbPolyline
 62
7
  6
CONTINUOUS
 90
7
 70
0
 10
-30.9441233066
 20
27.5500107577
 10
-30.9754634803
 20
27.5182598792
 10
-31.0059799596
 20
27.4853147174
 10
-31.0356727447
 20
27.4511752723
 10
-31.0644759258
 20
27.4155786577
 10
-31.0924554126
 20
27.3787877599
 10
-31.1469044865
 20
27.3045397505
  0
LINE
  5
396
100
AcDbEntity
  8
IMPORT_IGES
100
AcDbLine
 62
7
  6
CONTINUOUS
 10
-31.6783837963
 20
28.2842712474
 11
-28.2842712467
 21
31.678383797
  0
LINE
  5
397
100
AcDbEntity
  8
IMPORT_IGES
100
AcDbLine
 62
7
  6
CONTINUOUS
 10
-27.5500107569
 20
30.9441233074
 11
-30.9441233066
 21
27.5500107577
  0
LINE
  5
398
100
AcDbEntity
  8
IMPORT_IGES
100
AcDbLine
 62
7
  6
CONTINUOUS
 10
47.5000000008
 20
-45.317455065
 11
42.5000000008
 21
-45.317455065
  0
LINE
  5
399
100
AcDbEntity
  8
IMPORT_IGES
100
AcDbLine
 62
7
  6
CONTINUOUS
 10
-42.4999999992
 20
-45.317455065
 11
-47.4999999992
 21
-45.317455065
  0
LINE
  5
39A
100
AcDbEntity
  8
IMPORT_IGES
100
AcDbLine
 62
7
  6
CONTINUOUS
 10
47.5000000008
 20
-45.3000000001
 11
42.5000000008
 21
-45.3000000001
  0
LINE
  5
39B
100
AcDbEntity
  8
IMPORT_IGES
100
AcDbLine
 62
7
  6
CONTINUOUS
 10
-42.4999999992
 20
-45.3000000001
 11
-47.4999999992
 21
-45.3000000001
  0
LINE
  5
39C
100
AcDbEntity
  8
IMPORT_IGES
100
AcDbLine
 62
7
  6
CONTINUOUS
 10
2.5000000007
 20
-44.6000000001
 11
-2.4999999993
 21
-44.6000000001
  0
LINE
  5
39D
100
AcDbEntity
  8
IMPORT_IGES
100
AcDbLine
 62
7
  6
CONTINUOUS
 10
47.5000000008
 20
-44.2476348053
 11
42.5000000008
 21
-44.2476348053
  0
LINE
  5
39E
100
AcDbEntity
  8
IMPORT_IGES
100
AcDbLine
 62
7
  6
CONTINUOUS
 10
-42.4999999992
 20
-44.2476348053
 11
-47.4999999992
 21
-44.2476348053
  0
LINE
  5
39F
100
AcDbEntity
  8
IMPORT_IGES
100
AcDbLine
 62
7
  6
CONTINUOUS
 10
2.5000000007
 20
-43.5615988573
 11
-2.4999999993
 21
-43.5615988573
  0
LINE
  5
3A0
100
AcDbEntity
  8
IMPORT_IGES
100
AcDbLine
 62
7
  6
CONTINUOUS
 10
-47.4999999992
 20
-40.7523651949
 11
-42.4999999992
 21
-40.7523651949
  0
LINE
  5
3A1
100
AcDbEntity
  8
IMPORT_IGES
100
AcDbLine
 62
7
  6
CONTINUOUS
 10
42.5000000008
 20
-40.7523651949
 11
47.5000000008
 21
-40.7523651949
  0
LINE
  5
3A2
100
AcDbEntity
  8
IMPORT_IGES
100
AcDbLine
 62
7
  6
CONTINUOUS
 10
-28.2842712477
 20
-31.6783837962
 11
-31.6783837963
 21
-28.2842712476
  0
LINE
  5
3A3
100
AcDbEntity
  8
IMPORT_IGES
100
AcDbLine
 62
7
  6
CONTINUOUS
 10
-30.9441233067
 20
-27.5500107579
 11
-27.5500107571
 21
-30.9441233075
  0
LWPOLYLINE
  5
3A4
100
AcDbEntity
  8
IMPORT_IGES
100
AcDbPolyline
 62
7
  6
CONTINUOUS
 90
6
 70
0
 10
-31.0924554127
 20
-27.3787877601
 10
-31.0644759259
 20
-27.4155786579
 10
-31.0356727447
 20
-27.4511752724
 10
-31.0059799597
 20
-27.4853147175
 10
-30.9754634803
 20
-27.5182598794
 10
-30.9441233067
 20
-27.5500107579
  0
LWPOLYLINE
  5
3A5
100
AcDbEntity
  8
IMPORT_IGES
100
AcDbPolyline
 62
7
  6
CONTINUOUS
 90
5
 70
0
 10
-31.2209814068
 20
-27.1876395171
 10
-31.1983114311
 20
-27.2283565774
 10
-31.1733740736
 20
-27.2670826392
 10
-31.1469044865
 20
-27.3045397507
 10
-31.0924554127
 20
-27.3787877601
  0
LINE
  5
3A6
100
AcDbEntity
  8
IMPORT_IGES
100
AcDbLine
 62
7
  6
CONTINUOUS
 10
-40.0384011421
 20
2.4999999998
 11
-40.0384011421
 21
-2.5000000002
  0
LINE
  5
3A7
100
AcDbEntity
  8
IMPORT_IGES
100
AcDbLine
 62
7
  6
CONTINUOUS
 10
-39.4999999992
 20
73.1572684429
 11
-39.4999999992
 21
72.9745507113
  0
LINE
  5
3A8
100
AcDbEntity
  8
IMPORT_IGES
100
AcDbLine
 62
7
  6
CONTINUOUS
 10
-38.9999999992
 20
2.4999999998
 11
-38.9999999992
 21
-2.5000000002
  0
LINE
  5
3A9
100
AcDbEntity
  8
IMPORT_IGES
100
AcDbLine
 62
7
  6
CONTINUOUS
 10
-37.9999999992
 20
-72.2442490467
 11
-37.9999999992
 21
-73.0443709091
  0
LINE
  5
3AA
100
AcDbEntity
  8
IMPORT_IGES
100
AcDbLine
 62
7
  6
CONTINUOUS
 10
-37.807994285
 20
-72.0522433325
 11
-37.807994285
 21
-72.3610165633
  0
LINE
  5
3AB
100
AcDbEntity
  8
IMPORT_IGES
100
AcDbLine
 62
7
  6
CONTINUOUS
 10
-35.0698202589
 20
-73.1012393767
 11
-35.0698202589
 21
-73.0443709091
  0
LINE
  5
3AC
100
AcDbEntity
  8
IMPORT_IGES
100
AcDbLine
 62
7
  6
CONTINUOUS
 10
-34.9999999992
 20
73.1482045446
 11
-34.9999999992
 21
72.9745507113
  0
LINE
  5
3AD
100
AcDbEntity
  8
IMPORT_IGES
100
AcDbLine
 62
7
  6
CONTINUOUS
 10
-34.6999999992
 20
-73.0453831689
 11
-34.6999999992
 21
-73.1012393767
  0
LINE
  5
3AE
100
AcDbEntity
  8
IMPORT_IGES
100
AcDbLine
 62
7
  6
CONTINUOUS
 10
-34.0434635207
 20
72.9745507113
 11
-34.0434635207
 21
73.1482045446
  0
LINE
  5
3AF
100
AcDbEntity
  8
IMPORT_IGES
100
AcDbLine
 62
7
  6
CONTINUOUS
 10
-33.895258976
 20
72.9999999999
 11
-33.895258976
 21
72.9745507113
  0
LWPOLYLINE
  5
3B0
100
AcDbEntity
  8
IMPORT_IGES
100
AcDbPolyline
 62
7
  6
CONTINUOUS
 90
6
 70
0
 10
-31.4438829312
 20
26.5307914216
 10
-31.4500372725
 20
26.4858441053
 10
-31.4547950453
 20
26.4407653614
 10
-31.4579544874
 20
26.3954324219
 10
-31.459717361
 20
26.3499680547
 10
-31.4600836662
 20
26.30437226
  0
LWPOLYLINE
  5
3B1
100
AcDbEntity
  8
IMPORT_IGES
100
AcDbPolyline
 62
7
  6
CONTINUOUS
 90
5
 70
0
 10
-31.3993160468
 20
26.757684717
 10
-31.4119580343
 20
26.7133177587
 10
-31.4218064971
 20
26.6678434554
 10
-31.4297675435
 20
26.6217910966
 10
-31.4438829312
 20
26.5307914216
  0
LINE
  5
3B2
100
AcDbEntity
  8
IMPORT_IGES
100
AcDbLine
 62
7
  6
CONTINUOUS
 10
-31.3699920138
 20
26.8454574036
 11
-31.3993160468
 21
26.757684717
  0
LWPOLYLINE
  5
3B3
100
AcDbEntity
  8
IMPORT_IGES
100
AcDbPolyline
 62
7
  6
CONTINUOUS
 90
4
 70
0
 10
-31.3061976875
 20
27.0214967193
 10
-31.3256389646
 20
26.9793509771
 10
-31.3418644675
 20
26.9353617283
 10
-31.3699920138
 20
26.8454574036
  0
LWPOLYLINE
  5
3B4
100
AcDbEntity
  8
IMPORT_IGES
100
AcDbPolyline
 62
7
  6
CONTINUOUS
 90
4
 70
0
 10
-24.6966593809
 20
28.9813603505
 10
-24.6772181037
 20
29.0235060927
 10
-24.6609926008
 20
29.0674953415
 10
-24.6328650545
 20
29.1573996661
  0
LINE
  5
3B5
100
AcDbEntity
  8
IMPORT_IGES
100
AcDbLine
 62
7
  6
CONTINUOUS
 10
-24.7398332058
 20
28.8991557047
 11
-24.6966593809
 21
28.9813603505
  0
LWPOLYLINE
  5
3B6
100
AcDbEntity
  8
IMPORT_IGES
100
AcDbPolyline
 62
7
  6
CONTINUOUS
 90
5
 70
0
 10
-24.8559525818
 20
28.6983173192
 10
-24.8294829948
 20
28.7357744308
 10
-24.8045456373
 20
28.7745004925
 10
-24.7818756615
 20
28.8152175529
 10
-24.7398332058
 20
28.8991557047
  0
LWPOLYLINE
  5
3B7
100
AcDbEntity
  8
IMPORT_IGES
100
AcDbPolyline
 62
7
  6
CONTINUOUS
 90
7
 70
0
 10
-25.0587337617
 20
28.4528463121
 10
-25.027393588
 20
28.4845971906
 10
-24.9968771087
 20
28.5175423524
 10
-24.9671843237
 20
28.5516817975
 10
-24.9383811425
 20
28.587278412
 10
-24.9104016557
 20
28.6240693099
 10
-24.8559525818
 20
28.6983173192
  0
LINE
  5
3B8
100
AcDbEntity
  8
IMPORT_IGES
100
AcDbLine
 62
7
  6
CONTINUOUS
 10
-28.4528463114
 20
25.0587337624
 11
-25.0587337617
 21
28.4528463121
  0
LINE
  5
3B9
100
AcDbEntity
  8
IMPORT_IGES
100
AcDbLine
 62
7
  6
CONTINUOUS
 10
-24.324473272
 20
27.7185858223
 11
-27.7185858216
 21
24.3244732728
  0
LINE
  5
3BA
100
AcDbEntity
  8
IMPORT_IGES
100
AcDbLine
 62
7
  6
CONTINUOUS
 10
-2.4999999993
 20
-40.038401143
 11
2.5000000007
 21
-40.038401143
  0
LINE
  5
3BB
100
AcDbEntity
  8
IMPORT_IGES
100
AcDbLine
 62
7
  6
CONTINUOUS
 10
-47.4999999992
 20
-39.7000000001
 11
-42.4999999992
 21
-39.7000000001
  0
LINE
  5
3BC
100
AcDbEntity
  8
IMPORT_IGES
100
AcDbLine
 62
7
  6
CONTINUOUS
 10
42.5000000008
 20
-39.7000000001
 11
47.5000000008
 21
-39.7000000001
  0
LINE
  5
3BD
100
AcDbEntity
  8
IMPORT_IGES
100
AcDbLine
 62
7
  6
CONTINUOUS
 10
-47.4999999992
 20
-39.6825449352
 11
-42.4999999992
 21
-39.6825449352
  0
LINE
  5
3BE
100
AcDbEntity
  8
IMPORT_IGES
100
AcDbLine
 62
7
  6
CONTINUOUS
 10
42.5000000008
 20
-39.6825449352
 11
47.5000000008
 21
-39.6825449352
  0
LINE
  5
3BF
100
AcDbEntity
  8
IMPORT_IGES
100
AcDbLine
 62
7
  6
CONTINUOUS
 10
-2.4999999993
 20
-39.0000000001
 11
2.5000000007
 21
-39.0000000001
  0
LINE
  5
3C0
100
AcDbEntity
  8
IMPORT_IGES
100
AcDbLine
 62
7
  6
CONTINUOUS
 10
-25.0587337614
 20
-28.4528463126
 11
-28.4528463113
 21
-25.0587337627
  0
LINE
  5
3C1
100
AcDbEntity
  8
IMPORT_IGES
100
AcDbLine
 62
7
  6
CONTINUOUS
 10
-27.7185858216
 20
-24.324473273
 11
-24.3244732707
 21
-27.7185858239
  0
LWPOLYLINE
  5
3C2
100
AcDbEntity
  8
IMPORT_IGES
100
AcDbPolyline
 62
7
  6
CONTINUOUS
 90
6
 70
0
 10
-24.9104016555
 20
-28.6240693103
 10
-24.9383811423
 20
-28.5872784125
 10
-24.9671843234
 20
-28.551681798
 10
-24.9968771084
 20
-28.5175423529
 10
-25.0273935878
 20
-28.4845971911
 10
-25.0587337614
 20
-28.4528463126
  0
LWPOLYLINE
  5
3C3
100
AcDbEntity
  8
IMPORT_IGES
100
AcDbPolyline
 62
7
  6
CONTINUOUS
 90
5
 70
0
 10
-24.7818756614
 20
-28.8152175533
 10
-24.8045456371
 20
-28.774500493
 10
-24.8294829946
 20
-28.7357744312
 10
-24.8559525816
 20
-28.6983173197
 10
-24.9104016555
 20
-28.6240693103
  0
LINE
  5
3C4
100
AcDbEntity
  8
IMPORT_IGES
100
AcDbLine
 62
7
  6
CONTINUOUS
 10
-31.2630238626
 20
-27.1037013653
 11
-31.2209814068
 21
-27.1876395171
  0
LINE
  5
3C5
100
AcDbEntity
  8
IMPORT_IGES
100
AcDbLine
 62
7
  6
CONTINUOUS
 10
-24.7398332057
 20
-28.8991557051
 11
-24.7818756614
 21
-28.8152175533
  0
LWPOLYLINE
  5
3C6
100
AcDbEntity
  8
IMPORT_IGES
100
AcDbPolyline
 62
7
  6
CONTINUOUS
 90
4
 70
0
 10
-31.3418644675
 20
-26.9353617285
 10
-31.3256389646
 20
-26.9793509773
 10
-31.3061976875
 20
-27.0214967195
 10
-31.2630238626
 20
-27.1037013653
  0
LINE
  5
3C7
100
AcDbEntity
  8
IMPORT_IGES
100
AcDbLine
 62
7
  6
CONTINUOUS
 10
-31.3699920138
 20
-26.8454574038
 11
-31.3418644675
 21
-26.9353617285
  0
LWPOLYLINE
  5
3C8
100
AcDbEntity
  8
IMPORT_IGES
100
AcDbPolyline
 62
7
  6
CONTINUOUS
 90
5
 70
0
 10
-31.4297675435
 20
-26.6217910968
 10
-31.4218064971
 20
-26.6678434556
 10
-31.4119580343
 20
-26.7133177589
 10
-31.3993160468
 20
-26.7576847172
 10
-31.3699920138
 20
-26.8454574038
  0
LWPOLYLINE
  5
3C9
100
AcDbEntity
  8
IMPORT_IGES
100
AcDbPolyline
 62
7
  6
CONTINUOUS
 90
7
 70
0
 10
-31.4600836662
 20
-26.3043722603
 10
-31.459717361
 20
-26.349968055
 10
-31.4579544874
 20
-26.3954324221
 10
-31.4547950453
 20
-26.4407653616
 10
-31.4500372725
 20
-26.4858441055
 10
-31.4438829312
 20
-26.5307914218
 10
-31.4297675435
 20
-26.6217910968
  0
LINE
  5
3CA
100
AcDbEntity
  8
IMPORT_IGES
100
AcDbLine
 62
7
  6
CONTINUOUS
 10
-32.7999999992
 20
-2.5000000002
 11
-32.7999999992
 21
2.4999999998
  0
LINE
  5
3CB
100
AcDbEntity
  8
IMPORT_IGES
100
AcDbLine
 62
7
  6
CONTINUOUS
 10
-32.5499999992
 20
69.3245504747
 11
-32.5499999992
 21
71.0500699424
  0
LINE
  5
3CC
100
AcDbEntity
  8
IMPORT_IGES
100
AcDbLine
 62
7
  6
CONTINUOUS
 10
-31.7615988564
 20
-2.5000000002
 11
-31.7615988564
 21
2.4999999998
  0
LINE
  5
3CD
100
AcDbEntity
  8
IMPORT_IGES
100
AcDbLine
 62
7
  6
CONTINUOUS
 10
-31.1832082384
 20
68.2576063858
 11
-31.1832082384
 21
70.9832781816
  0
LINE
  5
3CE
100
AcDbEntity
  8
IMPORT_IGES
100
AcDbLine
 62
7
  6
CONTINUOUS
 10
-31.1395705761
 20
71.1604993655
 11
-31.1395705761
 21
68.2139687235
  0
LINE
  5
3CF
100
AcDbEntity
  8
IMPORT_IGES
100
AcDbLine
 62
7
  6
CONTINUOUS
 10
-28.2384011421
 20
2.4999999998
 11
-28.2384011421
 21
-2.5000000002
  0
LINE
  5
3D0
100
AcDbEntity
  8
IMPORT_IGES
100
AcDbLine
 62
7
  6
CONTINUOUS
 10
-27.1999999992
 20
2.4999999998
 11
-27.1999999992
 21
-2.5000000002
  0
LWPOLYLINE
  5
3D1
100
AcDbEntity
  8
IMPORT_IGES
100
AcDbPolyline
 62
7
  6
CONTINUOUS
 90
6
 70
0
 10
-24.5589741371
 20
29.4720656482
 10
-24.5528197958
 20
29.5170129645
 10
-24.548062023
 20
29.5620917084
 10
-24.5449025809
 20
29.6074246479
 10
-24.5431397073
 20
29.652889015
 10
-24.5427734021
 20
29.6984848097
  0
LWPOLYLINE
  5
3D2
100
AcDbEntity
  8
IMPORT_IGES
100
AcDbPolyline
 62
7
  6
CONTINUOUS
 90
5
 70
0
 10
-24.6035410215
 20
29.2451723528
 10
-24.590899034
 20
29.2895393111
 10
-24.5810505713
 20
29.3350136144
 10
-24.5730895248
 20
29.3810659731
 10
-24.5589741371
 20
29.4720656482
  0
LINE
  5
3D3
100
AcDbEntity
  8
IMPORT_IGES
100
AcDbLine
 62
7
  6
CONTINUOUS
 10
-24.6328650545
 20
29.1573996661
 11
-24.6035410215
 21
29.2451723528
  0
LINE
  5
3D4
100
AcDbEntity
  8
IMPORT_IGES
100
AcDbLine
 62
7
  6
CONTINUOUS
 10
31.2500000008
 20
71.0500699424
 11
31.18320824
 21
70.9832781816
  0
LINE
  5
3D5
100
AcDbEntity
  8
IMPORT_IGES
100
AcDbLine
 62
7
  6
CONTINUOUS
 10
33.8952589776
 20
72.9999999999
 11
34.0434635223
 21
73.1482045446
  0
LINE
  5
3D6
100
AcDbEntity
  8
IMPORT_IGES
100
AcDbLine
 62
7
  6
CONTINUOUS
 10
2.5000000007
 20
-32.8000000001
 11
-2.4999999993
 21
-32.8000000001
  0
LINE
  5
3D7
100
AcDbEntity
  8
IMPORT_IGES
100
AcDbLine
 62
7
  6
CONTINUOUS
 10
2.5000000007
 20
-31.7615988573
 11
-2.4999999993
 21
-31.7615988573
  0
LINE
  5
3D8
100
AcDbEntity
  8
IMPORT_IGES
100
AcDbLine
 62
7
  6
CONTINUOUS
 10
-2.4999999993
 20
-28.238401143
 11
2.5000000007
 21
-28.238401143
  0
LINE
  5
3D9
100
AcDbEntity
  8
IMPORT_IGES
100
AcDbLine
 62
7
  6
CONTINUOUS
 10
-2.4999999993
 20
-27.2000000001
 11
2.5000000007
 21
-27.2000000001
  0
LINE
  5
3DA
100
AcDbEntity
  8
IMPORT_IGES
100
AcDbLine
 62
7
  6
CONTINUOUS
 10
34.9456151299
 20
-72.9201657785
 11
35.0698202605
 21
-73.0443709091
  0
LWPOLYLINE
  5
3DB
100
AcDbEntity
  8
IMPORT_IGES
100
AcDbPolyline
 62
7
  6
CONTINUOUS
 90
4
 70
0
 10
-24.6609926008
 20
-29.0674953419
 10
-24.6772181036
 20
-29.023506093
 10
-24.6966593808
 20
-28.9813603509
 10
-24.7398332057
 20
-28.8991557051
  0
LINE
  5
3DC
100
AcDbEntity
  8
IMPORT_IGES
100
AcDbLine
 62
7
  6
CONTINUOUS
 10
-24.6328650545
 20
-29.1573996665
 11
-24.6609926008
 21
-29.0674953419
  0
LWPOLYLINE
  5
3DD
100
AcDbEntity
  8
IMPORT_IGES
100
AcDbPolyline
 62
7
  6
CONTINUOUS
 90
5
 70
0
 10
-24.5730895248
 20
-29.3810659735
 10
-24.5810505712
 20
-29.3350136147
 10
-24.590899034
 20
-29.2895393114
 10
-24.6035410215
 20
-29.2451723531
 10
-24.6328650545
 20
-29.1573996665
  0
LWPOLYLINE
  5
3DE
100
AcDbEntity
  8
IMPORT_IGES
100
AcDbPolyline
 62
7
  6
CONTINUOUS
 90
7
 70
0
 10
-24.5427734021
 20
-29.69848481
 10
-24.5431397073
 20
-29.6528890153
 10
-24.5449025809
 20
-29.6074246482
 10
-24.548062023
 20
-29.5620917086
 10
-24.5528197958
 20
-29.5170129648
 10
-24.5589741371
 20
-29.4720656485
 10
-24.5730895248
 20
-29.3810659735
  0
LINE
  5
3DF
100
AcDbEntity
  8
IMPORT_IGES
100
AcDbLine
 62
7
  6
CONTINUOUS
 10
31.18320824
 20
68.2576063858
 11
31.1395705777
 21
68.2139687235
  0
LINE
  5
3E0
100
AcDbEntity
  8
IMPORT_IGES
100
AcDbLine
 62
7
  6
CONTINUOUS
 10
37.8165695026
 20
-72.8609404109
 11
38.0000000008
 21
-73.0443709091
  0
LINE
  5
3E1
100
AcDbEntity
  8
IMPORT_IGES
100
AcDbLine
 62
7
  6
CONTINUOUS
 10
38.0000000008
 20
-72.2442490467
 11
37.8079942866
 21
-72.0522433325
  0
LINE
  5
3E2
100
AcDbEntity
  8
IMPORT_IGES
100
AcDbLine
 62
7
  6
CONTINUOUS
 10
48.7500000008
 20
71.0500699424
 11
48.8604294239
 21
71.1604993655
  0
LINE
  5
3E3
100
AcDbEntity
  8
IMPORT_IGES
100
AcDbLine
 62
7
  6
CONTINUOUS
 10
46.9456151299
 20
-72.9201657785
 11
47.0000000008
 21
-72.9745506494
  0
LINE
  5
3E4
100
AcDbEntity
  8
IMPORT_IGES
100
AcDbLine
 62
7
  6
CONTINUOUS
 10
38.8261828677
 20
-59.076182881
 11
38.8523651956
 21
-59.1023651949
  0
LINE
  5
3E5
100
AcDbEntity
  8
IMPORT_IGES
100
AcDbLine
 62
250
  6
CONTINUOUS
 10
59.3785477548
 20
62.3798018019
 11
59.3960028554
 21
62.3953191481
  0
LINE
  5
3E6
100
AcDbEntity
  8
IMPORT_IGES
100
AcDbLine
 62
250
  6
CONTINUOUS
 10
60.3523651714
 20
62.354727969
 11
60.3698203011
 21
62.3683010604
  0
LINE
  5
3E7
100
AcDbEntity
  8
IMPORT_IGES
100
AcDbLine
 62
250
  6
CONTINUOUS
 10
60.3698202551
 20
-62.369265561
 11
60.3523651902
 21
-62.3537499462
  0
LINE
  5
3E8
100
AcDbEntity
  8
IMPORT_IGES
100
AcDbLine
 62
7
  6
CONTINUOUS
 10
40.3523651956
 20
-57.6023651949
 11
40.3698202605
 21
-57.6198202598
  0
LINE
  5
3E9
100
AcDbEntity
  8
IMPORT_IGES
100
AcDbLine
 62
7
  6
CONTINUOUS
 10
48.3785464637
 20
-64.378546463
 11
48.3523651956
 21
-64.3523651949
  0
LINE
  5
3EA
100
AcDbEntity
  8
IMPORT_IGES
100
AcDbLine
 62
250
  6
CONTINUOUS
 10
38.8261828664
 20
-54.325883173
 11
38.8523651956
 21
-54.3520614129
  0
LINE
  5
3EB
100
AcDbEntity
  8
IMPORT_IGES
100
AcDbLine
 62
7
  6
CONTINUOUS
 10
41.3523651956
 20
-54.8523651949
 11
41.3349101306
 21
-54.83491013
  0
LINE
  5
3EC
100
AcDbEntity
  8
IMPORT_IGES
100
AcDbLine
 62
7
  6
CONTINUOUS
 10
49.8349101306
 20
-62.83491013
 11
49.8523651956
 21
-62.8523651949
  0
LINE
  5
3ED
100
AcDbEntity
  8
IMPORT_IGES
100
AcDbLine
 62
250
  6
CONTINUOUS
 10
40.8520605867
 20
-52.3523651943
 11
40.8258821611
 21
-52.3261826723
  0
LINE
  5
3EE
100
AcDbEntity
  8
IMPORT_IGES
100
AcDbLine
 62
7
  6
CONTINUOUS
 10
-5.4999999992
 20
-73.0000000001
 11
-5.4999999992
 21
-72.9318123045
  0
LINE
  5
3EF
100
AcDbEntity
  8
IMPORT_IGES
100
AcDbLine
 62
7
  6
CONTINUOUS
 10
-5.3254493499
 20
-72.9675686234
 11
-5.3254493499
 21
-73.1745506494
  0
LINE
  5
3F0
100
AcDbEntity
  8
IMPORT_IGES
100
AcDbLine
 62
250
  6
CONTINUOUS
 10
-5.3117489444
 20
-72.927131619
 11
-5.311748946
 21
-72.9538684235
  0
LINE
  5
3F1
100
AcDbEntity
  8
IMPORT_IGES
100
AcDbLine
 62
250
  6
CONTINUOUS
 10
-3.3120707459
 20
-72.9195671334
 11
-3.3120706827
 21
-72.9108395753
  0
LINE
  5
3F2
100
AcDbEntity
  8
IMPORT_IGES
100
AcDbLine
 62
250
  6
CONTINUOUS
 10
-2.8000166357
 20
-72.9541561451
 11
-2.8000250177
 21
-75.0950293979
  0
LINE
  5
3F3
100
AcDbEntity
  8
IMPORT_IGES
100
AcDbLine
 62
7
  6
CONTINUOUS
 10
-2.6499999992
 20
-73.1000000001
 11
-2.6499999992
 21
-72.9541561452
  0
LINE
  5
3F4
100
AcDbEntity
  8
IMPORT_IGES
100
AcDbLine
 62
7
  6
CONTINUOUS
 10
-3.3200650973
 20
-72.9675748635
 11
-3.3301451715
 21
-73.7094482254
  0
LINE
  5
3F5
100
AcDbEntity
  8
IMPORT_IGES
100
AcDbLine
 62
7
  6
CONTINUOUS
 10
-3.3301451715
 20
-73.7094595934
 11
-3.3567513626
 21
-75.1571034781
  0
LINE
  5
3F6
100
AcDbEntity
  8
IMPORT_IGES
100
AcDbLine
 62
250
  6
CONTINUOUS
 10
-57.394344847
 20
-64.3960028817
 11
-57.3807703493
 21
-64.3785477406
  0
LINE
  5
3F7
100
AcDbEntity
  8
IMPORT_IGES
100
AcDbLine
 62
250
  6
CONTINUOUS
 10
57.3692707582
 20
65.3698202551
 11
57.3537582688
 21
65.3523651903
  0
LINE
  5
3F8
100
AcDbEntity
  8
IMPORT_IGES
100
AcDbLine
 62
250
  6
CONTINUOUS
 10
-57.3692686851
 20
-65.3698202546
 11
-57.3537499453
 21
-65.3523651895
  0
LINE
  5
3F9
100
AcDbEntity
  8
IMPORT_IGES
100
AcDbLine
 62
250
  6
CONTINUOUS
 10
67.8609404126
 20
71.861092619
 11
67.9745506587
 21
71.9748802014
  0
LINE
  5
3FA
100
AcDbEntity
  8
IMPORT_IGES
100
AcDbLine
 62
250
  6
CONTINUOUS
 10
67.6746268025
 20
73.1745506492
 11
67.5000761532
 21
72.9999999999
  0
LINE
  5
3FB
100
AcDbEntity
  8
IMPORT_IGES
100
AcDbLine
 62
250
  6
CONTINUOUS
 10
68.0000000008
 20
72.5000761523
 11
68.1745506501
 21
72.6746268016
  0
LINE
  5
3FC
100
AcDbEntity
  8
IMPORT_IGES
100
AcDbLine
 62
250
  6
CONTINUOUS
 10
66.9749812399
 20
72.9745507114
 11
66.8611425805
 21
72.8609404011
  0
LINE
  5
3FD
100
AcDbEntity
  8
IMPORT_IGES
100
AcDbLine
 62
250
  6
CONTINUOUS
 10
67.974550654
 20
-71.9721654179
 11
67.8609404126
 21
-71.8610926321
  0
LINE
  5
3FE
100
AcDbEntity
  8
IMPORT_IGES
100
AcDbLine
 62
250
  6
CONTINUOUS
 10
66.8610909425
 20
-72.8609404111
 11
66.977007822
 21
-72.9745508282
  0
LINE
  5
3FF
100
AcDbEntity
  8
IMPORT_IGES
100
AcDbLine
 62
250
  6
CONTINUOUS
 10
59.3960028551
 20
-62.3962871596
 11
59.3523651944
 21
-62.3526698038
  0
LINE
  5
400
100
AcDbEntity
  8
IMPORT_IGES
100
AcDbLine
 62
7
  6
CONTINUOUS
 10
48.3698202605
 20
-53.8698202598
 11
48.3523651956
 21
-53.8523651949
  0
LINE
  5
401
100
AcDbEntity
  8
IMPORT_IGES
100
AcDbLine
 62
250
  6
CONTINUOUS
 10
67.5000761532
 20
-73.0000000001
 11
67.6746268025
 21
-73.1745506494
  0
LINE
  5
402
100
AcDbEntity
  8
IMPORT_IGES
100
AcDbLine
 62
7
  6
CONTINUOUS
 10
56.8698202605
 20
-61.8698202598
 11
56.8523651956
 21
-61.8523651949
  0
LINE
  5
403
100
AcDbEntity
  8
IMPORT_IGES
100
AcDbLine
 62
250
  6
CONTINUOUS
 10
68.1745506501
 20
-72.6746268018
 11
68.0000000008
 21
-72.5000761525
  0
LINE
  5
404
100
AcDbEntity
  8
IMPORT_IGES
100
AcDbLine
 62
7
  6
CONTINUOUS
 10
49.8523651956
 20
-52.3523651949
 11
49.8261810665
 21
-52.326182867
  0
LINE
  5
405
100
AcDbEntity
  8
IMPORT_IGES
100
AcDbLine
 62
7
  6
CONTINUOUS
 10
57.8523651956
 20
-59.1023651949
 11
57.8349101306
 21
-59.08491013
  0
LINE
  5
406
100
AcDbEntity
  8
IMPORT_IGES
100
AcDbLine
 62
250
  6
CONTINUOUS
 10
57.352668653
 20
-64.3523651949
 11
57.3962857151
 21
-64.3960028563
  0
LINE
  5
407
100
AcDbEntity
  8
IMPORT_IGES
100
AcDbLine
 62
250
  6
CONTINUOUS
 10
-57.379803533
 20
64.378547765
 11
-57.3953191475
 21
64.3960028808
  0
LINE
  5
408
100
AcDbEntity
  8
IMPORT_IGES
100
AcDbLine
 62
250
  6
CONTINUOUS
 10
-57.3547279683
 20
65.3523651711
 11
-57.3683041852
 21
65.3698203004
  0
LINE
  5
409
100
AcDbEntity
  8
IMPORT_IGES
100
AcDbLine
 62
7
  6
CONTINUOUS
 10
3.3567513642
 20
-75.1571034779
 11
3.3301451731
 21
-73.7094595934
  0
LINE
  5
40A
100
AcDbEntity
  8
IMPORT_IGES
100
AcDbLine
 62
7
  6
CONTINUOUS
 10
3.3301451731
 20
-73.7094545024
 11
3.3200650989
 21
-72.9675811035
  0
LINE
  5
40B
100
AcDbEntity
  8
IMPORT_IGES
100
AcDbLine
 62
7
  6
CONTINUOUS
 10
2.6500000008
 20
-73.1000000001
 11
2.6500000008
 21
-72.9541561452
  0
LINE
  5
40C
100
AcDbEntity
  8
IMPORT_IGES
100
AcDbLine
 62
250
  6
CONTINUOUS
 10
2.8000125078
 20
-72.954156089
 11
2.8000125078
 21
-75.0950293979
  0
LINE
  5
40D
100
AcDbEntity
  8
IMPORT_IGES
100
AcDbLine
 62
250
  6
CONTINUOUS
 10
3.3120714649
 20
-72.9195671156
 11
3.3120713928
 21
-72.9108396192
  0
LINE
  5
40E
100
AcDbEntity
  8
IMPORT_IGES
100
AcDbLine
 62
250
  6
CONTINUOUS
 10
5.3117490701
 20
-72.9271316229
 11
5.3117490739
 21
-72.9538684655
  0
LINE
  5
40F
100
AcDbEntity
  8
IMPORT_IGES
100
AcDbLine
 62
7
  6
CONTINUOUS
 10
5.3254493515
 20
-73.1745506494
 11
5.3254493515
 21
-72.9675686234
  0
LINE
  5
410
100
AcDbEntity
  8
IMPORT_IGES
100
AcDbLine
 62
7
  6
CONTINUOUS
 10
5.5000000008
 20
-73.0000000001
 11
5.5000000008
 21
-72.931812301
  0
LINE
  5
411
100
AcDbEntity
  8
IMPORT_IGES
100
AcDbLine
 62
250
  6
CONTINUOUS
 10
57.3943494582
 20
64.3960028808
 11
57.3807714964
 21
64.3785477404
  0
LINE
  5
412
100
AcDbEntity
  8
IMPORT_IGES
100
AcDbLine
 62
250
  6
CONTINUOUS
 10
-67.9999999992
 20
-72.5000761525
 11
-68.1745506485
 21
-72.6746268018
  0
LINE
  5
413
100
AcDbEntity
  8
IMPORT_IGES
100
AcDbLine
 62
250
  6
CONTINUOUS
 10
-67.6746268009
 20
-73.1745506494
 11
-67.5000761516
 21
-73.0000000001
  0
LINE
  5
414
100
AcDbEntity
  8
IMPORT_IGES
100
AcDbLine
 62
250
  6
CONTINUOUS
 10
-66.9770078221
 20
-72.9745507384
 11
-66.8610910333
 21
-72.8609404118
  0
LINE
  5
415
100
AcDbEntity
  8
IMPORT_IGES
100
AcDbLine
 62
250
  6
CONTINUOUS
 10
-67.8609404103
 20
-71.8610926065
 11
-67.9745506424
 21
-71.9721654125
  0
LINE
  5
416
100
AcDbEntity
  8
IMPORT_IGES
100
AcDbLine
 62
250
  6
CONTINUOUS
 10
-59.3785477641
 20
-62.3798006558
 11
-59.3960028799
 21
-62.3953145388
  0
LINE
  5
417
100
AcDbEntity
  8
IMPORT_IGES
100
AcDbLine
 62
250
  6
CONTINUOUS
 10
-60.3698202771
 20
62.3692738824
 11
-60.3523651897
 21
62.3537582679
  0
LINE
  5
418
100
AcDbEntity
  8
IMPORT_IGES
100
AcDbLine
 62
250
  6
CONTINUOUS
 10
-66.8611427936
 20
72.8609404011
 11
-66.9749812496
 21
72.9745507113
  0
LINE
  5
419
100
AcDbEntity
  8
IMPORT_IGES
100
AcDbLine
 62
7
  6
CONTINUOUS
 10
59.3523651956
 20
-57.6023651949
 11
59.3785464637
 21
-57.628546463
  0
LINE
  5
41A
100
AcDbEntity
  8
IMPORT_IGES
100
AcDbLine
 62
250
  6
CONTINUOUS
 10
-68.1745506485
 20
72.6746268016
 11
-67.9999999992
 21
72.5000761523
  0
LINE
  5
41B
100
AcDbEntity
  8
IMPORT_IGES
100
AcDbLine
 62
250
  6
CONTINUOUS
 10
-67.5000761516
 20
72.9999999999
 11
-67.6746268009
 21
73.1745506492
  0
LINE
  5
41C
100
AcDbEntity
  8
IMPORT_IGES
100
AcDbLine
 62
250
  6
CONTINUOUS
 10
-67.9745506498
 20
71.9748802014
 11
-67.8609404103
 21
71.8610926322
  0
LINE
  5
41D
100
AcDbEntity
  8
IMPORT_IGES
100
AcDbLine
 62
250
  6
CONTINUOUS
 10
57.3547196485
 20
-65.3523651706
 11
57.368295865
 21
-65.3698203003
  0
LINE
  5
41E
100
AcDbEntity
  8
IMPORT_IGES
100
AcDbLine
 62
250
  6
CONTINUOUS
 10
-60.3523651509
 20
-62.3547196478
 11
-60.3698202996
 21
-62.3682989896
  0
LINE
  5
41F
100
AcDbEntity
  8
IMPORT_IGES
100
AcDbLine
 62
250
  6
CONTINUOUS
 10
-59.3960028799
 20
62.3943494573
 11
-59.3785477398
 21
62.3807732274
  0
LINE
  5
420
100
AcDbEntity
  8
IMPORT_IGES
100
AcDbLine
 62
7
  6
CONTINUOUS
 10
-46.9999999992
 20
-72.9745506494
 11
-46.9456151283
 21
-72.9201657785
  0
LINE
  5
421
100
AcDbEntity
  8
IMPORT_IGES
100
AcDbLine
 62
7
  6
CONTINUOUS
 10
-48.7499999992
 20
71.0500699424
 11
-48.8604294223
 21
71.1604993655
  0
LWPOLYLINE
  5
422
100
AcDbEntity
  8
IMPORT_IGES
100
AcDbPolyline
 62
7
  6
CONTINUOUS
 90
7
 70
0
 10
24.5427734037
 20
29.6984848096
 10
24.5431397089
 20
29.652889015
 10
24.5449025825
 20
29.6074246478
 10
24.5480620246
 20
29.5620917083
 10
24.5528197974
 20
29.5170129645
 10
24.5589741387
 20
29.4720656482
 10
24.5730895264
 20
29.3810659732
  0
LINE
  5
423
100
AcDbEntity
  8
IMPORT_IGES
100
AcDbLine
 62
7
  6
CONTINUOUS
 10
27.2000000008
 20
-2.5000000002
 11
27.2000000008
 21
2.4999999998
  0
LINE
  5
424
100
AcDbEntity
  8
IMPORT_IGES
100
AcDbLine
 62
7
  6
CONTINUOUS
 10
28.2384011436
 20
-2.5000000002
 11
28.2384011436
 21
2.4999999998
  0
LWPOLYLINE
  5
425
100
AcDbEntity
  8
IMPORT_IGES
100
AcDbPolyline
 62
7
  6
CONTINUOUS
 90
6
 70
0
 10
24.5589741387
 20
-29.4720656485
 10
24.5528197974
 20
-29.5170129648
 10
24.5480620246
 20
-29.5620917087
 10
24.5449025825
 20
-29.6074246482
 10
24.5431397089
 20
-29.6528890153
 10
24.5427734037
 20
-29.69848481
  0
LINE
  5
426
100
AcDbEntity
  8
IMPORT_IGES
100
AcDbLine
 62
7
  6
CONTINUOUS
 10
-37.9999999992
 20
-72.2442490467
 11
-37.807994285
 21
-72.0522433325
  0
LINE
  5
427
100
AcDbEntity
  8
IMPORT_IGES
100
AcDbLine
 62
7
  6
CONTINUOUS
 10
-37.9999999992
 20
-73.0443709091
 11
-37.816569501
 21
-72.8609404109
  0
LINE
  5
428
100
AcDbEntity
  8
IMPORT_IGES
100
AcDbLine
 62
7
  6
CONTINUOUS
 10
-35.0698202589
 20
-73.0443709091
 11
-34.9456151283
 21
-72.9201657785
  0
LINE
  5
429
100
AcDbEntity
  8
IMPORT_IGES
100
AcDbLine
 62
7
  6
CONTINUOUS
 10
2.5000000007
 20
27.1999999999
 11
-2.4999999993
 21
27.1999999999
  0
LINE
  5
42A
100
AcDbEntity
  8
IMPORT_IGES
100
AcDbLine
 62
7
  6
CONTINUOUS
 10
2.5000000007
 20
28.2384011427
 11
-2.4999999993
 21
28.2384011427
  0
LINE
  5
42B
100
AcDbEntity
  8
IMPORT_IGES
100
AcDbLine
 62
7
  6
CONTINUOUS
 10
-31.1832082384
 20
68.2576063858
 11
-31.1395705761
 21
68.2139687235
  0
LINE
  5
42C
100
AcDbEntity
  8
IMPORT_IGES
100
AcDbLine
 62
7
  6
CONTINUOUS
 10
-34.0434635207
 20
73.1482045446
 11
-33.895258976
 21
72.9999999999
  0
LINE
  5
42D
100
AcDbEntity
  8
IMPORT_IGES
100
AcDbLine
 62
7
  6
CONTINUOUS
 10
-31.1832082384
 20
70.9832781816
 11
-31.2499999992
 21
71.0500699424
  0
LWPOLYLINE
  5
42E
100
AcDbEntity
  8
IMPORT_IGES
100
AcDbPolyline
 62
7
  6
CONTINUOUS
 90
7
 70
0
 10
31.4600836678
 20
26.30437226
 10
31.4597173626
 20
26.3499680547
 10
31.457954489
 20
26.3954324219
 10
31.4547950469
 20
26.4407653614
 10
31.4500372741
 20
26.4858441053
 10
31.4438829328
 20
26.5307914216
 10
31.4297675451
 20
26.6217910966
  0
LINE
  5
42F
100
AcDbEntity
  8
IMPORT_IGES
100
AcDbLine
 62
7
  6
CONTINUOUS
 10
31.1395705777
 20
68.2139687235
 11
31.1395705777
 21
71.1604993655
  0
LINE
  5
430
100
AcDbEntity
  8
IMPORT_IGES
100
AcDbLine
 62
7
  6
CONTINUOUS
 10
31.18320824
 20
70.9832781816
 11
31.18320824
 21
68.2576063858
  0
LINE
  5
431
100
AcDbEntity
  8
IMPORT_IGES
100
AcDbLine
 62
7
  6
CONTINUOUS
 10
31.7615988579
 20
2.4999999998
 11
31.7615988579
 21
-2.5000000002
  0
LINE
  5
432
100
AcDbEntity
  8
IMPORT_IGES
100
AcDbLine
 62
7
  6
CONTINUOUS
 10
32.5500000008
 20
69.3245504747
 11
32.5500000008
 21
71.0500699424
  0
LINE
  5
433
100
AcDbEntity
  8
IMPORT_IGES
100
AcDbLine
 62
7
  6
CONTINUOUS
 10
32.8000000008
 20
2.4999999998
 11
32.8000000008
 21
-2.5000000002
  0
LINE
  5
434
100
AcDbEntity
  8
IMPORT_IGES
100
AcDbLine
 62
7
  6
CONTINUOUS
 10
33.8952589776
 20
72.9745507114
 11
33.8952589776
 21
72.9999999999
  0
LINE
  5
435
100
AcDbEntity
  8
IMPORT_IGES
100
AcDbLine
 62
7
  6
CONTINUOUS
 10
34.0434635223
 20
73.1482045446
 11
34.0434635223
 21
72.9745507114
  0
LINE
  5
436
100
AcDbEntity
  8
IMPORT_IGES
100
AcDbLine
 62
7
  6
CONTINUOUS
 10
34.7000000008
 20
-73.1012393767
 11
34.7000000008
 21
-73.0453831689
  0
LINE
  5
437
100
AcDbEntity
  8
IMPORT_IGES
100
AcDbLine
 62
7
  6
CONTINUOUS
 10
35.0000000008
 20
72.9745507114
 11
35.0000000008
 21
73.1482045446
  0
LINE
  5
438
100
AcDbEntity
  8
IMPORT_IGES
100
AcDbLine
 62
7
  6
CONTINUOUS
 10
35.0698202605
 20
-73.0443709091
 11
35.0698202605
 21
-73.1012393767
  0
LWPOLYLINE
  5
439
100
AcDbEntity
  8
IMPORT_IGES
100
AcDbPolyline
 62
7
  6
CONTINUOUS
 90
6
 70
0
 10
31.4438829328
 20
-26.5307914218
 10
31.4500372741
 20
-26.4858441055
 10
31.4547950469
 20
-26.4407653616
 10
31.457954489
 20
-26.3954324221
 10
31.4597173626
 20
-26.349968055
 10
31.4600836678
 20
-26.3043722603
  0
LWPOLYLINE
  5
43A
100
AcDbEntity
  8
IMPORT_IGES
100
AcDbPolyline
 62
7
  6
CONTINUOUS
 90
5
 70
0
 10
24.603541023
 20
-29.2451723532
 10
24.5908990356
 20
-29.2895393115
 10
24.5810505728
 20
-29.3350136148
 10
24.5730895264
 20
-29.3810659735
 10
24.5589741387
 20
-29.4720656485
  0
LINE
  5
43B
100
AcDbEntity
  8
IMPORT_IGES
100
AcDbLine
 62
7
  6
CONTINUOUS
 10
24.632865056
 20
-29.1573996666
 11
24.603541023
 21
-29.2451723532
  0
LWPOLYLINE
  5
43C
100
AcDbEntity
  8
IMPORT_IGES
100
AcDbPolyline
 62
7
  6
CONTINUOUS
 90
4
 70
0
 10
24.6966593823
 20
-28.981360351
 10
24.6772181052
 20
-29.0235060932
 10
24.6609926023
 20
-29.067495342
 10
24.632865056
 20
-29.1573996666
  0
LINE
  5
43D
100
AcDbEntity
  8
IMPORT_IGES
100
AcDbLine
 62
7
  6
CONTINUOUS
 10
-2.4999999993
 20
31.761598857
 11
2.5000000007
 21
31.761598857
  0
LINE
  5
43E
100
AcDbEntity
  8
IMPORT_IGES
100
AcDbLine
 62
7
  6
CONTINUOUS
 10
-2.4999999993
 20
32.7999999999
 11
2.5000000007
 21
32.7999999999
  0
LINE
  5
43F
100
AcDbEntity
  8
IMPORT_IGES
100
AcDbLine
 62
7
  6
CONTINUOUS
 10
24.7398332072
 20
28.8991557048
 11
24.7818756629
 21
28.8152175531
  0
LWPOLYLINE
  5
440
100
AcDbEntity
  8
IMPORT_IGES
100
AcDbPolyline
 62
7
  6
CONTINUOUS
 90
4
 70
0
 10
24.6609926023
 20
29.0674953416
 10
24.6772181052
 20
29.0235060928
 10
24.6966593823
 20
28.9813603506
 10
24.7398332072
 20
28.8991557048
  0
LINE
  5
441
100
AcDbEntity
  8
IMPORT_IGES
100
AcDbLine
 62
7
  6
CONTINUOUS
 10
24.632865056
 20
29.1573996662
 11
24.6609926023
 21
29.0674953416
  0
LWPOLYLINE
  5
442
100
AcDbEntity
  8
IMPORT_IGES
100
AcDbPolyline
 62
7
  6
CONTINUOUS
 90
5
 70
0
 10
24.5730895264
 20
29.3810659732
 10
24.5810505728
 20
29.3350136144
 10
24.5908990356
 20
29.2895393111
 10
24.6035410231
 20
29.2451723528
 10
24.632865056
 20
29.1573996662
  0
LINE
  5
443
100
AcDbEntity
  8
IMPORT_IGES
100
AcDbLine
 62
7
  6
CONTINUOUS
 10
37.8079942866
 20
-72.3610165633
 11
37.8079942866
 21
-72.0522433325
  0
LINE
  5
444
100
AcDbEntity
  8
IMPORT_IGES
100
AcDbLine
 62
7
  6
CONTINUOUS
 10
38.0000000008
 20
-73.0443709091
 11
38.0000000008
 21
-72.2442490467
  0
LINE
  5
445
100
AcDbEntity
  8
IMPORT_IGES
100
AcDbLine
 62
7
  6
CONTINUOUS
 10
38.8261826721
 20
-64.3785476815
 11
38.8261828664
 21
-54.325883173
  0
LINE
  5
446
100
AcDbEntity
  8
IMPORT_IGES
100
AcDbLine
 62
7
  6
CONTINUOUS
 10
38.8523651956
 20
-54.3520614129
 11
38.8523651956
 21
-57.6023651949
  0
LINE
  5
447
100
AcDbEntity
  8
IMPORT_IGES
100
AcDbLine
 62
7
  6
CONTINUOUS
 10
38.8523651956
 20
-59.1023651949
 11
38.8523651956
 21
-64.3523651949
  0
LINE
  5
448
100
AcDbEntity
  8
IMPORT_IGES
100
AcDbLine
 62
7
  6
CONTINUOUS
 10
39.0000000008
 20
-2.5000000002
 11
39.0000000008
 21
2.4999999998
  0
LINE
  5
449
100
AcDbEntity
  8
IMPORT_IGES
100
AcDbLine
 62
7
  6
CONTINUOUS
 10
39.3349101307
 20
-59.08491013
 11
39.3349101307
 21
-57.6198202598
  0
LINE
  5
44A
100
AcDbEntity
  8
IMPORT_IGES
100
AcDbLine
 62
7
  6
CONTINUOUS
 10
39.5000000008
 20
72.9745507114
 11
39.5000000008
 21
73.1572684429
  0
LINE
  5
44B
100
AcDbEntity
  8
IMPORT_IGES
100
AcDbLine
 62
7
  6
CONTINUOUS
 10
40.0384011436
 20
-2.5000000002
 11
40.0384011436
 21
2.4999999998
  0
LINE
  5
44C
100
AcDbEntity
  8
IMPORT_IGES
100
AcDbLine
 62
7
  6
CONTINUOUS
 10
40.3523651956
 20
-54.3523651949
 11
40.3523651956
 21
-57.6023651949
  0
LINE
  5
44D
100
AcDbEntity
  8
IMPORT_IGES
100
AcDbLine
 62
7
  6
CONTINUOUS
 10
40.3523651956
 20
-59.1023651949
 11
40.3523651956
 21
-62.3523651949
  0
LINE
  5
44E
100
AcDbEntity
  8
IMPORT_IGES
100
AcDbLine
 62
7
  6
CONTINUOUS
 10
40.3698202605
 20
-57.6198202598
 11
40.3698202605
 21
-59.08491013
  0
LINE
  5
44F
100
AcDbEntity
  8
IMPORT_IGES
100
AcDbLine
 62
7
  6
CONTINUOUS
 10
40.3960028579
 20
-62.3523651949
 11
40.3960028579
 21
-54.3523651949
  0
LINE
  5
450
100
AcDbEntity
  8
IMPORT_IGES
100
AcDbLine
 62
7
  6
CONTINUOUS
 10
40.5000000008
 20
72.9745507114
 11
40.5000000008
 21
73.1572684429
  0
LINE
  5
451
100
AcDbEntity
  8
IMPORT_IGES
100
AcDbLine
 62
250
  6
CONTINUOUS
 10
40.8523651956
 20
-53.8960028572
 11
40.8523651956
 21
-53.8523651949
  0
LINE
  5
452
100
AcDbEntity
  8
IMPORT_IGES
100
AcDbLine
 62
250
  6
CONTINUOUS
 10
40.8523651956
 20
-62.8087275326
 11
40.8523651956
 21
-62.8523651949
  0
LINE
  5
453
100
AcDbEntity
  8
IMPORT_IGES
100
AcDbLine
 62
7
  6
CONTINUOUS
 10
41.3349101306
 20
-61.8698202598
 11
41.3349101306
 21
-54.83491013
  0
LINE
  5
454
100
AcDbEntity
  8
IMPORT_IGES
100
AcDbLine
 62
7
  6
CONTINUOUS
 10
41.3523651956
 20
-54.8523651949
 11
41.3523651956
 21
-61.8523651949
  0
LINE
  5
455
100
AcDbEntity
  8
IMPORT_IGES
100
AcDbLine
 62
7
  6
CONTINUOUS
 10
42.0000000008
 20
-72.2442490467
 11
42.0000000008
 21
-73.0443709091
  0
LWPOLYLINE
  5
456
100
AcDbEntity
  8
IMPORT_IGES
100
AcDbPolyline
 62
7
  6
CONTINUOUS
 90
31
 70
0
 10
38.826186306
 20
-54.3258831728
 10
38.8290009602
 20
-54.2206050417
 10
38.8372229398
 20
-54.1162108357
 10
38.8508522447
 20
-54.0127005549
 10
38.8699587027
 20
-53.9097986512
 10
38.894472486
 20
-53.8077806727
 10
38.9241841117
 20
-53.7074732633
 10
38.9591346222
 20
-53.6088906565
 10
38.9992829751
 20
-53.5120186189
 10
39.0442965599
 20
-53.4176410938
 10
39.0942139386
 20
-53.3257783185
 10
39.1489965493
 20
-53.2364100557
 10
39.2081960961
 20
-53.1502595373
 10
39.2718476486
 20
-53.0673525698
 10
39.3399161372
 20
-52.9876633466
 10
39.4118480572
 20
-52.9118376806
 10
39.487674192
 20
-52.83990636
 10
39.5673637582
 20
-52.7718385964
 10
39.6502709008
 20
-52.7081878372
 10
39.7364214201
 20
-52.6489891556
 10
39.8257895159
 20
-52.5942074783
 10
39.9176519324
 20
-52.5442910331
 10
40.0120288997
 20
-52.4992783836
 10
40.1089001878
 20
-52.4591309663
 10
40.20748185
 20
-52.4241813171
 10
40.3077881127
 20
-52.3944707649
 10
40.4098047495
 20
-52.3699579809
 10
40.5127051353
 20
-52.3508515154
 10
40.6162137283
 20
-52.337220885
 10
40.7206060702
 20
-52.328996573
 10
40.8258821611
 20
-52.3261785794
  0
LWPOLYLINE
  5
457
100
AcDbEntity
  8
IMPORT_IGES
100
AcDbPolyline
 62
7
  6
CONTINUOUS
 90
5
 70
0
 10
31.3993160484
 20
-26.7576847172
 10
31.4119580359
 20
-26.7133177589
 10
31.4218064986
 20
-26.6678434556
 10
31.4297675451
 20
-26.6217910969
 10
31.4438829328
 20
-26.5307914218
  0
LINE
  5
458
100
AcDbEntity
  8
IMPORT_IGES
100
AcDbLine
 62
7
  6
CONTINUOUS
 10
31.3699920154
 20
-26.8454574039
 11
31.3993160484
 21
-26.7576847172
  0
LWPOLYLINE
  5
459
100
AcDbEntity
  8
IMPORT_IGES
100
AcDbPolyline
 62
7
  6
CONTINUOUS
 90
4
 70
0
 10
31.306197689
 20
-27.0214967195
 10
31.3256389662
 20
-26.9793509774
 10
31.3418644691
 20
-26.9353617285
 10
31.3699920154
 20
-26.8454574039
  0
LINE
  5
45A
100
AcDbEntity
  8
IMPORT_IGES
100
AcDbLine
 62
7
  6
CONTINUOUS
 10
24.7398332072
 20
-28.8991557052
 11
24.6966593823
 21
-28.981360351
  0
LINE
  5
45B
100
AcDbEntity
  8
IMPORT_IGES
100
AcDbLine
 62
7
  6
CONTINUOUS
 10
31.2630238641
 20
-27.1037013653
 11
31.306197689
 21
-27.0214967195
  0
LWPOLYLINE
  5
45C
100
AcDbEntity
  8
IMPORT_IGES
100
AcDbPolyline
 62
7
  6
CONTINUOUS
 90
5
 70
0
 10
24.8559525831
 20
-28.6983173199
 10
24.8294829961
 20
-28.7357744314
 10
24.8045456386
 20
-28.7745004932
 10
24.7818756629
 20
-28.8152175535
 10
24.7398332072
 20
-28.8991557052
  0
LWPOLYLINE
  5
45D
100
AcDbEntity
  8
IMPORT_IGES
100
AcDbPolyline
 62
7
  6
CONTINUOUS
 90
5
 70
0
 10
31.1469044881
 20
-27.3045397508
 10
31.1733740751
 20
-27.2670826392
 10
31.1983114326
 20
-27.2283565775
 10
31.2209814084
 20
-27.1876395171
 10
31.2630238641
 20
-27.1037013653
  0
LWPOLYLINE
  5
45E
100
AcDbEntity
  8
IMPORT_IGES
100
AcDbPolyline
 62
7
  6
CONTINUOUS
 90
7
 70
0
 10
25.0587337631
 20
-28.4528463126
 10
25.0273935893
 20
-28.4845971912
 10
24.9968771099
 20
-28.517542353
 10
24.9671843249
 20
-28.5516817982
 10
24.9383811437
 20
-28.5872784127
 10
24.9104016569
 20
-28.6240693105
 10
24.8559525831
 20
-28.6983173199
  0
LWPOLYLINE
  5
45F
100
AcDbEntity
  8
IMPORT_IGES
100
AcDbPolyline
 62
7
  6
CONTINUOUS
 90
7
 70
0
 10
30.9441233082
 20
-27.5500107579
 10
30.9754634819
 20
-27.5182598794
 10
31.0059799612
 20
-27.4853147176
 10
31.0356727462
 20
-27.4511752725
 10
31.0644759274
 20
-27.415578658
 10
31.0924554142
 20
-27.3787877601
 10
31.1469044881
 20
-27.3045397508
  0
LINE
  5
460
100
AcDbEntity
  8
IMPORT_IGES
100
AcDbLine
 62
7
  6
CONTINUOUS
 10
24.3244732725
 20
-27.7185858237
 11
27.7185858232
 21
-24.324473273
  0
LINE
  5
461
100
AcDbEntity
  8
IMPORT_IGES
100
AcDbLine
 62
7
  6
CONTINUOUS
 10
28.452846313
 20
-25.0587337626
 11
25.0587337631
 21
-28.4528463126
  0
LINE
  5
462
100
AcDbEntity
  8
IMPORT_IGES
100
AcDbLine
 62
7
  6
CONTINUOUS
 10
27.5500107589
 20
-30.9441233072
 11
30.9441233082
 21
-27.5500107579
  0
LINE
  5
463
100
AcDbEntity
  8
IMPORT_IGES
100
AcDbLine
 62
7
  6
CONTINUOUS
 10
2.5000000007
 20
38.9999999999
 11
-2.4999999993
 21
38.9999999999
  0
LINE
  5
464
100
AcDbEntity
  8
IMPORT_IGES
100
AcDbLine
 62
7
  6
CONTINUOUS
 10
47.5000000008
 20
39.682544935
 11
42.5000000008
 21
39.682544935
  0
LINE
  5
465
100
AcDbEntity
  8
IMPORT_IGES
100
AcDbLine
 62
7
  6
CONTINUOUS
 10
-42.4999999992
 20
39.682544935
 11
-47.4999999992
 21
39.682544935
  0
LINE
  5
466
100
AcDbEntity
  8
IMPORT_IGES
100
AcDbLine
 62
7
  6
CONTINUOUS
 10
47.5000000008
 20
39.6999999999
 11
42.5000000008
 21
39.6999999999
  0
LINE
  5
467
100
AcDbEntity
  8
IMPORT_IGES
100
AcDbLine
 62
7
  6
CONTINUOUS
 10
-42.4999999992
 20
39.6999999999
 11
-47.4999999992
 21
39.6999999999
  0
LINE
  5
468
100
AcDbEntity
  8
IMPORT_IGES
100
AcDbLine
 62
7
  6
CONTINUOUS
 10
2.5000000007
 20
40.0384011427
 11
-2.4999999993
 21
40.0384011427
  0
LINE
  5
469
100
AcDbEntity
  8
IMPORT_IGES
100
AcDbLine
 62
7
  6
CONTINUOUS
 10
47.5000000008
 20
40.7523651947
 11
42.5000000008
 21
40.7523651947
  0
LINE
  5
46A
100
AcDbEntity
  8
IMPORT_IGES
100
AcDbLine
 62
7
  6
CONTINUOUS
 10
-42.4999999992
 20
40.7523651947
 11
-47.4999999992
 21
40.7523651947
  0
LINE
  5
46B
100
AcDbEntity
  8
IMPORT_IGES
100
AcDbLine
 62
7
  6
CONTINUOUS
 10
27.7185858233
 20
24.3244732727
 11
24.3244732723
 21
27.7185858236
  0
LINE
  5
46C
100
AcDbEntity
  8
IMPORT_IGES
100
AcDbLine
 62
7
  6
CONTINUOUS
 10
25.0587337629
 20
28.4528463123
 11
28.452846313
 21
25.0587337624
  0
LINE
  5
46D
100
AcDbEntity
  8
IMPORT_IGES
100
AcDbLine
 62
7
  6
CONTINUOUS
 10
30.9441233082
 20
27.5500107576
 11
27.5500107587
 21
30.9441233072
  0
LWPOLYLINE
  5
46E
100
AcDbEntity
  8
IMPORT_IGES
100
AcDbPolyline
 62
7
  6
CONTINUOUS
 90
6
 70
0
 10
24.910401657
 20
28.6240693101
 10
24.9383811438
 20
28.5872784123
 10
24.9671843249
 20
28.5516817978
 10
24.9968771099
 20
28.5175423526
 10
25.0273935893
 20
28.4845971908
 10
25.0587337629
 20
28.4528463123
  0
LWPOLYLINE
  5
46F
100
AcDbEntity
  8
IMPORT_IGES
100
AcDbPolyline
 62
7
  6
CONTINUOUS
 90
6
 70
0
 10
31.0924554142
 20
27.3787877599
 10
31.0644759274
 20
27.4155786577
 10
31.0356727463
 20
27.4511752722
 10
31.0059799613
 20
27.4853147173
 10
30.9754634819
 20
27.5182598791
 10
30.9441233082
 20
27.5500107576
  0
LWPOLYLINE
  5
470
100
AcDbEntity
  8
IMPORT_IGES
100
AcDbPolyline
 62
7
  6
CONTINUOUS
 90
5
 70
0
 10
24.7818756629
 20
28.8152175531
 10
24.8045456386
 20
28.7745004927
 10
24.8294829961
 20
28.735774431
 10
24.8559525832
 20
28.6983173194
 10
24.910401657
 20
28.6240693101
  0
LWPOLYLINE
  5
471
100
AcDbEntity
  8
IMPORT_IGES
100
AcDbPolyline
 62
7
  6
CONTINUOUS
 90
5
 70
0
 10
31.2209814084
 20
27.1876395169
 10
31.1983114327
 20
27.2283565772
 10
31.1733740752
 20
27.267082639
 10
31.1469044881
 20
27.3045397505
 10
31.0924554142
 20
27.3787877599
  0
LINE
  5
472
100
AcDbEntity
  8
IMPORT_IGES
100
AcDbLine
 62
7
  6
CONTINUOUS
 10
31.2630238642
 20
27.1037013651
 11
31.2209814084
 21
27.1876395169
  0
LWPOLYLINE
  5
473
100
AcDbEntity
  8
IMPORT_IGES
100
AcDbPolyline
 62
7
  6
CONTINUOUS
 90
4
 70
0
 10
31.3418644691
 20
26.9353617283
 10
31.3256389662
 20
26.9793509771
 10
31.3061976891
 20
27.0214967193
 10
31.2630238642
 20
27.1037013651
  0
LINE
  5
474
100
AcDbEntity
  8
IMPORT_IGES
100
AcDbLine
 62
7
  6
CONTINUOUS
 10
31.3699920154
 20
26.8454574036
 11
31.3418644691
 21
26.9353617283
  0
LWPOLYLINE
  5
475
100
AcDbEntity
  8
IMPORT_IGES
100
AcDbPolyline
 62
7
  6
CONTINUOUS
 90
5
 70
0
 10
31.4297675451
 20
26.6217910966
 10
31.4218064986
 20
26.6678434554
 10
31.4119580359
 20
26.7133177587
 10
31.3993160484
 20
26.757684717
 10
31.3699920154
 20
26.8454574036
  0
LINE
  5
476
100
AcDbEntity
  8
IMPORT_IGES
100
AcDbLine
 62
7
  6
CONTINUOUS
 10
48.3698202605
 20
-63.8698202598
 11
48.3785464637
 21
-64.378546463
  0
LINE
  5
477
100
AcDbEntity
  8
IMPORT_IGES
100
AcDbLine
 62
7
  6
CONTINUOUS
 10
48.3523651956
 20
-52.8523651949
 11
48.343791196
 21
-52.3525122651
  0
LINE
  5
478
100
AcDbEntity
  8
IMPORT_IGES
100
AcDbLine
 62
7
  6
CONTINUOUS
 10
49.8523651956
 20
-63.8523651949
 11
49.8609391951
 21
-64.3522181247
  0
LINE
  5
479
100
AcDbEntity
  8
IMPORT_IGES
100
AcDbLine
 62
7
  6
CONTINUOUS
 10
42.192005715
 20
-72.0522433325
 11
42.192005715
 21
-72.3610165633
  0
LINE
  5
47A
100
AcDbEntity
  8
IMPORT_IGES
100
AcDbLine
 62
250
  6
CONTINUOUS
 10
42.5000000008
 20
-45.317455065
 11
42.5000000008
 21
-45.3000000001
  0
LINE
  5
47B
100
AcDbEntity
  8
IMPORT_IGES
100
AcDbLine
 62
250
  6
CONTINUOUS
 10
42.5000000008
 20
-39.7000000001
 11
42.5000000008
 21
-39.6825449352
  0
LINE
  5
47C
100
AcDbEntity
  8
IMPORT_IGES
100
AcDbLine
 62
250
  6
CONTINUOUS
 10
42.5000000008
 20
39.682544935
 11
42.5000000008
 21
39.6999999999
  0
LINE
  5
47D
100
AcDbEntity
  8
IMPORT_IGES
100
AcDbLine
 62
250
  6
CONTINUOUS
 10
42.5000000008
 20
45.2999999999
 11
42.5000000008
 21
45.3174550648
  0
LINE
  5
47E
100
AcDbEntity
  8
IMPORT_IGES
100
AcDbLine
 62
7
  6
CONTINUOUS
 10
43.5615988579
 20
2.4999999998
 11
43.5615988579
 21
-2.5000000002
  0
LINE
  5
47F
100
AcDbEntity
  8
IMPORT_IGES
100
AcDbLine
 62
7
  6
CONTINUOUS
 10
44.6000000008
 20
2.4999999998
 11
44.6000000008
 21
-2.5000000002
  0
LINE
  5
480
100
AcDbEntity
  8
IMPORT_IGES
100
AcDbLine
 62
7
  6
CONTINUOUS
 10
44.9301797411
 20
-73.1012393767
 11
44.9301797411
 21
-73.0443709091
  0
LINE
  5
481
100
AcDbEntity
  8
IMPORT_IGES
100
AcDbLine
 62
7
  6
CONTINUOUS
 10
45.0000000008
 20
73.1482045446
 11
45.0000000008
 21
72.9745507114
  0
LINE
  5
482
100
AcDbEntity
  8
IMPORT_IGES
100
AcDbLine
 62
7
  6
CONTINUOUS
 10
45.3000000008
 20
-73.0453831689
 11
45.3000000008
 21
-73.1012393767
  0
LINE
  5
483
100
AcDbEntity
  8
IMPORT_IGES
100
AcDbLine
 62
7
  6
CONTINUOUS
 10
45.9565364793
 20
72.9745507114
 11
45.9565364793
 21
73.1482045446
  0
LINE
  5
484
100
AcDbEntity
  8
IMPORT_IGES
100
AcDbLine
 62
7
  6
CONTINUOUS
 10
46.104741024
 20
72.9999999999
 11
46.104741024
 21
72.9745507114
  0
LINE
  5
485
100
AcDbEntity
  8
IMPORT_IGES
100
AcDbLine
 62
7
  6
CONTINUOUS
 10
47.4500000008
 20
71.0500699424
 11
47.4500000008
 21
69.3245504747
  0
LINE
  5
486
100
AcDbEntity
  8
IMPORT_IGES
100
AcDbLine
 62
250
  6
CONTINUOUS
 10
47.5000000008
 20
39.6999999999
 11
47.5000000008
 21
39.682544935
  0
LINE
  5
487
100
AcDbEntity
  8
IMPORT_IGES
100
AcDbLine
 62
250
  6
CONTINUOUS
 10
47.5000000008
 20
-39.7000000001
 11
47.5000000008
 21
-39.6825449352
  0
LINE
  5
488
100
AcDbEntity
  8
IMPORT_IGES
100
AcDbLine
 62
7
  6
CONTINUOUS
 10
47.5000000008
 20
-40.7523651949
 11
47.5000000008
 21
-44.2476348053
  0
LINE
  5
489
100
AcDbEntity
  8
IMPORT_IGES
100
AcDbLine
 62
250
  6
CONTINUOUS
 10
47.5000000008
 20
-45.3000000001
 11
47.5000000008
 21
-45.317455065
  0
LINE
  5
48A
100
AcDbEntity
  8
IMPORT_IGES
100
AcDbLine
 62
7
  6
CONTINUOUS
 10
47.5000000008
 20
-52.3523651948
 11
47.5000000008
 21
-53.8523651949
  0
LINE
  5
48B
100
AcDbEntity
  8
IMPORT_IGES
100
AcDbLine
 62
7
  6
CONTINUOUS
 10
47.5000000008
 20
-62.8523651949
 11
47.5000000008
 21
-64.3523651949
  0
LINE
  5
48C
100
AcDbEntity
  8
IMPORT_IGES
100
AcDbLine
 62
250
  6
CONTINUOUS
 10
47.5000000008
 20
45.2999999999
 11
47.5000000008
 21
45.3174550648
  0
LINE
  5
48D
100
AcDbEntity
  8
IMPORT_IGES
100
AcDbLine
 62
7
  6
CONTINUOUS
 10
48.3523651956
 20
-53.8523651949
 11
48.3523651956
 21
-52.8523651949
  0
LINE
  5
48E
100
AcDbEntity
  8
IMPORT_IGES
100
AcDbLine
 62
7
  6
CONTINUOUS
 10
48.3523651956
 20
-62.8523651949
 11
48.3523651956
 21
-63.8523651949
  0
LINE
  5
48F
100
AcDbEntity
  8
IMPORT_IGES
100
AcDbLine
 62
7
  6
CONTINUOUS
 10
48.3698202605
 20
-63.8698202598
 11
48.3698202605
 21
-62.83491013
  0
LINE
  5
490
100
AcDbEntity
  8
IMPORT_IGES
100
AcDbLine
 62
7
  6
CONTINUOUS
 10
48.3698202605
 20
-52.83491013
 11
48.3698202605
 21
-53.8698202598
  0
LINE
  5
491
100
AcDbEntity
  8
IMPORT_IGES
100
AcDbLine
 62
7
  6
CONTINUOUS
 10
48.8167917616
 20
68.2576063858
 11
48.8167917616
 21
70.9832781816
  0
LINE
  5
492
100
AcDbEntity
  8
IMPORT_IGES
100
AcDbLine
 62
7
  6
CONTINUOUS
 10
48.8604294239
 20
71.1604993655
 11
48.8604294239
 21
68.2139687235
  0
LINE
  5
493
100
AcDbEntity
  8
IMPORT_IGES
100
AcDbLine
 62
7
  6
CONTINUOUS
 10
31.6783837979
 20
-28.2842712476
 11
28.2842712495
 21
-31.678383796
  0
LINE
  5
494
100
AcDbEntity
  8
IMPORT_IGES
100
AcDbLine
 62
7
  6
CONTINUOUS
 10
-5.8847965707
 20
-72.9745506494
 11
-5.8639619947
 21
-72.9537162507
  0
LINE
  5
495
100
AcDbEntity
  8
IMPORT_IGES
100
AcDbLine
 62
7
  6
CONTINUOUS
 10
-5.311748946
 20
-72.9538684235
 11
-5.3254493499
 21
-72.9675686234
  0
LINE
  5
496
100
AcDbEntity
  8
IMPORT_IGES
100
AcDbLine
 62
7
  6
CONTINUOUS
 10
-2.4999999993
 20
43.561598857
 11
2.5000000007
 21
43.561598857
  0
LINE
  5
497
100
AcDbEntity
  8
IMPORT_IGES
100
AcDbLine
 62
7
  6
CONTINUOUS
 10
-47.4999999992
 20
44.2476348051
 11
-42.4999999992
 21
44.2476348051
  0
LINE
  5
498
100
AcDbEntity
  8
IMPORT_IGES
100
AcDbLine
 62
7
  6
CONTINUOUS
 10
42.5000000008
 20
44.2476348051
 11
47.5000000008
 21
44.2476348051
  0
LINE
  5
499
100
AcDbEntity
  8
IMPORT_IGES
100
AcDbLine
 62
7
  6
CONTINUOUS
 10
-2.4999999993
 20
44.5999999999
 11
2.5000000007
 21
44.5999999999
  0
LINE
  5
49A
100
AcDbEntity
  8
IMPORT_IGES
100
AcDbLine
 62
7
  6
CONTINUOUS
 10
-47.4999999992
 20
45.2999999999
 11
-42.4999999992
 21
45.2999999999
  0
LINE
  5
49B
100
AcDbEntity
  8
IMPORT_IGES
100
AcDbLine
 62
7
  6
CONTINUOUS
 10
42.5000000008
 20
45.2999999999
 11
47.5000000008
 21
45.2999999999
  0
LINE
  5
49C
100
AcDbEntity
  8
IMPORT_IGES
100
AcDbLine
 62
7
  6
CONTINUOUS
 10
-47.4999999992
 20
45.3174550648
 11
-42.4999999992
 21
45.3174550648
  0
LINE
  5
49D
100
AcDbEntity
  8
IMPORT_IGES
100
AcDbLine
 62
7
  6
CONTINUOUS
 10
42.5000000008
 20
45.3174550648
 11
47.5000000008
 21
45.3174550648
  0
LINE
  5
49E
100
AcDbEntity
  8
IMPORT_IGES
100
AcDbLine
 62
7
  6
CONTINUOUS
 10
28.2842712493
 20
31.6783837958
 11
31.6783837979
 21
28.2842712474
  0
LINE
  5
49F
100
AcDbEntity
  8
IMPORT_IGES
100
AcDbLine
 62
7
  6
CONTINUOUS
 10
49.8349101306
 20
-52.83491013
 11
49.8261830653
 21
-52.3261744034
  0
LINE
  5
4A0
100
AcDbEntity
  8
IMPORT_IGES
100
AcDbLine
 62
7
  6
CONTINUOUS
 10
49.8349101306
 20
-63.8698202598
 11
49.8349101306
 21
-62.83491013
  0
LINE
  5
4A1
100
AcDbEntity
  8
IMPORT_IGES
100
AcDbLine
 62
7
  6
CONTINUOUS
 10
49.8349101306
 20
-52.83491013
 11
49.8349101306
 21
-53.8698202598
  0
LINE
  5
4A2
100
AcDbEntity
  8
IMPORT_IGES
100
AcDbLine
 62
7
  6
CONTINUOUS
 10
49.8523651956
 20
-52.8523651949
 11
49.8523651956
 21
-53.8523651949
  0
LINE
  5
4A3
100
AcDbEntity
  8
IMPORT_IGES
100
AcDbLine
 62
7
  6
CONTINUOUS
 10
49.8523651956
 20
-62.8523651949
 11
49.8523651956
 21
-63.8523651949
  0
LINE
  5
4A4
100
AcDbEntity
  8
IMPORT_IGES
100
AcDbLine
 62
7
  6
CONTINUOUS
 10
48.3785473254
 20
-52.3261744034
 11
48.3698202605
 21
-52.83491013
  0
LINE
  5
4A5
100
AcDbEntity
  8
IMPORT_IGES
100
AcDbLine
 62
7
  6
CONTINUOUS
 10
48.343791196
 20
-64.3522181247
 11
48.3523651956
 21
-63.8523651949
  0
LINE
  5
4A6
100
AcDbEntity
  8
IMPORT_IGES
100
AcDbLine
 62
7
  6
CONTINUOUS
 10
49.8609391951
 20
-52.3525122651
 11
49.8523651956
 21
-52.8523651949
  0
LINE
  5
4A7
100
AcDbEntity
  8
IMPORT_IGES
100
AcDbLine
 62
7
  6
CONTINUOUS
 10
49.8261839274
 20
-64.378546463
 11
49.8349101306
 21
-63.8698202598
  0
LINE
  5
4A8
100
AcDbEntity
  8
IMPORT_IGES
100
AcDbLine
 62
7
  6
CONTINUOUS
 10
5.5000000008
 20
-73.0000000001
 11
5.3254493515
 21
-73.1745506494
  0
LWPOLYLINE
  5
4A9
100
AcDbEntity
  8
IMPORT_IGES
100
AcDbPolyline
 62
7
  6
CONTINUOUS
 90
31
 70
0
 10
59.3785444879
 20
62.3798018005
 10
59.3756846827
 20
62.4849811193
 10
59.3674277954
 20
62.5892763602
 10
59.3537738259
 20
62.6926875231
 10
59.33465309
 20
62.7954893842
 10
59.3101352719
 20
62.8974071674
 10
59.2804294249
 20
62.997616544
 10
59.2454946378
 20
63.0961033258
 10
59.2053718218
 20
63.1928817011
 10
59.1603927636
 20
63.287169906
 10
59.1105190424
 20
63.378947775
 10
59.0557890789
 20
63.4682354737
 10
58.9966499218
 20
63.5543117345
 10
58.9330666265
 20
63.6371508487
 10
58.8650741376
 20
63.716778525
 10
58.7932243374
 20
63.792550623
 10
58.7174865472
 20
63.8644364736
 10
58.6378914457
 20
63.9324667458
 10
58.5550829515
 20
63.9960893063
 10
58.4690353451
 20
64.0552692192
 10
58.3797743461
 20
64.1100414204
 10
58.2880210313
 20
64.1599585845
 10
58.193755224
 20
64.2049822985
 10
58.0969971011
 20
64.2451509754
 10
57.9985282696
 20
64.2801325294
 10
57.8983345289
 20
64.3098859203
 10
57.7964300795
 20
64.3344521882
 10
57.6936391307
 20
64.353622368
 10
57.5902364187
 20
64.3673268048
 10
57.4859472073
 20
64.3756351535
 10
57.3807714964
 20
64.3785474141
  0
LWPOLYLINE
  5
4AA
100
AcDbEntity
  8
IMPORT_IGES
100
AcDbPolyline
 62
7
  6
CONTINUOUS
 90
31
 70
0
 10
59.3960028549
 20
62.3953191481
 10
59.3932124001
 20
62.5009335214
 10
59.3849973443
 20
62.6056188504
 10
59.3713576874
 20
62.7093751352
 10
59.352218382
 20
62.8124746233
 10
59.3276544756
 20
62.9146450671
 10
59.2978911108
 20
63.0150697239
 10
59.2628894459
 20
63.1137332905
 10
59.2226883228
 20
63.21065107
 10
59.177629409
 20
63.3050522291
 10
59.1276766749
 20
63.3969164644
 10
59.0728661502
 20
63.4862640792
 10
59.0136475923
 20
63.5723851508
 10
58.949988192
 20
63.6552547638
 10
58.8819207585
 20
63.7348978335
 10
58.8099934763
 20
63.8106791826
 10
58.7341772594
 20
63.8825697107
 10
58.6545011938
 20
63.9505985181
 10
58.5716007227
 20
64.0142177282
 10
58.4854509468
 20
64.07339452
 10
58.3960767654
 20
64.1281617144
 10
58.3041883194
 20
64.1780698987
 10
58.2097653227
 20
64.2230830329
 10
58.1128280614
 20
64.2632371569
 10
58.0141475345
 20
64.2981909767
 10
57.9137084574
 20
64.3279057763
 10
57.8115261147
 20
64.3524202717
 10
57.7084173585
 20
64.3715093165
 10
57.6046544731
 20
64.3850978617
 10
57.4999651742
 20
64.3932609563
 10
57.394349462
 20
64.3959986003
  0
LWPOLYLINE
  5
4AB
100
AcDbEntity
  8
IMPORT_IGES
100
AcDbPolyline
 62
7
  6
CONTINUOUS
 90
34
 70
0
 10
60.3523575955
 20
62.354727965
 10
60.3488033198
 20
62.49801938
 10
60.3385386725
 20
62.6403216773
 10
60.3215636534
 20
62.7816348568
 10
60.2978074378
 20
62.9222718102
 10
60.2673408505
 20
63.0619196459
 10
60.2303763659
 20
63.1996396886
 10
60.1868710635
 20
63.335418815
 10
60.1368678638
 20
63.4692701484
 10
60.0807080029
 20
63.6002943835
 10
60.0183505477
 20
63.728472454
 10
59.9498364312
 20
63.8538234261
 10
59.8756296892
 20
63.9755051926
 10
59.7956925602
 20
64.0934930556
 10
59.7100628057
 20
64.207811713
 10
59.6193177451
 20
64.3176931515
 10
59.5234232649
 20
64.4231078551
 10
59.4224134787
 20
64.5240853397
 10
59.3169680472
 20
64.6199461399
 10
59.2070574632
 20
64.7106561343
 10
59.0927112338
 20
64.7962494443
 10
58.9746975416
 20
64.8761489684
 10
58.8529916977
 20
64.9503169388
 10
58.727618391
 20
65.0187911233
 10
58.5994198695
 20
65.0811077242
 10
58.4683770773
 20
65.1372258027
 10
58.3345090705
 20
65.1871862974
 10
58.1987152648
 20
65.2306482265
 10
58.0609825477
 20
65.2675684115
 10
57.9213240318
 20
65.2979900308
 10
57.7806784705
 20
65.3217016378
 10
57.6393587819
 20
65.3386327502
 10
57.497052048
 20
65.3488538502
 10
57.3537582688
 20
65.3523649379
  0
LINE
  5
4AC
100
AcDbEntity
  8
IMPORT_IGES
100
AcDbLine
 62
7
  6
CONTINUOUS
 10
56.8523651956
 20
-61.8523651949
 11
56.8523651956
 21
-54.8523651949
  0
LINE
  5
4AD
100
AcDbEntity
  8
IMPORT_IGES
100
AcDbLine
 62
7
  6
CONTINUOUS
 10
56.8698202605
 20
-54.83491013
 11
56.8698202605
 21
-61.8698202598
  0
LINE
  5
4AE
100
AcDbEntity
  8
IMPORT_IGES
100
AcDbLine
 62
250
  6
CONTINUOUS
 10
57.3523651956
 20
-62.8523651949
 11
57.3523651956
 21
-62.8087275326
  0
LINE
  5
4AF
100
AcDbEntity
  8
IMPORT_IGES
100
AcDbLine
 62
250
  6
CONTINUOUS
 10
57.3523651956
 20
-53.8960028572
 11
57.3523651956
 21
-53.8523651949
  0
LINE
  5
4B0
100
AcDbEntity
  8
IMPORT_IGES
100
AcDbLine
 62
7
  6
CONTINUOUS
 10
57.8087275332
 20
-62.3523651949
 11
57.8087275332
 21
-54.3523651949
  0
LINE
  5
4B1
100
AcDbEntity
  8
IMPORT_IGES
100
AcDbLine
 62
7
  6
CONTINUOUS
 10
57.8349101306
 20
-59.08491013
 11
57.8349101306
 21
-57.6198202598
  0
LINE
  5
4B2
100
AcDbEntity
  8
IMPORT_IGES
100
AcDbLine
 62
7
  6
CONTINUOUS
 10
57.8523651956
 20
-62.3523651949
 11
57.8523651956
 21
-59.1023651949
  0
LINE
  5
4B3
100
AcDbEntity
  8
IMPORT_IGES
100
AcDbLine
 62
7
  6
CONTINUOUS
 10
57.8523651956
 20
-57.6023651949
 11
57.8523651956
 21
-54.3523651949
  0
LINE
  5
4B4
100
AcDbEntity
  8
IMPORT_IGES
100
AcDbLine
 62
7
  6
CONTINUOUS
 10
58.8698202605
 20
-57.6198202598
 11
58.8698202605
 21
-59.08491013
  0
LINE
  5
4B5
100
AcDbEntity
  8
IMPORT_IGES
100
AcDbLine
 62
7
  6
CONTINUOUS
 10
59.3523651944
 20
-62.3526698038
 11
59.352365195
 21
-59.1023651949
  0
LINE
  5
4B6
100
AcDbEntity
  8
IMPORT_IGES
100
AcDbLine
 62
7
  6
CONTINUOUS
 10
59.3523651956
 20
-57.6023651949
 11
59.3523651956
 21
-52.3523651949
  0
LINE
  5
4B7
100
AcDbEntity
  8
IMPORT_IGES
100
AcDbLine
 62
7
  6
CONTINUOUS
 10
59.3785464637
 20
-57.628546463
 11
59.3785464637
 21
-59.0761839268
  0
LINE
  5
4B8
100
AcDbEntity
  8
IMPORT_IGES
100
AcDbLine
 62
7
  6
CONTINUOUS
 10
59.3785477191
 20
-52.3261828006
 11
59.3785477548
 21
62.3798018019
  0
LINE
  5
4B9
100
AcDbEntity
  8
IMPORT_IGES
100
AcDbLine
 62
7
  6
CONTINUOUS
 10
59.3960028549
 20
-62.3962871596
 11
59.3960028549
 21
62.3953191481
  0
LINE
  5
4BA
100
AcDbEntity
  8
IMPORT_IGES
100
AcDbLine
 62
7
  6
CONTINUOUS
 10
60.3523651902
 20
-62.3537499462
 11
60.3523651714
 21
62.354727969
  0
LINE
  5
4BB
100
AcDbEntity
  8
IMPORT_IGES
100
AcDbLine
 62
7
  6
CONTINUOUS
 10
60.3698203011
 20
62.3683010604
 11
60.3698202551
 21
-62.369265561
  0
LWPOLYLINE
  5
4BC
100
AcDbEntity
  8
IMPORT_IGES
100
AcDbPolyline
 62
7
  6
CONTINUOUS
 90
34
 70
0
 10
60.369813725
 20
-62.3692655636
 10
60.3663897857
 20
-62.5127395792
 10
60.3562381268
 20
-62.6552273321
 10
60.3393587483
 20
-62.7967288223
 10
60.3156808018
 20
-62.9375581531
 10
60.2852751358
 20
-63.0774012212
 10
60.2483542952
 20
-63.2153157166
 10
60.2048751164
 20
-63.3512884764
 10
60.154880763
 20
-63.4853326636
 10
60.0987132711
 20
-63.6165454569
 10
60.0363314971
 20
-63.7449077136
 10
59.9677765845
 20
-63.8704385765
 10
59.893514
 20
-63.9922926533
 10
59.8135057889
 20
-64.1104451341
 10
59.7277899059
 20
-64.2249208288
 10
59.6369456817
 20
-64.3349487748
 10
59.5409388317
 20
-64.4404993128
 10
59.4398036405
 20
-64.5416021021
 10
59.3342222922
 20
-64.6375751589
 10
59.2241651363
 20
-64.7283841907
 10
59.1096618233
 20
-64.81406349
 10
58.9914834883
 20
-64.8940339503
 10
58.8696053313
 20
-64.9682576102
 10
58.7440521523
 20
-65.0367724312
 10
58.6156694869
 20
-65.0991131912
 10
58.4844382029
 20
-65.1552387411
 10
58.3503774324
 20
-65.2051902301
 10
58.2143901077
 20
-65.2486258837
 10
58.0764630774
 20
-65.2855022834
 10
57.9366094928
 20
-65.3158628476
 10
57.7957717407
 20
-65.3394960573
 10
57.6542639497
 20
-65.356331406
 10
57.5117719912
 20
-65.3664394001
 10
57.368295865
 20
-65.3698200397
  0
LINE
  5
4BD
100
AcDbEntity
  8
IMPORT_IGES
100
AcDbLine
 62
250
  6
CONTINUOUS
 10
66.861092082
 20
-72.8609404109
 11
66.8610958324
 21
-72.3610165646
  0
LINE
  5
4BE
100
AcDbEntity
  8
IMPORT_IGES
100
AcDbLine
 62
250
  6
CONTINUOUS
 10
67.3610163851
 20
-71.861088887
 11
67.3610151013
 21
71.8610782796
  0
LINE
  5
4BF
100
AcDbEntity
  8
IMPORT_IGES
100
AcDbLine
 62
250
  6
CONTINUOUS
 10
67.8609404126
 20
71.861092619
 11
67.8609404126
 21
-71.8610926321
  0
LINE
  5
4C0
100
AcDbEntity
  8
IMPORT_IGES
100
AcDbLine
 62
7
  6
CONTINUOUS
 10
67.9745506486
 20
-71.9721654179
 11
67.9745506407
 21
71.9748802014
  0
LINE
  5
4C1
100
AcDbEntity
  8
IMPORT_IGES
100
AcDbLine
 62
7
  6
CONTINUOUS
 10
68.0000000008
 20
72.5000761523
 11
68.0000000008
 21
-72.5000761525
  0
LINE
  5
4C2
100
AcDbEntity
  8
IMPORT_IGES
100
AcDbLine
 62
7
  6
CONTINUOUS
 10
68.1745506501
 20
72.6746268016
 11
68.1745506501
 21
-72.6746268018
  0
LINE
  5
4C3
100
AcDbEntity
  8
IMPORT_IGES
100
AcDbLine
 62
250
  6
CONTINUOUS
 10
68.6573324014
 20
75.1571035617
 11
68.6573321669
 21
73.709460779
  0
LINE
  5
4C4
100
AcDbEntity
  8
IMPORT_IGES
100
AcDbLine
 62
250
  6
CONTINUOUS
 10
68.6573322606
 20
-75.1571035617
 11
68.6573321652
 21
-73.7094595934
  0
LINE
  5
4C5
100
AcDbEntity
  8
IMPORT_IGES
100
AcDbLine
 62
7
  6
CONTINUOUS
 10
68.7094607799
 20
-73.6573320469
 11
68.7094607799
 21
73.6573320453
  0
LWPOLYLINE
  5
4C6
100
AcDbEntity
  8
IMPORT_IGES
100
AcDbPolyline
 62
250
  6
CONTINUOUS
 90
3
 70
0
 10
66.8611425805
 20
72.8609404011
 10
66.861117501
 20
72.8589212522
 10
66.8610888854
 20
72.3610163841
  0
LINE
  5
4C7
100
AcDbEntity
  8
IMPORT_IGES
100
AcDbLine
 62
7
  6
CONTINUOUS
 10
38.8523651956
 20
-57.6023651949
 11
38.8261830632
 21
-57.6285481793
  0
LINE
  5
4C8
100
AcDbEntity
  8
IMPORT_IGES
100
AcDbLine
 62
7
  6
CONTINUOUS
 10
-3.3185593537
 20
-72.9632058266
 11
-3.3170193943
 21
-72.9625217572
  0
LWPOLYLINE
  5
4C9
100
AcDbEntity
  8
IMPORT_IGES
100
AcDbPolyline
 62
7
  6
CONTINUOUS
 90
9
 70
0
 10
-5.863937404
 20
-72.9537161085
 10
-5.8582374667
 20
-72.9514461273
 10
-5.8459412075
 20
-72.9491967683
 10
-5.8270486265
 20
-72.9469680316
 10
-5.8014696819
 20
-72.9447541192
 10
-5.7692944154
 20
-72.942560829
 10
-5.7307929527
 20
-72.9404055553
 10
-5.6859171278
 20
-72.9382886076
 10
-5.6347151067
 20
-72.9362096764
  0
LWPOLYLINE
  5
4CA
100
AcDbEntity
  8
IMPORT_IGES
100
AcDbPolyline
 62
7
  6
CONTINUOUS
 90
9
 70
0
 10
-5.3117490281
 20
-72.9538683016
 10
-5.307156401
 20
-72.9520483585
 10
-5.2972840196
 20
-72.9502457059
 10
-5.2821318837
 20
-72.9484603441
 10
-5.2616239117
 20
-72.9466877099
 10
-5.2358361852
 20
-72.9449323664
 10
-5.2049969493
 20
-72.9432080023
 10
-5.1690692708
 20
-72.9415148806
 10
-5.1280900828
 20
-72.9398527382
  0
LWPOLYLINE
  5
4CB
100
AcDbEntity
  8
IMPORT_IGES
100
AcDbPolyline
 62
7
  6
CONTINUOUS
 90
31
 70
0
 10
-57.3798035315
 20
64.3785442187
 10
-57.4849827295
 20
64.3756844478
 10
-57.589277848
 20
64.3674275776
 10
-57.692688887
 20
64.3537736081
 10
-57.7954906218
 20
64.3346528452
 10
-57.8974082771
 20
64.3101349828
 10
-57.9976175271
 20
64.2804291038
 10
-58.0961041838
 20
64.2454943069
 10
-58.1928824352
 20
64.2053714933
 10
-58.2871705198
 20
64.1603924492
 10
-58.3789482718
 20
64.1105187541
 10
-58.4682358568
 20
64.0557888286
 10
-58.5543120103
 20
63.9966497198
 10
-58.6371510235
 20
63.9330664834
 10
-58.7167786051
 20
63.8650740639
 10
-58.792550617
 20
63.7932243416
 10
-58.8644363902
 20
63.7174866379
 10
-58.9324665937
 20
63.6378916315
 10
-58.996089096
 20
63.5550832384
 10
-59.0552689614
 20
63.4690357394
 10
-59.1100411256
 20
63.3797748538
 10
-59.1599582644
 20
63.2880216557
 10
-59.2049819651
 20
63.1937559683
 10
-59.2451506405
 20
63.0969979685
 10
-59.2801322052
 20
62.9985292613
 10
-59.3098856188
 20
62.898335646
 10
-59.3344519216
 20
62.7964313234
 10
-59.353622149
 20
62.6936404995
 10
-59.3673266459
 20
62.59023791
 10
-59.3756350673
 20
62.4859488192
 10
-59.3785474132
 20
62.3807732274
  0
LWPOLYLINE
  5
4CC
100
AcDbEntity
  8
IMPORT_IGES
100
AcDbPolyline
 62
7
  6
CONTINUOUS
 90
34
 70
0
 10
-57.3547279643
 20
65.3523575946
 10
-57.4980193793
 20
65.3488033189
 10
-57.6403216766
 20
65.3385386716
 10
-57.7816348561
 20
65.3215636525
 10
-57.9222718096
 20
65.2978074369
 10
-58.0619196452
 20
65.2673408496
 10
-58.1996396879
 20
65.230376365
 10
-58.3354188143
 20
65.1868710626
 10
-58.4692701478
 20
65.1368678629
 10
-58.6002943828
 20
65.080708002
 10
-58.7284724533
 20
65.0183505468
 10
-58.8538234254
 20
64.9498364303
 10
-58.975505192
 20
64.8756296883
 10
-59.093493055
 20
64.7956925593
 10
-59.2078117124
 20
64.7100628048
 10
-59.3176931508
 20
64.6193177442
 10
-59.4231078544
 20
64.523423264
 10
-59.524085339
 20
64.4224134778
 10
-59.6199461392
 20
64.3169680463
 10
-59.7106561337
 20
64.2070574623
 10
-59.7962494436
 20
64.0927112329
 10
-59.8761489678
 20
63.9746975407
 10
-59.9503169382
 20
63.8529916968
 10
-60.0187911227
 20
63.72761839
 10
-60.0811077235
 20
63.5994198685
 10
-60.137225802
 20
63.4683770764
 10
-60.1871862968
 20
63.3345090696
 10
-60.2306482259
 20
63.1987152639
 10
-60.2675684108
 20
63.0609825468
 10
-60.2979900301
 20
62.9213240308
 10
-60.3217016371
 20
62.7806784696
 10
-60.3386327496
 20
62.639358781
 10
-60.3488538498
 20
62.4970520471
 10
-60.3523649376
 20
62.3537582679
  0
LINE
  5
4CD
100
AcDbEntity
  8
IMPORT_IGES
100
AcDbLine
 62
7
  6
CONTINUOUS
 10
57.3807714964
 20
64.3785477404
 11
-57.379803533
 21
64.378547765
  0
LINE
  5
4CE
100
AcDbEntity
  8
IMPORT_IGES
100
AcDbLine
 62
7
  6
CONTINUOUS
 10
57.394349462
 20
64.3959986003
 11
-57.3953191475
 21
64.3960025266
  0
LINE
  5
4CF
100
AcDbEntity
  8
IMPORT_IGES
100
AcDbLine
 62
7
  6
CONTINUOUS
 10
57.3537582688
 20
65.3523651903
 11
-57.3547279683
 21
65.3523651711
  0
LINE
  5
4D0
100
AcDbEntity
  8
IMPORT_IGES
100
AcDbLine
 62
7
  6
CONTINUOUS
 10
-57.3683041852
 20
65.3698203004
 11
57.3692707582
 21
65.3698202551
  0
LINE
  5
4D1
100
AcDbEntity
  8
IMPORT_IGES
100
AcDbLine
 62
7
  6
CONTINUOUS
 10
48.8604294239
 20
68.2139687235
 11
31.1395705777
 21
68.2139687235
  0
LINE
  5
4D2
100
AcDbEntity
  8
IMPORT_IGES
100
AcDbLine
 62
7
  6
CONTINUOUS
 10
-31.1395705761
 20
68.2139687235
 11
-48.8604294223
 21
68.2139687235
  0
LINE
  5
4D3
100
AcDbEntity
  8
IMPORT_IGES
100
AcDbLine
 62
7
  6
CONTINUOUS
 10
-48.81679176
 20
68.2576063858
 11
-31.1832082384
 21
68.2576063858
  0
LINE
  5
4D4
100
AcDbEntity
  8
IMPORT_IGES
100
AcDbLine
 62
7
  6
CONTINUOUS
 10
31.18320824
 20
68.2576063858
 11
48.8167917616
 21
68.2576063858
  0
LINE
  5
4D5
100
AcDbEntity
  8
IMPORT_IGES
100
AcDbLine
 62
7
  6
CONTINUOUS
 10
-47.4499999992
 20
69.3245504747
 11
-32.5499999992
 21
69.3245504747
  0
LINE
  5
4D6
100
AcDbEntity
  8
IMPORT_IGES
100
AcDbLine
 62
7
  6
CONTINUOUS
 10
32.5500000008
 20
69.3245504747
 11
47.4500000008
 21
69.3245504747
  0
LWPOLYLINE
  5
4D7
100
AcDbEntity
  8
IMPORT_IGES
100
AcDbPolyline
 62
7
  6
CONTINUOUS
 90
34
 70
0
 10
57.3692707607
 20
65.3698137253
 10
57.5127444513
 20
65.3663895537
 10
57.6552318741
 20
65.3562376933
 10
57.796733029
 20
65.3393581442
 10
57.9375620172
 20
65.3156800581
 10
58.0774047377
 20
65.2852742832
 10
58.2153188868
 20
65.2483533645
 10
58.3512913018
 20
65.2048741389
 10
58.4853351455
 20
65.1548797695
 10
58.6165476031
 20
65.0987122909
 10
58.7449095317
 20
65.0363305599
 10
58.8704400741
 20
64.9677757198
 10
58.992293844
 20
64.8935132345
 10
59.1104460316
 20
64.8135051498
 10
59.2249214466
 20
64.72778942
 10
59.3349491317
 20
64.6369453722
 10
59.4404994277
 20
64.5409387222
 10
59.5416019938
 20
64.4398037543
 10
59.6375748507
 20
64.3342226479
 10
59.7283837061
 20
64.224165753
 10
59.8140628522
 20
64.1096627197
 10
59.8940331862
 20
63.991484678
 10
59.9682567469
 20
63.8696068279
 10
60.0367714955
 20
63.7440539693
 10
60.0991122126
 20
63.615671632
 10
60.1552377493
 20
63.4844406837
 10
60.2051892544
 20
63.3503802567
 10
60.2486249549
 20
63.2143932768
 10
60.2855014328
 20
63.0764665927
 10
60.3158621061
 20
62.9366133557
 10
60.3394954555
 20
62.795775946
 10
60.3563309745
 20
62.6542684902
 10
60.3664391697
 20
62.5117768617
 10
60.3698200409
 20
62.3683010604
  0
LWPOLYLINE
  5
4D8
100
AcDbEntity
  8
IMPORT_IGES
100
AcDbPolyline
 62
7
  6
CONTINUOUS
 90
13
 70
0
 10
68.70946078
 20
73.6573320453
 10
68.7091008395
 20
73.6639818815
 10
68.7078639769
 20
73.6704308208
 10
68.7057501922
 20
73.6766788631
 10
68.7026887784
 20
73.682879873
 10
68.6987504425
 20
73.688879986
 10
68.6941473055
 20
73.6942176085
 10
68.6887893237
 20
73.6988109899
 10
68.6827665407
 20
73.7027418808
 10
68.6765612084
 20
73.7057939394
 10
68.6703340772
 20
73.7078950517
 10
68.6639243968
 20
73.7091173316
 10
68.6573321669
 20
73.7094607792
  0
LWPOLYLINE
  5
4D9
100
AcDbEntity
  8
IMPORT_IGES
100
AcDbPolyline
 62
7
  6
CONTINUOUS
 90
25
 70
0
 10
67.8609404121
 20
71.861092619
 10
67.8587855132
 20
71.9265552179
 10
67.8523519778
 20
71.9917197587
 10
67.8416706788
 20
72.0563071868
 10
67.8267911585
 20
72.1200394973
 10
67.8077800859
 20
72.1826463061
 10
67.7847197711
 20
72.2438656544
 10
67.7577109029
 20
72.3034364057
 10
67.726871061
 20
72.3611045477
 10
67.692331052
 20
72.4166288671
 10
67.6542396112
 20
72.4697724206
 10
67.6127604441
 20
72.5203088107
 10
67.5680676239
 20
72.5680268032
 10
67.520352171
 20
72.6127224131
 10
67.4698180455
 20
72.6542045925
 10
67.416676459
 20
72.692299239
 10
67.36115379
 20
72.7268426149
 10
67.3034869665
 20
72.7576859507
 10
67.2439171899
 20
72.7846984045
 10
67.1826984643
 20
72.80776236
 10
67.1200919212
 20
72.8267770908
 10
67.056359519
 20
72.8416602495
 10
66.9917716446
 20
72.8523451289
 10
66.9266063099
 20
72.858782149
 10
66.8611425803
 20
72.8609403999
  0
LWPOLYLINE
  5
4DA
100
AcDbEntity
  8
IMPORT_IGES
100
AcDbPolyline
 62
7
  6
CONTINUOUS
 90
25
 70
0
 10
67.9745505938
 20
71.9748802015
 10
67.9724143839
 20
72.0403181551
 10
67.96600136
 20
72.1054560234
 10
67.955341954
 20
72.1700154388
 10
67.9404851413
 20
72.2337141703
 10
67.9214976098
 20
72.2962873273
 10
67.8984598557
 20
72.357487426
 10
67.8714692715
 20
72.4170577377
 10
67.8406409521
 20
72.4747381111
 10
67.8061032268
 20
72.5302848658
 10
67.7680006089
 20
72.5834626181
 10
67.7264966174
 20
72.6340397292
 10
67.6817711517
 20
72.6817934289
 10
67.6340136668
 20
72.7265194202
 10
67.5834300381
 20
72.7680255094
 10
67.5302464557
 20
72.8061287772
 10
67.4746949132
 20
72.8406657964
 10
67.4170108315
 20
72.8714923457
 10
67.3574417242
 20
72.8984787793
 10
67.2962488613
 20
72.9215107381
 10
67.2336885462
 20
72.9404921574
 10
67.1700100575
 20
72.9553431964
 10
67.1054788969
 20
72.9659984743
 10
67.0403766088
 20
72.9724105901
 10
66.9749812399
 20
72.9745505088
  0
LWPOLYLINE
  5
4DB
100
AcDbEntity
  8
IMPORT_IGES
100
AcDbPolyline
 62
7
  6
CONTINUOUS
 90
28
 70
0
 10
70.1571035606
 20
73.6573321107
 10
70.1545483686
 20
73.7445394676
 10
70.1469248133
 20
73.8314463588
 10
70.1342591065
 20
73.917758822
 10
70.1165931434
 20
74.0031828898
 10
70.0939884942
 20
74.0874317264
 10
70.0665258781
 20
74.1702265185
 10
70.0342985418
 20
74.2512924827
 10
69.9974149141
 20
74.3303500303
 10
69.9560038509
 20
74.4071225746
 10
69.9102120241
 20
74.4813437358
 10
69.860191626
 20
74.5527716876
 10
69.8061008548
 20
74.6211787124
 10
69.7481190146
 20
74.6863348337
 10
69.6864434034
 20
74.7480166061
 10
69.6212754853
 20
74.8060196625
 10
69.5528291786
 20
74.8601487039
 10
69.4813387809
 20
74.9102150011
 10
69.4070530493
 20
74.9560436326
 10
69.3302167708
 20
74.9974814594
 10
69.2510953237
 20
75.0343832466
 10
69.1699843792
 20
75.066613891
 10
69.0871715344
 20
75.0940668798
 10
69.0029270704
 20
75.1166549816
 10
68.9175309386
 20
75.1343007992
 10
68.8312705538
 20
75.1469466523
 10
68.7444398643
 20
75.1545549407
 10
68.6573324014
 20
75.1571035596
  0
LINE
  5
4DC
100
AcDbEntity
  8
IMPORT_IGES
100
AcDbLine
 62
7
  6
CONTINUOUS
 10
70.1571035606
 20
-73.6573321238
 11
70.1571035606
 21
73.6573321107
  0
LWPOLYLINE
  5
4DD
100
AcDbEntity
  8
IMPORT_IGES
100
AcDbPolyline
 62
7
  6
CONTINUOUS
 90
28
 70
0
 10
67.9745474313
 20
-71.972165422
 10
67.9730918772
 20
-72.0273561876
 10
67.9685562783
 20
-72.0828431542
 10
67.9608810359
 20
-72.138448045
 10
67.9500168646
 20
-72.1940094771
 10
67.935922511
 20
-72.2493104787
 10
67.918576499
 20
-72.3040818666
 10
67.8979187074
 20
-72.3582455283
 10
67.8739966093
 20
-72.411468398
 10
67.847053089
 20
-72.4631293572
 10
67.8173301093
 20
-72.5128403072
 10
67.7848287656
 20
-72.5606764743
 10
67.749474145
 20
-72.6067255022
 10
67.711269737
 20
-72.6509010604
 10
67.6703895444
 20
-72.6929249098
 10
67.6269960281
 20
-72.7325803743
 10
67.5812027167
 20
-72.7697236993
 10
67.5331673522
 20
-72.8041883959
 10
67.4831564359
 20
-72.8357616729
 10
67.4313620077
 20
-72.8643195957
 10
67.377945349
 20
-72.8897709581
 10
67.3231559369
 20
-72.9119979464
 10
67.267203498
 20
-72.9309255153
 10
67.2102712942
 20
-72.94650208
 10
67.1525803781
 20
-72.9586773258
 10
67.094340543
 20
-72.9674196409
 10
67.0357485034
 20
-72.9727121135
 10
66.9770078202
 20
-72.9745481737
  0
LINE
  5
4DE
100
AcDbEntity
  8
IMPORT_IGES
100
AcDbLine
 62
7
  6
CONTINUOUS
 10
48.3523651956
 20
-52.3523651949
 11
48.3785473254
 21
-52.3261744034
  0
LINE
  5
4DF
100
AcDbEntity
  8
IMPORT_IGES
100
AcDbLine
 62
7
  6
CONTINUOUS
 10
40.3698202605
 20
-59.08491013
 11
40.3523651956
 21
-59.1023651949
  0
LINE
  5
4E0
100
AcDbEntity
  8
IMPORT_IGES
100
AcDbLine
 62
7
  6
CONTINUOUS
 10
41.3523651956
 20
-61.8523651949
 11
41.3349101306
 21
-61.8698202598
  0
LINE
  5
4E1
100
AcDbEntity
  8
IMPORT_IGES
100
AcDbLine
 62
7
  6
CONTINUOUS
 10
38.8523651956
 20
-64.3523651949
 11
38.8261826721
 21
-64.3785476815
  0
LINE
  5
4E2
100
AcDbEntity
  8
IMPORT_IGES
100
AcDbLine
 62
7
  6
CONTINUOUS
 10
49.8523651956
 20
-53.8523651949
 11
49.8349101306
 21
-53.8698202598
  0
LINE
  5
4E3
100
AcDbEntity
  8
IMPORT_IGES
100
AcDbLine
 62
7
  6
CONTINUOUS
 10
33.0000000008
 20
-72.9745506494
 11
33.0543848717
 21
-72.9201657785
  0
LWPOLYLINE
  5
4E4
100
AcDbEntity
  8
IMPORT_IGES
100
AcDbPolyline
 62
7
  6
CONTINUOUS
 90
25
 70
0
 10
-66.8611427936
 20
72.8609403995
 10
-66.9266052822
 20
72.858782216
 10
-66.9917694976
 20
72.8523454114
 10
-67.0563563868
 20
72.8416608726
 10
-67.1200879473
 20
72.8267781559
 10
-67.1826937986
 20
72.8077639441
 10
-67.2439119856
 20
72.7847005604
 10
-67.3034813772
 20
72.757688707
 10
-67.3611479671
 20
72.7268459764
 10
-67.4166705484
 20
72.6923031874
 10
-67.4698121852
 20
72.6542090877
 10
-67.5203464887
 20
72.612727394
 10
-67.568062234
 20
72.5680321897
 10
-67.6127554459
 20
72.5203145056
 10
-67.6542350869
 20
72.4697783111
 10
-67.6923270654
 20
72.4166348265
 10
-67.7268676552
 20
72.3611104383
 10
-67.7577080987
 20
72.3034420819
 10
-67.7847175664
 20
72.2438709654
 10
-67.8077784545
 20
72.1826510984
 10
-67.82679005
 20
72.1200436177
 10
-67.8416700187
 20
72.0563104856
 10
-67.8523516671
 20
71.9917220924
 10
-67.8587854292
 20
71.9265564522
 10
-67.8609404093
 20
71.8610926318
  0
LWPOLYLINE
  5
4E5
100
AcDbEntity
  8
IMPORT_IGES
100
AcDbPolyline
 62
7
  6
CONTINUOUS
 90
25
 70
0
 10
-66.9749812496
 20
72.9745505088
 10
-67.0404079767
 20
72.9724085129
 10
-67.1055391958
 20
72.965990494
 10
-67.1700965255
 20
72.9553259354
 10
-67.2337987244
 20
72.9404625515
 10
-67.2963794689
 20
72.9214662979
 10
-67.3575876485
 20
72.8984182211
 10
-67.4171671358
 20
72.8714151605
 10
-67.4748566557
 20
72.8405723323
 10
-67.5304070526
 20
72.8060214089
 10
-67.5835811618
 20
72.7679094998
 10
-67.63415029
 20
72.7263995606
 10
-67.6818937637
 20
72.6816707635
 10
-67.7266076635
 20
72.633913019
 10
-67.7681003741
 20
72.5833324623
 10
-67.8061908295
 20
72.5301535702
 10
-67.8407157169
 20
72.4746083844
 10
-67.8715310646
 20
72.4169321644
 10
-67.8985084468
 20
72.3573698231
 10
-67.9215331042
 20
72.2961824786
 10
-67.9405086838
 20
72.2336260559
 10
-67.9553556161
 20
72.1699465352
 10
-67.9660076386
 20
72.1054081318
 10
-67.9724159989
 20
72.040293321
 10
-67.9745505922
 20
71.9748802014
  0
LINE
  5
4E6
100
AcDbEntity
  8
IMPORT_IGES
100
AcDbLine
 62
7
  6
CONTINUOUS
 10
-48.81679176
 20
69.5031399999
 11
-47.4499999992
 21
69.5031399999
  0
LINE
  5
4E7
100
AcDbEntity
  8
IMPORT_IGES
100
AcDbLine
 62
7
  6
CONTINUOUS
 10
-32.5499999992
 20
69.5031399999
 11
-31.1832082384
 21
69.5031399999
  0
LINE
  5
4E8
100
AcDbEntity
  8
IMPORT_IGES
100
AcDbLine
 62
7
  6
CONTINUOUS
 10
31.18320824
 20
69.5031399999
 11
32.5500000008
 21
69.5031399999
  0
LINE
  5
4E9
100
AcDbEntity
  8
IMPORT_IGES
100
AcDbLine
 62
7
  6
CONTINUOUS
 10
47.4500000008
 20
69.5031399999
 11
48.8167917616
 21
69.5031399999
  0
LINE
  5
4EA
100
AcDbEntity
  8
IMPORT_IGES
100
AcDbLine
 62
7
  6
CONTINUOUS
 10
31.2500000008
 20
71.0500699424
 11
48.7500000008
 21
71.0500699424
  0
LINE
  5
4EB
100
AcDbEntity
  8
IMPORT_IGES
100
AcDbLine
 62
7
  6
CONTINUOUS
 10
-31.2499999992
 20
71.0500699424
 11
-48.7499999992
 21
71.0500699424
  0
LINE
  5
4EC
100
AcDbEntity
  8
IMPORT_IGES
100
AcDbLine
 62
7
  6
CONTINUOUS
 10
-48.8604294223
 20
71.1604993655
 11
-31.1395705761
 21
71.1604993655
  0
LINE
  5
4ED
100
AcDbEntity
  8
IMPORT_IGES
100
AcDbLine
 62
7
  6
CONTINUOUS
 10
31.1395705777
 20
71.1604993655
 11
48.8604294239
 21
71.1604993655
  0
LINE
  5
4EE
100
AcDbEntity
  8
IMPORT_IGES
100
AcDbLine
 62
250
  6
CONTINUOUS
 10
-67.8609404103
 20
71.8610926322
 11
-67.3610162767
 21
71.8610869624
  0
LINE
  5
4EF
100
AcDbEntity
  8
IMPORT_IGES
100
AcDbLine
 62
250
  6
CONTINUOUS
 10
67.8609404124
 20
71.8610856914
 11
67.361016385
 21
71.8610917717
  0
LINE
  5
4F0
100
AcDbEntity
  8
IMPORT_IGES
100
AcDbLine
 62
250
  6
CONTINUOUS
 10
66.8610888854
 20
72.3610163841
 11
-66.8610781953
 21
72.3610149159
  0
LINE
  5
4F1
100
AcDbEntity
  8
IMPORT_IGES
100
AcDbLine
 62
250
  6
CONTINUOUS
 10
-66.8611427936
 20
72.8609404011
 11
66.8611425805
 21
72.8609404011
  0
LINE
  5
4F2
100
AcDbEntity
  8
IMPORT_IGES
100
AcDbLine
 62
7
  6
CONTINUOUS
 10
-66.9749812496
 20
72.9745507113
 11
66.9749812399
 21
72.9745507114
  0
LINE
  5
4F3
100
AcDbEntity
  8
IMPORT_IGES
100
AcDbLine
 62
7
  6
CONTINUOUS
 10
-67.5000761516
 20
72.9999999999
 11
-46.1047410224
 21
72.9999999999
  0
LINE
  5
4F4
100
AcDbEntity
  8
IMPORT_IGES
100
AcDbLine
 62
7
  6
CONTINUOUS
 10
-33.895258976
 20
72.9999999999
 11
33.8952589776
 21
72.9999999999
  0
LINE
  5
4F5
100
AcDbEntity
  8
IMPORT_IGES
100
AcDbLine
 62
7
  6
CONTINUOUS
 10
46.104741024
 20
72.9999999999
 11
67.5000761532
 21
72.9999999999
  0
LINE
  5
4F6
100
AcDbEntity
  8
IMPORT_IGES
100
AcDbLine
 62
7
  6
CONTINUOUS
 10
-44.9999999992
 20
73.1221934295
 11
-40.4999999992
 21
73.1221934295
  0
LINE
  5
4F7
100
AcDbEntity
  8
IMPORT_IGES
100
AcDbLine
 62
7
  6
CONTINUOUS
 10
-39.4999999992
 20
73.1221934295
 11
-34.9999999992
 21
73.1221934295
  0
LINE
  5
4F8
100
AcDbEntity
  8
IMPORT_IGES
100
AcDbLine
 62
7
  6
CONTINUOUS
 10
35.0000000008
 20
73.1221934295
 11
39.5000000008
 21
73.1221934295
  0
LINE
  5
4F9
100
AcDbEntity
  8
IMPORT_IGES
100
AcDbLine
 62
7
  6
CONTINUOUS
 10
40.5000000008
 20
73.1221934295
 11
45.0000000008
 21
73.1221934295
  0
LINE
  5
4FA
100
AcDbEntity
  8
IMPORT_IGES
100
AcDbLine
 62
7
  6
CONTINUOUS
 10
-45.9565364777
 20
73.1482045446
 11
-44.9999999992
 21
73.1482045446
  0
LINE
  5
4FB
100
AcDbEntity
  8
IMPORT_IGES
100
AcDbLine
 62
7
  6
CONTINUOUS
 10
-34.9999999992
 20
73.1482045446
 11
-34.0434635207
 21
73.1482045446
  0
LINE
  5
4FC
100
AcDbEntity
  8
IMPORT_IGES
100
AcDbLine
 62
7
  6
CONTINUOUS
 10
34.0434635223
 20
73.1482045446
 11
35.0000000008
 21
73.1482045446
  0
LINE
  5
4FD
100
AcDbEntity
  8
IMPORT_IGES
100
AcDbLine
 62
7
  6
CONTINUOUS
 10
45.0000000008
 20
73.1482045446
 11
45.9565364793
 21
73.1482045446
  0
LINE
  5
4FE
100
AcDbEntity
  8
IMPORT_IGES
100
AcDbLine
 62
7
  6
CONTINUOUS
 10
-40.4999999992
 20
73.1572684429
 11
-39.4999999992
 21
73.1572684429
  0
LINE
  5
4FF
100
AcDbEntity
  8
IMPORT_IGES
100
AcDbLine
 62
7
  6
CONTINUOUS
 10
39.5000000008
 20
73.1572684429
 11
40.5000000008
 21
73.1572684429
  0
LINE
  5
500
100
AcDbEntity
  8
IMPORT_IGES
100
AcDbLine
 62
7
  6
CONTINUOUS
 10
-67.6746268009
 20
73.1745506492
 11
67.6746268025
 21
73.1745506492
  0
LINE
  5
501
100
AcDbEntity
  8
IMPORT_IGES
100
AcDbLine
 62
250
  6
CONTINUOUS
 10
-70.157103561
 20
73.6573324005
 11
-68.7094607783
 21
73.657332166
  0
LINE
  5
502
100
AcDbEntity
  8
IMPORT_IGES
100
AcDbLine
 62
250
  6
CONTINUOUS
 10
70.1571035614
 20
73.657332078
 11
68.7094607799
 21
73.6573320453
  0
LINE
  5
503
100
AcDbEntity
  8
IMPORT_IGES
100
AcDbLine
 62
7
  6
CONTINUOUS
 10
68.6573321669
 20
73.709460779
 11
-68.6573320445
 21
73.709460779
  0
LINE
  5
504
100
AcDbEntity
  8
IMPORT_IGES
100
AcDbLine
 62
7
  6
CONTINUOUS
 10
68.6573324014
 20
75.1571035596
 11
-68.65733211
 21
75.1571035596
  0
LINE
  5
505
100
AcDbEntity
  8
IMPORT_IGES
100
AcDbLine
 62
7
  6
CONTINUOUS
 10
31.2500000008
 20
71.0500699424
 11
31.1395705777
 21
71.1604993655
  0
LINE
  5
506
100
AcDbEntity
  8
IMPORT_IGES
100
AcDbLine
 62
7
  6
CONTINUOUS
 10
48.3698202605
 20
-62.83491013
 11
48.3523651956
 21
-62.8523651949
  0
LINE
  5
507
100
AcDbEntity
  8
IMPORT_IGES
100
AcDbLine
 62
7
  6
CONTINUOUS
 10
59.3785476822
 20
-52.326182867
 11
59.3523651956
 21
-52.3523651949
  0
LINE
  5
508
100
AcDbEntity
  8
IMPORT_IGES
100
AcDbLine
 62
7
  6
CONTINUOUS
 10
56.8523651956
 20
-54.8523651949
 11
56.8698202605
 21
-54.83491013
  0
LINE
  5
509
100
AcDbEntity
  8
IMPORT_IGES
100
AcDbLine
 62
7
  6
CONTINUOUS
 10
49.8523651956
 20
-64.3523651949
 11
49.8261839274
 21
-64.378546463
  0
LINE
  5
50A
100
AcDbEntity
  8
IMPORT_IGES
100
AcDbLine
 62
7
  6
CONTINUOUS
 10
42.0000000008
 20
-72.2442490467
 11
42.192005715
 21
-72.0522433325
  0
LINE
  5
50B
100
AcDbEntity
  8
IMPORT_IGES
100
AcDbLine
 62
7
  6
CONTINUOUS
 10
42.0000000008
 20
-73.0443709091
 11
42.183430499
 21
-72.8609404111
  0
LINE
  5
50C
100
AcDbEntity
  8
IMPORT_IGES
100
AcDbLine
 62
7
  6
CONTINUOUS
 10
57.8349101306
 20
-57.6198202598
 11
57.8523651956
 21
-57.6023651949
  0
LWPOLYLINE
  5
50D
100
AcDbEntity
  8
IMPORT_IGES
100
AcDbPolyline
 62
7
  6
CONTINUOUS
 90
13
 70
0
 10
-68.6573320445
 20
73.7094607791
 10
-68.6639818719
 20
73.7091008448
 10
-68.6704308073
 20
73.7078639845
 10
-68.6766788508
 20
73.705750198
 10
-68.6828798698
 20
73.7026887771
 10
-68.6888799969
 20
73.6987504301
 10
-68.6942176297
 20
73.6941472816
 10
-68.6988110144
 20
73.6887892857
 10
-68.7027419048
 20
73.6827664883
 10
-68.7057939605
 20
73.6765611514
 10
-68.7078950679
 20
73.6703340291
 10
-68.7091173406
 20
73.6639243673
 10
-68.7094607785
 20
73.657332166
  0
LWPOLYLINE
  5
50E
100
AcDbEntity
  8
IMPORT_IGES
100
AcDbPolyline
 62
7
  6
CONTINUOUS
 90
28
 70
0
 10
-68.65733211
 20
75.1571035596
 10
-68.744539485
 20
75.154548366
 10
-68.8314463917
 20
75.1469248075
 10
-68.9177588677
 20
75.1342590963
 10
-69.0031829456
 20
75.1165931283
 10
-69.0874317895
 20
75.093988474
 10
-69.1702265866
 20
75.0665258524
 10
-69.2512925533
 20
75.0342985105
 10
-69.3303501011
 20
74.9974148776
 10
-69.407122644
 20
74.9560038099
 10
-69.4813438022
 20
74.9102119793
 10
-69.5527717497
 20
74.8601915784
 10
-69.6211787693
 20
74.8061008054
 10
-69.6863348848
 20
74.7481189647
 10
-69.7480166509
 20
74.6864433542
 10
-69.8060197009
 20
74.6212754377
 10
-69.8601487359
 20
74.5528291338
 10
-69.910215027
 20
74.4813387397
 10
-69.9560436528
 20
74.4070530123
 10
-69.9974814745
 20
74.3302167386
 10
-70.0343832572
 20
74.2510952966
 10
-70.0666138979
 20
74.1699843574
 10
-70.0940668839
 20
74.0871715176
 10
-70.1166549835
 20
74.0029270585
 10
-70.1343007997
 20
73.9175309309
 10
-70.146946652
 20
73.8312705493
 10
-70.1545549401
 20
73.744439862
 10
-70.1571035589
 20
73.6573324005
  0
LINE
  5
50F
100
AcDbEntity
  8
IMPORT_IGES
100
AcDbLine
 62
7
  6
CONTINUOUS
 10
48.8604294239
 20
68.2139687235
 11
48.8167917616
 21
68.2576063858
  0
LINE
  5
510
100
AcDbEntity
  8
IMPORT_IGES
100
AcDbLine
 62
7
  6
CONTINUOUS
 10
44.9301797411
 20
-73.0443709091
 11
45.0543848717
 21
-72.9201657785
  0
LINE
  5
511
100
AcDbEntity
  8
IMPORT_IGES
100
AcDbLine
 62
7
  6
CONTINUOUS
 10
59.352365195
 20
-59.1023651949
 11
59.3785464637
 21
-59.0761839268
  0
LINE
  5
512
100
AcDbEntity
  8
IMPORT_IGES
100
AcDbLine
 62
7
  6
CONTINUOUS
 10
45.9565364793
 20
73.1482045446
 11
46.104741024
 21
72.9999999999
  0
LINE
  5
513
100
AcDbEntity
  8
IMPORT_IGES
100
AcDbLine
 62
7
  6
CONTINUOUS
 10
48.8167917616
 20
70.9832781816
 11
48.7500000008
 21
71.0500699424
  0
ARC
  5
514
100
AcDbEntity
  8
IMPORT_IGES
100
AcDbCircle
 62
7
  6
CONTINUOUS
 10
-47.4999999992
 20
-42.5000000001
 40
2.8174550593
100
AcDbArc
 50
89.9999999998
 51
270.0000000004
  0
ARC
  5
515
100
AcDbEntity
  8
IMPORT_IGES
100
AcDbCircle
 62
7
  6
CONTINUOUS
 10
-42.4999999992
 20
-42.5000000001
 40
2.8174550593
100
AcDbArc
 50
269.9999999994
 51
90.0000000004
  0
ARC
  5
516
100
AcDbEntity
  8
IMPORT_IGES
100
AcDbCircle
 62
7
  6
CONTINUOUS
 10
-29.9999999992
 20
-2.5000000002
 40
2.8
100
AcDbArc
 50
180.0
 51
360.0
  0
ARC
  5
517
100
AcDbEntity
  8
IMPORT_IGES
100
AcDbCircle
 62
7
  6
CONTINUOUS
 10
-41.7999999992
 20
-2.5000000002
 40
2.8
100
AcDbArc
 50
179.9999999999
 51
360.0
  0
ARC
  5
518
100
AcDbEntity
  8
IMPORT_IGES
100
AcDbCircle
 62
7
  6
CONTINUOUS
 10
-29.698484809
 20
-26.3043722603
 40
2.8
100
AcDbArc
 50
44.9999999988
 51
224.9999999999
  0
ARC
  5
519
100
AcDbEntity
  8
IMPORT_IGES
100
AcDbCircle
 62
7
  6
CONTINUOUS
 10
-26.3043722593
 20
-29.69848481
 40
2.8
100
AcDbArc
 50
224.9999999676
 51
44.9999999628
  0
ARC
  5
51A
100
AcDbEntity
  8
IMPORT_IGES
100
AcDbCircle
 62
7
  6
CONTINUOUS
 10
-2.4999999993
 20
-30.0000000001
 40
2.8
100
AcDbArc
 50
89.9999999999
 51
270.0
  0
ARC
  5
51B
100
AcDbEntity
  8
IMPORT_IGES
100
AcDbCircle
 62
7
  6
CONTINUOUS
 10
-2.4999999993
 20
-41.8000000001
 40
2.8
100
AcDbArc
 50
89.9999999999
 51
270.0
  0
ARC
  5
51C
100
AcDbEntity
  8
IMPORT_IGES
100
AcDbCircle
 62
7
  6
CONTINUOUS
 10
-47.4999999992
 20
-42.5000000001
 40
2.7999999944
100
AcDbArc
 50
90.0
 51
270.0
  0
ARC
  5
51D
100
AcDbEntity
  8
IMPORT_IGES
100
AcDbCircle
 62
7
  6
CONTINUOUS
 10
-42.4999999992
 20
-42.5000000001
 40
2.7999999944
100
AcDbArc
 50
270.0
 51
90.0
  0
ARC
  5
51E
100
AcDbEntity
  8
IMPORT_IGES
100
AcDbCircle
 62
7
  6
CONTINUOUS
 10
-29.698484809
 20
-26.3043722603
 40
1.7615988538
100
AcDbArc
 50
44.9999999984
 51
180.0
  0
ARC
  5
51F
100
AcDbEntity
  8
IMPORT_IGES
100
AcDbCircle
 62
7
  6
CONTINUOUS
 10
-26.3043722593
 20
-29.69848481
 40
1.7615988538
100
AcDbArc
 50
224.9999999935
 51
360.0
  0
ARC
  5
520
100
AcDbEntity
  8
IMPORT_IGES
100
AcDbCircle
 62
7
  6
CONTINUOUS
 10
-29.9999999992
 20
-2.5000000002
 40
1.7615988534
100
AcDbArc
 50
179.9999999996
 51
360.0
  0
ARC
  5
521
100
AcDbEntity
  8
IMPORT_IGES
100
AcDbCircle
 62
7
  6
CONTINUOUS
 10
-41.7999999992
 20
-2.5000000002
 40
1.7615988534
100
AcDbArc
 50
179.9999999996
 51
360.0
  0
ARC
  5
522
100
AcDbEntity
  8
IMPORT_IGES
100
AcDbCircle
 62
7
  6
CONTINUOUS
 10
-2.4999999993
 20
-30.0000000001
 40
1.7615977689
100
AcDbArc
 50
89.9999999996
 51
270.0000000003
  0
ARC
  5
523
100
AcDbEntity
  8
IMPORT_IGES
100
AcDbCircle
 62
7
  6
CONTINUOUS
 10
-2.4999999993
 20
-41.8000000001
 40
1.7615977689
100
AcDbArc
 50
89.9999999996
 51
270.0000000003
  0
ARC
  5
524
100
AcDbEntity
  8
IMPORT_IGES
100
AcDbCircle
 62
7
  6
CONTINUOUS
 10
-42.4999999992
 20
-42.5000000001
 40
1.7476348012
100
AcDbArc
 50
269.9999999992
 51
90.0000000018
  0
ARC
  5
525
100
AcDbEntity
  8
IMPORT_IGES
100
AcDbCircle
 62
7
  6
CONTINUOUS
 10
-47.4999999992
 20
-42.5000000001
 40
1.7476337112
100
AcDbArc
 50
89.9999999992
 51
270.0000000008
  0
CIRCLE
  5
526
100
AcDbEntity
  8
IMPORT_IGES
100
AcDbCircle
 62
7
  6
CONTINUOUS
 10
-52.9999999992
 20
-10.4968600001
 40
1.5977483589
  0
CIRCLE
  5
527
100
AcDbEntity
  8
IMPORT_IGES
100
AcDbCircle
 62
7
  6
CONTINUOUS
 10
-52.9999999992
 20
-5.4968600001
 40
1.5977483589
  0
CIRCLE
  5
528
100
AcDbEntity
  8
IMPORT_IGES
100
AcDbCircle
 62
7
  6
CONTINUOUS
 10
-52.9999999992
 20
-10.4968600001
 40
1.5
  0
CIRCLE
  5
529
100
AcDbEntity
  8
IMPORT_IGES
100
AcDbCircle
 62
7
  6
CONTINUOUS
 10
-52.9999999992
 20
-5.4968600001
 40
1.5
  0
ARC
  5
52A
100
AcDbEntity
  8
IMPORT_IGES
100
AcDbCircle
 62
7
  6
CONTINUOUS
 10
-1.8499999992
 20
-73.1000000001
 40
0.8
100
AcDbArc
 50
180.0000000001
 51
269.999739635
  0
ARC
  5
52B
100
AcDbEntity
  8
IMPORT_IGES
100
AcDbCircle
 62
250
  6
CONTINUOUS
 10
-66.8611226414
 20
-71.8611233141
 40
0.4998924638
100
AcDbArc
 50
179.9948434158
 51
270.0034121293
  0
ARC
  5
52C
100
AcDbEntity
  8
IMPORT_IGES
100
AcDbCircle
 62
7
  6
CONTINUOUS
 10
-41.7999999992
 20
2.4999999998
 40
2.8
100
AcDbArc
 50
0.0
 51
180.0000000001
  0
ARC
  5
52D
100
AcDbEntity
  8
IMPORT_IGES
100
AcDbCircle
 62
7
  6
CONTINUOUS
 10
-41.7999999992
 20
2.4999999998
 40
1.7615988534
100
AcDbArc
 50
0.0
 51
180.0000000008
  0
CIRCLE
  5
52E
100
AcDbEntity
  8
IMPORT_IGES
100
AcDbCircle
 62
7
  6
CONTINUOUS
 10
-52.9999999992
 20
-0.4968600001
 40
1.5977483589
  0
CIRCLE
  5
52F
100
AcDbEntity
  8
IMPORT_IGES
100
AcDbCircle
 62
7
  6
CONTINUOUS
 10
-52.9999999992
 20
4.5031399999
 40
1.5977483589
  0
CIRCLE
  5
530
100
AcDbEntity
  8
IMPORT_IGES
100
AcDbCircle
 62
7
  6
CONTINUOUS
 10
-52.9999999992
 20
9.5031399999
 40
1.5977483589
  0
CIRCLE
  5
531
100
AcDbEntity
  8
IMPORT_IGES
100
AcDbCircle
 62
7
  6
CONTINUOUS
 10
-52.9999999992
 20
14.5031399999
 40
1.5977483589
  0
CIRCLE
  5
532
100
AcDbEntity
  8
IMPORT_IGES
100
AcDbCircle
 62
7
  6
CONTINUOUS
 10
-52.9999999992
 20
-0.4968600001
 40
1.5
  0
CIRCLE
  5
533
100
AcDbEntity
  8
IMPORT_IGES
100
AcDbCircle
 62
7
  6
CONTINUOUS
 10
-52.9999999992
 20
4.5031399999
 40
1.5
  0
CIRCLE
  5
534
100
AcDbEntity
  8
IMPORT_IGES
100
AcDbCircle
 62
7
  6
CONTINUOUS
 10
-52.9999999992
 20
9.5031399999
 40
1.5
  0
CIRCLE
  5
535
100
AcDbEntity
  8
IMPORT_IGES
100
AcDbCircle
 62
7
  6
CONTINUOUS
 10
-52.9999999992
 20
14.5031399999
 40
1.5
  0
ARC
  5
536
100
AcDbEntity
  8
IMPORT_IGES
100
AcDbCircle
 62
7
  6
CONTINUOUS
 10
-42.4999999992
 20
42.4999999999
 40
2.8174550593
100
AcDbArc
 50
269.9999999998
 51
90.0000000004
  0
ARC
  5
537
100
AcDbEntity
  8
IMPORT_IGES
100
AcDbCircle
 62
7
  6
CONTINUOUS
 10
-47.4999999992
 20
42.4999999999
 40
2.8174550593
100
AcDbArc
 50
89.9999999994
 51
270.0000000004
  0
ARC
  5
538
100
AcDbEntity
  8
IMPORT_IGES
100
AcDbCircle
 62
7
  6
CONTINUOUS
 10
-42.4999999992
 20
42.4999999999
 40
2.7999999944
100
AcDbArc
 50
270.0
 51
90.0
  0
ARC
  5
539
100
AcDbEntity
  8
IMPORT_IGES
100
AcDbCircle
 62
7
  6
CONTINUOUS
 10
-47.4999999992
 20
42.4999999999
 40
2.7999999944
100
AcDbArc
 50
90.0
 51
270.0
  0
ARC
  5
53A
100
AcDbEntity
  8
IMPORT_IGES
100
AcDbCircle
 62
7
  6
CONTINUOUS
 10
-42.4999999992
 20
42.4999999999
 40
1.7476348012
100
AcDbArc
 50
269.9999999992
 51
90.0000000005
  0
ARC
  5
53B
100
AcDbEntity
  8
IMPORT_IGES
100
AcDbCircle
 62
7
  6
CONTINUOUS
 10
-47.4999999992
 20
42.4999999999
 40
1.7476337112
100
AcDbArc
 50
89.9999999992
 51
270.0000000015
  0
ARC
  5
53C
100
AcDbEntity
  8
IMPORT_IGES
100
AcDbCircle
 62
250
  6
CONTINUOUS
 10
-66.861123148
 20
71.8611228091
 40
0.4998921089
100
AcDbArc
 50
89.9948476912
 51
180.0041086037
  0
CIRCLE
  5
53D
100
AcDbEntity
  8
IMPORT_IGES
100
AcDbCircle
 62
7
  6
CONTINUOUS
 10
0.0000000008
 20
-0.0000000001
 40
13.9999999737
  0
CIRCLE
  5
53E
100
AcDbEntity
  8
IMPORT_IGES
100
AcDbCircle
 62
7
  6
CONTINUOUS
 10
0.0000000008
 20
-0.0000000001
 40
13.9825449089
  0
CIRCLE
  5
53F
100
AcDbEntity
  8
IMPORT_IGES
100
AcDbCircle
 62
7
  6
CONTINUOUS
 10
0.0000000008
 20
-0.0000000001
 40
12.5
  0
ARC
  5
540
100
AcDbEntity
  8
IMPORT_IGES
100
AcDbCircle
 62
7
  6
CONTINUOUS
 10
-2.4999999993
 20
29.9999999999
 40
2.8
100
AcDbArc
 50
90.0
 51
270.0
  0
ARC
  5
541
100
AcDbEntity
  8
IMPORT_IGES
100
AcDbCircle
 62
7
  6
CONTINUOUS
 10
-26.3043722593
 20
29.6984848097
 40
2.8
100
AcDbArc
 50
314.9999999982
 51
135.0000000008
  0
ARC
  5
542
100
AcDbEntity
  8
IMPORT_IGES
100
AcDbCircle
 62
7
  6
CONTINUOUS
 10
-29.698484809
 20
26.30437226
 40
2.8
100
AcDbArc
 50
134.9999999996
 51
315.0000000017
  0
ARC
  5
543
100
AcDbEntity
  8
IMPORT_IGES
100
AcDbCircle
 62
7
  6
CONTINUOUS
 10
-29.9999999992
 20
2.4999999998
 40
2.8
100
AcDbArc
 50
0.0
 51
180.0
  0
ARC
  5
544
100
AcDbEntity
  8
IMPORT_IGES
100
AcDbCircle
 62
7
  6
CONTINUOUS
 10
-26.3043722593
 20
29.6984848097
 40
1.7615988538
100
AcDbArc
 50
0.0
 51
135.0000000002
  0
ARC
  5
545
100
AcDbEntity
  8
IMPORT_IGES
100
AcDbCircle
 62
7
  6
CONTINUOUS
 10
-29.698484809
 20
26.30437226
 40
1.7615988538
100
AcDbArc
 50
179.9999999998
 51
315.0000000004
  0
ARC
  5
546
100
AcDbEntity
  8
IMPORT_IGES
100
AcDbCircle
 62
7
  6
CONTINUOUS
 10
-29.9999999992
 20
2.4999999998
 40
1.7615988534
100
AcDbArc
 50
0.0
 51
180.0000000003
  0
ARC
  5
547
100
AcDbEntity
  8
IMPORT_IGES
100
AcDbCircle
 62
7
  6
CONTINUOUS
 10
-2.4999999993
 20
29.9999999999
 40
1.7615977689
100
AcDbArc
 50
89.9999999996
 51
270.0000000003
  0
ARC
  5
548
100
AcDbEntity
  8
IMPORT_IGES
100
AcDbCircle
 62
7
  6
CONTINUOUS
 10
-2.4999999993
 20
41.7999999999
 40
2.8
100
AcDbArc
 50
90.0
 51
270.0
  0
ARC
  5
549
100
AcDbEntity
  8
IMPORT_IGES
100
AcDbCircle
 62
7
  6
CONTINUOUS
 10
-2.4999999993
 20
41.7999999999
 40
1.7615977689
100
AcDbArc
 50
89.9999999996
 51
270.0000000003
  0
ARC
  5
54A
100
AcDbEntity
  8
IMPORT_IGES
100
AcDbCircle
 62
7
  6
CONTINUOUS
 10
47.5000000008
 20
-42.5000000001
 40
2.8174550593
100
AcDbArc
 50
269.9999999998
 51
90.0000000004
  0
ARC
  5
54B
100
AcDbEntity
  8
IMPORT_IGES
100
AcDbCircle
 62
7
  6
CONTINUOUS
 10
42.5000000008
 20
-42.5000000001
 40
2.8174550593
100
AcDbArc
 50
89.9999999994
 51
270.0000000004
  0
ARC
  5
54C
100
AcDbEntity
  8
IMPORT_IGES
100
AcDbCircle
 62
7
  6
CONTINUOUS
 10
30.0000000008
 20
-2.5000000002
 40
2.8
100
AcDbArc
 50
180.0
 51
360.0
  0
ARC
  5
54D
100
AcDbEntity
  8
IMPORT_IGES
100
AcDbCircle
 62
7
  6
CONTINUOUS
 10
41.8000000008
 20
-2.5000000002
 40
2.8
100
AcDbArc
 50
180.0
 51
360.0
  0
ARC
  5
54E
100
AcDbEntity
  8
IMPORT_IGES
100
AcDbCircle
 62
7
  6
CONTINUOUS
 10
2.5000000007
 20
-30.0000000001
 40
2.8
100
AcDbArc
 50
270.0
 51
90.0000000001
  0
ARC
  5
54F
100
AcDbEntity
  8
IMPORT_IGES
100
AcDbCircle
 62
7
  6
CONTINUOUS
 10
2.5000000007
 20
-41.8000000001
 40
2.8
100
AcDbArc
 50
270.0
 51
90.0000000001
  0
ARC
  5
550
100
AcDbEntity
  8
IMPORT_IGES
100
AcDbCircle
 62
7
  6
CONTINUOUS
 10
29.6984848106
 20
-26.3043722603
 40
2.8
100
AcDbArc
 50
314.9999999996
 51
135.000000002
  0
ARC
  5
551
100
AcDbEntity
  8
IMPORT_IGES
100
AcDbCircle
 62
7
  6
CONTINUOUS
 10
26.3043722609
 20
-29.69848481
 40
2.8
100
AcDbArc
 50
135.0000000316
 51
315.0000000371
  0
ARC
  5
552
100
AcDbEntity
  8
IMPORT_IGES
100
AcDbCircle
 62
7
  6
CONTINUOUS
 10
47.5000000008
 20
-42.5000000001
 40
2.7999999944
100
AcDbArc
 50
270.0
 51
90.0
  0
ARC
  5
553
100
AcDbEntity
  8
IMPORT_IGES
100
AcDbCircle
 62
7
  6
CONTINUOUS
 10
42.5000000008
 20
-42.5000000001
 40
2.7999999944
100
AcDbArc
 50
90.0
 51
270.0
  0
CIRCLE
  5
554
100
AcDbEntity
  8
IMPORT_IGES
100
AcDbCircle
 62
7
  6
CONTINUOUS
 10
45.0000000008
 20
-58.3953469426
 40
1.8
  0
ARC
  5
555
100
AcDbEntity
  8
IMPORT_IGES
100
AcDbCircle
 62
7
  6
CONTINUOUS
 10
29.6984848106
 20
-26.3043722603
 40
1.7615988538
100
AcDbArc
 50
0.0000000002
 51
135.0000000003
  0
ARC
  5
556
100
AcDbEntity
  8
IMPORT_IGES
100
AcDbCircle
 62
7
  6
CONTINUOUS
 10
26.3043722609
 20
-29.69848481
 40
1.7615988538
100
AcDbArc
 50
179.9999999999
 51
315.0000000162
  0
ARC
  5
557
100
AcDbEntity
  8
IMPORT_IGES
100
AcDbCircle
 62
7
  6
CONTINUOUS
 10
30.0000000008
 20
-2.5000000002
 40
1.7615988534
100
AcDbArc
 50
179.9999999996
 51
360.0
  0
ARC
  5
558
100
AcDbEntity
  8
IMPORT_IGES
100
AcDbCircle
 62
7
  6
CONTINUOUS
 10
41.8000000008
 20
-2.5000000002
 40
1.7615988534
100
AcDbArc
 50
179.9999999996
 51
360.0
  0
ARC
  5
559
100
AcDbEntity
  8
IMPORT_IGES
100
AcDbCircle
 62
7
  6
CONTINUOUS
 10
2.5000000007
 20
-30.0000000001
 40
1.7615977689
100
AcDbArc
 50
269.9999999996
 51
90.0000000009
  0
ARC
  5
55A
100
AcDbEntity
  8
IMPORT_IGES
100
AcDbCircle
 62
7
  6
CONTINUOUS
 10
2.5000000007
 20
-41.8000000001
 40
1.7615977689
100
AcDbArc
 50
269.9999999996
 51
90.0000000009
  0
ARC
  5
55B
100
AcDbEntity
  8
IMPORT_IGES
100
AcDbCircle
 62
7
  6
CONTINUOUS
 10
47.5000000008
 20
-42.5000000001
 40
1.7476348012
100
AcDbArc
 50
269.9999999992
 51
90.0000000005
  0
ARC
  5
55C
100
AcDbEntity
  8
IMPORT_IGES
100
AcDbCircle
 62
7
  6
CONTINUOUS
 10
42.5000000008
 20
-42.5000000001
 40
1.7476337112
100
AcDbArc
 50
89.9999999992
 51
270.0000000021
  0
ARC
  5
55D
100
AcDbEntity
  8
IMPORT_IGES
100
AcDbCircle
 62
7
  6
CONTINUOUS
 10
60.5000000008
 20
-59.9968600001
 40
1.25
100
AcDbArc
 50
156.6533687228
 51
203.3466678482
  0
ARC
  5
55E
100
AcDbEntity
  8
IMPORT_IGES
100
AcDbCircle
 62
7
  6
CONTINUOUS
 10
1.8500000008
 20
-73.1000000001
 40
0.8
100
AcDbArc
 50
270.0002603649
 51
359.9999999998
  0
ARC
  5
55F
100
AcDbEntity
  8
IMPORT_IGES
100
AcDbCircle
 62
7
  6
CONTINUOUS
 10
57.3523651956
 20
-62.3523651949
 40
0.5
100
AcDbArc
 50
270.0000000001
 51
359.9999999999
  0
ARC
  5
560
100
AcDbEntity
  8
IMPORT_IGES
100
AcDbCircle
 62
7
  6
CONTINUOUS
 10
40.8523651956
 20
-62.3523651949
 40
0.5
100
AcDbArc
 50
180.0000000008
 51
270.0
  0
ARC
  5
561
100
AcDbEntity
  8
IMPORT_IGES
100
AcDbCircle
 62
7
  6
CONTINUOUS
 10
40.8523651956
 20
-54.3523651949
 40
0.5
100
AcDbArc
 50
90.0000000008
 51
180.0000000001
  0
ARC
  5
562
100
AcDbEntity
  8
IMPORT_IGES
100
AcDbCircle
 62
7
  6
CONTINUOUS
 10
57.3523651956
 20
-54.3523651949
 40
0.5
100
AcDbArc
 50
0.0000000006
 51
89.9999999998
  0
ARC
  5
563
100
AcDbEntity
  8
IMPORT_IGES
100
AcDbCircle
 62
250
  6
CONTINUOUS
 10
66.8611233063
 20
-71.8611226394
 40
0.4998924634
100
AcDbArc
 50
269.9948389893
 51
0.0038685637
  0
ARC
  5
564
100
AcDbEntity
  8
IMPORT_IGES
100
AcDbCircle
 62
7
  6
CONTINUOUS
 10
40.8523651956
 20
-54.3523651949
 40
0.4563623377
100
AcDbArc
 50
90.0000000062
 51
179.9999999976
  0
ARC
  5
565
100
AcDbEntity
  8
IMPORT_IGES
100
AcDbCircle
 62
7
  6
CONTINUOUS
 10
40.8523651956
 20
-62.3523651949
 40
0.4563623377
100
AcDbArc
 50
180.0000000062
 51
270.0000000001
  0
ARC
  5
566
100
AcDbEntity
  8
IMPORT_IGES
100
AcDbCircle
 62
7
  6
CONTINUOUS
 10
57.3523651956
 20
-62.3523651949
 40
0.4563623377
100
AcDbArc
 50
269.9999999999
 51
360.0
  0
ARC
  5
567
100
AcDbEntity
  8
IMPORT_IGES
100
AcDbCircle
 62
7
  6
CONTINUOUS
 10
57.3523651956
 20
-54.3523651949
 40
0.4563623377
100
AcDbArc
 50
0.0
 51
89.9999999953
  0
ARC
  5
568
100
AcDbEntity
  8
IMPORT_IGES
100
AcDbCircle
 62
7
  6
CONTINUOUS
 10
47.5000000008
 20
42.4999999999
 40
2.8174550593
100
AcDbArc
 50
269.9999999998
 51
90.0000000004
  0
ARC
  5
569
100
AcDbEntity
  8
IMPORT_IGES
100
AcDbCircle
 62
7
  6
CONTINUOUS
 10
42.5000000008
 20
42.4999999999
 40
2.8174550593
100
AcDbArc
 50
89.9999999994
 51
270.0000000004
  0
ARC
  5
56A
100
AcDbEntity
  8
IMPORT_IGES
100
AcDbCircle
 62
7
  6
CONTINUOUS
 10
30.0000000008
 20
2.4999999998
 40
2.8
100
AcDbArc
 50
0.0
 51
180.0
  0
ARC
  5
56B
100
AcDbEntity
  8
IMPORT_IGES
100
AcDbCircle
 62
7
  6
CONTINUOUS
 10
41.8000000008
 20
2.4999999998
 40
2.8
100
AcDbArc
 50
0.0
 51
180.0
  0
ARC
  5
56C
100
AcDbEntity
  8
IMPORT_IGES
100
AcDbCircle
 62
7
  6
CONTINUOUS
 10
29.6984848106
 20
26.30437226
 40
2.8
100
AcDbArc
 50
224.9999999995
 51
45.0000000014
  0
ARC
  5
56D
100
AcDbEntity
  8
IMPORT_IGES
100
AcDbCircle
 62
7
  6
CONTINUOUS
 10
26.3043722609
 20
29.6984848096
 40
2.8
100
AcDbArc
 50
44.9999999676
 51
224.9999999635
  0
ARC
  5
56E
100
AcDbEntity
  8
IMPORT_IGES
100
AcDbCircle
 62
7
  6
CONTINUOUS
 10
2.5000000007
 20
41.7999999999
 40
2.8
100
AcDbArc
 50
270.0
 51
90.0
  0
ARC
  5
56F
100
AcDbEntity
  8
IMPORT_IGES
100
AcDbCircle
 62
7
  6
CONTINUOUS
 10
2.5000000007
 20
29.9999999999
 40
2.8
100
AcDbArc
 50
270.0
 51
90.0
  0
ARC
  5
570
100
AcDbEntity
  8
IMPORT_IGES
100
AcDbCircle
 62
7
  6
CONTINUOUS
 10
47.5000000008
 20
42.4999999999
 40
2.7999999944
100
AcDbArc
 50
270.0
 51
90.0
  0
ARC
  5
571
100
AcDbEntity
  8
IMPORT_IGES
100
AcDbCircle
 62
7
  6
CONTINUOUS
 10
42.5000000008
 20
42.4999999999
 40
2.7999999944
100
AcDbArc
 50
90.0
 51
270.0
  0
ARC
  5
572
100
AcDbEntity
  8
IMPORT_IGES
100
AcDbCircle
 62
7
  6
CONTINUOUS
 10
29.6984848106
 20
26.30437226
 40
1.7615988538
100
AcDbArc
 50
224.9999999992
 51
360.0
  0
ARC
  5
573
100
AcDbEntity
  8
IMPORT_IGES
100
AcDbCircle
 62
7
  6
CONTINUOUS
 10
26.3043722609
 20
29.6984848096
 40
1.7615988538
100
AcDbArc
 50
44.9999999944
 51
180.0000000001
  0
ARC
  5
574
100
AcDbEntity
  8
IMPORT_IGES
100
AcDbCircle
 62
7
  6
CONTINUOUS
 10
30.0000000008
 20
2.4999999998
 40
1.7615988534
100
AcDbArc
 50
0.0
 51
180.0000000003
  0
ARC
  5
575
100
AcDbEntity
  8
IMPORT_IGES
100
AcDbCircle
 62
7
  6
CONTINUOUS
 10
41.8000000008
 20
2.4999999998
 40
1.7615988534
100
AcDbArc
 50
0.0
 51
180.0000000008
  0
ARC
  5
576
100
AcDbEntity
  8
IMPORT_IGES
100
AcDbCircle
 62
7
  6
CONTINUOUS
 10
2.5000000007
 20
41.7999999999
 40
1.7615977689
100
AcDbArc
 50
269.9999999996
 51
90.0000000009
  0
ARC
  5
577
100
AcDbEntity
  8
IMPORT_IGES
100
AcDbCircle
 62
7
  6
CONTINUOUS
 10
2.5000000007
 20
29.9999999999
 40
1.7615977689
100
AcDbArc
 50
269.9999999996
 51
90.0000000009
  0
ARC
  5
578
100
AcDbEntity
  8
IMPORT_IGES
100
AcDbCircle
 62
7
  6
CONTINUOUS
 10
47.5000000008
 20
42.4999999999
 40
1.7476337112
100
AcDbArc
 50
269.9999999992
 51
90.0000000008
  0
ARC
  5
579
100
AcDbEntity
  8
IMPORT_IGES
100
AcDbCircle
 62
7
  6
CONTINUOUS
 10
42.5000000008
 20
42.4999999999
 40
1.7476337112
100
AcDbArc
 50
89.9999999992
 51
270.0000000021
  0
ARC
  5
57A
100
AcDbEntity
  8
IMPORT_IGES
100
AcDbCircle
 62
250
  6
CONTINUOUS
 10
66.8611226401
 20
71.8611233054
 40
0.4998924633
100
AcDbArc
 50
359.9948393104
 51
90.0038688246
  0
ELLIPSE
  5
57B
100
AcDbEntity
  8
IMPORT_IGES
100
AcDbEllipse
 62
7
  6
CONTINUOUS
 10
-45.9301903734
 20
73.1745504797
 30
0.0
 11
0.0
 21
4.0000000001
 31
0.0
 40
0.0174550649
 41
-4.6949357302
 42
-4.6623669039
  0
ELLIPSE
  5
57C
100
AcDbEntity
  8
IMPORT_IGES
100
AcDbEllipse
 62
7
  6
CONTINUOUS
 10
-34.069809625
 20
73.1745504797
 30
0.0
 11
0.0
 21
4.0000000001
 31
0.0
 40
0.0174550649
 41
-1.6208184033
 42
-1.588249577
  0
ELLIPSE
  5
57D
100
AcDbEntity
  8
IMPORT_IGES
100
AcDbEllipse
 62
7
  6
CONTINUOUS
 10
34.0698096266
 20
73.1745504797
 30
0.0
 11
0.0
 21
4.0000000001
 31
0.0
 40
0.0174550649
 41
-4.6949357302
 42
-4.6623669039
  0
ELLIPSE
  5
57E
100
AcDbEntity
  8
IMPORT_IGES
100
AcDbEllipse
 62
7
  6
CONTINUOUS
 10
45.930190375
 20
73.1745504797
 30
0.0
 11
0.0
 21
4.0000000001
 31
0.0
 40
0.0174550649
 41
-1.6208184033
 42
-1.588249577
  0
ELLIPSE
  5
57F
100
AcDbEntity
  8
IMPORT_IGES
100
AcDbEllipse
 62
7
  6
CONTINUOUS
 10
-33.9542477957
 20
-72.9204399481
 30
0.0
 11
0.9
 21
0.0
 31
0.0
 40
0.0174550649
 41
0.0174532925
 42
1.5707963268
  0
ELLIPSE
  5
580
100
AcDbEntity
  8
IMPORT_IGES
100
AcDbEllipse
 62
7
  6
CONTINUOUS
 10
-34.0457522027
 20
-72.9204399481
 30
0.0
 11
0.9
 21
-0.0
 31
0.0
 40
0.0174550649
 41
1.5707963268
 42
3.1241393611
  0
ELLIPSE
  5
581
100
AcDbEntity
  8
IMPORT_IGES
100
AcDbEllipse
 62
7
  6
CONTINUOUS
 10
-45.9542477957
 20
-72.9204399481
 30
0.0
 11
0.9
 21
0.0
 31
0.0
 40
0.0174550649
 41
0.0174532925
 42
1.5707963268
  0
ELLIPSE
  5
582
100
AcDbEntity
  8
IMPORT_IGES
100
AcDbEllipse
 62
7
  6
CONTINUOUS
 10
-46.0457522027
 20
-72.9204399481
 30
0.0
 11
0.9
 21
0.0
 31
0.0
 40
0.0174550649
 41
1.5707963268
 42
3.1241393611
  0
ELLIPSE
  5
583
100
AcDbEntity
  8
IMPORT_IGES
100
AcDbEllipse
 62
7
  6
CONTINUOUS
 10
33.9542477973
 20
-72.9204399481
 30
0.0
 11
0.9
 21
0.0
 31
0.0
 40
0.0174550649
 41
1.5707963268
 42
3.1241393611
  0
ELLIPSE
  5
584
100
AcDbEntity
  8
IMPORT_IGES
100
AcDbEllipse
 62
7
  6
CONTINUOUS
 10
34.0457522043
 20
-72.9204399481
 30
0.0
 11
0.9
 21
0.0
 31
0.0
 40
0.0174550649
 41
0.0174532925
 42
1.5707963268
  0
ELLIPSE
  5
585
100
AcDbEntity
  8
IMPORT_IGES
100
AcDbEllipse
 62
7
  6
CONTINUOUS
 10
45.9542477973
 20
-72.9204399481
 30
0.0
 11
0.9
 21
-0.0
 31
0.0
 40
0.0174550649
 41
1.5707963268
 42
3.1241393611
  0
ELLIPSE
  5
586
100
AcDbEntity
  8
IMPORT_IGES
100
AcDbEllipse
 62
7
  6
CONTINUOUS
 10
46.0457522043
 20
-72.9204399481
 30
0.0
 11
0.9
 21
-0.0
 31
0.0
 40
0.0174550649
 41
0.0174532925
 42
1.5707963268
  0
ELLIPSE
  5
587
100
AcDbEntity
  8
IMPORT_IGES
100
AcDbEllipse
 62
7
  6
CONTINUOUS
 10
-67.6744744845
 20
-72.6744744854
 30
0.0
 11
0.3536610946
 21
0.3536610946
 31
0.0
 40
0.9996954599
 41
2.3563467834
 42
3.9268385237
  0
ELLIPSE
  5
588
100
AcDbEntity
  8
IMPORT_IGES
100
AcDbEllipse
 62
7
  6
CONTINUOUS
 10
-67.6744744845
 20
72.6744744851
 30
0.0
 11
0.3536610946
 21
-0.3536610946
 31
0.0
 40
0.9996954599
 41
2.3563467834
 42
3.9268385237
  0
ELLIPSE
  5
589
100
AcDbEntity
  8
IMPORT_IGES
100
AcDbEllipse
 62
7
  6
CONTINUOUS
 10
67.4999238368
 20
72.4999238359
 30
0.0
 11
0.3536610946
 21
0.3536610946
 31
0.0
 40
0.9996954599
 41
-0.7852458701
 42
0.7852458701
  0
ELLIPSE
  5
58A
100
AcDbEntity
  8
IMPORT_IGES
100
AcDbEllipse
 62
7
  6
CONTINUOUS
 10
67.4999238368
 20
-72.4999238361
 30
0.0
 11
-0.3536610946
 21
0.3536610946
 31
0.0
 40
0.9996954599
 41
-3.9268385237
 42
-2.3563467834
  0
ELLIPSE
  5
58B
100
AcDbEntity
  8
IMPORT_IGES
100
AcDbEllipse
 62
7
  6
CONTINUOUS
 10
-67.4999238352
 20
-72.4999238361
 30
0.0
 11
0.3536610946
 21
0.3536610946
 31
0.0
 40
0.9996954599
 41
2.3563467834
 42
3.9268385237
  0
ELLIPSE
  5
58C
100
AcDbEntity
  8
IMPORT_IGES
100
AcDbEllipse
 62
7
  6
CONTINUOUS
 10
-67.4999238352
 20
72.4999238359
 30
0.0
 11
0.3536610946
 21
-0.3536610946
 31
0.0
 40
0.9996954599
 41
2.3563467835
 42
3.9268385237
  0
ELLIPSE
  5
58D
100
AcDbEntity
  8
IMPORT_IGES
100
AcDbEllipse
 62
7
  6
CONTINUOUS
 10
67.674474486
 20
72.6744744851
 30
0.0
 11
0.3536610946
 21
0.3536610946
 31
0.0
 40
0.9996954599
 41
-0.7852458701
 42
0.7852458701
  0
ELLIPSE
  5
58E
100
AcDbEntity
  8
IMPORT_IGES
100
AcDbEllipse
 62
7
  6
CONTINUOUS
 10
67.674474486
 20
-72.6744744854
 30
0.0
 11
-0.3536610946
 21
0.3536610946
 31
0.0
 40
0.9996954599
 41
-3.9268385237
 42
-2.3563467834
  0
ELLIPSE
  5
58F
100
AcDbEntity
  8
IMPORT_IGES
100
AcDbEllipse
 62
7
  6
CONTINUOUS
 10
-42.183278181
 20
-72.3610165633
 30
0.0
 11
-0.0
 21
0.5
 31
0.0
 40
0.0174550649
 41
-4.7123889804
 42
-3.159045946
  0
ELLIPSE
  5
590
100
AcDbEntity
  8
IMPORT_IGES
100
AcDbEllipse
 62
7
  6
CONTINUOUS
 10
-37.8167218175
 20
-72.3610165633
 30
0.0
 11
-0.0
 21
0.5
 31
0.0
 40
0.0174550649
 41
-3.1241393612
 42
-1.5707963268
  0
ELLIPSE
  5
591
100
AcDbEntity
  8
IMPORT_IGES
100
AcDbEllipse
 62
7
  6
CONTINUOUS
 10
37.816721819
 20
-72.3610165633
 30
0.0
 11
-0.0
 21
0.5
 31
0.0
 40
0.0174550649
 41
1.5707963268
 42
3.1241393612
  0
ELLIPSE
  5
592
100
AcDbEntity
  8
IMPORT_IGES
100
AcDbEllipse
 62
7
  6
CONTINUOUS
 10
42.1832781825
 20
-72.3610165633
 30
0.0
 11
0.0
 21
0.5
 31
0.0
 40
0.0174550649
 41
-3.1241393612
 42
-1.5707963268
  0
ENDSEC
  0
SECTION
  2
OBJECTS
  0
DICTIONARY
  5
C
100
AcDbDictionary
280
0
281
1
  3
ACAD_GROUP
350
D
  3
ACAD_MLINESTYLE
350
17
  3
ACAD_LAYOUT
350
1A
  3
ACAD_PLOTSETTINGS
350
19
  3
ACAD_PLOTSTYLENAME
350
E
  0
DICTIONARY
  5
D
102
{ACAD_REACTORS
330
C
102
}
100
AcDbDictionary
280
0
281
1
  0
ACDBDICTIONARYWDFLT
  5
E
102
{ACAD_REACTORS
330
C
102
}
100
AcDbDictionary
281
1
  3
Normal
350
F
100
AcDbDictionaryWithDefault
340
F
  0
DICTIONARY
  5
17
102
{ACAD_REACTORS
330
C
102
}
100
AcDbDictionary
280
0
281
1
  3
Standard
350
18
  0
DICTIONARY
  5
19
102
{ACAD_REACTORS
330
C
102
}
100
AcDbDictionary
281
1
  0
DICTIONARY
  5
1A
102
{ACAD_REACTORS
330
C
102
}
100
AcDbDictionary
281
1
  3
Model
350
593
  3
Layout1
350
594
  0
ACDBPLACEHOLDER
  5
F
102
{ACAD_REACTORS
330
E
102
}
  0
MLINESTYLE
  5
18
102
{ACAD_REACTORS
330
17
102
}
100
AcDbMlineStyle
  2
STANDARD
 70
0
  3

 62
256
 51
90.0
 52
90.0
 71
2
 49
0.5
 62
256
  6
BYLAYER
 49
-0.5
 62
256
  6
BYLAYER
  0
LAYOUT
  5
593
102
{ACAD_REACTORS
330
1A
102
}
100
AcDbPlotSettings
  1

  2
none_device
  4
ISO_A4_(297.00_x_210.00_MM)
  6

 40
0.0
 41
0.0
 42
0.0
 43
0.0
 44
297.0
 45
210.0
 46
0.0
 47
0.0
 48
0.0
 49
0.0
140
0.0
141
0.0
142
1.0
143
1.0
 70
1024
 72
1
 73
0
 74
0
  7

 75
0
147
1.0
148
0.0
149
0.0
100
AcDbLayout
  1
Model
 70
0
 71
0
 10
0.0
 20
0.0
 11
297.0
 21
210.0
 12
0.0
 22
0.0
 32
0.0
 14
0.0
 24
0.0
 34
0.0
 15
0.0
 25
0.0
 35
0.0
146
0.0
 13
0.0
 23
0.0
 33
0.0
 16
1.0
 26
0.0
 36
0.0
 17
0.0
 27
1.0
 37
0.0
 76
0
330
2C4
345
0
346
0
  0
LAYOUT
  5
594
102
{ACAD_REACTORS
330
1A
102
}
100
AcDbPlotSettings
  1

  2
none_device
  4
ISO_A4_(297.00_x_210.00_MM)
  6

 40
0.0
 41
0.0
 42
0.0
 43
0.0
 44
297.0
 45
210.0
 46
0.0
 47
0.0
 48
0.0
 49
0.0
140
0.0
141
0.0
142
1.0
143
1.0
 70
0
 72
1
 73
0
 74
0
  7

 75
0
147
1.0
148
0.0
149
0.0
100
AcDbLayout
  1
Layout1
 70
0
 71
1
 10
0.0
 20
0.0
 11
297.0
 21
210.0
 12
0.0
 22
0.0
 32
0.0
 14
0.0
 24
0.0
 34
0.0
 15
0.0
 25
0.0
 35
0.0
146
0.0
 13
0.0
 23
0.0
 33
0.0
 16
1.0
 26
0.0
 36
0.0
 17
0.0
 27
1.0
 37
0.0
 76
0
330
2C5
345
0
346
0
  0
ENDSEC
  0
EOF
