  0
SECTION
  2
HEADER
  9
$ACADVER
  1
AC1024
  9
$DWGCODEPAGE
  3
ANSI_1252
  9
$EXTMAX
 10
420.0
 20
297.0
 30
0.0
  9
$EXTMIN
 10
0.0
 20
-0.0
 30
0.0
  9
$LIMMIN
 10
0.0
 20
-0.0
  9
$LIMMAX
 10
420.0
 20
297.0
  9
$VIEWCTR
 10
210.0
 20
148.5
  9
$VIEWSIZE
 40
297.0
  9
$CLAYER
  8
0
  9
$LTSCALE
 40
23.1
  9
$CELTYPE
  6
BYLAYER
  9
$DIMSCALE
 40
1.0
  9
$DIMASZ
 40
3.0
  9
$DIMEXO
 40
0.5
  9
$DIMDLI
 40
15.96
  9
$DIMEXE
 40
1.5
  9
$DIMCEN
 40
3.78
  9
$DIMLFAC
 40
1.0
  9
$DIMBLK
  1
_FILLED
  9
$DIMALT
 70
0
  9
$DIMALTF
 40
0.0393700787
  9
$DIMTXT
 40
3.0
  9
$DIMTOL
 70
1
  9
$DIMLIM
 70
0
  9
$DIMTFAC
 40
1.0
  9
$DIMTP
 40
0.01
  9
$DIMTM
 40
0.01
  9
$DIMGAP
 40
0.625
  9
$DIMDSEP
 70
44
  9
$AUNITS
 70
0
  9
$PDMODE
 70
3
  9
$PDSIZE
 40
3.0
  9
$HANDSEED
  5
39A
  9
$TILEMODE
 70
1
  9
$MEASUREMENT
 70
1
  9
$INSUNITS
 70
4
  0
ENDSEC
  0
SECTION
  2
CLASSES
  0
CLASS
  1
ACDBDICTIONARYWDFLT
  2
AcDbDictionaryWithDefault
  3
AutoCAD 2000
 90
0
 91
1
280
0
281
0
  0
CLASS
  1
ACDBPLACEHOLDER
  2
AcDbPlaceHolder
  3
AutoCAD 2000
 90
0
 91
1
280
0
281
0
  0
CLASS
  1
LAYOUT
  2
AcDbLayout
  3
AutoCAD 2000
 90
0
 91
0
280
0
281
0
  0
ENDSEC
  0
SECTION
  2
TABLES
  0
TABLE
  2
VPORT
  5
8
100
AcDbSymbolTable
 70
2
  0
VPORT
  5
1F4
100
AcDbSymbolTableRecord
100
AcDbViewportTableRecord
  2
*ACTIVE
 70
0
 10
0.0
 20
0.0
 11
1.0
 21
1.0
 12
210.0
 22
148.5
 13
0.0
 23
0.0
 14
1.0
 24
1.0
 15
0.0
 25
0.0
 16
0.0
 26
0.0
 36
1.0
 17
0.0
 27
0.0
 37
0.0
 40
297.0
 41
1.4141414141
 42
50.0
 43
0.0
 44
0.0
 50
0.0
 51
0.0
 71
0
 72
100
 73
1
 74
1
 75
0
 76
0
 77
0
 78
0
  0
ENDTAB
  0
TABLE
  2
LTYPE
  5
5
100
AcDbSymbolTable
 70
6
  0
LTYPE
  5
14
100
AcDbSymbolTableRecord
100
AcDbLinetypeTableRecord
  2
BYBLOCK
 70
0
  3

 72
65
 73
0
 40
0.0
  0
LTYPE
  5
15
100
AcDbSymbolTableRecord
100
AcDbLinetypeTableRecord
  2
BYLAYER
 70
0
  3

 72
65
 73
0
 40
0.0
  0
LTYPE
  5
16
100
AcDbSymbolTableRecord
100
AcDbLinetypeTableRecord
  2
CONTINUOUS
 70
64
  3
Solid line
 72
65
 73
0
 40
0.0
  0
LTYPE
  5
1F5
100
AcDbSymbolTableRecord
100
AcDbLinetypeTableRecord
  2
CENTER
 70
64
  3
____ _ ____ _ ____ _ ____ _ ____ _ ____ _ ____
 72
65
 73
4
 40
0.6
 49
0.375
 74
0
 49
-0.075
 74
0
 49
0.075
 74
0
 49
-0.075
 74
0
  0
LTYPE
  5
1F6
100
AcDbSymbolTableRecord
100
AcDbLinetypeTableRecord
  2
HIDDEN
 70
64
  3
- - - - - - - - - - - - - - - - - - - -
 72
65
 73
2
 40
0.2
 49
0.1
 74
0
 49
-0.1
 74
0
  0
LTYPE
  5
1F7
100
AcDbSymbolTableRecord
100
AcDbLinetypeTableRecord
  2
PHANTOM
 70
64
  3
_____ _ _ _____ _ _ _____ _ _ _____
 72
65
 73
6
 40
0.8
 49
0.45
 74
0
 49
-0.05
 74
0
 49
0.1
 74
0
 49
-0.05
 74
0
 49
0.1
 74
0
 49
-0.05
 74
0
  0
LTYPE
  5
1F8
100
AcDbSymbolTableRecord
100
AcDbLinetypeTableRecord
  2
DOT
 70
64
  3
. . . . . . . . . . . . . . . . . . . .
 72
65
 73
2
 40
0.2
 49
0.1
 74
0
 49
-0.1
 74
0
  0
LTYPE
  5
1F9
100
AcDbSymbolTableRecord
100
AcDbLinetypeTableRecord
  2
DASHED
 70
64
  3
- - - - - - - - - - - - - - - - - - - -
 72
65
 73
2
 40
0.2
 49
0.1
 74
0
 49
-0.1
 74
0
  0
ENDTAB
  0
TABLE
  2
LAYER
  5
2
100
AcDbSymbolTable
 70
36
  0
LAYER
  5
10
100
AcDbSymbolTableRecord
100
AcDbLayerTableRecord
  2
0
 70
0
 62
7
  6
CONTINUOUS
370
-3
390
F
  0
LAYER
  5
1FA
100
AcDbSymbolTableRecord
100
AcDbLayerTableRecord
  2
DEFAULT_1
 70
0
 62
7
  6
CENTER
370
-3
390
F
  0
LAYER
  5
1FB
100
AcDbSymbolTableRecord
100
AcDbLayerTableRecord
  2
DEFAULT_2
 70
0
 62
7
  6
HIDDEN
370
-3
390
F
  0
LAYER
  5
1FC
100
AcDbSymbolTableRecord
100
AcDbLayerTableRecord
  2
DEFAULT_3
 70
0
 62
7
  6
PHANTOM
370
-3
390
F
  0
LAYER
  5
1FD
100
AcDbSymbolTableRecord
100
AcDbLayerTableRecord
  2
03822_IN248_IB200
 70
0
 62
7
  6
CONTINUOUS
370
-3
390
F
  0
LAYER
  5
1FE
100
AcDbSymbolTableRecord
100
AcDbLayerTableRecord
  2
ASSI
 70
0
 62
7
  6
CONTINUOUS
370
-3
390
F
  0
LAYER
  5
1FF
100
AcDbSymbolTableRecord
100
AcDbLayerTableRecord
  2
BOARD
 70
0
 62
7
  6
CONTINUOUS
370
-3
390
F
  0
LAYER
  5
200
100
AcDbSymbolTableRecord
100
AcDbLayerTableRecord
  2
COLOR88
 70
0
 62
7
  6
CONTINUOUS
370
-3
390
F
  0
LAYER
  5
201
100
AcDbSymbolTableRecord
100
AcDbLayerTableRecord
  2
COORDINATE
 70
0
 62
7
  6
CONTINUOUS
370
-3
390
F
  0
LAYER
  5
202
100
AcDbSymbolTableRecord
100
AcDbLayerTableRecord
  2
COPY_PUBLISH
 70
0
 62
7
  6
CONTINUOUS
370
-3
390
F
  0
LAYER
  5
203
100
AcDbSymbolTableRecord
100
AcDbLayerTableRecord
  2
COSMETICI
 70
0
 62
7
  6
CONTINUOUS
370
-3
390
F
  0
LAYER
  5
204
100
AcDbSymbolTableRecord
100
AcDbLayerTableRecord
  2
CURVE
 70
0
 62
7
  6
CONTINUOUS
370
-3
390
F
  0
LAYER
  5
205
100
AcDbSymbolTableRecord
100
AcDbLayerTableRecord
  2
DRAFT
 70
0
 62
7
  6
CONTINUOUS
370
-3
390
F
  0
LAYER
  5
206
100
AcDbSymbolTableRecord
100
AcDbLayerTableRecord
  2
GUSCIO-INF_IB200P
 70
0
 62
7
  6
CONTINUOUS
370
-3
390
F
  0
LAYER
  5
207
100
AcDbSymbolTableRecord
100
AcDbLayerTableRecord
  2
GUSCIO-SUP_IB200P
 70
0
 62
7
  6
CONTINUOUS
370
-3
390
F
  0
LAYER
  5
208
100
AcDbSymbolTableRecord
100
AcDbLayerTableRecord
  2
IMPORT_IGES
 70
0
 62
7
  6
CONTINUOUS
370
-3
390
F
  0
LAYER
  5
209
100
AcDbSymbolTableRecord
100
AcDbLayerTableRecord
  2
IN248-R1_0_VIMAR_2
 70
0
 62
7
  6
CONTINUOUS
370
-3
390
F
  0
LAYER
  5
20A
100
AcDbSymbolTableRecord
100
AcDbLayerTableRecord
  2
INTF_YELLOW
 70
0
 62
7
  6
CONTINUOUS
370
-3
390
F
  0
LAYER
  5
20B
100
AcDbSymbolTableRecord
100
AcDbLayerTableRecord
  2
NOTE
 70
0
 62
7
  6
CONTINUOUS
370
-3
390
F
  0
LAYER
  5
20C
100
AcDbSymbolTableRecord
100
AcDbLayerTableRecord
  2
PIANI
 70
0
 62
7
  6
CONTINUOUS
370
-3
390
F
  0
LAYER
  5
20D
100
AcDbSymbolTableRecord
100
AcDbLayerTableRecord
  2
PUNTI
 70
0
 62
7
  6
CONTINUOUS
370
-3
390
F
  0
LAYER
  5
20E
100
AcDbSymbolTableRecord
100
AcDbLayerTableRecord
  2
RACCORDO
 70
0
 62
7
  6
CONTINUOUS
370
-3
390
F
  0
LAYER
  5
20F
100
AcDbSymbolTableRecord
100
AcDbLayerTableRecord
  2
SIMBOLI
 70
0
 62
7
  6
CONTINUOUS
370
-3
390
F
  0
LAYER
  5
210
100
AcDbSymbolTableRecord
100
AcDbLayerTableRecord
  2
SMUSSO
 70
0
 62
7
  6
CONTINUOUS
370
-3
390
F
  0
LAYER
  5
211
100
AcDbSymbolTableRecord
100
AcDbLayerTableRecord
  2
SUPERFICI
 70
0
 62
7
  6
CONTINUOUS
370
-3
390
F
  0
LAYER
  5
212
100
AcDbSymbolTableRecord
100
AcDbLayerTableRecord
  2
TOP_SILK
 70
0
 62
7
  6
CONTINUOUS
370
-3
390
F
  0
LAYER
  5
213
100
AcDbSymbolTableRecord
100
AcDbLayerTableRecord
  2
TRASH
 70
0
 62
7
  6
CONTINUOUS
370
-3
390
F
  0
LAYER
  5
214
100
AcDbSymbolTableRecord
100
AcDbLayerTableRecord
  2
WHITE
 70
0
 62
7
  6
CONTINUOUS
370
-3
390
F
  0
LAYER
  5
215
100
AcDbSymbolTableRecord
100
AcDbLayerTableRecord
  2
___SHELL
 70
0
 62
7
  6
CONTINUOUS
370
-3
390
F
  0
ENDTAB
  0
TABLE
  2
STYLE
  5
3
100
AcDbSymbolTable
 70
1
  0
STYLE
  5
11
100
AcDbSymbolTableRecord
100
AcDbTextStyleTableRecord
  2
STANDARD
 70
0
 40
0.0
 41
0.8
 50
0.0
 71
0
 42
0.2
  3
txt
  4

  0
STYLE
  5
216
100
AcDbSymbolTableRecord
100
AcDbTextStyleTableRecord
  2
TEXTSTYLE_1
 70
0
 40
0.0
 41
0.8
 50
0.0
 71
0
 42
0.2
  3
gdt
  4

  0
ENDTAB
  0
TABLE
  2
VIEW
  5
6
100
AcDbSymbolTable
 70
0
  0
ENDTAB
  0
TABLE
  2
UCS
  5
7
100
AcDbSymbolTable
 70
0
  0
ENDTAB
  0
TABLE
  2
APPID
  5
9
100
AcDbSymbolTable
 70
1
  0
APPID
  5
217
100
AcDbSymbolTableRecord
100
AcDbRegAppTableRecord
  2
ACAD
 70
0
  0
ENDTAB
  0
TABLE
  2
BLOCK_RECORD
  5
1
100
AcDbSymbolTable
 70
0
  0
BLOCK_RECORD
  5
218
100
AcDbSymbolTableRecord
100
AcDbBlockTableRecord
  2
*Model_Space
  0
BLOCK_RECORD
  5
219
100
AcDbSymbolTableRecord
100
AcDbBlockTableRecord
  2
*Paper_Space
  0
BLOCK_RECORD
  5
21A
100
AcDbSymbolTableRecord
100
AcDbBlockTableRecord
  2
_FILLED
  0
ENDTAB
  0
TABLE
  2
DIMSTYLE
  5
A
100
AcDbSymbolTable
 70
1
100
AcDbDimStyleTable
 71
0
  0
DIMSTYLE
105
21B
100
AcDbSymbolTableRecord
100
AcDbDimStyleTableRecord
  2
STANDARD
 70
0
  3

  4

 40
1.0
 41
3.0
 42
0.5
 43
0.38
 44
1.5
 45
0.0
 46
0.0
 47
0.01
 48
0.01
140
3.0
141
0.09
142
0.0
143
25.4
144
1.0
145
0.0
146
1.0
147
0.625
 71
1
 72
0
 73
0
 74
0
 75
0
 76
0
 77
1
 78
8
 79
2
170
0
171
1
172
0
173
0
174
0
175
0
176
0
177
0
178
0
270
2
179
2
271
2
272
2
273
2
274
2
275
0
280
0
281
0
282
0
283
1
284
8
285
0
286
0
287
3
288
0
340
11
278
44
341
21A
342
21A
343
21A
344
21A
  0
ENDTAB
  0
ENDSEC
  0
SECTION
  2
BLOCKS
  0
BLOCK
  5
20
100
AcDbEntity
  8
0
100
AcDbBlockBegin
  2
*Model_Space
 70
0
 10
0.0
 20
0.0
 30
0.0
  3
*Model_Space
  1

  0
ENDBLK
  5
21
100
AcDbEntity
  8
0
100
AcDbBlockEnd
  0
BLOCK
  5
1C
100
AcDbEntity
  8
0
100
AcDbBlockBegin
  2
*Paper_Space
 70
0
 10
0.0
 20
0.0
 30
0.0
  3
*Paper_Space
  1

  0
ENDBLK
  5
1D
100
AcDbEntity
  8
0
100
AcDbBlockEnd
  0
BLOCK
  5
21C
100
AcDbEntity
  8
0
100
AcDbBlockBegin
  2
_FILLED
 70
64
 10
0.0
 20
0.0
  3
_FILLED
  1

  0
SOLID
  5
21D
100
AcDbEntity
  8
0
  6
BYBLOCK
 62
0
100
AcDbTrace
 10
0.0
 20
0.0
 11
-1.0
 21
0.3166666667
 12
-1.0
 22
-0.3166666667
 13
-1.0
 23
-0.3166666667
  0
ENDBLK
  5
21E
100
AcDbEntity
  8
0
  6
BYBLOCK
 62
0
100
AcDbBlockEnd
  0
ENDSEC
  0
SECTION
  2
ENTITIES
  0
LINE
  5
21F
100
AcDbEntity
  8
IMPORT_IGES
100
AcDbLine
 62
7
  6
CONTINUOUS
 10
-62.9268626458
 20
28.7705247607
 11
-62.9242780383
 21
28.6826775671
  0
LINE
  5
220
100
AcDbEntity
  8
IMPORT_IGES
100
AcDbLine
 62
7
  6
CONTINUOUS
 10
-62.426865057
 20
28.7705824309
 11
-62.4242791008
 21
28.6827066053
  0
LINE
  5
221
100
AcDbEntity
  8
IMPORT_IGES
100
AcDbLine
 62
7
  6
CONTINUOUS
 10
-62.9242780383
 20
28.6826775671
 11
-62.9218828208
 21
28.5783017047
  0
LINE
  5
222
100
AcDbEntity
  8
IMPORT_IGES
100
AcDbLine
 62
7
  6
CONTINUOUS
 10
-62.4242791008
 20
28.6827066053
 11
-62.4218822872
 21
28.5782714141
  0
LINE
  5
223
100
AcDbEntity
  8
IMPORT_IGES
100
AcDbLine
 62
7
  6
CONTINUOUS
 10
-62.9218828208
 20
28.5783017047
 11
-62.9187229502
 21
28.3940923852
  0
LINE
  5
224
100
AcDbEntity
  8
IMPORT_IGES
100
AcDbLine
 62
7
  6
CONTINUOUS
 10
-62.4218822872
 20
28.5782714141
 11
-62.4187205327
 21
28.3939344485
  0
LINE
  5
225
100
AcDbEntity
  8
IMPORT_IGES
100
AcDbLine
 62
7
  6
CONTINUOUS
 10
-62.9187229502
 20
28.3940923852
 11
-62.9154546384
 21
28.1054769825
  0
LINE
  5
226
100
AcDbEntity
  8
IMPORT_IGES
100
AcDbLine
 62
7
  6
CONTINUOUS
 10
-62.4187205327
 20
28.3939344485
 11
-62.4154515908
 21
28.1051584906
  0
LINE
  5
227
100
AcDbEntity
  8
IMPORT_IGES
100
AcDbLine
 62
7
  6
CONTINUOUS
 10
-62.9154546384
 20
28.1054769825
 11
-62.9134171526
 21
27.7812309998
  0
LINE
  5
228
100
AcDbEntity
  8
IMPORT_IGES
100
AcDbLine
 62
7
  6
CONTINUOUS
 10
-62.4154515908
 20
28.1051584906
 11
-62.4134157028
 21
27.7809183469
  0
LINE
  5
229
100
AcDbEntity
  8
IMPORT_IGES
100
AcDbLine
 62
7
  6
CONTINUOUS
 10
-63.0349101299
 20
29.0349101299
 11
-63.0349101299
 21
-29.0349101299
  0
LINE
  5
22A
100
AcDbEntity
  8
IMPORT_IGES
100
AcDbLine
 62
7
  6
CONTINUOUS
 10
-62.9134171526
 20
27.7812309998
 11
-62.9127245467
 21
-27.4386944213
  0
LINE
  5
22B
100
AcDbEntity
  8
IMPORT_IGES
100
AcDbLine
 62
7
  6
CONTINUOUS
 10
-62.5349070236
 20
38.5351385364
 11
-62.5349101299
 21
29.0349101299
  0
LINE
  5
22C
100
AcDbEntity
  8
IMPORT_IGES
100
AcDbLine
 62
7
  6
CONTINUOUS
 10
-62.5349101299
 20
-29.0349101299
 11
-62.5349101299
 21
-38.5351385708
  0
LINE
  5
22D
100
AcDbEntity
  8
IMPORT_IGES
100
AcDbLine
 62
7
  6
CONTINUOUS
 10
-62.4134157028
 20
27.7809183469
 11
-62.4127246708
 21
-27.4386944096
  0
LINE
  5
22E
100
AcDbEntity
  8
IMPORT_IGES
100
AcDbLine
 62
250
  6
CONTINUOUS
 10
-62.3511749988
 20
38.351403456
 11
-62.3511749988
 21
-38.351403456
  0
LINE
  5
22F
100
AcDbEntity
  8
IMPORT_IGES
100
AcDbLine
 62
7
  6
CONTINUOUS
 10
-60.851403456
 20
39.8511749988
 11
-60.851403456
 21
38.351403456
  0
LINE
  5
230
100
AcDbEntity
  8
IMPORT_IGES
100
AcDbLine
 62
250
  6
CONTINUOUS
 10
-60.8514018269
 20
-39.851174999
 11
-60.851403456
 21
38.351403456
  0
LINE
  5
231
100
AcDbEntity
  8
IMPORT_IGES
100
AcDbLine
 62
7
  6
CONTINUOUS
 10
-62.9138023838
 20
-27.8645172896
 11
-62.9127245467
 21
-27.4386944213
  0
LINE
  5
232
100
AcDbEntity
  8
IMPORT_IGES
100
AcDbLine
 62
7
  6
CONTINUOUS
 10
-62.4127245467
 20
-27.4386944124
 11
-62.4138024104
 21
-27.8645224172
  0
LINE
  5
233
100
AcDbEntity
  8
IMPORT_IGES
100
AcDbLine
 62
7
  6
CONTINUOUS
 10
-62.9161578614
 20
-28.181225394
 11
-62.9138023838
 21
-27.8645172896
  0
LINE
  5
234
100
AcDbEntity
  8
IMPORT_IGES
100
AcDbLine
 62
7
  6
CONTINUOUS
 10
-62.4138024104
 20
-27.8645224172
 11
-62.4161579311
 21
-28.1812324002
  0
LINE
  5
235
100
AcDbEntity
  8
IMPORT_IGES
100
AcDbLine
 62
7
  6
CONTINUOUS
 10
-62.9187204906
 20
-28.3939315236
 11
-62.9161578614
 21
-28.181225394
  0
LINE
  5
236
100
AcDbEntity
  8
IMPORT_IGES
100
AcDbLine
 62
7
  6
CONTINUOUS
 10
-62.4161579311
 20
-28.1812324002
 11
-62.4187205919
 21
-28.3939385497
  0
LINE
  5
237
100
AcDbEntity
  8
IMPORT_IGES
100
AcDbLine
 62
7
  6
CONTINUOUS
 10
-62.9218822055
 20
-28.5782674101
 11
-62.9187204906
 21
-28.3939315236
  0
LINE
  5
238
100
AcDbEntity
  8
IMPORT_IGES
100
AcDbLine
 62
7
  6
CONTINUOUS
 10
-62.4187205919
 20
-28.3939385497
 11
-62.4218823284
 21
-28.5782734355
  0
LINE
  5
239
100
AcDbEntity
  8
IMPORT_IGES
100
AcDbLine
 62
7
  6
CONTINUOUS
 10
-62.9242789888
 20
-28.6827022835
 11
-62.9218822055
 21
-28.5782674101
  0
LINE
  5
23A
100
AcDbEntity
  8
IMPORT_IGES
100
AcDbLine
 62
7
  6
CONTINUOUS
 10
-62.4218823284
 20
-28.5782734355
 11
-62.4242791169
 21
-28.6827072198
  0
LWPOLYLINE
  5
23B
100
AcDbEntity
  8
IMPORT_IGES
100
AcDbPolyline
 62
7
  6
CONTINUOUS
 90
10
 70
0
 10
-62.4242791169
 20
-28.6827072198
 10
-62.4268650366
 20
-28.770581834
 10
-62.4282244668
 20
-28.808118246
 10
-62.4296147713
 20
-28.8410287071
 10
-62.4310362561
 20
-28.8692687482
 10
-62.4324886152
 20
-28.8928828385
 10
-62.4339576322
 20
-28.9116319528
 10
-62.4354385683
 20
-28.925436416
 10
-62.4369361624
 20
-28.9343759033
 10
-62.4384504144
 20
-28.9384504144
  0
LINE
  5
23C
100
AcDbEntity
  8
IMPORT_IGES
100
AcDbLine
 62
7
  6
CONTINUOUS
 10
-56.0
 20
2.0
 11
-56.0
 21
-2.0
  0
LINE
  5
23D
100
AcDbEntity
  8
IMPORT_IGES
100
AcDbLine
 62
7
  6
CONTINUOUS
 10
-55.0
 20
2.0000000001
 11
-55.0
 21
-2.0
  0
LINE
  5
23E
100
AcDbEntity
  8
IMPORT_IGES
100
AcDbLine
 62
7
  6
CONTINUOUS
 10
-53.0
 20
18.4999999999
 11
-53.0
 21
33.5
  0
LINE
  5
23F
100
AcDbEntity
  8
IMPORT_IGES
100
AcDbLine
 62
7
  6
CONTINUOUS
 10
-52.0
 20
18.5
 11
-52.0
 21
33.5
  0
LINE
  5
240
100
AcDbEntity
  8
IMPORT_IGES
100
AcDbLine
 62
7
  6
CONTINUOUS
 10
-51.0
 20
-2.0000000001
 11
-51.0
 21
2.0000000001
  0
LINE
  5
241
100
AcDbEntity
  8
IMPORT_IGES
100
AcDbLine
 62
7
  6
CONTINUOUS
 10
-50.0
 20
-2.0
 11
-50.0
 21
2.0
  0
LINE
  5
242
100
AcDbEntity
  8
IMPORT_IGES
100
AcDbLine
 62
7
  6
CONTINUOUS
 10
-50.0
 20
19.0
 11
-50.0
 21
33.0
  0
LINE
  5
243
100
AcDbEntity
  8
IMPORT_IGES
100
AcDbLine
 62
7
  6
CONTINUOUS
 10
-47.0
 20
2.0
 11
-47.0
 21
-2.0
  0
LINE
  5
244
100
AcDbEntity
  8
IMPORT_IGES
100
AcDbLine
 62
7
  6
CONTINUOUS
 10
-46.0
 20
35.5
 11
-46.0
 21
35.2639758034
  0
LINE
  5
245
100
AcDbEntity
  8
IMPORT_IGES
100
AcDbLine
 62
7
  6
CONTINUOUS
 10
-46.0
 20
-2.0
 11
-46.0
 21
2.0
  0
LINE
  5
246
100
AcDbEntity
  8
IMPORT_IGES
100
AcDbLine
 62
7
  6
CONTINUOUS
 10
-45.0
 20
35.2639758033
 11
-45.0
 21
35.5
  0
LWPOLYLINE
  5
247
100
AcDbEntity
  8
IMPORT_IGES
100
AcDbPolyline
 62
7
  6
CONTINUOUS
 90
10
 70
0
 10
-62.9384503257
 20
-28.9384429553
 10
-62.9369360882
 20
-28.9343716148
 10
-62.9354385015
 20
-28.9254343687
 10
-62.9339575654
 20
-28.911631217
 10
-62.9324885381
 20
-28.892882186
 10
-62.9310361615
 20
-28.8692672494
 10
-62.9296146619
 20
-28.8410263283
 10
-62.9282243488
 20
-28.8081152316
 10
-62.9268649127
 20
-28.7705781504
 10
-62.9242789888
 20
-28.6827022835
  0
LWPOLYLINE
  5
248
100
AcDbEntity
  8
IMPORT_IGES
100
AcDbPolyline
 62
7
  6
CONTINUOUS
 90
9
 70
0
 10
-62.4384505986
 20
28.938443228
 10
-62.4369363464
 20
28.9343727295
 10
-62.4354387444
 20
28.925436228
 10
-62.4339577927
 20
28.9116337237
 10
-62.4324887492
 20
28.8928852427
 10
-62.4310363559
 20
28.8692707588
 10
-62.4296148396
 20
28.841030193
 10
-62.4282245098
 20
28.8081193529
 10
-62.426865057
 20
28.7705824309
  0
LWPOLYLINE
  5
249
100
AcDbEntity
  8
IMPORT_IGES
100
AcDbPolyline
 62
7
  6
CONTINUOUS
 90
9
 70
0
 10
-62.9384505964
 20
28.9384505964
 10
-62.9369350522
 20
28.9343694287
 10
-62.9354364574
 20
28.9254222622
 10
-62.933954812
 20
28.9116090969
 10
-62.9324854082
 20
28.8928484657
 10
-62.9310329538
 20
28.8692218357
 10
-62.9296115722
 20
28.8409736082
 10
-62.9282215726
 20
28.8080599832
 10
-62.9268626458
 20
28.7705247607
  0
LINE
  5
24A
100
AcDbEntity
  8
IMPORT_IGES
100
AcDbLine
 62
7
  6
CONTINUOUS
 10
-42.84
 20
-23.2
 11
-42.84
 21
-26.2
  0
LINE
  5
24B
100
AcDbEntity
  8
IMPORT_IGES
100
AcDbLine
 62
7
  6
CONTINUOUS
 10
-42.500069233
 20
18.5
 11
-42.5000714701
 21
16.5
  0
LINE
  5
24C
100
AcDbEntity
  8
IMPORT_IGES
100
AcDbLine
 62
7
  6
CONTINUOUS
 10
-42.5000862106
 20
3.3216622123
 11
-42.5000936415
 21
-3.3217081512
  0
LINE
  5
24D
100
AcDbEntity
  8
IMPORT_IGES
100
AcDbLine
 62
7
  6
CONTINUOUS
 10
-42.0
 20
2.0
 11
-42.0
 21
-2.0
  0
LINE
  5
24E
100
AcDbEntity
  8
IMPORT_IGES
100
AcDbLine
 62
7
  6
CONTINUOUS
 10
-42.0
 20
-26.2
 11
-42.0
 21
-23.2
  0
LINE
  5
24F
100
AcDbEntity
  8
IMPORT_IGES
100
AcDbLine
 62
7
  6
CONTINUOUS
 10
-41.75
 20
18.5
 11
-41.75
 21
16.5
  0
LINE
  5
250
100
AcDbEntity
  8
IMPORT_IGES
100
AcDbLine
 62
7
  6
CONTINUOUS
 10
-41.75
 20
33.5
 11
-41.75
 21
35.5
  0
LINE
  5
251
100
AcDbEntity
  8
IMPORT_IGES
100
AcDbLine
 62
7
  6
CONTINUOUS
 10
-41.0
 20
-2.0
 11
-41.0
 21
2.0
  0
LINE
  5
252
100
AcDbEntity
  8
IMPORT_IGES
100
AcDbLine
 62
7
  6
CONTINUOUS
 10
-40.5
 20
-23.2
 11
-40.5
 21
-26.2
  0
LINE
  5
253
100
AcDbEntity
  8
IMPORT_IGES
100
AcDbLine
 62
7
  6
CONTINUOUS
 10
-40.25
 20
35.5
 11
-40.25
 21
33.5
  0
LINE
  5
254
100
AcDbEntity
  8
IMPORT_IGES
100
AcDbLine
 62
7
  6
CONTINUOUS
 10
-40.25
 20
18.5
 11
-40.25
 21
16.5
  0
LINE
  5
255
100
AcDbEntity
  8
IMPORT_IGES
100
AcDbLine
 62
7
  6
CONTINUOUS
 10
-31.1717941111
 20
30.5295268007
 11
-30.9999824677
 21
30.5926369184
  0
LINE
  5
256
100
AcDbEntity
  8
IMPORT_IGES
100
AcDbLine
 62
7
  6
CONTINUOUS
 10
-30.9999827231
 20
30.36428553
 11
-31.1717943924
 21
30.3011685108
  0
LINE
  5
257
100
AcDbEntity
  8
IMPORT_IGES
100
AcDbLine
 62
7
  6
CONTINUOUS
 10
-30.999981966
 20
31.0410946042
 11
-31.1717935816
 21
30.9797206115
  0
LWPOLYLINE
  5
258
100
AcDbEntity
  8
IMPORT_IGES
100
AcDbPolyline
 62
250
  6
CONTINUOUS
 90
28
 70
0
 10
60.8514008457
 20
-39.8511749996
 10
60.93858506
 20
-39.8486123705
 10
61.0254743805
 20
-39.8409859611
 10
61.1117749352
 20
-39.8283215707
 10
61.197194337
 20
-39.810662158
 10
61.2814442075
 20
-39.788067394
 10
61.3642410761
 20
-39.7606131669
 10
61.4453055283
 20
-39.7283917746
 10
61.5243625366
 20
-39.6915121758
 10
61.601143932
 20
-39.6500992467
 10
61.6753900487
 20
-39.6042928714
 10
61.7468495401
 20
-39.5542479437
 10
61.8152797057
 20
-39.5001343899
 10
61.8804486247
 20
-39.4421357686
 10
61.942136436
 20
-39.3804479173
 10
62.0001350581
 20
-39.3152789094
 10
62.0542486794
 20
-39.246848552
 10
62.1042936911
 20
-39.1753888028
 10
62.1501000684
 20
-39.1011425092
 10
62.1915129036
 20
-39.0243610878
 10
62.2283923658
 20
-38.9453041585
 10
62.260613604
 20
-38.8642398759
 10
62.2880676859
 20
-38.7814432335
 10
62.310662313
 20
-38.697193684
 10
62.3283215959
 20
-38.6117747923
 10
62.3409858921
 20
-38.5254749695
 10
62.3486122822
 20
-38.4385865689
 10
62.3511749988
 20
-38.351403456
  0
LINE
  5
259
100
AcDbEntity
  8
IMPORT_IGES
100
AcDbLine
 62
7
  6
CONTINUOUS
 10
46.876734492
 20
-39.9466245839
 11
46.7552453966
 21
-39.9503041807
  0
LINE
  5
25A
100
AcDbEntity
  8
IMPORT_IGES
100
AcDbLine
 62
7
  6
CONTINUOUS
 10
43.1232655081
 20
-39.9137348967
 11
43.2447546035
 21
-39.9100552999
  0
LINE
  5
25B
100
AcDbEntity
  8
IMPORT_IGES
100
AcDbLine
 62
7
  6
CONTINUOUS
 10
2.8663832871
 20
-39.9355661976
 11
2.7924110673
 21
-39.9374965158
  0
LINE
  5
25C
100
AcDbEntity
  8
IMPORT_IGES
100
AcDbLine
 62
7
  6
CONTINUOUS
 10
-2.8663832871
 20
-39.9181364936
 11
-2.7924110672
 21
-39.9162061754
  0
LINE
  5
25D
100
AcDbEntity
  8
IMPORT_IGES
100
AcDbLine
 62
7
  6
CONTINUOUS
 10
46.7552453966
 20
-39.9503041807
 11
46.6101012021
 21
-39.9537122114
  0
LINE
  5
25E
100
AcDbEntity
  8
IMPORT_IGES
100
AcDbLine
 62
7
  6
CONTINUOUS
 10
43.2447546035
 20
-39.9100552999
 11
43.3898987981
 21
-39.9066472692
  0
LINE
  5
25F
100
AcDbEntity
  8
IMPORT_IGES
100
AcDbLine
 62
7
  6
CONTINUOUS
 10
2.7924110673
 20
-39.9374965158
 11
2.7041385128
 21
-39.9392455348
  0
LINE
  5
260
100
AcDbEntity
  8
IMPORT_IGES
100
AcDbLine
 62
7
  6
CONTINUOUS
 10
-2.7924110672
 20
-39.9162061754
 11
-2.7041385128
 21
-39.9144571565
  0
LINE
  5
261
100
AcDbEntity
  8
IMPORT_IGES
100
AcDbLine
 62
7
  6
CONTINUOUS
 10
46.6101012021
 20
-39.9537122114
 11
46.3500534214
 21
-39.9582566653
  0
LINE
  5
262
100
AcDbEntity
  8
IMPORT_IGES
100
AcDbLine
 62
7
  6
CONTINUOUS
 10
43.3898987981
 20
-39.9066472692
 11
43.6499465788
 21
-39.9021028153
  0
LINE
  5
263
100
AcDbEntity
  8
IMPORT_IGES
100
AcDbLine
 62
7
  6
CONTINUOUS
 10
-43.4712563718
 20
-39.9553085553
 11
-43.7461876159
 21
-39.9595840248
  0
LINE
  5
264
100
AcDbEntity
  8
IMPORT_IGES
100
AcDbLine
 62
7
  6
CONTINUOUS
 10
2.7041385128
 20
-39.9392455348
 11
2.550480137
 21
-39.9414236779
  0
LINE
  5
265
100
AcDbEntity
  8
IMPORT_IGES
100
AcDbLine
 62
7
  6
CONTINUOUS
 10
-2.7041385128
 20
-39.9144571565
 11
-2.550480137
 21
-39.9122790134
  0
LINE
  5
266
100
AcDbEntity
  8
IMPORT_IGES
100
AcDbLine
 62
7
  6
CONTINUOUS
 10
-46.4416972935
 20
-39.9035289342
 11
-46.152973809
 21
-39.8995439685
  0
LINE
  5
267
100
AcDbEntity
  8
IMPORT_IGES
100
AcDbLine
 62
7
  6
CONTINUOUS
 10
46.3500534214
 20
-39.9582566653
 11
46.0486278013
 21
-39.961938269
  0
LINE
  5
268
100
AcDbEntity
  8
IMPORT_IGES
100
AcDbLine
 62
7
  6
CONTINUOUS
 10
43.6499465788
 20
-39.9021028153
 11
43.9513721988
 21
-39.8984212115
  0
LINE
  5
269
100
AcDbEntity
  8
IMPORT_IGES
100
AcDbLine
 62
7
  6
CONTINUOUS
 10
-43.7461876159
 20
-39.9595840248
 11
-44.1706366366
 21
-39.9638547806
  0
LINE
  5
26A
100
AcDbEntity
  8
IMPORT_IGES
100
AcDbLine
 62
7
  6
CONTINUOUS
 10
-46.152973809
 20
-39.8995439685
 11
-45.7156352849
 21
-39.8957181808
  0
LINE
  5
26B
100
AcDbEntity
  8
IMPORT_IGES
100
AcDbLine
 62
7
  6
CONTINUOUS
 10
2.550480137
 20
-39.9414236779
 11
2.3191220761
 21
-39.9433943881
  0
LINE
  5
26C
100
AcDbEntity
  8
IMPORT_IGES
100
AcDbLine
 62
7
  6
CONTINUOUS
 10
-2.550480137
 20
-39.9122790134
 11
-2.3191220761
 21
-39.9103083032
  0
LINE
  5
26D
100
AcDbEntity
  8
IMPORT_IGES
100
AcDbLine
 62
7
  6
CONTINUOUS
 10
46.0486278013
 20
-39.961938269
 11
45.5995531766
 21
-39.9653091592
  0
LINE
  5
26E
100
AcDbEntity
  8
IMPORT_IGES
100
AcDbLine
 62
7
  6
CONTINUOUS
 10
43.9513721988
 20
-39.8984212115
 11
44.4004468235
 21
-39.8950503213
  0
LINE
  5
26F
100
AcDbEntity
  8
IMPORT_IGES
100
AcDbLine
 62
7
  6
CONTINUOUS
 10
-44.1706366366
 20
-39.9638547806
 11
-44.6384365185
 21
-39.9662879873
  0
LINE
  5
270
100
AcDbEntity
  8
IMPORT_IGES
100
AcDbLine
 62
7
  6
CONTINUOUS
 10
2.3191220761
 20
-39.9433943881
 11
2.066119862
 21
-39.9442653869
  0
LINE
  5
271
100
AcDbEntity
  8
IMPORT_IGES
100
AcDbLine
 62
7
  6
CONTINUOUS
 10
-2.3191220761
 20
-39.9103083032
 11
-2.066119862
 21
-39.9094373044
  0
LINE
  5
272
100
AcDbEntity
  8
IMPORT_IGES
100
AcDbLine
 62
7
  6
CONTINUOUS
 10
-45.7156352849
 20
-39.8957181808
 11
-45.11900847
 21
-39.8935836418
  0
LINE
  5
273
100
AcDbEntity
  8
IMPORT_IGES
100
AcDbLine
 62
7
  6
CONTINUOUS
 10
45.5995531766
 20
-39.9653091592
 11
44.9972209476
 21
-39.9668353443
  0
LINE
  5
274
100
AcDbEntity
  8
IMPORT_IGES
100
AcDbLine
 62
7
  6
CONTINUOUS
 10
44.4004468235
 20
-39.8950503213
 11
45.0027790524
 21
-39.8935241363
  0
LINE
  5
275
100
AcDbEntity
  8
IMPORT_IGES
100
AcDbLine
 62
7
  6
CONTINUOUS
 10
61.0351359725
 20
-40.0349101299
 11
-61.0351353244
 21
-40.0349101299
  0
LINE
  5
276
100
AcDbEntity
  8
IMPORT_IGES
100
AcDbLine
 62
7
  6
CONTINUOUS
 10
-2.066119862
 20
-39.9094373044
 11
2.0
 21
-39.9093962807
  0
LINE
  5
277
100
AcDbEntity
  8
IMPORT_IGES
100
AcDbLine
 62
250
  6
CONTINUOUS
 10
60.8514021507
 20
-39.851174999
 11
-60.8514018269
 21
-39.851174999
  0
LINE
  5
278
100
AcDbEntity
  8
IMPORT_IGES
100
AcDbLine
 62
7
  6
CONTINUOUS
 10
2.066119862
 20
-39.9442653869
 11
-2.0662303978
 21
-39.9442653422
  0
LINE
  5
279
100
AcDbEntity
  8
IMPORT_IGES
100
AcDbLine
 62
7
  6
CONTINUOUS
 10
-44.6384365185
 20
-39.9662879873
 11
-45.2461680399
 21
-39.966582051
  0
LINE
  5
27A
100
AcDbEntity
  8
IMPORT_IGES
100
AcDbLine
 62
7
  6
CONTINUOUS
 10
-45.11900847
 20
-39.8935836418
 11
-44.5142869375
 21
-39.8945185929
  0
LINE
  5
27B
100
AcDbEntity
  8
IMPORT_IGES
100
AcDbLine
 62
7
  6
CONTINUOUS
 10
2.0
 20
-39.9093962807
 11
2.2580838675
 21
-39.9099867277
  0
LINE
  5
27C
100
AcDbEntity
  8
IMPORT_IGES
100
AcDbLine
 62
7
  6
CONTINUOUS
 10
44.9972209476
 20
-39.9668353443
 11
44.3964061189
 21
-39.9652880442
  0
LINE
  5
27D
100
AcDbEntity
  8
IMPORT_IGES
100
AcDbLine
 62
7
  6
CONTINUOUS
 10
45.0027790524
 20
-39.8935241363
 11
45.6035938811
 21
-39.8950714364
  0
LINE
  5
27E
100
AcDbEntity
  8
IMPORT_IGES
100
AcDbLine
 62
7
  6
CONTINUOUS
 10
-2.0662303978
 20
-39.9442653422
 11
-2.3197885569
 21
-39.9433904898
  0
LINE
  5
27F
100
AcDbEntity
  8
IMPORT_IGES
100
AcDbLine
 62
7
  6
CONTINUOUS
 10
-45.2461680399
 20
-39.966582051
 11
-45.7190708373
 21
-39.9646195039
  0
LINE
  5
280
100
AcDbEntity
  8
IMPORT_IGES
100
AcDbLine
 62
7
  6
CONTINUOUS
 10
-44.5142869375
 20
-39.8945185929
 11
-44.0572333088
 21
-39.8974261408
  0
LINE
  5
281
100
AcDbEntity
  8
IMPORT_IGES
100
AcDbLine
 62
7
  6
CONTINUOUS
 10
2.2580838675
 20
-39.9099867277
 11
2.4963454749
 21
-39.9116973143
  0
LINE
  5
282
100
AcDbEntity
  8
IMPORT_IGES
100
AcDbLine
 62
7
  6
CONTINUOUS
 10
44.3964061189
 20
-39.9652880442
 11
43.9500694588
 21
-39.9619251524
  0
LINE
  5
283
100
AcDbEntity
  8
IMPORT_IGES
100
AcDbLine
 62
7
  6
CONTINUOUS
 10
45.6035938811
 20
-39.8950714364
 11
46.0499305411
 21
-39.8984343281
  0
LINE
  5
284
100
AcDbEntity
  8
IMPORT_IGES
100
AcDbLine
 62
7
  6
CONTINUOUS
 10
-45.7190708373
 20
-39.9646195039
 11
-46.1535931606
 21
-39.960808587
  0
LINE
  5
285
100
AcDbEntity
  8
IMPORT_IGES
100
AcDbLine
 62
7
  6
CONTINUOUS
 10
-2.3197885569
 20
-39.9433904898
 11
-2.5518025999
 21
-39.9414084303
  0
LINE
  5
286
100
AcDbEntity
  8
IMPORT_IGES
100
AcDbLine
 62
7
  6
CONTINUOUS
 10
-44.0572333088
 20
-39.8974261408
 11
-43.7462263661
 21
-39.9007747159
  0
LINE
  5
287
100
AcDbEntity
  8
IMPORT_IGES
100
AcDbLine
 62
7
  6
CONTINUOUS
 10
43.9500694588
 20
-39.9619251524
 11
43.6505490679
 21
-39.9582654886
  0
LWPOLYLINE
  5
288
100
AcDbEntity
  8
IMPORT_IGES
100
AcDbPolyline
 62
7
  6
CONTINUOUS
 90
3
 70
0
 10
46.0499305411
 20
-39.8984343281
 10
46.349450932
 20
-39.902093992
 10
46.4406433646
 20
-39.9035115225
  0
LINE
  5
289
100
AcDbEntity
  8
IMPORT_IGES
100
AcDbLine
 62
7
  6
CONTINUOUS
 10
2.4963454749
 20
-39.9116973143
 11
2.657172305
 21
-39.9136961569
  0
LINE
  5
28A
100
AcDbEntity
  8
IMPORT_IGES
100
AcDbLine
 62
7
  6
CONTINUOUS
 10
-46.1535931606
 20
-39.960808587
 11
-46.4406433648
 21
-39.9568479581
  0
LINE
  5
28B
100
AcDbEntity
  8
IMPORT_IGES
100
AcDbLine
 62
7
  6
CONTINUOUS
 10
-2.5518025999
 20
-39.9414084303
 11
-2.7058420246
 21
-39.939215977
  0
LINE
  5
28C
100
AcDbEntity
  8
IMPORT_IGES
100
AcDbLine
 62
7
  6
CONTINUOUS
 10
-43.7462263661
 20
-39.9007747159
 11
-43.4726673782
 21
-39.9050245067
  0
LINE
  5
28D
100
AcDbEntity
  8
IMPORT_IGES
100
AcDbLine
 62
7
  6
CONTINUOUS
 10
43.6505490679
 20
-39.9582654886
 11
43.472667378
 21
-39.9553349739
  0
LINE
  5
28E
100
AcDbEntity
  8
IMPORT_IGES
100
AcDbLine
 62
7
  6
CONTINUOUS
 10
2.657172305
 20
-39.9136961569
 11
2.7513614449
 21
-39.9153345516
  0
LINE
  5
28F
100
AcDbEntity
  8
IMPORT_IGES
100
AcDbLine
 62
7
  6
CONTINUOUS
 10
-46.4406433648
 20
-39.9568479581
 11
-46.6084427446
 21
-39.9537467409
  0
LINE
  5
290
100
AcDbEntity
  8
IMPORT_IGES
100
AcDbLine
 62
7
  6
CONTINUOUS
 10
-2.7058420246
 20
-39.939215977
 11
-2.7938502268
 21
-39.9374642564
  0
LINE
  5
291
100
AcDbEntity
  8
IMPORT_IGES
100
AcDbLine
 62
7
  6
CONTINUOUS
 10
-43.4726673782
 20
-39.9050245067
 11
-43.3162612112
 21
-39.9082725417
  0
LWPOLYLINE
  5
292
100
AcDbEntity
  8
IMPORT_IGES
100
AcDbPolyline
 62
7
  6
CONTINUOUS
 90
11
 70
0
 10
2.7513614449
 20
-39.9153345516
 10
2.8326057045
 20
-39.9171835795
 10
2.8675378535
 20
-39.9181719956
 10
2.8987366982
 20
-39.9192016733
 10
2.9257696459
 20
-39.9202517983
 10
2.9484786879
 20
-39.921318728
 10
2.9670218329
 20
-39.9224061051
 10
2.9814405145
 20
-39.923504044
 10
2.9917485437
 20
-39.9246092494
 10
2.9979321095
 20
-39.9257250166
 10
2.9999912118
 20
-39.9268513456
  0
LINE
  5
293
100
AcDbEntity
  8
IMPORT_IGES
100
AcDbLine
 62
7
  6
CONTINUOUS
 10
-46.6084427446
 20
-39.9537467409
 11
-46.7534556987
 21
-39.950351888
  0
LWPOLYLINE
  5
294
100
AcDbEntity
  8
IMPORT_IGES
100
AcDbPolyline
 62
7
  6
CONTINUOUS
 90
11
 70
0
 10
-43.3162612112
 20
-39.9082725417
 10
-43.1827776547
 20
-39.9118087265
 10
-43.1248533766
 20
-39.9136800229
 10
-43.0728793616
 20
-39.9156174025
 10
-43.0275504213
 20
-39.9175994613
 10
-42.9889678075
 20
-39.9196267508
 10
-42.9570302685
 20
-39.9216987195
 10
-42.93212886
 20
-39.9237923087
 10
-42.914393934
 20
-39.9258998321
 10
-42.9036951385
 20
-39.928028976
 10
-42.9000324735
 20
-39.9301797404
  0
LWPOLYLINE
  5
295
100
AcDbEntity
  8
IMPORT_IGES
100
AcDbPolyline
 62
7
  6
CONTINUOUS
 90
10
 70
0
 10
-2.7938502268
 20
-39.9374642564
 10
-2.8675378535
 20
-39.9355306956
 10
-2.8987366982
 20
-39.934501018
 10
-2.9257696459
 20
-39.9334508929
 10
-2.9484786879
 20
-39.9323839632
 10
-2.9670218329
 20
-39.9312965861
 10
-2.9814405145
 20
-39.9301986473
 10
-2.9917485437
 20
-39.9290934418
 10
-2.9979321095
 20
-39.9279776746
 10
-2.9999912118
 20
-39.9268513457
  0
LWPOLYLINE
  5
296
100
AcDbEntity
  8
IMPORT_IGES
100
AcDbPolyline
 62
7
  6
CONTINUOUS
 90
28
 70
0
 10
-60.8514001983
 20
-39.8511749998
 10
-60.938669825
 20
-39.8486074066
 10
-61.0256271963
 20
-39.8409680494
 10
-61.1119779977
 20
-39.8282856977
 10
-61.197428661
 20
-39.8106065446
 10
-61.2816921616
 20
-39.7879930812
 10
-61.3644887454
 20
-39.7605229453
 10
-61.4455388463
 20
-39.7282910622
 10
-61.524569286
 20
-39.6914082859
 10
-61.601318394
 20
-39.6499984783
 10
-61.6755276417
 20
-39.6042023462
 10
-61.7469463986
 20
-39.5541758191
 10
-61.8153370335
 20
-39.5000862797
 10
-61.8804685545
 20
-39.442116965
 10
-61.9421213232
 20
-39.3804639354
 10
-62.0000902944
 20
-39.3153322499
 10
-62.054179423
 20
-39.2469415592
 10
-62.1042054889
 20
-39.1755228655
 10
-62.1500011271
 20
-39.1013138088
 10
-62.1914104268
 20
-39.0245650262
 10
-62.2282927009
 20
-38.9455350506
 10
-62.2605241078
 20
-38.8644855551
 10
-62.2879938138
 20
-38.781689718
 10
-62.3106069144
 20
-38.6974271032
 10
-62.3282857926
 20
-38.6119774609
 10
-62.3409679775
 20
-38.5256278087
 10
-62.3486072963
 20
-38.4386717061
 10
-62.3511749988
 20
-38.3514034561
  0
LWPOLYLINE
  5
297
100
AcDbEntity
  8
IMPORT_IGES
100
AcDbPolyline
 62
7
  6
CONTINUOUS
 90
28
 70
0
 10
-61.0351353166
 20
-40.0349076408
 10
-61.1229239837
 20
-40.0322899684
 10
-61.2098128714
 20
-40.024684203
 10
-61.2958019798
 20
-40.0120903443
 10
-61.3811731055
 20
-39.9944299996
 10
-61.4656444517
 20
-39.9717815618
 10
-61.5483706287
 20
-39.9443802093
 10
-61.6293337476
 20
-39.9121793882
 10
-61.7085516972
 20
-39.8752256524
 10
-61.7852327534
 20
-39.8338938429
 10
-61.8593519613
 20
-39.7881405894
 10
-61.9309342757
 20
-39.7380092622
 10
-61.9992628373
 20
-39.6840048119
 10
-62.0643051729
 20
-39.626089061
 10
-62.1260937556
 20
-39.564300187
 10
-62.1840091453
 20
-39.4992576733
 10
-62.2380131603
 20
-39.4309290524
 10
-62.2881439824
 20
-39.3593467918
 10
-62.3338967162
 20
-39.2852277778
 10
-62.3752279895
 20
-39.2085470619
 10
-62.4121811746
 20
-39.1293295926
 10
-62.4443814937
 20
-39.0483671012
 10
-62.4717823001
 20
-38.9656417049
 10
-62.4944302404
 20
-38.8811712864
 10
-62.5120904773
 20
-38.7958012258
 10
-62.5246847316
 20
-38.7098133163
 10
-62.5322912825
 20
-38.6229257647
 10
-62.5349101299
 20
-38.5351385708
  0
LWPOLYLINE
  5
298
100
AcDbEntity
  8
IMPORT_IGES
100
AcDbPolyline
 62
7
  6
CONTINUOUS
 90
10
 70
0
 10
-46.7534556987
 20
-39.950351888
 10
-46.8751466235
 20
-39.9466794576
 10
-46.9271206385
 20
-39.944742078
 10
-46.9724495788
 20
-39.9427600193
 10
-47.0110321926
 20
-39.9407327298
 10
-47.0429697316
 20
-39.938660761
 10
-47.06787114
 20
-39.9365671719
 10
-47.085606066
 20
-39.9344596485
 10
-47.0963048615
 20
-39.9323305047
 10
-47.0999675265
 20
-39.9301797404
  0
LINE
  5
299
100
AcDbEntity
  8
IMPORT_IGES
100
AcDbLine
 62
7
  6
CONTINUOUS
 10
-37.6913032823
 20
33.5000953902
 11
-37.691302601
 21
34.1091741391
  0
LINE
  5
29A
100
AcDbEntity
  8
IMPORT_IGES
100
AcDbLine
 62
7
  6
CONTINUOUS
 10
-35.75
 20
-20.2
 11
-35.75
 21
-21.7
  0
LINE
  5
29B
100
AcDbEntity
  8
IMPORT_IGES
100
AcDbLine
 62
7
  6
CONTINUOUS
 10
-35.75
 20
-27.7
 11
-35.75
 21
-29.2
  0
LINE
  5
29C
100
AcDbEntity
  8
IMPORT_IGES
100
AcDbLine
 62
7
  6
CONTINUOUS
 10
-34.25
 20
-29.2
 11
-34.25
 21
-27.7
  0
LINE
  5
29D
100
AcDbEntity
  8
IMPORT_IGES
100
AcDbLine
 62
7
  6
CONTINUOUS
 10
-34.25
 20
-21.7
 11
-34.25
 21
-20.2
  0
LINE
  5
29E
100
AcDbEntity
  8
IMPORT_IGES
100
AcDbLine
 62
7
  6
CONTINUOUS
 10
-43.123265508
 20
-39.9466245839
 11
-43.2447546034
 21
-39.9503041807
  0
LINE
  5
29F
100
AcDbEntity
  8
IMPORT_IGES
100
AcDbLine
 62
7
  6
CONTINUOUS
 10
-46.8767344919
 20
-39.9137348967
 11
-46.7552453965
 21
-39.9100552999
  0
LWPOLYLINE
  5
2A0
100
AcDbEntity
  8
IMPORT_IGES
100
AcDbPolyline
 62
7
  6
CONTINUOUS
 90
3
 70
0
 10
-43.2447546034
 20
-39.9503041807
 10
-43.3898987979
 20
-39.9537122114
 10
-43.4712563718
 20
-39.9553085553
  0
LINE
  5
2A1
100
AcDbEntity
  8
IMPORT_IGES
100
AcDbLine
 62
7
  6
CONTINUOUS
 10
-46.7552453965
 20
-39.9100552999
 11
-46.6101012019
 21
-39.9066472692
  0
LINE
  5
2A2
100
AcDbEntity
  8
IMPORT_IGES
100
AcDbLine
 62
7
  6
CONTINUOUS
 10
-46.6101012019
 20
-39.9066472692
 11
-46.4416972935
 21
-39.9035289342
  0
LINE
  5
2A3
100
AcDbEntity
  8
IMPORT_IGES
100
AcDbLine
 62
250
  6
CONTINUOUS
 10
62.3511749988
 20
-38.351403456
 11
-62.3511749988
 21
-38.3514034561
  0
LINE
  5
2A4
100
AcDbEntity
  8
IMPORT_IGES
100
AcDbLine
 62
7
  6
CONTINUOUS
 10
46.4406433646
 20
-39.9035115225
 11
46.6084427444
 21
-39.9066127397
  0
LINE
  5
2A5
100
AcDbEntity
  8
IMPORT_IGES
100
AcDbLine
 62
7
  6
CONTINUOUS
 10
43.472667378
 20
-39.9553349739
 11
43.3162612111
 21
-39.9520869389
  0
LINE
  5
2A6
100
AcDbEntity
  8
IMPORT_IGES
100
AcDbLine
 62
7
  6
CONTINUOUS
 10
46.6084427444
 20
-39.9066127397
 11
46.7534556986
 21
-39.9100075925
  0
LWPOLYLINE
  5
2A7
100
AcDbEntity
  8
IMPORT_IGES
100
AcDbPolyline
 62
7
  6
CONTINUOUS
 90
11
 70
0
 10
43.3162612111
 20
-39.9520869389
 10
43.1827776546
 20
-39.9485507541
 10
43.1248533765
 20
-39.9466794576
 10
43.0728793615
 20
-39.944742078
 10
43.0275504212
 20
-39.9427600193
 10
42.9889678074
 20
-39.9407327298
 10
42.9570302684
 20
-39.938660761
 10
42.93212886
 20
-39.9365671719
 10
42.914393934
 20
-39.9344596485
 10
42.9036951385
 20
-39.9323305047
 10
42.9000324735
 20
-39.9301797404
  0
LWPOLYLINE
  5
2A8
100
AcDbEntity
  8
IMPORT_IGES
100
AcDbPolyline
 62
7
  6
CONTINUOUS
 90
10
 70
0
 10
46.7534556986
 20
-39.9100075925
 10
46.8751466234
 20
-39.9136800229
 10
46.9271206384
 20
-39.9156174025
 10
46.9724495787
 20
-39.9175994613
 10
47.0110321925
 20
-39.9196267508
 10
47.0429697315
 20
-39.9216987195
 10
47.06787114
 20
-39.9237923087
 10
47.085606066
 20
-39.9258998321
 10
47.0963048615
 20
-39.928028976
 10
47.0999675265
 20
-39.9301797404
  0
LWPOLYLINE
  5
2A9
100
AcDbEntity
  8
IMPORT_IGES
100
AcDbPolyline
 62
7
  6
CONTINUOUS
 90
7
 70
0
 10
-31.1717933556
 20
29.8606303606
 10
-31.1676084624
 20
29.6142688599
 10
-31.1668011866
 20
29.5538726497
 10
-31.1664613016
 20
29.4939605922
 10
-31.1667014778
 20
29.4345346533
 10
-31.1674090448
 20
29.3755928671
 10
-31.1685840027
 20
29.3171352338
  0
LINE
  5
2AA
100
AcDbEntity
  8
IMPORT_IGES
100
AcDbLine
 62
7
  6
CONTINUOUS
 10
-32.0
 20
33.0000000001
 11
-32.0
 21
19.0
  0
LINE
  5
2AB
100
AcDbEntity
  8
IMPORT_IGES
100
AcDbLine
 62
7
  6
CONTINUOUS
 10
-31.5165255492
 20
32.8883860949
 11
-31.5165324152
 21
26.75
  0
LINE
  5
2AC
100
AcDbEntity
  8
IMPORT_IGES
100
AcDbLine
 62
7
420
16119285
  6
CONTINUOUS
 10
-31.4998701207
 20
26.75
 11
-31.4998631298
 21
33.0000328552
  0
LINE
  5
2AD
100
AcDbEntity
  8
IMPORT_IGES
100
AcDbLine
 62
7
  6
CONTINUOUS
 10
-31.1717948851
 20
29.8606303606
 11
-31.1717943924
 21
30.3011685108
  0
LINE
  5
2AE
100
AcDbEntity
  8
IMPORT_IGES
100
AcDbLine
 62
7
  6
CONTINUOUS
 10
-31.171794137
 20
30.5295268007
 11
-31.1717936334
 21
30.9797206115
  0
LINE
  5
2AF
100
AcDbEntity
  8
IMPORT_IGES
100
AcDbLine
 62
7
  6
CONTINUOUS
 10
-30.9999792156
 20
33.5000879057
 11
-30.9999864861
 21
27.0000539989
  0
LINE
  5
2B0
100
AcDbEntity
  8
IMPORT_IGES
100
AcDbLine
 62
7
  6
CONTINUOUS
 10
-30.0
 20
33.5
 11
-30.0
 21
18.5
  0
LWPOLYLINE
  5
2B1
100
AcDbEntity
  8
IMPORT_IGES
100
AcDbPolyline
 62
7
  6
CONTINUOUS
 90
34
 70
0
 10
-31.1685840027
 20
29.3171352338
 10
-31.1686073402
 20
29.3062189001
 10
-31.168159695
 20
29.2955222797
 10
-31.167241067
 20
29.2850453725
 10
-31.1658323201
 20
29.2747618124
 10
-31.1639525905
 20
29.2646979657
 10
-31.1616592871
 20
29.2549329307
 10
-31.1589460568
 20
29.2454663529
 10
-31.1558192527
 20
29.2362985869
 10
-31.1523553432
 20
29.2275097956
 10
-31.1485571734
 20
29.2191190862
 10
-31.1444218982
 20
29.2111073515
 10
-31.1400174504
 20
29.2034974323
 10
-31.1353468906
 20
29.1962958293
 10
-31.1304071584
 20
29.1894960418
 10
-31.1252570048
 20
29.1831014091
 10
-31.1199080843
 20
29.1771211355
 10
-31.1143487425
 20
29.1715460166
 10
-31.1086027679
 20
29.1663517789
 10
-31.1026709252
 20
29.161533158
 10
-31.0965524496
 20
29.1570954182
 10
-31.0902688353
 20
29.1530300793
 10
-31.0838346219
 20
29.1493383975
 10
-31.0772352699
 20
29.1460191166
 10
-31.0704486537
 20
29.143059987
 10
-31.0634725411
 20
29.1404513272
 10
-31.0563091644
 20
29.1382028187
 10
-31.0489430953
 20
29.1363312566
 10
-31.0413867907
 20
29.1348299299
 10
-31.0336277938
 20
29.1337055496
 10
-31.0256133061
 20
29.1329950432
 10
-31.0173257281
 20
29.13271072
 10
-31.0087826594
 20
29.1328402706
 10
-30.9999840999
 20
29.1333836952
  0
LINE
  5
2B2
100
AcDbEntity
  8
IMPORT_IGES
100
AcDbLine
 62
7
  6
CONTINUOUS
 10
-39.0
 20
-30.04
 11
39.0
 21
-30.04
  0
LINE
  5
2B3
100
AcDbEntity
  8
IMPORT_IGES
100
AcDbLine
 62
7
  6
CONTINUOUS
 10
-29.0
 20
33.5000000001
 11
-29.0
 21
18.5
  0
LINE
  5
2B4
100
AcDbEntity
  8
IMPORT_IGES
100
AcDbLine
 62
7
  6
CONTINUOUS
 10
-25.75
 20
-20.2
 11
-25.75
 21
-21.7
  0
LINE
  5
2B5
100
AcDbEntity
  8
IMPORT_IGES
100
AcDbLine
 62
7
  6
CONTINUOUS
 10
-25.75
 20
-27.7
 11
-25.75
 21
-29.2
  0
LINE
  5
2B6
100
AcDbEntity
  8
IMPORT_IGES
100
AcDbLine
 62
7
  6
CONTINUOUS
 10
-24.25
 20
-29.2
 11
-24.25
 21
-27.7
  0
LINE
  5
2B7
100
AcDbEntity
  8
IMPORT_IGES
100
AcDbLine
 62
7
  6
CONTINUOUS
 10
-24.25
 20
-21.7
 11
-24.25
 21
-20.2
  0
LINE
  5
2B8
100
AcDbEntity
  8
IMPORT_IGES
100
AcDbLine
 62
7
  6
CONTINUOUS
 10
-39.0000000001
 20
-29.2
 11
39.0000000001
 21
-29.2
  0
LINE
  5
2B9
100
AcDbEntity
  8
IMPORT_IGES
100
AcDbLine
 62
7
  6
CONTINUOUS
 10
-63.0349101299
 20
-29.0349101299
 11
-62.5349101299
 21
-29.0349101299
  0
LINE
  5
2BA
100
AcDbEntity
  8
IMPORT_IGES
100
AcDbLine
 62
7
  6
CONTINUOUS
 10
63.0349101299
 20
-29.0349101299
 11
62.5349101299
 21
-29.0349101299
  0
LINE
  5
2BB
100
AcDbEntity
  8
IMPORT_IGES
100
AcDbLine
 62
250
  6
CONTINUOUS
 10
-62.9384504145
 20
-28.9384504144
 11
-62.4384504145
 21
-28.9384504144
  0
LINE
  5
2BC
100
AcDbEntity
  8
IMPORT_IGES
100
AcDbLine
 62
250
  6
CONTINUOUS
 10
62.4384504145
 20
-28.9384504144
 11
62.9384504145
 21
-28.9384504144
  0
LINE
  5
2BD
100
AcDbEntity
  8
IMPORT_IGES
100
AcDbLine
 62
7
  6
CONTINUOUS
 10
-39.0
 20
-27.7
 11
-35.75
 21
-27.7
  0
LINE
  5
2BE
100
AcDbEntity
  8
IMPORT_IGES
100
AcDbLine
 62
7
  6
CONTINUOUS
 10
-34.25
 20
-27.7
 11
-25.75
 21
-27.7
  0
LINE
  5
2BF
100
AcDbEntity
  8
IMPORT_IGES
100
AcDbLine
 62
7
  6
CONTINUOUS
 10
-24.25
 20
-27.7
 11
-15.75
 21
-27.7
  0
LINE
  5
2C0
100
AcDbEntity
  8
IMPORT_IGES
100
AcDbLine
 62
7
  6
CONTINUOUS
 10
-14.25
 20
-27.7
 11
-5.75
 21
-27.7
  0
LINE
  5
2C1
100
AcDbEntity
  8
IMPORT_IGES
100
AcDbLine
 62
7
  6
CONTINUOUS
 10
-4.25
 20
-27.7
 11
4.25
 21
-27.7
  0
LINE
  5
2C2
100
AcDbEntity
  8
IMPORT_IGES
100
AcDbLine
 62
7
  6
CONTINUOUS
 10
5.75
 20
-27.7
 11
14.25
 21
-27.7
  0
LINE
  5
2C3
100
AcDbEntity
  8
IMPORT_IGES
100
AcDbLine
 62
7
  6
CONTINUOUS
 10
15.75
 20
-27.7
 11
24.25
 21
-27.7
  0
LINE
  5
2C4
100
AcDbEntity
  8
IMPORT_IGES
100
AcDbLine
 62
7
  6
CONTINUOUS
 10
25.75
 20
-27.7
 11
34.25
 21
-27.7
  0
LINE
  5
2C5
100
AcDbEntity
  8
IMPORT_IGES
100
AcDbLine
 62
7
  6
CONTINUOUS
 10
35.75
 20
-27.7
 11
39.0
 21
-27.7
  0
LINE
  5
2C6
100
AcDbEntity
  8
IMPORT_IGES
100
AcDbLine
 62
250
  6
CONTINUOUS
 10
-62.9127246708
 20
-27.4386944125
 11
-62.4127246708
 21
-27.4386944096
  0
LINE
  5
2C7
100
AcDbEntity
  8
IMPORT_IGES
100
AcDbLine
 62
250
  6
CONTINUOUS
 10
62.9127246708
 20
-27.4386944096
 11
62.4127246708
 21
-27.4386944125
  0
LINE
  5
2C8
100
AcDbEntity
  8
IMPORT_IGES
100
AcDbLine
 62
7
  6
CONTINUOUS
 10
41.9454780492
 20
-26.7640519674
 11
40.3892507258
 21
-26.7640519674
  0
LINE
  5
2C9
100
AcDbEntity
  8
IMPORT_IGES
100
AcDbLine
 62
7
  6
CONTINUOUS
 10
-40.3892506184
 20
-26.7640519674
 11
-41.9454780492
 21
-26.7640519674
  0
LINE
  5
2CA
100
AcDbEntity
  8
IMPORT_IGES
100
AcDbLine
 62
7
  6
CONTINUOUS
 10
41.9471014942
 20
-26.7553244349
 11
40.3927238528
 21
-26.7553244349
  0
LINE
  5
2CB
100
AcDbEntity
  8
IMPORT_IGES
100
AcDbLine
 62
7
  6
CONTINUOUS
 10
-40.3927238282
 20
-26.7553244349
 11
-41.9471014942
 21
-26.7553244349
  0
LINE
  5
2CC
100
AcDbEntity
  8
IMPORT_IGES
100
AcDbLine
 62
7
420
16119285
  6
CONTINUOUS
 10
-34.3887092915
 20
33.5
 11
-34.4998511597
 21
34.0001474301
  0
LINE
  5
2CD
100
AcDbEntity
  8
IMPORT_IGES
100
AcDbLine
 62
7
  6
CONTINUOUS
 10
-33.8631546206
 20
33.5
 11
-33.9586500806
 21
34.0595916734
  0
LINE
  5
2CE
100
AcDbEntity
  8
IMPORT_IGES
100
AcDbLine
 62
7
  6
CONTINUOUS
 10
-33.658193648
 20
34.1108651762
 11
-33.5539482602
 21
33.5
  0
LINE
  5
2CF
100
AcDbEntity
  8
IMPORT_IGES
100
AcDbLine
 62
7
  6
CONTINUOUS
 10
-63.0349101299
 20
-29.0349101299
 11
-62.9384504145
 21
-28.9384504144
  0
LINE
  5
2D0
100
AcDbEntity
  8
IMPORT_IGES
100
AcDbLine
 62
7
  6
CONTINUOUS
 10
-62.4384504145
 20
-28.9384504144
 11
-62.5349101299
 21
-29.0349101299
  0
LINE
  5
2D1
100
AcDbEntity
  8
IMPORT_IGES
100
AcDbLine
 62
7
  6
CONTINUOUS
 10
39.0
 20
-21.7
 11
35.75
 21
-21.7
  0
LINE
  5
2D2
100
AcDbEntity
  8
IMPORT_IGES
100
AcDbLine
 62
7
  6
CONTINUOUS
 10
34.25
 20
-21.7
 11
25.75
 21
-21.7
  0
LINE
  5
2D3
100
AcDbEntity
  8
IMPORT_IGES
100
AcDbLine
 62
7
  6
CONTINUOUS
 10
24.25
 20
-21.7
 11
15.75
 21
-21.7
  0
LINE
  5
2D4
100
AcDbEntity
  8
IMPORT_IGES
100
AcDbLine
 62
7
  6
CONTINUOUS
 10
14.25
 20
-21.7
 11
5.75
 21
-21.7
  0
LINE
  5
2D5
100
AcDbEntity
  8
IMPORT_IGES
100
AcDbLine
 62
7
  6
CONTINUOUS
 10
4.25
 20
-21.7
 11
-4.25
 21
-21.7
  0
LINE
  5
2D6
100
AcDbEntity
  8
IMPORT_IGES
100
AcDbLine
 62
7
  6
CONTINUOUS
 10
-5.75
 20
-21.7
 11
-14.25
 21
-21.7
  0
LINE
  5
2D7
100
AcDbEntity
  8
IMPORT_IGES
100
AcDbLine
 62
7
  6
CONTINUOUS
 10
-15.75
 20
-21.7
 11
-24.25
 21
-21.7
  0
LINE
  5
2D8
100
AcDbEntity
  8
IMPORT_IGES
100
AcDbLine
 62
7
  6
CONTINUOUS
 10
-25.75
 20
-21.7
 11
-34.25
 21
-21.7
  0
LINE
  5
2D9
100
AcDbEntity
  8
IMPORT_IGES
100
AcDbLine
 62
7
  6
CONTINUOUS
 10
-35.75
 20
-21.7
 11
-39.0
 21
-21.7
  0
LINE
  5
2DA
100
AcDbEntity
  8
IMPORT_IGES
100
AcDbLine
 62
7
  6
CONTINUOUS
 10
-41.4704518006
 20
-21.4998162761
 11
-35.75
 21
-21.4998226747
  0
LINE
  5
2DB
100
AcDbEntity
  8
IMPORT_IGES
100
AcDbLine
 62
7
  6
CONTINUOUS
 10
-34.25
 20
-21.4998243525
 11
-25.75
 21
-21.49983386
  0
LINE
  5
2DC
100
AcDbEntity
  8
IMPORT_IGES
100
AcDbLine
 62
7
  6
CONTINUOUS
 10
-24.25
 20
-21.4998355379
 11
-15.75
 21
-21.4998450454
  0
LINE
  5
2DD
100
AcDbEntity
  8
IMPORT_IGES
100
AcDbLine
 62
7
  6
CONTINUOUS
 10
-14.25
 20
-21.4998467232
 11
-5.75
 21
-21.4998562308
  0
LINE
  5
2DE
100
AcDbEntity
  8
IMPORT_IGES
100
AcDbLine
 62
7
  6
CONTINUOUS
 10
-4.25
 20
-21.4998579086
 11
4.25
 21
-21.4998674162
  0
LINE
  5
2DF
100
AcDbEntity
  8
IMPORT_IGES
100
AcDbLine
 62
7
  6
CONTINUOUS
 10
5.75
 20
-21.499869094
 11
14.25
 21
-21.4998786016
  0
LINE
  5
2E0
100
AcDbEntity
  8
IMPORT_IGES
100
AcDbLine
 62
7
  6
CONTINUOUS
 10
15.75
 20
-21.4998802794
 11
24.25
 21
-21.499889787
  0
LINE
  5
2E1
100
AcDbEntity
  8
IMPORT_IGES
100
AcDbLine
 62
7
  6
CONTINUOUS
 10
25.75
 20
-21.4998914648
 11
34.25
 21
-21.4999009724
  0
LINE
  5
2E2
100
AcDbEntity
  8
IMPORT_IGES
100
AcDbLine
 62
7
  6
CONTINUOUS
 10
35.75
 20
-21.4999026502
 11
41.4705155851
 21
-21.4999090488
  0
LINE
  5
2E3
100
AcDbEntity
  8
IMPORT_IGES
100
AcDbLine
 62
7
  6
CONTINUOUS
 10
39.0000000001
 20
-20.2
 11
-39.0
 21
-20.2
  0
LINE
  5
2E4
100
AcDbEntity
  8
IMPORT_IGES
100
AcDbLine
 62
7
  6
CONTINUOUS
 10
39.0
 20
-19.36
 11
-39.0
 21
-19.36
  0
LINE
  5
2E5
100
AcDbEntity
  8
IMPORT_IGES
100
AcDbLine
 62
7
  6
CONTINUOUS
 10
-62.9384505964
 20
28.9384505964
 11
-63.0349101299
 21
29.0349101299
  0
LINE
  5
2E6
100
AcDbEntity
  8
IMPORT_IGES
100
AcDbLine
 62
7
  6
CONTINUOUS
 10
-62.5349101299
 20
29.0349101299
 11
-62.4384505964
 21
28.9384505964
  0
LINE
  5
2E7
100
AcDbEntity
  8
IMPORT_IGES
100
AcDbLine
 62
7
  6
CONTINUOUS
 10
-15.75
 20
-20.2
 11
-15.75
 21
-21.7
  0
LINE
  5
2E8
100
AcDbEntity
  8
IMPORT_IGES
100
AcDbLine
 62
7
  6
CONTINUOUS
 10
-15.75
 20
-27.7
 11
-15.75
 21
-29.2
  0
LINE
  5
2E9
100
AcDbEntity
  8
IMPORT_IGES
100
AcDbLine
 62
250
  6
CONTINUOUS
 10
-62.3511749988
 20
-38.351403456
 11
-62.5349101299
 21
-38.5351385708
  0
LINE
  5
2EA
100
AcDbEntity
  8
IMPORT_IGES
100
AcDbLine
 62
250
  6
CONTINUOUS
 10
-61.0351353244
 20
-40.0349101299
 11
-60.8514018269
 21
-39.851174999
  0
LINE
  5
2EB
100
AcDbEntity
  8
IMPORT_IGES
100
AcDbLine
 62
250
  6
CONTINUOUS
 10
-62.5349101299
 20
38.5351385702
 11
-62.3511749988
 21
38.351403456
  0
LINE
  5
2EC
100
AcDbEntity
  8
IMPORT_IGES
100
AcDbLine
 62
250
  6
CONTINUOUS
 10
-60.851401827
 20
39.851174999
 11
-61.0351353243
 21
40.0349101299
  0
LINE
  5
2ED
100
AcDbEntity
  8
IMPORT_IGES
100
AcDbLine
 62
7
  6
CONTINUOUS
 10
-14.25
 20
-29.2
 11
-14.25
 21
-27.7
  0
LINE
  5
2EE
100
AcDbEntity
  8
IMPORT_IGES
100
AcDbLine
 62
7
  6
CONTINUOUS
 10
-14.25
 20
-21.7
 11
-14.25
 21
-20.2
  0
LINE
  5
2EF
100
AcDbEntity
  8
IMPORT_IGES
100
AcDbLine
 62
7
  6
CONTINUOUS
 10
-5.75
 20
-20.2
 11
-5.75
 21
-21.7
  0
LINE
  5
2F0
100
AcDbEntity
  8
IMPORT_IGES
100
AcDbLine
 62
7
  6
CONTINUOUS
 10
-5.75
 20
-27.7
 11
-5.75
 21
-29.2
  0
LINE
  5
2F1
100
AcDbEntity
  8
IMPORT_IGES
100
AcDbLine
 62
7
  6
CONTINUOUS
 10
-4.25
 20
-29.2
 11
-4.25
 21
-27.7
  0
LINE
  5
2F2
100
AcDbEntity
  8
IMPORT_IGES
100
AcDbLine
 62
7
  6
CONTINUOUS
 10
-4.25
 20
-21.7
 11
-4.25
 21
-20.2
  0
LINE
  5
2F3
100
AcDbEntity
  8
IMPORT_IGES
100
AcDbLine
 62
250
  6
CONTINUOUS
 10
-2.0
 20
-39.9093962807
 11
-2.0
 21
-39.9443064105
  0
LINE
  5
2F4
100
AcDbEntity
  8
IMPORT_IGES
100
AcDbLine
 62
7
  6
CONTINUOUS
 10
37.0
 20
-3.0
 11
41.0
 21
-3.0
  0
LINE
  5
2F5
100
AcDbEntity
  8
IMPORT_IGES
100
AcDbLine
 62
7
  6
CONTINUOUS
 10
51.0
 20
-3.0
 11
55.0
 21
-3.0
  0
LINE
  5
2F6
100
AcDbEntity
  8
IMPORT_IGES
100
AcDbLine
 62
7
  6
CONTINUOUS
 10
41.0
 20
-2.0
 11
37.0
 21
-2.0
  0
LINE
  5
2F7
100
AcDbEntity
  8
IMPORT_IGES
100
AcDbLine
 62
7
  6
CONTINUOUS
 10
51.0
 20
-2.0
 11
55.0
 21
-2.0
  0
LINE
  5
2F8
100
AcDbEntity
  8
IMPORT_IGES
100
AcDbLine
 62
250
  6
CONTINUOUS
 10
2.0
 20
-39.9443064105
 11
2.0
 21
-39.9093962807
  0
LINE
  5
2F9
100
AcDbEntity
  8
IMPORT_IGES
100
AcDbLine
 62
7
  6
CONTINUOUS
 10
4.25
 20
-20.2
 11
4.25
 21
-21.7
  0
LINE
  5
2FA
100
AcDbEntity
  8
IMPORT_IGES
100
AcDbLine
 62
7
  6
CONTINUOUS
 10
4.25
 20
-27.7
 11
4.25
 21
-29.2
  0
LINE
  5
2FB
100
AcDbEntity
  8
IMPORT_IGES
100
AcDbLine
 62
7
  6
CONTINUOUS
 10
55.0
 20
2.0
 11
51.0
 21
2.0
  0
LINE
  5
2FC
100
AcDbEntity
  8
IMPORT_IGES
100
AcDbLine
 62
7
  6
CONTINUOUS
 10
41.0
 20
2.0
 11
37.0
 21
2.0
  0
LINE
  5
2FD
100
AcDbEntity
  8
IMPORT_IGES
100
AcDbLine
 62
7
  6
CONTINUOUS
 10
55.0
 20
3.0
 11
51.0
 21
3.0
  0
LINE
  5
2FE
100
AcDbEntity
  8
IMPORT_IGES
100
AcDbLine
 62
7
  6
CONTINUOUS
 10
41.0
 20
3.0
 11
37.0
 21
3.0
  0
LINE
  5
2FF
100
AcDbEntity
  8
IMPORT_IGES
100
AcDbLine
 62
7
  6
CONTINUOUS
 10
5.75
 20
-29.2
 11
5.75
 21
-27.7
  0
LINE
  5
300
100
AcDbEntity
  8
IMPORT_IGES
100
AcDbLine
 62
7
  6
CONTINUOUS
 10
5.75
 20
-21.7
 11
5.75
 21
-20.2
  0
LWPOLYLINE
  5
301
100
AcDbEntity
  8
IMPORT_IGES
100
AcDbPolyline
 62
7
  6
CONTINUOUS
 90
9
 70
0
 10
-47.0999675265
 20
-39.9301797404
 10
-47.0963881577
 20
-39.9280436983
 10
-47.0858155194
 20
-39.9259270359
 10
-47.0682496117
 20
-39.9238297532
 10
-47.0435810037
 20
-39.9217441513
 10
-47.0119191263
 20
-39.9196779291
 10
-46.9735922715
 20
-39.917654183
 10
-46.9284958703
 20
-39.9156733018
 10
-46.8767344919
 20
-39.9137348967
  0
LINE
  5
302
100
AcDbEntity
  8
IMPORT_IGES
100
AcDbLine
 62
7
  6
CONTINUOUS
 10
14.25
 20
-20.2
 11
14.25
 21
-21.7
  0
LINE
  5
303
100
AcDbEntity
  8
IMPORT_IGES
100
AcDbLine
 62
7
  6
CONTINUOUS
 10
14.25
 20
-27.7
 11
14.25
 21
-29.2
  0
LINE
  5
304
100
AcDbEntity
  8
IMPORT_IGES
100
AcDbLine
 62
250
  6
CONTINUOUS
 10
61.0351359718
 20
40.0349101299
 11
60.8514021506
 21
39.851174999
  0
LWPOLYLINE
  5
305
100
AcDbEntity
  8
IMPORT_IGES
100
AcDbPolyline
 62
7
  6
CONTINUOUS
 90
9
 70
0
 10
-42.9000324735
 20
-39.9301797404
 10
-42.9036118423
 20
-39.9323157824
 10
-42.9141844805
 20
-39.9344324447
 10
-42.9317503882
 20
-39.9365297274
 10
-42.9564189962
 20
-39.9386153293
 10
-42.9880808736
 20
-39.9406815515
 10
-43.0264077284
 20
-39.9427052976
 10
-43.0715041295
 20
-39.9446861788
 10
-43.123265508
 20
-39.9466245839
  0
LINE
  5
306
100
AcDbEntity
  8
IMPORT_IGES
100
AcDbLine
 62
7
  6
CONTINUOUS
 10
-31.9999999999
 20
15.5
 11
-50.0
 21
15.5
  0
LINE
  5
307
100
AcDbEntity
  8
IMPORT_IGES
100
AcDbLine
 62
250
  6
CONTINUOUS
 10
60.8514021507
 20
-39.851174999
 11
61.0351359725
 21
-40.0349101299
  0
LINE
  5
308
100
AcDbEntity
  8
IMPORT_IGES
100
AcDbLine
 62
7
  6
CONTINUOUS
 10
15.75
 20
-29.2
 11
15.75
 21
-27.7
  0
LINE
  5
309
100
AcDbEntity
  8
IMPORT_IGES
100
AcDbLine
 62
7
  6
CONTINUOUS
 10
15.75
 20
-21.7
 11
15.75
 21
-20.2
  0
LINE
  5
30A
100
AcDbEntity
  8
IMPORT_IGES
100
AcDbLine
 62
250
  6
CONTINUOUS
 10
62.3511749988
 20
38.351403456
 11
62.5349101299
 21
38.5351385732
  0
LINE
  5
30B
100
AcDbEntity
  8
IMPORT_IGES
100
AcDbLine
 62
7
  6
CONTINUOUS
 10
-32.0
 20
16.5
 11
-50.0
 21
16.5
  0
LINE
  5
30C
100
AcDbEntity
  8
IMPORT_IGES
100
AcDbLine
 62
7
  6
CONTINUOUS
 10
-32.5
 20
18.5
 11
-49.5
 21
18.5
  0
LINE
  5
30D
100
AcDbEntity
  8
IMPORT_IGES
100
AcDbLine
 62
7
  6
CONTINUOUS
 10
-50.0
 20
20.5
 11
-52.0
 21
20.5
  0
LINE
  5
30E
100
AcDbEntity
  8
IMPORT_IGES
100
AcDbLine
 62
250
  6
CONTINUOUS
 10
62.5349101299
 20
-38.5351385736
 11
62.3511749988
 21
-38.351403456
  0
LINE
  5
30F
100
AcDbEntity
  8
IMPORT_IGES
100
AcDbLine
 62
7
  6
CONTINUOUS
 10
24.25
 20
-20.2
 11
24.25
 21
-21.7
  0
LINE
  5
310
100
AcDbEntity
  8
IMPORT_IGES
100
AcDbLine
 62
7
  6
CONTINUOUS
 10
24.25
 20
-27.7
 11
24.25
 21
-29.2
  0
LINE
  5
311
100
AcDbEntity
  8
IMPORT_IGES
100
AcDbLine
 62
7
  6
CONTINUOUS
 10
62.4384505964
 20
28.9384505964
 11
62.5349101299
 21
29.0349101299
  0
LINE
  5
312
100
AcDbEntity
  8
IMPORT_IGES
100
AcDbLine
 62
7
  6
CONTINUOUS
 10
62.9384505986
 20
28.938443228
 11
63.0349101299
 21
29.0349101299
  0
LINE
  5
313
100
AcDbEntity
  8
IMPORT_IGES
100
AcDbLine
 62
7
  6
CONTINUOUS
 10
-50.0
 20
22.0
 11
-52.0
 21
22.0
  0
LINE
  5
314
100
AcDbEntity
  8
IMPORT_IGES
100
AcDbLine
 62
7
  6
CONTINUOUS
 10
-30.0
 20
25.25
 11
-32.0
 21
25.25
  0
LINE
  5
315
100
AcDbEntity
  8
IMPORT_IGES
100
AcDbLine
 62
7
  6
CONTINUOUS
 10
62.5349101299
 20
-29.0349101299
 11
62.4384504145
 21
-28.9384504144
  0
LINE
  5
316
100
AcDbEntity
  8
IMPORT_IGES
100
AcDbLine
 62
7
  6
CONTINUOUS
 10
62.9384504145
 20
-28.9384504144
 11
63.0349101299
 21
-29.0349101299
  0
LINE
  5
317
100
AcDbEntity
  8
IMPORT_IGES
100
AcDbLine
 62
7
  6
CONTINUOUS
 10
25.75
 20
-29.2
 11
25.75
 21
-27.7
  0
LINE
  5
318
100
AcDbEntity
  8
IMPORT_IGES
100
AcDbLine
 62
7
  6
CONTINUOUS
 10
25.75
 20
-21.7
 11
25.75
 21
-20.2
  0
LINE
  5
319
100
AcDbEntity
  8
IMPORT_IGES
100
AcDbLine
 62
7
  6
CONTINUOUS
 10
-30.0
 20
26.75
 11
-32.0
 21
26.75
  0
LINE
  5
31A
100
AcDbEntity
  8
IMPORT_IGES
100
AcDbLine
 62
7
  6
CONTINUOUS
 10
-32.0
 20
26.7553244349
 11
-31.5165324093
 21
26.7553244349
  0
LINE
  5
31B
100
AcDbEntity
  8
IMPORT_IGES
100
AcDbLine
 62
7
  6
CONTINUOUS
 10
-45.1489484944
 20
26.7553244349
 11
-48.8510450802
 21
26.7553244349
  0
LINE
  5
31C
100
AcDbEntity
  8
IMPORT_IGES
100
AcDbLine
 62
7
  6
CONTINUOUS
 10
-50.0
 20
26.7553244349
 11
-52.0
 21
26.7553244349
  0
LINE
  5
31D
100
AcDbEntity
  8
IMPORT_IGES
100
AcDbLine
 62
7
  6
CONTINUOUS
 10
-52.0
 20
26.7640519674
 11
-50.0
 21
26.7640519674
  0
LINE
  5
31E
100
AcDbEntity
  8
IMPORT_IGES
100
AcDbLine
 62
7
  6
CONTINUOUS
 10
-48.8475752049
 20
26.7640519674
 11
-45.1524170917
 21
26.7640519674
  0
LINE
  5
31F
100
AcDbEntity
  8
IMPORT_IGES
100
AcDbLine
 62
7
  6
CONTINUOUS
 10
-32.0
 20
26.7640519674
 11
-31.5165323995
 21
26.7640519674
  0
LINE
  5
320
100
AcDbEntity
  8
IMPORT_IGES
100
AcDbLine
 62
250
  6
CONTINUOUS
 10
-62.9127246708
 20
27.4386873052
 11
-62.4127246662
 21
27.4386873077
  0
LINE
  5
321
100
AcDbEntity
  8
IMPORT_IGES
100
AcDbLine
 62
250
  6
CONTINUOUS
 10
62.9127246662
 20
27.4386873077
 11
62.4127246708
 21
27.4386873052
  0
LINE
  5
322
100
AcDbEntity
  8
IMPORT_IGES
100
AcDbLine
 62
250
  6
CONTINUOUS
 10
62.9384505964
 20
28.9384505964
 11
62.4384505964
 21
28.9384505964
  0
LINE
  5
323
100
AcDbEntity
  8
IMPORT_IGES
100
AcDbLine
 62
250
  6
CONTINUOUS
 10
-62.4384505964
 20
28.9384505964
 11
-62.9384505964
 21
28.9384505964
  0
LINE
  5
324
100
AcDbEntity
  8
IMPORT_IGES
100
AcDbLine
 62
7
  6
CONTINUOUS
 10
-63.0349101299
 20
29.0349101299
 11
-62.5349101299
 21
29.0349101299
  0
LINE
  5
325
100
AcDbEntity
  8
IMPORT_IGES
100
AcDbLine
 62
7
  6
CONTINUOUS
 10
62.5349101299
 20
29.0349101299
 11
63.0349101299
 21
29.0349101299
  0
LINE
  5
326
100
AcDbEntity
  8
IMPORT_IGES
100
AcDbLine
 62
7
  6
CONTINUOUS
 10
-50.0
 20
30.0
 11
-52.0
 21
30.0
  0
LINE
  5
327
100
AcDbEntity
  8
IMPORT_IGES
100
AcDbLine
 62
7
  6
CONTINUOUS
 10
34.25
 20
-20.2
 11
34.25
 21
-21.7
  0
LINE
  5
328
100
AcDbEntity
  8
IMPORT_IGES
100
AcDbLine
 62
7
  6
CONTINUOUS
 10
34.25
 20
-27.7
 11
34.25
 21
-29.2
  0
LWPOLYLINE
  5
329
100
AcDbEntity
  8
IMPORT_IGES
100
AcDbPolyline
 62
7
  6
CONTINUOUS
 90
9
 70
0
 10
-2.9999912118
 20
-39.9268513457
 10
-2.997829227
 20
-39.9257111495
 10
-2.9915227135
 20
-39.9245844546
 10
-2.9810716715
 20
-39.9234712609
 10
-2.9664759273
 20
-39.922368802
 10
-2.9477356546
 20
-39.9212798443
 10
-2.9248513738
 20
-39.9202126873
 10
-2.8976893345
 20
-39.9191636901
 10
-2.8663832871
 20
-39.9181364936
  0
LINE
  5
32A
100
AcDbEntity
  8
IMPORT_IGES
100
AcDbLine
 62
7
  6
CONTINUOUS
 10
-50.0
 20
31.5
 11
-52.0
 21
31.5
  0
LINE
  5
32B
100
AcDbEntity
  8
IMPORT_IGES
100
AcDbLine
 62
7
  6
CONTINUOUS
 10
-30.9999798998
 20
32.888385517
 11
-31.5165255492
 21
32.8883860948
  0
LINE
  5
32C
100
AcDbEntity
  8
IMPORT_IGES
100
AcDbLine
 62
7
420
16119285
  6
CONTINUOUS
 10
-31.4998631298
 20
33.0000328551
 11
-30.9999797749
 21
33.000032296
  0
LINE
  5
32D
100
AcDbEntity
  8
IMPORT_IGES
100
AcDbLine
 62
7
  6
CONTINUOUS
 10
-49.5
 20
33.5
 11
-32.5
 21
33.5
  0
LINE
  5
32E
100
AcDbEntity
  8
IMPORT_IGES
100
AcDbLine
 62
7
  6
CONTINUOUS
 10
-29.9999999999
 20
33.5000867872
 11
-30.9999792156
 21
33.5000879057
  0
LINE
  5
32F
100
AcDbEntity
  8
IMPORT_IGES
100
AcDbLine
 62
7
  6
CONTINUOUS
 10
-40.25
 20
34.1091770011
 11
-37.6913026009
 21
34.1091741391
  0
LINE
  5
330
100
AcDbEntity
  8
IMPORT_IGES
100
AcDbLine
 62
7
  6
CONTINUOUS
 10
-45.0
 20
35.2639758034
 11
-46.0
 21
35.2639758034
  0
LINE
  5
331
100
AcDbEntity
  8
IMPORT_IGES
100
AcDbLine
 62
7
  6
CONTINUOUS
 10
-50.0
 20
35.5
 11
-32.0
 21
35.5
  0
LINE
  5
332
100
AcDbEntity
  8
IMPORT_IGES
100
AcDbLine
 62
7
  6
CONTINUOUS
 10
35.75
 20
-20.2
 11
35.75
 21
-21.7
  0
LINE
  5
333
100
AcDbEntity
  8
IMPORT_IGES
100
AcDbLine
 62
7
  6
CONTINUOUS
 10
35.75
 20
-29.2
 11
35.75
 21
-27.7
  0
LWPOLYLINE
  5
334
100
AcDbEntity
  8
IMPORT_IGES
100
AcDbPolyline
 62
7
  6
CONTINUOUS
 90
9
 70
0
 10
2.9999912118
 20
-39.9268513456
 10
2.997829227
 20
-39.9279915417
 10
2.9915227135
 20
-39.9291182366
 10
2.9810716715
 20
-39.9302314303
 10
2.9664759274
 20
-39.9313338892
 10
2.9477356546
 20
-39.9324228469
 10
2.9248513738
 20
-39.9334900039
 10
2.8976893345
 20
-39.9345390011
 10
2.8663832871
 20
-39.9355661976
  0
LINE
  5
335
100
AcDbEntity
  8
IMPORT_IGES
100
AcDbLine
 62
7
  6
CONTINUOUS
 10
-33.9586500806
 20
34.0595916734
 11
-33.658193648
 21
34.1108651762
  0
LINE
  5
336
100
AcDbEntity
  8
IMPORT_IGES
100
AcDbLine
 62
7
  6
CONTINUOUS
 10
-50.0
 20
36.5
 11
-32.0
 21
36.5
  0
LINE
  5
337
100
AcDbEntity
  8
IMPORT_IGES
100
AcDbLine
 62
250
  6
CONTINUOUS
 10
62.3511749988
 20
38.3514034561
 11
-62.3511749988
 21
38.351403456
  0
LINE
  5
338
100
AcDbEntity
  8
IMPORT_IGES
100
AcDbLine
 62
250
  6
CONTINUOUS
 10
60.8514021506
 20
39.851174999
 11
-60.851401827
 21
39.851174999
  0
LINE
  5
339
100
AcDbEntity
  8
IMPORT_IGES
100
AcDbLine
 62
7
  6
CONTINUOUS
 10
-61.0351353243
 20
40.0349101299
 11
61.0351359718
 21
40.0349101299
  0
LINE
  5
33A
100
AcDbEntity
  8
IMPORT_IGES
100
AcDbLine
 62
7
  6
CONTINUOUS
 10
40.5
 20
-26.2
 11
40.5
 21
-23.2
  0
LINE
  5
33B
100
AcDbEntity
  8
IMPORT_IGES
100
AcDbLine
 62
7
  6
CONTINUOUS
 10
42.0
 20
-26.2000000001
 11
42.0
 21
-23.2
  0
LINE
  5
33C
100
AcDbEntity
  8
IMPORT_IGES
100
AcDbLine
 62
7
  6
CONTINUOUS
 10
42.5000604844
 20
-1.3215483118
 11
42.5000634408
 21
1.3215448074
  0
LINE
  5
33D
100
AcDbEntity
  8
IMPORT_IGES
100
AcDbLine
 62
7
  6
CONTINUOUS
 10
42.84
 20
-26.2
 11
42.84
 21
-23.2
  0
LWPOLYLINE
  5
33E
100
AcDbEntity
  8
IMPORT_IGES
100
AcDbPolyline
 62
7
  6
CONTINUOUS
 90
28
 70
0
 10
-61.0351353243
 20
40.0349101299
 10
-61.123002979
 20
40.0322847258
 10
-61.2099543324
 20
40.02466893
 10
-61.2959893845
 20
40.0120627425
 10
-61.3813882257
 20
39.9943857551
 10
-61.4658707656
 20
39.9717183761
 10
-61.5485967329
 20
39.9443018294
 10
-61.6295482038
 20
39.912090249
 10
-61.7087431021
 20
39.8751295009
 10
-61.7853949284
 20
39.8337984079
 10
-61.8594777911
 20
39.7880555174
 10
-61.9310175818
 20
39.7379422818
 10
-61.9993054765
 20
39.6839618815
 10
-62.0643102441
 20
39.6260770252
 10
-62.1260631157
 20
39.564325004
 10
-62.18394896
 20
39.4993208724
 10
-62.237930493
 20
39.4310333896
 10
-62.2880449988
 20
39.3594937964
 10
-62.3337891986
 20
39.2854108688
 10
-62.3751216442
 20
39.2087587037
 10
-62.4120837838
 20
39.1295632041
 10
-62.4442966835
 20
39.0486108553
 10
-62.4717145931
 20
38.9658837213
 10
-62.4943832629
 20
38.8813997379
 10
-62.5120610092
 20
38.7959991985
 10
-62.5246672708
 20
38.7099622006
 10
-62.532282609
 20
38.6230086466
 10
-62.5349070236
 20
38.5351385364
  0
LWPOLYLINE
  5
33F
100
AcDbEntity
  8
IMPORT_IGES
100
AcDbPolyline
 62
250
  6
CONTINUOUS
 90
28
 70
0
 10
-60.8514001986
 20
39.8511749998
 10
-60.9385844379
 20
39.8486124069
 10
-61.0254737853
 20
39.8409860308
 10
-61.1117743687
 20
39.8283216707
 10
-61.1971938005
 20
39.8106622853
 10
-61.2814437023
 20
39.7880675454
 10
-61.3642406031
 20
39.7606133391
 10
-61.4453050881
 20
39.7283919646
 10
-61.5243621296
 20
39.6915123803
 10
-61.6011435583
 20
39.6500994625
 10
-61.6753897082
 20
39.6042930954
 10
-61.7468492324
 20
39.5542481728
 10
-61.8152794303
 20
39.500134621
 10
-61.8804483806
 20
39.4421359989
 10
-61.9421362221
 20
39.380448144
 10
-62.0001348732
 20
39.3152791298
 10
-62.0542485219
 20
39.2468487635
 10
-62.1042935593
 20
39.175389003
 10
-62.1500999605
 20
39.101142696
 10
-62.1915128175
 20
39.0243612592
 10
-62.2283922993
 20
38.9453043126
 10
-62.2606135548
 20
38.864240011
 10
-62.2880676515
 20
38.7814433483
 10
-62.3106622908
 20
38.6971937772
 10
-62.3283215834
 20
38.6117748631
 10
-62.3409858865
 20
38.5254750171
 10
-62.3486122808
 20
38.4385865929
 10
-62.3511749988
 20
38.351403456
  0
LWPOLYLINE
  5
340
100
AcDbEntity
  8
IMPORT_IGES
100
AcDbPolyline
 62
7
  6
CONTINUOUS
 90
28
 70
0
 10
60.8514008455
 20
39.8511749996
 10
60.9386704471
 20
39.8486073701
 10
61.0256277913
 20
39.8409679796
 10
61.1119785641
 20
39.8282855976
 10
61.1974291972
 20
39.8106064173
 10
61.2816926665
 20
39.7879929298
 10
61.3644892181
 20
39.7605227731
 10
61.4455392862
 20
39.7282908722
 10
61.5245696928
 20
39.6914080815
 10
61.6013187674
 20
39.6499982626
 10
61.675527982
 20
39.6042021223
 10
61.7469467061
 20
39.5541755901
 10
61.8153373088
 20
39.5000860487
 10
61.8804687985
 20
39.4421167348
 10
61.942121537
 20
39.3804637087
 10
62.0000904793
 20
39.3153320295
 10
62.0541795805
 20
39.2469413476
 10
62.1042056207
 20
39.1755226652
 10
62.150001235
 20
39.1013136219
 10
62.191410513
 20
39.0245648547
 10
62.2282927675
 20
38.9455348964
 10
62.2605241571
 20
38.8644854198
 10
62.2879938482
 20
38.781689603
 10
62.3106069366
 20
38.6974270098
 10
62.3282858051
 20
38.6119773899
 10
62.3409679831
 20
38.525627761
 10
62.3486072977
 20
38.4386716821
 10
62.3511749988
 20
38.351403456
  0
LWPOLYLINE
  5
341
100
AcDbEntity
  8
IMPORT_IGES
100
AcDbPolyline
 62
7
  6
CONTINUOUS
 90
28
 70
0
 10
61.0351359639
 20
40.0349070236
 10
61.1229246026
 20
40.0322895894
 10
61.2098134612
 20
40.0246839966
 10
61.2958025397
 20
40.0120902452
 10
61.3811736345
 20
39.9944299195
 10
61.4656449492
 20
39.9717814352
 10
61.5483710944
 20
39.9443800393
 10
61.6293341821
 20
39.9121792
 10
61.7085521003
 20
39.8752254491
 10
61.7852331238
 20
39.8338936284
 10
61.8593522964
 20
39.7881403688
 10
61.9309345743
 20
39.7380090395
 10
61.9992631006
 20
39.6840045902
 10
62.0643054031
 20
39.6260888431
 10
62.126093954
 20
39.5642999759
 10
62.1840093139
 20
39.4992574717
 10
62.2380133007
 20
39.4309288635
 10
62.2881440964
 20
39.3593466182
 10
62.333896807
 20
39.2852276196
 10
62.375228061
 20
39.208546918
 10
62.4121812298
 20
39.129329463
 10
62.4443815348
 20
39.0483669873
 10
62.4717823286
 20
38.9656416087
 10
62.4944302584
 20
38.8811712095
 10
62.5120904872
 20
38.7958011684
 10
62.5246847358
 20
38.7098132785
 10
62.5322912834
 20
38.6229257467
 10
62.5349101299
 20
38.5351385732
  0
LWPOLYLINE
  5
342
100
AcDbEntity
  8
IMPORT_IGES
100
AcDbPolyline
 62
7
  6
CONTINUOUS
 90
9
 70
0
 10
62.4384503258
 20
-28.9384429553
 10
62.4369360882
 20
-28.9343716148
 10
62.4354385015
 20
-28.9254343687
 10
62.4339575655
 20
-28.911631217
 10
62.4324885381
 20
-28.892882186
 10
62.4310361616
 20
-28.8692672494
 10
62.4296146619
 20
-28.8410263283
 10
62.4282243489
 20
-28.8081152316
 10
62.4268649127
 20
-28.7705781504
  0
LWPOLYLINE
  5
343
100
AcDbEntity
  8
IMPORT_IGES
100
AcDbPolyline
 62
7
  6
CONTINUOUS
 90
9
 70
0
 10
62.9384504144
 20
-28.9384504144
 10
62.9369348446
 20
-28.9343683638
 10
62.9354362347
 20
-28.925420422
 10
62.9339545848
 20
-28.9116065891
 10
62.9324851905
 20
-28.8928454014
 10
62.9310327561
 20
-28.8692183225
 10
62.9296113946
 20
-28.8409697433
 10
62.9282214117
 20
-28.8080558622
 10
62.9268625016
 20
-28.7705204807
  0
LWPOLYLINE
  5
344
100
AcDbEntity
  8
IMPORT_IGES
100
AcDbPolyline
 62
7
  6
CONTINUOUS
 90
9
 70
0
 10
42.9000324735
 20
-39.9301797404
 10
42.9036118423
 20
-39.9280436983
 10
42.9141844806
 20
-39.9259270359
 10
42.9317503883
 20
-39.9238297532
 10
42.9564189963
 20
-39.9217441513
 10
42.9880808737
 20
-39.9196779291
 10
43.0264077285
 20
-39.917654183
 10
43.0715041297
 20
-39.9156733018
 10
43.1232655081
 20
-39.9137348967
  0
LWPOLYLINE
  5
345
100
AcDbEntity
  8
IMPORT_IGES
100
AcDbPolyline
 62
7
  6
CONTINUOUS
 90
9
 70
0
 10
47.0999675265
 20
-39.9301797404
 10
47.0963881577
 20
-39.9323157824
 10
47.0858155195
 20
-39.9344324447
 10
47.0682496118
 20
-39.9365297274
 10
47.0435810038
 20
-39.9386153293
 10
47.0119191264
 20
-39.9406815515
 10
46.9735922716
 20
-39.9427052976
 10
46.9284958705
 20
-39.9446861788
 10
46.876734492
 20
-39.9466245839
  0
LINE
  5
346
100
AcDbEntity
  8
IMPORT_IGES
100
AcDbLine
 62
7
  6
CONTINUOUS
 10
62.4268649127
 20
-28.7705781504
 11
62.4242789888
 21
-28.6827022835
  0
LINE
  5
347
100
AcDbEntity
  8
IMPORT_IGES
100
AcDbLine
 62
7
  6
CONTINUOUS
 10
62.9268625016
 20
-28.7705204807
 11
62.9242779263
 21
-28.6826732461
  0
LINE
  5
348
100
AcDbEntity
  8
IMPORT_IGES
100
AcDbLine
 62
7
  6
CONTINUOUS
 10
62.4242789888
 20
-28.6827022835
 11
62.4218822056
 21
-28.5782674101
  0
LINE
  5
349
100
AcDbEntity
  8
IMPORT_IGES
100
AcDbLine
 62
7
  6
CONTINUOUS
 10
62.9242779263
 20
-28.6826732461
 11
62.9218827392
 21
-28.578297701
  0
LINE
  5
34A
100
AcDbEntity
  8
IMPORT_IGES
100
AcDbLine
 62
7
  6
CONTINUOUS
 10
62.4218822056
 20
-28.5782674101
 11
62.4187204906
 21
-28.3939315236
  0
LINE
  5
34B
100
AcDbEntity
  8
IMPORT_IGES
100
AcDbLine
 62
7
  6
CONTINUOUS
 10
62.9218827392
 20
-28.578297701
 11
62.918722908
 21
-28.3940894586
  0
LINE
  5
34C
100
AcDbEntity
  8
IMPORT_IGES
100
AcDbLine
 62
7
  6
CONTINUOUS
 10
62.4187204906
 20
-28.3939315236
 11
62.4154515858
 21
-28.1051579146
  0
LINE
  5
34D
100
AcDbEntity
  8
IMPORT_IGES
100
AcDbLine
 62
7
  6
CONTINUOUS
 10
62.918722908
 20
-28.3940894586
 11
62.9154546333
 21
-28.1054764022
  0
LINE
  5
34E
100
AcDbEntity
  8
IMPORT_IGES
100
AcDbLine
 62
7
  6
CONTINUOUS
 10
62.4154515858
 20
-28.1051579146
 11
62.4134157128
 21
-27.7809207991
  0
LINE
  5
34F
100
AcDbEntity
  8
IMPORT_IGES
100
AcDbLine
 62
7
  6
CONTINUOUS
 10
62.9154546333
 20
-28.1054764022
 11
62.9134171627
 21
-27.7812334491
  0
LINE
  5
350
100
AcDbEntity
  8
IMPORT_IGES
100
AcDbLine
 62
7
  6
CONTINUOUS
 10
60.8514034561
 20
-39.8511749988
 11
60.8514034561
 21
-38.3514034561
  0
LINE
  5
351
100
AcDbEntity
  8
IMPORT_IGES
100
AcDbLine
 62
250
  6
CONTINUOUS
 10
60.8514034561
 20
-38.3514034561
 11
60.8514034561
 21
39.8511749988
  0
LINE
  5
352
100
AcDbEntity
  8
IMPORT_IGES
100
AcDbLine
 62
250
  6
CONTINUOUS
 10
62.3511749988
 20
-38.351403456
 11
62.3511749988
 21
38.351403456
  0
LINE
  5
353
100
AcDbEntity
  8
IMPORT_IGES
100
AcDbLine
 62
7
  6
CONTINUOUS
 10
62.4134157128
 20
-27.7809207991
 11
62.4127246708
 21
27.4386873052
  0
LINE
  5
354
100
AcDbEntity
  8
IMPORT_IGES
100
AcDbLine
 62
7
  6
CONTINUOUS
 10
62.5349101299
 20
38.5351385732
 11
62.5349101299
 21
29.0349101299
  0
LINE
  5
355
100
AcDbEntity
  8
IMPORT_IGES
100
AcDbLine
 62
7
  6
CONTINUOUS
 10
62.5349101299
 20
-29.0349101299
 11
62.5349101299
 21
-38.5351385736
  0
LINE
  5
356
100
AcDbEntity
  8
IMPORT_IGES
100
AcDbLine
 62
7
  6
CONTINUOUS
 10
62.9134171627
 20
-27.7812334491
 11
62.9127245467
 21
27.4386887419
  0
LINE
  5
357
100
AcDbEntity
  8
IMPORT_IGES
100
AcDbLine
 62
7
  6
CONTINUOUS
 10
63.0349101299
 20
29.0349101299
 11
63.0349101299
 21
-29.0349101299
  0
LINE
  5
358
100
AcDbEntity
  8
IMPORT_IGES
100
AcDbLine
 62
7
  6
CONTINUOUS
 10
62.4127245467
 20
27.4386887271
 11
62.4138024019
 21
27.8645207598
  0
LINE
  5
359
100
AcDbEntity
  8
IMPORT_IGES
100
AcDbLine
 62
7
  6
CONTINUOUS
 10
62.9127245467
 20
27.4386887419
 11
62.9138043161
 21
27.8648423191
  0
LINE
  5
35A
100
AcDbEntity
  8
IMPORT_IGES
100
AcDbLine
 62
7
  6
CONTINUOUS
 10
62.4138024019
 20
27.8645207598
 11
62.4161579434
 21
28.1812336387
  0
LINE
  5
35B
100
AcDbEntity
  8
IMPORT_IGES
100
AcDbLine
 62
7
  6
CONTINUOUS
 10
62.9138043161
 20
27.8648423191
 11
62.9161608936
 21
28.1815032812
  0
LINE
  5
35C
100
AcDbEntity
  8
IMPORT_IGES
100
AcDbLine
 62
7
  6
CONTINUOUS
 10
62.4161579434
 20
28.1812336387
 11
62.418720634
 21
28.3939414722
  0
LINE
  5
35D
100
AcDbEntity
  8
IMPORT_IGES
100
AcDbLine
 62
7
  6
CONTINUOUS
 10
62.9161608936
 20
28.1815032812
 11
62.9187227687
 21
28.3940797988
  0
LINE
  5
35E
100
AcDbEntity
  8
IMPORT_IGES
100
AcDbLine
 62
7
  6
CONTINUOUS
 10
62.418720634
 20
28.3939414722
 11
62.4218824101
 21
28.5782774379
  0
LINE
  5
35F
100
AcDbEntity
  8
IMPORT_IGES
100
AcDbLine
 62
7
  6
CONTINUOUS
 10
62.9187227687
 20
28.3940797988
 11
62.9218826043
 21
28.5782910876
  0
LINE
  5
360
100
AcDbEntity
  8
IMPORT_IGES
100
AcDbLine
 62
7
  6
CONTINUOUS
 10
62.4218824101
 20
28.5782774379
 11
62.4242792289
 21
28.6827115404
  0
LINE
  5
361
100
AcDbEntity
  8
IMPORT_IGES
100
AcDbLine
 62
7
  6
CONTINUOUS
 10
62.9218826043
 20
28.5782910876
 11
62.9242778151
 21
28.6826689633
  0
LWPOLYLINE
  5
362
100
AcDbEntity
  8
IMPORT_IGES
100
AcDbPolyline
 62
7
  6
CONTINUOUS
 90
28
 70
0
 10
62.5349076408
 20
-38.5351385465
 10
62.532289781
 20
-38.6229271831
 10
62.5246838327
 20
-38.7098160303
 10
62.5120897958
 20
-38.7958050881
 10
62.4944292772
 20
-38.8811761529
 10
62.47178067
 20
-38.9656474283
 10
62.4443791544
 20
-39.0483735256
 10
62.4121781765
 20
-39.129336556
 10
62.3752242902
 20
-39.2085544084
 10
62.3338923376
 20
-39.2852353599
 10
62.2881389488
 20
-39.3593544557
 10
62.2380074937
 20
-39.4309366507
 10
62.184002924
 20
-39.499265087
 10
62.1260870623
 20
-39.5643072916
 10
62.0642980861
 20
-39.6260957375
 10
61.9992554794
 20
-39.6840109864
 10
61.9309267748
 20
-39.7380148565
 10
61.8593444397
 20
-39.7881455295
 10
61.7852253607
 20
-39.8338981121
 10
61.7085445895
 20
-39.8752292318
 10
61.6293270744
 20
-39.9121822611
 10
61.5483645468
 20
-39.9443824238
 10
61.4656391249
 20
-39.9717830733
 10
61.3811686905
 20
-39.9944308563
 10
61.2957986204
 20
-40.012090937
 10
61.2098107068
 20
-40.0246850369
 10
61.1229231575
 20
-40.0322914345
 10
61.0351359725
 20
-40.0349101299
  0
LWPOLYLINE
  5
363
100
AcDbEntity
  8
IMPORT_IGES
100
AcDbPolyline
 62
7
  6
CONTINUOUS
 90
10
 70
0
 10
62.9242778151
 20
28.6826689633
 10
62.9268624323
 20
28.7705184093
 10
62.9282213704
 20
28.8080548137
 10
62.9296113857
 20
28.8409695518
 10
62.9310327877
 20
28.8692190977
 10
62.932485267
 20
28.8928469774
 10
62.9339547001
 20
28.911607863
 10
62.9354363792
 20
28.9254199787
 10
62.936935012
 20
28.9343651004
 10
62.9384505986
 20
28.938443228
  0
LWPOLYLINE
  5
364
100
AcDbEntity
  8
IMPORT_IGES
100
AcDbPolyline
 62
7
  6
CONTINUOUS
 90
10
 70
0
 10
62.4242792289
 20
28.6827115404
 10
62.4268651809
 20
28.7705861138
 10
62.4282246278
 20
28.8081223666
 10
62.429614949
 20
28.8410325714
 10
62.4310364539
 20
28.8692722606
 10
62.432488833
 20
28.8928859017
 10
62.4339578594
 20
28.9116344594
 10
62.435438791
 20
28.9254382551
 10
62.43693637
 20
28.9343769675
 10
62.4384505964
 20
28.9384505964
  0
ARC
  5
365
100
AcDbEntity
  8
IMPORT_IGES
100
AcDbCircle
 62
7
  6
CONTINUOUS
 10
-39.0
 20
-23.2
 40
3.84
100
AcDbArc
 50
90.0000000013
 51
179.9999999997
  0
ARC
  5
366
100
AcDbEntity
  8
IMPORT_IGES
100
AcDbCircle
 62
7
  6
CONTINUOUS
 10
-39.0
 20
-26.2
 40
3.84
100
AcDbArc
 50
180.0000000013
 51
269.9999999994
  0
ARC
  5
367
100
AcDbEntity
  8
IMPORT_IGES
100
AcDbCircle
 62
7
  6
CONTINUOUS
 10
-39.0
 20
-26.2
 40
3.0
100
AcDbArc
 50
180.0000000005
 51
269.9999999984
  0
ARC
  5
368
100
AcDbEntity
  8
IMPORT_IGES
100
AcDbCircle
 62
7
  6
CONTINUOUS
 10
-39.0
 20
-23.2
 40
3.0
100
AcDbArc
 50
90.0000000005
 51
179.9999999986
  0
ARC
  5
369
100
AcDbEntity
  8
IMPORT_IGES
100
AcDbCircle
 62
7
  6
CONTINUOUS
 10
-44.0
 20
-2.0
 40
3.0
100
AcDbArc
 50
180.0000000016
 51
359.9999999994
  0
ARC
  5
36A
100
AcDbEntity
  8
IMPORT_IGES
100
AcDbCircle
 62
7
  6
CONTINUOUS
 10
-53.0
 20
-2.0
 40
3.0
100
AcDbArc
 50
180.0000000016
 51
359.9999999994
  0
ARC
  5
36B
100
AcDbEntity
  8
IMPORT_IGES
100
AcDbCircle
 62
7
  6
CONTINUOUS
 10
-44.0
 20
-2.0
 40
2.0
100
AcDbArc
 50
180.0000000008
 51
359.9999999979
  0
ARC
  5
36C
100
AcDbEntity
  8
IMPORT_IGES
100
AcDbCircle
 62
7
  6
CONTINUOUS
 10
-53.0
 20
-2.0
 40
2.0
100
AcDbArc
 50
180.0000000008
 51
359.9999999979
  0
CIRCLE
  5
36D
100
AcDbEntity
  8
IMPORT_IGES
100
AcDbCircle
 62
7
  6
CONTINUOUS
 10
-57.0
 20
-33.0
 40
2.0
  0
ARC
  5
36E
100
AcDbEntity
  8
IMPORT_IGES
100
AcDbCircle
 62
7
  6
CONTINUOUS
 10
-39.0
 20
-23.2
 40
1.5
100
AcDbArc
 50
90.000000002
 51
179.9999999999
  0
ARC
  5
36F
100
AcDbEntity
  8
IMPORT_IGES
100
AcDbCircle
 62
7
  6
CONTINUOUS
 10
-39.0
 20
-26.2
 40
1.5
100
AcDbArc
 50
180.000000002
 51
269.9999999991
  0
CIRCLE
  5
370
100
AcDbEntity
  8
IMPORT_IGES
100
AcDbCircle
 62
250
  6
CONTINUOUS
 10
-57.0
 20
-33.0
 40
1.0000309621
  0
ARC
  5
371
100
AcDbEntity
  8
IMPORT_IGES
100
AcDbCircle
 62
7
  6
CONTINUOUS
 10
-44.0
 20
2.0
 40
3.0
100
AcDbArc
 50
0.0000000006
 51
179.9999999995
  0
ARC
  5
372
100
AcDbEntity
  8
IMPORT_IGES
100
AcDbCircle
 62
7
  6
CONTINUOUS
 10
-53.0
 20
2.0
 40
3.0
100
AcDbArc
 50
0.0000000006
 51
179.9999999995
  0
CIRCLE
  5
373
100
AcDbEntity
  8
IMPORT_IGES
100
AcDbCircle
 62
7
  6
CONTINUOUS
 10
-47.0
 20
26.0
 40
3.0
  0
ARC
  5
374
100
AcDbEntity
  8
IMPORT_IGES
100
AcDbCircle
 62
7
  6
CONTINUOUS
 10
-50.0
 20
33.5
 40
3.0
100
AcDbArc
 50
90.0000000007
 51
179.9999999991
  0
ARC
  5
375
100
AcDbEntity
  8
IMPORT_IGES
100
AcDbCircle
 62
7
  6
CONTINUOUS
 10
-50.0
 20
18.5
 40
3.0
100
AcDbArc
 50
180.0000000014
 51
269.9999999996
  0
ARC
  5
376
100
AcDbEntity
  8
IMPORT_IGES
100
AcDbCircle
 62
7
  6
CONTINUOUS
 10
-32.0
 20
18.5
 40
3.0
100
AcDbArc
 50
270.0000000014
 51
359.9999999997
  0
ARC
  5
377
100
AcDbEntity
  8
IMPORT_IGES
100
AcDbCircle
 62
7
  6
CONTINUOUS
 10
-32.0
 20
33.5
 40
3.0
100
AcDbArc
 50
0.0000000014
 51
89.9999999997
  0
ARC
  5
378
100
AcDbEntity
  8
IMPORT_IGES
100
AcDbCircle
 62
7
  6
CONTINUOUS
 10
-44.0
 20
2.0
 40
2.0
100
AcDbArc
 50
0.0000000018
 51
179.9999999982
  0
ARC
  5
379
100
AcDbEntity
  8
IMPORT_IGES
100
AcDbCircle
 62
7
  6
CONTINUOUS
 10
-53.0
 20
2.0
 40
2.0
100
AcDbArc
 50
0.0000000018
 51
179.9999999982
  0
CIRCLE
  5
37A
100
AcDbEntity
  8
IMPORT_IGES
100
AcDbCircle
 62
7
  6
CONTINUOUS
 10
-47.0
 20
26.0
 40
2.0
  0
ARC
  5
37B
100
AcDbEntity
  8
IMPORT_IGES
100
AcDbCircle
 62
7
  6
CONTINUOUS
 10
-32.0
 20
18.5
 40
2.0
100
AcDbArc
 50
270.0
 51
359.9999999985
  0
ARC
  5
37C
100
AcDbEntity
  8
IMPORT_IGES
100
AcDbCircle
 62
7
  6
CONTINUOUS
 10
-50.0
 20
18.5
 40
2.0
100
AcDbArc
 50
180.0
 51
269.9999999986
  0
ARC
  5
37D
100
AcDbEntity
  8
IMPORT_IGES
100
AcDbCircle
 62
7
  6
CONTINUOUS
 10
-50.0
 20
33.5
 40
2.0
100
AcDbArc
 50
90.000000001
 51
179.9999999981
  0
ARC
  5
37E
100
AcDbEntity
  8
IMPORT_IGES
100
AcDbCircle
 62
7
  6
CONTINUOUS
 10
-32.0
 20
33.5
 40
2.0
100
AcDbArc
 50
0.0000000021
 51
89.9999999984
  0
CIRCLE
  5
37F
100
AcDbEntity
  8
IMPORT_IGES
100
AcDbCircle
 62
7
  6
CONTINUOUS
 10
-57.0
 20
33.0
 40
2.0
  0
ARC
  5
380
100
AcDbEntity
  8
IMPORT_IGES
100
AcDbCircle
 62
7
  6
CONTINUOUS
 10
-32.000075344
 20
27.000205022
 40
1.0000888693
100
AcDbArc
 50
345.5093083654
 51
359.9913477824
  0
CIRCLE
  5
381
100
AcDbEntity
  8
IMPORT_IGES
100
AcDbCircle
 62
250
  6
CONTINUOUS
 10
-57.0
 20
33.0
 40
1.0000309621
  0
ARC
  5
382
100
AcDbEntity
  8
IMPORT_IGES
100
AcDbCircle
 62
7
  6
CONTINUOUS
 10
-49.5
 20
19.0
 40
0.5
100
AcDbArc
 50
180.0000000003
 51
269.9999999975
  0
ARC
  5
383
100
AcDbEntity
  8
IMPORT_IGES
100
AcDbCircle
 62
7
  6
CONTINUOUS
 10
-32.5
 20
19.0
 40
0.5
100
AcDbArc
 50
270.0000000048
 51
359.9999999986
  0
ARC
  5
384
100
AcDbEntity
  8
IMPORT_IGES
100
AcDbCircle
 62
7
  6
CONTINUOUS
 10
-32.5
 20
33.0
 40
0.5
100
AcDbArc
 50
0.0000000076
 51
89.999999999
  0
ARC
  5
385
100
AcDbEntity
  8
IMPORT_IGES
100
AcDbCircle
 62
7
  6
CONTINUOUS
 10
-49.5
 20
33.0
 40
0.5
100
AcDbArc
 50
90.000000006
 51
179.9999999975
  0
ARC
  5
386
100
AcDbEntity
  8
IMPORT_IGES
100
AcDbCircle
 62
7
  6
CONTINUOUS
 10
39.0
 20
-23.2
 40
3.84
100
AcDbArc
 50
0.0000000003
 51
89.9999999994
  0
ARC
  5
387
100
AcDbEntity
  8
IMPORT_IGES
100
AcDbCircle
 62
7
  6
CONTINUOUS
 10
39.0
 20
-26.2
 40
3.84
100
AcDbArc
 50
270.0000000011
 51
359.9999999995
  0
ARC
  5
388
100
AcDbEntity
  8
IMPORT_IGES
100
AcDbCircle
 62
7
  6
CONTINUOUS
 10
39.0
 20
-23.2
 40
3.0
100
AcDbArc
 50
0.0000000003
 51
89.9999999984
  0
ARC
  5
389
100
AcDbEntity
  8
IMPORT_IGES
100
AcDbCircle
 62
7
  6
CONTINUOUS
 10
39.0
 20
-26.2
 40
3.0
100
AcDbArc
 50
270.0000000016
 51
359.9999999984
  0
ARC
  5
38A
100
AcDbEntity
  8
IMPORT_IGES
100
AcDbCircle
 62
7
  6
CONTINUOUS
 10
41.0
 20
0.0
 40
3.0
100
AcDbArc
 50
270.0000000002
 51
89.9999999998
  0
ARC
  5
38B
100
AcDbEntity
  8
IMPORT_IGES
100
AcDbCircle
 62
7
  6
CONTINUOUS
 10
37.0
 20
0.0
 40
3.0
100
AcDbArc
 50
90.0
 51
270.0000000002
  0
ARC
  5
38C
100
AcDbEntity
  8
IMPORT_IGES
100
AcDbCircle
 62
7
  6
CONTINUOUS
 10
55.0
 20
0.0
 40
3.0
100
AcDbArc
 50
270.0000000002
 51
89.9999999998
  0
ARC
  5
38D
100
AcDbEntity
  8
IMPORT_IGES
100
AcDbCircle
 62
7
  6
CONTINUOUS
 10
51.0
 20
0.0
 40
3.0
100
AcDbArc
 50
90.0
 51
270.0000000002
  0
ARC
  5
38E
100
AcDbEntity
  8
IMPORT_IGES
100
AcDbCircle
 62
7
  6
CONTINUOUS
 10
37.0
 20
0.0
 40
2.0
100
AcDbArc
 50
89.9999999997
 51
270.0000000003
  0
ARC
  5
38F
100
AcDbEntity
  8
IMPORT_IGES
100
AcDbCircle
 62
7
  6
CONTINUOUS
 10
41.0
 20
0.0
 40
2.0
100
AcDbArc
 50
270.0000000003
 51
89.9999999997
  0
ARC
  5
390
100
AcDbEntity
  8
IMPORT_IGES
100
AcDbCircle
 62
7
  6
CONTINUOUS
 10
51.0
 20
0.0
 40
2.0
100
AcDbArc
 50
89.9999999997
 51
270.0000000003
  0
ARC
  5
391
100
AcDbEntity
  8
IMPORT_IGES
100
AcDbCircle
 62
7
  6
CONTINUOUS
 10
55.0
 20
0.0
 40
2.0
100
AcDbArc
 50
270.0000000003
 51
89.9999999997
  0
CIRCLE
  5
392
100
AcDbEntity
  8
IMPORT_IGES
100
AcDbCircle
 62
7
  6
CONTINUOUS
 10
57.0
 20
-33.0
 40
2.0
  0
ARC
  5
393
100
AcDbEntity
  8
IMPORT_IGES
100
AcDbCircle
 62
7
  6
CONTINUOUS
 10
39.0
 20
-26.2
 40
1.5
100
AcDbArc
 50
270.000000002
 51
359.9999999991
  0
ARC
  5
394
100
AcDbEntity
  8
IMPORT_IGES
100
AcDbCircle
 62
7
  6
CONTINUOUS
 10
39.0
 20
-23.2
 40
1.5
100
AcDbArc
 50
0.0000000021
 51
89.9999999991
  0
CIRCLE
  5
395
100
AcDbEntity
  8
IMPORT_IGES
100
AcDbCircle
 62
250
  6
CONTINUOUS
 10
57.0
 20
-33.0
 40
1.0000309621
  0
CIRCLE
  5
396
100
AcDbEntity
  8
IMPORT_IGES
100
AcDbCircle
 62
7
  6
CONTINUOUS
 10
57.0
 20
33.0
 40
2.0
  0
CIRCLE
  5
397
100
AcDbEntity
  8
IMPORT_IGES
100
AcDbCircle
 62
250
  6
CONTINUOUS
 10
57.0
 20
33.0
 40
1.0000309621
  0
ENDSEC
  0
SECTION
  2
OBJECTS
  0
DICTIONARY
  5
C
100
AcDbDictionary
280
0
281
1
  3
ACAD_GROUP
350
D
  3
ACAD_MLINESTYLE
350
17
  3
ACAD_LAYOUT
350
1A
  3
ACAD_PLOTSETTINGS
350
19
  3
ACAD_PLOTSTYLENAME
350
E
  0
DICTIONARY
  5
D
102
{ACAD_REACTORS
330
C
102
}
100
AcDbDictionary
280
0
281
1
  0
ACDBDICTIONARYWDFLT
  5
E
102
{ACAD_REACTORS
330
C
102
}
100
AcDbDictionary
281
1
  3
Normal
350
F
100
AcDbDictionaryWithDefault
340
F
  0
DICTIONARY
  5
17
102
{ACAD_REACTORS
330
C
102
}
100
AcDbDictionary
280
0
281
1
  3
Standard
350
18
  0
DICTIONARY
  5
19
102
{ACAD_REACTORS
330
C
102
}
100
AcDbDictionary
281
1
  0
DICTIONARY
  5
1A
102
{ACAD_REACTORS
330
C
102
}
100
AcDbDictionary
281
1
  3
Model
350
398
  3
Layout1
350
399
  0
ACDBPLACEHOLDER
  5
F
102
{ACAD_REACTORS
330
E
102
}
  0
MLINESTYLE
  5
18
102
{ACAD_REACTORS
330
17
102
}
100
AcDbMlineStyle
  2
STANDARD
 70
0
  3

 62
256
 51
90.0
 52
90.0
 71
2
 49
0.5
 62
256
  6
BYLAYER
 49
-0.5
 62
256
  6
BYLAYER
  0
LAYOUT
  5
398
102
{ACAD_REACTORS
330
1A
102
}
100
AcDbPlotSettings
  1

  2
none_device
  4
ISO_A3_(420.00_x_297.00_MM)
  6

 40
0.0
 41
0.0
 42
0.0
 43
0.0
 44
420.0
 45
297.0
 46
0.0
 47
0.0
 48
0.0
 49
0.0
140
0.0
141
0.0
142
1.0
143
1.0
 70
1024
 72
1
 73
0
 74
0
  7

 75
0
147
1.0
148
0.0
149
0.0
100
AcDbLayout
  1
Model
 70
0
 71
0
 10
0.0
 20
0.0
 11
420.0
 21
297.0
 12
0.0
 22
0.0
 32
0.0
 14
0.0
 24
0.0
 34
0.0
 15
0.0
 25
0.0
 35
0.0
146
0.0
 13
0.0
 23
0.0
 33
0.0
 16
1.0
 26
0.0
 36
0.0
 17
0.0
 27
1.0
 37
0.0
 76
0
330
218
345
0
346
0
  0
LAYOUT
  5
399
102
{ACAD_REACTORS
330
1A
102
}
100
AcDbPlotSettings
  1

  2
none_device
  4
ISO_A3_(420.00_x_297.00_MM)
  6

 40
0.0
 41
0.0
 42
0.0
 43
0.0
 44
420.0
 45
297.0
 46
0.0
 47
0.0
 48
0.0
 49
0.0
140
0.0
141
0.0
142
1.0
143
1.0
 70
0
 72
1
 73
0
 74
0
  7

 75
0
147
1.0
148
0.0
149
0.0
100
AcDbLayout
  1
Layout1
 70
0
 71
1
 10
0.0
 20
0.0
 11
420.0
 21
297.0
 12
0.0
 22
0.0
 32
0.0
 14
0.0
 24
0.0
 34
0.0
 15
0.0
 25
0.0
 35
0.0
146
0.0
 13
0.0
 23
0.0
 33
0.0
 16
1.0
 26
0.0
 36
0.0
 17
0.0
 27
1.0
 37
0.0
 76
0
330
219
345
0
346
0
  0
ENDSEC
  0
EOF
