  0
SECTION
  2
HEADER
  9
$ACADVER
  1
AC1024
  9
$DWGCODEPAGE
  3
ANSI_1252
  9
$EXTMAX
 10
297.0
 20
210.0
 30
0.0
  9
$EXTMIN
 10
0.0
 20
0.0
 30
0.0
  9
$LIMMIN
 10
0.0
 20
0.0
  9
$LIMMAX
 10
297.0
 20
210.0
  9
$VIEWCTR
 10
148.5
 20
105.0
  9
$VIEWSIZE
 40
210.0
  9
$CLAYER
  8
0
  9
$LTSCALE
 40
16.335
  9
$CELTYPE
  6
BYLAYER
  9
$DIMSCALE
 40
1.0
  9
$DIMASZ
 40
3.0
  9
$DIMEXO
 40
0.5
  9
$DIMDLI
 40
11.286
  9
$DIMEXE
 40
1.5
  9
$DIMCEN
 40
2.673
  9
$DIMLFAC
 40
1.0
  9
$DIMBLK
  1
_FILLED
  9
$DIMALT
 70
0
  9
$DIMALTF
 40
0.0393700787
  9
$DIMTXT
 40
3.0
  9
$DIMTOL
 70
1
  9
$DIMLIM
 70
0
  9
$DIMTFAC
 40
1.0
  9
$DIMTP
 40
0.01
  9
$DIMTM
 40
0.01
  9
$DIMGAP
 40
0.625
  9
$DIMDSEP
 70
44
  9
$AUNITS
 70
0
  9
$PDMODE
 70
3
  9
$PDSIZE
 40
3.0
  9
$HANDSEED
  5
3EB
  9
$TILEMODE
 70
1
  9
$MEASUREMENT
 70
1
  9
$INSUNITS
 70
4
  0
ENDSEC
  0
SECTION
  2
CLASSES
  0
CLASS
  1
ACDBDICTIONARYWDFLT
  2
AcDbDictionaryWithDefault
  3
AutoCAD 2000
 90
0
 91
1
280
0
281
0
  0
CLASS
  1
ACDBPLACEHOLDER
  2
AcDbPlaceHolder
  3
AutoCAD 2000
 90
0
 91
1
280
0
281
0
  0
CLASS
  1
LAYOUT
  2
AcDbLayout
  3
AutoCAD 2000
 90
0
 91
0
280
0
281
0
  0
ENDSEC
  0
SECTION
  2
TABLES
  0
TABLE
  2
VPORT
  5
8
100
AcDbSymbolTable
 70
2
  0
VPORT
  5
1F4
100
AcDbSymbolTableRecord
100
AcDbViewportTableRecord
  2
*ACTIVE
 70
0
 10
0.0
 20
0.0
 11
1.0
 21
1.0
 12
148.5
 22
105.0
 13
0.0
 23
0.0
 14
1.0
 24
1.0
 15
0.0
 25
0.0
 16
0.0
 26
0.0
 36
1.0
 17
0.0
 27
0.0
 37
0.0
 40
210.0
 41
1.4142857143
 42
50.0
 43
0.0
 44
0.0
 50
0.0
 51
0.0
 71
0
 72
100
 73
1
 74
1
 75
0
 76
0
 77
0
 78
0
  0
ENDTAB
  0
TABLE
  2
LTYPE
  5
5
100
AcDbSymbolTable
 70
6
  0
LTYPE
  5
14
100
AcDbSymbolTableRecord
100
AcDbLinetypeTableRecord
  2
BYBLOCK
 70
0
  3

 72
65
 73
0
 40
0.0
  0
LTYPE
  5
15
100
AcDbSymbolTableRecord
100
AcDbLinetypeTableRecord
  2
BYLAYER
 70
0
  3

 72
65
 73
0
 40
0.0
  0
LTYPE
  5
16
100
AcDbSymbolTableRecord
100
AcDbLinetypeTableRecord
  2
CONTINUOUS
 70
64
  3
Solid line
 72
65
 73
0
 40
0.0
  0
LTYPE
  5
1F5
100
AcDbSymbolTableRecord
100
AcDbLinetypeTableRecord
  2
CENTER
 70
64
  3
____ _ ____ _ ____ _ ____ _ ____ _ ____ _ ____
 72
65
 73
4
 40
0.6
 49
0.375
 74
0
 49
-0.075
 74
0
 49
0.075
 74
0
 49
-0.075
 74
0
  0
LTYPE
  5
1F6
100
AcDbSymbolTableRecord
100
AcDbLinetypeTableRecord
  2
HIDDEN
 70
64
  3
- - - - - - - - - - - - - - - - - - - -
 72
65
 73
2
 40
0.2
 49
0.1
 74
0
 49
-0.1
 74
0
  0
LTYPE
  5
1F7
100
AcDbSymbolTableRecord
100
AcDbLinetypeTableRecord
  2
PHANTOM
 70
64
  3
_____ _ _ _____ _ _ _____ _ _ _____
 72
65
 73
6
 40
0.8
 49
0.45
 74
0
 49
-0.05
 74
0
 49
0.1
 74
0
 49
-0.05
 74
0
 49
0.1
 74
0
 49
-0.05
 74
0
  0
LTYPE
  5
1F8
100
AcDbSymbolTableRecord
100
AcDbLinetypeTableRecord
  2
DOT
 70
64
  3
. . . . . . . . . . . . . . . . . . . .
 72
65
 73
2
 40
0.2
 49
0.1
 74
0
 49
-0.1
 74
0
  0
LTYPE
  5
1F9
100
AcDbSymbolTableRecord
100
AcDbLinetypeTableRecord
  2
DASHED
 70
64
  3
- - - - - - - - - - - - - - - - - - - -
 72
65
 73
2
 40
0.2
 49
0.1
 74
0
 49
-0.1
 74
0
  0
ENDTAB
  0
TABLE
  2
LAYER
  5
2
100
AcDbSymbolTable
 70
36
  0
LAYER
  5
10
100
AcDbSymbolTableRecord
100
AcDbLayerTableRecord
  2
0
 70
0
 62
7
  6
CONTINUOUS
370
-3
390
F
  0
LAYER
  5
1FA
100
AcDbSymbolTableRecord
100
AcDbLayerTableRecord
  2
DEFAULT_1
 70
0
 62
7
  6
CENTER
370
-3
390
F
  0
LAYER
  5
1FB
100
AcDbSymbolTableRecord
100
AcDbLayerTableRecord
  2
DEFAULT_2
 70
0
 62
7
  6
HIDDEN
370
-3
390
F
  0
LAYER
  5
1FC
100
AcDbSymbolTableRecord
100
AcDbLayerTableRecord
  2
DEFAULT_3
 70
0
 62
7
  6
PHANTOM
370
-3
390
F
  0
LAYER
  5
1FD
100
AcDbSymbolTableRecord
100
AcDbLayerTableRecord
  2
ASSI
 70
0
 62
7
  6
CONTINUOUS
370
-3
390
F
  0
LAYER
  5
1FE
100
AcDbSymbolTableRecord
100
AcDbLayerTableRecord
  2
BATTERY_SIZE_AA_16
 70
0
 62
7
  6
CONTINUOUS
370
-3
390
F
  0
LAYER
  5
1FF
100
AcDbSymbolTableRecord
100
AcDbLayerTableRecord
  2
BATTERY_SIZE_AA_16_1
 70
0
 62
7
  6
CONTINUOUS
370
-3
390
F
  0
LAYER
  5
200
100
AcDbSymbolTableRecord
100
AcDbLayerTableRecord
  2
CLIP_FEMALE_12
 70
0
 62
7
  6
CONTINUOUS
370
-3
390
F
  0
LAYER
  5
201
100
AcDbSymbolTableRecord
100
AcDbLayerTableRecord
  2
CLIP_MALE_9
 70
0
 62
7
  6
CONTINUOUS
370
-3
390
F
  0
LAYER
  5
202
100
AcDbSymbolTableRecord
100
AcDbLayerTableRecord
  2
COORDINATE
 70
0
 62
7
  6
CONTINUOUS
370
-3
390
F
  0
LAYER
  5
203
100
AcDbSymbolTableRecord
100
AcDbLayerTableRecord
  2
COPY_PUBLISH
 70
0
 62
7
  6
CONTINUOUS
370
-3
390
F
  0
LAYER
  5
204
100
AcDbSymbolTableRecord
100
AcDbLayerTableRecord
  2
COSMETICI
 70
0
 62
7
  6
CONTINUOUS
370
-3
390
F
  0
LAYER
  5
205
100
AcDbSymbolTableRecord
100
AcDbLayerTableRecord
  2
CURVE
 70
0
 62
7
  6
CONTINUOUS
370
-3
390
F
  0
LAYER
  5
206
100
AcDbSymbolTableRecord
100
AcDbLayerTableRecord
  2
DRAFT
 70
0
 62
7
  6
CONTINUOUS
370
-3
390
F
  0
LAYER
  5
207
100
AcDbSymbolTableRecord
100
AcDbLayerTableRecord
  2
ELETTRONICA_ASM_313
 70
0
 62
7
  6
CONTINUOUS
370
-3
390
F
  0
LAYER
  5
208
100
AcDbSymbolTableRecord
100
AcDbLayerTableRecord
  2
IMPORT_IGES
 70
0
 62
7
  6
CONTINUOUS
370
-3
390
F
  0
LAYER
  5
209
100
AcDbSymbolTableRecord
100
AcDbLayerTableRecord
  2
IN199-R0_27
 70
0
 62
7
  6
CONTINUOUS
370
-3
390
F
  0
LAYER
  5
20A
100
AcDbSymbolTableRecord
100
AcDbLayerTableRecord
  2
IN199-R0_27_1
 70
0
 62
7
  6
CONTINUOUS
370
-3
390
F
  0
LAYER
  5
20B
100
AcDbSymbolTableRecord
100
AcDbLayerTableRecord
  2
IN199-R0_27_2
 70
0
 62
7
  6
CONTINUOUS
370
-3
390
F
  0
LAYER
  5
20C
100
AcDbSymbolTableRecord
100
AcDbLayerTableRecord
  2
IN199-R0_27_3
 70
0
 62
7
  6
CONTINUOUS
370
-3
390
F
  0
LAYER
  5
20D
100
AcDbSymbolTableRecord
100
AcDbLayerTableRecord
  2
INTF_GREEN
 70
0
 62
7
  6
CONTINUOUS
370
-3
390
F
  0
LAYER
  5
20E
100
AcDbSymbolTableRecord
100
AcDbLayerTableRecord
  2
LEXAN_4
 70
0
 62
7
  6
CONTINUOUS
370
-3
390
F
  0
LAYER
  5
20F
100
AcDbSymbolTableRecord
100
AcDbLayerTableRecord
  2
LIVELLO_1
 70
0
 62
7
  6
CONTINUOUS
370
-3
390
F
  0
LAYER
  5
210
100
AcDbSymbolTableRecord
100
AcDbLayerTableRecord
  2
NOTE
 70
0
 62
7
  6
CONTINUOUS
370
-3
390
F
  0
LAYER
  5
211
100
AcDbSymbolTableRecord
100
AcDbLayerTableRecord
  2
PEEN071BGCL000000_196
 70
0
 62
7
  6
CONTINUOUS
370
-3
390
F
  0
LAYER
  5
212
100
AcDbSymbolTableRecord
100
AcDbLayerTableRecord
  2
PEEN071CGCL000000_147
 70
0
 62
7
  6
CONTINUOUS
370
-3
390
F
  0
LAYER
  5
213
100
AcDbSymbolTableRecord
100
AcDbLayerTableRecord
  2
PIANI
 70
0
 62
7
  6
CONTINUOUS
370
-3
390
F
  0
LAYER
  5
214
100
AcDbSymbolTableRecord
100
AcDbLayerTableRecord
  2
PUNTI
 70
0
 62
7
  6
CONTINUOUS
370
-3
390
F
  0
LAYER
  5
215
100
AcDbSymbolTableRecord
100
AcDbLayerTableRecord
  2
RACCORDO
 70
0
 62
7
  6
CONTINUOUS
370
-3
390
F
  0
LAYER
  5
216
100
AcDbSymbolTableRecord
100
AcDbLayerTableRecord
  2
SCREW_2_2X6_5_1
 70
0
 62
7
  6
CONTINUOUS
370
-3
390
F
  0
LAYER
  5
217
100
AcDbSymbolTableRecord
100
AcDbLayerTableRecord
  2
SCREW_2_2X6_5_1_1
 70
0
 62
7
  6
CONTINUOUS
370
-3
390
F
  0
LAYER
  5
218
100
AcDbSymbolTableRecord
100
AcDbLayerTableRecord
  2
SCREW_2_2X6_5_1_2
 70
0
 62
7
  6
CONTINUOUS
370
-3
390
F
  0
LAYER
  5
219
100
AcDbSymbolTableRecord
100
AcDbLayerTableRecord
  2
SCREW_2_2X6_5_1_3
 70
0
 62
7
  6
CONTINUOUS
370
-3
390
F
  0
LAYER
  5
21A
100
AcDbSymbolTableRecord
100
AcDbLayerTableRecord
  2
SCREW_2_9X9_5_7
 70
0
 62
7
  6
CONTINUOUS
370
-3
390
F
  0
LAYER
  5
21B
100
AcDbSymbolTableRecord
100
AcDbLayerTableRecord
  2
SIMBOLI
 70
0
 62
7
  6
CONTINUOUS
370
-3
390
F
  0
LAYER
  5
21C
100
AcDbSymbolTableRecord
100
AcDbLayerTableRecord
  2
SMUSSO
 70
0
 62
7
  6
CONTINUOUS
370
-3
390
F
  0
LAYER
  5
21D
100
AcDbSymbolTableRecord
100
AcDbLayerTableRecord
  2
SUPERFICI
 70
0
 62
7
  6
CONTINUOUS
370
-3
390
F
  0
LAYER
  5
21E
100
AcDbSymbolTableRecord
100
AcDbLayerTableRecord
  2
TRASH
 70
0
 62
7
  6
CONTINUOUS
370
-3
390
F
  0
LAYER
  5
21F
100
AcDbSymbolTableRecord
100
AcDbLayerTableRecord
  2
WHITE
 70
0
 62
7
  6
CONTINUOUS
370
-3
390
F
  0
LAYER
  5
220
100
AcDbSymbolTableRecord
100
AcDbLayerTableRecord
  2
___SHELL
 70
0
 62
7
  6
CONTINUOUS
370
-3
390
F
  0
ENDTAB
  0
TABLE
  2
STYLE
  5
3
100
AcDbSymbolTable
 70
1
  0
STYLE
  5
11
100
AcDbSymbolTableRecord
100
AcDbTextStyleTableRecord
  2
STANDARD
 70
0
 40
0.0
 41
0.8
 50
0.0
 71
0
 42
0.2
  3
txt
  4

  0
STYLE
  5
221
100
AcDbSymbolTableRecord
100
AcDbTextStyleTableRecord
  2
TEXTSTYLE_1
 70
0
 40
0.0
 41
0.8
 50
0.0
 71
0
 42
0.2
  3
gdt
  4

  0
ENDTAB
  0
TABLE
  2
VIEW
  5
6
100
AcDbSymbolTable
 70
0
  0
ENDTAB
  0
TABLE
  2
UCS
  5
7
100
AcDbSymbolTable
 70
0
  0
ENDTAB
  0
TABLE
  2
APPID
  5
9
100
AcDbSymbolTable
 70
1
  0
APPID
  5
222
100
AcDbSymbolTableRecord
100
AcDbRegAppTableRecord
  2
ACAD
 70
0
  0
ENDTAB
  0
TABLE
  2
BLOCK_RECORD
  5
1
100
AcDbSymbolTable
 70
0
  0
BLOCK_RECORD
  5
223
100
AcDbSymbolTableRecord
100
AcDbBlockTableRecord
  2
*Model_Space
  0
BLOCK_RECORD
  5
224
100
AcDbSymbolTableRecord
100
AcDbBlockTableRecord
  2
*Paper_Space
  0
BLOCK_RECORD
  5
225
100
AcDbSymbolTableRecord
100
AcDbBlockTableRecord
  2
_FILLED
  0
ENDTAB
  0
TABLE
  2
DIMSTYLE
  5
A
100
AcDbSymbolTable
 70
1
100
AcDbDimStyleTable
 71
0
  0
DIMSTYLE
105
226
100
AcDbSymbolTableRecord
100
AcDbDimStyleTableRecord
  2
STANDARD
 70
0
  3

  4

 40
1.0
 41
3.0
 42
0.5
 43
0.38
 44
1.5
 45
0.0
 46
0.0
 47
0.01
 48
0.01
140
3.0
141
0.09
142
0.0
143
25.4
144
1.0
145
0.0
146
1.0
147
0.625
 71
1
 72
0
 73
0
 74
0
 75
0
 76
0
 77
1
 78
8
 79
2
170
0
171
1
172
0
173
0
174
0
175
0
176
0
177
0
178
0
270
2
179
2
271
2
272
2
273
2
274
2
275
0
280
0
281
0
282
0
283
1
284
8
285
0
286
0
287
3
288
0
340
11
278
44
341
225
342
225
343
225
344
225
  0
ENDTAB
  0
ENDSEC
  0
SECTION
  2
BLOCKS
  0
BLOCK
  5
20
100
AcDbEntity
  8
0
100
AcDbBlockBegin
  2
*Model_Space
 70
0
 10
0.0
 20
0.0
 30
0.0
  3
*Model_Space
  1

  0
ENDBLK
  5
21
100
AcDbEntity
  8
0
100
AcDbBlockEnd
  0
BLOCK
  5
1C
100
AcDbEntity
  8
0
100
AcDbBlockBegin
  2
*Paper_Space
 70
0
 10
0.0
 20
0.0
 30
0.0
  3
*Paper_Space
  1

  0
ENDBLK
  5
1D
100
AcDbEntity
  8
0
100
AcDbBlockEnd
  0
BLOCK
  5
227
100
AcDbEntity
  8
0
100
AcDbBlockBegin
  2
_FILLED
 70
64
 10
0.0
 20
0.0
  3
_FILLED
  1

  0
SOLID
  5
228
100
AcDbEntity
  8
0
  6
BYBLOCK
 62
0
100
AcDbTrace
 10
0.0
 20
0.0
 11
-1.0
 21
0.3166666667
 12
-1.0
 22
-0.3166666667
 13
-1.0
 23
-0.3166666667
  0
ENDBLK
  5
229
100
AcDbEntity
  8
0
  6
BYBLOCK
 62
0
100
AcDbBlockEnd
  0
ENDSEC
  0
SECTION
  2
ENTITIES
  0
LINE
  5
22A
100
AcDbEntity
  8
IMPORT_IGES
100
AcDbLine
 62
7
  6
CONTINUOUS
 10
-97.9499999998
 20
1.8499705369
 11
-97.9499999998
 21
-1.8492975761
  0
LINE
  5
22B
100
AcDbEntity
  8
IMPORT_IGES
100
AcDbLine
 62
250
  6
CONTINUOUS
 10
-97.1499999998
 20
2.65
 11
-97.1499999998
 21
-2.65
  0
LWPOLYLINE
  5
22C
100
AcDbEntity
  8
IMPORT_IGES
100
AcDbPolyline
 62
7
  6
CONTINUOUS
 90
31
 70
0
 10
-95.7576896535
 20
53.0579942793
 10
-95.7549276064
 20
53.1627654947
 10
-95.746683062
 20
53.2672262064
 10
-95.7329821346
 20
53.3710899809
 10
-95.7138663058
 20
53.4740704907
 10
-95.6893912003
 20
53.5758878263
 10
-95.6596254436
 20
53.6762690314
 10
-95.6246530606
 20
53.7749398049
 10
-95.5845723256
 20
53.8716306439
 10
-95.5394928196
 20
53.9660825776
 10
-95.4895395015
 20
54.0580377354
 10
-95.4348506563
 20
54.1472451632
 10
-95.3755742053
 20
54.2334659172
 10
-95.3118730649
 20
54.3164645078
 10
-95.243922255
 20
54.3960143092
 10
-95.1719045502
 20
54.4719019704
 10
-95.096017008
 20
54.543919825
 10
-95.016467291
 20
54.6118708111
 10
-94.9334687474
 20
54.6755721489
 10
-94.8472480001
 20
54.734848814
 10
-94.758040536
 20
54.7895378846
 10
-94.6660852977
 20
54.8394914337
 10
-94.5716332382
 20
54.8845711708
 10
-94.474942227
 20
54.9246521313
 10
-94.3762712335
 20
54.9596247286
 10
-94.275889761
 20
54.9893906826
 10
-94.1740721116
 20
55.0138659621
 10
-94.0710912429
 20
55.0329819358
 10
-93.9672270666
 20
55.0466829728
 10
-93.8627659127
 20
55.0549275858
 10
-93.7579942182
 20
55.057689655
  0
LWPOLYLINE
  5
22D
100
AcDbEntity
  8
IMPORT_IGES
100
AcDbPolyline
 62
7
  6
CONTINUOUS
 90
31
 70
0
 10
-95.9499958581
 20
53.250283719
 10
-95.9471821875
 20
53.3555629764
 10
-95.9389610185
 20
53.4599583218
 10
-95.9253323512
 20
53.5634697552
 10
-95.9062263379
 20
53.6663728333
 10
-95.8817128263
 20
53.7683919993
 10
-95.8520013588
 20
53.8687005829
 10
-95.817050912
 20
53.9672843473
 10
-95.7769025092
 20
54.0641575292
 10
-95.7318887636
 20
54.1585361685
 10
-95.6819711098
 20
54.250400032
 10
-95.6271881132
 20
54.3397693528
 10
-95.5679880822
 20
54.4259208707
 10
-95.504335945
 20
54.5088287777
 10
-95.4362667735
 20
54.5885188818
 10
-95.3643340918
 20
54.6643453461
 10
-95.2885071147
 20
54.7362773805
 10
-95.2088166275
 20
54.8043457751
 10
-95.12590851
 20
54.8679970644
 10
-95.0397569607
 20
54.9271961731
 10
-94.9503877813
 20
54.9819781764
 10
-94.8585242564
 20
55.0318948356
 10
-94.7641461599
 20
55.0769075833
 10
-94.667273718
 20
55.1170549869
 10
-94.5686908942
 20
55.1520045089
 10
-94.4683834591
 20
55.1817151258
 10
-94.3663656422
 20
55.2062278611
 10
-94.2634640947
 20
55.2253332486
 10
-94.1599543674
 20
55.2389614662
 10
-94.0555609096
 20
55.2471823361
 10
-93.9502837214
 20
55.2499958582
  0
LWPOLYLINE
  5
22E
100
AcDbEntity
  8
IMPORT_IGES
100
AcDbPolyline
 62
7
  6
CONTINUOUS
 90
5
 70
0
 10
-95.8827811492
 20
-1.5614325589
 10
-95.8842772836
 20
-1.5397742097
 10
-95.8857460723
 20
-1.5135217289
 10
-95.8871874904
 20
-1.4826037703
 10
-95.888485755
 20
-1.45
  0
LWPOLYLINE
  5
22F
100
AcDbEntity
  8
IMPORT_IGES
100
AcDbPolyline
 62
7
  6
CONTINUOUS
 90
9
 70
0
 10
-93.1473966748
 20
-1.2956908331
 10
-93.1460593477
 20
-1.3314188633
 10
-93.1446927837
 20
-1.362546809
 10
-93.1432966853
 20
-1.3890280452
 10
-93.14187135
 20
-1.4109091969
 10
-93.1404311696
 20
-1.4279690861
 10
-93.1389759932
 20
-1.4401588169
 10
-93.1375059718
 20
-1.4475272852
 10
-93.1360359479
 20
-1.45
  0
LINE
  5
230
100
AcDbEntity
  8
IMPORT_IGES
100
AcDbLine
 62
7
  6
CONTINUOUS
 10
-93.1499426839
 20
-1.2114747505
 11
-93.1473966748
 21
-1.2956908331
  0
LINE
  5
231
100
AcDbEntity
  8
IMPORT_IGES
100
AcDbLine
 62
7
  6
CONTINUOUS
 10
-93.1523051137
 20
-1.1107494639
 11
-93.1499426839
 21
-1.2114747505
  0
LINE
  5
232
100
AcDbEntity
  8
IMPORT_IGES
100
AcDbLine
 62
7
  6
CONTINUOUS
 10
-93.1554245528
 20
-0.932032518
 11
-93.1523051137
 21
-1.1107494639
  0
LINE
  5
233
100
AcDbEntity
  8
IMPORT_IGES
100
AcDbLine
 62
7
  6
CONTINUOUS
 10
-93.1579548595
 20
-0.725005598
 11
-93.1554245528
 21
-0.932032518
  0
LINE
  5
234
100
AcDbEntity
  8
IMPORT_IGES
100
AcDbLine
 62
7
  6
CONTINUOUS
 10
-93.1602814038
 20
-0.415993135
 11
-93.1579548595
 21
-0.725005598
  0
LINE
  5
235
100
AcDbEntity
  8
IMPORT_IGES
100
AcDbLine
 62
7
  6
CONTINUOUS
 10
-93.1613459411
 20
-0.0
 11
-93.1602814038
 21
-0.415993135
  0
LINE
  5
236
100
AcDbEntity
  8
IMPORT_IGES
100
AcDbLine
 62
7
  6
CONTINUOUS
 10
-95.9499999994
 20
-53.2502959202
 11
-95.9499999995
 21
53.2502976476
  0
LINE
  5
237
100
AcDbEntity
  8
IMPORT_IGES
100
AcDbLine
 62
7
  6
CONTINUOUS
 10
-95.8400330908
 20
-5.3
 11
-95.8400330908
 21
-1.6
  0
LINE
  5
238
100
AcDbEntity
  8
IMPORT_IGES
100
AcDbLine
 62
7
  6
CONTINUOUS
 10
-95.8400330908
 20
1.6
 11
-95.8400330908
 21
5.3
  0
LINE
  5
239
100
AcDbEntity
  8
IMPORT_IGES
100
AcDbLine
 62
250
  6
CONTINUOUS
 10
-95.7576896527
 20
-5.3
 11
-95.7576896527
 21
-53.0579942173
  0
LINE
  5
23A
100
AcDbEntity
  8
IMPORT_IGES
100
AcDbLine
 62
250
  6
CONTINUOUS
 10
-95.7576896531
 20
5.3
 11
-95.7576896535
 21
53.0579942793
  0
LINE
  5
23B
100
AcDbEntity
  8
IMPORT_IGES
100
AcDbLine
 62
7
  6
CONTINUOUS
 10
-95.5499999998
 20
-5.0
 11
-95.5499999998
 21
5.0
  0
LINE
  5
23C
100
AcDbEntity
  8
IMPORT_IGES
100
AcDbLine
 62
250
  6
CONTINUOUS
 10
-94.7578417331
 20
53.057992012
 11
-94.7578419576
 21
5.3
  0
LINE
  5
23D
100
AcDbEntity
  8
IMPORT_IGES
100
AcDbLine
 62
250
  6
CONTINUOUS
 10
-94.7578417344
 20
-5.3
 11
-94.7578417344
 21
-53.0579919572
  0
LINE
  5
23E
100
AcDbEntity
  8
IMPORT_IGES
100
AcDbLine
 62
7
  6
CONTINUOUS
 10
-94.7273084154
 20
5.3
 11
-94.7273084154
 21
5.0
  0
LINE
  5
23F
100
AcDbEntity
  8
IMPORT_IGES
100
AcDbLine
 62
7
  6
CONTINUOUS
 10
-94.7273084154
 20
-5.0
 11
-94.7273084154
 21
-5.3
  0
LINE
  5
240
100
AcDbEntity
  8
IMPORT_IGES
100
AcDbLine
 62
7
  6
CONTINUOUS
 10
-94.5499999999
 20
5.0
 11
-94.5499999999
 21
-5.0
  0
LINE
  5
241
100
AcDbEntity
  8
IMPORT_IGES
100
AcDbLine
 62
7
  6
CONTINUOUS
 10
-94.2499999999
 20
-5.3
 11
-94.2499999999
 21
-5.0
  0
LINE
  5
242
100
AcDbEntity
  8
IMPORT_IGES
100
AcDbLine
 62
7
  6
CONTINUOUS
 10
-94.2499999999
 20
5.0
 11
-94.2499999999
 21
5.3
  0
LINE
  5
243
100
AcDbEntity
  8
IMPORT_IGES
100
AcDbLine
 62
7
  6
CONTINUOUS
 10
-94.1487606233
 20
-5.3
 11
-94.1487606233
 21
-5.0
  0
LINE
  5
244
100
AcDbEntity
  8
IMPORT_IGES
100
AcDbLine
 62
7
  6
CONTINUOUS
 10
-94.1487606233
 20
5.0
 11
-94.1487606233
 21
5.3
  0
LINE
  5
245
100
AcDbEntity
  8
IMPORT_IGES
100
AcDbLine
 62
250
  6
CONTINUOUS
 10
-93.7579942675
 20
-55.0576896533
 11
-93.757992005
 21
-54.0578414919
  0
LINE
  5
246
100
AcDbEntity
  8
IMPORT_IGES
100
AcDbLine
 62
250
  6
CONTINUOUS
 10
-93.7579919571
 20
54.0578417345
 11
-93.7579942172
 21
55.0576896532
  0
LINE
  5
247
100
AcDbEntity
  8
IMPORT_IGES
100
AcDbLine
 62
7
  6
CONTINUOUS
 10
-93.2547303894
 20
5.0
 11
-93.2547303894
 21
-5.0
  0
LINE
  5
248
100
AcDbEntity
  8
IMPORT_IGES
100
AcDbLine
 62
7
  6
CONTINUOUS
 10
-93.1499999998
 20
5.3
 11
-93.1499999998
 21
5.0
  0
LINE
  5
249
100
AcDbEntity
  8
IMPORT_IGES
100
AcDbLine
 62
7
  6
CONTINUOUS
 10
-93.1499999998
 20
-5.0
 11
-93.1499999998
 21
-5.3
  0
LINE
  5
24A
100
AcDbEntity
  8
IMPORT_IGES
100
AcDbLine
 62
7
  6
CONTINUOUS
 10
-92.8445363118
 20
5.3
 11
-92.8445363073
 21
1.45
  0
LINE
  5
24B
100
AcDbEntity
  8
IMPORT_IGES
100
AcDbLine
 62
7
  6
CONTINUOUS
 10
-92.844536304
 20
-1.45
 11
-92.8445362995
 21
-5.3
  0
LINE
  5
24C
100
AcDbEntity
  8
IMPORT_IGES
100
AcDbLine
 62
7
  6
CONTINUOUS
 10
-89.6499999998
 20
5.3
 11
-89.6499999998
 21
-5.3
  0
LINE
  5
24D
100
AcDbEntity
  8
IMPORT_IGES
100
AcDbLine
 62
7
  6
CONTINUOUS
 10
-93.1602814037
 20
0.4159931566
 11
-93.1613459411
 21
-0.0
  0
LINE
  5
24E
100
AcDbEntity
  8
IMPORT_IGES
100
AcDbLine
 62
7
  6
CONTINUOUS
 10
-93.1579548589
 20
0.7250056578
 11
-93.1602814037
 21
0.4159931566
  0
LINE
  5
24F
100
AcDbEntity
  8
IMPORT_IGES
100
AcDbLine
 62
7
  6
CONTINUOUS
 10
-93.1554245515
 20
0.9320326052
 11
-93.1579548589
 21
0.7250056578
  0
LINE
  5
250
100
AcDbEntity
  8
IMPORT_IGES
100
AcDbLine
 62
7
  6
CONTINUOUS
 10
-93.1523051116
 20
1.1107495678
 11
-93.1554245515
 21
0.9320326052
  0
LINE
  5
251
100
AcDbEntity
  8
IMPORT_IGES
100
AcDbLine
 62
7
  6
CONTINUOUS
 10
-93.1499426811
 20
1.2114748562
 11
-93.1523051116
 21
1.1107495678
  0
LINE
  5
252
100
AcDbEntity
  8
IMPORT_IGES
100
AcDbLine
 62
7
  6
CONTINUOUS
 10
-95.8884832979
 20
1.45
 11
-95.887227456
 21
1.4816793789
  0
LWPOLYLINE
  5
253
100
AcDbEntity
  8
IMPORT_IGES
100
AcDbPolyline
 62
7
  6
CONTINUOUS
 90
8
 70
0
 10
-95.887227456
 20
1.4816793789
 10
-95.8857856866
 20
1.5127417509
 10
-95.8843147789
 20
1.5391601592
 10
-95.8828148608
 20
1.5610032348
 10
-95.8813007348
 20
1.5780325949
 10
-95.8797773353
 20
1.5901687787
 10
-95.878239728
 20
1.597491247
 10
-95.8766879129
 20
1.6
  0
LINE
  5
254
100
AcDbEntity
  8
IMPORT_IGES
100
AcDbLine
 62
7
  6
CONTINUOUS
 10
-88.1223672453
 20
-44.5276327546
 11
-88.2499999998
 21
-44.4
  0
LINE
  5
255
100
AcDbEntity
  8
IMPORT_IGES
100
AcDbLine
 62
250
  6
CONTINUOUS
 10
-82.4495832959
 20
-44.3999999995
 11
-82.3219407917
 21
-44.5276327546
  0
LINE
  5
256
100
AcDbEntity
  8
IMPORT_IGES
100
AcDbLine
 62
7
  6
CONTINUOUS
 10
-88.4499999998
 20
-11.75
 11
-88.4499999998
 21
-23.75
  0
LINE
  5
257
100
AcDbEntity
  8
IMPORT_IGES
100
AcDbLine
 62
7
  6
CONTINUOUS
 10
-88.2499999999
 20
-46.5174464233
 11
-88.2499999999
 21
-44.4
  0
LINE
  5
258
100
AcDbEntity
  8
IMPORT_IGES
100
AcDbLine
 62
7
  6
CONTINUOUS
 10
-88.2499999999
 20
-35.6
 11
-88.2499999999
 21
-33.4825535767
  0
LINE
  5
259
100
AcDbEntity
  8
IMPORT_IGES
100
AcDbLine
 62
7
  6
CONTINUOUS
 10
-88.1223672453
 20
-35.4723672455
 11
-88.1223672453
 21
-33.6101863313
  0
LINE
  5
25A
100
AcDbEntity
  8
IMPORT_IGES
100
AcDbLine
 62
7
  6
CONTINUOUS
 10
-88.1223672453
 20
-44.5276327546
 11
-88.1223672453
 21
-46.3898136688
  0
LINE
  5
25B
100
AcDbEntity
  8
IMPORT_IGES
100
AcDbLine
 62
7
  6
CONTINUOUS
 10
-87.4499999998
 20
-11.75
 11
-87.4499999998
 21
-23.75
  0
LINE
  5
25C
100
AcDbEntity
  8
IMPORT_IGES
100
AcDbLine
 62
7
  6
CONTINUOUS
 10
-85.9499999998
 20
-23.75
 11
-85.9499999998
 21
-11.75
  0
LINE
  5
25D
100
AcDbEntity
  8
IMPORT_IGES
100
AcDbLine
 62
7
  6
CONTINUOUS
 10
-83.5499999998
 20
44.65
 11
-83.5499999998
 21
41.85
  0
LINE
  5
25E
100
AcDbEntity
  8
IMPORT_IGES
100
AcDbLine
 62
7
  6
CONTINUOUS
 10
-83.5499999998
 20
-19.15
 11
-83.5499999998
 21
-16.35
  0
LINE
  5
25F
100
AcDbEntity
  8
IMPORT_IGES
100
AcDbLine
 62
7
  6
CONTINUOUS
 10
-82.5499999998
 20
44.65
 11
-82.5499999998
 21
41.85
  0
LINE
  5
260
100
AcDbEntity
  8
IMPORT_IGES
100
AcDbLine
 62
7
  6
CONTINUOUS
 10
-82.5499999998
 20
-19.15
 11
-82.5499999998
 21
-16.35
  0
LINE
  5
261
100
AcDbEntity
  8
IMPORT_IGES
100
AcDbLine
 62
250
  6
CONTINUOUS
 10
-88.2499999999
 20
-33.4825535767
 11
-88.1223672453
 21
-33.6101863313
  0
LINE
  5
262
100
AcDbEntity
  8
IMPORT_IGES
100
AcDbLine
 62
250
  6
CONTINUOUS
 10
-79.5389280244
 20
-41.7114984291
 11
-79.6500000003
 21
-41.6004167052
  0
LINE
  5
263
100
AcDbEntity
  8
IMPORT_IGES
100
AcDbLine
 62
250
  6
CONTINUOUS
 10
-87.1225195501
 20
-32.6103386361
 11
-87.2501523047
 21
-32.4827058816
  0
LWPOLYLINE
  5
264
100
AcDbEntity
  8
IMPORT_IGES
100
AcDbPolyline
 62
7
  6
CONTINUOUS
 90
5
 70
0
 10
-95.876687909
 20
-1.599973142
 10
-95.878228523
 20
-1.5975388789
 10
-95.8797567689
 20
-1.5903148934
 10
-95.8812726467
 20
-1.5783011857
 10
-95.8827811492
 20
-1.5614325589
  0
LWPOLYLINE
  5
265
100
AcDbEntity
  8
IMPORT_IGES
100
AcDbPolyline
 62
7
  6
CONTINUOUS
 90
34
 70
0
 10
-79.6500046466
 20
-38.3996027936
 10
-79.6532405263
 20
-38.2657787231
 10
-79.6627474537
 20
-38.132875496
 10
-79.678525429
 20
-38.0008931123
 10
-79.7006404614
 20
-37.8695389665
 10
-79.7290265415
 20
-37.7391056641
 10
-79.7634856414
 20
-37.6104710213
 10
-79.8040579925
 20
-37.4836472992
 10
-79.8507033632
 20
-37.3586222367
 10
-79.9031030308
 20
-37.2362368673
 10
-79.9612952998
 20
-37.1165090153
 10
-80.0252418656
 20
-36.9994208563
 10
-80.0945090922
 20
-36.8857599506
 10
-80.1691323182
 20
-36.7755493945
 10
-80.249076205
 20
-36.6687660918
 10
-80.3338011009
 20
-36.5661283144
 10
-80.4233389284
 20
-36.4676636734
 10
-80.5176577651
 20
-36.3733445578
 10
-80.6161221914
 20
-36.2838064068
 10
-80.7187598203
 20
-36.1990811415
 10
-80.8255430388
 20
-36.1191368408
 10
-80.9357535889
 20
-36.0445131812
 10
-81.049414569
 20
-35.9752455001
 10
-81.1665028805
 20
-35.9112984599
 10
-81.2862309702
 20
-35.8531057246
 10
-81.4086166649
 20
-35.8007055982
 10
-81.5336421376
 20
-35.7540597767
 10
-81.6604663545
 20
-35.7134870123
 10
-81.789102301
 20
-35.6790277087
 10
-81.9195369916
 20
-35.6506414623
 10
-82.0508904353
 20
-35.6285258142
 10
-82.182869302
 20
-35.6127466113
 10
-82.3157669218
 20
-35.6032380067
 10
-82.4495832947
 20
-35.6000000003
  0
LINE
  5
266
100
AcDbEntity
  8
IMPORT_IGES
100
AcDbLine
 62
7
  6
CONTINUOUS
 10
-79.5389280244
 20
-41.7114984291
 11
-79.5416398085
 21
-40.3826581181
  0
LINE
  5
267
100
AcDbEntity
  8
IMPORT_IGES
100
AcDbLine
 62
7
  6
CONTINUOUS
 10
-79.6500000003
 20
-41.6004167052
 11
-79.6500000003
 21
-38.3995832961
  0
LINE
  5
268
100
AcDbEntity
  8
IMPORT_IGES
100
AcDbLine
 62
7
  6
CONTINUOUS
 10
-79.3499999998
 20
-16.35
 11
-79.3499999998
 21
-19.15
  0
LINE
  5
269
100
AcDbEntity
  8
IMPORT_IGES
100
AcDbLine
 62
7
  6
CONTINUOUS
 10
-79.3499999998
 20
41.85
 11
-79.3499999998
 21
44.65
  0
LINE
  5
26A
100
AcDbEntity
  8
IMPORT_IGES
100
AcDbLine
 62
7
  6
CONTINUOUS
 10
-78.3499999998
 20
-16.35
 11
-78.3499999998
 21
-19.15
  0
LINE
  5
26B
100
AcDbEntity
  8
IMPORT_IGES
100
AcDbLine
 62
7
  6
CONTINUOUS
 10
-78.3499999998
 20
41.85
 11
-78.3499999998
 21
44.65
  0
LINE
  5
26C
100
AcDbEntity
  8
IMPORT_IGES
100
AcDbLine
 62
7
  6
CONTINUOUS
 10
-75.9499999998
 20
-24.75
 11
-75.9499999998
 21
-26.25
  0
LINE
  5
26D
100
AcDbEntity
  8
IMPORT_IGES
100
AcDbLine
 62
7
  6
CONTINUOUS
 10
-75.9499999998
 20
-10.75
 11
-75.9499999998
 21
-9.25
  0
LINE
  5
26E
100
AcDbEntity
  8
IMPORT_IGES
100
AcDbLine
 62
7
  6
CONTINUOUS
 10
-74.4499999998
 20
-9.25
 11
-74.4499999998
 21
-10.75
  0
LINE
  5
26F
100
AcDbEntity
  8
IMPORT_IGES
100
AcDbLine
 62
7
  6
CONTINUOUS
 10
-74.4499999998
 20
-24.75
 11
-74.4499999998
 21
-26.25
  0
LINE
  5
270
100
AcDbEntity
  8
IMPORT_IGES
100
AcDbLine
 62
7
  6
CONTINUOUS
 10
-79.5416398085
 20
-40.3826581181
 11
-79.5408964267
 21
-39.0451557614
  0
LINE
  5
271
100
AcDbEntity
  8
IMPORT_IGES
100
AcDbLine
 62
7
  6
CONTINUOUS
 10
-79.5408964267
 20
-39.0451557614
 11
-79.5389280244
 21
-38.288501571
  0
LWPOLYLINE
  5
272
100
AcDbEntity
  8
IMPORT_IGES
100
AcDbPolyline
 62
7
  6
CONTINUOUS
 90
28
 70
0
 10
-79.5389280229
 20
-41.7114935566
 10
-79.541079705
 20
-41.8318875545
 10
-79.5484073308
 20
-41.9529023088
 10
-79.5610014137
 20
-42.0743066888
 10
-79.578895157
 20
-42.195587412
 10
-79.6021821809
 20
-42.3167755961
 10
-79.6311355827
 20
-42.4384234978
 10
-79.6661673042
 20
-42.5610751824
 10
-79.7072373572
 20
-42.6835600921
 10
-79.7537969384
 20
-42.803891129
 10
-79.8054679873
 20
-42.921265954
 10
-79.8623342481
 20
-43.036026912
 10
-79.9242996029
 20
-43.1479888965
 10
-79.9913600672
 20
-43.2571349919
 10
-80.0632506456
 20
-43.3630230341
 10
-80.1393992225
 20
-43.4648898698
 10
-80.2190529221
 20
-43.5619936817
 10
-80.3024296098
 20
-43.6548458042
 10
-80.3904972656
 20
-43.7444861934
 10
-80.4841082749
 20
-43.8314871542
 10
-80.582285743
 20
-43.914655261
 10
-80.683209187
 20
-43.9924546612
 10
-80.7858033389
 20
-44.064343097
 10
-80.8904857877
 20
-44.1308905215
 10
-80.9975437398
 20
-44.1924046531
 10
-81.1069287645
 20
-44.2489221628
 10
-81.2182062458
 20
-44.3002900655
 10
-81.3311312873
 20
-44.3464763207
  0
LWPOLYLINE
  5
273
100
AcDbEntity
  8
IMPORT_IGES
100
AcDbPolyline
 62
7
  6
CONTINUOUS
 90
10
 70
0
 10
-93.1360359479
 20
1.45
 10
-93.137505967
 20
1.447527301
 10
-93.1389759885
 20
1.4401588486
 10
-93.140431165
 20
1.4279691325
 10
-93.1418713456
 20
1.4109092569
 10
-93.1432966811
 20
1.3890281177
 10
-93.1446927797
 20
1.3625468922
 10
-93.146059344
 20
1.3314189551
 10
-93.1473966713
 20
1.2956909318
 10
-93.1499426811
 20
1.2114748562
  0
LINE
  5
274
100
AcDbEntity
  8
IMPORT_IGES
100
AcDbLine
 62
7
  6
CONTINUOUS
 10
-70.9499999998
 20
-26.25
 11
-70.9499999998
 21
-24.75
  0
LINE
  5
275
100
AcDbEntity
  8
IMPORT_IGES
100
AcDbLine
 62
7
  6
CONTINUOUS
 10
-70.9499999998
 20
-10.75
 11
-70.9499999998
 21
-9.25
  0
LINE
  5
276
100
AcDbEntity
  8
IMPORT_IGES
100
AcDbLine
 62
7
  6
CONTINUOUS
 10
-69.4499999998
 20
-10.75
 11
-69.4499999998
 21
-9.25
  0
LINE
  5
277
100
AcDbEntity
  8
IMPORT_IGES
100
AcDbLine
 62
7
  6
CONTINUOUS
 10
-54.6999999998
 20
-47.3582422471
 11
-54.8082422469
 21
-47.25
  0
LINE
  5
278
100
AcDbEntity
  8
IMPORT_IGES
100
AcDbLine
 62
7
  6
CONTINUOUS
 10
-64.4499999998
 20
-9.4594287875
 11
-64.4499999998
 21
-23.75
  0
LINE
  5
279
100
AcDbEntity
  8
IMPORT_IGES
100
AcDbLine
 62
7
  6
CONTINUOUS
 10
-63.9499999998
 20
38.25
 11
-63.9499999998
 21
46.25
  0
LINE
  5
27A
100
AcDbEntity
  8
IMPORT_IGES
100
AcDbLine
 62
7
  6
CONTINUOUS
 10
-62.9499999998
 20
-23.75
 11
-62.9499999998
 21
-11.75
  0
LINE
  5
27B
100
AcDbEntity
  8
IMPORT_IGES
100
AcDbLine
 62
7
  6
CONTINUOUS
 10
-61.9499999998
 20
-23.75
 11
-61.9499999998
 21
-11.75
  0
LINE
  5
27C
100
AcDbEntity
  8
IMPORT_IGES
100
AcDbLine
 62
7
  6
CONTINUOUS
 10
-61.6999999998
 20
-47.3896613639
 11
-61.6999999998
 21
-44.3831962665
  0
LINE
  5
27D
100
AcDbEntity
  8
IMPORT_IGES
100
AcDbLine
 62
7
  6
CONTINUOUS
 10
-61.6999999998
 20
-35.6168037336
 11
-61.6999999998
 21
-32.6103386361
  0
LWPOLYLINE
  5
27E
100
AcDbEntity
  8
IMPORT_IGES
100
AcDbPolyline
 62
7
  6
CONTINUOUS
 90
28
 70
0
 10
-81.3311312873
 20
-35.6535236794
 10
-81.2209126229
 20
-35.6985338388
 10
-81.1121809198
 20
-35.7485168385
 10
-81.005168697
 20
-35.8034531367
 10
-80.9003099325
 20
-35.863196991
 10
-80.7976310785
 20
-35.9278044453
 10
-80.6968030595
 20
-35.9976177683
 10
-80.5975164053
 20
-36.0731246432
 10
-80.5007142491
 20
-36.1538905582
 10
-80.4078657458
 20
-36.2387578546
 10
-80.3197742296
 20
-36.3268518533
 10
-80.2358849394
 20
-36.4185807961
 10
-80.1555900009
 20
-36.5146407901
 10
-80.0788018664
 20
-36.6153761549
 10
-80.0061455428
 20
-36.7202243365
 10
-79.9381336332
 20
-36.828563097
 10
-79.8750921474
 20
-36.9399162515
 10
-79.8170191132
 20
-37.0543355053
 10
-79.7639110306
 20
-37.1719588155
 10
-79.7156835234
 20
-37.2933512336
 10
-79.6728899808
 20
-37.417547332
 10
-79.6362477642
 20
-37.5422986875
 10
-79.6058607107
 20
-37.666349439
 10
-79.5813245552
 20
-37.790312035
 10
-79.56240499
 20
-37.9146864817
 10
-79.549042563
 20
-38.0394761777
 10
-79.5412365283
 20
-38.1641646989
 10
-79.5389280244
 20
-38.288501571
  0
LINE
  5
27F
100
AcDbEntity
  8
IMPORT_IGES
100
AcDbLine
 62
7
  6
CONTINUOUS
 10
-60.6999999999
 20
-32.641757753
 11
-60.5917577528
 21
-32.75
  0
LINE
  5
280
100
AcDbEntity
  8
IMPORT_IGES
100
AcDbLine
 62
7
  6
CONTINUOUS
 10
-58.6999999998
 20
-32.4827058816
 11
-58.6999999998
 21
-32.9681254392
  0
LINE
  5
281
100
AcDbEntity
  8
IMPORT_IGES
100
AcDbLine
 62
7
  6
CONTINUOUS
 10
-58.6999999998
 20
-47.0318745609
 11
-58.6999999998
 21
-47.5172941185
  0
LINE
  5
282
100
AcDbEntity
  8
IMPORT_IGES
100
AcDbLine
 62
7
  6
CONTINUOUS
 10
-56.6999999998
 20
-47.5172941185
 11
-56.6999999998
 21
-47.0318745609
  0
LINE
  5
283
100
AcDbEntity
  8
IMPORT_IGES
100
AcDbLine
 62
7
  6
CONTINUOUS
 10
-56.6999999998
 20
-32.9681254392
 11
-56.6999999998
 21
-32.4827058816
  0
LINE
  5
284
100
AcDbEntity
  8
IMPORT_IGES
100
AcDbLine
 62
7
  6
CONTINUOUS
 10
-53.6999999998
 20
-32.6103386361
 11
-53.6999999998
 21
-35.6168037336
  0
LINE
  5
285
100
AcDbEntity
  8
IMPORT_IGES
100
AcDbLine
 62
7
  6
CONTINUOUS
 10
-53.6999999998
 20
-44.3831962665
 11
-53.6999999998
 21
-47.3896613639
  0
LWPOLYLINE
  5
286
100
AcDbEntity
  8
IMPORT_IGES
100
AcDbPolyline
 62
7
  6
CONTINUOUS
 90
31
 70
0
 10
95.7579942184
 20
-55.057689655
 10
95.8627752061
 20
-55.0549270949
 10
95.9672438936
 20
-55.0466811964
 10
96.0711138025
 20
-55.0329783514
 10
96.1740984515
 20
-55.0138603497
 10
96.2759180855
 20
-54.9893830782
 10
96.3763001941
 20
-54.9596153035
 10
96.4749705234
 20
-54.9246412547
 10
96.5716596398
 20
-54.8845594028
 10
96.6661090423
 20
-54.839479324
 10
96.758060938
 20
-54.7895260966
 10
96.8472644593
 20
-54.7348381187
 10
96.9334811021
 20
-54.6755631683
 10
97.0164754477
 20
-54.6118642033
 10
97.0960209456
 20
-54.5439162782
 10
97.1719046211
 20
-54.4719018986
 10
97.2439188429
 20
-54.3960180973
 10
97.3118665827
 20
-54.3164725096
 10
97.3755653396
 20
-54.2334781138
 10
97.4348400644
 20
-54.1472614634
 10
97.4895278046
 20
-54.0580579798
 10
97.5394807881
 20
-53.966106169
 10
97.5845606226
 20
-53.8716569002
 10
97.6246422359
 20
-53.7749679669
 10
97.6596160581
 20
-53.6762978708
 10
97.6893836245
 20
-53.5759160448
 10
97.7138607124
 20
-53.474096742
 10
97.7329785614
 20
-53.3711124712
 10
97.7466812908
 20
-53.2672429854
 10
97.7549271169
 20
-53.1627747631
 10
97.7576896538
 20
-53.0579942794
  0
LINE
  5
287
100
AcDbEntity
  8
IMPORT_IGES
100
AcDbLine
 62
7
  6
CONTINUOUS
 10
95.9502976468
 20
-55.2499999997
 11
-93.9502959208
 21
-55.2499999996
  0
LINE
  5
288
100
AcDbEntity
  8
IMPORT_IGES
100
AcDbLine
 62
250
  6
CONTINUOUS
 10
-93.7579942675
 20
-55.0576896533
 11
95.7579942174
 21
-55.0576896533
  0
LINE
  5
289
100
AcDbEntity
  8
IMPORT_IGES
100
AcDbLine
 62
250
  6
CONTINUOUS
 10
-93.757992005
 20
-54.0578414919
 11
95.7579869878
 21
-54.0578411451
  0
LINE
  5
28A
100
AcDbEntity
  8
IMPORT_IGES
100
AcDbLine
 62
250
  6
CONTINUOUS
 10
97.7576896534
 20
-53.0579942794
 11
96.7578419697
 21
-53.0580164759
  0
LINE
  5
28B
100
AcDbEntity
  8
IMPORT_IGES
100
AcDbLine
 62
250
  6
CONTINUOUS
 10
-95.7576896528
 20
-53.0579811324
 11
-94.7578417344
 21
-53.0579919572
  0
LINE
  5
28C
100
AcDbEntity
  8
IMPORT_IGES
100
AcDbLine
 62
7
  6
CONTINUOUS
 10
95.4500000002
 20
-52.75
 11
88.5260690392
 21
-52.75
  0
LINE
  5
28D
100
AcDbEntity
  8
IMPORT_IGES
100
AcDbLine
 62
7
  6
CONTINUOUS
 10
88.5697067014
 20
-52.55
 11
95.2500000002
 21
-52.55
  0
LWPOLYLINE
  5
28E
100
AcDbEntity
  8
IMPORT_IGES
100
AcDbPolyline
 62
7
  6
CONTINUOUS
 90
31
 70
0
 10
-93.7579942675
 20
-55.0576896537
 10
-93.8627655177
 20
-55.0549276053
 10
-93.967226262
 20
-55.0466830563
 10
-94.0710900668
 20
-55.0329821212
 10
-94.1740706042
 20
-55.0138662817
 10
-94.2758879646
 20
-54.9893911633
 10
-94.3762691917
 20
-54.9596253915
 10
-94.4749399855
 20
-54.9246529913
 10
-94.5716308417
 20
-54.8845722375
 10
-94.666082787
 20
-54.8394927129
 10
-94.7580379494
 20
-54.789539378
 10
-94.8472453768
 20
-54.7348505176
 10
-94.933466127
 20
-54.6755740528
 10
-95.0164647107
 20
-54.6118729006
 10
-95.0960145025
 20
-54.543922081
 10
-95.1719021529
 20
-54.4719043678
 10
-95.2439199964
 20
-54.3960168177
 10
-95.3118709703
 20
-54.3164670944
 10
-95.3755722944
 20
-54.2334685473
 10
-95.4348489444
 20
-54.1472477994
 10
-95.489537999
 20
-54.058040338
 10
-95.5394915309
 20
-53.9660851071
 10
-95.5845712495
 20
-53.8716330614
 10
-95.6246521918
 20
-53.7749420693
 10
-95.6596247731
 20
-53.6762710966
 10
-95.6893907137
 20
-53.575889645
 10
-95.713865982
 20
-53.4740720178
 10
-95.732981947
 20
-53.371091172
 10
-95.7466829777
 20
-53.2672270191
 10
-95.754927587
 20
-53.162765889
 10
-95.7576896549
 20
-53.0579942184
  0
LWPOLYLINE
  5
28F
100
AcDbEntity
  8
IMPORT_IGES
100
AcDbPolyline
 62
7
  6
CONTINUOUS
 90
31
 70
0
 10
-93.9502785392
 20
-55.2499958582
 10
-94.0555581551
 20
-55.2471824411
 10
-94.1599538641
 20
-55.2389614882
 10
-94.2634656663
 20
-55.2253329995
 10
-94.3663691214
 20
-55.2062271272
 10
-94.4683886697
 20
-55.1817137191
 10
-94.5686976322
 20
-55.1520023183
 10
-94.6672817721
 20
-55.1170519007
 10
-94.7641553263
 20
-55.0769034904
 10
-94.8585343265
 20
-55.0318897026
 10
-94.9503985391
 20
-54.9819719717
 10
-95.0397681977
 20
-54.9271888633
 10
-95.1259200345
 20
-54.8679886899
 10
-95.2088282412
 20
-54.8043363792
 10
-95.2885186261
 20
-54.7362670035
 10
-95.3643453459
 20
-54.6643340922
 10
-95.4362776098
 20
-54.5885068597
 10
-95.5043462086
 20
-54.5088160917
 10
-95.5679976716
 20
-54.4259076745
 10
-95.6271969226
 20
-54.3397558064
 10
-95.6819790377
 20
-54.2503862892
 10
-95.7318957741
 20
-54.1585224151
 10
-95.776908564
 20
-54.0641439578
 10
-95.8170559751
 20
-53.9672711437
 10
-95.8520054679
 20
-53.8686879443
 10
-95.8817158647
 20
-53.7683794867
 10
-95.9062283432
 20
-53.6663606439
 10
-95.9253338965
 20
-53.5634600068
 10
-95.9389628559
 20
-53.4599537723
 10
-95.9471848902
 20
-53.3555657434
 10
-95.9499999995
 20
-53.2502959202
  0
LINE
  5
290
100
AcDbEntity
  8
IMPORT_IGES
100
AcDbLine
 62
7
  6
CONTINUOUS
 10
88.5697067014
 20
-50.55
 11
95.2500000002
 21
-50.55
  0
LINE
  5
291
100
AcDbEntity
  8
IMPORT_IGES
100
AcDbLine
 62
7
  6
CONTINUOUS
 10
95.4500000002
 20
-50.25
 11
92.6500000002
 21
-50.25
  0
LINE
  5
292
100
AcDbEntity
  8
IMPORT_IGES
100
AcDbLine
 62
250
  6
CONTINUOUS
 10
88.5697067014
 20
-49.9878192522
 11
95.1445362925
 21
-49.9878192522
  0
LINE
  5
293
100
AcDbEntity
  8
IMPORT_IGES
100
AcDbLine
 62
7
  6
CONTINUOUS
 10
88.5260690392
 20
-48.25
 11
95.4500000002
 21
-48.25
  0
LINE
  5
294
100
AcDbEntity
  8
IMPORT_IGES
100
AcDbLine
 62
7
  6
CONTINUOUS
 10
20.550152305
 20
-47.5172941185
 11
-6.1999999998
 21
-47.5172941185
  0
LINE
  5
295
100
AcDbEntity
  8
IMPORT_IGES
100
AcDbLine
 62
7
  6
CONTINUOUS
 10
-8.1999999998
 20
-47.5172941185
 11
-56.6999999998
 21
-47.5172941185
  0
LINE
  5
296
100
AcDbEntity
  8
IMPORT_IGES
100
AcDbLine
 62
7
  6
CONTINUOUS
 10
-58.6999999998
 20
-47.5172941185
 11
-87.2501523047
 21
-47.5172941185
  0
LINE
  5
297
100
AcDbEntity
  8
IMPORT_IGES
100
AcDbLine
 62
7
  6
CONTINUOUS
 10
-87.1225195501
 20
-47.3896613639
 11
-61.6999999998
 21
-47.3896613639
  0
LINE
  5
298
100
AcDbEntity
  8
IMPORT_IGES
100
AcDbLine
 62
7
  6
CONTINUOUS
 10
-53.6999999998
 20
-47.3896613639
 11
-11.1999999998
 21
-47.3896613639
  0
LINE
  5
299
100
AcDbEntity
  8
IMPORT_IGES
100
AcDbLine
 62
7
  6
CONTINUOUS
 10
-3.1999999998
 20
-47.3896613639
 11
20.4225195504
 21
-47.3896613639
  0
LINE
  5
29A
100
AcDbEntity
  8
IMPORT_IGES
100
AcDbLine
 62
7
  6
CONTINUOUS
 10
-3.1999999998
 20
-47.3582422471
 11
-4.1999999998
 21
-47.3582422471
  0
LINE
  5
29B
100
AcDbEntity
  8
IMPORT_IGES
100
AcDbLine
 62
7
  6
CONTINUOUS
 10
-10.1999999998
 20
-47.3582422471
 11
-11.1999999998
 21
-47.3582422471
  0
LINE
  5
29C
100
AcDbEntity
  8
IMPORT_IGES
100
AcDbLine
 62
7
  6
CONTINUOUS
 10
-53.6999999998
 20
-47.3582422471
 11
-54.6999999998
 21
-47.3582422471
  0
LINE
  5
29D
100
AcDbEntity
  8
IMPORT_IGES
100
AcDbLine
 62
7
  6
CONTINUOUS
 10
-60.6999999998
 20
-47.3582422471
 11
-61.6999999998
 21
-47.3582422471
  0
LINE
  5
29E
100
AcDbEntity
  8
IMPORT_IGES
100
AcDbLine
 62
7
  6
CONTINUOUS
 10
-6.1999999998
 20
-47.2672560365
 11
-8.1999999998
 21
-47.2672560365
  0
LINE
  5
29F
100
AcDbEntity
  8
IMPORT_IGES
100
AcDbLine
 62
7
  6
CONTINUOUS
 10
-56.6999999998
 20
-47.2672560365
 11
-58.6999999998
 21
-47.2672560365
  0
LINE
  5
2A0
100
AcDbEntity
  8
IMPORT_IGES
100
AcDbLine
 62
7
  6
CONTINUOUS
 10
-61.6999999998
 20
-47.25
 11
-58.6999999998
 21
-47.25
  0
LINE
  5
2A1
100
AcDbEntity
  8
IMPORT_IGES
100
AcDbLine
 62
7
  6
CONTINUOUS
 10
-56.6999999998
 20
-47.25
 11
-53.6999999998
 21
-47.25
  0
LINE
  5
2A2
100
AcDbEntity
  8
IMPORT_IGES
100
AcDbLine
 62
7
  6
CONTINUOUS
 10
-11.1999999998
 20
-47.25
 11
-8.1999999998
 21
-47.25
  0
LINE
  5
2A3
100
AcDbEntity
  8
IMPORT_IGES
100
AcDbLine
 62
7
  6
CONTINUOUS
 10
-6.1999999998
 20
-47.25
 11
-3.1999999998
 21
-47.25
  0
LINE
  5
2A4
100
AcDbEntity
  8
IMPORT_IGES
100
AcDbLine
 62
7
  6
CONTINUOUS
 10
-58.6999999998
 20
-47.0318745609
 11
-56.6999999998
 21
-47.0318745609
  0
LINE
  5
2A5
100
AcDbEntity
  8
IMPORT_IGES
100
AcDbLine
 62
7
  6
CONTINUOUS
 10
-8.1999999998
 20
-47.0318745609
 11
-6.1999999998
 21
-47.0318745609
  0
LINE
  5
2A6
100
AcDbEntity
  8
IMPORT_IGES
100
AcDbLine
 62
7
  6
CONTINUOUS
 10
81.5500000002
 20
-45.85
 11
84.3500000002
 21
-45.85
  0
LINE
  5
2A7
100
AcDbEntity
  8
IMPORT_IGES
100
AcDbLine
 62
7
  6
CONTINUOUS
 10
81.5500000002
 20
-44.85
 11
84.3500000002
 21
-44.85
  0
LINE
  5
2A8
100
AcDbEntity
  8
IMPORT_IGES
100
AcDbLine
 62
7
  6
CONTINUOUS
 10
15.6219407921
 20
-44.5276327546
 11
21.4223672456
 21
-44.5276327546
  0
LINE
  5
2A9
100
AcDbEntity
  8
IMPORT_IGES
100
AcDbLine
 62
7
  6
CONTINUOUS
 10
-82.3219407917
 20
-44.5276327546
 11
-88.1223672453
 21
-44.5276327546
  0
LINE
  5
2AA
100
AcDbEntity
  8
IMPORT_IGES
100
AcDbLine
 62
7
  6
CONTINUOUS
 10
-3.1999999998
 20
-44.4146153833
 11
-11.1999999998
 21
-44.4146153833
  0
LINE
  5
2AB
100
AcDbEntity
  8
IMPORT_IGES
100
AcDbLine
 62
7
  6
CONTINUOUS
 10
-53.6999999998
 20
-44.4146153833
 11
-61.6999999998
 21
-44.4146153833
  0
LINE
  5
2AC
100
AcDbEntity
  8
IMPORT_IGES
100
AcDbLine
 62
7
  6
CONTINUOUS
 10
-88.2499999998
 20
-44.4
 11
-82.4495832959
 21
-44.3999999995
  0
LINE
  5
2AD
100
AcDbEntity
  8
IMPORT_IGES
100
AcDbLine
 62
7
  6
CONTINUOUS
 10
15.7495857119
 20
-44.3999999994
 11
21.5500000002
 21
-44.3999999997
  0
LINE
  5
2AE
100
AcDbEntity
  8
IMPORT_IGES
100
AcDbLine
 62
7
  6
CONTINUOUS
 10
-61.6999999998
 20
-44.3831962665
 11
-53.6999999998
 21
-44.3831962665
  0
LINE
  5
2AF
100
AcDbEntity
  8
IMPORT_IGES
100
AcDbLine
 62
7
  6
CONTINUOUS
 10
-11.1999999998
 20
-44.3831962665
 11
-3.1999999998
 21
-44.3831962665
  0
LINE
  5
2B0
100
AcDbEntity
  8
IMPORT_IGES
100
AcDbLine
 62
7
  6
CONTINUOUS
 10
14.6311312876
 20
-44.3464763207
 11
-81.3311312873
 21
-44.3464763207
  0
LINE
  5
2B1
100
AcDbEntity
  8
IMPORT_IGES
100
AcDbLine
 62
7
  6
CONTINUOUS
 10
-41.9499999998
 20
46.25
 11
-41.9499999998
 21
38.25
  0
LINE
  5
2B2
100
AcDbEntity
  8
IMPORT_IGES
100
AcDbLine
 62
7
  6
CONTINUOUS
 10
-13.3396405193
 20
41.1103594805
 11
-13.1999999998
 21
41.25
  0
LINE
  5
2B3
100
AcDbEntity
  8
IMPORT_IGES
100
AcDbLine
 62
7
  6
CONTINUOUS
 10
-88.1223672453
 20
-35.4723672455
 11
-88.2499999999
 21
-35.6
  0
LWPOLYLINE
  5
2B4
100
AcDbEntity
  8
IMPORT_IGES
100
AcDbPolyline
 62
7
  6
CONTINUOUS
 90
34
 70
0
 10
-82.4496027933
 20
-44.3999942015
 10
-82.3157787268
 20
-44.3967588339
 10
-82.1828755028
 20
-44.3872522906
 10
-82.0508931214
 20
-44.3714745717
 10
-81.919538977
 20
-44.3493596252
 10
-81.7891056752
 20
-44.3209735031
 10
-81.6604710324
 20
-44.2865143611
 10
-81.5336473092
 20
-44.24594201
 10
-81.4086222449
 20
-44.199296639
 10
-81.2862368742
 20
-44.1468969713
 10
-81.1665090214
 20
-44.0887047023
 10
-81.0494208621
 20
-44.0247581365
 10
-80.9357599575
 20
-43.9554909111
 10
-80.8255494046
 20
-43.8808676881
 10
-80.7187661065
 20
-43.8009238056
 10
-80.6161283331
 20
-43.716198914
 10
-80.5176636948
 20
-43.6266610906
 10
-80.4233445812
 20
-43.5323422582
 10
-80.3338064319
 20
-43.4338778362
 10
-80.2490811682
 20
-43.3312402124
 10
-80.1691368686
 20
-43.2244569991
 10
-80.0945132087
 20
-43.1142464523
 10
-80.0252455253
 20
-43.0005854727
 10
-79.9612984816
 20
-42.8834971597
 10
-79.9031057426
 20
-42.7637690675
 10
-79.8507056126
 20
-42.641383369
 10
-79.8040597874
 20
-42.5163578913
 10
-79.7634870199
 20
-42.3895336696
 10
-79.729027714
 20
-42.2608977186
 10
-79.7006414657
 20
-42.1304630235
 10
-79.6785258161
 20
-41.9991095756
 10
-79.6627466122
 20
-41.867130705
 10
-79.6532380069
 20
-41.7342330816
 10
-79.6500000003
 20
-41.6004167052
  0
LINE
  5
2B5
100
AcDbEntity
  8
IMPORT_IGES
100
AcDbLine
 62
7
  6
CONTINUOUS
 10
84.3500000002
 20
-41.65
 11
81.5500000002
 21
-41.65
  0
LINE
  5
2B6
100
AcDbEntity
  8
IMPORT_IGES
100
AcDbLine
 62
7
  6
CONTINUOUS
 10
84.3500000002
 20
-40.65
 11
81.5500000002
 21
-40.65
  0
LINE
  5
2B7
100
AcDbEntity
  8
IMPORT_IGES
100
AcDbLine
 62
7
  6
CONTINUOUS
 10
-36.4499999998
 20
-32.5821997516
 11
-36.4499999998
 21
-24.7818950956
  0
LINE
  5
2B8
100
AcDbEntity
  8
IMPORT_IGES
100
AcDbLine
 62
7
  6
CONTINUOUS
 10
-35.4499999998
 20
-30.5818950956
 11
-35.4499999998
 21
-25.7173113553
  0
LINE
  5
2B9
100
AcDbEntity
  8
IMPORT_IGES
100
AcDbLine
 62
7
  6
CONTINUOUS
 10
-29.4499999998
 20
-25.7173113553
 11
-29.4499999998
 21
-30.5818950956
  0
LINE
  5
2BA
100
AcDbEntity
  8
IMPORT_IGES
100
AcDbLine
 62
250
  6
CONTINUOUS
 10
-82.3219407917
 20
-35.4723672455
 11
-82.4495832947
 21
-35.6000000005
  0
LINE
  5
2BB
100
AcDbEntity
  8
IMPORT_IGES
100
AcDbLine
 62
250
  6
CONTINUOUS
 10
-95.7576896527
 20
-53.0579942173
 11
-95.9499999994
 21
-53.2502959202
  0
LINE
  5
2BC
100
AcDbEntity
  8
IMPORT_IGES
100
AcDbLine
 62
250
  6
CONTINUOUS
 10
-88.1223672453
 20
-46.3898136688
 11
-88.2499999999
 21
-46.5174464233
  0
LINE
  5
2BD
100
AcDbEntity
  8
IMPORT_IGES
100
AcDbLine
 62
250
  6
CONTINUOUS
 10
-79.6500000003
 20
-38.3995832961
 11
-79.5389280244
 21
-38.288501571
  0
LWPOLYLINE
  5
2BE
100
AcDbEntity
  8
IMPORT_IGES
100
AcDbPolyline
 62
7
  6
CONTINUOUS
 90
34
 70
0
 10
15.7496100451
 20
-35.6000046469
 10
15.6157855211
 20
-35.6032402019
 10
15.4828818333
 20
-35.6127468479
 10
15.3508989818
 20
-35.6285245849
 10
15.2195443581
 20
-35.6506394225
 10
15.0891105707
 20
-35.6790253511
 10
14.9604754448
 20
-35.7134843423
 10
14.8336512416
 20
-35.7540566283
 10
14.7086256999
 20
-35.8007019768
 10
14.5862398619
 20
-35.8531016632
 10
14.4665115522
 20
-35.9112939923
 10
14.3494229461
 20
-35.9752406593
 10
14.2357616122
 20
-36.0445080245
 10
14.1255506469
 20
-36.1191314269
 10
14.0187669538
 20
-36.1990755276
 10
13.9161288123
 20
-36.2838006697
 10
13.8176638335
 20
-36.3733387764
 10
13.7233444063
 20
-36.4676579246
 10
13.6338059762
 20
-36.5661226886
 10
13.5490804646
 20
-36.6687606816
 10
13.4691359501
 20
-36.7755442905
 10
13.394512114
 20
-36.8857552498
 10
13.3252442942
 20
-36.999416658
 10
13.2612971528
 20
-37.1165054167
 10
13.2031043573
 20
-37.236233964
 10
13.1507042121
 20
-37.3586201272
 10
13.1040584127
 20
-37.4836460792
 10
13.0634857134
 20
-37.6104707771
 10
13.0290265184
 20
-37.7391073858
 10
13.0006404235
 20
-37.8695427404
 10
12.9785249702
 20
-38.000896304
 10
12.9627460055
 20
-38.1328745643
 10
12.9532376824
 20
-38.2657710336
 10
12.9500000007
 20
-38.3995857118
  0
LINE
  5
2BF
100
AcDbEntity
  8
IMPORT_IGES
100
AcDbLine
 62
7
  6
CONTINUOUS
 10
-81.3311312873
 20
-35.6535236794
 11
14.6311312876
 21
-35.6535236794
  0
LINE
  5
2C0
100
AcDbEntity
  8
IMPORT_IGES
100
AcDbLine
 62
7
  6
CONTINUOUS
 10
-3.1999999998
 20
-35.6168037336
 11
-11.1999999998
 21
-35.6168037336
  0
LINE
  5
2C1
100
AcDbEntity
  8
IMPORT_IGES
100
AcDbLine
 62
7
  6
CONTINUOUS
 10
-53.6999999998
 20
-35.6168037336
 11
-61.6999999998
 21
-35.6168037336
  0
LINE
  5
2C2
100
AcDbEntity
  8
IMPORT_IGES
100
AcDbLine
 62
7
  6
CONTINUOUS
 10
21.5500000001
 20
-35.6
 11
15.7495857134
 21
-35.6000000006
  0
LINE
  5
2C3
100
AcDbEntity
  8
IMPORT_IGES
100
AcDbLine
 62
7
  6
CONTINUOUS
 10
-82.4495832947
 20
-35.6000000005
 11
-88.2499999998
 21
-35.6000000003
  0
LINE
  5
2C4
100
AcDbEntity
  8
IMPORT_IGES
100
AcDbLine
 62
7
  6
CONTINUOUS
 10
-61.6999999998
 20
-35.5853846167
 11
-53.6999999998
 21
-35.5853846167
  0
LINE
  5
2C5
100
AcDbEntity
  8
IMPORT_IGES
100
AcDbLine
 62
7
  6
CONTINUOUS
 10
-11.1999999998
 20
-35.5853846167
 11
-3.1999999998
 21
-35.5853846167
  0
LINE
  5
2C6
100
AcDbEntity
  8
IMPORT_IGES
100
AcDbLine
 62
7
  6
CONTINUOUS
 10
21.4223672456
 20
-35.4723672455
 11
15.621940792
 21
-35.4723672455
  0
LINE
  5
2C7
100
AcDbEntity
  8
IMPORT_IGES
100
AcDbLine
 62
7
  6
CONTINUOUS
 10
-82.3219407917
 20
-35.4723672455
 11
-88.1223672453
 21
-35.4723672455
  0
LINE
  5
2C8
100
AcDbEntity
  8
IMPORT_IGES
100
AcDbLine
 62
7
  6
CONTINUOUS
 10
-58.6999999998
 20
-32.9681254392
 11
-56.6999999998
 21
-32.9681254392
  0
LINE
  5
2C9
100
AcDbEntity
  8
IMPORT_IGES
100
AcDbLine
 62
7
  6
CONTINUOUS
 10
-8.1999999998
 20
-32.9681254392
 11
-6.1999999998
 21
-32.9681254392
  0
LINE
  5
2CA
100
AcDbEntity
  8
IMPORT_IGES
100
AcDbLine
 62
7
  6
CONTINUOUS
 10
-61.6999999998
 20
-32.75
 11
-58.6999999998
 21
-32.7511042101
  0
LINE
  5
2CB
100
AcDbEntity
  8
IMPORT_IGES
100
AcDbLine
 62
7
  6
CONTINUOUS
 10
-56.6999999998
 20
-32.7511042101
 11
-53.6999999998
 21
-32.75
  0
LINE
  5
2CC
100
AcDbEntity
  8
IMPORT_IGES
100
AcDbLine
 62
7
  6
CONTINUOUS
 10
-11.1999999998
 20
-32.75
 11
-8.1999999998
 21
-32.7511042101
  0
LINE
  5
2CD
100
AcDbEntity
  8
IMPORT_IGES
100
AcDbLine
 62
7
  6
CONTINUOUS
 10
-6.1999999998
 20
-32.7511042101
 11
-3.1999999998
 21
-32.75
  0
LINE
  5
2CE
100
AcDbEntity
  8
IMPORT_IGES
100
AcDbLine
 62
7
  6
CONTINUOUS
 10
-58.6999999998
 20
-32.7327439636
 11
-56.6999999998
 21
-32.7327439636
  0
LINE
  5
2CF
100
AcDbEntity
  8
IMPORT_IGES
100
AcDbLine
 62
7
  6
CONTINUOUS
 10
-8.1999999998
 20
-32.7327439636
 11
-6.1999999998
 21
-32.7327439636
  0
LINE
  5
2D0
100
AcDbEntity
  8
IMPORT_IGES
100
AcDbLine
 62
7
  6
CONTINUOUS
 10
-61.6999999998
 20
-32.641757753
 11
-60.6999999998
 21
-32.641757753
  0
LINE
  5
2D1
100
AcDbEntity
  8
IMPORT_IGES
100
AcDbLine
 62
7
  6
CONTINUOUS
 10
-54.6999999998
 20
-32.641757753
 11
-53.6999999998
 21
-32.641757753
  0
LINE
  5
2D2
100
AcDbEntity
  8
IMPORT_IGES
100
AcDbLine
 62
7
  6
CONTINUOUS
 10
-11.1999999998
 20
-32.641757753
 11
-10.1999999998
 21
-32.641757753
  0
LINE
  5
2D3
100
AcDbEntity
  8
IMPORT_IGES
100
AcDbLine
 62
7
  6
CONTINUOUS
 10
-4.1999999998
 20
-32.641757753
 11
-3.1999999998
 21
-32.641757753
  0
LINE
  5
2D4
100
AcDbEntity
  8
IMPORT_IGES
100
AcDbLine
 62
7
  6
CONTINUOUS
 10
-53.6999999998
 20
-32.6103386361
 11
-11.1999999998
 21
-32.6103386361
  0
LINE
  5
2D5
100
AcDbEntity
  8
IMPORT_IGES
100
AcDbLine
 62
7
  6
CONTINUOUS
 10
-3.1999999998
 20
-32.6103386361
 11
20.4225195505
 21
-32.6103386361
  0
LINE
  5
2D6
100
AcDbEntity
  8
IMPORT_IGES
100
AcDbLine
 62
7
  6
CONTINUOUS
 10
-61.6999999998
 20
-32.6103386361
 11
-87.1225195501
 21
-32.6103386361
  0
LINE
  5
2D7
100
AcDbEntity
  8
IMPORT_IGES
100
AcDbLine
 62
7
  6
CONTINUOUS
 10
-36.4499999998
 20
-32.5821997516
 11
-28.4499999998
 21
-32.5821997516
  0
LINE
  5
2D8
100
AcDbEntity
  8
IMPORT_IGES
100
AcDbLine
 62
7
  6
CONTINUOUS
 10
-87.2501523047
 20
-32.4827058816
 11
-58.6999999998
 21
-32.4827058816
  0
LINE
  5
2D9
100
AcDbEntity
  8
IMPORT_IGES
100
AcDbLine
 62
7
  6
CONTINUOUS
 10
-56.6999999998
 20
-32.4827058816
 11
-36.4499999998
 21
-32.4827058816
  0
LINE
  5
2DA
100
AcDbEntity
  8
IMPORT_IGES
100
AcDbLine
 62
7
  6
CONTINUOUS
 10
-28.4499999998
 20
-32.4827058816
 11
-8.1999999998
 21
-32.4827058816
  0
LINE
  5
2DB
100
AcDbEntity
  8
IMPORT_IGES
100
AcDbLine
 62
7
  6
CONTINUOUS
 10
-6.1999999998
 20
-32.4827058816
 11
20.550152305
 21
-32.4827058816
  0
LINE
  5
2DC
100
AcDbEntity
  8
IMPORT_IGES
100
AcDbLine
 62
7
  6
CONTINUOUS
 10
-36.4499999998
 20
-30.5818950956
 11
-35.4499999998
 21
-30.5818950956
  0
LINE
  5
2DD
100
AcDbEntity
  8
IMPORT_IGES
100
AcDbLine
 62
7
  6
CONTINUOUS
 10
-29.4499999998
 20
-30.5818950956
 11
-28.4499999998
 21
-30.5818950956
  0
LWPOLYLINE
  5
2DE
100
AcDbEntity
  8
IMPORT_IGES
100
AcDbPolyline
 62
7
  6
CONTINUOUS
 90
28
 70
0
 10
14.6311312876
 20
-44.3464763206
 10
14.5209126232
 20
-44.3014661612
 10
14.41218092
 20
-44.2514831615
 10
14.3051686973
 20
-44.1965468633
 10
14.2003099327
 20
-44.136803009
 10
14.0976310788
 20
-44.0721955547
 10
13.9968030598
 20
-44.0023822317
 10
13.8975164056
 20
-43.9268753568
 10
13.8007142493
 20
-43.8461094418
 10
13.7078657461
 20
-43.7612421454
 10
13.6197742299
 20
-43.6731481467
 10
13.5358849397
 20
-43.5814192039
 10
13.4555900012
 20
-43.4853592098
 10
13.3788018667
 20
-43.3846238451
 10
13.306145543
 20
-43.2797756635
 10
13.2381336334
 20
-43.171436903
 10
13.1750921476
 20
-43.0600837484
 10
13.1170191134
 20
-42.9456644947
 10
13.0639110309
 20
-42.8280411844
 10
13.0156835236
 20
-42.7066487663
 10
12.9728899811
 20
-42.5824526679
 10
12.9362477645
 20
-42.4577013125
 10
12.905860711
 20
-42.333650561
 10
12.8813245555
 20
-42.209687965
 10
12.8624049903
 20
-42.0853135184
 10
12.8490425633
 20
-41.9605238223
 10
12.8412365286
 20
-41.8358353011
 10
12.8389280247
 20
-41.7114984291
  0
LINE
  5
2DF
100
AcDbEntity
  8
IMPORT_IGES
100
AcDbLine
 62
7
  6
CONTINUOUS
 10
-4.1999999998
 20
-47.3582422471
 11
-4.3082422469
 21
-47.25
  0
LINE
  5
2E0
100
AcDbEntity
  8
IMPORT_IGES
100
AcDbLine
 62
7
  6
CONTINUOUS
 10
-10.1999999999
 20
-32.641757753
 11
-10.0917577528
 21
-32.75
  0
LINE
  5
2E1
100
AcDbEntity
  8
IMPORT_IGES
100
AcDbLine
 62
250
  6
CONTINUOUS
 10
-95.9499999995
 20
53.2502976476
 11
-95.7576896535
 21
53.0579942793
  0
LINE
  5
2E2
100
AcDbEntity
  8
IMPORT_IGES
100
AcDbLine
 62
7
  6
CONTINUOUS
 10
-28.4499999998
 20
-24.7818950956
 11
-28.4499999998
 21
-32.5821997516
  0
LINE
  5
2E3
100
AcDbEntity
  8
IMPORT_IGES
100
AcDbLine
 62
250
  6
CONTINUOUS
 10
-87.2501523047
 20
-47.5172941185
 11
-87.1225195501
 21
-47.3896613639
  0
LINE
  5
2E4
100
AcDbEntity
  8
IMPORT_IGES
100
AcDbLine
 62
250
  6
CONTINUOUS
 10
-93.9502959208
 20
-55.2499999996
 11
-93.7579942675
 21
-55.0576896533
  0
LINE
  5
2E5
100
AcDbEntity
  8
IMPORT_IGES
100
AcDbLine
 62
7
  6
CONTINUOUS
 10
-28.4499999998
 20
-27.75
 11
-29.4499999998
 21
-27.75
  0
LINE
  5
2E6
100
AcDbEntity
  8
IMPORT_IGES
100
AcDbLine
 62
7
  6
CONTINUOUS
 10
-35.4499999998
 20
-27.75
 11
-36.4499999998
 21
-27.75
  0
LINE
  5
2E7
100
AcDbEntity
  8
IMPORT_IGES
100
AcDbLine
 62
7
  6
CONTINUOUS
 10
-35.4499999998
 20
-27.5818950956
 11
-29.4499999998
 21
-27.5818950956
  0
LINE
  5
2E8
100
AcDbEntity
  8
IMPORT_IGES
100
AcDbLine
 62
7
  6
CONTINUOUS
 10
-84.9499999998
 20
-27.25
 11
-65.4499999998
 21
-27.25
  0
LINE
  5
2E9
100
AcDbEntity
  8
IMPORT_IGES
100
AcDbLine
 62
7
  6
CONTINUOUS
 10
-84.9499999998
 20
-26.25
 11
-65.4499999998
 21
-26.25
  0
LINE
  5
2EA
100
AcDbEntity
  8
IMPORT_IGES
100
AcDbLine
 62
7
  6
CONTINUOUS
 10
-35.4499999998
 20
-25.7173113553
 11
-29.4499999998
 21
-25.7173113553
  0
LINE
  5
2EB
100
AcDbEntity
  8
IMPORT_IGES
100
AcDbLine
 62
7
  6
CONTINUOUS
 10
-36.4499999998
 20
-24.7818950956
 11
-28.4499999998
 21
-24.7818950956
  0
LINE
  5
2EC
100
AcDbEntity
  8
IMPORT_IGES
100
AcDbLine
 62
7
  6
CONTINUOUS
 10
-65.4499999998
 20
-24.75
 11
-84.9499999998
 21
-24.75
  0
LINE
  5
2ED
100
AcDbEntity
  8
IMPORT_IGES
100
AcDbLine
 62
250
  6
CONTINUOUS
 10
-93.7579942172
 20
55.0576896533
 11
-93.9502976464
 21
55.2499999996
  0
LINE
  5
2EE
100
AcDbEntity
  8
IMPORT_IGES
100
AcDbLine
 62
7
  6
CONTINUOUS
 10
-20.0720932045
 20
-4.8628973663
 11
-20.0720932045
 21
-2.6322130029
  0
LINE
  5
2EF
100
AcDbEntity
  8
IMPORT_IGES
100
AcDbLine
 62
7
  6
CONTINUOUS
 10
-18.927906795
 20
-2.632213003
 11
-18.927906795
 21
-4.8628830966
  0
LINE
  5
2F0
100
AcDbEntity
  8
IMPORT_IGES
100
AcDbLine
 62
7
  6
CONTINUOUS
 10
-17.1756764673
 20
40.75
 11
-17.1756764673
 21
54.0578419577
  0
LINE
  5
2F1
100
AcDbEntity
  8
IMPORT_IGES
100
AcDbLine
 62
7
  6
CONTINUOUS
 10
-17.132038805
 20
40.75
 11
-17.132038805
 21
51.25
  0
LINE
  5
2F2
100
AcDbEntity
  8
IMPORT_IGES
100
AcDbLine
 62
7
  6
CONTINUOUS
 10
-17.0849101297
 20
51.25
 11
-17.0849101297
 21
54.25
  0
LINE
  5
2F3
100
AcDbEntity
  8
IMPORT_IGES
100
AcDbLine
 62
7
  6
CONTINUOUS
 10
-15.1999999999
 20
38.6754772058
 11
-15.1999999999
 21
41.25
  0
LINE
  5
2F4
100
AcDbEntity
  8
IMPORT_IGES
100
AcDbLine
 62
7
  6
CONTINUOUS
 10
-15.0603594804
 20
41.1103594805
 11
-15.0603594804
 21
38.6679611948
  0
LINE
  5
2F5
100
AcDbEntity
  8
IMPORT_IGES
100
AcDbLine
 62
250
  6
CONTINUOUS
 10
-15.0499999999
 20
38.6679611948
 11
-15.0499999999
 21
38.6243235325
  0
LINE
  5
2F6
100
AcDbEntity
  8
IMPORT_IGES
100
AcDbLine
 62
7
  6
CONTINUOUS
 10
-15.0499999998
 20
53.4849101299
 11
-15.0499999998
 21
54.25
  0
LINE
  5
2F7
100
AcDbEntity
  8
IMPORT_IGES
100
AcDbLine
 62
7
  6
CONTINUOUS
 10
-54.8082422469
 20
-32.75
 11
-54.6999999998
 21
-32.641757753
  0
LINE
  5
2F8
100
AcDbEntity
  8
IMPORT_IGES
100
AcDbLine
 62
7
  6
CONTINUOUS
 10
10.5000000002
 20
-20.5
 11
-8.4999999998
 21
-20.5
  0
LINE
  5
2F9
100
AcDbEntity
  8
IMPORT_IGES
100
AcDbLine
 62
7
  6
CONTINUOUS
 10
-64.4499999998
 20
-18.5
 11
-62.9499999998
 21
-18.5
  0
LINE
  5
2FA
100
AcDbEntity
  8
IMPORT_IGES
100
AcDbLine
 62
7
  6
CONTINUOUS
 10
-85.9499999998
 20
-18.5
 11
-87.4499999998
 21
-18.5
  0
LINE
  5
2FB
100
AcDbEntity
  8
IMPORT_IGES
100
AcDbLine
 62
7
  6
CONTINUOUS
 10
-87.4499999998
 20
-17.0
 11
-85.9499999998
 21
-17.0
  0
LINE
  5
2FC
100
AcDbEntity
  8
IMPORT_IGES
100
AcDbLine
 62
7
  6
CONTINUOUS
 10
-64.4499999998
 20
-17.0
 11
-62.9499999998
 21
-17.0
  0
LINE
  5
2FD
100
AcDbEntity
  8
IMPORT_IGES
100
AcDbLine
 62
250
  6
CONTINUOUS
 10
20.4225195504
 20
-47.3896613639
 11
20.550152305
 21
-47.5172941185
  0
LINE
  5
2FE
100
AcDbEntity
  8
IMPORT_IGES
100
AcDbLine
 62
250
  6
CONTINUOUS
 10
21.5500000002
 20
-46.5174464233
 11
21.4223672456
 21
-46.3898136688
  0
LINE
  5
2FF
100
AcDbEntity
  8
IMPORT_IGES
100
AcDbLine
 62
250
  6
CONTINUOUS
 10
15.7495857134
 20
-35.6000000006
 11
15.621940792
 21
-35.4723672455
  0
LINE
  5
300
100
AcDbEntity
  8
IMPORT_IGES
100
AcDbLine
 62
250
  6
CONTINUOUS
 10
12.8389284536
 20
-38.2884968028
 11
12.9500000007
 21
-38.3995857118
  0
LINE
  5
301
100
AcDbEntity
  8
IMPORT_IGES
100
AcDbLine
 62
7
  6
CONTINUOUS
 10
-13.3396405193
 20
38.6679611948
 11
-13.3396405193
 21
41.1103594805
  0
LINE
  5
302
100
AcDbEntity
  8
IMPORT_IGES
100
AcDbLine
 62
7
  6
CONTINUOUS
 10
-13.1999999998
 20
41.25
 11
-13.1999999998
 21
38.6679611948
  0
LINE
  5
303
100
AcDbEntity
  8
IMPORT_IGES
100
AcDbLine
 62
7
  6
CONTINUOUS
 10
-11.1999999998
 20
-47.3896613639
 11
-11.1999999998
 21
-44.3831962665
  0
LINE
  5
304
100
AcDbEntity
  8
IMPORT_IGES
100
AcDbLine
 62
7
  6
CONTINUOUS
 10
-11.1999999998
 20
-35.6168037336
 11
-11.1999999998
 21
-32.6103386361
  0
LINE
  5
305
100
AcDbEntity
  8
IMPORT_IGES
100
AcDbLine
 62
7
  6
CONTINUOUS
 10
-9.4999999998
 20
-19.5
 11
-9.4999999998
 21
19.5
  0
LINE
  5
306
100
AcDbEntity
  8
IMPORT_IGES
100
AcDbLine
 62
7
  6
CONTINUOUS
 10
-8.1999999998
 20
-32.4827058816
 11
-8.1999999998
 21
-32.9681254392
  0
LINE
  5
307
100
AcDbEntity
  8
IMPORT_IGES
100
AcDbLine
 62
7
  6
CONTINUOUS
 10
-8.1999999998
 20
-47.0318745609
 11
-8.1999999998
 21
-47.5172941185
  0
LINE
  5
308
100
AcDbEntity
  8
IMPORT_IGES
100
AcDbLine
 62
7
  6
CONTINUOUS
 10
-60.5917577528
 20
-47.25
 11
-60.6999999999
 21
-47.3582422471
  0
LINE
  5
309
100
AcDbEntity
  8
IMPORT_IGES
100
AcDbLine
 62
7
  6
CONTINUOUS
 10
-84.9499999998
 20
-10.75
 11
-65.4499999998
 21
-10.75
  0
LINE
  5
30A
100
AcDbEntity
  8
IMPORT_IGES
100
AcDbLine
 62
7
  6
CONTINUOUS
 10
-65.4499999998
 20
-9.25
 11
-84.9499999998
 21
-9.25
  0
LINE
  5
30B
100
AcDbEntity
  8
IMPORT_IGES
100
AcDbLine
 62
7
  6
CONTINUOUS
 10
-65.4499999998
 20
-8.25
 11
-84.9499999998
 21
-8.25
  0
LINE
  5
30C
100
AcDbEntity
  8
IMPORT_IGES
100
AcDbLine
 62
7
  6
CONTINUOUS
 10
96.7578419579
 20
-6.8756764675
 11
72.9500000002
 21
-6.8756764675
  0
LINE
  5
30D
100
AcDbEntity
  8
IMPORT_IGES
100
AcDbLine
 62
7
  6
CONTINUOUS
 10
96.9500000002
 20
-6.75
 11
72.9500000002
 21
-6.75
  0
LINE
  5
30E
100
AcDbEntity
  8
IMPORT_IGES
100
AcDbLine
 62
7
  6
CONTINUOUS
 10
21.4223672456
 20
-35.4723672455
 11
21.5500000001
 21
-35.6
  0
LINE
  5
30F
100
AcDbEntity
  8
IMPORT_IGES
100
AcDbLine
 62
7
  6
CONTINUOUS
 10
-6.1999999998
 20
-47.5172941185
 11
-6.1999999998
 21
-47.0318745609
  0
LINE
  5
310
100
AcDbEntity
  8
IMPORT_IGES
100
AcDbLine
 62
7
  6
CONTINUOUS
 10
-6.1999999998
 20
-32.9681254392
 11
-6.1999999998
 21
-32.4827058816
  0
LINE
  5
311
100
AcDbEntity
  8
IMPORT_IGES
100
AcDbLine
 62
7
  6
CONTINUOUS
 10
-4.0499999998
 20
53.4849101299
 11
-4.0499999998
 21
54.25
  0
LINE
  5
312
100
AcDbEntity
  8
IMPORT_IGES
100
AcDbLine
 62
7
  6
CONTINUOUS
 10
-3.1999999998
 20
-32.6103386361
 11
-3.1999999998
 21
-35.6168037336
  0
LINE
  5
313
100
AcDbEntity
  8
IMPORT_IGES
100
AcDbLine
 62
7
  6
CONTINUOUS
 10
-3.1999999998
 20
-44.3831962665
 11
-3.1999999998
 21
-47.3896613639
  0
LINE
  5
314
100
AcDbEntity
  8
IMPORT_IGES
100
AcDbLine
 62
7
  6
CONTINUOUS
 10
-2.0499999998
 20
38.6679611948
 11
-2.0499999998
 21
54.25
  0
LINE
  5
315
100
AcDbEntity
  8
IMPORT_IGES
100
AcDbLine
 62
7
  6
CONTINUOUS
 10
-0.3756764673
 20
49.5756764675
 11
-0.3756764673
 21
52.8407663376
  0
LINE
  5
316
100
AcDbEntity
  8
IMPORT_IGES
100
AcDbLine
 62
7
  6
CONTINUOUS
 10
-0.2849101297
 20
49.4849101299
 11
-0.2849101297
 21
52.75
  0
LINE
  5
317
100
AcDbEntity
  8
IMPORT_IGES
100
AcDbLine
 62
7
  6
CONTINUOUS
 10
-22.3540902685
 20
-5.6257737856
 11
-23.4999952916
 21
-5.6257737856
  0
LINE
  5
318
100
AcDbEntity
  8
IMPORT_IGES
100
AcDbLine
 62
7
  6
CONTINUOUS
 10
-15.4999958381
 20
-5.6255932605
 11
-16.6458995562
 21
-5.6256028385
  0
LINE
  5
319
100
AcDbEntity
  8
IMPORT_IGES
100
AcDbLine
 62
7
  6
CONTINUOUS
 10
-89.6499999998
 20
-5.3
 11
-95.8400330908
 21
-5.3
  0
LINE
  5
31A
100
AcDbEntity
  8
IMPORT_IGES
100
AcDbLine
 62
7
  6
CONTINUOUS
 10
-93.1499999998
 20
-5.0
 11
-95.5499999998
 21
-5.0
  0
LINE
  5
31B
100
AcDbEntity
  8
IMPORT_IGES
100
AcDbLine
 62
7
  6
CONTINUOUS
 10
-18.927906795
 20
-4.8628830966
 11
-20.0720932045
 21
-4.8628973663
  0
LINE
  5
31C
100
AcDbEntity
  8
IMPORT_IGES
100
AcDbLine
 62
7
  6
CONTINUOUS
 10
96.1500000002
 20
-4.75
 11
96.9500000002
 21
-4.75
  0
LINE
  5
31D
100
AcDbEntity
  8
IMPORT_IGES
100
AcDbLine
 62
7
  6
CONTINUOUS
 10
-94.5499999998
 20
-3.0
 11
-95.5499999998
 21
-3.0
  0
LINE
  5
31E
100
AcDbEntity
  8
IMPORT_IGES
100
AcDbLine
 62
7
  6
CONTINUOUS
 10
-97.1499999998
 20
-2.65
 11
-95.9499999998
 21
-2.65
  0
LINE
  5
31F
100
AcDbEntity
  8
IMPORT_IGES
100
AcDbLine
 62
7
  6
CONTINUOUS
 10
-95.5499999998
 20
-1.6
 11
-95.8766879089
 21
-1.6
  0
LINE
  5
320
100
AcDbEntity
  8
IMPORT_IGES
100
AcDbLine
 62
7
  6
CONTINUOUS
 10
-95.9499999998
 20
-1.45
 11
-95.5499999998
 21
-1.45
  0
LINE
  5
321
100
AcDbEntity
  8
IMPORT_IGES
100
AcDbLine
 62
7
  6
CONTINUOUS
 10
-93.1360359479
 20
-1.45
 11
-89.6499999998
 21
-1.45
  0
LINE
  5
322
100
AcDbEntity
  8
IMPORT_IGES
100
AcDbLine
 62
7
  6
CONTINUOUS
 10
-22.3540902547
 20
1.2393446741
 11
-23.5001005165
 21
1.2393446741
  0
LINE
  5
323
100
AcDbEntity
  8
IMPORT_IGES
100
AcDbLine
 62
7
  6
CONTINUOUS
 10
-15.4998906124
 20
1.2395252196
 11
-16.6458996001
 21
1.2395156323
  0
LINE
  5
324
100
AcDbEntity
  8
IMPORT_IGES
100
AcDbLine
 62
7
  6
CONTINUOUS
 10
-95.9499999998
 20
1.45
 11
-95.5499999998
 21
1.45
  0
LINE
  5
325
100
AcDbEntity
  8
IMPORT_IGES
100
AcDbLine
 62
7
  6
CONTINUOUS
 10
-93.1360359479
 20
1.45
 11
-89.6499999998
 21
1.45
  0
LINE
  5
326
100
AcDbEntity
  8
IMPORT_IGES
100
AcDbLine
 62
7
  6
CONTINUOUS
 10
-95.5499999998
 20
1.6
 11
-95.8766879129
 21
1.6
  0
LINE
  5
327
100
AcDbEntity
  8
IMPORT_IGES
100
AcDbLine
 62
7
  6
CONTINUOUS
 10
-97.1499999998
 20
2.65
 11
-95.9499999998
 21
2.65
  0
LINE
  5
328
100
AcDbEntity
  8
IMPORT_IGES
100
AcDbLine
 62
7
  6
CONTINUOUS
 10
-95.5499999998
 20
3.0
 11
-94.5499999998
 21
3.0
  0
LINE
  5
329
100
AcDbEntity
  8
IMPORT_IGES
100
AcDbLine
 62
250
  6
CONTINUOUS
 10
62.9500000001
 20
3.25
 11
62.8243235327
 21
3.25
  0
LINE
  5
32A
100
AcDbEntity
  8
IMPORT_IGES
100
AcDbLine
 62
7
  6
CONTINUOUS
 10
-93.1499999998
 20
5.0
 11
-95.5499999998
 21
5.0
  0
LINE
  5
32B
100
AcDbEntity
  8
IMPORT_IGES
100
AcDbLine
 62
7
  6
CONTINUOUS
 10
96.1500000002
 20
5.25
 11
96.9500000002
 21
5.25
  0
LINE
  5
32C
100
AcDbEntity
  8
IMPORT_IGES
100
AcDbLine
 62
7
  6
CONTINUOUS
 10
-95.8400330908
 20
5.3
 11
-89.6499999998
 21
5.3
  0
LINE
  5
32D
100
AcDbEntity
  8
IMPORT_IGES
100
AcDbLine
 62
7
  6
CONTINUOUS
 10
87.9500000001
 20
7.25
 11
96.9500000002
 21
7.25
  0
LINE
  5
32E
100
AcDbEntity
  8
IMPORT_IGES
100
AcDbLine
 62
7
  6
CONTINUOUS
 10
87.9500000002
 20
7.3756764675
 11
96.7578419579
 21
7.3756764675
  0
LWPOLYLINE
  5
32F
100
AcDbEntity
  8
IMPORT_IGES
100
AcDbPolyline
 62
7
  6
CONTINUOUS
 90
34
 70
0
 10
12.9500057988
 20
-41.6003899552
 10
12.9532408417
 20
-41.7342144752
 10
12.9627471035
 20
-41.8671181598
 10
12.9785245842
 20
-41.999101009
 10
13.0006393359
 20
-42.1304556313
 10
13.0290253064
 20
-42.2608894181
 10
13.0634843398
 20
-42.3895245441
 10
13.1040566258
 20
-42.5163487484
 10
13.1507019745
 20
-42.6413742919
 10
13.203101661
 20
-42.7637601312
 10
13.2612939903
 20
-42.8834884417
 10
13.3252406572
 20
-43.000577048
 10
13.3945080212
 20
-43.1142383809
 10
13.4691314206
 20
-43.2244493429
 10
13.549075517
 20
-43.3312330315
 10
13.6338006548
 20
-43.433871169
 10
13.7233387574
 20
-43.5323361451
 10
13.8176579013
 20
-43.6266555701
 10
13.9161226609
 20
-43.7161939986
 10
14.0187606489
 20
-43.8009195087
 10
14.1255442526
 20
-43.8808640221
 10
14.2357552085
 20
-43.9554878585
 10
14.3494166163
 20
-44.0247556805
 10
14.4665053764
 20
-44.0887028255
 10
14.5862339263
 20
-44.1468956247
 10
14.7086200933
 20
-44.1992957735
 10
14.8336460502
 20
-44.2459415765
 10
14.960470753
 20
-44.2865142789
 10
15.0891073662
 20
-44.3209734763
 10
15.2195427253
 20
-44.349359573
 10
15.3508962931
 20
-44.3714750279
 10
15.4828745573
 20
-44.3872539937
 10
15.6157710302
 20
-44.3967623177
 10
15.7495857119
 20
-44.3999999997
  0
LINE
  5
330
100
AcDbEntity
  8
IMPORT_IGES
100
AcDbLine
 62
7
  6
CONTINUOUS
 10
12.8389284536
 20
-38.2884968028
 11
12.8416402168
 21
-39.6173561757
  0
LINE
  5
331
100
AcDbEntity
  8
IMPORT_IGES
100
AcDbLine
 62
7
  6
CONTINUOUS
 10
11.5000000002
 20
19.5
 11
11.5000000002
 21
-19.5
  0
LINE
  5
332
100
AcDbEntity
  8
IMPORT_IGES
100
AcDbLine
 62
7
  6
CONTINUOUS
 10
12.9500000007
 20
-38.3995857118
 11
12.9500000007
 21
-41.6004142867
  0
LINE
  5
333
100
AcDbEntity
  8
IMPORT_IGES
100
AcDbLine
 62
7
  6
CONTINUOUS
 10
12.8416402168
 20
-39.6173561757
 11
12.8408964063
 21
-40.9548261561
  0
LINE
  5
334
100
AcDbEntity
  8
IMPORT_IGES
100
AcDbLine
 62
7
  6
CONTINUOUS
 10
12.8408964063
 20
-40.9548261561
 11
12.8389280247
 21
-41.7114984291
  0
LWPOLYLINE
  5
335
100
AcDbEntity
  8
IMPORT_IGES
100
AcDbPolyline
 62
7
  6
CONTINUOUS
 90
28
 70
0
 10
12.8389280228
 20
-38.2885076515
 10
12.8410796763
 20
-38.168113116
 10
12.8484073079
 20
-38.0470979587
 10
12.861001414
 20
-37.9256933113
 10
12.8788951728
 20
-37.8044124999
 10
12.9021821909
 20
-37.6832243602
 10
12.931135583
 20
-37.5615765022
 10
12.9661673045
 20
-37.4389248177
 10
13.0072373575
 20
-37.316439908
 10
13.0537969387
 20
-37.1961088711
 10
13.1054679876
 20
-37.078734046
 10
13.1623342484
 20
-36.963973088
 10
13.2242996032
 20
-36.8520111035
 10
13.2913600676
 20
-36.7428650081
 10
13.3632506459
 20
-36.6369769659
 10
13.4393992229
 20
-36.5351101302
 10
13.5190529225
 20
-36.4380063183
 10
13.6024296101
 20
-36.3451541958
 10
13.6904972659
 20
-36.2555138066
 10
13.7841082753
 20
-36.1685128458
 10
13.8822857434
 20
-36.085344739
 10
13.9832091874
 20
-36.0075453388
 10
14.0858033392
 20
-35.935656903
 10
14.190485788
 20
-35.8691094786
 10
14.2975437402
 20
-35.8075953469
 10
14.4069287649
 20
-35.7510778373
 10
14.5182062461
 20
-35.6997099345
 10
14.6311312876
 20
-35.6535236794
  0
LINE
  5
336
100
AcDbEntity
  8
IMPORT_IGES
100
AcDbLine
 62
7
  6
CONTINUOUS
 10
74.98491013
 20
52.75
 11
75.0756764676
 21
52.8407663376
  0
LINE
  5
337
100
AcDbEntity
  8
IMPORT_IGES
100
AcDbLine
 62
250
  6
CONTINUOUS
 10
62.9500000001
 20
8.75
 11
62.8243235327
 21
8.7500000001
  0
LINE
  5
338
100
AcDbEntity
  8
IMPORT_IGES
100
AcDbLine
 62
7
  6
CONTINUOUS
 10
19.0500000002
 20
24.0
 11
19.0500000002
 21
-24.0
  0
LINE
  5
339
100
AcDbEntity
  8
IMPORT_IGES
100
AcDbLine
 62
7
  6
CONTINUOUS
 10
21.0500000002
 20
-24.0
 11
21.0500000002
 21
24.0
  0
LINE
  5
33A
100
AcDbEntity
  8
IMPORT_IGES
100
AcDbLine
 62
7
  6
CONTINUOUS
 10
21.4223672456
 20
-33.6101863313
 11
21.4223672456
 21
-35.4723672455
  0
LINE
  5
33B
100
AcDbEntity
  8
IMPORT_IGES
100
AcDbLine
 62
7
  6
CONTINUOUS
 10
21.4223672456
 20
-44.5276327546
 11
21.4223672456
 21
-46.3898136688
  0
LINE
  5
33C
100
AcDbEntity
  8
IMPORT_IGES
100
AcDbLine
 62
7
  6
CONTINUOUS
 10
21.5500000002
 20
-33.4825535767
 11
21.5500000002
 21
-35.6
  0
LINE
  5
33D
100
AcDbEntity
  8
IMPORT_IGES
100
AcDbLine
 62
7
  6
CONTINUOUS
 10
21.5500000002
 20
-44.4
 11
21.5500000002
 21
-46.5174464233
  0
LINE
  5
33E
100
AcDbEntity
  8
IMPORT_IGES
100
AcDbLine
 62
7
  6
CONTINUOUS
 10
74.9500000002
 20
49.45
 11
74.98491013
 21
49.4849101298
  0
LINE
  5
33F
100
AcDbEntity
  8
IMPORT_IGES
100
AcDbLine
 62
7
  6
CONTINUOUS
 10
-4.3082422469
 20
-32.75
 11
-4.1999999998
 21
-32.641757753
  0
LINE
  5
340
100
AcDbEntity
  8
IMPORT_IGES
100
AcDbLine
 62
250
  6
CONTINUOUS
 10
74.9500000002
 20
20.2499999999
 11
75.0756764676
 21
20.2499999999
  0
LINE
  5
341
100
AcDbEntity
  8
IMPORT_IGES
100
AcDbLine
 62
7
  6
CONTINUOUS
 10
-8.4999999998
 20
20.5
 11
10.5000000002
 21
20.5
  0
LINE
  5
342
100
AcDbEntity
  8
IMPORT_IGES
100
AcDbLine
 62
7
  6
CONTINUOUS
 10
-15.0603594804
 20
41.1103594806
 11
-15.1999999998
 21
41.25
  0
LINE
  5
343
100
AcDbEntity
  8
IMPORT_IGES
100
AcDbLine
 62
7
  6
CONTINUOUS
 10
-10.0917577528
 20
-47.25
 11
-10.1999999999
 21
-47.3582422471
  0
LINE
  5
344
100
AcDbEntity
  8
IMPORT_IGES
100
AcDbLine
 62
250
  6
CONTINUOUS
 10
95.9502976478
 20
55.2499999996
 11
95.7579942796
 21
55.0576896533
  0
LINE
  5
345
100
AcDbEntity
  8
IMPORT_IGES
100
AcDbLine
 62
250
  6
CONTINUOUS
 10
95.7579942174
 20
-55.0576896533
 11
95.9502976468
 21
-55.2499999997
  0
LINE
  5
346
100
AcDbEntity
  8
IMPORT_IGES
100
AcDbLine
 62
250
  6
CONTINUOUS
 10
32.9500000002
 20
38.75
 11
32.9500000002
 21
38.6243235325
  0
LINE
  5
347
100
AcDbEntity
  8
IMPORT_IGES
100
AcDbLine
 62
250
  6
CONTINUOUS
 10
97.7576896534
 20
53.0579942173
 11
97.9499999998
 21
53.2502976465
  0
LINE
  5
348
100
AcDbEntity
  8
IMPORT_IGES
100
AcDbLine
 62
250
  6
CONTINUOUS
 10
20.550152305
 20
-32.4827058816
 11
20.4225195505
 21
-32.6103386361
  0
LINE
  5
349
100
AcDbEntity
  8
IMPORT_IGES
100
AcDbLine
 62
7
  6
CONTINUOUS
 10
-43.9499999998
 20
36.25
 11
-61.9499999998
 21
36.25
  0
LINE
  5
34A
100
AcDbEntity
  8
IMPORT_IGES
100
AcDbLine
 62
250
  6
CONTINUOUS
 10
97.9499999998
 20
-53.2502976476
 11
97.7576896534
 21
-53.0579942794
  0
LINE
  5
34B
100
AcDbEntity
  8
IMPORT_IGES
100
AcDbLine
 62
7
  6
CONTINUOUS
 10
-0.2849101297
 20
49.4849101299
 11
-0.3756764673
 21
49.5756764675
  0
LINE
  5
34C
100
AcDbEntity
  8
IMPORT_IGES
100
AcDbLine
 62
7
  6
CONTINUOUS
 10
-0.2849101297
 20
52.75
 11
-0.3756764673
 21
52.8407663376
  0
LINE
  5
34D
100
AcDbEntity
  8
IMPORT_IGES
100
AcDbLine
 62
250
  6
CONTINUOUS
 10
12.9500000007
 20
-41.6004142867
 11
12.8389280247
 21
-41.7114984291
  0
LINE
  5
34E
100
AcDbEntity
  8
IMPORT_IGES
100
AcDbLine
 62
250
  6
CONTINUOUS
 10
21.4223672456
 20
-33.6101863313
 11
21.5500000002
 21
-33.4825535767
  0
LINE
  5
34F
100
AcDbEntity
  8
IMPORT_IGES
100
AcDbLine
 62
250
  6
CONTINUOUS
 10
15.6219407921
 20
-44.5276327546
 11
15.7495857119
 21
-44.3999999994
  0
LINE
  5
350
100
AcDbEntity
  8
IMPORT_IGES
100
AcDbLine
 62
7
  6
CONTINUOUS
 10
32.9500000002
 20
38.6243235325
 11
-15.0499999999
 21
38.6243235325
  0
LINE
  5
351
100
AcDbEntity
  8
IMPORT_IGES
100
AcDbLine
 62
7
  6
CONTINUOUS
 10
-2.0499999998
 20
38.6679611948
 11
-15.0499999999
 21
38.6679611948
  0
LINE
  5
352
100
AcDbEntity
  8
IMPORT_IGES
100
AcDbLine
 62
7
  6
CONTINUOUS
 10
32.9500000001
 20
38.75
 11
-2.0499999998
 21
38.75
  0
LINE
  5
353
100
AcDbEntity
  8
IMPORT_IGES
100
AcDbLine
 62
7
  6
CONTINUOUS
 10
81.5500000002
 20
40.65
 11
84.3500000002
 21
40.65
  0
LINE
  5
354
100
AcDbEntity
  8
IMPORT_IGES
100
AcDbLine
 62
250
  6
CONTINUOUS
 10
-17.132038805
 20
40.75
 11
-17.1756764673
 21
40.75
  0
LINE
  5
355
100
AcDbEntity
  8
IMPORT_IGES
100
AcDbLine
 62
7
  6
CONTINUOUS
 10
-13.3396405193
 20
41.1103594806
 11
-15.0603594804
 21
41.1103594806
  0
LINE
  5
356
100
AcDbEntity
  8
IMPORT_IGES
100
AcDbLine
 62
7
  6
CONTINUOUS
 10
-15.1999999998
 20
41.25
 11
-13.1999999998
 21
41.25
  0
LINE
  5
357
100
AcDbEntity
  8
IMPORT_IGES
100
AcDbLine
 62
7
  6
CONTINUOUS
 10
81.5500000002
 20
41.65
 11
84.3500000002
 21
41.65
  0
LINE
  5
358
100
AcDbEntity
  8
IMPORT_IGES
100
AcDbLine
 62
7
  6
CONTINUOUS
 10
84.3500000002
 20
44.85
 11
81.5500000002
 21
44.85
  0
LINE
  5
359
100
AcDbEntity
  8
IMPORT_IGES
100
AcDbLine
 62
7
  6
CONTINUOUS
 10
84.3500000002
 20
45.85
 11
81.5500000002
 21
45.85
  0
LINE
  5
35A
100
AcDbEntity
  8
IMPORT_IGES
100
AcDbLine
 62
7
  6
CONTINUOUS
 10
21.4223672456
 20
-44.5276327546
 11
21.5500000002
 21
-44.4
  0
LINE
  5
35B
100
AcDbEntity
  8
IMPORT_IGES
100
AcDbLine
 62
7
  6
CONTINUOUS
 10
95.4500000002
 20
48.25
 11
88.5260690392
 21
48.25
  0
LINE
  5
35C
100
AcDbEntity
  8
IMPORT_IGES
100
AcDbLine
 62
7
  6
CONTINUOUS
 10
-61.9499999998
 20
48.25
 11
-43.9499999998
 21
48.25
  0
LINE
  5
35D
100
AcDbEntity
  8
IMPORT_IGES
100
AcDbLine
 62
7
  6
CONTINUOUS
 10
-2.0499999998
 20
49.45
 11
74.9500000002
 21
49.45
  0
LINE
  5
35E
100
AcDbEntity
  8
IMPORT_IGES
100
AcDbLine
 62
7
  6
CONTINUOUS
 10
74.9849101301
 20
49.4849101298
 11
-0.2849101297
 21
49.4849101299
  0
LINE
  5
35F
100
AcDbEntity
  8
IMPORT_IGES
100
AcDbLine
 62
7
  6
CONTINUOUS
 10
-2.0499999998
 20
49.5756764675
 11
-0.3756764673
 21
49.5756764675
  0
LINE
  5
360
100
AcDbEntity
  8
IMPORT_IGES
100
AcDbLine
 62
250
  6
CONTINUOUS
 10
95.1445362925
 20
49.9878192522
 11
88.5697067014
 21
49.9878192522
  0
LINE
  5
361
100
AcDbEntity
  8
IMPORT_IGES
100
AcDbLine
 62
250
  6
CONTINUOUS
 10
-2.0499999998
 20
49.9878192526
 11
-17.132038805
 21
49.9878192526
  0
LINE
  5
362
100
AcDbEntity
  8
IMPORT_IGES
100
AcDbLine
 62
7
  6
CONTINUOUS
 10
92.6500000002
 20
50.25
 11
95.4500000002
 21
50.25
  0
LINE
  5
363
100
AcDbEntity
  8
IMPORT_IGES
100
AcDbLine
 62
7
  6
CONTINUOUS
 10
88.5697067014
 20
50.55
 11
95.2500000002
 21
50.55
  0
LINE
  5
364
100
AcDbEntity
  8
IMPORT_IGES
100
AcDbLine
 62
7
  6
CONTINUOUS
 10
-2.0499999998
 20
51.25
 11
-17.132038805
 21
51.25
  0
LINE
  5
365
100
AcDbEntity
  8
IMPORT_IGES
100
AcDbLine
 62
7
  6
CONTINUOUS
 10
95.2500000002
 20
52.55
 11
88.5697067014
 21
52.55
  0
LINE
  5
366
100
AcDbEntity
  8
IMPORT_IGES
100
AcDbLine
 62
7
  6
CONTINUOUS
 10
-0.2849101297
 20
52.75
 11
74.9849101301
 21
52.75
  0
LINE
  5
367
100
AcDbEntity
  8
IMPORT_IGES
100
AcDbLine
 62
7
  6
CONTINUOUS
 10
88.5260690392
 20
52.75
 11
95.4500000002
 21
52.75
  0
LINE
  5
368
100
AcDbEntity
  8
IMPORT_IGES
100
AcDbLine
 62
7
  6
CONTINUOUS
 10
-0.3756764673
 20
52.8407663376
 11
75.0756764677
 21
52.8407663376
  0
LINE
  5
369
100
AcDbEntity
  8
IMPORT_IGES
100
AcDbLine
 62
250
  6
CONTINUOUS
 10
97.7576896534
 20
53.0579942173
 11
96.7578417165
 21
53.0579917761
  0
LINE
  5
36A
100
AcDbEntity
  8
IMPORT_IGES
100
AcDbLine
 62
250
  6
CONTINUOUS
 10
-95.7576896531
 20
53.0579942793
 11
-94.7578419694
 21
53.0580165167
  0
LINE
  5
36B
100
AcDbEntity
  8
IMPORT_IGES
100
AcDbLine
 62
7
  6
CONTINUOUS
 10
-4.0499999998
 20
53.4849101298
 11
-15.0499999998
 21
53.4849101298
  0
LINE
  5
36C
100
AcDbEntity
  8
IMPORT_IGES
100
AcDbLine
 62
7
  6
CONTINUOUS
 10
-4.0499999998
 20
53.5756764675
 11
-15.0499999998
 21
53.5756764675
  0
LINE
  5
36D
100
AcDbEntity
  8
IMPORT_IGES
100
AcDbLine
 62
250
  6
CONTINUOUS
 10
-15.0499999998
 20
54.0578419577
 11
-4.0499999998
 21
54.0578419577
  0
LINE
  5
36E
100
AcDbEntity
  8
IMPORT_IGES
100
AcDbLine
 62
250
  6
CONTINUOUS
 10
95.7579918301
 20
54.0578417149
 11
-2.0499999998
 21
54.0578419577
  0
LINE
  5
36F
100
AcDbEntity
  8
IMPORT_IGES
100
AcDbLine
 62
250
  6
CONTINUOUS
 10
-17.1756764673
 20
54.0578417345
 11
-93.7579875307
 21
54.0578412594
  0
LINE
  5
370
100
AcDbEntity
  8
IMPORT_IGES
100
AcDbLine
 62
7
  6
CONTINUOUS
 10
-17.1753511746
 20
54.25
 11
-15.0499999998
 21
54.25
  0
LINE
  5
371
100
AcDbEntity
  8
IMPORT_IGES
100
AcDbLine
 62
7
  6
CONTINUOUS
 10
-4.0499999998
 20
54.25
 11
-2.0499999998
 21
54.25
  0
LINE
  5
372
100
AcDbEntity
  8
IMPORT_IGES
100
AcDbLine
 62
250
  6
CONTINUOUS
 10
95.7579942796
 20
55.0576896533
 11
-93.7579942172
 21
55.0576896533
  0
LINE
  5
373
100
AcDbEntity
  8
IMPORT_IGES
100
AcDbLine
 62
7
  6
CONTINUOUS
 10
-93.9502976464
 20
55.2499999996
 11
95.9502976478
 21
55.2499999996
  0
LWPOLYLINE
  5
374
100
AcDbEntity
  8
IMPORT_IGES
100
AcDbPolyline
 62
7
  6
CONTINUOUS
 90
31
 70
0
 10
95.7579942796
 20
55.0576896536
 10
95.8627654911
 20
55.0549276067
 10
95.9672261993
 20
55.0466830629
 10
96.0710899703
 20
55.0329821365
 10
96.174070477
 20
55.0138663088
 10
96.2758878097
 20
54.9893912049
 10
96.3762690121
 20
54.95962545
 10
96.4749397832
 20
54.9246530691
 10
96.57163062
 20
54.8845723364
 10
96.6660825522
 20
54.8394928327
 10
96.7580377092
 20
54.7895395169
 10
96.8472451368
 20
54.7348506737
 10
96.9334658909
 20
54.6755742246
 10
97.016464482
 20
54.611873086
 10
97.0960142844
 20
54.5439222776
 10
97.1719019466
 20
54.4719045743
 10
97.2439198023
 20
54.3960170335
 10
97.3118707897
 20
54.3164673177
 10
97.3755721291
 20
54.233468775
 10
97.4348487961
 20
54.1472480281
 10
97.4895378687
 20
54.058040564
 10
97.53949142
 20
53.966085325
 10
97.5845711596
 20
53.8716332638
 10
97.6246521226
 20
53.7749422501
 10
97.6596247221
 20
53.6762712539
 10
97.6893906781
 20
53.5758897785
 10
97.7138659592
 20
53.474072126
 10
97.7329819342
 20
53.371091254
 10
97.7466829722
 20
53.2672270742
 10
97.7549275858
 20
53.1627659166
 10
97.7576896551
 20
53.0579942183
  0
LWPOLYLINE
  5
375
100
AcDbEntity
  8
IMPORT_IGES
100
AcDbPolyline
 62
7
  6
CONTINUOUS
 90
31
 70
0
 10
95.9502837191
 20
55.2499966809
 10
96.0555629797
 20
55.2471826445
 10
96.1599583275
 20
55.238961201
 10
96.2634697626
 20
55.2253323505
 10
96.3663728416
 20
55.2062262759
 10
96.4683920079
 20
55.1817127942
 10
96.5687005911
 20
55.1520013569
 10
96.667284354
 20
55.1170509104
 10
96.7641575339
 20
55.0769025082
 10
96.8585361723
 20
55.0318887625
 10
96.9504000368
 20
54.9819711079
 10
97.0397693597
 20
54.9271881097
 10
97.1259208799
 20
54.8679880766
 10
97.2088287893
 20
54.8043359366
 10
97.288518896
 20
54.7362667618
 10
97.3643453625
 20
54.6643340768
 10
97.4362773984
 20
54.5885070961
 10
97.5043457942
 20
54.5088166051
 10
97.567997084
 20
54.4259084847
 10
97.6271961921
 20
54.339756933
 10
97.6819781942
 20
54.2503877519
 10
97.7318948515
 20
54.1585242269
 10
97.7769075965
 20
54.0641461329
 10
97.8170549967
 20
53.9672736951
 10
97.8520045158
 20
53.8686908753
 10
97.8817149772
 20
53.7683829281
 10
97.9062275574
 20
53.6663645989
 10
97.9253332505
 20
53.5634640863
 10
97.9389623875
 20
53.4599574565
 10
97.9471846373
 20
53.3555686432
 10
97.9499999998
 20
53.2502976465
  0
LINE
  5
376
100
AcDbEntity
  8
IMPORT_IGES
100
AcDbLine
 62
7
  6
CONTINUOUS
 10
62.8243235327
 20
3.25
 11
62.8243235327
 21
8.7500000001
  0
LINE
  5
377
100
AcDbEntity
  8
IMPORT_IGES
100
AcDbLine
 62
7
  6
CONTINUOUS
 10
62.9500000002
 20
3.25
 11
62.9500000002
 21
8.75
  0
LINE
  5
378
100
AcDbEntity
  8
IMPORT_IGES
100
AcDbLine
 62
250
  6
CONTINUOUS
 10
72.9500000002
 20
-6.75
 11
72.9500000002
 21
-6.8756764675
  0
LINE
  5
379
100
AcDbEntity
  8
IMPORT_IGES
100
AcDbLine
 62
7
  6
CONTINUOUS
 10
74.9500000002
 20
49.45
 11
74.9500000002
 21
20.25
  0
LINE
  5
37A
100
AcDbEntity
  8
IMPORT_IGES
100
AcDbLine
 62
7
  6
CONTINUOUS
 10
74.9849101301
 20
52.75
 11
74.9849101301
 21
49.4849101298
  0
LINE
  5
37B
100
AcDbEntity
  8
IMPORT_IGES
100
AcDbLine
 62
7
  6
CONTINUOUS
 10
75.0756764676
 20
52.8407663376
 11
75.0756764676
 21
20.2499999999
  0
LINE
  5
37C
100
AcDbEntity
  8
IMPORT_IGES
100
AcDbLine
 62
250
  6
CONTINUOUS
 10
87.9500000002
 20
7.3756764675
 11
87.9500000002
 21
7.25
  0
LINE
  5
37D
100
AcDbEntity
  8
IMPORT_IGES
100
AcDbLine
 62
7
  6
CONTINUOUS
 10
88.5260690392
 20
-52.75
 11
88.5260690392
 21
-48.25
  0
LINE
  5
37E
100
AcDbEntity
  8
IMPORT_IGES
100
AcDbLine
 62
7
  6
CONTINUOUS
 10
88.5260690392
 20
48.25
 11
88.5260690392
 21
52.75
  0
LINE
  5
37F
100
AcDbEntity
  8
IMPORT_IGES
100
AcDbLine
 62
7
  6
CONTINUOUS
 10
88.5697067014
 20
52.75
 11
88.5697067014
 21
48.25
  0
LINE
  5
380
100
AcDbEntity
  8
IMPORT_IGES
100
AcDbLine
 62
7
  6
CONTINUOUS
 10
88.5697067014
 20
-48.25
 11
88.5697067014
 21
-52.75
  0
LINE
  5
381
100
AcDbEntity
  8
IMPORT_IGES
100
AcDbLine
 62
250
  6
CONTINUOUS
 10
89.208649447
 20
-52.55
 11
89.208649447
 21
-50.55
  0
LINE
  5
382
100
AcDbEntity
  8
IMPORT_IGES
100
AcDbLine
 62
250
  6
CONTINUOUS
 10
89.208649447
 20
50.55
 11
89.208649447
 21
52.55
  0
LINE
  5
383
100
AcDbEntity
  8
IMPORT_IGES
100
AcDbLine
 62
7
  6
CONTINUOUS
 10
92.6500000001
 20
52.75
 11
92.6500000001
 21
52.55
  0
LINE
  5
384
100
AcDbEntity
  8
IMPORT_IGES
100
AcDbLine
 62
7
  6
CONTINUOUS
 10
92.6500000001
 20
50.55
 11
92.6500000001
 21
50.25
  0
LINE
  5
385
100
AcDbEntity
  8
IMPORT_IGES
100
AcDbLine
 62
7
  6
CONTINUOUS
 10
92.6500000001
 20
-52.75
 11
92.6500000001
 21
-52.55
  0
LINE
  5
386
100
AcDbEntity
  8
IMPORT_IGES
100
AcDbLine
 62
7
  6
CONTINUOUS
 10
92.6500000001
 20
-50.55
 11
92.6500000001
 21
-50.25
  0
LINE
  5
387
100
AcDbEntity
  8
IMPORT_IGES
100
AcDbLine
 62
250
  6
CONTINUOUS
 10
93.7500000002
 20
-50.25
 11
93.7500000002
 21
-52.75
  0
LINE
  5
388
100
AcDbEntity
  8
IMPORT_IGES
100
AcDbLine
 62
250
  6
CONTINUOUS
 10
93.7500000002
 20
50.25
 11
93.7500000002
 21
52.75
  0
LINE
  5
389
100
AcDbEntity
  8
IMPORT_IGES
100
AcDbLine
 62
7
  6
CONTINUOUS
 10
95.1445363639
 20
-49.9878192529
 11
95.1445363639
 21
-48.25
  0
LINE
  5
38A
100
AcDbEntity
  8
IMPORT_IGES
100
AcDbLine
 62
7
  6
CONTINUOUS
 10
95.2500000002
 20
52.55
 11
95.2500000002
 21
50.55
  0
LINE
  5
38B
100
AcDbEntity
  8
IMPORT_IGES
100
AcDbLine
 62
7
  6
CONTINUOUS
 10
95.2500000002
 20
-52.55
 11
95.2500000002
 21
-50.55
  0
LINE
  5
38C
100
AcDbEntity
  8
IMPORT_IGES
100
AcDbLine
 62
7
  6
CONTINUOUS
 10
95.4011258184
 20
-50.25
 11
95.4011258184
 21
-48.25
  0
LINE
  5
38D
100
AcDbEntity
  8
IMPORT_IGES
100
AcDbLine
 62
7
  6
CONTINUOUS
 10
95.4011258184
 20
48.25
 11
95.4011258184
 21
50.25
  0
LINE
  5
38E
100
AcDbEntity
  8
IMPORT_IGES
100
AcDbLine
 62
7
  6
CONTINUOUS
 10
95.4500000002
 20
52.75
 11
95.4500000002
 21
48.25
  0
LINE
  5
38F
100
AcDbEntity
  8
IMPORT_IGES
100
AcDbLine
 62
7
  6
CONTINUOUS
 10
95.4500000002
 20
-48.25
 11
95.4500000002
 21
-52.75
  0
LINE
  5
390
100
AcDbEntity
  8
IMPORT_IGES
100
AcDbLine
 62
250
  6
CONTINUOUS
 10
95.7579816294
 20
-55.0576896529
 11
95.7579917763
 21
-54.0578414919
  0
LINE
  5
391
100
AcDbEntity
  8
IMPORT_IGES
100
AcDbLine
 62
250
  6
CONTINUOUS
 10
95.7579942796
 20
55.0576896532
 11
95.758016476
 21
54.0578419695
  0
LINE
  5
392
100
AcDbEntity
  8
IMPORT_IGES
100
AcDbLine
 62
7
  6
CONTINUOUS
 10
96.1500000002
 20
-4.75
 11
96.1500000002
 21
5.25
  0
LINE
  5
393
100
AcDbEntity
  8
IMPORT_IGES
100
AcDbLine
 62
7
  6
CONTINUOUS
 10
96.2756764676
 20
5.25
 11
96.2756764676
 21
-4.75
  0
LINE
  5
394
100
AcDbEntity
  8
IMPORT_IGES
100
AcDbLine
 62
250
  6
CONTINUOUS
 10
96.7578417165
 20
53.0579917761
 11
96.7578417165
 21
7.3756764675
  0
LINE
  5
395
100
AcDbEntity
  8
IMPORT_IGES
100
AcDbLine
 62
250
  6
CONTINUOUS
 10
96.7578419579
 20
5.25
 11
96.7578419579
 21
-4.75
  0
LINE
  5
396
100
AcDbEntity
  8
IMPORT_IGES
100
AcDbLine
 62
250
  6
CONTINUOUS
 10
96.7578417151
 20
-53.0579918299
 11
96.7578419579
 21
-6.8756764675
  0
LINE
  5
397
100
AcDbEntity
  8
IMPORT_IGES
100
AcDbLine
 62
7
  6
CONTINUOUS
 10
96.9500000002
 20
7.3753511747
 11
96.9500000002
 21
5.25
  0
LINE
  5
398
100
AcDbEntity
  8
IMPORT_IGES
100
AcDbLine
 62
7
  6
CONTINUOUS
 10
96.9500000002
 20
-4.75
 11
96.9500000002
 21
-6.8753511748
  0
LINE
  5
399
100
AcDbEntity
  8
IMPORT_IGES
100
AcDbLine
 62
250
  6
CONTINUOUS
 10
97.7576896534
 20
-53.0579942794
 11
97.7576896534
 21
53.0579942173
  0
LINE
  5
39A
100
AcDbEntity
  8
IMPORT_IGES
100
AcDbLine
 62
7
  6
CONTINUOUS
 10
97.9499999998
 20
53.2502976465
 11
97.9499999998
 21
-53.2502976476
  0
LINE
  5
39B
100
AcDbEntity
  8
IMPORT_IGES
100
AcDbLine
 62
7
  6
CONTINUOUS
 10
95.1447857806
 20
50.25
 11
95.1445363639
 21
48.25
  0
LWPOLYLINE
  5
39C
100
AcDbEntity
  8
IMPORT_IGES
100
AcDbPolyline
 62
7
  6
CONTINUOUS
 90
31
 70
0
 10
97.9499966811
 20
-53.2502837189
 10
97.9471826446
 20
-53.3555629795
 10
97.9389612012
 20
-53.4599583273
 10
97.9253323507
 20
-53.5634697624
 10
97.906226276
 20
-53.6663728414
 10
97.8817127944
 20
-53.7683920077
 10
97.8520013571
 20
-53.868700591
 10
97.8170509105
 20
-53.9672843539
 10
97.7769025084
 20
-54.0641575338
 10
97.7318887627
 20
-54.1585361722
 10
97.681971108
 20
-54.2504000366
 10
97.6271881098
 20
-54.3397693596
 10
97.5679880768
 20
-54.4259208797
 10
97.5043359368
 20
-54.5088287892
 10
97.436266762
 20
-54.5885188958
 10
97.3643340769
 20
-54.6643453624
 10
97.2885070963
 20
-54.7362773983
 10
97.2088166053
 20
-54.8043457941
 10
97.1259084849
 20
-54.8679970838
 10
97.0397569332
 20
-54.927196192
 10
96.950387752
 20
-54.9819781941
 10
96.8585242271
 20
-55.0318948514
 10
96.7641461331
 20
-55.0769075964
 10
96.6672736952
 20
-55.1170549966
 10
96.5686908755
 20
-55.1520045157
 10
96.4683829282
 20
-55.1817149771
 10
96.3663645991
 20
-55.2062275574
 10
96.2634640865
 20
-55.2253332504
 10
96.1599574566
 20
-55.2389623874
 10
96.0555686434
 20
-55.2471846372
 10
95.9502976468
 20
-55.2499999996
  0
ARC
  5
39D
100
AcDbEntity
  8
IMPORT_IGES
100
AcDbCircle
 62
7
  6
CONTINUOUS
 10
-19.4999999998
 20
-5.4348858773
 40
4.0045477397
100
AcDbArc
 50
357.2703877517
 51
182.7321982579
  0
ARC
  5
39E
100
AcDbEntity
  8
IMPORT_IGES
100
AcDbCircle
 62
7
  6
CONTINUOUS
 10
-84.9499999998
 20
-11.75
 40
3.5
100
AcDbArc
 50
90.0000000001
 51
179.9999999999
  0
ARC
  5
39F
100
AcDbEntity
  8
IMPORT_IGES
100
AcDbCircle
 62
7
  6
CONTINUOUS
 10
-65.4499999999
 20
-11.75
 40
3.5
100
AcDbArc
 50
0.0
 51
89.9999999999
  0
ARC
  5
3A0
100
AcDbEntity
  8
IMPORT_IGES
100
AcDbCircle
 62
7
  6
CONTINUOUS
 10
-65.4499999999
 20
-23.75
 40
3.5
100
AcDbArc
 50
270.0000000001
 51
360.0
  0
ARC
  5
3A1
100
AcDbEntity
  8
IMPORT_IGES
100
AcDbCircle
 62
7
  6
CONTINUOUS
 10
-84.9499999998
 20
-23.75
 40
3.5
100
AcDbArc
 50
180.0000000001
 51
269.9999999999
  0
ARC
  5
3A2
100
AcDbEntity
  8
IMPORT_IGES
100
AcDbCircle
 62
7
  6
CONTINUOUS
 10
-19.4999999999
 20
-5.4348858773
 40
2.8604660242
100
AcDbArc
 50
101.5369590299
 51
183.8263706092
  0
ARC
  5
3A3
100
AcDbEntity
  8
IMPORT_IGES
100
AcDbCircle
 62
7
  6
CONTINUOUS
 10
-19.4999999998
 20
-5.4348858773
 40
2.8604660242
100
AcDbArc
 50
356.177059469
 51
78.4630409672
  0
ARC
  5
3A4
100
AcDbEntity
  8
IMPORT_IGES
100
AcDbCircle
 62
7
  6
CONTINUOUS
 10
-80.9499999998
 20
-16.35
 40
2.6
100
AcDbArc
 50
0.0
 51
180.0
  0
ARC
  5
3A5
100
AcDbEntity
  8
IMPORT_IGES
100
AcDbCircle
 62
7
  6
CONTINUOUS
 10
-80.9499999998
 20
-19.15
 40
2.6
100
AcDbArc
 50
180.0
 51
360.0
  0
CIRCLE
  5
3A6
100
AcDbEntity
  8
IMPORT_IGES
100
AcDbCircle
 62
7
  6
CONTINUOUS
 10
-69.4499999998
 20
-17.75
 40
2.6
  0
ARC
  5
3A7
100
AcDbEntity
  8
IMPORT_IGES
100
AcDbCircle
 62
7
  6
CONTINUOUS
 10
-84.9499999999
 20
-11.75
 40
2.5
100
AcDbArc
 50
90.0
 51
180.0
  0
ARC
  5
3A8
100
AcDbEntity
  8
IMPORT_IGES
100
AcDbCircle
 62
7
  6
CONTINUOUS
 10
-84.9499999999
 20
-23.75
 40
2.5
100
AcDbArc
 50
180.0
 51
270.0
  0
ARC
  5
3A9
100
AcDbEntity
  8
IMPORT_IGES
100
AcDbCircle
 62
7
  6
CONTINUOUS
 10
-65.4499999998
 20
-23.75
 40
2.5
100
AcDbArc
 50
270.0
 51
360.0
  0
ARC
  5
3AA
100
AcDbEntity
  8
IMPORT_IGES
100
AcDbCircle
 62
7
  6
CONTINUOUS
 10
-65.4499999998
 20
-11.75
 40
2.5
100
AcDbArc
 50
0.0
 51
90.0
  0
ARC
  5
3AB
100
AcDbEntity
  8
IMPORT_IGES
100
AcDbCircle
 62
7
  6
CONTINUOUS
 10
-80.9499999998
 20
-16.35
 40
1.6
100
AcDbArc
 50
0.0
 51
180.0
  0
ARC
  5
3AC
100
AcDbEntity
  8
IMPORT_IGES
100
AcDbCircle
 62
7
  6
CONTINUOUS
 10
-80.9499999998
 20
-19.15
 40
1.6
100
AcDbArc
 50
180.0
 51
360.0
  0
CIRCLE
  5
3AD
100
AcDbEntity
  8
IMPORT_IGES
100
AcDbCircle
 62
7
  6
CONTINUOUS
 10
-69.4499999998
 20
-17.75
 40
1.6
  0
ARC
  5
3AE
100
AcDbEntity
  8
IMPORT_IGES
100
AcDbCircle
 62
7
  6
CONTINUOUS
 10
-8.4999999998
 20
-19.5
 40
1.0
100
AcDbArc
 50
180.0000000007
 51
269.9999999993
  0
ARC
  5
3AF
100
AcDbEntity
  8
IMPORT_IGES
100
AcDbCircle
 62
7
  6
CONTINUOUS
 10
-65.4499999999
 20
-23.75
 40
1.0
100
AcDbArc
 50
270.0
 51
360.0
  0
ARC
  5
3B0
100
AcDbEntity
  8
IMPORT_IGES
100
AcDbCircle
 62
7
  6
CONTINUOUS
 10
-84.9499999999
 20
-23.75
 40
1.0
100
AcDbArc
 50
179.9999999999
 51
270.0000000001
  0
ARC
  5
3B1
100
AcDbEntity
  8
IMPORT_IGES
100
AcDbCircle
 62
7
  6
CONTINUOUS
 10
-84.9499999999
 20
-11.75
 40
1.0
100
AcDbArc
 50
89.9999999999
 51
180.0000000001
  0
ARC
  5
3B2
100
AcDbEntity
  8
IMPORT_IGES
100
AcDbCircle
 62
7
  6
CONTINUOUS
 10
-65.4499999999
 20
-11.75
 40
1.0
100
AcDbArc
 50
0.0
 51
90.0
  0
ARC
  5
3B3
100
AcDbEntity
  8
IMPORT_IGES
100
AcDbCircle
 62
250
  6
CONTINUOUS
 10
-93.7580518517
 20
-53.0580518902
 40
0.999789389
100
AcDbArc
 50
179.9965653686
 51
270.003429681
  0
ARC
  5
3B4
100
AcDbEntity
  8
IMPORT_IGES
100
AcDbCircle
 62
7
  6
CONTINUOUS
 10
-97.1499999999
 20
-1.85
 40
0.8
100
AcDbArc
 50
180.0002609967
 51
270.0
  0
ARC
  5
3B5
100
AcDbEntity
  8
IMPORT_IGES
100
AcDbCircle
 62
7
  6
CONTINUOUS
 10
-19.4999999999
 20
1.4302330117
 40
4.0046528656
100
AcDbArc
 50
357.2704536041
 51
182.7321326285
  0
ARC
  5
3B6
100
AcDbEntity
  8
IMPORT_IGES
100
AcDbCircle
 62
7
  6
CONTINUOUS
 10
-19.4999999998
 20
1.4302330117
 40
2.8604660238
100
AcDbArc
 50
356.1770510541
 51
183.8263792054
  0
ARC
  5
3B7
100
AcDbEntity
  8
IMPORT_IGES
100
AcDbCircle
 62
7
  6
CONTINUOUS
 10
-80.9499999998
 20
44.65
 40
2.6
100
AcDbArc
 50
0.0
 51
180.0
  0
ARC
  5
3B8
100
AcDbEntity
  8
IMPORT_IGES
100
AcDbCircle
 62
7
  6
CONTINUOUS
 10
-80.9499999998
 20
41.85
 40
2.6
100
AcDbArc
 50
180.0
 51
360.0
  0
ARC
  5
3B9
100
AcDbEntity
  8
IMPORT_IGES
100
AcDbCircle
 62
7
  6
CONTINUOUS
 10
-15.0499999998
 20
40.75
 40
2.125675158
100
AcDbArc
 50
180.0000000003
 51
269.9999999994
  0
ARC
  5
3BA
100
AcDbEntity
  8
IMPORT_IGES
100
AcDbCircle
 62
7
  6
CONTINUOUS
 10
-15.0499999999
 20
40.75
 40
2.0820375225
100
AcDbArc
 50
180.0000000001
 51
269.9999999999
  0
ARC
  5
3BB
100
AcDbEntity
  8
IMPORT_IGES
100
AcDbCircle
 62
7
  6
CONTINUOUS
 10
-43.9499999999
 20
46.25
 40
2.0
100
AcDbArc
 50
0.0000000001
 51
89.9999999999
  0
ARC
  5
3BC
100
AcDbEntity
  8
IMPORT_IGES
100
AcDbCircle
 62
7
  6
CONTINUOUS
 10
-61.9499999998
 20
46.25
 40
2.0
100
AcDbArc
 50
90.0000000001
 51
180.0
  0
ARC
  5
3BD
100
AcDbEntity
  8
IMPORT_IGES
100
AcDbCircle
 62
7
  6
CONTINUOUS
 10
-61.9499999998
 20
38.25
 40
2.0
100
AcDbArc
 50
180.0
 51
269.9999999999
  0
ARC
  5
3BE
100
AcDbEntity
  8
IMPORT_IGES
100
AcDbCircle
 62
7
  6
CONTINUOUS
 10
-43.9499999999
 20
38.25
 40
2.0
100
AcDbArc
 50
270.0000000001
 51
359.9999999999
  0
ARC
  5
3BF
100
AcDbEntity
  8
IMPORT_IGES
100
AcDbCircle
 62
7
  6
CONTINUOUS
 10
-80.9499999998
 20
44.65
 40
1.6
100
AcDbArc
 50
0.0
 51
180.0
  0
ARC
  5
3C0
100
AcDbEntity
  8
IMPORT_IGES
100
AcDbCircle
 62
7
  6
CONTINUOUS
 10
-80.9499999998
 20
41.85
 40
1.6
100
AcDbArc
 50
180.0
 51
360.0
  0
ARC
  5
3C1
100
AcDbEntity
  8
IMPORT_IGES
100
AcDbCircle
 62
7
  6
CONTINUOUS
 10
-8.4999999998
 20
19.5
 40
1.0
100
AcDbArc
 50
90.0000000007
 51
179.9999999993
  0
ARC
  5
3C2
100
AcDbEntity
  8
IMPORT_IGES
100
AcDbCircle
 62
250
  6
CONTINUOUS
 10
-93.7580518693
 20
53.0580518725
 40
0.999789389
100
AcDbArc
 50
89.9963128897
 51
180.0034304736
  0
ARC
  5
3C3
100
AcDbEntity
  8
IMPORT_IGES
100
AcDbCircle
 62
7
  6
CONTINUOUS
 10
-97.1499999999
 20
1.85
 40
0.8
100
AcDbArc
 50
90.0
 51
179.9997390033
  0
ARC
  5
3C4
100
AcDbEntity
  8
IMPORT_IGES
100
AcDbCircle
 62
7
  6
CONTINUOUS
 10
84.3500000002
 20
-43.25
 40
2.6
100
AcDbArc
 50
269.9999999999
 51
90.0000000001
  0
ARC
  5
3C5
100
AcDbEntity
  8
IMPORT_IGES
100
AcDbCircle
 62
7
  6
CONTINUOUS
 10
81.5500000001
 20
-43.25
 40
2.6
100
AcDbArc
 50
89.9999999999
 51
270.0000000001
  0
ARC
  5
3C6
100
AcDbEntity
  8
IMPORT_IGES
100
AcDbCircle
 62
7
  6
CONTINUOUS
 10
84.3500000001
 20
-43.25
 40
1.6
100
AcDbArc
 50
270.0000000001
 51
89.9999999999
  0
ARC
  5
3C7
100
AcDbEntity
  8
IMPORT_IGES
100
AcDbCircle
 62
7
  6
CONTINUOUS
 10
81.5500000002
 20
-43.25
 40
1.6
100
AcDbArc
 50
90.0000000001
 51
269.9999999999
  0
ARC
  5
3C8
100
AcDbEntity
  8
IMPORT_IGES
100
AcDbCircle
 62
7
  6
CONTINUOUS
 10
10.5000000001
 20
-19.5
 40
1.0
100
AcDbArc
 50
270.0000000007
 51
359.9999999993
  0
ARC
  5
3C9
100
AcDbEntity
  8
IMPORT_IGES
100
AcDbCircle
 62
7
  6
CONTINUOUS
 10
20.0500000002
 20
-24.0
 40
1.0
100
AcDbArc
 50
180.0
 51
360.0
  0
ARC
  5
3CA
100
AcDbEntity
  8
IMPORT_IGES
100
AcDbCircle
 62
250
  6
CONTINUOUS
 10
95.758051781
 20
-53.0580517895
 40
0.9997893577
100
AcDbArc
 50
269.9962868405
 51
0.003436157
  0
ARC
  5
3CB
100
AcDbEntity
  8
IMPORT_IGES
100
AcDbCircle
 62
7
  6
CONTINUOUS
 10
32.9500000002
 20
8.75
 40
30.0
100
AcDbArc
 50
0.0
 51
90.0
  0
ARC
  5
3CC
100
AcDbEntity
  8
IMPORT_IGES
100
AcDbCircle
 62
7
  6
CONTINUOUS
 10
32.9500000001
 20
8.75
 40
29.8743235325
100
AcDbArc
 50
0.0000000004
 51
90.0
  0
ARC
  5
3CD
100
AcDbEntity
  8
IMPORT_IGES
100
AcDbCircle
 62
7
  6
CONTINUOUS
 10
87.9500000002
 20
20.25
 40
13.0000000001
100
AcDbArc
 50
180.0000000003
 51
269.9999999999
  0
ARC
  5
3CE
100
AcDbEntity
  8
IMPORT_IGES
100
AcDbCircle
 62
7
  6
CONTINUOUS
 10
87.9500000001
 20
20.25
 40
12.8743235325
100
AcDbArc
 50
180.0000000008
 51
270.0
  0
ARC
  5
3CF
100
AcDbEntity
  8
IMPORT_IGES
100
AcDbCircle
 62
7
  6
CONTINUOUS
 10
72.9500000001
 20
3.25
 40
10.1256764675
100
AcDbArc
 50
179.9999999996
 51
270.0000000001
  0
ARC
  5
3D0
100
AcDbEntity
  8
IMPORT_IGES
100
AcDbCircle
 62
7
  6
CONTINUOUS
 10
72.9500000002
 20
3.2500000001
 40
10.0000000001
100
AcDbArc
 50
180.0000000005
 51
269.9999999997
  0
CIRCLE
  5
3D1
100
AcDbEntity
  8
IMPORT_IGES
100
AcDbCircle
 62
7
  6
CONTINUOUS
 10
72.9500000001
 20
3.25
 40
7.5
  0
ARC
  5
3D2
100
AcDbEntity
  8
IMPORT_IGES
100
AcDbCircle
 62
7
  6
CONTINUOUS
 10
84.3500000002
 20
43.25
 40
2.6
100
AcDbArc
 50
269.9999999999
 51
90.0000000001
  0
ARC
  5
3D3
100
AcDbEntity
  8
IMPORT_IGES
100
AcDbCircle
 62
7
  6
CONTINUOUS
 10
81.5500000001
 20
43.25
 40
2.6
100
AcDbArc
 50
89.9999999999
 51
270.0000000001
  0
ARC
  5
3D4
100
AcDbEntity
  8
IMPORT_IGES
100
AcDbCircle
 62
7
  6
CONTINUOUS
 10
84.3500000001
 20
43.25
 40
1.6
100
AcDbArc
 50
270.0000000001
 51
89.9999999999
  0
ARC
  5
3D5
100
AcDbEntity
  8
IMPORT_IGES
100
AcDbCircle
 62
7
  6
CONTINUOUS
 10
81.5500000002
 20
43.25
 40
1.6
100
AcDbArc
 50
90.0000000001
 51
269.9999999999
  0
ARC
  5
3D6
100
AcDbEntity
  8
IMPORT_IGES
100
AcDbCircle
 62
7
  6
CONTINUOUS
 10
10.5000000001
 20
19.5
 40
1.0
100
AcDbArc
 50
0.0000000007
 51
89.9999999993
  0
ARC
  5
3D7
100
AcDbEntity
  8
IMPORT_IGES
100
AcDbCircle
 62
7
  6
CONTINUOUS
 10
20.0500000002
 20
24.0
 40
1.0
100
AcDbArc
 50
0.0
 51
180.0
  0
ARC
  5
3D8
100
AcDbEntity
  8
IMPORT_IGES
100
AcDbCircle
 62
250
  6
CONTINUOUS
 10
95.7580517896
 20
53.0580517807
 40
0.9997893578
100
AcDbArc
 50
359.99656127
 51
90.0034361494
  0
ELLIPSE
  5
3D9
100
AcDbEntity
  8
IMPORT_IGES
100
AcDbEllipse
 62
7
  6
CONTINUOUS
 10
95.1881740263
 20
-49.987793206
 30
0.0
 11
0.0
 21
2.5
 31
0.0
 40
0.0174550649
 41
-4.7123785616
 42
-4.6072910997
  0
ELLIPSE
  5
3DA
100
AcDbEntity
  8
IMPORT_IGES
100
AcDbEllipse
 62
7
  6
CONTINUOUS
 10
96.7578419578
 20
7.3582214025
 30
0.0
 11
1.0000000001
 21
-0.0
 31
0.0
 40
0.0174550649
 41
1.3774356284
 42
1.5707963268
  0
ELLIPSE
  5
3DB
100
AcDbEntity
  8
IMPORT_IGES
100
AcDbEllipse
 62
7
  6
CONTINUOUS
 10
96.7578419578
 20
-6.8582214026
 30
0.0
 11
1.0000000001
 21
0.0
 31
0.0
 40
0.0174550649
 41
-1.5707963268
 42
-1.3774356284
  0
ELLIPSE
  5
3DC
100
AcDbEntity
  8
IMPORT_IGES
100
AcDbEllipse
 62
7
  6
CONTINUOUS
 10
-17.1582214024
 20
54.0578419577
 30
0.0
 11
-0.0
 21
1.0
 31
0.0
 40
0.0174550649
 41
1.3774356284
 42
1.5707963268
  0
ELLIPSE
  5
3DD
100
AcDbEntity
  8
IMPORT_IGES
100
AcDbEllipse
 62
7
  6
CONTINUOUS
 10
-87.1222149172
 20
-33.6104909641
 30
0.0
 11
-0.7073221892
 21
0.7073221892
 31
0.0
 40
0.9996954599
 41
-0.7852458702
 42
0.7852458702
  0
ELLIPSE
  5
3DE
100
AcDbEntity
  8
IMPORT_IGES
100
AcDbEllipse
 62
7
  6
CONTINUOUS
 10
-82.3227937638
 20
-38.272793764
 30
0.0
 11
1.9805021297
 21
1.9805021296
 31
0.0
 40
0.9996954599
 41
0.423586911
 42
0.7852458702
  0
ELLIPSE
  5
3DF
100
AcDbEntity
  8
IMPORT_IGES
100
AcDbEllipse
 62
7
  6
CONTINUOUS
 10
15.6227937641
 20
-38.272793764
 30
0.0
 11
1.9805021296
 21
-1.9805021297
 31
0.0
 40
0.9996954599
 41
2.3563467835
 42
2.7180057426
  0
ELLIPSE
  5
3E0
100
AcDbEntity
  8
IMPORT_IGES
100
AcDbEllipse
 62
7
  6
CONTINUOUS
 10
20.4222149175
 20
-33.6104909642
 30
0.0
 11
0.7073221892
 21
0.7073221892
 31
0.0
 40
0.9996954599
 41
-0.7852458702
 42
0.7852458701
  0
ELLIPSE
  5
3E1
100
AcDbEntity
  8
IMPORT_IGES
100
AcDbEllipse
 62
7
  6
CONTINUOUS
 10
-87.2498476718
 20
-33.4828582096
 30
0.0
 11
0.7073221892
 21
-0.7073221892
 31
0.0
 40
0.9996954599
 41
2.3563467834
 42
3.9268385237
  0
ELLIPSE
  5
3E2
100
AcDbEntity
  8
IMPORT_IGES
100
AcDbEllipse
 62
7
  6
CONTINUOUS
 10
-82.3227937638
 20
-41.7272062361
 30
0.0
 11
1.9805021297
 21
-1.9805021296
 31
0.0
 40
0.9996954599
 41
-0.7852458702
 42
-0.423586911
  0
ELLIPSE
  5
3E3
100
AcDbEntity
  8
IMPORT_IGES
100
AcDbEllipse
 62
7
  6
CONTINUOUS
 10
-87.2498476718
 20
-46.5171417905
 30
0.0
 11
0.7073221892
 21
0.7073221892
 31
0.0
 40
0.9996954599
 41
-3.9268385237
 42
-2.3563467834
  0
ELLIPSE
  5
3E4
100
AcDbEntity
  8
IMPORT_IGES
100
AcDbEllipse
 62
7
  6
CONTINUOUS
 10
-87.1222149172
 20
-46.3895090359
 30
0.0
 11
0.7073221892
 21
0.7073221892
 31
0.0
 40
0.9996954599
 41
2.3563467834
 42
3.9268385237
  0
ELLIPSE
  5
3E5
100
AcDbEntity
  8
IMPORT_IGES
100
AcDbEllipse
 62
7
  6
CONTINUOUS
 10
20.5498476721
 20
-33.4828582096
 30
0.0
 11
0.7073221892
 21
0.7073221892
 31
0.0
 40
0.9996954599
 41
-0.7852458702
 42
0.7852458701
  0
ELLIPSE
  5
3E6
100
AcDbEntity
  8
IMPORT_IGES
100
AcDbEllipse
 62
7
  6
CONTINUOUS
 10
20.5498476721
 20
-46.5171417905
 30
0.0
 11
0.7073221892
 21
-0.7073221892
 31
0.0
 40
0.9996954599
 41
-0.7852458702
 42
0.7852458701
  0
ELLIPSE
  5
3E7
100
AcDbEntity
  8
IMPORT_IGES
100
AcDbEllipse
 62
7
  6
CONTINUOUS
 10
20.4222149175
 20
-46.3895090359
 30
0.0
 11
0.7073221892
 21
-0.7073221892
 31
0.0
 40
0.9996954599
 41
-0.7852458701
 42
0.7852458701
  0
ELLIPSE
  5
3E8
100
AcDbEntity
  8
IMPORT_IGES
100
AcDbEllipse
 62
7
  6
CONTINUOUS
 10
15.6227937641
 20
-41.7272062361
 30
0.0
 11
-1.9805021296
 21
-1.9805021297
 31
0.0
 40
0.9996954599
 41
0.423586911
 42
0.7852458701
  0
ENDSEC
  0
SECTION
  2
OBJECTS
  0
DICTIONARY
  5
C
100
AcDbDictionary
280
0
281
1
  3
ACAD_GROUP
350
D
  3
ACAD_MLINESTYLE
350
17
  3
ACAD_LAYOUT
350
1A
  3
ACAD_PLOTSETTINGS
350
19
  3
ACAD_PLOTSTYLENAME
350
E
  0
DICTIONARY
  5
D
102
{ACAD_REACTORS
330
C
102
}
100
AcDbDictionary
280
0
281
1
  0
ACDBDICTIONARYWDFLT
  5
E
102
{ACAD_REACTORS
330
C
102
}
100
AcDbDictionary
281
1
  3
Normal
350
F
100
AcDbDictionaryWithDefault
340
F
  0
DICTIONARY
  5
17
102
{ACAD_REACTORS
330
C
102
}
100
AcDbDictionary
280
0
281
1
  3
Standard
350
18
  0
DICTIONARY
  5
19
102
{ACAD_REACTORS
330
C
102
}
100
AcDbDictionary
281
1
  0
DICTIONARY
  5
1A
102
{ACAD_REACTORS
330
C
102
}
100
AcDbDictionary
281
1
  3
Model
350
3E9
  3
Layout1
350
3EA
  0
ACDBPLACEHOLDER
  5
F
102
{ACAD_REACTORS
330
E
102
}
  0
MLINESTYLE
  5
18
102
{ACAD_REACTORS
330
17
102
}
100
AcDbMlineStyle
  2
STANDARD
 70
0
  3

 62
256
 51
90.0
 52
90.0
 71
2
 49
0.5
 62
256
  6
BYLAYER
 49
-0.5
 62
256
  6
BYLAYER
  0
LAYOUT
  5
3E9
102
{ACAD_REACTORS
330
1A
102
}
100
AcDbPlotSettings
  1

  2
none_device
  4
ISO_A4_(297.00_x_210.00_MM)
  6

 40
0.0
 41
0.0
 42
0.0
 43
0.0
 44
297.0
 45
210.0
 46
0.0
 47
0.0
 48
0.0
 49
0.0
140
0.0
141
0.0
142
1.0
143
1.0
 70
1024
 72
1
 73
0
 74
0
  7

 75
0
147
1.0
148
0.0
149
0.0
100
AcDbLayout
  1
Model
 70
0
 71
0
 10
0.0
 20
0.0
 11
297.0
 21
210.0
 12
0.0
 22
0.0
 32
0.0
 14
0.0
 24
0.0
 34
0.0
 15
0.0
 25
0.0
 35
0.0
146
0.0
 13
0.0
 23
0.0
 33
0.0
 16
1.0
 26
0.0
 36
0.0
 17
0.0
 27
1.0
 37
0.0
 76
0
330
223
345
0
346
0
  0
LAYOUT
  5
3EA
102
{ACAD_REACTORS
330
1A
102
}
100
AcDbPlotSettings
  1

  2
none_device
  4
ISO_A4_(297.00_x_210.00_MM)
  6

 40
0.0
 41
0.0
 42
0.0
 43
0.0
 44
297.0
 45
210.0
 46
0.0
 47
0.0
 48
0.0
 49
0.0
140
0.0
141
0.0
142
1.0
143
1.0
 70
0
 72
1
 73
0
 74
0
  7

 75
0
147
1.0
148
0.0
149
0.0
100
AcDbLayout
  1
Layout1
 70
0
 71
1
 10
0.0
 20
0.0
 11
297.0
 21
210.0
 12
0.0
 22
0.0
 32
0.0
 14
0.0
 24
0.0
 34
0.0
 15
0.0
 25
0.0
 35
0.0
146
0.0
 13
0.0
 23
0.0
 33
0.0
 16
1.0
 26
0.0
 36
0.0
 17
0.0
 27
1.0
 37
0.0
 76
0
330
224
345
0
346
0
  0
ENDSEC
  0
EOF
