  0
SECTION
  2
HEADER
  9
$ACADVER
  1
AC1024
  9
$DWGCODEPAGE
  3
ANSI_1252
  9
$EXTMAX
 10
297.0
 20
210.0
 30
0.0
  9
$EXTMIN
 10
0.0
 20
0.0
 30
0.0
  9
$LIMMIN
 10
0.0
 20
0.0
  9
$LIMMAX
 10
297.0
 20
210.0
  9
$VIEWCTR
 10
148.5
 20
105.0
  9
$VIEWSIZE
 40
210.0
  9
$CLAYER
  8
0
  9
$LTSCALE
 40
16.335
  9
$CELTYPE
  6
BYLAYER
  9
$DIMSCALE
 40
1.0
  9
$DIMASZ
 40
3.0
  9
$DIMEXO
 40
0.5
  9
$DIMDLI
 40
11.286
  9
$DIMEXE
 40
1.5
  9
$DIMCEN
 40
2.673
  9
$DIMLFAC
 40
1.0
  9
$DIMBLK
  1
_FILLED
  9
$DIMALT
 70
0
  9
$DIMALTF
 40
0.0393700787
  9
$DIMTXT
 40
3.0
  9
$DIMTOL
 70
1
  9
$DIMLIM
 70
0
  9
$DIMTFAC
 40
1.0
  9
$DIMTP
 40
0.01
  9
$DIMTM
 40
0.01
  9
$DIMGAP
 40
0.625
  9
$DIMDSEP
 70
44
  9
$AUNITS
 70
0
  9
$PDMODE
 70
3
  9
$PDSIZE
 40
3.0
  9
$HANDSEED
  5
3AD
  9
$TILEMODE
 70
1
  9
$MEASUREMENT
 70
1
  9
$INSUNITS
 70
4
  0
ENDSEC
  0
SECTION
  2
CLASSES
  0
CLASS
  1
ACDBDICTIONARYWDFLT
  2
AcDbDictionaryWithDefault
  3
AutoCAD 2000
 90
0
 91
1
280
0
281
0
  0
CLASS
  1
ACDBPLACEHOLDER
  2
AcDbPlaceHolder
  3
AutoCAD 2000
 90
0
 91
1
280
0
281
0
  0
CLASS
  1
LAYOUT
  2
AcDbLayout
  3
AutoCAD 2000
 90
0
 91
0
280
0
281
0
  0
ENDSEC
  0
SECTION
  2
TABLES
  0
TABLE
  2
VPORT
  5
8
100
AcDbSymbolTable
 70
2
  0
VPORT
  5
1F4
100
AcDbSymbolTableRecord
100
AcDbViewportTableRecord
  2
*ACTIVE
 70
0
 10
0.0
 20
0.0
 11
1.0
 21
1.0
 12
148.5
 22
105.0
 13
0.0
 23
0.0
 14
1.0
 24
1.0
 15
0.0
 25
0.0
 16
0.0
 26
0.0
 36
1.0
 17
0.0
 27
0.0
 37
0.0
 40
210.0
 41
1.4142857143
 42
50.0
 43
0.0
 44
0.0
 50
0.0
 51
0.0
 71
0
 72
100
 73
1
 74
1
 75
0
 76
0
 77
0
 78
0
  0
ENDTAB
  0
TABLE
  2
LTYPE
  5
5
100
AcDbSymbolTable
 70
6
  0
LTYPE
  5
14
100
AcDbSymbolTableRecord
100
AcDbLinetypeTableRecord
  2
BYBLOCK
 70
0
  3

 72
65
 73
0
 40
0.0
  0
LTYPE
  5
15
100
AcDbSymbolTableRecord
100
AcDbLinetypeTableRecord
  2
BYLAYER
 70
0
  3

 72
65
 73
0
 40
0.0
  0
LTYPE
  5
16
100
AcDbSymbolTableRecord
100
AcDbLinetypeTableRecord
  2
CONTINUOUS
 70
64
  3
Solid line
 72
65
 73
0
 40
0.0
  0
LTYPE
  5
1F5
100
AcDbSymbolTableRecord
100
AcDbLinetypeTableRecord
  2
CENTER
 70
64
  3
____ _ ____ _ ____ _ ____ _ ____ _ ____ _ ____
 72
65
 73
4
 40
0.6
 49
0.375
 74
0
 49
-0.075
 74
0
 49
0.075
 74
0
 49
-0.075
 74
0
  0
LTYPE
  5
1F6
100
AcDbSymbolTableRecord
100
AcDbLinetypeTableRecord
  2
HIDDEN
 70
64
  3
- - - - - - - - - - - - - - - - - - - -
 72
65
 73
2
 40
0.2
 49
0.1
 74
0
 49
-0.1
 74
0
  0
LTYPE
  5
1F7
100
AcDbSymbolTableRecord
100
AcDbLinetypeTableRecord
  2
PHANTOM
 70
64
  3
_____ _ _ _____ _ _ _____ _ _ _____
 72
65
 73
6
 40
0.8
 49
0.45
 74
0
 49
-0.05
 74
0
 49
0.1
 74
0
 49
-0.05
 74
0
 49
0.1
 74
0
 49
-0.05
 74
0
  0
LTYPE
  5
1F8
100
AcDbSymbolTableRecord
100
AcDbLinetypeTableRecord
  2
DOT
 70
64
  3
. . . . . . . . . . . . . . . . . . . .
 72
65
 73
2
 40
0.2
 49
0.1
 74
0
 49
-0.1
 74
0
  0
LTYPE
  5
1F9
100
AcDbSymbolTableRecord
100
AcDbLinetypeTableRecord
  2
DASHED
 70
64
  3
- - - - - - - - - - - - - - - - - - - -
 72
65
 73
2
 40
0.2
 49
0.1
 74
0
 49
-0.1
 74
0
  0
ENDTAB
  0
TABLE
  2
LAYER
  5
2
100
AcDbSymbolTable
 70
36
  0
LAYER
  5
10
100
AcDbSymbolTableRecord
100
AcDbLayerTableRecord
  2
0
 70
0
 62
7
  6
CONTINUOUS
370
-3
390
F
  0
LAYER
  5
1FA
100
AcDbSymbolTableRecord
100
AcDbLayerTableRecord
  2
DEFAULT_1
 70
0
 62
7
  6
CENTER
370
-3
390
F
  0
LAYER
  5
1FB
100
AcDbSymbolTableRecord
100
AcDbLayerTableRecord
  2
DEFAULT_2
 70
0
 62
7
  6
HIDDEN
370
-3
390
F
  0
LAYER
  5
1FC
100
AcDbSymbolTableRecord
100
AcDbLayerTableRecord
  2
DEFAULT_3
 70
0
 62
7
  6
PHANTOM
370
-3
390
F
  0
LAYER
  5
1FD
100
AcDbSymbolTableRecord
100
AcDbLayerTableRecord
  2
ASSI
 70
0
 62
7
  6
CONTINUOUS
370
-3
390
F
  0
LAYER
  5
1FE
100
AcDbSymbolTableRecord
100
AcDbLayerTableRecord
  2
COORDINATE
 70
0
 62
7
  6
CONTINUOUS
370
-3
390
F
  0
LAYER
  5
1FF
100
AcDbSymbolTableRecord
100
AcDbLayerTableRecord
  2
COPY_PUBLISH
 70
0
 62
7
  6
CONTINUOUS
370
-3
390
F
  0
LAYER
  5
200
100
AcDbSymbolTableRecord
100
AcDbLayerTableRecord
  2
COSMETIC
 70
0
 62
7
  6
CONTINUOUS
370
-3
390
F
  0
LAYER
  5
201
100
AcDbSymbolTableRecord
100
AcDbLayerTableRecord
  2
COSMETICI
 70
0
 62
7
  6
CONTINUOUS
370
-3
390
F
  0
LAYER
  5
202
100
AcDbSymbolTableRecord
100
AcDbLayerTableRecord
  2
CURVE
 70
0
 62
7
  6
CONTINUOUS
370
-3
390
F
  0
LAYER
  5
203
100
AcDbSymbolTableRecord
100
AcDbLayerTableRecord
  2
DRAFT
 70
0
 62
7
  6
CONTINUOUS
370
-3
390
F
  0
LAYER
  5
204
100
AcDbSymbolTableRecord
100
AcDbLayerTableRecord
  2
IGES
 70
0
 62
7
  6
CONTINUOUS
370
-3
390
F
  0
LAYER
  5
205
100
AcDbSymbolTableRecord
100
AcDbLayerTableRecord
  2
IMPORT_IGES
 70
0
 62
7
  6
CONTINUOUS
370
-3
390
F
  0
LAYER
  5
206
100
AcDbSymbolTableRecord
100
AcDbLayerTableRecord
  2
INTF_1
 70
0
 62
7
  6
CONTINUOUS
370
-3
390
F
  0
LAYER
  5
207
100
AcDbSymbolTableRecord
100
AcDbLayerTableRecord
  2
INTF_11
 70
0
 62
7
  6
CONTINUOUS
370
-3
390
F
  0
LAYER
  5
208
100
AcDbSymbolTableRecord
100
AcDbLayerTableRecord
  2
INTF_12
 70
0
 62
7
  6
CONTINUOUS
370
-3
390
F
  0
LAYER
  5
209
100
AcDbSymbolTableRecord
100
AcDbLayerTableRecord
  2
INTF_13
 70
0
 62
7
  6
CONTINUOUS
370
-3
390
F
  0
LAYER
  5
20A
100
AcDbSymbolTableRecord
100
AcDbLayerTableRecord
  2
INTF_2
 70
0
 62
7
  6
CONTINUOUS
370
-3
390
F
  0
LAYER
  5
20B
100
AcDbSymbolTableRecord
100
AcDbLayerTableRecord
  2
INTF_3
 70
0
 62
7
  6
CONTINUOUS
370
-3
390
F
  0
LAYER
  5
20C
100
AcDbSymbolTableRecord
100
AcDbLayerTableRecord
  2
INTF_GREEN
 70
0
 62
7
  6
CONTINUOUS
370
-3
390
F
  0
LAYER
  5
20D
100
AcDbSymbolTableRecord
100
AcDbLayerTableRecord
  2
INTF_RED
 70
0
 62
7
  6
CONTINUOUS
370
-3
390
F
  0
LAYER
  5
20E
100
AcDbSymbolTableRecord
100
AcDbLayerTableRecord
  2
INTF_YELLOW
 70
0
 62
7
  6
CONTINUOUS
370
-3
390
F
  0
LAYER
  5
20F
100
AcDbSymbolTableRecord
100
AcDbLayerTableRecord
  2
MIXEDCOLOR
 70
0
 62
7
  6
CONTINUOUS
370
-3
390
F
  0
LAYER
  5
210
100
AcDbSymbolTableRecord
100
AcDbLayerTableRecord
  2
NOTE
 70
0
 62
7
  6
CONTINUOUS
370
-3
390
F
  0
LAYER
  5
211
100
AcDbSymbolTableRecord
100
AcDbLayerTableRecord
  2
PIANI
 70
0
 62
7
  6
CONTINUOUS
370
-3
390
F
  0
LAYER
  5
212
100
AcDbSymbolTableRecord
100
AcDbLayerTableRecord
  2
PUNTI
 70
0
 62
7
  6
CONTINUOUS
370
-3
390
F
  0
LAYER
  5
213
100
AcDbSymbolTableRecord
100
AcDbLayerTableRecord
  2
RACCORDO
 70
0
 62
7
  6
CONTINUOUS
370
-3
390
F
  0
LAYER
  5
214
100
AcDbSymbolTableRecord
100
AcDbLayerTableRecord
  2
SIMBOLI
 70
0
 62
7
  6
CONTINUOUS
370
-3
390
F
  0
LAYER
  5
215
100
AcDbSymbolTableRecord
100
AcDbLayerTableRecord
  2
SKEL
 70
0
 62
7
  6
CONTINUOUS
370
-3
390
F
  0
LAYER
  5
216
100
AcDbSymbolTableRecord
100
AcDbLayerTableRecord
  2
SMUSSO
 70
0
 62
7
  6
CONTINUOUS
370
-3
390
F
  0
LAYER
  5
217
100
AcDbSymbolTableRecord
100
AcDbLayerTableRecord
  2
SUPERFICI
 70
0
 62
7
  6
CONTINUOUS
370
-3
390
F
  0
LAYER
  5
218
100
AcDbSymbolTableRecord
100
AcDbLayerTableRecord
  2
TRASH
 70
0
 62
7
  6
CONTINUOUS
370
-3
390
F
  0
LAYER
  5
219
100
AcDbSymbolTableRecord
100
AcDbLayerTableRecord
  2
XSEC_DATUMS
 70
0
 62
7
  6
CONTINUOUS
370
-3
390
F
  0
ENDTAB
  0
TABLE
  2
STYLE
  5
3
100
AcDbSymbolTable
 70
1
  0
STYLE
  5
11
100
AcDbSymbolTableRecord
100
AcDbTextStyleTableRecord
  2
STANDARD
 70
0
 40
0.0
 41
0.8
 50
0.0
 71
0
 42
0.2
  3
txt
  4

  0
STYLE
  5
21A
100
AcDbSymbolTableRecord
100
AcDbTextStyleTableRecord
  2
TEXTSTYLE_1
 70
0
 40
0.0
 41
0.8
 50
0.0
 71
0
 42
0.2
  3
gdt
  4

  0
ENDTAB
  0
TABLE
  2
VIEW
  5
6
100
AcDbSymbolTable
 70
0
  0
ENDTAB
  0
TABLE
  2
UCS
  5
7
100
AcDbSymbolTable
 70
0
  0
ENDTAB
  0
TABLE
  2
APPID
  5
9
100
AcDbSymbolTable
 70
1
  0
APPID
  5
21B
100
AcDbSymbolTableRecord
100
AcDbRegAppTableRecord
  2
ACAD
 70
0
  0
ENDTAB
  0
TABLE
  2
BLOCK_RECORD
  5
1
100
AcDbSymbolTable
 70
0
  0
BLOCK_RECORD
  5
21C
100
AcDbSymbolTableRecord
100
AcDbBlockTableRecord
  2
*Model_Space
  0
BLOCK_RECORD
  5
21D
100
AcDbSymbolTableRecord
100
AcDbBlockTableRecord
  2
*Paper_Space
  0
BLOCK_RECORD
  5
21E
100
AcDbSymbolTableRecord
100
AcDbBlockTableRecord
  2
_FILLED
  0
ENDTAB
  0
TABLE
  2
DIMSTYLE
  5
A
100
AcDbSymbolTable
 70
1
100
AcDbDimStyleTable
 71
0
  0
DIMSTYLE
105
21F
100
AcDbSymbolTableRecord
100
AcDbDimStyleTableRecord
  2
STANDARD
 70
0
  3

  4

 40
1.0
 41
3.0
 42
0.5
 43
0.38
 44
1.5
 45
0.0
 46
0.0
 47
0.01
 48
0.01
140
3.0
141
0.09
142
0.0
143
25.4
144
1.0
145
0.0
146
1.0
147
0.625
 71
1
 72
0
 73
0
 74
0
 75
0
 76
0
 77
1
 78
8
 79
2
170
0
171
1
172
0
173
0
174
0
175
0
176
0
177
0
178
0
270
2
179
2
271
2
272
2
273
2
274
2
275
0
280
0
281
0
282
0
283
1
284
8
285
0
286
0
287
3
288
0
340
11
278
44
341
21E
342
21E
343
21E
344
21E
  0
ENDTAB
  0
ENDSEC
  0
SECTION
  2
BLOCKS
  0
BLOCK
  5
20
100
AcDbEntity
  8
0
100
AcDbBlockBegin
  2
*Model_Space
 70
0
 10
0.0
 20
0.0
 30
0.0
  3
*Model_Space
  1

  0
ENDBLK
  5
21
100
AcDbEntity
  8
0
100
AcDbBlockEnd
  0
BLOCK
  5
1C
100
AcDbEntity
  8
0
100
AcDbBlockBegin
  2
*Paper_Space
 70
0
 10
0.0
 20
0.0
 30
0.0
  3
*Paper_Space
  1

  0
ENDBLK
  5
1D
100
AcDbEntity
  8
0
100
AcDbBlockEnd
  0
BLOCK
  5
220
100
AcDbEntity
  8
0
100
AcDbBlockBegin
  2
_FILLED
 70
64
 10
0.0
 20
0.0
  3
_FILLED
  1

  0
SOLID
  5
221
100
AcDbEntity
  8
0
  6
BYBLOCK
 62
0
100
AcDbTrace
 10
0.0
 20
0.0
 11
-1.0
 21
0.3166666667
 12
-1.0
 22
-0.3166666667
 13
-1.0
 23
-0.3166666667
  0
ENDBLK
  5
222
100
AcDbEntity
  8
0
  6
BYBLOCK
 62
0
100
AcDbBlockEnd
  0
ENDSEC
  0
SECTION
  2
ENTITIES
  0
LWPOLYLINE
  5
223
100
AcDbEntity
  8
0
100
AcDbPolyline
 62
7
  6
CONTINUOUS
 90
6
 70
0
 10
-21.318283351
 20
26.0632701768
 10
-21.3423118772
 20
26.0544675902
 10
-21.3663674012
 20
26.0445582729
 10
-21.3903379539
 20
26.0334625987
 10
-21.4144258424
 20
26.0213897937
 10
-21.4386555109
 20
26.0083962576
  0
LWPOLYLINE
  5
224
100
AcDbEntity
  8
0
100
AcDbPolyline
 62
7
  6
CONTINUOUS
 90
4
 70
0
 10
-21.2290652645
 20
26.0934981502
 10
-21.2502563227
 20
26.0866007063
 10
-21.2721937406
 20
26.0792694762
 10
-21.318283351
 20
26.0632701768
  0
LWPOLYLINE
  5
225
100
AcDbEntity
  8
0
100
AcDbPolyline
 62
7
  6
CONTINUOUS
 90
14
 70
0
 10
-20.253003362
 20
27.2038022406
 10
-20.2701235611
 20
27.1898292769
 10
-20.2865256257
 20
27.1760201163
 10
-20.3022611079
 20
27.1624006948
 10
-20.3174477298
 20
27.1487678482
 10
-20.3321106646
 20
27.135007041
 10
-20.3461856013
 20
27.1212065226
 10
-20.3596549809
 20
27.1074656002
 10
-20.3725091661
 20
27.0937546627
 10
-20.3847465948
 20
27.0800996333
 10
-20.3963863534
 20
27.0667052938
 10
-20.407276088
 20
27.053787722
 10
-20.4175999323
 20
27.0411555539
 10
-20.4382778832
 20
27.0154423832
  0
LWPOLYLINE
  5
226
100
AcDbEntity
  8
0
100
AcDbPolyline
 62
7
  6
CONTINUOUS
 90
3
 70
0
 10
-20.197884137
 20
27.2475966439
 10
-20.2168892397
 20
27.2325779517
 10
-20.253003362
 20
27.2038022406
  0
LWPOLYLINE
  5
227
100
AcDbEntity
  8
0
100
AcDbPolyline
 62
7
  6
CONTINUOUS
 90
6
 70
0
 10
-21.6646475263
 20
25.8614879603
 10
-21.6967598252
 20
25.8367084783
 10
-21.7266359827
 20
25.8120179995
 10
-21.7543486162
 20
25.7876884625
 10
-21.7796709077
 20
25.7641632844
 10
-21.8030020449
 20
25.7414338362
  0
LWPOLYLINE
  5
228
100
AcDbEntity
  8
0
100
AcDbPolyline
 62
7
  6
CONTINUOUS
 90
8
 70
0
 10
-20.0093768181
 20
27.3830675634
 10
-20.0399440567
 20
27.3642484238
 10
-20.0680236721
 20
27.345566346
 10
-20.093744387
 20
27.3273790481
 10
-20.1167901878
 20
27.3103572563
 10
-20.1377562671
 20
27.2944398484
 10
-20.1580701521
 20
27.2787162584
 10
-20.197884137
 20
27.2475966439
  0
LWPOLYLINE
  5
229
100
AcDbEntity
  8
0
100
AcDbPolyline
 62
7
  6
CONTINUOUS
 90
7
 70
0
 10
-21.4386555109
 20
26.0083962576
 10
-21.473918936
 20
25.9872494077
 10
-21.5105446986
 20
25.9649150983
 10
-21.5482212046
 20
25.9412919205
 10
-21.5866684789
 20
25.9162628649
 10
-21.6255825108
 20
25.8897043551
 10
-21.6646475263
 20
25.8614879603
  0
LWPOLYLINE
  5
22A
100
AcDbEntity
  8
0
100
AcDbPolyline
 62
7
  6
CONTINUOUS
 90
10
 70
0
 10
-21.2585684408
 20
25.4592154084
 10
-21.1977165878
 20
25.5259155253
 10
-21.1517485214
 20
25.5955639771
 10
-21.1201976909
 20
25.6678761717
 10
-21.1023909698
 20
25.7457726946
 10
-21.0980467935
 20
25.826100342
 10
-21.1078120484
 20
25.8999274078
 10
-21.1322325693
 20
25.9647230736
 10
-21.1712071455
 20
26.0240587294
 10
-21.2249654609
 20
26.0785496179
  0
LWPOLYLINE
  5
22B
100
AcDbEntity
  8
0
100
AcDbPolyline
 62
7
  6
CONTINUOUS
 90
16
 70
0
 10
-21.8030020449
 20
25.7414338362
 10
-21.8473670023
 20
25.6972939859
 10
-21.8686803751
 20
25.6763058738
 10
-21.8891847286
 20
25.6555510295
 10
-21.9087456877
 20
25.6347902827
 10
-21.9274173377
 20
25.6142501747
 10
-21.9451832953
 20
25.5939121602
 10
-21.9619798318
 20
25.5736786022
 10
-21.9778652463
 20
25.5536006947
 10
-21.9930434721
 20
25.5339170632
 10
-22.0076900176
 20
25.5146884538
 10
-22.0217179434
 20
25.4958874447
 10
-22.0349754182
 20
25.4776488328
 10
-22.0474383352
 20
25.4600198284
 10
-22.0592064359
 20
25.4429662137
 10
-22.0703145149
 20
25.4264946446
  0
LWPOLYLINE
  5
22C
100
AcDbEntity
  8
0
100
AcDbPolyline
 62
7
  6
CONTINUOUS
 90
10
 70
0
 10
-17.9796513216
 20
26.6520042058
 10
-18.1598384723
 20
26.4887182885
 10
-18.3512365148
 20
26.3239033124
 10
-18.5514614355
 20
26.1554814487
 10
-18.7556417343
 20
25.9785834159
 10
-18.96269656
 20
25.7922182347
 10
-19.1767966004
 20
25.6012590986
 10
-19.3985106186
 20
25.4068120285
 10
-19.6233200805
 20
25.2043081095
 10
-19.8489296654
 20
24.9915168875
  0
LINE
  5
22D
100
AcDbEntity
  8
0
100
AcDbLine
 62
7
  6
CONTINUOUS
 10
-18.7565156762
 20
24.6220030263
 11
-18.1730463979
 21
25.1529499513
  0
LWPOLYLINE
  5
22E
100
AcDbEntity
  8
0
100
AcDbPolyline
 62
7
  6
CONTINUOUS
 90
16
 70
0
 10
-14.8165167553
 20
26.9893556554
 10
-14.8999860191
 20
26.9180441435
 10
-15.0004711449
 20
26.8644947342
 10
-15.1133028434
 20
26.8313600209
 10
-15.2345575237
 20
26.8206031971
 10
-15.3569853435
 20
26.8332784342
 10
-15.4709344534
 20
26.8668083552
 10
-15.5711908015
 20
26.9167779385
 10
-15.6561107753
 20
26.9802279766
 10
-15.7235698578
 20
27.0537835298
 10
-15.7720241151
 20
27.1325372809
 10
-15.8025011677
 20
27.2142518997
 10
-15.8153036271
 20
27.3002333768
 10
-15.8085529498
 20
27.3890078411
 10
-15.7811858771
 20
27.4758753336
 10
-15.7330634265
 20
27.5572848916
  0
LWPOLYLINE
  5
22F
100
AcDbEntity
  8
0
100
AcDbPolyline
 62
7
  6
CONTINUOUS
 90
3
 70
0
 10
-20.4382778832
 20
27.0154423832
 10
-20.4486183448
 20
27.0023827998
 10
-20.4588956151
 20
26.9892473651
  0
LWPOLYLINE
  5
230
100
AcDbEntity
  8
0
100
AcDbPolyline
 62
7
  6
CONTINUOUS
 90
7
 70
0
 10
-17.6377550467
 20
26.2941882103
 10
-17.6614226181
 20
26.2644585609
 10
-17.6840807598
 20
26.2328560697
 10
-17.7057366324
 20
26.1993500595
 10
-17.7260568031
 20
26.1636625952
 10
-17.7454008926
 20
26.1259912197
 10
-17.7845923524
 20
26.0469896143
  0
LWPOLYLINE
  5
231
100
AcDbEntity
  8
0
100
AcDbPolyline
 62
7
  6
CONTINUOUS
 90
16
 70
0
 10
-19.8489296654
 20
24.9915168875
 10
-19.9208652463
 20
24.9061806555
 10
-19.9729052437
 20
24.8184029627
 10
-20.0039916782
 20
24.7275422771
 10
-20.0126500565
 20
24.6295452395
 10
-19.9983261237
 20
24.5280386009
 10
-19.9621100498
 20
24.4345481657
 10
-19.9023518306
 20
24.351010307
 10
-19.8209744754
 20
24.2772436654
 10
-19.7259197836
 20
24.2218038717
 10
-19.6165838168
 20
24.1873192372
 10
-19.4959887173
 20
24.1730049214
 10
-19.377977697
 20
24.1809959018
 10
-19.2676141206
 20
24.2113978579
 10
-19.1614203156
 20
24.2633820259
 10
-19.0599448853
 20
24.3365955057
  0
LWPOLYLINE
  5
232
100
AcDbEntity
  8
0
100
AcDbPolyline
 62
7
  6
CONTINUOUS
 90
10
 70
0
 10
-13.2053304332
 20
25.4154911292
 10
-13.0126957784
 20
25.6136864163
 10
-12.8318356815
 20
25.8247227057
 10
-12.6644363108
 20
26.0475693082
 10
-12.5126647871
 20
26.2820066495
 10
-12.3778882972
 20
26.5258073545
 10
-12.2601610129
 20
26.7750402945
 10
-12.1601495038
 20
27.0277442073
 10
-12.0796331278
 20
27.2836287547
 10
-12.0198726621
 20
27.5414685103
  0
LINE
  5
233
100
AcDbEntity
  8
0
100
AcDbLine
 62
7
  6
CONTINUOUS
 10
-14.1043034696
 20
26.0240587294
 11
-14.0505451542
 21
26.0785496179
  0
LWPOLYLINE
  5
234
100
AcDbEntity
  8
0
100
AcDbPolyline
 62
7
  6
CONTINUOUS
 90
3
 70
0
 10
-19.0599448853
 20
24.3365955057
 10
-18.9076862392
 20
24.4814561859
 10
-18.7565156762
 20
24.6220030263
  0
LWPOLYLINE
  5
235
100
AcDbEntity
  8
0
100
AcDbPolyline
 62
7
  6
CONTINUOUS
 90
10
 70
0
 10
-13.2053304332
 20
25.4154911292
 10
-13.2794206709
 20
25.3569322082
 10
-13.361764488
 20
25.3140926052
 10
-13.4517387508
 20
25.2872776857
 10
-13.553086636
 20
25.2767401431
 10
-13.6610109906
 20
25.282703336
 10
-13.7624636144
 20
25.3046584347
 10
-13.8533047353
 20
25.3417476963
 10
-13.9380067665
 20
25.3934744315
 10
-14.0169421743
 20
25.4592154084
  0
LWPOLYLINE
  5
236
100
AcDbEntity
  8
0
100
AcDbPolyline
 62
7
  6
CONTINUOUS
 90
10
 70
0
 10
-14.8165241323
 20
26.989351311
 10
-14.700070063
 20
27.1434385921
 10
-14.5948567133
 20
27.3041890588
 10
-14.5021433798
 20
27.4706061388
 10
-14.424576039
 20
27.6412585221
 10
-14.3619469373
 20
27.8152612808
 10
-14.3115633962
 20
27.9928772654
 10
-14.273866194
 20
28.173891168
 10
-14.2520639589
 20
28.3570037119
 10
-14.2481719068
 20
28.541215934
  0
LWPOLYLINE
  5
237
100
AcDbEntity
  8
SUPERFICI
100
AcDbPolyline
 62
250
  6
CONTINUOUS
 90
10
 70
0
 10
-16.1734534209
 20
24.3795251365
 10
-16.1368310357
 20
24.4248813135
 10
-16.0986977106
 20
24.4700432279
 10
-16.0592422811
 20
24.5147964644
 10
-16.0180496009
 20
24.5595375329
 10
-15.9758867519
 20
24.6034069024
 10
-15.9348047488
 20
24.6444507642
 10
-15.8956650684
 20
24.6820748318
 10
-15.8581067429
 20
24.7168344745
 10
-15.8223674108
 20
24.7487054342
  0
LWPOLYLINE
  5
238
100
AcDbEntity
  8
RACCORDO
100
AcDbPolyline
 62
250
  6
CONTINUOUS
 90
24
 70
0
 10
-10.6541433939
 20
20.0143544395
 10
-10.8645603491
 20
19.8235040954
 10
-11.0915056214
 20
19.6336247117
 10
-11.3364453279
 20
19.4436853285
 10
-11.5983277129
 20
19.2547169059
 10
-11.8767704819
 20
19.0714362564
 10
-12.174002332
 20
18.8934877535
 10
-12.4881203386
 20
18.7212270239
 10
-12.8131223277
 20
18.5604377604
 10
-13.1497699283
 20
18.4120667163
 10
-13.49691592
 20
18.2751671384
 10
-13.846970265
 20
18.1526824604
 10
-14.2007037025
 20
18.0458301468
 10
-14.5578215547
 20
17.9533927331
 10
-14.9098943408
 20
17.8746612596
 10
-15.2551667149
 20
17.8106790196
 10
-15.5944205188
 20
17.7604027198
 10
-15.9227690155
 20
17.7199935197
 10
-16.2376959953
 20
17.6895918179
 10
-16.5402453881
 20
17.6690572158
 10
-16.8315255469
 20
17.6541296773
 10
-17.1119736225
 20
17.6433891905
 10
-17.3807695539
 20
17.6382557673
 10
-17.9003652406
 20
17.6382204359
  0
LWPOLYLINE
  5
239
100
AcDbEntity
  8
RACCORDO
100
AcDbPolyline
 62
250
  6
CONTINUOUS
 90
39
 70
0
 10
-26.9131693031
 20
28.7275817893
 10
-26.8440156662
 20
29.0864012939
 10
-26.7562007334
 20
29.4540621059
 10
-26.6498091019
 20
29.8264431247
 10
-26.5237801396
 20
30.2027563498
 10
-26.3773590435
 20
30.5814834859
 10
-26.2119468038
 20
30.9577187475
 10
-26.0263197105
 20
31.332167719
 10
-25.8209514567
 20
31.7019063208
 10
-25.601496579
 20
32.0575656248
 10
-25.3691026155
 20
32.3986820448
 10
-25.1246234832
 20
32.725141215
 10
-24.8753235481
 20
33.029731589
 10
-24.6256089718
 20
33.3103078974
 10
-24.3746468629
 20
33.5706275711
 10
-24.1223927385
 20
33.8130682418
 10
-23.870133407
 20
34.0382574406
 10
-23.6189067301
 20
34.2469388064
 10
-23.3677842184
 20
34.441334187
 10
-23.116968551
 20
34.6224327555
 10
-22.8678437225
 20
34.7903125372
 10
-22.6209705187
 20
34.9456274228
 10
-22.3768683343
 20
35.0890295383
 10
-22.1362545478
 20
35.2210045101
 10
-21.8999147613
 20
35.3419727223
 10
-21.6687808355
 20
35.4523473287
 10
-21.4429145982
 20
35.5529418076
 10
-21.2217100764
 20
35.6447130807
 10
-21.0056054341
 20
35.7281487882
 10
-20.794863562
 20
35.803790163
 10
-20.5885036977
 20
35.8724914548
 10
-20.3866129235
 20
35.9347132498
 10
-20.1896072149
 20
35.9908047789
 10
-19.9969145513
 20
36.0412964913
 10
-19.8085816056
 20
36.0865599236
 10
-19.6249152669
 20
36.126899611
 10
-19.4456916196
 20
36.1626614892
 10
-19.2710543876
 20
36.1941506781
 10
-19.1011211143
 20
36.2216685201
  0
LWPOLYLINE
  5
23A
100
AcDbEntity
  8
RACCORDO
100
AcDbPolyline
 62
250
  6
CONTINUOUS
 90
8
 70
0
 10
-27.5501151659
 20
27.3178978288
 10
-27.5337953847
 20
27.3981922832
 10
-27.4950119662
 20
27.4707293871
 10
-27.4346635432
 20
27.537882731
 10
-27.3544988132
 20
27.5977063085
 10
-27.2568406827
 20
27.6484665032
 10
-27.1445189576
 20
27.6886923225
 10
-27.0207883451
 20
27.717218021
  0
LWPOLYLINE
  5
23B
100
AcDbEntity
  8
0
100
AcDbPolyline
 62
7
  6
CONTINUOUS
 90
10
 70
0
 10
-19.8999714326
 20
27.4565104125
 10
-19.9031397157
 20
27.4468736416
 10
-19.9093431995
 20
27.438343654
 10
-19.9181807721
 20
27.4308390659
 10
-19.929367806
 20
27.4244760714
 10
-19.9424203672
 20
27.4184282925
 10
-19.9569624906
 20
27.4114053598
 10
-19.9729770447
 20
27.4030905274
 10
-19.9904675277
 20
27.3936847777
 10
-20.0093768181
 20
27.3830675634
  0
LWPOLYLINE
  5
23C
100
AcDbEntity
  8
0
100
AcDbPolyline
 62
7
  6
CONTINUOUS
 90
4
 70
0
 10
-18.0700989751
 20
25.4069358408
 10
-18.0951267819
 20
25.3463679096
 10
-18.1205599315
 20
25.2838072411
 10
-18.1730463979
 20
25.1529499513
  0
LWPOLYLINE
  5
23D
100
AcDbEntity
  8
0
100
AcDbPolyline
 62
7
  6
CONTINUOUS
 90
3
 70
0
 10
-17.9977713927
 20
25.5775111745
 10
-18.0213614757
 20
25.5224260499
 10
-18.0700989751
 20
25.4069358408
  0
LINE
  5
23E
100
AcDbEntity
  8
0
100
AcDbLine
 62
7
  6
CONTINUOUS
 10
-17.9519599798
 20
25.6825984262
 11
-17.9977713927
 21
25.5775111745
  0
LINE
  5
23F
100
AcDbEntity
  8
0
100
AcDbLine
 62
7
  6
CONTINUOUS
 10
-17.9079827804
 20
25.7814969313
 11
-17.9519599798
 21
25.6825984262
  0
LWPOLYLINE
  5
240
100
AcDbEntity
  8
0
100
AcDbPolyline
 62
7
  6
CONTINUOUS
 90
3
 70
0
 10
-17.8449536977
 20
25.9195886243
 10
-17.865591837
 20
25.8748723975
 10
-17.9079827804
 20
25.7814969313
  0
LWPOLYLINE
  5
241
100
AcDbEntity
  8
0
100
AcDbPolyline
 62
7
  6
CONTINUOUS
 90
3
 70
0
 10
-17.7845923524
 20
26.0469896143
 10
-17.804461521
 20
26.0056366365
 10
-17.8449536977
 20
25.9195886243
  0
LWPOLYLINE
  5
242
100
AcDbEntity
  8
0
100
AcDbPolyline
 62
250
  6
CONTINUOUS
 90
7
 70
0
 10
-16.2156074159
 20
24.336663708
 10
-16.2102474292
 20
24.345376794
 10
-16.2042197169
 20
24.3534637268
 10
-16.1975253885
 20
24.3609232638
 10
-16.1901655275
 20
24.3677541667
 10
-16.182141193
 20
24.3739552012
 10
-16.1734534209
 20
24.3795251365
  0
LINE
  5
243
100
AcDbEntity
  8
SUPERFICI
100
AcDbLine
 62
7
  6
CONTINUOUS
 10
-19.6377053076
 20
9.8828814857
 11
-17.7007337331
 21
11.8198530602
  0
LINE
  5
244
100
AcDbEntity
  8
SUPERFICI
100
AcDbLine
 62
7
  6
CONTINUOUS
 10
-17.6377553076
 20
11.1757391635
 11
-19.6377053076
 21
9.1757891635
  0
LWPOLYLINE
  5
245
100
AcDbEntity
  8
SUPERFICI
100
AcDbPolyline
 62
7
  6
CONTINUOUS
 90
7
 70
0
 10
-19.1756431348
 20
-26.2888342965
 10
-18.5872575463
 20
-26.4401423467
 10
-17.9838682074
 20
-26.5192307148
 10
-17.3743711318
 20
-26.5243022121
 10
-16.7697574173
 20
-26.4552098953
 10
-16.1789450638
 20
-26.3136557515
 10
-15.8892336553
 20
-26.2155583977
  0
LINE
  5
246
100
AcDbEntity
  8
SUPERFICI
100
AcDbLine
 62
7
  6
CONTINUOUS
 10
-19.3862773921
 20
-26.215557521
 11
-19.1756431348
 21
-26.2888342965
  0
LWPOLYLINE
  5
247
100
AcDbEntity
  8
SUPERFICI
100
AcDbPolyline
 62
7
  6
CONTINUOUS
 90
10
 70
0
 10
-19.3862756194
 20
-26.2155597186
 10
-19.4404388491
 20
-26.1916089902
 10
-19.4911862442
 20
-26.1615464838
 10
-19.538056546
 20
-26.1256838702
 10
-19.5804439831
 20
-26.0845106194
 10
-19.6176830659
 20
-26.0386034672
 10
-19.6492321242
 20
-25.9886276751
 10
-19.674661484
 20
-25.935352198
 10
-19.6936141406
 20
-25.8794703316
 10
-19.7058772341
 20
-25.8214974807
  0
LWPOLYLINE
  5
248
100
AcDbEntity
  8
RACCORDO
100
AcDbPolyline
 62
250
  6
CONTINUOUS
 90
10
 70
0
 10
-27.4653784058
 20
25.7625852184
 10
-27.466530574
 20
25.8268551749
 10
-27.4510041892
 20
25.892277309
 10
-27.4191261145
 20
25.9574743505
 10
-27.3715674497
 20
26.0210737679
 10
-27.3093294037
 20
26.0817366633
 10
-27.2337222168
 20
26.1381859583
 10
-27.1463375777
 20
26.1892332799
 10
-27.0490151147
 20
26.2338039778
 10
-26.943803668
 20
26.270959748
  0
LWPOLYLINE
  5
249
100
AcDbEntity
  8
RACCORDO
100
AcDbPolyline
 62
7
  6
CONTINUOUS
 90
6
 70
0
 10
-27.5500895325
 20
27.3178988961
 10
-27.5568456586
 20
26.9790569117
 10
-27.5485957177
 20
26.6183063881
 10
-27.5250075736
 20
26.2636450528
 10
-27.486968156
 20
25.9161093162
 10
-27.4656894102
 20
25.7646556311
  0
LINE
  5
24A
100
AcDbEntity
  8
RACCORDO
100
AcDbLine
 62
250
  6
CONTINUOUS
 10
-27.0263772203
 20
27.5982073459
 11
-27.0222325493
 21
27.7169095754
  0
LINE
  5
24B
100
AcDbEntity
  8
RACCORDO
100
AcDbLine
 62
7
  6
CONTINUOUS
 10
-27.5501501745
 20
27.3170169876
 11
-27.5501151659
 21
27.3178978288
  0
LWPOLYLINE
  5
24C
100
AcDbEntity
  8
RACCORDO
100
AcDbPolyline
 62
250
  6
CONTINUOUS
 90
4
 70
0
 10
-27.0207889168
 20
27.7172164044
 10
-27.0000955365
 20
28.042641796
 10
-26.9646456393
 20
28.3796976424
 10
-26.9131693031
 20
28.7275817893
  0
LWPOLYLINE
  5
24D
100
AcDbEntity
  8
RACCORDO
100
AcDbPolyline
 62
250
  6
CONTINUOUS
 90
31
 70
0
 10
-9.9272000742
 20
21.7201816997
 10
-10.0459455008
 20
21.5351653598
 10
-10.1727582078
 20
21.3475433265
 10
-10.3091544652
 20
21.157552675
 10
-10.4550875999
 20
20.9656276558
 10
-10.6110212651
 20
20.7720569763
 10
-10.7792693007
 20
20.577081176
 10
-10.959622392
 20
20.3814658226
 10
-11.1526677001
 20
20.1856157771
 10
-11.3619809137
 20
19.9896236003
 10
-11.5887586996
 20
19.7938101186
 10
-11.8321573393
 20
19.5998887996
 10
-12.0925841764
 20
19.4104151549
 10
-12.3714945654
 20
19.2262988157
 10
-12.6671875777
 20
19.0493053281
 10
-12.9749329265
 20
18.8830560713
 10
-13.2946509925
 20
18.7290559066
 10
-13.6253419655
 20
18.5879911811
 10
-13.9606059461
 20
18.4613219271
 10
-14.3001747802
 20
18.3498408437
 10
-14.6430059428
 20
18.2537805912
 10
-14.9816462894
 20
18.1723947529
 10
-15.3150598696
 20
18.1055428481
 10
-15.6433626995
 20
18.0526715753
 10
-15.9612452128
 20
18.0110761735
 10
-16.2669934628
 20
17.9795702286
 10
-16.5621388143
 20
17.9574022881
 10
-16.8466511625
 20
17.9419738013
 10
-17.120660137
 20
17.9318342968
 10
-17.3843111482
 20
17.92668503
 10
-17.6377553076
 20
17.9256808994
  0
LWPOLYLINE
  5
24E
100
AcDbEntity
  8
SUPERFICI
100
AcDbPolyline
 62
250
  6
CONTINUOUS
 90
8
 70
0
 10
-17.6377552426
 20
-24.3665925256
 10
-17.8188304867
 20
-24.4076227752
 10
-17.9834293097
 20
-24.4685296984
 10
-18.1314654598
 20
-24.5490081103
 10
-18.2597937484
 20
-24.6525757799
 10
-18.3716115631
 20
-24.7735712421
 10
-18.4763524196
 20
-24.8979856578
 10
-18.5761847715
 20
-25.0213295397
  0
LINE
  5
24F
100
AcDbEntity
  8
SUPERFICI
100
AcDbLine
 62
250
  6
CONTINUOUS
 10
-20.0405586861
 20
-20.5887204226
 11
-20.0106839637
 21
-20.5842665196
  0
LINE
  5
250
100
AcDbEntity
  8
RACCORDO
100
AcDbLine
 62
250
  6
CONTINUOUS
 10
-20.0596774358
 20
-20.7729089347
 11
-20.0382877661
 21
-20.7699708836
  0
LINE
  5
251
100
AcDbEntity
  8
SUPERFICI
100
AcDbLine
 62
250
  6
CONTINUOUS
 10
-20.0490597388
 20
-20.5898840744
 11
-20.0405586861
 21
-20.5887204226
  0
LINE
  5
252
100
AcDbEntity
  8
RACCORDO
100
AcDbLine
 62
250
  6
CONTINUOUS
 10
-20.0602291673
 20
-20.7689039426
 11
-20.0780964562
 21
-20.7712542634
  0
LWPOLYLINE
  5
253
100
AcDbEntity
  8
SUPERFICI
100
AcDbPolyline
 62
250
  6
CONTINUOUS
 90
3
 70
0
 10
-17.6377553076
 20
-24.1092156179
 10
-17.4013055548
 20
-24.1312098585
 10
-17.1789617731
 20
-24.1784188884
  0
LINE
  5
254
100
AcDbEntity
  8
RACCORDO
100
AcDbLine
 62
250
  6
CONTINUOUS
 10
-15.2152820929
 20
-20.7688988827
 11
-15.1974615128
 21
-20.7712451634
  0
LINE
  5
255
100
AcDbEntity
  8
RACCORDO
100
AcDbLine
 62
250
  6
CONTINUOUS
 10
-15.2157847036
 20
-20.7729187985
 11
-15.237197394
 21
-20.7699743817
  0
LINE
  5
256
100
AcDbEntity
  8
SUPERFICI
100
AcDbLine
 62
250
  6
CONTINUOUS
 10
-15.226446138
 20
-20.5899300786
 11
-15.2349321696
 21
-20.5887392685
  0
LINE
  5
257
100
AcDbEntity
  8
SUPERFICI
100
AcDbLine
 62
250
  6
CONTINUOUS
 10
-15.2349321696
 20
-20.5887392685
 11
-15.2648266515
 21
-20.5842665196
  0
LINE
  5
258
100
AcDbEntity
  8
SUPERFICI
100
AcDbLine
 62
250
  6
CONTINUOUS
 10
-17.1789617731
 20
-24.1784188884
 11
-16.9761288315
 21
-24.2508427076
  0
LWPOLYLINE
  5
259
100
AcDbEntity
  8
SUPERFICI
100
AcDbPolyline
 62
250
  6
CONTINUOUS
 90
4
 70
0
 10
-17.1478574346
 20
-24.5461224186
 10
-17.2952797964
 20
-24.4661278629
 10
-17.4586078868
 20
-24.4061689461
 10
-17.6377552426
 20
-24.3665925256
  0
LWPOLYLINE
  5
25A
100
AcDbEntity
  8
SUPERFICI
100
AcDbPolyline
 62
250
  6
CONTINUOUS
 90
4
 70
0
 10
-16.9761288315
 20
-24.2508427076
 10
-16.7925864694
 20
-24.3546091656
 10
-16.627778375
 20
-24.4835904128
 10
-16.4790321648
 20
-24.6194029006
  0
LWPOLYLINE
  5
25B
100
AcDbEntity
  8
SUPERFICI
100
AcDbPolyline
 62
250
  6
CONTINUOUS
 90
8
 70
0
 10
-15.8892336201
 20
-26.2155583846
 10
-15.8982418256
 20
-26.2067640351
 10
-15.9161234907
 20
-26.1787474697
 10
-15.9429117609
 20
-26.1339840775
 10
-15.9794182037
 20
-26.0749887251
 10
-16.024946677
 20
-26.0034876878
 10
-16.0772689326
 20
-25.9205173308
 10
-16.1362100224
 20
-25.8279541859
  0
LWPOLYLINE
  5
25C
100
AcDbEntity
  8
RACCORDO
100
AcDbPolyline
 62
250
  6
CONTINUOUS
 90
5
 70
0
 10
-27.0244666364
 20
27.1581350506
 10
-27.0270824266
 20
27.2628305323
 10
-27.0284299313
 20
27.37104936
 10
-27.0283362201
 20
27.482904767
 10
-27.0263772203
 20
27.5982073459
  0
LWPOLYLINE
  5
25D
100
AcDbEntity
  8
0
100
AcDbPolyline
 62
7
  6
CONTINUOUS
 90
13
 70
0
 10
-19.9323329682
 20
28.6031318993
 10
-19.9088566324
 20
28.8527046284
 10
-19.8474892249
 20
29.1011737682
 10
-19.7483693891
 20
29.3422430173
 10
-19.6105489838
 20
29.5676684365
 10
-19.4387943413
 20
29.7724813711
 10
-19.240963095
 20
29.9572244091
 10
-19.0186833808
 20
30.1174176792
 10
-18.7748940824
 20
30.2490031963
 10
-18.5147422201
 20
30.356339532
 10
-18.238477676
 20
30.4388525427
 10
-17.9457812244
 20
30.489574669
 10
-17.6377553076
 20
30.5032302335
  0
LWPOLYLINE
  5
25E
100
AcDbEntity
  8
0
100
AcDbPolyline
 62
7
  6
CONTINUOUS
 90
13
 70
0
 10
-22.2323253086
 20
28.4382808263
 10
-22.1826629626
 20
28.9472132815
 10
-22.0571273586
 20
29.4500606961
 10
-21.85723385
 20
29.9345332674
 10
-21.5836900849
 20
30.3828339043
 10
-21.2459483196
 20
30.7883709247
 10
-20.8547379752
 20
31.1580606212
 10
-20.4084313711
 20
31.4846332947
 10
-19.9152072692
 20
31.7551759425
 10
-19.3905219683
 20
31.9744917552
 10
-18.8369854459
 20
32.1416677089
 10
-18.2520877741
 20
32.2446103393
 10
-17.6377553076
 20
32.273511488
  0
LWPOLYLINE
  5
25F
100
AcDbEntity
  8
0
100
AcDbPolyline
 62
7
  6
CONTINUOUS
 90
7
 70
0
 10
-13.1653009627
 20
27.5843972913
 10
-13.1265408238
 20
27.7268441106
 10
-13.094230255
 20
27.8696127971
 10
-13.0687087965
 20
28.0125245855
 10
-13.0503327578
 20
28.1553915997
 10
-13.0394759468
 20
28.2980162702
 10
-13.0365304203
 20
28.4401907293
  0
LWPOLYLINE
  5
260
100
AcDbEntity
  8
0
100
AcDbPolyline
 62
7
  6
CONTINUOUS
 90
7
 70
0
 10
-13.1653009627
 20
27.5843972913
 10
-13.2534856715
 20
27.325480349
 10
-13.3670403248
 20
27.0671786574
 10
-13.5048240369
 20
26.8113900322
 10
-13.6655875475
 20
26.5600468235
 10
-13.8479781832
 20
26.3151077974
 10
-14.0505451542
 20
26.0785496179
  0
LINE
  5
261
100
AcDbEntity
  8
SUPERFICI
100
AcDbLine
 62
250
  6
CONTINUOUS
 10
-20.4518363416
 20
-17.7887803794
 11
-20.4203278133
 21
-17.7840971272
  0
LINE
  5
262
100
AcDbEntity
  8
SUPERFICI
100
AcDbLine
 62
250
  6
CONTINUOUS
 10
-20.4624795911
 20
-17.7903100884
 11
-20.4518363416
 21
-17.7887803794
  0
LINE
  5
263
100
AcDbEntity
  8
RACCORDO
100
AcDbLine
 62
250
  6
CONTINUOUS
 10
-20.4554349055
 20
-17.9362516543
 11
-20.4308982401
 21
-17.9327873221
  0
LINE
  5
264
100
AcDbEntity
  8
SUPERFICI
100
AcDbLine
 62
250
  6
CONTINUOUS
 10
-14.8130018748
 20
-17.790312748
 11
-14.8237024607
 21
-17.7888240537
  0
LINE
  5
265
100
AcDbEntity
  8
RACCORDO
100
AcDbLine
 62
250
  6
CONTINUOUS
 10
-14.8201449325
 20
-17.936249167
 11
-14.8446480324
 21
-17.9327822824
  0
LINE
  5
266
100
AcDbEntity
  8
SUPERFICI
100
AcDbLine
 62
250
  6
CONTINUOUS
 10
-14.8237024607
 20
-17.7888240537
 11
-14.8551828018
 21
-17.7840971272
  0
LWPOLYLINE
  5
267
100
AcDbEntity
  8
SUPERFICI
100
AcDbPolyline
 62
250
  6
CONTINUOUS
 90
5
 70
0
 10
-16.4790321648
 20
-24.6194029006
 10
-16.3461662633
 20
-24.7599426157
 10
-16.2272725891
 20
-24.9073135714
 10
-16.1148712734
 20
-25.049444259
 10
-16.0107579227
 20
-25.1843611752
  0
LWPOLYLINE
  5
268
100
AcDbEntity
  8
SUPERFICI
100
AcDbPolyline
 62
250
  6
CONTINUOUS
 90
4
 70
0
 10
-16.8009166992
 20
-24.8958415924
 10
-16.9065368085
 20
-24.7709485759
 10
-17.0192649516
 20
-24.6496545418
 10
-17.1478574346
 20
-24.5461224186
  0
LWPOLYLINE
  5
269
100
AcDbEntity
  8
SUPERFICI
100
AcDbPolyline
 62
250
  6
CONTINUOUS
 90
3
 70
0
 10
-16.6070099444
 20
-25.145555593
 10
-16.7004263922
 20
-25.0198877484
 10
-16.8009166992
 20
-24.8958415924
  0
LWPOLYLINE
  5
26A
100
AcDbEntity
  8
SUPERFICI
100
AcDbPolyline
 62
250
  6
CONTINUOUS
 90
8
 70
0
 10
-16.0107579227
 20
-25.1843611752
 10
-15.8317195946
 20
-25.4323232044
 10
-15.7581452042
 20
-25.5397231747
 10
-15.6962575808
 20
-25.6357318779
 10
-15.6431446066
 20
-25.7126807456
 10
-15.6018373712
 20
-25.7680135883
 10
-15.5769798076
 20
-25.8042865955
 10
-15.5696337225
 20
-25.8214997672
  0
LINE
  5
26B
100
AcDbEntity
  8
RACCORDO
100
AcDbLine
 62
250
  6
CONTINUOUS
 10
-21.1995917664
 20
-15.8894294648
 11
-21.1999894787
 21
-15.8888466686
  0
LWPOLYLINE
  5
26C
100
AcDbEntity
  8
SUPERFICI
100
AcDbPolyline
 62
250
  6
CONTINUOUS
 90
6
 70
0
 10
-16.1362100224
 20
-25.8279541859
 10
-16.2020659693
 20
-25.7275992537
 10
-16.273281138
 20
-25.6202252331
 10
-16.3497637723
 20
-25.5073738401
 10
-16.4316916252
 20
-25.3904571363
 10
-16.6070099444
 20
-25.145555593
  0
LWPOLYLINE
  5
26D
100
AcDbEntity
  8
RACCORDO
100
AcDbPolyline
 62
250
  6
CONTINUOUS
 90
3
 70
0
 10
-21.189226495
 20
-15.9060611751
 10
-21.1962033926
 20
-15.8949507962
 10
-21.1995917664
 20
-15.8894294648
  0
LINE
  5
26E
100
AcDbEntity
  8
RACCORDO
100
AcDbLine
 62
250
  6
CONTINUOUS
 10
-21.1710897034
 20
-15.9354586419
 11
-21.189226495
 21
-15.9060611751
  0
LWPOLYLINE
  5
26F
100
AcDbEntity
  8
RACCORDO
100
AcDbPolyline
 62
7
  6
CONTINUOUS
 90
5
 70
0
 10
-21.1636893388
 20
-15.9932516765
 10
-21.1449560963
 20
-16.0247822742
 10
-21.0886587394
 20
-16.1231648407
 10
-21.0043547582
 20
-16.2799529779
 10
-20.9024757911
 20
-16.4855277002
  0
LWPOLYLINE
  5
270
100
AcDbEntity
  8
RACCORDO
100
AcDbPolyline
 62
250
  6
CONTINUOUS
 90
3
 70
0
 10
-21.1292838349
 20
-16.0051571387
 10
-21.1419081288
 20
-15.9837872639
 10
-21.1710897034
 20
-15.9354586419
  0
LWPOLYLINE
  5
271
100
AcDbEntity
  8
RACCORDO
100
AcDbPolyline
 62
250
  6
CONTINUOUS
 90
3
 70
0
 10
-21.08151847
 20
-16.0878642098
 10
-21.0991697244
 20
-16.0568321607
 10
-21.1292838349
 20
-16.0051571387
  0
LWPOLYLINE
  5
272
100
AcDbEntity
  8
0
100
AcDbPolyline
 62
7
  6
CONTINUOUS
 90
3
 70
0
 10
-20.9773400936
 20
-15.4159246836
 10
-21.0987836547
 20
-15.1948088787
 10
-21.1962357466
 20
-15.0106060929
  0
LINE
  5
273
100
AcDbEntity
  8
0
100
AcDbLine
 62
7
  6
CONTINUOUS
 10
-21.1962357466
 20
-15.0106060929
 11
-21.2675108739
 21
-14.8682682551
  0
LINE
  5
274
100
AcDbEntity
  8
0
100
AcDbLine
 62
7
  6
CONTINUOUS
 10
-20.8497131713
 20
-15.6717818336
 11
-20.9773400936
 21
-15.4159246836
  0
LINE
  5
275
100
AcDbEntity
  8
0
100
AcDbLine
 62
7
  6
CONTINUOUS
 10
-20.7152088289
 20
-15.9570788641
 11
-20.8497131713
 21
-15.6717818336
  0
LWPOLYLINE
  5
276
100
AcDbEntity
  8
SUPERFICI
100
AcDbPolyline
 62
250
  6
CONTINUOUS
 90
3
 70
0
 10
-20.9064731361
 20
-16.2120326316
 10
-20.9892295577
 20
-16.0351951875
 10
-21.1266455601
 20
-15.753379194
  0
LWPOLYLINE
  5
277
100
AcDbEntity
  8
SUPERFICI
100
AcDbPolyline
 62
250
  6
CONTINUOUS
 90
3
 70
0
 10
-21.1266455601
 20
-15.753379194
 10
-21.1731894641
 20
-15.6535207484
 10
-21.1995735531
 20
-15.5826065771
  0
LWPOLYLINE
  5
278
100
AcDbEntity
  8
RACCORDO
100
AcDbPolyline
 62
250
  6
CONTINUOUS
 90
10
 70
0
 10
-20.8430412877
 20
-16.5549440888
 10
-20.875970795
 20
-16.4839178974
 10
-20.9075105187
 20
-16.4184902653
 10
-20.9374840576
 20
-16.3578544557
 10
-20.9658504258
 20
-16.3019337858
 10
-20.9925603362
 20
-16.2508049384
 10
-21.0174935633
 20
-16.2038912259
 10
-21.0406479263
 20
-16.161171392
 10
-21.0620105123
 20
-16.1226666928
 10
-21.08151847
 20
-16.0878642098
  0
LINE
  5
279
100
AcDbEntity
  8
0
100
AcDbLine
 62
7
  6
CONTINUOUS
 10
-20.5745211254
 20
-16.2673230102
 11
-20.7152088289
 21
-15.9570788641
  0
LINE
  5
27A
100
AcDbEntity
  8
SUPERFICI
100
AcDbLine
 62
250
  6
CONTINUOUS
 10
-20.8184992204
 20
-16.4093515816
 11
-20.9064731361
 21
-16.2120326316
  0
LINE
  5
27B
100
AcDbEntity
  8
RACCORDO
100
AcDbLine
 62
7
  6
CONTINUOUS
 10
-20.9024757911
 20
-16.4855277002
 11
-20.7929917077
 21
-16.731680005
  0
LWPOLYLINE
  5
27C
100
AcDbEntity
  8
SUPERFICI
100
AcDbPolyline
 62
7
  6
CONTINUOUS
 90
4
 70
0
 10
-20.9787572646
 20
-16.1336678135
 10
-20.9406530764
 20
-16.220018719
 10
-20.8969403524
 20
-16.3218053729
 10
-20.850744594
 20
-16.4331562288
  0
LWPOLYLINE
  5
27D
100
AcDbEntity
  8
RACCORDO
100
AcDbPolyline
 62
250
  6
CONTINUOUS
 90
4
 70
0
 10
-20.7368982619
 20
-16.8024207556
 10
-20.7732189487
 20
-16.7136613921
 10
-20.8087439677
 20
-16.6315034608
 10
-20.8430412877
 20
-16.5549440888
  0
LINE
  5
27E
100
AcDbEntity
  8
SUPERFICI
100
AcDbLine
 62
7
  6
CONTINUOUS
 10
-20.850744594
 20
-16.4331562288
 11
-20.8027061193
 21
-16.5539568587
  0
LINE
  5
27F
100
AcDbEntity
  8
RACCORDO
100
AcDbLine
 62
7
  6
CONTINUOUS
 10
-20.7929917077
 20
-16.731680005
 11
-20.6867461154
 21
-17.0064059463
  0
LINE
  5
280
100
AcDbEntity
  8
SUPERFICI
100
AcDbLine
 62
7
  6
CONTINUOUS
 10
-20.8027061193
 20
-16.5539568587
 11
-20.7531913386
 21
-16.6850005333
  0
LWPOLYLINE
  5
281
100
AcDbEntity
  8
SUPERFICI
100
AcDbPolyline
 62
7
  6
CONTINUOUS
 90
3
 70
0
 10
-20.7531913386
 20
-16.6850005333
 10
-20.7030120569
 20
-16.8262231572
 10
-20.6531168031
 20
-16.9774294795
  0
LWPOLYLINE
  5
282
100
AcDbEntity
  8
SUPERFICI
100
AcDbPolyline
 62
250
  6
CONTINUOUS
 90
3
 70
0
 10
-20.6411500585
 20
-16.875244711
 10
-20.72845391
 20
-16.629050469
 10
-20.8184992204
 20
-16.4093515816
  0
LWPOLYLINE
  5
283
100
AcDbEntity
  8
RACCORDO
100
AcDbPolyline
 62
7
  6
CONTINUOUS
 90
5
 70
0
 10
-20.6867461154
 20
-17.0064059463
 10
-20.5927160176
 20
-17.2984106506
 10
-20.5161672955
 20
-17.5997630346
 10
-20.4607405825
 20
-17.8997966074
 10
-20.4554348819
 20
-17.936251641
  0
LWPOLYLINE
  5
284
100
AcDbEntity
  8
SUPERFICI
100
AcDbPolyline
 62
7
  6
CONTINUOUS
 90
3
 70
0
 10
-20.6531168031
 20
-16.9774294795
 10
-20.6043191589
 20
-17.1393598374
 10
-20.5574367049
 20
-17.3142113835
  0
LINE
  5
285
100
AcDbEntity
  8
SUPERFICI
100
AcDbLine
 62
250
  6
CONTINUOUS
 10
-20.5598858597
 20
-17.1498734449
 11
-20.6411500585
 21
-16.875244711
  0
LWPOLYLINE
  5
286
100
AcDbEntity
  8
0
100
AcDbPolyline
 62
7
  6
CONTINUOUS
 90
3
 70
0
 10
-20.3408965855
 20
-16.9647000326
 10
-20.4475403459
 20
-16.6039443973
 10
-20.5745211254
 20
-16.2673230102
  0
LWPOLYLINE
  5
287
100
AcDbEntity
  8
RACCORDO
100
AcDbPolyline
 62
250
  6
CONTINUOUS
 90
6
 70
0
 10
-20.5513021777
 20
-17.3509447772
 10
-20.5877427902
 20
-17.226372242
 10
-20.6248129555
 20
-17.1093103115
 10
-20.6621392301
 20
-16.9998062457
 10
-20.6997927297
 20
-16.8978127846
 10
-20.7368982619
 20
-16.8024207556
  0
LINE
  5
288
100
AcDbEntity
  8
SUPERFICI
100
AcDbLine
 62
250
  6
CONTINUOUS
 10
-20.4856374772
 20
-17.4524520762
 11
-20.5598858597
 21
-17.1498734449
  0
LWPOLYLINE
  5
289
100
AcDbEntity
  8
SUPERFICI
100
AcDbPolyline
 62
7
  6
CONTINUOUS
 90
4
 70
0
 10
-20.5574367049
 20
-17.3142113835
 10
-20.5147625177
 20
-17.49962153
 10
-20.4783299452
 20
-17.691559343
 10
-20.4623462392
 20
-17.790290793
  0
LWPOLYLINE
  5
28A
100
AcDbEntity
  8
RACCORDO
100
AcDbPolyline
 62
250
  6
CONTINUOUS
 90
3
 70
0
 10
-20.485863715
 20
-17.6251796372
 10
-20.5171268329
 20
-17.4837953098
 10
-20.5513021777
 20
-17.3509447772
  0
LINE
  5
28B
100
AcDbEntity
  8
RACCORDO
100
AcDbLine
 62
7
  6
CONTINUOUS
 10
-20.0276971002
 20
-23.6820836937
 11
-20.1563660656
 21
-22.8267102707
  0
LINE
  5
28C
100
AcDbEntity
  8
SUPERFICI
100
AcDbLine
 62
7
  6
CONTINUOUS
 10
-20.0276971002
 20
-23.6820836937
 11
-19.7058769915
 21
-25.8214991097
  0
LINE
  5
28D
100
AcDbEntity
  8
RACCORDO
100
AcDbLine
 62
7
  6
CONTINUOUS
 10
-21.1999895008
 20
-15.8888465213
 11
-27.4656936758
 21
25.7646878183
  0
LWPOLYLINE
  5
28E
100
AcDbEntity
  8
RACCORDO
100
AcDbPolyline
 62
250
  6
CONTINUOUS
 90
10
 70
0
 10
-26.9548782229
 20
26.3479737585
 10
-26.9655638106
 20
26.4275026518
 10
-26.9757424178
 20
26.5095295896
 10
-26.9852190025
 20
26.5939029377
 10
-26.9939409794
 20
26.6807343973
 10
-27.001975346
 20
26.7704006811
 10
-27.0091333796
 20
26.862869572
 10
-27.0152720411
 20
26.9581220573
 10
-27.020468869
 20
27.0565553744
 10
-27.0244666364
 20
27.1581350506
  0
LINE
  5
28F
100
AcDbEntity
  8
0
100
AcDbLine
 62
7
  6
CONTINUOUS
 10
-19.7359574843
 20
-20.8844256431
 11
-19.7682934758
 21
-20.5171986286
  0
LINE
  5
290
100
AcDbEntity
  8
SUPERFICI
100
AcDbLine
 62
250
  6
CONTINUOUS
 10
-19.960785481
 20
-21.1111887197
 11
-19.977571352
 21
-20.8508298211
  0
LWPOLYLINE
  5
291
100
AcDbEntity
  8
RACCORDO
100
AcDbPolyline
 62
250
  6
CONTINUOUS
 90
6
 70
0
 10
-19.9948569195
 20
-21.3135551989
 10
-19.9989619129
 20
-21.2027179209
 10
-20.0052692355
 20
-21.0925751891
 10
-20.0138386426
 20
-20.9843458748
 10
-20.0248213086
 20
-20.8768111066
 10
-20.0382877746
 20
-20.7699708847
  0
LWPOLYLINE
  5
292
100
AcDbEntity
  8
SUPERFICI
100
AcDbPolyline
 62
7
  6
CONTINUOUS
 90
3
 70
0
 10
-19.9997430881
 20
-21.1192315067
 10
-19.9966038417
 20
-21.2247028983
 10
-19.9954204393
 20
-21.3271274202
  0
LWPOLYLINE
  5
293
100
AcDbEntity
  8
0
100
AcDbPolyline
 62
7
  6
CONTINUOUS
 90
9
 70
0
 10
-21.0273387083
 20
28.541215934
 10
-21.0234466563
 20
28.3570037119
 10
-21.0016444212
 20
28.173891168
 10
-20.9639472189
 20
27.9928772654
 10
-20.9135666208
 20
27.8152690617
 10
-20.8509416854
 20
27.6412740258
 10
-20.7733672353
 20
27.4706061388
 10
-20.6806259476
 20
27.3041436385
 10
-20.5753632927
 20
27.1433272929
  0
LWPOLYLINE
  5
294
100
AcDbEntity
  8
0
100
AcDbPolyline
 62
7
  6
CONTINUOUS
 90
7
 70
0
 10
-22.2389801948
 20
28.4401907293
 10
-22.2360346683
 20
28.2980162702
 10
-22.2251778573
 20
28.1553915997
 10
-22.2068018186
 20
28.0125245855
 10
-22.1812803601
 20
27.8696127971
 10
-22.1489697913
 20
27.7268441106
 10
-22.1102096524
 20
27.5843972913
  0
LINE
  5
295
100
AcDbEntity
  8
0
100
AcDbLine
 62
250
  6
CONTINUOUS
 10
-17.6380962404
 20
26.7757825468
 11
-17.6378274471
 21
26.7356709739
  0
LINE
  5
296
100
AcDbEntity
  8
0
100
AcDbLine
 62
7
  6
CONTINUOUS
 10
-18.1730463979
 20
25.1529499513
 11
-18.168672527
 21
23.0748746013
  0
LINE
  5
297
100
AcDbEntity
  8
SUPERFICI
100
AcDbLine
 62
7
  6
CONTINUOUS
 10
-19.6377053076
 20
11.9805190435
 11
-19.6377053076
 21
9.8828814857
  0
LINE
  5
298
100
AcDbEntity
  8
SUPERFICI
100
AcDbLine
 62
7
  6
CONTINUOUS
 10
-19.6377053076
 20
9.1757891635
 11
-19.6377053076
 21
7.5806290435
  0
LINE
  5
299
100
AcDbEntity
  8
SUPERFICI
100
AcDbLine
 62
250
  6
CONTINUOUS
 10
-17.6377552444
 20
-24.36672028
 11
-17.6377553076
 21
-24.1092145034
  0
LINE
  5
29A
100
AcDbEntity
  8
RACCORDO
100
AcDbLine
 62
250
  6
CONTINUOUS
 10
-17.6377553076
 20
22.603613994
 11
-17.6377553076
 21
-24.1092156179
  0
LINE
  5
29B
100
AcDbEntity
  8
0
100
AcDbLine
 62
7
  6
CONTINUOUS
 10
-17.6377553539
 20
26.4718230805
 11
-17.6377555684
 21
26.2941882103
  0
LINE
  5
29C
100
AcDbEntity
  8
0
100
AcDbLine
 62
250
  6
CONTINUOUS
 10
-17.6376499418
 20
26.2936348192
 11
-17.6376499664
 21
23.1595244224
  0
LINE
  5
29D
100
AcDbEntity
  8
SUPERFICI
100
AcDbLine
 62
7
  6
CONTINUOUS
 10
-20.1377352274
 20
7.4320426654
 11
-20.1377318533
 21
12.1823839113
  0
LINE
  5
29E
100
AcDbEntity
  8
0
100
AcDbLine
 62
250
  6
CONTINUOUS
 10
-17.6377553076
 20
26.7757825119
 11
-17.6380283149
 21
30.7655545977
  0
LINE
  5
29F
100
AcDbEntity
  8
0
100
AcDbLine
 62
250
  6
CONTINUOUS
 10
-17.6378274471
 20
26.7356709739
 11
-17.6377553076
 21
26.4718570692
  0
LINE
  5
2A0
100
AcDbEntity
  8
0
100
AcDbLine
 62
250
  6
CONTINUOUS
 10
-17.6380283149
 20
30.7655545977
 11
-17.6377553076
 21
33.0925652088
  0
LINE
  5
2A1
100
AcDbEntity
  8
0
100
AcDbLine
 62
7
  6
CONTINUOUS
 10
-17.1068381
 20
23.0748733236
 11
-17.1024642172
 21
25.1529499513
  0
LWPOLYLINE
  5
2A2
100
AcDbEntity
  8
SUPERFICI
100
AcDbPolyline
 62
7
  6
CONTINUOUS
 90
5
 70
0
 10
-19.9954204393
 20
-21.3271274202
 10
-19.9959114908
 20
-21.4260342037
 10
-19.9978122519
 20
-21.5212238791
 10
-20.0009214887
 20
-21.6127176398
 10
-20.0050541442
 20
-21.7004160935
  0
LWPOLYLINE
  5
2A3
100
AcDbEntity
  8
RACCORDO
100
AcDbPolyline
 62
7
  6
CONTINUOUS
 90
3
 70
0
 10
-20.0151067805
 20
-21.3368799248
 10
-20.0172847804
 20
-21.6504082381
 10
-20.0349124728
 20
-21.9382640835
  0
LWPOLYLINE
  5
2A4
100
AcDbEntity
  8
RACCORDO
100
AcDbPolyline
 62
250
  6
CONTINUOUS
 90
3
 70
0
 10
-17.6370066077
 20
36.5216827842
 10
-17.6371372985
 20
36.5083302224
 10
-17.6377553076
 20
33.0925652088
  0
LWPOLYLINE
  5
2A5
100
AcDbEntity
  8
0
100
AcDbPolyline
 62
7
  6
CONTINUOUS
 90
3
 70
0
 10
-19.7257207967
 20
-21.6198313228
 10
-19.7217665913
 20
-21.2541806431
 10
-19.7359574843
 20
-20.8844256431
  0
LWPOLYLINE
  5
2A6
100
AcDbEntity
  8
RACCORDO
100
AcDbPolyline
 62
250
  6
CONTINUOUS
 90
4
 70
0
 10
-19.9960062974
 20
-21.6273543423
 10
-19.993521757
 20
-21.5258734095
 10
-19.9930091958
 20
-21.4214304094
 10
-19.9948569195
 20
-21.3135551989
  0
LWPOLYLINE
  5
2A7
100
AcDbEntity
  8
SUPERFICI
100
AcDbPolyline
 62
250
  6
CONTINUOUS
 90
3
 70
0
 10
-19.9666410854
 20
-21.625934962
 10
-19.9579413414
 20
-21.3665926593
 10
-19.960785481
 20
-21.1111887197
  0
LINE
  5
2A8
100
AcDbEntity
  8
RACCORDO
100
AcDbLine
 62
7
  6
CONTINUOUS
 10
-20.0345499991
 20
-21.57406921
 11
-20.0483295471
 21
-21.8860022415
  0
LINE
  5
2A9
100
AcDbEntity
  8
SUPERFICI
100
AcDbLine
 62
7
  6
CONTINUOUS
 10
-20.0050541442
 20
-21.7004160935
 11
-20.0100357643
 21
-21.7842643318
  0
LINE
  5
2AA
100
AcDbEntity
  8
SUPERFICI
100
AcDbLine
 62
250
  6
CONTINUOUS
 10
-19.9837145859
 20
-21.8830977882
 11
-19.9666410854
 21
-21.625934962
  0
LWPOLYLINE
  5
2AB
100
AcDbEntity
  8
RACCORDO
100
AcDbPolyline
 62
250
  6
CONTINUOUS
 90
4
 70
0
 10
-20.0114405413
 20
-21.8991179373
 10
-20.0050374632
 20
-21.8139766061
 10
-19.9998492619
 20
-21.7236270228
 10
-19.9960062974
 20
-21.6273543423
  0
LINE
  5
2AC
100
AcDbEntity
  8
0
100
AcDbLine
 62
7
  6
CONTINUOUS
 10
-19.7534803762
 20
-21.9761869589
 11
-19.7257207967
 21
-21.6198313228
  0
LWPOLYLINE
  5
2AD
100
AcDbEntity
  8
RACCORDO
100
AcDbPolyline
 62
7
  6
CONTINUOUS
 90
5
 70
0
 10
-20.0483295471
 20
-21.8860022415
 10
-20.0731078032
 20
-22.1674362688
 10
-20.1021536388
 20
-22.4024190789
 10
-20.1288056417
 20
-22.580395467
 10
-20.14777758
 20
-22.6911730268
  0
LINE
  5
2AE
100
AcDbEntity
  8
SUPERFICI
100
AcDbLine
 62
250
  6
CONTINUOUS
 10
-20.0065241817
 20
-22.1160358083
 11
-19.9837145859
 21
-21.8830977882
  0
LWPOLYLINE
  5
2AF
100
AcDbEntity
  8
RACCORDO
100
AcDbPolyline
 62
7
  6
CONTINUOUS
 90
5
 70
0
 10
-20.0349124728
 20
-21.9382640835
 10
-20.0619629053
 20
-22.19281698
 10
-20.0932004514
 20
-22.4089562757
 10
-20.1229098881
 20
-22.5771964136
 10
-20.1447692172
 20
-22.6833643559
  0
LWPOLYLINE
  5
2B0
100
AcDbEntity
  8
RACCORDO
100
AcDbPolyline
 62
250
  6
CONTINUOUS
 90
4
 70
0
 10
-20.0333522965
 20
-22.1221650537
 10
-20.0256377519
 20
-22.0532121611
 10
-20.0183479266
 20
-21.9789493665
 10
-20.0114405413
 20
-21.8991179373
  0
LINE
  5
2B1
100
AcDbEntity
  8
SUPERFICI
100
AcDbLine
 62
250
  6
CONTINUOUS
 10
-20.0332705107
 20
-22.3211369277
 11
-20.0065241817
 21
-22.1160358083
  0
LINE
  5
2B2
100
AcDbEntity
  8
0
100
AcDbLine
 62
7
  6
CONTINUOUS
 10
-19.7993850542
 20
-22.3130390782
 11
-19.7534803762
 21
-21.9761869589
  0
LINE
  5
2B3
100
AcDbEntity
  8
0
100
AcDbLine
 62
7
  6
CONTINUOUS
 10
-19.846454003
 20
-22.6171175789
 11
-19.7993850542
 21
-22.3130390782
  0
LWPOLYLINE
  5
2B4
100
AcDbEntity
  8
SUPERFICI
100
AcDbPolyline
 62
250
  6
CONTINUOUS
 90
3
 70
0
 10
-20.0704052979
 20
-22.5691102399
 10
-20.059863092
 20
-22.5025094509
 10
-20.0332705107
 20
-22.3211369277
  0
LWPOLYLINE
  5
2B5
100
AcDbEntity
  8
RACCORDO
100
AcDbPolyline
 62
250
  6
CONTINUOUS
 90
8
 70
0
 10
-20.0857095266
 20
-22.4837510555
 10
-20.0788623176
 20
-22.4433291289
 10
-20.0716729363
 20
-22.3997223636
 10
-20.0642921258
 20
-22.3522976394
 10
-20.0566833897
 20
-22.301116381
 10
-20.0488679611
 20
-22.2461171637
 10
-20.041106383
 20
-22.186482593
 10
-20.0333522965
 20
-22.1221650537
  0
LINE
  5
2B6
100
AcDbEntity
  8
RACCORDO
100
AcDbLine
 62
250
  6
CONTINUOUS
 10
-20.0922353187
 20
-22.5210197372
 11
-20.0857095266
 21
-22.4837510555
  0
LINE
  5
2B7
100
AcDbEntity
  8
0
100
AcDbLine
 62
7
  6
CONTINUOUS
 10
-19.8927021505
 20
-22.8814512228
 11
-19.846454003
 21
-22.6171175789
  0
LWPOLYLINE
  5
2B8
100
AcDbEntity
  8
RACCORDO
100
AcDbPolyline
 62
250
  6
CONTINUOUS
 90
3
 70
0
 10
-20.1098962802
 20
-22.6153323512
 10
-20.104370136
 20
-22.5865409238
 10
-20.0922353187
 20
-22.5210197372
  0
LWPOLYLINE
  5
2B9
100
AcDbEntity
  8
RACCORDO
100
AcDbPolyline
 62
250
  6
CONTINUOUS
 90
3
 70
0
 10
-20.1244836417
 20
-22.6874709083
 10
-20.1199619957
 20
-22.6655122978
 10
-20.1098962802
 20
-22.6153323512
  0
LINE
  5
2BA
100
AcDbEntity
  8
0
100
AcDbLine
 62
7
  6
CONTINUOUS
 10
-19.9401145688
 20
-23.1017610985
 11
-19.8927021505
 21
-22.8814512228
  0
LWPOLYLINE
  5
2BB
100
AcDbEntity
  8
RACCORDO
100
AcDbPolyline
 62
250
  6
CONTINUOUS
 90
3
 70
0
 10
-20.1363022468
 20
-22.7420786349
 10
-20.1326486847
 20
-22.7254944879
 10
-20.1244836417
 20
-22.6874709083
  0
LINE
  5
2BC
100
AcDbEntity
  8
RACCORDO
100
AcDbLine
 62
250
  6
CONTINUOUS
 10
-20.1427397716
 20
-22.7704122733
 11
-20.1363022468
 21
-22.7420786349
  0
LWPOLYLINE
  5
2BD
100
AcDbEntity
  8
RACCORDO
100
AcDbPolyline
 62
250
  6
CONTINUOUS
 90
4
 70
0
 10
-20.1520480257
 20
-22.8095583539
 10
-20.1501781045
 20
-22.8019469666
 10
-20.1479994128
 20
-22.7928908324
 10
-20.1427397716
 20
-22.7704122733
  0
LINE
  5
2BE
100
AcDbEntity
  8
RACCORDO
100
AcDbLine
 62
250
  6
CONTINUOUS
 10
-20.1561914663
 20
-22.8260254305
 11
-20.1520480257
 21
-22.8095583539
  0
LWPOLYLINE
  5
2BF
100
AcDbEntity
  8
RACCORDO
100
AcDbPolyline
 62
250
  6
CONTINUOUS
 90
18
 70
0
 10
-8.7533830548
 20
24.3722904861
 10
-8.7931311006
 20
24.2419040269
 10
-8.8354444101
 20
24.1084013226
 10
-8.8804204607
 20
23.9718122897
 10
-8.9282353443
 20
23.8321069284
 10
-8.9791551888
 20
23.6892656718
 10
-9.0332681387
 20
23.5433849874
 10
-9.0907749448
 20
23.3944002458
 10
-9.1521334541
 20
23.2420674845
 10
-9.2174591546
 20
23.0864288985
 10
-9.2869734572
 20
22.9275199077
 10
-9.3613332419
 20
22.7651165074
 10
-9.4406800797
 20
22.5992698208
 10
-9.525258938
 20
22.4300823475
 10
-9.6159214719
 20
22.2574589475
 10
-9.7127981816
 20
22.0814957561
 10
-9.8161823876
 20
21.9023675873
 10
-9.9272000742
 20
21.7201816997
  0
LINE
  5
2C0
100
AcDbEntity
  8
RACCORDO
100
AcDbLine
 62
250
  6
CONTINUOUS
 10
-15.1220008191
 20
-22.8154674248
 11
-15.1193227416
 21
-22.8259689732
  0
LINE
  5
2C1
100
AcDbEntity
  8
RACCORDO
100
AcDbLine
 62
250
  6
CONTINUOUS
 10
-15.1235686022
 20
-22.8092338661
 11
-15.1220008191
 21
-22.8154674248
  0
LINE
  5
2C2
100
AcDbEntity
  8
0
100
AcDbLine
 62
7
  6
CONTINUOUS
 10
-20.2479597492
 20
-17.3421204247
 11
-20.3408965855
 21
-16.9647000326
  0
LINE
  5
2C3
100
AcDbEntity
  8
RACCORDO
100
AcDbLine
 62
250
  6
CONTINUOUS
 10
-15.1193227416
 20
-22.8259689732
 11
-15.1191445496
 21
-22.826710271
  0
LINE
  5
2C4
100
AcDbEntity
  8
RACCORDO
100
AcDbLine
 62
250
  6
CONTINUOUS
 10
-15.1303753369
 20
-22.7808761019
 11
-15.1235686022
 21
-22.8092338661
  0
LWPOLYLINE
  5
2C5
100
AcDbEntity
  8
RACCORDO
100
AcDbPolyline
 62
7
  6
CONTINUOUS
 90
3
 70
0
 10
-15.1231176084
 20
-22.7162616306
 10
-15.1313615126
 20
-22.6805498737
 10
-15.1546981272
 20
-22.566297796
  0
LINE
  5
2C6
100
AcDbEntity
  8
RACCORDO
100
AcDbLine
 62
250
  6
CONTINUOUS
 10
-15.1406591644
 20
-22.7356641394
 11
-15.1303753369
 21
-22.7808761019
  0
LINE
  5
2C7
100
AcDbEntity
  8
0
100
AcDbLine
 62
7
  6
CONTINUOUS
 10
-15.3365645928
 20
-23.0961109981
 11
-15.2992500757
 21
-23.2660497171
  0
LINE
  5
2C8
100
AcDbEntity
  8
0
100
AcDbLine
 62
7
  6
CONTINUOUS
 10
-15.3833975066
 20
-22.8781028579
 11
-15.3365645928
 21
-23.0961109981
  0
LWPOLYLINE
  5
2C9
100
AcDbEntity
  8
RACCORDO
100
AcDbPolyline
 62
250
  6
CONTINUOUS
 90
3
 70
0
 10
-15.1550211321
 20
-22.6684332256
 10
-15.149726521
 20
-22.6935112176
 10
-15.1406591644
 20
-22.7356641394
  0
LINE
  5
2CA
100
AcDbEntity
  8
0
100
AcDbLine
 62
7
  6
CONTINUOUS
 10
-20.1687298369
 20
-17.7301613862
 11
-20.2479597492
 21
-17.3421204247
  0
LINE
  5
2CB
100
AcDbEntity
  8
RACCORDO
100
AcDbLine
 62
250
  6
CONTINUOUS
 10
-15.1607717001
 20
-22.6397697608
 11
-15.1550211321
 21
-22.6684332256
  0
LINE
  5
2CC
100
AcDbEntity
  8
SUPERFICI
100
AcDbLine
 62
250
  6
CONTINUOUS
 10
-20.4193889748
 20
-17.7839973379
 11
-20.4856374772
 21
-17.4524520762
  0
LWPOLYLINE
  5
2CD
100
AcDbEntity
  8
RACCORDO
100
AcDbPolyline
 62
7
  6
CONTINUOUS
 90
3
 70
0
 10
-15.121020832
 20
-22.7263969313
 10
-15.126873026
 20
-22.6958277377
 10
-15.1436786801
 20
-22.598896559
  0
LINE
  5
2CE
100
AcDbEntity
  8
0
100
AcDbLine
 62
7
  6
CONTINUOUS
 10
-15.4291841942
 20
-22.6163882109
 11
-15.3833975066
 21
-22.8781028579
  0
LINE
  5
2CF
100
AcDbEntity
  8
RACCORDO
100
AcDbLine
 62
7
  6
CONTINUOUS
 10
-15.1546981272
 20
-22.566297796
 11
-15.1861824616
 21
-22.3846659169
  0
LWPOLYLINE
  5
2D0
100
AcDbEntity
  8
RACCORDO
100
AcDbPolyline
 62
250
  6
CONTINUOUS
 90
5
 70
0
 10
-15.197716666
 20
-22.4374522001
 10
-15.1892559426
 20
-22.4866484385
 10
-15.1813568039
 20
-22.5313744572
 10
-15.1739903728
 20
-22.5716815292
 10
-15.1607717001
 20
-22.6397697608
  0
LWPOLYLINE
  5
2D1
100
AcDbEntity
  8
RACCORDO
100
AcDbPolyline
 62
250
  6
CONTINUOUS
 90
3
 70
0
 10
-20.4308625954
 20
-17.9327822841
 10
-20.457096957
 20
-17.774841962
 10
-20.485863715
 20
-17.6251796372
  0
LINE
  5
2D2
100
AcDbEntity
  8
0
100
AcDbLine
 62
7
  6
CONTINUOUS
 10
-15.4760906004
 20
-22.3138711777
 11
-15.4291841942
 21
-22.6163882109
  0
LINE
  5
2D3
100
AcDbEntity
  8
RACCORDO
100
AcDbLine
 62
250
  6
CONTINUOUS
 10
-26.9321654695
 20
26.1953763307
 11
-26.9438036652
 21
26.2709597439
  0
LINE
  5
2D4
100
AcDbEntity
  8
SUPERFICI
100
AcDbLine
 62
7
  6
CONTINUOUS
 10
-20.0487366057
 20
-20.5899771994
 11
-20.4612093199
 21
-17.7902057589
  0
LINE
  5
2D5
100
AcDbEntity
  8
SUPERFICI
100
AcDbLine
 62
7
  6
CONTINUOUS
 10
-20.4203278133
 20
-17.7840971272
 11
-20.0106839637
 21
-20.5842665196
  0
LINE
  5
2D6
100
AcDbEntity
  8
RACCORDO
100
AcDbLine
 62
250
  6
CONTINUOUS
 10
-26.9438036652
 20
26.2709597439
 11
-26.9548782229
 21
26.3479737585
  0
LINE
  5
2D7
100
AcDbEntity
  8
SUPERFICI
100
AcDbLine
 62
7
  6
CONTINUOUS
 10
-20.1686519838
 20
-17.7301592646
 11
-19.8564157962
 21
-19.8997910778
  0
LINE
  5
2D8
100
AcDbEntity
  8
SUPERFICI
100
AcDbLine
 62
7
  6
CONTINUOUS
 10
-19.8564157962
 20
-19.8997910778
 11
-19.768293484
 21
-20.5171986285
  0
LWPOLYLINE
  5
2D9
100
AcDbEntity
  8
SUPERFICI
100
AcDbPolyline
 62
7
  6
CONTINUOUS
 90
6
 70
0
 10
-20.0490597388
 20
-20.5898840744
 10
-20.0374703991
 20
-20.6715518087
 10
-20.0237674216
 20
-20.786259019
 10
-20.0130722201
 20
-20.8993433474
 10
-20.0051345508
 20
-21.010679907
 10
-19.9997430881
 20
-21.1192315067
  0
LINE
  5
2DA
100
AcDbEntity
  8
RACCORDO
100
AcDbLine
 62
7
  6
CONTINUOUS
 10
-20.2006838761
 20
-19.7522878354
 11
-20.0596774394
 21
-20.7729089352
  0
LINE
  5
2DB
100
AcDbEntity
  8
RACCORDO
100
AcDbLine
 62
250
  6
CONTINUOUS
 10
-20.0382877746
 20
-20.7699708847
 11
-20.4308625954
 21
-17.9327822841
  0
LINE
  5
2DC
100
AcDbEntity
  8
RACCORDO
100
AcDbLine
 62
7
  6
CONTINUOUS
 10
-20.3674053409
 20
-18.5974269071
 11
-20.1578419466
 21
-20.1670999012
  0
LINE
  5
2DD
100
AcDbEntity
  8
RACCORDO
100
AcDbLine
 62
7
  6
CONTINUOUS
 10
-20.1578419466
 20
-20.1670999012
 11
-20.0780486984
 21
-20.7712482309
  0
LINE
  5
2DE
100
AcDbEntity
  8
SUPERFICI
100
AcDbLine
 62
250
  6
CONTINUOUS
 10
-19.977571352
 20
-20.8508298211
 11
-20.0099797938
 21
-20.5841913519
  0
LWPOLYLINE
  5
2DF
100
AcDbEntity
  8
RACCORDO
100
AcDbPolyline
 62
7
  6
CONTINUOUS
 90
4
 70
0
 10
-20.0780963475
 20
-20.7712542439
 10
-20.0608313036
 20
-20.9190088835
 10
-20.0378641043
 20
-21.2475877848
 10
-20.0345499991
 20
-21.57406921
  0
LWPOLYLINE
  5
2E0
100
AcDbEntity
  8
RACCORDO
100
AcDbPolyline
 62
7
  6
CONTINUOUS
 90
3
 70
0
 10
-20.0596776097
 20
-20.7729089621
 10
-20.0328356988
 20
-21.0128464058
 10
-20.0151067805
 20
-21.3368799248
  0
LWPOLYLINE
  5
2E1
100
AcDbEntity
  8
SUPERFICI
100
AcDbPolyline
 62
7
  6
CONTINUOUS
 90
3
 70
0
 10
-15.2353699263
 20
-22.1259613233
 10
-15.2412499048
 20
-22.070804149
 10
-15.2470392942
 20
-22.0129802224
  0
LINE
  5
2E2
100
AcDbEntity
  8
SUPERFICI
100
AcDbLine
 62
250
  6
CONTINUOUS
 10
-15.2906025559
 20
-21.9002628312
 11
-15.2676541329
 21
-22.1279067437
  0
LWPOLYLINE
  5
2E3
100
AcDbEntity
  8
0
100
AcDbPolyline
 62
7
  6
CONTINUOUS
 90
10
 70
0
 10
-18.735193674
 20
28.6470946503
 10
-18.7193503792
 20
28.4872172474
 10
-18.6607632081
 20
28.3310317732
 10
-18.5689588358
 20
28.1863268438
 10
-18.4560727761
 20
28.0649596599
 10
-18.3289162812
 20
27.9654636436
 10
-18.1818878375
 20
27.876983506
 10
-18.0126462323
 20
27.8035118427
 10
-17.8292363496
 20
27.7600738396
 10
-17.6377553076
 20
27.758089613
  0
LINE
  5
2E4
100
AcDbEntity
  8
RACCORDO
100
AcDbLine
 62
7
  6
CONTINUOUS
 10
-15.1956766643
 20
-22.2271689776
 11
-15.2212610056
 21
-21.9664736985
  0
LINE
  5
2E5
100
AcDbEntity
  8
RACCORDO
100
AcDbLine
 62
7
  6
CONTINUOUS
 10
-15.2189161139
 20
-22.1496720155
 11
-15.2458153203
 21
-21.8727439194
  0
LWPOLYLINE
  5
2E6
100
AcDbEntity
  8
SUPERFICI
100
AcDbPolyline
 62
7
  6
CONTINUOUS
 90
3
 70
0
 10
-15.2470392942
 20
-22.0129802224
 10
-15.2526559522
 20
-21.9525153707
 10
-15.2580160679
 20
-21.8893932657
  0
LINE
  5
2E7
100
AcDbEntity
  8
0
100
AcDbLine
 62
7
  6
CONTINUOUS
 10
-15.5497022767
 20
-21.6213819252
 11
-15.5219507803
 21
-21.9775807836
  0
LWPOLYLINE
  5
2E8
100
AcDbEntity
  8
SUPERFICI
100
AcDbPolyline
 62
7
  6
CONTINUOUS
 90
3
 70
0
 10
-15.2580160679
 20
-21.8893932657
 10
-15.2630283068
 20
-21.8236331676
 10
-15.267597589
 20
-21.7552492135
  0
LINE
  5
2E9
100
AcDbEntity
  8
SUPERFICI
100
AcDbLine
 62
250
  6
CONTINUOUS
 10
-15.3082620714
 20
-21.6484839404
 11
-15.2906025559
 21
-21.9002628312
  0
LINE
  5
2EA
100
AcDbEntity
  8
RACCORDO
100
AcDbLine
 62
7
  6
CONTINUOUS
 10
-15.2212610056
 20
-21.9664736985
 11
-15.2383577229
 21
-21.6705219249
  0
LINE
  5
2EB
100
AcDbEntity
  8
SUPERFICI
100
AcDbLine
 62
7
  6
CONTINUOUS
 10
-15.267597589
 20
-21.7552492135
 11
-15.2716262519
 21
-21.6842175038
  0
LINE
  5
2EC
100
AcDbEntity
  8
RACCORDO
100
AcDbLine
 62
7
  6
CONTINUOUS
 10
-15.2458153203
 20
-21.8727439194
 11
-15.2606521911
 21
-21.5657959949
  0
LWPOLYLINE
  5
2ED
100
AcDbEntity
  8
SUPERFICI
100
AcDbPolyline
 62
7
  6
CONTINUOUS
 90
7
 70
0
 10
-15.2716262519
 20
-21.6842175038
 10
-15.2750082722
 20
-21.6105582983
 10
-15.2776321377
 20
-21.5343040573
 10
-15.2793819094
 20
-21.4554558933
 10
-15.2801346423
 20
-21.3740090326
 10
-15.2797584002
 20
-21.2900486581
 10
-15.2781171874
 20
-21.2037369824
  0
LWPOLYLINE
  5
2EE
100
AcDbEntity
  8
RACCORDO
100
AcDbPolyline
 62
250
  6
CONTINUOUS
 90
11
 70
0
 10
-15.2803486752
 20
-21.6046058149
 10
-15.2759664664
 20
-21.7191997734
 10
-15.2694133488
 20
-21.8265632348
 10
-15.2618147508
 20
-21.9267715367
 10
-15.2533552915
 20
-22.0196707728
 10
-15.2440515382
 20
-22.1054148494
 10
-15.2346449468
 20
-22.1845408223
 10
-15.2252084882
 20
-22.2568579378
 10
-15.2156742953
 20
-22.3225569497
 10
-15.2065026377
 20
-22.3827471758
 10
-15.197716666
 20
-22.4374522001
  0
LINE
  5
2EF
100
AcDbEntity
  8
0
100
AcDbLine
 62
7
  6
CONTINUOUS
 10
-15.5536576039
 20
-21.2557312514
 11
-15.5497022767
 21
-21.6213819252
  0
LINE
  5
2F0
100
AcDbEntity
  8
RACCORDO
100
AcDbLine
 62
7
  6
CONTINUOUS
 10
-15.2383577229
 20
-21.6705219249
 11
-15.2407627368
 21
-21.3514938227
  0
LINE
  5
2F1
100
AcDbEntity
  8
SUPERFICI
100
AcDbLine
 62
7
  6
CONTINUOUS
 10
-15.6378053076
 20
7.5806290435
 11
-15.6378053076
 21
9.1757991632
  0
LINE
  5
2F2
100
AcDbEntity
  8
SUPERFICI
100
AcDbLine
 62
7
  6
CONTINUOUS
 10
-15.6378053076
 20
9.898351099
 11
-15.6378053076
 21
11.9805190435
  0
LINE
  5
2F3
100
AcDbEntity
  8
SUPERFICI
100
AcDbLine
 62
7
  6
CONTINUOUS
 10
-15.1377788272
 20
12.1823839115
 11
-15.1377753223
 21
7.4320426653
  0
LWPOLYLINE
  5
2F4
100
AcDbEntity
  8
RACCORDO
100
AcDbPolyline
 62
250
  6
CONTINUOUS
 90
3
 70
0
 10
-15.2818221774
 20
-21.3533117421
 10
-15.2823613927
 20
-21.482574027
 10
-15.2803486752
 20
-21.6046058149
  0
LWPOLYLINE
  5
2F5
100
AcDbEntity
  8
RACCORDO
100
AcDbPolyline
 62
7
  6
CONTINUOUS
 90
4
 70
0
 10
-15.2606521911
 20
-21.5657959949
 10
-15.2573392891
 20
-21.2422633122
 10
-15.2332711915
 20
-20.9158712751
 10
-15.2157847036
 20
-20.7729187985
  0
LWPOLYLINE
  5
2F6
100
AcDbEntity
  8
SUPERFICI
100
AcDbPolyline
 62
250
  6
CONTINUOUS
 90
3
 70
0
 10
-15.3146564183
 20
-21.1310234105
 10
-15.3173898483
 20
-21.3904629948
 10
-15.3082620714
 20
-21.6484839404
  0
LWPOLYLINE
  5
2F7
100
AcDbEntity
  8
0
100
AcDbPolyline
 62
7
  6
CONTINUOUS
 90
7
 70
0
 10
-11.9485601657
 20
28.3224096252
 10
-11.9501021991
 20
28.1914888789
 10
-11.9561592058
 20
28.0608106412
 10
-11.9664348011
 20
27.9304276212
 10
-11.9806505209
 20
27.800385069
 10
-11.998544913
 20
27.6707213536
 10
-12.0198726621
 20
27.5414685103
  0
LWPOLYLINE
  5
2F8
100
AcDbEntity
  8
0
100
AcDbPolyline
 62
7
  6
CONTINUOUS
 90
10
 70
0
 10
-15.3370969562
 20
28.6053365343
 10
-15.3405522769
 20
28.4829297431
 10
-15.3559373783
 20
28.360777648
 10
-15.3820876859
 20
28.2395420221
 10
-15.4171062956
 20
28.1201386512
 10
-15.4607335154
 20
28.0027120474
 10
-15.5146045361
 20
27.88699144
 10
-15.5788728934
 20
27.7735336812
 10
-15.6519525739
 20
27.6633675504
 10
-15.7330783713
 20
27.5572067779
  0
LWPOLYLINE
  5
2F9
100
AcDbEntity
  8
SUPERFICI
100
AcDbPolyline
 62
7
  6
CONTINUOUS
 90
7
 70
0
 10
-15.2781171874
 20
-21.2037369824
 10
-15.2750699335
 20
-21.1151004479
 10
-15.2704733422
 20
-21.0242606291
 10
-15.2641999277
 20
-20.9315716881
 10
-15.2561117307
 20
-20.8371182291
 10
-15.2460734577
 20
-20.7410404242
 10
-15.2339977434
 20
-20.6438318533
  0
LINE
  5
2FA
100
AcDbEntity
  8
0
100
AcDbLine
 62
7
  6
CONTINUOUS
 10
-15.5395042476
 20
-20.8854616263
 11
-15.5536576039
 21
-21.2557312514
  0
LWPOLYLINE
  5
2FB
100
AcDbEntity
  8
RACCORDO
100
AcDbPolyline
 62
7
  6
CONTINUOUS
 90
3
 70
0
 10
-15.2407627368
 20
-21.3514938227
 10
-15.2241533482
 20
-21.0224464177
 10
-15.1974614468
 20
-20.7712451721
  0
LINE
  5
2FC
100
AcDbEntity
  8
SUPERFICI
100
AcDbLine
 62
250
  6
CONTINUOUS
 10
-15.2979440829
 20
-20.8627433307
 11
-15.3146564183
 21
-21.1310234105
  0
LINE
  5
2FD
100
AcDbEntity
  8
0
100
AcDbLine
 62
7
  6
CONTINUOUS
 10
-15.5072422078
 20
-20.5171984933
 11
-15.5395042476
 21
-20.8854616263
  0
LWPOLYLINE
  5
2FE
100
AcDbEntity
  8
RACCORDO
100
AcDbPolyline
 62
250
  6
CONTINUOUS
 90
5
 70
0
 10
-15.2372228405
 20
-20.7699708847
 10
-15.2550711148
 20
-20.9257863007
 10
-15.2684036548
 20
-21.0749178789
 10
-15.2773821977
 20
-21.2173656195
 10
-15.2818221774
 20
-21.3533117421
  0
LINE
  5
2FF
100
AcDbEntity
  8
SUPERFICI
100
AcDbLine
 62
250
  6
CONTINUOUS
 10
-15.2655483035
 20
-20.5843190659
 11
-15.2979440829
 21
-20.8627433307
  0
LWPOLYLINE
  5
300
100
AcDbEntity
  8
RACCORDO
100
AcDbPolyline
 62
7
  6
CONTINUOUS
 90
3
 70
0
 10
-15.1974615128
 20
-20.7712451634
 10
-14.9901287351
 20
-19.2089916203
 10
-14.9189450075
 20
-18.678049152
  0
LWPOLYLINE
  5
301
100
AcDbEntity
  8
RACCORDO
100
AcDbPolyline
 62
7
  6
CONTINUOUS
 90
6
 70
0
 10
-7.8096677484
 20
25.7656797901
 10
-7.7788475366
 20
25.9929757676
 10
-7.7440253891
 20
26.3412741384
 10
-7.723803549
 20
26.6958962565
 10
-7.7189572797
 20
27.0557396773
 10
-7.7254360227
 20
27.3182580608
  0
LINE
  5
302
100
AcDbEntity
  8
RACCORDO
100
AcDbLine
 62
7
  6
CONTINUOUS
 10
-15.215833641
 20
-20.7729123231
 11
-15.0636554082
 21
-19.6719175641
  0
LINE
  5
303
100
AcDbEntity
  8
SUPERFICI
100
AcDbLine
 62
7
  6
CONTINUOUS
 10
-15.2339977434
 20
-20.6438318533
 11
-15.226446138
 21
-20.5899300786
  0
LINE
  5
304
100
AcDbEntity
  8
RACCORDO
100
AcDbLine
 62
250
  6
CONTINUOUS
 10
-14.8446480198
 20
-17.9327822841
 11
-15.2372228405
 21
-20.7699708847
  0
LINE
  5
305
100
AcDbEntity
  8
RACCORDO
100
AcDbLine
 62
250
  6
CONTINUOUS
 10
-8.3208298025
 20
26.3465526761
 11
-8.3317069499
 21
26.2709597439
  0
LINE
  5
306
100
AcDbEntity
  8
SUPERFICI
100
AcDbLine
 62
7
  6
CONTINUOUS
 10
-15.5072202005
 20
-20.5171984933
 11
-15.1966812939
 21
-18.3514315783
  0
LINE
  5
307
100
AcDbEntity
  8
SUPERFICI
100
AcDbLine
 62
7
  6
CONTINUOUS
 10
-15.1966812939
 20
-18.3514315783
 11
-15.1068879155
 21
-17.730158171
  0
LWPOLYLINE
  5
308
100
AcDbEntity
  8
SUPERFICI
100
AcDbPolyline
 62
7
  6
CONTINUOUS
 90
3
 70
0
 10
-15.2648266515
 20
-20.5842665196
 10
-15.0829316472
 20
-19.3395255674
 10
-14.8551828018
 20
-17.7840971272
  0
LINE
  5
309
100
AcDbEntity
  8
SUPERFICI
100
AcDbLine
 62
7
  6
CONTINUOUS
 10
-14.8143115281
 20
-17.7902752177
 11
-15.2267773575
 21
-20.5899999251
  0
LINE
  5
30A
100
AcDbEntity
  8
SUPERFICI
100
AcDbLine
 62
7
  6
CONTINUOUS
 10
-15.5696337418
 20
-25.8214998954
 11
-15.2478135149
 21
-23.6820836937
  0
LINE
  5
30B
100
AcDbEntity
  8
RACCORDO
100
AcDbLine
 62
7
  6
CONTINUOUS
 10
-15.2478135149
 20
-23.6820836937
 11
-15.1191445496
 21
-22.8267102707
  0
LINE
  5
30C
100
AcDbEntity
  8
RACCORDO
100
AcDbLine
 62
7
  6
CONTINUOUS
 10
-14.0755211143
 20
-15.8888465213
 11
-7.8096631078
 21
25.7657136567
  0
LWPOLYLINE
  5
30D
100
AcDbEntity
  8
RACCORDO
100
AcDbPolyline
 62
250
  6
CONTINUOUS
 90
6
 70
0
 10
-8.3317069499
 20
26.2709597439
 10
-8.3553584256
 20
26.1195207536
 10
-8.3684002164
 20
26.0397985338
 10
-8.3824071233
 20
25.9574073042
 10
-8.3974356774
 20
25.8723067543
 10
-8.4134757545
 20
25.7844073064
  0
LWPOLYLINE
  5
30E
100
AcDbEntity
  8
RACCORDO
100
AcDbPolyline
 62
250
  6
CONTINUOUS
 90
43
 70
0
 10
-7.8212584283
 20
25.6901226395
 10
-7.8332651313
 20
25.6150162782
 10
-7.8462028851
 20
25.5372662255
 10
-7.8601137866
 20
25.4569155546
 10
-7.8750589731
 20
25.3739211923
 10
-7.8911268643
 20
25.2881539182
 10
-7.9083815264
 20
25.1996036746
 10
-7.9268891516
 20
25.1082805193
 10
-7.9467628375
 20
25.0140854054
 10
-7.9680879569
 20
24.9170235598
 10
-7.9909474865
 20
24.8170897557
 10
-8.0154731587
 20
24.7141692659
 10
-8.0417511417
 20
24.6082525279
 10
-8.0698773306
 20
24.4993491043
 10
-8.1000104529
 20
24.3873729547
 10
-8.1322699884
 20
24.2723052928
 10
-8.1667709553
 20
24.1541649049
 10
-8.2036920504
 20
24.0329221101
 10
-8.2431636446
 20
23.9085476745
 10
-8.2853309965
 20
23.781070832
 10
-8.3303937001
 20
23.6505496029
 10
-8.3784834425
 20
23.5170011884
 10
-8.4297667342
 20
23.3804083874
 10
-8.4845420723
 20
23.2407776169
 10
-8.5429456148
 20
23.0981682478
 10
-8.605221558
 20
22.9525209092
 10
-8.6718608652
 20
22.803663906
 10
-8.7430042139
 20
22.6515685933
 10
-8.8188914388
 20
22.496263616
 10
-8.9001822106
 20
22.3376632134
 10
-8.9871411138
 20
22.1756913663
 10
-9.0800432783
 20
22.0104240939
 10
-9.1795955731
 20
21.8420036928
 10
-9.2861053603
 20
21.6703275215
 10
-9.3999484017
 20
21.4954982214
 10
-9.522213147
 20
21.3179660127
 10
-9.6530227528
 20
21.1375980174
 10
-9.7927686605
 20
20.9545271134
 10
-9.9428062108
 20
20.7696021553
 10
-10.1031981721
 20
20.5827057342
 10
-10.2740094916
 20
20.3939552589
 10
-10.4574880136
 20
20.2045518109
 10
-10.6541433939
 20
20.0143544395
  0
LINE
  5
30F
100
AcDbEntity
  8
RACCORDO
100
AcDbLine
 62
250
  6
CONTINUOUS
 10
-14.8241915272
 20
-17.8052474819
 11
-14.8446480198
 21
-17.9327822841
  0
LWPOLYLINE
  5
310
100
AcDbEntity
  8
SUPERFICI
100
AcDbPolyline
 62
7
  6
CONTINUOUS
 90
3
 70
0
 10
-14.8130018748
 20
-17.790312748
 10
-14.7893877435
 20
-17.6464454392
 10
-14.7525624362
 20
-17.4616030342
  0
LWPOLYLINE
  5
311
100
AcDbEntity
  8
RACCORDO
100
AcDbPolyline
 62
250
  6
CONTINUOUS
 90
14
 70
0
 10
-8.4134757545
 20
25.7844073064
 10
-8.4306211573
 20
25.6936800448
 10
-8.4489781279
 20
25.6001147261
 10
-8.4685617561
 20
25.5036446861
 10
-8.48947246
 20
25.4042511579
 10
-8.511826382
 20
25.3019126838
 10
-8.5356687716
 20
25.1965546433
 10
-8.5611128678
 20
25.0881504912
 10
-8.588280826
 20
24.9766882798
 10
-8.6172380067
 20
24.8621126772
 10
-8.6480979278
 20
24.7443915841
 10
-8.6810003977
 20
24.6235238463
 10
-8.7160547962
 20
24.4995007306
 10
-8.7533830548
 20
24.3722904861
  0
LINE
  5
312
100
AcDbEntity
  8
RACCORDO
100
AcDbLine
 62
7
  6
CONTINUOUS
 10
-14.7963621933
 20
-17.7938179722
 11
-14.7751091751
 21
-17.6861397385
  0
LINE
  5
313
100
AcDbEntity
  8
0
100
AcDbLine
 62
7
  6
CONTINUOUS
 10
-15.0307058069
 20
-17.3517628978
 11
-15.1067807782
 21
-17.7301613862
  0
LWPOLYLINE
  5
314
100
AcDbEntity
  8
RACCORDO
100
AcDbPolyline
 62
250
  6
CONTINUOUS
 90
3
 70
0
 10
-14.7777265719
 20
-17.5664535035
 10
-14.8018810296
 20
-17.6831378884
 10
-14.8241915272
 20
-17.8052474819
  0
LINE
  5
315
100
AcDbEntity
  8
RACCORDO
100
AcDbLine
 62
7
  6
CONTINUOUS
 10
-14.79747813
 20
-17.7937736102
 11
-14.737030352
 21
-17.5029138713
  0
LWPOLYLINE
  5
316
100
AcDbEntity
  8
SUPERFICI
100
AcDbPolyline
 62
250
  6
CONTINUOUS
 90
4
 70
0
 10
-14.0705112901
 20
-15.5553717035
 10
-14.0753085007
 20
-15.5763411886
 10
-14.1035674621
 20
-15.6470900141
 10
-14.2222231139
 20
-15.8970140711
  0
LINE
  5
317
100
AcDbEntity
  8
RACCORDO
100
AcDbLine
 62
250
  6
CONTINUOUS
 10
-14.751433518
 20
-17.4552202041
 11
-14.7777265719
 21
-17.5664535035
  0
LWPOLYLINE
  5
318
100
AcDbEntity
  8
SUPERFICI
100
AcDbPolyline
 62
7
  6
CONTINUOUS
 90
4
 70
0
 10
-14.7525624362
 20
-17.4616030342
 10
-14.7110880524
 20
-17.2869325826
 10
-14.6658834963
 20
-17.1212326533
 10
-14.6181921993
 20
-16.9645798643
  0
LINE
  5
319
100
AcDbEntity
  8
0
100
AcDbLine
 62
7
  6
CONTINUOUS
 10
-14.9400297544
 20
-16.9807556373
 11
-15.0307058069
 21
-17.3517628978
  0
LWPOLYLINE
  5
31A
100
AcDbEntity
  8
SUPERFICI
100
AcDbPolyline
 62
250
  6
CONTINUOUS
 90
3
 70
0
 10
-14.7145592765
 20
-17.1532089097
 10
-14.7881613246
 20
-17.4527112009
 10
-14.8561216656
 20
-17.7839975236
  0
LWPOLYLINE
  5
31B
100
AcDbEntity
  8
RACCORDO
100
AcDbPolyline
 62
7
  6
CONTINUOUS
 90
3
 70
0
 10
-14.737030352
 20
-17.5029138713
 10
-14.6577374725
 20
-17.2143946593
 10
-14.5646657826
 20
-16.9400469264
  0
LINE
  5
31C
100
AcDbEntity
  8
SUPERFICI
100
AcDbLine
 62
250
  6
CONTINUOUS
 10
-14.6361898955
 20
-16.884721659
 11
-14.7145592765
 21
-17.1532089097
  0
LINE
  5
31D
100
AcDbEntity
  8
0
100
AcDbLine
 62
7
  6
CONTINUOUS
 10
-14.8347526205
 20
-16.6230578548
 11
-14.9400297544
 21
-16.9807556373
  0
LWPOLYLINE
  5
31E
100
AcDbEntity
  8
SUPERFICI
100
AcDbPolyline
 62
7
  6
CONTINUOUS
 90
8
 70
0
 10
-14.6181921993
 20
-16.9645798643
 10
-14.5692525505
 20
-16.8174016402
 10
-14.5198440162
 20
-16.6792067883
 10
-14.4706309658
 20
-16.549596289
 10
-14.4225582755
 20
-16.4291213434
 10
-14.3766086655
 20
-16.3184902149
 10
-14.3333329698
 20
-16.2174871914
 10
-14.2965846185
 20
-16.1336259434
  0
LINE
  5
31F
100
AcDbEntity
  8
SUPERFICI
100
AcDbLine
 62
250
  6
CONTINUOUS
 10
-14.5556211196
 20
-16.6522109965
 11
-14.6361898955
 21
-16.884721659
  0
LINE
  5
320
100
AcDbEntity
  8
0
100
AcDbLine
 62
7
  6
CONTINUOUS
 10
-14.7083672967
 20
-16.2868235025
 11
-14.8347526205
 21
-16.6230578548
  0
LWPOLYLINE
  5
321
100
AcDbEntity
  8
RACCORDO
100
AcDbPolyline
 62
250
  6
CONTINUOUS
 90
8
 70
0
 10
-14.5470547715
 20
-16.8235005692
 10
-14.5764369161
 20
-16.8993043899
 10
-14.6059255064
 20
-16.9795779037
 10
-14.6357122321
 20
-17.0646068145
 10
-14.6654643988
 20
-17.1541054186
 10
-14.6946624177
 20
-17.248951601
 10
-14.7233963998
 20
-17.3494121133
 10
-14.751433518
 20
-17.4552202041
  0
LINE
  5
322
100
AcDbEntity
  8
RACCORDO
100
AcDbLine
 62
7
  6
CONTINUOUS
 10
-14.5646657826
 20
-16.9400469264
 11
-14.4638397792
 21
-16.687420992
  0
LINE
  5
323
100
AcDbEntity
  8
RACCORDO
100
AcDbLine
 62
250
  6
CONTINUOUS
 10
-14.5174964436
 20
-16.7504314446
 11
-14.5470547715
 21
-16.8235005692
  0
LINE
  5
324
100
AcDbEntity
  8
SUPERFICI
100
AcDbLine
 62
250
  6
CONTINUOUS
 10
-14.4736131897
 20
-16.449877449
 11
-14.5556211196
 21
-16.6522109965
  0
LWPOLYLINE
  5
325
100
AcDbEntity
  8
SUPERFICI
100
AcDbPolyline
 62
250
  6
CONTINUOUS
 90
5
 70
0
 10
-19.7058770109
 20
-25.8214989813
 10
-19.6985307573
 20
-25.8042873662
 10
-19.6736730355
 20
-25.7680138543
 10
-19.6323648872
 20
-25.7126784454
 10
-19.5792492638
 20
-25.6357249093
  0
LWPOLYLINE
  5
326
100
AcDbEntity
  8
RACCORDO
100
AcDbPolyline
 62
250
  6
CONTINUOUS
 90
3
 70
0
 10
-14.4581047937
 20
-16.6117051509
 10
-14.487797808
 20
-16.6797009497
 10
-14.5174964436
 20
-16.7504314446
  0
LINE
  5
327
100
AcDbEntity
  8
SUPERFICI
100
AcDbLine
 62
250
  6
CONTINUOUS
 10
-14.3892336997
 20
-16.260701815
 11
-14.4736131897
 21
-16.449877449
  0
LINE
  5
328
100
AcDbEntity
  8
0
100
AcDbLine
 62
7
  6
CONTINUOUS
 10
-14.5673808916
 20
-15.9741391419
 11
-14.7083672967
 21
-16.2868235025
  0
LINE
  5
329
100
AcDbEntity
  8
RACCORDO
100
AcDbLine
 62
7
  6
CONTINUOUS
 10
-14.4638397792
 20
-16.687420992
 11
-14.362424991
 21
-16.4631858849
  0
LINE
  5
32A
100
AcDbEntity
  8
RACCORDO
100
AcDbLine
 62
250
  6
CONTINUOUS
 10
-14.4283323529
 20
-16.5458972506
 11
-14.4581047937
 21
-16.6117051509
  0
LINE
  5
32B
100
AcDbEntity
  8
SUPERFICI
100
AcDbLine
 62
250
  6
CONTINUOUS
 10
-14.2222231139
 20
-15.8970140711
 11
-14.3892336997
 21
-16.260701815
  0
LINE
  5
32C
100
AcDbEntity
  8
0
100
AcDbLine
 62
7
  6
CONTINUOUS
 10
-14.0018546502
 20
-14.8544944031
 11
-14.0721590414
 21
-14.9972945681
  0
LWPOLYLINE
  5
32D
100
AcDbEntity
  8
0
100
AcDbPolyline
 62
7
  6
CONTINUOUS
 90
3
 70
0
 10
-14.2995195388
 20
-15.4174547622
 10
-14.4313147309
 20
-15.6829106163
 10
-14.5673808916
 20
-15.9741391419
  0
LWPOLYLINE
  5
32E
100
AcDbEntity
  8
RACCORDO
100
AcDbPolyline
 62
7
  6
CONTINUOUS
 90
4
 70
0
 10
-14.362424991
 20
-16.4631858849
 10
-14.2668718392
 20
-16.2717220767
 10
-14.1857240417
 20
-16.1211458115
 10
-14.130493251
 20
-16.0246743494
  0
LWPOLYLINE
  5
32F
100
AcDbEntity
  8
0
100
AcDbPolyline
 62
7
  6
CONTINUOUS
 90
3
 70
0
 10
-14.0721590414
 20
-14.9972945681
 10
-14.1726445912
 20
-15.1867636483
 10
-14.2995195388
 20
-15.4174547622
  0
LWPOLYLINE
  5
330
100
AcDbEntity
  8
RACCORDO
100
AcDbPolyline
 62
250
  6
CONTINUOUS
 90
19
 70
0
 10
-26.5088473915
 20
24.3281703966
 10
-26.5478854005
 20
24.4595577613
 10
-26.5844466542
 20
24.5874336566
 10
-26.6186680299
 20
24.7118176817
 10
-26.6506996782
 20
24.8328247978
 10
-26.6807001549
 20
24.9504802579
 10
-26.7087903142
 20
25.064794358
 10
-26.7350514481
 20
25.175859009
 10
-26.7596174626
 20
25.283687435
 10
-26.782611063
 20
25.3883077759
 10
-26.804086178
 20
25.4898310362
 10
-26.8241662988
 20
25.5882806389
 10
-26.8429606869
 20
25.6836759513
 10
-26.8604919521
 20
25.7761172108
 10
-26.8768718878
 20
25.8656144884
 10
-26.8922007859
 20
25.9521990715
 10
-26.9064742694
 20
26.0359972135
 10
-26.9197528266
 20
26.1170618264
 10
-26.9321654695
 20
26.1953763307
  0
LWPOLYLINE
  5
331
100
AcDbEntity
  8
0
100
AcDbPolyline
 62
7
  6
CONTINUOUS
 90
7
 70
0
 10
-23.255637953
 20
27.5414685103
 10
-23.276965558
 20
27.6707205238
 10
-23.2948599171
 20
27.8003837469
 10
-23.3090756765
 20
27.9304261412
 10
-23.3193513437
 20
28.0608093331
 10
-23.3254084115
 20
28.1914880667
 10
-23.3269504494
 20
28.3224096252
  0
LWPOLYLINE
  5
332
100
AcDbEntity
  8
RACCORDO
100
AcDbPolyline
 62
7
  6
CONTINUOUS
 90
3
 70
0
 10
-15.1436786801
 20
-22.598896559
 10
-15.1680122336
 20
-22.4403937019
 10
-15.1956766643
 20
-22.2271689776
  0
LINE
  5
333
100
AcDbEntity
  8
RACCORDO
100
AcDbLine
 62
7
  6
CONTINUOUS
 10
-15.1861824616
 20
-22.3846659169
 11
-15.2189161139
 21
-22.1496720155
  0
LINE
  5
334
100
AcDbEntity
  8
0
100
AcDbLine
 62
7
  6
CONTINUOUS
 10
-15.5219507803
 20
-21.9775807836
 11
-15.4760906004
 21
-22.3138711777
  0
LWPOLYLINE
  5
335
100
AcDbEntity
  8
SUPERFICI
100
AcDbPolyline
 62
250
  6
CONTINUOUS
 90
4
 70
0
 10
-15.2676541329
 20
-22.1279067437
 10
-15.2414421028
 20
-22.3288272729
 10
-15.215403785
 20
-22.5059948373
 10
-15.2053155829
 20
-22.5688641911
  0
LWPOLYLINE
  5
336
100
AcDbEntity
  8
0
100
AcDbPolyline
 62
7
  6
CONTINUOUS
 90
10
 70
0
 10
-18.168672527
 20
23.0748746013
 10
-18.1582668363
 20
22.9898813443
 10
-18.1346407787
 20
22.9112216324
 10
-18.0974521524
 20
22.8391261748
 10
-18.0445251516
 20
22.7726008289
 10
-17.9775638455
 20
22.7135085096
 10
-17.9024620066
 20
22.6663054404
 10
-17.8215199803
 20
22.6326356159
 10
-17.7331397828
 20
22.6115948314
 10
-17.6377553076
 20
22.603613994
  0
LWPOLYLINE
  5
337
100
AcDbEntity
  8
SUPERFICI
100
AcDbPolyline
 62
7
  6
CONTINUOUS
 90
10
 70
0
 10
-15.1378104995
 20
12.1835376022
 10
-15.143945596
 20
12.2372276054
 10
-15.1574943053
 20
12.286540147
 10
-15.1784664341
 20
12.3314751686
 10
-15.207805991
 20
12.3730421283
 10
-15.2446032268
 20
12.4102314483
 10
-15.2860841387
 20
12.4400145383
 10
-15.3313296113
 20
12.4613818642
 10
-15.3812855204
 20
12.4753429267
 10
-15.4359676245
 20
12.4818977254
  0
LWPOLYLINE
  5
338
100
AcDbEntity
  8
0
100
AcDbPolyline
 62
7
  6
CONTINUOUS
 90
13
 70
0
 10
-13.0431853066
 20
28.4382808263
 10
-13.0928476525
 20
28.9472132815
 10
-13.2183832565
 20
29.4500606961
 10
-13.4182767651
 20
29.9345332674
 10
-13.6918205302
 20
30.3828339043
 10
-14.0295622956
 20
30.7883709247
 10
-14.42077264
 20
31.1580606212
 10
-14.8670792441
 20
31.4846332947
 10
-15.3603033459
 20
31.7551759425
 10
-15.8849886468
 20
31.9744917552
 10
-16.4385251692
 20
32.1416677089
 10
-17.023422841
 20
32.2446103393
 10
-17.6377553076
 20
32.273511488
  0
LWPOLYLINE
  5
339
100
AcDbEntity
  8
0
100
AcDbPolyline
 62
7
  6
CONTINUOUS
 90
13
 70
0
 10
-15.3431776469
 20
28.6031318993
 10
-15.3666539828
 20
28.8527046284
 10
-15.4280213903
 20
29.1011737682
 10
-15.527141226
 20
29.3422430173
 10
-15.6649616313
 20
29.5676684365
 10
-15.8367162738
 20
29.7724813711
 10
-16.0345475201
 20
29.9572244091
 10
-16.2568272343
 20
30.1174176792
 10
-16.5006165327
 20
30.2490031963
 10
-16.760768395
 20
30.356339532
 10
-17.0370329391
 20
30.4388525427
 10
-17.3297293907
 20
30.489574669
 10
-17.6377553076
 20
30.5032302335
  0
LWPOLYLINE
  5
33A
100
AcDbEntity
  8
RACCORDO
100
AcDbPolyline
 62
250
  6
CONTINUOUS
 90
10
 70
0
 10
-7.8101326687
 20
25.7625852875
 10
-7.8089804844
 20
25.8268551817
 10
-7.8245068408
 20
25.8922772666
 10
-7.8563848758
 20
25.9574742728
 10
-7.9039434909
 20
26.0210736693
 10
-7.966181479
 20
26.0817365579
 10
-8.041788602
 20
26.1381858601
 10
-8.1291731737
 20
26.1892332021
 10
-8.2264955683
 20
26.2338039325
 10
-8.3317069487
 20
26.2709597458
  0
LWPOLYLINE
  5
33B
100
AcDbEntity
  8
RACCORDO
100
AcDbPolyline
 62
250
  6
CONTINUOUS
 90
5
 70
0
 10
-8.2513114782
 20
27.1501366754
 10
-8.2554271944
 20
27.0482821618
 10
-8.26072997
 20
26.9499229829
 10
-8.2669368426
 20
26.8550978595
 10
-8.2741326747
 20
26.763276587
  0
LWPOLYLINE
  5
33C
100
AcDbEntity
  8
RACCORDO
100
AcDbPolyline
 62
250
  6
CONTINUOUS
 90
6
 70
0
 10
-8.2741326747
 20
26.763276587
 10
-8.2821692968
 20
26.674477741
 10
-8.2908454273
 20
26.5887366969
 10
-8.3002383986
 20
26.5055472168
 10
-8.3103005138
 20
26.4247541442
 10
-8.3208298025
 20
26.3465526761
  0
LWPOLYLINE
  5
33D
100
AcDbEntity
  8
RACCORDO
100
AcDbPolyline
 62
250
  6
CONTINUOUS
 90
11
 70
0
 10
-14.1765156205
 20
-16.0570983783
 10
-14.1941897721
 20
-16.0882143037
 10
-14.2139445423
 20
-16.1235202929
 10
-14.2357032234
 20
-16.1627573629
 10
-14.2592089405
 20
-16.2061107583
 10
-14.2845308398
 20
-16.2539069387
 10
-14.3115638079
 20
-16.3058194446
 10
-14.3396343892
 20
-16.3610541422
 10
-14.3685862318
 20
-16.4197244177
 10
-14.398365713
 20
-16.4817168849
 10
-14.4283323529
 20
-16.5458972506
  0
LWPOLYLINE
  5
33E
100
AcDbEntity
  8
RACCORDO
100
AcDbPolyline
 62
250
  6
CONTINUOUS
 90
3
 70
0
 10
-14.133952151
 20
-15.9843674839
 10
-14.1465458603
 20
-16.0056975755
 10
-14.1765156205
 20
-16.0570983783
  0
LINE
  5
33F
100
AcDbEntity
  8
RACCORDO
100
AcDbLine
 62
250
  6
CONTINUOUS
 10
-14.1047276785
 20
-15.9359693285
 11
-14.133952151
 21
-15.9843674839
  0
LWPOLYLINE
  5
340
100
AcDbEntity
  8
RACCORDO
100
AcDbPolyline
 62
250
  6
CONTINUOUS
 90
3
 70
0
 10
-14.0793398927
 20
-15.8950030588
 10
-14.0864019234
 20
-15.906255637
 10
-14.1047276785
 20
-15.9359693285
  0
LWPOLYLINE
  5
341
100
AcDbEntity
  8
SUPERFICI
100
AcDbPolyline
 62
250
  6
CONTINUOUS
 90
3
 70
0
 10
-19.5792492638
 20
-25.6357249093
 10
-19.5173568186
 20
-25.5397094763
 10
-19.4437756535
 20
-25.4323008374
  0
LWPOLYLINE
  5
342
100
AcDbEntity
  8
RACCORDO
100
AcDbPolyline
 62
250
  6
CONTINUOUS
 90
3
 70
0
 10
-14.0755211364
 20
-15.8888466686
 10
-14.0759206406
 20
-15.8894269756
 10
-14.0793398927
 20
-15.8950030588
  0
LWPOLYLINE
  5
343
100
AcDbEntity
  8
SUPERFICI
100
AcDbPolyline
 62
250
  6
CONTINUOUS
 90
11
 70
0
 10
-18.8434718639
 20
-25.3899790325
 10
-18.925204171
 20
-25.5065764574
 10
-19.0015750416
 20
-25.6192532659
 10
-19.0727659294
 20
-25.7265830855
 10
-19.1386793169
 20
-25.8269849798
 10
-19.1977033841
 20
-25.9196679258
 10
-19.2501296633
 20
-26.0028088557
 10
-19.2957872517
 20
-26.0744982093
 10
-19.3324056586
 20
-26.1336777956
 10
-19.3592750046
 20
-26.1786020694
 10
-19.3772211472
 20
-26.206729586
  0
LWPOLYLINE
  5
344
100
AcDbEntity
  8
SUPERFICI
100
AcDbPolyline
 62
250
  6
CONTINUOUS
 90
8
 70
0
 10
-19.4437756535
 20
-25.4323008374
 10
-19.2647186306
 20
-25.184313803
 10
-19.1605930379
 20
-25.0493843769
 10
-19.0481791298
 20
-24.9072410557
 10
-18.9292714557
 20
-24.7598584287
 10
-18.7963917815
 20
-24.6193141631
 10
-18.6476303057
 20
-24.4835079955
 10
-18.4828087992
 20
-24.3545401894
  0
LWPOLYLINE
  5
345
100
AcDbEntity
  8
SUPERFICI
100
AcDbPolyline
 62
250
  6
CONTINUOUS
 90
3
 70
0
 10
-18.5761847715
 20
-25.0213295397
 10
-18.6689737709
 20
-25.1461769671
 10
-18.8434718639
 20
-25.3899790325
  0
LINE
  5
346
100
AcDbEntity
  8
SUPERFICI
100
AcDbLine
 62
250
  6
CONTINUOUS
 10
-19.3772211472
 20
-26.206729586
 11
-19.3862773991
 21
-26.2155575184
  0
LWPOLYLINE
  5
347
100
AcDbEntity
  8
0
100
AcDbPolyline
 62
7
  6
CONTINUOUS
 90
7
 70
0
 10
-22.1102096524
 20
27.5843972913
 10
-22.0220249436
 20
27.325480349
 10
-21.9084702904
 20
27.0671786574
 10
-21.7706865782
 20
26.8113900322
 10
-21.6099230676
 20
26.5600468235
 10
-21.4275324319
 20
26.3151077974
 10
-21.2249654609
 20
26.0785496179
  0
LWPOLYLINE
  5
348
100
AcDbEntity
  8
RACCORDO
100
AcDbPolyline
 62
7
  6
CONTINUOUS
 90
15
 70
0
 10
-7.7253795447
 20
27.3174427245
 10
-7.7488342909
 20
27.6901031404
 10
-7.914390895
 20
28.7999388435
 10
-8.2128746893
 20
29.8761370036
 10
-8.6359021084
 20
30.9093044542
 10
-9.1763136514
 20
31.8880679563
 10
-9.8255509053
 20
32.7991358701
 10
-10.5755776387
 20
33.6321915348
 10
-11.4177532536
 20
34.3769813226
 10
-12.3390214648
 20
35.0216608713
 10
-13.3254537246
 20
35.5574691076
 10
-14.3617090174
 20
35.977561019
 10
-15.4285709402
 20
36.2775060192
 10
-16.5064515741
 20
36.4574460479
 10
-17.6370066077
 20
36.5216827842
  0
LINE
  5
349
100
AcDbEntity
  8
RACCORDO
100
AcDbLine
 62
7
  6
CONTINUOUS
 10
-7.7254035982
 20
27.317443273
 11
-7.7254360227
 21
27.3182580608
  0
LWPOLYLINE
  5
34A
100
AcDbEntity
  8
RACCORDO
100
AcDbPolyline
 62
250
  6
CONTINUOUS
 90
6
 70
0
 10
-8.2532780641
 20
27.7169095302
 10
-8.2490438767
 20
27.5956512381
 10
-8.2471095567
 20
27.4782548647
 10
-8.2471126163
 20
27.3647751699
 10
-8.2485797929
 20
27.2554537872
 10
-8.2513114782
 20
27.1501366754
  0
LINE
  5
34B
100
AcDbEntity
  8
SUPERFICI
100
AcDbLine
 62
250
  6
CONTINUOUS
 10
-18.4828087992
 20
-24.3545401894
 11
-18.2992649808
 21
-24.2507892028
  0
LWPOLYLINE
  5
34C
100
AcDbEntity
  8
SUPERFICI
100
AcDbPolyline
 62
7
  6
CONTINUOUS
 90
10
 70
0
 10
-15.8892354059
 20
-26.2155606127
 10
-15.8350721319
 20
-26.1916099037
 10
-15.7843246926
 20
-26.1615474075
 10
-15.7374543478
 20
-26.1256847948
 10
-15.6950668699
 20
-26.0845115359
 10
-15.6578277501
 20
-26.0386043674
 10
-15.6262786604
 20
-25.9886285525
 10
-15.6008492759
 20
-25.9353530478
 10
-15.581896602
 20
-25.8794711505
 10
-15.5696334992
 20
-25.8214982665
  0
LWPOLYLINE
  5
34D
100
AcDbEntity
  8
SUPERFICI
100
AcDbPolyline
 62
250
  6
CONTINUOUS
 90
4
 70
0
 10
-18.2992649808
 20
-24.2507892028
 10
-18.0964515923
 20
-24.1783811883
 10
-17.8741453422
 20
-24.1311899934
 10
-17.6377553076
 20
-24.1092156179
  0
LWPOLYLINE
  5
34E
100
AcDbEntity
  8
RACCORDO
100
AcDbPolyline
 62
250
  6
CONTINUOUS
 90
16
 70
0
 10
-25.4551044761
 20
21.8955147768
 10
-25.5660874509
 20
22.0874109917
 10
-25.6691178133
 20
22.2749425643
 10
-25.7643575302
 20
22.4579695186
 10
-25.853040697
 20
22.636664671
 10
-25.935525207
 20
22.8108730178
 10
-26.0120056368
 20
22.9805332523
 10
-26.0834031823
 20
23.1460377716
 10
-26.1500185799
 20
23.3073271094
 10
-26.2120168841
 20
23.4643573288
 10
-26.2700446509
 20
23.617586367
 10
-26.3243592103
 20
23.7670735435
 10
-26.3750838806
 20
23.9127197297
 10
-26.4226121692
 20
24.0547664512
 10
-26.4671615402
 20
24.193268631
 10
-26.5088473915
 20
24.3281703966
  0
LWPOLYLINE
  5
34F
100
AcDbEntity
  8
0
100
AcDbPolyline
 62
7
  6
CONTINUOUS
 90
3
 70
0
 10
-17.1803256089
 20
25.3462263978
 10
-17.128978887
 20
25.2192740481
 10
-17.1024642172
 20
25.1529499513
  0
LWPOLYLINE
  5
350
100
AcDbEntity
  8
SUPERFICI
100
AcDbPolyline
 62
7
  6
CONTINUOUS
 90
10
 70
0
 10
-15.3755391825
 20
27.4565104125
 10
-15.3723708994
 20
27.4468736416
 10
-15.3661674157
 20
27.438343654
 10
-15.357329843
 20
27.4308390659
 10
-15.3461428091
 20
27.4244760714
 10
-15.3330902479
 20
27.4184282925
 10
-15.3185481245
 20
27.4114053598
 10
-15.3025335705
 20
27.4030905274
 10
-15.2850430874
 20
27.3936847777
 10
-15.266133797
 20
27.3830675634
  0
LWPOLYLINE
  5
351
100
AcDbEntity
  8
SUPERFICI
100
AcDbPolyline
 62
7
  6
CONTINUOUS
 90
10
 70
0
 10
-15.4859572842
 20
7.0820527716
 10
-15.4210361012
 20
7.0900518172
 10
-15.3619743242
 20
7.1066675161
 10
-15.3087401114
 20
7.1318998097
 10
-15.2602752778
 20
7.1669978253
 10
-15.2175831259
 20
7.2107123956
 10
-15.1837144386
 20
7.2592960768
 10
-15.1596628069
 20
7.3114997742
 10
-15.1443796468
 20
7.3685727241
 10
-15.1378516593
 20
7.4305150246
  0
LINE
  5
352
100
AcDbEntity
  8
SUPERFICI
100
AcDbLine
 62
7
  6
CONTINUOUS
 10
-15.4878090303
 20
7.0820481131
 11
-19.7877015846
 21
7.0820481464
  0
LWPOLYLINE
  5
353
100
AcDbEntity
  8
SUPERFICI
100
AcDbPolyline
 62
7
  6
CONTINUOUS
 90
10
 70
0
 10
-19.7950202646
 20
7.0823493519
 10
-19.8550918675
 20
7.0892178014
 10
-19.9107808412
 20
7.1049884916
 10
-19.9621095462
 20
7.1296610451
 10
-20.0106608006
 20
7.1645024661
 10
-20.0548892812
 20
7.2082450618
 10
-20.0901441477
 20
7.2570860002
 10
-20.114902648
 20
7.3097571003
 10
-20.1307466085
 20
7.3675252903
 10
-20.1376900985
 20
7.4303902136
  0
LWPOLYLINE
  5
354
100
AcDbEntity
  8
RACCORDO
100
AcDbPolyline
 62
250
  6
CONTINUOUS
 90
42
 70
0
 10
-24.4681467938
 20
19.874468828
 10
-24.6965668126
 20
20.0845800499
 10
-24.9047477994
 20
20.2930302102
 10
-25.0979993607
 20
20.4991433398
 10
-25.277708283
 20
20.7030405387
 10
-25.4433068604
 20
20.9046007071
 10
-25.5968206152
 20
21.1027845758
 10
-25.7391905678
 20
21.2974940411
 10
-25.8708420165
 20
21.4888272068
 10
-25.993031227
 20
21.6760391153
 10
-26.1062336212
 20
21.8589352139
 10
-26.2109133907
 20
22.0377100554
 10
-26.3083079791
 20
22.2122023406
 10
-26.3986587228
 20
22.3822915717
 10
-26.4822941338
 20
22.5480982466
 10
-26.560165862
 20
22.7098225595
 10
-26.6325914172
 20
22.8674100283
 10
-26.6998410243
 20
23.0209151351
 10
-26.7625801375
 20
23.170701521
 10
-26.8211087249
 20
23.3168230665
 10
-26.8755949094
 20
23.4592258911
 10
-26.9264855535
 20
23.5981119944
 10
-26.9739877478
 20
23.7335203263
 10
-27.018265638
 20
23.865411937
 10
-27.0596008507
 20
23.9938719761
 10
-27.0981583457
 20
24.1188843158
 10
-27.1340801483
 20
24.240465084
 10
-27.1675993798
 20
24.3587478143
 10
-27.1988500036
 20
24.473734435
 10
-27.2279562913
 20
24.5854230178
 10
-27.255101598
 20
24.6939413113
 10
-27.2803930427
 20
24.7992825361
 10
-27.3039228378
 20
24.9014534715
 10
-27.3258381577
 20
25.0006022045
 10
-27.3462280862
 20
25.0967323462
 10
-27.3651847482
 20
25.1898402854
 10
-27.3828355032
 20
25.2800632758
 10
-27.3992508867
 20
25.3673917532
 10
-27.4144988082
 20
25.4518352817
 10
-27.428678149
 20
25.533559807
 10
-27.4418546301
 20
25.6126206443
 10
-27.4540704211
 20
25.6889624783
  0
LINE
  5
355
100
AcDbEntity
  8
SUPERFICI
100
AcDbLine
 62
7
  6
CONTINUOUS
 10
-15.6378053076
 20
9.1757991632
 11
-17.6377553076
 21
11.1757391635
  0
LINE
  5
356
100
AcDbEntity
  8
SUPERFICI
100
AcDbLine
 62
7
  6
CONTINUOUS
 10
-17.5593172686
 20
11.8198530602
 11
-15.6378053076
 21
9.898351099
  0
LWPOLYLINE
  5
357
100
AcDbEntity
  8
0
100
AcDbPolyline
 62
250
  6
CONTINUOUS
 90
7
 70
0
 10
-19.0599031992
 20
24.336663708
 10
-19.0652631859
 20
24.345376794
 10
-19.0712908982
 20
24.3534637268
 10
-19.0779852266
 20
24.3609232638
 10
-19.0853450876
 20
24.3677541667
 10
-19.0933694221
 20
24.3739552012
 10
-19.1020571942
 20
24.3795251365
  0
LWPOLYLINE
  5
358
100
AcDbEntity
  8
0
100
AcDbPolyline
 62
7
  6
CONTINUOUS
 90
16
 70
0
 10
-19.5424471886
 20
27.5572848917
 10
-19.4943249799
 20
27.4758763286
 10
-19.4669588916
 20
27.3890152519
 10
-19.460206216
 20
27.300252839
 10
-19.4729999107
 20
27.2142888918
 10
-19.5034585824
 20
27.1325943312
 10
-19.5518843951
 20
27.0538580173
 10
-19.6193045131
 20
26.9803144651
 10
-19.7041763994
 20
26.9168668499
 10
-19.804382507
 20
26.8668846344
 10
-19.9182777983
 20
26.8333274518
 10
-20.0406605403
 20
26.8206062461
 10
-20.1619104067
 20
26.8313052234
 10
-20.2747848038
 20
26.8643917797
 10
-20.3753419313
 20
26.9179191716
 10
-20.4588956151
 20
26.9892473651
  0
LWPOLYLINE
  5
359
100
AcDbEntity
  8
0
100
AcDbPolyline
 62
7
  6
CONTINUOUS
 90
3
 70
0
 10
-17.5299698277
 20
26.1257233959
 10
-17.4907941004
 20
26.0467336747
 10
-17.4709295279
 20
26.0053861834
  0
LWPOLYLINE
  5
35A
100
AcDbEntity
  8
0
100
AcDbPolyline
 62
7
  6
CONTINUOUS
 90
3
 70
0
 10
-17.4709295279
 20
26.0053861834
 10
-17.4304396553
 20
25.9193358429
 10
-17.4097991814
 20
25.8746117028
  0
LINE
  5
35B
100
AcDbEntity
  8
0
100
AcDbLine
 62
7
  6
CONTINUOUS
 10
-17.4097991814
 20
25.8746117028
 11
-17.367406604
 21
25.7812270652
  0
LINE
  5
35C
100
AcDbEntity
  8
0
100
AcDbLine
 62
7
  6
CONTINUOUS
 10
-17.367406604
 20
25.7812270652
 11
-17.323432749
 21
25.6823306457
  0
LINE
  5
35D
100
AcDbEntity
  8
0
100
AcDbLine
 62
7
  6
CONTINUOUS
 10
-17.323432749
 20
25.6823306457
 11
-17.277633138
 21
25.5772649545
  0
LWPOLYLINE
  5
35E
100
AcDbEntity
  8
0
100
AcDbPolyline
 62
7
  6
CONTINUOUS
 90
4
 70
0
 10
-17.277633138
 20
25.5772649545
 10
-17.2299510881
 20
25.4653591327
 10
-17.205338394
 20
25.4067596895
 10
-17.1803256089
 20
25.3462263978
  0
LWPOLYLINE
  5
35F
100
AcDbEntity
  8
RACCORDO
100
AcDbPolyline
 62
250
  6
CONTINUOUS
 90
8
 70
0
 10
-7.7254360227
 20
27.3182580608
 10
-7.7416387105
 20
27.398165902
 10
-7.7802660624
 20
27.4705500106
 10
-7.8404141149
 20
27.5375835704
 10
-7.9203442042
 20
27.5973288109
 10
-8.0177458399
 20
27.6480586396
 10
-8.1298034927
 20
27.6883065659
 10
-8.2532779815
 20
27.716909091
  0
LWPOLYLINE
  5
360
100
AcDbEntity
  8
RACCORDO
100
AcDbPolyline
 62
250
  6
CONTINUOUS
 90
4
 70
0
 10
-8.358717243
 20
28.7061084339
 10
-8.3092885122
 20
28.3670649477
 10
-8.2749761498
 20
28.0371911203
 10
-8.2547216968
 20
27.7172163594
  0
LINE
  5
361
100
AcDbEntity
  8
SUPERFICI
100
AcDbLine
 62
7
  6
CONTINUOUS
 10
-19.6377053076
 20
7.5806290435
 11
-15.6378053076
 21
7.5806290435
  0
LINE
  5
362
100
AcDbEntity
  8
SUPERFICI
100
AcDbLine
 62
7
  6
CONTINUOUS
 10
-15.6378053076
 20
11.9805190435
 11
-19.6377053076
 21
11.9805190435
  0
LWPOLYLINE
  5
363
100
AcDbEntity
  8
0
100
AcDbPolyline
 62
7
  6
CONTINUOUS
 90
10
 70
0
 10
-22.0701801819
 20
25.4154911292
 10
-22.2628148367
 20
25.6136864163
 10
-22.4436749337
 20
25.8247227057
 10
-22.6110743043
 20
26.0475693082
 10
-22.762845828
 20
26.2820066495
 10
-22.8976223179
 20
26.5258073545
 10
-23.0153496022
 20
26.7750402945
 10
-23.1153611114
 20
27.0277442073
 10
-23.1958774873
 20
27.2836287547
 10
-23.255637953
 20
27.5414685103
  0
LWPOLYLINE
  5
364
100
AcDbEntity
  8
0
100
AcDbPolyline
 62
250
  6
CONTINUOUS
 90
10
 70
0
 10
-19.1020571942
 20
24.3795251365
 10
-19.1386795795
 20
24.4248813135
 10
-19.1768129045
 20
24.4700432279
 10
-19.2162683341
 20
24.5147964644
 10
-19.2574610143
 20
24.5595375329
 10
-19.2996238632
 20
24.6034069024
 10
-19.3407058663
 20
24.6444507642
 10
-19.3798455467
 20
24.6820748318
 10
-19.4174038722
 20
24.7168344745
 10
-19.4531432043
 20
24.7487054342
  0
LWPOLYLINE
  5
365
100
AcDbEntity
  8
0
100
AcDbPolyline
 62
7
  6
CONTINUOUS
 90
6
 70
0
 10
-17.6377555684
 20
26.2941882103
 10
-17.6140220972
 20
26.2643471114
 10
-17.5913158109
 20
26.232660233
 10
-17.5696295392
 20
26.1990970183
 10
-17.5493027583
 20
26.1633883276
 10
-17.5299698277
 20
26.1257233959
  0
LWPOLYLINE
  5
366
100
AcDbEntity
  8
0
100
AcDbPolyline
 62
7
  6
CONTINUOUS
 90
10
 70
0
 10
-19.5424322488
 20
27.5572067843
 10
-19.6235580438
 20
27.663367554
 10
-19.6966377227
 20
27.7735336827
 10
-19.760906079
 20
27.88699144
 10
-19.8147770995
 20
28.0027120469
 10
-19.8584043195
 20
28.1201386509
 10
-19.8934229292
 20
28.2395420221
 10
-19.9195732368
 20
28.360777648
 10
-19.9349583382
 20
28.4829297431
 10
-19.9384136589
 20
28.6053365343
  0
LINE
  5
367
100
AcDbEntity
  8
0
100
AcDbLine
 62
7
  6
CONTINUOUS
 10
-20.5753632927
 20
27.1433272929
 11
-20.4588352479
 21
26.9891560079
  0
LWPOLYLINE
  5
368
100
AcDbEntity
  8
SUPERFICI
100
AcDbPolyline
 62
7
  6
CONTINUOUS
 90
10
 70
0
 10
-19.8371074632
 20
12.4819684156
 10
-19.8925035482
 20
12.4755744903
 10
-19.9430528916
 20
12.4617105071
 10
-19.9887722749
 20
12.4403764064
 10
-20.0305924844
 20
12.4105394237
 10
-20.0676113996
 20
12.3732321219
 10
-20.097104035
 20
12.3315521734
 10
-20.118177303
 20
12.2865317924
 10
-20.1317595398
 20
12.2371379582
 10
-20.1378607436
 20
12.1833703047
  0
LINE
  5
369
100
AcDbEntity
  8
SUPERFICI
100
AcDbLine
 62
7
  6
CONTINUOUS
 10
-19.8377003389
 20
12.4819210665
 11
-15.4378102768
 21
12.4819209939
  0
LWPOLYLINE
  5
36A
100
AcDbEntity
  8
0
100
AcDbPolyline
 62
7
  6
CONTINUOUS
 90
10
 70
0
 10
-22.0701801819
 20
25.4154911292
 10
-21.9960899442
 20
25.3569322082
 10
-21.9137461271
 20
25.3140926052
 10
-21.8237718643
 20
25.2872776857
 10
-21.7224239791
 20
25.2767401431
 10
-21.6144996246
 20
25.282703336
 10
-21.5130470007
 20
25.3046584347
 10
-21.4222058798
 20
25.3417476963
 10
-21.3375038486
 20
25.3934744315
 10
-21.2585684408
 20
25.4592154084
  0
LINE
  5
36B
100
AcDbEntity
  8
0
100
AcDbLine
 62
7
  6
CONTINUOUS
 10
-17.1024642172
 20
25.1529499513
 11
-16.6685261781
 21
24.7588577226
  0
LWPOLYLINE
  5
36C
100
AcDbEntity
  8
0
100
AcDbPolyline
 62
7
  6
CONTINUOUS
 90
4
 70
0
 10
-16.6685261781
 20
24.7588577226
 10
-16.5189946621
 20
24.6220027575
 10
-16.3678236475
 20
24.4814555374
 10
-16.2155643557
 20
24.3365943803
  0
LWPOLYLINE
  5
36D
100
AcDbEntity
  8
0
100
AcDbPolyline
 62
7
  6
CONTINUOUS
 90
10
 70
0
 10
-15.4265923116
 20
24.9915249963
 10
-15.6530071377
 20
25.2049733219
 10
-15.8783612602
 20
25.407976755
 10
-16.1003800256
 20
25.6027517619
 10
-16.3145878094
 20
25.7937927639
 10
-16.5215671711
 20
25.9800338764
 10
-16.7254827547
 20
26.1567382396
 10
-16.9252902163
 20
26.3249067566
 10
-17.1161896696
 20
26.4893144123
 10
-17.2958591594
 20
26.6520040304
  0
LWPOLYLINE
  5
36E
100
AcDbEntity
  8
0
100
AcDbPolyline
 62
7
  6
CONTINUOUS
 90
9
 70
0
 10
-14.0169421743
 20
25.4592154084
 10
-14.0777940273
 20
25.5259155253
 10
-14.1237620937
 20
25.5955639771
 10
-14.1553129242
 20
25.6678761717
 10
-14.1731196453
 20
25.7457726946
 10
-14.1774638216
 20
25.826100342
 10
-14.1676985667
 20
25.8999274078
 10
-14.1432780458
 20
25.9647230736
 10
-14.1043034696
 20
26.0240587294
  0
LINE
  5
36F
100
AcDbEntity
  8
0
100
AcDbLine
 62
7
  6
CONTINUOUS
 10
-14.86057331
 20
27.0444659025
 11
-14.8425316162
 21
27.0220238671
  0
LINE
  5
370
100
AcDbEntity
  8
0
100
AcDbLine
 62
7
  6
CONTINUOUS
 10
-14.8425316162
 20
27.0220238671
 11
-14.8165167553
 21
26.9893556554
  0
LWPOLYLINE
  5
371
100
AcDbEntity
  8
RACCORDO
100
AcDbPolyline
 62
250
  6
CONTINUOUS
 90
30
 70
0
 10
-17.6377553076
 20
17.9256808933
 10
-17.896767645
 20
17.9266888203
 10
-18.1661046043
 20
17.9320839023
 10
-18.445922768
 20
17.9427332008
 10
-18.7366379524
 20
17.9589141071
 10
-19.0381200626
 20
17.9821622007
 10
-19.3495293668
 20
18.0151721749
 10
-19.6710983581
 20
18.0584447462
 10
-20.0023806513
 20
18.1131875194
 10
-20.3410674481
 20
18.1828505057
 10
-20.6873107719
 20
18.2681293612
 10
-21.0399218369
 20
18.3695359289
 10
-21.3940248326
 20
18.4895130299
 10
-21.7500683505
 20
18.6288640394
 10
-22.1057616355
 20
18.7868330003
 10
-22.4518539009
 20
18.9620664926
 10
-22.7883610085
 20
19.1552746766
 10
-23.113404953
 20
19.3637022555
 10
-23.415607455
 20
19.5788397801
 10
-23.6909184561
 20
19.7968103779
 10
-23.9435242413
 20
20.0175472129
 10
-24.1753464714
 20
20.2376140665
 10
-24.3855094216
 20
20.4544049873
 10
-24.5758018993
 20
20.6679976436
 10
-24.7521687566
 20
20.8796701964
 10
-24.9159736952
 20
21.0894637884
 10
-25.0664631484
 20
21.2961343874
 10
-25.2061861341
 20
21.4995731482
 10
-25.3357129444
 20
21.6995177183
 10
-25.4551044761
 20
21.8955147768
  0
LWPOLYLINE
  5
372
100
AcDbEntity
  8
RACCORDO
100
AcDbPolyline
 62
250
  6
CONTINUOUS
 90
21
 70
0
 10
-17.9003652406
 20
17.6382204359
 10
-18.1749788887
 20
17.6435933349
 10
-18.4614286022
 20
17.6548481049
 10
-18.7591508017
 20
17.6705479978
 10
-19.0682730702
 20
17.6921297617
 10
-19.389053519
 20
17.7239036408
 10
-19.7212391645
 20
17.7657264427
 10
-20.0636872681
 20
17.8177413598
 10
-20.4145778122
 20
17.8846882135
 10
-20.7746897711
 20
17.9671384496
 10
-21.1421617954
 20
18.0645206223
 10
-21.5111919378
 20
18.1798602154
 10
-21.8833348274
 20
18.314914235
 10
-22.2573471836
 20
18.467925675
 10
-22.622011334
 20
18.636649001
 10
-22.977760647
 20
18.8240386151
 10
-23.3243528627
 20
19.0271401154
 10
-23.6476721209
 20
19.2348447608
 10
-23.9434454539
 20
19.4455377069
 10
-24.2168727084
 20
19.6608337983
 10
-24.4681467938
 20
19.874468828
  0
LWPOLYLINE
  5
373
100
AcDbEntity
  8
0
100
AcDbPolyline
 62
7
  6
CONTINUOUS
 90
7
 70
0
 10
-17.2958591594
 20
26.6520040304
 10
-17.3506701476
 20
26.6912793599
 10
-17.405664924
 20
26.7227993825
 10
-17.4612938555
 20
26.746756356
 10
-17.5180924404
 20
26.7633766386
 10
-17.5766796224
 20
26.7729368498
 10
-17.6377553076
 20
26.7757825119
  0
LWPOLYLINE
  5
374
100
AcDbEntity
  8
0
100
AcDbPolyline
 62
7
  6
CONTINUOUS
 90
16
 70
0
 10
-16.2155643557
 20
24.3365943803
 10
-16.117504178
 20
24.2645614684
 10
-16.0139125718
 20
24.2130122362
 10
-15.90525062
 20
24.1823523837
 10
-15.7877237686
 20
24.173220672
 10
-15.6665468533
 20
24.1858505546
 10
-15.5562613651
 20
24.218909107
 10
-15.4600690827
 20
24.2735508646
 10
-15.3772418998
 20
24.3468008548
 10
-15.3160222235
 20
24.4297426285
 10
-15.2782344241
 20
24.5219801305
 10
-15.2623221216
 20
24.6221336986
 10
-15.2699972092
 20
24.7199616347
 10
-15.3009487258
 20
24.8122304025
 10
-15.3535070696
 20
24.902538901
 10
-15.4265923116
 20
24.9915249963
  0
LWPOLYLINE
  5
375
100
AcDbEntity
  8
0
100
AcDbPolyline
 62
7
  6
CONTINUOUS
 90
8
 70
0
 10
-13.6108630888
 20
25.8614879603
 10
-13.5787507899
 20
25.8367084783
 10
-13.5488746324
 20
25.8120179995
 10
-13.5211619989
 20
25.7876884625
 10
-13.4958397074
 20
25.7641632844
 10
-13.4725085702
 20
25.7414338362
 10
-13.450110421
 20
25.7190744563
 10
-13.40683024
 20
25.6763058738
  0
LINE
  5
376
100
AcDbEntity
  8
0
100
AcDbLine
 62
7
  6
CONTINUOUS
 10
-15.1285700085
 20
27.2873556878
 11
-15.0918095134
 21
27.2587180989
  0
LINE
  5
377
100
AcDbEntity
  8
0
100
AcDbLine
 62
7
  6
CONTINUOUS
 10
-15.0918095134
 20
27.2587180989
 11
-15.0403390732
 21
27.2181149013
  0
LWPOLYLINE
  5
378
100
AcDbEntity
  8
0
100
AcDbPolyline
 62
7
  6
CONTINUOUS
 90
15
 70
0
 10
-15.0403390732
 20
27.2181149013
 10
-15.0241601655
 20
27.2051495242
 10
-15.0085723253
 20
27.1924064234
 10
-14.9935256441
 20
27.1798975721
 10
-14.9789654387
 20
27.167439599
 10
-14.9649055696
 20
27.1549714578
 10
-14.951360656
 20
27.142535899
 10
-14.9382888773
 20
27.1300906165
 10
-14.9256816828
 20
27.1175764472
 10
-14.9135699173
 20
27.1050385662
 10
-14.9019617484
 20
27.0926003454
 10
-14.8908589339
 20
27.0802563869
 10
-14.8802580773
 20
27.0680172764
 10
-14.8701399913
 20
27.0560474154
 10
-14.86057331
 20
27.0444659025
  0
LWPOLYLINE
  5
379
100
AcDbEntity
  8
0
100
AcDbPolyline
 62
7
  6
CONTINUOUS
 90
14
 70
0
 10
-13.40683024
 20
25.6763058738
 10
-13.3863258865
 20
25.6555510295
 10
-13.3667649275
 20
25.6347902827
 10
-13.3480932774
 20
25.6142501747
 10
-13.3303273198
 20
25.5939121602
 10
-13.3135307834
 20
25.5736786022
 10
-13.2976453688
 20
25.5536006947
 10
-13.282467143
 20
25.5339170632
 10
-13.2678205975
 20
25.5146884538
 10
-13.2537926717
 20
25.4958874447
 10
-13.240535197
 20
25.4776488328
 10
-13.2280722799
 20
25.4600198284
 10
-13.2163041792
 20
25.4429662137
 10
-13.2051961003
 20
25.4264946446
  0
LWPOLYLINE
  5
37A
100
AcDbEntity
  8
0
100
AcDbPolyline
 62
250
  6
CONTINUOUS
 90
10
 70
0
 10
-17.2958118227
 20
26.6519574561
 10
-17.3275166989
 20
26.643528653
 10
-17.3611607688
 20
26.6321263121
 10
-17.3966280347
 20
26.61777145
 10
-17.4338922108
 20
26.6004821945
 10
-17.4727276379
 20
26.5802856747
 10
-17.5127014603
 20
26.5572558038
 10
-17.5535805096
 20
26.5314632736
 10
-17.5953315741
 20
26.5029457499
 10
-17.6377553539
 20
26.4718230805
  0
LWPOLYLINE
  5
37B
100
AcDbEntity
  8
0
100
AcDbPolyline
 62
250
  6
CONTINUOUS
 90
10
 70
0
 10
-15.4255818225
 20
24.9909064573
 10
-15.4646838764
 20
24.982174547
 10
-15.5062678194
 20
24.9683668522
 10
-15.5500165752
 20
24.9497407921
 10
-15.596307641
 20
24.9267221707
 10
-15.6442131784
 20
24.899308969
 10
-15.691378259
 20
24.8673406504
 10
-15.7367425504
 20
24.831166948
 10
-15.7805546712
 20
24.7914505379
 10
-15.8223674108
 20
24.7487054342
  0
LWPOLYLINE
  5
37C
100
AcDbEntity
  8
0
100
AcDbPolyline
 62
7
  6
CONTINUOUS
 90
10
 70
0
 10
-17.6377553076
 20
22.603613994
 10
-17.5405187475
 20
22.6123021289
 10
-17.450939276
 20
22.6339756144
 10
-17.3694456379
 20
22.6681596191
 10
-17.2946468645
 20
22.7157688317
 10
-17.2286036124
 20
22.7750763241
 10
-17.176536413
 20
22.8414840901
 10
-17.1399253891
 20
22.9131010653
 10
-17.1168071095
 20
22.9909721727
 10
-17.1068381
 20
23.0748733236
  0
LWPOLYLINE
  5
37D
100
AcDbEntity
  8
0
100
AcDbPolyline
 62
250
  6
CONTINUOUS
 90
10
 70
0
 10
-17.6377551395
 20
23.1595244224
 10
-17.7021361345
 20
23.1584300867
 10
-17.765858893
 20
23.1551628475
 10
-17.8286465149
 20
23.1497574776
 10
-17.8902751078
 20
23.1422413594
 10
-17.9504036381
 20
23.1326542056
 10
-18.0085897818
 20
23.121066641
 10
-18.0645139176
 20
23.1075444902
 10
-18.1179632568
 20
23.0921301993
 10
-18.1686728101
 20
23.0748755699
  0
LWPOLYLINE
  5
37E
100
AcDbEntity
  8
0
100
AcDbPolyline
 62
250
  6
CONTINUOUS
 90
10
 70
0
 10
-17.6377551395
 20
23.1595244224
 10
-17.573360164
 20
23.1584296099
 10
-17.5096285801
 20
23.1551612831
 10
-17.4468372026
 20
23.1497547189
 10
-17.3852113991
 20
23.1422380202
 10
-17.325090089
 20
23.132651243
 10
-17.2669103716
 20
23.1210644128
 10
-17.2109903145
 20
23.1075428907
 10
-17.1575443425
 20
23.0921293591
 10
-17.1068374579
 20
23.0748755659
  0
LWPOLYLINE
  5
37F
100
AcDbEntity
  8
0
100
AcDbPolyline
 62
250
  6
CONTINUOUS
 90
10
 70
0
 10
-19.8499287879
 20
24.9909064565
 10
-19.8108267358
 20
24.9821745462
 10
-19.7692427945
 20
24.9683668518
 10
-19.7254940399
 20
24.9497407921
 10
-19.6792029745
 20
24.9267221709
 10
-19.6312974369
 20
24.8993089692
 10
-19.5841323561
 20
24.8673406504
 10
-19.5387680648
 20
24.831166948
 10
-19.4949559439
 20
24.7914505379
 10
-19.4531432043
 20
24.7487054342
  0
LWPOLYLINE
  5
380
100
AcDbEntity
  8
0
100
AcDbPolyline
 62
250
  6
CONTINUOUS
 90
10
 70
0
 10
-17.9796987925
 20
26.6519574561
 10
-17.9479939163
 20
26.643528653
 10
-17.9143498463
 20
26.6321263121
 10
-17.8788825804
 20
26.61777145
 10
-17.8416184043
 20
26.6004821945
 10
-17.8027829772
 20
26.5802856747
 10
-17.7628091548
 20
26.5572558038
 10
-17.7219301055
 20
26.5314632736
 10
-17.680179041
 20
26.5029457499
 10
-17.6377552612
 20
26.4718230805
  0
LWPOLYLINE
  5
381
100
AcDbEntity
  8
0
100
AcDbPolyline
 62
7
  6
CONTINUOUS
 90
3
 70
0
 10
-14.0464453506
 20
26.0934981502
 10
-14.0252542924
 20
26.0866007063
 10
-14.0033168745
 20
26.0792694762
  0
LWPOLYLINE
  5
382
100
AcDbEntity
  8
0
100
AcDbPolyline
 62
7
  6
CONTINUOUS
 90
7
 70
0
 10
-14.0033168745
 20
26.0792694762
 10
-13.9572272642
 20
26.0632701768
 10
-13.9331987379
 20
26.0544675902
 10
-13.9091432139
 20
26.0445582729
 10
-13.8851726612
 20
26.0334625987
 10
-13.8610847728
 20
26.0213897937
 10
-13.8368551043
 20
26.0083962576
  0
LWPOLYLINE
  5
383
100
AcDbEntity
  8
SUPERFICI
100
AcDbPolyline
 62
7
  6
CONTINUOUS
 90
7
 70
0
 10
-13.8368551043
 20
26.0083962576
 10
-13.8015916791
 20
25.9872494077
 10
-13.7649659165
 20
25.9649150983
 10
-13.7272894105
 20
25.9412919205
 10
-13.6888421362
 20
25.9162628649
 10
-13.6499281043
 20
25.8897043551
 10
-13.6108630888
 20
25.8614879603
  0
LWPOLYLINE
  5
384
100
AcDbEntity
  8
0
100
AcDbPolyline
 62
7
  6
CONTINUOUS
 90
7
 70
0
 10
-15.266133797
 20
27.3830675634
 10
-15.2381636024
 20
27.3659104623
 10
-15.2123455473
 20
27.3488911407
 10
-15.1885798048
 20
27.3322916642
 10
-15.1671306533
 20
27.3166447493
 10
-15.1475172882
 20
27.3019040104
 10
-15.1285700085
 20
27.2873556878
  0
LINE
  5
385
100
AcDbEntity
  8
RACCORDO
100
AcDbLine
 62
250
  6
CONTINUOUS
 10
-27.0222325493
 20
27.7169095754
 11
-26.4482954798
 21
27.8342077316
  0
LWPOLYLINE
  5
386
100
AcDbEntity
  8
RACCORDO
100
AcDbPolyline
 62
250
  6
CONTINUOUS
 90
6
 70
0
 10
-26.4482954798
 20
27.8342077316
 10
-25.8575117739
 20
27.9454863925
 10
-25.2499067635
 20
28.0503525145
 10
-24.625540403
 20
28.1484041194
 10
-23.9845095755
 20
28.2392300355
 10
-23.3269504494
 20
28.3224096252
  0
LINE
  5
387
100
AcDbEntity
  8
0
100
AcDbLine
 62
250
  6
CONTINUOUS
 10
-21.9682574456
 20
28.4654979432
 11
-22.2389801948
 21
28.4401907293
  0
LINE
  5
388
100
AcDbEntity
  8
0
100
AcDbLine
 62
250
  6
CONTINUOUS
 10
-21.7002694011
 20
28.488994521
 11
-21.9682574456
 21
28.4654979432
  0
LINE
  5
389
100
AcDbEntity
  8
0
100
AcDbLine
 62
250
  6
CONTINUOUS
 10
-21.4337525226
 20
28.5108339955
 11
-21.7002694011
 21
28.488994521
  0
LWPOLYLINE
  5
38A
100
AcDbEntity
  8
0
100
AcDbPolyline
 62
250
  6
CONTINUOUS
 90
3
 70
0
 10
-21.0273387083
 20
28.541215934
 10
-21.1635188109
 20
28.531427837
 10
-21.4337525226
 20
28.5108339955
  0
LWPOLYLINE
  5
38B
100
AcDbEntity
  8
0
100
AcDbPolyline
 62
7
  6
CONTINUOUS
 90
10
 70
0
 10
-19.5424471886
 20
27.5572848917
 10
-19.5779421572
 20
27.5551158915
 10
-19.6142772849
 20
27.5499659809
 10
-19.6514546172
 20
27.5419722657
 10
-19.6886539897
 20
27.53014258
 10
-19.7269619803
 20
27.51605871
 10
-19.7681738566
 20
27.5025903928
 10
-19.8117762484
 20
27.4894284802
 10
-19.8560688704
 20
27.4744338841
 10
-19.8999714326
 20
27.4565104125
  0
LWPOLYLINE
  5
38C
100
AcDbEntity
  8
0
100
AcDbPolyline
 62
7
  6
CONTINUOUS
 90
7
 70
0
 10
-17.6377553076
 20
26.7757825119
 10
-17.6991538104
 20
26.7727968209
 10
-17.7579452666
 20
26.763172883
 10
-17.8148233919
 20
26.7465490255
 10
-17.8703986427
 20
26.7226339562
 10
-17.9251956239
 20
26.6911875415
 10
-17.9796513216
 20
26.6520042058
  0
LINE
  5
38D
100
AcDbEntity
  8
0
100
AcDbLine
 62
250
  6
CONTINUOUS
 10
-19.6696935094
 20
28.6173062013
 11
-19.9384136589
 21
28.6053365343
  0
LWPOLYLINE
  5
38E
100
AcDbEntity
  8
0
100
AcDbPolyline
 62
7
  6
CONTINUOUS
 90
10
 70
0
 10
-17.6377553076
 20
29.5417290248
 10
-17.8301981747
 20
29.5336161974
 10
-18.0122951407
 20
29.4935918728
 10
-18.1814349268
 20
29.4261222849
 10
-18.3387908783
 20
29.3372639184
 10
-18.4806187099
 20
29.226979616
 10
-18.5949330981
 20
29.0948171405
 10
-18.6753051948
 20
28.9480303923
 10
-18.7245934801
 20
28.7957740843
 10
-18.7439841873
 20
28.6448762612
  0
LINE
  5
38F
100
AcDbEntity
  8
0
100
AcDbLine
 62
250
  6
CONTINUOUS
 10
-19.404108976
 20
28.6276415218
 11
-19.6696935094
 21
28.6173062013
  0
LINE
  5
390
100
AcDbEntity
  8
0
100
AcDbLine
 62
250
  6
CONTINUOUS
 10
-19.1400688318
 20
28.6364449178
 11
-19.404108976
 21
28.6276415218
  0
LWPOLYLINE
  5
391
100
AcDbEntity
  8
0
100
AcDbPolyline
 62
250
  6
CONTINUOUS
 90
3
 70
0
 10
-18.735193674
 20
28.6470946503
 10
-18.8711078985
 20
28.643904145
 10
-19.1400688318
 20
28.6364449178
  0
LWPOLYLINE
  5
392
100
AcDbEntity
  8
0
100
AcDbPolyline
 62
250
  6
CONTINUOUS
 90
10
 70
0
 10
-17.6377584117
 20
28.7721997867
 10
-17.7715979519
 20
28.7704841252
 10
-17.9032165449
 20
28.7653518623
 10
-18.0323942983
 20
28.7569552629
 10
-18.1588880926
 20
28.7454474902
 10
-18.2825453796
 20
28.7309717392
 10
-18.4031811426
 20
28.7136365419
 10
-18.5204836231
 20
28.6935372885
 10
-18.6341452691
 20
28.6706558867
 10
-18.7439873362
 20
28.6448512403
  0
LWPOLYLINE
  5
393
100
AcDbEntity
  8
0
100
AcDbPolyline
 62
7
  6
CONTINUOUS
 90
10
 70
0
 10
-17.6377553076
 20
27.758089613
 10
-17.4462536404
 20
27.7600726506
 10
-17.2628176227
 20
27.8035222475
 10
-17.0935482624
 20
27.8770184454
 10
-16.9464832913
 20
27.9655446654
 10
-16.8192987288
 20
28.0650992634
 10
-16.7064248701
 20
28.1864982374
 10
-16.614668696
 20
28.3311851824
 10
-16.556133854
 20
28.4873114618
 10
-16.5403169411
 20
28.6470946503
  0
LWPOLYLINE
  5
394
100
AcDbEntity
  8
0
100
AcDbPolyline
 62
250
  6
CONTINUOUS
 90
10
 70
0
 10
-17.6377522034
 20
28.7721997867
 10
-17.5039126632
 20
28.7704841252
 10
-17.3722940702
 20
28.7653518623
 10
-17.2431163168
 20
28.7569552629
 10
-17.1166225225
 20
28.7454474902
 10
-16.9929652355
 20
28.7309717392
 10
-16.8723294725
 20
28.7136365419
 10
-16.7550269921
 20
28.6935372885
 10
-16.641365346
 20
28.6706558867
 10
-16.5315232789
 20
28.6448512403
  0
LINE
  5
395
100
AcDbEntity
  8
0
100
AcDbLine
 62
250
  6
CONTINUOUS
 10
-16.5403169411
 20
28.6470946503
 11
-16.2694434724
 21
28.6403514962
  0
LINE
  5
396
100
AcDbEntity
  8
0
100
AcDbLine
 62
250
  6
CONTINUOUS
 10
-16.2694434724
 20
28.6403514962
 11
-16.002940704
 21
28.6322105799
  0
LINE
  5
397
100
AcDbEntity
  8
0
100
AcDbLine
 62
250
  6
CONTINUOUS
 10
-16.002940704
 20
28.6322105799
 11
-15.7392059137
 21
28.6226827197
  0
LWPOLYLINE
  5
398
100
AcDbEntity
  8
0
100
AcDbPolyline
 62
7
  6
CONTINUOUS
 90
10
 70
0
 10
-17.6377553076
 20
29.5417559126
 10
-17.4453030372
 20
29.5336304142
 10
-17.2632030538
 20
29.4935948082
 10
-17.0940644656
 20
29.4261171479
 10
-16.936711621
 20
29.3372558828
 10
-16.7948865365
 20
29.2269728871
 10
-16.6805741161
 20
29.0948123895
 10
-16.6002037352
 20
28.9480270197
 10
-16.5509165763
 20
28.7957723596
 10
-16.5315264278
 20
28.6448762612
  0
LWPOLYLINE
  5
399
100
AcDbEntity
  8
0
100
AcDbPolyline
 62
250
  6
CONTINUOUS
 90
3
 70
0
 10
-15.7392059137
 20
28.6226827197
 10
-15.471779481
 20
28.6115259783
 10
-15.3370969562
 20
28.6053365343
  0
LWPOLYLINE
  5
39A
100
AcDbEntity
  8
0
100
AcDbPolyline
 62
7
  6
CONTINUOUS
 90
10
 70
0
 10
-15.7330634265
 20
27.5572848916
 10
-15.6975684579
 20
27.5551158915
 10
-15.6612333302
 20
27.5499659809
 10
-15.6240559979
 20
27.5419722657
 10
-15.5868566254
 20
27.53014258
 10
-15.5485486348
 20
27.51605871
 10
-15.5073367585
 20
27.5025903928
 10
-15.4637343667
 20
27.4894284802
 10
-15.4194417447
 20
27.4744338841
 10
-15.3755391825
 20
27.4565104125
  0
LINE
  5
39B
100
AcDbEntity
  8
0
100
AcDbLine
 62
250
  6
CONTINUOUS
 10
-14.2481719068
 20
28.541215934
 11
-13.9765198285
 21
28.521298634
  0
LINE
  5
39C
100
AcDbEntity
  8
0
100
AcDbLine
 62
250
  6
CONTINUOUS
 10
-13.9765198285
 20
28.521298634
 11
-13.7081428539
 21
28.5000751442
  0
LINE
  5
39D
100
AcDbEntity
  8
0
100
AcDbLine
 62
250
  6
CONTINUOUS
 10
-13.7081428539
 20
28.5000751442
 11
-13.4417541815
 21
28.4774836555
  0
LWPOLYLINE
  5
39E
100
AcDbEntity
  8
0
100
AcDbPolyline
 62
250
  6
CONTINUOUS
 90
3
 70
0
 10
-13.4417541815
 20
28.4774836555
 10
-13.1721769356
 20
28.4530687748
 10
-13.0365304203
 20
28.4401907293
  0
LWPOLYLINE
  5
39F
100
AcDbEntity
  8
RACCORDO
100
AcDbPolyline
 62
250
  6
CONTINUOUS
 90
6
 70
0
 10
-8.8272144996
 20
27.8342075865
 10
-9.4179978175
 20
27.9454862026
 10
-10.0256026923
 20
28.0503523259
 10
-10.6499691751
 20
28.1484039694
 10
-11.2910003877
 20
28.2392299516
 10
-11.9485601657
 20
28.3224096252
  0
LINE
  5
3A0
100
AcDbEntity
  8
RACCORDO
100
AcDbLine
 62
250
  6
CONTINUOUS
 10
-8.2532780641
 20
27.7169095302
 11
-8.8272144996
 21
27.8342075865
  0
LWPOLYLINE
  5
3A1
100
AcDbEntity
  8
0
100
AcDbPolyline
 62
7
  6
CONTINUOUS
 90
10
 70
0
 10
-17.6377553076
 20
31.3581996919
 10
-18.2162645951
 20
31.3291334601
 10
-18.7693358341
 20
31.2053255487
 10
-19.2889004647
 20
30.9962630538
 10
-19.7799992201
 20
30.7135696859
 10
-20.2254971288
 20
30.3562233609
 10
-20.5805899797
 20
29.9332875445
 10
-20.8261165459
 20
29.4733374096
 10
-20.974947585
 20
29.0013175204
 10
-21.032637766
 20
28.5382192614
  0
LWPOLYLINE
  5
3A2
100
AcDbEntity
  8
0
100
AcDbPolyline
 62
7
  6
CONTINUOUS
 90
13
 70
0
 10
-17.6377553076
 20
33.0925652088
 10
-18.3982164355
 20
33.0568844566
 10
-19.1269378487
 20
32.9284278384
 10
-19.8211484691
 20
32.7172880716
 10
-20.4860488196
 20
32.4350348065
 10
-21.1141163238
 20
32.0818058104
 10
-21.6770808219
 20
31.6572954646
 10
-22.1645681887
 20
31.1803745968
 10
-22.5801863576
 20
30.6613725111
 10
-22.9083672336
 20
30.1002671357
 10
-23.1403544724
 20
29.5099711287
 10
-23.2806729248
 20
28.9113493095
 10
-23.3315652865
 20
28.3195206552
  0
LWPOLYLINE
  5
3A3
100
AcDbEntity
  8
0
100
AcDbPolyline
 62
7
  6
CONTINUOUS
 90
13
 70
0
 10
-17.6377553076
 20
33.0925652088
 10
-16.8772941796
 20
33.0568844566
 10
-16.1485727664
 20
32.9284278384
 10
-15.454362146
 20
32.7172880716
 10
-14.7894617955
 20
32.4350348065
 10
-14.1613942913
 20
32.0818058104
 10
-13.5984297932
 20
31.6572954646
 10
-13.1109424264
 20
31.1803745968
 10
-12.6953242575
 20
30.6613725111
 10
-12.3671433815
 20
30.1002671357
 10
-12.1351561427
 20
29.5099711287
 10
-11.9948376903
 20
28.9113493095
 10
-11.9439453286
 20
28.3195206552
  0
LWPOLYLINE
  5
3A4
100
AcDbEntity
  8
0
100
AcDbPolyline
 62
7
  6
CONTINUOUS
 90
10
 70
0
 10
-17.6377553076
 20
31.3581996919
 10
-17.05924602
 20
31.3291334601
 10
-16.506174781
 20
31.2053255487
 10
-15.9866101504
 20
30.9962630538
 10
-15.495511395
 20
30.7135696859
 10
-15.0500134863
 20
30.3562233609
 10
-14.6949206354
 20
29.9332875445
 10
-14.4493940692
 20
29.4733374096
 10
-14.3005630301
 20
29.0013175204
 10
-14.2428728491
 20
28.5382192614
  0
LWPOLYLINE
  5
3A5
100
AcDbEntity
  8
RACCORDO
100
AcDbPolyline
 62
250
  6
CONTINUOUS
 90
11
 70
0
 10
-19.1011211143
 20
36.2216685201
 10
-18.9356050119
 20
36.2455013118
 10
-18.7746470605
 20
36.2659116198
 10
-18.6182981441
 20
36.2831691128
 10
-18.4661179811
 20
36.2975128157
 10
-18.3182029223
 20
36.3091632191
 10
-18.1745950467
 20
36.3183485001
 10
-18.0347571104
 20
36.3252560368
 10
-17.8985413226
 20
36.3300576805
 10
-17.7661929366
 20
36.3329419035
 10
-17.6377542297
 20
36.3340867364
  0
LWPOLYLINE
  5
3A6
100
AcDbEntity
  8
RACCORDO
100
AcDbPolyline
 62
7
  6
CONTINUOUS
 90
16
 70
0
 10
-17.6370101443
 20
36.5216855405
 10
-17.7779719991
 20
36.5204756316
 10
-18.8473410546
 20
36.4483469728
 10
-19.9233352862
 20
36.2601820306
 10
-20.9877689878
 20
35.951974333
 10
-22.0208415153
 20
35.5237031601
 10
-23.0029607125
 20
34.9801618115
 10
-23.9190877062
 20
34.3283078387
 10
-24.755206487
 20
33.576982834
 10
-25.4982659095
 20
32.7384228194
 10
-26.1399313178
 20
31.822749003
 10
-26.67227196
 20
30.8404526972
 10
-27.0866217485
 20
29.8052111019
 10
-27.3761005576
 20
28.7284145173
 10
-27.5323751477
 20
27.6194511741
 10
-27.5501501745
 20
27.3170169876
  0
LWPOLYLINE
  5
3A7
100
AcDbEntity
  8
RACCORDO
100
AcDbPolyline
 62
250
  6
CONTINUOUS
 90
5
 70
0
 10
-17.6377542298
 20
36.3340867374
 10
-17.512672939
 20
36.3329939528
 10
-17.3838291882
 20
36.3302523974
 10
-17.2512624205
 20
36.3256952906
 10
-17.1151192936
 20
36.3191418429
  0
LWPOLYLINE
  5
3A8
100
AcDbEntity
  8
RACCORDO
100
AcDbPolyline
 62
250
  6
CONTINUOUS
 90
7
 70
0
 10
-17.1151192936
 20
36.3191418429
 10
-16.9753443657
 20
36.3104325544
 10
-16.8316806049
 20
36.299413037
 10
-16.6841709736
 20
36.2858856251
 10
-16.5328942212
 20
36.2696547212
 10
-16.3776555836
 20
36.2505356232
 10
-16.2184945114
 20
36.2283043162
  0
LWPOLYLINE
  5
3A9
100
AcDbEntity
  8
RACCORDO
100
AcDbPolyline
 62
250
  6
CONTINUOUS
 90
42
 70
0
 10
-16.2184945114
 20
36.2283043162
 10
-16.0555325014
 20
36.2027428042
 10
-15.8887075196
 20
36.173648179
 10
-15.7181090768
 20
36.1407843875
 10
-15.5438560182
 20
36.1039095144
 10
-15.3659422054
 20
36.0627912353
 10
-15.184578093
 20
36.0171957141
 10
-14.9998220437
 20
35.9668503349
 10
-14.8114612545
 20
35.9114297231
 10
-14.6198230047
 20
35.8506979787
 10
-14.4249376725
 20
35.7843258471
 10
-14.2261943
 20
35.7117642872
 10
-14.0238637185
 20
35.6326796297
 10
-13.8181637837
 20
35.5467130155
 10
-13.6084786186
 20
35.4531534722
 10
-13.3949615102
 20
35.3515165374
 10
-13.1781076713
 20
35.2414578563
 10
-12.9578959854
 20
35.1223788535
 10
-12.7346034415
 20
34.9937635022
 10
-12.5088117258
 20
34.8552423513
 10
-12.2810200713
 20
34.7064110083
 10
-12.0520358404
 20
34.5470505585
 10
-11.822113833
 20
34.376554521
 10
-11.591041429
 20
34.1938706946
 10
-11.3597345842
 20
33.9987120362
 10
-11.1287490426
 20
33.7904393648
 10
-10.8975687984
 20
33.5672807227
 10
-10.666771727
 20
33.3283681836
 10
-10.4377644564
 20
33.0734858928
 10
-10.2115195173
 20
32.8017364436
 10
-9.9878965837
 20
32.510842653
 10
-9.7697229519
 20
32.2021178962
 10
-9.5619928271
 20
31.8806084256
 10
-9.3654324142
 20
31.5463710821
 10
-9.1810397647
 20
31.1997726407
 10
-9.0128924471
 20
30.8473656877
 10
-8.861277428
 20
30.4907302039
 10
-8.7258182828
 20
30.1298323034
 10
-8.6082678302
 20
29.7695567937
 10
-8.5081299024
 20
29.4109542826
 10
-8.4247579067
 20
29.0548367923
 10
-8.358717243
 20
28.7061084339
  0
ARC
  5
3AA
100
AcDbEntity
  8
SUPERFICI
100
AcDbCircle
 62
7
  6
CONTINUOUS
 10
-17.630015501
 20
11.7491436879
 40
0.1000030849
100
AcDbArc
 50
45.0015905414
 51
135.0010177651
  0
ENDSEC
  0
SECTION
  2
OBJECTS
  0
DICTIONARY
  5
C
100
AcDbDictionary
280
0
281
1
  3
ACAD_GROUP
350
D
  3
ACAD_MLINESTYLE
350
17
  3
ACAD_LAYOUT
350
1A
  3
ACAD_PLOTSETTINGS
350
19
  3
ACAD_PLOTSTYLENAME
350
E
  0
DICTIONARY
  5
D
102
{ACAD_REACTORS
330
C
102
}
100
AcDbDictionary
280
0
281
1
  0
ACDBDICTIONARYWDFLT
  5
E
102
{ACAD_REACTORS
330
C
102
}
100
AcDbDictionary
281
1
  3
Normal
350
F
100
AcDbDictionaryWithDefault
340
F
  0
DICTIONARY
  5
17
102
{ACAD_REACTORS
330
C
102
}
100
AcDbDictionary
280
0
281
1
  3
Standard
350
18
  0
DICTIONARY
  5
19
102
{ACAD_REACTORS
330
C
102
}
100
AcDbDictionary
281
1
  0
DICTIONARY
  5
1A
102
{ACAD_REACTORS
330
C
102
}
100
AcDbDictionary
281
1
  3
Model
350
3AB
  3
Layout1
350
3AC
  0
ACDBPLACEHOLDER
  5
F
102
{ACAD_REACTORS
330
E
102
}
  0
MLINESTYLE
  5
18
102
{ACAD_REACTORS
330
17
102
}
100
AcDbMlineStyle
  2
STANDARD
 70
0
  3

 62
256
 51
90.0
 52
90.0
 71
2
 49
0.5
 62
256
  6
BYLAYER
 49
-0.5
 62
256
  6
BYLAYER
  0
LAYOUT
  5
3AB
102
{ACAD_REACTORS
330
1A
102
}
100
AcDbPlotSettings
  1

  2
none_device
  4
ISO_A4_(297.00_x_210.00_MM)
  6

 40
0.0
 41
0.0
 42
0.0
 43
0.0
 44
297.0
 45
210.0
 46
0.0
 47
0.0
 48
0.0
 49
0.0
140
0.0
141
0.0
142
1.0
143
1.0
 70
1024
 72
1
 73
0
 74
0
  7

 75
0
147
1.0
148
0.0
149
0.0
100
AcDbLayout
  1
Model
 70
0
 71
0
 10
0.0
 20
0.0
 11
297.0
 21
210.0
 12
0.0
 22
0.0
 32
0.0
 14
0.0
 24
0.0
 34
0.0
 15
0.0
 25
0.0
 35
0.0
146
0.0
 13
0.0
 23
0.0
 33
0.0
 16
1.0
 26
0.0
 36
0.0
 17
0.0
 27
1.0
 37
0.0
 76
0
330
21C
345
0
346
0
  0
LAYOUT
  5
3AC
102
{ACAD_REACTORS
330
1A
102
}
100
AcDbPlotSettings
  1

  2
none_device
  4
ISO_A4_(297.00_x_210.00_MM)
  6

 40
0.0
 41
0.0
 42
0.0
 43
0.0
 44
297.0
 45
210.0
 46
0.0
 47
0.0
 48
0.0
 49
0.0
140
0.0
141
0.0
142
1.0
143
1.0
 70
0
 72
1
 73
0
 74
0
  7

 75
0
147
1.0
148
0.0
149
0.0
100
AcDbLayout
  1
Layout1
 70
0
 71
1
 10
0.0
 20
0.0
 11
297.0
 21
210.0
 12
0.0
 22
0.0
 32
0.0
 14
0.0
 24
0.0
 34
0.0
 15
0.0
 25
0.0
 35
0.0
146
0.0
 13
0.0
 23
0.0
 33
0.0
 16
1.0
 26
0.0
 36
0.0
 17
0.0
 27
1.0
 37
0.0
 76
0
330
21D
345
0
346
0
  0
ENDSEC
  0
EOF
