  0
SECTION
  2
HEADER
  9
$ACADVER
  1
AC1024
  9
$DWGCODEPAGE
  3
ANSI_1252
  9
$EXTMAX
 10
297.0
 20
210.0
 30
0.0
  9
$EXTMIN
 10
0.0
 20
0.0
 30
0.0
  9
$LIMMIN
 10
0.0
 20
0.0
  9
$LIMMAX
 10
297.0
 20
210.0
  9
$VIEWCTR
 10
148.5
 20
105.0
  9
$VIEWSIZE
 40
210.0
  9
$CLAYER
  8
0
  9
$LTSCALE
 40
16.335
  9
$CELTYPE
  6
BYLAYER
  9
$DIMSCALE
 40
1.0
  9
$DIMASZ
 40
3.0
  9
$DIMEXO
 40
0.5
  9
$DIMDLI
 40
11.286
  9
$DIMEXE
 40
1.5
  9
$DIMCEN
 40
2.673
  9
$DIMLFAC
 40
1.0
  9
$DIMBLK
  1
_FILLED
  9
$DIMALT
 70
0
  9
$DIMALTF
 40
0.0393700787
  9
$DIMTXT
 40
3.0
  9
$DIMTOL
 70
1
  9
$DIMLIM
 70
0
  9
$DIMTFAC
 40
1.0
  9
$DIMTP
 40
0.01
  9
$DIMTM
 40
0.01
  9
$DIMGAP
 40
0.625
  9
$DIMDSEP
 70
44
  9
$AUNITS
 70
0
  9
$PDMODE
 70
3
  9
$PDSIZE
 40
3.0
  9
$HANDSEED
  5
470
  9
$TILEMODE
 70
1
  9
$MEASUREMENT
 70
1
  9
$INSUNITS
 70
4
  0
ENDSEC
  0
SECTION
  2
CLASSES
  0
CLASS
  1
ACDBDICTIONARYWDFLT
  2
AcDbDictionaryWithDefault
  3
AutoCAD 2000
 90
0
 91
1
280
0
281
0
  0
CLASS
  1
ACDBPLACEHOLDER
  2
AcDbPlaceHolder
  3
AutoCAD 2000
 90
0
 91
1
280
0
281
0
  0
CLASS
  1
LAYOUT
  2
AcDbLayout
  3
AutoCAD 2000
 90
0
 91
0
280
0
281
0
  0
ENDSEC
  0
SECTION
  2
TABLES
  0
TABLE
  2
VPORT
  5
8
100
AcDbSymbolTable
 70
2
  0
VPORT
  5
1F4
100
AcDbSymbolTableRecord
100
AcDbViewportTableRecord
  2
*ACTIVE
 70
0
 10
0.0
 20
0.0
 11
1.0
 21
1.0
 12
148.5
 22
105.0
 13
0.0
 23
0.0
 14
1.0
 24
1.0
 15
0.0
 25
0.0
 16
0.0
 26
0.0
 36
1.0
 17
0.0
 27
0.0
 37
0.0
 40
210.0
 41
1.4142857143
 42
50.0
 43
0.0
 44
0.0
 50
0.0
 51
0.0
 71
0
 72
100
 73
1
 74
1
 75
0
 76
0
 77
0
 78
0
  0
ENDTAB
  0
TABLE
  2
LTYPE
  5
5
100
AcDbSymbolTable
 70
6
  0
LTYPE
  5
14
100
AcDbSymbolTableRecord
100
AcDbLinetypeTableRecord
  2
BYBLOCK
 70
0
  3

 72
65
 73
0
 40
0.0
  0
LTYPE
  5
15
100
AcDbSymbolTableRecord
100
AcDbLinetypeTableRecord
  2
BYLAYER
 70
0
  3

 72
65
 73
0
 40
0.0
  0
LTYPE
  5
16
100
AcDbSymbolTableRecord
100
AcDbLinetypeTableRecord
  2
CONTINUOUS
 70
64
  3
Solid line
 72
65
 73
0
 40
0.0
  0
LTYPE
  5
1F5
100
AcDbSymbolTableRecord
100
AcDbLinetypeTableRecord
  2
CENTER
 70
64
  3
____ _ ____ _ ____ _ ____ _ ____ _ ____ _ ____
 72
65
 73
4
 40
0.6
 49
0.375
 74
0
 49
-0.075
 74
0
 49
0.075
 74
0
 49
-0.075
 74
0
  0
LTYPE
  5
1F6
100
AcDbSymbolTableRecord
100
AcDbLinetypeTableRecord
  2
HIDDEN
 70
64
  3
- - - - - - - - - - - - - - - - - - - -
 72
65
 73
2
 40
0.2
 49
0.1
 74
0
 49
-0.1
 74
0
  0
LTYPE
  5
1F7
100
AcDbSymbolTableRecord
100
AcDbLinetypeTableRecord
  2
PHANTOM
 70
64
  3
_____ _ _ _____ _ _ _____ _ _ _____
 72
65
 73
6
 40
0.8
 49
0.45
 74
0
 49
-0.05
 74
0
 49
0.1
 74
0
 49
-0.05
 74
0
 49
0.1
 74
0
 49
-0.05
 74
0
  0
LTYPE
  5
1F8
100
AcDbSymbolTableRecord
100
AcDbLinetypeTableRecord
  2
DOT
 70
64
  3
. . . . . . . . . . . . . . . . . . . .
 72
65
 73
2
 40
0.2
 49
0.1
 74
0
 49
-0.1
 74
0
  0
LTYPE
  5
1F9
100
AcDbSymbolTableRecord
100
AcDbLinetypeTableRecord
  2
DASHED
 70
64
  3
- - - - - - - - - - - - - - - - - - - -
 72
65
 73
2
 40
0.2
 49
0.1
 74
0
 49
-0.1
 74
0
  0
ENDTAB
  0
TABLE
  2
LAYER
  5
2
100
AcDbSymbolTable
 70
36
  0
LAYER
  5
10
100
AcDbSymbolTableRecord
100
AcDbLayerTableRecord
  2
0
 70
0
 62
7
  6
CONTINUOUS
370
-3
390
F
  0
LAYER
  5
1FA
100
AcDbSymbolTableRecord
100
AcDbLayerTableRecord
  2
DEFAULT_1
 70
0
 62
7
  6
CENTER
370
-3
390
F
  0
LAYER
  5
1FB
100
AcDbSymbolTableRecord
100
AcDbLayerTableRecord
  2
DEFAULT_2
 70
0
 62
7
  6
HIDDEN
370
-3
390
F
  0
LAYER
  5
1FC
100
AcDbSymbolTableRecord
100
AcDbLayerTableRecord
  2
DEFAULT_3
 70
0
 62
7
  6
PHANTOM
370
-3
390
F
  0
LAYER
  5
1FD
100
AcDbSymbolTableRecord
100
AcDbLayerTableRecord
  2
ASSI
 70
0
 62
7
  6
CONTINUOUS
370
-3
390
F
  0
LAYER
  5
1FE
100
AcDbSymbolTableRecord
100
AcDbLayerTableRecord
  2
COORDINATE
 70
0
 62
7
  6
CONTINUOUS
370
-3
390
F
  0
LAYER
  5
1FF
100
AcDbSymbolTableRecord
100
AcDbLayerTableRecord
  2
COPY_PUBLISH
 70
0
 62
7
  6
CONTINUOUS
370
-3
390
F
  0
LAYER
  5
200
100
AcDbSymbolTableRecord
100
AcDbLayerTableRecord
  2
COSMETICI
 70
0
 62
7
  6
CONTINUOUS
370
-3
390
F
  0
LAYER
  5
201
100
AcDbSymbolTableRecord
100
AcDbLayerTableRecord
  2
CURVE
 70
0
 62
7
  6
CONTINUOUS
370
-3
390
F
  0
LAYER
  5
202
100
AcDbSymbolTableRecord
100
AcDbLayerTableRecord
  2
DRAFT
 70
0
 62
7
  6
CONTINUOUS
370
-3
390
F
  0
LAYER
  5
203
100
AcDbSymbolTableRecord
100
AcDbLayerTableRecord
  2
IMPORT_IGES
 70
0
 62
7
  6
CONTINUOUS
370
-3
390
F
  0
LAYER
  5
204
100
AcDbSymbolTableRecord
100
AcDbLayerTableRecord
  2
NOTE
 70
0
 62
7
  6
CONTINUOUS
370
-3
390
F
  0
LAYER
  5
205
100
AcDbSymbolTableRecord
100
AcDbLayerTableRecord
  2
PIANI
 70
0
 62
7
  6
CONTINUOUS
370
-3
390
F
  0
LAYER
  5
206
100
AcDbSymbolTableRecord
100
AcDbLayerTableRecord
  2
PUNTI
 70
0
 62
7
  6
CONTINUOUS
370
-3
390
F
  0
LAYER
  5
207
100
AcDbSymbolTableRecord
100
AcDbLayerTableRecord
  2
RACCORDO
 70
0
 62
7
  6
CONTINUOUS
370
-3
390
F
  0
LAYER
  5
208
100
AcDbSymbolTableRecord
100
AcDbLayerTableRecord
  2
SIMBOLI
 70
0
 62
7
  6
CONTINUOUS
370
-3
390
F
  0
LAYER
  5
209
100
AcDbSymbolTableRecord
100
AcDbLayerTableRecord
  2
SMUSSO
 70
0
 62
7
  6
CONTINUOUS
370
-3
390
F
  0
LAYER
  5
20A
100
AcDbSymbolTableRecord
100
AcDbLayerTableRecord
  2
SUPERFICI
 70
0
 62
7
  6
CONTINUOUS
370
-3
390
F
  0
LAYER
  5
20B
100
AcDbSymbolTableRecord
100
AcDbLayerTableRecord
  2
TRASH
 70
0
 62
7
  6
CONTINUOUS
370
-3
390
F
  0
ENDTAB
  0
TABLE
  2
STYLE
  5
3
100
AcDbSymbolTable
 70
1
  0
STYLE
  5
11
100
AcDbSymbolTableRecord
100
AcDbTextStyleTableRecord
  2
STANDARD
 70
0
 40
0.0
 41
0.8
 50
0.0
 71
0
 42
0.2
  3
txt
  4

  0
STYLE
  5
20C
100
AcDbSymbolTableRecord
100
AcDbTextStyleTableRecord
  2
TEXTSTYLE_1
 70
0
 40
0.0
 41
0.8
 50
0.0
 71
0
 42
0.2
  3
gdt
  4

  0
ENDTAB
  0
TABLE
  2
VIEW
  5
6
100
AcDbSymbolTable
 70
0
  0
ENDTAB
  0
TABLE
  2
UCS
  5
7
100
AcDbSymbolTable
 70
0
  0
ENDTAB
  0
TABLE
  2
APPID
  5
9
100
AcDbSymbolTable
 70
1
  0
APPID
  5
20D
100
AcDbSymbolTableRecord
100
AcDbRegAppTableRecord
  2
ACAD
 70
0
  0
ENDTAB
  0
TABLE
  2
BLOCK_RECORD
  5
1
100
AcDbSymbolTable
 70
0
  0
BLOCK_RECORD
  5
20E
100
AcDbSymbolTableRecord
100
AcDbBlockTableRecord
  2
*Model_Space
  0
BLOCK_RECORD
  5
20F
100
AcDbSymbolTableRecord
100
AcDbBlockTableRecord
  2
*Paper_Space
  0
BLOCK_RECORD
  5
210
100
AcDbSymbolTableRecord
100
AcDbBlockTableRecord
  2
_FILLED
  0
ENDTAB
  0
TABLE
  2
DIMSTYLE
  5
A
100
AcDbSymbolTable
 70
1
100
AcDbDimStyleTable
 71
0
  0
DIMSTYLE
105
211
100
AcDbSymbolTableRecord
100
AcDbDimStyleTableRecord
  2
STANDARD
 70
0
  3

  4

 40
1.0
 41
3.0
 42
0.5
 43
0.38
 44
1.5
 45
0.0
 46
0.0
 47
0.01
 48
0.01
140
3.0
141
0.09
142
0.0
143
25.4
144
1.0
145
0.0
146
1.0
147
0.625
 71
1
 72
0
 73
0
 74
0
 75
0
 76
0
 77
1
 78
8
 79
2
170
0
171
1
172
0
173
0
174
0
175
0
176
0
177
0
178
0
270
2
179
2
271
2
272
2
273
2
274
2
275
0
280
0
281
0
282
0
283
1
284
8
285
0
286
0
287
3
288
0
340
11
278
44
341
210
342
210
343
210
344
210
  0
ENDTAB
  0
ENDSEC
  0
SECTION
  2
BLOCKS
  0
BLOCK
  5
20
100
AcDbEntity
  8
0
100
AcDbBlockBegin
  2
*Model_Space
 70
0
 10
0.0
 20
0.0
 30
0.0
  3
*Model_Space
  1

  0
ENDBLK
  5
21
100
AcDbEntity
  8
0
100
AcDbBlockEnd
  0
BLOCK
  5
1C
100
AcDbEntity
  8
0
100
AcDbBlockBegin
  2
*Paper_Space
 70
0
 10
0.0
 20
0.0
 30
0.0
  3
*Paper_Space
  1

  0
ENDBLK
  5
1D
100
AcDbEntity
  8
0
100
AcDbBlockEnd
  0
BLOCK
  5
212
100
AcDbEntity
  8
0
100
AcDbBlockBegin
  2
_FILLED
 70
64
 10
0.0
 20
0.0
  3
_FILLED
  1

  0
SOLID
  5
213
100
AcDbEntity
  8
0
  6
BYBLOCK
 62
0
100
AcDbTrace
 10
0.0
 20
0.0
 11
-1.0
 21
0.3166666667
 12
-1.0
 22
-0.3166666667
 13
-1.0
 23
-0.3166666667
  0
ENDBLK
  5
214
100
AcDbEntity
  8
0
  6
BYBLOCK
 62
0
100
AcDbBlockEnd
  0
ENDSEC
  0
SECTION
  2
ENTITIES
  0
LINE
  5
215
100
AcDbEntity
  8
IMPORT_IGES
100
AcDbLine
 62
7
  6
CONTINUOUS
 10
-54.6352252414
 20
55.097681034
 11
-54.6935049945
 21
55.0394012809
  0
LINE
  5
216
100
AcDbEntity
  8
IMPORT_IGES
100
AcDbLine
 62
7
  6
CONTINUOUS
 10
-63.3920346761
 20
56.7564531412
 11
-63.3920346761
 21
-56.7564531412
  0
LINE
  5
217
100
AcDbEntity
  8
IMPORT_IGES
100
AcDbLine
 62
7
  6
CONTINUOUS
 10
-61.5894081504
 20
-56.6164531412
 11
-61.5894081504
 21
55.1164531342
  0
LINE
  5
218
100
AcDbEntity
  8
IMPORT_IGES
100
AcDbLine
 62
7
  6
CONTINUOUS
 10
-61.5308370377
 20
-45.2528744695
 11
-61.5308370377
 21
-43.7528744695
  0
LINE
  5
219
100
AcDbEntity
  8
IMPORT_IGES
100
AcDbLine
 62
7
  6
CONTINUOUS
 10
-61.5308370377
 20
4.7505101182
 11
-61.5308370377
 21
6.2505101182
  0
LINE
  5
21A
100
AcDbEntity
  8
IMPORT_IGES
100
AcDbLine
 62
7
  6
CONTINUOUS
 10
-61.3853643239
 20
-56.6164531412
 11
-61.3853643239
 21
-45.2528744695
  0
LINE
  5
21B
100
AcDbEntity
  8
IMPORT_IGES
100
AcDbLine
 62
7
  6
CONTINUOUS
 10
-61.3853643239
 20
-43.7528744695
 11
-61.3853643239
 21
4.7505101182
  0
LINE
  5
21C
100
AcDbEntity
  8
IMPORT_IGES
100
AcDbLine
 62
7
  6
CONTINUOUS
 10
-61.3853643239
 20
6.2505101182
 11
-61.3853643239
 21
54.9124093078
  0
LINE
  5
21D
100
AcDbEntity
  8
IMPORT_IGES
100
AcDbLine
 62
7
  6
CONTINUOUS
 10
-61.1987432316
 20
-56.4162085438
 11
-61.1987164675
 21
54.7291986259
  0
LINE
  5
21E
100
AcDbEntity
  8
IMPORT_IGES
100
AcDbLine
 62
7
  6
CONTINUOUS
 10
0.9599221756
 20
-61.5158582386
 11
0.8803650621
 21
-61.5179433465
  0
LINE
  5
21F
100
AcDbEntity
  8
IMPORT_IGES
100
AcDbLine
 62
7
  6
CONTINUOUS
 10
-0.9470122955
 20
-61.4967133955
 11
-0.867455182
 21
-61.4946282876
  0
LINE
  5
220
100
AcDbEntity
  8
IMPORT_IGES
100
AcDbLine
 62
7
  6
CONTINUOUS
 10
0.8803650621
 20
-61.5179433465
 11
0.7857143261
 21
-61.5198353592
  0
LINE
  5
221
100
AcDbEntity
  8
IMPORT_IGES
100
AcDbLine
 62
7
  6
CONTINUOUS
 10
-0.867455182
 20
-61.4946282876
 11
-0.772804446
 21
-61.4927362749
  0
LINE
  5
222
100
AcDbEntity
  8
IMPORT_IGES
100
AcDbLine
 62
7
  6
CONTINUOUS
 10
0.7857143261
 20
-61.5198353592
 11
0.6201379064
 21
-61.5222181634
  0
LINE
  5
223
100
AcDbEntity
  8
IMPORT_IGES
100
AcDbLine
 62
7
  6
CONTINUOUS
 10
-0.772804446
 20
-61.4927362749
 11
-0.6072280263
 21
-61.4903534707
  0
LINE
  5
224
100
AcDbEntity
  8
IMPORT_IGES
100
AcDbLine
 62
7
  6
CONTINUOUS
 10
0.6201379064
 20
-61.5222181634
 11
0.3619830906
 21
-61.5244522427
  0
LINE
  5
225
100
AcDbEntity
  8
IMPORT_IGES
100
AcDbLine
 62
7
  6
CONTINUOUS
 10
-0.6072280263
 20
-61.4903534707
 11
-0.3490732105
 21
-61.4881193914
  0
LINE
  5
226
100
AcDbEntity
  8
IMPORT_IGES
100
AcDbLine
 62
7
  6
CONTINUOUS
 10
0.3619830906
 20
-61.5244522427
 11
0.0792367298
 21
-61.5254406619
  0
LINE
  5
227
100
AcDbEntity
  8
IMPORT_IGES
100
AcDbLine
 62
7
  6
CONTINUOUS
 10
-0.3490732105
 20
-61.4881193914
 11
-0.0663268497
 21
-61.4871309722
  0
LINE
  5
228
100
AcDbEntity
  8
IMPORT_IGES
100
AcDbLine
 62
7
  6
CONTINUOUS
 10
-56.7564531412
 20
-63.3920346761
 11
56.7564531412
 21
-63.3920346761
  0
LINE
  5
229
100
AcDbEntity
  8
IMPORT_IGES
100
AcDbLine
 62
7
  6
CONTINUOUS
 10
5.1564549401
 20
-62.5174416321
 11
-5.1435450599
 21
-62.5174416321
  0
LINE
  5
22A
100
AcDbEntity
  8
IMPORT_IGES
100
AcDbLine
 62
7
  6
CONTINUOUS
 10
56.6164531412
 20
-61.5894081504
 11
5.1564549401
 21
-61.5894081504
  0
LINE
  5
22B
100
AcDbEntity
  8
IMPORT_IGES
100
AcDbLine
 62
7
  6
CONTINUOUS
 10
-5.1435450599
 20
-61.5894081504
 11
-56.6164531412
 21
-61.5894081504
  0
LINE
  5
22C
100
AcDbEntity
  8
IMPORT_IGES
100
AcDbLine
 62
7
  6
CONTINUOUS
 10
-5.1435450599
 20
-61.5549627774
 11
5.1564549401
 21
-61.5549627774
  0
LINE
  5
22D
100
AcDbEntity
  8
IMPORT_IGES
100
AcDbLine
 62
7
  6
CONTINUOUS
 10
5.1564549401
 20
-61.4528725316
 11
-5.1435450599
 21
-61.4528725316
  0
LINE
  5
22E
100
AcDbEntity
  8
IMPORT_IGES
100
AcDbLine
 62
7
  6
CONTINUOUS
 10
-5.1435450599
 20
-61.402850704
 11
-4.9935450599
 21
-61.402850704
  0
LINE
  5
22F
100
AcDbEntity
  8
IMPORT_IGES
100
AcDbLine
 62
7
  6
CONTINUOUS
 10
5.0064549401
 20
-61.402850704
 11
5.1564549401
 21
-61.402850704
  0
LINE
  5
230
100
AcDbEntity
  8
IMPORT_IGES
100
AcDbLine
 62
7
  6
CONTINUOUS
 10
56.6164531412
 20
-61.3853643239
 11
5.0064549401
 21
-61.3853643239
  0
LINE
  5
231
100
AcDbEntity
  8
IMPORT_IGES
100
AcDbLine
 62
7
  6
CONTINUOUS
 10
-4.9935450599
 20
-61.3853643239
 11
-56.6164531412
 21
-61.3853643239
  0
LINE
  5
232
100
AcDbEntity
  8
IMPORT_IGES
100
AcDbLine
 62
7
  6
CONTINUOUS
 10
56.4816290428
 20
-61.1462344808
 11
6.0064529889
 21
-61.1462344808
  0
LINE
  5
233
100
AcDbEntity
  8
IMPORT_IGES
100
AcDbLine
 62
7
  6
CONTINUOUS
 10
5.0064549401
 20
-61.1462344808
 11
-4.9935450599
 21
-61.1462344808
  0
LINE
  5
234
100
AcDbEntity
  8
IMPORT_IGES
100
AcDbLine
 62
7
  6
CONTINUOUS
 10
-5.9935462887
 20
-61.1462344808
 11
-56.4687184336
 21
-61.1462344808
  0
LINE
  5
235
100
AcDbEntity
  8
IMPORT_IGES
100
AcDbLine
 62
7
  6
CONTINUOUS
 10
-0.8935450599
 20
-59.6462344808
 11
0.9064549401
 21
-59.6462344808
  0
LINE
  5
236
100
AcDbEntity
  8
IMPORT_IGES
100
AcDbLine
 62
7
  6
CONTINUOUS
 10
0.0792367298
 20
-61.5254406619
 11
-0.2080778398
 21
-61.5251148157
  0
LINE
  5
237
100
AcDbEntity
  8
IMPORT_IGES
100
AcDbLine
 62
7
  6
CONTINUOUS
 10
-0.0663268497
 20
-61.4871309722
 11
0.2209877199
 21
-61.4874568183
  0
LINE
  5
238
100
AcDbEntity
  8
IMPORT_IGES
100
AcDbLine
 62
7
  6
CONTINUOUS
 10
-0.2080778398
 20
-61.5251148157
 11
-0.4802486934
 21
-61.5235012728
  0
LINE
  5
239
100
AcDbEntity
  8
IMPORT_IGES
100
AcDbLine
 62
7
  6
CONTINUOUS
 10
0.2209877199
 20
-61.4874568183
 11
0.4931585735
 21
-61.4890703613
  0
LINE
  5
23A
100
AcDbEntity
  8
IMPORT_IGES
100
AcDbLine
 62
7
  6
CONTINUOUS
 10
-0.4802486934
 20
-61.5235012728
 11
-0.6631022739
 21
-61.5215176645
  0
LINE
  5
23B
100
AcDbEntity
  8
IMPORT_IGES
100
AcDbLine
 62
7
  6
CONTINUOUS
 10
0.4931585735
 20
-61.4890703613
 11
0.676012154
 21
-61.4910539695
  0
LINE
  5
23C
100
AcDbEntity
  8
IMPORT_IGES
100
AcDbLine
 62
7
  6
CONTINUOUS
 10
-0.6631022739
 20
-61.5215176645
 11
-0.8199849348
 21
-61.518953656
  0
LINE
  5
23D
100
AcDbEntity
  8
IMPORT_IGES
100
AcDbLine
 62
7
  6
CONTINUOUS
 10
0.676012154
 20
-61.4910539695
 11
0.8328948149
 21
-61.493617978
  0
LWPOLYLINE
  5
23E
100
AcDbEntity
  8
IMPORT_IGES
100
AcDbPolyline
 62
7
  6
CONTINUOUS
 90
11
 70
0
 10
-0.8199849348
 20
-61.518953656
 10
-0.9080277705
 20
-61.5169549052
 10
-0.9460676498
 20
-61.5158865011
 10
-0.9801843187
 20
-61.5147722866
 10
-1.0099292373
 20
-61.5136274345
 10
-1.0352325951
 20
-61.5124517649
 10
-1.0561642025
 20
-61.5112454578
 10
-1.0724849518
 20
-61.510024226
 10
-1.0841352956
 20
-61.5087881562
 10
-1.0911747811
 20
-61.5075371617
 10
-1.0935450599
 20
-61.5062858114
  0
LWPOLYLINE
  5
23F
100
AcDbEntity
  8
IMPORT_IGES
100
AcDbPolyline
 62
7
  6
CONTINUOUS
 90
11
 70
0
 10
0.8328948149
 20
-61.493617978
 10
0.9209376506
 20
-61.4956167289
 10
0.9589775299
 20
-61.496685133
 10
0.9930941988
 20
-61.4977993475
 10
1.0228391174
 20
-61.4989441996
 10
1.0481424752
 20
-61.5001198692
 10
1.0690740826
 20
-61.5013261763
 10
1.0853948319
 20
-61.502547408
 10
1.0970451757
 20
-61.5037834779
 10
1.1040846612
 20
-61.5050344723
 10
1.1064549401
 20
-61.5062858227
  0
LINE
  5
240
100
AcDbEntity
  8
IMPORT_IGES
100
AcDbLine
 62
7
  6
CONTINUOUS
 10
-57.1652486955
 20
54.9124093078
 11
-57.1652486955
 21
54.7291986259
  0
LINE
  5
241
100
AcDbEntity
  8
IMPORT_IGES
100
AcDbLine
 62
250
  6
CONTINUOUS
 10
-56.6164531412
 20
-61.5894081504
 11
-56.6164531412
 21
-61.3853643239
  0
LINE
  5
242
100
AcDbEntity
  8
IMPORT_IGES
100
AcDbLine
 62
250
  6
CONTINUOUS
 10
-55.3089824586
 20
50.1383043579
 11
-55.3089824586
 21
-49.4581317263
  0
LINE
  5
243
100
AcDbEntity
  8
IMPORT_IGES
100
AcDbLine
 62
7
  6
CONTINUOUS
 10
-54.4164531412
 20
61.5894080725
 11
-54.4164531412
 21
57.1164531342
  0
LINE
  5
244
100
AcDbEntity
  8
IMPORT_IGES
100
AcDbLine
 62
250
  6
CONTINUOUS
 10
-54.3114184083
 20
-49.4581317263
 11
-54.3114184083
 21
50.1383043579
  0
LINE
  5
245
100
AcDbEntity
  8
IMPORT_IGES
100
AcDbLine
 62
250
  6
CONTINUOUS
 10
-53.3112777913
 20
50.1383043579
 11
-53.3112777913
 21
-49.4581317263
  0
LINE
  5
246
100
AcDbEntity
  8
IMPORT_IGES
100
AcDbLine
 62
250
  6
CONTINUOUS
 10
-53.0120085762
 20
-49.4581317263
 11
-53.0120085762
 21
50.1383043579
  0
LWPOLYLINE
  5
247
100
AcDbEntity
  8
IMPORT_IGES
100
AcDbPolyline
 62
250
  6
CONTINUOUS
 90
7
 70
0
 10
-37.9671490077
 20
38.5449464639
 10
-37.9318135828
 20
38.5920009657
 10
-37.8489463242
 20
38.7147527241
 10
-37.7726545893
 20
38.8414934639
 10
-37.702714462
 20
38.9722045161
 10
-37.6389408923
 20
39.1067836503
 10
-37.584266079
 20
39.2385353782
  0
LINE
  5
248
100
AcDbEntity
  8
IMPORT_IGES
100
AcDbLine
 62
7
  6
CONTINUOUS
 10
0.9064549401
 20
-58.1462344808
 11
-0.8935450599
 21
-58.1462344808
  0
LINE
  5
249
100
AcDbEntity
  8
IMPORT_IGES
100
AcDbLine
 62
7
  6
CONTINUOUS
 10
-5.9935453301
 20
-57.1652486955
 11
-4.9935453301
 21
-57.1652486955
  0
LINE
  5
24A
100
AcDbEntity
  8
IMPORT_IGES
100
AcDbLine
 62
7
  6
CONTINUOUS
 10
5.0064549401
 20
-57.1652486955
 11
6.0064539475
 21
-57.1652486955
  0
LINE
  5
24B
100
AcDbEntity
  8
IMPORT_IGES
100
AcDbLine
 62
250
  6
CONTINUOUS
 10
61.5894081504
 20
-56.6164531412
 11
61.3853643239
 21
-56.6164531412
  0
LINE
  5
24C
100
AcDbEntity
  8
IMPORT_IGES
100
AcDbLine
 62
250
  6
CONTINUOUS
 10
-61.3853643239
 20
-56.6164531412
 11
-61.5894081504
 21
-56.6164531412
  0
LINE
  5
24D
100
AcDbEntity
  8
IMPORT_IGES
100
AcDbLine
 62
7
  6
CONTINUOUS
 10
-5.9935448439
 20
-55.14623424
 11
-4.9935448439
 21
-55.1462344808
  0
LINE
  5
24E
100
AcDbEntity
  8
IMPORT_IGES
100
AcDbLine
 62
7
  6
CONTINUOUS
 10
6.0064544337
 20
-55.1462371297
 11
5.0064544337
 21
-55.1462368889
  0
LINE
  5
24F
100
AcDbEntity
  8
IMPORT_IGES
100
AcDbLine
 62
250
  6
CONTINUOUS
 10
-49.7917631021
 20
-54.9753510828
 11
49.8046729822
 21
-54.9753510828
  0
LINE
  5
250
100
AcDbEntity
  8
IMPORT_IGES
100
AcDbLine
 62
250
  6
CONTINUOUS
 10
49.8046729822
 20
-53.9777870326
 11
-49.7917631021
 21
-53.9777870326
  0
LINE
  5
251
100
AcDbEntity
  8
IMPORT_IGES
100
AcDbLine
 62
7
  6
CONTINUOUS
 10
-51.6164531412
 20
54.8984133352
 11
-51.6164531412
 21
63.3920346761
  0
LINE
  5
252
100
AcDbEntity
  8
IMPORT_IGES
100
AcDbLine
 62
7
  6
CONTINUOUS
 10
-51.4164531412
 20
63.2494164164
 11
-51.4164531412
 21
54.8264741885
  0
LINE
  5
253
100
AcDbEntity
  8
IMPORT_IGES
100
AcDbLine
 62
250
  6
CONTINUOUS
 10
-49.7917631021
 20
-54.9753510828
 11
-49.7917631021
 21
-52.6783772005
  0
LINE
  5
254
100
AcDbEntity
  8
IMPORT_IGES
100
AcDbLine
 62
250
  6
CONTINUOUS
 10
-49.7917631021
 20
53.3585498321
 11
-49.7917631021
 21
55.6555237144
  0
LINE
  5
255
100
AcDbEntity
  8
IMPORT_IGES
100
AcDbLine
 62
7
  6
CONTINUOUS
 10
-49.4917631021
 20
23.5518808867
 11
-49.4917631021
 21
27.5518808867
  0
LINE
  5
256
100
AcDbEntity
  8
IMPORT_IGES
100
AcDbLine
 62
7
  6
CONTINUOUS
 10
-48.4917631021
 20
7.5900868348
 11
-48.4917631021
 21
-6.9099142032
  0
LINE
  5
257
100
AcDbEntity
  8
IMPORT_IGES
100
AcDbLine
 62
7
  6
CONTINUOUS
 10
-48.4917631021
 20
-29.8228744695
 11
-48.4917631021
 21
-31.7601166439
  0
LINE
  5
258
100
AcDbEntity
  8
IMPORT_IGES
100
AcDbLine
 62
7
  6
CONTINUOUS
 10
-48.4917631021
 20
-32.7601166439
 11
-48.4917631021
 21
-40.6581316587
  0
LINE
  5
259
100
AcDbEntity
  8
IMPORT_IGES
100
AcDbLine
 62
7
  6
CONTINUOUS
 10
-48.4917631021
 20
-41.6581316587
 11
-48.4917631021
 21
-46.6581317263
  0
LINE
  5
25A
100
AcDbEntity
  8
IMPORT_IGES
100
AcDbLine
 62
7
  6
CONTINUOUS
 10
-48.4917631021
 20
24.0518808867
 11
-48.4917631021
 21
27.0518808867
  0
LINE
  5
25B
100
AcDbEntity
  8
IMPORT_IGES
100
AcDbLine
 62
7
  6
CONTINUOUS
 10
-47.523182219
 20
-29.8228744695
 11
-47.523182219
 21
-31.7601166439
  0
LINE
  5
25C
100
AcDbEntity
  8
IMPORT_IGES
100
AcDbLine
 62
7
  6
CONTINUOUS
 10
-47.523182219
 20
-32.7601166439
 11
-47.523182219
 21
-40.6581316587
  0
LINE
  5
25D
100
AcDbEntity
  8
IMPORT_IGES
100
AcDbLine
 62
7
  6
CONTINUOUS
 10
-47.523182219
 20
-41.6581316587
 11
-47.523182219
 21
-47.1895508432
  0
LINE
  5
25E
100
AcDbEntity
  8
IMPORT_IGES
100
AcDbLine
 62
250
  6
CONTINUOUS
 10
-49.7917631021
 20
-52.9776464156
 11
49.8046729822
 21
-52.9776464156
  0
LINE
  5
25F
100
AcDbEntity
  8
IMPORT_IGES
100
AcDbLine
 62
250
  6
CONTINUOUS
 10
49.8046729822
 20
-52.6783772005
 11
-49.7917631021
 21
-52.6783772005
  0
LINE
  5
260
100
AcDbEntity
  8
IMPORT_IGES
100
AcDbLine
 62
250
  6
CONTINUOUS
 10
55.3218923387
 20
-49.4581317263
 11
53.0249184564
 21
-49.4581317263
  0
LINE
  5
261
100
AcDbEntity
  8
IMPORT_IGES
100
AcDbLine
 62
250
  6
CONTINUOUS
 10
-53.0120085762
 20
-49.4581317263
 11
-55.3089824586
 21
-49.4581317263
  0
LINE
  5
262
100
AcDbEntity
  8
IMPORT_IGES
100
AcDbLine
 62
7
  6
CONTINUOUS
 10
-46.9917631021
 20
-48.1581317263
 11
-43.9917630739
 21
-48.1581317263
  0
LINE
  5
263
100
AcDbEntity
  8
IMPORT_IGES
100
AcDbLine
 62
7
  6
CONTINUOUS
 10
-42.9917630739
 20
-48.1581317263
 11
-35.9917630739
 21
-48.1581317263
  0
LINE
  5
264
100
AcDbEntity
  8
IMPORT_IGES
100
AcDbLine
 62
7
  6
CONTINUOUS
 10
-34.9917630739
 20
-48.1581317263
 11
-32.0137195404
 21
-48.1581317263
  0
LINE
  5
265
100
AcDbEntity
  8
IMPORT_IGES
100
AcDbLine
 62
7
  6
CONTINUOUS
 10
-13.2435450599
 20
-47.2389790464
 11
-9.7435450599
 21
-47.2389790464
  0
LINE
  5
266
100
AcDbEntity
  8
IMPORT_IGES
100
AcDbLine
 62
7
  6
CONTINUOUS
 10
9.7564549401
 20
-47.2389790464
 11
13.2564549401
 21
-47.2389790464
  0
LINE
  5
267
100
AcDbEntity
  8
IMPORT_IGES
100
AcDbLine
 62
7
  6
CONTINUOUS
 10
-47.523182219
 20
-47.1895508432
 11
-43.9917630739
 21
-47.1895508432
  0
LINE
  5
268
100
AcDbEntity
  8
IMPORT_IGES
100
AcDbLine
 62
7
  6
CONTINUOUS
 10
-42.9917630739
 20
-47.1895508432
 11
-35.9917630739
 21
-47.1895508432
  0
LINE
  5
269
100
AcDbEntity
  8
IMPORT_IGES
100
AcDbLine
 62
7
  6
CONTINUOUS
 10
-34.9917630739
 20
-47.1895508432
 11
-32.0137195404
 21
-47.1895508432
  0
LINE
  5
26A
100
AcDbEntity
  8
IMPORT_IGES
100
AcDbLine
 62
7
  6
CONTINUOUS
 10
-46.6917631021
 20
27.0518808867
 11
-46.6917631021
 21
24.0518808867
  0
LINE
  5
26B
100
AcDbEntity
  8
IMPORT_IGES
100
AcDbLine
 62
7
  6
CONTINUOUS
 10
-46.3019595237
 20
9.3262122052
 11
-46.3019595237
 21
-2.6737877948
  0
LINE
  5
26C
100
AcDbEntity
  8
IMPORT_IGES
100
AcDbLine
 62
250
  6
CONTINUOUS
 10
-46.1917631021
 20
24.0518808867
 11
-46.1917631021
 21
27.0518808867
  0
LINE
  5
26D
100
AcDbEntity
  8
IMPORT_IGES
100
AcDbLine
 62
7
  6
CONTINUOUS
 10
-44.8019595237
 20
-1.6737877948
 11
-44.8019595237
 21
8.3262122052
  0
LINE
  5
26E
100
AcDbEntity
  8
IMPORT_IGES
100
AcDbLine
 62
7
  6
CONTINUOUS
 10
-43.9917630739
 20
-48.1581317263
 11
-43.9917630739
 21
-47.1895508432
  0
LINE
  5
26F
100
AcDbEntity
  8
IMPORT_IGES
100
AcDbLine
 62
250
  6
CONTINUOUS
 10
-43.743492919
 20
43.8383042825
 11
-43.743492919
 21
39.8383042825
  0
LINE
  5
270
100
AcDbEntity
  8
IMPORT_IGES
100
AcDbLine
 62
7
  6
CONTINUOUS
 10
-43.5019595237
 20
-4.9237877948
 11
-43.5019595237
 21
-4.6737877948
  0
LINE
  5
271
100
AcDbEntity
  8
IMPORT_IGES
100
AcDbLine
 62
7
  6
CONTINUOUS
 10
-43.5019595237
 20
-1.6737877948
 11
-43.5019595237
 21
8.3262122052
  0
LINE
  5
272
100
AcDbEntity
  8
IMPORT_IGES
100
AcDbLine
 62
7
  6
CONTINUOUS
 10
-43.5019595237
 20
11.3262122052
 11
-43.5019595237
 21
11.4647898968
  0
LINE
  5
273
100
AcDbEntity
  8
IMPORT_IGES
100
AcDbLine
 62
250
  6
CONTINUOUS
 10
-43.4480505931
 20
39.8383042825
 11
-43.4480505931
 21
43.8383042825
  0
LINE
  5
274
100
AcDbEntity
  8
IMPORT_IGES
100
AcDbLine
 62
7
  6
CONTINUOUS
 10
-43.3154360489
 20
43.8383042825
 11
-43.3154360489
 21
39.8383042825
  0
LINE
  5
275
100
AcDbEntity
  8
IMPORT_IGES
100
AcDbLine
 62
7
  6
CONTINUOUS
 10
-43.0203228788
 20
-28.3228744695
 11
-43.0203228788
 21
-29.2914553526
  0
LINE
  5
276
100
AcDbEntity
  8
IMPORT_IGES
100
AcDbLine
 62
7
  6
CONTINUOUS
 10
-42.9917630739
 20
-47.1895508432
 11
-42.9917630739
 21
-48.1581317263
  0
LINE
  5
277
100
AcDbEntity
  8
IMPORT_IGES
100
AcDbLine
 62
7
  6
CONTINUOUS
 10
-42.0479787123
 20
-4.9237877948
 11
-42.0479787123
 21
10.755846831
  0
LINE
  5
278
100
AcDbEntity
  8
IMPORT_IGES
100
AcDbLine
 62
7
  6
CONTINUOUS
 10
-42.0203228788
 20
-29.2914553526
 11
-42.0203228788
 21
-28.3228744695
  0
LINE
  5
279
100
AcDbEntity
  8
IMPORT_IGES
100
AcDbLine
 62
7
  6
CONTINUOUS
 10
-42.0019595237
 20
10.7201007059
 11
-42.0019595237
 21
7.1262122052
  0
LINE
  5
27A
100
AcDbEntity
  8
IMPORT_IGES
100
AcDbLine
 62
7
  6
CONTINUOUS
 10
-42.0019595237
 20
-4.9237877948
 11
-42.0019595237
 21
-0.8737877948
  0
LINE
  5
27B
100
AcDbEntity
  8
IMPORT_IGES
100
AcDbLine
 62
7
  6
CONTINUOUS
 10
-41.4917630257
 20
43.8383042864
 11
-41.4917630257
 21
39.8383042864
  0
LINE
  5
27C
100
AcDbEntity
  8
IMPORT_IGES
100
AcDbLine
 62
250
  6
CONTINUOUS
 10
-41.4917630739
 20
-45.409861548
 11
-41.4917630739
 21
-44.981804678
  0
LINE
  5
27D
100
AcDbEntity
  8
IMPORT_IGES
100
AcDbLine
 62
250
  6
CONTINUOUS
 10
-41.4917630739
 20
-37.3344586394
 11
-41.4917630739
 21
-36.9064017693
  0
LINE
  5
27E
100
AcDbEntity
  8
IMPORT_IGES
100
AcDbLine
 62
250
  6
CONTINUOUS
 10
-13.2435450599
 20
-46.6541992495
 11
-9.7435450599
 21
-46.6541992495
  0
LINE
  5
27F
100
AcDbEntity
  8
IMPORT_IGES
100
AcDbLine
 62
250
  6
CONTINUOUS
 10
9.7564549401
 20
-46.6541992495
 11
13.2564549401
 21
-46.6541992495
  0
LINE
  5
280
100
AcDbEntity
  8
IMPORT_IGES
100
AcDbLine
 62
7
  6
CONTINUOUS
 10
13.2564549401
 20
-46.3852923936
 11
9.7564549401
 21
-46.3852923936
  0
LINE
  5
281
100
AcDbEntity
  8
IMPORT_IGES
100
AcDbLine
 62
7
  6
CONTINUOUS
 10
-9.7435450599
 20
-46.3852923936
 11
-13.2435450599
 21
-46.3852923936
  0
LINE
  5
282
100
AcDbEntity
  8
IMPORT_IGES
100
AcDbLine
 62
250
  6
CONTINUOUS
 10
-41.4917630739
 20
-45.409861548
 11
-37.4917630739
 21
-45.409861548
  0
LINE
  5
283
100
AcDbEntity
  8
IMPORT_IGES
100
AcDbLine
 62
7
  6
CONTINUOUS
 10
-61.5308370377
 20
-45.2528744695
 11
-61.1987405434
 21
-45.2528744695
  0
LINE
  5
284
100
AcDbEntity
  8
IMPORT_IGES
100
AcDbLine
 62
7
  6
CONTINUOUS
 10
61.5308370377
 20
-45.2528744695
 11
61.2116511277
 21
-45.2528744695
  0
LINE
  5
285
100
AcDbEntity
  8
IMPORT_IGES
100
AcDbLine
 62
250
  6
CONTINUOUS
 10
-37.4917630739
 20
-45.1144192221
 11
-41.4917630739
 21
-45.1144192221
  0
LINE
  5
286
100
AcDbEntity
  8
IMPORT_IGES
100
AcDbLine
 62
7
  6
CONTINUOUS
 10
-41.4917630739
 20
-44.981804678
 11
-37.4917630739
 21
-44.981804678
  0
LINE
  5
287
100
AcDbEntity
  8
IMPORT_IGES
100
AcDbLine
 62
7
  6
CONTINUOUS
 10
9.7564549401
 20
-44.1581317263
 11
-9.7435450599
 21
-44.1581317263
  0
LINE
  5
288
100
AcDbEntity
  8
IMPORT_IGES
100
AcDbLine
 62
7
  6
CONTINUOUS
 10
61.2116507632
 20
-43.7528744695
 11
61.5308370377
 21
-43.7528744695
  0
LINE
  5
289
100
AcDbEntity
  8
IMPORT_IGES
100
AcDbLine
 62
7
  6
CONTINUOUS
 10
-61.1987401822
 20
-43.7528744695
 11
-61.5308370377
 21
-43.7528744695
  0
LINE
  5
28A
100
AcDbEntity
  8
IMPORT_IGES
100
AcDbLine
 62
250
  6
CONTINUOUS
 10
43.769312694
 20
-43.1581316509
 11
43.3412558239
 21
-43.1581316509
  0
LINE
  5
28B
100
AcDbEntity
  8
IMPORT_IGES
100
AcDbLine
 62
7
  6
CONTINUOUS
 10
-41.49176307
 20
-43.1581316548
 11
-37.49176307
 21
-43.1581316548
  0
LINE
  5
28C
100
AcDbEntity
  8
IMPORT_IGES
100
AcDbLine
 62
250
  6
CONTINUOUS
 10
35.6939097854
 20
-43.1581316509
 11
35.2658529153
 21
-43.1581316509
  0
LINE
  5
28D
100
AcDbEntity
  8
IMPORT_IGES
100
AcDbLine
 62
7
  6
CONTINUOUS
 10
9.7564549401
 20
-42.1581317263
 11
-9.7435450599
 21
-42.1581317263
  0
LINE
  5
28E
100
AcDbEntity
  8
IMPORT_IGES
100
AcDbLine
 62
7
  6
CONTINUOUS
 10
-48.4917631021
 20
-41.6581316587
 11
-47.523182219
 21
-41.6581316587
  0
LINE
  5
28F
100
AcDbEntity
  8
IMPORT_IGES
100
AcDbLine
 62
7
  6
CONTINUOUS
 10
-31.4823004235
 20
-41.6581316587
 11
-30.5137195404
 21
-41.6581316587
  0
LINE
  5
290
100
AcDbEntity
  8
IMPORT_IGES
100
AcDbLine
 62
7
  6
CONTINUOUS
 10
-40.4917631021
 20
-6.9099142032
 11
-40.4917631021
 21
7.5900868348
  0
LINE
  5
291
100
AcDbEntity
  8
IMPORT_IGES
100
AcDbLine
 62
250
  6
CONTINUOUS
 10
-39.9917631021
 20
27.0518808867
 11
-39.9917631021
 21
24.0518808867
  0
LINE
  5
292
100
AcDbEntity
  8
IMPORT_IGES
100
AcDbLine
 62
7
  6
CONTINUOUS
 10
-39.4917631021
 20
27.5518808867
 11
-39.4917631021
 21
23.5518808867
  0
LINE
  5
293
100
AcDbEntity
  8
IMPORT_IGES
100
AcDbLine
 62
7
  6
CONTINUOUS
 10
-37.5174635386
 20
-31.7601166439
 11
-37.5174635386
 21
-29.8228744695
  0
LINE
  5
294
100
AcDbEntity
  8
IMPORT_IGES
100
AcDbLine
 62
250
  6
CONTINUOUS
 10
-37.4917630739
 20
-36.9064017693
 11
-37.4917630739
 21
-37.3344586394
  0
LINE
  5
295
100
AcDbEntity
  8
IMPORT_IGES
100
AcDbLine
 62
250
  6
CONTINUOUS
 10
-37.4917630739
 20
-44.981804678
 11
-37.4917630739
 21
-45.409861548
  0
LINE
  5
296
100
AcDbEntity
  8
IMPORT_IGES
100
AcDbLine
 62
7
  6
CONTINUOUS
 10
-37.4917630257
 20
39.8383042864
 11
-37.4917630257
 21
43.8383042864
  0
LINE
  5
297
100
AcDbEntity
  8
IMPORT_IGES
100
AcDbLine
 62
7
  6
CONTINUOUS
 10
-36.5488826555
 20
-31.7601166439
 11
-36.5488826555
 21
-29.8228744695
  0
LINE
  5
298
100
AcDbEntity
  8
IMPORT_IGES
100
AcDbLine
 62
7
  6
CONTINUOUS
 10
-36.0416000431
 20
2.3262122052
 11
-36.0416000431
 21
-7.6737877948
  0
LINE
  5
299
100
AcDbEntity
  8
IMPORT_IGES
100
AcDbLine
 62
7
  6
CONTINUOUS
 10
-35.9917630739
 20
-48.1581317263
 11
-35.9917630739
 21
-47.1895508432
  0
LINE
  5
29A
100
AcDbEntity
  8
IMPORT_IGES
100
AcDbLine
 62
7
  6
CONTINUOUS
 10
-35.9892348484
 20
2.3262122052
 11
-35.9892348484
 21
-7.6737877948
  0
LINE
  5
29B
100
AcDbEntity
  8
IMPORT_IGES
100
AcDbLine
 62
7
  6
CONTINUOUS
 10
-35.6680900104
 20
39.8383042825
 11
-35.6680900104
 21
43.8383042825
  0
LINE
  5
29C
100
AcDbEntity
  8
IMPORT_IGES
100
AcDbLine
 62
250
  6
CONTINUOUS
 10
-35.5354754662
 20
43.8383042825
 11
-35.5354754662
 21
39.8383042825
  0
LINE
  5
29D
100
AcDbEntity
  8
IMPORT_IGES
100
AcDbLine
 62
250
  6
CONTINUOUS
 10
-35.2400331403
 20
39.8383042825
 11
-35.2400331403
 21
43.8383042825
  0
LINE
  5
29E
100
AcDbEntity
  8
IMPORT_IGES
100
AcDbLine
 62
7
  6
CONTINUOUS
 10
-30.5137195404
 20
-40.6581316587
 11
-31.4823004235
 21
-40.6581316587
  0
LINE
  5
29F
100
AcDbEntity
  8
IMPORT_IGES
100
AcDbLine
 62
7
  6
CONTINUOUS
 10
-47.523182219
 20
-40.6581316587
 11
-48.4917631021
 21
-40.6581316587
  0
LINE
  5
2A0
100
AcDbEntity
  8
IMPORT_IGES
100
AcDbLine
 62
7
  6
CONTINUOUS
 10
-13.2435450599
 20
-39.9309710591
 11
-9.7435450599
 21
-39.9309710591
  0
LINE
  5
2A1
100
AcDbEntity
  8
IMPORT_IGES
100
AcDbLine
 62
7
  6
CONTINUOUS
 10
9.7564549401
 20
-39.9309710591
 11
13.2564549401
 21
-39.9309710591
  0
LINE
  5
2A2
100
AcDbEntity
  8
IMPORT_IGES
100
AcDbLine
 62
250
  6
CONTINUOUS
 10
13.2564549401
 20
-39.6620642031
 11
9.7564549401
 21
-39.6620642031
  0
LINE
  5
2A3
100
AcDbEntity
  8
IMPORT_IGES
100
AcDbLine
 62
250
  6
CONTINUOUS
 10
-9.7435450599
 20
-39.6620642031
 11
-13.2435450599
 21
-39.6620642031
  0
LINE
  5
2A4
100
AcDbEntity
  8
IMPORT_IGES
100
AcDbLine
 62
250
  6
CONTINUOUS
 10
35.2658529153
 20
-39.1581316509
 11
35.6939097854
 21
-39.1581316509
  0
LINE
  5
2A5
100
AcDbEntity
  8
IMPORT_IGES
100
AcDbLine
 62
7
  6
CONTINUOUS
 10
-37.49176307
 20
-39.1581316548
 11
-41.49176307
 21
-39.1581316548
  0
LINE
  5
2A6
100
AcDbEntity
  8
IMPORT_IGES
100
AcDbLine
 62
250
  6
CONTINUOUS
 10
43.3412558239
 20
-39.1581316509
 11
43.769312694
 21
-39.1581316509
  0
LINE
  5
2A7
100
AcDbEntity
  8
IMPORT_IGES
100
AcDbLine
 62
7
  6
CONTINUOUS
 10
13.2564549401
 20
-39.0772844062
 11
9.7564549401
 21
-39.0772844062
  0
LINE
  5
2A8
100
AcDbEntity
  8
IMPORT_IGES
100
AcDbLine
 62
7
  6
CONTINUOUS
 10
-9.7435450599
 20
-39.0772844062
 11
-13.2435450599
 21
-39.0772844062
  0
LINE
  5
2A9
100
AcDbEntity
  8
IMPORT_IGES
100
AcDbLine
 62
7
  6
CONTINUOUS
 10
-37.4917630739
 20
-37.3344586394
 11
-41.4917630739
 21
-37.3344586394
  0
LINE
  5
2AA
100
AcDbEntity
  8
IMPORT_IGES
100
AcDbLine
 62
250
  6
CONTINUOUS
 10
-41.4917630739
 20
-37.2018440952
 11
-37.4917630739
 21
-37.2018440952
  0
LINE
  5
2AB
100
AcDbEntity
  8
IMPORT_IGES
100
AcDbLine
 62
250
  6
CONTINUOUS
 10
-37.4917630739
 20
-36.9064017693
 11
-41.4917630739
 21
-36.9064017693
  0
LINE
  5
2AC
100
AcDbEntity
  8
IMPORT_IGES
100
AcDbLine
 62
7
  6
CONTINUOUS
 10
-32.0137195404
 20
-35.1306824446
 11
-35.0488826555
 21
-35.1306824446
  0
LINE
  5
2AD
100
AcDbEntity
  8
IMPORT_IGES
100
AcDbLine
 62
7
  6
CONTINUOUS
 10
-34.9917630739
 20
-47.1895508432
 11
-34.9917630739
 21
-48.1581317263
  0
LINE
  5
2AE
100
AcDbEntity
  8
IMPORT_IGES
100
AcDbLine
 62
7
  6
CONTINUOUS
 10
-34.5146841991
 20
-7.6737877948
 11
-34.5146841991
 21
2.3262122052
  0
LINE
  5
2AF
100
AcDbEntity
  8
IMPORT_IGES
100
AcDbLine
 62
7
  6
CONTINUOUS
 10
-33.0416000431
 20
-7.6737877948
 11
-33.0416000431
 21
2.3262122052
  0
LINE
  5
2B0
100
AcDbEntity
  8
IMPORT_IGES
100
AcDbLine
 62
7
  6
CONTINUOUS
 10
-32.9798054841
 20
24.1930122052
 11
-32.9798054841
 21
25.9010122052
  0
LINE
  5
2B1
100
AcDbEntity
  8
IMPORT_IGES
100
AcDbLine
 62
7
  6
CONTINUOUS
 10
-32.8990054841
 20
-29.5351132253
 11
-32.8990054841
 21
-31.2485877948
  0
LINE
  5
2B2
100
AcDbEntity
  8
IMPORT_IGES
100
AcDbLine
 62
7
  6
CONTINUOUS
 10
-31.4823004235
 20
-46.6581317263
 11
-31.4823004235
 21
-41.6581316587
  0
LINE
  5
2B3
100
AcDbEntity
  8
IMPORT_IGES
100
AcDbLine
 62
7
  6
CONTINUOUS
 10
-31.4823004235
 20
-40.6581316587
 11
-31.4823004235
 21
-35.6621015615
  0
LINE
  5
2B4
100
AcDbEntity
  8
IMPORT_IGES
100
AcDbLine
 62
7
  6
CONTINUOUS
 10
-31.3798054841
 20
25.9010122052
 11
-31.3798054841
 21
24.1930122052
  0
LINE
  5
2B5
100
AcDbEntity
  8
IMPORT_IGES
100
AcDbLine
 62
7
  6
CONTINUOUS
 10
-31.2044775694
 20
-31.2485877948
 11
-31.2044775694
 21
-29.5351132253
  0
LINE
  5
2B6
100
AcDbEntity
  8
IMPORT_IGES
100
AcDbLine
 62
7
  6
CONTINUOUS
 10
-30.5137195404
 20
-46.6581317263
 11
-30.5137195404
 21
-41.6581316587
  0
LINE
  5
2B7
100
AcDbEntity
  8
IMPORT_IGES
100
AcDbLine
 62
7
  6
CONTINUOUS
 10
-30.5137195404
 20
-40.6581316587
 11
-30.5137195404
 21
-35.6621015615
  0
LINE
  5
2B8
100
AcDbEntity
  8
IMPORT_IGES
100
AcDbLine
 62
7
  6
CONTINUOUS
 10
-32.0137195404
 20
-34.1621015615
 11
-35.0488826555
 21
-34.1621015615
  0
LINE
  5
2B9
100
AcDbEntity
  8
IMPORT_IGES
100
AcDbLine
 62
7
  6
CONTINUOUS
 10
-48.4917631021
 20
-32.7601166439
 11
-47.523182219
 21
-32.7601166439
  0
LINE
  5
2BA
100
AcDbEntity
  8
IMPORT_IGES
100
AcDbLine
 62
7
  6
CONTINUOUS
 10
-37.5155169251
 20
-32.7601166439
 11
-36.5456769111
 21
-32.7601166439
  0
LINE
  5
2BB
100
AcDbEntity
  8
IMPORT_IGES
100
AcDbLine
 62
7
  6
CONTINUOUS
 10
-36.5488826555
 20
-31.7601166439
 11
-37.5174635386
 21
-31.7601166439
  0
LINE
  5
2BC
100
AcDbEntity
  8
IMPORT_IGES
100
AcDbLine
 62
7
  6
CONTINUOUS
 10
-47.523182219
 20
-31.7601166439
 11
-48.4917631021
 21
-31.7601166439
  0
LINE
  5
2BD
100
AcDbEntity
  8
IMPORT_IGES
100
AcDbLine
 62
7
  6
CONTINUOUS
 10
-32.8990054841
 20
-31.2485877948
 11
-31.2044775694
 21
-31.2485877948
  0
LINE
  5
2BE
100
AcDbEntity
  8
IMPORT_IGES
100
AcDbLine
 62
7
  6
CONTINUOUS
 10
19.9389945159
 20
-31.2485877948
 11
18.2444666012
 21
-31.2485877948
  0
LINE
  5
2BF
100
AcDbEntity
  8
IMPORT_IGES
100
AcDbLine
 62
7
  6
CONTINUOUS
 10
-4.8990054841
 20
-31.2485877948
 11
-3.2044775694
 21
-31.2485877948
  0
LINE
  5
2C0
100
AcDbEntity
  8
IMPORT_IGES
100
AcDbLine
 62
7
  6
CONTINUOUS
 10
-8.0610054841
 20
-31.2485877948
 11
-9.7555333988
 21
-31.2485877948
  0
LINE
  5
2C1
100
AcDbEntity
  8
IMPORT_IGES
100
AcDbLine
 62
7
  6
CONTINUOUS
 10
-9.7555333988
 20
-30.7405877948
 11
-8.0610054841
 21
-30.7405877948
  0
LINE
  5
2C2
100
AcDbEntity
  8
IMPORT_IGES
100
AcDbLine
 62
7
  6
CONTINUOUS
 10
-3.2044775694
 20
-30.7405877948
 11
-4.8990054841
 21
-30.7405877948
  0
LINE
  5
2C3
100
AcDbEntity
  8
IMPORT_IGES
100
AcDbLine
 62
7
  6
CONTINUOUS
 10
18.2444666012
 20
-30.7405877948
 11
19.9389945159
 21
-30.7405877948
  0
LINE
  5
2C4
100
AcDbEntity
  8
IMPORT_IGES
100
AcDbLine
 62
7
  6
CONTINUOUS
 10
-31.2044775694
 20
-30.7405877948
 11
-32.8990054841
 21
-30.7405877948
  0
LINE
  5
2C5
100
AcDbEntity
  8
IMPORT_IGES
100
AcDbLine
 62
7
  6
CONTINUOUS
 10
-32.8990054841
 20
-29.5405877948
 11
-31.2044775694
 21
-29.5405877948
  0
LINE
  5
2C6
100
AcDbEntity
  8
IMPORT_IGES
100
AcDbLine
 62
7
  6
CONTINUOUS
 10
-9.7555333988
 20
-29.5405877948
 11
-8.0610054841
 21
-29.5405877948
  0
LINE
  5
2C7
100
AcDbEntity
  8
IMPORT_IGES
100
AcDbLine
 62
7
  6
CONTINUOUS
 10
-3.2044775694
 20
-29.5405877948
 11
-4.8990054841
 21
-29.5405877948
  0
LINE
  5
2C8
100
AcDbEntity
  8
IMPORT_IGES
100
AcDbLine
 62
7
  6
CONTINUOUS
 10
18.2444666012
 20
-29.5405877948
 11
19.9389945159
 21
-29.5405877948
  0
LINE
  5
2C9
100
AcDbEntity
  8
IMPORT_IGES
100
AcDbLine
 62
7
  6
CONTINUOUS
 10
-31.2044775694
 20
-29.5351132253
 11
-32.8990054841
 21
-29.5351132253
  0
LINE
  5
2CA
100
AcDbEntity
  8
IMPORT_IGES
100
AcDbLine
 62
7
  6
CONTINUOUS
 10
-38.0488826554
 20
-29.2914553526
 11
-42.0203228788
 21
-29.2914553526
  0
LINE
  5
2CB
100
AcDbEntity
  8
IMPORT_IGES
100
AcDbLine
 62
7
  6
CONTINUOUS
 10
-43.0203228788
 20
-29.2914553526
 11
-46.9917631021
 21
-29.2914553526
  0
LINE
  5
2CC
100
AcDbEntity
  8
IMPORT_IGES
100
AcDbLine
 62
7
  6
CONTINUOUS
 10
-23.5848054841
 20
25.9010122052
 11
-23.5848054841
 21
24.1930122052
  0
LINE
  5
2CD
100
AcDbEntity
  8
IMPORT_IGES
100
AcDbLine
 62
7
  6
CONTINUOUS
 10
-38.0488826555
 20
-28.3228744695
 11
-42.0203228788
 21
-28.3228744695
  0
LINE
  5
2CE
100
AcDbEntity
  8
IMPORT_IGES
100
AcDbLine
 62
7
  6
CONTINUOUS
 10
-43.0203228788
 20
-28.3228744695
 11
-46.9917631021
 21
-28.3228744695
  0
LWPOLYLINE
  5
2CF
100
AcDbEntity
  8
IMPORT_IGES
100
AcDbPolyline
 62
250
  6
CONTINUOUS
 90
36
 70
0
 10
-37.4917630257
 20
41.0544052991
 10
-37.4941453658
 20
41.0637674848
 10
-37.5376300922
 20
41.2042706331
 10
-37.5880564102
 20
41.342330463
 10
-37.6451103227
 20
41.4777533164
 10
-37.7086554651
 20
41.61020366
 10
-37.7786945674
 20
41.7391615761
 10
-37.8549525522
 20
41.8642731983
 10
-37.9371932715
 20
41.9852888217
 10
-38.0254285545
 20
42.1017700064
 10
-38.119340983
 20
42.2131312481
 10
-38.2186823932
 20
42.3193003572
 10
-38.3236345376
 20
42.4205138163
 10
-38.434365927
 20
42.5164904352
 10
-38.5503225616
 20
42.6066955793
 10
-38.6707088506
 20
42.6910133197
 10
-38.7951861898
 20
42.7692717331
 10
-38.9236712915
 20
42.8411684377
 10
-39.0557316482
 20
42.9065611517
 10
-39.1909381972
 20
42.965459694
 10
-39.3290478725
 20
43.0177423932
 10
-39.4698527457
 20
43.0630613149
 10
-39.6129396526
 20
43.101319686
 10
-39.7579573125
 20
43.1324351737
 10
-39.9047041098
 20
43.1560269145
 10
-40.0528030225
 20
43.1718712717
 10
-40.2017502053
 20
43.1799511931
 10
-40.3511064932
 20
43.1801697147
 10
-40.5004702938
 20
43.1722209283
 10
-40.6493293722
 20
43.1561945386
 10
-40.7971705053
 20
43.1326146364
 10
-40.9437427229
 20
43.1015634287
 10
-41.0886127251
 20
43.0628653085
 10
-41.2311399889
 20
43.0168823805
 10
-41.3709978109
 20
42.9640318798
 10
-41.4917630257
 20
42.9114762377
  0
LINE
  5
2D0
100
AcDbEntity
  8
IMPORT_IGES
100
AcDbLine
 62
7
  6
CONTINUOUS
 10
-21.9848054841
 20
24.1930122052
 11
-21.9848054841
 21
25.9010122052
  0
LINE
  5
2D1
100
AcDbEntity
  8
IMPORT_IGES
100
AcDbLine
 62
7
  6
CONTINUOUS
 10
-20.4935450599
 20
-9.1599136842
 11
-20.4935450599
 21
9.8400863158
  0
LINE
  5
2D2
100
AcDbEntity
  8
IMPORT_IGES
100
AcDbLine
 62
7
  6
CONTINUOUS
 10
-18.8990054841
 20
25.9010122052
 11
-18.8990054841
 21
24.1930122052
  0
LINE
  5
2D3
100
AcDbEntity
  8
IMPORT_IGES
100
AcDbLine
 62
7
  6
CONTINUOUS
 10
-18.2603228788
 20
43.0306185421
 11
-18.2603228788
 21
47.0306185421
  0
LINE
  5
2D4
100
AcDbEntity
  8
IMPORT_IGES
100
AcDbLine
 62
7
  6
CONTINUOUS
 10
-17.2990054841
 20
24.1930122052
 11
-17.2990054841
 21
25.9010122052
  0
LINE
  5
2D5
100
AcDbEntity
  8
IMPORT_IGES
100
AcDbLine
 62
7
  6
CONTINUOUS
 10
-17.2603228788
 20
46.5306185421
 11
-17.2603228788
 21
43.5306185421
  0
LINE
  5
2D6
100
AcDbEntity
  8
IMPORT_IGES
100
AcDbLine
 62
7
  6
CONTINUOUS
 10
-3.7434569414
 20
-19.1756690468
 11
-0.8191038946
 21
-19.1748626945
  0
LINE
  5
2D7
100
AcDbEntity
  8
IMPORT_IGES
100
AcDbLine
 62
7
  6
CONTINUOUS
 10
-0.8195175003
 20
-17.6748627515
 11
-3.7439079613
 21
-17.6756691142
  0
LINE
  5
2D8
100
AcDbEntity
  8
IMPORT_IGES
100
AcDbLine
 62
7
  6
CONTINUOUS
 10
-12.4357118788
 20
-21.1848167766
 11
-13.229462788
 21
-21.1848167766
  0
LINE
  5
2D9
100
AcDbEntity
  8
IMPORT_IGES
100
AcDbLine
 62
7
  6
CONTINUOUS
 10
-11.6906788855
 20
-21.1053758507
 11
-12.0134899409
 21
-21.1053758507
  0
LINE
  5
2DA
100
AcDbEntity
  8
IMPORT_IGES
100
AcDbLine
 62
7
  6
CONTINUOUS
 10
-13.0852840909
 20
-21.0402357544
 11
-12.5839138272
 21
-21.0402357544
  0
LINE
  5
2DB
100
AcDbEntity
  8
IMPORT_IGES
100
AcDbLine
 62
7
  6
CONTINUOUS
 10
-12.5839138272
 20
-20.9791554845
 11
-13.0852840909
 21
-20.9791554845
  0
LINE
  5
2DC
100
AcDbEntity
  8
IMPORT_IGES
100
AcDbLine
 62
7
  6
CONTINUOUS
 10
-13.229462788
 20
-20.8304780609
 11
-12.4357118788
 21
-20.8304780609
  0
LINE
  5
2DD
100
AcDbEntity
  8
IMPORT_IGES
100
AcDbLine
 62
7
  6
CONTINUOUS
 10
-12.0134533659
 20
-20.6126007148
 11
-13.9451018078
 21
-20.6125275648
  0
LINE
  5
2DE
100
AcDbEntity
  8
IMPORT_IGES
100
AcDbLine
 62
7
  6
CONTINUOUS
 10
-11.6906788855
 20
-20.6125275648
 11
-11.5016680472
 21
-20.6125275648
  0
LINE
  5
2DF
100
AcDbEntity
  8
IMPORT_IGES
100
AcDbLine
 62
7
  6
CONTINUOUS
 10
-11.1466621578
 20
-20.6125275648
 11
-11.3354257944
 21
-20.6125275648
  0
LINE
  5
2E0
100
AcDbEntity
  8
IMPORT_IGES
100
AcDbLine
 62
7
  6
CONTINUOUS
 10
-11.3843244378
 20
-20.3691574353
 11
-11.1466621578
 21
-20.3691574353
  0
LINE
  5
2E1
100
AcDbEntity
  8
IMPORT_IGES
100
AcDbLine
 62
7
  6
CONTINUOUS
 10
-11.5386173139
 20
-20.3691574353
 11
-13.9306829063
 21
-20.3691574353
  0
LINE
  5
2E2
100
AcDbEntity
  8
IMPORT_IGES
100
AcDbLine
 62
7
  6
CONTINUOUS
 10
-13.9196629888
 20
-20.2276121391
 11
-13.8405215125
 21
-20.2276121391
  0
LINE
  5
2E3
100
AcDbEntity
  8
IMPORT_IGES
100
AcDbLine
 62
7
  6
CONTINUOUS
 10
-14.0730042336
 20
-20.2276121391
 11
-14.1648151223
 21
-20.2276121391
  0
LINE
  5
2E4
100
AcDbEntity
  8
IMPORT_IGES
100
AcDbLine
 62
7
  6
CONTINUOUS
 10
-14.3658193361
 20
-20.2276121391
 11
-14.4068489974
 21
-20.2276121391
  0
LINE
  5
2E5
100
AcDbEntity
  8
IMPORT_IGES
100
AcDbLine
 62
7
  6
CONTINUOUS
 10
-14.2505639714
 20
-20.0789347155
 11
-14.2227383406
 21
-20.0789347155
  0
LINE
  5
2E6
100
AcDbEntity
  8
IMPORT_IGES
100
AcDbLine
 62
7
  6
CONTINUOUS
 10
-13.9967699636
 20
-19.8203128061
 11
-14.2505639714
 21
-19.8203128061
  0
LINE
  5
2E7
100
AcDbEntity
  8
IMPORT_IGES
100
AcDbLine
 62
7
  6
CONTINUOUS
 10
-14.4068489974
 20
-19.6615041042
 11
-14.0241762096
 21
-19.6615041042
  0
LINE
  5
2E8
100
AcDbEntity
  8
IMPORT_IGES
100
AcDbLine
 62
7
  6
CONTINUOUS
 10
-13.8405215125
 20
-19.6615041042
 11
-13.8755825448
 21
-19.6615041042
  0
LINE
  5
2E9
100
AcDbEntity
  8
IMPORT_IGES
100
AcDbLine
 62
7
  6
CONTINUOUS
 10
-13.4446701582
 20
-19.5637390973
 11
-12.4174975228
 21
-19.5637390973
  0
LINE
  5
2EA
100
AcDbEntity
  8
IMPORT_IGES
100
AcDbLine
 62
7
  6
CONTINUOUS
 10
-12.4174975228
 20
-19.2438906178
 11
-13.2182704949
 21
-19.2438906178
  0
LINE
  5
2EB
100
AcDbEntity
  8
IMPORT_IGES
100
AcDbLine
 62
7
  6
CONTINUOUS
 10
-9.9415546503
 20
-15.6302634362
 11
-9.8355968407
 21
-15.7283576182
  0
LINE
  5
2EC
100
AcDbEntity
  8
IMPORT_IGES
100
AcDbLine
 62
7
  6
CONTINUOUS
 10
-15.2912963398
 20
-15.6302634362
 11
-14.0400749378
 21
-16.9801249387
  0
LINE
  5
2ED
100
AcDbEntity
  8
IMPORT_IGES
100
AcDbLine
 62
7
  6
CONTINUOUS
 10
-13.6955617354
 20
-17.3517978563
 11
-12.6665753554
 21
-18.4619044279
  0
LINE
  5
2EE
100
AcDbEntity
  8
IMPORT_IGES
100
AcDbLine
 62
7
  6
CONTINUOUS
 10
-12.5680808064
 20
-18.5681637995
 11
-11.597248273
 21
-19.6155319632
  0
LINE
  5
2EF
100
AcDbEntity
  8
IMPORT_IGES
100
AcDbLine
 62
7
  6
CONTINUOUS
 10
-11.4333854085
 20
-19.7923129646
 11
-9.8332626329
 21
-21.5187992124
  0
LINE
  5
2F0
100
AcDbEntity
  8
IMPORT_IGES
100
AcDbLine
 62
7
  6
CONTINUOUS
 10
-13.8306368273
 20
-17.4210407678
 11
-15.3916215976
 21
-15.7350142704
  0
LINE
  5
2F1
100
AcDbEntity
  8
IMPORT_IGES
100
AcDbLine
 62
7
  6
CONTINUOUS
 10
-9.8227290296
 20
-21.750794513
 11
-11.4128736116
 21
-20.0329569762
  0
LINE
  5
2F2
100
AcDbEntity
  8
IMPORT_IGES
100
AcDbLine
 62
7
  6
CONTINUOUS
 10
-11.578642072
 20
-19.8538768554
 11
-12.6703745501
 21
-18.6744752762
  0
LINE
  5
2F3
100
AcDbEntity
  8
IMPORT_IGES
100
AcDbLine
 62
7
  6
CONTINUOUS
 10
-12.7688087461
 20
-18.5681365453
 11
-13.7110525704
 21
-17.5502279672
  0
LINE
  5
2F4
100
AcDbEntity
  8
IMPORT_IGES
100
AcDbLine
 62
7
  6
CONTINUOUS
 10
-11.7070972479
 20
-16.5811308767
 11
-11.6378967039
 21
-17.3929903413
  0
LINE
  5
2F5
100
AcDbEntity
  8
IMPORT_IGES
100
AcDbLine
 62
7
  6
CONTINUOUS
 10
-11.6215745017
 20
-17.5844821061
 11
-11.4333854085
 21
-19.7923129646
  0
LINE
  5
2F6
100
AcDbEntity
  8
IMPORT_IGES
100
AcDbLine
 62
7
  6
CONTINUOUS
 10
-11.4128736116
 20
-20.0329569762
 11
-11.3843244378
 21
-20.3691574353
  0
LINE
  5
2F7
100
AcDbEntity
  8
IMPORT_IGES
100
AcDbLine
 62
7
  6
CONTINUOUS
 10
-11.597248273
 20
-19.6155319632
 11
-11.7457279337
 21
-17.7135118417
  0
LINE
  5
2F8
100
AcDbEntity
  8
IMPORT_IGES
100
AcDbLine
 62
7
  6
CONTINUOUS
 10
-11.7607811014
 20
-17.5206812031
 11
-11.8266336032
 21
-16.6757761542
  0
LINE
  5
2F9
100
AcDbEntity
  8
IMPORT_IGES
100
AcDbLine
 62
7
  6
CONTINUOUS
 10
-11.5386173139
 20
-20.3691574353
 11
-11.578642072
 21
-19.8538768554
  0
LINE
  5
2FA
100
AcDbEntity
  8
IMPORT_IGES
100
AcDbLine
 62
7
  6
CONTINUOUS
 10
-11.6907154609
 20
-20.9373849511
 11
-11.6906788855
 21
-21.1053758507
  0
LINE
  5
2FB
100
AcDbEntity
  8
IMPORT_IGES
100
AcDbLine
 62
7
  6
CONTINUOUS
 10
-15.4603228788
 20
43.5306185421
 11
-15.4603228788
 21
46.5306185421
  0
LINE
  5
2FC
100
AcDbEntity
  8
IMPORT_IGES
100
AcDbLine
 62
7
  6
CONTINUOUS
 10
-15.1828625408
 20
-14.5285678424
 11
-15.1828625408
 21
-13.1820510055
  0
LINE
  5
2FD
100
AcDbEntity
  8
IMPORT_IGES
100
AcDbLine
 62
250
  6
CONTINUOUS
 10
-14.9603228788
 20
43.5306185421
 11
-14.9603228788
 21
46.5306185421
  0
LINE
  5
2FE
100
AcDbEntity
  8
IMPORT_IGES
100
AcDbLine
 62
7
  6
CONTINUOUS
 10
-14.4068489974
 20
-20.2276121391
 11
-14.4068489974
 21
-19.6615041042
  0
LINE
  5
2FF
100
AcDbEntity
  8
IMPORT_IGES
100
AcDbLine
 62
7
  6
CONTINUOUS
 10
-14.2505639714
 20
-19.8203128061
 11
-14.2505639714
 21
-20.0789347155
  0
LINE
  5
300
100
AcDbEntity
  8
IMPORT_IGES
100
AcDbLine
 62
7
  6
CONTINUOUS
 10
-13.9967699635
 20
-19.8441278776
 11
-13.9967699636
 21
-19.8203128061
  0
LINE
  5
301
100
AcDbEntity
  8
IMPORT_IGES
100
AcDbLine
 62
7
  6
CONTINUOUS
 10
-13.8405215125
 20
-20.2276121391
 11
-13.8405215125
 21
-19.890581434
  0
LINE
  5
302
100
AcDbEntity
  8
IMPORT_IGES
100
AcDbLine
 62
7
  6
CONTINUOUS
 10
-13.8405215125
 20
-19.6817679705
 11
-13.8405215125
 21
-19.6615041042
  0
LINE
  5
303
100
AcDbEntity
  8
IMPORT_IGES
100
AcDbLine
 62
7
  6
CONTINUOUS
 10
-13.4446701582
 20
-19.4791824518
 11
-13.4446701582
 21
-19.5637390973
  0
LINE
  5
304
100
AcDbEntity
  8
IMPORT_IGES
100
AcDbLine
 62
7
  6
CONTINUOUS
 10
-13.2435450599
 20
-47.2389790464
 11
-13.2435450599
 21
-39.0772844062
  0
LINE
  5
305
100
AcDbEntity
  8
IMPORT_IGES
100
AcDbLine
 62
7
  6
CONTINUOUS
 10
-13.229462788
 20
-21.1848167766
 11
-13.229462788
 21
-21.0669377165
  0
LINE
  5
306
100
AcDbEntity
  8
IMPORT_IGES
100
AcDbLine
 62
7
  6
CONTINUOUS
 10
-13.229462788
 20
-20.9197537856
 11
-13.229462788
 21
-20.8304780609
  0
LINE
  5
307
100
AcDbEntity
  8
IMPORT_IGES
100
AcDbLine
 62
7
  6
CONTINUOUS
 10
-13.0852840909
 20
-20.9791554845
 11
-13.0852840909
 21
-21.0402357544
  0
LINE
  5
308
100
AcDbEntity
  8
IMPORT_IGES
100
AcDbLine
 62
7
  6
CONTINUOUS
 10
-12.5839138272
 20
-21.0402357544
 11
-12.5839138272
 21
-20.9791554845
  0
LINE
  5
309
100
AcDbEntity
  8
IMPORT_IGES
100
AcDbLine
 62
7
  6
CONTINUOUS
 10
-12.4357118788
 20
-20.8304780609
 11
-12.4357118788
 21
-20.9420513062
  0
LINE
  5
30A
100
AcDbEntity
  8
IMPORT_IGES
100
AcDbLine
 62
7
  6
CONTINUOUS
 10
-12.4357118788
 20
-21.0890633954
 11
-12.4357118788
 21
-21.1848167766
  0
LINE
  5
30B
100
AcDbEntity
  8
IMPORT_IGES
100
AcDbLine
 62
7
  6
CONTINUOUS
 10
-12.4174975228
 20
-19.5637390973
 11
-12.4174975228
 21
-19.2438906178
  0
LINE
  5
30C
100
AcDbEntity
  8
IMPORT_IGES
100
AcDbLine
 62
7
  6
CONTINUOUS
 10
-12.096698093
 20
-16.52512368
 11
-12.096698093
 21
-16.1962411726
  0
LINE
  5
30D
100
AcDbEntity
  8
IMPORT_IGES
100
AcDbLine
 62
7
  6
CONTINUOUS
 10
-12.0134899409
 20
-21.1053758507
 11
-12.0134899409
 21
-21.0298990083
  0
LINE
  5
30E
100
AcDbEntity
  8
IMPORT_IGES
100
AcDbLine
 62
7
  6
CONTINUOUS
 10
-12.0134533659
 20
-20.8783424919
 11
-12.0134533659
 21
-20.6126007148
  0
LINE
  5
30F
100
AcDbEntity
  8
IMPORT_IGES
100
AcDbLine
 62
7
  6
CONTINUOUS
 10
-11.7881512923
 20
-16.1962411726
 11
-11.7881512923
 21
-16.52512368
  0
LINE
  5
310
100
AcDbEntity
  8
IMPORT_IGES
100
AcDbLine
 62
7
  6
CONTINUOUS
 10
-11.690717735
 20
-20.7791533381
 11
-11.6906788855
 21
-20.6125275648
  0
LINE
  5
311
100
AcDbEntity
  8
IMPORT_IGES
100
AcDbLine
 62
7
  6
CONTINUOUS
 10
-15.6304332482
 20
-21.7507945129
 11
-15.629006823
 21
-21.5402321694
  0
LINE
  5
312
100
AcDbEntity
  8
IMPORT_IGES
100
AcDbLine
 62
7
  6
CONTINUOUS
 10
-13.9196629888
 20
-20.2276121391
 11
-13.9306829063
 21
-20.3691574353
  0
LINE
  5
313
100
AcDbEntity
  8
IMPORT_IGES
100
AcDbLine
 62
7
  6
CONTINUOUS
 10
-13.7110525704
 20
-17.5502279672
 11
-13.8755825448
 21
-19.6615041042
  0
LINE
  5
314
100
AcDbEntity
  8
IMPORT_IGES
100
AcDbLine
 62
7
  6
CONTINUOUS
 10
-13.6955617354
 20
-17.3517978563
 11
-13.6865511586
 21
-17.236376721
  0
LINE
  5
315
100
AcDbEntity
  8
IMPORT_IGES
100
AcDbLine
 62
7
  6
CONTINUOUS
 10
-14.0910201915
 20
-20.441586099
 11
-14.0730042336
 21
-20.2276121391
  0
LINE
  5
316
100
AcDbEntity
  8
IMPORT_IGES
100
AcDbLine
 62
7
  6
CONTINUOUS
 10
-14.0241762096
 20
-19.6615041042
 11
-13.8306368273
 21
-17.4210407678
  0
LINE
  5
317
100
AcDbEntity
  8
IMPORT_IGES
100
AcDbLine
 62
7
  6
CONTINUOUS
 10
-13.0699407158
 20
-16.6757761542
 11
-11.8266336032
 21
-16.6757761542
  0
LINE
  5
318
100
AcDbEntity
  8
IMPORT_IGES
100
AcDbLine
 62
7
  6
CONTINUOUS
 10
-13.1081629533
 20
-16.52512368
 11
-12.096698093
 21
-16.52512368
  0
LINE
  5
319
100
AcDbEntity
  8
IMPORT_IGES
100
AcDbLine
 62
7
  6
CONTINUOUS
 10
-11.7881512923
 20
-16.52512368
 11
-11.7680814235
 21
-16.52512368
  0
LINE
  5
31A
100
AcDbEntity
  8
IMPORT_IGES
100
AcDbLine
 62
7
  6
CONTINUOUS
 10
-12.096698093
 20
-16.1962411726
 11
-11.7881512923
 21
-16.1962411726
  0
LINE
  5
31B
100
AcDbEntity
  8
IMPORT_IGES
100
AcDbLine
 62
7
  6
CONTINUOUS
 10
-10.2864376794
 20
-14.5285678424
 11
-15.1828625408
 21
-14.5285678424
  0
LINE
  5
31C
100
AcDbEntity
  8
IMPORT_IGES
100
AcDbLine
 62
7
  6
CONTINUOUS
 10
-15.1828625408
 20
-13.1820510055
 11
-10.2864376794
 21
-13.1820510055
  0
LINE
  5
31D
100
AcDbEntity
  8
IMPORT_IGES
100
AcDbLine
 62
7
  6
CONTINUOUS
 10
47.5875946101
 20
-12.9099136842
 11
39.4258999699
 21
-12.9099136842
  0
LINE
  5
31E
100
AcDbEntity
  8
IMPORT_IGES
100
AcDbLine
 62
7
  6
CONTINUOUS
 10
-9.8332626329
 20
-21.5187992124
 11
-9.8227290296
 21
-21.750794513
  0
LINE
  5
31F
100
AcDbEntity
  8
IMPORT_IGES
100
AcDbLine
 62
7
  6
CONTINUOUS
 10
-11.1466621578
 20
-20.3691574353
 11
-11.1466621578
 21
-20.6125275648
  0
LINE
  5
320
100
AcDbEntity
  8
IMPORT_IGES
100
AcDbLine
 62
7
  6
CONTINUOUS
 10
-10.2864376794
 20
-13.1820510055
 11
-10.2864376794
 21
-14.5285678424
  0
LINE
  5
321
100
AcDbEntity
  8
IMPORT_IGES
100
AcDbLine
 62
7
  6
CONTINUOUS
 10
-9.7555333988
 20
-31.2485877948
 11
-9.7555333988
 21
-29.5405877948
  0
LINE
  5
322
100
AcDbEntity
  8
IMPORT_IGES
100
AcDbLine
 62
7
  6
CONTINUOUS
 10
-9.7435450599
 20
-47.2389790464
 11
-9.7435450599
 21
-44.1581317263
  0
LINE
  5
323
100
AcDbEntity
  8
IMPORT_IGES
100
AcDbLine
 62
7
  6
CONTINUOUS
 10
-9.7435450599
 20
-42.1581317263
 11
-9.7435450599
 21
-39.0772844062
  0
LINE
  5
324
100
AcDbEntity
  8
IMPORT_IGES
100
AcDbLine
 62
250
  6
CONTINUOUS
 10
-8.7603228788
 20
46.5306185421
 11
-8.7603228788
 21
43.5306185421
  0
LINE
  5
325
100
AcDbEntity
  8
IMPORT_IGES
100
AcDbLine
 62
7
  6
CONTINUOUS
 10
-8.2603228788
 20
47.0306185421
 11
-8.2603228788
 21
43.0306185421
  0
LINE
  5
326
100
AcDbEntity
  8
IMPORT_IGES
100
AcDbLine
 62
7
  6
CONTINUOUS
 10
-8.0610054841
 20
-29.5405877948
 11
-8.0610054841
 21
-31.2485877948
  0
LINE
  5
327
100
AcDbEntity
  8
IMPORT_IGES
100
AcDbLine
 62
7
  6
CONTINUOUS
 10
-5.9935462887
 20
-61.1462344808
 11
-5.9935448439
 21
-55.14623424
  0
LINE
  5
328
100
AcDbEntity
  8
IMPORT_IGES
100
AcDbLine
 62
7
  6
CONTINUOUS
 10
19.5064549401
 20
-10.1599136842
 11
-19.4935450599
 21
-10.1599136842
  0
LINE
  5
329
100
AcDbEntity
  8
IMPORT_IGES
100
AcDbLine
 62
7
  6
CONTINUOUS
 10
47.5875946101
 20
-9.4099136842
 11
44.50674729
 21
-9.4099136842
  0
LINE
  5
32A
100
AcDbEntity
  8
IMPORT_IGES
100
AcDbLine
 62
7
  6
CONTINUOUS
 10
42.50674729
 20
-9.4099136842
 11
39.4258999699
 21
-9.4099136842
  0
LINE
  5
32B
100
AcDbEntity
  8
IMPORT_IGES
100
AcDbLine
 62
7
  6
CONTINUOUS
 10
-36.0416000431
 20
-7.6737877948
 11
-33.0416000431
 21
-7.6737877948
  0
LINE
  5
32C
100
AcDbEntity
  8
IMPORT_IGES
100
AcDbLine
 62
7
  6
CONTINUOUS
 10
23.076989075
 20
-7.6737877948
 11
20.076989075
 21
-7.6737877948
  0
LINE
  5
32D
100
AcDbEntity
  8
IMPORT_IGES
100
AcDbLine
 62
7
  6
CONTINUOUS
 10
-4.7452591473
 20
-13.1820510055
 11
-4.7448074502
 21
-14.6843030124
  0
LINE
  5
32E
100
AcDbEntity
  8
IMPORT_IGES
100
AcDbLine
 62
7
  6
CONTINUOUS
 10
-4.7425573761
 20
-22.1675991015
 11
-4.7421057048
 21
-23.6698511073
  0
LINE
  5
32F
100
AcDbEntity
  8
IMPORT_IGES
100
AcDbLine
 62
7
  6
CONTINUOUS
 10
-3.7439079613
 20
-17.6756691142
 11
-3.7434569414
 21
-19.1756690468
  0
LINE
  5
330
100
AcDbEntity
  8
IMPORT_IGES
100
AcDbLine
 62
7
  6
CONTINUOUS
 10
-5.1435450599
 20
-61.402850704
 11
-5.1435450599
 21
-61.4528725316
  0
LINE
  5
331
100
AcDbEntity
  8
IMPORT_IGES
100
AcDbLine
 62
7
  6
CONTINUOUS
 10
-5.1435450599
 20
-61.5549627774
 11
-5.1435450599
 21
-62.5174416321
  0
LINE
  5
332
100
AcDbEntity
  8
IMPORT_IGES
100
AcDbLine
 62
7
  6
CONTINUOUS
 10
-4.9935448439
 20
-55.1462344808
 11
-4.9935450599
 21
-61.4528725316
  0
LINE
  5
333
100
AcDbEntity
  8
IMPORT_IGES
100
AcDbLine
 62
7
  6
CONTINUOUS
 10
-4.8990054841
 20
-29.5405877948
 11
-4.8990054841
 21
-31.2485877948
  0
LINE
  5
334
100
AcDbEntity
  8
IMPORT_IGES
100
AcDbLine
 62
7
  6
CONTINUOUS
 10
-3.2044775694
 20
-31.2485877948
 11
-3.2044775694
 21
-29.5405877948
  0
LINE
  5
335
100
AcDbEntity
  8
IMPORT_IGES
100
AcDbLine
 62
7
  6
CONTINUOUS
 10
-0.8935450599
 20
-61.1462344808
 11
-0.8935450599
 21
-58.1462344808
  0
LINE
  5
336
100
AcDbEntity
  8
IMPORT_IGES
100
AcDbLine
 62
7
  6
CONTINUOUS
 10
0.5817383227
 20
38.0930122052
 11
0.5817383227
 21
32.0930122052
  0
LINE
  5
337
100
AcDbEntity
  8
IMPORT_IGES
100
AcDbLine
 62
7
  6
CONTINUOUS
 10
-15.3916215976
 20
-15.7350142704
 11
-15.2912963398
 21
-15.6302634362
  0
LINE
  5
338
100
AcDbEntity
  8
IMPORT_IGES
100
AcDbLine
 62
7
  6
CONTINUOUS
 10
-33.0416000431
 20
-4.9237877948
 11
-34.5146841991
 21
-4.9237877948
  0
LINE
  5
339
100
AcDbEntity
  8
IMPORT_IGES
100
AcDbLine
 62
7
  6
CONTINUOUS
 10
-35.9892348484
 20
-4.9237877948
 11
-36.0416000431
 21
-4.9237877948
  0
LINE
  5
33A
100
AcDbEntity
  8
IMPORT_IGES
100
AcDbLine
 62
7
  6
CONTINUOUS
 10
-40.4917631021
 20
-4.9237877948
 11
-43.5019595237
 21
-4.9237877948
  0
LINE
  5
33B
100
AcDbEntity
  8
IMPORT_IGES
100
AcDbLine
 62
7
  6
CONTINUOUS
 10
-45.3019595237
 20
-3.6737877948
 11
-44.5019595237
 21
-3.6737877948
  0
LINE
  5
33C
100
AcDbEntity
  8
IMPORT_IGES
100
AcDbLine
 62
7
  6
CONTINUOUS
 10
20.3373485555
 20
-3.6737877948
 11
20.076989075
 21
-3.6737877948
  0
LINE
  5
33D
100
AcDbEntity
  8
IMPORT_IGES
100
AcDbLine
 62
7
  6
CONTINUOUS
 10
-43.5019595237
 20
-1.6737877948
 11
-44.8019595237
 21
-1.6737877948
  0
LINE
  5
33E
100
AcDbEntity
  8
IMPORT_IGES
100
AcDbLine
 62
7
  6
CONTINUOUS
 10
-40.4917631021
 20
-0.8737877948
 11
-42.0019595237
 21
-0.8737877948
  0
LINE
  5
33F
100
AcDbEntity
  8
IMPORT_IGES
100
AcDbLine
 62
7
  6
CONTINUOUS
 10
-61.3853643239
 20
54.9124093078
 11
-61.5894081504
 21
55.1164531342
  0
LINE
  5
340
100
AcDbEntity
  8
IMPORT_IGES
100
AcDbLine
 62
7
  6
CONTINUOUS
 10
4.254740472
 20
-13.1794314244
 11
4.2551922105
 21
-14.6818214167
  0
LINE
  5
341
100
AcDbEntity
  8
IMPORT_IGES
100
AcDbLine
 62
7
  6
CONTINUOUS
 10
4.2574422873
 20
-22.1651174306
 11
4.2578940259
 21
-23.6675074229
  0
LINE
  5
342
100
AcDbEntity
  8
IMPORT_IGES
100
AcDbLine
 62
7
  6
CONTINUOUS
 10
0.9064549401
 20
-58.1462344808
 11
0.9064549401
 21
-61.1462344808
  0
LINE
  5
343
100
AcDbEntity
  8
IMPORT_IGES
100
AcDbLine
 62
7
  6
CONTINUOUS
 10
1.0817383227
 20
32.0930122052
 11
1.0817383227
 21
37.0930122052
  0
LINE
  5
344
100
AcDbEntity
  8
IMPORT_IGES
100
AcDbLine
 62
7
  6
CONTINUOUS
 10
4.0817383227
 20
32.0930122052
 11
4.0817383227
 21
37.0930122052
  0
LINE
  5
345
100
AcDbEntity
  8
IMPORT_IGES
100
AcDbLine
 62
7
  6
CONTINUOUS
 10
4.3389945159
 20
25.9010122052
 11
4.3389945159
 21
24.1930122052
  0
LINE
  5
346
100
AcDbEntity
  8
IMPORT_IGES
100
AcDbLine
 62
7
  6
CONTINUOUS
 10
4.5817383227
 20
32.0930122052
 11
4.5817383227
 21
38.0930122052
  0
LINE
  5
347
100
AcDbEntity
  8
IMPORT_IGES
100
AcDbLine
 62
7
  6
CONTINUOUS
 10
5.0064549401
 20
-55.1462368889
 11
5.0064549401
 21
-61.4528725316
  0
LINE
  5
348
100
AcDbEntity
  8
IMPORT_IGES
100
AcDbLine
 62
7
  6
CONTINUOUS
 10
5.1564549401
 20
-61.4528725316
 11
5.1564549401
 21
-61.402850704
  0
LINE
  5
349
100
AcDbEntity
  8
IMPORT_IGES
100
AcDbLine
 62
7
  6
CONTINUOUS
 10
5.1564549401
 20
-62.5174416321
 11
5.1564549401
 21
-61.5549627774
  0
LINE
  5
34A
100
AcDbEntity
  8
IMPORT_IGES
100
AcDbLine
 62
7
  6
CONTINUOUS
 10
5.9389945159
 20
24.1930122052
 11
5.9389945159
 21
25.9010122052
  0
LINE
  5
34B
100
AcDbEntity
  8
IMPORT_IGES
100
AcDbLine
 62
7
  6
CONTINUOUS
 10
6.0064529889
 20
-61.1462344808
 11
6.0064544337
 21
-55.1462371297
  0
LINE
  5
34C
100
AcDbEntity
  8
IMPORT_IGES
100
AcDbLine
 62
7
  6
CONTINUOUS
 10
-15.629006823
 20
-21.5402321694
 11
-14.3658193361
 21
-20.2276121391
  0
LINE
  5
34D
100
AcDbEntity
  8
IMPORT_IGES
100
AcDbLine
 62
7
  6
CONTINUOUS
 10
-11.6378967039
 20
-17.3929903413
 11
-9.9415546503
 21
-15.6302634362
  0
LINE
  5
34E
100
AcDbEntity
  8
IMPORT_IGES
100
AcDbLine
 62
7
  6
CONTINUOUS
 10
-14.2227383406
 20
-20.0789347155
 11
-13.9967699635
 21
-19.8441278776
  0
LINE
  5
34F
100
AcDbEntity
  8
IMPORT_IGES
100
AcDbLine
 62
7
  6
CONTINUOUS
 10
-13.8405215125
 20
-19.6817679705
 11
-12.7688087461
 21
-18.5681365453
  0
LINE
  5
350
100
AcDbEntity
  8
IMPORT_IGES
100
AcDbLine
 62
7
  6
CONTINUOUS
 10
-12.6665753554
 20
-18.4619044279
 11
-11.7607811014
 21
-17.5206812031
  0
LINE
  5
351
100
AcDbEntity
  8
IMPORT_IGES
100
AcDbLine
 62
7
  6
CONTINUOUS
 10
-9.8355968407
 20
-15.7283576182
 11
-11.6215745017
 21
-17.5844821061
  0
LINE
  5
352
100
AcDbEntity
  8
IMPORT_IGES
100
AcDbLine
 62
7
  6
CONTINUOUS
 10
-11.7457279337
 20
-17.7135118417
 11
-12.5680808064
 21
-18.5681637995
  0
LINE
  5
353
100
AcDbEntity
  8
IMPORT_IGES
100
AcDbLine
 62
7
  6
CONTINUOUS
 10
-12.6703745501
 20
-18.6744752762
 11
-13.2182704949
 21
-19.2438906178
  0
LINE
  5
354
100
AcDbEntity
  8
IMPORT_IGES
100
AcDbLine
 62
7
  6
CONTINUOUS
 10
-13.4446701582
 20
-19.4791824518
 11
-13.8405215125
 21
-19.890581434
  0
LINE
  5
355
100
AcDbEntity
  8
IMPORT_IGES
100
AcDbLine
 62
7
  6
CONTINUOUS
 10
-14.1648151223
 20
-20.2276121391
 11
-15.6304332482
 21
-21.7507945129
  0
LINE
  5
356
100
AcDbEntity
  8
IMPORT_IGES
100
AcDbLine
 62
7
  6
CONTINUOUS
 10
61.5894081504
 20
55.1164531342
 11
61.3853643239
 21
54.9124093078
  0
LINE
  5
357
100
AcDbEntity
  8
IMPORT_IGES
100
AcDbLine
 62
7
  6
CONTINUOUS
 10
20.076989075
 20
2.3262122052
 11
23.076989075
 21
2.3262122052
  0
LINE
  5
358
100
AcDbEntity
  8
IMPORT_IGES
100
AcDbLine
 62
7
  6
CONTINUOUS
 10
-33.0416000431
 20
2.3262122052
 11
-36.0416000431
 21
2.3262122052
  0
LINE
  5
359
100
AcDbEntity
  8
IMPORT_IGES
100
AcDbLine
 62
7
  6
CONTINUOUS
 10
61.5308370377
 20
4.7471255305
 11
61.211638976
 21
4.7471255305
  0
LINE
  5
35A
100
AcDbEntity
  8
IMPORT_IGES
100
AcDbLine
 62
7
  6
CONTINUOUS
 10
-61.5308370377
 20
4.7505101182
 11
-61.1987285025
 21
4.7505101182
  0
LINE
  5
35B
100
AcDbEntity
  8
IMPORT_IGES
100
AcDbLine
 62
7
  6
CONTINUOUS
 10
61.2116386114
 20
6.2471255305
 11
61.5308370377
 21
6.2471255305
  0
LINE
  5
35C
100
AcDbEntity
  8
IMPORT_IGES
100
AcDbLine
 62
7
  6
CONTINUOUS
 10
-61.1987281413
 20
6.2505101182
 11
-61.5308370377
 21
6.2505101182
  0
LINE
  5
35D
100
AcDbEntity
  8
IMPORT_IGES
100
AcDbLine
 62
7
  6
CONTINUOUS
 10
9.0201945159
 20
25.9010122052
 11
9.0201945159
 21
24.1930122052
  0
LINE
  5
35E
100
AcDbEntity
  8
IMPORT_IGES
100
AcDbLine
 62
7
  6
CONTINUOUS
 10
9.7564549401
 20
-39.0772844062
 11
9.7564549401
 21
-42.1581317263
  0
LINE
  5
35F
100
AcDbEntity
  8
IMPORT_IGES
100
AcDbLine
 62
7
  6
CONTINUOUS
 10
9.7564549401
 20
-44.1581317263
 11
9.7564549401
 21
-47.2389790464
  0
LINE
  5
360
100
AcDbEntity
  8
IMPORT_IGES
100
AcDbLine
 62
7
  6
CONTINUOUS
 10
10.6201945159
 20
24.1930122052
 11
10.6201945159
 21
25.9010122052
  0
LINE
  5
361
100
AcDbEntity
  8
IMPORT_IGES
100
AcDbLine
 62
7
  6
CONTINUOUS
 10
-42.0019595237
 20
7.1262122052
 11
-40.4917631021
 21
7.1262122052
  0
LINE
  5
362
100
AcDbEntity
  8
IMPORT_IGES
100
AcDbLine
 62
7
  6
CONTINUOUS
 10
-44.8019595237
 20
8.3262122052
 11
-43.5019595237
 21
8.3262122052
  0
LINE
  5
363
100
AcDbEntity
  8
IMPORT_IGES
100
AcDbLine
 62
7
  6
CONTINUOUS
 10
39.4258999699
 20
10.0900863158
 11
42.50674729
 21
10.0900863158
  0
LINE
  5
364
100
AcDbEntity
  8
IMPORT_IGES
100
AcDbLine
 62
7
  6
CONTINUOUS
 10
44.50674729
 20
10.0900863158
 11
47.5875946101
 21
10.0900863158
  0
LINE
  5
365
100
AcDbEntity
  8
IMPORT_IGES
100
AcDbLine
 62
7
  6
CONTINUOUS
 10
-44.5019595237
 20
10.3262122052
 11
-45.3019595237
 21
10.3262122052
  0
LINE
  5
366
100
AcDbEntity
  8
IMPORT_IGES
100
AcDbLine
 62
7
  6
CONTINUOUS
 10
-19.4935450599
 20
10.8400863158
 11
19.5064549401
 21
10.8400863158
  0
LINE
  5
367
100
AcDbEntity
  8
IMPORT_IGES
100
AcDbLine
 62
7
  6
CONTINUOUS
 10
13.2564549401
 20
-39.0772844062
 11
13.2564549401
 21
-47.2389790464
  0
LINE
  5
368
100
AcDbEntity
  8
IMPORT_IGES
100
AcDbLine
 62
7
  6
CONTINUOUS
 10
18.2444666012
 20
-31.2485877948
 11
18.2444666012
 21
-29.5405877948
  0
LINE
  5
369
100
AcDbEntity
  8
IMPORT_IGES
100
AcDbLine
 62
7
  6
CONTINUOUS
 10
18.4151945159
 20
25.9010122052
 11
18.4151945159
 21
24.1930122052
  0
LINE
  5
36A
100
AcDbEntity
  8
IMPORT_IGES
100
AcDbLine
 62
7
  6
CONTINUOUS
 10
39.4258999699
 20
13.5900863158
 11
47.5875946101
 21
13.5900863158
  0
LINE
  5
36B
100
AcDbEntity
  8
IMPORT_IGES
100
AcDbLine
 62
7
  6
CONTINUOUS
 10
19.9389945159
 20
-29.5405877948
 11
19.9389945159
 21
-31.2485877948
  0
LINE
  5
36C
100
AcDbEntity
  8
IMPORT_IGES
100
AcDbLine
 62
7
  6
CONTINUOUS
 10
20.0151945159
 20
24.1930122052
 11
20.0151945159
 21
25.9010122052
  0
LINE
  5
36D
100
AcDbEntity
  8
IMPORT_IGES
100
AcDbLine
 62
7
  6
CONTINUOUS
 10
20.076989075
 20
-7.6737877948
 11
20.076989075
 21
2.3262122052
  0
LINE
  5
36E
100
AcDbEntity
  8
IMPORT_IGES
100
AcDbLine
 62
7
  6
CONTINUOUS
 10
20.5064549401
 20
9.8400863158
 11
20.5064549401
 21
2.3262122052
  0
LINE
  5
36F
100
AcDbEntity
  8
IMPORT_IGES
100
AcDbLine
 62
7
  6
CONTINUOUS
 10
20.5064549401
 20
-7.6737877948
 11
20.5064549401
 21
-9.1599136842
  0
LINE
  5
370
100
AcDbEntity
  8
IMPORT_IGES
100
AcDbLine
 62
7
  6
CONTINUOUS
 10
21.3373485555
 20
2.3262122052
 11
21.3373485555
 21
-2.6737877948
  0
LINE
  5
371
100
AcDbEntity
  8
IMPORT_IGES
100
AcDbLine
 62
7
  6
CONTINUOUS
 10
21.7500732309
 20
-7.6737877948
 11
21.7500732309
 21
2.3262122052
  0
LINE
  5
372
100
AcDbEntity
  8
IMPORT_IGES
100
AcDbLine
 62
7
  6
CONTINUOUS
 10
23.0246238802
 20
2.3262122052
 11
23.0246238802
 21
-7.6737877948
  0
LINE
  5
373
100
AcDbEntity
  8
IMPORT_IGES
100
AcDbLine
 62
7
  6
CONTINUOUS
 10
23.076989075
 20
2.3262122052
 11
23.076989075
 21
-7.6737877948
  0
LINE
  5
374
100
AcDbEntity
  8
IMPORT_IGES
100
AcDbLine
 62
7
  6
CONTINUOUS
 10
-39.4917631021
 20
23.5518808867
 11
-49.4917631021
 21
23.5518808867
  0
LINE
  5
375
100
AcDbEntity
  8
IMPORT_IGES
100
AcDbLine
 62
7
  6
CONTINUOUS
 10
-39.4917631021
 20
24.0518808867
 11
-48.4917631021
 21
24.0518808867
  0
LINE
  5
376
100
AcDbEntity
  8
IMPORT_IGES
100
AcDbLine
 62
7
  6
CONTINUOUS
 10
-23.5848054841
 20
24.1930122052
 11
-21.9848054841
 21
24.1930122052
  0
LINE
  5
377
100
AcDbEntity
  8
IMPORT_IGES
100
AcDbLine
 62
7
  6
CONTINUOUS
 10
-18.8990054841
 20
24.1930122052
 11
-17.2990054841
 21
24.1930122052
  0
LINE
  5
378
100
AcDbEntity
  8
IMPORT_IGES
100
AcDbLine
 62
7
  6
CONTINUOUS
 10
4.3389945159
 20
24.1930122052
 11
5.9389945159
 21
24.1930122052
  0
LINE
  5
379
100
AcDbEntity
  8
IMPORT_IGES
100
AcDbLine
 62
7
  6
CONTINUOUS
 10
9.0201945159
 20
24.1930122052
 11
10.6201945159
 21
24.1930122052
  0
LINE
  5
37A
100
AcDbEntity
  8
IMPORT_IGES
100
AcDbLine
 62
7
  6
CONTINUOUS
 10
18.4151945159
 20
24.1930122052
 11
20.0151945159
 21
24.1930122052
  0
LINE
  5
37B
100
AcDbEntity
  8
IMPORT_IGES
100
AcDbLine
 62
7
  6
CONTINUOUS
 10
-31.3798054841
 20
24.1930122052
 11
-32.9798054841
 21
24.1930122052
  0
LINE
  5
37C
100
AcDbEntity
  8
IMPORT_IGES
100
AcDbLine
 62
7
  6
CONTINUOUS
 10
-23.5848054841
 20
25.3930122052
 11
-21.9848054841
 21
25.3930122052
  0
LINE
  5
37D
100
AcDbEntity
  8
IMPORT_IGES
100
AcDbLine
 62
7
  6
CONTINUOUS
 10
-18.8990054841
 20
25.3930122052
 11
-17.2990054841
 21
25.3930122052
  0
LINE
  5
37E
100
AcDbEntity
  8
IMPORT_IGES
100
AcDbLine
 62
7
  6
CONTINUOUS
 10
20.0151945159
 20
25.3930122052
 11
18.4151945159
 21
25.3930122052
  0
LINE
  5
37F
100
AcDbEntity
  8
IMPORT_IGES
100
AcDbLine
 62
7
  6
CONTINUOUS
 10
4.3389945159
 20
25.3930122052
 11
5.9389945159
 21
25.3930122052
  0
LINE
  5
380
100
AcDbEntity
  8
IMPORT_IGES
100
AcDbLine
 62
7
  6
CONTINUOUS
 10
9.0201945159
 20
25.3930122052
 11
10.6201945159
 21
25.3930122052
  0
LINE
  5
381
100
AcDbEntity
  8
IMPORT_IGES
100
AcDbLine
 62
7
  6
CONTINUOUS
 10
-31.3798054841
 20
25.3930122052
 11
-32.9798054841
 21
25.3930122052
  0
LINE
  5
382
100
AcDbEntity
  8
IMPORT_IGES
100
AcDbLine
 62
7
  6
CONTINUOUS
 10
-32.9798054841
 20
25.9010122052
 11
-31.3798054841
 21
25.9010122052
  0
LINE
  5
383
100
AcDbEntity
  8
IMPORT_IGES
100
AcDbLine
 62
7
  6
CONTINUOUS
 10
20.0151945159
 20
25.9010122052
 11
18.4151945159
 21
25.9010122052
  0
LINE
  5
384
100
AcDbEntity
  8
IMPORT_IGES
100
AcDbLine
 62
7
  6
CONTINUOUS
 10
10.6201945159
 20
25.9010122052
 11
9.0201945159
 21
25.9010122052
  0
LINE
  5
385
100
AcDbEntity
  8
IMPORT_IGES
100
AcDbLine
 62
7
  6
CONTINUOUS
 10
5.9389945159
 20
25.9010122052
 11
4.3389945159
 21
25.9010122052
  0
LINE
  5
386
100
AcDbEntity
  8
IMPORT_IGES
100
AcDbLine
 62
7
  6
CONTINUOUS
 10
-17.2990054841
 20
25.9010122052
 11
-18.8990054841
 21
25.9010122052
  0
LINE
  5
387
100
AcDbEntity
  8
IMPORT_IGES
100
AcDbLine
 62
7
  6
CONTINUOUS
 10
-21.9848054841
 20
25.9010122052
 11
-23.5848054841
 21
25.9010122052
  0
LINE
  5
388
100
AcDbEntity
  8
IMPORT_IGES
100
AcDbLine
 62
7
  6
CONTINUOUS
 10
-48.4917631021
 20
27.0518808867
 11
-39.4917631021
 21
27.0518808867
  0
LINE
  5
389
100
AcDbEntity
  8
IMPORT_IGES
100
AcDbLine
 62
7
  6
CONTINUOUS
 10
-49.4917631021
 20
27.5518808867
 11
-39.4917631021
 21
27.5518808867
  0
LINE
  5
38A
100
AcDbEntity
  8
IMPORT_IGES
100
AcDbLine
 62
250
  6
CONTINUOUS
 10
35.2658529153
 20
-39.1581316509
 11
35.2658529153
 21
-43.1581316509
  0
LINE
  5
38B
100
AcDbEntity
  8
IMPORT_IGES
100
AcDbLine
 62
250
  6
CONTINUOUS
 10
35.5612952412
 20
-43.1581316509
 11
35.5612952412
 21
-39.1581316509
  0
LINE
  5
38C
100
AcDbEntity
  8
IMPORT_IGES
100
AcDbLine
 62
7
  6
CONTINUOUS
 10
35.6939097854
 20
-39.1581316509
 11
35.6939097854
 21
-43.1581316509
  0
LINE
  5
38D
100
AcDbEntity
  8
IMPORT_IGES
100
AcDbLine
 62
7
  6
CONTINUOUS
 10
-20.5103233977
 20
30.8383043579
 11
-6.0103223598
 21
30.8383043579
  0
LINE
  5
38E
100
AcDbEntity
  8
IMPORT_IGES
100
AcDbLine
 62
7
  6
CONTINUOUS
 10
0.5817383227
 20
32.0930122052
 11
4.5817383227
 21
32.0930122052
  0
LINE
  5
38F
100
AcDbEntity
  8
IMPORT_IGES
100
AcDbLine
 62
250
  6
CONTINUOUS
 10
4.0817383227
 20
32.5930122052
 11
1.0817383227
 21
32.5930122052
  0
LINE
  5
390
100
AcDbEntity
  8
IMPORT_IGES
100
AcDbLine
 62
250
  6
CONTINUOUS
 10
1.0817383227
 20
34.7930122052
 11
4.0817383227
 21
34.7930122052
  0
LINE
  5
391
100
AcDbEntity
  8
IMPORT_IGES
100
AcDbLine
 62
7
  6
CONTINUOUS
 10
1.0817383227
 20
35.2930122052
 11
4.0817383227
 21
35.2930122052
  0
LINE
  5
392
100
AcDbEntity
  8
IMPORT_IGES
100
AcDbLine
 62
7
  6
CONTINUOUS
 10
37.5175828007
 20
-39.158131647
 11
37.5175828007
 21
-43.158131647
  0
LINE
  5
393
100
AcDbEntity
  8
IMPORT_IGES
100
AcDbLine
 62
250
  6
CONTINUOUS
 10
37.5175828693
 20
37.5865744578
 11
37.5175828693
 21
38.0146313278
  0
LINE
  5
394
100
AcDbEntity
  8
IMPORT_IGES
100
AcDbLine
 62
250
  6
CONTINUOUS
 10
37.5175828693
 20
45.6619773664
 11
37.5175828693
 21
46.0900342365
  0
LINE
  5
395
100
AcDbEntity
  8
IMPORT_IGES
100
AcDbLine
 62
7
  6
CONTINUOUS
 10
39.4258999699
 20
13.5900863158
 11
39.4258999699
 21
10.0900863158
  0
LINE
  5
396
100
AcDbEntity
  8
IMPORT_IGES
100
AcDbLine
 62
7
  6
CONTINUOUS
 10
39.4258999699
 20
-9.4099136842
 11
39.4258999699
 21
-12.9099136842
  0
LINE
  5
397
100
AcDbEntity
  8
IMPORT_IGES
100
AcDbLine
 62
250
  6
CONTINUOUS
 10
40.0106797668
 20
13.5900863158
 11
40.0106797668
 21
10.0900863158
  0
LINE
  5
398
100
AcDbEntity
  8
IMPORT_IGES
100
AcDbLine
 62
250
  6
CONTINUOUS
 10
40.0106797668
 20
-9.4099136842
 11
40.0106797668
 21
-12.9099136842
  0
LINE
  5
399
100
AcDbEntity
  8
IMPORT_IGES
100
AcDbLine
 62
7
  6
CONTINUOUS
 10
40.2795866227
 20
-12.9099136842
 11
40.2795866227
 21
-9.4099136842
  0
LINE
  5
39A
100
AcDbEntity
  8
IMPORT_IGES
100
AcDbLine
 62
7
  6
CONTINUOUS
 10
40.2795866227
 20
10.0900863158
 11
40.2795866227
 21
13.5900863158
  0
LINE
  5
39B
100
AcDbEntity
  8
IMPORT_IGES
100
AcDbLine
 62
250
  6
CONTINUOUS
 10
41.5175828693
 20
46.0900342365
 11
41.5175828693
 21
45.6619773664
  0
LINE
  5
39C
100
AcDbEntity
  8
IMPORT_IGES
100
AcDbLine
 62
250
  6
CONTINUOUS
 10
41.5175828693
 20
38.0146313278
 11
41.5175828693
 21
37.5865744578
  0
LINE
  5
39D
100
AcDbEntity
  8
IMPORT_IGES
100
AcDbLine
 62
7
  6
CONTINUOUS
 10
41.5175828007
 20
-43.158131647
 11
41.5175828007
 21
-39.158131647
  0
LINE
  5
39E
100
AcDbEntity
  8
IMPORT_IGES
100
AcDbLine
 62
7
  6
CONTINUOUS
 10
42.50674729
 20
-9.4099136842
 11
42.50674729
 21
10.0900863158
  0
LINE
  5
39F
100
AcDbEntity
  8
IMPORT_IGES
100
AcDbLine
 62
7
  6
CONTINUOUS
 10
4.0817383227
 20
37.0930122052
 11
1.0817383227
 21
37.0930122052
  0
LINE
  5
3A0
100
AcDbEntity
  8
IMPORT_IGES
100
AcDbLine
 62
250
  6
CONTINUOUS
 10
37.5175828693
 20
37.5865744578
 11
41.5175828693
 21
37.5865744578
  0
LINE
  5
3A1
100
AcDbEntity
  8
IMPORT_IGES
100
AcDbLine
 62
250
  6
CONTINUOUS
 10
41.5175828693
 20
37.8820167837
 11
37.5175828693
 21
37.8820167837
  0
LINE
  5
3A2
100
AcDbEntity
  8
IMPORT_IGES
100
AcDbLine
 62
7
  6
CONTINUOUS
 10
41.5175828693
 20
38.0146313278
 11
37.5175828693
 21
38.0146313278
  0
LINE
  5
3A3
100
AcDbEntity
  8
IMPORT_IGES
100
AcDbLine
 62
7
  6
CONTINUOUS
 10
4.5817383227
 20
38.0930122052
 11
0.5817383227
 21
38.0930122052
  0
LINE
  5
3A4
100
AcDbEntity
  8
IMPORT_IGES
100
AcDbLine
 62
7
  6
CONTINUOUS
 10
-6.0103223598
 20
38.8383043579
 11
-20.5103233977
 21
38.8383043579
  0
LINE
  5
3A5
100
AcDbEntity
  8
IMPORT_IGES
100
AcDbLine
 62
7
  6
CONTINUOUS
 10
41.5175828693
 20
39.8383043471
 11
37.5175828693
 21
39.8383043471
  0
LINE
  5
3A6
100
AcDbEntity
  8
IMPORT_IGES
100
AcDbLine
 62
250
  6
CONTINUOUS
 10
-35.2400331403
 20
39.8383042825
 11
-35.6680900104
 21
39.8383042825
  0
LINE
  5
3A7
100
AcDbEntity
  8
IMPORT_IGES
100
AcDbLine
 62
250
  6
CONTINUOUS
 10
-43.3154360489
 20
39.8383042825
 11
-43.743492919
 21
39.8383042825
  0
LINE
  5
3A8
100
AcDbEntity
  8
IMPORT_IGES
100
AcDbLine
 62
7
  6
CONTINUOUS
 10
43.3412558239
 20
-43.1581316509
 11
43.3412558239
 21
-39.1581316509
  0
LINE
  5
3A9
100
AcDbEntity
  8
IMPORT_IGES
100
AcDbLine
 62
250
  6
CONTINUOUS
 10
43.4738703681
 20
-39.1581316509
 11
43.4738703681
 21
-43.1581316509
  0
LINE
  5
3AA
100
AcDbEntity
  8
IMPORT_IGES
100
AcDbLine
 62
250
  6
CONTINUOUS
 10
43.769312694
 20
-43.1581316509
 11
43.769312694
 21
-39.1581316509
  0
LINE
  5
3AB
100
AcDbEntity
  8
IMPORT_IGES
100
AcDbLine
 62
7
  6
CONTINUOUS
 10
44.50674729
 20
-9.4099136842
 11
44.50674729
 21
10.0900863158
  0
LINE
  5
3AC
100
AcDbEntity
  8
IMPORT_IGES
100
AcDbLine
 62
7
  6
CONTINUOUS
 10
46.7339079572
 20
13.5900863158
 11
46.7339079572
 21
10.0900863158
  0
LINE
  5
3AD
100
AcDbEntity
  8
IMPORT_IGES
100
AcDbLine
 62
7
  6
CONTINUOUS
 10
46.7339079572
 20
-9.4099136842
 11
46.7339079572
 21
-12.9099136842
  0
LINE
  5
3AE
100
AcDbEntity
  8
IMPORT_IGES
100
AcDbLine
 62
250
  6
CONTINUOUS
 10
47.0028148132
 20
-12.9099136842
 11
47.0028148132
 21
-9.4099136842
  0
LINE
  5
3AF
100
AcDbEntity
  8
IMPORT_IGES
100
AcDbLine
 62
250
  6
CONTINUOUS
 10
47.0028148132
 20
10.0900863158
 11
47.0028148132
 21
13.5900863158
  0
LINE
  5
3B0
100
AcDbEntity
  8
IMPORT_IGES
100
AcDbLine
 62
7
  6
CONTINUOUS
 10
47.5875946101
 20
-12.9099136842
 11
47.5875946101
 21
-9.4099136842
  0
LINE
  5
3B1
100
AcDbEntity
  8
IMPORT_IGES
100
AcDbLine
 62
7
  6
CONTINUOUS
 10
47.5875946101
 20
10.0900863158
 11
47.5875946101
 21
13.5900863158
  0
LWPOLYLINE
  5
3B2
100
AcDbEntity
  8
IMPORT_IGES
100
AcDbPolyline
 62
250
  6
CONTINUOUS
 90
22
 70
0
 10
-37.4917630257
 20
40.9132657576
 10
-37.4931345663
 20
40.9129493972
 10
-37.528061204
 20
40.9047270028
 10
-37.5623083067
 20
40.8964982055
 10
-37.5953619248
 20
40.8883916412
 10
-37.6271794414
 20
40.8804248833
 10
-37.6581704505
 20
40.8724975027
 10
-37.6881936392
 20
40.8646430677
 10
-37.7169077944
 20
40.8569495661
 10
-37.7443846844
 20
40.8493958763
 10
-37.770375304
 20
40.8420469539
 10
-37.7946780985
 20
40.834957691
 10
-37.8173614386
 20
40.8281032164
 10
-37.8382394733
 20
40.8215305584
 10
-37.8570243274
 20
40.8153226232
 10
-37.8735773961
 20
40.8095191599
 10
-37.8876927916
 20
40.8041883034
 10
-37.8992782491
 20
40.7993642511
 10
-37.908319626
 20
40.7950472411
 10
-37.9147100682
 20
40.7912744192
 10
-37.9183468508
 20
40.7880980547
 10
-37.919217379
 20
40.7855430211
  0
LINE
  5
3B3
100
AcDbEntity
  8
IMPORT_IGES
100
AcDbLine
 62
7
  6
CONTINUOUS
 10
-8.2603228788
 20
43.0306185421
 11
-18.2603228788
 21
43.0306185421
  0
LINE
  5
3B4
100
AcDbEntity
  8
IMPORT_IGES
100
AcDbLine
 62
7
  6
CONTINUOUS
 10
-8.2603228788
 20
43.5306185421
 11
-17.2603228788
 21
43.5306185421
  0
LINE
  5
3B5
100
AcDbEntity
  8
IMPORT_IGES
100
AcDbLine
 62
250
  6
CONTINUOUS
 10
-43.743492919
 20
43.8383042825
 11
-43.3154360489
 21
43.8383042825
  0
LINE
  5
3B6
100
AcDbEntity
  8
IMPORT_IGES
100
AcDbLine
 62
250
  6
CONTINUOUS
 10
-35.6680900104
 20
43.8383042825
 11
-35.2400331403
 21
43.8383042825
  0
LINE
  5
3B7
100
AcDbEntity
  8
IMPORT_IGES
100
AcDbLine
 62
7
  6
CONTINUOUS
 10
37.5175828693
 20
43.8383043471
 11
41.5175828693
 21
43.8383043471
  0
LINE
  5
3B8
100
AcDbEntity
  8
IMPORT_IGES
100
AcDbLine
 62
7
  6
CONTINUOUS
 10
37.5175828693
 20
45.6619773664
 11
41.5175828693
 21
45.6619773664
  0
LINE
  5
3B9
100
AcDbEntity
  8
IMPORT_IGES
100
AcDbLine
 62
250
  6
CONTINUOUS
 10
37.5175828693
 20
45.7945919106
 11
41.5175828693
 21
45.7945919106
  0
LINE
  5
3BA
100
AcDbEntity
  8
IMPORT_IGES
100
AcDbLine
 62
250
  6
CONTINUOUS
 10
41.5175828693
 20
46.0900342365
 11
37.5175828693
 21
46.0900342365
  0
LINE
  5
3BB
100
AcDbEntity
  8
IMPORT_IGES
100
AcDbLine
 62
7
  6
CONTINUOUS
 10
-8.2603228788
 20
46.5306185421
 11
-17.2603228788
 21
46.5306185421
  0
LINE
  5
3BC
100
AcDbEntity
  8
IMPORT_IGES
100
AcDbLine
 62
7
  6
CONTINUOUS
 10
-18.2603228788
 20
47.0306185421
 11
-8.2603228788
 21
47.0306185421
  0
LINE
  5
3BD
100
AcDbEntity
  8
IMPORT_IGES
100
AcDbLine
 62
250
  6
CONTINUOUS
 10
49.8046729822
 20
55.6555237144
 11
49.8046729822
 21
53.3585498321
  0
LINE
  5
3BE
100
AcDbEntity
  8
IMPORT_IGES
100
AcDbLine
 62
250
  6
CONTINUOUS
 10
49.8046729822
 20
-52.6783772005
 11
49.8046729822
 21
-54.9753510828
  0
LINE
  5
3BF
100
AcDbEntity
  8
IMPORT_IGES
100
AcDbLine
 62
7
  6
CONTINUOUS
 10
51.4164531342
 20
54.8276681604
 11
51.4164531342
 21
63.2494164164
  0
LINE
  5
3C0
100
AcDbEntity
  8
IMPORT_IGES
100
AcDbLine
 62
7
  6
CONTINUOUS
 10
51.6164531412
 20
54.8983956643
 11
51.6164531412
 21
63.3920346761
  0
LINE
  5
3C1
100
AcDbEntity
  8
IMPORT_IGES
100
AcDbLine
 62
250
  6
CONTINUOUS
 10
53.0249184564
 20
50.1383043579
 11
53.0249184564
 21
-49.4581317263
  0
LINE
  5
3C2
100
AcDbEntity
  8
IMPORT_IGES
100
AcDbLine
 62
250
  6
CONTINUOUS
 10
53.3241876714
 20
-49.4581317263
 11
53.3241876714
 21
50.1383043579
  0
LINE
  5
3C3
100
AcDbEntity
  8
IMPORT_IGES
100
AcDbLine
 62
7
  6
CONTINUOUS
 10
53.6164531412
 20
57.1164531342
 11
53.6164531412
 21
61.5894081504
  0
LINE
  5
3C4
100
AcDbEntity
  8
IMPORT_IGES
100
AcDbLine
 62
250
  6
CONTINUOUS
 10
54.3243282884
 20
50.1383043579
 11
54.3243282884
 21
-49.4581317263
  0
LINE
  5
3C5
100
AcDbEntity
  8
IMPORT_IGES
100
AcDbLine
 62
7
  6
CONTINUOUS
 10
54.4035307915
 20
60.3994079564
 11
54.4035307915
 21
59.3994079564
  0
LWPOLYLINE
  5
3C6
100
AcDbEntity
  8
IMPORT_IGES
100
AcDbPolyline
 62
7
  6
CONTINUOUS
 90
9
 70
0
 10
-1.0935450599
 20
-61.5062858114
 10
-1.0911881202
 20
-61.5050368184
 10
-1.0841619738
 20
-61.5037874695
 10
-1.0725590185
 20
-61.5025539255
 10
-1.0563284286
 20
-61.50133634
 10
-1.0355210298
 20
-61.5001345595
 10
-1.0103838147
 20
-61.4989633992
 10
-0.9808629632
 20
-61.4978230872
 10
-0.9470122955
 20
-61.4967133955
  0
LINE
  5
3C7
100
AcDbEntity
  8
IMPORT_IGES
100
AcDbLine
 62
250
  6
CONTINUOUS
 10
-55.3089824586
 20
50.1383043579
 11
-53.0120085762
 21
50.1383043579
  0
LINE
  5
3C8
100
AcDbEntity
  8
IMPORT_IGES
100
AcDbLine
 62
250
  6
CONTINUOUS
 10
53.0249184564
 20
50.1383043579
 11
55.3218923387
 21
50.1383043579
  0
LINE
  5
3C9
100
AcDbEntity
  8
IMPORT_IGES
100
AcDbLine
 62
250
  6
CONTINUOUS
 10
-49.7917631021
 20
53.3585498321
 11
49.8046729822
 21
53.3585498321
  0
LINE
  5
3CA
100
AcDbEntity
  8
IMPORT_IGES
100
AcDbLine
 62
250
  6
CONTINUOUS
 10
49.8046729822
 20
53.6578190472
 11
-49.7917631021
 21
53.6578190472
  0
LINE
  5
3CB
100
AcDbEntity
  8
IMPORT_IGES
100
AcDbLine
 62
250
  6
CONTINUOUS
 10
55.3218923387
 20
-49.4581317263
 11
55.3218923387
 21
50.1383043579
  0
LINE
  5
3CC
100
AcDbEntity
  8
IMPORT_IGES
100
AcDbLine
 62
250
  6
CONTINUOUS
 10
56.6164531412
 20
-61.3853643239
 11
56.6164531412
 21
-61.5894081504
  0
LINE
  5
3CD
100
AcDbEntity
  8
IMPORT_IGES
100
AcDbLine
 62
7
  6
CONTINUOUS
 10
57.1652486955
 20
54.7291986259
 11
57.1652486955
 21
54.9124093078
  0
LWPOLYLINE
  5
3CE
100
AcDbEntity
  8
IMPORT_IGES
100
AcDbPolyline
 62
7
  6
CONTINUOUS
 90
9
 70
0
 10
1.1064549401
 20
-61.5062858227
 10
1.1040980003
 20
-61.5075348157
 10
1.0970718539
 20
-61.5087841646
 10
1.0854688986
 20
-61.5100177086
 10
1.0692383087
 20
-61.511235294
 10
1.0484309099
 20
-61.5124370745
 10
1.0232936948
 20
-61.5136082348
 10
0.9937728434
 20
-61.5147485468
 10
0.9599221756
 20
-61.5158582386
  0
LWPOLYLINE
  5
3CF
100
AcDbEntity
  8
IMPORT_IGES
100
AcDbPolyline
 62
7
  6
CONTINUOUS
 90
3
 70
0
 10
-51.4164551694
 20
54.8264758238
 10
-51.5987999805
 20
54.8087980732
 10
-51.7753506435
 20
54.7925891101
  0
LWPOLYLINE
  5
3D0
100
AcDbEntity
  8
IMPORT_IGES
100
AcDbPolyline
 62
7
  6
CONTINUOUS
 90
7
 70
0
 10
-51.7753506435
 20
54.7925891101
 10
-52.1109672598
 20
54.7642462049
 10
-52.2700332131
 20
54.7521122628
 10
-52.4236118141
 20
54.7424411316
 10
-52.5718053281
 20
54.7355641522
 10
-52.7145114899
 20
54.7311499837
 10
-52.8517302994
 20
54.7291986259
  0
LINE
  5
3D1
100
AcDbEntity
  8
IMPORT_IGES
100
AcDbLine
 62
250
  6
CONTINUOUS
 10
51.6164737547
 20
55.0067721469
 11
51.4164531342
 21
55.0056443802
  0
LINE
  5
3D2
100
AcDbEntity
  8
IMPORT_IGES
100
AcDbLine
 62
7
  6
CONTINUOUS
 10
57.1652486955
 20
54.8999325215
 11
51.6164531412
 21
54.8983956643
  0
LINE
  5
3D3
100
AcDbEntity
  8
IMPORT_IGES
100
AcDbLine
 62
250
  6
CONTINUOUS
 10
-49.7917631021
 20
54.6579596642
 11
49.8046729822
 21
54.6579596642
  0
LINE
  5
3D4
100
AcDbEntity
  8
IMPORT_IGES
100
AcDbLine
 62
7
  6
CONTINUOUS
 10
-61.1987164675
 20
54.7291986259
 11
-52.8517302994
 21
54.7291986259
  0
LINE
  5
3D5
100
AcDbEntity
  8
IMPORT_IGES
100
AcDbLine
 62
7
  6
CONTINUOUS
 10
61.2116268286
 20
54.7291986259
 11
52.8646401795
 21
54.7291986259
  0
LINE
  5
3D6
100
AcDbEntity
  8
IMPORT_IGES
100
AcDbLine
 62
7
  6
CONTINUOUS
 10
57.1652486955
 20
54.9124093078
 11
61.3853643239
 21
54.9124093078
  0
LINE
  5
3D7
100
AcDbEntity
  8
IMPORT_IGES
100
AcDbLine
 62
7
  6
CONTINUOUS
 10
-57.1652486955
 20
54.9124093078
 11
-61.3853643239
 21
54.9124093078
  0
LINE
  5
3D8
100
AcDbEntity
  8
IMPORT_IGES
100
AcDbLine
 62
7
  6
CONTINUOUS
 10
-51.6164531412
 20
55.0394012809
 11
-54.6935049945
 21
55.0394012809
  0
LINE
  5
3D9
100
AcDbEntity
  8
IMPORT_IGES
100
AcDbLine
 62
7
  6
CONTINUOUS
 10
-54.6352252414
 20
55.097681034
 11
-51.6164531412
 21
55.097681034
  0
LINE
  5
3DA
100
AcDbEntity
  8
IMPORT_IGES
100
AcDbLine
 62
7
  6
CONTINUOUS
 10
-61.5894081504
 20
55.1164531342
 11
-51.6164531412
 21
55.1164531342
  0
LINE
  5
3DB
100
AcDbEntity
  8
IMPORT_IGES
100
AcDbLine
 62
7
  6
CONTINUOUS
 10
51.6164531412
 20
55.1164531342
 11
61.5894081504
 21
55.1164531342
  0
LINE
  5
3DC
100
AcDbEntity
  8
IMPORT_IGES
100
AcDbLine
 62
250
  6
CONTINUOUS
 10
49.8046729822
 20
55.6555237144
 11
-49.7917631021
 21
55.6555237144
  0
LINE
  5
3DD
100
AcDbEntity
  8
IMPORT_IGES
100
AcDbLine
 62
7
  6
CONTINUOUS
 10
61.5642083423
 20
57.1164531342
 11
53.6164531412
 21
57.1164531342
  0
LINE
  5
3DE
100
AcDbEntity
  8
IMPORT_IGES
100
AcDbLine
 62
7
  6
CONTINUOUS
 10
-54.4164531412
 20
57.1164531342
 11
-61.5642083423
 21
57.1164531342
  0
LINE
  5
3DF
100
AcDbEntity
  8
IMPORT_IGES
100
AcDbLine
 62
7
  6
CONTINUOUS
 10
56.6164531342
 20
57.1652486955
 11
53.6164531412
 21
57.1652486955
  0
LINE
  5
3E0
100
AcDbEntity
  8
IMPORT_IGES
100
AcDbLine
 62
7
  6
CONTINUOUS
 10
51.6164531412
 20
57.1652486955
 11
51.4164531342
 21
57.1652486955
  0
LINE
  5
3E1
100
AcDbEntity
  8
IMPORT_IGES
100
AcDbLine
 62
7
  6
CONTINUOUS
 10
-51.4164531412
 20
57.1652486955
 11
-51.6164531412
 21
57.1652486955
  0
LINE
  5
3E2
100
AcDbEntity
  8
IMPORT_IGES
100
AcDbLine
 62
7
  6
CONTINUOUS
 10
-54.4164531412
 20
57.1652486955
 11
-56.6164531481
 21
57.1652486955
  0
LINE
  5
3E3
100
AcDbEntity
  8
IMPORT_IGES
100
AcDbLine
 62
7
  6
CONTINUOUS
 10
51.6164531412
 20
58.3994079564
 11
51.4164531342
 21
58.3994079564
  0
LINE
  5
3E4
100
AcDbEntity
  8
IMPORT_IGES
100
AcDbLine
 62
7
  6
CONTINUOUS
 10
-51.6164531412
 20
58.3994079564
 11
-51.4164531412
 21
58.3994079564
  0
LINE
  5
3E5
100
AcDbEntity
  8
IMPORT_IGES
100
AcDbLine
 62
7
  6
CONTINUOUS
 10
-51.6164531412
 20
54.8984133352
 11
-57.1652486955
 21
54.8999377418
  0
LINE
  5
3E6
100
AcDbEntity
  8
IMPORT_IGES
100
AcDbLine
 62
250
  6
CONTINUOUS
 10
-51.4164531412
 20
55.005744573
 11
-51.6168252975
 21
55.0068709391
  0
LWPOLYLINE
  5
3E7
100
AcDbEntity
  8
IMPORT_IGES
100
AcDbPolyline
 62
7
  6
CONTINUOUS
 90
6
 70
0
 10
52.8646401795
 20
54.7291986259
 10
52.7263537833
 20
54.7311833694
 10
52.5824906097
 20
54.7356624745
 10
52.4330506589
 20
54.742635941
 10
52.2781392436
 20
54.7524440847
 10
52.117651051
 20
54.7647465899
  0
LWPOLYLINE
  5
3E8
100
AcDbEntity
  8
IMPORT_IGES
100
AcDbPolyline
 62
7
  6
CONTINUOUS
 90
4
 70
0
 10
52.117651051
 20
54.7647465899
 10
51.7788912047
 20
54.7934315286
 10
51.6006195509
 20
54.809813962
 10
51.416455181
 20
54.8276698101
  0
LINE
  5
3E9
100
AcDbEntity
  8
IMPORT_IGES
100
AcDbLine
 62
7
  6
CONTINUOUS
 10
61.2116268286
 20
54.7291986259
 11
61.2116538408
 21
-56.4162085333
  0
LINE
  5
3EA
100
AcDbEntity
  8
IMPORT_IGES
100
AcDbLine
 62
7
  6
CONTINUOUS
 10
61.3853643239
 20
54.9124093078
 11
61.3853643239
 21
6.2471255305
  0
LINE
  5
3EB
100
AcDbEntity
  8
IMPORT_IGES
100
AcDbLine
 62
7
  6
CONTINUOUS
 10
61.3853643239
 20
4.7471255305
 11
61.3853643239
 21
-43.7528744695
  0
LINE
  5
3EC
100
AcDbEntity
  8
IMPORT_IGES
100
AcDbLine
 62
7
  6
CONTINUOUS
 10
61.3853643239
 20
-45.2528744695
 11
61.3853643239
 21
-56.6164531412
  0
LINE
  5
3ED
100
AcDbEntity
  8
IMPORT_IGES
100
AcDbLine
 62
7
  6
CONTINUOUS
 10
61.5308370377
 20
6.2471255305
 11
61.5308370377
 21
4.7471255305
  0
LINE
  5
3EE
100
AcDbEntity
  8
IMPORT_IGES
100
AcDbLine
 62
7
  6
CONTINUOUS
 10
61.5308370377
 20
-43.7528744695
 11
61.5308370377
 21
-45.2528744695
  0
LINE
  5
3EF
100
AcDbEntity
  8
IMPORT_IGES
100
AcDbLine
 62
7
  6
CONTINUOUS
 10
61.5894081504
 20
55.1164531342
 11
61.5894081504
 21
-56.6164531412
  0
LINE
  5
3F0
100
AcDbEntity
  8
IMPORT_IGES
100
AcDbLine
 62
7
  6
CONTINUOUS
 10
63.3920346761
 20
-56.7564531412
 11
63.3920346761
 21
56.7564531412
  0
LINE
  5
3F1
100
AcDbEntity
  8
IMPORT_IGES
100
AcDbLine
 62
7
  6
CONTINUOUS
 10
51.6164531412
 20
61.3994079564
 11
51.4164531342
 21
61.3994079564
  0
LINE
  5
3F2
100
AcDbEntity
  8
IMPORT_IGES
100
AcDbLine
 62
7
  6
CONTINUOUS
 10
-51.6164531412
 20
61.3994079564
 11
-51.4164531412
 21
61.3994079564
  0
LINE
  5
3F3
100
AcDbEntity
  8
IMPORT_IGES
100
AcDbLine
 62
7
  6
CONTINUOUS
 10
-56.6164531412
 20
61.5894081504
 11
-54.4164531412
 21
61.5894080725
  0
LINE
  5
3F4
100
AcDbEntity
  8
IMPORT_IGES
100
AcDbLine
 62
7
  6
CONTINUOUS
 10
-51.6164531412
 20
61.5894081504
 11
-51.4164531412
 21
61.5894081504
  0
LINE
  5
3F5
100
AcDbEntity
  8
IMPORT_IGES
100
AcDbLine
 62
7
  6
CONTINUOUS
 10
51.4164531342
 20
61.5894081504
 11
51.6164531412
 21
61.5894081504
  0
LINE
  5
3F6
100
AcDbEntity
  8
IMPORT_IGES
100
AcDbLine
 62
7
  6
CONTINUOUS
 10
53.6164531412
 20
61.5894081504
 11
56.6164531412
 21
61.5894081504
  0
LINE
  5
3F7
100
AcDbEntity
  8
IMPORT_IGES
100
AcDbLine
 62
7
  6
CONTINUOUS
 10
51.6164531412
 20
62.2593619798
 11
51.4164531342
 21
62.2593619798
  0
LINE
  5
3F8
100
AcDbEntity
  8
IMPORT_IGES
100
AcDbLine
 62
7
  6
CONTINUOUS
 10
-51.4164531412
 20
62.2593619798
 11
-51.6164531412
 21
62.2593619798
  0
LINE
  5
3F9
100
AcDbEntity
  8
IMPORT_IGES
100
AcDbLine
 62
7
  6
CONTINUOUS
 10
51.6164531412
 20
62.2693229804
 11
51.4164531342
 21
62.2693229804
  0
LINE
  5
3FA
100
AcDbEntity
  8
IMPORT_IGES
100
AcDbLine
 62
7
  6
CONTINUOUS
 10
-51.4164531412
 20
62.2693229804
 11
-51.6164531412
 21
62.2693229804
  0
LINE
  5
3FB
100
AcDbEntity
  8
IMPORT_IGES
100
AcDbLine
 62
7
  6
CONTINUOUS
 10
-51.4164531412
 20
63.2494164164
 11
51.4164531342
 21
63.2494164164
  0
LINE
  5
3FC
100
AcDbEntity
  8
IMPORT_IGES
100
AcDbLine
 62
7
  6
CONTINUOUS
 10
51.6164531412
 20
63.2796571393
 11
-51.6164531412
 21
63.2796571393
  0
LINE
  5
3FD
100
AcDbEntity
  8
IMPORT_IGES
100
AcDbLine
 62
7
  6
CONTINUOUS
 10
56.7564531412
 20
63.3920346761
 11
51.6164531412
 21
63.3920346761
  0
LINE
  5
3FE
100
AcDbEntity
  8
IMPORT_IGES
100
AcDbLine
 62
7
  6
CONTINUOUS
 10
-51.6164531412
 20
63.3920346761
 11
-56.7564531412
 21
63.3920346761
  0
ARC
  5
3FF
100
AcDbEntity
  8
IMPORT_IGES
100
AcDbCircle
 62
7
  6
CONTINUOUS
 10
-56.7564531412
 20
-56.7564531412
 40
6.6355815349
100
AcDbArc
 50
180.0
 51
270.0
  0
ARC
  5
400
100
AcDbEntity
  8
IMPORT_IGES
100
AcDbCircle
 62
250
  6
CONTINUOUS
 10
-49.7917631021
 20
-49.4581317263
 40
5.5172193565
100
AcDbArc
 50
180.0
 51
270.0
  0
ARC
  5
401
100
AcDbEntity
  8
IMPORT_IGES
100
AcDbCircle
 62
7
  6
CONTINUOUS
 10
-56.6164531412
 20
-56.6164531412
 40
4.9729550092
100
AcDbArc
 50
180.0
 51
270.0
  0
ARC
  5
402
100
AcDbEntity
  8
IMPORT_IGES
100
AcDbCircle
 62
7
  6
CONTINUOUS
 10
-56.6164531412
 20
-56.6164531412
 40
4.7689111828
100
AcDbArc
 50
180.0
 51
270.0
  0
ARC
  5
403
100
AcDbEntity
  8
IMPORT_IGES
100
AcDbCircle
 62
7
  6
CONTINUOUS
 10
-56.4687184336
 20
-56.4162096828
 40
4.730024798
100
AcDbArc
 50
179.999986203
 51
270.0
  0
ARC
  5
404
100
AcDbEntity
  8
IMPORT_IGES
100
AcDbCircle
 62
250
  6
CONTINUOUS
 10
-49.7917631021
 20
-49.4581317263
 40
4.5196553062
100
AcDbArc
 50
180.0
 51
270.0
  0
ARC
  5
405
100
AcDbEntity
  8
IMPORT_IGES
100
AcDbCircle
 62
250
  6
CONTINUOUS
 10
-41.4917630739
 20
-41.1581316587
 40
4.2517298894
100
AcDbArc
 50
90.0
 51
270.0
  0
ARC
  5
406
100
AcDbEntity
  8
IMPORT_IGES
100
AcDbCircle
 62
250
  6
CONTINUOUS
 10
-37.4917630739
 20
-41.1581316587
 40
4.2517298894
100
AcDbArc
 50
270.0
 51
90.0
  0
ARC
  5
407
100
AcDbEntity
  8
IMPORT_IGES
100
AcDbCircle
 62
250
  6
CONTINUOUS
 10
-41.4917630739
 20
-41.1581316587
 40
3.9562875634
100
AcDbArc
 50
90.0
 51
270.0
  0
ARC
  5
408
100
AcDbEntity
  8
IMPORT_IGES
100
AcDbCircle
 62
250
  6
CONTINUOUS
 10
-37.4917630739
 20
-41.1581316587
 40
3.9562875634
100
AcDbArc
 50
270.0
 51
90.0
  0
ARC
  5
409
100
AcDbEntity
  8
IMPORT_IGES
100
AcDbCircle
 62
7
  6
CONTINUOUS
 10
-41.4917630739
 20
-41.1581316587
 40
3.8236730193
100
AcDbArc
 50
90.0
 51
270.0
  0
ARC
  5
40A
100
AcDbEntity
  8
IMPORT_IGES
100
AcDbCircle
 62
7
  6
CONTINUOUS
 10
-37.4917630739
 20
-41.1581316587
 40
3.8236730193
100
AcDbArc
 50
270.0
 51
90.0
  0
ARC
  5
40B
100
AcDbEntity
  8
IMPORT_IGES
100
AcDbCircle
 62
250
  6
CONTINUOUS
 10
-49.7917631021
 20
-49.4581317263
 40
3.5195146892
100
AcDbArc
 50
180.0
 51
270.0
  0
ARC
  5
40C
100
AcDbEntity
  8
IMPORT_IGES
100
AcDbCircle
 62
250
  6
CONTINUOUS
 10
-49.7917631021
 20
-49.4581317263
 40
3.2202454742
100
AcDbArc
 50
180.0
 51
270.0
  0
ARC
  5
40D
100
AcDbEntity
  8
IMPORT_IGES
100
AcDbCircle
 62
7
  6
CONTINUOUS
 10
-35.0488826555
 20
-32.6621015615
 40
2.4685808831
100
AcDbArc
 50
182.2755289056
 51
270.0
  0
ARC
  5
40E
100
AcDbEntity
  8
IMPORT_IGES
100
AcDbCircle
 62
7
  6
CONTINUOUS
 10
-41.49176307
 20
-41.1581316548
 40
2.0
100
AcDbArc
 50
90.0000001119
 51
269.9999998881
  0
ARC
  5
40F
100
AcDbEntity
  8
IMPORT_IGES
100
AcDbCircle
 62
7
  6
CONTINUOUS
 10
-37.49176307
 20
-41.1581316548
 40
2.0
100
AcDbArc
 50
269.9999998881
 51
90.0000001119
  0
ARC
  5
410
100
AcDbEntity
  8
IMPORT_IGES
100
AcDbCircle
 62
7
  6
CONTINUOUS
 10
-32.0137195404
 20
-46.6581317263
 40
1.5
100
AcDbArc
 50
270.0
 51
360.0
  0
ARC
  5
411
100
AcDbEntity
  8
IMPORT_IGES
100
AcDbCircle
 62
7
  6
CONTINUOUS
 10
-46.9917631021
 20
-46.6581317263
 40
1.5
100
AcDbArc
 50
180.0
 51
270.0
  0
ARC
  5
412
100
AcDbEntity
  8
IMPORT_IGES
100
AcDbCircle
 62
7
  6
CONTINUOUS
 10
-32.0137195404
 20
-35.6621015615
 40
1.5
100
AcDbArc
 50
0.0
 51
90.0
  0
ARC
  5
413
100
AcDbEntity
  8
IMPORT_IGES
100
AcDbCircle
 62
7
  6
CONTINUOUS
 10
-35.0488826555
 20
-32.6621015615
 40
1.5
100
AcDbArc
 50
183.7465697589
 51
270.0
  0
ARC
  5
414
100
AcDbEntity
  8
IMPORT_IGES
100
AcDbCircle
 62
7
  6
CONTINUOUS
 10
-38.0488826555
 20
-29.8228744695
 40
1.5
100
AcDbArc
 50
0.0
 51
90.0
  0
ARC
  5
415
100
AcDbEntity
  8
IMPORT_IGES
100
AcDbCircle
 62
7
  6
CONTINUOUS
 10
-46.9917631021
 20
-29.8228744695
 40
1.5
100
AcDbArc
 50
90.0
 51
180.0
  0
ARC
  5
416
100
AcDbEntity
  8
IMPORT_IGES
100
AcDbCircle
 62
7
  6
CONTINUOUS
 10
-32.0137195404
 20
-46.6581317263
 40
0.5314191169
100
AcDbArc
 50
270.0000000001
 51
360.0
  0
ARC
  5
417
100
AcDbEntity
  8
IMPORT_IGES
100
AcDbCircle
 62
7
  6
CONTINUOUS
 10
-32.0137195404
 20
-35.6621015615
 40
0.5314191169
100
AcDbArc
 50
0.0
 51
90.0
  0
ARC
  5
418
100
AcDbEntity
  8
IMPORT_IGES
100
AcDbCircle
 62
7
  6
CONTINUOUS
 10
-38.0488826555
 20
-29.8228744695
 40
0.5314191169
100
AcDbArc
 50
0.0
 51
89.9999999999
  0
ARC
  5
419
100
AcDbEntity
  8
IMPORT_IGES
100
AcDbCircle
 62
7
  6
CONTINUOUS
 10
-46.9917631021
 20
-29.8228744695
 40
0.5314191169
100
AcDbArc
 50
90.0000000001
 51
180.0
  0
ARC
  5
41A
100
AcDbEntity
  8
IMPORT_IGES
100
AcDbCircle
 62
7
  6
CONTINUOUS
 10
-44.4917631021
 20
-6.9099142032
 40
4.0
100
AcDbArc
 50
180.0
 51
360.0
  0
ARC
  5
41B
100
AcDbEntity
  8
IMPORT_IGES
100
AcDbCircle
 62
7
  6
CONTINUOUS
 10
-45.3019595237
 20
-2.6737877948
 40
1.0
100
AcDbArc
 50
180.0
 51
270.0
  0
ARC
  5
41C
100
AcDbEntity
  8
IMPORT_IGES
100
AcDbCircle
 62
7
  6
CONTINUOUS
 10
-44.5019595237
 20
-4.6737877948
 40
1.0
100
AcDbArc
 50
0.0
 51
90.0
  0
ARC
  5
41D
100
AcDbEntity
  8
IMPORT_IGES
100
AcDbCircle
 62
7
  6
CONTINUOUS
 10
-4.4935451719
 20
-18.4258758458
 40
5.2498627489
100
AcDbArc
 50
267.2862537013
 51
92.7482013673
  0
ARC
  5
41E
100
AcDbEntity
  8
IMPORT_IGES
100
AcDbCircle
 62
7
  6
CONTINUOUS
 10
-4.4935451719
 20
-18.4258758458
 40
3.75
100
AcDbArc
 50
266.1925721965
 51
348.4788395403
  0
ARC
  5
41F
100
AcDbEntity
  8
IMPORT_IGES
100
AcDbCircle
 62
7
  6
CONTINUOUS
 10
-4.4935451719
 20
-18.4258758458
 40
3.75
100
AcDbArc
 50
11.5527576059
 51
93.8418831399
  0
ARC
  5
420
100
AcDbEntity
  8
IMPORT_IGES
100
AcDbCircle
 62
7
  6
CONTINUOUS
 10
-12.5184312447
 20
-18.9625844108
 40
2.1280872551
100
AcDbArc
 50
272.2276646928
 51
283.7257476569
  0
ARC
  5
421
100
AcDbEntity
  8
IMPORT_IGES
100
AcDbCircle
 62
7
  6
CONTINUOUS
 10
-12.5184312447
 20
-18.9625844108
 40
1.9811945092
100
AcDbArc
 50
272.3929243829
 51
284.766804357
  0
ARC
  5
422
100
AcDbEntity
  8
IMPORT_IGES
100
AcDbCircle
 62
7
  6
CONTINUOUS
 10
-13.1262361966
 20
-19.3530847836
 40
1.7169588244
100
AcDbArc
 50
239.1150005004
 51
266.5531981142
  0
ARC
  5
423
100
AcDbEntity
  8
IMPORT_IGES
100
AcDbCircle
 62
7
  6
CONTINUOUS
 10
-13.1262361966
 20
-19.3530847836
 40
1.5700660785
100
AcDbArc
 50
238.6839892208
 51
266.2302750201
  0
ARC
  5
424
100
AcDbEntity
  8
IMPORT_IGES
100
AcDbCircle
 62
7
  6
CONTINUOUS
 10
-19.4935450599
 20
-9.1599136842
 40
1.0
100
AcDbArc
 50
180.0
 51
270.0
  0
ARC
  5
425
100
AcDbEntity
  8
IMPORT_IGES
100
AcDbCircle
 62
7
  6
CONTINUOUS
 10
-11.884553442
 20
-20.368673345
 40
0.6008377933
100
AcDbArc
 50
288.8210116125
 51
336.0551581434
  0
ARC
  5
426
100
AcDbEntity
  8
IMPORT_IGES
100
AcDbCircle
 62
7
  6
CONTINUOUS
 10
-13.5867640796
 20
-16.7267251458
 40
0.5193285946
100
AcDbArc
 50
258.9219323821
 51
5.6300871767
  0
ARC
  5
427
100
AcDbEntity
  8
IMPORT_IGES
100
AcDbCircle
 62
7
  6
CONTINUOUS
 10
-13.5867640796
 20
-16.7267251458
 40
0.5193285946
100
AcDbArc
 50
22.8423176085
 51
209.2050962938
  0
ARC
  5
428
100
AcDbEntity
  8
IMPORT_IGES
100
AcDbCircle
 62
7
  6
CONTINUOUS
 10
-11.884553442
 20
-20.368673345
 40
0.4539450475
100
AcDbArc
 50
295.2774862638
 51
327.507523783
  0
CIRCLE
  5
429
100
AcDbEntity
  8
IMPORT_IGES
100
AcDbCircle
 62
7
  6
CONTINUOUS
 10
-13.5867640796
 20
-16.7267251458
 40
0.2586584845
  0
ARC
  5
42A
100
AcDbEntity
  8
IMPORT_IGES
100
AcDbCircle
 62
7
  6
CONTINUOUS
 10
-14.1754754719
 20
-20.6614283557
 40
0.2355065019
100
AcDbArc
 50
351.9486263984
 51
11.9841409055
  0
ARC
  5
42B
100
AcDbEntity
  8
IMPORT_IGES
100
AcDbCircle
 62
7
  6
CONTINUOUS
 10
-14.1754754711
 20
-20.6614283565
 40
0.2355065019
100
AcDbArc
 50
68.9850677813
 51
315.4724863488
  0
CIRCLE
  5
42C
100
AcDbEntity
  8
IMPORT_IGES
100
AcDbCircle
 62
7
  6
CONTINUOUS
 10
-13.5867640796
 20
-16.7267251458
 40
0.1729998065
  0
ARC
  5
42D
100
AcDbEntity
  8
IMPORT_IGES
100
AcDbCircle
 62
7
  6
CONTINUOUS
 10
-11.7680814235
 20
-16.5863289908
 40
0.0612053108
100
AcDbArc
 50
4.871949865
 51
90.0000000002
  0
ARC
  5
42E
100
AcDbEntity
  8
IMPORT_IGES
100
AcDbCircle
 62
7
  6
CONTINUOUS
 10
-56.7564531412
 20
56.7564531412
 40
6.6355815349
100
AcDbArc
 50
90.0
 51
180.0
  0
ARC
  5
42F
100
AcDbEntity
  8
IMPORT_IGES
100
AcDbCircle
 62
250
  6
CONTINUOUS
 10
-49.7917631021
 20
50.1383043579
 40
5.5172193565
100
AcDbArc
 50
90.0
 51
107.1261333964
  0
ARC
  5
430
100
AcDbEntity
  8
IMPORT_IGES
100
AcDbCircle
 62
250
  6
CONTINUOUS
 10
-49.7917631021
 20
50.1383043579
 40
5.5172193565
100
AcDbArc
 50
123.684632649
 51
180.0
  0
ARC
  5
431
100
AcDbEntity
  8
IMPORT_IGES
100
AcDbCircle
 62
7
  6
CONTINUOUS
 10
-56.6164531412
 20
56.6164531412
 40
4.9729550092
100
AcDbArc
 50
90.0
 51
174.2295119441
  0
ARC
  5
432
100
AcDbEntity
  8
IMPORT_IGES
100
AcDbCircle
 62
250
  6
CONTINUOUS
 10
-49.7917631021
 20
50.1383043579
 40
4.5196553062
100
AcDbArc
 50
90.0
 51
180.0
  0
ARC
  5
433
100
AcDbEntity
  8
IMPORT_IGES
100
AcDbCircle
 62
250
  6
CONTINUOUS
 10
-39.4917630297
 20
39.8383042825
 40
4.2517298894
100
AcDbArc
 50
180.0
 51
360.0
  0
ARC
  5
434
100
AcDbEntity
  8
IMPORT_IGES
100
AcDbCircle
 62
250
  6
CONTINUOUS
 10
-39.4917630297
 20
43.8383042825
 40
4.2517298894
100
AcDbArc
 50
0.0
 51
180.0
  0
ARC
  5
435
100
AcDbEntity
  8
IMPORT_IGES
100
AcDbCircle
 62
7
  6
CONTINUOUS
 10
-20.5103233977
 20
34.8383043579
 40
4.0
100
AcDbArc
 50
90.0
 51
270.0
  0
ARC
  5
436
100
AcDbEntity
  8
IMPORT_IGES
100
AcDbCircle
 62
7
  6
CONTINUOUS
 10
-6.0103223598
 20
34.8383043579
 40
4.0
100
AcDbArc
 50
270.0
 51
90.0
  0
ARC
  5
437
100
AcDbEntity
  8
IMPORT_IGES
100
AcDbCircle
 62
7
  6
CONTINUOUS
 10
-44.4917631021
 20
7.5900868348
 40
4.0
100
AcDbArc
 50
0.0
 51
180.0
  0
ARC
  5
438
100
AcDbEntity
  8
IMPORT_IGES
100
AcDbCircle
 62
250
  6
CONTINUOUS
 10
-39.4917630297
 20
43.8383042825
 40
3.9562875634
100
AcDbArc
 50
0.0
 51
180.0
  0
ARC
  5
439
100
AcDbEntity
  8
IMPORT_IGES
100
AcDbCircle
 62
250
  6
CONTINUOUS
 10
-39.4917630297
 20
39.8383042825
 40
3.9562875634
100
AcDbArc
 50
180.0
 51
360.0
  0
ARC
  5
43A
100
AcDbEntity
  8
IMPORT_IGES
100
AcDbCircle
 62
7
  6
CONTINUOUS
 10
-39.4917630297
 20
39.8383042825
 40
3.8236730193
100
AcDbArc
 50
180.0
 51
360.0
  0
ARC
  5
43B
100
AcDbEntity
  8
IMPORT_IGES
100
AcDbCircle
 62
7
  6
CONTINUOUS
 10
-39.4917630297
 20
43.8383042825
 40
3.8236730193
100
AcDbArc
 50
0.0
 51
180.0
  0
ARC
  5
43C
100
AcDbEntity
  8
IMPORT_IGES
100
AcDbCircle
 62
250
  6
CONTINUOUS
 10
-49.7917631021
 20
50.1383043579
 40
3.5195146892
100
AcDbArc
 50
90.0
 51
180.0
  0
ARC
  5
43D
100
AcDbEntity
  8
IMPORT_IGES
100
AcDbCircle
 62
250
  6
CONTINUOUS
 10
-49.7917631021
 20
50.1383043579
 40
3.2202454742
100
AcDbArc
 50
90.0
 51
180.0
  0
ARC
  5
43E
100
AcDbEntity
  8
IMPORT_IGES
100
AcDbCircle
 62
7
  6
CONTINUOUS
 10
-40.2603228788
 20
40.2571255305
 40
2.4
100
AcDbArc
 50
278.3419310843
 51
120.8802411966
  0
ARC
  5
43F
100
AcDbEntity
  8
IMPORT_IGES
100
AcDbCircle
 62
7
  6
CONTINUOUS
 10
-39.4917630257
 20
39.8383042864
 40
2.0
100
AcDbArc
 50
180.0000001119
 51
359.9999998881
  0
ARC
  5
440
100
AcDbEntity
  8
IMPORT_IGES
100
AcDbCircle
 62
7
  6
CONTINUOUS
 10
-39.4917630257
 20
43.8383042864
 40
2.0
100
AcDbArc
 50
359.9999998881
 51
180.0000001119
  0
CIRCLE
  5
441
100
AcDbEntity
  8
IMPORT_IGES
100
AcDbCircle
 62
7
  6
CONTINUOUS
 10
-40.2603228788
 20
40.2571255305
 40
1.2
  0
ARC
  5
442
100
AcDbEntity
  8
IMPORT_IGES
100
AcDbCircle
 62
7
  6
CONTINUOUS
 10
-44.5019595237
 20
11.3262122052
 40
1.0
100
AcDbArc
 50
270.0
 51
360.0
  0
ARC
  5
443
100
AcDbEntity
  8
IMPORT_IGES
100
AcDbCircle
 62
7
  6
CONTINUOUS
 10
-45.3019595237
 20
9.3262122052
 40
1.0
100
AcDbArc
 50
90.0
 51
180.0
  0
ARC
  5
444
100
AcDbEntity
  8
IMPORT_IGES
100
AcDbCircle
 62
7
  6
CONTINUOUS
 10
-19.4935450599
 20
9.8400863158
 40
1.0
100
AcDbArc
 50
90.0
 51
180.0
  0
CIRCLE
  5
445
100
AcDbEntity
  8
IMPORT_IGES
100
AcDbCircle
 62
7
  6
CONTINUOUS
 10
-40.2603228788
 20
40.2571255305
 40
0.9
  0
ARC
  5
446
100
AcDbEntity
  8
IMPORT_IGES
100
AcDbCircle
 62
7
  6
CONTINUOUS
 10
-56.6164531481
 20
56.6164531481
 40
0.5487955473
100
AcDbArc
 50
90.0
 51
114.344125609
  0
ARC
  5
447
100
AcDbEntity
  8
IMPORT_IGES
100
AcDbCircle
 62
7
  6
CONTINUOUS
 10
56.7564531412
 20
-56.7564531412
 40
6.6355815349
100
AcDbArc
 50
270.0
 51
360.0
  0
ARC
  5
448
100
AcDbEntity
  8
IMPORT_IGES
100
AcDbCircle
 62
250
  6
CONTINUOUS
 10
49.8046729822
 20
-49.4581317263
 40
5.5172193565
100
AcDbArc
 50
270.0
 51
360.0
  0
ARC
  5
449
100
AcDbEntity
  8
IMPORT_IGES
100
AcDbCircle
 62
7
  6
CONTINUOUS
 10
4.506455052
 20
-18.4233942122
 40
5.2500005667
100
AcDbArc
 50
267.2863196039
 51
92.7481357762
  0
ARC
  5
44A
100
AcDbEntity
  8
IMPORT_IGES
100
AcDbCircle
 62
7
  6
CONTINUOUS
 10
56.6164531412
 20
-56.6164531412
 40
4.9729550092
100
AcDbArc
 50
270.0
 51
360.0
  0
ARC
  5
44B
100
AcDbEntity
  8
IMPORT_IGES
100
AcDbCircle
 62
7
  6
CONTINUOUS
 10
56.6164531412
 20
-56.6164531412
 40
4.7689111828
100
AcDbArc
 50
270.0
 51
360.0
  0
ARC
  5
44C
100
AcDbEntity
  8
IMPORT_IGES
100
AcDbCircle
 62
7
  6
CONTINUOUS
 10
56.4816290428
 20
-56.4162096828
 40
4.730024798
100
AcDbArc
 50
270.0
 51
0.0000139249
  0
ARC
  5
44D
100
AcDbEntity
  8
IMPORT_IGES
100
AcDbCircle
 62
250
  6
CONTINUOUS
 10
49.8046729822
 20
-49.4581317263
 40
4.5196553062
100
AcDbArc
 50
270.0
 51
360.0
  0
ARC
  5
44E
100
AcDbEntity
  8
IMPORT_IGES
100
AcDbCircle
 62
250
  6
CONTINUOUS
 10
39.5175828046
 20
-43.1581316509
 40
4.2517298894
100
AcDbArc
 50
180.0
 51
360.0
  0
ARC
  5
44F
100
AcDbEntity
  8
IMPORT_IGES
100
AcDbCircle
 62
250
  6
CONTINUOUS
 10
39.5175828046
 20
-39.1581316509
 40
4.2517298894
100
AcDbArc
 50
0.0
 51
180.0
  0
ARC
  5
450
100
AcDbEntity
  8
IMPORT_IGES
100
AcDbCircle
 62
250
  6
CONTINUOUS
 10
39.5175828046
 20
-43.1581316509
 40
3.9562875634
100
AcDbArc
 50
180.0
 51
360.0
  0
ARC
  5
451
100
AcDbEntity
  8
IMPORT_IGES
100
AcDbCircle
 62
250
  6
CONTINUOUS
 10
39.5175828046
 20
-39.1581316509
 40
3.9562875634
100
AcDbArc
 50
0.0
 51
180.0
  0
ARC
  5
452
100
AcDbEntity
  8
IMPORT_IGES
100
AcDbCircle
 62
7
  6
CONTINUOUS
 10
39.5175828046
 20
-39.1581316509
 40
3.8236730193
100
AcDbArc
 50
0.0
 51
180.0
  0
ARC
  5
453
100
AcDbEntity
  8
IMPORT_IGES
100
AcDbCircle
 62
7
  6
CONTINUOUS
 10
39.5175828046
 20
-43.1581316509
 40
3.8236730193
100
AcDbArc
 50
180.0
 51
360.0
  0
ARC
  5
454
100
AcDbEntity
  8
IMPORT_IGES
100
AcDbCircle
 62
7
  6
CONTINUOUS
 10
4.506455052
 20
-18.4233942122
 40
3.75
100
AcDbArc
 50
266.1925636136
 51
93.8418917658
  0
ARC
  5
455
100
AcDbEntity
  8
IMPORT_IGES
100
AcDbCircle
 62
250
  6
CONTINUOUS
 10
49.8046729822
 20
-49.4581317263
 40
3.5195146892
100
AcDbArc
 50
270.0
 51
360.0
  0
ARC
  5
456
100
AcDbEntity
  8
IMPORT_IGES
100
AcDbCircle
 62
250
  6
CONTINUOUS
 10
49.8046729822
 20
-49.4581317263
 40
3.2202454742
100
AcDbArc
 50
270.0
 51
360.0
  0
ARC
  5
457
100
AcDbEntity
  8
IMPORT_IGES
100
AcDbCircle
 62
7
  6
CONTINUOUS
 10
39.5175828007
 20
-43.158131647
 40
2.0
100
AcDbArc
 50
180.0000001119
 51
359.9999998881
  0
ARC
  5
458
100
AcDbEntity
  8
IMPORT_IGES
100
AcDbCircle
 62
7
  6
CONTINUOUS
 10
39.5175828007
 20
-39.158131647
 40
2.0
100
AcDbArc
 50
359.9999998881
 51
180.0000001119
  0
ARC
  5
459
100
AcDbEntity
  8
IMPORT_IGES
100
AcDbCircle
 62
7
  6
CONTINUOUS
 10
20.3373485555
 20
-2.6737877948
 40
1.0
100
AcDbArc
 50
270.0
 51
360.0
  0
ARC
  5
45A
100
AcDbEntity
  8
IMPORT_IGES
100
AcDbCircle
 62
7
  6
CONTINUOUS
 10
19.5064549401
 20
-9.1599136842
 40
1.0
100
AcDbArc
 50
270.0
 51
360.0
  0
ARC
  5
45B
100
AcDbEntity
  8
IMPORT_IGES
100
AcDbCircle
 62
7
  6
CONTINUOUS
 10
56.7564531412
 20
56.7564531412
 40
6.6355815349
100
AcDbArc
 50
0.0
 51
90.0
  0
ARC
  5
45C
100
AcDbEntity
  8
IMPORT_IGES
100
AcDbCircle
 62
250
  6
CONTINUOUS
 10
49.8046729822
 20
50.1383043579
 40
5.5172193565
100
AcDbArc
 50
73.0141023255
 51
90.0
  0
ARC
  5
45D
100
AcDbEntity
  8
IMPORT_IGES
100
AcDbCircle
 62
250
  6
CONTINUOUS
 10
49.8046729822
 20
50.1383043579
 40
5.5172193565
100
AcDbArc
 50
0.0
 51
56.315367351
  0
ARC
  5
45E
100
AcDbEntity
  8
IMPORT_IGES
100
AcDbCircle
 62
7
  6
CONTINUOUS
 10
56.6164531412
 20
56.6164531412
 40
4.9729550092
100
AcDbArc
 50
5.7704880559
 51
90.0
  0
ARC
  5
45F
100
AcDbEntity
  8
IMPORT_IGES
100
AcDbCircle
 62
250
  6
CONTINUOUS
 10
49.8046729822
 20
50.1383043579
 40
4.5196553062
100
AcDbArc
 50
0.0
 51
90.0
  0
ARC
  5
460
100
AcDbEntity
  8
IMPORT_IGES
100
AcDbCircle
 62
250
  6
CONTINUOUS
 10
41.5175828693
 20
41.8383043471
 40
4.2517298894
100
AcDbArc
 50
270.0
 51
90.0
  0
ARC
  5
461
100
AcDbEntity
  8
IMPORT_IGES
100
AcDbCircle
 62
250
  6
CONTINUOUS
 10
37.5175828693
 20
41.8383043471
 40
4.2517298894
100
AcDbArc
 50
90.0
 51
270.0
  0
ARC
  5
462
100
AcDbEntity
  8
IMPORT_IGES
100
AcDbCircle
 62
250
  6
CONTINUOUS
 10
37.5175828693
 20
41.8383043471
 40
3.9562875634
100
AcDbArc
 50
90.0
 51
270.0
  0
ARC
  5
463
100
AcDbEntity
  8
IMPORT_IGES
100
AcDbCircle
 62
250
  6
CONTINUOUS
 10
41.5175828693
 20
41.8383043471
 40
3.9562875634
100
AcDbArc
 50
270.0
 51
90.0
  0
ARC
  5
464
100
AcDbEntity
  8
IMPORT_IGES
100
AcDbCircle
 62
7
  6
CONTINUOUS
 10
41.5175828693
 20
41.8383043471
 40
3.8236730193
100
AcDbArc
 50
270.0
 51
90.0
  0
ARC
  5
465
100
AcDbEntity
  8
IMPORT_IGES
100
AcDbCircle
 62
7
  6
CONTINUOUS
 10
37.5175828693
 20
41.8383043471
 40
3.8236730193
100
AcDbArc
 50
90.0
 51
270.0
  0
ARC
  5
466
100
AcDbEntity
  8
IMPORT_IGES
100
AcDbCircle
 62
250
  6
CONTINUOUS
 10
49.8046729822
 20
50.1383043579
 40
3.5195146892
100
AcDbArc
 50
0.0
 51
90.0
  0
ARC
  5
467
100
AcDbEntity
  8
IMPORT_IGES
100
AcDbCircle
 62
250
  6
CONTINUOUS
 10
49.8046729822
 20
50.1383043579
 40
3.2202454742
100
AcDbArc
 50
0.0
 51
90.0
  0
ARC
  5
468
100
AcDbEntity
  8
IMPORT_IGES
100
AcDbCircle
 62
7
  6
CONTINUOUS
 10
37.5175828732
 20
41.838304351
 40
2.0
100
AcDbArc
 50
90.0000001119
 51
269.9999998881
  0
ARC
  5
469
100
AcDbEntity
  8
IMPORT_IGES
100
AcDbCircle
 62
7
  6
CONTINUOUS
 10
41.5175828732
 20
41.838304351
 40
2.0
100
AcDbArc
 50
269.9999998881
 51
90.0000001119
  0
ARC
  5
46A
100
AcDbEntity
  8
IMPORT_IGES
100
AcDbCircle
 62
7
  6
CONTINUOUS
 10
53.4035307915
 20
59.3994079564
 40
1.0
100
AcDbArc
 50
282.2992930089
 51
360.0
  0
ARC
  5
46B
100
AcDbEntity
  8
IMPORT_IGES
100
AcDbCircle
 62
7
  6
CONTINUOUS
 10
53.4035307915
 20
60.3994079564
 40
1.0
100
AcDbArc
 50
0.0
 51
77.7007069911
  0
ARC
  5
46C
100
AcDbEntity
  8
IMPORT_IGES
100
AcDbCircle
 62
7
  6
CONTINUOUS
 10
19.5064549401
 20
9.8400863158
 40
1.0
100
AcDbArc
 50
0.0
 51
90.0
  0
ARC
  5
46D
100
AcDbEntity
  8
IMPORT_IGES
100
AcDbCircle
 62
7
  6
CONTINUOUS
 10
56.6164531342
 20
56.6164531342
 40
0.5487955613
100
AcDbArc
 50
65.6558747046
 51
90.0000000001
  0
ENDSEC
  0
SECTION
  2
OBJECTS
  0
DICTIONARY
  5
C
100
AcDbDictionary
280
0
281
1
  3
ACAD_GROUP
350
D
  3
ACAD_MLINESTYLE
350
17
  3
ACAD_LAYOUT
350
1A
  3
ACAD_PLOTSETTINGS
350
19
  3
ACAD_PLOTSTYLENAME
350
E
  0
DICTIONARY
  5
D
102
{ACAD_REACTORS
330
C
102
}
100
AcDbDictionary
280
0
281
1
  0
ACDBDICTIONARYWDFLT
  5
E
102
{ACAD_REACTORS
330
C
102
}
100
AcDbDictionary
281
1
  3
Normal
350
F
100
AcDbDictionaryWithDefault
340
F
  0
DICTIONARY
  5
17
102
{ACAD_REACTORS
330
C
102
}
100
AcDbDictionary
280
0
281
1
  3
Standard
350
18
  0
DICTIONARY
  5
19
102
{ACAD_REACTORS
330
C
102
}
100
AcDbDictionary
281
1
  0
DICTIONARY
  5
1A
102
{ACAD_REACTORS
330
C
102
}
100
AcDbDictionary
281
1
  3
Model
350
46E
  3
Layout1
350
46F
  0
ACDBPLACEHOLDER
  5
F
102
{ACAD_REACTORS
330
E
102
}
  0
MLINESTYLE
  5
18
102
{ACAD_REACTORS
330
17
102
}
100
AcDbMlineStyle
  2
STANDARD
 70
0
  3

 62
256
 51
90.0
 52
90.0
 71
2
 49
0.5
 62
256
  6
BYLAYER
 49
-0.5
 62
256
  6
BYLAYER
  0
LAYOUT
  5
46E
102
{ACAD_REACTORS
330
1A
102
}
100
AcDbPlotSettings
  1

  2
none_device
  4
ISO_A4_(297.00_x_210.00_MM)
  6

 40
0.0
 41
0.0
 42
0.0
 43
0.0
 44
297.0
 45
210.0
 46
0.0
 47
0.0
 48
0.0
 49
0.0
140
0.0
141
0.0
142
1.0
143
1.0
 70
1024
 72
1
 73
0
 74
0
  7

 75
0
147
1.0
148
0.0
149
0.0
100
AcDbLayout
  1
Model
 70
0
 71
0
 10
0.0
 20
0.0
 11
297.0
 21
210.0
 12
0.0
 22
0.0
 32
0.0
 14
0.0
 24
0.0
 34
0.0
 15
0.0
 25
0.0
 35
0.0
146
0.0
 13
0.0
 23
0.0
 33
0.0
 16
1.0
 26
0.0
 36
0.0
 17
0.0
 27
1.0
 37
0.0
 76
0
330
20E
345
0
346
0
  0
LAYOUT
  5
46F
102
{ACAD_REACTORS
330
1A
102
}
100
AcDbPlotSettings
  1

  2
none_device
  4
ISO_A4_(297.00_x_210.00_MM)
  6

 40
0.0
 41
0.0
 42
0.0
 43
0.0
 44
297.0
 45
210.0
 46
0.0
 47
0.0
 48
0.0
 49
0.0
140
0.0
141
0.0
142
1.0
143
1.0
 70
0
 72
1
 73
0
 74
0
  7

 75
0
147
1.0
148
0.0
149
0.0
100
AcDbLayout
  1
Layout1
 70
0
 71
1
 10
0.0
 20
0.0
 11
297.0
 21
210.0
 12
0.0
 22
0.0
 32
0.0
 14
0.0
 24
0.0
 34
0.0
 15
0.0
 25
0.0
 35
0.0
146
0.0
 13
0.0
 23
0.0
 33
0.0
 16
1.0
 26
0.0
 36
0.0
 17
0.0
 27
1.0
 37
0.0
 76
0
330
20F
345
0
346
0
  0
ENDSEC
  0
EOF
