  0
SECTION
  2
HEADER
  9
$ACADVER
  1
AC1024
  9
$DWGCODEPAGE
  3
ANSI_1252
  9
$EXTMAX
 10
297.0
 20
210.0
 30
0.0
  9
$EXTMIN
 10
0.0
 20
0.0
 30
0.0
  9
$LIMMIN
 10
0.0
 20
0.0
  9
$LIMMAX
 10
297.0
 20
210.0
  9
$VIEWCTR
 10
148.5
 20
105.0
  9
$VIEWSIZE
 40
210.0
  9
$CLAYER
  8
0
  9
$LTSCALE
 40
16.335
  9
$CELTYPE
  6
BYLAYER
  9
$DIMSCALE
 40
1.0
  9
$DIMASZ
 40
3.0
  9
$DIMEXO
 40
0.5
  9
$DIMDLI
 40
11.286
  9
$DIMEXE
 40
1.5
  9
$DIMCEN
 40
2.673
  9
$DIMLFAC
 40
1.0
  9
$DIMBLK
  1
_FILLED
  9
$DIMALT
 70
0
  9
$DIMALTF
 40
0.0393700787
  9
$DIMTXT
 40
3.0
  9
$DIMTOL
 70
1
  9
$DIMLIM
 70
0
  9
$DIMTFAC
 40
1.0
  9
$DIMTP
 40
0.01
  9
$DIMTM
 40
0.01
  9
$DIMGAP
 40
0.625
  9
$DIMDSEP
 70
44
  9
$AUNITS
 70
0
  9
$PDMODE
 70
3
  9
$PDSIZE
 40
3.0
  9
$HANDSEED
  5
324
  9
$TILEMODE
 70
1
  9
$MEASUREMENT
 70
1
  9
$INSUNITS
 70
4
  0
ENDSEC
  0
SECTION
  2
CLASSES
  0
CLASS
  1
ACDBDICTIONARYWDFLT
  2
AcDbDictionaryWithDefault
  3
AutoCAD 2000
 90
0
 91
1
280
0
281
0
  0
CLASS
  1
ACDBPLACEHOLDER
  2
AcDbPlaceHolder
  3
AutoCAD 2000
 90
0
 91
1
280
0
281
0
  0
CLASS
  1
LAYOUT
  2
AcDbLayout
  3
AutoCAD 2000
 90
0
 91
0
280
0
281
0
  0
ENDSEC
  0
SECTION
  2
TABLES
  0
TABLE
  2
VPORT
  5
8
100
AcDbSymbolTable
 70
2
  0
VPORT
  5
1F4
100
AcDbSymbolTableRecord
100
AcDbViewportTableRecord
  2
*ACTIVE
 70
0
 10
0.0
 20
0.0
 11
1.0
 21
1.0
 12
148.5
 22
105.0
 13
0.0
 23
0.0
 14
1.0
 24
1.0
 15
0.0
 25
0.0
 16
0.0
 26
0.0
 36
1.0
 17
0.0
 27
0.0
 37
0.0
 40
210.0
 41
1.4142857143
 42
50.0
 43
0.0
 44
0.0
 50
0.0
 51
0.0
 71
0
 72
100
 73
1
 74
1
 75
0
 76
0
 77
0
 78
0
  0
ENDTAB
  0
TABLE
  2
LTYPE
  5
5
100
AcDbSymbolTable
 70
6
  0
LTYPE
  5
14
100
AcDbSymbolTableRecord
100
AcDbLinetypeTableRecord
  2
BYBLOCK
 70
0
  3

 72
65
 73
0
 40
0.0
  0
LTYPE
  5
15
100
AcDbSymbolTableRecord
100
AcDbLinetypeTableRecord
  2
BYLAYER
 70
0
  3

 72
65
 73
0
 40
0.0
  0
LTYPE
  5
16
100
AcDbSymbolTableRecord
100
AcDbLinetypeTableRecord
  2
CONTINUOUS
 70
64
  3
Solid line
 72
65
 73
0
 40
0.0
  0
LTYPE
  5
1F5
100
AcDbSymbolTableRecord
100
AcDbLinetypeTableRecord
  2
CENTER
 70
64
  3
____ _ ____ _ ____ _ ____ _ ____ _ ____ _ ____
 72
65
 73
4
 40
0.6
 49
0.375
 74
0
 49
-0.075
 74
0
 49
0.075
 74
0
 49
-0.075
 74
0
  0
LTYPE
  5
1F6
100
AcDbSymbolTableRecord
100
AcDbLinetypeTableRecord
  2
HIDDEN
 70
64
  3
- - - - - - - - - - - - - - - - - - - -
 72
65
 73
2
 40
0.2
 49
0.1
 74
0
 49
-0.1
 74
0
  0
LTYPE
  5
1F7
100
AcDbSymbolTableRecord
100
AcDbLinetypeTableRecord
  2
PHANTOM
 70
64
  3
_____ _ _ _____ _ _ _____ _ _ _____
 72
65
 73
6
 40
0.8
 49
0.45
 74
0
 49
-0.05
 74
0
 49
0.1
 74
0
 49
-0.05
 74
0
 49
0.1
 74
0
 49
-0.05
 74
0
  0
LTYPE
  5
1F8
100
AcDbSymbolTableRecord
100
AcDbLinetypeTableRecord
  2
DOT
 70
64
  3
. . . . . . . . . . . . . . . . . . . .
 72
65
 73
2
 40
0.2
 49
0.1
 74
0
 49
-0.1
 74
0
  0
LTYPE
  5
1F9
100
AcDbSymbolTableRecord
100
AcDbLinetypeTableRecord
  2
DASHED
 70
64
  3
- - - - - - - - - - - - - - - - - - - -
 72
65
 73
2
 40
0.2
 49
0.1
 74
0
 49
-0.1
 74
0
  0
ENDTAB
  0
TABLE
  2
LAYER
  5
2
100
AcDbSymbolTable
 70
36
  0
LAYER
  5
10
100
AcDbSymbolTableRecord
100
AcDbLayerTableRecord
  2
0
 70
0
 62
7
  6
CONTINUOUS
370
-3
390
F
  0
LAYER
  5
1FA
100
AcDbSymbolTableRecord
100
AcDbLayerTableRecord
  2
DEFAULT_1
 70
0
 62
7
  6
CENTER
370
-3
390
F
  0
LAYER
  5
1FB
100
AcDbSymbolTableRecord
100
AcDbLayerTableRecord
  2
DEFAULT_2
 70
0
 62
7
  6
HIDDEN
370
-3
390
F
  0
LAYER
  5
1FC
100
AcDbSymbolTableRecord
100
AcDbLayerTableRecord
  2
DEFAULT_3
 70
0
 62
7
  6
PHANTOM
370
-3
390
F
  0
LAYER
  5
1FD
100
AcDbSymbolTableRecord
100
AcDbLayerTableRecord
  2
ASSI
 70
0
 62
7
  6
CONTINUOUS
370
-3
390
F
  0
LAYER
  5
1FE
100
AcDbSymbolTableRecord
100
AcDbLayerTableRecord
  2
COLOR28
 70
0
 62
7
  6
CONTINUOUS
370
-3
390
F
  0
LAYER
  5
1FF
100
AcDbSymbolTableRecord
100
AcDbLayerTableRecord
  2
COLOR43
 70
0
 62
7
  6
CONTINUOUS
370
-3
390
F
  0
LAYER
  5
200
100
AcDbSymbolTableRecord
100
AcDbLayerTableRecord
  2
COLOR63
 70
0
 62
7
  6
CONTINUOUS
370
-3
390
F
  0
LAYER
  5
201
100
AcDbSymbolTableRecord
100
AcDbLayerTableRecord
  2
COLOR64
 70
0
 62
7
  6
CONTINUOUS
370
-3
390
F
  0
LAYER
  5
202
100
AcDbSymbolTableRecord
100
AcDbLayerTableRecord
  2
COLOR65
 70
0
 62
7
  6
CONTINUOUS
370
-3
390
F
  0
LAYER
  5
203
100
AcDbSymbolTableRecord
100
AcDbLayerTableRecord
  2
COLOR66
 70
0
 62
7
  6
CONTINUOUS
370
-3
390
F
  0
LAYER
  5
204
100
AcDbSymbolTableRecord
100
AcDbLayerTableRecord
  2
COORDINATE
 70
0
 62
7
  6
CONTINUOUS
370
-3
390
F
  0
LAYER
  5
205
100
AcDbSymbolTableRecord
100
AcDbLayerTableRecord
  2
COPY_PUBLISH
 70
0
 62
7
  6
CONTINUOUS
370
-3
390
F
  0
LAYER
  5
206
100
AcDbSymbolTableRecord
100
AcDbLayerTableRecord
  2
COSMETICI
 70
0
 62
7
  6
CONTINUOUS
370
-3
390
F
  0
LAYER
  5
207
100
AcDbSymbolTableRecord
100
AcDbLayerTableRecord
  2
CURVE
 70
0
 62
7
  6
CONTINUOUS
370
-3
390
F
  0
LAYER
  5
208
100
AcDbSymbolTableRecord
100
AcDbLayerTableRecord
  2
D2F-01L_1_ASM_1
 70
0
 62
7
  6
CONTINUOUS
370
-3
390
F
  0
LAYER
  5
209
100
AcDbSymbolTableRecord
100
AcDbLayerTableRecord
  2
D2F-01L_1_ASM_1_1
 70
0
 62
7
  6
CONTINUOUS
370
-3
390
F
  0
LAYER
  5
20A
100
AcDbSymbolTableRecord
100
AcDbLayerTableRecord
  2
D2F-01L_ASM_1
 70
0
 62
7
  6
CONTINUOUS
370
-3
390
F
  0
LAYER
  5
20B
100
AcDbSymbolTableRecord
100
AcDbLayerTableRecord
  2
D2F-01L_ASM_1_1
 70
0
 62
7
  6
CONTINUOUS
370
-3
390
F
  0
LAYER
  5
20C
100
AcDbSymbolTableRecord
100
AcDbLayerTableRecord
  2
DEFAULT-10447_1_1_1_1_1
 70
0
 62
7
  6
CONTINUOUS
370
-3
390
F
  0
LAYER
  5
20D
100
AcDbSymbolTableRecord
100
AcDbLayerTableRecord
  2
DEFAULT-10451_1_ASM_1_1_ASM_1_1
 70
0
 62
7
  6
CONTINUOUS
370
-3
390
F
  0
LAYER
  5
20E
100
AcDbSymbolTableRecord
100
AcDbLayerTableRecord
  2
DRAFT
 70
0
 62
7
  6
CONTINUOUS
370
-3
390
F
  0
LAYER
  5
20F
100
AcDbSymbolTableRecord
100
AcDbLayerTableRecord
  2
IMPORT_IGES
 70
0
 62
7
  6
CONTINUOUS
370
-3
390
F
  0
LAYER
  5
210
100
AcDbSymbolTableRecord
100
AcDbLayerTableRecord
  2
IN319-R1_0_3831_5_1_1_1
 70
0
 62
7
  6
CONTINUOUS
370
-3
390
F
  0
LAYER
  5
211
100
AcDbSymbolTableRecord
100
AcDbLayerTableRecord
  2
IN319_BASE_32
 70
0
 62
7
  6
CONTINUOUS
370
-3
390
F
  0
LAYER
  5
212
100
AcDbSymbolTableRecord
100
AcDbLayerTableRecord
  2
IN319_PCB_6
 70
0
 62
7
  6
CONTINUOUS
370
-3
390
F
  0
LAYER
  5
213
100
AcDbSymbolTableRecord
100
AcDbLayerTableRecord
  2
INTFCLR_188
 70
0
 62
7
  6
CONTINUOUS
370
-3
390
F
  0
LAYER
  5
214
100
AcDbSymbolTableRecord
100
AcDbLayerTableRecord
  2
INTFCLR_188_1
 70
0
 62
7
  6
CONTINUOUS
370
-3
390
F
  0
LAYER
  5
215
100
AcDbSymbolTableRecord
100
AcDbLayerTableRecord
  2
INTFCLR_188_1_1
 70
0
 62
7
  6
CONTINUOUS
370
-3
390
F
  0
LAYER
  5
216
100
AcDbSymbolTableRecord
100
AcDbLayerTableRecord
  2
INTFCLR_188_1_2
 70
0
 62
7
  6
CONTINUOUS
370
-3
390
F
  0
LAYER
  5
217
100
AcDbSymbolTableRecord
100
AcDbLayerTableRecord
  2
INTFCLR_188_2
 70
0
 62
7
  6
CONTINUOUS
370
-3
390
F
  0
LAYER
  5
218
100
AcDbSymbolTableRecord
100
AcDbLayerTableRecord
  2
INTFCLR_188_2_1
 70
0
 62
7
  6
CONTINUOUS
370
-3
390
F
  0
LAYER
  5
219
100
AcDbSymbolTableRecord
100
AcDbLayerTableRecord
  2
INTFCLR_188_3
 70
0
 62
7
  6
CONTINUOUS
370
-3
390
F
  0
LAYER
  5
21A
100
AcDbSymbolTableRecord
100
AcDbLayerTableRecord
  2
INTFCLR_188_3_1
 70
0
 62
7
  6
CONTINUOUS
370
-3
390
F
  0
LAYER
  5
21B
100
AcDbSymbolTableRecord
100
AcDbLayerTableRecord
  2
INTFCLR_188_4
 70
0
 62
7
  6
CONTINUOUS
370
-3
390
F
  0
LAYER
  5
21C
100
AcDbSymbolTableRecord
100
AcDbLayerTableRecord
  2
INTFCLR_188_4_1
 70
0
 62
7
  6
CONTINUOUS
370
-3
390
F
  0
LAYER
  5
21D
100
AcDbSymbolTableRecord
100
AcDbLayerTableRecord
  2
INTFCLR_188_5
 70
0
 62
7
  6
CONTINUOUS
370
-3
390
F
  0
LAYER
  5
21E
100
AcDbSymbolTableRecord
100
AcDbLayerTableRecord
  2
INTFCLR_188_5_1
 70
0
 62
7
  6
CONTINUOUS
370
-3
390
F
  0
LAYER
  5
21F
100
AcDbSymbolTableRecord
100
AcDbLayerTableRecord
  2
INTFCLR_188_6
 70
0
 62
7
  6
CONTINUOUS
370
-3
390
F
  0
LAYER
  5
220
100
AcDbSymbolTableRecord
100
AcDbLayerTableRecord
  2
INTFCLR_188_6_1
 70
0
 62
7
  6
CONTINUOUS
370
-3
390
F
  0
LAYER
  5
221
100
AcDbSymbolTableRecord
100
AcDbLayerTableRecord
  2
INTF_GREEN
 70
0
 62
7
  6
CONTINUOUS
370
-3
390
F
  0
LAYER
  5
222
100
AcDbSymbolTableRecord
100
AcDbLayerTableRecord
  2
INTF_YELLOW
 70
0
 62
7
  6
CONTINUOUS
370
-3
390
F
  0
LAYER
  5
223
100
AcDbSymbolTableRecord
100
AcDbLayerTableRecord
  2
KSC421J70SHLFS_1_ASM_1
 70
0
 62
7
  6
CONTINUOUS
370
-3
390
F
  0
LAYER
  5
224
100
AcDbSymbolTableRecord
100
AcDbLayerTableRecord
  2
KSC421J70SHLFS_1_ASM_1_1
 70
0
 62
7
  6
CONTINUOUS
370
-3
390
F
  0
LAYER
  5
225
100
AcDbSymbolTableRecord
100
AcDbLayerTableRecord
  2
KSC421J70SHLFS_1_ASM_1_2
 70
0
 62
7
  6
CONTINUOUS
370
-3
390
F
  0
LAYER
  5
226
100
AcDbSymbolTableRecord
100
AcDbLayerTableRecord
  2
KSC421J70SHLFS_ASM_1_1_ASM_1_1
 70
0
 62
7
  6
CONTINUOUS
370
-3
390
F
  0
LAYER
  5
227
100
AcDbSymbolTableRecord
100
AcDbLayerTableRecord
  2
LAYER_104
 70
0
 62
7
  6
CONTINUOUS
370
-3
390
F
  0
LAYER
  5
228
100
AcDbSymbolTableRecord
100
AcDbLayerTableRecord
  2
LAYER_104_1
 70
0
 62
7
  6
CONTINUOUS
370
-3
390
F
  0
LAYER
  5
229
100
AcDbSymbolTableRecord
100
AcDbLayerTableRecord
  2
LED_SIGN_2
 70
0
 62
7
  6
CONTINUOUS
370
-3
390
F
  0
LAYER
  5
22A
100
AcDbSymbolTableRecord
100
AcDbLayerTableRecord
  2
LED_SIGN_2_1
 70
0
 62
7
  6
CONTINUOUS
370
-3
390
F
  0
LAYER
  5
22B
100
AcDbSymbolTableRecord
100
AcDbLayerTableRecord
  2
LED_SIGN_2_2
 70
0
 62
7
  6
CONTINUOUS
370
-3
390
F
  0
LAYER
  5
22C
100
AcDbSymbolTableRecord
100
AcDbLayerTableRecord
  2
LED_SIGN_2_3
 70
0
 62
7
  6
CONTINUOUS
370
-3
390
F
  0
LAYER
  5
22D
100
AcDbSymbolTableRecord
100
AcDbLayerTableRecord
  2
LED_SIGN_2_4
 70
0
 62
7
  6
CONTINUOUS
370
-3
390
F
  0
LAYER
  5
22E
100
AcDbSymbolTableRecord
100
AcDbLayerTableRecord
  2
LED_SIGN_2_5
 70
0
 62
7
  6
CONTINUOUS
370
-3
390
F
  0
LAYER
  5
22F
100
AcDbSymbolTableRecord
100
AcDbLayerTableRecord
  2
METALLIC_SHIELD-IN319_1_1_1_1
 70
0
 62
7
  6
CONTINUOUS
370
-3
390
F
  0
LAYER
  5
230
100
AcDbSymbolTableRecord
100
AcDbLayerTableRecord
  2
MP_COTBVSM02D0810G10_1_1_1_1
 70
0
 62
7
  6
CONTINUOUS
370
-3
390
F
  0
LAYER
  5
231
100
AcDbSymbolTableRecord
100
AcDbLayerTableRecord
  2
MP_COTBVSM02D0810G10_1_1_1_1_1
 70
0
 62
7
  6
CONTINUOUS
370
-3
390
F
  0
LAYER
  5
232
100
AcDbSymbolTableRecord
100
AcDbLayerTableRecord
  2
MP_SWPUSH06060500100_ASM_1_1__1
 70
0
 62
7
  6
CONTINUOUS
370
-3
390
F
  0
LAYER
  5
233
100
AcDbSymbolTableRecord
100
AcDbLayerTableRecord
  2
NONE
 70
0
 62
7
  6
CONTINUOUS
370
-3
390
F
  0
LAYER
  5
234
100
AcDbSymbolTableRecord
100
AcDbLayerTableRecord
  2
NONE-1712_1_1_1_1_1
 70
0
 62
7
  6
CONTINUOUS
370
-3
390
F
  0
LAYER
  5
235
100
AcDbSymbolTableRecord
100
AcDbLayerTableRecord
  2
NONE-1712_1_1_1_1_1_1
 70
0
 62
7
  6
CONTINUOUS
370
-3
390
F
  0
LAYER
  5
236
100
AcDbSymbolTableRecord
100
AcDbLayerTableRecord
  2
NONE-1793_1_1_1_1_1
 70
0
 62
7
  6
CONTINUOUS
370
-3
390
F
  0
LAYER
  5
237
100
AcDbSymbolTableRecord
100
AcDbLayerTableRecord
  2
NONE-1793_1_1_1_1_1_1
 70
0
 62
7
  6
CONTINUOUS
370
-3
390
F
  0
LAYER
  5
238
100
AcDbSymbolTableRecord
100
AcDbLayerTableRecord
  2
NONE-1858_1_1_1_1_1
 70
0
 62
7
  6
CONTINUOUS
370
-3
390
F
  0
LAYER
  5
239
100
AcDbSymbolTableRecord
100
AcDbLayerTableRecord
  2
NONE-1858_1_1_1_1_1_1
 70
0
 62
7
  6
CONTINUOUS
370
-3
390
F
  0
LAYER
  5
23A
100
AcDbSymbolTableRecord
100
AcDbLayerTableRecord
  2
NONE-2252_1_1_1_1_1
 70
0
 62
7
  6
CONTINUOUS
370
-3
390
F
  0
LAYER
  5
23B
100
AcDbSymbolTableRecord
100
AcDbLayerTableRecord
  2
NONE-2252_1_1_1_1_1_1
 70
0
 62
7
  6
CONTINUOUS
370
-3
390
F
  0
LAYER
  5
23C
100
AcDbSymbolTableRecord
100
AcDbLayerTableRecord
  2
NONE-2272_1_1_1_1_1
 70
0
 62
7
  6
CONTINUOUS
370
-3
390
F
  0
LAYER
  5
23D
100
AcDbSymbolTableRecord
100
AcDbLayerTableRecord
  2
NONE-2272_1_1_1_1_1_1
 70
0
 62
7
  6
CONTINUOUS
370
-3
390
F
  0
LAYER
  5
23E
100
AcDbSymbolTableRecord
100
AcDbLayerTableRecord
  2
NONE_1
 70
0
 62
7
  6
CONTINUOUS
370
-3
390
F
  0
LAYER
  5
23F
100
AcDbSymbolTableRecord
100
AcDbLayerTableRecord
  2
NONE_1_1
 70
0
 62
7
  6
CONTINUOUS
370
-3
390
F
  0
LAYER
  5
240
100
AcDbSymbolTableRecord
100
AcDbLayerTableRecord
  2
NONE_1_2
 70
0
 62
7
  6
CONTINUOUS
370
-3
390
F
  0
LAYER
  5
241
100
AcDbSymbolTableRecord
100
AcDbLayerTableRecord
  2
NONE_2
 70
0
 62
7
  6
CONTINUOUS
370
-3
390
F
  0
LAYER
  5
242
100
AcDbSymbolTableRecord
100
AcDbLayerTableRecord
  2
NONE_2_1
 70
0
 62
7
  6
CONTINUOUS
370
-3
390
F
  0
LAYER
  5
243
100
AcDbSymbolTableRecord
100
AcDbLayerTableRecord
  2
NONE_3
 70
0
 62
7
  6
CONTINUOUS
370
-3
390
F
  0
LAYER
  5
244
100
AcDbSymbolTableRecord
100
AcDbLayerTableRecord
  2
NONE_3_1
 70
0
 62
7
  6
CONTINUOUS
370
-3
390
F
  0
LAYER
  5
245
100
AcDbSymbolTableRecord
100
AcDbLayerTableRecord
  2
NONE_4
 70
0
 62
7
  6
CONTINUOUS
370
-3
390
F
  0
LAYER
  5
246
100
AcDbSymbolTableRecord
100
AcDbLayerTableRecord
  2
NONE_4_1
 70
0
 62
7
  6
CONTINUOUS
370
-3
390
F
  0
LAYER
  5
247
100
AcDbSymbolTableRecord
100
AcDbLayerTableRecord
  2
NONE_5
 70
0
 62
7
  6
CONTINUOUS
370
-3
390
F
  0
LAYER
  5
248
100
AcDbSymbolTableRecord
100
AcDbLayerTableRecord
  2
NONE_5_1
 70
0
 62
7
  6
CONTINUOUS
370
-3
390
F
  0
LAYER
  5
249
100
AcDbSymbolTableRecord
100
AcDbLayerTableRecord
  2
NONE_6
 70
0
 62
7
  6
CONTINUOUS
370
-3
390
F
  0
LAYER
  5
24A
100
AcDbSymbolTableRecord
100
AcDbLayerTableRecord
  2
NONE_6_1
 70
0
 62
7
  6
CONTINUOUS
370
-3
390
F
  0
LAYER
  5
24B
100
AcDbSymbolTableRecord
100
AcDbLayerTableRecord
  2
NOTE
 70
0
 62
7
  6
CONTINUOUS
370
-3
390
F
  0
LAYER
  5
24C
100
AcDbSymbolTableRecord
100
AcDbLayerTableRecord
  2
PIANI
 70
0
 62
7
  6
CONTINUOUS
370
-3
390
F
  0
LAYER
  5
24D
100
AcDbSymbolTableRecord
100
AcDbLayerTableRecord
  2
PUNTI
 70
0
 62
7
  6
CONTINUOUS
370
-3
390
F
  0
LAYER
  5
24E
100
AcDbSymbolTableRecord
100
AcDbLayerTableRecord
  2
RACCORDO
 70
0
 62
7
  6
CONTINUOUS
370
-3
390
F
  0
LAYER
  5
24F
100
AcDbSymbolTableRecord
100
AcDbLayerTableRecord
  2
SCREW_2_2X4_5_2
 70
0
 62
7
  6
CONTINUOUS
370
-3
390
F
  0
LAYER
  5
250
100
AcDbSymbolTableRecord
100
AcDbLayerTableRecord
  2
SCREW_2_2X4_5_2_1
 70
0
 62
7
  6
CONTINUOUS
370
-3
390
F
  0
LAYER
  5
251
100
AcDbSymbolTableRecord
100
AcDbLayerTableRecord
  2
SCREW_2_2X4_5_2_2
 70
0
 62
7
  6
CONTINUOUS
370
-3
390
F
  0
LAYER
  5
252
100
AcDbSymbolTableRecord
100
AcDbLayerTableRecord
  2
SIMBOLI
 70
0
 62
7
  6
CONTINUOUS
370
-3
390
F
  0
LAYER
  5
253
100
AcDbSymbolTableRecord
100
AcDbLayerTableRecord
  2
SMUSSO
 70
0
 62
7
  6
CONTINUOUS
370
-3
390
F
  0
LAYER
  5
254
100
AcDbSymbolTableRecord
100
AcDbLayerTableRecord
  2
SUPERFICI
 70
0
 62
7
  6
CONTINUOUS
370
-3
390
F
  0
LAYER
  5
255
100
AcDbSymbolTableRecord
100
AcDbLayerTableRecord
  2
SW3DPS-LED_SMD0805_1_ASM_1_1__1
 70
0
 62
7
  6
CONTINUOUS
370
-3
390
F
  0
LAYER
  5
256
100
AcDbSymbolTableRecord
100
AcDbLayerTableRecord
  2
SW3DPS-LED_SMD0805_1_ASM_1_1__2
 70
0
 62
7
  6
CONTINUOUS
370
-3
390
F
  0
LAYER
  5
257
100
AcDbSymbolTableRecord
100
AcDbLayerTableRecord
  2
TRASH
 70
0
 62
7
  6
CONTINUOUS
370
-3
390
F
  0
LAYER
  5
258
100
AcDbSymbolTableRecord
100
AcDbLayerTableRecord
  2
_111
 70
0
 62
7
  6
CONTINUOUS
370
-3
390
F
  0
LAYER
  5
259
100
AcDbSymbolTableRecord
100
AcDbLayerTableRecord
  2
_111_1
 70
0
 62
7
  6
CONTINUOUS
370
-3
390
F
  0
LAYER
  5
25A
100
AcDbSymbolTableRecord
100
AcDbLayerTableRecord
  2
_1323
 70
0
 62
7
  6
CONTINUOUS
370
-3
390
F
  0
LAYER
  5
25B
100
AcDbSymbolTableRecord
100
AcDbLayerTableRecord
  2
_1323_1
 70
0
 62
7
  6
CONTINUOUS
370
-3
390
F
  0
LAYER
  5
25C
100
AcDbSymbolTableRecord
100
AcDbLayerTableRecord
  2
_2262
 70
0
 62
7
  6
CONTINUOUS
370
-3
390
F
  0
LAYER
  5
25D
100
AcDbSymbolTableRecord
100
AcDbLayerTableRecord
  2
_2262_1
 70
0
 62
7
  6
CONTINUOUS
370
-3
390
F
  0
LAYER
  5
25E
100
AcDbSymbolTableRecord
100
AcDbLayerTableRecord
  2
_2635
 70
0
 62
7
  6
CONTINUOUS
370
-3
390
F
  0
LAYER
  5
25F
100
AcDbSymbolTableRecord
100
AcDbLayerTableRecord
  2
_2635_1
 70
0
 62
7
  6
CONTINUOUS
370
-3
390
F
  0
LAYER
  5
260
100
AcDbSymbolTableRecord
100
AcDbLayerTableRecord
  2
_2983_1
 70
0
 62
7
  6
CONTINUOUS
370
-3
390
F
  0
LAYER
  5
261
100
AcDbSymbolTableRecord
100
AcDbLayerTableRecord
  2
_2983_1_1
 70
0
 62
7
  6
CONTINUOUS
370
-3
390
F
  0
LAYER
  5
262
100
AcDbSymbolTableRecord
100
AcDbLayerTableRecord
  2
_950_1
 70
0
 62
7
  6
CONTINUOUS
370
-3
390
F
  0
LAYER
  5
263
100
AcDbSymbolTableRecord
100
AcDbLayerTableRecord
  2
_950_1_1
 70
0
 62
7
  6
CONTINUOUS
370
-3
390
F
  0
LAYER
  5
264
100
AcDbSymbolTableRecord
100
AcDbLayerTableRecord
  2
_KSC41J_PIN_1
 70
0
 62
7
  6
CONTINUOUS
370
-3
390
F
  0
LAYER
  5
265
100
AcDbSymbolTableRecord
100
AcDbLayerTableRecord
  2
_KSC41J_PIN_1_1
 70
0
 62
7
  6
CONTINUOUS
370
-3
390
F
  0
LAYER
  5
266
100
AcDbSymbolTableRecord
100
AcDbLayerTableRecord
  2
_KSC41J_PIN_1_10
 70
0
 62
7
  6
CONTINUOUS
370
-3
390
F
  0
LAYER
  5
267
100
AcDbSymbolTableRecord
100
AcDbLayerTableRecord
  2
_KSC41J_PIN_1_11
 70
0
 62
7
  6
CONTINUOUS
370
-3
390
F
  0
LAYER
  5
268
100
AcDbSymbolTableRecord
100
AcDbLayerTableRecord
  2
_KSC41J_PIN_1_1_1_1
 70
0
 62
7
  6
CONTINUOUS
370
-3
390
F
  0
LAYER
  5
269
100
AcDbSymbolTableRecord
100
AcDbLayerTableRecord
  2
_KSC41J_PIN_1_1_1_1_1
 70
0
 62
7
  6
CONTINUOUS
370
-3
390
F
  0
LAYER
  5
26A
100
AcDbSymbolTableRecord
100
AcDbLayerTableRecord
  2
_KSC41J_PIN_1_1_1_1_2
 70
0
 62
7
  6
CONTINUOUS
370
-3
390
F
  0
LAYER
  5
26B
100
AcDbSymbolTableRecord
100
AcDbLayerTableRecord
  2
_KSC41J_PIN_1_1_1_1_3
 70
0
 62
7
  6
CONTINUOUS
370
-3
390
F
  0
LAYER
  5
26C
100
AcDbSymbolTableRecord
100
AcDbLayerTableRecord
  2
_KSC41J_PIN_1_2
 70
0
 62
7
  6
CONTINUOUS
370
-3
390
F
  0
LAYER
  5
26D
100
AcDbSymbolTableRecord
100
AcDbLayerTableRecord
  2
_KSC41J_PIN_1_3
 70
0
 62
7
  6
CONTINUOUS
370
-3
390
F
  0
LAYER
  5
26E
100
AcDbSymbolTableRecord
100
AcDbLayerTableRecord
  2
_KSC41J_PIN_1_4
 70
0
 62
7
  6
CONTINUOUS
370
-3
390
F
  0
LAYER
  5
26F
100
AcDbSymbolTableRecord
100
AcDbLayerTableRecord
  2
_KSC41J_PIN_1_5
 70
0
 62
7
  6
CONTINUOUS
370
-3
390
F
  0
LAYER
  5
270
100
AcDbSymbolTableRecord
100
AcDbLayerTableRecord
  2
_KSC41J_PIN_1_6
 70
0
 62
7
  6
CONTINUOUS
370
-3
390
F
  0
LAYER
  5
271
100
AcDbSymbolTableRecord
100
AcDbLayerTableRecord
  2
_KSC41J_PIN_1_7
 70
0
 62
7
  6
CONTINUOUS
370
-3
390
F
  0
LAYER
  5
272
100
AcDbSymbolTableRecord
100
AcDbLayerTableRecord
  2
_KSC41J_PIN_1_8
 70
0
 62
7
  6
CONTINUOUS
370
-3
390
F
  0
LAYER
  5
273
100
AcDbSymbolTableRecord
100
AcDbLayerTableRecord
  2
_KSC41J_PIN_1_9
 70
0
 62
7
  6
CONTINUOUS
370
-3
390
F
  0
LAYER
  5
274
100
AcDbSymbolTableRecord
100
AcDbLayerTableRecord
  2
_KSC4_-_BODY_1
 70
0
 62
7
  6
CONTINUOUS
370
-3
390
F
  0
LAYER
  5
275
100
AcDbSymbolTableRecord
100
AcDbLayerTableRecord
  2
_KSC4_-_BODY_1_1
 70
0
 62
7
  6
CONTINUOUS
370
-3
390
F
  0
LAYER
  5
276
100
AcDbSymbolTableRecord
100
AcDbLayerTableRecord
  2
_KSC4_-_BODY_1_1_1_1
 70
0
 62
7
  6
CONTINUOUS
370
-3
390
F
  0
LAYER
  5
277
100
AcDbSymbolTableRecord
100
AcDbLayerTableRecord
  2
_KSC4_-_BODY_1_2
 70
0
 62
7
  6
CONTINUOUS
370
-3
390
F
  0
LAYER
  5
278
100
AcDbSymbolTableRecord
100
AcDbLayerTableRecord
  2
_KSC4_-_COVER_1
 70
0
 62
7
  6
CONTINUOUS
370
-3
390
F
  0
LAYER
  5
279
100
AcDbSymbolTableRecord
100
AcDbLayerTableRecord
  2
_KSC4_-_COVER_1_1
 70
0
 62
7
  6
CONTINUOUS
370
-3
390
F
  0
LAYER
  5
27A
100
AcDbSymbolTableRecord
100
AcDbLayerTableRecord
  2
_KSC4_-_COVER_1_1_1_1
 70
0
 62
7
  6
CONTINUOUS
370
-3
390
F
  0
LAYER
  5
27B
100
AcDbSymbolTableRecord
100
AcDbLayerTableRecord
  2
_KSC4_-_COVER_1_2
 70
0
 62
7
  6
CONTINUOUS
370
-3
390
F
  0
LAYER
  5
27C
100
AcDbSymbolTableRecord
100
AcDbLayerTableRecord
  2
_KSC4__-_BUTTON_1
 70
0
 62
7
  6
CONTINUOUS
370
-3
390
F
  0
LAYER
  5
27D
100
AcDbSymbolTableRecord
100
AcDbLayerTableRecord
  2
_KSC4__-_BUTTON_1_1
 70
0
 62
7
  6
CONTINUOUS
370
-3
390
F
  0
LAYER
  5
27E
100
AcDbSymbolTableRecord
100
AcDbLayerTableRecord
  2
_KSC4__-_BUTTON_1_1_1_1
 70
0
 62
7
  6
CONTINUOUS
370
-3
390
F
  0
LAYER
  5
27F
100
AcDbSymbolTableRecord
100
AcDbLayerTableRecord
  2
_KSC4__-_BUTTON_1_2
 70
0
 62
7
  6
CONTINUOUS
370
-3
390
F
  0
LAYER
  5
280
100
AcDbSymbolTableRecord
100
AcDbLayerTableRecord
  2
___SHELL
 70
0
 62
7
  6
CONTINUOUS
370
-3
390
F
  0
LAYER
  5
281
100
AcDbSymbolTableRecord
100
AcDbLayerTableRecord
  2
white
 70
0
 62
7
  6
CONTINUOUS
370
-3
390
F
  0
ENDTAB
  0
TABLE
  2
STYLE
  5
3
100
AcDbSymbolTable
 70
1
  0
STYLE
  5
11
100
AcDbSymbolTableRecord
100
AcDbTextStyleTableRecord
  2
STANDARD
 70
0
 40
0.0
 41
0.8
 50
0.0
 71
0
 42
0.2
  3
txt
  4

  0
STYLE
  5
282
100
AcDbSymbolTableRecord
100
AcDbTextStyleTableRecord
  2
TEXTSTYLE_1
 70
0
 40
0.0
 41
0.8
 50
0.0
 71
0
 42
0.2
  3
gdt
  4

  0
ENDTAB
  0
TABLE
  2
VIEW
  5
6
100
AcDbSymbolTable
 70
0
  0
ENDTAB
  0
TABLE
  2
UCS
  5
7
100
AcDbSymbolTable
 70
0
  0
ENDTAB
  0
TABLE
  2
APPID
  5
9
100
AcDbSymbolTable
 70
1
  0
APPID
  5
283
100
AcDbSymbolTableRecord
100
AcDbRegAppTableRecord
  2
ACAD
 70
0
  0
ENDTAB
  0
TABLE
  2
BLOCK_RECORD
  5
1
100
AcDbSymbolTable
 70
0
  0
BLOCK_RECORD
  5
284
100
AcDbSymbolTableRecord
100
AcDbBlockTableRecord
  2
*Model_Space
  0
BLOCK_RECORD
  5
285
100
AcDbSymbolTableRecord
100
AcDbBlockTableRecord
  2
*Paper_Space
  0
BLOCK_RECORD
  5
286
100
AcDbSymbolTableRecord
100
AcDbBlockTableRecord
  2
_FILLED
  0
ENDTAB
  0
TABLE
  2
DIMSTYLE
  5
A
100
AcDbSymbolTable
 70
1
100
AcDbDimStyleTable
 71
0
  0
DIMSTYLE
105
287
100
AcDbSymbolTableRecord
100
AcDbDimStyleTableRecord
  2
STANDARD
 70
0
  3

  4

 40
1.0
 41
3.0
 42
0.5
 43
0.38
 44
1.5
 45
0.0
 46
0.0
 47
0.01
 48
0.01
140
3.0
141
0.09
142
0.0
143
25.4
144
1.0
145
0.0
146
1.0
147
0.625
 71
1
 72
0
 73
0
 74
0
 75
0
 76
0
 77
1
 78
8
 79
2
170
0
171
1
172
0
173
0
174
0
175
0
176
0
177
0
178
0
270
2
179
2
271
2
272
2
273
2
274
2
275
0
280
0
281
0
282
0
283
1
284
8
285
0
286
0
287
3
288
0
340
11
278
44
341
286
342
286
343
286
344
286
  0
ENDTAB
  0
ENDSEC
  0
SECTION
  2
BLOCKS
  0
BLOCK
  5
20
100
AcDbEntity
  8
0
100
AcDbBlockBegin
  2
*Model_Space
 70
0
 10
0.0
 20
0.0
 30
0.0
  3
*Model_Space
  1

  0
ENDBLK
  5
21
100
AcDbEntity
  8
0
100
AcDbBlockEnd
  0
BLOCK
  5
1C
100
AcDbEntity
  8
0
100
AcDbBlockBegin
  2
*Paper_Space
 70
0
 10
0.0
 20
0.0
 30
0.0
  3
*Paper_Space
  1

  0
ENDBLK
  5
1D
100
AcDbEntity
  8
0
100
AcDbBlockEnd
  0
BLOCK
  5
288
100
AcDbEntity
  8
0
100
AcDbBlockBegin
  2
_FILLED
 70
64
 10
0.0
 20
0.0
  3
_FILLED
  1

  0
SOLID
  5
289
100
AcDbEntity
  8
0
  6
BYBLOCK
 62
0
100
AcDbTrace
 10
0.0
 20
0.0
 11
-1.0
 21
0.3166666667
 12
-1.0
 22
-0.3166666667
 13
-1.0
 23
-0.3166666667
  0
ENDBLK
  5
28A
100
AcDbEntity
  8
0
  6
BYBLOCK
 62
0
100
AcDbBlockEnd
  0
ENDSEC
  0
SECTION
  2
ENTITIES
  0
LWPOLYLINE
  5
28B
100
AcDbEntity
  8
IMPORT_IGES
100
AcDbPolyline
 62
7
  6
CONTINUOUS
 90
28
 70
0
 10
-51.3198202595
 20
-49.3136890092
 10
-51.3163208823
 20
-49.4308400054
 10
-51.3061674376
 20
-49.5467712129
 10
-51.2893599252
 20
-49.6614826317
 10
-51.2657911321
 20
-49.7753483767
 10
-51.2355682715
 20
-49.8879943331
 10
-51.1990129827
 20
-49.9982981563
 10
-51.1560641072
 20
-50.1062353035
 10
-51.1067828036
 20
-50.2118303177
 10
-51.0516741873
 20
-50.3140344832
 10
-50.9906829851
 20
-50.4128132758
 10
-50.9238644702
 20
-50.5082012198
 10
-50.8518895788
 20
-50.5992531725
 10
-50.774708586
 20
-50.6859274902
 10
-50.6923712166
 20
-50.7682658166
 10
-50.6056975812
 20
-50.8454479404
 10
-50.514646023
 20
-50.9174241466
 10
-50.4192581987
 20
-50.9842441502
 10
-50.3204791883
 20
-51.045236886
 10
-50.2182744527
 20
-51.100347086
 10
-50.112678531
 20
-51.1496300182
 10
-50.0047401208
 20
-51.1925804209
 10
-49.8944353065
 20
-51.22913729
 10
-49.7817880038
 20
-51.2593616295
 10
-49.6679186572
 20
-51.2829311899
 10
-49.5532007484
 20
-51.2997385545
 10
-49.4372607957
 20
-51.30989114
 10
-49.3200987993
 20
-51.3133889462
  0
LWPOLYLINE
  5
28C
100
AcDbEntity
  8
IMPORT_IGES
100
AcDbPolyline
 62
7
  6
CONTINUOUS
 90
28
 70
0
 10
-51.2671504309
 20
-49.2610278331
 10
-51.263743865
 20
-49.3774070923
 10
-51.2535735331
 20
-49.4933682026
 10
-51.2366778982
 20
-49.6085187346
 10
-51.2131187151
 20
-49.7224672255
 10
-51.1829793563
 20
-49.8348310318
 10
-51.1463632282
 20
-49.9452372851
 10
-51.1033969309
 20
-50.053313259
 10
-51.0542283423
 20
-50.1586947343
 10
-50.9990224849
 20
-50.261032923
 10
-50.9379669567
 20
-50.3599831525
 10
-50.8712697072
 20
-50.4552112608
 10
-50.7991538225
 20
-50.5464004624
 10
-50.7218636022
 20
-50.6332427712
 10
-50.6396604729
 20
-50.7154453658
 10
-50.5528177712
 20
-50.792734929
 10
-50.4616283356
 20
-50.8648500559
 10
-50.3664001672
 20
-50.93154647
 10
-50.2674500634
 20
-50.9926011102
 10
-50.1651121957
 20
-51.0478060533
 10
-50.0597312432
 20
-51.0969737287
 10
-49.9516559977
 20
-51.1399391421
 10
-49.8412506786
 20
-51.1765544441
 10
-49.7288880099
 20
-51.2066930638
 10
-49.6149408544
 20
-51.2302516236
 10
-49.499791847
 20
-51.2471467797
 10
-49.3838324382
 20
-51.2573168052
 10
-49.2674550422
 20
-51.2607232644
  0
LINE
  5
28D
100
AcDbEntity
  8
IMPORT_IGES
100
AcDbLine
 62
250
  6
CONTINUOUS
 10
-23.8198202599
 20
-55.7435728278
 11
-22.767303454
 21
-55.7435728284
  0
LINE
  5
28E
100
AcDbEntity
  8
IMPORT_IGES
100
AcDbLine
 62
250
  6
CONTINUOUS
 10
-12.6801797405
 20
-55.7435728279
 11
-13.732696715
 21
-55.7435728286
  0
LINE
  5
28F
100
AcDbEntity
  8
IMPORT_IGES
100
AcDbLine
 62
250
  6
CONTINUOUS
 10
40.1801797401
 20
-55.7435728278
 11
41.232696546
 21
-55.7435728284
  0
LINE
  5
290
100
AcDbEntity
  8
IMPORT_IGES
100
AcDbLine
 62
250
  6
CONTINUOUS
 10
50.2673027367
 20
-55.7435728286
 11
51.3198202595
 21
-55.7435728279
  0
LINE
  5
291
100
AcDbEntity
  8
IMPORT_IGES
100
AcDbLine
 62
7
  6
CONTINUOUS
 10
-51.3198169408
 20
49.3265311502
 11
-51.3198202595
 21
-49.3136890092
  0
LINE
  5
292
100
AcDbEntity
  8
IMPORT_IGES
100
AcDbLine
 62
250
  6
CONTINUOUS
 10
-51.2671504311
 20
49.2738822137
 11
-51.2671504311
 21
-49.2610278321
  0
LINE
  5
293
100
AcDbEntity
  8
IMPORT_IGES
100
AcDbLine
 62
250
  6
CONTINUOUS
 10
-50.2673019836
 20
49.2738774579
 11
-50.2672986542
 21
-49.2610135355
  0
LINE
  5
294
100
AcDbEntity
  8
IMPORT_IGES
100
AcDbLine
 62
250
  6
CONTINUOUS
 10
-49.2674412751
 20
51.2735776055
 11
-49.2674502121
 21
50.2737300448
  0
LINE
  5
295
100
AcDbEntity
  8
IMPORT_IGES
100
AcDbLine
 62
250
  6
CONTINUOUS
 10
-49.2674550422
 20
-51.2607232717
 11
-49.2674502864
 21
-50.2608759061
  0
LINE
  5
296
100
AcDbEntity
  8
IMPORT_IGES
100
AcDbLine
 62
250
  6
CONTINUOUS
 10
-23.76715044
 20
-52.26057096
 11
-22.767303454
 21
-52.260579978
  0
LINE
  5
297
100
AcDbEntity
  8
IMPORT_IGES
100
AcDbLine
 62
250
  6
CONTINUOUS
 10
-12.7328495575
 20
-52.2605709414
 11
-13.732696715
 21
-52.2605778434
  0
LINE
  5
298
100
AcDbEntity
  8
IMPORT_IGES
100
AcDbLine
 62
250
  6
CONTINUOUS
 10
40.23284956
 20
-52.26057096
 11
41.232696546
 21
-52.260579978
  0
LINE
  5
299
100
AcDbEntity
  8
IMPORT_IGES
100
AcDbLine
 62
7
  6
CONTINUOUS
 10
-49.3200987993
 20
-51.3133889462
 11
-24.8196679536
 21
-51.3133930879
  0
LINE
  5
29A
100
AcDbEntity
  8
IMPORT_IGES
100
AcDbLine
 62
7
  6
CONTINUOUS
 10
-11.6803320453
 20
-51.3133930881
 11
39.1803320464
 21
-51.3133930881
  0
LINE
  5
29B
100
AcDbEntity
  8
IMPORT_IGES
100
AcDbLine
 62
250
  6
CONTINUOUS
 10
-49.2674550422
 20
-51.2607232717
 11
-24.766998133
 21
-51.2607232717
  0
LINE
  5
29C
100
AcDbEntity
  8
IMPORT_IGES
100
AcDbLine
 62
250
  6
CONTINUOUS
 10
-11.7330018711
 20
-51.2607232742
 11
39.233001867
 21
-51.2607232742
  0
LINE
  5
29D
100
AcDbEntity
  8
IMPORT_IGES
100
AcDbLine
 62
250
  6
CONTINUOUS
 10
-49.2674502864
 20
-50.2608759061
 11
-24.7670071471
 21
-50.2608769986
  0
LINE
  5
29E
100
AcDbEntity
  8
IMPORT_IGES
100
AcDbLine
 62
250
  6
CONTINUOUS
 10
-11.7329949347
 20
-50.2608768331
 11
39.2329928529
 21
-50.2608769986
  0
LINE
  5
29F
100
AcDbEntity
  8
IMPORT_IGES
100
AcDbLine
 62
250
  6
CONTINUOUS
 10
-51.2671504302
 20
-49.2610141033
 11
-50.2673019836
 21
-49.2610230403
  0
LWPOLYLINE
  5
2A0
100
AcDbEntity
  8
IMPORT_IGES
100
AcDbPolyline
 62
250
  6
CONTINUOUS
 90
28
 70
0
 10
-24.7670071471
 20
-50.2608769986
 10
-24.6504463446
 20
-50.2643073228
 10
-24.5349798643
 20
-50.274379899
 10
-24.4206077062
 20
-50.2910947271
 10
-24.3069423789
 20
-50.3145445244
 10
-24.1943713738
 20
-50.3446365737
 10
-24.084057165
 20
-50.3810927227
 10
-23.9760210923
 20
-50.4239820612
 10
-23.8702418159
 20
-50.4732354995
 10
-23.7678177905
 20
-50.5283676165
 10
-23.6687846488
 20
-50.5894442378
 10
-23.573106758
 20
-50.6563995378
 10
-23.4817756743
 20
-50.728550618
 10
-23.3948384778
 20
-50.805953658
 10
-23.3122480884
 20
-50.8885524782
 10
-23.2348548216
 20
-50.9754956416
 10
-23.1627147555
 20
-51.0668299596
 10
-23.095771812
 20
-51.1625086207
 10
-23.0347080722
 20
-51.2615397536
 10
-22.9795895791
 20
-51.3639589784
 10
-22.9303502898
 20
-51.4697306748
 10
-22.8874741558
 20
-51.5777561106
 10
-22.8510302003
 20
-51.6880564417
 10
-22.8209494001
 20
-51.800610512
 10
-22.7975086372
 20
-51.9142561209
 10
-22.7808002055
 20
-52.0286058681
 10
-22.7707318111
 20
-52.1440471538
 10
-22.767303454
 20
-52.260579978
  0
LWPOLYLINE
  5
2A1
100
AcDbEntity
  8
IMPORT_IGES
100
AcDbPolyline
 62
250
  6
CONTINUOUS
 90
28
 70
0
 10
39.2329928529
 20
-50.2608769986
 10
39.3495536554
 20
-50.2643073228
 10
39.4650201357
 20
-50.274379899
 10
39.5793922938
 20
-50.2910947271
 10
39.6930576211
 20
-50.3145445244
 10
39.8056286262
 20
-50.3446365737
 10
39.915942835
 20
-50.3810927227
 10
40.0239789077
 20
-50.4239820612
 10
40.1297581841
 20
-50.4732354995
 10
40.2321822095
 20
-50.5283676165
 10
40.3312153512
 20
-50.5894442378
 10
40.426893242
 20
-50.6563995378
 10
40.5182243257
 20
-50.728550618
 10
40.6051615222
 20
-50.805953658
 10
40.6877519116
 20
-50.8885524782
 10
40.7651451784
 20
-50.9754956416
 10
40.8372852445
 20
-51.0668299596
 10
40.904228188
 20
-51.1625086207
 10
40.9652919278
 20
-51.2615397536
 10
41.0204104209
 20
-51.3639589784
 10
41.0696497102
 20
-51.4697306748
 10
41.1125258442
 20
-51.5777561106
 10
41.1489697997
 20
-51.6880564417
 10
41.1790505999
 20
-51.800610512
 10
41.2024913628
 20
-51.9142561209
 10
41.2191997945
 20
-52.0286058681
 10
41.2292681889
 20
-52.1440471538
 10
41.232696546
 20
-52.260579978
  0
LWPOLYLINE
  5
2A2
100
AcDbEntity
  8
IMPORT_IGES
100
AcDbPolyline
 62
250
  6
CONTINUOUS
 90
25
 70
0
 10
-24.7669981257
 20
-51.2607232843
 10
-24.7014848513
 20
-51.2628504972
 10
-24.6362768911
 20
-51.269260852
 10
-24.5716534241
 20
-51.2799225253
 10
-24.5078931385
 20
-51.2947847375
 10
-24.4452655863
 20
-51.3137800705
 10
-24.3840305317
 20
-51.3368264621
 10
-24.3244486962
 20
-51.3638229478
 10
-24.2667741263
 20
-51.3946513981
 10
-24.2112467005
 20
-51.4291815759
 10
-24.1581030836
 20
-51.4672647745
 10
-24.1075696313
 20
-51.508737056
 10
-24.0598568178
 20
-51.5534249368
 10
-24.0151685878
 20
-51.6011374866
 10
-23.9736958866
 20
-51.651670774
 10
-23.9356122145
 20
-51.7048143359
 10
-23.9010815272
 20
-51.7603418259
 10
-23.8702525506
 20
-51.8180165861
 10
-23.8432555415
 20
-51.8775987427
 10
-23.82020865
 20
-51.9388342511
 10
-23.8012128617
 20
-52.0014623899
 10
-23.7863502597
 20
-52.0652233918
 10
-23.775688283
 20
-52.1298476995
 10
-23.7692777319
 20
-52.1950566168
 10
-23.7671504496
 20
-52.2605709538
  0
LWPOLYLINE
  5
2A3
100
AcDbEntity
  8
IMPORT_IGES
100
AcDbPolyline
 62
250
  6
CONTINUOUS
 90
25
 70
0
 10
39.2330018743
 20
-51.2607232853
 10
39.2985151489
 20
-51.2628504981
 10
39.3637231093
 20
-51.2692608529
 10
39.4283465764
 20
-51.2799225262
 10
39.4921068621
 20
-51.2947847384
 10
39.5547344144
 20
-51.3137800714
 10
39.6159694689
 20
-51.336826463
 10
39.6755513044
 20
-51.3638229487
 10
39.7332258744
 20
-51.3946513989
 10
39.7887533001
 20
-51.4291815766
 10
39.8418969169
 20
-51.4672647752
 10
39.8924303692
 20
-51.5087370566
 10
39.9401431827
 20
-51.5534249374
 10
39.9848314126
 20
-51.6011374871
 10
40.0263041137
 20
-51.6516707745
 10
40.0643877858
 20
-51.7048143363
 10
40.098918473
 20
-51.7603418262
 10
40.1297474496
 20
-51.8180165864
 10
40.1567444586
 20
-51.8775987428
 10
40.17979135
 20
-51.9388342512
 10
40.1987871384
 20
-52.0014623899
 10
40.2136497403
 20
-52.0652233917
 10
40.2243117169
 20
-52.1298476994
 10
40.230722268
 20
-52.1950566166
 10
40.2328495503
 20
-52.2605709536
  0
LINE
  5
2A4
100
AcDbEntity
  8
IMPORT_IGES
100
AcDbLine
 62
250
  6
CONTINUOUS
 10
-12.6801797405
 20
52.3260951265
 11
-12.7328495603
 21
52.2734253033
  0
LINE
  5
2A5
100
AcDbEntity
  8
IMPORT_IGES
100
AcDbLine
 62
250
  6
CONTINUOUS
 10
-11.7330018673
 20
51.273577622
 11
-11.6803320468
 21
51.3262474313
  0
LINE
  5
2A6
100
AcDbEntity
  8
IMPORT_IGES
100
AcDbLine
 62
250
  6
CONTINUOUS
 10
-12.7328495569
 20
-52.2605709569
 11
-12.6801797405
 21
-52.3132407832
  0
LINE
  5
2A7
100
AcDbEntity
  8
IMPORT_IGES
100
AcDbLine
 62
250
  6
CONTINUOUS
 10
-11.680332046
 20
-51.3133930881
 11
-11.7330018711
 21
-51.2607232742
  0
LINE
  5
2A8
100
AcDbEntity
  8
IMPORT_IGES
100
AcDbLine
 62
250
  6
CONTINUOUS
 10
-24.7669981241
 20
-51.2607232695
 11
-24.7670071471
 21
-50.2608759061
  0
LINE
  5
2A9
100
AcDbEntity
  8
IMPORT_IGES
100
AcDbLine
 62
250
  6
CONTINUOUS
 10
-24.7669981292
 20
51.273577605
 11
-24.7670045966
 21
50.2737300448
  0
LINE
  5
2AA
100
AcDbEntity
  8
IMPORT_IGES
100
AcDbLine
 62
7
  6
CONTINUOUS
 10
-23.8198202599
 20
55.7564271716
 11
-23.8198202599
 21
52.3260951265
  0
LINE
  5
2AB
100
AcDbEntity
  8
IMPORT_IGES
100
AcDbLine
 62
7
  6
CONTINUOUS
 10
-23.8198202599
 20
-52.3132407832
 11
-23.8198202599
 21
-55.743572828
  0
LINE
  5
2AC
100
AcDbEntity
  8
IMPORT_IGES
100
AcDbLine
 62
250
  6
CONTINUOUS
 10
-23.7671504435
 20
55.7564271709
 11
-23.7671504435
 21
52.2734253001
  0
LINE
  5
2AD
100
AcDbEntity
  8
IMPORT_IGES
100
AcDbLine
 62
250
  6
CONTINUOUS
 10
-23.7671504401
 20
-52.26057096
 11
-23.7671504401
 21
-55.7435728276
  0
LINE
  5
2AE
100
AcDbEntity
  8
IMPORT_IGES
100
AcDbLine
 62
250
  6
CONTINUOUS
 10
-22.767303454
 20
-52.260579978
 11
-22.7673027371
 21
-55.7435728284
  0
LINE
  5
2AF
100
AcDbEntity
  8
IMPORT_IGES
100
AcDbLine
 62
250
  6
CONTINUOUS
 10
-22.7673032483
 20
55.7564271718
 11
-22.7673037595
 21
52.27343172
  0
LWPOLYLINE
  5
2B0
100
AcDbEntity
  8
IMPORT_IGES
100
AcDbPolyline
 62
250
  6
CONTINUOUS
 90
28
 70
0
 10
-22.7673037595
 20
52.27343172
 10
-22.7706917134
 20
52.1573108762
 10
-22.7806992947
 20
52.0422177944
 10
-22.7973265035
 20
51.9281524746
 10
-22.8206573188
 20
51.8147233961
 10
-22.8506077615
 20
51.7023220795
 10
-22.8869258944
 20
51.5921230875
 10
-22.9296841449
 20
51.4841458081
 10
-22.9788100856
 20
51.3783708532
 10
-23.0338344966
 20
51.2759146206
 10
-23.0948264494
 20
51.1768120494
 10
-23.1617168725
 20
51.0810282006
 10
-23.2338293322
 20
50.9895746549
 10
-23.3112232809
 20
50.902499083
 10
-23.3938392663
 20
50.8197538141
 10
-23.4808224968
 20
50.7422074173
 10
-23.5722223517
 20
50.6699185297
 10
-23.6679894519
 20
50.6028285142
 10
-23.7671208689
 20
50.5416300272
 10
-23.8696535999
 20
50.4863904037
 10
-23.9755506477
 20
50.4370423089
 10
-24.0836980924
 20
50.394076394
 10
-24.1941175405
 20
50.3575657631
 10
-24.3067873856
 20
50.3274373121
 10
-24.4205288877
 20
50.3039623809
 10
-24.5349491336
 20
50.2872314159
 10
-24.6504410366
 20
50.2771539705
 10
-24.7670045966
 20
50.2737300448
  0
LWPOLYLINE
  5
2B1
100
AcDbEntity
  8
IMPORT_IGES
100
AcDbPolyline
 62
250
  6
CONTINUOUS
 90
25
 70
0
 10
-23.7671504544
 20
52.2734252969
 10
-23.7692776668
 20
52.2079120614
 10
-23.7756880184
 20
52.1427041233
 10
-23.7863496887
 20
52.0780806618
 10
-23.8012119035
 20
52.014320358
 10
-23.8202072468
 20
51.9516927725
 10
-23.84325365
 20
51.8904576931
 10
-23.8702501472
 20
51.8308758406
 10
-23.9010786073
 20
51.7732012613
 10
-23.9356087781
 20
51.7176738539
 10
-23.9736919338
 20
51.6645302978
 10
-24.0151641431
 20
51.6139969243
 10
-24.0598519499
 20
51.5662841712
 10
-24.1075644346
 20
51.5215959769
 10
-24.158097661
 20
51.4801232959
 10
-24.2112411775
 20
51.4420396235
 10
-24.266768647
 20
51.4075089156
 10
-24.3244434087
 20
51.3766799062
 10
-24.3840255816
 20
51.3496828601
 10
-24.445261122
 20
51.3266359302
 10
-24.5078893089
 20
51.3076401048
 10
-24.5716503661
 20
51.2927774718
 10
-24.6362747326
 20
51.2821154717
 10
-24.7014837144
 20
51.2757049048
 10
-24.766998121
 20
51.2735776154
  0
LINE
  5
2B2
100
AcDbEntity
  8
IMPORT_IGES
100
AcDbLine
 62
7
  6
CONTINUOUS
 10
-20.5000000002
 20
-8.9935728284
 11
-20.5000000002
 21
9.0064271716
  0
LINE
  5
2B3
100
AcDbEntity
  8
IMPORT_IGES
100
AcDbLine
 62
7
  6
CONTINUOUS
 10
3.7499999998
 20
-19.9435728284
 11
1.9987808501
 21
-19.9435728284
  0
LINE
  5
2B4
100
AcDbEntity
  8
IMPORT_IGES
100
AcDbLine
 62
7
  6
CONTINUOUS
 10
1.9987808501
 20
-19.0435728284
 11
3.7499999998
 21
-19.0435728284
  0
LINE
  5
2B5
100
AcDbEntity
  8
IMPORT_IGES
100
AcDbLine
 62
250
  6
CONTINUOUS
 10
-13.732696715
 20
-55.7435728286
 11
-13.7326961668
 21
-52.2605778434
  0
LINE
  5
2B6
100
AcDbEntity
  8
IMPORT_IGES
100
AcDbLine
 62
250
  6
CONTINUOUS
 10
-13.7326964803
 20
52.273435153
 11
-13.7326972633
 21
55.7564271716
  0
LINE
  5
2B7
100
AcDbEntity
  8
IMPORT_IGES
100
AcDbLine
 62
250
  6
CONTINUOUS
 10
-12.7328495569
 20
-55.7435728273
 11
-12.7328495569
 21
-52.2605709569
  0
LINE
  5
2B8
100
AcDbEntity
  8
IMPORT_IGES
100
AcDbLine
 62
250
  6
CONTINUOUS
 10
-12.7328495603
 20
52.2734253033
 11
-12.7328495603
 21
55.7564271709
  0
LINE
  5
2B9
100
AcDbEntity
  8
IMPORT_IGES
100
AcDbLine
 62
7
  6
CONTINUOUS
 10
-12.6801797405
 20
-55.7435728284
 11
-12.6801797405
 21
-52.3132407832
  0
LINE
  5
2BA
100
AcDbEntity
  8
IMPORT_IGES
100
AcDbLine
 62
7
  6
CONTINUOUS
 10
-12.6801797405
 20
52.3260951265
 11
-12.6801797405
 21
55.7564271713
  0
LINE
  5
2BB
100
AcDbEntity
  8
IMPORT_IGES
100
AcDbLine
 62
250
  6
CONTINUOUS
 10
-11.7330018711
 20
-51.2607232742
 11
-11.7329949347
 21
-50.2608768331
  0
LINE
  5
2BC
100
AcDbEntity
  8
IMPORT_IGES
100
AcDbLine
 62
250
  6
CONTINUOUS
 10
-11.7330018763
 20
51.2735776225
 11
-11.7329920217
 21
50.2737314082
  0
LWPOLYLINE
  5
2BD
100
AcDbEntity
  8
IMPORT_IGES
100
AcDbPolyline
 62
250
  6
CONTINUOUS
 90
28
 70
0
 10
-13.7326961668
 20
-52.2605778434
 10
-13.729308205
 20
-52.1444569796
 10
-13.7193006152
 20
-52.0293638782
 10
-13.7026733974
 20
-51.9152985391
 10
-13.6793425725
 20
-51.8018694415
 10
-13.6493921196
 20
-51.6894681063
 10
-13.613073976
 20
-51.5792690959
 10
-13.5703157142
 20
-51.4712917986
 10
-13.5211897617
 20
-51.3655168261
 10
-13.4661653383
 20
-51.2630605764
 10
-13.4051733726
 20
-51.1639579885
 10
-13.338282936
 20
-51.0681741234
 10
-13.2661704623
 20
-50.9767205618
 10
-13.1887764991
 20
-50.8896449745
 10
-13.1061604988
 20
-50.8068996907
 10
-13.0191772527
 20
-50.7293532794
 10
-12.9277773819
 20
-50.6570643779
 10
-12.8320102653
 20
-50.589974349
 10
-12.7328788315
 20
-50.5287758491
 10
-12.6303460832
 20
-50.4735362133
 10
-12.5244490177
 20
-50.4241881066
 10
-12.416301555
 20
-50.3812221805
 10
-12.3058820883
 20
-50.3447114998
 10
-12.1932122244
 20
-50.3145829996
 10
-12.0794707031
 20
-50.2911081371
 10
-11.9650504377
 20
-50.2743773981
 10
-11.8495585149
 20
-50.2643002967
 10
-11.7329949347
 20
-50.2608768331
  0
LWPOLYLINE
  5
2BE
100
AcDbEntity
  8
IMPORT_IGES
100
AcDbPolyline
 62
250
  6
CONTINUOUS
 90
25
 70
0
 10
-12.7328495458
 20
-52.2605709536
 10
-12.7307223337
 20
-52.195057719
 10
-12.7243119825
 20
-52.1298497821
 10
-12.7136503127
 20
-52.0652263217
 10
-12.6987880985
 20
-52.0014660192
 10
-12.6797927562
 20
-51.938838435
 10
-12.656746354
 20
-51.8776033565
 10
-12.6297498577
 20
-51.8180215046
 10
-12.5989213985
 20
-51.7603469257
 10
-12.5643912283
 20
-51.7048195181
 10
-12.5263080725
 20
-51.6516759608
 10
-12.4848358624
 20
-51.6011425857
 10
-12.4401480551
 20
-51.5534298316
 10
-12.3924355705
 20
-51.5087416371
 10
-12.3419023447
 20
-51.4672689562
 10
-12.2887588282
 20
-51.4291852836
 10
-12.2332313579
 20
-51.3946545749
 10
-12.1755565947
 20
-51.3638255646
 10
-12.1159744203
 20
-51.3368285179
 10
-12.0547388784
 20
-51.3137815877
 10
-11.99211069
 20
-51.2947857621
 10
-11.9283496318
 20
-51.2799231292
 10
-11.8637252652
 20
-51.2692611295
 10
-11.7985162839
 20
-51.262850563
 10
-11.7330018784
 20
-51.2607232739
  0
LINE
  5
2BF
100
AcDbEntity
  8
IMPORT_IGES
100
AcDbLine
 62
7
  6
CONTINUOUS
 10
18.9999999998
 20
-10.4935728284
 11
-19.0000000002
 21
-10.4935728284
  0
LINE
  5
2C0
100
AcDbEntity
  8
IMPORT_IGES
100
AcDbLine
 62
7
  6
CONTINUOUS
 10
-1.0500000002
 20
-16.4935728284
 11
-1.0500000002
 21
-17.3935728284
  0
LINE
  5
2C1
100
AcDbEntity
  8
IMPORT_IGES
100
AcDbLine
 62
7
  6
CONTINUOUS
 10
-1.0500000002
 20
-21.5935728284
 11
-1.0500000002
 21
-22.4935728284
  0
LINE
  5
2C2
100
AcDbEntity
  8
IMPORT_IGES
100
AcDbLine
 62
250
  6
CONTINUOUS
 10
-51.2671504311
 20
-49.2610278321
 11
-51.3198202595
 21
-49.3136890092
  0
LINE
  5
2C3
100
AcDbEntity
  8
IMPORT_IGES
100
AcDbLine
 62
250
  6
CONTINUOUS
 10
-51.3198202595
 20
49.326545077
 11
-51.2671504311
 21
49.2738822137
  0
LINE
  5
2C4
100
AcDbEntity
  8
IMPORT_IGES
100
AcDbLine
 62
7
  6
CONTINUOUS
 10
3.7499999998
 20
-19.0435728284
 11
3.7499999998
 21
-19.9435728284
  0
LINE
  5
2C5
100
AcDbEntity
  8
IMPORT_IGES
100
AcDbLine
 62
7
  6
CONTINUOUS
 10
4.0499999998
 20
-16.4935728284
 11
4.0499999998
 21
-17.3935728284
  0
LINE
  5
2C6
100
AcDbEntity
  8
IMPORT_IGES
100
AcDbLine
 62
7
  6
CONTINUOUS
 10
4.0499999998
 20
-21.5935728284
 11
4.0499999998
 21
-22.4935728284
  0
LINE
  5
2C7
100
AcDbEntity
  8
IMPORT_IGES
100
AcDbLine
 62
250
  6
CONTINUOUS
 10
-49.320116179
 20
-51.3133930879
 11
-49.2674550422
 21
-51.2607232717
  0
LINE
  5
2C8
100
AcDbEntity
  8
IMPORT_IGES
100
AcDbLine
 62
250
  6
CONTINUOUS
 10
-49.2674550039
 20
51.273577605
 11
-49.3201179074
 21
51.326247431
  0
LINE
  5
2C9
100
AcDbEntity
  8
IMPORT_IGES
100
AcDbLine
 62
7
  6
CONTINUOUS
 10
-19.0000000002
 20
10.5064271716
 11
18.9999999998
 21
10.5064271716
  0
LINE
  5
2CA
100
AcDbEntity
  8
IMPORT_IGES
100
AcDbLine
 62
7
  6
CONTINUOUS
 10
20.4999999998
 20
9.0064271716
 11
20.4999999998
 21
-8.9935728284
  0
LINE
  5
2CB
100
AcDbEntity
  8
IMPORT_IGES
100
AcDbLine
 62
250
  6
CONTINUOUS
 10
-24.766998133
 20
-51.2607232717
 11
-24.8196679536
 21
-51.3133930881
  0
LINE
  5
2CC
100
AcDbEntity
  8
IMPORT_IGES
100
AcDbLine
 62
250
  6
CONTINUOUS
 10
-23.8198202599
 20
-52.3132407832
 11
-23.7671504401
 21
-52.26057096
  0
LINE
  5
2CD
100
AcDbEntity
  8
IMPORT_IGES
100
AcDbLine
 62
250
  6
CONTINUOUS
 10
-24.8196679544
 20
51.3262474312
 11
-24.7669981292
 21
51.273577605
  0
LINE
  5
2CE
100
AcDbEntity
  8
IMPORT_IGES
100
AcDbLine
 62
250
  6
CONTINUOUS
 10
-23.7671504435
 20
52.2734253001
 11
-23.8198202599
 21
52.3260951265
  0
LINE
  5
2CF
100
AcDbEntity
  8
IMPORT_IGES
100
AcDbLine
 62
250
  6
CONTINUOUS
 10
39.2330018759
 20
-51.2607232734
 11
39.2329928529
 21
-50.2608768331
  0
LINE
  5
2D0
100
AcDbEntity
  8
IMPORT_IGES
100
AcDbLine
 62
250
  6
CONTINUOUS
 10
39.2330018682
 20
51.273577622
 11
39.2329928502
 21
50.2737314082
  0
LINE
  5
2D1
100
AcDbEntity
  8
IMPORT_IGES
100
AcDbLine
 62
7
  6
CONTINUOUS
 10
40.1801797401
 20
55.7564271716
 11
40.1801797401
 21
52.326095125
  0
LINE
  5
2D2
100
AcDbEntity
  8
IMPORT_IGES
100
AcDbLine
 62
7
  6
CONTINUOUS
 10
40.1801797401
 20
-52.3132407832
 11
40.1801797401
 21
-55.743572828
  0
LINE
  5
2D3
100
AcDbEntity
  8
IMPORT_IGES
100
AcDbLine
 62
250
  6
CONTINUOUS
 10
40.2328495573
 20
55.7564271709
 11
40.2328495573
 21
52.2734253045
  0
LINE
  5
2D4
100
AcDbEntity
  8
IMPORT_IGES
100
AcDbLine
 62
250
  6
CONTINUOUS
 10
40.2328495599
 20
-52.26057096
 11
40.2328495599
 21
-55.7435728276
  0
LINE
  5
2D5
100
AcDbEntity
  8
IMPORT_IGES
100
AcDbLine
 62
250
  6
CONTINUOUS
 10
41.2326965463
 20
55.7564271718
 11
41.2326958296
 21
52.2734343185
  0
LINE
  5
2D6
100
AcDbEntity
  8
IMPORT_IGES
100
AcDbLine
 62
250
  6
CONTINUOUS
 10
41.232696546
 20
-52.260579978
 11
41.2326972629
 21
-55.7435728284
  0
LWPOLYLINE
  5
2D7
100
AcDbEntity
  8
IMPORT_IGES
100
AcDbPolyline
 62
250
  6
CONTINUOUS
 90
28
 70
0
 10
41.2326958296
 20
52.2734343185
 10
41.2292655054
 20
52.156873516
 10
41.2191929292
 20
52.0414070357
 10
41.2024781011
 20
51.9270348776
 10
41.1790283038
 20
51.8133695503
 10
41.1489362545
 20
51.7007985452
 10
41.1124801055
 20
51.5904843364
 10
41.069590767
 20
51.4824482638
 10
41.0203373287
 20
51.3766689874
 10
40.9652052117
 20
51.2742449619
 10
40.9041285904
 20
51.1752118202
 10
40.8371732904
 20
51.0795339294
 10
40.7650222102
 20
50.9882028457
 10
40.6876191702
 20
50.9012656492
 10
40.60502035
 20
50.8186752598
 10
40.5180771866
 20
50.741281993
 10
40.4267428686
 20
50.6691419269
 10
40.3310642074
 20
50.6021989834
 10
40.2320330746
 20
50.5411352436
 10
40.1296138498
 20
50.4860167506
 10
40.0238421533
 20
50.4367774612
 10
39.9158167176
 20
50.3939013272
 10
39.8055163865
 20
50.3574573427
 10
39.6929623162
 20
50.3273765136
 10
39.5793167073
 20
50.3039358086
 10
39.4649669601
 20
50.2872275509
 10
39.3495256744
 20
50.2771594174
 10
39.2329928502
 20
50.2737314082
  0
LWPOLYLINE
  5
2D8
100
AcDbEntity
  8
IMPORT_IGES
100
AcDbPolyline
 62
250
  6
CONTINUOUS
 90
25
 70
0
 10
40.2328495439
 20
52.2734252971
 10
40.2307223312
 20
52.2079120226
 10
40.2243119765
 20
52.1427040623
 10
40.2136503033
 20
52.0780805952
 10
40.1987880912
 20
52.0143203096
 10
40.1797927583
 20
51.9516927574
 10
40.1567463668
 20
51.8904577029
 10
40.1297498812
 20
51.8308758675
 10
40.098921431
 20
51.7732012977
 10
40.0643912534
 20
51.717673872
 10
40.0263080548
 20
51.6645302553
 10
39.9848357735
 20
51.6139968031
 10
39.9401478928
 20
51.5662839897
 10
39.892435343
 20
51.5215957598
 10
39.8419020556
 20
51.4801230588
 10
39.7887584938
 20
51.4420393867
 10
39.7332310039
 20
51.4075086996
 10
39.6755562436
 20
51.376679723
 10
39.615974087
 20
51.349682714
 10
39.5547385784
 20
51.3266358227
 10
39.4921104395
 20
51.3076400344
 10
39.4283494373
 20
51.2927774324
 10
39.3637251291
 20
51.2821154559
 10
39.2985162114
 20
51.2757049049
 10
39.2330018739
 20
51.2735776227
  0
LINE
  5
2D9
100
AcDbEntity
  8
IMPORT_IGES
100
AcDbLine
 62
250
  6
CONTINUOUS
 10
50.2673027367
 20
-55.7435728286
 11
50.2673027367
 21
55.7564271716
  0
LINE
  5
2DA
100
AcDbEntity
  8
IMPORT_IGES
100
AcDbLine
 62
250
  6
CONTINUOUS
 10
51.2671504319
 20
-55.7435728273
 11
51.2671504319
 21
55.7564271709
  0
LINE
  5
2DB
100
AcDbEntity
  8
IMPORT_IGES
100
AcDbLine
 62
7
  6
CONTINUOUS
 10
51.3198202595
 20
-55.7435728284
 11
51.3198202595
 21
55.7564271713
  0
LWPOLYLINE
  5
2DC
100
AcDbEntity
  8
IMPORT_IGES
100
AcDbPolyline
 62
7
  6
CONTINUOUS
 90
28
 70
0
 10
-49.3201179074
 20
51.3262474312
 10
-49.4372701009
 20
51.3227481845
 10
-49.5532021178
 20
51.3125948178
 10
-49.6679139581
 20
51.295787331
 10
-49.7817796054
 20
51.2722184809
 10
-49.8944250761
 20
51.2419955109
 10
-50.0047284191
 20
51.2054401505
 10
-50.1126652195
 20
51.1624912724
 10
-50.2182598923
 20
51.113210004
 10
-50.320463731
 20
51.0581014576
 10
-50.4192422117
 20
50.9971103604
 10
-50.5146298583
 20
50.9302919853
 10
-50.6056815364
 20
50.8583172631
 10
-50.6923556026
 20
50.7811364696
 10
-50.7746937002
 20
50.698799329
 10
-50.8518756248
 20
50.612125945
 10
-50.9238516617
 20
50.5210746615
 10
-50.9906715256
 20
50.4256871346
 10
-51.0516641563
 20
50.3269084362
 10
-51.1067742866
 20
50.2247040274
 10
-51.1560571835
 20
50.119108447
 10
-51.1990075888
 20
50.0111703837
 10
-51.2355644991
 20
49.9008659218
 10
-51.2657889176
 20
49.7882189769
 10
-51.2893585959
 20
49.6743499838
 10
-51.3061661178
 20
49.5596324208
 10
-51.3163188994
 20
49.4436928096
 10
-51.3198169408
 20
49.3265311502
  0
LWPOLYLINE
  5
2DD
100
AcDbEntity
  8
IMPORT_IGES
100
AcDbPolyline
 62
7
  6
CONTINUOUS
 90
28
 70
0
 10
-49.2674550047
 20
51.2735776028
 10
-49.3838342637
 20
51.270171037
 10
-49.499795374
 20
51.2600007051
 10
-49.6149459059
 20
51.2431050703
 10
-49.7288943967
 20
51.2195458873
 10
-49.8412582029
 20
51.1894065285
 10
-49.951664456
 20
51.1527904005
 10
-50.0597404297
 20
51.1098241032
 10
-50.165121905
 20
51.0606555147
 10
-50.2674600935
 20
51.0054496574
 10
-50.366410323
 20
50.9443941293
 10
-50.4616384311
 20
50.8776968798
 10
-50.5528276326
 20
50.8055809951
 10
-50.6396699412
 20
50.7282907748
 10
-50.7218725357
 20
50.6460876455
 10
-50.7991620989
 20
50.5592449439
 10
-50.8712772256
 20
50.4680555082
 10
-50.9379736396
 20
50.3728273398
 10
-50.9990282798
 20
50.273877236
 10
-51.0542332228
 20
50.1715393682
 10
-51.1034008981
 20
50.0661584157
 10
-51.1463663114
 20
49.9580831701
 10
-51.1829816134
 20
49.847677851
 10
-51.213120233
 20
49.7353151821
 10
-51.2366787927
 20
49.6213680265
 10
-51.2535739488
 20
49.5062190189
 10
-51.2637439743
 20
49.3902596098
 10
-51.2671504334
 20
49.2738822137
  0
LINE
  5
2DE
100
AcDbEntity
  8
IMPORT_IGES
100
AcDbLine
 62
250
  6
CONTINUOUS
 10
-51.2671504311
 20
49.2738822137
 11
-50.2673019836
 21
49.2738774579
  0
LINE
  5
2DF
100
AcDbEntity
  8
IMPORT_IGES
100
AcDbLine
 62
250
  6
CONTINUOUS
 10
39.2329928502
 20
50.2737314082
 11
-11.7329920217
 21
50.2737314739
  0
LINE
  5
2E0
100
AcDbEntity
  8
IMPORT_IGES
100
AcDbLine
 62
250
  6
CONTINUOUS
 10
-24.7670045966
 20
50.2737300448
 11
-49.2674407073
 21
50.2737258256
  0
LINE
  5
2E1
100
AcDbEntity
  8
IMPORT_IGES
100
AcDbLine
 62
250
  6
CONTINUOUS
 10
39.2330018682
 20
51.273577622
 11
-11.7330018673
 21
51.273577622
  0
LINE
  5
2E2
100
AcDbEntity
  8
IMPORT_IGES
100
AcDbLine
 62
250
  6
CONTINUOUS
 10
-24.7669981292
 20
51.273577605
 11
-49.2674550039
 21
51.273577605
  0
LINE
  5
2E3
100
AcDbEntity
  8
IMPORT_IGES
100
AcDbLine
 62
7
  6
CONTINUOUS
 10
39.1803320449
 20
51.3262474313
 11
-11.6803320468
 21
51.3262474313
  0
LINE
  5
2E4
100
AcDbEntity
  8
IMPORT_IGES
100
AcDbLine
 62
7
  6
CONTINUOUS
 10
-24.8196679551
 20
51.3262474313
 11
-49.3201179074
 21
51.3262474312
  0
LINE
  5
2E5
100
AcDbEntity
  8
IMPORT_IGES
100
AcDbLine
 62
250
  6
CONTINUOUS
 10
40.2328495586
 20
52.2734252956
 11
41.2326965463
 21
52.2734343185
  0
LINE
  5
2E6
100
AcDbEntity
  8
IMPORT_IGES
100
AcDbLine
 62
250
  6
CONTINUOUS
 10
-12.7328495603
 20
52.2734253033
 11
-13.7326964803
 21
52.273435153
  0
LINE
  5
2E7
100
AcDbEntity
  8
IMPORT_IGES
100
AcDbLine
 62
250
  6
CONTINUOUS
 10
-23.7671504429
 20
52.2734252847
 11
-22.7673032483
 21
52.27343172
  0
LWPOLYLINE
  5
2E8
100
AcDbEntity
  8
IMPORT_IGES
100
AcDbPolyline
 62
250
  6
CONTINUOUS
 90
28
 70
0
 10
-11.7329920217
 20
50.2737314739
 10
-11.8495528599
 20
50.2771618121
 10
-11.9650193751
 20
50.2872344032
 10
-12.0793915675
 20
50.3039492472
 10
-12.1930569282
 20
50.3273990614
 10
-12.305627966
 20
50.3574911284
 10
-12.4159422069
 20
50.3939472962
 10
-12.5239783109
 20
50.4368366543
 10
-12.629757618
 20
50.4860901131
 10
-12.7321816734
 20
50.5412222514
 10
-12.8312148443
 20
50.602298895
 10
-12.9268927637
 20
50.6692542181
 10
-13.0182238752
 20
50.7414053223
 10
-13.1051610989
 20
50.8188083872
 10
-13.1877515147
 20
50.9014072331
 10
-13.2651448072
 20
50.9883504232
 10
-13.3372848983
 20
51.0796847688
 10
-13.404227866
 20
51.1753634584
 10
-13.4652916292
 20
51.2743946206
 10
-13.5204101447
 20
51.3768138758
 10
-13.5696494557
 20
51.4825856036
 10
-13.6125256105
 20
51.5906110716
 10
-13.6489695833
 20
51.700911436
 10
-13.6790503998
 20
51.8134655406
 10
-13.7024911852
 20
51.9271111846
 10
-13.719199648
 20
52.0414609679
 10
-13.7292680797
 20
52.1569022907
 10
-13.7326964803
 20
52.273435153
  0
LWPOLYLINE
  5
2E9
100
AcDbEntity
  8
IMPORT_IGES
100
AcDbPolyline
 62
250
  6
CONTINUOUS
 90
25
 70
0
 10
-11.7330018749
 20
51.2735776302
 10
-11.7985151485
 20
51.275704843
 10
-11.8637231083
 20
51.2821151976
 10
-11.9283465751
 20
51.2927768707
 10
-11.9921068608
 20
51.3076390828
 10
-12.0547344134
 20
51.3266344158
 10
-12.1159694681
 20
51.3496808073
 10
-12.1755513037
 20
51.3766772929
 10
-12.2332258737
 20
51.407505743
 10
-12.2887532991
 20
51.4420359204
 10
-12.341896915
 20
51.4801191181
 10
-12.3924303662
 20
51.5215913983
 10
-12.4401431787
 20
51.5662792776
 10
-12.484831408
 20
51.613991826
 10
-12.5263041086
 20
51.6645251119
 10
-12.5643877807
 20
51.7176686727
 10
-12.5989184685
 20
51.7731961623
 10
-12.6297474459
 20
51.8308709227
 10
-12.6567444558
 20
51.8904530798
 10
-12.679791348
 20
51.9516885891
 10
-12.6987871371
 20
52.014316729
 10
-12.7136497396
 20
52.078077732
 10
-12.7243117166
 20
52.1427020407
 10
-12.7307222679
 20
52.2079109587
 10
-12.7328495503
 20
52.2734252965
  0
LINE
  5
2EA
100
AcDbEntity
  8
IMPORT_IGES
100
AcDbLine
 62
250
  6
CONTINUOUS
 10
51.3198202595
 20
55.7564271711
 11
50.2673027367
 21
55.7564271716
  0
LINE
  5
2EB
100
AcDbEntity
  8
IMPORT_IGES
100
AcDbLine
 62
250
  6
CONTINUOUS
 10
-23.8198202599
 20
55.7564271716
 11
-22.7673032483
 21
55.7564271718
  0
LINE
  5
2EC
100
AcDbEntity
  8
IMPORT_IGES
100
AcDbLine
 62
250
  6
CONTINUOUS
 10
-12.6801797405
 20
55.7564271711
 11
-13.7326964803
 21
55.7564271716
  0
LINE
  5
2ED
100
AcDbEntity
  8
IMPORT_IGES
100
AcDbLine
 62
250
  6
CONTINUOUS
 10
40.1801797401
 20
55.7564271716
 11
41.2326965463
 21
55.7564271718
  0
LINE
  5
2EE
100
AcDbEntity
  8
IMPORT_IGES
100
AcDbLine
 62
250
  6
CONTINUOUS
 10
39.233001867
 20
-51.2607232742
 11
39.1803320464
 21
-51.3133930881
  0
LINE
  5
2EF
100
AcDbEntity
  8
IMPORT_IGES
100
AcDbLine
 62
250
  6
CONTINUOUS
 10
39.1803320449
 20
51.3262474313
 11
39.2330018682
 21
51.273577622
  0
LINE
  5
2F0
100
AcDbEntity
  8
IMPORT_IGES
100
AcDbLine
 62
250
  6
CONTINUOUS
 10
40.1801797401
 20
-52.3132407832
 11
40.2328495599
 21
-52.26057096
  0
LINE
  5
2F1
100
AcDbEntity
  8
IMPORT_IGES
100
AcDbLine
 62
250
  6
CONTINUOUS
 10
40.2328495573
 20
52.2734253045
 11
40.1801797401
 21
52.326095125
  0
ARC
  5
2F2
100
AcDbEntity
  8
IMPORT_IGES
100
AcDbCircle
 62
7
  6
CONTINUOUS
 10
-18.2500000002
 20
-55.7435728284
 40
5.5698202485
100
AcDbArc
 50
179.9999999967
 51
359.9999999996
  0
ARC
  5
2F3
100
AcDbEntity
  8
IMPORT_IGES
100
AcDbCircle
 62
250
  6
CONTINUOUS
 10
-18.2500000002
 20
-55.7435728284
 40
5.5171504205
100
AcDbArc
 50
180.0005154113
 51
359.9994845929
  0
ARC
  5
2F4
100
AcDbEntity
  8
IMPORT_IGES
100
AcDbCircle
 62
250
  6
CONTINUOUS
 10
-18.2500000002
 20
-55.7435728284
 40
4.5172787877
100
AcDbArc
 50
179.9999999998
 51
359.9999999976
  0
CIRCLE
  5
2F5
100
AcDbEntity
  8
IMPORT_IGES
100
AcDbCircle
 62
7
  6
CONTINUOUS
 10
-18.2500000002
 20
-56.1435728284
 40
3.2436376559
  0
CIRCLE
  5
2F6
100
AcDbEntity
  8
IMPORT_IGES
100
AcDbCircle
 62
7
  6
CONTINUOUS
 10
-18.2500000002
 20
-56.1435728284
 40
3.226182591
  0
CIRCLE
  5
2F7
100
AcDbEntity
  8
IMPORT_IGES
100
AcDbCircle
 62
7
  6
CONTINUOUS
 10
-18.2500000002
 20
-56.1435728284
 40
2.1261825929
  0
CIRCLE
  5
2F8
100
AcDbEntity
  8
IMPORT_IGES
100
AcDbCircle
 62
7
  6
CONTINUOUS
 10
-18.2500000002
 20
-56.1435728284
 40
2.0999999955
  0
ARC
  5
2F9
100
AcDbEntity
  8
IMPORT_IGES
100
AcDbCircle
 62
7
  6
CONTINUOUS
 10
-19.0000000002
 20
-8.9935728284
 40
1.5
100
AcDbArc
 50
180.0000000003
 51
269.9999999997
  0
ARC
  5
2FA
100
AcDbEntity
  8
IMPORT_IGES
100
AcDbCircle
 62
250
  6
CONTINUOUS
 10
-49.2675156777
 20
-49.2610885163
 40
0.9997829793
100
AcDbArc
 50
179.9957029842
 51
270.0037474397
  0
ARC
  5
2FB
100
AcDbEntity
  8
IMPORT_IGES
100
AcDbCircle
 62
7
  6
CONTINUOUS
 10
-18.2500000002
 20
55.7564271716
 40
5.5698202508
100
AcDbArc
 50
0.0
 51
179.9999999997
  0
ARC
  5
2FC
100
AcDbEntity
  8
IMPORT_IGES
100
AcDbCircle
 62
250
  6
CONTINUOUS
 10
-18.2500000002
 20
55.7564271716
 40
5.5171504227
100
AcDbArc
 50
0.0005154113
 51
179.9994845782
  0
ARC
  5
2FD
100
AcDbEntity
  8
IMPORT_IGES
100
AcDbCircle
 62
250
  6
CONTINUOUS
 10
-18.2500000002
 20
55.7564271716
 40
4.5172787877
100
AcDbArc
 50
0.0
 51
179.9999999976
  0
CIRCLE
  5
2FE
100
AcDbEntity
  8
IMPORT_IGES
100
AcDbCircle
 62
7
  6
CONTINUOUS
 10
-18.2500000002
 20
56.1564271716
 40
3.2436376559
  0
CIRCLE
  5
2FF
100
AcDbEntity
  8
IMPORT_IGES
100
AcDbCircle
 62
7
  6
CONTINUOUS
 10
-18.2500000002
 20
56.1564271716
 40
3.226182591
  0
CIRCLE
  5
300
100
AcDbEntity
  8
IMPORT_IGES
100
AcDbCircle
 62
7
  6
CONTINUOUS
 10
-18.2500000002
 20
56.1564271716
 40
2.1261825929
  0
CIRCLE
  5
301
100
AcDbEntity
  8
IMPORT_IGES
100
AcDbCircle
 62
7
  6
CONTINUOUS
 10
-18.2500000002
 20
56.1564271716
 40
2.0999999955
  0
ARC
  5
302
100
AcDbEntity
  8
IMPORT_IGES
100
AcDbCircle
 62
7
  6
CONTINUOUS
 10
-19.0000000002
 20
9.0064271716
 40
1.5
100
AcDbArc
 50
90.0000000003
 51
179.9999999997
  0
CIRCLE
  5
303
100
AcDbEntity
  8
IMPORT_IGES
100
AcDbCircle
 62
7
  6
CONTINUOUS
 10
-45.7500000002
 20
45.7564271716
 40
1.1309129831
  0
CIRCLE
  5
304
100
AcDbEntity
  8
IMPORT_IGES
100
AcDbCircle
 62
250
  6
CONTINUOUS
 10
-45.7500000002
 20
45.7564271716
 40
1.0102894091
  0
ARC
  5
305
100
AcDbEntity
  8
IMPORT_IGES
100
AcDbCircle
 62
250
  6
CONTINUOUS
 10
-49.2675156881
 20
49.2739428491
 40
0.9997829793
100
AcDbArc
 50
89.9957029842
 51
180.0037474438
  0
CIRCLE
  5
306
100
AcDbEntity
  8
IMPORT_IGES
100
AcDbCircle
 62
250
  6
CONTINUOUS
 10
-45.7500000002
 20
45.7564271716
 40
0.4104176249
  0
ARC
  5
307
100
AcDbEntity
  8
IMPORT_IGES
100
AcDbCircle
 62
7
  6
CONTINUOUS
 10
45.7499999998
 20
-55.7435728284
 40
5.5698202485
100
AcDbArc
 50
179.9999999967
 51
359.9999999996
  0
ARC
  5
308
100
AcDbEntity
  8
IMPORT_IGES
100
AcDbCircle
 62
250
  6
CONTINUOUS
 10
45.7499999998
 20
-55.7435728284
 40
5.5171504205
100
AcDbArc
 50
180.0005154113
 51
359.9994845929
  0
ARC
  5
309
100
AcDbEntity
  8
IMPORT_IGES
100
AcDbCircle
 62
250
  6
CONTINUOUS
 10
45.7499999998
 20
-55.7435728284
 40
4.5172787877
100
AcDbArc
 50
179.9999999998
 51
359.9999999976
  0
CIRCLE
  5
30A
100
AcDbEntity
  8
IMPORT_IGES
100
AcDbCircle
 62
7
  6
CONTINUOUS
 10
45.7499999998
 20
-56.1435728284
 40
3.2436376559
  0
CIRCLE
  5
30B
100
AcDbEntity
  8
IMPORT_IGES
100
AcDbCircle
 62
7
  6
CONTINUOUS
 10
45.7499999998
 20
-56.1435728284
 40
3.226182591
  0
ARC
  5
30C
100
AcDbEntity
  8
IMPORT_IGES
100
AcDbCircle
 62
7
  6
CONTINUOUS
 10
-1.0500000002
 20
-19.4935728284
 40
3.0
100
AcDbArc
 50
89.9999999999
 51
270.0000000001
  0
ARC
  5
30D
100
AcDbEntity
  8
IMPORT_IGES
100
AcDbCircle
 62
7
  6
CONTINUOUS
 10
4.0499999998
 20
-19.4935728284
 40
3.0
100
AcDbArc
 50
89.9999999999
 51
270.0000000001
  0
CIRCLE
  5
30E
100
AcDbEntity
  8
IMPORT_IGES
100
AcDbCircle
 62
7
  6
CONTINUOUS
 10
45.7499999998
 20
-56.1435728284
 40
2.1261825929
  0
ARC
  5
30F
100
AcDbEntity
  8
IMPORT_IGES
100
AcDbCircle
 62
7
  6
CONTINUOUS
 10
-1.0500000002
 20
-19.4935728284
 40
2.1
100
AcDbArc
 50
90.0
 51
270.0
  0
ARC
  5
310
100
AcDbEntity
  8
IMPORT_IGES
100
AcDbCircle
 62
7
  6
CONTINUOUS
 10
4.0499999998
 20
-19.4935728284
 40
2.1
100
AcDbArc
 50
192.3736251162
 51
270.0
  0
ARC
  5
311
100
AcDbEntity
  8
IMPORT_IGES
100
AcDbCircle
 62
7
  6
CONTINUOUS
 10
4.0499999998
 20
-19.4935728284
 40
2.1
100
AcDbArc
 50
90.0
 51
167.6263748838
  0
CIRCLE
  5
312
100
AcDbEntity
  8
IMPORT_IGES
100
AcDbCircle
 62
7
  6
CONTINUOUS
 10
45.7499999998
 20
-56.1435728284
 40
2.0999999955
  0
ARC
  5
313
100
AcDbEntity
  8
IMPORT_IGES
100
AcDbCircle
 62
7
  6
CONTINUOUS
 10
18.9999999998
 20
-8.9935728284
 40
1.5
100
AcDbArc
 50
270.0000000003
 51
359.9999999997
  0
ARC
  5
314
100
AcDbEntity
  8
IMPORT_IGES
100
AcDbCircle
 62
7
  6
CONTINUOUS
 10
45.7499999998
 20
55.7564271716
 40
5.5698202508
100
AcDbArc
 50
0.0
 51
179.9999999997
  0
ARC
  5
315
100
AcDbEntity
  8
IMPORT_IGES
100
AcDbCircle
 62
250
  6
CONTINUOUS
 10
45.7499999998
 20
55.7564271716
 40
5.5171504227
100
AcDbArc
 50
0.0005154113
 51
179.9994845782
  0
ARC
  5
316
100
AcDbEntity
  8
IMPORT_IGES
100
AcDbCircle
 62
250
  6
CONTINUOUS
 10
45.7499999998
 20
55.7564271716
 40
4.5172787877
100
AcDbArc
 50
0.0000000002
 51
179.9999999976
  0
CIRCLE
  5
317
100
AcDbEntity
  8
IMPORT_IGES
100
AcDbCircle
 62
7
  6
CONTINUOUS
 10
45.7499999998
 20
56.1564271716
 40
3.2436376559
  0
CIRCLE
  5
318
100
AcDbEntity
  8
IMPORT_IGES
100
AcDbCircle
 62
7
  6
CONTINUOUS
 10
45.7499999998
 20
56.1564271716
 40
3.226182591
  0
CIRCLE
  5
319
100
AcDbEntity
  8
IMPORT_IGES
100
AcDbCircle
 62
7
  6
CONTINUOUS
 10
45.7499999998
 20
56.1564271716
 40
2.1261825929
  0
CIRCLE
  5
31A
100
AcDbEntity
  8
IMPORT_IGES
100
AcDbCircle
 62
7
  6
CONTINUOUS
 10
45.7499999998
 20
56.1564271716
 40
2.0999999955
  0
ARC
  5
31B
100
AcDbEntity
  8
IMPORT_IGES
100
AcDbCircle
 62
7
  6
CONTINUOUS
 10
18.9999999998
 20
9.0064271716
 40
1.5
100
AcDbArc
 50
0.0000000003
 51
89.9999999997
  0
ELLIPSE
  5
31C
100
AcDbEntity
  8
IMPORT_IGES
100
AcDbEllipse
 62
7
  6
CONTINUOUS
 10
-11.6800274124
 20
52.3263997594
 30
0.0
 11
0.7073221892
 21
0.7073221892
 31
0.0
 40
0.9996954599
 41
2.3563467834
 42
3.9268385222
  0
ELLIPSE
  5
31D
100
AcDbEntity
  8
IMPORT_IGES
100
AcDbEllipse
 62
7
  6
CONTINUOUS
 10
-24.8199725879
 20
52.3263997594
 30
0.0
 11
-0.7073221892
 21
0.7073221892
 31
0.0
 40
0.9996954599
 41
-3.9268385237
 42
-2.3563467834
  0
ELLIPSE
  5
31E
100
AcDbEntity
  8
IMPORT_IGES
100
AcDbEllipse
 62
7
  6
CONTINUOUS
 10
-24.819972588
 20
-52.3135454161
 30
0.0
 11
0.7073221892
 21
0.7073221892
 31
0.0
 40
0.9996954599
 41
-0.7852458701
 42
0.7852458686
  0
ELLIPSE
  5
31F
100
AcDbEntity
  8
IMPORT_IGES
100
AcDbEllipse
 62
7
  6
CONTINUOUS
 10
-11.6800274124
 20
-52.3135454161
 30
0.0
 11
-0.7073221892
 21
0.7073221892
 31
0.0
 40
0.9996954599
 41
-0.7852458701
 42
0.7852458702
  0
ELLIPSE
  5
320
100
AcDbEntity
  8
IMPORT_IGES
100
AcDbEllipse
 62
7
  6
CONTINUOUS
 10
39.180027412
 20
-52.3135454161
 30
0.0
 11
0.7073221892
 21
0.7073221892
 31
0.0
 40
0.9996954599
 41
-0.7852458701
 42
0.7852458686
  0
ELLIPSE
  5
321
100
AcDbEntity
  8
IMPORT_IGES
100
AcDbEllipse
 62
7
  6
CONTINUOUS
 10
39.1800274121
 20
52.3263997594
 30
0.0
 11
-0.7073221892
 21
0.7073221892
 31
0.0
 40
0.9996954599
 41
-3.9268385237
 42
-2.3563467849
  0
ENDSEC
  0
SECTION
  2
OBJECTS
  0
DICTIONARY
  5
C
100
AcDbDictionary
280
0
281
1
  3
ACAD_GROUP
350
D
  3
ACAD_MLINESTYLE
350
17
  3
ACAD_LAYOUT
350
1A
  3
ACAD_PLOTSETTINGS
350
19
  3
ACAD_PLOTSTYLENAME
350
E
  0
DICTIONARY
  5
D
102
{ACAD_REACTORS
330
C
102
}
100
AcDbDictionary
280
0
281
1
  0
ACDBDICTIONARYWDFLT
  5
E
102
{ACAD_REACTORS
330
C
102
}
100
AcDbDictionary
281
1
  3
Normal
350
F
100
AcDbDictionaryWithDefault
340
F
  0
DICTIONARY
  5
17
102
{ACAD_REACTORS
330
C
102
}
100
AcDbDictionary
280
0
281
1
  3
Standard
350
18
  0
DICTIONARY
  5
19
102
{ACAD_REACTORS
330
C
102
}
100
AcDbDictionary
281
1
  0
DICTIONARY
  5
1A
102
{ACAD_REACTORS
330
C
102
}
100
AcDbDictionary
281
1
  3
Model
350
322
  3
Layout1
350
323
  0
ACDBPLACEHOLDER
  5
F
102
{ACAD_REACTORS
330
E
102
}
  0
MLINESTYLE
  5
18
102
{ACAD_REACTORS
330
17
102
}
100
AcDbMlineStyle
  2
STANDARD
 70
0
  3

 62
256
 51
90.0
 52
90.0
 71
2
 49
0.5
 62
256
  6
BYLAYER
 49
-0.5
 62
256
  6
BYLAYER
  0
LAYOUT
  5
322
102
{ACAD_REACTORS
330
1A
102
}
100
AcDbPlotSettings
  1

  2
none_device
  4
ISO_A4_(297.00_x_210.00_MM)
  6

 40
0.0
 41
0.0
 42
0.0
 43
0.0
 44
297.0
 45
210.0
 46
0.0
 47
0.0
 48
0.0
 49
0.0
140
0.0
141
0.0
142
1.0
143
1.0
 70
1024
 72
1
 73
0
 74
0
  7

 75
0
147
1.0
148
0.0
149
0.0
100
AcDbLayout
  1
Model
 70
0
 71
0
 10
0.0
 20
0.0
 11
297.0
 21
210.0
 12
0.0
 22
0.0
 32
0.0
 14
0.0
 24
0.0
 34
0.0
 15
0.0
 25
0.0
 35
0.0
146
0.0
 13
0.0
 23
0.0
 33
0.0
 16
1.0
 26
0.0
 36
0.0
 17
0.0
 27
1.0
 37
0.0
 76
0
330
284
345
0
346
0
  0
LAYOUT
  5
323
102
{ACAD_REACTORS
330
1A
102
}
100
AcDbPlotSettings
  1

  2
none_device
  4
ISO_A4_(297.00_x_210.00_MM)
  6

 40
0.0
 41
0.0
 42
0.0
 43
0.0
 44
297.0
 45
210.0
 46
0.0
 47
0.0
 48
0.0
 49
0.0
140
0.0
141
0.0
142
1.0
143
1.0
 70
0
 72
1
 73
0
 74
0
  7

 75
0
147
1.0
148
0.0
149
0.0
100
AcDbLayout
  1
Layout1
 70
0
 71
1
 10
0.0
 20
0.0
 11
297.0
 21
210.0
 12
0.0
 22
0.0
 32
0.0
 14
0.0
 24
0.0
 34
0.0
 15
0.0
 25
0.0
 35
0.0
146
0.0
 13
0.0
 23
0.0
 33
0.0
 16
1.0
 26
0.0
 36
0.0
 17
0.0
 27
1.0
 37
0.0
 76
0
330
285
345
0
346
0
  0
ENDSEC
  0
EOF
