  0
SECTION
  2
HEADER
  9
$ACADVER
  1
AC1024
  9
$DWGCODEPAGE
  3
ANSI_1252
  9
$EXTMAX
 10
297.0
 20
210.0
 30
0.0
  9
$EXTMIN
 10
0.0
 20
0.0
 30
0.0
  9
$LIMMIN
 10
0.0
 20
0.0
  9
$LIMMAX
 10
297.0
 20
210.0
  9
$VIEWCTR
 10
148.5
 20
105.0
  9
$VIEWSIZE
 40
210.0
  9
$CLAYER
  8
0
  9
$LTSCALE
 40
16.335
  9
$CELTYPE
  6
BYLAYER
  9
$DIMSCALE
 40
1.0
  9
$DIMASZ
 40
3.0
  9
$DIMEXO
 40
0.5
  9
$DIMDLI
 40
11.286
  9
$DIMEXE
 40
1.5
  9
$DIMCEN
 40
2.673
  9
$DIMLFAC
 40
1.0
  9
$DIMBLK
  1
_FILLED
  9
$DIMALT
 70
0
  9
$DIMALTF
 40
0.0393700787
  9
$DIMTXT
 40
3.0
  9
$DIMTOL
 70
1
  9
$DIMLIM
 70
0
  9
$DIMTFAC
 40
1.0
  9
$DIMTP
 40
0.01
  9
$DIMTM
 40
0.01
  9
$DIMGAP
 40
0.625
  9
$DIMDSEP
 70
44
  9
$AUNITS
 70
0
  9
$PDMODE
 70
3
  9
$PDSIZE
 40
3.0
  9
$HANDSEED
  5
540
  9
$TILEMODE
 70
1
  9
$MEASUREMENT
 70
1
  9
$INSUNITS
 70
4
  0
ENDSEC
  0
SECTION
  2
CLASSES
  0
CLASS
  1
ACDBDICTIONARYWDFLT
  2
AcDbDictionaryWithDefault
  3
AutoCAD 2000
 90
0
 91
1
280
0
281
0
  0
CLASS
  1
ACDBPLACEHOLDER
  2
AcDbPlaceHolder
  3
AutoCAD 2000
 90
0
 91
1
280
0
281
0
  0
CLASS
  1
LAYOUT
  2
AcDbLayout
  3
AutoCAD 2000
 90
0
 91
0
280
0
281
0
  0
ENDSEC
  0
SECTION
  2
TABLES
  0
TABLE
  2
VPORT
  5
8
100
AcDbSymbolTable
 70
2
  0
VPORT
  5
1F4
100
AcDbSymbolTableRecord
100
AcDbViewportTableRecord
  2
*ACTIVE
 70
0
 10
0.0
 20
0.0
 11
1.0
 21
1.0
 12
148.5
 22
105.0
 13
0.0
 23
0.0
 14
1.0
 24
1.0
 15
0.0
 25
0.0
 16
0.0
 26
0.0
 36
1.0
 17
0.0
 27
0.0
 37
0.0
 40
210.0
 41
1.4142857143
 42
50.0
 43
0.0
 44
0.0
 50
0.0
 51
0.0
 71
0
 72
100
 73
1
 74
1
 75
0
 76
0
 77
0
 78
0
  0
ENDTAB
  0
TABLE
  2
LTYPE
  5
5
100
AcDbSymbolTable
 70
6
  0
LTYPE
  5
14
100
AcDbSymbolTableRecord
100
AcDbLinetypeTableRecord
  2
BYBLOCK
 70
0
  3

 72
65
 73
0
 40
0.0
  0
LTYPE
  5
15
100
AcDbSymbolTableRecord
100
AcDbLinetypeTableRecord
  2
BYLAYER
 70
0
  3

 72
65
 73
0
 40
0.0
  0
LTYPE
  5
16
100
AcDbSymbolTableRecord
100
AcDbLinetypeTableRecord
  2
CONTINUOUS
 70
64
  3
Solid line
 72
65
 73
0
 40
0.0
  0
LTYPE
  5
1F5
100
AcDbSymbolTableRecord
100
AcDbLinetypeTableRecord
  2
CENTER
 70
64
  3
____ _ ____ _ ____ _ ____ _ ____ _ ____ _ ____
 72
65
 73
4
 40
0.6
 49
0.375
 74
0
 49
-0.075
 74
0
 49
0.075
 74
0
 49
-0.075
 74
0
  0
LTYPE
  5
1F6
100
AcDbSymbolTableRecord
100
AcDbLinetypeTableRecord
  2
HIDDEN
 70
64
  3
- - - - - - - - - - - - - - - - - - - -
 72
65
 73
2
 40
0.2
 49
0.1
 74
0
 49
-0.1
 74
0
  0
LTYPE
  5
1F7
100
AcDbSymbolTableRecord
100
AcDbLinetypeTableRecord
  2
PHANTOM
 70
64
  3
_____ _ _ _____ _ _ _____ _ _ _____
 72
65
 73
6
 40
0.8
 49
0.45
 74
0
 49
-0.05
 74
0
 49
0.1
 74
0
 49
-0.05
 74
0
 49
0.1
 74
0
 49
-0.05
 74
0
  0
LTYPE
  5
1F8
100
AcDbSymbolTableRecord
100
AcDbLinetypeTableRecord
  2
DOT
 70
64
  3
. . . . . . . . . . . . . . . . . . . .
 72
65
 73
2
 40
0.2
 49
0.1
 74
0
 49
-0.1
 74
0
  0
LTYPE
  5
1F9
100
AcDbSymbolTableRecord
100
AcDbLinetypeTableRecord
  2
DASHED
 70
64
  3
- - - - - - - - - - - - - - - - - - - -
 72
65
 73
2
 40
0.2
 49
0.1
 74
0
 49
-0.1
 74
0
  0
ENDTAB
  0
TABLE
  2
LAYER
  5
2
100
AcDbSymbolTable
 70
36
  0
LAYER
  5
10
100
AcDbSymbolTableRecord
100
AcDbLayerTableRecord
  2
0
 70
0
 62
7
  6
CONTINUOUS
370
-3
390
F
  0
LAYER
  5
1FA
100
AcDbSymbolTableRecord
100
AcDbLayerTableRecord
  2
DEFAULT_1
 70
0
 62
7
  6
CENTER
370
-3
390
F
  0
LAYER
  5
1FB
100
AcDbSymbolTableRecord
100
AcDbLayerTableRecord
  2
DEFAULT_2
 70
0
 62
7
  6
HIDDEN
370
-3
390
F
  0
LAYER
  5
1FC
100
AcDbSymbolTableRecord
100
AcDbLayerTableRecord
  2
DEFAULT_3
 70
0
 62
7
  6
PHANTOM
370
-3
390
F
  0
LAYER
  5
1FD
100
AcDbSymbolTableRecord
100
AcDbLayerTableRecord
  2
ASSI
 70
0
 62
7
  6
CONTINUOUS
370
-3
390
F
  0
LAYER
  5
1FE
100
AcDbSymbolTableRecord
100
AcDbLayerTableRecord
  2
BASE_V3-H1_1
 70
0
 62
7
  6
CONTINUOUS
370
-3
390
F
  0
LAYER
  5
1FF
100
AcDbSymbolTableRecord
100
AcDbLayerTableRecord
  2
BASE_V3-H2_1
 70
0
 62
7
  6
CONTINUOUS
370
-3
390
F
  0
LAYER
  5
200
100
AcDbSymbolTableRecord
100
AcDbLayerTableRecord
  2
BASE_V3-H3_1
 70
0
 62
7
  6
CONTINUOUS
370
-3
390
F
  0
LAYER
  5
201
100
AcDbSymbolTableRecord
100
AcDbLayerTableRecord
  2
BATTERY_AA_2_1
 70
0
 62
7
  6
CONTINUOUS
370
-3
390
F
  0
LAYER
  5
202
100
AcDbSymbolTableRecord
100
AcDbLayerTableRecord
  2
BATTERY_AA_CLIP_2_002
 70
0
 62
7
  6
CONTINUOUS
370
-3
390
F
  0
LAYER
  5
203
100
AcDbSymbolTableRecord
100
AcDbLayerTableRecord
  2
BATTERY_AA_CLIP_2_002_1
 70
0
 62
7
  6
CONTINUOUS
370
-3
390
F
  0
LAYER
  5
204
100
AcDbSymbolTableRecord
100
AcDbLayerTableRecord
  2
COLOR41
 70
0
 62
7
  6
CONTINUOUS
370
-3
390
F
  0
LAYER
  5
205
100
AcDbSymbolTableRecord
100
AcDbLayerTableRecord
  2
COLOR47
 70
0
 62
7
  6
CONTINUOUS
370
-3
390
F
  0
LAYER
  5
206
100
AcDbSymbolTableRecord
100
AcDbLayerTableRecord
  2
COLOR48
 70
0
 62
7
  6
CONTINUOUS
370
-3
390
F
  0
LAYER
  5
207
100
AcDbSymbolTableRecord
100
AcDbLayerTableRecord
  2
COLOR49
 70
0
 62
7
  6
CONTINUOUS
370
-3
390
F
  0
LAYER
  5
208
100
AcDbSymbolTableRecord
100
AcDbLayerTableRecord
  2
COLOR5
 70
0
 62
7
  6
CONTINUOUS
370
-3
390
F
  0
LAYER
  5
209
100
AcDbSymbolTableRecord
100
AcDbLayerTableRecord
  2
COLOR50
 70
0
 62
7
  6
CONTINUOUS
370
-3
390
F
  0
LAYER
  5
20A
100
AcDbSymbolTableRecord
100
AcDbLayerTableRecord
  2
COLOR51
 70
0
 62
7
  6
CONTINUOUS
370
-3
390
F
  0
LAYER
  5
20B
100
AcDbSymbolTableRecord
100
AcDbLayerTableRecord
  2
COLOR52
 70
0
 62
7
  6
CONTINUOUS
370
-3
390
F
  0
LAYER
  5
20C
100
AcDbSymbolTableRecord
100
AcDbLayerTableRecord
  2
COLOR55
 70
0
 62
7
  6
CONTINUOUS
370
-3
390
F
  0
LAYER
  5
20D
100
AcDbSymbolTableRecord
100
AcDbLayerTableRecord
  2
COLOR56
 70
0
 62
7
  6
CONTINUOUS
370
-3
390
F
  0
LAYER
  5
20E
100
AcDbSymbolTableRecord
100
AcDbLayerTableRecord
  2
COLOR58
 70
0
 62
7
  6
CONTINUOUS
370
-3
390
F
  0
LAYER
  5
20F
100
AcDbSymbolTableRecord
100
AcDbLayerTableRecord
  2
COLOR59
 70
0
 62
7
  6
CONTINUOUS
370
-3
390
F
  0
LAYER
  5
210
100
AcDbSymbolTableRecord
100
AcDbLayerTableRecord
  2
COLOR60
 70
0
 62
7
  6
CONTINUOUS
370
-3
390
F
  0
LAYER
  5
211
100
AcDbSymbolTableRecord
100
AcDbLayerTableRecord
  2
COLOR61
 70
0
 62
7
  6
CONTINUOUS
370
-3
390
F
  0
LAYER
  5
212
100
AcDbSymbolTableRecord
100
AcDbLayerTableRecord
  2
COLOR62
 70
0
 62
7
  6
CONTINUOUS
370
-3
390
F
  0
LAYER
  5
213
100
AcDbSymbolTableRecord
100
AcDbLayerTableRecord
  2
COLOR63
 70
0
 62
7
  6
CONTINUOUS
370
-3
390
F
  0
LAYER
  5
214
100
AcDbSymbolTableRecord
100
AcDbLayerTableRecord
  2
COLOR64
 70
0
 62
7
  6
CONTINUOUS
370
-3
390
F
  0
LAYER
  5
215
100
AcDbSymbolTableRecord
100
AcDbLayerTableRecord
  2
COLOR65
 70
0
 62
7
  6
CONTINUOUS
370
-3
390
F
  0
LAYER
  5
216
100
AcDbSymbolTableRecord
100
AcDbLayerTableRecord
  2
COLOR67
 70
0
 62
7
  6
CONTINUOUS
370
-3
390
F
  0
LAYER
  5
217
100
AcDbSymbolTableRecord
100
AcDbLayerTableRecord
  2
COLOR68
 70
0
 62
7
  6
CONTINUOUS
370
-3
390
F
  0
LAYER
  5
218
100
AcDbSymbolTableRecord
100
AcDbLayerTableRecord
  2
COLOR69
 70
0
 62
7
  6
CONTINUOUS
370
-3
390
F
  0
LAYER
  5
219
100
AcDbSymbolTableRecord
100
AcDbLayerTableRecord
  2
COLOR70
 70
0
 62
7
  6
CONTINUOUS
370
-3
390
F
  0
LAYER
  5
21A
100
AcDbSymbolTableRecord
100
AcDbLayerTableRecord
  2
COLOR71
 70
0
 62
7
  6
CONTINUOUS
370
-3
390
F
  0
LAYER
  5
21B
100
AcDbSymbolTableRecord
100
AcDbLayerTableRecord
  2
COLOR72
 70
0
 62
7
  6
CONTINUOUS
370
-3
390
F
  0
LAYER
  5
21C
100
AcDbSymbolTableRecord
100
AcDbLayerTableRecord
  2
COLOR73
 70
0
 62
7
  6
CONTINUOUS
370
-3
390
F
  0
LAYER
  5
21D
100
AcDbSymbolTableRecord
100
AcDbLayerTableRecord
  2
COLOR74
 70
0
 62
7
  6
CONTINUOUS
370
-3
390
F
  0
LAYER
  5
21E
100
AcDbSymbolTableRecord
100
AcDbLayerTableRecord
  2
COLOR76
 70
0
 62
7
  6
CONTINUOUS
370
-3
390
F
  0
LAYER
  5
21F
100
AcDbSymbolTableRecord
100
AcDbLayerTableRecord
  2
COLOR77
 70
0
 62
7
  6
CONTINUOUS
370
-3
390
F
  0
LAYER
  5
220
100
AcDbSymbolTableRecord
100
AcDbLayerTableRecord
  2
COLOR78
 70
0
 62
7
  6
CONTINUOUS
370
-3
390
F
  0
LAYER
  5
221
100
AcDbSymbolTableRecord
100
AcDbLayerTableRecord
  2
COORDINATE
 70
0
 62
7
  6
CONTINUOUS
370
-3
390
F
  0
LAYER
  5
222
100
AcDbSymbolTableRecord
100
AcDbLayerTableRecord
  2
COPY_PUBLISH
 70
0
 62
7
  6
CONTINUOUS
370
-3
390
F
  0
LAYER
  5
223
100
AcDbSymbolTableRecord
100
AcDbLayerTableRecord
  2
COSMETICI
 70
0
 62
7
  6
CONTINUOUS
370
-3
390
F
  0
LAYER
  5
224
100
AcDbSymbolTableRecord
100
AcDbLayerTableRecord
  2
COVER_V3_1
 70
0
 62
7
  6
CONTINUOUS
370
-3
390
F
  0
LAYER
  5
225
100
AcDbSymbolTableRecord
100
AcDbLayerTableRecord
  2
CURVE
 70
0
 62
7
  6
CONTINUOUS
370
-3
390
F
  0
LAYER
  5
226
100
AcDbSymbolTableRecord
100
AcDbLayerTableRecord
  2
DRAFT
 70
0
 62
7
  6
CONTINUOUS
370
-3
390
F
  0
LAYER
  5
227
100
AcDbSymbolTableRecord
100
AcDbLayerTableRecord
  2
IMPORT_IGES
 70
0
 62
7
  6
CONTINUOUS
370
-3
390
F
  0
LAYER
  5
228
100
AcDbSymbolTableRecord
100
AcDbLayerTableRecord
  2
INTF_GREEN
 70
0
 62
7
  6
CONTINUOUS
370
-3
390
F
  0
LAYER
  5
229
100
AcDbSymbolTableRecord
100
AcDbLayerTableRecord
  2
MAGNETE_TONDO_1
 70
0
 62
7
  6
CONTINUOUS
370
-3
390
F
  0
LAYER
  5
22A
100
AcDbSymbolTableRecord
100
AcDbLayerTableRecord
  2
MB_PCB_LUNGO_2_1
 70
0
 62
7
  6
CONTINUOUS
370
-3
390
F
  0
LAYER
  5
22B
100
AcDbSymbolTableRecord
100
AcDbLayerTableRecord
  2
MB_PCB_LUNGO_ASM_2_ASM
 70
0
 62
7
  6
CONTINUOUS
370
-3
390
F
  0
LAYER
  5
22C
100
AcDbSymbolTableRecord
100
AcDbLayerTableRecord
  2
MC300-ASM_PCB_ASM_3_ASM
 70
0
 62
7
  6
CONTINUOUS
370
-3
390
F
  0
LAYER
  5
22D
100
AcDbSymbolTableRecord
100
AcDbLayerTableRecord
  2
MC300-BASE_33
 70
0
 62
7
  6
CONTINUOUS
370
-3
390
F
  0
LAYER
  5
22E
100
AcDbSymbolTableRecord
100
AcDbLayerTableRecord
  2
MC300-COVER_25_2
 70
0
 62
7
  6
CONTINUOUS
370
-3
390
F
  0
LAYER
  5
22F
100
AcDbSymbolTableRecord
100
AcDbLayerTableRecord
  2
MC300-TEST_BUTTON_1_1
 70
0
 62
7
  6
CONTINUOUS
370
-3
390
F
  0
LAYER
  5
230
100
AcDbSymbolTableRecord
100
AcDbLayerTableRecord
  2
MC300_ASM
 70
0
 62
7
  6
CONTINUOUS
370
-3
390
F
  0
LAYER
  5
231
100
AcDbSymbolTableRecord
100
AcDbLayerTableRecord
  2
MC300_ASM_18_ASM
 70
0
 62
7
  6
CONTINUOUS
370
-3
390
F
  0
LAYER
  5
232
100
AcDbSymbolTableRecord
100
AcDbLayerTableRecord
  2
MC300_MAGNATIC_CONTACT-V3_ASM_6
 70
0
 62
7
  6
CONTINUOUS
370
-3
390
F
  0
LAYER
  5
233
100
AcDbSymbolTableRecord
100
AcDbLayerTableRecord
  2
NOTE
 70
0
 62
7
  6
CONTINUOUS
370
-3
390
F
  0
LAYER
  5
234
100
AcDbSymbolTableRecord
100
AcDbLayerTableRecord
  2
PCB_MC300_LUNGO_ASM_4_ASM
 70
0
 62
7
  6
CONTINUOUS
370
-3
390
F
  0
LAYER
  5
235
100
AcDbSymbolTableRecord
100
AcDbLayerTableRecord
  2
PIANI
 70
0
 62
7
  6
CONTINUOUS
370
-3
390
F
  0
LAYER
  5
236
100
AcDbSymbolTableRecord
100
AcDbLayerTableRecord
  2
PUNTI
 70
0
 62
7
  6
CONTINUOUS
370
-3
390
F
  0
LAYER
  5
237
100
AcDbSymbolTableRecord
100
AcDbLayerTableRecord
  2
RACCORDO
 70
0
 62
7
  6
CONTINUOUS
370
-3
390
F
  0
LAYER
  5
238
100
AcDbSymbolTableRecord
100
AcDbLayerTableRecord
  2
REED_SWITCH_MD-SM10_2_002
 70
0
 62
7
  6
CONTINUOUS
370
-3
390
F
  0
LAYER
  5
239
100
AcDbSymbolTableRecord
100
AcDbLayerTableRecord
  2
REED_SWITCH_MD-SM10_2_002_1
 70
0
 62
7
  6
CONTINUOUS
370
-3
390
F
  0
LAYER
  5
23A
100
AcDbSymbolTableRecord
100
AcDbLayerTableRecord
  2
SCREW_2_2X4_5_2_005
 70
0
 62
7
  6
CONTINUOUS
370
-3
390
F
  0
LAYER
  5
23B
100
AcDbSymbolTableRecord
100
AcDbLayerTableRecord
  2
SCREW_2_2X4_5_2_005_1
 70
0
 62
7
  6
CONTINUOUS
370
-3
390
F
  0
LAYER
  5
23C
100
AcDbSymbolTableRecord
100
AcDbLayerTableRecord
  2
SCREW_2_2X4_5_2_005_2
 70
0
 62
7
  6
CONTINUOUS
370
-3
390
F
  0
LAYER
  5
23D
100
AcDbSymbolTableRecord
100
AcDbLayerTableRecord
  2
SCREW_2_2X4_5_2_005_3
 70
0
 62
7
  6
CONTINUOUS
370
-3
390
F
  0
LAYER
  5
23E
100
AcDbSymbolTableRecord
100
AcDbLayerTableRecord
  2
SCREW_2_2X4_5_2_005_4
 70
0
 62
7
  6
CONTINUOUS
370
-3
390
F
  0
LAYER
  5
23F
100
AcDbSymbolTableRecord
100
AcDbLayerTableRecord
  2
SCREW_2_2X6_5_1_1
 70
0
 62
7
  6
CONTINUOUS
370
-3
390
F
  0
LAYER
  5
240
100
AcDbSymbolTableRecord
100
AcDbLayerTableRecord
  2
SIMBOLI
 70
0
 62
7
  6
CONTINUOUS
370
-3
390
F
  0
LAYER
  5
241
100
AcDbSymbolTableRecord
100
AcDbLayerTableRecord
  2
SMUSSO
 70
0
 62
7
  6
CONTINUOUS
370
-3
390
F
  0
LAYER
  5
242
100
AcDbSymbolTableRecord
100
AcDbLayerTableRecord
  2
SNAPLINE
 70
0
 62
7
  6
CONTINUOUS
370
-3
390
F
  0
LAYER
  5
243
100
AcDbSymbolTableRecord
100
AcDbLayerTableRecord
  2
STRIP_F_04_2_1_1
 70
0
 62
7
  6
CONTINUOUS
370
-3
390
F
  0
LAYER
  5
244
100
AcDbSymbolTableRecord
100
AcDbLayerTableRecord
  2
STRIP_F_04_2_2_1
 70
0
 62
7
  6
CONTINUOUS
370
-3
390
F
  0
LAYER
  5
245
100
AcDbSymbolTableRecord
100
AcDbLayerTableRecord
  2
STRIP_F_04_2_3_1
 70
0
 62
7
  6
CONTINUOUS
370
-3
390
F
  0
LAYER
  5
246
100
AcDbSymbolTableRecord
100
AcDbLayerTableRecord
  2
STRIP_F_04_2_4_1
 70
0
 62
7
  6
CONTINUOUS
370
-3
390
F
  0
LAYER
  5
247
100
AcDbSymbolTableRecord
100
AcDbLayerTableRecord
  2
STRIP_F_04_2_5_1
 70
0
 62
7
  6
CONTINUOUS
370
-3
390
F
  0
LAYER
  5
248
100
AcDbSymbolTableRecord
100
AcDbLayerTableRecord
  2
STRIP_F_04_2_ASM_ASM_1_ASM
 70
0
 62
7
  6
CONTINUOUS
370
-3
390
F
  0
LAYER
  5
249
100
AcDbSymbolTableRecord
100
AcDbLayerTableRecord
  2
STRIP_M_04_ASM_1_ASM_ASM_1_ASM
 70
0
 62
7
  6
CONTINUOUS
370
-3
390
F
  0
LAYER
  5
24A
100
AcDbSymbolTableRecord
100
AcDbLayerTableRecord
  2
SUPERFICI
 70
0
 62
7
  6
CONTINUOUS
370
-3
390
F
  0
LAYER
  5
24B
100
AcDbSymbolTableRecord
100
AcDbLayerTableRecord
  2
SWITCH_SKQYAB_2_1
 70
0
 62
7
  6
CONTINUOUS
370
-3
390
F
  0
LAYER
  5
24C
100
AcDbSymbolTableRecord
100
AcDbLayerTableRecord
  2
TB_PCB_2_3
 70
0
 62
7
  6
CONTINUOUS
370
-3
390
F
  0
LAYER
  5
24D
100
AcDbSymbolTableRecord
100
AcDbLayerTableRecord
  2
TB_PCB_ASM_2_ASM
 70
0
 62
7
  6
CONTINUOUS
370
-3
390
F
  0
LAYER
  5
24E
100
AcDbSymbolTableRecord
100
AcDbLayerTableRecord
  2
TERMINAL_BLOCK_3P_2_1
 70
0
 62
7
  6
CONTINUOUS
370
-3
390
F
  0
LAYER
  5
24F
100
AcDbSymbolTableRecord
100
AcDbLayerTableRecord
  2
TRASH
 70
0
 62
7
  6
CONTINUOUS
370
-3
390
F
  0
LAYER
  5
250
100
AcDbSymbolTableRecord
100
AcDbLayerTableRecord
  2
USER_LIBRARY-STRIPM04_352-71792
 70
0
 62
7
  6
CONTINUOUS
370
-3
390
F
  0
LAYER
  5
251
100
AcDbSymbolTableRecord
100
AcDbLayerTableRecord
  2
USER_LIBRARY-STRIPM04_352-72164
 70
0
 62
7
  6
CONTINUOUS
370
-3
390
F
  0
LAYER
  5
252
100
AcDbSymbolTableRecord
100
AcDbLayerTableRecord
  2
USER_LIBRARY-STRIPM04_352-72192
 70
0
 62
7
  6
CONTINUOUS
370
-3
390
F
  0
LAYER
  5
253
100
AcDbSymbolTableRecord
100
AcDbLayerTableRecord
  2
USER_LIBRARY-STRIPM04_352-72220
 70
0
 62
7
  6
CONTINUOUS
370
-3
390
F
  0
LAYER
  5
254
100
AcDbSymbolTableRecord
100
AcDbLayerTableRecord
  2
USER_LIBRARY-STRIPM04_352-72904
 70
0
 62
7
  6
CONTINUOUS
370
-3
390
F
  0
LAYER
  5
255
100
AcDbSymbolTableRecord
100
AcDbLayerTableRecord
  2
USER_LIBRARY-STRIPM04_352-72932
 70
0
 62
7
  6
CONTINUOUS
370
-3
390
F
  0
LAYER
  5
256
100
AcDbSymbolTableRecord
100
AcDbLayerTableRecord
  2
USER_LIBRARY-STRIPM04_352-72960
 70
0
 62
7
  6
CONTINUOUS
370
-3
390
F
  0
LAYER
  5
257
100
AcDbSymbolTableRecord
100
AcDbLayerTableRecord
  2
USER_LIBRARY-STRIPM04_352-72988
 70
0
 62
7
  6
CONTINUOUS
370
-3
390
F
  0
LAYER
  5
258
100
AcDbSymbolTableRecord
100
AcDbLayerTableRecord
  2
USER_LIBRARY-STRIPM04_EXTRUDED0
 70
0
 62
7
  6
CONTINUOUS
370
-3
390
F
  0
LAYER
  5
259
100
AcDbSymbolTableRecord
100
AcDbLayerTableRecord
  2
USER_LIBRARY-STRIPM04_EXTRUDED_
 70
0
 62
7
  6
CONTINUOUS
370
-3
390
F
  0
LAYER
  5
25A
100
AcDbSymbolTableRecord
100
AcDbLayerTableRecord
  2
USER_LIBRARY-STRIPM04_EXTRUDE_1
 70
0
 62
7
  6
CONTINUOUS
370
-3
390
F
  0
LAYER
  5
25B
100
AcDbSymbolTableRecord
100
AcDbLayerTableRecord
  2
USER_LIBRARY-STRIPM04_EXTRUDE_2
 70
0
 62
7
  6
CONTINUOUS
370
-3
390
F
  0
LAYER
  5
25C
100
AcDbSymbolTableRecord
100
AcDbLayerTableRecord
  2
USER_LIBRARY-STRIPM04_EXTRUDE_3
 70
0
 62
7
  6
CONTINUOUS
370
-3
390
F
  0
LAYER
  5
25D
100
AcDbSymbolTableRecord
100
AcDbLayerTableRecord
  2
USER_LIBRARY-STRIPM04_EXTRUDE_4
 70
0
 62
7
  6
CONTINUOUS
370
-3
390
F
  0
LAYER
  5
25E
100
AcDbSymbolTableRecord
100
AcDbLayerTableRecord
  2
USER_LIBRARY-STRIPM04_EXTRUDE_5
 70
0
 62
7
  6
CONTINUOUS
370
-3
390
F
  0
LAYER
  5
25F
100
AcDbSymbolTableRecord
100
AcDbLayerTableRecord
  2
USER_LIBRARY-STRIPM04_EXTRUDE_6
 70
0
 62
7
  6
CONTINUOUS
370
-3
390
F
  0
LAYER
  5
260
100
AcDbSymbolTableRecord
100
AcDbLayerTableRecord
  2
___SHELL
 70
0
 62
7
  6
CONTINUOUS
370
-3
390
F
  0
ENDTAB
  0
TABLE
  2
STYLE
  5
3
100
AcDbSymbolTable
 70
1
  0
STYLE
  5
11
100
AcDbSymbolTableRecord
100
AcDbTextStyleTableRecord
  2
STANDARD
 70
0
 40
0.0
 41
0.8
 50
0.0
 71
0
 42
0.2
  3
txt
  4

  0
STYLE
  5
261
100
AcDbSymbolTableRecord
100
AcDbTextStyleTableRecord
  2
TEXTSTYLE_1
 70
0
 40
0.0
 41
0.8
 50
0.0
 71
0
 42
0.2
  3
gdt
  4

  0
ENDTAB
  0
TABLE
  2
VIEW
  5
6
100
AcDbSymbolTable
 70
0
  0
ENDTAB
  0
TABLE
  2
UCS
  5
7
100
AcDbSymbolTable
 70
0
  0
ENDTAB
  0
TABLE
  2
APPID
  5
9
100
AcDbSymbolTable
 70
1
  0
APPID
  5
262
100
AcDbSymbolTableRecord
100
AcDbRegAppTableRecord
  2
ACAD
 70
0
  0
ENDTAB
  0
TABLE
  2
BLOCK_RECORD
  5
1
100
AcDbSymbolTable
 70
0
  0
BLOCK_RECORD
  5
263
100
AcDbSymbolTableRecord
100
AcDbBlockTableRecord
  2
*Model_Space
  0
BLOCK_RECORD
  5
264
100
AcDbSymbolTableRecord
100
AcDbBlockTableRecord
  2
*Paper_Space
  0
BLOCK_RECORD
  5
265
100
AcDbSymbolTableRecord
100
AcDbBlockTableRecord
  2
_FILLED
  0
ENDTAB
  0
TABLE
  2
DIMSTYLE
  5
A
100
AcDbSymbolTable
 70
1
100
AcDbDimStyleTable
 71
0
  0
DIMSTYLE
105
266
100
AcDbSymbolTableRecord
100
AcDbDimStyleTableRecord
  2
STANDARD
 70
0
  3

  4

 40
1.0
 41
3.0
 42
0.5
 43
0.38
 44
1.5
 45
0.0
 46
0.0
 47
0.01
 48
0.01
140
3.0
141
0.09
142
0.0
143
25.4
144
1.0
145
0.0
146
1.0
147
0.625
 71
1
 72
0
 73
0
 74
0
 75
0
 76
0
 77
1
 78
8
 79
2
170
0
171
1
172
0
173
0
174
0
175
0
176
0
177
0
178
0
270
2
179
2
271
2
272
2
273
2
274
2
275
0
280
0
281
0
282
0
283
1
284
8
285
0
286
0
287
3
288
0
340
11
278
44
341
265
342
265
343
265
344
265
  0
ENDTAB
  0
ENDSEC
  0
SECTION
  2
BLOCKS
  0
BLOCK
  5
20
100
AcDbEntity
  8
0
100
AcDbBlockBegin
  2
*Model_Space
 70
0
 10
0.0
 20
0.0
 30
0.0
  3
*Model_Space
  1

  0
ENDBLK
  5
21
100
AcDbEntity
  8
0
100
AcDbBlockEnd
  0
BLOCK
  5
1C
100
AcDbEntity
  8
0
100
AcDbBlockBegin
  2
*Paper_Space
 70
0
 10
0.0
 20
0.0
 30
0.0
  3
*Paper_Space
  1

  0
ENDBLK
  5
1D
100
AcDbEntity
  8
0
100
AcDbBlockEnd
  0
BLOCK
  5
267
100
AcDbEntity
  8
0
100
AcDbBlockBegin
  2
_FILLED
 70
64
 10
0.0
 20
0.0
  3
_FILLED
  1

  0
SOLID
  5
268
100
AcDbEntity
  8
0
  6
BYBLOCK
 62
0
100
AcDbTrace
 10
0.0
 20
0.0
 11
-1.0
 21
0.3166666667
 12
-1.0
 22
-0.3166666667
 13
-1.0
 23
-0.3166666667
  0
ENDBLK
  5
269
100
AcDbEntity
  8
0
  6
BYBLOCK
 62
0
100
AcDbBlockEnd
  0
ENDSEC
  0
SECTION
  2
ENTITIES
  0
LWPOLYLINE
  5
26A
100
AcDbEntity
  8
IMPORT_IGES
100
AcDbPolyline
 62
7
  6
CONTINUOUS
 90
19
 70
0
 10
3.3257976475
 20
-54.4724721021
 10
3.3689925556
 20
-54.4699542291
 10
3.411265976
 20
-54.4638178277
 10
3.4526179086
 20
-54.4540628979
 10
3.4932556183
 20
-54.4406229027
 10
3.5329718403
 20
-54.4235643791
 10
3.5711447805
 20
-54.4030869379
 10
3.6079528173
 20
-54.378916128
 10
3.6432175724
 20
-54.3513264004
 10
3.6757821169
 20
-54.3213407196
 10
3.7053995215
 20
-54.289133932
 10
3.7323167154
 20
-54.2545311911
 10
3.756117558
 20
-54.2180309219
 10
3.7769192242
 20
-54.1793377345
 10
3.7946045389
 20
-54.1387470189
 10
3.8084058364
 20
-54.0976433699
 10
3.8180672278
 20
-54.056488319
 10
3.823844602
 20
-54.0148203346
 10
3.8257379587
 20
-53.9726394168
  0
LWPOLYLINE
  5
26B
100
AcDbEntity
  8
IMPORT_IGES
100
AcDbPolyline
 62
7
  6
CONTINUOUS
 90
22
 70
0
 10
19.0969215012
 20
-54.9650375911
 10
19.1725011007
 20
-54.9620859062
 10
19.2467952308
 20
-54.9537035774
 10
19.3198038914
 20
-54.9398906048
 10
19.3919117423
 20
-54.9205042993
 10
19.4627341238
 20
-54.8956873499
 10
19.5311170569
 20
-54.8658678239
 10
19.5970203449
 20
-54.830967529
 10
19.6604841847
 20
-54.7910646576
 10
19.7204751871
 20
-54.7468218533
 10
19.77693797
 20
-54.6981708806
 10
19.8299279156
 20
-54.645179975
 10
19.8785777812
 20
-54.5887164873
 10
19.9228193191
 20
-54.5287250526
 10
19.962720777
 20
-54.4652610356
 10
19.9976196553
 20
-54.3993578814
 10
20.0274376828
 20
-54.330975414
 10
20.0522531306
 20
-54.2601538092
 10
20.0716383123
 20
-54.1880470402
 10
20.0854506657
 20
-54.1150397646
 10
20.0938327529
 20
-54.0407473247
 10
20.096784574
 20
-53.9651697205
  0
LWPOLYLINE
  5
26C
100
AcDbEntity
  8
IMPORT_IGES
100
AcDbPolyline
 62
250
  6
CONTINUOUS
 90
22
 70
0
 10
3.5316493189
 20
-55.085616488
 10
3.6066356957
 20
-55.0827574417
 10
3.6805729537
 20
-55.0743737862
 10
3.7530671299
 20
-55.0606523745
 10
3.8235137882
 20
-55.0418776756
 10
3.8918171393
 20
-55.0182464665
 10
3.9583327936
 20
-54.9896964958
 10
4.0228466799
 20
-54.9562754208
 10
4.0848538384
 20
-54.9181989635
 10
4.144206682
 20
-54.8754996743
 10
4.2005282224
 20
-54.8283574092
 10
4.2534821974
 20
-54.7769564712
 10
4.3029202832
 20
-54.7212862974
 10
4.3485976904
 20
-54.6613626312
 10
4.3899719398
 20
-54.5976096792
 10
4.4264945671
 20
-54.5306864994
 10
4.4578615486
 20
-54.4610644244
 10
4.4839001572
 20
-54.3890265697
 10
4.5043914212
 20
-54.3150394914
 10
4.5191726219
 20
-54.2395497427
 10
4.5281233582
 20
-54.1629759888
 10
4.5311504312
 20
-54.0857687904
  0
LWPOLYLINE
  5
26D
100
AcDbEntity
  8
IMPORT_IGES
100
AcDbPolyline
 62
7
  6
CONTINUOUS
 90
9
 70
0
 10
-5.3249116768
 20
-54.8312336293
 10
-5.2623533317
 20
-54.8289679082
 10
-5.2075048594
 20
-54.8266507322
 10
-5.1604403496
 20
-54.8242815848
 10
-5.1210857125
 20
-54.8218609825
 10
-5.0898393301
 20
-54.8194126354
 10
-5.0668339966
 20
-54.8169444471
 10
-5.0519369179
 20
-54.8144485141
 10
-5.0451480939
 20
-54.8119248363
  0
LINE
  5
26E
100
AcDbEntity
  8
IMPORT_IGES
100
AcDbLine
 62
7
  6
CONTINUOUS
 10
-5.3249176213
 20
-55.0275309323
 11
-5.4713728415
 21
-55.0318408268
  0
LINE
  5
26F
100
AcDbEntity
  8
IMPORT_IGES
100
AcDbLine
 62
7
  6
CONTINUOUS
 10
-5.4713647833
 20
-54.8355435146
 11
-5.3249116768
 21
-54.8312336293
  0
LINE
  5
270
100
AcDbEntity
  8
IMPORT_IGES
100
AcDbLine
 62
7
  6
CONTINUOUS
 10
-5.4713728415
 20
-55.0318408268
 11
-5.6454265726
 21
-55.0358355009
  0
LINE
  5
271
100
AcDbEntity
  8
IMPORT_IGES
100
AcDbLine
 62
7
  6
CONTINUOUS
 10
-5.6454166215
 20
-54.8395381949
 11
-5.4713647833
 21
-54.8355435146
  0
LINE
  5
272
100
AcDbEntity
  8
IMPORT_IGES
100
AcDbLine
 62
7
  6
CONTINUOUS
 10
-5.6454265726
 20
-55.0358355009
 11
-5.9526466488
 21
-55.0411050947
  0
LINE
  5
273
100
AcDbEntity
  8
IMPORT_IGES
100
AcDbLine
 62
7
  6
CONTINUOUS
 10
-5.9526348374
 20
-54.8448078213
 11
-5.6454166215
 21
-54.8395381949
  0
LINE
  5
274
100
AcDbEntity
  8
IMPORT_IGES
100
AcDbLine
 62
7
  6
CONTINUOUS
 10
-5.9526466488
 20
-55.0411050947
 11
-6.4339282924
 21
-55.0465533946
  0
LINE
  5
275
100
AcDbEntity
  8
IMPORT_IGES
100
AcDbLine
 62
7
  6
CONTINUOUS
 10
-6.4339166942
 20
-54.8502561909
 11
-5.9526348374
 21
-54.8448078213
  0
LINE
  5
276
100
AcDbEntity
  8
IMPORT_IGES
100
AcDbLine
 62
7
  6
CONTINUOUS
 10
-6.4339282924
 20
-55.0465533946
 11
-6.9743177566
 21
-55.0499466964
  0
LINE
  5
277
100
AcDbEntity
  8
IMPORT_IGES
100
AcDbLine
 62
7
  6
CONTINUOUS
 10
-6.9743101242
 20
-54.8536495383
 11
-6.4339166942
 21
-54.8502561909
  0
LINE
  5
278
100
AcDbEntity
  8
IMPORT_IGES
100
AcDbLine
 62
7
  6
CONTINUOUS
 10
3.5621172501
 20
-55.1156823408
 11
-20.238175109
 21
-55.1156823408
  0
LINE
  5
279
100
AcDbEntity
  8
IMPORT_IGES
100
AcDbLine
 62
7
  6
CONTINUOUS
 10
-6.9743177566
 20
-55.0499466964
 11
-9.1313268678
 21
-55.0510986597
  0
LINE
  5
27A
100
AcDbEntity
  8
IMPORT_IGES
100
AcDbLine
 62
250
  6
CONTINUOUS
 10
3.3257460053
 20
-54.9723984387
 11
-5.0093246386
 21
-54.9723984842
  0
LINE
  5
27B
100
AcDbEntity
  8
IMPORT_IGES
100
AcDbLine
 62
250
  6
CONTINUOUS
 10
-11.6667248637
 20
-54.972398492
 11
-20.0018022707
 21
-54.9723984914
  0
LINE
  5
27C
100
AcDbEntity
  8
IMPORT_IGES
100
AcDbLine
 62
7
  6
CONTINUOUS
 10
8.227039129
 20
-54.9650395765
 11
19.0969215011
 21
-54.9650395758
  0
LINE
  5
27D
100
AcDbEntity
  8
IMPORT_IGES
100
AcDbLine
 62
7
  6
CONTINUOUS
 10
-5.0024528117
 20
-54.7692295542
 11
-11.6735966992
 21
-54.7692295542
  0
LINE
  5
27E
100
AcDbEntity
  8
IMPORT_IGES
100
AcDbLine
 62
250
  6
CONTINUOUS
 10
-20.0018663729
 20
-54.4724721016
 11
3.3257976475
 21
-54.4724721021
  0
LINE
  5
27F
100
AcDbEntity
  8
IMPORT_IGES
100
AcDbLine
 62
7
  6
CONTINUOUS
 10
-9.2759724137
 20
-54.8547270349
 11
-6.9743101242
 21
-54.8536495383
  0
LINE
  5
280
100
AcDbEntity
  8
IMPORT_IGES
100
AcDbLine
 62
7
  6
CONTINUOUS
 10
-9.1313268683
 20
-55.0510988153
 11
-9.8410421978
 21
-55.0493022663
  0
LINE
  5
281
100
AcDbEntity
  8
IMPORT_IGES
100
AcDbLine
 62
7
  6
CONTINUOUS
 10
-9.9775490903
 20
-54.8522252994
 11
-9.2759724137
 21
-54.8547270349
  0
LINE
  5
282
100
AcDbEntity
  8
IMPORT_IGES
100
AcDbLine
 62
7
  6
CONTINUOUS
 10
-9.8410421978
 20
-55.0493022663
 11
-10.3688921886
 21
-55.045376297
  0
LINE
  5
283
100
AcDbEntity
  8
IMPORT_IGES
100
AcDbLine
 62
7
  6
CONTINUOUS
 10
-10.4915255394
 20
-54.8477759644
 11
-9.9775490903
 21
-54.8522252994
  0
LINE
  5
284
100
AcDbEntity
  8
IMPORT_IGES
100
AcDbLine
 62
7
  6
CONTINUOUS
 10
-10.3688921886
 20
-55.045376297
 11
-10.7234013841
 21
-55.041105116
  0
LINE
  5
285
100
AcDbEntity
  8
IMPORT_IGES
100
AcDbLine
 62
7
  6
CONTINUOUS
 10
-10.831383885
 20
-54.8431568897
 11
-10.4915255394
 21
-54.8477759644
  0
LINE
  5
286
100
AcDbEntity
  8
IMPORT_IGES
100
AcDbLine
 62
7
  6
CONTINUOUS
 10
-10.7234013841
 20
-55.041105116
 11
-11.0306241625
 21
-55.0358354759
  0
LINE
  5
287
100
AcDbEntity
  8
IMPORT_IGES
100
AcDbLine
 62
7
  6
CONTINUOUS
 10
-11.0306101411
 20
-54.8395386588
 11
-10.831383885
 21
-54.8431568897
  0
LINE
  5
288
100
AcDbEntity
  8
IMPORT_IGES
100
AcDbLine
 62
7
  6
CONTINUOUS
 10
-11.0306241625
 20
-55.0358354759
 11
-11.2046785627
 21
-55.0318407777
  0
LINE
  5
289
100
AcDbEntity
  8
IMPORT_IGES
100
AcDbLine
 62
7
  6
CONTINUOUS
 10
-11.2046665598
 20
-54.8355439857
 11
-11.0306101411
 21
-54.8395386588
  0
LWPOLYLINE
  5
28A
100
AcDbEntity
  8
IMPORT_IGES
100
AcDbPolyline
 62
7
  6
CONTINUOUS
 90
10
 70
0
 10
-11.2046785627
 20
-55.0318407777
 10
-11.351133914
 20
-55.027530864
 10
-11.4136932699
 20
-55.0252651244
 10
-11.4685426089
 20
-55.0229479292
 10
-11.5156078272
 20
-55.0205787547
 10
-11.5549630285
 20
-55.0181581245
 10
-11.5862098107
 20
-55.0157097721
 10
-11.6092153732
 20
-55.0132416087
 10
-11.6241125168
 20
-55.010745723
 10
-11.6309012412
 20
-55.0082221152
  0
LWPOLYLINE
  5
28B
100
AcDbEntity
  8
IMPORT_IGES
100
AcDbPolyline
 62
7
  6
CONTINUOUS
 90
22
 70
0
 10
-20.238175109
 20
-55.1156823407
 10
-20.3137552723
 20
-55.112728751
 10
-20.3880499649
 20
-55.1043446065
 10
-20.4610591867
 20
-55.0905299071
 10
-20.5331676833
 20
-55.0711419985
 10
-20.6039907091
 20
-55.0463235351
 10
-20.6723740271
 20
-55.0165024799
 10
-20.7382773294
 20
-54.9816005889
 10
-20.8017409238
 20
-54.9416961061
 10
-20.8617314963
 20
-54.8974517276
 10
-20.9181936557
 20
-54.8487992673
 10
-20.9711827933
 20
-54.7958069112
 10
-21.0198317686
 20
-54.7393419131
 10
-21.0640723851
 20
-54.6793488967
 10
-21.1039728394
 20
-54.6158832383
 10
-21.138870581
 20
-54.5499783213
 10
-21.1686873603
 20
-54.4815938553
 10
-21.1935014269
 20
-54.4107701306
 10
-21.2128849799
 20
-54.3386614016
 10
-21.2266954187
 20
-54.2656524195
 10
-21.2350753437
 20
-54.191358433
 10
-21.2380247551
 20
-54.1157794421
  0
LWPOLYLINE
  5
28C
100
AcDbEntity
  8
IMPORT_IGES
100
AcDbPolyline
 62
7
  6
CONTINUOUS
 90
10
 70
0
 10
-11.6309012412
 20
-54.8119250121
 10
-11.6241115518
 20
-54.8144487424
 10
-11.6092133601
 20
-54.816944723
 10
-11.5862066661
 20
-54.8194129541
 10
-11.5549586377
 20
-54.8218613392
 10
-11.515602107
 20
-54.8242819747
 10
-11.4685355703
 20
-54.8266511497
 10
-11.4136849366
 20
-54.8289683476
 10
-11.351124297
 20
-54.831234085
 10
-11.2046665598
 20
-54.8355439857
  0
LWPOLYLINE
  5
28D
100
AcDbEntity
  8
IMPORT_IGES
100
AcDbPolyline
 62
7
  6
CONTINUOUS
 90
5
 70
0
 10
-9.5380029333
 20
52.7952956743
 10
-9.5351106083
 20
52.7967403055
 10
-9.5266978792
 20
52.7981657232
 10
-9.5127647461
 20
52.7995719274
 10
-9.4933112089
 20
52.8009589181
  0
LINE
  5
28E
100
AcDbEntity
  8
IMPORT_IGES
100
AcDbLine
 62
250
  6
CONTINUOUS
 10
-20.9915207392
 20
-53.9726933253
 11
-21.0015336053
 21
-53.9727290469
  0
LINE
  5
28F
100
AcDbEntity
  8
IMPORT_IGES
100
AcDbLine
 62
7
  6
CONTINUOUS
 10
-3.1111591495
 20
-54.0675261733
 11
-13.5648903614
 21
-54.0675261733
  0
LINE
  5
290
100
AcDbEntity
  8
IMPORT_IGES
100
AcDbLine
 62
7
  6
CONTINUOUS
 10
-3.2630182144
 20
-53.9156671084
 11
-13.4130312965
 21
-53.9156671084
  0
LINE
  5
291
100
AcDbEntity
  8
IMPORT_IGES
100
AcDbLine
 62
7
  6
CONTINUOUS
 10
-13.3620303394
 20
-53.8646661513
 11
-13.0568773758
 21
-53.8646661513
  0
LINE
  5
292
100
AcDbEntity
  8
IMPORT_IGES
100
AcDbLine
 62
7
  6
CONTINUOUS
 10
-3.6191721831
 20
-53.8646661513
 11
-3.3140191716
 21
-53.8646661513
  0
LINE
  5
293
100
AcDbEntity
  8
IMPORT_IGES
100
AcDbLine
 62
7
  6
CONTINUOUS
 10
18.3698687307
 20
-53.2381237348
 11
16.9119810745
 21
-53.2381237348
  0
LINE
  5
294
100
AcDbEntity
  8
IMPORT_IGES
100
AcDbLine
 62
7
  6
CONTINUOUS
 10
10.4119810745
 20
-53.2381237348
 11
8.9540934184
 21
-53.2381237348
  0
LINE
  5
295
100
AcDbEntity
  8
IMPORT_IGES
100
AcDbLine
 62
7
  6
CONTINUOUS
 10
-13.3745847692
 20
-53.1454233481
 11
-13.0443638659
 21
-53.1454233481
  0
LINE
  5
296
100
AcDbEntity
  8
IMPORT_IGES
100
AcDbLine
 62
7
  6
CONTINUOUS
 10
-3.6316856611
 20
-53.1454233481
 11
-3.3014647417
 21
-53.1454233481
  0
LINE
  5
297
100
AcDbEntity
  8
IMPORT_IGES
100
AcDbLine
 62
7
  6
CONTINUOUS
 10
18.2172750438
 20
-53.1421208777
 11
16.9172750438
 21
-53.1421208777
  0
LINE
  5
298
100
AcDbEntity
  8
IMPORT_IGES
100
AcDbLine
 62
7
  6
CONTINUOUS
 10
10.4066871052
 20
-53.1421208777
 11
9.1066871052
 21
-53.1421208777
  0
LINE
  5
299
100
AcDbEntity
  8
IMPORT_IGES
100
AcDbLine
 62
250
  6
CONTINUOUS
 10
10.3066871052
 20
-53.0668472081
 11
10.4066871052
 21
-53.0668472081
  0
LINE
  5
29A
100
AcDbEntity
  8
IMPORT_IGES
100
AcDbLine
 62
250
  6
CONTINUOUS
 10
16.9172750438
 20
-53.0668472081
 11
17.0172750438
 21
-53.0668472081
  0
LINE
  5
29B
100
AcDbEntity
  8
IMPORT_IGES
100
AcDbLine
 62
250
  6
CONTINUOUS
 10
10.3066871052
 20
-52.8312580541
 11
10.4066871052
 21
-52.8312580541
  0
LINE
  5
29C
100
AcDbEntity
  8
IMPORT_IGES
100
AcDbLine
 62
250
  6
CONTINUOUS
 10
16.9172750438
 20
-52.8312580541
 11
17.0172750438
 21
-52.8312580541
  0
LINE
  5
29D
100
AcDbEntity
  8
IMPORT_IGES
100
AcDbLine
 62
7
  6
CONTINUOUS
 10
9.1066871052
 20
-52.8044529816
 11
9.3066871052
 21
-52.8044529816
  0
LINE
  5
29E
100
AcDbEntity
  8
IMPORT_IGES
100
AcDbLine
 62
7
  6
CONTINUOUS
 10
18.0172750438
 20
-52.8044529816
 11
18.2172750438
 21
-52.8044529816
  0
LINE
  5
29F
100
AcDbEntity
  8
IMPORT_IGES
100
AcDbLine
 62
7
  6
CONTINUOUS
 10
-3.6380247555
 20
-52.7810683703
 11
-13.0380247555
 21
-52.7810683703
  0
LINE
  5
2A0
100
AcDbEntity
  8
IMPORT_IGES
100
AcDbLine
 62
7
  6
CONTINUOUS
 10
10.3066871052
 20
-52.2749025928
 11
10.4066871052
 21
-52.2749025928
  0
LINE
  5
2A1
100
AcDbEntity
  8
IMPORT_IGES
100
AcDbLine
 62
7
  6
CONTINUOUS
 10
16.9172750438
 20
-52.2749025928
 11
17.0172750438
 21
-52.2749025928
  0
LINE
  5
2A2
100
AcDbEntity
  8
IMPORT_IGES
100
AcDbLine
 62
7
  6
CONTINUOUS
 10
10.3066871052
 20
-51.9044529816
 11
10.4066871052
 21
-51.9044529816
  0
LINE
  5
2A3
100
AcDbEntity
  8
IMPORT_IGES
100
AcDbLine
 62
7
  6
CONTINUOUS
 10
16.9172750438
 20
-51.9044529816
 11
17.0172750438
 21
-51.9044529816
  0
LINE
  5
2A4
100
AcDbEntity
  8
IMPORT_IGES
100
AcDbLine
 62
250
  6
CONTINUOUS
 10
-20.5017870953
 20
-53.9726731124
 11
-20.9915207392
 21
-53.9726933253
  0
LWPOLYLINE
  5
2A5
100
AcDbEntity
  8
IMPORT_IGES
100
AcDbPolyline
 62
250
  6
CONTINUOUS
 90
3
 70
0
 10
3.8257379264
 20
-53.9726298334
 10
4.322574041
 20
-53.9726499633
 10
4.3256021261
 20
-53.9726660672
  0
LINE
  5
2A6
100
AcDbEntity
  8
IMPORT_IGES
100
AcDbLine
 62
7
  6
CONTINUOUS
 10
-21.208955607
 20
-54.0864250302
 11
-21.2071998768
 21
-54.0860562149
  0
LINE
  5
2A7
100
AcDbEntity
  8
IMPORT_IGES
100
AcDbLine
 62
7
  6
CONTINUOUS
 10
-13.3745847692
 20
-49.9102063227
 11
-3.3014647417
 21
-49.9102063227
  0
LINE
  5
2A8
100
AcDbEntity
  8
IMPORT_IGES
100
AcDbLine
 62
7
  6
CONTINUOUS
 10
-13.4968195959
 20
-49.787971496
 11
-3.179229915
 21
-49.787971496
  0
LINE
  5
2A9
100
AcDbEntity
  8
IMPORT_IGES
100
AcDbLine
 62
7
  6
CONTINUOUS
 10
18.2172750438
 20
-49.3044529816
 11
18.0172750438
 21
-49.3044529816
  0
LINE
  5
2AA
100
AcDbEntity
  8
IMPORT_IGES
100
AcDbLine
 62
7
  6
CONTINUOUS
 10
9.3066871052
 20
-49.3044529816
 11
9.1066871052
 21
-49.3044529816
  0
LINE
  5
2AB
100
AcDbEntity
  8
IMPORT_IGES
100
AcDbLine
 62
7
  6
CONTINUOUS
 10
9.1066871052
 20
-49.0544529816
 11
10.4066871052
 21
-49.0544529816
  0
LINE
  5
2AC
100
AcDbEntity
  8
IMPORT_IGES
100
AcDbLine
 62
7
  6
CONTINUOUS
 10
16.9172750438
 20
-49.0544529816
 11
18.2172750438
 21
-49.0544529816
  0
LINE
  5
2AD
100
AcDbEntity
  8
IMPORT_IGES
100
AcDbLine
 62
7
  6
CONTINUOUS
 10
-13.5175204631
 20
-48.2617928863
 11
-3.1530513054
 21
-48.2617928863
  0
LINE
  5
2AE
100
AcDbEntity
  8
IMPORT_IGES
100
AcDbLine
 62
250
  6
CONTINUOUS
 10
-13.5648903614
 20
-48.4843919231
 11
-13.5189662098
 21
-48.4968529507
  0
LINE
  5
2AF
100
AcDbEntity
  8
IMPORT_IGES
100
AcDbLine
 62
250
  6
CONTINUOUS
 10
-12.8373416108
 20
-45.9688246638
 11
-12.8792337666
 21
-45.9574576752
  0
LINE
  5
2B0
100
AcDbEntity
  8
IMPORT_IGES
100
AcDbLine
 62
250
  6
CONTINUOUS
 10
-3.1530513054
 20
-48.0479153624
 11
-3.1111591495
 21
-48.0592823511
  0
LINE
  5
2B1
100
AcDbEntity
  8
IMPORT_IGES
100
AcDbLine
 62
7
  6
CONTINUOUS
 10
-11.6309012412
 20
-55.0082219115
 11
-11.6667248637
 21
-54.9723984927
  0
LINE
  5
2B2
100
AcDbEntity
  8
IMPORT_IGES
100
AcDbLine
 62
7
  6
CONTINUOUS
 10
-11.6735966992
 20
-54.7692295542
 11
-11.6309012412
 21
-54.8119248112
  0
LINE
  5
2B3
100
AcDbEntity
  8
IMPORT_IGES
100
AcDbLine
 62
7
  6
CONTINUOUS
 10
-18.7988903659
 20
44.9415843216
 11
-18.7876695911
 21
44.9528051317
  0
LINE
  5
2B4
100
AcDbEntity
  8
IMPORT_IGES
100
AcDbLine
 62
250
  6
CONTINUOUS
 10
4.3255958441
 20
51.7413231848
 11
4.531160169
 21
51.8544011852
  0
LINE
  5
2B5
100
AcDbEntity
  8
IMPORT_IGES
100
AcDbLine
 62
250
  6
CONTINUOUS
 10
3.5316538586
 20
52.8542518032
 11
3.3257473516
 21
52.7410333694
  0
LINE
  5
2B6
100
AcDbEntity
  8
IMPORT_IGES
100
AcDbLine
 62
7
  6
CONTINUOUS
 10
8.9540934184
 20
-45.9044529816
 11
10.4119810745
 21
-45.9044529816
  0
LINE
  5
2B7
100
AcDbEntity
  8
IMPORT_IGES
100
AcDbLine
 62
7
  6
CONTINUOUS
 10
16.9119810745
 20
-45.9044529816
 11
18.3698687307
 21
-45.9044529816
  0
LINE
  5
2B8
100
AcDbEntity
  8
IMPORT_IGES
100
AcDbLine
 62
7
  6
CONTINUOUS
 10
18.3698687307
 20
-44.6313688256
 11
8.9540934184
 21
-44.6313688256
  0
LINE
  5
2B9
100
AcDbEntity
  8
IMPORT_IGES
100
AcDbLine
 62
7
  6
CONTINUOUS
 10
18.3698687307
 20
-44.4044529816
 11
8.9540934184
 21
-44.4044529816
  0
LINE
  5
2BA
100
AcDbEntity
  8
IMPORT_IGES
100
AcDbLine
 62
250
  6
CONTINUOUS
 10
-2.4255025548
 20
-45.5323481032
 11
-2.4673947106
 21
-45.5209811145
  0
LINE
  5
2BB
100
AcDbEntity
  8
IMPORT_IGES
100
AcDbLine
 62
250
  6
CONTINUOUS
 10
3.3257460053
 20
-54.9723984387
 11
3.5316523442
 21
-55.0856164858
  0
LINE
  5
2BC
100
AcDbEntity
  8
IMPORT_IGES
100
AcDbLine
 62
250
  6
CONTINUOUS
 10
4.5311601641
 20
-54.0857740246
 11
4.3255746394
 21
-53.9726660672
  0
LWPOLYLINE
  5
2BD
100
AcDbEntity
  8
IMPORT_IGES
100
AcDbPolyline
 62
250
  6
CONTINUOUS
 90
10
 70
0
 10
3.5316523442
 20
-55.0856164858
 10
3.5318493311
 20
-55.0857272063
 10
3.5320360853
 20
-55.0858379318
 10
3.5322126067
 20
-55.0859486622
 10
3.5323788398
 20
-55.086059398
 10
3.5325348402
 20
-55.0861701387
 10
3.5326807745
 20
-55.0862808834
 10
3.5328166983
 20
-55.0863916315
 10
3.5329425561
 20
-55.0865023836
 10
3.5330583478
 20
-55.0866131396
  0
LINE
  5
2BE
100
AcDbEntity
  8
IMPORT_IGES
100
AcDbLine
 62
7
  6
CONTINUOUS
 10
-13.3745847692
 20
-49.9102063227
 11
-13.4968195959
 21
-49.787971496
  0
LWPOLYLINE
  5
2BF
100
AcDbEntity
  8
IMPORT_IGES
100
AcDbPolyline
 62
7
  6
CONTINUOUS
 90
8
 70
0
 10
-9.4380132976
 20
49.967859621
 10
-9.4374945763
 20
49.9684556833
 10
-9.4327483514
 20
49.9697321672
 10
-9.4231220095
 20
49.9710059932
 10
-9.4087436382
 20
49.9722602734
 10
-9.3896559333
 20
49.9734893784
 10
-9.365816199
 20
49.9746989375
 10
-9.3372244352
 20
49.9758889507
  0
LINE
  5
2C0
100
AcDbEntity
  8
IMPORT_IGES
100
AcDbLine
 62
7
  6
CONTINUOUS
 10
-7.3380826579
 20
49.9765871527
 11
-7.3388250757
 21
49.9758889507
  0
LINE
  5
2C1
100
AcDbEntity
  8
IMPORT_IGES
100
AcDbLine
 62
7
  6
CONTINUOUS
 10
8.9540934184
 20
-39.4044529816
 11
18.3698687307
 21
-39.4044529816
  0
LINE
  5
2C2
100
AcDbEntity
  8
IMPORT_IGES
100
AcDbLine
 62
7
  6
CONTINUOUS
 10
8.9540934184
 20
-39.1775371375
 11
18.3698687307
 21
-39.1775371375
  0
LWPOLYLINE
  5
2C3
100
AcDbEntity
  8
IMPORT_IGES
100
AcDbPolyline
 62
7
  6
CONTINUOUS
 90
10
 70
0
 10
4.5329006796
 20
-54.086760165
 10
4.5327567566
 20
-54.0866505681
 10
4.5326004654
 20
-54.0865409774
 10
4.5324318064
 20
-54.086431393
 10
4.53225078
 20
-54.0863218145
 10
4.5320573868
 20
-54.0862122423
 10
4.5318516271
 20
-54.0861026771
 10
4.5316335015
 20
-54.0859931192
 10
4.5314030105
 20
-54.0858835684
 10
4.5311601547
 20
-54.0857740246
  0
LINE
  5
2C4
100
AcDbEntity
  8
IMPORT_IGES
100
AcDbLine
 62
7
  6
CONTINUOUS
 10
-3.3140191716
 20
-53.8646661513
 11
-3.1111591495
 21
-54.0675261733
  0
LWPOLYLINE
  5
2C5
100
AcDbEntity
  8
IMPORT_IGES
100
AcDbPolyline
 62
250
  6
CONTINUOUS
 90
10
 70
0
 10
3.5330583477
 20
52.8552484571
 10
3.5329425563
 20
52.8551377013
 10
3.5328166987
 20
52.8550269495
 10
3.5326807752
 20
52.8549162015
 10
3.5325347853
 20
52.8548054571
 10
3.5323787294
 20
52.8546947167
 10
3.5322126087
 20
52.854583981
 10
3.5320364235
 20
52.8544732503
 10
3.5318501734
 20
52.8543625244
 10
3.5316538586
 20
52.8542518032
  0
LWPOLYLINE
  5
2C6
100
AcDbEntity
  8
IMPORT_IGES
100
AcDbPolyline
 62
7
  6
CONTINUOUS
 90
10
 70
0
 10
4.5311601596
 20
51.8544011852
 10
4.5313966595
 20
51.8546175205
 10
4.5316235024
 20
51.8547810814
 10
4.531840355
 20
51.854891868
 10
4.532047527
 20
51.854914879
 10
4.5322439524
 20
51.8548851156
 10
4.5324275935
 20
51.8549075817
 10
4.5325979457
 20
51.8550172786
 10
4.5327556344
 20
51.8551792049
 10
4.5329006798
 20
51.8553933608
  0
LINE
  5
2C7
100
AcDbEntity
  8
IMPORT_IGES
100
AcDbLine
 62
7
  6
CONTINUOUS
 10
18.3698687307
 20
-37.9044529816
 11
16.9119810745
 21
-37.9044529816
  0
LINE
  5
2C8
100
AcDbEntity
  8
IMPORT_IGES
100
AcDbLine
 62
7
  6
CONTINUOUS
 10
10.4119810745
 20
-37.9044529816
 11
8.9540934184
 21
-37.9044529816
  0
LINE
  5
2C9
100
AcDbEntity
  8
IMPORT_IGES
100
AcDbLine
 62
250
  6
CONTINUOUS
 10
0.7480366525
 20
-40.0321060165
 11
0.7899288084
 21
-40.0434730051
  0
LINE
  5
2CA
100
AcDbEntity
  8
IMPORT_IGES
100
AcDbLine
 62
250
  6
CONTINUOUS
 10
3.5330583478
 20
-55.0866131396
 11
3.5621172501
 21
-55.1156823408
  0
LINE
  5
2CB
100
AcDbEntity
  8
IMPORT_IGES
100
AcDbLine
 62
250
  6
CONTINUOUS
 10
3.5621192637
 20
52.8843176581
 11
3.5330583477
 21
52.8552484571
  0
LINE
  5
2CC
100
AcDbEntity
  8
IMPORT_IGES
100
AcDbLine
 62
250
  6
CONTINUOUS
 10
4.5329006892
 20
51.8553933608
 11
4.5619752443
 21
51.884459108
  0
LINE
  5
2CD
100
AcDbEntity
  8
IMPORT_IGES
100
AcDbLine
 62
7
  6
CONTINUOUS
 10
18.2172750438
 20
-34.7544529816
 11
16.9172750438
 21
-34.7544529816
  0
LINE
  5
2CE
100
AcDbEntity
  8
IMPORT_IGES
100
AcDbLine
 62
7
  6
CONTINUOUS
 10
10.4066871052
 20
-34.7544529816
 11
9.1066871052
 21
-34.7544529816
  0
LINE
  5
2CF
100
AcDbEntity
  8
IMPORT_IGES
100
AcDbLine
 62
7
  6
CONTINUOUS
 10
17.0172750438
 20
-31.9044529816
 11
16.9172750438
 21
-31.9044529816
  0
LINE
  5
2D0
100
AcDbEntity
  8
IMPORT_IGES
100
AcDbLine
 62
7
  6
CONTINUOUS
 10
10.4066871052
 20
-31.9044529816
 11
10.3066871052
 21
-31.9044529816
  0
LINE
  5
2D1
100
AcDbEntity
  8
IMPORT_IGES
100
AcDbLine
 62
7
  6
CONTINUOUS
 10
10.3066871052
 20
-31.5340033703
 11
10.4066871052
 21
-31.5340033703
  0
LINE
  5
2D2
100
AcDbEntity
  8
IMPORT_IGES
100
AcDbLine
 62
7
  6
CONTINUOUS
 10
16.9172750438
 20
-31.5340033703
 11
17.0172750438
 21
-31.5340033703
  0
LINE
  5
2D3
100
AcDbEntity
  8
IMPORT_IGES
100
AcDbLine
 62
7
  6
CONTINUOUS
 10
18.2172750438
 20
-31.0044529816
 11
18.0172750438
 21
-31.0044529816
  0
LINE
  5
2D4
100
AcDbEntity
  8
IMPORT_IGES
100
AcDbLine
 62
7
  6
CONTINUOUS
 10
9.3066871052
 20
-31.0044529816
 11
9.1066871052
 21
-31.0044529816
  0
LINE
  5
2D5
100
AcDbEntity
  8
IMPORT_IGES
100
AcDbLine
 62
250
  6
CONTINUOUS
 10
10.3066871052
 20
-30.977647909
 11
10.4066871052
 21
-30.977647909
  0
LINE
  5
2D6
100
AcDbEntity
  8
IMPORT_IGES
100
AcDbLine
 62
250
  6
CONTINUOUS
 10
16.9172750438
 20
-30.977647909
 11
17.0172750438
 21
-30.977647909
  0
LINE
  5
2D7
100
AcDbEntity
  8
IMPORT_IGES
100
AcDbLine
 62
250
  6
CONTINUOUS
 10
2.1612419979
 20
-34.9896045092
 11
2.119349842
 21
-34.9782375206
  0
LINE
  5
2D8
100
AcDbEntity
  8
IMPORT_IGES
100
AcDbLine
 62
250
  6
CONTINUOUS
 10
4.5619752439
 20
-54.1158263922
 11
4.532900689
 21
-54.0867601817
  0
LINE
  5
2D9
100
AcDbEntity
  8
IMPORT_IGES
100
AcDbLine
 62
7
  6
CONTINUOUS
 10
-7.2382065887
 20
52.8036752588
 11
-7.2380527995
 21
52.8040243596
  0
LINE
  5
2DA
100
AcDbEntity
  8
IMPORT_IGES
100
AcDbLine
 62
7
  6
CONTINUOUS
 10
-1.8570804821
 20
42.0368513575
 11
-0.5744019848
 21
43.3698368453
  0
LINE
  5
2DB
100
AcDbEntity
  8
IMPORT_IGES
100
AcDbLine
 62
7
  6
CONTINUOUS
 10
-5.6463334903
 20
38.0987700184
 11
-4.0831133464
 21
39.723387869
  0
LINE
  5
2DC
100
AcDbEntity
  8
IMPORT_IGES
100
AcDbLine
 62
7
  6
CONTINUOUS
 10
-3.9744450523
 20
39.8363242658
 11
-3.2546608109
 21
40.5843790626
  0
LINE
  5
2DD
100
AcDbEntity
  8
IMPORT_IGES
100
AcDbLine
 62
7
  6
CONTINUOUS
 10
-3.1651257377
 20
40.6774307539
 11
-2.6855665605
 21
41.1758253036
  0
LINE
  5
2DE
100
AcDbEntity
  8
IMPORT_IGES
100
AcDbLine
 62
7
  6
CONTINUOUS
 10
-2.4161915324
 20
41.4557804212
 11
-2.1409263074
 21
41.7418570815
  0
LINE
  5
2DF
100
AcDbEntity
  8
IMPORT_IGES
100
AcDbLine
 62
7
  6
CONTINUOUS
 10
-1.7820267279
 20
41.9320255195
 11
-2.0242261644
 21
41.6803527653
  0
LINE
  5
2E0
100
AcDbEntity
  8
IMPORT_IGES
100
AcDbLine
 62
7
  6
CONTINUOUS
 10
-2.1060303241
 20
41.5953489417
 11
-3.0789688269
 21
40.5843552078
  0
LINE
  5
2E1
100
AcDbEntity
  8
IMPORT_IGES
100
AcDbLine
 62
7
  6
CONTINUOUS
 10
-3.1684510747
 20
40.4913729776
 11
-3.9612694032
 21
39.6675445855
  0
LINE
  5
2E2
100
AcDbEntity
  8
IMPORT_IGES
100
AcDbLine
 62
7
  6
CONTINUOUS
 10
-4.0688269442
 20
39.5557800704
 11
-5.5535913547
 21
38.0129107131
  0
LINE
  5
2E3
100
AcDbEntity
  8
IMPORT_IGES
100
AcDbLine
 62
7
  6
CONTINUOUS
 10
-0.5753720677
 20
43.1859704815
 11
-1.6452344789
 21
42.0741689197
  0
LINE
  5
2E4
100
AcDbEntity
  8
IMPORT_IGES
100
AcDbLine
 62
7
  6
CONTINUOUS
 10
2.122840855
 20
43.8270508687
 11
2.1116202718
 21
43.8158301864
  0
LWPOLYLINE
  5
2E5
100
AcDbEntity
  8
IMPORT_IGES
100
AcDbPolyline
 62
7
  6
CONTINUOUS
 90
22
 70
0
 10
8.2270391279
 20
-28.8438663876
 10
8.1514597493
 20
-28.8468190517
 10
8.0771658374
 20
-28.8552021078
 10
8.0041573922
 20
-28.869015556
 10
7.9320497572
 20
-28.8884020108
 10
7.861227589
 20
-28.9132188577
 10
7.7928448569
 20
-28.9430382527
 10
7.7269417574
 20
-28.9779384606
 10
7.6634780941
 20
-29.0178412166
 10
7.6034872473
 20
-29.0620838825
 10
7.5470245985
 20
-29.110734693
 10
7.4940347661
 20
-29.1637254135
 10
7.445384986
 20
-29.2201887013
 10
7.401143505
 20
-29.2801799208
 10
7.3612420763
 20
-29.3436437075
 10
7.3263431955
 20
-29.4095466263
 10
7.2965251327
 20
-29.477928853
 10
7.2717096178
 20
-29.5487502118
 10
7.252324336
 20
-29.6208567396
 10
7.2385118491
 20
-29.6938637822
 10
7.2301295955
 20
-29.7681559939
 10
7.2271775749
 20
-29.8437333746
  0
LINE
  5
2E6
100
AcDbEntity
  8
IMPORT_IGES
100
AcDbLine
 62
250
  6
CONTINUOUS
 10
10.3066871052
 20
-30.742058755
 11
10.4066871052
 21
-30.742058755
  0
LINE
  5
2E7
100
AcDbEntity
  8
IMPORT_IGES
100
AcDbLine
 62
250
  6
CONTINUOUS
 10
16.9172750438
 20
-30.742058755
 11
17.0172750438
 21
-30.742058755
  0
LINE
  5
2E8
100
AcDbEntity
  8
IMPORT_IGES
100
AcDbLine
 62
7
  6
CONTINUOUS
 10
9.1066871052
 20
-30.6667850854
 11
10.4066871052
 21
-30.6667850854
  0
LINE
  5
2E9
100
AcDbEntity
  8
IMPORT_IGES
100
AcDbLine
 62
7
  6
CONTINUOUS
 10
16.9172750438
 20
-30.6667850854
 11
18.2172750438
 21
-30.6667850854
  0
LINE
  5
2EA
100
AcDbEntity
  8
IMPORT_IGES
100
AcDbLine
 62
7
  6
CONTINUOUS
 10
8.9540934184
 20
-30.5707822283
 11
10.4119810745
 21
-30.5707822283
  0
LINE
  5
2EB
100
AcDbEntity
  8
IMPORT_IGES
100
AcDbLine
 62
7
  6
CONTINUOUS
 10
16.9119810745
 20
-30.5707822283
 11
18.3698687307
 21
-30.5707822283
  0
LINE
  5
2EC
100
AcDbEntity
  8
IMPORT_IGES
100
AcDbLine
 62
7
  6
CONTINUOUS
 10
-7.0438930916
 20
-29.3656823412
 11
-7.5880247555
 21
-29.3656823412
  0
LINE
  5
2ED
100
AcDbEntity
  8
IMPORT_IGES
100
AcDbLine
 62
7
  6
CONTINUOUS
 10
-7.5880247555
 20
-28.8656823412
 11
-6.7028077785
 21
-28.8656823412
  0
LINE
  5
2EE
100
AcDbEntity
  8
IMPORT_IGES
100
AcDbLine
 62
7
  6
CONTINUOUS
 10
8.2270391279
 20
-28.8438663876
 11
19.0969214997
 21
-28.8438663876
  0
LINE
  5
2EF
100
AcDbEntity
  8
IMPORT_IGES
100
AcDbLine
 62
7
  6
CONTINUOUS
 10
-7.7130247555
 20
-27.3656823412
 11
-8.9630247555
 21
-27.3656823412
  0
LWPOLYLINE
  5
2F0
100
AcDbEntity
  8
IMPORT_IGES
100
AcDbPolyline
 62
7
  6
CONTINUOUS
 90
22
 70
0
 10
19.0969214997
 20
-28.8438663876
 10
19.1728137961
 20
-28.8468707039
 10
19.2473380286
 20
-28.8553053164
 10
19.3204941971
 20
-28.869170225
 10
19.392653086
 20
-28.8886184957
 10
19.463443911
 20
-28.9134970625
 10
19.5317543188
 20
-28.9433467274
 10
19.5975435705
 20
-28.9782349357
 10
19.6608524052
 20
-29.018094242
 10
19.720690687
 20
-29.0622631126
 10
19.7770080492
 20
-29.1108007163
 10
19.8298548586
 20
-29.1636478841
 10
19.8783920802
 20
-29.2199655755
 10
19.9225605449
 20
-29.279804157
 10
19.9624194219
 20
-29.343113262
 10
19.9973071839
 20
-29.4089027503
 10
20.027156459
 20
-29.4772133606
 10
20.0520346191
 20
-29.5480043543
 10
20.0714822534
 20
-29.6201633751
 10
20.0853462249
 20
-29.6933196376
 10
20.0937796706
 20
-29.7678439273
 10
20.0967825905
 20
-29.843736244
  0
LINE
  5
2F1
100
AcDbEntity
  8
IMPORT_IGES
100
AcDbLine
 62
250
  6
CONTINUOUS
 10
-5.3295749989
 20
-33.0698760948
 11
-5.2934284448
 21
-33.0910510645
  0
LWPOLYLINE
  5
2F2
100
AcDbEntity
  8
IMPORT_IGES
100
AcDbPolyline
 62
7
  6
CONTINUOUS
 90
19
 70
0
 10
-20.5017868656
 20
-53.9726731124
 10
-20.4992595419
 20
-54.0158658069
 10
-20.4931150102
 20
-54.0581347849
 10
-20.4833532705
 20
-54.0994800465
 10
-20.4699075801
 20
-54.1401090299
 10
-20.4528446817
 20
-54.1798142968
 10
-20.4323648037
 20
-54.2179735325
 10
-20.4081953736
 20
-54.2547624058
 10
-20.3806089639
 20
-54.2900052478
 10
-20.3506235206
 20
-54.3225527376
 10
-20.3184107175
 20
-54.3521619444
 10
-20.2837988808
 20
-54.3790757989
 10
-20.2472909356
 20
-54.4028737726
 10
-20.2085939481
 20
-54.4236717992
 10
-20.1680008522
 20
-54.441353945
 10
-20.126893374
 20
-54.4551518811
 10
-20.0857320891
 20
-54.4648094977
 10
-20.0440564221
 20
-54.4705829045
 10
-20.0018663729
 20
-54.4724721016
  0
LINE
  5
2F3
100
AcDbEntity
  8
IMPORT_IGES
100
AcDbLine
 62
7
  6
CONTINUOUS
 10
-0.7832884428
 20
38.1045964143
 11
-0.8711005512
 21
38.0129107131
  0
LINE
  5
2F4
100
AcDbEntity
  8
IMPORT_IGES
100
AcDbLine
 62
7
  6
CONTINUOUS
 10
-1.8380247555
 20
34.3843176588
 11
-3.8380247555
 21
32.3843176588
  0
LWPOLYLINE
  5
2F5
100
AcDbEntity
  8
IMPORT_IGES
100
AcDbPolyline
 62
250
  6
CONTINUOUS
 90
16
 70
0
 10
-21.2071998515
 20
-54.0859135109
 10
-21.2043313931
 20
-54.1609155612
 10
-21.1959417576
 20
-54.2348686914
 10
-21.1822174786
 20
-54.3073789418
 10
-21.163442532
 20
-54.3778422952
 10
-21.139813421
 20
-54.4461624308
 10
-21.1112682957
 20
-54.5126935737
 10
-21.0778552239
 20
-54.5772210713
 10
-21.0397896819
 20
-54.639240607
 10
-20.9971039385
 20
-54.6986050825
 10
-20.9499775808
 20
-54.754937656
 10
-20.8985949364
 20
-54.807901825
 10
-20.8429455649
 20
-54.857349124
 10
-20.7830451625
 20
-54.903034793
 10
-20.7193177732
 20
-54.9444162849
 10
-20.6524224366
 20
-54.9809449525
  0
LWPOLYLINE
  5
2F6
100
AcDbEntity
  8
IMPORT_IGES
100
AcDbPolyline
 62
7
  6
CONTINUOUS
 90
22
 70
0
 10
-21.0015335952
 20
-53.9727290468
 10
-20.9987010944
 20
-54.0475903838
 10
-20.9902782656
 20
-54.1219891726
 10
-20.9763215426
 20
-54.1955093937
 10
-20.9569198554
 20
-54.2677357482
 10
-20.9321897668
 20
-54.3382721844
 10
-20.9022707589
 20
-54.4067427299
 10
-20.867334732
 20
-54.472767383
 10
-20.8275815173
 20
-54.5359801458
 10
-20.7832272559
 20
-54.596044165
 10
-20.7345205599
 20
-54.652625607
 10
-20.6817342618
 20
-54.7054102432
 10
-20.6251512166
 20
-54.7541153794
 10
-20.5650855717
 20
-54.798468003
 10
-20.5018709588
 20
-54.8382194048
 10
-20.4358441799
 20
-54.8731536752
 10
-20.3673711417
 20
-54.903070779
 10
-20.2968316248
 20
-54.9277986451
 10
-20.2246012993
 20
-54.9471978951
 10
-20.1510760155
 20
-54.9611517414
 10
-20.0766710208
 20
-54.9695708458
 10
-20.0018022704
 20
-54.9723984907
  0
LWPOLYLINE
  5
2F7
100
AcDbEntity
  8
IMPORT_IGES
100
AcDbPolyline
 62
250
  6
CONTINUOUS
 90
22
 70
0
 10
-21.2089555999
 20
-54.0864859045
 10
-21.2061340362
 20
-54.161523785
 10
-21.1977837503
 20
-54.2355129082
 10
-21.184091579
 20
-54.3080587454
 10
-21.165341963
 20
-54.378556088
 10
-21.1417318423
 20
-54.4469089029
 10
-21.1131991326
 20
-54.5134730418
 10
-21.0797914966
 20
-54.5780340561
 10
-21.0417246301
 20
-54.6400863974
 10
-20.9990310155
 20
-54.699482329
 10
-20.9518905252
 20
-54.7558443464
 10
-20.9004875235
 20
-54.808835703
 10
-20.844811353
 20
-54.8583078596
 10
-20.7848776136
 20
-54.9040156863
 10
-20.721110829
 20
-54.945415874
 10
-20.654170768
 20
-54.9819591191
 10
-20.5845293707
 20
-55.013340966
 10
-20.5124698836
 20
-55.0393885864
 10
-20.4384589981
 20
-55.0598828627
 10
-20.3629435938
 20
-55.0746608852
 10
-20.2863428694
 20
-55.083602074
 10
-20.2091078587
 20
-55.0866131396
  0
LWPOLYLINE
  5
2F8
100
AcDbEntity
  8
IMPORT_IGES
100
AcDbPolyline
 62
7
  6
CONTINUOUS
 90
9
 70
0
 10
-20.949872917
 20
-4.0334190519
 10
-20.9476071817
 20
-4.0959768271
 10
-20.9452899926
 20
-4.1508246563
 10
-20.9429208225
 20
-4.197888441
 10
-20.9405001986
 20
-4.2372422799
 10
-20.9380518643
 20
-4.2684877791
 10
-20.9355837341
 20
-4.2914921407
 10
-20.9330878934
 20
-4.3063881627
 10
-20.9305643424
 20
-4.3131758451
  0
LINE
  5
2F9
100
AcDbEntity
  8
IMPORT_IGES
100
AcDbLine
 62
7
  6
CONTINUOUS
 10
-21.1135777117
 20
-3.8030289428
 11
-21.1204997966
 21
-3.6163881442
  0
LINE
  5
2FA
100
AcDbEntity
  8
IMPORT_IGES
100
AcDbLine
 62
7
  6
CONTINUOUS
 10
-21.1204997966
 20
-3.6163881442
 11
-21.1267074523
 21
-3.4056504139
  0
LINE
  5
2FB
100
AcDbEntity
  8
IMPORT_IGES
100
AcDbLine
 62
7
  6
CONTINUOUS
 10
-20.9541828285
 20
-3.886967007
 11
-20.949872917
 21
-4.0334190519
  0
LINE
  5
2FC
100
AcDbEntity
  8
IMPORT_IGES
100
AcDbLine
 62
7
  6
CONTINUOUS
 10
-20.0224539926
 20
1.8019418391
 11
-20.0181463145
 21
1.6555338731
  0
LINE
  5
2FD
100
AcDbEntity
  8
IMPORT_IGES
100
AcDbLine
 62
7
  6
CONTINUOUS
 10
-21.1267074523
 20
-3.4056504139
 11
-21.1321041674
 21
-3.1737993154
  0
LINE
  5
2FE
100
AcDbEntity
  8
IMPORT_IGES
100
AcDbLine
 62
7
  6
CONTINUOUS
 10
-20.9581775333
 20
-3.7129160782
 11
-20.9541828285
 21
-3.886967007
  0
LINE
  5
2FF
100
AcDbEntity
  8
IMPORT_IGES
100
AcDbLine
 62
7
  6
CONTINUOUS
 10
-20.0181463145
 20
1.6555338731
 11
-20.014154276
 21
1.4815783087
  0
LINE
  5
300
100
AcDbEntity
  8
IMPORT_IGES
100
AcDbLine
 62
7
  6
CONTINUOUS
 10
-21.1321041674
 20
-3.1737993154
 11
-21.1366148567
 21
-2.9243901046
  0
LINE
  5
301
100
AcDbEntity
  8
IMPORT_IGES
100
AcDbLine
 62
7
  6
CONTINUOUS
 10
-20.963447201
 20
-3.4056986331
 11
-20.9581775333
 21
-3.7129160782
  0
LINE
  5
302
100
AcDbEntity
  8
IMPORT_IGES
100
AcDbLine
 62
7
  6
CONTINUOUS
 10
-20.014154276
 20
1.4815783087
 11
-20.0088877895
 21
1.1745692109
  0
LINE
  5
303
100
AcDbEntity
  8
IMPORT_IGES
100
AcDbLine
 62
7
  6
CONTINUOUS
 10
-21.1366148567
 20
-2.9243901046
 11
-21.1416132516
 21
-2.5233698056
  0
LINE
  5
304
100
AcDbEntity
  8
IMPORT_IGES
100
AcDbLine
 62
7
  6
CONTINUOUS
 10
-20.9688956245
 20
-2.92441692
 11
-20.963447201
 21
-3.4056986331
  0
LINE
  5
305
100
AcDbEntity
  8
IMPORT_IGES
100
AcDbLine
 62
7
  6
CONTINUOUS
 10
-20.0088877895
 20
1.1745692109
 11
-20.0034405143
 21
0.6935518521
  0
LINE
  5
306
100
AcDbEntity
  8
IMPORT_IGES
100
AcDbLine
 62
7
  6
CONTINUOUS
 10
-21.1416132516
 20
-2.5233698056
 11
-21.144350977
 21
-2.1015922477
  0
LINE
  5
307
100
AcDbEntity
  8
IMPORT_IGES
100
AcDbLine
 62
7
  6
CONTINUOUS
 10
-20.9722890243
 20
-2.3840234044
 11
-20.9688956245
 21
-2.92441692
  0
LINE
  5
308
100
AcDbEntity
  8
IMPORT_IGES
100
AcDbLine
 62
7
  6
CONTINUOUS
 10
-20.0034405143
 20
0.6935518521
 11
-20.0000445692
 21
0.1531491703
  0
LINE
  5
309
100
AcDbEntity
  8
IMPORT_IGES
100
AcDbLine
 62
250
  6
CONTINUOUS
 10
-20.0018022707
 20
-54.9723984921
 11
-20.0018771722
 21
-54.4724721124
  0
LINE
  5
30A
100
AcDbEntity
  8
IMPORT_IGES
100
AcDbLine
 62
7
  6
CONTINUOUS
 10
-21.2380247567
 20
-54.1157794421
 11
-21.2380247554
 21
51.8844580539
  0
LINE
  5
30B
100
AcDbEntity
  8
IMPORT_IGES
100
AcDbLine
 62
250
  6
CONTINUOUS
 10
-21.2089556024
 20
51.8551612049
 11
-21.2089556024
 21
-54.0864250302
  0
LINE
  5
30C
100
AcDbEntity
  8
IMPORT_IGES
100
AcDbLine
 62
250
  6
CONTINUOUS
 10
-21.2071998768
 20
-54.0860562149
 11
-21.2071998768
 21
51.8545676018
  0
LINE
  5
30D
100
AcDbEntity
  8
IMPORT_IGES
100
AcDbLine
 62
7
  6
CONTINUOUS
 10
-21.144350977
 20
-2.1015922477
 11
-21.1448812424
 21
-0.4175720031
  0
LINE
  5
30E
100
AcDbEntity
  8
IMPORT_IGES
100
AcDbLine
 62
250
  6
CONTINUOUS
 10
-21.0015336053
 20
-53.9727290469
 11
-21.001533614
 21
-4.349123863
  0
LINE
  5
30F
100
AcDbEntity
  8
IMPORT_IGES
100
AcDbLine
 62
250
  6
CONTINUOUS
 10
-21.0015336149
 20
2.1177591803
 11
-21.0015336155
 21
51.7413116038
  0
LINE
  5
310
100
AcDbEntity
  8
IMPORT_IGES
100
AcDbLine
 62
7
  6
CONTINUOUS
 10
-20.8893797834
 20
2.1229957218
 11
-20.8893797834
 21
-4.3543604043
  0
LINE
  5
311
100
AcDbEntity
  8
IMPORT_IGES
100
AcDbLine
 62
250
  6
CONTINUOUS
 10
-20.5017870952
 20
51.7413126026
 11
-20.5017868656
 21
-53.9726731124
  0
LINE
  5
312
100
AcDbEntity
  8
IMPORT_IGES
100
AcDbLine
 62
7
  6
CONTINUOUS
 10
-20.0861656906
 20
-4.3575744971
 11
-20.0861656906
 21
2.1262098146
  0
LINE
  5
313
100
AcDbEntity
  8
IMPORT_IGES
100
AcDbLine
 62
7
  6
CONTINUOUS
 10
-20.0000445692
 20
0.1531491703
 11
-19.9988903659
 21
-1.8135890998
  0
LINE
  5
314
100
AcDbEntity
  8
IMPORT_IGES
100
AcDbLine
 62
250
  6
CONTINUOUS
 10
-20.0018701592
 20
52.2411097891
 11
-20.0018002932
 21
52.7410338119
  0
LINE
  5
315
100
AcDbEntity
  8
IMPORT_IGES
100
AcDbLine
 62
7
  6
CONTINUOUS
 10
-20.9733666123
 20
-0.273059733
 11
-20.9722890243
 21
-2.3840234044
  0
LINE
  5
316
100
AcDbEntity
  8
IMPORT_IGES
100
AcDbLine
 62
7
  6
CONTINUOUS
 10
-21.144880793
 20
-0.4175719992
 11
-21.1436992009
 21
0.0119382233
  0
LINE
  5
317
100
AcDbEntity
  8
IMPORT_IGES
100
AcDbLine
 62
7
  6
CONTINUOUS
 10
-19.9988903659
 20
-1.8135890998
 11
-20.0006897485
 21
-2.5238419277
  0
LINE
  5
318
100
AcDbEntity
  8
IMPORT_IGES
100
AcDbLine
 62
7
  6
CONTINUOUS
 10
-20.9708644666
 20
0.4285145686
 11
-20.9733666123
 21
-0.273059733
  0
LINE
  5
319
100
AcDbEntity
  8
IMPORT_IGES
100
AcDbLine
 62
7
  6
CONTINUOUS
 10
-20.0006897485
 20
-2.5238419277
 11
-20.0046174495
 21
-3.0516067696
  0
LINE
  5
31A
100
AcDbEntity
  8
IMPORT_IGES
100
AcDbLine
 62
7
  6
CONTINUOUS
 10
-21.1436992009
 20
0.0119382233
 11
-21.1401950582
 21
0.4284985901
  0
LINE
  5
31B
100
AcDbEntity
  8
IMPORT_IGES
100
AcDbLine
 62
7
  6
CONTINUOUS
 10
-20.9664149145
 20
0.942485356
 11
-20.9708644666
 21
0.4285145686
  0
LINE
  5
31C
100
AcDbEntity
  8
IMPORT_IGES
100
AcDbLine
 62
7
  6
CONTINUOUS
 10
-20.0046174495
 20
-3.0516067696
 11
-20.0088872724
 21
-3.4058980854
  0
LINE
  5
31D
100
AcDbEntity
  8
IMPORT_IGES
100
AcDbLine
 62
7
  6
CONTINUOUS
 10
-21.1401950582
 20
0.4284985901
 11
-21.136614827
 21
0.6930273317
  0
LINE
  5
31E
100
AcDbEntity
  8
IMPORT_IGES
100
AcDbLine
 62
7
  6
CONTINUOUS
 10
-20.9617956903
 20
1.2823378858
 11
-20.9664149145
 21
0.942485356
  0
LINE
  5
31F
100
AcDbEntity
  8
IMPORT_IGES
100
AcDbLine
 62
7
  6
CONTINUOUS
 10
-20.9581773714
 20
1.4815593323
 11
-20.9617956903
 21
1.2823378858
  0
LINE
  5
320
100
AcDbEntity
  8
IMPORT_IGES
100
AcDbLine
 62
7
  6
CONTINUOUS
 10
-20.0088872724
 20
-3.4058980854
 11
-20.014153684
 21
-3.7129139229
  0
LINE
  5
321
100
AcDbEntity
  8
IMPORT_IGES
100
AcDbLine
 62
7
  6
CONTINUOUS
 10
-21.136614827
 20
0.6930273317
 11
-21.1321039944
 21
0.9424430651
  0
LINE
  5
322
100
AcDbEntity
  8
IMPORT_IGES
100
AcDbLine
 62
7
  6
CONTINUOUS
 10
-20.9541826221
 20
1.6556103025
 11
-20.9581773714
 21
1.4815593323
  0
LINE
  5
323
100
AcDbEntity
  8
IMPORT_IGES
100
AcDbLine
 62
7
  6
CONTINUOUS
 10
-20.014153684
 20
-3.7129139229
 11
-20.0181457082
 21
-3.8868750806
  0
LINE
  5
324
100
AcDbEntity
  8
IMPORT_IGES
100
AcDbLine
 62
7
  6
CONTINUOUS
 10
-21.1321039944
 20
0.9424430651
 11
-21.1267070919
 21
1.1742995121
  0
LINE
  5
325
100
AcDbEntity
  8
IMPORT_IGES
100
AcDbLine
 62
7
  6
CONTINUOUS
 10
-21.1267070919
 20
1.1742995121
 11
-21.120499217
 21
1.3850410009
  0
LWPOLYLINE
  5
326
100
AcDbEntity
  8
IMPORT_IGES
100
AcDbPolyline
 62
7
  6
CONTINUOUS
 90
10
 70
0
 10
-20.0181457082
 20
-3.8868750806
 10
-20.0224534049
 20
-4.0332889211
 10
-20.0247183005
 20
-4.0958486739
 10
-20.0270349906
 20
-4.1507056825
 10
-20.0294039907
 20
-4.1977874045
 10
-20.0318247853
 20
-4.2371663824
 10
-20.0342738353
 20
-4.2684337472
 10
-20.0367432945
 20
-4.2914532095
 10
-20.0392410091
 20
-4.3063610587
 10
-20.0417669792
 20
-4.313157295
  0
LWPOLYLINE
  5
327
100
AcDbEntity
  8
IMPORT_IGES
100
AcDbPolyline
 62
250
  6
CONTINUOUS
 90
22
 70
0
 10
-21.2071999421
 20
51.8544041079
 10
-21.2043416141
 20
51.9294160905
 10
-21.1959606876
 20
52.0033788476
 10
-21.1822438883
 20
52.0758982788
 10
-21.1634754894
 20
52.1463698473
 10
-21.1398521609
 20
52.2146975884
 10
-21.1113117774
 20
52.2812368715
 10
-21.0779020876
 20
52.3457734013
 10
-21.0398386969
 20
52.4078022111
 10
-20.9971540736
 20
52.4671757881
 10
-20.9500279634
 20
52.5235170497
 10
-20.8986446338
 20
52.5764895562
 10
-20.8429935491
 20
52.6259448973
 10
-20.7830904281
 20
52.6716382074
 10
-20.7193593522
 20
52.7130267945
 10
-20.6524592578
 20
52.7495619484
 10
-20.5828614095
 20
52.7809395266
 10
-20.5108487592
 20
52.8069868096
 10
-20.4368875627
 20
52.8274848084
 10
-20.3614241653
 20
52.8422707474
 10
-20.2848771321
 20
52.85122416
 10
-20.2076968669
 20
52.8542518067
  0
LWPOLYLINE
  5
328
100
AcDbEntity
  8
IMPORT_IGES
100
AcDbPolyline
 62
7
  6
CONTINUOUS
 90
22
 70
0
 10
-21.238024754
 20
51.8844580539
 10
-21.2350720034
 20
51.9600368655
 10
-21.2266889143
 20
52.034330267
 10
-21.2128754868
 20
52.1073382585
 10
-21.1934890989
 20
52.1794455181
 10
-21.1686723726
 20
52.2502673676
 10
-21.1388531735
 20
52.3186497726
 10
-21.1039532477
 20
52.3845524975
 10
-21.0640508492
 20
52.4480157778
 10
-21.0198086058
 20
52.508006286
 10
-20.9711583036
 20
52.56446864
 10
-20.9181681565
 20
52.6174582217
 10
-20.8617054351
 20
52.6661078492
 10
-20.8017147719
 20
52.7103492982
 10
-20.7382515345
 20
52.7502507931
 10
-20.6723490951
 20
52.7851498245
 10
-20.6039672357
 20
52.8149681342
 10
-20.5331461744
 20
52.8397839804
 10
-20.4610399381
 20
52.8591696293
 10
-20.3880332026
 20
52.872982503
 10
-20.3137412922
 20
52.8813651794
 10
-20.2381642069
 20
52.8843176585
  0
LWPOLYLINE
  5
329
100
AcDbEntity
  8
IMPORT_IGES
100
AcDbPolyline
 62
7
  6
CONTINUOUS
 90
13
 70
0
 10
-21.120499217
 20
1.3850410009
 10
-21.1135768991
 20
1.5716837579
 10
-21.1098594036
 20
1.6555822171
 10
-21.1060079444
 20
1.7323919869
 10
-21.102021218
 20
1.8020447566
 10
-21.0979005279
 20
1.864608837
 10
-21.0936861619
 20
1.919462207
 10
-21.0893771901
 20
1.9665308243
 10
-21.0849745425
 20
2.0058887312
 10
-21.0805212964
 20
2.0371360339
 10
-21.0760318108
 20
2.0601394345
 10
-21.0714917267
 20
2.075032231
 10
-21.066901044
 20
2.0818144232
  0
LWPOLYLINE
  5
32A
100
AcDbEntity
  8
IMPORT_IGES
100
AcDbPolyline
 62
7
  6
CONTINUOUS
 90
10
 70
0
 10
-20.9305634179
 20
2.0817998008
 10
-20.9330871575
 20
2.0750192207
 10
-20.9355831505
 20
2.0601287035
 10
-20.938051397
 20
2.0371282493
 10
-20.9404998006
 20
2.005884583
 10
-20.9429204576
 20
1.9665309796
 10
-20.9452896573
 20
1.9194672642
 10
-20.9476068838
 20
1.8646197837
 10
-20.949872653
 20
1.8020621912
 10
-20.9541826221
 20
1.6556103025
  0
LINE
  5
32B
100
AcDbEntity
  8
IMPORT_IGES
100
AcDbLine
 62
250
  6
CONTINUOUS
 10
2.119349842
 20
-19.8883911182
 11
2.1612419979
 21
-19.8778240971
  0
LWPOLYLINE
  5
32C
100
AcDbEntity
  8
IMPORT_IGES
100
AcDbPolyline
 62
7
  6
CONTINUOUS
 90
12
 70
0
 10
-21.0669026846
 20
-4.3131704248
 10
-21.0714933622
 20
-4.3063885906
 10
-21.0760334247
 20
-4.2914955028
 10
-21.0805228719
 20
-4.2684911614
 10
-21.084976061
 20
-4.2372419258
 10
-21.0893786349
 20
-4.1978814365
 10
-21.0936875221
 20
-4.1508106156
 10
-21.0979017925
 20
-4.0959557365
 10
-21.1020223762
 20
-4.0333905257
 10
-21.1060089917
 20
-3.9637370847
 10
-21.1098603358
 20
-3.8869271288
 10
-21.1135777117
 20
-3.8030289428
  0
LINE
  5
32D
100
AcDbEntity
  8
IMPORT_IGES
100
AcDbLine
 62
7
  6
CONTINUOUS
 10
-18.7988903659
 20
50.3451680365
 11
-18.7988903659
 21
30.3843176588
  0
LINE
  5
32E
100
AcDbEntity
  8
IMPORT_IGES
100
AcDbLine
 62
7
  6
CONTINUOUS
 10
-18.7876695567
 20
50.3451680362
 11
-18.7876696931
 21
44.9539414985
  0
LINE
  5
32F
100
AcDbEntity
  8
IMPORT_IGES
100
AcDbLine
 62
7
  6
CONTINUOUS
 10
-18.7876698392
 20
43.8147409422
 11
-18.7876698403
 21
35.5843176588
  0
LINE
  5
330
100
AcDbEntity
  8
IMPORT_IGES
100
AcDbLine
 62
7
  6
CONTINUOUS
 10
-18.7876698405
 20
34.3843176588
 11
-18.787669841
 21
30.3843176588
  0
LINE
  5
331
100
AcDbEntity
  8
IMPORT_IGES
100
AcDbLine
 62
7
  6
CONTINUOUS
 10
-18.3380247555
 20
30.3843176588
 11
-18.3380247555
 21
34.3843176588
  0
LINE
  5
332
100
AcDbEntity
  8
IMPORT_IGES
100
AcDbLine
 62
7
  6
CONTINUOUS
 10
-18.3380247555
 20
35.5843176588
 11
-18.3380247555
 21
49.8843176588
  0
LINE
  5
333
100
AcDbEntity
  8
IMPORT_IGES
100
AcDbLine
 62
7
  6
CONTINUOUS
 10
-17.8380247555
 20
34.3843176588
 11
-17.8380247555
 21
49.3843176588
  0
LINE
  5
334
100
AcDbEntity
  8
IMPORT_IGES
100
AcDbLine
 62
7
  6
CONTINUOUS
 10
-17.7864094155
 20
-1.8135560185
 11
-17.7864094154
 21
-0.4177947376
  0
LINE
  5
335
100
AcDbEntity
  8
IMPORT_IGES
100
AcDbLine
 62
7
  6
CONTINUOUS
 10
-17.7672048563
 20
1.6535772518
 11
-17.7672048563
 21
-3.8849419343
  0
LINE
  5
336
100
AcDbEntity
  8
IMPORT_IGES
100
AcDbLine
 62
7
  6
CONTINUOUS
 10
-16.2410262466
 20
-4.3156823412
 11
-16.2410262466
 21
2.0843176588
  0
LINE
  5
337
100
AcDbEntity
  8
IMPORT_IGES
100
AcDbLine
 62
7
  6
CONTINUOUS
 10
-16.0380247555
 20
50.3451680365
 11
-16.0380247555
 21
49.3843176588
  0
LINE
  5
338
100
AcDbEntity
  8
IMPORT_IGES
100
AcDbLine
 62
7
  6
CONTINUOUS
 10
-15.8380247555
 20
36.5843176588
 11
-15.8380247555
 21
34.3843176588
  0
LINE
  5
339
100
AcDbEntity
  8
IMPORT_IGES
100
AcDbLine
 62
7
  6
CONTINUOUS
 10
-15.8380247555
 20
33.3843176588
 11
-15.8380247555
 21
32.3843176588
  0
LINE
  5
33A
100
AcDbEntity
  8
IMPORT_IGES
100
AcDbLine
 62
7
  6
CONTINUOUS
 10
-20.8893797834
 20
2.1229957218
 11
-20.9305629396
 21
2.0818121051
  0
LWPOLYLINE
  5
33B
100
AcDbEntity
  8
IMPORT_IGES
100
AcDbPolyline
 62
250
  6
CONTINUOUS
 90
15
 70
0
 10
4.5586877549
 20
-14.9249323518
 10
4.5841046307
 20
-14.9209620407
 10
4.6088644339
 20
-14.91443659
 10
4.6326115099
 20
-14.9055058821
 10
4.655226366
 20
-14.8942725069
 10
4.6767760031
 20
-14.8806855745
 10
4.6970901887
 20
-14.8647500256
 10
4.7158053707
 20
-14.8466398407
 10
4.7326615356
 20
-14.826512527
 10
4.7474351914
 20
-14.8045259137
 10
4.7598878803
 20
-14.7809083267
 10
4.7697894927
 20
-14.7559832459
 10
4.7769837981
 20
-14.7300526386
 10
4.7813627434
 20
-14.7033793597
 10
4.7828368158
 20
-14.6762689447
  0
LINE
  5
33C
100
AcDbEntity
  8
IMPORT_IGES
100
AcDbLine
 62
7
  6
CONTINUOUS
 10
-20.8893797834
 20
-4.3543604043
 11
-20.9305643424
 21
-4.3131758451
  0
LWPOLYLINE
  5
33D
100
AcDbEntity
  8
IMPORT_IGES
100
AcDbPolyline
 62
7
  6
CONTINUOUS
 90
9
 70
0
 10
-20.0417671549
 20
2.0817930539
 10
-20.0392412642
 20
2.0749978245
 10
-20.0367436211
 20
2.060091337
 10
-20.0342742257
 20
2.0370735914
 10
-20.0318252319
 20
2.0058083618
 10
-20.0294044857
 20
1.966431874
 10
-20.0270355254
 20
1.9193528054
 10
-20.0247188661
 20
1.8644986127
 10
-20.0224539926
 20
1.8019418391
  0
LINE
  5
33E
100
AcDbEntity
  8
IMPORT_IGES
100
AcDbLine
 62
7
  6
CONTINUOUS
 10
-13.3620303394
 20
-53.8646661513
 11
-13.3745847692
 21
-53.1454233481
  0
LINE
  5
33F
100
AcDbEntity
  8
IMPORT_IGES
100
AcDbLine
 62
7
  6
CONTINUOUS
 10
-13.5189662098
 20
-48.4968529507
 11
-13.4968195959
 21
-49.787971496
  0
LINE
  5
340
100
AcDbEntity
  8
IMPORT_IGES
100
AcDbLine
 62
7
  6
CONTINUOUS
 10
-14.8380247555
 20
49.3843176588
 11
-14.8380247555
 21
50.3451680365
  0
LINE
  5
341
100
AcDbEntity
  8
IMPORT_IGES
100
AcDbLine
 62
7
  6
CONTINUOUS
 10
-14.5380247555
 20
25.8843176588
 11
-14.5380247555
 21
28.8843176588
  0
LINE
  5
342
100
AcDbEntity
  8
IMPORT_IGES
100
AcDbLine
 62
7
  6
CONTINUOUS
 10
-14.5229982056
 20
2.0843176588
 11
-14.5229982056
 21
-4.3156823412
  0
LINE
  5
343
100
AcDbEntity
  8
IMPORT_IGES
100
AcDbLine
 62
250
  6
CONTINUOUS
 10
-14.429675317
 20
27.4682176587
 11
-14.429675317
 21
27.7343176588
  0
LINE
  5
344
100
AcDbEntity
  8
IMPORT_IGES
100
AcDbLine
 62
7
  6
CONTINUOUS
 10
-14.2182247555
 20
27.4682176587
 11
-14.2182247555
 21
27.7343176588
  0
LINE
  5
345
100
AcDbEntity
  8
IMPORT_IGES
100
AcDbLine
 62
250
  6
CONTINUOUS
 10
-13.9134247555
 20
27.7343176588
 11
-13.9134247555
 21
27.4682176587
  0
LINE
  5
346
100
AcDbEntity
  8
IMPORT_IGES
100
AcDbLine
 62
7
  6
CONTINUOUS
 10
-13.8004247555
 20
27.7343176588
 11
-13.8004247555
 21
30.9093176588
  0
LINE
  5
347
100
AcDbEntity
  8
IMPORT_IGES
100
AcDbLine
 62
7
  6
CONTINUOUS
 10
-13.5648903614
 20
-54.0675261733
 11
-13.5648903614
 21
-48.4843919231
  0
LINE
  5
348
100
AcDbEntity
  8
IMPORT_IGES
100
AcDbLine
 62
7
  6
CONTINUOUS
 10
-13.5648903614
 20
-6.4006190958
 11
-13.5648903614
 21
-4.3575744971
  0
LINE
  5
349
100
AcDbEntity
  8
IMPORT_IGES
100
AcDbLine
 62
7
  6
CONTINUOUS
 10
-13.5648903614
 20
2.1262098146
 11
-13.5648903614
 21
3.8843176588
  0
LINE
  5
34A
100
AcDbEntity
  8
IMPORT_IGES
100
AcDbLine
 62
7
  6
CONTINUOUS
 10
-13.5055457991
 20
2.0668652523
 11
-13.5055457991
 21
-4.2982299348
  0
LINE
  5
34B
100
AcDbEntity
  8
IMPORT_IGES
100
AcDbLine
 62
7
  6
CONTINUOUS
 10
-13.4915790887
 20
3.8494075289
 11
-13.4915790887
 21
-6.1156823412
  0
LINE
  5
34C
100
AcDbEntity
  8
IMPORT_IGES
100
AcDbLine
 62
7
  6
CONTINUOUS
 10
-13.3745847692
 20
-53.1454233481
 11
-13.3745847692
 21
-49.9102063227
  0
LINE
  5
34D
100
AcDbEntity
  8
IMPORT_IGES
100
AcDbLine
 62
7
  6
CONTINUOUS
 10
-13.2306839033
 20
38.3688493593
 11
-13.2306839033
 21
37.4688493593
  0
LINE
  5
34E
100
AcDbEntity
  8
IMPORT_IGES
100
AcDbLine
 62
7
  6
CONTINUOUS
 10
-13.2306839033
 20
42.5688493593
 11
-13.2306839033
 21
43.4688493593
  0
LINE
  5
34F
100
AcDbEntity
  8
IMPORT_IGES
100
AcDbLine
 62
7
  6
CONTINUOUS
 10
-12.8380247555
 20
32.3843176588
 11
-12.8380247555
 21
27.8843176588
  0
LINE
  5
350
100
AcDbEntity
  8
IMPORT_IGES
100
AcDbLine
 62
7
  6
CONTINUOUS
 10
-12.6380247555
 20
44.4843176588
 11
-12.6380247555
 21
49.3843176588
  0
LINE
  5
351
100
AcDbEntity
  8
IMPORT_IGES
100
AcDbLine
 62
7
  6
CONTINUOUS
 10
-12.3380247555
 20
50.3451680365
 11
-12.3380247555
 21
49.8843176588
  0
LINE
  5
352
100
AcDbEntity
  8
IMPORT_IGES
100
AcDbLine
 62
7
  6
CONTINUOUS
 10
-13.5052358024
 20
-6.1156823412
 11
-13.509967571
 21
-6.3867651827
  0
LINE
  5
353
100
AcDbEntity
  8
IMPORT_IGES
100
AcDbLine
 62
7
  6
CONTINUOUS
 10
-13.0577646992
 20
-53.9156671084
 11
-13.0380247555
 21
-52.7810683703
  0
LINE
  5
354
100
AcDbEntity
  8
IMPORT_IGES
100
AcDbLine
 62
7
  6
CONTINUOUS
 10
-21.0668982935
 20
2.0818144245
 11
-21.0015336143
 21
2.1177591803
  0
LINE
  5
355
100
AcDbEntity
  8
IMPORT_IGES
100
AcDbLine
 62
250
  6
CONTINUOUS
 10
0.9650129975
 20
-15.1354647309
 11
0.9231208416
 21
-15.146031752
  0
LINE
  5
356
100
AcDbEntity
  8
IMPORT_IGES
100
AcDbLine
 62
250
  6
CONTINUOUS
 10
4.5585781833
 20
-14.9247645457
 11
4.5311914878
 21
-14.9262689381
  0
LINE
  5
357
100
AcDbEntity
  8
IMPORT_IGES
100
AcDbLine
 62
7
  6
CONTINUOUS
 10
4.3256666291
 20
-14.9262703155
 11
4.5619752445
 21
-14.926268935
  0
LINE
  5
358
100
AcDbEntity
  8
IMPORT_IGES
100
AcDbLine
 62
7
  6
CONTINUOUS
 10
4.5619752445
 20
-14.4262693877
 11
4.3256665537
 21
-14.4262681791
  0
LWPOLYLINE
  5
359
100
AcDbEntity
  8
IMPORT_IGES
100
AcDbPolyline
 62
7
  6
CONTINUOUS
 90
16
 70
0
 10
4.3256395216
 20
-14.4262675128
 10
4.3523328382
 20
-14.4277460369
 10
4.37811263
 20
-14.4317922618
 10
4.4029788969
 20
-14.4384061876
 10
4.4271393593
 20
-14.4477164404
 10
4.4503862968
 20
-14.4595943941
 10
4.4720965488
 20
-14.4736541702
 10
4.492267794
 20
-14.489961692
 10
4.5109023537
 20
-14.5084510363
 10
4.5273840309
 20
-14.5285385542
 10
4.5416553743
 20
-14.5502218842
 10
4.5537738354
 20
-14.573503388
 10
4.5632955709
 20
-14.5978065017
 10
4.5700726334
 20
-14.6229390374
 10
4.5742529704
 20
-14.649093183
 10
4.575836582
 20
-14.6762689386
  0
LWPOLYLINE
  5
35A
100
AcDbEntity
  8
IMPORT_IGES
100
AcDbPolyline
 62
7
  6
CONTINUOUS
 90
16
 70
0
 10
4.5619750175
 20
-14.4262706376
 10
4.5886107293
 20
-14.4277759657
 10
4.6143893511
 20
-14.4318615667
 10
4.6393108828
 20
-14.4385274404
 10
4.6636221193
 20
-14.447903193
 10
4.6870762658
 20
-14.4598592184
 10
4.7089329381
 20
-14.4740066987
 10
4.7291425501
 20
-14.4904119097
 10
4.747754688
 20
-14.5090085756
 10
4.7641777252
 20
-14.5292090513
 10
4.7783458103
 20
-14.5510637902
 10
4.7903247948
 20
-14.5745223388
 10
4.7997206073
 20
-14.598845692
 10
4.8064018908
 20
-14.6237875147
 10
4.8105000024
 20
-14.6495941419
 10
4.8120149421
 20
-14.6762655737
  0
LWPOLYLINE
  5
35B
100
AcDbEntity
  8
IMPORT_IGES
100
AcDbPolyline
 62
250
  6
CONTINUOUS
 90
3
 70
0
 10
4.5570503814
 20
-14.4276097361
 10
4.5825026011
 20
-14.4315934884
 10
4.6072660287
 20
-14.438131994
  0
LWPOLYLINE
  5
35C
100
AcDbEntity
  8
IMPORT_IGES
100
AcDbPolyline
 62
250
  6
CONTINUOUS
 90
13
 70
0
 10
4.6072660287
 20
-14.438131994
 10
4.6309723136
 20
-14.4470596638
 10
4.6535219725
 20
-14.4582689304
 10
4.6750274288
 20
-14.4718310263
 10
4.6953308794
 20
-14.4877583807
 10
4.7140494899
 20
-14.5058724592
 10
4.7309148119
 20
-14.5260137314
 10
4.7457051164
 20
-14.5480339028
 10
4.758172177
 20
-14.5716987201
 10
4.7680710813
 20
-14.5966517041
 10
4.7752501598
 20
-14.6225757801
 10
4.7796140007
 20
-14.6492168346
 10
4.7810812041
 20
-14.6762692055
  0
LINE
  5
35D
100
AcDbEntity
  8
IMPORT_IGES
100
AcDbLine
 62
7
  6
CONTINUOUS
 10
-21.0015336143
 20
-4.3491238628
 11
-21.066900791
 21
-4.313178203
  0
LINE
  5
35E
100
AcDbEntity
  8
IMPORT_IGES
100
AcDbLine
 62
7
  6
CONTINUOUS
 10
-20.0417675766
 20
2.0818109318
 11
-20.0861656906
 21
2.1262098146
  0
LINE
  5
35F
100
AcDbEntity
  8
IMPORT_IGES
100
AcDbLine
 62
7
  6
CONTINUOUS
 10
-12.9667758612
 20
-8.7717987789
 11
-5.1544641397
 21
-23.2721559925
  0
LINE
  5
360
100
AcDbEntity
  8
IMPORT_IGES
100
AcDbLine
 62
7
  6
CONTINUOUS
 10
-5.1175840084
 20
-23.2522862004
 11
-12.9248837053
 21
-8.7612317578
  0
LINE
  5
361
100
AcDbEntity
  8
IMPORT_IGES
100
AcDbLine
 62
250
  6
CONTINUOUS
 10
-11.6309012412
 20
-55.0082219115
 11
-11.6309012412
 21
-54.8119248112
  0
LINE
  5
362
100
AcDbEntity
  8
IMPORT_IGES
100
AcDbLine
 62
7
  6
CONTINUOUS
 10
-11.2380247555
 20
50.3451680365
 11
-11.2380247555
 21
52.7708597367
  0
LINE
  5
363
100
AcDbEntity
  8
IMPORT_IGES
100
AcDbLine
 62
7
  6
CONTINUOUS
 10
-11.2380247555
 20
52.8441710094
 11
-11.2380247555
 21
52.8843176587
  0
LINE
  5
364
100
AcDbEntity
  8
IMPORT_IGES
100
AcDbLine
 62
250
  6
CONTINUOUS
 10
-11.2363001047
 20
48.4843176588
 11
-11.2363001047
 21
44.4843176588
  0
LINE
  5
365
100
AcDbEntity
  8
IMPORT_IGES
100
AcDbLine
 62
7
  6
CONTINUOUS
 10
-10.8380247555
 20
52.5795720364
 11
-10.8380247555
 21
49.8843176588
  0
LINE
  5
366
100
AcDbEntity
  8
IMPORT_IGES
100
AcDbLine
 62
7
  6
CONTINUOUS
 10
-10.8380247555
 20
52.8441710094
 11
-10.8380247555
 21
52.8843176588
  0
LINE
  5
367
100
AcDbEntity
  8
IMPORT_IGES
100
AcDbLine
 62
7
  6
CONTINUOUS
 10
-10.4380247555
 20
53.3843176588
 11
-10.4380247555
 21
54.1843176588
  0
LINE
  5
368
100
AcDbEntity
  8
IMPORT_IGES
100
AcDbLine
 62
250
  6
CONTINUOUS
 10
-10.3013725727
 20
44.4843176588
 11
-10.3013725727
 21
48.4843176588
  0
LINE
  5
369
100
AcDbEntity
  8
IMPORT_IGES
100
AcDbLine
 62
7
  6
CONTINUOUS
 10
-10.0880247555
 20
-27.6986473984
 11
-10.0880247555
 21
-28.5328006847
  0
LINE
  5
36A
100
AcDbEntity
  8
IMPORT_IGES
100
AcDbLine
 62
7
  6
CONTINUOUS
 10
-9.5380247554
 20
52.5795720364
 11
-9.5380247555
 21
52.7952956751
  0
LINE
  5
36B
100
AcDbEntity
  8
IMPORT_IGES
100
AcDbLine
 62
7
  6
CONTINUOUS
 10
-9.4380247555
 20
48.4843176588
 11
-9.4380247555
 21
49.9678596209
  0
LINE
  5
36C
100
AcDbEntity
  8
IMPORT_IGES
100
AcDbLine
 62
7
  6
CONTINUOUS
 10
-9.4380247555
 20
52.8843176588
 11
-9.4378429222
 21
52.5795720364
  0
LINE
  5
36D
100
AcDbEntity
  8
IMPORT_IGES
100
AcDbLine
 62
250
  6
CONTINUOUS
 10
-9.1313268678
 20
-55.0510986597
 11
-9.1313268693
 21
-54.8548015378
  0
LINE
  5
36E
100
AcDbEntity
  8
IMPORT_IGES
100
AcDbLine
 62
7
  6
CONTINUOUS
 10
-8.9630247555
 20
-27.3656823412
 11
-8.9630247555
 21
-26.4286995445
  0
LINE
  5
36F
100
AcDbEntity
  8
IMPORT_IGES
100
AcDbLine
 62
7
  6
CONTINUOUS
 10
-8.4306839033
 20
40.0188493593
 11
-8.4306839033
 21
40.9188493593
  0
LINE
  5
370
100
AcDbEntity
  8
IMPORT_IGES
100
AcDbLine
 62
7
  6
CONTINUOUS
 10
-8.2632247555
 20
28.905969452
 11
-8.2632247555
 21
28.7382176588
  0
LINE
  5
371
100
AcDbEntity
  8
IMPORT_IGES
100
AcDbLine
 62
7
  6
CONTINUOUS
 10
-8.1306839033
 20
38.3688493593
 11
-8.1306839033
 21
37.4688493593
  0
LINE
  5
372
100
AcDbEntity
  8
IMPORT_IGES
100
AcDbLine
 62
7
  6
CONTINUOUS
 10
-8.1306839033
 20
42.5688493593
 11
-8.1306839033
 21
43.4688493593
  0
LINE
  5
373
100
AcDbEntity
  8
IMPORT_IGES
100
AcDbLine
 62
7
  6
CONTINUOUS
 10
-20.0417669792
 20
-4.313157295
 11
-20.0861656906
 21
-4.3575744971
  0
LINE
  5
374
100
AcDbEntity
  8
IMPORT_IGES
100
AcDbLine
 62
250
  6
CONTINUOUS
 10
-2.5549368052
 20
-8.6904421538
 11
-2.5130446493
 21
-8.6798751327
  0
LINE
  5
375
100
AcDbEntity
  8
IMPORT_IGES
100
AcDbLine
 62
7
  6
CONTINUOUS
 10
-13.5648903614
 20
2.1262098146
 11
-13.5055457991
 21
2.0668652523
  0
LINE
  5
376
100
AcDbEntity
  8
IMPORT_IGES
100
AcDbLine
 62
7
  6
CONTINUOUS
 10
-3.6380247555
 20
-52.7810683703
 11
-3.6182848619
 21
-53.9156671084
  0
LINE
  5
377
100
AcDbEntity
  8
IMPORT_IGES
100
AcDbLine
 62
7
  6
CONTINUOUS
 10
-7.7130247555
 20
-26.4287067748
 11
-7.7130247555
 21
-27.3656823412
  0
LINE
  5
378
100
AcDbEntity
  8
IMPORT_IGES
100
AcDbLine
 62
7
  6
CONTINUOUS
 10
-7.5880247555
 20
-29.3656823412
 11
-7.5880247555
 21
-28.8656823412
  0
LINE
  5
379
100
AcDbEntity
  8
IMPORT_IGES
100
AcDbLine
 62
250
  6
CONTINUOUS
 10
-7.5446909928
 20
-55.0510986597
 11
-7.5446910072
 21
-54.8548015559
  0
LINE
  5
37A
100
AcDbEntity
  8
IMPORT_IGES
100
AcDbLine
 62
7
  6
CONTINUOUS
 10
-7.2380247555
 20
48.4843176588
 11
-7.2380247555
 21
49.9678596209
  0
LINE
  5
37B
100
AcDbEntity
  8
IMPORT_IGES
100
AcDbLine
 62
7
  6
CONTINUOUS
 10
-7.2382065887
 20
52.5795720364
 11
-7.2380247555
 21
52.8843176588
  0
LINE
  5
37C
100
AcDbEntity
  8
IMPORT_IGES
100
AcDbLine
 62
7
  6
CONTINUOUS
 10
-7.1710247555
 20
28.4842176588
 11
-7.1710247555
 21
27.4682176588
  0
LINE
  5
37D
100
AcDbEntity
  8
IMPORT_IGES
100
AcDbLine
 62
7
  6
CONTINUOUS
 10
-7.1380247555
 20
52.5795720364
 11
-7.1380247555
 21
52.7952958665
  0
LINE
  5
37E
100
AcDbEntity
  8
IMPORT_IGES
100
AcDbLine
 62
250
  6
CONTINUOUS
 10
-6.3746769382
 20
48.4843176588
 11
-6.3746769382
 21
44.4843176588
  0
LINE
  5
37F
100
AcDbEntity
  8
IMPORT_IGES
100
AcDbLine
 62
7
  6
CONTINUOUS
 10
-6.2380247555
 20
53.3843176588
 11
-6.2380247555
 21
54.1843176588
  0
LINE
  5
380
100
AcDbEntity
  8
IMPORT_IGES
100
AcDbLine
 62
7
  6
CONTINUOUS
 10
-5.8380247555
 20
52.8843176588
 11
-5.8380247555
 21
52.8441710094
  0
LINE
  5
381
100
AcDbEntity
  8
IMPORT_IGES
100
AcDbLine
 62
7
  6
CONTINUOUS
 10
-5.8380247555
 20
49.8843176588
 11
-5.8380247555
 21
52.5795720364
  0
LINE
  5
382
100
AcDbEntity
  8
IMPORT_IGES
100
AcDbLine
 62
250
  6
CONTINUOUS
 10
-5.4397494062
 20
48.4843176588
 11
-5.4397494062
 21
44.4843176588
  0
LINE
  5
383
100
AcDbEntity
  8
IMPORT_IGES
100
AcDbLine
 62
7
  6
CONTINUOUS
 10
-5.4380247555
 20
52.8843176587
 11
-5.4380247555
 21
52.8441710094
  0
LINE
  5
384
100
AcDbEntity
  8
IMPORT_IGES
100
AcDbLine
 62
7
  6
CONTINUOUS
 10
-5.4380247555
 20
52.7708597367
 11
-5.4380247555
 21
50.3451680365
  0
LINE
  5
385
100
AcDbEntity
  8
IMPORT_IGES
100
AcDbLine
 62
250
  6
CONTINUOUS
 10
-5.0451480939
 20
-54.8119246322
 11
-5.0451480937
 21
-55.0082217386
  0
LINE
  5
386
100
AcDbEntity
  8
IMPORT_IGES
100
AcDbLine
 62
7
  6
CONTINUOUS
 10
-4.4987918618
 20
42.1607423015
 11
-4.4987918618
 21
42.3737578935
  0
LINE
  5
387
100
AcDbEntity
  8
IMPORT_IGES
100
AcDbLine
 62
7
  6
CONTINUOUS
 10
-4.3380247555
 20
50.3451680365
 11
-4.3380247555
 21
49.8843176588
  0
LINE
  5
388
100
AcDbEntity
  8
IMPORT_IGES
100
AcDbLine
 62
7
  6
CONTINUOUS
 10
-4.2521866116
 20
25.9994592655
 11
-4.2521866116
 21
21.8017146521
  0
LINE
  5
389
100
AcDbEntity
  8
IMPORT_IGES
100
AcDbLine
 62
7
  6
CONTINUOUS
 10
-4.0380247555
 20
49.3843176588
 11
-4.0380247555
 21
44.4843176588
  0
LINE
  5
38A
100
AcDbEntity
  8
IMPORT_IGES
100
AcDbLine
 62
7
  6
CONTINUOUS
 10
-4.0226041496
 20
42.6580944171
 11
-4.0226137132
 21
42.8051352756
  0
LINE
  5
38B
100
AcDbEntity
  8
IMPORT_IGES
100
AcDbLine
 62
250
  6
CONTINUOUS
 10
-3.9922388072
 20
26.7213374585
 11
-3.9922388072
 21
21.9994826927
  0
LINE
  5
38C
100
AcDbEntity
  8
IMPORT_IGES
100
AcDbLine
 62
7
  6
CONTINUOUS
 10
-4.0225940598
 20
42.5195986718
 11
-4.0226280632
 21
42.3737578948
  0
LINE
  5
38D
100
AcDbEntity
  8
IMPORT_IGES
100
AcDbLine
 62
7
  6
CONTINUOUS
 10
-2.0620103668
 20
42.1607423015
 11
-2.0716558162
 21
42.0368513575
  0
LINE
  5
38E
100
AcDbEntity
  8
IMPORT_IGES
100
AcDbLine
 62
7
  6
CONTINUOUS
 10
-2.2542471303
 20
39.6934061055
 11
-2.1060303241
 21
41.5953489417
  0
LINE
  5
38F
100
AcDbEntity
  8
IMPORT_IGES
100
AcDbLine
 62
7
  6
CONTINUOUS
 10
-2.2678058584
 20
39.5197253516
 11
-2.2756925872
 21
39.4187001659
  0
LINE
  5
390
100
AcDbEntity
  8
IMPORT_IGES
100
AcDbLine
 62
7
  6
CONTINUOUS
 10
-1.9216150464
 20
42.2241156473
 11
-1.9374401829
 21
42.0368513575
  0
LINE
  5
391
100
AcDbEntity
  8
IMPORT_IGES
100
AcDbLine
 62
7
  6
CONTINUOUS
 10
-1.9801780919
 20
41.541351608
 11
-2.1495781172
 21
39.5803318846
  0
LINE
  5
392
100
AcDbEntity
  8
IMPORT_IGES
100
AcDbLine
 62
7
  6
CONTINUOUS
 10
-13.5055457991
 20
-4.2982299348
 11
-13.5648903614
 21
-4.3575744971
  0
LINE
  5
393
100
AcDbEntity
  8
IMPORT_IGES
100
AcDbLine
 62
7
  6
CONTINUOUS
 10
-3.1844704223
 20
3.8494075288
 11
-3.1495602924
 21
3.8843176588
  0
LINE
  5
394
100
AcDbEntity
  8
IMPORT_IGES
100
AcDbLine
 62
7
  6
CONTINUOUS
 10
-3.1705037118
 20
2.0668652523
 11
-3.1111591495
 21
2.1262098146
  0
LINE
  5
395
100
AcDbEntity
  8
IMPORT_IGES
100
AcDbLine
 62
250
  6
CONTINUOUS
 10
-3.1111591495
 20
-6.3086954496
 11
-3.1671979176
 21
-6.3228308608
  0
LINE
  5
396
100
AcDbEntity
  8
IMPORT_IGES
100
AcDbLine
 62
250
  6
CONTINUOUS
 10
-12.9667758612
 20
-8.7717987789
 11
-12.9248837053
 21
-8.7612317578
  0
LWPOLYLINE
  5
397
100
AcDbEntity
  8
IMPORT_IGES
100
AcDbPolyline
 62
7
  6
CONTINUOUS
 90
10
 70
0
 10
-0.2888632805
 20
-4.3131752525
 10
-0.1172647314
 20
-4.3036492244
 10
0.0497231415
 20
-4.2844188642
 10
0.2121003384
 20
-4.2554841719
 10
0.3698070065
 20
-4.2165911888
 10
0.5229029985
 20
-4.1679938737
 10
0.6715678726
 20
-4.110454103
 10
0.8158614815
 20
-4.0442258356
 10
0.9557239724
 20
-3.9690551127
 10
1.0911553454
 20
-3.8849419343
  0
LWPOLYLINE
  5
398
100
AcDbEntity
  8
IMPORT_IGES
100
AcDbPolyline
 62
7
  6
CONTINUOUS
 90
8
 70
0
 10
4.255423494
 20
-4.3533092716
 10
4.2728833793
 20
-4.3527523402
 10
4.2880199039
 20
-4.3521713119
 10
4.3007652171
 20
-4.3515693757
 10
4.3109157676
 20
-4.3509560981
 10
4.3184037048
 20
-4.350334668
 10
4.3232968793
 20
-4.3497018965
 10
4.3255952909
 20
-4.3490577837
  0
LINE
  5
399
100
AcDbEntity
  8
IMPORT_IGES
100
AcDbLine
 62
7
  6
CONTINUOUS
 10
4.2133300897
 20
-4.3543604107
 11
4.255423494
 21
-4.3533092716
  0
LINE
  5
39A
100
AcDbEntity
  8
IMPORT_IGES
100
AcDbLine
 62
7
  6
CONTINUOUS
 10
-0.4350232643
 20
-4.3156823412
 11
-0.288864463
 21
-4.3131752728
  0
LINE
  5
39B
100
AcDbEntity
  8
IMPORT_IGES
100
AcDbLine
 62
7
  6
CONTINUOUS
 10
-13.5055457991
 20
-4.2982299348
 11
-14.5229982056
 21
-4.3156823412
  0
LINE
  5
39C
100
AcDbEntity
  8
IMPORT_IGES
100
AcDbLine
 62
7
  6
CONTINUOUS
 10
-3.0863325512
 20
-7.1332897342
 11
-13.4674413963
 21
-7.1332897342
  0
LINE
  5
39D
100
AcDbEntity
  8
IMPORT_IGES
100
AcDbLine
 62
7
  6
CONTINUOUS
 10
-13.5052358024
 20
-6.1156823412
 11
-3.1708137085
 21
-6.1156823412
  0
LINE
  5
39E
100
AcDbEntity
  8
IMPORT_IGES
100
AcDbLine
 62
7
  6
CONTINUOUS
 10
3.4101161797
 20
-4.3575744971
 11
-3.1111591495
 21
-4.3575744971
  0
LINE
  5
39F
100
AcDbEntity
  8
IMPORT_IGES
100
AcDbLine
 62
7
  6
CONTINUOUS
 10
-13.5648903614
 20
-4.3575744971
 11
-20.0861656906
 21
-4.3575744971
  0
LINE
  5
3A0
100
AcDbEntity
  8
IMPORT_IGES
100
AcDbLine
 62
7
  6
CONTINUOUS
 10
-0.4350232643
 20
-4.3156823412
 11
-2.1530513054
 21
-4.3156823412
  0
LINE
  5
3A1
100
AcDbEntity
  8
IMPORT_IGES
100
AcDbLine
 62
7
  6
CONTINUOUS
 10
-14.5229982056
 20
-4.3156823412
 11
-16.2410262466
 21
-4.3156823412
  0
LINE
  5
3A2
100
AcDbEntity
  8
IMPORT_IGES
100
AcDbLine
 62
250
  6
CONTINUOUS
 10
-0.288864463
 20
-4.3131752728
 11
3.3657178895
 21
-4.3131755264
  0
LINE
  5
3A3
100
AcDbEntity
  8
IMPORT_IGES
100
AcDbLine
 62
250
  6
CONTINUOUS
 10
-16.387185048
 20
-4.3131752728
 11
-20.0417673761
 21
-4.31317578
  0
LINE
  5
3A4
100
AcDbEntity
  8
IMPORT_IGES
100
AcDbLine
 62
250
  6
CONTINUOUS
 10
4.2545136016
 20
-4.313176615
 11
4.3908487766
 21
-4.3131791041
  0
LINE
  5
3A5
100
AcDbEntity
  8
IMPORT_IGES
100
AcDbLine
 62
250
  6
CONTINUOUS
 10
-20.9305638831
 20
-4.3131758451
 11
-21.066900791
 21
-4.313178203
  0
LINE
  5
3A6
100
AcDbEntity
  8
IMPORT_IGES
100
AcDbLine
 62
7
  6
CONTINUOUS
 10
-16.387185048
 20
-4.3131752728
 11
-16.2410262466
 21
-4.3156823412
  0
LINE
  5
3A7
100
AcDbEntity
  8
IMPORT_IGES
100
AcDbLine
 62
7
  6
CONTINUOUS
 10
-2.1530513054
 20
-4.3156823412
 11
-3.1705037118
 21
-4.2982299348
  0
LINE
  5
3A8
100
AcDbEntity
  8
IMPORT_IGES
100
AcDbLine
 62
7
  6
CONTINUOUS
 10
-13.5264892185
 20
3.8843176588
 11
-13.4915790887
 21
3.8494075289
  0
LINE
  5
3A9
100
AcDbEntity
  8
IMPORT_IGES
100
AcDbLine
 62
7
  6
CONTINUOUS
 10
-3.1111591495
 20
-4.3575744971
 11
-3.1705037118
 21
-4.2982299348
  0
LINE
  5
3AA
100
AcDbEntity
  8
IMPORT_IGES
100
AcDbLine
 62
7
  6
CONTINUOUS
 10
-2.5549368052
 20
-8.6904421538
 11
0.9231208416
 21
-15.146031752
  0
LINE
  5
3AB
100
AcDbEntity
  8
IMPORT_IGES
100
AcDbLine
 62
7
  6
CONTINUOUS
 10
0.9650129975
 20
-15.135464731
 11
-2.5130446493
 21
-8.6798751327
  0
LINE
  5
3AC
100
AcDbEntity
  8
IMPORT_IGES
100
AcDbLine
 62
7
  6
CONTINUOUS
 10
-4.004079031
 20
38.7961587847
 11
-4.0688269442
 21
39.5557800704
  0
LINE
  5
3AD
100
AcDbEntity
  8
IMPORT_IGES
100
AcDbLine
 62
7
  6
CONTINUOUS
 10
-4.0831133464
 20
39.723387869
 11
-4.2478304018
 21
41.6558452269
  0
LINE
  5
3AE
100
AcDbEntity
  8
IMPORT_IGES
100
AcDbLine
 62
7
  6
CONTINUOUS
 10
-4.2657838482
 20
41.8664747182
 11
-4.290772203
 21
42.1607423015
  0
LINE
  5
3AF
100
AcDbEntity
  8
IMPORT_IGES
100
AcDbLine
 62
7
  6
CONTINUOUS
 10
-4.1044054665
 20
41.5011133797
 11
-3.9744450523
 21
39.8363242658
  0
LINE
  5
3B0
100
AcDbEntity
  8
IMPORT_IGES
100
AcDbLine
 62
7
  6
CONTINUOUS
 10
-3.9612694032
 20
39.6675445855
 11
-3.9036304083
 21
38.9280210065
  0
LINE
  5
3B1
100
AcDbEntity
  8
IMPORT_IGES
100
AcDbLine
 62
7
  6
CONTINUOUS
 10
-4.1557236315
 20
42.1607423015
 11
-4.120690994
 21
41.7097305113
  0
LINE
  5
3B2
100
AcDbEntity
  8
IMPORT_IGES
100
AcDbLine
 62
7
  6
CONTINUOUS
 10
-5.648376562
 20
43.1669940723
 11
-5.6575963531
 21
43.3700535703
  0
LWPOLYLINE
  5
3B3
100
AcDbEntity
  8
IMPORT_IGES
100
AcDbPolyline
 62
7
  6
CONTINUOUS
 90
22
 70
0
 10
-2.2380247555
 20
26.9405676588
 10
-2.2399813012
 20
27.0008136909
 10
-2.2454687837
 20
27.0599735899
 10
-2.254487203
 20
27.1180473559
 10
-2.267136131
 20
27.1753292694
 10
-2.2833159957
 20
27.2315250499
 10
-2.302728082
 20
27.2857518555
 10
-2.3254161865
 20
27.3379773545
 10
-2.3513365124
 20
27.3882338786
 10
-2.3800589548
 20
27.4357355816
 10
-2.4116219779
 20
27.4804424918
 10
-2.4459871175
 20
27.5223945809
 10
-2.4826088743
 20
27.5609259175
 10
-2.5215199915
 20
27.5959895452
 10
-2.5626877259
 20
27.6276324205
 10
-2.6054683502
 20
27.6553294819
 10
-2.6498883489
 20
27.6790272636
 10
-2.6959212373
 20
27.6987792313
 10
-2.7428438339
 20
27.7142207211
 10
-2.790415078
 20
27.7252301783
 10
-2.8388760303
 20
27.7319291575
 10
-2.8882266906
 20
27.7343176588
  0
LINE
  5
3B4
100
AcDbEntity
  8
IMPORT_IGES
100
AcDbLine
 62
7
  6
CONTINUOUS
 10
-3.1671979176
 20
-6.3228308608
 11
-3.1708137085
 21
-6.1156823412
  0
LINE
  5
3B5
100
AcDbEntity
  8
IMPORT_IGES
100
AcDbLine
 62
7
  6
CONTINUOUS
 10
-3.9373129816
 20
38.5082964157
 11
-3.9373129816
 21
38.7961587847
  0
LINE
  5
3B6
100
AcDbEntity
  8
IMPORT_IGES
100
AcDbLine
 62
7
  6
CONTINUOUS
 10
-3.8380247555
 20
27.8843176588
 11
-3.8380247555
 21
32.3843176588
  0
LINE
  5
3B7
100
AcDbEntity
  8
IMPORT_IGES
100
AcDbLine
 62
7
  6
CONTINUOUS
 10
-3.7401118926
 20
42.3738148058
 11
-3.7401118926
 21
42.6064188376
  0
LINE
  5
3B8
100
AcDbEntity
  8
IMPORT_IGES
100
AcDbLine
 62
7
  6
CONTINUOUS
 10
-3.7400798794
 20
42.8051352758
 11
-3.7400798794
 21
42.7390723441
  0
LINE
  5
3B9
100
AcDbEntity
  8
IMPORT_IGES
100
AcDbLine
 62
7
  6
CONTINUOUS
 10
-3.6672499317
 20
38.7961581983
 11
-3.6672499317
 21
38.5082964157
  0
LINE
  5
3BA
100
AcDbEntity
  8
IMPORT_IGES
100
AcDbLine
 62
7
  6
CONTINUOUS
 10
-3.3864624719
 20
41.4557804212
 11
-3.3864624719
 21
41.1758253036
  0
LINE
  5
3BB
100
AcDbEntity
  8
IMPORT_IGES
100
AcDbLine
 62
7
  6
CONTINUOUS
 10
-3.3705199163
 20
42.6621815181
 11
-3.3705199163
 21
42.5645243367
  0
LINE
  5
3BC
100
AcDbEntity
  8
IMPORT_IGES
100
AcDbLine
 62
7
  6
CONTINUOUS
 10
-3.3705199163
 20
42.7908574048
 11
-3.3705199163
 21
42.8746678677
  0
LINE
  5
3BD
100
AcDbEntity
  8
IMPORT_IGES
100
AcDbLine
 62
7
  6
CONTINUOUS
 10
-3.3014647417
 20
-49.9102063227
 11
-3.3014647417
 21
-53.1454233481
  0
LINE
  5
3BE
100
AcDbEntity
  8
IMPORT_IGES
100
AcDbLine
 62
7
  6
CONTINUOUS
 10
-3.2408025766
 20
42.6946578476
 11
-3.2408025766
 21
42.7481198311
  0
LINE
  5
3BF
100
AcDbEntity
  8
IMPORT_IGES
100
AcDbLine
 62
7
  6
CONTINUOUS
 10
-3.1844704222
 20
-6.1156823412
 11
-3.1844704223
 21
3.8494075288
  0
LINE
  5
3C0
100
AcDbEntity
  8
IMPORT_IGES
100
AcDbLine
 62
7
  6
CONTINUOUS
 10
-3.1705037118
 20
-4.2982299348
 11
-3.1705037118
 21
2.0668652523
  0
LINE
  5
3C1
100
AcDbEntity
  8
IMPORT_IGES
100
AcDbLine
 62
7
  6
CONTINUOUS
 10
-3.1530513054
 20
-48.2617928863
 11
-3.1530513054
 21
-48.0479153624
  0
LINE
  5
3C2
100
AcDbEntity
  8
IMPORT_IGES
100
AcDbLine
 62
7
  6
CONTINUOUS
 10
-3.1111591495
 20
3.8843176588
 11
-3.1111591495
 21
2.1262098146
  0
LINE
  5
3C3
100
AcDbEntity
  8
IMPORT_IGES
100
AcDbLine
 62
7
  6
CONTINUOUS
 10
-3.1111591495
 20
-4.3575744971
 11
-3.1111591495
 21
-6.3086954496
  0
LINE
  5
3C4
100
AcDbEntity
  8
IMPORT_IGES
100
AcDbLine
 62
7
  6
CONTINUOUS
 10
-3.1111591495
 20
-48.0592823511
 11
-3.1111591495
 21
-54.0675261733
  0
LINE
  5
3C5
100
AcDbEntity
  8
IMPORT_IGES
100
AcDbLine
 62
7
  6
CONTINUOUS
 10
-2.9880247555
 20
32.8343176588
 11
-2.9880247555
 21
33.2343176588
  0
LINE
  5
3C6
100
AcDbEntity
  8
IMPORT_IGES
100
AcDbLine
 62
7
  6
CONTINUOUS
 10
-2.801966127
 20
42.7481198311
 11
-2.801966127
 21
42.6946578476
  0
LINE
  5
3C7
100
AcDbEntity
  8
IMPORT_IGES
100
AcDbLine
 62
7
  6
CONTINUOUS
 10
-2.6757702353
 20
42.8746678677
 11
-2.6757702353
 21
42.7714913692
  0
LINE
  5
3C8
100
AcDbEntity
  8
IMPORT_IGES
100
AcDbLine
 62
7
  6
CONTINUOUS
 10
-2.6757702353
 20
42.5645243367
 11
-2.6757702353
 21
42.6426650739
  0
LINE
  5
3C9
100
AcDbEntity
  8
IMPORT_IGES
100
AcDbLine
 62
7
  6
CONTINUOUS
 10
-2.5030247555
 20
27.5793230983
 11
-2.5030247555
 21
27.7343176588
  0
LINE
  5
3CA
100
AcDbEntity
  8
IMPORT_IGES
100
AcDbLine
 62
7
  6
CONTINUOUS
 10
-2.4128508533
 20
24.2497067121
 11
-2.4128508533
 21
26.9405676588
  0
LINE
  5
3CB
100
AcDbEntity
  8
IMPORT_IGES
100
AcDbLine
 62
7
  6
CONTINUOUS
 10
-2.2380247555
 20
26.9405676588
 11
-2.2380247555
 21
24.8938529295
  0
LINE
  5
3CC
100
AcDbEntity
  8
IMPORT_IGES
100
AcDbLine
 62
7
  6
CONTINUOUS
 10
-2.1880247555
 20
34.0343176588
 11
-2.1880247555
 21
32.8343176588
  0
LINE
  5
3CD
100
AcDbEntity
  8
IMPORT_IGES
100
AcDbLine
 62
7
  6
CONTINUOUS
 10
-2.1530513054
 20
-4.3156823412
 11
-2.1530513054
 21
2.0843176588
  0
LINE
  5
3CE
100
AcDbEntity
  8
IMPORT_IGES
100
AcDbLine
 62
7
  6
CONTINUOUS
 10
-2.1409263074
 20
42.0368513575
 11
-2.1409263074
 21
41.7418570815
  0
LINE
  5
3CF
100
AcDbEntity
  8
IMPORT_IGES
100
AcDbLine
 62
7
  6
CONTINUOUS
 10
-2.1380247555
 20
28.8843176588
 11
-2.1380247555
 21
25.8843176588
  0
LINE
  5
3D0
100
AcDbEntity
  8
IMPORT_IGES
100
AcDbLine
 62
7
  6
CONTINUOUS
 10
-1.8380247555
 20
50.3451680365
 11
-1.8380247555
 21
49.3843176588
  0
LINE
  5
3D1
100
AcDbEntity
  8
IMPORT_IGES
100
AcDbLine
 62
7
  6
CONTINUOUS
 10
-1.7820267279
 20
41.9320255195
 11
-1.7820267279
 21
41.6803527653
  0
LINE
  5
3D2
100
AcDbEntity
  8
IMPORT_IGES
100
AcDbLine
 62
7
  6
CONTINUOUS
 10
-1.6452344789
 20
42.0741689197
 11
-1.6452344789
 21
41.541351608
  0
LINE
  5
3D3
100
AcDbEntity
  8
IMPORT_IGES
100
AcDbLine
 62
7
  6
CONTINUOUS
 10
-1.4880247555
 20
32.8343176588
 11
-1.4880247555
 21
34.320481231
  0
LINE
  5
3D4
100
AcDbEntity
  8
IMPORT_IGES
100
AcDbLine
 62
7
  6
CONTINUOUS
 10
-0.8380247555
 20
32.3843176588
 11
-0.8380247555
 21
33.3843176588
  0
LINE
  5
3D5
100
AcDbEntity
  8
IMPORT_IGES
100
AcDbLine
 62
7
  6
CONTINUOUS
 10
-0.8380247555
 20
34.3843176588
 11
-0.8380247555
 21
36.5843176588
  0
LINE
  5
3D6
100
AcDbEntity
  8
IMPORT_IGES
100
AcDbLine
 62
7
  6
CONTINUOUS
 10
-0.6380247555
 20
49.3843176588
 11
-0.6380247555
 21
50.3451680365
  0
LINE
  5
3D7
100
AcDbEntity
  8
IMPORT_IGES
100
AcDbLine
 62
7
  6
CONTINUOUS
 10
-0.4350232643
 20
2.0843176588
 11
-0.4350232643
 21
-4.3156823412
  0
LINE
  5
3D8
100
AcDbEntity
  8
IMPORT_IGES
100
AcDbLine
 62
7
  6
CONTINUOUS
 10
-0.5744019848
 20
43.3698368453
 11
-0.5753720677
 21
43.1859704815
  0
LINE
  5
3D9
100
AcDbEntity
  8
IMPORT_IGES
100
AcDbLine
 62
7
  6
CONTINUOUS
 10
-3.179229915
 20
-49.787971496
 11
-3.1530513054
 21
-48.2617928863
  0
LINE
  5
3DA
100
AcDbEntity
  8
IMPORT_IGES
100
AcDbLine
 62
7
  6
CONTINUOUS
 10
-3.3014647417
 20
-53.1454233481
 11
-3.3140191716
 21
-53.8646661513
  0
LINE
  5
3DB
100
AcDbEntity
  8
IMPORT_IGES
100
AcDbLine
 62
250
  6
CONTINUOUS
 10
-13.509967571
 20
-6.3867651827
 11
-13.5648903614
 21
-6.4006190958
  0
LINE
  5
3DC
100
AcDbEntity
  8
IMPORT_IGES
100
AcDbLine
 62
250
  6
CONTINUOUS
 10
-21.1448813186
 20
-1.8138200669
 11
-20.9734409971
 21
-1.8136649083
  0
LINE
  5
3DD
100
AcDbEntity
  8
IMPORT_IGES
100
AcDbLine
 62
250
  6
CONTINUOUS
 10
4.4688318118
 20
-0.4175436238
 11
4.2973914966
 21
-0.4176854194
  0
LINE
  5
3DE
100
AcDbEntity
  8
IMPORT_IGES
100
AcDbLine
 62
250
  6
CONTINUOUS
 10
1.1103598775
 20
-1.8135856129
 11
3.3228407803
 21
-1.8136012809
  0
LINE
  5
3DF
100
AcDbEntity
  8
IMPORT_IGES
100
AcDbLine
 62
250
  6
CONTINUOUS
 10
-17.7864093921
 20
-1.8135658837
 11
-19.9988903065
 21
-1.8135774918
  0
LINE
  5
3E0
100
AcDbEntity
  8
IMPORT_IGES
100
AcDbLine
 62
250
  6
CONTINUOUS
 10
-17.7864093921
 20
-0.4177947376
 11
-19.9988902913
 21
-0.417749175
  0
LINE
  5
3E1
100
AcDbEntity
  8
IMPORT_IGES
100
AcDbLine
 62
250
  6
CONTINUOUS
 10
3.3228407803
 20
-0.4177613934
 11
1.1103598812
 21
-0.4177987987
  0
LINE
  5
3E2
100
AcDbEntity
  8
IMPORT_IGES
100
AcDbLine
 62
250
  6
CONTINUOUS
 10
4.4688317368
 20
-1.8137943776
 11
4.2973914748
 21
-1.8136397036
  0
LINE
  5
3E3
100
AcDbEntity
  8
IMPORT_IGES
100
AcDbLine
 62
250
  6
CONTINUOUS
 10
-21.1448812424
 20
-0.4175720031
 11
-20.9734409971
 21
-0.417710966
  0
LINE
  5
3E4
100
AcDbEntity
  8
IMPORT_IGES
100
AcDbLine
 62
7
  6
CONTINUOUS
 10
3.3657178895
 20
-4.3131755264
 11
3.4101161797
 21
-4.3575744971
  0
LWPOLYLINE
  5
3E5
100
AcDbEntity
  8
IMPORT_IGES
100
AcDbPolyline
 62
7
  6
CONTINUOUS
 90
9
 70
0
 10
3.3464084979
 20
-4.033405477
 10
3.3486742436
 20
-4.0959653893
 10
3.3509914443
 20
-4.1508152297
 10
3.3533606143
 20
-4.1978808027
 10
3.3557812392
 20
-4.2372363037
 10
3.3582296077
 20
-4.2684833865
 10
3.3606978159
 20
-4.2914892691
 10
3.3631937675
 20
-4.3063867336
 10
3.3657174627
 20
-4.3131757799
  0
LINE
  5
3E6
100
AcDbEntity
  8
IMPORT_IGES
100
AcDbLine
 62
7
  6
CONTINUOUS
 10
3.3420985899
 20
-3.8869496281
 11
3.3464084979
 21
-4.033405477
  0
LINE
  5
3E7
100
AcDbEntity
  8
IMPORT_IGES
100
AcDbLine
 62
7
  6
CONTINUOUS
 10
3.3381039146
 20
-3.7128953668
 11
3.3420985899
 21
-3.8869496281
  0
LINE
  5
3E8
100
AcDbEntity
  8
IMPORT_IGES
100
AcDbLine
 62
7
  6
CONTINUOUS
 10
3.3328342971
 20
-3.4056728154
 11
3.3381039146
 21
-3.7128953668
  0
LINE
  5
3E9
100
AcDbEntity
  8
IMPORT_IGES
100
AcDbLine
 62
7
  6
CONTINUOUS
 10
3.3273859672
 20
-2.9243847173
 11
3.3328342971
 21
-3.4056728154
  0
LINE
  5
3EA
100
AcDbEntity
  8
IMPORT_IGES
100
AcDbLine
 62
7
  6
CONTINUOUS
 10
3.3239926766
 20
-2.3839858395
 11
3.3273859672
 21
-2.9243847173
  0
LINE
  5
3EB
100
AcDbEntity
  8
IMPORT_IGES
100
AcDbLine
 62
250
  6
CONTINUOUS
 10
3.3257473516
 20
52.7410335481
 11
3.3258275111
 21
52.2411099738
  0
LINE
  5
3EC
100
AcDbEntity
  8
IMPORT_IGES
100
AcDbLine
 62
7
  6
CONTINUOUS
 10
1.0911553454
 20
-3.8849419343
 11
1.0911553454
 21
1.6535772518
  0
LINE
  5
3ED
100
AcDbEntity
  8
IMPORT_IGES
100
AcDbLine
 62
7
  6
CONTINUOUS
 10
1.1103598775
 20
-1.8135856129
 11
1.1103598812
 21
-0.4177987987
  0
LINE
  5
3EE
100
AcDbEntity
  8
IMPORT_IGES
100
AcDbLine
 62
7
  6
CONTINUOUS
 10
1.1619752445
 20
34.3843176588
 11
1.1619752445
 21
49.3843176588
  0
LINE
  5
3EF
100
AcDbEntity
  8
IMPORT_IGES
100
AcDbLine
 62
7
  6
CONTINUOUS
 10
1.6619752445
 20
49.8843176588
 11
1.6619752445
 21
35.5843176588
  0
LINE
  5
3F0
100
AcDbEntity
  8
IMPORT_IGES
100
AcDbLine
 62
7
  6
CONTINUOUS
 10
1.6619752445
 20
30.3843176588
 11
1.6619752445
 21
34.3843176588
  0
LINE
  5
3F1
100
AcDbEntity
  8
IMPORT_IGES
100
AcDbLine
 62
7
  6
CONTINUOUS
 10
2.1116203468
 20
30.3843176588
 11
2.1116203443
 21
34.3843176588
  0
LINE
  5
3F2
100
AcDbEntity
  8
IMPORT_IGES
100
AcDbLine
 62
7
  6
CONTINUOUS
 10
2.1116203436
 20
35.5843176588
 11
2.1116203385
 21
43.814693819
  0
LINE
  5
3F3
100
AcDbEntity
  8
IMPORT_IGES
100
AcDbLine
 62
7
  6
CONTINUOUS
 10
2.1116203276
 20
44.9538943754
 11
2.1116201791
 21
50.3451680361
  0
LINE
  5
3F4
100
AcDbEntity
  8
IMPORT_IGES
100
AcDbLine
 62
7
  6
CONTINUOUS
 10
2.119349842
 20
-19.8883911182
 11
2.119349842
 21
-34.9782375206
  0
LINE
  5
3F5
100
AcDbEntity
  8
IMPORT_IGES
100
AcDbLine
 62
7
  6
CONTINUOUS
 10
2.122840855
 20
50.3451680365
 11
2.122840855
 21
30.3843176588
  0
LINE
  5
3F6
100
AcDbEntity
  8
IMPORT_IGES
100
AcDbLine
 62
7
  6
CONTINUOUS
 10
2.1612419979
 20
-19.8778240971
 11
2.1612419979
 21
-34.9896045092
  0
LINE
  5
3F7
100
AcDbEntity
  8
IMPORT_IGES
100
AcDbLine
 62
7
  6
CONTINUOUS
 10
3.3239926766
 20
-2.3839858395
 11
3.322840855
 21
-0.4177613934
  0
LINE
  5
3F8
100
AcDbEntity
  8
IMPORT_IGES
100
AcDbLine
 62
7
  6
CONTINUOUS
 10
3.4101161797
 20
2.1262098146
 11
3.4101161797
 21
-4.3575744971
  0
LINE
  5
3F9
100
AcDbEntity
  8
IMPORT_IGES
100
AcDbLine
 62
250
  6
CONTINUOUS
 10
3.8257379587
 20
-53.9726394168
 11
3.8257380694
 21
51.7413014366
  0
LINE
  5
3FA
100
AcDbEntity
  8
IMPORT_IGES
100
AcDbLine
 62
250
  6
CONTINUOUS
 10
3.3257976475
 20
-54.4724721014
 11
3.3257245455
 21
-54.9723984924
  0
LINE
  5
3FB
100
AcDbEntity
  8
IMPORT_IGES
100
AcDbLine
 62
7
  6
CONTINUOUS
 10
3.3246371582
 20
0.2919473625
 11
3.322840855
 21
-0.4177613934
  0
LINE
  5
3FC
100
AcDbEntity
  8
IMPORT_IGES
100
AcDbLine
 62
7
  6
CONTINUOUS
 10
3.3285630867
 20
0.8197946408
 11
3.3246371582
 21
0.2919473625
  0
LINE
  5
3FD
100
AcDbEntity
  8
IMPORT_IGES
100
AcDbLine
 62
7
  6
CONTINUOUS
 10
3.3328342259
 20
1.1743031949
 11
3.3285630867
 21
0.8197946408
  0
LINE
  5
3FE
100
AcDbEntity
  8
IMPORT_IGES
100
AcDbLine
 62
7
  6
CONTINUOUS
 10
3.3381038316
 20
1.4815266127
 11
3.3328342259
 21
1.1743031949
  0
LINE
  5
3FF
100
AcDbEntity
  8
IMPORT_IGES
100
AcDbLine
 62
7
  6
CONTINUOUS
 10
3.3420985114
 20
1.655581928
 11
3.3381038316
 21
1.4815266127
  0
LWPOLYLINE
  5
400
100
AcDbEntity
  8
IMPORT_IGES
100
AcDbPolyline
 62
7
  6
CONTINUOUS
 90
10
 70
0
 10
3.3657176383
 20
2.0818112731
 10
3.3631938979
 20
2.0750225443
 10
3.3606979055
 20
2.0601252174
 10
3.3582296611
 20
2.0371192922
 10
3.3557812609
 20
2.005871949
 10
3.3533606087
 20
1.9665160075
 10
3.3509914158
 20
1.9194499273
 10
3.3486741968
 20
1.8645995223
 10
3.346408437
 20
1.8020389785
 10
3.3420985114
 20
1.655581928
  0
LINE
  5
401
100
AcDbEntity
  8
IMPORT_IGES
100
AcDbLine
 62
7
  6
CONTINUOUS
 10
3.3657176383
 20
2.0818112731
 11
3.4101161797
 21
2.1262098146
  0
LWPOLYLINE
  5
402
100
AcDbEntity
  8
IMPORT_IGES
100
AcDbPolyline
 62
7
  6
CONTINUOUS
 90
10
 70
0
 10
-16.3871862305
 20
2.0818105701
 10
-16.5587847795
 20
2.0722845419
 10
-16.7257726524
 20
2.0530541817
 10
-16.8881498493
 20
2.0241194895
 10
-17.0458565174
 20
1.9852265064
 10
-17.1989525095
 20
1.9366291912
 10
-17.3476173836
 20
1.8790894206
 10
-17.4919109924
 20
1.8128611532
 10
-17.6317734833
 20
1.7376904303
 10
-17.7672048563
 20
1.6535772518
  0
LINE
  5
403
100
AcDbEntity
  8
IMPORT_IGES
100
AcDbLine
 62
7
  6
CONTINUOUS
 10
-3.1705037118
 20
2.0668652523
 11
-2.1530513054
 21
2.0843176588
  0
LINE
  5
404
100
AcDbEntity
  8
IMPORT_IGES
100
AcDbLine
 62
7
  6
CONTINUOUS
 10
-16.2410262466
 20
2.0843176588
 11
-16.3871850479
 21
2.0818105903
  0
LINE
  5
405
100
AcDbEntity
  8
IMPORT_IGES
100
AcDbLine
 62
250
  6
CONTINUOUS
 10
-20.9305629396
 20
2.0818121051
 11
-21.0668982935
 21
2.0818144245
  0
LINE
  5
406
100
AcDbEntity
  8
IMPORT_IGES
100
AcDbLine
 62
250
  6
CONTINUOUS
 10
4.2545141963
 20
2.081811338
 11
4.3908511835
 21
2.0818135674
  0
LINE
  5
407
100
AcDbEntity
  8
IMPORT_IGES
100
AcDbLine
 62
250
  6
CONTINUOUS
 10
-16.3871850479
 20
2.0818105903
 11
-20.0417675766
 21
2.0818109318
  0
LINE
  5
408
100
AcDbEntity
  8
IMPORT_IGES
100
AcDbLine
 62
250
  6
CONTINUOUS
 10
-0.288864463
 20
2.0818105903
 11
3.3657180412
 21
2.0818112731
  0
LINE
  5
409
100
AcDbEntity
  8
IMPORT_IGES
100
AcDbLine
 62
7
  6
CONTINUOUS
 10
-16.2410262466
 20
2.0843176588
 11
-14.5229982056
 21
2.0843176588
  0
LINE
  5
40A
100
AcDbEntity
  8
IMPORT_IGES
100
AcDbLine
 62
7
  6
CONTINUOUS
 10
-2.1530513054
 20
2.0843176588
 11
-0.4350232643
 21
2.0843176588
  0
LINE
  5
40B
100
AcDbEntity
  8
IMPORT_IGES
100
AcDbLine
 62
7
  6
CONTINUOUS
 10
-20.0861656906
 20
2.1262098146
 11
-13.5648903614
 21
2.1262098146
  0
LINE
  5
40C
100
AcDbEntity
  8
IMPORT_IGES
100
AcDbLine
 62
7
  6
CONTINUOUS
 10
-3.1111591495
 20
2.1262098146
 11
3.4101161797
 21
2.1262098146
  0
LINE
  5
40D
100
AcDbEntity
  8
IMPORT_IGES
100
AcDbLine
 62
7
  6
CONTINUOUS
 10
-13.5648903614
 20
3.8843176588
 11
-3.1111591495
 21
3.8843176588
  0
LINE
  5
40E
100
AcDbEntity
  8
IMPORT_IGES
100
AcDbLine
 62
7
  6
CONTINUOUS
 10
-14.5229982056
 20
2.0843176588
 11
-13.5055457991
 21
2.0668652523
  0
LINE
  5
40F
100
AcDbEntity
  8
IMPORT_IGES
100
AcDbLine
 62
7
  6
CONTINUOUS
 10
-0.288864463
 20
2.0818105903
 11
-0.4350232643
 21
2.0843176588
  0
LWPOLYLINE
  5
410
100
AcDbEntity
  8
IMPORT_IGES
100
AcDbPolyline
 62
7
  6
CONTINUOUS
 90
9
 70
0
 10
4.3255955842
 20
2.1176930468
 10
4.3232972885
 20
2.1183371643
 10
4.3184042031
 20
2.1189699408
 10
4.3109163277
 20
2.1195913764
 10
4.3007658186
 20
2.1202046603
 10
4.2880205196
 20
2.1208066032
 10
4.2728839626
 20
2.1213876373
 10
4.2554239914
 20
2.1219445735
 10
4.2133302748
 20
2.1229957194
  0
LINE
  5
411
100
AcDbEntity
  8
IMPORT_IGES
100
AcDbLine
 62
7
  6
CONTINUOUS
 10
4.3255955842
 20
2.1176930468
 11
4.3908511835
 21
2.0818135674
  0
LWPOLYLINE
  5
412
100
AcDbEntity
  8
IMPORT_IGES
100
AcDbPolyline
 62
7
  6
CONTINUOUS
 90
19
 70
0
 10
3.8257380694
 20
51.7413014366
 10
3.8233755362
 20
51.7840158607
 10
3.8173544979
 20
51.8259519005
 10
3.8076749546
 20
51.8671095562
 10
3.7942582822
 20
51.9077423688
 10
3.7771831049
 20
51.9475967971
 10
3.7566852944
 20
51.985912218
 10
3.732512873
 20
52.0228232891
 10
3.7049178186
 20
52.0581953527
 10
3.6748919365
 20
52.0908638122
 10
3.6425929056
 20
52.1205805021
 10
3.6078630471
 20
52.1475935879
 10
3.5712211306
 20
52.1714829698
 10
3.5323376159
 20
52.1923779605
 10
3.4915420432
 20
52.2101492474
 10
3.4503418025
 20
52.2239887931
 10
3.4092393571
 20
52.2336272517
 10
3.3677322438
 20
52.2393339692
 10
3.3258204624
 20
52.2411089454
  0
LWPOLYLINE
  5
413
100
AcDbEntity
  8
IMPORT_IGES
100
AcDbPolyline
 62
250
  6
CONTINUOUS
 90
16
 70
0
 10
4.7828368158
 20
-14.6762689447
 10
4.7814398534
 20
-14.6498750853
 10
4.7773266934
 20
-14.6240663509
 10
4.7706338307
 20
-14.5991102466
 10
4.7615901938
 20
-14.5754057998
 10
4.7503373464
 20
-14.5529982094
 10
4.736772304
 20
-14.5316550436
 10
4.7208589333
 20
-14.5114926252
 10
4.7028031066
 20
-14.492923352
 10
4.6827784932
 20
-14.4762137865
 10
4.6609922711
 20
-14.4616042322
 10
4.6376311615
 20
-14.4492826383
 10
4.6128782794
 20
-14.4394198138
 10
4.5869697027
 20
-14.4321934177
 10
4.5602014989
 20
-14.4277673711
 10
4.5311727364
 20
-14.4262689407
  0
LWPOLYLINE
  5
414
100
AcDbEntity
  8
IMPORT_IGES
100
AcDbPolyline
 62
7
  6
CONTINUOUS
 90
22
 70
0
 10
7.2271796832
 20
-53.9651725874
 10
7.2301310001
 20
-54.0407519813
 10
7.23851295
 20
-54.1150459382
 10
7.252325533
 20
-54.1880544579
 10
7.2717114395
 20
-54.2601621979
 10
7.2965279791
 20
-54.3309845008
 10
7.3263470801
 20
-54.3993673949
 10
7.3612469294
 20
-54.465270684
 10
7.4011493401
 20
-54.5287345643
 10
7.4453916797
 20
-54.5887256517
 10
7.4940421831
 20
-54.6451885652
 10
7.5470326154
 20
-54.6981786859
 10
7.6034956387
 20
-54.7468287733
 10
7.6634866176
 20
-54.7910705807
 10
7.7269501876
 20
-54.8309723548
 10
7.7928529168
 20
-54.8658715943
 10
7.8612349817
 20
-54.8956900292
 10
7.9320562059
 20
-54.9205059295
 10
8.0041626288
 20
-54.9398916034
 10
8.0771695969
 20
-54.9537044871
 10
8.1514617636
 20
-54.9620871445
 10
8.227039129
 20
-54.9650395755
  0
LWPOLYLINE
  5
415
100
AcDbEntity
  8
IMPORT_IGES
100
AcDbPolyline
 62
250
  6
CONTINUOUS
 90
16
 70
0
 10
4.5311504428
 20
51.8543827369
 10
4.5282937452
 20
51.9293944146
 10
4.5199144284
 20
52.0033573372
 10
4.506199132
 20
52.0758773917
 10
4.4874319957
 20
52.1463501672
 10
4.4638096425
 20
52.214679506
 10
4.4352700921
 20
52.2812203077
 10
4.40186123
 20
52.3457580755
 10
4.3637986009
 20
52.4077880504
 10
4.3211145766
 20
52.4671628813
 10
4.2739888361
 20
52.523505523
 10
4.2226056808
 20
52.5764794459
 10
4.1669546008
 20
52.6259361919
 10
4.1070512822
 20
52.6716309016
 10
4.043319837
 20
52.7130208302
 10
3.9764193516
 20
52.7495571688
  0
LWPOLYLINE
  5
416
100
AcDbEntity
  8
IMPORT_IGES
100
AcDbPolyline
 62
250
  6
CONTINUOUS
 90
22
 70
0
 10
4.532906044
 20
51.8553971248
 10
4.5300647773
 20
51.9304209558
 10
4.5216969959
 20
52.0043950734
 10
4.5079895112
 20
52.0769251992
 10
4.4892267262
 20
52.1474065162
 10
4.4656054741
 20
52.2157430527
 10
4.437063639
 20
52.2822903973
 10
4.4036489368
 20
52.3468341887
 10
4.365577054
 20
52.4088692136
 10
4.3228804711
 20
52.4682478578
 10
4.2757390256
 20
52.5245928628
 10
4.2243370637
 20
52.5775676679
 10
4.1686639898
 20
52.6270238006
 10
4.1087354689
 20
52.6727162726
 10
4.0449758677
 20
52.7141021556
 10
3.9780446355
 20
52.750632544
 10
3.9084134419
 20
52.7820032083
 10
3.8363654296
 20
52.8080414139
 10
3.7623671456
 20
52.8285281708
 10
3.6868652693
 20
52.8433006978
 10
3.610278742
 20
52.8522385283
 10
3.5330583478
 20
52.8552484572
  0
LWPOLYLINE
  5
417
100
AcDbEntity
  8
IMPORT_IGES
100
AcDbPolyline
 62
7
  6
CONTINUOUS
 90
9
 70
0
 10
4.273822882
 20
1.80206992
 10
4.2715571393
 20
1.8646257518
 10
4.2692399448
 20
1.9194716478
 10
4.2668707586
 20
1.966533523
 10
4.2644501205
 20
2.0058854625
 10
4.2620018131
 20
2.0371290549
 10
4.2595337635
 20
2.0601314964
 10
4.2570380445
 20
2.0750255907
 10
4.2545146561
 20
2.081811338
  0
LINE
  5
418
100
AcDbEntity
  8
IMPORT_IGES
100
AcDbLine
 62
7
  6
CONTINUOUS
 10
4.4375281496
 20
1.5716654857
 11
4.444450242
 21
1.3850247836
  0
LWPOLYLINE
  5
419
100
AcDbEntity
  8
IMPORT_IGES
100
AcDbPolyline
 62
7
  6
CONTINUOUS
 90
10
 70
0
 10
4.3255958324
 20
51.7413435181
 10
4.3238621759
 20
51.7993316468
 10
4.3187991276
 20
51.8569037802
 10
4.3104623523
 20
51.9138708779
 10
4.2989290081
 20
51.9700095531
 10
4.2842683834
 20
52.0251840232
 10
4.2665181804
 20
52.079340436
 10
4.245734109
 20
52.1323459702
 10
4.2220127134
 20
52.1839954973
 10
4.1954459125
 20
52.2341291871
  0
LINE
  5
41A
100
AcDbEntity
  8
IMPORT_IGES
100
AcDbLine
 62
7
  6
CONTINUOUS
 10
4.444450242
 20
1.3850247836
 11
4.4506579051
 21
1.1742871132
  0
LINE
  5
41B
100
AcDbEntity
  8
IMPORT_IGES
100
AcDbLine
 62
7
  6
CONTINUOUS
 10
4.2781328149
 20
1.6556217238
 11
4.273822882
 21
1.80206992
  0
LINE
  5
41C
100
AcDbEntity
  8
IMPORT_IGES
100
AcDbLine
 62
7
  6
CONTINUOUS
 10
4.4506579051
 20
1.1742871132
 11
4.4560546275
 21
0.9424360446
  0
LINE
  5
41D
100
AcDbEntity
  8
IMPORT_IGES
100
AcDbLine
 62
7
  6
CONTINUOUS
 10
4.2821275497
 20
1.481574569
 11
4.2781328149
 21
1.6556217238
  0
LINE
  5
41E
100
AcDbEntity
  8
IMPORT_IGES
100
AcDbLine
 62
7
  6
CONTINUOUS
 10
4.4560546275
 20
0.9424360446
 11
4.4605653239
 21
0.6930268119
  0
LINE
  5
41F
100
AcDbEntity
  8
IMPORT_IGES
100
AcDbLine
 62
7
  6
CONTINUOUS
 10
4.2873972786
 20
1.1743624863
 11
4.2821275497
 21
1.481574569
  0
LINE
  5
420
100
AcDbEntity
  8
IMPORT_IGES
100
AcDbLine
 62
7
  6
CONTINUOUS
 10
4.4605653239
 20
0.6930268119
 11
4.4655637287
 21
0.2920063984
  0
LINE
  5
421
100
AcDbEntity
  8
IMPORT_IGES
100
AcDbLine
 62
7
  6
CONTINUOUS
 10
4.2928458123
 20
0.6930870363
 11
4.2873972786
 21
1.1743624863
  0
LINE
  5
422
100
AcDbEntity
  8
IMPORT_IGES
100
AcDbLine
 62
7
  6
CONTINUOUS
 10
4.2962393513
 20
0.1526983348
 11
4.2928458123
 21
0.6930870363
  0
LINE
  5
423
100
AcDbEntity
  8
IMPORT_IGES
100
AcDbLine
 62
7
  6
CONTINUOUS
 10
4.4655637287
 20
0.2920063984
 11
4.468301462
 21
-0.1297713184
  0
LINE
  5
424
100
AcDbEntity
  8
IMPORT_IGES
100
AcDbLine
 62
7
  6
CONTINUOUS
 10
4.2133302692
 20
2.1229957322
 11
4.2133302636
 21
-4.3543604161
  0
LINE
  5
425
100
AcDbEntity
  8
IMPORT_IGES
100
AcDbLine
 62
7
  6
CONTINUOUS
 10
4.3255958441
 20
51.7413231848
 11
4.3256043621
 21
2.1176936695
  0
LINE
  5
426
100
AcDbEntity
  8
IMPORT_IGES
100
AcDbLine
 62
7
  6
CONTINUOUS
 10
4.3256042631
 20
-4.3490583915
 11
4.3255746394
 21
-53.9726660672
  0
LINE
  5
427
100
AcDbEntity
  8
IMPORT_IGES
100
AcDbLine
 62
7
  6
CONTINUOUS
 10
4.468301462
 20
-0.1297713184
 11
4.4688317368
 21
-1.8137943776
  0
LINE
  5
428
100
AcDbEntity
  8
IMPORT_IGES
100
AcDbLine
 62
250
  6
CONTINUOUS
 10
4.5312052912
 20
12.194903398
 11
4.5312052912
 21
-14.4262688453
  0
LINE
  5
429
100
AcDbEntity
  8
IMPORT_IGES
100
AcDbLine
 62
250
  6
CONTINUOUS
 10
4.531160169
 20
51.8544011852
 11
4.5311955583
 21
12.694904215
  0
LINE
  5
42A
100
AcDbEntity
  8
IMPORT_IGES
100
AcDbLine
 62
250
  6
CONTINUOUS
 10
4.5311601641
 20
-54.0857740246
 11
4.5311955579
 21
-14.9262696737
  0
LINE
  5
42B
100
AcDbEntity
  8
IMPORT_IGES
100
AcDbLine
 62
250
  6
CONTINUOUS
 10
4.5328812196
 20
-14.926268936
 11
4.532900689
 21
-54.0867601817
  0
LINE
  5
42C
100
AcDbEntity
  8
IMPORT_IGES
100
AcDbLine
 62
250
  6
CONTINUOUS
 10
4.5329006892
 20
51.8553933608
 11
4.5328812196
 21
12.6949036106
  0
LINE
  5
42D
100
AcDbEntity
  8
IMPORT_IGES
100
AcDbLine
 62
250
  6
CONTINUOUS
 10
4.5328758655
 20
-14.4262689411
 11
4.5328758655
 21
12.1949042587
  0
LINE
  5
42E
100
AcDbEntity
  8
IMPORT_IGES
100
AcDbLine
 62
7
  6
CONTINUOUS
 10
4.5619752443
 20
51.884459108
 11
4.5619752443
 21
12.6949029677
  0
LINE
  5
42F
100
AcDbEntity
  8
IMPORT_IGES
100
AcDbLine
 62
7
  6
CONTINUOUS
 10
4.5619752445
 20
12.1949049014
 11
4.5619752445
 21
-14.4262693877
  0
LINE
  5
430
100
AcDbEntity
  8
IMPORT_IGES
100
AcDbLine
 62
7
  6
CONTINUOUS
 10
4.5619752445
 20
-14.926268935
 11
4.5619752439
 21
-54.1158263922
  0
LINE
  5
431
100
AcDbEntity
  8
IMPORT_IGES
100
AcDbLine
 62
7
  6
CONTINUOUS
 10
7.2271775748
 20
-29.8437333746
 11
7.2271775747
 21
-53.9651725873
  0
LINE
  5
432
100
AcDbEntity
  8
IMPORT_IGES
100
AcDbLine
 62
7
  6
CONTINUOUS
 10
4.2973171439
 20
-1.9582629265
 11
4.2962393513
 21
0.1526983348
  0
LINE
  5
433
100
AcDbEntity
  8
IMPORT_IGES
100
AcDbLine
 62
7
  6
CONTINUOUS
 10
4.4688312815
 20
-1.8137943814
 11
4.4676496818
 21
-2.2433043846
  0
LINE
  5
434
100
AcDbEntity
  8
IMPORT_IGES
100
AcDbLine
 62
7
  6
CONTINUOUS
 10
4.2948151908
 20
-2.6598418026
 11
4.2973171439
 21
-1.9582629265
  0
LINE
  5
435
100
AcDbEntity
  8
IMPORT_IGES
100
AcDbLine
 62
7
  6
CONTINUOUS
 10
4.4676496818
 20
-2.2433043846
 11
4.4641455333
 21
-2.6598644897
  0
LINE
  5
436
100
AcDbEntity
  8
IMPORT_IGES
100
AcDbLine
 62
7
  6
CONTINUOUS
 10
4.2903657642
 20
-3.1738181867
 11
4.2948151908
 21
-2.6598418026
  0
LINE
  5
437
100
AcDbEntity
  8
IMPORT_IGES
100
AcDbLine
 62
7
  6
CONTINUOUS
 10
4.4641455333
 20
-2.6598644897
 11
4.4605653
 21
-2.9243930416
  0
LINE
  5
438
100
AcDbEntity
  8
IMPORT_IGES
100
AcDbLine
 62
7
  6
CONTINUOUS
 10
4.2857466137
 20
-3.5136757423
 11
4.2903657642
 21
-3.1738181867
  0
LINE
  5
439
100
AcDbEntity
  8
IMPORT_IGES
100
AcDbLine
 62
7
  6
CONTINUOUS
 10
4.2821283335
 20
-3.7129008191
 11
4.2857466137
 21
-3.5136757423
  0
LINE
  5
43A
100
AcDbEntity
  8
IMPORT_IGES
100
AcDbLine
 62
7
  6
CONTINUOUS
 10
4.4605653
 20
-2.9243930416
 11
4.456054466
 21
-3.1738085975
  0
LINE
  5
43B
100
AcDbEntity
  8
IMPORT_IGES
100
AcDbLine
 62
7
  6
CONTINUOUS
 10
4.2781336143
 20
-3.8869555663
 11
4.2821283335
 21
-3.7129008191
  0
LINE
  5
43C
100
AcDbEntity
  8
IMPORT_IGES
100
AcDbLine
 62
7
  6
CONTINUOUS
 10
4.456054466
 20
-3.1738085975
 11
4.4506575629
 21
-3.4056648832
  0
LWPOLYLINE
  5
43D
100
AcDbEntity
  8
IMPORT_IGES
100
AcDbPolyline
 62
7
  6
CONTINUOUS
 90
10
 70
0
 10
4.3255746377
 20
-53.972666067
 10
4.3241875846
 20
-54.024611761
 10
4.3200197115
 20
-54.0772443891
 10
4.3129516754
 20
-54.1304068296
 10
4.302755579
 20
-54.184467048
 10
4.2893847695
 20
-54.2386881062
 10
4.2732721365
 20
-54.2913013274
 10
4.2547987308
 20
-54.3416749359
 10
4.2339956111
 20
-54.3902403586
 10
4.2110403804
 20
-54.4369131579
  0
LINE
  5
43E
100
AcDbEntity
  8
IMPORT_IGES
100
AcDbLine
 62
7
  6
CONTINUOUS
 10
4.4506575629
 20
-3.4056648832
 11
4.4444496886
 21
-3.6164062154
  0
LWPOLYLINE
  5
43F
100
AcDbEntity
  8
IMPORT_IGES
100
AcDbPolyline
 62
7
  6
CONTINUOUS
 90
22
 70
0
 10
4.5619752432
 20
-54.1158263922
 10
4.5590222383
 20
-54.1914049059
 10
4.5506389408
 20
-54.265698001
 10
4.5368253506
 20
-54.3387056773
 10
4.517438847
 20
-54.4108126068
 10
4.4926220508
 20
-54.4816341177
 10
4.4628028245
 20
-54.5500161946
 10
4.4279029147
 20
-54.6159186046
 10
4.3880005748
 20
-54.6793815808
 10
4.3437584268
 20
-54.7393718066
 10
4.2951082566
 20
-54.795833901
 10
4.2421182784
 20
-54.8488232452
 10
4.1856557564
 20
-54.8974726659
 10
4.1256653243
 20
-54.9417139389
 10
4.0622023485
 20
-54.9816152884
 10
3.9963001916
 20
-55.0165142145
 10
3.9279186385
 20
-55.0463324596
 10
3.8570979044
 20
-55.0711482813
 10
3.7849919977
 20
-55.0905339529
 10
3.7119855878
 20
-55.1043468989
 10
3.6376940053
 20
-55.1127296949
 10
3.5621172501
 20
-55.1156823408
  0
LWPOLYLINE
  5
440
100
AcDbEntity
  8
IMPORT_IGES
100
AcDbPolyline
 62
7
  6
CONTINUOUS
 90
13
 70
0
 10
4.4444496886
 20
-3.6164062154
 10
4.437527372
 20
-3.8030488296
 10
4.4338098774
 20
-3.8869472233
 10
4.4299584195
 20
-3.9637569316
 10
4.4259716947
 20
-4.0334096425
 10
4.4218510064
 20
-4.0959736681
 10
4.4176366424
 20
-4.1508269911
 10
4.4133276728
 20
-4.1978955702
 10
4.4089250274
 20
-4.2372534469
 10
4.4044717836
 20
-4.2685007277
 10
4.3999823003
 20
-4.2915041152
 10
4.3954422185
 20
-4.3063969069
 10
4.3908515382
 20
-4.3131791029
  0
LWPOLYLINE
  5
441
100
AcDbEntity
  8
IMPORT_IGES
100
AcDbPolyline
 62
250
  6
CONTINUOUS
 90
15
 70
0
 10
4.7810812041
 20
12.4449045231
 10
4.7796908941
 20
12.4185685347
 10
4.7755922293
 20
12.3927917767
 10
4.7689137322
 20
12.36784192
 10
4.7598718684
 20
12.3441088196
 10
4.7486040679
 20
12.3216528059
 10
4.7350222632
 20
12.3002753989
 10
4.7191004138
 20
12.2800997805
 10
4.7010424424
 20
12.2615279232
 10
4.6810291769
 20
12.244827481
 10
4.6592858129
 20
12.230243351
 10
4.6359881084
 20
12.2179463979
 10
4.6112759159
 20
12.2080867766
 10
4.5853656665
 20
12.2008471113
 10
4.5585652197
 20
12.19640722
  0
LWPOLYLINE
  5
442
100
AcDbEntity
  8
IMPORT_IGES
100
AcDbPolyline
 62
250
  6
CONTINUOUS
 90
15
 70
0
 10
4.7810812041
 20
-14.6762692055
 10
4.7796909549
 20
-14.7026040856
 10
4.7755925682
 20
-14.728379827
 10
4.7689145373
 20
-14.7533287886
 10
4.7598732824
 20
-14.777061164
 10
4.7486062073
 20
-14.7995166112
 10
4.7350252693
 20
-14.8208935551
 10
4.7191044399
 20
-14.8410688193
 10
4.701047608
 20
-14.8596404823
 10
4.6810355755
 20
-14.8763409173
 10
4.6592935081
 20
-14.8909252475
 10
4.6359971382
 20
-14.9032226235
 10
4.6112862924
 20
-14.913082906
 10
4.5853773681
 20
-14.9203234838
 10
4.5585781833
 20
-14.9247645457
  0
LWPOLYLINE
  5
443
100
AcDbEntity
  8
IMPORT_IGES
100
AcDbPolyline
 62
250
  6
CONTINUOUS
 90
4
 70
0
 10
4.7828368158
 20
12.4449042623
 10
4.7814398543
 20
12.4185104112
 10
4.7773266964
 20
12.3927016825
 10
4.7706338362
 20
12.3677455811
  0
LWPOLYLINE
  5
444
100
AcDbEntity
  8
IMPORT_IGES
100
AcDbPolyline
 62
7
  6
CONTINUOUS
 90
16
 70
0
 10
4.575836582
 20
-14.6762689386
 10
4.5743628165
 20
-14.7029126189
 10
4.5703173351
 20
-14.7286531354
 10
4.5637001378
 20
-14.7534904881
 10
4.5543814271
 20
-14.7776353653
 10
4.5424910006
 20
-14.8008770787
 10
4.5284182503
 20
-14.822583563
 10
4.5121003262
 20
-14.8427501009
 10
4.4936000783
 20
-14.8613814098
 10
4.4734954489
 20
-14.877859576
 10
4.4517824155
 20
-14.8921270153
 10
4.4284650005
 20
-14.904241312
 10
4.4041332135
 20
-14.9137573064
 10
4.3789837245
 20
-14.9205266118
 10
4.3528198635
 20
-14.9246976148
 10
4.3256416305
 20
-14.9262703155
  0
LWPOLYLINE
  5
445
100
AcDbEntity
  8
IMPORT_IGES
100
AcDbPolyline
 62
7
  6
CONTINUOUS
 90
16
 70
0
 10
4.8120149421
 20
-14.6762655737
 10
4.8105010692
 20
-14.7029354239
 10
4.8064040569
 20
-14.7287409197
 10
4.799723905
 20
-14.753682061
 10
4.7903293505
 20
-14.7780052282
 10
4.7783516564
 20
-14.8014640409
 10
4.7641846127
 20
-14.8233193582
 10
4.7477623248
 20
-14.8435207657
 10
4.7291506872
 20
-14.8621186778
 10
4.7089411726
 20
-14.878525197
 10
4.6870841378
 20
-14.8926739992
 10
4.6636292261
 20
-14.9046314085
 10
4.6393168405
 20
-14.9140084992
 10
4.6143937821
 20
-14.9206756294
 10
4.5886132499
 20
-14.924762441
 10
4.5619752439
 20
-14.9262689341
  0
LWPOLYLINE
  5
446
100
AcDbEntity
  8
IMPORT_IGES
100
AcDbPolyline
 62
7
  6
CONTINUOUS
 90
10
 70
0
 10
4.2545144338
 20
-4.3131639573
 10
4.25703818
 20
-4.3063815956
 10
4.2595341778
 20
-4.2914892654
 10
4.262002427
 20
-4.2684869668
 10
4.2644508314
 20
-4.2372414176
 10
4.2668714872
 20
-4.1978858999
 10
4.2692406838
 20
-4.1508202602
 10
4.2715579049
 20
-4.0959708446
 10
4.2738236666
 20
-4.033411307
 10
4.2781336143
 20
-3.8869555663
  0
LINE
  5
447
100
AcDbEntity
  8
IMPORT_IGES
100
AcDbLine
 62
7
  6
CONTINUOUS
 10
4.2133300897
 20
-4.3543604107
 11
4.2545136016
 21
-4.313176615
  0
LINE
  5
448
100
AcDbEntity
  8
IMPORT_IGES
100
AcDbLine
 62
7
  6
CONTINUOUS
 10
4.3908487766
 20
-4.3131791041
 11
4.3255952909
 21
-4.3490577837
  0
LINE
  5
449
100
AcDbEntity
  8
IMPORT_IGES
100
AcDbLine
 62
7
  6
CONTINUOUS
 10
4.2133302692
 20
2.1229957322
 11
4.2545146561
 21
2.081811338
  0
LWPOLYLINE
  5
44A
100
AcDbEntity
  8
IMPORT_IGES
100
AcDbPolyline
 62
7
  6
CONTINUOUS
 90
12
 70
0
 10
4.3908530926
 20
2.0818135674
 10
4.3954437704
 20
2.0750284275
 10
4.3999838337
 20
2.0601328897
 10
4.4044732826
 20
2.0371269542
 10
4.4089264743
 20
2.0058772686
 10
4.4133290514
 20
1.9665171852
 10
4.417637942
 20
1.9194467604
 10
4.4218522159
 20
1.8645919789
 10
4.4259728032
 20
1.8020268559
 10
4.4299594224
 20
1.7323734941
 10
4.43381077
 20
1.6555636093
 10
4.4375281496
 20
1.5716654857
  0
LINE
  5
44B
100
AcDbEntity
  8
IMPORT_IGES
100
AcDbLine
 62
7
  6
CONTINUOUS
 10
8.9540934184
 20
-53.2381237348
 11
8.9540934184
 21
-45.9044529816
  0
LINE
  5
44C
100
AcDbEntity
  8
IMPORT_IGES
100
AcDbLine
 62
7
  6
CONTINUOUS
 10
8.9540934184
 20
-44.6313688256
 11
8.9540934184
 21
-39.1775371375
  0
LINE
  5
44D
100
AcDbEntity
  8
IMPORT_IGES
100
AcDbLine
 62
7
  6
CONTINUOUS
 10
8.9540934184
 20
-37.9044529816
 11
8.9540934184
 21
-30.5707822283
  0
LINE
  5
44E
100
AcDbEntity
  8
IMPORT_IGES
100
AcDbLine
 62
7
  6
CONTINUOUS
 10
9.1066871052
 20
-53.1421208777
 11
9.1066871052
 21
-49.0544529816
  0
LINE
  5
44F
100
AcDbEntity
  8
IMPORT_IGES
100
AcDbLine
 62
7
  6
CONTINUOUS
 10
9.1066871052
 20
-34.7544529816
 11
9.1066871052
 21
-30.6667850854
  0
LINE
  5
450
100
AcDbEntity
  8
IMPORT_IGES
100
AcDbLine
 62
7
  6
CONTINUOUS
 10
9.3066871052
 20
-52.8044529816
 11
9.3066871052
 21
-49.3044529816
  0
LINE
  5
451
100
AcDbEntity
  8
IMPORT_IGES
100
AcDbLine
 62
7
  6
CONTINUOUS
 10
9.3066871052
 20
-34.7544529816
 11
9.3066871052
 21
-31.0044529816
  0
LINE
  5
452
100
AcDbEntity
  8
IMPORT_IGES
100
AcDbLine
 62
7
  6
CONTINUOUS
 10
10.3066871052
 20
-30.6667850854
 11
10.3066871052
 21
-34.7544529816
  0
LINE
  5
453
100
AcDbEntity
  8
IMPORT_IGES
100
AcDbLine
 62
7
  6
CONTINUOUS
 10
10.3066871052
 20
-49.0544529816
 11
10.3066871052
 21
-53.1421208777
  0
LINE
  5
454
100
AcDbEntity
  8
IMPORT_IGES
100
AcDbLine
 62
7
  6
CONTINUOUS
 10
10.4066871052
 20
-30.6667850854
 11
10.4066871052
 21
-34.7544529816
  0
LINE
  5
455
100
AcDbEntity
  8
IMPORT_IGES
100
AcDbLine
 62
7
  6
CONTINUOUS
 10
10.4066871052
 20
-49.0544529816
 11
10.4066871052
 21
-53.1421208777
  0
LINE
  5
456
100
AcDbEntity
  8
IMPORT_IGES
100
AcDbLine
 62
7
  6
CONTINUOUS
 10
10.4119810745
 20
-30.5707822283
 11
10.4119810745
 21
-37.9044529816
  0
LINE
  5
457
100
AcDbEntity
  8
IMPORT_IGES
100
AcDbLine
 62
7
  6
CONTINUOUS
 10
10.4119810745
 20
-45.9044529816
 11
10.4119810745
 21
-53.2381237348
  0
LINE
  5
458
100
AcDbEntity
  8
IMPORT_IGES
100
AcDbLine
 62
250
  6
CONTINUOUS
 10
4.5585652197
 20
12.19640722
 11
4.5311773674
 21
12.1949042579
  0
LWPOLYLINE
  5
459
100
AcDbEntity
  8
IMPORT_IGES
100
AcDbPolyline
 62
250
  6
CONTINUOUS
 90
7
 70
0
 10
4.7326615803
 20
12.5951477851
 10
4.7474352416
 20
12.5731611473
 10
4.7598879308
 20
12.5495435346
 10
4.7697895323
 20
12.5246184457
 10
4.7769838201
 20
12.4986878564
 10
4.78136275
 20
12.4720146169
 10
4.7828368158
 20
12.4449042623
  0
LWPOLYLINE
  5
45A
100
AcDbEntity
  8
IMPORT_IGES
100
AcDbPolyline
 62
250
  6
CONTINUOUS
 90
4
 70
0
 10
4.7680717612
 20
12.5245194656
 10
4.7752504119
 20
12.4985962678
 10
4.7796140314
 20
12.4719560776
 10
4.7810812041
 20
12.4449045231
  0
LINE
  5
45B
100
AcDbEntity
  8
IMPORT_IGES
100
AcDbLine
 62
7
  6
CONTINUOUS
 10
-5.3295749989
 20
-33.0698760948
 11
-12.8792337666
 21
-45.9574576752
  0
LINE
  5
45C
100
AcDbEntity
  8
IMPORT_IGES
100
AcDbLine
 62
7
  6
CONTINUOUS
 10
-12.8373416108
 20
-45.9688246637
 11
-5.2934284448
 21
-33.0910510645
  0
LINE
  5
45D
100
AcDbEntity
  8
IMPORT_IGES
100
AcDbLine
 62
7
  6
CONTINUOUS
 10
4.3256665519
 20
12.1949026453
 11
4.5619752445
 21
12.1949049014
  0
LINE
  5
45E
100
AcDbEntity
  8
IMPORT_IGES
100
AcDbLine
 62
7
  6
CONTINUOUS
 10
4.3256661675
 20
12.6949039136
 11
4.5619752443
 21
12.6949029677
  0
LINE
  5
45F
100
AcDbEntity
  8
IMPORT_IGES
100
AcDbLine
 62
250
  6
CONTINUOUS
 10
4.5311914878
 20
12.6949042556
 11
4.5570660651
 21
12.6935619287
  0
LWPOLYLINE
  5
460
100
AcDbEntity
  8
IMPORT_IGES
100
AcDbPolyline
 62
7
  6
CONTINUOUS
 90
31
 70
0
 10
4.3256413074
 20
12.6949036122
 10
4.3532438405
 20
12.6933948476
 10
4.3798421471
 20
12.6891160365
 10
4.4054362272
 20
12.6820671789
 10
4.4302868805
 20
12.6720103987
 10
4.4541333073
 20
12.6591835721
 10
4.4761931086
 20
12.6443003273
 10
4.4963875047
 20
12.6273755517
 10
4.5147952754
 20
12.6083943581
 10
4.5308703604
 20
12.5880257131
 10
4.5444882132
 20
12.5662955549
 10
4.5557733803
 20
12.5431779454
 10
4.5645534413
 20
12.5192640373
 10
4.5707930069
 20
12.4944758413
 10
4.5745274664
 20
12.4688913466
 10
4.5756905666
 20
12.443335674
 10
4.5742510797
 20
12.4178393489
 10
4.5702402335
 20
12.3923718458
 10
4.5636854581
 20
12.3676667087
 10
4.5545432266
 20
12.3437508747
 10
4.5428570659
 20
12.3205974068
 10
4.528784987
 20
12.2988590382
 10
4.5120629906
 20
12.278476954
 10
4.4929550761
 20
12.2595099691
 10
4.4724112519
 20
12.242787261
 10
4.4505725142
 20
12.2284495386
 10
4.4272978668
 20
12.216356093
 10
4.4031143307
 20
12.2069139757
 10
4.3781975795
 20
12.2002588706
 10
4.3523719395
 20
12.1962550938
 10
4.3256374107
 20
12.1949026453
  0
LWPOLYLINE
  5
461
100
AcDbEntity
  8
IMPORT_IGES
100
AcDbPolyline
 62
7
  6
CONTINUOUS
 90
31
 70
0
 10
4.5619752443
 20
12.6949029677
 10
4.5886233024
 20
12.6934023484
 10
4.6144226687
 20
12.6893098371
 10
4.6393733433
 20
12.6826254337
 10
4.6637422789
 20
12.673198983
 10
4.6872625227
 20
12.6611806403
 10
4.7091332162
 20
12.6470208711
 10
4.7292568634
 20
12.6306888233
 10
4.7477309603
 20
12.612215349
 10
4.7640471368
 20
12.5921434703
 10
4.778169257
 20
12.5704083242
 10
4.7901334567
 20
12.5470747735
 10
4.7995397729
 20
12.522880429
 10
4.806302874
 20
12.4977841064
 10
4.8105080916
 20
12.4718269899
 10
4.8120114577
 20
12.4458702421
 10
4.8107224077
 20
12.4199291971
 10
4.8067315062
 20
12.3939885209
 10
4.8001664784
 20
12.3688633736
 10
4.79095537
 20
12.3445809566
 10
4.7791701352
 20
12.3211140686
 10
4.7651543625
 20
12.2991962649
 10
4.7488460728
 20
12.2788649177
 10
4.7303072451
 20
12.2600826549
 10
4.7100674051
 20
12.2434709156
 10
4.6880064368
 20
12.2290782833
 10
4.6642444562
 20
12.2168561745
 10
4.6396713365
 20
12.2072802773
 10
4.6145837022
 20
12.2005091546
 10
4.5886849288
 20
12.1963842435
 10
4.5619750164
 20
12.194905544
  0
LWPOLYLINE
  5
462
100
AcDbEntity
  8
IMPORT_IGES
100
AcDbPolyline
 62
250
  6
CONTINUOUS
 90
7
 70
0
 10
4.5586877263
 20
12.6935676724
 10
4.5841045868
 20
12.6895973675
 10
4.608864388
 20
12.6830719222
 10
4.6326114787
 20
12.6741412132
 10
4.65522636
 20
12.6629078278
 10
4.6767760185
 20
12.6493208813
 10
4.6970902176
 20
12.6333853179
  0
LWPOLYLINE
  5
463
100
AcDbEntity
  8
IMPORT_IGES
100
AcDbPolyline
 62
250
  6
CONTINUOUS
 90
3
 70
0
 10
4.6953365292
 20
12.63340989
 10
4.7140539121
 20
12.6152959855
 10
4.7309180881
 20
12.5951551043
  0
LINE
  5
464
100
AcDbEntity
  8
IMPORT_IGES
100
AcDbLine
 62
7
  6
CONTINUOUS
 10
-12.8380247555
 20
32.3843176588
 11
-14.8380247555
 21
34.3843176588
  0
LINE
  5
465
100
AcDbEntity
  8
IMPORT_IGES
100
AcDbLine
 62
7
  6
CONTINUOUS
 10
-9.4379967111
 20
52.8040243596
 11
-9.4378429222
 21
52.8036752588
  0
LINE
  5
466
100
AcDbEntity
  8
IMPORT_IGES
100
AcDbLine
 62
7
  6
CONTINUOUS
 10
16.9119810745
 20
-53.2381237348
 11
16.9119810745
 21
-45.9044529816
  0
LINE
  5
467
100
AcDbEntity
  8
IMPORT_IGES
100
AcDbLine
 62
7
  6
CONTINUOUS
 10
16.9119810745
 20
-37.9044529816
 11
16.9119810745
 21
-30.5707822283
  0
LINE
  5
468
100
AcDbEntity
  8
IMPORT_IGES
100
AcDbLine
 62
7
  6
CONTINUOUS
 10
16.9172750438
 20
-53.1421208777
 11
16.9172750438
 21
-49.0544529816
  0
LINE
  5
469
100
AcDbEntity
  8
IMPORT_IGES
100
AcDbLine
 62
7
  6
CONTINUOUS
 10
16.9172750438
 20
-34.7544529816
 11
16.9172750438
 21
-30.6667850854
  0
LINE
  5
46A
100
AcDbEntity
  8
IMPORT_IGES
100
AcDbLine
 62
7
  6
CONTINUOUS
 10
17.0172750438
 20
-53.1421208777
 11
17.0172750438
 21
-49.0544529816
  0
LINE
  5
46B
100
AcDbEntity
  8
IMPORT_IGES
100
AcDbLine
 62
7
  6
CONTINUOUS
 10
17.0172750438
 20
-34.7544529816
 11
17.0172750438
 21
-30.6667850854
  0
LINE
  5
46C
100
AcDbEntity
  8
IMPORT_IGES
100
AcDbLine
 62
7
  6
CONTINUOUS
 10
18.0172750438
 20
-52.8044529816
 11
18.0172750438
 21
-49.3044529816
  0
LINE
  5
46D
100
AcDbEntity
  8
IMPORT_IGES
100
AcDbLine
 62
7
  6
CONTINUOUS
 10
18.0172750438
 20
-34.7544529816
 11
18.0172750438
 21
-31.0044529816
  0
LINE
  5
46E
100
AcDbEntity
  8
IMPORT_IGES
100
AcDbLine
 62
7
  6
CONTINUOUS
 10
18.2172750438
 20
-30.6667850854
 11
18.2172750438
 21
-34.7544529816
  0
LINE
  5
46F
100
AcDbEntity
  8
IMPORT_IGES
100
AcDbLine
 62
7
  6
CONTINUOUS
 10
18.2172750438
 20
-49.0544529816
 11
18.2172750438
 21
-53.1421208777
  0
LINE
  5
470
100
AcDbEntity
  8
IMPORT_IGES
100
AcDbLine
 62
7
  6
CONTINUOUS
 10
18.3698687307
 20
-30.5707822283
 11
18.3698687307
 21
-37.9044529816
  0
LINE
  5
471
100
AcDbEntity
  8
IMPORT_IGES
100
AcDbLine
 62
7
  6
CONTINUOUS
 10
18.3698687307
 20
-39.1775371375
 11
18.3698687307
 21
-44.6313688256
  0
LINE
  5
472
100
AcDbEntity
  8
IMPORT_IGES
100
AcDbLine
 62
7
  6
CONTINUOUS
 10
18.3698687307
 20
-45.9044529816
 11
18.3698687307
 21
-53.2381237348
  0
LINE
  5
473
100
AcDbEntity
  8
IMPORT_IGES
100
AcDbLine
 62
250
  6
CONTINUOUS
 10
-5.1544641397
 20
-23.2721559925
 11
-5.1175840084
 21
-23.2522862005
  0
LINE
  5
474
100
AcDbEntity
  8
IMPORT_IGES
100
AcDbLine
 62
7
  6
CONTINUOUS
 10
-18.7876696851
 20
43.8158302208
 11
-18.7988903659
 21
43.8270509566
  0
LINE
  5
475
100
AcDbEntity
  8
IMPORT_IGES
100
AcDbLine
 62
7
  6
CONTINUOUS
 10
20.0967825905
 20
-29.843736244
 11
20.096784574
 21
-53.9651697205
  0
LINE
  5
476
100
AcDbEntity
  8
IMPORT_IGES
100
AcDbLine
 62
7
  6
CONTINUOUS
 10
0.7480366525
 20
-40.0321060165
 11
-2.4673947106
 21
-45.5209811145
  0
LINE
  5
477
100
AcDbEntity
  8
IMPORT_IGES
100
AcDbLine
 62
7
  6
CONTINUOUS
 10
-2.4255025548
 20
-45.5323481032
 11
0.7899288084
 21
-40.0434730051
  0
LINE
  5
478
100
AcDbEntity
  8
IMPORT_IGES
100
AcDbLine
 62
250
  6
CONTINUOUS
 10
-21.2089556024
 20
-54.0864250302
 11
-21.2380247567
 21
-54.1157794421
  0
LINE
  5
479
100
AcDbEntity
  8
IMPORT_IGES
100
AcDbLine
 62
7
  6
CONTINUOUS
 10
-7.1380247555
 20
20.8843176588
 11
-9.5380247555
 21
20.8843176588
  0
LWPOLYLINE
  5
47A
100
AcDbEntity
  8
IMPORT_IGES
100
AcDbPolyline
 62
7
  6
CONTINUOUS
 90
17
 70
0
 10
-2.8247144467
 20
27.6790272636
 10
-2.780294448
 20
27.6553294819
 10
-2.7375138237
 20
27.6276324205
 10
-2.6963460893
 20
27.5959895452
 10
-2.6574349721
 20
27.5609259175
 10
-2.6208132153
 20
27.5223945809
 10
-2.5864480757
 20
27.4804424918
 10
-2.5548850526
 20
27.4357355816
 10
-2.5261626102
 20
27.3882338786
 10
-2.5002422843
 20
27.3379773545
 10
-2.4775541798
 20
27.2857518555
 10
-2.4581420935
 20
27.2315250499
 10
-2.4419622288
 20
27.1753292694
 10
-2.4293133008
 20
27.1180473559
 10
-2.4202948815
 20
27.0599735899
 10
-2.414807399
 20
27.0008136909
 10
-2.4128508533
 20
26.9405676588
  0
LINE
  5
47B
100
AcDbEntity
  8
IMPORT_IGES
100
AcDbLine
 62
250
  6
CONTINUOUS
 10
-20.2091078587
 20
52.8552484572
 11
-20.2381642069
 21
52.8843176583
  0
LINE
  5
47C
100
AcDbEntity
  8
IMPORT_IGES
100
AcDbLine
 62
250
  6
CONTINUOUS
 10
-21.2380247554
 20
51.8844580539
 11
-21.2089556024
 21
51.8551612049
  0
LINE
  5
47D
100
AcDbEntity
  8
IMPORT_IGES
100
AcDbLine
 62
250
  6
CONTINUOUS
 10
-20.238175109
 20
-55.1156823408
 11
-20.2091078587
 21
-55.0866131396
  0
LWPOLYLINE
  5
47E
100
AcDbEntity
  8
IMPORT_IGES
100
AcDbPolyline
 62
250
  6
CONTINUOUS
 90
10
 70
0
 10
-20.2091078587
 20
-55.0866131396
 10
-20.2089920672
 20
-55.0865023838
 10
-20.2088662097
 20
-55.0863916319
 10
-20.2087302862
 20
-55.086280884
 10
-20.2085842962
 20
-55.0861701396
 10
-20.2084282403
 20
-55.0860593991
 10
-20.2082621195
 20
-55.0859486634
 10
-20.2080859343
 20
-55.0858379327
 10
-20.2078996842
 20
-55.0857272067
 10
-20.2077033693
 20
-55.0856164855
  0
LINE
  5
47F
100
AcDbEntity
  8
IMPORT_IGES
100
AcDbLine
 62
250
  6
CONTINUOUS
 10
-2.4128508533
 20
26.9405676588
 11
-2.2380247555
 21
26.9405676588
  0
LINE
  5
480
100
AcDbEntity
  8
IMPORT_IGES
100
AcDbLine
 62
250
  6
CONTINUOUS
 10
-14.5380247555
 20
27.2142176588
 11
-12.7872385168
 21
27.2142176588
  0
LINE
  5
481
100
AcDbEntity
  8
IMPORT_IGES
100
AcDbLine
 62
250
  6
CONTINUOUS
 10
-10.0080659431
 20
27.2142176588
 11
-6.6680136371
 21
27.2142176588
  0
LINE
  5
482
100
AcDbEntity
  8
IMPORT_IGES
100
AcDbLine
 62
7
  6
CONTINUOUS
 10
-6.5877869275
 20
27.4682176588
 11
-10.088276586
 21
27.4682176588
  0
LINE
  5
483
100
AcDbEntity
  8
IMPORT_IGES
100
AcDbLine
 62
7
  6
CONTINUOUS
 10
-12.818420788
 20
27.4682176588
 11
-14.5380247555
 21
27.4682176588
  0
LWPOLYLINE
  5
484
100
AcDbEntity
  8
IMPORT_IGES
100
AcDbPolyline
 62
7
  6
CONTINUOUS
 90
6
 70
0
 10
-3.0630527884
 20
27.7343176588
 10
-3.0137021281
 20
27.7319291575
 10
-2.9652411758
 20
27.7252301783
 10
-2.9176699317
 20
27.7142207211
 10
-2.8707473351
 20
27.6987792313
 10
-2.8247144467
 20
27.6790272636
  0
LINE
  5
485
100
AcDbEntity
  8
IMPORT_IGES
100
AcDbLine
 62
7
  6
CONTINUOUS
 10
-5.5535913547
 20
38.0129107131
 11
-5.6463334903
 21
38.0987700184
  0
LINE
  5
486
100
AcDbEntity
  8
IMPORT_IGES
100
AcDbLine
 62
7
  6
CONTINUOUS
 10
-0.8711005512
 20
38.0129107131
 11
-1.9662820523
 21
39.1944386525
  0
LINE
  5
487
100
AcDbEntity
  8
IMPORT_IGES
100
AcDbLine
 62
7
  6
CONTINUOUS
 10
-2.2678058584
 20
39.5197253516
 11
-3.1684510747
 21
40.4913729776
  0
LINE
  5
488
100
AcDbEntity
  8
IMPORT_IGES
100
AcDbLine
 62
7
  6
CONTINUOUS
 10
-3.2546608109
 20
40.5843790626
 11
-4.1044054665
 21
41.5011133797
  0
LINE
  5
489
100
AcDbEntity
  8
IMPORT_IGES
100
AcDbLine
 62
7
  6
CONTINUOUS
 10
-4.2478304018
 20
41.6558452269
 11
-5.648376562
 21
43.1669940723
  0
LINE
  5
48A
100
AcDbEntity
  8
IMPORT_IGES
100
AcDbLine
 62
7
  6
CONTINUOUS
 10
-5.6575963531
 20
43.3700535703
 11
-4.2657838482
 21
41.8664747182
  0
LINE
  5
48B
100
AcDbEntity
  8
IMPORT_IGES
100
AcDbLine
 62
7
  6
CONTINUOUS
 10
-4.120690994
 20
41.7097305113
 11
-3.1651257377
 21
40.6774307539
  0
LINE
  5
48C
100
AcDbEntity
  8
IMPORT_IGES
100
AcDbLine
 62
7
  6
CONTINUOUS
 10
-3.0789688269
 20
40.5843552078
 11
-2.2542471303
 21
39.6934061055
  0
LINE
  5
48D
100
AcDbEntity
  8
IMPORT_IGES
100
AcDbLine
 62
7
  6
CONTINUOUS
 10
-2.1495781172
 20
39.5803318846
 11
-0.7832884428
 21
38.1045964143
  0
LWPOLYLINE
  5
48E
100
AcDbEntity
  8
IMPORT_IGES
100
AcDbPolyline
 62
7
  6
CONTINUOUS
 90
16
 70
0
 10
4.2110403804
 20
-54.4369131579
 10
4.1750346816
 20
-54.4998926275
 10
4.1345708374
 20
-54.5600781453
 10
4.0898656248
 20
-54.6171558164
 10
4.0411609665
 20
-54.6708251653
 10
3.9887134937
 20
-54.7208112909
 10
3.9327908061
 20
-54.7668638407
 10
3.8736880537
 20
-54.8087419535
 10
3.8117156966
 20
-54.8462278166
 10
3.747185038
 20
-54.8791333163
 10
3.6804330274
 20
-54.9072843291
 10
3.6118098086
 20
-54.9305310294
 10
3.5416613345
 20
-54.9487529042
 10
3.4703501058
 20
-54.96185014
 10
3.3982543666
 20
-54.9697474865
 10
3.3257526346
 20
-54.9723983896
  0
LINE
  5
48F
100
AcDbEntity
  8
IMPORT_IGES
100
AcDbLine
 62
7
  6
CONTINUOUS
 10
-13.3620303394
 20
-53.8646661513
 11
-13.5648903614
 21
-54.0675261733
  0
LINE
  5
490
100
AcDbEntity
  8
IMPORT_IGES
100
AcDbLine
 62
7
  6
CONTINUOUS
 10
-2.5030247555
 20
27.7343176588
 11
-3.8416628983
 21
27.7343176588
  0
LINE
  5
491
100
AcDbEntity
  8
IMPORT_IGES
100
AcDbLine
 62
7
  6
CONTINUOUS
 10
-13.8004247555
 20
27.7343176588
 11
-14.5380247555
 21
27.7343176588
  0
LINE
  5
492
100
AcDbEntity
  8
IMPORT_IGES
100
AcDbLine
 62
250
  6
CONTINUOUS
 10
-10.034441733
 20
28.4842176588
 11
-7.1710247555
 21
28.4842176588
  0
LINE
  5
493
100
AcDbEntity
  8
IMPORT_IGES
100
AcDbLine
 62
7
  6
CONTINUOUS
 10
-7.4250279906
 20
28.7382176588
 11
-9.921427476
 21
28.7382176588
  0
LINE
  5
494
100
AcDbEntity
  8
IMPORT_IGES
100
AcDbLine
 62
250
  6
CONTINUOUS
 10
-13.8004247555
 20
29.2583176588
 11
-12.8380247555
 21
29.2583176588
  0
LINE
  5
495
100
AcDbEntity
  8
IMPORT_IGES
100
AcDbLine
 62
250
  6
CONTINUOUS
 10
-7.8297154452
 20
29.2583176587
 11
-7.1764105244
 21
29.2583176587
  0
LINE
  5
496
100
AcDbEntity
  8
IMPORT_IGES
100
AcDbLine
 62
7
  6
CONTINUOUS
 10
-13.8004247555
 20
29.2885295237
 11
-12.8380247555
 21
29.2885295237
  0
LINE
  5
497
100
AcDbEntity
  8
IMPORT_IGES
100
AcDbLine
 62
7
  6
CONTINUOUS
 10
-9.4628468203
 20
29.2885295237
 11
-7.2131195666
 21
29.2885295237
  0
LINE
  5
498
100
AcDbEntity
  8
IMPORT_IGES
100
AcDbLine
 62
250
  6
CONTINUOUS
 10
-13.8004247555
 20
29.3503557625
 11
-12.8380247555
 21
29.3503557625
  0
LINE
  5
499
100
AcDbEntity
  8
IMPORT_IGES
100
AcDbLine
 62
250
  6
CONTINUOUS
 10
-9.3807962569
 20
29.3503557625
 11
-7.2952222284
 21
29.3503557625
  0
LINE
  5
49A
100
AcDbEntity
  8
IMPORT_IGES
100
AcDbLine
 62
7
  6
CONTINUOUS
 10
2.122840855
 20
30.3843176588
 11
-0.6380247555
 21
30.3843176588
  0
LINE
  5
49B
100
AcDbEntity
  8
IMPORT_IGES
100
AcDbLine
 62
7
  6
CONTINUOUS
 10
-16.0380247555
 20
30.3843176588
 11
-18.7988903659
 21
30.3843176588
  0
LINE
  5
49C
100
AcDbEntity
  8
IMPORT_IGES
100
AcDbLine
 62
250
  6
CONTINUOUS
 10
-12.8380247555
 20
30.8978233894
 11
-13.8004247555
 21
30.8978233894
  0
LINE
  5
49D
100
AcDbEntity
  8
IMPORT_IGES
100
AcDbLine
 62
7
  6
CONTINUOUS
 10
-13.8004247555
 20
30.9093176588
 11
-12.8380247555
 21
30.9093176588
  0
LINE
  5
49E
100
AcDbEntity
  8
IMPORT_IGES
100
AcDbLine
 62
7
  6
CONTINUOUS
 10
-9.3372244352
 20
49.9758889507
 11
-9.3379656552
 21
49.9765871526
  0
LWPOLYLINE
  5
49F
100
AcDbEntity
  8
IMPORT_IGES
100
AcDbPolyline
 62
7
  6
CONTINUOUS
 90
16
 70
0
 10
4.1954459125
 20
52.2341291871
 10
4.1583330295
 20
52.2945168249
 10
4.1171273617
 20
52.352005046
 10
4.0720608269
 20
52.406324723
 10
4.0234151809
 20
52.4571933304
 10
3.9714261138
 20
52.5044170967
 10
3.9162599784
 20
52.5478679618
 10
3.8581584626
 20
52.5873534636
 10
3.7974383307
 20
52.6226566294
 10
3.7343773836
 20
52.6536161426
 10
3.6692442326
 20
52.6800916914
 10
3.6023983363
 20
52.701928876
 10
3.5342734412
 20
52.7189948778
 10
3.4652453004
 20
52.7312194168
 10
3.395622232
 20
52.738571195
 10
3.3257473516
 20
52.7410333693
  0
LINE
  5
4A0
100
AcDbEntity
  8
IMPORT_IGES
100
AcDbLine
 62
7
  6
CONTINUOUS
 10
-3.179229915
 20
-49.787971496
 11
-3.3014647417
 21
-49.9102063227
  0
LINE
  5
4A1
100
AcDbEntity
  8
IMPORT_IGES
100
AcDbLine
 62
7
  6
CONTINUOUS
 10
-5.0024528117
 20
-54.7692295542
 11
-5.0451480939
 21
-54.8119248363
  0
LINE
  5
4A2
100
AcDbEntity
  8
IMPORT_IGES
100
AcDbLine
 62
7
  6
CONTINUOUS
 10
-5.0093246468
 20
-54.9723984924
 11
-5.0451480937
 21
-55.0082217386
  0
LWPOLYLINE
  5
4A3
100
AcDbEntity
  8
IMPORT_IGES
100
AcDbPolyline
 62
7
  6
CONTINUOUS
 90
5
 70
0
 10
-13.8004247555
 20
29.9867674111
 10
-13.4919157068
 20
30.0535616611
 10
-13.1786026138
 20
30.11474167
 10
-12.8604854767
 20
30.1703074377
 10
-12.8380247555
 20
30.1737811108
  0
LWPOLYLINE
  5
4A4
100
AcDbEntity
  8
IMPORT_IGES
100
AcDbPolyline
 62
7
  6
CONTINUOUS
 90
5
 70
0
 10
-12.8380247555
 20
30.4476679915
 10
-12.8604854767
 20
30.4441943184
 10
-13.1786026138
 20
30.3886285506
 10
-13.4919157068
 20
30.3274485417
 10
-13.8004247555
 20
30.2606542918
  0
LINE
  5
4A5
100
AcDbEntity
  8
IMPORT_IGES
100
AcDbLine
 62
7
  6
CONTINUOUS
 10
1.6619752445
 20
32.3843176588
 11
-0.8380247555
 21
32.3843176588
  0
LINE
  5
4A6
100
AcDbEntity
  8
IMPORT_IGES
100
AcDbLine
 62
7
  6
CONTINUOUS
 10
-15.8380247555
 20
32.3843176588
 11
-18.3380247555
 21
32.3843176588
  0
LINE
  5
4A7
100
AcDbEntity
  8
IMPORT_IGES
100
AcDbLine
 62
7
  6
CONTINUOUS
 10
-0.8380247555
 20
32.8343176588
 11
-1.4880247555
 21
32.8343176588
  0
LINE
  5
4A8
100
AcDbEntity
  8
IMPORT_IGES
100
AcDbLine
 62
7
  6
CONTINUOUS
 10
-2.1880247555
 20
32.8343176588
 11
-2.9880247555
 21
32.8343176588
  0
LINE
  5
4A9
100
AcDbEntity
  8
IMPORT_IGES
100
AcDbLine
 62
7
  6
CONTINUOUS
 10
-1.8380247555
 20
34.3843176588
 11
2.122840855
 21
34.3843176588
  0
LINE
  5
4AA
100
AcDbEntity
  8
IMPORT_IGES
100
AcDbLine
 62
7
  6
CONTINUOUS
 10
-14.8380247555
 20
34.3843176588
 11
-18.7988903659
 21
34.3843176588
  0
LINE
  5
4AB
100
AcDbEntity
  8
IMPORT_IGES
100
AcDbLine
 62
250
  6
CONTINUOUS
 10
-21.2071998768
 20
51.8545676018
 11
-21.0015336155
 21
51.7413116038
  0
LWPOLYLINE
  5
4AC
100
AcDbEntity
  8
IMPORT_IGES
100
AcDbPolyline
 62
7
  6
CONTINUOUS
 90
3
 70
0
 10
-21.2086562086
 20
51.8549600922
 10
-21.2088122688
 20
51.8550462833
 10
-21.2089555979
 20
51.8551612049
  0
LWPOLYLINE
  5
4AD
100
AcDbEntity
  8
IMPORT_IGES
100
AcDbPolyline
 62
7
  6
CONTINUOUS
 90
7
 70
0
 10
-21.2071998914
 20
51.8545676018
 10
-21.2074475605
 20
51.8547165038
 10
-21.2076818718
 20
51.8548281804
 10
-21.2079029151
 20
51.8549026314
 10
-21.2081107768
 20
51.8549178717
 10
-21.2083055497
 20
51.8548958864
 10
-21.2084873304
 20
51.8549026314
  0
LINE
  5
4AE
100
AcDbEntity
  8
IMPORT_IGES
100
AcDbLine
 62
7
  6
CONTINUOUS
 10
2.1116202057
 20
44.952805101
 11
2.122840855
 21
44.9415843847
  0
LINE
  5
4AF
100
AcDbEntity
  8
IMPORT_IGES
100
AcDbLine
 62
250
  6
CONTINUOUS
 10
-21.0015336053
 20
-53.9727290469
 11
-21.2071998768
 21
-54.0860562149
  0
LINE
  5
4B0
100
AcDbEntity
  8
IMPORT_IGES
100
AcDbLine
 62
250
  6
CONTINUOUS
 10
-20.2077033693
 20
-55.0856164855
 11
-20.0018022707
 21
-54.9723984914
  0
LINE
  5
4B1
100
AcDbEntity
  8
IMPORT_IGES
100
AcDbLine
 62
7
  6
CONTINUOUS
 10
1.1619752445
 20
35.5843176588
 11
2.122840855
 21
35.5843176588
  0
LINE
  5
4B2
100
AcDbEntity
  8
IMPORT_IGES
100
AcDbLine
 62
7
  6
CONTINUOUS
 10
-17.8380247555
 20
35.5843176588
 11
-18.7988903659
 21
35.5843176588
  0
LINE
  5
4B3
100
AcDbEntity
  8
IMPORT_IGES
100
AcDbLine
 62
7
  6
CONTINUOUS
 10
1.1619752445
 20
36.5843176588
 11
-17.8380247555
 21
36.5843176588
  0
LINE
  5
4B4
100
AcDbEntity
  8
IMPORT_IGES
100
AcDbLine
 62
7
  6
CONTINUOUS
 10
-3.6672499317
 20
38.5082964157
 11
-3.9373129816
 21
38.5082964157
  0
LINE
  5
4B5
100
AcDbEntity
  8
IMPORT_IGES
100
AcDbLine
 62
7
  6
CONTINUOUS
 10
-2.7819403095
 20
38.7961575032
 11
-3.6672499317
 21
38.7961581983
  0
LINE
  5
4B6
100
AcDbEntity
  8
IMPORT_IGES
100
AcDbLine
 62
7
  6
CONTINUOUS
 10
-3.9373129816
 20
38.7961587847
 11
-4.004079031
 21
38.7961587847
  0
LINE
  5
4B7
100
AcDbEntity
  8
IMPORT_IGES
100
AcDbLine
 62
7
  6
CONTINUOUS
 10
-2.8153945637
 20
38.9280210065
 11
-3.9036304083
 21
38.9280210065
  0
LINE
  5
4B8
100
AcDbEntity
  8
IMPORT_IGES
100
AcDbLine
 62
250
  6
CONTINUOUS
 10
-20.0018010257
 20
52.7410338133
 11
-20.2077007962
 21
52.8542518047
  0
LWPOLYLINE
  5
4B9
100
AcDbEntity
  8
IMPORT_IGES
100
AcDbPolyline
 62
250
  6
CONTINUOUS
 90
10
 70
0
 10
-20.2077007962
 20
52.8542518047
 10
-20.207898255
 20
52.8543625254
 10
-20.208085363
 20
52.854473251
 10
-20.2082621201
 20
52.8545839814
 10
-20.2084284314
 20
52.8546947169
 10
-20.2085843919
 20
52.8548054574
 10
-20.2087302864
 20
52.8549162017
 10
-20.2088662098
 20
52.8550269496
 10
-20.2089920673
 20
52.8551377014
 10
-20.2091078587
 20
52.8552484572
  0
LINE
  5
4BA
100
AcDbEntity
  8
IMPORT_IGES
100
AcDbLine
 62
7
  6
CONTINUOUS
 10
-10.1819030529
 20
40.0188493593
 11
-8.4306839033
 21
40.0188493593
  0
LINE
  5
4BB
100
AcDbEntity
  8
IMPORT_IGES
100
AcDbLine
 62
7
  6
CONTINUOUS
 10
-8.4306839033
 20
40.9188493593
 11
-10.1819030529
 21
40.9188493593
  0
LINE
  5
4BC
100
AcDbEntity
  8
IMPORT_IGES
100
AcDbLine
 62
7
  6
CONTINUOUS
 10
-3.3864624719
 20
41.1758253036
 11
-2.6855665605
 21
41.1758253036
  0
LINE
  5
4BD
100
AcDbEntity
  8
IMPORT_IGES
100
AcDbLine
 62
7
  6
CONTINUOUS
 10
-2.4161915324
 20
41.4557804212
 11
-3.3864624719
 21
41.4557804212
  0
LINE
  5
4BE
100
AcDbEntity
  8
IMPORT_IGES
100
AcDbLine
 62
7
  6
CONTINUOUS
 10
-1.6452344789
 20
41.541351608
 11
-1.9801780919
 21
41.541351608
  0
LINE
  5
4BF
100
AcDbEntity
  8
IMPORT_IGES
100
AcDbLine
 62
7
  6
CONTINUOUS
 10
-1.7820267279
 20
41.6803527653
 11
-2.0242261644
 21
41.6803527653
  0
LINE
  5
4C0
100
AcDbEntity
  8
IMPORT_IGES
100
AcDbLine
 62
7
  6
CONTINUOUS
 10
-1.9374401829
 20
42.0368513575
 11
-1.8570804821
 21
42.0368513575
  0
LINE
  5
4C1
100
AcDbEntity
  8
IMPORT_IGES
100
AcDbLine
 62
7
  6
CONTINUOUS
 10
-2.0716558162
 20
42.0368513575
 11
-2.1409263074
 21
42.0368513575
  0
LINE
  5
4C2
100
AcDbEntity
  8
IMPORT_IGES
100
AcDbLine
 62
7
  6
CONTINUOUS
 10
-4.1557236315
 20
42.1607423015
 11
-2.0620103668
 21
42.1607423015
  0
LINE
  5
4C3
100
AcDbEntity
  8
IMPORT_IGES
100
AcDbLine
 62
7
  6
CONTINUOUS
 10
-4.290772203
 20
42.1607423015
 11
-4.4987918618
 21
42.1607423015
  0
LINE
  5
4C4
100
AcDbEntity
  8
IMPORT_IGES
100
AcDbLine
 62
7
  6
CONTINUOUS
 10
-2.0493922603
 20
42.3737578936
 11
-3.7401118922
 21
42.3738219198
  0
LINE
  5
4C5
100
AcDbEntity
  8
IMPORT_IGES
100
AcDbLine
 62
7
  6
CONTINUOUS
 10
-4.4987918618
 20
42.3737578935
 11
-4.3335719233
 21
42.3737578935
  0
LINE
  5
4C6
100
AcDbEntity
  8
IMPORT_IGES
100
AcDbLine
 62
7
  6
CONTINUOUS
 10
-4.022624285
 20
42.3737578935
 11
-4.1880643709
 21
42.3737578935
  0
LINE
  5
4C7
100
AcDbEntity
  8
IMPORT_IGES
100
AcDbLine
 62
7
  6
CONTINUOUS
 10
-3.3705199163
 20
42.5645243367
 11
-2.6757702353
 21
42.5645243367
  0
LINE
  5
4C8
100
AcDbEntity
  8
IMPORT_IGES
100
AcDbLine
 62
7
  6
CONTINUOUS
 10
-2.801966127
 20
42.6946578476
 11
-3.2408025766
 21
42.6946578476
  0
LINE
  5
4C9
100
AcDbEntity
  8
IMPORT_IGES
100
AcDbLine
 62
7
  6
CONTINUOUS
 10
-3.2408025766
 20
42.7481198311
 11
-2.801966127
 21
42.7481198311
  0
LINE
  5
4CA
100
AcDbEntity
  8
IMPORT_IGES
100
AcDbLine
 62
7
  6
CONTINUOUS
 10
-4.0226137132
 20
42.8051352756
 11
-3.7400798794
 21
42.8051352758
  0
LINE
  5
4CB
100
AcDbEntity
  8
IMPORT_IGES
100
AcDbLine
 62
7
  6
CONTINUOUS
 10
-3.3705199163
 20
42.8746678677
 11
-2.6757702353
 21
42.8746678677
  0
LINE
  5
4CC
100
AcDbEntity
  8
IMPORT_IGES
100
AcDbLine
 62
7
  6
CONTINUOUS
 10
2.1116202718
 20
43.8158301864
 11
1.6619752445
 21
43.814684217
  0
LINE
  5
4CD
100
AcDbEntity
  8
IMPORT_IGES
100
AcDbLine
 62
7
  6
CONTINUOUS
 10
-18.7876695911
 20
44.9528051317
 11
-18.3380247555
 21
44.9539511073
  0
LINE
  5
4CE
100
AcDbEntity
  8
IMPORT_IGES
100
AcDbLine
 62
7
  6
CONTINUOUS
 10
2.122840855
 20
43.8494075289
 11
1.6619752445
 21
43.8494075289
  0
LINE
  5
4CF
100
AcDbEntity
  8
IMPORT_IGES
100
AcDbLine
 62
7
  6
CONTINUOUS
 10
-18.3380247555
 20
43.8494075289
 11
-18.7988903659
 21
43.8494075289
  0
LINE
  5
4D0
100
AcDbEntity
  8
IMPORT_IGES
100
AcDbLine
 62
7
  6
CONTINUOUS
 10
-4.0380247555
 20
44.4843176588
 11
-12.6380247555
 21
44.4843176588
  0
LINE
  5
4D1
100
AcDbEntity
  8
IMPORT_IGES
100
AcDbLine
 62
7
  6
CONTINUOUS
 10
-18.7988903659
 20
44.9192277886
 11
-18.3380247555
 21
44.9192277886
  0
LINE
  5
4D2
100
AcDbEntity
  8
IMPORT_IGES
100
AcDbLine
 62
7
  6
CONTINUOUS
 10
2.122840855
 20
44.9192277886
 11
1.6619752445
 21
44.9192277886
  0
LINE
  5
4D3
100
AcDbEntity
  8
IMPORT_IGES
100
AcDbLine
 62
7
  6
CONTINUOUS
 10
-18.3380247555
 20
43.8146841858
 11
-18.7876696851
 21
43.8158302208
  0
LINE
  5
4D4
100
AcDbEntity
  8
IMPORT_IGES
100
AcDbLine
 62
7
  6
CONTINUOUS
 10
1.6619752445
 20
44.9539511086
 11
2.1116202057
 21
44.952805101
  0
LWPOLYLINE
  5
4D5
100
AcDbEntity
  8
IMPORT_IGES
100
AcDbPolyline
 62
250
  6
CONTINUOUS
 90
16
 70
0
 10
3.9599484376
 20
-54.9907705209
 10
4.024492186
 20
-54.9573558011
 10
4.0865271677
 20
-54.9192839058
 10
4.1459057687
 20
-54.8765873154
 10
4.2022507312
 20
-54.8294458676
 10
4.255225495
 20
-54.7780439083
 10
4.3046815876
 20
-54.7223708422
 10
4.3503740213
 20
-54.6624423342
 10
4.3917598687
 20
-54.598682751
 10
4.4282902249
 20
-54.5317515409
 10
4.4596608613
 20
-54.4621203727
 10
4.4856990434
 20
-54.390072389
 10
4.5061857816
 20
-54.3160741365
 10
4.5209582948
 20
-54.240572294
 10
4.5298961169
 20
-54.1639858022
 10
4.5329060429
 20
-54.0867654445
  0
LWPOLYLINE
  5
4D6
100
AcDbEntity
  8
IMPORT_IGES
100
AcDbPolyline
 62
7
  6
CONTINUOUS
 90
9
 70
0
 10
-5.0451480937
 20
-55.0082219392
 10
-5.0519371368
 20
-55.0107456557
 10
-5.0668346
 20
-55.0132416237
 10
-5.0898404832
 20
-55.015709843
 10
-5.121087614
 20
-55.0181582173
 10
-5.1604431648
 20
-55.0205788431
 10
-5.2075086533
 20
-55.0229480097
 10
-5.2623581684
 20
-55.0252652005
 10
-5.3249176213
 20
-55.0275309323
  0
LINE
  5
4D7
100
AcDbEntity
  8
IMPORT_IGES
100
AcDbLine
 62
7
  6
CONTINUOUS
 10
-4.0380247555
 20
48.4843176588
 11
-12.6380247555
 21
48.4843176588
  0
LINE
  5
4D8
100
AcDbEntity
  8
IMPORT_IGES
100
AcDbLine
 62
7
  6
CONTINUOUS
 10
1.1619752445
 20
49.3843176588
 11
-0.6380247555
 21
49.3843176588
  0
LINE
  5
4D9
100
AcDbEntity
  8
IMPORT_IGES
100
AcDbLine
 62
7
  6
CONTINUOUS
 10
-1.8380247555
 20
49.3843176588
 11
-4.0380247555
 21
49.3843176588
  0
LINE
  5
4DA
100
AcDbEntity
  8
IMPORT_IGES
100
AcDbLine
 62
7
  6
CONTINUOUS
 10
-12.6380247555
 20
49.3843176588
 11
-14.8380247555
 21
49.3843176588
  0
LINE
  5
4DB
100
AcDbEntity
  8
IMPORT_IGES
100
AcDbLine
 62
7
  6
CONTINUOUS
 10
-16.0380247555
 20
49.3843176588
 11
-17.8380247555
 21
49.3843176588
  0
LINE
  5
4DC
100
AcDbEntity
  8
IMPORT_IGES
100
AcDbLine
 62
7
  6
CONTINUOUS
 10
-18.3380247555
 20
49.8843176588
 11
-16.0380247555
 21
49.8843176588
  0
LINE
  5
4DD
100
AcDbEntity
  8
IMPORT_IGES
100
AcDbLine
 62
7
  6
CONTINUOUS
 10
-14.8380247555
 20
49.8843176588
 11
-9.4380247555
 21
49.8843176588
  0
LINE
  5
4DE
100
AcDbEntity
  8
IMPORT_IGES
100
AcDbLine
 62
7
  6
CONTINUOUS
 10
-7.2380247555
 20
49.8843176588
 11
-1.8380247555
 21
49.8843176588
  0
LINE
  5
4DF
100
AcDbEntity
  8
IMPORT_IGES
100
AcDbLine
 62
7
  6
CONTINUOUS
 10
-0.6380247555
 20
49.8843176588
 11
1.6619752445
 21
49.8843176588
  0
LINE
  5
4E0
100
AcDbEntity
  8
IMPORT_IGES
100
AcDbLine
 62
7
  6
CONTINUOUS
 10
-5.8380247555
 20
50.0359343741
 11
-10.8380247555
 21
50.0359343741
  0
LINE
  5
4E1
100
AcDbEntity
  8
IMPORT_IGES
100
AcDbLine
 62
7
  6
CONTINUOUS
 10
-18.7988903659
 20
50.3451680365
 11
-11.2380247555
 21
50.3451680365
  0
LINE
  5
4E2
100
AcDbEntity
  8
IMPORT_IGES
100
AcDbLine
 62
7
  6
CONTINUOUS
 10
-5.4380247555
 20
50.3451680365
 11
2.122840855
 21
50.3451680365
  0
LINE
  5
4E3
100
AcDbEntity
  8
IMPORT_IGES
100
AcDbLine
 62
7
  6
CONTINUOUS
 10
-5.8380247555
 20
50.8359343741
 11
-10.8380247555
 21
50.8359343741
  0
LWPOLYLINE
  5
4E4
100
AcDbEntity
  8
IMPORT_IGES
100
AcDbPolyline
 62
7
  6
CONTINUOUS
 90
8
 70
0
 10
-7.3388250757
 20
49.9758889507
 10
-7.3102333195
 20
49.9746989379
 10
-7.2863935898
 20
49.9734893791
 10
-7.2673058869
 20
49.9722602745
 10
-7.2529275142
 20
49.9710059946
 10
-7.2433011682
 20
49.9697321687
 10
-7.2385549378
 20
49.9684556851
 10
-7.2380362136
 20
49.967859621
  0
LINE
  5
4E5
100
AcDbEntity
  8
IMPORT_IGES
100
AcDbLine
 62
250
  6
CONTINUOUS
 10
3.906821228
 20
52.780935742
 11
3.8348083341
 21
52.8069839116
  0
LWPOLYLINE
  5
4E6
100
AcDbEntity
  8
IMPORT_IGES
100
AcDbPolyline
 62
250
  6
CONTINUOUS
 90
20
 70
0
 10
-20.3581226574
 20
52.8440363162
 10
-20.4306622162
 20
52.8303251178
 10
-20.5011521118
 20
52.8115573717
 10
-20.569496367
 20
52.7879300163
 10
-20.6360507647
 20
52.7593808832
 10
-20.700600885
 20
52.725957693
 10
-20.7626412969
 20
52.6878762496
 10
-20.8220242965
 20
52.6451690675
 10
-20.8783724699
 20
52.5980160938
 10
-20.9313491499
 20
52.5466017625
 10
-20.9808058089
 20
52.4909154615
 10
-21.02649735
 20
52.4309728578
 10
-21.0678806368
 20
52.3671985606
 10
-21.1044065926
 20
52.3002523913
 10
-21.1357709125
 20
52.2306062996
 10
-21.1618008494
 20
52.1585435479
 10
-21.1822774142
 20
52.084530845
 10
-21.1970378216
 20
52.0090150639
 10
-21.2059616068
 20
51.9324153757
 10
-21.2089555965
 20
51.8551827819
  0
LWPOLYLINE
  5
4E7
100
AcDbEntity
  8
IMPORT_IGES
100
AcDbPolyline
 62
7
  6
CONTINUOUS
 90
19
 70
0
 10
-20.0018701592
 20
52.2411097923
 10
-20.045042111
 20
52.2385966846
 10
-20.0872986241
 20
52.2324639832
 10
-20.1286396984
 20
52.222711688
 10
-20.1692742602
 20
52.2092730585
 10
-20.2089933832
 20
52.1922148353
 10
-20.2471702885
 20
52.1717372396
 10
-20.2839821919
 20
52.1475661485
 10
-20.3192518777
 20
52.119975685
 10
-20.3518209194
 20
52.0899884389
 10
-20.3814417031
 20
52.0577789675
 10
-20.4083618427
 20
52.0231727135
 10
-20.4321657536
 20
51.9866685943
 10
-20.4529715798
 20
51.9479689878
 10
-20.4706611773
 20
51.9073715162
 10
-20.4844645292
 20
51.8662679634
 10
-20.4941249634
 20
51.8251222576
 10
-20.499899152
 20
51.7834704706
 10
-20.5017870952
 20
51.7413126026
  0
LWPOLYLINE
  5
4E8
100
AcDbEntity
  8
IMPORT_IGES
100
AcDbPolyline
 62
7
  6
CONTINUOUS
 90
3
 70
0
 10
-9.4933112089
 20
52.8009589181
 10
-9.4683372676
 20
52.8023266952
 10
-9.4378429222
 20
52.8036752588
  0
LWPOLYLINE
  5
4E9
100
AcDbEntity
  8
IMPORT_IGES
100
AcDbPolyline
 62
7
  6
CONTINUOUS
 90
22
 70
0
 10
-20.0018044675
 20
52.7410338131
 10
-20.0766743356
 20
52.7382059254
 10
-20.1510809042
 20
52.7297863384
 10
-20.224608179
 20
52.7158316647
 10
-20.2968410054
 20
52.6964310975
 10
-20.3673833084
 20
52.6717013564
 10
-20.4358589145
 20
52.6417819391
 10
-20.5018878814
 20
52.6068450024
 10
-20.5651043754
 20
52.56709056
 10
-20.6251714887
 20
52.5227346006
 10
-20.6817555593
 20
52.4740258813
 10
-20.7345424149
 20
52.4212374655
 10
-20.7832491321
 20
52.3646521605
 10
-20.8276028781
 20
52.3045842593
 10
-20.8673550471
 20
52.2413676592
 10
-20.9022894768
 20
52.1753393459
 10
-20.9322063722
 20
52.1068653828
 10
-20.9569338757
 20
52.0363258332
 10
-20.9763325361
 20
51.9640968034
 10
-20.9902858593
 20
51.8905744234
 10
-20.998705002
 20
51.8161740067
 10
-21.0015336126
 20
51.741311603
  0
LINE
  5
4EA
100
AcDbEntity
  8
IMPORT_IGES
100
AcDbLine
 62
7
  6
CONTINUOUS
 10
-5.4380247555
 20
51.6708597367
 11
-5.8380247555
 21
51.6708597367
  0
LINE
  5
4EB
100
AcDbEntity
  8
IMPORT_IGES
100
AcDbLine
 62
7
  6
CONTINUOUS
 10
-10.8380247555
 20
51.6708597367
 11
-11.2380247555
 21
51.6708597367
  0
LINE
  5
4EC
100
AcDbEntity
  8
IMPORT_IGES
100
AcDbLine
 62
250
  6
CONTINUOUS
 10
-21.0015336149
 20
51.7413116038
 11
-20.5017871091
 21
51.7412919272
  0
LINE
  5
4ED
100
AcDbEntity
  8
IMPORT_IGES
100
AcDbLine
 62
250
  6
CONTINUOUS
 10
3.8257379272
 20
51.7412910714
 11
4.3256032223
 21
51.7413123957
  0
LINE
  5
4EE
100
AcDbEntity
  8
IMPORT_IGES
100
AcDbLine
 62
250
  6
CONTINUOUS
 10
3.3258204624
 20
52.2411089454
 11
-5.4380247555
 21
52.2411097116
  0
LINE
  5
4EF
100
AcDbEntity
  8
IMPORT_IGES
100
AcDbLine
 62
250
  6
CONTINUOUS
 10
-11.2380247555
 20
52.2411097891
 11
-20.0018701592
 21
52.2411097923
  0
LINE
  5
4F0
100
AcDbEntity
  8
IMPORT_IGES
100
AcDbLine
 62
7
  6
CONTINUOUS
 10
-5.8380247555
 20
52.5795720364
 11
-10.8380247555
 21
52.5795720364
  0
LINE
  5
4F1
100
AcDbEntity
  8
IMPORT_IGES
100
AcDbLine
 62
250
  6
CONTINUOUS
 10
-20.0018010257
 20
52.7410338133
 11
-11.2380247555
 21
52.7410338117
  0
LINE
  5
4F2
100
AcDbEntity
  8
IMPORT_IGES
100
AcDbLine
 62
250
  6
CONTINUOUS
 10
-5.4380247555
 20
52.7410335483
 11
3.3257473516
 21
52.7410333694
  0
LINE
  5
4F3
100
AcDbEntity
  8
IMPORT_IGES
100
AcDbLine
 62
7
  6
CONTINUOUS
 10
-11.2380247555
 20
52.7708597367
 11
-9.5380247554
 21
52.7708597367
  0
LINE
  5
4F4
100
AcDbEntity
  8
IMPORT_IGES
100
AcDbLine
 62
7
  6
CONTINUOUS
 10
-7.1380247555
 20
52.7708597367
 11
-5.4380247555
 21
52.7708597367
  0
LINE
  5
4F5
100
AcDbEntity
  8
IMPORT_IGES
100
AcDbLine
 62
7
  6
CONTINUOUS
 10
-5.4380247555
 20
52.8441710094
 11
-7.2380247555
 21
52.8441710094
  0
LINE
  5
4F6
100
AcDbEntity
  8
IMPORT_IGES
100
AcDbLine
 62
7
  6
CONTINUOUS
 10
-9.4380247555
 20
52.8441710094
 11
-11.2380247555
 21
52.8441710094
  0
LINE
  5
4F7
100
AcDbEntity
  8
IMPORT_IGES
100
AcDbLine
 62
7
  6
CONTINUOUS
 10
-20.2381642069
 20
52.8843176583
 11
-11.2380247555
 21
52.8843176585
  0
LINE
  5
4F8
100
AcDbEntity
  8
IMPORT_IGES
100
AcDbLine
 62
7
  6
CONTINUOUS
 10
-5.4380247555
 20
52.8843176588
 11
3.5621192637
 21
52.8843176581
  0
LINE
  5
4F9
100
AcDbEntity
  8
IMPORT_IGES
100
AcDbLine
 62
7
  6
CONTINUOUS
 10
-5.8380247555
 20
52.8843176588
 11
-10.8380247555
 21
52.8843176588
  0
LINE
  5
4FA
100
AcDbEntity
  8
IMPORT_IGES
100
AcDbLine
 62
250
  6
CONTINUOUS
 10
-6.2380247555
 20
53.3843176588
 11
-10.4380247554
 21
53.3843176588
  0
LINE
  5
4FB
100
AcDbEntity
  8
IMPORT_IGES
100
AcDbLine
 62
250
  6
CONTINUOUS
 10
-6.2380247555
 20
54.1843176588
 11
-10.4380247545
 21
54.1843176588
  0
LINE
  5
4FC
100
AcDbEntity
  8
IMPORT_IGES
100
AcDbLine
 62
7
  6
CONTINUOUS
 10
-6.7380296729
 20
54.6843176588
 11
-9.9379930169
 21
54.6843176588
  0
LWPOLYLINE
  5
4FD
100
AcDbEntity
  8
IMPORT_IGES
100
AcDbPolyline
 62
7
  6
CONTINUOUS
 90
22
 70
0
 10
3.5621192637
 20
52.8843176574
 10
3.6376978064
 20
52.8813646526
 10
3.7119909291
 20
52.8729813511
 10
3.784998632
 20
52.8591677531
 10
3.8571055871
 20
52.8397812374
 10
3.9279271223
 20
52.8149644252
 10
3.996309221
 20
52.7851451794
 10
4.0622116503
 20
52.7502452467
 10
4.1256746432
 20
52.7103428804
 10
4.1856648822
 20
52.6661007036
 10
4.2421269862
 20
52.6174505021
 10
4.2951163364
 20
52.56446049
 10
4.3437657588
 20
52.5079979329
 10
4.3880070291
 20
52.4480074645
 10
4.4279083717
 20
52.3845444509
 10
4.4628072862
 20
52.3186422565
 10
4.4926255149
 20
52.250260666
 10
4.5174413155
 20
52.1794398945
 10
4.5368269614
 20
52.107333952
 10
4.5506398771
 20
52.0343275084
 10
4.559022638
 20
51.9600358937
 10
4.5619752443
 20
51.884459108
  0
ARC
  5
4FE
100
AcDbEntity
  8
IMPORT_IGES
100
AcDbCircle
 62
7
  6
CONTINUOUS
 10
-13.95805292
 20
-28.015237753
 40
10.0418921558
100
AcDbArc
 50
329.6378524499
 51
28.3143149954
  0
ARC
  5
4FF
100
AcDbEntity
  8
IMPORT_IGES
100
AcDbCircle
 62
7
  6
CONTINUOUS
 10
-13.95805292
 20
-28.015237753
 40
10.0
100
AcDbArc
 50
329.6378524499
 51
28.3143149951
  0
CIRCLE
  5
500
100
AcDbEntity
  8
IMPORT_IGES
100
AcDbCircle
 62
7
  6
CONTINUOUS
 10
-8.3380247555
 20
-28.1156823412
 40
1.8
  0
ARC
  5
501
100
AcDbEntity
  8
IMPORT_IGES
100
AcDbCircle
 62
7
  6
CONTINUOUS
 10
-9.5380247555
 20
25.8843176588
 40
5.0
100
AcDbArc
 50
180.0
 51
269.9999999999
  0
ARC
  5
502
100
AcDbEntity
  8
IMPORT_IGES
100
AcDbCircle
 62
7
  6
CONTINUOUS
 10
-9.8380247555
 20
31.2872223773
 40
2.8557185039
100
AcDbArc
 50
296.7986258242
 51
315.5618275919
  0
ARC
  5
503
100
AcDbEntity
  8
IMPORT_IGES
100
AcDbCircle
 62
7
  6
CONTINUOUS
 10
-16.0380247555
 20
28.8843176588
 40
1.5
100
AcDbArc
 50
0.0
 51
90.0000000003
  0
ARC
  5
504
100
AcDbEntity
  8
IMPORT_IGES
100
AcDbCircle
 62
7
  6
CONTINUOUS
 10
-14.8380247555
 20
33.3843176588
 40
1.0
100
AcDbArc
 50
90.0000000002
 51
179.9999999999
  0
ARC
  5
505
100
AcDbEntity
  8
IMPORT_IGES
100
AcDbCircle
 62
7
  6
CONTINUOUS
 10
-13.2306839033
 20
40.4688493593
 40
3.0
100
AcDbArc
 50
89.9999999999
 51
270.0000000001
  0
ARC
  5
506
100
AcDbEntity
  8
IMPORT_IGES
100
AcDbCircle
 62
7
  6
CONTINUOUS
 10
-13.2306839033
 20
40.4688493593
 40
2.1
100
AcDbArc
 50
90.0000000001
 51
269.9999999999
  0
CIRCLE
  5
507
100
AcDbEntity
  8
IMPORT_IGES
100
AcDbCircle
 62
7
  6
CONTINUOUS
 10
-15.3380247555
 20
47.3843176588
 40
0.9
  0
ARC
  5
508
100
AcDbEntity
  8
IMPORT_IGES
100
AcDbCircle
 62
7
  6
CONTINUOUS
 10
-9.9380247555
 20
54.1843176588
 40
0.5
100
AcDbArc
 50
90.0001222729
 51
180.0000000001
  0
ARC
  5
509
100
AcDbEntity
  8
IMPORT_IGES
100
AcDbCircle
 62
7
  6
CONTINUOUS
 10
-9.9380247555
 20
53.3843176588
 40
0.5
100
AcDbArc
 50
179.9999999999
 51
270.0049478026
  0
ARC
  5
50A
100
AcDbEntity
  8
IMPORT_IGES
100
AcDbCircle
 62
7
  6
CONTINUOUS
 10
-7.1380247555
 20
25.8843176588
 40
5.0
100
AcDbArc
 50
270.0000000001
 51
360.0
  0
ARC
  5
50B
100
AcDbEntity
  8
IMPORT_IGES
100
AcDbCircle
 62
7
  6
CONTINUOUS
 10
-8.3380247555
 20
27.8843176588
 40
4.5
100
AcDbArc
 50
180.0
 51
360.0
  0
CIRCLE
  5
50C
100
AcDbEntity
  8
IMPORT_IGES
100
AcDbCircle
 62
7
  6
CONTINUOUS
 10
-8.3380247555
 20
27.8843176588
 40
1.8
  0
ARC
  5
50D
100
AcDbEntity
  8
IMPORT_IGES
100
AcDbCircle
 62
7
  6
CONTINUOUS
 10
-1.8380247555
 20
33.3843176588
 40
1.0
100
AcDbArc
 50
0.0000000001
 51
89.9999999998
  0
ARC
  5
50E
100
AcDbEntity
  8
IMPORT_IGES
100
AcDbCircle
 62
7
  6
CONTINUOUS
 10
-2.363033638
 20
38.9726153436
 40
0.454554913
100
AcDbArc
 50
78.9219305013
 51
185.6301308801
  0
ARC
  5
50F
100
AcDbEntity
  8
IMPORT_IGES
100
AcDbCircle
 62
7
  6
CONTINUOUS
 10
-2.363033638
 20
38.9726153436
 40
0.454554913
100
AcDbArc
 50
202.8424928892
 51
29.2095003369
  0
ARC
  5
510
100
AcDbEntity
  8
IMPORT_IGES
100
AcDbCircle
 62
7
  6
CONTINUOUS
 10
-7.4250247555
 20
28.4842176588
 40
0.254
100
AcDbArc
 50
0.0000000001
 51
89.9977097502
  0
CIRCLE
  5
511
100
AcDbEntity
  8
IMPORT_IGES
100
AcDbCircle
 62
7
  6
CONTINUOUS
 10
-2.363033638
 20
38.9726153436
 40
0.2263970945
  0
ARC
  5
512
100
AcDbEntity
  8
IMPORT_IGES
100
AcDbCircle
 62
7
  6
CONTINUOUS
 10
-8.1306839033
 20
40.4688493593
 40
3.0
100
AcDbArc
 50
89.9999999999
 51
270.0000000001
  0
ARC
  5
513
100
AcDbEntity
  8
IMPORT_IGES
100
AcDbCircle
 62
7
  6
CONTINUOUS
 10
-8.1306839033
 20
40.4688493593
 40
2.1
100
AcDbArc
 50
90.0000000003
 51
167.6263748836
  0
ARC
  5
514
100
AcDbEntity
  8
IMPORT_IGES
100
AcDbCircle
 62
7
  6
CONTINUOUS
 10
-8.1306839033
 20
40.4688493593
 40
2.1
100
AcDbArc
 50
192.3736251164
 51
269.9999999997
  0
ARC
  5
515
100
AcDbEntity
  8
IMPORT_IGES
100
AcDbCircle
 62
7
  6
CONTINUOUS
 10
-3.2981177906
 20
40.929605242
 40
1.8626598405
100
AcDbArc
 50
92.2276646932
 51
103.7257476562
  0
ARC
  5
516
100
AcDbEntity
  8
IMPORT_IGES
100
AcDbCircle
 62
7
  6
CONTINUOUS
 10
-3.2981177906
 20
40.9296052422
 40
1.7340884118
100
AcDbArc
 50
92.3929243825
 51
104.7668043563
  0
ARC
  5
517
100
AcDbEntity
  8
IMPORT_IGES
100
AcDbCircle
 62
7
  6
CONTINUOUS
 10
-2.766121806
 20
41.2714001382
 40
1.5028097377
100
AcDbArc
 50
59.115000462
 51
86.5531981143
  0
ARC
  5
518
100
AcDbEntity
  8
IMPORT_IGES
100
AcDbCircle
 62
7
  6
CONTINUOUS
 10
-2.766121806
 20
41.2714001382
 40
1.3742383091
100
AcDbArc
 50
58.6839892205
 51
86.2302750201
  0
CIRCLE
  5
519
100
AcDbEntity
  8
IMPORT_IGES
100
AcDbCircle
 62
7
  6
CONTINUOUS
 10
-1.3380247555
 20
47.3843176588
 40
0.9
  0
ARC
  5
51A
100
AcDbEntity
  8
IMPORT_IGES
100
AcDbCircle
 62
7
  6
CONTINUOUS
 10
-3.8529346685
 20
42.1603185897
 40
0.5258978106
100
AcDbArc
 50
108.8219439381
 51
156.0551581439
  0
ARC
  5
51B
100
AcDbEntity
  8
IMPORT_IGES
100
AcDbCircle
 62
7
  6
CONTINUOUS
 10
-6.7380247555
 20
54.1843176588
 40
0.5
100
AcDbArc
 50
0.0
 51
89.9998777272
  0
ARC
  5
51C
100
AcDbEntity
  8
IMPORT_IGES
100
AcDbCircle
 62
7
  6
CONTINUOUS
 10
-6.7380247554
 20
53.3843176588
 40
0.5
100
AcDbArc
 50
269.994364141
 51
359.9999999999
  0
ARC
  5
51D
100
AcDbEntity
  8
IMPORT_IGES
100
AcDbCircle
 62
7
  6
CONTINUOUS
 10
-3.8529346685
 20
42.1603185897
 40
0.397326382
100
AcDbArc
 50
115.2798603719
 51
147.5075237585
  0
ARC
  5
51E
100
AcDbEntity
  8
IMPORT_IGES
100
AcDbCircle
 62
7
  6
CONTINUOUS
 10
-1.8477497533
 20
42.4165594935
 40
0.2061327617
100
AcDbArc
 50
171.9486263968
 51
191.9810646578
  0
ARC
  5
51F
100
AcDbEntity
  8
IMPORT_IGES
100
AcDbCircle
 62
7
  6
CONTINUOUS
 10
-1.8477497532
 20
42.4165594935
 40
0.2061327618
100
AcDbArc
 50
249.0018107927
 51
135.4724862816
  0
CIRCLE
  5
520
100
AcDbEntity
  8
IMPORT_IGES
100
AcDbCircle
 62
7
  6
CONTINUOUS
 10
13.6619810745
 20
-34.2044529816
 40
1.45
  0
CIRCLE
  5
521
100
AcDbEntity
  8
IMPORT_IGES
100
AcDbCircle
 62
7
  6
CONTINUOUS
 10
13.6619810745
 20
-49.6044529816
 40
1.45
  0
ARC
  5
522
100
AcDbEntity
  8
IMPORT_IGES
100
AcDbCircle
 62
7
  6
CONTINUOUS
 10
-0.6380247555
 20
28.8843176588
 40
1.5
100
AcDbArc
 50
89.9999999997
 51
180.0000000001
  0
ELLIPSE
  5
523
100
AcDbEntity
  8
IMPORT_IGES
100
AcDbEllipse
 62
7
  6
CONTINUOUS
 10
-8.3380247555
 20
49.9765871533
 30
0.0
 11
1.0
 21
-0.0
 31
0.0
 40
0.0174550649
 41
-0.0000000373
 42
3.1415926929
  0
ELLIPSE
  5
524
100
AcDbEntity
  8
IMPORT_IGES
100
AcDbEllipse
 62
7
  6
CONTINUOUS
 10
1.8896024907
 20
-6.3083112413
 30
0.0
 11
-4.8489280215
 21
-1.2231102437
 31
0.0
 40
0.9998380068
 41
-0.2470505933
 42
0.2470505933
  0
ELLIPSE
  5
525
100
AcDbEntity
  8
IMPORT_IGES
100
AcDbEllipse
 62
7
  6
CONTINUOUS
 10
-7.8402812825
 20
-19.8785925134
 30
0.0
 11
9.6978560421
 21
2.4462204911
 31
0.0
 40
0.9998380068
 41
-0.2470505937
 42
0.247050593
  0
ELLIPSE
  5
526
100
AcDbEntity
  8
IMPORT_IGES
100
AcDbEllipse
 62
7
  6
CONTINUOUS
 10
-7.8402812826
 20
-34.9887779205
 30
0.0
 11
9.6526088463
 21
-2.6191322212
 31
0.0
 40
0.9998364845
 41
-0.2649183954
 42
0.2649183952
  0
ELLIPSE
  5
527
100
AcDbEntity
  8
IMPORT_IGES
100
AcDbEllipse
 62
7
  6
CONTINUOUS
 10
1.8896024907
 20
-48.0596956455
 30
0.0
 11
-4.826304423
 21
1.3095661112
 31
0.0
 40
0.9998364845
 41
-0.2649183952
 42
0.2649183953
  0
ELLIPSE
  5
528
100
AcDbEntity
  8
IMPORT_IGES
100
AcDbEllipse
 62
7
  6
CONTINUOUS
 10
1.8477103349
 20
-6.3188782625
 30
0.0
 11
-4.8489280215
 21
-1.2231102437
 31
0.0
 40
0.9998380068
 41
-0.0835177745
 42
0.2470505933
  0
ELLIPSE
  5
529
100
AcDbEntity
  8
IMPORT_IGES
100
AcDbEllipse
 62
7
  6
CONTINUOUS
 10
-7.8821734385
 20
-19.8891595346
 30
0.0
 11
9.6978560421
 21
2.4462204911
 31
0.0
 40
0.9998380068
 41
-0.2470505937
 42
0.247050593
  0
ELLIPSE
  5
52A
100
AcDbEntity
  8
IMPORT_IGES
100
AcDbEllipse
 62
7
  6
CONTINUOUS
 10
-7.8821734384
 20
-34.9774109318
 30
0.0
 11
9.6526088463
 21
-2.6191322212
 31
0.0
 40
0.9998364845
 41
-0.2649183954
 42
0.2649183952
  0
ELLIPSE
  5
52B
100
AcDbEntity
  8
IMPORT_IGES
100
AcDbEllipse
 62
7
  6
CONTINUOUS
 10
1.8477103349
 20
-48.0483286568
 30
0.0
 11
-4.826304423
 21
1.3095661112
 31
0.0
 40
0.9998364845
 41
-0.2649183953
 42
0.2649183953
  0
ELLIPSE
  5
52C
100
AcDbEntity
  8
IMPORT_IGES
100
AcDbEllipse
 62
7
  6
CONTINUOUS
 10
-8.5641287212
 20
-6.4002348876
 30
0.0
 11
4.8489280215
 21
1.2231102438
 31
0.0
 40
0.9998380068
 41
2.8945420602
 42
3.3886432469
  0
ELLIPSE
  5
52D
100
AcDbEntity
  8
IMPORT_IGES
100
AcDbEllipse
 62
7
  6
CONTINUOUS
 10
-8.5222365653
 20
-6.3896678664
 30
0.0
 11
-4.8489280215
 21
-1.2231102438
 31
0.0
 40
0.9998380068
 41
-0.0978507174
 42
0.2470505934
  0
ELLIPSE
  5
52E
100
AcDbEntity
  8
IMPORT_IGES
100
AcDbEllipse
 62
7
  6
CONTINUOUS
 10
1.8335570456
 20
-6.3224483367
 30
0.0
 11
3.9982127405
 21
-3.0592337487
 31
0.0
 40
0.9822378792
 41
-2.4797197869
 42
-2.316186968
  0
ELLIPSE
  5
52F
100
AcDbEntity
  8
IMPORT_IGES
100
AcDbEllipse
 62
7
  6
CONTINUOUS
 10
-8.5091991948
 20
-6.3863792753
 30
0.0
 11
3.1426004975
 21
3.9619312421
 31
0.0
 40
0.9820822097
 41
-4.0505161137
 42
-3.9013162377
  0
ELLIPSE
  5
530
100
AcDbEntity
  8
IMPORT_IGES
100
AcDbEllipse
 62
7
  6
CONTINUOUS
 10
-8.5222365653
 20
-48.4961722061
 30
0.0
 11
-4.8263044231
 21
1.3095661107
 31
0.0
 40
0.9998364845
 41
-0.2649183954
 42
0.2181085315
  0
ELLIPSE
  5
531
100
AcDbEntity
  8
IMPORT_IGES
100
AcDbEllipse
 62
7
  6
CONTINUOUS
 10
-8.5641287212
 20
-48.4848052175
 30
0.0
 11
4.8263044231
 21
-1.3095661107
 31
0.0
 40
0.9998364845
 41
2.8766742582
 42
3.4065110488
  0
ELLIPSE
  5
532
100
AcDbEntity
  8
IMPORT_IGES
100
AcDbEllipse
 62
7
  6
CONTINUOUS
 10
-8.5181974472
 20
-48.4972681777
 30
0.0
 11
-3.1071240494
 21
3.9899119019
 31
0.0
 40
0.9823017724
 41
0.8708951917
 42
0.9177050555
  0
ELLIPSE
  5
533
100
AcDbEntity
  8
IMPORT_IGES
100
AcDbEllipse
 62
7
  6
CONTINUOUS
 10
-5.0094769633
 20
-54.4724746448
 30
0.0
 11
0.0
 21
0.5
 31
0.0
 40
0.0174550649
 41
-3.1241393614
 42
-2.2062091534
  0
ELLIPSE
  5
534
100
AcDbEntity
  8
IMPORT_IGES
100
AcDbEllipse
 62
7
  6
CONTINUOUS
 10
-11.6665725476
 20
-54.4724746448
 30
0.0
 11
0.0
 21
0.5
 31
0.0
 40
0.0174550649
 41
-4.0769761538
 42
-3.1590459063
  0
ELLIPSE
  5
535
100
AcDbEntity
  8
IMPORT_IGES
100
AcDbEllipse
 62
7
  6
CONTINUOUS
 10
-8.3380247555
 20
52.7952968276
 30
0.0
 11
1.2
 21
0.0
 31
0.0
 40
0.0174550649
 41
-0.0000339328
 42
0.4115168461
  0
ELLIPSE
  5
536
100
AcDbEntity
  8
IMPORT_IGES
100
AcDbEllipse
 62
7
  6
CONTINUOUS
 10
-20.5017853279
 20
-4.3488469646
 30
0.0
 11
0.5
 21
-0.0
 31
0.0
 40
0.0174550649
 41
-3.109860355
 42
-2.4578104048
  0
ELLIPSE
  5
537
100
AcDbEntity
  8
IMPORT_IGES
100
AcDbEllipse
 62
7
  6
CONTINUOUS
 10
-20.5017853279
 20
2.1174822821
 30
0.0
 11
0.5
 21
0.0
 31
0.0
 40
0.0174550649
 41
2.4578104048
 42
3.1098603526
  0
ELLIPSE
  5
538
100
AcDbEntity
  8
IMPORT_IGES
100
AcDbEllipse
 62
7
  6
CONTINUOUS
 10
1.0667222422
 20
-1.8135560146
 30
0.0
 11
-0.0
 21
2.5
 31
0.0
 40
0.0174550649
 41
-2.5473171497
 42
-1.5708018989
  0
ELLIPSE
  5
539
100
AcDbEntity
  8
IMPORT_IGES
100
AcDbEllipse
 62
7
  6
CONTINUOUS
 10
1.0667222422
 20
-0.4178086678
 30
0.0
 11
-0.0
 21
2.5
 31
0.0
 40
0.0174550649
 41
-1.5707923792
 42
-0.5942755039
  0
ELLIPSE
  5
53A
100
AcDbEntity
  8
IMPORT_IGES
100
AcDbEllipse
 62
7
  6
CONTINUOUS
 10
-0.333262525
 20
-0.4178086678
 30
0.0
 11
2.5440184824
 21
-0.0
 31
0.0
 40
0.9826972631
 41
0.9765208229
 42
1.5533434992
  0
ELLIPSE
  5
53B
100
AcDbEntity
  8
IMPORT_IGES
100
AcDbEllipse
 62
7
  6
CONTINUOUS
 10
-16.3427869859
 20
-1.8135560146
 30
0.0
 11
2.5440184824
 21
-0.0
 31
0.0
 40
0.9826972631
 41
-2.1650718307
 42
-1.5882491544
  0
ELLIPSE
  5
53C
100
AcDbEntity
  8
IMPORT_IGES
100
AcDbEllipse
 62
7
  6
CONTINUOUS
 10
-17.7427717531
 20
-1.8135560146
 30
0.0
 11
0.0
 21
2.5
 31
0.0
 40
0.0174550649
 41
-4.7123889788
 42
-3.7358681575
  0
ELLIPSE
  5
53D
100
AcDbEntity
  8
IMPORT_IGES
100
AcDbEllipse
 62
7
  6
CONTINUOUS
 10
-17.7427717531
 20
-0.4178086678
 30
0.0
 11
-0.0
 21
2.5
 31
0.0
 40
0.0174550649
 41
0.5942755039
 42
1.5707907547
  0
ENDSEC
  0
SECTION
  2
OBJECTS
  0
DICTIONARY
  5
C
100
AcDbDictionary
280
0
281
1
  3
ACAD_GROUP
350
D
  3
ACAD_MLINESTYLE
350
17
  3
ACAD_LAYOUT
350
1A
  3
ACAD_PLOTSETTINGS
350
19
  3
ACAD_PLOTSTYLENAME
350
E
  0
DICTIONARY
  5
D
102
{ACAD_REACTORS
330
C
102
}
100
AcDbDictionary
280
0
281
1
  0
ACDBDICTIONARYWDFLT
  5
E
102
{ACAD_REACTORS
330
C
102
}
100
AcDbDictionary
281
1
  3
Normal
350
F
100
AcDbDictionaryWithDefault
340
F
  0
DICTIONARY
  5
17
102
{ACAD_REACTORS
330
C
102
}
100
AcDbDictionary
280
0
281
1
  3
Standard
350
18
  0
DICTIONARY
  5
19
102
{ACAD_REACTORS
330
C
102
}
100
AcDbDictionary
281
1
  0
DICTIONARY
  5
1A
102
{ACAD_REACTORS
330
C
102
}
100
AcDbDictionary
281
1
  3
Model
350
53E
  3
Layout1
350
53F
  0
ACDBPLACEHOLDER
  5
F
102
{ACAD_REACTORS
330
E
102
}
  0
MLINESTYLE
  5
18
102
{ACAD_REACTORS
330
17
102
}
100
AcDbMlineStyle
  2
STANDARD
 70
0
  3

 62
256
 51
90.0
 52
90.0
 71
2
 49
0.5
 62
256
  6
BYLAYER
 49
-0.5
 62
256
  6
BYLAYER
  0
LAYOUT
  5
53E
102
{ACAD_REACTORS
330
1A
102
}
100
AcDbPlotSettings
  1

  2
none_device
  4
ISO_A4_(297.00_x_210.00_MM)
  6

 40
0.0
 41
0.0
 42
0.0
 43
0.0
 44
297.0
 45
210.0
 46
0.0
 47
0.0
 48
0.0
 49
0.0
140
0.0
141
0.0
142
1.0
143
1.0
 70
1024
 72
1
 73
0
 74
0
  7

 75
0
147
1.0
148
0.0
149
0.0
100
AcDbLayout
  1
Model
 70
0
 71
0
 10
0.0
 20
0.0
 11
297.0
 21
210.0
 12
0.0
 22
0.0
 32
0.0
 14
0.0
 24
0.0
 34
0.0
 15
0.0
 25
0.0
 35
0.0
146
0.0
 13
0.0
 23
0.0
 33
0.0
 16
1.0
 26
0.0
 36
0.0
 17
0.0
 27
1.0
 37
0.0
 76
0
330
263
345
0
346
0
  0
LAYOUT
  5
53F
102
{ACAD_REACTORS
330
1A
102
}
100
AcDbPlotSettings
  1

  2
none_device
  4
ISO_A4_(297.00_x_210.00_MM)
  6

 40
0.0
 41
0.0
 42
0.0
 43
0.0
 44
297.0
 45
210.0
 46
0.0
 47
0.0
 48
0.0
 49
0.0
140
0.0
141
0.0
142
1.0
143
1.0
 70
0
 72
1
 73
0
 74
0
  7

 75
0
147
1.0
148
0.0
149
0.0
100
AcDbLayout
  1
Layout1
 70
0
 71
1
 10
0.0
 20
0.0
 11
297.0
 21
210.0
 12
0.0
 22
0.0
 32
0.0
 14
0.0
 24
0.0
 34
0.0
 15
0.0
 25
0.0
 35
0.0
146
0.0
 13
0.0
 23
0.0
 33
0.0
 16
1.0
 26
0.0
 36
0.0
 17
0.0
 27
1.0
 37
0.0
 76
0
330
264
345
0
346
0
  0
ENDSEC
  0
EOF
