  0
SECTION
  2
HEADER
  9
$ACADVER
  1
AC1021
  9
$DWGCODEPAGE
  3
ANSI_1252
  9
$EXTMAX
 10
297.0
 20
210.0
 30
0.0
  9
$EXTMIN
 10
0.0
 20
0.0
 30
0.0
  9
$LIMMIN
 10
0.0
 20
0.0
  9
$LIMMAX
 10
297.0
 20
210.0
  9
$VIEWCTR
 10
148.5
 20
105.0
  9
$VIEWSIZE
 40
210.0
  9
$CLAYER
  8
0
  9
$LTSCALE
 40
16.335
  9
$CELTYPE
  6
BYLAYER
  9
$DIMSCALE
 40
1.0
  9
$DIMASZ
 40
3.0
  9
$DIMEXO
 40
0.5
  9
$DIMDLI
 40
11.286
  9
$DIMEXE
 40
1.5
  9
$DIMCEN
 40
2.673
  9
$DIMLFAC
 40
1.0
  9
$DIMBLK
  1
_FILLED
  9
$DIMALT
 70
0
  9
$DIMALTF
 40
25.4
  9
$DIMTXT
 40
3.0
  9
$DIMTOL
 70
1
  9
$DIMLIM
 70
0
  9
$DIMTFAC
 40
1.0
  9
$DIMTP
 40
0.01
  9
$DIMTM
 40
0.01
  9
$DIMGAP
 40
0.625
  9
$DIMDSEP
 70
44
  9
$AUNITS
 70
0
  9
$PDMODE
 70
3
  9
$PDSIZE
 40
3.0
  9
$HANDSEED
  5
624
  9
$TILEMODE
 70
1
  9
$MEASUREMENT
 70
1
  9
$INSUNITS
 70
4
  0
ENDSEC
  0
SECTION
  2
CLASSES
  0
CLASS
  1
ACDBDICTIONARYWDFLT
  2
AcDbDictionaryWithDefault
  3
AutoCAD 2000
 90
0
 91
1
280
0
281
0
  0
CLASS
  1
ACDBPLACEHOLDER
  2
AcDbPlaceHolder
  3
AutoCAD 2000
 90
0
 91
1
280
0
281
0
  0
CLASS
  1
LAYOUT
  2
AcDbLayout
  3
AutoCAD 2000
 90
0
 91
0
280
0
281
0
  0
ENDSEC
  0
SECTION
  2
TABLES
  0
TABLE
  2
VPORT
  5
8
100
AcDbSymbolTable
 70
2
  0
VPORT
  5
1F4
100
AcDbSymbolTableRecord
100
AcDbViewportTableRecord
  2
*ACTIVE
 70
0
 10
0.0
 20
0.0
 11
1.0
 21
1.0
 12
148.5
 22
105.0
 13
0.0
 23
0.0
 14
1.0
 24
1.0
 15
0.0
 25
0.0
 16
0.0
 26
0.0
 36
1.0
 17
0.0
 27
0.0
 37
0.0
 40
210.0
 41
1.4142857143
 42
50.0
 43
0.0
 44
0.0
 50
0.0
 51
0.0
 71
0
 72
100
 73
1
 74
1
 75
0
 76
0
 77
0
 78
0
  0
ENDTAB
  0
TABLE
  2
LTYPE
  5
5
100
AcDbSymbolTable
 70
6
  0
LTYPE
  5
14
100
AcDbSymbolTableRecord
100
AcDbLinetypeTableRecord
  2
BYBLOCK
 70
0
  3

 72
65
 73
0
 40
0.0
  0
LTYPE
  5
15
100
AcDbSymbolTableRecord
100
AcDbLinetypeTableRecord
  2
BYLAYER
 70
0
  3

 72
65
 73
0
 40
0.0
  0
LTYPE
  5
16
100
AcDbSymbolTableRecord
100
AcDbLinetypeTableRecord
  2
CONTINUOUS
 70
64
  3
Solid line
 72
65
 73
0
 40
0.0
  0
LTYPE
  5
1F5
100
AcDbSymbolTableRecord
100
AcDbLinetypeTableRecord
  2
CENTER
 70
64
  3
____ _ ____ _ ____ _ ____ _ ____ _ ____ _ ____
 72
65
 73
4
 40
0.6
 49
0.375
 74
0
 49
-0.075
 74
0
 49
0.075
 74
0
 49
-0.075
 74
0
  0
LTYPE
  5
1F6
100
AcDbSymbolTableRecord
100
AcDbLinetypeTableRecord
  2
HIDDEN
 70
64
  3
- - - - - - - - - - - - - - - - - - - -
 72
65
 73
2
 40
0.2
 49
0.1
 74
0
 49
-0.1
 74
0
  0
LTYPE
  5
1F7
100
AcDbSymbolTableRecord
100
AcDbLinetypeTableRecord
  2
PHANTOM
 70
64
  3
_____ _ _ _____ _ _ _____ _ _ _____
 72
65
 73
6
 40
0.8
 49
0.45
 74
0
 49
-0.05
 74
0
 49
0.1
 74
0
 49
-0.05
 74
0
 49
0.1
 74
0
 49
-0.05
 74
0
  0
LTYPE
  5
1F8
100
AcDbSymbolTableRecord
100
AcDbLinetypeTableRecord
  2
DOT
 70
64
  3
. . . . . . . . . . . . . . . . . . . .
 72
65
 73
2
 40
0.2
 49
0.1
 74
0
 49
-0.1
 74
0
  0
LTYPE
  5
1F9
100
AcDbSymbolTableRecord
100
AcDbLinetypeTableRecord
  2
DASHED
 70
64
  3
- - - - - - - - - - - - - - - - - - - -
 72
65
 73
2
 40
0.2
 49
0.1
 74
0
 49
-0.1
 74
0
  0
ENDTAB
  0
TABLE
  2
LAYER
  5
2
100
AcDbSymbolTable
 70
36
  0
LAYER
  5
10
100
AcDbSymbolTableRecord
100
AcDbLayerTableRecord
  2
0
 70
0
 62
7
  6
CONTINUOUS
370
-3
390
F
  0
LAYER
  5
1FA
100
AcDbSymbolTableRecord
100
AcDbLayerTableRecord
  2
DEFAULT_1
 70
0
 62
7
  6
CENTER
370
-3
390
F
  0
LAYER
  5
1FB
100
AcDbSymbolTableRecord
100
AcDbLayerTableRecord
  2
DEFAULT_2
 70
0
 62
7
  6
HIDDEN
370
-3
390
F
  0
LAYER
  5
1FC
100
AcDbSymbolTableRecord
100
AcDbLayerTableRecord
  2
DEFAULT_3
 70
0
 62
7
  6
PHANTOM
370
-3
390
F
  0
LAYER
  5
1FD
100
AcDbSymbolTableRecord
100
AcDbLayerTableRecord
  2
ASSI
 70
0
 62
7
  6
CONTINUOUS
370
-3
390
F
  0
LAYER
  5
1FE
100
AcDbSymbolTableRecord
100
AcDbLayerTableRecord
  2
COORDINATE
 70
0
 62
7
  6
CONTINUOUS
370
-3
390
F
  0
LAYER
  5
1FF
100
AcDbSymbolTableRecord
100
AcDbLayerTableRecord
  2
COPY_PUBLISH
 70
0
 62
7
  6
CONTINUOUS
370
-3
390
F
  0
LAYER
  5
200
100
AcDbSymbolTableRecord
100
AcDbLayerTableRecord
  2
COSMETIC
 70
0
 62
7
  6
CONTINUOUS
370
-3
390
F
  0
LAYER
  5
201
100
AcDbSymbolTableRecord
100
AcDbLayerTableRecord
  2
COSMETICI
 70
0
 62
7
  6
CONTINUOUS
370
-3
390
F
  0
LAYER
  5
202
100
AcDbSymbolTableRecord
100
AcDbLayerTableRecord
  2
CURVE
 70
0
 62
7
  6
CONTINUOUS
370
-3
390
F
  0
LAYER
  5
203
100
AcDbSymbolTableRecord
100
AcDbLayerTableRecord
  2
DRAFT
 70
0
 62
7
  6
CONTINUOUS
370
-3
390
F
  0
LAYER
  5
204
100
AcDbSymbolTableRecord
100
AcDbLayerTableRecord
  2
GOLDORANGE
 70
0
 62
7
  6
CONTINUOUS
370
-3
390
F
  0
LAYER
  5
205
100
AcDbSymbolTableRecord
100
AcDbLayerTableRecord
  2
GRAUBLAU
 70
0
 62
7
  6
CONTINUOUS
370
-3
390
F
  0
LAYER
  5
206
100
AcDbSymbolTableRecord
100
AcDbLayerTableRecord
  2
HELLBLAU
 70
0
 62
7
  6
CONTINUOUS
370
-3
390
F
  0
LAYER
  5
207
100
AcDbSymbolTableRecord
100
AcDbLayerTableRecord
  2
HELLMAGENTA
 70
0
 62
7
  6
CONTINUOUS
370
-3
390
F
  0
LAYER
  5
208
100
AcDbSymbolTableRecord
100
AcDbLayerTableRecord
  2
IMPORT_IGES
 70
0
 62
7
  6
CONTINUOUS
370
-3
390
F
  0
LAYER
  5
209
100
AcDbSymbolTableRecord
100
AcDbLayerTableRecord
  2
INTF_BLANK
 70
0
 62
7
  6
CONTINUOUS
370
-3
390
F
  0
LAYER
  5
20A
100
AcDbSymbolTableRecord
100
AcDbLayerTableRecord
  2
INTF_GREEN
 70
0
 62
7
  6
CONTINUOUS
370
-3
390
F
  0
LAYER
  5
20B
100
AcDbSymbolTableRecord
100
AcDbLayerTableRecord
  2
INTF_MAGENTA
 70
0
 62
7
  6
CONTINUOUS
370
-3
390
F
  0
LAYER
  5
20C
100
AcDbSymbolTableRecord
100
AcDbLayerTableRecord
  2
INTF_RED
 70
0
 62
7
  6
CONTINUOUS
370
-3
390
F
  0
LAYER
  5
20D
100
AcDbSymbolTableRecord
100
AcDbLayerTableRecord
  2
NOTE
 70
0
 62
7
  6
CONTINUOUS
370
-3
390
F
  0
LAYER
  5
20E
100
AcDbSymbolTableRecord
100
AcDbLayerTableRecord
  2
ORANGE
 70
0
 62
7
  6
CONTINUOUS
370
-3
390
F
  0
LAYER
  5
20F
100
AcDbSymbolTableRecord
100
AcDbLayerTableRecord
  2
PIANI
 70
0
 62
7
  6
CONTINUOUS
370
-3
390
F
  0
LAYER
  5
210
100
AcDbSymbolTableRecord
100
AcDbLayerTableRecord
  2
PIANI_RIFERIMENTO
 70
0
 62
7
  6
CONTINUOUS
370
-3
390
F
  0
LAYER
  5
211
100
AcDbSymbolTableRecord
100
AcDbLayerTableRecord
  2
PUNTI
 70
0
 62
7
  6
CONTINUOUS
370
-3
390
F
  0
LAYER
  5
212
100
AcDbSymbolTableRecord
100
AcDbLayerTableRecord
  2
RACCORDO
 70
0
 62
7
  6
CONTINUOUS
370
-3
390
F
  0
LAYER
  5
213
100
AcDbSymbolTableRecord
100
AcDbLayerTableRecord
  2
SIMBOLI
 70
0
 62
7
  6
CONTINUOUS
370
-3
390
F
  0
LAYER
  5
214
100
AcDbSymbolTableRecord
100
AcDbLayerTableRecord
  2
SMUSSO
 70
0
 62
7
  6
CONTINUOUS
370
-3
390
F
  0
LAYER
  5
215
100
AcDbSymbolTableRecord
100
AcDbLayerTableRecord
  2
SUPERFICI
 70
0
 62
7
  6
CONTINUOUS
370
-3
390
F
  0
LAYER
  5
216
100
AcDbSymbolTableRecord
100
AcDbLayerTableRecord
  2
TRASH
 70
0
 62
7
  6
CONTINUOUS
370
-3
390
F
  0
ENDTAB
  0
TABLE
  2
STYLE
  5
3
100
AcDbSymbolTable
 70
1
  0
STYLE
  5
11
100
AcDbSymbolTableRecord
100
AcDbTextStyleTableRecord
  2
STANDARD
 70
0
 40
0.0
 41
0.8
 50
0.0
 71
0
 42
0.2
  3
txt
  4

  0
STYLE
  5
217
100
AcDbSymbolTableRecord
100
AcDbTextStyleTableRecord
  2
TEXTSTYLE_1
 70
0
 40
0.0
 41
0.8
 50
0.0
 71
0
 42
0.2
  3
gdt
  4

  0
ENDTAB
  0
TABLE
  2
VIEW
  5
6
100
AcDbSymbolTable
 70
0
  0
ENDTAB
  0
TABLE
  2
UCS
  5
7
100
AcDbSymbolTable
 70
0
  0
ENDTAB
  0
TABLE
  2
APPID
  5
9
100
AcDbSymbolTable
 70
1
  0
APPID
  5
218
100
AcDbSymbolTableRecord
100
AcDbRegAppTableRecord
  2
ACAD
 70
0
  0
ENDTAB
  0
TABLE
  2
BLOCK_RECORD
  5
1
100
AcDbSymbolTable
 70
0
  0
BLOCK_RECORD
  5
219
100
AcDbSymbolTableRecord
100
AcDbBlockTableRecord
  2
*Model_Space
  0
BLOCK_RECORD
  5
21A
100
AcDbSymbolTableRecord
100
AcDbBlockTableRecord
  2
*Paper_Space
  0
BLOCK_RECORD
  5
21B
100
AcDbSymbolTableRecord
100
AcDbBlockTableRecord
  2
_FILLED
  0
ENDTAB
  0
TABLE
  2
DIMSTYLE
  5
A
100
AcDbSymbolTable
 70
1
100
AcDbDimStyleTable
 71
0
  0
DIMSTYLE
105
21C
100
AcDbSymbolTableRecord
100
AcDbDimStyleTableRecord
  2
STANDARD
 70
0
  3

  4

 40
1.0
 41
3.0
 42
0.5
 43
0.38
 44
1.5
 45
0.0
 46
0.0
 47
0.01
 48
0.01
140
3.0
141
0.09
142
0.0
143
25.4
144
1.0
145
0.0
146
1.0
147
0.625
 71
1.0
 72
0.0
 73
0
 74
0
 75
0
 76
0
 77
1
 78
8
 79
2
170
0
171
1
172
0
173
0
174
0
175
0
176
0
177
0
178
0
270
2
179
2
271
2
272
2
273
2
274
2
275
0
280
0
281
0
282
0
283
1
284
8
285
0
286
0
287
3
288
0
340
11
278
44
341
21B
342
21B
343
21B
344
21B
  0
ENDTAB
  0
ENDSEC
  0
SECTION
  2
BLOCKS
  0
BLOCK
  5
20
100
AcDbEntity
  8
0
100
AcDbBlockBegin
  2
*Model_Space
 70
0
 10
0.0
 20
0.0
 30
0.0
  3
*Model_Space
  1

  0
ENDBLK
  5
21
100
AcDbEntity
  8
0
100
AcDbBlockEnd
  0
BLOCK
  5
1C
100
AcDbEntity
  8
0
100
AcDbBlockBegin
  2
*Paper_Space
 70
0
 10
0.0
 20
0.0
 30
0.0
  3
*Paper_Space
  1

  0
ENDBLK
  5
1D
100
AcDbEntity
  8
0
100
AcDbBlockEnd
  0
BLOCK
  5
21D
100
AcDbEntity
  8
0
100
AcDbBlockBegin
  2
_FILLED
 70
64
 10
0.0
 20
0.0
  3
_FILLED
  1

  0
SOLID
  5
21E
100
AcDbEntity
  8
0
  6
BYBLOCK
 62
0
100
AcDbTrace
 10
0.0
 20
0.0
 11
-1.0
 21
0.1333333333
 12
-1.0
 22
-0.1333333333
 13
-1.0
 23
-0.1333333333
  0
ENDBLK
  5
21F
100
AcDbEntity
  8
0
  6
BYBLOCK
 62
0
100
AcDbBlockEnd
  0
ENDSEC
  0
SECTION
  2
ENTITIES
  0
LINE
  5
220
100
AcDbEntity
  8
RACCORDO
100
AcDbLine
 62
7
  6
CONTINUOUS
 10
-18.7723808867
 20
22.0983910659
 11
-22.0988274093
 21
18.7719445433
  0
LINE
  5
221
100
AcDbEntity
  8
RACCORDO
100
AcDbLine
 62
250
  6
CONTINUOUS
 10
-22.0734737995
 20
18.7614427343
 11
-18.7618790777
 21
22.0730374561
  0
LINE
  5
222
100
AcDbEntity
  8
RACCORDO
100
AcDbLine
 62
250
  6
CONTINUOUS
 10
-21.6492258854
 20
18.3371948203
 11
-18.3376311636
 21
21.648789542
  0
LINE
  5
223
100
AcDbEntity
  8
RACCORDO
100
AcDbLine
 62
7
  6
CONTINUOUS
 10
-22.0988274093
 20
-18.7719445433
 11
-18.7723808867
 21
-22.0983910659
  0
LINE
  5
224
100
AcDbEntity
  8
RACCORDO
100
AcDbLine
 62
250
  6
CONTINUOUS
 10
-18.7618790777
 20
-22.0730374561
 11
-22.0734737995
 21
-18.7614427343
  0
LINE
  5
225
100
AcDbEntity
  8
RACCORDO
100
AcDbLine
 62
250
  6
CONTINUOUS
 10
-18.3376311636
 20
-21.648789542
 11
-21.6492258854
 21
-18.3371948203
  0
LINE
  5
226
100
AcDbEntity
  8
SMUSSO
100
AcDbLine
 62
7
  6
CONTINUOUS
 10
-14.4425026995
 20
23.4924912769
 11
-14.1443358035
 21
23.7943472261
  0
LINE
  5
227
100
AcDbEntity
  8
SMUSSO
100
AcDbLine
 62
7
  6
CONTINUOUS
 10
-14.1499885774
 20
23.8
 11
-14.45
 21
23.4999885774
  0
LINE
  5
228
100
AcDbEntity
  8
DRAFT
100
AcDbLine
 62
7
  6
CONTINUOUS
 10
-20.0738174026
 20
16.800128791
 11
-18.400128791
 21
18.4738174026
  0
LINE
  5
229
100
AcDbEntity
  8
SMUSSO
100
AcDbLine
 62
7
  6
CONTINUOUS
 10
-14.1499885774
 20
-23.8
 11
-14.45
 21
-23.4999885774
  0
LINE
  5
22A
100
AcDbEntity
  8
DRAFT
100
AcDbLine
 62
7
  6
CONTINUOUS
 10
-18.400128791
 20
-18.4738174026
 11
-20.0738174026
 21
-16.800128791
  0
LINE
  5
22B
100
AcDbEntity
  8
0
100
AcDbLine
 62
7
  6
CONTINUOUS
 10
-19.8535533906
 20
-16.6964466094
 11
-18.0761825974
 21
-18.4738174026
  0
LINE
  5
22C
100
AcDbEntity
  8
SMUSSO
100
AcDbLine
 62
7
  6
CONTINUOUS
 10
-14.1443358035
 20
-23.7943472261
 11
-14.4425026995
 21
-23.4924912769
  0
LINE
  5
22D
100
AcDbEntity
  8
SMUSSO
100
AcDbLine
 62
7
  6
CONTINUOUS
 10
-11.9556527739
 20
23.7943472261
 11
-11.95
 21
23.8
  0
LINE
  5
22E
100
AcDbEntity
  8
DRAFT
100
AcDbLine
 62
7
  6
CONTINUOUS
 10
-11.9587268678
 20
22.3912731322
 11
-11.95
 21
22.4
  0
LINE
  5
22F
100
AcDbEntity
  8
RACCORDO
100
AcDbLine
 62
7
  6
CONTINUOUS
 10
21.1500095192
 20
-24.5
 11
19.6499904808
 21
-24.5
  0
LINE
  5
230
100
AcDbEntity
  8
RACCORDO
100
AcDbLine
 62
7
  6
CONTINUOUS
 10
2.8500095192
 20
-24.5
 11
1.3499904808
 21
-24.5
  0
LINE
  5
231
100
AcDbEntity
  8
RACCORDO
100
AcDbLine
 62
7
  6
CONTINUOUS
 10
-1.3499904808
 20
-24.5
 11
-2.8500095192
 21
-24.5
  0
LINE
  5
232
100
AcDbEntity
  8
RACCORDO
100
AcDbLine
 62
7
  6
CONTINUOUS
 10
-19.6499904808
 20
-24.5
 11
-21.1500095192
 21
-24.5
  0
LINE
  5
233
100
AcDbEntity
  8
RACCORDO
100
AcDbLine
 62
7
  6
CONTINUOUS
 10
-21.1434453296
 20
-24.4934358103
 11
-19.6565546704
 21
-24.4934358103
  0
LINE
  5
234
100
AcDbEntity
  8
RACCORDO
100
AcDbLine
 62
7
  6
CONTINUOUS
 10
-2.8434453296
 20
-24.4934358103
 11
-1.3565546704
 21
-24.4934358103
  0
LINE
  5
235
100
AcDbEntity
  8
RACCORDO
100
AcDbLine
 62
7
  6
CONTINUOUS
 10
1.3565546704
 20
-24.4934358103
 11
2.8434453296
 21
-24.4934358103
  0
LINE
  5
236
100
AcDbEntity
  8
RACCORDO
100
AcDbLine
 62
7
  6
CONTINUOUS
 10
19.6565546704
 20
-24.4934358103
 11
21.1434453296
 21
-24.4934358103
  0
LINE
  5
237
100
AcDbEntity
  8
RACCORDO
100
AcDbLine
 62
250
  6
CONTINUOUS
 10
1.1065641897
 20
-24.2434453296
 11
3.0934358103
 21
-24.2434453296
  0
LINE
  5
238
100
AcDbEntity
  8
RACCORDO
100
AcDbLine
 62
250
  6
CONTINUOUS
 10
-1.1065641897
 20
-24.2434453296
 11
-3.0934358103
 21
-24.2434453296
  0
LINE
  5
239
100
AcDbEntity
  8
RACCORDO
100
AcDbLine
 62
250
  6
CONTINUOUS
 10
19.4065641897
 20
-24.2434453296
 11
21.3934358103
 21
-24.2434453296
  0
LINE
  5
23A
100
AcDbEntity
  8
RACCORDO
100
AcDbLine
 62
250
  6
CONTINUOUS
 10
-19.4065641897
 20
-24.2434453296
 11
-21.3934358103
 21
-24.2434453296
  0
LINE
  5
23B
100
AcDbEntity
  8
RACCORDO
100
AcDbLine
 62
250
  6
CONTINUOUS
 10
1.1065641897
 20
-23.9443375673
 11
3.0934358103
 21
-23.9443375673
  0
LINE
  5
23C
100
AcDbEntity
  8
RACCORDO
100
AcDbLine
 62
250
  6
CONTINUOUS
 10
-1.1065641897
 20
-23.9443375673
 11
-3.0934358103
 21
-23.9443375673
  0
LINE
  5
23D
100
AcDbEntity
  8
RACCORDO
100
AcDbLine
 62
250
  6
CONTINUOUS
 10
19.4065641897
 20
-23.9443375673
 11
21.3934358103
 21
-23.9443375673
  0
LINE
  5
23E
100
AcDbEntity
  8
RACCORDO
100
AcDbLine
 62
250
  6
CONTINUOUS
 10
-19.4065641897
 20
-23.9443375673
 11
-21.3934358103
 21
-23.9443375673
  0
LINE
  5
23F
100
AcDbEntity
  8
SMUSSO
100
AcDbLine
 62
7
  6
CONTINUOUS
 10
14.1499885774
 20
-23.8
 11
11.95
 21
-23.8
  0
LINE
  5
240
100
AcDbEntity
  8
SMUSSO
100
AcDbLine
 62
7
  6
CONTINUOUS
 10
10.55
 20
-23.8
 11
8.3500114226
 21
-23.8
  0
LINE
  5
241
100
AcDbEntity
  8
SMUSSO
100
AcDbLine
 62
7
  6
CONTINUOUS
 10
-8.3500114226
 20
-23.8
 11
-10.55
 21
-23.8
  0
LINE
  5
242
100
AcDbEntity
  8
SMUSSO
100
AcDbLine
 62
7
  6
CONTINUOUS
 10
-11.95
 20
-23.8
 11
-14.1499885774
 21
-23.8
  0
LINE
  5
243
100
AcDbEntity
  8
SMUSSO
100
AcDbLine
 62
7
  6
CONTINUOUS
 10
-14.1443358035
 20
-23.7943472261
 11
-11.9556527739
 21
-23.7943472261
  0
LINE
  5
244
100
AcDbEntity
  8
SMUSSO
100
AcDbLine
 62
7
  6
CONTINUOUS
 10
-10.5443472261
 20
-23.7943472261
 11
-8.3556641965
 21
-23.7943472261
  0
LINE
  5
245
100
AcDbEntity
  8
SMUSSO
100
AcDbLine
 62
7
  6
CONTINUOUS
 10
8.3556641965
 20
-23.7943472261
 11
10.5443472261
 21
-23.7943472261
  0
LINE
  5
246
100
AcDbEntity
  8
SMUSSO
100
AcDbLine
 62
7
  6
CONTINUOUS
 10
11.9556527739
 20
-23.7943472261
 11
14.1443358035
 21
-23.7943472261
  0
LINE
  5
247
100
AcDbEntity
  8
RACCORDO
100
AcDbLine
 62
250
  6
CONTINUOUS
 10
21.1434453296
 20
-23.7278312164
 11
19.6565546704
 21
-23.7278312164
  0
LINE
  5
248
100
AcDbEntity
  8
RACCORDO
100
AcDbLine
 62
250
  6
CONTINUOUS
 10
2.8434453296
 20
-23.7278312164
 11
1.3565546704
 21
-23.7278312164
  0
LINE
  5
249
100
AcDbEntity
  8
RACCORDO
100
AcDbLine
 62
250
  6
CONTINUOUS
 10
-1.3565546704
 20
-23.7278312164
 11
-2.8434453296
 21
-23.7278312164
  0
LINE
  5
24A
100
AcDbEntity
  8
RACCORDO
100
AcDbLine
 62
250
  6
CONTINUOUS
 10
-19.6565546704
 20
-23.7278312164
 11
-21.1434453296
 21
-23.7278312164
  0
LINE
  5
24B
100
AcDbEntity
  8
SMUSSO
100
AcDbLine
 62
7
  6
CONTINUOUS
 10
-11.9556527739
 20
-23.7943472261
 11
-11.95
 21
-23.8
  0
LINE
  5
24C
100
AcDbEntity
  8
DRAFT
100
AcDbLine
 62
7
  6
CONTINUOUS
 10
-11.95
 20
-22.4
 11
-11.9587268678
 21
-22.3912731322
  0
LINE
  5
24D
100
AcDbEntity
  8
RACCORDO
100
AcDbLine
 62
250
  6
CONTINUOUS
 10
-21.3934358103
 20
-23.9443375673
 11
-21.4
 21
-23.5100652985
  0
LINE
  5
24E
100
AcDbEntity
  8
RACCORDO
100
AcDbLine
 62
250
  6
CONTINUOUS
 10
-21.1434453296
 20
-23.7278312164
 11
-21.1510813389
 21
-23.2226497308
  0
LINE
  5
24F
100
AcDbEntity
  8
RACCORDO
100
AcDbLine
 62
250
  6
CONTINUOUS
 10
-21.3934358103
 20
-24.2434453296
 11
-21.3934261246
 21
-24.2456269649
  0
LINE
  5
250
100
AcDbEntity
  8
DRAFT
100
AcDbLine
 62
7
  6
CONTINUOUS
 10
-22.5
 20
-0.3985075585
 11
-22.5
 21
0.3985075585
  0
LINE
  5
251
100
AcDbEntity
  8
DRAFT
100
AcDbLine
 62
7
  6
CONTINUOUS
 10
-22.47425574
 20
0.45
 11
-22.47425574
 21
-0.45
  0
LINE
  5
252
100
AcDbEntity
  8
RACCORDO
100
AcDbLine
 62
7
  6
CONTINUOUS
 10
-22.4000125295
 20
21.8995952303
 11
-22.400432253
 21
5.1571987739
  0
LINE
  5
253
100
AcDbEntity
  8
RACCORDO
100
AcDbLine
 62
7
  6
CONTINUOUS
 10
-22.400432253
 20
-5.1571987739
 11
-22.4000125295
 21
-21.8995952303
  0
LINE
  5
254
100
AcDbEntity
  8
RACCORDO
100
AcDbLine
 62
7
  6
CONTINUOUS
 10
-22.3917094756
 20
-21.8912921707
 11
-22.3917094756
 21
-18.0648646866
  0
LINE
  5
255
100
AcDbEntity
  8
RACCORDO
100
AcDbLine
 62
7
  6
CONTINUOUS
 10
-22.3917094756
 20
18.0648646866
 11
-22.3917094756
 21
21.8912921707
  0
LINE
  5
256
100
AcDbEntity
  8
DRAFT
100
AcDbLine
 62
7
  6
CONTINUOUS
 10
-22.37425574
 20
5.0
 11
-22.37425574
 21
-5.0
  0
LINE
  5
257
100
AcDbEntity
  8
RACCORDO
100
AcDbLine
 62
250
  6
CONTINUOUS
 10
-22.3663558658
 20
-18.0543628776
 11
-22.3663558658
 21
18.0543628776
  0
LINE
  5
258
100
AcDbEntity
  8
RACCORDO
100
AcDbLine
 62
250
  6
CONTINUOUS
 10
-21.766378712
 20
-18.0543628776
 11
-21.766378712
 21
18.0543628776
  0
LINE
  5
259
100
AcDbEntity
  8
RACCORDO
100
AcDbLine
 62
7
  6
CONTINUOUS
 10
-21.4
 20
-24.2500095192
 11
-21.4
 21
-22.4
  0
LINE
  5
25A
100
AcDbEntity
  8
RACCORDO
100
AcDbLine
 62
7
  6
CONTINUOUS
 10
-21.4
 20
22.4
 11
-21.4
 21
24.2500095192
  0
LINE
  5
25B
100
AcDbEntity
  8
RACCORDO
100
AcDbLine
 62
7
  6
CONTINUOUS
 10
-21.3934358103
 20
24.2434453296
 11
-21.3934358103
 21
23.9443375673
  0
LINE
  5
25C
100
AcDbEntity
  8
RACCORDO
100
AcDbLine
 62
7
  6
CONTINUOUS
 10
-21.3934358103
 20
-24.2434453296
 11
-21.3934358103
 21
-23.9443375673
  0
LINE
  5
25D
100
AcDbEntity
  8
RACCORDO
100
AcDbLine
 62
250
  6
CONTINUOUS
 10
-21.1434453296
 20
-24.4934358103
 11
-21.1434453296
 21
-23.7278312164
  0
LINE
  5
25E
100
AcDbEntity
  8
RACCORDO
100
AcDbLine
 62
250
  6
CONTINUOUS
 10
-21.1434453296
 20
24.4934358103
 11
-21.1434453296
 21
23.7278312164
  0
LINE
  5
25F
100
AcDbEntity
  8
RACCORDO
100
AcDbLine
 62
250
  6
CONTINUOUS
 10
-21.3934261246
 20
24.2456269649
 11
-21.3934358103
 21
24.2434453296
  0
LINE
  5
260
100
AcDbEntity
  8
RACCORDO
100
AcDbLine
 62
250
  6
CONTINUOUS
 10
-21.3934358103
 20
23.9443375673
 11
-21.4
 21
23.5100652985
  0
LINE
  5
261
100
AcDbEntity
  8
RACCORDO
100
AcDbLine
 62
250
  6
CONTINUOUS
 10
-21.1434453296
 20
23.7278312164
 11
-21.1510813389
 21
23.2226497308
  0
LINE
  5
262
100
AcDbEntity
  8
DRAFT
100
AcDbLine
 62
7
  6
CONTINUOUS
 10
-22.400432253
 20
-5.1571987739
 11
-22.37425574
 21
-5.0
  0
LINE
  5
263
100
AcDbEntity
  8
SMUSSO
100
AcDbLine
 62
7
  6
CONTINUOUS
 10
-8.3556641965
 20
23.7943472261
 11
-8.3500114226
 21
23.8
  0
LINE
  5
264
100
AcDbEntity
  8
SMUSSO
100
AcDbLine
 62
7
  6
CONTINUOUS
 10
-8.0574973005
 20
23.4924912769
 11
-8.05
 21
23.4999885774
  0
LINE
  5
265
100
AcDbEntity
  8
DRAFT
100
AcDbLine
 62
7
  6
CONTINUOUS
 10
-8.0587268678
 20
22.3912731322
 11
-8.05
 21
22.4
  0
LINE
  5
266
100
AcDbEntity
  8
SMUSSO
100
AcDbLine
 62
7
  6
CONTINUOUS
 10
-14.4412731322
 20
-23.2912731322
 11
-11.9587268678
 21
-23.2912731322
  0
LINE
  5
267
100
AcDbEntity
  8
SMUSSO
100
AcDbLine
 62
7
  6
CONTINUOUS
 10
-10.5412731322
 20
-23.2912731322
 11
-8.0587268678
 21
-23.2912731322
  0
LINE
  5
268
100
AcDbEntity
  8
SMUSSO
100
AcDbLine
 62
7
  6
CONTINUOUS
 10
8.0587268678
 20
-23.2912731322
 11
10.5412731322
 21
-23.2912731322
  0
LINE
  5
269
100
AcDbEntity
  8
SMUSSO
100
AcDbLine
 62
7
  6
CONTINUOUS
 10
11.9587268678
 20
-23.2912731322
 11
14.4412731322
 21
-23.2912731322
  0
LINE
  5
26A
100
AcDbEntity
  8
RACCORDO
100
AcDbLine
 62
7
  6
CONTINUOUS
 10
-21.1510813389
 20
-23.2226497308
 11
-19.6489186611
 21
-23.2226497308
  0
LINE
  5
26B
100
AcDbEntity
  8
RACCORDO
100
AcDbLine
 62
7
  6
CONTINUOUS
 10
21.1510813389
 20
-23.2226497308
 11
19.6489186611
 21
-23.2226497308
  0
LINE
  5
26C
100
AcDbEntity
  8
RACCORDO
100
AcDbLine
 62
7
  6
CONTINUOUS
 10
1.3489186611
 20
-23.2226497308
 11
2.8510813389
 21
-23.2226497308
  0
LINE
  5
26D
100
AcDbEntity
  8
RACCORDO
100
AcDbLine
 62
7
  6
CONTINUOUS
 10
-1.3489186611
 20
-23.2226497308
 11
-2.8510813389
 21
-23.2226497308
  0
LINE
  5
26E
100
AcDbEntity
  8
RACCORDO
100
AcDbLine
 62
7
  6
CONTINUOUS
 10
-21.8995078465
 20
-22.4
 11
-21.4
 21
-22.4
  0
LINE
  5
26F
100
AcDbEntity
  8
DRAFT
100
AcDbLine
 62
7
  6
CONTINUOUS
 10
-11.95
 20
-22.4
 11
-10.55
 21
-22.4
  0
LINE
  5
270
100
AcDbEntity
  8
DRAFT
100
AcDbLine
 62
7
  6
CONTINUOUS
 10
8.05
 20
-22.4
 11
-8.05
 21
-22.4
  0
LINE
  5
271
100
AcDbEntity
  8
DRAFT
100
AcDbLine
 62
7
  6
CONTINUOUS
 10
10.55
 20
-22.4
 11
11.95
 21
-22.4
  0
LINE
  5
272
100
AcDbEntity
  8
DRAFT
100
AcDbLine
 62
7
  6
CONTINUOUS
 10
14.45
 20
-22.4
 11
21.4
 21
-22.4
  0
LINE
  5
273
100
AcDbEntity
  8
RACCORDO
100
AcDbLine
 62
7
  6
CONTINUOUS
 10
21.4
 20
-22.4
 11
21.8995078465
 21
-22.4
  0
LINE
  5
274
100
AcDbEntity
  8
DRAFT
100
AcDbLine
 62
7
  6
CONTINUOUS
 10
-14.45
 20
-22.4
 11
-21.4
 21
-22.4
  0
LINE
  5
275
100
AcDbEntity
  8
RACCORDO
100
AcDbLine
 62
7
  6
CONTINUOUS
 10
21.8917285141
 20
-22.3912731322
 11
18.06530103
 21
-22.3912731322
  0
LINE
  5
276
100
AcDbEntity
  8
DRAFT
100
AcDbLine
 62
7
  6
CONTINUOUS
 10
-14.4412731322
 20
-22.3912731322
 11
-11.9587268678
 21
-22.3912731322
  0
LINE
  5
277
100
AcDbEntity
  8
DRAFT
100
AcDbLine
 62
7
  6
CONTINUOUS
 10
-10.5412731322
 20
-22.3912731322
 11
-8.0587268678
 21
-22.3912731322
  0
LINE
  5
278
100
AcDbEntity
  8
DRAFT
100
AcDbLine
 62
7
  6
CONTINUOUS
 10
8.0587268678
 20
-22.3912731322
 11
10.5412731322
 21
-22.3912731322
  0
LINE
  5
279
100
AcDbEntity
  8
DRAFT
100
AcDbLine
 62
7
  6
CONTINUOUS
 10
11.9587268678
 20
-22.3912731322
 11
14.4412731322
 21
-22.3912731322
  0
LINE
  5
27A
100
AcDbEntity
  8
RACCORDO
100
AcDbLine
 62
7
  6
CONTINUOUS
 10
-18.06530103
 20
-22.3912731322
 11
-21.8917285141
 21
-22.3912731322
  0
LINE
  5
27B
100
AcDbEntity
  8
RACCORDO
100
AcDbLine
 62
250
  6
CONTINUOUS
 10
18.054799221
 20
-22.3659195224
 11
-18.054799221
 21
-22.3659195224
  0
LINE
  5
27C
100
AcDbEntity
  8
RACCORDO
100
AcDbLine
 62
250
  6
CONTINUOUS
 10
18.054799221
 20
-21.7659423686
 11
-18.054799221
 21
-21.7659423686
  0
LINE
  5
27D
100
AcDbEntity
  8
SMUSSO
100
AcDbLine
 62
7
  6
CONTINUOUS
 10
-8.3500114226
 20
-23.8
 11
-8.3556641965
 21
-23.7943472261
  0
LINE
  5
27E
100
AcDbEntity
  8
SMUSSO
100
AcDbLine
 62
7
  6
CONTINUOUS
 10
-8.05
 20
-23.4999885774
 11
-8.0574973005
 21
-23.4924912769
  0
LINE
  5
27F
100
AcDbEntity
  8
DRAFT
100
AcDbLine
 62
7
  6
CONTINUOUS
 10
-8.0587268678
 20
-22.3912731322
 11
-8.05
 21
-22.4
  0
LINE
  5
280
100
AcDbEntity
  8
DRAFT
100
AcDbLine
 62
7
  6
CONTINUOUS
 10
-22.400432253
 20
5.1571987739
 11
-22.37425574
 21
5.0
  0
LINE
  5
281
100
AcDbEntity
  8
RACCORDO
100
AcDbLine
 62
250
  6
CONTINUOUS
 10
-19.6565546704
 20
23.7278312164
 11
-19.6489186611
 21
23.2226497308
  0
LINE
  5
282
100
AcDbEntity
  8
RACCORDO
100
AcDbLine
 62
250
  6
CONTINUOUS
 10
-19.4065641897
 20
23.9443375673
 11
-19.4
 21
23.5100652985
  0
LINE
  5
283
100
AcDbEntity
  8
RACCORDO
100
AcDbLine
 62
250
  6
CONTINUOUS
 10
-19.4065641897
 20
24.2434453296
 11
-19.4065738754
 21
24.2456269649
  0
LINE
  5
284
100
AcDbEntity
  8
DRAFT
100
AcDbLine
 62
7
  6
CONTINUOUS
 10
-20.1261825974
 20
3.7620388964
 11
-20.1261825974
 21
-3.7620388964
  0
LINE
  5
285
100
AcDbEntity
  8
DRAFT
100
AcDbLine
 62
7
  6
CONTINUOUS
 10
-20.0738174026
 20
-16.800128791
 11
-20.0738174026
 21
-13.3086041469
  0
LINE
  5
286
100
AcDbEntity
  8
DRAFT
100
AcDbLine
 62
7
  6
CONTINUOUS
 10
-20.0738174026
 20
-12.6913958531
 11
-20.0738174026
 21
-3.7620356259
  0
LINE
  5
287
100
AcDbEntity
  8
DRAFT
100
AcDbLine
 62
7
  6
CONTINUOUS
 10
-20.0738174026
 20
3.7620356259
 11
-20.0738174026
 21
12.6913958531
  0
LINE
  5
288
100
AcDbEntity
  8
DRAFT
100
AcDbLine
 62
7
  6
CONTINUOUS
 10
-20.0738174026
 20
13.3086041469
 11
-20.0738174026
 21
16.800128791
  0
LINE
  5
289
100
AcDbEntity
  8
DRAFT
100
AcDbLine
 62
7
  6
CONTINUOUS
 10
-20.0249432208
 20
-3.4580737766
 11
-20.0249432208
 21
-1.660473039
  0
LINE
  5
28A
100
AcDbEntity
  8
DRAFT
100
AcDbLine
 62
7
  6
CONTINUOUS
 10
-20.0249432208
 20
1.660473039
 11
-20.0249432208
 21
3.4580737766
  0
LINE
  5
28B
100
AcDbEntity
  8
DRAFT
100
AcDbLine
 62
7
  6
CONTINUOUS
 10
-20.0144701819
 20
-1.65
 11
-20.0144701819
 21
1.65
  0
LINE
  5
28C
100
AcDbEntity
  8
0
100
AcDbLine
 62
7
  6
CONTINUOUS
 10
-20.0
 20
16.8428932188
 11
-20.0
 21
13.1637819484
  0
LINE
  5
28D
100
AcDbEntity
  8
0
100
AcDbLine
 62
7
  6
CONTINUOUS
 10
-20.0
 20
12.8362180516
 11
-20.0
 21
3.95
  0
LINE
  5
28E
100
AcDbEntity
  8
SUPERFICI
100
AcDbLine
 62
7
  6
CONTINUOUS
 10
-20.0
 20
3.95
 11
-20.0
 21
3.8499982933
  0
LINE
  5
28F
100
AcDbEntity
  8
0
100
AcDbLine
 62
7
  6
CONTINUOUS
 10
-20.0
 20
3.95
 11
-20.0
 21
3.8499982933
  0
LINE
  5
290
100
AcDbEntity
  8
SUPERFICI
100
AcDbLine
 62
7
  6
CONTINUOUS
 10
-20.0
 20
-3.3500017067
 11
-20.0
 21
-3.45
  0
LINE
  5
291
100
AcDbEntity
  8
0
100
AcDbLine
 62
7
  6
CONTINUOUS
 10
-20.0
 20
-3.3500017067
 11
-20.0
 21
-3.45
  0
LINE
  5
292
100
AcDbEntity
  8
0
100
AcDbLine
 62
7
  6
CONTINUOUS
 10
-20.0
 20
-3.45
 11
-20.0
 21
-12.8362180516
  0
LINE
  5
293
100
AcDbEntity
  8
0
100
AcDbLine
 62
7
  6
CONTINUOUS
 10
-20.0
 20
-13.1637819484
 11
-20.0
 21
-16.3428932188
  0
LINE
  5
294
100
AcDbEntity
  8
SUPERFICI
100
AcDbLine
 62
7
  6
CONTINUOUS
 10
-20.0
 20
-1.0
 11
-20.0
 21
1.5
  0
LINE
  5
295
100
AcDbEntity
  8
0
100
AcDbLine
 62
7
  6
CONTINUOUS
 10
-20.0
 20
-1.0
 11
-20.0
 21
1.4997703907
  0
LINE
  5
296
100
AcDbEntity
  8
SUPERFICI
100
AcDbLine
 62
7
  6
CONTINUOUS
 10
-19.9
 20
-3.3500013874
 11
-19.9
 21
-1.65
  0
LINE
  5
297
100
AcDbEntity
  8
0
100
AcDbLine
 62
7
  6
CONTINUOUS
 10
-19.9
 20
-3.3500013874
 11
-19.9
 21
-1.65
  0
LINE
  5
298
100
AcDbEntity
  8
SUPERFICI
100
AcDbLine
 62
7
  6
CONTINUOUS
 10
-19.9
 20
2.15
 11
-19.9
 21
3.8499986126
  0
LINE
  5
299
100
AcDbEntity
  8
0
100
AcDbLine
 62
7
  6
CONTINUOUS
 10
-19.9
 20
2.15
 11
-19.9
 21
3.8499986126
  0
LINE
  5
29A
100
AcDbEntity
  8
RACCORDO
100
AcDbLine
 62
250
  6
CONTINUOUS
 10
-19.6565546704
 20
24.4934358103
 11
-19.6565546704
 21
23.7278312164
  0
LINE
  5
29B
100
AcDbEntity
  8
RACCORDO
100
AcDbLine
 62
250
  6
CONTINUOUS
 10
-19.6565546704
 20
-23.7278312164
 11
-19.6565546704
 21
-24.4934358103
  0
LINE
  5
29C
100
AcDbEntity
  8
RACCORDO
100
AcDbLine
 62
7
  6
CONTINUOUS
 10
-19.4065641897
 20
24.2434453296
 11
-19.4065641897
 21
23.9443375673
  0
LINE
  5
29D
100
AcDbEntity
  8
RACCORDO
100
AcDbLine
 62
7
  6
CONTINUOUS
 10
-19.4065641897
 20
-23.9443375673
 11
-19.4065641897
 21
-24.2434453296
  0
LINE
  5
29E
100
AcDbEntity
  8
RACCORDO
100
AcDbLine
 62
7
  6
CONTINUOUS
 10
-19.4
 20
24.2500095192
 11
-19.4
 21
22.4
  0
LINE
  5
29F
100
AcDbEntity
  8
RACCORDO
100
AcDbLine
 62
7
  6
CONTINUOUS
 10
-19.4
 20
-22.4
 11
-19.4
 21
-24.2500095192
  0
LINE
  5
2A0
100
AcDbEntity
  8
RACCORDO
100
AcDbLine
 62
250
  6
CONTINUOUS
 10
-19.1070124916
 20
1.660473039
 11
-19.1070124916
 21
2.15
  0
LINE
  5
2A1
100
AcDbEntity
  8
RACCORDO
100
AcDbLine
 62
250
  6
CONTINUOUS
 10
-18.9070429525
 20
1.6570429525
 11
-18.9070429525
 21
2.15
  0
LINE
  5
2A2
100
AcDbEntity
  8
DRAFT
100
AcDbLine
 62
7
  6
CONTINUOUS
 10
-18.9
 20
2.15
 11
-18.9
 21
1.65
  0
LINE
  5
2A3
100
AcDbEntity
  8
RACCORDO
100
AcDbLine
 62
250
  6
CONTINUOUS
 10
-19.6489186611
 20
-23.2226497308
 11
-19.6565546704
 21
-23.7278312164
  0
LINE
  5
2A4
100
AcDbEntity
  8
RACCORDO
100
AcDbLine
 62
250
  6
CONTINUOUS
 10
-19.4
 20
-23.5100652985
 11
-19.4065641897
 21
-23.9443375673
  0
LINE
  5
2A5
100
AcDbEntity
  8
DRAFT
100
AcDbLine
 62
7
  6
CONTINUOUS
 10
-20.0738174026
 20
3.7620356259
 11
-20.1
 21
3.6834272275
  0
LINE
  5
2A6
100
AcDbEntity
  8
DRAFT
100
AcDbLine
 62
7
  6
CONTINUOUS
 10
-22.5
 20
0.3985075585
 11
-22.47425574
 21
0.45
  0
LINE
  5
2A7
100
AcDbEntity
  8
DRAFT
100
AcDbLine
 62
7
  6
CONTINUOUS
 10
12.8238174026
 20
-20.0738174026
 11
-12.8238174026
 21
-20.0738174026
  0
LINE
  5
2A8
100
AcDbEntity
  8
0
100
AcDbLine
 62
7
  6
CONTINUOUS
 10
12.8238174026
 20
-19.75
 11
-12.8238174026
 21
-19.75
  0
LINE
  5
2A9
100
AcDbEntity
  8
0
100
AcDbLine
 62
7
  6
CONTINUOUS
 10
1.5
 20
-18.75
 11
-1.5
 21
-18.75
  0
LINE
  5
2AA
100
AcDbEntity
  8
DRAFT
100
AcDbLine
 62
7
  6
CONTINUOUS
 10
-22.5
 20
-0.3985075585
 11
-22.47425574
 21
-0.45
  0
LINE
  5
2AB
100
AcDbEntity
  8
DRAFT
100
AcDbLine
 62
7
  6
CONTINUOUS
 10
-20.0738174026
 20
-3.7620356259
 11
-20.1
 21
-3.6834272275
  0
LINE
  5
2AC
100
AcDbEntity
  8
0
100
AcDbLine
 62
7
  6
CONTINUOUS
 10
-18.6
 20
3.95
 11
-18.6
 21
-3.45
  0
LINE
  5
2AD
100
AcDbEntity
  8
RACCORDO
100
AcDbLine
 62
250
  6
CONTINUOUS
 10
-18.054799221
 20
22.3659195224
 11
-18.054799221
 21
21.7659423686
  0
LINE
  5
2AE
100
AcDbEntity
  8
RACCORDO
100
AcDbLine
 62
250
  6
CONTINUOUS
 10
-18.054799221
 20
-22.3659195224
 11
-18.054799221
 21
-21.7659423686
  0
LINE
  5
2AF
100
AcDbEntity
  8
0
100
AcDbLine
 62
7
  6
CONTINUOUS
 10
-17.6
 20
3.95
 11
-17.6
 21
-3.45
  0
LINE
  5
2B0
100
AcDbEntity
  8
DRAFT
100
AcDbLine
 62
7
  6
CONTINUOUS
 10
-20.1209527545
 20
-3.7463366087
 11
-20.0249432208
 21
-3.4580737766
  0
LINE
  5
2B1
100
AcDbEntity
  8
RACCORDO
100
AcDbLine
 62
7
  6
CONTINUOUS
 10
18.400128791
 20
-18.4738174026
 11
13.1237717112
 21
-18.4738174026
  0
LINE
  5
2B2
100
AcDbEntity
  8
RACCORDO
100
AcDbLine
 62
7
  6
CONTINUOUS
 10
-13.1237717112
 20
-18.4738174026
 11
-18.400128791
 21
-18.4738174026
  0
LINE
  5
2B3
100
AcDbEntity
  8
0
100
AcDbLine
 62
7
  6
CONTINUOUS
 10
-0.8499999978
 20
-18.25
 11
0.8500000013
 21
-18.25
  0
LINE
  5
2B4
100
AcDbEntity
  8
0
100
AcDbLine
 62
250
  6
CONTINUOUS
 10
-18.4
 20
-18.15
 11
-12.5
 21
-18.15
  0
LINE
  5
2B5
100
AcDbEntity
  8
0
100
AcDbLine
 62
250
  6
CONTINUOUS
 10
12.5
 20
-18.15
 11
18.4
 21
-18.15
  0
LINE
  5
2B6
100
AcDbEntity
  8
RACCORDO
100
AcDbLine
 62
250
  6
CONTINUOUS
 10
-22.3663558658
 20
-18.0543628776
 11
-21.766378712
 21
-18.0543628776
  0
LINE
  5
2B7
100
AcDbEntity
  8
RACCORDO
100
AcDbLine
 62
250
  6
CONTINUOUS
 10
22.3663558658
 20
-18.0543628776
 11
21.766378712
 21
-18.0543628776
  0
LINE
  5
2B8
100
AcDbEntity
  8
0
100
AcDbLine
 62
7
  6
CONTINUOUS
 10
-18.6
 20
-17.95
 11
-12.7
 21
-17.95
  0
LINE
  5
2B9
100
AcDbEntity
  8
0
100
AcDbLine
 62
7
  6
CONTINUOUS
 10
18.6
 20
-17.95
 11
12.7
 21
-17.95
  0
LINE
  5
2BA
100
AcDbEntity
  8
0
100
AcDbLine
 62
7
  6
CONTINUOUS
 10
0.8499999978
 20
-17.95
 11
0.15
 21
-17.95
  0
LINE
  5
2BB
100
AcDbEntity
  8
0
100
AcDbLine
 62
7
  6
CONTINUOUS
 10
-0.15
 20
-17.95
 11
-0.8500000022
 21
-17.95
  0
LINE
  5
2BC
100
AcDbEntity
  8
DRAFT
100
AcDbLine
 62
7
  6
CONTINUOUS
 10
-20.0249432208
 20
3.4580737766
 11
-20.1209527545
 21
3.7463366087
  0
LINE
  5
2BD
100
AcDbEntity
  8
SMUSSO
100
AcDbLine
 62
7
  6
CONTINUOUS
 10
-14.4412731322
 20
23.2912731322
 11
-14.4425026995
 21
23.4924912769
  0
LINE
  5
2BE
100
AcDbEntity
  8
SMUSSO
100
AcDbLine
 62
7
  6
CONTINUOUS
 10
-14.45
 20
-23.4999885774
 11
-14.45
 21
-22.4
  0
LINE
  5
2BF
100
AcDbEntity
  8
SMUSSO
100
AcDbLine
 62
7
  6
CONTINUOUS
 10
-14.45
 20
22.4
 11
-14.45
 21
23.4999885774
  0
LINE
  5
2C0
100
AcDbEntity
  8
SMUSSO
100
AcDbLine
 62
7
  6
CONTINUOUS
 10
-14.4412731322
 20
23.2912731322
 11
-14.4412731322
 21
22.3912731322
  0
LINE
  5
2C1
100
AcDbEntity
  8
SMUSSO
100
AcDbLine
 62
7
  6
CONTINUOUS
 10
-14.4412731322
 20
-22.3912731322
 11
-14.4412731322
 21
-23.2912731322
  0
LINE
  5
2C2
100
AcDbEntity
  8
SMUSSO
100
AcDbLine
 62
7
  6
CONTINUOUS
 10
-14.4425026995
 20
-23.4924912769
 11
-14.4412731322
 21
-23.2912731322
  0
LINE
  5
2C3
100
AcDbEntity
  8
0
100
AcDbLine
 62
7
  6
CONTINUOUS
 10
-4.8713547904
 20
13.3263298392
 11
-4.991667958
 21
13.2678192377
  0
LINE
  5
2C4
100
AcDbEntity
  8
0
100
AcDbLine
 62
7
  6
CONTINUOUS
 10
-4.8307168761
 20
13.0926772058
 11
-4.6708340365
 21
13.1507977366
  0
LINE
  5
2C5
100
AcDbEntity
  8
0
100
AcDbLine
 62
7
  6
CONTINUOUS
 10
-0.8499999978
 20
-15.55
 11
-0.15
 21
-15.55
  0
LINE
  5
2C6
100
AcDbEntity
  8
0
100
AcDbLine
 62
7
  6
CONTINUOUS
 10
0.15
 20
-15.55
 11
0.8500000007
 21
-15.55
  0
LINE
  5
2C7
100
AcDbEntity
  8
0
100
AcDbLine
 62
7
  6
CONTINUOUS
 10
0.8499999978
 20
-15.25
 11
-0.8500000022
 21
-15.25
  0
LINE
  5
2C8
100
AcDbEntity
  8
0
100
AcDbLine
 62
7
  6
CONTINUOUS
 10
-1.5
 20
-14.75
 11
1.5
 21
-14.75
  0
LINE
  5
2C9
100
AcDbEntity
  8
SMUSSO
100
AcDbLine
 62
7
  6
CONTINUOUS
 10
-11.9587268678
 20
-23.2912731322
 11
-11.9556527739
 21
-23.7943472261
  0
LINE
  5
2CA
100
AcDbEntity
  8
RACCORDO
100
AcDbLine
 62
7
  6
CONTINUOUS
 10
-12.8238174026
 20
-20.0738174026
 11
-12.8238174026
 21
-18.7737717112
  0
LINE
  5
2CB
100
AcDbEntity
  8
RACCORDO
100
AcDbLine
 62
7
  6
CONTINUOUS
 10
-12.8238174026
 20
18.7737717112
 11
-12.8238174026
 21
20.0738174026
  0
LINE
  5
2CC
100
AcDbEntity
  8
0
100
AcDbLine
 62
250
  6
CONTINUOUS
 10
-12.7
 20
20.0738174026
 11
-12.7
 21
18.45
  0
LINE
  5
2CD
100
AcDbEntity
  8
0
100
AcDbLine
 62
250
  6
CONTINUOUS
 10
-12.7
 20
-17.95
 11
-12.7
 21
-19.75
  0
LINE
  5
2CE
100
AcDbEntity
  8
0
100
AcDbLine
 62
7
  6
CONTINUOUS
 10
-12.5
 20
20.0738174026
 11
-12.5
 21
18.65
  0
LINE
  5
2CF
100
AcDbEntity
  8
0
100
AcDbLine
 62
7
  6
CONTINUOUS
 10
-12.5
 20
-18.15
 11
-12.5
 21
-19.75
  0
LINE
  5
2D0
100
AcDbEntity
  8
SMUSSO
100
AcDbLine
 62
7
  6
CONTINUOUS
 10
-11.9587268678
 20
23.2912731322
 11
-11.9587268678
 21
22.3912731322
  0
LINE
  5
2D1
100
AcDbEntity
  8
SMUSSO
100
AcDbLine
 62
7
  6
CONTINUOUS
 10
-11.9587268678
 20
-22.3912731322
 11
-11.9587268678
 21
-23.2912731322
  0
LINE
  5
2D2
100
AcDbEntity
  8
DRAFT
100
AcDbLine
 62
7
  6
CONTINUOUS
 10
-11.95
 20
-23.8
 11
-11.95
 21
-22.4
  0
LINE
  5
2D3
100
AcDbEntity
  8
DRAFT
100
AcDbLine
 62
7
  6
CONTINUOUS
 10
-11.95
 20
22.4
 11
-11.95
 21
23.8
  0
LINE
  5
2D4
100
AcDbEntity
  8
SMUSSO
100
AcDbLine
 62
7
  6
CONTINUOUS
 10
-11.9556527739
 20
23.7943472261
 11
-11.9587268678
 21
23.2912731322
  0
LINE
  5
2D5
100
AcDbEntity
  8
0
100
AcDbLine
 62
7
  6
CONTINUOUS
 10
-5.1119799335
 20
13.1507977366
 11
-5.1921887118
 21
13.0337765336
  0
LINE
  5
2D6
100
AcDbEntity
  8
DRAFT
100
AcDbLine
 62
7
  6
CONTINUOUS
 10
-20.0144701819
 20
-1.65
 11
-20.0249432208
 21
-1.660473039
  0
LINE
  5
2D7
100
AcDbEntity
  8
0
100
AcDbLine
 62
7
  6
CONTINUOUS
 10
-4.991667958
 20
13.2678192377
 11
-5.1119799335
 21
13.1507977366
  0
LINE
  5
2D8
100
AcDbEntity
  8
0
100
AcDbLine
 62
7
  6
CONTINUOUS
 10
-3.3072931487
 20
13.3263298392
 11
-3.4276063163
 21
13.2093086362
  0
LINE
  5
2D9
100
AcDbEntity
  8
0
100
AcDbLine
 62
7
  6
CONTINUOUS
 10
-3.4276063163
 20
12.9752659321
 11
-3.3072931487
 21
13.0922871351
  0
LINE
  5
2DA
100
AcDbEntity
  8
0
100
AcDbLine
 62
7
  6
CONTINUOUS
 10
-4.9119938968
 20
13.0333864629
 11
-4.8307168761
 21
13.0926772058
  0
LINE
  5
2DB
100
AcDbEntity
  8
0
100
AcDbLine
 62
7
  6
CONTINUOUS
 10
-1.9432163436
 20
13.3267199099
 11
-2.0244945724
 21
13.267429167
  0
LINE
  5
2DC
100
AcDbEntity
  8
0
100
AcDbLine
 62
7
  6
CONTINUOUS
 10
-4.3500013072
 20
11.5710106015
 11
-4.1895849425
 21
11.6880318046
  0
LINE
  5
2DD
100
AcDbEntity
  8
0
100
AcDbLine
 62
7
  6
CONTINUOUS
 10
-0.2192718703
 20
13.3263298392
 11
-0.3395850379
 21
13.2678192377
  0
LINE
  5
2DE
100
AcDbEntity
  8
0
100
AcDbLine
 62
7
  6
CONTINUOUS
 10
-3.146875592
 20
13.3848404407
 11
-3.3072931487
 21
13.3263298392
  0
LINE
  5
2DF
100
AcDbEntity
  8
0
100
AcDbLine
 62
7
  6
CONTINUOUS
 10
-3.3072931487
 20
13.0922871351
 11
-3.146875592
 21
13.1507977366
  0
LINE
  5
2E0
100
AcDbEntity
  8
0
100
AcDbLine
 62
7
  6
CONTINUOUS
 10
-1.8635422904
 20
13.0922871351
 11
-1.7031271178
 21
13.1507977366
  0
LINE
  5
2E1
100
AcDbEntity
  8
0
100
AcDbLine
 62
7
  6
CONTINUOUS
 10
-1.3822920043
 20
11.8050533056
 11
-1.5427095611
 21
11.7465424061
  0
LINE
  5
2E2
100
AcDbEntity
  8
0
100
AcDbLine
 62
7
  6
CONTINUOUS
 10
-0.1786327559
 20
13.0926772058
 11
-0.0187523086
 21
13.1507977366
  0
LINE
  5
2E3
100
AcDbEntity
  8
0
100
AcDbLine
 62
7
  6
CONTINUOUS
 10
-1.783333512
 20
13.3848404407
 11
-1.9432163436
 21
13.3267199099
  0
LINE
  5
2E4
100
AcDbEntity
  8
0
100
AcDbLine
 62
7
  6
CONTINUOUS
 10
1.4255332749
 20
13.0926772058
 11
1.5854161065
 21
13.1507977366
  0
LINE
  5
2E5
100
AcDbEntity
  8
0
100
AcDbLine
 62
7
  6
CONTINUOUS
 10
11.25
 20
-13.75
 11
-8.95
 21
-13.75
  0
LINE
  5
2E6
100
AcDbEntity
  8
DRAFT
100
AcDbLine
 62
7
  6
CONTINUOUS
 10
-20.0144701819
 20
1.65
 11
-20.0249432208
 21
1.660473039
  0
LINE
  5
2E7
100
AcDbEntity
  8
RACCORDO
100
AcDbLine
 62
7
  6
CONTINUOUS
 10
-18.9
 20
1.65
 11
-18.9070429525
 21
1.6570429525
  0
LINE
  5
2E8
100
AcDbEntity
  8
SMUSSO
100
AcDbLine
 62
7
  6
CONTINUOUS
 10
-10.5412731322
 20
23.2912731322
 11
-10.5443472261
 21
23.7943472261
  0
LINE
  5
2E9
100
AcDbEntity
  8
0
100
AcDbLine
 62
7
  6
CONTINUOUS
 10
-11.45
 20
0.75
 11
-11.45
 21
-11.25
  0
LINE
  5
2EA
100
AcDbEntity
  8
DRAFT
100
AcDbLine
 62
7
  6
CONTINUOUS
 10
-10.55
 20
-23.8
 11
-10.55
 21
-22.4
  0
LINE
  5
2EB
100
AcDbEntity
  8
DRAFT
100
AcDbLine
 62
7
  6
CONTINUOUS
 10
-10.55
 20
22.4
 11
-10.55
 21
23.8
  0
LINE
  5
2EC
100
AcDbEntity
  8
SMUSSO
100
AcDbLine
 62
7
  6
CONTINUOUS
 10
-10.5412731322
 20
23.2912731322
 11
-10.5412731322
 21
22.3912731322
  0
LINE
  5
2ED
100
AcDbEntity
  8
SMUSSO
100
AcDbLine
 62
7
  6
CONTINUOUS
 10
-10.5412731322
 20
-22.3912731322
 11
-10.5412731322
 21
-23.2912731322
  0
LINE
  5
2EE
100
AcDbEntity
  8
SMUSSO
100
AcDbLine
 62
7
  6
CONTINUOUS
 10
-10.5443472261
 20
-23.7943472261
 11
-10.5412731322
 21
-23.2912731322
  0
LINE
  5
2EF
100
AcDbEntity
  8
0
100
AcDbLine
 62
7
  6
CONTINUOUS
 10
-5.0315049846
 20
12.8590248704
 11
-4.9119938968
 21
13.0333864629
  0
LINE
  5
2F0
100
AcDbEntity
  8
0
100
AcDbLine
 62
7
  6
CONTINUOUS
 10
-3.4276063163
 20
13.2093086362
 11
-3.5078127105
 21
13.0922871351
  0
LINE
  5
2F1
100
AcDbEntity
  8
0
100
AcDbLine
 62
7
  6
CONTINUOUS
 10
-3.5078127105
 20
12.858244729
 11
-3.4276063163
 21
12.9752659321
  0
LINE
  5
2F2
100
AcDbEntity
  8
0
100
AcDbLine
 62
7
  6
CONTINUOUS
 10
-4.1895849425
 20
11.6880318046
 11
-4.069271775
 21
11.8635639071
  0
LINE
  5
2F3
100
AcDbEntity
  8
SMUSSO
100
AcDbLine
 62
7
  6
CONTINUOUS
 10
8.0574973005
 20
23.4924912769
 11
8.3556641965
 21
23.7943472261
  0
LINE
  5
2F4
100
AcDbEntity
  8
SMUSSO
100
AcDbLine
 62
7
  6
CONTINUOUS
 10
8.3500114226
 20
23.8
 11
8.05
 21
23.4999885774
  0
LINE
  5
2F5
100
AcDbEntity
  8
SMUSSO
100
AcDbLine
 62
7
  6
CONTINUOUS
 10
10.5443472261
 20
23.7943472261
 11
10.55
 21
23.8
  0
LINE
  5
2F6
100
AcDbEntity
  8
0
100
AcDbLine
 62
7
  6
CONTINUOUS
 10
-4.2697925288
 20
11.9220745087
 11
-4.3901056964
 21
11.8050533056
  0
LINE
  5
2F7
100
AcDbEntity
  8
0
100
AcDbLine
 62
7
  6
CONTINUOUS
 10
-0.3395850379
 20
13.2678192377
 11
-0.4598958213
 21
13.1507977366
  0
LINE
  5
2F8
100
AcDbEntity
  8
0
100
AcDbLine
 62
7
  6
CONTINUOUS
 10
-0.2599109847
 20
13.0333864629
 11
-0.1786327559
 21
13.0926772058
  0
LINE
  5
2F9
100
AcDbEntity
  8
0
100
AcDbLine
 62
7
  6
CONTINUOUS
 10
-1.3026203353
 20
11.5706205308
 11
-1.2213421065
 21
11.6299112737
  0
LINE
  5
2FA
100
AcDbEntity
  8
0
100
AcDbLine
 62
7
  6
CONTINUOUS
 10
1.3442550462
 20
13.0333864629
 11
1.4255332749
 21
13.0926772058
  0
LINE
  5
2FB
100
AcDbEntity
  8
0
100
AcDbLine
 62
7
  6
CONTINUOUS
 10
0.302082805
 20
11.5710106015
 11
0.4624979775
 21
11.6880318046
  0
LINE
  5
2FC
100
AcDbEntity
  8
0
100
AcDbLine
 62
7
  6
CONTINUOUS
 10
1.3848941606
 20
13.3263298392
 11
1.264580993
 21
13.2678192377
  0
LINE
  5
2FD
100
AcDbEntity
  8
0
100
AcDbLine
 62
7
  6
CONTINUOUS
 10
4.7135393899
 20
13.3848404408
 11
4.5531242173
 21
13.3263298392
  0
LINE
  5
2FE
100
AcDbEntity
  8
0
100
AcDbLine
 62
7
  6
CONTINUOUS
 10
4.5531242173
 20
13.0922871351
 11
4.7135393899
 21
13.1507977366
  0
LINE
  5
2FF
100
AcDbEntity
  8
0
100
AcDbLine
 62
7
  6
CONTINUOUS
 10
2.8692841332
 20
13.0926772058
 11
3.0291645806
 21
13.1507977366
  0
LINE
  5
300
100
AcDbEntity
  8
0
100
AcDbLine
 62
7
  6
CONTINUOUS
 10
-1.4625007827
 20
11.5125
 11
-1.3026203353
 21
11.5706205308
  0
LINE
  5
301
100
AcDbEntity
  8
0
100
AcDbLine
 62
7
  6
CONTINUOUS
 10
2.9494929116
 20
12.4490602911
 11
3.109373359
 21
12.5071808219
  0
LINE
  5
302
100
AcDbEntity
  8
0
100
AcDbLine
 62
7
  6
CONTINUOUS
 10
3.1895821374
 20
11.5125
 11
3.3901040833
 21
11.5710106015
  0
LINE
  5
303
100
AcDbEntity
  8
SMUSSO
100
AcDbLine
 62
7
  6
CONTINUOUS
 10
8.3500114226
 20
-23.8
 11
8.05
 21
-23.4999885774
  0
LINE
  5
304
100
AcDbEntity
  8
SMUSSO
100
AcDbLine
 62
7
  6
CONTINUOUS
 10
10.5443472261
 20
-23.7943472261
 11
10.55
 21
-23.8
  0
LINE
  5
305
100
AcDbEntity
  8
SMUSSO
100
AcDbLine
 62
7
  6
CONTINUOUS
 10
8.3556641965
 20
-23.7943472261
 11
8.0574973005
 21
-23.4924912769
  0
LINE
  5
306
100
AcDbEntity
  8
SMUSSO
100
AcDbLine
 62
7
  6
CONTINUOUS
 10
-8.0587268678
 20
-23.2912731322
 11
-8.0574973005
 21
-23.4924912769
  0
LINE
  5
307
100
AcDbEntity
  8
SMUSSO
100
AcDbLine
 62
7
  6
CONTINUOUS
 10
-8.0587268678
 20
-23.2912731322
 11
-8.0587268678
 21
-22.3912731322
  0
LINE
  5
308
100
AcDbEntity
  8
SMUSSO
100
AcDbLine
 62
7
  6
CONTINUOUS
 10
-8.0587268678
 20
22.3912731322
 11
-8.0587268678
 21
23.2912731322
  0
LINE
  5
309
100
AcDbEntity
  8
SMUSSO
100
AcDbLine
 62
7
  6
CONTINUOUS
 10
-8.05
 20
23.4999885774
 11
-8.05
 21
22.4
  0
LINE
  5
30A
100
AcDbEntity
  8
SMUSSO
100
AcDbLine
 62
7
  6
CONTINUOUS
 10
-8.05
 20
-22.4
 11
-8.05
 21
-23.4999885774
  0
LINE
  5
30B
100
AcDbEntity
  8
SMUSSO
100
AcDbLine
 62
7
  6
CONTINUOUS
 10
-8.0574973005
 20
23.4924912769
 11
-8.0587268678
 21
23.2912731322
  0
LINE
  5
30C
100
AcDbEntity
  8
0
100
AcDbLine
 62
7
  6
CONTINUOUS
 10
-4.2296881396
 20
12.0976063132
 11
-4.2697925288
 21
11.9220745087
  0
LINE
  5
30D
100
AcDbEntity
  8
0
100
AcDbLine
 62
7
  6
CONTINUOUS
 10
-5.1921887118
 20
13.0337765336
 11
-5.2723974902
 21
12.7997341275
  0
LINE
  5
30E
100
AcDbEntity
  8
0
100
AcDbLine
 62
7
  6
CONTINUOUS
 10
-5.0721440989
 20
12.7408334573
 11
-5.0315049846
 21
12.8590248704
  0
LINE
  5
30F
100
AcDbEntity
  8
RACCORDO
100
AcDbLine
 62
250
  6
CONTINUOUS
 10
-18.7618790777
 20
-22.0730374561
 11
-18.7723808867
 21
-22.0983910659
  0
LINE
  5
310
100
AcDbEntity
  8
RACCORDO
100
AcDbLine
 62
250
  6
CONTINUOUS
 10
-18.054799221
 20
-22.3659195224
 11
-18.06530103
 21
-22.3912731322
  0
LINE
  5
311
100
AcDbEntity
  8
0
100
AcDbLine
 62
7
  6
CONTINUOUS
 10
-2.1041686256
 20
13.1507977366
 11
-2.1843750197
 21
12.9752659321
  0
LINE
  5
312
100
AcDbEntity
  8
0
100
AcDbLine
 62
7
  6
CONTINUOUS
 10
-2.0239598472
 20
12.7997341275
 11
-1.9437510688
 21
12.9752659321
  0
LINE
  5
313
100
AcDbEntity
  8
0
100
AcDbLine
 62
7
  6
CONTINUOUS
 10
-2.0244945724
 20
13.267429167
 11
-2.1041686256
 21
13.1507977366
  0
LINE
  5
314
100
AcDbEntity
  8
0
100
AcDbLine
 62
7
  6
CONTINUOUS
 10
-1.2213421065
 20
11.6299112737
 11
-1.1416680533
 21
11.7465424061
  0
LINE
  5
315
100
AcDbEntity
  8
0
100
AcDbLine
 62
7
  6
CONTINUOUS
 10
-1.9437510688
 20
12.9752659321
 11
-1.8635422904
 21
13.0922871351
  0
LINE
  5
316
100
AcDbEntity
  8
0
100
AcDbLine
 62
7
  6
CONTINUOUS
 10
-0.4598958213
 20
13.1507977366
 11
-0.5401045997
 21
13.0337765336
  0
LINE
  5
317
100
AcDbEntity
  8
0
100
AcDbLine
 62
7
  6
CONTINUOUS
 10
-1.3020856101
 20
11.9220745087
 11
-1.3822920043
 21
11.8050533056
  0
LINE
  5
318
100
AcDbEntity
  8
0
100
AcDbLine
 62
7
  6
CONTINUOUS
 10
-0.3794220645
 20
12.8590248704
 11
-0.2599109847
 21
13.0333864629
  0
LINE
  5
319
100
AcDbEntity
  8
DRAFT
100
AcDbLine
 62
7
  6
CONTINUOUS
 10
10.5412731322
 20
22.3912731322
 11
10.55
 21
22.4
  0
LINE
  5
31A
100
AcDbEntity
  8
SMUSSO
100
AcDbLine
 62
7
  6
CONTINUOUS
 10
14.1443358035
 20
23.7943472261
 11
14.1499885774
 21
23.8
  0
LINE
  5
31B
100
AcDbEntity
  8
0
100
AcDbLine
 62
7
  6
CONTINUOUS
 10
1.264580993
 20
13.2678192377
 11
1.1442702096
 21
13.1507977366
  0
LINE
  5
31C
100
AcDbEntity
  8
0
100
AcDbLine
 62
7
  6
CONTINUOUS
 10
0.3822915833
 20
11.9220745087
 11
0.2619784158
 21
11.8050533056
  0
LINE
  5
31D
100
AcDbEntity
  8
0
100
AcDbLine
 62
7
  6
CONTINUOUS
 10
1.9864576142
 20
11.9220745087
 11
1.8661444467
 21
11.8050533056
  0
LINE
  5
31E
100
AcDbEntity
  8
0
100
AcDbLine
 62
7
  6
CONTINUOUS
 10
2.7489709657
 20
13.3267199099
 11
2.6676927369
 21
13.267429167
  0
LINE
  5
31F
100
AcDbEntity
  8
0
100
AcDbLine
 62
7
  6
CONTINUOUS
 10
2.868749408
 20
12.6827126265
 11
2.7083318513
 21
12.5656914234
  0
LINE
  5
320
100
AcDbEntity
  8
0
100
AcDbLine
 62
7
  6
CONTINUOUS
 10
2.8682146829
 20
12.3897695482
 11
2.9494929116
 21
12.4490602911
  0
LINE
  5
321
100
AcDbEntity
  8
0
100
AcDbLine
 62
7
  6
CONTINUOUS
 10
1.9062488358
 20
11.5710106015
 11
2.0666663926
 21
11.6880318046
  0
LINE
  5
322
100
AcDbEntity
  8
0
100
AcDbLine
 62
7
  6
CONTINUOUS
 10
2.7882732671
 20
13.0341666043
 11
2.8692841332
 21
13.0926772058
  0
LINE
  5
323
100
AcDbEntity
  8
0
100
AcDbLine
 62
7
  6
CONTINUOUS
 10
3.3901040833
 20
11.8635639071
 11
3.1895821374
 21
11.7465424061
  0
LINE
  5
324
100
AcDbEntity
  8
RACCORDO
100
AcDbLine
 62
250
  6
CONTINUOUS
 10
22.0988274093
 20
18.7719445433
 11
22.0734737995
 21
18.7614427343
  0
LINE
  5
325
100
AcDbEntity
  8
RACCORDO
100
AcDbLine
 62
250
  6
CONTINUOUS
 10
22.3917094756
 20
18.0648646866
 11
22.3663558658
 21
18.0543628776
  0
LINE
  5
326
100
AcDbEntity
  8
RACCORDO
100
AcDbLine
 62
250
  6
CONTINUOUS
 10
22.0734737995
 20
-18.7614427343
 11
22.0988274093
 21
-18.7719445433
  0
LINE
  5
327
100
AcDbEntity
  8
RACCORDO
100
AcDbLine
 62
250
  6
CONTINUOUS
 10
22.3663558658
 20
-18.0543628776
 11
22.3917094756
 21
-18.0648646866
  0
LINE
  5
328
100
AcDbEntity
  8
DRAFT
100
AcDbLine
 62
7
  6
CONTINUOUS
 10
10.55
 20
-22.4
 11
10.5412731322
 21
-22.3912731322
  0
LINE
  5
329
100
AcDbEntity
  8
SMUSSO
100
AcDbLine
 62
7
  6
CONTINUOUS
 10
14.1499885774
 20
-23.8
 11
14.1443358035
 21
-23.7943472261
  0
LINE
  5
32A
100
AcDbEntity
  8
RACCORDO
100
AcDbLine
 62
250
  6
CONTINUOUS
 10
-18.7723808867
 20
22.0983910659
 11
-18.7618790777
 21
22.0730374561
  0
LINE
  5
32B
100
AcDbEntity
  8
RACCORDO
100
AcDbLine
 62
250
  6
CONTINUOUS
 10
-18.06530103
 20
22.3912731322
 11
-18.054799221
 21
22.3659195224
  0
LINE
  5
32C
100
AcDbEntity
  8
0
100
AcDbLine
 62
7
  6
CONTINUOUS
 10
-5.0718767364
 20
12.6823225538
 11
-5.0721440989
 21
12.7408334573
  0
LINE
  5
32D
100
AcDbEntity
  8
0
100
AcDbLine
 62
7
  6
CONTINUOUS
 10
-5.625
 20
11.1375
 11
-5.625
 21
13.7625
  0
LINE
  5
32E
100
AcDbEntity
  8
0
100
AcDbLine
 62
7
  6
CONTINUOUS
 10
-5.5
 20
4.75
 11
-5.5
 21
8.75
  0
LINE
  5
32F
100
AcDbEntity
  8
0
100
AcDbLine
 62
7
  6
CONTINUOUS
 10
-5.1119799335
 20
12.330868876
 11
-5.1119799335
 21
12.4494503617
  0
LINE
  5
330
100
AcDbEntity
  8
0
100
AcDbLine
 62
7
  6
CONTINUOUS
 10
-5.2723974902
 20
12.7997341275
 11
-5.3125006873
 21
12.4486702204
  0
LINE
  5
331
100
AcDbEntity
  8
0
100
AcDbLine
 62
7
  6
CONTINUOUS
 10
-4.069271775
 20
11.8635639071
 11
-4.0291673858
 21
12.0976063132
  0
LINE
  5
332
100
AcDbEntity
  8
0
100
AcDbLine
 62
7
  6
CONTINUOUS
 10
-2.1843750197
 20
12.9752659321
 11
-2.2244794089
 21
12.7997341275
  0
LINE
  5
333
100
AcDbEntity
  8
0
100
AcDbLine
 62
7
  6
CONTINUOUS
 10
-0.5401045997
 20
13.0337765336
 11
-0.6203133781
 21
12.7997341275
  0
LINE
  5
334
100
AcDbEntity
  8
0
100
AcDbLine
 62
7
  6
CONTINUOUS
 10
-0.4200611789
 20
12.7404433846
 11
-0.3794220645
 21
12.8590248704
  0
LINE
  5
335
100
AcDbEntity
  8
0
100
AcDbLine
 62
7
  6
CONTINUOUS
 10
-1.2218768317
 20
12.0976063132
 11
-1.3020856101
 21
11.9220745087
  0
LINE
  5
336
100
AcDbEntity
  8
0
100
AcDbLine
 62
7
  6
CONTINUOUS
 10
-1.1416680533
 20
11.7465424061
 11
-1.061459275
 21
11.9220745087
  0
LINE
  5
337
100
AcDbEntity
  8
0
100
AcDbLine
 62
7
  6
CONTINUOUS
 10
2.7885406297
 20
12.2731384158
 11
2.8682146829
 21
12.3897695482
  0
LINE
  5
338
100
AcDbEntity
  8
0
100
AcDbLine
 62
7
  6
CONTINUOUS
 10
1.1442702096
 20
13.1507977366
 11
1.0640614312
 21
13.0337765336
  0
LINE
  5
339
100
AcDbEntity
  8
0
100
AcDbLine
 62
7
  6
CONTINUOUS
 10
1.2247463506
 20
12.8590248704
 11
1.3442550462
 21
13.0333864629
  0
LINE
  5
33A
100
AcDbEntity
  8
0
100
AcDbLine
 62
7
  6
CONTINUOUS
 10
0.4624979775
 20
11.6880318046
 11
0.5828111451
 21
11.8635639071
  0
LINE
  5
33B
100
AcDbEntity
  8
0
100
AcDbLine
 62
7
  6
CONTINUOUS
 10
2.6676927369
 20
13.267429167
 11
2.5882860304
 21
13.151577878
  0
LINE
  5
33C
100
AcDbEntity
  8
0
100
AcDbLine
 62
7
  6
CONTINUOUS
 10
2.0666663926
 20
11.6880318046
 11
2.186977176
 21
11.8635639071
  0
LINE
  5
33D
100
AcDbEntity
  8
0
100
AcDbLine
 62
7
  6
CONTINUOUS
 10
2.7083318513
 20
12.5656914234
 11
2.6281230729
 21
12.4486702204
  0
LINE
  5
33E
100
AcDbEntity
  8
SMUSSO
100
AcDbLine
 62
7
  6
CONTINUOUS
 10
14.4425026995
 20
23.4924912769
 11
14.45
 21
23.4999885774
  0
LINE
  5
33F
100
AcDbEntity
  8
DRAFT
100
AcDbLine
 62
7
  6
CONTINUOUS
 10
14.4412731322
 20
22.3912731322
 11
14.45
 21
22.4
  0
LINE
  5
340
100
AcDbEntity
  8
0
100
AcDbLine
 62
7
  6
CONTINUOUS
 10
4.5531242173
 20
13.3263298392
 11
4.4328110497
 21
13.2093086362
  0
LINE
  5
341
100
AcDbEntity
  8
0
100
AcDbLine
 62
7
  6
CONTINUOUS
 10
4.4328110497
 20
12.9752659321
 11
4.5531242173
 21
13.0922871351
  0
LINE
  5
342
100
AcDbEntity
  8
0
100
AcDbLine
 62
7
  6
CONTINUOUS
 10
3.3901040833
 20
11.5710106015
 11
3.5101475041
 21
11.6872516612
  0
LINE
  5
343
100
AcDbEntity
  8
SMUSSO
100
AcDbLine
 62
7
  6
CONTINUOUS
 10
14.45
 20
-23.4999885774
 11
14.4425026995
 21
-23.4924912769
  0
LINE
  5
344
100
AcDbEntity
  8
DRAFT
100
AcDbLine
 62
7
  6
CONTINUOUS
 10
14.4412731322
 20
-22.3912731322
 11
14.45
 21
-22.4
  0
LINE
  5
345
100
AcDbEntity
  8
RACCORDO
100
AcDbLine
 62
250
  6
CONTINUOUS
 10
-3.0934358103
 20
-23.9443375673
 11
-3.1
 21
-23.5100652985
  0
LINE
  5
346
100
AcDbEntity
  8
RACCORDO
100
AcDbLine
 62
250
  6
CONTINUOUS
 10
-2.8434453296
 20
-23.7278312164
 11
-2.8510813389
 21
-23.2226497308
  0
LINE
  5
347
100
AcDbEntity
  8
RACCORDO
100
AcDbLine
 62
250
  6
CONTINUOUS
 10
-3.0934358103
 20
-24.2434453296
 11
-3.0934261246
 21
-24.2456269649
  0
LINE
  5
348
100
AcDbEntity
  8
0
100
AcDbLine
 62
7
  6
CONTINUOUS
 10
-4.2296881396
 20
12.8005142709
 11
-4.2296881396
 21
12.6819324831
  0
LINE
  5
349
100
AcDbEntity
  8
0
100
AcDbLine
 62
7
  6
CONTINUOUS
 10
-4.0291673858
 20
12.4486702204
 11
-4.0291673858
 21
12.6827126265
  0
LINE
  5
34A
100
AcDbEntity
  8
0
100
AcDbLine
 62
7
  6
CONTINUOUS
 10
-3.7083346564
 20
11.5125
 11
-3.7083346564
 21
13.3848404408
  0
LINE
  5
34B
100
AcDbEntity
  8
0
100
AcDbLine
 62
7
  6
CONTINUOUS
 10
-3.5078127105
 20
11.5125
 11
-3.5078127105
 21
12.858244729
  0
LINE
  5
34C
100
AcDbEntity
  8
0
100
AcDbLine
 62
7
  6
CONTINUOUS
 10
-3.5078127105
 20
13.0922871351
 11
-3.5078127105
 21
13.3848404408
  0
LINE
  5
34D
100
AcDbEntity
  8
RACCORDO
100
AcDbLine
 62
7
  6
CONTINUOUS
 10
-3.1
 20
-24.2500095192
 11
-3.1
 21
-22.4
  0
LINE
  5
34E
100
AcDbEntity
  8
RACCORDO
100
AcDbLine
 62
7
  6
CONTINUOUS
 10
-3.1
 20
22.4
 11
-3.1
 21
24.2500095192
  0
LINE
  5
34F
100
AcDbEntity
  8
RACCORDO
100
AcDbLine
 62
7
  6
CONTINUOUS
 10
-3.0934358103
 20
24.2434453296
 11
-3.0934358103
 21
23.9443375673
  0
LINE
  5
350
100
AcDbEntity
  8
RACCORDO
100
AcDbLine
 62
7
  6
CONTINUOUS
 10
-3.0934358103
 20
-24.2434453296
 11
-3.0934358103
 21
-23.9443375673
  0
LINE
  5
351
100
AcDbEntity
  8
RACCORDO
100
AcDbLine
 62
250
  6
CONTINUOUS
 10
-2.8434453296
 20
-24.4934358103
 11
-2.8434453296
 21
-23.7278312164
  0
LINE
  5
352
100
AcDbEntity
  8
RACCORDO
100
AcDbLine
 62
250
  6
CONTINUOUS
 10
-2.8434453296
 20
24.4934358103
 11
-2.8434453296
 21
23.7278312164
  0
LINE
  5
353
100
AcDbEntity
  8
0
100
AcDbLine
 62
7
  6
CONTINUOUS
 10
-2.7859384734
 20
12.6242020249
 11
-2.7859384734
 21
11.5125
  0
LINE
  5
354
100
AcDbEntity
  8
0
100
AcDbLine
 62
7
  6
CONTINUOUS
 10
-2.5854189117
 20
11.5125
 11
-2.5854189117
 21
12.6242020249
  0
LINE
  5
355
100
AcDbEntity
  8
0
100
AcDbLine
 62
7
  6
CONTINUOUS
 10
-2.2645837981
 20
12.5656914234
 11
-2.2645837981
 21
12.3316490173
  0
LINE
  5
356
100
AcDbEntity
  8
0
100
AcDbLine
 62
7
  6
CONTINUOUS
 10
-2.0640642364
 20
12.3316490173
 11
-2.0640642364
 21
12.5656914234
  0
LINE
  5
357
100
AcDbEntity
  8
RACCORDO
100
AcDbLine
 62
250
  6
CONTINUOUS
 10
-3.0934261246
 20
24.2456269649
 11
-3.0934358103
 21
24.2434453296
  0
LINE
  5
358
100
AcDbEntity
  8
RACCORDO
100
AcDbLine
 62
250
  6
CONTINUOUS
 10
-3.0934358103
 20
23.9443375673
 11
-3.1
 21
23.5100652985
  0
LINE
  5
359
100
AcDbEntity
  8
RACCORDO
100
AcDbLine
 62
250
  6
CONTINUOUS
 10
-2.8434453296
 20
23.7278312164
 11
-2.8510813389
 21
23.2226497308
  0
LINE
  5
35A
100
AcDbEntity
  8
0
100
AcDbLine
 62
7
  6
CONTINUOUS
 10
-0.6203133781
 20
12.7997341275
 11
-0.6604177672
 21
12.4486702204
  0
LINE
  5
35B
100
AcDbEntity
  8
0
100
AcDbLine
 62
7
  6
CONTINUOUS
 10
-0.4598958213
 20
12.5071808219
 11
-0.4200611789
 21
12.7404433846
  0
LINE
  5
35C
100
AcDbEntity
  8
0
100
AcDbLine
 62
7
  6
CONTINUOUS
 10
-2.2244794089
 20
12.7997341275
 11
-2.2645837981
 21
12.5656914234
  0
LINE
  5
35D
100
AcDbEntity
  8
0
100
AcDbLine
 62
7
  6
CONTINUOUS
 10
-2.0640642364
 20
12.5656914234
 11
-2.0239598472
 21
12.7997341275
  0
LINE
  5
35E
100
AcDbEntity
  8
0
100
AcDbLine
 62
7
  6
CONTINUOUS
 10
-1.1817724425
 20
12.3316490173
 11
-1.2218768317
 21
12.0976063132
  0
LINE
  5
35F
100
AcDbEntity
  8
0
100
AcDbLine
 62
7
  6
CONTINUOUS
 10
-1.061459275
 20
11.9220745087
 11
-0.9812504966
 21
12.3316490173
  0
LINE
  5
360
100
AcDbEntity
  8
0
100
AcDbLine
 62
7
  6
CONTINUOUS
 10
0.4223935883
 20
12.0976063132
 11
0.3822915833
 21
11.9220745087
  0
LINE
  5
361
100
AcDbEntity
  8
0
100
AcDbLine
 62
7
  6
CONTINUOUS
 10
1.0640614312
 20
13.0337765336
 11
0.9838526528
 21
12.7997341275
  0
LINE
  5
362
100
AcDbEntity
  8
0
100
AcDbLine
 62
7
  6
CONTINUOUS
 10
1.1841072362
 20
12.7408334573
 11
1.2247463506
 21
12.8590248704
  0
LINE
  5
363
100
AcDbEntity
  8
0
100
AcDbLine
 62
7
  6
CONTINUOUS
 10
4.4328110497
 20
13.2093086362
 11
4.3526022714
 21
13.0922871351
  0
LINE
  5
364
100
AcDbEntity
  8
0
100
AcDbLine
 62
7
  6
CONTINUOUS
 10
4.3526022714
 20
12.858244729
 11
4.4328110497
 21
12.9752659321
  0
LINE
  5
365
100
AcDbEntity
  8
0
100
AcDbLine
 62
7
  6
CONTINUOUS
 10
3.5101475041
 20
12.0383155704
 11
3.3901040833
 21
11.8635639071
  0
LINE
  5
366
100
AcDbEntity
  8
RACCORDO
100
AcDbLine
 62
250
  6
CONTINUOUS
 10
-22.0734737995
 20
-18.7614427343
 11
-21.6492258854
 21
-18.3371948203
  0
LINE
  5
367
100
AcDbEntity
  8
RACCORDO
100
AcDbLine
 62
250
  6
CONTINUOUS
 10
18.7618790777
 20
22.0730374561
 11
18.3376311636
 21
21.648789542
  0
LINE
  5
368
100
AcDbEntity
  8
DRAFT
100
AcDbLine
 62
7
  6
CONTINUOUS
 10
-20.1261825974
 20
-3.7620388964
 11
-20.0738174026
 21
-3.7620388964
  0
LINE
  5
369
100
AcDbEntity
  8
DRAFT
100
AcDbLine
 62
7
  6
CONTINUOUS
 10
20.1261825974
 20
-3.7620388964
 11
20.0738173996
 21
-3.7620388964
  0
LINE
  5
36A
100
AcDbEntity
  8
RACCORDO
100
AcDbLine
 62
7
  6
CONTINUOUS
 10
20.0249432208
 20
-3.4580737766
 11
20.0
 21
-3.4580737766
  0
LINE
  5
36B
100
AcDbEntity
  8
RACCORDO
100
AcDbLine
 62
7
  6
CONTINUOUS
 10
-20.0
 20
-3.4580737766
 11
-20.0249432208
 21
-3.4580737766
  0
LINE
  5
36C
100
AcDbEntity
  8
0
100
AcDbLine
 62
7
  6
CONTINUOUS
 10
20.0
 20
-3.45
 11
17.6
 21
-3.45
  0
LINE
  5
36D
100
AcDbEntity
  8
0
100
AcDbLine
 62
7
  6
CONTINUOUS
 10
-17.6
 20
-3.45
 11
-20.0
 21
-3.45
  0
LINE
  5
36E
100
AcDbEntity
  8
SUPERFICI
100
AcDbLine
 62
7
  6
CONTINUOUS
 10
20.0
 20
-3.3500017067
 11
18.6
 21
-3.3500017107
  0
LINE
  5
36F
100
AcDbEntity
  8
0
100
AcDbLine
 62
7
  6
CONTINUOUS
 10
20.0
 20
-3.3500017067
 11
18.6
 21
-3.3500017107
  0
LINE
  5
370
100
AcDbEntity
  8
SUPERFICI
100
AcDbLine
 62
7
  6
CONTINUOUS
 10
-18.6
 20
-3.3500017107
 11
-20.0
 21
-3.3500017067
  0
LINE
  5
371
100
AcDbEntity
  8
0
100
AcDbLine
 62
7
  6
CONTINUOUS
 10
-18.6
 20
-3.3500017107
 11
-20.0
 21
-3.3500017067
  0
LINE
  5
372
100
AcDbEntity
  8
RACCORDO
100
AcDbLine
 62
250
  6
CONTINUOUS
 10
-22.0734737995
 20
18.7614427343
 11
-21.6492258854
 21
18.3371948203
  0
LINE
  5
373
100
AcDbEntity
  8
RACCORDO
100
AcDbLine
 62
250
  6
CONTINUOUS
 10
18.7618790777
 20
-22.0730374561
 11
18.3376311636
 21
-21.648789542
  0
LINE
  5
374
100
AcDbEntity
  8
0
100
AcDbLine
 62
7
  6
CONTINUOUS
 10
-5.072144099
 20
12.1568970561
 11
-5.1119799335
 21
12.330868876
  0
LINE
  5
375
100
AcDbEntity
  8
0
100
AcDbLine
 62
7
  6
CONTINUOUS
 10
-5.3125006873
 20
12.4486702204
 11
-5.2723974902
 21
12.0976063132
  0
LINE
  5
376
100
AcDbEntity
  8
RACCORDO
100
AcDbLine
 62
250
  6
CONTINUOUS
 10
-1.3565546704
 20
23.7278312164
 11
-1.3489186611
 21
23.2226497308
  0
LINE
  5
377
100
AcDbEntity
  8
RACCORDO
100
AcDbLine
 62
250
  6
CONTINUOUS
 10
-1.1065641897
 20
23.9443375673
 11
-1.1
 21
23.5100652985
  0
LINE
  5
378
100
AcDbEntity
  8
RACCORDO
100
AcDbLine
 62
250
  6
CONTINUOUS
 10
-1.1065641897
 20
24.2434453296
 11
-1.1065738754
 21
24.2456269649
  0
LINE
  5
379
100
AcDbEntity
  8
0
100
AcDbLine
 62
7
  6
CONTINUOUS
 10
-1.5
 20
-18.75
 11
-1.5
 21
-14.75
  0
LINE
  5
37A
100
AcDbEntity
  8
0
100
AcDbLine
 62
7
  6
CONTINUOUS
 10
-1.5
 20
15.25
 11
-1.5
 21
19.25
  0
LINE
  5
37B
100
AcDbEntity
  8
RACCORDO
100
AcDbLine
 62
250
  6
CONTINUOUS
 10
-1.3565546704
 20
24.4934358103
 11
-1.3565546704
 21
23.7278312164
  0
LINE
  5
37C
100
AcDbEntity
  8
RACCORDO
100
AcDbLine
 62
250
  6
CONTINUOUS
 10
-1.3565546704
 20
-23.7278312164
 11
-1.3565546704
 21
-24.4934358103
  0
LINE
  5
37D
100
AcDbEntity
  8
0
100
AcDbLine
 62
7
  6
CONTINUOUS
 10
-1.1817724425
 20
12.5656914234
 11
-1.1817724425
 21
12.3316490173
  0
LINE
  5
37E
100
AcDbEntity
  8
RACCORDO
100
AcDbLine
 62
7
  6
CONTINUOUS
 10
-1.1065641897
 20
24.2434453296
 11
-1.1065641897
 21
23.9443375673
  0
LINE
  5
37F
100
AcDbEntity
  8
RACCORDO
100
AcDbLine
 62
7
  6
CONTINUOUS
 10
-1.1065641897
 20
-23.9443375673
 11
-1.1065641897
 21
-24.2434453296
  0
LINE
  5
380
100
AcDbEntity
  8
RACCORDO
100
AcDbLine
 62
7
  6
CONTINUOUS
 10
-1.1
 20
24.2500095192
 11
-1.1
 21
22.4
  0
LINE
  5
381
100
AcDbEntity
  8
RACCORDO
100
AcDbLine
 62
7
  6
CONTINUOUS
 10
-1.1
 20
-22.4
 11
-1.1
 21
-24.2500095192
  0
LINE
  5
382
100
AcDbEntity
  8
0
100
AcDbLine
 62
7
  6
CONTINUOUS
 10
-1.0
 20
17.95
 11
-1.0
 21
16.55
  0
LINE
  5
383
100
AcDbEntity
  8
0
100
AcDbLine
 62
7
  6
CONTINUOUS
 10
-0.9812504966
 20
12.3316490173
 11
-0.9812504966
 21
12.5656914234
  0
LINE
  5
384
100
AcDbEntity
  8
0
100
AcDbLine
 62
7
  6
CONTINUOUS
 10
-0.7
 20
16.55
 11
-0.7
 21
17.95
  0
LINE
  5
385
100
AcDbEntity
  8
0
100
AcDbLine
 62
7
  6
CONTINUOUS
 10
-0.4598958213
 20
12.3316490173
 11
-0.4598958213
 21
12.5071808219
  0
LINE
  5
386
100
AcDbEntity
  8
0
100
AcDbLine
 62
7
  6
CONTINUOUS
 10
-0.15
 20
-15.55
 11
-0.15
 21
-17.95
  0
LINE
  5
387
100
AcDbEntity
  8
0
100
AcDbLine
 62
7
  6
CONTINUOUS
 10
0.15
 20
-17.95
 11
0.15
 21
-15.55
  0
LINE
  5
388
100
AcDbEntity
  8
RACCORDO
100
AcDbLine
 62
250
  6
CONTINUOUS
 10
-1.3489186611
 20
-23.2226497308
 11
-1.3565546704
 21
-23.7278312164
  0
LINE
  5
389
100
AcDbEntity
  8
RACCORDO
100
AcDbLine
 62
250
  6
CONTINUOUS
 10
-1.1
 20
-23.5100652985
 11
-1.1065641897
 21
-23.9443375673
  0
LINE
  5
38A
100
AcDbEntity
  8
0
100
AcDbLine
 62
7
  6
CONTINUOUS
 10
0.9838526528
 20
12.7997341275
 11
0.9437482636
 21
12.4486702204
  0
LINE
  5
38B
100
AcDbEntity
  8
0
100
AcDbLine
 62
7
  6
CONTINUOUS
 10
0.5828111451
 20
11.8635639071
 11
0.6229155343
 21
12.0976063132
  0
LINE
  5
38C
100
AcDbEntity
  8
0
100
AcDbLine
 62
7
  6
CONTINUOUS
 10
2.186977176
 20
11.8635639071
 11
2.2270815652
 21
12.0976063132
  0
LINE
  5
38D
100
AcDbEntity
  8
0
100
AcDbLine
 62
7
  6
CONTINUOUS
 10
2.0265620034
 20
12.0976063132
 11
1.9864576142
 21
11.9220745087
  0
LINE
  5
38E
100
AcDbEntity
  8
0
100
AcDbLine
 62
7
  6
CONTINUOUS
 10
2.7484362405
 20
12.0983864546
 11
2.7885406297
 21
12.2731384158
  0
LINE
  5
38F
100
AcDbEntity
  8
0
100
AcDbLine
 62
7
  6
CONTINUOUS
 10
2.7481688779
 20
12.9159751892
 11
2.7882732671
 21
13.0341666043
  0
LINE
  5
390
100
AcDbEntity
  8
0
100
AcDbLine
 62
7
  6
CONTINUOUS
 10
2.6281230729
 20
12.4486702204
 11
2.5479166787
 21
12.2146275163
  0
LINE
  5
391
100
AcDbEntity
  8
0
100
AcDbLine
 62
7
  6
CONTINUOUS
 10
3.5507866185
 20
12.1568970561
 11
3.5101475041
 21
12.0383155704
  0
LINE
  5
392
100
AcDbEntity
  8
0
100
AcDbLine
 62
7
  6
CONTINUOUS
 10
3.5101475041
 20
11.6872516612
 11
3.5507866185
 21
11.805833449
  0
LINE
  5
393
100
AcDbEntity
  8
0
100
AcDbLine
 62
7
  6
CONTINUOUS
 10
2.5882860304
 20
13.151577878
 11
2.547649332
 21
13.0337765336
  0
LINE
  5
394
100
AcDbEntity
  8
RACCORDO
100
AcDbLine
 62
250
  6
CONTINUOUS
 10
-22.4000125295
 20
-21.8995952303
 11
-22.3917094756
 21
-21.8912921707
  0
LINE
  5
395
100
AcDbEntity
  8
RACCORDO
100
AcDbLine
 62
250
  6
CONTINUOUS
 10
21.9004553819
 20
22.4
 11
21.8917285141
 21
22.3912731322
  0
LINE
  5
396
100
AcDbEntity
  8
RACCORDO
100
AcDbLine
 62
7
  6
CONTINUOUS
 10
20.0249432208
 20
-1.660473039
 11
19.9
 21
-1.660473039
  0
LINE
  5
397
100
AcDbEntity
  8
RACCORDO
100
AcDbLine
 62
7
  6
CONTINUOUS
 10
-19.9
 20
-1.660473039
 11
-20.0249432208
 21
-1.660473039
  0
LINE
  5
398
100
AcDbEntity
  8
SUPERFICI
100
AcDbLine
 62
7
  6
CONTINUOUS
 10
-19.9
 20
-1.65
 11
-18.6
 21
-1.65
  0
LINE
  5
399
100
AcDbEntity
  8
DRAFT
100
AcDbLine
 62
7
  6
CONTINUOUS
 10
-20.0144701819
 20
-1.65
 11
-19.9
 21
-1.65
  0
LINE
  5
39A
100
AcDbEntity
  8
0
100
AcDbLine
 62
7
  6
CONTINUOUS
 10
-19.9
 20
-1.65
 11
-18.6
 21
-1.65
  0
LINE
  5
39B
100
AcDbEntity
  8
SUPERFICI
100
AcDbLine
 62
7
  6
CONTINUOUS
 10
18.6
 20
-1.65
 11
19.9
 21
-1.65
  0
LINE
  5
39C
100
AcDbEntity
  8
0
100
AcDbLine
 62
7
  6
CONTINUOUS
 10
18.6
 20
-1.65
 11
19.9
 21
-1.65
  0
LINE
  5
39D
100
AcDbEntity
  8
DRAFT
100
AcDbLine
 62
7
  6
CONTINUOUS
 10
19.9
 20
-1.65
 11
20.0144701819
 21
-1.65
  0
LINE
  5
39E
100
AcDbEntity
  8
SUPERFICI
100
AcDbLine
 62
7
  6
CONTINUOUS
 10
18.6
 20
-1.0
 11
20.0
 21
-1.0
  0
LINE
  5
39F
100
AcDbEntity
  8
0
100
AcDbLine
 62
7
  6
CONTINUOUS
 10
18.6
 20
-1.0
 11
20.0
 21
-1.0
  0
LINE
  5
3A0
100
AcDbEntity
  8
SUPERFICI
100
AcDbLine
 62
7
  6
CONTINUOUS
 10
-18.6
 20
-1.0
 11
-20.0
 21
-1.0
  0
LINE
  5
3A1
100
AcDbEntity
  8
0
100
AcDbLine
 62
7
  6
CONTINUOUS
 10
-18.6
 20
-1.0
 11
-20.0
 21
-1.0
  0
LINE
  5
3A2
100
AcDbEntity
  8
DRAFT
100
AcDbLine
 62
7
  6
CONTINUOUS
 10
-22.47425574
 20
-0.45
 11
-22.37425574
 21
-0.45
  0
LINE
  5
3A3
100
AcDbEntity
  8
DRAFT
100
AcDbLine
 62
7
  6
CONTINUOUS
 10
22.37425574
 20
-0.45
 11
22.47425574
 21
-0.45
  0
LINE
  5
3A4
100
AcDbEntity
  8
RACCORDO
100
AcDbLine
 62
250
  6
CONTINUOUS
 10
-22.3917094756
 20
21.8912921707
 11
-22.4000125295
 21
21.8995952303
  0
LINE
  5
3A5
100
AcDbEntity
  8
RACCORDO
100
AcDbLine
 62
250
  6
CONTINUOUS
 10
21.8917285141
 20
-22.3912731322
 11
21.9004553819
 21
-22.4
  0
LINE
  5
3A6
100
AcDbEntity
  8
0
100
AcDbLine
 62
7
  6
CONTINUOUS
 10
-5.2723974902
 20
12.0976063132
 11
-5.1921887118
 21
11.8635639071
  0
LINE
  5
3A7
100
AcDbEntity
  8
0
100
AcDbLine
 62
7
  6
CONTINUOUS
 10
-5.0315049846
 20
12.0383155704
 11
-5.072144099
 21
12.1568970561
  0
LINE
  5
3A8
100
AcDbEntity
  8
0
100
AcDbLine
 62
7
  6
CONTINUOUS
 10
-2.6255209167
 20
12.9167553306
 11
-2.6656253058
 21
13.0922871351
  0
LINE
  5
3A9
100
AcDbEntity
  8
0
100
AcDbLine
 62
7
  6
CONTINUOUS
 10
-2.2645837981
 20
12.3316490173
 11
-2.1843750197
 21
11.9220745087
  0
LINE
  5
3AA
100
AcDbEntity
  8
0
100
AcDbLine
 62
7
  6
CONTINUOUS
 10
-4.0291673858
 20
12.6827126265
 11
-4.069271775
 21
12.9167553306
  0
LINE
  5
3AB
100
AcDbEntity
  8
0
100
AcDbLine
 62
7
  6
CONTINUOUS
 10
-2.0239598472
 20
12.0976063132
 11
-2.0640642364
 21
12.3316490173
  0
LINE
  5
3AC
100
AcDbEntity
  8
0
100
AcDbLine
 62
7
  6
CONTINUOUS
 10
-2.8260428626
 20
12.9167553306
 11
-2.7859384734
 21
12.6242020249
  0
LINE
  5
3AD
100
AcDbEntity
  8
0
100
AcDbLine
 62
7
  6
CONTINUOUS
 10
-2.5854189117
 20
12.6242020249
 11
-2.6255209167
 21
12.9167553306
  0
LINE
  5
3AE
100
AcDbEntity
  8
RACCORDO
100
AcDbLine
 62
250
  6
CONTINUOUS
 10
1.1065641897
 20
-23.9443375673
 11
1.1
 21
-23.5100652985
  0
LINE
  5
3AF
100
AcDbEntity
  8
RACCORDO
100
AcDbLine
 62
250
  6
CONTINUOUS
 10
1.3565546704
 20
-23.7278312164
 11
1.3489186611
 21
-23.2226497308
  0
LINE
  5
3B0
100
AcDbEntity
  8
0
100
AcDbLine
 62
7
  6
CONTINUOUS
 10
1.1843745988
 20
12.6823225538
 11
1.1841072362
 21
12.7408334573
  0
LINE
  5
3B1
100
AcDbEntity
  8
RACCORDO
100
AcDbLine
 62
250
  6
CONTINUOUS
 10
1.1065641897
 20
-24.2434453296
 11
1.1065738754
 21
-24.2456269649
  0
LINE
  5
3B2
100
AcDbEntity
  8
0
100
AcDbLine
 62
7
  6
CONTINUOUS
 10
2.547649332
 20
13.0337765336
 11
2.5479166787
 21
12.9159751892
  0
LINE
  5
3B3
100
AcDbEntity
  8
0
100
AcDbLine
 62
7
  6
CONTINUOUS
 10
0.7
 20
17.95
 11
0.7
 21
16.55
  0
LINE
  5
3B4
100
AcDbEntity
  8
0
100
AcDbLine
 62
7
  6
CONTINUOUS
 10
1.0
 20
16.55
 11
1.0
 21
17.95
  0
LINE
  5
3B5
100
AcDbEntity
  8
RACCORDO
100
AcDbLine
 62
7
  6
CONTINUOUS
 10
1.1
 20
-24.2500095192
 11
1.1
 21
-22.4
  0
LINE
  5
3B6
100
AcDbEntity
  8
RACCORDO
100
AcDbLine
 62
7
  6
CONTINUOUS
 10
1.1
 20
22.4
 11
1.1
 21
24.2500095192
  0
LINE
  5
3B7
100
AcDbEntity
  8
RACCORDO
100
AcDbLine
 62
7
  6
CONTINUOUS
 10
1.1065641897
 20
24.2434453296
 11
1.1065641897
 21
23.9443375673
  0
LINE
  5
3B8
100
AcDbEntity
  8
RACCORDO
100
AcDbLine
 62
7
  6
CONTINUOUS
 10
1.1065641897
 20
-24.2434453296
 11
1.1065641897
 21
-23.9443375673
  0
LINE
  5
3B9
100
AcDbEntity
  8
0
100
AcDbLine
 62
7
  6
CONTINUOUS
 10
1.1442702096
 20
12.330868876
 11
1.1442702096
 21
12.4494503617
  0
LINE
  5
3BA
100
AcDbEntity
  8
RACCORDO
100
AcDbLine
 62
250
  6
CONTINUOUS
 10
1.3565546704
 20
-24.4934358103
 11
1.3565546704
 21
-23.7278312164
  0
LINE
  5
3BB
100
AcDbEntity
  8
RACCORDO
100
AcDbLine
 62
250
  6
CONTINUOUS
 10
1.3565546704
 20
24.4934358103
 11
1.3565546704
 21
23.7278312164
  0
LINE
  5
3BC
100
AcDbEntity
  8
0
100
AcDbLine
 62
7
  6
CONTINUOUS
 10
1.5
 20
19.25
 11
1.5
 21
15.25
  0
LINE
  5
3BD
100
AcDbEntity
  8
0
100
AcDbLine
 62
7
  6
CONTINUOUS
 10
1.5
 20
-14.75
 11
1.5
 21
-18.75
  0
LINE
  5
3BE
100
AcDbEntity
  8
0
100
AcDbLine
 62
7
  6
CONTINUOUS
 10
2.0265620034
 20
12.8005142709
 11
2.0265620034
 21
12.6819324831
  0
LINE
  5
3BF
100
AcDbEntity
  8
0
100
AcDbLine
 62
7
  6
CONTINUOUS
 10
2.2270815652
 20
12.4486702204
 11
2.2270815652
 21
12.6827126265
  0
LINE
  5
3C0
100
AcDbEntity
  8
0
100
AcDbLine
 62
7
  6
CONTINUOUS
 10
2.5479166787
 20
12.2146275163
 11
2.5479166787
 21
12.0390957117
  0
LINE
  5
3C1
100
AcDbEntity
  8
RACCORDO
100
AcDbLine
 62
250
  6
CONTINUOUS
 10
1.1065738754
 20
24.2456269649
 11
1.1065641897
 21
24.2434453296
  0
LINE
  5
3C2
100
AcDbEntity
  8
RACCORDO
100
AcDbLine
 62
250
  6
CONTINUOUS
 10
1.1065641897
 20
23.9443375673
 11
1.1
 21
23.5100652985
  0
LINE
  5
3C3
100
AcDbEntity
  8
RACCORDO
100
AcDbLine
 62
250
  6
CONTINUOUS
 10
1.3565546704
 20
23.7278312164
 11
1.3489186611
 21
23.2226497308
  0
LINE
  5
3C4
100
AcDbEntity
  8
RACCORDO
100
AcDbLine
 62
250
  6
CONTINUOUS
 10
-21.9004553819
 20
-22.4
 11
-21.8917285141
 21
-22.3912731322
  0
LINE
  5
3C5
100
AcDbEntity
  8
RACCORDO
100
AcDbLine
 62
250
  6
CONTINUOUS
 10
22.4000125295
 20
21.8995952303
 11
22.3917094756
 21
21.8912921707
  0
LINE
  5
3C6
100
AcDbEntity
  8
RACCORDO
100
AcDbLine
 62
250
  6
CONTINUOUS
 10
-18.7618790777
 20
-22.0730374561
 11
-18.3376311636
 21
-21.648789542
  0
LINE
  5
3C7
100
AcDbEntity
  8
RACCORDO
100
AcDbLine
 62
250
  6
CONTINUOUS
 10
22.0734737995
 20
18.7614427343
 11
21.6492258854
 21
18.3371948203
  0
LINE
  5
3C8
100
AcDbEntity
  8
DRAFT
100
AcDbLine
 62
7
  6
CONTINUOUS
 10
-22.47425574
 20
0.45
 11
-22.37425574
 21
0.45
  0
LINE
  5
3C9
100
AcDbEntity
  8
DRAFT
100
AcDbLine
 62
7
  6
CONTINUOUS
 10
22.37425574
 20
0.45
 11
22.47425574
 21
0.45
  0
LINE
  5
3CA
100
AcDbEntity
  8
SUPERFICI
100
AcDbLine
 62
7
  6
CONTINUOUS
 10
18.6
 20
1.5
 11
20.0
 21
1.5
  0
LINE
  5
3CB
100
AcDbEntity
  8
0
100
AcDbLine
 62
7
  6
CONTINUOUS
 10
18.6
 20
1.5
 11
20.0
 21
1.5
  0
LINE
  5
3CC
100
AcDbEntity
  8
SUPERFICI
100
AcDbLine
 62
7
  6
CONTINUOUS
 10
-18.6
 20
1.5
 11
-20.0
 21
1.5
  0
LINE
  5
3CD
100
AcDbEntity
  8
0
100
AcDbLine
 62
7
  6
CONTINUOUS
 10
-18.6
 20
1.5
 11
-20.0
 21
1.5
  0
LINE
  5
3CE
100
AcDbEntity
  8
DRAFT
100
AcDbLine
 62
7
  6
CONTINUOUS
 10
20.0144701819
 20
1.65
 11
18.9
 21
1.65
  0
LINE
  5
3CF
100
AcDbEntity
  8
DRAFT
100
AcDbLine
 62
7
  6
CONTINUOUS
 10
-18.9
 20
1.65
 11
-20.0144701819
 21
1.65
  0
LINE
  5
3D0
100
AcDbEntity
  8
RACCORDO
100
AcDbLine
 62
7
  6
CONTINUOUS
 10
20.0249432208
 20
1.660473039
 11
19.1070124916
 21
1.660473039
  0
LINE
  5
3D1
100
AcDbEntity
  8
RACCORDO
100
AcDbLine
 62
7
  6
CONTINUOUS
 10
-19.1070124916
 20
1.660473039
 11
-20.0249432208
 21
1.660473039
  0
LINE
  5
3D2
100
AcDbEntity
  8
SUPERFICI
100
AcDbLine
 62
7
  6
CONTINUOUS
 10
19.9
 20
2.15
 11
18.6
 21
2.15
  0
LINE
  5
3D3
100
AcDbEntity
  8
0
100
AcDbLine
 62
7
  6
CONTINUOUS
 10
19.9
 20
2.15
 11
18.6
 21
2.15
  0
LINE
  5
3D4
100
AcDbEntity
  8
SUPERFICI
100
AcDbLine
 62
7
  6
CONTINUOUS
 10
-18.6
 20
2.15
 11
-19.9
 21
2.15
  0
LINE
  5
3D5
100
AcDbEntity
  8
0
100
AcDbLine
 62
7
  6
CONTINUOUS
 10
-18.6
 20
2.15
 11
-19.9
 21
2.15
  0
LINE
  5
3D6
100
AcDbEntity
  8
RACCORDO
100
AcDbLine
 62
250
  6
CONTINUOUS
 10
-21.8917285141
 20
22.3912731322
 11
-21.9004553819
 21
22.4
  0
LINE
  5
3D7
100
AcDbEntity
  8
RACCORDO
100
AcDbLine
 62
250
  6
CONTINUOUS
 10
22.3917094756
 20
-21.8912921707
 11
22.4000125295
 21
-21.8995952303
  0
LINE
  5
3D8
100
AcDbEntity
  8
RACCORDO
100
AcDbLine
 62
250
  6
CONTINUOUS
 10
-18.7618790777
 20
22.0730374561
 11
-18.3376311636
 21
21.648789542
  0
LINE
  5
3D9
100
AcDbEntity
  8
RACCORDO
100
AcDbLine
 62
250
  6
CONTINUOUS
 10
22.0734737995
 20
-18.7614427343
 11
21.6492258854
 21
-18.3371948203
  0
LINE
  5
3DA
100
AcDbEntity
  8
0
100
AcDbLine
 62
7
  6
CONTINUOUS
 10
-5.1921887118
 20
11.8635639071
 11
-5.1119799335
 21
11.7465424061
  0
LINE
  5
3DB
100
AcDbEntity
  8
0
100
AcDbLine
 62
7
  6
CONTINUOUS
 10
-4.9119938968
 20
11.8639539778
 11
-5.0315049846
 21
12.0383155704
  0
LINE
  5
3DC
100
AcDbEntity
  8
0
100
AcDbLine
 62
7
  6
CONTINUOUS
 10
-4.069271775
 20
12.9167553306
 11
-4.1895849425
 21
13.1507977366
  0
LINE
  5
3DD
100
AcDbEntity
  8
0
100
AcDbLine
 62
7
  6
CONTINUOUS
 10
-4.309896918
 20
12.9752659321
 11
-4.2296881396
 21
12.8005142709
  0
LINE
  5
3DE
100
AcDbEntity
  8
0
100
AcDbLine
 62
7
  6
CONTINUOUS
 10
-1.0213548858
 20
12.7997341275
 11
-1.061459275
 21
12.9752659321
  0
LINE
  5
3DF
100
AcDbEntity
  8
0
100
AcDbLine
 62
7
  6
CONTINUOUS
 10
-1.2218768317
 20
12.7997341275
 11
-1.1817724425
 21
12.5656914234
  0
LINE
  5
3E0
100
AcDbEntity
  8
0
100
AcDbLine
 62
7
  6
CONTINUOUS
 10
-0.9812504966
 20
12.5656914234
 11
-1.0213548858
 21
12.7997341275
  0
LINE
  5
3E1
100
AcDbEntity
  8
0
100
AcDbLine
 62
7
  6
CONTINUOUS
 10
-0.6604177672
 20
12.4486702204
 11
-0.6203133781
 21
12.0976063132
  0
LINE
  5
3E2
100
AcDbEntity
  8
0
100
AcDbLine
 62
7
  6
CONTINUOUS
 10
0.9437482636
 20
12.4486702204
 11
0.9838526528
 21
12.0976063132
  0
LINE
  5
3E3
100
AcDbEntity
  8
RACCORDO
100
AcDbLine
 62
250
  6
CONTINUOUS
 10
2.8434453296
 20
23.7278312164
 11
2.8510813389
 21
23.2226497308
  0
LINE
  5
3E4
100
AcDbEntity
  8
RACCORDO
100
AcDbLine
 62
250
  6
CONTINUOUS
 10
3.0934358103
 20
23.9443375673
 11
3.1
 21
23.5100652985
  0
LINE
  5
3E5
100
AcDbEntity
  8
RACCORDO
100
AcDbLine
 62
250
  6
CONTINUOUS
 10
3.0934358103
 20
24.2434453296
 11
3.0934261246
 21
24.2456269649
  0
LINE
  5
3E6
100
AcDbEntity
  8
0
100
AcDbLine
 62
7
  6
CONTINUOUS
 10
3.5505192559
 20
12.5071808219
 11
3.5507866185
 21
12.1568970561
  0
LINE
  5
3E7
100
AcDbEntity
  8
RACCORDO
100
AcDbLine
 62
250
  6
CONTINUOUS
 10
2.8434453296
 20
24.4934358103
 11
2.8434453296
 21
23.7278312164
  0
LINE
  5
3E8
100
AcDbEntity
  8
RACCORDO
100
AcDbLine
 62
250
  6
CONTINUOUS
 10
2.8434453296
 20
-23.7278312164
 11
2.8434453296
 21
-24.4934358103
  0
LINE
  5
3E9
100
AcDbEntity
  8
RACCORDO
100
AcDbLine
 62
7
  6
CONTINUOUS
 10
3.0934358103
 20
24.2434453296
 11
3.0934358103
 21
23.9443375673
  0
LINE
  5
3EA
100
AcDbEntity
  8
RACCORDO
100
AcDbLine
 62
7
  6
CONTINUOUS
 10
3.0934358103
 20
-23.9443375673
 11
3.0934358103
 21
-24.2434453296
  0
LINE
  5
3EB
100
AcDbEntity
  8
RACCORDO
100
AcDbLine
 62
7
  6
CONTINUOUS
 10
3.1
 20
24.2500095192
 11
3.1
 21
22.4
  0
LINE
  5
3EC
100
AcDbEntity
  8
RACCORDO
100
AcDbLine
 62
7
  6
CONTINUOUS
 10
3.1
 20
-22.4
 11
3.1
 21
-24.2500095192
  0
LINE
  5
3ED
100
AcDbEntity
  8
0
100
AcDbLine
 62
7
  6
CONTINUOUS
 10
3.7510412019
 20
11.9805851102
 11
3.7510412019
 21
12.9167553306
  0
LINE
  5
3EE
100
AcDbEntity
  8
0
100
AcDbLine
 62
7
  6
CONTINUOUS
 10
4.1520827096
 20
11.5125
 11
4.1520827096
 21
13.3848404408
  0
LINE
  5
3EF
100
AcDbEntity
  8
0
100
AcDbLine
 62
7
  6
CONTINUOUS
 10
4.3526022714
 20
11.5125
 11
4.3526022714
 21
12.858244729
  0
LINE
  5
3F0
100
AcDbEntity
  8
0
100
AcDbLine
 62
7
  6
CONTINUOUS
 10
4.3526022714
 20
13.0922871351
 11
4.3526022714
 21
13.3848404408
  0
LINE
  5
3F1
100
AcDbEntity
  8
0
100
AcDbLine
 62
7
  6
CONTINUOUS
 10
3.5507866185
 20
12.9159751892
 11
3.5505192559
 21
12.741223526
  0
LINE
  5
3F2
100
AcDbEntity
  8
0
100
AcDbLine
 62
7
  6
CONTINUOUS
 10
2.7481688779
 20
11.9805851102
 11
2.7484362405
 21
12.0983864546
  0
LINE
  5
3F3
100
AcDbEntity
  8
RACCORDO
100
AcDbLine
 62
250
  6
CONTINUOUS
 10
2.8510813389
 20
-23.2226497308
 11
2.8434453296
 21
-23.7278312164
  0
LINE
  5
3F4
100
AcDbEntity
  8
RACCORDO
100
AcDbLine
 62
250
  6
CONTINUOUS
 10
3.1
 20
-23.5100652985
 11
3.0934358103
 21
-23.9443375673
  0
LINE
  5
3F5
100
AcDbEntity
  8
0
100
AcDbLine
 62
7
  6
CONTINUOUS
 10
11.25
 20
3.25
 11
-8.95
 21
3.25
  0
LINE
  5
3F6
100
AcDbEntity
  8
RACCORDO
100
AcDbLine
 62
7
  6
CONTINUOUS
 10
20.0249432208
 20
3.4580737766
 11
19.9
 21
3.4580737766
  0
LINE
  5
3F7
100
AcDbEntity
  8
RACCORDO
100
AcDbLine
 62
7
  6
CONTINUOUS
 10
-19.9
 20
3.4580737766
 11
-20.0249432208
 21
3.4580737766
  0
LINE
  5
3F8
100
AcDbEntity
  8
DRAFT
100
AcDbLine
 62
7
  6
CONTINUOUS
 10
-20.1261825974
 20
3.7620388964
 11
-20.0738173996
 21
3.7620388964
  0
LINE
  5
3F9
100
AcDbEntity
  8
DRAFT
100
AcDbLine
 62
7
  6
CONTINUOUS
 10
20.1261825974
 20
3.7620388964
 11
20.0738174026
 21
3.7620388964
  0
LINE
  5
3FA
100
AcDbEntity
  8
SUPERFICI
100
AcDbLine
 62
7
  6
CONTINUOUS
 10
-20.0
 20
3.8499982933
 11
-18.6
 21
3.8499982893
  0
LINE
  5
3FB
100
AcDbEntity
  8
0
100
AcDbLine
 62
7
  6
CONTINUOUS
 10
-20.0
 20
3.8499982933
 11
-18.6
 21
3.8499982893
  0
LINE
  5
3FC
100
AcDbEntity
  8
SUPERFICI
100
AcDbLine
 62
7
  6
CONTINUOUS
 10
18.6
 20
3.8499982893
 11
20.0
 21
3.8499982933
  0
LINE
  5
3FD
100
AcDbEntity
  8
0
100
AcDbLine
 62
7
  6
CONTINUOUS
 10
18.6
 20
3.8499982893
 11
20.0
 21
3.8499982933
  0
LINE
  5
3FE
100
AcDbEntity
  8
0
100
AcDbLine
 62
7
  6
CONTINUOUS
 10
-20.0
 20
3.95
 11
-17.6
 21
3.95
  0
LINE
  5
3FF
100
AcDbEntity
  8
0
100
AcDbLine
 62
7
  6
CONTINUOUS
 10
17.6
 20
3.95
 11
20.0
 21
3.95
  0
LINE
  5
400
100
AcDbEntity
  8
0
100
AcDbLine
 62
7
  6
CONTINUOUS
 10
5.0
 20
4.25
 11
-5.0
 21
4.25
  0
LINE
  5
401
100
AcDbEntity
  8
0
100
AcDbLine
 62
7
  6
CONTINUOUS
 10
-5.1119799335
 20
11.7465424061
 11
-4.991667958
 21
11.629521203
  0
LINE
  5
402
100
AcDbEntity
  8
0
100
AcDbLine
 62
7
  6
CONTINUOUS
 10
-2.1041686256
 20
11.7465424061
 11
-2.0244945724
 21
11.6299112737
  0
LINE
  5
403
100
AcDbEntity
  8
0
100
AcDbLine
 62
7
  6
CONTINUOUS
 10
-2.9057169158
 20
13.0333864629
 11
-2.8260428626
 21
12.9167553306
  0
LINE
  5
404
100
AcDbEntity
  8
0
100
AcDbLine
 62
7
  6
CONTINUOUS
 10
-1.9437510688
 20
11.9220745087
 11
-2.0239598472
 21
12.0976063132
  0
LINE
  5
405
100
AcDbEntity
  8
0
100
AcDbLine
 62
7
  6
CONTINUOUS
 10
-1.3020856101
 20
12.9752659321
 11
-1.2218768317
 21
12.7997341275
  0
LINE
  5
406
100
AcDbEntity
  8
0
100
AcDbLine
 62
7
  6
CONTINUOUS
 10
-1.061459275
 20
12.9752659321
 11
-1.1416680533
 21
13.1507977366
  0
LINE
  5
407
100
AcDbEntity
  8
0
100
AcDbLine
 62
7
  6
CONTINUOUS
 10
-2.1843750197
 20
11.9220745087
 11
-2.1041686256
 21
11.7465424061
  0
LINE
  5
408
100
AcDbEntity
  8
0
100
AcDbLine
 62
7
  6
CONTINUOUS
 10
-0.6203133781
 20
12.0976063132
 11
-0.5401045997
 21
11.8635639071
  0
LINE
  5
409
100
AcDbEntity
  8
0
100
AcDbLine
 62
7
  6
CONTINUOUS
 10
0.9838526528
 20
12.0976063132
 11
1.0640614312
 21
11.8635639071
  0
LINE
  5
40A
100
AcDbEntity
  8
0
100
AcDbLine
 62
7
  6
CONTINUOUS
 10
-0.3796894271
 20
12.0390957117
 11
-0.4598958213
 21
12.3316490173
  0
LINE
  5
40B
100
AcDbEntity
  8
0
100
AcDbLine
 62
7
  6
CONTINUOUS
 10
1.1841072362
 20
12.1568970561
 11
1.1442702096
 21
12.330868876
  0
LINE
  5
40C
100
AcDbEntity
  8
0
100
AcDbLine
 62
7
  6
CONTINUOUS
 10
0.3822915833
 20
12.9752659321
 11
0.4223935883
 21
12.7997341275
  0
LINE
  5
40D
100
AcDbEntity
  8
0
100
AcDbLine
 62
7
  6
CONTINUOUS
 10
0.6229155343
 20
12.7997341275
 11
0.5828111451
 21
13.0337765336
  0
LINE
  5
40E
100
AcDbEntity
  8
0
100
AcDbLine
 62
7
  6
CONTINUOUS
 10
2.2270815652
 20
12.6827126265
 11
2.186977176
 21
12.9167553306
  0
LINE
  5
40F
100
AcDbEntity
  8
0
100
AcDbLine
 62
7
  6
CONTINUOUS
 10
2.5479166787
 20
12.0390957117
 11
2.5880186837
 21
11.8050533056
  0
LINE
  5
410
100
AcDbEntity
  8
0
100
AcDbLine
 62
7
  6
CONTINUOUS
 10
5.0744788926
 20
12.6242020249
 11
5.0744788926
 21
11.5125
  0
LINE
  5
411
100
AcDbEntity
  8
0
100
AcDbLine
 62
7
  6
CONTINUOUS
 10
5.2749984544
 20
11.5125
 11
5.2749984544
 21
12.6242020249
  0
LINE
  5
412
100
AcDbEntity
  8
0
100
AcDbLine
 62
7
  6
CONTINUOUS
 10
5.5
 20
8.75
 11
5.5
 21
4.75
  0
LINE
  5
413
100
AcDbEntity
  8
0
100
AcDbLine
 62
7
  6
CONTINUOUS
 10
5.625
 20
13.7625
 11
5.625
 21
11.1375
  0
LINE
  5
414
100
AcDbEntity
  8
DRAFT
100
AcDbLine
 62
7
  6
CONTINUOUS
 10
-14.4412731322
 20
-22.3912731322
 11
-14.45
 21
-22.4
  0
LINE
  5
415
100
AcDbEntity
  8
SMUSSO
100
AcDbLine
 62
7
  6
CONTINUOUS
 10
-14.4425026995
 20
-23.4924912769
 11
-14.45
 21
-23.4999885774
  0
LINE
  5
416
100
AcDbEntity
  8
SMUSSO
100
AcDbLine
 62
7
  6
CONTINUOUS
 10
-14.1443358035
 20
-23.7943472261
 11
-14.1499885774
 21
-23.8
  0
LINE
  5
417
100
AcDbEntity
  8
0
100
AcDbLine
 62
7
  6
CONTINUOUS
 10
-4.8307168761
 20
11.8046632349
 11
-4.9119938968
 21
11.8639539778
  0
LINE
  5
418
100
AcDbEntity
  8
0
100
AcDbLine
 62
7
  6
CONTINUOUS
 10
-4.1895849425
 20
13.1507977366
 11
-4.3901056964
 21
13.3263298392
  0
LINE
  5
419
100
AcDbEntity
  8
0
100
AcDbLine
 62
7
  6
CONTINUOUS
 10
-4.4302100856
 20
13.0922871351
 11
-4.309896918
 21
12.9752659321
  0
LINE
  5
41A
100
AcDbEntity
  8
DRAFT
100
AcDbLine
 62
7
  6
CONTINUOUS
 10
-14.4412731322
 20
22.3912731322
 11
-14.45
 21
22.4
  0
LINE
  5
41B
100
AcDbEntity
  8
SMUSSO
100
AcDbLine
 62
7
  6
CONTINUOUS
 10
-14.45
 20
23.4999885774
 11
-14.4425026995
 21
23.4924912769
  0
LINE
  5
41C
100
AcDbEntity
  8
SMUSSO
100
AcDbLine
 62
7
  6
CONTINUOUS
 10
-14.1499885774
 20
23.8
 11
-14.1443358035
 21
23.7943472261
  0
LINE
  5
41D
100
AcDbEntity
  8
0
100
AcDbLine
 62
7
  6
CONTINUOUS
 10
-1.8635422904
 20
11.8050533056
 11
-1.9437510688
 21
11.9220745087
  0
LINE
  5
41E
100
AcDbEntity
  8
0
100
AcDbLine
 62
7
  6
CONTINUOUS
 10
-2.6656253058
 20
13.0922871351
 11
-2.7458340842
 21
13.2093086362
  0
LINE
  5
41F
100
AcDbEntity
  8
0
100
AcDbLine
 62
7
  6
CONTINUOUS
 10
-0.5401045997
 20
11.8635639071
 11
-0.4598958213
 21
11.7465424061
  0
LINE
  5
420
100
AcDbEntity
  8
0
100
AcDbLine
 62
7
  6
CONTINUOUS
 10
-0.2593762595
 20
11.8635639071
 11
-0.3796894271
 21
12.0390957117
  0
LINE
  5
421
100
AcDbEntity
  8
0
100
AcDbLine
 62
7
  6
CONTINUOUS
 10
-1.3822920043
 20
13.0922871351
 11
-1.3020856101
 21
12.9752659321
  0
LINE
  5
422
100
AcDbEntity
  8
0
100
AcDbLine
 62
7
  6
CONTINUOUS
 10
-1.1416680533
 20
13.1507977366
 11
-1.2213421065
 21
13.267429167
  0
LINE
  5
423
100
AcDbEntity
  8
0
100
AcDbLine
 62
7
  6
CONTINUOUS
 10
1.946353225
 20
12.9752659321
 11
2.0265620034
 21
12.8005142709
  0
LINE
  5
424
100
AcDbEntity
  8
0
100
AcDbLine
 62
7
  6
CONTINUOUS
 10
2.7888079923
 20
11.8627837658
 11
2.7481688779
 21
11.9805851102
  0
LINE
  5
425
100
AcDbEntity
  8
0
100
AcDbLine
 62
7
  6
CONTINUOUS
 10
1.2247463506
 20
12.0383155704
 11
1.1841072362
 21
12.1568970561
  0
LINE
  5
426
100
AcDbEntity
  8
0
100
AcDbLine
 62
7
  6
CONTINUOUS
 10
3.5903562825
 20
11.6303013444
 11
3.6309953969
 21
11.5117198586
  0
LINE
  5
427
100
AcDbEntity
  8
0
100
AcDbLine
 62
7
  6
CONTINUOUS
 10
3.8312499803
 20
11.5125
 11
3.7911455911
 21
11.6880318046
  0
LINE
  5
428
100
AcDbEntity
  8
0
100
AcDbLine
 62
7
  6
CONTINUOUS
 10
3.7510412019
 20
12.9167553306
 11
3.7109368127
 21
13.0922871351
  0
LINE
  5
429
100
AcDbEntity
  8
0
100
AcDbLine
 62
7
  6
CONTINUOUS
 10
3.5507866185
 20
11.805833449
 11
3.5903562825
 21
11.6303013444
  0
LINE
  5
42A
100
AcDbEntity
  8
0
100
AcDbLine
 62
7
  6
CONTINUOUS
 10
3.7911455911
 20
11.6880318046
 11
3.7510412019
 21
11.9805851102
  0
LINE
  5
42B
100
AcDbEntity
  8
0
100
AcDbLine
 62
7
  6
CONTINUOUS
 10
5.0343745034
 20
12.9167553306
 11
5.0744788926
 21
12.6242020249
  0
LINE
  5
42C
100
AcDbEntity
  8
0
100
AcDbLine
 62
7
  6
CONTINUOUS
 10
5.2749984544
 20
12.6242020249
 11
5.2348940652
 21
12.9167553306
  0
LINE
  5
42D
100
AcDbEntity
  8
SMUSSO
100
AcDbLine
 62
7
  6
CONTINUOUS
 10
8.0587268678
 20
23.2912731322
 11
8.0574973005
 21
23.4924912769
  0
LINE
  5
42E
100
AcDbEntity
  8
SMUSSO
100
AcDbLine
 62
7
  6
CONTINUOUS
 10
8.05
 20
-23.4999885774
 11
8.05
 21
-22.4
  0
LINE
  5
42F
100
AcDbEntity
  8
SMUSSO
100
AcDbLine
 62
7
  6
CONTINUOUS
 10
8.05
 20
22.4
 11
8.05
 21
23.4999885774
  0
LINE
  5
430
100
AcDbEntity
  8
SMUSSO
100
AcDbLine
 62
7
  6
CONTINUOUS
 10
8.0587268678
 20
23.2912731322
 11
8.0587268678
 21
22.3912731322
  0
LINE
  5
431
100
AcDbEntity
  8
SMUSSO
100
AcDbLine
 62
7
  6
CONTINUOUS
 10
8.0587268678
 20
-22.3912731322
 11
8.0587268678
 21
-23.2912731322
  0
LINE
  5
432
100
AcDbEntity
  8
SMUSSO
100
AcDbLine
 62
7
  6
CONTINUOUS
 10
8.0574973005
 20
-23.4924912769
 11
8.0587268678
 21
-23.2912731322
  0
LINE
  5
433
100
AcDbEntity
  8
RACCORDO
100
AcDbLine
 62
250
  6
CONTINUOUS
 10
18.054799221
 20
22.3659195224
 11
18.06530103
 21
22.3912731322
  0
LINE
  5
434
100
AcDbEntity
  8
RACCORDO
100
AcDbLine
 62
250
  6
CONTINUOUS
 10
18.7618790777
 20
22.0730374561
 11
18.7723808867
 21
22.0983910659
  0
LINE
  5
435
100
AcDbEntity
  8
DRAFT
100
AcDbLine
 62
7
  6
CONTINUOUS
 10
-10.55
 20
-22.4
 11
-10.5412731322
 21
-22.3912731322
  0
LINE
  5
436
100
AcDbEntity
  8
SMUSSO
100
AcDbLine
 62
7
  6
CONTINUOUS
 10
-10.5443472261
 20
-23.7943472261
 11
-10.55
 21
-23.8
  0
LINE
  5
437
100
AcDbEntity
  8
RACCORDO
100
AcDbLine
 62
250
  6
CONTINUOUS
 10
-22.3917094756
 20
-18.0648646866
 11
-22.3663558658
 21
-18.0543628776
  0
LINE
  5
438
100
AcDbEntity
  8
RACCORDO
100
AcDbLine
 62
250
  6
CONTINUOUS
 10
-22.0988274093
 20
-18.7719445433
 11
-22.0734737995
 21
-18.7614427343
  0
LINE
  5
439
100
AcDbEntity
  8
0
100
AcDbLine
 62
7
  6
CONTINUOUS
 10
-5.0
 20
9.25
 11
5.0
 21
9.25
  0
LINE
  5
43A
100
AcDbEntity
  8
0
100
AcDbLine
 62
7
  6
CONTINUOUS
 10
-4.6708340365
 20
11.7465424061
 11
-4.8307168761
 21
11.8046632349
  0
LINE
  5
43B
100
AcDbEntity
  8
RACCORDO
100
AcDbLine
 62
250
  6
CONTINUOUS
 10
-22.3663558658
 20
18.0543628776
 11
-22.3917094756
 21
18.0648646866
  0
LINE
  5
43C
100
AcDbEntity
  8
RACCORDO
100
AcDbLine
 62
250
  6
CONTINUOUS
 10
-22.0734737995
 20
18.7614427343
 11
-22.0988274093
 21
18.7719445433
  0
LINE
  5
43D
100
AcDbEntity
  8
0
100
AcDbLine
 62
7
  6
CONTINUOUS
 10
-4.991667958
 20
11.629521203
 11
-4.8713547904
 21
11.5710106015
  0
LINE
  5
43E
100
AcDbEntity
  8
0
100
AcDbLine
 62
7
  6
CONTINUOUS
 10
-2.0244945724
 20
11.6299112737
 11
-1.9432163436
 21
11.5706205308
  0
LINE
  5
43F
100
AcDbEntity
  8
0
100
AcDbLine
 62
7
  6
CONTINUOUS
 10
-2.9869951446
 20
13.0926772058
 11
-2.9057169158
 21
13.0333864629
  0
LINE
  5
440
100
AcDbEntity
  8
0
100
AcDbLine
 62
7
  6
CONTINUOUS
 10
-2.7458340842
 20
13.2093086362
 11
-2.8661472518
 21
13.3263298392
  0
LINE
  5
441
100
AcDbEntity
  8
0
100
AcDbLine
 62
7
  6
CONTINUOUS
 10
-0.4598958213
 20
11.7465424061
 11
-0.3395850379
 21
11.629521203
  0
LINE
  5
442
100
AcDbEntity
  8
0
100
AcDbLine
 62
7
  6
CONTINUOUS
 10
1.1442702096
 20
11.7465424061
 11
1.264580993
 21
11.629521203
  0
LINE
  5
443
100
AcDbEntity
  8
0
100
AcDbLine
 62
7
  6
CONTINUOUS
 10
0.2619784158
 20
13.0922871351
 11
0.3822915833
 21
12.9752659321
  0
LINE
  5
444
100
AcDbEntity
  8
DRAFT
100
AcDbLine
 62
7
  6
CONTINUOUS
 10
-10.5412731322
 20
22.3912731322
 11
-10.55
 21
22.4
  0
LINE
  5
445
100
AcDbEntity
  8
SMUSSO
100
AcDbLine
 62
7
  6
CONTINUOUS
 10
-10.5443472261
 20
23.7943472261
 11
-10.55
 21
23.8
  0
LINE
  5
446
100
AcDbEntity
  8
0
100
AcDbLine
 62
7
  6
CONTINUOUS
 10
1.0640614312
 20
11.8635639071
 11
1.1442702096
 21
11.7465424061
  0
LINE
  5
447
100
AcDbEntity
  8
0
100
AcDbLine
 62
7
  6
CONTINUOUS
 10
0.5828111451
 20
13.0337765336
 11
0.4624979775
 21
13.2093086362
  0
LINE
  5
448
100
AcDbEntity
  8
0
100
AcDbLine
 62
7
  6
CONTINUOUS
 10
1.3442550462
 20
11.8639539778
 11
1.2247463506
 21
12.0383155704
  0
LINE
  5
449
100
AcDbEntity
  8
0
100
AcDbLine
 62
7
  6
CONTINUOUS
 10
2.5880186837
 20
11.8050533056
 11
2.7077971261
 21
11.6299112737
  0
LINE
  5
44A
100
AcDbEntity
  8
0
100
AcDbLine
 62
7
  6
CONTINUOUS
 10
2.186977176
 20
12.9167553306
 11
2.0666663926
 21
13.1507977366
  0
LINE
  5
44B
100
AcDbEntity
  8
RACCORDO
100
AcDbLine
 62
250
  6
CONTINUOUS
 10
18.06530103
 20
-22.3912731322
 11
18.054799221
 21
-22.3659195224
  0
LINE
  5
44C
100
AcDbEntity
  8
RACCORDO
100
AcDbLine
 62
250
  6
CONTINUOUS
 10
18.7723808867
 20
-22.0983910659
 11
18.7618790777
 21
-22.0730374561
  0
LINE
  5
44D
100
AcDbEntity
  8
0
100
AcDbLine
 62
7
  6
CONTINUOUS
 10
3.5106822293
 20
13.0341666043
 11
3.5507866185
 21
12.9159751892
  0
LINE
  5
44E
100
AcDbEntity
  8
0
100
AcDbLine
 62
7
  6
CONTINUOUS
 10
5.2348940652
 20
12.9167553306
 11
5.194789676
 21
13.0922871351
  0
LINE
  5
44F
100
AcDbEntity
  8
SMUSSO
100
AcDbLine
 62
7
  6
CONTINUOUS
 10
10.5412731322
 20
-23.2912731322
 11
10.5443472261
 21
-23.7943472261
  0
LINE
  5
450
100
AcDbEntity
  8
SMUSSO
100
AcDbLine
 62
7
  6
CONTINUOUS
 10
11.9587268678
 20
23.2912731322
 11
11.9556527739
 21
23.7943472261
  0
LINE
  5
451
100
AcDbEntity
  8
SMUSSO
100
AcDbLine
 62
7
  6
CONTINUOUS
 10
10.5412731322
 20
23.2912731322
 11
10.5412731322
 21
22.3912731322
  0
LINE
  5
452
100
AcDbEntity
  8
SMUSSO
100
AcDbLine
 62
7
  6
CONTINUOUS
 10
10.5412731322
 20
-22.3912731322
 11
10.5412731322
 21
-23.2912731322
  0
LINE
  5
453
100
AcDbEntity
  8
DRAFT
100
AcDbLine
 62
7
  6
CONTINUOUS
 10
10.55
 20
-23.8
 11
10.55
 21
-22.4
  0
LINE
  5
454
100
AcDbEntity
  8
DRAFT
100
AcDbLine
 62
7
  6
CONTINUOUS
 10
10.55
 20
22.4
 11
10.55
 21
23.8
  0
LINE
  5
455
100
AcDbEntity
  8
DRAFT
100
AcDbLine
 62
7
  6
CONTINUOUS
 10
11.95
 20
-23.8
 11
11.95
 21
-22.4
  0
LINE
  5
456
100
AcDbEntity
  8
DRAFT
100
AcDbLine
 62
7
  6
CONTINUOUS
 10
11.95
 20
22.4
 11
11.95
 21
23.8
  0
LINE
  5
457
100
AcDbEntity
  8
SMUSSO
100
AcDbLine
 62
7
  6
CONTINUOUS
 10
11.9587268678
 20
23.2912731322
 11
11.9587268678
 21
22.3912731322
  0
LINE
  5
458
100
AcDbEntity
  8
SMUSSO
100
AcDbLine
 62
7
  6
CONTINUOUS
 10
11.9587268678
 20
-22.3912731322
 11
11.9587268678
 21
-23.2912731322
  0
LINE
  5
459
100
AcDbEntity
  8
SMUSSO
100
AcDbLine
 62
7
  6
CONTINUOUS
 10
10.5443472261
 20
23.7943472261
 11
10.5412731322
 21
23.2912731322
  0
LINE
  5
45A
100
AcDbEntity
  8
SMUSSO
100
AcDbLine
 62
7
  6
CONTINUOUS
 10
11.9556527739
 20
-23.7943472261
 11
11.9587268678
 21
-23.2912731322
  0
LINE
  5
45B
100
AcDbEntity
  8
SMUSSO
100
AcDbLine
 62
7
  6
CONTINUOUS
 10
-8.0574973005
 20
-23.4924912769
 11
-8.3556641965
 21
-23.7943472261
  0
LINE
  5
45C
100
AcDbEntity
  8
SMUSSO
100
AcDbLine
 62
7
  6
CONTINUOUS
 10
-8.3500114226
 20
-23.8
 11
-8.05
 21
-23.4999885774
  0
LINE
  5
45D
100
AcDbEntity
  8
0
100
AcDbLine
 62
7
  6
CONTINUOUS
 10
3.109373359
 20
12.741223526
 11
2.868749408
 21
12.6827126265
  0
LINE
  5
45E
100
AcDbEntity
  8
0
100
AcDbLine
 62
7
  6
CONTINUOUS
 10
1.6255204957
 20
11.5125
 11
1.9062488358
 21
11.5710106015
  0
LINE
  5
45F
100
AcDbEntity
  8
0
100
AcDbLine
 62
7
  6
CONTINUOUS
 10
1.8661444467
 20
11.8050533056
 11
1.5854161065
 21
11.7465424061
  0
LINE
  5
460
100
AcDbEntity
  8
0
100
AcDbLine
 62
7
  6
CONTINUOUS
 10
0.0213520806
 20
11.5125
 11
0.302082805
 21
11.5710106015
  0
LINE
  5
461
100
AcDbEntity
  8
0
100
AcDbLine
 62
7
  6
CONTINUOUS
 10
0.2619784158
 20
11.8050533056
 11
-0.0187523086
 21
11.7465424061
  0
LINE
  5
462
100
AcDbEntity
  8
0
100
AcDbLine
 62
7
  6
CONTINUOUS
 10
3.6309953969
 20
11.5117198586
 11
3.8312499803
 21
11.5125
  0
LINE
  5
463
100
AcDbEntity
  8
0
100
AcDbLine
 62
7
  6
CONTINUOUS
 10
5.625
 20
11.1375
 11
-5.625
 21
11.1375
  0
LINE
  5
464
100
AcDbEntity
  8
0
100
AcDbLine
 62
7
  6
CONTINUOUS
 10
-3.7083346564
 20
11.5125
 11
-3.5078127105
 21
11.5125
  0
LINE
  5
465
100
AcDbEntity
  8
0
100
AcDbLine
 62
7
  6
CONTINUOUS
 10
-2.7859384734
 20
11.5125
 11
-2.5854189117
 21
11.5125
  0
LINE
  5
466
100
AcDbEntity
  8
0
100
AcDbLine
 62
7
  6
CONTINUOUS
 10
-1.783333512
 20
11.5125
 11
-1.4625007827
 21
11.5125
  0
LINE
  5
467
100
AcDbEntity
  8
0
100
AcDbLine
 62
7
  6
CONTINUOUS
 10
2.9489581864
 20
11.5125
 11
3.1895821374
 21
11.5125
  0
LINE
  5
468
100
AcDbEntity
  8
0
100
AcDbLine
 62
7
  6
CONTINUOUS
 10
4.1520827096
 20
11.5125
 11
4.3526022714
 21
11.5125
  0
LINE
  5
469
100
AcDbEntity
  8
0
100
AcDbLine
 62
7
  6
CONTINUOUS
 10
5.0744788926
 20
11.5125
 11
5.2749984544
 21
11.5125
  0
LINE
  5
46A
100
AcDbEntity
  8
0
100
AcDbLine
 62
7
  6
CONTINUOUS
 10
3.1895821374
 20
11.7465424061
 11
2.9489581864
 21
11.7465424061
  0
LINE
  5
46B
100
AcDbEntity
  8
0
100
AcDbLine
 62
7
  6
CONTINUOUS
 10
-1.5427095611
 20
11.7465424061
 11
-1.7031271178
 21
11.7465424061
  0
LINE
  5
46C
100
AcDbEntity
  8
0
100
AcDbLine
 62
7
  6
CONTINUOUS
 10
2.2270815652
 20
12.0976063132
 11
2.0265620034
 21
12.0976063132
  0
LINE
  5
46D
100
AcDbEntity
  8
0
100
AcDbLine
 62
7
  6
CONTINUOUS
 10
0.6229155343
 20
12.0976063132
 11
0.4223935883
 21
12.0976063132
  0
LINE
  5
46E
100
AcDbEntity
  8
0
100
AcDbLine
 62
7
  6
CONTINUOUS
 10
-4.0291673858
 20
12.0976063132
 11
-4.2296881396
 21
12.0976063132
  0
LINE
  5
46F
100
AcDbEntity
  8
0
100
AcDbLine
 62
7
  6
CONTINUOUS
 10
-4.8713547904
 20
11.5710106015
 11
-4.6307308394
 21
11.5125
  0
LINE
  5
470
100
AcDbEntity
  8
0
100
AcDbLine
 62
7
  6
CONTINUOUS
 10
-0.2192718703
 20
11.5710106015
 11
0.0213520806
 21
11.5125
  0
LINE
  5
471
100
AcDbEntity
  8
0
100
AcDbLine
 62
7
  6
CONTINUOUS
 10
1.3848941606
 20
11.5710106015
 11
1.6255204957
 21
11.5125
  0
LINE
  5
472
100
AcDbEntity
  8
0
100
AcDbLine
 62
7
  6
CONTINUOUS
 10
-4.6708340365
 20
13.1507977366
 11
-4.4302100856
 21
13.0922871351
  0
LINE
  5
473
100
AcDbEntity
  8
0
100
AcDbLine
 62
7
  6
CONTINUOUS
 10
-4.3901056964
 20
13.3263298392
 11
-4.6307308394
 21
13.3848404408
  0
LINE
  5
474
100
AcDbEntity
  8
0
100
AcDbLine
 62
7
  6
CONTINUOUS
 10
-1.9432163436
 20
11.5706205308
 11
-1.783333512
 21
11.5125
  0
LINE
  5
475
100
AcDbEntity
  8
0
100
AcDbLine
 62
7
  6
CONTINUOUS
 10
-3.146875592
 20
13.1507977366
 11
-2.9869951446
 21
13.0926772058
  0
LINE
  5
476
100
AcDbEntity
  8
0
100
AcDbLine
 62
7
  6
CONTINUOUS
 10
1.5854161065
 20
11.7465424061
 11
1.4255332749
 21
11.8046632349
  0
LINE
  5
477
100
AcDbEntity
  8
0
100
AcDbLine
 62
7
  6
CONTINUOUS
 10
2.7890753549
 20
11.5706205308
 11
2.9489581864
 21
11.5125
  0
LINE
  5
478
100
AcDbEntity
  8
0
100
AcDbLine
 62
7
  6
CONTINUOUS
 10
-1.3026203353
 20
13.3267199099
 11
-1.4625007827
 21
13.3848404408
  0
LINE
  5
479
100
AcDbEntity
  8
0
100
AcDbLine
 62
7
  6
CONTINUOUS
 10
-1.7031271178
 20
11.7465424061
 11
-1.8635422904
 21
11.8050533056
  0
LINE
  5
47A
100
AcDbEntity
  8
0
100
AcDbLine
 62
7
  6
CONTINUOUS
 10
-1.5427095611
 20
13.1507977366
 11
-1.3822920043
 21
13.0922871351
  0
LINE
  5
47B
100
AcDbEntity
  8
0
100
AcDbLine
 62
7
  6
CONTINUOUS
 10
-0.3395850379
 20
11.629521203
 11
-0.2192718703
 21
11.5710106015
  0
LINE
  5
47C
100
AcDbEntity
  8
0
100
AcDbLine
 62
7
  6
CONTINUOUS
 10
-0.0187523086
 20
11.7465424061
 11
-0.2593762595
 21
11.8635639071
  0
LINE
  5
47D
100
AcDbEntity
  8
0
100
AcDbLine
 62
7
  6
CONTINUOUS
 10
-2.8661472518
 20
13.3263298392
 11
-2.9864604194
 21
13.3848404407
  0
LINE
  5
47E
100
AcDbEntity
  8
0
100
AcDbLine
 62
7
  6
CONTINUOUS
 10
1.264580993
 20
11.629521203
 11
1.3848941606
 21
11.5710106015
  0
LINE
  5
47F
100
AcDbEntity
  8
0
100
AcDbLine
 62
7
  6
CONTINUOUS
 10
2.9489581864
 20
11.7465424061
 11
2.7888079923
 21
11.8627837658
  0
LINE
  5
480
100
AcDbEntity
  8
0
100
AcDbLine
 62
7
  6
CONTINUOUS
 10
-1.2213421065
 20
13.267429167
 11
-1.3026203353
 21
13.3267199099
  0
LINE
  5
481
100
AcDbEntity
  8
0
100
AcDbLine
 62
7
  6
CONTINUOUS
 10
1.4255332749
 20
11.8046632349
 11
1.3442550462
 21
11.8639539778
  0
LINE
  5
482
100
AcDbEntity
  8
0
100
AcDbLine
 62
7
  6
CONTINUOUS
 10
0.4624979775
 20
13.2093086362
 11
0.302082805
 21
13.3263298392
  0
LINE
  5
483
100
AcDbEntity
  8
0
100
AcDbLine
 62
7
  6
CONTINUOUS
 10
2.7077971261
 20
11.6299112737
 11
2.7890753549
 21
11.5706205308
  0
LINE
  5
484
100
AcDbEntity
  8
0
100
AcDbLine
 62
7
  6
CONTINUOUS
 10
2.0666663926
 20
13.1507977366
 11
1.8661444467
 21
13.3263298392
  0
LINE
  5
485
100
AcDbEntity
  8
0
100
AcDbLine
 62
7
  6
CONTINUOUS
 10
1.8260400575
 20
13.0922871351
 11
1.946353225
 21
12.9752659321
  0
LINE
  5
486
100
AcDbEntity
  8
0
100
AcDbLine
 62
7
  6
CONTINUOUS
 10
3.6307280343
 20
13.2093086362
 11
3.5104148667
 21
13.3263298392
  0
LINE
  5
487
100
AcDbEntity
  8
SMUSSO
100
AcDbLine
 62
7
  6
CONTINUOUS
 10
-8.3500114226
 20
23.8
 11
-8.05
 21
23.4999885774
  0
LINE
  5
488
100
AcDbEntity
  8
SMUSSO
100
AcDbLine
 62
7
  6
CONTINUOUS
 10
-8.3556641965
 20
23.7943472261
 11
-8.0574973005
 21
23.4924912769
  0
LINE
  5
489
100
AcDbEntity
  8
0
100
AcDbLine
 62
7
  6
CONTINUOUS
 10
3.7109368127
 20
13.0922871351
 11
3.6307280343
 21
13.2093086362
  0
LINE
  5
48A
100
AcDbEntity
  8
0
100
AcDbLine
 62
7
  6
CONTINUOUS
 10
5.194789676
 20
13.0922871351
 11
5.1145832818
 21
13.2093086362
  0
LINE
  5
48B
100
AcDbEntity
  8
0
100
AcDbLine
 62
7
  6
CONTINUOUS
 10
4.9547004502
 20
13.0333864629
 11
5.0343745034
 21
12.9167553306
  0
LINE
  5
48C
100
AcDbEntity
  8
SMUSSO
100
AcDbLine
 62
7
  6
CONTINUOUS
 10
14.4412731322
 20
-23.2912731322
 11
14.4425026995
 21
-23.4924912769
  0
LINE
  5
48D
100
AcDbEntity
  8
0
100
AcDbLine
 62
7
  6
CONTINUOUS
 10
12.5
 20
-18.15
 11
12.5
 21
-19.75
  0
LINE
  5
48E
100
AcDbEntity
  8
0
100
AcDbLine
 62
7
  6
CONTINUOUS
 10
12.5
 20
18.65
 11
12.5
 21
20.0738174026
  0
LINE
  5
48F
100
AcDbEntity
  8
0
100
AcDbLine
 62
250
  6
CONTINUOUS
 10
12.7
 20
-19.75
 11
12.7
 21
-17.95
  0
LINE
  5
490
100
AcDbEntity
  8
0
100
AcDbLine
 62
250
  6
CONTINUOUS
 10
12.7
 20
18.45
 11
12.7
 21
20.0738174026
  0
LINE
  5
491
100
AcDbEntity
  8
RACCORDO
100
AcDbLine
 62
7
  6
CONTINUOUS
 10
12.8238174026
 20
20.0738174026
 11
12.8238174026
 21
18.7737717112
  0
LINE
  5
492
100
AcDbEntity
  8
RACCORDO
100
AcDbLine
 62
7
  6
CONTINUOUS
 10
12.8238174026
 20
-18.7737717112
 11
12.8238174026
 21
-20.0738174026
  0
LINE
  5
493
100
AcDbEntity
  8
0
100
AcDbLine
 62
7
  6
CONTINUOUS
 10
13.75
 20
-11.25
 11
13.75
 21
0.75
  0
LINE
  5
494
100
AcDbEntity
  8
SMUSSO
100
AcDbLine
 62
7
  6
CONTINUOUS
 10
14.4412731322
 20
-23.2912731322
 11
14.4412731322
 21
-22.3912731322
  0
LINE
  5
495
100
AcDbEntity
  8
SMUSSO
100
AcDbLine
 62
7
  6
CONTINUOUS
 10
14.4412731322
 20
22.3912731322
 11
14.4412731322
 21
23.2912731322
  0
LINE
  5
496
100
AcDbEntity
  8
SMUSSO
100
AcDbLine
 62
7
  6
CONTINUOUS
 10
14.45
 20
23.4999885774
 11
14.45
 21
22.4
  0
LINE
  5
497
100
AcDbEntity
  8
SMUSSO
100
AcDbLine
 62
7
  6
CONTINUOUS
 10
14.45
 20
-22.4
 11
14.45
 21
-23.4999885774
  0
LINE
  5
498
100
AcDbEntity
  8
SMUSSO
100
AcDbLine
 62
7
  6
CONTINUOUS
 10
14.4425026995
 20
23.4924912769
 11
14.4412731322
 21
23.2912731322
  0
LINE
  5
499
100
AcDbEntity
  8
RACCORDO
100
AcDbLine
 62
7
  6
CONTINUOUS
 10
18.9070429525
 20
1.6570429525
 11
18.9
 21
1.65
  0
LINE
  5
49A
100
AcDbEntity
  8
DRAFT
100
AcDbLine
 62
7
  6
CONTINUOUS
 10
20.0144701819
 20
1.65
 11
20.0249432208
 21
1.660473039
  0
LINE
  5
49B
100
AcDbEntity
  8
0
100
AcDbLine
 62
7
  6
CONTINUOUS
 10
1.6255204957
 20
13.3848404408
 11
1.3848941606
 21
13.3263298392
  0
LINE
  5
49C
100
AcDbEntity
  8
0
100
AcDbLine
 62
7
  6
CONTINUOUS
 10
0.0213520806
 20
13.3848404408
 11
-0.2192718703
 21
13.3263298392
  0
LINE
  5
49D
100
AcDbEntity
  8
0
100
AcDbLine
 62
7
  6
CONTINUOUS
 10
-4.6307308394
 20
13.3848404408
 11
-4.8713547904
 21
13.3263298392
  0
LINE
  5
49E
100
AcDbEntity
  8
0
100
AcDbLine
 62
7
  6
CONTINUOUS
 10
-4.6307308394
 20
11.5125
 11
-4.3500013072
 21
11.5710106015
  0
LINE
  5
49F
100
AcDbEntity
  8
0
100
AcDbLine
 62
7
  6
CONTINUOUS
 10
-4.3901056964
 20
11.8050533056
 11
-4.6708340365
 21
11.7465424061
  0
LINE
  5
4A0
100
AcDbEntity
  8
0
100
AcDbLine
 62
7
  6
CONTINUOUS
 10
3.0291645806
 20
13.3848404408
 11
2.7489709657
 21
13.3267199099
  0
LINE
  5
4A1
100
AcDbEntity
  8
0
100
AcDbLine
 62
7
  6
CONTINUOUS
 10
3.109373359
 20
12.5071808219
 11
3.5505192559
 21
12.5071808219
  0
LINE
  5
4A2
100
AcDbEntity
  8
0
100
AcDbLine
 62
7
  6
CONTINUOUS
 10
3.5505192559
 20
12.741223526
 11
3.109373359
 21
12.741223526
  0
LINE
  5
4A3
100
AcDbEntity
  8
0
100
AcDbLine
 62
7
  6
CONTINUOUS
 10
0.4223935883
 20
12.7997341275
 11
0.6229155343
 21
12.7997341275
  0
LINE
  5
4A4
100
AcDbEntity
  8
0
100
AcDbLine
 62
7
  6
CONTINUOUS
 10
2.5479166787
 20
12.9159751892
 11
2.7481688779
 21
12.9159751892
  0
LINE
  5
4A5
100
AcDbEntity
  8
0
100
AcDbLine
 62
7
  6
CONTINUOUS
 10
-1.7031271178
 20
13.1507977366
 11
-1.5427095611
 21
13.1507977366
  0
LINE
  5
4A6
100
AcDbEntity
  8
0
100
AcDbLine
 62
7
  6
CONTINUOUS
 10
3.0291645806
 20
13.1507977366
 11
3.2697909158
 21
13.1507977366
  0
LINE
  5
4A7
100
AcDbEntity
  8
0
100
AcDbLine
 62
7
  6
CONTINUOUS
 10
4.8739569467
 20
13.3848404407
 11
4.7135393899
 21
13.3848404408
  0
LINE
  5
4A8
100
AcDbEntity
  8
0
100
AcDbLine
 62
7
  6
CONTINUOUS
 10
4.3526022714
 20
13.3848404408
 11
4.1520827096
 21
13.3848404408
  0
LINE
  5
4A9
100
AcDbEntity
  8
0
100
AcDbLine
 62
7
  6
CONTINUOUS
 10
3.2697909158
 20
13.3848404408
 11
3.0291645806
 21
13.3848404408
  0
LINE
  5
4AA
100
AcDbEntity
  8
0
100
AcDbLine
 62
7
  6
CONTINUOUS
 10
-1.4625007827
 20
13.3848404408
 11
-1.783333512
 21
13.3848404407
  0
LINE
  5
4AB
100
AcDbEntity
  8
0
100
AcDbLine
 62
7
  6
CONTINUOUS
 10
-2.9864604194
 20
13.3848404407
 11
-3.146875592
 21
13.3848404407
  0
LINE
  5
4AC
100
AcDbEntity
  8
0
100
AcDbLine
 62
7
  6
CONTINUOUS
 10
-3.5078127105
 20
13.3848404408
 11
-3.7083346564
 21
13.3848404408
  0
LINE
  5
4AD
100
AcDbEntity
  8
0
100
AcDbLine
 62
7
  6
CONTINUOUS
 10
-5.625
 20
13.7625
 11
5.625
 21
13.7625
  0
LINE
  5
4AE
100
AcDbEntity
  8
0
100
AcDbLine
 62
7
  6
CONTINUOUS
 10
-4.2296881396
 20
12.6819324831
 11
-5.0718767364
 21
12.6823225538
  0
LINE
  5
4AF
100
AcDbEntity
  8
0
100
AcDbLine
 62
7
  6
CONTINUOUS
 10
2.0265620034
 20
12.6819324831
 11
1.1843745988
 21
12.6823225538
  0
LINE
  5
4B0
100
AcDbEntity
  8
0
100
AcDbLine
 62
7
  6
CONTINUOUS
 10
-5.1119799335
 20
12.4494503617
 11
-4.0291673858
 21
12.4486702204
  0
LINE
  5
4B1
100
AcDbEntity
  8
0
100
AcDbLine
 62
7
  6
CONTINUOUS
 10
1.1442702096
 20
12.4494503617
 11
2.2270815652
 21
12.4486702204
  0
LINE
  5
4B2
100
AcDbEntity
  8
0
100
AcDbLine
 62
7
  6
CONTINUOUS
 10
-0.0187523086
 20
13.1507977366
 11
0.2619784158
 21
13.0922871351
  0
LINE
  5
4B3
100
AcDbEntity
  8
0
100
AcDbLine
 62
7
  6
CONTINUOUS
 10
0.302082805
 20
13.3263298392
 11
0.0213520806
 21
13.3848404408
  0
LINE
  5
4B4
100
AcDbEntity
  8
0
100
AcDbLine
 62
7
  6
CONTINUOUS
 10
1.5854161065
 20
13.1507977366
 11
1.8260400575
 21
13.0922871351
  0
LINE
  5
4B5
100
AcDbEntity
  8
0
100
AcDbLine
 62
7
  6
CONTINUOUS
 10
1.8661444467
 20
13.3263298392
 11
1.6255204957
 21
13.3848404408
  0
LINE
  5
4B6
100
AcDbEntity
  8
0
100
AcDbLine
 62
7
  6
CONTINUOUS
 10
3.5104148667
 20
13.3263298392
 11
3.2697909158
 21
13.3848404408
  0
LINE
  5
4B7
100
AcDbEntity
  8
0
100
AcDbLine
 62
7
  6
CONTINUOUS
 10
3.2697909158
 20
13.1507977366
 11
3.4296713632
 21
13.0926772058
  0
LINE
  5
4B8
100
AcDbEntity
  8
0
100
AcDbLine
 62
7
  6
CONTINUOUS
 10
4.7135393899
 20
13.1507977366
 11
4.8734222215
 21
13.0926772058
  0
LINE
  5
4B9
100
AcDbEntity
  8
0
100
AcDbLine
 62
7
  6
CONTINUOUS
 10
4.9942701142
 20
13.3263298392
 11
4.8739569467
 21
13.3848404407
  0
LINE
  5
4BA
100
AcDbEntity
  8
0
100
AcDbLine
 62
7
  6
CONTINUOUS
 10
3.4296713632
 20
13.0926772058
 11
3.5106822293
 21
13.0341666043
  0
LINE
  5
4BB
100
AcDbEntity
  8
0
100
AcDbLine
 62
7
  6
CONTINUOUS
 10
4.8734222215
 20
13.0926772058
 11
4.9547004502
 21
13.0333864629
  0
LINE
  5
4BC
100
AcDbEntity
  8
0
100
AcDbLine
 62
7
  6
CONTINUOUS
 10
5.1145832818
 20
13.2093086362
 11
4.9942701142
 21
13.3263298392
  0
LINE
  5
4BD
100
AcDbEntity
  8
DRAFT
100
AcDbLine
 62
7
  6
CONTINUOUS
 10
20.0144701819
 20
-1.65
 11
20.0249432208
 21
-1.660473039
  0
LINE
  5
4BE
100
AcDbEntity
  8
0
100
AcDbLine
 62
7
  6
CONTINUOUS
 10
1.5
 20
15.25
 11
-1.5
 21
15.25
  0
LINE
  5
4BF
100
AcDbEntity
  8
0
100
AcDbLine
 62
7
  6
CONTINUOUS
 10
-0.2
 20
15.75
 11
0.2
 21
15.75
  0
LINE
  5
4C0
100
AcDbEntity
  8
0
100
AcDbLine
 62
7
  6
CONTINUOUS
 10
0.2
 20
16.05
 11
-0.2
 21
16.05
  0
LINE
  5
4C1
100
AcDbEntity
  8
RACCORDO
100
AcDbLine
 62
250
  6
CONTINUOUS
 10
19.4065641897
 20
-23.9443375673
 11
19.4
 21
-23.5100652985
  0
LINE
  5
4C2
100
AcDbEntity
  8
0
100
AcDbLine
 62
7
  6
CONTINUOUS
 10
17.6
 20
-3.45
 11
17.6
 21
3.95
  0
LINE
  5
4C3
100
AcDbEntity
  8
RACCORDO
100
AcDbLine
 62
250
  6
CONTINUOUS
 10
18.054799221
 20
22.3659195224
 11
18.054799221
 21
21.7659423686
  0
LINE
  5
4C4
100
AcDbEntity
  8
RACCORDO
100
AcDbLine
 62
250
  6
CONTINUOUS
 10
18.054799221
 20
-22.3659195224
 11
18.054799221
 21
-21.7659423686
  0
LINE
  5
4C5
100
AcDbEntity
  8
0
100
AcDbLine
 62
7
  6
CONTINUOUS
 10
18.6
 20
-3.45
 11
18.6
 21
3.95
  0
LINE
  5
4C6
100
AcDbEntity
  8
DRAFT
100
AcDbLine
 62
7
  6
CONTINUOUS
 10
18.9
 20
2.15
 11
18.9
 21
1.65
  0
LINE
  5
4C7
100
AcDbEntity
  8
RACCORDO
100
AcDbLine
 62
250
  6
CONTINUOUS
 10
18.9070429525
 20
1.6570429525
 11
18.9070429525
 21
2.15
  0
LINE
  5
4C8
100
AcDbEntity
  8
RACCORDO
100
AcDbLine
 62
250
  6
CONTINUOUS
 10
19.1070124916
 20
1.660473039
 11
19.1070124916
 21
2.15
  0
LINE
  5
4C9
100
AcDbEntity
  8
RACCORDO
100
AcDbLine
 62
250
  6
CONTINUOUS
 10
19.4065641897
 20
23.9443375673
 11
19.4
 21
23.5100652985
  0
LINE
  5
4CA
100
AcDbEntity
  8
DRAFT
100
AcDbLine
 62
7
  6
CONTINUOUS
 10
20.1209527545
 20
3.7463366087
 11
20.0249432208
 21
3.4580737766
  0
LINE
  5
4CB
100
AcDbEntity
  8
RACCORDO
100
AcDbLine
 62
250
  6
CONTINUOUS
 10
-22.3663558658
 20
18.0543628776
 11
-21.766378712
 21
18.0543628776
  0
LINE
  5
4CC
100
AcDbEntity
  8
RACCORDO
100
AcDbLine
 62
250
  6
CONTINUOUS
 10
22.3663558658
 20
18.0543628776
 11
21.766378712
 21
18.0543628776
  0
LINE
  5
4CD
100
AcDbEntity
  8
0
100
AcDbLine
 62
7
  6
CONTINUOUS
 10
18.4239461936
 20
18.45
 11
12.7
 21
18.45
  0
LINE
  5
4CE
100
AcDbEntity
  8
0
100
AcDbLine
 62
7
  6
CONTINUOUS
 10
-0.2
 20
18.45
 11
0.2
 21
18.45
  0
LINE
  5
4CF
100
AcDbEntity
  8
0
100
AcDbLine
 62
7
  6
CONTINUOUS
 10
-12.7
 20
18.45
 11
-18.4239461936
 21
18.45
  0
LINE
  5
4D0
100
AcDbEntity
  8
RACCORDO
100
AcDbLine
 62
7
  6
CONTINUOUS
 10
-18.400128791
 20
18.4738174026
 11
-13.1237717112
 21
18.4738174026
  0
LINE
  5
4D1
100
AcDbEntity
  8
RACCORDO
100
AcDbLine
 62
7
  6
CONTINUOUS
 10
13.1237717112
 20
18.4738174026
 11
18.400128791
 21
18.4738174026
  0
LINE
  5
4D2
100
AcDbEntity
  8
0
100
AcDbLine
 62
250
  6
CONTINUOUS
 10
12.8507120826
 20
18.65
 11
12.5
 21
18.65
  0
LINE
  5
4D3
100
AcDbEntity
  8
0
100
AcDbLine
 62
250
  6
CONTINUOUS
 10
-12.5
 20
18.65
 11
-12.8507120814
 21
18.65
  0
LINE
  5
4D4
100
AcDbEntity
  8
0
100
AcDbLine
 62
7
  6
CONTINUOUS
 10
0.2
 20
18.75
 11
-0.2
 21
18.75
  0
LINE
  5
4D5
100
AcDbEntity
  8
0
100
AcDbLine
 62
7
  6
CONTINUOUS
 10
-1.5
 20
19.25
 11
1.5
 21
19.25
  0
LINE
  5
4D6
100
AcDbEntity
  8
DRAFT
100
AcDbLine
 62
7
  6
CONTINUOUS
 10
20.1209527545
 20
-3.7463366087
 11
20.0249432208
 21
-3.4580737766
  0
LINE
  5
4D7
100
AcDbEntity
  8
RACCORDO
100
AcDbLine
 62
250
  6
CONTINUOUS
 10
19.6565546704
 20
-23.7278312164
 11
19.6489186611
 21
-23.2226497308
  0
LINE
  5
4D8
100
AcDbEntity
  8
RACCORDO
100
AcDbLine
 62
250
  6
CONTINUOUS
 10
21.1434453296
 20
23.7278312164
 11
21.1510813389
 21
23.2226497308
  0
LINE
  5
4D9
100
AcDbEntity
  8
RACCORDO
100
AcDbLine
 62
250
  6
CONTINUOUS
 10
19.4065641897
 20
-24.2434453296
 11
19.4065738754
 21
-24.2456269649
  0
LINE
  5
4DA
100
AcDbEntity
  8
RACCORDO
100
AcDbLine
 62
250
  6
CONTINUOUS
 10
21.3934358103
 20
24.2434453296
 11
21.3934261246
 21
24.2456269649
  0
LINE
  5
4DB
100
AcDbEntity
  8
RACCORDO
100
AcDbLine
 62
7
  6
CONTINUOUS
 10
19.4
 20
-24.2500095192
 11
19.4
 21
-22.4
  0
LINE
  5
4DC
100
AcDbEntity
  8
RACCORDO
100
AcDbLine
 62
7
  6
CONTINUOUS
 10
19.4
 20
22.4
 11
19.4
 21
24.2500095192
  0
LINE
  5
4DD
100
AcDbEntity
  8
RACCORDO
100
AcDbLine
 62
7
  6
CONTINUOUS
 10
19.4065641897
 20
24.2434453296
 11
19.4065641897
 21
23.9443375673
  0
LINE
  5
4DE
100
AcDbEntity
  8
RACCORDO
100
AcDbLine
 62
7
  6
CONTINUOUS
 10
19.4065641897
 20
-24.2434453296
 11
19.4065641897
 21
-23.9443375673
  0
LINE
  5
4DF
100
AcDbEntity
  8
RACCORDO
100
AcDbLine
 62
250
  6
CONTINUOUS
 10
19.6565546704
 20
-24.4934358103
 11
19.6565546704
 21
-23.7278312164
  0
LINE
  5
4E0
100
AcDbEntity
  8
RACCORDO
100
AcDbLine
 62
250
  6
CONTINUOUS
 10
19.6565546704
 20
24.4934358103
 11
19.6565546704
 21
23.7278312164
  0
LINE
  5
4E1
100
AcDbEntity
  8
SUPERFICI
100
AcDbLine
 62
7
  6
CONTINUOUS
 10
19.9
 20
-3.3500013874
 11
19.9
 21
-1.65
  0
LINE
  5
4E2
100
AcDbEntity
  8
0
100
AcDbLine
 62
7
  6
CONTINUOUS
 10
19.9
 20
-3.3500013874
 11
19.9
 21
-1.65
  0
LINE
  5
4E3
100
AcDbEntity
  8
SUPERFICI
100
AcDbLine
 62
7
  6
CONTINUOUS
 10
19.9
 20
2.15
 11
19.9
 21
3.8499986126
  0
LINE
  5
4E4
100
AcDbEntity
  8
0
100
AcDbLine
 62
7
  6
CONTINUOUS
 10
19.9
 20
2.15
 11
19.9
 21
3.8499986126
  0
LINE
  5
4E5
100
AcDbEntity
  8
0
100
AcDbLine
 62
7
  6
CONTINUOUS
 10
20.0
 20
1.5
 11
20.0
 21
-0.9997703907
  0
LINE
  5
4E6
100
AcDbEntity
  8
SUPERFICI
100
AcDbLine
 62
7
  6
CONTINUOUS
 10
20.0
 20
1.5
 11
20.0
 21
-1.0
  0
LINE
  5
4E7
100
AcDbEntity
  8
0
100
AcDbLine
 62
7
  6
CONTINUOUS
 10
20.0
 20
-16.3428932188
 11
20.0
 21
-13.1637819484
  0
LINE
  5
4E8
100
AcDbEntity
  8
0
100
AcDbLine
 62
7
  6
CONTINUOUS
 10
20.0
 20
-12.8362180516
 11
20.0
 21
-3.45
  0
LINE
  5
4E9
100
AcDbEntity
  8
SUPERFICI
100
AcDbLine
 62
7
  6
CONTINUOUS
 10
20.0
 20
-3.45
 11
20.0
 21
-3.3500017067
  0
LINE
  5
4EA
100
AcDbEntity
  8
0
100
AcDbLine
 62
7
  6
CONTINUOUS
 10
20.0
 20
-3.45
 11
20.0
 21
-3.3500017067
  0
LINE
  5
4EB
100
AcDbEntity
  8
SUPERFICI
100
AcDbLine
 62
7
  6
CONTINUOUS
 10
20.0
 20
3.8499982933
 11
20.0
 21
3.95
  0
LINE
  5
4EC
100
AcDbEntity
  8
0
100
AcDbLine
 62
7
  6
CONTINUOUS
 10
20.0
 20
3.8499982933
 11
20.0
 21
3.95
  0
LINE
  5
4ED
100
AcDbEntity
  8
0
100
AcDbLine
 62
7
  6
CONTINUOUS
 10
20.0
 20
3.95
 11
20.0
 21
12.8362180516
  0
LINE
  5
4EE
100
AcDbEntity
  8
0
100
AcDbLine
 62
7
  6
CONTINUOUS
 10
20.0
 20
13.1637819484
 11
20.0
 21
16.8428932188
  0
LINE
  5
4EF
100
AcDbEntity
  8
DRAFT
100
AcDbLine
 62
7
  6
CONTINUOUS
 10
20.0144701819
 20
1.65
 11
20.0144701819
 21
-1.65
  0
LINE
  5
4F0
100
AcDbEntity
  8
DRAFT
100
AcDbLine
 62
7
  6
CONTINUOUS
 10
20.0249432208
 20
-3.4580737766
 11
20.0249432208
 21
-1.660473039
  0
LINE
  5
4F1
100
AcDbEntity
  8
DRAFT
100
AcDbLine
 62
7
  6
CONTINUOUS
 10
20.0249432208
 20
1.660473039
 11
20.0249432208
 21
3.4580737766
  0
LINE
  5
4F2
100
AcDbEntity
  8
DRAFT
100
AcDbLine
 62
7
  6
CONTINUOUS
 10
20.0738174026
 20
16.800128791
 11
20.0738174026
 21
13.3086041469
  0
LINE
  5
4F3
100
AcDbEntity
  8
DRAFT
100
AcDbLine
 62
7
  6
CONTINUOUS
 10
20.0738174026
 20
12.6913958531
 11
20.0738174026
 21
3.7620356259
  0
LINE
  5
4F4
100
AcDbEntity
  8
DRAFT
100
AcDbLine
 62
7
  6
CONTINUOUS
 10
20.0738174026
 20
-3.7620356259
 11
20.0738174026
 21
-12.6913958531
  0
LINE
  5
4F5
100
AcDbEntity
  8
DRAFT
100
AcDbLine
 62
7
  6
CONTINUOUS
 10
20.0738174026
 20
-13.3086041469
 11
20.0738174026
 21
-16.800128791
  0
LINE
  5
4F6
100
AcDbEntity
  8
DRAFT
100
AcDbLine
 62
7
  6
CONTINUOUS
 10
20.1261825974
 20
3.7620388964
 11
20.1261825974
 21
-3.7620388964
  0
LINE
  5
4F7
100
AcDbEntity
  8
RACCORDO
100
AcDbLine
 62
250
  6
CONTINUOUS
 10
21.1434453296
 20
24.4934358103
 11
21.1434453296
 21
23.7278312164
  0
LINE
  5
4F8
100
AcDbEntity
  8
RACCORDO
100
AcDbLine
 62
250
  6
CONTINUOUS
 10
21.1434453296
 20
-23.7278312164
 11
21.1434453296
 21
-24.4934358103
  0
LINE
  5
4F9
100
AcDbEntity
  8
RACCORDO
100
AcDbLine
 62
7
  6
CONTINUOUS
 10
21.3934358103
 20
24.2434453296
 11
21.3934358103
 21
23.9443375673
  0
LINE
  5
4FA
100
AcDbEntity
  8
RACCORDO
100
AcDbLine
 62
7
  6
CONTINUOUS
 10
21.3934358103
 20
-23.9443375673
 11
21.3934358103
 21
-24.2434453296
  0
LINE
  5
4FB
100
AcDbEntity
  8
RACCORDO
100
AcDbLine
 62
7
  6
CONTINUOUS
 10
21.4
 20
24.2500095192
 11
21.4
 21
22.4
  0
LINE
  5
4FC
100
AcDbEntity
  8
RACCORDO
100
AcDbLine
 62
7
  6
CONTINUOUS
 10
21.4
 20
-22.4
 11
21.4
 21
-24.2500095192
  0
LINE
  5
4FD
100
AcDbEntity
  8
RACCORDO
100
AcDbLine
 62
250
  6
CONTINUOUS
 10
19.4065738754
 20
24.2456269649
 11
19.4065641897
 21
24.2434453296
  0
LINE
  5
4FE
100
AcDbEntity
  8
RACCORDO
100
AcDbLine
 62
250
  6
CONTINUOUS
 10
19.6565546704
 20
23.7278312164
 11
19.6489186611
 21
23.2226497308
  0
LINE
  5
4FF
100
AcDbEntity
  8
RACCORDO
100
AcDbLine
 62
250
  6
CONTINUOUS
 10
21.1510813389
 20
-23.2226497308
 11
21.1434453296
 21
-23.7278312164
  0
LINE
  5
500
100
AcDbEntity
  8
DRAFT
100
AcDbLine
 62
7
  6
CONTINUOUS
 10
22.400432253
 20
5.1571987739
 11
22.37425574
 21
5.0
  0
LINE
  5
501
100
AcDbEntity
  8
DRAFT
100
AcDbLine
 62
7
  6
CONTINUOUS
 10
20.0738174026
 20
-3.7620356259
 11
20.1
 21
-3.6834272275
  0
LINE
  5
502
100
AcDbEntity
  8
DRAFT
100
AcDbLine
 62
7
  6
CONTINUOUS
 10
22.5
 20
-0.3985075585
 11
22.47425574
 21
-0.45
  0
LINE
  5
503
100
AcDbEntity
  8
DRAFT
100
AcDbLine
 62
7
  6
CONTINUOUS
 10
8.0587268678
 20
-22.3912731322
 11
8.05
 21
-22.4
  0
LINE
  5
504
100
AcDbEntity
  8
DRAFT
100
AcDbLine
 62
7
  6
CONTINUOUS
 10
-12.8238174026
 20
20.0738174026
 11
12.8238174026
 21
20.0738174026
  0
LINE
  5
505
100
AcDbEntity
  8
DRAFT
100
AcDbLine
 62
7
  6
CONTINUOUS
 10
8.0587268678
 20
22.3912731322
 11
8.05
 21
22.4
  0
LINE
  5
506
100
AcDbEntity
  8
DRAFT
100
AcDbLine
 62
7
  6
CONTINUOUS
 10
22.5
 20
0.3985075585
 11
22.47425574
 21
0.45
  0
LINE
  5
507
100
AcDbEntity
  8
DRAFT
100
AcDbLine
 62
7
  6
CONTINUOUS
 10
20.0738174026
 20
3.7620356259
 11
20.1
 21
3.6834272275
  0
LINE
  5
508
100
AcDbEntity
  8
DRAFT
100
AcDbLine
 62
7
  6
CONTINUOUS
 10
22.400432253
 20
-5.1571987739
 11
22.37425574
 21
-5.0
  0
LINE
  5
509
100
AcDbEntity
  8
RACCORDO
100
AcDbLine
 62
250
  6
CONTINUOUS
 10
21.3934358103
 20
23.9443375673
 11
21.4
 21
23.5100652985
  0
LINE
  5
50A
100
AcDbEntity
  8
RACCORDO
100
AcDbLine
 62
250
  6
CONTINUOUS
 10
21.766378712
 20
18.0543628776
 11
21.766378712
 21
-18.0543628776
  0
LINE
  5
50B
100
AcDbEntity
  8
RACCORDO
100
AcDbLine
 62
250
  6
CONTINUOUS
 10
22.3663558658
 20
18.0543628776
 11
22.3663558658
 21
-18.0543628776
  0
LINE
  5
50C
100
AcDbEntity
  8
DRAFT
100
AcDbLine
 62
7
  6
CONTINUOUS
 10
22.37425574
 20
-5.0
 11
22.37425574
 21
5.0
  0
LINE
  5
50D
100
AcDbEntity
  8
RACCORDO
100
AcDbLine
 62
7
  6
CONTINUOUS
 10
22.3917094756
 20
21.8912921707
 11
22.3917094756
 21
18.0648646866
  0
LINE
  5
50E
100
AcDbEntity
  8
RACCORDO
100
AcDbLine
 62
7
  6
CONTINUOUS
 10
22.3917094756
 20
-18.0648646866
 11
22.3917094756
 21
-21.8912921707
  0
LINE
  5
50F
100
AcDbEntity
  8
RACCORDO
100
AcDbLine
 62
7
  6
CONTINUOUS
 10
22.4000125295
 20
21.8995952303
 11
22.400432253
 21
5.1571987739
  0
LINE
  5
510
100
AcDbEntity
  8
RACCORDO
100
AcDbLine
 62
7
  6
CONTINUOUS
 10
22.400432253
 20
-5.1571987739
 11
22.4000125295
 21
-21.8995952303
  0
LINE
  5
511
100
AcDbEntity
  8
DRAFT
100
AcDbLine
 62
7
  6
CONTINUOUS
 10
22.47425574
 20
0.45
 11
22.47425574
 21
-0.45
  0
LINE
  5
512
100
AcDbEntity
  8
DRAFT
100
AcDbLine
 62
7
  6
CONTINUOUS
 10
22.5
 20
0.3985075585
 11
22.5
 21
-0.3985075585
  0
LINE
  5
513
100
AcDbEntity
  8
RACCORDO
100
AcDbLine
 62
250
  6
CONTINUOUS
 10
21.4
 20
-23.5100652985
 11
21.3934358103
 21
-23.9443375673
  0
LINE
  5
514
100
AcDbEntity
  8
SMUSSO
100
AcDbLine
 62
7
  6
CONTINUOUS
 10
8.0574973005
 20
-23.4924912769
 11
8.05
 21
-23.4999885774
  0
LINE
  5
515
100
AcDbEntity
  8
SMUSSO
100
AcDbLine
 62
7
  6
CONTINUOUS
 10
8.3556641965
 20
-23.7943472261
 11
8.3500114226
 21
-23.8
  0
LINE
  5
516
100
AcDbEntity
  8
RACCORDO
100
AcDbLine
 62
250
  6
CONTINUOUS
 10
-18.054799221
 20
21.7659423686
 11
18.054799221
 21
21.7659423686
  0
LINE
  5
517
100
AcDbEntity
  8
RACCORDO
100
AcDbLine
 62
250
  6
CONTINUOUS
 10
-18.054799221
 20
22.3659195224
 11
18.054799221
 21
22.3659195224
  0
LINE
  5
518
100
AcDbEntity
  8
RACCORDO
100
AcDbLine
 62
7
  6
CONTINUOUS
 10
-21.8917285141
 20
22.3912731322
 11
-18.06530103
 21
22.3912731322
  0
LINE
  5
519
100
AcDbEntity
  8
DRAFT
100
AcDbLine
 62
7
  6
CONTINUOUS
 10
-14.4412731322
 20
22.3912731322
 11
-11.9587268678
 21
22.3912731322
  0
LINE
  5
51A
100
AcDbEntity
  8
DRAFT
100
AcDbLine
 62
7
  6
CONTINUOUS
 10
-10.5412731322
 20
22.3912731322
 11
-8.0587268678
 21
22.3912731322
  0
LINE
  5
51B
100
AcDbEntity
  8
DRAFT
100
AcDbLine
 62
7
  6
CONTINUOUS
 10
8.0587268678
 20
22.3912731322
 11
10.5412731322
 21
22.3912731322
  0
LINE
  5
51C
100
AcDbEntity
  8
DRAFT
100
AcDbLine
 62
7
  6
CONTINUOUS
 10
11.9587268678
 20
22.3912731322
 11
14.4412731322
 21
22.3912731322
  0
LINE
  5
51D
100
AcDbEntity
  8
RACCORDO
100
AcDbLine
 62
7
  6
CONTINUOUS
 10
18.06530103
 20
22.3912731322
 11
21.8917285141
 21
22.3912731322
  0
LINE
  5
51E
100
AcDbEntity
  8
RACCORDO
100
AcDbLine
 62
7
  6
CONTINUOUS
 10
-21.9004553819
 20
22.4
 11
-21.4
 21
22.4
  0
LINE
  5
51F
100
AcDbEntity
  8
DRAFT
100
AcDbLine
 62
7
  6
CONTINUOUS
 10
-11.95
 20
22.4
 11
-10.55
 21
22.4
  0
LINE
  5
520
100
AcDbEntity
  8
DRAFT
100
AcDbLine
 62
7
  6
CONTINUOUS
 10
8.05
 20
22.4
 11
-8.05
 21
22.4
  0
LINE
  5
521
100
AcDbEntity
  8
DRAFT
100
AcDbLine
 62
7
  6
CONTINUOUS
 10
10.55
 20
22.4
 11
11.95
 21
22.4
  0
LINE
  5
522
100
AcDbEntity
  8
DRAFT
100
AcDbLine
 62
7
  6
CONTINUOUS
 10
14.45
 20
22.4
 11
21.4
 21
22.4
  0
LINE
  5
523
100
AcDbEntity
  8
RACCORDO
100
AcDbLine
 62
7
  6
CONTINUOUS
 10
21.4
 20
22.4
 11
21.9004553819
 21
22.4
  0
LINE
  5
524
100
AcDbEntity
  8
DRAFT
100
AcDbLine
 62
7
  6
CONTINUOUS
 10
-14.45
 20
22.4
 11
-21.4
 21
22.4
  0
LINE
  5
525
100
AcDbEntity
  8
RACCORDO
100
AcDbLine
 62
7
  6
CONTINUOUS
 10
-21.1510813389
 20
23.2226497308
 11
-19.6489186611
 21
23.2226497308
  0
LINE
  5
526
100
AcDbEntity
  8
RACCORDO
100
AcDbLine
 62
7
  6
CONTINUOUS
 10
21.1510813389
 20
23.2226497308
 11
19.6489186611
 21
23.2226497308
  0
LINE
  5
527
100
AcDbEntity
  8
RACCORDO
100
AcDbLine
 62
7
  6
CONTINUOUS
 10
1.3489186611
 20
23.2226497308
 11
2.8510813389
 21
23.2226497308
  0
LINE
  5
528
100
AcDbEntity
  8
RACCORDO
100
AcDbLine
 62
7
  6
CONTINUOUS
 10
-1.3489186611
 20
23.2226497308
 11
-2.8510813389
 21
23.2226497308
  0
LINE
  5
529
100
AcDbEntity
  8
SMUSSO
100
AcDbLine
 62
7
  6
CONTINUOUS
 10
14.4412731322
 20
23.2912731322
 11
11.9587268678
 21
23.2912731322
  0
LINE
  5
52A
100
AcDbEntity
  8
SMUSSO
100
AcDbLine
 62
7
  6
CONTINUOUS
 10
10.5412731322
 20
23.2912731322
 11
8.0587268678
 21
23.2912731322
  0
LINE
  5
52B
100
AcDbEntity
  8
SMUSSO
100
AcDbLine
 62
7
  6
CONTINUOUS
 10
-8.0587268678
 20
23.2912731322
 11
-10.5412731322
 21
23.2912731322
  0
LINE
  5
52C
100
AcDbEntity
  8
SMUSSO
100
AcDbLine
 62
7
  6
CONTINUOUS
 10
-11.9587268678
 20
23.2912731322
 11
-14.4412731322
 21
23.2912731322
  0
LINE
  5
52D
100
AcDbEntity
  8
RACCORDO
100
AcDbLine
 62
250
  6
CONTINUOUS
 10
-21.1434453296
 20
23.7278312164
 11
-19.6565546704
 21
23.7278312164
  0
LINE
  5
52E
100
AcDbEntity
  8
RACCORDO
100
AcDbLine
 62
250
  6
CONTINUOUS
 10
-2.8434453296
 20
23.7278312164
 11
-1.3565546704
 21
23.7278312164
  0
LINE
  5
52F
100
AcDbEntity
  8
RACCORDO
100
AcDbLine
 62
250
  6
CONTINUOUS
 10
1.3565546704
 20
23.7278312164
 11
2.8434453296
 21
23.7278312164
  0
LINE
  5
530
100
AcDbEntity
  8
RACCORDO
100
AcDbLine
 62
250
  6
CONTINUOUS
 10
19.6565546704
 20
23.7278312164
 11
21.1434453296
 21
23.7278312164
  0
LINE
  5
531
100
AcDbEntity
  8
SMUSSO
100
AcDbLine
 62
7
  6
CONTINUOUS
 10
14.1443358035
 20
23.7943472261
 11
11.9556527739
 21
23.7943472261
  0
LINE
  5
532
100
AcDbEntity
  8
SMUSSO
100
AcDbLine
 62
7
  6
CONTINUOUS
 10
10.5443472261
 20
23.7943472261
 11
8.3556641965
 21
23.7943472261
  0
LINE
  5
533
100
AcDbEntity
  8
SMUSSO
100
AcDbLine
 62
7
  6
CONTINUOUS
 10
-8.3556641965
 20
23.7943472261
 11
-10.5443472261
 21
23.7943472261
  0
LINE
  5
534
100
AcDbEntity
  8
SMUSSO
100
AcDbLine
 62
7
  6
CONTINUOUS
 10
-11.9556527739
 20
23.7943472261
 11
-14.1443358035
 21
23.7943472261
  0
LINE
  5
535
100
AcDbEntity
  8
SMUSSO
100
AcDbLine
 62
7
  6
CONTINUOUS
 10
-14.1499885774
 20
23.8
 11
-11.95
 21
23.8
  0
LINE
  5
536
100
AcDbEntity
  8
SMUSSO
100
AcDbLine
 62
7
  6
CONTINUOUS
 10
-10.55
 20
23.8
 11
-8.3500114226
 21
23.8
  0
LINE
  5
537
100
AcDbEntity
  8
SMUSSO
100
AcDbLine
 62
7
  6
CONTINUOUS
 10
8.3500114226
 20
23.8
 11
10.55
 21
23.8
  0
LINE
  5
538
100
AcDbEntity
  8
SMUSSO
100
AcDbLine
 62
7
  6
CONTINUOUS
 10
11.95
 20
23.8
 11
14.1499885774
 21
23.8
  0
LINE
  5
539
100
AcDbEntity
  8
RACCORDO
100
AcDbLine
 62
250
  6
CONTINUOUS
 10
1.1065641897
 20
23.9443375673
 11
3.0934358103
 21
23.9443375673
  0
LINE
  5
53A
100
AcDbEntity
  8
RACCORDO
100
AcDbLine
 62
250
  6
CONTINUOUS
 10
-1.1065641897
 20
23.9443375673
 11
-3.0934358103
 21
23.9443375673
  0
LINE
  5
53B
100
AcDbEntity
  8
RACCORDO
100
AcDbLine
 62
250
  6
CONTINUOUS
 10
19.4065641897
 20
23.9443375673
 11
21.3934358103
 21
23.9443375673
  0
LINE
  5
53C
100
AcDbEntity
  8
RACCORDO
100
AcDbLine
 62
250
  6
CONTINUOUS
 10
-19.4065641897
 20
23.9443375673
 11
-21.3934358103
 21
23.9443375673
  0
LINE
  5
53D
100
AcDbEntity
  8
SMUSSO
100
AcDbLine
 62
7
  6
CONTINUOUS
 10
8.05
 20
23.4999885774
 11
8.0574973005
 21
23.4924912769
  0
LINE
  5
53E
100
AcDbEntity
  8
SMUSSO
100
AcDbLine
 62
7
  6
CONTINUOUS
 10
8.3500114226
 20
23.8
 11
8.3556641965
 21
23.7943472261
  0
LINE
  5
53F
100
AcDbEntity
  8
DRAFT
100
AcDbLine
 62
7
  6
CONTINUOUS
 10
11.95
 20
-22.4
 11
11.9587268678
 21
-22.3912731322
  0
LINE
  5
540
100
AcDbEntity
  8
SMUSSO
100
AcDbLine
 62
7
  6
CONTINUOUS
 10
11.9556527739
 20
-23.7943472261
 11
11.95
 21
-23.8
  0
LINE
  5
541
100
AcDbEntity
  8
0
100
AcDbLine
 62
7
  6
CONTINUOUS
 10
18.0761825974
 20
-18.4738174026
 11
19.8535533906
 21
-16.6964466094
  0
LINE
  5
542
100
AcDbEntity
  8
DRAFT
100
AcDbLine
 62
7
  6
CONTINUOUS
 10
20.0738174026
 20
-16.800128791
 11
18.400128791
 21
-18.4738174026
  0
LINE
  5
543
100
AcDbEntity
  8
RACCORDO
100
AcDbLine
 62
250
  6
CONTINUOUS
 10
21.3934358103
 20
24.2434453296
 11
19.4065641897
 21
24.2434453296
  0
LINE
  5
544
100
AcDbEntity
  8
RACCORDO
100
AcDbLine
 62
250
  6
CONTINUOUS
 10
3.0934358103
 20
24.2434453296
 11
1.1065641897
 21
24.2434453296
  0
LINE
  5
545
100
AcDbEntity
  8
RACCORDO
100
AcDbLine
 62
250
  6
CONTINUOUS
 10
-1.1065641897
 20
24.2434453296
 11
-3.0934358103
 21
24.2434453296
  0
LINE
  5
546
100
AcDbEntity
  8
RACCORDO
100
AcDbLine
 62
250
  6
CONTINUOUS
 10
-19.4065641897
 20
24.2434453296
 11
-21.3934358103
 21
24.2434453296
  0
LINE
  5
547
100
AcDbEntity
  8
RACCORDO
100
AcDbLine
 62
7
  6
CONTINUOUS
 10
21.1434453296
 20
24.4934358103
 11
19.6565546704
 21
24.4934358103
  0
LINE
  5
548
100
AcDbEntity
  8
RACCORDO
100
AcDbLine
 62
7
  6
CONTINUOUS
 10
2.8434453296
 20
24.4934358103
 11
1.3565546704
 21
24.4934358103
  0
LINE
  5
549
100
AcDbEntity
  8
RACCORDO
100
AcDbLine
 62
7
  6
CONTINUOUS
 10
-1.3565546704
 20
24.4934358103
 11
-2.8434453296
 21
24.4934358103
  0
LINE
  5
54A
100
AcDbEntity
  8
RACCORDO
100
AcDbLine
 62
7
  6
CONTINUOUS
 10
-19.6565546704
 20
24.4934358103
 11
-21.1434453296
 21
24.4934358103
  0
LINE
  5
54B
100
AcDbEntity
  8
RACCORDO
100
AcDbLine
 62
7
  6
CONTINUOUS
 10
-21.1500095192
 20
24.5
 11
-19.6499904808
 21
24.5
  0
LINE
  5
54C
100
AcDbEntity
  8
RACCORDO
100
AcDbLine
 62
7
  6
CONTINUOUS
 10
-2.8500095192
 20
24.5
 11
-1.3499904808
 21
24.5
  0
LINE
  5
54D
100
AcDbEntity
  8
RACCORDO
100
AcDbLine
 62
7
  6
CONTINUOUS
 10
1.3499904808
 20
24.5
 11
2.8500095192
 21
24.5
  0
LINE
  5
54E
100
AcDbEntity
  8
RACCORDO
100
AcDbLine
 62
7
  6
CONTINUOUS
 10
19.6499904808
 20
24.5
 11
21.1500095192
 21
24.5
  0
LINE
  5
54F
100
AcDbEntity
  8
DRAFT
100
AcDbLine
 62
7
  6
CONTINUOUS
 10
11.9587268678
 20
22.3912731322
 11
11.95
 21
22.4
  0
LINE
  5
550
100
AcDbEntity
  8
SMUSSO
100
AcDbLine
 62
7
  6
CONTINUOUS
 10
11.9556527739
 20
23.7943472261
 11
11.95
 21
23.8
  0
LINE
  5
551
100
AcDbEntity
  8
DRAFT
100
AcDbLine
 62
7
  6
CONTINUOUS
 10
18.400128791
 20
18.4738174026
 11
20.0738174026
 21
16.800128791
  0
LINE
  5
552
100
AcDbEntity
  8
SMUSSO
100
AcDbLine
 62
7
  6
CONTINUOUS
 10
14.4425026995
 20
-23.4924912769
 11
14.1443358035
 21
-23.7943472261
  0
LINE
  5
553
100
AcDbEntity
  8
SMUSSO
100
AcDbLine
 62
7
  6
CONTINUOUS
 10
14.1499885774
 20
-23.8
 11
14.45
 21
-23.4999885774
  0
LINE
  5
554
100
AcDbEntity
  8
RACCORDO
100
AcDbLine
 62
250
  6
CONTINUOUS
 10
21.6492258854
 20
-18.3371948203
 11
18.3376311636
 21
-21.648789542
  0
LINE
  5
555
100
AcDbEntity
  8
SMUSSO
100
AcDbLine
 62
7
  6
CONTINUOUS
 10
14.1499885774
 20
23.8
 11
14.45
 21
23.4999885774
  0
LINE
  5
556
100
AcDbEntity
  8
RACCORDO
100
AcDbLine
 62
250
  6
CONTINUOUS
 10
18.3376311636
 20
21.648789542
 11
21.6492258854
 21
18.3371948203
  0
LINE
  5
557
100
AcDbEntity
  8
SMUSSO
100
AcDbLine
 62
7
  6
CONTINUOUS
 10
14.1443358035
 20
23.7943472261
 11
14.4425026995
 21
23.4924912769
  0
LINE
  5
558
100
AcDbEntity
  8
RACCORDO
100
AcDbLine
 62
250
  6
CONTINUOUS
 10
22.0734737995
 20
-18.7614427343
 11
18.7618790777
 21
-22.0730374561
  0
LINE
  5
559
100
AcDbEntity
  8
RACCORDO
100
AcDbLine
 62
7
  6
CONTINUOUS
 10
18.7723808867
 20
-22.0983910659
 11
22.0988274093
 21
-18.7719445433
  0
LINE
  5
55A
100
AcDbEntity
  8
RACCORDO
100
AcDbLine
 62
250
  6
CONTINUOUS
 10
18.7618790777
 20
22.0730374561
 11
22.0734737995
 21
18.7614427343
  0
LINE
  5
55B
100
AcDbEntity
  8
RACCORDO
100
AcDbLine
 62
7
  6
CONTINUOUS
 10
22.0988274093
 20
18.7719445433
 11
18.7723808867
 21
22.0983910659
  0
ARC
  5
55C
100
AcDbEntity
  8
0
100
AcDbCircle
 62
7
  6
CONTINUOUS
 10
-8.95
 20
-11.25
 40
2.5
100
AcDbArc
 50
180.0
 51
270.0
  0
ARC
  5
55D
100
AcDbEntity
  8
RACCORDO
100
AcDbCircle
 62
250
  6
CONTINUOUS
 10
-18.054780035
 20
-21.3659112804
 40
1.0000082422
100
AcDbArc
 50
225.0010992642
 51
269.9989007358
  0
ARC
  5
55E
100
AcDbEntity
  8
RACCORDO
100
AcDbCircle
 62
250
  6
CONTINUOUS
 10
-21.3663476238
 20
-18.0543436916
 40
1.0000082422
100
AcDbArc
 50
180.0010992642
 51
224.9989007358
  0
ARC
  5
55F
100
AcDbEntity
  8
DRAFT
100
AcDbCircle
 62
7
  6
CONTINUOUS
 10
-20.5
 20
-13.0
 40
0.5261825974
100
AcDbArc
 50
324.0912327193
 51
35.9087672807
  0
ARC
  5
560
100
AcDbEntity
  8
0
100
AcDbCircle
 62
7
  6
CONTINUOUS
 10
-19.5
 20
-16.3428932188
 40
0.5
100
AcDbArc
 50
179.9999999999
 51
225.0
  0
ARC
  5
561
100
AcDbEntity
  8
RACCORDO
100
AcDbCircle
 62
250
  6
CONTINUOUS
 10
-18.0547997063
 20
-21.365958771
 40
0.3999835976
100
AcDbArc
 50
224.9999304802
 51
270.0000695198
  0
ARC
  5
562
100
AcDbEntity
  8
RACCORDO
100
AcDbCircle
 62
250
  6
CONTINUOUS
 10
-21.3663951144
 20
-18.0543633629
 40
0.3999835976
100
AcDbArc
 50
179.9999304824
 51
225.0000695176
  0
ARC
  5
563
100
AcDbEntity
  8
RACCORDO
100
AcDbCircle
 62
7
  6
CONTINUOUS
 10
-1.3518188975
 20
-24.2497202265
 40
0.2518190637
100
AcDbArc
 50
341.9563508116
 51
359.9341779041
  0
ARC
  5
564
100
AcDbEntity
  8
RACCORDO
100
AcDbCircle
 62
7
  6
CONTINUOUS
 10
-2.8481811025
 20
-24.2497202265
 40
0.2518190637
100
AcDbArc
 50
180.0658220959
 51
198.0436491884
  0
ARC
  5
565
100
AcDbEntity
  8
RACCORDO
100
AcDbCircle
 62
7
  6
CONTINUOUS
 10
-19.6518188975
 20
-24.2497202265
 40
0.2518190637
100
AcDbArc
 50
341.9563508116
 51
359.9341779041
  0
ARC
  5
566
100
AcDbEntity
  8
RACCORDO
100
AcDbCircle
 62
7
  6
CONTINUOUS
 10
-21.1481811025
 20
-24.2497202265
 40
0.2518190637
100
AcDbArc
 50
180.0658220959
 51
198.0436491884
  0
ARC
  5
567
100
AcDbEntity
  8
RACCORDO
100
AcDbCircle
 62
7
  6
CONTINUOUS
 10
-1.3500308393
 20
-24.2499781558
 40
0.2500392397
100
AcDbArc
 50
300.1663923273
 51
341.8856380101
  0
ARC
  5
568
100
AcDbEntity
  8
RACCORDO
100
AcDbCircle
 62
7
  6
CONTINUOUS
 10
-2.8499691607
 20
-24.2499781558
 40
0.2500392397
100
AcDbArc
 50
198.1143619899
 51
239.8336076727
  0
ARC
  5
569
100
AcDbEntity
  8
RACCORDO
100
AcDbCircle
 62
7
  6
CONTINUOUS
 10
-19.6500308393
 20
-24.2499781558
 40
0.2500392397
100
AcDbArc
 50
300.1663923273
 51
341.8856380101
  0
ARC
  5
56A
100
AcDbEntity
  8
RACCORDO
100
AcDbCircle
 62
7
  6
CONTINUOUS
 10
-21.1499691607
 20
-24.2499781558
 40
0.2500392397
100
AcDbArc
 50
198.1143619899
 51
239.8336076727
  0
ARC
  5
56B
100
AcDbEntity
  8
RACCORDO
100
AcDbCircle
 62
7
  6
CONTINUOUS
 10
-1.3565769341
 20
-24.2434129055
 40
0.2500149836
100
AcDbArc
 50
277.5583089542
 51
359.9925693404
  0
ARC
  5
56C
100
AcDbEntity
  8
RACCORDO
100
AcDbCircle
 62
7
  6
CONTINUOUS
 10
-19.6565769341
 20
-24.2434129055
 40
0.2500149836
100
AcDbArc
 50
277.5583089542
 51
359.9925693404
  0
ARC
  5
56D
100
AcDbEntity
  8
RACCORDO
100
AcDbCircle
 62
7
  6
CONTINUOUS
 10
-2.8434355639
 20
-24.2434236171
 40
0.2500003642
100
AcDbArc
 50
180.5049761116
 51
262.4442075269
  0
ARC
  5
56E
100
AcDbEntity
  8
RACCORDO
100
AcDbCircle
 62
7
  6
CONTINUOUS
 10
-21.1434355639
 20
-24.2434236171
 40
0.2500003642
100
AcDbArc
 50
180.5049761128
 51
262.4442075238
  0
ARC
  5
56F
100
AcDbEntity
  8
RACCORDO
100
AcDbCircle
 62
250
  6
CONTINUOUS
 10
-2.8433450925
 20
-24.2436510486
 40
0.2497847819
100
AcDbArc
 50
262.4442075269
 51
269.9770075544
  0
ARC
  5
570
100
AcDbEntity
  8
RACCORDO
100
AcDbCircle
 62
250
  6
CONTINUOUS
 10
-21.1433450925
 20
-24.2436510486
 40
0.2497847819
100
AcDbArc
 50
262.4442075238
 51
269.9770075544
  0
ARC
  5
571
100
AcDbEntity
  8
RACCORDO
100
AcDbCircle
 62
250
  6
CONTINUOUS
 10
-1.3566549076
 20
-24.2436510491
 40
0.2497847814
100
AcDbArc
 50
270.0229924503
 51
277.5583089542
  0
ARC
  5
572
100
AcDbEntity
  8
RACCORDO
100
AcDbCircle
 62
250
  6
CONTINUOUS
 10
-19.6566549076
 20
-24.2436510491
 40
0.2497847814
100
AcDbArc
 50
270.0229924503
 51
277.5583089542
  0
ARC
  5
573
100
AcDbEntity
  8
RACCORDO
100
AcDbCircle
 62
7
  6
CONTINUOUS
 10
-1.3500468552
 20
-24.250904254
 40
0.2490957524
100
AcDbArc
 50
270.0129669681
 51
276.0795845407
  0
ARC
  5
574
100
AcDbEntity
  8
RACCORDO
100
AcDbCircle
 62
7
  6
CONTINUOUS
 10
-2.8499531448
 20
-24.250904254
 40
0.2490957524
100
AcDbArc
 50
263.9204154593
 51
269.9870330319
  0
ARC
  5
575
100
AcDbEntity
  8
RACCORDO
100
AcDbCircle
 62
7
  6
CONTINUOUS
 10
-19.6500468552
 20
-24.250904254
 40
0.2490957524
100
AcDbArc
 50
270.0129669681
 51
276.0795845407
  0
ARC
  5
576
100
AcDbEntity
  8
RACCORDO
100
AcDbCircle
 62
7
  6
CONTINUOUS
 10
-21.1499531448
 20
-24.250904254
 40
0.2490957524
100
AcDbArc
 50
263.9204154593
 51
269.9870330319
  0
ARC
  5
577
100
AcDbEntity
  8
0
100
AcDbCircle
 62
7
  6
CONTINUOUS
 10
-12.7
 20
-18.15
 40
0.2
100
AcDbArc
 50
0.0000000002
 51
89.9999999998
  0
ARC
  5
578
100
AcDbEntity
  8
0
100
AcDbCircle
 62
7
  6
CONTINUOUS
 10
-0.85
 20
-18.1
 40
0.15
100
AcDbArc
 50
90.0000008509
 51
270.0000008508
  0
ARC
  5
579
100
AcDbEntity
  8
0
100
AcDbCircle
 62
7
  6
CONTINUOUS
 10
-0.85
 20
-15.4
 40
0.15
100
AcDbArc
 50
90.0000008421
 51
270.0000008421
  0
ARC
  5
57A
100
AcDbEntity
  8
0
100
AcDbCircle
 62
7
  6
CONTINUOUS
 10
-8.95
 20
0.75
 40
2.5
100
AcDbArc
 50
90.0
 51
180.0
  0
ARC
  5
57B
100
AcDbEntity
  8
RACCORDO
100
AcDbCircle
 62
250
  6
CONTINUOUS
 10
-21.3663476238
 20
18.0543436916
 40
1.0000082422
100
AcDbArc
 50
135.0010992642
 51
179.9989007358
  0
ARC
  5
57C
100
AcDbEntity
  8
RACCORDO
100
AcDbCircle
 62
250
  6
CONTINUOUS
 10
-18.054780035
 20
21.3659112804
 40
1.0000082422
100
AcDbArc
 50
90.0010992642
 51
134.9989007358
  0
ARC
  5
57D
100
AcDbEntity
  8
0
100
AcDbCircle
 62
7
  6
CONTINUOUS
 10
-0.2
 20
17.95
 40
0.8
100
AcDbArc
 50
90.0
 51
180.0
  0
ARC
  5
57E
100
AcDbEntity
  8
0
100
AcDbCircle
 62
7
  6
CONTINUOUS
 10
-0.2
 20
16.55
 40
0.8
100
AcDbArc
 50
180.0
 51
270.0
  0
ARC
  5
57F
100
AcDbEntity
  8
DRAFT
100
AcDbCircle
 62
7
  6
CONTINUOUS
 10
-20.5
 20
13.0
 40
0.5261825974
100
AcDbArc
 50
324.0912327193
 51
35.9087672807
  0
ARC
  5
580
100
AcDbEntity
  8
0
100
AcDbCircle
 62
7
  6
CONTINUOUS
 10
-0.2
 20
17.95
 40
0.5
100
AcDbArc
 50
90.0
 51
180.0
  0
ARC
  5
581
100
AcDbEntity
  8
0
100
AcDbCircle
 62
7
  6
CONTINUOUS
 10
-0.2
 20
16.55
 40
0.5
100
AcDbArc
 50
180.0
 51
270.0
  0
ARC
  5
582
100
AcDbEntity
  8
0
100
AcDbCircle
 62
7
  6
CONTINUOUS
 10
-19.5
 20
16.8428932188
 40
0.5
100
AcDbArc
 50
176.2631229606
 51
180.0000000001
  0
ARC
  5
583
100
AcDbEntity
  8
0
100
AcDbCircle
 62
7
  6
CONTINUOUS
 10
-5.0
 20
8.75
 40
0.5
100
AcDbArc
 50
90.0
 51
180.0
  0
ARC
  5
584
100
AcDbEntity
  8
0
100
AcDbCircle
 62
7
  6
CONTINUOUS
 10
-5.0
 20
4.75
 40
0.5
100
AcDbArc
 50
179.9999999999
 51
270.0
  0
ARC
  5
585
100
AcDbEntity
  8
RACCORDO
100
AcDbCircle
 62
250
  6
CONTINUOUS
 10
-21.3663951144
 20
18.0543633629
 40
0.3999835976
100
AcDbArc
 50
134.9999304802
 51
180.0000695198
  0
ARC
  5
586
100
AcDbEntity
  8
RACCORDO
100
AcDbCircle
 62
250
  6
CONTINUOUS
 10
-18.0547997063
 20
21.365958771
 40
0.3999835976
100
AcDbArc
 50
89.9999304824
 51
135.0000695176
  0
ARC
  5
587
100
AcDbEntity
  8
RACCORDO
100
AcDbCircle
 62
7
  6
CONTINUOUS
 10
-21.1481811025
 20
24.2497202265
 40
0.2518190637
100
AcDbArc
 50
161.9563508116
 51
179.9341779041
  0
ARC
  5
588
100
AcDbEntity
  8
RACCORDO
100
AcDbCircle
 62
7
  6
CONTINUOUS
 10
-19.6518188975
 20
24.2497202265
 40
0.2518190637
100
AcDbArc
 50
0.065822096
 51
18.0436491884
  0
ARC
  5
589
100
AcDbEntity
  8
RACCORDO
100
AcDbCircle
 62
7
  6
CONTINUOUS
 10
-2.8481811025
 20
24.2497202265
 40
0.2518190637
100
AcDbArc
 50
161.9563508116
 51
179.934177904
  0
ARC
  5
58A
100
AcDbEntity
  8
RACCORDO
100
AcDbCircle
 62
7
  6
CONTINUOUS
 10
-1.3518188975
 20
24.2497202265
 40
0.2518190637
100
AcDbArc
 50
0.065822096
 51
18.0436491884
  0
ARC
  5
58B
100
AcDbEntity
  8
RACCORDO
100
AcDbCircle
 62
7
  6
CONTINUOUS
 10
-21.1499691607
 20
24.2499781558
 40
0.2500392397
100
AcDbArc
 50
120.1663923273
 51
161.8856380101
  0
ARC
  5
58C
100
AcDbEntity
  8
RACCORDO
100
AcDbCircle
 62
7
  6
CONTINUOUS
 10
-19.6500308393
 20
24.2499781558
 40
0.2500392397
100
AcDbArc
 50
18.1143619899
 51
59.8336076727
  0
ARC
  5
58D
100
AcDbEntity
  8
RACCORDO
100
AcDbCircle
 62
7
  6
CONTINUOUS
 10
-2.8499691607
 20
24.2499781558
 40
0.2500392397
100
AcDbArc
 50
120.1663923273
 51
161.8856380101
  0
ARC
  5
58E
100
AcDbEntity
  8
RACCORDO
100
AcDbCircle
 62
7
  6
CONTINUOUS
 10
-1.3500308393
 20
24.2499781558
 40
0.2500392397
100
AcDbArc
 50
18.1143619899
 51
59.8336076727
  0
ARC
  5
58F
100
AcDbEntity
  8
RACCORDO
100
AcDbCircle
 62
7
  6
CONTINUOUS
 10
-19.6565779229
 20
24.2434120471
 40
0.2500160834
100
AcDbArc
 50
0.5076002623
 51
82.4414922099
  0
ARC
  5
590
100
AcDbEntity
  8
RACCORDO
100
AcDbCircle
 62
7
  6
CONTINUOUS
 10
-1.3565779229
 20
24.2434120471
 40
0.2500160834
100
AcDbArc
 50
0.5076002623
 51
82.4414922099
  0
ARC
  5
591
100
AcDbEntity
  8
RACCORDO
100
AcDbCircle
 62
7
  6
CONTINUOUS
 10
-21.1434355635
 20
24.2434236175
 40
0.2500003646
100
AcDbArc
 50
97.5557925693
 51
179.4950239803
  0
ARC
  5
592
100
AcDbEntity
  8
RACCORDO
100
AcDbCircle
 62
7
  6
CONTINUOUS
 10
-2.8434355635
 20
24.2434236175
 40
0.2500003645
100
AcDbArc
 50
97.5557925687
 51
179.4950239862
  0
ARC
  5
593
100
AcDbEntity
  8
RACCORDO
100
AcDbCircle
 62
250
  6
CONTINUOUS
 10
-2.8433450925
 20
24.2436510486
 40
0.2497847819
100
AcDbArc
 50
90.0229924456
 51
97.5557925687
  0
ARC
  5
594
100
AcDbEntity
  8
RACCORDO
100
AcDbCircle
 62
250
  6
CONTINUOUS
 10
-1.3566549075
 20
24.2436510486
 40
0.2497847819
100
AcDbArc
 50
82.4414922099
 51
89.9770075544
  0
ARC
  5
595
100
AcDbEntity
  8
RACCORDO
100
AcDbCircle
 62
250
  6
CONTINUOUS
 10
-19.6566549075
 20
24.2436510486
 40
0.2497847819
100
AcDbArc
 50
82.4414922099
 51
89.9770075544
  0
ARC
  5
596
100
AcDbEntity
  8
RACCORDO
100
AcDbCircle
 62
250
  6
CONTINUOUS
 10
-21.1433450925
 20
24.2436510486
 40
0.2497847819
100
AcDbArc
 50
90.0229924456
 51
97.5557925693
  0
ARC
  5
597
100
AcDbEntity
  8
RACCORDO
100
AcDbCircle
 62
7
  6
CONTINUOUS
 10
-21.1499531448
 20
24.250904254
 40
0.2490957524
100
AcDbArc
 50
90.0129669681
 51
96.0795845408
  0
ARC
  5
598
100
AcDbEntity
  8
RACCORDO
100
AcDbCircle
 62
7
  6
CONTINUOUS
 10
-19.6500468552
 20
24.250904254
 40
0.2490957524
100
AcDbArc
 50
83.9204154592
 51
89.9870330319
  0
ARC
  5
599
100
AcDbEntity
  8
RACCORDO
100
AcDbCircle
 62
7
  6
CONTINUOUS
 10
-2.8499531448
 20
24.250904254
 40
0.2490957524
100
AcDbArc
 50
90.0129669682
 51
96.0795845407
  0
ARC
  5
59A
100
AcDbEntity
  8
RACCORDO
100
AcDbCircle
 62
7
  6
CONTINUOUS
 10
-1.3500468552
 20
24.250904254
 40
0.2490957524
100
AcDbArc
 50
83.9204154593
 51
89.9870330318
  0
ARC
  5
59B
100
AcDbEntity
  8
0
100
AcDbCircle
 62
7
  6
CONTINUOUS
 10
-12.7
 20
18.65
 40
0.2
100
AcDbArc
 50
269.9999999998
 51
360.0
  0
ARC
  5
59C
100
AcDbEntity
  8
0
100
AcDbCircle
 62
7
  6
CONTINUOUS
 10
11.25
 20
-11.25
 40
2.5
100
AcDbArc
 50
270.0
 51
360.0
  0
ARC
  5
59D
100
AcDbEntity
  8
RACCORDO
100
AcDbCircle
 62
250
  6
CONTINUOUS
 10
21.3663476238
 20
-18.0543436916
 40
1.0000082422
100
AcDbArc
 50
315.0010992642
 51
359.9989007358
  0
ARC
  5
59E
100
AcDbEntity
  8
RACCORDO
100
AcDbCircle
 62
250
  6
CONTINUOUS
 10
18.054780035
 20
-21.3659112804
 40
1.0000082422
100
AcDbArc
 50
270.0010992642
 51
314.9989007358
  0
ARC
  5
59F
100
AcDbEntity
  8
DRAFT
100
AcDbCircle
 62
7
  6
CONTINUOUS
 10
20.5
 20
-13.0
 40
0.5261825974
100
AcDbArc
 50
144.0912327193
 51
215.9087672807
  0
ARC
  5
5A0
100
AcDbEntity
  8
0
100
AcDbCircle
 62
7
  6
CONTINUOUS
 10
19.5
 20
-16.3428932188
 40
0.5
100
AcDbArc
 50
315.0000000001
 51
359.9999999998
  0
ARC
  5
5A1
100
AcDbEntity
  8
RACCORDO
100
AcDbCircle
 62
250
  6
CONTINUOUS
 10
21.3663951144
 20
-18.0543633629
 40
0.3999835976
100
AcDbArc
 50
314.9999304802
 51
0.0000695198
  0
ARC
  5
5A2
100
AcDbEntity
  8
RACCORDO
100
AcDbCircle
 62
250
  6
CONTINUOUS
 10
18.0547997063
 20
-21.365958771
 40
0.3999835976
100
AcDbArc
 50
269.9999304824
 51
315.0000695176
  0
ARC
  5
5A3
100
AcDbEntity
  8
RACCORDO
100
AcDbCircle
 62
7
  6
CONTINUOUS
 10
21.1481811025
 20
-24.2497202265
 40
0.2518190637
100
AcDbArc
 50
341.9563508116
 51
359.9341779041
  0
ARC
  5
5A4
100
AcDbEntity
  8
RACCORDO
100
AcDbCircle
 62
7
  6
CONTINUOUS
 10
19.6518188975
 20
-24.2497202265
 40
0.2518190637
100
AcDbArc
 50
180.0658220959
 51
198.0436491884
  0
ARC
  5
5A5
100
AcDbEntity
  8
RACCORDO
100
AcDbCircle
 62
7
  6
CONTINUOUS
 10
2.8481811025
 20
-24.2497202265
 40
0.2518190637
100
AcDbArc
 50
341.9563508116
 51
359.9341779041
  0
ARC
  5
5A6
100
AcDbEntity
  8
RACCORDO
100
AcDbCircle
 62
7
  6
CONTINUOUS
 10
1.3518188975
 20
-24.2497202265
 40
0.2518190637
100
AcDbArc
 50
180.065822096
 51
198.0436491884
  0
ARC
  5
5A7
100
AcDbEntity
  8
RACCORDO
100
AcDbCircle
 62
7
  6
CONTINUOUS
 10
21.1499691607
 20
-24.2499781558
 40
0.2500392397
100
AcDbArc
 50
300.1663923273
 51
341.8856380101
  0
ARC
  5
5A8
100
AcDbEntity
  8
RACCORDO
100
AcDbCircle
 62
7
  6
CONTINUOUS
 10
19.6500308393
 20
-24.2499781558
 40
0.2500392397
100
AcDbArc
 50
198.1143619899
 51
239.8336076727
  0
ARC
  5
5A9
100
AcDbEntity
  8
RACCORDO
100
AcDbCircle
 62
7
  6
CONTINUOUS
 10
2.8499691607
 20
-24.2499781558
 40
0.2500392397
100
AcDbArc
 50
300.1663923273
 51
341.8856380101
  0
ARC
  5
5AA
100
AcDbEntity
  8
RACCORDO
100
AcDbCircle
 62
7
  6
CONTINUOUS
 10
1.3500308393
 20
-24.2499781558
 40
0.2500392397
100
AcDbArc
 50
198.1143619899
 51
239.8336076727
  0
ARC
  5
5AB
100
AcDbEntity
  8
RACCORDO
100
AcDbCircle
 62
7
  6
CONTINUOUS
 10
21.1434230659
 20
-24.2434129055
 40
0.2500149836
100
AcDbArc
 50
277.5583089542
 51
359.9925693404
  0
ARC
  5
5AC
100
AcDbEntity
  8
RACCORDO
100
AcDbCircle
 62
7
  6
CONTINUOUS
 10
2.8434230659
 20
-24.2434129055
 40
0.2500149836
100
AcDbArc
 50
277.5583089542
 51
359.9925693404
  0
ARC
  5
5AD
100
AcDbEntity
  8
RACCORDO
100
AcDbCircle
 62
7
  6
CONTINUOUS
 10
19.6565644361
 20
-24.2434236171
 40
0.2500003642
100
AcDbArc
 50
180.5049761162
 51
262.4442075253
  0
ARC
  5
5AE
100
AcDbEntity
  8
RACCORDO
100
AcDbCircle
 62
7
  6
CONTINUOUS
 10
1.3565644361
 20
-24.243423617
 40
0.2500003642
100
AcDbArc
 50
180.5049761187
 51
262.4442075215
  0
ARC
  5
5AF
100
AcDbEntity
  8
RACCORDO
100
AcDbCircle
 62
250
  6
CONTINUOUS
 10
19.6566549075
 20
-24.2436510486
 40
0.2497847819
100
AcDbArc
 50
262.4442075253
 51
269.9770075544
  0
ARC
  5
5B0
100
AcDbEntity
  8
RACCORDO
100
AcDbCircle
 62
250
  6
CONTINUOUS
 10
1.3566549075
 20
-24.2436510486
 40
0.2497847819
100
AcDbArc
 50
262.4442075215
 51
269.9770075544
  0
ARC
  5
5B1
100
AcDbEntity
  8
RACCORDO
100
AcDbCircle
 62
250
  6
CONTINUOUS
 10
21.1433450924
 20
-24.2436510491
 40
0.2497847814
100
AcDbArc
 50
270.0229924503
 51
277.5583089542
  0
ARC
  5
5B2
100
AcDbEntity
  8
RACCORDO
100
AcDbCircle
 62
250
  6
CONTINUOUS
 10
2.8433450924
 20
-24.2436510491
 40
0.2497847814
100
AcDbArc
 50
270.0229924503
 51
277.5583089542
  0
ARC
  5
5B3
100
AcDbEntity
  8
RACCORDO
100
AcDbCircle
 62
7
  6
CONTINUOUS
 10
21.1499531448
 20
-24.250904254
 40
0.2490957524
100
AcDbArc
 50
270.0129669681
 51
276.0795845407
  0
ARC
  5
5B4
100
AcDbEntity
  8
RACCORDO
100
AcDbCircle
 62
7
  6
CONTINUOUS
 10
19.6500468552
 20
-24.250904254
 40
0.2490957524
100
AcDbArc
 50
263.9204154593
 51
269.9870330319
  0
ARC
  5
5B5
100
AcDbEntity
  8
RACCORDO
100
AcDbCircle
 62
7
  6
CONTINUOUS
 10
2.8499531448
 20
-24.250904254
 40
0.2490957524
100
AcDbArc
 50
270.0129669681
 51
276.0795845407
  0
ARC
  5
5B6
100
AcDbEntity
  8
RACCORDO
100
AcDbCircle
 62
7
  6
CONTINUOUS
 10
1.3500468552
 20
-24.250904254
 40
0.2490957524
100
AcDbArc
 50
263.9204154593
 51
269.9870330319
  0
ARC
  5
5B7
100
AcDbEntity
  8
0
100
AcDbCircle
 62
7
  6
CONTINUOUS
 10
12.7
 20
-18.15
 40
0.2
100
AcDbArc
 50
90.0000000001
 51
180.0
  0
ARC
  5
5B8
100
AcDbEntity
  8
0
100
AcDbCircle
 62
7
  6
CONTINUOUS
 10
0.85
 20
-18.1
 40
0.15
100
AcDbArc
 50
270.0000004791
 51
90.0000008509
  0
ARC
  5
5B9
100
AcDbEntity
  8
0
100
AcDbCircle
 62
7
  6
CONTINUOUS
 10
0.85
 20
-15.4
 40
0.15
100
AcDbArc
 50
270.0000002619
 51
90.0000008423
  0
ARC
  5
5BA
100
AcDbEntity
  8
0
100
AcDbCircle
 62
7
  6
CONTINUOUS
 10
11.25
 20
0.75
 40
2.5
100
AcDbArc
 50
0.0
 51
90.0
  0
ARC
  5
5BB
100
AcDbEntity
  8
RACCORDO
100
AcDbCircle
 62
250
  6
CONTINUOUS
 10
18.054780035
 20
21.3659112804
 40
1.0000082422
100
AcDbArc
 50
45.0010992642
 51
89.9989007358
  0
ARC
  5
5BC
100
AcDbEntity
  8
RACCORDO
100
AcDbCircle
 62
250
  6
CONTINUOUS
 10
21.3663476238
 20
18.0543436916
 40
1.0000082422
100
AcDbArc
 50
0.0010992642
 51
44.9989007358
  0
ARC
  5
5BD
100
AcDbEntity
  8
0
100
AcDbCircle
 62
7
  6
CONTINUOUS
 10
0.2
 20
17.95
 40
0.8
100
AcDbArc
 50
0.0000000002
 51
90.0
  0
ARC
  5
5BE
100
AcDbEntity
  8
0
100
AcDbCircle
 62
7
  6
CONTINUOUS
 10
0.2
 20
16.55
 40
0.8
100
AcDbArc
 50
270.0
 51
359.9999999998
  0
ARC
  5
5BF
100
AcDbEntity
  8
DRAFT
100
AcDbCircle
 62
7
  6
CONTINUOUS
 10
20.5
 20
13.0
 40
0.5261825974
100
AcDbArc
 50
144.0912327193
 51
215.9087672807
  0
ARC
  5
5C0
100
AcDbEntity
  8
0
100
AcDbCircle
 62
7
  6
CONTINUOUS
 10
0.2
 20
17.95
 40
0.5
100
AcDbArc
 50
0.0
 51
90.0000000001
  0
ARC
  5
5C1
100
AcDbEntity
  8
0
100
AcDbCircle
 62
7
  6
CONTINUOUS
 10
0.2
 20
16.55
 40
0.5
100
AcDbArc
 50
269.9999999999
 51
360.0
  0
ARC
  5
5C2
100
AcDbEntity
  8
0
100
AcDbCircle
 62
7
  6
CONTINUOUS
 10
19.5
 20
16.8428932188
 40
0.5
100
AcDbArc
 50
0.0
 51
3.7640586596
  0
ARC
  5
5C3
100
AcDbEntity
  8
0
100
AcDbCircle
 62
7
  6
CONTINUOUS
 10
5.0
 20
4.75
 40
0.5
100
AcDbArc
 50
270.0
 51
360.0
  0
ARC
  5
5C4
100
AcDbEntity
  8
0
100
AcDbCircle
 62
7
  6
CONTINUOUS
 10
5.0
 20
8.75
 40
0.5
100
AcDbArc
 50
0.0000000001
 51
90.0
  0
ARC
  5
5C5
100
AcDbEntity
  8
RACCORDO
100
AcDbCircle
 62
250
  6
CONTINUOUS
 10
18.0547997063
 20
21.365958771
 40
0.3999835976
100
AcDbArc
 50
44.9999304802
 51
90.0000695198
  0
ARC
  5
5C6
100
AcDbEntity
  8
RACCORDO
100
AcDbCircle
 62
250
  6
CONTINUOUS
 10
21.3663951144
 20
18.0543633629
 40
0.3999835976
100
AcDbArc
 50
359.9999304824
 51
45.0000695176
  0
ARC
  5
5C7
100
AcDbEntity
  8
RACCORDO
100
AcDbCircle
 62
7
  6
CONTINUOUS
 10
1.3518188975
 20
24.2497202265
 40
0.2518190637
100
AcDbArc
 50
161.9563508116
 51
179.934177904
  0
ARC
  5
5C8
100
AcDbEntity
  8
RACCORDO
100
AcDbCircle
 62
7
  6
CONTINUOUS
 10
2.8481811025
 20
24.2497202265
 40
0.2518190637
100
AcDbArc
 50
0.0658220959
 51
18.0436491884
  0
ARC
  5
5C9
100
AcDbEntity
  8
RACCORDO
100
AcDbCircle
 62
7
  6
CONTINUOUS
 10
19.6518188975
 20
24.2497202265
 40
0.2518190637
100
AcDbArc
 50
161.9563508116
 51
179.9341779041
  0
ARC
  5
5CA
100
AcDbEntity
  8
RACCORDO
100
AcDbCircle
 62
7
  6
CONTINUOUS
 10
21.1481811025
 20
24.2497202265
 40
0.2518190637
100
AcDbArc
 50
0.065822096
 51
18.0436491884
  0
ARC
  5
5CB
100
AcDbEntity
  8
RACCORDO
100
AcDbCircle
 62
7
  6
CONTINUOUS
 10
1.3500308393
 20
24.2499781558
 40
0.2500392397
100
AcDbArc
 50
120.1663923273
 51
161.8856380101
  0
ARC
  5
5CC
100
AcDbEntity
  8
RACCORDO
100
AcDbCircle
 62
7
  6
CONTINUOUS
 10
2.8499691607
 20
24.2499781558
 40
0.2500392397
100
AcDbArc
 50
18.1143619899
 51
59.8336076727
  0
ARC
  5
5CD
100
AcDbEntity
  8
RACCORDO
100
AcDbCircle
 62
7
  6
CONTINUOUS
 10
19.6500308393
 20
24.2499781558
 40
0.2500392397
100
AcDbArc
 50
120.1663923273
 51
161.8856380101
  0
ARC
  5
5CE
100
AcDbEntity
  8
RACCORDO
100
AcDbCircle
 62
7
  6
CONTINUOUS
 10
21.1499691607
 20
24.2499781558
 40
0.2500392397
100
AcDbArc
 50
18.1143619899
 51
59.8336076727
  0
ARC
  5
5CF
100
AcDbEntity
  8
RACCORDO
100
AcDbCircle
 62
7
  6
CONTINUOUS
 10
2.8434220771
 20
24.2434120471
 40
0.2500160834
100
AcDbArc
 50
0.5076002623
 51
82.4414922099
  0
ARC
  5
5D0
100
AcDbEntity
  8
RACCORDO
100
AcDbCircle
 62
7
  6
CONTINUOUS
 10
21.1434220771
 20
24.2434120471
 40
0.2500160834
100
AcDbArc
 50
0.5076002623
 51
82.4414922099
  0
ARC
  5
5D1
100
AcDbEntity
  8
RACCORDO
100
AcDbCircle
 62
7
  6
CONTINUOUS
 10
1.3565644365
 20
24.2434236175
 40
0.2500003646
100
AcDbArc
 50
97.5557925677
 51
179.495023984
  0
ARC
  5
5D2
100
AcDbEntity
  8
RACCORDO
100
AcDbCircle
 62
7
  6
CONTINUOUS
 10
19.6565644365
 20
24.2434236175
 40
0.2500003646
100
AcDbArc
 50
97.5557925682
 51
179.4950239845
  0
ARC
  5
5D3
100
AcDbEntity
  8
RACCORDO
100
AcDbCircle
 62
250
  6
CONTINUOUS
 10
1.3566549075
 20
24.2436510486
 40
0.2497847819
100
AcDbArc
 50
90.0229924456
 51
97.5557925677
  0
ARC
  5
5D4
100
AcDbEntity
  8
RACCORDO
100
AcDbCircle
 62
250
  6
CONTINUOUS
 10
19.6566549075
 20
24.2436510486
 40
0.2497847819
100
AcDbArc
 50
90.0229924456
 51
97.5557925682
  0
ARC
  5
5D5
100
AcDbEntity
  8
RACCORDO
100
AcDbCircle
 62
250
  6
CONTINUOUS
 10
2.8433450925
 20
24.2436510486
 40
0.2497847819
100
AcDbArc
 50
82.4414922099
 51
89.9770075544
  0
ARC
  5
5D6
100
AcDbEntity
  8
RACCORDO
100
AcDbCircle
 62
250
  6
CONTINUOUS
 10
21.1433450925
 20
24.2436510486
 40
0.2497847819
100
AcDbArc
 50
82.4414922099
 51
89.9770075544
  0
ARC
  5
5D7
100
AcDbEntity
  8
RACCORDO
100
AcDbCircle
 62
7
  6
CONTINUOUS
 10
1.3500468552
 20
24.250904254
 40
0.2490957524
100
AcDbArc
 50
90.0129669681
 51
96.0795845408
  0
ARC
  5
5D8
100
AcDbEntity
  8
RACCORDO
100
AcDbCircle
 62
7
  6
CONTINUOUS
 10
2.8499531448
 20
24.250904254
 40
0.2490957524
100
AcDbArc
 50
83.9204154592
 51
89.9870330319
  0
ARC
  5
5D9
100
AcDbEntity
  8
RACCORDO
100
AcDbCircle
 62
7
  6
CONTINUOUS
 10
19.6500468552
 20
24.250904254
 40
0.2490957524
100
AcDbArc
 50
90.0129669682
 51
96.0795845407
  0
ARC
  5
5DA
100
AcDbEntity
  8
RACCORDO
100
AcDbCircle
 62
7
  6
CONTINUOUS
 10
21.1499531448
 20
24.250904254
 40
0.2490957524
100
AcDbArc
 50
83.9204154593
 51
89.9870330318
  0
ARC
  5
5DB
100
AcDbEntity
  8
0
100
AcDbCircle
 62
7
  6
CONTINUOUS
 10
12.7
 20
18.65
 40
0.2
100
AcDbArc
 50
179.9999999998
 51
270.0
  0
SPLINE
  5
5DC
100
AcDbEntity
  8
RACCORDO
100
AcDbSpline
 62
7
  6
CONTINUOUS
 70
0
 71
3
 72
11
 73
7
 74
0
 42
0.0000001
 43
0.0000001
 44
0.0000000001
 40
0.0
 40
0.0
 40
0.0
 40
0.0
 40
0.2487920429
 40
0.4990402106
 40
0.7494612651
 40
1.0
 40
1.0
 40
1.0
 40
1.0
 10
22.3999750783
 20
-21.9023167166
 30
0.0
 10
22.3999750776
 20
-21.9668943909
 30
0.0
 10
22.3733062059
 20
-22.0977114221
 30
0.0
 10
22.2623417332
 20
-22.2633024125
 30
0.0
 10
22.0960278238
 20
-22.3743519856
 30
0.0
 10
21.9645389006
 20
-22.4
 30
0.0
 10
21.8995078465
 20
-22.4
 30
0.0
  0
SPLINE
  5
5DD
100
AcDbEntity
  8
RACCORDO
100
AcDbSpline
 62
7
  6
CONTINUOUS
 70
0
 71
3
 72
11
 73
7
 74
0
 42
0.0000001
 43
0.0000001
 44
0.0000000001
 40
0.0
 40
0.0
 40
0.0
 40
0.0
 40
0.2488450292
 40
0.4990852118
 40
0.7494844046
 40
1.0
 40
1.0
 40
1.0
 40
1.0
 10
22.4000125338
 20
21.8995952346
 30
0.0
 10
22.4000125331
 20
21.964332067
 30
0.0
 10
22.374445448
 20
22.0956026309
 30
0.0
 10
22.2636497591
 20
22.262040942
 30
0.0
 10
22.0973667529
 20
22.3737907186
 30
0.0
 10
21.9656268108
 20
22.4
 30
0.0
 10
21.9004553819
 20
22.4
 30
0.0
  0
SPLINE
  5
5DE
100
AcDbEntity
  8
RACCORDO
100
AcDbSpline
 62
7
  6
CONTINUOUS
 70
0
 71
3
 72
11
 73
7
 74
0
 42
0.0000001
 43
0.0000001
 44
0.0000000001
 40
0.0
 40
0.0
 40
0.0
 40
0.0
 40
0.2487920429
 40
0.4990402106
 40
0.7494612651
 40
1.0
 40
1.0
 40
1.0
 40
1.0
 10
-22.3999750783
 20
21.9023167166
 30
0.0
 10
-22.3999750776
 20
21.9668943909
 30
0.0
 10
-22.3733062059
 20
22.0977114221
 30
0.0
 10
-22.2623417332
 20
22.2633024125
 30
0.0
 10
-22.0960278238
 20
22.3743519856
 30
0.0
 10
-21.9645389006
 20
22.4
 30
0.0
 10
-21.8995078465
 20
22.4
 30
0.0
  0
SPLINE
  5
5DF
100
AcDbEntity
  8
RACCORDO
100
AcDbSpline
 62
7
  6
CONTINUOUS
 70
0
 71
3
 72
11
 73
7
 74
0
 42
0.0000001
 43
0.0000001
 44
0.0000000001
 40
0.0
 40
0.0
 40
0.0
 40
0.0
 40
0.2488450292
 40
0.4990852118
 40
0.7494844046
 40
1.0
 40
1.0
 40
1.0
 40
1.0
 10
-22.4000125338
 20
-21.8995952346
 30
0.0
 10
-22.4000125331
 20
-21.964332067
 30
0.0
 10
-22.374445448
 20
-22.0956026309
 30
0.0
 10
-22.2636497591
 20
-22.262040942
 30
0.0
 10
-22.0973667529
 20
-22.3737907186
 30
0.0
 10
-21.9656268108
 20
-22.4
 30
0.0
 10
-21.9004553819
 20
-22.4
 30
0.0
  0
SPLINE
  5
5E0
100
AcDbEntity
  8
RACCORDO
100
AcDbSpline
 62
7
  6
CONTINUOUS
 70
0
 71
3
 72
8
 73
4
 74
0
 42
0.0000001
 43
0.0000001
 44
0.0000000001
 40
0.0
 40
0.0
 40
0.0
 40
0.0
 40
1.0
 40
1.0
 40
1.0
 40
1.0
 10
21.1763348174
 20
-24.4985990283
 30
0.0
 10
21.2109559428
 20
-24.4949169572
 30
0.0
 10
21.2455135799
 20
-24.4836461542
 30
0.0
 10
21.275617106
 20
-24.466154508
 30
0.0
  0
SPLINE
  5
5E1
100
AcDbEntity
  8
RACCORDO
100
AcDbSpline
 62
7
  6
CONTINUOUS
 70
0
 71
3
 72
8
 73
4
 74
0
 42
0.0000001
 43
0.0000001
 44
0.0000000001
 40
0.0
 40
0.0
 40
0.0
 40
0.0
 40
1.0
 40
1.0
 40
1.0
 40
1.0
 10
19.6236651826
 20
-24.4985990283
 30
0.0
 10
19.5890440572
 20
-24.4949169572
 30
0.0
 10
19.5544864201
 20
-24.4836461542
 30
0.0
 10
19.524382894
 20
-24.466154508
 30
0.0
  0
SPLINE
  5
5E2
100
AcDbEntity
  8
RACCORDO
100
AcDbSpline
 62
7
  6
CONTINUOUS
 70
0
 71
3
 72
8
 73
4
 74
0
 42
0.0000001
 43
0.0000001
 44
0.0000000001
 40
0.0
 40
0.0
 40
0.0
 40
0.0
 40
1.0
 40
1.0
 40
1.0
 40
1.0
 10
2.8763348174
 20
-24.4985990283
 30
0.0
 10
2.9109559428
 20
-24.4949169572
 30
0.0
 10
2.9455135799
 20
-24.4836461542
 30
0.0
 10
2.975617106
 20
-24.466154508
 30
0.0
  0
SPLINE
  5
5E3
100
AcDbEntity
  8
RACCORDO
100
AcDbSpline
 62
7
  6
CONTINUOUS
 70
0
 71
3
 72
8
 73
4
 74
0
 42
0.0000001
 43
0.0000001
 44
0.0000000001
 40
0.0
 40
0.0
 40
0.0
 40
0.0
 40
1.0
 40
1.0
 40
1.0
 40
1.0
 10
1.3236651826
 20
-24.4985990283
 30
0.0
 10
1.2890440572
 20
-24.4949169572
 30
0.0
 10
1.2544864201
 20
-24.4836461542
 30
0.0
 10
1.224382894
 20
-24.466154508
 30
0.0
  0
SPLINE
  5
5E4
100
AcDbEntity
  8
RACCORDO
100
AcDbSpline
 62
7
  6
CONTINUOUS
 70
0
 71
3
 72
8
 73
4
 74
0
 42
0.0000001
 43
0.0000001
 44
0.0000000001
 40
0.0
 40
0.0
 40
0.0
 40
0.0
 40
1.0
 40
1.0
 40
1.0
 40
1.0
 10
-1.3236651826
 20
-24.4985990283
 30
0.0
 10
-1.2890440572
 20
-24.4949169572
 30
0.0
 10
-1.2544864201
 20
-24.4836461542
 30
0.0
 10
-1.224382894
 20
-24.466154508
 30
0.0
  0
SPLINE
  5
5E5
100
AcDbEntity
  8
RACCORDO
100
AcDbSpline
 62
7
  6
CONTINUOUS
 70
0
 71
3
 72
8
 73
4
 74
0
 42
0.0000001
 43
0.0000001
 44
0.0000000001
 40
0.0
 40
0.0
 40
0.0
 40
0.0
 40
1.0
 40
1.0
 40
1.0
 40
1.0
 10
-2.8763348174
 20
-24.4985990283
 30
0.0
 10
-2.9109559428
 20
-24.4949169572
 30
0.0
 10
-2.9455135799
 20
-24.4836461542
 30
0.0
 10
-2.975617106
 20
-24.466154508
 30
0.0
  0
SPLINE
  5
5E6
100
AcDbEntity
  8
RACCORDO
100
AcDbSpline
 62
7
  6
CONTINUOUS
 70
0
 71
3
 72
8
 73
4
 74
0
 42
0.0000001
 43
0.0000001
 44
0.0000000001
 40
0.0
 40
0.0
 40
0.0
 40
0.0
 40
1.0
 40
1.0
 40
1.0
 40
1.0
 10
-19.6236651826
 20
-24.4985990283
 30
0.0
 10
-19.5890440572
 20
-24.4949169572
 30
0.0
 10
-19.5544864201
 20
-24.4836461542
 30
0.0
 10
-19.524382894
 20
-24.466154508
 30
0.0
  0
SPLINE
  5
5E7
100
AcDbEntity
  8
RACCORDO
100
AcDbSpline
 62
7
  6
CONTINUOUS
 70
0
 71
3
 72
8
 73
4
 74
0
 42
0.0000001
 43
0.0000001
 44
0.0000000001
 40
0.0
 40
0.0
 40
0.0
 40
0.0
 40
1.0
 40
1.0
 40
1.0
 40
1.0
 10
-21.1763348174
 20
-24.4985990283
 30
0.0
 10
-21.2109559428
 20
-24.4949169572
 30
0.0
 10
-21.2455135799
 20
-24.4836461542
 30
0.0
 10
-21.275617106
 20
-24.466154508
 30
0.0
  0
SPLINE
  5
5E8
100
AcDbEntity
  8
RACCORDO
100
AcDbSpline
 62
7
  6
CONTINUOUS
 70
0
 71
3
 72
8
 73
4
 74
0
 42
0.0000001
 43
0.0000001
 44
0.0000000001
 40
0.0
 40
0.0
 40
0.0
 40
0.0
 40
1.0
 40
1.0
 40
1.0
 40
1.0
 10
-21.1763348174
 20
24.4985990283
 30
0.0
 10
-21.2109559428
 20
24.4949169572
 30
0.0
 10
-21.2455135799
 20
24.4836461542
 30
0.0
 10
-21.275617106
 20
24.466154508
 30
0.0
  0
SPLINE
  5
5E9
100
AcDbEntity
  8
RACCORDO
100
AcDbSpline
 62
7
  6
CONTINUOUS
 70
0
 71
3
 72
8
 73
4
 74
0
 42
0.0000001
 43
0.0000001
 44
0.0000000001
 40
0.0
 40
0.0
 40
0.0
 40
0.0
 40
1.0
 40
1.0
 40
1.0
 40
1.0
 10
-19.6236651826
 20
24.4985990283
 30
0.0
 10
-19.5890440572
 20
24.4949169572
 30
0.0
 10
-19.5544864201
 20
24.4836461542
 30
0.0
 10
-19.524382894
 20
24.466154508
 30
0.0
  0
SPLINE
  5
5EA
100
AcDbEntity
  8
RACCORDO
100
AcDbSpline
 62
7
  6
CONTINUOUS
 70
0
 71
3
 72
8
 73
4
 74
0
 42
0.0000001
 43
0.0000001
 44
0.0000000001
 40
0.0
 40
0.0
 40
0.0
 40
0.0
 40
1.0
 40
1.0
 40
1.0
 40
1.0
 10
-2.8763348174
 20
24.4985990283
 30
0.0
 10
-2.9109559428
 20
24.4949169572
 30
0.0
 10
-2.9455135799
 20
24.4836461542
 30
0.0
 10
-2.975617106
 20
24.466154508
 30
0.0
  0
SPLINE
  5
5EB
100
AcDbEntity
  8
RACCORDO
100
AcDbSpline
 62
7
  6
CONTINUOUS
 70
0
 71
3
 72
8
 73
4
 74
0
 42
0.0000001
 43
0.0000001
 44
0.0000000001
 40
0.0
 40
0.0
 40
0.0
 40
0.0
 40
1.0
 40
1.0
 40
1.0
 40
1.0
 10
-1.3236651826
 20
24.4985990283
 30
0.0
 10
-1.2890440572
 20
24.4949169572
 30
0.0
 10
-1.2544864201
 20
24.4836461542
 30
0.0
 10
-1.224382894
 20
24.466154508
 30
0.0
  0
SPLINE
  5
5EC
100
AcDbEntity
  8
RACCORDO
100
AcDbSpline
 62
7
  6
CONTINUOUS
 70
0
 71
3
 72
8
 73
4
 74
0
 42
0.0000001
 43
0.0000001
 44
0.0000000001
 40
0.0
 40
0.0
 40
0.0
 40
0.0
 40
1.0
 40
1.0
 40
1.0
 40
1.0
 10
1.3236651826
 20
24.4985990283
 30
0.0
 10
1.2890440572
 20
24.4949169572
 30
0.0
 10
1.2544864201
 20
24.4836461542
 30
0.0
 10
1.224382894
 20
24.466154508
 30
0.0
  0
SPLINE
  5
5ED
100
AcDbEntity
  8
RACCORDO
100
AcDbSpline
 62
7
  6
CONTINUOUS
 70
0
 71
3
 72
8
 73
4
 74
0
 42
0.0000001
 43
0.0000001
 44
0.0000000001
 40
0.0
 40
0.0
 40
0.0
 40
0.0
 40
1.0
 40
1.0
 40
1.0
 40
1.0
 10
2.8763348174
 20
24.4985990283
 30
0.0
 10
2.9109559428
 20
24.4949169572
 30
0.0
 10
2.9455135799
 20
24.4836461542
 30
0.0
 10
2.975617106
 20
24.466154508
 30
0.0
  0
SPLINE
  5
5EE
100
AcDbEntity
  8
RACCORDO
100
AcDbSpline
 62
7
  6
CONTINUOUS
 70
0
 71
3
 72
8
 73
4
 74
0
 42
0.0000001
 43
0.0000001
 44
0.0000000001
 40
0.0
 40
0.0
 40
0.0
 40
0.0
 40
1.0
 40
1.0
 40
1.0
 40
1.0
 10
19.6236651826
 20
24.4985990283
 30
0.0
 10
19.5890440572
 20
24.4949169572
 30
0.0
 10
19.5544864201
 20
24.4836461542
 30
0.0
 10
19.524382894
 20
24.466154508
 30
0.0
  0
SPLINE
  5
5EF
100
AcDbEntity
  8
RACCORDO
100
AcDbSpline
 62
7
  6
CONTINUOUS
 70
0
 71
3
 72
8
 73
4
 74
0
 42
0.0000001
 43
0.0000001
 44
0.0000000001
 40
0.0
 40
0.0
 40
0.0
 40
0.0
 40
1.0
 40
1.0
 40
1.0
 40
1.0
 10
21.1763348174
 20
24.4985990283
 30
0.0
 10
21.2109559428
 20
24.4949169572
 30
0.0
 10
21.2455135799
 20
24.4836461542
 30
0.0
 10
21.275617106
 20
24.466154508
 30
0.0
  0
SPLINE
  5
5F0
100
AcDbEntity
  8
RACCORDO
100
AcDbSpline
 62
250
  6
CONTINUOUS
 70
0
 71
3
 72
11
 73
7
 74
0
 42
0.0000001
 43
0.0000001
 44
0.0000000001
 40
0.0
 40
0.0
 40
0.0
 40
0.0
 40
0.2661402014
 40
0.5232805203
 40
0.7668302387
 40
1.0
 40
1.0
 40
1.0
 40
1.0
 10
-21.1434453296
 20
23.7278312164
 30
0.0
 10
-21.1757393262
 20
23.7279532503
 30
0.0
 10
-21.2397483832
 20
23.7389308803
 30
0.0
 10
-21.3223289928
 20
23.7859694128
 30
0.0
 10
-21.3792870639
 20
23.8575458048
 30
0.0
 10
-21.3932932673
 20
23.9160444284
 30
0.0
 10
-21.3934358103
 20
23.9443375673
 30
0.0
  0
SPLINE
  5
5F1
100
AcDbEntity
  8
RACCORDO
100
AcDbSpline
 62
250
  6
CONTINUOUS
 70
0
 71
3
 72
11
 73
7
 74
0
 42
0.0000001
 43
0.0000001
 44
0.0000000001
 40
0.0
 40
0.0
 40
0.0
 40
0.0
 40
0.2331697613
 40
0.4767194797
 40
0.7338597986
 40
1.0
 40
1.0
 40
1.0
 40
1.0
 10
-19.4065641897
 20
23.9443375673
 30
0.0
 10
-19.4067067327
 20
23.9160444284
 30
0.0
 10
-19.4207129361
 20
23.8575458048
 30
0.0
 10
-19.4776710072
 20
23.7859694128
 30
0.0
 10
-19.5602516168
 20
23.7389308803
 30
0.0
 10
-19.6242606738
 20
23.7279532503
 30
0.0
 10
-19.6565546704
 20
23.7278312164
 30
0.0
  0
SPLINE
  5
5F2
100
AcDbEntity
  8
RACCORDO
100
AcDbSpline
 62
250
  6
CONTINUOUS
 70
0
 71
3
 72
11
 73
7
 74
0
 42
0.0000001
 43
0.0000001
 44
0.0000000001
 40
0.0
 40
0.0
 40
0.0
 40
0.0
 40
0.2661402014
 40
0.5232805203
 40
0.7668302387
 40
1.0
 40
1.0
 40
1.0
 40
1.0
 10
-2.8434453296
 20
23.7278312164
 30
0.0
 10
-2.8757393262
 20
23.7279532503
 30
0.0
 10
-2.9397483832
 20
23.7389308803
 30
0.0
 10
-3.0223289928
 20
23.7859694128
 30
0.0
 10
-3.0792870639
 20
23.8575458048
 30
0.0
 10
-3.0932932673
 20
23.9160444284
 30
0.0
 10
-3.0934358103
 20
23.9443375673
 30
0.0
  0
SPLINE
  5
5F3
100
AcDbEntity
  8
RACCORDO
100
AcDbSpline
 62
250
  6
CONTINUOUS
 70
0
 71
3
 72
11
 73
7
 74
0
 42
0.0000001
 43
0.0000001
 44
0.0000000001
 40
0.0
 40
0.0
 40
0.0
 40
0.0
 40
0.2331697613
 40
0.4767194797
 40
0.7338597986
 40
1.0
 40
1.0
 40
1.0
 40
1.0
 10
-1.1065641897
 20
23.9443375673
 30
0.0
 10
-1.1067067327
 20
23.9160444284
 30
0.0
 10
-1.1207129361
 20
23.8575458048
 30
0.0
 10
-1.1776710072
 20
23.7859694128
 30
0.0
 10
-1.2602516168
 20
23.7389308803
 30
0.0
 10
-1.3242606738
 20
23.7279532503
 30
0.0
 10
-1.3565546704
 20
23.7278312164
 30
0.0
  0
SPLINE
  5
5F4
100
AcDbEntity
  8
RACCORDO
100
AcDbSpline
 62
250
  6
CONTINUOUS
 70
0
 71
3
 72
11
 73
7
 74
0
 42
0.0000001
 43
0.0000001
 44
0.0000000001
 40
0.0
 40
0.0
 40
0.0
 40
0.0
 40
0.2661402014
 40
0.5232805203
 40
0.7668302387
 40
1.0
 40
1.0
 40
1.0
 40
1.0
 10
1.3565546704
 20
23.7278312164
 30
0.0
 10
1.3242606738
 20
23.7279532503
 30
0.0
 10
1.2602516168
 20
23.7389308803
 30
0.0
 10
1.1776710072
 20
23.7859694128
 30
0.0
 10
1.1207129361
 20
23.8575458048
 30
0.0
 10
1.1067067327
 20
23.9160444284
 30
0.0
 10
1.1065641897
 20
23.9443375673
 30
0.0
  0
SPLINE
  5
5F5
100
AcDbEntity
  8
RACCORDO
100
AcDbSpline
 62
250
  6
CONTINUOUS
 70
0
 71
3
 72
11
 73
7
 74
0
 42
0.0000001
 43
0.0000001
 44
0.0000000001
 40
0.0
 40
0.0
 40
0.0
 40
0.0
 40
0.2331697613
 40
0.4767194797
 40
0.7338597986
 40
1.0
 40
1.0
 40
1.0
 40
1.0
 10
3.0934358103
 20
23.9443375673
 30
0.0
 10
3.0932932673
 20
23.9160444284
 30
0.0
 10
3.0792870639
 20
23.8575458048
 30
0.0
 10
3.0223289928
 20
23.7859694128
 30
0.0
 10
2.9397483832
 20
23.7389308803
 30
0.0
 10
2.8757393262
 20
23.7279532503
 30
0.0
 10
2.8434453296
 20
23.7278312164
 30
0.0
  0
SPLINE
  5
5F6
100
AcDbEntity
  8
RACCORDO
100
AcDbSpline
 62
250
  6
CONTINUOUS
 70
0
 71
3
 72
11
 73
7
 74
0
 42
0.0000001
 43
0.0000001
 44
0.0000000001
 40
0.0
 40
0.0
 40
0.0
 40
0.0
 40
0.2661402014
 40
0.5232805203
 40
0.7668302387
 40
1.0
 40
1.0
 40
1.0
 40
1.0
 10
19.6565546704
 20
23.7278312164
 30
0.0
 10
19.6242606738
 20
23.7279532503
 30
0.0
 10
19.5602516168
 20
23.7389308803
 30
0.0
 10
19.4776710072
 20
23.7859694128
 30
0.0
 10
19.4207129361
 20
23.8575458048
 30
0.0
 10
19.4067067327
 20
23.9160444284
 30
0.0
 10
19.4065641897
 20
23.9443375673
 30
0.0
  0
SPLINE
  5
5F7
100
AcDbEntity
  8
RACCORDO
100
AcDbSpline
 62
250
  6
CONTINUOUS
 70
0
 71
3
 72
11
 73
7
 74
0
 42
0.0000001
 43
0.0000001
 44
0.0000000001
 40
0.0
 40
0.0
 40
0.0
 40
0.0
 40
0.2331697613
 40
0.4767194797
 40
0.7338597986
 40
1.0
 40
1.0
 40
1.0
 40
1.0
 10
21.3934358103
 20
23.9443375673
 30
0.0
 10
21.3932932673
 20
23.9160444284
 30
0.0
 10
21.3792870639
 20
23.8575458048
 30
0.0
 10
21.3223289928
 20
23.7859694128
 30
0.0
 10
21.2397483832
 20
23.7389308803
 30
0.0
 10
21.1757393262
 20
23.7279532503
 30
0.0
 10
21.1434453296
 20
23.7278312164
 30
0.0
  0
SPLINE
  5
5F8
100
AcDbEntity
  8
RACCORDO
100
AcDbSpline
 62
250
  6
CONTINUOUS
 70
0
 71
3
 72
11
 73
7
 74
0
 42
0.0000001
 43
0.0000001
 44
0.0000000001
 40
0.0
 40
0.0
 40
0.0
 40
0.0
 40
0.2331697613
 40
0.4767194797
 40
0.7338597986
 40
1.0
 40
1.0
 40
1.0
 40
1.0
 10
19.4065641897
 20
-23.9443375673
 30
0.0
 10
19.4067067327
 20
-23.9160444284
 30
0.0
 10
19.4207129361
 20
-23.8575458048
 30
0.0
 10
19.4776710072
 20
-23.7859694128
 30
0.0
 10
19.5602516168
 20
-23.7389308803
 30
0.0
 10
19.6242606738
 20
-23.7279532503
 30
0.0
 10
19.6565546704
 20
-23.7278312164
 30
0.0
  0
SPLINE
  5
5F9
100
AcDbEntity
  8
RACCORDO
100
AcDbSpline
 62
250
  6
CONTINUOUS
 70
0
 71
3
 72
11
 73
7
 74
0
 42
0.0000001
 43
0.0000001
 44
0.0000000001
 40
0.0
 40
0.0
 40
0.0
 40
0.0
 40
0.2331697613
 40
0.4767194797
 40
0.7338597985
 40
1.0
 40
1.0
 40
1.0
 40
1.0
 10
3.0934358103
 20
-23.9443375673
 30
0.0
 10
3.0932932673
 20
-23.9160444284
 30
0.0
 10
3.0792870639
 20
-23.8575458048
 30
0.0
 10
3.0223289928
 20
-23.7859694128
 30
0.0
 10
2.9397483832
 20
-23.7389308803
 30
0.0
 10
2.8757393262
 20
-23.7279532504
 30
0.0
 10
2.8434453296
 20
-23.7278312164
 30
0.0
  0
SPLINE
  5
5FA
100
AcDbEntity
  8
RACCORDO
100
AcDbSpline
 62
250
  6
CONTINUOUS
 70
0
 71
3
 72
11
 73
7
 74
0
 42
0.0000001
 43
0.0000001
 44
0.0000000001
 40
0.0
 40
0.0
 40
0.0
 40
0.0
 40
0.2331697613
 40
0.4767194797
 40
0.7338597985
 40
1.0
 40
1.0
 40
1.0
 40
1.0
 10
21.3934358103
 20
-23.9443375673
 30
0.0
 10
21.3932932673
 20
-23.9160444284
 30
0.0
 10
21.3792870639
 20
-23.8575458048
 30
0.0
 10
21.3223289928
 20
-23.7859694128
 30
0.0
 10
21.2397483832
 20
-23.7389308803
 30
0.0
 10
21.1757393262
 20
-23.7279532504
 30
0.0
 10
21.1434453296
 20
-23.7278312164
 30
0.0
  0
SPLINE
  5
5FB
100
AcDbEntity
  8
RACCORDO
100
AcDbSpline
 62
250
  6
CONTINUOUS
 70
0
 71
3
 72
11
 73
7
 74
0
 42
0.0000001
 43
0.0000001
 44
0.0000000001
 40
0.0
 40
0.0
 40
0.0
 40
0.0
 40
0.2331697613
 40
0.4767194797
 40
0.7338597986
 40
1.0
 40
1.0
 40
1.0
 40
1.0
 10
1.1065641897
 20
-23.9443375673
 30
0.0
 10
1.1067067327
 20
-23.9160444284
 30
0.0
 10
1.1207129361
 20
-23.8575458048
 30
0.0
 10
1.1776710072
 20
-23.7859694128
 30
0.0
 10
1.2602516168
 20
-23.7389308803
 30
0.0
 10
1.3242606738
 20
-23.7279532503
 30
0.0
 10
1.3565546704
 20
-23.7278312164
 30
0.0
  0
SPLINE
  5
5FC
100
AcDbEntity
  8
RACCORDO
100
AcDbSpline
 62
250
  6
CONTINUOUS
 70
0
 71
3
 72
11
 73
7
 74
0
 42
0.0000001
 43
0.0000001
 44
0.0000000001
 40
0.0
 40
0.0
 40
0.0
 40
0.0
 40
0.2331697613
 40
0.4767194797
 40
0.7338597985
 40
1.0
 40
1.0
 40
1.0
 40
1.0
 10
-1.1065641897
 20
-23.9443375673
 30
0.0
 10
-1.1067067327
 20
-23.9160444284
 30
0.0
 10
-1.1207129361
 20
-23.8575458048
 30
0.0
 10
-1.1776710072
 20
-23.7859694128
 30
0.0
 10
-1.2602516168
 20
-23.7389308803
 30
0.0
 10
-1.3242606738
 20
-23.7279532504
 30
0.0
 10
-1.3565546704
 20
-23.7278312164
 30
0.0
  0
SPLINE
  5
5FD
100
AcDbEntity
  8
RACCORDO
100
AcDbSpline
 62
250
  6
CONTINUOUS
 70
0
 71
3
 72
11
 73
7
 74
0
 42
0.0000001
 43
0.0000001
 44
0.0000000001
 40
0.0
 40
0.0
 40
0.0
 40
0.0
 40
0.2331697613
 40
0.4767194797
 40
0.7338597986
 40
1.0
 40
1.0
 40
1.0
 40
1.0
 10
-3.0934358103
 20
-23.9443375673
 30
0.0
 10
-3.0932932673
 20
-23.9160444284
 30
0.0
 10
-3.0792870639
 20
-23.8575458048
 30
0.0
 10
-3.0223289928
 20
-23.7859694128
 30
0.0
 10
-2.9397483832
 20
-23.7389308803
 30
0.0
 10
-2.8757393262
 20
-23.7279532503
 30
0.0
 10
-2.8434453296
 20
-23.7278312164
 30
0.0
  0
SPLINE
  5
5FE
100
AcDbEntity
  8
RACCORDO
100
AcDbSpline
 62
250
  6
CONTINUOUS
 70
0
 71
3
 72
11
 73
7
 74
0
 42
0.0000001
 43
0.0000001
 44
0.0000000001
 40
0.0
 40
0.0
 40
0.0
 40
0.0
 40
0.2331697613
 40
0.4767194797
 40
0.7338597985
 40
1.0
 40
1.0
 40
1.0
 40
1.0
 10
-19.4065641897
 20
-23.9443375673
 30
0.0
 10
-19.4067067327
 20
-23.9160444284
 30
0.0
 10
-19.4207129361
 20
-23.8575458048
 30
0.0
 10
-19.4776710072
 20
-23.7859694128
 30
0.0
 10
-19.5602516168
 20
-23.7389308803
 30
0.0
 10
-19.6242606738
 20
-23.7279532504
 30
0.0
 10
-19.6565546704
 20
-23.7278312164
 30
0.0
  0
SPLINE
  5
5FF
100
AcDbEntity
  8
RACCORDO
100
AcDbSpline
 62
250
  6
CONTINUOUS
 70
0
 71
3
 72
11
 73
7
 74
0
 42
0.0000001
 43
0.0000001
 44
0.0000000001
 40
0.0
 40
0.0
 40
0.0
 40
0.0
 40
0.2331697613
 40
0.4767194797
 40
0.7338597986
 40
1.0
 40
1.0
 40
1.0
 40
1.0
 10
-21.3934358103
 20
-23.9443375673
 30
0.0
 10
-21.3932932673
 20
-23.9160444284
 30
0.0
 10
-21.3792870639
 20
-23.8575458048
 30
0.0
 10
-21.3223289928
 20
-23.7859694128
 30
0.0
 10
-21.2397483832
 20
-23.7389308803
 30
0.0
 10
-21.1757393262
 20
-23.7279532503
 30
0.0
 10
-21.1434453296
 20
-23.7278312164
 30
0.0
  0
ELLIPSE
  5
600
100
AcDbEntity
  8
RACCORDO
100
AcDbEllipse
 62
7
  6
CONTINUOUS
 10
-13.123863101
 20
18.773863101
 30
0.0
 11
-0.2121966568
 21
0.2121966568
 31
0.0
 40
0.9996954599
 41
2.3563467834
 42
3.9268385237
  0
ELLIPSE
  5
601
100
AcDbEntity
  8
RACCORDO
100
AcDbEllipse
 62
7
  6
CONTINUOUS
 10
-13.123863101
 20
-18.773863101
 30
0.0
 11
-0.2121966568
 21
-0.2121966568
 31
0.0
 40
0.9996954599
 41
2.3563467834
 42
3.9268385237
  0
ELLIPSE
  5
602
100
AcDbEntity
  8
RACCORDO
100
AcDbEllipse
 62
7
  6
CONTINUOUS
 10
13.123863101
 20
-18.773863101
 30
0.0
 11
0.2121966568
 21
-0.2121966568
 31
0.0
 40
0.9996954599
 41
2.3563467834
 42
3.9268385237
  0
ELLIPSE
  5
603
100
AcDbEntity
  8
RACCORDO
100
AcDbEllipse
 62
7
  6
CONTINUOUS
 10
13.123863101
 20
18.773863101
 30
0.0
 11
0.2121966568
 21
0.2121966568
 31
0.0
 40
0.9996954599
 41
2.3563467834
 42
3.9268385237
  0
ELLIPSE
  5
604
100
AcDbEntity
  8
RACCORDO
100
AcDbEllipse
 62
7
  6
CONTINUOUS
 10
-21.1499904804
 20
23.5113248654
 30
0.0
 11
0.0043630601
 21
0.2886504061
 31
0.0
 40
0.8660006717
 41
-4.6949365185
 42
-3.1285034733
  0
ELLIPSE
  5
605
100
AcDbEntity
  8
RACCORDO
100
AcDbEllipse
 62
7
  6
CONTINUOUS
 10
-19.6500095196
 20
23.5113248654
 30
0.0
 11
-0.0043630601
 21
0.2886504061
 31
0.0
 40
0.8660006717
 41
-3.1546818339
 42
-1.5882487887
  0
ELLIPSE
  5
606
100
AcDbEntity
  8
RACCORDO
100
AcDbEllipse
 62
7
  6
CONTINUOUS
 10
-2.8499904804
 20
23.5113248654
 30
0.0
 11
0.0043630601
 21
0.2886504061
 31
0.0
 40
0.8660006717
 41
-4.6949365185
 42
-3.1285034733
  0
ELLIPSE
  5
607
100
AcDbEntity
  8
RACCORDO
100
AcDbEllipse
 62
7
  6
CONTINUOUS
 10
-1.3500095196
 20
23.5113248654
 30
0.0
 11
-0.0043630601
 21
0.2886504061
 31
0.0
 40
0.8660006717
 41
-3.1546818339
 42
-1.5882487887
  0
ELLIPSE
  5
608
100
AcDbEntity
  8
RACCORDO
100
AcDbEllipse
 62
7
  6
CONTINUOUS
 10
1.3500095196
 20
23.5113248654
 30
0.0
 11
0.0043630601
 21
0.2886504061
 31
0.0
 40
0.8660006717
 41
-4.6949365185
 42
-3.1285034733
  0
ELLIPSE
  5
609
100
AcDbEntity
  8
RACCORDO
100
AcDbEllipse
 62
7
  6
CONTINUOUS
 10
2.8499904804
 20
23.5113248654
 30
0.0
 11
-0.0043630601
 21
0.2886504061
 31
0.0
 40
0.8660006717
 41
-3.1546818339
 42
-1.5882487887
  0
ELLIPSE
  5
60A
100
AcDbEntity
  8
RACCORDO
100
AcDbEllipse
 62
7
  6
CONTINUOUS
 10
19.6500095196
 20
23.5113248654
 30
0.0
 11
0.0043630601
 21
0.2886504061
 31
0.0
 40
0.8660006717
 41
-4.6949365185
 42
-3.1285034733
  0
ELLIPSE
  5
60B
100
AcDbEntity
  8
RACCORDO
100
AcDbEllipse
 62
7
  6
CONTINUOUS
 10
21.1499904804
 20
23.5113248654
 30
0.0
 11
-0.0043630601
 21
0.2886504061
 31
0.0
 40
0.8660006717
 41
-3.1546818339
 42
-1.5882487887
  0
ELLIPSE
  5
60C
100
AcDbEntity
  8
RACCORDO
100
AcDbEllipse
 62
7
  6
CONTINUOUS
 10
18.0652694854
 20
21.3912350538
 30
0.0
 11
0.3827005044
 21
0.9239207481
 31
0.0
 40
0.9999553905
 41
-0.3926833098
 42
0.3926833098
  0
ELLIPSE
  5
60D
100
AcDbEntity
  8
RACCORDO
100
AcDbEllipse
 62
7
  6
CONTINUOUS
 10
21.3916713972
 20
18.064833142
 30
0.0
 11
0.9239207481
 21
0.3827005044
 31
0.0
 40
0.9999553905
 41
-0.3926833098
 42
0.3926833098
  0
ELLIPSE
  5
60E
100
AcDbEntity
  8
RACCORDO
100
AcDbEllipse
 62
7
  6
CONTINUOUS
 10
21.3916713972
 20
-18.064833142
 30
0.0
 11
0.9239207481
 21
-0.3827005044
 31
0.0
 40
0.9999553905
 41
-0.3926833098
 42
0.3926833098
  0
ELLIPSE
  5
60F
100
AcDbEntity
  8
RACCORDO
100
AcDbEllipse
 62
7
  6
CONTINUOUS
 10
18.0652694854
 20
-21.3912350538
 30
0.0
 11
-0.3827005044
 21
0.9239207481
 31
0.0
 40
0.9999553905
 41
-3.5342759634
 42
-2.7489093438
  0
ELLIPSE
  5
610
100
AcDbEntity
  8
RACCORDO
100
AcDbEllipse
 62
7
  6
CONTINUOUS
 10
-18.0652694854
 20
-21.3912350538
 30
0.0
 11
0.3827005044
 21
0.9239207481
 31
0.0
 40
0.9999553905
 41
-3.5342759634
 42
-2.7489093438
  0
ELLIPSE
  5
611
100
AcDbEntity
  8
RACCORDO
100
AcDbEllipse
 62
7
  6
CONTINUOUS
 10
-21.3916713972
 20
-18.064833142
 30
0.0
 11
0.9239207481
 21
0.3827005044
 31
0.0
 40
0.9999553905
 41
2.7489093438
 42
3.5342759634
  0
ELLIPSE
  5
612
100
AcDbEntity
  8
RACCORDO
100
AcDbEllipse
 62
7
  6
CONTINUOUS
 10
-21.3916713972
 20
18.064833142
 30
0.0
 11
0.9239207481
 21
-0.3827005044
 31
0.0
 40
0.9999553905
 41
2.7489093438
 42
3.5342759634
  0
ELLIPSE
  5
613
100
AcDbEntity
  8
RACCORDO
100
AcDbEllipse
 62
7
  6
CONTINUOUS
 10
-18.0652694854
 20
21.3912350538
 30
0.0
 11
-0.3827005044
 21
0.9239207481
 31
0.0
 40
0.9999553905
 41
-0.3926833098
 42
0.3926833098
  0
ELLIPSE
  5
614
100
AcDbEntity
  8
RACCORDO
100
AcDbEllipse
 62
7
  6
CONTINUOUS
 10
19.6500095196
 20
-23.5113248654
 30
0.0
 11
-0.0043630601
 21
0.2886504061
 31
0.0
 40
0.8660006717
 41
-0.0130891803
 42
1.5533438649
  0
ELLIPSE
  5
615
100
AcDbEntity
  8
RACCORDO
100
AcDbEllipse
 62
7
  6
CONTINUOUS
 10
2.8499904804
 20
-23.5113248654
 30
0.0
 11
0.0043630601
 21
0.2886504061
 31
0.0
 40
0.8660006717
 41
-1.5533438649
 42
0.0130891803
  0
ELLIPSE
  5
616
100
AcDbEntity
  8
RACCORDO
100
AcDbEllipse
 62
7
  6
CONTINUOUS
 10
-21.8916904364
 20
-21.891254093
 30
0.0
 11
-0.3535803156
 21
-0.3535803156
 31
0.0
 40
0.9999238505
 41
-0.7853600872
 42
0.7853600872
  0
ELLIPSE
  5
617
100
AcDbEntity
  8
RACCORDO
100
AcDbEllipse
 62
7
  6
CONTINUOUS
 10
-21.8916904364
 20
21.891254093
 30
0.0
 11
0.3535803156
 21
-0.3535803156
 31
0.0
 40
0.9999238505
 41
2.3562325664
 42
3.9269527408
  0
ELLIPSE
  5
618
100
AcDbEntity
  8
RACCORDO
100
AcDbEllipse
 62
7
  6
CONTINUOUS
 10
21.8916904364
 20
21.891254093
 30
0.0
 11
0.3535803156
 21
0.3535803156
 31
0.0
 40
0.9999238505
 41
-0.7853600872
 42
0.7853600872
  0
ELLIPSE
  5
619
100
AcDbEntity
  8
RACCORDO
100
AcDbEllipse
 62
7
  6
CONTINUOUS
 10
21.8916904364
 20
-21.891254093
 30
0.0
 11
-0.3535803156
 21
0.3535803156
 31
0.0
 40
0.9999238505
 41
2.3562325664
 42
3.9269527408
  0
ELLIPSE
  5
61A
100
AcDbEntity
  8
RACCORDO
100
AcDbEllipse
 62
7
  6
CONTINUOUS
 10
-19.1070124916
 20
1.656982026
 30
0.0
 11
0.2
 21
0.0
 31
0.0
 40
0.0174550649
 41
0.0174532925
 42
1.5707963268
  0
ELLIPSE
  5
61B
100
AcDbEntity
  8
RACCORDO
100
AcDbEllipse
 62
7
  6
CONTINUOUS
 10
19.1070124916
 20
1.656982026
 30
0.0
 11
0.2
 21
0.0
 31
0.0
 40
0.0174550649
 41
1.5707963268
 42
3.1241393611
  0
ELLIPSE
  5
61C
100
AcDbEntity
  8
RACCORDO
100
AcDbEllipse
 62
7
  6
CONTINUOUS
 10
1.3500095196
 20
-23.5113248654
 30
0.0
 11
-0.0043630601
 21
0.2886504061
 31
0.0
 40
0.8660006717
 41
-0.0130891803
 42
1.5533438649
  0
ELLIPSE
  5
61D
100
AcDbEntity
  8
RACCORDO
100
AcDbEllipse
 62
7
  6
CONTINUOUS
 10
-1.3500095196
 20
-23.5113248654
 30
0.0
 11
0.0043630601
 21
0.2886504061
 31
0.0
 40
0.8660006717
 41
-1.5533438649
 42
0.0130891803
  0
ELLIPSE
  5
61E
100
AcDbEntity
  8
RACCORDO
100
AcDbEllipse
 62
7
  6
CONTINUOUS
 10
21.1499904804
 20
-23.5113248654
 30
0.0
 11
0.0043630601
 21
0.2886504061
 31
0.0
 40
0.8660006717
 41
-1.5533438649
 42
0.0130891803
  0
ELLIPSE
  5
61F
100
AcDbEntity
  8
RACCORDO
100
AcDbEllipse
 62
7
  6
CONTINUOUS
 10
-2.8499904804
 20
-23.5113248654
 30
0.0
 11
-0.0043630601
 21
0.2886504061
 31
0.0
 40
0.8660006717
 41
-0.0130891803
 42
1.5533438649
  0
ELLIPSE
  5
620
100
AcDbEntity
  8
RACCORDO
100
AcDbEllipse
 62
7
  6
CONTINUOUS
 10
-19.6500095196
 20
-23.5113248654
 30
0.0
 11
0.0043630601
 21
0.2886504061
 31
0.0
 40
0.8660006717
 41
-1.5533438649
 42
0.0130891803
  0
ELLIPSE
  5
621
100
AcDbEntity
  8
RACCORDO
100
AcDbEllipse
 62
7
  6
CONTINUOUS
 10
-21.1499904804
 20
-23.5113248654
 30
0.0
 11
-0.0043630601
 21
0.2886504061
 31
0.0
 40
0.8660006717
 41
-0.0130891803
 42
1.5533438649
  0
ENDSEC
  0
SECTION
  2
OBJECTS
  0
DICTIONARY
  5
C
100
AcDbDictionary
280
0
281
1
  3
ACAD_GROUP
350
D
  3
ACAD_MLINESTYLE
350
17
  3
ACAD_LAYOUT
350
1A
  3
ACAD_PLOTSETTINGS
350
19
  3
ACAD_PLOTSTYLENAME
350
E
  0
DICTIONARY
  5
D
102
{ACAD_REACTORS
330
C
102
}
100
AcDbDictionary
280
0
281
1
  0
ACDBDICTIONARYWDFLT
  5
E
102
{ACAD_REACTORS
330
C
102
}
100
AcDbDictionary
281
1
  3
Normal
350
F
100
AcDbDictionaryWithDefault
340
F
  0
DICTIONARY
  5
17
102
{ACAD_REACTORS
330
C
102
}
100
AcDbDictionary
280
0
281
1
  3
Standard
350
18
  0
DICTIONARY
  5
19
102
{ACAD_REACTORS
330
C
102
}
100
AcDbDictionary
281
1
  0
DICTIONARY
  5
1A
102
{ACAD_REACTORS
330
C
102
}
100
AcDbDictionary
281
1
  3
Model
350
622
  3
Layout1
350
623
  0
ACDBPLACEHOLDER
  5
F
102
{ACAD_REACTORS
330
E
102
}
  0
MLINESTYLE
  5
18
102
{ACAD_REACTORS
330
17
102
}
100
AcDbMlineStyle
  2
STANDARD
 70
0
  3

 62
256
 51
90.0
 52
90.0
 71
2
 49
0.5
 62
256
  6
BYLAYER
 49
-0.5
 62
256
  6
BYLAYER
  0
LAYOUT
  5
622
102
{ACAD_REACTORS
330
1A
102
}
100
AcDbPlotSettings
  1

  2
none_device
  4
ISO_A4_(297.00_x_210.00_MM)
  6

 40
0.0
 41
0.0
 42
0.0
 43
0.0
 44
297.0
 45
210.0
 46
0.0
 47
0.0
 48
0.0
 49
0.0
140
0.0
141
0.0
142
1.0
143
1.0
 70
1024
 72
1
 73
0
 74
0
  7

 75
0
147
1.0
148
0.0
149
0.0
100
AcDbLayout
  1
Model
 70
0
 71
0
 10
0.0
 20
0.0
 11
297.0
 21
210.0
 12
0.0
 22
0.0
 32
0.0
 14
0.0
 24
0.0
 34
0.0
 15
0.0
 25
0.0
 35
0.0
146
0.0
 13
0.0
 23
0.0
 33
0.0
 16
1.0
 26
0.0
 36
0.0
 17
0.0
 27
1.0
 37
0.0
 76
0
330
219
345
0
346
0
  0
LAYOUT
  5
623
102
{ACAD_REACTORS
330
1A
102
}
100
AcDbPlotSettings
  1

  2
none_device
  4
ISO_A4_(297.00_x_210.00_MM)
  6

 40
0.0
 41
0.0
 42
0.0
 43
0.0
 44
297.0
 45
210.0
 46
0.0
 47
0.0
 48
0.0
 49
0.0
140
0.0
141
0.0
142
1.0
143
1.0
 70
0
 72
1
 73
0
 74
0
  7

 75
0
147
1.0
148
0.0
149
0.0
100
AcDbLayout
  1
Layout1
 70
0
 71
1
 10
0.0
 20
0.0
 11
297.0
 21
210.0
 12
0.0
 22
0.0
 32
0.0
 14
0.0
 24
0.0
 34
0.0
 15
0.0
 25
0.0
 35
0.0
146
0.0
 13
0.0
 23
0.0
 33
0.0
 16
1.0
 26
0.0
 36
0.0
 17
0.0
 27
1.0
 37
0.0
 76
0
330
21A
345
0
346
0
  0
ENDSEC
  0
EOF
