  0
SECTION
  2
HEADER
  9
$ACADVER
  1
AC1024
  9
$DWGCODEPAGE
  3
ANSI_1252
  9
$EXTMAX
 10
297.0
 20
210.0
 30
0.0
  9
$EXTMIN
 10
0.0
 20
0.0
 30
0.0
  9
$LIMMIN
 10
0.0
 20
0.0
  9
$LIMMAX
 10
297.0
 20
210.0
  9
$VIEWCTR
 10
148.5
 20
105.0
  9
$VIEWSIZE
 40
210.0
  9
$CLAYER
  8
0
  9
$LTSCALE
 40
16.335
  9
$CELTYPE
  6
BYLAYER
  9
$DIMSCALE
 40
1.0
  9
$DIMASZ
 40
3.0
  9
$DIMEXO
 40
0.5
  9
$DIMDLI
 40
11.286
  9
$DIMEXE
 40
1.5
  9
$DIMCEN
 40
2.673
  9
$DIMLFAC
 40
1.0
  9
$DIMBLK
  1
_FILLED
  9
$DIMALT
 70
0
  9
$DIMALTF
 40
0.0393700787
  9
$DIMTXT
 40
3.0
  9
$DIMTOL
 70
1
  9
$DIMLIM
 70
0
  9
$DIMTFAC
 40
1.0
  9
$DIMTP
 40
0.01
  9
$DIMTM
 40
0.01
  9
$DIMGAP
 40
0.625
  9
$DIMDSEP
 70
44
  9
$AUNITS
 70
0
  9
$PDMODE
 70
3
  9
$PDSIZE
 40
3.0
  9
$HANDSEED
  5
4B4
  9
$TILEMODE
 70
1
  9
$MEASUREMENT
 70
1
  9
$INSUNITS
 70
4
  0
ENDSEC
  0
SECTION
  2
CLASSES
  0
CLASS
  1
ACDBDICTIONARYWDFLT
  2
AcDbDictionaryWithDefault
  3
AutoCAD 2000
 90
0
 91
1
280
0
281
0
  0
CLASS
  1
ACDBPLACEHOLDER
  2
AcDbPlaceHolder
  3
AutoCAD 2000
 90
0
 91
1
280
0
281
0
  0
CLASS
  1
LAYOUT
  2
AcDbLayout
  3
AutoCAD 2000
 90
0
 91
0
280
0
281
0
  0
ENDSEC
  0
SECTION
  2
TABLES
  0
TABLE
  2
VPORT
  5
8
100
AcDbSymbolTable
 70
2
  0
VPORT
  5
1F4
100
AcDbSymbolTableRecord
100
AcDbViewportTableRecord
  2
*ACTIVE
 70
0
 10
0.0
 20
0.0
 11
1.0
 21
1.0
 12
148.5
 22
105.0
 13
0.0
 23
0.0
 14
1.0
 24
1.0
 15
0.0
 25
0.0
 16
0.0
 26
0.0
 36
1.0
 17
0.0
 27
0.0
 37
0.0
 40
210.0
 41
1.4142857143
 42
50.0
 43
0.0
 44
0.0
 50
0.0
 51
0.0
 71
0
 72
100
 73
1
 74
1
 75
0
 76
0
 77
0
 78
0
  0
ENDTAB
  0
TABLE
  2
LTYPE
  5
5
100
AcDbSymbolTable
 70
6
  0
LTYPE
  5
14
100
AcDbSymbolTableRecord
100
AcDbLinetypeTableRecord
  2
BYBLOCK
 70
0
  3

 72
65
 73
0
 40
0.0
  0
LTYPE
  5
15
100
AcDbSymbolTableRecord
100
AcDbLinetypeTableRecord
  2
BYLAYER
 70
0
  3

 72
65
 73
0
 40
0.0
  0
LTYPE
  5
16
100
AcDbSymbolTableRecord
100
AcDbLinetypeTableRecord
  2
CONTINUOUS
 70
64
  3
Solid line
 72
65
 73
0
 40
0.0
  0
LTYPE
  5
1F5
100
AcDbSymbolTableRecord
100
AcDbLinetypeTableRecord
  2
CENTER
 70
64
  3
____ _ ____ _ ____ _ ____ _ ____ _ ____ _ ____
 72
65
 73
4
 40
0.6
 49
0.375
 74
0
 49
-0.075
 74
0
 49
0.075
 74
0
 49
-0.075
 74
0
  0
LTYPE
  5
1F6
100
AcDbSymbolTableRecord
100
AcDbLinetypeTableRecord
  2
HIDDEN
 70
64
  3
- - - - - - - - - - - - - - - - - - - -
 72
65
 73
2
 40
0.2
 49
0.1
 74
0
 49
-0.1
 74
0
  0
LTYPE
  5
1F7
100
AcDbSymbolTableRecord
100
AcDbLinetypeTableRecord
  2
PHANTOM
 70
64
  3
_____ _ _ _____ _ _ _____ _ _ _____
 72
65
 73
6
 40
0.8
 49
0.45
 74
0
 49
-0.05
 74
0
 49
0.1
 74
0
 49
-0.05
 74
0
 49
0.1
 74
0
 49
-0.05
 74
0
  0
LTYPE
  5
1F8
100
AcDbSymbolTableRecord
100
AcDbLinetypeTableRecord
  2
DOT
 70
64
  3
. . . . . . . . . . . . . . . . . . . .
 72
65
 73
2
 40
0.2
 49
0.1
 74
0
 49
-0.1
 74
0
  0
LTYPE
  5
1F9
100
AcDbSymbolTableRecord
100
AcDbLinetypeTableRecord
  2
DASHED
 70
64
  3
- - - - - - - - - - - - - - - - - - - -
 72
65
 73
2
 40
0.2
 49
0.1
 74
0
 49
-0.1
 74
0
  0
ENDTAB
  0
TABLE
  2
LAYER
  5
2
100
AcDbSymbolTable
 70
36
  0
LAYER
  5
10
100
AcDbSymbolTableRecord
100
AcDbLayerTableRecord
  2
0
 70
0
 62
7
  6
CONTINUOUS
370
-3
390
F
  0
LAYER
  5
1FA
100
AcDbSymbolTableRecord
100
AcDbLayerTableRecord
  2
DEFAULT_1
 70
0
 62
7
  6
CENTER
370
-3
390
F
  0
LAYER
  5
1FB
100
AcDbSymbolTableRecord
100
AcDbLayerTableRecord
  2
DEFAULT_2
 70
0
 62
7
  6
HIDDEN
370
-3
390
F
  0
LAYER
  5
1FC
100
AcDbSymbolTableRecord
100
AcDbLayerTableRecord
  2
DEFAULT_3
 70
0
 62
7
  6
PHANTOM
370
-3
390
F
  0
LAYER
  5
1FD
100
AcDbSymbolTableRecord
100
AcDbLayerTableRecord
  2
06___PRT_ALL_SURFS
 70
0
 62
7
  6
CONTINUOUS
370
-3
390
F
  0
LAYER
  5
1FE
100
AcDbSymbolTableRecord
100
AcDbLayerTableRecord
  2
06___PRT_ALL_SURFS_1
 70
0
 62
7
  6
CONTINUOUS
370
-3
390
F
  0
LAYER
  5
1FF
100
AcDbSymbolTableRecord
100
AcDbLayerTableRecord
  2
06___PRT_ALL_SURFS_10
 70
0
 62
7
  6
CONTINUOUS
370
-3
390
F
  0
LAYER
  5
200
100
AcDbSymbolTableRecord
100
AcDbLayerTableRecord
  2
06___PRT_ALL_SURFS_11
 70
0
 62
7
  6
CONTINUOUS
370
-3
390
F
  0
LAYER
  5
201
100
AcDbSymbolTableRecord
100
AcDbLayerTableRecord
  2
06___PRT_ALL_SURFS_2
 70
0
 62
7
  6
CONTINUOUS
370
-3
390
F
  0
LAYER
  5
202
100
AcDbSymbolTableRecord
100
AcDbLayerTableRecord
  2
06___PRT_ALL_SURFS_3
 70
0
 62
7
  6
CONTINUOUS
370
-3
390
F
  0
LAYER
  5
203
100
AcDbSymbolTableRecord
100
AcDbLayerTableRecord
  2
06___PRT_ALL_SURFS_4
 70
0
 62
7
  6
CONTINUOUS
370
-3
390
F
  0
LAYER
  5
204
100
AcDbSymbolTableRecord
100
AcDbLayerTableRecord
  2
06___PRT_ALL_SURFS_6
 70
0
 62
7
  6
CONTINUOUS
370
-3
390
F
  0
LAYER
  5
205
100
AcDbSymbolTableRecord
100
AcDbLayerTableRecord
  2
06___PRT_ALL_SURFS_7
 70
0
 62
7
  6
CONTINUOUS
370
-3
390
F
  0
LAYER
  5
206
100
AcDbSymbolTableRecord
100
AcDbLayerTableRecord
  2
06___PRT_ALL_SURFS_9
 70
0
 62
7
  6
CONTINUOUS
370
-3
390
F
  0
LAYER
  5
207
100
AcDbSymbolTableRecord
100
AcDbLayerTableRecord
  2
1206_C_WAVE_180000
 70
0
 62
7
  6
CONTINUOUS
370
-3
390
F
  0
LAYER
  5
208
100
AcDbSymbolTableRecord
100
AcDbLayerTableRecord
  2
1206_C_WAVE_180000_1
 70
0
 62
7
  6
CONTINUOUS
370
-3
390
F
  0
LAYER
  5
209
100
AcDbSymbolTableRecord
100
AcDbLayerTableRecord
  2
1206_C_WAVE_180000_2
 70
0
 62
7
  6
CONTINUOUS
370
-3
390
F
  0
LAYER
  5
20A
100
AcDbSymbolTableRecord
100
AcDbLayerTableRecord
  2
1210_C_REF_250000
 70
0
 62
7
  6
CONTINUOUS
370
-3
390
F
  0
LAYER
  5
20B
100
AcDbSymbolTableRecord
100
AcDbLayerTableRecord
  2
1210_C_WAVE_250000
 70
0
 62
7
  6
CONTINUOUS
370
-3
390
F
  0
LAYER
  5
20C
100
AcDbSymbolTableRecord
100
AcDbLayerTableRecord
  2
2125-R1-RF-VIMAR_60000
 70
0
 62
7
  6
CONTINUOUS
370
-3
390
F
  0
LAYER
  5
20D
100
AcDbSymbolTableRecord
100
AcDbLayerTableRecord
  2
2125-R1-RF-VIMAR_60000_1
 70
0
 62
7
  6
CONTINUOUS
370
-3
390
F
  0
LAYER
  5
20E
100
AcDbSymbolTableRecord
100
AcDbLayerTableRecord
  2
2125-R1-RF-VIMAR_60000_2
 70
0
 62
7
  6
CONTINUOUS
370
-3
390
F
  0
LAYER
  5
20F
100
AcDbSymbolTableRecord
100
AcDbLayerTableRecord
  2
2125-R1-RF-VIMAR_60000_3
 70
0
 62
7
  6
CONTINUOUS
370
-3
390
F
  0
LAYER
  5
210
100
AcDbSymbolTableRecord
100
AcDbLayerTableRecord
  2
2125-R1-RF-VIMAR_60000_4
 70
0
 62
7
  6
CONTINUOUS
370
-3
390
F
  0
LAYER
  5
211
100
AcDbSymbolTableRecord
100
AcDbLayerTableRecord
  2
2125-R1-RF-VIMAR_60000_5
 70
0
 62
7
  6
CONTINUOUS
370
-3
390
F
  0
LAYER
  5
212
100
AcDbSymbolTableRecord
100
AcDbLayerTableRecord
  2
2220_C_REF_280000
 70
0
 62
7
  6
CONTINUOUS
370
-3
390
F
  0
LAYER
  5
213
100
AcDbSymbolTableRecord
100
AcDbLayerTableRecord
  2
2220_C_REF_280000_1
 70
0
 62
7
  6
CONTINUOUS
370
-3
390
F
  0
LAYER
  5
214
100
AcDbSymbolTableRecord
100
AcDbLayerTableRecord
  2
43000460A0
 70
0
 62
7
  6
CONTINUOUS
370
-3
390
F
  0
LAYER
  5
215
100
AcDbSymbolTableRecord
100
AcDbLayerTableRecord
  2
43000460A0_
 70
0
 62
7
  6
CONTINUOUS
370
-3
390
F
  0
LAYER
  5
216
100
AcDbSymbolTableRecord
100
AcDbLayerTableRecord
  2
43000826A0
 70
0
 62
7
  6
CONTINUOUS
370
-3
390
F
  0
LAYER
  5
217
100
AcDbSymbolTableRecord
100
AcDbLayerTableRecord
  2
43000839A0
 70
0
 62
7
  6
CONTINUOUS
370
-3
390
F
  0
LAYER
  5
218
100
AcDbSymbolTableRecord
100
AcDbLayerTableRecord
  2
43000846A0
 70
0
 62
7
  6
CONTINUOUS
370
-3
390
F
  0
LAYER
  5
219
100
AcDbSymbolTableRecord
100
AcDbLayerTableRecord
  2
43000847A0
 70
0
 62
7
  6
CONTINUOUS
370
-3
390
F
  0
LAYER
  5
21A
100
AcDbSymbolTableRecord
100
AcDbLayerTableRecord
  2
43000850A0
 70
0
 62
7
  6
CONTINUOUS
370
-3
390
F
  0
LAYER
  5
21B
100
AcDbSymbolTableRecord
100
AcDbLayerTableRecord
  2
43000850B0
 70
0
 62
7
  6
CONTINUOUS
370
-3
390
F
  0
LAYER
  5
21C
100
AcDbSymbolTableRecord
100
AcDbLayerTableRecord
  2
43000850C0
 70
0
 62
7
  6
CONTINUOUS
370
-3
390
F
  0
LAYER
  5
21D
100
AcDbSymbolTableRecord
100
AcDbLayerTableRecord
  2
43900850A0
 70
0
 62
7
  6
CONTINUOUS
370
-3
390
F
  0
LAYER
  5
21E
100
AcDbSymbolTableRecord
100
AcDbLayerTableRecord
  2
ASM0001
 70
0
 62
7
  6
CONTINUOUS
370
-3
390
F
  0
LAYER
  5
21F
100
AcDbSymbolTableRecord
100
AcDbLayerTableRecord
  2
ASM0002
 70
0
 62
7
  6
CONTINUOUS
370
-3
390
F
  0
LAYER
  5
220
100
AcDbSymbolTableRecord
100
AcDbLayerTableRecord
  2
ASSI
 70
0
 62
7
  6
CONTINUOUS
370
-3
390
F
  0
LAYER
  5
221
100
AcDbSymbolTableRecord
100
AcDbLayerTableRecord
  2
BOARD_PRODUCER_TESTIMONI_14_F0_
 70
0
 62
7
  6
CONTINUOUS
370
-3
390
F
  0
LAYER
  5
222
100
AcDbSymbolTableRecord
100
AcDbLayerTableRecord
  2
BOARD_PRODUCER_TESTIMONI_14_F_1
 70
0
 62
7
  6
CONTINUOUS
370
-3
390
F
  0
LAYER
  5
223
100
AcDbSymbolTableRecord
100
AcDbLayerTableRecord
  2
BUSSMANN_SS-5H_785000
 70
0
 62
7
  6
CONTINUOUS
370
-3
390
F
  0
LAYER
  5
224
100
AcDbSymbolTableRecord
100
AcDbLayerTableRecord
  2
CAP-E-6_3-11-2_5_1120000
 70
0
 62
7
  6
CONTINUOUS
370
-3
390
F
  0
LAYER
  5
225
100
AcDbSymbolTableRecord
100
AcDbLayerTableRecord
  2
CAP-E-6_3-11-2_5_1120000_1
 70
0
 62
7
  6
CONTINUOUS
370
-3
390
F
  0
LAYER
  5
226
100
AcDbSymbolTableRecord
100
AcDbLayerTableRecord
  2
CN-MSB02001-VIMAR_1000000
 70
0
 62
7
  6
CONTINUOUS
370
-3
390
F
  0
LAYER
  5
227
100
AcDbSymbolTableRecord
100
AcDbLayerTableRecord
  2
CN-MSB02001-VIMAR_1000000_1
 70
0
 62
7
  6
CONTINUOUS
370
-3
390
F
  0
LAYER
  5
228
100
AcDbSymbolTableRecord
100
AcDbLayerTableRecord
  2
CN-MSB02001-VIMAR_1000000_2
 70
0
 62
7
  6
CONTINUOUS
370
-3
390
F
  0
LAYER
  5
229
100
AcDbSymbolTableRecord
100
AcDbLayerTableRecord
  2
CN1-REF_SQUAREHOLE12_SPEA-VIMAR
 70
0
 62
7
  6
CONTINUOUS
370
-3
390
F
  0
LAYER
  5
22A
100
AcDbSymbolTableRecord
100
AcDbLayerTableRecord
  2
CN1-REF_SQUAREHOLE12_SPEA-VIM_1
 70
0
 62
7
  6
CONTINUOUS
370
-3
390
F
  0
LAYER
  5
22B
100
AcDbSymbolTableRecord
100
AcDbLayerTableRecord
  2
CN1-REF_SQUAREHOLE12_SPEA-VIM_2
 70
0
 62
7
  6
CONTINUOUS
370
-3
390
F
  0
LAYER
  5
22C
100
AcDbSymbolTableRecord
100
AcDbLayerTableRecord
  2
CN1-REF_SQUAREHOLE12_SPEA-VIM_3
 70
0
 62
7
  6
CONTINUOUS
370
-3
390
F
  0
LAYER
  5
22D
100
AcDbSymbolTableRecord
100
AcDbLayerTableRecord
  2
CN1-TP10_SMD-VIMAR_10000
 70
0
 62
7
  6
CONTINUOUS
370
-3
390
F
  0
LAYER
  5
22E
100
AcDbSymbolTableRecord
100
AcDbLayerTableRecord
  2
CN1-TP10_SMD-VIMAR_10000_1
 70
0
 62
7
  6
CONTINUOUS
370
-3
390
F
  0
LAYER
  5
22F
100
AcDbSymbolTableRecord
100
AcDbLayerTableRecord
  2
CN1-TP10_SMD-VIMAR_10000_2
 70
0
 62
7
  6
CONTINUOUS
370
-3
390
F
  0
LAYER
  5
230
100
AcDbSymbolTableRecord
100
AcDbLayerTableRecord
  2
CN1-TP10_SMD-VIMAR_10000_3
 70
0
 62
7
  6
CONTINUOUS
370
-3
390
F
  0
LAYER
  5
231
100
AcDbSymbolTableRecord
100
AcDbLayerTableRecord
  2
CN_M_THT_SAURO_MSM_R1_P3_P5_152
 70
0
 62
7
  6
CONTINUOUS
370
-3
390
F
  0
LAYER
  5
232
100
AcDbSymbolTableRecord
100
AcDbLayerTableRecord
  2
CN_SMT_HARWIN_S7121-42R_TET_170
 70
0
 62
7
  6
CONTINUOUS
370
-3
390
F
  0
LAYER
  5
233
100
AcDbSymbolTableRecord
100
AcDbLayerTableRecord
  2
CN_SMT_HARWIN_S7121-42R_TET_1_1
 70
0
 62
7
  6
CONTINUOUS
370
-3
390
F
  0
LAYER
  5
234
100
AcDbSymbolTableRecord
100
AcDbLayerTableRecord
  2
CN_SMT_HARWIN_S7121-42R_TET_1_2
 70
0
 62
7
  6
CONTINUOUS
370
-3
390
F
  0
LAYER
  5
235
100
AcDbSymbolTableRecord
100
AcDbLayerTableRecord
  2
CN_SMT_HARWIN_S7121-42R_TET_1_3
 70
0
 62
7
  6
CONTINUOUS
370
-3
390
F
  0
LAYER
  5
236
100
AcDbSymbolTableRecord
100
AcDbLayerTableRecord
  2
CN_SMT_HARWIN_S7121-42R_TET_1_4
 70
0
 62
7
  6
CONTINUOUS
370
-3
390
F
  0
LAYER
  5
237
100
AcDbSymbolTableRecord
100
AcDbLayerTableRecord
  2
CN_SMT_HARWIN_S7121-42R_TET_1_5
 70
0
 62
7
  6
CONTINUOUS
370
-3
390
F
  0
LAYER
  5
238
100
AcDbSymbolTableRecord
100
AcDbLayerTableRecord
  2
CN_SMT_HARWIN_S7121-42R_TET_1_6
 70
0
 62
7
  6
CONTINUOUS
370
-3
390
F
  0
LAYER
  5
239
100
AcDbSymbolTableRecord
100
AcDbLayerTableRecord
  2
CN_SMT_HARWIN_S7121-42R_TET_1_7
 70
0
 62
7
  6
CONTINUOUS
370
-3
390
F
  0
LAYER
  5
23A
100
AcDbSymbolTableRecord
100
AcDbLayerTableRecord
  2
CN_SMT_HARWIN_S7121-42R_TET_1_8
 70
0
 62
7
  6
CONTINUOUS
370
-3
390
F
  0
LAYER
  5
23B
100
AcDbSymbolTableRecord
100
AcDbLayerTableRecord
  2
CN_SMT_HARWIN_S7121-42R_TET_1_9
 70
0
 62
7
  6
CONTINUOUS
370
-3
390
F
  0
LAYER
  5
23C
100
AcDbSymbolTableRecord
100
AcDbLayerTableRecord
  2
CN_SMT_HARWIN_S7121-42R_TET__10
 70
0
 62
7
  6
CONTINUOUS
370
-3
390
F
  0
LAYER
  5
23D
100
AcDbSymbolTableRecord
100
AcDbLayerTableRecord
  2
CN_SMT_HARWIN_S7121-42R_TET__11
 70
0
 62
7
  6
CONTINUOUS
370
-3
390
F
  0
LAYER
  5
23E
100
AcDbSymbolTableRecord
100
AcDbLayerTableRecord
  2
COLOR1
 70
0
 62
7
  6
CONTINUOUS
370
-3
390
F
  0
LAYER
  5
23F
100
AcDbSymbolTableRecord
100
AcDbLayerTableRecord
  2
COLOR11
 70
0
 62
7
  6
CONTINUOUS
370
-3
390
F
  0
LAYER
  5
240
100
AcDbSymbolTableRecord
100
AcDbLayerTableRecord
  2
COLOR15
 70
0
 62
7
  6
CONTINUOUS
370
-3
390
F
  0
LAYER
  5
241
100
AcDbSymbolTableRecord
100
AcDbLayerTableRecord
  2
COLOR17
 70
0
 62
7
  6
CONTINUOUS
370
-3
390
F
  0
LAYER
  5
242
100
AcDbSymbolTableRecord
100
AcDbLayerTableRecord
  2
COLOR23
 70
0
 62
7
  6
CONTINUOUS
370
-3
390
F
  0
LAYER
  5
243
100
AcDbSymbolTableRecord
100
AcDbLayerTableRecord
  2
COLOR27
 70
0
 62
7
  6
CONTINUOUS
370
-3
390
F
  0
LAYER
  5
244
100
AcDbSymbolTableRecord
100
AcDbLayerTableRecord
  2
COLOR5
 70
0
 62
7
  6
CONTINUOUS
370
-3
390
F
  0
LAYER
  5
245
100
AcDbSymbolTableRecord
100
AcDbLayerTableRecord
  2
COORDINATE
 70
0
 62
7
  6
CONTINUOUS
370
-3
390
F
  0
LAYER
  5
246
100
AcDbSymbolTableRecord
100
AcDbLayerTableRecord
  2
COORD_ORIGINE
 70
0
 62
7
  6
CONTINUOUS
370
-3
390
F
  0
LAYER
  5
247
100
AcDbSymbolTableRecord
100
AcDbLayerTableRecord
  2
COPY_PUBLISH
 70
0
 62
7
  6
CONTINUOUS
370
-3
390
F
  0
LAYER
  5
248
100
AcDbSymbolTableRecord
100
AcDbLayerTableRecord
  2
COSMETIC
 70
0
 62
7
  6
CONTINUOUS
370
-3
390
F
  0
LAYER
  5
249
100
AcDbSymbolTableRecord
100
AcDbLayerTableRecord
  2
COSMETICHE
 70
0
 62
7
  6
CONTINUOUS
370
-3
390
F
  0
LAYER
  5
24A
100
AcDbSymbolTableRecord
100
AcDbLayerTableRecord
  2
COSMETICI
 70
0
 62
7
  6
CONTINUOUS
370
-3
390
F
  0
LAYER
  5
24B
100
AcDbSymbolTableRecord
100
AcDbLayerTableRecord
  2
CURVE
 70
0
 62
7
  6
CONTINUOUS
370
-3
390
F
  0
LAYER
  5
24C
100
AcDbSymbolTableRecord
100
AcDbLayerTableRecord
  2
DO-214AC_230000
 70
0
 62
7
  6
CONTINUOUS
370
-3
390
F
  0
LAYER
  5
24D
100
AcDbSymbolTableRecord
100
AcDbLayerTableRecord
  2
DO-214AC_230000_1
 70
0
 62
7
  6
CONTINUOUS
370
-3
390
F
  0
LAYER
  5
24E
100
AcDbSymbolTableRecord
100
AcDbLayerTableRecord
  2
DO-214AC_230000_2
 70
0
 62
7
  6
CONTINUOUS
370
-3
390
F
  0
LAYER
  5
24F
100
AcDbSymbolTableRecord
100
AcDbLayerTableRecord
  2
DO-214AC_230000_3
 70
0
 62
7
  6
CONTINUOUS
370
-3
390
F
  0
LAYER
  5
250
100
AcDbSymbolTableRecord
100
AcDbLayerTableRecord
  2
DO-214AC_230000_4
 70
0
 62
7
  6
CONTINUOUS
370
-3
390
F
  0
LAYER
  5
251
100
AcDbSymbolTableRecord
100
AcDbLayerTableRecord
  2
DO-214AC_230000_5
 70
0
 62
7
  6
CONTINUOUS
370
-3
390
F
  0
LAYER
  5
252
100
AcDbSymbolTableRecord
100
AcDbLayerTableRecord
  2
DO-214AC_230000_6
 70
0
 62
7
  6
CONTINUOUS
370
-3
390
F
  0
LAYER
  5
253
100
AcDbSymbolTableRecord
100
AcDbLayerTableRecord
  2
DO213AB_MELF_WAVE_250000
 70
0
 62
7
  6
CONTINUOUS
370
-3
390
F
  0
LAYER
  5
254
100
AcDbSymbolTableRecord
100
AcDbLayerTableRecord
  2
DO213AB_MELF_WAVE_250000_1
 70
0
 62
7
  6
CONTINUOUS
370
-3
390
F
  0
LAYER
  5
255
100
AcDbSymbolTableRecord
100
AcDbLayerTableRecord
  2
DO213AB_MELF_WAVE_250000_2
 70
0
 62
7
  6
CONTINUOUS
370
-3
390
F
  0
LAYER
  5
256
100
AcDbSymbolTableRecord
100
AcDbLayerTableRecord
  2
DO213AB_MELF_WAVE_250000_3
 70
0
 62
7
  6
CONTINUOUS
370
-3
390
F
  0
LAYER
  5
257
100
AcDbSymbolTableRecord
100
AcDbLayerTableRecord
  2
DRAFT
 70
0
 62
7
  6
CONTINUOUS
370
-3
390
F
  0
LAYER
  5
258
100
AcDbSymbolTableRecord
100
AcDbLayerTableRecord
  2
E2_MARK_10000
 70
0
 62
7
  6
CONTINUOUS
370
-3
390
F
  0
LAYER
  5
259
100
AcDbSymbolTableRecord
100
AcDbLayerTableRecord
  2
GEOMETRIA_SOLIDA
 70
0
 62
7
  6
CONTINUOUS
370
-3
390
F
  0
LAYER
  5
25A
100
AcDbSymbolTableRecord
100
AcDbLayerTableRecord
  2
GEOMETRIA_SOLIDA_1
 70
0
 62
7
  6
CONTINUOUS
370
-3
390
F
  0
LAYER
  5
25B
100
AcDbSymbolTableRecord
100
AcDbLayerTableRecord
  2
IMPORT_IGES
 70
0
 62
7
  6
CONTINUOUS
370
-3
390
F
  0
LAYER
  5
25C
100
AcDbSymbolTableRecord
100
AcDbLayerTableRecord
  2
INTF_1
 70
0
 62
7
  6
CONTINUOUS
370
-3
390
F
  0
LAYER
  5
25D
100
AcDbSymbolTableRecord
100
AcDbLayerTableRecord
  2
INTF_2
 70
0
 62
7
  6
CONTINUOUS
370
-3
390
F
  0
LAYER
  5
25E
100
AcDbSymbolTableRecord
100
AcDbLayerTableRecord
  2
INTF_3
 70
0
 62
7
  6
CONTINUOUS
370
-3
390
F
  0
LAYER
  5
25F
100
AcDbSymbolTableRecord
100
AcDbLayerTableRecord
  2
INTF_BLANK
 70
0
 62
7
  6
CONTINUOUS
370
-3
390
F
  0
LAYER
  5
260
100
AcDbSymbolTableRecord
100
AcDbLayerTableRecord
  2
INTF_RED
 70
0
 62
7
  6
CONTINUOUS
370
-3
390
F
  0
LAYER
  5
261
100
AcDbSymbolTableRecord
100
AcDbLayerTableRecord
  2
K_THT_TE_RT424F48_1570000
 70
0
 62
7
  6
CONTINUOUS
370
-3
390
F
  0
LAYER
  5
262
100
AcDbSymbolTableRecord
100
AcDbLayerTableRecord
  2
LOGO_RESIST-RESTYLING_10000
 70
0
 62
7
  6
CONTINUOUS
370
-3
390
F
  0
LAYER
  5
263
100
AcDbSymbolTableRecord
100
AcDbLayerTableRecord
  2
L_SRR0604-RF-VIMAR_480000
 70
0
 62
7
  6
CONTINUOUS
370
-3
390
F
  0
LAYER
  5
264
100
AcDbSymbolTableRecord
100
AcDbLayerTableRecord
  2
L_SRR0604-RF-VIMAR_480000_1
 70
0
 62
7
  6
CONTINUOUS
370
-3
390
F
  0
LAYER
  5
265
100
AcDbSymbolTableRecord
100
AcDbLayerTableRecord
  2
L_SRR0604-RF-VIMAR_480000_10
 70
0
 62
7
  6
CONTINUOUS
370
-3
390
F
  0
LAYER
  5
266
100
AcDbSymbolTableRecord
100
AcDbLayerTableRecord
  2
L_SRR0604-RF-VIMAR_480000_11
 70
0
 62
7
  6
CONTINUOUS
370
-3
390
F
  0
LAYER
  5
267
100
AcDbSymbolTableRecord
100
AcDbLayerTableRecord
  2
L_SRR0604-RF-VIMAR_480000_2
 70
0
 62
7
  6
CONTINUOUS
370
-3
390
F
  0
LAYER
  5
268
100
AcDbSymbolTableRecord
100
AcDbLayerTableRecord
  2
L_SRR0604-RF-VIMAR_480000_3
 70
0
 62
7
  6
CONTINUOUS
370
-3
390
F
  0
LAYER
  5
269
100
AcDbSymbolTableRecord
100
AcDbLayerTableRecord
  2
L_SRR0604-RF-VIMAR_480000_4
 70
0
 62
7
  6
CONTINUOUS
370
-3
390
F
  0
LAYER
  5
26A
100
AcDbSymbolTableRecord
100
AcDbLayerTableRecord
  2
L_SRR0604-RF-VIMAR_480000_5
 70
0
 62
7
  6
CONTINUOUS
370
-3
390
F
  0
LAYER
  5
26B
100
AcDbSymbolTableRecord
100
AcDbLayerTableRecord
  2
L_SRR0604-RF-VIMAR_480000_6
 70
0
 62
7
  6
CONTINUOUS
370
-3
390
F
  0
LAYER
  5
26C
100
AcDbSymbolTableRecord
100
AcDbLayerTableRecord
  2
L_SRR0604-RF-VIMAR_480000_7
 70
0
 62
7
  6
CONTINUOUS
370
-3
390
F
  0
LAYER
  5
26D
100
AcDbSymbolTableRecord
100
AcDbLayerTableRecord
  2
L_SRR0604-RF-VIMAR_480000_8
 70
0
 62
7
  6
CONTINUOUS
370
-3
390
F
  0
LAYER
  5
26E
100
AcDbSymbolTableRecord
100
AcDbLayerTableRecord
  2
L_SRR0604-RF-VIMAR_480000_9
 70
0
 62
7
  6
CONTINUOUS
370
-3
390
F
  0
LAYER
  5
26F
100
AcDbSymbolTableRecord
100
AcDbLayerTableRecord
  2
MINIMELF_R_REF_140000
 70
0
 62
7
  6
CONTINUOUS
370
-3
390
F
  0
LAYER
  5
270
100
AcDbSymbolTableRecord
100
AcDbLayerTableRecord
  2
MINIMELF_R_REF_140000_1
 70
0
 62
7
  6
CONTINUOUS
370
-3
390
F
  0
LAYER
  5
271
100
AcDbSymbolTableRecord
100
AcDbLayerTableRecord
  2
MINIMELF_R_WAVE_140000
 70
0
 62
7
  6
CONTINUOUS
370
-3
390
F
  0
LAYER
  5
272
100
AcDbSymbolTableRecord
100
AcDbLayerTableRecord
  2
MINIMELF_R_WAVE_140000_1
 70
0
 62
7
  6
CONTINUOUS
370
-3
390
F
  0
LAYER
  5
273
100
AcDbSymbolTableRecord
100
AcDbLayerTableRecord
  2
MR2P5_SAURO_MSM02001_STH_152000
 70
0
 62
7
  6
CONTINUOUS
370
-3
390
F
  0
LAYER
  5
274
100
AcDbSymbolTableRecord
100
AcDbLayerTableRecord
  2
NO-PB_MARK_10000
 70
0
 62
7
  6
CONTINUOUS
370
-3
390
F
  0
LAYER
  5
275
100
AcDbSymbolTableRecord
100
AcDbLayerTableRecord
  2
NOTE
 70
0
 62
7
  6
CONTINUOUS
370
-3
390
F
  0
LAYER
  5
276
100
AcDbSymbolTableRecord
100
AcDbLayerTableRecord
  2
PIANI
 70
0
 62
7
  6
CONTINUOUS
370
-3
390
F
  0
LAYER
  5
277
100
AcDbSymbolTableRecord
100
AcDbLayerTableRecord
  2
PIANI_ORIGINE
 70
0
 62
7
  6
CONTINUOUS
370
-3
390
F
  0
LAYER
  5
278
100
AcDbSymbolTableRecord
100
AcDbLayerTableRecord
  2
PRJ_00545
 70
0
 62
7
  6
CONTINUOUS
370
-3
390
F
  0
LAYER
  5
279
100
AcDbSymbolTableRecord
100
AcDbLayerTableRecord
  2
PRJ_00546
 70
0
 62
7
  6
CONTINUOUS
370
-3
390
F
  0
LAYER
  5
27A
100
AcDbSymbolTableRecord
100
AcDbLayerTableRecord
  2
PUNTI
 70
0
 62
7
  6
CONTINUOUS
370
-3
390
F
  0
LAYER
  5
27B
100
AcDbSymbolTableRecord
100
AcDbLayerTableRecord
  2
RACCORDO
 70
0
 62
7
  6
CONTINUOUS
370
-3
390
F
  0
LAYER
  5
27C
100
AcDbSymbolTableRecord
100
AcDbLayerTableRecord
  2
RES-ASS-5_0-15_0-0_7-22_0_51000
 70
0
 62
7
  6
CONTINUOUS
370
-3
390
F
  0
LAYER
  5
27D
100
AcDbSymbolTableRecord
100
AcDbLayerTableRecord
  2
RGB____0____0____0__
 70
0
 62
7
  6
CONTINUOUS
370
-3
390
F
  0
LAYER
  5
27E
100
AcDbSymbolTableRecord
100
AcDbLayerTableRecord
  2
SIMBOLI
 70
0
 62
7
  6
CONTINUOUS
370
-3
390
F
  0
LAYER
  5
27F
100
AcDbSymbolTableRecord
100
AcDbLayerTableRecord
  2
SMUSSO
 70
0
 62
7
  6
CONTINUOUS
370
-3
390
F
  0
LAYER
  5
280
100
AcDbSymbolTableRecord
100
AcDbLayerTableRecord
  2
SNAPLINE
 70
0
 62
7
  6
CONTINUOUS
370
-3
390
F
  0
LAYER
  5
281
100
AcDbSymbolTableRecord
100
AcDbLayerTableRecord
  2
SOD80_SOD-213AA_MINIMELF_WAVE_1
 70
0
 62
7
  6
CONTINUOUS
370
-3
390
F
  0
LAYER
  5
282
100
AcDbSymbolTableRecord
100
AcDbLayerTableRecord
  2
SOD80_SOD-213AA_MINIMELF_WAVE_2
 70
0
 62
7
  6
CONTINUOUS
370
-3
390
F
  0
LAYER
  5
283
100
AcDbSymbolTableRecord
100
AcDbLayerTableRecord
  2
SOD80_SOD-213AA_MINIMELF_WAVE_3
 70
0
 62
7
  6
CONTINUOUS
370
-3
390
F
  0
LAYER
  5
284
100
AcDbSymbolTableRecord
100
AcDbLayerTableRecord
  2
SOD80_SOD-213AA_MINIMELF_WAVE_4
 70
0
 62
7
  6
CONTINUOUS
370
-3
390
F
  0
LAYER
  5
285
100
AcDbSymbolTableRecord
100
AcDbLayerTableRecord
  2
SOD80_SOD-213AA_MINIMELF_WAVE_5
 70
0
 62
7
  6
CONTINUOUS
370
-3
390
F
  0
LAYER
  5
286
100
AcDbSymbolTableRecord
100
AcDbLayerTableRecord
  2
SOD80_SOD-213AA_MINIMELF_WAVE_6
 70
0
 62
7
  6
CONTINUOUS
370
-3
390
F
  0
LAYER
  5
287
100
AcDbSymbolTableRecord
100
AcDbLayerTableRecord
  2
SOD80_SOD-213AA_MINIMELF_WAVE_7
 70
0
 62
7
  6
CONTINUOUS
370
-3
390
F
  0
LAYER
  5
288
100
AcDbSymbolTableRecord
100
AcDbLayerTableRecord
  2
SUB_SMA_143000
 70
0
 62
7
  6
CONTINUOUS
370
-3
390
F
  0
LAYER
  5
289
100
AcDbSymbolTableRecord
100
AcDbLayerTableRecord
  2
SUB_SMA_143000_1
 70
0
 62
7
  6
CONTINUOUS
370
-3
390
F
  0
LAYER
  5
28A
100
AcDbSymbolTableRecord
100
AcDbLayerTableRecord
  2
SUB_SMA_143000_2
 70
0
 62
7
  6
CONTINUOUS
370
-3
390
F
  0
LAYER
  5
28B
100
AcDbSymbolTableRecord
100
AcDbLayerTableRecord
  2
SUB_SMA_143000_3
 70
0
 62
7
  6
CONTINUOUS
370
-3
390
F
  0
LAYER
  5
28C
100
AcDbSymbolTableRecord
100
AcDbLayerTableRecord
  2
SUB_SMA_143000_4
 70
0
 62
7
  6
CONTINUOUS
370
-3
390
F
  0
LAYER
  5
28D
100
AcDbSymbolTableRecord
100
AcDbLayerTableRecord
  2
SUB_SMA_143000_5
 70
0
 62
7
  6
CONTINUOUS
370
-3
390
F
  0
LAYER
  5
28E
100
AcDbSymbolTableRecord
100
AcDbLayerTableRecord
  2
SUB_SMA_143000_6
 70
0
 62
7
  6
CONTINUOUS
370
-3
390
F
  0
LAYER
  5
28F
100
AcDbSymbolTableRecord
100
AcDbLayerTableRecord
  2
SUPERFICI
 70
0
 62
7
  6
CONTINUOUS
370
-3
390
F
  0
LAYER
  5
290
100
AcDbSymbolTableRecord
100
AcDbLayerTableRecord
  2
SUPERFICI_1
 70
0
 62
7
  6
CONTINUOUS
370
-3
390
F
  0
LAYER
  5
291
100
AcDbSymbolTableRecord
100
AcDbLayerTableRecord
  2
TP-RND-1_5-F1_0MM_1000
 70
0
 62
7
  6
CONTINUOUS
370
-3
390
F
  0
LAYER
  5
292
100
AcDbSymbolTableRecord
100
AcDbLayerTableRecord
  2
TP-RND-1_5-F1_0MM_1000_1
 70
0
 62
7
  6
CONTINUOUS
370
-3
390
F
  0
LAYER
  5
293
100
AcDbSymbolTableRecord
100
AcDbLayerTableRecord
  2
TP-RND-1_5-F1_0MM_1000_2
 70
0
 62
7
  6
CONTINUOUS
370
-3
390
F
  0
LAYER
  5
294
100
AcDbSymbolTableRecord
100
AcDbLayerTableRecord
  2
TP-RND-1_5-F1_0MM_1000_3
 70
0
 62
7
  6
CONTINUOUS
370
-3
390
F
  0
LAYER
  5
295
100
AcDbSymbolTableRecord
100
AcDbLayerTableRecord
  2
TP-RND-1_5-F1_0MM_1000_4
 70
0
 62
7
  6
CONTINUOUS
370
-3
390
F
  0
LAYER
  5
296
100
AcDbSymbolTableRecord
100
AcDbLayerTableRecord
  2
TP-RND-1_5-F1_0MM_1000_5
 70
0
 62
7
  6
CONTINUOUS
370
-3
390
F
  0
LAYER
  5
297
100
AcDbSymbolTableRecord
100
AcDbLayerTableRecord
  2
TRASH
 70
0
 62
7
  6
CONTINUOUS
370
-3
390
F
  0
LAYER
  5
298
100
AcDbSymbolTableRecord
100
AcDbLayerTableRecord
  2
VG_CN_THT_CONTATTO_SMART_RELE_1
 70
0
 62
7
  6
CONTINUOUS
370
-3
390
F
  0
LAYER
  5
299
100
AcDbSymbolTableRecord
100
AcDbLayerTableRecord
  2
VG_CN_THT_CONTATTO_SMART_RELE_2
 70
0
 62
7
  6
CONTINUOUS
370
-3
390
F
  0
LAYER
  5
29A
100
AcDbSymbolTableRecord
100
AcDbLayerTableRecord
  2
VG_CN_THT_CONTATTO_SMART_RELE_3
 70
0
 62
7
  6
CONTINUOUS
370
-3
390
F
  0
LAYER
  5
29B
100
AcDbSymbolTableRecord
100
AcDbLayerTableRecord
  2
VG_CN_THT_CONTATTO_SMART_RELE__
 70
0
 62
7
  6
CONTINUOUS
370
-3
390
F
  0
LAYER
  5
29C
100
AcDbSymbolTableRecord
100
AcDbLayerTableRecord
  2
VG_FUSE-BOX-8_35-4_0-7_8-5_08-0
 70
0
 62
7
  6
CONTINUOUS
370
-3
390
F
  0
LAYER
  5
29D
100
AcDbSymbolTableRecord
100
AcDbLayerTableRecord
  2
VG_M_2P_VERT_P_5MM_10MM_H_15MM_
 70
0
 62
7
  6
CONTINUOUS
370
-3
390
F
  0
LAYER
  5
29E
100
AcDbSymbolTableRecord
100
AcDbLayerTableRecord
  2
VG_M_3P_VERT_P_5MM_24A_H_15MM_M
 70
0
 62
7
  6
CONTINUOUS
370
-3
390
F
  0
LAYER
  5
29F
100
AcDbSymbolTableRecord
100
AcDbLayerTableRecord
  2
VG_RES-RAD-4_0-15_0-4_0-0_7_150
 70
0
 62
7
  6
CONTINUOUS
370
-3
390
F
  0
LAYER
  5
2A0
100
AcDbSymbolTableRecord
100
AcDbLayerTableRecord
  2
VG_RES-RAD-4_0-15_0-4_0-0_7_1_1
 70
0
 62
7
  6
CONTINUOUS
370
-3
390
F
  0
LAYER
  5
2A1
100
AcDbSymbolTableRecord
100
AcDbLayerTableRecord
  2
VG_RES-RAD-5_0-15_0-5_0-0_7_100
 70
0
 62
7
  6
CONTINUOUS
370
-3
390
F
  0
LAYER
  5
2A2
100
AcDbSymbolTableRecord
100
AcDbLayerTableRecord
  2
VG_RES-RAD-5_0-15_0-5_0-0_7_150
 70
0
 62
7
  6
CONTINUOUS
370
-3
390
F
  0
LAYER
  5
2A3
100
AcDbSymbolTableRecord
100
AcDbLayerTableRecord
  2
VG_RES-RAD-5_0-15_0-5_0-0_7_1_1
 70
0
 62
7
  6
CONTINUOUS
370
-3
390
F
  0
LAYER
  5
2A4
100
AcDbSymbolTableRecord
100
AcDbLayerTableRecord
  2
VG_RES-RAD-5_0-15_0-5_0-0_7_1_2
 70
0
 62
7
  6
CONTINUOUS
370
-3
390
F
  0
LAYER
  5
2A5
100
AcDbSymbolTableRecord
100
AcDbLayerTableRecord
  2
VG_RES-RAD-5_0-15_0-5_0-0_7_1_3
 70
0
 62
7
  6
CONTINUOUS
370
-3
390
F
  0
LAYER
  5
2A6
100
AcDbSymbolTableRecord
100
AcDbLayerTableRecord
  2
VG_VAR_S05_D7_S4_3_H8_5_850000
 70
0
 62
7
  6
CONTINUOUS
370
-3
390
F
  0
LAYER
  5
2A7
100
AcDbSymbolTableRecord
100
AcDbLayerTableRecord
  2
VG_VAR_S05_D7_S4_3_H8_5_85000_1
 70
0
 62
7
  6
CONTINUOUS
370
-3
390
F
  0
LAYER
  5
2A8
100
AcDbSymbolTableRecord
100
AcDbLayerTableRecord
  2
VG_VAR_S05_D7_S4_3_H8_5_85000_2
 70
0
 62
7
  6
CONTINUOUS
370
-3
390
F
  0
LAYER
  5
2A9
100
AcDbSymbolTableRecord
100
AcDbLayerTableRecord
  2
___SHELL
 70
0
 62
7
  6
CONTINUOUS
370
-3
390
F
  0
ENDTAB
  0
TABLE
  2
STYLE
  5
3
100
AcDbSymbolTable
 70
1
  0
STYLE
  5
11
100
AcDbSymbolTableRecord
100
AcDbTextStyleTableRecord
  2
STANDARD
 70
0
 40
0.0
 41
0.8
 50
0.0
 71
0
 42
0.2
  3
txt
  4

  0
STYLE
  5
2AA
100
AcDbSymbolTableRecord
100
AcDbTextStyleTableRecord
  2
TEXTSTYLE_1
 70
0
 40
0.0
 41
0.8
 50
0.0
 71
0
 42
0.2
  3
gdt
  4

  0
ENDTAB
  0
TABLE
  2
VIEW
  5
6
100
AcDbSymbolTable
 70
0
  0
ENDTAB
  0
TABLE
  2
UCS
  5
7
100
AcDbSymbolTable
 70
0
  0
ENDTAB
  0
TABLE
  2
APPID
  5
9
100
AcDbSymbolTable
 70
1
  0
APPID
  5
2AB
100
AcDbSymbolTableRecord
100
AcDbRegAppTableRecord
  2
ACAD
 70
0
  0
ENDTAB
  0
TABLE
  2
BLOCK_RECORD
  5
1
100
AcDbSymbolTable
 70
0
  0
BLOCK_RECORD
  5
2AC
100
AcDbSymbolTableRecord
100
AcDbBlockTableRecord
  2
*Model_Space
  0
BLOCK_RECORD
  5
2AD
100
AcDbSymbolTableRecord
100
AcDbBlockTableRecord
  2
*Paper_Space
  0
BLOCK_RECORD
  5
2AE
100
AcDbSymbolTableRecord
100
AcDbBlockTableRecord
  2
_FILLED
  0
ENDTAB
  0
TABLE
  2
DIMSTYLE
  5
A
100
AcDbSymbolTable
 70
1
100
AcDbDimStyleTable
 71
0
  0
DIMSTYLE
105
2AF
100
AcDbSymbolTableRecord
100
AcDbDimStyleTableRecord
  2
STANDARD
 70
0
  3

  4

 40
1.0
 41
3.0
 42
0.5
 43
0.38
 44
1.5
 45
0.0
 46
0.0
 47
0.01
 48
0.01
140
3.0
141
0.09
142
0.0
143
25.4
144
1.0
145
0.0
146
1.0
147
0.625
 71
1.0
 72
0.0
 73
0
 74
0
 75
0
 76
0
 77
1
 78
8
 79
2
170
0
171
1
172
0
173
0
174
0
175
0
176
0
177
0
178
0
270
2
179
2
271
2
272
2
273
2
274
2
275
0
280
0
281
0
282
0
283
1
284
8
285
0
286
0
287
3
288
0
340
11
278
44
341
2AE
342
2AE
343
2AE
344
2AE
  0
ENDTAB
  0
ENDSEC
  0
SECTION
  2
BLOCKS
  0
BLOCK
  5
20
100
AcDbEntity
  8
0
100
AcDbBlockBegin
  2
*Model_Space
 70
0
 10
0.0
 20
0.0
 30
0.0
  3
*Model_Space
  1

  0
ENDBLK
  5
21
100
AcDbEntity
  8
0
100
AcDbBlockEnd
  0
BLOCK
  5
1C
100
AcDbEntity
  8
0
100
AcDbBlockBegin
  2
*Paper_Space
 70
0
 10
0.0
 20
0.0
 30
0.0
  3
*Paper_Space
  1

  0
ENDBLK
  5
1D
100
AcDbEntity
  8
0
100
AcDbBlockEnd
  0
BLOCK
  5
2B0
100
AcDbEntity
  8
0
100
AcDbBlockBegin
  2
_FILLED
 70
64
 10
0.0
 20
0.0
  3
_FILLED
  1

  0
SOLID
  5
2B1
100
AcDbEntity
  8
0
  6
BYBLOCK
 62
0
100
AcDbTrace
 10
0.0
 20
0.0
 11
-1.0
 21
0.3166666667
 12
-1.0
 22
-0.3166666667
 13
-1.0
 23
-0.3166666667
  0
ENDBLK
  5
2B2
100
AcDbEntity
  8
0
  6
BYBLOCK
 62
0
100
AcDbBlockEnd
  0
ENDSEC
  0
SECTION
  2
ENTITIES
  0
LINE
  5
2B3
100
AcDbEntity
  8
RACCORDO
100
AcDbLine
 62
7
  6
CONTINUOUS
 10
-19.8382380948
 20
2.0489096693
 11
-19.8382380948
 21
-2.3510903307
  0
LWPOLYLINE
  5
2B4
100
AcDbEntity
  8
RACCORDO
100
AcDbPolyline
 62
250
  6
CONTINUOUS
 90
19
 70
0
 10
-18.525973851
 20
-10.8888565478
 10
-18.5248309505
 20
-10.9088690175
 10
-18.5219782418
 20
-10.9281627365
 10
-18.5174157248
 20
-10.9467377046
 10
-18.5109458126
 20
-10.9647908849
 10
-18.5027660922
 20
-10.9821253145
 10
-18.4934693247
 20
-10.9981501044
 10
-18.4830404282
 20
-11.0127006771
 10
-18.4714944846
 20
-11.0259416101
 10
-18.4594695008
 20
-11.0377757476
 10
-18.4472027951
 20
-11.0480617849
 10
-18.4344570491
 20
-11.0569410268
 10
-18.4211583148
 20
-11.0647402314
 10
-18.4074153113
 20
-11.0715935817
 10
-18.3931193194
 20
-11.0773668948
 10
-18.3778702341
 20
-11.0819843809
 10
-18.3615346869
 20
-11.0854207766
 10
-18.3442460461
 20
-11.0877013453
 10
-18.3260043119
 20
-11.0888260868
  0
LWPOLYLINE
  5
2B5
100
AcDbEntity
  8
RACCORDO
100
AcDbPolyline
 62
250
  6
CONTINUOUS
 90
5
 70
0
 10
-18.9290374227
 20
-2.6072463526
 10
-18.9298233439
 20
-2.5919758565
 10
-18.9305617384
 20
-2.5747834881
 10
-18.9312258754
 20
-2.5563102914
 10
-18.9318035804
 20
-2.5371408715
  0
LWPOLYLINE
  5
2B6
100
AcDbEntity
  8
RACCORDO
100
AcDbPolyline
 62
250
  6
CONTINUOUS
 90
19
 70
0
 10
-18.8259281595
 20
-10.8888565478
 10
-18.8234777663
 20
-10.9382058214
 10
-18.8162670073
 20
-10.9865796933
 10
-18.8045103247
 20
-11.0335369178
 10
-18.7883628874
 20
-11.0789067648
 10
-18.7681604002
 20
-11.1220685913
 10
-18.7446317701
 20
-11.1620553658
 10
-18.7183889977
 20
-11.1985639652
 10
-18.6898393486
 20
-11.2316502168
 10
-18.6596296419
 20
-11.261116905
 10
-18.6286834788
 20
-11.28668835
 10
-18.5970485753
 20
-11.3088824264
 10
-18.563856858
 20
-11.3285332953
 10
-18.5293875553
 20
-11.3455055799
 10
-18.4937839649
 20
-11.3597571456
 10
-18.4556485591
 20
-11.3716555752
 10
-18.4145633458
 20
-11.3808585586
 10
-18.3712567852
 20
-11.386719994
 10
-18.3260043119
 20
-11.3887803954
  0
LINE
  5
2B7
100
AcDbEntity
  8
RACCORDO
100
AcDbLine
 62
250
  6
CONTINUOUS
 10
-18.9318035804
 20
-2.5371408715
 11
-18.9327460111
 21
-2.4965686139
  0
LINE
  5
2B8
100
AcDbEntity
  8
RACCORDO
100
AcDbLine
 62
250
  6
CONTINUOUS
 10
-18.9327460111
 20
-2.4965686139
 11
-18.9334360902
 21
-2.4537133603
  0
LINE
  5
2B9
100
AcDbEntity
  8
RACCORDO
100
AcDbLine
 62
250
  6
CONTINUOUS
 10
-18.9334360902
 20
-2.4537133603
 11
-18.9338734246
 21
-2.4053203187
  0
LINE
  5
2BA
100
AcDbEntity
  8
RACCORDO
100
AcDbLine
 62
250
  6
CONTINUOUS
 10
-18.9338734246
 20
-2.4053203187
 11
-18.9340595483
 21
-2.3510903307
  0
LINE
  5
2BB
100
AcDbEntity
  8
RACCORDO
100
AcDbLine
 62
250
  6
CONTINUOUS
 10
-19.5382380948
 20
2.3489096693
 11
-19.5382380948
 21
-2.6510903307
  0
LINE
  5
2BC
100
AcDbEntity
  8
RACCORDO
100
AcDbLine
 62
7
  6
CONTINUOUS
 10
-18.8382380948
 20
-10.9111649601
 11
-18.8382380948
 21
10.6089842987
  0
LINE
  5
2BD
100
AcDbEntity
  8
RACCORDO
100
AcDbLine
 62
250
  6
CONTINUOUS
 10
-18.8259281595
 20
10.5866758864
 11
-18.8259281595
 21
-10.8888565478
  0
LINE
  5
2BE
100
AcDbEntity
  8
RACCORDO
100
AcDbLine
 62
250
  6
CONTINUOUS
 10
-18.525973851
 20
10.5866758864
 11
-18.525973851
 21
-10.8888565478
  0
LINE
  5
2BF
100
AcDbEntity
  8
RACCORDO
100
AcDbLine
 62
250
  6
CONTINUOUS
 10
-18.3260043119
 20
-11.0888260868
 11
-18.3260043119
 21
-11.3887803954
  0
LINE
  5
2C0
100
AcDbEntity
  8
RACCORDO
100
AcDbLine
 62
250
  6
CONTINUOUS
 10
-18.3260043119
 20
10.7866454254
 11
-18.3260043119
 21
11.086599734
  0
LINE
  5
2C1
100
AcDbEntity
  8
RACCORDO
100
AcDbLine
 62
250
  6
CONTINUOUS
 10
-18.9340595336
 20
-2.3510903307
 11
-18.9340127427
 21
2.0752823415
  0
LINE
  5
2C2
100
AcDbEntity
  8
RACCORDO
100
AcDbLine
 62
250
  6
CONTINUOUS
 10
-18.9340127427
 20
2.0752823415
 11
-18.9337030908
 21
2.1264834683
  0
LINE
  5
2C3
100
AcDbEntity
  8
RACCORDO
100
AcDbLine
 62
250
  6
CONTINUOUS
 10
-18.9337030908
 20
2.1264834683
 11
-18.9331009607
 21
2.1742796138
  0
LWPOLYLINE
  5
2C4
100
AcDbEntity
  8
RACCORDO
100
AcDbPolyline
 62
250
  6
CONTINUOUS
 90
13
 70
0
 10
-18.9331009607
 20
2.1742796138
 10
-18.9322291563
 20
2.2183785422
 10
-18.9316944265
 20
2.2387374699
 10
-18.9311051189
 20
2.2577510747
 10
-18.9304646422
 20
2.2751883345
 10
-18.9297695877
 20
2.2910255481
 10
-18.9290205668
 20
2.3053628906
 10
-18.9282106959
 20
2.3180858708
 10
-18.9273468585
 20
2.3288745227
 10
-18.9264503168
 20
2.337484263
 10
-18.9255281582
 20
2.343763371
 10
-18.9245732953
 20
2.3476076407
 10
-18.923585728
 20
2.3489096693
  0
LWPOLYLINE
  5
2C5
100
AcDbEntity
  8
RACCORDO
100
AcDbPolyline
 62
250
  6
CONTINUOUS
 90
7
 70
0
 10
-18.9235857939
 20
-2.6510903307
 10
-18.9245552995
 20
-2.6498384317
 10
-18.9255004448
 20
-2.6460963703
 10
-18.9264212298
 20
-2.6399000836
 10
-18.9273253766
 20
-2.6312942436
 10
-18.928205163
 20
-2.6203610017
 10
-18.9290374227
 20
-2.6072463526
  0
LINE
  5
2C6
100
AcDbEntity
  8
RACCORDO
100
AcDbLine
 62
7
  6
CONTINUOUS
 10
-14.8131402928
 20
-1.4761424413
 11
-14.8119676665
 21
-5.3248655938
  0
LINE
  5
2C7
100
AcDbEntity
  8
RACCORDO
100
AcDbLine
 62
250
  6
CONTINUOUS
 10
-15.1330472738
 20
-5.3459908925
 11
-15.1330472738
 21
-1.4561899823
  0
LINE
  5
2C8
100
AcDbEntity
  8
RACCORDO
100
AcDbLine
 62
250
  6
CONTINUOUS
 10
-14.8330929652
 20
-5.3459908925
 11
-14.8330929652
 21
-1.4561897689
  0
LINE
  5
2C9
100
AcDbEntity
  8
0
100
AcDbLine
 62
7
  6
CONTINUOUS
 10
-14.7882380948
 20
-1.3568053422
 11
-14.7882380948
 21
-1.8510903307
  0
LINE
  5
2CA
100
AcDbEntity
  8
RACCORDO
100
AcDbLine
 62
250
  6
CONTINUOUS
 10
-14.5331386567
 20
-0.8562811518
 11
-14.5331386567
 21
-1.1562354603
  0
LINE
  5
2CB
100
AcDbEntity
  8
RACCORDO
100
AcDbLine
 62
250
  6
CONTINUOUS
 10
-14.5331386567
 20
-5.9458995096
 11
-14.5331386567
 21
-5.6459452011
  0
LINE
  5
2CC
100
AcDbEntity
  8
0
100
AcDbLine
 62
7
  6
CONTINUOUS
 10
-14.3382380948
 20
-5.5510903307
 11
-14.3382380948
 21
-5.6247285404
  0
LINE
  5
2CD
100
AcDbEntity
  8
0
100
AcDbLine
 62
250
  6
CONTINUOUS
 10
-14.0382380948
 20
-5.5510903307
 11
-14.0382380948
 21
-5.6247285404
  0
LWPOLYLINE
  5
2CE
100
AcDbEntity
  8
RACCORDO
100
AcDbPolyline
 62
250
  6
CONTINUOUS
 90
19
 70
0
 10
-14.8330929535
 20
-1.4561897805
 10
-14.8319290498
 20
-1.4296905834
 10
-14.828426057
 20
-1.4033793821
 10
-14.8226059968
 20
-1.3774626358
 10
-14.8144822804
 20
-1.3520716505
 10
-14.8041274216
 20
-1.3274849611
 10
-14.7917361925
 20
-1.3040999776
 10
-14.7774852569
 20
-1.2821158286
 10
-14.7615070843
 20
-1.2616218863
 10
-14.7440172236
 20
-1.2427896318
 10
-14.7253468937
 20
-1.2258319193
 10
-14.7055502868
 20
-1.2106676829
 10
-14.6843676751
 20
-1.197088173
 10
-14.6618218652
 20
-1.1851906853
 10
-14.6381358274
 20
-1.1751725825
 10
-14.6132770598
 20
-1.1671094058
 10
-14.5873381062
 20
-1.1611537771
 10
-14.5605579651
 20
-1.1574822361
 10
-14.5331386453
 20
-1.1562354716
  0
LWPOLYLINE
  5
2CF
100
AcDbEntity
  8
RACCORDO
100
AcDbPolyline
 62
250
  6
CONTINUOUS
 90
19
 70
0
 10
-15.1330472738
 20
-1.4561899823
 10
-15.1305698762
 20
-1.402528609
 10
-15.1235647104
 20
-1.3500576239
 10
-15.1120317764
 20
-1.2987770268
 10
-15.0957092565
 20
-1.2481915002
 10
-15.0748589684
 20
-1.1987963618
 10
-15.0502663651
 20
-1.1520775641
 10
-15.0218289493
 20
-1.1082669478
 10
-14.9896492182
 20
-1.0671326723
 10
-14.9548201167
 20
-1.0294651689
 10
-14.9176697131
 20
-0.995519463
 10
-14.877869939
 20
-0.9650405291
 10
-14.8355295335
 20
-0.9380537217
 10
-14.7905074343
 20
-0.9143170143
 10
-14.7429447036
 20
-0.8940724334
 10
-14.6933732679
 20
-0.8780714132
 10
-14.6419704359
 20
-0.866564432
 10
-14.5885588988
 20
-0.8593010115
 10
-14.5331386567
 20
-0.8562811518
  0
LWPOLYLINE
  5
2D0
100
AcDbEntity
  8
RACCORDO
100
AcDbPolyline
 62
250
  6
CONTINUOUS
 90
19
 70
0
 10
17.6495281223
 20
-11.0888260868
 10
17.669540592
 20
-11.0876831863
 10
17.6888343109
 20
-11.0848304776
 10
17.7074092791
 20
-11.0802679607
 10
17.7254624594
 20
-11.0737980485
 10
17.742796889
 20
-11.065618328
 10
17.7588216789
 20
-11.0563215605
 10
17.7733722515
 20
-11.0458926641
 10
17.7866131846
 20
-11.0343467205
 10
17.7984473221
 20
-11.0223217367
 10
17.8087333594
 20
-11.010055031
 10
17.8176126013
 20
-10.997309285
 10
17.8254118059
 20
-10.9840105507
 10
17.8322651562
 20
-10.9702675472
 10
17.8380384693
 20
-10.9559715553
 10
17.8426559554
 20
-10.94072247
 10
17.8460923511
 20
-10.9243869227
 10
17.8483729197
 20
-10.907098282
 10
17.8494976613
 20
-10.8888565478
  0
LWPOLYLINE
  5
2D1
100
AcDbEntity
  8
RACCORDO
100
AcDbPolyline
 62
250
  6
CONTINUOUS
 90
19
 70
0
 10
17.6495281223
 20
-11.3887803954
 10
17.6988773959
 20
-11.3863300022
 10
17.7472512678
 20
-11.3791192432
 10
17.7942084923
 20
-11.3673625606
 10
17.8395783393
 20
-11.3512151233
 10
17.8827401657
 20
-11.3310126361
 10
17.9227269403
 20
-11.3074840059
 10
17.9592355397
 20
-11.2812412336
 10
17.9923217912
 20
-11.2526915845
 10
18.0217884795
 20
-11.2224818777
 10
18.0473599245
 20
-11.1915357147
 10
18.0695540009
 20
-11.1599008112
 10
18.0892048698
 20
-11.1267090939
 10
18.1061771544
 20
-11.0922397912
 10
18.1204287201
 20
-11.0566362007
 10
18.1323271497
 20
-11.018500795
 10
18.141530133
 20
-10.9774155816
 10
18.1473915685
 20
-10.9341090211
 10
18.1494519699
 20
-10.8888565478
  0
LINE
  5
2D2
100
AcDbEntity
  8
RACCORDO
100
AcDbLine
 62
250
  6
CONTINUOUS
 10
-11.643337533
 20
-5.6459452011
 11
-11.6645541937
 21
-5.6247285404
  0
LINE
  5
2D3
100
AcDbEntity
  8
0
100
AcDbLine
 62
250
  6
CONTINUOUS
 10
-12.1382380948
 20
-5.5510903307
 11
-12.1382380948
 21
-5.6247285404
  0
LINE
  5
2D4
100
AcDbEntity
  8
0
100
AcDbLine
 62
7
  6
CONTINUOUS
 10
-11.8382380948
 20
-5.5510903307
 11
-11.8382380948
 21
-5.6247285404
  0
LINE
  5
2D5
100
AcDbEntity
  8
RACCORDO
100
AcDbLine
 62
250
  6
CONTINUOUS
 10
-11.643337533
 20
-0.8562811518
 11
-11.643337533
 21
-1.1562354603
  0
LINE
  5
2D6
100
AcDbEntity
  8
RACCORDO
100
AcDbLine
 62
250
  6
CONTINUOUS
 10
-11.643337533
 20
-5.9458995096
 11
-11.643337533
 21
-5.6459452011
  0
LINE
  5
2D7
100
AcDbEntity
  8
0
100
AcDbLine
 62
7
  6
CONTINUOUS
 10
-11.3882380948
 20
-1.3568053188
 11
-11.3882380948
 21
-1.8510903307
  0
LINE
  5
2D8
100
AcDbEntity
  8
RACCORDO
100
AcDbLine
 62
250
  6
CONTINUOUS
 10
-11.3433832244
 20
-1.4561897689
 11
-11.3433832244
 21
-5.3459908925
  0
LINE
  5
2D9
100
AcDbEntity
  8
RACCORDO
100
AcDbLine
 62
250
  6
CONTINUOUS
 10
-11.0434289159
 20
-1.4561897689
 11
-11.0434289159
 21
-5.3459906791
  0
LINE
  5
2DA
100
AcDbEntity
  8
RACCORDO
100
AcDbLine
 62
7
  6
CONTINUOUS
 10
-11.3645085231
 20
-5.3248655938
 11
-11.3633358969
 21
-1.4761424413
  0
LWPOLYLINE
  5
2DB
100
AcDbEntity
  8
RACCORDO
100
AcDbPolyline
 62
250
  6
CONTINUOUS
 90
19
 70
0
 10
-11.3433832361
 20
-5.3459908809
 10
-11.3445471399
 20
-5.372490078
 10
-11.3480501326
 20
-5.3988012793
 10
-11.3538701928
 20
-5.4247180256
 10
-11.3619939092
 20
-5.4501090109
 10
-11.3723487681
 20
-5.4746957003
 10
-11.3847399972
 20
-5.4980806837
 10
-11.3989909327
 20
-5.5200648328
 10
-11.4149691053
 20
-5.540558775
 10
-11.432458966
 20
-5.5593910295
 10
-11.451129296
 20
-5.5763487421
 10
-11.4709259029
 20
-5.5915129785
 10
-11.4921085146
 20
-5.6050924884
 10
-11.5146543244
 20
-5.616989976
 10
-11.5383403622
 20
-5.6270080789
 10
-11.5631991299
 20
-5.6350712556
 10
-11.5891380834
 20
-5.6410268843
 10
-11.6159182246
 20
-5.6446984253
 10
-11.6433375443
 20
-5.6459451898
  0
LWPOLYLINE
  5
2DC
100
AcDbEntity
  8
RACCORDO
100
AcDbPolyline
 62
250
  6
CONTINUOUS
 90
19
 70
0
 10
-11.0434289159
 20
-5.3459906791
 10
-11.0459063135
 20
-5.3996520524
 10
-11.0529114793
 20
-5.4521230375
 10
-11.0644444133
 20
-5.5034036346
 10
-11.0807669331
 20
-5.5539891612
 10
-11.1016172212
 20
-5.6033842996
 10
-11.1262098245
 20
-5.6501030973
 10
-11.1546472403
 20
-5.6939137136
 10
-11.1868269714
 20
-5.7350479891
 10
-11.221656073
 20
-5.7727154925
 10
-11.2588064765
 20
-5.8066611984
 10
-11.2986062506
 20
-5.8371401323
 10
-11.3409466561
 20
-5.8641269397
 10
-11.3859687554
 20
-5.8878636471
 10
-11.433531486
 20
-5.908108228
 10
-11.4831029217
 20
-5.9241092481
 10
-11.5345057537
 20
-5.9356162294
 10
-11.5879172908
 20
-5.9428796499
 10
-11.643337533
 20
-5.9458995096
  0
LINE
  5
2DD
100
AcDbEntity
  8
RACCORDO
100
AcDbLine
 62
250
  6
CONTINUOUS
 10
-7.9441782025
 20
8.9111746424
 11
-8.8382380948
 21
8.0171147501
  0
LINE
  5
2DE
100
AcDbEntity
  8
RACCORDO
100
AcDbLine
 62
250
  6
CONTINUOUS
 10
-7.7709731217
 20
8.7379695616
 11
-8.6650330141
 21
7.8439096693
  0
LWPOLYLINE
  5
2DF
100
AcDbEntity
  8
RACCORDO
100
AcDbPolyline
 62
250
  6
CONTINUOUS
 90
8
 70
0
 10
3.2019299271
 20
-10.5950234044
 10
3.2875660052
 20
-10.5922124443
 10
3.3616625165
 20
-10.5892921791
 10
3.4234565016
 20
-10.5862752599
 10
3.4718781576
 20
-10.583243771
 10
3.5069370974
 20
-10.5802250737
 10
3.5291086745
 20
-10.5771918068
 10
3.538662552
 20
-10.5741439701
  0
LINE
  5
2E0
100
AcDbEntity
  8
RACCORDO
100
AcDbLine
 62
250
  6
CONTINUOUS
 10
-3.6193222505
 20
-11.2573530545
 11
-3.4422535956
 21
-11.2521580852
  0
LINE
  5
2E1
100
AcDbEntity
  8
RACCORDO
100
AcDbLine
 62
250
  6
CONTINUOUS
 10
-3.8863767925
 20
-10.9573987635
 11
-3.6896600334
 21
-10.9522037709
  0
LINE
  5
2E2
100
AcDbEntity
  8
RACCORDO
100
AcDbLine
 62
250
  6
CONTINUOUS
 10
2.9984524572
 20
-10.6003112321
 11
3.2019299271
 21
-10.5950234044
  0
LINE
  5
2E3
100
AcDbEntity
  8
RACCORDO
100
AcDbLine
 62
250
  6
CONTINUOUS
 10
-3.4422535956
 20
-11.2521580852
 11
-3.2286032336
 21
-11.2474068457
  0
LINE
  5
2E4
100
AcDbEntity
  8
RACCORDO
100
AcDbLine
 62
250
  6
CONTINUOUS
 10
-3.6896600334
 20
-10.9522037709
 11
-3.4525028141
 21
-10.9474525329
  0
LINE
  5
2E5
100
AcDbEntity
  8
RACCORDO
100
AcDbLine
 62
250
  6
CONTINUOUS
 10
2.7604156655
 20
-10.605002666
 11
2.9984524572
 21
-10.6003112321
  0
LINE
  5
2E6
100
AcDbEntity
  8
RACCORDO
100
AcDbLine
 62
250
  6
CONTINUOUS
 10
-3.2286032336
 20
-11.2474068457
 11
-2.9833097273
 21
-11.2431855643
  0
LINE
  5
2E7
100
AcDbEntity
  8
RACCORDO
100
AcDbLine
 62
250
  6
CONTINUOUS
 10
-3.4525028141
 20
-10.9474525329
 11
-3.1794227754
 21
-10.9432312572
  0
LINE
  5
2E8
100
AcDbEntity
  8
RACCORDO
100
AcDbLine
 62
250
  6
CONTINUOUS
 10
2.4871938874
 20
-10.6091582681
 11
2.7604156655
 21
-10.605002666
  0
LINE
  5
2E9
100
AcDbEntity
  8
RACCORDO
100
AcDbLine
 62
250
  6
CONTINUOUS
 10
-2.9833097273
 20
-11.2431855643
 11
-2.7072248651
 21
-11.2395297301
  0
LINE
  5
2EA
100
AcDbEntity
  8
RACCORDO
100
AcDbLine
 62
250
  6
CONTINUOUS
 10
-3.1794227754
 20
-10.9432312572
 11
-2.8729614439
 21
-10.9395754275
  0
LINE
  5
2EB
100
AcDbEntity
  8
RACCORDO
100
AcDbLine
 62
250
  6
CONTINUOUS
 10
2.1815825446
 20
-10.6127594028
 11
2.4871938874
 21
-10.6091582681
  0
LINE
  5
2EC
100
AcDbEntity
  8
RACCORDO
100
AcDbLine
 62
250
  6
CONTINUOUS
 10
-2.7072248651
 20
-11.2395297301
 11
-2.3952499279
 21
-11.2364276633
  0
LINE
  5
2ED
100
AcDbEntity
  8
RACCORDO
100
AcDbLine
 62
250
  6
CONTINUOUS
 10
-2.8729614439
 20
-10.9395754275
 11
-2.5267962539
 21
-10.9364733525
  0
LINE
  5
2EE
100
AcDbEntity
  8
RACCORDO
100
AcDbLine
 62
250
  6
CONTINUOUS
 10
1.8493753903
 20
-10.6157180755
 11
2.1815825446
 21
-10.6127594028
  0
LINE
  5
2EF
100
AcDbEntity
  8
RACCORDO
100
AcDbLine
 62
250
  6
CONTINUOUS
 10
-2.3952499279
 20
-11.2364276633
 11
-2.0609901644
 21
-11.2340637934
  0
LINE
  5
2F0
100
AcDbEntity
  8
RACCORDO
100
AcDbLine
 62
250
  6
CONTINUOUS
 10
-2.5267962539
 20
-10.9364733525
 11
-2.1547390406
 21
-10.9341094816
  0
LINE
  5
2F1
100
AcDbEntity
  8
RACCORDO
100
AcDbLine
 62
250
  6
CONTINUOUS
 10
1.4970165784
 20
-10.6179848194
 11
1.8493753903
 21
-10.6157180755
  0
LINE
  5
2F2
100
AcDbEntity
  8
RACCORDO
100
AcDbLine
 62
250
  6
CONTINUOUS
 10
-2.0609901644
 20
-11.2340637934
 11
-1.7145956121
 21
-11.2324966794
  0
LINE
  5
2F3
100
AcDbEntity
  8
RACCORDO
100
AcDbLine
 62
250
  6
CONTINUOUS
 10
1.1280939729
 20
-10.6195329742
 11
1.4970165784
 21
-10.6179848194
  0
LINE
  5
2F4
100
AcDbEntity
  8
RACCORDO
100
AcDbLine
 62
250
  6
CONTINUOUS
 10
-2.1547390406
 20
-10.9341094816
 11
-1.7700400517
 21
-10.9325423745
  0
LINE
  5
2F5
100
AcDbEntity
  8
RACCORDO
100
AcDbLine
 62
250
  6
CONTINUOUS
 10
-1.7145956121
 20
-11.2324966794
 11
-1.3800246765
 21
-11.2317516398
  0
LINE
  5
2F6
100
AcDbEntity
  8
RACCORDO
100
AcDbLine
 62
250
  6
CONTINUOUS
 10
-1.7700400517
 20
-10.9325423745
 11
-1.3968072355
 21
-10.9317973338
  0
LINE
  5
2F7
100
AcDbEntity
  8
RACCORDO
100
AcDbLine
 62
250
  6
CONTINUOUS
 10
0.5391194666
 20
-10.6204501589
 11
1.1280939729
 21
-10.6195329742
  0
LINE
  5
2F8
100
AcDbEntity
  8
RACCORDO
100
AcDbLine
 62
7
  6
CONTINUOUS
 10
17.6718365346
 20
-11.4010903307
 11
-18.3483127242
 21
-11.4010903307
  0
LINE
  5
2F9
100
AcDbEntity
  8
RACCORDO
100
AcDbLine
 62
250
  6
CONTINUOUS
 10
17.6495281223
 20
-11.3887803954
 11
3.3494976613
 21
-11.3887803954
  0
LINE
  5
2FA
100
AcDbEntity
  8
RACCORDO
100
AcDbLine
 62
250
  6
CONTINUOUS
 10
-4.025973851
 20
-11.3887803954
 11
-18.3260043119
 21
-11.3887803954
  0
LINE
  5
2FB
100
AcDbEntity
  8
RACCORDO
100
AcDbLine
 62
250
  6
CONTINUOUS
 10
-1.3800246765
 20
-11.2317516398
 11
0.5391194666
 21
-11.231684811
  0
LINE
  5
2FC
100
AcDbEntity
  8
RACCORDO
100
AcDbLine
 62
250
  6
CONTINUOUS
 10
-18.3260043119
 20
-11.0888260868
 11
-4.3207389125
 21
-11.0888260868
  0
LINE
  5
2FD
100
AcDbEntity
  8
RACCORDO
100
AcDbLine
 62
250
  6
CONTINUOUS
 10
3.6442627229
 20
-11.0888260868
 11
17.6495281223
 21
-11.0888260868
  0
LINE
  5
2FE
100
AcDbEntity
  8
RACCORDO
100
AcDbLine
 62
250
  6
CONTINUOUS
 10
-1.3968072355
 20
-10.9317973338
 11
0.5391194666
 21
-10.9317305025
  0
LINE
  5
2FF
100
AcDbEntity
  8
RACCORDO
100
AcDbLine
 62
250
  6
CONTINUOUS
 10
17.8494976613
 20
-10.8888565478
 11
18.1494519699
 21
-10.8888565478
  0
LINE
  5
300
100
AcDbEntity
  8
RACCORDO
100
AcDbLine
 62
250
  6
CONTINUOUS
 10
-18.525973851
 20
-10.8888565478
 11
-18.8259281595
 21
-10.8888565478
  0
LINE
  5
301
100
AcDbEntity
  8
RACCORDO
100
AcDbLine
 62
250
  6
CONTINUOUS
 10
0.5391194666
 20
-10.9317305025
 11
0.9389532221
 21
-10.9321641341
  0
LINE
  5
302
100
AcDbEntity
  8
RACCORDO
100
AcDbLine
 62
250
  6
CONTINUOUS
 10
-1.6007506809
 20
-10.6200651944
 11
0.5391194666
 21
-10.6204501589
  0
LINE
  5
303
100
AcDbEntity
  8
RACCORDO
100
AcDbLine
 62
250
  6
CONTINUOUS
 10
0.5391194666
 20
-11.231684811
 11
0.8998528563
 21
-11.2321184328
  0
LINE
  5
304
100
AcDbEntity
  8
RACCORDO
100
AcDbLine
 62
250
  6
CONTINUOUS
 10
0.9389532221
 20
-10.9321641341
 11
1.3212085856
 21
-10.9333533366
  0
LINE
  5
305
100
AcDbEntity
  8
RACCORDO
100
AcDbLine
 62
250
  6
CONTINUOUS
 10
-1.9883419753
 20
-10.6188527139
 11
-1.6007506809
 21
-10.6200651944
  0
LINE
  5
306
100
AcDbEntity
  8
RACCORDO
100
AcDbLine
 62
250
  6
CONTINUOUS
 10
0.8998528563
 20
-11.2321184328
 11
1.24281147
 21
-11.2333076404
  0
LINE
  5
307
100
AcDbEntity
  8
RACCORDO
100
AcDbLine
 62
250
  6
CONTINUOUS
 10
1.3212085856
 20
-10.9333533366
 11
1.6826824491
 21
-10.9352888181
  0
LINE
  5
308
100
AcDbEntity
  8
RACCORDO
100
AcDbLine
 62
250
  6
CONTINUOUS
 10
-2.368220902
 20
-10.6168328689
 11
-1.9883419753
 21
-10.6188527139
  0
LINE
  5
309
100
AcDbEntity
  8
RACCORDO
100
AcDbLine
 62
250
  6
CONTINUOUS
 10
1.24281147
 20
-11.2333076404
 11
1.5683261508
 21
-11.2352431352
  0
LINE
  5
30A
100
AcDbEntity
  8
RACCORDO
100
AcDbLine
 62
250
  6
CONTINUOUS
 10
1.6826824491
 20
-10.9352888181
 11
2.027774225
 21
-10.9379455659
  0
LINE
  5
30B
100
AcDbEntity
  8
RACCORDO
100
AcDbLine
 62
250
  6
CONTINUOUS
 10
-2.723343298
 20
-10.6140588757
 11
-2.368220902
 21
-10.6168328689
  0
LINE
  5
30C
100
AcDbEntity
  8
RACCORDO
100
AcDbLine
 62
250
  6
CONTINUOUS
 10
1.5683261508
 20
-11.2352431352
 11
1.8790726582
 21
-11.2378998747
  0
LINE
  5
30D
100
AcDbEntity
  8
RACCORDO
100
AcDbLine
 62
250
  6
CONTINUOUS
 10
2.027774225
 20
-10.9379455659
 11
2.348419934
 21
-10.9412646635
  0
LINE
  5
30E
100
AcDbEntity
  8
RACCORDO
100
AcDbLine
 62
250
  6
CONTINUOUS
 10
-3.0451102255
 20
-10.6106791023
 11
-2.723343298
 21
-10.6140588757
  0
LINE
  5
30F
100
AcDbEntity
  8
RACCORDO
100
AcDbLine
 62
250
  6
CONTINUOUS
 10
1.8790726582
 20
-11.2378998747
 11
2.1672603441
 21
-11.2412189676
  0
LINE
  5
310
100
AcDbEntity
  8
RACCORDO
100
AcDbLine
 62
250
  6
CONTINUOUS
 10
2.348419934
 20
-10.9412646635
 11
2.6392399713
 21
-10.9452044288
  0
LINE
  5
311
100
AcDbEntity
  8
RACCORDO
100
AcDbLine
 62
250
  6
CONTINUOUS
 10
-3.3308051782
 20
-10.6067422135
 11
-3.0451102255
 21
-10.6106791023
  0
LINE
  5
312
100
AcDbEntity
  8
RACCORDO
100
AcDbLine
 62
250
  6
CONTINUOUS
 10
2.1672603441
 20
-11.2412189676
 11
2.4292279208
 21
-11.2451587359
  0
LINE
  5
313
100
AcDbEntity
  8
RACCORDO
100
AcDbLine
 62
250
  6
CONTINUOUS
 10
2.6392399713
 20
-10.9452044288
 11
2.8944952947
 21
-10.949670989
  0
LINE
  5
314
100
AcDbEntity
  8
RACCORDO
100
AcDbLine
 62
250
  6
CONTINUOUS
 10
-3.583957473
 20
-10.60224545
 11
-3.3308051782
 21
-10.6067422135
  0
LINE
  5
315
100
AcDbEntity
  8
RACCORDO
100
AcDbLine
 62
250
  6
CONTINUOUS
 10
2.4292279208
 20
-11.2451587359
 11
2.6593977304
 21
-11.2496253049
  0
LWPOLYLINE
  5
316
100
AcDbEntity
  8
RACCORDO
100
AcDbPolyline
 62
250
  6
CONTINUOUS
 90
10
 70
0
 10
2.8944952947
 20
-10.949670989
 10
3.116384882
 20
-10.9547385369
 10
3.2132277414
 20
-10.9575042323
 10
3.2981071562
 20
-10.960351311
 10
3.370844416
 20
-10.9632942662
 10
3.4308482362
 20
-10.9663186046
 10
3.4769697125
 20
-10.9693158607
 10
3.5096479688
 20
-10.9722498792
 10
3.529966566
 20
-10.9751568153
 10
3.538662552
 20
-10.978036669
  0
LWPOLYLINE
  5
317
100
AcDbEntity
  8
RACCORDO
100
AcDbPolyline
 62
250
  6
CONTINUOUS
 90
10
 70
0
 10
2.6593977304
 20
-11.2496253049
 10
2.8581343916
 20
-11.2546928471
 10
2.9456594323
 20
-11.2574585321
 10
3.0222083873
 20
-11.2603056067
 10
3.0870902019
 20
-11.2632485718
 10
3.1409959307
 20
-11.2662729265
 10
3.1831846878
 20
-11.2692701923
 10
3.2134095114
 20
-11.2722042096
 10
3.2319173633
 20
-11.275111138
 10
3.2387082435
 20
-11.2779909775
  0
LWPOLYLINE
  5
318
100
AcDbEntity
  8
RACCORDO
100
AcDbPolyline
 62
7
  6
CONTINUOUS
 90
25
 70
0
 10
-4.025973851
 20
-11.3887803954
 10
-4.0412505461
 20
-11.3881042838
 10
-4.0569357054
 20
-11.3865701329
 10
-4.0729780759
 20
-11.3841085328
 10
-4.0893856244
 20
-11.3806337177
 10
-4.1060217043
 20
-11.3760894377
 10
-4.1226148548
 20
-11.3704899404
 10
-4.1391154086
 20
-11.3638030378
 10
-4.1554245361
 20
-11.3560175153
 10
-4.1712217663
 20
-11.347269398
 10
-4.1863359194
 20
-11.3376752849
 10
-4.2008396986
 20
-11.3272110494
 10
-4.2147900145
 20
-11.3158333003
 10
-4.2280384675
 20
-11.3036518194
 10
-4.2406210248
 20
-11.2906251865
 10
-4.2527948744
 20
-11.276405884
 10
-4.2644554411
 20
-11.2609340203
 10
-4.2754326094
 20
-11.2442407893
 10
-4.2857517185
 20
-11.2260304623
 10
-4.2952856163
 20
-11.2060759384
 10
-4.3036734872
 20
-11.1845936517
 10
-4.3105860948
 20
-11.161981427
 10
-4.3158307341
 20
-11.1384564659
 10
-4.3192705879
 20
-11.1140233926
 10
-4.3207389125
 20
-11.0888260868
  0
LWPOLYLINE
  5
319
100
AcDbEntity
  8
RACCORDO
100
AcDbPolyline
 62
250
  6
CONTINUOUS
 90
10
 70
0
 10
-4.2151387417
 20
-10.5741439924
 10
-4.2049848805
 20
-10.5773010258
 10
-4.1818899418
 20
-10.580381336
 10
-4.1464050447
 20
-10.5833849232
 10
-4.0993424307
 20
-10.5863108121
 10
-4.0412040513
 20
-10.589159978
 10
-3.9716922381
 20
-10.5919353458
 10
-3.8906913437
 20
-10.5946490547
 10
-3.7987927738
 20
-10.5972889656
 10
-3.583957473
 20
-10.60224545
  0
LWPOLYLINE
  5
31A
100
AcDbEntity
  8
RACCORDO
100
AcDbPolyline
 62
250
  6
CONTINUOUS
 90
10
 70
0
 10
-3.9151844331
 20
-10.2741896839
 10
-3.9051622349
 20
-10.2773466906
 10
-3.8845421258
 20
-10.2804269862
 10
-3.8533241057
 20
-10.2834305707
 10
-3.8113278167
 20
-10.2863564762
 10
-3.7587336168
 20
-10.2892056706
 10
-3.69608258
 20
-10.2919810571
 10
-3.6232136091
 20
-10.2946947631
 10
-3.5402878013
 20
-10.2973346611
 10
-3.3472040636
 20
-10.302291135
  0
LINE
  5
31B
100
AcDbEntity
  8
RACCORDO
100
AcDbLine
 62
250
  6
CONTINUOUS
 10
-8.8382380948
 20
-8.3192954115
 11
-7.9441782025
 21
-9.2133553038
  0
LINE
  5
31C
100
AcDbEntity
  8
RACCORDO
100
AcDbLine
 62
250
  6
CONTINUOUS
 10
-8.6650330141
 20
-8.1460903307
 11
-7.7709731217
 21
-9.040150223
  0
LINE
  5
31D
100
AcDbEntity
  8
RACCORDO
100
AcDbLine
 62
250
  6
CONTINUOUS
 10
-11.3433832244
 20
-5.3459908925
 11
-11.3645085231
 21
-5.3248655938
  0
LINE
  5
31E
100
AcDbEntity
  8
RACCORDO
100
AcDbLine
 62
250
  6
CONTINUOUS
 10
-14.8330929652
 20
-1.4561897689
 11
-14.8131402928
 21
-1.4761424413
  0
LINE
  5
31F
100
AcDbEntity
  8
RACCORDO
100
AcDbLine
 62
250
  6
CONTINUOUS
 10
-14.5331386567
 20
-1.1562354603
 11
-14.5132774019
 21
-1.176096715
  0
LWPOLYLINE
  5
320
100
AcDbEntity
  8
RACCORDO
100
AcDbPolyline
 62
250
  6
CONTINUOUS
 90
16
 70
0
 10
-9.0114431756
 20
-8.1460903307
 10
-9.0074304061
 20
-8.1600336006
 10
-9.0021508431
 20
-8.1744794469
 10
-8.9955045652
 20
-8.1893149374
 10
-8.9873255867
 20
-8.2045373809
 10
-8.9775998244
 20
-8.2198416294
 10
-8.9665744036
 20
-8.23466768
 10
-8.9543307428
 20
-8.2488428911
 10
-8.94092658
 20
-8.262242512
 10
-8.9267498543
 20
-8.2744792143
 10
-8.9119256652
 20
-8.2854959012
 10
-8.8966269007
 20
-8.2952118687
 10
-8.8814137224
 20
-8.3033808479
 10
-8.8665911951
 20
-8.3100176846
 10
-8.8521617712
 20
-8.3152890226
 10
-8.8382380948
 20
-8.3192954115
  0
LWPOLYLINE
  5
321
100
AcDbEntity
  8
RACCORDO
100
AcDbPolyline
 62
250
  6
CONTINUOUS
 90
31
 70
0
 10
-10.0787081487
 20
-9.040150223
 10
-10.0785278575
 20
-9.0528892833
 10
-10.0779580107
 20
-9.0655607262
 10
-10.0769986085
 20
-9.0781645519
 10
-10.0756775536
 20
-9.0906342568
 10
-10.0739669431
 20
-9.1030363445
 10
-10.0717830683
 20
-9.1155703254
 10
-10.0691601609
 20
-9.1282525951
 10
-10.0660639891
 20
-9.141066758
 10
-10.0623081489
 20
-9.1541631381
 10
-10.0579142594
 20
-9.1676016744
 10
-10.0528607016
 20
-9.1813224278
 10
-10.0468962145
 20
-9.1952959045
 10
-10.0400180683
 20
-9.2095908832
 10
-10.0322289929
 20
-9.2241385852
 10
-10.0232859176
 20
-9.2387031796
 10
-10.0131762795
 20
-9.2533228163
 10
-10.0019126415
 20
-9.2679593454
 10
-9.9892896222
 20
-9.2822624865
 10
-9.9752615379
 20
-9.296267153
 10
-9.9598740722
 20
-9.3099384315
 10
-9.9430588949
 20
-9.3228213016
 10
-9.9247569016
 20
-9.3349145454
 10
-9.9050271967
 20
-9.3462193807
 10
-9.8839787625
 20
-9.3562844406
 10
-9.8615707212
 20
-9.3650769137
 10
-9.8378439507
 20
-9.3726296113
 10
-9.8130300676
 20
-9.3785896005
 10
-9.7872062775
 20
-9.3828392369
 10
-9.7602953747
 20
-9.3854961649
 10
-9.7322973594
 20
-9.3865603845
  0
LINE
  5
322
100
AcDbEntity
  8
RACCORDO
100
AcDbLine
 62
250
  6
CONTINUOUS
 10
-10.0787081487
 20
8.7379684732
 11
-10.0787081487
 21
-9.040150223
  0
LINE
  5
323
100
AcDbEntity
  8
RACCORDO
100
AcDbLine
 62
250
  6
CONTINUOUS
 10
-9.9055030679
 20
8.7379695616
 11
-9.9055030679
 21
-9.040150223
  0
LINE
  5
324
100
AcDbEntity
  8
RACCORDO
100
AcDbLine
 62
250
  6
CONTINUOUS
 10
-9.7322979871
 20
-9.2133553038
 11
-9.7322979871
 21
-9.3865603845
  0
LINE
  5
325
100
AcDbEntity
  8
RACCORDO
100
AcDbLine
 62
250
  6
CONTINUOUS
 10
-9.7322979871
 20
8.9111746424
 11
-9.7322979871
 21
9.0843797231
  0
LWPOLYLINE
  5
326
100
AcDbEntity
  8
RACCORDO
100
AcDbPolyline
 62
250
  6
CONTINUOUS
 90
13
 70
0
 10
-8.8382380948
 20
8.0171147501
 10
-8.8578479198
 20
8.0111684423
 10
-8.8772213805
 20
8.0032061043
 10
-8.8961249617
 20
7.9933237092
 10
-8.9143308117
 20
7.9816403729
 10
-8.9316194887
 20
7.968296919
 10
-8.9477826063
 20
7.9534541808
 10
-8.9626253445
 20
7.9372910632
 10
-8.9759687985
 20
7.9200023862
 10
-8.9876521347
 20
7.9017965362
 10
-8.9975345298
 20
7.882892955
 10
-9.0054968678
 20
7.8635194943
 10
-9.0114431756
 20
7.8439096693
  0
LWPOLYLINE
  5
327
100
AcDbEntity
  8
RACCORDO
100
AcDbPolyline
 62
250
  6
CONTINUOUS
 90
13
 70
0
 10
-3.9151844331
 20
-10.2741896839
 10
-3.9543282517
 20
-10.276766694
 10
-3.9928026949
 20
-10.2844298331
 10
-4.0299497146
 20
-10.2970480794
 10
-4.0651339645
 20
-10.3144056638
 10
-4.0977536434
 20
-10.3362057483
 10
-4.1272507958
 20
-10.3620754919
 10
-4.1531208925
 20
-10.3915724565
 10
-4.1749214289
 20
-10.4241921531
 10
-4.1922794895
 20
-10.4593766439
 10
-4.2048981642
 20
-10.4965241342
 10
-4.2125616129
 20
-10.5349992745
 10
-4.2151387417
 20
-10.5741439924
  0
LWPOLYLINE
  5
328
100
AcDbEntity
  8
RACCORDO
100
AcDbPolyline
 62
250
  6
CONTINUOUS
 90
8
 70
0
 10
2.9356733872
 20
-10.2950691066
 10
3.0127213514
 20
-10.2922581501
 10
3.0789193487
 20
-10.2893378708
 10
3.1346372064
 20
-10.2863209299
 10
3.1786022884
 20
-10.2832894304
 10
3.2103903825
 20
-10.2802707401
 10
3.2304257009
 20
-10.2772374913
 10
3.2387082435
 20
-10.2741896839
  0
LINE
  5
329
100
AcDbEntity
  8
RACCORDO
100
AcDbLine
 62
250
  6
CONTINUOUS
 10
2.752519158
 20
-10.3003569154
 11
2.9356733872
 21
-10.2950691066
  0
LINE
  5
32A
100
AcDbEntity
  8
RACCORDO
100
AcDbLine
 62
250
  6
CONTINUOUS
 10
2.5382744
 20
-10.305048355
 11
2.752519158
 21
-10.3003569154
  0
LINE
  5
32B
100
AcDbEntity
  8
RACCORDO
100
AcDbLine
 62
250
  6
CONTINUOUS
 10
2.2925058347
 20
-10.3092039628
 11
2.5382744
 21
-10.305048355
  0
LWPOLYLINE
  5
32C
100
AcDbEntity
  8
RACCORDO
100
AcDbPolyline
 62
250
  6
CONTINUOUS
 90
28
 70
0
 10
9.0558217975
 20
-9.3865603845
 10
9.0694356352
 20
-9.3863784319
 10
9.0830993455
 20
-9.3857144535
 10
9.0968129285
 20
-9.3845684494
 10
9.110497251
 20
-9.3829940998
 10
9.1242314462
 20
-9.3809377245
 10
9.1382529135
 20
-9.3782382829
 10
9.1526100906
 20
-9.3749392918
 10
9.1672545398
 20
-9.3709972344
 10
9.1822783477
 20
-9.366120519
 10
9.1977811632
 20
-9.3603217175
 10
9.2136633373
 20
-9.353588258
 10
9.2297180091
 20
-9.3455908332
 10
9.2460079302
 20
-9.336324649
 10
9.2624703491
 20
-9.3257944995
 10
9.2787101504
 20
-9.3136854591
 10
9.294787624
 20
-9.2999482162
 10
9.3106424802
 20
-9.2846320825
 10
9.3256987345
 20
-9.2675700677
 10
9.3399721446
 20
-9.248676205
 10
9.3534469529
 20
-9.2280364613
 10
9.3654999021
 20
-9.2057417466
 10
9.3760891688
 20
-9.1817205775
 10
9.3852565764
 20
-9.1560444374
 10
9.3925043379
 20
-9.129018687
 10
9.3976665244
 20
-9.1007451132
 10
9.4009090647
 20
-9.071121929
 10
9.402231959
 20
-9.0401491346
  0
LWPOLYLINE
  5
32D
100
AcDbEntity
  8
RACCORDO
100
AcDbPolyline
 62
250
  6
CONTINUOUS
 90
28
 70
0
 10
0.5558217975
 20
-9.3865603845
 10
0.5694356352
 20
-9.3863784319
 10
0.5830993455
 20
-9.3857144535
 10
0.5968129285
 20
-9.3845684494
 10
0.610497251
 20
-9.3829940998
 10
0.6242314462
 20
-9.3809377245
 10
0.6382529135
 20
-9.3782382829
 10
0.6526100906
 20
-9.3749392918
 10
0.6672545398
 20
-9.3709972344
 10
0.6822783477
 20
-9.366120519
 10
0.6977811632
 20
-9.3603217175
 10
0.7136633373
 20
-9.353588258
 10
0.7297180091
 20
-9.3455908332
 10
0.7460079302
 20
-9.336324649
 10
0.7624703491
 20
-9.3257944995
 10
0.7787101504
 20
-9.3136854591
 10
0.794787624
 20
-9.2999482162
 10
0.8106424802
 20
-9.2846320825
 10
0.8256987345
 20
-9.2675700677
 10
0.8399721446
 20
-9.248676205
 10
0.8534469529
 20
-9.2280364613
 10
0.8654999021
 20
-9.2057417466
 10
0.8760891688
 20
-9.1817205775
 10
0.8852565764
 20
-9.1560444374
 10
0.8925043379
 20
-9.129018687
 10
0.8976665244
 20
-9.1007451132
 10
0.9009090647
 20
-9.071121929
 10
0.902231959
 20
-9.0401491346
  0
LWPOLYLINE
  5
32E
100
AcDbEntity
  8
RACCORDO
100
AcDbPolyline
 62
250
  6
CONTINUOUS
 90
28
 70
0
 10
-7.9441782025
 20
-9.3865603845
 10
-7.9305643648
 20
-9.3863784319
 10
-7.9169006545
 20
-9.3857144535
 10
-7.9031870715
 20
-9.3845684494
 10
-7.889502749
 20
-9.3829940998
 10
-7.8757685538
 20
-9.3809377245
 10
-7.8617470865
 20
-9.3782382829
 10
-7.8473899094
 20
-9.3749392918
 10
-7.8327454602
 20
-9.3709972344
 10
-7.8177216523
 20
-9.366120519
 10
-7.8022188368
 20
-9.3603217175
 10
-7.7863366627
 20
-9.353588258
 10
-7.7702819909
 20
-9.3455908332
 10
-7.7539920698
 20
-9.336324649
 10
-7.7375296509
 20
-9.3257944995
 10
-7.7212898496
 20
-9.3136854591
 10
-7.705212376
 20
-9.2999482162
 10
-7.6893575198
 20
-9.2846320825
 10
-7.6743012655
 20
-9.2675700677
 10
-7.6600278554
 20
-9.248676205
 10
-7.6465530471
 20
-9.2280364613
 10
-7.6345000979
 20
-9.2057417466
 10
-7.6239108312
 20
-9.1817205775
 10
-7.6147434236
 20
-9.1560444374
 10
-7.6074956621
 20
-9.129018687
 10
-7.6023334756
 20
-9.1007451132
 10
-7.5990909353
 20
-9.071121929
 10
-7.597768041
 20
-9.0401491346
  0
LINE
  5
32F
100
AcDbEntity
  8
RACCORDO
100
AcDbLine
 62
250
  6
CONTINUOUS
 10
2.0173362368
 20
-10.3128050978
 11
2.2925058347
 21
-10.3092039628
  0
LINE
  5
330
100
AcDbEntity
  8
RACCORDO
100
AcDbLine
 62
250
  6
CONTINUOUS
 10
1.7181062369
 20
-10.315763761
 11
2.0173362368
 21
-10.3128050978
  0
LINE
  5
331
100
AcDbEntity
  8
RACCORDO
100
AcDbLine
 62
250
  6
CONTINUOUS
 10
1.4014684016
 20
-10.3180305074
 11
1.7181062369
 21
-10.315763761
  0
LINE
  5
332
100
AcDbEntity
  8
RACCORDO
100
AcDbLine
 62
250
  6
CONTINUOUS
 10
1.0691965223
 20
-10.3195786751
 11
1.4014684016
 21
-10.3180305074
  0
LINE
  5
333
100
AcDbEntity
  8
RACCORDO
100
AcDbLine
 62
250
  6
CONTINUOUS
 10
0.5391194666
 20
-10.3204958504
 11
1.0691965223
 21
-10.3195786751
  0
LINE
  5
334
100
AcDbEntity
  8
RACCORDO
100
AcDbLine
 62
7
  6
CONTINUOUS
 10
3.3443525317
 20
-10.1685453956
 11
-4.0208287213
 21
-10.1685453956
  0
LINE
  5
335
100
AcDbEntity
  8
RACCORDO
100
AcDbLine
 62
250
  6
CONTINUOUS
 10
-9.7322973594
 20
-9.3865603845
 11
-7.9441782025
 21
-9.3865603845
  0
LINE
  5
336
100
AcDbEntity
  8
RACCORDO
100
AcDbLine
 62
250
  6
CONTINUOUS
 10
-1.2322973594
 20
-9.3865603845
 11
0.5558217975
 21
-9.3865603845
  0
LINE
  5
337
100
AcDbEntity
  8
RACCORDO
100
AcDbLine
 62
250
  6
CONTINUOUS
 10
7.2677026406
 20
-9.3865603845
 11
9.0558217975
 21
-9.3865603845
  0
LINE
  5
338
100
AcDbEntity
  8
RACCORDO
100
AcDbLine
 62
250
  6
CONTINUOUS
 10
-9.7322979871
 20
-9.2133553038
 11
-7.9441782025
 21
-9.2133553038
  0
LINE
  5
339
100
AcDbEntity
  8
RACCORDO
100
AcDbLine
 62
250
  6
CONTINUOUS
 10
-1.2322979871
 20
-9.2133553038
 11
0.5558217975
 21
-9.2133553038
  0
LINE
  5
33A
100
AcDbEntity
  8
RACCORDO
100
AcDbLine
 62
250
  6
CONTINUOUS
 10
7.2677020129
 20
-9.2133553038
 11
9.0558217975
 21
-9.2133553038
  0
LINE
  5
33B
100
AcDbEntity
  8
RACCORDO
100
AcDbLine
 62
250
  6
CONTINUOUS
 10
-7.7709731217
 20
-9.040150223
 11
-7.597768041
 21
-9.040150223
  0
LINE
  5
33C
100
AcDbEntity
  8
RACCORDO
100
AcDbLine
 62
250
  6
CONTINUOUS
 10
7.0944969321
 20
-9.040150223
 11
6.9212918513
 21
-9.040150223
  0
LINE
  5
33D
100
AcDbEntity
  8
RACCORDO
100
AcDbLine
 62
250
  6
CONTINUOUS
 10
0.7290268783
 20
-9.040150223
 11
0.902231959
 21
-9.040150223
  0
LINE
  5
33E
100
AcDbEntity
  8
RACCORDO
100
AcDbLine
 62
250
  6
CONTINUOUS
 10
-1.4055030679
 20
-9.040150223
 11
-1.5787081487
 21
-9.040150223
  0
LINE
  5
33F
100
AcDbEntity
  8
RACCORDO
100
AcDbLine
 62
250
  6
CONTINUOUS
 10
9.2290268783
 20
-9.040150223
 11
9.402231959
 21
-9.040150223
  0
LINE
  5
340
100
AcDbEntity
  8
RACCORDO
100
AcDbLine
 62
250
  6
CONTINUOUS
 10
-9.9055030679
 20
-9.040150223
 11
-10.0787081487
 21
-9.040150223
  0
LINE
  5
341
100
AcDbEntity
  8
RACCORDO
100
AcDbLine
 62
250
  6
CONTINUOUS
 10
-1.5633163608
 20
-10.3201108916
 11
0.5391194666
 21
-10.3204958504
  0
LINE
  5
342
100
AcDbEntity
  8
RACCORDO
100
AcDbLine
 62
250
  6
CONTINUOUS
 10
-1.9107080935
 20
-10.3188984077
 11
-1.5633163608
 21
-10.3201108916
  0
LINE
  5
343
100
AcDbEntity
  8
RACCORDO
100
AcDbLine
 62
250
  6
CONTINUOUS
 10
-2.2529583774
 20
-10.3168785543
 11
-1.9107080935
 21
-10.3188984077
  0
LINE
  5
344
100
AcDbEntity
  8
RACCORDO
100
AcDbLine
 62
250
  6
CONTINUOUS
 10
-2.5725729952
 20
-10.3141045695
 11
-2.2529583774
 21
-10.3168785543
  0
LINE
  5
345
100
AcDbEntity
  8
RACCORDO
100
AcDbLine
 62
250
  6
CONTINUOUS
 10
-2.8621176841
 20
-10.3107247984
 11
-2.5725729952
 21
-10.3141045695
  0
LINE
  5
346
100
AcDbEntity
  8
RACCORDO
100
AcDbLine
 62
250
  6
CONTINUOUS
 10
-3.119284226
 20
-10.3067879035
 11
-2.8621176841
 21
-10.3107247984
  0
LINE
  5
347
100
AcDbEntity
  8
RACCORDO
100
AcDbLine
 62
250
  6
CONTINUOUS
 10
-3.3472040636
 20
-10.302291135
 11
-3.119284226
 21
-10.3067879035
  0
LWPOLYLINE
  5
348
100
AcDbEntity
  8
RACCORDO
100
AcDbPolyline
 62
250
  6
CONTINUOUS
 90
13
 70
0
 10
3.2387082435
 20
-10.2741896839
 10
3.2778525906
 20
-10.2767667637
 10
3.3163274264
 20
-10.2844300801
 10
3.3534746908
 20
-10.2970485624
 10
3.3886590298
 20
-10.3144063884
 10
3.4212786628
 20
-10.336206676
 10
3.450775675
 20
-10.3620765606
 10
3.4766455596
 20
-10.3915735727
 10
3.4984458473
 20
-10.4241932057
 10
3.5158036734
 20
-10.4593775448
 10
3.5284221557
 20
-10.4965248092
 10
3.5360854722
 20
-10.5349996452
 10
3.538662552
 20
-10.5741439924
  0
LWPOLYLINE
  5
349
100
AcDbEntity
  8
RACCORDO
100
AcDbPolyline
 62
250
  6
CONTINUOUS
 90
28
 70
0
 10
-7.9441782025
 20
-9.2133553038
 10
-7.9360384118
 20
-9.2145978757
 10
-7.9279047021
 20
-9.215567893
 10
-7.9197827476
 20
-9.2162593208
 10
-7.9117296647
 20
-9.2166782448
 10
-7.9037007668
 20
-9.2168098913
 10
-7.8955516681
 20
-9.2166048861
 10
-7.8872680377
 20
-9.2160609514
 10
-7.8788868677
 20
-9.2151447002
 10
-7.8703482278
 20
-9.2137366028
 10
-7.861624953
 20
-9.211815746
 10
-7.852788652
 20
-9.2093442866
 10
-7.8439375899
 20
-9.2061624003
 10
-7.8350848918
 20
-9.202244216
 10
-7.8262905344
 20
-9.1975549632
 10
-7.8177328899
 20
-9.1919188425
 10
-7.8094463742
 20
-9.1853000712
 10
-7.8015047713
 20
-9.1776869976
 10
-7.7941508848
 20
-9.1689489318
 10
-7.7874535934
 20
-9.1590525249
 10
-7.781478507
 20
-9.1480216028
 10
-7.7764561075
 20
-9.1358314412
 10
-7.7724763771
 20
-9.122480444
 10
-7.7695845812
 20
-9.1080139247
 10
-7.7679243328
 20
-9.092498858
 10
-7.7675769364
 20
-9.0759892432
 10
-7.7685748491
 20
-9.0585212749
 10
-7.7709752294
 20
-9.0401481153
  0
LWPOLYLINE
  5
34A
100
AcDbEntity
  8
RACCORDO
100
AcDbPolyline
 62
250
  6
CONTINUOUS
 90
28
 70
0
 10
0.5558217975
 20
-9.2133553038
 10
0.5639615882
 20
-9.2145978757
 10
0.5720952979
 20
-9.215567893
 10
0.5802172524
 20
-9.2162593208
 10
0.5882703353
 20
-9.2166782448
 10
0.5962992332
 20
-9.2168098913
 10
0.6044483319
 20
-9.2166048861
 10
0.6127319623
 20
-9.2160609514
 10
0.6211131323
 20
-9.2151447002
 10
0.6296517722
 20
-9.2137366028
 10
0.638375047
 20
-9.211815746
 10
0.647211348
 20
-9.2093442866
 10
0.6560624101
 20
-9.2061624003
 10
0.6649151082
 20
-9.202244216
 10
0.6737094656
 20
-9.1975549632
 10
0.6822671101
 20
-9.1919188425
 10
0.6905536258
 20
-9.1853000712
 10
0.6984952287
 20
-9.1776869976
 10
0.7058491152
 20
-9.1689489318
 10
0.7125464066
 20
-9.1590525249
 10
0.718521493
 20
-9.1480216028
 10
0.7235438925
 20
-9.1358314412
 10
0.7275236229
 20
-9.122480444
 10
0.7304154188
 20
-9.1080139247
 10
0.7320756672
 20
-9.092498858
 10
0.7324230636
 20
-9.0759892432
 10
0.7314251509
 20
-9.0585212749
 10
0.7290247706
 20
-9.0401481153
  0
LINE
  5
34B
100
AcDbEntity
  8
RACCORDO
100
AcDbLine
 62
250
  6
CONTINUOUS
 10
-4.3207830299
 20
-10.4684997042
 11
-4.2151387417
 21
-10.5741439924
  0
LINE
  5
34C
100
AcDbEntity
  8
RACCORDO
100
AcDbLine
 62
250
  6
CONTINUOUS
 10
-4.0208287213
 20
-10.1685453956
 11
-3.9151844331
 21
-10.2741896839
  0
LINE
  5
34D
100
AcDbEntity
  8
RACCORDO
100
AcDbLine
 62
250
  6
CONTINUOUS
 10
-9.0114431756
 20
7.8439096693
 11
-9.0114431756
 21
-8.1460903307
  0
LINE
  5
34E
100
AcDbEntity
  8
RACCORDO
100
AcDbLine
 62
250
  6
CONTINUOUS
 10
-8.6650330141
 20
7.8439096693
 11
-8.6650330141
 21
-8.1460903307
  0
LINE
  5
34F
100
AcDbEntity
  8
RACCORDO
100
AcDbLine
 62
250
  6
CONTINUOUS
 10
-7.9441782025
 20
-9.2133553038
 11
-7.9441782025
 21
-9.3865603845
  0
LINE
  5
350
100
AcDbEntity
  8
RACCORDO
100
AcDbLine
 62
250
  6
CONTINUOUS
 10
-7.9441782025
 20
8.9111746424
 11
-7.9441782025
 21
9.0843797231
  0
LINE
  5
351
100
AcDbEntity
  8
RACCORDO
100
AcDbLine
 62
250
  6
CONTINUOUS
 10
-7.7709731217
 20
-9.040150223
 11
-7.7709731217
 21
8.7379695616
  0
LWPOLYLINE
  5
352
100
AcDbEntity
  8
RACCORDO
100
AcDbPolyline
 62
250
  6
CONTINUOUS
 90
31
 70
0
 10
-7.7709731217
 20
8.7379695616
 10
-7.7698084665
 20
8.7455875667
 10
-7.7688829348
 20
8.753134875
 10
-7.7681973507
 20
8.760607175
 10
-7.7677474567
 20
8.7679572877
 10
-7.7675368233
 20
8.7752236841
 10
-7.7675863315
 20
8.7825291682
 10
-7.7678939263
 20
8.7898759051
 10
-7.768478986
 20
8.7972481549
 10
-7.7694120315
 20
8.8047373372
 10
-7.7707017453
 20
8.8123613807
 10
-7.7723753341
 20
8.8200767962
 10
-7.7745461694
 20
8.8278757378
 10
-7.7772354475
 20
8.835767969
 10
-7.7804685668
 20
8.8436993684
 10
-7.7843716201
 20
8.8515589385
 10
-7.7889654157
 20
8.8593263834
 10
-7.7942710079
 20
8.8669564778
 10
-7.8004130341
 20
8.8742950481
 10
-7.8074186209
 20
8.8813079489
 10
-7.8152878069
 20
8.8879406525
 10
-7.8240955922
 20
8.8940072382
 10
-7.8338604699
 20
8.8994508441
 10
-7.8445609949
 20
8.9042267016
 10
-7.8561975231
 20
8.9081748765
 10
-7.8687631479
 20
8.9112298827
 10
-7.8822260873
 20
8.9133588757
 10
-7.8965358526
 20
8.9144646639
 10
-7.9116519334
 20
8.9144894035
 10
-7.927546441
 20
8.9134063482
 10
-7.9441796765
 20
8.9111731684
  0
LWPOLYLINE
  5
353
100
AcDbEntity
  8
RACCORDO
100
AcDbPolyline
 62
250
  6
CONTINUOUS
 90
31
 70
0
 10
-9.9055030679
 20
-9.040150223
 10
-9.9066677231
 20
-9.0477682281
 10
-9.9075932549
 20
-9.0553155364
 10
-9.908278839
 20
-9.0627878364
 10
-9.9087287329
 20
-9.0701379491
 10
-9.9089393664
 20
-9.0774043455
 10
-9.9088898581
 20
-9.0847098296
 10
-9.9085822633
 20
-9.0920565665
 10
-9.9079972036
 20
-9.0994288163
 10
-9.9070641581
 20
-9.1069179986
 10
-9.9057744443
 20
-9.1145420421
 10
-9.9041008555
 20
-9.1222574576
 10
-9.9019300202
 20
-9.1300563992
 10
-9.8992407421
 20
-9.1379486303
 10
-9.8960076228
 20
-9.1458800298
 10
-9.8921045695
 20
-9.1537395999
 10
-9.8875107739
 20
-9.1615070448
 10
-9.8822051818
 20
-9.1691371392
 10
-9.8760631555
 20
-9.1764757095
 10
-9.8690575687
 20
-9.1834886103
 10
-9.8611883828
 20
-9.1901213139
 10
-9.8523805975
 20
-9.1961878996
 10
-9.8426157197
 20
-9.2016315055
 10
-9.8319151948
 20
-9.206407363
 10
-9.8202786665
 20
-9.2103555379
 10
-9.8077130417
 20
-9.2134105441
 10
-9.7942501023
 20
-9.215539537
 10
-9.779940337
 20
-9.2166453253
 10
-9.7648242563
 20
-9.2166700649
 10
-9.7489297486
 20
-9.2155870096
 10
-9.7322965132
 20
-9.2133538298
  0
LWPOLYLINE
  5
354
100
AcDbEntity
  8
RACCORDO
100
AcDbPolyline
 62
7
  6
CONTINUOUS
 90
6
 70
0
 10
-18.8382380948
 20
2.3613653393
 10
-18.8399293478
 20
2.3608173642
 10
-18.8579506255
 20
2.3561822416
 10
-18.8765544045
 20
2.3526214805
 10
-18.8956781959
 20
2.3502113403
 10
-18.9152508752
 20
2.3490255486
  0
LWPOLYLINE
  5
355
100
AcDbEntity
  8
RACCORDO
100
AcDbPolyline
 62
250
  6
CONTINUOUS
 90
13
 70
0
 10
-0.3382380948
 20
8.0171147501
 10
-0.3578479198
 20
8.0111684423
 10
-0.3772213805
 20
8.0032061043
 10
-0.3961249617
 20
7.9933237092
 10
-0.4143308117
 20
7.9816403729
 10
-0.4316194887
 20
7.968296919
 10
-0.4477826063
 20
7.9534541808
 10
-0.4626253445
 20
7.9372910632
 10
-0.4759687985
 20
7.9200023862
 10
-0.4876521347
 20
7.9017965362
 10
-0.4975345298
 20
7.882892955
 10
-0.5054968678
 20
7.8635194943
 10
-0.5114431756
 20
7.8439096693
  0
LINE
  5
356
100
AcDbEntity
  8
RACCORDO
100
AcDbLine
 62
250
  6
CONTINUOUS
 10
8.3349669859
 20
-8.1460903307
 11
7.9885568244
 21
-8.1460903307
  0
LINE
  5
357
100
AcDbEntity
  8
RACCORDO
100
AcDbLine
 62
250
  6
CONTINUOUS
 10
-0.1650330141
 20
-8.1460903307
 11
-0.5114431756
 21
-8.1460903307
  0
LINE
  5
358
100
AcDbEntity
  8
RACCORDO
100
AcDbLine
 62
250
  6
CONTINUOUS
 10
-8.6650330141
 20
-8.1460903307
 11
-9.0114431756
 21
-8.1460903307
  0
LWPOLYLINE
  5
359
100
AcDbEntity
  8
RACCORDO
100
AcDbPolyline
 62
250
  6
CONTINUOUS
 90
28
 70
0
 10
9.0558217975
 20
-9.2133553038
 10
9.0639615882
 20
-9.2145978757
 10
9.0720952979
 20
-9.215567893
 10
9.0802172524
 20
-9.2162593208
 10
9.0882703353
 20
-9.2166782448
 10
9.0962992332
 20
-9.2168098913
 10
9.1044483319
 20
-9.2166048861
 10
9.1127319623
 20
-9.2160609514
 10
9.1211131323
 20
-9.2151447002
 10
9.1296517722
 20
-9.2137366028
 10
9.138375047
 20
-9.211815746
 10
9.147211348
 20
-9.2093442866
 10
9.1560624101
 20
-9.2061624003
 10
9.1649151082
 20
-9.202244216
 10
9.1737094656
 20
-9.1975549632
 10
9.1822671101
 20
-9.1919188425
 10
9.1905536258
 20
-9.1853000712
 10
9.1984952287
 20
-9.1776869976
 10
9.2058491152
 20
-9.1689489318
 10
9.2125464066
 20
-9.1590525249
 10
9.218521493
 20
-9.1480216028
 10
9.2235438925
 20
-9.1358314412
 10
9.2275236229
 20
-9.122480444
 10
9.2304154188
 20
-9.1080139247
 10
9.2320756672
 20
-9.092498858
 10
9.2324230636
 20
-9.0759892432
 10
9.2314251509
 20
-9.0585212749
 10
9.2290247706
 20
-9.0401481153
  0
LWPOLYLINE
  5
35A
100
AcDbEntity
  8
RACCORDO
100
AcDbPolyline
 62
250
  6
CONTINUOUS
 90
31
 70
0
 10
-7.597768041
 20
8.7379695616
 10
-7.5979483322
 20
8.7507086219
 10
-7.5985181789
 20
8.7633800648
 10
-7.5994775812
 20
8.7759838905
 10
-7.6007986361
 20
8.7884535955
 10
-7.6025092465
 20
8.8008556831
 10
-7.6046931214
 20
8.813389664
 10
-7.6073160288
 20
8.8260719337
 10
-7.6104122006
 20
8.8388860966
 10
-7.6141680407
 20
8.8519824767
 10
-7.6185619302
 20
8.865421013
 10
-7.6236154881
 20
8.8791417665
 10
-7.6295799751
 20
8.8931152431
 10
-7.6364581213
 20
8.9074102219
 10
-7.6442471968
 20
8.9219579238
 10
-7.653190272
 20
8.9365225182
 10
-7.6632999102
 20
8.9511421549
 10
-7.6745635482
 20
8.965778684
 10
-7.6871865675
 20
8.9800818251
 10
-7.7012146518
 20
8.9940864916
 10
-7.7166021174
 20
9.0077577701
 10
-7.7334172947
 20
9.0206406402
 10
-7.751719288
 20
9.032733884
 10
-7.771448993
 20
9.0440387193
 10
-7.7924974271
 20
9.0541037792
 10
-7.8149054684
 20
9.0628962523
 10
-7.8386322389
 20
9.0704489499
 10
-7.863446122
 20
9.0764089391
 10
-7.8892699122
 20
9.0806585755
 10
-7.9161808149
 20
9.0833155035
 10
-7.9441788302
 20
9.0843797231
  0
LINE
  5
35B
100
AcDbEntity
  8
RACCORDO
100
AcDbLine
 62
7
  6
CONTINUOUS
 10
-6.3131402928
 20
-1.4761424413
 11
-6.3119676665
 21
-5.3248655938
  0
LINE
  5
35C
100
AcDbEntity
  8
RACCORDO
100
AcDbLine
 62
250
  6
CONTINUOUS
 10
-7.597768041
 20
-9.0401491346
 11
-7.597768041
 21
8.7379695616
  0
LINE
  5
35D
100
AcDbEntity
  8
RACCORDO
100
AcDbLine
 62
250
  6
CONTINUOUS
 10
-6.6330472738
 20
-5.3459908925
 11
-6.6330472738
 21
-1.4561899823
  0
LINE
  5
35E
100
AcDbEntity
  8
RACCORDO
100
AcDbLine
 62
250
  6
CONTINUOUS
 10
-6.3330929652
 20
-5.3459908925
 11
-6.3330929652
 21
-1.4561897689
  0
LINE
  5
35F
100
AcDbEntity
  8
0
100
AcDbLine
 62
7
  6
CONTINUOUS
 10
-6.2882380948
 20
-1.3568053422
 11
-6.2882380948
 21
-1.8510903307
  0
LWPOLYLINE
  5
360
100
AcDbEntity
  8
RACCORDO
100
AcDbPolyline
 62
250
  6
CONTINUOUS
 90
19
 70
0
 10
-6.3330929535
 20
-1.4561897805
 10
-6.3319290498
 20
-1.4296905834
 10
-6.328426057
 20
-1.4033793821
 10
-6.3226059968
 20
-1.3774626358
 10
-6.3144822804
 20
-1.3520716505
 10
-6.3041274216
 20
-1.3274849611
 10
-6.2917361925
 20
-1.3040999776
 10
-6.2774852569
 20
-1.2821158286
 10
-6.2615070843
 20
-1.2616218863
 10
-6.2440172236
 20
-1.2427896318
 10
-6.2253468937
 20
-1.2258319193
 10
-6.2055502868
 20
-1.2106676829
 10
-6.1843676751
 20
-1.197088173
 10
-6.1618218652
 20
-1.1851906853
 10
-6.1381358274
 20
-1.1751725825
 10
-6.1132770598
 20
-1.1671094058
 10
-6.0873381062
 20
-1.1611537771
 10
-6.0605579651
 20
-1.1574822361
 10
-6.0331386453
 20
-1.1562354716
  0
LWPOLYLINE
  5
361
100
AcDbEntity
  8
RACCORDO
100
AcDbPolyline
 62
250
  6
CONTINUOUS
 90
19
 70
0
 10
-6.6330472738
 20
-1.4561899823
 10
-6.6305698762
 20
-1.402528609
 10
-6.6235647104
 20
-1.3500576239
 10
-6.6120317764
 20
-1.2987770268
 10
-6.5957092565
 20
-1.2481915002
 10
-6.5748589684
 20
-1.1987963618
 10
-6.5502663651
 20
-1.1520775641
 10
-6.5218289493
 20
-1.1082669478
 10
-6.4896492182
 20
-1.0671326723
 10
-6.4548201167
 20
-1.0294651689
 10
-6.4176697131
 20
-0.995519463
 10
-6.377869939
 20
-0.9650405291
 10
-6.3355295335
 20
-0.9380537217
 10
-6.2905074343
 20
-0.9143170143
 10
-6.2429447036
 20
-0.8940724334
 10
-6.1933732679
 20
-0.8780714132
 10
-6.1419704359
 20
-0.866564432
 10
-6.0885588988
 20
-0.8593010115
 10
-6.0331386567
 20
-0.8562811518
  0
LINE
  5
362
100
AcDbEntity
  8
RACCORDO
100
AcDbLine
 62
250
  6
CONTINUOUS
 10
-11.643337533
 20
-1.1562354603
 11
-11.6631987877
 21
-1.176096715
  0
LINE
  5
363
100
AcDbEntity
  8
RACCORDO
100
AcDbLine
 62
250
  6
CONTINUOUS
 10
-11.3433832244
 20
-1.4561897689
 11
-11.3633358969
 21
-1.4761424413
  0
LINE
  5
364
100
AcDbEntity
  8
RACCORDO
100
AcDbLine
 62
250
  6
CONTINUOUS
 10
-14.8330929652
 20
-5.3459908925
 11
-14.8119676665
 21
-5.3248655938
  0
LINE
  5
365
100
AcDbEntity
  8
RACCORDO
100
AcDbLine
 62
250
  6
CONTINUOUS
 10
-14.5331386567
 20
-5.6459452011
 11
-14.5119219959
 21
-5.6247285404
  0
LWPOLYLINE
  5
366
100
AcDbEntity
  8
RACCORDO
100
AcDbPolyline
 62
250
  6
CONTINUOUS
 90
19
 70
0
 10
-14.533138645
 20
-5.6459451894
 10
-14.5596378421
 20
-5.6447812856
 10
-14.5859490434
 20
-5.6412782929
 10
-14.6118657898
 20
-5.6354582327
 10
-14.637256775
 20
-5.6273345163
 10
-14.6618434645
 20
-5.6169796574
 10
-14.6852284479
 20
-5.6045884284
 10
-14.7072125969
 20
-5.5903374928
 10
-14.7277065392
 20
-5.5743593202
 10
-14.7465387937
 20
-5.5568694595
 10
-14.7634965062
 20
-5.5381991295
 10
-14.7786607426
 20
-5.5184025227
 10
-14.7922402526
 20
-5.497219911
 10
-14.8041377402
 20
-5.4746741011
 10
-14.814155843
 20
-5.4509880633
 10
-14.8222190197
 20
-5.4261292956
 10
-14.8281746484
 20
-5.4001903421
 10
-14.8318461894
 20
-5.3734102009
 10
-14.8330929539
 20
-5.3459908812
  0
LWPOLYLINE
  5
367
100
AcDbEntity
  8
RACCORDO
100
AcDbPolyline
 62
250
  6
CONTINUOUS
 90
19
 70
0
 10
-14.5331384432
 20
-5.9458995096
 10
-14.5867998165
 20
-5.943422112
 10
-14.6392708017
 20
-5.9364169462
 10
-14.6905513987
 20
-5.9248840122
 10
-14.7411369253
 20
-5.9085614924
 10
-14.7905320637
 20
-5.8877112043
 10
-14.8372508614
 20
-5.863118601
 10
-14.8810614777
 20
-5.8346811852
 10
-14.9221957532
 20
-5.8025014541
 10
-14.9598632567
 20
-5.7676723525
 10
-14.9938089625
 20
-5.730521949
 10
-15.0242878964
 20
-5.6907221749
 10
-15.0512747038
 20
-5.6483817694
 10
-15.0750114112
 20
-5.6033596702
 10
-15.0952559921
 20
-5.5557969395
 10
-15.1112570123
 20
-5.5062255038
 10
-15.1227639935
 20
-5.4548226718
 10
-15.130027414
 20
-5.4014111347
 10
-15.1330472738
 20
-5.3459908925
  0
LWPOLYLINE
  5
368
100
AcDbEntity
  8
RACCORDO
100
AcDbPolyline
 62
250
  6
CONTINUOUS
 90
19
 70
0
 10
-6.0331384432
 20
-5.9458995096
 10
-6.0867998165
 20
-5.943422112
 10
-6.1392708017
 20
-5.9364169462
 10
-6.1905513987
 20
-5.9248840122
 10
-6.2411369253
 20
-5.9085614924
 10
-6.2905320637
 20
-5.8877112043
 10
-6.3372508614
 20
-5.863118601
 10
-6.3810614777
 20
-5.8346811852
 10
-6.4221957532
 20
-5.8025014541
 10
-6.4598632567
 20
-5.7676723525
 10
-6.4938089625
 20
-5.730521949
 10
-6.5242878964
 20
-5.6907221749
 10
-6.5512747038
 20
-5.6483817694
 10
-6.5750114112
 20
-5.6033596702
 10
-6.5952559921
 20
-5.5557969395
 10
-6.6112570123
 20
-5.5062255038
 10
-6.6227639935
 20
-5.4548226718
 10
-6.630027414
 20
-5.4014111347
 10
-6.6330472738
 20
-5.3459908925
  0
LWPOLYLINE
  5
369
100
AcDbEntity
  8
RACCORDO
100
AcDbPolyline
 62
7
  6
CONTINUOUS
 90
4
 70
0
 10
-18.877520268
 20
-2.6546503539
 10
-18.8590810478
 20
-2.6581115845
 10
-18.8412165444
 20
-2.6626271362
 10
-18.8382380948
 20
-2.6635765245
  0
LINE
  5
36A
100
AcDbEntity
  8
RACCORDO
100
AcDbLine
 62
250
  6
CONTINUOUS
 10
-3.143337533
 20
-5.6459452011
 11
-3.1645541937
 21
-5.6247285404
  0
LWPOLYLINE
  5
36B
100
AcDbEntity
  8
RACCORDO
100
AcDbPolyline
 62
250
  6
CONTINUOUS
 90
13
 70
0
 10
-4.2151387417
 20
-10.978036669
 10
-4.2125616105
 20
-11.0171814046
 10
-4.2048981556
 20
-11.0556565595
 10
-4.1922794717
 20
-11.0928040605
 10
-4.1749213999
 20
-11.1279885585
 10
-4.1531208517
 20
-11.160608258
 10
-4.1272507451
 20
-11.1901052202
 10
-4.0977535861
 20
-11.2159749571
 10
-4.0651339051
 20
-11.2377750319
 10
-4.0299496596
 20
-11.2551326049
 10
-3.9928026514
 20
-11.2677508399
 10
-3.9543282268
 20
-11.2754139707
 10
-3.9151844331
 20
-11.2779909775
  0
LINE
  5
36C
100
AcDbEntity
  8
RACCORDO
100
AcDbLine
 62
250
  6
CONTINUOUS
 10
-6.0331386567
 20
-0.8562811518
 11
-6.0331386567
 21
-1.1562354603
  0
LINE
  5
36D
100
AcDbEntity
  8
RACCORDO
100
AcDbLine
 62
250
  6
CONTINUOUS
 10
-6.0331386567
 20
-5.9458995096
 11
-6.0331386567
 21
-5.6459452011
  0
LINE
  5
36E
100
AcDbEntity
  8
0
100
AcDbLine
 62
7
  6
CONTINUOUS
 10
-5.8382380948
 20
-5.5510903307
 11
-5.8382380948
 21
-5.6247285404
  0
LINE
  5
36F
100
AcDbEntity
  8
0
100
AcDbLine
 62
250
  6
CONTINUOUS
 10
-5.5382380948
 20
-5.5510903307
 11
-5.5382380948
 21
-5.6247285404
  0
LINE
  5
370
100
AcDbEntity
  8
RACCORDO
100
AcDbLine
 62
250
  6
CONTINUOUS
 10
0.5558217975
 20
8.9111746424
 11
-0.3382380948
 21
8.0171147501
  0
LINE
  5
371
100
AcDbEntity
  8
RACCORDO
100
AcDbLine
 62
250
  6
CONTINUOUS
 10
0.7290268783
 20
8.7379695616
 11
-0.1650330141
 21
7.8439096693
  0
LINE
  5
372
100
AcDbEntity
  8
RACCORDO
100
AcDbLine
 62
250
  6
CONTINUOUS
 10
-18.8259281595
 20
-10.8888565478
 11
-18.8382380948
 21
-10.9011664831
  0
LINE
  5
373
100
AcDbEntity
  8
RACCORDO
100
AcDbLine
 62
250
  6
CONTINUOUS
 10
-18.3260043119
 20
-11.3887803954
 11
-18.3383142472
 21
-11.4010903307
  0
LWPOLYLINE
  5
374
100
AcDbEntity
  8
RACCORDO
100
AcDbPolyline
 62
250
  6
CONTINUOUS
 90
13
 70
0
 10
8.1617619052
 20
8.0171147501
 10
8.1421520802
 20
8.0111684423
 10
8.1227786195
 20
8.0032061043
 10
8.1038750383
 20
7.9933237092
 10
8.0856691883
 20
7.9816403729
 10
8.0683805113
 20
7.968296919
 10
8.0522173937
 20
7.9534541808
 10
8.0373746555
 20
7.9372910632
 10
8.0240312015
 20
7.9200023862
 10
8.0123478653
 20
7.9017965362
 10
8.0024654702
 20
7.882892955
 10
7.9945031322
 20
7.8635194943
 10
7.9885568244
 20
7.8439096693
  0
LINE
  5
375
100
AcDbEntity
  8
RACCORDO
100
AcDbLine
 62
250
  6
CONTINUOUS
 10
13.856662467
 20
-5.9458995096
 11
10.9668615568
 21
-5.9458995096
  0
LINE
  5
376
100
AcDbEntity
  8
RACCORDO
100
AcDbLine
 62
250
  6
CONTINUOUS
 10
5.356662467
 20
-5.9458995096
 11
2.4668615568
 21
-5.9458995096
  0
LINE
  5
377
100
AcDbEntity
  8
RACCORDO
100
AcDbLine
 62
250
  6
CONTINUOUS
 10
-3.143337533
 20
-5.9458995096
 11
-6.0331384432
 21
-5.9458995096
  0
LINE
  5
378
100
AcDbEntity
  8
RACCORDO
100
AcDbLine
 62
250
  6
CONTINUOUS
 10
-11.643337533
 20
-5.9458995096
 11
-14.5331384432
 21
-5.9458995096
  0
LINE
  5
379
100
AcDbEntity
  8
RACCORDO
100
AcDbLine
 62
250
  6
CONTINUOUS
 10
13.856662467
 20
-5.6459452011
 11
10.9668613433
 21
-5.6459452011
  0
LINE
  5
37A
100
AcDbEntity
  8
RACCORDO
100
AcDbLine
 62
250
  6
CONTINUOUS
 10
5.356662467
 20
-5.6459452011
 11
2.4668613433
 21
-5.6459452011
  0
LINE
  5
37B
100
AcDbEntity
  8
RACCORDO
100
AcDbLine
 62
250
  6
CONTINUOUS
 10
-3.143337533
 20
-5.6459452011
 11
-6.0331386567
 21
-5.6459452011
  0
LINE
  5
37C
100
AcDbEntity
  8
RACCORDO
100
AcDbLine
 62
250
  6
CONTINUOUS
 10
-11.643337533
 20
-5.6459452011
 11
-14.5331386567
 21
-5.6459452011
  0
LINE
  5
37D
100
AcDbEntity
  8
RACCORDO
100
AcDbLine
 62
7
  6
CONTINUOUS
 10
-14.5119219959
 20
-5.6247285404
 11
-11.6645541937
 21
-5.6247285404
  0
LINE
  5
37E
100
AcDbEntity
  8
RACCORDO
100
AcDbLine
 62
7
  6
CONTINUOUS
 10
-6.0119219959
 20
-5.6247285404
 11
-3.1645541937
 21
-5.6247285404
  0
LINE
  5
37F
100
AcDbEntity
  8
RACCORDO
100
AcDbLine
 62
7
  6
CONTINUOUS
 10
2.4880780041
 20
-5.6247285404
 11
5.3354458063
 21
-5.6247285404
  0
LINE
  5
380
100
AcDbEntity
  8
RACCORDO
100
AcDbLine
 62
7
  6
CONTINUOUS
 10
10.9880780041
 20
-5.6247285404
 11
13.8354458063
 21
-5.6247285404
  0
LINE
  5
381
100
AcDbEntity
  8
0
100
AcDbLine
 62
7
  6
CONTINUOUS
 10
-14.3382380948
 20
-5.5510903307
 11
-11.8382380948
 21
-5.5510903307
  0
LINE
  5
382
100
AcDbEntity
  8
0
100
AcDbLine
 62
7
  6
CONTINUOUS
 10
-5.8382380948
 20
-5.5510903307
 11
-3.3382380948
 21
-5.5510903307
  0
LINE
  5
383
100
AcDbEntity
  8
0
100
AcDbLine
 62
7
  6
CONTINUOUS
 10
2.6617619052
 20
-5.5510903307
 11
5.1617619052
 21
-5.5510903307
  0
LINE
  5
384
100
AcDbEntity
  8
0
100
AcDbLine
 62
7
  6
CONTINUOUS
 10
11.1617619052
 20
-5.5510903307
 11
13.6617619052
 21
-5.5510903307
  0
LINE
  5
385
100
AcDbEntity
  8
RACCORDO
100
AcDbLine
 62
7
  6
CONTINUOUS
 10
-14.5599524625
 20
-5.5294216545
 11
-11.6165237271
 21
-5.5294216545
  0
LINE
  5
386
100
AcDbEntity
  8
RACCORDO
100
AcDbLine
 62
7
  6
CONTINUOUS
 10
-6.0599524625
 20
-5.5294216545
 11
-3.1165237271
 21
-5.5294216545
  0
LINE
  5
387
100
AcDbEntity
  8
RACCORDO
100
AcDbLine
 62
7
  6
CONTINUOUS
 10
2.4400475375
 20
-5.5294216545
 11
5.3834762729
 21
-5.5294216545
  0
LINE
  5
388
100
AcDbEntity
  8
RACCORDO
100
AcDbLine
 62
7
  6
CONTINUOUS
 10
10.9400475375
 20
-5.5294216545
 11
13.8834762729
 21
-5.5294216545
  0
LINE
  5
389
100
AcDbEntity
  8
RACCORDO
100
AcDbLine
 62
250
  6
CONTINUOUS
 10
-15.1330472738
 20
-5.3459908925
 11
-14.8330929652
 21
-5.3459908925
  0
LINE
  5
38A
100
AcDbEntity
  8
RACCORDO
100
AcDbLine
 62
250
  6
CONTINUOUS
 10
14.4565710841
 20
-5.3459908925
 11
14.1566167756
 21
-5.3459908925
  0
LINE
  5
38B
100
AcDbEntity
  8
RACCORDO
100
AcDbLine
 62
250
  6
CONTINUOUS
 10
-6.6330472738
 20
-5.3459908925
 11
-6.3330929652
 21
-5.3459908925
  0
LINE
  5
38C
100
AcDbEntity
  8
RACCORDO
100
AcDbLine
 62
250
  6
CONTINUOUS
 10
5.9565710841
 20
-5.3459908925
 11
5.6566167756
 21
-5.3459908925
  0
LINE
  5
38D
100
AcDbEntity
  8
RACCORDO
100
AcDbLine
 62
250
  6
CONTINUOUS
 10
1.8669527262
 20
-5.3459908925
 11
2.1669070348
 21
-5.3459908925
  0
LINE
  5
38E
100
AcDbEntity
  8
RACCORDO
100
AcDbLine
 62
250
  6
CONTINUOUS
 10
-2.5434289159
 20
-5.3459908925
 11
-2.8433832244
 21
-5.3459908925
  0
LINE
  5
38F
100
AcDbEntity
  8
RACCORDO
100
AcDbLine
 62
250
  6
CONTINUOUS
 10
10.3669527262
 20
-5.3459908925
 11
10.6669070348
 21
-5.3459908925
  0
LINE
  5
390
100
AcDbEntity
  8
RACCORDO
100
AcDbLine
 62
250
  6
CONTINUOUS
 10
-11.0434289159
 20
-5.3459908925
 11
-11.3433832244
 21
-5.3459908925
  0
LWPOLYLINE
  5
391
100
AcDbEntity
  8
RACCORDO
100
AcDbPolyline
 62
250
  6
CONTINUOUS
 90
19
 70
0
 10
-6.033138645
 20
-5.6459451894
 10
-6.0596378421
 20
-5.6447812856
 10
-6.0859490434
 20
-5.6412782929
 10
-6.1118657898
 20
-5.6354582327
 10
-6.137256775
 20
-5.6273345163
 10
-6.1618434645
 20
-5.6169796574
 10
-6.1852284479
 20
-5.6045884284
 10
-6.2072125969
 20
-5.5903374928
 10
-6.2277065392
 20
-5.5743593202
 10
-6.2465387937
 20
-5.5568694595
 10
-6.2634965062
 20
-5.5381991295
 10
-6.2786607426
 20
-5.5184025227
 10
-6.2922402526
 20
-5.497219911
 10
-6.3041377402
 20
-5.4746741011
 10
-6.314155843
 20
-5.4509880633
 10
-6.3222190197
 20
-5.4261292956
 10
-6.3281746484
 20
-5.4001903421
 10
-6.3318461894
 20
-5.3734102009
 10
-6.3330929539
 20
-5.3459908812
  0
LWPOLYLINE
  5
392
100
AcDbEntity
  8
RACCORDO
100
AcDbPolyline
 62
250
  6
CONTINUOUS
 90
19
 70
0
 10
2.466861355
 20
-5.6459451894
 10
2.4403621579
 20
-5.6447812856
 10
2.4140509566
 20
-5.6412782929
 10
2.3881342102
 20
-5.6354582327
 10
2.362743225
 20
-5.6273345163
 10
2.3381565355
 20
-5.6169796574
 10
2.3147715521
 20
-5.6045884284
 10
2.2927874031
 20
-5.5903374928
 10
2.2722934608
 20
-5.5743593202
 10
2.2534612063
 20
-5.5568694595
 10
2.2365034938
 20
-5.5381991295
 10
2.2213392574
 20
-5.5184025227
 10
2.2077597474
 20
-5.497219911
 10
2.1958622598
 20
-5.4746741011
 10
2.185844157
 20
-5.4509880633
 10
2.1777809803
 20
-5.4261292956
 10
2.1718253516
 20
-5.4001903421
 10
2.1681538106
 20
-5.3734102009
 10
2.1669070461
 20
-5.3459908812
  0
LWPOLYLINE
  5
393
100
AcDbEntity
  8
RACCORDO
100
AcDbPolyline
 62
250
  6
CONTINUOUS
 90
19
 70
0
 10
10.966861355
 20
-5.6459451894
 10
10.9403621579
 20
-5.6447812856
 10
10.9140509566
 20
-5.6412782929
 10
10.8881342102
 20
-5.6354582327
 10
10.862743225
 20
-5.6273345163
 10
10.8381565355
 20
-5.6169796574
 10
10.8147715521
 20
-5.6045884284
 10
10.7927874031
 20
-5.5903374928
 10
10.7722934608
 20
-5.5743593202
 10
10.7534612063
 20
-5.5568694595
 10
10.7365034938
 20
-5.5381991295
 10
10.7213392574
 20
-5.5184025227
 10
10.7077597474
 20
-5.497219911
 10
10.6958622598
 20
-5.4746741011
 10
10.685844157
 20
-5.4509880633
 10
10.6777809803
 20
-5.4261292956
 10
10.6718253516
 20
-5.4001903421
 10
10.6681538106
 20
-5.3734102009
 10
10.6669070461
 20
-5.3459908812
  0
LWPOLYLINE
  5
394
100
AcDbEntity
  8
RACCORDO
100
AcDbPolyline
 62
250
  6
CONTINUOUS
 90
19
 70
0
 10
2.4668615568
 20
-5.9458995096
 10
2.4132001835
 20
-5.943422112
 10
2.3607291983
 20
-5.9364169462
 10
2.3094486013
 20
-5.9248840122
 10
2.2588630747
 20
-5.9085614924
 10
2.2094679363
 20
-5.8877112043
 10
2.1627491386
 20
-5.863118601
 10
2.1189385223
 20
-5.8346811852
 10
2.0778042468
 20
-5.8025014541
 10
2.0401367433
 20
-5.7676723525
 10
2.0061910375
 20
-5.730521949
 10
1.9757121036
 20
-5.6907221749
 10
1.9487252962
 20
-5.6483817694
 10
1.9249885888
 20
-5.6033596702
 10
1.9047440079
 20
-5.5557969395
 10
1.8887429877
 20
-5.5062255038
 10
1.8772360065
 20
-5.4548226718
 10
1.869972586
 20
-5.4014111347
 10
1.8669527262
 20
-5.3459908925
  0
LWPOLYLINE
  5
395
100
AcDbEntity
  8
RACCORDO
100
AcDbPolyline
 62
250
  6
CONTINUOUS
 90
19
 70
0
 10
10.9668615568
 20
-5.9458995096
 10
10.9132001835
 20
-5.943422112
 10
10.8607291983
 20
-5.9364169462
 10
10.8094486013
 20
-5.9248840122
 10
10.7588630747
 20
-5.9085614924
 10
10.7094679363
 20
-5.8877112043
 10
10.6627491386
 20
-5.863118601
 10
10.6189385223
 20
-5.8346811852
 10
10.5778042468
 20
-5.8025014541
 10
10.5401367433
 20
-5.7676723525
 10
10.5061910375
 20
-5.730521949
 10
10.4757121036
 20
-5.6907221749
 10
10.4487252962
 20
-5.6483817694
 10
10.4249885888
 20
-5.6033596702
 10
10.4047440079
 20
-5.5557969395
 10
10.3887429877
 20
-5.5062255038
 10
10.3772360065
 20
-5.4548226718
 10
10.369972586
 20
-5.4014111347
 10
10.3669527262
 20
-5.3459908925
  0
LINE
  5
396
100
AcDbEntity
  8
RACCORDO
100
AcDbLine
 62
250
  6
CONTINUOUS
 10
-0.3382380948
 20
-8.3192954115
 11
0.5558217975
 21
-9.2133553038
  0
LINE
  5
397
100
AcDbEntity
  8
RACCORDO
100
AcDbLine
 62
250
  6
CONTINUOUS
 10
-0.1650330141
 20
-8.1460903307
 11
0.7290268783
 21
-9.040150223
  0
LINE
  5
398
100
AcDbEntity
  8
RACCORDO
100
AcDbLine
 62
250
  6
CONTINUOUS
 10
-18.8259281595
 20
10.5866758864
 11
-18.8382380948
 21
10.5989858217
  0
LINE
  5
399
100
AcDbEntity
  8
RACCORDO
100
AcDbLine
 62
250
  6
CONTINUOUS
 10
-2.8433832244
 20
-5.3459908925
 11
-2.8645085231
 21
-5.3248655938
  0
LINE
  5
39A
100
AcDbEntity
  8
RACCORDO
100
AcDbLine
 62
250
  6
CONTINUOUS
 10
3.2387082435
 20
-11.2779909775
 11
3.3494976613
 21
-11.3887803954
  0
LINE
  5
39B
100
AcDbEntity
  8
RACCORDO
100
AcDbLine
 62
250
  6
CONTINUOUS
 10
-6.3330929652
 20
-1.4561897689
 11
-6.3131402928
 21
-1.4761424413
  0
LINE
  5
39C
100
AcDbEntity
  8
RACCORDO
100
AcDbLine
 62
250
  6
CONTINUOUS
 10
3.538662552
 20
-10.978036669
 11
3.6443068403
 21
-11.0836809572
  0
LINE
  5
39D
100
AcDbEntity
  8
RACCORDO
100
AcDbLine
 62
250
  6
CONTINUOUS
 10
-18.3260043119
 20
11.086599734
 11
-18.3383142472
 21
11.0989096693
  0
LINE
  5
39E
100
AcDbEntity
  8
RACCORDO
100
AcDbLine
 62
250
  6
CONTINUOUS
 10
-6.0331386567
 20
-1.1562354603
 11
-6.0132774019
 21
-1.176096715
  0
LWPOLYLINE
  5
39F
100
AcDbEntity
  8
RACCORDO
100
AcDbPolyline
 62
250
  6
CONTINUOUS
 90
16
 70
0
 10
-8.6650330141
 20
7.8439096693
 10
-8.6690457836
 20
7.8578529392
 10
-8.6743253465
 20
7.8722987855
 10
-8.6809716244
 20
7.887134276
 10
-8.6891506029
 20
7.9023567196
 10
-8.6988763653
 20
7.917660968
 10
-8.709901786
 20
7.9324870186
 10
-8.7221454468
 20
7.9466622297
 10
-8.7355496096
 20
7.9600618506
 10
-8.7497263353
 20
7.9722985529
 10
-8.7645505245
 20
7.9833152398
 10
-8.779849289
 20
7.9930312073
 10
-8.7950624673
 20
8.0012001865
 10
-8.8098849945
 20
8.0078370232
 10
-8.8243144185
 20
8.0131083612
 10
-8.8382380948
 20
8.0171147501
  0
LINE
  5
3A0
100
AcDbEntity
  8
RACCORDO
100
AcDbLine
 62
7
  6
CONTINUOUS
 10
-4.3207830299
 20
-11.0836809572
 11
-4.3207830299
 21
-10.4684997042
  0
LINE
  5
3A1
100
AcDbEntity
  8
RACCORDO
100
AcDbLine
 62
250
  6
CONTINUOUS
 10
-4.2151387417
 20
-10.978036669
 11
-4.2151387417
 21
-10.5741439924
  0
LINE
  5
3A2
100
AcDbEntity
  8
0
100
AcDbLine
 62
250
  6
CONTINUOUS
 10
-3.6382380948
 20
-5.5510903307
 11
-3.6382380948
 21
-5.6247285404
  0
LINE
  5
3A3
100
AcDbEntity
  8
0
100
AcDbLine
 62
7
  6
CONTINUOUS
 10
-3.3382380948
 20
-5.5510903307
 11
-3.3382380948
 21
-5.6247285404
  0
LINE
  5
3A4
100
AcDbEntity
  8
RACCORDO
100
AcDbLine
 62
250
  6
CONTINUOUS
 10
-3.143337533
 20
-0.8562811518
 11
-3.143337533
 21
-1.1562354603
  0
LINE
  5
3A5
100
AcDbEntity
  8
RACCORDO
100
AcDbLine
 62
250
  6
CONTINUOUS
 10
-3.143337533
 20
-5.9458995096
 11
-3.143337533
 21
-5.6459452011
  0
LWPOLYLINE
  5
3A6
100
AcDbEntity
  8
RACCORDO
100
AcDbPolyline
 62
250
  6
CONTINUOUS
 90
31
 70
0
 10
-1.5787081487
 20
-9.040150223
 10
-1.5785278575
 20
-9.0528892833
 10
-1.5779580107
 20
-9.0655607262
 10
-1.5769986085
 20
-9.0781645519
 10
-1.5756775536
 20
-9.0906342568
 10
-1.5739669431
 20
-9.1030363445
 10
-1.5717830683
 20
-9.1155703254
 10
-1.5691601609
 20
-9.1282525951
 10
-1.5660639891
 20
-9.141066758
 10
-1.5623081489
 20
-9.1541631381
 10
-1.5579142594
 20
-9.1676016744
 10
-1.5528607016
 20
-9.1813224278
 10
-1.5468962145
 20
-9.1952959045
 10
-1.5400180683
 20
-9.2095908832
 10
-1.5322289929
 20
-9.2241385852
 10
-1.5232859176
 20
-9.2387031796
 10
-1.5131762795
 20
-9.2533228163
 10
-1.5019126415
 20
-9.2679593454
 10
-1.4892896222
 20
-9.2822624865
 10
-1.4752615379
 20
-9.296267153
 10
-1.4598740722
 20
-9.3099384315
 10
-1.4430588949
 20
-9.3228213016
 10
-1.4247569016
 20
-9.3349145454
 10
-1.4050271967
 20
-9.3462193807
 10
-1.3839787625
 20
-9.3562844406
 10
-1.3615707212
 20
-9.3650769137
 10
-1.3378439507
 20
-9.3726296113
 10
-1.3130300676
 20
-9.3785896005
 10
-1.2872062775
 20
-9.3828392369
 10
-1.2602953747
 20
-9.3854961649
 10
-1.2322973594
 20
-9.3865603845
  0
LINE
  5
3A7
100
AcDbEntity
  8
0
100
AcDbLine
 62
7
  6
CONTINUOUS
 10
-2.8882380948
 20
-1.3568053188
 11
-2.8882380948
 21
-1.8510903307
  0
LINE
  5
3A8
100
AcDbEntity
  8
RACCORDO
100
AcDbLine
 62
250
  6
CONTINUOUS
 10
-2.8433832244
 20
-1.4561897689
 11
-2.8433832244
 21
-5.3459908925
  0
LINE
  5
3A9
100
AcDbEntity
  8
RACCORDO
100
AcDbLine
 62
250
  6
CONTINUOUS
 10
-2.5434289159
 20
-1.4561897689
 11
-2.5434289159
 21
-5.3459906791
  0
LINE
  5
3AA
100
AcDbEntity
  8
RACCORDO
100
AcDbLine
 62
7
  6
CONTINUOUS
 10
-2.8645085231
 20
-5.3248655938
 11
-2.8633358969
 21
-1.4761424413
  0
LWPOLYLINE
  5
3AB
100
AcDbEntity
  8
RACCORDO
100
AcDbPolyline
 62
250
  6
CONTINUOUS
 90
19
 70
0
 10
-2.8433832361
 20
-5.3459908809
 10
-2.8445471399
 20
-5.372490078
 10
-2.8480501326
 20
-5.3988012793
 10
-2.8538701928
 20
-5.4247180256
 10
-2.8619939092
 20
-5.4501090109
 10
-2.8723487681
 20
-5.4746957003
 10
-2.8847399972
 20
-5.4980806837
 10
-2.8989909327
 20
-5.5200648328
 10
-2.9149691053
 20
-5.540558775
 10
-2.932458966
 20
-5.5593910295
 10
-2.951129296
 20
-5.5763487421
 10
-2.9709259029
 20
-5.5915129785
 10
-2.9921085146
 20
-5.6050924884
 10
-3.0146543244
 20
-5.616989976
 10
-3.0383403622
 20
-5.6270080789
 10
-3.0631991299
 20
-5.6350712556
 10
-3.0891380834
 20
-5.6410268843
 10
-3.1159182246
 20
-5.6446984253
 10
-3.1433375443
 20
-5.6459451898
  0
LWPOLYLINE
  5
3AC
100
AcDbEntity
  8
RACCORDO
100
AcDbPolyline
 62
250
  6
CONTINUOUS
 90
19
 70
0
 10
-2.5434289159
 20
-5.3459906791
 10
-2.5459063135
 20
-5.3996520524
 10
-2.5529114793
 20
-5.4521230375
 10
-2.5644444133
 20
-5.5034036346
 10
-2.5807669331
 20
-5.5539891612
 10
-2.6016172212
 20
-5.6033842996
 10
-2.6262098245
 20
-5.6501030973
 10
-2.6546472403
 20
-5.6939137136
 10
-2.6868269714
 20
-5.7350479891
 10
-2.721656073
 20
-5.7727154925
 10
-2.7588064765
 20
-5.8066611984
 10
-2.7986062506
 20
-5.8371401323
 10
-2.8409466561
 20
-5.8641269397
 10
-2.8859687554
 20
-5.8878636471
 10
-2.933531486
 20
-5.908108228
 10
-2.9831029217
 20
-5.9241092481
 10
-3.0345057537
 20
-5.9356162294
 10
-3.0879172908
 20
-5.9428796499
 10
-3.143337533
 20
-5.9458995096
  0
LINE
  5
3AD
100
AcDbEntity
  8
RACCORDO
100
AcDbLine
 62
7
  6
CONTINUOUS
 10
18.2387746856
 20
-2.65120621
 11
18.2471081388
 21
-2.6510903337
  0
LINE
  5
3AE
100
AcDbEntity
  8
RACCORDO
100
AcDbLine
 62
7
  6
CONTINUOUS
 10
18.8617619052
 20
-2.6510903307
 11
18.247110305
 21
-2.6510903307
  0
LINE
  5
3AF
100
AcDbEntity
  8
RACCORDO
100
AcDbLine
 62
7
  6
CONTINUOUS
 10
-18.9235864946
 20
-2.6510903307
 11
-19.5382380948
 21
-2.6510903307
  0
LINE
  5
3B0
100
AcDbEntity
  8
RACCORDO
100
AcDbLine
 62
250
  6
CONTINUOUS
 10
-18.8382380948
 20
-2.3510903307
 11
-19.8382380948
 21
-2.3510903307
  0
LINE
  5
3B1
100
AcDbEntity
  8
RACCORDO
100
AcDbLine
 62
250
  6
CONTINUOUS
 10
18.1617619052
 20
-2.3510903299
 11
19.1617619052
 21
-2.3510903307
  0
LINE
  5
3B2
100
AcDbEntity
  8
0
100
AcDbLine
 62
7
  6
CONTINUOUS
 10
-14.7882380948
 20
-1.8510903307
 11
-11.3882380948
 21
-1.8510903307
  0
LINE
  5
3B3
100
AcDbEntity
  8
0
100
AcDbLine
 62
7
  6
CONTINUOUS
 10
-6.2882380948
 20
-1.8510903307
 11
-2.8882380948
 21
-1.8510903307
  0
LINE
  5
3B4
100
AcDbEntity
  8
0
100
AcDbLine
 62
7
  6
CONTINUOUS
 10
2.2117619052
 20
-1.8510903307
 11
5.6117619052
 21
-1.8510903307
  0
LINE
  5
3B5
100
AcDbEntity
  8
0
100
AcDbLine
 62
7
  6
CONTINUOUS
 10
10.7117619052
 20
-1.8510903307
 11
14.1117619052
 21
-1.8510903307
  0
LINE
  5
3B6
100
AcDbEntity
  8
RACCORDO
100
AcDbLine
 62
250
  6
CONTINUOUS
 10
-15.1330472738
 20
-1.4561897689
 11
-14.8330929652
 21
-1.4561897689
  0
LINE
  5
3B7
100
AcDbEntity
  8
RACCORDO
100
AcDbLine
 62
250
  6
CONTINUOUS
 10
14.4565710841
 20
-1.4561897689
 11
14.1566167756
 21
-1.4561897689
  0
LINE
  5
3B8
100
AcDbEntity
  8
RACCORDO
100
AcDbLine
 62
250
  6
CONTINUOUS
 10
-6.6330472738
 20
-1.4561897689
 11
-6.3330929652
 21
-1.4561897689
  0
LINE
  5
3B9
100
AcDbEntity
  8
RACCORDO
100
AcDbLine
 62
250
  6
CONTINUOUS
 10
5.9565710841
 20
-1.4561897689
 11
5.6566167756
 21
-1.4561897689
  0
LINE
  5
3BA
100
AcDbEntity
  8
RACCORDO
100
AcDbLine
 62
250
  6
CONTINUOUS
 10
1.8669527262
 20
-1.4561897689
 11
2.1669070348
 21
-1.4561897689
  0
LINE
  5
3BB
100
AcDbEntity
  8
RACCORDO
100
AcDbLine
 62
250
  6
CONTINUOUS
 10
-2.5434289159
 20
-1.4561897689
 11
-2.8433832244
 21
-1.4561897689
  0
LINE
  5
3BC
100
AcDbEntity
  8
RACCORDO
100
AcDbLine
 62
250
  6
CONTINUOUS
 10
10.3669527262
 20
-1.4561897689
 11
10.6669070348
 21
-1.4561897689
  0
LINE
  5
3BD
100
AcDbEntity
  8
RACCORDO
100
AcDbLine
 62
250
  6
CONTINUOUS
 10
-11.0434289159
 20
-1.4561897689
 11
-11.3433832244
 21
-1.4561897689
  0
LWPOLYLINE
  5
3BE
100
AcDbEntity
  8
RACCORDO
100
AcDbPolyline
 62
7
  6
CONTINUOUS
 90
4
 70
0
 10
-18.9235845223
 20
-2.6510903332
 10
-18.9158715004
 20
-2.6511895943
 10
-18.8964734881
 20
-2.6523187254
 10
-18.877520268
 20
-2.6546503539
  0
LWPOLYLINE
  5
3BF
100
AcDbEntity
  8
RACCORDO
100
AcDbPolyline
 62
250
  6
CONTINUOUS
 90
19
 70
0
 10
-11.6433375447
 20
-1.156235472
 10
-11.6168383475
 20
-1.1573993758
 10
-11.5905271462
 20
-1.1609023685
 10
-11.5646103999
 20
-1.1667224287
 10
-11.5392194146
 20
-1.1748461451
 10
-11.5146327252
 20
-1.185201004
 10
-11.4912477418
 20
-1.197592233
 10
-11.4692635927
 20
-1.2118431686
 10
-11.4487696505
 20
-1.2278213412
 10
-11.429937396
 20
-1.2453112019
 10
-11.4129796834
 20
-1.2639815318
 10
-11.3978154471
 20
-1.2837781387
 10
-11.3842359371
 20
-1.3049607504
 10
-11.3723384495
 20
-1.3275065603
 10
-11.3623203466
 20
-1.3511925981
 10
-11.3542571699
 20
-1.3760513657
 10
-11.3483015412
 20
-1.4019903193
 10
-11.3446300002
 20
-1.4287704605
 10
-11.3433832357
 20
-1.4561897802
  0
LWPOLYLINE
  5
3C0
100
AcDbEntity
  8
RACCORDO
100
AcDbPolyline
 62
250
  6
CONTINUOUS
 90
16
 70
0
 10
-0.5114431756
 20
-8.1460903307
 10
-0.5074304061
 20
-8.1600336006
 10
-0.5021508431
 20
-8.1744794469
 10
-0.4955045652
 20
-8.1893149374
 10
-0.4873255867
 20
-8.2045373809
 10
-0.4775998244
 20
-8.2198416294
 10
-0.4665744036
 20
-8.23466768
 10
-0.4543307428
 20
-8.2488428911
 10
-0.44092658
 20
-8.262242512
 10
-0.4267498543
 20
-8.2744792143
 10
-0.4119256652
 20
-8.2854959012
 10
-0.3966269007
 20
-8.2952118687
 10
-0.3814137224
 20
-8.3033808479
 10
-0.3665911951
 20
-8.3100176846
 10
-0.3521617712
 20
-8.3152890226
 10
-0.3382380948
 20
-8.3192954115
  0
LINE
  5
3C1
100
AcDbEntity
  8
RACCORDO
100
AcDbLine
 62
250
  6
CONTINUOUS
 10
-1.5787081487
 20
8.7379684732
 11
-1.5787081487
 21
-9.040150223
  0
LINE
  5
3C2
100
AcDbEntity
  8
RACCORDO
100
AcDbLine
 62
250
  6
CONTINUOUS
 10
-1.4055030679
 20
8.7379695616
 11
-1.4055030679
 21
-9.040150223
  0
LINE
  5
3C3
100
AcDbEntity
  8
RACCORDO
100
AcDbLine
 62
250
  6
CONTINUOUS
 10
-1.2322979871
 20
-9.2133553038
 11
-1.2322979871
 21
-9.3865603845
  0
LINE
  5
3C4
100
AcDbEntity
  8
RACCORDO
100
AcDbLine
 62
250
  6
CONTINUOUS
 10
-1.2322979871
 20
8.9111746424
 11
-1.2322979871
 21
9.0843797231
  0
LINE
  5
3C5
100
AcDbEntity
  8
RACCORDO
100
AcDbLine
 62
250
  6
CONTINUOUS
 10
-1.2155956562
 20
-11.231684811
 11
-1.2155956562
 21
-10.3204958504
  0
LINE
  5
3C6
100
AcDbEntity
  8
RACCORDO
100
AcDbLine
 62
250
  6
CONTINUOUS
 10
-0.5114431756
 20
7.8439096693
 11
-0.5114431756
 21
-8.1460903307
  0
LINE
  5
3C7
100
AcDbEntity
  8
RACCORDO
100
AcDbLine
 62
250
  6
CONTINUOUS
 10
-0.1650330141
 20
7.8439096693
 11
-0.1650330141
 21
-8.1460903307
  0
LWPOLYLINE
  5
3C8
100
AcDbEntity
  8
RACCORDO
100
AcDbPolyline
 62
250
  6
CONTINUOUS
 90
31
 70
0
 10
0.7290268783
 20
8.7379695616
 10
0.7301915335
 20
8.7455875667
 10
0.7311170652
 20
8.753134875
 10
0.7318026493
 20
8.760607175
 10
0.7322525433
 20
8.7679572877
 10
0.7324631767
 20
8.7752236841
 10
0.7324136685
 20
8.7825291682
 10
0.7321060737
 20
8.7898759051
 10
0.731521014
 20
8.7972481549
 10
0.7305879685
 20
8.8047373372
 10
0.7292982547
 20
8.8123613807
 10
0.7276246659
 20
8.8200767962
 10
0.7254538306
 20
8.8278757378
 10
0.7227645525
 20
8.835767969
 10
0.7195314332
 20
8.8436993684
 10
0.7156283799
 20
8.8515589385
 10
0.7110345843
 20
8.8593263834
 10
0.7057289921
 20
8.8669564778
 10
0.6995869659
 20
8.8742950481
 10
0.6925813791
 20
8.8813079489
 10
0.6847121931
 20
8.8879406525
 10
0.6759044078
 20
8.8940072382
 10
0.6661395301
 20
8.8994508441
 10
0.6554390051
 20
8.9042267016
 10
0.6438024769
 20
8.9081748765
 10
0.6312368521
 20
8.9112298827
 10
0.6177739127
 20
8.9133588757
 10
0.6034641474
 20
8.9144646639
 10
0.5883480666
 20
8.9144894035
 10
0.572453559
 20
8.9134063482
 10
0.5558203235
 20
8.9111731684
  0
LINE
  5
3C9
100
AcDbEntity
  8
RACCORDO
100
AcDbLine
 62
250
  6
CONTINUOUS
 10
-3.143337533
 20
-1.1562354603
 11
-3.1631987877
 21
-1.176096715
  0
LINE
  5
3CA
100
AcDbEntity
  8
RACCORDO
100
AcDbLine
 62
250
  6
CONTINUOUS
 10
-2.8433832244
 20
-1.4561897689
 11
-2.8633358969
 21
-1.4761424413
  0
LINE
  5
3CB
100
AcDbEntity
  8
RACCORDO
100
AcDbLine
 62
250
  6
CONTINUOUS
 10
-6.3330929652
 20
-5.3459908925
 11
-6.3119676665
 21
-5.3248655938
  0
LINE
  5
3CC
100
AcDbEntity
  8
RACCORDO
100
AcDbLine
 62
250
  6
CONTINUOUS
 10
-9.9055030679
 20
-9.040150223
 11
-9.0114431756
 21
-8.1460903307
  0
LINE
  5
3CD
100
AcDbEntity
  8
RACCORDO
100
AcDbLine
 62
250
  6
CONTINUOUS
 10
-9.7322979871
 20
-9.2133553038
 11
-8.8382380948
 21
-8.3192954115
  0
LINE
  5
3CE
100
AcDbEntity
  8
RACCORDO
100
AcDbLine
 62
250
  6
CONTINUOUS
 10
-6.0331386567
 20
-5.6459452011
 11
-6.0119219959
 21
-5.6247285404
  0
LINE
  5
3CF
100
AcDbEntity
  8
RACCORDO
100
AcDbLine
 62
7
  6
CONTINUOUS
 10
13.8368012123
 20
-1.176096715
 11
10.9867225981
 21
-1.176096715
  0
LINE
  5
3D0
100
AcDbEntity
  8
RACCORDO
100
AcDbLine
 62
7
  6
CONTINUOUS
 10
5.3368012123
 20
-1.176096715
 11
2.4867225981
 21
-1.176096715
  0
LINE
  5
3D1
100
AcDbEntity
  8
RACCORDO
100
AcDbLine
 62
7
  6
CONTINUOUS
 10
-3.1631987877
 20
-1.176096715
 11
-6.0132774019
 21
-1.176096715
  0
LINE
  5
3D2
100
AcDbEntity
  8
RACCORDO
100
AcDbLine
 62
7
  6
CONTINUOUS
 10
-11.6631987877
 20
-1.176096715
 11
-14.5132774019
 21
-1.176096715
  0
LINE
  5
3D3
100
AcDbEntity
  8
RACCORDO
100
AcDbLine
 62
250
  6
CONTINUOUS
 10
-14.5331386567
 20
-1.1562354603
 11
-11.643337533
 21
-1.1562354603
  0
LINE
  5
3D4
100
AcDbEntity
  8
RACCORDO
100
AcDbLine
 62
250
  6
CONTINUOUS
 10
-6.0331386567
 20
-1.1562354603
 11
-3.143337533
 21
-1.1562354603
  0
LINE
  5
3D5
100
AcDbEntity
  8
RACCORDO
100
AcDbLine
 62
250
  6
CONTINUOUS
 10
2.4668613433
 20
-1.1562354603
 11
5.356662467
 21
-1.1562354603
  0
LINE
  5
3D6
100
AcDbEntity
  8
RACCORDO
100
AcDbLine
 62
250
  6
CONTINUOUS
 10
10.9668613433
 20
-1.1562354603
 11
13.856662467
 21
-1.1562354603
  0
LINE
  5
3D7
100
AcDbEntity
  8
RACCORDO
100
AcDbLine
 62
250
  6
CONTINUOUS
 10
-14.5331386567
 20
-0.8562811518
 11
-11.6433377464
 21
-0.8562811518
  0
LINE
  5
3D8
100
AcDbEntity
  8
RACCORDO
100
AcDbLine
 62
250
  6
CONTINUOUS
 10
-6.0331386567
 20
-0.8562811518
 11
-3.1433377464
 21
-0.8562811518
  0
LINE
  5
3D9
100
AcDbEntity
  8
RACCORDO
100
AcDbLine
 62
250
  6
CONTINUOUS
 10
2.4668613433
 20
-0.8562811518
 11
5.3566622536
 21
-0.8562811518
  0
LINE
  5
3DA
100
AcDbEntity
  8
RACCORDO
100
AcDbLine
 62
250
  6
CONTINUOUS
 10
10.9668613433
 20
-0.8562811518
 11
13.8566622536
 21
-0.8562811518
  0
LWPOLYLINE
  5
3DB
100
AcDbEntity
  8
RACCORDO
100
AcDbPolyline
 62
250
  6
CONTINUOUS
 90
19
 70
0
 10
-3.1433375447
 20
-1.156235472
 10
-3.1168383475
 20
-1.1573993758
 10
-3.0905271462
 20
-1.1609023685
 10
-3.0646103999
 20
-1.1667224287
 10
-3.0392194146
 20
-1.1748461451
 10
-3.0146327252
 20
-1.185201004
 10
-2.9912477418
 20
-1.197592233
 10
-2.9692635927
 20
-1.2118431686
 10
-2.9487696505
 20
-1.2278213412
 10
-2.929937396
 20
-1.2453112019
 10
-2.9129796834
 20
-1.2639815318
 10
-2.8978154471
 20
-1.2837781387
 10
-2.8842359371
 20
-1.3049607504
 10
-2.8723384495
 20
-1.3275065603
 10
-2.8623203466
 20
-1.3511925981
 10
-2.8542571699
 20
-1.3760513657
 10
-2.8483015412
 20
-1.4019903193
 10
-2.8446300002
 20
-1.4287704605
 10
-2.8433832357
 20
-1.4561897802
  0
LWPOLYLINE
  5
3DC
100
AcDbEntity
  8
RACCORDO
100
AcDbPolyline
 62
250
  6
CONTINUOUS
 90
19
 70
0
 10
5.3566624553
 20
-1.156235472
 10
5.3831616525
 20
-1.1573993758
 10
5.4094728538
 20
-1.1609023685
 10
5.4353896001
 20
-1.1667224287
 10
5.4607805854
 20
-1.1748461451
 10
5.4853672748
 20
-1.185201004
 10
5.5087522582
 20
-1.197592233
 10
5.5307364073
 20
-1.2118431686
 10
5.5512303495
 20
-1.2278213412
 10
5.570062604
 20
-1.2453112019
 10
5.5870203166
 20
-1.2639815318
 10
5.6021845529
 20
-1.2837781387
 10
5.6157640629
 20
-1.3049607504
 10
5.6276615505
 20
-1.3275065603
 10
5.6376796534
 20
-1.3511925981
 10
5.6457428301
 20
-1.3760513657
 10
5.6516984588
 20
-1.4019903193
 10
5.6553699998
 20
-1.4287704605
 10
5.6566167643
 20
-1.4561897802
  0
LWPOLYLINE
  5
3DD
100
AcDbEntity
  8
RACCORDO
100
AcDbPolyline
 62
250
  6
CONTINUOUS
 90
19
 70
0
 10
13.8566624553
 20
-1.156235472
 10
13.8831616525
 20
-1.1573993758
 10
13.9094728538
 20
-1.1609023685
 10
13.9353896001
 20
-1.1667224287
 10
13.9607805854
 20
-1.1748461451
 10
13.9853672748
 20
-1.185201004
 10
14.0087522582
 20
-1.197592233
 10
14.0307364073
 20
-1.2118431686
 10
14.0512303495
 20
-1.2278213412
 10
14.070062604
 20
-1.2453112019
 10
14.0870203166
 20
-1.2639815318
 10
14.1021845529
 20
-1.2837781387
 10
14.1157640629
 20
-1.3049607504
 10
14.1276615505
 20
-1.3275065603
 10
14.1376796534
 20
-1.3511925981
 10
14.1457428301
 20
-1.3760513657
 10
14.1516984588
 20
-1.4019903193
 10
14.1553699998
 20
-1.4287704605
 10
14.1566167643
 20
-1.4561897802
  0
LWPOLYLINE
  5
3DE
100
AcDbEntity
  8
RACCORDO
100
AcDbPolyline
 62
250
  6
CONTINUOUS
 90
19
 70
0
 10
-11.6433377464
 20
-0.8562811518
 10
-11.5896763731
 20
-0.8587585494
 10
-11.537205388
 20
-0.8657637152
 10
-11.4859247909
 20
-0.8772966492
 10
-11.4353392644
 20
-0.893619169
 10
-11.3859441259
 20
-0.9144694571
 10
-11.3392253283
 20
-0.9390620604
 10
-11.2954147119
 20
-0.9674994762
 10
-11.2542804365
 20
-0.9996792073
 10
-11.216612933
 20
-1.0345083089
 10
-11.1826672271
 20
-1.0716587124
 10
-11.1521882932
 20
-1.1114584865
 10
-11.1252014859
 20
-1.153798892
 10
-11.1014647784
 20
-1.1988209912
 10
-11.0812201975
 20
-1.2463837219
 10
-11.0652191774
 20
-1.2959551576
 10
-11.0537121961
 20
-1.3473579896
 10
-11.0464487756
 20
-1.4007695267
 10
-11.0434289159
 20
-1.4561897689
  0
LWPOLYLINE
  5
3DF
100
AcDbEntity
  8
RACCORDO
100
AcDbPolyline
 62
250
  6
CONTINUOUS
 90
19
 70
0
 10
-3.1433377464
 20
-0.8562811518
 10
-3.0896763731
 20
-0.8587585494
 10
-3.037205388
 20
-0.8657637152
 10
-2.9859247909
 20
-0.8772966492
 10
-2.9353392644
 20
-0.893619169
 10
-2.8859441259
 20
-0.9144694571
 10
-2.8392253283
 20
-0.9390620604
 10
-2.7954147119
 20
-0.9674994762
 10
-2.7542804365
 20
-0.9996792073
 10
-2.716612933
 20
-1.0345083089
 10
-2.6826672271
 20
-1.0716587124
 10
-2.6521882932
 20
-1.1114584865
 10
-2.6252014859
 20
-1.153798892
 10
-2.6014647784
 20
-1.1988209912
 10
-2.5812201975
 20
-1.2463837219
 10
-2.5652191774
 20
-1.2959551576
 10
-2.5537121961
 20
-1.3473579896
 10
-2.5464487756
 20
-1.4007695267
 10
-2.5434289159
 20
-1.4561897689
  0
LWPOLYLINE
  5
3E0
100
AcDbEntity
  8
RACCORDO
100
AcDbPolyline
 62
250
  6
CONTINUOUS
 90
19
 70
0
 10
5.3566622536
 20
-0.8562811518
 10
5.4103236269
 20
-0.8587585494
 10
5.462794612
 20
-0.8657637152
 10
5.5140752091
 20
-0.8772966492
 10
5.5646607356
 20
-0.893619169
 10
5.6140558741
 20
-0.9144694571
 10
5.6607746717
 20
-0.9390620604
 10
5.7045852881
 20
-0.9674994762
 10
5.7457195635
 20
-0.9996792073
 10
5.783387067
 20
-1.0345083089
 10
5.8173327729
 20
-1.0716587124
 10
5.8478117068
 20
-1.1114584865
 10
5.8747985141
 20
-1.153798892
 10
5.8985352216
 20
-1.1988209912
 10
5.9187798025
 20
-1.2463837219
 10
5.9347808226
 20
-1.2959551576
 10
5.9462878039
 20
-1.3473579896
 10
5.9535512244
 20
-1.4007695267
 10
5.9565710841
 20
-1.4561897689
  0
LWPOLYLINE
  5
3E1
100
AcDbEntity
  8
RACCORDO
100
AcDbPolyline
 62
250
  6
CONTINUOUS
 90
19
 70
0
 10
13.8566622536
 20
-0.8562811518
 10
13.9103236269
 20
-0.8587585494
 10
13.962794612
 20
-0.8657637152
 10
14.0140752091
 20
-0.8772966492
 10
14.0646607356
 20
-0.893619169
 10
14.1140558741
 20
-0.9144694571
 10
14.1607746717
 20
-0.9390620604
 10
14.2045852881
 20
-0.9674994762
 10
14.2457195635
 20
-0.9996792073
 10
14.283387067
 20
-1.0345083089
 10
14.3173327729
 20
-1.0716587124
 10
14.3478117068
 20
-1.1114584865
 10
14.3747985141
 20
-1.153798892
 10
14.3985352216
 20
-1.1988209912
 10
14.4187798025
 20
-1.2463837219
 10
14.4347808226
 20
-1.2959551576
 10
14.4462878039
 20
-1.3473579896
 10
14.4535512244
 20
-1.4007695267
 10
14.4565710841
 20
-1.4561897689
  0
LINE
  5
3E2
100
AcDbEntity
  8
RACCORDO
100
AcDbLine
 62
250
  6
CONTINUOUS
 10
-9.0114431756
 20
7.8439096693
 11
-9.9055030679
 21
8.7379695616
  0
LINE
  5
3E3
100
AcDbEntity
  8
RACCORDO
100
AcDbLine
 62
250
  6
CONTINUOUS
 10
-8.8382380948
 20
8.0171147501
 11
-9.7322979871
 21
8.9111746424
  0
LINE
  5
3E4
100
AcDbEntity
  8
RACCORDO
100
AcDbLine
 62
250
  6
CONTINUOUS
 10
5.356662467
 20
-5.6459452011
 11
5.3354458063
 21
-5.6247285404
  0
LWPOLYLINE
  5
3E5
100
AcDbEntity
  8
RACCORDO
100
AcDbPolyline
 62
250
  6
CONTINUOUS
 90
31
 70
0
 10
0.902231959
 20
8.7379695616
 10
0.9020516678
 20
8.7507086219
 10
0.9014818211
 20
8.7633800648
 10
0.9005224188
 20
8.7759838905
 10
0.8992013639
 20
8.7884535955
 10
0.8974907535
 20
8.8008556831
 10
0.8953068786
 20
8.813389664
 10
0.8926839712
 20
8.8260719337
 10
0.8895877994
 20
8.8388860966
 10
0.8858319593
 20
8.8519824767
 10
0.8814380698
 20
8.865421013
 10
0.8763845119
 20
8.8791417665
 10
0.8704200249
 20
8.8931152431
 10
0.8635418787
 20
8.9074102219
 10
0.8557528032
 20
8.9219579238
 10
0.846809728
 20
8.9365225182
 10
0.8367000898
 20
8.9511421549
 10
0.8254364518
 20
8.965778684
 10
0.8128134325
 20
8.9800818251
 10
0.7987853482
 20
8.9940864916
 10
0.7833978826
 20
9.0077577701
 10
0.7665827053
 20
9.0206406402
 10
0.748280712
 20
9.032733884
 10
0.728551007
 20
9.0440387193
 10
0.7075025729
 20
9.0541037792
 10
0.6850945316
 20
9.0628962523
 10
0.6613677611
 20
9.0704489499
 10
0.636553878
 20
9.0764089391
 10
0.6107300878
 20
9.0806585755
 10
0.5838191851
 20
9.0833155035
 10
0.5558211698
 20
9.0843797231
  0
LINE
  5
3E6
100
AcDbEntity
  8
RACCORDO
100
AcDbLine
 62
250
  6
CONTINUOUS
 10
0.5391194666
 20
-11.231684811
 11
0.5391194666
 21
-10.3204958504
  0
LINE
  5
3E7
100
AcDbEntity
  8
RACCORDO
100
AcDbLine
 62
250
  6
CONTINUOUS
 10
0.5558217975
 20
-9.2133553038
 11
0.5558217975
 21
-9.3865603845
  0
LINE
  5
3E8
100
AcDbEntity
  8
RACCORDO
100
AcDbLine
 62
250
  6
CONTINUOUS
 10
0.5558217975
 20
8.9111746424
 11
0.5558217975
 21
9.0843797231
  0
LINE
  5
3E9
100
AcDbEntity
  8
RACCORDO
100
AcDbLine
 62
250
  6
CONTINUOUS
 10
0.7290268783
 20
-9.040150223
 11
0.7290268783
 21
8.7379695616
  0
LINE
  5
3EA
100
AcDbEntity
  8
RACCORDO
100
AcDbLine
 62
250
  6
CONTINUOUS
 10
0.902231959
 20
-9.0401491346
 11
0.902231959
 21
8.7379695616
  0
LWPOLYLINE
  5
3EB
100
AcDbEntity
  8
RACCORDO
100
AcDbPolyline
 62
250
  6
CONTINUOUS
 90
31
 70
0
 10
-1.4055030679
 20
-9.040150223
 10
-1.4066677231
 20
-9.0477682281
 10
-1.4075932549
 20
-9.0553155364
 10
-1.408278839
 20
-9.0627878364
 10
-1.4087287329
 20
-9.0701379491
 10
-1.4089393664
 20
-9.0774043455
 10
-1.4088898581
 20
-9.0847098296
 10
-1.4085822633
 20
-9.0920565665
 10
-1.4079972036
 20
-9.0994288163
 10
-1.4070641581
 20
-9.1069179986
 10
-1.4057744443
 20
-9.1145420421
 10
-1.4041008555
 20
-9.1222574576
 10
-1.4019300202
 20
-9.1300563992
 10
-1.3992407421
 20
-9.1379486303
 10
-1.3960076228
 20
-9.1458800298
 10
-1.3921045695
 20
-9.1537395999
 10
-1.3875107739
 20
-9.1615070448
 10
-1.3822051818
 20
-9.1691371392
 10
-1.3760631555
 20
-9.1764757095
 10
-1.3690575687
 20
-9.1834886103
 10
-1.3611883828
 20
-9.1901213139
 10
-1.3523805975
 20
-9.1961878996
 10
-1.3426157197
 20
-9.2016315055
 10
-1.3319151948
 20
-9.206407363
 10
-1.3202786665
 20
-9.2103555379
 10
-1.3077130417
 20
-9.2134105441
 10
-1.2942501023
 20
-9.215539537
 10
-1.279940337
 20
-9.2166453253
 10
-1.2648242563
 20
-9.2166700649
 10
-1.2489297486
 20
-9.2155870096
 10
-1.2322965132
 20
-9.2133538298
  0
LINE
  5
3EC
100
AcDbEntity
  8
RACCORDO
100
AcDbLine
 62
250
  6
CONTINUOUS
 10
9.0558217975
 20
8.9111746424
 11
8.1617619052
 21
8.0171147501
  0
LINE
  5
3ED
100
AcDbEntity
  8
RACCORDO
100
AcDbLine
 62
250
  6
CONTINUOUS
 10
9.2290268783
 20
8.7379695616
 11
8.3349669859
 21
7.8439096693
  0
LINE
  5
3EE
100
AcDbEntity
  8
RACCORDO
100
AcDbLine
 62
250
  6
CONTINUOUS
 10
8.1617619052
 20
-8.3192954115
 11
9.0558217975
 21
-9.2133553038
  0
LINE
  5
3EF
100
AcDbEntity
  8
RACCORDO
100
AcDbLine
 62
250
  6
CONTINUOUS
 10
8.3349669859
 20
-8.1460903307
 11
9.2290268783
 21
-9.040150223
  0
LINE
  5
3F0
100
AcDbEntity
  8
RACCORDO
100
AcDbLine
 62
250
  6
CONTINUOUS
 10
5.6566167756
 20
-5.3459908925
 11
5.6354914769
 21
-5.3248655938
  0
LINE
  5
3F1
100
AcDbEntity
  8
RACCORDO
100
AcDbLine
 62
250
  6
CONTINUOUS
 10
2.1669070348
 20
-1.4561897689
 11
2.1868597072
 21
-1.4761424413
  0
LINE
  5
3F2
100
AcDbEntity
  8
RACCORDO
100
AcDbLine
 62
250
  6
CONTINUOUS
 10
2.4668613433
 20
-1.1562354603
 11
2.4867225981
 21
-1.176096715
  0
LINE
  5
3F3
100
AcDbEntity
  8
RACCORDO
100
AcDbLine
 62
7
  6
CONTINUOUS
 10
2.1868597072
 20
-1.4761424413
 11
2.1880323335
 21
-5.3248655938
  0
LINE
  5
3F4
100
AcDbEntity
  8
RACCORDO
100
AcDbLine
 62
250
  6
CONTINUOUS
 10
1.8669527262
 20
-5.3459908925
 11
1.8669527262
 21
-1.4561899823
  0
LINE
  5
3F5
100
AcDbEntity
  8
RACCORDO
100
AcDbLine
 62
250
  6
CONTINUOUS
 10
2.1669070348
 20
-5.3459908925
 11
2.1669070348
 21
-1.4561897689
  0
LINE
  5
3F6
100
AcDbEntity
  8
0
100
AcDbLine
 62
7
  6
CONTINUOUS
 10
2.2117619052
 20
-1.3568053422
 11
2.2117619052
 21
-1.8510903307
  0
LINE
  5
3F7
100
AcDbEntity
  8
RACCORDO
100
AcDbLine
 62
250
  6
CONTINUOUS
 10
2.4668613433
 20
-0.8562811518
 11
2.4668613433
 21
-1.1562354603
  0
LINE
  5
3F8
100
AcDbEntity
  8
RACCORDO
100
AcDbLine
 62
250
  6
CONTINUOUS
 10
2.4668613433
 20
-5.9458995096
 11
2.4668613433
 21
-5.6459452011
  0
LINE
  5
3F9
100
AcDbEntity
  8
0
100
AcDbLine
 62
7
  6
CONTINUOUS
 10
2.6617619052
 20
-5.5510903307
 11
2.6617619052
 21
-5.6247285404
  0
LWPOLYLINE
  5
3FA
100
AcDbEntity
  8
RACCORDO
100
AcDbPolyline
 62
250
  6
CONTINUOUS
 90
19
 70
0
 10
2.1669070465
 20
-1.4561897805
 10
2.1680709502
 20
-1.4296905834
 10
2.171573943
 20
-1.4033793821
 10
2.1773940032
 20
-1.3774626358
 10
2.1855177196
 20
-1.3520716505
 10
2.1958725784
 20
-1.3274849611
 10
2.2082638075
 20
-1.3040999776
 10
2.2225147431
 20
-1.2821158286
 10
2.2384929157
 20
-1.2616218863
 10
2.2559827764
 20
-1.2427896318
 10
2.2746531063
 20
-1.2258319193
 10
2.2944497132
 20
-1.2106676829
 10
2.3156323249
 20
-1.197088173
 10
2.3381781348
 20
-1.1851906853
 10
2.3618641726
 20
-1.1751725825
 10
2.3867229402
 20
-1.1671094058
 10
2.4126618938
 20
-1.1611537771
 10
2.4394420349
 20
-1.1574822361
 10
2.4668613547
 20
-1.1562354716
  0
LWPOLYLINE
  5
3FB
100
AcDbEntity
  8
RACCORDO
100
AcDbPolyline
 62
250
  6
CONTINUOUS
 90
19
 70
0
 10
1.8669527262
 20
-1.4561899823
 10
1.8694301238
 20
-1.402528609
 10
1.8764352896
 20
-1.3500576239
 10
1.8879682236
 20
-1.2987770268
 10
1.9042907435
 20
-1.2481915002
 10
1.9251410316
 20
-1.1987963618
 10
1.9497336349
 20
-1.1520775641
 10
1.9781710507
 20
-1.1082669478
 10
2.0103507818
 20
-1.0671326723
 10
2.0451798833
 20
-1.0294651689
 10
2.0823302869
 20
-0.995519463
 10
2.122130061
 20
-0.9650405291
 10
2.1644704665
 20
-0.9380537217
 10
2.2094925657
 20
-0.9143170143
 10
2.2570552964
 20
-0.8940724334
 10
2.3066267321
 20
-0.8780714132
 10
2.3580295641
 20
-0.866564432
 10
2.4114411012
 20
-0.8593010115
 10
2.4668613433
 20
-0.8562811518
  0
LINE
  5
3FC
100
AcDbEntity
  8
RACCORDO
100
AcDbLine
 62
7
  6
CONTINUOUS
 10
-18.9152508752
 20
2.3490255486
 11
-18.9235843284
 21
2.3489096724
  0
LINE
  5
3FD
100
AcDbEntity
  8
RACCORDO
100
AcDbLine
 62
250
  6
CONTINUOUS
 10
18.1617619052
 20
2.0489096693
 11
19.1617619052
 21
2.0489096693
  0
LINE
  5
3FE
100
AcDbEntity
  8
RACCORDO
100
AcDbLine
 62
250
  6
CONTINUOUS
 10
-18.8382380948
 20
2.0489096685
 11
-19.8382380948
 21
2.0489096693
  0
LINE
  5
3FF
100
AcDbEntity
  8
RACCORDO
100
AcDbLine
 62
7
  6
CONTINUOUS
 10
-19.5382380948
 20
2.3489096693
 11
-18.9235864946
 21
2.3489096693
  0
LINE
  5
400
100
AcDbEntity
  8
RACCORDO
100
AcDbLine
 62
7
  6
CONTINUOUS
 10
18.247110305
 20
2.3489096693
 11
18.8617619052
 21
2.3489096693
  0
LWPOLYLINE
  5
401
100
AcDbEntity
  8
RACCORDO
100
AcDbPolyline
 62
7
  6
CONTINUOUS
 90
4
 70
0
 10
18.2471083327
 20
2.3489096718
 10
18.2393953108
 20
2.3490089329
 10
18.2199972985
 20
2.350138064
 10
18.2010440783
 20
2.3524696925
  0
LWPOLYLINE
  5
402
100
AcDbEntity
  8
RACCORDO
100
AcDbPolyline
 62
250
  6
CONTINUOUS
 90
16
 70
0
 10
-0.1650330141
 20
7.8439096693
 10
-0.1690457836
 20
7.8578529392
 10
-0.1743253465
 20
7.8722987855
 10
-0.1809716244
 20
7.887134276
 10
-0.1891506029
 20
7.9023567196
 10
-0.1988763653
 20
7.917660968
 10
-0.209901786
 20
7.9324870186
 10
-0.2221454468
 20
7.9466622297
 10
-0.2355496096
 20
7.9600618506
 10
-0.2497263353
 20
7.9722985529
 10
-0.2645505245
 20
7.9833152398
 10
-0.279849289
 20
7.9930312073
 10
-0.2950624673
 20
8.0012001865
 10
-0.3098849945
 20
8.0078370232
 10
-0.3243144185
 20
8.0131083612
 10
-0.3382380948
 20
8.0171147501
  0
LINE
  5
403
100
AcDbEntity
  8
0
100
AcDbLine
 62
250
  6
CONTINUOUS
 10
2.9617619052
 20
-5.5510903307
 11
2.9617619052
 21
-5.6247285404
  0
LINE
  5
404
100
AcDbEntity
  8
RACCORDO
100
AcDbLine
 62
250
  6
CONTINUOUS
 10
3.538662552
 20
-10.978036669
 11
3.538662552
 21
-10.5741439924
  0
LINE
  5
405
100
AcDbEntity
  8
RACCORDO
100
AcDbLine
 62
7
  6
CONTINUOUS
 10
3.6443068403
 20
-11.0836809572
 11
3.6443068403
 21
-10.4684997042
  0
LWPOLYLINE
  5
406
100
AcDbEntity
  8
RACCORDO
100
AcDbPolyline
 62
7
  6
CONTINUOUS
 90
25
 70
0
 10
3.6442627229
 20
-11.0888260868
 10
3.6427852548
 20
-11.114115386
 10
3.6393223418
 20
-11.1386334628
 10
3.6340427913
 20
-11.1622350125
 10
3.6270852898
 20
-11.1849147903
 10
3.6186447579
 20
-11.2064544187
 10
3.6090534888
 20
-11.2264546478
 10
3.5986747855
 20
-11.2446998488
 10
3.5876377229
 20
-11.2614172508
 10
3.5759196339
 20
-11.2769009361
 10
3.5636901363
 20
-11.2911235495
 10
3.5510575135
 20
-11.3041431159
 10
3.5377752756
 20
-11.3162987265
 10
3.5238137916
 20
-11.3276318434
 10
3.5093206598
 20
-11.338039554
 10
3.4942401229
 20
-11.3475688711
 10
3.4785090097
 20
-11.3562432761
 10
3.4622920881
 20
-11.3639556769
 10
3.4458841193
 20
-11.3705841921
 10
3.4293795897
 20
-11.3761399686
 10
3.4128293508
 20
-11.380653065
 10
3.396484501
 20
-11.3841116978
 10
3.3804737392
 20
-11.3865683785
 10
3.3647945042
 20
-11.3881028895
 10
3.3494976613
 20
-11.3887803954
  0
LWPOLYLINE
  5
407
100
AcDbEntity
  8
RACCORDO
100
AcDbPolyline
 62
250
  6
CONTINUOUS
 90
13
 70
0
 10
3.538662552
 20
-10.978036669
 10
3.5360854722
 20
-11.0171810162
 10
3.5284221557
 20
-11.0556558521
 10
3.5158036734
 20
-11.0928031165
 10
3.4984458473
 20
-11.1279874556
 10
3.4766455597
 20
-11.1606070886
 10
3.4507756751
 20
-11.1901041007
 10
3.4212786629
 20
-11.2159739853
 10
3.3886590299
 20
-11.2377742729
 10
3.3534746909
 20
-11.2551320989
 10
3.3163274265
 20
-11.2677505812
 10
3.2778525906
 20
-11.2754138977
 10
3.2387082435
 20
-11.2779909775
  0
LINE
  5
408
100
AcDbEntity
  8
0
100
AcDbLine
 62
250
  6
CONTINUOUS
 10
4.8617619052
 20
-5.5510903307
 11
4.8617619052
 21
-5.6247285404
  0
LINE
  5
409
100
AcDbEntity
  8
0
100
AcDbLine
 62
7
  6
CONTINUOUS
 10
5.1617619052
 20
-5.5510903307
 11
5.1617619052
 21
-5.6247285404
  0
LINE
  5
40A
100
AcDbEntity
  8
RACCORDO
100
AcDbLine
 62
250
  6
CONTINUOUS
 10
5.356662467
 20
-0.8562811518
 11
5.356662467
 21
-1.1562354603
  0
LINE
  5
40B
100
AcDbEntity
  8
RACCORDO
100
AcDbLine
 62
250
  6
CONTINUOUS
 10
5.356662467
 20
-5.9458995096
 11
5.356662467
 21
-5.6459452011
  0
LINE
  5
40C
100
AcDbEntity
  8
0
100
AcDbLine
 62
7
  6
CONTINUOUS
 10
5.6117619052
 20
-1.3568053188
 11
5.6117619052
 21
-1.8510903307
  0
LINE
  5
40D
100
AcDbEntity
  8
RACCORDO
100
AcDbLine
 62
250
  6
CONTINUOUS
 10
5.6566167756
 20
-1.4561897689
 11
5.6566167756
 21
-5.3459908925
  0
LINE
  5
40E
100
AcDbEntity
  8
RACCORDO
100
AcDbLine
 62
7
  6
CONTINUOUS
 10
5.6354914769
 20
-5.3248655938
 11
5.6366641031
 21
-1.4761424413
  0
LINE
  5
40F
100
AcDbEntity
  8
RACCORDO
100
AcDbLine
 62
250
  6
CONTINUOUS
 10
5.356662467
 20
-1.1562354603
 11
5.3368012123
 21
-1.176096715
  0
LINE
  5
410
100
AcDbEntity
  8
RACCORDO
100
AcDbLine
 62
250
  6
CONTINUOUS
 10
17.6495281223
 20
11.086599734
 11
17.6618380576
 21
11.0989096693
  0
LINE
  5
411
100
AcDbEntity
  8
RACCORDO
100
AcDbLine
 62
250
  6
CONTINUOUS
 10
-4.3207830299
 20
-11.0836809572
 11
-4.2151387417
 21
-10.978036669
  0
LINE
  5
412
100
AcDbEntity
  8
RACCORDO
100
AcDbLine
 62
250
  6
CONTINUOUS
 10
5.6566167756
 20
-1.4561897689
 11
5.6366641031
 21
-1.4761424413
  0
LINE
  5
413
100
AcDbEntity
  8
RACCORDO
100
AcDbLine
 62
250
  6
CONTINUOUS
 10
-4.025973851
 20
-11.3887803954
 11
-3.9151844331
 21
-11.2779909775
  0
LINE
  5
414
100
AcDbEntity
  8
RACCORDO
100
AcDbLine
 62
250
  6
CONTINUOUS
 10
2.1669070348
 20
-5.3459908925
 11
2.1880323335
 21
-5.3248655938
  0
LINE
  5
415
100
AcDbEntity
  8
RACCORDO
100
AcDbLine
 62
250
  6
CONTINUOUS
 10
18.1494519699
 20
10.5866758864
 11
18.1617619052
 21
10.5989858217
  0
LINE
  5
416
100
AcDbEntity
  8
RACCORDO
100
AcDbLine
 62
250
  6
CONTINUOUS
 10
-1.4055030679
 20
-9.040150223
 11
-0.5114431756
 21
-8.1460903307
  0
LINE
  5
417
100
AcDbEntity
  8
RACCORDO
100
AcDbLine
 62
250
  6
CONTINUOUS
 10
-1.2322979871
 20
-9.2133553038
 11
-0.3382380948
 21
-8.3192954115
  0
LINE
  5
418
100
AcDbEntity
  8
RACCORDO
100
AcDbLine
 62
250
  6
CONTINUOUS
 10
2.4668613433
 20
-5.6459452011
 11
2.4880780041
 21
-5.6247285404
  0
LWPOLYLINE
  5
419
100
AcDbEntity
  8
RACCORDO
100
AcDbPolyline
 62
250
  6
CONTINUOUS
 90
13
 70
0
 10
-8.8382380948
 20
-8.3192954115
 10
-8.8186282698
 20
-8.3133491036
 10
-8.7992548091
 20
-8.3053867657
 10
-8.7803512279
 20
-8.2955043706
 10
-8.762145378
 20
-8.2838210343
 10
-8.7448567009
 20
-8.2704775804
 10
-8.7286935833
 20
-8.2556348422
 10
-8.7138508451
 20
-8.2394717246
 10
-8.7005073912
 20
-8.2221830475
 10
-8.6888240549
 20
-8.2039771976
 10
-8.6789416598
 20
-8.1850736164
 10
-8.6709793219
 20
-8.1657001557
 10
-8.6650330141
 20
-8.1460903307
  0
LWPOLYLINE
  5
41A
100
AcDbEntity
  8
RACCORDO
100
AcDbPolyline
 62
7
  6
CONTINUOUS
 90
4
 70
0
 10
18.2010440783
 20
2.3524696925
 10
18.1826048581
 20
2.3559309231
 10
18.1647403548
 20
2.3604464749
 10
18.1617619052
 20
2.3613958631
  0
LINE
  5
41B
100
AcDbEntity
  8
RACCORDO
100
AcDbLine
 62
250
  6
CONTINUOUS
 10
17.6495281223
 20
-11.3887803954
 11
17.6618380576
 21
-11.4010903307
  0
LINE
  5
41C
100
AcDbEntity
  8
RACCORDO
100
AcDbLine
 62
250
  6
CONTINUOUS
 10
18.1494519699
 20
-10.8888565478
 11
18.1617619052
 21
-10.9011664831
  0
LINE
  5
41D
100
AcDbEntity
  8
RACCORDO
100
AcDbLine
 62
250
  6
CONTINUOUS
 10
-0.5114431756
 20
7.8439096693
 11
-1.4055030679
 21
8.7379695616
  0
LINE
  5
41E
100
AcDbEntity
  8
RACCORDO
100
AcDbLine
 62
250
  6
CONTINUOUS
 10
-0.3382380948
 20
8.0171147501
 11
-1.2322979871
 21
8.9111746424
  0
LINE
  5
41F
100
AcDbEntity
  8
RACCORDO
100
AcDbLine
 62
250
  6
CONTINUOUS
 10
13.856662467
 20
-5.6459452011
 11
13.8354458063
 21
-5.6247285404
  0
LWPOLYLINE
  5
420
100
AcDbEntity
  8
RACCORDO
100
AcDbPolyline
 62
250
  6
CONTINUOUS
 90
16
 70
0
 10
7.9885568244
 20
-8.1460903307
 10
7.9925695939
 20
-8.1600336006
 10
7.9978491569
 20
-8.1744794469
 10
8.0044954348
 20
-8.1893149374
 10
8.0126744133
 20
-8.2045373809
 10
8.0224001756
 20
-8.2198416294
 10
8.0334255964
 20
-8.23466768
 10
8.0456692572
 20
-8.2488428911
 10
8.05907342
 20
-8.262242512
 10
8.0732501457
 20
-8.2744792143
 10
8.0880743348
 20
-8.2854959012
 10
8.1033730993
 20
-8.2952118687
 10
8.1185862776
 20
-8.3033808479
 10
8.1334088049
 20
-8.3100176846
 10
8.1478382288
 20
-8.3152890226
 10
8.1617619052
 20
-8.3192954115
  0
LWPOLYLINE
  5
421
100
AcDbEntity
  8
RACCORDO
100
AcDbPolyline
 62
250
  6
CONTINUOUS
 90
31
 70
0
 10
6.9212918513
 20
-9.040150223
 10
6.9214721425
 20
-9.0528892833
 10
6.9220419893
 20
-9.0655607262
 10
6.9230013915
 20
-9.0781645519
 10
6.9243224464
 20
-9.0906342568
 10
6.9260330569
 20
-9.1030363445
 10
6.9282169317
 20
-9.1155703254
 10
6.9308398391
 20
-9.1282525951
 10
6.9339360109
 20
-9.141066758
 10
6.9376918511
 20
-9.1541631381
 10
6.9420857406
 20
-9.1676016744
 10
6.9471392984
 20
-9.1813224278
 10
6.9531037855
 20
-9.1952959045
 10
6.9599819317
 20
-9.2095908832
 10
6.9677710071
 20
-9.2241385852
 10
6.9767140824
 20
-9.2387031796
 10
6.9868237205
 20
-9.2533228163
 10
6.9980873585
 20
-9.2679593454
 10
7.0107103778
 20
-9.2822624865
 10
7.0247384621
 20
-9.296267153
 10
7.0401259278
 20
-9.3099384315
 10
7.0569411051
 20
-9.3228213016
 10
7.0752430984
 20
-9.3349145454
 10
7.0949728033
 20
-9.3462193807
 10
7.1160212375
 20
-9.3562844406
 10
7.1384292788
 20
-9.3650769137
 10
7.1621560493
 20
-9.3726296113
 10
7.1869699324
 20
-9.3785896005
 10
7.2127937225
 20
-9.3828392369
 10
7.2397046253
 20
-9.3854961649
 10
7.2677026406
 20
-9.3865603845
  0
LINE
  5
422
100
AcDbEntity
  8
RACCORDO
100
AcDbLine
 62
250
  6
CONTINUOUS
 10
5.9565710841
 20
-1.4561897689
 11
5.9565710841
 21
-5.3459906791
  0
LINE
  5
423
100
AcDbEntity
  8
RACCORDO
100
AcDbLine
 62
250
  6
CONTINUOUS
 10
6.9212918513
 20
8.7379684732
 11
6.9212918513
 21
-9.040150223
  0
LINE
  5
424
100
AcDbEntity
  8
RACCORDO
100
AcDbLine
 62
250
  6
CONTINUOUS
 10
7.0944969321
 20
8.7379695616
 11
7.0944969321
 21
-9.040150223
  0
LINE
  5
425
100
AcDbEntity
  8
RACCORDO
100
AcDbLine
 62
250
  6
CONTINUOUS
 10
7.2677020129
 20
-9.2133553038
 11
7.2677020129
 21
-9.3865603845
  0
LINE
  5
426
100
AcDbEntity
  8
RACCORDO
100
AcDbLine
 62
250
  6
CONTINUOUS
 10
7.2677020129
 20
8.9111746424
 11
7.2677020129
 21
9.0843797231
  0
LWPOLYLINE
  5
427
100
AcDbEntity
  8
RACCORDO
100
AcDbPolyline
 62
250
  6
CONTINUOUS
 90
19
 70
0
 10
5.6566167639
 20
-5.3459908809
 10
5.6554528601
 20
-5.372490078
 10
5.6519498674
 20
-5.3988012793
 10
5.6461298072
 20
-5.4247180256
 10
5.6380060908
 20
-5.4501090109
 10
5.6276512319
 20
-5.4746957003
 10
5.6152600028
 20
-5.4980806837
 10
5.6010090673
 20
-5.5200648328
 10
5.5850308947
 20
-5.540558775
 10
5.567541034
 20
-5.5593910295
 10
5.548870704
 20
-5.5763487421
 10
5.5290740971
 20
-5.5915129785
 10
5.5078914854
 20
-5.6050924884
 10
5.4853456756
 20
-5.616989976
 10
5.4616596378
 20
-5.6270080789
 10
5.4368008701
 20
-5.6350712556
 10
5.4108619166
 20
-5.6410268843
 10
5.3840817754
 20
-5.6446984253
 10
5.3566624557
 20
-5.6459451898
  0
LWPOLYLINE
  5
428
100
AcDbEntity
  8
RACCORDO
100
AcDbPolyline
 62
250
  6
CONTINUOUS
 90
19
 70
0
 10
5.9565710841
 20
-5.3459906791
 10
5.9540936865
 20
-5.3996520524
 10
5.9470885207
 20
-5.4521230375
 10
5.9355555867
 20
-5.5034036346
 10
5.9192330669
 20
-5.5539891612
 10
5.8983827788
 20
-5.6033842996
 10
5.8737901755
 20
-5.6501030973
 10
5.8453527597
 20
-5.6939137136
 10
5.8131730286
 20
-5.7350479891
 10
5.778343927
 20
-5.7727154925
 10
5.7411935235
 20
-5.8066611984
 10
5.7013937494
 20
-5.8371401323
 10
5.6590533439
 20
-5.8641269397
 10
5.6140312446
 20
-5.8878636471
 10
5.566468514
 20
-5.908108228
 10
5.5168970783
 20
-5.9241092481
 10
5.4654942463
 20
-5.9356162294
 10
5.4120827092
 20
-5.9428796499
 10
5.356662467
 20
-5.9458995096
  0
LWPOLYLINE
  5
429
100
AcDbEntity
  8
RACCORDO
100
AcDbPolyline
 62
250
  6
CONTINUOUS
 90
28
 70
0
 10
-9.7322979871
 20
8.9111746424
 10
-9.7404377779
 20
8.9124172143
 10
-9.7485714875
 20
8.9133872316
 10
-9.756693442
 20
8.9140786594
 10
-9.7647465249
 20
8.9144975834
 10
-9.7727754229
 20
8.9146292299
 10
-9.7809245215
 20
8.9144242247
 10
-9.7892081519
 20
8.91388029
 10
-9.7975893219
 20
8.9129640388
 10
-9.8061279618
 20
8.9115559415
 10
-9.8148512366
 20
8.9096350846
 10
-9.8236875376
 20
8.9071636252
 10
-9.8325385997
 20
8.9039817389
 10
-9.8413912979
 20
8.9000635546
 10
-9.8501856552
 20
8.8953743018
 10
-9.8587432997
 20
8.8897381811
 10
-9.8670298154
 20
8.8831194098
 10
-9.8749714183
 20
8.8755063362
 10
-9.8823253048
 20
8.8667682704
 10
-9.8890225963
 20
8.8568718635
 10
-9.8949976826
 20
8.8458409414
 10
-9.9000200821
 20
8.8336507798
 10
-9.9039998125
 20
8.8202997826
 10
-9.9068916085
 20
8.8058332633
 10
-9.9085518569
 20
8.7903181966
 10
-9.9088992532
 20
8.7738085818
 10
-9.9079013405
 20
8.7563406135
 10
-9.9055009602
 20
8.7379674539
  0
LINE
  5
42A
100
AcDbEntity
  8
RACCORDO
100
AcDbLine
 62
250
  6
CONTINUOUS
 10
14.1566167756
 20
-5.3459908925
 11
14.1354914769
 21
-5.3248655938
  0
LINE
  5
42B
100
AcDbEntity
  8
RACCORDO
100
AcDbLine
 62
250
  6
CONTINUOUS
 10
10.6669070348
 20
-1.4561897689
 11
10.6868597072
 21
-1.4761424413
  0
LINE
  5
42C
100
AcDbEntity
  8
RACCORDO
100
AcDbLine
 62
250
  6
CONTINUOUS
 10
10.9668613433
 20
-1.1562354603
 11
10.9867225981
 21
-1.176096715
  0
LINE
  5
42D
100
AcDbEntity
  8
RACCORDO
100
AcDbLine
 62
250
  6
CONTINUOUS
 10
7.9885568244
 20
7.8439096693
 11
7.9885568244
 21
-8.1460903307
  0
LINE
  5
42E
100
AcDbEntity
  8
RACCORDO
100
AcDbLine
 62
250
  6
CONTINUOUS
 10
8.3349669859
 20
7.8439096693
 11
8.3349669859
 21
-8.1460903307
  0
LWPOLYLINE
  5
42F
100
AcDbEntity
  8
RACCORDO
100
AcDbPolyline
 62
250
  6
CONTINUOUS
 90
31
 70
0
 10
9.2290268783
 20
8.7379695616
 10
9.2301915335
 20
8.7455875667
 10
9.2311170652
 20
8.753134875
 10
9.2318026493
 20
8.760607175
 10
9.2322525433
 20
8.7679572877
 10
9.2324631767
 20
8.7752236841
 10
9.2324136685
 20
8.7825291682
 10
9.2321060737
 20
8.7898759051
 10
9.231521014
 20
8.7972481549
 10
9.2305879685
 20
8.8047373372
 10
9.2292982547
 20
8.8123613807
 10
9.2276246659
 20
8.8200767962
 10
9.2254538306
 20
8.8278757378
 10
9.2227645525
 20
8.835767969
 10
9.2195314332
 20
8.8436993684
 10
9.2156283799
 20
8.8515589385
 10
9.2110345843
 20
8.8593263834
 10
9.2057289921
 20
8.8669564778
 10
9.1995869659
 20
8.8742950481
 10
9.1925813791
 20
8.8813079489
 10
9.1847121931
 20
8.8879406525
 10
9.1759044078
 20
8.8940072382
 10
9.1661395301
 20
8.8994508441
 10
9.1554390051
 20
8.9042267016
 10
9.1438024769
 20
8.9081748765
 10
9.1312368521
 20
8.9112298827
 10
9.1177739127
 20
8.9133588757
 10
9.1034641474
 20
8.9144646639
 10
9.0883480666
 20
8.9144894035
 10
9.072453559
 20
8.9134063482
 10
9.0558203235
 20
8.9111731684
  0
LWPOLYLINE
  5
430
100
AcDbEntity
  8
RACCORDO
100
AcDbPolyline
 62
250
  6
CONTINUOUS
 90
31
 70
0
 10
7.0944969321
 20
-9.040150223
 10
7.0933322769
 20
-9.0477682281
 10
7.0924067451
 20
-9.0553155364
 10
7.091721161
 20
-9.0627878364
 10
7.0912712671
 20
-9.0701379491
 10
7.0910606336
 20
-9.0774043455
 10
7.0911101419
 20
-9.0847098296
 10
7.0914177367
 20
-9.0920565665
 10
7.0920027964
 20
-9.0994288163
 10
7.0929358419
 20
-9.1069179986
 10
7.0942255557
 20
-9.1145420421
 10
7.0958991445
 20
-9.1222574576
 10
7.0980699798
 20
-9.1300563992
 10
7.1007592579
 20
-9.1379486303
 10
7.1039923772
 20
-9.1458800298
 10
7.1078954305
 20
-9.1537395999
 10
7.1124892261
 20
-9.1615070448
 10
7.1177948182
 20
-9.1691371392
 10
7.1239368445
 20
-9.1764757095
 10
7.1309424313
 20
-9.1834886103
 10
7.1388116172
 20
-9.1901213139
 10
7.1476194025
 20
-9.1961878996
 10
7.1573842803
 20
-9.2016315055
 10
7.1680848052
 20
-9.206407363
 10
7.1797213335
 20
-9.2103555379
 10
7.1922869583
 20
-9.2134105441
 10
7.2057498977
 20
-9.215539537
 10
7.220059663
 20
-9.2166453253
 10
7.2351757437
 20
-9.2166700649
 10
7.2510702514
 20
-9.2155870096
 10
7.2677034868
 20
-9.2133538298
  0
LWPOLYLINE
  5
431
100
AcDbEntity
  8
RACCORDO
100
AcDbPolyline
 62
7
  6
CONTINUOUS
 90
6
 70
0
 10
18.1617619052
 20
-2.6635460007
 10
18.1634531582
 20
-2.6629980256
 10
18.1814744358
 20
-2.658362903
 10
18.2000782149
 20
-2.6548021419
 10
18.2192020063
 20
-2.6523920017
 10
18.2387746856
 20
-2.65120621
  0
LWPOLYLINE
  5
432
100
AcDbEntity
  8
RACCORDO
100
AcDbPolyline
 62
250
  6
CONTINUOUS
 90
8
 70
0
 10
-4.2151387417
 20
-10.978036669
 10
-4.2048278995
 20
-10.9748502263
 10
-4.1813600997
 20
-10.9717442971
 10
-4.1453314564
 20
-10.9687188813
 10
-4.0976225322
 20
-10.9657759568
 10
-4.0387660012
 20
-10.9629135457
 10
-3.9684067248
 20
-10.9601257149
 10
-3.8863767925
 20
-10.9573987635
  0
LWPOLYLINE
  5
433
100
AcDbEntity
  8
RACCORDO
100
AcDbPolyline
 62
250
  6
CONTINUOUS
 90
13
 70
0
 10
-0.3382380948
 20
-8.3192954115
 10
-0.3186282698
 20
-8.3133491036
 10
-0.2992548091
 20
-8.3053867657
 10
-0.2803512279
 20
-8.2955043706
 10
-0.262145378
 20
-8.2838210343
 10
-0.2448567009
 20
-8.2704775804
 10
-0.2286935833
 20
-8.2556348422
 10
-0.2138508451
 20
-8.2394717246
 10
-0.2005073912
 20
-8.2221830475
 10
-0.1888240549
 20
-8.2039771976
 10
-0.1789416598
 20
-8.1850736164
 10
-0.1709793219
 20
-8.1657001557
 10
-0.1650330141
 20
-8.1460903307
  0
LWPOLYLINE
  5
434
100
AcDbEntity
  8
RACCORDO
100
AcDbPolyline
 62
250
  6
CONTINUOUS
 90
28
 70
0
 10
7.2677020129
 20
9.0843797231
 10
7.2540881752
 20
9.0841977705
 10
7.2404244649
 20
9.0835337921
 10
7.2267108819
 20
9.082387788
 10
7.2130265594
 20
9.0808134384
 10
7.1992923642
 20
9.0787570631
 10
7.1852708968
 20
9.0760576215
 10
7.1709137197
 20
9.0727586304
 10
7.1562692705
 20
9.068816573
 10
7.1412454627
 20
9.0639398576
 10
7.1257426472
 20
9.0581410561
 10
7.1098604731
 20
9.0514075966
 10
7.0938058012
 20
9.0434101718
 10
7.0775158802
 20
9.0341439876
 10
7.0610534613
 20
9.0236138381
 10
7.0448136599
 20
9.0115047977
 10
7.0287361863
 20
8.9977675548
 10
7.0128813302
 20
8.9824514211
 10
6.9978250759
 20
8.9653894063
 10
6.9835516658
 20
8.9464955436
 10
6.9700768575
 20
8.9258557999
 10
6.9580239083
 20
8.9035610852
 10
6.9474346416
 20
8.8795399161
 10
6.938267234
 20
8.853863776
 10
6.9310194725
 20
8.8268380256
 10
6.925857286
 20
8.7985644518
 10
6.9226147456
 20
8.7689412676
 10
6.9212918513
 20
8.7379684732
  0
LINE
  5
435
100
AcDbEntity
  8
RACCORDO
100
AcDbLine
 62
250
  6
CONTINUOUS
 10
-9.0114431756
 20
7.8439096693
 11
-8.6650330141
 21
7.8439096693
  0
LINE
  5
436
100
AcDbEntity
  8
RACCORDO
100
AcDbLine
 62
250
  6
CONTINUOUS
 10
-0.5114431756
 20
7.8439096693
 11
-0.1650330141
 21
7.8439096693
  0
LINE
  5
437
100
AcDbEntity
  8
RACCORDO
100
AcDbLine
 62
250
  6
CONTINUOUS
 10
7.9885568244
 20
7.8439096693
 11
8.3349669859
 21
7.8439096693
  0
LINE
  5
438
100
AcDbEntity
  8
RACCORDO
100
AcDbLine
 62
250
  6
CONTINUOUS
 10
-7.7709731217
 20
8.7379695616
 11
-7.597768041
 21
8.7379695616
  0
LINE
  5
439
100
AcDbEntity
  8
RACCORDO
100
AcDbLine
 62
250
  6
CONTINUOUS
 10
7.0944969321
 20
8.7379695616
 11
6.9212918513
 21
8.7379695616
  0
LINE
  5
43A
100
AcDbEntity
  8
RACCORDO
100
AcDbLine
 62
250
  6
CONTINUOUS
 10
0.7290268783
 20
8.7379695616
 11
0.902231959
 21
8.7379695616
  0
LINE
  5
43B
100
AcDbEntity
  8
RACCORDO
100
AcDbLine
 62
250
  6
CONTINUOUS
 10
-1.4055030679
 20
8.7379695616
 11
-1.5787081487
 21
8.7379695616
  0
LINE
  5
43C
100
AcDbEntity
  8
RACCORDO
100
AcDbLine
 62
250
  6
CONTINUOUS
 10
9.2290268783
 20
8.7379695616
 11
9.402231959
 21
8.7379695616
  0
LINE
  5
43D
100
AcDbEntity
  8
RACCORDO
100
AcDbLine
 62
250
  6
CONTINUOUS
 10
-9.9055030679
 20
8.7379695616
 11
-10.0787081487
 21
8.7379695616
  0
LINE
  5
43E
100
AcDbEntity
  8
RACCORDO
100
AcDbLine
 62
250
  6
CONTINUOUS
 10
9.0558217975
 20
8.9111746424
 11
7.2677020129
 21
8.9111746424
  0
LINE
  5
43F
100
AcDbEntity
  8
RACCORDO
100
AcDbLine
 62
250
  6
CONTINUOUS
 10
0.5558217975
 20
8.9111746424
 11
-1.2322979871
 21
8.9111746424
  0
LINE
  5
440
100
AcDbEntity
  8
RACCORDO
100
AcDbLine
 62
250
  6
CONTINUOUS
 10
-7.9441782025
 20
8.9111746424
 11
-9.7322979871
 21
8.9111746424
  0
LWPOLYLINE
  5
441
100
AcDbEntity
  8
RACCORDO
100
AcDbPolyline
 62
250
  6
CONTINUOUS
 90
28
 70
0
 10
-1.2322979871
 20
8.9111746424
 10
-1.2404377779
 20
8.9124172143
 10
-1.2485714875
 20
8.9133872316
 10
-1.256693442
 20
8.9140786594
 10
-1.2647465249
 20
8.9144975834
 10
-1.2727754229
 20
8.9146292299
 10
-1.2809245215
 20
8.9144242247
 10
-1.2892081519
 20
8.91388029
 10
-1.2975893219
 20
8.9129640388
 10
-1.3061279618
 20
8.9115559415
 10
-1.3148512366
 20
8.9096350846
 10
-1.3236875376
 20
8.9071636252
 10
-1.3325385997
 20
8.9039817389
 10
-1.3413912979
 20
8.9000635546
 10
-1.3501856552
 20
8.8953743018
 10
-1.3587432997
 20
8.8897381811
 10
-1.3670298154
 20
8.8831194098
 10
-1.3749714183
 20
8.8755063362
 10
-1.3823253048
 20
8.8667682704
 10
-1.3890225963
 20
8.8568718635
 10
-1.3949976826
 20
8.8458409414
 10
-1.4000200821
 20
8.8336507798
 10
-1.4039998125
 20
8.8202997826
 10
-1.4068916085
 20
8.8058332633
 10
-1.4085518569
 20
8.7903181966
 10
-1.4088992532
 20
8.7738085818
 10
-1.4079013405
 20
8.7563406135
 10
-1.4055009602
 20
8.7379674539
  0
LWPOLYLINE
  5
442
100
AcDbEntity
  8
RACCORDO
100
AcDbPolyline
 62
250
  6
CONTINUOUS
 90
31
 70
0
 10
9.402231959
 20
8.7379695616
 10
9.4020516678
 20
8.7507086219
 10
9.4014818211
 20
8.7633800648
 10
9.4005224188
 20
8.7759838905
 10
9.3992013639
 20
8.7884535955
 10
9.3974907535
 20
8.8008556831
 10
9.3953068786
 20
8.813389664
 10
9.3926839712
 20
8.8260719337
 10
9.3895877994
 20
8.8388860966
 10
9.3858319593
 20
8.8519824767
 10
9.3814380698
 20
8.865421013
 10
9.3763845119
 20
8.8791417665
 10
9.3704200249
 20
8.8931152431
 10
9.3635418787
 20
8.9074102219
 10
9.3557528032
 20
8.9219579238
 10
9.346809728
 20
8.9365225182
 10
9.3367000898
 20
8.9511421549
 10
9.3254364518
 20
8.965778684
 10
9.3128134325
 20
8.9800818251
 10
9.2987853482
 20
8.9940864916
 10
9.2833978826
 20
9.0077577701
 10
9.2665827053
 20
9.0206406402
 10
9.248280712
 20
9.032733884
 10
9.228551007
 20
9.0440387193
 10
9.2075025729
 20
9.0541037792
 10
9.1850945316
 20
9.0628962523
 10
9.1613677611
 20
9.0704489499
 10
9.136553878
 20
9.0764089391
 10
9.1107300878
 20
9.0806585755
 10
9.0838191851
 20
9.0833155035
 10
9.0558211698
 20
9.0843797231
  0
LINE
  5
443
100
AcDbEntity
  8
RACCORDO
100
AcDbLine
 62
250
  6
CONTINUOUS
 10
9.0558217975
 20
-9.2133553038
 11
9.0558217975
 21
-9.3865603845
  0
LINE
  5
444
100
AcDbEntity
  8
RACCORDO
100
AcDbLine
 62
250
  6
CONTINUOUS
 10
9.0558217975
 20
8.9111746424
 11
9.0558217975
 21
9.0843797231
  0
LINE
  5
445
100
AcDbEntity
  8
RACCORDO
100
AcDbLine
 62
250
  6
CONTINUOUS
 10
9.2290268783
 20
-9.040150223
 11
9.2290268783
 21
8.7379695616
  0
LINE
  5
446
100
AcDbEntity
  8
RACCORDO
100
AcDbLine
 62
250
  6
CONTINUOUS
 10
9.402231959
 20
-9.0401491346
 11
9.402231959
 21
8.7379695616
  0
LINE
  5
447
100
AcDbEntity
  8
RACCORDO
100
AcDbLine
 62
250
  6
CONTINUOUS
 10
10.3669527262
 20
-5.3459908925
 11
10.3669527262
 21
-1.4561899823
  0
LINE
  5
448
100
AcDbEntity
  8
RACCORDO
100
AcDbLine
 62
250
  6
CONTINUOUS
 10
3.2387082435
 20
-10.2741896839
 11
3.3443525317
 21
-10.1685453956
  0
LINE
  5
449
100
AcDbEntity
  8
RACCORDO
100
AcDbLine
 62
250
  6
CONTINUOUS
 10
3.538662552
 20
-10.5741439924
 11
3.6443068403
 21
-10.4684997042
  0
LWPOLYLINE
  5
44A
100
AcDbEntity
  8
RACCORDO
100
AcDbPolyline
 62
250
  6
CONTINUOUS
 90
8
 70
0
 10
-3.9151844331
 20
-11.2779909775
 10
-3.9049539921
 20
-11.2748045624
 10
-3.8840118065
 20
-11.2716986484
 10
-3.8523578763
 20
-11.2686732354
 10
-3.8098156853
 20
-11.2657302936
 10
-3.7565617496
 20
-11.2628678529
 10
-3.693125618
 20
-11.2600800028
 10
-3.6193222505
 20
-11.2573530545
  0
LWPOLYLINE
  5
44B
100
AcDbEntity
  8
RACCORDO
100
AcDbPolyline
 62
250
  6
CONTINUOUS
 90
13
 70
0
 10
8.1617619052
 20
-8.3192954115
 10
8.1813717302
 20
-8.3133491036
 10
8.2007451909
 20
-8.3053867657
 10
8.2196487721
 20
-8.2955043706
 10
8.237854622
 20
-8.2838210343
 10
8.2551432991
 20
-8.2704775804
 10
8.2713064167
 20
-8.2556348422
 10
8.2861491549
 20
-8.2394717246
 10
8.2994926088
 20
-8.2221830475
 10
8.3111759451
 20
-8.2039771976
 10
8.3210583402
 20
-8.1850736164
 10
8.3290206781
 20
-8.1657001557
 10
8.3349669859
 20
-8.1460903307
  0
LWPOLYLINE
  5
44C
100
AcDbEntity
  8
RACCORDO
100
AcDbPolyline
 62
250
  6
CONTINUOUS
 90
28
 70
0
 10
-1.2322979871
 20
9.0843797231
 10
-1.2459118248
 20
9.0841977705
 10
-1.2595755351
 20
9.0835337921
 10
-1.2732891181
 20
9.082387788
 10
-1.2869734406
 20
9.0808134384
 10
-1.3007076358
 20
9.0787570631
 10
-1.3147291032
 20
9.0760576215
 10
-1.3290862803
 20
9.0727586304
 10
-1.3437307295
 20
9.068816573
 10
-1.3587545373
 20
9.0639398576
 10
-1.3742573528
 20
9.0581410561
 10
-1.3901395269
 20
9.0514075966
 10
-1.4061941988
 20
9.0434101718
 10
-1.4224841198
 20
9.0341439876
 10
-1.4389465387
 20
9.0236138381
 10
-1.4551863401
 20
9.0115047977
 10
-1.4712638137
 20
8.9977675548
 10
-1.4871186698
 20
8.9824514211
 10
-1.5021749241
 20
8.9653894063
 10
-1.5164483342
 20
8.9464955436
 10
-1.5299231425
 20
8.9258557999
 10
-1.5419760917
 20
8.9035610852
 10
-1.5525653584
 20
8.8795399161
 10
-1.561732766
 20
8.853863776
 10
-1.5689805275
 20
8.8268380256
 10
-1.574142714
 20
8.7985644518
 10
-1.5773852544
 20
8.7689412676
 10
-1.5787081487
 20
8.7379684732
  0
LWPOLYLINE
  5
44D
100
AcDbEntity
  8
RACCORDO
100
AcDbPolyline
 62
250
  6
CONTINUOUS
 90
28
 70
0
 10
-9.7322979871
 20
9.0843797231
 10
-9.7459118248
 20
9.0841977705
 10
-9.7595755351
 20
9.0835337921
 10
-9.7732891181
 20
9.082387788
 10
-9.7869734406
 20
9.0808134384
 10
-9.8007076358
 20
9.0787570631
 10
-9.8147291032
 20
9.0760576215
 10
-9.8290862803
 20
9.0727586304
 10
-9.8437307295
 20
9.068816573
 10
-9.8587545373
 20
9.0639398576
 10
-9.8742573528
 20
9.0581410561
 10
-9.8901395269
 20
9.0514075966
 10
-9.9061941988
 20
9.0434101718
 10
-9.9224841198
 20
9.0341439876
 10
-9.9389465387
 20
9.0236138381
 10
-9.9551863401
 20
9.0115047977
 10
-9.9712638137
 20
8.9977675548
 10
-9.9871186698
 20
8.9824514211
 10
-10.0021749241
 20
8.9653894063
 10
-10.0164483342
 20
8.9464955436
 10
-10.0299231425
 20
8.9258557999
 10
-10.0419760917
 20
8.9035610852
 10
-10.0525653584
 20
8.8795399161
 10
-10.061732766
 20
8.853863776
 10
-10.0689805275
 20
8.8268380256
 10
-10.074142714
 20
8.7985644518
 10
-10.0773852544
 20
8.7689412676
 10
-10.0787081487
 20
8.7379684732
  0
LINE
  5
44E
100
AcDbEntity
  8
RACCORDO
100
AcDbLine
 62
250
  6
CONTINUOUS
 10
9.0558211698
 20
9.0843797231
 11
7.2677020129
 21
9.0843797231
  0
LINE
  5
44F
100
AcDbEntity
  8
RACCORDO
100
AcDbLine
 62
250
  6
CONTINUOUS
 10
0.5558211698
 20
9.0843797231
 11
-1.2322979871
 21
9.0843797231
  0
LINE
  5
450
100
AcDbEntity
  8
RACCORDO
100
AcDbLine
 62
250
  6
CONTINUOUS
 10
-7.9441788302
 20
9.0843797231
 11
-9.7322979871
 21
9.0843797231
  0
LWPOLYLINE
  5
451
100
AcDbEntity
  8
RACCORDO
100
AcDbPolyline
 62
250
  6
CONTINUOUS
 90
28
 70
0
 10
7.2677020129
 20
8.9111746424
 10
7.2595622221
 20
8.9124172143
 10
7.2514285125
 20
8.9133872316
 10
7.243306558
 20
8.9140786594
 10
7.2352534751
 20
8.9144975834
 10
7.2272245771
 20
8.9146292299
 10
7.2190754785
 20
8.9144242247
 10
7.2107918481
 20
8.91388029
 10
7.2024106781
 20
8.9129640388
 10
7.1938720382
 20
8.9115559415
 10
7.1851487634
 20
8.9096350846
 10
7.1763124624
 20
8.9071636252
 10
7.1674614003
 20
8.9039817389
 10
7.1586087021
 20
8.9000635546
 10
7.1498143448
 20
8.8953743018
 10
7.1412567003
 20
8.8897381811
 10
7.1329701846
 20
8.8831194098
 10
7.1250285817
 20
8.8755063362
 10
7.1176746952
 20
8.8667682704
 10
7.1109774037
 20
8.8568718635
 10
7.1050023174
 20
8.8458409414
 10
7.0999799179
 20
8.8336507798
 10
7.0960001875
 20
8.8202997826
 10
7.0931083915
 20
8.8058332633
 10
7.0914481431
 20
8.7903181966
 10
7.0911007468
 20
8.7738085818
 10
7.0920986595
 20
8.7563406135
 10
7.0944990398
 20
8.7379674539
  0
LWPOLYLINE
  5
452
100
AcDbEntity
  8
RACCORDO
100
AcDbPolyline
 62
250
  6
CONTINUOUS
 90
16
 70
0
 10
8.3349669859
 20
7.8439096693
 10
8.3309542164
 20
7.8578529392
 10
8.3256746535
 20
7.8722987855
 10
8.3190283756
 20
7.887134276
 10
8.3108493971
 20
7.9023567196
 10
8.3011236347
 20
7.917660968
 10
8.290098214
 20
7.9324870186
 10
8.2778545532
 20
7.9466622297
 10
8.2644503904
 20
7.9600618506
 10
8.2502736647
 20
7.9722985529
 10
8.2354494755
 20
7.9833152398
 10
8.220150711
 20
7.9930312073
 10
8.2049375327
 20
8.0012001865
 10
8.1901150055
 20
8.0078370232
 10
8.1756855815
 20
8.0131083612
 10
8.1617619052
 20
8.0171147501
  0
LINE
  5
453
100
AcDbEntity
  8
RACCORDO
100
AcDbLine
 62
7
  6
CONTINUOUS
 10
10.6868597072
 20
-1.4761424413
 11
10.6880323335
 21
-5.3248655938
  0
LINE
  5
454
100
AcDbEntity
  8
RACCORDO
100
AcDbLine
 62
250
  6
CONTINUOUS
 10
10.6669070348
 20
-5.3459908925
 11
10.6669070348
 21
-1.4561897689
  0
LINE
  5
455
100
AcDbEntity
  8
0
100
AcDbLine
 62
7
  6
CONTINUOUS
 10
10.7117619052
 20
-1.3568053422
 11
10.7117619052
 21
-1.8510903307
  0
LINE
  5
456
100
AcDbEntity
  8
RACCORDO
100
AcDbLine
 62
250
  6
CONTINUOUS
 10
10.9668613433
 20
-0.8562811518
 11
10.9668613433
 21
-1.1562354603
  0
LINE
  5
457
100
AcDbEntity
  8
RACCORDO
100
AcDbLine
 62
250
  6
CONTINUOUS
 10
10.9668613433
 20
-5.9458995096
 11
10.9668613433
 21
-5.6459452011
  0
LINE
  5
458
100
AcDbEntity
  8
0
100
AcDbLine
 62
7
  6
CONTINUOUS
 10
11.1617619052
 20
-5.5510903307
 11
11.1617619052
 21
-5.6247285404
  0
LINE
  5
459
100
AcDbEntity
  8
0
100
AcDbLine
 62
250
  6
CONTINUOUS
 10
11.4617619052
 20
-5.5510903307
 11
11.4617619052
 21
-5.6247285404
  0
LWPOLYLINE
  5
45A
100
AcDbEntity
  8
RACCORDO
100
AcDbPolyline
 62
250
  6
CONTINUOUS
 90
19
 70
0
 10
10.6669070465
 20
-1.4561897805
 10
10.6680709502
 20
-1.4296905834
 10
10.671573943
 20
-1.4033793821
 10
10.6773940032
 20
-1.3774626358
 10
10.6855177196
 20
-1.3520716505
 10
10.6958725784
 20
-1.3274849611
 10
10.7082638075
 20
-1.3040999776
 10
10.7225147431
 20
-1.2821158286
 10
10.7384929157
 20
-1.2616218863
 10
10.7559827764
 20
-1.2427896318
 10
10.7746531063
 20
-1.2258319193
 10
10.7944497132
 20
-1.2106676829
 10
10.8156323249
 20
-1.197088173
 10
10.8381781348
 20
-1.1851906853
 10
10.8618641726
 20
-1.1751725825
 10
10.8867229402
 20
-1.1671094058
 10
10.9126618938
 20
-1.1611537771
 10
10.9394420349
 20
-1.1574822361
 10
10.9668613547
 20
-1.1562354716
  0
LWPOLYLINE
  5
45B
100
AcDbEntity
  8
RACCORDO
100
AcDbPolyline
 62
250
  6
CONTINUOUS
 90
19
 70
0
 10
10.3669527262
 20
-1.4561899823
 10
10.3694301238
 20
-1.402528609
 10
10.3764352896
 20
-1.3500576239
 10
10.3879682236
 20
-1.2987770268
 10
10.4042907435
 20
-1.2481915002
 10
10.4251410316
 20
-1.1987963618
 10
10.4497336349
 20
-1.1520775641
 10
10.4781710507
 20
-1.1082669478
 10
10.5103507818
 20
-1.0671326723
 10
10.5451798833
 20
-1.0294651689
 10
10.5823302869
 20
-0.995519463
 10
10.622130061
 20
-0.9650405291
 10
10.6644704665
 20
-0.9380537217
 10
10.7094925657
 20
-0.9143170143
 10
10.7570552964
 20
-0.8940724334
 10
10.8066267321
 20
-0.8780714132
 10
10.8580295641
 20
-0.866564432
 10
10.9114411012
 20
-0.8593010115
 10
10.9668613433
 20
-0.8562811518
  0
LINE
  5
45C
100
AcDbEntity
  8
RACCORDO
100
AcDbLine
 62
250
  6
CONTINUOUS
 10
13.856662467
 20
-1.1562354603
 11
13.8368012123
 21
-1.176096715
  0
LINE
  5
45D
100
AcDbEntity
  8
RACCORDO
100
AcDbLine
 62
250
  6
CONTINUOUS
 10
14.1566167756
 20
-1.4561897689
 11
14.1366641031
 21
-1.4761424413
  0
LINE
  5
45E
100
AcDbEntity
  8
RACCORDO
100
AcDbLine
 62
250
  6
CONTINUOUS
 10
10.6669070348
 20
-5.3459908925
 11
10.6880323335
 21
-5.3248655938
  0
LINE
  5
45F
100
AcDbEntity
  8
RACCORDO
100
AcDbLine
 62
250
  6
CONTINUOUS
 10
7.0944969321
 20
-9.040150223
 11
7.9885568244
 21
-8.1460903307
  0
LINE
  5
460
100
AcDbEntity
  8
RACCORDO
100
AcDbLine
 62
250
  6
CONTINUOUS
 10
7.2677020129
 20
-9.2133553038
 11
8.1617619052
 21
-8.3192954115
  0
LINE
  5
461
100
AcDbEntity
  8
RACCORDO
100
AcDbLine
 62
250
  6
CONTINUOUS
 10
10.9668613433
 20
-5.6459452011
 11
10.9880780041
 21
-5.6247285404
  0
LWPOLYLINE
  5
462
100
AcDbEntity
  8
RACCORDO
100
AcDbPolyline
 62
250
  6
CONTINUOUS
 90
19
 70
0
 10
-18.3260043119
 20
10.7866454254
 10
-18.3460167816
 20
10.785502525
 10
-18.3653105006
 20
10.7826498162
 10
-18.3838854687
 20
10.7780872993
 10
-18.4019386491
 20
10.7716173871
 10
-18.4192730786
 20
10.7634376667
 10
-18.4352978685
 20
10.7541408991
 10
-18.4498484412
 20
10.7437120027
 10
-18.4630893742
 20
10.7321660591
 10
-18.4749235117
 20
10.7201410753
 10
-18.4852095491
 20
10.7078743696
 10
-18.4940887909
 20
10.6951286236
 10
-18.5018879956
 20
10.6818298893
 10
-18.5087413458
 20
10.6680868858
 10
-18.514514659
 20
10.6537908939
 10
-18.519132145
 20
10.6385418086
 10
-18.5225685407
 20
10.6222062614
 10
-18.5248491094
 20
10.6049176206
 10
-18.525973851
 20
10.5866758864
  0
LWPOLYLINE
  5
463
100
AcDbEntity
  8
RACCORDO
100
AcDbPolyline
 62
250
  6
CONTINUOUS
 90
19
 70
0
 10
-18.3260043119
 20
11.086599734
 10
-18.3753535856
 20
11.0841493408
 10
-18.4237274575
 20
11.0769385818
 10
-18.4706846819
 20
11.0651818992
 10
-18.5160545289
 20
11.0490344619
 10
-18.5592163554
 20
11.0288319747
 10
-18.5992031299
 20
11.0053033445
 10
-18.6357117293
 20
10.9790605722
 10
-18.6687979809
 20
10.9505109231
 10
-18.6982646691
 20
10.9203012163
 10
-18.7238361141
 20
10.8893550533
 10
-18.7460301906
 20
10.8577201498
 10
-18.7656810595
 20
10.8245284325
 10
-18.782653344
 20
10.7900591298
 10
-18.7969049097
 20
10.7544555394
 10
-18.8088033393
 20
10.7163201336
 10
-18.8180063227
 20
10.6752349202
 10
-18.8238677581
 20
10.6319283597
 10
-18.8259281595
 20
10.5866758864
  0
LINE
  5
464
100
AcDbEntity
  8
RACCORDO
100
AcDbLine
 62
250
  6
CONTINUOUS
 10
17.8494976613
 20
10.5866758864
 11
18.1494519699
 21
10.5866758864
  0
LINE
  5
465
100
AcDbEntity
  8
RACCORDO
100
AcDbLine
 62
250
  6
CONTINUOUS
 10
-18.525973851
 20
10.5866758864
 11
-18.8259281595
 21
10.5866758864
  0
LINE
  5
466
100
AcDbEntity
  8
RACCORDO
100
AcDbLine
 62
250
  6
CONTINUOUS
 10
17.6495281223
 20
10.7866454254
 11
-18.3260043119
 21
10.7866454254
  0
LINE
  5
467
100
AcDbEntity
  8
RACCORDO
100
AcDbLine
 62
250
  6
CONTINUOUS
 10
17.6495281223
 20
11.086599734
 11
-18.3260043119
 21
11.086599734
  0
LINE
  5
468
100
AcDbEntity
  8
RACCORDO
100
AcDbLine
 62
7
  6
CONTINUOUS
 10
-18.3483127242
 20
11.0989096693
 11
17.6718365346
 21
11.0989096693
  0
LINE
  5
469
100
AcDbEntity
  8
RACCORDO
100
AcDbLine
 62
250
  6
CONTINUOUS
 10
7.9885568244
 20
7.8439096693
 11
7.0944969321
 21
8.7379695616
  0
LINE
  5
46A
100
AcDbEntity
  8
RACCORDO
100
AcDbLine
 62
250
  6
CONTINUOUS
 10
8.1617619052
 20
8.0171147501
 11
7.2677020129
 21
8.9111746424
  0
LINE
  5
46B
100
AcDbEntity
  8
0
100
AcDbLine
 62
250
  6
CONTINUOUS
 10
13.3617619052
 20
-5.5510903307
 11
13.3617619052
 21
-5.6247285404
  0
LINE
  5
46C
100
AcDbEntity
  8
0
100
AcDbLine
 62
7
  6
CONTINUOUS
 10
13.6617619052
 20
-5.5510903307
 11
13.6617619052
 21
-5.6247285404
  0
LINE
  5
46D
100
AcDbEntity
  8
RACCORDO
100
AcDbLine
 62
250
  6
CONTINUOUS
 10
13.856662467
 20
-0.8562811518
 11
13.856662467
 21
-1.1562354603
  0
LINE
  5
46E
100
AcDbEntity
  8
RACCORDO
100
AcDbLine
 62
250
  6
CONTINUOUS
 10
13.856662467
 20
-5.9458995096
 11
13.856662467
 21
-5.6459452011
  0
LINE
  5
46F
100
AcDbEntity
  8
0
100
AcDbLine
 62
7
  6
CONTINUOUS
 10
14.1117619052
 20
-1.3568053188
 11
14.1117619052
 21
-1.8510903307
  0
LINE
  5
470
100
AcDbEntity
  8
RACCORDO
100
AcDbLine
 62
250
  6
CONTINUOUS
 10
14.1566167756
 20
-1.4561897689
 11
14.1566167756
 21
-5.3459908925
  0
LINE
  5
471
100
AcDbEntity
  8
RACCORDO
100
AcDbLine
 62
250
  6
CONTINUOUS
 10
14.4565710841
 20
-1.4561897689
 11
14.4565710841
 21
-5.3459906791
  0
LINE
  5
472
100
AcDbEntity
  8
RACCORDO
100
AcDbLine
 62
7
  6
CONTINUOUS
 10
14.1354914769
 20
-5.3248655938
 11
14.1366641031
 21
-1.4761424413
  0
LWPOLYLINE
  5
473
100
AcDbEntity
  8
RACCORDO
100
AcDbPolyline
 62
250
  6
CONTINUOUS
 90
19
 70
0
 10
14.1566167639
 20
-5.3459908809
 10
14.1554528601
 20
-5.372490078
 10
14.1519498674
 20
-5.3988012793
 10
14.1461298072
 20
-5.4247180256
 10
14.1380060908
 20
-5.4501090109
 10
14.1276512319
 20
-5.4746957003
 10
14.1152600028
 20
-5.4980806837
 10
14.1010090673
 20
-5.5200648328
 10
14.0850308947
 20
-5.540558775
 10
14.067541034
 20
-5.5593910295
 10
14.048870704
 20
-5.5763487421
 10
14.0290740971
 20
-5.5915129785
 10
14.0078914854
 20
-5.6050924884
 10
13.9853456756
 20
-5.616989976
 10
13.9616596378
 20
-5.6270080789
 10
13.9368008701
 20
-5.6350712556
 10
13.9108619166
 20
-5.6410268843
 10
13.8840817754
 20
-5.6446984253
 10
13.8566624557
 20
-5.6459451898
  0
LWPOLYLINE
  5
474
100
AcDbEntity
  8
RACCORDO
100
AcDbPolyline
 62
250
  6
CONTINUOUS
 90
19
 70
0
 10
14.4565710841
 20
-5.3459906791
 10
14.4540936865
 20
-5.3996520524
 10
14.4470885207
 20
-5.4521230375
 10
14.4355555867
 20
-5.5034036346
 10
14.4192330669
 20
-5.5539891612
 10
14.3983827788
 20
-5.6033842996
 10
14.3737901755
 20
-5.6501030973
 10
14.3453527597
 20
-5.6939137136
 10
14.3131730286
 20
-5.7350479891
 10
14.278343927
 20
-5.7727154925
 10
14.2411935235
 20
-5.8066611984
 10
14.2013937494
 20
-5.8371401323
 10
14.1590533439
 20
-5.8641269397
 10
14.1140312446
 20
-5.8878636471
 10
14.066468514
 20
-5.908108228
 10
14.0168970783
 20
-5.9241092481
 10
13.9654942463
 20
-5.9356162294
 10
13.9120827092
 20
-5.9428796499
 10
13.856662467
 20
-5.9458995096
  0
LWPOLYLINE
  5
475
100
AcDbEntity
  8
RACCORDO
100
AcDbPolyline
 62
250
  6
CONTINUOUS
 90
7
 70
0
 10
18.2471096043
 20
2.3489096693
 10
18.2480791099
 20
2.3476577703
 10
18.2490242552
 20
2.343915709
 10
18.2499450402
 20
2.3377194222
 10
18.2508491869
 20
2.3291135822
 10
18.2517289734
 20
2.3181803403
 10
18.2525612331
 20
2.3050656912
  0
LINE
  5
476
100
AcDbEntity
  8
RACCORDO
100
AcDbLine
 62
250
  6
CONTINUOUS
 10
17.6495281223
 20
-11.0888260868
 11
17.649528131
 21
-11.3887803954
  0
LINE
  5
477
100
AcDbEntity
  8
RACCORDO
100
AcDbLine
 62
250
  6
CONTINUOUS
 10
17.6495281223
 20
10.7866454254
 11
17.6495281223
 21
11.086599734
  0
LINE
  5
478
100
AcDbEntity
  8
RACCORDO
100
AcDbLine
 62
250
  6
CONTINUOUS
 10
17.8494976613
 20
-10.8888565478
 11
17.8494976613
 21
10.5866758864
  0
LWPOLYLINE
  5
479
100
AcDbEntity
  8
RACCORDO
100
AcDbPolyline
 62
250
  6
CONTINUOUS
 90
19
 70
0
 10
17.8494976613
 20
10.5866758864
 10
17.8483547608
 20
10.6066883561
 10
17.8455020521
 20
10.6259820751
 10
17.8409395352
 20
10.6445570432
 10
17.834469623
 20
10.6626102235
 10
17.8262899025
 20
10.6799446531
 10
17.816993135
 20
10.695969443
 10
17.8065642385
 20
10.7105200157
 10
17.795018295
 20
10.7237609487
 10
17.7829933112
 20
10.7355950862
 10
17.7707266055
 20
10.7458811235
 10
17.7579808595
 20
10.7547603654
 10
17.7446821252
 20
10.7625595701
 10
17.7309391216
 20
10.7694129203
 10
17.7166431298
 20
10.7751862335
 10
17.7013940445
 20
10.7798037195
 10
17.6850584972
 20
10.7832401152
 10
17.6677698565
 20
10.7855206839
 10
17.6495281223
 20
10.7866454254
  0
LWPOLYLINE
  5
47A
100
AcDbEntity
  8
RACCORDO
100
AcDbPolyline
 62
250
  6
CONTINUOUS
 90
5
 70
0
 10
18.2525612331
 20
2.3050656912
 10
18.2533471543
 20
2.2897951951
 10
18.2540855488
 20
2.2726028267
 10
18.2547496858
 20
2.25412963
 10
18.2553273908
 20
2.2349602101
  0
LWPOLYLINE
  5
47B
100
AcDbEntity
  8
RACCORDO
100
AcDbPolyline
 62
250
  6
CONTINUOUS
 90
19
 70
0
 10
18.1494519699
 20
10.5866758864
 10
18.1470015767
 20
10.63602516
 10
18.1397908177
 20
10.6843990319
 10
18.1280341351
 20
10.7313562564
 10
18.1118866978
 20
10.7767261034
 10
18.0916842106
 20
10.8198879299
 10
18.0681555804
 20
10.8598747044
 10
18.0419128081
 20
10.8963833038
 10
18.0133631589
 20
10.9294695554
 10
17.9831534522
 20
10.9589362436
 10
17.9522072892
 20
10.9845076886
 10
17.9205723857
 20
11.006701765
 10
17.8873806683
 20
11.0263526339
 10
17.8529113656
 20
11.0433249185
 10
17.8173077752
 20
11.0575764842
 10
17.7791723694
 20
11.0694749138
 10
17.7380871561
 20
11.0786778972
 10
17.6947805955
 20
11.0845393326
 10
17.6495281223
 20
11.086599734
  0
LINE
  5
47C
100
AcDbEntity
  8
RACCORDO
100
AcDbLine
 62
250
  6
CONTINUOUS
 10
18.2553273908
 20
2.2349602101
 11
18.2562698215
 21
2.1943879525
  0
LINE
  5
47D
100
AcDbEntity
  8
RACCORDO
100
AcDbLine
 62
250
  6
CONTINUOUS
 10
18.2562698215
 20
2.1943879525
 11
18.2569599005
 21
2.1515326989
  0
LINE
  5
47E
100
AcDbEntity
  8
RACCORDO
100
AcDbLine
 62
250
  6
CONTINUOUS
 10
18.2569599005
 20
2.1515326989
 11
18.257397235
 21
2.1031396573
  0
LINE
  5
47F
100
AcDbEntity
  8
RACCORDO
100
AcDbLine
 62
250
  6
CONTINUOUS
 10
18.257397235
 20
2.1031396573
 11
18.2575833587
 21
2.0489096693
  0
LINE
  5
480
100
AcDbEntity
  8
RACCORDO
100
AcDbLine
 62
250
  6
CONTINUOUS
 10
18.1494519699
 20
-10.8888565478
 11
18.1494519699
 21
10.5866758864
  0
LINE
  5
481
100
AcDbEntity
  8
RACCORDO
100
AcDbLine
 62
7
  6
CONTINUOUS
 10
18.1617619052
 20
10.6089842987
 11
18.1617619052
 21
-10.9111649601
  0
LINE
  5
482
100
AcDbEntity
  8
RACCORDO
100
AcDbLine
 62
250
  6
CONTINUOUS
 10
18.8617619052
 20
2.3489096693
 11
18.8617619052
 21
-2.6510903307
  0
LINE
  5
483
100
AcDbEntity
  8
RACCORDO
100
AcDbLine
 62
7
  6
CONTINUOUS
 10
19.1617619052
 20
2.0489096693
 11
19.1617619052
 21
-2.3510903307
  0
LINE
  5
484
100
AcDbEntity
  8
RACCORDO
100
AcDbLine
 62
250
  6
CONTINUOUS
 10
18.2575833439
 20
2.0489096693
 11
18.2575365531
 21
-2.3774630029
  0
LINE
  5
485
100
AcDbEntity
  8
RACCORDO
100
AcDbLine
 62
250
  6
CONTINUOUS
 10
18.2575365531
 20
-2.3774630029
 11
18.2572269012
 21
-2.4286641297
  0
LINE
  5
486
100
AcDbEntity
  8
RACCORDO
100
AcDbLine
 62
250
  6
CONTINUOUS
 10
18.2572269012
 20
-2.4286641297
 11
18.256624771
 21
-2.4764602752
  0
LWPOLYLINE
  5
487
100
AcDbEntity
  8
RACCORDO
100
AcDbPolyline
 62
250
  6
CONTINUOUS
 90
13
 70
0
 10
18.256624771
 20
-2.4764602752
 10
18.2557529667
 20
-2.5205592036
 10
18.2552182368
 20
-2.5409181313
 10
18.2546289293
 20
-2.5599317361
 10
18.2539884525
 20
-2.5773689959
 10
18.2532933981
 20
-2.5932062095
 10
18.2525443772
 20
-2.607543552
 10
18.2517345062
 20
-2.6202665322
 10
18.2508706689
 20
-2.6310551841
 10
18.2499741272
 20
-2.6396649244
 10
18.2490519686
 20
-2.6459440324
 10
18.2480971056
 20
-2.6497883021
 10
18.2471095384
 20
-2.6510903307
  0
ARC
  5
488
100
AcDbEntity
  8
RACCORDO
100
AcDbCircle
 62
7
  6
CONTINUOUS
 10
-19.5382380948
 20
2.0489096693
 40
0.3
100
AcDbArc
 50
90.0
 51
180.0
  0
ARC
  5
489
100
AcDbEntity
  8
RACCORDO
100
AcDbCircle
 62
7
  6
CONTINUOUS
 10
-19.5382380948
 20
-2.3510903307
 40
0.3
100
AcDbArc
 50
180.0
 51
270.0
  0
ARC
  5
48A
100
AcDbEntity
  8
RACCORDO
100
AcDbCircle
 62
7
  6
CONTINUOUS
 10
18.8617619052
 20
2.0489096693
 40
0.3
100
AcDbArc
 50
0.0
 51
90.0
  0
ARC
  5
48B
100
AcDbEntity
  8
RACCORDO
100
AcDbCircle
 62
7
  6
CONTINUOUS
 10
18.8617619052
 20
-2.3510903307
 40
0.3
100
AcDbArc
 50
270.0
 51
360.0
  0
ELLIPSE
  5
48C
100
AcDbEntity
  8
RACCORDO
100
AcDbEllipse
 62
7
  6
CONTINUOUS
 10
-18.3481634541
 20
-10.91101569
 30
0.0
 11
0.3465878727
 21
0.3465878727
 31
0.0
 40
0.9996954599
 41
8.6395320906
 42
10.2100238309
  0
ELLIPSE
  5
48D
100
AcDbEntity
  8
RACCORDO
100
AcDbEllipse
 62
7
  6
CONTINUOUS
 10
-18.3481634541
 20
10.6088350286
 30
0.0
 11
0.3465878727
 21
-0.3465878727
 31
0.0
 40
0.9996954599
 41
8.6395320906
 42
10.2100238309
  0
ELLIPSE
  5
48E
100
AcDbEntity
  8
RACCORDO
100
AcDbEllipse
 62
7
  6
CONTINUOUS
 10
17.6716872644
 20
10.6088350286
 30
0.0
 11
-0.3465878727
 21
-0.3465878727
 31
0.0
 40
0.9996954599
 41
8.6395320906
 42
10.2100238309
  0
ELLIPSE
  5
48F
100
AcDbEntity
  8
RACCORDO
100
AcDbEllipse
 62
7
  6
CONTINUOUS
 10
17.6716872644
 20
-10.91101569
 30
0.0
 11
-0.3465878727
 21
0.3465878727
 31
0.0
 40
0.9996954599
 41
8.6395320906
 42
10.2100238309
  0
ELLIPSE
  5
490
100
AcDbEntity
  8
RACCORDO
100
AcDbEllipse
 62
7
  6
CONTINUOUS
 10
10.9402303729
 20
-5.8295587984
 30
0.0
 11
-0.1578367004
 21
0.2553503493
 31
0.0
 40
0.9993189899
 41
-0.5533306656
 42
-0.0858511386
  0
ELLIPSE
  5
491
100
AcDbEntity
  8
RACCORDO
100
AcDbEllipse
 62
7
  6
CONTINUOUS
 10
13.8832934374
 20
-5.8295587984
 30
0.0
 11
0.1578367004
 21
0.2553503493
 31
0.0
 40
0.9993189899
 41
0.0858511324
 42
0.5533306656
  0
ELLIPSE
  5
492
100
AcDbEntity
  8
RACCORDO
100
AcDbEllipse
 62
7
  6
CONTINUOUS
 10
5.3832934374
 20
-5.8295587984
 30
0.0
 11
0.1578367004
 21
0.2553503493
 31
0.0
 40
0.9993189899
 41
0.0858511324
 42
0.5533306656
  0
ELLIPSE
  5
493
100
AcDbEntity
  8
RACCORDO
100
AcDbEllipse
 62
7
  6
CONTINUOUS
 10
2.4402303729
 20
-5.8295587984
 30
0.0
 11
-0.1578367004
 21
0.2553503493
 31
0.0
 40
0.9993189899
 41
-0.5533306656
 42
-0.0858511386
  0
ELLIPSE
  5
494
100
AcDbEntity
  8
RACCORDO
100
AcDbEllipse
 62
7
  6
CONTINUOUS
 10
-6.0597696271
 20
-5.8295587984
 30
0.0
 11
-0.1578367004
 21
0.2553503493
 31
0.0
 40
0.9993189899
 41
-0.5533306656
 42
-0.0858511386
  0
ELLIPSE
  5
495
100
AcDbEntity
  8
RACCORDO
100
AcDbEllipse
 62
7
  6
CONTINUOUS
 10
-3.1167065626
 20
-5.8295587984
 30
0.0
 11
0.1578367004
 21
0.2553503493
 31
0.0
 40
0.9993189899
 41
0.0858511324
 42
0.5533306656
  0
ELLIPSE
  5
496
100
AcDbEntity
  8
RACCORDO
100
AcDbEllipse
 62
7
  6
CONTINUOUS
 10
-14.5597696271
 20
-5.8295587984
 30
0.0
 11
-0.1578367004
 21
0.2553503493
 31
0.0
 40
0.9993189899
 41
-0.5533306656
 42
-0.0858511386
  0
ELLIPSE
  5
497
100
AcDbEntity
  8
RACCORDO
100
AcDbEllipse
 62
7
  6
CONTINUOUS
 10
-11.6167065626
 20
-5.8295587984
 30
0.0
 11
0.1578367004
 21
0.2553503493
 31
0.0
 40
0.9993189899
 41
0.0858511324
 42
0.5533306656
  0
ELLIPSE
  5
498
100
AcDbEntity
  8
RACCORDO
100
AcDbEllipse
 62
7
  6
CONTINUOUS
 10
-14.5130945665
 20
-1.476233859
 30
0.0
 11
-0.1578367004
 21
0.2553503493
 31
0.0
 40
0.9993189899
 41
-0.5533306656
 42
1.0171610747
  0
ELLIPSE
  5
499
100
AcDbEntity
  8
RACCORDO
100
AcDbEllipse
 62
7
  6
CONTINUOUS
 10
-11.6633816232
 20
-1.476233859
 30
0.0
 11
0.1578367004
 21
0.2553503493
 31
0.0
 40
0.9993189899
 41
-1.0171610747
 42
0.5533306656
  0
ELLIPSE
  5
49A
100
AcDbEntity
  8
RACCORDO
100
AcDbEllipse
 62
7
  6
CONTINUOUS
 10
-11.6645541937
 20
-5.3247742318
 30
0.0
 11
0.3000456845
 21
0.0
 31
0.0
 40
0.9996954599
 41
-1.5707963268
 42
-0.0003045865
  0
ELLIPSE
  5
49B
100
AcDbEntity
  8
RACCORDO
100
AcDbEllipse
 62
7
  6
CONTINUOUS
 10
-14.5119219959
 20
-5.3247742318
 30
0.0
 11
0.3000456845
 21
0.0
 31
0.0
 40
0.9996954599
 41
-3.1412880671
 42
-1.5707963268
  0
ELLIPSE
  5
49C
100
AcDbEntity
  8
RACCORDO
100
AcDbEllipse
 62
7
  6
CONTINUOUS
 10
-6.0130945665
 20
-1.476233859
 30
0.0
 11
-0.1578367004
 21
0.2553503493
 31
0.0
 40
0.9993189899
 41
-0.5533306656
 42
1.0171610747
  0
ELLIPSE
  5
49D
100
AcDbEntity
  8
RACCORDO
100
AcDbEllipse
 62
7
  6
CONTINUOUS
 10
-3.1633816232
 20
-1.476233859
 30
0.0
 11
0.1578367004
 21
0.2553503493
 31
0.0
 40
0.9993189899
 41
-1.0171610747
 42
0.5533306656
  0
ELLIPSE
  5
49E
100
AcDbEntity
  8
RACCORDO
100
AcDbEllipse
 62
7
  6
CONTINUOUS
 10
-3.1645541937
 20
-5.3247742318
 30
0.0
 11
0.3000456845
 21
-0.0
 31
0.0
 40
0.9996954599
 41
-1.5707963268
 42
-0.0003045865
  0
ELLIPSE
  5
49F
100
AcDbEntity
  8
RACCORDO
100
AcDbEllipse
 62
7
  6
CONTINUOUS
 10
-6.0119219959
 20
-5.3247742318
 30
0.0
 11
0.3000456845
 21
0.0
 31
0.0
 40
0.9996954599
 41
-3.1412880671
 42
-1.5707963268
  0
ELLIPSE
  5
4A0
100
AcDbEntity
  8
RACCORDO
100
AcDbEllipse
 62
7
  6
CONTINUOUS
 10
2.4880780041
 20
-5.3247742318
 30
0.0
 11
0.3000456845
 21
0.0
 31
0.0
 40
0.9996954599
 41
-3.1412880671
 42
-1.5707963268
  0
ELLIPSE
  5
4A1
100
AcDbEntity
  8
RACCORDO
100
AcDbEllipse
 62
7
  6
CONTINUOUS
 10
5.3354458063
 20
-5.3247742318
 30
0.0
 11
0.3000456845
 21
-0.0
 31
0.0
 40
0.9996954599
 41
-1.5707963268
 42
-0.0003045865
  0
ELLIPSE
  5
4A2
100
AcDbEntity
  8
RACCORDO
100
AcDbEllipse
 62
7
  6
CONTINUOUS
 10
5.3366183768
 20
-1.476233859
 30
0.0
 11
0.1578367004
 21
0.2553503493
 31
0.0
 40
0.9993189899
 41
-1.0171610747
 42
0.5533306656
  0
ELLIPSE
  5
4A3
100
AcDbEntity
  8
RACCORDO
100
AcDbEllipse
 62
7
  6
CONTINUOUS
 10
2.4869054335
 20
-1.476233859
 30
0.0
 11
-0.1578367004
 21
0.2553503493
 31
0.0
 40
0.9993189899
 41
-0.5533306656
 42
1.0171610747
  0
ELLIPSE
  5
4A4
100
AcDbEntity
  8
RACCORDO
100
AcDbEllipse
 62
7
  6
CONTINUOUS
 10
13.8366183768
 20
-1.476233859
 30
0.0
 11
0.1578367004
 21
0.2553503493
 31
0.0
 40
0.9993189899
 41
-1.0171610747
 42
0.5533306656
  0
ELLIPSE
  5
4A5
100
AcDbEntity
  8
RACCORDO
100
AcDbEllipse
 62
7
  6
CONTINUOUS
 10
13.8354458063
 20
-5.3247742318
 30
0.0
 11
0.3000456845
 21
0.0
 31
0.0
 40
0.9996954599
 41
-1.5707963268
 42
-0.0003045865
  0
ELLIPSE
  5
4A6
100
AcDbEntity
  8
RACCORDO
100
AcDbEllipse
 62
7
  6
CONTINUOUS
 10
10.9880780041
 20
-5.3247742318
 30
0.0
 11
0.3000456845
 21
-0.0
 31
0.0
 40
0.9996954599
 41
-3.1412880671
 42
-1.5707963268
  0
ELLIPSE
  5
4A7
100
AcDbEntity
  8
RACCORDO
100
AcDbEllipse
 62
7
  6
CONTINUOUS
 10
10.9869054335
 20
-1.476233859
 30
0.0
 11
-0.1578367004
 21
0.2553503493
 31
0.0
 40
0.9993189899
 41
-0.5533306656
 42
1.0171610747
  0
ELLIPSE
  5
4A8
100
AcDbEntity
  8
RACCORDO
100
AcDbEllipse
 62
7
  6
CONTINUOUS
 10
-18.3381619308
 20
10.5988335053
 30
0.0
 11
0.3536610946
 21
-0.3536610946
 31
0.0
 40
0.9996954599
 41
2.3563467834
 42
3.9268385237
  0
ELLIPSE
  5
4A9
100
AcDbEntity
  8
RACCORDO
100
AcDbEllipse
 62
7
  6
CONTINUOUS
 10
-18.3381619308
 20
-10.9010141667
 30
0.0
 11
0.3536610946
 21
0.3536610946
 31
0.0
 40
0.9996954599
 41
-3.9268385237
 42
-2.3563467834
  0
ELLIPSE
  5
4AA
100
AcDbEntity
  8
RACCORDO
100
AcDbEllipse
 62
7
  6
CONTINUOUS
 10
17.6616857412
 20
-10.9010141667
 30
0.0
 11
0.3536610946
 21
-0.3536610946
 31
0.0
 40
0.9996954599
 41
-0.7852458701
 42
0.7852458701
  0
ELLIPSE
  5
4AB
100
AcDbEntity
  8
RACCORDO
100
AcDbEllipse
 62
7
  6
CONTINUOUS
 10
17.6616857412
 20
10.5988335053
 30
0.0
 11
0.3536610946
 21
0.3536610946
 31
0.0
 40
0.9996954599
 41
-0.7852458701
 42
0.7852458701
  0
ELLIPSE
  5
4AC
100
AcDbEntity
  8
RACCORDO
100
AcDbEllipse
 62
7
  6
CONTINUOUS
 10
-4.0207373315
 20
-10.468591094
 30
0.0
 11
0.2121966568
 21
-0.2121966568
 31
0.0
 40
0.9996954599
 41
2.3563467834
 42
3.9268385237
  0
ELLIPSE
  5
4AD
100
AcDbEntity
  8
RACCORDO
100
AcDbEllipse
 62
7
  6
CONTINUOUS
 10
-4.0207373315
 20
-11.0835895674
 30
0.0
 11
0.2121966568
 21
0.2121966568
 31
0.0
 40
0.9996954599
 41
-3.9268385237
 42
-3.9096898177
  0
ELLIPSE
  5
4AE
100
AcDbEntity
  8
RACCORDO
100
AcDbEllipse
 62
7
  6
CONTINUOUS
 10
3.3442611418
 20
-11.0835895674
 30
0.0
 11
0.2121966568
 21
-0.2121966568
 31
0.0
 40
0.9996954599
 41
0.7680971641
 42
0.7852458701
  0
ELLIPSE
  5
4AF
100
AcDbEntity
  8
DRAFT
100
AcDbEllipse
 62
7
  6
CONTINUOUS
 10
-0.3382380948
 20
-11.2876324087
 30
0.0
 11
1.6
 21
0.0
 31
0.0
 40
0.0174550649
 41
0.0
 42
6.2831853072
  0
ELLIPSE
  5
4B0
100
AcDbEntity
  8
RACCORDO
100
AcDbEllipse
 62
7
  6
CONTINUOUS
 10
3.3442611418
 20
-10.468591094
 30
0.0
 11
0.2121966568
 21
0.2121966568
 31
0.0
 40
0.9996954599
 41
-0.7852458701
 42
0.7852458701
  0
ELLIPSE
  5
4B1
100
AcDbEntity
  8
DRAFT
100
AcDbEllipse
 62
7
  6
CONTINUOUS
 10
-0.3382380948
 20
-10.2645482527
 30
0.0
 11
1.6
 21
-0.0
 31
0.0
 40
0.0174550649
 41
0.0
 42
6.2831853072
  0
ENDSEC
  0
SECTION
  2
OBJECTS
  0
DICTIONARY
  5
C
100
AcDbDictionary
280
0
281
1
  3
ACAD_GROUP
350
D
  3
ACAD_MLINESTYLE
350
17
  3
ACAD_LAYOUT
350
1A
  3
ACAD_PLOTSETTINGS
350
19
  3
ACAD_PLOTSTYLENAME
350
E
  0
DICTIONARY
  5
D
102
{ACAD_REACTORS
330
C
102
}
100
AcDbDictionary
280
0
281
1
  0
ACDBDICTIONARYWDFLT
  5
E
102
{ACAD_REACTORS
330
C
102
}
100
AcDbDictionary
281
1
  3
Normal
350
F
100
AcDbDictionaryWithDefault
340
F
  0
DICTIONARY
  5
17
102
{ACAD_REACTORS
330
C
102
}
100
AcDbDictionary
280
0
281
1
  3
Standard
350
18
  0
DICTIONARY
  5
19
102
{ACAD_REACTORS
330
C
102
}
100
AcDbDictionary
281
1
  0
DICTIONARY
  5
1A
102
{ACAD_REACTORS
330
C
102
}
100
AcDbDictionary
281
1
  3
Model
350
4B2
  3
Layout1
350
4B3
  0
ACDBPLACEHOLDER
  5
F
102
{ACAD_REACTORS
330
E
102
}
  0
MLINESTYLE
  5
18
102
{ACAD_REACTORS
330
17
102
}
100
AcDbMlineStyle
  2
STANDARD
 70
0
  3

 62
256
 51
90.0
 52
90.0
 71
2
 49
0.5
 62
256
  6
BYLAYER
 49
-0.5
 62
256
  6
BYLAYER
  0
LAYOUT
  5
4B2
102
{ACAD_REACTORS
330
1A
102
}
100
AcDbPlotSettings
  1

  2
none_device
  4
ISO_A4_(297.00_x_210.00_MM)
  6

 40
0.0
 41
0.0
 42
0.0
 43
0.0
 44
297.0
 45
210.0
 46
0.0
 47
0.0
 48
0.0
 49
0.0
140
0.0
141
0.0
142
1.0
143
1.0
 70
1024
 72
1
 73
0
 74
0
  7

 75
0
147
1.0
148
0.0
149
0.0
100
AcDbLayout
  1
Model
 70
0
 71
0
 10
0.0
 20
0.0
 11
297.0
 21
210.0
 12
0.0
 22
0.0
 32
0.0
 14
0.0
 24
0.0
 34
0.0
 15
0.0
 25
0.0
 35
0.0
146
0.0
 13
0.0
 23
0.0
 33
0.0
 16
1.0
 26
0.0
 36
0.0
 17
0.0
 27
1.0
 37
0.0
 76
0
330
2AC
345
0
346
0
  0
LAYOUT
  5
4B3
102
{ACAD_REACTORS
330
1A
102
}
100
AcDbPlotSettings
  1

  2
none_device
  4
ISO_A4_(297.00_x_210.00_MM)
  6

 40
0.0
 41
0.0
 42
0.0
 43
0.0
 44
297.0
 45
210.0
 46
0.0
 47
0.0
 48
0.0
 49
0.0
140
0.0
141
0.0
142
1.0
143
1.0
 70
0
 72
1
 73
0
 74
0
  7

 75
0
147
1.0
148
0.0
149
0.0
100
AcDbLayout
  1
Layout1
 70
0
 71
1
 10
0.0
 20
0.0
 11
297.0
 21
210.0
 12
0.0
 22
0.0
 32
0.0
 14
0.0
 24
0.0
 34
0.0
 15
0.0
 25
0.0
 35
0.0
146
0.0
 13
0.0
 23
0.0
 33
0.0
 16
1.0
 26
0.0
 36
0.0
 17
0.0
 27
1.0
 37
0.0
 76
0
330
2AD
345
0
346
0
  0
ENDSEC
  0
EOF
