  0
SECTION
  2
HEADER
  9
$ACADVER
  1
AC1024
  9
$DWGCODEPAGE
  3
ANSI_1252
  9
$EXTMAX
 10
297.0
 20
210.0
 30
0.0
  9
$EXTMIN
 10
0.0
 20
0.0
 30
0.0
  9
$LIMMIN
 10
0.0
 20
0.0
  9
$LIMMAX
 10
297.0
 20
210.0
  9
$VIEWCTR
 10
148.5
 20
105.0
  9
$VIEWSIZE
 40
210.0
  9
$CLAYER
  8
0
  9
$LTSCALE
 40
16.335
  9
$CELTYPE
  6
BYLAYER
  9
$DIMSCALE
 40
1.0
  9
$DIMASZ
 40
3.0
  9
$DIMEXO
 40
0.5
  9
$DIMDLI
 40
11.286
  9
$DIMEXE
 40
1.5
  9
$DIMCEN
 40
2.673
  9
$DIMLFAC
 40
1.0
  9
$DIMBLK
  1
_FILLED
  9
$DIMALT
 70
0
  9
$DIMALTF
 40
0.0393700787
  9
$DIMTXT
 40
3.0
  9
$DIMTOL
 70
1
  9
$DIMLIM
 70
0
  9
$DIMTFAC
 40
1.0
  9
$DIMTP
 40
0.01
  9
$DIMTM
 40
0.01
  9
$DIMGAP
 40
0.625
  9
$DIMDSEP
 70
44
  9
$AUNITS
 70
0
  9
$PDMODE
 70
3
  9
$PDSIZE
 40
3.0
  9
$HANDSEED
  5
59A
  9
$TILEMODE
 70
1
  9
$MEASUREMENT
 70
1
  9
$INSUNITS
 70
4
  0
ENDSEC
  0
SECTION
  2
CLASSES
  0
CLASS
  1
ACDBDICTIONARYWDFLT
  2
AcDbDictionaryWithDefault
  3
AutoCAD 2000
 90
0
 91
1
280
0
281
0
  0
CLASS
  1
ACDBPLACEHOLDER
  2
AcDbPlaceHolder
  3
AutoCAD 2000
 90
0
 91
1
280
0
281
0
  0
CLASS
  1
LAYOUT
  2
AcDbLayout
  3
AutoCAD 2000
 90
0
 91
0
280
0
281
0
  0
ENDSEC
  0
SECTION
  2
TABLES
  0
TABLE
  2
VPORT
  5
8
100
AcDbSymbolTable
 70
2
  0
VPORT
  5
1F4
100
AcDbSymbolTableRecord
100
AcDbViewportTableRecord
  2
*ACTIVE
 70
0
 10
0.0
 20
0.0
 11
1.0
 21
1.0
 12
148.5
 22
105.0
 13
0.0
 23
0.0
 14
1.0
 24
1.0
 15
0.0
 25
0.0
 16
0.0
 26
0.0
 36
1.0
 17
0.0
 27
0.0
 37
0.0
 40
210.0
 41
1.4142857143
 42
50.0
 43
0.0
 44
0.0
 50
0.0
 51
0.0
 71
0
 72
100
 73
1
 74
1
 75
0
 76
0
 77
0
 78
0
  0
ENDTAB
  0
TABLE
  2
LTYPE
  5
5
100
AcDbSymbolTable
 70
6
  0
LTYPE
  5
14
100
AcDbSymbolTableRecord
100
AcDbLinetypeTableRecord
  2
BYBLOCK
 70
0
  3

 72
65
 73
0
 40
0.0
  0
LTYPE
  5
15
100
AcDbSymbolTableRecord
100
AcDbLinetypeTableRecord
  2
BYLAYER
 70
0
  3

 72
65
 73
0
 40
0.0
  0
LTYPE
  5
16
100
AcDbSymbolTableRecord
100
AcDbLinetypeTableRecord
  2
CONTINUOUS
 70
64
  3
Solid line
 72
65
 73
0
 40
0.0
  0
LTYPE
  5
1F5
100
AcDbSymbolTableRecord
100
AcDbLinetypeTableRecord
  2
CENTER
 70
64
  3
____ _ ____ _ ____ _ ____ _ ____ _ ____ _ ____
 72
65
 73
4
 40
0.6
 49
0.375
 74
0
 49
-0.075
 74
0
 49
0.075
 74
0
 49
-0.075
 74
0
  0
LTYPE
  5
1F6
100
AcDbSymbolTableRecord
100
AcDbLinetypeTableRecord
  2
HIDDEN
 70
64
  3
- - - - - - - - - - - - - - - - - - - -
 72
65
 73
2
 40
0.2
 49
0.1
 74
0
 49
-0.1
 74
0
  0
LTYPE
  5
1F7
100
AcDbSymbolTableRecord
100
AcDbLinetypeTableRecord
  2
PHANTOM
 70
64
  3
_____ _ _ _____ _ _ _____ _ _ _____
 72
65
 73
6
 40
0.8
 49
0.45
 74
0
 49
-0.05
 74
0
 49
0.1
 74
0
 49
-0.05
 74
0
 49
0.1
 74
0
 49
-0.05
 74
0
  0
LTYPE
  5
1F8
100
AcDbSymbolTableRecord
100
AcDbLinetypeTableRecord
  2
DOT
 70
64
  3
. . . . . . . . . . . . . . . . . . . .
 72
65
 73
2
 40
0.2
 49
0.1
 74
0
 49
-0.1
 74
0
  0
LTYPE
  5
1F9
100
AcDbSymbolTableRecord
100
AcDbLinetypeTableRecord
  2
DASHED
 70
64
  3
- - - - - - - - - - - - - - - - - - - -
 72
65
 73
2
 40
0.2
 49
0.1
 74
0
 49
-0.1
 74
0
  0
ENDTAB
  0
TABLE
  2
LAYER
  5
2
100
AcDbSymbolTable
 70
36
  0
LAYER
  5
10
100
AcDbSymbolTableRecord
100
AcDbLayerTableRecord
  2
0
 70
0
 62
7
  6
CONTINUOUS
370
-3
390
F
  0
LAYER
  5
1FA
100
AcDbSymbolTableRecord
100
AcDbLayerTableRecord
  2
DEFAULT_1
 70
0
 62
7
  6
CENTER
370
-3
390
F
  0
LAYER
  5
1FB
100
AcDbSymbolTableRecord
100
AcDbLayerTableRecord
  2
DEFAULT_2
 70
0
 62
7
  6
HIDDEN
370
-3
390
F
  0
LAYER
  5
1FC
100
AcDbSymbolTableRecord
100
AcDbLayerTableRecord
  2
DEFAULT_3
 70
0
 62
7
  6
PHANTOM
370
-3
390
F
  0
LAYER
  5
1FD
100
AcDbSymbolTableRecord
100
AcDbLayerTableRecord
  2
43900897B0
 70
0
 62
7
  6
CONTINUOUS
370
-3
390
F
  0
LAYER
  5
1FE
100
AcDbSymbolTableRecord
100
AcDbLayerTableRecord
  2
ASSI
 70
0
 62
7
  6
CONTINUOUS
370
-3
390
F
  0
LAYER
  5
1FF
100
AcDbSymbolTableRecord
100
AcDbLayerTableRecord
  2
COLOR21
 70
0
 62
7
  6
CONTINUOUS
370
-3
390
F
  0
LAYER
  5
200
100
AcDbSymbolTableRecord
100
AcDbLayerTableRecord
  2
COLOR24
 70
0
 62
7
  6
CONTINUOUS
370
-3
390
F
  0
LAYER
  5
201
100
AcDbSymbolTableRecord
100
AcDbLayerTableRecord
  2
COLOR27
 70
0
 62
7
  6
CONTINUOUS
370
-3
390
F
  0
LAYER
  5
202
100
AcDbSymbolTableRecord
100
AcDbLayerTableRecord
  2
COLOR30
 70
0
 62
7
  6
CONTINUOUS
370
-3
390
F
  0
LAYER
  5
203
100
AcDbSymbolTableRecord
100
AcDbLayerTableRecord
  2
COORDINATE
 70
0
 62
7
  6
CONTINUOUS
370
-3
390
F
  0
LAYER
  5
204
100
AcDbSymbolTableRecord
100
AcDbLayerTableRecord
  2
COPY_PUBLISH
 70
0
 62
7
  6
CONTINUOUS
370
-3
390
F
  0
LAYER
  5
205
100
AcDbSymbolTableRecord
100
AcDbLayerTableRecord
  2
COSMETIC
 70
0
 62
7
  6
CONTINUOUS
370
-3
390
F
  0
LAYER
  5
206
100
AcDbSymbolTableRecord
100
AcDbLayerTableRecord
  2
COSMETICI
 70
0
 62
7
  6
CONTINUOUS
370
-3
390
F
  0
LAYER
  5
207
100
AcDbSymbolTableRecord
100
AcDbLayerTableRecord
  2
CURVE
 70
0
 62
7
  6
CONTINUOUS
370
-3
390
F
  0
LAYER
  5
208
100
AcDbSymbolTableRecord
100
AcDbLayerTableRecord
  2
DEMO_00131
 70
0
 62
7
  6
CONTINUOUS
370
-3
390
F
  0
LAYER
  5
209
100
AcDbSymbolTableRecord
100
AcDbLayerTableRecord
  2
DRAFT
 70
0
 62
7
  6
CONTINUOUS
370
-3
390
F
  0
LAYER
  5
20A
100
AcDbSymbolTableRecord
100
AcDbLayerTableRecord
  2
IMPORT_IGES
 70
0
 62
7
  6
CONTINUOUS
370
-3
390
F
  0
LAYER
  5
20B
100
AcDbSymbolTableRecord
100
AcDbLayerTableRecord
  2
INTF_1
 70
0
 62
7
  6
CONTINUOUS
370
-3
390
F
  0
LAYER
  5
20C
100
AcDbSymbolTableRecord
100
AcDbLayerTableRecord
  2
INTF_11
 70
0
 62
7
  6
CONTINUOUS
370
-3
390
F
  0
LAYER
  5
20D
100
AcDbSymbolTableRecord
100
AcDbLayerTableRecord
  2
INTF_2
 70
0
 62
7
  6
CONTINUOUS
370
-3
390
F
  0
LAYER
  5
20E
100
AcDbSymbolTableRecord
100
AcDbLayerTableRecord
  2
INTF_BLANK
 70
0
 62
7
  6
CONTINUOUS
370
-3
390
F
  0
LAYER
  5
20F
100
AcDbSymbolTableRecord
100
AcDbLayerTableRecord
  2
LOGO_RESIST-RESTYLING_10000
 70
0
 62
7
  6
CONTINUOUS
370
-3
390
F
  0
LAYER
  5
210
100
AcDbSymbolTableRecord
100
AcDbLayerTableRecord
  2
NOTE
 70
0
 62
7
  6
CONTINUOUS
370
-3
390
F
  0
LAYER
  5
211
100
AcDbSymbolTableRecord
100
AcDbLayerTableRecord
  2
PIANI
 70
0
 62
7
  6
CONTINUOUS
370
-3
390
F
  0
LAYER
  5
212
100
AcDbSymbolTableRecord
100
AcDbLayerTableRecord
  2
PIANI_RIFERIMENTO
 70
0
 62
7
  6
CONTINUOUS
370
-3
390
F
  0
LAYER
  5
213
100
AcDbSymbolTableRecord
100
AcDbLayerTableRecord
  2
PUNTI
 70
0
 62
7
  6
CONTINUOUS
370
-3
390
F
  0
LAYER
  5
214
100
AcDbSymbolTableRecord
100
AcDbLayerTableRecord
  2
RACCORDO
 70
0
 62
7
  6
CONTINUOUS
370
-3
390
F
  0
LAYER
  5
215
100
AcDbSymbolTableRecord
100
AcDbLayerTableRecord
  2
RGB____0____0____0__
 70
0
 62
7
  6
CONTINUOUS
370
-3
390
F
  0
LAYER
  5
216
100
AcDbSymbolTableRecord
100
AcDbLayerTableRecord
  2
SIMBOLI
 70
0
 62
7
  6
CONTINUOUS
370
-3
390
F
  0
LAYER
  5
217
100
AcDbSymbolTableRecord
100
AcDbLayerTableRecord
  2
SMUSSO
 70
0
 62
7
  6
CONTINUOUS
370
-3
390
F
  0
LAYER
  5
218
100
AcDbSymbolTableRecord
100
AcDbLayerTableRecord
  2
SNAPLINE
 70
0
 62
7
  6
CONTINUOUS
370
-3
390
F
  0
LAYER
  5
219
100
AcDbSymbolTableRecord
100
AcDbLayerTableRecord
  2
SUB_SMA_143000
 70
0
 62
7
  6
CONTINUOUS
370
-3
390
F
  0
LAYER
  5
21A
100
AcDbSymbolTableRecord
100
AcDbLayerTableRecord
  2
SUB_SMA_143000_1
 70
0
 62
7
  6
CONTINUOUS
370
-3
390
F
  0
LAYER
  5
21B
100
AcDbSymbolTableRecord
100
AcDbLayerTableRecord
  2
SUB_SMA_143000_2
 70
0
 62
7
  6
CONTINUOUS
370
-3
390
F
  0
LAYER
  5
21C
100
AcDbSymbolTableRecord
100
AcDbLayerTableRecord
  2
SUB_SMA_143000_3
 70
0
 62
7
  6
CONTINUOUS
370
-3
390
F
  0
LAYER
  5
21D
100
AcDbSymbolTableRecord
100
AcDbLayerTableRecord
  2
SUB_SMA_143000_4
 70
0
 62
7
  6
CONTINUOUS
370
-3
390
F
  0
LAYER
  5
21E
100
AcDbSymbolTableRecord
100
AcDbLayerTableRecord
  2
SUB_SMA_143000_5
 70
0
 62
7
  6
CONTINUOUS
370
-3
390
F
  0
LAYER
  5
21F
100
AcDbSymbolTableRecord
100
AcDbLayerTableRecord
  2
SUPERFICI
 70
0
 62
7
  6
CONTINUOUS
370
-3
390
F
  0
LAYER
  5
220
100
AcDbSymbolTableRecord
100
AcDbLayerTableRecord
  2
TRASH
 70
0
 62
7
  6
CONTINUOUS
370
-3
390
F
  0
LAYER
  5
221
100
AcDbSymbolTableRecord
100
AcDbLayerTableRecord
  2
VG_M_2P_VERT_P_5MM_10MM_H_15MM_
 70
0
 62
7
  6
CONTINUOUS
370
-3
390
F
  0
LAYER
  5
222
100
AcDbSymbolTableRecord
100
AcDbLayerTableRecord
  2
VG_M_2P_VERT_P_5MM_10MM_H_15M_1
 70
0
 62
7
  6
CONTINUOUS
370
-3
390
F
  0
LAYER
  5
223
100
AcDbSymbolTableRecord
100
AcDbLayerTableRecord
  2
VG_M_2P_VERT_P_5MM_10MM_H_15M_2
 70
0
 62
7
  6
CONTINUOUS
370
-3
390
F
  0
LAYER
  5
224
100
AcDbSymbolTableRecord
100
AcDbLayerTableRecord
  2
VG_M_2P_VERT_P_5MM_10MM_H_15M_3
 70
0
 62
7
  6
CONTINUOUS
370
-3
390
F
  0
LAYER
  5
225
100
AcDbSymbolTableRecord
100
AcDbLayerTableRecord
  2
___SHELL
 70
0
 62
7
  6
CONTINUOUS
370
-3
390
F
  0
ENDTAB
  0
TABLE
  2
STYLE
  5
3
100
AcDbSymbolTable
 70
1
  0
STYLE
  5
11
100
AcDbSymbolTableRecord
100
AcDbTextStyleTableRecord
  2
STANDARD
 70
0
 40
0.0
 41
0.8
 50
0.0
 71
0
 42
0.2
  3
txt
  4

  0
STYLE
  5
226
100
AcDbSymbolTableRecord
100
AcDbTextStyleTableRecord
  2
TEXTSTYLE_1
 70
0
 40
0.0
 41
0.8
 50
0.0
 71
0
 42
0.2
  3
gdt
  4

  0
ENDTAB
  0
TABLE
  2
VIEW
  5
6
100
AcDbSymbolTable
 70
0
  0
ENDTAB
  0
TABLE
  2
UCS
  5
7
100
AcDbSymbolTable
 70
0
  0
ENDTAB
  0
TABLE
  2
APPID
  5
9
100
AcDbSymbolTable
 70
1
  0
APPID
  5
227
100
AcDbSymbolTableRecord
100
AcDbRegAppTableRecord
  2
ACAD
 70
0
  0
ENDTAB
  0
TABLE
  2
BLOCK_RECORD
  5
1
100
AcDbSymbolTable
 70
0
  0
BLOCK_RECORD
  5
228
100
AcDbSymbolTableRecord
100
AcDbBlockTableRecord
  2
*Model_Space
  0
BLOCK_RECORD
  5
229
100
AcDbSymbolTableRecord
100
AcDbBlockTableRecord
  2
*Paper_Space
  0
BLOCK_RECORD
  5
22A
100
AcDbSymbolTableRecord
100
AcDbBlockTableRecord
  2
_FILLED
  0
ENDTAB
  0
TABLE
  2
DIMSTYLE
  5
A
100
AcDbSymbolTable
 70
1
100
AcDbDimStyleTable
 71
0
  0
DIMSTYLE
105
22B
100
AcDbSymbolTableRecord
100
AcDbDimStyleTableRecord
  2
STANDARD
 70
0
  3

  4

 40
1.0
 41
3.0
 42
0.5
 43
0.38
 44
1.5
 45
0.0
 46
0.0
 47
0.01
 48
0.01
140
3.0
141
0.09
142
0.0
143
25.4
144
1.0
145
0.0
146
1.0
147
0.625
 71
1.0
 72
0.0
 73
0
 74
0
 75
0
 76
0
 77
1
 78
8
 79
2
170
0
171
1
172
0
173
0
174
0
175
0
176
0
177
0
178
0
270
2
179
2
271
2
272
2
273
2
274
2
275
0
280
0
281
0
282
0
283
1
284
8
285
0
286
0
287
3
288
0
340
11
278
44
341
22A
342
22A
343
22A
344
22A
  0
ENDTAB
  0
ENDSEC
  0
SECTION
  2
BLOCKS
  0
BLOCK
  5
20
100
AcDbEntity
  8
0
100
AcDbBlockBegin
  2
*Model_Space
 70
0
 10
0.0
 20
0.0
 30
0.0
  3
*Model_Space
  1

  0
ENDBLK
  5
21
100
AcDbEntity
  8
0
100
AcDbBlockEnd
  0
BLOCK
  5
1C
100
AcDbEntity
  8
0
100
AcDbBlockBegin
  2
*Paper_Space
 70
0
 10
0.0
 20
0.0
 30
0.0
  3
*Paper_Space
  1

  0
ENDBLK
  5
1D
100
AcDbEntity
  8
0
100
AcDbBlockEnd
  0
BLOCK
  5
22C
100
AcDbEntity
  8
0
100
AcDbBlockBegin
  2
_FILLED
 70
64
 10
0.0
 20
0.0
  3
_FILLED
  1

  0
SOLID
  5
22D
100
AcDbEntity
  8
0
  6
BYBLOCK
 62
0
100
AcDbTrace
 10
0.0
 20
0.0
 11
-1.0
 21
0.3166666667
 12
-1.0
 22
-0.3166666667
 13
-1.0
 23
-0.3166666667
  0
ENDBLK
  5
22E
100
AcDbEntity
  8
0
  6
BYBLOCK
 62
0
100
AcDbBlockEnd
  0
ENDSEC
  0
SECTION
  2
ENTITIES
  0
LINE
  5
22F
100
AcDbEntity
  8
RACCORDO
100
AcDbLine
 62
250
  6
CONTINUOUS
 10
-12.9952812111
 20
12.181493656
 11
-12.8983677565
 21
12.2784071106
  0
LINE
  5
230
100
AcDbEntity
  8
ASSI
100
AcDbLine
 62
250
  6
CONTINUOUS
 10
-12.9952812111
 20
12.181493656
 11
-12.8983677565
 21
12.2784071106
  0
LINE
  5
231
100
AcDbEntity
  8
RACCORDO
100
AcDbLine
 62
250
  6
CONTINUOUS
 10
-12.7953149733
 20
11.9815208158
 11
-12.6983982175
 21
12.0784375716
  0
LINE
  5
232
100
AcDbEntity
  8
ASSI
100
AcDbLine
 62
250
  6
CONTINUOUS
 10
-12.7953149733
 20
11.9815208158
 11
-12.6983982175
 21
12.0784375716
  0
LINE
  5
233
100
AcDbEntity
  8
RACCORDO
100
AcDbLine
 62
7
  6
CONTINUOUS
 10
1.5059935878
 20
-16.4247663487
 11
-1.9027900228
 21
-16.4247663487
  0
LINE
  5
234
100
AcDbEntity
  8
ASSI
100
AcDbLine
 62
7
  6
CONTINUOUS
 10
1.5059935878
 20
-16.4247663487
 11
-1.9027900228
 21
-16.4247663487
  0
LINE
  5
235
100
AcDbEntity
  8
RACCORDO
100
AcDbLine
 62
250
  6
CONTINUOUS
 10
1.4704634596
 20
-16.3892362205
 11
-1.8672598947
 21
-16.3892362205
  0
LINE
  5
236
100
AcDbEntity
  8
ASSI
100
AcDbLine
 62
250
  6
CONTINUOUS
 10
1.4704634596
 20
-16.3892362205
 11
-1.8672598947
 21
-16.3892362205
  0
LINE
  5
237
100
AcDbEntity
  8
RACCORDO
100
AcDbLine
 62
250
  6
CONTINUOUS
 10
1.4704634596
 20
-15.889540807
 11
-1.8672598947
 21
-15.889540807
  0
LINE
  5
238
100
AcDbEntity
  8
ASSI
100
AcDbLine
 62
250
  6
CONTINUOUS
 10
1.4704634596
 20
-15.889540807
 11
-1.8672598947
 21
-15.889540807
  0
LWPOLYLINE
  5
239
100
AcDbEntity
  8
RACCORDO
100
AcDbPolyline
 62
250
  6
CONTINUOUS
 90
22
 70
0
 10
-1.8672598947
 20
-16.3892362205
 10
-2.0166794395
 20
-16.3836038113
 10
-2.1652447623
 20
-16.3668269343
 10
-2.3121269048
 20
-16.3390017869
 10
-2.4565060587
 20
-16.3002869018
 10
-2.5975774074
 20
-16.2509001831
 10
-2.7345553922
 20
-16.1911170218
 10
-2.8666757847
 20
-16.1212725491
 10
-2.9932021719
 20
-16.041758277
 10
-3.113430772
 20
-15.95301675
 10
-3.2266902409
 20
-15.8555441037
 10
-3.3323495007
 20
-15.7498848386
 10
-3.429822139
 20
-15.6366253682
 10
-3.5185636561
 20
-15.5163967713
 10
-3.5980779171
 20
-15.3898703921
 10
-3.667922378
 20
-15.2577500123
 10
-3.7277055258
 20
-15.1207720491
 10
-3.777092233
 20
-14.9797007273
 10
-3.8158071129
 20
-14.835321592
 10
-3.8436322602
 20
-14.6884394543
 10
-3.8604091388
 20
-14.5398741264
 10
-3.8660415487
 20
-14.3904545665
  0
LWPOLYLINE
  5
23A
100
AcDbEntity
  8
ASSI
100
AcDbPolyline
 62
250
  6
CONTINUOUS
 90
22
 70
0
 10
-1.8672598947
 20
-16.3892362205
 10
-2.0166794395
 20
-16.3836038113
 10
-2.1652447623
 20
-16.3668269343
 10
-2.3121269048
 20
-16.3390017869
 10
-2.4565060587
 20
-16.3002869018
 10
-2.5975774074
 20
-16.2509001831
 10
-2.7345553922
 20
-16.1911170218
 10
-2.8666757847
 20
-16.1212725491
 10
-2.9932021719
 20
-16.041758277
 10
-3.113430772
 20
-15.95301675
 10
-3.2266902409
 20
-15.8555441037
 10
-3.3323495007
 20
-15.7498848386
 10
-3.429822139
 20
-15.6366253682
 10
-3.5185636561
 20
-15.5163967713
 10
-3.5980779171
 20
-15.3898703921
 10
-3.667922378
 20
-15.2577500123
 10
-3.7277055258
 20
-15.1207720491
 10
-3.777092233
 20
-14.9797007273
 10
-3.8158071129
 20
-14.835321592
 10
-3.8436322602
 20
-14.6884394543
 10
-3.8604091388
 20
-14.5398741264
 10
-3.8660415487
 20
-14.3904545665
  0
LWPOLYLINE
  5
23B
100
AcDbEntity
  8
RACCORDO
100
AcDbPolyline
 62
250
  6
CONTINUOUS
 90
22
 70
0
 10
-1.8672598947
 20
-15.889540807
 10
-1.9799699844
 20
-15.8852335976
 10
-2.0909371576
 20
-15.872769596
 10
-2.2001614141
 20
-15.8521488022
 10
-2.3082728028
 20
-15.8231648397
 10
-2.4146412748
 20
-15.7860240849
 10
-2.5173766842
 20
-15.7413456675
 10
-2.6163771817
 20
-15.6890049845
 10
-2.7117446166
 20
-15.6291266389
 10
-2.8018943904
 20
-15.5627035695
 10
-2.8867403517
 20
-15.4896248994
 10
-2.9663686519
 20
-15.4100015055
 10
-3.0394531466
 20
-15.3251589566
 10
-3.1058832284
 20
-15.2350106009
 10
-3.1657695049
 20
-15.1396430903
 10
-3.2181176539
 20
-15.040641949
 10
-3.262802572
 20
-14.9379077347
 10
-3.2999493627
 20
-14.8315398897
 10
-3.3289390155
 20
-14.7234222653
 10
-3.3495651934
 20
-14.6141828118
 10
-3.3620342333
 20
-14.5031935789
 10
-3.3663461352
 20
-14.3904545665
  0
LWPOLYLINE
  5
23C
100
AcDbEntity
  8
ASSI
100
AcDbPolyline
 62
250
  6
CONTINUOUS
 90
22
 70
0
 10
-1.8672598947
 20
-15.889540807
 10
-1.9799699844
 20
-15.8852335976
 10
-2.0909371576
 20
-15.872769596
 10
-2.2001614141
 20
-15.8521488022
 10
-2.3082728028
 20
-15.8231648397
 10
-2.4146412748
 20
-15.7860240849
 10
-2.5173766842
 20
-15.7413456675
 10
-2.6163771817
 20
-15.6890049845
 10
-2.7117446166
 20
-15.6291266389
 10
-2.8018943904
 20
-15.5627035695
 10
-2.8867403517
 20
-15.4896248994
 10
-2.9663686519
 20
-15.4100015055
 10
-3.0394531466
 20
-15.3251589566
 10
-3.1058832284
 20
-15.2350106009
 10
-3.1657695049
 20
-15.1396430903
 10
-3.2181176539
 20
-15.040641949
 10
-3.262802572
 20
-14.9379077347
 10
-3.2999493627
 20
-14.8315398897
 10
-3.3289390155
 20
-14.7234222653
 10
-3.3495651934
 20
-14.6141828118
 10
-3.3620342333
 20
-14.5031935789
 10
-3.3663461352
 20
-14.3904545665
  0
LWPOLYLINE
  5
23D
100
AcDbEntity
  8
RACCORDO
100
AcDbPolyline
 62
7
  6
CONTINUOUS
 90
13
 70
0
 10
-14.1983982175
 20
-3.5216233503
 10
-14.1966904317
 20
-3.5477391573
 10
-14.1915885343
 20
-3.5734029766
 10
-14.1831812488
 20
-3.5981761088
 10
-14.1716143475
 20
-3.6216344277
 10
-14.1570865353
 20
-3.643378472
 10
-14.1398447965
 20
-3.6630394683
 10
-14.1201838002
 20
-3.6802812071
 10
-14.0984397559
 20
-3.6948090194
 10
-14.0749814369
 20
-3.7063759206
 10
-14.0502083048
 20
-3.7147832061
 10
-14.0245444854
 20
-3.7198851035
 10
-13.9984286785
 20
-3.7215928894
  0
LWPOLYLINE
  5
23E
100
AcDbEntity
  8
ASSI
100
AcDbPolyline
 62
7
  6
CONTINUOUS
 90
13
 70
0
 10
-14.1983982175
 20
-3.5216233503
 10
-14.1966904317
 20
-3.5477391573
 10
-14.1915885343
 20
-3.5734029766
 10
-14.1831812488
 20
-3.5981761088
 10
-14.1716143475
 20
-3.6216344277
 10
-14.1570865353
 20
-3.643378472
 10
-14.1398447965
 20
-3.6630394683
 10
-14.1201838002
 20
-3.6802812071
 10
-14.0984397559
 20
-3.6948090194
 10
-14.0749814369
 20
-3.7063759206
 10
-14.0502083048
 20
-3.7147832061
 10
-14.0245444854
 20
-3.7198851035
 10
-13.9984286785
 20
-3.7215928894
  0
LWPOLYLINE
  5
23F
100
AcDbEntity
  8
RACCORDO
100
AcDbPolyline
 62
250
  6
CONTINUOUS
 90
13
 70
0
 10
-14.1014814618
 20
11.9815208158
 10
-14.0997634085
 20
12.0076170472
 10
-14.094654531
 20
12.0332669376
 10
-14.0862422095
 20
12.0580317805
 10
-14.0746703255
 20
12.0814880065
 10
-14.0601368005
 20
12.1032344285
 10
-14.0428902109
 20
12.1228991033
 10
-14.0232255362
 20
12.1401456931
 10
-14.0014791142
 20
12.1546792182
 10
-13.9780228881
 20
12.1662511024
 10
-13.9532580451
 20
12.174663424
 10
-13.9276081543
 20
12.1797723016
 10
-13.9015119227
 20
12.1814903549
  0
LWPOLYLINE
  5
240
100
AcDbEntity
  8
ASSI
100
AcDbPolyline
 62
250
  6
CONTINUOUS
 90
13
 70
0
 10
-14.1014814618
 20
11.9815208158
 10
-14.0997634085
 20
12.0076170472
 10
-14.094654531
 20
12.0332669376
 10
-14.0862422095
 20
12.0580317805
 10
-14.0746703255
 20
12.0814880065
 10
-14.0601368005
 20
12.1032344285
 10
-14.0428902109
 20
12.1228991033
 10
-14.0232255362
 20
12.1401456931
 10
-14.0014791142
 20
12.1546792182
 10
-13.9780228881
 20
12.1662511024
 10
-13.9532580451
 20
12.174663424
 10
-13.9276081543
 20
12.1797723016
 10
-13.9015119227
 20
12.1814903549
  0
LINE
  5
241
100
AcDbEntity
  8
RACCORDO
100
AcDbLine
 62
7
  6
CONTINUOUS
 10
-12.7875713651
 20
9.1892339631
 11
-12.6983982175
 21
9.2784071106
  0
LINE
  5
242
100
AcDbEntity
  8
ASSI
100
AcDbLine
 62
7
  6
CONTINUOUS
 10
-12.7875713651
 20
9.1892339631
 11
-12.6983982175
 21
9.2784071106
  0
LINE
  5
243
100
AcDbEntity
  8
RACCORDO
100
AcDbLine
 62
250
  6
CONTINUOUS
 10
-3.8660415487
 20
-14.3904545665
 11
-3.3663461352
 21
-14.3904545665
  0
LINE
  5
244
100
AcDbEntity
  8
ASSI
100
AcDbLine
 62
250
  6
CONTINUOUS
 10
-3.8660415487
 20
-14.3904545665
 11
-3.3663461352
 21
-14.3904545665
  0
LINE
  5
245
100
AcDbEntity
  8
RACCORDO
100
AcDbLine
 62
250
  6
CONTINUOUS
 10
3.4692451137
 20
-14.3904545665
 11
2.9695497002
 21
-14.3904545665
  0
LINE
  5
246
100
AcDbEntity
  8
ASSI
100
AcDbLine
 62
250
  6
CONTINUOUS
 10
3.4692451137
 20
-14.3904545665
 11
2.9695497002
 21
-14.3904545665
  0
LWPOLYLINE
  5
247
100
AcDbEntity
  8
RACCORDO
100
AcDbPolyline
 62
250
  6
CONTINUOUS
 90
13
 70
0
 10
-14.1014814618
 20
-3.4247065946
 10
-14.0997635262
 20
-3.4508019334
 10
-14.0946549486
 20
-3.4764511591
 10
-14.0862430273
 20
-3.5012155857
 10
-14.0746715556
 20
-3.5246716552
 10
-14.0601383803
 20
-3.5464181485
 10
-14.0428920349
 20
-3.5660830578
 10
-14.0232274432
 20
-3.5833300082
 10
-14.0014809133
 20
-3.5978639578
 10
-13.9780244284
 20
-3.6094362426
 10
-13.9532591997
 20
-3.617848893
 10
-13.9276087885
 20
-3.6229579967
 10
-13.9015119227
 20
-3.6246761336
  0
LWPOLYLINE
  5
248
100
AcDbEntity
  8
ASSI
100
AcDbPolyline
 62
250
  6
CONTINUOUS
 90
13
 70
0
 10
-14.1014814618
 20
-3.4247065946
 10
-14.0997635262
 20
-3.4508019334
 10
-14.0946549486
 20
-3.4764511591
 10
-14.0862430273
 20
-3.5012155857
 10
-14.0746715556
 20
-3.5246716552
 10
-14.0601383803
 20
-3.5464181485
 10
-14.0428920349
 20
-3.5660830578
 10
-14.0232274432
 20
-3.5833300082
 10
-14.0014809133
 20
-3.5978639578
 10
-13.9780244284
 20
-3.6094362426
 10
-13.9532591997
 20
-3.617848893
 10
-13.9276087885
 20
-3.6229579967
 10
-13.9015119227
 20
-3.6246761336
  0
LWPOLYLINE
  5
249
100
AcDbEntity
  8
RACCORDO
100
AcDbPolyline
 62
250
  6
CONTINUOUS
 90
8
 70
0
 10
-14.0801930764
 20
11.6780455887
 10
-14.0830549575
 20
11.754886192
 10
-14.0859986949
 20
11.8208200963
 10
-14.0890227152
 20
11.8759894534
 10
-14.0920870035
 20
11.9197123912
 10
-14.0951782215
 20
11.9517616188
 10
-14.0983097076
 20
11.972364427
 10
-14.1014814618
 20
11.9815208158
  0
LWPOLYLINE
  5
24A
100
AcDbEntity
  8
ASSI
100
AcDbPolyline
 62
250
  6
CONTINUOUS
 90
8
 70
0
 10
-14.0801930764
 20
11.6780455887
 10
-14.0830549575
 20
11.754886192
 10
-14.0859986949
 20
11.8208200963
 10
-14.0890227152
 20
11.8759894534
 10
-14.0920870035
 20
11.9197123912
 10
-14.0951782215
 20
11.9517616188
 10
-14.0983097076
 20
11.972364427
 10
-14.1014814618
 20
11.9815208158
  0
LWPOLYLINE
  5
24B
100
AcDbEntity
  8
RACCORDO
100
AcDbPolyline
 62
250
  6
CONTINUOUS
 90
8
 70
0
 10
-13.8802118967
 20
11.8559294756
 10
-13.8830718538
 20
11.9383128998
 10
-13.8860126646
 20
12.0091330164
 10
-13.889033772
 20
12.068110131
 10
-13.8920982787
 20
12.1150114924
 10
-13.8951938855
 20
12.1496370824
 10
-13.8983328917
 20
12.1718310033
 10
-13.9015152971
 20
12.181493992
  0
LWPOLYLINE
  5
24C
100
AcDbEntity
  8
ASSI
100
AcDbPolyline
 62
250
  6
CONTINUOUS
 90
8
 70
0
 10
-13.8802118967
 20
11.8559294756
 10
-13.8830718538
 20
11.9383128998
 10
-13.8860126646
 20
12.0091330164
 10
-13.889033772
 20
12.068110131
 10
-13.8920982787
 20
12.1150114924
 10
-13.8951938855
 20
12.1496370824
 10
-13.8983328917
 20
12.1718310033
 10
-13.9015152971
 20
12.181493992
  0
LINE
  5
24D
100
AcDbEntity
  8
RACCORDO
100
AcDbLine
 62
250
  6
CONTINUOUS
 10
-14.0747454573
 20
11.4931790685
 11
-14.0801930764
 21
11.6780455887
  0
LINE
  5
24E
100
AcDbEntity
  8
ASSI
100
AcDbLine
 62
250
  6
CONTINUOUS
 10
-14.0747454573
 20
11.4931790685
 11
-14.0801930764
 21
11.6780455887
  0
LINE
  5
24F
100
AcDbEntity
  8
RACCORDO
100
AcDbLine
 62
250
  6
CONTINUOUS
 10
-13.874768098
 20
11.6579387205
 11
-13.8802118967
 21
11.8559294756
  0
LINE
  5
250
100
AcDbEntity
  8
ASSI
100
AcDbLine
 62
250
  6
CONTINUOUS
 10
-13.874768098
 20
11.6579387205
 11
-13.8802118967
 21
11.8559294756
  0
LINE
  5
251
100
AcDbEntity
  8
RACCORDO
100
AcDbLine
 62
250
  6
CONTINUOUS
 10
-13.0165845357
 20
-3.2991159057
 11
-13.0220282844
 21
-3.1011270546
  0
LINE
  5
252
100
AcDbEntity
  8
ASSI
100
AcDbLine
 62
250
  6
CONTINUOUS
 10
-13.0165845357
 20
-3.2991159057
 11
-13.0220282844
 21
-3.1011270546
  0
LINE
  5
253
100
AcDbEntity
  8
RACCORDO
100
AcDbLine
 62
250
  6
CONTINUOUS
 10
-14.0697635912
 20
11.2694596385
 11
-14.0747454573
 21
11.4931790685
  0
LINE
  5
254
100
AcDbEntity
  8
ASSI
100
AcDbLine
 62
250
  6
CONTINUOUS
 10
-14.0697635912
 20
11.2694596385
 11
-14.0747454573
 21
11.4931790685
  0
LINE
  5
255
100
AcDbEntity
  8
RACCORDO
100
AcDbLine
 62
250
  6
CONTINUOUS
 10
-13.8697898404
 20
11.4185746526
 11
-13.874768098
 21
11.6579387205
  0
LINE
  5
256
100
AcDbEntity
  8
ASSI
100
AcDbLine
 62
250
  6
CONTINUOUS
 10
-13.8697898404
 20
11.4185746526
 11
-13.874768098
 21
11.6579387205
  0
LINE
  5
257
100
AcDbEntity
  8
RACCORDO
100
AcDbLine
 62
250
  6
CONTINUOUS
 10
-13.0220282844
 20
-3.1011270546
 11
-13.0270066083
 21
-2.8617598812
  0
LINE
  5
258
100
AcDbEntity
  8
ASSI
100
AcDbLine
 62
250
  6
CONTINUOUS
 10
-13.0220282844
 20
-3.1011270546
 11
-13.0270066083
 21
-2.8617598812
  0
LINE
  5
259
100
AcDbEntity
  8
RACCORDO
100
AcDbLine
 62
250
  6
CONTINUOUS
 10
-14.0633419149
 20
10.8699580695
 11
-14.0697635912
 21
11.2694596385
  0
LINE
  5
25A
100
AcDbEntity
  8
ASSI
100
AcDbLine
 62
250
  6
CONTINUOUS
 10
-14.0633419149
 20
10.8699580695
 11
-14.0697635912
 21
11.2694596385
  0
LINE
  5
25B
100
AcDbEntity
  8
RACCORDO
100
AcDbLine
 62
250
  6
CONTINUOUS
 10
-13.8633726893
 20
10.9908199183
 11
-13.8697898404
 21
11.4185746526
  0
LINE
  5
25C
100
AcDbEntity
  8
ASSI
100
AcDbLine
 62
250
  6
CONTINUOUS
 10
-13.8633726893
 20
10.9908199183
 11
-13.8697898404
 21
11.4185746526
  0
LINE
  5
25D
100
AcDbEntity
  8
RACCORDO
100
AcDbLine
 62
250
  6
CONTINUOUS
 10
-13.0270066083
 20
-2.8617598812
 11
-13.033423817
 21
-2.4339999883
  0
LINE
  5
25E
100
AcDbEntity
  8
ASSI
100
AcDbLine
 62
250
  6
CONTINUOUS
 10
-13.0270066083
 20
-2.8617598812
 11
-13.033423817
 21
-2.4339999883
  0
LINE
  5
25F
100
AcDbEntity
  8
RACCORDO
100
AcDbLine
 62
250
  6
CONTINUOUS
 10
-14.0583865199
 20
10.4068398387
 11
-14.0633419149
 21
10.8699580695
  0
LINE
  5
260
100
AcDbEntity
  8
ASSI
100
AcDbLine
 62
250
  6
CONTINUOUS
 10
-14.0583865199
 20
10.4068398387
 11
-14.0633419149
 21
10.8699580695
  0
LINE
  5
261
100
AcDbEntity
  8
RACCORDO
100
AcDbLine
 62
250
  6
CONTINUOUS
 10
-13.8571289659
 20
10.3177558313
 11
-13.8633726893
 21
10.9908199183
  0
LINE
  5
262
100
AcDbEntity
  8
ASSI
100
AcDbLine
 62
250
  6
CONTINUOUS
 10
-13.8571289659
 20
10.3177558313
 11
-13.8633726893
 21
10.9908199183
  0
LINE
  5
263
100
AcDbEntity
  8
RACCORDO
100
AcDbLine
 62
250
  6
CONTINUOUS
 10
-13.033423817
 20
-2.4339999883
 11
-13.0396674622
 21
-1.7609408505
  0
LINE
  5
264
100
AcDbEntity
  8
ASSI
100
AcDbLine
 62
250
  6
CONTINUOUS
 10
-13.033423817
 20
-2.4339999883
 11
-13.0396674622
 21
-1.7609408505
  0
LINE
  5
265
100
AcDbEntity
  8
RACCORDO
100
AcDbLine
 62
250
  6
CONTINUOUS
 10
-14.0543758031
 20
9.7213847092
 11
-14.0583865199
 21
10.4068398387
  0
LINE
  5
266
100
AcDbEntity
  8
ASSI
100
AcDbLine
 62
250
  6
CONTINUOUS
 10
-14.0543758031
 20
9.7213847092
 11
-14.0583865199
 21
10.4068398387
  0
LINE
  5
267
100
AcDbEntity
  8
RACCORDO
100
AcDbLine
 62
250
  6
CONTINUOUS
 10
-13.8539027047
 20
9.5691879253
 11
-13.8571289659
 21
10.3177558313
  0
LINE
  5
268
100
AcDbEntity
  8
ASSI
100
AcDbLine
 62
250
  6
CONTINUOUS
 10
-13.8539027047
 20
9.5691879253
 11
-13.8571289659
 21
10.3177558313
  0
LINE
  5
269
100
AcDbEntity
  8
RACCORDO
100
AcDbLine
 62
250
  6
CONTINUOUS
 10
-13.0396674622
 20
-1.7609408505
 11
-13.0428937607
 21
-1.0123648151
  0
LINE
  5
26A
100
AcDbEntity
  8
ASSI
100
AcDbLine
 62
250
  6
CONTINUOUS
 10
-13.0396674622
 20
-1.7609408505
 11
-13.0428937607
 21
-1.0123648151
  0
LINE
  5
26B
100
AcDbEntity
  8
RACCORDO
100
AcDbLine
 62
7
  6
CONTINUOUS
 10
-14.1983982175
 20
-3.521714724
 11
-14.1983982175
 21
-0.7215928894
  0
LINE
  5
26C
100
AcDbEntity
  8
ASSI
100
AcDbLine
 62
7
  6
CONTINUOUS
 10
-14.1983982175
 20
-3.521714724
 11
-14.1983982175
 21
-0.7215928894
  0
LINE
  5
26D
100
AcDbEntity
  8
RACCORDO
100
AcDbLine
 62
7
  6
CONTINUOUS
 10
-14.1983982175
 20
9.2784071106
 11
-14.1983982175
 21
12.0785289452
  0
LINE
  5
26E
100
AcDbEntity
  8
ASSI
100
AcDbLine
 62
7
  6
CONTINUOUS
 10
-14.1983982175
 20
9.2784071106
 11
-14.1983982175
 21
12.0785289452
  0
LINE
  5
26F
100
AcDbEntity
  8
RACCORDO
100
AcDbLine
 62
7
  6
CONTINUOUS
 10
-14.1006498539
 20
-0.1324958942
 11
-14.1006498539
 21
8.6893101155
  0
LINE
  5
270
100
AcDbEntity
  8
ASSI
100
AcDbLine
 62
7
  6
CONTINUOUS
 10
-14.1006498539
 20
-0.1324958942
 11
-14.1006498539
 21
8.6893101155
  0
LINE
  5
271
100
AcDbEntity
  8
RACCORDO
100
AcDbLine
 62
250
  6
CONTINUOUS
 10
-13.0428937607
 20
-1.0123648151
 11
-13.043305722
 21
9.1819472694
  0
LINE
  5
272
100
AcDbEntity
  8
ASSI
100
AcDbLine
 62
250
  6
CONTINUOUS
 10
-13.0428937607
 20
-1.0123648151
 11
-13.043305722
 21
9.1819472694
  0
LINE
  5
273
100
AcDbEntity
  8
RACCORDO
100
AcDbLine
 62
250
  6
CONTINUOUS
 10
-13.8544089853
 20
-1.2039523916
 11
-13.8539027047
 21
9.5691879253
  0
LINE
  5
274
100
AcDbEntity
  8
ASSI
100
AcDbLine
 62
250
  6
CONTINUOUS
 10
-13.8544089853
 20
-1.2039523916
 11
-13.8539027047
 21
9.5691879253
  0
LINE
  5
275
100
AcDbEntity
  8
RACCORDO
100
AcDbLine
 62
250
  6
CONTINUOUS
 10
-13.043305722
 20
9.1819472694
 11
-13.0416772765
 21
9.9498948011
  0
LINE
  5
276
100
AcDbEntity
  8
ASSI
100
AcDbLine
 62
250
  6
CONTINUOUS
 10
-13.043305722
 20
9.1819472694
 11
-13.0416772765
 21
9.9498948011
  0
LINE
  5
277
100
AcDbEntity
  8
RACCORDO
100
AcDbLine
 62
250
  6
CONTINUOUS
 10
-14.0550855663
 20
-1.3408625686
 11
-14.0543758031
 21
9.7213847092
  0
LINE
  5
278
100
AcDbEntity
  8
ASSI
100
AcDbLine
 62
250
  6
CONTINUOUS
 10
-14.0550855663
 20
-1.3408625686
 11
-14.0543758031
 21
9.7213847092
  0
LINE
  5
279
100
AcDbEntity
  8
RACCORDO
100
AcDbLine
 62
250
  6
CONTINUOUS
 10
-13.8584198978
 20
-1.9381692864
 11
-13.8544089853
 21
-1.2039523916
  0
LINE
  5
27A
100
AcDbEntity
  8
ASSI
100
AcDbLine
 62
250
  6
CONTINUOUS
 10
-13.8584198978
 20
-1.9381692864
 11
-13.8544089853
 21
-1.2039523916
  0
LINE
  5
27B
100
AcDbEntity
  8
RACCORDO
100
AcDbLine
 62
250
  6
CONTINUOUS
 10
-13.0416772765
 20
9.9498948011
 11
-13.0368966333
 21
10.6667266772
  0
LINE
  5
27C
100
AcDbEntity
  8
ASSI
100
AcDbLine
 62
250
  6
CONTINUOUS
 10
-13.0416772765
 20
9.9498948011
 11
-13.0368966333
 21
10.6667266772
  0
LINE
  5
27D
100
AcDbEntity
  8
RACCORDO
100
AcDbLine
 62
250
  6
CONTINUOUS
 10
-14.0598670844
 20
-2.0108812967
 11
-14.0550855663
 21
-1.3408625686
  0
LINE
  5
27E
100
AcDbEntity
  8
ASSI
100
AcDbLine
 62
250
  6
CONTINUOUS
 10
-14.0598670844
 20
-2.0108812967
 11
-14.0550855663
 21
-1.3408625686
  0
LINE
  5
27F
100
AcDbEntity
  8
RACCORDO
100
AcDbLine
 62
250
  6
CONTINUOUS
 10
-13.8633726893
 20
-2.434005697
 11
-13.8584198978
 21
-1.9381692864
  0
LINE
  5
280
100
AcDbEntity
  8
ASSI
100
AcDbLine
 62
250
  6
CONTINUOUS
 10
-13.8633726893
 20
-2.434005697
 11
-13.8584198978
 21
-1.9381692864
  0
LINE
  5
281
100
AcDbEntity
  8
RACCORDO
100
AcDbLine
 62
250
  6
CONTINUOUS
 10
-12.8384110661
 20
10.4067046231
 11
-12.8334568742
 21
10.8697800006
  0
LINE
  5
282
100
AcDbEntity
  8
ASSI
100
AcDbLine
 62
250
  6
CONTINUOUS
 10
-12.8384110661
 20
10.4067046231
 11
-12.8334568742
 21
10.8697800006
  0
LINE
  5
283
100
AcDbEntity
  8
RACCORDO
100
AcDbLine
 62
250
  6
CONTINUOUS
 10
-13.0368966333
 20
10.6667266772
 11
-13.0314309178
 21
11.1418036905
  0
LINE
  5
284
100
AcDbEntity
  8
ASSI
100
AcDbLine
 62
250
  6
CONTINUOUS
 10
-13.0368966333
 20
10.6667266772
 11
-13.0314309178
 21
11.1418036905
  0
LINE
  5
285
100
AcDbEntity
  8
RACCORDO
100
AcDbLine
 62
250
  6
CONTINUOUS
 10
-14.0653361809
 20
-2.4545507204
 11
-14.0598670844
 21
-2.0108812967
  0
LINE
  5
286
100
AcDbEntity
  8
ASSI
100
AcDbLine
 62
250
  6
CONTINUOUS
 10
-14.0653361809
 20
-2.4545507204
 11
-14.0598670844
 21
-2.0108812967
  0
LINE
  5
287
100
AcDbEntity
  8
RACCORDO
100
AcDbLine
 62
250
  6
CONTINUOUS
 10
-13.8697898404
 20
-2.8617604313
 11
-13.8633726893
 21
-2.434005697
  0
LINE
  5
288
100
AcDbEntity
  8
ASSI
100
AcDbLine
 62
250
  6
CONTINUOUS
 10
-13.8697898404
 20
-2.8617604313
 11
-13.8633726893
 21
-2.434005697
  0
LINE
  5
289
100
AcDbEntity
  8
RACCORDO
100
AcDbLine
 62
250
  6
CONTINUOUS
 10
-13.0314309178
 20
11.1418036905
 11
-13.0270066083
 21
11.4185741024
  0
LINE
  5
28A
100
AcDbEntity
  8
ASSI
100
AcDbLine
 62
250
  6
CONTINUOUS
 10
-13.0314309178
 20
11.1418036905
 11
-13.0270066083
 21
11.4185741024
  0
LINE
  5
28B
100
AcDbEntity
  8
RACCORDO
100
AcDbLine
 62
250
  6
CONTINUOUS
 10
-14.0697635912
 20
-2.7126454172
 11
-14.0653361809
 21
-2.4545507204
  0
LINE
  5
28C
100
AcDbEntity
  8
ASSI
100
AcDbLine
 62
250
  6
CONTINUOUS
 10
-14.0697635912
 20
-2.7126454172
 11
-14.0653361809
 21
-2.4545507204
  0
LINE
  5
28D
100
AcDbEntity
  8
RACCORDO
100
AcDbLine
 62
250
  6
CONTINUOUS
 10
-12.8334568742
 20
10.8697800006
 11
-12.8270363521
 21
11.2692791082
  0
LINE
  5
28E
100
AcDbEntity
  8
ASSI
100
AcDbLine
 62
250
  6
CONTINUOUS
 10
-12.8334568742
 20
10.8697800006
 11
-12.8270363521
 21
11.2692791082
  0
LINE
  5
28F
100
AcDbEntity
  8
RACCORDO
100
AcDbLine
 62
250
  6
CONTINUOUS
 10
-13.874768098
 20
-3.1011244992
 11
-13.8697898404
 21
-2.8617604313
  0
LINE
  5
290
100
AcDbEntity
  8
ASSI
100
AcDbLine
 62
250
  6
CONTINUOUS
 10
-13.874768098
 20
-3.1011244992
 11
-13.8697898404
 21
-2.8617604313
  0
LINE
  5
291
100
AcDbEntity
  8
RACCORDO
100
AcDbLine
 62
250
  6
CONTINUOUS
 10
-13.0270066083
 20
11.4185741024
 11
-13.0220282844
 21
11.6579412759
  0
LINE
  5
292
100
AcDbEntity
  8
ASSI
100
AcDbLine
 62
250
  6
CONTINUOUS
 10
-13.0270066083
 20
11.4185741024
 11
-13.0220282844
 21
11.6579412759
  0
LINE
  5
293
100
AcDbEntity
  8
RACCORDO
100
AcDbLine
 62
250
  6
CONTINUOUS
 10
-14.0747454573
 20
-2.9363648472
 11
-14.0697635912
 21
-2.7126454172
  0
LINE
  5
294
100
AcDbEntity
  8
ASSI
100
AcDbLine
 62
250
  6
CONTINUOUS
 10
-14.0747454573
 20
-2.9363648472
 11
-14.0697635912
 21
-2.7126454172
  0
LINE
  5
295
100
AcDbEntity
  8
RACCORDO
100
AcDbLine
 62
250
  6
CONTINUOUS
 10
-12.8270363521
 20
11.2692791082
 11
-12.8220550308
 21
11.4930206713
  0
LINE
  5
296
100
AcDbEntity
  8
ASSI
100
AcDbLine
 62
250
  6
CONTINUOUS
 10
-12.8270363521
 20
11.2692791082
 11
-12.8220550308
 21
11.4930206713
  0
LWPOLYLINE
  5
297
100
AcDbEntity
  8
RACCORDO
100
AcDbPolyline
 62
250
  6
CONTINUOUS
 90
9
 70
0
 10
-13.0220282844
 20
11.6579412759
 10
-13.0165845357
 20
11.855930127
 10
-13.0137246007
 20
11.9383128549
 10
-13.0107837704
 20
12.0091333006
 10
-13.007762631
 20
12.0681108193
 10
-13.0046981346
 20
12.1150118357
 10
-13.0016025986
 20
12.1496366572
 10
-12.9984637057
 20
12.1718301823
 10
-12.9952814558
 20
12.1814936501
  0
LWPOLYLINE
  5
298
100
AcDbEntity
  8
ASSI
100
AcDbPolyline
 62
250
  6
CONTINUOUS
 90
9
 70
0
 10
-13.0220282844
 20
11.6579412759
 10
-13.0165845357
 20
11.855930127
 10
-13.0137246007
 20
11.9383128549
 10
-13.0107837704
 20
12.0091333006
 10
-13.007762631
 20
12.0681108193
 10
-13.0046981346
 20
12.1150118357
 10
-13.0016025986
 20
12.1496366572
 10
-12.9984637057
 20
12.1718301823
 10
-12.9952814558
 20
12.1814936501
  0
LWPOLYLINE
  5
299
100
AcDbEntity
  8
RACCORDO
100
AcDbPolyline
 62
250
  6
CONTINUOUS
 90
9
 70
0
 10
-12.8220550308
 20
11.4930206713
 10
-12.8166080091
 20
11.6779122747
 10
-12.8137463868
 20
11.7547674625
 10
-12.8108030614
 20
11.8207172292
 10
-12.8077794134
 20
11.875903815
 10
-12.8047148409
 20
11.9196456259
 10
-12.8016224763
 20
11.9517154641
 10
-12.7984891871
 20
11.9723405274
 10
-12.7953149733
 20
11.9815208158
  0
LWPOLYLINE
  5
29A
100
AcDbEntity
  8
ASSI
100
AcDbPolyline
 62
250
  6
CONTINUOUS
 90
9
 70
0
 10
-12.8220550308
 20
11.4930206713
 10
-12.8166080091
 20
11.6779122747
 10
-12.8137463868
 20
11.7547674625
 10
-12.8108030614
 20
11.8207172292
 10
-12.8077794134
 20
11.875903815
 10
-12.8047148409
 20
11.9196456259
 10
-12.8016224763
 20
11.9517154641
 10
-12.7984891871
 20
11.9723405274
 10
-12.7953149733
 20
11.9815208158
  0
LWPOLYLINE
  5
29B
100
AcDbEntity
  8
RACCORDO
100
AcDbPolyline
 62
7
  6
CONTINUOUS
 90
25
 70
0
 10
-12.6983982175
 20
12.478285276
 10
-12.6988405162
 20
12.465120863
 10
-12.7001194388
 20
12.4521227643
 10
-12.7022349855
 20
12.4392909799
 10
-12.7052031586
 20
12.4265721441
 10
-12.7090079557
 20
12.4140196227
 10
-12.7136013694
 20
12.4017935125
 10
-12.7189935982
 20
12.3898978941
 10
-12.7251744435
 20
12.3783286868
 10
-12.7320653019
 20
12.3672337459
 10
-12.7396753512
 20
12.3566191764
 10
-12.7479954136
 20
12.3464788732
 10
-12.7569193524
 20
12.336942376
 10
-12.7664549648
 20
12.3280174782
 10
-12.7765944536
 20
12.3196963864
 10
-12.7872082904
 20
12.312085259
 10
-12.7983025846
 20
12.3051932735
 10
-12.8098712267
 20
12.2990112524
 10
-12.8217663602
 20
12.2936178222
 10
-12.833992067
 20
12.2890231841
 10
-12.846544265
 20
12.2852171369
 10
-12.8592628515
 20
12.2822477023
 10
-12.8720944589
 20
12.2801308875
 10
-12.8850924547
 20
12.2788506853
 10
-12.898256839
 20
12.2784070958
  0
LWPOLYLINE
  5
29C
100
AcDbEntity
  8
ASSI
100
AcDbPolyline
 62
7
  6
CONTINUOUS
 90
25
 70
0
 10
-12.6983982175
 20
12.478285276
 10
-12.6988405162
 20
12.465120863
 10
-12.7001194388
 20
12.4521227643
 10
-12.7022349855
 20
12.4392909799
 10
-12.7052031586
 20
12.4265721441
 10
-12.7090079557
 20
12.4140196227
 10
-12.7136013694
 20
12.4017935125
 10
-12.7189935982
 20
12.3898978941
 10
-12.7251744435
 20
12.3783286868
 10
-12.7320653019
 20
12.3672337459
 10
-12.7396753512
 20
12.3566191764
 10
-12.7479954136
 20
12.3464788732
 10
-12.7569193524
 20
12.336942376
 10
-12.7664549648
 20
12.3280174782
 10
-12.7765944536
 20
12.3196963864
 10
-12.7872082904
 20
12.312085259
 10
-12.7983025846
 20
12.3051932735
 10
-12.8098712267
 20
12.2990112524
 10
-12.8217663602
 20
12.2936178222
 10
-12.833992067
 20
12.2890231841
 10
-12.846544265
 20
12.2852171369
 10
-12.8592628515
 20
12.2822477023
 10
-12.8720944589
 20
12.2801308875
 10
-12.8850924547
 20
12.2788506853
 10
-12.898256839
 20
12.2784070958
  0
LWPOLYLINE
  5
29D
100
AcDbEntity
  8
RACCORDO
100
AcDbPolyline
 62
250
  6
CONTINUOUS
 90
22
 70
0
 10
-12.399743761
 20
13.9807940203
 10
-12.3940327155
 20
14.1301742611
 10
-12.3771798919
 20
14.2786963265
 10
-12.3492842636
 20
14.4255309615
 10
-12.3105085152
 20
14.5698526491
 10
-12.2610726737
 20
14.7108632091
 10
-12.2012481093
 20
14.8477946307
 10
-12.1313657135
 20
14.9798882348
 10
-12.0518183669
 20
15.1064005297
 10
-11.9630500027
 20
15.2266251776
 10
-11.8655563667
 20
15.3398908098
 10
-11.7598819188
 20
15.4455652558
 10
-11.6466162846
 20
15.5430588903
 10
-11.5263916351
 20
15.6318272533
 10
-11.3998793385
 20
15.7113745992
 10
-11.2677857321
 20
15.7812569947
 10
-11.1308545056
 20
15.8410814808
 10
-10.9898441505
 20
15.890517274
 10
-10.8455220513
 20
15.9292931491
 10
-10.6986861476
 20
15.9571889712
 10
-10.5501621544
 20
15.9740418474
 10
-10.4007793426
 20
15.9797526591
  0
LWPOLYLINE
  5
29E
100
AcDbEntity
  8
ASSI
100
AcDbPolyline
 62
250
  6
CONTINUOUS
 90
22
 70
0
 10
-12.399743761
 20
13.9807940203
 10
-12.3940327155
 20
14.1301742611
 10
-12.3771798919
 20
14.2786963265
 10
-12.3492842636
 20
14.4255309615
 10
-12.3105085152
 20
14.5698526491
 10
-12.2610726737
 20
14.7108632091
 10
-12.2012481093
 20
14.8477946307
 10
-12.1313657135
 20
14.9798882348
 10
-12.0518183669
 20
15.1064005297
 10
-11.9630500027
 20
15.2266251776
 10
-11.8655563667
 20
15.3398908098
 10
-11.7598819188
 20
15.4455652558
 10
-11.6466162846
 20
15.5430588903
 10
-11.5263916351
 20
15.6318272533
 10
-11.3998793385
 20
15.7113745992
 10
-11.2677857321
 20
15.7812569947
 10
-11.1308545056
 20
15.8410814808
 10
-10.9898441505
 20
15.890517274
 10
-10.8455220513
 20
15.9292931491
 10
-10.6986861476
 20
15.9571889712
 10
-10.5501621544
 20
15.9740418474
 10
-10.4007793426
 20
15.9797526591
  0
LINE
  5
29F
100
AcDbEntity
  8
CURVE
100
AcDbLine
 62
250
  6
CONTINUOUS
 10
-9.9841124937
 20
8.2784071106
 11
-10.1983982175
 21
7.9569785137
  0
LWPOLYLINE
  5
2A0
100
AcDbEntity
  8
RACCORDO
100
AcDbPolyline
 62
250
  6
CONTINUOUS
 90
8
 70
0
 10
-12.7953149733
 20
-3.4247065946
 10
-12.7984891871
 20
-3.4155263061
 10
-12.8016224763
 20
-3.3949012428
 10
-12.8047148409
 20
-3.3628314047
 10
-12.8077794134
 20
-3.3190895937
 10
-12.8108030614
 20
-3.2639030079
 10
-12.8137463868
 20
-3.1979532413
 10
-12.8166080091
 20
-3.1210980534
  0
LWPOLYLINE
  5
2A1
100
AcDbEntity
  8
ASSI
100
AcDbPolyline
 62
250
  6
CONTINUOUS
 90
8
 70
0
 10
-12.7953149733
 20
-3.4247065946
 10
-12.7984891871
 20
-3.4155263061
 10
-12.8016224763
 20
-3.3949012428
 10
-12.8047148409
 20
-3.3628314047
 10
-12.8077794134
 20
-3.3190895937
 10
-12.8108030614
 20
-3.2639030079
 10
-12.8137463868
 20
-3.1979532413
 10
-12.8166080091
 20
-3.1210980534
  0
LWPOLYLINE
  5
2A2
100
AcDbEntity
  8
RACCORDO
100
AcDbPolyline
 62
250
  6
CONTINUOUS
 90
8
 70
0
 10
-12.9952814555
 20
-3.6246794291
 10
-12.9984637055
 20
-3.6150159619
 10
-13.0016025985
 20
-3.5928224365
 10
-13.0046981346
 20
-3.5581976144
 10
-13.007762631
 20
-3.5112965976
 10
-13.0107837704
 20
-3.4523190791
 10
-13.0137246007
 20
-3.3814986336
 10
-13.0165845357
 20
-3.2991159057
  0
LWPOLYLINE
  5
2A3
100
AcDbEntity
  8
ASSI
100
AcDbPolyline
 62
250
  6
CONTINUOUS
 90
8
 70
0
 10
-12.9952814555
 20
-3.6246794291
 10
-12.9984637055
 20
-3.6150159619
 10
-13.0016025985
 20
-3.5928224365
 10
-13.0046981346
 20
-3.5581976144
 10
-13.007762631
 20
-3.5112965976
 10
-13.0107837704
 20
-3.4523190791
 10
-13.0137246007
 20
-3.3814986336
 10
-13.0165845357
 20
-3.2991159057
  0
LINE
  5
2A4
100
AcDbEntity
  8
RACCORDO
100
AcDbLine
 62
250
  6
CONTINUOUS
 10
-12.8166080091
 20
-3.1210980534
 11
-12.8220550308
 21
-2.93620645
  0
LINE
  5
2A5
100
AcDbEntity
  8
ASSI
100
AcDbLine
 62
250
  6
CONTINUOUS
 10
-12.8166080091
 20
-3.1210980534
 11
-12.8220550308
 21
-2.93620645
  0
LINE
  5
2A6
100
AcDbEntity
  8
RACCORDO
100
AcDbLine
 62
250
  6
CONTINUOUS
 10
-12.8220550308
 20
-2.93620645
 11
-12.8270363521
 21
-2.7124648869
  0
LINE
  5
2A7
100
AcDbEntity
  8
ASSI
100
AcDbLine
 62
250
  6
CONTINUOUS
 10
-12.8220550308
 20
-2.93620645
 11
-12.8270363521
 21
-2.7124648869
  0
LINE
  5
2A8
100
AcDbEntity
  8
RACCORDO
100
AcDbLine
 62
250
  6
CONTINUOUS
 10
-12.8270363521
 20
-2.7124648869
 11
-12.8334568742
 21
-2.3129657793
  0
LINE
  5
2A9
100
AcDbEntity
  8
ASSI
100
AcDbLine
 62
250
  6
CONTINUOUS
 10
-12.8270363521
 20
-2.7124648869
 11
-12.8334568742
 21
-2.3129657793
  0
LINE
  5
2AA
100
AcDbEntity
  8
RACCORDO
100
AcDbLine
 62
250
  6
CONTINUOUS
 10
-12.8334568742
 20
-2.3129657793
 11
-12.8384110661
 21
-1.8498904018
  0
LINE
  5
2AB
100
AcDbEntity
  8
ASSI
100
AcDbLine
 62
250
  6
CONTINUOUS
 10
-12.8334568742
 20
-2.3129657793
 11
-12.8384110661
 21
-1.8498904018
  0
LINE
  5
2AC
100
AcDbEntity
  8
RACCORDO
100
AcDbLine
 62
250
  6
CONTINUOUS
 10
-12.8384110661
 20
-1.8498904018
 11
-12.8424208966
 21
-1.1644935814
  0
LINE
  5
2AD
100
AcDbEntity
  8
ASSI
100
AcDbLine
 62
250
  6
CONTINUOUS
 10
-12.8384110661
 20
-1.8498904018
 11
-12.8424208966
 21
-1.1644935814
  0
LINE
  5
2AE
100
AcDbEntity
  8
RACCORDO
100
AcDbLine
 62
250
  6
CONTINUOUS
 10
-12.8424208966
 20
-1.1644935814
 11
-12.843336183
 21
9.1819472694
  0
LINE
  5
2AF
100
AcDbEntity
  8
ASSI
100
AcDbLine
 62
250
  6
CONTINUOUS
 10
-12.8424208966
 20
-1.1644935814
 11
-12.843336183
 21
9.1819472694
  0
LINE
  5
2B0
100
AcDbEntity
  8
RACCORDO
100
AcDbLine
 62
7
  6
CONTINUOUS
 10
-12.7961465811
 20
-0.1324958942
 11
-12.7961465811
 21
8.6893101155
  0
LINE
  5
2B1
100
AcDbEntity
  8
ASSI
100
AcDbLine
 62
7
  6
CONTINUOUS
 10
-12.7961465811
 20
-0.1324958942
 11
-12.7961465811
 21
8.6893101155
  0
LINE
  5
2B2
100
AcDbEntity
  8
RACCORDO
100
AcDbLine
 62
7
  6
CONTINUOUS
 10
-12.6983982175
 20
-5.7228112353
 11
-12.6983982175
 21
-0.4715928894
  0
LINE
  5
2B3
100
AcDbEntity
  8
DRAFT
100
AcDbLine
 62
7
  6
CONTINUOUS
 10
-12.6983982175
 20
-0.7215928894
 11
-12.6983982175
 21
-0.3842909656
  0
LINE
  5
2B4
100
AcDbEntity
  8
ASSI
100
AcDbLine
 62
7
  6
CONTINUOUS
 10
-12.6983982175
 20
-5.7228112353
 11
-12.6983982175
 21
-0.3842909656
  0
LINE
  5
2B5
100
AcDbEntity
  8
DRAFT
100
AcDbLine
 62
7
  6
CONTINUOUS
 10
-12.6983982175
 20
8.9411051869
 11
-12.6983982175
 21
9.2784071106
  0
LINE
  5
2B6
100
AcDbEntity
  8
RACCORDO
100
AcDbLine
 62
7
  6
CONTINUOUS
 10
-12.6983982175
 20
9.0284071106
 11
-12.6983982175
 21
14.2796254566
  0
LINE
  5
2B7
100
AcDbEntity
  8
ASSI
100
AcDbLine
 62
7
  6
CONTINUOUS
 10
-12.6983982175
 20
8.9411051869
 11
-12.6983982175
 21
14.2796254566
  0
LINE
  5
2B8
100
AcDbEntity
  8
RACCORDO
100
AcDbLine
 62
7
  6
CONTINUOUS
 10
-12.5063339853
 20
8.546636246
 11
-12.5063339853
 21
0.0101779753
  0
LINE
  5
2B9
100
AcDbEntity
  8
ASSI
100
AcDbLine
 62
7
  6
CONTINUOUS
 10
-12.5063339853
 20
8.546636246
 11
-12.5063339853
 21
0.0101779753
  0
LINE
  5
2BA
100
AcDbEntity
  8
RACCORDO
100
AcDbLine
 62
250
  6
CONTINUOUS
 10
-12.3997436009
 20
-5.4239738409
 11
-12.3997436009
 21
13.9807938522
  0
LINE
  5
2BB
100
AcDbEntity
  8
ASSI
100
AcDbLine
 62
250
  6
CONTINUOUS
 10
-12.3997436009
 20
-5.4239738409
 11
-12.3997436009
 21
13.9807938522
  0
LINE
  5
2BC
100
AcDbEntity
  8
RACCORDO
100
AcDbLine
 62
250
  6
CONTINUOUS
 10
-12.843336183
 20
9.1819472694
 11
-12.8417112796
 21
9.8975838654
  0
LINE
  5
2BD
100
AcDbEntity
  8
ASSI
100
AcDbLine
 62
250
  6
CONTINUOUS
 10
-12.843336183
 20
9.1819472694
 11
-12.8417112796
 21
9.8975838654
  0
LINE
  5
2BE
100
AcDbEntity
  8
RACCORDO
100
AcDbLine
 62
250
  6
CONTINUOUS
 10
-12.8417112796
 20
9.8975838654
 11
-12.8384110661
 21
10.4067046231
  0
LINE
  5
2BF
100
AcDbEntity
  8
ASSI
100
AcDbLine
 62
250
  6
CONTINUOUS
 10
-12.8417112796
 20
9.8975838654
 11
-12.8384110661
 21
10.4067046231
  0
LWPOLYLINE
  5
2C0
100
AcDbEntity
  8
RACCORDO
100
AcDbPolyline
 62
7
  6
CONTINUOUS
 90
25
 70
0
 10
-12.6983982175
 20
-3.5216233503
 10
-12.6988410348
 20
-3.5347894227
 10
-12.7001206395
 20
-3.5477891305
 10
-12.7022370314
 20
-3.5606224737
 10
-12.7052063388
 20
-3.5733427922
 10
-12.7090124335
 20
-3.585896746
 10
-12.713606931
 20
-3.5981243163
 10
-12.7189999481
 20
-3.6100213501
 10
-12.725181368
 20
-3.6215920003
 10
-12.7320724563
 20
-3.6326887067
 10
-12.7396823182
 20
-3.6433053947
 10
-12.7480018485
 20
-3.6534481388
 10
-12.7569249971
 20
-3.6629876024
 10
-12.7664595062
 20
-3.6719160481
 10
-12.7765976335
 20
-3.6802412132
 10
-12.7872101015
 20
-3.6878569734
 10
-12.7983029904
 20
-3.6947542267
 10
-12.8098702199
 20
-3.7009420751
 10
-12.8217642711
 20
-3.7063417
 10
-12.8339893026
 20
-3.7109429858
 10
-12.8465411557
 20
-3.7147560481
 10
-12.8592598354
 20
-3.7177324152
 10
-12.87209201
 20
-3.7198559301
 10
-12.8850910112
 20
-3.7211427498
 10
-12.898256839
 20
-3.7215928745
  0
LWPOLYLINE
  5
2C1
100
AcDbEntity
  8
ASSI
100
AcDbPolyline
 62
7
  6
CONTINUOUS
 90
25
 70
0
 10
-12.6983982175
 20
-3.5216233503
 10
-12.6988410348
 20
-3.5347894227
 10
-12.7001206395
 20
-3.5477891305
 10
-12.7022370314
 20
-3.5606224737
 10
-12.7052063388
 20
-3.5733427922
 10
-12.7090124335
 20
-3.585896746
 10
-12.713606931
 20
-3.5981243163
 10
-12.7189999481
 20
-3.6100213501
 10
-12.725181368
 20
-3.6215920003
 10
-12.7320724563
 20
-3.6326887067
 10
-12.7396823182
 20
-3.6433053947
 10
-12.7480018485
 20
-3.6534481388
 10
-12.7569249971
 20
-3.6629876024
 10
-12.7664595062
 20
-3.6719160481
 10
-12.7765976335
 20
-3.6802412132
 10
-12.7872101015
 20
-3.6878569734
 10
-12.7983029904
 20
-3.6947542267
 10
-12.8098702199
 20
-3.7009420751
 10
-12.8217642711
 20
-3.7063417
 10
-12.8339893026
 20
-3.7109429858
 10
-12.8465411557
 20
-3.7147560481
 10
-12.8592598354
 20
-3.7177324152
 10
-12.87209201
 20
-3.7198559301
 10
-12.8850910112
 20
-3.7211427498
 10
-12.898256839
 20
-3.7215928745
  0
LINE
  5
2C2
100
AcDbEntity
  8
CURVE
100
AcDbLine
 62
250
  6
CONTINUOUS
 10
-9.1619222175
 20
12.0644571106
 11
-8.6708712175
 21
13.7851031106
  0
LINE
  5
2C3
100
AcDbEntity
  8
CURVE
100
AcDbLine
 62
250
  6
CONTINUOUS
 10
-8.1494352175
 20
13.7851031106
 11
-8.9529502175
 21
11.2853671106
  0
LWPOLYLINE
  5
2C4
100
AcDbEntity
  8
RACCORDO
100
AcDbPolyline
 62
250
  6
CONTINUOUS
 90
9
 70
0
 10
-13.9015152973
 20
-3.6246797709
 10
-13.8983328918
 20
-3.6150167826
 10
-13.8951938856
 20
-3.5928228615
 10
-13.8920982787
 20
-3.5581972711
 10
-13.889033772
 20
-3.5112959095
 10
-13.8860126646
 20
-3.452318795
 10
-13.8830718538
 20
-3.3814986785
 10
-13.8802118967
 20
-3.2991152543
 10
-13.874768098
 20
-3.1011244992
  0
LWPOLYLINE
  5
2C5
100
AcDbEntity
  8
ASSI
100
AcDbPolyline
 62
250
  6
CONTINUOUS
 90
9
 70
0
 10
-13.9015152973
 20
-3.6246797709
 10
-13.8983328918
 20
-3.6150167826
 10
-13.8951938856
 20
-3.5928228615
 10
-13.8920982787
 20
-3.5581972711
 10
-13.889033772
 20
-3.5112959095
 10
-13.8860126646
 20
-3.452318795
 10
-13.8830718538
 20
-3.3814986785
 10
-13.8802118967
 20
-3.2991152543
 10
-13.874768098
 20
-3.1011244992
  0
LWPOLYLINE
  5
2C6
100
AcDbEntity
  8
RACCORDO
100
AcDbPolyline
 62
250
  6
CONTINUOUS
 90
9
 70
0
 10
-14.1014814618
 20
-3.4247065946
 10
-14.0983097076
 20
-3.4155502057
 10
-14.0951782215
 20
-3.3949473975
 10
-14.0920870035
 20
-3.3628981699
 10
-14.0890227152
 20
-3.3191752322
 10
-14.0859986949
 20
-3.2640058751
 10
-14.0830549575
 20
-3.1980719708
 10
-14.0801930764
 20
-3.1212313674
 10
-14.0747454573
 20
-2.9363648472
  0
LWPOLYLINE
  5
2C7
100
AcDbEntity
  8
ASSI
100
AcDbPolyline
 62
250
  6
CONTINUOUS
 90
9
 70
0
 10
-14.1014814618
 20
-3.4247065946
 10
-14.0983097076
 20
-3.4155502057
 10
-14.0951782215
 20
-3.3949473975
 10
-14.0920870035
 20
-3.3628981699
 10
-14.0890227152
 20
-3.3191752322
 10
-14.0859986949
 20
-3.2640058751
 10
-14.0830549575
 20
-3.1980719708
 10
-14.0801930764
 20
-3.1212313674
 10
-14.0747454573
 20
-2.9363648472
  0
LINE
  5
2C8
100
AcDbEntity
  8
CURVE
100
AcDbLine
 62
250
  6
CONTINUOUS
 10
-8.805541113
 20
8.2784071106
 11
-9.0198268145
 21
7.9569785137
  0
LINE
  5
2C9
100
AcDbEntity
  8
CURVE
100
AcDbLine
 62
250
  6
CONTINUOUS
 10
-10.1983982175
 20
6.7784071106
 11
-9.4483982175
 21
7.8498357076
  0
LINE
  5
2CA
100
AcDbEntity
  8
RACCORDO
100
AcDbLine
 62
250
  6
CONTINUOUS
 10
-12.8983677565
 20
-3.7215928894
 11
-12.9952812108
 21
-3.6246794351
  0
LINE
  5
2CB
100
AcDbEntity
  8
ASSI
100
AcDbLine
 62
250
  6
CONTINUOUS
 10
-12.8983677565
 20
-3.7215928894
 11
-12.9952812108
 21
-3.6246794351
  0
LINE
  5
2CC
100
AcDbEntity
  8
RACCORDO
100
AcDbLine
 62
250
  6
CONTINUOUS
 10
-10.9006573604
 20
-5.4241566187
 11
-10.9006573604
 21
13.98097084
  0
LINE
  5
2CD
100
AcDbEntity
  8
ASSI
100
AcDbLine
 62
250
  6
CONTINUOUS
 10
-10.9006573604
 20
-5.4241566187
 11
-10.9006573604
 21
13.98097084
  0
LINE
  5
2CE
100
AcDbEntity
  8
RACCORDO
100
AcDbLine
 62
250
  6
CONTINUOUS
 10
-10.4009619469
 20
15.979752494
 11
-10.4009619469
 21
14.4806662535
  0
LINE
  5
2CF
100
AcDbEntity
  8
ASSI
100
AcDbLine
 62
250
  6
CONTINUOUS
 10
-10.4009619469
 20
15.979752494
 11
-10.4009619469
 21
14.4806662535
  0
LINE
  5
2D0
100
AcDbEntity
  8
RACCORDO
100
AcDbLine
 62
250
  6
CONTINUOUS
 10
-10.4009619469
 20
-7.4229382728
 11
-10.4009619469
 21
-5.9238520322
  0
LINE
  5
2D1
100
AcDbEntity
  8
ASSI
100
AcDbLine
 62
250
  6
CONTINUOUS
 10
-10.4009619469
 20
-7.4229382728
 11
-10.4009619469
 21
-5.9238520322
  0
LINE
  5
2D2
100
AcDbEntity
  8
CURVE
100
AcDbLine
 62
250
  6
CONTINUOUS
 10
-10.1983982175
 20
5.1355500061
 11
-10.1983982175
 21
5.7784071106
  0
LWPOLYLINE
  5
2D3
100
AcDbEntity
  8
RACCORDO
100
AcDbPolyline
 62
250
  6
CONTINUOUS
 90
22
 70
0
 10
-10.9006573604
 20
13.98097084
 10
-10.8992213265
 20
14.0185429537
 10
-10.8950662595
 20
14.0555337504
 10
-10.8881921597
 20
14.0919432302
 10
-10.8785305128
 20
14.1279810004
 10
-10.866149833
 20
14.1634374536
 10
-10.8512556621
 20
14.1976837682
 10
-10.8338060538
 20
14.2306868498
 10
-10.8138429545
 20
14.2624797927
 10
-10.7916977446
 20
14.292533058
 10
-10.7673332402
 20
14.3208177126
 10
-10.7407866252
 20
14.3473626895
 10
-10.7125008322
 20
14.3717252488
 10
-10.6824470954
 20
14.3938681166
 10
-10.6506541807
 20
14.4138285668
 10
-10.6176513181
 20
14.4312756813
 10
-10.5834046118
 20
14.446167681
 10
-10.5479479576
 20
14.458546345
 10
-10.5119122723
 20
14.4682060924
 10
-10.4755078616
 20
14.4750783961
 10
-10.4385244198
 20
14.4792317831
 10
-10.4009619469
 20
14.4806662535
  0
LWPOLYLINE
  5
2D4
100
AcDbEntity
  8
ASSI
100
AcDbPolyline
 62
250
  6
CONTINUOUS
 90
22
 70
0
 10
-10.9006573604
 20
13.98097084
 10
-10.8992213265
 20
14.0185429537
 10
-10.8950662595
 20
14.0555337504
 10
-10.8881921597
 20
14.0919432302
 10
-10.8785305128
 20
14.1279810004
 10
-10.866149833
 20
14.1634374536
 10
-10.8512556621
 20
14.1976837682
 10
-10.8338060538
 20
14.2306868498
 10
-10.8138429545
 20
14.2624797927
 10
-10.7916977446
 20
14.292533058
 10
-10.7673332402
 20
14.3208177126
 10
-10.7407866252
 20
14.3473626895
 10
-10.7125008322
 20
14.3717252488
 10
-10.6824470954
 20
14.3938681166
 10
-10.6506541807
 20
14.4138285668
 10
-10.6176513181
 20
14.4312756813
 10
-10.5834046118
 20
14.446167681
 10
-10.5479479576
 20
14.458546345
 10
-10.5119122723
 20
14.4682060924
 10
-10.4755078616
 20
14.4750783961
 10
-10.4385244198
 20
14.4792317831
 10
-10.4009619469
 20
14.4806662535
  0
LINE
  5
2D5
100
AcDbEntity
  8
CURVE
100
AcDbLine
 62
250
  6
CONTINUOUS
 10
-9.1269696205
 20
5.3498357076
 11
-9.0198268145
 21
5.5641214091
  0
LINE
  5
2D6
100
AcDbEntity
  8
CURVE
100
AcDbLine
 62
250
  6
CONTINUOUS
 10
-7.8412554115
 20
7.8498357076
 11
-7.7341124266
 21
8.0641214091
  0
LINE
  5
2D7
100
AcDbEntity
  8
CURVE
100
AcDbLine
 62
250
  6
CONTINUOUS
 10
-9.0198268145
 20
6.7784071106
 11
-8.2698268145
 21
7.8498357076
  0
LINE
  5
2D8
100
AcDbEntity
  8
CURVE
100
AcDbLine
 62
250
  6
CONTINUOUS
 10
-7.7341124266
 20
8.0641214091
 11
-7.5198268145
 21
8.2784071106
  0
LINE
  5
2D9
100
AcDbEntity
  8
CURVE
100
AcDbLine
 62
250
  6
CONTINUOUS
 10
-9.0198268145
 20
5.5641214091
 11
-8.805541113
 21
5.7784071106
  0
LINE
  5
2DA
100
AcDbEntity
  8
CURVE
100
AcDbLine
 62
250
  6
CONTINUOUS
 10
-7.1983982175
 20
6.9926928345
 11
-7.4126840084
 21
6.7784071106
  0
LINE
  5
2DB
100
AcDbEntity
  8
RACCORDO
100
AcDbLine
 62
250
  6
CONTINUOUS
 10
-12.6983982175
 20
-3.5216233503
 11
-12.7953149733
 21
-3.4247065946
  0
LINE
  5
2DC
100
AcDbEntity
  8
ASSI
100
AcDbLine
 62
250
  6
CONTINUOUS
 10
-12.6983982175
 20
-3.5216233503
 11
-12.7953149733
 21
-3.4247065946
  0
LINE
  5
2DD
100
AcDbEntity
  8
RACCORDO
100
AcDbLine
 62
250
  6
CONTINUOUS
 10
1.4704634596
 20
-16.3892362205
 11
1.5059935878
 21
-16.4247663487
  0
LINE
  5
2DE
100
AcDbEntity
  8
ASSI
100
AcDbLine
 62
250
  6
CONTINUOUS
 10
1.4704634596
 20
-16.3892362205
 11
1.5059935878
 21
-16.4247663487
  0
LINE
  5
2DF
100
AcDbEntity
  8
CURVE
100
AcDbLine
 62
250
  6
CONTINUOUS
 10
-9.5555410683
 20
4.4926928345
 11
-9.5555410683
 21
4.9212642599
  0
LINE
  5
2E0
100
AcDbEntity
  8
CURVE
100
AcDbLine
 62
250
  6
CONTINUOUS
 10
-9.4483982175
 20
7.8498357076
 11
-9.4483982175
 21
8.0641214091
  0
LINE
  5
2E1
100
AcDbEntity
  8
CURVE
100
AcDbLine
 62
250
  6
CONTINUOUS
 10
-9.1269696205
 20
4.7069785584
 11
-9.1269696205
 21
5.3498357076
  0
LINE
  5
2E2
100
AcDbEntity
  8
CURVE
100
AcDbLine
 62
250
  6
CONTINUOUS
 10
-5.8897512175
 20
12.3972421106
 11
-5.3679582175
 21
13.7851031106
  0
LINE
  5
2E3
100
AcDbEntity
  8
CURVE
100
AcDbLine
 62
250
  6
CONTINUOUS
 10
-5.2355982175
 20
12.9108431106
 11
-5.8560092175
 21
11.2853671106
  0
LINE
  5
2E4
100
AcDbEntity
  8
CURVE
100
AcDbLine
 62
250
  6
CONTINUOUS
 10
-8.3769696205
 20
4.7069785584
 11
-8.4841124266
 21
4.4926928345
  0
LINE
  5
2E5
100
AcDbEntity
  8
CURVE
100
AcDbLine
 62
250
  6
CONTINUOUS
 10
-7.0912554115
 20
7.2069785584
 11
-7.1983982175
 21
6.9926928345
  0
LINE
  5
2E6
100
AcDbEntity
  8
CURVE
100
AcDbLine
 62
250
  6
CONTINUOUS
 10
-7.0912554115
 20
5.6355499763
 11
-7.9483982175
 21
4.314121397
  0
LINE
  5
2E7
100
AcDbEntity
  8
CURVE
100
AcDbLine
 62
250
  6
CONTINUOUS
 10
-5.3769697994
 20
8.2784071106
 11
-5.5912554115
 21
7.9569785137
  0
LINE
  5
2E8
100
AcDbEntity
  8
CURVE
100
AcDbLine
 62
250
  6
CONTINUOUS
 10
-9.7698267698
 20
4.2784071106
 11
-9.5555410683
 21
4.4926928345
  0
LINE
  5
2E9
100
AcDbEntity
  8
RACCORDO
100
AcDbLine
 62
7
  6
CONTINUOUS
 10
-14.1092250699
 20
-0.6324197418
 11
-14.1983982175
 21
-0.7215928894
  0
LINE
  5
2EA
100
AcDbEntity
  8
ASSI
100
AcDbLine
 62
7
  6
CONTINUOUS
 10
-14.1092250699
 20
-0.6324197418
 11
-14.1983982175
 21
-0.7215928894
  0
LINE
  5
2EB
100
AcDbEntity
  8
CURVE
100
AcDbLine
 62
250
  6
CONTINUOUS
 10
-8.4841124266
 20
4.4926928345
 11
-8.6983982175
 21
4.2784071106
  0
LINE
  5
2EC
100
AcDbEntity
  8
RACCORDO
100
AcDbLine
 62
7
  6
CONTINUOUS
 10
-12.516444601
 20
-0.2896392728
 11
-12.6160755434
 21
-0.3892702153
  0
LINE
  5
2ED
100
AcDbEntity
  8
0
100
AcDbLine
 62
7
  6
CONTINUOUS
 10
-12.6983982175
 20
-0.4715928894
 11
-12.6160755434
 21
-0.3892702153
  0
LINE
  5
2EE
100
AcDbEntity
  8
ASSI
100
AcDbLine
 62
7
  6
CONTINUOUS
 10
-12.6983982175
 20
-0.4715928894
 11
-12.516444601
 21
-0.2896392728
  0
LINE
  5
2EF
100
AcDbEntity
  8
CURVE
100
AcDbLine
 62
250
  6
CONTINUOUS
 10
-6.2698267549
 20
5.7784071106
 11
-6.5912555307
 21
5.4569785137
  0
LINE
  5
2F0
100
AcDbEntity
  8
RACCORDO
100
AcDbLine
 62
7
  6
CONTINUOUS
 10
-12.7875713651
 20
-0.6324197418
 11
-12.6983982175
 21
-0.7215928894
  0
LINE
  5
2F1
100
AcDbEntity
  8
ASSI
100
AcDbLine
 62
7
  6
CONTINUOUS
 10
-12.7875713651
 20
-0.6324197418
 11
-12.6983982175
 21
-0.7215928894
  0
LINE
  5
2F2
100
AcDbEntity
  8
CURVE
100
AcDbLine
 62
250
  6
CONTINUOUS
 10
-8.3769696205
 20
5.3498357076
 11
-8.3769696205
 21
4.7069785584
  0
LINE
  5
2F3
100
AcDbEntity
  8
CURVE
100
AcDbLine
 62
250
  6
CONTINUOUS
 10
-8.2698268145
 20
7.8498357076
 11
-8.2698268145
 21
8.0641214091
  0
LINE
  5
2F4
100
AcDbEntity
  8
CURVE
100
AcDbLine
 62
250
  6
CONTINUOUS
 10
-7.9557962175
 20
13.7852521106
 11
-7.9557962175
 21
11.2853671106
  0
LINE
  5
2F5
100
AcDbEntity
  8
CURVE
100
AcDbLine
 62
250
  6
CONTINUOUS
 10
-7.8412554115
 20
7.2069785584
 11
-7.8412554115
 21
7.8498357076
  0
LINE
  5
2F6
100
AcDbEntity
  8
CURVE
100
AcDbLine
 62
250
  6
CONTINUOUS
 10
-7.4340032175
 20
11.2853671106
 11
-7.4340032175
 21
13.7852521106
  0
LINE
  5
2F7
100
AcDbEntity
  8
CURVE
100
AcDbLine
 62
250
  6
CONTINUOUS
 10
-7.3629882175
 20
0.8156131106
 11
-7.3629882175
 21
0.0450871106
  0
LINE
  5
2F8
100
AcDbEntity
  8
CURVE
100
AcDbLine
 62
250
  6
CONTINUOUS
 10
-7.3629882175
 20
-3.4882968894
 11
-7.3629882175
 21
-4.2588228894
  0
LINE
  5
2F9
100
AcDbEntity
  8
CURVE
100
AcDbLine
 62
250
  6
CONTINUOUS
 10
-6.5413172175
 20
12.9176471106
 11
-6.6539202175
 21
11.2853671106
  0
LINE
  5
2FA
100
AcDbEntity
  8
CURVE
100
AcDbLine
 62
250
  6
CONTINUOUS
 10
-7.1531062175
 20
11.2853671106
 11
-6.9273942175
 21
13.7851031106
  0
LINE
  5
2FB
100
AcDbEntity
  8
CURVE
100
AcDbLine
 62
250
  6
CONTINUOUS
 10
-4.5360062175
 20
11.2853671106
 11
-3.7519302175
 21
13.7851031106
  0
LINE
  5
2FC
100
AcDbEntity
  8
CURVE
100
AcDbLine
 62
250
  6
CONTINUOUS
 10
-6.5912555307
 20
5.4569785137
 11
-6.8055411428
 21
5.0284071106
  0
LINE
  5
2FD
100
AcDbEntity
  8
CURVE
100
AcDbLine
 62
250
  6
CONTINUOUS
 10
-5.6269695609
 20
5.3498357076
 11
-5.5198267549
 21
5.5641214091
  0
LINE
  5
2FE
100
AcDbEntity
  8
CURVE
100
AcDbLine
 62
250
  6
CONTINUOUS
 10
-5.5912554115
 20
6.7784071106
 11
-4.8412554115
 21
7.8498357076
  0
LINE
  5
2FF
100
AcDbEntity
  8
CURVE
100
AcDbLine
 62
250
  6
CONTINUOUS
 10
-3.1269694417
 20
8.0641214091
 11
-2.9126838296
 21
8.2784071106
  0
LINE
  5
300
100
AcDbEntity
  8
CURVE
100
AcDbLine
 62
250
  6
CONTINUOUS
 10
-5.5198267549
 20
5.5641214091
 11
-5.3055411428
 21
5.7784071106
  0
LINE
  5
301
100
AcDbEntity
  8
RACCORDO
100
AcDbLine
 62
250
  6
CONTINUOUS
 10
-14.1983982175
 20
-3.5216233503
 11
-14.1014814618
 21
-3.4247065946
  0
LINE
  5
302
100
AcDbEntity
  8
ASSI
100
AcDbLine
 62
250
  6
CONTINUOUS
 10
-14.1983982175
 20
-3.5216233503
 11
-14.1014814618
 21
-3.4247065946
  0
LINE
  5
303
100
AcDbEntity
  8
CURVE
100
AcDbLine
 62
250
  6
CONTINUOUS
 10
-6.2698267549
 20
4.2784071106
 11
-6.0555411428
 21
4.4926928345
  0
LINE
  5
304
100
AcDbEntity
  8
RACCORDO
100
AcDbLine
 62
250
  6
CONTINUOUS
 10
-13.9984286785
 20
-3.7215928894
 11
-13.9015155673
 21
-3.6246797782
  0
LINE
  5
305
100
AcDbEntity
  8
ASSI
100
AcDbLine
 62
250
  6
CONTINUOUS
 10
-13.9984286785
 20
-3.7215928894
 11
-13.9015155673
 21
-3.6246797782
  0
LINE
  5
306
100
AcDbEntity
  8
CURVE
100
AcDbLine
 62
250
  6
CONTINUOUS
 10
5.0473160035
 20
12.3641214449
 11
5.2735065228
 21
12.4998356659
  0
LINE
  5
307
100
AcDbEntity
  8
RACCORDO
100
AcDbLine
 62
7
  6
CONTINUOUS
 10
10.3028201284
 20
-7.7215928894
 11
9.8016017825
 21
-7.7215928894
  0
LINE
  5
308
100
AcDbEntity
  8
ASSI
100
AcDbLine
 62
7
  6
CONTINUOUS
 10
10.3028201284
 20
-7.7215928894
 11
9.8016017825
 21
-7.7215928894
  0
LINE
  5
309
100
AcDbEntity
  8
RACCORDO
100
AcDbLine
 62
7
  6
CONTINUOUS
 10
-10.1983982175
 20
-7.7215928894
 11
-10.6996165635
 21
-7.7215928894
  0
LINE
  5
30A
100
AcDbEntity
  8
ASSI
100
AcDbLine
 62
7
  6
CONTINUOUS
 10
-10.1983982175
 20
-7.7215928894
 11
-10.6996165635
 21
-7.7215928894
  0
LINE
  5
30B
100
AcDbEntity
  8
RACCORDO
100
AcDbLine
 62
7
  6
CONTINUOUS
 10
-9.9179585388
 20
-7.6342909656
 11
-4.1110962938
 21
-7.6342909656
  0
LINE
  5
30C
100
AcDbEntity
  8
0
100
AcDbLine
 62
7
  6
CONTINUOUS
 10
-4.1110962938
 20
-7.6342909656
 11
-3.9015716768
 21
-7.6342909656
  0
LINE
  5
30D
100
AcDbEntity
  8
ASSI
100
AcDbLine
 62
7
  6
CONTINUOUS
 10
-9.9179585388
 20
-7.6342909656
 11
-3.9015716768
 21
-7.6342909656
  0
LINE
  5
30E
100
AcDbEntity
  8
0
100
AcDbLine
 62
7
  6
CONTINUOUS
 10
3.5047752418
 20
-7.6342909656
 11
3.7142998588
 21
-7.6342909656
  0
LINE
  5
30F
100
AcDbEntity
  8
RACCORDO
100
AcDbLine
 62
7
  6
CONTINUOUS
 10
3.7142998588
 20
-7.6342909656
 11
9.5211621038
 21
-7.6342909656
  0
LINE
  5
310
100
AcDbEntity
  8
ASSI
100
AcDbLine
 62
7
  6
CONTINUOUS
 10
3.5047752418
 20
-7.6342909656
 11
9.5211621038
 21
-7.6342909656
  0
LINE
  5
311
100
AcDbEntity
  8
RACCORDO
100
AcDbLine
 62
250
  6
CONTINUOUS
 10
10.0039827341
 20
-7.4229382728
 11
3.5029471659
 21
-7.4229382728
  0
LINE
  5
312
100
AcDbEntity
  8
ASSI
100
AcDbLine
 62
250
  6
CONTINUOUS
 10
10.0039827341
 20
-7.4229382728
 11
3.5029471659
 21
-7.4229382728
  0
LINE
  5
313
100
AcDbEntity
  8
RACCORDO
100
AcDbLine
 62
250
  6
CONTINUOUS
 10
-3.8997436009
 20
-7.4229382728
 11
-10.4007849591
 21
-7.4229382728
  0
LINE
  5
314
100
AcDbEntity
  8
ASSI
100
AcDbLine
 62
250
  6
CONTINUOUS
 10
-3.8997436009
 20
-7.4229382728
 11
-10.4007849591
 21
-7.4229382728
  0
LWPOLYLINE
  5
315
100
AcDbEntity
  8
RACCORDO
100
AcDbPolyline
 62
250
  6
CONTINUOUS
 90
22
 70
0
 10
-10.4007851271
 20
-7.4229384329
 10
-10.550165368
 20
-7.4172273874
 10
-10.6986874334
 20
-7.4003745637
 10
-10.8455220684
 20
-7.3724789354
 10
-10.989843756
 20
-7.333703187
 10
-11.130854316
 20
-7.2842673456
 10
-11.2677857375
 20
-7.2244427812
 10
-11.3998793417
 20
-7.1545603853
 10
-11.5263916366
 20
-7.0750130387
 10
-11.6466162845
 20
-6.9862446746
 10
-11.7598819167
 20
-6.8887510386
 10
-11.8655563627
 20
-6.7830765906
 10
-11.9630499972
 20
-6.6698109565
 10
-12.0518183602
 20
-6.549586307
 10
-12.131365706
 20
-6.4230740103
 10
-12.2012481016
 20
-6.2909804039
 10
-12.2610725876
 20
-6.1540491774
 10
-12.3105083808
 20
-6.0130388223
 10
-12.349284256
 20
-5.8687167232
 10
-12.377180078
 20
-5.7218808194
 10
-12.3940329543
 20
-5.5733568262
 10
-12.399743766
 20
-5.4239740145
  0
LWPOLYLINE
  5
316
100
AcDbEntity
  8
ASSI
100
AcDbPolyline
 62
250
  6
CONTINUOUS
 90
22
 70
0
 10
-10.4007851271
 20
-7.4229384329
 10
-10.550165368
 20
-7.4172273874
 10
-10.6986874334
 20
-7.4003745637
 10
-10.8455220684
 20
-7.3724789354
 10
-10.989843756
 20
-7.333703187
 10
-11.130854316
 20
-7.2842673456
 10
-11.2677857375
 20
-7.2244427812
 10
-11.3998793417
 20
-7.1545603853
 10
-11.5263916366
 20
-7.0750130387
 10
-11.6466162845
 20
-6.9862446746
 10
-11.7598819167
 20
-6.8887510386
 10
-11.8655563627
 20
-6.7830765906
 10
-11.9630499972
 20
-6.6698109565
 10
-12.0518183602
 20
-6.549586307
 10
-12.131365706
 20
-6.4230740103
 10
-12.2012481016
 20
-6.2909804039
 10
-12.2610725876
 20
-6.1540491774
 10
-12.3105083808
 20
-6.0130388223
 10
-12.349284256
 20
-5.8687167232
 10
-12.377180078
 20
-5.7218808194
 10
-12.3940329543
 20
-5.5733568262
 10
-12.399743766
 20
-5.4239740145
  0
LINE
  5
317
100
AcDbEntity
  8
RACCORDO
100
AcDbLine
 62
250
  6
CONTINUOUS
 10
3.4692451137
 20
-14.3904545665
 11
3.5047752418
 21
-14.4259846946
  0
LINE
  5
318
100
AcDbEntity
  8
ASSI
100
AcDbLine
 62
250
  6
CONTINUOUS
 10
3.4692451137
 20
-14.3904545665
 11
3.5047752418
 21
-14.4259846946
  0
LINE
  5
319
100
AcDbEntity
  8
CURVE
100
AcDbLine
 62
250
  6
CONTINUOUS
 10
-7.0912554115
 20
7.8498357076
 11
-7.0912554115
 21
7.2069785584
  0
LINE
  5
31A
100
AcDbEntity
  8
CURVE
100
AcDbLine
 62
250
  6
CONTINUOUS
 10
-6.8055411428
 20
5.0284071106
 11
-6.8055411428
 21
4.4926928345
  0
LINE
  5
31B
100
AcDbEntity
  8
CURVE
100
AcDbLine
 62
250
  6
CONTINUOUS
 10
-6.0555411428
 20
4.4926928345
 11
-6.0555411428
 21
4.9212642599
  0
LINE
  5
31C
100
AcDbEntity
  8
CURVE
100
AcDbLine
 62
250
  6
CONTINUOUS
 10
-4.4126838296
 20
7.0998356853
 11
-4.0912550538
 21
8.2784071106
  0
LINE
  5
31D
100
AcDbEntity
  8
CURVE
100
AcDbLine
 62
250
  6
CONTINUOUS
 10
-3.5093482175
 20
13.0982391106
 11
-3.7691572175
 21
12.1705551106
  0
LINE
  5
31E
100
AcDbEntity
  8
CURVE
100
AcDbLine
 62
250
  6
CONTINUOUS
 10
-3.8758922175
 20
11.7844031106
 11
-4.0198752175
 21
11.2853671106
  0
LINE
  5
31F
100
AcDbEntity
  8
CURVE
100
AcDbLine
 62
250
  6
CONTINUOUS
 10
-4.8769695609
 20
4.7069785584
 11
-4.984112367
 21
4.4926928345
  0
LINE
  5
320
100
AcDbEntity
  8
CURVE
100
AcDbLine
 62
250
  6
CONTINUOUS
 10
-3.2341126054
 20
7.8498357076
 11
-3.1269694417
 21
8.0641214091
  0
LINE
  5
321
100
AcDbEntity
  8
CURVE
100
AcDbLine
 62
250
  6
CONTINUOUS
 10
3.1473160743
 20
12.9069785554
 11
3.4187446437
 21
13.1784071106
  0
LINE
  5
322
100
AcDbEntity
  8
CURVE
100
AcDbLine
 62
250
  6
CONTINUOUS
 10
-2.5912550538
 20
6.9926928345
 11
-2.8055413812
 21
6.7784071106
  0
LINE
  5
323
100
AcDbEntity
  8
CURVE
100
AcDbLine
 62
250
  6
CONTINUOUS
 10
-4.984112367
 20
4.4926928345
 11
-5.1983983367
 21
4.2784071106
  0
LINE
  5
324
100
AcDbEntity
  8
CURVE
100
AcDbLine
 62
250
  6
CONTINUOUS
 10
-0.7698269933
 20
7.242692842
 11
-0.5198265165
 21
7.3498356927
  0
LINE
  5
325
100
AcDbEntity
  8
CURVE
100
AcDbLine
 62
250
  6
CONTINUOUS
 10
-0.2341126054
 20
7.1355499689
 11
0.0516020209
 21
7.242692842
  0
LINE
  5
326
100
AcDbEntity
  8
RACCORDO
100
AcDbLine
 62
250
  6
CONTINUOUS
 10
-10.4009619469
 20
-5.9238520322
 11
-3.3663461352
 21
-5.9238520322
  0
LINE
  5
327
100
AcDbEntity
  8
ASSI
100
AcDbLine
 62
250
  6
CONTINUOUS
 10
-10.4009619469
 20
-5.9238520322
 11
-3.3663461352
 21
-5.9238520322
  0
LINE
  5
328
100
AcDbEntity
  8
RACCORDO
100
AcDbLine
 62
250
  6
CONTINUOUS
 10
2.9695497002
 20
-5.9238520322
 11
10.0041655118
 21
-5.9238520322
  0
LINE
  5
329
100
AcDbEntity
  8
ASSI
100
AcDbLine
 62
250
  6
CONTINUOUS
 10
2.9695497002
 20
-5.9238520322
 11
10.0041655118
 21
-5.9238520322
  0
LWPOLYLINE
  5
32A
100
AcDbEntity
  8
RACCORDO
100
AcDbPolyline
 62
250
  6
CONTINUOUS
 90
22
 70
0
 10
-10.4009619469
 20
-5.9238520322
 10
-10.4385340605
 20
-5.9224159983
 10
-10.4755248573
 20
-5.9182609314
 10
-10.5119343371
 20
-5.9113868315
 10
-10.5479721073
 20
-5.9017251846
 10
-10.5834285605
 20
-5.8893445048
 10
-10.617674875
 20
-5.8744503339
 10
-10.6506779566
 20
-5.8570007257
 10
-10.6824708996
 20
-5.8370376264
 10
-10.7125241648
 20
-5.8148924165
 10
-10.7408088194
 20
-5.790527912
 10
-10.7673537964
 20
-5.763981297
 10
-10.7917163557
 20
-5.735695504
 10
-10.8138592235
 20
-5.7056417673
 10
-10.8338196737
 20
-5.6738488526
 10
-10.8512667882
 20
-5.6408459899
 10
-10.8661587879
 20
-5.6065992836
 10
-10.8785374519
 20
-5.5711426294
 10
-10.8881971992
 20
-5.5351069441
 10
-10.8950695029
 20
-5.4987025334
 10
-10.89922289
 20
-5.4617190916
 10
-10.9006573604
 20
-5.4241566187
  0
LWPOLYLINE
  5
32B
100
AcDbEntity
  8
ASSI
100
AcDbPolyline
 62
250
  6
CONTINUOUS
 90
22
 70
0
 10
-10.4009619469
 20
-5.9238520322
 10
-10.4385340605
 20
-5.9224159983
 10
-10.4755248573
 20
-5.9182609314
 10
-10.5119343371
 20
-5.9113868315
 10
-10.5479721073
 20
-5.9017251846
 10
-10.5834285605
 20
-5.8893445048
 10
-10.617674875
 20
-5.8744503339
 10
-10.6506779566
 20
-5.8570007257
 10
-10.6824708996
 20
-5.8370376264
 10
-10.7125241648
 20
-5.8148924165
 10
-10.7408088194
 20
-5.790527912
 10
-10.7673537964
 20
-5.763981297
 10
-10.7917163557
 20
-5.735695504
 10
-10.8138592235
 20
-5.7056417673
 10
-10.8338196737
 20
-5.6738488526
 10
-10.8512667882
 20
-5.6408459899
 10
-10.8661587879
 20
-5.6065992836
 10
-10.8785374519
 20
-5.5711426294
 10
-10.8881971992
 20
-5.5351069441
 10
-10.8950695029
 20
-5.4987025334
 10
-10.89922289
 20
-5.4617190916
 10
-10.9006573604
 20
-5.4241566187
  0
LINE
  5
32C
100
AcDbEntity
  8
CURVE
100
AcDbLine
 62
250
  6
CONTINUOUS
 10
-9.0198268145
 20
4.4926928345
 11
-9.1269696205
 21
4.7069785584
  0
LINE
  5
32D
100
AcDbEntity
  8
CURVE
100
AcDbLine
 62
250
  6
CONTINUOUS
 10
-5.1283942175
 20
11.2853671106
 11
-5.2355982175
 21
12.9108431106
  0
LINE
  5
32E
100
AcDbEntity
  8
CURVE
100
AcDbLine
 62
250
  6
CONTINUOUS
 10
-5.6269695609
 20
4.7069785584
 11
-5.6269695609
 21
5.3498357076
  0
LINE
  5
32F
100
AcDbEntity
  8
CURVE
100
AcDbLine
 62
250
  6
CONTINUOUS
 10
-4.8769695609
 20
5.3498357076
 11
-4.8769695609
 21
4.7069785584
  0
LINE
  5
330
100
AcDbEntity
  8
CURVE
100
AcDbLine
 62
250
  6
CONTINUOUS
 10
-4.8412554115
 20
7.8498357076
 11
-4.8412554115
 21
8.0641214091
  0
LINE
  5
331
100
AcDbEntity
  8
CURVE
100
AcDbLine
 62
250
  6
CONTINUOUS
 10
-4.4483983367
 20
4.2784071106
 11
-4.4483983367
 21
5.7784071106
  0
LINE
  5
332
100
AcDbEntity
  8
CURVE
100
AcDbLine
 62
250
  6
CONTINUOUS
 10
-2.4841126054
 20
7.2069785584
 11
-2.5912550538
 21
6.9926928345
  0
LINE
  5
333
100
AcDbEntity
  8
CURVE
100
AcDbLine
 62
250
  6
CONTINUOUS
 10
-2.6269699186
 20
5.3498357076
 11
-3.2698267549
 21
4.2784071106
  0
LINE
  5
334
100
AcDbEntity
  8
RACCORDO
100
AcDbLine
 62
250
  6
CONTINUOUS
 10
-12.6983982175
 20
-5.7228112353
 11
-12.3997436009
 21
-5.4239738409
  0
LINE
  5
335
100
AcDbEntity
  8
ASSI
100
AcDbLine
 62
250
  6
CONTINUOUS
 10
-12.6983982175
 20
-5.7228112353
 11
-12.3997436009
 21
-5.4239738409
  0
LINE
  5
336
100
AcDbEntity
  8
CURVE
100
AcDbLine
 62
250
  6
CONTINUOUS
 10
3.8258875049
 20
11.5498356942
 11
3.5544589496
 21
11.2784071106
  0
LINE
  5
337
100
AcDbEntity
  8
CURVE
100
AcDbLine
 62
250
  6
CONTINUOUS
 10
6.133030451
 20
13.1784071106
 11
5.8616017825
 21
12.9069785554
  0
LINE
  5
338
100
AcDbEntity
  8
RACCORDO
100
AcDbLine
 62
7
  6
CONTINUOUS
 10
9.7210402692
 20
16.1978455974
 11
9.8016017825
 21
16.2784071106
  0
LINE
  5
339
100
AcDbEntity
  8
ASSI
100
AcDbLine
 62
7
  6
CONTINUOUS
 10
9.7210402692
 20
16.1978455974
 11
9.8016017825
 21
16.2784071106
  0
LINE
  5
33A
100
AcDbEntity
  8
CURVE
100
AcDbLine
 62
250
  6
CONTINUOUS
 10
5.183030451
 20
11.2784071106
 11
5.318744672
 21
11.4141214024
  0
LINE
  5
33B
100
AcDbEntity
  8
RACCORDO
100
AcDbLine
 62
250
  6
CONTINUOUS
 10
10.3028201284
 20
16.2784071106
 11
10.0039885241
 21
15.979752494
  0
LINE
  5
33C
100
AcDbEntity
  8
ASSI
100
AcDbLine
 62
250
  6
CONTINUOUS
 10
10.3028201284
 20
16.2784071106
 11
10.0039885241
 21
15.979752494
  0
LINE
  5
33D
100
AcDbEntity
  8
CURVE
100
AcDbLine
 62
250
  6
CONTINUOUS
 10
3.0516017899
 20
6.2784070808
 11
2.9266017862
 21
6.2159071404
  0
LINE
  5
33E
100
AcDbEntity
  8
CURVE
100
AcDbLine
 62
250
  6
CONTINUOUS
 10
3.4266017676
 20
6.4034071404
 11
3.0516017899
 21
6.2784070808
  0
LINE
  5
33F
100
AcDbEntity
  8
CURVE
100
AcDbLine
 62
250
  6
CONTINUOUS
 10
3.4266017676
 20
5.5284071702
 11
3.8016018123
 21
5.653407051
  0
LWPOLYLINE
  5
340
100
AcDbEntity
  8
RACCORDO
100
AcDbPolyline
 62
250
  6
CONTINUOUS
 90
13
 70
0
 10
13.5047154877
 20
-3.6246761336
 10
13.5308120863
 20
-3.6229580319
 10
13.5564622785
 20
-3.6178490233
 10
13.5812273452
 20
-3.6094365112
 10
13.6046837218
 20
-3.5978643947
 10
13.6264302071
 20
-3.5833306229
 10
13.6460948343
 20
-3.5660838234
 10
13.663341283
 20
-3.5464190115
 10
13.6778746057
 20
-3.5246725467
 10
13.6894462504
 20
-3.5012164107
 10
13.697858339
 20
-3.4764518097
 10
13.7029670421
 20
-3.4508023061
 10
13.7046850267
 20
-3.4247065946
  0
LWPOLYLINE
  5
341
100
AcDbEntity
  8
ASSI
100
AcDbPolyline
 62
250
  6
CONTINUOUS
 90
13
 70
0
 10
13.5047154877
 20
-3.6246761336
 10
13.5308120863
 20
-3.6229580319
 10
13.5564622785
 20
-3.6178490233
 10
13.5812273452
 20
-3.6094365112
 10
13.6046837218
 20
-3.5978643947
 10
13.6264302071
 20
-3.5833306229
 10
13.6460948343
 20
-3.5660838234
 10
13.663341283
 20
-3.5464190115
 10
13.6778746057
 20
-3.5246725467
 10
13.6894462504
 20
-3.5012164107
 10
13.697858339
 20
-3.4764518097
 10
13.7029670421
 20
-3.4508023061
 10
13.7046850267
 20
-3.4247065946
  0
LWPOLYLINE
  5
342
100
AcDbEntity
  8
RACCORDO
100
AcDbPolyline
 62
7
  6
CONTINUOUS
 90
13
 70
0
 10
13.6016322435
 20
-3.7215928894
 10
13.6277480504
 20
-3.7198851035
 10
13.6534118697
 20
-3.7147832061
 10
13.6781850019
 20
-3.7063759206
 10
13.7016433209
 20
-3.6948090194
 10
13.7233873651
 20
-3.6802812071
 10
13.7430483614
 20
-3.6630394683
 10
13.7602901003
 20
-3.643378472
 10
13.7748179125
 20
-3.6216344277
 10
13.7863848137
 20
-3.5981761088
 10
13.7947920993
 20
-3.5734029766
 10
13.7998939967
 20
-3.5477391573
 10
13.8016017825
 20
-3.5216233503
  0
LWPOLYLINE
  5
343
100
AcDbEntity
  8
ASSI
100
AcDbPolyline
 62
7
  6
CONTINUOUS
 90
13
 70
0
 10
13.6016322435
 20
-3.7215928894
 10
13.6277480504
 20
-3.7198851035
 10
13.6534118697
 20
-3.7147832061
 10
13.6781850019
 20
-3.7063759206
 10
13.7016433209
 20
-3.6948090194
 10
13.7233873651
 20
-3.6802812071
 10
13.7430483614
 20
-3.6630394683
 10
13.7602901003
 20
-3.643378472
 10
13.7748179125
 20
-3.6216344277
 10
13.7863848137
 20
-3.5981761088
 10
13.7947920993
 20
-3.5734029766
 10
13.7998939967
 20
-3.5477391573
 10
13.8016017825
 20
-3.5216233503
  0
LINE
  5
344
100
AcDbEntity
  8
RACCORDO
100
AcDbLine
 62
250
  6
CONTINUOUS
 10
-12.3997436009
 20
-5.4241566187
 11
-10.9006573604
 21
-5.4241566187
  0
LINE
  5
345
100
AcDbEntity
  8
ASSI
100
AcDbLine
 62
250
  6
CONTINUOUS
 10
-12.3997436009
 20
-5.4241566187
 11
-10.9006573604
 21
-5.4241566187
  0
LINE
  5
346
100
AcDbEntity
  8
RACCORDO
100
AcDbLine
 62
250
  6
CONTINUOUS
 10
12.0029471659
 20
-5.4241566187
 11
10.5038609254
 21
-5.4241566187
  0
LINE
  5
347
100
AcDbEntity
  8
ASSI
100
AcDbLine
 62
250
  6
CONTINUOUS
 10
12.0029471659
 20
-5.4241566187
 11
10.5038609254
 21
-5.4241566187
  0
LINE
  5
348
100
AcDbEntity
  8
CURVE
100
AcDbLine
 62
250
  6
CONTINUOUS
 10
9.3939637825
 20
-5.2215928894
 11
5.2092397825
 21
-5.2215928894
  0
LINE
  5
349
100
AcDbEntity
  8
CURVE
100
AcDbLine
 62
250
  6
CONTINUOUS
 10
-0.6983982175
 20
-4.7215928894
 11
0.3016010645
 21
-4.7215928894
  0
LINE
  5
34A
100
AcDbEntity
  8
CURVE
100
AcDbLine
 62
250
  6
CONTINUOUS
 10
5.2092397825
 20
-4.2025808894
 11
9.3939637825
 21
-4.2025808894
  0
LINE
  5
34B
100
AcDbEntity
  8
CURVE
100
AcDbLine
 62
250
  6
CONTINUOUS
 10
-8.4841124266
 20
5.5641214091
 11
-8.3769696205
 21
5.3498357076
  0
LINE
  5
34C
100
AcDbEntity
  8
CURVE
100
AcDbLine
 62
250
  6
CONTINUOUS
 10
-9.4127802175
 20
11.2853671106
 11
-10.2052452175
 21
13.7851031106
  0
LINE
  5
34D
100
AcDbEntity
  8
CURVE
100
AcDbLine
 62
250
  6
CONTINUOUS
 10
-9.6384172175
 20
13.7851031106
 11
-9.1619222175
 21
12.0644571106
  0
LINE
  5
34E
100
AcDbEntity
  8
CURVE
100
AcDbLine
 62
250
  6
CONTINUOUS
 10
-4.8516952175
 20
13.7851031106
 11
-4.6179422175
 21
11.2853671106
  0
LINE
  5
34F
100
AcDbEntity
  8
CURVE
100
AcDbLine
 62
250
  6
CONTINUOUS
 10
-3.9126835912
 20
6.7784071106
 11
-3.9126835912
 21
7.5284071106
  0
LINE
  5
350
100
AcDbEntity
  8
RACCORDO
100
AcDbLine
 62
7
  6
CONTINUOUS
 10
-3.9015716768
 20
-14.4259846946
 11
-3.9015716768
 21
-7.4247663487
  0
LINE
  5
351
100
AcDbEntity
  8
ASSI
100
AcDbLine
 62
7
  6
CONTINUOUS
 10
-3.9015716768
 20
-14.4259846946
 11
-3.9015716768
 21
-7.4247663487
  0
LINE
  5
352
100
AcDbEntity
  8
RACCORDO
100
AcDbLine
 62
250
  6
CONTINUOUS
 10
-3.8660415487
 20
-14.3904545665
 11
-3.8660415487
 21
-7.0260298807
  0
LINE
  5
353
100
AcDbEntity
  8
ASSI
100
AcDbLine
 62
250
  6
CONTINUOUS
 10
-3.8660415487
 20
-14.3904545665
 11
-3.8660415487
 21
-7.0260298807
  0
LINE
  5
354
100
AcDbEntity
  8
CURVE
100
AcDbLine
 62
250
  6
CONTINUOUS
 10
-3.6983979791
 20
5.7784071106
 11
-3.6983979791
 21
4.2784071106
  0
LINE
  5
355
100
AcDbEntity
  8
CURVE
100
AcDbLine
 62
250
  6
CONTINUOUS
 10
-3.5379882175
 20
-1.3391048894
 11
-3.5379882175
 21
-2.1041048894
  0
LINE
  5
356
100
AcDbEntity
  8
RACCORDO
100
AcDbLine
 62
250
  6
CONTINUOUS
 10
-3.3663461352
 20
-14.3904545665
 11
-3.3663461352
 21
-5.9238520322
  0
LINE
  5
357
100
AcDbEntity
  8
ASSI
100
AcDbLine
 62
250
  6
CONTINUOUS
 10
-3.3663461352
 20
-14.3904545665
 11
-3.3663461352
 21
-5.9238520322
  0
LINE
  5
358
100
AcDbEntity
  8
CURVE
100
AcDbLine
 62
250
  6
CONTINUOUS
 10
-3.2341126054
 20
7.2069785584
 11
-3.2341126054
 21
7.8498357076
  0
LINE
  5
359
100
AcDbEntity
  8
CURVE
100
AcDbLine
 62
250
  6
CONTINUOUS
 10
-3.0279882175
 20
0.8156131106
 11
-3.0279882175
 21
0.0450871106
  0
LINE
  5
35A
100
AcDbEntity
  8
CURVE
100
AcDbLine
 62
250
  6
CONTINUOUS
 10
-3.0279882175
 20
-3.4882968894
 11
-3.0279882175
 21
-4.2588228894
  0
LWPOLYLINE
  5
35B
100
AcDbEntity
  8
RACCORDO
100
AcDbPolyline
 62
7
  6
CONTINUOUS
 90
16
 70
0
 10
-3.8660415487
 20
-7.0260298807
 10
-3.8615993363
 20
-6.9753537009
 10
-3.8525003493
 20
-6.9243602327
 10
-3.8395541436
 20
-6.873049476
 10
-3.8236368145
 20
-6.821216279
 10
-3.8054277423
 20
-6.7690657936
 10
-3.7852262764
 20
-6.717213475
 10
-3.7635976902
 20
-6.6660756277
 10
-3.7409389252
 20
-6.6152359472
 10
-3.7169130606
 20
-6.5640609748
 10
-3.6915896942
 20
-6.5123898402
 10
-3.6653354643
 20
-6.4603834137
 10
-3.6380170756
 20
-6.4078908476
 10
-3.6096820753
 20
-6.3547461368
 10
-3.5805924837
 20
-6.3011152864
 10
-3.5508780704
 20
-6.2473454641
  0
LWPOLYLINE
  5
35C
100
AcDbEntity
  8
ASSI
100
AcDbPolyline
 62
7
  6
CONTINUOUS
 90
16
 70
0
 10
-3.8660415487
 20
-7.0260298807
 10
-3.8615993363
 20
-6.9753537009
 10
-3.8525003493
 20
-6.9243602327
 10
-3.8395541436
 20
-6.873049476
 10
-3.8236368145
 20
-6.821216279
 10
-3.8054277423
 20
-6.7690657936
 10
-3.7852262764
 20
-6.717213475
 10
-3.7635976902
 20
-6.6660756277
 10
-3.7409389252
 20
-6.6152359472
 10
-3.7169130606
 20
-6.5640609748
 10
-3.6915896942
 20
-6.5123898402
 10
-3.6653354643
 20
-6.4603834137
 10
-3.6380170756
 20
-6.4078908476
 10
-3.6096820753
 20
-6.3547461368
 10
-3.5805924837
 20
-6.3011152864
 10
-3.5508780704
 20
-6.2473454641
  0
LINE
  5
35D
100
AcDbEntity
  8
CURVE
100
AcDbLine
 62
250
  6
CONTINUOUS
 10
-1.6269694417
 20
6.7784071106
 11
-1.1983982175
 21
8.2784071106
  0
LINE
  5
35E
100
AcDbEntity
  8
CURVE
100
AcDbLine
 62
250
  6
CONTINUOUS
 10
3.0116017825
 20
12.6355500001
 11
3.1473160743
 21
12.9069785554
  0
LINE
  5
35F
100
AcDbEntity
  8
CURVE
100
AcDbLine
 62
250
  6
CONTINUOUS
 10
7.6258875615
 20
13.1784071106
 11
7.3544591195
 21
12.9069785554
  0
LINE
  5
360
100
AcDbEntity
  8
CURVE
100
AcDbLine
 62
250
  6
CONTINUOUS
 10
6.133030451
 20
11.2784071106
 11
6.6758875615
 21
11.8212642778
  0
LINE
  5
361
100
AcDbEntity
  8
CURVE
100
AcDbLine
 62
250
  6
CONTINUOUS
 10
3.1766017825
 20
7.2159071088
 11
2.9266017862
 21
7.0284071032
  0
LINE
  5
362
100
AcDbEntity
  8
CURVE
100
AcDbLine
 62
250
  6
CONTINUOUS
 10
3.8016018123
 20
5.653407051
 11
4.0516017527
 21
5.7784071106
  0
LWPOLYLINE
  5
363
100
AcDbEntity
  8
RACCORDO
100
AcDbPolyline
 62
250
  6
CONTINUOUS
 90
13
 70
0
 10
-12.9952845123
 20
-3.6246761336
 10
-12.9691879137
 20
-3.6229580319
 10
-12.9435377215
 20
-3.6178490233
 10
-12.9187726548
 20
-3.6094365112
 10
-12.8953162782
 20
-3.5978643947
 10
-12.8735697929
 20
-3.5833306229
 10
-12.8539051657
 20
-3.5660838234
 10
-12.836658717
 20
-3.5464190115
 10
-12.8221253943
 20
-3.5246725467
 10
-12.8105537496
 20
-3.5012164107
 10
-12.802141661
 20
-3.4764518097
 10
-12.7970329579
 20
-3.4508023061
 10
-12.7953149733
 20
-3.4247065946
  0
LWPOLYLINE
  5
364
100
AcDbEntity
  8
ASSI
100
AcDbPolyline
 62
250
  6
CONTINUOUS
 90
13
 70
0
 10
-12.9952845123
 20
-3.6246761336
 10
-12.9691879137
 20
-3.6229580319
 10
-12.9435377215
 20
-3.6178490233
 10
-12.9187726548
 20
-3.6094365112
 10
-12.8953162782
 20
-3.5978643947
 10
-12.8735697929
 20
-3.5833306229
 10
-12.8539051657
 20
-3.5660838234
 10
-12.836658717
 20
-3.5464190115
 10
-12.8221253943
 20
-3.5246725467
 10
-12.8105537496
 20
-3.5012164107
 10
-12.802141661
 20
-3.4764518097
 10
-12.7970329579
 20
-3.4508023061
 10
-12.7953149733
 20
-3.4247065946
  0
LINE
  5
365
100
AcDbEntity
  8
RACCORDO
100
AcDbLine
 62
7
  6
CONTINUOUS
 10
13.6017236171
 20
-3.7215928894
 11
12.5014799479
 21
-3.7215928894
  0
LINE
  5
366
100
AcDbEntity
  8
ASSI
100
AcDbLine
 62
7
  6
CONTINUOUS
 10
13.6017236171
 20
-3.7215928894
 11
12.5014799479
 21
-3.7215928894
  0
LINE
  5
367
100
AcDbEntity
  8
RACCORDO
100
AcDbLine
 62
7
  6
CONTINUOUS
 10
-12.8982763829
 20
-3.7215928894
 11
-13.9985200521
 21
-3.7215928894
  0
LINE
  5
368
100
AcDbEntity
  8
ASSI
100
AcDbLine
 62
7
  6
CONTINUOUS
 10
-12.8982763829
 20
-3.7215928894
 11
-13.9985200521
 21
-3.7215928894
  0
LINE
  5
369
100
AcDbEntity
  8
RACCORDO
100
AcDbLine
 62
250
  6
CONTINUOUS
 10
12.5984847761
 20
-3.6246794348
 11
13.5047187892
 21
-3.6246794351
  0
LINE
  5
36A
100
AcDbEntity
  8
ASSI
100
AcDbLine
 62
250
  6
CONTINUOUS
 10
12.5984847761
 20
-3.6246794348
 11
13.5047187892
 21
-3.6246794351
  0
LINE
  5
36B
100
AcDbEntity
  8
RACCORDO
100
AcDbLine
 62
250
  6
CONTINUOUS
 10
-13.9015155673
 20
-3.6246797782
 11
-12.9952812108
 21
-3.6246794351
  0
LINE
  5
36C
100
AcDbEntity
  8
ASSI
100
AcDbLine
 62
250
  6
CONTINUOUS
 10
-13.9015155673
 20
-3.6246797782
 11
-12.9952812108
 21
-3.6246794351
  0
LWPOLYLINE
  5
36D
100
AcDbEntity
  8
CURVE
100
AcDbPolyline
 62
250
  6
CONTINUOUS
 90
33
 70
0
 10
2.3016017817
 20
-3.7215925307
 10
2.2585967196
 20
-3.721077894
 10
2.2154761332
 20
-3.7195409218
 10
2.1722688623
 20
-3.7169920206
 10
2.1290037468
 20
-3.7134415971
 10
2.0857096265
 20
-3.7089000582
 10
2.0424153412
 20
-3.7033778104
 10
1.9991497307
 20
-3.6968852605
 10
1.9559416349
 20
-3.6894328151
 10
1.9128198935
 20
-3.6810308809
 10
1.8698133464
 20
-3.6716898647
 10
1.8269508333
 20
-3.6614201731
 10
1.7842611942
 20
-3.6502322128
 10
1.7417732688
 20
-3.6381363904
 10
1.6995158969
 20
-3.6251431128
 10
1.6575179184
 20
-3.6112627865
 10
1.615808173
 20
-3.5965058183
 10
1.5744155007
 20
-3.5808826149
 10
1.5333687411
 20
-3.5644035828
 10
1.4926967341
 20
-3.547079129
 10
1.4524283196
 20
-3.5289196599
 10
1.4125923374
 20
-3.5099355824
 10
1.3732176271
 20
-3.490137303
 10
1.3343330288
 20
-3.4695352286
 10
1.2959673822
 20
-3.4481397657
 10
1.2581495271
 20
-3.4259613211
 10
1.2209083033
 20
-3.4030103015
 10
1.1842725507
 20
-3.3792971135
 10
1.1482711091
 20
-3.3548321639
 10
1.1129328182
 20
-3.3296258593
 10
1.0782865179
 20
-3.3036886064
 10
1.0443610481
 20
-3.2770308119
 10
1.0111852485
 20
-3.2496628826
  0
LWPOLYLINE
  5
36E
100
AcDbEntity
  8
RACCORDO
100
AcDbPolyline
 62
7
  6
CONTINUOUS
 90
25
 70
0
 10
-12.898256839
 20
-3.7215928745
 10
-12.8850924547
 20
-3.722036464
 10
-12.8720944589
 20
-3.7233166662
 10
-12.8592628515
 20
-3.725433481
 10
-12.846544265
 20
-3.7284029156
 10
-12.833992067
 20
-3.7322089628
 10
-12.8217663602
 20
-3.7368036009
 10
-12.8098712267
 20
-3.7421970312
 10
-12.7983025846
 20
-3.7483790522
 10
-12.7872082904
 20
-3.7552710377
 10
-12.7765944536
 20
-3.7628821651
 10
-12.7664549648
 20
-3.7712032569
 10
-12.7569193524
 20
-3.7801281547
 10
-12.7479954137
 20
-3.7896646519
 10
-12.7396753512
 20
-3.7998049551
 10
-12.7320653019
 20
-3.8104195246
 10
-12.7251744435
 20
-3.8215144655
 10
-12.7189935982
 20
-3.8330836728
 10
-12.7136013694
 20
-3.8449792912
 10
-12.7090079557
 20
-3.8572054014
 10
-12.7052031586
 20
-3.8697579229
 10
-12.7022349855
 20
-3.8824767586
 10
-12.7001194388
 20
-3.895308543
 10
-12.6988405162
 20
-3.9083066417
 10
-12.6983982175
 20
-3.9214710548
  0
LWPOLYLINE
  5
36F
100
AcDbEntity
  8
ASSI
100
AcDbPolyline
 62
7
  6
CONTINUOUS
 90
25
 70
0
 10
-12.898256839
 20
-3.7215928745
 10
-12.8850924547
 20
-3.722036464
 10
-12.8720944589
 20
-3.7233166662
 10
-12.8592628515
 20
-3.725433481
 10
-12.846544265
 20
-3.7284029156
 10
-12.833992067
 20
-3.7322089628
 10
-12.8217663602
 20
-3.7368036009
 10
-12.8098712267
 20
-3.7421970312
 10
-12.7983025846
 20
-3.7483790522
 10
-12.7872082904
 20
-3.7552710377
 10
-12.7765944536
 20
-3.7628821651
 10
-12.7664549648
 20
-3.7712032569
 10
-12.7569193524
 20
-3.7801281547
 10
-12.7479954137
 20
-3.7896646519
 10
-12.7396753512
 20
-3.7998049551
 10
-12.7320653019
 20
-3.8104195246
 10
-12.7251744435
 20
-3.8215144655
 10
-12.7189935982
 20
-3.8330836728
 10
-12.7136013694
 20
-3.8449792912
 10
-12.7090079557
 20
-3.8572054014
 10
-12.7052031586
 20
-3.8697579229
 10
-12.7022349855
 20
-3.8824767586
 10
-12.7001194388
 20
-3.895308543
 10
-12.6988405162
 20
-3.9083066417
 10
-12.6983982175
 20
-3.9214710548
  0
LWPOLYLINE
  5
370
100
AcDbEntity
  8
RACCORDO
100
AcDbPolyline
 62
7
  6
CONTINUOUS
 90
25
 70
0
 10
12.5014604039
 20
-3.7215928745
 10
12.4882945761
 20
-3.7211427498
 10
12.4752955749
 20
-3.7198559301
 10
12.4624634003
 20
-3.7177324152
 10
12.4497447206
 20
-3.714756048
 10
12.4371928675
 20
-3.7109429858
 10
12.424967836
 20
-3.7063417
 10
12.4130737849
 20
-3.7009420751
 10
12.4015065554
 20
-3.6947542267
 10
12.3904136664
 20
-3.6878569734
 10
12.3798011985
 20
-3.6802412132
 10
12.3696630712
 20
-3.6719160481
 10
12.360128562
 20
-3.6629876024
 10
12.3512054135
 20
-3.6534481388
 10
12.3428858832
 20
-3.6433053947
 10
12.3352760212
 20
-3.6326887067
 10
12.3283849329
 20
-3.6215920003
 10
12.322203513
 20
-3.6100213501
 10
12.316810496
 20
-3.5981243163
 10
12.3122159985
 20
-3.585896746
 10
12.3084099038
 20
-3.5733427921
 10
12.3054405964
 20
-3.5606224737
 10
12.3033242044
 20
-3.5477891305
 10
12.3020445998
 20
-3.5347894227
 10
12.3016017825
 20
-3.5216233503
  0
LWPOLYLINE
  5
371
100
AcDbEntity
  8
ASSI
100
AcDbPolyline
 62
7
  6
CONTINUOUS
 90
25
 70
0
 10
12.5014604039
 20
-3.7215928745
 10
12.4882945761
 20
-3.7211427498
 10
12.4752955749
 20
-3.7198559301
 10
12.4624634003
 20
-3.7177324152
 10
12.4497447206
 20
-3.714756048
 10
12.4371928675
 20
-3.7109429858
 10
12.424967836
 20
-3.7063417
 10
12.4130737849
 20
-3.7009420751
 10
12.4015065554
 20
-3.6947542267
 10
12.3904136664
 20
-3.6878569734
 10
12.3798011985
 20
-3.6802412132
 10
12.3696630712
 20
-3.6719160481
 10
12.360128562
 20
-3.6629876024
 10
12.3512054135
 20
-3.6534481388
 10
12.3428858832
 20
-3.6433053947
 10
12.3352760212
 20
-3.6326887067
 10
12.3283849329
 20
-3.6215920003
 10
12.322203513
 20
-3.6100213501
 10
12.316810496
 20
-3.5981243163
 10
12.3122159985
 20
-3.585896746
 10
12.3084099038
 20
-3.5733427921
 10
12.3054405964
 20
-3.5606224737
 10
12.3033242044
 20
-3.5477891305
 10
12.3020445998
 20
-3.5347894227
 10
12.3016017825
 20
-3.5216233503
  0
LWPOLYLINE
  5
372
100
AcDbEntity
  8
RACCORDO
100
AcDbPolyline
 62
250
  6
CONTINUOUS
 90
13
 70
0
 10
12.5984880773
 20
-3.6246761336
 10
12.5723918458
 20
-3.6229580803
 10
12.5467419552
 20
-3.6178492027
 10
12.5219771122
 20
-3.6094368812
 10
12.4985208862
 20
-3.5978649971
 10
12.4767744642
 20
-3.583331472
 10
12.4571097894
 20
-3.5660848822
 10
12.4398631997
 20
-3.5464202075
 10
12.4253296747
 20
-3.5246737855
 10
12.4137577906
 20
-3.5012175595
 10
12.4053454691
 20
-3.4764527165
 10
12.4002365915
 20
-3.450802826
 10
12.3985185382
 20
-3.4247065946
  0
LWPOLYLINE
  5
373
100
AcDbEntity
  8
ASSI
100
AcDbPolyline
 62
250
  6
CONTINUOUS
 90
13
 70
0
 10
12.5984880773
 20
-3.6246761336
 10
12.5723918458
 20
-3.6229580803
 10
12.5467419552
 20
-3.6178492027
 10
12.5219771122
 20
-3.6094368812
 10
12.4985208862
 20
-3.5978649971
 10
12.4767744642
 20
-3.583331472
 10
12.4571097894
 20
-3.5660848822
 10
12.4398631997
 20
-3.5464202075
 10
12.4253296747
 20
-3.5246737855
 10
12.4137577906
 20
-3.5012175595
 10
12.4053454691
 20
-3.4764527165
 10
12.4002365915
 20
-3.450802826
 10
12.3985185382
 20
-3.4247065946
  0
LWPOLYLINE
  5
374
100
AcDbEntity
  8
CURVE
100
AcDbPolyline
 62
250
  6
CONTINUOUS
 90
31
 70
0
 10
0.5675559839
 20
-4.1699674144
 10
0.6174789234
 20
-4.2045637824
 10
0.6682861097
 20
-4.2381465575
 10
0.7199410182
 20
-4.2707045691
 10
0.7724071243
 20
-4.3022266465
 10
0.8256479036
 20
-4.3327016193
 10
0.8796268313
 20
-4.3621183168
 10
0.9343073831
 20
-4.3904655683
 10
0.9896530342
 20
-4.4177322034
 10
1.0456272601
 20
-4.4439070513
 10
1.1021935363
 20
-4.4689789414
 10
1.1593153382
 20
-4.4929367033
 10
1.2169561412
 20
-4.5157691662
 10
1.2750794208
 20
-4.5374651595
 10
1.3336486523
 20
-4.5580135127
 10
1.3926273113
 20
-4.5774030552
 10
1.4519788731
 20
-4.5956226162
 10
1.5116668133
 20
-4.6126610253
 10
1.5716546071
 20
-4.6285071119
 10
1.6319057301
 20
-4.6431497052
 10
1.6923836577
 20
-4.6565776348
 10
1.7530518654
 20
-4.66877973
 10
1.8138738285
 20
-4.6797448202
 10
1.8748130225
 20
-4.6894617348
 10
1.9358329228
 20
-4.6979193032
 10
1.9968970048
 20
-4.7051063548
 10
2.0579687441
 20
-4.7110117189
 10
2.119011616
 20
-4.7156242251
 10
2.1799890959
 20
-4.7189327026
 10
2.2408646594
 20
-4.7209259809
 10
2.3016017817
 20
-4.7215928894
  0
LINE
  5
375
100
AcDbEntity
  8
RACCORDO
100
AcDbLine
 62
7
  6
CONTINUOUS
 10
-14.1092250699
 20
9.1892339631
 11
-14.1983982175
 21
9.2784071106
  0
LINE
  5
376
100
AcDbEntity
  8
ASSI
100
AcDbLine
 62
7
  6
CONTINUOUS
 10
-14.1092250699
 20
9.1892339631
 11
-14.1983982175
 21
9.2784071106
  0
LINE
  5
377
100
AcDbEntity
  8
CURVE
100
AcDbLine
 62
250
  6
CONTINUOUS
 10
-9.5555410683
 20
4.9212642599
 11
-9.7698267698
 21
5.1355500061
  0
LINE
  5
378
100
AcDbEntity
  8
CURVE
100
AcDbLine
 62
250
  6
CONTINUOUS
 10
-8.805541113
 20
4.2784071106
 11
-9.0198268145
 21
4.4926928345
  0
LINE
  5
379
100
AcDbEntity
  8
CURVE
100
AcDbLine
 62
250
  6
CONTINUOUS
 10
-7.7341124266
 20
6.9926928345
 11
-7.8412554115
 21
7.2069785584
  0
LINE
  5
37A
100
AcDbEntity
  8
CURVE
100
AcDbLine
 62
250
  6
CONTINUOUS
 10
-5.5198267549
 20
4.4926928345
 11
-5.6269695609
 21
4.7069785584
  0
LINE
  5
37B
100
AcDbEntity
  8
CURVE
100
AcDbLine
 62
250
  6
CONTINUOUS
 10
-2.4841126054
 20
7.8498357076
 11
-2.4841126054
 21
7.2069785584
  0
LINE
  5
37C
100
AcDbEntity
  8
CURVE
100
AcDbLine
 62
250
  6
CONTINUOUS
 10
-2.3269533563
 20
13.7558974632
 11
-2.3269533563
 21
11.2853670942
  0
LINE
  5
37D
100
AcDbEntity
  8
RACCORDO
100
AcDbLine
 62
250
  6
CONTINUOUS
 10
-1.8672598947
 20
-16.3892362205
 11
-1.8672598947
 21
-15.889540807
  0
LINE
  5
37E
100
AcDbEntity
  8
ASSI
100
AcDbLine
 62
250
  6
CONTINUOUS
 10
-1.8672598947
 20
-16.3892362205
 11
-1.8672598947
 21
-15.889540807
  0
LINE
  5
37F
100
AcDbEntity
  8
CURVE
100
AcDbLine
 62
250
  6
CONTINUOUS
 10
-1.8245618815
 20
12.6730217975
 11
-1.8245618815
 21
13.3592479499
  0
LINE
  5
380
100
AcDbEntity
  8
CURVE
100
AcDbLine
 62
250
  6
CONTINUOUS
 10
-1.8072600148
 20
11.2853670942
 11
-1.8072600148
 21
12.2636255134
  0
LINE
  5
381
100
AcDbEntity
  8
CURVE
100
AcDbLine
 62
250
  6
CONTINUOUS
 10
3.9616017825
 20
11.8212642778
 11
3.8258875049
 21
11.5498356942
  0
LINE
  5
382
100
AcDbEntity
  8
RACCORDO
100
AcDbLine
 62
250
  6
CONTINUOUS
 10
12.3016017825
 20
14.2796254566
 11
12.0029471659
 21
13.9807880622
  0
LINE
  5
383
100
AcDbEntity
  8
ASSI
100
AcDbLine
 62
250
  6
CONTINUOUS
 10
12.3016017825
 20
14.2796254566
 11
12.0029471659
 21
13.9807880622
  0
LINE
  5
384
100
AcDbEntity
  8
CURVE
100
AcDbLine
 62
250
  6
CONTINUOUS
 10
7.6258875615
 20
11.2784071106
 11
8.1687444455
 21
11.8212642778
  0
LINE
  5
385
100
AcDbEntity
  8
RACCORDO
100
AcDbLine
 62
7
  6
CONTINUOUS
 10
-10.1178367042
 20
-7.6410313761
 11
-10.1983982175
 21
-7.7215928894
  0
LINE
  5
386
100
AcDbEntity
  8
ASSI
100
AcDbLine
 62
7
  6
CONTINUOUS
 10
-10.1178367042
 20
-7.6410313761
 11
-10.1983982175
 21
-7.7215928894
  0
LINE
  5
387
100
AcDbEntity
  8
RACCORDO
100
AcDbLine
 62
250
  6
CONTINUOUS
 10
-10.6996165635
 20
-7.7215928894
 11
-10.4007849591
 21
-7.4229382728
  0
LINE
  5
388
100
AcDbEntity
  8
ASSI
100
AcDbLine
 62
250
  6
CONTINUOUS
 10
-10.6996165635
 20
-7.7215928894
 11
-10.4007849591
 21
-7.4229382728
  0
LINE
  5
389
100
AcDbEntity
  8
CURVE
100
AcDbLine
 62
250
  6
CONTINUOUS
 10
6.7011047825
 20
-2.5885568894
 11
6.5834847825
 21
-2.5885568894
  0
LINE
  5
38A
100
AcDbEntity
  8
CURVE
100
AcDbLine
 62
250
  6
CONTINUOUS
 10
6.5267757825
 20
-2.3921088894
 11
7.8726427825
 21
-2.3921088894
  0
LINE
  5
38B
100
AcDbEntity
  8
CURVE
100
AcDbLine
 62
250
  6
CONTINUOUS
 10
-3.5379882175
 20
-2.1041048894
 11
-5.0265242175
 21
-2.1041048894
  0
LINE
  5
38C
100
AcDbEntity
  8
CURVE
100
AcDbLine
 62
250
  6
CONTINUOUS
 10
-3.5379882175
 20
-1.3391048894
 11
-5.0265242175
 21
-1.3391048894
  0
LINE
  5
38D
100
AcDbEntity
  8
RACCORDO
100
AcDbLine
 62
7
  6
CONTINUOUS
 10
3.5029471659
 20
-7.4229382728
 11
3.5047752418
 21
-7.4247663487
  0
LINE
  5
38E
100
AcDbEntity
  8
0
100
AcDbLine
 62
7
  6
CONTINUOUS
 10
3.7142998588
 20
-7.6342909656
 11
3.5047752418
 21
-7.4247663487
  0
LINE
  5
38F
100
AcDbEntity
  8
ASSI
100
AcDbLine
 62
7
  6
CONTINUOUS
 10
3.7142998588
 20
-7.6342909656
 11
3.5029471659
 21
-7.4229382728
  0
LINE
  5
390
100
AcDbEntity
  8
0
100
AcDbLine
 62
7
  6
CONTINUOUS
 10
-12.6983982175
 20
9.0284071106
 11
-12.6160755434
 21
8.9460844366
  0
LINE
  5
391
100
AcDbEntity
  8
RACCORDO
100
AcDbLine
 62
7
  6
CONTINUOUS
 10
-12.516444601
 20
8.8464534941
 11
-12.6160755434
 21
8.9460844366
  0
LINE
  5
392
100
AcDbEntity
  8
ASSI
100
AcDbLine
 62
7
  6
CONTINUOUS
 10
-12.516444601
 20
8.8464534941
 11
-12.6983982175
 21
9.0284071106
  0
LINE
  5
393
100
AcDbEntity
  8
CURVE
100
AcDbLine
 62
250
  6
CONTINUOUS
 10
-8.6983982175
 20
5.7784071106
 11
-8.4841124266
 21
5.5641214091
  0
LINE
  5
394
100
AcDbEntity
  8
CURVE
100
AcDbLine
 62
250
  6
CONTINUOUS
 10
-6.8055411428
 20
4.4926928345
 11
-6.5912555307
 21
4.2784071106
  0
LINE
  5
395
100
AcDbEntity
  8
RACCORDO
100
AcDbLine
 62
250
  6
CONTINUOUS
 10
-14.1014814618
 20
11.9815208158
 11
-14.1983982175
 21
12.0784375716
  0
LINE
  5
396
100
AcDbEntity
  8
ASSI
100
AcDbLine
 62
250
  6
CONTINUOUS
 10
-14.1014814618
 20
11.9815208158
 11
-14.1983982175
 21
12.0784375716
  0
LINE
  5
397
100
AcDbEntity
  8
CURVE
100
AcDbLine
 62
250
  6
CONTINUOUS
 10
-7.1983982175
 20
8.0641214091
 11
-7.0912554115
 21
7.8498357076
  0
LINE
  5
398
100
AcDbEntity
  8
CURVE
100
AcDbLine
 62
250
  6
CONTINUOUS
 10
-4.984112367
 20
5.5641214091
 11
-4.8769695609
 21
5.3498357076
  0
LINE
  5
399
100
AcDbEntity
  8
CURVE
100
AcDbLine
 62
250
  6
CONTINUOUS
 10
-5.9291912175
 20
11.2853671106
 11
-6.5413172175
 21
12.9176471106
  0
LWPOLYLINE
  5
39A
100
AcDbEntity
  8
CURVE
100
AcDbPolyline
 62
250
  6
CONTINUOUS
 90
59
 70
0
 10
-1.1210338624
 20
13.0614796361
 10
-1.1210051787
 20
13.0506261782
 10
-1.1212527044
 20
13.039688791
 10
-1.1217765617
 20
13.0286824544
 10
-1.1225768728
 20
13.0176221482
 10
-1.1236537599
 20
13.0065228523
 10
-1.1250073454
 20
12.9953995465
 10
-1.1266377514
 20
12.9842672107
 10
-1.1285451002
 20
12.9731408248
 10
-1.130729514
 20
12.9620353685
 10
-1.133191115
 20
12.9509658218
 10
-1.1359300255
 20
12.9399471646
 10
-1.1389463678
 20
12.9289943766
 10
-1.142240264
 20
12.9181224377
 10
-1.1458118364
 20
12.9073463278
 10
-1.1496612072
 20
12.8966810267
 10
-1.1537884987
 20
12.8861415143
 10
-1.1581938331
 20
12.8757427705
 10
-1.1628773327
 20
12.8654997751
 10
-1.1678391196
 20
12.8554275079
 10
-1.1730793162
 20
12.8455409488
 10
-1.1785980446
 20
12.8358550777
 10
-1.1843954272
 20
12.8263848744
 10
-1.190471586
 20
12.8171453187
 10
-1.1968266434
 20
12.8081513906
 10
-1.2034607217
 20
12.7994180699
 10
-1.2103739429
 20
12.7909603364
 10
-1.2175664295
 20
12.7827931701
 10
-1.2250383036
 20
12.7749315506
 10
-1.2327896874
 20
12.767390458
 10
-1.2408207033
 20
12.760184872
 10
-1.2490157128
 20
12.7534159476
 10
-1.2574701848
 20
12.7469808739
 10
-1.2661713001
 20
12.7408723772
 10
-1.2751062398
 20
12.7350831838
 10
-1.2842621845
 20
12.7296060198
 10
-1.2936263154
 20
12.7244336116
 10
-1.3031858133
 20
12.7195586855
 10
-1.312927859
 20
12.7149739676
 10
-1.3228396335
 20
12.7106721843
 10
-1.3329083177
 20
12.7066460618
 10
-1.3431210926
 20
12.7028883264
 10
-1.3534651389
 20
12.6993917044
 10
-1.3639276377
 20
12.6961489219
 10
-1.3744957698
 20
12.6931527053
 10
-1.3851567162
 20
12.6903957809
 10
-1.3958976577
 20
12.6878708749
 10
-1.4067057752
 20
12.6855707135
 10
-1.4175682497
 20
12.683488023
 10
-1.4284722621
 20
12.6816155298
 10
-1.4394049932
 20
12.67994596
 10
-1.4503536241
 20
12.6784720399
 10
-1.4613053355
 20
12.6771864958
 10
-1.4722473084
 20
12.6760820539
 10
-1.4831667237
 20
12.6751514406
 10
-1.4940507623
 20
12.674387382
 10
-1.5048866051
 20
12.6737826045
 10
-1.515661433
 20
12.6733298342
 10
-1.526362427
 20
12.6730217975
  0
LINE
  5
39B
100
AcDbEntity
  8
CURVE
100
AcDbLine
 62
250
  6
CONTINUOUS
 10
-0.9854494612
 20
12.4522214848
 11
-0.9854494612
 21
12.4669927427
  0
LINE
  5
39C
100
AcDbEntity
  8
CURVE
100
AcDbLine
 62
250
  6
CONTINUOUS
 10
2.9266017862
 20
7.0284071032
 11
2.8016017825
 21
6.7784070957
  0
LINE
  5
39D
100
AcDbEntity
  8
RACCORDO
100
AcDbLine
 62
7
  6
CONTINUOUS
 10
-3.5508780704
 20
-6.2473454641
 11
-3.4902278975
 21
-6.1395203802
  0
LINE
  5
39E
100
AcDbEntity
  8
ASSI
100
AcDbLine
 62
7
  6
CONTINUOUS
 10
-3.5508780704
 20
-6.2473454641
 11
-3.4902278975
 21
-6.1395203802
  0
LINE
  5
39F
100
AcDbEntity
  8
RACCORDO
100
AcDbLine
 62
7
  6
CONTINUOUS
 10
-3.4902278975
 20
-6.1395203802
 11
-3.3663461352
 21
-5.9238520322
  0
LINE
  5
3A0
100
AcDbEntity
  8
ASSI
100
AcDbLine
 62
7
  6
CONTINUOUS
 10
-3.4902278975
 20
-6.1395203802
 11
-3.3663461352
 21
-5.9238520322
  0
LINE
  5
3A1
100
AcDbEntity
  8
CURVE
100
AcDbLine
 62
250
  6
CONTINUOUS
 10
2.9266017862
 20
6.2159071404
 11
2.8016017825
 21
6.0284071404
  0
LINE
  5
3A2
100
AcDbEntity
  8
CURVE
100
AcDbLine
 62
250
  6
CONTINUOUS
 10
7.8016017825
 20
6.2784071106
 11
8.8368407825
 21
7.0820001106
  0
LINE
  5
3A3
100
AcDbEntity
  8
0
100
AcDbLine
 62
7
  6
CONTINUOUS
 10
12.2192791084
 20
-0.3892702153
 11
12.3982176922
 21
-0.3784471961
  0
LINE
  5
3A4
100
AcDbEntity
  8
ASSI
100
AcDbLine
 62
7
  6
CONTINUOUS
 10
12.2192791084
 20
-0.3892702153
 11
12.3982176922
 21
-0.3784471961
  0
LWPOLYLINE
  5
3A5
100
AcDbEntity
  8
CURVE
100
AcDbPolyline
 62
250
  6
CONTINUOUS
 90
44
 70
0
 10
2.3016017817
 20
-0.2215928905
 10
2.2636288216
 20
-0.2222206877
 10
2.2254974491
 20
-0.224089829
 10
2.1872407038
 20
-0.2271789385
 10
2.1488916251
 20
-0.2314666405
 10
2.1104832526
 20
-0.2369315594
 10
2.0720486256
 20
-0.2435523193
 10
2.0336207838
 20
-0.2513075446
 10
1.9952327666
 20
-0.2601758595
 10
1.9569176134
 20
-0.2701358883
 10
1.9187083639
 20
-0.2811662552
 10
1.8806380574
 20
-0.2932455846
 10
1.8427397335
 20
-0.3063525007
 10
1.8050464316
 20
-0.3204656277
 10
1.7675911913
 20
-0.33556359
 10
1.7304070521
 20
-0.3516250118
 10
1.6935270533
 20
-0.3686285173
 10
1.6569842346
 20
-0.386552731
 10
1.6208116354
 20
-0.4053762769
 10
1.5850422952
 20
-0.4250777794
 10
1.5497092535
 20
-0.4456358628
 10
1.5148455498
 20
-0.4670291513
 10
1.4804842236
 20
-0.4892362692
 10
1.4466583143
 20
-0.5122358408
 10
1.4134008615
 20
-0.5360064903
 10
1.3807449047
 20
-0.560526842
 10
1.3487234833
 20
-0.5857755202
 10
1.3173696368
 20
-0.6117311492
 10
1.2867164047
 20
-0.6383723532
 10
1.2567968266
 20
-0.6656777564
 10
1.2276439419
 20
-0.6936259833
 10
1.1992907901
 20
-0.7221956579
 10
1.1717704106
 20
-0.7513654047
 10
1.1451158431
 20
-0.7811138478
 10
1.1193601269
 20
-0.8114196115
 10
1.0945363016
 20
-0.8422613202
 10
1.0706774066
 20
-0.8736175981
 10
1.0478164815
 20
-0.9054670694
 10
1.0259865658
 20
-0.9377883584
 10
1.0052206988
 20
-0.9705600894
 10
0.9855519202
 20
-1.0037608867
 10
0.9670132694
 20
-1.0373693745
 10
0.9496377859
 20
-1.0713641771
 10
0.9334585092
 20
-1.1057239187
  0
LINE
  5
3A6
100
AcDbEntity
  8
RACCORDO
100
AcDbLine
 62
250
  6
CONTINUOUS
 10
-14.053460252
 20
-0.6251330481
 11
-12.843336183
 21
-0.6251330481
  0
LINE
  5
3A7
100
AcDbEntity
  8
ASSI
100
AcDbLine
 62
250
  6
CONTINUOUS
 10
-14.053460252
 20
-0.6251330481
 11
-12.843336183
 21
-0.6251330481
  0
LINE
  5
3A8
100
AcDbEntity
  8
RACCORDO
100
AcDbLine
 62
250
  6
CONTINUOUS
 10
12.446539748
 20
-0.6251330481
 11
13.656663817
 21
-0.6251330481
  0
LINE
  5
3A9
100
AcDbEntity
  8
ASSI
100
AcDbLine
 62
250
  6
CONTINUOUS
 10
12.446539748
 20
-0.6251330481
 11
13.656663817
 21
-0.6251330481
  0
LINE
  5
3AA
100
AcDbEntity
  8
RACCORDO
100
AcDbLine
 62
250
  6
CONTINUOUS
 10
-12.7957002194
 20
-0.2896392728
 11
-12.516444601
 21
-0.2896392728
  0
LINE
  5
3AB
100
AcDbEntity
  8
ASSI
100
AcDbLine
 62
250
  6
CONTINUOUS
 10
-12.7957002194
 20
-0.2896392728
 11
-12.516444601
 21
-0.2896392728
  0
LINE
  5
3AC
100
AcDbEntity
  8
RACCORDO
100
AcDbLine
 62
250
  6
CONTINUOUS
 10
12.1196481659
 20
-0.2896392728
 11
12.3989037844
 21
-0.2896392728
  0
LINE
  5
3AD
100
AcDbEntity
  8
ASSI
100
AcDbLine
 62
250
  6
CONTINUOUS
 10
12.1196481659
 20
-0.2896392728
 11
12.3989037844
 21
-0.2896392728
  0
LINE
  5
3AE
100
AcDbEntity
  8
CURVE
100
AcDbLine
 62
250
  6
CONTINUOUS
 10
7.9130117825
 20
-0.0733138894
 11
7.0896717825
 21
-0.0733138894
  0
LINE
  5
3AF
100
AcDbEntity
  8
RACCORDO
100
AcDbLine
 62
250
  6
CONTINUOUS
 10
-12.7961465811
 20
0.0101779753
 11
-12.5063339853
 21
0.0101779753
  0
LINE
  5
3B0
100
AcDbEntity
  8
ASSI
100
AcDbLine
 62
250
  6
CONTINUOUS
 10
-12.7961465811
 20
0.0101779753
 11
-12.5063339853
 21
0.0101779753
  0
LINE
  5
3B1
100
AcDbEntity
  8
RACCORDO
100
AcDbLine
 62
250
  6
CONTINUOUS
 10
12.1095375503
 20
0.0101779753
 11
12.3993501461
 21
0.0101779753
  0
LINE
  5
3B2
100
AcDbEntity
  8
ASSI
100
AcDbLine
 62
250
  6
CONTINUOUS
 10
12.1095375503
 20
0.0101779753
 11
12.3993501461
 21
0.0101779753
  0
LINE
  5
3B3
100
AcDbEntity
  8
0
100
AcDbLine
 62
7
  6
CONTINUOUS
 10
-12.7950141272
 20
-0.3784471961
 11
-12.6160755434
 21
-0.3892702153
  0
LINE
  5
3B4
100
AcDbEntity
  8
ASSI
100
AcDbLine
 62
7
  6
CONTINUOUS
 10
-12.7950141272
 20
-0.3784471961
 11
-12.6160755434
 21
-0.3892702153
  0
LWPOLYLINE
  5
3B5
100
AcDbEntity
  8
CURVE
100
AcDbPolyline
 62
250
  6
CONTINUOUS
 90
84
 70
0
 10
1.2379726609
 20
-2.779435327
 10
1.2775618829
 20
-2.8176382103
 10
1.3187106745
 20
-2.854623407
 10
1.3613474159
 20
-2.8903124292
 10
1.4054004876
 20
-2.9246267893
 10
1.4507982699
 20
-2.9574879992
 10
1.4974691432
 20
-2.9888175713
 10
1.5453414877
 20
-3.0185370177
 10
1.5943436837
 20
-3.0465678506
 10
1.6444041118
 20
-3.0728315821
 10
1.695451152
 20
-3.0972497245
 10
1.7474131849
 20
-3.1197437899
 10
1.8002185908
 20
-3.1402352905
 10
1.8537957499
 20
-3.1586457385
 10
1.9080730427
 20
-3.1748966461
 10
1.9629788494
 20
-3.1889095253
 10
2.0184415504
 20
-3.2006058886
 10
2.074389526
 20
-3.2099072479
 10
2.1307511567
 20
-3.2167351155
 10
2.1874548226
 20
-3.2210110035
 10
2.2444289042
 20
-3.2226564242
 10
2.3016017817
 20
-3.2215928897
 10
2.3556474783
 20
-3.2180571372
 10
2.4097358907
 20
-3.21210034
 10
2.463796578
 20
-3.2037816184
 10
2.5177590994
 20
-3.1931600927
 10
2.5715530138
 20
-3.1802948832
 10
2.6251078802
 20
-3.1652451103
 10
2.6783532577
 20
-3.1480698942
 10
2.7312187055
 20
-3.1288283553
 10
2.7836337824
 20
-3.1075796138
 10
2.8355280475
 20
-3.0843827902
 10
2.88683106
 20
-3.0592970046
 10
2.9374723788
 20
-3.0323813774
 10
2.9873815629
 20
-3.0036950289
 10
3.0364881715
 20
-2.9732970795
 10
3.0847217636
 20
-2.9412466494
 10
3.1320118981
 20
-2.9076028589
 10
3.1782881342
 20
-2.8724248284
 10
3.2234800309
 20
-2.8357716781
 10
3.2675171473
 20
-2.7977025284
 10
3.3103290423
 20
-2.7582764996
 10
3.3518452751
 20
-2.717552712
 10
3.3919954046
 20
-2.675590286
 10
3.43070899
 20
-2.6324483417
 10
3.4679155902
 20
-2.5881859996
 10
3.5035447644
 20
-2.5428623799
 10
3.5375260714
 20
-2.4965366029
 10
3.5697890705
 20
-2.449267789
 10
3.6002633206
 20
-2.4011150585
 10
3.6288783808
 20
-2.3521375317
 10
3.6555638101
 20
-2.3023943288
 10
3.6802491676
 20
-2.2519445703
 10
3.7028640123
 20
-2.2008473764
 10
3.7233379032
 20
-2.1491618674
 10
3.7416003995
 20
-2.0969471637
 10
3.7575810601
 20
-2.0442623854
 10
3.7712094441
 20
-1.9911666531
 10
3.7824151105
 20
-1.9377190869
 10
3.7911276184
 20
-1.8839788072
 10
3.7972765268
 20
-1.8300049343
 10
3.8007913948
 20
-1.7758565885
 10
3.8016017814
 20
-1.7215928901
 10
3.7996573635
 20
-1.667208001
 10
3.7950059927
 20
-1.6128343387
 10
3.7877224185
 20
-1.5585394995
 10
3.7778813909
 20
-1.5043910799
 10
3.7655576597
 20
-1.4504566764
 10
3.7508259746
 20
-1.3968038853
 10
3.7337610854
 20
-1.3435003031
 10
3.714437742
 20
-1.2906135262
 10
3.6929306941
 20
-1.238211151
 10
3.6693146915
 20
-1.186360774
 10
3.6436644841
 20
-1.1351299916
 10
3.6160548216
 20
-1.0845864002
 10
3.5865604538
 20
-1.0347975962
 10
3.5552561306
 20
-0.9858311762
 10
3.5222166017
 20
-0.9377547364
 10
3.4875166169
 20
-0.8906358733
 10
3.451230926
 20
-0.8445421834
 10
3.4134342789
 20
-0.7995412631
 10
3.3742014252
 20
-0.7557007088
 10
3.3336071149
 20
-0.7130881169
 10
3.2917260977
 20
-0.6717710838
  0
LINE
  5
3B6
100
AcDbEntity
  8
RACCORDO
100
AcDbLine
 62
250
  6
CONTINUOUS
 10
-13.9015155671
 20
12.1814939993
 11
-13.9984286785
 21
12.2784071106
  0
LINE
  5
3B7
100
AcDbEntity
  8
ASSI
100
AcDbLine
 62
250
  6
CONTINUOUS
 10
-13.9015155671
 20
12.1814939993
 11
-13.9984286785
 21
12.2784071106
  0
LINE
  5
3B8
100
AcDbEntity
  8
CURVE
100
AcDbLine
 62
250
  6
CONTINUOUS
 10
-9.4483982175
 20
8.0641214091
 11
-9.662683919
 21
8.2784071106
  0
LINE
  5
3B9
100
AcDbEntity
  8
CURVE
100
AcDbLine
 62
250
  6
CONTINUOUS
 10
-6.0555411428
 20
4.9212642599
 11
-6.2698267549
 21
5.1355500061
  0
LINE
  5
3BA
100
AcDbEntity
  8
CURVE
100
AcDbLine
 62
250
  6
CONTINUOUS
 10
-5.3055411428
 20
4.2784071106
 11
-5.5198267549
 21
4.4926928345
  0
LINE
  5
3BB
100
AcDbEntity
  8
CURVE
100
AcDbLine
 62
250
  6
CONTINUOUS
 10
-7.5198268145
 20
6.7784071106
 11
-7.7341124266
 21
6.9926928345
  0
LINE
  5
3BC
100
AcDbEntity
  8
CURVE
100
AcDbLine
 62
250
  6
CONTINUOUS
 10
-8.2698268145
 20
8.0641214091
 11
-8.4841124266
 21
8.2784071106
  0
LINE
  5
3BD
100
AcDbEntity
  8
RACCORDO
100
AcDbLine
 62
7
  6
CONTINUOUS
 10
2.9695497002
 20
-5.9238520322
 11
3.0859872593
 21
-6.1264364753
  0
LINE
  5
3BE
100
AcDbEntity
  8
ASSI
100
AcDbLine
 62
7
  6
CONTINUOUS
 10
2.9695497002
 20
-5.9238520322
 11
3.0859872593
 21
-6.1264364753
  0
LWPOLYLINE
  5
3BF
100
AcDbEntity
  8
RACCORDO
100
AcDbPolyline
 62
7
  6
CONTINUOUS
 90
20
 70
0
 10
3.0859872593
 20
-6.1264364753
 10
3.1416651282
 20
-6.2250806512
 10
3.1687627239
 20
-6.2738083477
 10
3.1952341941
 20
-6.3221289125
 10
3.2211154419
 20
-6.3700307477
 10
3.2462894651
 20
-6.4175138706
 10
3.270658053
 20
-6.4645782638
 10
3.294253504
 20
-6.5112122769
 10
3.3169434609
 20
-6.5574436743
 10
3.338594794
 20
-6.6032446917
 10
3.3591899421
 20
-6.6485203849
 10
3.3785478881
 20
-6.6932806404
 10
3.3965149022
 20
-6.7375155719
 10
3.4130395997
 20
-6.7811005764
 10
3.4278980206
 20
-6.8240934921
 10
3.4408612654
 20
-6.866436481
 10
3.4517674252
 20
-6.9078314259
 10
3.4603433296
 20
-6.9481789547
 10
3.4662662767
 20
-6.9875784396
 10
3.4692451137
 20
-7.0260298807
  0
LWPOLYLINE
  5
3C0
100
AcDbEntity
  8
ASSI
100
AcDbPolyline
 62
7
  6
CONTINUOUS
 90
20
 70
0
 10
3.0859872593
 20
-6.1264364753
 10
3.1416651282
 20
-6.2250806512
 10
3.1687627239
 20
-6.2738083477
 10
3.1952341941
 20
-6.3221289125
 10
3.2211154419
 20
-6.3700307477
 10
3.2462894651
 20
-6.4175138706
 10
3.270658053
 20
-6.4645782638
 10
3.294253504
 20
-6.5112122769
 10
3.3169434609
 20
-6.5574436743
 10
3.338594794
 20
-6.6032446917
 10
3.3591899421
 20
-6.6485203849
 10
3.3785478881
 20
-6.6932806404
 10
3.3965149022
 20
-6.7375155719
 10
3.4130395997
 20
-6.7811005764
 10
3.4278980206
 20
-6.8240934921
 10
3.4408612654
 20
-6.866436481
 10
3.4517674252
 20
-6.9078314259
 10
3.4603433296
 20
-6.9481789547
 10
3.4662662767
 20
-6.9875784396
 10
3.4692451137
 20
-7.0260298807
  0
LINE
  5
3C1
100
AcDbEntity
  8
CURVE
100
AcDbLine
 62
250
  6
CONTINUOUS
 10
-6.4060332175
 20
13.7851031106
 11
-5.8897512175
 21
12.3972421106
  0
LWPOLYLINE
  5
3C2
100
AcDbEntity
  8
CURVE
100
AcDbPolyline
 62
250
  6
CONTINUOUS
 90
61
 70
0
 10
0.3897890519
 20
-2.3103855634
 10
0.3744249493
 20
-2.2584597523
 10
0.3602273928
 20
-2.2061573969
 10
0.3472973347
 20
-2.1534972923
 10
0.335735727
 20
-2.1004982336
 10
0.3256435219
 20
-2.0471790157
 10
0.3171216714
 20
-1.9935584338
 10
0.3102711278
 20
-1.9396552829
 10
0.3051928432
 20
-1.885488358
 10
0.3019877697
 20
-1.8310764542
 10
0.3007568594
 20
-1.7764383665
 10
0.3016010645
 20
-1.7215928901
 10
0.3048723097
 20
-1.6628984853
 10
0.3105640295
 20
-1.6040471346
 10
0.3186215794
 20
-1.545096404
 10
0.3289903151
 20
-1.4861038592
 10
0.3416155921
 20
-1.4271270662
 10
0.356442766
 20
-1.3682235907
 10
0.3734171926
 20
-1.3094509987
 10
0.3924842273
 20
-1.250866856
 10
0.4135892257
 20
-1.1925287286
 10
0.4366775435
 20
-1.1344941821
 10
0.4616945363
 20
-1.0768207826
 10
0.4885855597
 20
-1.0195660958
 10
0.5172959692
 20
-0.9627876877
 10
0.5477711206
 20
-0.906543124
 10
0.5799563693
 20
-0.8508899707
 10
0.613797071
 20
-0.7958857936
 10
0.6492385813
 20
-0.7415881586
 10
0.6862262558
 20
-0.6880546316
 10
0.7247054501
 20
-0.6353427783
 10
0.7646215198
 20
-0.5835101647
 10
0.8059198206
 20
-0.5326143566
 10
0.8485457079
 20
-0.4827129199
 10
0.8924445375
 20
-0.4338634205
 10
0.9375616648
 20
-0.3861234242
 10
0.9838424456
 20
-0.3395504968
 10
1.0312322355
 20
-0.2942022043
 10
1.0796763899
 20
-0.2501361124
 10
1.1291202646
 20
-0.2074097872
 10
1.1795092152
 20
-0.1660807943
 10
1.2307885971
 20
-0.1262066998
 10
1.2829037662
 20
-0.0878450693
 10
1.3358000778
 20
-0.0510534689
 10
1.3894228878
 20
-0.0158894644
 10
1.4437175516
 20
0.0175893784
 10
1.4986294248
 20
0.0493254937
 10
1.5541038631
 20
0.0792613155
 10
1.6100862221
 20
0.1073392779
 10
1.6665218573
 20
0.1335018152
 10
1.7233561245
 20
0.1576913614
 10
1.7805343791
 20
0.1798503508
 10
1.8380019768
 20
0.1999212174
 10
1.8957042731
 20
0.2178463953
 10
1.9535866238
 20
0.2335683188
 10
2.0115943844
 20
0.2470294219
 10
2.0696729104
 20
0.2581721388
 10
2.1277675576
 20
0.2669389037
 10
2.1858236815
 20
0.2732721506
 10
2.2437866376
 20
0.2771143137
 10
2.3016017817
 20
0.2784078271
  0
LINE
  5
3C3
100
AcDbEntity
  8
CURVE
100
AcDbLine
 62
250
  6
CONTINUOUS
 10
-3.2695772175
 20
12.1705551106
 11
-3.5093482175
 21
13.0982391106
  0
LINE
  5
3C4
100
AcDbEntity
  8
CURVE
100
AcDbLine
 62
250
  6
CONTINUOUS
 10
-0.1346944528
 20
-3.4725368817
 11
-0.6983982175
 21
-4.7215928894
  0
LINE
  5
3C5
100
AcDbEntity
  8
CURVE
100
AcDbLine
 62
250
  6
CONTINUOUS
 10
0.9339688139
 20
-1.1045913436
 11
0.3897890519
 21
-2.3103855634
  0
LINE
  5
3C6
100
AcDbEntity
  8
RACCORDO
100
AcDbLine
 62
250
  6
CONTINUOUS
 10
13.5047187889
 20
12.181493656
 11
13.6016322435
 21
12.2784071106
  0
LINE
  5
3C7
100
AcDbEntity
  8
ASSI
100
AcDbLine
 62
250
  6
CONTINUOUS
 10
13.5047187889
 20
12.181493656
 11
13.6016322435
 21
12.2784071106
  0
LINE
  5
3C8
100
AcDbEntity
  8
RACCORDO
100
AcDbLine
 62
250
  6
CONTINUOUS
 10
13.7046850267
 20
11.9815208158
 11
13.8016017825
 21
12.0784375716
  0
LINE
  5
3C9
100
AcDbEntity
  8
ASSI
100
AcDbLine
 62
250
  6
CONTINUOUS
 10
13.7046850267
 20
11.9815208158
 11
13.8016017825
 21
12.0784375716
  0
LWPOLYLINE
  5
3CA
100
AcDbEntity
  8
CURVE
100
AcDbPolyline
 62
250
  6
CONTINUOUS
 90
57
 70
0
 10
7.1446744529
 20
1.4055234427
 10
7.1072037036
 20
1.4038481291
 10
7.0696553958
 20
1.401513875
 10
7.0320838159
 20
1.3985336622
 10
6.99454325
 20
1.3949204723
 10
6.9570879844
 20
1.3906872871
 10
6.9197723053
 20
1.3858470882
 10
6.8826504988
 20
1.3804128575
 10
6.8457768513
 20
1.3743975765
 10
6.8092056489
 20
1.3678142271
 10
6.7729911778
 20
1.3606757908
 10
6.7499445796
 20
1.3557979357
 10
6.7270378227
 20
1.3506531042
 10
6.7042413002
 20
1.3451978111
 10
6.6815254052
 20
1.3393885707
 10
6.6588605311
 20
1.3331818978
 10
6.6362170708
 20
1.3265343067
 10
6.6135654178
 20
1.3194023121
 10
6.590875965
 20
1.3117424285
 10
6.5681191057
 20
1.3035111704
 10
6.5452652332
 20
1.2946650524
 10
6.5222847405
 20
1.285160589
 10
6.4991480208
 20
1.2749542948
 10
6.4758254674
 20
1.2640026842
 10
6.4640483739
 20
1.2582139959
 10
6.4522419127
 20
1.2522270425
 10
6.4404309583
 20
1.2460421576
 10
6.428640385
 20
1.2396596748
 10
6.4168950673
 20
1.2330799276
 10
6.4052198795
 20
1.2263032497
 10
6.3936396961
 20
1.2193299746
 10
6.3821793913
 20
1.2121604357
 10
6.3708638396
 20
1.2047949668
 10
6.3597179155
 20
1.1972339014
 10
6.3487664931
 20
1.189477573
 10
6.3380344471
 20
1.1815263152
 10
6.3275466517
 20
1.1733804616
 10
6.3173279813
 20
1.1650403457
 10
6.3074033104
 20
1.1565063011
 10
6.2977975133
 20
1.1477786614
 10
6.2885354644
 20
1.1388577601
 10
6.279642038
 20
1.1297439308
 10
6.2711421087
 20
1.120437507
 10
6.2630605508
 20
1.1109388224
 10
6.2554222386
 20
1.1012482104
 10
6.2482520465
 20
1.0913660047
 10
6.241574849
 20
1.0812925389
 10
6.2354155205
 20
1.0710281464
 10
6.2297989352
 20
1.0605731608
 10
6.2247499677
 20
1.0499279158
 10
6.2202934922
 20
1.0390927448
 10
6.2164543833
 20
1.0280679814
 10
6.2132575152
 20
1.0168539593
 10
6.2107277624
 20
1.005451012
 10
6.2088899992
 20
0.9938594729
 10
6.2077691001
 20
0.9820796758
 10
6.2073899394
 20
0.9701119541
  0
LWPOLYLINE
  5
3CB
100
AcDbEntity
  8
CURVE
100
AcDbPolyline
 62
250
  6
CONTINUOUS
 90
66
 70
0
 10
2.3016017817
 20
1.2784071091
 10
2.2092486274
 20
1.2762430438
 10
2.1167148336
 20
1.2698171851
 10
2.0240949463
 20
1.2592290392
 10
1.9314835113
 20
1.2445781122
 10
1.8389750745
 20
1.2259639103
 10
1.746664182
 20
1.2034859396
 10
1.6546453795
 20
1.1772437063
 10
1.563013213
 20
1.1473367164
 10
1.4718622284
 20
1.1138644762
 10
1.3812869716
 20
1.0769264916
 10
1.2913819886
 20
1.036622269
 10
1.2022418252
 20
0.9930513143
 10
1.1139610274
 20
0.9463131338
 10
1.0266341411
 20
0.8965072336
 10
0.9403557122
 20
0.8437331197
 10
0.8552202865
 20
0.7880902984
 10
0.7713224101
 20
0.7296782758
 10
0.6887566288
 20
0.668596558
 10
0.6076174886
 20
0.6049446511
 10
0.5279995353
 20
0.5388220613
 10
0.4499973149
 20
0.4703282946
 10
0.3737053732
 20
0.3995628574
 10
0.2992182563
 20
0.3266252555
 10
0.22663051
 20
0.2516149953
 10
0.1560366801
 20
0.1746315829
 10
0.0875313128
 20
0.0957745243
 10
0.0212089537
 20
0.0151433257
 10
-0.042835851
 20
-0.0671625068
 10
-0.1045085556
 20
-0.151043467
 10
-0.1637146142
 20
-0.2364000488
 10
-0.2203594807
 20
-0.3231327461
 10
-0.2743486093
 20
-0.4111420526
 10
-0.325587454
 20
-0.5003284624
 10
-0.3739814691
 20
-0.5905924693
 10
-0.4194361085
 20
-0.6818345671
 10
-0.4618568263
 20
-0.7739552497
 10
-0.5011490766
 20
-0.8668550109
 10
-0.5372183136
 20
-0.9604343447
 10
-0.5699699912
 20
-1.0545937449
 10
-0.5993095637
 20
-1.1492337053
 10
-0.625142485
 20
-1.2442547199
 10
-0.6473742092
 20
-1.3395572825
 10
-0.6659101905
 20
-1.4350418869
 10
-0.6806558829
 20
-1.5306090271
 10
-0.6915167406
 20
-1.6261591969
 10
-0.6983982175
 20
-1.7215928901
 10
-0.7012773694
 20
-1.8215367465
 10
-0.6997986341
 20
-1.9211485098
 10
-0.694092859
 20
-2.020334061
 10
-0.6842908914
 20
-2.118999281
 10
-0.6705235786
 20
-2.2170500507
 10
-0.652921768
 20
-2.3143922511
 10
-0.6316163069
 20
-2.4109317631
 10
-0.6067380425
 20
-2.5065744677
 10
-0.5784178222
 20
-2.6012262459
 10
-0.5467864933
 20
-2.6947929786
 10
-0.511974903
 20
-2.7871805467
 10
-0.4741138989
 20
-2.8782948312
 10
-0.433334328
 20
-2.9680417131
 10
-0.3897670379
 20
-3.0563270733
 10
-0.3435428757
 20
-3.1430567927
 10
-0.2947926887
 20
-3.2281367523
 10
-0.2436473244
 20
-3.311472833
 10
-0.19023763
 20
-3.3929709159
 10
-0.1346944528
 20
-3.4725368817
  0
LINE
  5
3CC
100
AcDbEntity
  8
CURVE
100
AcDbLine
 62
250
  6
CONTINUOUS
 10
7.0896717825
 20
0.1423221106
 11
7.9130117825
 21
0.1423221106
  0
LINE
  5
3CD
100
AcDbEntity
  8
CURVE
100
AcDbLine
 62
250
  6
CONTINUOUS
 10
8.7195487825
 20
0.2347381106
 11
8.3694887825
 21
0.2347381106
  0
LINE
  5
3CE
100
AcDbEntity
  8
CURVE
100
AcDbLine
 62
250
  6
CONTINUOUS
 10
8.3694887825
 20
0.6072021106
 11
8.7195487825
 21
0.6072021106
  0
LINE
  5
3CF
100
AcDbEntity
  8
CURVE
100
AcDbLine
 62
250
  6
CONTINUOUS
 10
5.9916287825
 20
0.9701121106
 11
8.4295357825
 21
0.9701121106
  0
LINE
  5
3D0
100
AcDbEntity
  8
CURVE
100
AcDbLine
 62
250
  6
CONTINUOUS
 10
6.5198177825
 20
1.3647301106
 11
6.6191917825
 21
1.3647301106
  0
LINE
  5
3D1
100
AcDbEntity
  8
CURVE
100
AcDbLine
 62
250
  6
CONTINUOUS
 10
7.7176777825
 20
1.2396521106
 11
7.1446747825
 21
1.2402101106
  0
LINE
  5
3D2
100
AcDbEntity
  8
CURVE
100
AcDbLine
 62
250
  6
CONTINUOUS
 10
7.1446747825
 20
1.4577041106
 11
7.7176777825
 21
1.4571461106
  0
LINE
  5
3D3
100
AcDbEntity
  8
CURVE
100
AcDbLine
 62
250
  6
CONTINUOUS
 10
-5.1983983367
 20
5.7784071106
 11
-4.984112367
 21
5.5641214091
  0
LINE
  5
3D4
100
AcDbEntity
  8
CURVE
100
AcDbLine
 62
250
  6
CONTINUOUS
 10
-7.4126840084
 20
8.2784071106
 11
-7.1983982175
 21
8.0641214091
  0
LINE
  5
3D5
100
AcDbEntity
  8
RACCORDO
100
AcDbLine
 62
250
  6
CONTINUOUS
 10
-12.6983982175
 20
14.2796254566
 11
-12.3997436009
 21
13.9807938522
  0
LINE
  5
3D6
100
AcDbEntity
  8
ASSI
100
AcDbLine
 62
250
  6
CONTINUOUS
 10
-12.6983982175
 20
14.2796254566
 11
-12.3997436009
 21
13.9807938522
  0
LINE
  5
3D7
100
AcDbEntity
  8
CURVE
100
AcDbLine
 62
250
  6
CONTINUOUS
 10
-3.1269694417
 20
6.9926928345
 11
-3.2341126054
 21
7.2069785584
  0
LINE
  5
3D8
100
AcDbEntity
  8
CURVE
100
AcDbLine
 62
250
  6
CONTINUOUS
 10
-2.5912550538
 20
8.0641214091
 11
-2.4841126054
 21
7.8498357076
  0
LINE
  5
3D9
100
AcDbEntity
  8
CURVE
100
AcDbLine
 62
250
  6
CONTINUOUS
 10
-3.2471582175
 20
13.7851031106
 11
-2.4801772175
 21
11.2853671106
  0
LINE
  5
3DA
100
AcDbEntity
  8
CURVE
100
AcDbLine
 62
250
  6
CONTINUOUS
 10
-2.0555413812
 20
8.2784071106
 11
-1.6269694417
 21
6.7784071106
  0
LINE
  5
3DB
100
AcDbEntity
  8
CURVE
100
AcDbLine
 62
250
  6
CONTINUOUS
 10
-3.0301252175
 20
11.2853671106
 11
-3.1652972175
 21
11.7844031106
  0
LINE
  5
3DC
100
AcDbEntity
  8
RACCORDO
100
AcDbLine
 62
250
  6
CONTINUOUS
 10
1.4704634596
 20
-16.3892362205
 11
1.4704634596
 21
-15.889540807
  0
LINE
  5
3DD
100
AcDbEntity
  8
ASSI
100
AcDbLine
 62
250
  6
CONTINUOUS
 10
1.4704634596
 20
-16.3892362205
 11
1.4704634596
 21
-15.889540807
  0
LINE
  5
3DE
100
AcDbEntity
  8
CURVE
100
AcDbLine
 62
250
  6
CONTINUOUS
 10
2.3016017817
 20
-4.7215928894
 11
2.3016017817
 21
-3.7215925307
  0
LINE
  5
3DF
100
AcDbEntity
  8
CURVE
100
AcDbLine
 62
250
  6
CONTINUOUS
 10
2.3016017817
 20
0.2784078271
 11
2.3016017817
 21
1.2784071091
  0
LINE
  5
3E0
100
AcDbEntity
  8
CURVE
100
AcDbLine
 62
250
  6
CONTINUOUS
 10
0.3016010645
 20
-4.7215928894
 11
0.5675559839
 21
-4.1699674144
  0
LINE
  5
3E1
100
AcDbEntity
  8
CURVE
100
AcDbLine
 62
250
  6
CONTINUOUS
 10
1.0112702993
 20
-3.2496445805
 11
1.2379726609
 21
-2.779435327
  0
LINE
  5
3E2
100
AcDbEntity
  8
0
100
AcDbLine
 62
7
  6
CONTINUOUS
 10
12.3016017825
 20
9.0284071106
 11
12.2192791084
 21
8.9460844366
  0
LINE
  5
3E3
100
AcDbEntity
  8
RACCORDO
100
AcDbLine
 62
7
  6
CONTINUOUS
 10
12.1196481659
 20
8.8464534941
 11
12.2192791084
 21
8.9460844366
  0
LINE
  5
3E4
100
AcDbEntity
  8
ASSI
100
AcDbLine
 62
7
  6
CONTINUOUS
 10
12.1196481659
 20
8.8464534941
 11
12.3016017825
 21
9.0284071106
  0
LINE
  5
3E5
100
AcDbEntity
  8
RACCORDO
100
AcDbLine
 62
7
  6
CONTINUOUS
 10
-3.8997436009
 20
-7.4229382728
 11
-3.9015716768
 21
-7.4247663487
  0
LINE
  5
3E6
100
AcDbEntity
  8
0
100
AcDbLine
 62
7
  6
CONTINUOUS
 10
-4.1110962938
 20
-7.6342909656
 11
-3.9015716768
 21
-7.4247663487
  0
LINE
  5
3E7
100
AcDbEntity
  8
ASSI
100
AcDbLine
 62
7
  6
CONTINUOUS
 10
-4.1110962938
 20
-7.6342909656
 11
-3.8997436009
 21
-7.4229382728
  0
LWPOLYLINE
  5
3E8
100
AcDbEntity
  8
CURVE
100
AcDbPolyline
 62
250
  6
CONTINUOUS
 90
37
 70
0
 10
3.2917260977
 20
-0.6717710838
 10
3.2679903407
 20
-0.649457256
 10
3.2438951122
 20
-0.6275735579
 10
3.2194531333
 20
-0.6061314936
 10
3.1946771255
 20
-0.585142567
 10
3.16957981
 20
-0.5646182818
 10
3.144173908
 20
-0.5445701421
 10
3.118472141
 20
-0.5250096516
 10
3.0924872301
 20
-0.5059483144
 10
3.0662318967
 20
-0.4873976343
 10
3.0397188621
 20
-0.4693691152
 10
3.0129608476
 20
-0.4518742609
 10
2.9859705744
 20
-0.4349245755
 10
2.9587607638
 20
-0.4185315627
 10
2.9313441372
 20
-0.4027067265
 10
2.9037334158
 20
-0.3874615708
 10
2.8759413209
 20
-0.3728075995
 10
2.8479805738
 20
-0.3587563164
 10
2.8198638958
 20
-0.3453192255
 10
2.7916040082
 20
-0.3325078307
 10
2.7632136323
 20
-0.3203336358
 10
2.7347054894
 20
-0.3088081448
 10
2.7060923008
 20
-0.2979428615
 10
2.6773867877
 20
-0.2877492898
 10
2.6486016715
 20
-0.2782389337
 10
2.6197496734
 20
-0.269423297
 10
2.5908435148
 20
-0.2613138837
 10
2.5618959168
 20
-0.2539221976
 10
2.532919601
 20
-0.2472597426
 10
2.5039272884
 20
-0.2413380226
 10
2.4749317004
 20
-0.2361685415
 10
2.4459455584
 20
-0.2317628033
 10
2.4169815835
 20
-0.2281323117
 10
2.3880524971
 20
-0.2252885708
 10
2.3591710205
 20
-0.2232430843
 10
2.3303498749
 20
-0.2220073563
 10
2.3016017817
 20
-0.2215928905
  0
LINE
  5
3E9
100
AcDbEntity
  8
RACCORDO
100
AcDbLine
 62
250
  6
CONTINUOUS
 10
10.3028201284
 20
-7.7215928894
 11
10.0039827341
 21
-7.4229382728
  0
LINE
  5
3EA
100
AcDbEntity
  8
ASSI
100
AcDbLine
 62
250
  6
CONTINUOUS
 10
10.3028201284
 20
-7.7215928894
 11
10.0039827341
 21
-7.4229382728
  0
LINE
  5
3EB
100
AcDbEntity
  8
RACCORDO
100
AcDbLine
 62
7
  6
CONTINUOUS
 10
9.7210402692
 20
-7.6410313761
 11
9.8016017825
 21
-7.7215928894
  0
LINE
  5
3EC
100
AcDbEntity
  8
ASSI
100
AcDbLine
 62
7
  6
CONTINUOUS
 10
9.7210402692
 20
-7.6410313761
 11
9.8016017825
 21
-7.7215928894
  0
LINE
  5
3ED
100
AcDbEntity
  8
CURVE
100
AcDbLine
 62
250
  6
CONTINUOUS
 10
-4.8412554115
 20
8.0641214091
 11
-5.0555410236
 21
8.2784071106
  0
LINE
  5
3EE
100
AcDbEntity
  8
CURVE
100
AcDbLine
 62
250
  6
CONTINUOUS
 10
-2.9126838296
 20
6.7784071106
 11
-3.1269694417
 21
6.9926928345
  0
LINE
  5
3EF
100
AcDbEntity
  8
CURVE
100
AcDbLine
 62
250
  6
CONTINUOUS
 10
-1.1059322195
 20
11.6208274216
 11
-1.008206196
 21
11.2853670942
  0
LINE
  5
3F0
100
AcDbEntity
  8
CURVE
100
AcDbLine
 62
250
  6
CONTINUOUS
 10
-1.1564820388
 20
11.7981663097
 11
-1.1361164769
 21
11.7272729794
  0
LINE
  5
3F1
100
AcDbEntity
  8
CURVE
100
AcDbLine
 62
250
  6
CONTINUOUS
 10
-1.1361164769
 20
11.7272729794
 11
-1.1059322195
 21
11.6208274216
  0
LWPOLYLINE
  5
3F2
100
AcDbEntity
  8
CURVE
100
AcDbPolyline
 62
250
  6
CONTINUOUS
 90
45
 70
0
 10
-0.7004313408
 20
12.0200205508
 10
-0.7058092403
 20
12.0393452305
 10
-0.7113760304
 20
12.0587191177
 10
-0.7172066187
 20
12.0781824436
 10
-0.7233759131
 20
12.0977754398
 10
-0.7269136519
 20
12.1085429659
 10
-0.7305770577
 20
12.1193503134
 10
-0.7343684121
 20
12.1301866204
 10
-0.7382899971
 20
12.1410410251
 10
-0.7423440943
 20
12.1519026655
 10
-0.7465329854
 20
12.1627606797
 10
-0.7508589524
 20
12.1736042057
 10
-0.7553242768
 20
12.1844223818
 10
-0.7599312405
 20
12.1952043458
 10
-0.7646821252
 20
12.205939236
 10
-0.7695792127
 20
12.2166161904
 10
-0.7746247848
 20
12.2272243471
 10
-0.7798211231
 20
12.2377528442
 10
-0.7851705095
 20
12.2481908197
 10
-0.7906752258
 20
12.2585274118
 10
-0.7963375535
 20
12.2687517585
 10
-0.8021597746
 20
12.2788529979
 10
-0.8081441708
 20
12.2888202681
 10
-0.8142930239
 20
12.2986427072
 10
-0.8206086155
 20
12.3083094533
 10
-0.8270932275
 20
12.3178096444
 10
-0.8337491416
 20
12.3271324186
 10
-0.8405786396
 20
12.336266914
 10
-0.8475840033
 20
12.3452022688
 10
-0.8547675143
 20
12.3539276209
 10
-0.8621314544
 20
12.3624321085
 10
-0.8696781055
 20
12.3707048696
 10
-0.8774097492
 20
12.3787350423
 10
-0.8853286673
 20
12.3865117648
 10
-0.8934371416
 20
12.3940241751
 10
-0.9017374539
 20
12.4012614112
 10
-0.9102318858
 20
12.4082126113
 10
-0.9189227192
 20
12.4148669135
 10
-0.9278122358
 20
12.4212134557
 10
-0.9369027174
 20
12.4272413762
 10
-0.9461964457
 20
12.432939813
 10
-0.9556957024
 20
12.4382979042
 10
-0.9654027694
 20
12.4433047878
 10
-0.9753199284
 20
12.447949602
 10
-0.9854494612
 20
12.4522214848
  0
LINE
  5
3F3
100
AcDbEntity
  8
CURVE
100
AcDbLine
 62
250
  6
CONTINUOUS
 10
-0.6603113594
 20
11.8716473694
 11
-0.7004313408
 21
12.0200205508
  0
LINE
  5
3F4
100
AcDbEntity
  8
CURVE
100
AcDbLine
 62
250
  6
CONTINUOUS
 10
-0.5063020977
 20
11.2853670942
 11
-0.5301085748
 21
11.3746121865
  0
LINE
  5
3F5
100
AcDbEntity
  8
CURVE
100
AcDbLine
 62
250
  6
CONTINUOUS
 10
-0.612546464
 20
11.6908019398
 11
-0.6603113594
 21
11.8716473694
  0
LINE
  5
3F6
100
AcDbEntity
  8
CURVE
100
AcDbLine
 62
250
  6
CONTINUOUS
 10
-0.5301085748
 20
11.3746121865
 11
-0.612546464
 21
11.6908019398
  0
LINE
  5
3F7
100
AcDbEntity
  8
RACCORDO
100
AcDbLine
 62
250
  6
CONTINUOUS
 10
2.9695497002
 20
-5.9238520322
 11
2.9695497002
 21
-14.3904545665
  0
LINE
  5
3F8
100
AcDbEntity
  8
ASSI
100
AcDbLine
 62
250
  6
CONTINUOUS
 10
2.9695497002
 20
-5.9238520322
 11
2.9695497002
 21
-14.3904545665
  0
LINE
  5
3F9
100
AcDbEntity
  8
CURVE
100
AcDbLine
 62
250
  6
CONTINUOUS
 10
3.0116017825
 20
11.8212642778
 11
3.0116017825
 21
12.6355500001
  0
LINE
  5
3FA
100
AcDbEntity
  8
RACCORDO
100
AcDbLine
 62
250
  6
CONTINUOUS
 10
3.4692451137
 20
-7.0260298807
 11
3.4692451137
 21
-14.3904545665
  0
LINE
  5
3FB
100
AcDbEntity
  8
ASSI
100
AcDbLine
 62
250
  6
CONTINUOUS
 10
3.4692451137
 20
-7.0260298807
 11
3.4692451137
 21
-14.3904545665
  0
LINE
  5
3FC
100
AcDbEntity
  8
RACCORDO
100
AcDbLine
 62
7
  6
CONTINUOUS
 10
3.5047752418
 20
-7.4247663487
 11
3.5047752418
 21
-14.4259846946
  0
LINE
  5
3FD
100
AcDbEntity
  8
ASSI
100
AcDbLine
 62
7
  6
CONTINUOUS
 10
3.5047752418
 20
-7.4247663487
 11
3.5047752418
 21
-14.4259846946
  0
LINE
  5
3FE
100
AcDbEntity
  8
CURVE
100
AcDbLine
 62
250
  6
CONTINUOUS
 10
3.9616017825
 20
12.6355500001
 11
3.9616017825
 21
11.8212642778
  0
LWPOLYLINE
  5
3FF
100
AcDbEntity
  8
RACCORDO
100
AcDbPolyline
 62
250
  6
CONTINUOUS
 90
22
 70
0
 10
3.4692451137
 20
-14.3904545665
 10
3.4636127045
 20
-14.5398741113
 10
3.4468358274
 20
-14.6884394342
 10
3.41901068
 20
-14.8353215766
 10
3.380295795
 20
-14.9797007305
 10
3.3309090762
 20
-15.1207720792
 10
3.271125915
 20
-15.2577500641
 10
3.2012814422
 20
-15.3898704565
 10
3.1217671701
 20
-15.5163968438
 10
3.0330256431
 20
-15.6366254438
 10
2.9355529968
 20
-15.7498849127
 10
2.8298937317
 20
-15.8555441726
 10
2.7166342614
 20
-15.9530168108
 10
2.5964056644
 20
-16.0417583279
 10
2.4698792852
 20
-16.1212725889
 10
2.3377589054
 20
-16.1911170498
 10
2.2007809422
 20
-16.2509001976
 10
2.0597096204
 20
-16.3002869048
 10
1.9153304851
 20
-16.3390017847
 10
1.7684483474
 20
-16.3668269321
 10
1.6198830195
 20
-16.3836038106
 10
1.4704634596
 20
-16.3892362205
  0
LWPOLYLINE
  5
400
100
AcDbEntity
  8
ASSI
100
AcDbPolyline
 62
250
  6
CONTINUOUS
 90
22
 70
0
 10
3.4692451137
 20
-14.3904545665
 10
3.4636127045
 20
-14.5398741113
 10
3.4468358274
 20
-14.6884394342
 10
3.41901068
 20
-14.8353215766
 10
3.380295795
 20
-14.9797007305
 10
3.3309090762
 20
-15.1207720792
 10
3.271125915
 20
-15.2577500641
 10
3.2012814422
 20
-15.3898704565
 10
3.1217671701
 20
-15.5163968438
 10
3.0330256431
 20
-15.6366254438
 10
2.9355529968
 20
-15.7498849127
 10
2.8298937317
 20
-15.8555441726
 10
2.7166342614
 20
-15.9530168108
 10
2.5964056644
 20
-16.0417583279
 10
2.4698792852
 20
-16.1212725889
 10
2.3377589054
 20
-16.1911170498
 10
2.2007809422
 20
-16.2509001976
 10
2.0597096204
 20
-16.3002869048
 10
1.9153304851
 20
-16.3390017847
 10
1.7684483474
 20
-16.3668269321
 10
1.6198830195
 20
-16.3836038106
 10
1.4704634596
 20
-16.3892362205
  0
LWPOLYLINE
  5
401
100
AcDbEntity
  8
RACCORDO
100
AcDbPolyline
 62
250
  6
CONTINUOUS
 90
22
 70
0
 10
2.9695497002
 20
-14.3904545665
 10
2.9652424908
 20
-14.5031646563
 10
2.9527784892
 20
-14.6141318294
 10
2.9321576954
 20
-14.723356086
 10
2.9031737328
 20
-14.8314674746
 10
2.866032978
 20
-14.9378359466
 10
2.8213545607
 20
-15.040571356
 10
2.7690138777
 20
-15.1395718536
 10
2.709135532
 20
-15.2349392885
 10
2.6427124626
 20
-15.3250890623
 10
2.5696337925
 20
-15.4099350235
 10
2.4900103986
 20
-15.4895633237
 10
2.4051678497
 20
-15.5626478184
 10
2.3150194941
 20
-15.6290779003
 10
2.2196519835
 20
-15.6889641767
 10
2.1206508422
 20
-15.7413123258
 10
2.0179166279
 20
-15.7859972438
 10
1.9115487829
 20
-15.8231440346
 10
1.8034311584
 20
-15.8521336873
 10
1.6941917049
 20
-15.8727598652
 10
1.583202472
 20
-15.8852289051
 10
1.4704634596
 20
-15.889540807
  0
LWPOLYLINE
  5
402
100
AcDbEntity
  8
ASSI
100
AcDbPolyline
 62
250
  6
CONTINUOUS
 90
22
 70
0
 10
2.9695497002
 20
-14.3904545665
 10
2.9652424908
 20
-14.5031646563
 10
2.9527784892
 20
-14.6141318294
 10
2.9321576954
 20
-14.723356086
 10
2.9031737328
 20
-14.8314674746
 10
2.866032978
 20
-14.9378359466
 10
2.8213545607
 20
-15.040571356
 10
2.7690138777
 20
-15.1395718536
 10
2.709135532
 20
-15.2349392885
 10
2.6427124626
 20
-15.3250890623
 10
2.5696337925
 20
-15.4099350235
 10
2.4900103986
 20
-15.4895633237
 10
2.4051678497
 20
-15.5626478184
 10
2.3150194941
 20
-15.6290779003
 10
2.2196519835
 20
-15.6889641767
 10
2.1206508422
 20
-15.7413123258
 10
2.0179166279
 20
-15.7859972438
 10
1.9115487829
 20
-15.8231440346
 10
1.8034311584
 20
-15.8521336873
 10
1.6941917049
 20
-15.8727598652
 10
1.583202472
 20
-15.8852289051
 10
1.4704634596
 20
-15.889540807
  0
LINE
  5
403
100
AcDbEntity
  8
CURVE
100
AcDbLine
 62
250
  6
CONTINUOUS
 10
6.6758875615
 20
11.8212642778
 11
6.8116017825
 21
12.3641214449
  0
LINE
  5
404
100
AcDbEntity
  8
RACCORDO
100
AcDbLine
 62
7
  6
CONTINUOUS
 10
13.7124286349
 20
9.1892339631
 11
13.8016017825
 21
9.2784071106
  0
LINE
  5
405
100
AcDbEntity
  8
ASSI
100
AcDbLine
 62
7
  6
CONTINUOUS
 10
13.7124286349
 20
9.1892339631
 11
13.8016017825
 21
9.2784071106
  0
LINE
  5
406
100
AcDbEntity
  8
CURVE
100
AcDbLine
 62
250
  6
CONTINUOUS
 10
-10.1983982175
 20
4.2784071106
 11
-9.7698267698
 21
4.2784071106
  0
LINE
  5
407
100
AcDbEntity
  8
CURVE
100
AcDbLine
 62
250
  6
CONTINUOUS
 10
-6.5912555307
 20
4.2784071106
 11
-6.2698267549
 21
4.2784071106
  0
LINE
  5
408
100
AcDbEntity
  8
CURVE
100
AcDbLine
 62
250
  6
CONTINUOUS
 10
-3.2698267549
 20
4.2784071106
 11
-2.6269699186
 21
4.2784071106
  0
LINE
  5
409
100
AcDbEntity
  8
CURVE
100
AcDbLine
 62
250
  6
CONTINUOUS
 10
-5.1983983367
 20
4.2784071106
 11
-5.3055411428
 21
4.2784071106
  0
LINE
  5
40A
100
AcDbEntity
  8
CURVE
100
AcDbLine
 62
250
  6
CONTINUOUS
 10
-8.6983982175
 20
4.2784071106
 11
-8.805541113
 21
4.2784071106
  0
LINE
  5
40B
100
AcDbEntity
  8
RACCORDO
100
AcDbLine
 62
250
  6
CONTINUOUS
 10
-10.6996165635
 20
16.2784071106
 11
-10.4007791691
 21
15.979752494
  0
LINE
  5
40C
100
AcDbEntity
  8
ASSI
100
AcDbLine
 62
250
  6
CONTINUOUS
 10
-10.6996165635
 20
16.2784071106
 11
-10.4007791691
 21
15.979752494
  0
LINE
  5
40D
100
AcDbEntity
  8
CURVE
100
AcDbLine
 62
250
  6
CONTINUOUS
 10
-2.8055413812
 20
8.2784071106
 11
-2.5912550538
 21
8.0641214091
  0
LINE
  5
40E
100
AcDbEntity
  8
RACCORDO
100
AcDbLine
 62
7
  6
CONTINUOUS
 10
-10.1178367042
 20
16.1978455974
 11
-10.1983982175
 21
16.2784071106
  0
LINE
  5
40F
100
AcDbEntity
  8
ASSI
100
AcDbLine
 62
7
  6
CONTINUOUS
 10
-10.1178367042
 20
16.1978455974
 11
-10.1983982175
 21
16.2784071106
  0
LWPOLYLINE
  5
410
100
AcDbEntity
  8
CURVE
100
AcDbPolyline
 62
250
  6
CONTINUOUS
 90
8
 70
0
 10
-1.2363733924
 20
12.043368813
 10
-1.2236904651
 20
12.0087758852
 10
-1.211524517
 20
11.9740048089
 10
-1.1998193359
 20
11.9390752731
 10
-1.1885187096
 20
11.9040069664
 10
-1.1775664261
 20
11.8688195777
 10
-1.1669062732
 20
11.8335327959
 10
-1.1564820388
 20
11.7981663097
  0
LINE
  5
411
100
AcDbEntity
  8
CURVE
100
AcDbLine
 62
250
  6
CONTINUOUS
 10
5.2092397825
 20
-5.2215928894
 11
5.2092397825
 21
-4.2025808894
  0
LINE
  5
412
100
AcDbEntity
  8
CURVE
100
AcDbLine
 62
250
  6
CONTINUOUS
 10
5.2735065228
 20
12.4998356659
 11
5.2735065228
 21
12.9069785554
  0
LINE
  5
413
100
AcDbEntity
  8
CURVE
100
AcDbLine
 62
250
  6
CONTINUOUS
 10
5.318744672
 20
11.4141214024
 11
5.318744672
 21
12.092692833
  0
LINE
  5
414
100
AcDbEntity
  8
CURVE
100
AcDbLine
 62
250
  6
CONTINUOUS
 10
8.1687444455
 20
11.8212642778
 11
8.3044591195
 21
12.3641214449
  0
LINE
  5
415
100
AcDbEntity
  8
CURVE
100
AcDbLine
 62
250
  6
CONTINUOUS
 10
4.9259797825
 20
-3.1318708894
 11
9.8626117825
 21
1.8784071106
  0
LINE
  5
416
100
AcDbEntity
  8
CURVE
100
AcDbLine
 62
250
  6
CONTINUOUS
 10
8.2178867825
 20
4.5284681106
 11
7.8016017825
 21
4.5284681106
  0
LINE
  5
417
100
AcDbEntity
  8
CURVE
100
AcDbLine
 62
250
  6
CONTINUOUS
 10
7.6088767825
 20
5.0064251106
 11
7.9943267825
 21
5.0064251106
  0
LINE
  5
418
100
AcDbEntity
  8
CURVE
100
AcDbLine
 62
250
  6
CONTINUOUS
 10
-4.4483983367
 20
5.1355500061
 11
-3.6983979791
 21
5.1355500061
  0
LINE
  5
419
100
AcDbEntity
  8
CURVE
100
AcDbLine
 62
250
  6
CONTINUOUS
 10
-6.2698267549
 20
5.1355500061
 11
-6.7341124862
 21
5.1355500061
  0
LINE
  5
41A
100
AcDbEntity
  8
CURVE
100
AcDbLine
 62
250
  6
CONTINUOUS
 10
-9.7698267698
 20
5.1355500061
 11
-10.1983982175
 21
5.1355500061
  0
LINE
  5
41B
100
AcDbEntity
  8
CURVE
100
AcDbLine
 62
250
  6
CONTINUOUS
 10
-3.2698267549
 20
5.3498357076
 11
-2.6269699186
 21
5.3498357076
  0
LINE
  5
41C
100
AcDbEntity
  8
CURVE
100
AcDbLine
 62
250
  6
CONTINUOUS
 10
-10.1983982175
 20
5.7784071106
 11
-9.5555410683
 21
5.7784071106
  0
LINE
  5
41D
100
AcDbEntity
  8
CURVE
100
AcDbLine
 62
250
  6
CONTINUOUS
 10
-8.805541113
 20
5.7784071106
 11
-8.6983982175
 21
5.7784071106
  0
LINE
  5
41E
100
AcDbEntity
  8
CURVE
100
AcDbLine
 62
250
  6
CONTINUOUS
 10
-5.3055411428
 20
5.7784071106
 11
-5.1983983367
 21
5.7784071106
  0
LINE
  5
41F
100
AcDbEntity
  8
CURVE
100
AcDbLine
 62
250
  6
CONTINUOUS
 10
-0.5198265165
 20
7.3498356927
 11
-0.2341126054
 21
7.1355499689
  0
LINE
  5
420
100
AcDbEntity
  8
RACCORDO
100
AcDbLine
 62
250
  6
CONTINUOUS
 10
12.3016017825
 20
-5.7228112353
 11
12.0029471659
 21
-5.4239796309
  0
LINE
  5
421
100
AcDbEntity
  8
ASSI
100
AcDbLine
 62
250
  6
CONTINUOUS
 10
12.3016017825
 20
-5.7228112353
 11
12.0029471659
 21
-5.4239796309
  0
LINE
  5
422
100
AcDbEntity
  8
CURVE
100
AcDbLine
 62
250
  6
CONTINUOUS
 10
4.8014717825
 20
1.8547321106
 11
9.5331577825
 21
-3.1225538894
  0
LINE
  5
423
100
AcDbEntity
  8
CURVE
100
AcDbLine
 62
250
  6
CONTINUOUS
 10
2.8016017825
 20
6.0284071404
 11
2.9266017862
 21
5.7784071106
  0
LINE
  5
424
100
AcDbEntity
  8
CURVE
100
AcDbLine
 62
250
  6
CONTINUOUS
 10
6.2327257825
 20
0.9701121106
 11
6.5267757825
 21
-2.3921088894
  0
LINE
  5
425
100
AcDbEntity
  8
CURVE
100
AcDbLine
 62
250
  6
CONTINUOUS
 10
5.8616017825
 20
12.9069785554
 11
5.8616017825
 21
12.3641214449
  0
LINE
  5
426
100
AcDbEntity
  8
CURVE
100
AcDbLine
 62
250
  6
CONTINUOUS
 10
6.5198177825
 20
0.9701121106
 11
6.5198177825
 21
1.3647301106
  0
LINE
  5
427
100
AcDbEntity
  8
CURVE
100
AcDbLine
 62
250
  6
CONTINUOUS
 10
6.5834847825
 20
-2.5885568894
 11
6.5834847825
 21
-2.3921088894
  0
LINE
  5
428
100
AcDbEntity
  8
CURVE
100
AcDbLine
 62
250
  6
CONTINUOUS
 10
6.6191917825
 20
1.3647301106
 11
6.6191917825
 21
0.9701121106
  0
LINE
  5
429
100
AcDbEntity
  8
CURVE
100
AcDbLine
 62
250
  6
CONTINUOUS
 10
6.7011047825
 20
-2.3921088894
 11
6.7011047825
 21
-2.5885568894
  0
LINE
  5
42A
100
AcDbEntity
  8
CURVE
100
AcDbLine
 62
250
  6
CONTINUOUS
 10
6.8116017825
 20
12.3641214449
 11
6.8116017825
 21
12.9069785554
  0
LINE
  5
42B
100
AcDbEntity
  8
CURVE
100
AcDbLine
 62
250
  6
CONTINUOUS
 10
7.0896717825
 20
-0.0733138894
 11
7.0896717825
 21
0.1423221106
  0
LINE
  5
42C
100
AcDbEntity
  8
CURVE
100
AcDbLine
 62
250
  6
CONTINUOUS
 10
7.1446747825
 20
1.2402101106
 11
7.1446747825
 21
1.4577041106
  0
LINE
  5
42D
100
AcDbEntity
  8
CURVE
100
AcDbLine
 62
250
  6
CONTINUOUS
 10
9.7973160035
 20
13.1784071106
 11
9.2544591195
 21
11.2784071106
  0
LINE
  5
42E
100
AcDbEntity
  8
CURVE
100
AcDbLine
 62
250
  6
CONTINUOUS
 10
3.4266017676
 20
7.2784071106
 11
3.1766017825
 21
7.2159071088
  0
LINE
  5
42F
100
AcDbEntity
  8
CURVE
100
AcDbLine
 62
250
  6
CONTINUOUS
 10
3.4266017676
 20
6.4034071404
 11
3.7391017825
 21
6.4034071404
  0
LINE
  5
430
100
AcDbEntity
  8
CURVE
100
AcDbLine
 62
250
  6
CONTINUOUS
 10
-2.8055413812
 20
6.7784071106
 11
-2.9126838296
 21
6.7784071106
  0
LINE
  5
431
100
AcDbEntity
  8
CURVE
100
AcDbLine
 62
250
  6
CONTINUOUS
 10
-4.8412554115
 20
6.7784071106
 11
-5.5912554115
 21
6.7784071106
  0
LINE
  5
432
100
AcDbEntity
  8
CURVE
100
AcDbLine
 62
250
  6
CONTINUOUS
 10
-7.4126840084
 20
6.7784071106
 11
-7.5198268145
 21
6.7784071106
  0
LINE
  5
433
100
AcDbEntity
  8
CURVE
100
AcDbLine
 62
250
  6
CONTINUOUS
 10
-8.2698268145
 20
6.7784071106
 11
-9.0198268145
 21
6.7784071106
  0
LINE
  5
434
100
AcDbEntity
  8
CURVE
100
AcDbLine
 62
250
  6
CONTINUOUS
 10
-9.4483982175
 20
6.7784071106
 11
-10.1983982175
 21
6.7784071106
  0
LINE
  5
435
100
AcDbEntity
  8
CURVE
100
AcDbLine
 62
250
  6
CONTINUOUS
 10
-3.6626838296
 20
7.0998356853
 11
-4.4126838296
 21
7.0998356853
  0
LINE
  5
436
100
AcDbEntity
  8
CURVE
100
AcDbLine
 62
250
  6
CONTINUOUS
 10
3.1766017825
 20
5.5909071106
 11
3.4266017676
 21
5.5284071702
  0
LINE
  5
437
100
AcDbEntity
  8
CURVE
100
AcDbLine
 62
250
  6
CONTINUOUS
 10
3.0516017899
 20
6.5284071106
 11
3.4266017676
 21
6.4034071404
  0
LINE
  5
438
100
AcDbEntity
  8
CURVE
100
AcDbLine
 62
250
  6
CONTINUOUS
 10
2.9266017862
 20
6.5909070957
 11
3.0516017899
 21
6.5284071106
  0
LINE
  5
439
100
AcDbEntity
  8
CURVE
100
AcDbLine
 62
250
  6
CONTINUOUS
 10
2.9266017862
 20
5.7784071106
 11
3.1766017825
 21
5.5909071106
  0
LWPOLYLINE
  5
43A
100
AcDbEntity
  8
CURVE
100
AcDbPolyline
 62
250
  6
CONTINUOUS
 90
36
 70
0
 10
8.4051446734
 20
1.1232947007
 10
8.3917096963
 20
1.1364385425
 10
8.3778986912
 20
1.1491808807
 10
8.3637260695
 20
1.1615274133
 10
8.3492062427
 20
1.1734838384
 10
8.3343536222
 20
1.1850558541
 10
8.3191826195
 20
1.1962491584
 10
8.3037076459
 20
1.2070694495
 10
8.2879431129
 20
1.2175224252
 10
8.271903432
 20
1.2276137838
 10
8.2556030147
 20
1.2373492233
 10
8.2390562722
 20
1.2467344418
 10
8.2222776161
 20
1.2557751372
 10
8.2052814578
 20
1.2644770077
 10
8.1880822087
 20
1.2728457514
 10
8.1706942803
 20
1.2808870662
 10
8.1531320841
 20
1.2886066503
 10
8.1354100313
 20
1.2960102017
 10
8.1175425336
 20
1.3031034185
 10
8.0995440023
 20
1.3098919988
 10
8.0814288488
 20
1.3163816405
 10
8.0632114847
 20
1.3225780418
 10
8.0449063213
 20
1.3284869008
 10
8.02652777
 20
1.3341139154
 10
8.0080902423
 20
1.3394647838
 10
7.9896081497
 20
1.344545204
 10
7.9710959036
 20
1.3493608741
 10
7.9525679154
 20
1.3539174922
 10
7.9340385965
 20
1.3582207562
 10
7.9070120079
 20
1.3640660303
 10
7.8800022389
 20
1.3694455224
 10
7.8529982428
 20
1.3744210385
 10
7.8259889729
 20
1.3790543846
 10
7.7989633824
 20
1.3834073665
 10
7.7719104247
 20
1.3875417902
 10
7.7176782206
 20
1.3954021869
  0
LINE
  5
43B
100
AcDbEntity
  8
RACCORDO
100
AcDbLine
 62
250
  6
CONTINUOUS
 10
13.6016322435
 20
-3.7215928894
 11
13.5047187892
 21
-3.6246794351
  0
LINE
  5
43C
100
AcDbEntity
  8
ASSI
100
AcDbLine
 62
250
  6
CONTINUOUS
 10
13.6016322435
 20
-3.7215928894
 11
13.5047187892
 21
-3.6246794351
  0
LINE
  5
43D
100
AcDbEntity
  8
CURVE
100
AcDbLine
 62
250
  6
CONTINUOUS
 10
2.8016017825
 20
6.7784070957
 11
2.9266017862
 21
6.5909070957
  0
LINE
  5
43E
100
AcDbEntity
  8
CURVE
100
AcDbLine
 62
250
  6
CONTINUOUS
 10
7.3544591195
 20
12.9069785554
 11
7.3544591195
 21
12.3641214449
  0
LINE
  5
43F
100
AcDbEntity
  8
CURVE
100
AcDbLine
 62
250
  6
CONTINUOUS
 10
7.7176777825
 20
1.4571461106
 11
7.7176777825
 21
1.2396521106
  0
LINE
  5
440
100
AcDbEntity
  8
CURVE
100
AcDbLine
 62
250
  6
CONTINUOUS
 10
7.8016017825
 20
7.5503891106
 11
7.8016017825
 21
5.0064251106
  0
LINE
  5
441
100
AcDbEntity
  8
CURVE
100
AcDbLine
 62
250
  6
CONTINUOUS
 10
7.9130117825
 20
0.1423221106
 11
7.9130117825
 21
-0.0733138894
  0
LINE
  5
442
100
AcDbEntity
  8
CURVE
100
AcDbLine
 62
250
  6
CONTINUOUS
 10
8.3044591195
 20
12.3641214449
 11
8.3044591195
 21
12.9069785554
  0
LINE
  5
443
100
AcDbEntity
  8
CURVE
100
AcDbLine
 62
250
  6
CONTINUOUS
 10
8.3694887825
 20
0.2347381106
 11
8.3694887825
 21
0.6072021106
  0
LINE
  5
444
100
AcDbEntity
  8
CURVE
100
AcDbLine
 62
250
  6
CONTINUOUS
 10
8.1821947825
 20
-1.9539648894
 11
8.4514407825
 21
0.9425601106
  0
LINE
  5
445
100
AcDbEntity
  8
RACCORDO
100
AcDbLine
 62
250
  6
CONTINUOUS
 10
-3.8660415487
 20
-14.3904545665
 11
-3.9015716768
 21
-14.4259846946
  0
LINE
  5
446
100
AcDbEntity
  8
ASSI
100
AcDbLine
 62
250
  6
CONTINUOUS
 10
-3.8660415487
 20
-14.3904545665
 11
-3.9015716768
 21
-14.4259846946
  0
LINE
  5
447
100
AcDbEntity
  8
CURVE
100
AcDbLine
 62
250
  6
CONTINUOUS
 10
-6.6626838296
 20
7.3141214091
 11
-6.0198266357
 21
7.3141214091
  0
LINE
  5
448
100
AcDbEntity
  8
CURVE
100
AcDbLine
 62
250
  6
CONTINUOUS
 10
7.6088767825
 20
7.5503891106
 11
7.9943267825
 21
7.5503891106
  0
LINE
  5
449
100
AcDbEntity
  8
CURVE
100
AcDbLine
 62
250
  6
CONTINUOUS
 10
-7.5198268145
 20
8.2784071106
 11
-7.4126840084
 21
8.2784071106
  0
LINE
  5
44A
100
AcDbEntity
  8
CURVE
100
AcDbLine
 62
250
  6
CONTINUOUS
 10
-2.9126838296
 20
8.2784071106
 11
-2.8055413812
 21
8.2784071106
  0
LINE
  5
44B
100
AcDbEntity
  8
CURVE
100
AcDbLine
 62
250
  6
CONTINUOUS
 10
-5.0555410236
 20
8.2784071106
 11
-5.3769697994
 21
8.2784071106
  0
LINE
  5
44C
100
AcDbEntity
  8
CURVE
100
AcDbLine
 62
250
  6
CONTINUOUS
 10
-8.4841124266
 20
8.2784071106
 11
-8.805541113
 21
8.2784071106
  0
LINE
  5
44D
100
AcDbEntity
  8
CURVE
100
AcDbLine
 62
250
  6
CONTINUOUS
 10
-9.662683919
 20
8.2784071106
 11
-9.9841124937
 21
8.2784071106
  0
LINE
  5
44E
100
AcDbEntity
  8
RACCORDO
100
AcDbLine
 62
250
  6
CONTINUOUS
 10
12.3993501461
 20
8.546636246
 11
12.1095375503
 21
8.546636246
  0
LINE
  5
44F
100
AcDbEntity
  8
ASSI
100
AcDbLine
 62
250
  6
CONTINUOUS
 10
12.3993501461
 20
8.546636246
 11
12.1095375503
 21
8.546636246
  0
LINE
  5
450
100
AcDbEntity
  8
RACCORDO
100
AcDbLine
 62
250
  6
CONTINUOUS
 10
-12.5063339853
 20
8.546636246
 11
-12.7961465811
 21
8.546636246
  0
LINE
  5
451
100
AcDbEntity
  8
ASSI
100
AcDbLine
 62
250
  6
CONTINUOUS
 10
-12.5063339853
 20
8.546636246
 11
-12.7961465811
 21
8.546636246
  0
LINE
  5
452
100
AcDbEntity
  8
CURVE
100
AcDbLine
 62
250
  6
CONTINUOUS
 10
3.8016018123
 20
7.1534071069
 11
3.4266017676
 21
7.2784071106
  0
LINE
  5
453
100
AcDbEntity
  8
CURVE
100
AcDbLine
 62
250
  6
CONTINUOUS
 10
4.0516017527
 20
7.0284071032
 11
3.8016018123
 21
7.1534071069
  0
LINE
  5
454
100
AcDbEntity
  8
RACCORDO
100
AcDbLine
 62
250
  6
CONTINUOUS
 10
13.8016017825
 20
-3.5216233503
 11
13.7046850267
 21
-3.4247065946
  0
LINE
  5
455
100
AcDbEntity
  8
ASSI
100
AcDbLine
 62
250
  6
CONTINUOUS
 10
13.8016017825
 20
-3.5216233503
 11
13.7046850267
 21
-3.4247065946
  0
LINE
  5
456
100
AcDbEntity
  8
RACCORDO
100
AcDbLine
 62
7
  6
CONTINUOUS
 10
12.1196481659
 20
-0.2896392728
 11
12.2192791084
 21
-0.3892702153
  0
LINE
  5
457
100
AcDbEntity
  8
0
100
AcDbLine
 62
7
  6
CONTINUOUS
 10
12.3016017825
 20
-0.4715928894
 11
12.2192791084
 21
-0.3892702153
  0
LINE
  5
458
100
AcDbEntity
  8
ASSI
100
AcDbLine
 62
7
  6
CONTINUOUS
 10
12.3016017825
 20
-0.4715928894
 11
12.1196481659
 21
-0.2896392728
  0
LINE
  5
459
100
AcDbEntity
  8
CURVE
100
AcDbLine
 62
250
  6
CONTINUOUS
 10
3.1473160743
 20
11.5498356942
 11
3.0116017825
 21
11.8212642778
  0
LINE
  5
45A
100
AcDbEntity
  8
CURVE
100
AcDbLine
 62
250
  6
CONTINUOUS
 10
8.7195487825
 20
0.6072021106
 11
8.7195487825
 21
0.2347381106
  0
LINE
  5
45B
100
AcDbEntity
  8
CURVE
100
AcDbLine
 62
250
  6
CONTINUOUS
 10
8.8473160035
 20
12.7712642211
 11
8.8473160035
 21
13.1784071106
  0
LINE
  5
45C
100
AcDbEntity
  8
CURVE
100
AcDbLine
 62
250
  6
CONTINUOUS
 10
9.3939637825
 20
-4.2025808894
 11
9.3939637825
 21
-5.2215928894
  0
LINE
  5
45D
100
AcDbEntity
  8
RACCORDO
100
AcDbLine
 62
250
  6
CONTINUOUS
 10
10.0041655118
 20
15.979752494
 11
10.0041655118
 21
14.4806662535
  0
LINE
  5
45E
100
AcDbEntity
  8
ASSI
100
AcDbLine
 62
250
  6
CONTINUOUS
 10
10.0041655118
 20
15.979752494
 11
10.0041655118
 21
14.4806662535
  0
LINE
  5
45F
100
AcDbEntity
  8
RACCORDO
100
AcDbLine
 62
250
  6
CONTINUOUS
 10
10.0041655118
 20
-7.4229382728
 11
10.0041655118
 21
-5.9238520322
  0
LINE
  5
460
100
AcDbEntity
  8
ASSI
100
AcDbLine
 62
250
  6
CONTINUOUS
 10
10.0041655118
 20
-7.4229382728
 11
10.0041655118
 21
-5.9238520322
  0
LINE
  5
461
100
AcDbEntity
  8
RACCORDO
100
AcDbLine
 62
7
  6
CONTINUOUS
 10
12.3907749301
 20
-0.6324197418
 11
12.3016017825
 21
-0.7215928894
  0
LINE
  5
462
100
AcDbEntity
  8
ASSI
100
AcDbLine
 62
7
  6
CONTINUOUS
 10
12.3907749301
 20
-0.6324197418
 11
12.3016017825
 21
-0.7215928894
  0
LINE
  5
463
100
AcDbEntity
  8
0
100
AcDbLine
 62
7
  6
CONTINUOUS
 10
-12.7950141272
 20
8.9352614174
 11
-12.6160755434
 21
8.9460844366
  0
LINE
  5
464
100
AcDbEntity
  8
ASSI
100
AcDbLine
 62
7
  6
CONTINUOUS
 10
-12.7950141272
 20
8.9352614174
 11
-12.6160755434
 21
8.9460844366
  0
LINE
  5
465
100
AcDbEntity
  8
RACCORDO
100
AcDbLine
 62
250
  6
CONTINUOUS
 10
12.3989037844
 20
8.8464534941
 11
12.1196481659
 21
8.8464534941
  0
LINE
  5
466
100
AcDbEntity
  8
ASSI
100
AcDbLine
 62
250
  6
CONTINUOUS
 10
12.3989037844
 20
8.8464534941
 11
12.1196481659
 21
8.8464534941
  0
LINE
  5
467
100
AcDbEntity
  8
RACCORDO
100
AcDbLine
 62
250
  6
CONTINUOUS
 10
-12.516444601
 20
8.8464534941
 11
-12.7957002194
 21
8.8464534941
  0
LINE
  5
468
100
AcDbEntity
  8
ASSI
100
AcDbLine
 62
250
  6
CONTINUOUS
 10
-12.516444601
 20
8.8464534941
 11
-12.7957002194
 21
8.8464534941
  0
LINE
  5
469
100
AcDbEntity
  8
RACCORDO
100
AcDbLine
 62
250
  6
CONTINUOUS
 10
12.446539748
 20
9.1819472694
 11
13.656663817
 21
9.1819472694
  0
LINE
  5
46A
100
AcDbEntity
  8
ASSI
100
AcDbLine
 62
250
  6
CONTINUOUS
 10
12.446539748
 20
9.1819472694
 11
13.656663817
 21
9.1819472694
  0
LINE
  5
46B
100
AcDbEntity
  8
RACCORDO
100
AcDbLine
 62
250
  6
CONTINUOUS
 10
-12.843336183
 20
9.1819472694
 11
-14.053460252
 21
9.1819472694
  0
LINE
  5
46C
100
AcDbEntity
  8
ASSI
100
AcDbLine
 62
250
  6
CONTINUOUS
 10
-12.843336183
 20
9.1819472694
 11
-14.053460252
 21
9.1819472694
  0
LINE
  5
46D
100
AcDbEntity
  8
0
100
AcDbLine
 62
7
  6
CONTINUOUS
 10
12.2192791084
 20
8.9460844366
 11
12.3982176922
 21
8.9352614174
  0
LINE
  5
46E
100
AcDbEntity
  8
ASSI
100
AcDbLine
 62
7
  6
CONTINUOUS
 10
12.2192791084
 20
8.9460844366
 11
12.3982176922
 21
8.9352614174
  0
LINE
  5
46F
100
AcDbEntity
  8
CURVE
100
AcDbLine
 62
250
  6
CONTINUOUS
 10
6.7663627825
 20
7.0820001106
 11
7.8016017825
 21
6.2784071106
  0
LINE
  5
470
100
AcDbEntity
  8
RACCORDO
100
AcDbLine
 62
7
  6
CONTINUOUS
 10
13.7124286349
 20
-0.6324197418
 11
13.8016017825
 21
-0.7215928894
  0
LINE
  5
471
100
AcDbEntity
  8
ASSI
100
AcDbLine
 62
7
  6
CONTINUOUS
 10
13.7124286349
 20
-0.6324197418
 11
13.8016017825
 21
-0.7215928894
  0
LINE
  5
472
100
AcDbEntity
  8
CURVE
100
AcDbLine
 62
250
  6
CONTINUOUS
 10
3.8258875049
 20
12.9069785554
 11
3.9616017825
 21
12.6355500001
  0
LINE
  5
473
100
AcDbEntity
  8
RACCORDO
100
AcDbLine
 62
250
  6
CONTINUOUS
 10
10.5038609254
 20
13.98097084
 11
10.5038609254
 21
-5.4241566187
  0
LINE
  5
474
100
AcDbEntity
  8
ASSI
100
AcDbLine
 62
250
  6
CONTINUOUS
 10
10.5038609254
 20
13.98097084
 11
10.5038609254
 21
-5.4241566187
  0
LWPOLYLINE
  5
475
100
AcDbEntity
  8
RACCORDO
100
AcDbPolyline
 62
250
  6
CONTINUOUS
 90
22
 70
0
 10
10.5038609254
 20
-5.4241566187
 10
10.5024248914
 20
-5.4617287324
 10
10.4982698245
 20
-5.4987195291
 10
10.4913957246
 20
-5.5351290089
 10
10.4817340778
 20
-5.5711667791
 10
10.4693533979
 20
-5.6066232323
 10
10.454459227
 20
-5.6408695469
 10
10.4370096188
 20
-5.6738726285
 10
10.4170465195
 20
-5.7056655714
 10
10.3949013096
 20
-5.7357188367
 10
10.3705368051
 20
-5.7640034913
 10
10.3439901901
 20
-5.7905484682
 10
10.3157043972
 20
-5.8149110276
 10
10.2856506604
 20
-5.8370538954
 10
10.2538577457
 20
-5.8570143456
 10
10.220854883
 20
-5.87446146
 10
10.1866081768
 20
-5.8893534597
 10
10.1511515225
 20
-5.9017321237
 10
10.1151158373
 20
-5.9113918711
 10
10.0787114265
 20
-5.9182641748
 10
10.0417279847
 20
-5.9224175618
 10
10.0041655118
 20
-5.9238520322
  0
LWPOLYLINE
  5
476
100
AcDbEntity
  8
ASSI
100
AcDbPolyline
 62
250
  6
CONTINUOUS
 90
22
 70
0
 10
10.5038609254
 20
-5.4241566187
 10
10.5024248914
 20
-5.4617287324
 10
10.4982698245
 20
-5.4987195291
 10
10.4913957246
 20
-5.5351290089
 10
10.4817340778
 20
-5.5711667791
 10
10.4693533979
 20
-5.6066232323
 10
10.454459227
 20
-5.6408695469
 10
10.4370096188
 20
-5.6738726285
 10
10.4170465195
 20
-5.7056655714
 10
10.3949013096
 20
-5.7357188367
 10
10.3705368051
 20
-5.7640034913
 10
10.3439901901
 20
-5.7905484682
 10
10.3157043972
 20
-5.8149110276
 10
10.2856506604
 20
-5.8370538954
 10
10.2538577457
 20
-5.8570143456
 10
10.220854883
 20
-5.87446146
 10
10.1866081768
 20
-5.8893534597
 10
10.1511515225
 20
-5.9017321237
 10
10.1151158373
 20
-5.9113918711
 10
10.0787114265
 20
-5.9182641748
 10
10.0417279847
 20
-5.9224175618
 10
10.0041655118
 20
-5.9238520322
  0
LINE
  5
477
100
AcDbEntity
  8
RACCORDO
100
AcDbLine
 62
250
  6
CONTINUOUS
 10
-1.8672598947
 20
-16.3892362205
 11
-1.9027900228
 21
-16.4247663487
  0
LINE
  5
478
100
AcDbEntity
  8
ASSI
100
AcDbLine
 62
250
  6
CONTINUOUS
 10
-1.8672598947
 20
-16.3892362205
 11
-1.9027900228
 21
-16.4247663487
  0
LINE
  5
479
100
AcDbEntity
  8
RACCORDO
100
AcDbLine
 62
250
  6
CONTINUOUS
 10
12.3985185382
 20
-3.4247065946
 11
12.3016017825
 21
-3.5216233503
  0
LINE
  5
47A
100
AcDbEntity
  8
ASSI
100
AcDbLine
 62
250
  6
CONTINUOUS
 10
12.3985185382
 20
-3.4247065946
 11
12.3016017825
 21
-3.5216233503
  0
LINE
  5
47B
100
AcDbEntity
  8
RACCORDO
100
AcDbLine
 62
250
  6
CONTINUOUS
 10
12.5984847761
 20
-3.6246794348
 11
12.5015713215
 21
-3.7215928894
  0
LINE
  5
47C
100
AcDbEntity
  8
ASSI
100
AcDbLine
 62
250
  6
CONTINUOUS
 10
12.5984847761
 20
-3.6246794348
 11
12.5015713215
 21
-3.7215928894
  0
LWPOLYLINE
  5
47D
100
AcDbEntity
  8
RACCORDO
100
AcDbPolyline
 62
250
  6
CONTINUOUS
 90
13
 70
0
 10
12.5984880773
 20
12.1814903549
 10
12.5723914786
 20
12.1797722532
 10
12.5467412864
 20
12.1746632446
 10
12.5219762197
 20
12.1662507325
 10
12.4985198431
 20
12.1546786159
 10
12.4767733579
 20
12.1401448442
 10
12.4571087307
 20
12.1228980447
 10
12.4398622819
 20
12.1032332328
 10
12.4253289593
 20
12.081486768
 10
12.4137573146
 20
12.058030632
 10
12.4053452259
 20
12.033266031
 10
12.4002365229
 20
12.0076165274
 10
12.3985185382
 20
11.9815208158
  0
LWPOLYLINE
  5
47E
100
AcDbEntity
  8
ASSI
100
AcDbPolyline
 62
250
  6
CONTINUOUS
 90
13
 70
0
 10
12.5984880773
 20
12.1814903549
 10
12.5723914786
 20
12.1797722532
 10
12.5467412864
 20
12.1746632446
 10
12.5219762197
 20
12.1662507325
 10
12.4985198431
 20
12.1546786159
 10
12.4767733579
 20
12.1401448442
 10
12.4571087307
 20
12.1228980447
 10
12.4398622819
 20
12.1032332328
 10
12.4253289593
 20
12.081486768
 10
12.4137573146
 20
12.058030632
 10
12.4053452259
 20
12.033266031
 10
12.4002365229
 20
12.0076165274
 10
12.3985185382
 20
11.9815208158
  0
LINE
  5
47F
100
AcDbEntity
  8
CURVE
100
AcDbLine
 62
250
  6
CONTINUOUS
 10
3.5544589496
 20
11.2784071106
 11
3.4187446437
 21
11.2784071106
  0
LINE
  5
480
100
AcDbEntity
  8
CURVE
100
AcDbLine
 62
250
  6
CONTINUOUS
 10
4.504458893
 20
11.2784071106
 11
5.183030451
 21
11.2784071106
  0
LINE
  5
481
100
AcDbEntity
  8
CURVE
100
AcDbLine
 62
250
  6
CONTINUOUS
 10
-7.9557962175
 20
11.2853671106
 11
-7.4340032175
 21
11.2853671106
  0
LINE
  5
482
100
AcDbEntity
  8
CURVE
100
AcDbLine
 62
250
  6
CONTINUOUS
 10
-2.3269533563
 20
11.2853670942
 11
-1.8072600148
 21
11.2853670942
  0
LINE
  5
483
100
AcDbEntity
  8
CURVE
100
AcDbLine
 62
250
  6
CONTINUOUS
 10
-1.008206196
 20
11.2853670942
 11
-0.5063020977
 21
11.2853670942
  0
LINE
  5
484
100
AcDbEntity
  8
CURVE
100
AcDbLine
 62
250
  6
CONTINUOUS
 10
-2.4801772175
 20
11.2853671106
 11
-3.0301252175
 21
11.2853671106
  0
LINE
  5
485
100
AcDbEntity
  8
CURVE
100
AcDbLine
 62
250
  6
CONTINUOUS
 10
-4.0198752175
 20
11.2853671106
 11
-4.5360062175
 21
11.2853671106
  0
LINE
  5
486
100
AcDbEntity
  8
CURVE
100
AcDbLine
 62
250
  6
CONTINUOUS
 10
-4.6179422175
 20
11.2853671106
 11
-5.1283942175
 21
11.2853671106
  0
LINE
  5
487
100
AcDbEntity
  8
CURVE
100
AcDbLine
 62
250
  6
CONTINUOUS
 10
-5.8560092175
 20
11.2853671106
 11
-5.9291912175
 21
11.2853671106
  0
LINE
  5
488
100
AcDbEntity
  8
CURVE
100
AcDbLine
 62
250
  6
CONTINUOUS
 10
-6.6539202175
 20
11.2853671106
 11
-7.1531062175
 21
11.2853671106
  0
LINE
  5
489
100
AcDbEntity
  8
CURVE
100
AcDbLine
 62
250
  6
CONTINUOUS
 10
-8.9529502175
 20
11.2853671106
 11
-9.4127802175
 21
11.2853671106
  0
LWPOLYLINE
  5
48A
100
AcDbEntity
  8
RACCORDO
100
AcDbPolyline
 62
250
  6
CONTINUOUS
 90
13
 70
0
 10
-12.9952845123
 20
12.1814903549
 10
-12.9691882808
 20
12.1797723016
 10
-12.9435383902
 20
12.174663424
 10
-12.9187735473
 20
12.1662511024
 10
-12.8953173212
 20
12.1546792184
 10
-12.8735708992
 20
12.1401456933
 10
-12.8539062245
 20
12.1228991035
 10
-12.8366596347
 20
12.1032344288
 10
-12.8221261097
 20
12.0814880068
 10
-12.8105542257
 20
12.0580317807
 10
-12.8021419041
 20
12.0332669378
 10
-12.7970330265
 20
12.0076170473
 10
-12.7953149733
 20
11.9815208158
  0
LWPOLYLINE
  5
48B
100
AcDbEntity
  8
ASSI
100
AcDbPolyline
 62
250
  6
CONTINUOUS
 90
13
 70
0
 10
-12.9952845123
 20
12.1814903549
 10
-12.9691882808
 20
12.1797723016
 10
-12.9435383902
 20
12.174663424
 10
-12.9187735473
 20
12.1662511024
 10
-12.8953173212
 20
12.1546792184
 10
-12.8735708992
 20
12.1401456933
 10
-12.8539062245
 20
12.1228991035
 10
-12.8366596347
 20
12.1032344288
 10
-12.8221261097
 20
12.0814880068
 10
-12.8105542257
 20
12.0580317807
 10
-12.8021419041
 20
12.0332669378
 10
-12.7970330265
 20
12.0076170473
 10
-12.7953149733
 20
11.9815208158
  0
LINE
  5
48C
100
AcDbEntity
  8
CURVE
100
AcDbLine
 62
250
  6
CONTINUOUS
 10
3.4187446437
 20
11.2784071106
 11
3.1473160743
 21
11.5498356942
  0
LINE
  5
48D
100
AcDbEntity
  8
RACCORDO
100
AcDbLine
 62
250
  6
CONTINUOUS
 10
12.4198115741
 20
11.6779122747
 11
12.4252585958
 21
11.4930206713
  0
LINE
  5
48E
100
AcDbEntity
  8
ASSI
100
AcDbLine
 62
250
  6
CONTINUOUS
 10
12.4198115741
 20
11.6779122747
 11
12.4252585958
 21
11.4930206713
  0
LINE
  5
48F
100
AcDbEntity
  8
RACCORDO
100
AcDbLine
 62
250
  6
CONTINUOUS
 10
12.4252585958
 20
11.4930206713
 11
12.4302399171
 21
11.2692791082
  0
LINE
  5
490
100
AcDbEntity
  8
ASSI
100
AcDbLine
 62
250
  6
CONTINUOUS
 10
12.4252585958
 20
11.4930206713
 11
12.4302399171
 21
11.2692791082
  0
LINE
  5
491
100
AcDbEntity
  8
RACCORDO
100
AcDbLine
 62
250
  6
CONTINUOUS
 10
12.6252318494
 20
11.6579412759
 11
12.6302101732
 21
11.4185741024
  0
LINE
  5
492
100
AcDbEntity
  8
ASSI
100
AcDbLine
 62
250
  6
CONTINUOUS
 10
12.6252318494
 20
11.6579412759
 11
12.6302101732
 21
11.4185741024
  0
LINE
  5
493
100
AcDbEntity
  8
RACCORDO
100
AcDbLine
 62
250
  6
CONTINUOUS
 10
12.4302399171
 20
11.2692791082
 11
12.4366604392
 21
10.8697800006
  0
LINE
  5
494
100
AcDbEntity
  8
ASSI
100
AcDbLine
 62
250
  6
CONTINUOUS
 10
12.4302399171
 20
11.2692791082
 11
12.4366604392
 21
10.8697800006
  0
LINE
  5
495
100
AcDbEntity
  8
RACCORDO
100
AcDbLine
 62
250
  6
CONTINUOUS
 10
12.6302101732
 20
11.4185741024
 11
12.636627382
 21
10.9908142096
  0
LINE
  5
496
100
AcDbEntity
  8
ASSI
100
AcDbLine
 62
250
  6
CONTINUOUS
 10
12.6302101732
 20
11.4185741024
 11
12.636627382
 21
10.9908142096
  0
LINE
  5
497
100
AcDbEntity
  8
RACCORDO
100
AcDbLine
 62
250
  6
CONTINUOUS
 10
12.4366604392
 20
10.8697800006
 11
12.4416146311
 21
10.4067046231
  0
LINE
  5
498
100
AcDbEntity
  8
ASSI
100
AcDbLine
 62
250
  6
CONTINUOUS
 10
12.4366604392
 20
10.8697800006
 11
12.4416146311
 21
10.4067046231
  0
LINE
  5
499
100
AcDbEntity
  8
RACCORDO
100
AcDbLine
 62
250
  6
CONTINUOUS
 10
12.636627382
 20
10.9908142096
 11
12.6428710272
 21
10.3177550717
  0
LINE
  5
49A
100
AcDbEntity
  8
ASSI
100
AcDbLine
 62
250
  6
CONTINUOUS
 10
12.636627382
 20
10.9908142096
 11
12.6428710272
 21
10.3177550717
  0
LINE
  5
49B
100
AcDbEntity
  8
RACCORDO
100
AcDbLine
 62
250
  6
CONTINUOUS
 10
12.4416146311
 20
10.4067046231
 11
12.4456244616
 21
9.7213078027
  0
LINE
  5
49C
100
AcDbEntity
  8
ASSI
100
AcDbLine
 62
250
  6
CONTINUOUS
 10
12.4416146311
 20
10.4067046231
 11
12.4456244616
 21
9.7213078027
  0
LINE
  5
49D
100
AcDbEntity
  8
RACCORDO
100
AcDbLine
 62
250
  6
CONTINUOUS
 10
12.6428710272
 20
10.3177550717
 11
12.6460973257
 21
9.5691790364
  0
LINE
  5
49E
100
AcDbEntity
  8
ASSI
100
AcDbLine
 62
250
  6
CONTINUOUS
 10
12.6428710272
 20
10.3177550717
 11
12.6460973257
 21
9.5691790364
  0
LINE
  5
49F
100
AcDbEntity
  8
RACCORDO
100
AcDbLine
 62
250
  6
CONTINUOUS
 10
12.0029471659
 20
13.9807880622
 11
12.0029471659
 21
-5.4239796309
  0
LINE
  5
4A0
100
AcDbEntity
  8
ASSI
100
AcDbLine
 62
250
  6
CONTINUOUS
 10
12.0029471659
 20
13.9807880622
 11
12.0029471659
 21
-5.4239796309
  0
LINE
  5
4A1
100
AcDbEntity
  8
RACCORDO
100
AcDbLine
 62
7
  6
CONTINUOUS
 10
12.1095375503
 20
8.546636246
 11
12.1095375503
 21
0.0101779753
  0
LINE
  5
4A2
100
AcDbEntity
  8
ASSI
100
AcDbLine
 62
7
  6
CONTINUOUS
 10
12.1095375503
 20
8.546636246
 11
12.1095375503
 21
0.0101779753
  0
LINE
  5
4A3
100
AcDbEntity
  8
DRAFT
100
AcDbLine
 62
7
  6
CONTINUOUS
 10
12.3016017825
 20
9.2784071106
 11
12.3016017825
 21
8.9411051869
  0
LINE
  5
4A4
100
AcDbEntity
  8
DRAFT
100
AcDbLine
 62
7
  6
CONTINUOUS
 10
12.3016017825
 20
-0.3842909656
 11
12.3016017825
 21
-0.7215928894
  0
LINE
  5
4A5
100
AcDbEntity
  8
ASSI
100
AcDbLine
 62
7
  6
CONTINUOUS
 10
12.3016017825
 20
-5.7228112353
 11
12.3016017825
 21
-0.3842909656
  0
LINE
  5
4A6
100
AcDbEntity
  8
RACCORDO
100
AcDbLine
 62
7
  6
CONTINUOUS
 10
12.3016017825
 20
-5.7228112353
 11
12.3016017825
 21
-0.4715928894
  0
LINE
  5
4A7
100
AcDbEntity
  8
RACCORDO
100
AcDbLine
 62
7
  6
CONTINUOUS
 10
12.3016017825
 20
9.0284071106
 11
12.3016017825
 21
14.2796254566
  0
LINE
  5
4A8
100
AcDbEntity
  8
ASSI
100
AcDbLine
 62
7
  6
CONTINUOUS
 10
12.3016017825
 20
8.9411051869
 11
12.3016017825
 21
14.2796254566
  0
LINE
  5
4A9
100
AcDbEntity
  8
RACCORDO
100
AcDbLine
 62
7
  6
CONTINUOUS
 10
12.3993501461
 20
-0.1324958942
 11
12.3993501461
 21
8.6893101155
  0
LINE
  5
4AA
100
AcDbEntity
  8
ASSI
100
AcDbLine
 62
7
  6
CONTINUOUS
 10
12.3993501461
 20
-0.1324958942
 11
12.3993501461
 21
8.6893101155
  0
LINE
  5
4AB
100
AcDbEntity
  8
RACCORDO
100
AcDbLine
 62
250
  6
CONTINUOUS
 10
12.4456244616
 20
9.7213078027
 11
12.446539748
 21
-0.6251330481
  0
LINE
  5
4AC
100
AcDbEntity
  8
ASSI
100
AcDbLine
 62
250
  6
CONTINUOUS
 10
12.4456244616
 20
9.7213078027
 11
12.446539748
 21
-0.6251330481
  0
LINE
  5
4AD
100
AcDbEntity
  8
RACCORDO
100
AcDbLine
 62
250
  6
CONTINUOUS
 10
12.6460973257
 20
9.5691790364
 11
12.646509287
 21
-0.6251330481
  0
LINE
  5
4AE
100
AcDbEntity
  8
ASSI
100
AcDbLine
 62
250
  6
CONTINUOUS
 10
12.6460973257
 20
9.5691790364
 11
12.646509287
 21
-0.6251330481
  0
LINE
  5
4AF
100
AcDbEntity
  8
RACCORDO
100
AcDbLine
 62
250
  6
CONTINUOUS
 10
12.646509287
 20
-0.6251330481
 11
12.6448808415
 21
-1.3930805798
  0
LINE
  5
4B0
100
AcDbEntity
  8
ASSI
100
AcDbLine
 62
250
  6
CONTINUOUS
 10
12.646509287
 20
-0.6251330481
 11
12.6448808415
 21
-1.3930805798
  0
LINE
  5
4B1
100
AcDbEntity
  8
RACCORDO
100
AcDbLine
 62
250
  6
CONTINUOUS
 10
12.446539748
 20
-0.6251330481
 11
12.4449148446
 21
-1.3407696441
  0
LINE
  5
4B2
100
AcDbEntity
  8
ASSI
100
AcDbLine
 62
250
  6
CONTINUOUS
 10
12.446539748
 20
-0.6251330481
 11
12.4449148446
 21
-1.3407696441
  0
LINE
  5
4B3
100
AcDbEntity
  8
RACCORDO
100
AcDbLine
 62
250
  6
CONTINUOUS
 10
12.6448808415
 20
-1.3930805798
 11
12.6401001982
 21
-2.1099124559
  0
LINE
  5
4B4
100
AcDbEntity
  8
ASSI
100
AcDbLine
 62
250
  6
CONTINUOUS
 10
12.6448808415
 20
-1.3930805798
 11
12.6401001982
 21
-2.1099124559
  0
LINE
  5
4B5
100
AcDbEntity
  8
RACCORDO
100
AcDbLine
 62
250
  6
CONTINUOUS
 10
12.4449148446
 20
-1.3407696441
 11
12.4401344477
 21
-2.0107278673
  0
LINE
  5
4B6
100
AcDbEntity
  8
ASSI
100
AcDbLine
 62
250
  6
CONTINUOUS
 10
12.4449148446
 20
-1.3407696441
 11
12.4401344477
 21
-2.0107278673
  0
LINE
  5
4B7
100
AcDbEntity
  8
RACCORDO
100
AcDbLine
 62
250
  6
CONTINUOUS
 10
12.6401001982
 20
-2.1099124559
 11
12.6346344828
 21
-2.5849894692
  0
LINE
  5
4B8
100
AcDbEntity
  8
ASSI
100
AcDbLine
 62
250
  6
CONTINUOUS
 10
12.6401001982
 20
-2.1099124559
 11
12.6346344828
 21
-2.5849894692
  0
LINE
  5
4B9
100
AcDbEntity
  8
RACCORDO
100
AcDbLine
 62
250
  6
CONTINUOUS
 10
12.4401344477
 20
-2.0107278673
 11
12.434666614
 21
-2.4543662258
  0
LINE
  5
4BA
100
AcDbEntity
  8
ASSI
100
AcDbLine
 62
250
  6
CONTINUOUS
 10
12.4401344477
 20
-2.0107278673
 11
12.434666614
 21
-2.4543662258
  0
LINE
  5
4BB
100
AcDbEntity
  8
RACCORDO
100
AcDbLine
 62
250
  6
CONTINUOUS
 10
12.6346344828
 20
-2.5849894692
 11
12.6302101732
 21
-2.8617598812
  0
LINE
  5
4BC
100
AcDbEntity
  8
ASSI
100
AcDbLine
 62
250
  6
CONTINUOUS
 10
12.6346344828
 20
-2.5849894692
 11
12.6302101732
 21
-2.8617598812
  0
LINE
  5
4BD
100
AcDbEntity
  8
RACCORDO
100
AcDbLine
 62
250
  6
CONTINUOUS
 10
12.434666614
 20
-2.4543662258
 11
12.4302399171
 21
-2.7124648869
  0
LINE
  5
4BE
100
AcDbEntity
  8
ASSI
100
AcDbLine
 62
250
  6
CONTINUOUS
 10
12.434666614
 20
-2.4543662258
 11
12.4302399171
 21
-2.7124648869
  0
LINE
  5
4BF
100
AcDbEntity
  8
RACCORDO
100
AcDbLine
 62
250
  6
CONTINUOUS
 10
12.6302101732
 20
-2.8617598812
 11
12.6252318494
 21
-3.1011270546
  0
LINE
  5
4C0
100
AcDbEntity
  8
ASSI
100
AcDbLine
 62
250
  6
CONTINUOUS
 10
12.6302101732
 20
-2.8617598812
 11
12.6252318494
 21
-3.1011270546
  0
LINE
  5
4C1
100
AcDbEntity
  8
RACCORDO
100
AcDbLine
 62
250
  6
CONTINUOUS
 10
12.4302399171
 20
-2.7124648869
 11
12.4252585958
 21
-2.9362064501
  0
LINE
  5
4C2
100
AcDbEntity
  8
ASSI
100
AcDbLine
 62
250
  6
CONTINUOUS
 10
12.4302399171
 20
-2.7124648869
 11
12.4252585958
 21
-2.9362064501
  0
LWPOLYLINE
  5
4C3
100
AcDbEntity
  8
RACCORDO
100
AcDbPolyline
 62
250
  6
CONTINUOUS
 90
9
 70
0
 10
12.6252318494
 20
-3.1011270546
 10
12.6197881007
 20
-3.2991159057
 10
12.6169281657
 20
-3.3814986336
 10
12.6139873354
 20
-3.4523190793
 10
12.6109661959
 20
-3.511296598
 10
12.6079016995
 20
-3.5581976144
 10
12.6048061636
 20
-3.5928224359
 10
12.6016672706
 20
-3.615015961
 10
12.5984850207
 20
-3.6246794288
  0
LWPOLYLINE
  5
4C4
100
AcDbEntity
  8
ASSI
100
AcDbPolyline
 62
250
  6
CONTINUOUS
 90
9
 70
0
 10
12.6252318494
 20
-3.1011270546
 10
12.6197881007
 20
-3.2991159057
 10
12.6169281657
 20
-3.3814986336
 10
12.6139873354
 20
-3.4523190793
 10
12.6109661959
 20
-3.511296598
 10
12.6079016995
 20
-3.5581976144
 10
12.6048061636
 20
-3.5928224359
 10
12.6016672706
 20
-3.615015961
 10
12.5984850207
 20
-3.6246794288
  0
LWPOLYLINE
  5
4C5
100
AcDbEntity
  8
RACCORDO
100
AcDbPolyline
 62
250
  6
CONTINUOUS
 90
9
 70
0
 10
12.4252585958
 20
-2.9362064501
 10
12.4198115741
 20
-3.1210980534
 10
12.4169499518
 20
-3.1979532412
 10
12.4140066263
 20
-3.2639030079
 10
12.4109829784
 20
-3.3190895937
 10
12.4079184058
 20
-3.3628314046
 10
12.4048260413
 20
-3.3949012428
 10
12.4016927521
 20
-3.4155263061
 10
12.3985185382
 20
-3.4247065946
  0
LWPOLYLINE
  5
4C6
100
AcDbEntity
  8
ASSI
100
AcDbPolyline
 62
250
  6
CONTINUOUS
 90
9
 70
0
 10
12.4252585958
 20
-2.9362064501
 10
12.4198115741
 20
-3.1210980534
 10
12.4169499518
 20
-3.1979532412
 10
12.4140066263
 20
-3.2639030079
 10
12.4109829784
 20
-3.3190895937
 10
12.4079184058
 20
-3.3628314046
 10
12.4048260413
 20
-3.3949012428
 10
12.4016927521
 20
-3.4155263061
 10
12.3985185382
 20
-3.4247065946
  0
LWPOLYLINE
  5
4C7
100
AcDbEntity
  8
RACCORDO
100
AcDbPolyline
 62
7
  6
CONTINUOUS
 90
25
 70
0
 10
12.3016017825
 20
12.0784375716
 10
12.3020445998
 20
12.091603644
 10
12.3033242044
 20
12.1046033518
 10
12.3054405964
 20
12.117436695
 10
12.3084099038
 20
12.1301570134
 10
12.3122159985
 20
12.1427109673
 10
12.316810496
 20
12.1549385376
 10
12.3222035131
 20
12.1668355714
 10
12.3283849329
 20
12.1784062216
 10
12.3352760212
 20
12.1895029279
 10
12.3428858832
 20
12.2001196159
 10
12.3512054135
 20
12.2102623601
 10
12.360128562
 20
12.2198018237
 10
12.3696630712
 20
12.2287302694
 10
12.3798011985
 20
12.2370554345
 10
12.3904136664
 20
12.2446711947
 10
12.4015065554
 20
12.251568448
 10
12.4130737849
 20
12.2577562964
 10
12.4249678361
 20
12.2631559213
 10
12.4371928675
 20
12.2677572071
 10
12.4497447206
 20
12.2715702693
 10
12.4624634003
 20
12.2745466365
 10
12.4752955749
 20
12.2766701514
 10
12.4882945761
 20
12.2779569711
 10
12.5014604039
 20
12.2784070958
  0
LWPOLYLINE
  5
4C8
100
AcDbEntity
  8
ASSI
100
AcDbPolyline
 62
7
  6
CONTINUOUS
 90
25
 70
0
 10
12.3016017825
 20
12.0784375716
 10
12.3020445998
 20
12.091603644
 10
12.3033242044
 20
12.1046033518
 10
12.3054405964
 20
12.117436695
 10
12.3084099038
 20
12.1301570134
 10
12.3122159985
 20
12.1427109673
 10
12.316810496
 20
12.1549385376
 10
12.3222035131
 20
12.1668355714
 10
12.3283849329
 20
12.1784062216
 10
12.3352760212
 20
12.1895029279
 10
12.3428858832
 20
12.2001196159
 10
12.3512054135
 20
12.2102623601
 10
12.360128562
 20
12.2198018237
 10
12.3696630712
 20
12.2287302694
 10
12.3798011985
 20
12.2370554345
 10
12.3904136664
 20
12.2446711947
 10
12.4015065554
 20
12.251568448
 10
12.4130737849
 20
12.2577562964
 10
12.4249678361
 20
12.2631559213
 10
12.4371928675
 20
12.2677572071
 10
12.4497447206
 20
12.2715702693
 10
12.4624634003
 20
12.2745466365
 10
12.4752955749
 20
12.2766701514
 10
12.4882945761
 20
12.2779569711
 10
12.5014604039
 20
12.2784070958
  0
LWPOLYLINE
  5
4C9
100
AcDbEntity
  8
RACCORDO
100
AcDbPolyline
 62
7
  6
CONTINUOUS
 90
25
 70
0
 10
12.3016017825
 20
-3.9214710548
 10
12.3020440811
 20
-3.9083066417
 10
12.3033230038
 20
-3.895308543
 10
12.3054385504
 20
-3.8824767586
 10
12.3084067236
 20
-3.8697579229
 10
12.3122115207
 20
-3.8572054014
 10
12.3168049344
 20
-3.8449792912
 10
12.3221971632
 20
-3.8330836728
 10
12.3283780085
 20
-3.8215144655
 10
12.3352688669
 20
-3.8104195246
 10
12.3428789162
 20
-3.7998049551
 10
12.3511989786
 20
-3.7896646519
 10
12.3601229174
 20
-3.7801281547
 10
12.3696585298
 20
-3.771203257
 10
12.3797980186
 20
-3.7628821651
 10
12.3904118554
 20
-3.7552710377
 10
12.4015061495
 20
-3.7483790522
 10
12.4130747917
 20
-3.7421970312
 10
12.4249699251
 20
-3.7368036009
 10
12.4371956319
 20
-3.7322089629
 10
12.44974783
 20
-3.7284029156
 10
12.4624664165
 20
-3.725433481
 10
12.4752980238
 20
-3.7233166662
 10
12.4882960197
 20
-3.722036464
 10
12.5014604039
 20
-3.7215928745
  0
LWPOLYLINE
  5
4CA
100
AcDbEntity
  8
ASSI
100
AcDbPolyline
 62
7
  6
CONTINUOUS
 90
25
 70
0
 10
12.3016017825
 20
-3.9214710548
 10
12.3020440811
 20
-3.9083066417
 10
12.3033230038
 20
-3.895308543
 10
12.3054385504
 20
-3.8824767586
 10
12.3084067236
 20
-3.8697579229
 10
12.3122115207
 20
-3.8572054014
 10
12.3168049344
 20
-3.8449792912
 10
12.3221971632
 20
-3.8330836728
 10
12.3283780085
 20
-3.8215144655
 10
12.3352688669
 20
-3.8104195246
 10
12.3428789162
 20
-3.7998049551
 10
12.3511989786
 20
-3.7896646519
 10
12.3601229174
 20
-3.7801281547
 10
12.3696585298
 20
-3.771203257
 10
12.3797980186
 20
-3.7628821651
 10
12.3904118554
 20
-3.7552710377
 10
12.4015061495
 20
-3.7483790522
 10
12.4130747917
 20
-3.7421970312
 10
12.4249699251
 20
-3.7368036009
 10
12.4371956319
 20
-3.7322089629
 10
12.44974783
 20
-3.7284029156
 10
12.4624664165
 20
-3.725433481
 10
12.4752980238
 20
-3.7233166662
 10
12.4882960197
 20
-3.722036464
 10
12.5014604039
 20
-3.7215928745
  0
LWPOLYLINE
  5
4CB
100
AcDbEntity
  8
RACCORDO
100
AcDbPolyline
 62
250
  6
CONTINUOUS
 90
22
 70
0
 10
12.002947326
 20
-5.423979799
 10
11.9972362805
 20
-5.5733600398
 10
11.9803834569
 20
-5.7218821052
 10
11.9524878285
 20
-5.8687167402
 10
11.9137120801
 20
-6.0130384278
 10
11.8642762387
 20
-6.1540489878
 10
11.8044516743
 20
-6.2909804094
 10
11.7345692784
 20
-6.4230740135
 10
11.6550219319
 20
-6.5495863085
 10
11.5662535677
 20
-6.6698109563
 10
11.4687599317
 20
-6.7830765885
 10
11.3630854837
 20
-6.8887510345
 10
11.2498198496
 20
-6.986244669
 10
11.1295952001
 20
-7.0750130321
 10
11.0030829035
 20
-7.1545603779
 10
10.870989297
 20
-7.2244427735
 10
10.7340580706
 20
-7.2842672595
 10
10.5930477155
 20
-7.3337030527
 10
10.4487256163
 20
-7.3724789279
 10
10.3018897126
 20
-7.4003747499
 10
10.1533657193
 20
-7.4172276261
 10
10.0039829076
 20
-7.4229384379
  0
LWPOLYLINE
  5
4CC
100
AcDbEntity
  8
ASSI
100
AcDbPolyline
 62
250
  6
CONTINUOUS
 90
22
 70
0
 10
12.002947326
 20
-5.423979799
 10
11.9972362805
 20
-5.5733600398
 10
11.9803834569
 20
-5.7218821052
 10
11.9524878285
 20
-5.8687167402
 10
11.9137120801
 20
-6.0130384278
 10
11.8642762387
 20
-6.1540489878
 10
11.8044516743
 20
-6.2909804094
 10
11.7345692784
 20
-6.4230740135
 10
11.6550219319
 20
-6.5495863085
 10
11.5662535677
 20
-6.6698109563
 10
11.4687599317
 20
-6.7830765885
 10
11.3630854837
 20
-6.8887510345
 10
11.2498198496
 20
-6.986244669
 10
11.1295952001
 20
-7.0750130321
 10
11.0030829035
 20
-7.1545603779
 10
10.870989297
 20
-7.2244427735
 10
10.7340580706
 20
-7.2842672595
 10
10.5930477155
 20
-7.3337030527
 10
10.4487256163
 20
-7.3724789279
 10
10.3018897126
 20
-7.4003747499
 10
10.1533657193
 20
-7.4172276261
 10
10.0039829076
 20
-7.4229384379
  0
LWPOLYLINE
  5
4CD
100
AcDbEntity
  8
CURVE
100
AcDbPolyline
 62
250
  6
CONTINUOUS
 90
73
 70
0
 10
-0.9854494612
 20
12.4669927427
 10
-0.9769355922
 20
12.4685560137
 10
-0.9686722627
 20
12.4709527385
 10
-0.9606384374
 20
12.4740901815
 10
-0.9528130809
 20
12.4778756072
 10
-0.9451751578
 20
12.48221628
 10
-0.9377036328
 20
12.4870194644
 10
-0.9303774704
 20
12.492192425
 10
-0.9231756353
 20
12.4976424261
 10
-0.9160770921
 20
12.5032767322
 10
-0.9090608056
 20
12.5090026077
 10
-0.8916758311
 20
12.5234691633
 10
-0.8747039101
 20
12.538008101
 10
-0.8581698394
 20
12.5526991977
 10
-0.8420984163
 20
12.5676222304
 10
-0.8265144378
 20
12.582856976
 10
-0.811442701
 20
12.5984832116
 10
-0.796908003
 20
12.614580714
 10
-0.7829351409
 20
12.6312292602
 10
-0.7692956715
 20
12.648819335
 10
-0.7562699278
 20
12.666994579
 10
-0.7438623966
 20
12.685685032
 10
-0.7320775648
 20
12.7048207335
 10
-0.7209199191
 20
12.7243317235
 10
-0.7090982822
 20
12.7467078428
 10
-0.6980930564
 20
12.769456324
 10
-0.6879175804
 20
12.7925613527
 10
-0.6785851927
 20
12.8160071142
 10
-0.6701092319
 20
12.839777794
 10
-0.6629384455
 20
12.8623788541
 10
-0.6565287625
 20
12.8852198645
 10
-0.6508742633
 20
12.9082681851
 10
-0.6459690286
 20
12.9314911759
 10
-0.6418071389
 20
12.9548561969
 10
-0.6383826747
 20
12.9783306082
 10
-0.6354489198
 20
13.0043271942
 10
-0.6333771044
 20
13.0303946869
 10
-0.6321383185
 20
13.0565105245
 10
-0.6317081241
 20
13.0845952262
 10
-0.6322029674
 20
13.1126845353
 10
-0.6336198432
 20
13.140753303
 10
-0.6357951721
 20
13.1671004339
 10
-0.6388093098
 20
13.1933696376
 10
-0.6426886135
 20
13.219523379
 10
-0.6474594405
 20
13.2455241226
 10
-0.6531481479
 20
13.2713343331
 10
-0.6590647505
 20
13.2943417922
 10
-0.6657506946
 20
13.3171381693
 10
-0.6732123475
 20
13.3396966687
 10
-0.6814560764
 20
13.3619904951
 10
-0.6904882488
 20
13.3839928529
 10
-0.7012194424
 20
13.407581451
 10
-0.7128697352
 20
13.4307534475
 10
-0.7254163077
 20
13.4534694111
 10
-0.7388363402
 20
13.4756899104
 10
-0.7531070132
 20
13.4973755142
 10
-0.768205507
 20
13.518486791
 10
-0.7841090021
 20
13.5389843095
 10
-0.8007946789
 20
13.5588286384
 10
-0.8172508839
 20
13.5769389211
 10
-0.8343613884
 20
13.5944172083
 10
-0.8521031183
 20
13.6112493429
 10
-0.8704529997
 20
13.6274211678
 10
-0.8893879587
 20
13.6429185258
 10
-0.9088849212
 20
13.65772726
 10
-0.9289208133
 20
13.6718332131
 10
-0.9438530475
 20
13.6816561062
 10
-0.9590601835
 20
13.6910442457
 10
-0.9745430483
 20
13.6999437886
 10
-0.9903024686
 20
13.7083008916
 10
-1.0063392714
 20
13.7160617117
 10
-1.0226542835
 20
13.7231724058
 10
-1.0392483318
 20
13.7295791307
  0
LINE
  5
4CE
100
AcDbEntity
  8
CURVE
100
AcDbLine
 62
250
  6
CONTINUOUS
 10
-3.1652972175
 20
11.7844031106
 11
-3.8758922175
 21
11.7844031106
  0
LINE
  5
4CF
100
AcDbEntity
  8
CURVE
100
AcDbLine
 62
250
  6
CONTINUOUS
 10
6.133030451
 20
12.092692833
 11
6.7211254841
 21
12.092692833
  0
LINE
  5
4D0
100
AcDbEntity
  8
CURVE
100
AcDbLine
 62
250
  6
CONTINUOUS
 10
7.6258875615
 20
12.092692833
 11
8.2139828211
 21
12.092692833
  0
LINE
  5
4D1
100
AcDbEntity
  8
CURVE
100
AcDbLine
 62
250
  6
CONTINUOUS
 10
-3.7691572175
 20
12.1705551106
 11
-3.2695772175
 21
12.1705551106
  0
LINE
  5
4D2
100
AcDbEntity
  8
RACCORDO
100
AcDbLine
 62
250
  6
CONTINUOUS
 10
-12.9952812111
 20
12.181493656
 11
-13.9015155671
 21
12.1814939993
  0
LINE
  5
4D3
100
AcDbEntity
  8
ASSI
100
AcDbLine
 62
250
  6
CONTINUOUS
 10
-12.9952812111
 20
12.181493656
 11
-13.9015155671
 21
12.1814939993
  0
LINE
  5
4D4
100
AcDbEntity
  8
RACCORDO
100
AcDbLine
 62
250
  6
CONTINUOUS
 10
13.5047187889
 20
12.181493656
 11
12.5984847758
 21
12.1814936564
  0
LINE
  5
4D5
100
AcDbEntity
  8
ASSI
100
AcDbLine
 62
250
  6
CONTINUOUS
 10
13.5047187889
 20
12.181493656
 11
12.5984847758
 21
12.1814936564
  0
LINE
  5
4D6
100
AcDbEntity
  8
CURVE
100
AcDbLine
 62
250
  6
CONTINUOUS
 10
-1.8072600148
 20
12.2636255134
 11
-1.527487142
 21
12.2636255134
  0
LINE
  5
4D7
100
AcDbEntity
  8
RACCORDO
100
AcDbLine
 62
7
  6
CONTINUOUS
 10
-13.9985200521
 20
12.2784071106
 11
-12.8982763829
 21
12.2784071106
  0
LINE
  5
4D8
100
AcDbEntity
  8
ASSI
100
AcDbLine
 62
7
  6
CONTINUOUS
 10
-13.9985200521
 20
12.2784071106
 11
-12.8982763829
 21
12.2784071106
  0
LINE
  5
4D9
100
AcDbEntity
  8
RACCORDO
100
AcDbLine
 62
7
  6
CONTINUOUS
 10
12.5014799479
 20
12.2784071106
 11
13.6017236171
 21
12.2784071106
  0
LINE
  5
4DA
100
AcDbEntity
  8
ASSI
100
AcDbLine
 62
7
  6
CONTINUOUS
 10
12.5014799479
 20
12.2784071106
 11
13.6017236171
 21
12.2784071106
  0
LINE
  5
4DB
100
AcDbEntity
  8
CURVE
100
AcDbLine
 62
250
  6
CONTINUOUS
 10
5.0473160035
 20
12.3641214449
 11
4.7758874482
 21
12.3641214449
  0
LINE
  5
4DC
100
AcDbEntity
  8
CURVE
100
AcDbLine
 62
250
  6
CONTINUOUS
 10
-1.526362427
 20
12.6730217975
 11
-1.8245618815
 21
12.6730217975
  0
LWPOLYLINE
  5
4DD
100
AcDbEntity
  8
CURVE
100
AcDbPolyline
 62
250
  6
CONTINUOUS
 90
48
 70
0
 10
-1.527487142
 20
12.2636255134
 10
-1.5194530503
 20
12.2635235085
 10
-1.5114046939
 20
12.2632163812
 10
-1.5033503415
 20
12.2627024623
 10
-1.4952982619
 20
12.2619800831
 10
-1.487256724
 20
12.2610475744
 10
-1.4792339963
 20
12.2599032674
 10
-1.4712383478
 20
12.258545493
 10
-1.4632780471
 20
12.2569725823
 10
-1.4553613631
 20
12.2551828663
 10
-1.4474965644
 20
12.253174676
 10
-1.4396919199
 20
12.2509463424
 10
-1.4319556984
 20
12.2484961966
 10
-1.4242961685
 20
12.2458225696
 10
-1.4167215991
 20
12.2429237925
 10
-1.4092402589
 20
12.2397981961
 10
-1.4018604167
 20
12.2364441117
 10
-1.3945903412
 20
12.2328598701
 10
-1.387256503
 20
12.228945096
 10
-1.3800485274
 20
12.2247940967
 10
-1.3729681503
 20
12.2204144362
 10
-1.3660171076
 20
12.2158136787
 10
-1.3591971355
 20
12.2109993882
 10
-1.3525099697
 20
12.2059791288
 10
-1.3459573463
 20
12.2007604646
 10
-1.3395410012
 20
12.1953509595
 10
-1.3332626704
 20
12.1897581778
 10
-1.3271240897
 20
12.1839896835
 10
-1.3211269953
 20
12.1780530405
 10
-1.315273123
 20
12.1719558131
 10
-1.3095642087
 20
12.1657055653
 10
-1.3040019885
 20
12.1593098611
 10
-1.2985881983
 20
12.1527762646
 10
-1.293324574
 20
12.14611234
 10
-1.2882128516
 20
12.1393256512
 10
-1.2832547671
 20
12.1324237623
 10
-1.2784520563
 20
12.1254142374
 10
-1.2738064554
 20
12.1183046407
 10
-1.2693197001
 20
12.111102536
 10
-1.2649935265
 20
12.1038154876
 10
-1.2608296705
 20
12.0964510595
 10
-1.2568298682
 20
12.0890168158
 10
-1.2529958553
 20
12.0815203205
 10
-1.2493293679
 20
12.0739691377
 10
-1.245832142
 20
12.0663708315
 10
-1.2425059135
 20
12.0587329659
 10
-1.2393524183
 20
12.051063105
 10
-1.2363733924
 20
12.043368813
  0
LWPOLYLINE
  5
4DE
100
AcDbEntity
  8
RACCORDO
100
AcDbPolyline
 62
7
  6
CONTINUOUS
 90
25
 70
0
 10
12.5014604039
 20
12.2784070958
 10
12.4882960197
 20
12.2788506853
 10
12.4752980239
 20
12.2801308875
 10
12.4624664165
 20
12.2822477023
 10
12.44974783
 20
12.2852171369
 10
12.4371956319
 20
12.2890231841
 10
12.4249699251
 20
12.2936178222
 10
12.4130747917
 20
12.2990112524
 10
12.4015061496
 20
12.3051932735
 10
12.3904118554
 20
12.312085259
 10
12.3797980186
 20
12.3196963864
 10
12.3696585298
 20
12.3280174782
 10
12.3601229174
 20
12.336942376
 10
12.3511989786
 20
12.3464788732
 10
12.3428789162
 20
12.3566191764
 10
12.3352688669
 20
12.3672337459
 10
12.3283780085
 20
12.3783286868
 10
12.3221971632
 20
12.3898978941
 10
12.3168049344
 20
12.4017935125
 10
12.3122115207
 20
12.4140196227
 10
12.3084067236
 20
12.4265721441
 10
12.3054385504
 20
12.4392909799
 10
12.3033230038
 20
12.4521227643
 10
12.3020440811
 20
12.465120863
 10
12.3016017825
 20
12.478285276
  0
LWPOLYLINE
  5
4DF
100
AcDbEntity
  8
ASSI
100
AcDbPolyline
 62
7
  6
CONTINUOUS
 90
25
 70
0
 10
12.5014604039
 20
12.2784070958
 10
12.4882960197
 20
12.2788506853
 10
12.4752980239
 20
12.2801308875
 10
12.4624664165
 20
12.2822477023
 10
12.44974783
 20
12.2852171369
 10
12.4371956319
 20
12.2890231841
 10
12.4249699251
 20
12.2936178222
 10
12.4130747917
 20
12.2990112524
 10
12.4015061496
 20
12.3051932735
 10
12.3904118554
 20
12.312085259
 10
12.3797980186
 20
12.3196963864
 10
12.3696585298
 20
12.3280174782
 10
12.3601229174
 20
12.336942376
 10
12.3511989786
 20
12.3464788732
 10
12.3428789162
 20
12.3566191764
 10
12.3352688669
 20
12.3672337459
 10
12.3283780085
 20
12.3783286868
 10
12.3221971632
 20
12.3898978941
 10
12.3168049344
 20
12.4017935125
 10
12.3122115207
 20
12.4140196227
 10
12.3084067236
 20
12.4265721441
 10
12.3054385504
 20
12.4392909799
 10
12.3033230038
 20
12.4521227643
 10
12.3020440811
 20
12.465120863
 10
12.3016017825
 20
12.478285276
  0
LWPOLYLINE
  5
4E0
100
AcDbEntity
  8
RACCORDO
100
AcDbPolyline
 62
7
  6
CONTINUOUS
 90
25
 70
0
 10
-12.898256839
 20
12.2784070958
 10
-12.8850910112
 20
12.2779569711
 10
-12.87209201
 20
12.2766701514
 10
-12.8592598354
 20
12.2745466365
 10
-12.8465411557
 20
12.2715702693
 10
-12.8339893026
 20
12.267757207
 10
-12.8217642711
 20
12.2631559213
 10
-12.8098702199
 20
12.2577562964
 10
-12.7983029904
 20
12.251568448
 10
-12.7872101015
 20
12.2446711947
 10
-12.7765976335
 20
12.2370554345
 10
-12.7664595062
 20
12.2287302694
 10
-12.756924997
 20
12.2198018237
 10
-12.7480018485
 20
12.2102623601
 10
-12.7396823182
 20
12.2001196159
 10
-12.7320724563
 20
12.1895029279
 10
-12.725181368
 20
12.1784062216
 10
-12.7189999481
 20
12.1668355714
 10
-12.713606931
 20
12.1549385376
 10
-12.7090124335
 20
12.1427109673
 10
-12.7052063388
 20
12.1301570134
 10
-12.7022370314
 20
12.117436695
 10
-12.7001206395
 20
12.1046033518
 10
-12.6988410348
 20
12.091603644
 10
-12.6983982175
 20
12.0784375716
  0
LWPOLYLINE
  5
4E1
100
AcDbEntity
  8
ASSI
100
AcDbPolyline
 62
7
  6
CONTINUOUS
 90
25
 70
0
 10
-12.898256839
 20
12.2784070958
 10
-12.8850910112
 20
12.2779569711
 10
-12.87209201
 20
12.2766701514
 10
-12.8592598354
 20
12.2745466365
 10
-12.8465411557
 20
12.2715702693
 10
-12.8339893026
 20
12.267757207
 10
-12.8217642711
 20
12.2631559213
 10
-12.8098702199
 20
12.2577562964
 10
-12.7983029904
 20
12.251568448
 10
-12.7872101015
 20
12.2446711947
 10
-12.7765976335
 20
12.2370554345
 10
-12.7664595062
 20
12.2287302694
 10
-12.756924997
 20
12.2198018237
 10
-12.7480018485
 20
12.2102623601
 10
-12.7396823182
 20
12.2001196159
 10
-12.7320724563
 20
12.1895029279
 10
-12.725181368
 20
12.1784062216
 10
-12.7189999481
 20
12.1668355714
 10
-12.713606931
 20
12.1549385376
 10
-12.7090124335
 20
12.1427109673
 10
-12.7052063388
 20
12.1301570134
 10
-12.7022370314
 20
12.117436695
 10
-12.7001206395
 20
12.1046033518
 10
-12.6988410348
 20
12.091603644
 10
-12.6983982175
 20
12.0784375716
  0
LWPOLYLINE
  5
4E2
100
AcDbEntity
  8
CURVE
100
AcDbPolyline
 62
250
  6
CONTINUOUS
 90
32
 70
0
 10
-1.0392483318
 20
13.7295791307
 10
-1.0694529003
 20
13.7399745292
 10
-1.0999474564
 20
13.7494761253
 10
-1.1307063886
 20
13.7581272771
 10
-1.1617040852
 20
13.7659713431
 10
-1.1929149344
 20
13.7730516815
 10
-1.2243133247
 20
13.7794116506
 10
-1.2558736444
 20
13.7850946087
 10
-1.2875702817
 20
13.7901439141
 10
-1.319377625
 20
13.7946029251
 10
-1.3512700627
 20
13.7985150001
 10
-1.383221983
 20
13.8019234972
 10
-1.4152077743
 20
13.8048717749
 10
-1.4633354119
 20
13.8085164456
 10
-1.5114765793
 20
13.8112559107
 10
-1.5596261235
 20
13.8131279071
 10
-1.6077788918
 20
13.8141701719
 10
-1.6559297313
 20
13.8144204419
 10
-1.704073489
 20
13.8139164542
 10
-1.7522050122
 20
13.8126959455
 10
-1.800319148
 20
13.810796653
 10
-1.8484107436
 20
13.8082563135
 10
-1.896474646
 20
13.8051126639
 10
-1.9445057025
 20
13.8014034413
 10
-1.9924987601
 20
13.7971663826
 10
-2.0404486661
 20
13.7924392247
 10
-2.0883502675
 20
13.7872597045
 10
-2.1361984115
 20
13.7816655591
 10
-2.1839879452
 20
13.7756945253
 10
-2.2317137158
 20
13.7693843401
 10
-2.2793705705
 20
13.7627727404
 10
-2.3269533563
 20
13.7558974632
  0
LINE
  5
4E3
100
AcDbEntity
  8
CURVE
100
AcDbLine
 62
250
  6
CONTINUOUS
 10
3.5544589496
 20
13.1784071106
 11
3.8258875049
 21
12.9069785554
  0
LINE
  5
4E4
100
AcDbEntity
  8
CURVE
100
AcDbLine
 62
250
  6
CONTINUOUS
 10
5.318744672
 20
12.092692833
 11
5.0473160035
 21
12.3641214449
  0
LINE
  5
4E5
100
AcDbEntity
  8
CURVE
100
AcDbLine
 62
250
  6
CONTINUOUS
 10
5.8616017825
 20
12.3641214449
 11
6.133030451
 21
12.092692833
  0
LINE
  5
4E6
100
AcDbEntity
  8
CURVE
100
AcDbLine
 62
250
  6
CONTINUOUS
 10
5.2735065228
 20
12.9069785554
 11
5.0473160035
 21
13.1784071106
  0
LWPOLYLINE
  5
4E7
100
AcDbEntity
  8
RACCORDO
100
AcDbPolyline
 62
250
  6
CONTINUOUS
 90
8
 70
0
 10
13.7046850267
 20
-3.4247065946
 10
13.7015108129
 20
-3.4155263061
 10
13.6983775237
 20
-3.3949012428
 10
13.6952851591
 20
-3.3628314047
 10
13.6922205866
 20
-3.3190895937
 10
13.6891969386
 20
-3.2639030079
 10
13.6862536132
 20
-3.1979532413
 10
13.6833919909
 20
-3.1210980534
  0
LWPOLYLINE
  5
4E8
100
AcDbEntity
  8
ASSI
100
AcDbPolyline
 62
250
  6
CONTINUOUS
 90
8
 70
0
 10
13.7046850267
 20
-3.4247065946
 10
13.7015108129
 20
-3.4155263061
 10
13.6983775237
 20
-3.3949012428
 10
13.6952851591
 20
-3.3628314047
 10
13.6922205866
 20
-3.3190895937
 10
13.6891969386
 20
-3.2639030079
 10
13.6862536132
 20
-3.1979532413
 10
13.6833919909
 20
-3.1210980534
  0
LWPOLYLINE
  5
4E9
100
AcDbEntity
  8
RACCORDO
100
AcDbPolyline
 62
250
  6
CONTINUOUS
 90
8
 70
0
 10
13.5047185445
 20
-3.6246794291
 10
13.5015362945
 20
-3.6150159619
 10
13.4983974015
 20
-3.5928224365
 10
13.4953018654
 20
-3.5581976144
 10
13.492237369
 20
-3.5112965976
 10
13.4892162296
 20
-3.4523190791
 10
13.4862753993
 20
-3.3814986336
 10
13.4834154643
 20
-3.2991159057
  0
LWPOLYLINE
  5
4EA
100
AcDbEntity
  8
ASSI
100
AcDbPolyline
 62
250
  6
CONTINUOUS
 90
8
 70
0
 10
13.5047185445
 20
-3.6246794291
 10
13.5015362945
 20
-3.6150159619
 10
13.4983974015
 20
-3.5928224365
 10
13.4953018654
 20
-3.5581976144
 10
13.492237369
 20
-3.5112965976
 10
13.4892162296
 20
-3.4523190791
 10
13.4862753993
 20
-3.3814986336
 10
13.4834154643
 20
-3.2991159057
  0
LINE
  5
4EB
100
AcDbEntity
  8
RACCORDO
100
AcDbLine
 62
250
  6
CONTINUOUS
 10
13.6833919909
 20
-3.1210980534
 11
13.6779449692
 21
-2.93620645
  0
LINE
  5
4EC
100
AcDbEntity
  8
ASSI
100
AcDbLine
 62
250
  6
CONTINUOUS
 10
13.6833919909
 20
-3.1210980534
 11
13.6779449692
 21
-2.93620645
  0
LINE
  5
4ED
100
AcDbEntity
  8
RACCORDO
100
AcDbLine
 62
250
  6
CONTINUOUS
 10
12.6197881007
 20
11.855930127
 11
12.6252318494
 21
11.6579412759
  0
LINE
  5
4EE
100
AcDbEntity
  8
ASSI
100
AcDbLine
 62
250
  6
CONTINUOUS
 10
12.6197881007
 20
11.855930127
 11
12.6252318494
 21
11.6579412759
  0
LINE
  5
4EF
100
AcDbEntity
  8
RACCORDO
100
AcDbLine
 62
250
  6
CONTINUOUS
 10
13.4834154643
 20
-3.2991159057
 11
13.4779717156
 21
-3.1011270546
  0
LINE
  5
4F0
100
AcDbEntity
  8
ASSI
100
AcDbLine
 62
250
  6
CONTINUOUS
 10
13.4834154643
 20
-3.2991159057
 11
13.4779717156
 21
-3.1011270546
  0
LINE
  5
4F1
100
AcDbEntity
  8
RACCORDO
100
AcDbLine
 62
250
  6
CONTINUOUS
 10
13.6779449692
 20
-2.93620645
 11
13.6729636479
 21
-2.7124648869
  0
LINE
  5
4F2
100
AcDbEntity
  8
ASSI
100
AcDbLine
 62
250
  6
CONTINUOUS
 10
13.6779449692
 20
-2.93620645
 11
13.6729636479
 21
-2.7124648869
  0
LINE
  5
4F3
100
AcDbEntity
  8
RACCORDO
100
AcDbLine
 62
250
  6
CONTINUOUS
 10
13.4779717156
 20
-3.1011270546
 11
13.4729933917
 21
-2.8617598812
  0
LINE
  5
4F4
100
AcDbEntity
  8
ASSI
100
AcDbLine
 62
250
  6
CONTINUOUS
 10
13.4779717156
 20
-3.1011270546
 11
13.4729933917
 21
-2.8617598812
  0
LINE
  5
4F5
100
AcDbEntity
  8
RACCORDO
100
AcDbLine
 62
250
  6
CONTINUOUS
 10
13.6729636479
 20
-2.7124648869
 11
13.6665431258
 21
-2.3129657793
  0
LINE
  5
4F6
100
AcDbEntity
  8
ASSI
100
AcDbLine
 62
250
  6
CONTINUOUS
 10
13.6729636479
 20
-2.7124648869
 11
13.6665431258
 21
-2.3129657793
  0
LINE
  5
4F7
100
AcDbEntity
  8
RACCORDO
100
AcDbLine
 62
250
  6
CONTINUOUS
 10
13.4729933917
 20
-2.8617598812
 11
13.466576183
 21
-2.4339999883
  0
LINE
  5
4F8
100
AcDbEntity
  8
ASSI
100
AcDbLine
 62
250
  6
CONTINUOUS
 10
13.4729933917
 20
-2.8617598812
 11
13.466576183
 21
-2.4339999883
  0
LINE
  5
4F9
100
AcDbEntity
  8
RACCORDO
100
AcDbLine
 62
250
  6
CONTINUOUS
 10
13.6665431258
 20
-2.3129657793
 11
13.6615889339
 21
-1.8498904018
  0
LINE
  5
4FA
100
AcDbEntity
  8
ASSI
100
AcDbLine
 62
250
  6
CONTINUOUS
 10
13.6665431258
 20
-2.3129657793
 11
13.6615889339
 21
-1.8498904018
  0
LINE
  5
4FB
100
AcDbEntity
  8
RACCORDO
100
AcDbLine
 62
250
  6
CONTINUOUS
 10
13.466576183
 20
-2.4339999883
 11
13.4603325378
 21
-1.7609408505
  0
LINE
  5
4FC
100
AcDbEntity
  8
ASSI
100
AcDbLine
 62
250
  6
CONTINUOUS
 10
13.466576183
 20
-2.4339999883
 11
13.4603325378
 21
-1.7609408505
  0
LINE
  5
4FD
100
AcDbEntity
  8
RACCORDO
100
AcDbLine
 62
250
  6
CONTINUOUS
 10
13.6615889339
 20
-1.8498904018
 11
13.6575791034
 21
-1.1644935814
  0
LINE
  5
4FE
100
AcDbEntity
  8
ASSI
100
AcDbLine
 62
250
  6
CONTINUOUS
 10
13.6615889339
 20
-1.8498904018
 11
13.6575791034
 21
-1.1644935814
  0
LINE
  5
4FF
100
AcDbEntity
  8
RACCORDO
100
AcDbLine
 62
250
  6
CONTINUOUS
 10
13.4603325378
 20
-1.7609408505
 11
13.4571062393
 21
-1.0123648151
  0
LINE
  5
500
100
AcDbEntity
  8
ASSI
100
AcDbLine
 62
250
  6
CONTINUOUS
 10
13.4603325378
 20
-1.7609408505
 11
13.4571062393
 21
-1.0123648151
  0
LINE
  5
501
100
AcDbEntity
  8
RACCORDO
100
AcDbLine
 62
250
  6
CONTINUOUS
 10
13.4571062393
 20
-1.0123648151
 11
13.456694278
 21
9.1819472694
  0
LINE
  5
502
100
AcDbEntity
  8
ASSI
100
AcDbLine
 62
250
  6
CONTINUOUS
 10
13.4571062393
 20
-1.0123648151
 11
13.456694278
 21
9.1819472694
  0
LINE
  5
503
100
AcDbEntity
  8
RACCORDO
100
AcDbLine
 62
250
  6
CONTINUOUS
 10
13.6575791034
 20
-1.1644935814
 11
13.656663817
 21
9.1819472694
  0
LINE
  5
504
100
AcDbEntity
  8
ASSI
100
AcDbLine
 62
250
  6
CONTINUOUS
 10
13.6575791034
 20
-1.1644935814
 11
13.656663817
 21
9.1819472694
  0
LINE
  5
505
100
AcDbEntity
  8
RACCORDO
100
AcDbLine
 62
7
  6
CONTINUOUS
 10
13.7038534189
 20
-0.1324958942
 11
13.7038534189
 21
8.6893101155
  0
LINE
  5
506
100
AcDbEntity
  8
ASSI
100
AcDbLine
 62
7
  6
CONTINUOUS
 10
13.7038534189
 20
-0.1324958942
 11
13.7038534189
 21
8.6893101155
  0
LINE
  5
507
100
AcDbEntity
  8
RACCORDO
100
AcDbLine
 62
7
  6
CONTINUOUS
 10
13.8016017825
 20
12.0785289452
 11
13.8016017825
 21
9.2784071106
  0
LINE
  5
508
100
AcDbEntity
  8
ASSI
100
AcDbLine
 62
7
  6
CONTINUOUS
 10
13.8016017825
 20
12.0785289452
 11
13.8016017825
 21
9.2784071106
  0
LINE
  5
509
100
AcDbEntity
  8
RACCORDO
100
AcDbLine
 62
7
  6
CONTINUOUS
 10
13.8016017825
 20
-0.7215928894
 11
13.8016017825
 21
-3.521714724
  0
LINE
  5
50A
100
AcDbEntity
  8
ASSI
100
AcDbLine
 62
7
  6
CONTINUOUS
 10
13.8016017825
 20
-0.7215928894
 11
13.8016017825
 21
-3.521714724
  0
LINE
  5
50B
100
AcDbEntity
  8
RACCORDO
100
AcDbLine
 62
250
  6
CONTINUOUS
 10
13.456694278
 20
9.1819472694
 11
13.4583227235
 21
9.9498948011
  0
LINE
  5
50C
100
AcDbEntity
  8
ASSI
100
AcDbLine
 62
250
  6
CONTINUOUS
 10
13.456694278
 20
9.1819472694
 11
13.4583227235
 21
9.9498948011
  0
LINE
  5
50D
100
AcDbEntity
  8
RACCORDO
100
AcDbLine
 62
250
  6
CONTINUOUS
 10
13.656663817
 20
9.1819472694
 11
13.6582887204
 21
9.8975838654
  0
LINE
  5
50E
100
AcDbEntity
  8
ASSI
100
AcDbLine
 62
250
  6
CONTINUOUS
 10
13.656663817
 20
9.1819472694
 11
13.6582887204
 21
9.8975838654
  0
LINE
  5
50F
100
AcDbEntity
  8
RACCORDO
100
AcDbLine
 62
250
  6
CONTINUOUS
 10
13.4583227235
 20
9.9498948011
 11
13.4631033667
 21
10.6667266772
  0
LINE
  5
510
100
AcDbEntity
  8
ASSI
100
AcDbLine
 62
250
  6
CONTINUOUS
 10
13.4583227235
 20
9.9498948011
 11
13.4631033667
 21
10.6667266772
  0
LINE
  5
511
100
AcDbEntity
  8
RACCORDO
100
AcDbLine
 62
250
  6
CONTINUOUS
 10
13.6582887204
 20
9.8975838654
 11
13.6630691172
 21
10.5675420886
  0
LINE
  5
512
100
AcDbEntity
  8
ASSI
100
AcDbLine
 62
250
  6
CONTINUOUS
 10
13.6582887204
 20
9.8975838654
 11
13.6630691172
 21
10.5675420886
  0
LINE
  5
513
100
AcDbEntity
  8
RACCORDO
100
AcDbLine
 62
250
  6
CONTINUOUS
 10
13.4631033667
 20
10.6667266772
 11
13.4685690822
 21
11.1418036905
  0
LINE
  5
514
100
AcDbEntity
  8
ASSI
100
AcDbLine
 62
250
  6
CONTINUOUS
 10
13.4631033667
 20
10.6667266772
 11
13.4685690822
 21
11.1418036905
  0
LINE
  5
515
100
AcDbEntity
  8
RACCORDO
100
AcDbLine
 62
250
  6
CONTINUOUS
 10
13.6630691172
 20
10.5675420886
 11
13.668536951
 21
11.0111804471
  0
LINE
  5
516
100
AcDbEntity
  8
ASSI
100
AcDbLine
 62
250
  6
CONTINUOUS
 10
13.6630691172
 20
10.5675420886
 11
13.668536951
 21
11.0111804471
  0
LINE
  5
517
100
AcDbEntity
  8
RACCORDO
100
AcDbLine
 62
250
  6
CONTINUOUS
 10
13.4685690822
 20
11.1418036905
 11
13.4729933917
 21
11.4185741024
  0
LINE
  5
518
100
AcDbEntity
  8
ASSI
100
AcDbLine
 62
250
  6
CONTINUOUS
 10
13.4685690822
 20
11.1418036905
 11
13.4729933917
 21
11.4185741024
  0
LINE
  5
519
100
AcDbEntity
  8
RACCORDO
100
AcDbLine
 62
250
  6
CONTINUOUS
 10
13.668536951
 20
11.0111804471
 11
13.6729636479
 21
11.2692791082
  0
LINE
  5
51A
100
AcDbEntity
  8
ASSI
100
AcDbLine
 62
250
  6
CONTINUOUS
 10
13.668536951
 20
11.0111804471
 11
13.6729636479
 21
11.2692791082
  0
LINE
  5
51B
100
AcDbEntity
  8
RACCORDO
100
AcDbLine
 62
250
  6
CONTINUOUS
 10
13.4729933917
 20
11.4185741024
 11
13.4779717156
 21
11.6579412759
  0
LINE
  5
51C
100
AcDbEntity
  8
ASSI
100
AcDbLine
 62
250
  6
CONTINUOUS
 10
13.4729933917
 20
11.4185741024
 11
13.4779717156
 21
11.6579412759
  0
LINE
  5
51D
100
AcDbEntity
  8
RACCORDO
100
AcDbLine
 62
250
  6
CONTINUOUS
 10
13.6729636479
 20
11.2692791082
 11
13.6779449692
 21
11.4930206713
  0
LINE
  5
51E
100
AcDbEntity
  8
ASSI
100
AcDbLine
 62
250
  6
CONTINUOUS
 10
13.6729636479
 20
11.2692791082
 11
13.6779449692
 21
11.4930206713
  0
LWPOLYLINE
  5
51F
100
AcDbEntity
  8
RACCORDO
100
AcDbPolyline
 62
250
  6
CONTINUOUS
 90
9
 70
0
 10
13.4779717156
 20
11.6579412759
 10
13.4834154643
 20
11.855930127
 10
13.4862753993
 20
11.9383128549
 10
13.4892162296
 20
12.0091333006
 10
13.492237369
 20
12.0681108193
 10
13.4953018654
 20
12.1150118357
 10
13.4983974014
 20
12.1496366572
 10
13.5015362943
 20
12.1718301823
 10
13.5047185442
 20
12.1814936501
  0
LWPOLYLINE
  5
520
100
AcDbEntity
  8
ASSI
100
AcDbPolyline
 62
250
  6
CONTINUOUS
 90
9
 70
0
 10
13.4779717156
 20
11.6579412759
 10
13.4834154643
 20
11.855930127
 10
13.4862753993
 20
11.9383128549
 10
13.4892162296
 20
12.0091333006
 10
13.492237369
 20
12.0681108193
 10
13.4953018654
 20
12.1150118357
 10
13.4983974014
 20
12.1496366572
 10
13.5015362943
 20
12.1718301823
 10
13.5047185442
 20
12.1814936501
  0
LWPOLYLINE
  5
521
100
AcDbEntity
  8
RACCORDO
100
AcDbPolyline
 62
250
  6
CONTINUOUS
 90
9
 70
0
 10
13.6779449692
 20
11.4930206713
 10
13.6833919909
 20
11.6779122747
 10
13.6862536132
 20
11.7547674625
 10
13.6891969386
 20
11.8207172292
 10
13.6922205866
 20
11.875903815
 10
13.6952851591
 20
11.9196456259
 10
13.6983775237
 20
11.9517154641
 10
13.7015108129
 20
11.9723405274
 10
13.7046850267
 20
11.9815208158
  0
LWPOLYLINE
  5
522
100
AcDbEntity
  8
ASSI
100
AcDbPolyline
 62
250
  6
CONTINUOUS
 90
9
 70
0
 10
13.6779449692
 20
11.4930206713
 10
13.6833919909
 20
11.6779122747
 10
13.6862536132
 20
11.7547674625
 10
13.6891969386
 20
11.8207172292
 10
13.6922205866
 20
11.875903815
 10
13.6952851591
 20
11.9196456259
 10
13.6983775237
 20
11.9517154641
 10
13.7015108129
 20
11.9723405274
 10
13.7046850267
 20
11.9815208158
  0
LWPOLYLINE
  5
523
100
AcDbEntity
  8
CURVE
100
AcDbPolyline
 62
250
  6
CONTINUOUS
 90
22
 70
0
 10
-1.8245618815
 20
13.3592479499
 10
-1.8063424126
 20
13.3622939023
 10
-1.7881007882
 20
13.365201907
 10
-1.7698338436
 20
13.3679486613
 10
-1.7515384141
 20
13.3705108627
 10
-1.733211335
 20
13.3728652084
 10
-1.7148494416
 20
13.3749883958
 10
-1.6949901543
 20
13.3769986248
 10
-1.6750928201
 20
13.3787123303
 10
-1.6551636343
 20
13.3801294158
 10
-1.6352087927
 20
13.3812497849
 10
-1.6152344908
 20
13.382073341
 10
-1.5952469243
 20
13.3825999878
 10
-1.5752522887
 20
13.3828296288
 10
-1.5552567796
 20
13.3827621675
 10
-1.5352665928
 20
13.3823975075
 10
-1.5152879237
 20
13.3817355523
 10
-1.4953269679
 20
13.3807762054
 10
-1.4753899211
 20
13.3795193704
 10
-1.455482979
 20
13.3779649508
 10
-1.4356123369
 20
13.3761128502
 10
-1.4157841907
 20
13.373962972
  0
LWPOLYLINE
  5
524
100
AcDbEntity
  8
RACCORDO
100
AcDbPolyline
 62
7
  6
CONTINUOUS
 90
13
 70
0
 10
-13.9984286785
 20
12.2784071106
 10
-14.0245444854
 20
12.2766993248
 10
-14.0502083048
 20
12.2715974274
 10
-14.0749814369
 20
12.2631901419
 10
-14.0984397559
 20
12.2516232406
 10
-14.1201838002
 20
12.2370954284
 10
-14.1398447965
 20
12.2198536896
 10
-14.1570865353
 20
12.2001926933
 10
-14.1716143475
 20
12.178448649
 10
-14.1831812488
 20
12.1549903301
 10
-14.1915885343
 20
12.1302171979
 10
-14.1966904317
 20
12.1045533786
 10
-14.1983982175
 20
12.0784375716
  0
LWPOLYLINE
  5
525
100
AcDbEntity
  8
ASSI
100
AcDbPolyline
 62
7
  6
CONTINUOUS
 90
13
 70
0
 10
-13.9984286785
 20
12.2784071106
 10
-14.0245444854
 20
12.2766993248
 10
-14.0502083048
 20
12.2715974274
 10
-14.0749814369
 20
12.2631901419
 10
-14.0984397559
 20
12.2516232406
 10
-14.1201838002
 20
12.2370954284
 10
-14.1398447965
 20
12.2198536896
 10
-14.1570865353
 20
12.2001926933
 10
-14.1716143475
 20
12.178448649
 10
-14.1831812488
 20
12.1549903301
 10
-14.1915885343
 20
12.1302171979
 10
-14.1966904317
 20
12.1045533786
 10
-14.1983982175
 20
12.0784375716
  0
LINE
  5
526
100
AcDbEntity
  8
CURVE
100
AcDbLine
 62
250
  6
CONTINUOUS
 10
8.0330302245
 20
13.1784071106
 11
7.6258875615
 21
13.1784071106
  0
LINE
  5
527
100
AcDbEntity
  8
CURVE
100
AcDbLine
 62
250
  6
CONTINUOUS
 10
6.540173114
 20
13.1784071106
 11
6.133030451
 21
13.1784071106
  0
LINE
  5
528
100
AcDbEntity
  8
CURVE
100
AcDbLine
 62
250
  6
CONTINUOUS
 10
5.0473160035
 20
13.1784071106
 11
4.504458893
 21
13.1784071106
  0
LINE
  5
529
100
AcDbEntity
  8
CURVE
100
AcDbLine
 62
250
  6
CONTINUOUS
 10
3.4187446437
 20
13.1784071106
 11
3.5544589496
 21
13.1784071106
  0
LINE
  5
52A
100
AcDbEntity
  8
CURVE
100
AcDbLine
 62
250
  6
CONTINUOUS
 10
8.8473160035
 20
13.1784071106
 11
9.7973160035
 21
13.1784071106
  0
LINE
  5
52B
100
AcDbEntity
  8
CURVE
100
AcDbLine
 62
250
  6
CONTINUOUS
 10
-10.2052452175
 20
13.7851031106
 11
-9.6384172175
 21
13.7851031106
  0
LINE
  5
52C
100
AcDbEntity
  8
CURVE
100
AcDbLine
 62
250
  6
CONTINUOUS
 10
-8.6708712175
 20
13.7851031106
 11
-8.1494352175
 21
13.7851031106
  0
LINE
  5
52D
100
AcDbEntity
  8
CURVE
100
AcDbLine
 62
250
  6
CONTINUOUS
 10
-6.9273942175
 20
13.7851031106
 11
-6.4060332175
 21
13.7851031106
  0
LINE
  5
52E
100
AcDbEntity
  8
CURVE
100
AcDbLine
 62
250
  6
CONTINUOUS
 10
-5.3679582175
 20
13.7851031106
 11
-4.8516952175
 21
13.7851031106
  0
LINE
  5
52F
100
AcDbEntity
  8
CURVE
100
AcDbLine
 62
250
  6
CONTINUOUS
 10
-3.7519302175
 20
13.7851031106
 11
-3.2471582175
 21
13.7851031106
  0
LINE
  5
530
100
AcDbEntity
  8
CURVE
100
AcDbLine
 62
250
  6
CONTINUOUS
 10
-7.4340032175
 20
13.7852521106
 11
-7.9557962175
 21
13.7852521106
  0
LINE
  5
531
100
AcDbEntity
  8
RACCORDO
100
AcDbLine
 62
250
  6
CONTINUOUS
 10
-12.3997436009
 20
13.98097084
 11
-10.9006573604
 21
13.98097084
  0
LINE
  5
532
100
AcDbEntity
  8
ASSI
100
AcDbLine
 62
250
  6
CONTINUOUS
 10
-12.3997436009
 20
13.98097084
 11
-10.9006573604
 21
13.98097084
  0
LINE
  5
533
100
AcDbEntity
  8
RACCORDO
100
AcDbLine
 62
250
  6
CONTINUOUS
 10
12.0029471659
 20
13.98097084
 11
10.5038609254
 21
13.98097084
  0
LINE
  5
534
100
AcDbEntity
  8
ASSI
100
AcDbLine
 62
250
  6
CONTINUOUS
 10
12.0029471659
 20
13.98097084
 11
10.5038609254
 21
13.98097084
  0
LWPOLYLINE
  5
535
100
AcDbEntity
  8
RACCORDO
100
AcDbPolyline
 62
250
  6
CONTINUOUS
 90
13
 70
0
 10
13.5047154877
 20
12.1814903549
 10
13.5308117192
 20
12.1797723016
 10
13.5564616098
 20
12.174663424
 10
13.5812264527
 20
12.1662511024
 10
13.6046826788
 20
12.1546792184
 10
13.6264291008
 20
12.1401456933
 10
13.6460937755
 20
12.1228991035
 10
13.6633403653
 20
12.1032344288
 10
13.6778738903
 20
12.0814880068
 10
13.6894457743
 20
12.0580317807
 10
13.6978580959
 20
12.0332669378
 10
13.7029669735
 20
12.0076170473
 10
13.7046850267
 20
11.9815208158
  0
LWPOLYLINE
  5
536
100
AcDbEntity
  8
ASSI
100
AcDbPolyline
 62
250
  6
CONTINUOUS
 90
13
 70
0
 10
13.5047154877
 20
12.1814903549
 10
13.5308117192
 20
12.1797723016
 10
13.5564616098
 20
12.174663424
 10
13.5812264527
 20
12.1662511024
 10
13.6046826788
 20
12.1546792184
 10
13.6264291008
 20
12.1401456933
 10
13.6460937755
 20
12.1228991035
 10
13.6633403653
 20
12.1032344288
 10
13.6778738903
 20
12.0814880068
 10
13.6894457743
 20
12.0580317807
 10
13.6978580959
 20
12.0332669378
 10
13.7029669735
 20
12.0076170473
 10
13.7046850267
 20
11.9815208158
  0
LWPOLYLINE
  5
537
100
AcDbEntity
  8
CURVE
100
AcDbPolyline
 62
250
  6
CONTINUOUS
 90
49
 70
0
 10
-1.4157841907
 20
13.373962972
 10
-1.4062210129
 20
13.3727236421
 10
-1.396657183
 20
13.3712258113
 10
-1.3871032345
 20
13.3694702064
 10
-1.3775697004
 20
13.367457554
 10
-1.3680671141
 20
13.365188581
 10
-1.3586060089
 20
13.3626640139
 10
-1.349196918
 20
13.3598845796
 10
-1.3398503747
 20
13.3568510046
 10
-1.3305769122
 20
13.3535640158
 10
-1.3213870638
 20
13.3500243398
 10
-1.3122913628
 20
13.3462327033
 10
-1.3033003424
 20
13.342189833
 10
-1.2944245359
 20
13.3378964557
 10
-1.2856744765
 20
13.3333532981
 10
-1.2770606975
 20
13.3285610868
 10
-1.2685937322
 20
13.3235205486
 10
-1.2602841138
 20
13.3182324101
 10
-1.2521423756
 20
13.3126973982
 10
-1.2441790509
 20
13.3069162394
 10
-1.2364046729
 20
13.3008896605
 10
-1.2288297748
 20
13.2946183883
 10
-1.22146489
 20
13.2881031493
 10
-1.2143205517
 20
13.2813446704
 10
-1.2074072932
 20
13.2743436782
 10
-1.2007697158
 20
13.2671423455
 10
-1.1943741802
 20
13.2597131227
 10
-1.1882237125
 20
13.2520673071
 10
-1.1823213388
 20
13.2442161958
 10
-1.1766700854
 20
13.2361710862
 10
-1.1712729782
 20
13.2279432754
 10
-1.1661330436
 20
13.2195440607
 10
-1.1612533075
 20
13.2109847393
 10
-1.1566367961
 20
13.2022766086
 10
-1.1522865355
 20
13.1934309656
 10
-1.148205552
 20
13.1844591076
 10
-1.1443968716
 20
13.175372332
 10
-1.1408635204
 20
13.1661819358
 10
-1.1376085246
 20
13.1568992165
 10
-1.1346349104
 20
13.1475354711
 10
-1.1319457038
 20
13.1381019969
 10
-1.1295439309
 20
13.1286100912
 10
-1.127432618
 20
13.1190710512
 10
-1.1256147912
 20
13.1094961741
 10
-1.1240934765
 20
13.0998967572
 10
-1.1228717002
 20
13.0902840977
 10
-1.1219524883
 20
13.0806694929
 10
-1.121338867
 20
13.0710642399
 10
-1.1210338624
 20
13.0614796361
  0
LINE
  5
538
100
AcDbEntity
  8
CURVE
100
AcDbLine
 62
250
  6
CONTINUOUS
 10
7.3544591195
 20
12.3641214449
 11
7.6258875615
 21
12.092692833
  0
LINE
  5
539
100
AcDbEntity
  8
CURVE
100
AcDbLine
 62
250
  6
CONTINUOUS
 10
6.8116017825
 20
12.9069785554
 11
6.540173114
 21
13.1784071106
  0
LWPOLYLINE
  5
53A
100
AcDbEntity
  8
RACCORDO
100
AcDbPolyline
 62
7
  6
CONTINUOUS
 90
13
 70
0
 10
13.8016017825
 20
12.0784375716
 10
13.7998939967
 20
12.1045533786
 10
13.7947920993
 20
12.1302171979
 10
13.7863848137
 20
12.1549903301
 10
13.7748179125
 20
12.178448649
 10
13.7602901003
 20
12.2001926933
 10
13.7430483614
 20
12.2198536896
 10
13.7233873651
 20
12.2370954284
 10
13.7016433209
 20
12.2516232406
 10
13.6781850019
 20
12.2631901419
 10
13.6534118697
 20
12.2715974274
 10
13.6277480504
 20
12.2766993248
 10
13.6016322435
 20
12.2784071106
  0
LWPOLYLINE
  5
53B
100
AcDbEntity
  8
ASSI
100
AcDbPolyline
 62
7
  6
CONTINUOUS
 90
13
 70
0
 10
13.8016017825
 20
12.0784375716
 10
13.7998939967
 20
12.1045533786
 10
13.7947920993
 20
12.1302171979
 10
13.7863848137
 20
12.1549903301
 10
13.7748179125
 20
12.178448649
 10
13.7602901003
 20
12.2001926933
 10
13.7430483614
 20
12.2198536896
 10
13.7233873651
 20
12.2370954284
 10
13.7016433209
 20
12.2516232406
 10
13.6781850019
 20
12.2631901419
 10
13.6534118697
 20
12.2715974274
 10
13.6277480504
 20
12.2766993248
 10
13.6016322435
 20
12.2784071106
  0
LINE
  5
53C
100
AcDbEntity
  8
RACCORDO
100
AcDbLine
 62
250
  6
CONTINUOUS
 10
-10.4009619469
 20
14.4806662535
 11
10.0041655118
 21
14.4806662535
  0
LINE
  5
53D
100
AcDbEntity
  8
ASSI
100
AcDbLine
 62
250
  6
CONTINUOUS
 10
-10.4009619469
 20
14.4806662535
 11
10.0041655118
 21
14.4806662535
  0
LWPOLYLINE
  5
53E
100
AcDbEntity
  8
RACCORDO
100
AcDbPolyline
 62
250
  6
CONTINUOUS
 90
22
 70
0
 10
10.0041655118
 20
14.4806662535
 10
10.0417376255
 20
14.4792302196
 10
10.0787284222
 20
14.4750751527
 10
10.1151379021
 20
14.4682010528
 10
10.1511756722
 20
14.4585394059
 10
10.1866321254
 20
14.4461587261
 10
10.22087844
 20
14.4312645552
 10
10.2538815216
 20
14.413814947
 10
10.2856744645
 20
14.3938518476
 10
10.3157277298
 20
14.3717066378
 10
10.3440123844
 20
14.3473421333
 10
10.3705573613
 20
14.3207955183
 10
10.3949199207
 20
14.2925097253
 10
10.4170627885
 20
14.2624559886
 10
10.4370232387
 20
14.2306630739
 10
10.4544703532
 20
14.1976602112
 10
10.4693623529
 20
14.1634135049
 10
10.4817410168
 20
14.1279568507
 10
10.4914007642
 20
14.0919211654
 10
10.4982730679
 20
14.0555167547
 10
10.502426455
 20
14.0185333129
 10
10.5038609254
 20
13.98097084
  0
LWPOLYLINE
  5
53F
100
AcDbEntity
  8
ASSI
100
AcDbPolyline
 62
250
  6
CONTINUOUS
 90
22
 70
0
 10
10.0041655118
 20
14.4806662535
 10
10.0417376255
 20
14.4792302196
 10
10.0787284222
 20
14.4750751527
 10
10.1151379021
 20
14.4682010528
 10
10.1511756722
 20
14.4585394059
 10
10.1866321254
 20
14.4461587261
 10
10.22087844
 20
14.4312645552
 10
10.2538815216
 20
14.413814947
 10
10.2856744645
 20
14.3938518476
 10
10.3157277298
 20
14.3717066378
 10
10.3440123844
 20
14.3473421333
 10
10.3705573613
 20
14.3207955183
 10
10.3949199207
 20
14.2925097253
 10
10.4170627885
 20
14.2624559886
 10
10.4370232387
 20
14.2306630739
 10
10.4544703532
 20
14.1976602112
 10
10.4693623529
 20
14.1634135049
 10
10.4817410168
 20
14.1279568507
 10
10.4914007642
 20
14.0919211654
 10
10.4982730679
 20
14.0555167547
 10
10.502426455
 20
14.0185333129
 10
10.5038609254
 20
13.98097084
  0
LINE
  5
540
100
AcDbEntity
  8
CURVE
100
AcDbLine
 62
250
  6
CONTINUOUS
 10
8.3044591195
 20
12.9069785554
 11
8.0330302245
 21
13.1784071106
  0
LINE
  5
541
100
AcDbEntity
  8
RACCORDO
100
AcDbLine
 62
7
  6
CONTINUOUS
 10
12.3907749301
 20
9.1892339631
 11
12.3016017825
 21
9.2784071106
  0
LINE
  5
542
100
AcDbEntity
  8
ASSI
100
AcDbLine
 62
7
  6
CONTINUOUS
 10
12.3907749301
 20
9.1892339631
 11
12.3016017825
 21
9.2784071106
  0
LWPOLYLINE
  5
543
100
AcDbEntity
  8
RACCORDO
100
AcDbPolyline
 62
250
  6
CONTINUOUS
 90
8
 70
0
 10
12.3985185382
 20
11.9815208158
 10
12.4016927521
 20
11.9723405274
 10
12.4048260413
 20
11.9517154641
 10
12.4079184058
 20
11.919645626
 10
12.4109829784
 20
11.875903815
 10
12.4140066263
 20
11.8207172292
 10
12.4169499518
 20
11.7547674626
 10
12.4198115741
 20
11.6779122747
  0
LWPOLYLINE
  5
544
100
AcDbEntity
  8
ASSI
100
AcDbPolyline
 62
250
  6
CONTINUOUS
 90
8
 70
0
 10
12.3985185382
 20
11.9815208158
 10
12.4016927521
 20
11.9723405274
 10
12.4048260413
 20
11.9517154641
 10
12.4079184058
 20
11.919645626
 10
12.4109829784
 20
11.875903815
 10
12.4140066263
 20
11.8207172292
 10
12.4169499518
 20
11.7547674626
 10
12.4198115741
 20
11.6779122747
  0
LINE
  5
545
100
AcDbEntity
  8
RACCORDO
100
AcDbLine
 62
250
  6
CONTINUOUS
 10
-10.4007791691
 20
15.979752494
 11
10.0039885241
 21
15.979752494
  0
LINE
  5
546
100
AcDbEntity
  8
ASSI
100
AcDbLine
 62
250
  6
CONTINUOUS
 10
-10.4007791691
 20
15.979752494
 11
10.0039885241
 21
15.979752494
  0
LINE
  5
547
100
AcDbEntity
  8
RACCORDO
100
AcDbLine
 62
7
  6
CONTINUOUS
 10
9.5211621038
 20
16.1911051869
 11
-9.9179585388
 21
16.1911051869
  0
LINE
  5
548
100
AcDbEntity
  8
ASSI
100
AcDbLine
 62
7
  6
CONTINUOUS
 10
9.5211621038
 20
16.1911051869
 11
-9.9179585388
 21
16.1911051869
  0
LINE
  5
549
100
AcDbEntity
  8
RACCORDO
100
AcDbLine
 62
7
  6
CONTINUOUS
 10
10.3028201284
 20
16.2784071106
 11
9.8016017825
 21
16.2784071106
  0
LINE
  5
54A
100
AcDbEntity
  8
ASSI
100
AcDbLine
 62
7
  6
CONTINUOUS
 10
10.3028201284
 20
16.2784071106
 11
9.8016017825
 21
16.2784071106
  0
LINE
  5
54B
100
AcDbEntity
  8
RACCORDO
100
AcDbLine
 62
7
  6
CONTINUOUS
 10
-10.1983982175
 20
16.2784071106
 11
-10.6996165635
 21
16.2784071106
  0
LINE
  5
54C
100
AcDbEntity
  8
ASSI
100
AcDbLine
 62
7
  6
CONTINUOUS
 10
-10.1983982175
 20
16.2784071106
 11
-10.6996165635
 21
16.2784071106
  0
LWPOLYLINE
  5
54D
100
AcDbEntity
  8
RACCORDO
100
AcDbPolyline
 62
250
  6
CONTINUOUS
 90
22
 70
0
 10
10.0039886921
 20
15.9797526542
 10
10.153368933
 20
15.9740416087
 10
10.3018909984
 20
15.957188785
 10
10.4487256333
 20
15.9292931567
 10
10.593047321
 20
15.8905174083
 10
10.734057881
 20
15.8410815669
 10
10.8709893025
 20
15.7812570025
 10
11.0030829066
 20
15.7113746066
 10
11.1295952016
 20
15.63182726
 10
11.2498198494
 20
15.5430588959
 10
11.3630854816
 20
15.4455652599
 10
11.4687599277
 20
15.3398908119
 10
11.5662535621
 20
15.2266251778
 10
11.6550219252
 20
15.1064005283
 10
11.734569271
 20
14.9798882316
 10
11.8044516666
 20
14.8477946252
 10
11.8642761526
 20
14.7108633987
 10
11.9137119458
 20
14.5698530436
 10
11.952487821
 20
14.4255309444
 10
11.980383643
 20
14.2786950407
 10
11.9972365192
 20
14.1301710475
 10
12.002947331
 20
13.9807882358
  0
LWPOLYLINE
  5
54E
100
AcDbEntity
  8
ASSI
100
AcDbPolyline
 62
250
  6
CONTINUOUS
 90
22
 70
0
 10
10.0039886921
 20
15.9797526542
 10
10.153368933
 20
15.9740416087
 10
10.3018909984
 20
15.957188785
 10
10.4487256333
 20
15.9292931567
 10
10.593047321
 20
15.8905174083
 10
10.734057881
 20
15.8410815669
 10
10.8709893025
 20
15.7812570025
 10
11.0030829066
 20
15.7113746066
 10
11.1295952016
 20
15.63182726
 10
11.2498198494
 20
15.5430588959
 10
11.3630854816
 20
15.4455652599
 10
11.4687599277
 20
15.3398908119
 10
11.5662535621
 20
15.2266251778
 10
11.6550219252
 20
15.1064005283
 10
11.734569271
 20
14.9798882316
 10
11.8044516666
 20
14.8477946252
 10
11.8642761526
 20
14.7108633987
 10
11.9137119458
 20
14.5698530436
 10
11.952487821
 20
14.4255309444
 10
11.980383643
 20
14.2786950407
 10
11.9972365192
 20
14.1301710475
 10
12.002947331
 20
13.9807882358
  0
LWPOLYLINE
  5
54F
100
AcDbEntity
  8
RACCORDO
100
AcDbPolyline
 62
250
  6
CONTINUOUS
 90
8
 70
0
 10
12.5984850204
 20
12.1814936504
 10
12.6016672704
 20
12.1718301832
 10
12.6048061635
 20
12.1496366578
 10
12.6079016995
 20
12.1150118357
 10
12.610966196
 20
12.0681108189
 10
12.6139873354
 20
12.0091333004
 10
12.6169281657
 20
11.9383128549
 10
12.6197881007
 20
11.855930127
  0
LWPOLYLINE
  5
550
100
AcDbEntity
  8
ASSI
100
AcDbPolyline
 62
250
  6
CONTINUOUS
 90
8
 70
0
 10
12.5984850204
 20
12.1814936504
 10
12.6016672704
 20
12.1718301832
 10
12.6048061635
 20
12.1496366578
 10
12.6079016995
 20
12.1150118357
 10
12.610966196
 20
12.0681108189
 10
12.6139873354
 20
12.0091333004
 10
12.6169281657
 20
11.9383128549
 10
12.6197881007
 20
11.855930127
  0
LINE
  5
551
100
AcDbEntity
  8
RACCORDO
100
AcDbLine
 62
250
  6
CONTINUOUS
 10
12.3016017825
 20
12.0784375716
 11
12.3985185382
 21
11.9815208158
  0
LINE
  5
552
100
AcDbEntity
  8
ASSI
100
AcDbLine
 62
250
  6
CONTINUOUS
 10
12.3016017825
 20
12.0784375716
 11
12.3985185382
 21
11.9815208158
  0
LINE
  5
553
100
AcDbEntity
  8
RACCORDO
100
AcDbLine
 62
250
  6
CONTINUOUS
 10
12.5015713215
 20
12.2784071106
 11
12.5984847758
 21
12.1814936564
  0
LINE
  5
554
100
AcDbEntity
  8
ASSI
100
AcDbLine
 62
250
  6
CONTINUOUS
 10
12.5015713215
 20
12.2784071106
 11
12.5984847758
 21
12.1814936564
  0
ARC
  5
555
100
AcDbEntity
  8
CURVE
100
AcDbCircle
 62
250
  6
CONTINUOUS
 10
-3.2829882175
 20
-1.7216048894
 40
2.5500000352
100
AcDbArc
 50
84.2608296022
 51
275.7391703978
  0
ARC
  5
556
100
AcDbEntity
  8
CURVE
100
AcDbCircle
 62
250
  6
CONTINUOUS
 10
-7.6179882175
 20
-1.7216048894
 40
2.5500000352
100
AcDbArc
 50
84.2608296022
 51
275.7391703978
  0
ARC
  5
557
100
AcDbEntity
  8
CURVE
100
AcDbCircle
 62
250
  6
CONTINUOUS
 10
-3.2829882175
 20
-1.7216048894
 40
1.7850001745
100
AcDbArc
 50
81.7867901066
 51
167.626372977
  0
ARC
  5
558
100
AcDbEntity
  8
CURVE
100
AcDbCircle
 62
250
  6
CONTINUOUS
 10
-7.6179882175
 20
-1.7216048894
 40
1.7850001745
100
AcDbArc
 50
81.7867901066
 51
278.2132098934
  0
ARC
  5
559
100
AcDbEntity
  8
CURVE
100
AcDbCircle
 62
250
  6
CONTINUOUS
 10
-3.2829882175
 20
-1.7216048894
 40
1.7849997292
100
AcDbArc
 50
192.373627023
 51
278.2132098934
  0
CIRCLE
  5
55A
100
AcDbEntity
  8
CURVE
100
AcDbCircle
 62
250
  6
CONTINUOUS
 10
7.8016017825
 20
6.2784071106
 40
1.749939
  0
CIRCLE
  5
55B
100
AcDbEntity
  8
DRAFT
100
AcDbCircle
 62
7
  6
CONTINUOUS
 10
-0.1983982175
 20
-12.2215928894
 40
1.4738174026
  0
CIRCLE
  5
55C
100
AcDbEntity
  8
ASSI
100
AcDbCircle
 62
7
  6
CONTINUOUS
 10
-0.1983982175
 20
-12.2215928894
 40
1.4738174026
  0
ARC
  5
55D
100
AcDbEntity
  8
CURVE
100
AcDbCircle
 62
250
  6
CONTINUOUS
 10
7.8016017825
 20
6.2784071106
 40
1.3105271828
100
AcDbArc
 50
142.1799872659
 51
229.6797780205
  0
ARC
  5
55E
100
AcDbEntity
  8
CURVE
100
AcDbCircle
 62
250
  6
CONTINUOUS
 10
7.8016017825
 20
6.2784071106
 40
1.3105267229
100
AcDbArc
 50
310.3202219795
 51
37.8200127341
  0
ARC
  5
55F
100
AcDbEntity
  8
CURVE
100
AcDbCircle
 62
250
  6
CONTINUOUS
 10
8.2178867825
 20
3.7575691106
 40
0.7708988459
100
AcDbArc
 50
43.6300879521
 51
90.0
  0
CIRCLE
  5
560
100
AcDbEntity
  8
CURVE
100
AcDbCircle
 62
250
  6
CONTINUOUS
 10
2.3015957825
 20
-1.7215988894
 40
0.499999
  0
CIRCLE
  5
561
100
AcDbEntity
  8
CURVE
100
AcDbCircle
 62
250
  6
CONTINUOUS
 10
8.1663017825
 20
-2.2709648894
 40
0.317592
  0
CIRCLE
  5
562
100
AcDbEntity
  8
CURVE
100
AcDbCircle
 62
250
  6
CONTINUOUS
 10
8.5915147825
 20
1.0745891106
 40
0.192582
  0
CIRCLE
  5
563
100
AcDbEntity
  8
CURVE
100
AcDbCircle
 62
250
  6
CONTINUOUS
 10
8.1663017825
 20
-2.2709648894
 40
0.14051
  0
ELLIPSE
  5
564
100
AcDbEntity
  8
RACCORDO
100
AcDbEllipse
 62
7
  6
CONTINUOUS
 10
10.3003826939
 20
-5.7203738008
 30
0.0
 11
-1.4159370892
 21
1.4159370892
 31
0.0
 40
0.998782766
 41
2.3568034778
 42
3.9263818294
  0
ELLIPSE
  5
565
100
AcDbEntity
  8
RACCORDO
100
AcDbEllipse
 62
7
  6
CONTINUOUS
 10
10.3003826939
 20
14.277188022
 30
0.0
 11
-1.4159370892
 21
-1.4159370892
 31
0.0
 40
0.998782766
 41
2.3568034778
 42
3.9263818294
  0
ELLIPSE
  5
566
100
AcDbEntity
  8
RACCORDO
100
AcDbEllipse
 62
7
  6
CONTINUOUS
 10
13.7125809513
 20
-0.1324958942
 30
0.0
 11
0.0
 21
0.5
 31
0.0
 40
0.0174550649
 41
1.5707963268
 42
3.1241393611
  0
ELLIPSE
  5
567
100
AcDbEntity
  8
RACCORDO
100
AcDbEllipse
 62
7
  6
CONTINUOUS
 10
12.3906226136
 20
-0.1324958942
 30
0.0
 11
0.0
 21
0.5
 31
0.0
 40
0.0174550649
 41
-3.1241393611
 42
-1.5707963268
  0
ELLIPSE
  5
568
100
AcDbEntity
  8
RACCORDO
100
AcDbEllipse
 62
7
  6
CONTINUOUS
 10
12.3906226136
 20
8.6893101155
 30
0.0
 11
0.0
 21
0.5
 31
0.0
 40
0.0174550649
 41
-1.5707963268
 42
-0.0174532925
  0
ELLIPSE
  5
569
100
AcDbEntity
  8
RACCORDO
100
AcDbEllipse
 62
7
  6
CONTINUOUS
 10
13.7125809513
 20
8.6893101155
 30
0.0
 11
0.0
 21
0.5
 31
0.0
 40
0.0174550649
 41
0.0174532925
 42
1.5707963268
  0
ELLIPSE
  5
56A
100
AcDbEntity
  8
RACCORDO
100
AcDbEllipse
 62
7
  6
CONTINUOUS
 10
-14.1093773864
 20
8.6893101155
 30
0.0
 11
0.0
 21
0.5
 31
0.0
 40
0.0174550649
 41
-1.5707963268
 42
-0.0174532925
  0
ELLIPSE
  5
56B
100
AcDbEntity
  8
RACCORDO
100
AcDbEllipse
 62
7
  6
CONTINUOUS
 10
-12.7874190487
 20
8.6893101155
 30
0.0
 11
0.0
 21
0.5
 31
0.0
 40
0.0174550649
 41
0.0174532925
 42
1.5707963268
  0
ELLIPSE
  5
56C
100
AcDbEntity
  8
RACCORDO
100
AcDbEllipse
 62
7
  6
CONTINUOUS
 10
-12.7874190487
 20
-0.1324958942
 30
0.0
 11
0.0
 21
0.5
 31
0.0
 40
0.0174550649
 41
-4.7123889804
 42
-3.1590459461
  0
ELLIPSE
  5
56D
100
AcDbEntity
  8
RACCORDO
100
AcDbEllipse
 62
7
  6
CONTINUOUS
 10
-14.1093773864
 20
-0.1324958942
 30
0.0
 11
0.0
 21
0.5
 31
0.0
 40
0.0174550649
 41
-3.1241393611
 42
-1.5707963268
  0
ELLIPSE
  5
56E
100
AcDbEntity
  8
ASSI
100
AcDbEllipse
 62
7
  6
CONTINUOUS
 10
10.3003826939
 20
-5.7203738008
 30
0.0
 11
-1.4159370892
 21
1.4159370892
 31
0.0
 40
0.998782766
 41
2.3568034778
 42
3.9263818294
  0
ELLIPSE
  5
56F
100
AcDbEntity
  8
ASSI
100
AcDbEllipse
 62
7
  6
CONTINUOUS
 10
10.3003826939
 20
14.277188022
 30
0.0
 11
-1.4159370892
 21
-1.4159370892
 31
0.0
 40
0.998782766
 41
2.3568034778
 42
3.9263818294
  0
ELLIPSE
  5
570
100
AcDbEntity
  8
ASSI
100
AcDbEllipse
 62
7
  6
CONTINUOUS
 10
-14.1093773864
 20
-0.1324958942
 30
0.0
 11
0.0
 21
0.5
 31
0.0
 40
0.0174550649
 41
-3.1241393611
 42
-1.5707963268
  0
ELLIPSE
  5
571
100
AcDbEntity
  8
ASSI
100
AcDbEllipse
 62
7
  6
CONTINUOUS
 10
-12.7874190487
 20
-0.1324958942
 30
0.0
 11
0.0
 21
0.5
 31
0.0
 40
0.0174550649
 41
-4.7123889804
 42
-3.1590459461
  0
ELLIPSE
  5
572
100
AcDbEntity
  8
ASSI
100
AcDbEllipse
 62
7
  6
CONTINUOUS
 10
-12.7874190487
 20
8.6893101155
 30
0.0
 11
0.0
 21
0.5
 31
0.0
 40
0.0174550649
 41
0.0174532925
 42
1.5707963268
  0
ELLIPSE
  5
573
100
AcDbEntity
  8
ASSI
100
AcDbEllipse
 62
7
  6
CONTINUOUS
 10
-14.1093773864
 20
8.6893101155
 30
0.0
 11
0.0
 21
0.5
 31
0.0
 40
0.0174550649
 41
-1.5707963268
 42
-0.0174532925
  0
ELLIPSE
  5
574
100
AcDbEntity
  8
ASSI
100
AcDbEllipse
 62
7
  6
CONTINUOUS
 10
13.7125809513
 20
8.6893101155
 30
0.0
 11
0.0
 21
0.5
 31
0.0
 40
0.0174550649
 41
0.0174532925
 42
1.5707963268
  0
ELLIPSE
  5
575
100
AcDbEntity
  8
ASSI
100
AcDbEllipse
 62
7
  6
CONTINUOUS
 10
12.3906226136
 20
8.6893101155
 30
0.0
 11
0.0
 21
0.5
 31
0.0
 40
0.0174550649
 41
-1.5707963268
 42
-0.0174532925
  0
ELLIPSE
  5
576
100
AcDbEntity
  8
ASSI
100
AcDbEllipse
 62
7
  6
CONTINUOUS
 10
12.3906226136
 20
-0.1324958942
 30
0.0
 11
0.0
 21
0.5
 31
0.0
 40
0.0174550649
 41
-3.1241393611
 42
-1.5707963268
  0
ELLIPSE
  5
577
100
AcDbEntity
  8
ASSI
100
AcDbEllipse
 62
7
  6
CONTINUOUS
 10
13.7125809513
 20
-0.1324958942
 30
0.0
 11
0.0
 21
0.5
 31
0.0
 40
0.0174550649
 41
1.5707963268
 42
3.1241393611
  0
ELLIPSE
  5
578
100
AcDbEntity
  8
RACCORDO
100
AcDbEllipse
 62
7
  6
CONTINUOUS
 10
10.3003826939
 20
14.277188022
 30
0.0
 11
1.4159370892
 21
1.4159370892
 31
0.0
 40
0.998782766
 41
-0.7847891758
 42
0.7847891758
  0
ELLIPSE
  5
579
100
AcDbEntity
  8
RACCORDO
100
AcDbEllipse
 62
7
  6
CONTINUOUS
 10
-9.9179585388
 20
16.1980893408
 30
0.0
 11
0.2
 21
0.0
 31
0.0
 40
0.0349207695
 41
-3.1066860685
 42
-1.5707963268
  0
ELLIPSE
  5
57A
100
AcDbEntity
  8
RACCORDO
100
AcDbEllipse
 62
7
  6
CONTINUOUS
 10
-9.9179585388
 20
-7.6412751195
 30
0.0
 11
0.2
 21
0.0
 31
0.0
 40
0.0349207695
 41
1.5707963268
 42
3.1066860685
  0
ELLIPSE
  5
57B
100
AcDbEntity
  8
RACCORDO
100
AcDbEllipse
 62
7
  6
CONTINUOUS
 10
9.5211621038
 20
-7.6412751195
 30
0.0
 11
0.2
 21
0.0
 31
0.0
 40
0.0349207695
 41
0.034906585
 42
1.5707963268
  0
ELLIPSE
  5
57C
100
AcDbEntity
  8
RACCORDO
100
AcDbEllipse
 62
7
  6
CONTINUOUS
 10
9.5211621038
 20
16.1980893408
 30
0.0
 11
0.2
 21
0.0
 31
0.0
 40
0.0349207695
 41
-1.5707963268
 42
-0.034906585
  0
ELLIPSE
  5
57D
100
AcDbEntity
  8
RACCORDO
100
AcDbEllipse
 62
7
  6
CONTINUOUS
 10
10.3003826939
 20
-5.7203738008
 30
0.0
 11
1.4159370892
 21
-1.4159370892
 31
0.0
 40
0.998782766
 41
-0.7847891758
 42
0.7847891758
  0
ELLIPSE
  5
57E
100
AcDbEntity
  8
RACCORDO
100
AcDbEllipse
 62
7
  6
CONTINUOUS
 10
-10.6971791289
 20
-5.7203738008
 30
0.0
 11
1.4159370892
 21
1.4159370892
 31
0.0
 40
0.998782766
 41
-3.9263818294
 42
-2.3568034778
  0
ELLIPSE
  5
57F
100
AcDbEntity
  8
RACCORDO
100
AcDbEllipse
 62
7
  6
CONTINUOUS
 10
-10.6971791289
 20
14.277188022
 30
0.0
 11
1.4159370892
 21
-1.4159370892
 31
0.0
 40
0.998782766
 41
2.3568034778
 42
3.9263818294
  0
ELLIPSE
  5
580
100
AcDbEntity
  8
RACCORDO
100
AcDbEllipse
 62
7
  6
CONTINUOUS
 10
1.5035561532
 20
-14.4235472601
 30
0.0
 11
1.4159370892
 21
-1.4159370892
 31
0.0
 40
0.998782766
 41
-0.7847891758
 42
0.7847891758
  0
ELLIPSE
  5
581
100
AcDbEntity
  8
RACCORDO
100
AcDbEllipse
 62
7
  6
CONTINUOUS
 10
-1.9003525882
 20
-14.4235472601
 30
0.0
 11
1.4159370892
 21
1.4159370892
 31
0.0
 40
0.998782766
 41
-3.9263818294
 42
-2.3568034778
  0
ELLIPSE
  5
582
100
AcDbEntity
  8
RACCORDO
100
AcDbEllipse
 62
7
  6
CONTINUOUS
 10
-3.9015716768
 20
-5.9238520322
 30
0.0
 11
-0.0
 21
1.5
 31
0.0
 40
0.0349207695
 41
-3.1066860685
 42
-2.3961463269
  0
ELLIPSE
  5
583
100
AcDbEntity
  8
RACCORDO
100
AcDbEllipse
 62
7
  6
CONTINUOUS
 10
3.5047752418
 20
-5.9238520322
 30
0.0
 11
-0.0
 21
1.5
 31
0.0
 40
0.0349207695
 41
-3.8870389802
 42
-3.1764992386
  0
ELLIPSE
  5
584
100
AcDbEntity
  8
RACCORDO
100
AcDbEllipse
 62
7
  6
CONTINUOUS
 10
-12.5168102162
 20
8.546636246
 30
0.0
 11
0.0
 21
0.3
 31
0.0
 40
0.0349207695
 41
-1.5707963268
 42
-0.034906585
  0
ELLIPSE
  5
585
100
AcDbEntity
  8
RACCORDO
100
AcDbEllipse
 62
7
  6
CONTINUOUS
 10
12.1200137811
 20
0.0101779753
 30
0.0
 11
0.0
 21
0.3
 31
0.0
 40
0.0349207695
 41
-4.7123889804
 42
-3.1764992386
  0
ELLIPSE
  5
586
100
AcDbEntity
  8
RACCORDO
100
AcDbEllipse
 62
7
  6
CONTINUOUS
 10
12.1200137811
 20
8.546636246
 30
0.0
 11
0.0
 21
0.3
 31
0.0
 40
0.0349207695
 41
0.034906585
 42
1.5707963268
  0
ELLIPSE
  5
587
100
AcDbEntity
  8
RACCORDO
100
AcDbEllipse
 62
7
  6
CONTINUOUS
 10
-12.5168102162
 20
0.0101779753
 30
0.0
 11
0.0
 21
0.3
 31
0.0
 40
0.0349207695
 41
-3.1066860685
 42
-1.5707963268
  0
ELLIPSE
  5
588
100
AcDbEntity
  8
ASSI
100
AcDbEllipse
 62
7
  6
CONTINUOUS
 10
10.3003826939
 20
14.277188022
 30
0.0
 11
1.4159370892
 21
1.4159370892
 31
0.0
 40
0.998782766
 41
-0.7847891758
 42
0.7847891758
  0
ELLIPSE
  5
589
100
AcDbEntity
  8
ASSI
100
AcDbEllipse
 62
7
  6
CONTINUOUS
 10
10.3003826939
 20
-5.7203738008
 30
0.0
 11
1.4159370892
 21
-1.4159370892
 31
0.0
 40
0.998782766
 41
-0.7847891758
 42
0.7847891758
  0
ELLIPSE
  5
58A
100
AcDbEntity
  8
ASSI
100
AcDbEllipse
 62
7
  6
CONTINUOUS
 10
-10.6971791289
 20
-5.7203738008
 30
0.0
 11
1.4159370892
 21
1.4159370892
 31
0.0
 40
0.998782766
 41
-3.9263818294
 42
-2.3568034778
  0
ELLIPSE
  5
58B
100
AcDbEntity
  8
ASSI
100
AcDbEllipse
 62
7
  6
CONTINUOUS
 10
-10.6971791289
 20
14.277188022
 30
0.0
 11
1.4159370892
 21
-1.4159370892
 31
0.0
 40
0.998782766
 41
2.3568034778
 42
3.9263818294
  0
ELLIPSE
  5
58C
100
AcDbEntity
  8
ASSI
100
AcDbEllipse
 62
7
  6
CONTINUOUS
 10
-1.9003525882
 20
-14.4235472601
 30
0.0
 11
1.4159370892
 21
1.4159370892
 31
0.0
 40
0.998782766
 41
-3.9263818294
 42
-2.3568034778
  0
ELLIPSE
  5
58D
100
AcDbEntity
  8
ASSI
100
AcDbEllipse
 62
7
  6
CONTINUOUS
 10
1.5035561532
 20
-14.4235472601
 30
0.0
 11
1.4159370892
 21
-1.4159370892
 31
0.0
 40
0.998782766
 41
-0.7847891758
 42
0.7847891758
  0
ELLIPSE
  5
58E
100
AcDbEntity
  8
ASSI
100
AcDbEllipse
 62
7
  6
CONTINUOUS
 10
-9.9179585388
 20
16.1980893408
 30
0.0
 11
0.2
 21
0.0
 31
0.0
 40
0.0349207695
 41
-3.1066860685
 42
-1.5707963268
  0
ELLIPSE
  5
58F
100
AcDbEntity
  8
ASSI
100
AcDbEllipse
 62
7
  6
CONTINUOUS
 10
-9.9179585388
 20
-7.6412751195
 30
0.0
 11
0.2
 21
0.0
 31
0.0
 40
0.0349207695
 41
1.5707963268
 42
3.1066860685
  0
ELLIPSE
  5
590
100
AcDbEntity
  8
ASSI
100
AcDbEllipse
 62
7
  6
CONTINUOUS
 10
9.5211621038
 20
-7.6412751195
 30
0.0
 11
0.2
 21
0.0
 31
0.0
 40
0.0349207695
 41
0.034906585
 42
1.5707963268
  0
ELLIPSE
  5
591
100
AcDbEntity
  8
ASSI
100
AcDbEllipse
 62
7
  6
CONTINUOUS
 10
9.5211621038
 20
16.1980893408
 30
0.0
 11
0.2
 21
0.0
 31
0.0
 40
0.0349207695
 41
-1.5707963268
 42
-0.034906585
  0
ELLIPSE
  5
592
100
AcDbEntity
  8
ASSI
100
AcDbEllipse
 62
7
  6
CONTINUOUS
 10
12.1200137811
 20
8.546636246
 30
0.0
 11
0.0
 21
0.3
 31
0.0
 40
0.0349207695
 41
0.034906585
 42
1.5707963268
  0
ELLIPSE
  5
593
100
AcDbEntity
  8
ASSI
100
AcDbEllipse
 62
7
  6
CONTINUOUS
 10
12.1200137811
 20
0.0101779753
 30
0.0
 11
0.0
 21
0.3
 31
0.0
 40
0.0349207695
 41
-4.7123889804
 42
-3.1764992386
  0
ELLIPSE
  5
594
100
AcDbEntity
  8
ASSI
100
AcDbEllipse
 62
7
  6
CONTINUOUS
 10
-12.5168102162
 20
0.0101779753
 30
0.0
 11
0.0
 21
0.3
 31
0.0
 40
0.0349207695
 41
-3.1066860685
 42
-1.5707963268
  0
ELLIPSE
  5
595
100
AcDbEntity
  8
ASSI
100
AcDbEllipse
 62
7
  6
CONTINUOUS
 10
-12.5168102162
 20
8.546636246
 30
0.0
 11
0.0
 21
0.3
 31
0.0
 40
0.0349207695
 41
-1.5707963268
 42
-0.034906585
  0
ELLIPSE
  5
596
100
AcDbEntity
  8
ASSI
100
AcDbEllipse
 62
7
  6
CONTINUOUS
 10
-3.9015716768
 20
-5.9238520322
 30
0.0
 11
-0.0
 21
1.5
 31
0.0
 40
0.0349207695
 41
-3.1066860685
 42
-2.3961463269
  0
ELLIPSE
  5
597
100
AcDbEntity
  8
ASSI
100
AcDbEllipse
 62
7
  6
CONTINUOUS
 10
3.5047752418
 20
-5.9238520322
 30
0.0
 11
-0.0
 21
1.5
 31
0.0
 40
0.0349207695
 41
-3.8870389802
 42
-3.1764992386
  0
ENDSEC
  0
SECTION
  2
OBJECTS
  0
DICTIONARY
  5
C
100
AcDbDictionary
280
0
281
1
  3
ACAD_GROUP
350
D
  3
ACAD_MLINESTYLE
350
17
  3
ACAD_LAYOUT
350
1A
  3
ACAD_PLOTSETTINGS
350
19
  3
ACAD_PLOTSTYLENAME
350
E
  0
DICTIONARY
  5
D
102
{ACAD_REACTORS
330
C
102
}
100
AcDbDictionary
280
0
281
1
  0
ACDBDICTIONARYWDFLT
  5
E
102
{ACAD_REACTORS
330
C
102
}
100
AcDbDictionary
281
1
  3
Normal
350
F
100
AcDbDictionaryWithDefault
340
F
  0
DICTIONARY
  5
17
102
{ACAD_REACTORS
330
C
102
}
100
AcDbDictionary
280
0
281
1
  3
Standard
350
18
  0
DICTIONARY
  5
19
102
{ACAD_REACTORS
330
C
102
}
100
AcDbDictionary
281
1
  0
DICTIONARY
  5
1A
102
{ACAD_REACTORS
330
C
102
}
100
AcDbDictionary
281
1
  3
Model
350
598
  3
Layout1
350
599
  0
ACDBPLACEHOLDER
  5
F
102
{ACAD_REACTORS
330
E
102
}
  0
MLINESTYLE
  5
18
102
{ACAD_REACTORS
330
17
102
}
100
AcDbMlineStyle
  2
STANDARD
 70
0
  3

 62
256
 51
90.0
 52
90.0
 71
2
 49
0.5
 62
256
  6
BYLAYER
 49
-0.5
 62
256
  6
BYLAYER
  0
LAYOUT
  5
598
102
{ACAD_REACTORS
330
1A
102
}
100
AcDbPlotSettings
  1

  2
none_device
  4
ISO_A4_(297.00_x_210.00_MM)
  6

 40
0.0
 41
0.0
 42
0.0
 43
0.0
 44
297.0
 45
210.0
 46
0.0
 47
0.0
 48
0.0
 49
0.0
140
0.0
141
0.0
142
1.0
143
1.0
 70
1024
 72
1
 73
0
 74
0
  7

 75
0
147
1.0
148
0.0
149
0.0
100
AcDbLayout
  1
Model
 70
0
 71
0
 10
0.0
 20
0.0
 11
297.0
 21
210.0
 12
0.0
 22
0.0
 32
0.0
 14
0.0
 24
0.0
 34
0.0
 15
0.0
 25
0.0
 35
0.0
146
0.0
 13
0.0
 23
0.0
 33
0.0
 16
1.0
 26
0.0
 36
0.0
 17
0.0
 27
1.0
 37
0.0
 76
0
330
228
345
0
346
0
  0
LAYOUT
  5
599
102
{ACAD_REACTORS
330
1A
102
}
100
AcDbPlotSettings
  1

  2
none_device
  4
ISO_A4_(297.00_x_210.00_MM)
  6

 40
0.0
 41
0.0
 42
0.0
 43
0.0
 44
297.0
 45
210.0
 46
0.0
 47
0.0
 48
0.0
 49
0.0
140
0.0
141
0.0
142
1.0
143
1.0
 70
0
 72
1
 73
0
 74
0
  7

 75
0
147
1.0
148
0.0
149
0.0
100
AcDbLayout
  1
Layout1
 70
0
 71
1
 10
0.0
 20
0.0
 11
297.0
 21
210.0
 12
0.0
 22
0.0
 32
0.0
 14
0.0
 24
0.0
 34
0.0
 15
0.0
 25
0.0
 35
0.0
146
0.0
 13
0.0
 23
0.0
 33
0.0
 16
1.0
 26
0.0
 36
0.0
 17
0.0
 27
1.0
 37
0.0
 76
0
330
229
345
0
346
0
  0
ENDSEC
  0
EOF
