  0
SECTION
  2
HEADER
  9
$ACADVER
  1
AC1024
  9
$DWGCODEPAGE
  3
ANSI_1252
  9
$EXTMAX
 10
420.0
 20
297.0
 30
0.0
  9
$EXTMIN
 10
0.0
 20
-0.0
 30
0.0
  9
$LIMMIN
 10
0.0
 20
-0.0
  9
$LIMMAX
 10
420.0
 20
297.0
  9
$VIEWCTR
 10
210.0
 20
148.5
  9
$VIEWSIZE
 40
297.0
  9
$CLAYER
  8
0
  9
$LTSCALE
 40
23.1
  9
$CELTYPE
  6
BYLAYER
  9
$DIMSCALE
 40
1.0
  9
$DIMASZ
 40
3.0
  9
$DIMEXO
 40
0.5
  9
$DIMDLI
 40
15.96
  9
$DIMEXE
 40
1.5
  9
$DIMCEN
 40
3.78
  9
$DIMLFAC
 40
1.0
  9
$DIMBLK
  1
_FILLED
  9
$DIMALT
 70
0
  9
$DIMALTF
 40
0.0393700787
  9
$DIMTXT
 40
3.0
  9
$DIMTOL
 70
1
  9
$DIMLIM
 70
0
  9
$DIMTFAC
 40
1.0
  9
$DIMTP
 40
0.01
  9
$DIMTM
 40
0.01
  9
$DIMGAP
 40
0.625
  9
$DIMDSEP
 70
44
  9
$AUNITS
 70
0
  9
$PDMODE
 70
3
  9
$PDSIZE
 40
3.0
  9
$HANDSEED
  5
476
  9
$TILEMODE
 70
1
  9
$MEASUREMENT
 70
1
  9
$INSUNITS
 70
4
  0
ENDSEC
  0
SECTION
  2
CLASSES
  0
CLASS
  1
ACDBDICTIONARYWDFLT
  2
AcDbDictionaryWithDefault
  3
AutoCAD 2000
 90
0
 91
1
280
0
281
0
  0
CLASS
  1
ACDBPLACEHOLDER
  2
AcDbPlaceHolder
  3
AutoCAD 2000
 90
0
 91
1
280
0
281
0
  0
CLASS
  1
LAYOUT
  2
AcDbLayout
  3
AutoCAD 2000
 90
0
 91
0
280
0
281
0
  0
ENDSEC
  0
SECTION
  2
TABLES
  0
TABLE
  2
VPORT
  5
8
100
AcDbSymbolTable
 70
2
  0
VPORT
  5
1F4
100
AcDbSymbolTableRecord
100
AcDbViewportTableRecord
  2
*ACTIVE
 70
0
 10
0.0
 20
0.0
 11
1.0
 21
1.0
 12
210.0
 22
148.5
 13
0.0
 23
0.0
 14
1.0
 24
1.0
 15
0.0
 25
0.0
 16
0.0
 26
0.0
 36
1.0
 17
0.0
 27
0.0
 37
0.0
 40
297.0
 41
1.4141414141
 42
50.0
 43
0.0
 44
0.0
 50
0.0
 51
0.0
 71
0
 72
100
 73
1
 74
1
 75
0
 76
0
 77
0
 78
0
  0
ENDTAB
  0
TABLE
  2
LTYPE
  5
5
100
AcDbSymbolTable
 70
6
  0
LTYPE
  5
14
100
AcDbSymbolTableRecord
100
AcDbLinetypeTableRecord
  2
BYBLOCK
 70
0
  3

 72
65
 73
0
 40
0.0
  0
LTYPE
  5
15
100
AcDbSymbolTableRecord
100
AcDbLinetypeTableRecord
  2
BYLAYER
 70
0
  3

 72
65
 73
0
 40
0.0
  0
LTYPE
  5
16
100
AcDbSymbolTableRecord
100
AcDbLinetypeTableRecord
  2
CONTINUOUS
 70
64
  3
Solid line
 72
65
 73
0
 40
0.0
  0
LTYPE
  5
1F5
100
AcDbSymbolTableRecord
100
AcDbLinetypeTableRecord
  2
CENTER
 70
64
  3
____ _ ____ _ ____ _ ____ _ ____ _ ____ _ ____
 72
65
 73
4
 40
0.6
 49
0.375
 74
0
 49
-0.075
 74
0
 49
0.075
 74
0
 49
-0.075
 74
0
  0
LTYPE
  5
1F6
100
AcDbSymbolTableRecord
100
AcDbLinetypeTableRecord
  2
HIDDEN
 70
64
  3
- - - - - - - - - - - - - - - - - - - -
 72
65
 73
2
 40
0.2
 49
0.1
 74
0
 49
-0.1
 74
0
  0
LTYPE
  5
1F7
100
AcDbSymbolTableRecord
100
AcDbLinetypeTableRecord
  2
PHANTOM
 70
64
  3
_____ _ _ _____ _ _ _____ _ _ _____
 72
65
 73
6
 40
0.8
 49
0.45
 74
0
 49
-0.05
 74
0
 49
0.1
 74
0
 49
-0.05
 74
0
 49
0.1
 74
0
 49
-0.05
 74
0
  0
LTYPE
  5
1F8
100
AcDbSymbolTableRecord
100
AcDbLinetypeTableRecord
  2
DOT
 70
64
  3
. . . . . . . . . . . . . . . . . . . .
 72
65
 73
2
 40
0.2
 49
0.1
 74
0
 49
-0.1
 74
0
  0
LTYPE
  5
1F9
100
AcDbSymbolTableRecord
100
AcDbLinetypeTableRecord
  2
DASHED
 70
64
  3
- - - - - - - - - - - - - - - - - - - -
 72
65
 73
2
 40
0.2
 49
0.1
 74
0
 49
-0.1
 74
0
  0
ENDTAB
  0
TABLE
  2
LAYER
  5
2
100
AcDbSymbolTable
 70
36
  0
LAYER
  5
10
100
AcDbSymbolTableRecord
100
AcDbLayerTableRecord
  2
0
 70
0
 62
7
  6
CONTINUOUS
370
-3
390
F
  0
LAYER
  5
1FA
100
AcDbSymbolTableRecord
100
AcDbLayerTableRecord
  2
DEFAULT_1
 70
0
 62
7
  6
CENTER
370
-3
390
F
  0
LAYER
  5
1FB
100
AcDbSymbolTableRecord
100
AcDbLayerTableRecord
  2
DEFAULT_2
 70
0
 62
7
  6
HIDDEN
370
-3
390
F
  0
LAYER
  5
1FC
100
AcDbSymbolTableRecord
100
AcDbLayerTableRecord
  2
DEFAULT_3
 70
0
 62
7
  6
PHANTOM
370
-3
390
F
  0
LAYER
  5
1FD
100
AcDbSymbolTableRecord
100
AcDbLayerTableRecord
  2
06___PRT_ALL_SURFS_2
 70
0
 62
7
  6
CONTINUOUS
370
-3
390
F
  0
LAYER
  5
1FE
100
AcDbSymbolTableRecord
100
AcDbLayerTableRecord
  2
06___PRT_ALL_SURFS_3
 70
0
 62
7
  6
CONTINUOUS
370
-3
390
F
  0
LAYER
  5
1FF
100
AcDbSymbolTableRecord
100
AcDbLayerTableRecord
  2
06___PRT_ALL_SURFS_4
 70
0
 62
7
  6
CONTINUOUS
370
-3
390
F
  0
LAYER
  5
200
100
AcDbSymbolTableRecord
100
AcDbLayerTableRecord
  2
0805_C_REF_145000
 70
0
 62
7
  6
CONTINUOUS
370
-3
390
F
  0
LAYER
  5
201
100
AcDbSymbolTableRecord
100
AcDbLayerTableRecord
  2
1206_R_REF_65000
 70
0
 62
7
  6
CONTINUOUS
370
-3
390
F
  0
LAYER
  5
202
100
AcDbSymbolTableRecord
100
AcDbLayerTableRecord
  2
43001104A0
 70
0
 62
7
  6
CONTINUOUS
370
-3
390
F
  0
LAYER
  5
203
100
AcDbSymbolTableRecord
100
AcDbLayerTableRecord
  2
ASSI
 70
0
 62
7
  6
CONTINUOUS
370
-3
390
F
  0
LAYER
  5
204
100
AcDbSymbolTableRecord
100
AcDbLayerTableRecord
  2
CAP-E-6_3-11-2_5_1120000
 70
0
 62
7
  6
CONTINUOUS
370
-3
390
F
  0
LAYER
  5
205
100
AcDbSymbolTableRecord
100
AcDbLayerTableRecord
  2
CN_M_THT_P5_R1_P2_SET_1750000
 70
0
 62
7
  6
CONTINUOUS
370
-3
390
F
  0
LAYER
  5
206
100
AcDbSymbolTableRecord
100
AcDbLayerTableRecord
  2
CN_M_THT_P5_R1_P2_SET_1750000_1
 70
0
 62
7
  6
CONTINUOUS
370
-3
390
F
  0
LAYER
  5
207
100
AcDbSymbolTableRecord
100
AcDbLayerTableRecord
  2
COORDINATE
 70
0
 62
7
  6
CONTINUOUS
370
-3
390
F
  0
LAYER
  5
208
100
AcDbSymbolTableRecord
100
AcDbLayerTableRecord
  2
COPY_PUBLISH
 70
0
 62
7
  6
CONTINUOUS
370
-3
390
F
  0
LAYER
  5
209
100
AcDbSymbolTableRecord
100
AcDbLayerTableRecord
  2
COSMETIC
 70
0
 62
7
  6
CONTINUOUS
370
-3
390
F
  0
LAYER
  5
20A
100
AcDbSymbolTableRecord
100
AcDbLayerTableRecord
  2
COSMETICI
 70
0
 62
7
  6
CONTINUOUS
370
-3
390
F
  0
LAYER
  5
20B
100
AcDbSymbolTableRecord
100
AcDbLayerTableRecord
  2
CURVE
 70
0
 62
7
  6
CONTINUOUS
370
-3
390
F
  0
LAYER
  5
20C
100
AcDbSymbolTableRecord
100
AcDbLayerTableRecord
  2
DRAFT
 70
0
 62
7
  6
CONTINUOUS
370
-3
390
F
  0
LAYER
  5
20D
100
AcDbSymbolTableRecord
100
AcDbLayerTableRecord
  2
GEOMETRIA_SOLIDA
 70
0
 62
7
  6
CONTINUOUS
370
-3
390
F
  0
LAYER
  5
20E
100
AcDbSymbolTableRecord
100
AcDbLayerTableRecord
  2
IMPORT_IGES
 70
0
 62
7
  6
CONTINUOUS
370
-3
390
F
  0
LAYER
  5
20F
100
AcDbSymbolTableRecord
100
AcDbLayerTableRecord
  2
NOTE
 70
0
 62
7
  6
CONTINUOUS
370
-3
390
F
  0
LAYER
  5
210
100
AcDbSymbolTableRecord
100
AcDbLayerTableRecord
  2
PIANI
 70
0
 62
7
  6
CONTINUOUS
370
-3
390
F
  0
LAYER
  5
211
100
AcDbSymbolTableRecord
100
AcDbLayerTableRecord
  2
PUNTI
 70
0
 62
7
  6
CONTINUOUS
370
-3
390
F
  0
LAYER
  5
212
100
AcDbSymbolTableRecord
100
AcDbLayerTableRecord
  2
RACCORDO
 70
0
 62
7
  6
CONTINUOUS
370
-3
390
F
  0
LAYER
  5
213
100
AcDbSymbolTableRecord
100
AcDbLayerTableRecord
  2
SIMBOLI
 70
0
 62
7
  6
CONTINUOUS
370
-3
390
F
  0
LAYER
  5
214
100
AcDbSymbolTableRecord
100
AcDbLayerTableRecord
  2
SMUSSO
 70
0
 62
7
  6
CONTINUOUS
370
-3
390
F
  0
LAYER
  5
215
100
AcDbSymbolTableRecord
100
AcDbLayerTableRecord
  2
SUB_SMA_143000
 70
0
 62
7
  6
CONTINUOUS
370
-3
390
F
  0
LAYER
  5
216
100
AcDbSymbolTableRecord
100
AcDbLayerTableRecord
  2
SUB_SMA_143000_1
 70
0
 62
7
  6
CONTINUOUS
370
-3
390
F
  0
LAYER
  5
217
100
AcDbSymbolTableRecord
100
AcDbLayerTableRecord
  2
SUPERFICI
 70
0
 62
7
  6
CONTINUOUS
370
-3
390
F
  0
LAYER
  5
218
100
AcDbSymbolTableRecord
100
AcDbLayerTableRecord
  2
TRASH
 70
0
 62
7
  6
CONTINUOUS
370
-3
390
F
  0
LAYER
  5
219
100
AcDbSymbolTableRecord
100
AcDbLayerTableRecord
  2
VG_DIP6_SMD_510000
 70
0
 62
7
  6
CONTINUOUS
370
-3
390
F
  0
LAYER
  5
21A
100
AcDbSymbolTableRecord
100
AcDbLayerTableRecord
  2
VG_K_5A_48V_SPDT_1000000
 70
0
 62
7
  6
CONTINUOUS
370
-3
390
F
  0
LAYER
  5
21B
100
AcDbSymbolTableRecord
100
AcDbLayerTableRecord
  2
VG_RES-RAD-5_0-15_0-5_0-0_7_200
 70
0
 62
7
  6
CONTINUOUS
370
-3
390
F
  0
LAYER
  5
21C
100
AcDbSymbolTableRecord
100
AcDbLayerTableRecord
  2
VG_RES-RAD-5_0-15_0-5_0-0_7_2_1
 70
0
 62
7
  6
CONTINUOUS
370
-3
390
F
  0
LAYER
  5
21D
100
AcDbSymbolTableRecord
100
AcDbLayerTableRecord
  2
VG_RES-RAD-5_0-15_0-5_0-0_7_2_2
 70
0
 62
7
  6
CONTINUOUS
370
-3
390
F
  0
LAYER
  5
21E
100
AcDbSymbolTableRecord
100
AcDbLayerTableRecord
  2
VG_RES-RAD-5_0-15_0-5_0-0_7_2_3
 70
0
 62
7
  6
CONTINUOUS
370
-3
390
F
  0
LAYER
  5
21F
100
AcDbSymbolTableRecord
100
AcDbLayerTableRecord
  2
VG_RES-RAD-5_0-15_0-5_0-0_7_2_4
 70
0
 62
7
  6
CONTINUOUS
370
-3
390
F
  0
LAYER
  5
220
100
AcDbSymbolTableRecord
100
AcDbLayerTableRecord
  2
VG_VAR_S05_D7_S4_3_H8_5_850000
 70
0
 62
7
  6
CONTINUOUS
370
-3
390
F
  0
LAYER
  5
221
100
AcDbSymbolTableRecord
100
AcDbLayerTableRecord
  2
VG_VAR_S05_D7_S4_3_H8_5_85000_1
 70
0
 62
7
  6
CONTINUOUS
370
-3
390
F
  0
LAYER
  5
222
100
AcDbSymbolTableRecord
100
AcDbLayerTableRecord
  2
___SHELL
 70
0
 62
7
  6
CONTINUOUS
370
-3
390
F
  0
ENDTAB
  0
TABLE
  2
STYLE
  5
3
100
AcDbSymbolTable
 70
1
  0
STYLE
  5
11
100
AcDbSymbolTableRecord
100
AcDbTextStyleTableRecord
  2
STANDARD
 70
0
 40
0.0
 41
0.8
 50
0.0
 71
0
 42
0.2
  3
txt
  4

  0
STYLE
  5
223
100
AcDbSymbolTableRecord
100
AcDbTextStyleTableRecord
  2
TEXTSTYLE_1
 70
0
 40
0.0
 41
0.8
 50
0.0
 71
0
 42
0.2
  3
gdt
  4

  0
ENDTAB
  0
TABLE
  2
VIEW
  5
6
100
AcDbSymbolTable
 70
0
  0
ENDTAB
  0
TABLE
  2
UCS
  5
7
100
AcDbSymbolTable
 70
0
  0
ENDTAB
  0
TABLE
  2
APPID
  5
9
100
AcDbSymbolTable
 70
1
  0
APPID
  5
224
100
AcDbSymbolTableRecord
100
AcDbRegAppTableRecord
  2
ACAD
 70
0
  0
ENDTAB
  0
TABLE
  2
BLOCK_RECORD
  5
1
100
AcDbSymbolTable
 70
0
  0
BLOCK_RECORD
  5
225
100
AcDbSymbolTableRecord
100
AcDbBlockTableRecord
  2
*Model_Space
  0
BLOCK_RECORD
  5
226
100
AcDbSymbolTableRecord
100
AcDbBlockTableRecord
  2
*Paper_Space
  0
BLOCK_RECORD
  5
227
100
AcDbSymbolTableRecord
100
AcDbBlockTableRecord
  2
_FILLED
  0
ENDTAB
  0
TABLE
  2
DIMSTYLE
  5
A
100
AcDbSymbolTable
 70
1
100
AcDbDimStyleTable
 71
0
  0
DIMSTYLE
105
228
100
AcDbSymbolTableRecord
100
AcDbDimStyleTableRecord
  2
STANDARD
 70
0
  3

  4

 40
1.0
 41
3.0
 42
0.5
 43
0.38
 44
1.5
 45
0.0
 46
0.0
 47
0.01
 48
0.01
140
3.0
141
0.0
142
0.0
143
25.4
144
1.0
145
0.0
146
1.0
147
0.625
 71
1
 72
0
 73
0
 74
0
 75
0
 76
0
 77
1
 78
8
 79
2
170
0
171
1
172
0
173
0
174
0
175
0
176
0
177
0
178
0
270
2
179
2
271
2
272
2
273
2
274
2
275
0
280
0
281
0
282
0
283
1
284
8
285
0
286
0
287
3
288
0
340
11
278
44
341
227
342
227
343
227
344
227
  0
ENDTAB
  0
ENDSEC
  0
SECTION
  2
BLOCKS
  0
BLOCK
  5
20
100
AcDbEntity
  8
0
100
AcDbBlockBegin
  2
*Model_Space
 70
0
 10
0.0
 20
0.0
 30
0.0
  3
*Model_Space
  1

  0
ENDBLK
  5
21
100
AcDbEntity
  8
0
100
AcDbBlockEnd
  0
BLOCK
  5
1C
100
AcDbEntity
  8
0
100
AcDbBlockBegin
  2
*Paper_Space
 70
0
 10
0.0
 20
0.0
 30
0.0
  3
*Paper_Space
  1

  0
ENDBLK
  5
1D
100
AcDbEntity
  8
0
100
AcDbBlockEnd
  0
BLOCK
  5
229
100
AcDbEntity
  8
0
100
AcDbBlockBegin
  2
_FILLED
 70
64
 10
0.0
 20
0.0
 30
0.0
  3
_FILLED
  1

  0
SOLID
  5
22A
100
AcDbEntity
  8
0
  6
BYBLOCK
 62
0
100
AcDbTrace
 10
0.0
 20
0.0
 30
0.0
 11
-1.0
 21
0.3166666667
 31
0.0
 12
-1.0
 22
-0.3166666667
 32
0.0
 13
-1.0
 23
-0.3166666667
 33
0.0
  0
ENDBLK
  5
22B
100
AcDbEntity
  8
0
  6
BYBLOCK
 62
0
100
AcDbBlockEnd
  0
ENDSEC
  0
SECTION
  2
ENTITIES
  0
LINE
  5
22C
100
AcDbEntity
  8
RACCORDO
100
AcDbLine
 62
250
  6
CONTINUOUS
 10
-19.3783835581
 20
-24.0590976181
 30
0.0
 11
-19.5515622589
 21
-23.9591128486
 31
0.0
  0
LINE
  5
22D
100
AcDbEntity
  8
RACCORDO
100
AcDbLine
 62
250
  6
CONTINUOUS
 10
-17.1739975961
 20
-24.2590671571
 30
0.0
 11
-17.0378443264
 21
-24.337675284
 31
0.0
  0
LINE
  5
22E
100
AcDbEntity
  8
RACCORDO
100
AcDbLine
 62
250
  6
CONTINUOUS
 10
-17.0008188929
 20
-23.95911285
 30
0.0
 11
-16.8646656257
 21
-24.0377209755
 31
0.0
  0
LINE
  5
22F
100
AcDbEntity
  8
RACCORDO
100
AcDbLine
 62
250
  6
CONTINUOUS
 10
-18.8353964914
 20
-22.7186773401
 30
0.0
 11
-18.6622171124
 21
-22.8186619031
 31
0.0
  0
LINE
  5
230
100
AcDbEntity
  8
RACCORDO
100
AcDbLine
 62
250
  6
CONTINUOUS
 10
-17.3375322847
 20
-23.3313170273
 30
0.0
 11
-17.2399960606
 21
-23.3876295926
 31
0.0
  0
LINE
  5
231
100
AcDbEntity
  8
RACCORDO
100
AcDbLine
 62
250
  6
CONTINUOUS
 10
-17.1643507612
 20
-23.0313643485
 30
0.0
 11
-17.0668173598
 21
-23.087675284
 31
0.0
  0
LINE
  5
232
100
AcDbEntity
  8
SMUSSO
100
AcDbLine
 62
7
  6
CONTINUOUS
 10
-11.5261448926
 20
-25.7412804473
 30
0.0
 11
-11.6229865383
 21
-25.6444388016
 31
0.0
  0
LINE
  5
233
100
AcDbEntity
  8
RACCORDO
100
AcDbLine
 62
250
  6
CONTINUOUS
 10
-17.890161461
 20
-22.8186653244
 30
0.0
 11
-17.1739975432
 21
-24.0590976181
 31
0.0
  0
LINE
  5
234
100
AcDbEntity
  8
RACCORDO
100
AcDbLine
 62
250
  6
CONTINUOUS
 10
-17.7169829395
 20
-22.7186803346
 30
0.0
 11
-17.0008188929
 21
-23.95911285
 31
0.0
  0
LINE
  5
235
100
AcDbEntity
  8
RACCORDO
100
AcDbLine
 62
250
  6
CONTINUOUS
 10
-17.2399960606
 20
-23.3876295926
 30
0.0
 11
-16.8646656257
 21
-24.0377209755
 31
0.0
  0
LINE
  5
236
100
AcDbEntity
  8
RACCORDO
100
AcDbLine
 62
250
  6
CONTINUOUS
 10
-17.0668173598
 20
-23.2876448231
 30
0.0
 11
-16.6914869249
 21
-23.937736206
 31
0.0
  0
LINE
  5
237
100
AcDbEntity
  8
RACCORDO
100
AcDbLine
 62
7
  6
CONTINUOUS
 10
-25.2761905771
 20
-11.1111311679
 30
0.0
 11
-25.2761905771
 21
-8.311100707
 31
0.0
  0
LINE
  5
238
100
AcDbEntity
  8
RACCORDO
100
AcDbLine
 62
7
  6
CONTINUOUS
 10
-25.2761905771
 20
1.688899293
 30
0.0
 11
-25.2761905771
 21
4.488929754
 31
0.0
  0
LINE
  5
239
100
AcDbEntity
  8
RACCORDO
100
AcDbLine
 62
7
  6
CONTINUOUS
 10
-25.18018772
 20
-7.7237492183
 30
0.0
 11
-25.18018772
 21
1.1015478044
 31
0.0
  0
LINE
  5
23A
100
AcDbEntity
  8
RACCORDO
100
AcDbLine
 62
250
  6
CONTINUOUS
 10
-25.1312526116
 20
-8.2146408657
 30
0.0
 11
-25.1312526116
 21
1.5924394518
 31
0.0
  0
LINE
  5
23B
100
AcDbEntity
  8
RACCORDO
100
AcDbLine
 62
250
  6
CONTINUOUS
 10
-24.9312830726
 20
-8.2146408657
 30
0.0
 11
-24.9312830726
 21
1.5924394518
 31
0.0
  0
LINE
  5
23C
100
AcDbEntity
  8
RACCORDO
100
AcDbLine
 62
250
  6
CONTINUOUS
 10
-24.1210980816
 20
-8.2146408657
 30
0.0
 11
-24.1210980816
 21
1.5924394518
 31
0.0
  0
LINE
  5
23D
100
AcDbEntity
  8
RACCORDO
100
AcDbLine
 62
250
  6
CONTINUOUS
 10
-23.9211285426
 20
-8.2146408657
 30
0.0
 11
-23.9211285426
 21
1.5924394518
 31
0.0
  0
LINE
  5
23E
100
AcDbEntity
  8
RACCORDO
100
AcDbLine
 62
7
  6
CONTINUOUS
 10
-23.8721934342
 20
-7.7237492183
 30
0.0
 11
-23.8721934342
 21
1.1015478044
 31
0.0
  0
LINE
  5
23F
100
AcDbEntity
  8
DRAFT
100
AcDbLine
 62
7
  6
CONTINUOUS
 10
-23.7761905771
 20
1.688899293
 30
0.0
 11
-23.7761905771
 21
1.4499675072
 31
0.0
  0
LINE
  5
240
100
AcDbEntity
  8
DRAFT
100
AcDbLine
 62
7
  6
CONTINUOUS
 10
-23.7761905771
 20
-8.0721689212
 30
0.0
 11
-23.7761905771
 21
-8.311100707
 31
0.0
  0
LINE
  5
241
100
AcDbEntity
  8
RACCORDO
100
AcDbLine
 62
7
  6
CONTINUOUS
 10
-23.7761905771
 20
-21.3114053167
 30
0.0
 11
-23.7761905771
 21
-8.199343493
 31
0.0
  0
LINE
  5
242
100
AcDbEntity
  8
RACCORDO
100
AcDbLine
 62
7
  6
CONTINUOUS
 10
-23.7761905771
 20
1.5771420791
 30
0.0
 11
-23.7761905771
 21
14.6892039027
 31
0.0
  0
LINE
  5
243
100
AcDbEntity
  8
RACCORDO
100
AcDbLine
 62
250
  6
CONTINUOUS
 10
-19.5515622589
 20
17.3369114346
 30
0.0
 11
-19.3783835581
 21
17.4368962042
 31
0.0
  0
LINE
  5
244
100
AcDbEntity
  8
RACCORDO
100
AcDbLine
 62
250
  6
CONTINUOUS
 10
-17.1739975961
 20
17.6368657432
 30
0.0
 11
-17.0136568539
 21
17.7294385139
 31
0.0
  0
LINE
  5
245
100
AcDbEntity
  8
DRAFT
100
AcDbLine
 62
7
  6
CONTINUOUS
 10
-20.2827991831
 20
16.7412644878
 30
0.0
 11
-20.5272445695
 21
16.6190790333
 31
0.0
  0
LINE
  5
246
100
AcDbEntity
  8
RACCORDO
100
AcDbLine
 62
7
  6
CONTINUOUS
 10
13.9238855753
 20
-25.7412804473
 30
0.0
 11
13.4738551074
 21
-25.7412804473
 31
0.0
  0
LINE
  5
247
100
AcDbEntity
  8
SMUSSO
100
AcDbLine
 62
7
  6
CONTINUOUS
 10
8.9737637384
 20
-25.7412804473
 30
0.0
 11
8.4738551074
 21
-25.7412804473
 31
0.0
  0
LINE
  5
248
100
AcDbEntity
  8
SMUSSO
100
AcDbLine
 62
7
  6
CONTINUOUS
 10
3.9737637384
 20
-25.7412804473
 30
0.0
 11
3.4738551074
 21
-25.7412804473
 31
0.0
  0
LINE
  5
249
100
AcDbEntity
  8
SMUSSO
100
AcDbLine
 62
7
  6
CONTINUOUS
 10
-1.0262362616
 20
-25.7412804473
 30
0.0
 11
-1.5261448926
 21
-25.7412804473
 31
0.0
  0
LINE
  5
24A
100
AcDbEntity
  8
SMUSSO
100
AcDbLine
 62
7
  6
CONTINUOUS
 10
-6.0262362616
 20
-25.7412804473
 30
0.0
 11
-6.5261448926
 21
-25.7412804473
 31
0.0
  0
LINE
  5
24B
100
AcDbEntity
  8
SMUSSO
100
AcDbLine
 62
7
  6
CONTINUOUS
 10
-11.0262362616
 20
-25.7412804473
 30
0.0
 11
-11.5261448926
 21
-25.7412804473
 31
0.0
  0
LINE
  5
24C
100
AcDbEntity
  8
RACCORDO
100
AcDbLine
 62
7
  6
CONTINUOUS
 10
-21.0262362616
 20
-25.7412804473
 30
0.0
 11
-21.4762667295
 21
-25.7412804473
 31
0.0
  0
LINE
  5
24D
100
AcDbEntity
  8
SMUSSO
100
AcDbLine
 62
7
  6
CONTINUOUS
 10
-13.7761905771
 20
-25.6075047968
 30
0.0
 11
-18.7761905771
 21
-25.6075047968
 31
0.0
  0
LINE
  5
24E
100
AcDbEntity
  8
RACCORDO
100
AcDbLine
 62
250
  6
CONTINUOUS
 10
-18.7761905771
 20
-25.5996805865
 30
0.0
 11
-13.7761905771
 21
-25.5996805865
 31
0.0
  0
LINE
  5
24F
100
AcDbEntity
  8
RACCORDO
100
AcDbLine
 62
250
  6
CONTINUOUS
 10
-18.7761905771
 20
-25.0997567389
 30
0.0
 11
-13.7761905771
 21
-25.0997567389
 31
0.0
  0
LINE
  5
250
100
AcDbEntity
  8
RACCORDO
100
AcDbLine
 62
250
  6
CONTINUOUS
 10
-17.0378443264
 20
-24.5376448231
 30
0.0
 11
-18.7761905771
 21
-24.5376448231
 31
0.0
  0
LINE
  5
251
100
AcDbEntity
  8
RACCORDO
100
AcDbLine
 62
250
  6
CONTINUOUS
 10
-17.0378443264
 20
-24.337675284
 30
0.0
 11
-18.7761905771
 21
-24.337675284
 31
0.0
  0
LINE
  5
252
100
AcDbEntity
  8
RACCORDO
100
AcDbLine
 62
250
  6
CONTINUOUS
 10
-19.3783835581
 20
-24.2590671571
 30
0.0
 11
-17.1739975961
 21
-24.2590671571
 31
0.0
  0
LINE
  5
253
100
AcDbEntity
  8
RACCORDO
100
AcDbLine
 62
250
  6
CONTINUOUS
 10
-19.378383015
 20
-24.0590976181
 30
0.0
 11
-17.1739975432
 21
-24.0590976181
 31
0.0
  0
LINE
  5
254
100
AcDbEntity
  8
RACCORDO
100
AcDbLine
 62
250
  6
CONTINUOUS
 10
-23.9761601162
 20
-11.311100707
 30
0.0
 11
-24.0730765143
 21
-11.2141843088
 31
0.0
  0
LINE
  5
255
100
AcDbEntity
  8
RACCORDO
100
AcDbLine
 62
250
  6
CONTINUOUS
 10
-23.7761905771
 20
-11.1111311679
 30
0.0
 11
-23.8731073329
 21
-11.0142144122
 31
0.0
  0
LINE
  5
256
100
AcDbEntity
  8
RACCORDO
100
AcDbLine
 62
7
  6
CONTINUOUS
 10
-23.68018772
 20
1.004209923
 30
0.0
 11
-23.68018772
 21
-7.626411337
 31
0.0
  0
LINE
  5
257
100
AcDbEntity
  8
RACCORDO
100
AcDbLine
 62
250
  6
CONTINUOUS
 10
-23.4964525889
 20
-21.0315383139
 30
0.0
 11
-23.4964525889
 21
14.4094659145
 31
0.0
  0
LINE
  5
258
100
AcDbEntity
  8
RACCORDO
100
AcDbLine
 62
7
  6
CONTINUOUS
 10
-22.1695402458
 20
2.7409314704
 30
0.0
 11
-22.1695402458
 21
-1.3631328843
 31
0.0
  0
LINE
  5
259
100
AcDbEntity
  8
0
100
AcDbLine
 62
7
  6
CONTINUOUS
 10
-22.070220811
 20
2.5422320612
 30
0.0
 11
-22.070220811
 21
-1.1644334751
 31
0.0
  0
LINE
  5
25A
100
AcDbEntity
  8
RACCORDO
100
AcDbLine
 62
250
  6
CONTINUOUS
 10
-21.9966810462
 20
14.4094659145
 30
0.0
 11
-21.9966810462
 21
2.7412804473
 31
0.0
  0
LINE
  5
25B
100
AcDbEntity
  8
RACCORDO
100
AcDbLine
 62
250
  6
CONTINUOUS
 10
-21.9966810462
 20
-1.3634818612
 30
0.0
 11
-21.9966810462
 21
-21.0316673285
 31
0.0
  0
LINE
  5
25C
100
AcDbEntity
  8
RACCORDO
100
AcDbLine
 62
7
  6
CONTINUOUS
 10
-21.9761905771
 20
-25.2413565997
 30
0.0
 11
-21.9761905771
 21
-23.3905761848
 31
0.0
  0
LINE
  5
25D
100
AcDbEntity
  8
RACCORDO
100
AcDbLine
 62
250
  6
CONTINUOUS
 10
-21.8792422844
 20
-25.144408307
 30
0.0
 11
-21.8792422844
 21
-23.2936278921
 31
0.0
  0
LINE
  5
25E
100
AcDbEntity
  8
0
100
AcDbLine
 62
250
  6
CONTINUOUS
 10
-21.680111556
 20
-1.3099923255
 30
0.0
 11
-21.680111556
 21
-1.1262686327
 31
0.0
  0
LINE
  5
25F
100
AcDbEntity
  8
0
100
AcDbLine
 62
250
  6
CONTINUOUS
 10
-21.680111556
 20
2.5040672188
 30
0.0
 11
-21.680111556
 21
2.6877909116
 31
0.0
  0
LINE
  5
260
100
AcDbEntity
  8
RACCORDO
100
AcDbLine
 62
7
  6
CONTINUOUS
 10
-21.5296815901
 20
13.9424664584
 30
0.0
 11
-21.5296815901
 21
2.7412804473
 31
0.0
  0
LINE
  5
261
100
AcDbEntity
  8
RACCORDO
100
AcDbLine
 62
7
  6
CONTINUOUS
 10
-21.5296815901
 20
-1.3634818612
 30
0.0
 11
-21.5296815901
 21
-20.5646678724
 31
0.0
  0
LINE
  5
262
100
AcDbEntity
  8
RACCORDO
100
AcDbLine
 62
7
  6
CONTINUOUS
 10
-21.5261905771
 20
2.2424148131
 30
0.0
 11
-21.5261905771
 21
-0.864616227
 31
0.0
  0
LINE
  5
263
100
AcDbEntity
  8
RACCORDO
100
AcDbLine
 62
250
  6
CONTINUOUS
 10
-21.4967571986
 20
-21.5315911761
 30
0.0
 11
-21.4967571986
 21
-23.0313627188
 31
0.0
  0
LINE
  5
264
100
AcDbEntity
  8
RACCORDO
100
AcDbLine
 62
250
  6
CONTINUOUS
 10
-21.4967571986
 20
14.9093897621
 30
0.0
 11
-21.4967571978
 21
16.4091613048
 31
0.0
  0
LINE
  5
265
100
AcDbEntity
  8
RACCORDO
100
AcDbLine
 62
250
  6
CONTINUOUS
 10
-17.17399814
 20
17.4368962042
 30
0.0
 11
-17.8901640395
 21
16.1964604951
 31
0.0
  0
LINE
  5
266
100
AcDbEntity
  8
RACCORDO
100
AcDbLine
 62
250
  6
CONTINUOUS
 10
-17.0008188847
 20
17.3369114408
 30
0.0
 11
-17.7169840607
 21
16.0964769692
 31
0.0
  0
LINE
  5
267
100
AcDbEntity
  8
RACCORDO
100
AcDbLine
 62
7
  6
CONTINUOUS
 10
-17.215808588
 20
16.7793928224
 30
0.0
 11
-16.8404781531
 21
17.4294842053
 31
0.0
  0
LINE
  5
268
100
AcDbEntity
  8
RACCORDO
100
AcDbLine
 62
250
  6
CONTINUOUS
 10
-17.0008188847
 20
17.3369114408
 30
0.0
 11
-16.8404781531
 21
17.4294842053
 31
0.0
  0
LINE
  5
269
100
AcDbEntity
  8
RACCORDO
100
AcDbLine
 62
250
  6
CONTINUOUS
 10
-18.8353984111
 20
16.0964792609
 30
0.0
 11
-18.6622196932
 21
16.1964639104
 31
0.0
  0
LINE
  5
26A
100
AcDbEntity
  8
RACCORDO
100
AcDbLine
 62
250
  6
CONTINUOUS
 10
-17.3375322847
 20
16.7091156134
 30
0.0
 11
-17.215808588
 21
16.7793928224
 31
0.0
  0
LINE
  5
26B
100
AcDbEntity
  8
RACCORDO
100
AcDbLine
 62
250
  6
CONTINUOUS
 10
-17.1643535839
 20
16.4091613048
 30
0.0
 11
-17.0426298872
 21
16.4794385139
 31
0.0
  0
LINE
  5
26C
100
AcDbEntity
  8
RACCORDO
100
AcDbLine
 62
250
  6
CONTINUOUS
 10
-16.4695819897
 20
17.7468935788
 30
0.0
 11
-16.5045027592
 21
17.7294385139
 31
0.0
  0
LINE
  5
26D
100
AcDbEntity
  8
RACCORDO
100
AcDbLine
 62
250
  6
CONTINUOUS
 10
-16.2695819711
 20
17.5469849478
 30
0.0
 11
-16.3045027406
 21
17.5295298829
 31
0.0
  0
LINE
  5
26E
100
AcDbEntity
  8
DRAFT
100
AcDbLine
 62
7
  6
CONTINUOUS
 10
-16.0251365847
 20
16.6190790333
 30
0.0
 11
-16.3045027406
 21
16.4794385139
 31
0.0
  0
LINE
  5
26F
100
AcDbEntity
  8
RACCORDO
100
AcDbLine
 62
250
  6
CONTINUOUS
 10
-13.7761905771
 20
-23.2876448231
 30
0.0
 11
-17.0668173598
 21
-23.2876448231
 31
0.0
  0
LINE
  5
270
100
AcDbEntity
  8
RACCORDO
100
AcDbLine
 62
250
  6
CONTINUOUS
 10
-13.7761905771
 20
-23.087675284
 30
0.0
 11
-17.0668173598
 21
-23.087675284
 31
0.0
  0
LINE
  5
271
100
AcDbEntity
  8
RACCORDO
100
AcDbLine
 62
250
  6
CONTINUOUS
 10
-21.4967571986
 20
-23.0313627188
 30
0.0
 11
-19.3880275703
 21
-23.0313627188
 31
0.0
  0
LINE
  5
272
100
AcDbEntity
  8
RACCORDO
100
AcDbLine
 62
250
  6
CONTINUOUS
 10
-17.1643507612
 20
-23.0313643485
 30
0.0
 11
13.9442470299
 21
-23.0313627188
 31
0.0
  0
LINE
  5
273
100
AcDbEntity
  8
RACCORDO
100
AcDbLine
 62
250
  6
CONTINUOUS
 10
-21.4967571986
 20
-21.5315911761
 30
0.0
 11
-18.373022069
 21
-21.5315983365
 31
0.0
  0
LINE
  5
274
100
AcDbEntity
  8
RACCORDO
100
AcDbLine
 62
250
  6
CONTINUOUS
 10
-18.1793711384
 20
-21.5315853003
 30
0.0
 11
13.9443760444
 21
-21.5315911761
 31
0.0
  0
LINE
  5
275
100
AcDbEntity
  8
SMUSSO
100
AcDbLine
 62
7
  6
CONTINUOUS
 10
-6.5261448926
 20
-25.7412804473
 30
0.0
 11
-6.6229865383
 21
-25.6444388016
 31
0.0
  0
LINE
  5
276
100
AcDbEntity
  8
RACCORDO
100
AcDbLine
 62
7
  6
CONTINUOUS
 10
-23.8636182182
 20
-8.2236730659
 30
0.0
 11
-23.7761905771
 21
-8.311100707
 31
0.0
  0
LINE
  5
277
100
AcDbEntity
  8
0
100
AcDbLine
 62
7
  6
CONTINUOUS
 10
-23.7761905771
 20
1.5771420791
 30
0.0
 11
-23.7338334989
 21
1.4499675072
 31
0.0
  0
LINE
  5
278
100
AcDbEntity
  8
RACCORDO
100
AcDbLine
 62
7
  6
CONTINUOUS
 10
-23.7338334989
 20
1.4499675072
 30
0.0
 11
-23.6851501812
 21
1.3037987834
 31
0.0
  0
LINE
  5
279
100
AcDbEntity
  8
DRAFT
100
AcDbLine
 62
7
  6
CONTINUOUS
 10
-21.2761905771
 20
16.688899293
 30
0.0
 11
-21.2761905771
 21
16.6190790333
 31
0.0
  0
LINE
  5
27A
100
AcDbEntity
  8
0
100
AcDbLine
 62
250
  6
CONTINUOUS
 10
-21.211515447
 20
16.6190790333
 30
0.0
 11
-21.211515447
 21
16.6242241629
 31
0.0
  0
LINE
  5
27B
100
AcDbEntity
  8
RACCORDO
100
AcDbLine
 62
7
  6
CONTINUOUS
 10
-20.2827991831
 20
16.7412644878
 30
0.0
 11
-20.2827991831
 21
17.5469849478
 31
0.0
  0
LINE
  5
27C
100
AcDbEntity
  8
DRAFT
100
AcDbLine
 62
7
  6
CONTINUOUS
 10
-20.2761905771
 20
2.688899293
 30
0.0
 11
-20.2761905771
 21
-1.311100707
 31
0.0
  0
LINE
  5
27D
100
AcDbEntity
  8
RACCORDO
100
AcDbLine
 62
7
  6
CONTINUOUS
 10
-20.2478784136
 20
17.5295298829
 30
0.0
 11
-20.2478784136
 21
16.4794385139
 31
0.0
  0
LINE
  5
27E
100
AcDbEntity
  8
DRAFT
100
AcDbLine
 62
7
  6
CONTINUOUS
 10
-20.2307935768
 20
2.7342962934
 30
0.0
 11
-20.2307935768
 21
-1.3564977073
 31
0.0
  0
LINE
  5
27F
100
AcDbEntity
  8
RACCORDO
100
AcDbLine
 62
250
  6
CONTINUOUS
 10
-19.3783835581
 20
-24.2590671571
 30
0.0
 11
-19.3783835581
 21
-24.0590976181
 31
0.0
  0
LINE
  5
280
100
AcDbEntity
  8
RACCORDO
100
AcDbLine
 62
250
  6
CONTINUOUS
 10
-19.3783835581
 20
17.4368962042
 30
0.0
 11
-19.3783835581
 21
17.6368657432
 31
0.0
  0
LINE
  5
281
100
AcDbEntity
  8
0
100
AcDbLine
 62
7
  6
CONTINUOUS
 10
-23.7761905771
 20
-8.199343493
 30
0.0
 11
-23.7338334989
 21
-8.0721689212
 31
0.0
  0
LINE
  5
282
100
AcDbEntity
  8
RACCORDO
100
AcDbLine
 62
7
  6
CONTINUOUS
 10
-23.7338334989
 20
-8.0721689212
 30
0.0
 11
-23.6851501812
 21
-7.9260001974
 31
0.0
  0
LINE
  5
283
100
AcDbEntity
  8
RACCORDO
100
AcDbLine
 62
7
  6
CONTINUOUS
 10
-22.070220811
 20
2.5422320612
 30
0.0
 11
-22.0054847543
 21
2.671743634
 31
0.0
  0
LINE
  5
284
100
AcDbEntity
  8
RACCORDO
100
AcDbLine
 62
7
  6
CONTINUOUS
 10
-22.1695402458
 20
-1.3631328843
 30
0.0
 11
-22.070220811
 21
-1.1644334751
 31
0.0
  0
LINE
  5
285
100
AcDbEntity
  8
RACCORDO
100
AcDbLine
 62
250
  6
CONTINUOUS
 10
-24.0730768719
 20
4.5919825373
 30
0.0
 11
-23.9761601162
 21
4.688899293
 31
0.0
  0
LINE
  5
286
100
AcDbEntity
  8
RACCORDO
100
AcDbLine
 62
250
  6
CONTINUOUS
 10
-23.8731073329
 20
4.3920129982
 30
0.0
 11
-23.7761905771
 21
4.488929754
 31
0.0
  0
LINE
  5
287
100
AcDbEntity
  8
RACCORDO
100
AcDbLine
 62
250
  6
CONTINUOUS
 10
-1.908121205
 20
25.7057503191
 30
0.0
 11
-1.8725910769
 21
25.7412804473
 31
0.0
  0
LINE
  5
288
100
AcDbEntity
  8
RACCORDO
100
AcDbLine
 62
7
  6
CONTINUOUS
 10
-21.0297577425
 20
-21.06459172
 30
0.0
 11
13.4773765883
 21
-21.06459172
 31
0.0
  0
LINE
  5
289
100
AcDbEntity
  8
RACCORDO
100
AcDbLine
 62
250
  6
CONTINUOUS
 10
14.444299892
 20
-21.0316673285
 30
0.0
 11
15.9440714347
 21
-21.0316673285
 31
0.0
  0
LINE
  5
28A
100
AcDbEntity
  8
RACCORDO
100
AcDbLine
 62
250
  6
CONTINUOUS
 10
-21.9966810462
 20
-21.0316673285
 30
0.0
 11
-23.4964525889
 21
-21.0316673277
 31
0.0
  0
LINE
  5
28B
100
AcDbEntity
  8
RACCORDO
100
AcDbLine
 62
7
  6
CONTINUOUS
 10
23.2774089231
 20
-20.2134818612
 30
0.0
 11
16.5030904617
 21
-20.2134818612
 31
0.0
  0
LINE
  5
28C
100
AcDbEntity
  8
RACCORDO
100
AcDbLine
 62
250
  6
CONTINUOUS
 10
23.2418787949
 20
-20.1779517331
 30
0.0
 11
15.5464777404
 21
-20.1779517331
 31
0.0
  0
LINE
  5
28D
100
AcDbEntity
  8
RACCORDO
100
AcDbLine
 62
250
  6
CONTINUOUS
 10
23.2418787949
 20
-19.6782563196
 30
0.0
 11
14.444299892
 21
-19.6782563196
 31
0.0
  0
LINE
  5
28E
100
AcDbEntity
  8
SMUSSO
100
AcDbLine
 62
7
  6
CONTINUOUS
 10
-1.5261448926
 20
-25.7412804473
 30
0.0
 11
-1.6229865383
 21
-25.6444388016
 31
0.0
  0
LINE
  5
28F
100
AcDbEntity
  8
RACCORDO
100
AcDbLine
 62
7
  6
CONTINUOUS
 10
-22.070220811
 20
-1.1644334751
 30
0.0
 11
-22.0054847543
 21
-1.293945048
 31
0.0
  0
LINE
  5
290
100
AcDbEntity
  8
RACCORDO
100
AcDbLine
 62
250
  6
CONTINUOUS
 10
-18.7761905771
 20
-25.5996805865
 30
0.0
 11
-18.7761905771
 21
-24.337675284
 31
0.0
  0
LINE
  5
291
100
AcDbEntity
  8
RACCORDO
100
AcDbLine
 62
250
  6
CONTINUOUS
 10
-17.1739975961
 20
17.6368657432
 30
0.0
 11
-17.1739975961
 21
17.4368962042
 31
0.0
  0
LINE
  5
292
100
AcDbEntity
  8
RACCORDO
100
AcDbLine
 62
250
  6
CONTINUOUS
 10
-17.1739975961
 20
-24.0590976181
 30
0.0
 11
-17.1739975961
 21
-24.2590671571
 31
0.0
  0
LINE
  5
293
100
AcDbEntity
  8
RACCORDO
100
AcDbLine
 62
250
  6
CONTINUOUS
 10
-17.0668173598
 20
-23.087675284
 30
0.0
 11
-17.0668173598
 21
-23.2876448231
 31
0.0
  0
LINE
  5
294
100
AcDbEntity
  8
RACCORDO
100
AcDbLine
 62
250
  6
CONTINUOUS
 10
-17.0378443264
 20
-24.337675284
 30
0.0
 11
-17.0378443264
 21
-24.5376448231
 31
0.0
  0
LINE
  5
295
100
AcDbEntity
  8
RACCORDO
100
AcDbLine
 62
7
  6
CONTINUOUS
 10
-23.8636182182
 20
1.6014716519
 30
0.0
 11
-23.7761905771
 21
1.688899293
 31
0.0
  0
LINE
  5
296
100
AcDbEntity
  8
RACCORDO
100
AcDbLine
 62
250
  6
CONTINUOUS
 10
0.090660449
 20
23.7069686651
 30
0.0
 11
0.1261905771
 21
23.7424987932
 31
0.0
  0
LINE
  5
297
100
AcDbEntity
  8
DRAFT
100
AcDbLine
 62
7
  6
CONTINUOUS
 10
-7.6785717314
 20
16.8285398125
 30
0.0
 11
-8.0976209653
 21
16.6190790333
 31
0.0
  0
LINE
  5
298
100
AcDbEntity
  8
RACCORDO
100
AcDbLine
 62
250
  6
CONTINUOUS
 10
25.240660449
 20
-18.179170079
 30
0.0
 11
24.7409650355
 21
-18.179170079
 31
0.0
  0
LINE
  5
299
100
AcDbEntity
  8
RACCORDO
100
AcDbLine
 62
7
  6
CONTINUOUS
 10
-25.188762936
 20
1.6014716519
 30
0.0
 11
-25.2761905771
 21
1.688899293
 31
0.0
  0
LINE
  5
29A
100
AcDbEntity
  8
RACCORDO
100
AcDbLine
 62
7
  6
CONTINUOUS
 10
-22.1695402458
 20
2.7409314704
 30
0.0
 11
-22.070220811
 21
2.5422320612
 31
0.0
  0
LINE
  5
29B
100
AcDbEntity
  8
RACCORDO
100
AcDbLine
 62
7
  6
CONTINUOUS
 10
-16.3045027406
 20
16.4794385139
 30
0.0
 11
-16.3045027406
 21
17.5295298829
 31
0.0
  0
LINE
  5
29C
100
AcDbEntity
  8
RACCORDO
100
AcDbLine
 62
7
  6
CONTINUOUS
 10
-16.2695819711
 20
17.5469849478
 30
0.0
 11
-16.2695819711
 21
16.7412644878
 31
0.0
  0
LINE
  5
29D
100
AcDbEntity
  8
DRAFT
100
AcDbLine
 62
7
  6
CONTINUOUS
 10
-20.2761905771
 20
2.688899293
 30
0.0
 11
-20.2307935768
 21
2.7342962934
 31
0.0
  0
LINE
  5
29E
100
AcDbEntity
  8
RACCORDO
100
AcDbLine
 62
7
  6
CONTINUOUS
 10
0.545239811
 20
16.6190790333
 30
0.0
 11
0.1252763999
 21
16.4091613048
 31
0.0
  0
LINE
  5
29F
100
AcDbEntity
  8
RACCORDO
100
AcDbLine
 62
250
  6
CONTINUOUS
 10
25.240660449
 20
-14.4430313349
 30
0.0
 11
24.7409650355
 21
-14.4430313349
 31
0.0
  0
LINE
  5
2A0
100
AcDbEntity
  8
SMUSSO
100
AcDbLine
 62
7
  6
CONTINUOUS
 10
3.4738551074
 20
-25.7412804473
 30
0.0
 11
3.3770134617
 21
-25.6444388016
 31
0.0
  0
LINE
  5
2A1
100
AcDbEntity
  8
DRAFT
100
AcDbLine
 62
7
  6
CONTINUOUS
 10
-20.2761905771
 20
-1.311100707
 30
0.0
 11
-20.2307935768
 21
-1.3564977073
 31
0.0
  0
LINE
  5
2A2
100
AcDbEntity
  8
RACCORDO
100
AcDbLine
 62
250
  6
CONTINUOUS
 10
-25.1792738214
 20
4.3920129982
 30
0.0
 11
-25.2761905771
 21
4.488929754
 31
0.0
  0
LINE
  5
2A3
100
AcDbEntity
  8
RACCORDO
100
AcDbLine
 62
250
  6
CONTINUOUS
 10
-24.9793042823
 20
4.5919825373
 30
0.0
 11
-25.0762210381
 21
4.688899293
 31
0.0
  0
LINE
  5
2A4
100
AcDbEntity
  8
RACCORDO
100
AcDbLine
 62
250
  6
CONTINUOUS
 10
-13.7761905771
 20
-23.087675284
 30
0.0
 11
-13.7761905771
 21
-25.5996805865
 31
0.0
  0
LINE
  5
2A5
100
AcDbEntity
  8
RACCORDO
100
AcDbLine
 62
250
  6
CONTINUOUS
 10
-11.7885480778
 20
-25.1102997939
 30
0.0
 11
-11.7885480778
 21
-23.3010225504
 31
0.0
  0
LINE
  5
2A6
100
AcDbEntity
  8
RACCORDO
100
AcDbLine
 62
7
  6
CONTINUOUS
 10
-25.188762936
 20
-8.2236730659
 30
0.0
 11
-25.2761905771
 21
-8.311100707
 31
0.0
  0
LINE
  5
2A7
100
AcDbEntity
  8
RACCORDO
100
AcDbLine
 62
250
  6
CONTINUOUS
 10
14.444299892
 20
-12.9439450944
 30
0.0
 11
23.2418787949
 21
-12.9439450944
 31
0.0
  0
LINE
  5
2A8
100
AcDbEntity
  8
RACCORDO
100
AcDbLine
 62
250
  6
CONTINUOUS
 10
15.5464777404
 20
-12.4442496809
 30
0.0
 11
23.2418787949
 21
-12.4442496809
 31
0.0
  0
LINE
  5
2A9
100
AcDbEntity
  8
RACCORDO
100
AcDbLine
 62
7
  6
CONTINUOUS
 10
16.5030904617
 20
-12.4087195527
 30
0.0
 11
23.2774089231
 21
-12.4087195527
 31
0.0
  0
LINE
  5
2AA
100
AcDbEntity
  8
SMUSSO
100
AcDbLine
 62
7
  6
CONTINUOUS
 10
8.4738551074
 20
-25.7412804473
 30
0.0
 11
8.3770134617
 21
-25.6444388016
 31
0.0
  0
LINE
  5
2AB
100
AcDbEntity
  8
RACCORDO
100
AcDbLine
 62
250
  6
CONTINUOUS
 10
-10.7638330764
 20
-23.3010225504
 30
0.0
 11
-10.7638330764
 21
-25.1102997939
 31
0.0
  0
LINE
  5
2AC
100
AcDbEntity
  8
RACCORDO
100
AcDbLine
 62
250
  6
CONTINUOUS
 10
-25.2761905771
 20
-11.1111311679
 30
0.0
 11
-25.1792738214
 21
-11.0142144122
 31
0.0
  0
LINE
  5
2AD
100
AcDbEntity
  8
RACCORDO
100
AcDbLine
 62
250
  6
CONTINUOUS
 10
-25.0762210381
 20
-11.311100707
 30
0.0
 11
-24.9793042823
 21
-11.2141839512
 31
0.0
  0
LINE
  5
2AE
100
AcDbEntity
  8
0
100
AcDbLine
 62
7
  6
CONTINUOUS
 10
16.3175377112
 20
-8.0598160529
 30
0.0
 11
16.1814523446
 21
-8.0721689212
 31
0.0
  0
LINE
  5
2AF
100
AcDbEntity
  8
RACCORDO
100
AcDbLine
 62
7
  6
CONTINUOUS
 10
17.5238398838
 20
-11.311100707
 30
0.0
 11
16.4237789619
 21
-11.311100707
 31
0.0
  0
LINE
  5
2B0
100
AcDbEntity
  8
RACCORDO
100
AcDbLine
 62
7
  6
CONTINUOUS
 10
-23.9761601162
 20
-11.311100707
 30
0.0
 11
-25.0762210381
 21
-11.311100707
 31
0.0
  0
LINE
  5
2B1
100
AcDbEntity
  8
RACCORDO
100
AcDbLine
 62
250
  6
CONTINUOUS
 10
-24.9793042823
 20
-11.2141839512
 30
0.0
 11
-24.0730765143
 21
-11.2141843088
 31
0.0
  0
LINE
  5
2B2
100
AcDbEntity
  8
RACCORDO
100
AcDbLine
 62
250
  6
CONTINUOUS
 10
16.5206957177
 20
-11.2141839512
 30
0.0
 11
17.4269234857
 21
-11.2141843088
 31
0.0
  0
LINE
  5
2B3
100
AcDbEntity
  8
0
100
AcDbLine
 62
7
  6
CONTINUOUS
 10
-23.8699188654
 20
-8.0598160529
 30
0.0
 11
-23.7338334989
 21
-8.0721689212
 31
0.0
  0
LINE
  5
2B4
100
AcDbEntity
  8
RACCORDO
100
AcDbLine
 62
7
  6
CONTINUOUS
 10
-7.6785717314
 20
16.8285398125
 30
0.0
 11
-7.6785717314
 21
23.7424987932
 31
0.0
  0
LINE
  5
2B5
100
AcDbEntity
  8
RACCORDO
100
AcDbLine
 62
250
  6
CONTINUOUS
 10
-7.6430416032
 20
16.0115676105
 30
0.0
 11
-7.6430416032
 21
23.7069686651
 31
0.0
  0
LINE
  5
2B6
100
AcDbEntity
  8
RACCORDO
100
AcDbLine
 62
250
  6
CONTINUOUS
 10
-7.1433461897
 20
14.9093897621
 30
0.0
 11
-7.1433461897
 21
23.7069686651
 31
0.0
  0
LINE
  5
2B7
100
AcDbEntity
  8
RACCORDO
100
AcDbLine
 62
250
  6
CONTINUOUS
 10
-25.1312526116
 20
-8.2146408657
 30
0.0
 11
-23.9211285426
 21
-8.2146408657
 31
0.0
  0
LINE
  5
2B8
100
AcDbEntity
  8
RACCORDO
100
AcDbLine
 62
250
  6
CONTINUOUS
 10
16.3687473884
 20
-8.2146408657
 30
0.0
 11
17.5788714574
 21
-8.2146408657
 31
0.0
  0
LINE
  5
2B9
100
AcDbEntity
  8
RACCORDO
100
AcDbLine
 62
250
  6
CONTINUOUS
 10
-23.8714445888
 20
-7.9260001974
 30
0.0
 11
-23.6851501812
 21
-7.9260001974
 31
0.0
  0
LINE
  5
2BA
100
AcDbEntity
  8
RACCORDO
100
AcDbLine
 62
250
  6
CONTINUOUS
 10
16.132769027
 20
-7.9260001974
 30
0.0
 11
16.3190634345
 21
-7.9260001974
 31
0.0
  0
LINE
  5
2BB
100
AcDbEntity
  8
RACCORDO
100
AcDbLine
 62
250
  6
CONTINUOUS
 10
-23.8721934342
 20
-7.626411337
 30
0.0
 11
-23.68018772
 21
-7.626411337
 31
0.0
  0
LINE
  5
2BC
100
AcDbEntity
  8
RACCORDO
100
AcDbLine
 62
250
  6
CONTINUOUS
 10
16.1278065658
 20
-7.626411337
 30
0.0
 11
16.31981228
 21
-7.626411337
 31
0.0
  0
LINE
  5
2BD
100
AcDbEntity
  8
SMUSSO
100
AcDbLine
 62
7
  6
CONTINUOUS
 10
13.4738551074
 20
-25.7412804473
 30
0.0
 11
13.3770134617
 21
-25.6444388016
 31
0.0
  0
LINE
  5
2BE
100
AcDbEntity
  8
RACCORDO
100
AcDbLine
 62
250
  6
CONTINUOUS
 10
13.8269372826
 20
-25.6443321546
 30
0.0
 11
13.9238855753
 21
-25.7412804473
 31
0.0
  0
LINE
  5
2BF
100
AcDbEntity
  8
RACCORDO
100
AcDbLine
 62
250
  6
CONTINUOUS
 10
14.3268611302
 20
-25.144408307
 30
0.0
 11
14.4238094229
 21
-25.2413565997
 31
0.0
  0
LINE
  5
2C0
100
AcDbEntity
  8
RACCORDO
100
AcDbLine
 62
7
  6
CONTINUOUS
 10
-19.7119030012
 20
17.4294842053
 30
0.0
 11
-19.3365725662
 21
16.7793928224
 31
0.0
  0
LINE
  5
2C1
100
AcDbEntity
  8
RACCORDO
100
AcDbLine
 62
250
  6
CONTINUOUS
 10
-18.8353982149
 20
16.0964789209
 30
0.0
 11
-19.5515622613
 21
17.336911436
 31
0.0
  0
LINE
  5
2C2
100
AcDbEntity
  8
RACCORDO
100
AcDbLine
 62
250
  6
CONTINUOUS
 10
-18.6622196932
 20
16.1964639104
 30
0.0
 11
-19.3783836111
 21
17.4368962042
 31
0.0
  0
LINE
  5
2C3
100
AcDbEntity
  8
RACCORDO
100
AcDbLine
 62
250
  6
CONTINUOUS
 10
-6.7885480778
 20
-25.1102997939
 30
0.0
 11
-6.7885480778
 21
-23.3010225504
 31
0.0
  0
LINE
  5
2C4
100
AcDbEntity
  8
RACCORDO
100
AcDbLine
 62
250
  6
CONTINUOUS
 10
-5.7638330764
 20
-23.3010225504
 30
0.0
 11
-5.7638330764
 21
-25.1102997939
 31
0.0
  0
LINE
  5
2C5
100
AcDbEntity
  8
RACCORDO
100
AcDbLine
 62
250
  6
CONTINUOUS
 10
-5.6442599492
 20
25.7057503191
 30
0.0
 11
-5.6442599492
 21
25.2060549056
 31
0.0
  0
LINE
  5
2C6
100
AcDbEntity
  8
RACCORDO
100
AcDbLine
 62
250
  6
CONTINUOUS
 10
-19.5515622695
 20
-23.9591128547
 30
0.0
 11
-18.8353970935
 21
-22.7186783831
 31
0.0
  0
LINE
  5
2C7
100
AcDbEntity
  8
RACCORDO
100
AcDbLine
 62
250
  6
CONTINUOUS
 10
-19.378383015
 20
-24.0590976181
 30
0.0
 11
-18.6622171147
 21
-22.818661909
 31
0.0
  0
LINE
  5
2C8
100
AcDbEntity
  8
RACCORDO
100
AcDbLine
 62
250
  6
CONTINUOUS
 10
-19.3333864218
 20
-23.4211529735
 30
0.0
 11
-19.3147305146
 21
-23.388983722
 31
0.0
  0
LINE
  5
2C9
100
AcDbEntity
  8
RACCORDO
100
AcDbLine
 62
250
  6
CONTINUOUS
 10
14.0278651593
 20
-23.1148518338
 30
0.0
 11
13.9442470299
 21
-23.0313627188
 31
0.0
  0
LINE
  5
2CA
100
AcDbEntity
  8
RACCORDO
100
AcDbLine
 62
250
  6
CONTINUOUS
 10
-23.7761905771
 20
14.6892039027
 30
0.0
 11
-23.4964525889
 21
14.4094659145
 31
0.0
  0
LINE
  5
2CB
100
AcDbEntity
  8
RACCORDO
100
AcDbLine
 62
250
  6
CONTINUOUS
 10
14.4238094229
 20
-23.3905761848
 30
0.0
 11
14.3268611302
 21
-23.2936278921
 31
0.0
  0
LINE
  5
2CC
100
AcDbEntity
  8
RACCORDO
100
AcDbLine
 62
7
  6
CONTINUOUS
 10
14.4936296826
 20
-23.2928598818
 30
0.0
 11
14.4671502305
 21
-23.2663804298
 31
0.0
  0
LINE
  5
2CD
100
AcDbEntity
  8
RACCORDO
100
AcDbLine
 62
250
  6
CONTINUOUS
 10
14.5810984902
 20
-23.195213355
 30
0.0
 11
14.4841617907
 21
-23.0982766556
 31
0.0
  0
LINE
  5
2CE
100
AcDbEntity
  8
RACCORDO
100
AcDbLine
 62
7
  6
CONTINUOUS
 10
13.6591342928
 20
16.6242241629
 30
0.0
 11
13.7238094229
 21
16.688899293
 31
0.0
  0
LINE
  5
2CF
100
AcDbEntity
  8
RACCORDO
100
AcDbLine
 62
250
  6
CONTINUOUS
 10
-21.7764951868
 20
16.688899293
 30
0.0
 11
-21.4966281841
 21
16.4091613048
 31
0.0
  0
LINE
  5
2D0
100
AcDbEntity
  8
RACCORDO
100
AcDbLine
 62
250
  6
CONTINUOUS
 10
16.2238094229
 20
-21.3114053167
 30
0.0
 11
15.9440714347
 21
-21.0316673285
 31
0.0
  0
LINE
  5
2D1
100
AcDbEntity
  8
DRAFT
100
AcDbLine
 62
7
  6
CONTINUOUS
 10
-21.293645642
 20
16.6190790333
 30
0.0
 11
-21.3634659018
 21
16.688899293
 31
0.0
  0
LINE
  5
2D2
100
AcDbEntity
  8
RACCORDO
100
AcDbLine
 62
7
  6
CONTINUOUS
 10
-21.211515447
 20
16.6242241629
 30
0.0
 11
-21.2761905771
 21
16.688899293
 31
0.0
  0
LINE
  5
2D3
100
AcDbEntity
  8
RACCORDO
100
AcDbLine
 62
250
  6
CONTINUOUS
 10
-1.9081212051
 20
25.7057503191
 30
0.0
 11
-1.9081212051
 21
25.2060549056
 31
0.0
  0
LINE
  5
2D4
100
AcDbEntity
  8
RACCORDO
100
AcDbLine
 62
250
  6
CONTINUOUS
 10
-1.7885480778
 20
-25.1102997939
 30
0.0
 11
-1.7885480778
 21
-23.3010225504
 31
0.0
  0
LINE
  5
2D5
100
AcDbEntity
  8
RACCORDO
100
AcDbLine
 62
250
  6
CONTINUOUS
 10
-0.7638330764
 20
-23.3010225504
 30
0.0
 11
-0.7638330764
 21
-25.1102997939
 31
0.0
  0
LINE
  5
2D6
100
AcDbEntity
  8
RACCORDO
100
AcDbLine
 62
250
  6
CONTINUOUS
 10
-0.4090349645
 20
23.7069686651
 30
0.0
 11
-0.4090349645
 21
14.9093897621
 31
0.0
  0
LINE
  5
2D7
100
AcDbEntity
  8
RACCORDO
100
AcDbLine
 62
250
  6
CONTINUOUS
 10
0.090660449
 20
23.7069686651
 30
0.0
 11
0.090660449
 21
16.0115676105
 31
0.0
  0
LINE
  5
2D8
100
AcDbEntity
  8
RACCORDO
100
AcDbLine
 62
7
  6
CONTINUOUS
 10
0.1261905771
 20
23.7424987932
 30
0.0
 11
0.1261905771
 21
16.8285398125
 31
0.0
  0
LINE
  5
2D9
100
AcDbEntity
  8
RACCORDO
100
AcDbLine
 62
250
  6
CONTINUOUS
 10
-23.7761905771
 20
-21.3114053167
 30
0.0
 11
-23.4964525889
 21
-21.0315383139
 31
0.0
  0
LINE
  5
2DA
100
AcDbEntity
  8
DRAFT
100
AcDbLine
 62
7
  6
CONTINUOUS
 10
13.7412644878
 20
16.6190790333
 30
0.0
 11
13.8110847475
 21
16.688899293
 31
0.0
  0
LINE
  5
2DB
100
AcDbEntity
  8
RACCORDO
100
AcDbLine
 62
250
  6
CONTINUOUS
 10
14.2241140326
 20
16.688899293
 30
0.0
 11
13.9443760444
 21
16.4091613048
 31
0.0
  0
LINE
  5
2DC
100
AcDbEntity
  8
RACCORDO
100
AcDbLine
 62
7
  6
CONTINUOUS
 10
14.444299892
 20
-1.3634818612
 30
0.0
 11
13.9773004359
 21
-1.3634818612
 31
0.0
  0
LINE
  5
2DD
100
AcDbEntity
  8
RACCORDO
100
AcDbLine
 62
7
  6
CONTINUOUS
 10
-21.5296815901
 20
-1.3634818612
 30
0.0
 11
-21.9966810462
 21
-1.3634818612
 31
0.0
  0
LINE
  5
2DE
100
AcDbEntity
  8
DRAFT
100
AcDbLine
 62
7
  6
CONTINUOUS
 10
12.6784124225
 20
-1.3564977073
 30
0.0
 11
13.9738094229
 21
-1.3564977073
 31
0.0
  0
LINE
  5
2DF
100
AcDbEntity
  8
DRAFT
100
AcDbLine
 62
7
  6
CONTINUOUS
 10
-20.2307935768
 20
-1.3564977073
 30
0.0
 11
-21.5261905771
 21
-1.3564977073
 31
0.0
  0
LINE
  5
2E0
100
AcDbEntity
  8
RACCORDO
100
AcDbLine
 62
7
  6
CONTINUOUS
 10
-21.5055609067
 20
-1.311100707
 30
0.0
 11
-20.2761905771
 21
-1.311100707
 31
0.0
  0
LINE
  5
2E1
100
AcDbEntity
  8
RACCORDO
100
AcDbLine
 62
7
  6
CONTINUOUS
 10
13.9531797525
 20
-1.311100707
 30
0.0
 11
12.7238094229
 21
-1.311100707
 31
0.0
  0
LINE
  5
2E2
100
AcDbEntity
  8
RACCORDO
100
AcDbLine
 62
7
  6
CONTINUOUS
 10
14.5178396567
 20
-1.1644334751
 30
0.0
 11
14.273626671
 21
-1.1644334751
 31
0.0
  0
LINE
  5
2E3
100
AcDbEntity
  8
RACCORDO
100
AcDbLine
 62
7
  6
CONTINUOUS
 10
-21.8260078252
 20
-1.1644334751
 30
0.0
 11
-22.070220811
 21
-1.1644334751
 31
0.0
  0
LINE
  5
2E4
100
AcDbEntity
  8
RACCORDO
100
AcDbLine
 62
250
  6
CONTINUOUS
 10
16.2238094229
 20
14.6892039027
 30
0.0
 11
15.9440714347
 21
14.4093369
 31
0.0
  0
LINE
  5
2E5
100
AcDbEntity
  8
RACCORDO
100
AcDbLine
 62
250
  6
CONTINUOUS
 10
-22.0365429449
 20
-23.0982766556
 30
0.0
 11
-22.1334796444
 21
-23.195213355
 31
0.0
  0
LINE
  5
2E6
100
AcDbEntity
  8
RACCORDO
100
AcDbLine
 62
7
  6
CONTINUOUS
 10
-22.0195313848
 20
-23.2663804298
 30
0.0
 11
-22.0457784804
 21
-23.2926275254
 31
0.0
  0
LINE
  5
2E7
100
AcDbEntity
  8
RACCORDO
100
AcDbLine
 62
250
  6
CONTINUOUS
 10
-21.8792422844
 20
-23.2936278921
 30
0.0
 11
-21.9761905771
 21
-23.3905761848
 31
0.0
  0
LINE
  5
2E8
100
AcDbEntity
  8
RACCORDO
100
AcDbLine
 62
250
  6
CONTINUOUS
 10
-21.5802463137
 20
-23.1148518338
 30
0.0
 11
-21.4967571986
 21
-23.0313627188
 31
0.0
  0
LINE
  5
2E9
100
AcDbEntity
  8
RACCORDO
100
AcDbLine
 62
250
  6
CONTINUOUS
 10
-21.9761905771
 20
-25.2413565997
 30
0.0
 11
-21.8792422844
 21
-25.144408307
 31
0.0
  0
LINE
  5
2EA
100
AcDbEntity
  8
RACCORDO
100
AcDbLine
 62
250
  6
CONTINUOUS
 10
16.31981228
 20
1.004209923
 30
0.0
 11
16.1278065658
 21
1.004209923
 31
0.0
  0
LINE
  5
2EB
100
AcDbEntity
  8
RACCORDO
100
AcDbLine
 62
250
  6
CONTINUOUS
 10
-23.68018772
 20
1.004209923
 30
0.0
 11
-23.8721934342
 21
1.004209923
 31
0.0
  0
LINE
  5
2EC
100
AcDbEntity
  8
RACCORDO
100
AcDbLine
 62
250
  6
CONTINUOUS
 10
16.3190634345
 20
1.3037987834
 30
0.0
 11
16.132769027
 21
1.3037987834
 31
0.0
  0
LINE
  5
2ED
100
AcDbEntity
  8
RACCORDO
100
AcDbLine
 62
250
  6
CONTINUOUS
 10
-23.6851501812
 20
1.3037987834
 30
0.0
 11
-23.8714445888
 21
1.3037987834
 31
0.0
  0
LINE
  5
2EE
100
AcDbEntity
  8
RACCORDO
100
AcDbLine
 62
250
  6
CONTINUOUS
 10
16.3687473884
 20
1.5924394518
 30
0.0
 11
17.5788714574
 21
1.5924394518
 31
0.0
  0
LINE
  5
2EF
100
AcDbEntity
  8
RACCORDO
100
AcDbLine
 62
250
  6
CONTINUOUS
 10
-23.9211285426
 20
1.5924394518
 30
0.0
 11
-25.1312526116
 21
1.5924394518
 31
0.0
  0
LINE
  5
2F0
100
AcDbEntity
  8
RACCORDO
100
AcDbLine
 62
7
  6
CONTINUOUS
 10
14.5178396567
 20
2.5422320612
 30
0.0
 11
14.273626671
 21
2.5422320612
 31
0.0
  0
LINE
  5
2F1
100
AcDbEntity
  8
RACCORDO
100
AcDbLine
 62
7
  6
CONTINUOUS
 10
-21.8260078252
 20
2.5422320612
 30
0.0
 11
-22.070220811
 21
2.5422320612
 31
0.0
  0
LINE
  5
2F2
100
AcDbEntity
  8
RACCORDO
100
AcDbLine
 62
7
  6
CONTINUOUS
 10
-21.5055609067
 20
2.688899293
 30
0.0
 11
-20.2761905771
 21
2.688899293
 31
0.0
  0
LINE
  5
2F3
100
AcDbEntity
  8
RACCORDO
100
AcDbLine
 62
7
  6
CONTINUOUS
 10
13.9531797525
 20
2.688899293
 30
0.0
 11
12.7238094229
 21
2.688899293
 31
0.0
  0
LINE
  5
2F4
100
AcDbEntity
  8
RACCORDO
100
AcDbLine
 62
250
  6
CONTINUOUS
 10
23.2418787949
 20
-20.1779517331
 30
0.0
 11
23.2774089231
 21
-20.2134818612
 31
0.0
  0
LINE
  5
2F5
100
AcDbEntity
  8
RACCORDO
100
AcDbLine
 62
250
  6
CONTINUOUS
 10
3.2114519222
 20
-25.1102997939
 30
0.0
 11
3.2114519222
 21
-23.3010225504
 31
0.0
  0
LINE
  5
2F6
100
AcDbEntity
  8
RACCORDO
100
AcDbLine
 62
250
  6
CONTINUOUS
 10
4.2361669236
 20
-23.3010225504
 30
0.0
 11
4.2361669236
 21
-25.1102997939
 31
0.0
  0
LINE
  5
2F7
100
AcDbEntity
  8
RACCORDO
100
AcDbLine
 62
250
  6
CONTINUOUS
 10
-21.4762667295
 20
-25.7412804473
 30
0.0
 11
-21.3793184368
 21
-25.6443321546
 31
0.0
  0
LINE
  5
2F8
100
AcDbEntity
  8
SMUSSO
100
AcDbLine
 62
7
  6
CONTINUOUS
 10
-20.9293946159
 20
-25.6444388016
 30
0.0
 11
-21.0262362616
 21
-25.7412804473
 31
0.0
  0
LINE
  5
2F9
100
AcDbEntity
  8
0
100
AcDbLine
 62
7
  6
CONTINUOUS
 10
-23.7338334989
 20
1.4499675072
 30
0.0
 11
-23.8699188654
 21
1.4376146389
 31
0.0
  0
LINE
  5
2FA
100
AcDbEntity
  8
DRAFT
100
AcDbLine
 62
7
  6
CONTINUOUS
 10
12.6784124225
 20
2.7342962934
 30
0.0
 11
13.9738094229
 21
2.7342962934
 31
0.0
  0
LINE
  5
2FB
100
AcDbEntity
  8
DRAFT
100
AcDbLine
 62
7
  6
CONTINUOUS
 10
-20.2307935768
 20
2.7342962934
 30
0.0
 11
-21.5261905771
 21
2.7342962934
 31
0.0
  0
LINE
  5
2FC
100
AcDbEntity
  8
RACCORDO
100
AcDbLine
 62
7
  6
CONTINUOUS
 10
-21.9966810462
 20
2.7412804473
 30
0.0
 11
-21.5296815901
 21
2.7412804473
 31
0.0
  0
LINE
  5
2FD
100
AcDbEntity
  8
RACCORDO
100
AcDbLine
 62
7
  6
CONTINUOUS
 10
13.9773004359
 20
2.7412804473
 30
0.0
 11
14.444299892
 21
2.7412804473
 31
0.0
  0
LINE
  5
2FE
100
AcDbEntity
  8
RACCORDO
100
AcDbLine
 62
250
  6
CONTINUOUS
 10
-24.0730768719
 20
4.5919825373
 30
0.0
 11
-24.9793042823
 21
4.5919825373
 31
0.0
  0
LINE
  5
2FF
100
AcDbEntity
  8
RACCORDO
100
AcDbLine
 62
250
  6
CONTINUOUS
 10
17.4269231281
 20
4.5919825373
 30
0.0
 11
16.5206953601
 21
4.5919828948
 31
0.0
  0
LINE
  5
300
100
AcDbEntity
  8
RACCORDO
100
AcDbLine
 62
7
  6
CONTINUOUS
 10
-25.0762210381
 20
4.688899293
 30
0.0
 11
-23.9761601162
 21
4.688899293
 31
0.0
  0
LINE
  5
301
100
AcDbEntity
  8
RACCORDO
100
AcDbLine
 62
7
  6
CONTINUOUS
 10
16.4237789619
 20
4.688899293
 30
0.0
 11
17.5238398838
 21
4.688899293
 31
0.0
  0
LINE
  5
302
100
AcDbEntity
  8
0
100
AcDbLine
 62
7
  6
CONTINUOUS
 10
16.3175377112
 20
1.4376146389
 30
0.0
 11
16.1814523446
 21
1.4499675072
 31
0.0
  0
LINE
  5
303
100
AcDbEntity
  8
RACCORDO
100
AcDbLine
 62
250
  6
CONTINUOUS
 10
-19.388030393
 20
16.4091629345
 30
0.0
 11
-19.509751267
 21
16.4794385139
 31
0.0
  0
LINE
  5
304
100
AcDbEntity
  8
RACCORDO
100
AcDbLine
 62
250
  6
CONTINUOUS
 10
-19.2148488696
 20
16.7091156134
 30
0.0
 11
-19.3365725662
 21
16.7793928224
 31
0.0
  0
LINE
  5
305
100
AcDbEntity
  8
RACCORDO
100
AcDbLine
 62
250
  6
CONTINUOUS
 10
-17.7169846628
 20
16.0964759262
 30
0.0
 11
-17.8901640418
 21
16.1964604891
 31
0.0
  0
LINE
  5
306
100
AcDbEntity
  8
RACCORDO
100
AcDbLine
 62
250
  6
CONTINUOUS
 10
17.5238398838
 20
-11.311100707
 30
0.0
 11
17.4269234857
 21
-11.2141843088
 31
0.0
  0
LINE
  5
307
100
AcDbEntity
  8
RACCORDO
100
AcDbLine
 62
250
  6
CONTINUOUS
 10
17.7238094229
 20
-11.1111311679
 30
0.0
 11
17.6268926671
 21
-11.0142144122
 31
0.0
  0
LINE
  5
308
100
AcDbEntity
  8
RACCORDO
100
AcDbLine
 62
250
  6
CONTINUOUS
 10
25.240660449
 20
-18.179170079
 30
0.0
 11
25.2761905771
 21
-18.2147002072
 31
0.0
  0
LINE
  5
309
100
AcDbEntity
  8
DRAFT
100
AcDbLine
 62
7
  6
CONTINUOUS
 10
-20.2478784136
 20
16.4794385139
 30
0.0
 11
-20.5272445695
 21
16.6190790333
 31
0.0
  0
LINE
  5
30A
100
AcDbEntity
  8
RACCORDO
100
AcDbLine
 62
250
  6
CONTINUOUS
 10
-20.2478784136
 20
17.5295298829
 30
0.0
 11
-20.2827991831
 21
17.5469849478
 31
0.0
  0
LINE
  5
30B
100
AcDbEntity
  8
RACCORDO
100
AcDbLine
 62
250
  6
CONTINUOUS
 10
-20.047878395
 20
17.7294385139
 30
0.0
 11
-20.0827991645
 21
17.7468935788
 31
0.0
  0
LINE
  5
30C
100
AcDbEntity
  8
RACCORDO
100
AcDbLine
 62
250
  6
CONTINUOUS
 10
-19.5515622613
 20
17.336911436
 30
0.0
 11
-19.7119030012
 21
17.4294842053
 31
0.0
  0
LINE
  5
30D
100
AcDbEntity
  8
RACCORDO
100
AcDbLine
 62
250
  6
CONTINUOUS
 10
-19.3783835581
 20
17.6368657432
 30
0.0
 11
-19.5387243004
 21
17.7294385139
 31
0.0
  0
LINE
  5
30E
100
AcDbEntity
  8
RACCORDO
100
AcDbLine
 62
250
  6
CONTINUOUS
 10
-17.1739975961
 20
17.4368962042
 30
0.0
 11
-17.0008188953
 21
17.3369114346
 31
0.0
  0
LINE
  5
30F
100
AcDbEntity
  8
RACCORDO
100
AcDbLine
 62
7
  6
CONTINUOUS
 10
17.6363817818
 20
-8.2236730659
 30
0.0
 11
17.7238094229
 21
-8.311100707
 31
0.0
  0
LINE
  5
310
100
AcDbEntity
  8
RACCORDO
100
AcDbLine
 62
7
  6
CONTINUOUS
 10
16.2238094229
 20
-20.7722141731
 30
0.0
 11
15.9440714347
 21
-20.212567684
 31
0.0
  0
LINE
  5
311
100
AcDbEntity
  8
RACCORDO
100
AcDbLine
 62
250
  6
CONTINUOUS
 10
8.2114519222
 20
-25.1102997939
 30
0.0
 11
8.2114519222
 21
-23.3010225504
 31
0.0
  0
LINE
  5
312
100
AcDbEntity
  8
RACCORDO
100
AcDbLine
 62
250
  6
CONTINUOUS
 10
9.2361669236
 20
-23.3010225504
 30
0.0
 11
9.2361669236
 21
-25.1102997939
 31
0.0
  0
LINE
  5
313
100
AcDbEntity
  8
RACCORDO
100
AcDbLine
 62
250
  6
CONTINUOUS
 10
17.4269231281
 20
4.5919825373
 30
0.0
 11
17.5238398838
 21
4.688899293
 31
0.0
  0
LINE
  5
314
100
AcDbEntity
  8
RACCORDO
100
AcDbLine
 62
250
  6
CONTINUOUS
 10
17.6268926671
 20
4.3920129982
 30
0.0
 11
17.7238094229
 21
4.488929754
 31
0.0
  0
LINE
  5
315
100
AcDbEntity
  8
DRAFT
100
AcDbLine
 62
7
  6
CONTINUOUS
 10
12.7238094229
 20
-1.311100707
 30
0.0
 11
12.6784124225
 21
-1.3564977073
 31
0.0
  0
LINE
  5
316
100
AcDbEntity
  8
DRAFT
100
AcDbLine
 62
7
  6
CONTINUOUS
 10
-16.2695819711
 20
16.7412644878
 30
0.0
 11
-16.0251365847
 21
16.6190790333
 31
0.0
  0
LINE
  5
317
100
AcDbEntity
  8
DRAFT
100
AcDbLine
 62
7
  6
CONTINUOUS
 10
16.2238094229
 20
-11.8499872409
 30
0.0
 11
16.5030904617
 21
-12.4087195527
 31
0.0
  0
LINE
  5
318
100
AcDbEntity
  8
RACCORDO
100
AcDbLine
 62
7
  6
CONTINUOUS
 10
14.5178396567
 20
2.5422320612
 30
0.0
 11
14.6171590915
 21
2.7409314704
 31
0.0
  0
LINE
  5
319
100
AcDbEntity
  8
SMUSSO
100
AcDbLine
 62
7
  6
CONTINUOUS
 10
-10.9293946159
 20
-25.6444388016
 30
0.0
 11
-11.0262362616
 21
-25.7412804473
 31
0.0
  0
LINE
  5
31A
100
AcDbEntity
  8
RACCORDO
100
AcDbLine
 62
7
  6
CONTINUOUS
 10
17.6363817818
 20
1.6014716519
 30
0.0
 11
17.7238094229
 21
1.688899293
 31
0.0
  0
LINE
  5
31B
100
AcDbEntity
  8
RACCORDO
100
AcDbLine
 62
250
  6
CONTINUOUS
 10
-19.3880275703
 20
-23.0313627188
 30
0.0
 11
-19.4879092154
 21
-23.0890294134
 31
0.0
  0
LINE
  5
31C
100
AcDbEntity
  8
RACCORDO
100
AcDbLine
 62
250
  6
CONTINUOUS
 10
-19.2148488696
 20
-23.3313170273
 30
0.0
 11
-19.3147305146
 21
-23.388983722
 31
0.0
  0
LINE
  5
31D
100
AcDbEntity
  8
RACCORDO
100
AcDbLine
 62
250
  6
CONTINUOUS
 10
-17.7169827431
 20
-22.7186806749
 30
0.0
 11
-17.890161461
 21
-22.8186653244
 31
0.0
  0
LINE
  5
31E
100
AcDbEntity
  8
RACCORDO
100
AcDbLine
 62
250
  6
CONTINUOUS
 10
-19.5515622695
 20
-23.9591128547
 30
0.0
 11
-19.6933119173
 21
-24.040952052
 31
0.0
  0
LINE
  5
31F
100
AcDbEntity
  8
RACCORDO
100
AcDbLine
 62
250
  6
CONTINUOUS
 10
-19.3783835581
 20
-24.2590671571
 30
0.0
 11
-19.5170810182
 21
-24.3391441731
 31
0.0
  0
LINE
  5
320
100
AcDbEntity
  8
RACCORDO
100
AcDbLine
 62
250
  6
CONTINUOUS
 10
-17.2399960606
 20
-23.3876295926
 30
0.0
 11
-17.0668173598
 21
-23.2876448231
 31
0.0
  0
LINE
  5
321
100
AcDbEntity
  8
RACCORDO
100
AcDbLine
 62
250
  6
CONTINUOUS
 10
-17.0008188953
 20
-23.9591128486
 30
0.0
 11
-17.1739975961
 21
-24.0590976181
 31
0.0
  0
LINE
  5
322
100
AcDbEntity
  8
RACCORDO
100
AcDbLine
 62
7
  6
CONTINUOUS
 10
-8.0976209653
 20
16.6190790333
 30
0.0
 11
-7.6776575542
 21
16.4091613048
 31
0.0
  0
LINE
  5
323
100
AcDbEntity
  8
DRAFT
100
AcDbLine
 62
7
  6
CONTINUOUS
 10
12.7238094229
 20
2.688899293
 30
0.0
 11
12.6784124225
 21
2.7342962934
 31
0.0
  0
LINE
  5
324
100
AcDbEntity
  8
RACCORDO
100
AcDbLine
 62
250
  6
CONTINUOUS
 10
-7.6430416032
 20
23.7069686651
 30
0.0
 11
-7.6785717314
 21
23.7424987932
 31
0.0
  0
LINE
  5
325
100
AcDbEntity
  8
DRAFT
100
AcDbLine
 62
7
  6
CONTINUOUS
 10
12.6784124225
 20
-1.3564977073
 30
0.0
 11
12.6784124225
 21
2.7342962934
 31
0.0
  0
LINE
  5
326
100
AcDbEntity
  8
DRAFT
100
AcDbLine
 62
7
  6
CONTINUOUS
 10
12.7238094229
 20
-1.311100707
 30
0.0
 11
12.7238094229
 21
2.688899293
 31
0.0
  0
LINE
  5
327
100
AcDbEntity
  8
0
100
AcDbLine
 62
250
  6
CONTINUOUS
 10
13.6591342928
 20
16.6242241629
 30
0.0
 11
13.6591342928
 21
16.6190790333
 31
0.0
  0
LINE
  5
328
100
AcDbEntity
  8
DRAFT
100
AcDbLine
 62
7
  6
CONTINUOUS
 10
13.7238094229
 20
16.688899293
 30
0.0
 11
13.7238094229
 21
16.6190790333
 31
0.0
  0
LINE
  5
329
100
AcDbEntity
  8
RACCORDO
100
AcDbLine
 62
250
  6
CONTINUOUS
 10
13.9443760444
 20
-21.5315911761
 30
0.0
 11
13.9443760436
 21
-23.0313627188
 31
0.0
  0
LINE
  5
32A
100
AcDbEntity
  8
RACCORDO
100
AcDbLine
 62
250
  6
CONTINUOUS
 10
13.9443760444
 20
14.9093897621
 30
0.0
 11
13.9443760444
 21
16.4091613048
 31
0.0
  0
LINE
  5
32B
100
AcDbEntity
  8
RACCORDO
100
AcDbLine
 62
7
  6
CONTINUOUS
 10
13.9738094229
 20
2.2424148131
 30
0.0
 11
13.9738094229
 21
-0.864616227
 31
0.0
  0
LINE
  5
32C
100
AcDbEntity
  8
RACCORDO
100
AcDbLine
 62
7
  6
CONTINUOUS
 10
13.9773004359
 20
-20.5646678724
 30
0.0
 11
13.9773004359
 21
-1.3634818612
 31
0.0
  0
LINE
  5
32D
100
AcDbEntity
  8
RACCORDO
100
AcDbLine
 62
7
  6
CONTINUOUS
 10
13.9773004359
 20
2.7412804473
 30
0.0
 11
13.9773004359
 21
13.9424664584
 31
0.0
  0
LINE
  5
32E
100
AcDbEntity
  8
0
100
AcDbLine
 62
250
  6
CONTINUOUS
 10
14.1277304018
 20
2.6877909116
 30
0.0
 11
14.1277304018
 21
2.5040672188
 31
0.0
  0
LINE
  5
32F
100
AcDbEntity
  8
0
100
AcDbLine
 62
250
  6
CONTINUOUS
 10
14.1277304018
 20
-1.1262686327
 30
0.0
 11
14.1277304018
 21
-1.3099923255
 31
0.0
  0
LINE
  5
330
100
AcDbEntity
  8
RACCORDO
100
AcDbLine
 62
250
  6
CONTINUOUS
 10
14.3268611302
 20
-25.144408307
 30
0.0
 11
14.3268611302
 21
-23.2936278921
 31
0.0
  0
LINE
  5
331
100
AcDbEntity
  8
RACCORDO
100
AcDbLine
 62
7
  6
CONTINUOUS
 10
14.4238094229
 20
-23.3905761848
 30
0.0
 11
14.4238094229
 21
-25.2413565997
 31
0.0
  0
LINE
  5
332
100
AcDbEntity
  8
RACCORDO
100
AcDbLine
 62
250
  6
CONTINUOUS
 10
14.444299892
 20
-21.0316673285
 30
0.0
 11
14.444299892
 21
-19.6782563196
 31
0.0
  0
LINE
  5
333
100
AcDbEntity
  8
RACCORDO
100
AcDbLine
 62
250
  6
CONTINUOUS
 10
14.444299892
 20
-12.9439450944
 30
0.0
 11
14.444299892
 21
-1.3634818612
 31
0.0
  0
LINE
  5
334
100
AcDbEntity
  8
RACCORDO
100
AcDbLine
 62
250
  6
CONTINUOUS
 10
14.444299892
 20
2.7412804473
 30
0.0
 11
14.444299892
 21
14.4094659145
 31
0.0
  0
LINE
  5
335
100
AcDbEntity
  8
0
100
AcDbLine
 62
7
  6
CONTINUOUS
 10
14.5178396567
 20
2.5422320612
 30
0.0
 11
14.5178396567
 21
-1.1644334751
 31
0.0
  0
LINE
  5
336
100
AcDbEntity
  8
RACCORDO
100
AcDbLine
 62
7
  6
CONTINUOUS
 10
14.6171590915
 20
-1.3631328843
 30
0.0
 11
14.6171590915
 21
2.7409314704
 31
0.0
  0
LINE
  5
337
100
AcDbEntity
  8
RACCORDO
100
AcDbLine
 62
7
  6
CONTINUOUS
 10
14.5178396567
 20
-1.1644334751
 30
0.0
 11
14.4531036001
 21
-1.293945048
 31
0.0
  0
LINE
  5
338
100
AcDbEntity
  8
SMUSSO
100
AcDbLine
 62
7
  6
CONTINUOUS
 10
-5.9293946159
 20
-25.6444388016
 30
0.0
 11
-6.0262362616
 21
-25.7412804473
 31
0.0
  0
LINE
  5
339
100
AcDbEntity
  8
RACCORDO
100
AcDbLine
 62
250
  6
CONTINUOUS
 10
-16.8646656257
 20
-24.0377209755
 30
0.0
 11
-16.6914869249
 21
-23.937736206
 31
0.0
  0
LINE
  5
33A
100
AcDbEntity
  8
RACCORDO
100
AcDbLine
 62
250
  6
CONTINUOUS
 10
14.444299892
 20
14.4094659145
 30
0.0
 11
15.9440714347
 21
14.4094659137
 31
0.0
  0
LINE
  5
33B
100
AcDbEntity
  8
RACCORDO
100
AcDbLine
 62
250
  6
CONTINUOUS
 10
-21.9966810462
 20
14.4094659145
 30
0.0
 11
-23.4964525889
 21
14.4094659145
 31
0.0
  0
LINE
  5
33C
100
AcDbEntity
  8
RACCORDO
100
AcDbLine
 62
7
  6
CONTINUOUS
 10
13.4773765883
 20
14.442390306
 30
0.0
 11
-21.0297577425
 21
14.442390306
 31
0.0
  0
LINE
  5
33D
100
AcDbEntity
  8
RACCORDO
100
AcDbLine
 62
7
  6
CONTINUOUS
 10
16.311237064
 20
1.6014716519
 30
0.0
 11
16.2238094229
 21
1.688899293
 31
0.0
  0
LINE
  5
33E
100
AcDbEntity
  8
RACCORDO
100
AcDbLine
 62
250
  6
CONTINUOUS
 10
-5.6442599492
 20
25.7057503191
 30
0.0
 11
-5.6797900773
 21
25.7412804473
 31
0.0
  0
LINE
  5
33F
100
AcDbEntity
  8
RACCORDO
100
AcDbLine
 62
250
  6
CONTINUOUS
 10
16.2238094229
 20
4.488929754
 30
0.0
 11
16.3207261786
 21
4.3920129982
 31
0.0
  0
LINE
  5
340
100
AcDbEntity
  8
RACCORDO
100
AcDbLine
 62
7
  6
CONTINUOUS
 10
14.5178396567
 20
-1.1644334751
 30
0.0
 11
14.6171590915
 21
-1.3631328843
 31
0.0
  0
LINE
  5
341
100
AcDbEntity
  8
RACCORDO
100
AcDbLine
 62
7
  6
CONTINUOUS
 10
14.5178396567
 20
2.5422320612
 30
0.0
 11
14.4531036001
 21
2.671743634
 31
0.0
  0
LINE
  5
342
100
AcDbEntity
  8
0
100
AcDbLine
 62
7
  6
CONTINUOUS
 10
16.2238094229
 20
-8.199343493
 30
0.0
 11
16.1814523446
 21
-8.0721689212
 31
0.0
  0
LINE
  5
343
100
AcDbEntity
  8
RACCORDO
100
AcDbLine
 62
7
  6
CONTINUOUS
 10
16.1814523446
 20
-8.0721689212
 30
0.0
 11
16.132769027
 21
-7.9260001974
 31
0.0
  0
LINE
  5
344
100
AcDbEntity
  8
RACCORDO
100
AcDbLine
 62
250
  6
CONTINUOUS
 10
15.9440714347
 20
14.4093369
 30
0.0
 11
15.9440714347
 21
-12.4096337299
 31
0.0
  0
LINE
  5
345
100
AcDbEntity
  8
RACCORDO
100
AcDbLine
 62
250
  6
CONTINUOUS
 10
15.9440714347
 20
-21.0316673285
 30
0.0
 11
15.9440714347
 21
-20.212567684
 31
0.0
  0
LINE
  5
346
100
AcDbEntity
  8
RACCORDO
100
AcDbLine
 62
7
  6
CONTINUOUS
 10
16.1278065658
 20
1.004209923
 30
0.0
 11
16.1278065658
 21
-7.626411337
 31
0.0
  0
LINE
  5
347
100
AcDbEntity
  8
RACCORDO
100
AcDbLine
 62
7
  6
CONTINUOUS
 10
16.2238094229
 20
-21.3114053167
 30
0.0
 11
16.2238094229
 21
-20.7722141731
 31
0.0
  0
LINE
  5
348
100
AcDbEntity
  8
RACCORDO
100
AcDbLine
 62
7
  6
CONTINUOUS
 10
16.2238094229
 20
-11.8499872409
 30
0.0
 11
16.2238094229
 21
-11.511070246
 31
0.0
  0
LINE
  5
349
100
AcDbEntity
  8
RACCORDO
100
AcDbLine
 62
7
  6
CONTINUOUS
 10
16.2238094229
 20
-11.1111311679
 30
0.0
 11
16.2238094229
 21
-8.311100707
 31
0.0
  0
LINE
  5
34A
100
AcDbEntity
  8
DRAFT
100
AcDbLine
 62
7
  6
CONTINUOUS
 10
16.2238094229
 20
-11.8499872409
 30
0.0
 11
16.2238094229
 21
-8.0721689212
 31
0.0
  0
LINE
  5
34B
100
AcDbEntity
  8
DRAFT
100
AcDbLine
 62
7
  6
CONTINUOUS
 10
16.2238094229
 20
1.4499675072
 30
0.0
 11
16.2238094229
 21
1.688899293
 31
0.0
  0
LINE
  5
34C
100
AcDbEntity
  8
RACCORDO
100
AcDbLine
 62
7
  6
CONTINUOUS
 10
16.2238094229
 20
1.5771420791
 30
0.0
 11
16.2238094229
 21
14.6892039027
 31
0.0
  0
LINE
  5
34D
100
AcDbEntity
  8
RACCORDO
100
AcDbLine
 62
7
  6
CONTINUOUS
 10
16.31981228
 20
-7.7237492183
 30
0.0
 11
16.31981228
 21
1.1015478044
 31
0.0
  0
LINE
  5
34E
100
AcDbEntity
  8
RACCORDO
100
AcDbLine
 62
250
  6
CONTINUOUS
 10
16.3687473884
 20
1.5924394518
 30
0.0
 11
16.3687473884
 21
-8.2146408657
 31
0.0
  0
LINE
  5
34F
100
AcDbEntity
  8
RACCORDO
100
AcDbLine
 62
250
  6
CONTINUOUS
 10
16.5687169274
 20
1.5924394518
 30
0.0
 11
16.5687169274
 21
-8.2146408657
 31
0.0
  0
LINE
  5
350
100
AcDbEntity
  8
0
100
AcDbLine
 62
7
  6
CONTINUOUS
 10
16.2238094229
 20
1.5771420791
 30
0.0
 11
16.1814523446
 21
1.4499675072
 31
0.0
  0
LINE
  5
351
100
AcDbEntity
  8
RACCORDO
100
AcDbLine
 62
7
  6
CONTINUOUS
 10
16.1814523446
 20
1.4499675072
 30
0.0
 11
16.132769027
 21
1.3037987834
 31
0.0
  0
LINE
  5
352
100
AcDbEntity
  8
RACCORDO
100
AcDbLine
 62
250
  6
CONTINUOUS
 10
-18.3730100158
 20
14.9093838864
 30
0.0
 11
-21.4967571986
 21
14.9093897621
 31
0.0
  0
LINE
  5
353
100
AcDbEntity
  8
RACCORDO
100
AcDbLine
 62
250
  6
CONTINUOUS
 10
-7.1433461897
 20
14.9093897621
 30
0.0
 11
-18.1793590852
 21
14.9093969225
 31
0.0
  0
LINE
  5
354
100
AcDbEntity
  8
RACCORDO
100
AcDbLine
 62
250
  6
CONTINUOUS
 10
13.9443760444
 20
14.9093897621
 30
0.0
 11
-0.4090349645
 21
14.9093897621
 31
0.0
  0
LINE
  5
355
100
AcDbEntity
  8
RACCORDO
100
AcDbLine
 62
250
  6
CONTINUOUS
 10
13.9443760444
 20
16.4091613048
 30
0.0
 11
0.1252763999
 21
16.4091613048
 31
0.0
  0
LINE
  5
356
100
AcDbEntity
  8
RACCORDO
100
AcDbLine
 62
250
  6
CONTINUOUS
 10
-7.6776575542
 20
16.4091613048
 30
0.0
 11
-17.1643535839
 21
16.4091613048
 31
0.0
  0
LINE
  5
357
100
AcDbEntity
  8
RACCORDO
100
AcDbLine
 62
250
  6
CONTINUOUS
 10
-19.388030393
 20
16.4091629345
 30
0.0
 11
-21.4966281841
 21
16.4091613048
 31
0.0
  0
LINE
  5
358
100
AcDbEntity
  8
RACCORDO
100
AcDbLine
 62
7
  6
CONTINUOUS
 10
-16.3045027406
 20
16.4794385139
 30
0.0
 11
-17.0426298872
 21
16.4794385139
 31
0.0
  0
LINE
  5
359
100
AcDbEntity
  8
RACCORDO
100
AcDbLine
 62
7
  6
CONTINUOUS
 10
-19.509751267
 20
16.4794385139
 30
0.0
 11
-20.2478784136
 21
16.4794385139
 31
0.0
  0
LINE
  5
35A
100
AcDbEntity
  8
RACCORDO
100
AcDbLine
 62
7
  6
CONTINUOUS
 10
13.3591799842
 20
16.6190790333
 30
0.0
 11
0.545239811
 21
16.6190790333
 31
0.0
  0
LINE
  5
35B
100
AcDbEntity
  8
DRAFT
100
AcDbLine
 62
7
  6
CONTINUOUS
 10
13.7412644878
 20
16.6190790333
 30
0.0
 11
0.545239811
 21
16.6190790333
 31
0.0
  0
LINE
  5
35C
100
AcDbEntity
  8
RACCORDO
100
AcDbLine
 62
7
  6
CONTINUOUS
 10
-8.0976209653
 20
16.6190790333
 30
0.0
 11
-16.0251365847
 21
16.6190790333
 31
0.0
  0
LINE
  5
35D
100
AcDbEntity
  8
DRAFT
100
AcDbLine
 62
7
  6
CONTINUOUS
 10
-8.0976209653
 20
16.6190790333
 30
0.0
 11
-16.0251365847
 21
16.6190790333
 31
0.0
  0
LINE
  5
35E
100
AcDbEntity
  8
RACCORDO
100
AcDbLine
 62
7
  6
CONTINUOUS
 10
-20.5272445695
 20
16.6190790333
 30
0.0
 11
-20.9115611385
 21
16.6190790333
 31
0.0
  0
LINE
  5
35F
100
AcDbEntity
  8
DRAFT
100
AcDbLine
 62
7
  6
CONTINUOUS
 10
-20.5272445695
 20
16.6190790333
 30
0.0
 11
-21.293645642
 21
16.6190790333
 31
0.0
  0
LINE
  5
360
100
AcDbEntity
  8
DRAFT
100
AcDbLine
 62
7
  6
CONTINUOUS
 10
-21.2761905771
 20
16.688899293
 30
0.0
 11
-20.3875614916
 21
16.688899293
 31
0.0
  0
LINE
  5
361
100
AcDbEntity
  8
DRAFT
100
AcDbLine
 62
7
  6
CONTINUOUS
 10
-16.1648196627
 20
16.688899293
 30
0.0
 11
-7.9579378873
 21
16.688899293
 31
0.0
  0
LINE
  5
362
100
AcDbEntity
  8
RACCORDO
100
AcDbLine
 62
7
  6
CONTINUOUS
 10
14.2241140326
 20
16.688899293
 30
0.0
 11
13.7238094229
 21
16.688899293
 31
0.0
  0
LINE
  5
363
100
AcDbEntity
  8
DRAFT
100
AcDbLine
 62
7
  6
CONTINUOUS
 10
0.4055567331
 20
16.688899293
 30
0.0
 11
13.7238094229
 21
16.688899293
 31
0.0
  0
LINE
  5
364
100
AcDbEntity
  8
RACCORDO
100
AcDbLine
 62
7
  6
CONTINUOUS
 10
-21.2761905771
 20
16.688899293
 30
0.0
 11
-21.7764951868
 21
16.688899293
 31
0.0
  0
LINE
  5
365
100
AcDbEntity
  8
DRAFT
100
AcDbLine
 62
7
  6
CONTINUOUS
 10
0.1261905771
 20
16.8285398125
 30
0.0
 11
0.545239811
 21
16.6190790333
 31
0.0
  0
LINE
  5
366
100
AcDbEntity
  8
RACCORDO
100
AcDbLine
 62
250
  6
CONTINUOUS
 10
16.4237789619
 20
4.688899293
 30
0.0
 11
16.5206953601
 21
4.5919828948
 31
0.0
  0
LINE
  5
367
100
AcDbEntity
  8
RACCORDO
100
AcDbLine
 62
250
  6
CONTINUOUS
 10
17.3789019184
 20
-8.2146408657
 30
0.0
 11
17.3789019184
 21
1.5924394518
 31
0.0
  0
LINE
  5
368
100
AcDbEntity
  8
RACCORDO
100
AcDbLine
 62
250
  6
CONTINUOUS
 10
17.5788714574
 20
-8.2146408657
 30
0.0
 11
17.5788714574
 21
1.5924394518
 31
0.0
  0
LINE
  5
369
100
AcDbEntity
  8
RACCORDO
100
AcDbLine
 62
7
  6
CONTINUOUS
 10
17.6278065658
 20
-7.7237492183
 30
0.0
 11
17.6278065658
 21
1.1015478044
 31
0.0
  0
LINE
  5
36A
100
AcDbEntity
  8
RACCORDO
100
AcDbLine
 62
7
  6
CONTINUOUS
 10
17.7238094229
 20
4.488929754
 30
0.0
 11
17.7238094229
 21
1.688899293
 31
0.0
  0
LINE
  5
36B
100
AcDbEntity
  8
RACCORDO
100
AcDbLine
 62
7
  6
CONTINUOUS
 10
17.7238094229
 20
-8.311100707
 30
0.0
 11
17.7238094229
 21
-11.1111311679
 31
0.0
  0
LINE
  5
36C
100
AcDbEntity
  8
RACCORDO
100
AcDbLine
 62
7
  6
CONTINUOUS
 10
16.311237064
 20
-8.2236730659
 30
0.0
 11
16.2238094229
 21
-8.311100707
 31
0.0
  0
LINE
  5
36D
100
AcDbEntity
  8
SMUSSO
100
AcDbLine
 62
7
  6
CONTINUOUS
 10
-0.9293946159
 20
-25.6444388016
 30
0.0
 11
-1.0262362616
 21
-25.7412804473
 31
0.0
  0
LINE
  5
36E
100
AcDbEntity
  8
RACCORDO
100
AcDbLine
 62
250
  6
CONTINUOUS
 10
16.3207261786
 20
-11.0142144122
 30
0.0
 11
16.2238094229
 21
-11.1111311679
 31
0.0
  0
LINE
  5
36F
100
AcDbEntity
  8
RACCORDO
100
AcDbLine
 62
250
  6
CONTINUOUS
 10
-17.17399814
 20
17.4368962042
 30
0.0
 11
-19.3783836111
 21
17.4368962042
 31
0.0
  0
LINE
  5
370
100
AcDbEntity
  8
RACCORDO
100
AcDbLine
 62
250
  6
CONTINUOUS
 10
-17.1739975961
 20
17.6368657432
 30
0.0
 11
-19.3783835581
 21
17.6368657432
 31
0.0
  0
LINE
  5
371
100
AcDbEntity
  8
RACCORDO
100
AcDbLine
 62
7
  6
CONTINUOUS
 10
-20.047878395
 20
17.7294385139
 30
0.0
 11
-19.5387243004
 21
17.7294385139
 31
0.0
  0
LINE
  5
372
100
AcDbEntity
  8
RACCORDO
100
AcDbLine
 62
7
  6
CONTINUOUS
 10
-17.0136568539
 20
17.7294385139
 30
0.0
 11
-16.5045027592
 21
17.7294385139
 31
0.0
  0
LINE
  5
373
100
AcDbEntity
  8
RACCORDO
100
AcDbLine
 62
7
  6
CONTINUOUS
 10
-20.0827991645
 20
17.7468935788
 30
0.0
 11
-16.4695819897
 21
17.7468935788
 31
0.0
  0
LINE
  5
374
100
AcDbEntity
  8
RACCORDO
100
AcDbLine
 62
7
  6
CONTINUOUS
 10
16.2238094229
 20
-11.8499872409
 30
0.0
 11
15.9440714347
 21
-12.4096337299
 31
0.0
  0
LINE
  5
375
100
AcDbEntity
  8
RACCORDO
100
AcDbLine
 62
250
  6
CONTINUOUS
 10
16.5206957177
 20
-11.2141839512
 30
0.0
 11
16.4237789619
 21
-11.311100707
 31
0.0
  0
LINE
  5
376
100
AcDbEntity
  8
SMUSSO
100
AcDbLine
 62
7
  6
CONTINUOUS
 10
4.0706053841
 20
-25.6444388016
 30
0.0
 11
3.9737637384
 21
-25.7412804473
 31
0.0
  0
LINE
  5
377
100
AcDbEntity
  8
RACCORDO
100
AcDbLine
 62
250
  6
CONTINUOUS
 10
23.2418787949
 20
-12.4442496809
 30
0.0
 11
23.2418787949
 21
-12.9439450944
 31
0.0
  0
LINE
  5
378
100
AcDbEntity
  8
RACCORDO
100
AcDbLine
 62
250
  6
CONTINUOUS
 10
23.2418787949
 20
-20.1779517331
 30
0.0
 11
23.2418787949
 21
-19.6782563196
 31
0.0
  0
LINE
  5
379
100
AcDbEntity
  8
DRAFT
100
AcDbLine
 62
7
  6
CONTINUOUS
 10
16.2238094229
 20
-20.7722141731
 30
0.0
 11
16.5030904617
 21
-20.2134818612
 31
0.0
  0
LINE
  5
37A
100
AcDbEntity
  8
RACCORDO
100
AcDbLine
 62
250
  6
CONTINUOUS
 10
-7.6430416032
 20
23.7069686651
 30
0.0
 11
-7.1433461897
 21
23.7069686651
 31
0.0
  0
LINE
  5
37B
100
AcDbEntity
  8
RACCORDO
100
AcDbLine
 62
250
  6
CONTINUOUS
 10
0.090660449
 20
23.7069686651
 30
0.0
 11
-0.4090349645
 21
23.7069686651
 31
0.0
  0
LINE
  5
37C
100
AcDbEntity
  8
RACCORDO
100
AcDbLine
 62
250
  6
CONTINUOUS
 10
24.7409650355
 20
-14.4430313349
 30
0.0
 11
24.7409650355
 21
-18.179170079
 31
0.0
  0
LINE
  5
37D
100
AcDbEntity
  8
RACCORDO
100
AcDbLine
 62
250
  6
CONTINUOUS
 10
25.240660449
 20
-14.4430313349
 30
0.0
 11
25.240660449
 21
-18.179170079
 31
0.0
  0
LINE
  5
37E
100
AcDbEntity
  8
RACCORDO
100
AcDbLine
 62
7
  6
CONTINUOUS
 10
25.2761905771
 20
-18.2147002072
 30
0.0
 11
25.2761905771
 21
-14.4075012068
 31
0.0
  0
LINE
  5
37F
100
AcDbEntity
  8
SMUSSO
100
AcDbLine
 62
7
  6
CONTINUOUS
 10
9.0706053841
 20
-25.6444388016
 30
0.0
 11
8.9737637384
 21
-25.7412804473
 31
0.0
  0
LINE
  5
380
100
AcDbEntity
  8
RACCORDO
100
AcDbLine
 62
250
  6
CONTINUOUS
 10
23.2418787949
 20
-12.4442496809
 30
0.0
 11
23.2774089231
 21
-12.4087195527
 31
0.0
  0
LINE
  5
381
100
AcDbEntity
  8
RACCORDO
100
AcDbLine
 62
250
  6
CONTINUOUS
 10
-5.6442599492
 20
25.2060549056
 30
0.0
 11
-1.9081212051
 21
25.2060549056
 31
0.0
  0
LINE
  5
382
100
AcDbEntity
  8
RACCORDO
100
AcDbLine
 62
250
  6
CONTINUOUS
 10
-5.6442599492
 20
25.7057503191
 30
0.0
 11
-1.908121205
 21
25.7057503191
 31
0.0
  0
LINE
  5
383
100
AcDbEntity
  8
RACCORDO
100
AcDbLine
 62
7
  6
CONTINUOUS
 10
-1.8725910769
 20
25.7412804473
 30
0.0
 11
-5.6797900773
 21
25.7412804473
 31
0.0
  0
LINE
  5
384
100
AcDbEntity
  8
RACCORDO
100
AcDbLine
 62
250
  6
CONTINUOUS
 10
25.240660449
 20
-14.4430313349
 30
0.0
 11
25.2761905771
 21
-14.4075012068
 31
0.0
  0
ARC
  5
385
100
AcDbEntity
  8
RACCORDO
100
AcDbCircle
 62
250
  6
CONTINUOUS
 10
-18.7776364056
 20
-210.4573867813
 30
0.0
 40
186.1197115029
100
AcDbArc
 50
89.9995549108
 51
90.2276339599
  0
ARC
  5
386
100
AcDbEntity
  8
RACCORDO
100
AcDbCircle
 62
250
  6
CONTINUOUS
 10
-13.7375846606
 20
-205.1881810955
 30
0.0
 40
180.0884284946
100
AcDbArc
 50
89.379894914
 51
90.0122826109
  0
ARC
  5
387
100
AcDbEntity
  8
RACCORDO
100
AcDbCircle
 62
250
  6
CONTINUOUS
 10
-18.7775701702
 20
-188.7936314984
 30
0.0
 40
164.2559866811
100
AcDbArc
 50
89.9995187703
 51
90.2423107598
  0
ARC
  5
388
100
AcDbEntity
  8
RACCORDO
100
AcDbCircle
 62
250
  6
CONTINUOUS
 10
-13.6105350438
 20
-164.2003935215
 30
0.0
 40
141.1128154709
100
AcDbArc
 50
89.2081888504
 51
90.06726083
  0
ARC
  5
389
100
AcDbEntity
  8
RACCORDO
100
AcDbCircle
 62
250
  6
CONTINUOUS
 10
-13.6205864911
 20
-147.8353721433
 30
0.0
 40
124.5478245225
100
AcDbArc
 50
89.157176329
 51
90.071582621
  0
ARC
  5
38A
100
AcDbEntity
  8
RACCORDO
100
AcDbCircle
 62
250
  6
CONTINUOUS
 10
-21.4962395932
 20
14.4089483062
 30
0.0
 40
2.0002153773
100
AcDbArc
 50
90.011131996
 51
179.9851731943
  0
ARC
  5
38B
100
AcDbEntity
  8
RACCORDO
100
AcDbCircle
 62
250
  6
CONTINUOUS
 10
-21.4962397555
 20
-21.0311498882
 30
0.0
 40
2.0002153773
100
AcDbArc
 50
180.0111272674
 51
269.9851779229
  0
ARC
  5
38C
100
AcDbEntity
  8
RACCORDO
100
AcDbCircle
 62
250
  6
CONTINUOUS
 10
-1.9084868327
 20
23.7066030375
 30
0.0
 40
1.9991378216
100
AcDbArc
 50
0.0104789273
 51
89.9895210726
  0
ARC
  5
38D
100
AcDbEntity
  8
RACCORDO
100
AcDbCircle
 62
250
  6
CONTINUOUS
 10
-5.6438945284
 20
23.7066032443
 30
0.0
 40
1.9991378216
100
AcDbArc
 50
90.010473
 51
179.9895269999
  0
ARC
  5
38E
100
AcDbEntity
  8
RACCORDO
100
AcDbCircle
 62
250
  6
CONTINUOUS
 10
-1.9077797702
 20
23.7073100999
 30
0.0
 40
1.4987324009
100
AcDbArc
 50
359.9869472281
 51
90.0130527721
  0
ARC
  5
38F
100
AcDbEntity
  8
RACCORDO
100
AcDbCircle
 62
250
  6
CONTINUOUS
 10
-5.6446210722
 20
23.7073297881
 30
0.0
 40
1.4987084842
100
AcDbArc
 50
89.9861943853
 51
180.0138056148
  0
CIRCLE
  5
390
100
AcDbEntity
  8
DRAFT
100
AcDbCircle
 62
7
  6
CONTINUOUS
 10
-3.7761905771
 20
21.688899293
 30
0.0
 40
1.4738174026
  0
ARC
  5
391
100
AcDbEntity
  8
RACCORDO
100
AcDbCircle
 62
250
  6
CONTINUOUS
 10
-21.3791103024
 20
-25.1442001726
 30
0.0
 40
0.5001348229
100
AcDbArc
 50
180.023844153
 51
269.976155847
  0
ARC
  5
392
100
AcDbEntity
  8
RACCORDO
100
AcDbCircle
 62
250
  6
CONTINUOUS
 10
-21.4967874472
 20
14.4094961631
 30
0.0
 40
0.4998924427
100
AcDbArc
 50
89.9965330283
 51
180.0034669718
  0
ARC
  5
393
100
AcDbEntity
  8
RACCORDO
100
AcDbCircle
 62
250
  6
CONTINUOUS
 10
-21.4967874472
 20
-21.0316975771
 30
0.0
 40
0.4998924427
100
AcDbArc
 50
179.9965330283
 51
270.0034669718
  0
ARC
  5
394
100
AcDbEntity
  8
RACCORDO
100
AcDbCircle
 62
250
  6
CONTINUOUS
 10
-17.037759557
 20
-24.1377555348
 30
0.0
 40
0.3998887596
100
AcDbArc
 50
269.9878543085
 51
30.0122508881
  0
ARC
  5
395
100
AcDbEntity
  8
RACCORDO
100
AcDbCircle
 62
250
  6
CONTINUOUS
 10
-17.1641756132
 20
-23.2314350093
 30
0.0
 40
0.2000761851
100
AcDbArc
 50
90.0509660551
 51
209.9490335772
  0
ARC
  5
396
100
AcDbEntity
  8
RACCORDO
100
AcDbCircle
 62
250
  6
CONTINUOUS
 10
-17.164175613
 20
16.6092335954
 30
0.0
 40
0.2000761852
100
AcDbArc
 50
150.0509665671
 51
269.9490335431
  0
ARC
  5
397
100
AcDbEntity
  8
RACCORDO
100
AcDbCircle
 62
250
  6
CONTINUOUS
 10
-19.3882055411
 20
16.6092335953
 30
0.0
 40
0.2000761853
100
AcDbArc
 50
270.0509660619
 51
29.9490335704
  0
ARC
  5
398
100
AcDbEntity
  8
RACCORDO
100
AcDbCircle
 62
250
  6
CONTINUOUS
 10
-19.3882055412
 20
-23.2314350094
 30
0.0
 40
0.2000761854
100
AcDbArc
 50
330.050966581
 51
89.9490335293
  0
ARC
  5
399
100
AcDbEntity
  8
RACCORDO
100
AcDbCircle
 62
250
  6
CONTINUOUS
 10
-19.3782276413
 20
17.4368061855
 30
0.0
 40
0.2000609894
100
AcDbArc
 50
90.0446535784
 51
209.9553464197
  0
ARC
  5
39A
100
AcDbEntity
  8
RACCORDO
100
AcDbCircle
 62
250
  6
CONTINUOUS
 10
-19.3782276413
 20
-24.0590075995
 30
0.0
 40
0.2000609894
100
AcDbArc
 50
150.0446535784
 51
269.9553464197
  0
ARC
  5
39B
100
AcDbEntity
  8
RACCORDO
100
AcDbCircle
 62
250
  6
CONTINUOUS
 10
-17.0666616669
 20
-23.2877347124
 30
0.0
 40
0.2000609637
100
AcDbArc
 50
90.0445894671
 51
209.9554105329
  0
ARC
  5
39C
100
AcDbEntity
  8
RACCORDO
100
AcDbCircle
 62
250
  6
CONTINUOUS
 10
-17.174151363
 20
17.4368073835
 30
0.0
 40
0.2000590524
100
AcDbArc
 50
330.0440488685
 51
89.955961884
  0
ARC
  5
39D
100
AcDbEntity
  8
RACCORDO
100
AcDbCircle
 62
250
  6
CONTINUOUS
 10
-17.1741514005
 20
-24.0590088624
 30
0.0
 40
0.2000590524
100
AcDbArc
 50
270.0440488671
 51
29.9559618857
  0
ARC
  5
39E
100
AcDbEntity
  8
RACCORDO
100
AcDbCircle
 62
250
  6
CONTINUOUS
 10
-19.4880625189
 20
-23.2890874623
 30
0.0
 40
0.2000587454
100
AcDbArc
 50
330.0439054714
 51
89.9560945286
  0
ARC
  5
39F
100
AcDbEntity
  8
RACCORDO
100
AcDbCircle
 62
250
  6
CONTINUOUS
 10
-22.0792879399
 20
-23.293702179
 30
0.0
 40
0.2000456693
100
AcDbArc
 50
0.0212768631
 51
77.6621265624
  0
ARC
  5
3A0
100
AcDbEntity
  8
RACCORDO
100
AcDbCircle
 62
250
  6
CONTINUOUS
 10
-24.0731500454
 20
-11.0141412387
 30
0.0
 40
0.2000430909
100
AcDbArc
 50
270.0209581928
 51
359.9790418072
  0
ARC
  5
3A1
100
AcDbEntity
  8
RACCORDO
100
AcDbCircle
 62
250
  6
CONTINUOUS
 10
-24.0731499963
 20
4.3919398738
 30
0.0
 40
0.2000430909
100
AcDbArc
 50
0.0209441259
 51
89.9790558741
  0
ARC
  5
3A2
100
AcDbEntity
  8
RACCORDO
100
AcDbCircle
 62
250
  6
CONTINUOUS
 10
-24.9792311088
 20
4.3919398247
 30
0.0
 40
0.2000430909
100
AcDbArc
 50
90.0209581929
 51
179.9790418071
  0
ARC
  5
3A3
100
AcDbEntity
  8
RACCORDO
100
AcDbCircle
 62
250
  6
CONTINUOUS
 10
-24.9792311088
 20
-11.0141412387
 30
0.0
 40
0.2000430909
100
AcDbArc
 50
180.0209581914
 51
269.9790418085
  0
ARC
  5
3A4
100
AcDbEntity
  8
RACCORDO
100
AcDbCircle
 62
7
  6
CONTINUOUS
 10
-25.0762332356
 20
4.4889419516
 30
0.0
 40
0.1999569277
100
AcDbArc
 50
89.9965049109
 51
180.0034950891
  0
ARC
  5
3A5
100
AcDbEntity
  8
RACCORDO
100
AcDbCircle
 62
7
  6
CONTINUOUS
 10
-25.0762332356
 20
-11.1111433655
 30
0.0
 40
0.1999569277
100
AcDbArc
 50
179.9965049109
 51
270.0034950891
  0
ARC
  5
3A6
100
AcDbEntity
  8
RACCORDO
100
AcDbCircle
 62
250
  6
CONTINUOUS
 10
-17.0376012789
 20
-24.1378460685
 30
0.0
 40
0.1998274342
100
AcDbArc
 50
269.9303125456
 51
30.0696874544
  0
ARC
  5
3A7
100
AcDbEntity
  8
RACCORDO
100
AcDbCircle
 62
250
  6
CONTINUOUS
 10
13.9438584361
 20
14.4089483091
 30
0.0
 40
2.0002153773
100
AcDbArc
 50
0.011131996
 51
89.9851731943
  0
ARC
  5
3A8
100
AcDbEntity
  8
RACCORDO
100
AcDbCircle
 62
250
  6
CONTINUOUS
 10
13.9438586041
 20
-21.0311498853
 30
0.0
 40
2.0002153773
100
AcDbArc
 50
270.0111272682
 51
359.9851779229
  0
ARC
  5
3A9
100
AcDbEntity
  8
RACCORDO
100
AcDbCircle
 62
250
  6
CONTINUOUS
 10
23.2415131673
 20
-14.4433969625
 30
0.0
 40
1.9991378216
100
AcDbArc
 50
0.0104789273
 51
89.9895210726
  0
ARC
  5
3AA
100
AcDbEntity
  8
RACCORDO
100
AcDbCircle
 62
250
  6
CONTINUOUS
 10
23.2415131673
 20
-18.1788044514
 30
0.0
 40
1.9991378216
100
AcDbArc
 50
270.0104789273
 51
359.9895210726
  0
ARC
  5
3AB
100
AcDbEntity
  8
RACCORDO
100
AcDbCircle
 62
250
  6
CONTINUOUS
 10
23.2422202298
 20
-14.4426899001
 30
0.0
 40
1.4987324009
100
AcDbArc
 50
359.9869472284
 51
90.0130527718
  0
ARC
  5
3AC
100
AcDbEntity
  8
RACCORDO
100
AcDbCircle
 62
250
  6
CONTINUOUS
 10
23.2422202299
 20
-18.179511514
 30
0.0
 40
1.4987324008
100
AcDbArc
 50
269.9869472241
 51
0.0130527761
  0
CIRCLE
  5
3AD
100
AcDbEntity
  8
DRAFT
100
AcDbCircle
 62
7
  6
CONTINUOUS
 10
21.2238094229
 20
-16.311100707
 30
0.0
 40
1.4738174026
  0
ARC
  5
3AE
100
AcDbEntity
  8
RACCORDO
100
AcDbCircle
 62
250
  6
CONTINUOUS
 10
13.8267291485
 20
-25.1442001729
 30
0.0
 40
0.5001348226
100
AcDbArc
 50
270.0238441151
 51
359.9761558849
  0
ARC
  5
3AF
100
AcDbEntity
  8
RACCORDO
100
AcDbCircle
 62
250
  6
CONTINUOUS
 10
13.944406062
 20
-21.0316974016
 30
0.0
 40
0.4998926927
100
AcDbArc
 50
269.9965595048
 51
0.0034468616
  0
ARC
  5
3B0
100
AcDbEntity
  8
RACCORDO
100
AcDbCircle
 62
250
  6
CONTINUOUS
 10
13.9444061175
 20
14.4094959321
 30
0.0
 40
0.4998926927
100
AcDbArc
 50
359.9965595046
 51
90.0034468617
  0
ARC
  5
3B1
100
AcDbEntity
  8
RACCORDO
100
AcDbCircle
 62
250
  6
CONTINUOUS
 10
14.5269067856
 20
-23.2937021789
 30
0.0
 40
0.2000456692
100
AcDbArc
 50
102.3378734166
 51
179.9787232701
  0
ARC
  5
3B2
100
AcDbEntity
  8
RACCORDO
100
AcDbCircle
 62
250
  6
CONTINUOUS
 10
17.4268499546
 20
-11.0141412387
 30
0.0
 40
0.2000430909
100
AcDbArc
 50
270.0209581928
 51
359.9790418072
  0
ARC
  5
3B3
100
AcDbEntity
  8
RACCORDO
100
AcDbCircle
 62
250
  6
CONTINUOUS
 10
17.4268500037
 20
4.3919398738
 30
0.0
 40
0.2000430909
100
AcDbArc
 50
0.0209441259
 51
89.9790558741
  0
ARC
  5
3B4
100
AcDbEntity
  8
RACCORDO
100
AcDbCircle
 62
250
  6
CONTINUOUS
 10
16.5207688421
 20
4.3919398738
 30
0.0
 40
0.2000430909
100
AcDbArc
 50
90.0209441268
 51
179.9790558732
  0
ARC
  5
3B5
100
AcDbEntity
  8
RACCORDO
100
AcDbCircle
 62
250
  6
CONTINUOUS
 10
16.5207688912
 20
-11.0141412387
 30
0.0
 40
0.2000430909
100
AcDbArc
 50
180.0209581929
 51
269.9790418071
  0
ARC
  5
3B6
100
AcDbEntity
  8
RACCORDO
100
AcDbCircle
 62
7
  6
CONTINUOUS
 10
17.5238521247
 20
-11.1111434088
 30
0.0
 40
0.1999569277
100
AcDbArc
 50
269.9964925066
 51
0.0035074934
  0
ARC
  5
3B7
100
AcDbEntity
  8
RACCORDO
100
AcDbCircle
 62
7
  6
CONTINUOUS
 10
17.5238521247
 20
4.4889419948
 30
0.0
 40
0.1999569277
100
AcDbArc
 50
359.9964925066
 51
90.0035074934
  0
SPLINE
  5
3B8
100
AcDbEntity
  8
RACCORDO
100
AcDbSpline
 62
250
  6
CONTINUOUS
 70
0
 71
3
 72
23
 73
19
 74
0
 42
0.0000001
 43
0.0000001
 44
0.0000000001
 40
0.0
 40
0.0
 40
0.0
 40
0.0
 40
0.1928297743
 40
0.378452575
 40
0.5498911565
 40
0.628246819
 40
0.7006909182
 40
0.7665313055
 40
0.825149262
 40
0.8759914102
 40
0.918582985
 40
0.9525313496
 40
0.9661638034
 40
0.9775267833
 40
0.986595847
 40
0.993356938
 40
0.9978077002
 40
1.0
 40
1.0
 40
1.0
 40
1.0
 10
-25.1312526116
 20
1.5924394518
 30
0.0
 10
-25.1312526539
 20
1.7724822953
 30
0.0
 10
-25.1318416255
 20
2.1258392492
 30
0.0
 10
-25.1344757408
 20
2.6392602413
 30
0.0
 10
-25.138127305
 20
3.0457889386
 30
0.0
 10
-25.141935571
 20
3.3466352299
 30
0.0
 10
-25.145056966
 20
3.5488857077
 30
0.0
 10
-25.1484970909
 20
3.7326995166
 30
0.0
 10
-25.1522200082
 20
3.8963332007
 30
0.0
 10
-25.1561788637
 20
4.038249091
 30
0.0
 10
-25.1603377628
 20
4.1571087245
 30
0.0
 10
-25.1641143779
 20
4.2412284499
 30
0.0
 10
-25.1673540738
 20
4.2961560429
 30
0.0
 10
-25.1695919643
 20
4.3279120046
 30
0.0
 10
-25.1719029091
 20
4.3531243081
 30
0.0
 10
-25.1739990497
 20
4.3721238187
 30
0.0
 10
-25.176388277
 20
4.384083447
 30
0.0
 10
-25.1778267735
 20
4.3905652585
 30
0.0
 10
-25.1792738214
 20
4.3920129982
 30
0.0
  0
SPLINE
  5
3B9
100
AcDbEntity
  8
RACCORDO
100
AcDbSpline
 62
250
  6
CONTINUOUS
 70
0
 71
3
 72
23
 73
19
 74
0
 42
0.0000001
 43
0.0000001
 44
0.0000000001
 40
0.0
 40
0.0
 40
0.0
 40
0.0
 40
0.0021923005
 40
0.0066430561
 40
0.0134041493
 40
0.0224732197
 40
0.0338362012
 40
0.0474686516
 40
0.0814170126
 40
0.1240085907
 40
0.1748507382
 40
0.2334686939
 40
0.2993090816
 40
0.371753181
 40
0.4501088433
 40
0.6215474252
 40
0.8071702249
 40
1.0
 40
1.0
 40
1.0
 40
1.0
 10
-25.1792738214
 20
-11.0142144122
 30
0.0
 10
-25.177826783
 20
-11.012766662
 30
0.0
 10
-25.1763882703
 20
-11.0062848751
 30
0.0
 10
-25.1739990509
 20
-10.9943252368
 30
0.0
 10
-25.1719029077
 20
-10.9753257304
 30
0.0
 10
-25.1695919656
 20
-10.9501134142
 30
0.0
 10
-25.1673540741
 20
-10.9183574489
 30
0.0
 10
-25.1641143775
 20
-10.8634298605
 30
0.0
 10
-25.1603377624
 20
-10.7793101389
 30
0.0
 10
-25.156178864
 20
-10.6604505062
 30
0.0
 10
-25.1522200082
 20
-10.5185346142
 30
0.0
 10
-25.1484970909
 20
-10.3549009311
 30
0.0
 10
-25.145056966
 20
-10.1710871224
 30
0.0
 10
-25.1419355711
 20
-9.9688366442
 30
0.0
 10
-25.1381273049
 20
-9.6679903527
 30
0.0
 10
-25.1344757409
 20
-9.2614616561
 30
0.0
 10
-25.1318416254
 20
-8.7480406638
 30
0.0
 10
-25.1312526536
 20
-8.3946837101
 30
0.0
 10
-25.1312526116
 20
-8.2146408657
 30
0.0
  0
SPLINE
  5
3BA
100
AcDbEntity
  8
RACCORDO
100
AcDbSpline
 62
250
  6
CONTINUOUS
 70
0
 71
3
 72
23
 73
19
 74
0
 42
0.0000001
 43
0.0000001
 44
0.0000000001
 40
0.0
 40
0.0
 40
0.0
 40
0.0
 40
0.0021923357
 40
0.006642926
 40
0.0134038554
 40
0.0224727951
 40
0.0338356661
 40
0.0474679129
 40
0.0814158988
 40
0.124006948
 40
0.1748482044
 40
0.233465759
 40
0.2993056192
 40
0.3717494785
 40
0.4501051443
 40
0.6215443832
 40
0.8071684805
 40
1.0
 40
1.0
 40
1.0
 40
1.0
 10
17.6268926671
 20
-11.0142144122
 30
0.0
 10
17.6254458217
 20
-11.0127664227
 30
0.0
 10
17.6240070051
 20
-11.0062851461
 30
0.0
 10
17.6216179703
 20
-10.9943254971
 30
0.0
 10
17.619521751
 20
-10.9753265633
 30
0.0
 10
17.617210862
 20
-10.9501145672
 30
0.0
 10
17.6149729769
 20
-10.9183590384
 30
0.0
 10
17.6117332803
 20
-10.8634320851
 30
0.0
 10
17.6079567052
 20
-10.7793134028
 30
0.0
 10
17.6037978444
 20
-10.6604554435
 30
0.0
 10
17.5998389602
 20
-10.5185412542
 30
0.0
 10
17.5961161031
 20
-10.3549092687
 30
0.0
 10
17.5926759586
 20
-10.171096552
 30
0.0
 10
17.5895545593
 20
-9.9688467872
 30
0.0
 10
17.5857462822
 20
-9.6680001032
 30
0.0
 10
17.5820946357
 20
-9.2614695789
 30
0.0
 10
17.579460487
 20
-8.7480451328
 30
0.0
 10
17.578871498
 20
-8.3946853388
 30
0.0
 10
17.5788714574
 20
-8.2146408657
 30
0.0
  0
SPLINE
  5
3BB
100
AcDbEntity
  8
RACCORDO
100
AcDbSpline
 62
250
  6
CONTINUOUS
 70
0
 71
3
 72
23
 73
19
 74
0
 42
0.0000001
 43
0.0000001
 44
0.0000000001
 40
0.0
 40
0.0
 40
0.0
 40
0.0
 40
0.1928315186
 40
0.3784556171
 40
0.5498948555
 40
0.6282505216
 40
0.7006943807
 40
0.7665342407
 40
0.8251517958
 40
0.8759930526
 40
0.9185840997
 40
0.9525320878
 40
0.966164337
 40
0.9775272072
 40
0.9865961426
 40
0.9933570699
 40
0.9978076636
 40
1.0
 40
1.0
 40
1.0
 40
1.0
 10
17.5788714574
 20
1.5924394518
 30
0.0
 10
17.5788714984
 20
1.772483924
 30
0.0
 10
17.5794604871
 20
2.1258437182
 30
0.0
 10
17.5820946355
 20
2.6392681641
 30
0.0
 10
17.5857462823
 20
3.0457986892
 30
0.0
 10
17.5895545592
 20
3.3466453729
 30
0.0
 10
17.5926759586
 20
3.5488951375
 30
0.0
 10
17.5961161031
 20
3.7327078544
 30
0.0
 10
17.5998389602
 20
3.8963398404
 30
0.0
 10
17.6037978441
 20
4.0382540287
 30
0.0
 10
17.6079567055
 20
4.1571119885
 30
0.0
 10
17.6117332805
 20
4.2412306732
 30
0.0
 10
17.6149729766
 20
4.29615763
 30
0.0
 10
17.6172108613
 20
4.3279131566
 30
0.0
 10
17.6195217515
 20
4.3531251449
 30
0.0
 10
17.6216179701
 20
4.3721240783
 30
0.0
 10
17.6240070084
 20
4.3840837238
 30
0.0
 10
17.6254458177
 20
4.390565012
 30
0.0
 10
17.6268926671
 20
4.3920129982
 30
0.0
  0
SPLINE
  5
3BC
100
AcDbEntity
  8
RACCORDO
100
AcDbSpline
 62
250
  6
CONTINUOUS
 70
0
 71
3
 72
23
 73
19
 74
0
 42
0.0000001
 43
0.0000001
 44
0.0000000001
 40
0.0
 40
0.0
 40
0.0
 40
0.0
 40
0.0021710473
 40
0.0066114352
 40
0.0133658766
 40
0.0224303028
 40
0.0337900416
 40
0.0474201791
 40
0.0813659813
 40
0.1239567663
 40
0.1747993123
 40
0.2334193297
 40
0.2992625457
 40
0.3717104336
 40
0.4500707197
 40
0.6215205749
 40
0.8071562908
 40
1.0
 40
1.0
 40
1.0
 40
1.0
 10
16.5206953847
 20
4.5919828948
 30
0.0
 10
16.5221770387
 20
4.5903950997
 30
0.0
 10
16.5235571715
 20
4.583476314
 30
0.0
 10
16.5259865264
 20
4.5706600711
 30
0.0
 10
16.5280602696
 20
4.5503172554
 30
0.0
 10
16.5303800863
 20
4.5233034679
 30
0.0
 10
16.5326144931
 20
4.4892820546
 30
0.0
 10
16.5358558372
 20
4.4304296343
 30
0.0
 10
16.5396313991
 20
4.340302188
 30
0.0
 10
16.5437906916
 20
4.2129540754
 30
0.0
 10
16.5477494262
 20
4.0609025098
 30
0.0
 10
16.5514723459
 20
3.885581465
 30
0.0
 10
16.5549124811
 20
3.6886383424
 30
0.0
 10
16.5580338882
 20
3.4719415112
 30
0.0
 10
16.5618421577
 20
3.1496049979
 30
0.0
 10
16.5654937784
 20
2.7140370741
 30
0.0
 10
16.5681279031
 20
2.1639413808
 30
0.0
 10
16.5687168833
 20
1.7853434068
 30
0.0
 10
16.5687169274
 20
1.5924394518
 30
0.0
  0
SPLINE
  5
3BD
100
AcDbEntity
  8
RACCORDO
100
AcDbSpline
 62
250
  6
CONTINUOUS
 70
0
 71
3
 72
23
 73
19
 74
0
 42
0.0000001
 43
0.0000001
 44
0.0000000001
 40
0.0
 40
0.0
 40
0.0
 40
0.0
 40
0.1928429016
 40
0.3784779032
 40
0.5499272257
 40
0.6282873382
 40
0.7007351256
 40
0.7665783209
 40
0.8251984041
 40
0.8760411048
 40
0.9186321349
 40
0.9525782831
 40
0.9662086272
 40
0.9775685843
 40
0.9866332466
 40
0.9933879781
 40
0.9978287094
 40
1.0
 40
1.0
 40
1.0
 40
1.0
 10
17.3789019184
 20
1.5924394518
 30
0.0
 10
17.378901963
 20
1.7853425696
 30
0.0
 10
17.3794909378
 20
2.1639389638
 30
0.0
 10
17.3821250402
 20
2.7140325184
 30
0.0
 10
17.3857766308
 20
3.1495989554
 30
0.0
 10
17.3895848682
 20
3.471934613
 30
0.0
 10
17.3927062509
 20
3.6886311167
 30
0.0
 10
17.3961463603
 20
3.8855741543
 30
0.0
 10
17.399869253
 20
4.060895373
 30
0.0
 10
17.4038279609
 20
4.2129473817
 30
0.0
 10
17.4079872283
 20
4.3402962233
 30
0.0
 10
17.4117627667
 20
4.4304244531
 30
0.0
 10
17.4150040862
 20
4.4892776414
 30
0.0
 10
17.4172384817
 20
4.5232997056
 30
0.0
 10
17.4195582974
 20
4.550314255
 30
0.0
 10
17.4216320383
 20
4.5706579014
 30
0.0
 10
17.4240614164
 20
4.583475095
 30
0.0
 10
17.4254414608
 20
4.5903944222
 30
0.0
 10
17.4269231281
 20
4.5919825373
 30
0.0
  0
SPLINE
  5
3BE
100
AcDbEntity
  8
RACCORDO
100
AcDbSpline
 62
250
  6
CONTINUOUS
 70
0
 71
3
 72
23
 73
19
 74
0
 42
0.0000001
 43
0.0000001
 44
0.0000000001
 40
0.0
 40
0.0
 40
0.0
 40
0.0
 40
0.1928429016
 40
0.3784779032
 40
0.5499272257
 40
0.6282873382
 40
0.7007351256
 40
0.7665783209
 40
0.8251984041
 40
0.8760411048
 40
0.9186321349
 40
0.9525782831
 40
0.9662086272
 40
0.9775685843
 40
0.9866332466
 40
0.9933879781
 40
0.9978287094
 40
1.0
 40
1.0
 40
1.0
 40
1.0
 10
16.5687169274
 20
-8.2146408657
 30
0.0
 10
16.5687168827
 20
-8.4075439836
 30
0.0
 10
16.568127908
 20
-8.7861403777
 30
0.0
 10
16.5654938056
 20
-9.3362339323
 30
0.0
 10
16.561842215
 20
-9.7718003694
 30
0.0
 10
16.5580339775
 20
-10.094136027
 30
0.0
 10
16.5549125949
 20
-10.3108325307
 30
0.0
 10
16.5514724855
 20
-10.5077755682
 30
0.0
 10
16.5477495927
 20
-10.683096787
 30
0.0
 10
16.5437908849
 20
-10.8351487957
 30
0.0
 10
16.5396316174
 20
-10.9624976372
 30
0.0
 10
16.5358560791
 20
-11.052625867
 30
0.0
 10
16.5326147595
 20
-11.1114790554
 30
0.0
 10
16.530380364
 20
-11.1455011195
 30
0.0
 10
16.5280605484
 20
-11.1725156689
 30
0.0
 10
16.5259868075
 20
-11.1928593153
 30
0.0
 10
16.5235574294
 20
-11.205676509
 30
0.0
 10
16.522177385
 20
-11.2125958361
 30
0.0
 10
16.5206957177
 20
-11.2141839512
 30
0.0
  0
SPLINE
  5
3BF
100
AcDbEntity
  8
RACCORDO
100
AcDbSpline
 62
250
  6
CONTINUOUS
 70
0
 71
3
 72
23
 73
19
 74
0
 42
0.0000001
 43
0.0000001
 44
0.0000000001
 40
0.0
 40
0.0
 40
0.0
 40
0.0
 40
0.0021710473
 40
0.0066114352
 40
0.0133658766
 40
0.0224303028
 40
0.0337900416
 40
0.0474201791
 40
0.0813659813
 40
0.1239567663
 40
0.1747993123
 40
0.2334193297
 40
0.2992625457
 40
0.3717104336
 40
0.4500707197
 40
0.6215205749
 40
0.8071562908
 40
1.0
 40
1.0
 40
1.0
 40
1.0
 10
17.426923461
 20
-11.2141843087
 30
0.0
 10
17.425441807
 20
-11.2125965136
 30
0.0
 10
17.4240616742
 20
-11.205677728
 30
0.0
 10
17.4216323193
 20
-11.1928614851
 30
0.0
 10
17.4195585762
 20
-11.1725186693
 30
0.0
 10
17.4172387594
 20
-11.1455048819
 30
0.0
 10
17.4150043527
 20
-11.1114834685
 30
0.0
 10
17.4117630085
 20
-11.0526310483
 30
0.0
 10
17.4079874466
 20
-10.962503602
 30
0.0
 10
17.4038281542
 20
-10.8351554893
 30
0.0
 10
17.3998694195
 20
-10.6831039237
 30
0.0
 10
17.3961464999
 20
-10.5077828789
 30
0.0
 10
17.3927063646
 20
-10.3108397564
 30
0.0
 10
17.3895849575
 20
-10.0941429252
 30
0.0
 10
17.385776688
 20
-9.7718064119
 30
0.0
 10
17.3821250674
 20
-9.336238488
 30
0.0
 10
17.3794909427
 20
-8.7861427948
 30
0.0
 10
17.3789019625
 20
-8.4075448208
 30
0.0
 10
17.3789019184
 20
-8.2146408657
 30
0.0
  0
SPLINE
  5
3C0
100
AcDbEntity
  8
RACCORDO
100
AcDbSpline
 62
250
  6
CONTINUOUS
 70
0
 71
3
 72
23
 73
19
 74
0
 42
0.0000001
 43
0.0000001
 44
0.0000000001
 40
0.0
 40
0.0
 40
0.0
 40
0.0
 40
0.0021710473
 40
0.0066114352
 40
0.0133658766
 40
0.0224303028
 40
0.0337900416
 40
0.0474201791
 40
0.0813659813
 40
0.1239567663
 40
0.1747993123
 40
0.2334193297
 40
0.2992625457
 40
0.3717104336
 40
0.4500707197
 40
0.6215205749
 40
0.8071562908
 40
1.0
 40
1.0
 40
1.0
 40
1.0
 10
-24.073076539
 20
-11.2141843087
 30
0.0
 10
-24.074558193
 20
-11.2125965136
 30
0.0
 10
-24.0759383258
 20
-11.205677728
 30
0.0
 10
-24.0783676807
 20
-11.1928614851
 30
0.0
 10
-24.0804414238
 20
-11.1725186693
 30
0.0
 10
-24.0827612406
 20
-11.1455048819
 30
0.0
 10
-24.0849956473
 20
-11.1114834685
 30
0.0
 10
-24.0882369915
 20
-11.0526310483
 30
0.0
 10
-24.0920125534
 20
-10.962503602
 30
0.0
 10
-24.0961718458
 20
-10.8351554893
 30
0.0
 10
-24.1001305805
 20
-10.6831039237
 30
0.0
 10
-24.1038535001
 20
-10.5077828789
 30
0.0
 10
-24.1072936354
 20
-10.3108397564
 30
0.0
 10
-24.1104150425
 20
-10.0941429252
 30
0.0
 10
-24.114223312
 20
-9.7718064119
 30
0.0
 10
-24.1178749326
 20
-9.336238488
 30
0.0
 10
-24.1205090573
 20
-8.7861427948
 30
0.0
 10
-24.1210980375
 20
-8.4075448208
 30
0.0
 10
-24.1210980816
 20
-8.2146408657
 30
0.0
  0
SPLINE
  5
3C1
100
AcDbEntity
  8
RACCORDO
100
AcDbSpline
 62
250
  6
CONTINUOUS
 70
0
 71
3
 72
23
 73
19
 74
0
 42
0.0000001
 43
0.0000001
 44
0.0000000001
 40
0.0
 40
0.0
 40
0.0
 40
0.0
 40
0.0021712721
 40
0.0066120714
 40
0.0133668841
 40
0.0224316247
 40
0.03379166
 40
0.0474221908
 40
0.0813686887
 40
0.1239602067
 40
0.1748037852
 40
0.2334243576
 40
0.299268241
 40
0.371716388
 40
0.4500765344
 40
0.6215251443
 40
0.8071588367
 40
1.0
 40
1.0
 40
1.0
 40
1.0
 10
-24.9793042823
 20
-11.2141839512
 30
0.0
 10
-24.9778225135
 20
-11.2125959561
 30
0.0
 10
-24.9764426313
 20
-11.205676389
 30
0.0
 10
-24.9740131365
 20
-11.1928592087
 30
0.0
 10
-24.971939436
 20
-11.1725152631
 30
0.0
 10
-24.9696195867
 20
-11.1455005055
 30
0.0
 10
-24.9673851805
 20
-11.1114780875
 30
0.0
 10
-24.9641438664
 20
-11.052624288
 30
0.0
 10
-24.9603682889
 20
-10.9624950312
 30
0.0
 10
-24.9562089835
 20
-10.8351444751
 30
0.0
 10
-24.9522503038
 20
-10.6830906089
 30
0.0
 10
-24.9485273536
 20
-10.5077673352
 30
0.0
 10
-24.9450872662
 20
-10.3108227592
 30
0.0
 10
-24.9419658857
 20
-10.0941251733
 30
0.0
 10
-24.9381576558
 20
-9.7717898346
 30
0.0
 10
-24.934506145
 20
-9.336225385
 30
0.0
 10
-24.9318720758
 20
-8.7861355911
 30
0.0
 10
-24.9312831181
 20
-8.4075422449
 30
0.0
 10
-24.9312830726
 20
-8.2146408657
 30
0.0
  0
SPLINE
  5
3C2
100
AcDbEntity
  8
RACCORDO
100
AcDbSpline
 62
250
  6
CONTINUOUS
 70
0
 71
3
 72
23
 73
19
 74
0
 42
0.0000001
 43
0.0000001
 44
0.0000000001
 40
0.0
 40
0.0
 40
0.0
 40
0.0
 40
0.0021923357
 40
0.006642926
 40
0.0134038554
 40
0.0224727951
 40
0.0338356661
 40
0.0474679129
 40
0.0814158988
 40
0.124006948
 40
0.1748482044
 40
0.233465759
 40
0.2993056192
 40
0.3717494785
 40
0.4501051443
 40
0.6215443832
 40
0.8071684805
 40
1.0
 40
1.0
 40
1.0
 40
1.0
 10
-23.8731073329
 20
-11.0142144122
 30
0.0
 10
-23.8745541783
 20
-11.0127664227
 30
0.0
 10
-23.8759929949
 20
-11.0062851461
 30
0.0
 10
-23.8783820297
 20
-10.9943254971
 30
0.0
 10
-23.880478249
 20
-10.9753265633
 30
0.0
 10
-23.882789138
 20
-10.9501145672
 30
0.0
 10
-23.8850270231
 20
-10.9183590384
 30
0.0
 10
-23.8882667197
 20
-10.8634320851
 30
0.0
 10
-23.8920432948
 20
-10.7793134028
 30
0.0
 10
-23.8962021556
 20
-10.6604554435
 30
0.0
 10
-23.9001610398
 20
-10.5185412542
 30
0.0
 10
-23.9038838969
 20
-10.3549092687
 30
0.0
 10
-23.9073240414
 20
-10.171096552
 30
0.0
 10
-23.9104454407
 20
-9.9688467872
 30
0.0
 10
-23.9142537178
 20
-9.6680001032
 30
0.0
 10
-23.9179053643
 20
-9.2614695789
 30
0.0
 10
-23.920539513
 20
-8.7480451328
 30
0.0
 10
-23.921128502
 20
-8.3946853388
 30
0.0
 10
-23.9211285426
 20
-8.2146408657
 30
0.0
  0
SPLINE
  5
3C3
100
AcDbEntity
  8
RACCORDO
100
AcDbSpline
 62
250
  6
CONTINUOUS
 70
0
 71
3
 72
23
 73
19
 74
0
 42
0.0000001
 43
0.0000001
 44
0.0000000001
 40
0.0
 40
0.0
 40
0.0
 40
0.0
 40
0.1928315186
 40
0.3784556171
 40
0.5498948555
 40
0.6282505216
 40
0.7006943807
 40
0.7665342407
 40
0.8251517958
 40
0.8759930526
 40
0.9185840997
 40
0.9525320878
 40
0.966164337
 40
0.9775272072
 40
0.9865961426
 40
0.9933570699
 40
0.9978076636
 40
1.0
 40
1.0
 40
1.0
 40
1.0
 10
-23.9211285426
 20
1.5924394518
 30
0.0
 10
-23.9211285016
 20
1.772483924
 30
0.0
 10
-23.9205395129
 20
2.1258437182
 30
0.0
 10
-23.9179053645
 20
2.6392681641
 30
0.0
 10
-23.9142537177
 20
3.0457986892
 30
0.0
 10
-23.9104454408
 20
3.3466453729
 30
0.0
 10
-23.9073240414
 20
3.5488951375
 30
0.0
 10
-23.9038838969
 20
3.7327078544
 30
0.0
 10
-23.9001610398
 20
3.8963398404
 30
0.0
 10
-23.8962021559
 20
4.0382540287
 30
0.0
 10
-23.8920432945
 20
4.1571119885
 30
0.0
 10
-23.8882667195
 20
4.2412306732
 30
0.0
 10
-23.8850270234
 20
4.29615763
 30
0.0
 10
-23.8827891387
 20
4.3279131566
 30
0.0
 10
-23.8804782485
 20
4.3531251449
 30
0.0
 10
-23.8783820299
 20
4.3721240783
 30
0.0
 10
-23.8759929916
 20
4.3840837238
 30
0.0
 10
-23.8745541823
 20
4.390565012
 30
0.0
 10
-23.8731073329
 20
4.3920129982
 30
0.0
  0
SPLINE
  5
3C4
100
AcDbEntity
  8
RACCORDO
100
AcDbSpline
 62
250
  6
CONTINUOUS
 70
0
 71
3
 72
23
 73
19
 74
0
 42
0.0000001
 43
0.0000001
 44
0.0000000001
 40
0.0
 40
0.0
 40
0.0
 40
0.0
 40
0.0021923357
 40
0.006642926
 40
0.0134038554
 40
0.0224727951
 40
0.0338356661
 40
0.0474679129
 40
0.0814158988
 40
0.124006948
 40
0.1748482044
 40
0.233465759
 40
0.2993056192
 40
0.3717494785
 40
0.4501051443
 40
0.6215443832
 40
0.8071684805
 40
1.0
 40
1.0
 40
1.0
 40
1.0
 10
16.3207261786
 20
4.3920129982
 30
0.0
 10
16.322173024
 20
4.3905650088
 30
0.0
 10
16.3236118407
 20
4.3840837322
 30
0.0
 10
16.3260008754
 20
4.3721240831
 30
0.0
 10
16.3280970948
 20
4.3531251494
 30
0.0
 10
16.3304079837
 20
4.3279131533
 30
0.0
 10
16.3326458689
 20
4.2961576245
 30
0.0
 10
16.3358855655
 20
4.2412306711
 30
0.0
 10
16.3396621405
 20
4.1571119889
 30
0.0
 10
16.3438210014
 20
4.0382540296
 30
0.0
 10
16.3477798856
 20
3.8963398402
 30
0.0
 10
16.3515027427
 20
3.7327078548
 30
0.0
 10
16.3549428872
 20
3.5488951381
 30
0.0
 10
16.3580642865
 20
3.3466453733
 30
0.0
 10
16.3618725636
 20
3.0457986892
 30
0.0
 10
16.3655242101
 20
2.639268165
 30
0.0
 10
16.3681583588
 20
2.1258437189
 30
0.0
 10
16.3687473477
 20
1.7724839248
 30
0.0
 10
16.3687473884
 20
1.5924394518
 30
0.0
  0
SPLINE
  5
3C5
100
AcDbEntity
  8
RACCORDO
100
AcDbSpline
 62
250
  6
CONTINUOUS
 70
0
 71
3
 72
23
 73
19
 74
0
 42
0.0000001
 43
0.0000001
 44
0.0000000001
 40
0.0
 40
0.0
 40
0.0
 40
0.0
 40
0.1928315186
 40
0.3784556171
 40
0.5498948555
 40
0.6282505216
 40
0.7006943807
 40
0.7665342407
 40
0.8251517958
 40
0.8759930526
 40
0.9185840997
 40
0.9525320878
 40
0.966164337
 40
0.9775272072
 40
0.9865961426
 40
0.9933570699
 40
0.9978076636
 40
1.0
 40
1.0
 40
1.0
 40
1.0
 10
16.3687473884
 20
-8.2146408657
 30
0.0
 10
16.3687473473
 20
-8.394685338
 30
0.0
 10
16.3681583587
 20
-8.7480451322
 30
0.0
 10
16.3655242103
 20
-9.2614695781
 30
0.0
 10
16.3618725635
 20
-9.6680001032
 30
0.0
 10
16.3580642865
 20
-9.9688467869
 30
0.0
 10
16.3549428872
 20
-10.1710965515
 30
0.0
 10
16.3515027427
 20
-10.3549092683
 30
0.0
 10
16.3477798855
 20
-10.5185412544
 30
0.0
 10
16.3438210016
 20
-10.6604554427
 30
0.0
 10
16.3396621403
 20
-10.7793134024
 30
0.0
 10
16.3358855652
 20
-10.8634320872
 30
0.0
 10
16.3326458691
 20
-10.9183590439
 30
0.0
 10
16.3304079845
 20
-10.9501145706
 30
0.0
 10
16.3280970943
 20
-10.9753265589
 30
0.0
 10
16.3260008756
 20
-10.9943254922
 30
0.0
 10
16.3236118374
 20
-11.0062851377
 30
0.0
 10
16.3221730281
 20
-11.0127664259
 30
0.0
 10
16.3207261786
 20
-11.0142144122
 30
0.0
  0
SPLINE
  5
3C6
100
AcDbEntity
  8
RACCORDO
100
AcDbSpline
 62
250
  6
CONTINUOUS
 70
0
 71
3
 72
23
 73
19
 74
0
 42
0.0000001
 43
0.0000001
 44
0.0000000001
 40
0.0
 40
0.0
 40
0.0
 40
0.0
 40
0.1928429016
 40
0.3784779032
 40
0.5499272257
 40
0.6282873382
 40
0.7007351256
 40
0.7665783209
 40
0.8251984041
 40
0.8760411048
 40
0.9186321349
 40
0.9525782831
 40
0.9662086272
 40
0.9775685843
 40
0.9866332466
 40
0.9933879781
 40
0.9978287094
 40
1.0
 40
1.0
 40
1.0
 40
1.0
 10
-24.1210980816
 20
1.5924394518
 30
0.0
 10
-24.121098037
 20
1.7853425696
 30
0.0
 10
-24.1205090622
 20
2.1639389638
 30
0.0
 10
-24.1178749598
 20
2.7140325184
 30
0.0
 10
-24.1142233692
 20
3.1495989554
 30
0.0
 10
-24.1104151318
 20
3.471934613
 30
0.0
 10
-24.1072937491
 20
3.6886311167
 30
0.0
 10
-24.1038536397
 20
3.8855741543
 30
0.0
 10
-24.100130747
 20
4.060895373
 30
0.0
 10
-24.0961720391
 20
4.2129473817
 30
0.0
 10
-24.0920127717
 20
4.3402962233
 30
0.0
 10
-24.0882372333
 20
4.4304244531
 30
0.0
 10
-24.0849959138
 20
4.4892776414
 30
0.0
 10
-24.0827615183
 20
4.5232997056
 30
0.0
 10
-24.0804417026
 20
4.550314255
 30
0.0
 10
-24.0783679617
 20
4.5706579014
 30
0.0
 10
-24.0759385836
 20
4.583475095
 30
0.0
 10
-24.0745585392
 20
4.5903944222
 30
0.0
 10
-24.0730768719
 20
4.5919825373
 30
0.0
  0
SPLINE
  5
3C7
100
AcDbEntity
  8
RACCORDO
100
AcDbSpline
 62
250
  6
CONTINUOUS
 70
0
 71
3
 72
23
 73
19
 74
0
 42
0.0000001
 43
0.0000001
 44
0.0000000001
 40
0.0
 40
0.0
 40
0.0
 40
0.0
 40
0.1928411633
 40
0.3784748557
 40
0.5499234655
 40
0.628283612
 40
0.7007317589
 40
0.7665756423
 40
0.8251962148
 40
0.8760397932
 40
0.9186313112
 40
0.9525778092
 40
0.9662083401
 40
0.977568375
 40
0.9866331152
 40
0.9933879286
 40
0.9978287297
 40
1.0
 40
1.0
 40
1.0
 40
1.0
 10
-24.9312830726
 20
1.5924394518
 30
0.0
 10
-24.9312831185
 20
1.785340831
 30
0.0
 10
-24.9318720759
 20
2.1639341771
 30
0.0
 10
-24.9345061449
 20
2.714023971
 30
0.0
 10
-24.9381576559
 20
3.1495884206
 30
0.0
 10
-24.9419658857
 20
3.4719237594
 30
0.0
 10
-24.9450872662
 20
3.6886213453
 30
0.0
 10
-24.9485273537
 20
3.8855659212
 30
0.0
 10
-24.9522503038
 20
4.060889195
 30
0.0
 10
-24.9562089835
 20
4.2129430611
 30
0.0
 10
-24.960368289
 20
4.3402936173
 30
0.0
 10
-24.9641438664
 20
4.4304228744
 30
0.0
 10
-24.9673851805
 20
4.4892766735
 30
0.0
 10
-24.9696195864
 20
4.5232990913
 30
0.0
 10
-24.9719394367
 20
4.5503138474
 30
0.0
 10
-24.9740131354
 20
4.5706577983
 30
0.0
 10
-24.9764426339
 20
4.5834749729
 30
0.0
 10
-24.9778225092
 20
4.5903945486
 30
0.0
 10
-24.9793042823
 20
4.5919825373
 30
0.0
  0
SPLINE
  5
3C8
100
AcDbEntity
  8
SMUSSO
100
AcDbSpline
 62
7
  6
CONTINUOUS
 70
0
 71
3
 72
23
 73
19
 74
0
 42
0.0000001
 43
0.0000001
 44
0.0000000001
 40
0.0
 40
0.0
 40
0.0
 40
0.0
 40
0.1887397737
 40
0.3739968274
 40
0.5474150797
 40
0.6270265294
 40
0.7006578594
 40
0.7674688837
 40
0.8267612365
 40
0.8779009164
 40
0.9204159327
 40
0.9539250981
 40
0.9672615322
 40
0.9783224933
 40
0.9871119648
 40
0.9936367168
 40
0.9979121948
 40
1.0
 40
1.0
 40
1.0
 40
1.0
 10
-18.7761904867
 20
-25.6075024547
 30
0.0
 10
-18.9117358988
 20
-25.6075008604
 30
0.0
 10
-19.1803258027
 20
-25.6079461448
 30
0.0
 10
-19.5734533185
 20
-25.6099272836
 30
0.0
 10
-19.8882021394
 20
-25.6127274781
 30
0.0
 10
-20.1227787591
 20
-25.6156832295
 30
0.0
 10
-20.2807941335
 20
-25.6181167953
 30
0.0
 10
-20.4242109245
 20
-25.6208052161
 30
0.0
 10
-20.5514667086
 20
-25.6237113786
 30
0.0
 10
-20.6612656973
 20
-25.6267985979
 30
0.0
 10
-20.7525304234
 20
-25.6300238337
 30
0.0
 10
-20.8166487183
 20
-25.6329442979
 30
0.0
 10
-20.8581502195
 20
-25.6354369793
 30
0.0
 10
-20.8819460327
 20
-25.6371451956
 30
0.0
 10
-20.9007477958
 20
-25.6389011721
 30
0.0
 10
-20.9148710356
 20
-25.6404840943
 30
0.0
 10
-20.9236904048
 20
-25.6422814362
 30
0.0
 10
-20.9284876326
 20
-25.6433545184
 30
0.0
 10
-20.9295232715
 20
-25.6444387641
 30
0.0
  0
SPLINE
  5
3C9
100
AcDbEntity
  8
SMUSSO
100
AcDbSpline
 62
7
  6
CONTINUOUS
 70
0
 71
3
 72
23
 73
19
 74
0
 42
0.0000001
 43
0.0000001
 44
0.0000000001
 40
0.0
 40
0.0
 40
0.0
 40
0.0
 40
0.0020926342
 40
0.0063728322
 40
0.0129024427
 40
0.0216973535
 40
0.0327647946
 40
0.0461092122
 40
0.0796403011
 40
0.122177368
 40
0.1733380599
 40
0.2326484791
 40
0.2994741133
 40
0.3731155002
 40
0.4527308368
 40
0.6261319937
 40
0.811337896
 40
1.0
 40
1.0
 40
1.0
 40
1.0
 10
-11.6228522446
 20
-25.6444387622
 30
0.0
 10
-11.6238937631
 20
-25.6433553427
 30
0.0
 10
-11.6286941318
 20
-25.642280309
 30
0.0
 10
-11.6375269436
 20
-25.6404830118
 30
0.0
 10
-11.6516593529
 20
-25.6388987113
 30
0.0
 10
-11.6704738904
 20
-25.6371423188
 30
0.0
 10
-11.6942837863
 20
-25.6354334243
 30
0.0
 10
-11.7358116361
 20
-25.6329399942
 30
0.0
 10
-11.7999673413
 20
-25.630019227
 30
0.0
 10
-11.8912789857
 20
-25.6267933615
 30
0.0
 10
-12.0011221332
 20
-25.6237061456
 30
0.0
 10
-12.1284167824
 20
-25.6208000937
 30
0.0
 10
-12.2718646037
 20
-25.6181120836
 30
0.0
 10
-12.429900858
 20
-25.6156790797
 30
0.0
 10
-12.6644757658
 20
-25.612724417
 30
0.0
 10
-12.9791790982
 20
-25.6099256629
 30
0.0
 10
-13.3722027281
 20
-25.6079457978
 30
0.0
 10
-13.6407007339
 20
-25.6075007054
 30
0.0
 10
-13.7761906776
 20
-25.607502553
 30
0.0
  0
SPLINE
  5
3CA
100
AcDbEntity
  8
SMUSSO
100
AcDbSpline
 62
7
  6
CONTINUOUS
 70
0
 71
3
 72
39
 73
35
 74
0
 42
0.0000001
 43
0.0000001
 44
0.0000000001
 40
0.0
 40
0.0
 40
0.0
 40
0.0
 40
0.0010340001
 40
0.0031554733
 40
0.0063981959
 40
0.0107730754
 40
0.016286724
 40
0.022944375
 40
0.0397078152
 40
0.0609889277
 40
0.0865545834
 40
0.1160982255
 40
0.1492109732
 40
0.1855043883
 40
0.2246501215
 40
0.3102289489
 40
0.4032078118
 40
0.5000448344
 40
0.5968781906
 40
0.6898467024
 40
0.7754165656
 40
0.8145612234
 40
0.8508546866
 40
0.8839667096
 40
0.913504941
 40
0.939060465
 40
0.9603294244
 40
0.977079131
 40
0.9837314828
 40
0.9892407261
 40
0.9936118285
 40
0.9968511385
 40
0.9989693113
 40
1.0
 40
1.0
 40
1.0
 40
1.0
 10
-6.6228108971
 20
-25.6444387507
 30
0.0
 10
-6.623834835
 20
-25.6433629596
 30
0.0
 10
-6.6285938043
 20
-25.6422967188
 30
0.0
 10
-6.637348318
 20
-25.6405072666
 30
0.0
 10
-6.6513916366
 20
-25.6389280702
 30
0.0
 10
-6.6701124798
 20
-25.6371731867
 30
0.0
 10
-6.6938407307
 20
-25.6354637253
 30
0.0
 10
-6.7353159329
 20
-25.6329646402
 30
0.0
 10
-6.799466855
 20
-25.6300389808
 30
0.0
 10
-6.8907738244
 20
-25.6268086358
 30
0.0
 10
-7.0004556534
 20
-25.6237237846
 30
0.0
 10
-7.1271402556
 20
-25.620828218
 30
0.0
 10
-7.2692420847
 20
-25.618158118
 30
0.0
 10
-7.4251420654
 20
-25.6157469159
 30
0.0
 10
-7.6564017493
 20
-25.6128136576
 30
0.0
 10
-7.9690882877
 20
-25.609997155
 30
0.0
 10
-8.3646468156
 20
-25.6079606259
 30
0.0
 10
-8.7763754395
 20
-25.6072719334
 30
0.0
 10
-9.1880891935
 20
-25.6079618519
 30
0.0
 10
-9.583614706
 20
-25.6099993995
 30
0.0
 10
-9.8962719473
 20
-25.6128167567
 30
0.0
 10
-10.1275172693
 20
-25.6157507784
 30
0.0
 10
-10.2834147203
 20
-25.6181628119
 30
0.0
 10
-10.4255077894
 20
-25.6208337851
 30
0.0
 10
-10.5521690055
 20
-25.6237298165
 30
0.0
 10
-10.6618110396
 20
-25.6268151821
 30
0.0
 10
-10.7530662181
 20
-25.6300449518
 30
0.0
 10
-10.8171724131
 20
-25.6329704633
 30
0.0
 10
-10.8586137748
 20
-25.6354687063
 30
0.0
 10
-10.8823230239
 20
-25.6371772899
 30
0.0
 10
-10.9010262761
 20
-25.6389316137
 30
0.0
 10
-10.9150567763
 20
-25.6405089307
 30
0.0
 10
-10.9237927161
 20
-25.6422983589
 30
0.0
 10
-10.9285472373
 20
-25.6433619454
 30
0.0
 10
-10.9295631875
 20
-25.6444387531
 30
0.0
  0
SPLINE
  5
3CB
100
AcDbEntity
  8
SMUSSO
100
AcDbSpline
 62
7
  6
CONTINUOUS
 70
0
 71
3
 72
39
 73
35
 74
0
 42
0.0000001
 43
0.0000001
 44
0.0000000001
 40
0.0
 40
0.0
 40
0.0
 40
0.0
 40
0.0010340001
 40
0.0031554733
 40
0.0063981959
 40
0.0107730754
 40
0.016286724
 40
0.022944375
 40
0.0397078152
 40
0.0609889277
 40
0.0865545834
 40
0.1160982255
 40
0.1492109732
 40
0.1855043883
 40
0.2246501215
 40
0.3102289489
 40
0.4032078118
 40
0.5000448344
 40
0.5968781906
 40
0.6898467024
 40
0.7754165656
 40
0.8145612234
 40
0.8508546866
 40
0.8839667096
 40
0.913504941
 40
0.939060465
 40
0.9603294244
 40
0.977079131
 40
0.9837314828
 40
0.9892407261
 40
0.9936118285
 40
0.9968511385
 40
0.9989693113
 40
1.0
 40
1.0
 40
1.0
 40
1.0
 10
-1.6228108971
 20
-25.6444387507
 30
0.0
 10
-1.623834835
 20
-25.6433629596
 30
0.0
 10
-1.6285938043
 20
-25.6422967188
 30
0.0
 10
-1.637348318
 20
-25.6405072666
 30
0.0
 10
-1.6513916366
 20
-25.6389280702
 30
0.0
 10
-1.6701124798
 20
-25.6371731867
 30
0.0
 10
-1.6938407307
 20
-25.6354637253
 30
0.0
 10
-1.7353159329
 20
-25.6329646402
 30
0.0
 10
-1.799466855
 20
-25.6300389808
 30
0.0
 10
-1.8907738244
 20
-25.6268086358
 30
0.0
 10
-2.0004556534
 20
-25.6237237846
 30
0.0
 10
-2.1271402556
 20
-25.620828218
 30
0.0
 10
-2.2692420847
 20
-25.618158118
 30
0.0
 10
-2.4251420654
 20
-25.6157469159
 30
0.0
 10
-2.6564017493
 20
-25.6128136576
 30
0.0
 10
-2.9690882877
 20
-25.609997155
 30
0.0
 10
-3.3646468156
 20
-25.6079606259
 30
0.0
 10
-3.7763754395
 20
-25.6072719334
 30
0.0
 10
-4.1880891935
 20
-25.6079618519
 30
0.0
 10
-4.583614706
 20
-25.6099993995
 30
0.0
 10
-4.8962719473
 20
-25.6128167567
 30
0.0
 10
-5.1275172693
 20
-25.6157507784
 30
0.0
 10
-5.2834147203
 20
-25.6181628119
 30
0.0
 10
-5.4255077894
 20
-25.6208337851
 30
0.0
 10
-5.5521690055
 20
-25.6237298165
 30
0.0
 10
-5.6618110396
 20
-25.6268151821
 30
0.0
 10
-5.7530662181
 20
-25.6300449518
 30
0.0
 10
-5.8171724131
 20
-25.6329704633
 30
0.0
 10
-5.8586137748
 20
-25.6354687063
 30
0.0
 10
-5.8823230239
 20
-25.6371772899
 30
0.0
 10
-5.9010262761
 20
-25.6389316137
 30
0.0
 10
-5.9150567763
 20
-25.6405089307
 30
0.0
 10
-5.9237927161
 20
-25.6422983589
 30
0.0
 10
-5.9285472373
 20
-25.6433619454
 30
0.0
 10
-5.9295631875
 20
-25.6444387531
 30
0.0
  0
SPLINE
  5
3CC
100
AcDbEntity
  8
SMUSSO
100
AcDbSpline
 62
7
  6
CONTINUOUS
 70
0
 71
3
 72
39
 73
35
 74
0
 42
0.0000001
 43
0.0000001
 44
0.0000000001
 40
0.0
 40
0.0
 40
0.0
 40
0.0
 40
0.0010340001
 40
0.0031554733
 40
0.0063981959
 40
0.0107730754
 40
0.016286724
 40
0.022944375
 40
0.0397078152
 40
0.0609889277
 40
0.0865545834
 40
0.1160982255
 40
0.1492109732
 40
0.1855043883
 40
0.2246501215
 40
0.3102289489
 40
0.4032078118
 40
0.5000448344
 40
0.5968781906
 40
0.6898467024
 40
0.7754165656
 40
0.8145612234
 40
0.8508546866
 40
0.8839667096
 40
0.913504941
 40
0.939060465
 40
0.9603294244
 40
0.977079131
 40
0.9837314828
 40
0.9892407261
 40
0.9936118285
 40
0.9968511385
 40
0.9989693113
 40
1.0
 40
1.0
 40
1.0
 40
1.0
 10
3.3771891029
 20
-25.6444387507
 30
0.0
 10
3.376165165
 20
-25.6433629596
 30
0.0
 10
3.3714061957
 20
-25.6422967188
 30
0.0
 10
3.362651682
 20
-25.6405072666
 30
0.0
 10
3.3486083634
 20
-25.6389280702
 30
0.0
 10
3.3298875202
 20
-25.6371731867
 30
0.0
 10
3.3061592693
 20
-25.6354637253
 30
0.0
 10
3.2646840671
 20
-25.6329646402
 30
0.0
 10
3.200533145
 20
-25.6300389808
 30
0.0
 10
3.1092261756
 20
-25.6268086358
 30
0.0
 10
2.9995443466
 20
-25.6237237846
 30
0.0
 10
2.8728597444
 20
-25.620828218
 30
0.0
 10
2.7307579153
 20
-25.618158118
 30
0.0
 10
2.5748579346
 20
-25.6157469159
 30
0.0
 10
2.3435982507
 20
-25.6128136576
 30
0.0
 10
2.0309117123
 20
-25.609997155
 30
0.0
 10
1.6353531844
 20
-25.6079606259
 30
0.0
 10
1.2236245605
 20
-25.6072719334
 30
0.0
 10
0.8119108065
 20
-25.6079618519
 30
0.0
 10
0.416385294
 20
-25.6099993995
 30
0.0
 10
0.1037280527
 20
-25.6128167567
 30
0.0
 10
-0.1275172693
 20
-25.6157507784
 30
0.0
 10
-0.2834147203
 20
-25.6181628119
 30
0.0
 10
-0.4255077894
 20
-25.6208337851
 30
0.0
 10
-0.5521690055
 20
-25.6237298165
 30
0.0
 10
-0.6618110396
 20
-25.6268151821
 30
0.0
 10
-0.7530662181
 20
-25.6300449518
 30
0.0
 10
-0.8171724131
 20
-25.6329704633
 30
0.0
 10
-0.8586137748
 20
-25.6354687063
 30
0.0
 10
-0.8823230239
 20
-25.6371772899
 30
0.0
 10
-0.9010262761
 20
-25.6389316137
 30
0.0
 10
-0.9150567763
 20
-25.6405089307
 30
0.0
 10
-0.9237927161
 20
-25.6422983589
 30
0.0
 10
-0.9285472373
 20
-25.6433619454
 30
0.0
 10
-0.9295631875
 20
-25.6444387531
 30
0.0
  0
SPLINE
  5
3CD
100
AcDbEntity
  8
SMUSSO
100
AcDbSpline
 62
7
  6
CONTINUOUS
 70
0
 71
3
 72
39
 73
35
 74
0
 42
0.0000001
 43
0.0000001
 44
0.0000000001
 40
0.0
 40
0.0
 40
0.0
 40
0.0
 40
0.0010340001
 40
0.0031554733
 40
0.0063981959
 40
0.0107730754
 40
0.016286724
 40
0.022944375
 40
0.0397078152
 40
0.0609889277
 40
0.0865545834
 40
0.1160982255
 40
0.1492109732
 40
0.1855043883
 40
0.2246501215
 40
0.3102289489
 40
0.4032078118
 40
0.5000448344
 40
0.5968781906
 40
0.6898467024
 40
0.7754165656
 40
0.8145612234
 40
0.8508546866
 40
0.8839667096
 40
0.913504941
 40
0.939060465
 40
0.9603294244
 40
0.977079131
 40
0.9837314828
 40
0.9892407261
 40
0.9936118285
 40
0.9968511385
 40
0.9989693113
 40
1.0
 40
1.0
 40
1.0
 40
1.0
 10
8.3771891029
 20
-25.6444387507
 30
0.0
 10
8.376165165
 20
-25.6433629596
 30
0.0
 10
8.3714061957
 20
-25.6422967188
 30
0.0
 10
8.362651682
 20
-25.6405072666
 30
0.0
 10
8.3486083634
 20
-25.6389280702
 30
0.0
 10
8.3298875202
 20
-25.6371731867
 30
0.0
 10
8.3061592693
 20
-25.6354637253
 30
0.0
 10
8.2646840671
 20
-25.6329646402
 30
0.0
 10
8.200533145
 20
-25.6300389808
 30
0.0
 10
8.1092261756
 20
-25.6268086358
 30
0.0
 10
7.9995443466
 20
-25.6237237846
 30
0.0
 10
7.8728597444
 20
-25.620828218
 30
0.0
 10
7.7307579153
 20
-25.618158118
 30
0.0
 10
7.5748579346
 20
-25.6157469159
 30
0.0
 10
7.3435982507
 20
-25.6128136576
 30
0.0
 10
7.0309117123
 20
-25.609997155
 30
0.0
 10
6.6353531844
 20
-25.6079606259
 30
0.0
 10
6.2236245605
 20
-25.6072719334
 30
0.0
 10
5.8119108065
 20
-25.6079618519
 30
0.0
 10
5.416385294
 20
-25.6099993995
 30
0.0
 10
5.1037280527
 20
-25.6128167567
 30
0.0
 10
4.8724827307
 20
-25.6157507784
 30
0.0
 10
4.7165852797
 20
-25.6181628119
 30
0.0
 10
4.5744922106
 20
-25.6208337851
 30
0.0
 10
4.4478309945
 20
-25.6237298165
 30
0.0
 10
4.3381889604
 20
-25.6268151821
 30
0.0
 10
4.2469337819
 20
-25.6300449518
 30
0.0
 10
4.1828275869
 20
-25.6329704633
 30
0.0
 10
4.1413862252
 20
-25.6354687063
 30
0.0
 10
4.1176769761
 20
-25.6371772899
 30
0.0
 10
4.0989737239
 20
-25.6389316137
 30
0.0
 10
4.0849432237
 20
-25.6405089307
 30
0.0
 10
4.0762072839
 20
-25.6422983589
 30
0.0
 10
4.0714527627
 20
-25.6433619454
 30
0.0
 10
4.0704368125
 20
-25.6444387531
 30
0.0
  0
SPLINE
  5
3CE
100
AcDbEntity
  8
SMUSSO
100
AcDbSpline
 62
7
  6
CONTINUOUS
 70
0
 71
3
 72
39
 73
35
 74
0
 42
0.0000001
 43
0.0000001
 44
0.0000000001
 40
0.0
 40
0.0
 40
0.0
 40
0.0
 40
0.0010340001
 40
0.0031554733
 40
0.0063981959
 40
0.0107730754
 40
0.016286724
 40
0.022944375
 40
0.0397078152
 40
0.0609889277
 40
0.0865545834
 40
0.1160982255
 40
0.1492109732
 40
0.1855043883
 40
0.2246501215
 40
0.3102289489
 40
0.4032078118
 40
0.5000448344
 40
0.5968781906
 40
0.6898467024
 40
0.7754165656
 40
0.8145612234
 40
0.8508546866
 40
0.8839667096
 40
0.913504941
 40
0.939060465
 40
0.9603294244
 40
0.977079131
 40
0.9837314828
 40
0.9892407261
 40
0.9936118285
 40
0.9968511385
 40
0.9989693113
 40
1.0
 40
1.0
 40
1.0
 40
1.0
 10
13.3771891029
 20
-25.6444387507
 30
0.0
 10
13.376165165
 20
-25.6433629596
 30
0.0
 10
13.3714061957
 20
-25.6422967188
 30
0.0
 10
13.362651682
 20
-25.6405072666
 30
0.0
 10
13.3486083634
 20
-25.6389280702
 30
0.0
 10
13.3298875202
 20
-25.6371731867
 30
0.0
 10
13.3061592693
 20
-25.6354637253
 30
0.0
 10
13.2646840671
 20
-25.6329646402
 30
0.0
 10
13.200533145
 20
-25.6300389808
 30
0.0
 10
13.1092261756
 20
-25.6268086358
 30
0.0
 10
12.9995443466
 20
-25.6237237846
 30
0.0
 10
12.8728597444
 20
-25.620828218
 30
0.0
 10
12.7307579153
 20
-25.618158118
 30
0.0
 10
12.5748579346
 20
-25.6157469159
 30
0.0
 10
12.3435982507
 20
-25.6128136576
 30
0.0
 10
12.0309117123
 20
-25.609997155
 30
0.0
 10
11.6353531844
 20
-25.6079606259
 30
0.0
 10
11.2236245605
 20
-25.6072719334
 30
0.0
 10
10.8119108065
 20
-25.6079618519
 30
0.0
 10
10.416385294
 20
-25.6099993995
 30
0.0
 10
10.1037280527
 20
-25.6128167567
 30
0.0
 10
9.8724827307
 20
-25.6157507784
 30
0.0
 10
9.7165852797
 20
-25.6181628119
 30
0.0
 10
9.5744922106
 20
-25.6208337851
 30
0.0
 10
9.4478309945
 20
-25.6237298165
 30
0.0
 10
9.3381889604
 20
-25.6268151821
 30
0.0
 10
9.2469337819
 20
-25.6300449518
 30
0.0
 10
9.1828275869
 20
-25.6329704633
 30
0.0
 10
9.1413862252
 20
-25.6354687063
 30
0.0
 10
9.1176769761
 20
-25.6371772899
 30
0.0
 10
9.0989737239
 20
-25.6389316137
 30
0.0
 10
9.0849432237
 20
-25.6405089307
 30
0.0
 10
9.0762072839
 20
-25.6422983589
 30
0.0
 10
9.0714527627
 20
-25.6433619454
 30
0.0
 10
9.0704368125
 20
-25.6444387531
 30
0.0
  0
LINE
  5
3CF
100
AcDbEntity
  8
RACCORDO
100
AcDbLine
 62
7
  6
CONTINUOUS
 10
-19.6933119173
 20
-24.040952052
 30
0.0
 11
-19.3333841257
 21
-23.4211470815
 31
0.0
  0
SPLINE
  5
3D0
100
AcDbEntity
  8
RACCORDO
100
AcDbSpline
 62
250
  6
CONTINUOUS
 70
0
 71
3
 72
10
 73
6
 74
0
 42
0.0000001
 43
0.0000001
 44
0.0000000001
 40
0.0
 40
0.0
 40
0.0
 40
0.0
 40
0.2454942551
 40
0.4944844659
 40
1.0
 40
1.0
 40
1.0
 40
1.0
 10
-18.8353959555
 20
-22.7186783132
 30
0.0
 10
-18.7827619239
 20
-22.6285284234
 30
0.0
 10
-18.6930674243
 20
-22.4376047258
 30
0.0
 10
-18.5404905206
 20
-22.040725646
 30
0.0
 10
-18.4401289172
 20
-21.7358206028
 30
0.0
 10
-18.3730237129
 20
-21.5316054969
 30
0.0
  0
SPLINE
  5
3D1
100
AcDbEntity
  8
RACCORDO
100
AcDbSpline
 62
250
  6
CONTINUOUS
 70
0
 71
3
 72
10
 73
6
 74
0
 42
0.0000001
 43
0.0000001
 44
0.0000000001
 40
0.0
 40
0.0
 40
0.0
 40
0.0
 40
0.5055165644
 40
0.7545063791
 40
1.0
 40
1.0
 40
1.0
 40
1.0
 10
-18.1793724878
 20
-21.5315794246
 30
0.0
 10
-18.1122561362
 20
-21.7357971046
 30
0.0
 10
-18.0118990005
 20
-22.0407134009
 30
0.0
 10
-17.8593069227
 20
-22.4375963539
 30
0.0
 10
-17.7696306575
 20
-22.6285362259
 30
0.0
 10
-17.716982615
 20
-22.7186807078
 30
0.0
  0
SPLINE
  5
3D2
100
AcDbEntity
  8
RACCORDO
100
AcDbSpline
 62
250
  6
CONTINUOUS
 70
0
 71
3
 72
10
 73
6
 74
0
 42
0.0000001
 43
0.0000001
 44
0.0000000001
 40
0.0
 40
0.0
 40
0.0
 40
0.0
 40
0.2454942551
 40
0.4944844659
 40
1.0
 40
1.0
 40
1.0
 40
1.0
 10
-17.7169851987
 20
16.0964768993
 30
0.0
 10
-17.7696192303
 20
16.0063270096
 30
0.0
 10
-17.8593137299
 20
15.8154033119
 30
0.0
 10
-18.0118906336
 20
15.4185242321
 30
0.0
 10
-18.112252237
 20
15.1136191888
 30
0.0
 10
-18.1793574413
 20
14.909404083
 30
0.0
  0
SPLINE
  5
3D3
100
AcDbEntity
  8
RACCORDO
100
AcDbSpline
 62
250
  6
CONTINUOUS
 70
0
 71
3
 72
10
 73
6
 74
0
 42
0.0000001
 43
0.0000001
 44
0.0000000001
 40
0.0
 40
0.0
 40
0.0
 40
0.0
 40
0.5055165644
 40
0.7545063791
 40
1.0
 40
1.0
 40
1.0
 40
1.0
 10
-18.3730086665
 20
14.9093780107
 30
0.0
 10
-18.4401250181
 20
15.1135956907
 30
0.0
 10
-18.5404821538
 20
15.418511987
 30
0.0
 10
-18.6930742316
 20
15.81539494
 30
0.0
 10
-18.7827504968
 20
16.006334812
 30
0.0
 10
-18.8353985393
 20
16.0964792939
 30
0.0
  0
SPLINE
  5
3D4
100
AcDbEntity
  8
RACCORDO
100
AcDbSpline
 62
7
  6
CONTINUOUS
 70
0
 71
3
 72
12
 73
8
 74
0
 42
0.0000001
 43
0.0000001
 44
0.0000000001
 40
0.0
 40
0.0
 40
0.0
 40
0.0
 40
0.2753249215
 40
0.5420995535
 40
0.7890456934
 40
0.9001710863
 40
1.0
 40
1.0
 40
1.0
 40
1.0
 10
-7.1433461897
 20
14.9093897621
 30
0.0
 10
-7.1992404213
 20
15.006201411
 30
0.0
 10
-7.3093672467
 20
15.1968177015
 30
0.0
 10
-7.4623682465
 20
15.4782153134
 30
0.0
 10
-7.5698451144
 20
15.7088040792
 30
0.0
 10
-7.6269037852
 20
15.8859694876
 30
0.0
 10
-7.6415093879
 20
15.971063669
 30
0.0
 10
-7.6430416032
 20
16.0115676105
 30
0.0
  0
SPLINE
  5
3D5
100
AcDbEntity
  8
RACCORDO
100
AcDbSpline
 62
7
  6
CONTINUOUS
 70
0
 71
3
 72
12
 73
8
 74
0
 42
0.0000001
 43
0.0000001
 44
0.0000000001
 40
0.0
 40
0.0
 40
0.0
 40
0.0
 40
0.0998045749
 40
0.2109231203
 40
0.45787358
 40
0.7246644318
 40
1.0
 40
1.0
 40
1.0
 40
1.0
 10
0.090660449
 20
16.0115676105
 30
0.0
 10
0.0891286064
 20
15.9710735218
 30
0.0
 10
0.0745250576
 20
15.8859922633
 30
0.0
 10
0.0174835022
 20
15.7088328207
 30
0.0
 10
-0.0899955291
 20
15.4782377177
 30
0.0
 10
-0.2430050436
 20
15.1968304513
 30
0.0
 10
-0.3531385408
 20
15.006205208
 30
0.0
 10
-0.4090349645
 20
14.9093897621
 30
0.0
  0
SPLINE
  5
3D6
100
AcDbEntity
  8
RACCORDO
100
AcDbSpline
 62
7
  6
CONTINUOUS
 70
0
 71
3
 72
12
 73
8
 74
0
 42
0.0000001
 43
0.0000001
 44
0.0000000001
 40
0.0
 40
0.0
 40
0.0
 40
0.0
 40
0.2753249215
 40
0.5420995535
 40
0.7890456934
 40
0.9001710863
 40
1.0
 40
1.0
 40
1.0
 40
1.0
 10
14.444299892
 20
-12.9439450944
 30
0.0
 10
14.5411115409
 20
-12.8880508628
 30
0.0
 10
14.7317278314
 20
-12.7779240374
 30
0.0
 10
15.0131254433
 20
-12.6249230376
 30
0.0
 10
15.2437142091
 20
-12.5174461697
 30
0.0
 10
15.4208796175
 20
-12.4603874989
 30
0.0
 10
15.5059737989
 20
-12.4457818962
 30
0.0
 10
15.5464777404
 20
-12.4442496809
 30
0.0
  0
SPLINE
  5
3D7
100
AcDbEntity
  8
RACCORDO
100
AcDbSpline
 62
7
  6
CONTINUOUS
 70
0
 71
3
 72
12
 73
8
 74
0
 42
0.0000001
 43
0.0000001
 44
0.0000000001
 40
0.0
 40
0.0
 40
0.0
 40
0.0
 40
0.0998045749
 40
0.2109231203
 40
0.45787358
 40
0.7246644318
 40
1.0
 40
1.0
 40
1.0
 40
1.0
 10
15.5464777404
 20
-20.1779517331
 30
0.0
 10
15.5059836516
 20
-20.1764198905
 30
0.0
 10
15.4209023932
 20
-20.1618163417
 30
0.0
 10
15.2437429505
 20
-20.1047747862
 30
0.0
 10
15.0131478475
 20
-19.997295755
 30
0.0
 10
14.7317405811
 20
-19.8442862405
 30
0.0
 10
14.5411153379
 20
-19.7341527433
 30
0.0
 10
14.444299892
 20
-19.6782563196
 30
0.0
  0
SPLINE
  5
3D8
100
AcDbEntity
  8
RACCORDO
100
AcDbSpline
 62
250
  6
CONTINUOUS
 70
0
 71
3
 72
10
 73
6
 74
0
 42
0.0000001
 43
0.0000001
 44
0.0000000001
 40
0.0
 40
0.0
 40
0.0
 40
0.0
 40
0.5001666879
 40
0.7502135677
 40
1.0
 40
1.0
 40
1.0
 40
1.0
 10
-18.1793711384
 20
-21.5315853003
 30
0.0
 10
-18.1594567901
 20
-21.7521257783
 30
0.0
 10
-18.1290987003
 20
-22.0837889012
 30
0.0
 10
-18.0297053069
 20
-22.5159660539
 30
0.0
 10
-17.9454643145
 20
-22.7228990758
 30
0.0
 10
-17.890161461
 20
-22.8186653244
 30
0.0
  0
SPLINE
  5
3D9
100
AcDbEntity
  8
RACCORDO
100
AcDbSpline
 62
250
  6
CONTINUOUS
 70
0
 71
3
 72
10
 73
6
 74
0
 42
0.0000001
 43
0.0000001
 44
0.0000000001
 40
0.0
 40
0.0
 40
0.0
 40
0.0
 40
0.5001666879
 40
0.7502135677
 40
1.0
 40
1.0
 40
1.0
 40
1.0
 10
-18.3730100158
 20
14.9093838864
 30
0.0
 10
-18.3929243641
 20
15.1299243643
 30
0.0
 10
-18.423282454
 20
15.4615874872
 30
0.0
 10
-18.5226758474
 20
15.8937646399
 30
0.0
 10
-18.6069168397
 20
16.1006976619
 30
0.0
 10
-18.6622196932
 20
16.1964639104
 30
0.0
  0
SPLINE
  5
3DA
100
AcDbEntity
  8
RACCORDO
100
AcDbSpline
 62
250
  6
CONTINUOUS
 70
0
 71
3
 72
21
 73
17
 74
0
 42
0.0000001
 43
0.0000001
 44
0.0000000001
 40
0.0
 40
0.0
 40
0.0
 40
0.0
 40
0.1770202901
 40
0.3499788003
 40
0.5144829015
 40
0.6654834285
 40
0.7340664492
 40
0.7968967876
 40
0.8530392437
 40
0.9015013152
 40
0.9412899771
 40
0.9714571028
 40
0.9826733397
 40
0.9911922709
 40
0.9969705487
 40
1.0
 40
1.0
 40
1.0
 40
1.0
 10
-18.1793621134
 20
14.9093969225
 30
0.0
 10
-18.1208374426
 20
14.9988390174
 30
0.0
 10
-18.0048787138
 20
15.1755060204
 30
0.0
 10
-17.8336583258
 20
15.43471556
 30
0.0
 10
-17.670296385
 20
15.6802847826
 30
0.0
 10
-17.5410934349
 20
15.8728812131
 30
0.0
 10
-17.4455127536
 20
16.0141030495
 30
0.0
 10
-17.3817274856
 20
16.1076820405
 30
0.0
 10
-17.3244338056
 20
16.1909795349
 30
0.0
 10
-17.2746226781
 20
16.2625422615
 30
0.0
 10
-17.2332767804
 20
16.3208674989
 30
0.0
 10
-17.2044492201
 20
16.3605372587
 30
0.0
 10
-17.1861869264
 20
16.3844693697
 30
0.0
 10
-17.1766147763
 20
16.3966091253
 30
0.0
 10
-17.169715827
 20
16.4043444898
 30
0.0
 10
-17.1659828145
 20
16.4083296147
 30
0.0
 10
-17.1643535839
 20
16.4091613048
 30
0.0
  0
SPLINE
  5
3DB
100
AcDbEntity
  8
RACCORDO
100
AcDbSpline
 62
250
  6
CONTINUOUS
 70
0
 71
3
 72
21
 73
17
 74
0
 42
0.0000001
 43
0.0000001
 44
0.0000000001
 40
0.0
 40
0.0
 40
0.0
 40
0.0
 40
0.1770071945
 40
0.3499817233
 40
0.5144839325
 40
0.6654915043
 40
0.7340705532
 40
0.7969066754
 40
0.8530474783
 40
0.9015120772
 40
0.9412960221
 40
0.9714639461
 40
0.9826761337
 40
0.9911937638
 40
0.996972964
 40
1.0
 40
1.0
 40
1.0
 40
1.0
 10
-18.3735321148
 20
14.9093838874
 30
0.0
 10
-18.4320439989
 20
14.9988063327
 30
0.0
 10
-18.5475722614
 20
15.1757207059
 30
0.0
 10
-18.7187842063
 20
15.4348834291
 30
0.0
 10
-18.8821887845
 20
15.6803878182
 30
0.0
 10
-19.011342487
 20
15.8729775741
 30
0.0
 10
-19.1069215915
 20
16.0141770202
 30
0.0
 10
-19.1706980877
 20
16.1077421797
 30
0.0
 10
-19.2279862857
 20
16.1910304673
 30
0.0
 10
-19.2777869105
 20
16.262582282
 30
0.0
 10
-19.319125129
 20
16.3208990582
 30
0.0
 10
-19.3479429752
 20
16.360561396
 30
0.0
 10
-19.3662039752
 20
16.3844852675
 30
0.0
 10
-19.3757761173
 20
16.3966193206
 30
0.0
 10
-19.3826761948
 20
16.4043483324
 30
0.0
 10
-19.3864077063
 20
16.4083338717
 30
0.0
 10
-19.3880363425
 20
16.4091629316
 30
0.0
  0
SPLINE
  5
3DC
100
AcDbEntity
  8
RACCORDO
100
AcDbSpline
 62
250
  6
CONTINUOUS
 70
0
 71
3
 72
21
 73
17
 74
0
 42
0.0000001
 43
0.0000001
 44
0.0000000001
 40
0.0
 40
0.0
 40
0.0
 40
0.0
 40
0.1770202901
 40
0.3499788003
 40
0.5144829015
 40
0.6654834285
 40
0.7340664492
 40
0.7968967876
 40
0.8530392437
 40
0.9015013152
 40
0.9412899771
 40
0.9714571028
 40
0.9826733397
 40
0.9911922709
 40
0.9969705487
 40
1.0
 40
1.0
 40
1.0
 40
1.0
 10
-18.3730190408
 20
-21.5315983365
 30
0.0
 10
-18.4315437116
 20
-21.6210404314
 30
0.0
 10
-18.5475024405
 20
-21.7977074343
 30
0.0
 10
-18.7187228284
 20
-22.056916974
 30
0.0
 10
-18.8820847692
 20
-22.3024861965
 30
0.0
 10
-19.0112877193
 20
-22.4950826271
 30
0.0
 10
-19.1068684006
 20
-22.6363044635
 30
0.0
 10
-19.1706536686
 20
-22.7298834545
 30
0.0
 10
-19.2279473486
 20
-22.8131809488
 30
0.0
 10
-19.2777584762
 20
-22.8847436754
 30
0.0
 10
-19.3191043738
 20
-22.9430689128
 30
0.0
 10
-19.3479319341
 20
-22.9827386727
 30
0.0
 10
-19.3661942278
 20
-23.0066707837
 30
0.0
 10
-19.3757663779
 20
-23.0188105393
 30
0.0
 10
-19.3826653272
 20
-23.0265459038
 30
0.0
 10
-19.3863983397
 20
-23.0305310286
 30
0.0
 10
-19.3880275703
 20
-23.0313627188
 30
0.0
  0
SPLINE
  5
3DD
100
AcDbEntity
  8
RACCORDO
100
AcDbSpline
 62
250
  6
CONTINUOUS
 70
0
 71
3
 72
21
 73
17
 74
0
 42
0.0000001
 43
0.0000001
 44
0.0000000001
 40
0.0
 40
0.0
 40
0.0
 40
0.0
 40
0.1770071946
 40
0.3499817233
 40
0.5144839326
 40
0.6654915044
 40
0.7340705533
 40
0.7969066755
 40
0.8530474784
 40
0.9015120773
 40
0.9412960222
 40
0.9714639462
 40
0.9826761338
 40
0.9911937638
 40
0.996972964
 40
1.0
 40
1.0
 40
1.0
 40
1.0
 10
-18.17884904
 20
-21.5315853004
 30
0.0
 10
-18.1203371559
 20
-21.6210077459
 30
0.0
 10
-18.0048088933
 20
-21.7979221192
 30
0.0
 10
-17.8335969482
 20
-22.0570848425
 30
0.0
 10
-17.67019237
 20
-22.3025892318
 30
0.0
 10
-17.5410386674
 20
-22.4951789878
 30
0.0
 10
-17.4454595628
 20
-22.636378434
 30
0.0
 10
-17.3816830666
 20
-22.7299435936
 30
0.0
 10
-17.3243948685
 20
-22.8132318812
 30
0.0
 10
-17.2745942437
 20
-22.884783696
 30
0.0
 10
-17.2332560252
 20
-22.9431004722
 30
0.0
 10
-17.204438179
 20
-22.9827628101
 30
0.0
 10
-17.186177179
 20
-23.0066866815
 30
0.0
 10
-17.1766050369
 20
-23.0188207346
 30
0.0
 10
-17.1697049594
 20
-23.0265497464
 30
0.0
 10
-17.1659734479
 20
-23.0305352856
 30
0.0
 10
-17.1643448117
 20
-23.0313643456
 30
0.0
  0
SPLINE
  5
3DE
100
AcDbEntity
  8
RACCORDO
100
AcDbSpline
 62
250
  6
CONTINUOUS
 70
0
 71
3
 72
17
 73
13
 74
0
 42
0.0000001
 43
0.0000001
 44
0.0000000001
 40
0.0
 40
0.0
 40
0.0
 40
0.0
 40
0.2246431619
 40
0.4215545571
 40
0.5902491429
 40
0.7303989816
 40
0.8416309382
 40
0.9235786709
 40
0.9534936401
 40
0.976062859
 40
0.9914060793
 40
1.0
 40
1.0
 40
1.0
 40
1.0
 10
-21.5802463137
 20
-23.1148518338
 30
0.0
 10
-21.6144770601
 20
-23.1159061742
 30
0.0
 10
-21.6787647434
 20
-23.1164873792
 30
0.0
 10
-21.7687240828
 20
-23.1137534091
 30
0.0
 10
-21.8456942522
 20
-23.109118027
 30
0.0
 10
-21.9095280854
 20
-23.1038715188
 30
0.0
 10
-21.9601276893
 20
-23.0993646239
 30
0.0
 10
-21.9940574748
 20
-23.0965530186
 30
0.0
 10
-22.0144974087
 20
-23.0956877247
 30
0.0
 10
-22.0249153111
 20
-23.0957137804
 30
0.0
 10
-22.0318389158
 20
-23.096367026
 30
0.0
 10
-22.0356121643
 20
-23.0973546275
 30
0.0
 10
-22.0365429449
 20
-23.0982766556
 30
0.0
  0
SPLINE
  5
3DF
100
AcDbEntity
  8
RACCORDO
100
AcDbSpline
 62
250
  6
CONTINUOUS
 70
0
 71
3
 72
17
 73
13
 74
0
 42
0.0000001
 43
0.0000001
 44
0.0000000001
 40
0.0
 40
0.0
 40
0.0
 40
0.0
 40
0.0085971882
 40
0.0239413661
 40
0.046515848
 40
0.0764365626
 40
0.1583758558
 40
0.2696091569
 40
0.4097691969
 40
0.5784491714
 40
0.7752863868
 40
1.0
 40
1.0
 40
1.0
 40
1.0
 10
14.4841617907
 20
-23.0982766556
 30
0.0
 10
14.4832347389
 20
-23.0973501477
 30
0.0
 10
14.479463265
 20
-23.0963477981
 30
0.0
 10
14.4725378227
 20
-23.0956911665
 30
0.0
 10
14.4621177581
 20
-23.0956791014
 30
0.0
 10
14.441678252
 20
-23.096561902
 30
0.0
 10
14.4077460301
 20
-23.099342757
 30
0.0
 10
14.3571478721
 20
-23.1038832033
 30
0.0
 10
14.2933110269
 20
-23.1090958929
 30
0.0
 10
14.2163537449
 20
-23.1137626671
 30
0.0
 10
14.126394965
 20
-23.1164721113
 30
0.0
 10
14.0621071574
 20
-23.1159052981
 30
0.0
 10
14.0278651593
 20
-23.1148518338
 30
0.0
  0
SPLINE
  5
3E0
100
AcDbEntity
  8
RACCORDO
100
AcDbSpline
 62
250
  6
CONTINUOUS
 70
0
 71
3
 72
10
 73
6
 74
0
 42
0.0000001
 43
0.0000001
 44
0.0000000001
 40
0.0
 40
0.0
 40
0.0
 40
0.0
 40
0.2498131895
 40
0.4998595661
 40
1.0
 40
1.0
 40
1.0
 40
1.0
 10
-17.8901640395
 20
16.1964604951
 30
0.0
 10
-17.9454350338
 20
16.1006636777
 30
0.0
 10
-18.029754937
 20
15.893761257
 30
0.0
 10
-18.1290764489
 20
15.4615623088
 30
0.0
 10
-18.1594758843
 20
15.1299259308
 30
0.0
 10
-18.1793590852
 20
14.9093969225
 30
0.0
  0
SPLINE
  5
3E1
100
AcDbEntity
  8
RACCORDO
100
AcDbSpline
 62
250
  6
CONTINUOUS
 70
0
 71
3
 72
11
 73
7
 74
0
 42
0.0000001
 43
0.0000001
 44
0.0000000001
 40
0.0
 40
0.0
 40
0.0
 40
0.0
 40
0.230718185
 40
0.4736348545
 40
0.7319143687
 40
1.0
 40
1.0
 40
1.0
 40
1.0
 10
14.0278651594
 20
-23.1148520625
 30
0.0
 10
14.0057005869
 20
-23.1150926916
 30
0.0
 10
13.9597639038
 20
-23.1266156483
 30
0.0
 10
13.9038338322
 20
-23.1722984947
 30
0.0
 10
13.8670469989
 20
-23.2381463317
 30
0.0
 10
13.8583037405
 20
-23.289066267
 30
0.0
 10
13.8581019922
 20
-23.3148213729
 30
0.0
  0
SPLINE
  5
3E2
100
AcDbEntity
  8
RACCORDO
100
AcDbSpline
 62
250
  6
CONTINUOUS
 70
0
 71
3
 72
11
 73
7
 74
0
 42
0.0000001
 43
0.0000001
 44
0.0000000001
 40
0.0
 40
0.0
 40
0.0
 40
0.0
 40
0.1982923317
 40
0.4308613226
 40
0.7032535971
 40
1.0
 40
1.0
 40
1.0
 40
1.0
 10
9.1080775484
 20
-23.1010530116
 30
0.0
 10
9.1251350245
 20
-23.1014112528
 30
0.0
 10
9.1622040498
 20
-23.11489037
 30
0.0
 10
9.2030226157
 20
-23.1617184381
 30
0.0
 10
9.2295974513
 20
-23.226314992
 30
0.0
 10
9.2359398701
 20
-23.2754911833
 30
0.0
 10
9.2361590544
 20
-23.3010225504
 30
0.0
  0
SPLINE
  5
3E3
100
AcDbEntity
  8
RACCORDO
100
AcDbSpline
 62
250
  6
CONTINUOUS
 70
0
 71
3
 72
11
 73
7
 74
0
 42
0.0000001
 43
0.0000001
 44
0.0000000001
 40
0.0
 40
0.0
 40
0.0
 40
0.0
 40
0.1982916132
 40
0.4308586299
 40
0.7032510857
 40
1.0
 40
1.0
 40
1.0
 40
1.0
 10
8.3395412973
 20
-23.1010530214
 30
0.0
 10
8.3224833874
 20
-23.1014099483
 30
0.0
 10
8.2854124212
 20
-23.1148867425
 30
0.0
 10
8.2445908795
 20
-23.1617145249
 30
0.0
 10
8.2180140164
 20
-23.2263124708
 30
0.0
 10
8.2116710738
 20
-23.2754902669
 30
0.0
 10
8.2114518655
 20
-23.3010225504
 30
0.0
  0
SPLINE
  5
3E4
100
AcDbEntity
  8
RACCORDO
100
AcDbSpline
 62
250
  6
CONTINUOUS
 70
0
 71
3
 72
11
 73
7
 74
0
 42
0.0000001
 43
0.0000001
 44
0.0000000001
 40
0.0
 40
0.0
 40
0.0
 40
0.0
 40
0.1982923317
 40
0.4308613234
 40
0.7032535981
 40
1.0
 40
1.0
 40
1.0
 40
1.0
 10
4.1080775484
 20
-23.1010530116
 30
0.0
 10
4.1251350245
 20
-23.1014112528
 30
0.0
 10
4.1622040499
 20
-23.1148903701
 30
0.0
 10
4.2030226161
 20
-23.1617184381
 30
0.0
 10
4.2295974526
 20
-23.2263149918
 30
0.0
 10
4.2359398707
 20
-23.2754911833
 30
0.0
 10
4.2361590544
 20
-23.3010225504
 30
0.0
  0
SPLINE
  5
3E5
100
AcDbEntity
  8
RACCORDO
100
AcDbSpline
 62
250
  6
CONTINUOUS
 70
0
 71
3
 72
26
 73
22
 74
0
 42
0.0000001
 43
0.0000001
 44
0.0000000001
 40
0.0
 40
0.0
 40
0.0
 40
0.0
 40
0.1451544061
 40
0.3095340737
 40
0.4802546072
 40
0.5638011336
 40
0.6439287195
 40
0.7190562867
 40
0.7877019863
 40
0.8485127844
 40
0.9002932495
 40
0.9224722182
 40
0.9420281306
 40
0.9588650155
 40
0.9729007798
 40
0.9840686974
 40
0.9923171065
 40
0.9953360461
 40
0.9976159521
 40
0.9991621909
 40
1.0
 40
1.0
 40
1.0
 40
1.0
 10
9.5563903616
 20
-25.6102236415
 30
0.0
 10
9.7630682572
 20
-25.6072154275
 30
0.0
 10
10.2038256626
 20
-25.6027040637
 30
0.0
 10
10.8877026147
 20
-25.5994844202
 30
0.0
 10
11.4838580169
 20
-25.5995579592
 30
0.0
 10
11.9600327089
 20
-25.6013811024
 30
0.0
 10
12.3000794857
 20
-25.6035836083
 30
0.0
 10
12.618900557
 20
-25.6065818548
 30
0.0
 10
12.9102050343
 20
-25.6103100345
 30
0.0
 10
13.1682499124
 20
-25.6146892095
 30
0.0
 10
13.3601165399
 20
-25.618976932
 30
0.0
 10
13.4932282634
 20
-25.6227781021
 30
0.0
 10
13.5765883604
 20
-25.6255804696
 30
0.0
 10
13.6483394886
 20
-25.6284679999
 30
0.0
 10
13.7081389515
 20
-25.6314079913
 30
0.0
 10
13.7556701714
 20
-25.6343994116
 30
0.0
 10
13.7875387259
 20
-25.6370428717
 30
0.0
 10
13.8066619959
 20
-25.6393496433
 30
0.0
 10
13.8163559
 20
-25.6408381505
 30
0.0
 10
13.8227124911
 20
-25.6423565172
 30
0.0
 10
13.8260929366
 20
-25.6434892883
 30
0.0
 10
13.8269372826
 20
-25.6443321546
 30
0.0
  0
SPLINE
  5
3E6
100
AcDbEntity
  8
RACCORDO
100
AcDbSpline
 62
250
  6
CONTINUOUS
 70
0
 71
3
 72
9
 73
5
 74
0
 42
0.0000001
 43
0.0000001
 44
0.0000000001
 40
0.0
 40
0.0
 40
0.0
 40
0.0
 40
0.4999998794
 40
1.0
 40
1.0
 40
1.0
 40
1.0
 10
7.8912284842
 20
-25.6102236415
 30
0.0
 10
8.1687317381
 20
-25.6142498823
 30
0.0
 10
8.7238093251
 20
-25.6167240586
 30
0.0
 10
9.2788870355
 20
-25.6142541321
 30
0.0
 10
9.5563903616
 20
-25.6102236415
 30
0.0
  0
SPLINE
  5
3E7
100
AcDbEntity
  8
RACCORDO
100
AcDbSpline
 62
250
  6
CONTINUOUS
 70
0
 71
3
 72
9
 73
5
 74
0
 42
0.0000001
 43
0.0000001
 44
0.0000000001
 40
0.0
 40
0.0
 40
0.0
 40
0.0
 40
0.4999999897
 40
1.0
 40
1.0
 40
1.0
 40
1.0
 10
4.5563903616
 20
-25.6102236415
 30
0.0
 10
5.1121489636
 20
-25.6021355521
 30
0.0
 10
6.2238094117
 20
-25.5972256056
 30
0.0
 10
7.335469859
 20
-25.6021355827
 30
0.0
 10
7.8912284842
 20
-25.6102236415
 30
0.0
  0
SPLINE
  5
3E8
100
AcDbEntity
  8
RACCORDO
100
AcDbSpline
 62
250
  6
CONTINUOUS
 70
0
 71
3
 72
9
 73
5
 74
0
 42
0.0000001
 43
0.0000001
 44
0.0000000001
 40
0.0
 40
0.0
 40
0.0
 40
0.0
 40
0.4999998794
 40
1.0
 40
1.0
 40
1.0
 40
1.0
 10
2.8912284842
 20
-25.6102236415
 30
0.0
 10
3.1687317381
 20
-25.6142498823
 30
0.0
 10
3.7238093251
 20
-25.6167240586
 30
0.0
 10
4.2788870355
 20
-25.6142541321
 30
0.0
 10
4.5563903616
 20
-25.6102236415
 30
0.0
  0
SPLINE
  5
3E9
100
AcDbEntity
  8
RACCORDO
100
AcDbSpline
 62
250
  6
CONTINUOUS
 70
0
 71
3
 72
9
 73
5
 74
0
 42
0.0000001
 43
0.0000001
 44
0.0000000001
 40
0.0
 40
0.0
 40
0.0
 40
0.0
 40
0.4999999897
 40
1.0
 40
1.0
 40
1.0
 40
1.0
 10
-0.4436096384
 20
-25.6102236415
 30
0.0
 10
0.1121489636
 20
-25.6021355521
 30
0.0
 10
1.2238094117
 20
-25.5972256056
 30
0.0
 10
2.335469859
 20
-25.6021355827
 30
0.0
 10
2.8912284842
 20
-25.6102236415
 30
0.0
  0
SPLINE
  5
3EA
100
AcDbEntity
  8
RACCORDO
100
AcDbSpline
 62
250
  6
CONTINUOUS
 70
0
 71
3
 72
9
 73
5
 74
0
 42
0.0000001
 43
0.0000001
 44
0.0000000001
 40
0.0
 40
0.0
 40
0.0
 40
0.0
 40
0.4999998794
 40
1.0
 40
1.0
 40
1.0
 40
1.0
 10
-2.1087715158
 20
-25.6102236415
 30
0.0
 10
-1.8312682619
 20
-25.6142498823
 30
0.0
 10
-1.2761906749
 20
-25.6167240586
 30
0.0
 10
-0.7211129645
 20
-25.6142541321
 30
0.0
 10
-0.4436096384
 20
-25.6102236415
 30
0.0
  0
SPLINE
  5
3EB
100
AcDbEntity
  8
RACCORDO
100
AcDbSpline
 62
250
  6
CONTINUOUS
 70
0
 71
3
 72
9
 73
5
 74
0
 42
0.0000001
 43
0.0000001
 44
0.0000000001
 40
0.0
 40
0.0
 40
0.0
 40
0.0
 40
0.4999999897
 40
1.0
 40
1.0
 40
1.0
 40
1.0
 10
-5.4436096384
 20
-25.6102236415
 30
0.0
 10
-4.8878510364
 20
-25.6021355521
 30
0.0
 10
-3.7761905883
 20
-25.5972256056
 30
0.0
 10
-2.664530141
 20
-25.6021355827
 30
0.0
 10
-2.1087715158
 20
-25.6102236415
 30
0.0
  0
SPLINE
  5
3EC
100
AcDbEntity
  8
RACCORDO
100
AcDbSpline
 62
250
  6
CONTINUOUS
 70
0
 71
3
 72
9
 73
5
 74
0
 42
0.0000001
 43
0.0000001
 44
0.0000000001
 40
0.0
 40
0.0
 40
0.0
 40
0.0
 40
0.4999998794
 40
1.0
 40
1.0
 40
1.0
 40
1.0
 10
-7.1087715158
 20
-25.6102236415
 30
0.0
 10
-6.8312682619
 20
-25.6142498823
 30
0.0
 10
-6.2761906749
 20
-25.6167240586
 30
0.0
 10
-5.7211129645
 20
-25.6142541321
 30
0.0
 10
-5.4436096384
 20
-25.6102236415
 30
0.0
  0
SPLINE
  5
3ED
100
AcDbEntity
  8
RACCORDO
100
AcDbSpline
 62
250
  6
CONTINUOUS
 70
0
 71
3
 72
9
 73
5
 74
0
 42
0.0000001
 43
0.0000001
 44
0.0000000001
 40
0.0
 40
0.0
 40
0.0
 40
0.0
 40
0.4999999897
 40
1.0
 40
1.0
 40
1.0
 40
1.0
 10
-10.4436096384
 20
-25.6102236415
 30
0.0
 10
-9.8878510364
 20
-25.6021355521
 30
0.0
 10
-8.7761905883
 20
-25.5972256056
 30
0.0
 10
-7.664530141
 20
-25.6021355827
 30
0.0
 10
-7.1087715158
 20
-25.6102236415
 30
0.0
  0
SPLINE
  5
3EE
100
AcDbEntity
  8
RACCORDO
100
AcDbSpline
 62
250
  6
CONTINUOUS
 70
0
 71
3
 72
9
 73
5
 74
0
 42
0.0000001
 43
0.0000001
 44
0.0000000001
 40
0.0
 40
0.0
 40
0.0
 40
0.0
 40
0.4999998794
 40
1.0
 40
1.0
 40
1.0
 40
1.0
 10
-12.1087715158
 20
-25.6102236415
 30
0.0
 10
-11.8312682619
 20
-25.6142498823
 30
0.0
 10
-11.2761906749
 20
-25.6167240586
 30
0.0
 10
-10.7211129645
 20
-25.6142541321
 30
0.0
 10
-10.4436096384
 20
-25.6102236415
 30
0.0
  0
SPLINE
  5
3EF
100
AcDbEntity
  8
RACCORDO
100
AcDbSpline
 62
250
  6
CONTINUOUS
 70
0
 71
3
 72
11
 73
7
 74
0
 42
0.0000001
 43
0.0000001
 44
0.0000000001
 40
0.0
 40
0.0
 40
0.0
 40
0.0
 40
0.1982916132
 40
0.4308586299
 40
0.7032510857
 40
1.0
 40
1.0
 40
1.0
 40
1.0
 10
3.3395412973
 20
-23.1010530214
 30
0.0
 10
3.3224833874
 20
-23.1014099483
 30
0.0
 10
3.2854124212
 20
-23.1148867425
 30
0.0
 10
3.2445908795
 20
-23.1617145249
 30
0.0
 10
3.2180140164
 20
-23.2263124708
 30
0.0
 10
3.2116710738
 20
-23.2754902669
 30
0.0
 10
3.2114518655
 20
-23.3010225504
 30
0.0
  0
SPLINE
  5
3F0
100
AcDbEntity
  8
RACCORDO
100
AcDbSpline
 62
250
  6
CONTINUOUS
 70
0
 71
3
 72
9
 73
5
 74
0
 42
0.0000001
 43
0.0000001
 44
0.0000000001
 40
0.0
 40
0.0
 40
0.0
 40
0.0
 40
0.2699616587
 40
1.0
 40
1.0
 40
1.0
 40
1.0
 10
-13.7761905771
 20
-25.5996805865
 30
0.0
 10
-13.6261405326
 20
-25.5996808719
 30
0.0
 10
-13.0703224837
 20
-25.6005588863
 30
0.0
 10
-12.5144983453
 20
-25.6043192108
 30
0.0
 10
-12.1087715158
 20
-25.6102236415
 30
0.0
  0
SPLINE
  5
3F1
100
AcDbEntity
  8
RACCORDO
100
AcDbSpline
 62
250
  6
CONTINUOUS
 70
0
 71
3
 72
23
 73
19
 74
0
 42
0.0000001
 43
0.0000001
 44
0.0000000001
 40
0.0
 40
0.0
 40
0.0
 40
0.0
 40
0.0021961249
 40
0.0066499706
 40
0.0134114816
 40
0.0224842382
 40
0.0338535289
 40
0.0474911002
 40
0.0814479659
 40
0.1240433243
 40
0.1748822402
 40
0.2334850812
 40
0.2993066286
 40
0.3717214357
 40
0.4500544743
 40
0.6214723436
 40
0.8071048689
 40
1.0
 40
1.0
 40
1.0
 40
1.0
 10
-21.3793184368
 20
-25.6443321546
 30
0.0
 10
-21.377966736
 20
-25.6429875084
 30
0.0
 10
-21.37193619
 20
-25.641650515
 30
0.0
 10
-21.3608072401
 20
-25.639427929
 30
0.0
 10
-21.3431362036
 20
-25.6374760057
 30
0.0
 10
-21.319683503
 20
-25.6353265617
 30
0.0
 10
-21.2901429005
 20
-25.6332455512
 30
0.0
 10
-21.2390521688
 20
-25.6302331612
 30
0.0
 10
-21.1608200512
 20
-25.6267221557
 30
0.0
 10
-21.0502929337
 20
-25.6228551103
 30
0.0
 10
-20.9183479388
 20
-25.6191750666
 30
0.0
 10
-20.7662287413
 20
-25.6157139195
 30
0.0
 10
-20.5953680695
 20
-25.6125170183
 30
0.0
 10
-20.4073709823
 20
-25.6096147438
 30
0.0
 10
-20.1276981796
 20
-25.6060746929
 30
0.0
 10
-19.7497248694
 20
-25.6026788538
 30
0.0
 10
-19.2722835312
 20
-25.600228282
 30
0.0
 10
-18.9436565199
 20
-25.5996808596
 30
0.0
 10
-18.7761905771
 20
-25.5996805865
 30
0.0
  0
SPLINE
  5
3F2
100
AcDbEntity
  8
RACCORDO
100
AcDbSpline
 62
250
  6
CONTINUOUS
 70
0
 71
3
 72
11
 73
7
 74
0
 42
0.0000001
 43
0.0000001
 44
0.0000000001
 40
0.0
 40
0.0
 40
0.0
 40
0.0
 40
0.1982923317
 40
0.4308613234
 40
0.7032535981
 40
1.0
 40
1.0
 40
1.0
 40
1.0
 10
-0.8919224516
 20
-23.1010530116
 30
0.0
 10
-0.8748649755
 20
-23.1014112528
 30
0.0
 10
-0.8377959501
 20
-23.1148903701
 30
0.0
 10
-0.7969773839
 20
-23.1617184381
 30
0.0
 10
-0.7704025474
 20
-23.2263149918
 30
0.0
 10
-0.7640601293
 20
-23.2754911833
 30
0.0
 10
-0.7638409456
 20
-23.3010225504
 30
0.0
  0
SPLINE
  5
3F3
100
AcDbEntity
  8
RACCORDO
100
AcDbSpline
 62
250
  6
CONTINUOUS
 70
0
 71
3
 72
11
 73
7
 74
0
 42
0.0000001
 43
0.0000001
 44
0.0000000001
 40
0.0
 40
0.0
 40
0.0
 40
0.0
 40
0.1982916132
 40
0.4308586299
 40
0.7032510857
 40
1.0
 40
1.0
 40
1.0
 40
1.0
 10
-1.6604587027
 20
-23.1010530214
 30
0.0
 10
-1.6775166126
 20
-23.1014099483
 30
0.0
 10
-1.7145875788
 20
-23.1148867425
 30
0.0
 10
-1.7554091205
 20
-23.1617145249
 30
0.0
 10
-1.7819859836
 20
-23.2263124708
 30
0.0
 10
-1.7883289262
 20
-23.2754902669
 30
0.0
 10
-1.7885481345
 20
-23.3010225504
 30
0.0
  0
SPLINE
  5
3F4
100
AcDbEntity
  8
RACCORDO
100
AcDbSpline
 62
250
  6
CONTINUOUS
 70
0
 71
3
 72
11
 73
7
 74
0
 42
0.0000001
 43
0.0000001
 44
0.0000000001
 40
0.0
 40
0.0
 40
0.0
 40
0.0
 40
0.1982923317
 40
0.4308613234
 40
0.7032535981
 40
1.0
 40
1.0
 40
1.0
 40
1.0
 10
-5.8919224516
 20
-23.1010530116
 30
0.0
 10
-5.8748649755
 20
-23.1014112528
 30
0.0
 10
-5.8377959501
 20
-23.1148903701
 30
0.0
 10
-5.7969773839
 20
-23.1617184381
 30
0.0
 10
-5.7704025474
 20
-23.2263149918
 30
0.0
 10
-5.7640601293
 20
-23.2754911833
 30
0.0
 10
-5.7638409456
 20
-23.3010225504
 30
0.0
  0
SPLINE
  5
3F5
100
AcDbEntity
  8
RACCORDO
100
AcDbSpline
 62
250
  6
CONTINUOUS
 70
0
 71
3
 72
11
 73
7
 74
0
 42
0.0000001
 43
0.0000001
 44
0.0000000001
 40
0.0
 40
0.0
 40
0.0
 40
0.0
 40
0.1982916132
 40
0.4308586299
 40
0.7032510857
 40
1.0
 40
1.0
 40
1.0
 40
1.0
 10
-6.6604587027
 20
-23.1010530214
 30
0.0
 10
-6.6775166126
 20
-23.1014099483
 30
0.0
 10
-6.7145875788
 20
-23.1148867425
 30
0.0
 10
-6.7554091205
 20
-23.1617145249
 30
0.0
 10
-6.7819859836
 20
-23.2263124708
 30
0.0
 10
-6.7883289262
 20
-23.2754902669
 30
0.0
 10
-6.7885481345
 20
-23.3010225504
 30
0.0
  0
SPLINE
  5
3F6
100
AcDbEntity
  8
RACCORDO
100
AcDbSpline
 62
250
  6
CONTINUOUS
 70
0
 71
3
 72
11
 73
7
 74
0
 42
0.0000001
 43
0.0000001
 44
0.0000000001
 40
0.0
 40
0.0
 40
0.0
 40
0.0
 40
0.1982923317
 40
0.4308613234
 40
0.7032535981
 40
1.0
 40
1.0
 40
1.0
 40
1.0
 10
-10.8919224516
 20
-23.1010530116
 30
0.0
 10
-10.8748649755
 20
-23.1014112528
 30
0.0
 10
-10.8377959501
 20
-23.1148903701
 30
0.0
 10
-10.7969773839
 20
-23.1617184381
 30
0.0
 10
-10.7704025474
 20
-23.2263149918
 30
0.0
 10
-10.7640601293
 20
-23.2754911833
 30
0.0
 10
-10.7638409456
 20
-23.3010225504
 30
0.0
  0
SPLINE
  5
3F7
100
AcDbEntity
  8
RACCORDO
100
AcDbSpline
 62
250
  6
CONTINUOUS
 70
0
 71
3
 72
11
 73
7
 74
0
 42
0.0000001
 43
0.0000001
 44
0.0000000001
 40
0.0
 40
0.0
 40
0.0
 40
0.0
 40
0.1982913834
 40
0.4308579889
 40
0.7032505417
 40
1.0
 40
1.0
 40
1.0
 40
1.0
 10
-11.6604587027
 20
-23.1010532586
 30
0.0
 10
-11.6775166841
 20
-23.1014098483
 30
0.0
 10
-11.7145880672
 20
-23.1148860828
 30
0.0
 10
-11.7554101821
 20
-23.1617137923
 30
0.0
 10
-11.7819874148
 20
-23.2263119952
 30
0.0
 10
-11.7883304506
 20
-23.2754900942
 30
0.0
 10
-11.7885496632
 20
-23.3010225504
 30
0.0
  0
SPLINE
  5
3F8
100
AcDbEntity
  8
RACCORDO
100
AcDbSpline
 62
250
  6
CONTINUOUS
 70
0
 71
3
 72
12
 73
8
 74
0
 42
0.0000001
 43
0.0000001
 44
0.0000000001
 40
0.0
 40
0.0
 40
0.0
 40
0.0
 40
0.1114784648
 40
0.207530249
 40
0.3299842593
 40
0.6397231868
 40
1.0
 40
1.0
 40
1.0
 40
1.0
 10
-19.5170810183
 20
-24.3391452074
 30
0.0
 10
-19.5092813532
 20
-24.3397360806
 30
0.0
 10
-19.4994051674
 20
-24.3548334199
 30
0.0
 10
-19.4915207149
 20
-24.3753933303
 30
0.0
 10
-19.4819201438
 20
-24.4117896037
 30
0.0
 10
-19.4745149374
 20
-24.4667244409
 30
0.0
 10
-19.4723215944
 20
-24.5138346616
 30
0.0
 10
-19.4722248312
 20
-24.539113712
 30
0.0
  0
SPLINE
  5
3F9
100
AcDbEntity
  8
RACCORDO
100
AcDbSpline
 62
250
  6
CONTINUOUS
 70
0
 71
3
 72
11
 73
7
 74
0
 42
0.0000001
 43
0.0000001
 44
0.0000000001
 40
0.0
 40
0.0
 40
0.0
 40
0.0
 40
0.1027174225
 40
0.3112693906
 40
0.6197814637
 40
1.0
 40
1.0
 40
1.0
 40
1.0
 10
-19.6933119043
 20
-24.0409520596
 30
0.0
 10
-19.6912018042
 20
-24.0362851158
 30
0.0
 10
-19.7004916673
 20
-24.0199147579
 30
0.0
 10
-19.7210573583
 20
-23.9996143617
 30
0.0
 10
-19.7565037252
 20
-23.9706188179
 30
0.0
 10
-19.7846047679
 20
-23.9513278136
 30
0.0
 10
-19.8004823544
 20
-23.9409672825
 30
0.0
  0
SPLINE
  5
3FA
100
AcDbEntity
  8
RACCORDO
100
AcDbSpline
 62
250
  6
CONTINUOUS
 70
0
 71
3
 72
10
 73
6
 74
0
 42
0.0000001
 43
0.0000001
 44
0.0000000001
 40
0.0
 40
0.0
 40
0.0
 40
0.0
 40
0.1898338767
 40
0.5092327609
 40
1.0
 40
1.0
 40
1.0
 40
1.0
 10
-19.3147305146
 20
-23.388983722
 30
0.0
 10
-19.3143109065
 20
-23.3880864804
 30
0.0
 10
-19.3137790922
 20
-23.3852693486
 30
0.0
 10
-19.317091866
 20
-23.3807232277
 30
0.0
 10
-19.3201695162
 20
-23.3779884724
 30
0.0
 10
-19.3220495408
 20
-23.3762498596
 30
0.0
  0
SPLINE
  5
3FB
100
AcDbEntity
  8
RACCORDO
100
AcDbSpline
 62
250
  6
CONTINUOUS
 70
0
 71
3
 72
9
 73
5
 74
0
 42
0.0000001
 43
0.0000001
 44
0.0000000001
 40
0.0
 40
0.0
 40
0.0
 40
0.0
 40
0.3924093773
 40
1.0
 40
1.0
 40
1.0
 40
1.0
 10
-19.3220495408
 20
-23.3762498596
 30
0.0
 10
-19.3365337012
 20
-23.3628551703
 30
0.0
 10
-19.3756440022
 20
-23.3309500266
 30
0.0
 10
-19.419446519
 20
-23.306006075
 30
0.0
 10
-19.4448207708
 20
-23.2889989525
 30
0.0
  0
SPLINE
  5
3FC
100
AcDbEntity
  8
RACCORDO
100
AcDbSpline
 62
250
  6
CONTINUOUS
 70
0
 71
3
 72
15
 73
11
 74
0
 42
0.0000001
 43
0.0000001
 44
0.0000000001
 40
0.0
 40
0.0
 40
0.0
 40
0.0
 40
0.050619661
 40
0.0792458016
 40
0.1147645286
 40
0.2093594383
 40
0.3316959773
 40
0.476999446
 40
0.6406292871
 40
1.0
 40
1.0
 40
1.0
 40
1.0
 10
-19.4879092157
 20
-23.0890294134
 30
0.0
 10
-19.4843533024
 20
-23.0892062227
 30
0.0
 10
-19.4786171891
 20
-23.0918182647
 30
0.0
 10
-19.4744292227
 20
-23.0988174584
 30
0.0
 10
-19.4698297558
 20
-23.1089780917
 30
0.0
 10
-19.4637100672
 20
-23.1256839946
 30
0.0
 10
-19.4569156815
 20
-23.1502667927
 30
0.0
 10
-19.4515332318
 20
-23.1801569654
 30
0.0
 10
-19.4465006456
 20
-23.2269283603
 30
0.0
 10
-19.4459774821
 20
-23.2637492905
 30
0.0
 10
-19.4448207708
 20
-23.2889989525
 30
0.0
  0
SPLINE
  5
3FD
100
AcDbEntity
  8
RACCORDO
100
AcDbSpline
 62
250
  6
CONTINUOUS
 70
0
 71
3
 72
10
 73
6
 74
0
 42
0.0000001
 43
0.0000001
 44
0.0000000001
 40
0.0
 40
0.0
 40
0.0
 40
0.0
 40
0.2498131895
 40
0.4998595661
 40
1.0
 40
1.0
 40
1.0
 40
1.0
 10
-18.6622171147
 20
-22.818661909
 30
0.0
 10
-18.6069461204
 20
-22.7228650917
 30
0.0
 10
-18.5226262173
 20
-22.515962671
 30
0.0
 10
-18.4233047054
 20
-22.0837637228
 30
0.0
 10
-18.39290527
 20
-21.7521273447
 30
0.0
 10
-18.373022069
 20
-21.5315983365
 30
0.0
  0
SPLINE
  5
3FE
100
AcDbEntity
  8
RACCORDO
100
AcDbSpline
 62
250
  6
CONTINUOUS
 70
0
 71
3
 72
11
 73
7
 74
0
 42
0.0000001
 43
0.0000001
 44
0.0000000001
 40
0.0
 40
0.0
 40
0.0
 40
0.0
 40
0.2307178844
 40
0.4736342234
 40
0.7319137954
 40
1.0
 40
1.0
 40
1.0
 40
1.0
 10
-21.5802463134
 20
-23.1148558419
 30
0.0
 10
-21.5580816203
 20
-23.1150954843
 30
0.0
 10
-21.512144168
 20
-23.1266167845
 30
0.0
 10
-21.4562125546
 20
-23.1722984918
 30
0.0
 10
-21.4194240402
 20
-23.2381459698
 30
0.0
 10
-21.4106795231
 20
-23.2890660557
 30
0.0
 10
-21.4104771046
 20
-23.3148213726
 30
0.0
  0
SPLINE
  5
3FF
100
AcDbEntity
  8
RACCORDO
100
AcDbSpline
 62
250
  6
CONTINUOUS
 70
0
 71
3
 72
9
 73
5
 74
0
 42
0.0000001
 43
0.0000001
 44
0.0000000001
 40
0.0
 40
0.0
 40
0.0
 40
0.0
 40
0.4999999277
 40
1.0
 40
1.0
 40
1.0
 40
1.0
 10
-6.7885480778
 20
-25.1102997939
 30
0.0
 10
-6.6178010811
 20
-25.1143414374
 30
0.0
 10
-6.2761906074
 20
-25.1167866221
 30
0.0
 10
-5.9345801114
 20
-25.1143419089
 30
0.0
 10
-5.7638330764
 20
-25.1102997939
 30
0.0
  0
SPLINE
  5
400
100
AcDbEntity
  8
RACCORDO
100
AcDbSpline
 62
250
  6
CONTINUOUS
 70
0
 71
3
 72
9
 73
5
 74
0
 42
0.0000001
 43
0.0000001
 44
0.0000000001
 40
0.0
 40
0.0
 40
0.0
 40
0.0
 40
0.5000000004
 40
1.0
 40
1.0
 40
1.0
 40
1.0
 10
-5.7638330764
 20
-23.3010225504
 30
0.0
 10
-5.934610652
 20
-23.3028871062
 30
0.0
 10
-6.2761905734
 20
-23.3040168872
 30
0.0
 10
-6.6177705102
 20
-23.3028878112
 30
0.0
 10
-6.7885480778
 20
-23.3010225504
 30
0.0
  0
SPLINE
  5
401
100
AcDbEntity
  8
RACCORDO
100
AcDbSpline
 62
250
  6
CONTINUOUS
 70
0
 71
3
 72
9
 73
5
 74
0
 42
0.0000001
 43
0.0000001
 44
0.0000000001
 40
0.0
 40
0.0
 40
0.0
 40
0.0
 40
0.4999999718
 40
1.0
 40
1.0
 40
1.0
 40
1.0
 10
-5.7638330764
 20
-25.1102997939
 30
0.0
 10
-5.1013256637
 20
-25.1022116033
 30
0.0
 10
-3.7761906146
 20
-25.0973018852
 30
0.0
 10
-2.4510555649
 20
-25.1022115822
 30
0.0
 10
-1.7885480778
 20
-25.1102997939
 30
0.0
  0
SPLINE
  5
402
100
AcDbEntity
  8
RACCORDO
100
AcDbSpline
 62
250
  6
CONTINUOUS
 70
0
 71
3
 72
9
 73
5
 74
0
 42
0.0000001
 43
0.0000001
 44
0.0000000001
 40
0.0
 40
0.0
 40
0.0
 40
0.0
 40
0.4999979485
 40
1.0
 40
1.0
 40
1.0
 40
1.0
 10
-1.7885480778
 20
-23.3010225504
 30
0.0
 10
-2.4510283507
 20
-23.2907580564
 30
0.0
 10
-3.776187858
 20
-23.2845317121
 30
0.0
 10
-5.1013473675
 20
-23.290757951
 30
0.0
 10
-5.7638330764
 20
-23.3010225504
 30
0.0
  0
SPLINE
  5
403
100
AcDbEntity
  8
RACCORDO
100
AcDbSpline
 62
250
  6
CONTINUOUS
 70
0
 71
3
 72
9
 73
5
 74
0
 42
0.0000001
 43
0.0000001
 44
0.0000000001
 40
0.0
 40
0.0
 40
0.0
 40
0.0
 40
0.4999999277
 40
1.0
 40
1.0
 40
1.0
 40
1.0
 10
-1.7885480778
 20
-25.1102997939
 30
0.0
 10
-1.6178010811
 20
-25.1143414374
 30
0.0
 10
-1.2761906074
 20
-25.1167866221
 30
0.0
 10
-0.9345801114
 20
-25.1143419089
 30
0.0
 10
-0.7638330764
 20
-25.1102997939
 30
0.0
  0
SPLINE
  5
404
100
AcDbEntity
  8
RACCORDO
100
AcDbSpline
 62
250
  6
CONTINUOUS
 70
0
 71
3
 72
9
 73
5
 74
0
 42
0.0000001
 43
0.0000001
 44
0.0000000001
 40
0.0
 40
0.0
 40
0.0
 40
0.0
 40
0.5000000004
 40
1.0
 40
1.0
 40
1.0
 40
1.0
 10
-0.7638330764
 20
-23.3010225504
 30
0.0
 10
-0.934610652
 20
-23.3028871062
 30
0.0
 10
-1.2761905734
 20
-23.3040168872
 30
0.0
 10
-1.6177705102
 20
-23.3028878112
 30
0.0
 10
-1.7885480778
 20
-23.3010225504
 30
0.0
  0
SPLINE
  5
405
100
AcDbEntity
  8
RACCORDO
100
AcDbSpline
 62
250
  6
CONTINUOUS
 70
0
 71
3
 72
9
 73
5
 74
0
 42
0.0000001
 43
0.0000001
 44
0.0000000001
 40
0.0
 40
0.0
 40
0.0
 40
0.0
 40
0.4999999718
 40
1.0
 40
1.0
 40
1.0
 40
1.0
 10
-0.7638330764
 20
-25.1102997939
 30
0.0
 10
-0.1013256637
 20
-25.1022116033
 30
0.0
 10
1.2238093854
 20
-25.0973018852
 30
0.0
 10
2.5489444351
 20
-25.1022115822
 30
0.0
 10
3.2114519222
 20
-25.1102997939
 30
0.0
  0
SPLINE
  5
406
100
AcDbEntity
  8
RACCORDO
100
AcDbSpline
 62
250
  6
CONTINUOUS
 70
0
 71
3
 72
9
 73
5
 74
0
 42
0.0000001
 43
0.0000001
 44
0.0000000001
 40
0.0
 40
0.0
 40
0.0
 40
0.0
 40
0.4999979485
 40
1.0
 40
1.0
 40
1.0
 40
1.0
 10
3.2114519222
 20
-23.3010225504
 30
0.0
 10
2.5489716493
 20
-23.2907580564
 30
0.0
 10
1.223812142
 20
-23.2845317121
 30
0.0
 10
-0.1013473675
 20
-23.290757951
 30
0.0
 10
-0.7638330764
 20
-23.3010225504
 30
0.0
  0
SPLINE
  5
407
100
AcDbEntity
  8
RACCORDO
100
AcDbSpline
 62
250
  6
CONTINUOUS
 70
0
 71
3
 72
9
 73
5
 74
0
 42
0.0000001
 43
0.0000001
 44
0.0000000001
 40
0.0
 40
0.0
 40
0.0
 40
0.0
 40
0.4999999277
 40
1.0
 40
1.0
 40
1.0
 40
1.0
 10
3.2114519222
 20
-25.1102997939
 30
0.0
 10
3.3821989189
 20
-25.1143414374
 30
0.0
 10
3.7238093926
 20
-25.1167866221
 30
0.0
 10
4.0654198886
 20
-25.1143419089
 30
0.0
 10
4.2361669236
 20
-25.1102997939
 30
0.0
  0
SPLINE
  5
408
100
AcDbEntity
  8
RACCORDO
100
AcDbSpline
 62
250
  6
CONTINUOUS
 70
0
 71
3
 72
9
 73
5
 74
0
 42
0.0000001
 43
0.0000001
 44
0.0000000001
 40
0.0
 40
0.0
 40
0.0
 40
0.0
 40
0.5000000004
 40
1.0
 40
1.0
 40
1.0
 40
1.0
 10
4.2361669236
 20
-23.3010225504
 30
0.0
 10
4.065389348
 20
-23.3028871062
 30
0.0
 10
3.7238094266
 20
-23.3040168872
 30
0.0
 10
3.3822294898
 20
-23.3028878112
 30
0.0
 10
3.2114519222
 20
-23.3010225504
 30
0.0
  0
SPLINE
  5
409
100
AcDbEntity
  8
RACCORDO
100
AcDbSpline
 62
250
  6
CONTINUOUS
 70
0
 71
3
 72
9
 73
5
 74
0
 42
0.0000001
 43
0.0000001
 44
0.0000000001
 40
0.0
 40
0.0
 40
0.0
 40
0.0
 40
0.4999999718
 40
1.0
 40
1.0
 40
1.0
 40
1.0
 10
4.2361669236
 20
-25.1102997939
 30
0.0
 10
4.8986743363
 20
-25.1022116033
 30
0.0
 10
6.2238093854
 20
-25.0973018852
 30
0.0
 10
7.5489444351
 20
-25.1022115822
 30
0.0
 10
8.2114519222
 20
-25.1102997939
 30
0.0
  0
SPLINE
  5
40A
100
AcDbEntity
  8
RACCORDO
100
AcDbSpline
 62
250
  6
CONTINUOUS
 70
0
 71
3
 72
9
 73
5
 74
0
 42
0.0000001
 43
0.0000001
 44
0.0000000001
 40
0.0
 40
0.0
 40
0.0
 40
0.0
 40
0.4999979485
 40
1.0
 40
1.0
 40
1.0
 40
1.0
 10
8.2114519222
 20
-23.3010225504
 30
0.0
 10
7.5489716493
 20
-23.2907580564
 30
0.0
 10
6.223812142
 20
-23.2845317121
 30
0.0
 10
4.8986526325
 20
-23.290757951
 30
0.0
 10
4.2361669236
 20
-23.3010225504
 30
0.0
  0
SPLINE
  5
40B
100
AcDbEntity
  8
RACCORDO
100
AcDbSpline
 62
250
  6
CONTINUOUS
 70
0
 71
3
 72
9
 73
5
 74
0
 42
0.0000001
 43
0.0000001
 44
0.0000000001
 40
0.0
 40
0.0
 40
0.0
 40
0.0
 40
0.4999999277
 40
1.0
 40
1.0
 40
1.0
 40
1.0
 10
8.2114519222
 20
-25.1102997939
 30
0.0
 10
8.3821989189
 20
-25.1143414374
 30
0.0
 10
8.7238093926
 20
-25.1167866221
 30
0.0
 10
9.0654198886
 20
-25.1143419089
 30
0.0
 10
9.2361669236
 20
-25.1102997939
 30
0.0
  0
SPLINE
  5
40C
100
AcDbEntity
  8
RACCORDO
100
AcDbSpline
 62
250
  6
CONTINUOUS
 70
0
 71
3
 72
9
 73
5
 74
0
 42
0.0000001
 43
0.0000001
 44
0.0000000001
 40
0.0
 40
0.0
 40
0.0
 40
0.0
 40
0.5000000004
 40
1.0
 40
1.0
 40
1.0
 40
1.0
 10
9.2361669236
 20
-23.3010225504
 30
0.0
 10
9.065389348
 20
-23.3028871062
 30
0.0
 10
8.7238094266
 20
-23.3040168872
 30
0.0
 10
8.3822294898
 20
-23.3028878112
 30
0.0
 10
8.2114519222
 20
-23.3010225504
 30
0.0
  0
SPLINE
  5
40D
100
AcDbEntity
  8
RACCORDO
100
AcDbSpline
 62
250
  6
CONTINUOUS
 70
0
 71
3
 72
11
 73
7
 74
0
 42
0.0000001
 43
0.0000001
 44
0.0000000001
 40
0.0
 40
0.0
 40
0.0
 40
0.0
 40
0.1982454437
 40
0.4632478969
 40
0.7475326263
 40
1.0
 40
1.0
 40
1.0
 40
1.0
 10
13.8581036922
 20
-23.3148213729
 30
0.0
 10
13.5527966199
 20
-23.3057142669
 30
0.0
 10
12.8390987721
 20
-23.2945214775
 30
0.0
 10
11.6873820985
 20
-23.2866191615
 30
0.0
 10
10.4520807977
 20
-23.2878942194
 30
0.0
 10
9.6251045309
 20
-23.294997482
 30
0.0
 10
9.2361669236
 20
-23.3010225504
 30
0.0
  0
SPLINE
  5
40E
100
AcDbEntity
  8
RACCORDO
100
AcDbSpline
 62
250
  6
CONTINUOUS
 70
0
 71
3
 72
26
 73
22
 74
0
 42
0.0000001
 43
0.0000001
 44
0.0000000001
 40
0.0
 40
0.0
 40
0.0
 40
0.0
 40
0.1451655672
 40
0.309558601
 40
0.4802931916
 40
0.5638467617
 40
0.6439812421
 40
0.7191153254
 40
0.7877668087
 40
0.848582153
 40
0.9003652244
 40
0.9225444832
 40
0.9420997692
 40
0.9589348829
 40
0.9729675371
 40
0.9841301967
 40
0.9923699721
 40
0.9953826642
 40
0.9976540578
 40
0.9991872378
 40
1.0
 40
1.0
 40
1.0
 40
1.0
 10
9.2361669236
 20
-25.1102997939
 30
0.0
 10
9.4825389421
 20
-25.1072915394
 30
0.0
 10
10.0079387238
 20
-25.1027802679
 30
0.0
 10
10.823138761
 20
-25.0995606168
 30
0.0
 10
11.5337711276
 20
-25.0996340823
 30
0.0
 10
12.1013860864
 20
-25.1014571016
 30
0.0
 10
12.5067347236
 20
-25.103659502
 30
0.0
 10
12.8867841393
 20
-25.1066576438
 30
0.0
 10
13.2340351063
 20
-25.1103857209
 30
0.0
 10
13.5416410534
 20
-25.1147648343
 30
0.0
 10
13.7703613643
 20
-25.1190524822
 30
0.0
 10
13.9290439521
 20
-25.1228537731
 30
0.0
 10
14.0284160762
 20
-25.1256559694
 30
0.0
 10
14.1139494236
 20
-25.1285439803
 30
0.0
 10
14.185233476
 20
-25.1314824645
 30
0.0
 10
14.2418922739
 20
-25.1344772542
 30
0.0
 10
14.2798777083
 20
-25.137112494
 30
0.0
 10
14.3026815518
 20
-25.1394302418
 30
0.0
 10
14.3142242081
 20
-25.1408977107
 30
0.0
 10
14.3217886525
 20
-25.1424500009
 30
0.0
 10
14.3258038882
 20
-25.1435221488
 30
0.0
 10
14.3268611302
 20
-25.144408307
 30
0.0
  0
SPLINE
  5
40F
100
AcDbEntity
  8
RACCORDO
100
AcDbSpline
 62
250
  6
CONTINUOUS
 70
0
 71
3
 72
17
 73
13
 74
0
 42
0.0000001
 43
0.0000001
 44
0.0000000001
 40
0.0
 40
0.0
 40
0.0
 40
0.0
 40
0.0083068335
 40
0.023526304
 40
0.0461538674
 40
0.076285187
 40
0.159003899
 40
0.2712401723
 40
0.4122638221
 40
0.5812561627
 40
0.7774178958
 40
1.0
 40
1.0
 40
1.0
 40
1.0
 10
14.3268611302
 20
-23.2936278921
 30
0.0
 10
14.325969616
 20
-23.2926795815
 30
0.0
 10
14.3220960235
 20
-23.2917333037
 30
0.0
 10
14.3150563973
 20
-23.2911983328
 30
0.0
 10
14.3043101958
 20
-23.2913883008
 30
0.0
 10
14.2831690105
 20
-23.2926743946
 30
0.0
 10
14.2480265463
 20
-23.2961093565
 30
0.0
 10
14.1956799905
 20
-23.3015068207
 30
0.0
 10
14.1297892812
 20
-23.3075985085
 30
0.0
 10
14.050655701
 20
-23.3130347848
 30
0.0
 10
13.9586017376
 20
-23.3162881477
 30
0.0
 10
13.8929639026
 20
-23.3158610047
 30
0.0
 10
13.8581036922
 20
-23.3148213729
 30
0.0
  0
SPLINE
  5
410
100
AcDbEntity
  8
RACCORDO
100
AcDbSpline
 62
250
  6
CONTINUOUS
 70
0
 71
3
 72
9
 73
5
 74
0
 42
0.0000001
 43
0.0000001
 44
0.0000000001
 40
0.0
 40
0.0
 40
0.0
 40
0.0
 40
0.4999999718
 40
1.0
 40
1.0
 40
1.0
 40
1.0
 10
-10.7638330764
 20
-25.1102997939
 30
0.0
 10
-10.1013256637
 20
-25.1022116033
 30
0.0
 10
-8.7761906146
 20
-25.0973018852
 30
0.0
 10
-7.4510555649
 20
-25.1022115822
 30
0.0
 10
-6.7885480778
 20
-25.1102997939
 30
0.0
  0
SPLINE
  5
411
100
AcDbEntity
  8
RACCORDO
100
AcDbSpline
 62
250
  6
CONTINUOUS
 70
0
 71
3
 72
9
 73
5
 74
0
 42
0.0000001
 43
0.0000001
 44
0.0000000001
 40
0.0
 40
0.0
 40
0.0
 40
0.0
 40
0.4999979485
 40
1.0
 40
1.0
 40
1.0
 40
1.0
 10
-6.7885480778
 20
-23.3010225504
 30
0.0
 10
-7.4510283507
 20
-23.2907580564
 30
0.0
 10
-8.776187858
 20
-23.2845317121
 30
0.0
 10
-10.1013473675
 20
-23.290757951
 30
0.0
 10
-10.7638330764
 20
-23.3010225504
 30
0.0
  0
SPLINE
  5
412
100
AcDbEntity
  8
RACCORDO
100
AcDbSpline
 62
250
  6
CONTINUOUS
 70
0
 71
3
 72
9
 73
5
 74
0
 42
0.0000001
 43
0.0000001
 44
0.0000000001
 40
0.0
 40
0.0
 40
0.0
 40
0.0
 40
0.4999999277
 40
1.0
 40
1.0
 40
1.0
 40
1.0
 10
-11.7885480778
 20
-25.1102997939
 30
0.0
 10
-11.6178010811
 20
-25.1143414374
 30
0.0
 10
-11.2761906074
 20
-25.1167866221
 30
0.0
 10
-10.9345801114
 20
-25.1143419089
 30
0.0
 10
-10.7638330764
 20
-25.1102997939
 30
0.0
  0
SPLINE
  5
413
100
AcDbEntity
  8
RACCORDO
100
AcDbSpline
 62
250
  6
CONTINUOUS
 70
0
 71
3
 72
9
 73
5
 74
0
 42
0.0000001
 43
0.0000001
 44
0.0000000001
 40
0.0
 40
0.0
 40
0.0
 40
0.0
 40
0.5000000004
 40
1.0
 40
1.0
 40
1.0
 40
1.0
 10
-10.7638330764
 20
-23.3010225504
 30
0.0
 10
-10.934610652
 20
-23.3028871062
 30
0.0
 10
-11.2761905734
 20
-23.3040168872
 30
0.0
 10
-11.6177705102
 20
-23.3028878112
 30
0.0
 10
-11.7885480778
 20
-23.3010225504
 30
0.0
  0
SPLINE
  5
414
100
AcDbEntity
  8
RACCORDO
100
AcDbSpline
 62
250
  6
CONTINUOUS
 70
0
 71
3
 72
23
 73
19
 74
0
 42
0.0000001
 43
0.0000001
 44
0.0000000001
 40
0.0
 40
0.0
 40
0.0
 40
0.0
 40
0.002146651
 40
0.0065780526
 40
0.0133264455
 40
0.0223902605
 40
0.0337528253
 40
0.0473853945
 40
0.0813371795
 40
0.1239328863
 40
0.1747752266
 40
0.2333836388
 40
0.2992127538
 40
0.371636752
 40
0.4499801452
 40
0.6214208458
 40
0.80707849
 40
1.0
 40
1.0
 40
1.0
 40
1.0
 10
-21.8792422844
 20
-25.144408307
 30
0.0
 10
-21.8775387813
 20
-25.1429828539
 30
0.0
 10
-21.870420969
 20
-25.1417840201
 30
0.0
 10
-21.857138498
 20
-25.139465372
 30
0.0
 10
-21.8361048192
 20
-25.1375667983
 30
0.0
 10
-21.8081402756
 20
-25.1353961032
 30
0.0
 10
-21.7729309787
 20
-25.1333233204
 30
0.0
 10
-21.7120228495
 20
-25.130307053
 30
0.0
 10
-21.6187652726
 20
-25.1267985089
 30
0.0
 10
-21.487009593
 20
-25.1229305228
 30
0.0
 10
-21.3297221218
 20
-25.1192508609
 30
0.0
 10
-21.1483861698
 20
-25.1157896391
 30
0.0
 10
-20.9447103906
 20
-25.1125928077
 30
0.0
 10
-20.7206080155
 20
-25.1096905623
 30
0.0
 10
-20.3872250921
 20
-25.1061506092
 30
0.0
 10
-19.9366679807
 20
-25.1027548757
 30
0.0
 10
-19.3675451832
 20
-25.1003043791
 30
0.0
 10
-18.975814096
 20
-25.0997570624
 30
0.0
 10
-18.7761905771
 20
-25.0997567389
 30
0.0
  0
SPLINE
  5
415
100
AcDbEntity
  8
RACCORDO
100
AcDbSpline
 62
250
  6
CONTINUOUS
 70
0
 71
3
 72
13
 73
9
 74
0
 42
0.0000001
 43
0.0000001
 44
0.0000000001
 40
0.0
 40
0.0
 40
0.0
 40
0.0
 40
0.1237977711
 40
0.2472758268
 40
0.371183969
 40
0.4962726845
 40
0.7481148322
 40
1.0
 40
1.0
 40
1.0
 40
1.0
 10
-19.4722264717
 20
-24.5391137121
 30
0.0
 10
-19.5058225088
 20
-24.5392531258
 30
0.0
 10
-19.5733409727
 20
-24.5299642457
 30
0.0
 10
-19.6666156591
 20
-24.4888240492
 30
0.0
 10
-19.7457545702
 20
-24.4239570811
 30
0.0
 10
-19.8258956678
 20
-24.3125513302
 30
0.0
 10
-19.8689421385
 20
-24.1396507109
 30
0.0
 10
-19.8332462684
 20
-24.0009603868
 30
0.0
 10
-19.8004823244
 20
-23.9409672825
 30
0.0
  0
SPLINE
  5
416
100
AcDbEntity
  8
RACCORDO
100
AcDbSpline
 62
250
  6
CONTINUOUS
 70
0
 71
3
 72
9
 73
5
 74
0
 42
0.0000001
 43
0.0000001
 44
0.0000000001
 40
0.0
 40
0.0
 40
0.0
 40
0.0
 40
0.2491886644
 40
1.0
 40
1.0
 40
1.0
 40
1.0
 10
-19.8004823244
 20
-23.9409672825
 30
0.0
 10
-19.770909731
 20
-23.8868294578
 30
0.0
 10
-19.6522658437
 20
-23.6695558118
 30
0.0
 10
-19.5337442345
 20
-23.4522153985
 30
0.0
 10
-19.4448207708
 20
-23.2889989525
 30
0.0
  0
SPLINE
  5
417
100
AcDbEntity
  8
RACCORDO
100
AcDbSpline
 62
250
  6
CONTINUOUS
 70
0
 71
3
 72
9
 73
5
 74
0
 42
0.0000001
 43
0.0000001
 44
0.0000000001
 40
0.0
 40
0.0
 40
0.0
 40
0.0
 40
0.5712683344
 40
1.0
 40
1.0
 40
1.0
 40
1.0
 10
-19.4448207708
 20
-23.2889989525
 30
0.0
 10
-19.8191631772
 20
-23.2905334319
 30
0.0
 10
-20.4744295528
 20
-23.29563224
 30
0.0
 10
-21.1296668076
 20
-23.30644574
 30
0.0
 10
-21.4104848465
 20
-23.3148213729
 30
0.0
  0
SPLINE
  5
418
100
AcDbEntity
  8
RACCORDO
100
AcDbSpline
 62
250
  6
CONTINUOUS
 70
0
 71
3
 72
17
 73
13
 74
0
 42
0.0000001
 43
0.0000001
 44
0.0000000001
 40
0.0
 40
0.0
 40
0.0
 40
0.0
 40
0.2225012186
 40
0.4187358648
 40
0.587747281
 40
0.7287665942
 40
0.8409974657
 40
0.9237302212
 40
0.9538571882
 40
0.9764814013
 40
0.9917031027
 40
1.0
 40
1.0
 40
1.0
 40
1.0
 10
-21.4104848465
 20
-23.3148213729
 30
0.0
 10
-21.4453316557
 20
-23.3158638276
 30
0.0
 10
-21.5109672747
 20
-23.3163032998
 30
0.0
 10
-21.6030204957
 20
-23.3130349613
 30
0.0
 10
-21.6821684126
 20
-23.3076254093
 30
0.0
 10
-21.7480560022
 20
-23.3014954141
 30
0.0
 10
-21.8004052859
 20
-23.2961319792
 30
0.0
 10
-21.8355452952
 20
-23.2926649784
 30
0.0
 10
-21.856688525
 20
-23.2914012979
 30
0.0
 10
-21.8674342923
 20
-23.2912276738
 30
0.0
 10
-21.8744705208
 20
-23.2917608473
 30
0.0
 10
-21.8783469608
 20
-23.2926853561
 30
0.0
 10
-21.8792422844
 20
-23.2936278921
 30
0.0
  0
SPLINE
  5
419
100
AcDbEntity
  8
RACCORDO
100
AcDbSpline
 62
250
  6
CONTINUOUS
 70
0
 71
3
 72
18
 73
14
 74
0
 42
0.0000001
 43
0.0000001
 44
0.0000000001
 40
0.0
 40
0.0
 40
0.0
 40
0.0
 40
0.2063833432
 40
0.395294179
 40
0.5636453147
 40
0.7085390607
 40
0.8270938453
 40
0.8756134966
 40
0.9165603632
 40
0.9496580022
 40
0.9746643439
 40
0.991453707
 40
1.0
 40
1.0
 40
1.0
 40
1.0
 10
-18.8353982149
 20
16.0964789209
 30
0.0
 10
-18.8607319473
 20
16.1391200866
 30
0.0
 10
-18.9093543555
 20
16.2207332918
 30
0.0
 10
-18.9790417091
 20
16.3368908148
 30
0.0
 10
-19.0415285973
 20
16.4401352095
 30
0.0
 10
-19.095730757
 20
16.5286259718
 30
0.0
 10
-19.1353612408
 20
16.5922749262
 30
0.0
 10
-19.1622172098
 20
16.6344361961
 30
0.0
 10
-19.1782531816
 20
16.6591573978
 30
0.0
 10
-19.1914967267
 20
16.6789033824
 30
0.0
 10
-19.201753637
 20
16.6937817295
 30
0.0
 10
-19.2091520176
 20
16.7031905329
 30
0.0
 10
-19.2130722764
 20
16.7080849972
 30
0.0
 10
-19.2148488696
 20
16.7091156134
 30
0.0
  0
SPLINE
  5
41A
100
AcDbEntity
  8
RACCORDO
100
AcDbSpline
 62
250
  6
CONTINUOUS
 70
0
 71
3
 72
18
 73
14
 74
0
 42
0.0000001
 43
0.0000001
 44
0.0000000001
 40
0.0
 40
0.0
 40
0.0
 40
0.0
 40
0.2063808117
 40
0.3952830843
 40
0.5636302507
 40
0.7085273269
 40
0.8270881601
 40
0.8756121398
 40
0.9165623009
 40
0.9496574301
 40
0.9746578922
 40
0.9914458455
 40
1.0
 40
1.0
 40
1.0
 40
1.0
 10
-17.7169840607
 20
16.0964769692
 30
0.0
 10
-17.6916507999
 20
16.1391178618
 30
0.0
 10
-17.6430296223
 20
16.2207289929
 30
0.0
 10
-17.573343568
 20
16.336883498
 30
0.0
 10
-17.5108577898
 20
16.4401263495
 30
0.0
 10
-17.4566548918
 20
16.5286185307
 30
0.0
 10
-17.4170227239
 20
16.5922705021
 30
0.0
 10
-17.3901653558
 20
16.6344350126
 30
0.0
 10
-17.3741288387
 20
16.6591572463
 30
0.0
 10
-17.3608857931
 20
16.6789026534
 30
0.0
 10
-17.3506287507
 20
16.6937769301
 30
0.0
 10
-17.3432304041
 20
16.7031882976
 30
0.0
 10
-17.3393083333
 20
16.7080802916
 30
0.0
 10
-17.3375322847
 20
16.7091156134
 30
0.0
  0
SPLINE
  5
41B
100
AcDbEntity
  8
RACCORDO
100
AcDbSpline
 62
250
  6
CONTINUOUS
 70
0
 71
3
 72
18
 73
14
 74
0
 42
0.0000001
 43
0.0000001
 44
0.0000000001
 40
0.0
 40
0.0
 40
0.0
 40
0.0
 40
0.2063833432
 40
0.3952941791
 40
0.5636453148
 40
0.7085390608
 40
0.8270938453
 40
0.8756134966
 40
0.9165603632
 40
0.9496580023
 40
0.9746643439
 40
0.991453707
 40
1.0
 40
1.0
 40
1.0
 40
1.0
 10
-17.7169829395
 20
-22.7186803346
 30
0.0
 10
-17.6916492071
 20
-22.7613215003
 30
0.0
 10
-17.6430267989
 20
-22.8429347055
 30
0.0
 10
-17.5733394452
 20
-22.9590922286
 30
0.0
 10
-17.510852557
 20
-23.0623366234
 30
0.0
 10
-17.4566503972
 20
-23.1508273857
 30
0.0
 10
-17.4170199135
 20
-23.2144763401
 30
0.0
 10
-17.3901639445
 20
-23.25663761
 30
0.0
 10
-17.3741279726
 20
-23.2813588117
 30
0.0
 10
-17.3608844275
 20
-23.3011047964
 30
0.0
 10
-17.3506275172
 20
-23.3159831435
 30
0.0
 10
-17.3432291366
 20
-23.3253919468
 30
0.0
 10
-17.3393088778
 20
-23.3302864112
 30
0.0
 10
-17.3375322847
 20
-23.3313170273
 30
0.0
  0
SPLINE
  5
41C
100
AcDbEntity
  8
RACCORDO
100
AcDbSpline
 62
250
  6
CONTINUOUS
 70
0
 71
3
 72
18
 73
14
 74
0
 42
0.0000001
 43
0.0000001
 44
0.0000000001
 40
0.0
 40
0.0
 40
0.0
 40
0.0
 40
0.2063808117
 40
0.3952830843
 40
0.5636302507
 40
0.7085273269
 40
0.8270881601
 40
0.8756121398
 40
0.9165623009
 40
0.9496574301
 40
0.9746578922
 40
0.9914458455
 40
1.0
 40
1.0
 40
1.0
 40
1.0
 10
-18.8353970935
 20
-22.7186783831
 30
0.0
 10
-18.8607303543
 20
-22.7613192757
 30
0.0
 10
-18.9093515319
 20
-22.8429304068
 30
0.0
 10
-18.9790375862
 20
-22.959084912
 30
0.0
 10
-19.0415233645
 20
-23.0623277634
 30
0.0
 10
-19.0957262625
 20
-23.1508199446
 30
0.0
 10
-19.1353584303
 20
-23.2144719161
 30
0.0
 10
-19.1622157985
 20
-23.2566364265
 30
0.0
 10
-19.1782523155
 20
-23.2813586603
 30
0.0
 10
-19.1914953611
 20
-23.3011040673
 30
0.0
 10
-19.2017524035
 20
-23.315978344
 30
0.0
 10
-19.2091507501
 20
-23.3253897116
 30
0.0
 10
-19.2130728209
 20
-23.3302817056
 30
0.0
 10
-19.2148488696
 20
-23.3313170273
 30
0.0
  0
SPLINE
  5
41D
100
AcDbEntity
  8
RACCORDO
100
AcDbSpline
 62
250
  6
CONTINUOUS
 70
0
 71
3
 72
11
 73
7
 74
0
 42
0.0000001
 43
0.0000001
 44
0.0000000001
 40
0.0
 40
0.0
 40
0.0
 40
0.0
 40
0.237110144
 40
0.4784790694
 40
0.7390821521
 40
1.0
 40
1.0
 40
1.0
 40
1.0
 10
-19.5170810182
 20
-24.3391441731
 30
0.0
 10
-19.5499790578
 20
-24.3394215147
 30
0.0
 10
-19.6176124793
 20
-24.3236272133
 30
0.0
 10
-19.6975763232
 20
-24.2526803451
 30
0.0
 10
-19.731492252
 20
-24.1463802507
 30
0.0
 10
-19.7116182495
 20
-24.0721850871
 30
0.0
 10
-19.6933119173
 20
-24.040952052
 30
0.0
  0
SPLINE
  5
41E
100
AcDbEntity
  8
RACCORDO
100
AcDbSpline
 62
250
  6
CONTINUOUS
 70
0
 71
3
 72
13
 73
9
 74
0
 42
0.0000001
 43
0.0000001
 44
0.0000000001
 40
0.0
 40
0.0
 40
0.0
 40
0.0
 40
0.2958217266
 40
0.5672813509
 40
0.6889839867
 40
0.8003309119
 40
0.9029586727
 40
1.0
 40
1.0
 40
1.0
 40
1.0
 10
-11.7885406847
 20
-25.1102997939
 30
0.0
 10
-11.78908879
 20
-25.1741379717
 30
0.0
 10
-11.8049105977
 20
-25.2969052453
 30
0.0
 10
-11.8623184316
 20
-25.43674371
 30
0.0
 10
-11.9287194209
 20
-25.5237919166
 30
0.0
 10
-11.9839958772
 20
-25.5715887363
 30
0.0
 10
-12.0446669183
 20
-25.6020386128
 30
0.0
 10
-12.0878338329
 20
-25.6097741954
 30
0.0
 10
-12.1087715162
 20
-25.6102110838
 30
0.0
  0
SPLINE
  5
41F
100
AcDbEntity
  8
RACCORDO
100
AcDbSpline
 62
250
  6
CONTINUOUS
 70
0
 71
3
 72
9
 73
5
 74
0
 42
0.0000001
 43
0.0000001
 44
0.0000000001
 40
0.0
 40
0.0
 40
0.0
 40
0.0
 40
0.4999996359
 40
1.0
 40
1.0
 40
1.0
 40
1.0
 10
-10.8919224516
 20
-23.1010530114
 30
0.0
 10
-11.0200007314
 20
-23.1029169651
 30
0.0
 10
-11.2761904791
 20
-23.1040481212
 30
0.0
 10
-11.5323802458
 20
-23.1029176156
 30
0.0
 10
-11.6604587027
 20
-23.1010530114
 30
0.0
  0
SPLINE
  5
420
100
AcDbEntity
  8
RACCORDO
100
AcDbSpline
 62
250
  6
CONTINUOUS
 70
0
 71
3
 72
9
 73
5
 74
0
 42
0.0000001
 43
0.0000001
 44
0.0000000001
 40
0.0
 40
0.0
 40
0.0
 40
0.0
 40
0.4999979518
 40
1.0
 40
1.0
 40
1.0
 40
1.0
 10
-6.6604587027
 20
-23.1010530114
 30
0.0
 10
-7.3656391677
 20
-23.0907884078
 30
0.0
 10
-8.776187687
 20
-23.0845623236
 30
0.0
 10
-10.1867362107
 20
-23.0907882207
 30
0.0
 10
-10.8919224516
 20
-23.1010530114
 30
0.0
  0
SPLINE
  5
421
100
AcDbEntity
  8
RACCORDO
100
AcDbSpline
 62
250
  6
CONTINUOUS
 70
0
 71
3
 72
9
 73
5
 74
0
 42
0.0000001
 43
0.0000001
 44
0.0000000001
 40
0.0
 40
0.0
 40
0.0
 40
0.0
 40
0.4999996359
 40
1.0
 40
1.0
 40
1.0
 40
1.0
 10
-5.8919224516
 20
-23.1010530114
 30
0.0
 10
-6.0200007314
 20
-23.1029169651
 30
0.0
 10
-6.2761904791
 20
-23.1040481212
 30
0.0
 10
-6.5323802458
 20
-23.1029176156
 30
0.0
 10
-6.6604587027
 20
-23.1010530114
 30
0.0
  0
SPLINE
  5
422
100
AcDbEntity
  8
RACCORDO
100
AcDbSpline
 62
250
  6
CONTINUOUS
 70
0
 71
3
 72
9
 73
5
 74
0
 42
0.0000001
 43
0.0000001
 44
0.0000000001
 40
0.0
 40
0.0
 40
0.0
 40
0.0
 40
0.4999979518
 40
1.0
 40
1.0
 40
1.0
 40
1.0
 10
-1.6604587027
 20
-23.1010530114
 30
0.0
 10
-2.3656391677
 20
-23.0907884078
 30
0.0
 10
-3.776187687
 20
-23.0845623236
 30
0.0
 10
-5.1867362107
 20
-23.0907882207
 30
0.0
 10
-5.8919224516
 20
-23.1010530114
 30
0.0
  0
SPLINE
  5
423
100
AcDbEntity
  8
RACCORDO
100
AcDbSpline
 62
250
  6
CONTINUOUS
 70
0
 71
3
 72
13
 73
9
 74
0
 42
0.0000001
 43
0.0000001
 44
0.0000000001
 40
0.0
 40
0.0
 40
0.0
 40
0.0
 40
0.2958194817
 40
0.567279011
 40
0.6889824224
 40
0.8003303418
 40
0.9029588036
 40
1.0
 40
1.0
 40
1.0
 40
1.0
 10
-10.7638300191
 20
-25.1102997939
 30
0.0
 10
-10.7632819436
 20
-25.1741374319
 30
0.0
 10
-10.7474609126
 20
-25.2969040589
 30
0.0
 10
-10.6900558947
 20
-25.4367428792
 30
0.0
 10
-10.6236576734
 20
-25.5237934436
 30
0.0
 10
-10.5683830754
 20
-25.5715930265
 30
0.0
 10
-10.5077136524
 20
-25.6020465757
 30
0.0
 10
-10.4645472434
 20
-25.6097852316
 30
0.0
 10
-10.4436096384
 20
-25.6102236415
 30
0.0
  0
SPLINE
  5
424
100
AcDbEntity
  8
RACCORDO
100
AcDbSpline
 62
250
  6
CONTINUOUS
 70
0
 71
3
 72
9
 73
5
 74
0
 42
0.0000001
 43
0.0000001
 44
0.0000000001
 40
0.0
 40
0.0
 40
0.0
 40
0.0
 40
0.4999996359
 40
1.0
 40
1.0
 40
1.0
 40
1.0
 10
-0.8919224516
 20
-23.1010530114
 30
0.0
 10
-1.0200007314
 20
-23.1029169651
 30
0.0
 10
-1.2761904791
 20
-23.1040481212
 30
0.0
 10
-1.5323802458
 20
-23.1029176156
 30
0.0
 10
-1.6604587027
 20
-23.1010530114
 30
0.0
  0
SPLINE
  5
425
100
AcDbEntity
  8
RACCORDO
100
AcDbSpline
 62
250
  6
CONTINUOUS
 70
0
 71
3
 72
9
 73
5
 74
0
 42
0.0000001
 43
0.0000001
 44
0.0000000001
 40
0.0
 40
0.0
 40
0.0
 40
0.0
 40
0.4999979518
 40
1.0
 40
1.0
 40
1.0
 40
1.0
 10
3.3395412973
 20
-23.1010530114
 30
0.0
 10
2.6343608323
 20
-23.0907884078
 30
0.0
 10
1.223812313
 20
-23.0845623236
 30
0.0
 10
-0.1867362107
 20
-23.0907882207
 30
0.0
 10
-0.8919224516
 20
-23.1010530114
 30
0.0
  0
SPLINE
  5
426
100
AcDbEntity
  8
RACCORDO
100
AcDbSpline
 62
250
  6
CONTINUOUS
 70
0
 71
3
 72
9
 73
5
 74
0
 42
0.0000001
 43
0.0000001
 44
0.0000000001
 40
0.0
 40
0.0
 40
0.0
 40
0.0
 40
0.4999996359
 40
1.0
 40
1.0
 40
1.0
 40
1.0
 10
4.1080775484
 20
-23.1010530114
 30
0.0
 10
3.9799992686
 20
-23.1029169651
 30
0.0
 10
3.7238095209
 20
-23.1040481212
 30
0.0
 10
3.4676197542
 20
-23.1029176156
 30
0.0
 10
3.3395412973
 20
-23.1010530114
 30
0.0
  0
SPLINE
  5
427
100
AcDbEntity
  8
RACCORDO
100
AcDbSpline
 62
250
  6
CONTINUOUS
 70
0
 71
3
 72
9
 73
5
 74
0
 42
0.0000001
 43
0.0000001
 44
0.0000000001
 40
0.0
 40
0.0
 40
0.0
 40
0.0
 40
0.4999979518
 40
1.0
 40
1.0
 40
1.0
 40
1.0
 10
8.3395412973
 20
-23.1010530114
 30
0.0
 10
7.6343608323
 20
-23.0907884078
 30
0.0
 10
6.223812313
 20
-23.0845623236
 30
0.0
 10
4.8132637893
 20
-23.0907882207
 30
0.0
 10
4.1080775484
 20
-23.1010530114
 30
0.0
  0
SPLINE
  5
428
100
AcDbEntity
  8
RACCORDO
100
AcDbSpline
 62
250
  6
CONTINUOUS
 70
0
 71
3
 72
9
 73
5
 74
0
 42
0.0000001
 43
0.0000001
 44
0.0000000001
 40
0.0
 40
0.0
 40
0.0
 40
0.0
 40
0.4999996359
 40
1.0
 40
1.0
 40
1.0
 40
1.0
 10
9.1080775484
 20
-23.1010530114
 30
0.0
 10
8.9799992686
 20
-23.1029169651
 30
0.0
 10
8.7238095209
 20
-23.1040481212
 30
0.0
 10
8.4676197542
 20
-23.1029176156
 30
0.0
 10
8.3395412973
 20
-23.1010530114
 30
0.0
  0
SPLINE
  5
429
100
AcDbEntity
  8
RACCORDO
100
AcDbSpline
 62
250
  6
CONTINUOUS
 70
0
 71
3
 72
11
 73
7
 74
0
 42
0.0000001
 43
0.0000001
 44
0.0000000001
 40
0.0
 40
0.0
 40
0.0
 40
0.0
 40
0.1982440628
 40
0.4632472818
 40
0.7475327047
 40
1.0
 40
1.0
 40
1.0
 40
1.0
 10
14.0278651593
 20
-23.1148518338
 30
0.0
 10
13.7028706366
 20
-23.1057444122
 30
0.0
 10
12.9431806819
 20
-23.0945518027
 30
0.0
 10
11.7172481984
 20
-23.0866500671
 30
0.0
 10
10.4023484524
 20
-23.0879229012
 30
0.0
 10
9.5220824738
 20
-23.095031475
 30
0.0
 10
9.1080775484
 20
-23.1010530114
 30
0.0
  0
SPLINE
  5
42A
100
AcDbEntity
  8
RACCORDO
100
AcDbSpline
 62
250
  6
CONTINUOUS
 70
0
 71
3
 72
9
 73
5
 74
0
 42
0.0000001
 43
0.0000001
 44
0.0000000001
 40
0.0
 40
0.0
 40
0.0
 40
0.0
 40
0.5712703792
 40
1.0
 40
1.0
 40
1.0
 40
1.0
 10
-19.4879092154
 20
-23.0890294134
 30
0.0
 10
-19.8863723467
 20
-23.0905638598
 30
0.0
 10
-20.5838603933
 20
-23.0956607051
 30
0.0
 10
-21.2813208888
 20
-23.1064790811
 30
0.0
 10
-21.5802463137
 20
-23.1148518338
 30
0.0
  0
SPLINE
  5
42B
100
AcDbEntity
  8
RACCORDO
100
AcDbSpline
 62
250
  6
CONTINUOUS
 70
0
 71
3
 72
13
 73
9
 74
0
 42
0.0000001
 43
0.0000001
 44
0.0000000001
 40
0.0
 40
0.0
 40
0.0
 40
0.0
 40
0.2958217266
 40
0.5672813509
 40
0.6889839867
 40
0.8003309119
 40
0.9029586727
 40
1.0
 40
1.0
 40
1.0
 40
1.0
 10
-6.7885406847
 20
-25.1102997939
 30
0.0
 10
-6.78908879
 20
-25.1741379717
 30
0.0
 10
-6.8049105977
 20
-25.2969052453
 30
0.0
 10
-6.8623184316
 20
-25.43674371
 30
0.0
 10
-6.9287194209
 20
-25.5237919166
 30
0.0
 10
-6.9839958772
 20
-25.5715887363
 30
0.0
 10
-7.0446669183
 20
-25.6020386128
 30
0.0
 10
-7.0878338329
 20
-25.6097741954
 30
0.0
 10
-7.1087715162
 20
-25.6102110838
 30
0.0
  0
SPLINE
  5
42C
100
AcDbEntity
  8
RACCORDO
100
AcDbSpline
 62
250
  6
CONTINUOUS
 70
0
 71
3
 72
13
 73
9
 74
0
 42
0.0000001
 43
0.0000001
 44
0.0000000001
 40
0.0
 40
0.0
 40
0.0
 40
0.0
 40
0.2958194817
 40
0.567279011
 40
0.6889824224
 40
0.8003303418
 40
0.9029588036
 40
1.0
 40
1.0
 40
1.0
 40
1.0
 10
-5.7638300191
 20
-25.1102997939
 30
0.0
 10
-5.7632819436
 20
-25.1741374319
 30
0.0
 10
-5.7474609126
 20
-25.2969040589
 30
0.0
 10
-5.6900558947
 20
-25.4367428792
 30
0.0
 10
-5.6236576734
 20
-25.5237934436
 30
0.0
 10
-5.5683830754
 20
-25.5715930265
 30
0.0
 10
-5.5077136524
 20
-25.6020465757
 30
0.0
 10
-5.4645472434
 20
-25.6097852316
 30
0.0
 10
-5.4436096384
 20
-25.6102236415
 30
0.0
  0
SPLINE
  5
42D
100
AcDbEntity
  8
RACCORDO
100
AcDbSpline
 62
250
  6
CONTINUOUS
 70
0
 71
3
 72
13
 73
9
 74
0
 42
0.0000001
 43
0.0000001
 44
0.0000000001
 40
0.0
 40
0.0
 40
0.0
 40
0.0
 40
0.2958217266
 40
0.5672813509
 40
0.6889839867
 40
0.8003309119
 40
0.9029586727
 40
1.0
 40
1.0
 40
1.0
 40
1.0
 10
-1.7885406847
 20
-25.1102997939
 30
0.0
 10
-1.78908879
 20
-25.1741379717
 30
0.0
 10
-1.8049105977
 20
-25.2969052453
 30
0.0
 10
-1.8623184316
 20
-25.43674371
 30
0.0
 10
-1.9287194209
 20
-25.5237919166
 30
0.0
 10
-1.9839958772
 20
-25.5715887363
 30
0.0
 10
-2.0446669183
 20
-25.6020386128
 30
0.0
 10
-2.0878338329
 20
-25.6097741954
 30
0.0
 10
-2.1087715162
 20
-25.6102110838
 30
0.0
  0
SPLINE
  5
42E
100
AcDbEntity
  8
RACCORDO
100
AcDbSpline
 62
250
  6
CONTINUOUS
 70
0
 71
3
 72
13
 73
9
 74
0
 42
0.0000001
 43
0.0000001
 44
0.0000000001
 40
0.0
 40
0.0
 40
0.0
 40
0.0
 40
0.2958194817
 40
0.567279011
 40
0.6889824224
 40
0.8003303418
 40
0.9029588036
 40
1.0
 40
1.0
 40
1.0
 40
1.0
 10
-0.7638300191
 20
-25.1102997939
 30
0.0
 10
-0.7632819436
 20
-25.1741374319
 30
0.0
 10
-0.7474609126
 20
-25.2969040589
 30
0.0
 10
-0.6900558947
 20
-25.4367428792
 30
0.0
 10
-0.6236576734
 20
-25.5237934436
 30
0.0
 10
-0.5683830754
 20
-25.5715930265
 30
0.0
 10
-0.5077136524
 20
-25.6020465757
 30
0.0
 10
-0.4645472434
 20
-25.6097852316
 30
0.0
 10
-0.4436096384
 20
-25.6102236415
 30
0.0
  0
SPLINE
  5
42F
100
AcDbEntity
  8
RACCORDO
100
AcDbSpline
 62
250
  6
CONTINUOUS
 70
0
 71
3
 72
13
 73
9
 74
0
 42
0.0000001
 43
0.0000001
 44
0.0000000001
 40
0.0
 40
0.0
 40
0.0
 40
0.0
 40
0.2958217266
 40
0.5672813509
 40
0.6889839867
 40
0.8003309119
 40
0.9029586727
 40
1.0
 40
1.0
 40
1.0
 40
1.0
 10
3.2114593153
 20
-25.1102997939
 30
0.0
 10
3.21091121
 20
-25.1741379717
 30
0.0
 10
3.1950894023
 20
-25.2969052453
 30
0.0
 10
3.1376815684
 20
-25.43674371
 30
0.0
 10
3.0712805791
 20
-25.5237919166
 30
0.0
 10
3.0160041228
 20
-25.5715887363
 30
0.0
 10
2.9553330817
 20
-25.6020386128
 30
0.0
 10
2.9121661671
 20
-25.6097741954
 30
0.0
 10
2.8912284838
 20
-25.6102110838
 30
0.0
  0
SPLINE
  5
430
100
AcDbEntity
  8
RACCORDO
100
AcDbSpline
 62
250
  6
CONTINUOUS
 70
0
 71
3
 72
13
 73
9
 74
0
 42
0.0000001
 43
0.0000001
 44
0.0000000001
 40
0.0
 40
0.0
 40
0.0
 40
0.0
 40
0.2958194817
 40
0.567279011
 40
0.6889824224
 40
0.8003303418
 40
0.9029588036
 40
1.0
 40
1.0
 40
1.0
 40
1.0
 10
4.2361699809
 20
-25.1102997939
 30
0.0
 10
4.2367180564
 20
-25.1741374319
 30
0.0
 10
4.2525390874
 20
-25.2969040589
 30
0.0
 10
4.3099441053
 20
-25.4367428792
 30
0.0
 10
4.3763423266
 20
-25.5237934436
 30
0.0
 10
4.4316169246
 20
-25.5715930265
 30
0.0
 10
4.4922863476
 20
-25.6020465757
 30
0.0
 10
4.5354527566
 20
-25.6097852316
 30
0.0
 10
4.5563903616
 20
-25.6102236415
 30
0.0
  0
SPLINE
  5
431
100
AcDbEntity
  8
RACCORDO
100
AcDbSpline
 62
250
  6
CONTINUOUS
 70
0
 71
3
 72
13
 73
9
 74
0
 42
0.0000001
 43
0.0000001
 44
0.0000000001
 40
0.0
 40
0.0
 40
0.0
 40
0.0
 40
0.2958217266
 40
0.5672813509
 40
0.6889839867
 40
0.8003309119
 40
0.9029586727
 40
1.0
 40
1.0
 40
1.0
 40
1.0
 10
8.2114593153
 20
-25.1102997939
 30
0.0
 10
8.21091121
 20
-25.1741379717
 30
0.0
 10
8.1950894023
 20
-25.2969052453
 30
0.0
 10
8.1376815684
 20
-25.43674371
 30
0.0
 10
8.0712805791
 20
-25.5237919166
 30
0.0
 10
8.0160041228
 20
-25.5715887363
 30
0.0
 10
7.9553330817
 20
-25.6020386128
 30
0.0
 10
7.9121661671
 20
-25.6097741954
 30
0.0
 10
7.8912284838
 20
-25.6102110838
 30
0.0
  0
SPLINE
  5
432
100
AcDbEntity
  8
RACCORDO
100
AcDbSpline
 62
250
  6
CONTINUOUS
 70
0
 71
3
 72
13
 73
9
 74
0
 42
0.0000001
 43
0.0000001
 44
0.0000000001
 40
0.0
 40
0.0
 40
0.0
 40
0.0
 40
0.2958197216
 40
0.5672792777
 40
0.6889826126
 40
0.8003304231
 40
0.902958799
 40
1.0
 40
1.0
 40
1.0
 40
1.0
 10
9.2361680094
 20
-25.1102997939
 30
0.0
 10
9.2367160896
 20
-25.1741376676
 30
0.0
 10
9.2525372377
 20
-25.2969047086
 30
0.0
 10
9.3099426874
 20
-25.436743898
 30
0.0
 10
9.3763413781
 20
-25.5237944683
 30
0.0
 10
9.4316163286
 20
-25.5715938892
 30
0.0
 10
9.4922861026
 20
-25.6020471079
 30
0.0
 10
9.5354526914
 20
-25.6097854177
 30
0.0
 10
9.5563903616
 20
-25.6102236415
 30
0.0
  0
ELLIPSE
  5
433
100
AcDbEntity
  8
0
100
AcDbEllipse
 62
7
  6
CONTINUOUS
 10
-21.775885921
 20
-21.3107960509
 30
0.0
 11
1.4146443783
 21
1.4146443783
 31
0.0
 40
0.9996954599
 41
8.6395320906
 42
10.0982317394
  0
ELLIPSE
  5
434
100
AcDbEntity
  8
RACCORDO
100
AcDbEllipse
 62
7
  6
CONTINUOUS
 10
-23.9762210427
 20
4.8889297586
 30
0.0
 11
0.1414644378
 21
-0.1414644378
 31
0.0
 40
0.9996954599
 41
-0.78524587
 42
0.7852458701
  0
ELLIPSE
  5
435
100
AcDbEntity
  8
RACCORDO
100
AcDbEllipse
 62
7
  6
CONTINUOUS
 10
14.2235047668
 20
14.6885946369
 30
0.0
 11
-1.4146443783
 21
-1.4146443783
 31
0.0
 40
0.9996954599
 41
8.6395320906
 42
10.2100238309
  0
ELLIPSE
  5
436
100
AcDbEntity
  8
RACCORDO
100
AcDbEllipse
 62
7
  6
CONTINUOUS
 10
16.4238398885
 20
-11.5111311726
 30
0.0
 11
0.1414644378
 21
-0.1414644378
 31
0.0
 40
0.9996954599
 41
2.3563467836
 42
3.9268385237
  0
ELLIPSE
  5
437
100
AcDbEntity
  8
0
100
AcDbEllipse
 62
7
  6
CONTINUOUS
 10
14.2235047668
 20
-21.3107960509
 30
0.0
 11
-1.4146443783
 21
1.4146443783
 31
0.0
 40
0.9996954599
 41
8.7513241822
 42
10.2100238309
  0
ELLIPSE
  5
438
100
AcDbEntity
  8
RACCORDO
100
AcDbEllipse
 62
7
  6
CONTINUOUS
 10
-23.9762210427
 20
-11.5111311726
 30
0.0
 11
0.1414644378
 21
0.1414644378
 31
0.0
 40
0.9996954599
 41
-0.7852458701
 42
0.78524587
  0
ELLIPSE
  5
439
100
AcDbEntity
  8
RACCORDO
100
AcDbEllipse
 62
7
  6
CONTINUOUS
 10
16.4238398885
 20
4.8889297586
 30
0.0
 11
0.1414644378
 21
0.1414644378
 31
0.0
 40
0.9996954599
 41
2.3563467834
 42
3.9268385236
  0
ELLIPSE
  5
43A
100
AcDbEntity
  8
RACCORDO
100
AcDbEllipse
 62
7
  6
CONTINUOUS
 10
17.6365340982
 20
-7.7237492183
 30
0.0
 11
0.0
 21
0.5
 31
0.0
 40
0.0174550649
 41
1.5707963268
 42
3.1241393611
  0
ELLIPSE
  5
43B
100
AcDbEntity
  8
RACCORDO
100
AcDbEllipse
 62
7
  6
CONTINUOUS
 10
16.3110847475
 20
-7.7237492183
 30
0.0
 11
0.0
 21
0.5
 31
0.0
 40
0.0174550649
 41
-3.1241393611
 42
-1.5707963268
  0
ELLIPSE
  5
43C
100
AcDbEntity
  8
RACCORDO
100
AcDbEllipse
 62
7
  6
CONTINUOUS
 10
16.3110847475
 20
1.1015478044
 30
0.0
 11
0.0
 21
0.5
 31
0.0
 40
0.0174550649
 41
-1.5707963268
 42
-0.0174532925
  0
ELLIPSE
  5
43D
100
AcDbEntity
  8
RACCORDO
100
AcDbEllipse
 62
7
  6
CONTINUOUS
 10
17.6365340982
 20
1.1015478044
 30
0.0
 11
0.0
 21
0.5
 31
0.0
 40
0.0174550649
 41
0.0174532925
 42
1.5707963268
  0
ELLIPSE
  5
43E
100
AcDbEntity
  8
RACCORDO
100
AcDbEllipse
 62
7
  6
CONTINUOUS
 10
-25.1889152525
 20
1.1015478044
 30
0.0
 11
0.0
 21
0.5
 31
0.0
 40
0.0174550649
 41
-1.5707963268
 42
-0.0174532925
  0
ELLIPSE
  5
43F
100
AcDbEntity
  8
RACCORDO
100
AcDbEllipse
 62
7
  6
CONTINUOUS
 10
-23.8634659018
 20
1.1015478044
 30
0.0
 11
0.0
 21
0.5
 31
0.0
 40
0.0174550649
 41
0.0174532925
 42
1.5707963268
  0
ELLIPSE
  5
440
100
AcDbEntity
  8
RACCORDO
100
AcDbEllipse
 62
7
  6
CONTINUOUS
 10
-23.8634659018
 20
-7.7237492183
 30
0.0
 11
0.0
 21
0.5
 31
0.0
 40
0.0174550649
 41
-4.7123889804
 42
-3.1590459461
  0
ELLIPSE
  5
441
100
AcDbEntity
  8
RACCORDO
100
AcDbEllipse
 62
7
  6
CONTINUOUS
 10
-25.1889152525
 20
-7.7237492183
 30
0.0
 11
0.0
 21
0.5
 31
0.0
 40
0.0174550649
 41
-3.1241393611
 42
-1.5707963268
  0
ELLIPSE
  5
442
100
AcDbEntity
  8
RACCORDO
100
AcDbEllipse
 62
7
  6
CONTINUOUS
 10
-23.9762210427
 20
-11.1110702414
 30
0.0
 11
0.1414644378
 21
-0.1414644378
 31
0.0
 40
0.9996954599
 41
-0.78524587
 42
0.7852458701
  0
ELLIPSE
  5
443
100
AcDbEntity
  8
RACCORDO
100
AcDbEllipse
 62
7
  6
CONTINUOUS
 10
16.4238398885
 20
4.4888688274
 30
0.0
 11
0.1414644378
 21
-0.1414644378
 31
0.0
 40
0.9996954599
 41
2.3563467836
 42
3.9268385237
  0
ELLIPSE
  5
444
100
AcDbEntity
  8
RACCORDO
100
AcDbEllipse
 62
7
  6
CONTINUOUS
 10
-20.9115611385
 20
16.6243155528
 30
0.0
 11
0.3
 21
0.0
 31
0.0
 40
0.0174550649
 41
-3.1241393611
 42
-1.5707963268
  0
ELLIPSE
  5
445
100
AcDbEntity
  8
RACCORDO
100
AcDbEllipse
 62
7
  6
CONTINUOUS
 10
13.3591799842
 20
16.6243155528
 30
0.0
 11
0.3
 21
-0.0
 31
0.0
 40
0.0174550649
 41
-1.5707963268
 42
-0.0174532925
  0
ELLIPSE
  5
446
100
AcDbEntity
  8
RACCORDO
100
AcDbEllipse
 62
7
  6
CONTINUOUS
 10
-23.9762210427
 20
4.4888688274
 30
0.0
 11
0.1414644378
 21
0.1414644378
 31
0.0
 40
0.9996954599
 41
-0.7852458701
 42
0.78524587
  0
ELLIPSE
  5
447
100
AcDbEntity
  8
RACCORDO
100
AcDbEllipse
 62
7
  6
CONTINUOUS
 10
16.4238398885
 20
-11.1110702414
 30
0.0
 11
0.1414644378
 21
0.1414644378
 31
0.0
 40
0.9996954599
 41
-3.9268385237
 42
-2.3563467836
  0
ELLIPSE
  5
448
100
AcDbEntity
  8
RACCORDO
100
AcDbEllipse
 62
7
  6
CONTINUOUS
 10
14.2235047668
 20
-21.3107960509
 30
0.0
 11
1.4146443783
 21
-1.4146443783
 31
0.0
 40
0.9996954599
 41
-0.6500947198
 42
0.7852458701
  0
ELLIPSE
  5
449
100
AcDbEntity
  8
RACCORDO
100
AcDbEllipse
 62
7
  6
CONTINUOUS
 10
14.2235047668
 20
14.6885946369
 30
0.0
 11
1.4146443783
 21
1.4146443783
 31
0.0
 40
0.9996954599
 41
-0.7852458701
 42
0.7852458701
  0
ELLIPSE
  5
44A
100
AcDbEntity
  8
RACCORDO
100
AcDbEllipse
 62
7
  6
CONTINUOUS
 10
-21.775885921
 20
-21.3107960509
 30
0.0
 11
1.4146443783
 21
1.4146443783
 31
0.0
 40
0.9996954599
 41
-3.9268385237
 42
-2.4914979338
  0
ELLIPSE
  5
44B
100
AcDbEntity
  8
RACCORDO
100
AcDbEllipse
 62
7
  6
CONTINUOUS
 10
-21.775885921
 20
14.6885946369
 30
0.0
 11
1.4146443783
 21
-1.4146443783
 31
0.0
 40
0.9996954599
 41
2.3563467834
 42
3.9268385237
  0
ELLIPSE
  5
44C
100
AcDbEntity
  8
RACCORDO
100
AcDbEllipse
 62
7
  6
CONTINUOUS
 10
14.6238398885
 20
-23.3906371114
 30
0.0
 11
-0.1414644378
 21
0.1414644378
 31
0.0
 40
0.9996954599
 41
5.7129695839
 42
7.0684311773
  0
ELLIPSE
  5
44D
100
AcDbEntity
  8
RACCORDO
100
AcDbEllipse
 62
7
  6
CONTINUOUS
 10
-22.1762210427
 20
-23.3906371114
 30
0.0
 11
-0.1414644378
 21
-0.1414644378
 31
0.0
 40
0.9996954599
 41
8.6395320906
 42
9.994993684
  0
ELLIPSE
  5
44E
100
AcDbEntity
  8
RACCORDO
100
AcDbEllipse
 62
7
  6
CONTINUOUS
 10
14.2739922862
 20
2.2420491979
 30
0.0
 11
0.2123905634
 21
-0.2123905634
 31
0.0
 40
0.998782766
 41
2.3568034778
 42
3.9263818294
  0
ELLIPSE
  5
44F
100
AcDbEntity
  8
RACCORDO
100
AcDbEllipse
 62
7
  6
CONTINUOUS
 10
14.2739922862
 20
-0.8642506118
 30
0.0
 11
-0.2123905634
 21
-0.2123905634
 31
0.0
 40
0.998782766
 41
-0.7847891758
 42
0.7847891758
  0
ELLIPSE
  5
450
100
AcDbEntity
  8
RACCORDO
100
AcDbEllipse
 62
7
  6
CONTINUOUS
 10
-21.8263734404
 20
2.2420491979
 30
0.0
 11
0.2123905634
 21
0.2123905634
 31
0.0
 40
0.998782766
 41
-0.7847891758
 42
0.7847891758
  0
ELLIPSE
  5
451
100
AcDbEntity
  8
RACCORDO
100
AcDbEllipse
 62
7
  6
CONTINUOUS
 10
-21.8263734404
 20
-0.8642506118
 30
0.0
 11
-0.2123905634
 21
0.2123905634
 31
0.0
 40
0.998782766
 41
2.3568034778
 42
3.9263818294
  0
ELLIPSE
  5
452
100
AcDbEntity
  8
RACCORDO
100
AcDbEllipse
 62
7
  6
CONTINUOUS
 10
-21.5055609067
 20
2.6714389083
 30
0.0
 11
0.5
 21
0.0
 31
0.0
 40
0.0349207695
 41
1.5707963268
 42
3.1241393611
  0
ELLIPSE
  5
453
100
AcDbEntity
  8
RACCORDO
100
AcDbEllipse
 62
7
  6
CONTINUOUS
 10
-21.5055609067
 20
-1.2936403222
 30
0.0
 11
0.5
 21
0.0
 31
0.0
 40
0.0349207695
 41
-3.1241393611
 42
-1.5707963268
  0
ELLIPSE
  5
454
100
AcDbEntity
  8
RACCORDO
100
AcDbEllipse
 62
7
  6
CONTINUOUS
 10
13.9531797525
 20
-1.2936403222
 30
0.0
 11
0.5
 21
0.0
 31
0.0
 40
0.0349207695
 41
-1.5707963268
 42
-0.0174532925
  0
ELLIPSE
  5
455
100
AcDbEntity
  8
RACCORDO
100
AcDbEllipse
 62
7
  6
CONTINUOUS
 10
13.9531797525
 20
2.6714389083
 30
0.0
 11
0.5
 21
0.0
 31
0.0
 40
0.0349207695
 41
0.0174532925
 42
1.5707963268
  0
ELLIPSE
  5
456
100
AcDbEntity
  8
RACCORDO
100
AcDbEllipse
 62
7
  6
CONTINUOUS
 10
23.2749714885
 20
-18.2122627726
 30
0.0
 11
1.4159370892
 21
-1.4159370892
 31
0.0
 40
0.998782766
 41
-0.7847891758
 42
0.7847891758
  0
ELLIPSE
  5
457
100
AcDbEntity
  8
RACCORDO
100
AcDbEllipse
 62
7
  6
CONTINUOUS
 10
23.2749714885
 20
-14.4099386413
 30
0.0
 11
1.4159370892
 21
1.4159370892
 31
0.0
 40
0.998782766
 41
-0.7847891758
 42
0.7847891758
  0
ELLIPSE
  5
458
100
AcDbEntity
  8
RACCORDO
100
AcDbEllipse
 62
7
  6
CONTINUOUS
 10
-5.6773526428
 20
23.7400613587
 30
0.0
 11
1.4159370892
 21
-1.4159370892
 31
0.0
 40
0.998782766
 41
2.3568034778
 42
3.9263818294
  0
ELLIPSE
  5
459
100
AcDbEntity
  8
RACCORDO
100
AcDbEllipse
 62
7
  6
CONTINUOUS
 10
-1.8750285115
 20
23.7400613587
 30
0.0
 11
1.4159370892
 21
1.4159370892
 31
0.0
 40
0.998782766
 41
-0.7847891758
 42
0.7847891758
  0
ELLIPSE
  5
45A
100
AcDbEntity
  8
RACCORDO
100
AcDbEllipse
 62
7
  6
CONTINUOUS
 10
13.9237332589
 20
-25.2412042832
 30
0.0
 11
0.3536610946
 21
-0.3536610946
 31
0.0
 40
0.9996954599
 41
-0.7852458701
 42
0.7852458701
  0
ELLIPSE
  5
45B
100
AcDbEntity
  8
RACCORDO
100
AcDbEllipse
 62
7
  6
CONTINUOUS
 10
-21.4761144131
 20
-25.2412042832
 30
0.0
 11
0.3536610946
 21
0.3536610946
 31
0.0
 40
0.9996954599
 41
-3.9268385237
 42
-2.3563467834
  0
ELLIPSE
  5
45C
100
AcDbEntity
  8
RACCORDO
100
AcDbEllipse
 62
7
  6
CONTINUOUS
 10
-16.46970388
 20
17.5468631132
 30
0.0
 11
0.1790326176
 21
0.0894890351
 31
0.0
 40
0.9992388003
 41
-0.4632212593
 42
1.1069659872
  0
ELLIPSE
  5
45D
100
AcDbEntity
  8
RACCORDO
100
AcDbEllipse
 62
7
  6
CONTINUOUS
 10
-20.0826772742
 20
17.5468631132
 30
0.0
 11
0.1790326176
 21
-0.0894890351
 31
0.0
 40
0.9992388003
 41
2.0346266664
 42
3.6048139129
  0
ELLIPSE
  5
45E
100
AcDbEntity
  8
RACCORDO
100
AcDbEllipse
 62
7
  6
CONTINUOUS
 10
13.4772242718
 20
-20.5645155559
 30
0.0
 11
0.3536610946
 21
-0.3536610946
 31
0.0
 40
0.9996954599
 41
-0.7852458701
 42
0.7852458701
  0
ELLIPSE
  5
45F
100
AcDbEntity
  8
RACCORDO
100
AcDbEllipse
 62
7
  6
CONTINUOUS
 10
-21.0296054261
 20
-20.5645155559
 30
0.0
 11
0.3536610946
 21
0.3536610946
 31
0.0
 40
0.9996954599
 41
-3.9268385237
 42
-2.3563467834
  0
ELLIPSE
  5
460
100
AcDbEntity
  8
RACCORDO
100
AcDbEllipse
 62
7
  6
CONTINUOUS
 10
-21.0296054261
 20
13.942314142
 30
0.0
 11
0.3536610946
 21
-0.3536610946
 31
0.0
 40
0.9996954599
 41
2.3563467834
 42
3.9268385237
  0
ELLIPSE
  5
461
100
AcDbEntity
  8
RACCORDO
100
AcDbEllipse
 62
7
  6
CONTINUOUS
 10
13.4772242718
 20
13.942314142
 30
0.0
 11
0.3536610946
 21
0.3536610946
 31
0.0
 40
0.9996954599
 41
-0.7852458701
 42
0.7852458701
  0
ELLIPSE
  5
462
100
AcDbEntity
  8
RACCORDO
100
AcDbEllipse
 62
7
  6
CONTINUOUS
 10
16.1330430853
 20
1.004209923
 30
0.0
 11
-0.0
 21
0.3
 31
0.0
 40
0.0174550649
 41
0.0523598776
 42
1.5707963268
  0
ELLIPSE
  5
463
100
AcDbEntity
  8
RACCORDO
100
AcDbEllipse
 62
7
  6
CONTINUOUS
 10
16.1330430853
 20
-7.626411337
 30
0.0
 11
0.0
 21
0.3
 31
0.0
 40
0.0174550649
 41
-4.7123889804
 42
-3.1939525311
  0
ELLIPSE
  5
464
100
AcDbEntity
  8
RACCORDO
100
AcDbEllipse
 62
7
  6
CONTINUOUS
 10
-23.6854242395
 20
-7.626411337
 30
0.0
 11
0.0
 21
0.3
 31
0.0
 40
0.0174550649
 41
-3.089232776
 42
-1.5707963268
  0
ELLIPSE
  5
465
100
AcDbEntity
  8
RACCORDO
100
AcDbEllipse
 62
7
  6
CONTINUOUS
 10
-23.6854242395
 20
1.004209923
 30
0.0
 11
0.0
 21
0.3
 31
0.0
 40
0.0174550649
 41
-1.5707963268
 42
-0.0523598776
  0
ELLIPSE
  5
466
100
AcDbEntity
  8
RACCORDO
100
AcDbEllipse
 62
7
  6
CONTINUOUS
 10
14.444299892
 20
-12.4087195527
 30
0.0
 11
1.5
 21
-0.0
 31
0.0
 40
0.0349207695
 41
-0.7454463266
 42
-0.0174532925
  0
ELLIPSE
  5
467
100
AcDbEntity
  8
RACCORDO
100
AcDbEllipse
 62
7
  6
CONTINUOUS
 10
0.1261905771
 20
14.9093897621
 30
0.0
 11
-0.0
 21
1.5
 31
0.0
 40
0.0349207695
 41
0.0174532925
 42
0.7454463266
  0
ELLIPSE
  5
468
100
AcDbEntity
  8
RACCORDO
100
AcDbEllipse
 62
7
  6
CONTINUOUS
 10
-7.6785717314
 20
14.9093897621
 30
0.0
 11
-0.0
 21
1.5
 31
0.0
 40
0.0349207695
 41
-0.7454463266
 42
-0.0174532925
  0
ELLIPSE
  5
469
100
AcDbEntity
  8
RACCORDO
100
AcDbEllipse
 62
7
  6
CONTINUOUS
 10
14.444299892
 20
-20.2134818612
 30
0.0
 11
1.5
 21
0.0
 31
0.0
 40
0.0349207695
 41
0.0174532925
 42
0.7454463266
  0
ELLIPSE
  5
46A
100
AcDbEntity
  8
RACCORDO
100
AcDbEllipse
 62
7
  6
CONTINUOUS
 10
-21.9966810462
 20
-1.311100707
 30
0.0
 11
1.5
 21
0.0
 31
0.0
 40
0.0349207695
 41
-1.6862923956
 42
-1.5707963268
  0
ELLIPSE
  5
46B
100
AcDbEntity
  8
RACCORDO
100
AcDbEllipse
 62
7
  6
CONTINUOUS
 10
14.444299892
 20
-1.311100707
 30
0.0
 11
1.5
 21
-0.0
 31
0.0
 40
0.0349207695
 41
-1.5707963268
 42
-1.455300258
  0
ELLIPSE
  5
46C
100
AcDbEntity
  8
RACCORDO
100
AcDbEllipse
 62
7
  6
CONTINUOUS
 10
14.444299892
 20
2.688899293
 30
0.0
 11
1.5
 21
0.0
 31
0.0
 40
0.0349207695
 41
1.455300258
 42
1.5707963268
  0
ELLIPSE
  5
46D
100
AcDbEntity
  8
RACCORDO
100
AcDbEllipse
 62
7
  6
CONTINUOUS
 10
-21.9966810462
 20
2.688899293
 30
0.0
 11
1.5
 21
-0.0
 31
0.0
 40
0.0349207695
 41
1.5707963268
 42
1.6862923956
  0
ELLIPSE
  5
46E
100
AcDbEntity
  8
RACCORDO
100
AcDbEllipse
 62
7
  6
CONTINUOUS
 10
-16.5046246495
 20
17.5294080483
 30
0.0
 11
0.1790326176
 21
0.0894890351
 31
0.0
 40
0.9992388003
 41
-0.4632212593
 42
1.1069659872
  0
ELLIPSE
  5
46F
100
AcDbEntity
  8
RACCORDO
100
AcDbEllipse
 62
7
  6
CONTINUOUS
 10
-17.0425243593
 20
16.6794689795
 30
0.0
 11
-0.1733105926
 21
-0.1000609173
 31
0.0
 40
0.9993911978
 41
-1.0469338117
 42
1.0469338117
  0
ELLIPSE
  5
470
100
AcDbEntity
  8
RACCORDO
100
AcDbEllipse
 62
7
  6
CONTINUOUS
 10
-19.509856795
 20
16.6794689795
 30
0.0
 11
0.1733105926
 21
-0.1000609173
 31
0.0
 40
0.9993911978
 41
-1.0469338117
 42
1.0469338117
  0
ELLIPSE
  5
471
100
AcDbEntity
  8
RACCORDO
100
AcDbEllipse
 62
7
  6
CONTINUOUS
 10
-20.0477565047
 20
17.5294080483
 30
0.0
 11
0.1790326176
 21
-0.0894890351
 31
0.0
 40
0.9992388003
 41
2.0346266664
 42
3.6048139129
  0
ELLIPSE
  5
472
100
AcDbEntity
  8
RACCORDO
100
AcDbEllipse
 62
7
  6
CONTINUOUS
 10
-17.0137623818
 20
17.5294080483
 30
0.0
 11
0.1733105926
 21
0.1000609173
 31
0.0
 40
0.9993911978
 41
-1.0469338117
 42
1.0469338117
  0
ELLIPSE
  5
473
100
AcDbEntity
  8
RACCORDO
100
AcDbEllipse
 62
7
  6
CONTINUOUS
 10
-19.5386187724
 20
17.5294080483
 30
0.0
 11
0.1733105926
 21
-0.1000609173
 31
0.0
 40
0.9993911978
 41
2.0946588419
 42
4.1885264653
  0
ENDSEC
  0
SECTION
  2
OBJECTS
  0
DICTIONARY
  5
C
100
AcDbDictionary
280
0
281
1
  3
ACAD_GROUP
350
D
  3
ACAD_MLINESTYLE
350
17
  3
ACAD_LAYOUT
350
1A
  3
ACAD_PLOTSETTINGS
350
19
  3
ACAD_PLOTSTYLENAME
350
E
  0
DICTIONARY
  5
D
102
{ACAD_REACTORS
330
C
102
}
100
AcDbDictionary
280
0
281
1
  0
ACDBDICTIONARYWDFLT
  5
E
102
{ACAD_REACTORS
330
C
102
}
100
AcDbDictionary
281
1
  3
Normal
350
F
100
AcDbDictionaryWithDefault
340
F
  0
DICTIONARY
  5
17
102
{ACAD_REACTORS
330
C
102
}
100
AcDbDictionary
280
0
281
1
  3
Standard
350
18
  0
DICTIONARY
  5
19
102
{ACAD_REACTORS
330
C
102
}
100
AcDbDictionary
281
1
  0
DICTIONARY
  5
1A
102
{ACAD_REACTORS
330
C
102
}
100
AcDbDictionary
281
1
  3
Model
350
474
  3
Layout1
350
475
  0
ACDBPLACEHOLDER
  5
F
102
{ACAD_REACTORS
330
E
102
}
  0
MLINESTYLE
  5
18
102
{ACAD_REACTORS
330
17
102
}
100
AcDbMlineStyle
  2
STANDARD
 70
0
  3

 62
256
 51
90.0
 52
90.0
 71
2
 49
0.5
 62
256
  6
BYLAYER
 49
-0.5
 62
256
  6
BYLAYER
  0
LAYOUT
  5
474
102
{ACAD_REACTORS
330
1A
102
}
100
AcDbPlotSettings
  1

  2
none_device
  4
ISO_A3_(420.00_x_297.00_MM)
  6

 40
0.0
 41
0.0
 42
0.0
 43
0.0
 44
420.0
 45
297.0
 46
0.0
 47
0.0
 48
0.0
 49
0.0
140
0.0
141
0.0
142
1.0
143
1.0
 70
1024
 72
1
 73
0
 74
0
  7

 75
0
147
1.0
148
0.0
149
0.0
100
AcDbLayout
  1
Model
 70
0
 71
0
 10
0.0
 20
0.0
 11
420.0
 21
297.0
 12
0.0
 22
0.0
 32
0.0
 14
0.0
 24
0.0
 34
0.0
 15
0.0
 25
0.0
 35
0.0
146
0.0
 13
0.0
 23
0.0
 33
0.0
 16
1.0
 26
0.0
 36
0.0
 17
0.0
 27
1.0
 37
0.0
 76
0
330
225
345
0
346
0
  0
LAYOUT
  5
475
102
{ACAD_REACTORS
330
1A
102
}
100
AcDbPlotSettings
  1

  2
none_device
  4
ISO_A3_(420.00_x_297.00_MM)
  6

 40
0.0
 41
0.0
 42
0.0
 43
0.0
 44
420.0
 45
297.0
 46
0.0
 47
0.0
 48
0.0
 49
0.0
140
0.0
141
0.0
142
1.0
143
1.0
 70
0
 72
1
 73
0
 74
0
  7

 75
0
147
1.0
148
0.0
149
0.0
100
AcDbLayout
  1
Layout1
 70
0
 71
1
 10
0.0
 20
0.0
 11
420.0
 21
297.0
 12
0.0
 22
0.0
 32
0.0
 14
0.0
 24
0.0
 34
0.0
 15
0.0
 25
0.0
 35
0.0
146
0.0
 13
0.0
 23
0.0
 33
0.0
 16
1.0
 26
0.0
 36
0.0
 17
0.0
 27
1.0
 37
0.0
 76
0
330
226
345
0
346
0
  0
ENDSEC
  0
EOF
