  0
SECTION
  2
HEADER
  9
$ACADVER
  1
AC1015
  9
$DWGCODEPAGE
  3
ANSI_1252
  9
$EXTMAX
 10
297.0
 20
210.0
 30
0.0
  9
$EXTMIN
 10
0.0
 20
0.0
 30
0.0
  9
$LIMMIN
 10
0.0
 20
0.0
  9
$LIMMAX
 10
297.0
 20
210.0
  9
$VIEWCTR
 10
148.5
 20
105.0
  9
$VIEWSIZE
 40
210.0
  9
$CLAYER
  8
0
  9
$LTSCALE
 40
16.335
  9
$CELTYPE
  6
BYLAYER
  9
$DIMSCALE
 40
1.0
  9
$DIMASZ
 40
3.0
  9
$DIMEXO
 40
1.85625
  9
$DIMDLI
 40
11.286
  9
$DIMEXE
 40
5.346
  9
$DIMCEN
 40
2.673
  9
$DIMLFAC
 40
1.0
  9
$DIMBLK
  1
_FILLED
  9
$DIMTXT
 40
3.0
  9
$DIMTOL
 70
1
  9
$DIMLIM
 70
0
  9
$DIMTFAC
 40
1.0
  9
$DIMTP
 40
0.01
  9
$DIMTM
 40
0.01
  9
$PDMODE
 70
3
  9
$PDSIZE
 40
3.0
  9
$HANDSEED
  5
871
  9
$TILEMODE
 70
1
  9
$MEASUREMENT
 70
1
  9
$INSUNITS
 70
4
  0
ENDSEC
  0
SECTION
  2
CLASSES
  0
CLASS
  1
ACDBDICTIONARYWDFLT
  2
AcDbDictionaryWithDefault
  3
AutoCAD 2000
 90
0
280
0
281
0
  0
CLASS
  1
ACDBPLACEHOLDER
  2
AcDbPlaceHolder
  3
AutoCAD 2000
 90
0
280
0
281
0
  0
CLASS
  1
LAYOUT
  2
AcDbLayout
  3
AutoCAD 2000
 90
0
280
0
281
0
  0
ENDSEC
  0
SECTION
  2
TABLES
  0
TABLE
  2
VPORT
  5
8
100
AcDbSymbolTable
 70
2
  0
VPORT
  5
1F4
100
AcDbSymbolTableRecord
100
AcDbViewportTableRecord
  2
*ACTIVE
 70
0
 10
0.0
 20
0.0
 11
1.0
 21
1.0
 12
148.5
 22
105.0
 13
0.0
 23
0.0
 14
1.0
 24
1.0
 15
0.0
 25
0.0
 16
0.0
 26
0.0
 36
1.0
 17
0.0
 27
0.0
 37
0.0
 40
210.0
 41
1.4142857143
 42
50.0
 43
0.0
 44
0.0
 50
0.0
 51
0.0
 71
0
 72
100
 73
1
 74
1
 75
0
 76
0
 77
0
 78
0
  0
ENDTAB
  0
TABLE
  2
LTYPE
  5
5
100
AcDbSymbolTable
 70
6
  0
LTYPE
  5
14
100
AcDbSymbolTableRecord
100
AcDbLinetypeTableRecord
  2
BYBLOCK
 70
0
  3

 72
65
 73
0
 40
0.0
  0
LTYPE
  5
15
100
AcDbSymbolTableRecord
100
AcDbLinetypeTableRecord
  2
BYLAYER
 70
0
  3

 72
65
 73
0
 40
0.0
  0
LTYPE
  5
16
100
AcDbSymbolTableRecord
100
AcDbLinetypeTableRecord
  2
CONTINUOUS
 70
64
  3
Solid line
 72
65
 73
0
 40
0.0
  0
LTYPE
  5
1F5
100
AcDbSymbolTableRecord
100
AcDbLinetypeTableRecord
  2
CENTER
 70
64
  3
____ _ ____ _ ____ _ ____ _ ____ _ ____ _ ____
 72
65
 73
4
 40
0.6
 49
0.375
 74
0
 49
-0.075
 74
0
 49
0.075
 74
0
 49
-0.075
 74
0
  0
LTYPE
  5
1F6
100
AcDbSymbolTableRecord
100
AcDbLinetypeTableRecord
  2
HIDDEN
 70
64
  3
- - - - - - - - - - - - - - - - - - - -
 72
65
 73
2
 40
0.2
 49
0.1
 74
0
 49
-0.1
 74
0
  0
LTYPE
  5
1F7
100
AcDbSymbolTableRecord
100
AcDbLinetypeTableRecord
  2
PHANTOM
 70
64
  3
_____ _ _ _____ _ _ _____ _ _ _____
 72
65
 73
6
 40
0.8
 49
0.45
 74
0
 49
-0.05
 74
0
 49
0.1
 74
0
 49
-0.05
 74
0
 49
0.1
 74
0
 49
-0.05
 74
0
  0
LTYPE
  5
1F8
100
AcDbSymbolTableRecord
100
AcDbLinetypeTableRecord
  2
DOT
 70
64
  3
. . . . . . . . . . . . . . . . . . . .
 72
65
 73
2
 40
0.2
 49
0.1
 74
0
 49
-0.1
 74
0
  0
LTYPE
  5
1F9
100
AcDbSymbolTableRecord
100
AcDbLinetypeTableRecord
  2
DASHED
 70
64
  3
- - - - - - - - - - - - - - - - - - - -
 72
65
 73
2
 40
0.2
 49
0.1
 74
0
 49
-0.1
 74
0
  0
ENDTAB
  0
TABLE
  2
LAYER
  5
2
100
AcDbSymbolTable
 70
36
  0
LAYER
  5
10
100
AcDbSymbolTableRecord
100
AcDbLayerTableRecord
  2
0
 70
0
 62
7
  6
CONTINUOUS
370
-3
390
F
  0
LAYER
  5
1FA
100
AcDbSymbolTableRecord
100
AcDbLayerTableRecord
  2
DEFAULT_1
 70
0
 62
7
  6
CENTER
370
-3
390
F
  0
LAYER
  5
1FB
100
AcDbSymbolTableRecord
100
AcDbLayerTableRecord
  2
DEFAULT_2
 70
0
 62
7
  6
HIDDEN
370
-3
390
F
  0
LAYER
  5
1FC
100
AcDbSymbolTableRecord
100
AcDbLayerTableRecord
  2
DEFAULT_3
 70
0
 62
7
  6
PHANTOM
370
-3
390
F
  0
LAYER
  5
1FD
100
AcDbSymbolTableRecord
100
AcDbLayerTableRecord
  2
ASSI
 70
0
 62
7
  6
CONTINUOUS
370
-3
390
F
  0
LAYER
  5
1FE
100
AcDbSymbolTableRecord
100
AcDbLayerTableRecord
  2
COLOR17
 70
0
 62
7
  6
CONTINUOUS
370
-3
390
F
  0
LAYER
  5
1FF
100
AcDbSymbolTableRecord
100
AcDbLayerTableRecord
  2
COLOR3
 70
0
 62
7
  6
CONTINUOUS
370
-3
390
F
  0
LAYER
  5
200
100
AcDbSymbolTableRecord
100
AcDbLayerTableRecord
  2
COLOR5
 70
0
 62
7
  6
CONTINUOUS
370
-3
390
F
  0
LAYER
  5
201
100
AcDbSymbolTableRecord
100
AcDbLayerTableRecord
  2
COORDINATE
 70
0
 62
7
  6
CONTINUOUS
370
-3
390
F
  0
LAYER
  5
202
100
AcDbSymbolTableRecord
100
AcDbLayerTableRecord
  2
COORD_ORIGINE
 70
0
 62
7
  6
CONTINUOUS
370
-3
390
F
  0
LAYER
  5
203
100
AcDbSymbolTableRecord
100
AcDbLayerTableRecord
  2
COPY_PUBLISH
 70
0
 62
7
  6
CONTINUOUS
370
-3
390
F
  0
LAYER
  5
204
100
AcDbSymbolTableRecord
100
AcDbLayerTableRecord
  2
COSMETICI
 70
0
 62
7
  6
CONTINUOUS
370
-3
390
F
  0
LAYER
  5
205
100
AcDbSymbolTableRecord
100
AcDbLayerTableRecord
  2
CURVE
 70
0
 62
7
  6
CONTINUOUS
370
-3
390
F
  0
LAYER
  5
206
100
AcDbSymbolTableRecord
100
AcDbLayerTableRecord
  2
DRAFT
 70
0
 62
7
  6
CONTINUOUS
370
-3
390
F
  0
LAYER
  5
207
100
AcDbSymbolTableRecord
100
AcDbLayerTableRecord
  2
IGES
 70
0
 62
7
  6
CONTINUOUS
370
-3
390
F
  0
LAYER
  5
208
100
AcDbSymbolTableRecord
100
AcDbLayerTableRecord
  2
IMPORT_IGES
 70
0
 62
7
  6
CONTINUOUS
370
-3
390
F
  0
LAYER
  5
209
100
AcDbSymbolTableRecord
100
AcDbLayerTableRecord
  2
INC_LASER
 70
0
 62
7
  6
CONTINUOUS
370
-3
390
F
  0
LAYER
  5
20A
100
AcDbSymbolTableRecord
100
AcDbLayerTableRecord
  2
NOTE
 70
0
 62
7
  6
CONTINUOUS
370
-3
390
F
  0
LAYER
  5
20B
100
AcDbSymbolTableRecord
100
AcDbLayerTableRecord
  2
PIANI
 70
0
 62
7
  6
CONTINUOUS
370
-3
390
F
  0
LAYER
  5
20C
100
AcDbSymbolTableRecord
100
AcDbLayerTableRecord
  2
PIANI_AUSILIARI
 70
0
 62
7
  6
CONTINUOUS
370
-3
390
F
  0
LAYER
  5
20D
100
AcDbSymbolTableRecord
100
AcDbLayerTableRecord
  2
PIANI_ORIGINE
 70
0
 62
7
  6
CONTINUOUS
370
-3
390
F
  0
LAYER
  5
20E
100
AcDbSymbolTableRecord
100
AcDbLayerTableRecord
  2
PUNTI
 70
0
 62
7
  6
CONTINUOUS
370
-3
390
F
  0
LAYER
  5
20F
100
AcDbSymbolTableRecord
100
AcDbLayerTableRecord
  2
RACCORDO
 70
0
 62
7
  6
CONTINUOUS
370
-3
390
F
  0
LAYER
  5
210
100
AcDbSymbolTableRecord
100
AcDbLayerTableRecord
  2
SIMBOLI
 70
0
 62
7
  6
CONTINUOUS
370
-3
390
F
  0
LAYER
  5
211
100
AcDbSymbolTableRecord
100
AcDbLayerTableRecord
  2
SMUSSO
 70
0
 62
7
  6
CONTINUOUS
370
-3
390
F
  0
LAYER
  5
212
100
AcDbSymbolTableRecord
100
AcDbLayerTableRecord
  2
SNAPLINE
 70
0
 62
7
  6
CONTINUOUS
370
-3
390
F
  0
LAYER
  5
213
100
AcDbSymbolTableRecord
100
AcDbLayerTableRecord
  2
SUPERFICI
 70
0
 62
7
  6
CONTINUOUS
370
-3
390
F
  0
LAYER
  5
214
100
AcDbSymbolTableRecord
100
AcDbLayerTableRecord
  2
TRASH
 70
0
 62
7
  6
CONTINUOUS
370
-3
390
F
  0
LAYER
  5
215
100
AcDbSymbolTableRecord
100
AcDbLayerTableRecord
  2
XSEC_DATUMS
 70
0
 62
7
  6
CONTINUOUS
370
-3
390
F
  0
LAYER
  5
216
100
AcDbSymbolTableRecord
100
AcDbLayerTableRecord
  2
___SHELL
 70
0
 62
7
  6
CONTINUOUS
370
-3
390
F
  0
ENDTAB
  0
TABLE
  2
STYLE
  5
3
100
AcDbSymbolTable
 70
1
  0
STYLE
  5
11
100
AcDbSymbolTableRecord
100
AcDbTextStyleTableRecord
  2
STANDARD
 70
0
 40
0.0
 41
0.8
 50
0.0
 71
0
 42
0.2
  3
txt
  4

  0
STYLE
  5
217
100
AcDbSymbolTableRecord
100
AcDbTextStyleTableRecord
  2
TEXTSTYLE_1
 70
0
 40
0.0
 41
0.8
 50
0.0
 71
0
 42
0.2
  3
gdt
  4

  0
ENDTAB
  0
TABLE
  2
VIEW
  5
6
100
AcDbSymbolTable
 70
0
  0
ENDTAB
  0
TABLE
  2
UCS
  5
7
100
AcDbSymbolTable
 70
0
  0
ENDTAB
  0
TABLE
  2
APPID
  5
9
100
AcDbSymbolTable
 70
1
  0
APPID
  5
218
100
AcDbSymbolTableRecord
100
AcDbRegAppTableRecord
  2
ACAD
 70
0
  0
ENDTAB
  0
TABLE
  2
BLOCK_RECORD
  5
1
100
AcDbSymbolTable
 70
0
  0
BLOCK_RECORD
  5
219
100
AcDbSymbolTableRecord
100
AcDbBlockTableRecord
  2
*Model_Space
  0
BLOCK_RECORD
  5
21A
100
AcDbSymbolTableRecord
100
AcDbBlockTableRecord
  2
*Paper_Space
  0
ENDTAB
  0
TABLE
  2
DIMSTYLE
  5
A
100
AcDbSymbolTable
 70
1
100
AcDbDimStyleTable
 71
0
  0
DIMSTYLE
105
21B
100
AcDbSymbolTableRecord
100
AcDbDimStyleTableRecord
  2
STANDARD
 70
0
  3

  4

 40
1.0
 41
3.0
 42
0.0625
 43
0.38
 44
0.18
 45
0.0
 46
0.0
 47
0.01
 48
0.01
140
3.0
141
0.09
142
0.0
143
25.4
144
1.0
145
0.0
146
1.0
147
0.09
 71
1.0
 72
0.0
 73
0
 74
0
 75
0
 76
0
 77
1
 78
8
170
0
171
2
172
0
173
0
174
0
175
0
176
0
177
0
178
0
270
2
271
2
272
2
273
2
274
2
275
0
280
0
281
0
282
0
283
1
284
8
285
0
286
0
287
3
288
0
340
11
  0
ENDTAB
  0
ENDSEC
  0
SECTION
  2
BLOCKS
  0
BLOCK
  5
20
100
AcDbEntity
  8
0
100
AcDbBlockBegin
  2
*Model_Space
 70
0
 10
0.0
 20
0.0
 30
0.0
  3
*Model_Space
  1

  0
ENDBLK
  5
21
100
AcDbEntity
  8
0
100
AcDbBlockEnd
  0
BLOCK
  5
1C
100
AcDbEntity
  8
0
100
AcDbBlockBegin
  2
*Paper_Space
 70
0
 10
0.0
 20
0.0
 30
0.0
  3
*Paper_Space
  1

  0
ENDBLK
  5
1D
100
AcDbEntity
  8
0
100
AcDbBlockEnd
  0
ENDSEC
  0
SECTION
  2
ENTITIES
  0
LWPOLYLINE
  5
21C
100
AcDbEntity
  8
RACCORDO
100
AcDbPolyline
 62
7
  6
CONTINUOUS
 90
13
 70
0
 10
9.8495713299
 20
-26.6261052632
 10
9.8822016958
 20
-26.6239673247
 10
9.9142739943
 20
-26.6175895562
 10
9.9452397244
 20
-26.6070807776
 10
9.97456943
 20
-26.5926204648
 10
10.0017611336
 20
-26.574455721
 10
10.0263490107
 20
-26.5528971907
 10
10.0479123125
 20
-26.5283135366
 10
10.0660820746
 20
-26.5011252867
 10
10.080547022
 20
-26.4717978696
 10
10.0910595829
 20
-26.4408331733
 10
10.097439967
 20
-26.4087608555
 10
10.0995789474
 20
-26.3761296314
  0
LWPOLYLINE
  5
21D
100
AcDbEntity
  8
RACCORDO
100
AcDbPolyline
 62
7
  6
CONTINUOUS
 90
25
 70
0
 10
1.9995789474
 20
-27.1095364835
 10
2.0127515735
 20
-27.1093994645
 10
2.025757595
 20
-27.1090036195
 10
2.0385970118
 20
-27.1083489486
 10
2.0513232246
 20
-27.1074304459
 10
2.0638828326
 20
-27.1062531173
 10
2.0761156338
 20
-27.1048319799
 10
2.0880174418
 20
-27.1031639107
 10
2.0995924429
 20
-27.1012520328
 10
2.110692994
 20
-27.0991207328
 10
2.1213130173
 20
-27.0967672
 10
2.1314585907
 20
-27.0941942451
 10
2.1410003036
 20
-27.0914346871
 10
2.1499304208
 20
-27.0884861357
 10
2.1582566777
 20
-27.0853509811
 10
2.1658728698
 20
-27.0820692134
 10
2.1727699015
 20
-27.0786389545
 10
2.1789568685
 20
-27.0750620824
 10
2.1843548539
 20
-27.0713842215
 10
2.1889537509
 20
-27.067604078
 10
2.1927636664
 20
-27.0637229457
 10
2.1957360034
 20
-27.0597903297
 10
2.1978545632
 20
-27.0558227317
 10
2.1991355445
 20
-27.05180365
 10
2.1995789474
 20
-27.0477330847
  0
LWPOLYLINE
  5
21E
100
AcDbEntity
  8
RACCORDO
100
AcDbPolyline
 62
7
  6
CONTINUOUS
 90
25
 70
0
 10
-3.7004210526
 20
-27.1095364835
 10
-3.6872484265
 20
-27.1093994645
 10
-3.674242405
 20
-27.1090036195
 10
-3.6614029882
 20
-27.1083489486
 10
-3.6486767754
 20
-27.1074304459
 10
-3.6361171674
 20
-27.1062531173
 10
-3.6238843662
 20
-27.1048319799
 10
-3.6119825582
 20
-27.1031639107
 10
-3.6004075571
 20
-27.1012520328
 10
-3.589307006
 20
-27.0991207328
 10
-3.5786869827
 20
-27.0967672
 10
-3.5685414093
 20
-27.0941942451
 10
-3.5589996964
 20
-27.0914346871
 10
-3.5500695792
 20
-27.0884861357
 10
-3.5417433223
 20
-27.0853509811
 10
-3.5341271302
 20
-27.0820692134
 10
-3.5272300985
 20
-27.0786389545
 10
-3.5210431315
 20
-27.0750620824
 10
-3.5156451461
 20
-27.0713842215
 10
-3.5110462491
 20
-27.067604078
 10
-3.5072363336
 20
-27.0637229457
 10
-3.5042639966
 20
-27.0597903297
 10
-3.5021454368
 20
-27.0558227317
 10
-3.5008644555
 20
-27.05180365
 10
-3.5004210526
 20
-27.0477330847
  0
LINE
  5
21F
100
AcDbEntity
  8
0
100
AcDbLine
 62
7
  6
CONTINUOUS
 10
-8.3004210526
 20
-27.6117935488
 11
3.6995789474
 21
-27.6117935488
  0
LINE
  5
220
100
AcDbEntity
  8
0
100
AcDbLine
 62
253
  6
CONTINUOUS
 10
3.6995789474
 20
-27.5775331102
 11
-8.3004210526
 21
-27.5775331102
  0
LINE
  5
221
100
AcDbEntity
  8
RACCORDO
100
AcDbLine
 62
7
  6
CONTINUOUS
 10
1.9995789474
 20
-27.4899590901
 11
-0.9004210526
 21
-27.4899590901
  0
LINE
  5
222
100
AcDbEntity
  8
RACCORDO
100
AcDbLine
 62
7
  6
CONTINUOUS
 10
-3.7004210526
 20
-27.4899590901
 11
-6.6004210526
 21
-27.4899590901
  0
LINE
  5
223
100
AcDbEntity
  8
RACCORDO
100
AcDbLine
 62
7
  6
CONTINUOUS
 10
1.9995789474
 20
-27.1095364835
 11
-0.9004210526
 21
-27.1095364835
  0
LINE
  5
224
100
AcDbEntity
  8
RACCORDO
100
AcDbLine
 62
7
  6
CONTINUOUS
 10
-3.7004210526
 20
-27.1095364835
 11
-6.6004210526
 21
-27.1095364835
  0
LWPOLYLINE
  5
225
100
AcDbEntity
  8
RACCORDO
100
AcDbPolyline
 62
7
  6
CONTINUOUS
 90
25
 70
0
 10
-6.6004210526
 20
-27.4899590901
 10
-6.6135936788
 20
-27.489822071
 10
-6.6265997003
 20
-27.489426226
 10
-6.639439117
 20
-27.4887715551
 10
-6.6521653298
 20
-27.4878530524
 10
-6.6647249379
 20
-27.4866757238
 10
-6.6769577391
 20
-27.4852545864
 10
-6.6888595471
 20
-27.4835865172
 10
-6.7004345482
 20
-27.4816746393
 10
-6.7115350992
 20
-27.4795433393
 10
-6.7221551226
 20
-27.4771898065
 10
-6.7323006959
 20
-27.4746168516
 10
-6.7418424089
 20
-27.4718572936
 10
-6.7507725261
 20
-27.4689087422
 10
-6.7590987829
 20
-27.4657735876
 10
-6.7667149751
 20
-27.4624918199
 10
-6.7736120068
 20
-27.459061561
 10
-6.7797989738
 20
-27.4554846889
 10
-6.7851969591
 20
-27.451806828
 10
-6.7897958562
 20
-27.4480266845
 10
-6.7936057717
 20
-27.4441455522
 10
-6.7965781087
 20
-27.4402129362
 10
-6.7986966684
 20
-27.4362453382
 10
-6.7999776497
 20
-27.4322262565
 10
-6.8004210526
 20
-27.4281556912
  0
LWPOLYLINE
  5
226
100
AcDbEntity
  8
RACCORDO
100
AcDbPolyline
 62
7
  6
CONTINUOUS
 90
25
 70
0
 10
-0.9004210526
 20
-27.4899590901
 10
-0.9135936788
 20
-27.489822071
 10
-0.9265997003
 20
-27.489426226
 10
-0.939439117
 20
-27.4887715551
 10
-0.9521653298
 20
-27.4878530524
 10
-0.9647249379
 20
-27.4866757238
 10
-0.9769577391
 20
-27.4852545864
 10
-0.9888595471
 20
-27.4835865172
 10
-1.0004345482
 20
-27.4816746393
 10
-1.0115350992
 20
-27.4795433393
 10
-1.0221551226
 20
-27.4771898065
 10
-1.0323006959
 20
-27.4746168516
 10
-1.0418424089
 20
-27.4718572936
 10
-1.0507725261
 20
-27.4689087422
 10
-1.0590987829
 20
-27.4657735876
 10
-1.0667149751
 20
-27.4624918199
 10
-1.0736120068
 20
-27.459061561
 10
-1.0797989738
 20
-27.4554846889
 10
-1.0851969591
 20
-27.451806828
 10
-1.0897958562
 20
-27.4480266845
 10
-1.0936057717
 20
-27.4441455522
 10
-1.0965781087
 20
-27.4402129362
 10
-1.0986966684
 20
-27.4362453382
 10
-1.0999776497
 20
-27.4322262565
 10
-1.1004210526
 20
-27.4281556912
  0
LWPOLYLINE
  5
227
100
AcDbEntity
  8
RACCORDO
100
AcDbPolyline
 62
7
  6
CONTINUOUS
 90
13
 70
0
 10
-14.4504134352
 20
-26.6261052632
 10
-14.4830438011
 20
-26.6239673247
 10
-14.5151160996
 20
-26.6175895562
 10
-14.5460818296
 20
-26.6070807776
 10
-14.5754115353
 20
-26.5926204648
 10
-14.6026032388
 20
-26.574455721
 10
-14.6271911159
 20
-26.5528971907
 10
-14.6487544178
 20
-26.5283135366
 10
-14.6669241799
 20
-26.5011252867
 10
-14.6813891273
 20
-26.4717978696
 10
-14.6919016882
 20
-26.4408331733
 10
-14.6982820722
 20
-26.4087608555
 10
-14.7004210526
 20
-26.3761296314
  0
LWPOLYLINE
  5
228
100
AcDbEntity
  8
RACCORDO
100
AcDbPolyline
 62
7
  6
CONTINUOUS
 90
7
 70
0
 10
-12.9504458034
 20
-26.6261052632
 10
-12.9178098689
 20
-26.6239676783
 10
-12.8857333388
 20
-26.6175878603
 10
-12.854765111
 20
-26.6070754087
 10
-12.8254352887
 20
-26.5926107725
 10
-12.7982452719
 20
-26.5744417721
 10
-12.7942692938
 20
-26.5713263597
  0
LINE
  5
229
100
AcDbEntity
  8
0
100
AcDbLine
 62
253
  6
CONTINUOUS
 10
2.1995789474
 20
-26.9117935488
 11
-1.1004210526
 21
-26.9117935488
  0
LINE
  5
22A
100
AcDbEntity
  8
0
100
AcDbLine
 62
253
  6
CONTINUOUS
 10
-3.5004210526
 20
-26.9117935488
 11
-6.8004210526
 21
-26.9117935488
  0
LINE
  5
22B
100
AcDbEntity
  8
RACCORDO
100
AcDbLine
 62
7
  6
CONTINUOUS
 10
8.3495732358
 20
-26.6261052632
 11
9.8495713299
 21
-26.6261052632
  0
LINE
  5
22C
100
AcDbEntity
  8
RACCORDO
100
AcDbLine
 62
7
  6
CONTINUOUS
 10
-12.9504153411
 20
-26.6261052632
 11
-14.4504134352
 21
-26.6261052632
  0
LINE
  5
22D
100
AcDbEntity
  8
RACCORDO
100
AcDbLine
 62
7
  6
CONTINUOUS
 10
2.1995789474
 20
-26.6117935488
 11
1.6328451822
 21
-26.6117935488
  0
LINE
  5
22E
100
AcDbEntity
  8
RACCORDO
100
AcDbLine
 62
7
  6
CONTINUOUS
 10
-6.2336872874
 20
-26.6117935488
 11
-6.8004210526
 21
-26.6117935488
  0
LINE
  5
22F
100
AcDbEntity
  8
RACCORDO
100
AcDbLine
 62
7
  6
CONTINUOUS
 10
9.6924757456
 20
-26.5632723893
 11
8.271061888
 21
-26.5632723893
  0
LINE
  5
230
100
AcDbEntity
  8
RACCORDO
100
AcDbLine
 62
7
  6
CONTINUOUS
 10
-12.8719039932
 20
-26.5632723893
 11
-14.2933178509
 21
-26.5632723893
  0
LINE
  5
231
100
AcDbEntity
  8
RACCORDO
100
AcDbLine
 62
7
  6
CONTINUOUS
 10
-6.6004210526
 20
-26.4702030086
 11
-3.7004210526
 21
-26.4702030086
  0
LINE
  5
232
100
AcDbEntity
  8
RACCORDO
100
AcDbLine
 62
7
  6
CONTINUOUS
 10
-0.9004210526
 20
-26.4702030086
 11
1.9995789474
 21
-26.4702030086
  0
LINE
  5
233
100
AcDbEntity
  8
DRAFT
100
AcDbLine
 62
7
  6
CONTINUOUS
 10
-8.5004210526
 20
-25.8761052632
 11
-6.2759858228
 21
-25.8761052632
  0
LINE
  5
234
100
AcDbEntity
  8
DRAFT
100
AcDbLine
 62
7
  6
CONTINUOUS
 10
1.6751437176
 20
-25.8761052632
 11
3.8995789474
 21
-25.8761052632
  0
LINE
  5
235
100
AcDbEntity
  8
RACCORDO
100
AcDbLine
 62
7
  6
CONTINUOUS
 10
-6.275113136
 20
-25.4429650038
 11
-6.2504210526
 21
-25.4429650038
  0
LINE
  5
236
100
AcDbEntity
  8
RACCORDO
100
AcDbLine
 62
7
  6
CONTINUOUS
 10
1.6742710308
 20
-25.4429650038
 11
1.6495789474
 21
-25.4429650038
  0
LWPOLYLINE
  5
237
100
AcDbEntity
  8
RACCORDO
100
AcDbPolyline
 62
7
  6
CONTINUOUS
 90
25
 70
0
 10
-3.7004210526
 20
-26.4702030086
 10
-3.6872484265
 20
-26.4703400277
 10
-3.674242405
 20
-26.4707358726
 10
-3.6614029882
 20
-26.4713905436
 10
-3.6486767754
 20
-26.4723090463
 10
-3.6361171674
 20
-26.4734863749
 10
-3.6238843662
 20
-26.4749075122
 10
-3.6119825582
 20
-26.4765755815
 10
-3.6004075571
 20
-26.4784874594
 10
-3.589307006
 20
-26.4806187594
 10
-3.5786869827
 20
-26.4829722922
 10
-3.5685414093
 20
-26.4855452471
 10
-3.5589996964
 20
-26.4883048051
 10
-3.5500695792
 20
-26.4912533565
 10
-3.5417433223
 20
-26.4943885111
 10
-3.5341271302
 20
-26.4976702788
 10
-3.5272300985
 20
-26.5011005377
 10
-3.5210431315
 20
-26.5046774098
 10
-3.5156451461
 20
-26.5083552707
 10
-3.5110462491
 20
-26.5121354141
 10
-3.5072363336
 20
-26.5160165465
 10
-3.5042639966
 20
-26.5199491625
 10
-3.5021454368
 20
-26.5239167605
 10
-3.5008644555
 20
-26.5279358422
 10
-3.5004210526
 20
-26.5320064075
  0
LWPOLYLINE
  5
238
100
AcDbEntity
  8
RACCORDO
100
AcDbPolyline
 62
7
  6
CONTINUOUS
 90
25
 70
0
 10
1.9995789474
 20
-26.4702030086
 10
2.0127515735
 20
-26.4703400277
 10
2.025757595
 20
-26.4707358726
 10
2.0385970118
 20
-26.4713905436
 10
2.0513232246
 20
-26.4723090463
 10
2.0638828326
 20
-26.4734863749
 10
2.0761156338
 20
-26.4749075122
 10
2.0880174418
 20
-26.4765755815
 10
2.0995924429
 20
-26.4784874594
 10
2.110692994
 20
-26.4806187594
 10
2.1213130173
 20
-26.4829722922
 10
2.1314585907
 20
-26.4855452471
 10
2.1410003036
 20
-26.4883048051
 10
2.1499304208
 20
-26.4912533565
 10
2.1582566777
 20
-26.4943885111
 10
2.1658728698
 20
-26.4976702788
 10
2.1727699015
 20
-26.5011005377
 10
2.1789568685
 20
-26.5046774098
 10
2.1843548539
 20
-26.5083552707
 10
2.1889537509
 20
-26.5121354141
 10
2.1927636664
 20
-26.5160165465
 10
2.1957360034
 20
-26.5199491625
 10
2.1978545632
 20
-26.5239167605
 10
2.1991355445
 20
-26.5279358422
 10
2.1995789474
 20
-26.5320064075
  0
LWPOLYLINE
  5
239
100
AcDbEntity
  8
RACCORDO
100
AcDbPolyline
 62
7
  6
CONTINUOUS
 90
25
 70
0
 10
1.6495789474
 20
-25.4429650038
 10
1.6364063212
 20
-25.4428279848
 10
1.6234002997
 20
-25.4424321398
 10
1.610560883
 20
-25.4417774688
 10
1.5978346702
 20
-25.4408589662
 10
1.5852750621
 20
-25.4396816375
 10
1.5730422609
 20
-25.4382605002
 10
1.5611404529
 20
-25.436592431
 10
1.5495654518
 20
-25.434680553
 10
1.5384649008
 20
-25.432549253
 10
1.5278448774
 20
-25.4301957202
 10
1.5176993041
 20
-25.4276227653
 10
1.5081575911
 20
-25.4248632074
 10
1.4992274739
 20
-25.4219146559
 10
1.4909012171
 20
-25.4187795013
 10
1.4832850249
 20
-25.4154977336
 10
1.4763879932
 20
-25.4120674747
 10
1.4702010262
 20
-25.4084906027
 10
1.4648030409
 20
-25.4048127417
 10
1.4602041438
 20
-25.4010325983
 10
1.4563942283
 20
-25.3971514659
 10
1.4534218913
 20
-25.3932188499
 10
1.4513033316
 20
-25.3892512519
 10
1.4500223503
 20
-25.3852321703
 10
1.4495789474
 20
-25.3811616049
  0
LWPOLYLINE
  5
23A
100
AcDbEntity
  8
RACCORDO
100
AcDbPolyline
 62
7
  6
CONTINUOUS
 90
7
 70
0
 10
8.3495732358
 20
-26.6261052632
 10
8.3169475635
 20
-26.6239650141
 10
8.2848793366
 20
-26.6175846639
 10
8.2539172059
 20
-26.6070730061
 10
8.2245907077
 20
-26.592609343
 10
8.1974020572
 20
-26.5744409019
 10
8.1934276132
 20
-26.5713266788
  0
LINE
  5
23B
100
AcDbEntity
  8
DRAFT
100
AcDbLine
 62
7
  6
CONTINUOUS
 10
-9.7009363761
 20
18.3402175178
 11
-9.8004210526
 21
18.2738947368
  0
LWPOLYLINE
  5
23C
100
AcDbEntity
  8
ASSI
100
AcDbPolyline
 62
7
  6
CONTINUOUS
 90
3
 70
0
 10
-7.6614807857
 20
17.6724342963
 10
-7.6375807938
 20
17.6839713666
 10
-7.6144681558
 20
17.694500462
  0
LWPOLYLINE
  5
23D
100
AcDbEntity
  8
ASSI
100
AcDbPolyline
 62
7
  6
CONTINUOUS
 90
8
 70
0
 10
-7.6144681558
 20
17.694500462
 10
-7.5921518708
 20
17.7038928924
 10
-7.5705239534
 20
17.71202776
 10
-7.5497113775
 20
17.7187544131
 10
-7.5300735646
 20
17.7239283602
 10
-7.5117339963
 20
17.7274488917
 10
-7.4945826082
 20
17.7292248417
 10
-7.4786260093
 20
17.729161699
  0
LINE
  5
23E
100
AcDbEntity
  8
ASSI
100
AcDbLine
 62
7
  6
CONTINUOUS
 10
2.793855004
 20
-22.9761958534
 11
2.6995789474
 21
-23.0011052632
  0
LWPOLYLINE
  5
23F
100
AcDbEntity
  8
RACCORDO
100
AcDbPolyline
 62
7
  6
CONTINUOUS
 90
17
 70
0
 10
-6.1504075571
 20
-25.0542579465
 10
-6.139307006
 20
-25.0521266465
 10
-6.1286869827
 20
-25.0497731137
 10
-6.1185414093
 20
-25.0472001588
 10
-6.1089996964
 20
-25.0444406008
 10
-6.1000695792
 20
-25.0414920494
 10
-6.0917433223
 20
-25.0383568948
 10
-6.0841271302
 20
-25.0350751271
 10
-6.0772300985
 20
-25.0316448682
 10
-6.0710431315
 20
-25.0280679961
 10
-6.0656451461
 20
-25.0243901352
 10
-6.0610462491
 20
-25.0206099918
 10
-6.0572363336
 20
-25.0167288594
 10
-6.0542639966
 20
-25.0127962434
 10
-6.0521454368
 20
-25.0088286454
 10
-6.0508644555
 20
-25.0048095637
 10
-6.0504210526
 20
-25.0007389984
  0
LINE
  5
240
100
AcDbEntity
  8
RACCORDO
100
AcDbLine
 62
7
  6
CONTINUOUS
 10
3.9022222083
 20
-22.9939893446
 11
3.7011389535
 21
-23.0227141238
  0
LINE
  5
241
100
AcDbEntity
  8
ASSI
100
AcDbLine
 62
7
  6
CONTINUOUS
 10
3.1307670855
 20
-23.5582211773
 11
1.8205390091
 21
-23.6500011395
  0
LINE
  5
242
100
AcDbEntity
  8
DRAFT
100
AcDbLine
 62
7
  6
CONTINUOUS
 10
1.7000543441
 20
-23.6397188451
 11
1.6018380281
 21
-23.646586799
  0
LINE
  5
243
100
AcDbEntity
  8
DRAFT
100
AcDbLine
 62
7
  6
CONTINUOUS
 10
1.6995789474
 20
-23.6261052632
 11
3.129645573
 21
-23.5261052632
  0
LWPOLYLINE
  5
244
100
AcDbEntity
  8
RACCORDO
100
AcDbPolyline
 62
7
  6
CONTINUOUS
 90
9
 70
0
 10
-6.2504210526
 20
-25.0625423973
 10
-6.2372484265
 20
-25.0624053782
 10
-6.224242405
 20
-25.0620095333
 10
-6.2114029882
 20
-25.0613548623
 10
-6.1986767754
 20
-25.0604363596
 10
-6.1861171674
 20
-25.059259031
 10
-6.1738843662
 20
-25.0578378937
 10
-6.1619825582
 20
-25.0561698244
 10
-6.1504075571
 20
-25.0542579465
  0
LINE
  5
245
100
AcDbEntity
  8
ASSI
100
AcDbLine
 62
253
  6
CONTINUOUS
 10
-7.2917322632
 20
-24.1569282192
 11
-7.7316089405
 21
-24.1574980051
  0
LINE
  5
246
100
AcDbEntity
  8
RACCORDO
100
AcDbLine
 62
253
  6
CONTINUOUS
 10
-7.7316089405
 20
-24.1574980051
 11
-9.1030963005
 21
-24.1582202679
  0
LINE
  5
247
100
AcDbEntity
  8
DRAFT
100
AcDbLine
 62
7
  6
CONTINUOUS
 10
-12.6218792425
 20
-25.1261052632
 11
-8.5004210526
 21
-25.1261052632
  0
LINE
  5
248
100
AcDbEntity
  8
DRAFT
100
AcDbLine
 62
7
  6
CONTINUOUS
 10
3.8995789474
 20
-25.1261052632
 11
8.0210371373
 21
-25.1261052632
  0
LINE
  5
249
100
AcDbEntity
  8
DRAFT
100
AcDbLine
 62
7
  6
CONTINUOUS
 10
-12.6218792425
 20
-25.095735424
 11
-8.5004210526
 21
-25.095735424
  0
LINE
  5
24A
100
AcDbEntity
  8
DRAFT
100
AcDbLine
 62
7
  6
CONTINUOUS
 10
3.8995789474
 20
-25.095735424
 11
8.0210371373
 21
-25.095735424
  0
LINE
  5
24B
100
AcDbEntity
  8
ASSI
100
AcDbLine
 62
253
  6
CONTINUOUS
 10
-8.5004210526
 20
-25.0485766733
 11
-6.4110008763
 21
-25.0485766733
  0
LINE
  5
24C
100
AcDbEntity
  8
ASSI
100
AcDbLine
 62
253
  6
CONTINUOUS
 10
1.810158771
 20
-25.0485766733
 11
3.8995789474
 21
-25.0485766733
  0
LINE
  5
24D
100
AcDbEntity
  8
DRAFT
100
AcDbLine
 62
7
  6
CONTINUOUS
 10
1.6018380281
 20
-25.0391846891
 11
1.4930996502
 21
-25.0391846891
  0
LINE
  5
24E
100
AcDbEntity
  8
DRAFT
100
AcDbLine
 62
7
  6
CONTINUOUS
 10
-6.0939417555
 20
-25.0391846891
 11
-6.2026801334
 21
-25.0391846891
  0
LINE
  5
24F
100
AcDbEntity
  8
0
100
AcDbLine
 62
253
  6
CONTINUOUS
 10
1.4495789474
 20
-24.7677444134
 11
-6.0504210526
 21
-24.7677444134
  0
LINE
  5
250
100
AcDbEntity
  8
ASSI
100
AcDbLine
 62
253
  6
CONTINUOUS
 10
-8.5004210526
 20
-24.2968225766
 11
-7.2917322632
 21
-24.2968225766
  0
LINE
  5
251
100
AcDbEntity
  8
ASSI
100
AcDbLine
 62
253
  6
CONTINUOUS
 10
2.690890158
 20
-24.2968225766
 11
3.8995789474
 21
-24.2968225766
  0
LINE
  5
252
100
AcDbEntity
  8
RACCORDO
100
AcDbLine
 62
7
  6
CONTINUOUS
 10
1.7000543441
 20
-23.6397188451
 11
1.4495789474
 21
-23.6397188451
  0
LINE
  5
253
100
AcDbEntity
  8
RACCORDO
100
AcDbLine
 62
7
  6
CONTINUOUS
 10
-6.0504210526
 20
-23.6397188451
 11
-6.3008964494
 21
-23.6397188451
  0
LINE
  5
254
100
AcDbEntity
  8
DRAFT
100
AcDbLine
 62
7
  6
CONTINUOUS
 10
-6.3004210526
 20
-23.6261052632
 11
-6.0504210526
 21
-23.6261052632
  0
LINE
  5
255
100
AcDbEntity
  8
DRAFT
100
AcDbLine
 62
7
  6
CONTINUOUS
 10
1.4495789474
 20
-23.6261052632
 11
1.6995789474
 21
-23.6261052632
  0
LINE
  5
256
100
AcDbEntity
  8
DRAFT
100
AcDbLine
 62
7
  6
CONTINUOUS
 10
9.3467032678
 20
-23.5924280441
 11
5.1000942709
 21
-23.5924280441
  0
LINE
  5
257
100
AcDbEntity
  8
DRAFT
100
AcDbLine
 62
7
  6
CONTINUOUS
 10
-9.7009363761
 20
-23.5924280441
 11
-13.9475453731
 21
-23.5924280441
  0
LINE
  5
258
100
AcDbEntity
  8
DRAFT
100
AcDbLine
 62
7
  6
CONTINUOUS
 10
9.2995789474
 20
-23.56101199
 11
8.5995789474
 21
-23.56101199
  0
LINE
  5
259
100
AcDbEntity
  8
DRAFT
100
AcDbLine
 62
7
  6
CONTINUOUS
 10
-13.2004210526
 20
-23.56101199
 11
-13.9004210526
 21
-23.56101199
  0
LINE
  5
25A
100
AcDbEntity
  8
RACCORDO
100
AcDbLine
 62
7
  6
CONTINUOUS
 10
3.9022222083
 20
-23.5582211817
 11
3.1307670856
 21
-23.5582211817
  0
LINE
  5
25B
100
AcDbEntity
  8
RACCORDO
100
AcDbLine
 62
7
  6
CONTINUOUS
 10
-7.7316091909
 20
-23.5582211817
 11
-8.5030643136
 21
-23.5582211817
  0
LINE
  5
25C
100
AcDbEntity
  8
DRAFT
100
AcDbLine
 62
7
  6
CONTINUOUS
 10
-13.1131523747
 20
-23.5261052632
 11
-9.8004210526
 21
-23.5261052632
  0
LINE
  5
25D
100
AcDbEntity
  8
DRAFT
100
AcDbLine
 62
7
  6
CONTINUOUS
 10
-8.278241926
 20
-23.5261052632
 11
-7.7304876783
 21
-23.5261052632
  0
LINE
  5
25E
100
AcDbEntity
  8
DRAFT
100
AcDbLine
 62
7
  6
CONTINUOUS
 10
3.129645573
 20
-23.5261052632
 11
3.6773998207
 21
-23.5261052632
  0
LINE
  5
25F
100
AcDbEntity
  8
DRAFT
100
AcDbLine
 62
7
  6
CONTINUOUS
 10
5.1995789474
 20
-23.5261052632
 11
8.5123102695
 21
-23.5261052632
  0
LINE
  5
260
100
AcDbEntity
  8
0
100
AcDbLine
 62
7
  6
CONTINUOUS
 10
-8.3004210526
 20
-23.4117935488
 11
-7.0442640234
 21
-23.4117935488
  0
LINE
  5
261
100
AcDbEntity
  8
0
100
AcDbLine
 62
7
  6
CONTINUOUS
 10
-7.032940559
 20
-23.4117935488
 11
-6.2504210526
 21
-23.4117935488
  0
LINE
  5
262
100
AcDbEntity
  8
0
100
AcDbLine
 62
7
  6
CONTINUOUS
 10
3.6995789474
 20
-23.4117935488
 11
2.4434219181
 21
-23.4117935488
  0
LINE
  5
263
100
AcDbEntity
  8
0
100
AcDbLine
 62
7
  6
CONTINUOUS
 10
2.4320984537
 20
-23.4117935488
 11
1.6495789474
 21
-23.4117935488
  0
LINE
  5
264
100
AcDbEntity
  8
DRAFT
100
AcDbLine
 62
7
  6
CONTINUOUS
 10
9.942483363
 20
-23.4018373716
 11
9.3467032678
 21
-23.4018373716
  0
LINE
  5
265
100
AcDbEntity
  8
DRAFT
100
AcDbLine
 62
7
  6
CONTINUOUS
 10
-13.9475453731
 20
-23.4018373716
 11
-14.5433254683
 21
-23.4018373716
  0
LINE
  5
266
100
AcDbEntity
  8
RACCORDO
100
AcDbLine
 62
253
  6
CONTINUOUS
 10
4.5022541953
 20
-24.1582202679
 11
3.1726208306
 21
-24.157490751
  0
LINE
  5
267
100
AcDbEntity
  8
ASSI
100
AcDbLine
 62
253
  6
CONTINUOUS
 10
3.1726208306
 20
-24.157490751
 11
2.690890158
 21
-24.1569282192
  0
LWPOLYLINE
  5
268
100
AcDbEntity
  8
ASSI
100
AcDbPolyline
 62
7
  6
CONTINUOUS
 90
25
 70
0
 10
-6.2504210526
 20
-23.4117935488
 10
-6.2299354149
 20
-23.4118779972
 10
-6.2109688211
 20
-23.412132854
 10
-6.1935212712
 20
-23.4125603492
 10
-6.1777169657
 20
-23.4131639353
 10
-6.1634317041
 20
-23.4139451064
 10
-6.1502928851
 20
-23.4149001822
 10
-6.1382622443
 20
-23.4160260291
 10
-6.127378046
 20
-23.4173233165
 10
-6.1173824826
 20
-23.4187911088
 10
-6.1082536455
 20
-23.4204243296
 10
-6.1000134432
 20
-23.4222251407
 10
-6.0924697941
 20
-23.4242070057
 10
-6.0855880831
 20
-23.4263725952
 10
-6.0794029253
 20
-23.4287240143
 10
-6.0738260843
 20
-23.4312808204
 10
-6.0688300758
 20
-23.4340577999
 10
-6.064442384
 20
-23.4370525666
 10
-6.0606572254
 20
-23.4402605663
 10
-6.0574788516
 20
-23.4436899055
 10
-6.054903011
 20
-23.4473403189
 10
-6.0529111646
 20
-23.4511890173
 10
-6.051497133
 20
-23.455226416
 10
-6.0506670956
 20
-23.4594603829
 10
-6.0504210526
 20
-23.4638903405
  0
LINE
  5
269
100
AcDbEntity
  8
RACCORDO
100
AcDbLine
 62
7
  6
CONTINUOUS
 10
1.6364063212
 20
-25.0624053782
 11
1.6495789474
 21
-25.0625423973
  0
LWPOLYLINE
  5
26A
100
AcDbEntity
  8
ASSI
100
AcDbPolyline
 62
7
  6
CONTINUOUS
 90
17
 70
0
 10
1.8205390091
 20
-23.6500011395
 10
1.8506430123
 20
-23.6514710666
 10
1.8830475854
 20
-23.6565458019
 10
1.9175164123
 20
-23.6652253454
 10
1.9538468351
 20
-23.6779363822
 10
1.9917858461
 20
-23.6942522272
 10
2.0310140332
 20
-23.7128928255
 10
2.0711729018
 20
-23.7336698005
 10
2.1121673264
 20
-23.7567715289
 10
2.154107086
 20
-23.781483085
 10
2.1968866889
 20
-23.8077409772
 10
2.2402917783
 20
-23.8356086971
 10
2.2843238605
 20
-23.864561794
 10
2.3288851662
 20
-23.8945814431
 10
2.3738063568
 20
-23.9256864691
 10
2.4190024206
 20
-23.9574088964
 10
2.4643216903
 20
-23.9896980926
  0
LINE
  5
26B
100
AcDbEntity
  8
DRAFT
100
AcDbLine
 62
7
  6
CONTINUOUS
 10
-6.3008964494
 20
-23.6397188451
 11
-6.2026801334
 21
-23.646586799
  0
LINE
  5
26C
100
AcDbEntity
  8
DRAFT
100
AcDbLine
 62
7
  6
CONTINUOUS
 10
-7.7304876783
 20
-23.5261052632
 11
-6.3004210526
 21
-23.6261052632
  0
LINE
  5
26D
100
AcDbEntity
  8
ASSI
100
AcDbLine
 62
7
  6
CONTINUOUS
 10
-6.4213811144
 20
-23.6500011395
 11
-7.7316091907
 21
-23.5582211773
  0
LINE
  5
26E
100
AcDbEntity
  8
RACCORDO
100
AcDbLine
 62
7
  6
CONTINUOUS
 10
-8.5030643136
 20
-22.9939893446
 11
-8.3019810587
 21
-23.0227141238
  0
LINE
  5
26F
100
AcDbEntity
  8
ASSI
100
AcDbLine
 62
7
  6
CONTINUOUS
 10
-7.3946971092
 20
-22.9761958534
 11
-7.3004210526
 21
-23.0011052632
  0
LWPOLYLINE
  5
270
100
AcDbEntity
  8
ASSI
100
AcDbPolyline
 62
7
  6
CONTINUOUS
 90
3
 70
0
 10
-7.6144814879
 20
-22.9467048456
 10
-7.637588999
 20
-22.9361776186
 10
-7.6614807857
 20
-22.9246448226
  0
LWPOLYLINE
  5
271
100
AcDbEntity
  8
ASSI
100
AcDbPolyline
 62
7
  6
CONTINUOUS
 90
10
 70
0
 10
-7.6614807857
 20
-22.9246448226
 10
-7.7051474414
 20
-22.8989510648
 10
-7.7521554398
 20
-22.8693414961
 10
-7.8025047808
 20
-22.8359415005
 10
-7.8562786801
 20
-22.7989808115
 10
-7.9133939221
 20
-22.7586030694
 10
-7.9736008601
 20
-22.7148147659
 10
-8.0369861082
 20
-22.6678603688
 10
-8.1034630523
 20
-22.618020481
 10
-8.1725222027
 20
-22.5653482402
  0
LINE
  5
272
100
AcDbEntity
  8
DRAFT
100
AcDbLine
 62
7
  6
CONTINUOUS
 10
-9.7009363761
 20
-23.5924280441
 11
-9.8004210526
 21
-23.5261052632
  0
LWPOLYLINE
  5
273
100
AcDbEntity
  8
ASSI
100
AcDbPolyline
 62
7
  6
CONTINUOUS
 90
9
 70
0
 10
-6.4110008763
 20
-25.0485766733
 10
-6.4432409916
 20
-25.0259984591
 10
-6.4794904629
 20
-24.9990610189
 10
-6.5197492903
 20
-24.967803198
 10
-6.5641293419
 20
-24.9322965097
 10
-6.6125187495
 20
-24.8926437411
 10
-6.6645819084
 20
-24.8489791254
 10
-6.7202249399
 20
-24.801619207
 10
-6.7795417227
 20
-24.7506451209
  0
LINE
  5
274
100
AcDbEntity
  8
RACCORDO
100
AcDbLine
 62
7
  6
CONTINUOUS
 10
-9.0664154034
 20
17.1787336142
 11
-9.1030963005
 21
17.1417797321
  0
LINE
  5
275
100
AcDbEntity
  8
RACCORDO
100
AcDbLine
 62
253
  6
CONTINUOUS
 10
-9.7009363761
 20
17.023375301
 11
-9.7957086206
 21
16.9286030566
  0
LINE
  5
276
100
AcDbEntity
  8
RACCORDO
100
AcDbLine
 62
253
  6
CONTINUOUS
 10
-9.4009404884
 20
16.7233794134
 11
-9.4957127329
 21
16.6286071689
  0
LINE
  5
277
100
AcDbEntity
  8
RACCORDO
100
AcDbLine
 62
7
  6
CONTINUOUS
 10
-8.7053403802
 20
17.5396848612
 11
-8.7724687624
 21
17.4724072703
  0
LINE
  5
278
100
AcDbEntity
  8
RACCORDO
100
AcDbLine
 62
7
  6
CONTINUOUS
 10
-8.643668645
 20
17.6011594435
 11
-8.7053403802
 21
17.5396848612
  0
LINE
  5
279
100
AcDbEntity
  8
RACCORDO
100
AcDbLine
 62
7
  6
CONTINUOUS
 10
-8.7724687624
 20
17.4724072703
 11
-9.0664154034
 21
17.1787336142
  0
LWPOLYLINE
  5
27A
100
AcDbEntity
  8
RACCORDO
100
AcDbPolyline
 62
7
  6
CONTINUOUS
 90
3
 70
0
 10
-8.5661272768
 20
17.6786627874
 10
-8.6156015888
 20
17.6294915107
 10
-8.643668645
 20
17.6011594435
  0
LINE
  5
27B
100
AcDbEntity
  8
ASSI
100
AcDbLine
 62
7
  6
CONTINUOUS
 10
-7.2089940658
 20
19.117977647
 11
-6.9794913011
 21
19.3231526293
  0
LINE
  5
27C
100
AcDbEntity
  8
ASSI
100
AcDbLine
 62
7
  6
CONTINUOUS
 10
-7.2917322632
 20
19.0446120503
 11
-7.2089940658
 21
19.117977647
  0
LWPOLYLINE
  5
27D
100
AcDbEntity
  8
ASSI
100
AcDbPolyline
 62
7
  6
CONTINUOUS
 90
11
 70
0
 10
-6.9794913011
 20
19.3231526293
 10
-6.8424782882
 20
19.4435992301
 10
-6.7795417227
 20
19.4984345945
 10
-6.7202249399
 20
19.5494086807
 10
-6.6645819084
 20
19.5967685991
 10
-6.6125187495
 20
19.6404332148
 10
-6.5641293419
 20
19.6800859834
 10
-6.5197492903
 20
19.7155926717
 10
-6.4794904629
 20
19.7468504926
 10
-6.4432409916
 20
19.7737879328
 10
-6.4110008763
 20
19.796366147
  0
LINE
  5
27E
100
AcDbEntity
  8
ASSI
100
AcDbLine
 62
7
  6
CONTINUOUS
 10
-8.3946834015
 20
17.1417797321
 11
-8.1725595807
 21
17.3131091349
  0
LWPOLYLINE
  5
27F
100
AcDbEntity
  8
ASSI
100
AcDbPolyline
 62
7
  6
CONTINUOUS
 90
10
 70
0
 10
-8.1725595807
 20
17.3131091349
 10
-8.1035008629
 20
17.3657815203
 10
-8.0370192936
 20
17.4156252189
 10
-7.9736300961
 20
17.4625827895
 10
-7.9134229514
 20
17.5063714404
 10
-7.8563081784
 20
17.5467492971
 10
-7.8025319574
 20
17.5837126356
 10
-7.7521763483
 20
17.6171179842
 10
-7.705159291
 20
17.6467339261
 10
-7.6614807857
 20
17.6724342963
  0
LINE
  5
280
100
AcDbEntity
  8
RACCORDO
100
AcDbLine
 62
7
  6
CONTINUOUS
 10
-8.5030643136
 20
-23.5582211817
 11
-8.278241926
 21
-23.5261052632
  0
LINE
  5
281
100
AcDbEntity
  8
ASSI
100
AcDbLine
 62
7
  6
CONTINUOUS
 10
-6.2917703402
 20
-23.6582181208
 11
-6.2026801334
 21
-23.646586799
  0
LINE
  5
282
100
AcDbEntity
  8
DRAFT
100
AcDbLine
 62
7
  6
CONTINUOUS
 10
-7.3004210526
 20
-23.0011052632
 11
-7.4532706579
 21
-23.0117935488
  0
LINE
  5
283
100
AcDbEntity
  8
ASSI
100
AcDbLine
 62
7
  6
CONTINUOUS
 10
-7.6590592216
 20
-22.9939893446
 11
-7.4786260093
 21
-22.9813722253
  0
LWPOLYLINE
  5
284
100
AcDbEntity
  8
ASSI
100
AcDbPolyline
 62
7
  6
CONTINUOUS
 90
8
 70
0
 10
-7.4786260093
 20
-22.9813722253
 10
-7.4945830498
 20
-22.9814353221
 10
-7.5117357171
 20
-22.9796591288
 10
-7.530077413
 20
-22.9761380052
 10
-7.549719477
 20
-22.9709626802
 10
-7.5705371841
 20
-22.9642338456
 10
-7.5921672884
 20
-22.956097286
 10
-7.6144814879
 20
-22.9467048456
  0
LINE
  5
285
100
AcDbEntity
  8
0
100
AcDbLine
 62
7
  6
CONTINUOUS
 10
3.6995789474
 20
-23.0117935488
 11
-8.3004210526
 21
-23.0117935488
  0
LINE
  5
286
100
AcDbEntity
  8
ASSI
100
AcDbLine
 62
7
  6
CONTINUOUS
 10
1.6495789474
 20
-23.0117935488
 11
-6.2504210526
 21
-23.0117935488
  0
LINE
  5
287
100
AcDbEntity
  8
RACCORDO
100
AcDbLine
 62
7
  6
CONTINUOUS
 10
-8.5030643136
 20
-22.9939893446
 11
-7.6590592216
 21
-22.9939893446
  0
LINE
  5
288
100
AcDbEntity
  8
RACCORDO
100
AcDbLine
 62
7
  6
CONTINUOUS
 10
3.0582171164
 20
-22.9939893446
 11
3.9022222083
 21
-22.9939893446
  0
LINE
  5
289
100
AcDbEntity
  8
0
100
AcDbLine
 62
7
  6
CONTINUOUS
 10
-5.7179641312
 20
-22.6117935488
 11
1.117122026
 21
-22.6117935488
  0
LINE
  5
28A
100
AcDbEntity
  8
ASSI
100
AcDbLine
 62
253
  6
CONTINUOUS
 10
-9.1030963005
 20
-22.3939902585
 11
-8.3946834015
 21
-22.3939902585
  0
LINE
  5
28B
100
AcDbEntity
  8
ASSI
100
AcDbLine
 62
253
  6
CONTINUOUS
 10
3.7938412962
 20
-22.3939902585
 11
4.5022541953
 21
-22.3939902585
  0
LINE
  5
28C
100
AcDbEntity
  8
RACCORDO
100
AcDbLine
 62
253
  6
CONTINUOUS
 10
-2.1004210526
 20
-22.3761052632
 11
-1.8004210526
 21
-22.3761052631
  0
LINE
  5
28D
100
AcDbEntity
  8
RACCORDO
100
AcDbLine
 62
253
  6
CONTINUOUS
 10
-2.5004210526
 20
-22.3761052632
 11
-2.8004210526
 21
-22.3761052632
  0
LINE
  5
28E
100
AcDbEntity
  8
ASSI
100
AcDbLine
 62
7
  6
CONTINUOUS
 10
-9.4009404884
 20
-21.9755899397
 11
-8.3946834015
 21
-21.9755899397
  0
LINE
  5
28F
100
AcDbEntity
  8
ASSI
100
AcDbLine
 62
7
  6
CONTINUOUS
 10
3.7938412962
 20
-21.9755899397
 11
4.8000983832
 21
-21.9755899397
  0
LINE
  5
290
100
AcDbEntity
  8
RACCORDO
100
AcDbLine
 62
7
  6
CONTINUOUS
 10
-9.500425165
 20
-21.8761052632
 11
-7.3004210526
 21
-21.8761052632
  0
LINE
  5
291
100
AcDbEntity
  8
RACCORDO
100
AcDbLine
 62
7
  6
CONTINUOUS
 10
2.6995789474
 20
-21.8761052632
 11
4.8995830597
 21
-21.8761052632
  0
LWPOLYLINE
  5
292
100
AcDbEntity
  8
ASSI
100
AcDbPolyline
 62
7
  6
CONTINUOUS
 90
25
 70
0
 10
-6.2504210526
 20
-23.0117935488
 10
-6.2299354149
 20
-23.011945556
 10
-6.2109688211
 20
-23.0124042982
 10
-6.1935212712
 20
-23.0131737896
 10
-6.1777169657
 20
-23.0142602445
 10
-6.1634317041
 20
-23.0156663525
 10
-6.1502928851
 20
-23.0173854889
 10
-6.1382622443
 20
-23.0194120134
 10
-6.127378046
 20
-23.0217471306
 10
-6.1173824826
 20
-23.0243891568
 10
-6.1082536455
 20
-23.0273289542
 10
-6.1000134432
 20
-23.0305704143
 10
-6.0924697941
 20
-23.0341377713
 10
-6.0855880831
 20
-23.0380358323
 10
-6.0794029253
 20
-23.0422683866
 10
-6.0738260843
 20
-23.0468706377
 10
-6.0688300758
 20
-23.0518692009
 10
-6.064442384
 20
-23.0572597809
 10
-6.0606572254
 20
-23.0630341804
 10
-6.0574788516
 20
-23.0692069909
 10
-6.054903011
 20
-23.0757777351
 10
-6.0529111646
 20
-23.0827053921
 10
-6.051497133
 20
-23.0899727098
 10
-6.0506670956
 20
-23.0975938502
 10
-6.0504210526
 20
-23.1055677739
  0
LINE
  5
293
100
AcDbEntity
  8
DRAFT
100
AcDbLine
 62
7
  6
CONTINUOUS
 10
2.8524285526
 20
-23.0117935488
 11
2.6995789474
 21
-23.0011052632
  0
LINE
  5
294
100
AcDbEntity
  8
ASSI
100
AcDbLine
 62
7
  6
CONTINUOUS
 10
2.877783904
 20
-22.9813722253
 11
3.0582171164
 21
-22.9939893446
  0
LINE
  5
295
100
AcDbEntity
  8
ASSI
100
AcDbLine
 62
7
  6
CONTINUOUS
 10
1.6909282349
 20
-23.6582181208
 11
1.6018380281
 21
-23.646586799
  0
LINE
  5
296
100
AcDbEntity
  8
RACCORDO
100
AcDbLine
 62
7
  6
CONTINUOUS
 10
3.9022222083
 20
-23.5582211817
 11
3.6773998207
 21
-23.5261052632
  0
LINE
  5
297
100
AcDbEntity
  8
ASSI
100
AcDbLine
 62
7
  6
CONTINUOUS
 10
-8.1725222027
 20
-22.5653482402
 11
-8.3946834015
 21
-22.3939902585
  0
LWPOLYLINE
  5
298
100
AcDbEntity
  8
ASSI
100
AcDbPolyline
 62
7
  6
CONTINUOUS
 90
3
 70
0
 10
-6.7795417227
 20
-24.7506451209
 10
-6.9091749032
 20
-24.6372781675
 10
-6.9794913011
 20
-24.5753631556
  0
LINE
  5
299
100
AcDbEntity
  8
ASSI
100
AcDbLine
 62
7
  6
CONTINUOUS
 10
-7.2089940658
 20
-24.3701881733
 11
-7.2917322632
 21
-24.2968225766
  0
LINE
  5
29A
100
AcDbEntity
  8
ASSI
100
AcDbLine
 62
7
  6
CONTINUOUS
 10
-6.9794913011
 20
-24.5753631556
 11
-7.2089940658
 21
-24.3701881733
  0
LINE
  5
29B
100
AcDbEntity
  8
RACCORDO
100
AcDbLine
 62
253
  6
CONTINUOUS
 10
-9.8004210526
 20
-22.1761011508
 11
-9.7009363761
 21
-22.2755858273
  0
LINE
  5
29C
100
AcDbEntity
  8
RACCORDO
100
AcDbLine
 62
253
  6
CONTINUOUS
 10
-9.500425165
 20
-21.8761052632
 11
-9.4009404884
 21
-21.9755899397
  0
LINE
  5
29D
100
AcDbEntity
  8
RACCORDO
100
AcDbLine
 62
7
  6
CONTINUOUS
 10
-8.7382877417
 20
-22.7587528725
 11
-9.0664154034
 21
-22.4309441405
  0
LINE
  5
29E
100
AcDbEntity
  8
RACCORDO
100
AcDbLine
 62
7
  6
CONTINUOUS
 10
-8.7053403802
 20
-22.7918953875
 11
-8.7382877417
 21
-22.7587528725
  0
LINE
  5
29F
100
AcDbEntity
  8
RACCORDO
100
AcDbLine
 62
7
  6
CONTINUOUS
 10
-9.0664154034
 20
-22.4309441405
 11
-9.1030963005
 21
-22.3939902585
  0
LWPOLYLINE
  5
2A0
100
AcDbEntity
  8
RACCORDO
100
AcDbPolyline
 62
7
  6
CONTINUOUS
 90
3
 70
0
 10
-8.6156015888
 20
-22.881702037
 10
-8.643668645
 20
-22.8533699698
 10
-8.7053403802
 20
-22.7918953875
  0
LWPOLYLINE
  5
2A1
100
AcDbEntity
  8
RACCORDO
100
AcDbPolyline
 62
7
  6
CONTINUOUS
 90
6
 70
0
 10
-8.5031410787
 20
17.7417349539
 10
-8.5066334999
 20
17.737250791
 10
-8.5152863926
 20
17.7287959987
 10
-8.5285054558
 20
17.7163705769
 10
-8.5456401849
 20
17.6995019969
 10
-8.5661272768
 20
17.6786627874
  0
LINE
  5
2A2
100
AcDbEntity
  8
RACCORDO
100
AcDbLine
 62
253
  6
CONTINUOUS
 10
9.8495713299
 20
21.3738947368
 11
9.6924757456
 21
21.311061863
  0
LINE
  5
2A3
100
AcDbEntity
  8
RACCORDO
100
AcDbLine
 62
253
  6
CONTINUOUS
 10
10.0995789474
 20
21.1239191051
 11
9.942483363
 21
21.0610862312
  0
LINE
  5
2A4
100
AcDbEntity
  8
DRAFT
100
AcDbLine
 62
7
  6
CONTINUOUS
 10
-14.7004210526
 20
-20.1261052632
 11
-13.9004210526
 21
-20.1261052632
  0
LINE
  5
2A5
100
AcDbEntity
  8
DRAFT
100
AcDbLine
 62
7
  6
CONTINUOUS
 10
10.0995789474
 20
-20.1261052632
 11
9.2995789474
 21
-20.1261052632
  0
LINE
  5
2A6
100
AcDbEntity
  8
RACCORDO
100
AcDbLine
 62
253
  6
CONTINUOUS
 10
9.8495713299
 20
-26.6261052632
 11
9.6924757456
 21
-26.5632723893
  0
LINE
  5
2A7
100
AcDbEntity
  8
RACCORDO
100
AcDbLine
 62
253
  6
CONTINUOUS
 10
10.0995789474
 20
-26.3761296314
 11
9.942483363
 21
-26.3132967575
  0
LINE
  5
2A8
100
AcDbEntity
  8
RACCORDO
100
AcDbLine
 62
253
  6
CONTINUOUS
 10
-9.4079482227
 20
-17.938381203
 11
-9.3005247843
 21
-18.0261052632
  0
LWPOLYLINE
  5
2A9
100
AcDbEntity
  8
RACCORDO
100
AcDbPolyline
 62
7
  6
CONTINUOUS
 90
6
 70
0
 10
-13.1668287642
 20
-15.2122829742
 10
-13.1779796586
 20
-15.2013487335
 10
-13.1869990539
 20
-15.1921528467
 10
-13.1936045526
 20
-15.1850464402
 10
-13.1980785522
 20
-15.1804480876
 10
-13.2004210526
 20
-15.1787342749
  0
LINE
  5
2AA
100
AcDbEntity
  8
RACCORDO
100
AcDbLine
 62
7
  6
CONTINUOUS
 10
-12.9504210526
 20
-15.428730848
 11
-12.9685539588
 21
-15.4107880003
  0
LWPOLYLINE
  5
2AB
100
AcDbEntity
  8
RACCORDO
100
AcDbPolyline
 62
7
  6
CONTINUOUS
 90
3
 70
0
 10
-13.1258858266
 20
-15.253241965
 10
-13.1407818482
 20
-15.2385015387
 10
-13.1668287642
 20
-15.2122829742
  0
LINE
  5
2AC
100
AcDbEntity
  8
DRAFT
100
AcDbLine
 62
7
  6
CONTINUOUS
 10
-13.2004210526
 20
-16.0388365853
 11
-13.1131523747
 21
-16.1261052632
  0
LINE
  5
2AD
100
AcDbEntity
  8
RACCORDO
100
AcDbLine
 62
7
  6
CONTINUOUS
 10
-12.9685539588
 20
-15.4107880003
 11
-13.1258858266
 21
-15.253241965
  0
LWPOLYLINE
  5
2AE
100
AcDbEntity
  8
RACCORDO
100
AcDbPolyline
 62
7
  6
CONTINUOUS
 90
7
 70
0
 10
-8.5031410787
 20
-22.9939454803
 10
-8.5066334999
 20
-22.9894613173
 10
-8.5152863926
 20
-22.981006525
 10
-8.5285054558
 20
-22.9685811032
 10
-8.5456401849
 20
-22.9517125232
 10
-8.5661272768
 20
-22.9308733137
 10
-8.6156015888
 20
-22.881702037
  0
LWPOLYLINE
  5
2AF
100
AcDbEntity
  8
RACCORDO
100
AcDbPolyline
 62
7
  6
CONTINUOUS
 90
13
 70
0
 10
-14.7004210526
 20
21.1239191051
 10
-14.6982820722
 20
21.1565503292
 10
-14.6919016882
 20
21.188622647
 10
-14.6813891273
 20
21.2195873433
 10
-14.6669241799
 20
21.2489147603
 10
-14.6487544178
 20
21.2761030103
 10
-14.6271911159
 20
21.3006866644
 10
-14.6026032388
 20
21.3222451947
 10
-14.5754115353
 20
21.3404099385
 10
-14.5460818296
 20
21.3548702513
 10
-14.5151160996
 20
21.3653790299
 10
-14.4830438011
 20
21.3717567984
 10
-14.4504134352
 20
21.3738947368
  0
LINE
  5
2B0
100
AcDbEntity
  8
RACCORDO
100
AcDbLine
 62
253
  6
CONTINUOUS
 10
-12.3004210526
 20
8.5738756984
 11
-12.2925668716
 21
8.5817298794
  0
LINE
  5
2B1
100
AcDbEntity
  8
RACCORDO
100
AcDbLine
 62
253
  6
CONTINUOUS
 10
-11.8004400911
 20
8.0738947368
 11
-11.7925859101
 21
8.0817489179
  0
LWPOLYLINE
  5
2B2
100
AcDbEntity
  8
ASSI
100
AcDbPolyline
 62
7
  6
CONTINUOUS
 90
3
 70
0
 10
2.690890158
 20
18.9047175617
 10
2.6459263797
 20
18.870786378
 10
2.6007412071
 20
18.8371616694
  0
LWPOLYLINE
  5
2B3
100
AcDbEntity
  8
ASSI
100
AcDbPolyline
 62
7
  6
CONTINUOUS
 90
19
 70
0
 10
2.6007412071
 20
18.8371616694
 10
2.5101407156
 20
18.7707296945
 10
2.464925964
 20
18.7379224282
 10
2.4197494573
 20
18.7057275854
 10
2.3746935614
 20
18.6740934673
 10
2.3299103264
 20
18.6430717726
 10
2.2854812141
 20
18.6131235457
 10
2.2415841878
 20
18.584234426
 10
2.1983051433
 20
18.556418774
 10
2.1556107163
 20
18.5301807159
 10
2.1137154371
 20
18.5054492262
 10
2.0727279921
 20
18.4822953305
 10
2.0325171386
 20
18.461436231
 10
1.9931952256
 20
18.442670853
 10
1.955115777
 20
18.4262002713
 10
1.918557005
 20
18.4133449125
 10
1.8837764684
 20
18.4045449188
 10
1.851016867
 20
18.399360148
 10
1.8205392048
 20
18.3977906001
  0
LINE
  5
2B4
100
AcDbEntity
  8
DRAFT
100
AcDbLine
 62
7
  6
CONTINUOUS
 10
8.5995789474
 20
18.3088014637
 11
8.5123102695
 21
18.2738947368
  0
LWPOLYLINE
  5
2B5
100
AcDbEntity
  8
RACCORDO
100
AcDbPolyline
 62
253
  6
CONTINUOUS
 90
16
 70
0
 10
4.8071061174
 20
-17.6883907223
 10
4.8129432819
 20
-17.6880621399
 10
4.8185946913
 20
-17.6871652307
 10
4.8240603458
 20
-17.6856999945
 10
4.829395804
 20
-17.6836376676
 10
4.8345455073
 20
-17.6810070138
 10
4.8393427795
 20
-17.6778943244
 10
4.8437757806
 20
-17.6742839053
 10
4.8478563505
 20
-17.6701914506
 10
4.851453334
 20
-17.6657503348
 10
4.8545509085
 20
-17.6609463521
 10
4.8571648965
 20
-17.6557937082
 10
4.8592116092
 20
-17.6504683952
 10
4.8606631503
 20
-17.645029077
 10
4.861547416
 20
-17.6394170897
 10
4.8618644065
 20
-17.6336324332
  0
LWPOLYLINE
  5
2B6
100
AcDbEntity
  8
RACCORDO
100
AcDbPolyline
 62
253
  6
CONTINUOUS
 90
16
 70
0
 10
4.8071061174
 20
-17.938381203
 10
4.838966684
 20
-17.9367133691
 10
4.8704779794
 20
-17.9317234014
 10
4.9012945948
 20
-17.9234661419
 10
4.9310785005
 20
-17.9120323526
 10
4.9595035412
 20
-17.897547435
 10
4.9862588843
 20
-17.8801697868
 10
5.011052836
 20
-17.8600882831
 10
5.0336115466
 20
-17.8375240872
 10
5.0536841421
 20
-17.8127292184
 10
5.0710496476
 20
-17.7859804424
 10
5.0855223148
 20
-17.7575682555
 10
5.0969475815
 20
-17.7277970441
 10
5.1052001256
 20
-17.6969899964
 10
5.1101877075
 20
-17.6654867807
 10
5.1118548872
 20
-17.6336324332
  0
LINE
  5
2B7
100
AcDbEntity
  8
RACCORDO
100
AcDbLine
 62
7
  6
CONTINUOUS
 10
-9.3005247843
 20
-18.0261052632
 11
4.699682679
 21
-18.0261052632
  0
LINE
  5
2B8
100
AcDbEntity
  8
RACCORDO
100
AcDbLine
 62
7
  6
CONTINUOUS
 10
4.4495789474
 20
-17.9449453927
 11
-9.0504210526
 21
-17.9449453927
  0
LINE
  5
2B9
100
AcDbEntity
  8
RACCORDO
100
AcDbLine
 62
7
  6
CONTINUOUS
 10
-9.4079482227
 20
-17.938381203
 11
-9.0504210526
 21
-17.938381203
  0
LINE
  5
2BA
100
AcDbEntity
  8
RACCORDO
100
AcDbLine
 62
7
  6
CONTINUOUS
 10
4.4495789474
 20
-17.938381203
 11
4.8071061174
 21
-17.938381203
  0
LINE
  5
2BB
100
AcDbEntity
  8
RACCORDO
100
AcDbLine
 62
253
  6
CONTINUOUS
 10
-9.4079482227
 20
-17.6883907223
 11
-8.8004210526
 21
-17.6883907223
  0
LINE
  5
2BC
100
AcDbEntity
  8
RACCORDO
100
AcDbLine
 62
253
  6
CONTINUOUS
 10
4.1995789474
 20
-17.6883907223
 11
4.8071061174
 21
-17.6883907223
  0
LINE
  5
2BD
100
AcDbEntity
  8
RACCORDO
100
AcDbLine
 62
253
  6
CONTINUOUS
 10
4.8618644065
 20
-17.6336324332
 11
5.1118548872
 21
-17.6336324332
  0
LINE
  5
2BE
100
AcDbEntity
  8
RACCORDO
100
AcDbLine
 62
253
  6
CONTINUOUS
 10
-9.4627065117
 20
-17.6336324332
 11
-9.7126969925
 21
-17.6336324365
  0
LINE
  5
2BF
100
AcDbEntity
  8
DRAFT
100
AcDbLine
 62
7
  6
CONTINUOUS
 10
8.5995789474
 20
-23.56101199
 11
8.5123102695
 21
-23.5261052632
  0
LWPOLYLINE
  5
2C0
100
AcDbEntity
  8
ASSI
100
AcDbPolyline
 62
7
  6
CONTINUOUS
 90
5
 70
0
 10
2.4643216903
 20
-23.9896980926
 10
2.5551018711
 20
-24.0558126092
 10
2.60053373
 20
-24.0892164906
 10
2.6458286158
 20
-24.1229216939
 10
2.690890158
 20
-24.1569282192
  0
LINE
  5
2C1
100
AcDbEntity
  8
DRAFT
100
AcDbLine
 62
7
  6
CONTINUOUS
 10
-13.1131523747
 20
-12.1261052632
 11
-13.2004210526
 21
-12.0388365853
  0
LINE
  5
2C2
100
AcDbEntity
  8
DRAFT
100
AcDbLine
 62
7
  6
CONTINUOUS
 10
-9.6504210526
 20
-15.1261052632
 11
-9.6399489814
 21
-15.1365773344
  0
LINE
  5
2C3
100
AcDbEntity
  8
RACCORDO
100
AcDbLine
 62
253
  6
CONTINUOUS
 10
-9.7126969925
 20
-17.6336324332
 11
-9.8004210526
 21
-17.5262089948
  0
LINE
  5
2C4
100
AcDbEntity
  8
DRAFT
100
AcDbLine
 62
7
  6
CONTINUOUS
 10
-14.5433254683
 20
-23.4018373716
 11
-14.7004210526
 21
-20.1261052632
  0
LINE
  5
2C5
100
AcDbEntity
  8
RACCORDO
100
AcDbLine
 62
7
  6
CONTINUOUS
 10
-14.7004210526
 20
21.1239191051
 11
-14.7004210526
 21
14.8738947368
  0
LINE
  5
2C6
100
AcDbEntity
  8
DRAFT
100
AcDbLine
 62
7
  6
CONTINUOUS
 10
-14.7004210526
 20
14.8738947368
 11
-14.7004210526
 21
-20.1261052632
  0
LINE
  5
2C7
100
AcDbEntity
  8
RACCORDO
100
AcDbLine
 62
7
  6
CONTINUOUS
 10
-14.7004210526
 20
-20.1261052632
 11
-14.7004210526
 21
-26.3761296314
  0
LINE
  5
2C8
100
AcDbEntity
  8
RACCORDO
100
AcDbLine
 62
7
  6
CONTINUOUS
 10
-14.5433254683
 20
-26.3132967575
 11
-14.5433254683
 21
-23.4018373716
  0
LINE
  5
2C9
100
AcDbEntity
  8
RACCORDO
100
AcDbLine
 62
7
  6
CONTINUOUS
 10
-14.5433254683
 20
18.1496268452
 11
-14.5433254683
 21
21.0610862312
  0
LINE
  5
2CA
100
AcDbEntity
  8
DRAFT
100
AcDbLine
 62
7
  6
CONTINUOUS
 10
-14.7004210526
 20
14.8738947368
 11
-14.5433254683
 21
18.1496268452
  0
LWPOLYLINE
  5
2CB
100
AcDbEntity
  8
RACCORDO
100
AcDbPolyline
 62
7
  6
CONTINUOUS
 90
7
 70
0
 10
-13.1410222152
 20
4.0334245568
 10
-13.1670766063
 20
4.0072091188
 10
-13.1782089142
 20
3.996300504
 10
-13.1871943581
 20
3.9871214314
 10
-13.1937501202
 20
3.9800370129
 10
-13.1981590184
 20
3.9754952012
 10
-13.2004210526
 20
3.9738947368
  0
LWPOLYLINE
  5
2CC
100
AcDbEntity
  8
RACCORDO
100
AcDbPolyline
 62
7
  6
CONTINUOUS
 90
3
 70
0
 10
-13.0940031989
 20
4.0803979763
 10
-13.1261001319
 20
4.0481903129
 10
-13.1410222152
 20
4.0334245568
  0
LINE
  5
2CD
100
AcDbEntity
  8
RACCORDO
100
AcDbLine
 62
7
  6
CONTINUOUS
 10
-12.9685325807
 20
4.2059743092
 11
-13.0768283492
 21
4.0974588824
  0
LINE
  5
2CE
100
AcDbEntity
  8
RACCORDO
100
AcDbLine
 62
7
  6
CONTINUOUS
 10
-13.0768283492
 20
4.0974588824
 11
-13.0940031989
 21
4.0803979763
  0
LINE
  5
2CF
100
AcDbEntity
  8
RACCORDO
100
AcDbLine
 62
7
  6
CONTINUOUS
 10
-12.9504210526
 20
4.2238947368
 11
-12.9685325807
 21
4.2059743092
  0
LWPOLYLINE
  5
2D0
100
AcDbEntity
  8
RACCORDO
100
AcDbPolyline
 62
7
  6
CONTINUOUS
 90
16
 70
0
 10
3.1726210835
 20
18.9060097415
 10
3.1032422631
 20
18.8482153207
 10
3.0567928178
 20
18.7908475841
 10
3.0332727476
 20
18.7344468407
 10
3.0420117002
 20
18.6801118042
 10
3.0736800279
 20
18.6277581576
 10
3.1002887877
 20
18.5763606489
 10
3.1113336961
 20
18.5263345677
 10
3.1173190366
 20
18.4790102769
 10
3.1217687171
 20
18.4351369905
 10
3.1255795465
 20
18.3948592637
 10
3.1278547159
 20
18.360656245
 10
3.1294277064
 20
18.3353060989
 10
3.130576345
 20
18.3185773822
 10
3.1310228048
 20
18.3090687781
 10
3.1307670856
 20
18.3060106554
  0
LWPOLYLINE
  5
2D1
100
AcDbEntity
  8
RACCORDO
100
AcDbPolyline
 62
7
  6
CONTINUOUS
 90
7
 70
0
 10
8.1934276132
 20
21.3191161525
 10
8.1974020572
 20
21.3222303756
 10
8.2245907077
 20
21.3403988167
 10
8.2539172059
 20
21.3548624798
 10
8.2848793366
 20
21.3653741376
 10
8.3169475635
 20
21.3717544878
 10
8.3495732358
 20
21.3738947368
  0
LWPOLYLINE
  5
2D2
100
AcDbEntity
  8
RACCORDO
100
AcDbPolyline
 62
7
  6
CONTINUOUS
 90
13
 70
0
 10
-9.0504210526
 20
-17.938381203
 10
-9.0185043662
 20
-17.9363355612
 10
-8.986892922
 20
-17.9301751809
 10
-8.9561278752
 20
-17.9199176413
 10
-8.9266892915
 20
-17.9056160836
 10
-8.8991925516
 20
-17.8874558437
 10
-8.8743236022
 20
-17.8658373056
 10
-8.8525581556
 20
-17.8411928682
 10
-8.8342155739
 20
-17.8139056265
 10
-8.8196168683
 20
-17.7844569788
 10
-8.8090115805
 20
-17.7533610637
 10
-8.8025773007
 20
-17.7211533971
 10
-8.8004210526
 20
-17.6883907223
  0
LINE
  5
2D3
100
AcDbEntity
  8
RACCORDO
100
AcDbLine
 62
253
  6
CONTINUOUS
 10
-9.0504210526
 20
-17.3261052632
 11
-8.8004210526
 21
-17.3261052601
  0
LINE
  5
2D4
100
AcDbEntity
  8
RACCORDO
100
AcDbLine
 62
253
  6
CONTINUOUS
 10
4.4495789474
 20
-17.3261052632
 11
4.1995789474
 21
-17.3261052632
  0
LINE
  5
2D5
100
AcDbEntity
  8
RACCORDO
100
AcDbLine
 62
7
  6
CONTINUOUS
 10
-8.5004210526
 20
-17.0261052632
 11
3.8995789474
 21
-17.0261052632
  0
LINE
  5
2D6
100
AcDbEntity
  8
RACCORDO
100
AcDbLine
 62
253
  6
CONTINUOUS
 10
-8.5004210526
 20
-16.7761052632
 11
3.8995789474
 21
-16.7761052632
  0
LINE
  5
2D7
100
AcDbEntity
  8
RACCORDO
100
AcDbLine
 62
7
  6
CONTINUOUS
 10
4.4495789474
 20
-16.2261052632
 11
-9.0504210526
 21
-16.2261052632
  0
LINE
  5
2D8
100
AcDbEntity
  8
DRAFT
100
AcDbLine
 62
7
  6
CONTINUOUS
 10
8.5123102695
 20
-16.1261052632
 11
5.1995789474
 21
-16.1261052632
  0
LINE
  5
2D9
100
AcDbEntity
  8
DRAFT
100
AcDbLine
 62
7
  6
CONTINUOUS
 10
-9.8004210526
 20
-16.1261052632
 11
-13.1131523747
 21
-16.1261052632
  0
LINE
  5
2DA
100
AcDbEntity
  8
RACCORDO
100
AcDbLine
 62
7
  6
CONTINUOUS
 10
-13.2004210526
 20
-16.038381203
 11
-9.7126969925
 21
-16.038381203
  0
LINE
  5
2DB
100
AcDbEntity
  8
RACCORDO
100
AcDbLine
 62
7
  6
CONTINUOUS
 10
5.1118548872
 20
-16.038381203
 11
8.5995789474
 21
-16.038381203
  0
LINE
  5
2DC
100
AcDbEntity
  8
RACCORDO
100
AcDbLine
 62
253
  6
CONTINUOUS
 10
-12.9504210526
 20
-15.7883907223
 11
-9.4627065117
 21
-15.7883907223
  0
LINE
  5
2DD
100
AcDbEntity
  8
RACCORDO
100
AcDbLine
 62
253
  6
CONTINUOUS
 10
4.8618644065
 20
-15.7883907223
 11
8.3495789474
 21
-15.7883907223
  0
LWPOLYLINE
  5
2DE
100
AcDbEntity
  8
RACCORDO
100
AcDbPolyline
 62
7
  6
CONTINUOUS
 90
13
 70
0
 10
4.4495789474
 20
-17.938381203
 10
4.4168178921
 20
-17.9362254161
 10
4.3846106752
 20
-17.929792225
 10
4.3535140541
 20
-17.9191882082
 10
4.3240633582
 20
-17.9045903454
 10
4.2967733185
 20
-17.8862478889
 10
4.2721264286
 20
-17.8644822952
 10
4.2505059226
 20
-17.8396130395
 10
4.2323442077
 20
-17.8121158292
 10
4.218042037
 20
-17.7826774237
 10
4.2077845453
 20
-17.7519136301
 10
4.2016244295
 20
-17.7203043481
 10
4.1995789474
 20
-17.6883907223
  0
LINE
  5
2DF
100
AcDbEntity
  8
IMPORT_IGES
100
AcDbLine
 62
253
  6
CONTINUOUS
 10
-10.3677657339
 20
-13.7990314831
 11
-10.3312103244
 21
-13.8084416732
  0
LINE
  5
2E0
100
AcDbEntity
  8
IMPORT_IGES
100
AcDbLine
 62
253
  6
CONTINUOUS
 10
-8.5735644286
 20
-14.6636545513
 11
-9.3504260536
 21
-14.2172964452
  0
LINE
  5
2E1
100
AcDbEntity
  8
IMPORT_IGES
100
AcDbLine
 62
7
  6
CONTINUOUS
 10
-8.673564479
 20
-14.8359128924
 11
-10.4055891895
 21
-13.8359279596
  0
LINE
  5
2E2
100
AcDbEntity
  8
IMPORT_IGES
100
AcDbLine
 62
253
  6
CONTINUOUS
 10
-9.7504210197
 20
-14.107369834
 11
-10.2556262881
 21
-13.8156957079
  0
LWPOLYLINE
  5
2E3
100
AcDbEntity
  8
IMPORT_IGES
100
AcDbPolyline
 62
253
  6
CONTINUOUS
 90
4
 70
0
 10
-10.4648397583
 20
-13.7491258563
 10
-10.4352084118
 20
-13.7691505378
 10
-10.4026413275
 20
-13.7858759863
 10
-10.3677657339
 20
-13.7990314831
  0
LWPOLYLINE
  5
2E4
100
AcDbEntity
  8
RACCORDO
100
AcDbPolyline
 62
7
  6
CONTINUOUS
 90
16
 70
0
 10
3.1726210835
 20
-24.1582202679
 10
3.1032441032
 20
-24.1004256775
 10
3.0567958197
 20
-24.0430577442
 10
3.033276233
 20
-23.9866567837
 10
3.0420146916
 20
-23.9323214698
 10
3.0736818469
 20
-23.8799675481
 10
3.100289654
 20
-23.8285699131
 10
3.1113341854
 20
-23.7785438854
 10
3.1173193686
 20
-23.7312197588
 10
3.1217689405
 20
-23.6873467168
 10
3.1255796628
 20
-23.6470693273
 10
3.1278547739
 20
-23.6128666235
 10
3.1294277265
 20
-23.5875166331
 10
3.1305763381
 20
-23.5707879423
 10
3.1310227911
 20
-23.5612793203
 10
3.1307670856
 20
-23.5582211817
  0
LWPOLYLINE
  5
2E5
100
AcDbEntity
  8
RACCORDO
100
AcDbPolyline
 62
7
  6
CONTINUOUS
 90
6
 70
0
 10
-13.166663267
 20
-11.2475305777
 10
-13.1778263898
 20
-11.236579305
 10
-13.1868683541
 20
-11.2273725026
 10
-13.1935070788
 20
-11.2202521023
 10
-13.198024645
 20
-11.2156171186
 10
-13.2004210526
 20
-11.2138293233
  0
LINE
  5
2E6
100
AcDbEntity
  8
RACCORDO
100
AcDbLine
 62
7
  6
CONTINUOUS
 10
-12.9504210526
 20
-11.4638198041
 11
-12.9685683391
 21
-11.445861882
  0
LWPOLYLINE
  5
2E7
100
AcDbEntity
  8
RACCORDO
100
AcDbPolyline
 62
7
  6
CONTINUOUS
 90
3
 70
0
 10
-13.1257430359
 20
-11.2884745333
 10
-13.1406215901
 20
-11.2737510916
 10
-13.166663267
 20
-11.2475305777
  0
LINE
  5
2E8
100
AcDbEntity
  8
RACCORDO
100
AcDbLine
 62
7
  6
CONTINUOUS
 10
-12.9685683391
 20
-11.445861882
 11
-13.1257430359
 21
-11.2884745333
  0
LWPOLYLINE
  5
2E9
100
AcDbEntity
  8
IMPORT_IGES
100
AcDbPolyline
 62
253
  6
CONTINUOUS
 90
3
 70
0
 10
-9.3935336097
 20
-14.167517921
 10
-9.4339569871
 20
-14.1217708518
 10
-9.4699474798
 20
-14.0805547578
  0
LWPOLYLINE
  5
2EA
100
AcDbEntity
  8
IMPORT_IGES
100
AcDbPolyline
 62
253
  6
CONTINUOUS
 90
3
 70
0
 10
-9.4699474798
 20
-14.0805547578
 10
-9.4856483923
 20
-14.0623793188
 10
-9.5125294612
 20
-14.0307727428
  0
LWPOLYLINE
  5
2EB
100
AcDbEntity
  8
IMPORT_IGES
100
AcDbPolyline
 62
253
  6
CONTINUOUS
 90
3
 70
0
 10
-9.3504260536
 20
-14.2172964452
 10
-9.3722005041
 20
-14.1918835916
 10
-9.3935336097
 20
-14.167517921
  0
LWPOLYLINE
  5
2EC
100
AcDbEntity
  8
IMPORT_IGES
100
AcDbPolyline
 62
253
  6
CONTINUOUS
 90
4
 70
0
 10
-9.5125294612
 20
-14.0307727428
 10
-9.5238653664
 20
-14.0172508835
 10
-9.5334059178
 20
-14.0053934479
 10
-9.5461794086
 20
-13.9893073656
  0
LWPOLYLINE
  5
2ED
100
AcDbEntity
  8
IMPORT_IGES
100
AcDbPolyline
 62
253
  6
CONTINUOUS
 90
3
 70
0
 10
-9.5461794086
 20
-13.9893073656
 10
-9.5493634308
 20
-13.9850623241
 10
-9.5504210527
 20
-13.9832495974
  0
LINE
  5
2EE
100
AcDbEntity
  8
DRAFT
100
AcDbLine
 62
7
  6
CONTINUOUS
 10
-13.9004210526
 20
14.8738947368
 11
-13.9475453731
 21
18.1496268452
  0
LINE
  5
2EF
100
AcDbEntity
  8
DRAFT
100
AcDbLine
 62
7
  6
CONTINUOUS
 10
-13.9475453731
 20
-23.5924280441
 11
-13.9475453731
 21
-23.4018373716
  0
LINE
  5
2F0
100
AcDbEntity
  8
DRAFT
100
AcDbLine
 62
7
  6
CONTINUOUS
 10
-13.9475453731
 20
18.1496268452
 11
-13.9475453731
 21
18.3402175178
  0
LINE
  5
2F1
100
AcDbEntity
  8
DRAFT
100
AcDbLine
 62
7
  6
CONTINUOUS
 10
-13.9004210526
 20
18.3088014637
 11
-13.9004210526
 21
14.8738947368
  0
LINE
  5
2F2
100
AcDbEntity
  8
DRAFT
100
AcDbLine
 62
7
  6
CONTINUOUS
 10
-13.9004210526
 20
-20.1261052632
 11
-13.9004210526
 21
-23.56101199
  0
LINE
  5
2F3
100
AcDbEntity
  8
RACCORDO
100
AcDbLine
 62
7
  6
CONTINUOUS
 10
-13.2004210526
 20
4.921272579
 11
-13.2004210526
 21
3.9738947368
  0
LINE
  5
2F4
100
AcDbEntity
  8
DRAFT
100
AcDbLine
 62
7
  6
CONTINUOUS
 10
-13.2004210526
 20
3.9738947368
 11
-13.2004210526
 21
-4.1633739411
  0
LINE
  5
2F5
100
AcDbEntity
  8
RACCORDO
100
AcDbLine
 62
7
  6
CONTINUOUS
 10
-13.2004210526
 20
-4.1638102845
 11
-13.2004210526
 21
-4.9884002419
  0
LINE
  5
2F6
100
AcDbEntity
  8
DRAFT
100
AcDbLine
 62
7
  6
CONTINUOUS
 10
-13.2004210526
 20
-4.9888365853
 11
-13.2004210526
 21
-11.2133739411
  0
LINE
  5
2F7
100
AcDbEntity
  8
RACCORDO
100
AcDbLine
 62
7
  6
CONTINUOUS
 10
-13.2004210526
 20
-11.2138102845
 11
-13.2004210526
 21
-12.0384002419
  0
LINE
  5
2F8
100
AcDbEntity
  8
DRAFT
100
AcDbLine
 62
7
  6
CONTINUOUS
 10
-13.2004210526
 20
-12.0388365853
 11
-13.2004210526
 21
-15.1784656192
  0
LINE
  5
2F9
100
AcDbEntity
  8
RACCORDO
100
AcDbLine
 62
7
  6
CONTINUOUS
 10
-13.2004210526
 20
-15.178727421
 11
-13.2004210526
 21
-16.0384002419
  0
LINE
  5
2FA
100
AcDbEntity
  8
DRAFT
100
AcDbLine
 62
7
  6
CONTINUOUS
 10
-13.2004210526
 20
-23.56101199
 11
-13.2004210526
 21
-16.0388365853
  0
LINE
  5
2FB
100
AcDbEntity
  8
DRAFT
100
AcDbLine
 62
7
  6
CONTINUOUS
 10
-13.2004210526
 20
4.9215343808
 11
-13.2004210526
 21
18.3088014637
  0
LINE
  5
2FC
100
AcDbEntity
  8
DRAFT
100
AcDbLine
 62
7
  6
CONTINUOUS
 10
-13.1131523747
 20
3.9738947368
 11
-13.1131523747
 21
-4.0761052632
  0
LINE
  5
2FD
100
AcDbEntity
  8
DRAFT
100
AcDbLine
 62
7
  6
CONTINUOUS
 10
-13.1131523747
 20
-5.0761052632
 11
-13.1131523747
 21
-11.1261052632
  0
LINE
  5
2FE
100
AcDbEntity
  8
DRAFT
100
AcDbLine
 62
7
  6
CONTINUOUS
 10
-13.1131523747
 20
-12.1261052632
 11
-13.1131523747
 21
-15.1261052632
  0
LINE
  5
2FF
100
AcDbEntity
  8
DRAFT
100
AcDbLine
 62
7
  6
CONTINUOUS
 10
-13.1131523747
 20
-23.5261052632
 11
-13.1131523747
 21
-16.1261052632
  0
LINE
  5
300
100
AcDbEntity
  8
DRAFT
100
AcDbLine
 62
7
  6
CONTINUOUS
 10
-13.1131523747
 20
4.9738947368
 11
-13.1131523747
 21
18.2738947368
  0
LINE
  5
301
100
AcDbEntity
  8
RACCORDO
100
AcDbLine
 62
253
  6
CONTINUOUS
 10
-12.9504210526
 20
4.671269152
 11
-12.9504210526
 21
4.2238947368
  0
LINE
  5
302
100
AcDbEntity
  8
RACCORDO
100
AcDbLine
 62
253
  6
CONTINUOUS
 10
-12.9504210526
 20
-4.4138198041
 11
-12.9504210526
 21
-4.7383907223
  0
LINE
  5
303
100
AcDbEntity
  8
RACCORDO
100
AcDbLine
 62
253
  6
CONTINUOUS
 10
-12.9504210526
 20
-11.4638198041
 11
-12.9504210526
 21
-11.7883907223
  0
LINE
  5
304
100
AcDbEntity
  8
RACCORDO
100
AcDbLine
 62
253
  6
CONTINUOUS
 10
-12.9504210526
 20
-15.428730848
 11
-12.9504210526
 21
-15.7883907223
  0
LINE
  5
305
100
AcDbEntity
  8
RACCORDO
100
AcDbLine
 62
7
  6
CONTINUOUS
 10
-12.6218792425
 20
21.0610405396
 11
-12.6218792425
 21
19.8435248977
  0
LINE
  5
306
100
AcDbEntity
  8
RACCORDO
100
AcDbLine
 62
7
  6
CONTINUOUS
 10
-12.6218792425
 20
-25.095735424
 11
-12.6218792425
 21
-26.3132510659
  0
LINE
  5
307
100
AcDbEntity
  8
RACCORDO
100
AcDbLine
 62
7
  6
CONTINUOUS
 10
-12.3004210526
 20
8.5738756984
 11
-12.3004210526
 21
17.3739137753
  0
LINE
  5
308
100
AcDbEntity
  8
RACCORDO
100
AcDbLine
 62
7
  6
CONTINUOUS
 10
-12.2925668716
 20
8.5817298794
 11
-12.2925668716
 21
17.3660595943
  0
LINE
  5
309
100
AcDbEntity
  8
DRAFT
100
AcDbLine
 62
7
  6
CONTINUOUS
 10
-13.9475453731
 20
-23.4018373716
 11
-13.9004210526
 21
-20.1261052632
  0
LWPOLYLINE
  5
30A
100
AcDbEntity
  8
IMPORT_IGES
100
AcDbPolyline
 62
253
  6
CONTINUOUS
 90
5
 70
0
 10
-9.289715274
 20
6.5696978333
 10
-9.298278959
 20
6.5519645536
 10
-9.301077034
 20
6.5464361142
 10
-9.3028207029
 20
6.5428196198
 10
-9.3034210526
 20
6.5411121005
  0
LWPOLYLINE
  5
30B
100
AcDbEntity
  8
IMPORT_IGES
100
AcDbPolyline
 62
253
  6
CONTINUOUS
 90
3
 70
0
 10
-9.1771870449
 20
6.7965834544
 10
-9.2030983066
 20
6.7433812356
 10
-9.214879246
 20
6.7195078127
  0
LWPOLYLINE
  5
30C
100
AcDbEntity
  8
IMPORT_IGES
100
AcDbPolyline
 62
253
  6
CONTINUOUS
 90
4
 70
0
 10
-9.2682045231
 20
6.6128200851
 10
-9.2792929262
 20
6.5901363824
 10
-9.2844787532
 20
6.5800461702
 10
-9.289715274
 20
6.5696978333
  0
LINE
  5
30D
100
AcDbEntity
  8
IMPORT_IGES
100
AcDbLine
 62
253
  6
CONTINUOUS
 10
-9.2453267346
 20
6.6587891195
 11
-9.2682045231
 21
6.6128200851
  0
LINE
  5
30E
100
AcDbEntity
  8
IMPORT_IGES
100
AcDbLine
 62
253
  6
CONTINUOUS
 10
-9.214879246
 20
6.7195078127
 11
-9.2453267346
 21
6.6587891195
  0
LWPOLYLINE
  5
30F
100
AcDbEntity
  8
RACCORDO
100
AcDbPolyline
 62
253
  6
CONTINUOUS
 90
5
 70
0
 10
-9.7069795694
 20
6.733762988
 10
-9.7214540079
 20
6.7053487272
 10
-9.7328809045
 20
6.6755752819
 10
-9.7411349165
 20
6.6447658696
 10
-9.746123782
 20
6.6132601869
  0
LWPOLYLINE
  5
310
100
AcDbEntity
  8
IMPORT_IGES
100
AcDbPolyline
 62
253
  6
CONTINUOUS
 90
10
 70
0
 10
-9.1771870449
 20
6.7965834544
 10
-9.1739207453
 20
6.8018434006
 10
-9.1705467764
 20
6.8066092254
 10
-9.1670645341
 20
6.8108809069
 10
-9.1635651433
 20
6.8146960984
 10
-9.1599577613
 20
6.8180170819
 10
-9.1559642473
 20
6.8207308936
 10
-9.1514866905
 20
6.8227999995
 10
-9.1466129958
 20
6.8242621735
 10
-9.1413397431
 20
6.8251175395
  0
LWPOLYLINE
  5
311
100
AcDbEntity
  8
RACCORDO
100
AcDbPolyline
 62
253
  6
CONTINUOUS
 90
3
 70
0
 10
-9.6695375894
 20
6.7853101846
 10
-9.6896121729
 20
6.760513647
 10
-9.7069795694
 20
6.733762988
  0
LINE
  5
312
100
AcDbEntity
  8
DRAFT
100
AcDbLine
 62
7
  6
CONTINUOUS
 10
1.620745725
 20
19.8096636524
 11
1.6018380281
 21
19.7869741628
  0
LINE
  5
313
100
AcDbEntity
  8
RACCORDO
100
AcDbLine
 62
7
  6
CONTINUOUS
 10
4.4655732982
 20
18.8690558595
 11
4.5022541953
 21
18.9060097415
  0
LINE
  5
314
100
AcDbEntity
  8
IMPORT_IGES
100
AcDbLine
 62
7
  6
CONTINUOUS
 10
-10.4691045631
 20
5.858271303
 11
-9.3913493579
 21
6.9360265082
  0
LINE
  5
315
100
AcDbEntity
  8
IMPORT_IGES
100
AcDbLine
 62
253
  6
CONTINUOUS
 10
-10.2594835658
 20
5.7143318497
 11
-9.5034226939
 21
6.4704224464
  0
LINE
  5
316
100
AcDbEntity
  8
RACCORDO
100
AcDbLine
 62
7
  6
CONTINUOUS
 10
4.1044982749
 20
18.5081046125
 11
4.1716266572
 21
18.5753822034
  0
LINE
  5
317
100
AcDbEntity
  8
RACCORDO
100
AcDbLine
 62
7
  6
CONTINUOUS
 10
4.0428265397
 20
18.4466300302
 11
4.1044982749
 21
18.5081046125
  0
LINE
  5
318
100
AcDbEntity
  8
RACCORDO
100
AcDbLine
 62
7
  6
CONTINUOUS
 10
4.1716266572
 20
18.5753822034
 11
4.4655732982
 21
18.8690558595
  0
LWPOLYLINE
  5
319
100
AcDbEntity
  8
RACCORDO
100
AcDbPolyline
 62
7
  6
CONTINUOUS
 90
3
 70
0
 10
3.9652851715
 20
18.3691266863
 10
4.0147594835
 20
18.418297963
 10
4.0428265397
 20
18.4466300302
  0
LINE
  5
31A
100
AcDbEntity
  8
RACCORDO
100
AcDbLine
 62
7
  6
CONTINUOUS
 10
8.1934272752
 20
21.3191159027
 11
8.1148737662
 21
21.2562736698
  0
LINE
  5
31B
100
AcDbEntity
  8
RACCORDO
100
AcDbLine
 62
253
  6
CONTINUOUS
 10
8.3496036981
 20
21.3738947368
 11
8.271061888
 21
21.311061863
  0
LINE
  5
31C
100
AcDbEntity
  8
DRAFT
100
AcDbLine
 62
7
  6
CONTINUOUS
 10
9.3467032678
 20
18.3402175178
 11
9.2995789474
 21
18.3088014637
  0
LINE
  5
31D
100
AcDbEntity
  8
RACCORDO
100
AcDbLine
 62
253
  6
CONTINUOUS
 10
-9.4383063488
 20
6.8890695173
 11
-9.4430161959
 21
6.8861706767
  0
LINE
  5
31E
100
AcDbEntity
  8
DRAFT
100
AcDbLine
 62
7
  6
CONTINUOUS
 10
-13.2004210526
 20
4.9215343808
 11
-13.1131523747
 21
4.9738947368
  0
LWPOLYLINE
  5
31F
100
AcDbEntity
  8
IMPORT_IGES
100
AcDbPolyline
 62
253
  6
CONTINUOUS
 90
10
 70
0
 10
-9.6448424094
 20
6.6825334568
 10
-9.6351497148
 20
6.6877217359
 10
-9.623281377
 20
6.6861013459
 10
-9.6095925604
 20
6.6774407605
 10
-9.5948678716
 20
6.661461214
 10
-9.5792295303
 20
6.6382475014
 10
-9.5619276496
 20
6.6078513638
 10
-9.5429499562
 20
6.5699316632
 10
-9.5232310262
 20
6.5241707598
 10
-9.503424335
 20
6.470422446
  0
LINE
  5
320
100
AcDbEntity
  8
IMPORT_IGES
100
AcDbLine
 62
253
  6
CONTINUOUS
 10
5.7305285493
 20
-13.8084093656
 11
5.767125074
 21
-13.7989678366
  0
LWPOLYLINE
  5
321
100
AcDbEntity
  8
IMPORT_IGES
100
AcDbPolyline
 62
253
  6
CONTINUOUS
 90
3
 70
0
 10
-6.2738570575
 20
-14.6785072212
 10
-6.2755830358
 20
-14.6785982221
 10
-6.2807185457
 20
-14.6786470834
  0
LWPOLYLINE
  5
322
100
AcDbEntity
  8
IMPORT_IGES
100
AcDbPolyline
 62
253
  6
CONTINUOUS
 90
3
 70
0
 10
5.6547731954
 20
-13.8156959162
 10
5.6928680826
 20
-13.8139970227
 10
5.7305285493
 20
-13.8084093656
  0
LWPOLYLINE
  5
323
100
AcDbEntity
  8
IMPORT_IGES
100
AcDbPolyline
 62
253
  6
CONTINUOUS
 90
3
 70
0
 10
1.8730263379
 20
-14.6769874952
 10
1.7511680833
 20
-14.678258758
 10
1.699775532
 20
-14.678684316
  0
LINE
  5
324
100
AcDbEntity
  8
RACCORDO
100
AcDbLine
 62
253
  6
CONTINUOUS
 10
8.3495789474
 20
-15.428730848
 11
4.4495789474
 21
-15.428730848
  0
LINE
  5
325
100
AcDbEntity
  8
RACCORDO
100
AcDbLine
 62
253
  6
CONTINUOUS
 10
-9.0504210526
 20
-15.428730848
 11
-12.9504210526
 21
-15.428730848
  0
LINE
  5
326
100
AcDbEntity
  8
0
100
AcDbLine
 62
7
  6
CONTINUOUS
 10
1.4336714985
 20
-15.2761342636
 11
0.6632800715
 21
-15.2761342636
  0
LINE
  5
327
100
AcDbEntity
  8
0
100
AcDbLine
 62
7
  6
CONTINUOUS
 10
0.5676216977
 20
-15.2761342636
 11
-1.4745134695
 21
-15.2761342636
  0
LINE
  5
328
100
AcDbEntity
  8
0
100
AcDbLine
 62
7
  6
CONTINUOUS
 10
-1.479741025
 20
-15.2761342636
 11
-6.0345134122
 21
-15.2761342636
  0
LINE
  5
329
100
AcDbEntity
  8
RACCORDO
100
AcDbLine
 62
253
  6
CONTINUOUS
 10
-8.8004210526
 20
-15.2432625507
 11
-6.0345134122
 21
-15.2432625507
  0
LINE
  5
32A
100
AcDbEntity
  8
RACCORDO
100
AcDbLine
 62
253
  6
CONTINUOUS
 10
0.5676216977
 20
-15.2432625507
 11
0.6632800715
 21
-15.2432625507
  0
LINE
  5
32B
100
AcDbEntity
  8
RACCORDO
100
AcDbLine
 62
253
  6
CONTINUOUS
 10
1.4336714985
 20
-15.2432625507
 11
4.1995789474
 21
-15.2432625507
  0
LINE
  5
32C
100
AcDbEntity
  8
RACCORDO
100
AcDbLine
 62
7
  6
CONTINUOUS
 10
8.5995789474
 20
-15.1787342749
 11
4.1995789474
 21
-15.1787342749
  0
LINE
  5
32D
100
AcDbEntity
  8
RACCORDO
100
AcDbLine
 62
7
  6
CONTINUOUS
 10
-8.8004210526
 20
-15.1787342749
 11
-13.2004210526
 21
-15.1787342749
  0
LINE
  5
32E
100
AcDbEntity
  8
IMPORT_IGES
100
AcDbLine
 62
7
  6
CONTINUOUS
 10
3.1222656035
 20
-15.1761342636
 11
1.4226636846
 21
-15.1761342636
  0
LINE
  5
32F
100
AcDbEntity
  8
IMPORT_IGES
100
AcDbLine
 62
7
  6
CONTINUOUS
 10
0.6638296085
 20
-15.1761342636
 11
0.5676216977
 21
-15.1761342636
  0
LINE
  5
330
100
AcDbEntity
  8
IMPORT_IGES
100
AcDbLine
 62
7
  6
CONTINUOUS
 10
-0.1429833753
 20
-15.1761342636
 11
-0.641773401
 21
-15.1761342636
  0
LINE
  5
331
100
AcDbEntity
  8
IMPORT_IGES
100
AcDbLine
 62
7
  6
CONTINUOUS
 10
-1.1320224149
 20
-15.1761342636
 11
-1.8998517377
 21
-15.1761342636
  0
LINE
  5
332
100
AcDbEntity
  8
IMPORT_IGES
100
AcDbLine
 62
7
  6
CONTINUOUS
 10
-2.3901006086
 20
-15.1761342636
 11
-3.0478199431
 21
-15.1761342636
  0
LINE
  5
333
100
AcDbEntity
  8
IMPORT_IGES
100
AcDbLine
 62
7
  6
CONTINUOUS
 10
-3.584708341
 20
-15.1761342636
 11
-3.6007735165
 21
-15.1761342636
  0
LINE
  5
334
100
AcDbEntity
  8
IMPORT_IGES
100
AcDbLine
 62
7
  6
CONTINUOUS
 10
-4.1335319146
 20
-15.1761342636
 11
-4.692802075
 21
-15.1761342636
  0
LINE
  5
335
100
AcDbEntity
  8
IMPORT_IGES
100
AcDbLine
 62
7
  6
CONTINUOUS
 10
-5.2296906789
 20
-15.1761342636
 11
-5.2457558544
 21
-15.1761342636
  0
LINE
  5
336
100
AcDbEntity
  8
IMPORT_IGES
100
AcDbLine
 62
7
  6
CONTINUOUS
 10
-5.7785142526
 20
-15.1761342636
 11
-7.7231077088
 21
-15.1761342636
  0
LINE
  5
337
100
AcDbEntity
  8
0
100
AcDbLine
 62
7
  6
CONTINUOUS
 10
3.1222656035
 20
-15.1761342636
 11
-7.7231077088
 21
-15.1761342636
  0
LINE
  5
338
100
AcDbEntity
  8
DRAFT
100
AcDbLine
 62
7
  6
CONTINUOUS
 10
5.0391068762
 20
-15.1365773344
 11
4.1995789474
 21
-15.1365773344
  0
LINE
  5
339
100
AcDbEntity
  8
DRAFT
100
AcDbLine
 62
7
  6
CONTINUOUS
 10
-8.8004210526
 20
-15.1365773344
 11
-9.6399489814
 21
-15.1365773344
  0
LINE
  5
33A
100
AcDbEntity
  8
DRAFT
100
AcDbLine
 62
7
  6
CONTINUOUS
 10
-13.1131523747
 20
-15.1261052632
 11
-9.6504210526
 21
-15.1261052632
  0
LINE
  5
33B
100
AcDbEntity
  8
RACCORDO
100
AcDbLine
 62
7
  6
CONTINUOUS
 10
-8.8004210526
 20
-15.1261052632
 11
-7.751081396
 21
-15.1261052632
  0
LINE
  5
33C
100
AcDbEntity
  8
RACCORDO
100
AcDbLine
 62
7
  6
CONTINUOUS
 10
3.1502392701
 20
-15.1261052632
 11
4.1995789474
 21
-15.1261052632
  0
LINE
  5
33D
100
AcDbEntity
  8
DRAFT
100
AcDbLine
 62
7
  6
CONTINUOUS
 10
5.0495789474
 20
-15.1261052632
 11
8.5123102695
 21
-15.1261052632
  0
LINE
  5
33E
100
AcDbEntity
  8
IMPORT_IGES
100
AcDbLine
 62
7
  6
CONTINUOUS
 10
3.5995763157
 20
-15.0761052632
 11
-8.2471275822
 21
-15.0761052632
  0
LINE
  5
33F
100
AcDbEntity
  8
IMPORT_IGES
100
AcDbLine
 62
253
  6
CONTINUOUS
 10
3.6995788652
 20
-14.9761052632
 11
-8.3004207666
 21
-14.9761052632
  0
LINE
  5
340
100
AcDbEntity
  8
IMPORT_IGES
100
AcDbLine
 62
7
  6
CONTINUOUS
 10
3.9227223811
 20
-14.8761052632
 11
-8.5235683474
 21
-14.8761052632
  0
LINE
  5
341
100
AcDbEntity
  8
IMPORT_IGES
100
AcDbLine
 62
253
  6
CONTINUOUS
 10
-8.5235644804
 20
-14.6769875656
 11
-6.4738730919
 21
-14.6769875656
  0
LINE
  5
342
100
AcDbEntity
  8
IMPORT_IGES
100
AcDbLine
 62
253
  6
CONTINUOUS
 10
1.8730211313
 20
-14.6769874366
 11
3.9227223827
 21
-14.6769874366
  0
LINE
  5
343
100
AcDbEntity
  8
IMPORT_IGES
100
AcDbLine
 62
253
  6
CONTINUOUS
 10
1.4773833409
 20
-14.4733762739
 11
-6.078225446
 21
-14.4733762784
  0
LWPOLYLINE
  5
344
100
AcDbEntity
  8
IMPORT_IGES
100
AcDbPolyline
 62
253
  6
CONTINUOUS
 90
5
 70
0
 10
1.699775532
 20
-14.678684316
 10
1.6882213819
 20
-14.6786537271
 10
1.6798238815
 20
-14.6784375549
 10
1.6747293011
 20
-14.6780744524
 10
1.6730262774
 20
-14.6775648228
  0
LINE
  5
345
100
AcDbEntity
  8
IMPORT_IGES
100
AcDbLine
 62
253
  6
CONTINUOUS
 10
-6.2807185457
 20
-14.6786470834
 11
-6.3007337398
 21
-14.6786164103
  0
LINE
  5
346
100
AcDbEntity
  8
IMPORT_IGES
100
AcDbLine
 62
253
  6
CONTINUOUS
 10
-6.3007337398
 20
-14.6786164103
 11
-6.4219381051
 21
-14.6775915577
  0
LINE
  5
347
100
AcDbEntity
  8
IMPORT_IGES
100
AcDbLine
 62
253
  6
CONTINUOUS
 10
-6.4219381051
 20
-14.6775915577
 11
-6.473921948
 21
-14.6769959346
  0
LWPOLYLINE
  5
348
100
AcDbEntity
  8
IMPORT_IGES
100
AcDbPolyline
 62
253
  6
CONTINUOUS
 90
10
 70
0
 10
-8.5235644804
 20
-14.6769875656
 10
-8.5294221751
 20
-14.6768135833
 10
-8.5352182702
 20
-14.6763086538
 10
-8.5409527657
 20
-14.6754727771
 10
-8.546644244
 20
-14.674300512
 10
-8.5522741227
 20
-14.6727972999
 10
-8.5577866552
 20
-14.6709794652
 10
-8.5631632592
 20
-14.6688524494
 10
-8.568422517
 20
-14.6664108113
 10
-8.5735644286
 20
-14.6636545513
  0
LWPOLYLINE
  5
349
100
AcDbEntity
  8
IMPORT_IGES
100
AcDbPolyline
 62
253
  6
CONTINUOUS
 90
13
 70
0
 10
-6.0781924174
 20
-14.473376137
 10
-6.1045491592
 20
-14.472101148
 10
-6.1305081653
 20
-14.4680491803
 10
-6.155609484
 20
-14.4612715537
 10
-6.1795432602
 20
-14.4518033502
 10
-6.2017122188
 20
-14.439829241
 10
-6.2213623064
 20
-14.4258259208
 10
-6.2380739694
 20
-14.4103373525
 10
-6.2519422247
 20
-14.3935499168
 10
-6.2630536055
 20
-14.3754678301
 10
-6.2712603931
 20
-14.356259501
 10
-6.2763441111
 20
-14.336337826
 10
-6.2782110251
 20
-14.3160508718
  0
LWPOLYLINE
  5
34A
100
AcDbEntity
  8
IMPORT_IGES
100
AcDbPolyline
 62
253
  6
CONTINUOUS
 90
6
 70
0
 10
5.149578932
 20
-14.1073699135
 10
5.1237682595
 20
-14.1060342349
 10
5.0984761449
 20
-14.1020678581
 10
5.0741160123
 20
-14.0955637406
 10
5.0511921702
 20
-14.0867064677
 10
5.0299354325
 20
-14.0756375639
  0
LWPOLYLINE
  5
34B
100
AcDbEntity
  8
IMPORT_IGES
100
AcDbPolyline
 62
253
  6
CONTINUOUS
 90
3
 70
0
 10
-10.3312103244
 20
-13.8084416732
 10
-10.2935795334
 20
-13.8140093791
 10
-10.2554999892
 20
-13.8156948917
  0
LINE
  5
34C
100
AcDbEntity
  8
DRAFT
100
AcDbLine
 62
7
  6
CONTINUOUS
 10
9.3467032678
 20
-23.5924280441
 11
9.2995789474
 21
-23.56101199
  0
LINE
  5
34D
100
AcDbEntity
  8
RACCORDO
100
AcDbLine
 62
7
  6
CONTINUOUS
 10
8.1934272752
 20
-26.571326429
 11
8.1148737662
 21
-26.5084841962
  0
LINE
  5
34E
100
AcDbEntity
  8
RACCORDO
100
AcDbLine
 62
253
  6
CONTINUOUS
 10
8.3496036981
 20
-26.6261052632
 11
8.271061888
 21
-26.5632723893
  0
LINE
  5
34F
100
AcDbEntity
  8
RACCORDO
100
AcDbLine
 62
7
  6
CONTINUOUS
 10
4.1374456365
 20
-23.7934576538
 11
4.4655732982
 21
-24.1212663858
  0
LINE
  5
350
100
AcDbEntity
  8
RACCORDO
100
AcDbLine
 62
7
  6
CONTINUOUS
 10
4.1044982749
 20
-23.7603151388
 11
4.1374456365
 21
-23.7934576538
  0
LINE
  5
351
100
AcDbEntity
  8
RACCORDO
100
AcDbLine
 62
7
  6
CONTINUOUS
 10
4.4655732982
 20
-24.1212663858
 11
4.5022541953
 21
-24.1582202679
  0
LWPOLYLINE
  5
352
100
AcDbEntity
  8
RACCORDO
100
AcDbPolyline
 62
7
  6
CONTINUOUS
 90
3
 70
0
 10
4.0147594835
 20
-23.6705084893
 10
4.0428265397
 20
-23.6988405565
 10
4.1044982749
 20
-23.7603151388
  0
LINE
  5
353
100
AcDbEntity
  8
DRAFT
100
AcDbLine
 62
7
  6
CONTINUOUS
 10
1.620745725
 20
-25.0618741787
 11
1.6018380281
 21
-25.0391846891
  0
LINE
  5
354
100
AcDbEntity
  8
IMPORT_IGES
100
AcDbLine
 62
7
  6
CONTINUOUS
 10
-9.6805038708
 20
-11.8804052523
 11
-9.7504210526
 21
-11.7712592408
  0
LWPOLYLINE
  5
355
100
AcDbEntity
  8
IMPORT_IGES
100
AcDbPolyline
 62
253
  6
CONTINUOUS
 90
7
 70
0
 10
-10.5555696092
 20
-13.5813409851
 10
-10.5524465163
 20
-13.612623684
 10
-10.5442350458
 20
-13.6432495364
 10
-10.5310906937
 20
-13.6726960935
 10
-10.5132405781
 20
-13.7004795518
 10
-10.4910096348
 20
-13.726112539
 10
-10.4648397583
 20
-13.7491258563
  0
LWPOLYLINE
  5
356
100
AcDbEntity
  8
RACCORDO
100
AcDbPolyline
 62
253
  6
CONTINUOUS
 90
16
 70
0
 10
-9.4627065117
 20
-17.6336324332
 10
-9.4623779294
 20
-17.6394695976
 10
-9.4614810201
 20
-17.6451210071
 10
-9.460015784
 20
-17.6505866616
 10
-9.4579534571
 20
-17.6559221198
 10
-9.4553228032
 20
-17.6610718231
 10
-9.4522101139
 20
-17.6658690953
 10
-9.4485996948
 20
-17.6703020963
 10
-9.4445072401
 20
-17.6743826663
 10
-9.4400661243
 20
-17.6779796497
 10
-9.4352621415
 20
-17.6810772243
 10
-9.4301094977
 20
-17.6836912123
 10
-9.4247841846
 20
-17.685737925
 10
-9.4193448665
 20
-17.6871894661
 10
-9.4137328791
 20
-17.6880737318
 10
-9.4079482227
 20
-17.6883907223
  0
LWPOLYLINE
  5
357
100
AcDbEntity
  8
RACCORDO
100
AcDbPolyline
 62
253
  6
CONTINUOUS
 90
16
 70
0
 10
-9.7126969925
 20
-17.6336324332
 10
-9.7110291586
 20
-17.6654929998
 10
-9.7060391909
 20
-17.6970042952
 10
-9.6977819313
 20
-17.7278209106
 10
-9.686348142
 20
-17.7576048163
 10
-9.6718632244
 20
-17.786029857
 10
-9.6544855763
 20
-17.8127852001
 10
-9.6344040726
 20
-17.8375791518
 10
-9.6118398767
 20
-17.8601378624
 10
-9.5870450079
 20
-17.8802104579
 10
-9.5602962319
 20
-17.8975759634
 10
-9.531884045
 20
-17.9120486306
 10
-9.5021128335
 20
-17.9234738973
 10
-9.4713057859
 20
-17.9317264414
 10
-9.4398025702
 20
-17.9367140233
 10
-9.4079482227
 20
-17.938381203
  0
LINE
  5
358
100
AcDbEntity
  8
IMPORT_IGES
100
AcDbLine
 62
253
  6
CONTINUOUS
 10
-10.3419993378
 20
-8.6649424334
 11
-10.3534457808
 21
-8.0949828701
  0
LINE
  5
359
100
AcDbEntity
  8
IMPORT_IGES
100
AcDbLine
 62
253
  6
CONTINUOUS
 10
-10.2558514553
 20
-13.7754232959
 11
-10.2854081311
 21
-12.1076092627
  0
LINE
  5
35A
100
AcDbEntity
  8
IMPORT_IGES
100
AcDbLine
 62
7
  6
CONTINUOUS
 10
-10.5555696092
 20
-13.5813409866
 11
-10.7231423471
 21
-3.9811052632
  0
LINE
  5
35B
100
AcDbEntity
  8
IMPORT_IGES
100
AcDbLine
 62
253
  6
CONTINUOUS
 10
-10.3534457808
 20
-8.0949828701
 11
-10.4071534234
 21
-5.0180929075
  0
LINE
  5
35C
100
AcDbEntity
  8
IMPORT_IGES
100
AcDbLine
 62
253
  6
CONTINUOUS
 10
-10.287778453
 20
-11.7712592357
 11
-10.3419993378
 21
-8.6649424334
  0
LINE
  5
35D
100
AcDbEntity
  8
IMPORT_IGES
100
AcDbLine
 62
7
  6
CONTINUOUS
 10
-10.4193321978
 20
-4.1971893669
 11
-10.4071534234
 21
-5.0180929075
  0
LINE
  5
35E
100
AcDbEntity
  8
IMPORT_IGES
100
AcDbLine
 62
253
  6
CONTINUOUS
 10
-10.4224749941
 20
-3.9811051707
 11
-10.419332351
 21
-4.1971906737
  0
LINE
  5
35F
100
AcDbEntity
  8
IMPORT_IGES
100
AcDbLine
 62
7
  6
CONTINUOUS
 10
-10.287778453
 20
-11.7712592357
 11
-10.2854081311
 21
-12.1076088695
  0
LINE
  5
360
100
AcDbEntity
  8
IMPORT_IGES
100
AcDbLine
 62
253
  6
CONTINUOUS
 10
-10.2556262881
 20
-13.8156957079
 11
-10.2558514553
 21
-13.7754232959
  0
LINE
  5
361
100
AcDbEntity
  8
RACCORDO
100
AcDbLine
 62
7
  6
CONTINUOUS
 10
-10.6504210526
 20
3.9738947368
 11
-10.6504210526
 21
2.2238852176
  0
LINE
  5
362
100
AcDbEntity
  8
DRAFT
100
AcDbLine
 62
7
  6
CONTINUOUS
 10
-10.6504210526
 20
-12.1261052632
 11
-10.6504210526
 21
-13.5261052632
  0
LINE
  5
363
100
AcDbEntity
  8
DRAFT
100
AcDbLine
 62
7
  6
CONTINUOUS
 10
-10.6399489814
 20
-12.1086515276
 11
-10.6399489814
 21
-13.5156331919
  0
LINE
  5
364
100
AcDbEntity
  8
IMPORT_IGES
100
AcDbLine
 62
7
  6
CONTINUOUS
 10
-10.2889039734
 20
3.8167879557
 11
-10.286435313
 21
4.1703413456
  0
LINE
  5
365
100
AcDbEntity
  8
IMPORT_IGES
100
AcDbLine
 62
7
  6
CONTINUOUS
 10
-10.6123559989
 20
2.4758403739
 11
-10.556926836
 21
5.651374992
  0
LINE
  5
366
100
AcDbEntity
  8
IMPORT_IGES
100
AcDbLine
 62
7
  6
CONTINUOUS
 10
-10.7231423471
 20
-3.9811052632
 11
-10.6104367725
 21
2.4757927793
  0
LINE
  5
367
100
AcDbEntity
  8
IMPORT_IGES
100
AcDbLine
 62
253
  6
CONTINUOUS
 10
-10.2864354544
 20
4.1703413461
 11
-10.2594835658
 21
5.7143318497
  0
LINE
  5
368
100
AcDbEntity
  8
IMPORT_IGES
100
AcDbLine
 62
253
  6
CONTINUOUS
 10
-10.2950916548
 20
3.4622959219
 11
-10.2889039734
 21
3.8167879549
  0
LINE
  5
369
100
AcDbEntity
  8
IMPORT_IGES
100
AcDbLine
 62
253
  6
CONTINUOUS
 10
-10.4224749941
 20
-3.9811051707
 11
-10.3105153671
 21
2.4691658069
  0
LINE
  5
36A
100
AcDbEntity
  8
ASSI
100
AcDbLine
 62
7
  6
CONTINUOUS
 10
2.793855004
 20
16.7181707934
 11
2.7042913794
 21
16.6286071689
  0
LINE
  5
36B
100
AcDbEntity
  8
DRAFT
100
AcDbLine
 62
7
  6
CONTINUOUS
 10
-5.5425668716
 20
8.0817489179
 11
-5.5504210526
 21
8.0738947368
  0
LINE
  5
36C
100
AcDbEntity
  8
RACCORDO
100
AcDbLine
 62
253
  6
CONTINUOUS
 10
-10.6161557901
 20
2.2581504801
 11
-10.6504210526
 21
2.2238852176
  0
LWPOLYLINE
  5
36D
100
AcDbEntity
  8
IMPORT_IGES
100
AcDbPolyline
 62
253
  6
CONTINUOUS
 90
8
 70
0
 10
-6.2590917207
 20
6.8221186381
 10
-6.2418424089
 20
6.8360267712
 10
-6.2221733384
 20
6.8482238766
 10
-6.2004210526
 20
6.8585012583
 10
-6.1769577391
 20
6.8666830677
 10
-6.1521848617
 20
6.8726293116
 10
-6.1265262911
 20
6.8762382481
 10
-6.1004210526
 20
6.8774481274
  0
LWPOLYLINE
  5
36E
100
AcDbEntity
  8
IMPORT_IGES
100
AcDbPolyline
 62
7
  6
CONTINUOUS
 90
3
 70
0
 10
1.8190090248
 20
-12.3194658938
 10
1.8419929569
 20
-12.313797727
 10
1.8664209202
 20
-12.3096949343
  0
LINE
  5
36F
100
AcDbEntity
  8
IMPORT_IGES
100
AcDbLine
 62
7
  6
CONTINUOUS
 10
1.8664209202
 20
-12.3096949343
 11
1.8913441822
 21
-12.3074268817
  0
LWPOLYLINE
  5
370
100
AcDbEntity
  8
IMPORT_IGES
100
AcDbPolyline
 62
253
  6
CONTINUOUS
 90
13
 70
0
 10
-9.7504210197
 20
-12.5681072698
 10
-9.7246103552
 20
-12.5667715716
 10
-9.6993182465
 20
-12.5628051811
 10
-9.6749581177
 20
-12.5563010552
 10
-9.6520342767
 20
-12.5474437796
 10
-9.6307775383
 20
-12.5363748772
 10
-9.6112305343
 20
-12.5230782363
 10
-9.5936849142
 20
-12.5075968716
 10
-9.5786635427
 20
-12.4902134494
 10
-9.566573147
 20
-12.471264521
 10
-9.5577034541
 20
-12.4510898213
 10
-9.5522624094
 20
-12.4300046386
 10
-9.5504210526
 20
-12.4083801554
  0
LWPOLYLINE
  5
371
100
AcDbEntity
  8
IMPORT_IGES
100
AcDbPolyline
 62
253
  6
CONTINUOUS
 90
8
 70
0
 10
1.8522117577
 20
-12.1076070272
 10
1.833126194
 20
-12.1085240536
 10
1.8143786462
 20
-12.1113690234
 10
1.7962713893
 20
-12.1160885249
 10
1.7791657259
 20
-12.1225675244
 10
1.7632522768
 20
-12.1307120214
 10
1.748602926
 20
-12.1405207283
 10
1.7354423187
 20
-12.1519533938
  0
LWPOLYLINE
  5
372
100
AcDbEntity
  8
IMPORT_IGES
100
AcDbPolyline
 62
253
  6
CONTINUOUS
 90
13
 70
0
 10
1.8507225128
 20
-12.2699183141
 10
1.8314298591
 20
-12.2708020414
 10
1.812527459
 20
-12.273647133
 10
1.7943212961
 20
-12.2783838515
 10
1.7771861597
 20
-12.284874987
 10
1.7612891696
 20
-12.2930147431
 10
1.7466539308
 20
-12.3028156964
 10
1.7334936441
 20
-12.3142480394
 10
1.7221961621
 20
-12.3271054932
 10
1.713061758
 20
-12.3411435329
 10
1.7063057709
 20
-12.356114312
 10
1.7020837442
 20
-12.3717868152
 10
1.7005243937
 20
-12.3878890452
  0
LWPOLYLINE
  5
373
100
AcDbEntity
  8
IMPORT_IGES
100
AcDbPolyline
 62
7
  6
CONTINUOUS
 90
13
 70
0
 10
1.8538551406
 20
-12.009199534
 10
1.8342820299
 20
-12.0099017746
 10
1.8150804832
 20
-12.0122872996
 10
1.796574837
 20
-12.0163020151
 10
1.7790844656
 20
-12.0218461918
 10
1.7628873881
 20
-12.0288244213
 10
1.7482237235
 20
-12.0371564883
 10
1.7353413795
 20
-12.046689512
 10
1.7244530736
 20
-12.0572523908
 10
1.7157229154
 20
-12.0687206357
 10
1.7093082679
 20
-12.0809150759
 10
1.7053406077
 20
-12.0935973718
 10
1.7039031974
 20
-12.1065352127
  0
LINE
  5
374
100
AcDbEntity
  8
IMPORT_IGES
100
AcDbLine
 62
7
  6
CONTINUOUS
 10
1.8913441822
 20
-12.3074268817
 11
1.9090627565
 21
-12.3069582853
  0
LWPOLYLINE
  5
375
100
AcDbEntity
  8
IMPORT_IGES
100
AcDbPolyline
 62
253
  6
CONTINUOUS
 90
10
 70
0
 10
1.9090692548
 20
-12.2666856189
 10
1.90249458
 20
-12.2667234427
 10
1.8959354039
 20
-12.2668421467
 10
1.8893917267
 20
-12.2670417307
 10
1.8828536452
 20
-12.2673229178
 10
1.8763310625
 20
-12.267684985
 10
1.8698536877
 20
-12.2681257635
 10
1.8634314238
 20
-12.2686445303
 10
1.8570543677
 20
-12.2692420083
 10
1.8507225195
 20
-12.2699181976
  0
LINE
  5
376
100
AcDbEntity
  8
DRAFT
100
AcDbLine
 62
7
  6
CONTINUOUS
 10
-10.6504210526
 20
-13.5261052632
 11
-10.5565921033
 21
-13.5261052632
  0
LINE
  5
377
100
AcDbEntity
  8
DRAFT
100
AcDbLine
 62
7
  6
CONTINUOUS
 10
5.954727504
 20
-13.5261052632
 11
6.0495789474
 21
-13.5261052632
  0
LINE
  5
378
100
AcDbEntity
  8
DRAFT
100
AcDbLine
 62
7
  6
CONTINUOUS
 10
-10.6399489814
 20
-13.5156331919
 11
-10.5565921033
 21
-13.5156331919
  0
LINE
  5
379
100
AcDbEntity
  8
DRAFT
100
AcDbLine
 62
7
  6
CONTINUOUS
 10
5.9558744378
 20
-13.5156331919
 11
6.0391068762
 21
-13.5156331919
  0
LINE
  5
37A
100
AcDbEntity
  8
IMPORT_IGES
100
AcDbLine
 62
7
  6
CONTINUOUS
 10
4.7495789473
 20
-12.3069585438
 11
1.9090644295
 21
-12.3069585438
  0
LINE
  5
37B
100
AcDbEntity
  8
IMPORT_IGES
100
AcDbLine
 62
7
  6
CONTINUOUS
 10
-6.5099116509
 20
-12.3069585438
 11
-9.3504246188
 21
-12.3069585438
  0
LINE
  5
37C
100
AcDbEntity
  8
IMPORT_IGES
100
AcDbLine
 62
253
  6
CONTINUOUS
 10
-9.3504239819
 20
-12.2666856908
 11
-6.5099116522
 21
-12.2666856458
  0
LINE
  5
37D
100
AcDbEntity
  8
IMPORT_IGES
100
AcDbLine
 62
253
  6
CONTINUOUS
 10
1.9090692548
 20
-12.2666856189
 11
4.7495780569
 21
-12.266685599
  0
LINE
  5
37E
100
AcDbEntity
  8
DRAFT
100
AcDbLine
 62
7
  6
CONTINUOUS
 10
-13.1131523747
 20
-12.1261052632
 11
-10.6504210526
 21
-12.1261052632
  0
LINE
  5
37F
100
AcDbEntity
  8
DRAFT
100
AcDbLine
 62
7
  6
CONTINUOUS
 10
8.5123102695
 20
-12.1261052632
 11
6.0495789474
 21
-12.1261052632
  0
LINE
  5
380
100
AcDbEntity
  8
RACCORDO
100
AcDbLine
 62
7
  6
CONTINUOUS
 10
-10.6399489814
 20
-12.1086515276
 11
-10.5812754993
 21
-12.1086515276
  0
LINE
  5
381
100
AcDbEntity
  8
RACCORDO
100
AcDbLine
 62
7
  6
CONTINUOUS
 10
6.0391068762
 20
-12.1086515276
 11
5.9804333941
 21
-12.1086515276
  0
LINE
  5
382
100
AcDbEntity
  8
IMPORT_IGES
100
AcDbLine
 62
253
  6
CONTINUOUS
 10
1.8522117563
 20
-12.1076068598
 11
5.6845879552
 21
-12.1076087061
  0
LINE
  5
383
100
AcDbEntity
  8
IMPORT_IGES
100
AcDbLine
 62
253
  6
CONTINUOUS
 10
-6.4530457548
 20
-12.1076066042
 11
-10.2854081311
 21
-12.1076092627
  0
LINE
  5
384
100
AcDbEntity
  8
RACCORDO
100
AcDbLine
 62
7
  6
CONTINUOUS
 10
-13.2004210526
 20
-12.038381203
 11
-10.5825020724
 21
-12.038381203
  0
LINE
  5
385
100
AcDbEntity
  8
RACCORDO
100
AcDbLine
 62
7
  6
CONTINUOUS
 10
5.9816599671
 20
-12.038381203
 11
8.5995789474
 21
-12.038381203
  0
LINE
  5
386
100
AcDbEntity
  8
IMPORT_IGES
100
AcDbLine
 62
7
  6
CONTINUOUS
 10
-6.8504210526
 20
-12.0091991448
 11
-6.4547342482
 21
-12.0091998905
  0
LINE
  5
387
100
AcDbEntity
  8
IMPORT_IGES
100
AcDbLine
 62
7
  6
CONTINUOUS
 10
2.2495789474
 20
-12.0091992847
 11
1.8538921434
 21
-12.009199518
  0
LINE
  5
388
100
AcDbEntity
  8
IMPORT_IGES
100
AcDbLine
 62
7
  6
CONTINUOUS
 10
5.0796617656
 20
-11.8804052522
 11
3.3194961292
 21
-11.8804052522
  0
LINE
  5
389
100
AcDbEntity
  8
IMPORT_IGES
100
AcDbLine
 62
7
  6
CONTINUOUS
 10
-7.9203382344
 20
-11.8804052522
 11
-9.6805038708
 21
-11.8804052522
  0
LWPOLYLINE
  5
38A
100
AcDbEntity
  8
IMPORT_IGES
100
AcDbPolyline
 62
253
  6
CONTINUOUS
 90
10
 70
0
 10
-6.5099116522
 20
-12.2666856458
 10
-6.5033684631
 20
-12.2667223263
 10
-6.4968327252
 20
-12.2668401545
 10
-6.4903044386
 20
-12.2670391302
 10
-6.4837739144
 20
-12.2673199675
 10
-6.4772508415
 20
-12.2676819524
 10
-6.470764286
 20
-12.268122943
 10
-6.4643239369
 20
-12.2686422253
 10
-6.4579201053
 20
-12.2692405133
 10
-6.4515527911
 20
-12.2699178069
  0
LWPOLYLINE
  5
38B
100
AcDbEntity
  8
IMPORT_IGES
100
AcDbPolyline
 62
253
  6
CONTINUOUS
 90
11
 70
0
 10
1.9004090711
 20
-12.4012693012
 10
1.8745780099
 20
-12.4010586419
 10
1.8492740762
 20
-12.4010507046
 10
1.8249104473
 20
-12.4012432673
 10
1.8019974708
 20
-12.4016282126
 10
1.7807554042
 20
-12.4021975638
 10
1.7612053989
 20
-12.4029536524
 10
1.7436328365
 20
-12.403896915
 10
1.7285772532
 20
-12.4050131731
 10
1.7164587251
 20
-12.4062836823
 10
1.7122770441
 20
-12.4069436372
  0
LWPOLYLINE
  5
38C
100
AcDbEntity
  8
IMPORT_IGES
100
AcDbPolyline
 62
7
  6
CONTINUOUS
 90
5
 70
0
 10
4.7495788955
 20
-12.3069566181
 10
4.7573708274
 20
-12.3070474464
 10
4.7823058126
 20
-12.3085844185
 10
4.8065831375
 20
-12.3119546473
 10
4.8296410103
 20
-12.3169851332
  0
LWPOLYLINE
  5
38D
100
AcDbEntity
  8
IMPORT_IGES
100
AcDbPolyline
 62
7
  6
CONTINUOUS
 90
3
 70
0
 10
-6.5099116992
 20
-12.3069573384
 10
-6.4983198082
 20
-12.3071568371
 10
-6.4764057889
 20
-12.3086433324
  0
LWPOLYLINE
  5
38E
100
AcDbEntity
  8
IMPORT_IGES
100
AcDbPolyline
 62
7
  6
CONTINUOUS
 90
13
 70
0
 10
-6.4547006635
 20
-12.0091996948
 10
-6.4351218239
 20
-12.0099030015
 10
-6.4159158482
 20
-12.0122901041
 10
-6.3974072185
 20
-12.0163065705
 10
-6.3799155461
 20
-12.0218519949
 10
-6.3637185138
 20
-12.0288309402
 10
-6.349055514
 20
-12.0371640118
 10
-6.3361738274
 20
-12.0466992693
 10
-6.3252867742
 20
-12.057264556
 10
-6.3165590854
 20
-12.0687331092
 10
-6.3101474515
 20
-12.0809247638
 10
-6.3061820986
 20
-12.0936018076
 10
-6.3047452904
 20
-12.1065362355
  0
LWPOLYLINE
  5
38F
100
AcDbEntity
  8
IMPORT_IGES
100
AcDbPolyline
 62
253
  6
CONTINUOUS
 90
13
 70
0
 10
-10.285298289
 20
-12.1076085452
 10
-10.3236051912
 20
-12.1059027712
 10
-10.3611968496
 20
-12.1003204866
 10
-10.3974675264
 20
-12.0909805335
 10
-10.4316860704
 20
-12.0781291198
 10
-10.4634914797
 20
-12.0619625542
 10
-10.4927799761
 20
-12.0424719156
 10
-10.5191230468
 20
-12.0197193007
 10
-10.5417525921
 20
-11.9941123287
 10
-10.5600529087
 20
-11.9661682528
 10
-10.5736069923
 20
-11.9363956267
 10
-10.5821302863
 20
-11.9052448716
 10
-10.5853843704
 20
-11.8732544606
  0
LWPOLYLINE
  5
390
100
AcDbEntity
  8
IMPORT_IGES
100
AcDbPolyline
 62
253
  6
CONTINUOUS
 90
13
 70
0
 10
-6.4513173959
 20
-12.269906924
 10
-6.4322669182
 20
-12.2707980815
 10
-6.4135199434
 20
-12.2736162597
 10
-6.395380721
 20
-12.2783175326
 10
-6.3781768802
 20
-12.284812862
 10
-6.3621511117
 20
-12.2930062802
 10
-6.3474825111
 20
-12.302828697
 10
-6.3344512061
 20
-12.3141364322
 10
-6.3232925839
 20
-12.326775081
 10
-6.3141645735
 20
-12.3406735062
 10
-6.3073074213
 20
-12.3556752511
 10
-6.302977716
 20
-12.3715067844
 10
-6.3013663963
 20
-12.3878975632
  0
LWPOLYLINE
  5
391
100
AcDbEntity
  8
IMPORT_IGES
100
AcDbPolyline
 62
253
  6
CONTINUOUS
 90
13
 70
0
 10
5.1495789473
 20
-12.5681070888
 10
5.1240349887
 20
-12.5667989704
 10
5.098899854
 20
-12.5628940394
 10
5.0745862815
 20
-12.5564533427
 10
5.0515781114
 20
-12.5476173095
 10
5.0301588938
 20
-12.5365077348
 10
5.0104726054
 20
-12.523143175
 10
4.9928246725
 20
-12.5075784045
 10
4.9777329589
 20
-12.4900946833
 10
4.9656334452
 20
-12.4710820416
 10
4.9567989929
 20
-12.4509098555
 10
4.9513999257
 20
-12.4298852188
 10
4.9495789473
 20
-12.4083803373
  0
LWPOLYLINE
  5
392
100
AcDbEntity
  8
IMPORT_IGES
100
AcDbPolyline
 62
253
  6
CONTINUOUS
 90
8
 70
0
 10
-6.3408767368
 20
-12.4041328339
 10
-6.3575231788
 20
-12.4031686721
 10
-6.3769255109
 20
-12.4023554776
 10
-6.3987227519
 20
-12.4017211429
 10
-6.4224696382
 20
-12.4012855412
 10
-6.4477284716
 20
-12.4010605612
 10
-6.4741108822
 20
-12.4010533264
 10
-6.5011520307
 20
-12.4012681085
  0
LINE
  5
393
100
AcDbEntity
  8
IMPORT_IGES
100
AcDbLine
 62
253
  6
CONTINUOUS
 10
4.7495780569
 20
-12.266685599
 11
4.7938334524
 21
-12.2694959755
  0
LWPOLYLINE
  5
394
100
AcDbEntity
  8
IMPORT_IGES
100
AcDbPolyline
 62
7
  6
CONTINUOUS
 90
5
 70
0
 10
-6.4764057889
 20
-12.3086433324
 10
-6.454695099
 20
-12.311568791
 10
-6.433897098
 20
-12.3157826388
 10
-6.4141967196
 20
-12.321150183
 10
-6.3958886964
 20
-12.3274817997
  0
LWPOLYLINE
  5
395
100
AcDbEntity
  8
IMPORT_IGES
100
AcDbPolyline
 62
253
  6
CONTINUOUS
 90
4
 70
0
 10
-6.3131866899
 20
-12.4069170789
 10
-6.3159267569
 20
-12.4064627657
 10
-6.3270225303
 20
-12.4052314728
 10
-6.3408767368
 20
-12.4041328339
  0
LINE
  5
396
100
AcDbEntity
  8
IMPORT_IGES
100
AcDbLine
 62
7
  6
CONTINUOUS
 10
-6.3958886964
 20
-12.3274817997
 11
-6.3886499886
 21
-12.3304447001
  0
LWPOLYLINE
  5
397
100
AcDbEntity
  8
IMPORT_IGES
100
AcDbPolyline
 62
7
  6
CONTINUOUS
 90
6
 70
0
 10
-6.3886908391
 20
-12.3305445026
 10
-6.3841154322
 20
-12.3327048951
 10
-6.3712564607
 20
-12.3398485827
 10
-6.3593612411
 20
-12.3480633941
 10
-6.3486078597
 20
-12.3571116688
 10
-6.3390586736
 20
-12.3667825835
  0
LWPOLYLINE
  5
398
100
AcDbEntity
  8
IMPORT_IGES
100
AcDbPolyline
 62
253
  6
CONTINUOUS
 90
6
 70
0
 10
-6.3605953973
 20
-12.132828366
 10
-6.376869262
 20
-12.1239978458
 10
-6.3945660183
 20
-12.1169213271
 10
-6.4133602269
 20
-12.1117611574
 10
-6.4329669306
 20
-12.1086262811
 10
-6.4530457558
 20
-12.1076067826
  0
LWPOLYLINE
  5
399
100
AcDbEntity
  8
RACCORDO
100
AcDbPolyline
 62
7
  6
CONTINUOUS
 90
6
 70
0
 10
-13.166663267
 20
-4.1975305777
 10
-13.1778263898
 20
-4.186579305
 10
-13.1868683541
 20
-4.1773725026
 10
-13.1935070788
 20
-4.1702521023
 10
-13.198024645
 20
-4.1656171186
 10
-13.2004210526
 20
-4.1638293233
  0
LINE
  5
39A
100
AcDbEntity
  8
RACCORDO
100
AcDbLine
 62
7
  6
CONTINUOUS
 10
-12.9504210526
 20
-4.4138198041
 11
-12.9685683391
 21
-4.395861882
  0
LWPOLYLINE
  5
39B
100
AcDbEntity
  8
RACCORDO
100
AcDbPolyline
 62
7
  6
CONTINUOUS
 90
3
 70
0
 10
-13.1257430359
 20
-4.2384745333
 10
-13.1406215901
 20
-4.2237510916
 10
-13.166663267
 20
-4.1975305777
  0
LINE
  5
39C
100
AcDbEntity
  8
ASSI
100
AcDbLine
 62
7
  6
CONTINUOUS
 10
2.6995789474
 20
-21.8761052632
 11
2.793855004
 21
-21.9703813198
  0
LINE
  5
39D
100
AcDbEntity
  8
DRAFT
100
AcDbLine
 62
7
  6
CONTINUOUS
 10
-13.1131523747
 20
-5.0761052632
 11
-13.2004210526
 21
-4.9888365853
  0
LINE
  5
39E
100
AcDbEntity
  8
RACCORDO
100
AcDbLine
 62
7
  6
CONTINUOUS
 10
-12.9685683391
 20
-4.395861882
 11
-13.1257430359
 21
-4.2384745333
  0
LWPOLYLINE
  5
39F
100
AcDbEntity
  8
IMPORT_IGES
100
AcDbPolyline
 62
7
  6
CONTINUOUS
 90
8
 70
0
 10
-6.3390586736
 20
-12.3667825835
 10
-6.3306824946
 20
-12.3769355175
 10
-6.3234503395
 20
-12.3874313184
 10
-6.3173918639
 20
-12.3980102833
 10
-6.3124994271
 20
-12.4083727402
 10
-6.3086284511
 20
-12.4184517337
 10
-6.3056985225
 20
-12.4280259632
 10
-6.3036636068
 20
-12.436573177
  0
LWPOLYLINE
  5
3A0
100
AcDbEntity
  8
IMPORT_IGES
100
AcDbPolyline
 62
253
  6
CONTINUOUS
 90
13
 70
0
 10
-10.6534001126
 20
-7.9766351996
 10
-10.6506241392
 20
-7.9925041585
 10
-10.6429407498
 20
-8.0079575501
 10
-10.6305379489
 20
-8.0227461215
 10
-10.6137786837
 20
-8.0365655505
 10
-10.5929341615
 20
-8.0492857945
 10
-10.5679617602
 20
-8.0608925261
 10
-10.5389333929
 20
-8.0712127943
 10
-10.5063822681
 20
-8.0799328857
 10
-10.4709360795
 20
-8.086814147
 10
-10.4332256925
 20
-8.0916902061
 10
-10.3938335515
 20
-8.0944442282
 10
-10.353445945
 20
-8.0949828725
  0
LWPOLYLINE
  5
3A1
100
AcDbEntity
  8
IMPORT_IGES
100
AcDbPolyline
 62
253
  6
CONTINUOUS
 90
13
 70
0
 10
-10.7071074798
 20
-4.8997421924
 10
-10.7043311773
 20
-4.9156120714
 10
-10.6966471009
 20
-4.9310659571
 10
-10.6842436433
 20
-4.9458546045
 10
-10.6674843055
 20
-4.9596736147
 10
-10.6466405125
 20
-4.9723931731
 10
-10.6216691268
 20
-4.9839993698
 10
-10.5926418334
 20
-4.9943191906
 10
-10.5600918655
 20
-5.0030389871
 10
-10.5246463101
 20
-5.009920529
 10
-10.4869356974
 20
-5.0147974763
 10
-10.4475425581
 20
-5.0175527273
 10
-10.4071531785
 20
-5.0180928203
  0
LWPOLYLINE
  5
3A2
100
AcDbEntity
  8
RACCORDO
100
AcDbPolyline
 62
7
  6
CONTINUOUS
 90
25
 70
0
 10
-6.8004210526
 20
-27.0477330847
 10
-6.7999776497
 20
-27.05180365
 10
-6.7986966684
 20
-27.0558227317
 10
-6.7965781087
 20
-27.0597903297
 10
-6.7936057717
 20
-27.0637229457
 10
-6.7897958562
 20
-27.067604078
 10
-6.7851969591
 20
-27.0713842215
 10
-6.7797989738
 20
-27.0750620824
 10
-6.7736120068
 20
-27.0786389545
 10
-6.7667149751
 20
-27.0820692134
 10
-6.7590987829
 20
-27.0853509811
 10
-6.7507725261
 20
-27.0884861357
 10
-6.7418424089
 20
-27.0914346871
 10
-6.7323006959
 20
-27.0941942451
 10
-6.7221551226
 20
-27.0967672
 10
-6.7115350992
 20
-27.0991207328
 10
-6.7004345482
 20
-27.1012520328
 10
-6.6888595471
 20
-27.1031639107
 10
-6.6769577391
 20
-27.1048319799
 10
-6.6647249379
 20
-27.1062531173
 10
-6.6521653298
 20
-27.1074304459
 10
-6.639439117
 20
-27.1083489486
 10
-6.6265997003
 20
-27.1090036195
 10
-6.6135936788
 20
-27.1093994645
 10
-6.6004210526
 20
-27.1095364835
  0
LINE
  5
3A3
100
AcDbEntity
  8
ASSI
100
AcDbLine
 62
7
  6
CONTINUOUS
 10
-7.6614807857
 20
-22.9246448226
 11
-7.6590592216
 21
-22.9939893446
  0
LINE
  5
3A4
100
AcDbEntity
  8
RACCORDO
100
AcDbLine
 62
7
  6
CONTINUOUS
 10
-7.6590592216
 20
-22.9939893446
 11
-7.6584374851
 21
-23.0117935488
  0
LINE
  5
3A5
100
AcDbEntity
  8
IMPORT_IGES
100
AcDbLine
 62
253
  6
CONTINUOUS
 10
-9.3505788113
 20
-3.9971884529
 11
-9.3504452296
 21
-4.1971871275
  0
LINE
  5
3A6
100
AcDbEntity
  8
RACCORDO
100
AcDbLine
 62
7
  6
CONTINUOUS
 10
-9.8004210526
 20
-23.5261052632
 11
-9.8004210526
 21
-22.1761011508
  0
LINE
  5
3A7
100
AcDbEntity
  8
RACCORDO
100
AcDbLine
 62
7
  6
CONTINUOUS
 10
-9.8004210526
 20
-17.5262089948
 11
-9.8004210526
 21
-16.1261052632
  0
LINE
  5
3A8
100
AcDbEntity
  8
DRAFT
100
AcDbLine
 62
7
  6
CONTINUOUS
 10
-9.8004210526
 20
17.8738947368
 11
-9.8004210526
 21
18.2738947368
  0
LINE
  5
3A9
100
AcDbEntity
  8
RACCORDO
100
AcDbLine
 62
7
  6
CONTINUOUS
 10
-9.7957086206
 20
16.9286030566
 11
-9.7957086206
 21
17.8660405558
  0
LINE
  5
3AA
100
AcDbEntity
  8
IMPORT_IGES
100
AcDbLine
 62
253
  6
CONTINUOUS
 10
-9.7504210197
 20
-14.107369834
 11
-9.7504210526
 21
-12.5681072698
  0
LINE
  5
3AB
100
AcDbEntity
  8
IMPORT_IGES
100
AcDbLine
 62
253
  6
CONTINUOUS
 10
-9.7504210526
 20
-11.7712592408
 11
-9.7504105726
 21
-4.3789386958
  0
LINE
  5
3AC
100
AcDbEntity
  8
RACCORDO
100
AcDbLine
 62
7
  6
CONTINUOUS
 10
-9.7126969925
 20
-16.038381203
 11
-9.7126969925
 21
-17.6336324332
  0
LINE
  5
3AD
100
AcDbEntity
  8
RACCORDO
100
AcDbLine
 62
7
  6
CONTINUOUS
 10
-9.7009363761
 20
-23.5924280441
 11
-9.7009363761
 21
-22.2755858273
  0
LINE
  5
3AE
100
AcDbEntity
  8
RACCORDO
100
AcDbLine
 62
7
  6
CONTINUOUS
 10
-9.7009363761
 20
17.023375301
 11
-9.7009363761
 21
18.3402175178
  0
LINE
  5
3AF
100
AcDbEntity
  8
DRAFT
100
AcDbLine
 62
7
  6
CONTINUOUS
 10
-9.6504210526
 20
-14.2719244867
 11
-9.6504210526
 21
-15.1261052632
  0
LINE
  5
3B0
100
AcDbEntity
  8
DRAFT
100
AcDbLine
 62
7
  6
CONTINUOUS
 10
-9.6399489814
 20
-14.2779705398
 11
-9.6399489814
 21
-15.1365773344
  0
LINE
  5
3B1
100
AcDbEntity
  8
IMPORT_IGES
100
AcDbLine
 62
7
  6
CONTINUOUS
 10
-9.5504210526
 20
-13.9832495114
 11
-9.5504210526
 21
-12.4083801554
  0
LINE
  5
3B2
100
AcDbEntity
  8
IMPORT_IGES
100
AcDbLine
 62
253
  6
CONTINUOUS
 10
-9.5034226939
 20
6.4704224464
 11
-9.5034210526
 21
4.1433279862
  0
LINE
  5
3B3
100
AcDbEntity
  8
RACCORDO
100
AcDbLine
 62
253
  6
CONTINUOUS
 10
-9.4627065117
 20
-15.7883907223
 11
-9.4627065117
 21
-17.6336324332
  0
LINE
  5
3B4
100
AcDbEntity
  8
RACCORDO
100
AcDbLine
 62
253
  6
CONTINUOUS
 10
-9.4430161845
 20
6.8843596817
 11
-9.4430161992
 21
6.8861706767
  0
LINE
  5
3B5
100
AcDbEntity
  8
RACCORDO
100
AcDbLine
 62
253
  6
CONTINUOUS
 10
-9.4079482227
 20
-17.6883907223
 11
-9.4079482227
 21
-17.938381203
  0
LINE
  5
3B6
100
AcDbEntity
  8
IMPORT_IGES
100
AcDbLine
 62
253
  6
CONTINUOUS
 10
-9.3504246188
 20
-12.2666856458
 11
-9.3504260536
 21
-14.2172964452
  0
LINE
  5
3B7
100
AcDbEntity
  8
IMPORT_IGES
100
AcDbLine
 62
7
  6
CONTINUOUS
 10
-9.3034210526
 20
4.2224635244
 11
-9.3034210526
 21
6.541112101
  0
LINE
  5
3B8
100
AcDbEntity
  8
IMPORT_IGES
100
AcDbLine
 62
253
  6
CONTINUOUS
 10
-9.1034210526
 20
4.2757540859
 11
-9.1034210598
 21
7.0238947368
  0
LINE
  5
3B9
100
AcDbEntity
  8
RACCORDO
100
AcDbLine
 62
253
  6
CONTINUOUS
 10
-9.1030963005
 20
-24.1582202679
 11
-9.1030963005
 21
-22.3939902585
  0
LINE
  5
3BA
100
AcDbEntity
  8
RACCORDO
100
AcDbLine
 62
253
  6
CONTINUOUS
 10
-9.1030963005
 20
17.1417797321
 11
-9.1030963005
 21
18.9060097415
  0
LINE
  5
3BB
100
AcDbEntity
  8
RACCORDO
100
AcDbLine
 62
253
  6
CONTINUOUS
 10
-9.0504210526
 20
-17.938381203
 11
-9.0504210526
 21
-17.3261052632
  0
LINE
  5
3BC
100
AcDbEntity
  8
RACCORDO
100
AcDbLine
 62
253
  6
CONTINUOUS
 10
-9.0504210526
 20
-16.2261052632
 11
-9.0504210526
 21
-15.428730848
  0
LINE
  5
3BD
100
AcDbEntity
  8
RACCORDO
100
AcDbLine
 62
7
  6
CONTINUOUS
 10
-8.8004210526
 20
-17.6883907223
 11
-8.8004210526
 21
-17.3261052632
  0
LINE
  5
3BE
100
AcDbEntity
  8
RACCORDO
100
AcDbLine
 62
7
  6
CONTINUOUS
 10
-8.8004210526
 20
-15.9761052632
 11
-8.8004210526
 21
-15.178727421
  0
LINE
  5
3BF
100
AcDbEntity
  8
RACCORDO
100
AcDbLine
 62
7
  6
CONTINUOUS
 10
-8.8004210526
 20
-15.1744069689
 11
-8.8004210526
 21
-14.7626722155
  0
LINE
  5
3C0
100
AcDbEntity
  8
IMPORT_IGES
100
AcDbLine
 62
253
  6
CONTINUOUS
 10
-8.6504210526
 20
-3.3811052632
 11
-8.6504210526
 21
-1.9811052632
  0
LINE
  5
3C1
100
AcDbEntity
  8
IMPORT_IGES
100
AcDbLine
 62
253
  6
CONTINUOUS
 10
-8.5235644804
 20
-14.6769875656
 11
-8.523564468
 21
-14.8761052631
  0
LINE
  5
3C2
100
AcDbEntity
  8
RACCORDO
100
AcDbLine
 62
253
  6
CONTINUOUS
 10
-8.5031410787
 20
-23.5582650461
 11
-8.5031410787
 21
-22.9939454803
  0
LINE
  5
3C3
100
AcDbEntity
  8
RACCORDO
100
AcDbLine
 62
253
  6
CONTINUOUS
 10
-8.5031410787
 20
17.7417349539
 11
-8.5031410787
 21
18.3060545197
  0
LINE
  5
3C4
100
AcDbEntity
  8
DRAFT
100
AcDbLine
 62
7
  6
CONTINUOUS
 10
-8.5004210526
 20
20.6238947368
 11
-8.5004210526
 21
19.8505977612
  0
LINE
  5
3C5
100
AcDbEntity
  8
DRAFT
100
AcDbLine
 62
7
  6
CONTINUOUS
 10
-8.5004210526
 20
-25.8761052632
 11
-8.5004210526
 21
-25.1028082875
  0
LINE
  5
3C6
100
AcDbEntity
  8
RACCORDO
100
AcDbLine
 62
7
  6
CONTINUOUS
 10
-8.5004210526
 20
-25.095735424
 11
-8.5004210526
 21
-24.2968225766
  0
LINE
  5
3C7
100
AcDbEntity
  8
RACCORDO
100
AcDbLine
 62
253
  6
CONTINUOUS
 10
-8.5004210526
 20
-16.7761052632
 11
-8.5004210526
 21
-17.0261052632
  0
LINE
  5
3C8
100
AcDbEntity
  8
RACCORDO
100
AcDbLine
 62
7
  6
CONTINUOUS
 10
-8.5004210526
 20
19.0446120503
 11
-8.5004210526
 21
19.8435248977
  0
LINE
  5
3C9
100
AcDbEntity
  8
IMPORT_IGES
100
AcDbLine
 62
253
  6
CONTINUOUS
 10
-8.4504214758
 20
7.2238947368
 11
-8.4504215833
 21
7.0238947368
  0
LINE
  5
3CA
100
AcDbEntity
  8
ASSI
100
AcDbLine
 62
253
  6
CONTINUOUS
 10
-8.3946834015
 20
17.1417797321
 11
-8.3946834015
 21
16.7233794134
  0
LINE
  5
3CB
100
AcDbEntity
  8
ASSI
100
AcDbLine
 62
253
  6
CONTINUOUS
 10
-8.3946834015
 20
-21.9755899397
 11
-8.3946834015
 21
-22.3939902585
  0
LINE
  5
3CC
100
AcDbEntity
  8
IMPORT_IGES
100
AcDbLine
 62
7
  6
CONTINUOUS
 10
-8.3504210526
 20
-1.9811052632
 11
-8.3504210526
 21
-4.3811052632
  0
LINE
  5
3CD
100
AcDbEntity
  8
RACCORDO
100
AcDbLine
 62
7
  6
CONTINUOUS
 10
-7.6590592216
 20
17.7417788183
 11
-7.6584374851
 21
17.7595830224
  0
LINE
  5
3CE
100
AcDbEntity
  8
ASSI
100
AcDbLine
 62
7
  6
CONTINUOUS
 10
-7.6614807857
 20
17.6724342963
 11
-7.6590592216
 21
17.7417788183
  0
LINE
  5
3CF
100
AcDbEntity
  8
RACCORDO
100
AcDbLine
 62
253
  6
CONTINUOUS
 10
-9.746123782
 20
6.6132601869
 11
-9.7477920409
 21
6.5814033014
  0
LWPOLYLINE
  5
3D0
100
AcDbEntity
  8
IMPORT_IGES
100
AcDbPolyline
 62
253
  6
CONTINUOUS
 90
5
 70
0
 10
-9.5504210526
 20
-13.9476429008
 10
-9.5520935233
 20
-13.9682561334
 10
-9.5570599811
 20
-13.9884552505
 10
-9.5652040301
 20
-14.0079100748
 10
-9.5762945415
 20
-14.0262178548
  0
LWPOLYLINE
  5
3D1
100
AcDbEntity
  8
IMPORT_IGES
100
AcDbPolyline
 62
7
  6
CONTINUOUS
 90
14
 70
0
 10
-9.5504178801
 20
-12.4069149662
 10
-9.5502583372
 20
-12.4051816538
 10
-9.5497206051
 20
-12.402095097
 10
-9.5485249118
 20
-12.3978500702
 10
-9.5460377978
 20
-12.391931301
 10
-9.5422103281
 20
-12.3851897747
 10
-9.536853703
 20
-12.3777508712
 10
-9.5294017494
 20
-12.3693599761
 10
-9.51979742
 20
-12.3604706486
 10
-9.5080930922
 20
-12.3514774334
 10
-9.49410172
 20
-12.3425543498
 10
-9.4775975519
 20
-12.3339029106
 10
-9.4587237012
 20
-12.3259135069
 10
-9.4378347329
 20
-12.3189969358
  0
LWPOLYLINE
  5
3D2
100
AcDbEntity
  8
RACCORDO
100
AcDbPolyline
 62
7
  6
CONTINUOUS
 90
25
 70
0
 10
-6.8004210526
 20
22.1759451649
 10
-6.7999776497
 20
22.1800157302
 10
-6.7986966684
 20
22.1840348119
 10
-6.7965781087
 20
22.1880024099
 10
-6.7936057717
 20
22.1919350259
 10
-6.7897958562
 20
22.1958161582
 10
-6.7851969591
 20
22.1995963017
 10
-6.7797989738
 20
22.2032741626
 10
-6.7736120068
 20
22.2068510347
 10
-6.7667149751
 20
22.2102812936
 10
-6.7590987829
 20
22.2135630613
 10
-6.7507725261
 20
22.2166982159
 10
-6.7418424089
 20
22.2196467673
 10
-6.7323006959
 20
22.2224063253
 10
-6.7221551226
 20
22.2249792802
 10
-6.7115350992
 20
22.227332813
 10
-6.7004345482
 20
22.229464113
 10
-6.6888595471
 20
22.2313759909
 10
-6.6769577391
 20
22.2330440601
 10
-6.6647249379
 20
22.2344651975
 10
-6.6521653298
 20
22.2356425261
 10
-6.639439117
 20
22.2365610288
 10
-6.6265997003
 20
22.2372156997
 10
-6.6135936788
 20
22.2376115447
 10
-6.6004210526
 20
22.2377485637
  0
LWPOLYLINE
  5
3D3
100
AcDbEntity
  8
IMPORT_IGES
100
AcDbPolyline
 62
253
  6
CONTINUOUS
 90
10
 70
0
 10
-9.7504210526
 20
-12.5681072698
 10
-9.7460487782
 20
-12.530908705
 10
-9.7377807182
 20
-12.4962341727
 10
-9.7256168726
 20
-12.4640836729
 10
-9.7093055437
 20
-12.4346127642
 10
-9.6890984293
 20
-12.4076658879
 10
-9.6657506223
 20
-12.382776369
 10
-9.6391946484
 20
-12.3595954553
 10
-9.609497982
 20
-12.3384718988
 10
-9.5776181388
 20
-12.3199852802
  0
LWPOLYLINE
  5
3D4
100
AcDbEntity
  8
IMPORT_IGES
100
AcDbPolyline
 62
253
  6
CONTINUOUS
 90
13
 70
0
 10
-9.5504211012
 20
-4.9357591952
 10
-9.5520950209
 20
-4.9463393949
 10
-9.5570612826
 20
-4.9567559217
 10
-9.5652043107
 20
-4.9667894783
 10
-9.5762941828
 20
-4.976232545
 10
-9.5901542828
 20
-4.9849896301
 10
-9.6068039581
 20
-4.9930423391
 10
-9.6261887876
 20
-5.0002703358
 10
-9.647955249
 20
-5.0064584511
 10
-9.6716818683
 20
-5.0114391193
 10
-9.6969432184
 20
-5.0150929931
 10
-9.7233445341
 20
-5.017334425
 10
-9.7504210525
 20
-5.0180929659
  0
LWPOLYLINE
  5
3D5
100
AcDbEntity
  8
RACCORDO
100
AcDbPolyline
 62
7
  6
CONTINUOUS
 90
6
 70
0
 10
3.9022989735
 20
18.3060545197
 10
3.9057913947
 20
18.3105386827
 10
3.9144442874
 20
18.318993475
 10
3.9276633505
 20
18.3314188968
 10
3.9447980796
 20
18.3482874768
 10
3.9652851715
 20
18.3691266863
  0
LINE
  5
3D6
100
AcDbEntity
  8
RACCORDO
100
AcDbLine
 62
253
  6
CONTINUOUS
 10
7.1995979858
 20
17.8738947368
 11
7.1917438048
 21
17.8660405558
  0
LINE
  5
3D7
100
AcDbEntity
  8
RACCORDO
100
AcDbLine
 62
253
  6
CONTINUOUS
 10
7.6995789474
 20
17.3739137753
 11
7.6917247664
 21
17.3660595943
  0
LINE
  5
3D8
100
AcDbEntity
  8
DRAFT
100
AcDbLine
 62
7
  6
CONTINUOUS
 10
-13.1131523747
 20
-4.0761052632
 11
-13.2004210526
 21
-4.1633739411
  0
LWPOLYLINE
  5
3D9
100
AcDbEntity
  8
IMPORT_IGES
100
AcDbPolyline
 62
253
  6
CONTINUOUS
 90
13
 70
0
 10
4.5783745343
 20
7.023892146
 10
4.5735823366
 20
7.0222870614
 10
4.5687931573
 20
7.0173955482
 10
4.5641337449
 20
7.0092363321
 10
4.5597850824
 20
6.9981809137
 10
4.5557895641
 20
6.984500582
 10
4.5520808514
 20
6.9679292619
 10
4.5487511218
 20
6.9486378754
 10
4.5459175486
 20
6.9271517839
 10
4.5436043381
 20
6.9034639325
 10
4.5418880135
 20
6.8779814611
 10
4.5408415071
 20
6.8516104454
 10
4.5404765428
 20
6.8251175856
  0
LWPOLYLINE
  5
3DA
100
AcDbEntity
  8
IMPORT_IGES
100
AcDbPolyline
 62
7
  6
CONTINUOUS
 90
5
 70
0
 10
-9.4378347329
 20
-12.3189969358
 10
-9.4152247148
 20
-12.3134481332
 10
-9.3912949042
 20
-12.3095045745
 10
-9.366870639
 20
-12.3073682933
 10
-9.3504246151
 20
-12.3069599808
  0
LWPOLYLINE
  5
3DB
100
AcDbEntity
  8
IMPORT_IGES
100
AcDbPolyline
 62
253
  6
CONTINUOUS
 90
3
 70
0
 10
-9.431325149
 20
-12.2734221287
 10
-9.3915207882
 20
-12.2686751483
 10
-9.3504239819
 20
-12.2666856908
  0
LWPOLYLINE
  5
3DC
100
AcDbEntity
  8
IMPORT_IGES
100
AcDbPolyline
 62
253
  6
CONTINUOUS
 90
13
 70
0
 10
1.5124751982
 20
-11.5485183472
 10
1.5388319444
 20
-11.5472430351
 10
1.5647909538
 20
-11.543190825
 10
1.5898922748
 20
-11.5364130367
 10
1.6138260516
 20
-11.5269447793
 10
1.6359950099
 20
-11.5149706971
 10
1.6556450972
 20
-11.5009674038
 10
1.6723567601
 20
-11.4854788355
 10
1.6862250155
 20
-11.4686913998
 10
1.6973363963
 20
-11.4506093131
 10
1.7055431838
 20
-11.431400984
 10
1.7106269018
 20
-11.411479309
 10
1.7124938159
 20
-11.3911923548
  0
LWPOLYLINE
  5
3DD
100
AcDbEntity
  8
IMPORT_IGES
100
AcDbPolyline
 62
253
  6
CONTINUOUS
 90
13
 70
0
 10
1.8751809663
 20
-10.2299356031
 10
1.8559504712
 20
-10.2306950557
 10
1.837099669
 20
-10.2331814167
 10
1.8189329143
 20
-10.2373367963
 10
1.8018256985
 20
-10.2430428604
 10
1.7859444416
 20
-10.2502101126
 10
1.7713114388
 20
-10.2588558164
 10
1.7581393685
 20
-10.2689610078
 10
1.7468266621
 20
-10.2803433565
 10
1.7376860801
 20
-10.2927789907
 10
1.7309348599
 20
-10.3060443004
 10
1.7267257488
 20
-10.3199368122
 10
1.7251872111
 20
-10.3342102866
  0
LINE
  5
3DE
100
AcDbEntity
  8
IMPORT_IGES
100
AcDbLine
 62
253
  6
CONTINUOUS
 10
1.7047187851
 20
-10.7715549518
 11
1.6613942788
 21
-10.7720079827
  0
LWPOLYLINE
  5
3DF
100
AcDbEntity
  8
IMPORT_IGES
100
AcDbPolyline
 62
253
  6
CONTINUOUS
 90
13
 70
0
 10
-10.2877784147
 20
-11.7712592351
 10
-10.326532504
 20
-11.7716083127
 10
-10.3644775601
 20
-11.7713208078
 10
-10.4009951111
 20
-11.7704095481
 10
-10.4353244482
 20
-11.7689071082
 10
-10.4671365625
 20
-11.7668421216
 10
-10.4963991386
 20
-11.7642084986
 10
-10.5226850051
 20
-11.7610076694
 10
-10.5452036962
 20
-11.7572933333
 10
-10.5633460486
 20
-11.7531344315
 10
-10.5766792989
 20
-11.7486035147
 10
-10.5848934776
 20
-11.7437692263
 10
-10.5877327759
 20
-11.7387144004
  0
LWPOLYLINE
  5
3E0
100
AcDbEntity
  8
IMPORT_IGES
100
AcDbPolyline
 62
253
  6
CONTINUOUS
 90
5
 70
0
 10
-6.1208076928
 20
-10.7716072061
 10
-6.1726680487
 20
-10.7721146105
 10
-6.197461652
 20
-10.7722053135
 10
-6.2209260876
 20
-10.7721373342
 10
-6.2940381884
 20
-10.7716298329
  0
LWPOLYLINE
  5
3E1
100
AcDbEntity
  8
IMPORT_IGES
100
AcDbPolyline
 62
253
  6
CONTINUOUS
 90
5
 70
0
 10
-6.2940381884
 20
-10.7716298329
 10
-6.3055837576
 20
-10.7717157257
 10
-6.3139725455
 20
-10.7720027658
 10
-6.3190599547
 20
-10.7724601852
 10
-6.3207586959
 20
-10.7730961184
  0
LWPOLYLINE
  5
3E2
100
AcDbEntity
  8
IMPORT_IGES
100
AcDbPolyline
 62
253
  6
CONTINUOUS
 90
3
 70
0
 10
1.6613942788
 20
-10.7720079827
 10
1.6199961136
 20
-10.772271932
 10
1.5965379413
 20
-10.7722849941
  0
LINE
  5
3E3
100
AcDbEntity
  8
RACCORDO
100
AcDbLine
 62
253
  6
CONTINUOUS
 10
-12.9504210526
 20
-11.7883907223
 11
-10.5868656725
 21
-11.7883907223
  0
LINE
  5
3E4
100
AcDbEntity
  8
RACCORDO
100
AcDbLine
 62
253
  6
CONTINUOUS
 10
5.9868906755
 20
-11.7883907223
 11
8.3495789474
 21
-11.7883907223
  0
LINE
  5
3E5
100
AcDbEntity
  8
IMPORT_IGES
100
AcDbLine
 62
253
  6
CONTINUOUS
 10
5.6869363462
 20
-11.7712592284
 11
5.1495789474
 21
-11.771259233
  0
LINE
  5
3E6
100
AcDbEntity
  8
IMPORT_IGES
100
AcDbLine
 62
253
  6
CONTINUOUS
 10
-9.7504210526
 20
-11.7712592408
 11
-10.287778453
 21
-11.7712592357
  0
LINE
  5
3E7
100
AcDbEntity
  8
IMPORT_IGES
100
AcDbLine
 62
253
  6
CONTINUOUS
 10
3.2495789474
 20
-11.7712372262
 11
2.4227092809
 21
-11.7712509763
  0
LINE
  5
3E8
100
AcDbEntity
  8
IMPORT_IGES
100
AcDbLine
 62
253
  6
CONTINUOUS
 10
-7.8504210526
 20
-11.7712542257
 11
-7.0235513862
 21
-11.7712605411
  0
LINE
  5
3E9
100
AcDbEntity
  8
IMPORT_IGES
100
AcDbLine
 62
253
  6
CONTINUOUS
 10
-6.1133502806
 20
-11.5485231266
 11
1.5125082285
 21
-11.548518493
  0
LINE
  5
3EA
100
AcDbEntity
  8
RACCORDO
100
AcDbLine
 62
253
  6
CONTINUOUS
 10
8.3495789474
 20
-11.4638198041
 11
5.9916889737
 21
-11.4638198041
  0
LINE
  5
3EB
100
AcDbEntity
  8
RACCORDO
100
AcDbLine
 62
253
  6
CONTINUOUS
 10
-10.5925310789
 20
-11.4638198041
 11
-12.9504210526
 21
-11.4638198041
  0
LINE
  5
3EC
100
AcDbEntity
  8
RACCORDO
100
AcDbLine
 62
7
  6
CONTINUOUS
 10
8.5995789474
 20
-11.2138293233
 11
5.9960525737
 21
-11.2138293233
  0
LINE
  5
3ED
100
AcDbEntity
  8
RACCORDO
100
AcDbLine
 62
7
  6
CONTINUOUS
 10
-10.596894679
 20
-11.2138293233
 11
-13.2004210526
 21
-11.2138293233
  0
LINE
  5
3EE
100
AcDbEntity
  8
RACCORDO
100
AcDbLine
 62
7
  6
CONTINUOUS
 10
-13.1131523747
 20
-11.1261052632
 11
-10.5984259082
 21
-11.1261052632
  0
LINE
  5
3EF
100
AcDbEntity
  8
RACCORDO
100
AcDbLine
 62
7
  6
CONTINUOUS
 10
8.5123102695
 20
-11.1261052632
 11
5.9975838029
 21
-11.1261052632
  0
LINE
  5
3F0
100
AcDbEntity
  8
IMPORT_IGES
100
AcDbLine
 62
253
  6
CONTINUOUS
 10
-6.1208143337
 20
-10.771607286
 11
1.5199722284
 21
-10.771607286
  0
LINE
  5
3F1
100
AcDbEntity
  8
IMPORT_IGES
100
AcDbLine
 62
253
  6
CONTINUOUS
 10
-6.3968804395
 20
-9.9999336596
 11
-6.8504210526
 21
-9.9999401301
  0
LINE
  5
3F2
100
AcDbEntity
  8
IMPORT_IGES
100
AcDbLine
 62
253
  6
CONTINUOUS
 10
2.2495789474
 20
-9.9999401301
 11
1.7960378994
 21
-9.9999267916
  0
LWPOLYLINE
  5
3F3
100
AcDbEntity
  8
IMPORT_IGES
100
AcDbPolyline
 62
253
  6
CONTINUOUS
 90
3
 70
0
 10
1.5965379413
 20
-10.7722849941
 10
1.5460908826
 20
-10.7719360937
 10
1.5199655874
 20
-10.7716072064
  0
LWPOLYLINE
  5
3F4
100
AcDbEntity
  8
IMPORT_IGES
100
AcDbPolyline
 62
253
  6
CONTINUOUS
 90
13
 70
0
 10
5.6869363603
 20
-11.7712593596
 10
5.7255019804
 20
-11.77160828
 10
5.7633362947
 20
-11.7713257308
 10
5.7998212613
 20
-11.7704209659
 10
5.8342114843
 20
-11.7689218201
 10
5.8661395596
 20
-11.7668541196
 10
5.8954991868
 20
-11.76421467
 10
5.9218518071
 20
-11.7610065279
 10
5.944414985
 20
-11.7572831244
 10
5.9625636739
 20
-11.75311806
 10
5.9758758035
 20
-11.7485868365
 10
5.9840642014
 20
-11.7437578244
 10
5.9868906706
 20
-11.7387144012
  0
LWPOLYLINE
  5
3F5
100
AcDbEntity
  8
IMPORT_IGES
100
AcDbPolyline
 62
253
  6
CONTINUOUS
 90
13
 70
0
 10
-6.4760680043
 20
-10.2299360933
 10
-6.4568511665
 20
-10.2306904471
 10
-6.4380011525
 20
-10.2331712766
 10
-6.4198231015
 20
-10.2373239384
 10
-6.4026866933
 20
-10.2430361132
 10
-6.3867701611
 20
-10.2502192026
 10
-6.3721191315
 20
-10.2588795695
 10
-6.3589526377
 20
-10.268987242
 10
-6.3476533465
 20
-10.2803626208
 10
-6.3385222769
 20
-10.292789127
 10
-6.3317752252
 20
-10.3060470365
 10
-6.3275680025
 20
-10.3199314372
 10
-6.3260294284
 20
-10.3342009604
  0
LWPOLYLINE
  5
3F6
100
AcDbEntity
  8
IMPORT_IGES
100
AcDbPolyline
 62
253
  6
CONTINUOUS
 90
13
 70
0
 10
-6.8504210526
 20
-9.9999401304
 10
-6.876231732
 20
-9.9987575149
 10
-6.9015238518
 20
-9.9952456989
 10
-6.9258839877
 20
-9.9894869867
 10
-6.9488078308
 20
-9.9816448109
 10
-6.970064568
 20
-9.9718444756
 10
-6.9896115711
 20
-9.9600717149
 10
-7.0071571912
 20
-9.9463646131
 10
-7.0221785627
 20
-9.9309734417
 10
-7.0342689584
 20
-9.9141961822
 10
-7.0431386511
 20
-9.8963336339
 10
-7.0485796957
 20
-9.8776649509
 10
-7.0504210526
 20
-9.8585187741
  0
LWPOLYLINE
  5
3F7
100
AcDbEntity
  8
IMPORT_IGES
100
AcDbPolyline
 62
253
  6
CONTINUOUS
 90
4
 70
0
 10
1.7199336448
 20
-10.771676012
 10
1.7182254093
 20
-10.7715595764
 10
1.7131242155
 20
-10.7715220212
 10
1.7047187851
 20
-10.7715549518
  0
LINE
  5
3F8
100
AcDbEntity
  8
IMPORT_IGES
100
AcDbLine
 62
253
  6
CONTINUOUS
 10
4.7938334524
 20
-12.2694959755
 11
4.8358985772
 21
-12.2749147989
  0
LWPOLYLINE
  5
3F9
100
AcDbEntity
  8
IMPORT_IGES
100
AcDbPolyline
 62
253
  6
CONTINUOUS
 90
5
 70
0
 10
4.8358985772
 20
-12.2749147989
 10
4.8757734313
 20
-12.2829420694
 10
4.9135353272
 20
-12.2936281227
 10
4.9491069524
 20
-12.3069226229
 10
4.9822563688
 20
-12.3226745625
  0
LWPOLYLINE
  5
3FA
100
AcDbEntity
  8
IMPORT_IGES
100
AcDbPolyline
 62
7
  6
CONTINUOUS
 90
15
 70
0
 10
4.8296410103
 20
-12.3169851332
 10
4.8509307893
 20
-12.3234054644
 10
4.870056219
 20
-12.3308573551
 10
4.886935945
 20
-12.339027927
 10
4.9014075842
 20
-12.3475438642
 10
4.9134672634
 20
-12.3560477456
 10
4.9234804184
 20
-12.3644483658
 10
4.9316654201
 20
-12.3726540122
 10
4.938003068
 20
-12.3803341885
 10
4.9425589929
 20
-12.3871070654
 10
4.9458280027
 20
-12.3932562638
 10
4.9479639213
 20
-12.3986983899
 10
4.9489948508
 20
-12.4026563131
 10
4.9494575602
 20
-12.4056100902
 10
4.9495761211
 20
-12.4070659405
  0
LWPOLYLINE
  5
3FB
100
AcDbEntity
  8
IMPORT_IGES
100
AcDbPolyline
 62
253
  6
CONTINUOUS
 90
9
 70
0
 10
-7.0504210526
 20
-9.7899805987
 10
-7.0487485818
 20
-9.7905413365
 10
-7.043782124
 20
-9.7910908086
 10
-7.0356380752
 20
-9.7916200332
 10
-7.0245475638
 20
-9.7921180544
 10
-7.0106877967
 20
-9.7925798577
 10
-6.994038599
 20
-9.7930045169
 10
-6.9746538297
 20
-9.793385696
 10
-6.9291607985
 20
-9.7939746999
  0
LWPOLYLINE
  5
3FC
100
AcDbEntity
  8
RACCORDO
100
AcDbPolyline
 62
7
  6
CONTINUOUS
 90
7
 70
0
 10
3.9022989735
 20
-23.5582650461
 10
3.9057913947
 20
-23.562749209
 10
3.9144442874
 20
-23.5712040013
 10
3.9276633505
 20
-23.5836294231
 10
3.9447980796
 20
-23.6004980031
 10
3.9652851715
 20
-23.6213372126
 10
4.0147594835
 20
-23.6705084893
  0
LWPOLYLINE
  5
3FD
100
AcDbEntity
  8
0
100
AcDbPolyline
 62
7
  6
CONTINUOUS
 90
9
 70
0
 10
1.117122026
 20
-22.6117935488
 10
1.1180940804
 20
-22.6133158125
 10
1.1190661549
 20
-22.617870883
 10
1.1200382493
 20
-22.6254238914
 10
1.1210103764
 20
-22.6359169915
 10
1.1219825236
 20
-22.6492702213
 10
1.1229546525
 20
-22.6653825065
 10
1.1239267446
 20
-22.6841317973
 10
1.1248988184
 20
-22.7053752483
  0
LWPOLYLINE
  5
3FE
100
AcDbEntity
  8
IMPORT_IGES
100
AcDbPolyline
 62
253
  6
CONTINUOUS
 90
10
 70
0
 10
-6.2820234985
 20
-10.1025330005
 10
-6.2901759925
 20
-10.0884030117
 10
-6.2999440906
 20
-10.0744145476
 10
-6.3111297231
 20
-10.0608821698
 10
-6.3232962813
 20
-10.0482673408
 10
-6.336285644
 20
-10.0366320318
 10
-6.350369915
 20
-10.0257434994
 10
-6.3654820391
 20
-10.0157610012
 10
-6.3811048278
 20
-10.0070917113
 10
-6.3968804408
 20
-9.9999286615
  0
LWPOLYLINE
  5
3FF
100
AcDbEntity
  8
IMPORT_IGES
100
AcDbPolyline
 62
253
  6
CONTINUOUS
 90
13
 70
0
 10
-8.0504210486
 20
-8.6397581996
 10
-8.0487457094
 20
-8.6430064083
 10
-8.0437798499
 20
-8.6461898822
 10
-8.0356380752
 20
-8.6492565978
 10
-8.0245490231
 20
-8.6521431919
 10
-8.010688684
 20
-8.6548203394
 10
-7.994038599
 20
-8.6572821452
 10
-7.9746538297
 20
-8.6594917568
 10
-7.9528874264
 20
-8.6613834766
 10
-7.9291607985
 20
-8.6629060833
 10
-7.9038993405
 20
-8.66402309
 10
-7.8774978358
 20
-8.6647083092
 10
-7.8504210526
 20
-8.6649402009
  0
LWPOLYLINE
  5
400
100
AcDbEntity
  8
IMPORT_IGES
100
AcDbPolyline
 62
7
  6
CONTINUOUS
 90
46
 70
0
 10
-7.0235513862
 20
-11.7712618371
 10
-7.0190633788
 20
-11.7832493856
 10
-7.014543865
 20
-11.7947559977
 10
-7.0099928447
 20
-11.8057804129
 10
-7.0053931464
 20
-11.8163009437
 10
-7.0007619417
 20
-11.8263404045
 10
-6.9961507457
 20
-11.8359649475
 10
-6.9915681665
 20
-11.8451792181
 10
-6.987005596
 20
-11.8539826093
 10
-6.9824887258
 20
-11.8624325296
 10
-6.9780220444
 20
-11.8705353966
 10
-6.9736010632
 20
-11.8782900082
 10
-6.9692380076
 20
-11.8857412912
 10
-6.9649352241
 20
-11.8928954594
 10
-6.9606903662
 20
-11.8997518327
 10
-6.9565086193
 20
-11.9063440514
 10
-6.9523917487
 20
-11.9126769929
 10
-6.948337989
 20
-11.9187512768
 10
-6.9443472291
 20
-11.9245933678
 10
-6.9404208227
 20
-11.9302075308
 10
-6.9365574161
 20
-11.9355947441
 10
-6.9327528375
 20
-11.9407758857
 10
-6.9290078928
 20
-11.9457553252
 10
-6.925321776
 20
-11.9505335824
 10
-6.9216878972
 20
-11.9551252617
 10
-6.9181070572
 20
-11.9595345847
 10
-6.9145784553
 20
-11.9637619025
 10
-6.9110930991
 20
-11.9678156982
 10
-6.9076524829
 20
-11.9716999565
 10
-6.9042551124
 20
-11.9754150241
 10
-6.9008875121
 20
-11.9789637839
 10
-6.897552357
 20
-11.9823508189
 10
-6.8942469722
 20
-11.98557569
 10
-6.8909498574
 20
-11.988633783
 10
-6.8876602266
 20
-11.991535244
 10
-6.8843788659
 20
-11.9942739283
 10
-6.8810866338
 20
-11.9968212172
 10
-6.8777926335
 20
-11.9991852964
 10
-6.8744877618
 20
-12.0013623045
 10
-6.8711255671
 20
-12.0033063423
 10
-6.8676622199
 20
-12.005037294
 10
-6.8641415497
 20
-12.0065395596
 10
-6.8606485941
 20
-12.0077150233
 10
-6.857211699
 20
-12.0085325248
 10
-6.8538025185
 20
-12.0090269328
 10
-6.8504210526
 20
-12.0091991449
  0
LWPOLYLINE
  5
401
100
AcDbEntity
  8
IMPORT_IGES
100
AcDbPolyline
 62
7
  6
CONTINUOUS
 90
14
 70
0
 10
-6.4515527905
 20
-12.2699203451
 10
-6.4495949963
 20
-12.2769143267
 10
-6.4468465596
 20
-12.283613891
 10
-6.4434380382
 20
-12.2899648455
 10
-6.4396376555
 20
-12.2959023684
 10
-6.435405097
 20
-12.3013928418
 10
-6.430446382
 20
-12.306456368
 10
-6.4248223715
 20
-12.31109657
 10
-6.4187228645
 20
-12.3153317951
 10
-6.4120947391
 20
-12.3192492206
 10
-6.4049510182
 20
-12.3229329445
 10
-6.3974156522
 20
-12.326464294
 10
-6.3895976572
 20
-12.3299344758
 10
-6.3886326282
 20
-12.3303559811
  0
LWPOLYLINE
  5
402
100
AcDbEntity
  8
IMPORT_IGES
100
AcDbPolyline
 62
253
  6
CONTINUOUS
 90
13
 70
0
 10
-8.0504210526
 20
-8.0125949033
 10
-8.0487486051
 20
-8.02322759
 10
-8.0437822495
 20
-8.0336467054
 10
-8.0356383351
 20
-8.0436819393
 10
-8.0245479246
 20
-8.053125551
 10
-8.0106881942
 20
-8.0618824325
 10
-7.9940390174
 20
-8.0699349768
 10
-7.974654304
 20
-8.0771629535
 10
-7.9528879545
 20
-8.0833510532
 10
-7.9291613186
 20
-8.0883319361
 10
-7.9038997607
 20
-8.0919863079
 10
-7.8774980811
 20
-8.0942284215
 10
-7.8504210526
 20
-8.0949878052
  0
LWPOLYLINE
  5
403
100
AcDbEntity
  8
IMPORT_IGES
100
AcDbPolyline
 62
253
  6
CONTINUOUS
 90
13
 70
0
 10
-6.3133359228
 20
-11.3911922145
 10
-6.3113435935
 20
-11.4121929476
 10
-6.3058800281
 20
-11.432860612
 10
-6.2970167102
 20
-11.4528024202
 10
-6.2848022231
 20
-11.4717714766
 10
-6.2694767643
 20
-11.4892936262
 10
-6.2516485146
 20
-11.5047739147
 10
-6.2320048489
 20
-11.5178855019
 10
-6.2107776956
 20
-11.5287070629
 10
-6.1879710326
 20
-11.5373077587
 10
-6.1637979362
 20
-11.5435721664
 10
-6.1387786567
 20
-11.547332038
 10
-6.1133173119
 20
-11.548517613
  0
LWPOLYLINE
  5
404
100
AcDbEntity
  8
IMPORT_IGES
100
AcDbPolyline
 62
253
  6
CONTINUOUS
 90
8
 70
0
 10
-6.3033154266
 20
-12.2256013404
 10
-6.3047333549
 20
-12.2102857639
 10
-6.3085811213
 20
-12.1952921358
 10
-6.314776161
 20
-12.1808624331
 10
-6.3231535068
 20
-12.1672890505
 10
-6.3335850601
 20
-12.1547124123
 10
-6.3460788715
 20
-12.1431689514
 10
-6.3605953973
 20
-12.132828366
  0
LINE
  5
405
100
AcDbEntity
  8
RACCORDO
100
AcDbLine
 62
7
  6
CONTINUOUS
 10
-7.7316091909
 20
18.3060106554
 11
-7.7304876783
 21
18.2738947368
  0
LINE
  5
406
100
AcDbEntity
  8
IMPORT_IGES
100
AcDbLine
 62
253
  6
CONTINUOUS
 10
-6.5043327973
 20
-12.3067679047
 11
-6.501124018
 21
-12.4012677721
  0
LINE
  5
407
100
AcDbEntity
  8
ASSI
100
AcDbLine
 62
7
  6
CONTINUOUS
 10
-6.2759858228
 20
-25.8761052632
 11
-6.2917703402
 21
-25.2177826423
  0
LWPOLYLINE
  5
408
100
AcDbEntity
  8
IMPORT_IGES
100
AcDbPolyline
 62
7
  6
CONTINUOUS
 90
10
 70
0
 10
-7.0504210526
 20
-11.6090650674
 10
-7.0499920308
 20
-11.6285452518
 10
-7.0488998795
 20
-11.6477277997
 10
-7.0471445986
 20
-11.6666127105
 10
-7.0446941813
 20
-11.6852892901
 10
-7.0415806344
 20
-11.7036682326
 10
-7.0378999794
 20
-11.7214816207
 10
-7.0336842232
 20
-11.7386401486
 10
-7.0289013588
 20
-11.755233122
 10
-7.0235513862
 20
-11.7712605411
  0
LINE
  5
409
100
AcDbEntity
  8
IMPORT_IGES
100
AcDbLine
 62
253
  6
CONTINUOUS
 10
-6.4547342482
 20
-12.0091995466
 11
-6.4530457548
 21
-12.1076066042
  0
LINE
  5
40A
100
AcDbEntity
  8
IMPORT_IGES
100
AcDbLine
 62
7
  6
CONTINUOUS
 10
-6.501124018
 20
-12.4012677721
 11
-6.4738730919
 21
-14.6769875656
  0
LINE
  5
40B
100
AcDbEntity
  8
IMPORT_IGES
100
AcDbLine
 62
253
  6
CONTINUOUS
 10
-6.47603442
 20
-10.2299358857
 11
-6.4547342482
 21
-12.0091998905
  0
LINE
  5
40C
100
AcDbEntity
  8
IMPORT_IGES
100
AcDbLine
 62
253
  6
CONTINUOUS
 10
-6.4515527911
 20
-12.2699178069
 11
-6.4530457548
 21
-12.1076066042
  0
LINE
  5
40D
100
AcDbEntity
  8
0
100
AcDbLine
 62
7
  6
CONTINUOUS
 10
-8.3004210526
 20
22.3595830224
 11
-8.3004210526
 21
20.6238947368
  0
LINE
  5
40E
100
AcDbEntity
  8
0
100
AcDbLine
 62
7
  6
CONTINUOUS
 10
-8.3004210526
 20
18.1595830224
 11
-8.3004210526
 21
17.7595830224
  0
LINE
  5
40F
100
AcDbEntity
  8
0
100
AcDbLine
 62
7
  6
CONTINUOUS
 10
-8.3004210526
 20
-27.6117935488
 11
-8.3004210526
 21
-25.8761052632
  0
LINE
  5
410
100
AcDbEntity
  8
0
100
AcDbLine
 62
7
  6
CONTINUOUS
 10
-8.3004210526
 20
-23.0117935488
 11
-8.3004210526
 21
-23.4117935488
  0
LINE
  5
411
100
AcDbEntity
  8
DRAFT
100
AcDbLine
 62
7
  6
CONTINUOUS
 10
-8.278241926
 20
18.2738947368
 11
-8.278241926
 21
18.1595830224
  0
LINE
  5
412
100
AcDbEntity
  8
DRAFT
100
AcDbLine
 62
7
  6
CONTINUOUS
 10
-8.278241926
 20
-23.4117935488
 11
-8.278241926
 21
-23.5261052632
  0
LINE
  5
413
100
AcDbEntity
  8
IMPORT_IGES
100
AcDbLine
 62
7
  6
CONTINUOUS
 10
-8.2471275822
 20
-15.0761052632
 11
-8.2471275822
 21
-15.0642440263
  0
LINE
  5
414
100
AcDbEntity
  8
IMPORT_IGES
100
AcDbLine
 62
7
  6
CONTINUOUS
 10
-8.0504210526
 20
-4.9004394679
 11
-8.0504210526
 21
-10.392490613
  0
LINE
  5
415
100
AcDbEntity
  8
IMPORT_IGES
100
AcDbLine
 62
253
  6
CONTINUOUS
 10
-8.0504210526
 20
-4.3811052632
 11
-8.0504210526
 21
-1.9811052632
  0
LINE
  5
416
100
AcDbEntity
  8
IMPORT_IGES
100
AcDbLine
 62
253
  6
CONTINUOUS
 10
-7.9504211942
 20
-15.0761052626
 11
-7.9504224022
 21
-14.8761052632
  0
LINE
  5
417
100
AcDbEntity
  8
IMPORT_IGES
100
AcDbLine
 62
253
  6
CONTINUOUS
 10
-7.8504210526
 20
-4.971915078
 11
-7.8504210526
 21
-11.7712542257
  0
LINE
  5
418
100
AcDbEntity
  8
IMPORT_IGES
100
AcDbLine
 62
253
  6
CONTINUOUS
 10
-7.7504210526
 20
-4.9811052632
 11
-7.7504210526
 21
-4.6811052632
  0
LINE
  5
419
100
AcDbEntity
  8
IMPORT_IGES
100
AcDbLine
 62
253
  6
CONTINUOUS
 10
-7.4004210526
 20
-4.6811052632
 11
-7.4004210526
 21
-4.9811052632
  0
LINE
  5
41A
100
AcDbEntity
  8
ASSI
100
AcDbLine
 62
7
  6
CONTINUOUS
 10
-7.3946971092
 20
17.7239853271
 11
-7.3946971092
 21
16.7181707934
  0
LINE
  5
41B
100
AcDbEntity
  8
ASSI
100
AcDbLine
 62
7
  6
CONTINUOUS
 10
-7.3946971092
 20
-21.9703813198
 11
-7.3946971092
 21
-22.9761958534
  0
LINE
  5
41C
100
AcDbEntity
  8
IMPORT_IGES
100
AcDbLine
 62
253
  6
CONTINUOUS
 10
-7.3504210526
 20
-1.2811052632
 11
-7.3504210526
 21
-0.6811052632
  0
LINE
  5
41D
100
AcDbEntity
  8
0
100
AcDbLine
 62
253
  6
CONTINUOUS
 10
-7.344146446
 20
18.1595830224
 11
-7.344146446
 21
17.7595830224
  0
LINE
  5
41E
100
AcDbEntity
  8
0
100
AcDbLine
 62
253
  6
CONTINUOUS
 10
-7.344146446
 20
-23.0117935488
 11
-7.344146446
 21
-23.4117935488
  0
LINE
  5
41F
100
AcDbEntity
  8
DRAFT
100
AcDbLine
 62
7
  6
CONTINUOUS
 10
-7.3051334847
 20
17.7476496285
 11
-7.3051334847
 21
16.6286071689
  0
LINE
  5
420
100
AcDbEntity
  8
DRAFT
100
AcDbLine
 62
7
  6
CONTINUOUS
 10
-7.3004210526
 20
-21.8761052632
 11
-7.3004210526
 21
-23.0011052632
  0
LINE
  5
421
100
AcDbEntity
  8
ASSI
100
AcDbLine
 62
253
  6
CONTINUOUS
 10
-7.2917322632
 20
19.0446120503
 11
-7.2917322632
 21
18.9047176929
  0
LINE
  5
422
100
AcDbEntity
  8
ASSI
100
AcDbLine
 62
253
  6
CONTINUOUS
 10
-7.2917322632
 20
-24.1569282192
 11
-7.2917322632
 21
-24.2968225766
  0
LINE
  5
423
100
AcDbEntity
  8
IMPORT_IGES
100
AcDbLine
 62
253
  6
CONTINUOUS
 10
-7.1004210526
 20
-4.3811052632
 11
-7.1004202342
 21
2.4179473015
  0
LINE
  5
424
100
AcDbEntity
  8
IMPORT_IGES
100
AcDbLine
 62
7
  6
CONTINUOUS
 10
-7.0504210526
 20
-11.6090650669
 11
-7.0504210526
 21
-5.1165748687
  0
LINE
  5
425
100
AcDbEntity
  8
0
100
AcDbLine
 62
7
  6
CONTINUOUS
 10
-7.044146446
 20
-23.4117935488
 11
-7.044146446
 21
-23.0117935488
  0
LINE
  5
426
100
AcDbEntity
  8
0
100
AcDbLine
 62
7
  6
CONTINUOUS
 10
-7.044146446
 20
17.7595830224
 11
-7.044146446
 21
18.1595830224
  0
LINE
  5
427
100
AcDbEntity
  8
IMPORT_IGES
100
AcDbLine
 62
253
  6
CONTINUOUS
 10
-6.8504210526
 20
-12.0091991448
 11
-6.8504210526
 21
-4.8621952287
  0
LINE
  5
428
100
AcDbEntity
  8
IMPORT_IGES
100
AcDbLine
 62
7
  6
CONTINUOUS
 10
-6.8504210526
 20
-4.8621952287
 11
-6.8504210526
 21
-4.6202686325
  0
LINE
  5
429
100
AcDbEntity
  8
RACCORDO
100
AcDbLine
 62
7
  6
CONTINUOUS
 10
-6.8004210526
 20
-27.4281556912
 11
-6.8004210526
 21
-26.5320064075
  0
LINE
  5
42A
100
AcDbEntity
  8
IMPORT_IGES
100
AcDbLine
 62
7
  6
CONTINUOUS
 10
-6.8004210526
 20
-4.3811052632
 11
-6.8004210526
 21
-0.6488385617
  0
LINE
  5
42B
100
AcDbEntity
  8
IMPORT_IGES
100
AcDbLine
 62
7
  6
CONTINUOUS
 10
-6.8004210526
 20
0.6344764419
 11
-6.8004210526
 21
2.4184982938
  0
LINE
  5
42C
100
AcDbEntity
  8
RACCORDO
100
AcDbLine
 62
7
  6
CONTINUOUS
 10
-6.8004210526
 20
21.2797958812
 11
-6.8004210526
 21
22.1759451649
  0
LINE
  5
42D
100
AcDbEntity
  8
RACCORDO
100
AcDbLine
 62
253
  6
CONTINUOUS
 10
-6.6004210526
 20
22.2377485637
 11
-6.6004210526
 21
21.8573259572
  0
LINE
  5
42E
100
AcDbEntity
  8
RACCORDO
100
AcDbLine
 62
253
  6
CONTINUOUS
 10
-6.6004210526
 20
-27.4899590901
 11
-6.6004210526
 21
-27.1095364835
  0
LINE
  5
42F
100
AcDbEntity
  8
IMPORT_IGES
100
AcDbLine
 62
253
  6
CONTINUOUS
 10
-6.5099116508
 20
-12.3069585391
 11
-6.5099116522
 21
-12.2666856908
  0
LINE
  5
430
100
AcDbEntity
  8
IMPORT_IGES
100
AcDbLine
 62
253
  6
CONTINUOUS
 10
-6.5004210526
 20
4.6487759444
 11
-6.5004210518
 21
7.0238947368
  0
LINE
  5
431
100
AcDbEntity
  8
IMPORT_IGES
100
AcDbLine
 62
253
  6
CONTINUOUS
 10
-6.4738730919
 20
-14.6769875656
 11
-6.4738803025
 21
-14.8761052632
  0
LWPOLYLINE
  5
432
100
AcDbEntity
  8
IMPORT_IGES
100
AcDbPolyline
 62
253
  6
CONTINUOUS
 90
7
 70
0
 10
-6.5004210526
 20
4.6487759444
 10
-6.5084959012
 20
4.2602293119
 10
-6.5331115464
 20
3.8726959264
 10
-6.5742679884
 20
3.4862085899
 10
-6.6320871951
 20
3.0998054197
 10
-6.7064471984
 20
2.7145145174
 10
-6.7142096524
 20
2.6818330332
  0
LINE
  5
433
100
AcDbEntity
  8
ASSI
100
AcDbLine
 62
7
  6
CONTINUOUS
 10
-6.2759858228
 20
20.6238947368
 11
-6.2917703402
 21
19.965572116
  0
LWPOLYLINE
  5
434
100
AcDbEntity
  8
ASSI
100
AcDbPolyline
 62
7
  6
CONTINUOUS
 90
25
 70
0
 10
-6.0504210526
 20
17.8533572476
 10
-6.0506671164
 20
17.8453828681
 10
-6.0514972555
 20
17.8377612982
 10
-6.0529114698
 20
17.8304935793
 10
-6.0549035911
 20
17.8235655295
 10
-6.0574797876
 20
17.8169944277
 10
-6.0606585642
 20
17.8108213566
 10
-6.0644441869
 20
17.8050467949
 10
-6.0688323896
 20
17.799656131
 10
-6.0738288792
 20
17.794657577
 10
-6.0794061664
 20
17.7900554242
 10
-6.0855917406
 20
17.7858230331
 10
-6.0924737768
 20
17.7819251814
 10
-6.1000176474
 20
17.7783580727
 10
-6.1082579801
 20
17.7751168841
 10
-6.1173868331
 20
17.7721773561
 10
-6.1273822862
 20
17.7695355919
 10
-6.1382662596
 20
17.7672007216
 10
-6.1502965732
 20
17.7651744114
 10
-6.1634349517
 20
17.7634554553
 10
-6.1777196705
 20
17.7620494934
 10
-6.1935233753
 20
17.7609631444
 10
-6.2109702816
 20
17.7601937218
 10
-6.2299361741
 20
17.7597350179
 10
-6.2504210526
 20
17.7595830224
  0
LINE
  5
435
100
AcDbEntity
  8
RACCORDO
100
AcDbLine
 62
7
  6
CONTINUOUS
 10
-7.7316091907
 20
-23.5582211773
 11
-7.7304876783
 21
-23.5261052632
  0
LINE
  5
436
100
AcDbEntity
  8
IMPORT_IGES
100
AcDbLine
 62
253
  6
CONTINUOUS
 10
-6.1314014352
 20
3.9462513927
 11
-6.1379674374
 21
3.8167879551
  0
LWPOLYLINE
  5
437
100
AcDbEntity
  8
ASSI
100
AcDbPolyline
 62
7
  6
CONTINUOUS
 90
25
 70
0
 10
-6.0504210526
 20
18.2116798142
 10
-6.0506671164
 20
18.2072496034
 10
-6.0514972555
 20
18.2030153979
 10
-6.0529114698
 20
18.1989777763
 10
-6.0549035911
 20
18.1951288597
 10
-6.0574797876
 20
18.1914782476
 10
-6.0606585642
 20
18.1880487637
 10
-6.0644441869
 20
18.1848406738
 10
-6.0688323896
 20
18.1818458605
 10
-6.0738288792
 20
18.1790688861
 10
-6.0794061664
 20
18.1765121345
 10
-6.0855917406
 20
18.1741608061
 10
-6.0924737768
 20
18.171995333
 10
-6.1000176474
 20
18.1700136059
 10
-6.1082579801
 20
18.1682129456
 10
-6.1173868331
 20
18.1665798745
 10
-6.1273822862
 20
18.1651122277
 10
-6.1382662596
 20
18.1638150775
 10
-6.1502965732
 20
18.1626893496
 10
-6.1634349517
 20
18.1617343741
 10
-6.1777196705
 20
18.1609532841
 10
-6.1935233753
 20
18.1603497568
 10
-6.2109702816
 20
18.1599222999
 10
-6.2299361741
 20
18.1596674644
 10
-6.2504210526
 20
18.1595830224
  0
LWPOLYLINE
  5
438
100
AcDbEntity
  8
IMPORT_IGES
100
AcDbPolyline
 62
253
  6
CONTINUOUS
 90
10
 70
0
 10
-6.1214434871
 20
4.1703413991
 10
-6.1170311016
 20
4.2404845819
 10
-6.1131378219
 20
4.3106393082
 10
-6.1097636482
 20
4.380805578
 10
-6.1069085417
 20
4.4509853252
 10
-6.1045725412
 20
4.5211766159
 10
-6.1027557628
 20
4.5913736485
 10
-6.1014582454
 20
4.6615744891
 10
-6.1006799502
 20
4.7317810716
 10
-6.1004210526
 20
7.0238947368
  0
LWPOLYLINE
  5
439
100
AcDbEntity
  8
IMPORT_IGES
100
AcDbPolyline
 62
7
  6
CONTINUOUS
 90
10
 70
0
 10
-7.0458806882
 20
-5.0180928907
 10
-7.0468365084
 20
-5.0290151501
 10
-7.0476795285
 20
-5.0399431829
 10
-7.0484097483
 20
-5.0508769892
 10
-7.0490272128
 20
-5.0618175394
 10
-7.049531877
 20
-5.0727638631
 10
-7.0499236066
 20
-5.083713049
 10
-7.0502023566
 20
-5.0946641267
 10
-7.050368172
 20
-5.1056180666
 10
-7.0504210526
 20
-5.1165748687
  0
LWPOLYLINE
  5
43A
100
AcDbEntity
  8
IMPORT_IGES
100
AcDbPolyline
 62
253
  6
CONTINUOUS
 90
13
 70
0
 10
-6.3004210526
 20
4.6605719097
 10
-6.298751989
 20
4.6788043521
 10
-6.2937934907
 20
4.6966767211
 10
-6.2856585451
 20
4.7138968529
 10
-6.2745735062
 20
4.7301095317
 10
-6.2607134575
 20
4.7451484743
 10
-6.2440619932
 20
4.7589775279
 10
-6.2246758779
 20
4.771388867
 10
-6.2029073634
 20
4.7820145284
 10
-6.1791773683
 20
4.7905671218
 10
-6.1539111807
 20
4.7968416368
 10
-6.1275040571
 20
4.8006907588
 10
-6.1004210526
 20
4.801993396
  0
LWPOLYLINE
  5
43B
100
AcDbEntity
  8
IMPORT_IGES
100
AcDbPolyline
 62
253
  6
CONTINUOUS
 90
6
 70
0
 10
-6.3004210526
 20
6.7360267712
 10
-6.2987100249
 20
6.7544859623
 10
-6.2936062179
 20
6.7726293116
 10
-6.2851969591
 20
6.7901463812
 10
-6.2736261334
 20
6.8067374493
 10
-6.2590917207
 20
6.8221186381
  0
LINE
  5
43C
100
AcDbEntity
  8
IMPORT_IGES
100
AcDbLine
 62
7
  6
CONTINUOUS
 10
-6.3371769872
 20
3.8345518311
 11
-6.4420877984
 21
3.0434969009
  0
LWPOLYLINE
  5
43D
100
AcDbEntity
  8
IMPORT_IGES
100
AcDbPolyline
 62
7
  6
CONTINUOUS
 90
4
 70
0
 10
-7.0171736624
 20
-4.8417553098
 10
-7.019413579
 20
-4.8527028498
 10
-7.0337572973
 20
-4.934912103
 10
-7.0458806882
 20
-5.0180929385
  0
LWPOLYLINE
  5
43E
100
AcDbEntity
  8
IMPORT_IGES
100
AcDbPolyline
 62
7
  6
CONTINUOUS
 90
31
 70
0
 10
-9.6805038708
 20
-11.8804052522
 10
-9.6709472689
 20
-11.8488613489
 10
-9.6620056304
 20
-11.8162116281
 10
-9.6536789554
 20
-11.7824560897
 10
-9.6460514835
 20
-11.7476037086
 10
-9.6390389751
 20
-11.7116455099
 10
-9.6323887112
 20
-11.6745545695
 10
-9.6260459991
 20
-11.6363254881
 10
-9.6200655316
 20
-11.5969636648
 10
-9.6143586676
 20
-11.5564583729
 10
-9.6089100977
 20
-11.5148353737
 10
-9.6037351313
 20
-11.4720689058
 10
-9.5987910558
 20
-11.428070958
 10
-9.5940684076
 20
-11.3828504822
 10
-9.5895766502
 20
-11.3363985266
 10
-9.5853014617
 20
-11.2886002241
 10
-9.5812356213
 20
-11.239447906
 10
-9.5773863499
 20
-11.188949241
 10
-9.5737609877
 20
-11.1370123694
 10
-9.5703546646
 20
-11.0836385907
 10
-9.5671722507
 20
-11.0288266053
 10
-9.5642356969
 20
-10.9724806545
 10
-9.5615400765
 20
-10.9146023667
 10
-9.5590903162
 20
-10.8551901136
 10
-9.5569231468
 20
-10.7941432511
 10
-9.555032551
 20
-10.7314594678
 10
-9.5534245461
 20
-10.6671410753
 10
-9.5521539155
 20
-10.6010943644
 10
-9.5512389203
 20
-10.5332880989
 10
-9.5506612993
 20
-10.4637535151
 10
-9.5504210527
 20
-4.3971792176
  0
LWPOLYLINE
  5
43F
100
AcDbEntity
  8
IMPORT_IGES
100
AcDbPolyline
 62
253
  6
CONTINUOUS
 90
15
 70
0
 10
-6.6663016244
 20
0.9771431938
 10
-6.615061778
 20
1.1190901105
 10
-6.5392150728
 20
1.2940480838
 10
-6.4495793393
 20
1.4732797817
 10
-6.3471256431
 20
1.652864408
 10
-6.234913076
 20
1.8282270332
 10
-6.1123307556
 20
1.9984498008
 10
-5.9799895644
 20
2.1644505672
 10
-5.8427812412
 20
2.3244079724
 10
-5.7070266117
 20
2.4724699549
 10
-5.5664048503
 20
2.6144885763
 10
-5.4068452193
 20
2.7661986615
 10
-5.2236574729
 20
2.9328451521
 10
-5.0215318569
 20
3.1091831065
 10
-4.8004683715
 20
3.2952125247
  0
LWPOLYLINE
  5
440
100
AcDbEntity
  8
IMPORT_IGES
100
AcDbPolyline
 62
253
  6
CONTINUOUS
 90
19
 70
0
 10
-9.6979191522
 20
-4.1971906737
 10
-9.7045494126
 20
-4.2104772736
 10
-9.7105367709
 20
-4.2231071252
 10
-9.7158812271
 20
-4.2350798417
 10
-9.7204765319
 20
-4.2462247441
 10
-9.7244289346
 20
-4.2567121935
 10
-9.7280571833
 20
-4.2670533259
 10
-9.7314447104
 20
-4.2773672438
 10
-9.7345080835
 20
-4.2875344036
 10
-9.7373157525
 20
-4.2977076838
 10
-9.7399029854
 20
-4.3080267518
 10
-9.7422345143
 20
-4.3183513108
 10
-9.7442729858
 20
-4.3284144325
 10
-9.7460009237
 20
-4.3382694967
 10
-9.747435804
 20
-4.3478630996
 10
-9.7485927017
 20
-4.356768875
 10
-9.7494766414
 20
-4.3648452692
 10
-9.7500825984
 20
-4.3722350242
 10
-9.7504105726
 20
-4.3789386958
  0
LINE
  5
441
100
AcDbEntity
  8
IMPORT_IGES
100
AcDbLine
 62
253
  6
CONTINUOUS
 10
-4.876355844
 20
3.179747871
 11
-4.8004526623
 21
3.2952415811
  0
LINE
  5
442
100
AcDbEntity
  8
IMPORT_IGES
100
AcDbLine
 62
253
  6
CONTINUOUS
 10
-5.2025694874
 20
2.688852892
 11
-5.1055240149
 21
2.8357489694
  0
LINE
  5
443
100
AcDbEntity
  8
IMPORT_IGES
100
AcDbLine
 62
253
  6
CONTINUOUS
 10
-5.1055240149
 20
2.8357489694
 11
-4.876355844
 21
3.179747871
  0
LWPOLYLINE
  5
444
100
AcDbEntity
  8
IMPORT_IGES
100
AcDbPolyline
 62
253
  6
CONTINUOUS
 90
10
 70
0
 10
-9.6979191522
 20
-4.1971919782
 10
-9.6700510775
 20
-4.1573340156
 10
-9.6390057338
 20
-4.1216880122
 10
-9.6047831211
 20
-4.090253968
 10
-9.5667220089
 20
-4.062769415
 10
-9.5254836276
 20
-4.0394968211
 10
-9.4830516697
 20
-4.0212235905
 10
-9.4400873657
 20
-4.0082121913
 10
-9.3959294849
 20
-4.0002001555
 10
-9.3505780274
 20
-3.9971874829
  0
LWPOLYLINE
  5
445
100
AcDbEntity
  8
IMPORT_IGES
100
AcDbPolyline
 62
253
  6
CONTINUOUS
 90
6
 70
0
 10
-9.5279400192
 20
-4.297186564
 10
-9.5399314284
 20
-4.3125721333
 10
-9.5519744983
 20
-4.3268748941
 10
-9.5648823655
 20
-4.3397031802
 10
-9.5796109538
 20
-4.350438256
 10
-9.596794352
 20
-4.3589214597
  0
LWPOLYLINE
  5
446
100
AcDbEntity
  8
RACCORDO
100
AcDbPolyline
 62
7
  6
CONTINUOUS
 90
7
 70
0
 10
-13.1406215901
 20
-4.9284594347
 10
-13.166663267
 20
-4.9546799486
 10
-13.1778263898
 20
-4.9656312213
 10
-13.1868683541
 20
-4.9748380237
 10
-13.1935070788
 20
-4.981958424
 10
-13.198024645
 20
-4.9865934077
 10
-13.2004210526
 20
-4.988381203
  0
LWPOLYLINE
  5
447
100
AcDbEntity
  8
RACCORDO
100
AcDbPolyline
 62
7
  6
CONTINUOUS
 90
3
 70
0
 10
-13.0937631283
 20
-4.8816482205
 10
-13.1257430359
 20
-4.913735993
 10
-13.1406215901
 20
-4.9284594347
  0
LINE
  5
448
100
AcDbEntity
  8
DRAFT
100
AcDbLine
 62
7
  6
CONTINUOUS
 10
-0.0512937394
 20
8.4738947368
 11
-0.0582752336
 21
8.4669132426
  0
LINE
  5
449
100
AcDbEntity
  8
RACCORDO
100
AcDbLine
 62
7
  6
CONTINUOUS
 10
-12.9685683391
 20
-4.7563486443
 11
-13.0766617747
 21
-4.8646589111
  0
LINE
  5
44A
100
AcDbEntity
  8
RACCORDO
100
AcDbLine
 62
7
  6
CONTINUOUS
 10
-13.0766617747
 20
-4.8646589111
 11
-13.0937631283
 21
-4.8816482205
  0
LINE
  5
44B
100
AcDbEntity
  8
RACCORDO
100
AcDbLine
 62
7
  6
CONTINUOUS
 10
-12.9504210526
 20
-4.7383907223
 11
-12.9685683391
 21
-4.7563486443
  0
LWPOLYLINE
  5
44C
100
AcDbEntity
  8
IMPORT_IGES
100
AcDbPolyline
 62
253
  6
CONTINUOUS
 90
13
 70
0
 10
3.2495789474
 20
-8.094985978
 10
3.27538994
 20
-8.0942969771
 10
3.300682274
 20
-8.0922509749
 10
3.3250425204
 20
-8.0888959365
 10
3.3479663483
 20
-8.0843270973
 10
3.369222988
 20
-8.0786174682
 10
3.3887698976
 20
-8.0717587224
 10
3.4063159281
 20
-8.0637727875
 10
3.4213375416
 20
-8.0548056788
 10
3.4334270759
 20
-8.0450318894
 10
3.4422954581
 20
-8.0346271122
 10
3.4477360993
 20
-8.0237537372
 10
3.4495789463
 20
-8.0126031517
  0
LWPOLYLINE
  5
44D
100
AcDbEntity
  8
IMPORT_IGES
100
AcDbPolyline
 62
253
  6
CONTINUOUS
 90
13
 70
0
 10
5.7526037034
 20
-8.0949859755
 10
5.7912413615
 20
-8.0945164027
 10
5.8290761606
 20
-8.092010569
 10
5.8654951868
 20
-8.0875355627
 10
5.8997439937
 20
-8.0812282204
 10
5.9314966069
 20
-8.0731947768
 10
5.9607222565
 20
-8.0634166981
 10
5.9869981535
 20
-8.0519160401
 10
6.0095403007
 20
-8.03889883
 10
6.0277441494
 20
-8.024612626
 10
6.0411790659
 20
-8.0093095568
 10
6.0495357615
 20
-7.9932242745
 10
6.0525580096
 20
-7.9766350689
  0
LINE
  5
44E
100
AcDbEntity
  8
IMPORT_IGES
100
AcDbLine
 62
253
  6
CONTINUOUS
 10
2.3738117245
 20
-9.793385696
 11
2.3283186932
 21
-9.7939746999
  0
LWPOLYLINE
  5
44F
100
AcDbEntity
  8
IMPORT_IGES
100
AcDbPolyline
 62
253
  6
CONTINUOUS
 90
13
 70
0
 10
-10.3419994679
 20
-8.6649402051
 10
-10.3807533445
 20
-8.6652892776
 10
-10.4186982229
 20
-8.6650017753
 10
-10.4552156383
 20
-8.6640905243
 10
-10.4895448783
 20
-8.6625880983
 10
-10.5213569433
 20
-8.6605231289
 10
-10.5506195361
 20
-8.6578895218
 10
-10.5769054778
 20
-8.6546887042
 10
-10.5994242828
 20
-8.6509743736
 10
-10.6175667721
 20
-8.646815468
 10
-10.6309001568
 20
-8.6422845362
 10
-10.6391144375
 20
-8.6374502214
 10
-10.6419537765
 20
-8.6323953583
  0
LWPOLYLINE
  5
450
100
AcDbEntity
  8
IMPORT_IGES
100
AcDbPolyline
 62
253
  6
CONTINUOUS
 90
13
 70
0
 10
-9.7504210526
 20
-8.6649414903
 10
-9.7246103733
 20
-8.6647302943
 10
-9.6993182535
 20
-8.6641044125
 10
-9.6749581177
 20
-8.6630785034
 10
-9.6520342746
 20
-8.6616817218
 10
-9.6307775374
 20
-8.6599363367
 10
-9.6112305343
 20
-8.657839664
 10
-9.5936849142
 20
-8.6553984388
 10
-9.5786635426
 20
-8.6526572819
 10
-9.566573147
 20
-8.6496692637
 10
-9.5577034543
 20
-8.6464879564
 10
-9.5522624096
 20
-8.643163077
 10
-9.5504210526
 20
-8.6397531562
  0
LWPOLYLINE
  5
451
100
AcDbEntity
  8
IMPORT_IGES
100
AcDbPolyline
 62
253
  6
CONTINUOUS
 90
13
 70
0
 10
3.2495789474
 20
-8.664939094
 10
3.2753896267
 20
-8.664728963
 10
3.3006817465
 20
-8.66410388
 10
3.3250418823
 20
-8.6630785034
 10
3.3479657254
 20
-8.6616818993
 10
3.3692224626
 20
-8.6599364255
 10
3.3887694657
 20
-8.657839664
 10
3.4063150858
 20
-8.6553984388
 10
3.4213364574
 20
-8.6526572819
 10
3.433426853
 20
-8.6496692637
 10
3.4422965457
 20
-8.6464879564
 10
3.4477375904
 20
-8.643163077
 10
3.4495789474
 20
-8.6397531562
  0
LINE
  5
452
100
AcDbEntity
  8
IMPORT_IGES
100
AcDbLine
 62
253
  6
CONTINUOUS
 10
2.3283186932
 20
-9.7939746999
 11
2.2766557306
 21
-9.7942856011
  0
LINE
  5
453
100
AcDbEntity
  8
IMPORT_IGES
100
AcDbLine
 62
253
  6
CONTINUOUS
 10
1.5317084944
 20
-9.7943256047
 11
2.2766557306
 21
-9.7942856011
  0
LINE
  5
454
100
AcDbEntity
  8
IMPORT_IGES
100
AcDbLine
 62
253
  6
CONTINUOUS
 10
3.2495789474
 20
-8.6649392841
 11
2.4495789474
 21
-8.6649454108
  0
LINE
  5
455
100
AcDbEntity
  8
IMPORT_IGES
100
AcDbLine
 62
253
  6
CONTINUOUS
 10
-9.7504210526
 20
-8.6649419619
 11
-10.3419993378
 21
-8.6649424334
  0
LINE
  5
456
100
AcDbEntity
  8
IMPORT_IGES
100
AcDbLine
 62
253
  6
CONTINUOUS
 10
-7.8504210526
 20
-8.6649393045
 11
-7.0504210526
 21
-8.6649471402
  0
LINE
  5
457
100
AcDbEntity
  8
IMPORT_IGES
100
AcDbLine
 62
253
  6
CONTINUOUS
 10
5.1495789474
 20
-8.6649451822
 11
5.7411571324
 21
-8.6649477247
  0
LINE
  5
458
100
AcDbEntity
  8
IMPORT_IGES
100
AcDbLine
 62
7
  6
CONTINUOUS
 10
-3.405274555
 20
-8.280929534
 11
-1.1955675503
 21
-8.280929534
  0
LINE
  5
459
100
AcDbEntity
  8
IMPORT_IGES
100
AcDbLine
 62
253
  6
CONTINUOUS
 10
-10.3534457808
 20
-8.0949828701
 11
-9.7504210525
 21
-8.0949839209
  0
LINE
  5
45A
100
AcDbEntity
  8
IMPORT_IGES
100
AcDbLine
 62
253
  6
CONTINUOUS
 10
5.1495789474
 20
-8.0949852493
 11
5.7526036256
 21
-8.0949850536
  0
LINE
  5
45B
100
AcDbEntity
  8
IMPORT_IGES
100
AcDbLine
 62
253
  6
CONTINUOUS
 10
-7.8504210526
 20
-8.0949880283
 11
-7.0504210526
 21
-8.0949825928
  0
LINE
  5
45C
100
AcDbEntity
  8
IMPORT_IGES
100
AcDbLine
 62
253
  6
CONTINUOUS
 10
2.4495789474
 20
-8.0949804541
 11
3.2495789474
 21
-8.0949865192
  0
LINE
  5
45D
100
AcDbEntity
  8
IMPORT_IGES
100
AcDbLine
 62
253
  6
CONTINUOUS
 10
-6.8774978358
 20
-9.7942856011
 11
-6.1325505996
 21
-9.7943256047
  0
LINE
  5
45E
100
AcDbEntity
  8
IMPORT_IGES
100
AcDbLine
 62
253
  6
CONTINUOUS
 10
-6.9291607985
 20
-9.7939746999
 11
-6.8774978358
 21
-9.7942856011
  0
LWPOLYLINE
  5
45F
100
AcDbEntity
  8
IMPORT_IGES
100
AcDbPolyline
 62
253
  6
CONTINUOUS
 90
13
 70
0
 10
5.1495789474
 20
-8.6649402009
 10
5.1237679547
 20
-8.6647295728
 10
5.0984756207
 20
-8.6641041084
 10
5.0741153743
 20
-8.6630784706
 10
5.0511915464
 20
-8.661681773
 10
5.0299349068
 20
-8.6599363351
 10
5.0103879972
 20
-8.6578396113
 10
4.9928415116
 20
-8.6553982326
 10
4.9778196025
 20
-8.6526568946
 10
4.9657308189
 20
-8.6496691982
 10
4.9568636121
 20
-8.6464889833
 10
4.9514232841
 20
-8.6431658221
 10
4.9495789514
 20
-8.6397581996
  0
LWPOLYLINE
  5
460
100
AcDbEntity
  8
IMPORT_IGES
100
AcDbPolyline
 62
253
  6
CONTINUOUS
 90
13
 70
0
 10
5.7411571738
 20
-8.6649477254
 10
5.7799114058
 20
-8.6652934545
 10
5.8178565851
 20
-8.6650034355
 10
5.8543742359
 20
-8.6640904962
 10
5.8887036401
 20
-8.6625874905
 10
5.9205157914
 20
-8.6605227732
 10
5.9497783888
 20
-8.6578894173
 10
5.9760642644
 20
-8.6546885739
 10
5.9985829404
 20
-8.6509742218
 10
6.0167252472
 20
-8.6468153038
 10
6.0300584221
 20
-8.6422843715
 10
6.0382724993
 20
-8.6374500689
 10
6.0411116712
 20
-8.6323953564
  0
LINE
  5
461
100
AcDbEntity
  8
IMPORT_IGES
100
AcDbLine
 62
253
  6
CONTINUOUS
 10
-9.5279397612
 20
-4.2971867158
 11
-9.6979191522
 21
-4.1971919782
  0
LINE
  5
462
100
AcDbEntity
  8
DRAFT
100
AcDbLine
 62
7
  6
CONTINUOUS
 10
8.5123102695
 20
-15.1261052632
 11
8.5995789474
 21
-15.1784656192
  0
LWPOLYLINE
  5
463
100
AcDbEntity
  8
IMPORT_IGES
100
AcDbPolyline
 62
253
  6
CONTINUOUS
 90
7
 70
0
 10
5.0299354325
 20
-14.0756375639
 10
5.010388429
 20
-14.0623409217
 10
4.9928428088
 20
-14.0468595537
 10
4.9778214373
 20
-14.0294761282
 10
4.9657310416
 20
-14.0105272064
 10
4.9568613489
 20
-13.9903525265
 10
4.9514203042
 20
-13.9692673736
  0
LWPOLYLINE
  5
464
100
AcDbEntity
  8
IMPORT_IGES
100
AcDbPolyline
 62
7
  6
CONTINUOUS
 90
10
 70
0
 10
-8.406502873
 20
-3.9971868692
 10
-8.4555207198
 20
-3.9390036007
 10
-8.4991958342
 20
-3.8779089811
 10
-8.5375282164
 20
-3.8139030104
 10
-8.5706994988
 20
-3.7465273016
 10
-8.5985280488
 20
-3.6762402416
 10
-8.620468969
 20
-3.6044169917
 10
-8.6363406268
 20
-3.5315159388
 10
-8.6463246546
 20
-3.457078696
 10
-8.6504210526
 20
-3.3811052632
  0
LWPOLYLINE
  5
465
100
AcDbEntity
  8
IMPORT_IGES
100
AcDbPolyline
 62
253
  6
CONTINUOUS
 90
13
 70
0
 10
-8.0504210526
 20
-4.9357018956
 10
-8.0487485643
 20
-4.9463347115
 10
-8.0437821101
 20
-4.956753915
 10
-8.0356380752
 20
-4.9667891945
 10
-8.0245475727
 20
-4.9762327999
 10
-8.0106878021
 20
-4.9849896413
 10
-7.994038599
 20
-4.993042147
 10
-7.9746538297
 20
-5.0002701684
 10
-7.9528874264
 20
-5.0064583107
 10
-7.9291607985
 20
-5.0114390202
 10
-7.9038993405
 20
-5.0150929423
 10
-7.8774978358
 20
-5.0173344126
 10
-7.8504210526
 20
-5.0180929704
  0
LINE
  5
466
100
AcDbEntity
  8
0
100
AcDbLine
 62
7
  6
CONTINUOUS
 10
-5.7257409237
 20
17.453164722
 11
-5.7276850715
 21
17.5024686021
  0
LINE
  5
467
100
AcDbEntity
  8
ASSI
100
AcDbLine
 62
7
  6
CONTINUOUS
 10
-6.3015266315
 20
18.4055543725
 11
-6.3004210526
 21
18.3738947368
  0
LINE
  5
468
100
AcDbEntity
  8
0
100
AcDbLine
 62
7
  6
CONTINUOUS
 10
-5.7276850715
 20
17.5024686021
 11
-5.7306013663
 21
17.5905361737
  0
LINE
  5
469
100
AcDbEntity
  8
0
100
AcDbLine
 62
7
  6
CONTINUOUS
 10
-5.7306013663
 20
17.5905361737
 11
-5.7354618639
 21
17.7595830224
  0
LINE
  5
46A
100
AcDbEntity
  8
IMPORT_IGES
100
AcDbLine
 62
7
  6
CONTINUOUS
 10
-6.2738563762
 20
-14.6786635321
 11
-6.3260295652
 21
-10.3341895669
  0
LINE
  5
46B
100
AcDbEntity
  8
IMPORT_IGES
100
AcDbLine
 62
253
  6
CONTINUOUS
 10
-6.078225446
 20
-14.4733762784
 11
-6.1133502806
 21
-11.5485231266
  0
LINE
  5
46C
100
AcDbEntity
  8
IMPORT_IGES
100
AcDbLine
 62
253
  6
CONTINUOUS
 10
-6.1208143337
 20
-10.771607286
 11
-6.1325505996
 21
-9.7943256047
  0
LINE
  5
46D
100
AcDbEntity
  8
IMPORT_IGES
100
AcDbLine
 62
7
  6
CONTINUOUS
 10
-6.0738722164
 20
-14.8761052632
 11
-6.0782261196
 21
-14.4733762854
  0
LINE
  5
46E
100
AcDbEntity
  8
IMPORT_IGES
100
AcDbLine
 62
7
  6
CONTINUOUS
 10
-6.1208140953
 20
-10.7716072835
 11
-6.1133502806
 21
-11.5485208098
  0
LINE
  5
46F
100
AcDbEntity
  8
RACCORDO
100
AcDbLine
 62
253
  6
CONTINUOUS
 10
-5.477388337
 20
7.2238947368
 11
-5.5425668716
 21
14.6010039635
  0
LINE
  5
470
100
AcDbEntity
  8
IMPORT_IGES
100
AcDbLine
 62
7
  6
CONTINUOUS
 10
-6.405274555
 20
3.6714471844
 11
-6.405274555
 21
3.6032653662
  0
LINE
  5
471
100
AcDbEntity
  8
IMPORT_IGES
100
AcDbLine
 62
253
  6
CONTINUOUS
 10
-6.3881723894
 20
-0.8128999827
 11
-6.3881723896
 21
-0.6128999827
  0
LINE
  5
472
100
AcDbEntity
  8
IMPORT_IGES
100
AcDbLine
 62
7
  6
CONTINUOUS
 10
-6.3004210526
 20
6.8238947368
 11
-6.3004210526
 21
4.6605719104
  0
LINE
  5
473
100
AcDbEntity
  8
ASSI
100
AcDbLine
 62
253
  6
CONTINUOUS
 10
-6.2917703402
 20
19.965572116
 11
-6.2917703402
 21
18.405325926
  0
LINE
  5
474
100
AcDbEntity
  8
ASSI
100
AcDbLine
 62
253
  6
CONTINUOUS
 10
-6.2917703402
 20
-23.6582181208
 11
-6.2917703402
 21
-25.2177826423
  0
LINE
  5
475
100
AcDbEntity
  8
DRAFT
100
AcDbLine
 62
7
  6
CONTINUOUS
 10
-6.275113136
 20
-25.1261052632
 11
-6.275113136
 21
-25.8761052632
  0
LINE
  5
476
100
AcDbEntity
  8
DRAFT
100
AcDbLine
 62
7
  6
CONTINUOUS
 10
-6.275113136
 20
19.8738947368
 11
-6.275113136
 21
20.6238947368
  0
LINE
  5
477
100
AcDbEntity
  8
RACCORDO
100
AcDbLine
 62
253
  6
CONTINUOUS
 10
-6.2504210526
 20
20.1907544775
 11
-6.2504210526
 21
19.810331871
  0
LINE
  5
478
100
AcDbEntity
  8
RACCORDO
100
AcDbLine
 62
253
  6
CONTINUOUS
 10
-6.2504210526
 20
-25.4429650038
 11
-6.2504210526
 21
-25.0625423973
  0
LINE
  5
479
100
AcDbEntity
  8
ASSI
100
AcDbLine
 62
7
  6
CONTINUOUS
 10
-6.2504210526
 20
-23.0117935488
 11
-6.2504210526
 21
-23.4117935488
  0
LINE
  5
47A
100
AcDbEntity
  8
ASSI
100
AcDbLine
 62
7
  6
CONTINUOUS
 10
-6.2504210526
 20
17.7595830224
 11
-6.2504210526
 21
18.1595830224
  0
LINE
  5
47B
100
AcDbEntity
  8
DRAFT
100
AcDbLine
 62
7
  6
CONTINUOUS
 10
-6.2026801334
 20
-25.0391846891
 11
-6.2026801334
 21
-23.646586799
  0
LINE
  5
47C
100
AcDbEntity
  8
DRAFT
100
AcDbLine
 62
7
  6
CONTINUOUS
 10
-6.2026801334
 20
18.3875083188
 11
-6.2026801334
 21
19.7869741628
  0
LINE
  5
47D
100
AcDbEntity
  8
ASSI
100
AcDbLine
 62
7
  6
CONTINUOUS
 10
-6.0504210526
 20
-23.1055677739
 11
-6.0504210526
 21
-23.9117935453
  0
LINE
  5
47E
100
AcDbEntity
  8
0
100
AcDbLine
 62
7
  6
CONTINUOUS
 10
-6.0504210526
 20
-23.9117935455
 11
-6.0504210526
 21
-24.7677444134
  0
LINE
  5
47F
100
AcDbEntity
  8
RACCORDO
100
AcDbLine
 62
7
  6
CONTINUOUS
 10
-6.0504210526
 20
-24.7677444134
 11
-6.0504210526
 21
-25.3811616049
  0
LINE
  5
480
100
AcDbEntity
  8
ASSI
100
AcDbLine
 62
7
  6
CONTINUOUS
 10
-6.0504210526
 20
17.8533572476
 11
-6.0504210526
 21
18.659583019
  0
LINE
  5
481
100
AcDbEntity
  8
0
100
AcDbLine
 62
7
  6
CONTINUOUS
 10
-6.0504210526
 20
18.6595830192
 11
-6.0504210526
 21
19.5155338871
  0
LINE
  5
482
100
AcDbEntity
  8
RACCORDO
100
AcDbLine
 62
7
  6
CONTINUOUS
 10
-6.0504210526
 20
19.5155338871
 11
-6.0504210526
 21
20.1289510786
  0
LINE
  5
483
100
AcDbEntity
  8
0
100
AcDbLine
 62
7
  6
CONTINUOUS
 10
-6.0345134122
 20
-15.1761342636
 11
-6.0345134122
 21
-15.2761342636
  0
LINE
  5
484
100
AcDbEntity
  8
0
100
AcDbLine
 62
253
  6
CONTINUOUS
 10
-5.9450464916
 20
-15.1761342636
 11
-5.9450464916
 21
-15.2761342636
  0
LINE
  5
485
100
AcDbEntity
  8
0
100
AcDbLine
 62
253
  6
CONTINUOUS
 10
-5.8568621976
 20
-15.1761342636
 11
-5.8568621976
 21
-15.2761342636
  0
LINE
  5
486
100
AcDbEntity
  8
0
100
AcDbLine
 62
7
  6
CONTINUOUS
 10
-5.7179641312
 20
17.7595830224
 11
-5.7179641312
 21
17.3595830224
  0
LINE
  5
487
100
AcDbEntity
  8
0
100
AcDbLine
 62
7
  6
CONTINUOUS
 10
-5.7179641312
 20
-23.0117935488
 11
-5.7179641312
 21
-22.6117935488
  0
LINE
  5
488
100
AcDbEntity
  8
0
100
AcDbLine
 62
7
  6
CONTINUOUS
 10
-5.6392243341
 20
-22.6117935488
 11
-5.6392243341
 21
-23.0117935488
  0
LINE
  5
489
100
AcDbEntity
  8
0
100
AcDbLine
 62
7
  6
CONTINUOUS
 10
-5.6392243341
 20
17.3595830224
 11
-5.6392243341
 21
17.7595830224
  0
LINE
  5
48A
100
AcDbEntity
  8
DRAFT
100
AcDbLine
 62
7
  6
CONTINUOUS
 10
-5.5504210526
 20
8.0738947368
 11
-5.5504210526
 21
7.2238947368
  0
LINE
  5
48B
100
AcDbEntity
  8
RACCORDO
100
AcDbLine
 62
7
  6
CONTINUOUS
 10
-5.5425668716
 20
8.0817489179
 11
-5.5425668716
 21
14.6010039635
  0
LINE
  5
48C
100
AcDbEntity
  8
0
100
AcDbLine
 62
7
  6
CONTINUOUS
 10
-5.5391398771
 20
-15.1761342636
 11
-5.5391398771
 21
-15.2761342636
  0
LINE
  5
48D
100
AcDbEntity
  8
0
100
AcDbLine
 62
7
  6
CONTINUOUS
 10
-5.5041221006
 20
-15.1761342636
 11
-5.5041221006
 21
-15.2761342636
  0
LINE
  5
48E
100
AcDbEntity
  8
0
100
AcDbLine
 62
7
  6
CONTINUOUS
 10
-5.2376452787
 20
-15.1761342636
 11
-5.2376452787
 21
-15.2761342636
  0
LINE
  5
48F
100
AcDbEntity
  8
IMPORT_IGES
100
AcDbLine
 62
7
  6
CONTINUOUS
 10
-5.205274555
 20
-0.349914787
 11
-5.205274555
 21
-0.3033161413
  0
LINE
  5
490
100
AcDbEntity
  8
0
100
AcDbLine
 62
7
  6
CONTINUOUS
 10
-4.9762931211
 20
-15.1761342636
 11
-4.9762931211
 21
-15.2761342636
  0
LINE
  5
491
100
AcDbEntity
  8
0
100
AcDbLine
 62
7
  6
CONTINUOUS
 10
-4.9412753446
 20
-15.1761342636
 11
-4.9412753446
 21
-15.2761342636
  0
LINE
  5
492
100
AcDbEntity
  8
IMPORT_IGES
100
AcDbLine
 62
253
  6
CONTINUOUS
 10
-4.905274555
 20
-0.0703993432
 11
-4.905274555
 21
-0.3546766917
  0
LINE
  5
493
100
AcDbEntity
  8
IMPORT_IGES
100
AcDbLine
 62
253
  6
CONTINUOUS
 10
-4.905274555
 20
-7.6083061203
 11
-4.905274555
 21
-7.7728088334
  0
LINE
  5
494
100
AcDbEntity
  8
0
100
AcDbLine
 62
253
  6
CONTINUOUS
 10
-4.5962216718
 20
-15.1761342636
 11
-4.5962216718
 21
-15.2761342636
  0
LINE
  5
495
100
AcDbEntity
  8
RACCORDO
100
AcDbLine
 62
7
  6
CONTINUOUS
 10
-4.5582752336
 20
17.3595830224
 11
-4.5582752336
 21
14.6010039635
  0
LINE
  5
496
100
AcDbEntity
  8
DRAFT
100
AcDbLine
 62
7
  6
CONTINUOUS
 10
-4.5504210526
 20
7.5738947368
 11
-4.5504210526
 21
7.2238947368
  0
LINE
  5
497
100
AcDbEntity
  8
DRAFT
100
AcDbLine
 62
7
  6
CONTINUOUS
 10
-4.5495483659
 20
8.4738947368
 11
-4.5495483659
 21
17.3595830224
  0
LWPOLYLINE
  5
498
100
AcDbEntity
  8
IMPORT_IGES
100
AcDbPolyline
 62
253
  6
CONTINUOUS
 90
5
 70
0
 10
-6.1004210526
 20
-0.8128999827
 10
-6.1003383167
 20
-1.1595209036
 10
-6.1007753509
 20
-1.2098350592
 10
-6.1014508072
 20
-1.2611474878
 10
-6.1023646856
 20
-1.3128987003
  0
LINE
  5
499
100
AcDbEntity
  8
RACCORDO
100
AcDbLine
 62
253
  6
CONTINUOUS
 10
-4.6234537683
 20
7.2238947368
 11
-4.5582752336
 21
14.6010039635
  0
LWPOLYLINE
  5
49A
100
AcDbEntity
  8
IMPORT_IGES
100
AcDbPolyline
 62
253
  6
CONTINUOUS
 90
10
 70
0
 10
-6.3260295748
 20
-10.3341887687
 10
-6.3257485498
 20
-10.3053737148
 10
-6.3242286068
 20
-10.277286781
 10
-6.3215132406
 20
-10.2499467997
 10
-6.3176749222
 20
-10.2233150024
 10
-6.3127571004
 20
-10.1974280217
 10
-6.3067223096
 20
-10.172396867
 10
-6.2995544764
 20
-10.1482570343
 10
-6.2913101986
 20
-10.1249695415
 10
-6.2820260669
 20
-10.1025329187
  0
LINE
  5
49B
100
AcDbEntity
  8
0
100
AcDbLine
 62
7
  6
CONTINUOUS
 10
-5.7354618639
 20
-23.0117935488
 11
-5.7296292374
 21
-22.8117950742
  0
LINE
  5
49C
100
AcDbEntity
  8
DRAFT
100
AcDbLine
 62
7
  6
CONTINUOUS
 10
-6.3008964494
 20
-23.6397188451
 11
-6.3004210526
 21
-23.6261052632
  0
LINE
  5
49D
100
AcDbEntity
  8
0
100
AcDbLine
 62
7
  6
CONTINUOUS
 10
-5.7296292374
 20
-22.8117950742
 11
-5.7276850715
 21
-22.7546791284
  0
LWPOLYLINE
  5
49E
100
AcDbEntity
  8
0
100
AcDbPolyline
 62
7
  6
CONTINUOUS
 90
10
 70
0
 10
-5.7276850715
 20
-22.7546791284
 10
-5.7257409237
 20
-22.7053752483
 10
-5.7247688498
 20
-22.6841317973
 10
-5.7237967578
 20
-22.6653825065
 10
-5.7228246288
 20
-22.6492702213
 10
-5.7218524817
 20
-22.6359169915
 10
-5.7208803546
 20
-22.6254238914
 10
-5.7199082601
 20
-22.617870883
 10
-5.7189361857
 20
-22.6133158125
 10
-5.7179641312
 20
-22.6117935488
  0
LINE
  5
49F
100
AcDbEntity
  8
IMPORT_IGES
100
AcDbLine
 62
253
  6
CONTINUOUS
 10
-6.1214690685
 20
4.1703418349
 11
-6.1257747698
 21
4.0668346415
  0
LWPOLYLINE
  5
4A0
100
AcDbEntity
  8
RACCORDO
100
AcDbPolyline
 62
7
  6
CONTINUOUS
 90
34
 70
0
 10
-5.5425668716
 20
14.6010039635
 10
-5.5391065351
 20
14.6754633674
 10
-5.5311148945
 20
14.7465532782
 10
-5.5185919496
 20
14.8142736961
 10
-5.5010794338
 20
14.8790639903
 10
-5.4790356139
 20
14.9404847915
 10
-5.4538352897
 20
14.9972179914
 10
-5.4256107064
 20
15.0488959359
 10
-5.3942296188
 20
15.0958862791
 10
-5.3606700922
 20
15.1379738756
 10
-5.3251224121
 20
15.1751300608
 10
-5.2873962929
 20
15.2073834993
 10
-5.2478989426
 20
15.2346050387
 10
-5.2062477439
 20
15.2569280381
 10
-5.162825314
 20
15.2742191385
 10
-5.119186712
 20
15.2859491107
 10
-5.0757255168
 20
15.291943232
 10
-5.0320481494
 20
15.292376225
 10
-4.9885289318
 20
15.2872430282
 10
-4.9448437734
 20
15.2764563836
 10
-4.9013167648
 20
15.2601035492
 10
-4.8592944997
 20
15.2384412368
 10
-4.8190024536
 20
15.2115292097
 10
-4.7802151511
 20
15.1793077047
 10
-4.7436027598
 20
15.1418541433
 10
-4.7089612302
 20
15.0989030275
 10
-4.6764946119
 20
15.0507198553
 10
-4.647485221
 20
14.9981785427
 10
-4.6220019795
 20
14.9412797872
 10
-4.5999759654
 20
14.8800228912
 10
-4.5824827288
 20
14.8152796786
 10
-4.5698807863
 20
14.747340757
 10
-4.5618116212
 20
14.6759155186
 10
-4.5582752336
 20
14.6010039635
  0
LINE
  5
4A1
100
AcDbEntity
  8
IMPORT_IGES
100
AcDbLine
 62
253
  6
CONTINUOUS
 10
-6.1257747698
 20
4.0668346415
 11
-6.1314014352
 21
3.9462513927
  0
LWPOLYLINE
  5
4A2
100
AcDbEntity
  8
RACCORDO
100
AcDbPolyline
 62
7
  6
CONTINUOUS
 90
25
 70
0
 10
-3.5004210526
 20
21.2797958812
 10
-3.5008644555
 20
21.2757253158
 10
-3.5021454368
 20
21.2717062342
 10
-3.5042639966
 20
21.2677386362
 10
-3.5072363336
 20
21.2638060202
 10
-3.5110462491
 20
21.2599248878
 10
-3.5156451461
 20
21.2561447444
 10
-3.5210431315
 20
21.2524668834
 10
-3.5272300985
 20
21.2488900114
 10
-3.5341271302
 20
21.2454597525
 10
-3.5417433223
 20
21.2421779848
 10
-3.5500695792
 20
21.2390428302
 10
-3.5589996964
 20
21.2360942787
 10
-3.5685414093
 20
21.2333347208
 10
-3.5786869827
 20
21.2307617659
 10
-3.589307006
 20
21.2284082331
 10
-3.6004075571
 20
21.2262769331
 10
-3.6119825582
 20
21.2243650551
 10
-3.6238843662
 20
21.2226969859
 10
-3.6361171674
 20
21.2212758486
 10
-3.6486767754
 20
21.2200985199
 10
-3.6614029882
 20
21.2191800173
 10
-3.674242405
 20
21.2185253463
 10
-3.6872484265
 20
21.2181295013
 10
-3.7004210526
 20
21.2179924823
  0
LWPOLYLINE
  5
4A3
100
AcDbEntity
  8
IMPORT_IGES
100
AcDbPolyline
 62
253
  6
CONTINUOUS
 90
3
 70
0
 10
-4.9379805228
 20
2.8518366662
 10
-4.9036365603
 20
2.9594190178
 10
-4.8004683715
 20
3.2952125247
  0
LINE
  5
4A4
100
AcDbEntity
  8
IMPORT_IGES
100
AcDbLine
 62
253
  6
CONTINUOUS
 10
-7.397680119
 20
-4.9820755848
 11
-7.410430637
 21
-5.0180928429
  0
LINE
  5
4A5
100
AcDbEntity
  8
DRAFT
100
AcDbLine
 62
7
  6
CONTINUOUS
 10
5.1995789474
 20
17.8738947368
 11
5.1948665153
 21
17.8660405558
  0
LINE
  5
4A6
100
AcDbEntity
  8
IMPORT_IGES
100
AcDbLine
 62
253
  6
CONTINUOUS
 10
-8.3504210526
 20
-3.944524847
 11
-8.406502595
 21
-3.9971872459
  0
LWPOLYLINE
  5
4A7
100
AcDbEntity
  8
IMPORT_IGES
100
AcDbPolyline
 62
253
  6
CONTINUOUS
 90
13
 70
0
 10
-9.7504210526
 20
-8.094985978
 10
-9.72461006
 20
-8.0942969771
 10
-9.699317726
 20
-8.0922509749
 10
-9.6749574796
 20
-8.0888959365
 10
-9.6520336517
 20
-8.0843270973
 10
-9.630777012
 20
-8.0786174682
 10
-9.6112301024
 20
-8.0717587224
 10
-9.5936840719
 20
-8.0637727875
 10
-9.5786624584
 20
-8.0548056788
 10
-9.5665729241
 20
-8.0450318894
 10
-9.5577045419
 20
-8.0346271122
 10
-9.5522639007
 20
-8.0237537372
 10
-9.5504210537
 20
-8.0126031517
  0
LINE
  5
4A8
100
AcDbEntity
  8
IMPORT_IGES
100
AcDbLine
 62
7
  6
CONTINUOUS
 10
-3.705274555
 20
-7.7104075645
 11
-0.8955675503
 21
-7.7104075645
  0
LINE
  5
4A9
100
AcDbEntity
  8
IMPORT_IGES
100
AcDbLine
 62
7
  6
CONTINUOUS
 10
0.3044324497
 20
-7.6083061203
 11
-0.5955675503
 21
-7.6083061203
  0
LINE
  5
4AA
100
AcDbEntity
  8
IMPORT_IGES
100
AcDbLine
 62
7
  6
CONTINUOUS
 10
-4.005274555
 20
-7.6083061203
 11
-4.905274555
 21
-7.6083061203
  0
LINE
  5
4AB
100
AcDbEntity
  8
IMPORT_IGES
100
AcDbLine
 62
7
  6
CONTINUOUS
 10
0.5617396355
 20
-7.5761632632
 11
-5.1625816069
 21
-7.5761632632
  0
LWPOLYLINE
  5
4AC
100
AcDbEntity
  8
IMPORT_IGES
100
AcDbPolyline
 62
253
  6
CONTINUOUS
 90
13
 70
0
 10
5.1495789474
 20
-8.0949854451
 10
5.1237682681
 20
-8.0942966978
 10
5.0984761483
 20
-8.0922509139
 10
5.0741160124
 20
-8.0888960436
 10
5.0511921693
 20
-8.0843272817
 10
5.0299354321
 20
-8.0786176495
 10
5.0103884291
 20
-8.0717588949
 10
4.9928428033
 20
-8.0637732223
 10
4.9778214281
 20
-8.0548064211
 10
4.9657310417
 20
-8.0450321037
 10
4.9568613635
 20
-8.0346255191
 10
4.9514203227
 20
-8.023749298
 10
4.9495789474
 20
-8.0125949033
  0
LWPOLYLINE
  5
4AD
100
AcDbEntity
  8
IMPORT_IGES
100
AcDbPolyline
 62
253
  6
CONTINUOUS
 90
5
 70
0
 10
-8.406502873
 20
-3.9971868692
 10
-8.3902936963
 20
-4.003896959
 10
-8.3737844279
 20
-4.0104086126
 10
-8.3569750678
 20
-4.0167158334
 10
-8.3504210526
 20
-4.0190485478
  0
LWPOLYLINE
  5
4AE
100
AcDbEntity
  8
IMPORT_IGES
100
AcDbPolyline
 62
253
  6
CONTINUOUS
 90
10
 70
0
 10
4.9822563688
 20
-12.3226745625
 10
5.0130977416
 20
-12.340994779
 10
5.0415169057
 20
-12.3617724348
 10
5.0669394274
 20
-12.3845240091
 10
5.0893892834
 20
-12.4088443124
 10
5.1088424971
 20
-12.4351385341
 10
5.1246527051
 20
-12.4641387224
 10
5.136604453
 20
-12.4960888931
 10
5.1449131953
 20
-12.5307450303
 10
5.149578932
 20
-12.568107134
  0
LWPOLYLINE
  5
4AF
100
AcDbEntity
  8
IMPORT_IGES
100
AcDbPolyline
 62
253
  6
CONTINUOUS
 90
4
 70
0
 10
1.693624141
 20
-9.9185700574
 10
1.6005714017
 20
-9.8467520771
 10
1.5668322854
 20
-9.8208621177
 10
1.5317084944
 20
-9.7943256047
  0
LINE
  5
4B0
100
AcDbEntity
  8
IMPORT_IGES
100
AcDbLine
 62
253
  6
CONTINUOUS
 10
1.7216811195
 20
-9.9405189635
 11
1.693624141
 21
-9.9185700574
  0
LINE
  5
4B1
100
AcDbEntity
  8
IMPORT_IGES
100
AcDbLine
 62
253
  6
CONTINUOUS
 10
1.7960378994
 20
-9.9999334607
 11
1.7216811195
 21
-9.9405189635
  0
LWPOLYLINE
  5
4B2
100
AcDbEntity
  8
RACCORDO
100
AcDbPolyline
 62
7
  6
CONTINUOUS
 90
6
 70
0
 10
5.0778559923
 20
-16.0044114624
 10
5.0890348342
 20
-16.015370026
 10
5.0981073635
 20
-16.0246336793
 10
5.104796184
 20
-16.0318438026
 10
5.1093786919
 20
-16.0365576362
 10
5.1118548872
 20
-16.038381203
  0
LINE
  5
4B3
100
AcDbEntity
  8
RACCORDO
100
AcDbLine
 62
7
  6
CONTINUOUS
 10
4.8618644065
 20
-15.7883907223
 11
4.8799101841
 21
-15.8062481469
  0
LWPOLYLINE
  5
4B4
100
AcDbEntity
  8
RACCORDO
100
AcDbPolyline
 62
7
  6
CONTINUOUS
 90
3
 70
0
 10
5.0368819827
 20
-15.9634332397
 10
5.0517795665
 20
-15.9781771223
 10
5.0778559923
 20
-16.0044114624
  0
LWPOLYLINE
  5
4B5
100
AcDbEntity
  8
RACCORDO
100
AcDbPolyline
 62
7
  6
CONTINUOUS
 90
3
 70
0
 10
4.3062804634
 20
-15.2853473596
 10
4.2740551521
 20
-15.2532333833
 10
4.2592770782
 20
-15.2382998236
  0
LWPOLYLINE
  5
4B6
100
AcDbEntity
  8
RACCORDO
100
AcDbPolyline
 62
7
  6
CONTINUOUS
 90
7
 70
0
 10
4.2592770782
 20
-15.2382998236
 10
4.2330528378
 20
-15.2122244062
 10
4.2221394396
 20
-15.2010825486
 10
4.2129260773
 20
-15.1920779779
 10
4.2057880166
 20
-15.1854905052
 10
4.2011995351
 20
-15.1810403196
 10
4.1995789474
 20
-15.178727421
  0
LINE
  5
4B7
100
AcDbEntity
  8
RACCORDO
100
AcDbLine
 62
7
  6
CONTINUOUS
 10
5.1118548872
 20
-16.038381203
 11
5.1995789474
 21
-16.1261052632
  0
LINE
  5
4B8
100
AcDbEntity
  8
RACCORDO
100
AcDbLine
 62
7
  6
CONTINUOUS
 10
4.4317184057
 20
-15.4106798193
 11
4.323346935
 21
-15.3025277762
  0
LINE
  5
4B9
100
AcDbEntity
  8
RACCORDO
100
AcDbLine
 62
7
  6
CONTINUOUS
 10
4.323346935
 20
-15.3025277762
 11
4.3062804634
 21
-15.2853473596
  0
LINE
  5
4BA
100
AcDbEntity
  8
RACCORDO
100
AcDbLine
 62
7
  6
CONTINUOUS
 10
4.8799101841
 20
-15.8062481469
 11
5.0368819827
 21
-15.9634332397
  0
LINE
  5
4BB
100
AcDbEntity
  8
RACCORDO
100
AcDbLine
 62
7
  6
CONTINUOUS
 10
4.4495789474
 20
-15.428730848
 11
4.4317184057
 21
-15.4106798193
  0
LWPOLYLINE
  5
4BC
100
AcDbEntity
  8
RACCORDO
100
AcDbPolyline
 62
7
  6
CONTINUOUS
 90
25
 70
0
 10
-1.1004210526
 20
-27.0477330847
 10
-1.0999776497
 20
-27.05180365
 10
-1.0986966684
 20
-27.0558227317
 10
-1.0965781087
 20
-27.0597903297
 10
-1.0936057717
 20
-27.0637229457
 10
-1.0897958562
 20
-27.067604078
 10
-1.0851969591
 20
-27.0713842215
 10
-1.0797989738
 20
-27.0750620824
 10
-1.0736120068
 20
-27.0786389545
 10
-1.0667149751
 20
-27.0820692134
 10
-1.0590987829
 20
-27.0853509811
 10
-1.0507725261
 20
-27.0884861357
 10
-1.0418424089
 20
-27.0914346871
 10
-1.0323006959
 20
-27.0941942451
 10
-1.0221551226
 20
-27.0967672
 10
-1.0115350992
 20
-27.0991207328
 10
-1.0004345482
 20
-27.1012520328
 10
-0.9888595471
 20
-27.1031639107
 10
-0.9769577391
 20
-27.1048319799
 10
-0.9647249379
 20
-27.1062531173
 10
-0.9521653298
 20
-27.1074304459
 10
-0.939439117
 20
-27.1083489486
 10
-0.9265997003
 20
-27.1090036195
 10
-0.9135936788
 20
-27.1093994645
 10
-0.9004210526
 20
-27.1095364835
  0
LWPOLYLINE
  5
4BD
100
AcDbEntity
  8
RACCORDO
100
AcDbPolyline
 62
7
  6
CONTINUOUS
 90
24
 70
0
 10
-6.0504210526
 20
19.7485284721
 10
-6.0508644555
 20
19.7525990374
 10
-6.0521454368
 20
19.7566181191
 10
-6.0542639966
 20
19.7605857171
 10
-6.0572363336
 20
19.7645183331
 10
-6.0610462491
 20
19.7683994654
 10
-6.0656451461
 20
19.7721796089
 10
-6.0710431315
 20
19.7758574698
 10
-6.0772300985
 20
19.7794343419
 10
-6.0841271302
 20
19.7828646008
 10
-6.0917433223
 20
19.7861463685
 10
-6.1000695792
 20
19.7892815231
 10
-6.1089996964
 20
19.7922300745
 10
-6.1185414093
 20
19.7949896325
 10
-6.1286869827
 20
19.7975625874
 10
-6.139307006
 20
19.7999161202
 10
-6.1504075571
 20
19.8020474202
 10
-6.1619825582
 20
19.8039592981
 10
-6.1738843662
 20
19.8056273673
 10
-6.1861171674
 20
19.8070485047
 10
-6.1986767754
 20
19.8082258333
 10
-6.2114029882
 20
19.809144336
 10
-6.224242405
 20
19.8097990069
 10
-6.2372484265
 20
19.8101948519
  0
LINE
  5
4BE
100
AcDbEntity
  8
DRAFT
100
AcDbLine
 62
7
  6
CONTINUOUS
 10
-4.5425668716
 20
7.5738947368
 11
-4.5425668716
 21
8.4669132426
  0
LINE
  5
4BF
100
AcDbEntity
  8
0
100
AcDbLine
 62
253
  6
CONTINUOUS
 10
-4.5176452543
 20
-15.1761342636
 11
-4.5176452543
 21
-15.2761342636
  0
LINE
  5
4C0
100
AcDbEntity
  8
0
100
AcDbLine
 62
7
  6
CONTINUOUS
 10
-4.4330901487
 20
-15.1761342636
 11
-4.4330901487
 21
-15.2761342636
  0
LINE
  5
4C1
100
AcDbEntity
  8
0
100
AcDbLine
 62
7
  6
CONTINUOUS
 10
-4.3895310743
 20
-15.1761342636
 11
-4.3895310743
 21
-15.2761342636
  0
LINE
  5
4C2
100
AcDbEntity
  8
0
100
AcDbLine
 62
253
  6
CONTINUOUS
 10
-4.300064298
 20
-15.1761342636
 11
-4.300064298
 21
-15.2761342636
  0
LINE
  5
4C3
100
AcDbEntity
  8
0
100
AcDbLine
 62
253
  6
CONTINUOUS
 10
-4.2118798597
 20
-15.1761342636
 11
-4.2118798597
 21
-15.2761342636
  0
LINE
  5
4C4
100
AcDbEntity
  8
RACCORDO
100
AcDbLine
 62
7
  6
CONTINUOUS
 10
-4.0504210526
 20
8.2741436271
 11
-4.0504210526
 21
8.5238947368
  0
LINE
  5
4C5
100
AcDbEntity
  8
IMPORT_IGES
100
AcDbLine
 62
253
  6
CONTINUOUS
 10
-4.0052743875
 20
-8.2702482154
 11
-4.005274555
 21
-7.6083061203
  0
LINE
  5
4C6
100
AcDbEntity
  8
IMPORT_IGES
100
AcDbLine
 62
253
  6
CONTINUOUS
 10
-4.0052740707
 20
-0.3546766917
 11
-4.0052738774
 21
0.4188424538
  0
LINE
  5
4C7
100
AcDbEntity
  8
0
100
AcDbLine
 62
7
  6
CONTINUOUS
 10
-3.8941575391
 20
-15.1761342636
 11
-3.8941575391
 21
-15.2761342636
  0
LINE
  5
4C8
100
AcDbEntity
  8
0
100
AcDbLine
 62
7
  6
CONTINUOUS
 10
-3.8591397627
 20
-15.1761342636
 11
-3.8591397627
 21
-15.2761342636
  0
LINE
  5
4C9
100
AcDbEntity
  8
IMPORT_IGES
100
AcDbLine
 62
7
  6
CONTINUOUS
 10
-3.705274555
 20
-8.3806190265
 11
-3.705274555
 21
-7.6154489774
  0
LINE
  5
4CA
100
AcDbEntity
  8
IMPORT_IGES
100
AcDbLine
 62
7
  6
CONTINUOUS
 10
-3.705274555
 20
-0.349914787
 11
-3.705274555
 21
0.5284293809
  0
LINE
  5
4CB
100
AcDbEntity
  8
RACCORDO
100
AcDbLine
 62
253
  6
CONTINUOUS
 10
-3.7004210526
 20
22.2377485637
 11
-3.7004210526
 21
21.8573259572
  0
LINE
  5
4CC
100
AcDbEntity
  8
RACCORDO
100
AcDbLine
 62
253
  6
CONTINUOUS
 10
-3.7004210526
 20
-27.4899590901
 11
-3.7004210526
 21
-27.1095364835
  0
LINE
  5
4CD
100
AcDbEntity
  8
0
100
AcDbLine
 62
7
  6
CONTINUOUS
 10
-3.5926629408
 20
-15.1761342636
 11
-3.5926629408
 21
-15.2761342636
  0
LINE
  5
4CE
100
AcDbEntity
  8
RACCORDO
100
AcDbLine
 62
7
  6
CONTINUOUS
 10
-3.5004210526
 20
22.1759451649
 11
-3.5004210526
 21
21.2797958812
  0
LINE
  5
4CF
100
AcDbEntity
  8
RACCORDO
100
AcDbLine
 62
7
  6
CONTINUOUS
 10
-3.5004210526
 20
-26.5320064075
 11
-3.5004210526
 21
-27.4281556912
  0
LINE
  5
4D0
100
AcDbEntity
  8
IMPORT_IGES
100
AcDbLine
 62
7
  6
CONTINUOUS
 10
-3.405274555
 20
-8.4671942059
 11
-3.405274555
 21
-8.280929534
  0
LINE
  5
4D1
100
AcDbEntity
  8
IMPORT_IGES
100
AcDbLine
 62
7
  6
CONTINUOUS
 10
-3.405274555
 20
0.4111181995
 11
-3.405274555
 21
0.6149523609
  0
LINE
  5
4D2
100
AcDbEntity
  8
0
100
AcDbLine
 62
7
  6
CONTINUOUS
 10
-3.3313107832
 20
-15.1761342636
 11
-3.3313107832
 21
-15.2761342636
  0
LINE
  5
4D3
100
AcDbEntity
  8
0
100
AcDbLine
 62
7
  6
CONTINUOUS
 10
-3.2962930067
 20
-15.1761342636
 11
-3.2962930067
 21
-15.2761342636
  0
LINE
  5
4D4
100
AcDbEntity
  8
0
100
AcDbLine
 62
253
  6
CONTINUOUS
 10
-2.95123962
 20
-15.1761342636
 11
-2.95123962
 21
-15.2761342636
  0
LINE
  5
4D5
100
AcDbEntity
  8
IMPORT_IGES
100
AcDbLine
 62
7
  6
CONTINUOUS
 10
-2.9004210526
 20
-0.0761052632
 11
-2.9004210526
 21
0.7139304304
  0
LINE
  5
4D6
100
AcDbEntity
  8
0
100
AcDbLine
 62
253
  6
CONTINUOUS
 10
-2.8726629769
 20
-15.1761342636
 11
-2.8726629769
 21
-15.2761342636
  0
LINE
  5
4D7
100
AcDbEntity
  8
RACCORDO
100
AcDbLine
 62
7
  6
CONTINUOUS
 10
-2.8004210526
 20
-22.3761052632
 11
-2.8004210526
 21
-22.6117935488
  0
LINE
  5
4D8
100
AcDbEntity
  8
0
100
AcDbLine
 62
7
  6
CONTINUOUS
 10
-2.7881078107
 20
-15.1761342636
 11
-2.7881078107
 21
-15.2761342636
  0
LINE
  5
4D9
100
AcDbEntity
  8
0
100
AcDbLine
 62
7
  6
CONTINUOUS
 10
-2.7325919492
 20
-15.1761342636
 11
-2.7325919492
 21
-15.2761342636
  0
LWPOLYLINE
  5
4DA
100
AcDbEntity
  8
RACCORDO
100
AcDbPolyline
 62
7
  6
CONTINUOUS
 90
25
 70
0
 10
-6.8004210526
 20
-26.5320064075
 10
-6.7999776497
 20
-26.5279358422
 10
-6.7986966684
 20
-26.5239167605
 10
-6.7965781087
 20
-26.5199491625
 10
-6.7936057717
 20
-26.5160165465
 10
-6.7897958562
 20
-26.5121354141
 10
-6.7851969591
 20
-26.5083552707
 10
-6.7797989738
 20
-26.5046774098
 10
-6.7736120068
 20
-26.5011005377
 10
-6.7667149751
 20
-26.4976702788
 10
-6.7590987829
 20
-26.4943885111
 10
-6.7507725261
 20
-26.4912533565
 10
-6.7418424089
 20
-26.4883048051
 10
-6.7323006959
 20
-26.4855452471
 10
-6.7221551226
 20
-26.4829722922
 10
-6.7115350992
 20
-26.4806187594
 10
-6.7004345482
 20
-26.4784874594
 10
-6.6888595471
 20
-26.4765755815
 10
-6.6769577391
 20
-26.4749075122
 10
-6.6647249379
 20
-26.4734863749
 10
-6.6521653298
 20
-26.4723090463
 10
-6.639439117
 20
-26.4713905436
 10
-6.6265997003
 20
-26.4707358726
 10
-6.6135936788
 20
-26.4703400277
 10
-6.6004210526
 20
-26.4702030086
  0
LWPOLYLINE
  5
4DB
100
AcDbEntity
  8
RACCORDO
100
AcDbPolyline
 62
7
  6
CONTINUOUS
 90
25
 70
0
 10
-1.1004210526
 20
22.1759451649
 10
-1.0999776497
 20
22.1800157302
 10
-1.0986966684
 20
22.1840348119
 10
-1.0965781087
 20
22.1880024099
 10
-1.0936057717
 20
22.1919350259
 10
-1.0897958562
 20
22.1958161582
 10
-1.0851969591
 20
22.1995963017
 10
-1.0797989738
 20
22.2032741626
 10
-1.0736120068
 20
22.2068510347
 10
-1.0667149751
 20
22.2102812936
 10
-1.0590987829
 20
22.2135630613
 10
-1.0507725261
 20
22.2166982159
 10
-1.0418424089
 20
22.2196467673
 10
-1.0323006959
 20
22.2224063253
 10
-1.0221551226
 20
22.2249792802
 10
-1.0115350992
 20
22.227332813
 10
-1.0004345482
 20
22.229464113
 10
-0.9888595471
 20
22.2313759909
 10
-0.9769577391
 20
22.2330440601
 10
-0.9647249379
 20
22.2344651975
 10
-0.9521653298
 20
22.2356425261
 10
-0.939439117
 20
22.2365610288
 10
-0.9265997003
 20
22.2372156997
 10
-0.9135936788
 20
22.2376115447
 10
-0.9004210526
 20
22.2377485637
  0
LWPOLYLINE
  5
4DC
100
AcDbEntity
  8
RACCORDO
100
AcDbPolyline
 62
7
  6
CONTINUOUS
 90
25
 70
0
 10
-6.0504210526
 20
-25.3811616049
 10
-6.0508644555
 20
-25.3852321703
 10
-6.0521454368
 20
-25.3892512519
 10
-6.0542639966
 20
-25.3932188499
 10
-6.0572363336
 20
-25.3971514659
 10
-6.0610462491
 20
-25.4010325983
 10
-6.0656451461
 20
-25.4048127417
 10
-6.0710431315
 20
-25.4084906027
 10
-6.0772300985
 20
-25.4120674747
 10
-6.0841271302
 20
-25.4154977336
 10
-6.0917433223
 20
-25.4187795013
 10
-6.1000695792
 20
-25.4219146559
 10
-6.1089996964
 20
-25.4248632074
 10
-6.1185414093
 20
-25.4276227653
 10
-6.1286869827
 20
-25.4301957202
 10
-6.139307006
 20
-25.432549253
 10
-6.1504075571
 20
-25.434680553
 10
-6.1619825582
 20
-25.436592431
 10
-6.1738843662
 20
-25.4382605002
 10
-6.1861171674
 20
-25.4396816375
 10
-6.1986767754
 20
-25.4408589662
 10
-6.2114029882
 20
-25.4417774688
 10
-6.224242405
 20
-25.4424321398
 10
-6.2372484265
 20
-25.4428279848
 10
-6.2504210526
 20
-25.4429650038
  0
LWPOLYLINE
  5
4DD
100
AcDbEntity
  8
IMPORT_IGES
100
AcDbPolyline
 62
253
  6
CONTINUOUS
 90
3
 70
0
 10
-6.2820260669
 20
-10.1025329187
 10
-6.2689692709
 20
-10.0739150341
 10
-6.2546956015
 20
-10.0438018956
  0
LINE
  5
4DE
100
AcDbEntity
  8
DRAFT
100
AcDbLine
 62
7
  6
CONTINUOUS
 10
-10.6504210526
 20
-12.1261052632
 11
-10.6399489814
 21
-12.1086515276
  0
LINE
  5
4DF
100
AcDbEntity
  8
IMPORT_IGES
100
AcDbLine
 62
7
  6
CONTINUOUS
 10
2.1044324497
 20
2.9754437958
 11
1.9461085099
 21
2.8157174319
  0
LWPOLYLINE
  5
4E0
100
AcDbEntity
  8
RACCORDO
100
AcDbPolyline
 62
7
  6
CONTINUOUS
 90
7
 70
0
 10
-13.1406215901
 20
-11.9784594347
 10
-13.166663267
 20
-12.0046799486
 10
-13.1778263898
 20
-12.0156312213
 10
-13.1868683541
 20
-12.0248380237
 10
-13.1935070788
 20
-12.031958424
 10
-13.198024645
 20
-12.0365934077
 10
-13.2004210526
 20
-12.038381203
  0
LWPOLYLINE
  5
4E1
100
AcDbEntity
  8
RACCORDO
100
AcDbPolyline
 62
7
  6
CONTINUOUS
 90
3
 70
0
 10
-13.0937631283
 20
-11.9316482205
 10
-13.1257430359
 20
-11.963735993
 10
-13.1406215901
 20
-11.9784594347
  0
LINE
  5
4E2
100
AcDbEntity
  8
DRAFT
100
AcDbLine
 62
7
  6
CONTINUOUS
 10
-13.2004210526
 20
-11.2133739411
 11
-13.1131523747
 21
-11.1261052632
  0
LINE
  5
4E3
100
AcDbEntity
  8
RACCORDO
100
AcDbLine
 62
7
  6
CONTINUOUS
 10
-12.9685683391
 20
-11.8063486443
 11
-13.0766617747
 21
-11.9146589111
  0
LINE
  5
4E4
100
AcDbEntity
  8
RACCORDO
100
AcDbLine
 62
7
  6
CONTINUOUS
 10
-13.0766617747
 20
-11.9146589111
 11
-13.0937631283
 21
-11.9316482205
  0
LINE
  5
4E5
100
AcDbEntity
  8
RACCORDO
100
AcDbLine
 62
7
  6
CONTINUOUS
 10
-12.9504210526
 20
-11.7883907223
 11
-12.9685683391
 21
-11.8063486443
  0
LWPOLYLINE
  5
4E6
100
AcDbEntity
  8
IMPORT_IGES
100
AcDbPolyline
 62
253
  6
CONTINUOUS
 90
13
 70
0
 10
5.806311061
 20
-5.01809255
 10
5.8449462449
 20
-5.0176232613
 10
5.88277967
 20
-5.0151178339
 10
5.9191984175
 20
-5.0106431899
 10
5.953448274
 20
-5.0043359175
 10
5.9852026818
 20
-4.9963021641
 10
6.0144297461
 20
-4.9865236462
 10
6.0407065232
 20
-4.9750225323
 10
6.0632491596
 20
-4.9620048265
 10
6.0814528831
 20
-4.9477183441
 10
6.0948872602
 20
-4.9324153624
 10
6.1032433963
 20
-4.9163305035
 10
6.1062653768
 20
-4.8997420636
  0
LWPOLYLINE
  5
4E7
100
AcDbEntity
  8
IMPORT_IGES
100
AcDbPolyline
 62
253
  6
CONTINUOUS
 90
13
 70
0
 10
5.1495789473
 20
-4.3789378133
 10
5.1234565585
 20
-4.3791752789
 10
5.0978120864
 20
-4.3796436487
 10
5.0730814505
 20
-4.3803430793
 10
5.0496968998
 20
-4.3812742242
 10
5.0280341215
 20
-4.3824374662
 10
5.0084178823
 20
-4.3838315175
 10
4.9911872446
 20
-4.3854596824
 10
4.9766387599
 20
-4.3873230303
 10
4.9650042024
 20
-4.3894172316
 10
4.9565041948
 20
-4.3917475329
 10
4.9513227944
 20
-4.3943310745
 10
4.9495789474
 20
-4.3971872488
  0
LINE
  5
4E8
100
AcDbEntity
  8
RACCORDO
100
AcDbLine
 62
7
  6
CONTINUOUS
 10
-13.1131523747
 20
-5.0761052632
 11
-10.704029051
 21
-5.0761052632
  0
LINE
  5
4E9
100
AcDbEntity
  8
RACCORDO
100
AcDbLine
 62
7
  6
CONTINUOUS
 10
8.5123102695
 20
-5.0761052632
 11
6.1031869457
 21
-5.0761052632
  0
LINE
  5
4EA
100
AcDbEntity
  8
IMPORT_IGES
100
AcDbLine
 62
253
  6
CONTINUOUS
 10
5.1495789474
 20
-5.0180929701
 11
5.8063111379
 21
-5.0180925511
  0
LINE
  5
4EB
100
AcDbEntity
  8
IMPORT_IGES
100
AcDbLine
 62
253
  6
CONTINUOUS
 10
-10.4071534234
 20
-5.0180929075
 11
-9.7504210525
 21
-5.0180929367
  0
LINE
  5
4EC
100
AcDbEntity
  8
IMPORT_IGES
100
AcDbLine
 62
253
  6
CONTINUOUS
 10
-7.8504210526
 20
-5.0180928206
 11
-7.0458806882
 21
-5.0180928907
  0
LINE
  5
4ED
100
AcDbEntity
  8
IMPORT_IGES
100
AcDbLine
 62
253
  6
CONTINUOUS
 10
2.4450385829
 20
-5.0180921893
 11
3.2495789474
 21
-5.018090911
  0
LINE
  5
4EE
100
AcDbEntity
  8
RACCORDO
100
AcDbLine
 62
7
  6
CONTINUOUS
 10
-13.2004210526
 20
-4.988381203
 11
-10.7055602802
 21
-4.988381203
  0
LINE
  5
4EF
100
AcDbEntity
  8
RACCORDO
100
AcDbLine
 62
7
  6
CONTINUOUS
 10
6.1047181749
 20
-4.988381203
 11
8.5995789474
 21
-4.988381203
  0
LINE
  5
4F0
100
AcDbEntity
  8
IMPORT_IGES
100
AcDbLine
 62
7
  6
CONTINUOUS
 10
-7.7504210526
 20
-4.9811052632
 11
-7.4004210526
 21
-4.9811052632
  0
LINE
  5
4F1
100
AcDbEntity
  8
IMPORT_IGES
100
AcDbLine
 62
7
  6
CONTINUOUS
 10
2.7995789474
 20
-4.9811052632
 11
3.1495789474
 21
-4.9811052632
  0
LINE
  5
4F2
100
AcDbEntity
  8
IMPORT_IGES
100
AcDbLine
 62
7
  6
CONTINUOUS
 10
-6.7364471982
 20
-4.8621952287
 11
-6.8504210526
 21
-4.8621952287
  0
LINE
  5
4F3
100
AcDbEntity
  8
RACCORDO
100
AcDbLine
 62
253
  6
CONTINUOUS
 10
-12.9504210526
 20
-4.7383907223
 11
-10.7099238802
 21
-4.7383907223
  0
LINE
  5
4F4
100
AcDbEntity
  8
RACCORDO
100
AcDbLine
 62
253
  6
CONTINUOUS
 10
6.109081775
 20
-4.7383907223
 11
8.3495789474
 21
-4.7383907223
  0
LINE
  5
4F5
100
AcDbEntity
  8
IMPORT_IGES
100
AcDbLine
 62
253
  6
CONTINUOUS
 10
-7.7504210526
 20
-4.6811052632
 11
-7.4004210526
 21
-4.6811052632
  0
LINE
  5
4F6
100
AcDbEntity
  8
IMPORT_IGES
100
AcDbLine
 62
253
  6
CONTINUOUS
 10
2.7995789474
 20
-4.6811052632
 11
3.1495789474
 21
-4.6811052632
  0
LINE
  5
4F7
100
AcDbEntity
  8
RACCORDO
100
AcDbLine
 62
253
  6
CONTINUOUS
 10
8.3495789474
 20
-4.4138198041
 11
6.1147471814
 21
-4.4138198041
  0
LINE
  5
4F8
100
AcDbEntity
  8
RACCORDO
100
AcDbLine
 62
253
  6
CONTINUOUS
 10
-10.7155892867
 20
-4.4138198041
 11
-12.9504210526
 21
-4.4138198041
  0
LINE
  5
4F9
100
AcDbEntity
  8
IMPORT_IGES
100
AcDbLine
 62
253
  6
CONTINUOUS
 10
-8.3504210526
 20
-4.3811052632
 11
-8.0504210526
 21
-4.3811052632
  0
LINE
  5
4FA
100
AcDbEntity
  8
IMPORT_IGES
100
AcDbLine
 62
253
  6
CONTINUOUS
 10
-7.1004210526
 20
-4.3811052632
 11
-6.8004210526
 21
-4.3811052632
  0
LINE
  5
4FB
100
AcDbEntity
  8
IMPORT_IGES
100
AcDbLine
 62
253
  6
CONTINUOUS
 10
2.4995789474
 20
-4.3811052632
 11
2.1995789474
 21
-4.3811052632
  0
LINE
  5
4FC
100
AcDbEntity
  8
IMPORT_IGES
100
AcDbLine
 62
253
  6
CONTINUOUS
 10
3.4495789474
 20
-4.3811052632
 11
3.7495789474
 21
-4.3811052633
  0
LINE
  5
4FD
100
AcDbEntity
  8
IMPORT_IGES
100
AcDbLine
 62
7
  6
CONTINUOUS
 10
2.1349452053
 20
-4.8620830035
 11
2.2495789474
 21
-4.8621952287
  0
LWPOLYLINE
  5
4FE
100
AcDbEntity
  8
IMPORT_IGES
100
AcDbPolyline
 62
253
  6
CONTINUOUS
 90
9
 70
0
 10
5.1495783202
 20
-4.3789381643
 10
5.1274380307
 20
-4.3787635723
 10
5.1048243044
 20
-4.3774978612
 10
5.0822360434
 20
-4.3758490747
 10
5.0601797483
 20
-4.3739852218
 10
5.0390560897
 20
-4.3712927732
 10
5.0191832913
 20
-4.3671172291
 10
5.0008970235
 20
-4.3614463879
 10
4.9843205977
 20
-4.3539910445
  0
LWPOLYLINE
  5
4FF
100
AcDbEntity
  8
IMPORT_IGES
100
AcDbPolyline
 62
253
  6
CONTINUOUS
 90
13
 70
0
 10
-9.7504105688
 20
-4.3789393212
 10
-9.7242521716
 20
-4.3791777594
 10
-9.6985782938
 20
-4.3796465474
 10
-9.6738260561
 20
-4.3803453988
 10
-9.6504271101
 20
-4.3812745283
 10
-9.6287586529
 20
-4.3824351306
 10
-9.6091480871
 20
-4.3838280866
 10
-9.5919333416
 20
-4.3854593951
 10
-9.577406755
 20
-4.3873279278
 10
-9.5657964117
 20
-4.3894243888
 10
-9.5573192909
 20
-4.3917526437
 10
-9.5521557785
 20
-4.3943318329
 10
-9.5504210527
 20
-4.397178498
  0
LWPOLYLINE
  5
500
100
AcDbEntity
  8
IMPORT_IGES
100
AcDbPolyline
 62
253
  6
CONTINUOUS
 90
13
 70
0
 10
5.1495789474
 20
-5.0180929704
 10
5.1237686278
 20
-5.0174040055
 10
5.0984767539
 20
-5.0153580907
 10
5.074116745
 20
-5.0120031589
 10
5.0511928844
 20
-5.0074344011
 10
5.0299360351
 20
-5.0017248076
 10
5.0103889248
 20
-4.9948660852
 10
4.992843235
 20
-4.9868804391
 10
4.9778217899
 20
-4.9779136633
 10
4.9657312975
 20
-4.9681393421
 10
4.9568614974
 20
-4.9577327103
 10
4.9514203612
 20
-4.9468564064
 10
4.9495789474
 20
-4.9357018957
  0
LWPOLYLINE
  5
501
100
AcDbEntity
  8
RACCORDO
100
AcDbPolyline
 62
7
  6
CONTINUOUS
 90
3
 70
0
 10
-13.0937195366
 20
4.8146526404
 10
-13.1259448479
 20
4.8467666167
 10
-13.1407229218
 20
4.8617001764
  0
LWPOLYLINE
  5
502
100
AcDbEntity
  8
RACCORDO
100
AcDbPolyline
 62
7
  6
CONTINUOUS
 90
3
 70
0
 10
8.4927454918
 20
-15.9316420193
 10
8.5249825138
 20
-15.9637673063
 10
8.5397687698
 20
-15.9787084921
  0
LWPOLYLINE
  5
503
100
AcDbEntity
  8
RACCORDO
100
AcDbPolyline
 62
7
  6
CONTINUOUS
 90
3
 70
0
 10
-12.9682815943
 20
4.6893201807
 10
-13.0229235997
 20
4.7437432795
 10
-13.076653065
 20
4.7974722238
  0
LWPOLYLINE
  5
504
100
AcDbEntity
  8
RACCORDO
100
AcDbPolyline
 62
7
  6
CONTINUOUS
 90
7
 70
0
 10
-13.1407229218
 20
4.8617001764
 10
-13.1669471622
 20
4.8877755938
 10
-13.1778605604
 20
4.8989174514
 10
-13.1870739227
 20
4.9079220221
 10
-13.1942119834
 20
4.9145094948
 10
-13.1988004649
 20
4.9189596804
 10
-13.2004210526
 20
4.921272579
  0
LWPOLYLINE
  5
505
100
AcDbEntity
  8
RACCORDO
100
AcDbPolyline
 62
7
  6
CONTINUOUS
 90
7
 70
0
 10
8.5397687698
 20
-15.9787084921
 10
8.565998839
 20
-16.0047977033
 10
8.5769153686
 20
-16.0159457288
 10
8.5861515176
 20
-16.0249632925
 10
8.5933253139
 20
-16.0315727375
 10
8.5979449245
 20
-16.0360517206
 10
8.5995789474
 20
-16.0384002419
  0
LINE
  5
506
100
AcDbEntity
  8
DRAFT
100
AcDbLine
 62
7
  6
CONTINUOUS
 10
6.0495789474
 20
-13.5261052632
 11
6.0391068762
 21
-13.5156331919
  0
LINE
  5
507
100
AcDbEntity
  8
RACCORDO
100
AcDbLine
 62
7
  6
CONTINUOUS
 10
8.3673996475
 20
-15.8064015015
 11
8.475675336
 21
-15.914457918
  0
LINE
  5
508
100
AcDbEntity
  8
RACCORDO
100
AcDbLine
 62
7
  6
CONTINUOUS
 10
-13.076653065
 20
4.7974722238
 11
-13.0937195366
 21
4.8146526404
  0
LINE
  5
509
100
AcDbEntity
  8
RACCORDO
100
AcDbLine
 62
7
  6
CONTINUOUS
 10
8.475675336
 20
-15.914457918
 11
8.4927454918
 21
-15.9316420193
  0
LINE
  5
50A
100
AcDbEntity
  8
RACCORDO
100
AcDbLine
 62
7
  6
CONTINUOUS
 10
-12.9504210526
 20
4.671269152
 11
-12.9682815943
 21
4.6893201807
  0
LINE
  5
50B
100
AcDbEntity
  8
RACCORDO
100
AcDbLine
 62
7
  6
CONTINUOUS
 10
8.3495789474
 20
-15.7883907223
 11
8.3673996475
 21
-15.8064015015
  0
LWPOLYLINE
  5
50C
100
AcDbEntity
  8
IMPORT_IGES
100
AcDbPolyline
 62
253
  6
CONTINUOUS
 90
10
 70
0
 10
5.1495789157
 20
-14.1073699135
 10
5.1620881516
 20
-14.1218797777
 10
5.1745459027
 20
-14.1342022291
 10
5.1868011524
 20
-14.1442849423
 10
5.1986678581
 20
-14.1521243688
 10
5.210046437
 20
-14.1576724825
 10
5.2209282398
 20
-14.1608479382
 10
5.2312355595
 20
-14.1616544632
 10
5.2408188708
 20
-14.1601686131
 10
5.2495780173
 20
-14.1564549698
  0
LWPOLYLINE
  5
50D
100
AcDbEntity
  8
IMPORT_IGES
100
AcDbPolyline
 62
253
  6
CONTINUOUS
 90
10
 70
0
 10
1.7960378994
 20
-9.9999267916
 10
1.8117888741
 20
-10.0207766996
 10
1.8258894725
 20
-10.0428363625
 10
1.8383396946
 20
-10.0661057801
 10
1.8492583035
 20
-10.0906290853
 10
1.858526536
 20
-10.1163621454
 10
1.8657881025
 20
-10.143172562
 10
1.8709242396
 20
-10.1710162024
 10
1.8740537106
 20
-10.1999371995
 10
1.8751765155
 20
-10.2299355531
  0
LWPOLYLINE
  5
50E
100
AcDbEntity
  8
IMPORT_IGES
100
AcDbPolyline
 62
253
  6
CONTINUOUS
 90
10
 70
0
 10
-10.2594882725
 20
5.714334203
 10
-10.2868262714
 20
5.7553297874
 10
-10.3146565693
 20
5.7907981664
 10
-10.3423089683
 20
5.8203586409
 10
-10.3691908344
 20
5.8441161595
 10
-10.394433552
 20
5.8612640115
 10
-10.4172433237
 20
5.8707630917
 10
-10.437349727
 20
5.8728872513
 10
-10.4546560463
 20
5.868533782
 10
-10.4691045631
 20
5.858271303
  0
LWPOLYLINE
  5
50F
100
AcDbEntity
  8
IMPORT_IGES
100
AcDbPolyline
 62
253
  6
CONTINUOUS
 90
3
 70
0
 10
4.072722366
 20
-14.8359128954
 10
4.071865697
 20
-14.8345490862
 10
4.0693593694
 20
-14.8303278797
  0
LINE
  5
510
100
AcDbEntity
  8
IMPORT_IGES
100
AcDbLine
 62
253
  6
CONTINUOUS
 10
4.0693593694
 20
-14.8303278797
 11
4.044383238
 21
-14.7874858025
  0
LINE
  5
511
100
AcDbEntity
  8
IMPORT_IGES
100
AcDbLine
 62
253
  6
CONTINUOUS
 10
4.044383238
 20
-14.7874858025
 11
3.9727217915
 21
-14.6636537491
  0
LWPOLYLINE
  5
512
100
AcDbEntity
  8
RACCORDO
100
AcDbPolyline
 62
7
  6
CONTINUOUS
 90
24
 70
0
 10
1.4495789474
 20
-25.0007389984
 10
1.4500223503
 20
-25.0048095637
 10
1.4513033316
 20
-25.0088286454
 10
1.4534218913
 20
-25.0127962434
 10
1.4563942283
 20
-25.0167288594
 10
1.4602041438
 20
-25.0206099918
 10
1.4648030409
 20
-25.0243901352
 10
1.4702010262
 20
-25.0280679961
 10
1.4763879932
 20
-25.0316448682
 10
1.4832850249
 20
-25.0350751271
 10
1.4909012171
 20
-25.0383568948
 10
1.4992274739
 20
-25.0414920494
 10
1.5081575911
 20
-25.0444406008
 10
1.5176993041
 20
-25.0472001588
 10
1.5278448774
 20
-25.0497731137
 10
1.5384649008
 20
-25.0521266465
 10
1.5495654518
 20
-25.0542579465
 10
1.5611404529
 20
-25.0561698244
 10
1.5730422609
 20
-25.0578378937
 10
1.5852750621
 20
-25.059259031
 10
1.5978346702
 20
-25.0604363596
 10
1.610560883
 20
-25.0613548623
 10
1.6234002997
 20
-25.0620095333
 10
1.6364063212
 20
-25.0624053782
  0
LWPOLYLINE
  5
513
100
AcDbEntity
  8
RACCORDO
100
AcDbPolyline
 62
7
  6
CONTINUOUS
 90
25
 70
0
 10
-3.5004210526
 20
21.7955225584
 10
-3.5008644555
 20
21.7995931237
 10
-3.5021454368
 20
21.8036122054
 10
-3.5042639966
 20
21.8075798033
 10
-3.5072363336
 20
21.8115124194
 10
-3.5110462491
 20
21.8153935517
 10
-3.5156451461
 20
21.8191736952
 10
-3.5210431315
 20
21.8228515561
 10
-3.5272300985
 20
21.8264284281
 10
-3.5341271302
 20
21.8298586871
 10
-3.5417433223
 20
21.8331404548
 10
-3.5500695792
 20
21.8362756093
 10
-3.5589996964
 20
21.8392241608
 10
-3.5685414093
 20
21.8419837188
 10
-3.5786869827
 20
21.8445566736
 10
-3.589307006
 20
21.8469102065
 10
-3.6004075571
 20
21.8490415065
 10
-3.6119825582
 20
21.8509533844
 10
-3.6238843662
 20
21.8526214536
 10
-3.6361171674
 20
21.854042591
 10
-3.6486767754
 20
21.8552199196
 10
-3.6614029882
 20
21.8561384222
 10
-3.674242405
 20
21.8567930932
 10
-3.6872484265
 20
21.8571889382
 10
-3.7004210526
 20
21.8573259572
  0
LINE
  5
514
100
AcDbEntity
  8
0
100
AcDbLine
 62
253
  6
CONTINUOUS
 10
-2.6087485217
 20
-15.1761342636
 11
-2.6087485217
 21
-15.2761342636
  0
LINE
  5
515
100
AcDbEntity
  8
0
100
AcDbLine
 62
253
  6
CONTINUOUS
 10
-2.5156523092
 20
-15.1761342636
 11
-2.5156523092
 21
-15.2761342636
  0
LINE
  5
516
100
AcDbEntity
  8
RACCORDO
100
AcDbLine
 62
253
  6
CONTINUOUS
 10
-2.5004210526
 20
-22.3761052632
 11
-2.5004210526
 21
-22.6117935488
  0
LINE
  5
517
100
AcDbEntity
  8
0
100
AcDbLine
 62
7
  6
CONTINUOUS
 10
-2.3901006086
 20
-15.1761342636
 11
-2.3901006086
 21
-15.2761342636
  0
LINE
  5
518
100
AcDbEntity
  8
RACCORDO
100
AcDbLine
 62
253
  6
CONTINUOUS
 10
-2.1004210526
 20
-22.6117935488
 11
-2.1004210526
 21
-22.3761052632
  0
LINE
  5
519
100
AcDbEntity
  8
0
100
AcDbLine
 62
7
  6
CONTINUOUS
 10
-1.8998517377
 20
-15.1761342636
 11
-1.8998517377
 21
-15.2761342636
  0
LINE
  5
51A
100
AcDbEntity
  8
RACCORDO
100
AcDbLine
 62
7
  6
CONTINUOUS
 10
-1.8004210526
 20
-22.6117935488
 11
-1.8004210526
 21
-22.3761052632
  0
LINE
  5
51B
100
AcDbEntity
  8
0
100
AcDbLine
 62
253
  6
CONTINUOUS
 10
-1.7486772878
 20
-15.1761342636
 11
-1.7486772878
 21
-15.2761342636
  0
LINE
  5
51C
100
AcDbEntity
  8
IMPORT_IGES
100
AcDbLine
 62
7
  6
CONTINUOUS
 10
-1.7004210526
 20
0.7139301879
 11
-1.7004210526
 21
-0.0761052632
  0
LINE
  5
51D
100
AcDbEntity
  8
0
100
AcDbLine
 62
253
  6
CONTINUOUS
 10
-1.6598516984
 20
-15.1761342636
 11
-1.6598516984
 21
-15.2761342636
  0
LINE
  5
51E
100
AcDbEntity
  8
0
100
AcDbLine
 62
7
  6
CONTINUOUS
 10
-1.5573603971
 20
-15.1761342636
 11
-1.5573603971
 21
-15.2761342636
  0
LINE
  5
51F
100
AcDbEntity
  8
0
100
AcDbLine
 62
7
  6
CONTINUOUS
 10
-1.5135733998
 20
-15.2761342636
 11
-1.5135733998
 21
-15.1761342636
  0
LINE
  5
520
100
AcDbEntity
  8
0
100
AcDbLine
 62
7
  6
CONTINUOUS
 10
-1.4926390543
 20
-15.1761342636
 11
-1.4926390543
 21
-15.2761342636
  0
LINE
  5
521
100
AcDbEntity
  8
0
100
AcDbLine
 62
7
  6
CONTINUOUS
 10
-1.479741025
 20
-15.1761342636
 11
-1.479741025
 21
-15.2761342636
  0
LINE
  5
522
100
AcDbEntity
  8
0
100
AcDbLine
 62
7
  6
CONTINUOUS
 10
-1.4745134695
 20
-15.1761342636
 11
-1.4745134695
 21
-15.2761342636
  0
LINE
  5
523
100
AcDbEntity
  8
0
100
AcDbLine
 62
253
  6
CONTINUOUS
 10
-1.3506701034
 20
-15.1761342636
 11
-1.3506701034
 21
-15.2761342636
  0
LINE
  5
524
100
AcDbEntity
  8
0
100
AcDbLine
 62
253
  6
CONTINUOUS
 10
-1.2575741155
 20
-15.1761342636
 11
-1.2575741155
 21
-15.2761342636
  0
LINE
  5
525
100
AcDbEntity
  8
IMPORT_IGES
100
AcDbLine
 62
7
  6
CONTINUOUS
 10
-1.1955675503
 20
-8.4671943431
 11
-1.1955675503
 21
-8.280929534
  0
LINE
  5
526
100
AcDbEntity
  8
IMPORT_IGES
100
AcDbLine
 62
7
  6
CONTINUOUS
 10
-1.1955675503
 20
0.4111181995
 11
-1.1955675503
 21
0.6149522827
  0
LINE
  5
527
100
AcDbEntity
  8
0
100
AcDbLine
 62
7
  6
CONTINUOUS
 10
-1.1320224149
 20
-15.1761342636
 11
-1.1320224149
 21
-15.2761342636
  0
LINE
  5
528
100
AcDbEntity
  8
RACCORDO
100
AcDbLine
 62
7
  6
CONTINUOUS
 10
-1.1004210526
 20
-27.4281556912
 11
-1.1004210526
 21
-26.5320064075
  0
LINE
  5
529
100
AcDbEntity
  8
RACCORDO
100
AcDbLine
 62
7
  6
CONTINUOUS
 10
-1.1004210526
 20
21.2797958812
 11
-1.1004210526
 21
22.1759451649
  0
LINE
  5
52A
100
AcDbEntity
  8
RACCORDO
100
AcDbLine
 62
253
  6
CONTINUOUS
 10
-0.9004210526
 20
22.2377485637
 11
-0.9004210526
 21
21.8573259572
  0
LINE
  5
52B
100
AcDbEntity
  8
RACCORDO
100
AcDbLine
 62
253
  6
CONTINUOUS
 10
-0.9004210526
 20
-27.4899590901
 11
-0.9004210526
 21
-27.1095364835
  0
LINE
  5
52C
100
AcDbEntity
  8
IMPORT_IGES
100
AcDbLine
 62
7
  6
CONTINUOUS
 10
-0.8955675503
 20
-8.380619197
 11
-0.8955675503
 21
-7.6154489774
  0
LINE
  5
52D
100
AcDbEntity
  8
IMPORT_IGES
100
AcDbLine
 62
7
  6
CONTINUOUS
 10
-0.8955675503
 20
-0.349914787
 11
-0.8955675503
 21
0.5284292903
  0
LWPOLYLINE
  5
52E
100
AcDbEntity
  8
RACCORDO
100
AcDbPolyline
 62
7
  6
CONTINUOUS
 90
34
 70
0
 10
-0.0425668716
 20
14.6010039635
 10
-0.0389113562
 20
14.6773242332
 10
-0.030535205
 20
14.7500605414
 10
-0.0174384181
 20
14.8192128883
 10
0.0008709394
 20
14.885237534
 10
0.0239009326
 20
14.9476782183
 10
0.050175757
 20
15.0051661603
 10
0.0795094051
 20
15.0572912664
 10
0.1120878843
 20
15.1044636302
 10
0.1469934122
 20
15.1465447519
 10
0.1841765624
 20
15.1836045142
 10
0.2236867613
 20
15.2155730344
 10
0.2647545054
 20
15.2421021653
 10
0.3075943204
 20
15.2631805478
 10
0.3519916806
 20
15.278819541
 10
0.3965335059
 20
15.2887050747
 10
0.440948594
 20
15.2927072091
 10
0.4855081472
 20
15.2909558841
 10
0.5296126922
 20
15.2835268499
 10
0.573349714
 20
15.2704767269
 10
0.6166317276
 20
15.2517488947
 10
0.6585968044
 20
15.2272492414
 10
0.6994300686
 20
15.1967335086
 10
0.7389463961
 20
15.1604459547
 10
0.7757284854
 20
15.1190252436
 10
0.8097476536
 20
15.0719419631
 10
0.8410325837
 20
15.0197255253
 10
0.868252023
 20
14.964602831
 10
0.8910291123
 20
14.9064378512
 10
0.9097407108
 20
14.8453666149
 10
0.924186143
 20
14.7840241092
 10
0.9342985171
 20
14.7232886633
 10
0.9401447249
 20
14.662281948
 10
0.9417247664
 20
14.6010039635
  0
LWPOLYLINE
  5
52F
100
AcDbEntity
  8
RACCORDO
100
AcDbPolyline
 62
7
  6
CONTINUOUS
 90
25
 70
0
 10
1.4495789474
 20
20.1289510786
 10
1.4500223503
 20
20.1330216439
 10
1.4513033316
 20
20.1370407256
 10
1.4534218913
 20
20.1410083236
 10
1.4563942283
 20
20.1449409396
 10
1.4602041438
 20
20.148822072
 10
1.4648030409
 20
20.1526022154
 10
1.4702010262
 20
20.1562800763
 10
1.4763879932
 20
20.1598569484
 10
1.4832850249
 20
20.1632872073
 10
1.4909012171
 20
20.166568975
 10
1.4992274739
 20
20.1697041296
 10
1.5081575911
 20
20.172652681
 10
1.5176993041
 20
20.175412239
 10
1.5278448774
 20
20.1779851939
 10
1.5384649008
 20
20.1803387267
 10
1.5495654518
 20
20.1824700267
 10
1.5611404529
 20
20.1843819046
 10
1.5730422609
 20
20.1860499739
 10
1.5852750621
 20
20.1874711112
 10
1.5978346702
 20
20.1886484398
 10
1.610560883
 20
20.1895669425
 10
1.6234002997
 20
20.1902216135
 10
1.6364063212
 20
20.1906174584
 10
1.6495789474
 20
20.1907544775
  0
LWPOLYLINE
  5
530
100
AcDbEntity
  8
RACCORDO
100
AcDbPolyline
 62
7
  6
CONTINUOUS
 90
25
 70
0
 10
-3.5004210526
 20
-27.4281556912
 10
-3.5008644555
 20
-27.4322262565
 10
-3.5021454368
 20
-27.4362453382
 10
-3.5042639966
 20
-27.4402129362
 10
-3.5072363336
 20
-27.4441455522
 10
-3.5110462491
 20
-27.4480266845
 10
-3.5156451461
 20
-27.451806828
 10
-3.5210431315
 20
-27.4554846889
 10
-3.5272300985
 20
-27.459061561
 10
-3.5341271302
 20
-27.4624918199
 10
-3.5417433223
 20
-27.4657735876
 10
-3.5500695792
 20
-27.4689087422
 10
-3.5589996964
 20
-27.4718572936
 10
-3.5685414093
 20
-27.4746168516
 10
-3.5786869827
 20
-27.4771898065
 10
-3.589307006
 20
-27.4795433393
 10
-3.6004075571
 20
-27.4816746393
 10
-3.6119825582
 20
-27.4835865172
 10
-3.6238843662
 20
-27.4852545864
 10
-3.6361171674
 20
-27.4866757238
 10
-3.6486767754
 20
-27.4878530524
 10
-3.6614029882
 20
-27.4887715551
 10
-3.674242405
 20
-27.489426226
 10
-3.6872484265
 20
-27.489822071
 10
-3.7004210526
 20
-27.4899590901
  0
LINE
  5
531
100
AcDbEntity
  8
IMPORT_IGES
100
AcDbLine
 62
253
  6
CONTINUOUS
 10
-6.2546956015
 20
-10.0438018956
 11
-6.2064870398
 21
-9.9442615535
  0
LINE
  5
532
100
AcDbEntity
  8
IMPORT_IGES
100
AcDbLine
 62
253
  6
CONTINUOUS
 10
-6.1517028786
 20
-9.8334956146
 11
-6.1325439587
 21
-9.7943255249
  0
LWPOLYLINE
  5
533
100
AcDbEntity
  8
IMPORT_IGES
100
AcDbPolyline
 62
253
  6
CONTINUOUS
 90
3
 70
0
 10
-6.2064870398
 20
-9.9442615535
 10
-6.1888934779
 20
-9.9084058307
 10
-6.1517028786
 20
-9.8334956146
  0
LINE
  5
534
100
AcDbEntity
  8
IMPORT_IGES
100
AcDbLine
 62
253
  6
CONTINUOUS
 10
-8.5735642481
 20
-14.6636542801
 11
-8.6592074885
 21
-14.8115313982
  0
LINE
  5
535
100
AcDbEntity
  8
IMPORT_IGES
100
AcDbLine
 62
253
  6
CONTINUOUS
 10
-9.3504260538
 20
-14.2172964926
 11
-9.3988817953
 21
-14.3008200638
  0
LWPOLYLINE
  5
536
100
AcDbEntity
  8
IMPORT_IGES
100
AcDbPolyline
 62
253
  6
CONTINUOUS
 90
4
 70
0
 10
-8.6592074885
 20
-14.8115313982
 10
-8.6698374039
 20
-14.8297098301
 10
-8.6725990228
 20
-14.8343681814
 10
-8.6735633452
 20
-14.8359130129
  0
LINE
  5
537
100
AcDbEntity
  8
IMPORT_IGES
100
AcDbLine
 62
253
  6
CONTINUOUS
 10
-9.3988817953
 20
-14.3008200638
 11
-9.4282540003
 21
-14.3509230315
  0
LWPOLYLINE
  5
538
100
AcDbEntity
  8
IMPORT_IGES
100
AcDbPolyline
 62
253
  6
CONTINUOUS
 90
5
 70
0
 10
-9.4282540003
 20
-14.3509230315
 10
-9.4418539595
 20
-14.3737865393
 10
-9.4464990416
 20
-14.3814355663
 10
-9.4493807533
 20
-14.3860127316
 10
-9.4504206503
 20
-14.3873938171
  0
LINE
  5
539
100
AcDbEntity
  8
IMPORT_IGES
100
AcDbLine
 62
7
  6
CONTINUOUS
 10
-7.8504210526
 20
-11.7712453183
 11
-7.9203382344
 21
-11.8804052522
  0
LINE
  5
53A
100
AcDbEntity
  8
IMPORT_IGES
100
AcDbLine
 62
253
  6
CONTINUOUS
 10
0.5139628234
 20
2.5081394292
 11
0.6243308185
 21
2.6749294339
  0
LWPOLYLINE
  5
53B
100
AcDbEntity
  8
IMPORT_IGES
100
AcDbPolyline
 62
253
  6
CONTINUOUS
 90
10
 70
0
 10
-6.3968804395
 20
-9.9999336596
 10
-6.412774738
 20
-10.0210360818
 10
-6.4269710248
 20
-10.0432889517
 10
-6.4394692999
 20
-10.0666922693
 10
-6.4503720185
 20
-10.0912955045
 10
-6.4595767254
 20
-10.1170491874
 10
-6.4667760555
 20
-10.1438049079
 10
-6.4718675537
 20
-10.1715131961
 10
-6.4749536752
 20
-10.2002235221
 10
-6.47603442
 20
-10.2299358857
  0
LWPOLYLINE
  5
53C
100
AcDbEntity
  8
IMPORT_IGES
100
AcDbPolyline
 62
253
  6
CONTINUOUS
 90
7
 70
0
 10
-9.596794352
 20
-4.3589214597
 10
-9.6160693512
 20
-4.3656349846
 10
-9.6371119266
 20
-4.3707799091
 10
-9.6596867698
 20
-4.3740828312
 10
-9.6828742572
 20
-4.3762290838
 10
-9.7059997146
 20
-4.3780071879
 10
-9.7286684786
 20
-4.3790787465
  0
LWPOLYLINE
  5
53D
100
AcDbEntity
  8
IMPORT_IGES
100
AcDbPolyline
 62
7
  6
CONTINUOUS
 90
10
 70
0
 10
-9.3505788245
 20
-4.1971614976
 10
-9.3722579292
 20
-4.1983591678
 10
-9.394332142
 20
-4.2020240992
 10
-9.4164998385
 20
-4.2083241211
 10
-9.438697963
 20
-4.2175429835
 10
-9.4602271196
 20
-4.2296998762
 10
-9.4799862729
 20
-4.2441652894
 10
-9.4976783738
 20
-4.2603513909
 10
-9.5136019473
 20
-4.2781235576
 10
-9.5279397612
 20
-4.2971867158
  0
LINE
  5
53E
100
AcDbEntity
  8
IMPORT_IGES
100
AcDbLine
 62
253
  6
CONTINUOUS
 10
-10.419332351
 20
-4.1971893692
 11
-10.7192792322
 21
-4.202422968
  0
LINE
  5
53F
100
AcDbEntity
  8
IMPORT_IGES
100
AcDbLine
 62
253
  6
CONTINUOUS
 10
5.0970771928
 20
-4.1971902171
 11
5.8189637624
 21
-4.1971874131
  0
LINE
  5
540
100
AcDbEntity
  8
IMPORT_IGES
100
AcDbLine
 62
253
  6
CONTINUOUS
 10
-10.419332351
 20
-4.1971906737
 11
-9.6979191522
 21
-4.1971919782
  0
LINE
  5
541
100
AcDbEntity
  8
IMPORT_IGES
100
AcDbLine
 62
7
  6
CONTINUOUS
 10
3.7495789474
 20
-4.1971872462
 11
4.7497337511
 21
-4.1971872463
  0
LINE
  5
542
100
AcDbEntity
  8
IMPORT_IGES
100
AcDbLine
 62
7
  6
CONTINUOUS
 10
-8.3504210526
 20
-4.1971872463
 11
-9.3504377535
 21
-4.1971872462
  0
LINE
  5
543
100
AcDbEntity
  8
RACCORDO
100
AcDbLine
 62
7
  6
CONTINUOUS
 10
8.5995789474
 20
-4.1638293233
 11
6.1184371271
 21
-4.1638293233
  0
LINE
  5
544
100
AcDbEntity
  8
RACCORDO
100
AcDbLine
 62
7
  6
CONTINUOUS
 10
-10.7192792322
 20
-4.1638293233
 11
-13.2004210526
 21
-4.1638293233
  0
LINE
  5
545
100
AcDbEntity
  8
RACCORDO
100
AcDbLine
 62
7
  6
CONTINUOUS
 10
-13.1131523747
 20
-4.0761052632
 11
-10.7214841159
 21
-4.0761052632
  0
LINE
  5
546
100
AcDbEntity
  8
RACCORDO
100
AcDbLine
 62
7
  6
CONTINUOUS
 10
8.5123102695
 20
-4.0761052632
 11
6.1206420107
 21
-4.0761052632
  0
LINE
  5
547
100
AcDbEntity
  8
IMPORT_IGES
100
AcDbLine
 62
253
  6
CONTINUOUS
 10
3.8056520183
 20
-3.9971880571
 11
4.7497331483
 21
-3.9971875469
  0
LINE
  5
548
100
AcDbEntity
  8
IMPORT_IGES
100
AcDbLine
 62
253
  6
CONTINUOUS
 10
-9.3505780274
 20
-3.9971874829
 11
-8.406502873
 21
-3.9971868692
  0
LINE
  5
549
100
AcDbEntity
  8
IMPORT_IGES
100
AcDbLine
 62
7
  6
CONTINUOUS
 10
-10.7231423471
 20
-3.9811052632
 11
-10.4224749954
 21
-3.9811051707
  0
LINE
  5
54A
100
AcDbEntity
  8
IMPORT_IGES
100
AcDbLine
 62
7
  6
CONTINUOUS
 10
6.1223002418
 20
-3.9811052632
 11
5.8219513245
 21
-3.9810996536
  0
LINE
  5
54B
100
AcDbEntity
  8
IMPORT_IGES
100
AcDbLine
 62
253
  6
CONTINUOUS
 10
4.0495789473
 20
-3.3811052632
 11
3.7495789474
 21
-3.3811052632
  0
LINE
  5
54C
100
AcDbEntity
  8
IMPORT_IGES
100
AcDbLine
 62
253
  6
CONTINUOUS
 10
-8.3504210526
 20
-3.3811052632
 11
-8.6504210526
 21
-3.3811052632
  0
LINE
  5
54D
100
AcDbEntity
  8
IMPORT_IGES
100
AcDbLine
 62
253
  6
CONTINUOUS
 10
5.8184828224
 20
-4.1971870185
 11
6.1184371269
 21
-4.2024229682
  0
LWPOLYLINE
  5
54E
100
AcDbEntity
  8
IMPORT_IGES
100
AcDbPolyline
 62
253
  6
CONTINUOUS
 90
10
 70
0
 10
4.7497331483
 20
-3.9971875469
 10
4.7951605658
 20
-4.0002192072
 10
4.8393727807
 20
-4.0082494816
 10
4.882369793
 20
-4.0212783702
 10
4.924809211
 20
-4.0395737389
 10
4.9660334263
 20
-4.0628677218
 10
5.0040696146
 20
-4.0903567208
 10
5.0382601677
 20
-4.1217728701
 10
5.0692626938
 20
-4.1573840355
 10
5.0970771928
 20
-4.1971902171
  0
LWPOLYLINE
  5
54F
100
AcDbEntity
  8
RACCORDO
100
AcDbPolyline
 62
7
  6
CONTINUOUS
 90
6
 70
0
 10
8.5658211618
 20
-12.0046799486
 10
8.5769842846
 20
-12.0156312213
 10
8.5860262488
 20
-12.0248380237
 10
8.5926649736
 20
-12.031958424
 10
8.5971825398
 20
-12.0365934077
 10
8.5995789474
 20
-12.038381203
  0
LWPOLYLINE
  5
550
100
AcDbEntity
  8
RACCORDO
100
AcDbPolyline
 62
7
  6
CONTINUOUS
 90
3
 70
0
 10
8.5249009307
 20
-11.963735993
 10
8.5397794848
 20
-11.9784594347
 10
8.5658211618
 20
-12.0046799486
  0
LINE
  5
551
100
AcDbEntity
  8
RACCORDO
100
AcDbLine
 62
7
  6
CONTINUOUS
 10
8.3495789474
 20
-11.7883907223
 11
8.3677262339
 21
-11.8063486443
  0
LINE
  5
552
100
AcDbEntity
  8
IMPORT_IGES
100
AcDbLine
 62
7
  6
CONTINUOUS
 10
-6.5507867489
 20
2.8195875459
 11
-6.705274555
 21
2.9754437958
  0
LINE
  5
553
100
AcDbEntity
  8
RACCORDO
100
AcDbLine
 62
7
  6
CONTINUOUS
 10
8.3677262339
 20
-11.8063486443
 11
8.5249009307
 21
-11.963735993
  0
LINE
  5
554
100
AcDbEntity
  8
IMPORT_IGES
100
AcDbLine
 62
253
  6
CONTINUOUS
 10
-5.2251729238
 20
2.6749294339
 11
-5.1148049287
 21
2.5081394292
  0
LINE
  5
555
100
AcDbEntity
  8
IMPORT_IGES
100
AcDbLine
 62
7
  6
CONTINUOUS
 10
3.3194961292
 20
-11.8804052523
 11
3.2495789474
 21
-11.7712372262
  0
LWPOLYLINE
  5
556
100
AcDbEntity
  8
IMPORT_IGES
100
AcDbPolyline
 62
253
  6
CONTINUOUS
 90
4
 70
0
 10
4.8410812239
 20
-14.3739011228
 10
4.8456952807
 20
-14.3814964688
 10
4.8485512166
 20
-14.3860299967
 10
4.8495787291
 20
-14.3873922635
  0
LINE
  5
557
100
AcDbEntity
  8
IMPORT_IGES
100
AcDbLine
 62
253
  6
CONTINUOUS
 10
4.8275935197
 20
-14.3512316369
 11
4.8410812239
 21
-14.3739011228
  0
LINE
  5
558
100
AcDbEntity
  8
IMPORT_IGES
100
AcDbLine
 62
253
  6
CONTINUOUS
 10
4.7985085765
 20
-14.3016263462
 11
4.8275935197
 21
-14.3512316369
  0
LINE
  5
559
100
AcDbEntity
  8
IMPORT_IGES
100
AcDbLine
 62
253
  6
CONTINUOUS
 10
4.7495828014
 20
-14.2172967493
 11
4.7985085765
 21
-14.3016263462
  0
LWPOLYLINE
  5
55A
100
AcDbEntity
  8
IMPORT_IGES
100
AcDbPolyline
 62
253
  6
CONTINUOUS
 90
3
 70
0
 10
1.5880305081
 20
-9.9083633325
 10
1.6056220391
 20
-9.9442149878
 10
1.6538394553
 20
-10.0437710464
  0
LWPOLYLINE
  5
55B
100
AcDbEntity
  8
IMPORT_IGES
100
AcDbPolyline
 62
253
  6
CONTINUOUS
 90
3
 70
0
 10
1.5317018533
 20
-9.794325525
 10
1.5508512948
 20
-9.8334764663
 10
1.5880305081
 20
-9.9083633325
  0
LWPOLYLINE
  5
55C
100
AcDbEntity
  8
IMPORT_IGES
100
AcDbPolyline
 62
253
  6
CONTINUOUS
 90
3
 70
0
 10
1.6538394553
 20
-10.0437710464
 10
1.6681200726
 20
-10.0738981108
 10
1.681184585
 20
-10.1025342853
  0
LWPOLYLINE
  5
55D
100
AcDbEntity
  8
IMPORT_IGES
100
AcDbPolyline
 62
253
  6
CONTINUOUS
 90
10
 70
0
 10
1.681184585
 20
-10.1025342853
 10
1.6904560201
 20
-10.1249358678
 10
1.6986925812
 20
-10.1481938947
 10
1.7058570261
 20
-10.17230981
 10
1.7118912671
 20
-10.1973181525
 10
1.7168115744
 20
-10.2231878288
 10
1.7206558873
 20
-10.2498210503
 10
1.7233787317
 20
-10.2771855539
 10
1.7249045833
 20
-10.3053156573
 10
1.725187487
 20
-10.3341873102
  0
LINE
  5
55E
100
AcDbEntity
  8
0
100
AcDbLine
 62
7
  6
CONTINUOUS
 10
1.1248988184
 20
-22.7053752483
 11
1.1268429662
 21
-22.7546791284
  0
LINE
  5
55F
100
AcDbEntity
  8
DRAFT
100
AcDbLine
 62
7
  6
CONTINUOUS
 10
1.7000543441
 20
-23.6397188451
 11
1.6995789474
 21
-23.6261052632
  0
LINE
  5
560
100
AcDbEntity
  8
0
100
AcDbLine
 62
7
  6
CONTINUOUS
 10
1.1268429662
 20
-22.7546791284
 11
1.1297592611
 21
-22.8427467
  0
LINE
  5
561
100
AcDbEntity
  8
0
100
AcDbLine
 62
7
  6
CONTINUOUS
 10
1.1297592611
 20
-22.8427467
 11
1.1346197587
 21
-23.0117935488
  0
LINE
  5
562
100
AcDbEntity
  8
RACCORDO
100
AcDbLine
 62
253
  6
CONTINUOUS
 10
-0.0425668716
 20
14.6010039635
 11
0.022611663
 21
7.2238947368
  0
LINE
  5
563
100
AcDbEntity
  8
0
100
AcDbLine
 62
7
  6
CONTINUOUS
 10
-0.641773401
 20
-15.1761342636
 11
-0.641773401
 21
-15.2761342636
  0
LINE
  5
564
100
AcDbEntity
  8
IMPORT_IGES
100
AcDbLine
 62
253
  6
CONTINUOUS
 10
-0.5955680351
 20
-7.6083061203
 11
-0.5955680351
 21
-8.2702481692
  0
LINE
  5
565
100
AcDbEntity
  8
IMPORT_IGES
100
AcDbLine
 62
253
  6
CONTINUOUS
 10
-0.5955680376
 20
-0.3546766917
 11
-0.5955680376
 21
0.4188422625
  0
LINE
  5
566
100
AcDbEntity
  8
RACCORDO
100
AcDbLine
 62
7
  6
CONTINUOUS
 10
-0.5504210526
 20
8.5238947368
 11
-0.5504210526
 21
8.2741436271
  0
LINE
  5
567
100
AcDbEntity
  8
0
100
AcDbLine
 62
253
  6
CONTINUOUS
 10
-0.4905989511
 20
-15.1761342636
 11
-0.4905989511
 21
-15.2761342636
  0
LINE
  5
568
100
AcDbEntity
  8
0
100
AcDbLine
 62
253
  6
CONTINUOUS
 10
-0.4017733617
 20
-15.1761342636
 11
-0.4017733617
 21
-15.2761342636
  0
LINE
  5
569
100
AcDbEntity
  8
0
100
AcDbLine
 62
7
  6
CONTINUOUS
 10
-0.2992822034
 20
-15.1761342636
 11
-0.2992822034
 21
-15.2761342636
  0
LINE
  5
56A
100
AcDbEntity
  8
0
100
AcDbLine
 62
7
  6
CONTINUOUS
 10
-0.1643356187
 20
-15.1761342636
 11
-0.1643356187
 21
-15.2761342636
  0
LINE
  5
56B
100
AcDbEntity
  8
0
100
AcDbLine
 62
7
  6
CONTINUOUS
 10
-0.1429833753
 20
-15.1761342636
 11
-0.1429833753
 21
-15.2761342636
  0
LINE
  5
56C
100
AcDbEntity
  8
DRAFT
100
AcDbLine
 62
7
  6
CONTINUOUS
 10
-0.0582752336
 20
7.5738947368
 11
-0.0582752336
 21
8.4669132426
  0
LINE
  5
56D
100
AcDbEntity
  8
DRAFT
100
AcDbLine
 62
7
  6
CONTINUOUS
 10
-0.0512937394
 20
8.4738947368
 11
-0.0512937394
 21
17.3595830224
  0
LINE
  5
56E
100
AcDbEntity
  8
DRAFT
100
AcDbLine
 62
7
  6
CONTINUOUS
 10
-0.0504210526
 20
7.5738947368
 11
-0.0504210526
 21
7.2238947368
  0
LINE
  5
56F
100
AcDbEntity
  8
RACCORDO
100
AcDbLine
 62
7
  6
CONTINUOUS
 10
-0.0425668716
 20
14.6010039635
 11
-0.0425668716
 21
17.3595830224
  0
LINE
  5
570
100
AcDbEntity
  8
0
100
AcDbLine
 62
253
  6
CONTINUOUS
 10
-0.0037662504
 20
-15.1761342636
 11
-0.0037662504
 21
-15.2761342636
  0
LINE
  5
571
100
AcDbEntity
  8
IMPORT_IGES
100
AcDbLine
 62
253
  6
CONTINUOUS
 10
0.3044324497
 20
-7.7728088809
 11
0.3044324497
 21
-7.6083061203
  0
LINE
  5
572
100
AcDbEntity
  8
IMPORT_IGES
100
AcDbLine
 62
253
  6
CONTINUOUS
 10
0.3044324497
 20
-0.3546766917
 11
0.3044324497
 21
-0.0703990605
  0
LINE
  5
573
100
AcDbEntity
  8
0
100
AcDbLine
 62
253
  6
CONTINUOUS
 10
0.3404330866
 20
-15.1761342636
 11
0.3404330866
 21
-15.2761342636
  0
LINE
  5
574
100
AcDbEntity
  8
0
100
AcDbLine
 62
253
  6
CONTINUOUS
 10
0.5061270135
 20
-15.1761342636
 11
0.5061270135
 21
-15.2761342636
  0
LINE
  5
575
100
AcDbEntity
  8
0
100
AcDbLine
 62
7
  6
CONTINUOUS
 10
0.5676216977
 20
-15.1761342636
 11
0.5676216977
 21
-15.2761342636
  0
LINE
  5
576
100
AcDbEntity
  8
IMPORT_IGES
100
AcDbLine
 62
7
  6
CONTINUOUS
 10
0.6044324497
 20
-0.3033168596
 11
0.6044324497
 21
-0.349914787
  0
LINE
  5
577
100
AcDbEntity
  8
0
100
AcDbLine
 62
7
  6
CONTINUOUS
 10
0.6632800715
 20
-15.1761342636
 11
0.6632800715
 21
-15.2761342636
  0
LINE
  5
578
100
AcDbEntity
  8
0
100
AcDbLine
 62
253
  6
CONTINUOUS
 10
0.8827818189
 20
-15.1761342636
 11
0.8827818189
 21
-15.2761342636
  0
LINE
  5
579
100
AcDbEntity
  8
RACCORDO
100
AcDbLine
 62
7
  6
CONTINUOUS
 10
0.9417247664
 20
8.0817489179
 11
0.9417247664
 21
14.6010039635
  0
LINE
  5
57A
100
AcDbEntity
  8
DRAFT
100
AcDbLine
 62
7
  6
CONTINUOUS
 10
0.9495789474
 20
8.0738947368
 11
0.9495789474
 21
7.2238947368
  0
LINE
  5
57B
100
AcDbEntity
  8
0
100
AcDbLine
 62
7
  6
CONTINUOUS
 10
1.0383822288
 20
-22.6117935488
 11
1.0383822288
 21
-23.0117935488
  0
LINE
  5
57C
100
AcDbEntity
  8
0
100
AcDbLine
 62
7
  6
CONTINUOUS
 10
1.0383822288
 20
17.3595830224
 11
1.0383822288
 21
17.7595830224
  0
LINE
  5
57D
100
AcDbEntity
  8
0
100
AcDbLine
 62
7
  6
CONTINUOUS
 10
1.117122026
 20
17.7595830224
 11
1.117122026
 21
17.3595830224
  0
LINE
  5
57E
100
AcDbEntity
  8
0
100
AcDbLine
 62
7
  6
CONTINUOUS
 10
1.117122026
 20
-23.0117935488
 11
1.117122026
 21
-22.6117935488
  0
LINE
  5
57F
100
AcDbEntity
  8
RACCORDO
100
AcDbLine
 62
253
  6
CONTINUOUS
 10
0.9417247664
 20
14.6010039635
 11
0.8765462317
 21
7.2238947368
  0
LINE
  5
580
100
AcDbEntity
  8
0
100
AcDbLine
 62
7
  6
CONTINUOUS
 10
1.1346197587
 20
17.7595830224
 11
1.1287871321
 21
17.5595845479
  0
LINE
  5
581
100
AcDbEntity
  8
ASSI
100
AcDbLine
 62
7
  6
CONTINUOUS
 10
1.7006845262
 20
18.4055543725
 11
1.6995789474
 21
18.3738947368
  0
LINE
  5
582
100
AcDbEntity
  8
0
100
AcDbLine
 62
7
  6
CONTINUOUS
 10
1.1287871321
 20
17.5595845479
 11
1.1268429662
 21
17.5024686021
  0
LWPOLYLINE
  5
583
100
AcDbEntity
  8
0
100
AcDbPolyline
 62
7
  6
CONTINUOUS
 90
10
 70
0
 10
1.1268429662
 20
17.5024686021
 10
1.1248988184
 20
17.453164722
 10
1.1239267446
 20
17.431921271
 10
1.1229546525
 20
17.4131719802
 10
1.1219825236
 20
17.397059695
 10
1.1210103764
 20
17.3837064652
 10
1.1200382493
 20
17.3732133651
 10
1.1190661549
 20
17.3656603567
 10
1.1180940804
 20
17.3611052862
 10
1.117122026
 20
17.3595830224
  0
LWPOLYLINE
  5
584
100
AcDbEntity
  8
RACCORDO
100
AcDbPolyline
 62
7
  6
CONTINUOUS
 90
25
 70
0
 10
2.1995789474
 20
21.2797958812
 10
2.1991355445
 20
21.2757253158
 10
2.1978545632
 20
21.2717062342
 10
2.1957360034
 20
21.2677386362
 10
2.1927636664
 20
21.2638060202
 10
2.1889537509
 20
21.2599248878
 10
2.1843548539
 20
21.2561447444
 10
2.1789568685
 20
21.2524668834
 10
2.1727699015
 20
21.2488900114
 10
2.1658728698
 20
21.2454597525
 10
2.1582566777
 20
21.2421779848
 10
2.1499304208
 20
21.2390428302
 10
2.1410003036
 20
21.2360942787
 10
2.1314585907
 20
21.2333347208
 10
2.1213130173
 20
21.2307617659
 10
2.110692994
 20
21.2284082331
 10
2.0995924429
 20
21.2262769331
 10
2.0880174418
 20
21.2243650551
 10
2.0761156338
 20
21.2226969859
 10
2.0638828326
 20
21.2212758486
 10
2.0513232246
 20
21.2200985199
 10
2.0385970118
 20
21.2191800173
 10
2.025757595
 20
21.2185253463
 10
2.0127515735
 20
21.2181295013
 10
1.9995789474
 20
21.2179924823
  0
LWPOLYLINE
  5
585
100
AcDbEntity
  8
RACCORDO
100
AcDbPolyline
 62
7
  6
CONTINUOUS
 90
6
 70
0
 10
-9.7126969925
 20
-16.038381203
 10
-9.7108734256
 20
-16.0359050077
 10
-9.7061595921
 20
-16.0313224997
 10
-9.6989494688
 20
-16.0246336793
 10
-9.6896858155
 20
-16.01556115
 10
-9.6787272519
 20
-16.0043823081
  0
LWPOLYLINE
  5
586
100
AcDbEntity
  8
IMPORT_IGES
100
AcDbPolyline
 62
253
  6
CONTINUOUS
 90
4
 70
0
 10
-9.5762945415
 20
-14.0262178548
 10
-9.5901543086
 20
-14.0431942475
 10
-9.6068035063
 20
-14.0588051858
 10
-9.6261882755
 20
-14.0728177411
  0
LWPOLYLINE
  5
587
100
AcDbEntity
  8
IMPORT_IGES
100
AcDbPolyline
 62
253
  6
CONTINUOUS
 90
6
 70
0
 10
-9.7504209868
 20
-14.107369834
 10
-9.7629001569
 20
-14.1218477209
 10
-9.7753359526
 20
-14.1341550553
 10
-9.7875777606
 20
-14.1442361033
 10
-9.7994389794
 20
-14.1520838439
 10
-9.8108197278
 20
-14.1576460786
  0
LWPOLYLINE
  5
588
100
AcDbEntity
  8
RACCORDO
100
AcDbPolyline
 62
7
  6
CONTINUOUS
 90
7
 70
0
 10
-13.1406215901
 20
-15.9784594347
 10
-13.166663267
 20
-16.0046799486
 10
-13.1778263898
 20
-16.0156312213
 10
-13.1868683541
 20
-16.0248380237
 10
-13.1935070788
 20
-16.031958424
 10
-13.198024645
 20
-16.0365934077
 10
-13.2004210526
 20
-16.038381203
  0
LWPOLYLINE
  5
589
100
AcDbEntity
  8
RACCORDO
100
AcDbPolyline
 62
7
  6
CONTINUOUS
 90
7
 70
0
 10
8.5399397429
 20
4.8614984613
 10
8.5659866589
 20
4.8877170258
 10
8.5771375534
 20
4.8986512665
 10
8.5861569486
 20
4.9078471533
 10
8.5927624474
 20
4.9149535598
 10
8.5972364469
 20
4.9195519124
 10
8.5995789474
 20
4.9212657251
  0
LWPOLYLINE
  5
58A
100
AcDbEntity
  8
RACCORDO
100
AcDbPolyline
 62
7
  6
CONTINUOUS
 90
3
 70
0
 10
-13.0937631283
 20
-15.9316482205
 10
-13.1257430359
 20
-15.963735993
 10
-13.1406215901
 20
-15.9784594347
  0
LWPOLYLINE
  5
58B
100
AcDbEntity
  8
RACCORDO
100
AcDbPolyline
 62
7
  6
CONTINUOUS
 90
3
 70
0
 10
8.4930169159
 20
4.8146222221
 10
8.5250437213
 20
4.846758035
 10
8.5399397429
 20
4.8614984613
  0
LWPOLYLINE
  5
58C
100
AcDbEntity
  8
RACCORDO
100
AcDbPolyline
 62
7
  6
CONTINUOUS
 90
3
 70
0
 10
8.3677118535
 20
4.6892119997
 10
8.4222370807
 20
4.7439559158
 10
8.475886132
 20
4.79760424
  0
LINE
  5
58D
100
AcDbEntity
  8
DRAFT
100
AcDbLine
 62
7
  6
CONTINUOUS
 10
-10.6504210526
 20
-13.5261052632
 11
-10.6399489814
 21
-13.5156331919
  0
LINE
  5
58E
100
AcDbEntity
  8
RACCORDO
100
AcDbLine
 62
7
  6
CONTINUOUS
 10
-12.9685683391
 20
-15.8063486443
 11
-13.0766617747
 21
-15.9146589111
  0
LINE
  5
58F
100
AcDbEntity
  8
RACCORDO
100
AcDbLine
 62
7
  6
CONTINUOUS
 10
-13.0766617747
 20
-15.9146589111
 11
-13.0937631283
 21
-15.9316482205
  0
LINE
  5
590
100
AcDbEntity
  8
RACCORDO
100
AcDbLine
 62
7
  6
CONTINUOUS
 10
8.475886132
 20
4.79760424
 11
8.4930169159
 21
4.8146222221
  0
LINE
  5
591
100
AcDbEntity
  8
RACCORDO
100
AcDbLine
 62
7
  6
CONTINUOUS
 10
-12.9504210526
 20
-15.7883907223
 11
-12.9685683391
 21
-15.8063486443
  0
LINE
  5
592
100
AcDbEntity
  8
RACCORDO
100
AcDbLine
 62
7
  6
CONTINUOUS
 10
8.3495789474
 20
4.671269152
 11
8.3677118535
 21
4.6892119997
  0
LINE
  5
593
100
AcDbEntity
  8
IMPORT_IGES
100
AcDbLine
 62
253
  6
CONTINUOUS
 10
2.3820995847
 20
-0.1338463339
 11
2.1838431512
 21
-0.1601975502
  0
LINE
  5
594
100
AcDbEntity
  8
IMPORT_IGES
100
AcDbLine
 62
253
  6
CONTINUOUS
 10
-6.8030109275
 20
-0.6810007579
 11
-6.8004210526
 21
-0.6809428928
  0
LINE
  5
595
100
AcDbEntity
  8
IMPORT_IGES
100
AcDbLine
 62
253
  6
CONTINUOUS
 10
-6.8233802225
 20
-0.6810925576
 11
-6.8030109275
 21
-0.6810007579
  0
LINE
  5
596
100
AcDbEntity
  8
IMPORT_IGES
100
AcDbLine
 62
253
  6
CONTINUOUS
 10
4.0495789474
 20
-1.9811052632
 11
3.4495789474
 21
-1.9811052632
  0
LINE
  5
597
100
AcDbEntity
  8
IMPORT_IGES
100
AcDbLine
 62
253
  6
CONTINUOUS
 10
-8.0504210526
 20
-1.9811052632
 11
-8.6504210526
 21
-1.9811052632
  0
LINE
  5
598
100
AcDbEntity
  8
IMPORT_IGES
100
AcDbLine
 62
7
  6
CONTINUOUS
 10
1.7956535554
 20
-1.8411052632
 11
2.1995789474
 21
-1.8411052632
  0
LINE
  5
599
100
AcDbEntity
  8
IMPORT_IGES
100
AcDbLine
 62
7
  6
CONTINUOUS
 10
-6.3964956607
 20
-1.8411052632
 11
-6.8004210526
 21
-1.8411052632
  0
LINE
  5
59A
100
AcDbEntity
  8
IMPORT_IGES
100
AcDbLine
 62
253
  6
CONTINUOUS
 10
2.7495789474
 20
-1.2811052632
 11
2.1995789474
 21
-1.2811052632
  0
LINE
  5
59B
100
AcDbEntity
  8
IMPORT_IGES
100
AcDbLine
 62
253
  6
CONTINUOUS
 10
-6.8004210526
 20
-1.2811052632
 11
-7.3504210526
 21
-1.2811052632
  0
LINE
  5
59C
100
AcDbEntity
  8
IMPORT_IGES
100
AcDbLine
 62
7
  6
CONTINUOUS
 10
2.7495789473
 20
-0.9811052632
 11
2.4995789474
 21
-0.9811052632
  0
LINE
  5
59D
100
AcDbEntity
  8
IMPORT_IGES
100
AcDbLine
 62
7
  6
CONTINUOUS
 10
-7.1004210526
 20
-0.9811052632
 11
-7.3504210526
 21
-0.9811052632
  0
LINE
  5
59E
100
AcDbEntity
  8
IMPORT_IGES
100
AcDbLine
 62
7
  6
CONTINUOUS
 10
1.7873302843
 20
-0.8128999827
 11
1.1262506492
 21
-0.8128999827
  0
LINE
  5
59F
100
AcDbEntity
  8
IMPORT_IGES
100
AcDbLine
 62
7
  6
CONTINUOUS
 10
-5.7270927544
 20
-0.8128999827
 11
-6.388172389
 21
-0.8128999827
  0
LINE
  5
5A0
100
AcDbEntity
  8
IMPORT_IGES
100
AcDbLine
 62
253
  6
CONTINUOUS
 10
2.1995789474
 20
-0.6811053162
 11
2.7495789474
 21
-0.6811052632
  0
LINE
  5
5A1
100
AcDbEntity
  8
IMPORT_IGES
100
AcDbLine
 62
253
  6
CONTINUOUS
 10
-6.3881723896
 20
-0.6128999827
 11
-5.5434005374
 21
-0.6128999827
  0
LINE
  5
5A2
100
AcDbEntity
  8
IMPORT_IGES
100
AcDbLine
 62
253
  6
CONTINUOUS
 10
0.9425584322
 20
-0.6128999827
 11
1.7873302843
 21
-0.6128999827
  0
LINE
  5
5A3
100
AcDbEntity
  8
IMPORT_IGES
100
AcDbLine
 62
253
  6
CONTINUOUS
 10
-7.3504210526
 20
-0.6811052632
 11
-6.8233802225
 21
-0.6810925576
  0
LINE
  5
5A4
100
AcDbEntity
  8
IMPORT_IGES
100
AcDbLine
 62
253
  6
CONTINUOUS
 10
-6.9829416899
 20
-0.1338463338
 11
-6.7846852565
 21
-0.1601975502
  0
LWPOLYLINE
  5
5A5
100
AcDbEntity
  8
IMPORT_IGES
100
AcDbPolyline
 62
253
  6
CONTINUOUS
 90
4
 70
0
 10
4.9843205977
 20
-4.3539910445
 10
4.9691412264
 20
-4.3436315924
 10
4.9548707363
 20
-4.3301823321
 10
4.9410764895
 20
-4.3145106074
  0
LINE
  5
5A6
100
AcDbEntity
  8
DRAFT
100
AcDbLine
 62
7
  6
CONTINUOUS
 10
8.5123102695
 20
-11.1261052632
 11
8.5995789474
 21
-11.2133739411
  0
LWPOLYLINE
  5
5A7
100
AcDbEntity
  8
IMPORT_IGES
100
AcDbPolyline
 62
253
  6
CONTINUOUS
 90
13
 70
0
 10
-9.1772207119
 20
6.7965247303
 10
-9.1971742796
 20
6.8185298308
 10
-9.2188234327
 20
6.8404753727
 10
-9.2414110673
 20
6.8615081211
 10
-9.2637513403
 20
6.8805538359
 10
-9.2853194347
 20
6.8972710161
 10
-9.3063300912
 20
6.9118509745
 10
-9.3260785362
 20
6.9237714128
 10
-9.3438945852
 20
6.9326562478
 10
-9.3598659691
 20
6.9385305683
 10
-9.3734868629
 20
6.941089777
 10
-9.3840545282
 20
6.9401831197
 10
-9.3913492842
 20
6.9360266143
  0
LINE
  5
5A8
100
AcDbEntity
  8
DRAFT
100
AcDbLine
 62
7
  6
CONTINUOUS
 10
6.0495789474
 20
-12.1261052632
 11
6.0391068762
 21
-12.1086515276
  0
LWPOLYLINE
  5
5A9
100
AcDbEntity
  8
IMPORT_IGES
100
AcDbPolyline
 62
7
  6
CONTINUOUS
 90
11
 70
0
 10
2.4450385829
 20
-5.0180910175
 10
2.4428363003
 20
-4.9972143409
 10
2.440453344
 20
-4.9769048043
 10
2.4378897138
 20
-4.9571745586
 10
2.4351153353
 20
-4.9380639935
 10
2.4321602829
 20
-4.9195549337
 10
2.4291147805
 20
-4.9015695267
 10
2.4259902957
 20
-4.884111214
 10
2.4227753609
 20
-4.8671925764
 10
2.419525797
 20
-4.8507469129
 10
2.4179999661
 20
-4.8433112847
  0
LWPOLYLINE
  5
5AA
100
AcDbEntity
  8
IMPORT_IGES
100
AcDbPolyline
 62
253
  6
CONTINUOUS
 90
6
 70
0
 10
1.6995789474
 20
6.7360267712
 10
1.6978679196
 20
6.7544859623
 10
1.6927641126
 20
6.7726293116
 10
1.6843548539
 20
6.7901463812
 10
1.6727840281
 20
6.8067374493
 10
1.6582496154
 20
6.8221186381
  0
LINE
  5
5AB
100
AcDbEntity
  8
IMPORT_IGES
100
AcDbLine
 62
253
  6
CONTINUOUS
 10
1.5305327842
 20
3.9462406656
 11
1.5370999043
 21
3.8167866185
  0
LINE
  5
5AC
100
AcDbEntity
  8
IMPORT_IGES
100
AcDbLine
 62
253
  6
CONTINUOUS
 10
1.5249055468
 20
4.0668250191
 11
1.5305327842
 21
3.9462406656
  0
LINE
  5
5AD
100
AcDbEntity
  8
IMPORT_IGES
100
AcDbLine
 62
253
  6
CONTINUOUS
 10
1.5206012444
 20
4.1703413433
 11
1.5249055468
 21
4.0668250191
  0
LINE
  5
5AE
100
AcDbEntity
  8
RACCORDO
100
AcDbLine
 62
7
  6
CONTINUOUS
 10
3.1307670856
 20
-23.5582211817
 11
3.129645573
 21
-23.5261052632
  0
LINE
  5
5AF
100
AcDbEntity
  8
ASSI
100
AcDbLine
 62
7
  6
CONTINUOUS
 10
1.6751437176
 20
20.6238947368
 11
1.6909282349
 21
19.965572116
  0
LWPOLYLINE
  5
5B0
100
AcDbEntity
  8
IMPORT_IGES
100
AcDbPolyline
 62
253
  6
CONTINUOUS
 90
9
 70
0
 10
1.4998379411
 20
4.7317810663
 10
1.5006156628
 20
4.6615744797
 10
1.5019127978
 20
4.5913736359
 10
1.5037294105
 20
4.5211766026
 10
1.5060654365
 20
4.4509853122
 10
1.508920683
 20
4.3808055622
 10
1.5122950856
 20
4.3106392851
 10
1.5161887086
 20
4.2404845484
 10
1.520601552
 20
4.170341352
  0
LWPOLYLINE
  5
5B1
100
AcDbEntity
  8
IMPORT_IGES
100
AcDbPolyline
 62
7
  6
CONTINUOUS
 90
10
 70
0
 10
2.4495789474
 20
-5.1165748686
 10
2.4495260526
 20
-5.1056179838
 10
2.4493602267
 20
-5.094663961
 10
2.4490814696
 20
-5.0837128004
 10
2.4486897366
 20
-5.0727635298
 10
2.4481850724
 20
-5.0618171214
 10
2.4475676114
 20
-5.0508764915
 10
2.4468373986
 20
-5.0399426123
 10
2.4459943891
 20
-5.0290145115
 10
2.4450385829
 20
-5.0180921893
  0
LINE
  5
5B2
100
AcDbEntity
  8
0
100
AcDbLine
 62
253
  6
CONTINUOUS
 10
1.3730309235
 20
-15.1761342636
 11
1.3730309235
 21
-15.2761342636
  0
LINE
  5
5B3
100
AcDbEntity
  8
0
100
AcDbLine
 62
7
  6
CONTINUOUS
 10
1.4012159781
 20
-15.1761342636
 11
1.4012159781
 21
-15.2761342636
  0
LINE
  5
5B4
100
AcDbEntity
  8
0
100
AcDbLine
 62
7
  6
CONTINUOUS
 10
1.4336714985
 20
-15.1761342636
 11
1.4336714985
 21
-15.2761342636
  0
LINE
  5
5B5
100
AcDbEntity
  8
ASSI
100
AcDbLine
 62
7
  6
CONTINUOUS
 10
1.4495789474
 20
-23.1055677739
 11
1.4495789474
 21
-23.9117935453
  0
LINE
  5
5B6
100
AcDbEntity
  8
0
100
AcDbLine
 62
7
  6
CONTINUOUS
 10
1.4495789474
 20
-23.9117935455
 11
1.4495789474
 21
-24.7677444134
  0
LINE
  5
5B7
100
AcDbEntity
  8
RACCORDO
100
AcDbLine
 62
7
  6
CONTINUOUS
 10
1.4495789474
 20
-24.7677444134
 11
1.4495789474
 21
-25.3811616049
  0
LINE
  5
5B8
100
AcDbEntity
  8
ASSI
100
AcDbLine
 62
7
  6
CONTINUOUS
 10
1.4495789474
 20
17.8533572476
 11
1.4495789474
 21
18.659583019
  0
LINE
  5
5B9
100
AcDbEntity
  8
0
100
AcDbLine
 62
7
  6
CONTINUOUS
 10
1.4495789474
 20
18.6595830192
 11
1.4495789474
 21
19.5155338871
  0
LINE
  5
5BA
100
AcDbEntity
  8
RACCORDO
100
AcDbLine
 62
7
  6
CONTINUOUS
 10
1.4495789474
 20
19.5155338871
 11
1.4495789474
 21
20.1289510786
  0
LINE
  5
5BB
100
AcDbEntity
  8
IMPORT_IGES
100
AcDbLine
 62
253
  6
CONTINUOUS
 10
1.4995789474
 20
7.0238947368
 11
1.4998379411
 21
4.7317810663
  0
LINE
  5
5BC
100
AcDbEntity
  8
DRAFT
100
AcDbLine
 62
7
  6
CONTINUOUS
 10
1.6018380281
 20
19.7869741628
 11
1.6018380281
 21
18.3875083188
  0
LINE
  5
5BD
100
AcDbEntity
  8
DRAFT
100
AcDbLine
 62
7
  6
CONTINUOUS
 10
1.6018380281
 20
-23.646586799
 11
1.6018380281
 21
-25.0391846891
  0
LINE
  5
5BE
100
AcDbEntity
  8
RACCORDO
100
AcDbLine
 62
253
  6
CONTINUOUS
 10
1.6495789474
 20
20.1907544775
 11
1.6495789474
 21
19.810331871
  0
LINE
  5
5BF
100
AcDbEntity
  8
RACCORDO
100
AcDbLine
 62
253
  6
CONTINUOUS
 10
1.6495789474
 20
-25.4429650038
 11
1.6495789474
 21
-25.0625423973
  0
LINE
  5
5C0
100
AcDbEntity
  8
ASSI
100
AcDbLine
 62
7
  6
CONTINUOUS
 10
1.6495789474
 20
-23.0117935488
 11
1.6495789474
 21
-23.4117935488
  0
LINE
  5
5C1
100
AcDbEntity
  8
ASSI
100
AcDbLine
 62
7
  6
CONTINUOUS
 10
1.6495789474
 20
17.7595830224
 11
1.6495789474
 21
18.1595830224
  0
LINE
  5
5C2
100
AcDbEntity
  8
DRAFT
100
AcDbLine
 62
7
  6
CONTINUOUS
 10
1.6742710308
 20
-25.1261052632
 11
1.6742710308
 21
-25.8761052632
  0
LINE
  5
5C3
100
AcDbEntity
  8
DRAFT
100
AcDbLine
 62
7
  6
CONTINUOUS
 10
1.6742710308
 20
19.8738947368
 11
1.6742710308
 21
20.6238947368
  0
LINE
  5
5C4
100
AcDbEntity
  8
ASSI
100
AcDbLine
 62
253
  6
CONTINUOUS
 10
1.6909282349
 20
19.965572116
 11
1.6909282349
 21
18.405325926
  0
LINE
  5
5C5
100
AcDbEntity
  8
ASSI
100
AcDbLine
 62
253
  6
CONTINUOUS
 10
1.6909282349
 20
-23.6582181208
 11
1.6909282349
 21
-25.2177826423
  0
LINE
  5
5C6
100
AcDbEntity
  8
IMPORT_IGES
100
AcDbLine
 62
7
  6
CONTINUOUS
 10
1.6995789474
 20
4.6605719104
 11
1.6995789474
 21
6.8238947368
  0
LINE
  5
5C7
100
AcDbEntity
  8
IMPORT_IGES
100
AcDbLine
 62
253
  6
CONTINUOUS
 10
1.7873302843
 20
-0.8128999827
 11
1.7873302843
 21
-0.6128999827
  0
LINE
  5
5C8
100
AcDbEntity
  8
IMPORT_IGES
100
AcDbLine
 62
7
  6
CONTINUOUS
 10
1.8044324497
 20
4.2238947368
 11
1.8044324497
 21
3.684034597
  0
LINE
  5
5C9
100
AcDbEntity
  8
IMPORT_IGES
100
AcDbLine
 62
7
  6
CONTINUOUS
 10
1.8044324497
 20
3.6032653662
 11
1.8044324497
 21
3.6714471844
  0
LINE
  5
5CA
100
AcDbEntity
  8
IMPORT_IGES
100
AcDbLine
 62
253
  6
CONTINUOUS
 10
1.8730382266
 20
-14.8761052631
 11
1.8730211313
 21
-14.6769874366
  0
LINE
  5
5CB
100
AcDbEntity
  8
IMPORT_IGES
100
AcDbLine
 62
253
  6
CONTINUOUS
 10
1.8995789474
 20
4.6487759444
 11
1.8995788926
 21
7.0238947368
  0
LINE
  5
5CC
100
AcDbEntity
  8
IMPORT_IGES
100
AcDbLine
 62
253
  6
CONTINUOUS
 10
1.9090644295
 20
-12.3069585435
 11
1.9090644295
 21
-12.266685646
  0
LINE
  5
5CD
100
AcDbEntity
  8
RACCORDO
100
AcDbLine
 62
253
  6
CONTINUOUS
 10
1.9995789474
 20
22.2377485637
 11
1.9995789474
 21
21.8573259572
  0
LINE
  5
5CE
100
AcDbEntity
  8
RACCORDO
100
AcDbLine
 62
253
  6
CONTINUOUS
 10
1.9995789474
 20
-27.4899590901
 11
1.9995789474
 21
-27.1095364835
  0
LINE
  5
5CF
100
AcDbEntity
  8
RACCORDO
100
AcDbLine
 62
7
  6
CONTINUOUS
 10
2.1995789474
 20
22.1759451649
 11
2.1995789474
 21
21.2797958812
  0
LINE
  5
5D0
100
AcDbEntity
  8
IMPORT_IGES
100
AcDbLine
 62
7
  6
CONTINUOUS
 10
2.1995789474
 20
2.4184942129
 11
2.1995789474
 21
0.6344764419
  0
LINE
  5
5D1
100
AcDbEntity
  8
IMPORT_IGES
100
AcDbLine
 62
7
  6
CONTINUOUS
 10
2.1995789474
 20
-0.6488385579
 11
2.1995789474
 21
-4.3811052632
  0
LINE
  5
5D2
100
AcDbEntity
  8
RACCORDO
100
AcDbLine
 62
7
  6
CONTINUOUS
 10
2.1995789474
 20
-26.5320064075
 11
2.1995789474
 21
-27.4281556912
  0
LINE
  5
5D3
100
AcDbEntity
  8
IMPORT_IGES
100
AcDbLine
 62
7
  6
CONTINUOUS
 10
2.2495789474
 20
-4.6194123898
 11
2.2495789474
 21
-4.8621952287
  0
LINE
  5
5D4
100
AcDbEntity
  8
IMPORT_IGES
100
AcDbLine
 62
253
  6
CONTINUOUS
 10
2.2495789474
 20
-12.0091992847
 11
2.2495789474
 21
-4.8621952287
  0
LINE
  5
5D5
100
AcDbEntity
  8
0
100
AcDbLine
 62
7
  6
CONTINUOUS
 10
2.4433043407
 20
18.1595830224
 11
2.4433043407
 21
17.7595830224
  0
LINE
  5
5D6
100
AcDbEntity
  8
0
100
AcDbLine
 62
7
  6
CONTINUOUS
 10
2.4433043407
 20
-23.0117935488
 11
2.4433043407
 21
-23.4117935488
  0
LINE
  5
5D7
100
AcDbEntity
  8
IMPORT_IGES
100
AcDbLine
 62
7
  6
CONTINUOUS
 10
2.4495789474
 20
-11.6090650669
 11
2.4495789474
 21
-5.1165748686
  0
LINE
  5
5D8
100
AcDbEntity
  8
IMPORT_IGES
100
AcDbLine
 62
253
  6
CONTINUOUS
 10
2.4995817313
 20
2.4182567852
 11
2.4995789474
 21
-4.3811052632
  0
LINE
  5
5D9
100
AcDbEntity
  8
ASSI
100
AcDbLine
 62
253
  6
CONTINUOUS
 10
2.690890158
 20
19.0446120503
 11
2.690890158
 21
18.9047175617
  0
LINE
  5
5DA
100
AcDbEntity
  8
ASSI
100
AcDbLine
 62
253
  6
CONTINUOUS
 10
2.690890158
 20
-24.1569282192
 11
2.690890158
 21
-24.2968225766
  0
LINE
  5
5DB
100
AcDbEntity
  8
DRAFT
100
AcDbLine
 62
7
  6
CONTINUOUS
 10
2.6995789474
 20
-23.0011052632
 11
2.6995789474
 21
-21.8761052632
  0
LINE
  5
5DC
100
AcDbEntity
  8
DRAFT
100
AcDbLine
 62
7
  6
CONTINUOUS
 10
2.7042913794
 20
16.6286071689
 11
2.7042913794
 21
17.7476496285
  0
LINE
  5
5DD
100
AcDbEntity
  8
0
100
AcDbLine
 62
253
  6
CONTINUOUS
 10
2.7433043407
 20
-23.4117935488
 11
2.7433043407
 21
-23.0117935488
  0
LINE
  5
5DE
100
AcDbEntity
  8
0
100
AcDbLine
 62
253
  6
CONTINUOUS
 10
2.7433043407
 20
17.7595830224
 11
2.7433043407
 21
18.1595830224
  0
LINE
  5
5DF
100
AcDbEntity
  8
IMPORT_IGES
100
AcDbLine
 62
253
  6
CONTINUOUS
 10
2.7495789474
 20
-0.6811052632
 11
2.7495789474
 21
-1.2811052632
  0
LINE
  5
5E0
100
AcDbEntity
  8
ASSI
100
AcDbLine
 62
7
  6
CONTINUOUS
 10
2.793855004
 20
17.7239853271
 11
2.793855004
 21
16.7181707934
  0
LINE
  5
5E1
100
AcDbEntity
  8
ASSI
100
AcDbLine
 62
7
  6
CONTINUOUS
 10
2.793855004
 20
-21.9703813198
 11
2.793855004
 21
-22.9761958534
  0
LINE
  5
5E2
100
AcDbEntity
  8
IMPORT_IGES
100
AcDbLine
 62
253
  6
CONTINUOUS
 10
2.7995789474
 20
-4.9811052632
 11
2.7995789474
 21
-4.6811052632
  0
LWPOLYLINE
  5
5E3
100
AcDbEntity
  8
IMPORT_IGES
100
AcDbPolyline
 62
253
  6
CONTINUOUS
 90
6
 70
0
 10
1.4995789474
 20
-0.8128999827
 10
1.4993821784
 20
-1.1107543444
 10
1.4994948296
 20
-1.1594869672
 10
1.4999319847
 20
-1.2098085302
 10
1.5006079016
 20
-1.2611323435
 10
1.5015225803
 20
-1.3128987003
  0
LINE
  5
5E4
100
AcDbEntity
  8
IMPORT_IGES
100
AcDbLine
 62
253
  6
CONTINUOUS
 10
1.8507225195
 20
-12.2699181976
 11
1.8522117563
 21
-12.1076068598
  0
LINE
  5
5E5
100
AcDbEntity
  8
IMPORT_IGES
100
AcDbLine
 62
7
  6
CONTINUOUS
 10
1.5125084678
 20
-11.5485184938
 11
1.5199722282
 21
-10.7716072861
  0
LINE
  5
5E6
100
AcDbEntity
  8
IMPORT_IGES
100
AcDbLine
 62
7
  6
CONTINUOUS
 10
1.4773833151
 20
-14.4733762738
 11
1.473031807
 21
-14.8761052627
  0
LINE
  5
5E7
100
AcDbEntity
  8
IMPORT_IGES
100
AcDbLine
 62
253
  6
CONTINUOUS
 10
1.5317084944
 20
-9.7943256047
 11
1.5199722284
 21
-10.771607286
  0
LINE
  5
5E8
100
AcDbEntity
  8
IMPORT_IGES
100
AcDbLine
 62
253
  6
CONTINUOUS
 10
1.5125082285
 20
-11.548518493
 11
1.4773833409
 21
-14.4733762739
  0
LINE
  5
5E9
100
AcDbEntity
  8
IMPORT_IGES
100
AcDbLine
 62
7
  6
CONTINUOUS
 10
1.6730027933
 20
-14.6796192749
 11
1.7251874747
 21
-10.3341883343
  0
LINE
  5
5EA
100
AcDbEntity
  8
IMPORT_IGES
100
AcDbLine
 62
253
  6
CONTINUOUS
 10
1.8538921434
 20
-12.009199518
 11
1.8751765155
 21
-10.2299355531
  0
LINE
  5
5EB
100
AcDbEntity
  8
IMPORT_IGES
100
AcDbLine
 62
253
  6
CONTINUOUS
 10
1.8522117563
 20
-12.1076076199
 11
1.8538921434
 21
-12.009199549
  0
LWPOLYLINE
  5
5EC
100
AcDbEntity
  8
IMPORT_IGES
100
AcDbPolyline
 62
7
  6
CONTINUOUS
 90
10
 70
0
 10
1.8730211313
 20
-14.6769874366
 10
1.8790208931
 20
-14.4241877894
 10
1.8835338226
 20
-14.1713517108
 10
1.8865599197
 20
-13.9184887123
 10
1.8871070028
 20
-13.6656087474
 10
1.8861672537
 20
-13.4127209182
 10
1.8867172167
 20
-13.159833476
 10
1.8897490734
 20
-12.9069555446
 10
1.8942706423
 20
-12.6540971189
 10
1.9002819233
 20
-12.4012677722
  0
LINE
  5
5ED
100
AcDbEntity
  8
ASSI
100
AcDbLine
 62
7
  6
CONTINUOUS
 10
1.6751437176
 20
-25.8761052632
 11
1.6909282349
 21
-25.2177826423
  0
LWPOLYLINE
  5
5EE
100
AcDbEntity
  8
ASSI
100
AcDbPolyline
 62
7
  6
CONTINUOUS
 90
25
 70
0
 10
1.4495789474
 20
-23.1055677739
 10
1.4498250112
 20
-23.0975933945
 10
1.4506551502
 20
-23.0899718245
 10
1.4520693645
 20
-23.0827041056
 10
1.4540614858
 20
-23.0757760558
 10
1.4566376823
 20
-23.069204954
 10
1.459816459
 20
-23.0630318829
 10
1.4636020816
 20
-23.0572573212
 10
1.4679902843
 20
-23.0518666573
 10
1.4729867739
 20
-23.0468681033
 10
1.4785640612
 20
-23.0422659505
 10
1.4847496353
 20
-23.0380335594
 10
1.4916316716
 20
-23.0341357078
 10
1.4991755421
 20
-23.030568599
 10
1.5074158748
 20
-23.0273274104
 10
1.5165447279
 20
-23.0243878824
 10
1.5265401809
 20
-23.0217461182
 10
1.5374241543
 20
-23.0194112479
 10
1.549454468
 20
-23.0173849377
 10
1.5625928465
 20
-23.0156659817
 10
1.5768775652
 20
-23.0142600197
 10
1.5926812701
 20
-23.0131736707
 10
1.6101281764
 20
-23.0124042481
 10
1.6290940688
 20
-23.0119455442
 10
1.6495789474
 20
-23.0117935488
  0
LINE
  5
5EF
100
AcDbEntity
  8
IMPORT_IGES
100
AcDbLine
 62
253
  6
CONTINUOUS
 10
1.9002819233
 20
-12.4012677722
 11
1.9034878328
 21
-12.3067693548
  0
LINE
  5
5F0
100
AcDbEntity
  8
RACCORDO
100
AcDbLine
 62
7
  6
CONTINUOUS
 10
3.1307670855
 20
18.306010651
 11
3.129645573
 21
18.2738947368
  0
LWPOLYLINE
  5
5F1
100
AcDbEntity
  8
ASSI
100
AcDbPolyline
 62
7
  6
CONTINUOUS
 90
25
 70
0
 10
1.4495789474
 20
-23.4638903405
 10
1.4498250112
 20
-23.4594601297
 10
1.4506551502
 20
-23.4552259242
 10
1.4520693645
 20
-23.4511883026
 10
1.4540614858
 20
-23.447339386
 10
1.4566376823
 20
-23.4436887739
 10
1.459816459
 20
-23.44025929
 10
1.4636020816
 20
-23.4370512001
 10
1.4679902843
 20
-23.4340563868
 10
1.4729867739
 20
-23.4312794124
 10
1.4785640612
 20
-23.4287226608
 10
1.4847496353
 20
-23.4263713324
 10
1.4916316716
 20
-23.4242058593
 10
1.4991755421
 20
-23.4222241322
 10
1.5074158748
 20
-23.4204234719
 10
1.5165447279
 20
-23.4187904008
 10
1.5265401809
 20
-23.417322754
 10
1.5374241543
 20
-23.4160256038
 10
1.549454468
 20
-23.4148998759
 10
1.5625928465
 20
-23.4139449004
 10
1.5768775652
 20
-23.4131638104
 10
1.5926812701
 20
-23.4125602832
 10
1.6101281764
 20
-23.4121328262
 10
1.6290940688
 20
-23.4118779907
 10
1.6495789474
 20
-23.4117935488
  0
LWPOLYLINE
  5
5F2
100
AcDbEntity
  8
IMPORT_IGES
100
AcDbPolyline
 62
253
  6
CONTINUOUS
 90
13
 70
0
 10
1.6773689216
 20
-14.3160507315
 10
1.6753765921
 20
-14.3370514757
 10
1.6699130267
 20
-14.3577191484
 10
1.6610497087
 20
-14.3776609622
 10
1.6488352216
 20
-14.3966300204
 10
1.6335097628
 20
-14.4141521691
 10
1.6156815133
 20
-14.4296324566
 10
1.5960378475
 20
-14.4427440439
 10
1.5748106943
 20
-14.4535656049
 10
1.5520040313
 20
-14.4621663007
 10
1.527830935
 20
-14.4684307084
 10
1.5028116555
 20
-14.47219058
 10
1.4773503108
 20
-14.473376155
  0
LWPOLYLINE
  5
5F3
100
AcDbEntity
  8
RACCORDO
100
AcDbPolyline
 62
7
  6
CONTINUOUS
 90
25
 70
0
 10
-1.1004210526
 20
-26.5320064075
 10
-1.0999776497
 20
-26.5279358422
 10
-1.0986966684
 20
-26.5239167605
 10
-1.0965781087
 20
-26.5199491625
 10
-1.0936057717
 20
-26.5160165465
 10
-1.0897958562
 20
-26.5121354141
 10
-1.0851969591
 20
-26.5083552707
 10
-1.0797989738
 20
-26.5046774098
 10
-1.0736120068
 20
-26.5011005377
 10
-1.0667149751
 20
-26.4976702788
 10
-1.0590987829
 20
-26.4943885111
 10
-1.0507725261
 20
-26.4912533565
 10
-1.0418424089
 20
-26.4883048051
 10
-1.0323006959
 20
-26.4855452471
 10
-1.0221551226
 20
-26.4829722922
 10
-1.0115350992
 20
-26.4806187594
 10
-1.0004345482
 20
-26.4784874594
 10
-0.9888595471
 20
-26.4765755815
 10
-0.9769577391
 20
-26.4749075122
 10
-0.9647249379
 20
-26.4734863749
 10
-0.9521653298
 20
-26.4723090463
 10
-0.939439117
 20
-26.4713905436
 10
-0.9265997003
 20
-26.4707358726
 10
-0.9135936788
 20
-26.4703400277
 10
-0.9004210526
 20
-26.4702030086
  0
LWPOLYLINE
  5
5F4
100
AcDbEntity
  8
IMPORT_IGES
100
AcDbPolyline
 62
253
  6
CONTINUOUS
 90
10
 70
0
 10
4.9025789477
 20
6.4704014226
 10
4.9224417024
 20
6.524293811
 10
4.942202122
 20
6.5701344455
 10
4.9612043613
 20
6.6080800996
 10
4.9785207332
 20
6.6384587094
 10
4.9941603803
 20
6.6616234169
 10
5.0088619286
 20
6.6775408604
 10
5.0225085066
 20
6.6861449514
 10
5.0343346301
 20
6.6877275728
 10
5.0440003039
 20
6.682533457
  0
LINE
  5
5F5
100
AcDbEntity
  8
RACCORDO
100
AcDbLine
 62
7
  6
CONTINUOUS
 10
-9.4805639363
 20
-15.8064364999
 11
-9.4627065117
 21
-15.7883907223
  0
LWPOLYLINE
  5
5F6
100
AcDbEntity
  8
RACCORDO
100
AcDbPolyline
 62
7
  6
CONTINUOUS
 90
7
 70
0
 10
-8.8600602571
 20
-15.2385015387
 10
-8.8340133411
 20
-15.2122829742
 10
-8.8228624466
 20
-15.2013487335
 10
-8.8138430514
 20
-15.1921528467
 10
-8.8072375526
 20
-15.1850464402
 10
-8.8027635531
 20
-15.1804480876
 10
-8.8004210526
 20
-15.1787342749
  0
LWPOLYLINE
  5
5F7
100
AcDbEntity
  8
RACCORDO
100
AcDbPolyline
 62
7
  6
CONTINUOUS
 90
3
 70
0
 10
-8.9069830841
 20
-15.2853777779
 10
-8.8749562787
 20
-15.253241965
 10
-8.8600602571
 20
-15.2385015387
  0
LINE
  5
5F8
100
AcDbEntity
  8
RACCORDO
100
AcDbLine
 62
7
  6
CONTINUOUS
 10
-9.7126969925
 20
-16.038381203
 11
-9.8004210526
 21
-16.1261052632
  0
LINE
  5
5F9
100
AcDbEntity
  8
RACCORDO
100
AcDbLine
 62
7
  6
CONTINUOUS
 10
-9.0322881465
 20
-15.4107880003
 11
-8.924113868
 21
-15.30239576
  0
LINE
  5
5FA
100
AcDbEntity
  8
RACCORDO
100
AcDbLine
 62
7
  6
CONTINUOUS
 10
-8.924113868
 20
-15.30239576
 11
-8.9069830841
 21
-15.2853777779
  0
LINE
  5
5FB
100
AcDbEntity
  8
RACCORDO
100
AcDbLine
 62
7
  6
CONTINUOUS
 10
-9.6377490292
 20
-15.9634082985
 11
-9.4805639363
 21
-15.8064364999
  0
LWPOLYLINE
  5
5FC
100
AcDbEntity
  8
RACCORDO
100
AcDbPolyline
 62
7
  6
CONTINUOUS
 90
3
 70
0
 10
-9.6787272519
 20
-16.0043823081
 10
-9.6524929118
 20
-15.9783058823
 10
-9.6377490292
 20
-15.9634082985
  0
LINE
  5
5FD
100
AcDbEntity
  8
RACCORDO
100
AcDbLine
 62
7
  6
CONTINUOUS
 10
-9.0504210526
 20
-15.428730848
 11
-9.0322881465
 21
-15.4107880003
  0
LWPOLYLINE
  5
5FE
100
AcDbEntity
  8
IMPORT_IGES
100
AcDbPolyline
 62
253
  6
CONTINUOUS
 90
4
 70
0
 10
-6.3968804395
 20
-9.9999271885
 10
-6.3227287308
 20
-9.9406946713
 10
-6.2946973654
 20
-9.9187657256
 10
-6.2015808419
 20
-9.8468814405
  0
LWPOLYLINE
  5
5FF
100
AcDbEntity
  8
IMPORT_IGES
100
AcDbPolyline
 62
253
  6
CONTINUOUS
 90
3
 70
0
 10
-6.2015808419
 20
-9.8468814405
 10
-6.1677704123
 20
-9.8209356221
 10
-6.1325505996
 20
-9.7943256047
  0
LWPOLYLINE
  5
600
100
AcDbEntity
  8
IMPORT_IGES
100
AcDbPolyline
 62
253
  6
CONTINUOUS
 90
5
 70
0
 10
3.7495789474
 20
-4.0190451772
 10
3.7561266679
 20
-4.016714661
 10
3.7729354451
 20
-4.0104079774
 10
3.7894438952
 20
-4.0038972809
 10
3.8056520183
 20
-3.9971885673
  0
LINE
  5
601
100
AcDbEntity
  8
IMPORT_IGES
100
AcDbLine
 62
7
  6
CONTINUOUS
 10
-5.2907794821
 20
-0.3761052632
 11
-3.2004210526
 21
-0.3761052632
  0
LINE
  5
602
100
AcDbEntity
  8
IMPORT_IGES
100
AcDbLine
 62
7
  6
CONTINUOUS
 10
-1.4004210526
 20
-0.3761052632
 11
0.6899372404
 21
-0.3761052632
  0
LINE
  5
603
100
AcDbEntity
  8
IMPORT_IGES
100
AcDbLine
 62
7
  6
CONTINUOUS
 10
-4.905274555
 20
-0.3546766917
 11
-4.005274555
 21
-0.3546766917
  0
LINE
  5
604
100
AcDbEntity
  8
IMPORT_IGES
100
AcDbLine
 62
7
  6
CONTINUOUS
 10
-0.5955675503
 20
-0.3546766917
 11
0.3044324497
 21
-0.3546766917
  0
LINE
  5
605
100
AcDbEntity
  8
IMPORT_IGES
100
AcDbLine
 62
7
  6
CONTINUOUS
 10
-3.705274555
 20
-0.288385234
 11
-2.988437058
 21
-0.288385234
  0
LINE
  5
606
100
AcDbEntity
  8
IMPORT_IGES
100
AcDbLine
 62
7
  6
CONTINUOUS
 10
-1.6124050473
 20
-0.288385234
 11
-0.8955675503
 21
-0.288385234
  0
LINE
  5
607
100
AcDbEntity
  8
IMPORT_IGES
100
AcDbLine
 62
253
  6
CONTINUOUS
 10
-3.405274555
 20
0.4111181995
 11
-2.9004210526
 21
0.4111181995
  0
LINE
  5
608
100
AcDbEntity
  8
IMPORT_IGES
100
AcDbLine
 62
253
  6
CONTINUOUS
 10
-1.7004210526
 20
0.4111181995
 11
-1.1955675503
 21
0.4111181995
  0
LINE
  5
609
100
AcDbEntity
  8
IMPORT_IGES
100
AcDbLine
 62
253
  6
CONTINUOUS
 10
3.7495789474
 20
-3.9445421018
 11
3.8056520183
 21
-3.9971885673
  0
LINE
  5
60A
100
AcDbEntity
  8
IMPORT_IGES
100
AcDbLine
 62
253
  6
CONTINUOUS
 10
4.9410764895
 20
-4.3145106074
 11
4.9270954857
 21
-4.297187123
  0
LWPOLYLINE
  5
60B
100
AcDbEntity
  8
IMPORT_IGES
100
AcDbPolyline
 62
7
  6
CONTINUOUS
 90
10
 70
0
 10
4.9270954114
 20
-4.2971871668
 10
4.913994785
 20
-4.2797154807
 10
4.8991971311
 20
-4.2628227173
 10
4.8823874161
 20
-4.2468936317
 10
4.8630459228
 20
-4.2321138162
 10
4.8414057447
 20
-4.2193082384
 10
4.8187535128
 20
-4.2094246619
 10
4.79587813
 20
-4.2025720823
 10
4.7727625564
 20
-4.1985093378
 10
4.7497342433
 20
-4.1971592999
  0
LINE
  5
60C
100
AcDbEntity
  8
DRAFT
100
AcDbLine
 62
7
  6
CONTINUOUS
 10
-9.8004210526
 20
17.8738947368
 11
-9.7957086206
 21
17.8660405558
  0
LINE
  5
60D
100
AcDbEntity
  8
IMPORT_IGES
100
AcDbLine
 62
253
  6
CONTINUOUS
 10
2.7968843785
 20
-4.980963009
 11
2.8095872132
 21
-5.0180910175
  0
LINE
  5
60E
100
AcDbEntity
  8
IMPORT_IGES
100
AcDbLine
 62
253
  6
CONTINUOUS
 10
0.3369810596
 20
2.8519335969
 11
0.3008619411
 21
2.9652747981
  0
LINE
  5
60F
100
AcDbEntity
  8
IMPORT_IGES
100
AcDbLine
 62
253
  6
CONTINUOUS
 10
0.3008619411
 20
2.9652747981
 11
0.1996262662
 21
3.2952125247
  0
LWPOLYLINE
  5
610
100
AcDbEntity
  8
RACCORDO
100
AcDbPolyline
 62
7
  6
CONTINUOUS
 90
25
 70
0
 10
2.1995789474
 20
21.7955225584
 10
2.1991355445
 20
21.7995931237
 10
2.1978545632
 20
21.8036122054
 10
2.1957360034
 20
21.8075798033
 10
2.1927636664
 20
21.8115124194
 10
2.1889537509
 20
21.8153935517
 10
2.1843548539
 20
21.8191736952
 10
2.1789568685
 20
21.8228515561
 10
2.1727699015
 20
21.8264284281
 10
2.1658728698
 20
21.8298586871
 10
2.1582566777
 20
21.8331404548
 10
2.1499304208
 20
21.8362756093
 10
2.1410003036
 20
21.8392241608
 10
2.1314585907
 20
21.8419837188
 10
2.1213130173
 20
21.8445566736
 10
2.110692994
 20
21.8469102065
 10
2.0995924429
 20
21.8490415065
 10
2.0880174418
 20
21.8509533844
 10
2.0761156338
 20
21.8526214536
 10
2.0638828326
 20
21.854042591
 10
2.0513232246
 20
21.8552199196
 10
2.0385970118
 20
21.8561384222
 10
2.025757595
 20
21.8567930932
 10
2.0127515735
 20
21.8571889382
 10
1.9995789474
 20
21.8573259572
  0
LINE
  5
611
100
AcDbEntity
  8
IMPORT_IGES
100
AcDbLine
 62
253
  6
CONTINUOUS
 10
4.9514203042
 20
-13.9692673736
 11
4.9495789473
 21
-13.9476429282
  0
LINE
  5
612
100
AcDbEntity
  8
RACCORDO
100
AcDbLine
 62
7
  6
CONTINUOUS
 10
3.0582171164
 20
17.7417788183
 11
3.0575953799
 21
17.7595830224
  0
LINE
  5
613
100
AcDbEntity
  8
ASSI
100
AcDbLine
 62
7
  6
CONTINUOUS
 10
3.0606386804
 20
17.6724342963
 11
3.0582171164
 21
17.7417788183
  0
LINE
  5
614
100
AcDbEntity
  8
IMPORT_IGES
100
AcDbLine
 62
253
  6
CONTINUOUS
 10
3.1495789474
 20
-4.9811052632
 11
3.1495789474
 21
-4.6811052632
  0
LINE
  5
615
100
AcDbEntity
  8
IMPORT_IGES
100
AcDbLine
 62
253
  6
CONTINUOUS
 10
3.2495789474
 20
-11.7712372262
 11
3.2495789474
 21
-4.9719133656
  0
LINE
  5
616
100
AcDbEntity
  8
IMPORT_IGES
100
AcDbLine
 62
253
  6
CONTINUOUS
 10
3.349579124
 20
-14.8761052632
 11
3.349579088
 21
-15.0761052625
  0
LINE
  5
617
100
AcDbEntity
  8
IMPORT_IGES
100
AcDbLine
 62
253
  6
CONTINUOUS
 10
3.4495789474
 20
-1.9811052632
 11
3.4495789474
 21
-4.3811052632
  0
LINE
  5
618
100
AcDbEntity
  8
DRAFT
100
AcDbLine
 62
7
  6
CONTINUOUS
 10
3.6773998207
 20
-23.5261052632
 11
3.6773998207
 21
-23.4117935488
  0
LINE
  5
619
100
AcDbEntity
  8
DRAFT
100
AcDbLine
 62
7
  6
CONTINUOUS
 10
3.6773998207
 20
18.1595830224
 11
3.6773998207
 21
18.2738947368
  0
LINE
  5
61A
100
AcDbEntity
  8
0
100
AcDbLine
 62
7
  6
CONTINUOUS
 10
3.6995789474
 20
22.3595830224
 11
3.6995789474
 21
20.6238947368
  0
LINE
  5
61B
100
AcDbEntity
  8
0
100
AcDbLine
 62
7
  6
CONTINUOUS
 10
3.6995789474
 20
-27.6117935488
 11
3.6995789474
 21
-25.8761052632
  0
LINE
  5
61C
100
AcDbEntity
  8
0
100
AcDbLine
 62
7
  6
CONTINUOUS
 10
3.6995789474
 20
-23.4117935488
 11
3.6995789474
 21
-23.0117935488
  0
LINE
  5
61D
100
AcDbEntity
  8
0
100
AcDbLine
 62
7
  6
CONTINUOUS
 10
3.6995789474
 20
17.7595830224
 11
3.6995789474
 21
18.1595830224
  0
LINE
  5
61E
100
AcDbEntity
  8
IMPORT_IGES
100
AcDbLine
 62
7
  6
CONTINUOUS
 10
3.7495789474
 20
-1.9811052632
 11
3.7495789474
 21
-4.3811052633
  0
LINE
  5
61F
100
AcDbEntity
  8
ASSI
100
AcDbLine
 62
253
  6
CONTINUOUS
 10
3.7938412962
 20
17.1417797321
 11
3.7938412962
 21
16.7233794134
  0
LINE
  5
620
100
AcDbEntity
  8
ASSI
100
AcDbLine
 62
253
  6
CONTINUOUS
 10
3.7938412962
 20
-21.9755899397
 11
3.7938412962
 21
-22.3939902585
  0
LINE
  5
621
100
AcDbEntity
  8
IMPORT_IGES
100
AcDbLine
 62
253
  6
CONTINUOUS
 10
3.8495789474
 20
7.0238947368
 11
3.8495793705
 21
7.2238947368
  0
LINE
  5
622
100
AcDbEntity
  8
DRAFT
100
AcDbLine
 62
7
  6
CONTINUOUS
 10
3.8995789474
 20
20.6238947368
 11
3.8995789474
 21
19.8505977612
  0
LINE
  5
623
100
AcDbEntity
  8
RACCORDO
100
AcDbLine
 62
7
  6
CONTINUOUS
 10
3.8995789474
 20
19.8435248977
 11
3.8995789474
 21
19.0446120503
  0
LINE
  5
624
100
AcDbEntity
  8
DRAFT
100
AcDbLine
 62
7
  6
CONTINUOUS
 10
3.8995789474
 20
-25.8761052632
 11
3.8995789474
 21
-25.1028082875
  0
LINE
  5
625
100
AcDbEntity
  8
RACCORDO
100
AcDbLine
 62
253
  6
CONTINUOUS
 10
3.8995789474
 20
-16.7761052632
 11
3.8995789475
 21
-17.0261052632
  0
LINE
  5
626
100
AcDbEntity
  8
RACCORDO
100
AcDbLine
 62
7
  6
CONTINUOUS
 10
3.8995789474
 20
-24.2968225766
 11
3.8995789474
 21
-25.095735424
  0
LINE
  5
627
100
AcDbEntity
  8
RACCORDO
100
AcDbLine
 62
253
  6
CONTINUOUS
 10
3.9022989735
 20
18.3060545197
 11
3.9022989735
 21
17.7417349539
  0
LINE
  5
628
100
AcDbEntity
  8
RACCORDO
100
AcDbLine
 62
253
  6
CONTINUOUS
 10
3.9022989735
 20
-22.9939454803
 11
3.9022989735
 21
-23.5582650461
  0
LINE
  5
629
100
AcDbEntity
  8
IMPORT_IGES
100
AcDbLine
 62
253
  6
CONTINUOUS
 10
3.9227223827
 20
-14.6769874366
 11
3.9227224421
 21
-14.8761052632
  0
LINE
  5
62A
100
AcDbEntity
  8
IMPORT_IGES
100
AcDbLine
 62
253
  6
CONTINUOUS
 10
4.0495789473
 20
-3.3811052632
 11
4.0495789473
 21
-1.9811052632
  0
LINE
  5
62B
100
AcDbEntity
  8
RACCORDO
100
AcDbLine
 62
7
  6
CONTINUOUS
 10
4.1995789474
 20
-14.7626722155
 11
4.1995789474
 21
-15.1744069689
  0
LINE
  5
62C
100
AcDbEntity
  8
RACCORDO
100
AcDbLine
 62
7
  6
CONTINUOUS
 10
4.1995789474
 20
-15.178727421
 11
4.1995789474
 21
-15.9761052632
  0
LINE
  5
62D
100
AcDbEntity
  8
RACCORDO
100
AcDbLine
 62
7
  6
CONTINUOUS
 10
4.1995789474
 20
-17.3261052632
 11
4.1995789474
 21
-17.6883907223
  0
LINE
  5
62E
100
AcDbEntity
  8
RACCORDO
100
AcDbLine
 62
253
  6
CONTINUOUS
 10
4.4495789474
 20
-15.428730848
 11
4.4495789474
 21
-16.2261052632
  0
LINE
  5
62F
100
AcDbEntity
  8
RACCORDO
100
AcDbLine
 62
253
  6
CONTINUOUS
 10
4.4495789474
 20
-17.3261052632
 11
4.4495789474
 21
-17.938381203
  0
LINE
  5
630
100
AcDbEntity
  8
RACCORDO
100
AcDbLine
 62
253
  6
CONTINUOUS
 10
4.5022541953
 20
18.9060097415
 11
4.5022541953
 21
17.1417797321
  0
LINE
  5
631
100
AcDbEntity
  8
RACCORDO
100
AcDbLine
 62
253
  6
CONTINUOUS
 10
4.5022541953
 20
-22.3939902585
 11
4.5022541953
 21
-24.1582202679
  0
LINE
  5
632
100
AcDbEntity
  8
IMPORT_IGES
100
AcDbLine
 62
253
  6
CONTINUOUS
 10
4.5025789489
 20
7.0238947368
 11
4.5025771295
 21
4.2757533058
  0
LINE
  5
633
100
AcDbEntity
  8
IMPORT_IGES
100
AcDbLine
 62
7
  6
CONTINUOUS
 10
4.7025789474
 20
6.5411109574
 11
4.7025789474
 21
4.2224594971
  0
LINE
  5
634
100
AcDbEntity
  8
IMPORT_IGES
100
AcDbLine
 62
253
  6
CONTINUOUS
 10
4.7495780569
 20
-12.2666856189
 11
4.7495822817
 21
-14.2172958493
  0
LINE
  5
635
100
AcDbEntity
  8
IMPORT_IGES
100
AcDbLine
 62
253
  6
CONTINUOUS
 10
4.7497331483
 20
-3.9971880571
 11
4.7497337611
 21
-4.1971872458
  0
LINE
  5
636
100
AcDbEntity
  8
RACCORDO
100
AcDbLine
 62
253
  6
CONTINUOUS
 10
4.8071061174
 20
-17.6883907223
 11
4.8071061207
 21
-17.938381203
  0
LINE
  5
637
100
AcDbEntity
  8
RACCORDO
100
AcDbLine
 62
253
  6
CONTINUOUS
 10
4.8421740917
 20
6.8843596692
 11
4.8421740906
 21
6.8861706767
  0
LINE
  5
638
100
AcDbEntity
  8
RACCORDO
100
AcDbLine
 62
253
  6
CONTINUOUS
 10
4.8618644065
 20
-17.6336324332
 11
4.8618644065
 21
-15.7883907223
  0
LINE
  5
639
100
AcDbEntity
  8
IMPORT_IGES
100
AcDbLine
 62
253
  6
CONTINUOUS
 10
4.9025789474
 20
6.4704014224
 11
4.9025789474
 21
4.1433316005
  0
LINE
  5
63A
100
AcDbEntity
  8
IMPORT_IGES
100
AcDbLine
 62
7
  6
CONTINUOUS
 10
4.9495789474
 20
-4.3971872478
 11
4.9495789474
 21
-10.392490613
  0
LINE
  5
63B
100
AcDbEntity
  8
IMPORT_IGES
100
AcDbLine
 62
7
  6
CONTINUOUS
 10
4.9495789473
 20
-12.4083803368
 11
4.9495789473
 21
-13.983249352
  0
LINE
  5
63C
100
AcDbEntity
  8
RACCORDO
100
AcDbLine
 62
7
  6
CONTINUOUS
 10
3.0582171164
 20
-22.9939893446
 11
3.0575953799
 21
-23.0117935488
  0
LINE
  5
63D
100
AcDbEntity
  8
ASSI
100
AcDbLine
 62
7
  6
CONTINUOUS
 10
3.0606386804
 20
-22.9246448226
 11
3.0582171164
 21
-22.9939893446
  0
LWPOLYLINE
  5
63E
100
AcDbEntity
  8
IMPORT_IGES
100
AcDbPolyline
 62
253
  6
CONTINUOUS
 90
13
 70
0
 10
2.4495789474
 20
-9.8585187739
 10
2.4479064766
 20
-9.8767696803
 10
2.4429400187
 20
-9.8946539097
 10
2.4347959699
 20
-9.9118791269
 10
2.4237054586
 20
-9.9280887318
 10
2.4098456914
 20
-9.9431195149
 10
2.3931964937
 20
-9.9569413333
 10
2.3738117245
 20
-9.9693479603
 10
2.3520453212
 20
-9.9799696739
 10
2.3283186932
 20
-9.9885188747
 10
2.3030572353
 20
-9.9947906946
 10
2.2766557306
 20
-9.9986380941
 10
2.2495789474
 20
-9.9999401301
  0
LWPOLYLINE
  5
63F
100
AcDbEntity
  8
RACCORDO
100
AcDbPolyline
 62
7
  6
CONTINUOUS
 90
25
 70
0
 10
2.1995789474
 20
-27.4281556912
 10
2.1991355445
 20
-27.4322262565
 10
2.1978545632
 20
-27.4362453382
 10
2.1957360034
 20
-27.4402129362
 10
2.1927636664
 20
-27.4441455522
 10
2.1889537509
 20
-27.4480266845
 10
2.1843548539
 20
-27.451806828
 10
2.1789568685
 20
-27.4554846889
 10
2.1727699015
 20
-27.459061561
 10
2.1658728698
 20
-27.4624918199
 10
2.1582566777
 20
-27.4657735876
 10
2.1499304208
 20
-27.4689087422
 10
2.1410003036
 20
-27.4718572936
 10
2.1314585907
 20
-27.4746168516
 10
2.1213130173
 20
-27.4771898065
 10
2.110692994
 20
-27.4795433393
 10
2.0995924429
 20
-27.4816746393
 10
2.0880174418
 20
-27.4835865172
 10
2.0761156338
 20
-27.4852545864
 10
2.0638828326
 20
-27.4866757238
 10
2.0513232246
 20
-27.4878530524
 10
2.0385970118
 20
-27.4887715551
 10
2.025757595
 20
-27.489426226
 10
2.0127515735
 20
-27.489822071
 10
1.9995789474
 20
-27.4899590901
  0
LWPOLYLINE
  5
640
100
AcDbEntity
  8
IMPORT_IGES
100
AcDbPolyline
 62
253
  6
CONTINUOUS
 90
13
 70
0
 10
3.4495788988
 20
-4.9357591954
 10
3.4479049791
 20
-4.9463393949
 10
3.4429387174
 20
-4.9567559217
 10
3.4347956893
 20
-4.9667894783
 10
3.4237058172
 20
-4.976232545
 10
3.4098457172
 20
-4.9849896301
 10
3.3931960419
 20
-4.9930423391
 10
3.3738112123
 20
-5.0002703724
 10
3.352044751
 20
-5.0064585244
 10
3.3283181317
 20
-5.0114391193
 10
3.3030567815
 20
-5.0150927732
 10
3.2766554658
 20
-5.0173338752
 10
3.2495789474
 20
-5.0180919763
  0
LWPOLYLINE
  5
641
100
AcDbEntity
  8
IMPORT_IGES
100
AcDbPolyline
 62
7
  6
CONTINUOUS
 90
10
 70
0
 10
1.704126736
 20
-12.4306161781
 10
1.7063744085
 20
-12.4226100092
 10
1.7092892241
 20
-12.4141411917
 10
1.712970059
 20
-12.4052741885
 10
1.7173130836
 20
-12.3964702177
 10
1.7222379232
 20
-12.3879454964
 10
1.7278133395
 20
-12.3796207221
 10
1.734086356
 20
-12.371500525
 10
1.7410430834
 20
-12.3636780153
 10
1.7486603217
 20
-12.3562398361
  0
LINE
  5
642
100
AcDbEntity
  8
IMPORT_IGES
100
AcDbLine
 62
7
  6
CONTINUOUS
 10
1.8487582891
 20
-12.2769066067
 11
1.8507225186
 21
-12.269921933
  0
LWPOLYLINE
  5
643
100
AcDbEntity
  8
IMPORT_IGES
100
AcDbPolyline
 62
7
  6
CONTINUOUS
 90
10
 70
0
 10
3.8056520183
 20
-3.9971880571
 10
3.8545548969
 20
-3.9391943097
 10
3.8981532519
 20
-3.8782454874
 10
3.9364470833
 20
-3.81434159
 10
3.9696303218
 20
-3.7470291499
 10
3.9975090367
 20
-3.6767616347
 10
4.0195014359
 20
-3.6048994481
 10
4.0354135887
 20
-3.5318960579
 10
4.0454394258
 20
-3.4572979963
 10
4.0495789473
 20
-3.3811052632
  0
LINE
  5
644
100
AcDbEntity
  8
DRAFT
100
AcDbLine
 62
7
  6
CONTINUOUS
 10
-13.1131523747
 20
-15.1261052632
 11
-13.2004210526
 21
-15.1784656192
  0
LINE
  5
645
100
AcDbEntity
  8
IMPORT_IGES
100
AcDbLine
 62
253
  6
CONTINUOUS
 10
4.9270954857
 20
-4.297187123
 11
5.0970771928
 21
-4.1971930212
  0
LWPOLYLINE
  5
646
100
AcDbEntity
  8
IMPORT_IGES
100
AcDbPolyline
 62
253
  6
CONTINUOUS
 90
10
 70
0
 10
-10.2556153007
 20
-13.8156959162
 10
-10.2740040226
 20
-13.8262904812
 10
-10.2923624907
 20
-13.8349678499
 10
-10.3105405568
 20
-13.8416210197
 10
-10.3284640362
 20
-13.8461725031
 10
-10.3458926082
 20
-13.8485092773
 10
-10.3624514025
 20
-13.8485847287
 10
-10.3779539131
 20
-13.8464617518
 10
-10.3923722416
 20
-13.8422108636
 10
-10.4056153006
 20
-13.8359128843
  0
LWPOLYLINE
  5
647
100
AcDbEntity
  8
IMPORT_IGES
100
AcDbPolyline
 62
253
  6
CONTINUOUS
 90
6
 70
0
 10
-9.6261882755
 20
-14.0728177411
 10
-9.6479546788
 20
-14.0848143418
 10
-9.6716813068
 20
-14.0944701611
 10
-9.6969427647
 20
-14.1015538127
 10
-9.7233442694
 20
-14.1058992242
 10
-9.7504210526
 20
-14.1073697972
  0
LWPOLYLINE
  5
648
100
AcDbEntity
  8
IMPORT_IGES
100
AcDbPolyline
 62
253
  6
CONTINUOUS
 90
5
 70
0
 10
-9.5776181388
 20
-12.3199852802
 10
-9.5435773803
 20
-12.304288598
 10
-9.5073534451
 20
-12.2912288536
 10
-9.4698370645
 20
-12.2809266321
 10
-9.431325149
 20
-12.2734221287
  0
LINE
  5
649
100
AcDbEntity
  8
IMPORT_IGES
100
AcDbLine
 62
253
  6
CONTINUOUS
 10
1.8412456932
 20
3.0434969009
 11
1.6442922906
 21
3.0087210916
  0
LWPOLYLINE
  5
64A
100
AcDbEntity
  8
IMPORT_IGES
100
AcDbPolyline
 62
253
  6
CONTINUOUS
 90
3
 70
0
 10
4.8523796225
 20
4.1657425786
 10
4.8764737089
 20
4.1691314669
 10
4.9025789474
 20
4.1703413461
  0
LINE
  5
64B
100
AcDbEntity
  8
IMPORT_IGES
100
AcDbLine
 62
7
  6
CONTINUOUS
 10
6.0070066991
 20
2.4756892098
 11
6.0095942693
 21
2.4758155765
  0
LWPOLYLINE
  5
64C
100
AcDbEntity
  8
IMPORT_IGES
100
AcDbPolyline
 62
7
  6
CONTINUOUS
 90
3
 70
0
 10
2.1995789474
 20
2.4184942129
 10
2.2021687464
 20
2.4185924389
 10
2.209874936
 20
2.4186523405
  0
LINE
  5
64D
100
AcDbEntity
  8
IMPORT_IGES
100
AcDbLine
 62
7
  6
CONTINUOUS
 10
5.8599143026
 20
2.4709759527
 11
6.0070066991
 21
2.4756892098
  0
LINE
  5
64E
100
AcDbEntity
  8
IMPORT_IGES
100
AcDbLine
 62
7
  6
CONTINUOUS
 10
5.709410612
 20
2.4663534491
 11
5.8599143026
 21
2.4709759527
  0
LINE
  5
64F
100
AcDbEntity
  8
IMPORT_IGES
100
AcDbLine
 62
7
  6
CONTINUOUS
 10
-6.8030109134
 20
2.4184879438
 11
-6.8004210526
 21
2.4185186074
  0
LINE
  5
650
100
AcDbEntity
  8
IMPORT_IGES
100
AcDbLine
 62
7
  6
CONTINUOUS
 10
-7.1004202342
 20
2.4179473015
 11
-6.8030109134
 21
2.4184879438
  0
LINE
  5
651
100
AcDbEntity
  8
IMPORT_IGES
100
AcDbLine
 62
7
  6
CONTINUOUS
 10
1.8274449402
 20
3.1238947368
 11
1.964442031
 21
3.1238947368
  0
LINE
  5
652
100
AcDbEntity
  8
IMPORT_IGES
100
AcDbLine
 62
7
  6
CONTINUOUS
 10
-6.431425325
 20
3.1238947368
 11
-6.5652841362
 21
3.1238947368
  0
LWPOLYLINE
  5
653
100
AcDbEntity
  8
IMPORT_IGES
100
AcDbPolyline
 62
7
  6
CONTINUOUS
 90
3
 70
0
 10
2.209874936
 20
2.4186523405
 10
2.2399016116
 20
2.4186474247
 10
2.4995776314
 20
2.4179689016
  0
LINE
  5
654
100
AcDbEntity
  8
IMPORT_IGES
100
AcDbLine
 62
7
  6
CONTINUOUS
 10
-10.3105062652
 20
2.4705492245
 11
-10.6104367725
 21
2.4757927793
  0
LWPOLYLINE
  5
655
100
AcDbEntity
  8
IMPORT_IGES
100
AcDbPolyline
 62
253
  6
CONTINUOUS
 90
3
 70
0
 10
-9.4532286515
 20
4.1657435525
 10
-9.4773158142
 20
4.1691314669
 10
-9.5034210526
 20
4.1703413462
  0
LINE
  5
656
100
AcDbEntity
  8
IMPORT_IGES
100
AcDbLine
 62
253
  6
CONTINUOUS
 10
-6.2451343951
 20
3.0087210914
 11
-6.4420877984
 21
3.0434969009
  0
LWPOLYLINE
  5
657
100
AcDbEntity
  8
IMPORT_IGES
100
AcDbPolyline
 62
253
  6
CONTINUOUS
 90
15
 70
0
 10
0.199610557
 20
3.2952415811
 10
0.420713157
 20
3.1091716788
 10
0.6228699851
 20
2.9327999247
 10
0.8060810412
 20
2.7661263186
 10
0.9656541767
 20
2.6143978553
 10
1.1062815402
 20
2.4723675401
 10
1.242039578
 20
2.3242943888
 10
1.3792516656
 20
2.1643230408
 10
1.5115944276
 20
1.9983088567
 10
1.6341741832
 20
1.8280769345
 10
1.7463784511
 20
1.6527102831
 10
1.8488197128
 20
1.4731258935
 10
1.9384417317
 20
1.2938998368
 10
2.0142731086
 20
1.1189533403
 10
2.0654421332
 20
0.9771789638
  0
LWPOLYLINE
  5
658
100
AcDbEntity
  8
RACCORDO
100
AcDbPolyline
 62
7
  6
CONTINUOUS
 90
3
 70
0
 10
8.4927454918
 20
-4.8816420193
 10
8.5249825138
 20
-4.9137673063
 10
8.5397687698
 20
-4.9287084921
  0
LWPOLYLINE
  5
659
100
AcDbEntity
  8
RACCORDO
100
AcDbPolyline
 62
7
  6
CONTINUOUS
 90
7
 70
0
 10
8.5397687698
 20
-4.9287084921
 10
8.565998839
 20
-4.9547977033
 10
8.5769153686
 20
-4.9659457288
 10
8.5861515176
 20
-4.9749632925
 10
8.5933253139
 20
-4.9815727375
 10
8.5979449245
 20
-4.9860517206
 10
8.5995789474
 20
-4.9884002419
  0
LINE
  5
65A
100
AcDbEntity
  8
DRAFT
100
AcDbLine
 62
7
  6
CONTINUOUS
 10
-4.5495483659
 20
8.4738947368
 11
-4.5425668716
 21
8.4669132426
  0
LINE
  5
65B
100
AcDbEntity
  8
DRAFT
100
AcDbLine
 62
7
  6
CONTINUOUS
 10
8.5123102695
 20
-4.0761052632
 11
8.5995789474
 21
-4.1633739411
  0
LINE
  5
65C
100
AcDbEntity
  8
RACCORDO
100
AcDbLine
 62
7
  6
CONTINUOUS
 10
8.3673996475
 20
-4.7564015015
 11
8.475675336
 21
-4.864457918
  0
LINE
  5
65D
100
AcDbEntity
  8
RACCORDO
100
AcDbLine
 62
7
  6
CONTINUOUS
 10
8.475675336
 20
-4.864457918
 11
8.4927454918
 21
-4.8816420193
  0
LINE
  5
65E
100
AcDbEntity
  8
RACCORDO
100
AcDbLine
 62
7
  6
CONTINUOUS
 10
8.3495789474
 20
-4.7383907223
 11
8.3673996475
 21
-4.7564015015
  0
LWPOLYLINE
  5
65F
100
AcDbEntity
  8
IMPORT_IGES
100
AcDbPolyline
 62
253
  6
CONTINUOUS
 90
3
 70
0
 10
0.199610557
 20
3.2952415811
 10
0.2760303503
 20
3.1789471302
 10
0.5067768646
 20
2.8325742801
  0
LINE
  5
660
100
AcDbEntity
  8
IMPORT_IGES
100
AcDbLine
 62
253
  6
CONTINUOUS
 10
0.5067768646
 20
2.8325742801
 11
0.601719331
 21
2.6888578514
  0
LWPOLYLINE
  5
661
100
AcDbEntity
  8
IMPORT_IGES
100
AcDbPolyline
 62
253
  6
CONTINUOUS
 90
7
 70
0
 10
2.1133681037
 20
2.6818327932
 10
2.1055998205
 20
2.7145392061
 10
2.0312410918
 20
3.0998295902
 10
1.9734231649
 20
3.4862298251
 10
1.932267624
 20
3.87271251
 10
1.9076528848
 20
4.2602388182
 10
1.8995789474
 20
4.6487759444
  0
LWPOLYLINE
  5
662
100
AcDbEntity
  8
IMPORT_IGES
100
AcDbPolyline
 62
253
  6
CONTINUOUS
 90
13
 70
0
 10
5.9855476577
 20
3.9634450338
 10
5.9825421897
 20
3.9908671589
 10
5.9745352556
 20
4.0177392289
 10
5.961661715
 20
4.0436086418
 10
5.9441383951
 20
4.0680396815
 10
5.9222604387
 20
4.090620861
 10
5.8963963328
 20
4.1109718526
 10
5.8669817029
 20
4.1287498889
 10
5.8345119753
 20
4.1436555356
 10
5.7995340329
 20
4.1554377391
 10
5.7626370042
 20
4.1638980534
 10
5.7244423403
 20
4.1688939828
 10
5.6855933485
 20
4.1703413815
  0
LWPOLYLINE
  5
663
100
AcDbEntity
  8
IMPORT_IGES
100
AcDbPolyline
 62
253
  6
CONTINUOUS
 90
3
 70
0
 10
5.9585971033
 20
5.5074412631
 10
5.9556393058
 20
5.5346273966
 10
5.9478086724
 20
5.5611666316
  0
LWPOLYLINE
  5
664
100
AcDbEntity
  8
IMPORT_IGES
100
AcDbPolyline
 62
253
  6
CONTINUOUS
 90
13
 70
0
 10
5.1495789473
 20
-4.3789359151
 10
5.1490765693
 20
-4.3705689311
 10
5.1477702801
 20
-4.3599807995
 10
5.1456600796
 20
-4.3471688379
 10
5.142602507
 20
-4.3311846007
 10
5.1387410232
 20
-4.3129699226
 10
5.1345060108
 20
-4.29536253
 10
5.1302274276
 20
-4.2797213699
 10
5.125575316
 20
-4.264692506
 10
5.1199901857
 20
-4.2490476054
 10
5.11328554
 20
-4.2323772201
 10
5.1056478757
 20
-4.215091995
 10
5.0970771928
 20
-4.1971930212
  0
LWPOLYLINE
  5
665
100
AcDbEntity
  8
RACCORDO
100
AcDbPolyline
 62
253
  6
CONTINUOUS
 90
5
 70
0
 10
5.1469499356
 20
6.5814033014
 10
5.1452810224
 20
6.6132664096
 10
5.1402897699
 20
6.6447801755
 10
5.1320310407
 20
6.6755991589
 10
5.1205956183
 20
6.7053853025
  0
LINE
  5
666
100
AcDbEntity
  8
IMPORT_IGES
100
AcDbLine
 62
253
  6
CONTINUOUS
 10
5.6880618681
 20
3.8167879551
 11
5.6942495724
 21
3.4622946147
  0
LINE
  5
667
100
AcDbEntity
  8
IMPORT_IGES
100
AcDbLine
 62
253
  6
CONTINUOUS
 10
5.6586414672
 20
5.714331878
 11
5.6855933492
 21
4.170341346
  0
LINE
  5
668
100
AcDbEntity
  8
IMPORT_IGES
100
AcDbLine
 62
7
  6
CONTINUOUS
 10
6.1223002418
 20
-3.9811052632
 11
6.009594595
 21
2.4757969203
  0
LINE
  5
669
100
AcDbEntity
  8
IMPORT_IGES
100
AcDbLine
 62
7
  6
CONTINUOUS
 10
6.0115136035
 20
2.4758569973
 11
5.9560847307
 21
5.651374992
  0
LINE
  5
66A
100
AcDbEntity
  8
IMPORT_IGES
100
AcDbLine
 62
253
  6
CONTINUOUS
 10
5.7097288153
 20
2.4663083701
 11
5.8216344817
 21
-3.9811051841
  0
LINE
  5
66B
100
AcDbEntity
  8
IMPORT_IGES
100
AcDbLine
 62
7
  6
CONTINUOUS
 10
5.6855933492
 20
4.1703413461
 11
5.6880620159
 21
3.8167879557
  0
LINE
  5
66C
100
AcDbEntity
  8
DRAFT
100
AcDbLine
 62
7
  6
CONTINUOUS
 10
5.0391068762
 20
-15.1365773344
 11
5.0391068762
 21
-14.2779705398
  0
LINE
  5
66D
100
AcDbEntity
  8
DRAFT
100
AcDbLine
 62
7
  6
CONTINUOUS
 10
5.0495789474
 20
-15.1261052632
 11
5.0495789474
 21
-14.2719244867
  0
LINE
  5
66E
100
AcDbEntity
  8
RACCORDO
100
AcDbLine
 62
7
  6
CONTINUOUS
 10
5.1000942709
 20
18.3402175178
 11
5.1000942709
 21
17.023375301
  0
LINE
  5
66F
100
AcDbEntity
  8
RACCORDO
100
AcDbLine
 62
7
  6
CONTINUOUS
 10
5.1000942709
 20
-22.2755858273
 11
5.1000942709
 21
-23.5924280441
  0
LINE
  5
670
100
AcDbEntity
  8
RACCORDO
100
AcDbLine
 62
7
  6
CONTINUOUS
 10
5.1118548872
 20
-17.6336324332
 11
5.1118548872
 21
-16.038381203
  0
LINE
  5
671
100
AcDbEntity
  8
IMPORT_IGES
100
AcDbLine
 62
253
  6
CONTINUOUS
 10
5.149578932
 20
-12.568107134
 11
5.1495789157
 21
-14.1073699135
  0
LINE
  5
672
100
AcDbEntity
  8
IMPORT_IGES
100
AcDbLine
 62
253
  6
CONTINUOUS
 10
5.1495789474
 20
-11.771259233
 11
5.1495789473
 21
-4.3789359151
  0
LINE
  5
673
100
AcDbEntity
  8
RACCORDO
100
AcDbLine
 62
7
  6
CONTINUOUS
 10
5.1948665153
 20
16.9286030566
 11
5.1948665153
 21
17.8660405558
  0
LINE
  5
674
100
AcDbEntity
  8
DRAFT
100
AcDbLine
 62
7
  6
CONTINUOUS
 10
5.1995789474
 20
18.2738947368
 11
5.1995789474
 21
17.8738947368
  0
LINE
  5
675
100
AcDbEntity
  8
RACCORDO
100
AcDbLine
 62
7
  6
CONTINUOUS
 10
5.1995789474
 20
-16.1261052632
 11
5.1995789474
 21
-17.5262089948
  0
LINE
  5
676
100
AcDbEntity
  8
RACCORDO
100
AcDbLine
 62
7
  6
CONTINUOUS
 10
5.1995789474
 20
-22.1761011508
 11
5.1995789474
 21
-23.5261052632
  0
LINE
  5
677
100
AcDbEntity
  8
DRAFT
100
AcDbLine
 62
7
  6
CONTINUOUS
 10
6.0391068762
 20
-13.5156331919
 11
6.0391068762
 21
-12.1086515276
  0
LINE
  5
678
100
AcDbEntity
  8
DRAFT
100
AcDbLine
 62
7
  6
CONTINUOUS
 10
6.0495789474
 20
-13.5261052632
 11
6.0495789474
 21
-12.1261052632
  0
LINE
  5
679
100
AcDbEntity
  8
RACCORDO
100
AcDbLine
 62
7
  6
CONTINUOUS
 10
6.0495789474
 20
2.2238852176
 11
6.0495789474
 21
3.9738947368
  0
LINE
  5
67A
100
AcDbEntity
  8
IMPORT_IGES
100
AcDbLine
 62
7
  6
CONTINUOUS
 10
5.6869363462
 20
-11.771259233
 11
5.6845879247
 21
-12.1076090321
  0
LINE
  5
67B
100
AcDbEntity
  8
IMPORT_IGES
100
AcDbLine
 62
253
  6
CONTINUOUS
 10
5.6554981267
 20
-13.775423157
 11
5.6551934402
 21
-13.8156926139
  0
LINE
  5
67C
100
AcDbEntity
  8
IMPORT_IGES
100
AcDbLine
 62
253
  6
CONTINUOUS
 10
5.8189637624
 20
-4.1971874131
 11
5.8216344817
 21
-3.9811051841
  0
LINE
  5
67D
100
AcDbEntity
  8
IMPORT_IGES
100
AcDbLine
 62
7
  6
CONTINUOUS
 10
5.8189637624
 20
-4.1971874131
 11
5.8063111379
 21
-5.0180925511
  0
LINE
  5
67E
100
AcDbEntity
  8
IMPORT_IGES
100
AcDbLine
 62
253
  6
CONTINUOUS
 10
5.7411571324
 20
-8.6649477247
 11
5.6869363462
 21
-11.7712592284
  0
LINE
  5
67F
100
AcDbEntity
  8
IMPORT_IGES
100
AcDbLine
 62
253
  6
CONTINUOUS
 10
5.8063111379
 20
-5.0180925511
 11
5.7526036256
 21
-8.0949850536
  0
LINE
  5
680
100
AcDbEntity
  8
IMPORT_IGES
100
AcDbLine
 62
253
  6
CONTINUOUS
 10
5.6845879552
 20
-12.1076087061
 11
5.6554981267
 21
-13.775423157
  0
LINE
  5
681
100
AcDbEntity
  8
IMPORT_IGES
100
AcDbLine
 62
7
  6
CONTINUOUS
 10
5.954727504
 20
-13.5813409851
 11
6.1223002418
 21
-3.9811052632
  0
LINE
  5
682
100
AcDbEntity
  8
IMPORT_IGES
100
AcDbLine
 62
253
  6
CONTINUOUS
 10
5.7526036256
 20
-8.0949850536
 11
5.7411571324
 21
-8.6649477247
  0
LWPOLYLINE
  5
683
100
AcDbEntity
  8
IMPORT_IGES
100
AcDbPolyline
 62
253
  6
CONTINUOUS
 90
13
 70
0
 10
5.9845422652
 20
-11.8732544591
 10
5.9815529057
 20
-11.9037989505
 10
5.9737323339
 20
-11.9336690328
 10
5.9612510162
 20
-11.9623856447
 10
5.9444444812
 20
-11.98936921
 10
5.9235703339
 20
-12.0143472373
 10
5.8986083907
 20
-12.0372565258
 10
5.8696583324
 20
-12.0577498002
 10
5.8372306644
 20
-12.0752383216
 10
5.8019054368
 20
-12.0892691698
 10
5.7642853319
 20
-12.0995029691
 10
5.7249565338
 20
-12.1056850737
 10
5.6845989417
 20
-12.1076091015
  0
LWPOLYLINE
  5
684
100
AcDbEntity
  8
IMPORT_IGES
100
AcDbPolyline
 62
7
  6
CONTINUOUS
 90
31
 70
0
 10
3.3194961292
 20
-11.8804052522
 10
3.3290527238
 20
-11.8488613802
 10
3.3379943574
 20
-11.8162116805
 10
3.3463210302
 20
-11.7824561531
 10
3.3539485031
 20
-11.7476037708
 10
3.360961015
 20
-11.7116455609
 10
3.3676112828
 20
-11.6745546047
 10
3.3739539984
 20
-11.6363255029
 10
3.3799344698
 20
-11.5969636548
 10
3.3856413369
 20
-11.5564583399
 10
3.3910899087
 20
-11.5148353245
 10
3.3962648763
 20
-11.4720688424
 10
3.4012089533
 20
-11.4280708737
 10
3.4059316041
 20
-11.3828503645
 10
3.4104233644
 20
-11.3363983687
 10
3.4146985552
 20
-11.2886000282
 10
3.418764397
 20
-11.2394476756
 10
3.4226136692
 20
-11.1889489783
 10
3.4262390316
 20
-11.1370120797
 10
3.4296453543
 20
-11.0836382802
 10
3.4328277672
 20
-11.0288262794
 10
3.4357643196
 20
-10.9724803197
 10
3.4384599383
 20
-10.9146020285
 10
3.4409096966
 20
-10.8551897783
 10
3.4430768638
 20
-10.7941429289
 10
3.4449674573
 20
-10.731459169
 10
3.4465754597
 20
-10.6671408099
 10
3.4478460882
 20
-10.6010941453
 10
3.4487610818
 20
-10.53328794
 10
3.4493387015
 20
-10.4637534292
 10
3.4495789474
 20
-4.9007205054
  0
LWPOLYLINE
  5
685
100
AcDbEntity
  8
IMPORT_IGES
100
AcDbPolyline
 62
7
  6
CONTINUOUS
 90
10
 70
0
 10
2.4227092809
 20
-11.7712509763
 10
2.4280558745
 20
-11.7552408948
 10
2.4328364922
 20
-11.7386609107
 10
2.437051134
 20
-11.721511024
 10
2.4407321903
 20
-11.7037015562
 10
2.4438472708
 20
-11.6853221858
 10
2.4462992039
 20
-11.6666419482
 10
2.4480555991
 20
-11.6477505217
 10
2.4491488469
 20
-11.6285582279
 10
2.4495789474
 20
-11.6090650669
  0
LWPOLYLINE
  5
686
100
AcDbEntity
  8
IMPORT_IGES
100
AcDbPolyline
 62
7
  6
CONTINUOUS
 90
46
 70
0
 10
2.422710387
 20
-11.771255563
 10
2.4182922557
 20
-11.7832502752
 10
2.4137626645
 20
-11.7947455911
 10
2.4091638564
 20
-11.8057497678
 10
2.4045492656
 20
-11.8162593165
 10
2.399942599
 20
-11.8262989165
 10
2.3953318258
 20
-11.8359175389
 10
2.3907398654
 20
-11.8451243384
 10
2.3861941637
 20
-11.8539287783
 10
2.3816777148
 20
-11.8623753175
 10
2.37720503
 20
-11.8704734872
 10
2.372795682
 20
-11.8782295951
 10
2.368432755
 20
-11.88567924
 10
2.3641258355
 20
-11.8928308911
 10
2.3598888956
 20
-11.8996892594
 10
2.3557068644
 20
-11.9062812475
 10
2.3515868422
 20
-11.9126132618
 10
2.3475383851
 20
-11.918689849
 10
2.3435470252
 20
-11.9245327614
 10
2.3396179945
 20
-11.9301471762
 10
2.3357579588
 20
-11.9355369048
 10
2.3319524782
 20
-11.9407197115
 10
2.3282051709
 20
-11.9457003177
 10
2.3245209581
 20
-11.9504812348
 10
2.3208858559
 20
-11.9550752743
 10
2.317302705
 20
-11.959486493
 10
2.3137748484
 20
-11.9637165632
 10
2.3102879761
 20
-11.9677732947
 10
2.3068450895
 20
-11.9716598575
 10
2.3034476924
 20
-11.9753774715
 10
2.3000783908
 20
-11.9789296229
 10
2.2967408682
 20
-11.9823192759
 10
2.2934346941
 20
-11.9855464469
 10
2.2901355728
 20
-11.9886085591
 10
2.2868434107
 20
-11.9915130508
 10
2.2835605714
 20
-11.9942535864
 10
2.2802658922
 20
-11.9968052354
 10
2.2769690965
 20
-11.9991719729
 10
2.2736623026
 20
-12.0013496614
 10
2.2702974308
 20
-12.0032987008
 10
2.2668313077
 20
-12.0050350519
 10
2.2633084162
 20
-12.0065378005
 10
2.2598123146
 20
-12.0077133488
 10
2.2563717498
 20
-12.0085326022
 10
2.2529602828
 20
-12.0090275449
 10
2.2495789474
 20
-12.0091992847
  0
LWPOLYLINE
  5
687
100
AcDbEntity
  8
RACCORDO
100
AcDbPolyline
 62
7
  6
CONTINUOUS
 90
16
 70
0
 10
-7.7316091909
 20
-24.1582202679
 10
-7.6851124744
 20
-24.0957094629
 10
-7.6553514451
 20
-24.0346940934
 10
-7.642326103
 20
-23.975781101
 10
-7.6531596264
 20
-23.9201632322
 10
-7.680728837
 20
-23.8676065425
 10
-7.7036641999
 20
-23.816756391
 10
-7.7137672487
 20
-23.7677767495
 10
-7.7192364498
 20
-23.7220596313
 10
-7.7232976675
 20
-23.6804098523
 10
-7.7267647034
 20
-23.6431583842
 10
-7.728823756
 20
-23.6117222521
 10
-7.730259285
 20
-23.5877114453
 10
-7.7313327772
 20
-23.5711609685
 10
-7.7317827458
 20
-23.5614437186
 10
-7.7316091909
 20
-23.5582211817
  0
LINE
  5
688
100
AcDbEntity
  8
IMPORT_IGES
100
AcDbLine
 62
253
  6
CONTINUOUS
 10
1.736334882
 20
3.8345518311
 11
1.5371253322
 21
3.8167879557
  0
LWPOLYLINE
  5
689
100
AcDbEntity
  8
IMPORT_IGES
100
AcDbPolyline
 62
253
  6
CONTINUOUS
 90
13
 70
0
 10
-10.2864347375
 20
4.1703413399
 10
-10.3252840512
 20
4.1688939805
 10
-10.3634789561
 20
4.1638980458
 10
-10.4003761388
 20
4.1554377038
 10
-10.4353541273
 20
4.1436554821
 10
-10.4678238299
 20
4.1287498425
 10
-10.4972384387
 20
4.1109718174
 10
-10.5231025446
 20
4.0906208245
 10
-10.544980501
 20
4.0680396437
 10
-10.5625038209
 20
4.0436086065
 10
-10.5753773613
 20
4.0177392015
 10
-10.5833842952
 20
3.9908671432
 10
-10.586389763
 20
3.9634450338
  0
LINE
  5
68A
100
AcDbEntity
  8
IMPORT_IGES
100
AcDbLine
 62
253
  6
CONTINUOUS
 10
5.9880161767
 20
3.8220236766
 11
5.6880618681
 21
3.8167879553
  0
LWPOLYLINE
  5
68B
100
AcDbEntity
  8
IMPORT_IGES
100
AcDbPolyline
 62
253
  6
CONTINUOUS
 90
13
 70
0
 10
-6.1214427983
 20
4.1703413234
 10
-6.146139463
 20
4.1700794819
 10
-6.1707984621
 20
4.1676021559
 10
-6.1948025924
 20
4.1629060163
 10
-6.2172661102
 20
4.1562046421
 10
-6.237988837
 20
4.1476661288
 10
-6.257309968
 20
4.1371274199
 10
-6.2747811383
 20
4.1246804047
 10
-6.2898193134
 20
4.1106438803
 10
-6.3023079297
 20
4.0950103686
 10
-6.3118696171
 20
4.078027888
 10
-6.3181279285
 20
4.0602657754
 10
-6.3210009093
 20
4.0422179163
  0
LWPOLYLINE
  5
68C
100
AcDbEntity
  8
IMPORT_IGES
100
AcDbPolyline
 62
253
  6
CONTINUOUS
 90
13
 70
0
 10
-6.5004210526
 20
4.6487759444
 10
-6.4746365941
 20
4.6488743864
 10
-6.4493613274
 20
4.6491668404
 10
-6.4250084341
 20
4.6496466428
 10
-6.4020802577
 20
4.6503004431
 10
-6.3808119673
 20
4.6511179151
 10
-6.3612547157
 20
4.6521000264
 10
-6.3437024204
 20
4.6532400491
 10
-6.3286754545
 20
4.6545205907
 10
-6.3165802526
 20
4.6559269536
 10
-6.3077067436
 20
4.6574374096
 10
-6.3022632605
 20
4.659025248
 10
-6.3004210526
 20
4.6606630185
  0
LINE
  5
68D
100
AcDbEntity
  8
IMPORT_IGES
100
AcDbLine
 62
7
  6
CONTINUOUS
 10
1.8044324497
 20
3.7238947368
 11
1.7469497296
 21
3.7238947368
  0
LINE
  5
68E
100
AcDbEntity
  8
IMPORT_IGES
100
AcDbLine
 62
7
  6
CONTINUOUS
 10
-6.3518524858
 20
3.7238947368
 11
-6.405274555
 21
3.7238947368
  0
LINE
  5
68F
100
AcDbEntity
  8
IMPORT_IGES
100
AcDbLine
 62
253
  6
CONTINUOUS
 10
5.6880618681
 20
3.8167879551
 11
5.3927933323
 21
3.816787955
  0
LINE
  5
690
100
AcDbEntity
  8
IMPORT_IGES
100
AcDbLine
 62
253
  6
CONTINUOUS
 10
1.5371253322
 20
3.816787955
 11
-6.1379674374
 21
3.8167879557
  0
LINE
  5
691
100
AcDbEntity
  8
IMPORT_IGES
100
AcDbLine
 62
253
  6
CONTINUOUS
 10
-9.9936388201
 20
3.816787955
 11
-10.2889039734
 21
3.8167879549
  0
LINE
  5
692
100
AcDbEntity
  8
RACCORDO
100
AcDbLine
 62
7
  6
CONTINUOUS
 10
-13.2004210526
 20
3.9738947368
 11
-10.586389763
 21
3.9738947368
  0
LINE
  5
693
100
AcDbEntity
  8
RACCORDO
100
AcDbLine
 62
7
  6
CONTINUOUS
 10
5.9855476577
 20
3.9738947368
 11
8.5995789474
 21
3.9738947368
  0
LINE
  5
694
100
AcDbEntity
  8
IMPORT_IGES
100
AcDbLine
 62
253
  6
CONTINUOUS
 10
4.9025789474
 20
4.1703413461
 11
5.6855933492
 21
4.170341346
  0
LINE
  5
695
100
AcDbEntity
  8
IMPORT_IGES
100
AcDbLine
 62
253
  6
CONTINUOUS
 10
-9.5034226939
 20
4.170341346
 11
-10.2864354544
 21
4.1703413461
  0
LINE
  5
696
100
AcDbEntity
  8
IMPORT_IGES
100
AcDbLine
 62
253
  6
CONTINUOUS
 10
1.520601552
 20
4.170341352
 11
-6.1214434871
 21
4.1703413991
  0
LINE
  5
697
100
AcDbEntity
  8
RACCORDO
100
AcDbLine
 62
253
  6
CONTINUOUS
 10
-12.9504210526
 20
4.2238947368
 11
-10.5818435965
 21
4.2238947368
  0
LINE
  5
698
100
AcDbEntity
  8
RACCORDO
100
AcDbLine
 62
253
  6
CONTINUOUS
 10
5.9810014912
 20
4.2238947368
 11
8.3495789474
 21
4.2238947368
  0
LINE
  5
699
100
AcDbEntity
  8
RACCORDO
100
AcDbLine
 62
253
  6
CONTINUOUS
 10
8.3495789474
 20
4.671269152
 11
5.9731925418
 21
4.671269152
  0
LINE
  5
69A
100
AcDbEntity
  8
RACCORDO
100
AcDbLine
 62
253
  6
CONTINUOUS
 10
-10.574034647
 20
4.671269152
 11
-12.9504210526
 21
4.671269152
  0
LINE
  5
69B
100
AcDbEntity
  8
RACCORDO
100
AcDbLine
 62
7
  6
CONTINUOUS
 10
8.5995789474
 20
4.9212657251
 11
5.9688288353
 21
4.9212657251
  0
LINE
  5
69C
100
AcDbEntity
  8
RACCORDO
100
AcDbLine
 62
7
  6
CONTINUOUS
 10
-10.5696709406
 20
4.9212657251
 11
-13.2004210526
 21
4.9212657251
  0
LINE
  5
69D
100
AcDbEntity
  8
DRAFT
100
AcDbLine
 62
7
  6
CONTINUOUS
 10
-13.1131523747
 20
4.9738947368
 11
-10.5687522978
 21
4.9738947368
  0
LINE
  5
69E
100
AcDbEntity
  8
DRAFT
100
AcDbLine
 62
7
  6
CONTINUOUS
 10
5.9679101925
 20
4.9738947368
 11
8.5123102695
 21
4.9738947368
  0
LWPOLYLINE
  5
69F
100
AcDbEntity
  8
IMPORT_IGES
100
AcDbPolyline
 62
253
  6
CONTINUOUS
 90
13
 70
0
 10
1.8995789474
 20
4.6487759444
 10
1.8734737089
 20
4.6488768624
 10
1.8478151383
 20
4.649177888
 10
1.8230422609
 20
4.6496738705
 10
1.7995789474
 20
4.6503563234
 10
1.7778266616
 20
4.65121357
 10
1.7581575911
 20
4.6522309425
 10
1.7409082793
 20
4.6533910337
 10
1.7263738666
 20
4.6546739939
 10
1.7148030409
 20
4.6560578713
 10
1.7063937821
 20
4.6575189874
 10
1.7012899751
 20
4.6590323421
 10
1.6995789474
 20
4.6605720415
  0
LWPOLYLINE
  5
6A0
100
AcDbEntity
  8
IMPORT_IGES
100
AcDbPolyline
 62
253
  6
CONTINUOUS
 90
13
 70
0
 10
1.520601234
 20
4.1703337416
 10
1.5452973305
 20
4.1700719772
 10
1.5699558014
 20
4.1675948644
 10
1.5939594847
 20
4.1628990618
 10
1.6164227184
 20
4.1561981025
 10
1.6371452872
 20
4.1476600607
 10
1.6564662697
 20
4.1371219412
 10
1.6739373228
 20
4.124675655
 10
1.6889754897
 20
4.1106399669
 10
1.7014642366
 20
4.0950074129
 10
1.7110262476
 20
4.0780259845
 10
1.7172851137
 20
4.0602649466
 10
1.7201588831
 20
4.0422181203
  0
LINE
  5
6A1
100
AcDbEntity
  8
IMPORT_IGES
100
AcDbLine
 62
253
  6
CONTINUOUS
 10
-10.2889039739
 20
3.8167879252
 11
-10.5888582819
 21
3.8220236776
  0
LWPOLYLINE
  5
6A2
100
AcDbEntity
  8
IMPORT_IGES
100
AcDbPolyline
 62
253
  6
CONTINUOUS
 90
13
 70
0
 10
1.4995789474
 20
4.801993396
 10
1.5253634325
 20
4.8008131898
 10
1.5506387176
 20
4.7973070021
 10
1.5749916205
 20
4.791554727
 10
1.5979197971
 20
4.783716421
 10
1.6191880804
 20
4.7739158867
 10
1.6387453224
 20
4.7621415235
 10
1.6562976066
 20
4.7484334748
 10
1.6713245613
 20
4.7330408153
 10
1.6834197552
 20
4.7162611652
 10
1.6922932596
 20
4.6983952436
 10
1.6977367402
 20
4.6797225439
 10
1.6995789474
 20
4.6605719098
  0
LINE
  5
6A3
100
AcDbEntity
  8
IMPORT_IGES
100
AcDbLine
 62
253
  6
CONTINUOUS
 10
-6.3371769872
 20
3.8345518311
 11
-6.1379674421
 21
3.8167879037
  0
LWPOLYLINE
  5
6A4
100
AcDbEntity
  8
IMPORT_IGES
100
AcDbPolyline
 62
253
  6
CONTINUOUS
 90
13
 70
0
 10
-9.1792183963
 20
7.0238946974
 10
-9.1743574618
 20
7.0222430186
 10
-9.1694939434
 20
7.0171998126
 10
-9.1647574643
 20
7.0087656208
 10
-9.1603135386
 20
6.9972421422
 10
-9.156231159
 20
6.9829178313
 10
-9.1525037027
 20
6.9657716221
 10
-9.1492328614
 20
6.9462259002
 10
-9.1464933612
 20
6.9247879092
 10
-9.144282585
 20
6.9013766813
 10
-9.1426590734
 20
6.8763758725
 10
-9.1416795447
 20
6.8507159771
 10
-9.1413397429
 20
6.8251175395
  0
LINE
  5
6A5
100
AcDbEntity
  8
RACCORDO
100
AcDbLine
 62
253
  6
CONTINUOUS
 10
-12.3004210526
 20
17.3739137753
 11
-12.2925668716
 21
17.3660595943
  0
LINE
  5
6A6
100
AcDbEntity
  8
RACCORDO
100
AcDbLine
 62
253
  6
CONTINUOUS
 10
-11.8004400911
 20
17.8738947368
 11
-11.7925859101
 21
17.8660405558
  0
LWPOLYLINE
  5
6A7
100
AcDbEntity
  8
RACCORDO
100
AcDbPolyline
 62
7
  6
CONTINUOUS
 90
16
 70
0
 10
-7.7316091909
 20
18.9060097415
 10
-7.6851124744
 20
18.8434989366
 10
-7.6553514451
 20
18.782483567
 10
-7.642326103
 20
18.7235705747
 10
-7.6531596264
 20
18.6679527059
 10
-7.680728837
 20
18.6153960161
 10
-7.7036641999
 20
18.5645458647
 10
-7.7137672487
 20
18.5155662232
 10
-7.7192364498
 20
18.469849105
 10
-7.7232976675
 20
18.4281993259
 10
-7.7267647034
 20
18.3909478579
 10
-7.728823756
 20
18.3595117257
 10
-7.730259285
 20
18.335500919
 10
-7.7313327772
 20
18.3189504422
 10
-7.7317827458
 20
18.3092331923
 10
-7.7316091909
 20
18.3060106554
  0
LWPOLYLINE
  5
6A8
100
AcDbEntity
  8
0
100
AcDbPolyline
 62
7
  6
CONTINUOUS
 90
9
 70
0
 10
-5.7179641312
 20
17.3595830224
 10
-5.7189361857
 20
17.3611052862
 10
-5.7199082601
 20
17.3656603567
 10
-5.7208803546
 20
17.3732133651
 10
-5.7218524817
 20
17.3837064652
 10
-5.7228246288
 20
17.397059695
 10
-5.7237967578
 20
17.4131719802
 10
-5.7247688498
 20
17.431921271
 10
-5.7257409237
 20
17.453164722
  0
LINE
  5
6A9
100
AcDbEntity
  8
RACCORDO
100
AcDbLine
 62
7
  6
CONTINUOUS
 10
7.6917247664
 20
17.3660595943
 11
7.6917247664
 21
8.5817298794
  0
LINE
  5
6AA
100
AcDbEntity
  8
RACCORDO
100
AcDbLine
 62
7
  6
CONTINUOUS
 10
7.6995789474
 20
17.3739137753
 11
7.6995789474
 21
8.5738756984
  0
LINE
  5
6AB
100
AcDbEntity
  8
RACCORDO
100
AcDbLine
 62
7
  6
CONTINUOUS
 10
8.0210371373
 20
-26.3132510659
 11
8.0210371373
 21
-25.095735424
  0
LINE
  5
6AC
100
AcDbEntity
  8
RACCORDO
100
AcDbLine
 62
7
  6
CONTINUOUS
 10
8.0210371373
 20
19.8435248977
 11
8.0210371373
 21
21.0610405396
  0
LINE
  5
6AD
100
AcDbEntity
  8
RACCORDO
100
AcDbLine
 62
253
  6
CONTINUOUS
 10
8.3495789474
 20
-15.7883907223
 11
8.3495789474
 21
-15.428730848
  0
LINE
  5
6AE
100
AcDbEntity
  8
RACCORDO
100
AcDbLine
 62
253
  6
CONTINUOUS
 10
8.3495789474
 20
-11.7883907223
 11
8.3495789474
 21
-11.4638198041
  0
LINE
  5
6AF
100
AcDbEntity
  8
RACCORDO
100
AcDbLine
 62
253
  6
CONTINUOUS
 10
8.3495789474
 20
-4.7383907223
 11
8.3495789474
 21
-4.4138198041
  0
LINE
  5
6B0
100
AcDbEntity
  8
RACCORDO
100
AcDbLine
 62
253
  6
CONTINUOUS
 10
8.3495789474
 20
4.2238947368
 11
8.3495789474
 21
4.671269152
  0
LINE
  5
6B1
100
AcDbEntity
  8
DRAFT
100
AcDbLine
 62
7
  6
CONTINUOUS
 10
8.5123102695
 20
18.2738947368
 11
8.5123102695
 21
4.9738947368
  0
LINE
  5
6B2
100
AcDbEntity
  8
DRAFT
100
AcDbLine
 62
7
  6
CONTINUOUS
 10
8.5123102695
 20
-16.1261052632
 11
8.5123102695
 21
-23.5261052632
  0
LINE
  5
6B3
100
AcDbEntity
  8
DRAFT
100
AcDbLine
 62
7
  6
CONTINUOUS
 10
8.5123102695
 20
-15.1261052632
 11
8.5123102695
 21
-12.1261052632
  0
LINE
  5
6B4
100
AcDbEntity
  8
DRAFT
100
AcDbLine
 62
7
  6
CONTINUOUS
 10
8.5123102695
 20
-11.1261052632
 11
8.5123102695
 21
-5.0761052632
  0
LINE
  5
6B5
100
AcDbEntity
  8
DRAFT
100
AcDbLine
 62
7
  6
CONTINUOUS
 10
8.5123102695
 20
-4.0761052632
 11
8.5123102695
 21
3.9738947368
  0
LINE
  5
6B6
100
AcDbEntity
  8
DRAFT
100
AcDbLine
 62
7
  6
CONTINUOUS
 10
8.5995789474
 20
18.3088014637
 11
8.5995789474
 21
4.9215343808
  0
LINE
  5
6B7
100
AcDbEntity
  8
DRAFT
100
AcDbLine
 62
7
  6
CONTINUOUS
 10
8.5995789474
 20
-16.0388365853
 11
8.5995789474
 21
-23.56101199
  0
LINE
  5
6B8
100
AcDbEntity
  8
RACCORDO
100
AcDbLine
 62
7
  6
CONTINUOUS
 10
8.5995789474
 20
-16.0384002419
 11
8.5995789474
 21
-15.178727421
  0
LINE
  5
6B9
100
AcDbEntity
  8
DRAFT
100
AcDbLine
 62
7
  6
CONTINUOUS
 10
8.5995789474
 20
-15.1784656192
 11
8.5995789474
 21
-12.0388365853
  0
LINE
  5
6BA
100
AcDbEntity
  8
RACCORDO
100
AcDbLine
 62
7
  6
CONTINUOUS
 10
8.5995789474
 20
-12.0384002419
 11
8.5995789474
 21
-11.2138102845
  0
LINE
  5
6BB
100
AcDbEntity
  8
DRAFT
100
AcDbLine
 62
7
  6
CONTINUOUS
 10
8.5995789474
 20
-11.2133739411
 11
8.5995789474
 21
-4.9888365853
  0
LINE
  5
6BC
100
AcDbEntity
  8
RACCORDO
100
AcDbLine
 62
7
  6
CONTINUOUS
 10
8.5995789474
 20
-4.9884002419
 11
8.5995789474
 21
-4.1638102845
  0
LINE
  5
6BD
100
AcDbEntity
  8
DRAFT
100
AcDbLine
 62
7
  6
CONTINUOUS
 10
8.5995789474
 20
-4.1633739411
 11
8.5995789474
 21
3.9738947368
  0
LINE
  5
6BE
100
AcDbEntity
  8
RACCORDO
100
AcDbLine
 62
7
  6
CONTINUOUS
 10
8.5995789474
 20
3.9738947368
 11
8.5995789474
 21
4.921272579
  0
LWPOLYLINE
  5
6BF
100
AcDbEntity
  8
IMPORT_IGES
100
AcDbPolyline
 62
253
  6
CONTINUOUS
 90
6
 70
0
 10
1.7354423187
 20
-12.1519533938
 10
1.7241445913
 20
-12.1648112804
 10
1.7150100319
 20
-12.1788499019
 10
1.7082540362
 20
-12.1938214192
 10
1.7040322213
 20
-12.2094947815
 10
1.7024733621
 20
-12.2255979563
  0
LWPOLYLINE
  5
6C0
100
AcDbEntity
  8
IMPORT_IGES
100
AcDbPolyline
 62
7
  6
CONTINUOUS
 90
6
 70
0
 10
1.8297498831
 20
-12.3063520907
 10
1.8346655189
 20
-12.3013051869
 10
1.8388620439
 20
-12.2958382929
 10
1.8426322557
 20
-12.2899242263
 10
1.8460189441
 20
-12.2835917369
 10
1.8487582891
 20
-12.2769066067
  0
LWPOLYLINE
  5
6C1
100
AcDbEntity
  8
RACCORDO
100
AcDbPolyline
 62
7
  6
CONTINUOUS
 90
4
 70
0
 10
8.3495789474
 20
-4.4138198041
 10
8.3673996475
 20
-4.3958090248
 10
8.3854755434
 20
-4.3777677413
 10
8.4037027979
 20
-4.3596959535
  0
LWPOLYLINE
  5
6C2
100
AcDbEntity
  8
RACCORDO
100
AcDbPolyline
 62
7
  6
CONTINUOUS
 90
9
 70
0
 10
8.5249825138
 20
-4.23844322
 10
8.5397687698
 20
-4.2235020343
 10
8.5535404115
 20
-4.2098583399
 10
8.565998839
 20
-4.197412823
 10
8.5769153686
 20
-4.1862647975
 10
8.5861515176
 20
-4.1772472338
 10
8.5933253139
 20
-4.1706377888
 10
8.5979449245
 20
-4.1661588057
 10
8.5995789474
 20
-4.1638102845
  0
LINE
  5
6C3
100
AcDbEntity
  8
DRAFT
100
AcDbLine
 62
7
  6
CONTINUOUS
 10
8.5123102695
 20
-5.0761052632
 11
8.5995789474
 21
-4.9888365853
  0
LINE
  5
6C4
100
AcDbEntity
  8
ASSI
100
AcDbLine
 62
7
  6
CONTINUOUS
 10
-7.3004210526
 20
-21.8761052632
 11
-7.3946971092
 21
-21.9703813198
  0
LINE
  5
6C5
100
AcDbEntity
  8
RACCORDO
100
AcDbLine
 62
7
  6
CONTINUOUS
 10
-8.7383336865
 20
-23.793411709
 11
-9.0661424185
 21
-24.1215393708
  0
LINE
  5
6C6
100
AcDbEntity
  8
RACCORDO
100
AcDbLine
 62
7
  6
CONTINUOUS
 10
8.4037027979
 20
-4.3596959535
 11
8.5249825138
 21
-4.23844322
  0
LINE
  5
6C7
100
AcDbEntity
  8
RACCORDO
100
AcDbLine
 62
7
  6
CONTINUOUS
 10
-8.7051911715
 20
-23.7604643475
 11
-8.7383336865
 21
-23.793411709
  0
LINE
  5
6C8
100
AcDbEntity
  8
RACCORDO
100
AcDbLine
 62
7
  6
CONTINUOUS
 10
-9.0661424185
 20
-24.1215393708
 11
-9.1030963005
 21
-24.1582202679
  0
LWPOLYLINE
  5
6C9
100
AcDbEntity
  8
RACCORDO
100
AcDbPolyline
 62
7
  6
CONTINUOUS
 90
3
 70
0
 10
-8.615384522
 20
-23.6707255561
 10
-8.6437165892
 20
-23.6987926123
 10
-8.7051911715
 20
-23.7604643475
  0
LWPOLYLINE
  5
6CA
100
AcDbEntity
  8
IMPORT_IGES
100
AcDbPolyline
 62
7
  6
CONTINUOUS
 90
6
 70
0
 10
1.7486603217
 20
-12.3562398361
 10
1.7569780138
 20
-12.3492098279
 10
1.7659325451
 20
-12.342701874
 10
1.7754761874
 20
-12.3367960641
 10
1.7856697335
 20
-12.3315094112
 10
1.7886000962
 20
-12.3301675797
  0
LWPOLYLINE
  5
6CB
100
AcDbEntity
  8
IMPORT_IGES
100
AcDbPolyline
 62
253
  6
CONTINUOUS
 90
10
 70
0
 10
1.7960379007
 20
-9.9999282656
 10
1.7808782171
 20
-10.006782135
 10
1.7656845378
 20
-10.0151301682
 10
1.7507854794
 20
-10.0248485695
 10
1.7366551773
 20
-10.0356294047
 10
1.7234309164
 20
-10.047332758
 10
1.7109903423
 20
-10.0601012512
 10
1.6995496301
 20
-10.0738301198
 10
1.6895378348
 20
-10.0880853744
 10
1.681182012
 20
-10.1025343666
  0
LWPOLYLINE
  5
6CC
100
AcDbEntity
  8
IMPORT_IGES
100
AcDbPolyline
 62
253
  6
CONTINUOUS
 90
8
 70
0
 10
2.4495789474
 20
-9.7899805987
 10
2.4479064766
 20
-9.7905413365
 10
2.4429400187
 20
-9.7910908086
 10
2.4347959699
 20
-9.7916200332
 10
2.4237054586
 20
-9.7921180544
 10
2.4098456914
 20
-9.7925798577
 10
2.3931964937
 20
-9.7930045169
 10
2.3738117245
 20
-9.793385696
  0
LWPOLYLINE
  5
6CD
100
AcDbEntity
  8
IMPORT_IGES
100
AcDbPolyline
 62
253
  6
CONTINUOUS
 90
5
 70
0
 10
-9.8108197278
 20
-14.1576460786
 10
-9.8217113468
 20
-14.1608367079
 10
-9.8320348512
 20
-14.1616552277
 10
-9.8416382213
 20
-14.1601745784
 10
-9.8504210527
 20
-14.1564544328
  0
LWPOLYLINE
  5
6CE
100
AcDbEntity
  8
IMPORT_IGES
100
AcDbPolyline
 62
253
  6
CONTINUOUS
 90
4
 70
0
 10
1.6995789486
 20
6.8238955018
 10
1.7012927562
 20
6.8240673444
 10
1.7063990665
 20
6.8242258102
 10
1.7148104264
 20
6.8243736069
  0
LWPOLYLINE
  5
6CF
100
AcDbEntity
  8
IMPORT_IGES
100
AcDbPolyline
 62
253
  6
CONTINUOUS
 90
13
 70
0
 10
4.9025789474
 20
6.4704013978
 10
4.8771397729
 20
6.4692527196
 10
4.8520697133
 20
6.4658172026
 10
4.82778079
 20
6.460138792
 10
4.8047498876
 20
6.4523280757
 10
4.783278053
 20
6.4424862013
 10
4.7635430704
 20
6.4306388457
 10
4.7458559032
 20
6.41683756
 10
4.7307332385
 20
6.4013300651
 10
4.7186211488
 20
6.3844756646
 10
4.7097886807
 20
6.3666092452
 10
4.7043961176
 20
6.3480006493
 10
4.7025789474
 20
6.3289800667
  0
LWPOLYLINE
  5
6D0
100
AcDbEntity
  8
IMPORT_IGES
100
AcDbPolyline
 62
253
  6
CONTINUOUS
 90
13
 70
0
 10
-10.2594848994
 20
5.7143376089
 10
-10.2979977825
 20
5.7129181832
 10
-10.3357164625
 20
5.7080389454
 10
-10.3720337197
 20
5.6998230856
 10
-10.4062019767
 20
5.6885141856
 10
-10.4378972121
 20
5.6742974175
 10
-10.4670880027
 20
5.6571421999
 10
-10.4933557089
 20
5.6370926772
 10
-10.5159231744
 20
5.6145104328
 10
-10.5341900682
 20
5.5898250601
 10
-10.5477282979
 20
5.563471056
 10
-10.5562300295
 20
5.5358511109
 10
-10.5594392085
 20
5.5074412631
  0
LINE
  5
6D1
100
AcDbEntity
  8
IMPORT_IGES
100
AcDbLine
 62
253
  6
CONTINUOUS
 10
1.7148104264
 20
6.8243736069
 11
1.7409182044
 21
6.8246564816
  0
LINE
  5
6D2
100
AcDbEntity
  8
IMPORT_IGES
100
AcDbLine
 62
253
  6
CONTINUOUS
 10
1.7409182044
 20
6.8246564816
 11
1.8230502353
 21
6.8250473196
  0
LINE
  5
6D3
100
AcDbEntity
  8
IMPORT_IGES
100
AcDbLine
 62
253
  6
CONTINUOUS
 10
-9.1413397431
 20
6.8251175395
 11
-6.5004210523
 21
6.8251399438
  0
LINE
  5
6D4
100
AcDbEntity
  8
IMPORT_IGES
100
AcDbLine
 62
253
  6
CONTINUOUS
 10
1.4995789474
 20
6.8774481275
 11
-6.1004210526
 21
6.8774481277
  0
LINE
  5
6D5
100
AcDbEntity
  8
IMPORT_IGES
100
AcDbLine
 62
7
  6
CONTINUOUS
 10
4.5783756064
 20
7.0238947368
 11
-9.1792183963
 21
7.0238947368
  0
LINE
  5
6D6
100
AcDbEntity
  8
IMPORT_IGES
100
AcDbLine
 62
253
  6
CONTINUOUS
 10
4.1995789474
 20
7.1238947368
 11
-8.8004210526
 21
7.1238947368
  0
LINE
  5
6D7
100
AcDbEntity
  8
IMPORT_IGES
100
AcDbLine
 62
253
  6
CONTINUOUS
 10
4.5405071459
 20
6.8251173301
 11
1.8230502353
 21
6.8250473196
  0
LINE
  5
6D8
100
AcDbEntity
  8
IMPORT_IGES
100
AcDbLine
 62
253
  6
CONTINUOUS
 10
-6.5004210522
 20
6.8251393018
 11
-6.3786714288
 21
6.8248825571
  0
LWPOLYLINE
  5
6D9
100
AcDbEntity
  8
IMPORT_IGES
100
AcDbPolyline
 62
253
  6
CONTINUOUS
 90
6
 70
0
 10
-6.3786714288
 20
6.8248825571
 10
-6.3272177185
 20
6.8245168808
 10
-6.3156463449
 20
6.8243726665
 10
-6.3072365083
 20
6.8242249137
 10
-6.3021322572
 20
6.8240665066
 10
-6.3004210526
 20
6.8238947368
  0
LWPOLYLINE
  5
6DA
100
AcDbEntity
  8
IMPORT_IGES
100
AcDbPolyline
 62
253
  6
CONTINUOUS
 90
13
 70
0
 10
-9.5034226938
 20
6.4704224464
 10
-9.4773167182
 20
6.4692033074
 10
-9.4516575959
 20
6.4655873457
 10
-9.4268843662
 20
6.4596363632
 10
-9.4034209473
 20
6.4514529535
 10
-9.3816687186
 20
6.4411763672
 10
-9.3619996964
 20
6.4289800667
 10
-9.3447503846
 20
6.4150719336
 10
-9.3302159719
 20
6.3996907448
 10
-9.3186451461
 20
6.3830996767
 10
-9.3102358874
 20
6.3655826071
 10
-9.3051320804
 20
6.3474392578
 10
-9.3034210526
 20
6.3289800667
  0
LWPOLYLINE
  5
6DB
100
AcDbEntity
  8
IMPORT_IGES
100
AcDbPolyline
 62
253
  6
CONTINUOUS
 90
8
 70
0
 10
1.6582496154
 20
6.8221186381
 10
1.6410003036
 20
6.8360267712
 10
1.6213312332
 20
6.8482238766
 10
1.5995789474
 20
6.8585012583
 10
1.5761156338
 20
6.8666830677
 10
1.5513427564
 20
6.8726293116
 10
1.5256841858
 20
6.8762382482
 10
1.4995789474
 20
6.8774481276
  0
LINE
  5
6DC
100
AcDbEntity
  8
RACCORDO
100
AcDbLine
 62
7
  6
CONTINUOUS
 10
-9.0661424185
 20
18.8693288444
 11
-9.1030963005
 21
18.9060097415
  0
LINE
  5
6DD
100
AcDbEntity
  8
RACCORDO
100
AcDbLine
 62
253
  6
CONTINUOUS
 10
6.0153136849
 20
2.2581504801
 11
6.0495789474
 21
2.2238852176
  0
LINE
  5
6DE
100
AcDbEntity
  8
DRAFT
100
AcDbLine
 62
7
  6
CONTINUOUS
 10
0.9417247664
 20
8.0817489179
 11
0.9495789474
 21
8.0738947368
  0
LINE
  5
6DF
100
AcDbEntity
  8
ASSI
100
AcDbLine
 62
7
  6
CONTINUOUS
 10
-7.3946971092
 20
16.7181707934
 11
-7.3051334847
 21
16.6286071689
  0
LINE
  5
6E0
100
AcDbEntity
  8
RACCORDO
100
AcDbLine
 62
7
  6
CONTINUOUS
 10
-8.7051911715
 20
18.5082538212
 11
-8.7724687624
 21
18.5753822034
  0
LINE
  5
6E1
100
AcDbEntity
  8
RACCORDO
100
AcDbLine
 62
7
  6
CONTINUOUS
 10
-8.6437165892
 20
18.446582086
 11
-8.7051911715
 21
18.5082538212
  0
LINE
  5
6E2
100
AcDbEntity
  8
RACCORDO
100
AcDbLine
 62
7
  6
CONTINUOUS
 10
-8.7724687624
 20
18.5753822034
 11
-9.0661424185
 21
18.8693288444
  0
LWPOLYLINE
  5
6E3
100
AcDbEntity
  8
RACCORDO
100
AcDbPolyline
 62
7
  6
CONTINUOUS
 90
3
 70
0
 10
-8.5662132453
 20
18.3690407178
 10
-8.615384522
 20
18.4185150298
 10
-8.6437165892
 20
18.446582086
  0
LINE
  5
6E4
100
AcDbEntity
  8
RACCORDO
100
AcDbLine
 62
253
  6
CONTINUOUS
 10
5.1205956183
 20
6.7053853025
 11
5.1061089251
 21
6.7338124208
  0
LWPOLYLINE
  5
6E5
100
AcDbEntity
  8
IMPORT_IGES
100
AcDbPolyline
 62
253
  6
CONTINUOUS
 90
8
 70
0
 10
4.6709696282
 20
6.6053219477
 10
4.6781044167
 20
6.5912209966
 10
4.6846530206
 20
6.5779540881
 10
4.6903881727
 20
6.5660753877
 10
4.6952974257
 20
6.5563749065
 10
4.6991653153
 20
6.5491144159
 10
4.7016816039
 20
6.5440273263
 10
4.7025789461
 20
6.5411098138
  0
LWPOLYLINE
  5
6E6
100
AcDbEntity
  8
IMPORT_IGES
100
AcDbPolyline
 62
253
  6
CONTINUOUS
 90
3
 70
0
 10
4.576017309
 20
6.7955566094
 10
4.6545457011
 20
6.6385656637
 10
4.6709696282
 20
6.6053219477
  0
LINE
  5
6E7
100
AcDbEntity
  8
DRAFT
100
AcDbLine
 62
7
  6
CONTINUOUS
 10
9.3467032678
 20
-23.4018373716
 11
9.2995789474
 21
-20.1261052632
  0
LINE
  5
6E8
100
AcDbEntity
  8
DRAFT
100
AcDbLine
 62
7
  6
CONTINUOUS
 10
9.2995789474
 20
18.3088014637
 11
9.2995789474
 21
14.8738947368
  0
LINE
  5
6E9
100
AcDbEntity
  8
DRAFT
100
AcDbLine
 62
7
  6
CONTINUOUS
 10
9.2995789474
 20
-20.1261052632
 11
9.2995789474
 21
-23.56101199
  0
LINE
  5
6EA
100
AcDbEntity
  8
DRAFT
100
AcDbLine
 62
7
  6
CONTINUOUS
 10
9.3467032678
 20
-23.5924280441
 11
9.3467032678
 21
-23.4018373716
  0
LINE
  5
6EB
100
AcDbEntity
  8
DRAFT
100
AcDbLine
 62
7
  6
CONTINUOUS
 10
9.3467032678
 20
18.1496268452
 11
9.3467032678
 21
18.3402175178
  0
LINE
  5
6EC
100
AcDbEntity
  8
RACCORDO
100
AcDbLine
 62
7
  6
CONTINUOUS
 10
9.942483363
 20
21.0610862312
 11
9.942483363
 21
18.1496268452
  0
LINE
  5
6ED
100
AcDbEntity
  8
RACCORDO
100
AcDbLine
 62
7
  6
CONTINUOUS
 10
9.942483363
 20
-23.4018373716
 11
9.942483363
 21
-26.3132967575
  0
LINE
  5
6EE
100
AcDbEntity
  8
RACCORDO
100
AcDbLine
 62
7
  6
CONTINUOUS
 10
10.0995789474
 20
21.1239191051
 11
10.0995789474
 21
14.8738947368
  0
LINE
  5
6EF
100
AcDbEntity
  8
DRAFT
100
AcDbLine
 62
7
  6
CONTINUOUS
 10
10.0995789474
 20
14.8738947368
 11
10.0995789474
 21
-20.1261052632
  0
LINE
  5
6F0
100
AcDbEntity
  8
RACCORDO
100
AcDbLine
 62
7
  6
CONTINUOUS
 10
10.0995789474
 20
-20.1261052632
 11
10.0995789474
 21
-26.3761296314
  0
LINE
  5
6F1
100
AcDbEntity
  8
DRAFT
100
AcDbLine
 62
7
  6
CONTINUOUS
 10
9.2995789474
 20
14.8738947368
 11
9.3467032678
 21
18.1496268452
  0
LINE
  5
6F2
100
AcDbEntity
  8
IMPORT_IGES
100
AcDbLine
 62
7
  6
CONTINUOUS
 10
5.1495789474
 20
-11.7712592375
 11
5.0796617656
 21
-11.8804052522
  0
LWPOLYLINE
  5
6F3
100
AcDbEntity
  8
IMPORT_IGES
100
AcDbPolyline
 62
253
  6
CONTINUOUS
 90
3
 70
0
 10
4.9454025055
 20
-13.9892090982
 10
4.9485392417
 20
-13.9850185883
 10
4.9495789472
 20
-13.9832496041
  0
LINE
  5
6F4
100
AcDbEntity
  8
DRAFT
100
AcDbLine
 62
7
  6
CONTINUOUS
 10
-6.2215878302
 20
-25.0618741787
 11
-6.2026801334
 21
-25.0391846891
  0
LINE
  5
6F5
100
AcDbEntity
  8
RACCORDO
100
AcDbLine
 62
253
  6
CONTINUOUS
 10
-12.9504458034
 20
-26.6261052632
 11
-12.8719039932
 21
-26.5632723893
  0
LINE
  5
6F6
100
AcDbEntity
  8
RACCORDO
100
AcDbLine
 62
7
  6
CONTINUOUS
 10
-12.7942693804
 20
-26.571326429
 11
-12.7157158715
 21
-26.5084841962
  0
LINE
  5
6F7
100
AcDbEntity
  8
DRAFT
100
AcDbLine
 62
7
  6
CONTINUOUS
 10
-13.9475453731
 20
-23.5924280441
 11
-13.9004210526
 21
-23.56101199
  0
LWPOLYLINE
  5
6F8
100
AcDbEntity
  8
IMPORT_IGES
100
AcDbPolyline
 62
7
  6
CONTINUOUS
 90
5
 70
0
 10
1.7479095864
 20
-12.3497331414
 10
1.7560803814
 20
-12.3451286136
 10
1.7643537922
 20
-12.3409280486
 10
1.7726623853
 20
-12.3370317291
 10
1.7810027999
 20
-12.3333140616
  0
LWPOLYLINE
  5
6F9
100
AcDbEntity
  8
IMPORT_IGES
100
AcDbPolyline
 62
7
  6
CONTINUOUS
 90
7
 70
0
 10
1.7885530518
 20
-12.3300250701
 10
1.7969128087
 20
-12.3263201684
 10
1.8044377968
 20
-12.3227940897
 10
1.8115648238
 20
-12.3191146587
 10
1.8181499768
 20
-12.3152049958
 10
1.8241855567
 20
-12.3109805498
 10
1.8297498831
 20
-12.3063520907
  0
LINE
  5
6FA
100
AcDbEntity
  8
IMPORT_IGES
100
AcDbLine
 62
7
  6
CONTINUOUS
 10
1.7810027999
 20
-12.3333140616
 11
1.7885530518
 21
-12.3300250701
  0
LWPOLYLINE
  5
6FB
100
AcDbEntity
  8
IMPORT_IGES
100
AcDbPolyline
 62
7
  6
CONTINUOUS
 90
3
 70
0
 10
1.7841382588
 20
-12.3319461557
 10
1.797752872
 20
-12.3264558043
 10
1.8190090248
 20
-12.3194658938
  0
LWPOLYLINE
  5
6FC
100
AcDbEntity
  8
RACCORDO
100
AcDbPolyline
 62
253
  6
CONTINUOUS
 90
7
 70
0
 10
-9.5063916692
 20
6.8795138458
 10
-9.5372102485
 20
6.8712566068
 10
-9.5669961951
 20
6.859822527
 10
-9.5954233249
 20
6.8453370151
 10
-9.6221807727
 20
6.8279584817
 10
-9.6469768203
 20
6.8078758116
 10
-9.6695375894
 20
6.7853101846
  0
LWPOLYLINE
  5
6FD
100
AcDbEntity
  8
RACCORDO
100
AcDbPolyline
 62
253
  6
CONTINUOUS
 90
3
 70
0
 10
-9.4430161959
 20
6.8861706767
 10
-9.4748785083
 20
6.8845034823
 10
-9.5063916692
 20
6.8795138458
  0
LINE
  5
6FE
100
AcDbEntity
  8
IMPORT_IGES
100
AcDbLine
 62
7
  6
CONTINUOUS
 10
4.0993067551
 20
7.2238947368
 11
-8.7004210526
 21
7.2238947368
  0
LINE
  5
6FF
100
AcDbEntity
  8
DRAFT
100
AcDbLine
 62
7
  6
CONTINUOUS
 10
-4.5504210526
 20
7.5738947368
 11
-0.0504210526
 21
7.5738947368
  0
LINE
  5
700
100
AcDbEntity
  8
RACCORDO
100
AcDbLine
 62
7
  6
CONTINUOUS
 10
7.1995979858
 20
8.0738947368
 11
0.9495789474
 21
8.0738947368
  0
LINE
  5
701
100
AcDbEntity
  8
RACCORDO
100
AcDbLine
 62
7
  6
CONTINUOUS
 10
-5.5504210526
 20
8.0738947368
 11
-11.8004400911
 21
8.0738947368
  0
LINE
  5
702
100
AcDbEntity
  8
RACCORDO
100
AcDbLine
 62
7
  6
CONTINUOUS
 10
7.1917438048
 20
8.0817489179
 11
0.9417247664
 21
8.0817489179
  0
LINE
  5
703
100
AcDbEntity
  8
RACCORDO
100
AcDbLine
 62
7
  6
CONTINUOUS
 10
-5.5425668716
 20
8.0817489179
 11
-11.7925859101
 21
8.0817489179
  0
LINE
  5
704
100
AcDbEntity
  8
RACCORDO
100
AcDbLine
 62
7
  6
CONTINUOUS
 10
-0.5504210526
 20
8.2741353552
 11
-4.0504210526
 21
8.2741353552
  0
LINE
  5
705
100
AcDbEntity
  8
RACCORDO
100
AcDbLine
 62
253
  6
CONTINUOUS
 10
-0.5504210526
 20
8.3738947368
 11
-4.0504210526
 21
8.3738947368
  0
LINE
  5
706
100
AcDbEntity
  8
DRAFT
100
AcDbLine
 62
7
  6
CONTINUOUS
 10
-4.5425668716
 20
8.4669132426
 11
-4.0504210526
 21
8.4669132426
  0
LINE
  5
707
100
AcDbEntity
  8
DRAFT
100
AcDbLine
 62
7
  6
CONTINUOUS
 10
-0.5504210526
 20
8.4669132426
 11
-0.0582752336
 21
8.4669132426
  0
LINE
  5
708
100
AcDbEntity
  8
0
100
AcDbLine
 62
7
  6
CONTINUOUS
 10
-4.0504210526
 20
8.5238947368
 11
-0.5504210526
 21
8.5238947368
  0
LINE
  5
709
100
AcDbEntity
  8
RACCORDO
100
AcDbLine
 62
7
  6
CONTINUOUS
 10
-0.0512937394
 20
8.5238947368
 11
-0.5504210526
 21
8.5238947368
  0
LINE
  5
70A
100
AcDbEntity
  8
RACCORDO
100
AcDbLine
 62
7
  6
CONTINUOUS
 10
-4.0504210526
 20
8.5238947368
 11
-4.5495483659
 21
8.5238947368
  0
LINE
  5
70B
100
AcDbEntity
  8
RACCORDO
100
AcDbLine
 62
7
  6
CONTINUOUS
 10
-0.0512937394
 20
8.5738947368
 11
-4.5495483659
 21
8.5738947368
  0
LWPOLYLINE
  5
70C
100
AcDbEntity
  8
IMPORT_IGES
100
AcDbPolyline
 62
253
  6
CONTINUOUS
 90
10
 70
0
 10
4.5405071459
 20
6.8251173301
 10
4.5454728906
 20
6.8244012275
 10
4.5501196467
 20
6.8230730645
 10
4.5544496089
 20
6.8211327587
 10
4.5583871205
 20
6.8186201362
 10
4.56201486
 20
6.8154952056
 10
4.5655691853
 20
6.8116382804
 10
4.5691268767
 20
6.8070095542
 10
4.5726096361
 20
6.8016489756
 10
4.576017309
 20
6.7955566094
  0
LWPOLYLINE
  5
70D
100
AcDbEntity
  8
RACCORDO
100
AcDbPolyline
 62
253
  6
CONTINUOUS
 90
3
 70
0
 10
4.9055352799
 20
6.8795168829
 10
4.8740301938
 20
6.8845041356
 10
4.8421740906
 20
6.8861706767
  0
LWPOLYLINE
  5
70E
100
AcDbEntity
  8
IMPORT_IGES
100
AcDbPolyline
 62
253
  6
CONTINUOUS
 90
13
 70
0
 10
4.7905054209
 20
6.9360283675
 10
4.7831703663
 20
6.940195846
 10
4.7725316596
 20
6.941082575
 10
4.758812284
 20
6.9384698026
 10
4.7427265771
 20
6.9325127208
 10
4.7247884698
 20
6.9235221115
 10
4.7049086463
 20
6.9114720859
 10
4.6837405912
 20
6.8967262026
 10
4.662026754
 20
6.8798320917
 10
4.6396348239
 20
6.8606712181
 10
4.6171132652
 20
6.8396269697
 10
4.5956069126
 20
6.817758119
 10
4.5758436068
 20
6.7959041705
  0
LINE
  5
70F
100
AcDbEntity
  8
DRAFT
100
AcDbLine
 62
7
  6
CONTINUOUS
 10
8.5995789474
 20
4.9215343808
 11
8.5123102695
 21
4.9738947368
  0
LINE
  5
710
100
AcDbEntity
  8
RACCORDO
100
AcDbLine
 62
253
  6
CONTINUOUS
 10
4.8421740906
 20
6.8861706767
 11
4.8374642435
 21
6.8890695173
  0
LINE
  5
711
100
AcDbEntity
  8
RACCORDO
100
AcDbLine
 62
253
  6
CONTINUOUS
 10
4.7824473795
 20
6.9229315762
 11
4.6996457612
 21
6.9738947368
  0
LINE
  5
712
100
AcDbEntity
  8
DRAFT
100
AcDbLine
 62
7
  6
CONTINUOUS
 10
-13.9475453731
 20
18.3402175178
 11
-13.9004210526
 21
18.3088014637
  0
LWPOLYLINE
  5
713
100
AcDbEntity
  8
IMPORT_IGES
100
AcDbPolyline
 62
253
  6
CONTINUOUS
 90
10
 70
0
 10
5.8682610837
 20
5.8582726771
 10
5.8542824958
 20
5.8683537174
 10
5.8375389766
 20
5.8728740564
 10
5.8179678812
 20
5.8711693512
 10
5.7955261846
 20
5.8622610043
 10
5.7704095979
 20
5.845706559
 10
5.743414581
 20
5.8222929605
 10
5.7153948964
 20
5.7926490397
 10
5.6869072837
 20
5.7565739109
 10
5.6586461505
 20
5.7143342197
  0
LWPOLYLINE
  5
714
100
AcDbEntity
  8
RACCORDO
100
AcDbPolyline
 62
7
  6
CONTINUOUS
 90
7
 70
0
 10
-12.7942692938
 20
21.3191158334
 10
-12.7982452719
 20
21.3222312458
 10
-12.8254352887
 20
21.3404002462
 10
-12.854765111
 20
21.3548648823
 10
-12.8857333388
 20
21.365377334
 10
-12.9178098689
 20
21.3717571519
 10
-12.9504458034
 20
21.3738947368
  0
LINE
  5
715
100
AcDbEntity
  8
RACCORDO
100
AcDbLine
 62
253
  6
CONTINUOUS
 10
-12.9504458034
 20
21.3738947368
 11
-12.8719039932
 21
21.311061863
  0
LINE
  5
716
100
AcDbEntity
  8
RACCORDO
100
AcDbLine
 62
7
  6
CONTINUOUS
 10
-12.7942693804
 20
21.3191159027
 11
-12.7157158715
 21
21.2562736698
  0
LWPOLYLINE
  5
717
100
AcDbEntity
  8
RACCORDO
100
AcDbPolyline
 62
7
  6
CONTINUOUS
 90
6
 70
0
 10
8.566234501
 20
4.0072091188
 10
8.5773668089
 20
3.996300504
 10
8.5863522528
 20
3.9871214314
 10
8.592908015
 20
3.9800370129
 10
8.5973169132
 20
3.9754952012
 10
8.5995789474
 20
3.9738947368
  0
LWPOLYLINE
  5
718
100
AcDbEntity
  8
RACCORDO
100
AcDbPolyline
 62
7
  6
CONTINUOUS
 90
3
 70
0
 10
8.5252580266
 20
4.0481903129
 10
8.5401801099
 20
4.0334245568
 10
8.566234501
 20
4.0072091188
  0
LINE
  5
719
100
AcDbEntity
  8
RACCORDO
100
AcDbLine
 62
7
  6
CONTINUOUS
 10
8.3495789474
 20
4.2238947368
 11
8.3676904754
 21
4.2059743092
  0
LWPOLYLINE
  5
71A
100
AcDbEntity
  8
RACCORDO
100
AcDbPolyline
 62
253
  6
CONTINUOUS
 90
7
 70
0
 10
5.0686458894
 20
6.7853652656
 10
5.0460796359
 20
6.8079254031
 10
5.0212826745
 20
6.8279991603
 10
4.9945318016
 20
6.8453655451
 10
4.9661175365
 20
6.8598388015
 10
4.9363442912
 20
6.8712643575
 10
4.9055352799
 20
6.8795168829
  0
LINE
  5
71B
100
AcDbEntity
  8
IMPORT_IGES
100
AcDbLine
 62
253
  6
CONTINUOUS
 10
4.9025789474
 20
6.4704014224
 11
5.6586414672
 21
5.714331878
  0
LINE
  5
71C
100
AcDbEntity
  8
IMPORT_IGES
100
AcDbLine
 62
7
  6
CONTINUOUS
 10
5.8682631663
 20
5.8582705945
 11
4.7905071673
 21
6.9360265936
  0
LINE
  5
71D
100
AcDbEntity
  8
RACCORDO
100
AcDbLine
 62
7
  6
CONTINUOUS
 10
8.3676904754
 20
4.2059743092
 11
8.5252580266
 21
4.0481903129
  0
LINE
  5
71E
100
AcDbEntity
  8
DRAFT
100
AcDbLine
 62
7
  6
CONTINUOUS
 10
-6.2215878302
 20
19.8096636524
 11
-6.2026801334
 21
19.7869741628
  0
LWPOLYLINE
  5
71F
100
AcDbEntity
  8
RACCORDO
100
AcDbPolyline
 62
253
  6
CONTINUOUS
 90
3
 70
0
 10
5.1061089251
 20
6.7338124208
 10
5.0887293824
 20
6.7605696477
 10
5.0686458894
 20
6.7853652656
  0
LWPOLYLINE
  5
720
100
AcDbEntity
  8
IMPORT_IGES
100
AcDbPolyline
 62
253
  6
CONTINUOUS
 90
11
 70
0
 10
5.9478086724
 20
5.5611666316
 10
5.9352944662
 20
5.5866328108
 10
5.918459631
 20
5.610503587
 10
5.8975740933
 20
5.6325544912
 10
5.8725955497
 20
5.6527625063
 10
5.8435969169
 20
5.6708330583
 10
5.8111086974
 20
5.6862257005
 10
5.7757531157
 20
5.6985262216
 10
5.7381550915
 20
5.7074426384
 10
5.6988916452
 20
5.7127675795
 10
5.6586421806
 20
5.7143318843
  0
LWPOLYLINE
  5
721
100
AcDbEntity
  8
RACCORDO
100
AcDbPolyline
 62
7
  6
CONTINUOUS
 90
13
 70
0
 10
10.0995789474
 20
21.1239191051
 10
10.097439967
 20
21.1565503292
 10
10.0910595829
 20
21.188622647
 10
10.080547022
 20
21.2195873433
 10
10.0660820746
 20
21.2489147603
 10
10.0479123125
 20
21.2761030103
 10
10.0263490107
 20
21.3006866644
 10
10.0017611336
 20
21.3222451947
 10
9.97456943
 20
21.3404099385
 10
9.9452397244
 20
21.3548702513
 10
9.9142739943
 20
21.3653790299
 10
9.8822016958
 20
21.3717567984
 10
9.8495713299
 20
21.3738947368
  0
LINE
  5
722
100
AcDbEntity
  8
DRAFT
100
AcDbLine
 62
7
  6
CONTINUOUS
 10
10.0995789474
 20
14.8738947368
 11
9.942483363
 21
18.1496268452
  0
LINE
  5
723
100
AcDbEntity
  8
DRAFT
100
AcDbLine
 62
7
  6
CONTINUOUS
 10
9.942483363
 20
-23.4018373716
 11
10.0995789474
 21
-20.1261052632
  0
LWPOLYLINE
  5
724
100
AcDbEntity
  8
IMPORT_IGES
100
AcDbPolyline
 62
253
  6
CONTINUOUS
 90
5
 70
0
 10
4.885280456
 20
-14.0618064378
 10
4.9120308095
 20
-14.030347513
 10
4.9232984907
 20
-14.0169104945
 10
4.9327686462
 20
-14.005146853
 10
4.9454025055
 20
-13.9892090982
  0
LWPOLYLINE
  5
725
100
AcDbEntity
  8
IMPORT_IGES
100
AcDbPolyline
 62
253
  6
CONTINUOUS
 90
4
 70
0
 10
4.7495789473
 20
-14.2172958493
 10
4.7715187942
 20
-14.1916980401
 10
4.7929883363
 20
-14.1671812226
 10
4.8335872396
 20
-14.1212315909
  0
LWPOLYLINE
  5
726
100
AcDbEntity
  8
IMPORT_IGES
100
AcDbPolyline
 62
253
  6
CONTINUOUS
 90
3
 70
0
 10
4.8335872396
 20
-14.1212315909
 10
4.8696160895
 20
-14.0799491998
 10
4.885280456
 20
-14.0618064378
  0
LWPOLYLINE
  5
727
100
AcDbEntity
  8
RACCORDO
100
AcDbPolyline
 62
7
  6
CONTINUOUS
 90
7
 70
0
 10
8.5397794848
 20
-11.2737510916
 10
8.5658211618
 20
-11.2475305777
 10
8.5769842846
 20
-11.236579305
 10
8.5860262488
 20
-11.2273725026
 10
8.5926649736
 20
-11.2202521023
 10
8.5971825398
 20
-11.2156171186
 10
8.5995789474
 20
-11.2138293233
  0
LWPOLYLINE
  5
728
100
AcDbEntity
  8
RACCORDO
100
AcDbPolyline
 62
7
  6
CONTINUOUS
 90
3
 70
0
 10
8.3677262339
 20
-11.445861882
 10
8.4222422982
 20
-11.3911278304
 10
8.4758196695
 20
-11.3375516153
  0
LWPOLYLINE
  5
729
100
AcDbEntity
  8
RACCORDO
100
AcDbPolyline
 62
7
  6
CONTINUOUS
 90
3
 70
0
 10
8.492921023
 20
-11.3205623058
 10
8.5249009307
 20
-11.2884745333
 10
8.5397794848
 20
-11.2737510916
  0
LINE
  5
72A
100
AcDbEntity
  8
DRAFT
100
AcDbLine
 62
7
  6
CONTINUOUS
 10
5.0495789474
 20
-15.1261052632
 11
5.0391068762
 21
-15.1365773344
  0
LINE
  5
72B
100
AcDbEntity
  8
DRAFT
100
AcDbLine
 62
7
  6
CONTINUOUS
 10
8.5995789474
 20
-12.0388365853
 11
8.5123102695
 21
-12.1261052632
  0
LINE
  5
72C
100
AcDbEntity
  8
RACCORDO
100
AcDbLine
 62
7
  6
CONTINUOUS
 10
8.4758196695
 20
-11.3375516153
 11
8.492921023
 21
-11.3205623058
  0
LINE
  5
72D
100
AcDbEntity
  8
RACCORDO
100
AcDbLine
 62
7
  6
CONTINUOUS
 10
8.3495789474
 20
-11.4638198041
 11
8.3677262339
 21
-11.445861882
  0
LWPOLYLINE
  5
72E
100
AcDbEntity
  8
IMPORT_IGES
100
AcDbPolyline
 62
253
  6
CONTINUOUS
 90
7
 70
0
 10
5.8643393896
 20
-13.7488619594
 10
5.8904926752
 20
-13.7257852743
 10
5.9126786546
 20
-13.7001054258
 10
5.9304501112
 20
-13.672323141
 10
5.9435018405
 20
-13.6429425008
 10
5.9516376379
 20
-13.6124417938
 10
5.954727504
 20
-13.581340985
  0
LWPOLYLINE
  5
72F
100
AcDbEntity
  8
RACCORDO
100
AcDbPolyline
 62
7
  6
CONTINUOUS
 90
7
 70
0
 10
-8.5031410787
 20
-23.5582650461
 10
-8.5076252417
 20
-23.5617574672
 10
-8.516080034
 20
-23.5704103599
 10
-8.5285054558
 20
-23.5836294231
 10
-8.5453740358
 20
-23.6007641522
 10
-8.5662132453
 20
-23.6212512441
 10
-8.615384522
 20
-23.6707255561
  0
LWPOLYLINE
  5
730
100
AcDbEntity
  8
ASSI
100
AcDbPolyline
 62
7
  6
CONTINUOUS
 90
3
 70
0
 10
-7.2917322632
 20
-24.1569282192
 10
-7.2467879342
 20
-24.1230042243
 10
-7.201524994
 20
-24.0893226597
  0
LINE
  5
731
100
AcDbEntity
  8
IMPORT_IGES
100
AcDbLine
 62
7
  6
CONTINUOUS
 10
5.8047731954
 20
-13.8359128843
 11
4.0727167663
 21
-14.8359161299
  0
LINE
  5
732
100
AcDbEntity
  8
IMPORT_IGES
100
AcDbLine
 62
253
  6
CONTINUOUS
 10
5.6551934402
 20
-13.8156926139
 11
5.1495789157
 21
-14.1073699135
  0
LINE
  5
733
100
AcDbEntity
  8
IMPORT_IGES
100
AcDbLine
 62
253
  6
CONTINUOUS
 10
4.7495822817
 20
-14.2172958493
 11
3.9727223786
 21
-14.6636546078
  0
LWPOLYLINE
  5
734
100
AcDbEntity
  8
IMPORT_IGES
100
AcDbPolyline
 62
253
  6
CONTINUOUS
 90
10
 70
0
 10
3.9727223786
 20
-14.6636546078
 10
3.9675798631
 20
-14.66641108
 10
3.9623201473
 20
-14.6688528577
 10
3.9569432311
 20
-14.6709799406
 10
3.9514305273
 20
-14.6727977504
 10
3.945800623
 20
-14.6743008651
 10
3.9401092803
 20
-14.6754730188
 10
3.9343750863
 20
-14.6763087894
 10
3.9285794537
 20
-14.6768135988
 10
3.9227223827
 20
-14.6769874469
  0
LWPOLYLINE
  5
735
100
AcDbEntity
  8
IMPORT_IGES
100
AcDbPolyline
 62
253
  6
CONTINUOUS
 90
10
 70
0
 10
5.8047731954
 20
-13.8359128843
 10
5.7915356192
 20
-13.8422087687
 10
5.7771225983
 20
-13.8464594462
 10
5.7616249075
 20
-13.8485837176
 10
5.7450676855
 20
-13.8485119969
 10
5.7276396639
 20
-13.8461795637
 10
5.7097229958
 20
-13.8416286503
 10
5.6915603986
 20
-13.8349707071
 10
5.6732235053
 20
-13.8262842754
 10
5.6548624329
 20
-13.8156761006
  0
LWPOLYLINE
  5
736
100
AcDbEntity
  8
IMPORT_IGES
100
AcDbPolyline
 62
253
  6
CONTINUOUS
 90
4
 70
0
 10
5.767125074
 20
-13.7989678366
 10
5.802061169
 20
-13.785759849
 10
5.8346877749
 20
-13.7689603916
 10
5.8643393896
 20
-13.7488619594
  0
LWPOLYLINE
  5
737
100
AcDbEntity
  8
RACCORDO
100
AcDbPolyline
 62
7
  6
CONTINUOUS
 90
6
 70
0
 10
-8.5031410787
 20
18.3060545197
 10
-8.5076252417
 20
18.3095469409
 10
-8.516080034
 20
18.3181998336
 10
-8.5285054558
 20
18.3314188968
 10
-8.5453740358
 20
18.3485536259
 10
-8.5662132453
 20
18.3690407178
  0
LINE
  5
738
100
AcDbEntity
  8
RACCORDO
100
AcDbLine
 62
253
  6
CONTINUOUS
 10
7.1995979858
 20
8.0738947368
 11
7.1917438048
 21
8.0817489179
  0
LINE
  5
739
100
AcDbEntity
  8
RACCORDO
100
AcDbLine
 62
253
  6
CONTINUOUS
 10
5.1995789474
 20
-17.5262089948
 11
5.1118548872
 21
-17.6336324332
  0
LWPOLYLINE
  5
73A
100
AcDbEntity
  8
ASSI
100
AcDbPolyline
 62
7
  6
CONTINUOUS
 90
19
 70
0
 10
-7.201524994
 20
-24.0893226597
 10
-7.1104527625
 20
-24.0225577004
 10
-7.0648511759
 20
-23.9894743056
 10
-7.0192966074
 20
-23.9570207054
 10
-6.9738726903
 20
-23.9251516266
 10
-6.9287359994
 20
-23.8939123424
 10
-6.8840628728
 20
-23.8638260367
 10
-6.840031227
 20
-23.8348965964
 10
-6.7967188628
 20
-23.8071201347
 10
-6.7541620957
 20
-23.7810081745
 10
-6.7126502665
 20
-23.75653923
 10
-6.6721777865
 20
-23.7337347872
 10
-6.6324108711
 20
-23.7131708268
 10
-6.5934110453
 20
-23.6945944543
 10
-6.5555911596
 20
-23.6782585644
 10
-6.5192178311
 20
-23.6654978215
 10
-6.4845514332
 20
-23.6567571138
 10
-6.4518488122
 20
-23.6515915531
 10
-6.4213811144
 20
-23.6500011395
  0
LINE
  5
73B
100
AcDbEntity
  8
DRAFT
100
AcDbLine
 62
7
  6
CONTINUOUS
 10
-13.2004210526
 20
-23.56101199
 11
-13.1131523747
 21
-23.5261052632
  0
LINE
  5
73C
100
AcDbEntity
  8
DRAFT
100
AcDbLine
 62
7
  6
CONTINUOUS
 10
-13.2004210526
 20
18.3088014637
 11
-13.1131523747
 21
18.2738947368
  0
LWPOLYLINE
  5
73D
100
AcDbEntity
  8
ASSI
100
AcDbPolyline
 62
7
  6
CONTINUOUS
 90
5
 70
0
 10
-7.0642844063
 20
18.7368557122
 10
-7.1557382291
 20
18.8034507529
 10
-7.2013363278
 20
18.8369702301
 10
-7.2467002458
 20
18.8707258768
 10
-7.2917322632
 20
18.9047176929
  0
LINE
  5
73E
100
AcDbEntity
  8
RACCORDO
100
AcDbLine
 62
253
  6
CONTINUOUS
 10
7.6995789474
 20
8.5738756984
 11
7.6917247664
 21
8.5817298794
  0
LWPOLYLINE
  5
73F
100
AcDbEntity
  8
RACCORDO
100
AcDbPolyline
 62
7
  6
CONTINUOUS
 90
7
 70
0
 10
8.5399397429
 20
-15.2385015387
 10
8.5659866589
 20
-15.2122829742
 10
8.5771375534
 20
-15.2013487335
 10
8.5861569486
 20
-15.1921528467
 10
8.5927624474
 20
-15.1850464402
 10
8.5972364469
 20
-15.1804480876
 10
8.5995789474
 20
-15.1787342749
  0
LWPOLYLINE
  5
740
100
AcDbEntity
  8
RACCORDO
100
AcDbPolyline
 62
7
  6
CONTINUOUS
 90
3
 70
0
 10
8.3677118535
 20
-15.4107880003
 10
8.4222370807
 20
-15.3560440842
 10
8.475886132
 20
-15.30239576
  0
LWPOLYLINE
  5
741
100
AcDbEntity
  8
RACCORDO
100
AcDbPolyline
 62
7
  6
CONTINUOUS
 90
3
 70
0
 10
8.4930169159
 20
-15.2853777779
 10
8.5250437213
 20
-15.253241965
 10
8.5399397429
 20
-15.2385015387
  0
LINE
  5
742
100
AcDbEntity
  8
DRAFT
100
AcDbLine
 62
7
  6
CONTINUOUS
 10
8.5995789474
 20
-16.0388365853
 11
8.5123102695
 21
-16.1261052632
  0
LINE
  5
743
100
AcDbEntity
  8
RACCORDO
100
AcDbLine
 62
7
  6
CONTINUOUS
 10
8.475886132
 20
-15.30239576
 11
8.4930169159
 21
-15.2853777779
  0
LINE
  5
744
100
AcDbEntity
  8
RACCORDO
100
AcDbLine
 62
7
  6
CONTINUOUS
 10
8.3495789474
 20
-15.428730848
 11
8.3677118535
 21
-15.4107880003
  0
LINE
  5
745
100
AcDbEntity
  8
RACCORDO
100
AcDbLine
 62
253
  6
CONTINUOUS
 10
4.699682679
 20
-18.0261052632
 11
4.8071061174
 21
-17.938381203
  0
LINE
  5
746
100
AcDbEntity
  8
RACCORDO
100
AcDbLine
 62
253
  6
CONTINUOUS
 10
-14.7004210526
 20
-26.3761296314
 11
-14.5433254683
 21
-26.3132967575
  0
LINE
  5
747
100
AcDbEntity
  8
RACCORDO
100
AcDbLine
 62
253
  6
CONTINUOUS
 10
-14.4504134352
 20
-26.6261052632
 11
-14.2933178509
 21
-26.5632723893
  0
LINE
  5
748
100
AcDbEntity
  8
RACCORDO
100
AcDbLine
 62
253
  6
CONTINUOUS
 10
-14.7004210526
 20
21.1239191051
 11
-14.5433254683
 21
21.0610862312
  0
LINE
  5
749
100
AcDbEntity
  8
RACCORDO
100
AcDbLine
 62
253
  6
CONTINUOUS
 10
-14.4504134352
 20
21.3738947368
 11
-14.2933178509
 21
21.311061863
  0
LINE
  5
74A
100
AcDbEntity
  8
RACCORDO
100
AcDbLine
 62
253
  6
CONTINUOUS
 10
4.8000983832
 20
-21.9755899397
 11
4.8995830597
 21
-21.8761052632
  0
LINE
  5
74B
100
AcDbEntity
  8
RACCORDO
100
AcDbLine
 62
253
  6
CONTINUOUS
 10
5.1000942709
 20
-22.2755858273
 11
5.1995789474
 21
-22.1761011508
  0
LINE
  5
74C
100
AcDbEntity
  8
RACCORDO
100
AcDbLine
 62
7
  6
CONTINUOUS
 10
4.1374915812
 20
-22.7587988173
 11
4.4653003132
 21
-22.4306711556
  0
LINE
  5
74D
100
AcDbEntity
  8
RACCORDO
100
AcDbLine
 62
7
  6
CONTINUOUS
 10
4.1043490662
 20
-22.7917461788
 11
4.1374915812
 21
-22.7587988173
  0
LINE
  5
74E
100
AcDbEntity
  8
RACCORDO
100
AcDbLine
 62
7
  6
CONTINUOUS
 10
4.4653003132
 20
-22.4306711556
 11
4.5022541953
 21
-22.3939902585
  0
LWPOLYLINE
  5
74F
100
AcDbEntity
  8
RACCORDO
100
AcDbPolyline
 62
7
  6
CONTINUOUS
 90
3
 70
0
 10
4.0145424167
 20
-22.8814849702
 10
4.042874484
 20
-22.853417914
 10
4.1043490662
 20
-22.7917461788
  0
LINE
  5
750
100
AcDbEntity
  8
ASSI
100
AcDbLine
 62
7
  6
CONTINUOUS
 10
2.6082369544
 20
-24.3701088842
 11
2.3787196334
 21
-24.5753026228
  0
LINE
  5
751
100
AcDbEntity
  8
ASSI
100
AcDbLine
 62
7
  6
CONTINUOUS
 10
2.690890158
 20
-24.2968225766
 11
2.6082369544
 21
-24.3701088842
  0
LWPOLYLINE
  5
752
100
AcDbEntity
  8
ASSI
100
AcDbPolyline
 62
7
  6
CONTINUOUS
 90
11
 70
0
 10
2.3787196334
 20
-24.5753026228
 10
2.2415103457
 20
-24.6959197271
 10
2.1784777828
 20
-24.7508430717
 10
2.1190682692
 20
-24.8018968837
 10
2.0633897068
 20
-24.8492746518
 10
2.0113938161
 20
-24.8928686199
 10
1.9631288764
 20
-24.9324171009
 10
1.9188476281
 20
-24.967850159
 10
1.8786343178
 20
-24.9990759992
 10
1.8424046988
 20
-25.0259994979
 10
1.810158771
 20
-25.0485766733
  0
LWPOLYLINE
  5
753
100
AcDbEntity
  8
RACCORDO
100
AcDbPolyline
 62
7
  6
CONTINUOUS
 90
7
 70
0
 10
3.9022989735
 20
-22.9939454803
 10
3.9067831364
 20
-22.9904530591
 10
3.9152379287
 20
-22.9818001664
 10
3.9276633505
 20
-22.9685811032
 10
3.9445319305
 20
-22.9514463741
 10
3.96537114
 20
-22.9309592822
 10
4.0145424167
 20
-22.8814849702
  0
LINE
  5
754
100
AcDbEntity
  8
ASSI
100
AcDbLine
 62
7
  6
CONTINUOUS
 10
3.7938412962
 20
-22.3939902585
 11
3.5720430788
 21
-22.565070701
  0
LWPOLYLINE
  5
755
100
AcDbEntity
  8
ASSI
100
AcDbPolyline
 62
7
  6
CONTINUOUS
 90
10
 70
0
 10
3.5720430788
 20
-22.565070701
 10
3.5029672815
 20
-22.61776026
 10
3.4364152001
 20
-22.6676590154
 10
3.3729583049
 20
-22.7146683547
 10
3.3127026456
 20
-22.7584952483
 10
3.2555421725
 20
-22.7989074472
 10
3.2017302073
 20
-22.8358959298
 10
3.1513511905
 20
-22.8693166977
 10
3.1043206816
 20
-22.8989412453
 10
3.0606386804
 20
-22.9246448226
  0
LINE
  5
756
100
AcDbEntity
  8
DRAFT
100
AcDbLine
 62
7
  6
CONTINUOUS
 10
-14.7004210526
 20
14.8738947368
 11
-13.9004210526
 21
14.8738947368
  0
LINE
  5
757
100
AcDbEntity
  8
DRAFT
100
AcDbLine
 62
7
  6
CONTINUOUS
 10
10.0995789474
 20
14.8738947368
 11
9.2995789474
 21
14.8738947368
  0
LINE
  5
758
100
AcDbEntity
  8
ASSI
100
AcDbLine
 62
7
  6
CONTINUOUS
 10
3.572010217
 20
17.3128853017
 11
3.7938412962
 21
17.1417797321
  0
LWPOLYLINE
  5
759
100
AcDbEntity
  8
RACCORDO
100
AcDbPolyline
 62
7
  6
CONTINUOUS
 90
6
 70
0
 10
3.9022989735
 20
17.7417349539
 10
3.9067831364
 20
17.7382425328
 10
3.9152379287
 20
17.7295896401
 10
3.9276633505
 20
17.7163705769
 10
3.9445319305
 20
17.6992358478
 10
3.96537114
 20
17.6787487559
  0
LWPOLYLINE
  5
75A
100
AcDbEntity
  8
ASSI
100
AcDbPolyline
 62
7
  6
CONTINUOUS
 90
3
 70
0
 10
2.1784777828
 20
19.4986325454
 10
2.3083034648
 20
19.3850939845
 10
2.3787196334
 20
19.3230920965
  0
LINE
  5
75B
100
AcDbEntity
  8
ASSI
100
AcDbLine
 62
7
  6
CONTINUOUS
 10
2.6082369544
 20
19.1178983579
 11
2.690890158
 21
19.0446120503
  0
LINE
  5
75C
100
AcDbEntity
  8
ASSI
100
AcDbLine
 62
7
  6
CONTINUOUS
 10
2.3787196334
 20
19.3230920965
 11
2.6082369544
 21
19.1178983579
  0
LINE
  5
75D
100
AcDbEntity
  8
RACCORDO
100
AcDbLine
 62
7
  6
CONTINUOUS
 10
4.4653003132
 20
17.1784606292
 11
4.5022541953
 21
17.1417797321
  0
LINE
  5
75E
100
AcDbEntity
  8
RACCORDO
100
AcDbLine
 62
253
  6
CONTINUOUS
 10
4.8948706276
 20
16.6286071689
 11
4.8000983832
 21
16.7233794134
  0
LINE
  5
75F
100
AcDbEntity
  8
RACCORDO
100
AcDbLine
 62
253
  6
CONTINUOUS
 10
5.1948665153
 20
16.9286030566
 11
5.1000942709
 21
17.023375301
  0
LINE
  5
760
100
AcDbEntity
  8
RACCORDO
100
AcDbLine
 62
7
  6
CONTINUOUS
 10
4.1043490662
 20
17.5395356525
 11
4.1716266572
 21
17.4724072703
  0
LINE
  5
761
100
AcDbEntity
  8
RACCORDO
100
AcDbLine
 62
7
  6
CONTINUOUS
 10
4.042874484
 20
17.6012073877
 11
4.1043490662
 21
17.5395356525
  0
LINE
  5
762
100
AcDbEntity
  8
RACCORDO
100
AcDbLine
 62
7
  6
CONTINUOUS
 10
4.1716266572
 20
17.4724072703
 11
4.4653003132
 21
17.1784606292
  0
LWPOLYLINE
  5
763
100
AcDbEntity
  8
RACCORDO
100
AcDbPolyline
 62
7
  6
CONTINUOUS
 90
3
 70
0
 10
3.96537114
 20
17.6787487559
 10
4.0145424167
 20
17.6292744439
 10
4.042874484
 20
17.6012073877
  0
LINE
  5
764
100
AcDbEntity
  8
DRAFT
100
AcDbLine
 62
7
  6
CONTINUOUS
 10
5.1000942709
 20
-23.5924280441
 11
5.1995789474
 21
-23.5261052632
  0
LWPOLYLINE
  5
765
100
AcDbEntity
  8
ASSI
100
AcDbPolyline
 62
7
  6
CONTINUOUS
 90
3
 70
0
 10
3.0606386804
 20
-22.9246448226
 10
3.0367613314
 20
-22.9361719793
 10
3.0136722093
 20
-22.9466913697
  0
LWPOLYLINE
  5
766
100
AcDbEntity
  8
ASSI
100
AcDbPolyline
 62
7
  6
CONTINUOUS
 90
8
 70
0
 10
3.0136722093
 20
-22.9466913697
 10
2.9913802377
 20
-22.9560753832
 10
2.9697861462
 20
-22.9642000503
 10
2.9490079007
 20
-22.9709219806
 10
2.9293788342
 20
-22.9761050978
 10
2.9110143445
 20
-22.9796427399
 10
2.8938136428
 20
-22.9814326512
 10
2.877783904
 20
-22.9813722253
  0
LINE
  5
767
100
AcDbEntity
  8
ASSI
100
AcDbLine
 62
7
  6
CONTINUOUS
 10
1.6018380281
 20
18.3875083188
 11
1.6909282349
 21
18.405325926
  0
LINE
  5
768
100
AcDbEntity
  8
RACCORDO
100
AcDbLine
 62
7
  6
CONTINUOUS
 10
3.9022222083
 20
18.3060106554
 11
3.6773998207
 21
18.2738947368
  0
LINE
  5
769
100
AcDbEntity
  8
ASSI
100
AcDbLine
 62
7
  6
CONTINUOUS
 10
3.0582171164
 20
17.7417788183
 11
2.877783904
 21
17.729161699
  0
LINE
  5
76A
100
AcDbEntity
  8
DRAFT
100
AcDbLine
 62
7
  6
CONTINUOUS
 10
2.7042913794
 20
17.7476496285
 11
2.8756531841
 21
17.7596324132
  0
LWPOLYLINE
  5
76B
100
AcDbEntity
  8
ASSI
100
AcDbPolyline
 62
7
  6
CONTINUOUS
 90
8
 70
0
 10
2.877783904
 20
17.729161699
 10
2.8938180352
 20
17.7292219222
 10
2.9110229815
 20
17.7274309625
 10
2.9293915524
 20
17.7238916518
 10
2.9490257196
 20
17.7187062534
 10
2.9698088815
 20
17.7119817187
 10
2.9914040671
 20
17.7038553748
 10
3.0136920442
 20
17.6944717895
  0
LINE
  5
76C
100
AcDbEntity
  8
RACCORDO
100
AcDbLine
 62
7
  6
CONTINUOUS
 10
-9.4957127329
 20
16.6286071689
 11
-7.3051334847
 21
16.6286071689
  0
LINE
  5
76D
100
AcDbEntity
  8
RACCORDO
100
AcDbLine
 62
7
  6
CONTINUOUS
 10
2.7042913794
 20
16.6286071689
 11
4.8948706276
 21
16.6286071689
  0
LINE
  5
76E
100
AcDbEntity
  8
ASSI
100
AcDbLine
 62
7
  6
CONTINUOUS
 10
-9.4009404884
 20
16.7233794134
 11
-8.3946834015
 21
16.7233794134
  0
LINE
  5
76F
100
AcDbEntity
  8
ASSI
100
AcDbLine
 62
7
  6
CONTINUOUS
 10
3.7938412962
 20
16.7233794134
 11
4.8000983832
 21
16.7233794134
  0
LINE
  5
770
100
AcDbEntity
  8
ASSI
100
AcDbLine
 62
253
  6
CONTINUOUS
 10
4.5022541953
 20
17.1417797321
 11
3.7938412962
 21
17.1417797321
  0
LINE
  5
771
100
AcDbEntity
  8
ASSI
100
AcDbLine
 62
253
  6
CONTINUOUS
 10
-8.3946834015
 20
17.1417797321
 11
-9.1030963005
 21
17.1417797321
  0
LINE
  5
772
100
AcDbEntity
  8
0
100
AcDbLine
 62
7
  6
CONTINUOUS
 10
1.117122026
 20
17.3595830224
 11
-5.7179641312
 21
17.3595830224
  0
LINE
  5
773
100
AcDbEntity
  8
RACCORDO
100
AcDbLine
 62
7
  6
CONTINUOUS
 10
3.9022222083
 20
17.7417788183
 11
3.0582171164
 21
17.7417788183
  0
LINE
  5
774
100
AcDbEntity
  8
RACCORDO
100
AcDbLine
 62
7
  6
CONTINUOUS
 10
-7.6590592216
 20
17.7417788183
 11
-8.5030643136
 21
17.7417788183
  0
LINE
  5
775
100
AcDbEntity
  8
ASSI
100
AcDbLine
 62
7
  6
CONTINUOUS
 10
-6.2504210526
 20
17.7595830224
 11
1.6495789474
 21
17.7595830224
  0
LINE
  5
776
100
AcDbEntity
  8
0
100
AcDbLine
 62
7
  6
CONTINUOUS
 10
3.6995789474
 20
17.7595830224
 11
-8.3004210526
 21
17.7595830224
  0
LINE
  5
777
100
AcDbEntity
  8
RACCORDO
100
AcDbLine
 62
7
  6
CONTINUOUS
 10
-11.7925859101
 20
17.8660405558
 11
-9.7957086206
 21
17.8660405558
  0
LINE
  5
778
100
AcDbEntity
  8
RACCORDO
100
AcDbLine
 62
7
  6
CONTINUOUS
 10
5.1948665153
 20
17.8660405558
 11
7.1917438048
 21
17.8660405558
  0
LINE
  5
779
100
AcDbEntity
  8
RACCORDO
100
AcDbLine
 62
7
  6
CONTINUOUS
 10
-11.8004400911
 20
17.8738947368
 11
-9.8004210526
 21
17.8738947368
  0
LINE
  5
77A
100
AcDbEntity
  8
RACCORDO
100
AcDbLine
 62
7
  6
CONTINUOUS
 10
5.1995789474
 20
17.8738947368
 11
7.1995979858
 21
17.8738947368
  0
LINE
  5
77B
100
AcDbEntity
  8
DRAFT
100
AcDbLine
 62
7
  6
CONTINUOUS
 10
-14.5433254683
 20
18.1496268452
 11
-13.9475453731
 21
18.1496268452
  0
LINE
  5
77C
100
AcDbEntity
  8
DRAFT
100
AcDbLine
 62
7
  6
CONTINUOUS
 10
9.942483363
 20
18.1496268452
 11
9.3467032678
 21
18.1496268452
  0
LINE
  5
77D
100
AcDbEntity
  8
0
100
AcDbLine
 62
7
  6
CONTINUOUS
 10
-8.3004210526
 20
18.1595830224
 11
-7.0442640234
 21
18.1595830224
  0
LINE
  5
77E
100
AcDbEntity
  8
0
100
AcDbLine
 62
7
  6
CONTINUOUS
 10
-7.032940559
 20
18.1595830224
 11
-6.2504210526
 21
18.1595830224
  0
LINE
  5
77F
100
AcDbEntity
  8
0
100
AcDbLine
 62
7
  6
CONTINUOUS
 10
3.6995789474
 20
18.1595830224
 11
2.4434219181
 21
18.1595830224
  0
LINE
  5
780
100
AcDbEntity
  8
0
100
AcDbLine
 62
7
  6
CONTINUOUS
 10
2.4320984537
 20
18.1595830224
 11
1.6495789474
 21
18.1595830224
  0
LINE
  5
781
100
AcDbEntity
  8
DRAFT
100
AcDbLine
 62
7
  6
CONTINUOUS
 10
8.5123102695
 20
18.2738947368
 11
5.1995789474
 21
18.2738947368
  0
LINE
  5
782
100
AcDbEntity
  8
DRAFT
100
AcDbLine
 62
7
  6
CONTINUOUS
 10
3.6773998207
 20
18.2738947368
 11
3.129645573
 21
18.2738947368
  0
LINE
  5
783
100
AcDbEntity
  8
DRAFT
100
AcDbLine
 62
7
  6
CONTINUOUS
 10
-7.7304876783
 20
18.2738947368
 11
-8.278241926
 21
18.2738947368
  0
LINE
  5
784
100
AcDbEntity
  8
DRAFT
100
AcDbLine
 62
7
  6
CONTINUOUS
 10
-9.8004210526
 20
18.2738947368
 11
-13.1131523747
 21
18.2738947368
  0
LINE
  5
785
100
AcDbEntity
  8
RACCORDO
100
AcDbLine
 62
7
  6
CONTINUOUS
 10
-8.5030643136
 20
18.3060106554
 11
-7.7316091909
 21
18.3060106554
  0
LINE
  5
786
100
AcDbEntity
  8
RACCORDO
100
AcDbLine
 62
7
  6
CONTINUOUS
 10
3.1307670856
 20
18.3060106554
 11
3.9022222083
 21
18.3060106554
  0
LINE
  5
787
100
AcDbEntity
  8
DRAFT
100
AcDbLine
 62
7
  6
CONTINUOUS
 10
-13.9004210526
 20
18.3088014637
 11
-13.2004210526
 21
18.3088014637
  0
LINE
  5
788
100
AcDbEntity
  8
DRAFT
100
AcDbLine
 62
7
  6
CONTINUOUS
 10
8.5995789474
 20
18.3088014637
 11
9.2995789474
 21
18.3088014637
  0
LINE
  5
789
100
AcDbEntity
  8
DRAFT
100
AcDbLine
 62
7
  6
CONTINUOUS
 10
-13.9475453731
 20
18.3402175178
 11
-9.7009363761
 21
18.3402175178
  0
LINE
  5
78A
100
AcDbEntity
  8
DRAFT
100
AcDbLine
 62
7
  6
CONTINUOUS
 10
5.1000942709
 20
18.3402175178
 11
9.3467032678
 21
18.3402175178
  0
LINE
  5
78B
100
AcDbEntity
  8
DRAFT
100
AcDbLine
 62
7
  6
CONTINUOUS
 10
1.6995789474
 20
18.3738947368
 11
1.4495789474
 21
18.3738947368
  0
LINE
  5
78C
100
AcDbEntity
  8
DRAFT
100
AcDbLine
 62
7
  6
CONTINUOUS
 10
-6.0504210526
 20
18.3738947368
 11
-6.3004210526
 21
18.3738947368
  0
LINE
  5
78D
100
AcDbEntity
  8
DRAFT
100
AcDbLine
 62
7
  6
CONTINUOUS
 10
1.6018380281
 20
18.3875083188
 11
1.4495789474
 21
18.3875083188
  0
LINE
  5
78E
100
AcDbEntity
  8
DRAFT
100
AcDbLine
 62
7
  6
CONTINUOUS
 10
-6.0504210526
 20
18.3875083188
 11
-6.2026801334
 21
18.3875083188
  0
LWPOLYLINE
  5
78F
100
AcDbEntity
  8
ASSI
100
AcDbPolyline
 62
7
  6
CONTINUOUS
 90
25
 70
0
 10
1.6495789474
 20
18.1595830224
 10
1.6290933096
 20
18.1596674709
 10
1.6101267158
 20
18.1599223277
 10
1.5926791659
 20
18.1603498229
 10
1.5768748604
 20
18.160953409
 10
1.5625895988
 20
18.1617345801
 10
1.5494507799
 20
18.1626896559
 10
1.537420139
 20
18.1638155028
 10
1.5265359407
 20
18.1651127901
 10
1.5165403774
 20
18.1665805824
 10
1.5074115402
 20
18.1682138032
 10
1.4991713379
 20
18.1700146144
 10
1.4916276888
 20
18.1719964794
 10
1.4847459778
 20
18.1741620689
 10
1.4785608201
 20
18.1765134879
 10
1.4729839791
 20
18.1790702941
 10
1.4679879705
 20
18.1818472736
 10
1.4636002788
 20
18.1848420403
 10
1.4598151201
 20
18.18805004
 10
1.4566367464
 20
18.1914793792
 10
1.4540609057
 20
18.1951297926
 10
1.4520690593
 20
18.198978491
 10
1.4506550277
 20
18.2030158897
 10
1.4498249904
 20
18.2072498566
 10
1.4495789474
 20
18.2116798142
  0
LWPOLYLINE
  5
790
100
AcDbEntity
  8
ASSI
100
AcDbPolyline
 62
7
  6
CONTINUOUS
 90
25
 70
0
 10
1.6495789474
 20
17.7595830224
 10
1.6290933096
 20
17.7597350297
 10
1.6101267158
 20
17.7601937719
 10
1.5926791659
 20
17.7609632633
 10
1.5768748604
 20
17.7620497182
 10
1.5625895988
 20
17.7634558262
 10
1.5494507799
 20
17.7651749626
 10
1.537420139
 20
17.7672014871
 10
1.5265359407
 20
17.7695366043
 10
1.5165403774
 20
17.7721786305
 10
1.5074115402
 20
17.7751184279
 10
1.4991713379
 20
17.778359888
 10
1.4916276888
 20
17.781927245
 10
1.4847459778
 20
17.785825306
 10
1.4785608201
 20
17.7900578603
 10
1.4729839791
 20
17.7946601114
 10
1.4679879705
 20
17.7996586746
 10
1.4636002788
 20
17.8050492546
 10
1.4598151201
 20
17.810823654
 10
1.4566367464
 20
17.8169964645
 10
1.4540609057
 20
17.8235672088
 10
1.4520690593
 20
17.8304948658
 10
1.4506550277
 20
17.8377621835
 10
1.4498249904
 20
17.8453833239
 10
1.4495789474
 20
17.8533572476
  0
LWPOLYLINE
  5
791
100
AcDbEntity
  8
ASSI
100
AcDbPolyline
 62
7
  6
CONTINUOUS
 90
17
 70
0
 10
-6.4213811144
 20
18.3977906132
 10
-6.4514741213
 20
18.3992824245
 10
-6.4838182874
 20
18.4043369656
 10
-6.5181667038
 20
18.4129542365
 10
-6.5542981623
 20
18.4255632001
 10
-6.5919598949
 20
18.4417348935
 10
-6.630856947
 20
18.4601824285
 10
-6.6705823427
 20
18.4806702151
 10
-6.7110844157
 20
18.5034338433
 10
-6.7526613158
 20
18.5278931951
 10
-6.7953158173
 20
18.5540323023
 10
-6.8387636884
 20
18.5818671331
 10
-6.8829376518
 20
18.6108654734
 10
-6.9277480693
 20
18.6410267348
 10
-6.9730252324
 20
18.6723515057
 10
-7.0185895333
 20
18.7043093378
 10
-7.0642844063
 20
18.7368557122
  0
LINE
  5
792
100
AcDbEntity
  8
ASSI
100
AcDbLine
 62
7
  6
CONTINUOUS
 10
-7.4786260093
 20
17.729161699
 11
-7.6590592216
 21
17.7417788183
  0
LINE
  5
793
100
AcDbEntity
  8
DRAFT
100
AcDbLine
 62
7
  6
CONTINUOUS
 10
-7.4764952894
 20
17.7596324132
 11
-7.3051334847
 21
17.7476496285
  0
LINE
  5
794
100
AcDbEntity
  8
DRAFT
100
AcDbLine
 62
7
  6
CONTINUOUS
 10
3.129645573
 20
18.2738947368
 11
1.6995789474
 21
18.3738947368
  0
LINE
  5
795
100
AcDbEntity
  8
RACCORDO
100
AcDbLine
 62
7
  6
CONTINUOUS
 10
-8.5030643136
 20
18.3060106554
 11
-8.278241926
 21
18.2738947368
  0
LINE
  5
796
100
AcDbEntity
  8
RACCORDO
100
AcDbLine
 62
7
  6
CONTINUOUS
 10
3.9022222083
 20
17.7417788183
 11
3.7011389535
 21
17.7705035975
  0
LINE
  5
797
100
AcDbEntity
  8
ASSI
100
AcDbLine
 62
7
  6
CONTINUOUS
 10
-6.2026801334
 20
18.3875083188
 11
-6.2917703402
 21
18.405325926
  0
LINE
  5
798
100
AcDbEntity
  8
ASSI
100
AcDbLine
 62
7
  6
CONTINUOUS
 10
2.793855004
 20
17.7239853271
 11
2.7042913794
 21
17.7476496285
  0
LWPOLYLINE
  5
799
100
AcDbEntity
  8
ASSI
100
AcDbPolyline
 62
7
  6
CONTINUOUS
 90
3
 70
0
 10
3.0136920442
 20
17.6944717895
 10
3.0367732379
 20
17.6839553489
 10
3.0606386804
 20
17.6724342963
  0
LWPOLYLINE
  5
79A
100
AcDbEntity
  8
ASSI
100
AcDbPolyline
 62
7
  6
CONTINUOUS
 90
10
 70
0
 10
3.0606386804
 20
17.6724342963
 10
3.104307311
 20
17.6467380835
 10
3.1513284261
 20
17.6171202108
 10
3.2017020258
 20
17.5837044208
 10
3.255514613
 20
17.546716734
 10
3.3126796848
 20
17.5063016571
 10
3.372937732
 20
17.4624729233
 10
3.4363903325
 20
17.4154667741
 10
3.5029359084
 20
17.3655732097
 10
3.572010217
 20
17.3128853017
  0
LINE
  5
79B
100
AcDbEntity
  8
DRAFT
100
AcDbLine
 62
7
  6
CONTINUOUS
 10
5.1000942709
 20
18.3402175178
 11
5.1995789474
 21
18.2738947368
  0
LWPOLYLINE
  5
79C
100
AcDbEntity
  8
ASSI
100
AcDbPolyline
 62
7
  6
CONTINUOUS
 90
9
 70
0
 10
1.810158771
 20
19.796366147
 10
1.8424046988
 20
19.7737889715
 10
1.8786343178
 20
19.7468654729
 10
1.9188476281
 20
19.7156396327
 10
1.9631288764
 20
19.6802065746
 10
2.0113938161
 20
19.6406580936
 10
2.0633897068
 20
19.5970641255
 10
2.1190682692
 20
19.5496863574
 10
2.1784777828
 20
19.4986325454
  0
LINE
  5
79D
100
AcDbEntity
  8
ASSI
100
AcDbLine
 62
7
  6
CONTINUOUS
 10
-7.3946971092
 20
17.7239853271
 11
-7.3051334847
 21
17.7476496285
  0
LWPOLYLINE
  5
79E
100
AcDbEntity
  8
RACCORDO
100
AcDbPolyline
 62
7
  6
CONTINUOUS
 90
17
 70
0
 10
1.5495654518
 20
19.8020474202
 10
1.5384649008
 20
19.7999161202
 10
1.5278448774
 20
19.7975625874
 10
1.5176993041
 20
19.7949896325
 10
1.5081575911
 20
19.7922300745
 10
1.4992274739
 20
19.7892815231
 10
1.4909012171
 20
19.7861463685
 10
1.4832850249
 20
19.7828646008
 10
1.4763879932
 20
19.7794343419
 10
1.4702010262
 20
19.7758574698
 10
1.4648030409
 20
19.7721796089
 10
1.4602041438
 20
19.7683994654
 10
1.4563942283
 20
19.7645183331
 10
1.4534218913
 20
19.7605857171
 10
1.4513033316
 20
19.7566181191
 10
1.4500223503
 20
19.7525990374
 10
1.4495789474
 20
19.7485284721
  0
LINE
  5
79F
100
AcDbEntity
  8
RACCORDO
100
AcDbLine
 62
7
  6
CONTINUOUS
 10
-8.5030643136
 20
17.7417788183
 11
-8.3019810587
 21
17.7705035975
  0
LINE
  5
7A0
100
AcDbEntity
  8
DRAFT
100
AcDbLine
 62
7
  6
CONTINUOUS
 10
-6.3004210526
 20
18.3738947368
 11
-7.7304876783
 21
18.2738947368
  0
LINE
  5
7A1
100
AcDbEntity
  8
ASSI
100
AcDbLine
 62
7
  6
CONTINUOUS
 10
-7.7316091907
 20
18.306010651
 11
-6.4213811144
 21
18.3977906132
  0
LWPOLYLINE
  5
7A2
100
AcDbEntity
  8
RACCORDO
100
AcDbPolyline
 62
7
  6
CONTINUOUS
 90
9
 70
0
 10
1.6495789474
 20
19.810331871
 10
1.6364063212
 20
19.8101948519
 10
1.6234002997
 20
19.8097990069
 10
1.610560883
 20
19.809144336
 10
1.5978346702
 20
19.8082258333
 10
1.5852750621
 20
19.8070485047
 10
1.5730422609
 20
19.8056273673
 10
1.5611404529
 20
19.8039592981
 10
1.5495654518
 20
19.8020474202
  0
LINE
  5
7A3
100
AcDbEntity
  8
ASSI
100
AcDbLine
 62
253
  6
CONTINUOUS
 10
2.690890158
 20
18.9047175617
 11
3.1726208308
 21
18.9052802247
  0
LINE
  5
7A4
100
AcDbEntity
  8
RACCORDO
100
AcDbLine
 62
253
  6
CONTINUOUS
 10
3.1726208308
 20
18.9052802247
 11
4.5022541953
 21
18.9060097415
  0
LINE
  5
7A5
100
AcDbEntity
  8
ASSI
100
AcDbLine
 62
253
  6
CONTINUOUS
 10
3.8995789474
 20
19.0446120503
 11
2.690890158
 21
19.0446120503
  0
LINE
  5
7A6
100
AcDbEntity
  8
ASSI
100
AcDbLine
 62
253
  6
CONTINUOUS
 10
-7.2917322632
 20
19.0446120503
 11
-8.5004210526
 21
19.0446120503
  0
LINE
  5
7A7
100
AcDbEntity
  8
0
100
AcDbLine
 62
253
  6
CONTINUOUS
 10
-6.0504210526
 20
19.5155338871
 11
1.4495789474
 21
19.5155338871
  0
LINE
  5
7A8
100
AcDbEntity
  8
DRAFT
100
AcDbLine
 62
7
  6
CONTINUOUS
 10
1.6018380281
 20
19.7869741628
 11
1.4930996502
 21
19.7869741628
  0
LINE
  5
7A9
100
AcDbEntity
  8
DRAFT
100
AcDbLine
 62
7
  6
CONTINUOUS
 10
-6.0939417555
 20
19.7869741628
 11
-6.2026801334
 21
19.7869741628
  0
LINE
  5
7AA
100
AcDbEntity
  8
ASSI
100
AcDbLine
 62
253
  6
CONTINUOUS
 10
3.8995789474
 20
19.796366147
 11
1.810158771
 21
19.796366147
  0
LINE
  5
7AB
100
AcDbEntity
  8
ASSI
100
AcDbLine
 62
253
  6
CONTINUOUS
 10
-6.4110008763
 20
19.796366147
 11
-8.5004210526
 21
19.796366147
  0
LINE
  5
7AC
100
AcDbEntity
  8
DRAFT
100
AcDbLine
 62
7
  6
CONTINUOUS
 10
-12.6218792425
 20
19.8435248977
 11
-8.5004210526
 21
19.8435248977
  0
LINE
  5
7AD
100
AcDbEntity
  8
DRAFT
100
AcDbLine
 62
7
  6
CONTINUOUS
 10
3.8995789474
 20
19.8435248977
 11
8.0210371373
 21
19.8435248977
  0
LINE
  5
7AE
100
AcDbEntity
  8
DRAFT
100
AcDbLine
 62
7
  6
CONTINUOUS
 10
-12.6218792425
 20
19.8738947368
 11
-8.5004210526
 21
19.8738947368
  0
LINE
  5
7AF
100
AcDbEntity
  8
DRAFT
100
AcDbLine
 62
7
  6
CONTINUOUS
 10
3.8995789474
 20
19.8738947368
 11
8.0210371373
 21
19.8738947368
  0
LINE
  5
7B0
100
AcDbEntity
  8
RACCORDO
100
AcDbLine
 62
7
  6
CONTINUOUS
 10
-6.275113136
 20
20.1907544775
 11
-6.2504210526
 21
20.1907544775
  0
LINE
  5
7B1
100
AcDbEntity
  8
RACCORDO
100
AcDbLine
 62
7
  6
CONTINUOUS
 10
1.6742710308
 20
20.1907544775
 11
1.6495789474
 21
20.1907544775
  0
LINE
  5
7B2
100
AcDbEntity
  8
RACCORDO
100
AcDbLine
 62
253
  6
CONTINUOUS
 10
-9.1030963005
 20
18.9060097415
 11
-7.7316089405
 21
18.9052874788
  0
LINE
  5
7B3
100
AcDbEntity
  8
ASSI
100
AcDbLine
 62
253
  6
CONTINUOUS
 10
-7.7316089405
 20
18.9052874788
 11
-7.2917322632
 21
18.9047176929
  0
LINE
  5
7B4
100
AcDbEntity
  8
RACCORDO
100
AcDbLine
 62
7
  6
CONTINUOUS
 10
-6.2372484265
 20
19.8101948519
 11
-6.2504210526
 21
19.810331871
  0
LWPOLYLINE
  5
7B5
100
AcDbEntity
  8
RACCORDO
100
AcDbPolyline
 62
7
  6
CONTINUOUS
 90
25
 70
0
 10
-6.2504210526
 20
20.1907544775
 10
-6.2372484265
 20
20.1906174584
 10
-6.224242405
 20
20.1902216135
 10
-6.2114029882
 20
20.1895669425
 10
-6.1986767754
 20
20.1886484398
 10
-6.1861171674
 20
20.1874711112
 10
-6.1738843662
 20
20.1860499739
 10
-6.1619825582
 20
20.1843819046
 10
-6.1504075571
 20
20.1824700267
 10
-6.139307006
 20
20.1803387267
 10
-6.1286869827
 20
20.1779851939
 10
-6.1185414093
 20
20.175412239
 10
-6.1089996964
 20
20.172652681
 10
-6.1000695792
 20
20.1697041296
 10
-6.0917433223
 20
20.166568975
 10
-6.0841271302
 20
20.1632872073
 10
-6.0772300985
 20
20.1598569484
 10
-6.0710431315
 20
20.1562800763
 10
-6.0656451461
 20
20.1526022154
 10
-6.0610462491
 20
20.148822072
 10
-6.0572363336
 20
20.1449409396
 10
-6.0542639966
 20
20.1410083236
 10
-6.0521454368
 20
20.1370407256
 10
-6.0508644555
 20
20.1330216439
 10
-6.0504210526
 20
20.1289510786
  0
LINE
  5
7B6
100
AcDbEntity
  8
ASSI
100
AcDbLine
 62
7
  6
CONTINUOUS
 10
1.8205392048
 20
18.3977906001
 11
3.1307670855
 21
18.306010651
  0
LWPOLYLINE
  5
7B7
100
AcDbEntity
  8
RACCORDO
100
AcDbPolyline
 62
7
  6
CONTINUOUS
 90
25
 70
0
 10
-0.9004210526
 20
21.8573259572
 10
-0.9135936788
 20
21.8571889382
 10
-0.9265997003
 20
21.8567930932
 10
-0.939439117
 20
21.8561384222
 10
-0.9521653298
 20
21.8552199196
 10
-0.9647249379
 20
21.854042591
 10
-0.9769577391
 20
21.8526214536
 10
-0.9888595471
 20
21.8509533844
 10
-1.0004345482
 20
21.8490415065
 10
-1.0115350992
 20
21.8469102065
 10
-1.0221551226
 20
21.8445566736
 10
-1.0323006959
 20
21.8419837188
 10
-1.0418424089
 20
21.8392241608
 10
-1.0507725261
 20
21.8362756093
 10
-1.0590987829
 20
21.8331404548
 10
-1.0667149751
 20
21.8298586871
 10
-1.0736120068
 20
21.8264284281
 10
-1.0797989738
 20
21.8228515561
 10
-1.0851969591
 20
21.8191736952
 10
-1.0897958562
 20
21.8153935517
 10
-1.0936057717
 20
21.8115124194
 10
-1.0965781087
 20
21.8075798033
 10
-1.0986966684
 20
21.8036122054
 10
-1.0999776497
 20
21.7995931237
 10
-1.1004210526
 20
21.7955225584
  0
LWPOLYLINE
  5
7B8
100
AcDbEntity
  8
RACCORDO
100
AcDbPolyline
 62
7
  6
CONTINUOUS
 90
25
 70
0
 10
-6.6004210526
 20
21.8573259572
 10
-6.6135936788
 20
21.8571889382
 10
-6.6265997003
 20
21.8567930932
 10
-6.639439117
 20
21.8561384222
 10
-6.6521653298
 20
21.8552199196
 10
-6.6647249379
 20
21.854042591
 10
-6.6769577391
 20
21.8526214536
 10
-6.6888595471
 20
21.8509533844
 10
-6.7004345482
 20
21.8490415065
 10
-6.7115350992
 20
21.8469102065
 10
-6.7221551226
 20
21.8445566736
 10
-6.7323006959
 20
21.8419837188
 10
-6.7418424089
 20
21.8392241608
 10
-6.7507725261
 20
21.8362756093
 10
-6.7590987829
 20
21.8331404548
 10
-6.7667149751
 20
21.8298586871
 10
-6.7736120068
 20
21.8264284281
 10
-6.7797989738
 20
21.8228515561
 10
-6.7851969591
 20
21.8191736952
 10
-6.7897958562
 20
21.8153935517
 10
-6.7936057717
 20
21.8115124194
 10
-6.7965781087
 20
21.8075798033
 10
-6.7986966684
 20
21.8036122054
 10
-6.7999776497
 20
21.7995931237
 10
-6.8004210526
 20
21.7955225584
  0
LINE
  5
7B9
100
AcDbEntity
  8
DRAFT
100
AcDbLine
 62
7
  6
CONTINUOUS
 10
-8.5004210526
 20
20.6238947368
 11
-6.2759858228
 21
20.6238947368
  0
LINE
  5
7BA
100
AcDbEntity
  8
DRAFT
100
AcDbLine
 62
7
  6
CONTINUOUS
 10
1.6751437176
 20
20.6238947368
 11
3.8995789474
 21
20.6238947368
  0
LINE
  5
7BB
100
AcDbEntity
  8
RACCORDO
100
AcDbLine
 62
7
  6
CONTINUOUS
 10
1.9995789474
 20
21.2179924823
 11
-0.9004210526
 21
21.2179924823
  0
LINE
  5
7BC
100
AcDbEntity
  8
RACCORDO
100
AcDbLine
 62
7
  6
CONTINUOUS
 10
-3.7004210526
 20
21.2179924823
 11
-6.6004210526
 21
21.2179924823
  0
LINE
  5
7BD
100
AcDbEntity
  8
RACCORDO
100
AcDbLine
 62
7
  6
CONTINUOUS
 10
-14.2933178509
 20
21.311061863
 11
-12.8719039932
 21
21.311061863
  0
LINE
  5
7BE
100
AcDbEntity
  8
RACCORDO
100
AcDbLine
 62
7
  6
CONTINUOUS
 10
8.271061888
 20
21.311061863
 11
9.6924757456
 21
21.311061863
  0
LINE
  5
7BF
100
AcDbEntity
  8
RACCORDO
100
AcDbLine
 62
7
  6
CONTINUOUS
 10
-6.8004210526
 20
21.3595830224
 11
-6.2336872874
 21
21.3595830224
  0
LINE
  5
7C0
100
AcDbEntity
  8
RACCORDO
100
AcDbLine
 62
7
  6
CONTINUOUS
 10
1.6328451822
 20
21.3595830224
 11
2.1995789474
 21
21.3595830224
  0
LINE
  5
7C1
100
AcDbEntity
  8
RACCORDO
100
AcDbLine
 62
7
  6
CONTINUOUS
 10
8.3495732358
 20
21.3738947368
 11
9.8495713299
 21
21.3738947368
  0
LINE
  5
7C2
100
AcDbEntity
  8
RACCORDO
100
AcDbLine
 62
7
  6
CONTINUOUS
 10
-12.9504153411
 20
21.3738947368
 11
-14.4504134352
 21
21.3738947368
  0
LINE
  5
7C3
100
AcDbEntity
  8
0
100
AcDbLine
 62
253
  6
CONTINUOUS
 10
-6.8004210526
 20
21.6595830224
 11
-3.5004210526
 21
21.6595830224
  0
LINE
  5
7C4
100
AcDbEntity
  8
0
100
AcDbLine
 62
253
  6
CONTINUOUS
 10
-1.1004210526
 20
21.6595830224
 11
2.1995789474
 21
21.6595830224
  0
LINE
  5
7C5
100
AcDbEntity
  8
RACCORDO
100
AcDbLine
 62
7
  6
CONTINUOUS
 10
-6.6004210526
 20
21.8573259572
 11
-3.7004210526
 21
21.8573259572
  0
LINE
  5
7C6
100
AcDbEntity
  8
RACCORDO
100
AcDbLine
 62
7
  6
CONTINUOUS
 10
-0.9004210526
 20
21.8573259572
 11
1.9995789474
 21
21.8573259572
  0
LINE
  5
7C7
100
AcDbEntity
  8
RACCORDO
100
AcDbLine
 62
7
  6
CONTINUOUS
 10
-6.6004210526
 20
22.2377485637
 11
-3.7004210526
 21
22.2377485637
  0
LINE
  5
7C8
100
AcDbEntity
  8
RACCORDO
100
AcDbLine
 62
7
  6
CONTINUOUS
 10
-0.9004210526
 20
22.2377485637
 11
1.9995789474
 21
22.2377485637
  0
LWPOLYLINE
  5
7C9
100
AcDbEntity
  8
RACCORDO
100
AcDbPolyline
 62
7
  6
CONTINUOUS
 90
25
 70
0
 10
-6.6004210526
 20
21.2179924823
 10
-6.6135936788
 20
21.2181295013
 10
-6.6265997003
 20
21.2185253463
 10
-6.639439117
 20
21.2191800173
 10
-6.6521653298
 20
21.2200985199
 10
-6.6647249379
 20
21.2212758486
 10
-6.6769577391
 20
21.2226969859
 10
-6.6888595471
 20
21.2243650551
 10
-6.7004345482
 20
21.2262769331
 10
-6.7115350992
 20
21.2284082331
 10
-6.7221551226
 20
21.2307617659
 10
-6.7323006959
 20
21.2333347208
 10
-6.7418424089
 20
21.2360942787
 10
-6.7507725261
 20
21.2390428302
 10
-6.7590987829
 20
21.2421779848
 10
-6.7667149751
 20
21.2454597525
 10
-6.7736120068
 20
21.2488900114
 10
-6.7797989738
 20
21.2524668834
 10
-6.7851969591
 20
21.2561447444
 10
-6.7897958562
 20
21.2599248878
 10
-6.7936057717
 20
21.2638060202
 10
-6.7965781087
 20
21.2677386362
 10
-6.7986966684
 20
21.2717062342
 10
-6.7999776497
 20
21.2757253158
 10
-6.8004210526
 20
21.2797958812
  0
LWPOLYLINE
  5
7CA
100
AcDbEntity
  8
RACCORDO
100
AcDbPolyline
 62
7
  6
CONTINUOUS
 90
25
 70
0
 10
-0.9004210526
 20
21.2179924823
 10
-0.9135936788
 20
21.2181295013
 10
-0.9265997003
 20
21.2185253463
 10
-0.939439117
 20
21.2191800173
 10
-0.9521653298
 20
21.2200985199
 10
-0.9647249379
 20
21.2212758486
 10
-0.9769577391
 20
21.2226969859
 10
-0.9888595471
 20
21.2243650551
 10
-1.0004345482
 20
21.2262769331
 10
-1.0115350992
 20
21.2284082331
 10
-1.0221551226
 20
21.2307617659
 10
-1.0323006959
 20
21.2333347208
 10
-1.0418424089
 20
21.2360942787
 10
-1.0507725261
 20
21.2390428302
 10
-1.0590987829
 20
21.2421779848
 10
-1.0667149751
 20
21.2454597525
 10
-1.0736120068
 20
21.2488900114
 10
-1.0797989738
 20
21.2524668834
 10
-1.0851969591
 20
21.2561447444
 10
-1.0897958562
 20
21.2599248878
 10
-1.0936057717
 20
21.2638060202
 10
-1.0965781087
 20
21.2677386362
 10
-1.0986966684
 20
21.2717062342
 10
-1.0999776497
 20
21.2757253158
 10
-1.1004210526
 20
21.2797958812
  0
LWPOLYLINE
  5
7CB
100
AcDbEntity
  8
RACCORDO
100
AcDbPolyline
 62
7
  6
CONTINUOUS
 90
25
 70
0
 10
-3.7004210526
 20
22.2377485637
 10
-3.6872484265
 20
22.2376115447
 10
-3.674242405
 20
22.2372156997
 10
-3.6614029882
 20
22.2365610288
 10
-3.6486767754
 20
22.2356425261
 10
-3.6361171674
 20
22.2344651975
 10
-3.6238843662
 20
22.2330440601
 10
-3.6119825582
 20
22.2313759909
 10
-3.6004075571
 20
22.229464113
 10
-3.589307006
 20
22.227332813
 10
-3.5786869827
 20
22.2249792802
 10
-3.5685414093
 20
22.2224063253
 10
-3.5589996964
 20
22.2196467673
 10
-3.5500695792
 20
22.2166982159
 10
-3.5417433223
 20
22.2135630613
 10
-3.5341271302
 20
22.2102812936
 10
-3.5272300985
 20
22.2068510347
 10
-3.5210431315
 20
22.2032741626
 10
-3.5156451461
 20
22.1995963017
 10
-3.5110462491
 20
22.1958161582
 10
-3.5072363336
 20
22.1919350259
 10
-3.5042639966
 20
22.1880024099
 10
-3.5021454368
 20
22.1840348119
 10
-3.5008644555
 20
22.1800157302
 10
-3.5004210526
 20
22.1759451649
  0
LWPOLYLINE
  5
7CC
100
AcDbEntity
  8
RACCORDO
100
AcDbPolyline
 62
7
  6
CONTINUOUS
 90
25
 70
0
 10
1.9995789474
 20
22.2377485637
 10
2.0127515735
 20
22.2376115447
 10
2.025757595
 20
22.2372156997
 10
2.0385970118
 20
22.2365610288
 10
2.0513232246
 20
22.2356425261
 10
2.0638828326
 20
22.2344651975
 10
2.0761156338
 20
22.2330440601
 10
2.0880174418
 20
22.2313759909
 10
2.0995924429
 20
22.229464113
 10
2.110692994
 20
22.227332813
 10
2.1213130173
 20
22.2249792802
 10
2.1314585907
 20
22.2224063253
 10
2.1410003036
 20
22.2196467673
 10
2.1499304208
 20
22.2166982159
 10
2.1582566777
 20
22.2135630613
 10
2.1658728698
 20
22.2102812936
 10
2.1727699015
 20
22.2068510347
 10
2.1789568685
 20
22.2032741626
 10
2.1843548539
 20
22.1995963017
 10
2.1889537509
 20
22.1958161582
 10
2.1927636664
 20
22.1919350259
 10
2.1957360034
 20
22.1880024099
 10
2.1978545632
 20
22.1840348119
 10
2.1991355445
 20
22.1800157302
 10
2.1995789474
 20
22.1759451649
  0
LINE
  5
7CD
100
AcDbEntity
  8
0
100
AcDbLine
 62
253
  6
CONTINUOUS
 10
-8.3004210526
 20
22.3253225839
 11
3.6995789474
 21
22.3253225839
  0
LINE
  5
7CE
100
AcDbEntity
  8
0
100
AcDbLine
 62
7
  6
CONTINUOUS
 10
-8.3004210526
 20
22.3595830224
 11
3.6995789474
 21
22.3595830224
  0
ARC
  5
7CF
100
AcDbEntity
  8
IMPORT_IGES
100
AcDbCircle
 62
7
  6
CONTINUOUS
 10
-7.4004210526
 20
-4.3811052632
 40
0.6
100
AcDbArc
 50
269.9999999999
 51
360.0
  0
ARC
  5
7D0
100
AcDbEntity
  8
IMPORT_IGES
100
AcDbCircle
 62
7
  6
CONTINUOUS
 10
-7.7504210526
 20
-4.3811052632
 40
0.6
100
AcDbArc
 50
180.0
 51
270.0
  0
ARC
  5
7D1
100
AcDbEntity
  8
RACCORDO
100
AcDbCircle
 62
253
  6
CONTINUOUS
 10
-8.5004210526
 20
-17.3261052632
 40
0.5499936547
100
AcDbArc
 50
90.0
 51
180.0
  0
ARC
  5
7D2
100
AcDbEntity
  8
IMPORT_IGES
100
AcDbCircle
 62
7
  6
CONTINUOUS
 10
-8.5235644931
 20
-14.5761052631
 40
0.3
100
AcDbArc
 50
240.0000120939
 51
270.0000000642
  0
ARC
  5
7D3
100
AcDbEntity
  8
IMPORT_IGES
100
AcDbCircle
 62
253
  6
CONTINUOUS
 10
-7.4004210526
 20
-4.3811052632
 40
0.3
100
AcDbArc
 50
270.0000000001
 51
360.0
  0
ARC
  5
7D4
100
AcDbEntity
  8
IMPORT_IGES
100
AcDbCircle
 62
253
  6
CONTINUOUS
 10
-7.7504210526
 20
-4.3811052632
 40
0.3
100
AcDbArc
 50
180.0
 51
270.0
  0
ARC
  5
7D5
100
AcDbEntity
  8
RACCORDO
100
AcDbCircle
 62
7
  6
CONTINUOUS
 10
-8.5004210526
 20
-17.3261052632
 40
0.3
100
AcDbArc
 50
90.0
 51
180.0
  0
ARC
  5
7D6
100
AcDbEntity
  8
IMPORT_IGES
100
AcDbCircle
 62
7
  6
CONTINUOUS
 10
-10.2556174604
 20
-13.5761056291
 40
0.2999990457
100
AcDbArc
 50
180.9998575135
 51
240.0057583378
  0
ARC
  5
7D7
100
AcDbEntity
  8
IMPORT_IGES
100
AcDbCircle
 62
7
  6
CONTINUOUS
 10
-9.7504210526
 20
-13.9832493521
 40
0.2
100
AcDbArc
 50
240.0000032026
 51
359.9999543684
  0
ARC
  5
7D8
100
AcDbEntity
  8
IMPORT_IGES
100
AcDbCircle
 62
7
  6
CONTINUOUS
 10
-9.3504210526
 20
-4.3971872462
 40
0.2
100
AcDbArc
 50
90.0000000761
 51
179.9990411618
  0
ARC
  5
7D9
100
AcDbEntity
  8
RACCORDO
100
AcDbCircle
 62
7
  6
CONTINUOUS
 10
-6.2336872874
 20
-26.4117935488
 40
0.2
100
AcDbArc
 50
270.0
 51
343.014572741
  0
ARC
  5
7DA
100
AcDbEntity
  8
IMPORT_IGES
100
AcDbCircle
 62
7
  6
CONTINUOUS
 10
-6.0738756427
 20
-14.6761033874
 40
0.1999996962
100
AcDbArc
 50
180.6869390008
 51
270.0029465965
  0
ARC
  5
7DB
100
AcDbEntity
  8
IMPORT_IGES
100
AcDbCircle
 62
7
  6
CONTINUOUS
 10
-8.2004210526
 20
-14.9761052632
 40
0.1
100
AcDbArc
 50
179.9999999998
 51
270.0012693104
  0
ARC
  5
7DC
100
AcDbEntity
  8
IMPORT_IGES
100
AcDbCircle
 62
7
  6
CONTINUOUS
 10
-8.4004210526
 20
-14.9761052632
 40
0.1
100
AcDbArc
 50
0.0000000003
 51
89.9975836551
  0
ARC
  5
7DD
100
AcDbEntity
  8
IMPORT_IGES
100
AcDbCircle
 62
253
  6
CONTINUOUS
 10
-15.6004210526
 20
4.6605720397
 40
9.5
100
AcDbArc
 50
349.9865678122
 51
354.9043096237
  0
ARC
  5
7DE
100
AcDbEntity
  8
IMPORT_IGES
100
AcDbCircle
 62
7
  6
CONTINUOUS
 10
-15.6004210526
 20
4.6605720397
 40
9.3
100
AcDbArc
 50
349.9865678122
 51
0.0001398085
  0
ARC
  5
7DF
100
AcDbEntity
  8
IMPORT_IGES
100
AcDbCircle
 62
7
  6
CONTINUOUS
 10
-10.2569725274
 20
5.64613927
 40
0.3
100
AcDbArc
 50
135.0000018621
 51
179.0
  0
ARC
  5
7E0
100
AcDbEntity
  8
IMPORT_IGES
100
AcDbCircle
 62
7
  6
CONTINUOUS
 10
-9.5034210526
 20
6.541112101
 40
0.2
100
AcDbArc
 50
0.0
 51
135.000001097
  0
ARC
  5
7E1
100
AcDbEntity
  8
IMPORT_IGES
100
AcDbCircle
 62
7
  6
CONTINUOUS
 10
-8.7059290588
 20
2.4138833434
 40
1.905513565
100
AcDbArc
 50
0.1395587833
 51
178.1372298283
  0
ARC
  5
7E2
100
AcDbEntity
  8
IMPORT_IGES
100
AcDbCircle
 62
253
  6
CONTINUOUS
 10
-8.7059290588
 20
2.4138833434
 40
1.6054856081
100
AcDbArc
 50
0.1450301271
 51
178.0267814416
  0
ARC
  5
7E3
100
AcDbEntity
  8
IMPORT_IGES
100
AcDbCircle
 62
253
  6
CONTINUOUS
 10
-7.3504210526
 20
-1.9811052632
 40
1.3
100
AcDbArc
 50
89.999999999
 51
180.0
  0
ARC
  5
7E4
100
AcDbEntity
  8
IMPORT_IGES
100
AcDbCircle
 62
7
  6
CONTINUOUS
 10
-7.3504210526
 20
-1.9811052632
 40
1.0
100
AcDbArc
 50
90.0
 51
180.0
  0
ARC
  5
7E5
100
AcDbEntity
  8
IMPORT_IGES
100
AcDbCircle
 62
253
  6
CONTINUOUS
 10
-6.1004210526
 20
-0.6128999827
 40
0.7
100
AcDbArc
 50
186.1256577714
 51
269.8387858744
  0
ARC
  5
7E6
100
AcDbEntity
  8
IMPORT_IGES
100
AcDbCircle
 62
253
  6
CONTINUOUS
 10
-7.3504210526
 20
-1.9811052632
 40
0.7
100
AcDbArc
 50
90.0
 51
180.0
  0
ARC
  5
7E7
100
AcDbEntity
  8
IMPORT_IGES
100
AcDbCircle
 62
7
  6
CONTINUOUS
 10
-6.9451038942
 20
-1.5977759958
 40
0.6
100
AcDbArc
 50
283.9720463855
 51
334.8767063357
  0
ARC
  5
7E8
100
AcDbEntity
  8
IMPORT_IGES
100
AcDbCircle
 62
7
  6
CONTINUOUS
 10
-6.3881723896
 20
-0.2128999827
 40
0.6
100
AcDbArc
 50
172.4289186542
 51
269.9999999999
  0
ARC
  5
7E9
100
AcDbEntity
  8
IMPORT_IGES
100
AcDbCircle
 62
253
  6
CONTINUOUS
 10
-6.3881723896
 20
-0.2128999827
 40
0.4
100
AcDbArc
 50
172.4289186646
 51
269.9999999999
  0
ARC
  5
7EA
100
AcDbEntity
  8
IMPORT_IGES
100
AcDbCircle
 62
7
  6
CONTINUOUS
 10
-7.1004210526
 20
-1.2811052632
 40
0.3
100
AcDbArc
 50
0.0
 51
90.0000000002
  0
ARC
  5
7EB
100
AcDbEntity
  8
IMPORT_IGES
100
AcDbCircle
 62
253
  6
CONTINUOUS
 10
-6.9344713067
 20
3.1304364245
 40
0.7
100
AcDbArc
 50
280.7609054582
 51
349.9865678122
  0
ARC
  5
7EC
100
AcDbEntity
  8
IMPORT_IGES
100
AcDbCircle
 62
7
  6
CONTINUOUS
 10
-6.9344713067
 20
3.1304364245
 40
0.5
100
AcDbArc
 50
283.6943991251
 51
349.9865678122
  0
ARC
  5
7ED
100
AcDbEntity
  8
IMPORT_IGES
100
AcDbCircle
 62
7
  6
CONTINUOUS
 10
-9.1792170606
 20
6.7238947368
 40
0.3
100
AcDbArc
 50
90.0
 51
135.000071038
  0
ARC
  5
7EE
100
AcDbEntity
  8
IMPORT_IGES
100
AcDbCircle
 62
7
  6
CONTINUOUS
 10
-6.1004210526
 20
6.8238947368
 40
0.2
100
AcDbArc
 50
90.000000014
 51
179.9999999998
  0
ARC
  5
7EF
100
AcDbEntity
  8
IMPORT_IGES
100
AcDbCircle
 62
7
  6
CONTINUOUS
 10
-8.7004210526
 20
7.1238947368
 40
0.1
100
AcDbArc
 50
89.9985366611
 51
179.9999999999
  0
ARC
  5
7F0
100
AcDbEntity
  8
IMPORT_IGES
100
AcDbCircle
 62
7
  6
CONTINUOUS
 10
-8.9004210526
 20
7.1238947368
 40
0.1
100
AcDbArc
 50
270.0028894103
 51
360.0
  0
ARC
  5
7F1
100
AcDbEntity
  8
IMPORT_IGES
100
AcDbCircle
 62
7
  6
CONTINUOUS
 10
-3.017813021
 20
-0.660870659
 40
4.0
100
AcDbArc
 50
123.4933347856
 51
172.4289186646
  0
ARC
  5
7F2
100
AcDbEntity
  8
IMPORT_IGES
100
AcDbCircle
 62
253
  6
CONTINUOUS
 10
-3.017813021
 20
-0.660870659
 40
3.8
100
AcDbArc
 50
123.4933347857
 51
172.4289186646
  0
ARC
  5
7F3
100
AcDbEntity
  8
IMPORT_IGES
100
AcDbCircle
 62
7
  6
CONTINUOUS
 10
-3.2004210526
 20
-0.0761052632
 40
0.3
100
AcDbArc
 50
270.0
 51
360.0
  0
ARC
  5
7F4
100
AcDbEntity
  8
RACCORDO
100
AcDbCircle
 62
7
  6
CONTINUOUS
 10
-6.2336872874
 20
21.1595830224
 40
0.2
100
AcDbArc
 50
16.985427259
 51
90.0
  0
ARC
  5
7F5
100
AcDbEntity
  8
RACCORDO
100
AcDbCircle
 62
7
  6
CONTINUOUS
 10
-2.3004210526
 20
-22.3761052632
 40
0.5
100
AcDbArc
 50
0.0
 51
180.0
  0
ARC
  5
7F6
100
AcDbEntity
  8
RACCORDO
100
AcDbCircle
 62
7
  6
CONTINUOUS
 10
1.6328451822
 20
-26.4117935488
 40
0.2
100
AcDbArc
 50
196.985427259
 51
270.0
  0
ARC
  5
7F7
100
AcDbEntity
  8
RACCORDO
100
AcDbCircle
 62
253
  6
CONTINUOUS
 10
-2.3004210526
 20
-22.3761052632
 40
0.1999984797
100
AcDbArc
 50
0.0
 51
180.0
  0
ARC
  5
7F8
100
AcDbEntity
  8
IMPORT_IGES
100
AcDbCircle
 62
253
  6
CONTINUOUS
 10
-2.3004210526
 20
-3.7758075155
 40
7.4999707336
100
AcDbArc
 50
70.5285040378
 51
109.4716831012
  0
ARC
  5
7F9
100
AcDbEntity
  8
IMPORT_IGES
100
AcDbCircle
 62
7
  6
CONTINUOUS
 10
-2.3004210526
 20
-3.7758075155
 40
4.53
100
AcDbArc
 50
25.1232936643
 51
154.8767063357
  0
ARC
  5
7FA
100
AcDbEntity
  8
IMPORT_IGES
100
AcDbCircle
 62
7
  6
CONTINUOUS
 10
-2.3004210526
 20
-4.1061052632
 40
4.5
100
AcDbArc
 50
183.051925112
 51
356.9480150513
  0
ARC
  5
7FB
100
AcDbEntity
  8
IMPORT_IGES
100
AcDbCircle
 62
7
  6
CONTINUOUS
 10
1.4730402166
 20
-14.6760971497
 40
0.1999984052
100
AcDbArc
 50
269.9972218018
 51
359.4199982135
  0
ARC
  5
7FC
100
AcDbEntity
  8
RACCORDO
100
AcDbCircle
 62
253
  6
CONTINUOUS
 10
3.8995789474
 20
-17.3261052632
 40
0.5499936571
100
AcDbArc
 50
0.0
 51
90.0
  0
ARC
  5
7FD
100
AcDbEntity
  8
RACCORDO
100
AcDbCircle
 62
7
  6
CONTINUOUS
 10
3.8995789474
 20
-17.3261052632
 40
0.3
100
AcDbArc
 50
0.0
 51
90.0
  0
ARC
  5
7FE
100
AcDbEntity
  8
IMPORT_IGES
100
AcDbCircle
 62
7
  6
CONTINUOUS
 10
2.7995789474
 20
-4.3811052632
 40
0.6
100
AcDbArc
 50
180.0
 51
270.0
  0
ARC
  5
7FF
100
AcDbEntity
  8
IMPORT_IGES
100
AcDbCircle
 62
7
  6
CONTINUOUS
 10
3.1495789474
 20
-4.3811052632
 40
0.6
100
AcDbArc
 50
269.9999999999
 51
360.0
  0
ARC
  5
800
100
AcDbEntity
  8
IMPORT_IGES
100
AcDbCircle
 62
7
  6
CONTINUOUS
 10
3.9227223878
 20
-14.5761052631
 40
0.3
100
AcDbArc
 50
269.9999717711
 51
299.9999553967
  0
ARC
  5
801
100
AcDbEntity
  8
IMPORT_IGES
100
AcDbCircle
 62
253
  6
CONTINUOUS
 10
3.1495789474
 20
-4.3811052632
 40
0.3
100
AcDbArc
 50
270.0000000001
 51
359.9999999999
  0
ARC
  5
802
100
AcDbEntity
  8
IMPORT_IGES
100
AcDbCircle
 62
253
  6
CONTINUOUS
 10
2.7995789474
 20
-4.3811052632
 40
0.3
100
AcDbArc
 50
180.0
 51
270.0
  0
ARC
  5
803
100
AcDbEntity
  8
IMPORT_IGES
100
AcDbCircle
 62
7
  6
CONTINUOUS
 10
5.6547756187
 20
-13.5761058188
 40
0.2999989024
100
AcDbArc
 50
300.0000000008
 51
359.0003443683
  0
ARC
  5
804
100
AcDbEntity
  8
IMPORT_IGES
100
AcDbCircle
 62
7
  6
CONTINUOUS
 10
5.1495789473
 20
-13.9832493522
 40
0.2
100
AcDbArc
 50
180.0000360725
 51
300.0000003414
  0
ARC
  5
805
100
AcDbEntity
  8
IMPORT_IGES
100
AcDbCircle
 62
7
  6
CONTINUOUS
 10
4.7495789474
 20
-4.3971872463
 40
0.2
100
AcDbArc
 50
0.0
 51
89.9855208623
  0
ARC
  5
806
100
AcDbEntity
  8
IMPORT_IGES
100
AcDbCircle
 62
7
  6
CONTINUOUS
 10
3.7995789474
 20
-14.9761052632
 40
0.1
100
AcDbArc
 50
90.0032404254
 51
179.9999999998
  0
ARC
  5
807
100
AcDbEntity
  8
IMPORT_IGES
100
AcDbCircle
 62
7
  6
CONTINUOUS
 10
3.5995789474
 20
-14.9761052632
 40
0.1
100
AcDbArc
 50
269.998492417
 51
360.0
  0
ARC
  5
808
100
AcDbEntity
  8
IMPORT_IGES
100
AcDbCircle
 62
7
  6
CONTINUOUS
 10
-2.3004210526
 20
-1.7450056892
 40
5.3
100
AcDbArc
 50
56.5066652144
 51
123.4933347856
  0
ARC
  5
809
100
AcDbEntity
  8
IMPORT_IGES
100
AcDbCircle
 62
253
  6
CONTINUOUS
 10
-2.3004210526
 20
-1.7450056892
 40
5.0999439942
100
AcDbArc
 50
56.5066652143
 51
123.4933347857
  0
ARC
  5
80A
100
AcDbEntity
  8
IMPORT_IGES
100
AcDbCircle
 62
7
  6
CONTINUOUS
 10
-1.5830290842
 20
-0.660870659
 40
4.0
100
AcDbArc
 50
7.571081337
 51
56.5066652144
  0
ARC
  5
80B
100
AcDbEntity
  8
IMPORT_IGES
100
AcDbCircle
 62
253
  6
CONTINUOUS
 10
-1.5830290842
 20
-0.660870659
 40
3.8
100
AcDbArc
 50
7.5710813354
 51
56.5066652143
  0
ARC
  5
80C
100
AcDbEntity
  8
IMPORT_IGES
100
AcDbCircle
 62
7
  6
CONTINUOUS
 10
-1.4004210526
 20
-0.0761052632
 40
0.3
100
AcDbArc
 50
180.0
 51
270.0
  0
ARC
  5
80D
100
AcDbEntity
  8
IMPORT_IGES
100
AcDbCircle
 62
253
  6
CONTINUOUS
 10
1.4995789474
 20
-0.6128999827
 40
0.7
100
AcDbArc
 50
270.1612141257
 51
354.4162937363
  0
ARC
  5
80E
100
AcDbEntity
  8
IMPORT_IGES
100
AcDbCircle
 62
7
  6
CONTINUOUS
 10
1.7873302843
 20
-0.2128999827
 40
0.6
100
AcDbArc
 50
269.9999999428
 51
7.5710813447
  0
ARC
  5
80F
100
AcDbEntity
  8
IMPORT_IGES
100
AcDbCircle
 62
253
  6
CONTINUOUS
 10
1.7873302843
 20
-0.2128999827
 40
0.4
100
AcDbArc
 50
270.0000000002
 51
7.5710813353
  0
ARC
  5
810
100
AcDbEntity
  8
IMPORT_IGES
100
AcDbCircle
 62
253
  6
CONTINUOUS
 10
2.7495789474
 20
-1.9811052632
 40
1.3
100
AcDbArc
 50
0.0
 51
90.0
  0
ARC
  5
811
100
AcDbEntity
  8
IMPORT_IGES
100
AcDbCircle
 62
7
  6
CONTINUOUS
 10
2.7495789474
 20
-1.9811052632
 40
1.0
100
AcDbArc
 50
0.0
 51
90.0
  0
ARC
  5
812
100
AcDbEntity
  8
IMPORT_IGES
100
AcDbCircle
 62
253
  6
CONTINUOUS
 10
2.7495789474
 20
-1.9811052632
 40
0.7
100
AcDbArc
 50
0.0
 51
90.0
  0
ARC
  5
813
100
AcDbEntity
  8
IMPORT_IGES
100
AcDbCircle
 62
7
  6
CONTINUOUS
 10
2.344261789
 20
-1.5977759958
 40
0.6
100
AcDbArc
 50
205.1232936644
 51
256.0468877463
  0
ARC
  5
814
100
AcDbEntity
  8
IMPORT_IGES
100
AcDbCircle
 62
7
  6
CONTINUOUS
 10
2.4995789474
 20
-1.2811052632
 40
0.3
100
AcDbArc
 50
90.0000000003
 51
179.9999999994
  0
ARC
  5
815
100
AcDbEntity
  8
IMPORT_IGES
100
AcDbCircle
 62
7
  6
CONTINUOUS
 10
4.1050869535
 20
2.4138833434
 40
1.905513565
100
AcDbArc
 50
1.8627654693
 51
179.8604365352
  0
ARC
  5
816
100
AcDbEntity
  8
IMPORT_IGES
100
AcDbCircle
 62
253
  6
CONTINUOUS
 10
4.1050869535
 20
2.4138833434
 40
1.605485616
100
AcDbArc
 50
1.8712366982
 51
179.8439250555
  0
ARC
  5
817
100
AcDbEntity
  8
IMPORT_IGES
100
AcDbCircle
 62
253
  6
CONTINUOUS
 10
2.3336292014
 20
3.1304364245
 40
0.7
100
AcDbArc
 50
190.0134321878
 51
259.2439469407
  0
ARC
  5
818
100
AcDbEntity
  8
IMPORT_IGES
100
AcDbCircle
 62
7
  6
CONTINUOUS
 10
2.3336292014
 20
3.1304364245
 40
0.5
100
AcDbArc
 50
190.0134321878
 51
256.3053094334
  0
ARC
  5
819
100
AcDbEntity
  8
IMPORT_IGES
100
AcDbCircle
 62
7
  6
CONTINUOUS
 10
1.4995789474
 20
6.8238947368
 40
0.2
100
AcDbArc
 50
0.0000000002
 51
90.0
  0
ARC
  5
81A
100
AcDbEntity
  8
IMPORT_IGES
100
AcDbCircle
 62
7
  6
CONTINUOUS
 10
4.0995789474
 20
7.1238947368
 40
0.1
100
AcDbArc
 50
0.0000000001
 51
90.0014633388
  0
ARC
  5
81B
100
AcDbEntity
  8
IMPORT_IGES
100
AcDbCircle
 62
7
  6
CONTINUOUS
 10
4.2995789474
 20
7.1238947368
 40
0.1
100
AcDbArc
 50
179.9999999999
 51
269.9971105898
  0
ARC
  5
81C
100
AcDbEntity
  8
RACCORDO
100
AcDbCircle
 62
7
  6
CONTINUOUS
 10
1.6328451822
 20
21.1595830224
 40
0.2
100
AcDbArc
 50
90.0
 51
163.014572741
  0
ARC
  5
81D
100
AcDbEntity
  8
IMPORT_IGES
100
AcDbCircle
 62
253
  6
CONTINUOUS
 10
10.9995789474
 20
4.6605720397
 40
9.5
100
AcDbArc
 50
185.0956903802
 51
190.0134321878
  0
ARC
  5
81E
100
AcDbEntity
  8
IMPORT_IGES
100
AcDbCircle
 62
7
  6
CONTINUOUS
 10
10.9995789474
 20
4.6605720397
 40
9.3
100
AcDbArc
 50
180.0000007965
 51
190.0134321859
  0
ARC
  5
81F
100
AcDbEntity
  8
IMPORT_IGES
100
AcDbCircle
 62
7
  6
CONTINUOUS
 10
4.5783749553
 20
6.7238947368
 40
0.3
100
AcDbArc
 50
44.9999520207
 51
89.9997513231
  0
ARC
  5
820
100
AcDbEntity
  8
IMPORT_IGES
100
AcDbCircle
 62
7
  6
CONTINUOUS
 10
5.6561304221
 20
5.64613927
 40
0.3
100
AcDbArc
 50
1.0
 51
44.9999963826
  0
ARC
  5
821
100
AcDbEntity
  8
IMPORT_IGES
100
AcDbCircle
 62
7
  6
CONTINUOUS
 10
4.9025789474
 20
6.541112101
 40
0.2
100
AcDbArc
 50
44.9999998017
 51
180.0
  0
ELLIPSE
  5
822
100
AcDbEntity
  8
IMPORT_IGES
100
AcDbEllipse
 62
7
  6
CONTINUOUS
 10
-7.7231077088
 20
-13.1761342636
 30
0.0
 11
0.0
 21
2.0
 31
0.0
 40
0.0633224816
 41
-3.4571714601
 42
-3.1415926536
  0
ELLIPSE
  5
823
100
AcDbEntity
  8
IMPORT_IGES
100
AcDbEllipse
 62
7
  6
CONTINUOUS
 10
3.1222656035
 20
-13.1761342636
 30
0.0
 11
0.0
 21
2.0
 31
0.0
 40
0.0633224816
 41
-3.1415926536
 42
-2.8260139546
  0
ELLIPSE
  5
824
100
AcDbEntity
  8
IMPORT_IGES
100
AcDbEllipse
 62
7
  6
CONTINUOUS
 10
-4.005274555
 20
-7.6154489774
 30
0.0
 11
0.3
 21
0.0
 31
0.0
 40
0.0238095238
 41
-0.0
 42
1.5707963268
  0
ELLIPSE
  5
825
100
AcDbEntity
  8
IMPORT_IGES
100
AcDbEllipse
 62
7
  6
CONTINUOUS
 10
-0.4955675503
 20
0.4111181995
 30
0.0
 11
0.1361540364
 21
0.6866309623
 31
0.0
 40
1.0
 41
-4.5166354122
 42
-3.5540846643
  0
ELLIPSE
  5
826
100
AcDbEntity
  8
IMPORT_IGES
100
AcDbEllipse
 62
7
  6
CONTINUOUS
 10
-4.105274555
 20
0.4111181995
 30
0.0
 11
-0.0897942739
 21
0.6942168165
 31
0.0
 40
1.0
 41
-2.6619790435
 42
-1.6994282956
  0
ELLIPSE
  5
827
100
AcDbEntity
  8
IMPORT_IGES
100
AcDbEllipse
 62
7
  6
CONTINUOUS
 10
0.3044324497
 20
-0.349914787
 30
0.0
 11
0.3
 21
0.0
 31
0.0
 40
0.0158730159
 41
-1.5707963268
 42
0.0
  0
ELLIPSE
  5
828
100
AcDbEntity
  8
IMPORT_IGES
100
AcDbEllipse
 62
7
  6
CONTINUOUS
 10
0.3044324497
 20
-7.6154489774
 30
0.0
 11
0.3
 21
-0.0
 31
0.0
 40
0.0238095238
 41
0.7734969708
 42
1.5707963268
  0
ELLIPSE
  5
829
100
AcDbEntity
  8
IMPORT_IGES
100
AcDbEllipse
 62
7
  6
CONTINUOUS
 10
-4.005274555
 20
-0.349914787
 30
0.0
 11
0.3
 21
0.0
 31
0.0
 40
0.0158730159
 41
-1.5707963268
 42
0.0
  0
ELLIPSE
  5
82A
100
AcDbEntity
  8
IMPORT_IGES
100
AcDbEllipse
 62
7
  6
CONTINUOUS
 10
-0.5955675503
 20
-0.349914787
 30
0.0
 11
0.3
 21
0.0
 31
0.0
 40
0.0158730159
 41
-3.1415926536
 42
-1.5707963268
  0
ELLIPSE
  5
82B
100
AcDbEntity
  8
IMPORT_IGES
100
AcDbEllipse
 62
7
  6
CONTINUOUS
 10
-6.705274555
 20
3.684034597
 30
0.0
 11
0.3
 21
-0.0
 31
0.0
 40
0.020979021
 41
-0.5228872352
 42
-0.0
  0
ELLIPSE
  5
82C
100
AcDbEntity
  8
IMPORT_IGES
100
AcDbEllipse
 62
7
  6
CONTINUOUS
 10
-4.0953223436
 20
-8.39854777
 30
0.0
 11
0.6998292481
 21
-0.015460383
 31
0.0
 40
1.0
 41
0.1909149656
 42
1.0018609717
  0
ELLIPSE
  5
82D
100
AcDbEntity
  8
IMPORT_IGES
100
AcDbEllipse
 62
7
  6
CONTINUOUS
 10
-0.5955675503
 20
-7.6154489774
 30
0.0
 11
0.3
 21
-0.0
 31
0.0
 40
0.0238095238
 41
1.5707963268
 42
3.1415926536
  0
ELLIPSE
  5
82E
100
AcDbEntity
  8
IMPORT_IGES
100
AcDbEllipse
 62
7
  6
CONTINUOUS
 10
-0.5055197617
 20
-8.39854777
 30
0.0
 11
0.699974147
 21
-0.0060161079
 31
0.0
 40
1.0
 41
2.1704142851
 42
2.9813602911
  0
ELLIPSE
  5
82F
100
AcDbEntity
  8
IMPORT_IGES
100
AcDbEllipse
 62
7
  6
CONTINUOUS
 10
-4.905274555
 20
-0.349914787
 30
0.0
 11
0.3
 21
0.0
 31
0.0
 40
0.0158730159
 41
3.1415926536
 42
4.7123889804
  0
ELLIPSE
  5
830
100
AcDbEntity
  8
IMPORT_IGES
100
AcDbEllipse
 62
7
  6
CONTINUOUS
 10
-4.905274555
 20
-7.6154489774
 30
0.0
 11
0.3
 21
-0.0
 31
0.0
 40
0.0238095238
 41
1.5707963268
 42
2.3680956255
  0
ELLIPSE
  5
831
100
AcDbEntity
  8
IMPORT_IGES
100
AcDbEllipse
 62
7
  6
CONTINUOUS
 10
5.1495789474
 20
-10.3924906128
 30
0.0
 11
0.0
 21
1.5881180375
 31
0.0
 40
0.1259352235
 41
-4.7123889803
 42
-3.4987217427
  0
ELLIPSE
  5
832
100
AcDbEntity
  8
IMPORT_IGES
100
AcDbEllipse
 62
7
  6
CONTINUOUS
 10
-7.8504210526
 20
-10.3924906128
 30
0.0
 11
0.0
 21
1.5881180375
 31
0.0
 40
0.1259352235
 41
-4.7123889803
 42
-3.4987217427
  0
ELLIPSE
  5
833
100
AcDbEntity
  8
RACCORDO
100
AcDbEllipse
 62
7
  6
CONTINUOUS
 10
-10.400411533
 20
2.2239042564
 30
0.0
 11
0.1767901578
 21
0.1767901578
 31
0.0
 40
0.9999238505
 41
-3.9269527408
 42
-3.4045916248
  0
ELLIPSE
  5
834
100
AcDbEntity
  8
ASSI
100
AcDbEllipse
 62
7
  6
CONTINUOUS
 10
3.7938412962
 20
16.7181433777
 30
0.0
 11
1.0
 21
0.0
 31
0.0
 40
0.0052360356
 41
1.5707963268
 42
3.1363566658
  0
ELLIPSE
  5
835
100
AcDbEntity
  8
ASSI
100
AcDbEllipse
 62
7
  6
CONTINUOUS
 10
-8.3946834015
 20
16.7181433777
 30
0.0
 11
1.0
 21
0.0
 31
0.0
 40
0.0052360356
 41
0.0052359878
 42
1.5707963268
  0
ELLIPSE
  5
836
100
AcDbEntity
  8
ASSI
100
AcDbEllipse
 62
7
  6
CONTINUOUS
 10
3.7938412962
 20
-21.9703539041
 30
0.0
 11
1.0
 21
-0.0
 31
0.0
 40
0.0052360356
 41
-3.1363566658
 42
-1.5707963268
  0
ELLIPSE
  5
837
100
AcDbEntity
  8
ASSI
100
AcDbEllipse
 62
7
  6
CONTINUOUS
 10
-8.3946834015
 20
-21.9703539041
 30
0.0
 11
1.0
 21
-0.0
 31
0.0
 40
0.0052360356
 41
-1.5707963268
 42
-0.0052359878
  0
ELLIPSE
  5
838
100
AcDbEntity
  8
RACCORDO
100
AcDbEllipse
 62
7
  6
CONTINUOUS
 10
-12.8718887621
 20
21.0610557705
 30
0.0
 11
0.1952300894
 21
-0.1561826442
 31
0.0
 40
0.9999375566
 41
6.9578913306
 42
8.5287485796
  0
ELLIPSE
  5
839
100
AcDbEntity
  8
ASSI
100
AcDbEllipse
 62
7
  6
CONTINUOUS
 10
-8.3946834015
 20
-23.0461308676
 30
0.0
 11
0.9999999926
 21
0.0699270244
 31
0.0
 40
0.0017410795
 41
0.0051142392
 42
0.4125379685
  0
ELLIPSE
  5
83A
100
AcDbEntity
  8
RACCORDO
100
AcDbEllipse
 62
7
  6
CONTINUOUS
 10
-8.503051519
 20
-24.1582202679
 30
0.0
 11
-0.0
 21
0.6
 31
0.0
 40
0.0122179127
 41
0.0017453293
 42
0.0122173048
  0
ELLIPSE
  5
83B
100
AcDbEntity
  8
RACCORDO
100
AcDbEllipse
 62
7
  6
CONTINUOUS
 10
-8.503051519
 20
-22.3939902585
 30
0.0
 11
0.0
 21
0.6
 31
0.0
 40
0.0122179127
 41
-3.1538099584
 42
-3.1433379828
  0
ELLIPSE
  5
83C
100
AcDbEntity
  8
ASSI
100
AcDbEllipse
 62
7
  6
CONTINUOUS
 10
-7.2917322632
 20
-23.5882787036
 30
0.0
 11
0.9999999926
 21
-0.0699270244
 31
0.0
 40
0.0017410795
 41
-0.5147596148
 42
-0.0086048978
  0
ELLIPSE
  5
83D
100
AcDbEntity
  8
RACCORDO
100
AcDbEllipse
 62
7
  6
CONTINUOUS
 10
4.8000901585
 20
17.0233835257
 30
0.0
 11
-0.2121378501
 21
0.2121378501
 31
0.0
 40
0.9999725851
 41
2.3562081979
 42
3.9269771093
  0
ELLIPSE
  5
83E
100
AcDbEntity
  8
ASSI
100
AcDbEllipse
 62
7
  6
CONTINUOUS
 10
2.690890158
 20
-23.5882787036
 30
0.0
 11
0.9999999926
 21
0.0699270244
 31
0.0
 40
0.0017410795
 41
-3.1329877558
 42
-2.6268330388
  0
ELLIPSE
  5
83F
100
AcDbEntity
  8
RACCORDO
100
AcDbEllipse
 62
7
  6
CONTINUOUS
 10
3.9022094137
 20
-24.1582202679
 30
0.0
 11
-0.0
 21
0.6
 31
0.0
 40
0.0122179127
 41
-0.0122173048
 42
-0.0017453293
  0
ELLIPSE
  5
840
100
AcDbEntity
  8
RACCORDO
100
AcDbEllipse
 62
7
  6
CONTINUOUS
 10
3.9022094137
 20
-22.3939902585
 30
0.0
 11
-0.0
 21
0.6
 31
0.0
 40
0.0122179127
 41
-3.1398473243
 42
-3.1293753488
  0
ELLIPSE
  5
841
100
AcDbEntity
  8
RACCORDO
100
AcDbEllipse
 62
7
  6
CONTINUOUS
 10
4.8000901585
 20
-22.275594052
 30
0.0
 11
0.2121378501
 21
0.2121378501
 31
0.0
 40
0.9999725851
 41
-0.7853844557
 42
0.7853844557
  0
ELLIPSE
  5
842
100
AcDbEntity
  8
ASSI
100
AcDbEllipse
 62
7
  6
CONTINUOUS
 10
3.7938412962
 20
-23.0461308676
 30
0.0
 11
0.9999999926
 21
-0.0699270244
 31
0.0
 40
0.0017410795
 41
2.7290546851
 42
3.1364784143
  0
ELLIPSE
  5
843
100
AcDbEntity
  8
ASSI
100
AcDbEllipse
 62
7
  6
CONTINUOUS
 10
3.7938412962
 20
17.7939203413
 30
0.0
 11
0.9999999926
 21
0.0699270244
 31
0.0
 40
0.0017410795
 41
-3.1364784143
 42
-2.7290546851
  0
ELLIPSE
  5
844
100
AcDbEntity
  8
RACCORDO
100
AcDbEllipse
 62
7
  6
CONTINUOUS
 10
3.9022094137
 20
17.1417797321
 30
0.0
 11
-0.0
 21
0.6
 31
0.0
 40
0.0122179127
 41
-0.0122173048
 42
-0.0017453293
  0
ELLIPSE
  5
845
100
AcDbEntity
  8
RACCORDO
100
AcDbEllipse
 62
7
  6
CONTINUOUS
 10
3.9022094137
 20
18.9060097415
 30
0.0
 11
0.0
 21
0.6
 31
0.0
 40
0.0122179127
 41
-3.1398473243
 42
-3.1293753488
  0
ELLIPSE
  5
846
100
AcDbEntity
  8
ASSI
100
AcDbEllipse
 62
7
  6
CONTINUOUS
 10
2.690890158
 20
18.3360681772
 30
0.0
 11
0.9999999926
 21
-0.0699270244
 31
0.0
 40
0.0017410795
 41
2.6268326414
 42
3.0016401474
  0
ELLIPSE
  5
847
100
AcDbEntity
  8
ASSI
100
AcDbEllipse
 62
7
  6
CONTINUOUS
 10
-7.2917322632
 20
18.4053106953
 30
0.0
 11
1.0
 21
-0.0
 31
0.0
 40
0.001745331
 41
0.0087266463
 42
0.1400742547
  0
ELLIPSE
  5
848
100
AcDbEntity
  8
ASSI
100
AcDbEllipse
 62
7
  6
CONTINUOUS
 10
2.690890158
 20
18.4053106953
 30
0.0
 11
1.0
 21
0.0
 31
0.0
 40
0.001745331
 41
3.0015183989
 42
3.1328660073
  0
ELLIPSE
  5
849
100
AcDbEntity
  8
ASSI
100
AcDbEllipse
 62
7
  6
CONTINUOUS
 10
-7.2917322632
 20
18.3360681772
 30
0.0
 11
0.9999999926
 21
0.0699270244
 31
0.0
 40
0.0017410795
 41
0.1399525062
 42
0.5147596148
  0
ELLIPSE
  5
84A
100
AcDbEntity
  8
RACCORDO
100
AcDbEllipse
 62
7
  6
CONTINUOUS
 10
-8.503051519
 20
18.9060097415
 30
0.0
 11
-0.0
 21
0.6
 31
0.0
 40
0.0122179127
 41
-3.1538099584
 42
-3.1433379828
  0
ELLIPSE
  5
84B
100
AcDbEntity
  8
RACCORDO
100
AcDbEllipse
 62
7
  6
CONTINUOUS
 10
-8.503051519
 20
17.1417797321
 30
0.0
 11
0.0
 21
0.6
 31
0.0
 40
0.0122179127
 41
0.0017453293
 42
0.0122173048
  0
ELLIPSE
  5
84C
100
AcDbEntity
  8
ASSI
100
AcDbEllipse
 62
7
  6
CONTINUOUS
 10
-8.3946834015
 20
17.7939203413
 30
0.0
 11
0.9999999926
 21
-0.0699270244
 31
0.0
 40
0.0017410795
 41
-0.4125379685
 42
-0.0051142393
  0
ELLIPSE
  5
84D
100
AcDbEntity
  8
RACCORDO
100
AcDbEllipse
 62
7
  6
CONTINUOUS
 10
-9.4009322637
 20
17.0233835257
 30
0.0
 11
-0.2121378501
 21
-0.2121378501
 31
0.0
 40
0.9999725851
 41
-0.7853844557
 42
0.7853844557
  0
ELLIPSE
  5
84E
100
AcDbEntity
  8
RACCORDO
100
AcDbEllipse
 62
7
  6
CONTINUOUS
 10
-9.0504210526
 20
-15.9761052632
 30
0.0
 11
0.25
 21
0.0
 31
0.0
 40
1.0
 41
-1.5707963268
 42
0.0
  0
ELLIPSE
  5
84F
100
AcDbEntity
  8
ASSI
100
AcDbEllipse
 62
7
  6
CONTINUOUS
 10
2.690890158
 20
19.9687483152
 30
0.0
 11
1.0
 21
-0.0
 31
0.0
 40
0.3639702343
 41
-3.1328660073
 42
-2.648200578
  0
ELLIPSE
  5
850
100
AcDbEntity
  8
ASSI
100
AcDbEllipse
 62
7
  6
CONTINUOUS
 10
-7.2917322632
 20
19.9687483152
 30
0.0
 11
1.0
 21
0.0
 31
0.0
 40
0.3639702343
 41
-0.4933920756
 42
-0.0087266463
  0
ELLIPSE
  5
851
100
AcDbEntity
  8
ASSI
100
AcDbEllipse
 62
7
  6
CONTINUOUS
 10
2.690890158
 20
-25.2209588415
 30
0.0
 11
1.0
 21
-0.0
 31
0.0
 40
0.3639702343
 41
2.648200578
 42
3.1328660073
  0
ELLIPSE
  5
852
100
AcDbEntity
  8
ASSI
100
AcDbEllipse
 62
7
  6
CONTINUOUS
 10
-7.2917322632
 20
-25.2209588415
 30
0.0
 11
1.0
 21
0.0
 31
0.0
 40
0.3639702343
 41
0.0087266463
 42
0.4933920756
  0
ELLIPSE
  5
853
100
AcDbEntity
  8
RACCORDO
100
AcDbEllipse
 62
7
  6
CONTINUOUS
 10
-9.4009322637
 20
-22.275594052
 30
0.0
 11
0.2121378501
 21
-0.2121378501
 31
0.0
 40
0.9999725851
 41
2.3562081979
 42
3.9269771093
  0
ELLIPSE
  5
854
100
AcDbEntity
  8
RACCORDO
100
AcDbEllipse
 62
7
  6
CONTINUOUS
 10
8.1950157718
 20
-12.3807603668
 30
0.0
 11
-0.0
 21
-0.2104377104
 31
0.0
210
-0.0
220
-0.7071067812
230
-0.7071067812
 40
0.7071067812
 41
-0.0
 42
1.5707963268
  0
ELLIPSE
  5
855
100
AcDbEntity
  8
RACCORDO
100
AcDbEllipse
 62
7
  6
CONTINUOUS
 10
4.4495789474
 20
-17.6949358731
 30
0.0
 11
0.0
 21
0.2500095196
 31
0.0
 40
0.9999619231
 41
-4.7123889803
 42
-3.1415926536
  0
ELLIPSE
  5
856
100
AcDbEntity
  8
RACCORDO
100
AcDbEllipse
 62
7
  6
CONTINUOUS
 10
-11.7925478324
 20
8.581767957
 30
0.0
 11
-0.3535803156
 21
-0.3535803156
 31
0.0
 40
0.9999238505
 41
-0.7853600872
 42
0.7853600872
  0
ELLIPSE
  5
857
100
AcDbEntity
  8
RACCORDO
100
AcDbEllipse
 62
7
  6
CONTINUOUS
 10
-11.7925478324
 20
17.3660215166
 30
0.0
 11
-0.3535803156
 21
0.3535803156
 31
0.0
 40
0.9999238505
 41
-0.7853600872
 42
0.7853600872
  0
ELLIPSE
  5
858
100
AcDbEntity
  8
RACCORDO
100
AcDbEllipse
 62
7
  6
CONTINUOUS
 10
7.1917057272
 20
17.3660215166
 30
0.0
 11
0.3535803156
 21
0.3535803156
 31
0.0
 40
0.9999238505
 41
-0.7853600872
 42
0.7853600872
  0
ELLIPSE
  5
859
100
AcDbEntity
  8
RACCORDO
100
AcDbEllipse
 62
7
  6
CONTINUOUS
 10
7.1917057272
 20
8.581767957
 30
0.0
 11
0.3535803156
 21
-0.3535803156
 31
0.0
 40
0.9999238505
 41
-0.7853600872
 42
0.7853600872
  0
ELLIPSE
  5
85A
100
AcDbEntity
  8
RACCORDO
100
AcDbEllipse
 62
7
  6
CONTINUOUS
 10
-9.3004676925
 20
-17.526151903
 30
0.0
 11
0.3535405957
 21
0.3535405957
 31
0.0
 40
0.9998858122
 41
-3.9269337198
 42
-2.3562515873
  0
ELLIPSE
  5
85B
100
AcDbEntity
  8
RACCORDO
100
AcDbEllipse
 62
7
  6
CONTINUOUS
 10
4.6996255872
 20
-17.526151903
 30
0.0
 11
0.3535405957
 21
-0.3535405957
 31
0.0
 40
0.9998858122
 41
-0.7853410663
 42
0.7853410663
  0
ELLIPSE
  5
85C
100
AcDbEntity
  8
RACCORDO
100
AcDbEllipse
 62
7
  6
CONTINUOUS
 10
4.6995699979
 20
6.4739074869
 30
0.0
 11
0.3993021062
 21
0.3009905839
 31
0.0
 40
0.9998423959
 41
-0.5413629084
 42
0.8287774917
  0
ELLIPSE
  5
85D
100
AcDbEntity
  8
RACCORDO
100
AcDbEllipse
 62
7
  6
CONTINUOUS
 10
-9.3004121032
 20
6.4739074869
 30
0.0
 11
0.3993021062
 21
-0.3009905839
 31
0.0
 40
0.9998423959
 41
2.32120065
 42
3.6746949586
  0
ELLIPSE
  5
85E
100
AcDbEntity
  8
RACCORDO
100
AcDbEllipse
 62
7
  6
CONTINUOUS
 10
4.899574835
 20
-22.1761093755
 30
0.0
 11
0.2121378501
 21
0.2121378501
 31
0.0
 40
0.9999725851
 41
-0.7853844557
 42
0.7853844557
  0
ELLIPSE
  5
85F
100
AcDbEntity
  8
RACCORDO
100
AcDbEllipse
 62
7
  6
CONTINUOUS
 10
-9.5004169402
 20
-22.1761093755
 30
0.0
 11
0.2121378501
 21
-0.2121378501
 31
0.0
 40
0.9999725851
 41
2.3562081978
 42
3.9269771093
  0
ELLIPSE
  5
860
100
AcDbEntity
  8
RACCORDO
100
AcDbEllipse
 62
7
  6
CONTINUOUS
 10
4.8948624029
 20
16.9286112813
 30
0.0
 11
0.2121378502
 21
-0.2121378501
 31
0.0
 40
0.9999725851
 41
-0.785384456
 42
0.7853844555
  0
ELLIPSE
  5
861
100
AcDbEntity
  8
RACCORDO
100
AcDbEllipse
 62
7
  6
CONTINUOUS
 10
-9.4957045082
 20
16.9286112813
 30
0.0
 11
0.2121378501
 21
0.2121378501
 31
0.0
 40
0.9999725851
 41
-3.9269771093
 42
-2.3562081978
  0
ELLIPSE
  5
862
100
AcDbEntity
  8
RACCORDO
100
AcDbEllipse
 62
7
  6
CONTINUOUS
 10
5.7995694278
 20
2.2239042564
 30
0.0
 11
0.1767901578
 21
-0.1767901578
 31
0.0
 40
0.9999238505
 41
0.2628939266
 42
0.7853600872
  0
ELLIPSE
  5
863
100
AcDbEntity
  8
RACCORDO
100
AcDbEllipse
 62
7
  6
CONTINUOUS
 10
-11.8004020134
 20
17.3738756976
 30
0.0
 11
0.3535803156
 21
-0.3535803156
 31
0.0
 40
0.9999238505
 41
2.3562325664
 42
3.9269527408
  0
ELLIPSE
  5
864
100
AcDbEntity
  8
RACCORDO
100
AcDbEllipse
 62
7
  6
CONTINUOUS
 10
7.1995599082
 20
17.3738756976
 30
0.0
 11
0.3535803156
 21
0.3535803156
 31
0.0
 40
0.9999238505
 41
-0.7853600872
 42
0.7853600872
  0
ELLIPSE
  5
865
100
AcDbEntity
  8
RACCORDO
100
AcDbEllipse
 62
7
  6
CONTINUOUS
 10
7.1995599082
 20
8.573913776
 30
0.0
 11
0.3535803156
 21
-0.3535803156
 31
0.0
 40
0.9999238505
 41
-0.7853600872
 42
0.7853600872
  0
ELLIPSE
  5
866
100
AcDbEntity
  8
RACCORDO
100
AcDbEllipse
 62
7
  6
CONTINUOUS
 10
-11.8004020134
 20
8.573913776
 30
0.0
 11
0.3535803156
 21
0.3535803156
 31
0.0
 40
0.9999238505
 41
-3.9269527407
 42
-2.3562325664
  0
ELLIPSE
  5
867
100
AcDbEntity
  8
RACCORDO
100
AcDbEllipse
 62
7
  6
CONTINUOUS
 10
-9.0504210526
 20
-17.6949358731
 30
0.0
 11
0.0
 21
0.2500095196
 31
0.0
 40
0.9999619231
 41
-3.1415926536
 42
-1.5707963268
  0
ELLIPSE
  5
868
100
AcDbEntity
  8
RACCORDO
100
AcDbEllipse
 62
7
  6
CONTINUOUS
 10
8.2710466568
 20
-26.3132662968
 30
0.0
 11
-0.1952300894
 21
0.1561826442
 31
0.0
 40
0.9999375566
 41
6.9578913306
 42
8.5287485796
  0
ELLIPSE
  5
869
100
AcDbEntity
  8
RACCORDO
100
AcDbEllipse
 62
7
  6
CONTINUOUS
 10
9.692445281
 20
-26.3132662968
 30
0.0
 11
-0.2321629181
 21
0.0928572462
 31
0.0
 40
0.999823337
 41
1.9513342148
 42
3.5220087018
  0
ELLIPSE
  5
86A
100
AcDbEntity
  8
RACCORDO
100
AcDbEllipse
 62
7
  6
CONTINUOUS
 10
-14.2932873863
 20
-26.3132662968
 30
0.0
 11
0.2321629181
 21
0.0928572462
 31
0.0
 40
0.999823337
 41
2.7611766053
 42
4.3318510923
  0
ELLIPSE
  5
86B
100
AcDbEntity
  8
RACCORDO
100
AcDbEllipse
 62
7
  6
CONTINUOUS
 10
-12.8718887621
 20
-26.3132662968
 30
0.0
 11
0.1952300894
 21
0.1561826442
 31
0.0
 40
0.9999375566
 41
-2.2455632724
 42
-0.6747060234
  0
ELLIPSE
  5
86C
100
AcDbEntity
  8
RACCORDO
100
AcDbEllipse
 62
7
  6
CONTINUOUS
 10
-14.2932873863
 20
21.0610557705
 30
0.0
 11
0.2321629181
 21
-0.0928572462
 31
0.0
 40
0.999823337
 41
1.9513342148
 42
3.5220087018
  0
ELLIPSE
  5
86D
100
AcDbEntity
  8
RACCORDO
100
AcDbEllipse
 62
7
  6
CONTINUOUS
 10
8.2710466568
 20
21.0610557705
 30
0.0
 11
-0.1952300894
 21
-0.1561826442
 31
0.0
 40
0.9999375566
 41
-2.2455632724
 42
-0.6747060234
  0
ELLIPSE
  5
86E
100
AcDbEntity
  8
RACCORDO
100
AcDbEllipse
 62
7
  6
CONTINUOUS
 10
9.692445281
 20
21.0610557705
 30
0.0
 11
-0.2321629181
 21
-0.0928572462
 31
0.0
 40
0.999823337
 41
2.7611766053
 42
4.3318510923
  0
ENDSEC
  0
SECTION
  2
OBJECTS
  0
DICTIONARY
  5
C
100
AcDbDictionary
280
0
281
1
  3
ACAD_GROUP
350
D
  3
ACAD_MLINESTYLE
350
17
  3
ACAD_LAYOUT
350
1A
  3
ACAD_PLOTSETTINGS
350
19
  3
ACAD_PLOTSTYLENAME
350
E
  0
DICTIONARY
  5
D
102
{ACAD_REACTORS
330
C
102
}
100
AcDbDictionary
280
0
281
1
  0
ACDBDICTIONARYWDFLT
  5
E
102
{ACAD_REACTORS
330
C
102
}
100
AcDbDictionary
281
1
  3
Normal
350
F
100
AcDbDictionaryWithDefault
340
F
  0
DICTIONARY
  5
17
102
{ACAD_REACTORS
330
C
102
}
100
AcDbDictionary
280
0
281
1
  3
Standard
350
18
  0
DICTIONARY
  5
19
102
{ACAD_REACTORS
330
C
102
}
100
AcDbDictionary
281
1
  0
DICTIONARY
  5
1A
102
{ACAD_REACTORS
330
C
102
}
100
AcDbDictionary
281
1
  3
Model
350
86F
  3
Layout1
350
870
  0
ACDBPLACEHOLDER
  5
F
102
{ACAD_REACTORS
330
E
102
}
  0
MLINESTYLE
  5
18
102
{ACAD_REACTORS
330
17
102
}
100
AcDbMlineStyle
  2
STANDARD
 70
0
  3

 62
256
 51
90.0
 52
90.0
 71
2
 49
0.5
 62
256
  6
BYLAYER
 49
-0.5
 62
256
  6
BYLAYER
  0
LAYOUT
  5
86F
102
{ACAD_REACTORS
330
1A
102
}
100
AcDbPlotSettings
  1

  2
none_device
  4
ISO_A4_(297.00_x_210.00_MM)
  6

 40
0.0
 41
0.0
 42
0.0
 43
0.0
 44
297.0
 45
210.0
 46
0.0
 47
0.0
 48
0.0
 49
0.0
140
0.0
141
0.0
142
1.0
143
1.0
 70
1024
 72
1
 73
0
 74
0
  7

 75
0
147
1.0
148
0.0
149
0.0
100
AcDbLayout
  1
Model
 70
0
 71
0
 10
0.0
 20
0.0
 11
297.0
 21
210.0
 12
0.0
 22
0.0
 32
0.0
 14
0.0
 24
0.0
 34
0.0
 15
0.0
 25
0.0
 35
0.0
146
0.0
 13
0.0
 23
0.0
 33
0.0
 16
1.0
 26
0.0
 36
0.0
 17
0.0
 27
1.0
 37
0.0
 76
0
330
219
345
0
346
0
  0
LAYOUT
  5
870
102
{ACAD_REACTORS
330
1A
102
}
100
AcDbPlotSettings
  1

  2
none_device
  4
ISO_A4_(297.00_x_210.00_MM)
  6

 40
0.0
 41
0.0
 42
0.0
 43
0.0
 44
297.0
 45
210.0
 46
0.0
 47
0.0
 48
0.0
 49
0.0
140
0.0
141
0.0
142
1.0
143
1.0
 70
0
 72
1
 73
0
 74
0
  7

 75
0
147
1.0
148
0.0
149
0.0
100
AcDbLayout
  1
Layout1
 70
0
 71
1
 10
0.0
 20
0.0
 11
297.0
 21
210.0
 12
0.0
 22
0.0
 32
0.0
 14
0.0
 24
0.0
 34
0.0
 15
0.0
 25
0.0
 35
0.0
146
0.0
 13
0.0
 23
0.0
 33
0.0
 16
1.0
 26
0.0
 36
0.0
 17
0.0
 27
1.0
 37
0.0
 76
0
330
21A
345
0
346
0
  0
ENDSEC
  0
EOF
