0
SECTION
2
HEADER
9
$ACADVER
1
AC1014
9
$HANDSEED
5
       553
9
$EXTMAX
10
297.0000000000
20
210.0000000000
9
$EXTMIN
10
0.0000000000
20
0.0000000000
9
$LIMMIN
10
0.0000000000
20
0.0000000000
9
$LIMMAX
10
297.0000000000
20
210.0000000000
9
$VIEWCTR
10
148.5000000000
20
105.0000000000
9
$VIEWSIZE
40
210.0000000000
9
$CLAYER
8
0
9
$LTSCALE
40
16.3350000000
9
$CELTYPE
6
BYLAYER
9
$DIMSCALE
40
1
9
$DIMASZ
40
3.0000000000
9
$DIMEXO
40
1.8562500000
9
$DIMDLI
40
11.2860000000
9
$DIMEXE
40
5.3460000000
9
$DIMCEN
40
2.6730000000
9
$DIMLFAC
40
1.0000000000
9
$DIMTXT
40
3.0000000000
9
$DIMTOL
70
1
9
$DIMLIM
70
0
9
$DIMTFAC
40
1.0000000000
9
$DIMTP
40
0.0100000000
9
$DIMTM
40
0.0100000000
9
$MEASUREMENT
70
1
0
ENDSEC
0
SECTION
2
CLASSES
0
ENDSEC
0
SECTION
2
TABLES
0
TABLE
2
VPORT
5
8
100
AcDbSymbolTable
70
2
0
VPORT
5
1F4
100
AcDbSymbolTableRecord
100
AcDbViewportTableRecord
2
*ACTIVE
70
0
10
0.0
20
0.0
11
1.0
21
1.0
12
148.5000000000
22
105.0000000000
13
0.0
23
0.0
14
1.0
24
1.0
15
0.0
25
0.0
16
0.0
26
0.0
36
1.0
17
0.0
27
0.0
37
0.0
40
210.0000000000
41
1.4142857143
42
50.0
43
0.0
44
0.0
50
0.0
51
0.0
71
0
72
100
73
1
74
1
75
0
76
0
77
0
78
0
0
ENDTAB
0
TABLE
2
LTYPE
5
5
100
AcDbSymbolTable
70
6
0
LTYPE
5
14
100
AcDbSymbolTableRecord
100
AcDbLinetypeTableRecord
2
BYBLOCK
70
0
3

72
65
73
0
40
0.0
0
LTYPE
5
15
100
AcDbSymbolTableRecord
100
AcDbLinetypeTableRecord
2
BYLAYER
70
0
3

72
65
73
0
40
0.0
0
LTYPE
5
16
100
AcDbSymbolTableRecord
100
AcDbLinetypeTableRecord
2
CONTINUOUS
70
64
3
Solid line
72
65
73
0
40
0
0
LTYPE
5
1F5
100
AcDbSymbolTableRecord
100
AcDbLinetypeTableRecord
2
CENTER
70
64
3
____ _ ____ _ ____ _ ____ _ ____ _ ____ _ ____
72
65
73
4
40
0.6
49
0.375
74
0
49
-0.075
74
0
49
0.075
74
0
49
-0.075
74
0
0
LTYPE
5
1F6
100
AcDbSymbolTableRecord
100
AcDbLinetypeTableRecord
2
HIDDEN
70
64
3
- - - - - - - - - - - - - - - - - - - -
72
65
73
2
40
0.2
49
0.1
74
0
49
-0.1
74
0
0
LTYPE
5
1F7
100
AcDbSymbolTableRecord
100
AcDbLinetypeTableRecord
2
PHANTOM
70
64
3
_____ _ _ _____ _ _ _____ _ _ _____
72
65
73
6
40
0.8
49
0.45
74
0
49
-0.05
74
0
49
0.1
74
0
49
-0.05
74
0
49
0.1
74
0
49
-0.05
74
0
0
LTYPE
5
1F8
100
AcDbSymbolTableRecord
100
AcDbLinetypeTableRecord
2
DOT
70
64
3
. . . . . . . . . . . . . . . . . . . .
72
65
73
2
40
0.2
49
0.1
74
0
49
-0.1
74
0
0
LTYPE
5
1F9
100
AcDbSymbolTableRecord
100
AcDbLinetypeTableRecord
2
DASHED
70
64
3
- - - - - - - - - - - - - - - - - - - -
72
65
73
2
40
0.2
49
0.1
74
0
49
-0.1
74
0
0
ENDTAB
0
TABLE
2
LAYER
5
2
100
AcDbSymbolTable
70
36
0
LAYER
5
10
100
AcDbSymbolTableRecord
100
AcDbLayerTableRecord
2
0
70
0
62
7
6
CONTINUOUS
0
LAYER
5
1FA
100
AcDbSymbolTableRecord
100
AcDbLayerTableRecord
2
DEFAULT_1
70
0
62
7
6
CENTER
0
LAYER
5
1FB
100
AcDbSymbolTableRecord
100
AcDbLayerTableRecord
2
DEFAULT_2
70
0
62
8
6
HIDDEN
0
LAYER
5
1FC
100
AcDbSymbolTableRecord
100
AcDbLayerTableRecord
2
DEFAULT_3
70
0
62
7
6
PHANTOM
0
LAYER
5
1FD
100
AcDbSymbolTableRecord
100
AcDbLayerTableRecord
2
ASSI
70
0
62
7
6
CONTINUOUS
0
LAYER
5
1FE
100
AcDbSymbolTableRecord
100
AcDbLayerTableRecord
2
COORDINATE
70
0
62
7
6
CONTINUOUS
0
LAYER
5
1FF
100
AcDbSymbolTableRecord
100
AcDbLayerTableRecord
2
COORD_ORIGINE
70
0
62
7
6
CONTINUOUS
0
LAYER
5
200
100
AcDbSymbolTableRecord
100
AcDbLayerTableRecord
2
COSMETICI
70
0
62
7
6
CONTINUOUS
0
LAYER
5
201
100
AcDbSymbolTableRecord
100
AcDbLayerTableRecord
2
CURVE
70
0
62
7
6
CONTINUOUS
0
LAYER
5
202
100
AcDbSymbolTableRecord
100
AcDbLayerTableRecord
2
DRAFT
70
0
62
7
6
CONTINUOUS
0
LAYER
5
203
100
AcDbSymbolTableRecord
100
AcDbLayerTableRecord
2
IGES
70
0
62
7
6
CONTINUOUS
0
LAYER
5
204
100
AcDbSymbolTableRecord
100
AcDbLayerTableRecord
2
INC_LASER
70
0
62
7
6
CONTINUOUS
0
LAYER
5
205
100
AcDbSymbolTableRecord
100
AcDbLayerTableRecord
2
NOTE
70
0
62
7
6
CONTINUOUS
0
LAYER
5
206
100
AcDbSymbolTableRecord
100
AcDbLayerTableRecord
2
PIANI
70
0
62
7
6
CONTINUOUS
0
LAYER
5
207
100
AcDbSymbolTableRecord
100
AcDbLayerTableRecord
2
PIANI_AUSILIARI
70
0
62
7
6
CONTINUOUS
0
LAYER
5
208
100
AcDbSymbolTableRecord
100
AcDbLayerTableRecord
2
PIANI_ORIGINE
70
0
62
7
6
CONTINUOUS
0
LAYER
5
209
100
AcDbSymbolTableRecord
100
AcDbLayerTableRecord
2
PUNTI
70
0
62
7
6
CONTINUOUS
0
LAYER
5
20A
100
AcDbSymbolTableRecord
100
AcDbLayerTableRecord
2
RACCORDO
70
0
62
7
6
CONTINUOUS
0
LAYER
5
20B
100
AcDbSymbolTableRecord
100
AcDbLayerTableRecord
2
SMUSSO
70
0
62
7
6
CONTINUOUS
0
LAYER
5
20C
100
AcDbSymbolTableRecord
100
AcDbLayerTableRecord
2
SUPERFICI
70
0
62
7
6
CONTINUOUS
0
LAYER
5
20D
100
AcDbSymbolTableRecord
100
AcDbLayerTableRecord
2
TRASH
70
0
62
7
6
CONTINUOUS
0
LAYER
5
20E
100
AcDbSymbolTableRecord
100
AcDbLayerTableRecord
2
XSEC_DATUMS
70
0
62
7
6
CONTINUOUS
0
LAYER
5
20F
100
AcDbSymbolTableRecord
100
AcDbLayerTableRecord
2
Z030080
70
0
62
7
6
CONTINUOUS
0
LAYER
5
210
100
AcDbSymbolTableRecord
100
AcDbLayerTableRecord
2
Z030090
70
0
62
7
6
CONTINUOUS
0
LAYER
5
211
100
AcDbSymbolTableRecord
100
AcDbLayerTableRecord
2
Z030100
70
0
62
7
6
CONTINUOUS
0
LAYER
5
212
100
AcDbSymbolTableRecord
100
AcDbLayerTableRecord
2
Z030110
70
0
62
7
6
CONTINUOUS
0
ENDTAB
0
TABLE
2
STYLE
5
3
100
AcDbSymbolTable
70
1
0
STYLE
5
11
100
AcDbSymbolTableRecord
100
AcDbTextStyleTableRecord
2
STANDARD
70
0
40
0.0
41
0.8000000000
50
0.0
71
0
42
0.2
3
txt
4

0
ENDTAB
0
TABLE
2
VIEW
5
6
100
AcDbSymbolTable
70
0
0
ENDTAB
0
TABLE
2
UCS
5
7
100
AcDbSymbolTable
70
0
0
ENDTAB
0
TABLE
2
APPID
5
9
100
AcDbSymbolTable
70
1
0
APPID
5
213
100
AcDbSymbolTableRecord
100
AcDbRegAppTableRecord
2
ACAD
70
0
0
ENDTAB
0
TABLE
2
DIMSTYLE
5
A
100
AcDbSymbolTable
70
1
0
DIMSTYLE
105
214
100
AcDbSymbolTableRecord
100
AcDbDimStyleTableRecord
2
STANDARD
70
0
3

4

5

6

7

40
1.0
41
3.0000000000
42
0.0625
43
0.38
44
0.18
45
0.0
46
0.0
47
0.0100000000
48
0.0100000000
140
3.0000000000
141
0.09
142
0.0
143
25.4
144
1.0000000000
145
0.0
146
1.0000000000
147
0.09
71
1
72
0
73
0
74
0
75
0
76
0
77
1
78
8
170
0
171
2
172
0
173
0
174
0
175
0
176
0
177
0
178
0
270
2
271
2
272
2
273
2
274
2
340
11
275
0
280
0
281
0
282
0
283
1
284
8
285
0
286
0
287
3
288
0
0
ENDTAB
0
TABLE
2
BLOCK_RECORD
5
1
100
AcDbSymbolTable
70
0
0
BLOCK_RECORD
5
1B
100
AcDbSymbolTableRecord
100
AcDbBlockTableRecord
2
*MODEL_SPACE
0
BLOCK_RECORD
5
1C
100
AcDbSymbolTableRecord
100
AcDbBlockTableRecord
2
*PAPER_SPACE
0
ENDTAB
0
ENDSEC
0
SECTION
2
BLOCKS
0
BLOCK
5
1E
100
AcDbEntity
8
0
100
AcDbBlockBegin
2
*MODEL_SPACE
70
0
10
0.0
20
0.0
30
0.0
3
*MODEL_SPACE
1

0
ENDBLK
5
1F
100
AcDbEntity
8
0
100
AcDbBlockEnd
0
BLOCK
5
20
100
AcDbEntity
8
0
100
AcDbBlockBegin
2
*PAPER_SPACE
70
0
10
0.0
20
0.0
30
0.0
3
*PAPER_SPACE
1

0
ENDBLK
5
21
100
AcDbEntity
8
0
100
AcDbBlockEnd
0
ENDSEC
0
SECTION
2
ENTITIES
0
LINE
5
215
100
AcDbEntity
8
0
100
AcDbLine
62
7
6
CONTINUOUS
10
4.0047851610
20
-33.0075983357
11
-7.9952148390
21
-33.0075983357
0
LINE
5
216
100
AcDbEntity
8
0
100
AcDbLine
62
9
6
CONTINUOUS
10
4.0047851610
20
-32.9733378971
11
-7.9952148390
21
-32.9733378971
0
LINE
5
217
100
AcDbEntity
8
0
100
AcDbLine
62
7
6
CONTINUOUS
10
2.3047851610
20
-32.8857638770
11
-0.5952148390
21
-32.8857638770
0
LINE
5
218
100
AcDbEntity
8
0
100
AcDbLine
62
7
6
CONTINUOUS
10
-3.3952148390
20
-32.8857638770
11
-6.2952148390
21
-32.8857638770
0
LINE
5
219
100
AcDbEntity
8
0
100
AcDbLine
62
7
6
CONTINUOUS
10
2.3047851610
20
-32.5053412705
11
-0.5952148390
21
-32.5053412705
0
LINE
5
21A
100
AcDbEntity
8
0
100
AcDbLine
62
7
6
CONTINUOUS
10
-3.3952148390
20
-32.5053412705
11
-6.2952148390
21
-32.5053412705
0
LINE
5
21B
100
AcDbEntity
8
0
100
AcDbLine
62
9
6
CONTINUOUS
10
2.5047851610
20
-32.3075983357
11
-0.7952148390
21
-32.3075983357
0
LINE
5
21C
100
AcDbEntity
8
0
100
AcDbLine
62
9
6
CONTINUOUS
10
-3.1952148390
20
-32.3075983357
11
-6.4952148390
21
-32.3075983357
0
LINE
5
21D
100
AcDbEntity
8
0
100
AcDbLine
62
7
6
CONTINUOUS
10
8.6547927785
20
-32.0231317818
11
10.1547775436
21
-32.0231317818
0
LINE
5
21E
100
AcDbEntity
8
0
100
AcDbLine
62
7
6
CONTINUOUS
10
-12.6452224564
20
-32.0231317818
11
-14.1452072215
21
-32.0231317818
0
LINE
5
21F
100
AcDbEntity
8
0
100
AcDbLine
62
7
6
CONTINUOUS
10
2.5047851610
20
-32.0075983357
11
1.9380513958
21
-32.0075983357
0
LINE
5
220
100
AcDbEntity
8
0
100
AcDbLine
62
7
6
CONTINUOUS
10
-5.9284810738
20
-32.0075983357
11
-6.4952148390
21
-32.0075983357
0
LINE
5
221
100
AcDbEntity
8
0
100
AcDbLine
62
7
6
CONTINUOUS
10
9.9976819593
20
-31.9602989080
11
8.4977581233
21
-31.9602989080
0
LINE
5
222
100
AcDbEntity
8
0
100
AcDbLine
62
7
6
CONTINUOUS
10
-12.4881878012
20
-31.9602989080
11
-13.9881116372
21
-31.9602989080
0
LINE
5
223
100
AcDbEntity
8
0
100
AcDbLine
62
7
6
CONTINUOUS
10
-6.2952148390
20
-31.8660077956
11
-3.3952148390
21
-31.8660077956
0
LINE
5
224
100
AcDbEntity
8
0
100
AcDbLine
62
7
6
CONTINUOUS
10
-0.5952148390
20
-31.8660077956
11
2.3047851610
21
-31.8660077956
0
LINE
5
225
100
AcDbEntity
8
0
100
AcDbLine
62
7
6
CONTINUOUS
10
4.2047851610
20
-31.2731317818
11
1.9803499312
21
-31.2731317818
0
LINE
5
226
100
AcDbEntity
8
0
100
AcDbLine
62
7
6
CONTINUOUS
10
-5.9707796092
20
-31.2731317818
11
-8.1952148390
21
-31.2731317818
0
LINE
5
227
100
AcDbEntity
8
0
100
AcDbLine
62
7
6
CONTINUOUS
10
-5.9699069224
20
-30.8387697908
11
-5.9452148390
21
-30.8387697908
0
LINE
5
228
100
AcDbEntity
8
0
100
AcDbLine
62
7
6
CONTINUOUS
10
1.9794772444
20
-30.8387697908
11
1.9547851610
21
-30.8387697908
0
LINE
5
229
100
AcDbEntity
8
0
100
AcDbLine
62
7
6
CONTINUOUS
10
-9.3957301625
20
12.9431909991
11
-9.4952148390
21
12.8768682182
0
LINE
5
22A
100
AcDbEntity
8
0
100
AcDbLine
62
7
6
CONTINUOUS
10
3.0990612176
20
-28.3732223721
11
3.0094975931
21
-28.3968866735
0
LINE
5
22B
100
AcDbEntity
8
0
100
AcDbLine
62
7
6
CONTINUOUS
10
4.2074284220
20
-28.3910158633
11
4.0065162016
21
-28.4197162102
0
LINE
5
22C
100
AcDbEntity
8
0
100
AcDbLine
62
7
6
CONTINUOUS
10
3.4359732991
20
-28.9552476960
11
2.1257452228
21
-29.0470276582
0
LINE
5
22D
100
AcDbEntity
8
0
100
AcDbLine
62
7
6
CONTINUOUS
10
2.0047851610
20
-29.0231317818
11
3.4348517867
21
-28.9231317818
0
LINE
5
22E
100
AcDbEntity
8
0
100
AcDbLine
62
9
6
CONTINUOUS
10
-6.9865260496
20
-29.5539546067
11
-8.7978900869
21
-29.5552467865
0
LINE
5
22F
100
AcDbEntity
8
0
100
AcDbLine
62
7
6
CONTINUOUS
10
8.2476895767
20
-30.5231317818
11
4.2047851610
21
-30.5231317818
0
LINE
5
230
100
AcDbEntity
8
0
100
AcDbLine
62
7
6
CONTINUOUS
10
-8.1952148390
20
-30.5231317818
11
-12.2381192546
21
-30.5231317818
0
LINE
5
231
100
AcDbEntity
8
0
100
AcDbLine
62
7
6
CONTINUOUS
10
8.2476895767
20
-30.4927619427
11
4.2047851610
21
-30.4927619427
0
LINE
5
232
100
AcDbEntity
8
0
100
AcDbLine
62
7
6
CONTINUOUS
10
-8.1952148390
20
-30.4927619427
11
-12.2381192546
21
-30.4927619427
0
LINE
5
233
100
AcDbEntity
8
0
100
AcDbLine
62
9
6
CONTINUOUS
10
-8.1952148390
20
-30.4456031920
11
-6.1057946626
21
-30.4456031920
0
LINE
5
234
100
AcDbEntity
8
0
100
AcDbLine
62
9
6
CONTINUOUS
10
2.1153649847
20
-30.4456031920
11
4.2047851610
21
-30.4456031920
0
LINE
5
235
100
AcDbEntity
8
0
100
AcDbLine
62
7
6
CONTINUOUS
10
-5.8974739197
20
-30.4362112078
11
-5.7919801831
21
-30.4362112078
0
LINE
5
236
100
AcDbEntity
8
0
100
AcDbLine
62
7
6
CONTINUOUS
10
1.8015505052
20
-30.4362112078
11
1.9070442418
21
-30.4362112078
0
LINE
5
237
100
AcDbEntity
8
0
100
AcDbLine
62
9
6
CONTINUOUS
10
1.7547851610
20
-30.1635492004
11
-5.7452148390
21
-30.1635492004
0
LINE
5
238
100
AcDbEntity
8
0
100
AcDbLine
62
9
6
CONTINUOUS
10
-8.1952148390
20
-29.6938490953
11
-6.9865260496
21
-29.6938490953
0
LINE
5
239
100
AcDbEntity
8
0
100
AcDbLine
62
9
6
CONTINUOUS
10
2.9960963716
20
-29.6938490953
11
4.2047851610
21
-29.6938490953
0
LINE
5
23A
100
AcDbEntity
8
0
100
AcDbLine
62
7
6
CONTINUOUS
10
-5.8974739197
20
-29.0367453638
11
-5.7452148390
21
-29.0367453638
0
LINE
5
23B
100
AcDbEntity
8
0
100
AcDbLine
62
7
6
CONTINUOUS
10
1.7547851610
20
-29.0367453638
11
1.9070442418
21
-29.0367453638
0
LINE
5
23C
100
AcDbEntity
8
0
100
AcDbLine
62
7
6
CONTINUOUS
10
-5.9952148390
20
-29.0231317818
11
-5.7452148390
21
-29.0231317818
0
LINE
5
23D
100
AcDbEntity
8
0
100
AcDbLine
62
7
6
CONTINUOUS
10
1.7547851610
20
-29.0231317818
11
2.0047851610
21
-29.0231317818
0
LINE
5
23E
100
AcDbEntity
8
0
100
AcDbLine
62
7
6
CONTINUOUS
10
9.6519094815
20
-28.9894545628
11
5.4053004845
21
-28.9894545628
0
LINE
5
23F
100
AcDbEntity
8
0
100
AcDbLine
62
7
6
CONTINUOUS
10
-9.3957301625
20
-28.9894545628
11
-13.6423391594
21
-28.9894545628
0
LINE
5
240
100
AcDbEntity
8
0
100
AcDbLine
62
7
6
CONTINUOUS
10
9.6047851610
20
-28.9580385087
11
8.9047851610
21
-28.9580385087
0
LINE
5
241
100
AcDbEntity
8
0
100
AcDbLine
62
7
6
CONTINUOUS
10
-12.8952148390
20
-28.9580385087
11
-13.5952148390
21
-28.9580385087
0
LINE
5
242
100
AcDbEntity
8
0
100
AcDbLine
62
7
6
CONTINUOUS
10
4.2074284220
20
-28.9552477004
11
3.4359732993
21
-28.9552477004
0
LINE
5
243
100
AcDbEntity
8
0
100
AcDbLine
62
7
6
CONTINUOUS
10
-7.4264029772
20
-28.9552477004
11
-8.1978580999
21
-28.9552477004
0
LINE
5
244
100
AcDbEntity
8
0
100
AcDbLine
62
7
6
CONTINUOUS
10
-12.8428544829
20
-28.9231317818
11
-9.4952148390
21
-28.9231317818
0
LINE
5
245
100
AcDbEntity
8
0
100
AcDbLine
62
7
6
CONTINUOUS
10
-7.9730357123
20
-28.9231317818
11
-7.4252814646
21
-28.9231317818
0
LINE
5
246
100
AcDbEntity
8
0
100
AcDbLine
62
7
6
CONTINUOUS
10
3.4348517867
20
-28.9231317818
11
3.9826060344
21
-28.9231317818
0
LINE
5
247
100
AcDbEntity
8
0
100
AcDbLine
62
7
6
CONTINUOUS
10
5.5047851610
20
-28.9231317818
11
8.8524248050
21
-28.9231317818
0
LINE
5
248
100
AcDbEntity
8
0
100
AcDbLine
62
7
6
CONTINUOUS
10
-7.9952148390
20
-28.8075983357
11
-6.7390578097
21
-28.8075983357
0
LINE
5
249
100
AcDbEntity
8
0
100
AcDbLine
62
7
6
CONTINUOUS
10
-6.7277343453
20
-28.8075983357
11
-5.9452148390
21
-28.8075983357
0
LINE
5
24A
100
AcDbEntity
8
0
100
AcDbLine
62
7
6
CONTINUOUS
10
4.0047851610
20
-28.8075983357
11
2.7486281317
21
-28.8075983357
0
LINE
5
24B
100
AcDbEntity
8
0
100
AcDbLine
62
7
6
CONTINUOUS
10
2.7373046674
20
-28.8075983357
11
1.9547851610
21
-28.8075983357
0
LINE
5
24C
100
AcDbEntity
8
0
100
AcDbLine
62
7
6
CONTINUOUS
10
-14.2381192546
20
-28.7988638902
11
-13.6423391594
21
-28.7988638902
0
LINE
5
24D
100
AcDbEntity
8
0
100
AcDbLine
62
7
6
CONTINUOUS
10
10.2476895767
20
-28.7988638902
11
9.6519094815
21
-28.7988638902
0
LINE
5
24E
100
AcDbEntity
8
0
100
AcDbLine
62
9
6
CONTINUOUS
10
4.8074604089
20
-29.5552467865
11
2.9960963716
21
-29.5539547379
0
LINE
5
24F
100
AcDbEntity
8
0
100
AcDbLine
62
7
6
CONTINUOUS
10
-7.4252814646
20
-28.9231317818
11
-5.9952148390
21
-29.0231317818
0
LINE
5
250
100
AcDbEntity
8
0
100
AcDbLine
62
7
6
CONTINUOUS
10
-6.1161750964
20
-29.0470276451
11
-7.4264029771
21
-28.9552476960
0
LINE
5
251
100
AcDbEntity
8
0
100
AcDbLine
62
7
6
CONTINUOUS
10
-8.1978580999
20
-28.3910158633
11
-7.9969458795
21
-28.4197162102
0
LINE
5
252
100
AcDbEntity
8
0
100
AcDbLine
62
7
6
CONTINUOUS
10
-7.0894908956
20
-28.3732223721
11
-6.9999272710
21
-28.3968866735
0
LINE
5
253
100
AcDbEntity
8
0
100
AcDbLine
62
7
6
CONTINUOUS
10
-9.3957301625
20
-28.9894545628
11
-9.4952148390
21
-28.9231317818
0
LINE
5
254
100
AcDbEntity
8
0
100
AcDbLine
62
7
6
CONTINUOUS
10
-8.1979348651
20
12.3447084353
11
-8.1978580999
21
12.3447522996
0
LINE
5
255
100
AcDbEntity
8
0
100
AcDbLine
62
7
6
CONTINUOUS
10
-5.8974739197
20
-29.0367453638
11
-5.9865641265
21
-29.0545629710
0
LINE
5
256
100
AcDbEntity
8
0
100
AcDbLine
62
7
6
CONTINUOUS
10
-8.1978580999
20
-28.9552477004
11
-7.9730357123
21
-28.9231317818
0
LINE
5
257
100
AcDbEntity
8
0
100
AcDbLine
62
7
6
CONTINUOUS
10
-6.9999272710
20
-28.3968866735
11
-7.1531111770
21
-28.4075983357
0
LINE
5
258
100
AcDbEntity
8
0
100
AcDbLine
62
7
6
CONTINUOUS
10
-7.3538530080
20
-28.3910158633
11
-7.1734197956
21
-28.3783987440
0
LINE
5
259
100
AcDbEntity
8
0
100
AcDbLine
62
7
6
CONTINUOUS
10
7.5048041995
20
-28.5231317818
11
5.5047851610
21
-28.5231317818
0
LINE
5
25A
100
AcDbEntity
8
0
100
AcDbLine
62
7
6
CONTINUOUS
10
-9.4952148390
20
-28.5231317818
11
-11.4952338774
21
-28.5231317818
0
LINE
5
25B
100
AcDbEntity
8
0
100
AcDbLine
62
7
6
CONTINUOUS
10
7.4969500185
20
-28.5152776008
11
5.5000727290
21
-28.5152776008
0
LINE
5
25C
100
AcDbEntity
8
0
100
AcDbLine
62
7
6
CONTINUOUS
10
-9.4905024069
20
-28.5152776008
11
-11.4873796964
21
-28.5152776008
0
LINE
5
25D
100
AcDbEntity
8
0
100
AcDbLine
62
7
6
CONTINUOUS
10
4.0047851610
20
-28.4075983357
11
-7.9952148390
21
-28.4075983357
0
LINE
5
25E
100
AcDbEntity
8
0
100
AcDbLine
62
7
6
CONTINUOUS
10
-8.1978580999
20
-28.3910158633
11
-7.3538530080
21
-28.3910158633
0
LINE
5
25F
100
AcDbEntity
8
0
100
AcDbLine
62
7
6
CONTINUOUS
10
3.3634233300
20
-28.3910158633
11
4.2074284220
21
-28.3910158633
0
LINE
5
260
100
AcDbEntity
8
0
100
AcDbLine
62
7
6
CONTINUOUS
10
-5.4127579176
20
-28.0075983357
11
1.4223282396
21
-28.0075983357
0
LINE
5
261
100
AcDbEntity
8
0
100
AcDbLine
62
9
6
CONTINUOUS
10
-8.7978900869
20
-27.7910167771
11
-8.0894771878
21
-27.7910167771
0
LINE
5
262
100
AcDbEntity
8
0
100
AcDbLine
62
9
6
CONTINUOUS
10
4.0990475099
20
-27.7910167771
11
4.8074604089
21
-27.7910167771
0
LINE
5
263
100
AcDbEntity
8
0
100
AcDbLine
62
7
6
CONTINUOUS
10
5.1053045968
20
-27.3726164583
11
4.0990475099
21
-27.3726164583
0
LINE
5
264
100
AcDbEntity
8
0
100
AcDbLine
62
7
6
CONTINUOUS
10
-8.0894771878
20
-27.3726164583
11
-9.0957342748
21
-27.3726164583
0
LINE
5
265
100
AcDbEntity
8
0
100
AcDbLine
62
7
6
CONTINUOUS
10
5.2000768413
20
-27.2778442139
11
3.0094975931
21
-27.2778442139
0
LINE
5
266
100
AcDbEntity
8
0
100
AcDbLine
62
7
6
CONTINUOUS
10
-6.9999272710
20
-27.2778442139
11
-9.1905065193
21
-27.2778442139
0
LINE
5
267
100
AcDbEntity
8
0
100
AcDbLine
62
7
6
CONTINUOUS
10
3.1626814990
20
-28.4075983357
11
3.0094975931
21
-28.3968866735
0
LINE
5
268
100
AcDbEntity
8
0
100
AcDbLine
62
7
6
CONTINUOUS
10
3.1829901177
20
-28.3783987440
11
3.3634233300
21
-28.3910158633
0
LINE
5
269
100
AcDbEntity
8
0
100
AcDbLine
62
7
6
CONTINUOUS
10
4.2074284220
20
-28.9552477004
11
3.9826060344
21
-28.9231317818
0
LINE
5
26A
100
AcDbEntity
8
0
100
AcDbLine
62
7
6
CONTINUOUS
10
1.9070442418
20
-29.0367453638
11
1.9961344486
21
-29.0545629710
0
LINE
5
26B
100
AcDbEntity
8
0
100
AcDbLine
62
7
6
CONTINUOUS
10
-8.1979348651
20
-28.3909719989
11
-8.1978580999
21
-28.3910158633
0
LINE
5
26C
100
AcDbEntity
8
0
100
AcDbLine
62
9
6
CONTINUOUS
10
-9.3957301625
20
11.6263487823
11
-9.4952148390
21
11.5268641058
0
LINE
5
26D
100
AcDbEntity
8
0
100
AcDbLine
62
9
6
CONTINUOUS
10
-9.0957342748
20
11.3263528947
11
-9.1952189513
21
11.2268682182
0
LINE
5
26E
100
AcDbEntity
8
0
100
AcDbLine
62
7
6
CONTINUOUS
10
8.5620106112
20
15.9589953122
11
8.4911167525
21
15.9306401875
0
LINE
5
26F
100
AcDbEntity
8
0
100
AcDbLine
62
9
6
CONTINUOUS
10
8.6548537076
20
15.9768682182
11
8.4977581233
21
15.9140353443
0
LINE
5
270
100
AcDbEntity
8
0
100
AcDbLine
62
9
6
CONTINUOUS
10
10.1547775436
20
15.9768682182
11
9.9976819593
21
15.9140353443
0
LINE
5
271
100
AcDbEntity
8
0
100
AcDbLine
62
9
6
CONTINUOUS
10
10.4047851610
20
15.7268925864
11
10.2476895767
21
15.6640597125
0
LINE
5
272
100
AcDbEntity
8
0
100
AcDbLine
62
7
6
CONTINUOUS
10
-14.3952148390
20
-25.5231317818
11
-13.5952148390
21
-25.5231317818
0
LINE
5
273
100
AcDbEntity
8
0
100
AcDbLine
62
7
6
CONTINUOUS
10
10.4047851610
20
-25.5231317818
11
9.6047851610
21
-25.5231317818
0
LINE
5
274
100
AcDbEntity
8
0
100
AcDbLine
62
7
6
CONTINUOUS
10
8.5620106112
20
-32.0052588759
11
8.4911167525
21
-31.9769037512
0
LINE
5
275
100
AcDbEntity
8
0
100
AcDbLine
62
9
6
CONTINUOUS
10
8.6548537076
20
-32.0231317818
11
8.4977581233
21
-31.9602989080
0
LINE
5
276
100
AcDbEntity
8
0
100
AcDbLine
62
9
6
CONTINUOUS
10
10.1547775436
20
-32.0231317818
11
9.9976819593
21
-31.9602989080
0
LINE
5
277
100
AcDbEntity
8
0
100
AcDbLine
62
9
6
CONTINUOUS
10
10.4047851610
20
-31.7731561501
11
10.2476895767
21
-31.7103232762
0
LINE
5
278
100
AcDbEntity
8
0
100
AcDbLine
62
9
6
CONTINUOUS
10
-9.4905024069
20
-27.5778401016
11
-9.3957301625
21
-27.6726123460
0
LINE
5
279
100
AcDbEntity
8
0
100
AcDbLine
62
9
6
CONTINUOUS
10
-9.1905065193
20
-27.2778442139
11
-9.0957342748
21
-27.3726164583
0
LINE
5
27A
100
AcDbEntity
8
0
100
AcDbLine
62
7
6
CONTINUOUS
10
-12.8952148390
20
5.6895995403
11
-12.8428544829
21
5.7768682182
0
LINE
5
27B
100
AcDbEntity
8
0
100
AcDbLine
62
9
6
CONTINUOUS
10
-8.9953185706
20
7.3768682182
11
-9.1027420090
21
7.2891441580
0
LINE
5
27C
100
AcDbEntity
8
0
100
AcDbLine
62
7
6
CONTINUOUS
10
-12.8952148390
20
1.3895995403
11
-12.8428544829
21
1.4768682182
0
LINE
5
27D
100
AcDbEntity
8
0
100
AcDbLine
62
9
6
CONTINUOUS
10
-9.4952148390
20
6.8769719498
11
-9.4074907788
21
6.9843953882
0
LINE
5
27E
100
AcDbEntity
8
0
100
AcDbLine
62
7
6
CONTINUOUS
10
4.2075051871
20
12.9090280011
11
4.2074284220
21
12.9089841367
0
LINE
5
27F
100
AcDbEntity
8
0
100
AcDbLine
62
7
6
CONTINUOUS
10
4.2075051871
20
-28.9552915647
11
4.2074284220
21
-28.9552477004
0
LINE
5
280
100
AcDbEntity
8
0
100
AcDbLine
62
9
6
CONTINUOUS
10
-11.9952148390
20
-19.2231127434
11
-11.9873606580
21
-19.2309669244
0
LINE
5
281
100
AcDbEntity
8
0
100
AcDbLine
62
9
6
CONTINUOUS
10
-11.4952338774
20
-18.7231317818
11
-11.4873796964
21
-18.7309859629
0
LINE
5
282
100
AcDbEntity
8
0
100
AcDbLine
62
7
6
CONTINUOUS
10
-14.3952148390
20
-25.5231317818
11
-14.2381192546
21
-28.7988638902
0
LINE
5
283
100
AcDbEntity
8
0
100
AcDbLine
62
7
6
CONTINUOUS
10
-14.2381192546
20
12.7526003266
11
-14.3952148390
21
9.4768682182
0
LINE
5
284
100
AcDbEntity
8
0
100
AcDbLine
62
7
6
CONTINUOUS
10
-4.2443421522
20
-19.2231317818
11
0.2539124743
21
-19.2231317818
0
LINE
5
285
100
AcDbEntity
8
0
100
AcDbLine
62
7
6
CONTINUOUS
10
0.2539124743
20
-19.1731317818
11
-4.2443421522
21
-19.1731317818
0
LINE
5
286
100
AcDbEntity
8
0
100
AcDbLine
62
7
6
CONTINUOUS
10
-12.8952148390
20
-15.5358631039
11
-12.8428544829
21
-15.6231317818
0
LINE
5
287
100
AcDbEntity
8
0
100
AcDbLine
62
7
6
CONTINUOUS
10
-13.6423391594
20
12.7526003266
11
-13.5952148390
21
9.4768682182
0
LINE
5
288
100
AcDbEntity
8
0
100
AcDbLine
62
7
6
CONTINUOUS
10
-14.3952148390
20
-31.7731561501
11
-14.3952148390
21
15.7268925864
0
LINE
5
289
100
AcDbEntity
8
0
100
AcDbLine
62
7
6
CONTINUOUS
10
-14.2381192546
20
-31.7103232762
11
-14.2381192546
21
-28.7988638902
0
LINE
5
28A
100
AcDbEntity
8
0
100
AcDbLine
62
7
6
CONTINUOUS
10
-14.2381192546
20
12.7526003266
11
-14.2381192546
21
15.6640597125
0
LINE
5
28B
100
AcDbEntity
8
0
100
AcDbLine
62
7
6
CONTINUOUS
10
-13.6423391594
20
12.9431909991
11
-13.6423391594
21
12.7526003266
0
LINE
5
28C
100
AcDbEntity
8
0
100
AcDbLine
62
7
6
CONTINUOUS
10
-13.6423391594
20
-28.7988638902
11
-13.6423391594
21
-28.9894545628
0
LINE
5
28D
100
AcDbEntity
8
0
100
AcDbLine
62
7
6
CONTINUOUS
10
-13.5952148390
20
-28.9580385087
11
-13.5952148390
21
-25.5231317818
0
LINE
5
28E
100
AcDbEntity
8
0
100
AcDbLine
62
7
6
CONTINUOUS
10
-13.5952148390
20
9.4768682182
11
-13.5952148390
21
12.9117749450
0
LINE
5
28F
100
AcDbEntity
8
0
100
AcDbLine
62
7
6
CONTINUOUS
10
-12.8952148390
20
-28.9580385087
11
-12.8952148390
21
12.9117749450
0
LINE
5
290
100
AcDbEntity
8
0
100
AcDbLine
62
7
6
CONTINUOUS
10
-12.8428544829
20
4.7768682182
11
-12.8428544829
21
1.4768682182
0
LINE
5
291
100
AcDbEntity
8
0
100
AcDbLine
62
7
6
CONTINUOUS
10
-12.8428544829
20
0.4768682182
11
-12.8428544829
21
-5.5731317818
0
LINE
5
292
100
AcDbEntity
8
0
100
AcDbLine
62
7
6
CONTINUOUS
10
-12.8428544829
20
-6.5731317818
11
-12.8428544829
21
-14.6231317818
0
LINE
5
293
100
AcDbEntity
8
0
100
AcDbLine
62
7
6
CONTINUOUS
10
-12.8428544829
20
-28.9231317818
11
-12.8428544829
21
-15.6231317818
0
LINE
5
294
100
AcDbEntity
8
0
100
AcDbLine
62
7
6
CONTINUOUS
10
-12.8428544829
20
5.7768682182
11
-12.8428544829
21
12.8768682182
0
LINE
5
295
100
AcDbEntity
8
0
100
AcDbLine
62
9
6
CONTINUOUS
10
-12.6452148390
20
5.4391536773
11
-12.6452148390
21
5.1145827591
0
LINE
5
296
100
AcDbEntity
8
0
100
AcDbLine
62
9
6
CONTINUOUS
10
-12.6452148390
20
1.1391536773
11
-12.6452148390
21
0.8145827591
0
LINE
5
297
100
AcDbEntity
8
0
100
AcDbLine
62
9
6
CONTINUOUS
10
-12.6452148390
20
-5.9108463227
11
-12.6452148390
21
-6.2354172409
0
LINE
5
298
100
AcDbEntity
8
0
100
AcDbLine
62
9
6
CONTINUOUS
10
-12.6452148390
20
-14.9608463227
11
-12.6452148390
21
-15.2854172409
0
LINE
5
299
100
AcDbEntity
8
0
100
AcDbLine
62
7
6
CONTINUOUS
10
-13.5952148390
20
-25.5231317818
11
-13.6423391594
21
-28.7988638902
0
LINE
5
29A
100
AcDbEntity
8
0
100
AcDbLine
62
7
6
CONTINUOUS
10
-12.8428544829
20
-5.5731317818
11
-12.8952148390
21
-5.6604004597
0
LINE
5
29B
100
AcDbEntity
8
0
100
AcDbLine
62
7
6
CONTINUOUS
10
1.9248886611
20
14.4113611864
11
1.9070442418
21
14.3899476441
0
LINE
5
29C
100
AcDbEntity
8
0
100
AcDbLine
62
7
6
CONTINUOUS
10
8.9047851610
20
12.9117749450
11
8.8524248050
21
12.8768682182
0
LINE
5
29D
100
AcDbEntity
8
0
100
AcDbLine
62
7
6
CONTINUOUS
10
9.6519094815
20
12.9431909991
11
9.6047851610
21
12.9117749450
0
LINE
5
29E
100
AcDbEntity
8
0
100
AcDbLine
62
7
6
CONTINUOUS
10
0.2469309800
20
-19.1161502876
11
-0.2452148390
21
-19.1161502876
0
LINE
5
29F
100
AcDbEntity
8
0
100
AcDbLine
62
7
6
CONTINUOUS
10
-3.7452148390
20
-19.1161502876
11
-4.2373606580
21
-19.1161502876
0
LINE
5
2A0
100
AcDbEntity
8
0
100
AcDbLine
62
9
6
CONTINUOUS
10
-3.7452148390
20
-19.0231317818
11
-0.2452148390
21
-19.0231317818
0
LINE
5
2A1
100
AcDbEntity
8
0
100
AcDbLine
62
7
6
CONTINUOUS
10
7.0547851610
20
-18.9731317818
11
-11.0452148390
21
-18.9731317818
0
LINE
5
2A2
100
AcDbEntity
8
0
100
AcDbLine
62
7
6
CONTINUOUS
10
-11.4873796964
20
-18.7309859629
11
-11.3395485344
21
-18.7309859629
0
LINE
5
2A3
100
AcDbEntity
8
0
100
AcDbLine
62
7
6
CONTINUOUS
10
7.3491188565
20
-18.7309859629
11
7.4969500185
21
-18.7309859629
0
LINE
5
2A4
100
AcDbEntity
8
0
100
AcDbLine
62
7
6
CONTINUOUS
10
-11.4952338774
20
-18.7231317818
11
-11.3452148390
21
-18.7231317818
0
LINE
5
2A5
100
AcDbEntity
8
0
100
AcDbLine
62
7
6
CONTINUOUS
10
7.3547851610
20
-18.7231317818
11
7.5048041995
21
-18.7231317818
0
LINE
5
2A6
100
AcDbEntity
8
0
100
AcDbLine
62
9
6
CONTINUOUS
10
7.3547851610
20
-18.6731317818
11
-11.3452148390
21
-18.6731317818
0
LINE
5
2A7
100
AcDbEntity
8
0
100
AcDbLine
62
7
6
CONTINUOUS
10
8.9047851610
20
-28.9580385087
11
8.8524248050
21
-28.9231317818
0
LINE
5
2A8
100
AcDbEntity
8
0
100
AcDbLine
62
7
6
CONTINUOUS
10
9.6519094815
20
-28.9894545628
11
9.6047851610
21
-28.9580385087
0
LINE
5
2A9
100
AcDbEntity
8
0
100
AcDbLine
62
7
6
CONTINUOUS
10
1.9248886611
20
-30.4576247501
11
1.9070442418
21
-30.4362112078
0
LINE
5
2AA
100
AcDbEntity
8
0
100
AcDbLine
62
7
6
CONTINUOUS
10
-12.2381192546
20
15.6639987911
11
-12.2381192546
21
14.4464983790
0
LINE
5
2AB
100
AcDbEntity
8
0
100
AcDbLine
62
7
6
CONTINUOUS
10
-12.2381192546
20
-30.4927619427
11
-12.2381192546
21
-31.7102623548
0
LINE
5
2AC
100
AcDbEntity
8
0
100
AcDbLine
62
7
6
CONTINUOUS
10
-11.9952148390
20
-28.0231508203
11
-11.9952148390
21
-19.2231127434
0
LINE
5
2AD
100
AcDbEntity
8
0
100
AcDbLine
62
7
6
CONTINUOUS
10
-11.9873606580
20
-28.0152966393
11
-11.9873606580
21
-19.2309669244
0
LINE
5
2AE
100
AcDbEntity
8
0
100
AcDbLine
62
7
6
CONTINUOUS
10
-11.3452148390
20
-18.6731317818
11
-11.3452148390
21
5.0268682182
0
LINE
5
2AF
100
AcDbEntity
8
0
100
AcDbLine
62
7
6
CONTINUOUS
10
-10.8952148390
20
5.0268682182
11
-10.8952148390
21
5.4768682182
0
LINE
5
2B0
100
AcDbEntity
8
0
100
AcDbLine
62
7
6
CONTINUOUS
10
3.0047851610
20
11.2268682182
11
3.0990612176
21
11.3211442748
0
LINE
5
2B1
100
AcDbEntity
8
0
100
AcDbLine
62
7
6
CONTINUOUS
10
8.8524248050
20
-15.6231317818
11
7.3547851610
21
-15.6231317818
0
LINE
5
2B2
100
AcDbEntity
8
0
100
AcDbLine
62
7
6
CONTINUOUS
10
-11.3452148390
20
-15.6231317818
11
-12.8428544829
21
-15.6231317818
0
LINE
5
2B3
100
AcDbEntity
8
0
100
AcDbLine
62
7
6
CONTINUOUS
10
-12.8952148390
20
-15.5354077217
11
-11.3452148390
21
-15.5354077217
0
LINE
5
2B4
100
AcDbEntity
8
0
100
AcDbLine
62
7
6
CONTINUOUS
10
7.3547851610
20
-15.5354077217
11
8.9047851610
21
-15.5354077217
0
LINE
5
2B5
100
AcDbEntity
8
0
100
AcDbLine
62
7
6
CONTINUOUS
10
3.0990612176
20
-27.3674078384
11
3.0094975931
21
-27.2778442139
0
LINE
5
2B6
100
AcDbEntity
8
0
100
AcDbLine
62
7
6
CONTINUOUS
10
-12.8428544829
20
-6.5731317818
11
-12.8952148390
21
-6.4858631039
0
LINE
5
2B7
100
AcDbEntity
8
0
100
AcDbLine
62
7
6
CONTINUOUS
10
-9.4952148390
20
-28.9231317818
11
-9.4952148390
21
-28.5231317818
0
LINE
5
2B8
100
AcDbEntity
8
0
100
AcDbLine
62
7
6
CONTINUOUS
10
-9.4952148390
20
5.7768682182
11
-9.4952148390
21
6.8769719498
0
LINE
5
2B9
100
AcDbEntity
8
0
100
AcDbLine
62
7
6
CONTINUOUS
10
-9.4952148390
20
11.5268641058
11
-9.4952148390
21
12.8768682182
0
LINE
5
2BA
100
AcDbEntity
8
0
100
AcDbLine
62
7
6
CONTINUOUS
10
-9.4905024069
20
-27.5778401016
11
-9.4905024069
21
-28.5152776008
0
LINE
5
2BB
100
AcDbEntity
8
0
100
AcDbLine
62
7
6
CONTINUOUS
10
-9.4074907788
20
6.9843953882
11
-9.4074907788
21
5.6891441580
0
LINE
5
2BC
100
AcDbEntity
8
0
100
AcDbLine
62
7
6
CONTINUOUS
10
-9.3957301625
20
-28.9894545628
11
-9.3957301625
21
-27.6726123460
0
LINE
5
2BD
100
AcDbEntity
8
0
100
AcDbLine
62
7
6
CONTINUOUS
10
-9.3957301625
20
11.6263487823
11
-9.3957301625
21
12.9431909991
0
LINE
5
2BE
100
AcDbEntity
8
0
100
AcDbLine
62
9
6
CONTINUOUS
10
-9.1575002981
20
6.9843953882
11
-9.1575002981
21
5.4768682182
0
LINE
5
2BF
100
AcDbEntity
8
0
100
AcDbLine
62
9
6
CONTINUOUS
10
-9.1027420090
20
7.0391536773
11
-9.1027420123
21
7.2891441580
0
LINE
5
2C0
100
AcDbEntity
8
0
100
AcDbLine
62
9
6
CONTINUOUS
10
-8.9952148390
20
5.4768682182
11
-8.9952148390
21
5.8768682182
0
LINE
5
2C1
100
AcDbEntity
8
0
100
AcDbLine
62
9
6
CONTINUOUS
10
-8.7978900869
20
-29.5552467865
11
-8.7978900869
21
-27.7910167771
0
LINE
5
2C2
100
AcDbEntity
8
0
100
AcDbLine
62
9
6
CONTINUOUS
10
-8.7978900869
20
11.7447532135
11
-8.7978900869
21
13.5089832229
0
LINE
5
2C3
100
AcDbEntity
8
0
100
AcDbLine
62
9
6
CONTINUOUS
10
-8.7452148390
20
6.6768682182
11
-8.7452148390
21
7.0391536773
0
LINE
5
2C4
100
AcDbEntity
8
0
100
AcDbLine
62
9
6
CONTINUOUS
10
-12.6452148390
20
-15.2854172409
11
-11.3452148390
21
-15.2854172409
0
LINE
5
2C5
100
AcDbEntity
8
0
100
AcDbLine
62
9
6
CONTINUOUS
10
7.3547851610
20
-15.2854172409
11
8.6547851610
21
-15.2854172409
0
LINE
5
2C6
100
AcDbEntity
8
0
100
AcDbLine
62
9
6
CONTINUOUS
10
8.6547851610
20
-14.9608463227
11
7.3547851610
21
-14.9608463227
0
LINE
5
2C7
100
AcDbEntity
8
0
100
AcDbLine
62
9
6
CONTINUOUS
10
-11.3452148390
20
-14.9608463227
11
-12.6452148390
21
-14.9608463227
0
LINE
5
2C8
100
AcDbEntity
8
0
100
AcDbLine
62
7
6
CONTINUOUS
10
8.9047851610
20
-14.7108558420
11
7.3547851610
21
-14.7108558420
0
LINE
5
2C9
100
AcDbEntity
8
0
100
AcDbLine
62
7
6
CONTINUOUS
10
-11.3452148390
20
-14.7108558420
11
-12.8952148390
21
-14.7108558420
0
LINE
5
2CA
100
AcDbEntity
8
0
100
AcDbLine
62
7
6
CONTINUOUS
10
8.8524248050
20
-14.6231317818
11
7.3547851610
21
-14.6231317818
0
LINE
5
2CB
100
AcDbEntity
8
0
100
AcDbLine
62
7
6
CONTINUOUS
10
-11.3452148390
20
-14.6231317818
11
-12.8428544829
21
-14.6231317818
0
LINE
5
2CC
100
AcDbEntity
8
0
100
AcDbLine
62
7
6
CONTINUOUS
10
-4.2530305302
20
-14.1731317818
11
0.2626008523
21
-14.1731317818
0
LINE
5
2CD
100
AcDbEntity
8
0
100
AcDbLine
62
7
6
CONTINUOUS
10
-4.6202148390
20
-13.6231317818
11
0.6297851610
21
-13.6231317818
0
LINE
5
2CE
100
AcDbEntity
8
0
100
AcDbLine
62
9
6
CONTINUOUS
10
7.5048041995
20
-28.5231317818
11
7.4969500185
21
-28.5152776008
0
LINE
5
2CF
100
AcDbEntity
8
0
100
AcDbLine
62
9
6
CONTINUOUS
10
8.0047851610
20
-28.0231508203
11
7.9969309800
21
-28.0152966393
0
LINE
5
2D0
100
AcDbEntity
8
0
100
AcDbLine
62
7
6
CONTINUOUS
10
-7.3538530080
20
-28.3910158633
11
-7.3532739353
21
-28.4075983357
0
LINE
5
2D1
100
AcDbEntity
8
0
100
AcDbLine
62
7
6
CONTINUOUS
10
-8.4952148390
20
6.6768682182
11
-8.4952148390
21
7.2891631969
0
LINE
5
2D2
100
AcDbEntity
8
0
100
AcDbLine
62
9
6
CONTINUOUS
10
-8.1979348651
20
-28.9552915647
11
-8.1979348651
21
-28.3909719989
0
LINE
5
2D3
100
AcDbEntity
8
0
100
AcDbLine
62
9
6
CONTINUOUS
10
-8.1979348651
20
12.3447084353
11
-8.1979348651
21
12.9090280011
0
LINE
5
2D4
100
AcDbEntity
8
0
100
AcDbLine
62
7
6
CONTINUOUS
10
-8.1952148390
20
15.2268682182
11
-8.1952148390
21
14.4535712425
0
LINE
5
2D5
100
AcDbEntity
8
0
100
AcDbLine
62
7
6
CONTINUOUS
10
-8.1952148390
20
-31.2731317818
11
-8.1952148390
21
-30.4998348062
0
LINE
5
2D6
100
AcDbEntity
8
0
100
AcDbLine
62
7
6
CONTINUOUS
10
-8.1952148390
20
-30.4927619427
11
-8.1952148390
21
-29.6938490953
0
LINE
5
2D7
100
AcDbEntity
8
0
100
AcDbLine
62
9
6
CONTINUOUS
10
-8.1952148390
20
6.1268682182
11
-8.1952148391
21
6.3768682182
0
LINE
5
2D8
100
AcDbEntity
8
0
100
AcDbLine
62
7
6
CONTINUOUS
10
-8.1952148390
20
13.6475855316
11
-8.1952148390
21
14.4464983790
0
LINE
5
2D9
100
AcDbEntity
8
0
100
AcDbLine
62
9
6
CONTINUOUS
10
-8.0894771878
20
-27.7910167771
11
-8.0894771878
21
-27.3726164583
0
LINE
5
2DA
100
AcDbEntity
8
0
100
AcDbLine
62
9
6
CONTINUOUS
10
-8.0894771878
20
11.3263528947
11
-8.0894771878
21
11.7447532135
0
LINE
5
2DB
100
AcDbEntity
8
0
100
AcDbLine
62
7
6
CONTINUOUS
10
-7.9952148390
20
16.9613347720
11
-7.9952148390
21
15.2268682182
0
LINE
5
2DC
100
AcDbEntity
8
0
100
AcDbLine
62
7
6
CONTINUOUS
10
-7.9952148390
20
12.7613347720
11
-7.9952148390
21
12.3613347720
0
LINE
5
2DD
100
AcDbEntity
8
0
100
AcDbLine
62
7
6
CONTINUOUS
10
-7.9952148390
20
-33.0075983357
11
-7.9952148390
21
-31.2731317818
0
LINE
5
2DE
100
AcDbEntity
8
0
100
AcDbLine
62
7
6
CONTINUOUS
10
-7.9952148390
20
-28.4075983357
11
-7.9952148390
21
-28.8075983357
0
LINE
5
2DF
100
AcDbEntity
8
0
100
AcDbLine
62
7
6
CONTINUOUS
10
-7.9730357123
20
12.8768682182
11
-7.9730357123
21
12.7613347720
0
LINE
5
2E0
100
AcDbEntity
8
0
100
AcDbLine
62
7
6
CONTINUOUS
10
-7.9730357123
20
-28.8075983357
11
-7.9730357123
21
-28.9231317818
0
LINE
5
2E1
100
AcDbEntity
8
0
100
AcDbLine
62
7
6
CONTINUOUS
10
-7.8952148390
20
-7.1731317818
11
-7.8952148390
21
-4.8731317818
0
LINE
5
2E2
100
AcDbEntity
8
0
100
AcDbLine
62
7
6
CONTINUOUS
10
-7.4952148390
20
5.1768682182
11
-7.4952148390
21
5.4768682182
0
LINE
5
2E3
100
AcDbEntity
8
0
100
AcDbLine
62
7
6
CONTINUOUS
10
-7.0894908956
20
-28.3732223721
11
-7.0894908956
21
-27.3674078384
0
LINE
5
2E4
100
AcDbEntity
8
0
100
AcDbLine
62
7
6
CONTINUOUS
10
-7.0894908956
20
11.3211442748
11
-7.0894908956
21
12.3269588084
0
LINE
5
2E5
100
AcDbEntity
8
0
100
AcDbLine
62
9
6
CONTINUOUS
10
-7.0389402323
20
12.7613347720
11
-7.0389402323
21
12.3613347720
0
LINE
5
2E6
100
AcDbEntity
8
0
100
AcDbLine
62
9
6
CONTINUOUS
10
-7.0389402323
20
-28.4075983357
11
-7.0389402323
21
-28.8075983357
0
LINE
5
2E7
100
AcDbEntity
8
0
100
AcDbLine
62
7
6
CONTINUOUS
10
-6.9999272710
20
-27.2778442139
11
-6.9999272710
21
-28.3968866735
0
LINE
5
2E8
100
AcDbEntity
8
0
100
AcDbLine
62
7
6
CONTINUOUS
10
-6.9952148390
20
12.3518682182
11
-6.9952148390
21
11.2268682182
0
LINE
5
2E9
100
AcDbEntity
8
0
100
AcDbLine
62
7
6
CONTINUOUS
10
-6.9952148390
20
5.0268682182
11
-6.9952148390
21
5.1768682182
0
LINE
5
2EA
100
AcDbEntity
8
0
100
AcDbLine
62
9
6
CONTINUOUS
10
-6.9865260496
20
-29.6938490953
11
-6.9865260496
21
-29.5539546067
0
LINE
5
2EB
100
AcDbEntity
8
0
100
AcDbLine
62
9
6
CONTINUOUS
10
-6.9865260496
20
13.5076911742
11
-6.9865260496
21
13.6475855316
0
LINE
5
2EC
100
AcDbEntity
8
0
100
AcDbLine
62
7
6
CONTINUOUS
10
-7.3538530080
20
12.3447522996
11
-7.3532739353
21
12.3613347720
0
LINE
5
2ED
100
AcDbEntity
8
0
100
AcDbLine
62
7
6
CONTINUOUS
10
-12.8428544829
20
-14.6231317818
11
-12.8952148390
21
-14.7104004597
0
LINE
5
2EE
100
AcDbEntity
8
0
100
AcDbLine
62
7
6
CONTINUOUS
10
1.2042183254
20
-13.2731317818
11
0.6297851610
21
-13.2731317818
0
LINE
5
2EF
100
AcDbEntity
8
0
100
AcDbLine
62
7
6
CONTINUOUS
10
-4.6202148390
20
-13.2731317818
11
-5.1946480033
21
-13.2731317818
0
LINE
5
2F0
100
AcDbEntity
8
0
100
AcDbLine
62
7
6
CONTINUOUS
10
1.6469380142
20
-12.5231317818
11
1.3047851610
21
-12.5231317818
0
LINE
5
2F1
100
AcDbEntity
8
0
100
AcDbLine
62
7
6
CONTINUOUS
10
-5.2952148390
20
-12.5231317818
11
-5.6373676921
21
-12.5231317818
0
LINE
5
2F2
100
AcDbEntity
8
0
100
AcDbLine
62
7
6
CONTINUOUS
10
1.3047851610
20
-12.4231317818
11
0.0547851610
21
-12.4231317818
0
LINE
5
2F3
100
AcDbEntity
8
0
100
AcDbLine
62
7
6
CONTINUOUS
10
-4.0452148390
20
-12.4231317818
11
-5.2952148390
21
-12.4231317818
0
LINE
5
2F4
100
AcDbEntity
8
0
100
AcDbLine
62
7
6
CONTINUOUS
10
0.2539124743
20
-19.1231317818
11
0.2469309800
21
-19.1161502876
0
LINE
5
2F5
100
AcDbEntity
8
0
100
AcDbLine
62
7
6
CONTINUOUS
10
-12.8428544829
20
0.4768682182
11
-12.8952148390
21
0.5641368961
0
LINE
5
2F6
100
AcDbEntity
8
0
100
AcDbLine
62
7
6
CONTINUOUS
10
-7.4264029772
20
12.9089841367
11
-7.4252814646
21
12.8768682182
0
LINE
5
2F7
100
AcDbEntity
8
0
100
AcDbLine
62
7
6
CONTINUOUS
10
-5.9956902357
20
12.9904818001
11
-5.9952148390
21
12.9768682182
0
LINE
5
2F8
100
AcDbEntity
8
0
100
AcDbLine
62
7
6
CONTINUOUS
10
-5.9707796092
20
-31.2731317818
11
-5.9865641265
21
-30.6148091610
0
LINE
5
2F9
100
AcDbEntity
8
0
100
AcDbLine
62
7
6
CONTINUOUS
10
-6.7389402323
20
-28.8075983357
11
-6.7389402323
21
-28.4075983357
0
LINE
5
2FA
100
AcDbEntity
8
0
100
AcDbLine
62
7
6
CONTINUOUS
10
-6.7389402323
20
12.3613347720
11
-6.7389402323
21
12.7613347720
0
LINE
5
2FB
100
AcDbEntity
8
0
100
AcDbLine
62
7
6
CONTINUOUS
10
-6.4952148390
20
-32.8239604782
11
-6.4952148390
21
-31.9278111945
0
LINE
5
2FC
100
AcDbEntity
8
0
100
AcDbLine
62
7
6
CONTINUOUS
10
-6.4952148390
20
15.8815476308
11
-6.4952148390
21
16.7776969145
0
LINE
5
2FD
100
AcDbEntity
8
0
100
AcDbLine
62
7
6
CONTINUOUS
10
-6.3452148390
20
-6.5231317818
11
-6.3452148390
21
-6.2231317818
0
LINE
5
2FE
100
AcDbEntity
8
0
100
AcDbLine
62
9
6
CONTINUOUS
10
-6.2952148390
20
16.8395003133
11
-6.2952148390
21
16.4590777068
0
LINE
5
2FF
100
AcDbEntity
8
0
100
AcDbLine
62
9
6
CONTINUOUS
10
-6.2952148390
20
-32.8857638770
11
-6.2952148390
21
-32.5053412705
0
LINE
5
300
100
AcDbEntity
8
0
100
AcDbLine
62
7
6
CONTINUOUS
10
-5.9952148390
20
5.0268682182
11
-5.9952148390
21
-4.8731317818
0
LINE
5
301
100
AcDbEntity
8
0
100
AcDbLine
62
7
6
CONTINUOUS
10
-5.9952148390
20
-7.1731317818
11
-5.9952148390
21
-10.8731317818
0
LINE
5
302
100
AcDbEntity
8
0
100
AcDbLine
62
9
6
CONTINUOUS
10
-5.9865641265
20
-30.6148091610
11
-5.9865641265
21
-29.0545629710
0
LINE
5
303
100
AcDbEntity
8
0
100
AcDbLine
62
9
6
CONTINUOUS
10
-5.9865641265
20
13.0089810758
11
-5.9865641265
21
14.5685455973
0
LINE
5
304
100
AcDbEntity
8
0
100
AcDbLine
62
7
6
CONTINUOUS
10
-5.9699069224
20
-30.5231317818
11
-5.9699069224
21
-31.2731317818
0
LINE
5
305
100
AcDbEntity
8
0
100
AcDbLine
62
7
6
CONTINUOUS
10
-5.9699069224
20
14.4768682182
11
-5.9699069224
21
15.2268682182
0
LINE
5
306
100
AcDbEntity
8
0
100
AcDbLine
62
9
6
CONTINUOUS
10
-5.9452148390
20
14.7925062271
11
-5.9452148390
21
14.4120836206
0
LINE
5
307
100
AcDbEntity
8
0
100
AcDbLine
62
9
6
CONTINUOUS
10
-5.9452148390
20
-30.8387697908
11
-5.9452148390
21
-30.4583471842
0
LINE
5
308
100
AcDbEntity
8
0
100
AcDbLine
62
7
6
CONTINUOUS
10
-5.9452148390
20
-28.4075983357
11
-5.9452148390
21
-28.8075983357
0
LINE
5
309
100
AcDbEntity
8
0
100
AcDbLine
62
7
6
CONTINUOUS
10
-5.9452148390
20
12.3613347720
11
-5.9452148390
21
12.7613347720
0
LINE
5
30A
100
AcDbEntity
8
0
100
AcDbLine
62
7
6
CONTINUOUS
10
-5.8974739197
20
-30.4362112078
11
-5.8974739197
21
-29.0367453638
0
LINE
5
30B
100
AcDbEntity
8
0
100
AcDbLine
62
7
6
CONTINUOUS
10
-5.8974739197
20
12.9973497540
11
-5.8974739197
21
14.3899476441
0
LINE
5
30C
100
AcDbEntity
8
0
100
AcDbLine
62
7
6
CONTINUOUS
10
-5.8952148390
20
-10.6731317818
11
-5.8952148390
21
-11.7574695332
0
LINE
5
30D
100
AcDbEntity
8
0
100
AcDbLine
62
7
6
CONTINUOUS
10
-5.7452148390
20
-28.5013725609
11
-5.7452148390
21
-30.7769663919
0
LINE
5
30E
100
AcDbEntity
8
0
100
AcDbLine
62
7
6
CONTINUOUS
10
-5.7452148390
20
12.4551089972
11
-5.7452148390
21
14.7307028282
0
LINE
5
30F
100
AcDbEntity
8
0
100
AcDbLine
62
7
6
CONTINUOUS
10
-5.4127579176
20
12.3613347720
11
-5.4127579176
21
11.9613347720
0
LINE
5
310
100
AcDbEntity
8
0
100
AcDbLine
62
7
6
CONTINUOUS
10
-5.4127579176
20
-28.4075983357
11
-5.4127579176
21
-28.0075983357
0
LINE
5
311
100
AcDbEntity
8
0
100
AcDbLine
62
7
6
CONTINUOUS
10
-5.3952148390
20
5.4768682182
11
-5.3952148390
21
-3.5231317818
0
LINE
5
312
100
AcDbEntity
8
0
100
AcDbLine
62
7
6
CONTINUOUS
10
-5.3340181204
20
-28.0075983357
11
-5.3340181204
21
-28.4075983357
0
LINE
5
313
100
AcDbEntity
8
0
100
AcDbLine
62
7
6
CONTINUOUS
10
-5.3340181204
20
11.9613347720
11
-5.3340181204
21
12.3613347720
0
LINE
5
314
100
AcDbEntity
8
0
100
AcDbLine
62
7
6
CONTINUOUS
10
-5.2952148390
20
-10.6731317818
11
-5.2952148390
21
-12.5231317818
0
LINE
5
315
100
AcDbEntity
8
0
100
AcDbLine
62
7
6
CONTINUOUS
10
-5.2373606580
20
-18.9731317818
11
-5.2373606580
21
-25.2502410085
0
LINE
5
316
100
AcDbEntity
8
0
100
AcDbLine
62
7
6
CONTINUOUS
10
-5.0452148390
20
-8.1731317818
11
-5.0452148390
21
-10.6731317818
0
LINE
5
317
100
AcDbEntity
8
0
100
AcDbLine
62
7
6
CONTINUOUS
10
-5.9707796092
20
15.2268682182
11
-5.9865641265
21
14.5685455973
0
LINE
5
318
100
AcDbEntity
8
0
100
AcDbLine
62
7
6
CONTINUOUS
10
-7.4264029771
20
-28.9552476960
11
-7.4252814646
21
-28.9231317818
0
LINE
5
319
100
AcDbEntity
8
0
100
AcDbLine
62
7
6
CONTINUOUS
10
-5.9963204178
20
-29.0547914175
11
-5.9952148390
21
-29.0231317818
0
LINE
5
31A
100
AcDbEntity
8
0
100
AcDbLine
62
7
6
CONTINUOUS
10
5.4170611009
20
5.6891441580
11
5.5047851610
21
5.7768682182
0
LINE
5
31B
100
AcDbEntity
8
0
100
AcDbLine
62
7
6
CONTINUOUS
10
1.9047851610
20
-10.6731317818
11
1.0547851610
21
-10.6731317818
0
LINE
5
31C
100
AcDbEntity
8
0
100
AcDbLine
62
7
6
CONTINUOUS
10
-5.0452148390
20
-10.6731317818
11
-5.8952148390
21
-10.6731317818
0
LINE
5
31D
100
AcDbEntity
8
0
100
AcDbLine
62
7
6
CONTINUOUS
10
1.0547851610
20
-9.9231317818
11
-5.0452148390
21
-9.9231317818
0
LINE
5
31E
100
AcDbEntity
8
0
100
AcDbLine
62
7
6
CONTINUOUS
10
5.5047851610
20
-28.5231317818
11
5.5000727290
21
-28.5152776008
0
LINE
5
31F
100
AcDbEntity
8
0
100
AcDbLine
62
7
6
CONTINUOUS
10
-4.6202148390
20
-13.2731317818
11
-4.6202148390
21
-13.8893622370
0
LINE
5
320
100
AcDbEntity
8
0
100
AcDbLine
62
7
6
CONTINUOUS
10
-4.3952148390
20
-4.8731317818
11
-4.3952148390
21
-3.5231317818
0
LINE
5
321
100
AcDbEntity
8
0
100
AcDbLine
62
7
6
CONTINUOUS
10
-4.2530690200
20
-25.2502410085
11
-4.2530690200
21
-28.0075983357
0
LINE
5
322
100
AcDbEntity
8
0
100
AcDbLine
62
7
6
CONTINUOUS
10
-4.2443421522
20
-19.1231317818
11
-4.2443421522
21
-28.0075983357
0
LINE
5
323
100
AcDbEntity
8
0
100
AcDbLine
62
7
6
CONTINUOUS
10
-4.2373606580
20
-18.9731317818
11
-4.2373606580
21
-19.1161502876
0
LINE
5
324
100
AcDbEntity
8
0
100
AcDbLine
62
7
6
CONTINUOUS
10
-4.0952148390
20
-7.1731317818
11
-4.0952148390
21
-6.5231317818
0
LINE
5
325
100
AcDbEntity
8
0
100
AcDbLine
62
7
6
CONTINUOUS
10
-4.0952148390
20
-6.2231317818
11
-4.0952148390
21
-4.8731317818
0
LINE
5
326
100
AcDbEntity
8
0
100
AcDbLine
62
7
6
CONTINUOUS
10
-4.0452148390
20
-13.6231317818
11
-4.0452148390
21
-12.4231317818
0
LINE
5
327
100
AcDbEntity
8
0
100
AcDbLine
62
7
6
CONTINUOUS
10
-3.7452148390
20
-19.1731317818
11
-3.7452148390
21
-18.9731317818
0
LINE
5
328
100
AcDbEntity
8
0
100
AcDbLine
62
9
6
CONTINUOUS
10
-3.3952148390
20
16.8395003133
11
-3.3952148390
21
16.4590777068
0
LINE
5
329
100
AcDbEntity
8
0
100
AcDbLine
62
7
6
CONTINUOUS
10
-3.3952148390
20
-0.1231317818
11
-3.3952148390
21
-2.0231317818
0
LINE
5
32A
100
AcDbEntity
8
0
100
AcDbLine
62
9
6
CONTINUOUS
10
-3.3952148390
20
-32.8857638770
11
-3.3952148390
21
-32.5053412705
0
LINE
5
32B
100
AcDbEntity
8
0
100
AcDbLine
62
7
6
CONTINUOUS
10
-3.2452148390
20
-1.0231317818
11
-3.2452148390
21
-2.5231317818
0
LINE
5
32C
100
AcDbEntity
8
0
100
AcDbLine
62
7
6
CONTINUOUS
10
-3.1952148390
20
16.7776969145
11
-3.1952148390
21
15.8815476308
0
LINE
5
32D
100
AcDbEntity
8
0
100
AcDbLine
62
7
6
CONTINUOUS
10
-3.1952148390
20
-31.9278111945
11
-3.1952148390
21
-32.8239604782
0
LINE
5
32E
100
AcDbEntity
8
0
100
AcDbLine
62
7
6
CONTINUOUS
10
-5.5452148390
20
-7.6731317818
11
-5.0452148390
21
-8.1731317818
0
LINE
5
32F
100
AcDbEntity
8
0
100
AcDbLine
62
7
6
CONTINUOUS
10
-12.8428544829
20
4.7768682182
11
-12.8952148390
21
4.8641368961
0
LINE
5
330
100
AcDbEntity
8
0
100
AcDbLine
62
7
6
CONTINUOUS
10
-2.4952148390
20
11.9613347720
11
-2.4952148390
21
11.7268682182
0
LINE
5
331
100
AcDbEntity
8
0
100
AcDbLine
62
9
6
CONTINUOUS
10
-2.1952148390
20
11.9613347720
11
-2.1952148390
21
11.7268682182
0
LINE
5
332
100
AcDbEntity
8
0
100
AcDbLine
62
9
6
CONTINUOUS
10
-1.7952148390
20
11.7268682182
11
-1.7952148390
21
11.9613347720
0
LINE
5
333
100
AcDbEntity
8
0
100
AcDbLine
62
7
6
CONTINUOUS
10
-1.4952148390
20
11.7268682182
11
-1.4952148390
21
11.9613347720
0
LINE
5
334
100
AcDbEntity
8
0
100
AcDbLine
62
7
6
CONTINUOUS
10
-5.9952148390
20
-7.6731317818
11
-5.5452148390
21
-7.6731317818
0
LINE
5
335
100
AcDbEntity
8
0
100
AcDbLine
62
7
6
CONTINUOUS
10
1.5547851610
20
-7.6731317818
11
2.0047851610
21
-7.6731317818
0
LINE
5
336
100
AcDbEntity
8
0
100
AcDbLine
62
9
6
CONTINUOUS
10
-11.3452148390
20
-7.5731317818
11
-5.9952148390
21
-7.5731317818
0
LINE
5
337
100
AcDbEntity
8
0
100
AcDbLine
62
9
6
CONTINUOUS
10
2.0047851610
20
-7.5731317818
11
7.3547851610
21
-7.5731317818
0
LINE
5
338
100
AcDbEntity
8
0
100
AcDbLine
62
7
6
CONTINUOUS
10
7.3547851610
20
-7.2731317818
11
2.0047851610
21
-7.2731317818
0
LINE
5
339
100
AcDbEntity
8
0
100
AcDbLine
62
7
6
CONTINUOUS
10
-5.9952148390
20
-7.2731317818
11
-11.3452148390
21
-7.2731317818
0
LINE
5
33A
100
AcDbEntity
8
0
100
AcDbLine
62
7
6
CONTINUOUS
10
3.9047851610
20
-7.1731317818
11
-7.8952148390
21
-7.1731317818
0
LINE
5
33B
100
AcDbEntity
8
0
100
AcDbLine
62
9
6
CONTINUOUS
10
7.3547851610
20
-6.9731317818
11
3.9047851610
21
-6.9731317818
0
LINE
5
33C
100
AcDbEntity
8
0
100
AcDbLine
62
9
6
CONTINUOUS
10
-7.8952148390
20
-6.9731317818
11
-11.3452148390
21
-6.9731317818
0
LINE
5
33D
100
AcDbEntity
8
0
100
AcDbLine
62
7
6
CONTINUOUS
10
-12.8428544829
20
-6.5731317818
11
-11.3452148390
21
-6.5731317818
0
LINE
5
33E
100
AcDbEntity
8
0
100
AcDbLine
62
7
6
CONTINUOUS
10
8.8524248050
20
-6.5731317818
11
7.3547851610
21
-6.5731317818
0
LINE
5
33F
100
AcDbEntity
8
0
100
AcDbLine
62
7
6
CONTINUOUS
10
2.3547851610
20
-6.5231317818
11
-6.3452148390
21
-6.5231317818
0
LINE
5
340
100
AcDbEntity
8
0
100
AcDbLine
62
7
6
CONTINUOUS
10
-12.8952148390
20
-6.4854077217
11
-11.3452148390
21
-6.4854077217
0
LINE
5
341
100
AcDbEntity
8
0
100
AcDbLine
62
7
6
CONTINUOUS
10
7.3547851610
20
-6.4854077217
11
8.9047851610
21
-6.4854077217
0
LINE
5
342
100
AcDbEntity
8
0
100
AcDbLine
62
9
6
CONTINUOUS
10
-12.6452148390
20
-6.2354172409
11
-11.3452148390
21
-6.2354172409
0
LINE
5
343
100
AcDbEntity
8
0
100
AcDbLine
62
9
6
CONTINUOUS
10
7.3547851610
20
-6.2354172409
11
8.6547851610
21
-6.2354172409
0
LINE
5
344
100
AcDbEntity
8
0
100
AcDbLine
62
7
6
CONTINUOUS
10
2.3547851610
20
-6.2231317818
11
-6.3452148390
21
-6.2231317818
0
LINE
5
345
100
AcDbEntity
8
0
100
AcDbLine
62
9
6
CONTINUOUS
10
8.6547851610
20
-5.9108463227
11
7.3547851610
21
-5.9108463227
0
LINE
5
346
100
AcDbEntity
8
0
100
AcDbLine
62
9
6
CONTINUOUS
10
-11.3452148390
20
-5.9108463227
11
-12.6452148390
21
-5.9108463227
0
LINE
5
347
100
AcDbEntity
8
0
100
AcDbLine
62
7
6
CONTINUOUS
10
-0.7952148390
20
-32.8239604782
11
-0.7952148390
21
-31.9278111945
0
LINE
5
348
100
AcDbEntity
8
0
100
AcDbLine
62
7
6
CONTINUOUS
10
-0.7952148390
20
15.8815476308
11
-0.7952148390
21
16.7776969145
0
LINE
5
349
100
AcDbEntity
8
0
100
AcDbLine
62
7
6
CONTINUOUS
10
-0.7452148390
20
-1.0231317818
11
-0.7452148390
21
-2.5231317818
0
LINE
5
34A
100
AcDbEntity
8
0
100
AcDbLine
62
9
6
CONTINUOUS
10
-0.5952148390
20
16.8395003133
11
-0.5952148390
21
16.4590777068
0
LINE
5
34B
100
AcDbEntity
8
0
100
AcDbLine
62
9
6
CONTINUOUS
10
-0.5952148390
20
-32.8857638770
11
-0.5952148390
21
-32.5053412705
0
LINE
5
34C
100
AcDbEntity
8
0
100
AcDbLine
62
7
6
CONTINUOUS
10
-0.5952148390
20
-2.0231317818
11
-0.5952148390
21
-0.1231317818
0
LINE
5
34D
100
AcDbEntity
8
0
100
AcDbLine
62
7
6
CONTINUOUS
10
-0.2452148390
20
-19.1731317818
11
-0.2452148390
21
-18.9731317818
0
LINE
5
34E
100
AcDbEntity
8
0
100
AcDbLine
62
7
6
CONTINUOUS
10
0.0547851610
20
-12.4231317818
11
0.0547851610
21
-13.6231317818
0
LINE
5
34F
100
AcDbEntity
8
0
100
AcDbLine
62
7
6
CONTINUOUS
10
0.1047851610
20
-7.1731317818
11
0.1047851610
21
-6.5231317818
0
LINE
5
350
100
AcDbEntity
8
0
100
AcDbLine
62
7
6
CONTINUOUS
10
0.1047851610
20
-6.2231317818
11
0.1047851610
21
-4.8731317818
0
LINE
5
351
100
AcDbEntity
8
0
100
AcDbLine
62
7
6
CONTINUOUS
10
0.2469309800
20
-18.9731317818
11
0.2469309800
21
-19.1161502876
0
LINE
5
352
100
AcDbEntity
8
0
100
AcDbLine
62
7
6
CONTINUOUS
10
0.2539124743
20
-19.1231317818
11
0.2539124743
21
-28.0075983357
0
LINE
5
353
100
AcDbEntity
8
0
100
AcDbLine
62
7
6
CONTINUOUS
10
0.2626393420
20
-28.0075983357
11
0.2626393420
21
-25.2502410085
0
LINE
5
354
100
AcDbEntity
8
0
100
AcDbLine
62
7
6
CONTINUOUS
10
0.4047851610
20
-4.8731317818
11
0.4047851610
21
-3.5231317818
0
LINE
5
355
100
AcDbEntity
8
0
100
AcDbLine
62
7
6
CONTINUOUS
10
0.6297851610
20
-13.2731317818
11
0.6297851610
21
-13.8893622370
0
LINE
5
356
100
AcDbEntity
8
0
100
AcDbLine
62
7
6
CONTINUOUS
10
8.8524248050
20
4.7768682182
11
8.9047851610
21
4.8641368961
0
LINE
5
357
100
AcDbEntity
8
0
100
AcDbLine
62
7
6
CONTINUOUS
10
1.0547851610
20
-8.1731317818
11
1.5547851610
21
-7.6731317818
0
LINE
5
358
100
AcDbEntity
8
0
100
AcDbLine
62
7
6
CONTINUOUS
10
8.9047851610
20
-5.6608558420
11
7.3547851610
21
-5.6608558420
0
LINE
5
359
100
AcDbEntity
8
0
100
AcDbLine
62
7
6
CONTINUOUS
10
-11.3452148390
20
-5.6608558420
11
-12.8952148390
21
-5.6608558420
0
LINE
5
35A
100
AcDbEntity
8
0
100
AcDbLine
62
7
6
CONTINUOUS
10
-12.8428544829
20
-5.5731317818
11
-11.3452148390
21
-5.5731317818
0
LINE
5
35B
100
AcDbEntity
8
0
100
AcDbLine
62
7
6
CONTINUOUS
10
8.8524248050
20
-5.5731317818
11
7.3547851610
21
-5.5731317818
0
LINE
5
35C
100
AcDbEntity
8
0
100
AcDbLine
62
7
6
CONTINUOUS
10
3.9047851610
20
-4.8731317818
11
0.1047851610
21
-4.8731317818
0
LINE
5
35D
100
AcDbEntity
8
0
100
AcDbLine
62
7
6
CONTINUOUS
10
-4.0952148390
20
-4.8731317818
11
-7.8952148390
21
-4.8731317818
0
LINE
5
35E
100
AcDbEntity
8
0
100
AcDbLine
62
7
6
CONTINUOUS
10
2.0058907399
20
-29.0547914175
11
2.0047851610
21
-29.0231317818
0
LINE
5
35F
100
AcDbEntity
8
0
100
AcDbLine
62
7
6
CONTINUOUS
10
1.9803499312
20
15.2268682182
11
1.9961344486
21
14.5685455973
0
LINE
5
360
100
AcDbEntity
8
0
100
AcDbLine
62
7
6
CONTINUOUS
10
1.0547851610
20
-10.6731317818
11
1.0547851610
21
-8.1731317818
0
LINE
5
361
100
AcDbEntity
8
0
100
AcDbLine
62
7
6
CONTINUOUS
10
1.2469309800
20
-18.9731317818
11
1.2469309800
21
-25.2502410085
0
LINE
5
362
100
AcDbEntity
8
0
100
AcDbLine
62
7
6
CONTINUOUS
10
1.3047851610
20
-12.5231317818
11
1.3047851610
21
-10.6731317818
0
LINE
5
363
100
AcDbEntity
8
0
100
AcDbLine
62
7
6
CONTINUOUS
10
1.3435884425
20
-28.0075983357
11
1.3435884425
21
-28.4075983357
0
LINE
5
364
100
AcDbEntity
8
0
100
AcDbLine
62
7
6
CONTINUOUS
10
1.3435884425
20
11.9613347720
11
1.3435884425
21
12.3613347720
0
LINE
5
365
100
AcDbEntity
8
0
100
AcDbLine
62
7
6
CONTINUOUS
10
1.4047851610
20
5.4768682182
11
1.4047851610
21
-3.5231317818
0
LINE
5
366
100
AcDbEntity
8
0
100
AcDbLine
62
7
6
CONTINUOUS
10
1.4223282396
20
12.3613347720
11
1.4223282396
21
11.9613347720
0
LINE
5
367
100
AcDbEntity
8
0
100
AcDbLine
62
7
6
CONTINUOUS
10
1.4223282396
20
-28.4075983357
11
1.4223282396
21
-28.0075983357
0
LINE
5
368
100
AcDbEntity
8
0
100
AcDbLine
62
7
6
CONTINUOUS
10
1.7547851610
20
-28.5013725609
11
1.7547851610
21
-30.7769663919
0
LINE
5
369
100
AcDbEntity
8
0
100
AcDbLine
62
7
6
CONTINUOUS
10
1.7547851610
20
12.4551089972
11
1.7547851610
21
14.7307028282
0
LINE
5
36A
100
AcDbEntity
8
0
100
AcDbLine
62
7
6
CONTINUOUS
10
1.9047851610
20
-11.7574695332
11
1.9047851610
21
-10.6731317818
0
LINE
5
36B
100
AcDbEntity
8
0
100
AcDbLine
62
7
6
CONTINUOUS
10
1.9070442418
20
14.3899476441
11
1.9070442418
21
12.9973497540
0
LINE
5
36C
100
AcDbEntity
8
0
100
AcDbLine
62
7
6
CONTINUOUS
10
1.9070442418
20
-29.0367453638
11
1.9070442418
21
-30.4362112078
0
LINE
5
36D
100
AcDbEntity
8
0
100
AcDbLine
62
9
6
CONTINUOUS
10
1.9547851610
20
14.7925062271
11
1.9547851610
21
14.4120836206
0
LINE
5
36E
100
AcDbEntity
8
0
100
AcDbLine
62
9
6
CONTINUOUS
10
1.9547851610
20
-30.8387697908
11
1.9547851610
21
-30.4583471842
0
LINE
5
36F
100
AcDbEntity
8
0
100
AcDbLine
62
7
6
CONTINUOUS
10
1.9547851610
20
-28.4075983357
11
1.9547851610
21
-28.8075983357
0
LINE
5
370
100
AcDbEntity
8
0
100
AcDbLine
62
7
6
CONTINUOUS
10
1.9547851610
20
12.3613347720
11
1.9547851610
21
12.7613347720
0
LINE
5
371
100
AcDbEntity
8
0
100
AcDbLine
62
7
6
CONTINUOUS
10
1.9794772444
20
-30.5231317818
11
1.9794772444
21
-31.2731317818
0
LINE
5
372
100
AcDbEntity
8
0
100
AcDbLine
62
7
6
CONTINUOUS
10
1.9794772444
20
14.4768682182
11
1.9794772444
21
15.2268682182
0
LINE
5
373
100
AcDbEntity
8
0
100
AcDbLine
62
9
6
CONTINUOUS
10
1.9961344486
20
-30.6148091610
11
1.9961344486
21
-29.0545629710
0
LINE
5
374
100
AcDbEntity
8
0
100
AcDbLine
62
9
6
CONTINUOUS
10
1.9961344486
20
13.0089810758
11
1.9961344486
21
14.5685455973
0
LINE
5
375
100
AcDbEntity
8
0
100
AcDbLine
62
7
6
CONTINUOUS
10
2.0047851610
20
5.0268682182
11
2.0047851610
21
-4.8731317818
0
LINE
5
376
100
AcDbEntity
8
0
100
AcDbLine
62
7
6
CONTINUOUS
10
2.0047851610
20
-10.8731317818
11
2.0047851610
21
-7.1731317818
0
LINE
5
377
100
AcDbEntity
8
0
100
AcDbLine
62
9
6
CONTINUOUS
10
2.3047851610
20
16.8395003133
11
2.3047851610
21
16.4590777068
0
LINE
5
378
100
AcDbEntity
8
0
100
AcDbLine
62
9
6
CONTINUOUS
10
2.3047851610
20
-32.8857638770
11
2.3047851610
21
-32.5053412705
0
LINE
5
379
100
AcDbEntity
8
0
100
AcDbLine
62
7
6
CONTINUOUS
10
2.3547851610
20
-6.5231317818
11
2.3547851610
21
-6.2231317818
0
LINE
5
37A
100
AcDbEntity
8
0
100
AcDbLine
62
7
6
CONTINUOUS
10
2.5047851610
20
16.7776969145
11
2.5047851610
21
15.8815476308
0
LINE
5
37B
100
AcDbEntity
8
0
100
AcDbLine
62
7
6
CONTINUOUS
10
2.5047851610
20
-31.9278111945
11
2.5047851610
21
-32.8239604782
0
LINE
5
37C
100
AcDbEntity
8
0
100
AcDbLine
62
7
6
CONTINUOUS
10
1.9803499312
20
-31.2731317818
11
1.9961344486
21
-30.6148091610
0
LINE
5
37D
100
AcDbEntity
8
0
100
AcDbLine
62
7
6
CONTINUOUS
10
2.0052605578
20
12.9904818001
11
2.0047851610
21
12.9768682182
0
LINE
5
37E
100
AcDbEntity
8
0
100
AcDbLine
62
7
6
CONTINUOUS
10
-9.4952148390
20
-28.5231317818
11
-9.4905024069
21
-28.5152776008
0
LINE
5
37F
100
AcDbEntity
8
0
100
AcDbLine
62
7
6
CONTINUOUS
10
-5.3952148390
20
-3.5231317818
11
-4.3952148390
21
-3.5231317818
0
LINE
5
380
100
AcDbEntity
8
0
100
AcDbLine
62
7
6
CONTINUOUS
10
1.4047851610
20
-3.5231317818
11
0.4047851610
21
-3.5231317818
0
LINE
5
381
100
AcDbEntity
8
0
100
AcDbLine
62
7
6
CONTINUOUS
10
-3.2452148390
20
-2.5231317818
11
-0.7452148390
21
-2.5231317818
0
LINE
5
382
100
AcDbEntity
8
0
100
AcDbLine
62
7
6
CONTINUOUS
10
-3.2452148390
20
-2.1231317818
11
-0.7452148390
21
-2.1231317818
0
LINE
5
383
100
AcDbEntity
8
0
100
AcDbLine
62
7
6
CONTINUOUS
10
-9.4074907788
20
5.6891441580
11
-9.4952148390
21
5.7768682182
0
LINE
5
384
100
AcDbEntity
8
0
100
AcDbLine
62
7
6
CONTINUOUS
10
3.4359732993
20
-28.9552477004
11
3.4348517867
21
-28.9231317818
0
LINE
5
385
100
AcDbEntity
8
0
100
AcDbLine
62
7
6
CONTINUOUS
10
3.3634233300
20
12.3447522996
11
3.3628442573
21
12.3613347720
0
LINE
5
386
100
AcDbEntity
8
0
100
AcDbLine
62
7
6
CONTINUOUS
10
2.7485105543
20
12.7613347720
11
2.7485105543
21
12.3613347720
0
LINE
5
387
100
AcDbEntity
8
0
100
AcDbLine
62
7
6
CONTINUOUS
10
2.7485105543
20
-28.4075983357
11
2.7485105543
21
-28.8075983357
0
LINE
5
388
100
AcDbEntity
8
0
100
AcDbLine
62
9
6
CONTINUOUS
10
2.9960963716
20
-29.6938490953
11
2.9960963716
21
-29.5539547379
0
LINE
5
389
100
AcDbEntity
8
0
100
AcDbLine
62
9
6
CONTINUOUS
10
2.9960963716
20
13.5076911742
11
2.9960963716
21
13.6475855316
0
LINE
5
38A
100
AcDbEntity
8
0
100
AcDbLine
62
7
6
CONTINUOUS
10
3.0047851610
20
5.1768682182
11
3.0047851610
21
5.0268682182
0
LINE
5
38B
100
AcDbEntity
8
0
100
AcDbLine
62
7
6
CONTINUOUS
10
3.0047851610
20
11.2268682182
11
3.0047851610
21
12.3518682182
0
LINE
5
38C
100
AcDbEntity
8
0
100
AcDbLine
62
7
6
CONTINUOUS
10
3.0094975931
20
-28.3968866735
11
3.0094975931
21
-27.2778442139
0
LINE
5
38D
100
AcDbEntity
8
0
100
AcDbLine
62
9
6
CONTINUOUS
10
3.0485105543
20
-28.8075983357
11
3.0485105543
21
-28.4075983357
0
LINE
5
38E
100
AcDbEntity
8
0
100
AcDbLine
62
9
6
CONTINUOUS
10
3.0485105543
20
12.3613347720
11
3.0485105543
21
12.7613347720
0
LINE
5
38F
100
AcDbEntity
8
0
100
AcDbLine
62
7
6
CONTINUOUS
10
3.0990612176
20
-28.3732223721
11
3.0990612176
21
-27.3674078384
0
LINE
5
390
100
AcDbEntity
8
0
100
AcDbLine
62
7
6
CONTINUOUS
10
3.0990612176
20
11.3211442748
11
3.0990612176
21
12.3269588084
0
LINE
5
391
100
AcDbEntity
8
0
100
AcDbLine
62
7
6
CONTINUOUS
10
3.5047851610
20
5.1768682182
11
3.5047851610
21
5.4768682182
0
LINE
5
392
100
AcDbEntity
8
0
100
AcDbLine
62
7
6
CONTINUOUS
10
3.9047851610
20
-7.1731317818
11
3.9047851610
21
-4.8731317818
0
LINE
5
393
100
AcDbEntity
8
0
100
AcDbLine
62
7
6
CONTINUOUS
10
3.9826060344
20
-28.9231317818
11
3.9826060344
21
-28.8075983357
0
LINE
5
394
100
AcDbEntity
8
0
100
AcDbLine
62
7
6
CONTINUOUS
10
3.9826060344
20
12.7613347720
11
3.9826060344
21
12.8768682182
0
LINE
5
395
100
AcDbEntity
8
0
100
AcDbLine
62
7
6
CONTINUOUS
10
4.0047851610
20
16.9613347720
11
4.0047851610
21
15.2268682182
0
LINE
5
396
100
AcDbEntity
8
0
100
AcDbLine
62
7
6
CONTINUOUS
10
4.0047851610
20
-33.0075983357
11
4.0047851610
21
-31.2731317818
0
LINE
5
397
100
AcDbEntity
8
0
100
AcDbLine
62
7
6
CONTINUOUS
10
4.0047851610
20
-28.8075983357
11
4.0047851610
21
-28.4075983357
0
LINE
5
398
100
AcDbEntity
8
0
100
AcDbLine
62
7
6
CONTINUOUS
10
4.0047851610
20
12.3613347720
11
4.0047851610
21
12.7613347720
0
LINE
5
399
100
AcDbEntity
8
0
100
AcDbLine
62
9
6
CONTINUOUS
10
4.0990475099
20
-27.7910167771
11
4.0990475099
21
-27.3726164583
0
LINE
5
39A
100
AcDbEntity
8
0
100
AcDbLine
62
9
6
CONTINUOUS
10
4.0990475099
20
11.3263528947
11
4.0990475099
21
11.7447532135
0
LINE
5
39B
100
AcDbEntity
8
0
100
AcDbLine
62
7
6
CONTINUOUS
10
4.2047851610
20
15.2268682182
11
4.2047851610
21
14.4535712425
0
LINE
5
39C
100
AcDbEntity
8
0
100
AcDbLine
62
7
6
CONTINUOUS
10
4.2047851610
20
14.4464983790
11
4.2047851610
21
13.6475855316
0
LINE
5
39D
100
AcDbEntity
8
0
100
AcDbLine
62
7
6
CONTINUOUS
10
4.2047851610
20
-31.2731317818
11
4.2047851610
21
-30.4998348062
0
LINE
5
39E
100
AcDbEntity
8
0
100
AcDbLine
62
7
6
CONTINUOUS
10
4.2047851610
20
-29.6938490953
11
4.2047851610
21
-30.4927619427
0
LINE
5
39F
100
AcDbEntity
8
0
100
AcDbLine
62
9
6
CONTINUOUS
10
4.2047851610
20
6.1268682182
11
4.2047851610
21
6.3768682182
0
LINE
5
3A0
100
AcDbEntity
8
0
100
AcDbLine
62
9
6
CONTINUOUS
10
4.2075051871
20
12.9090280011
11
4.2075051871
21
12.3447084353
0
LINE
5
3A1
100
AcDbEntity
8
0
100
AcDbLine
62
9
6
CONTINUOUS
10
4.2075051871
20
-28.3909719989
11
4.2075051871
21
-28.9552915647
0
LINE
5
3A2
100
AcDbEntity
8
0
100
AcDbLine
62
7
6
CONTINUOUS
10
4.5047851610
20
7.2891631969
11
4.5047851610
21
6.6768682182
0
LINE
5
3A3
100
AcDbEntity
8
0
100
AcDbLine
62
7
6
CONTINUOUS
10
3.4359732991
20
12.9089841323
11
3.4348517867
21
12.8768682182
0
LINE
5
3A4
100
AcDbEntity
8
0
100
AcDbLine
62
7
6
CONTINUOUS
10
3.3634233300
20
-28.3910158633
11
3.3628442573
21
-28.4075983357
0
LINE
5
3A5
100
AcDbEntity
8
0
100
AcDbLine
62
7
6
CONTINUOUS
10
8.9047851610
20
0.5641368961
11
8.8524248050
21
0.4768682182
0
LINE
5
3A6
100
AcDbEntity
8
0
100
AcDbLine
62
7
6
CONTINUOUS
10
-4.2443421522
20
-19.1231317818
11
-4.2373606580
21
-19.1161502876
0
LINE
5
3A7
100
AcDbEntity
8
0
100
AcDbLine
62
7
6
CONTINUOUS
10
-3.3952148390
20
-2.0231317818
11
-3.2452148390
21
-2.0231317818
0
LINE
5
3A8
100
AcDbEntity
8
0
100
AcDbLine
62
7
6
CONTINUOUS
10
-0.7452148390
20
-2.0231317818
11
-0.5952148390
21
-2.0231317818
0
LINE
5
3A9
100
AcDbEntity
8
0
100
AcDbLine
62
7
6
CONTINUOUS
10
-3.2452148390
20
-1.0231317818
11
-0.7452148390
21
-1.0231317818
0
LINE
5
3AA
100
AcDbEntity
8
0
100
AcDbLine
62
7
6
CONTINUOUS
10
8.8524248050
20
-14.6231317818
11
8.9047851610
21
-14.7104004597
0
LINE
5
3AB
100
AcDbEntity
8
0
100
AcDbLine
62
9
6
CONTINUOUS
10
4.7547851610
20
7.0391536773
11
4.7547851610
21
6.6768682182
0
LINE
5
3AC
100
AcDbEntity
8
0
100
AcDbLine
62
9
6
CONTINUOUS
10
4.8074604089
20
13.5089832229
11
4.8074604089
21
11.7447532135
0
LINE
5
3AD
100
AcDbEntity
8
0
100
AcDbLine
62
9
6
CONTINUOUS
10
4.8074604089
20
-27.7910167771
11
4.8074604089
21
-29.5552467865
0
LINE
5
3AE
100
AcDbEntity
8
0
100
AcDbLine
62
9
6
CONTINUOUS
10
5.0047851610
20
5.8768682182
11
5.0047851610
21
5.4768682182
0
LINE
5
3AF
100
AcDbEntity
8
0
100
AcDbLine
62
9
6
CONTINUOUS
10
5.1123123311
20
7.2891441580
11
5.1123123311
21
7.0391536773
0
LINE
5
3B0
100
AcDbEntity
8
0
100
AcDbLine
62
9
6
CONTINUOUS
10
5.1670706201
20
6.9843953882
11
5.1670706201
21
5.4768682182
0
LINE
5
3B1
100
AcDbEntity
8
0
100
AcDbLine
62
7
6
CONTINUOUS
10
5.4053004845
20
12.9431909991
11
5.4053004845
21
11.6263487823
0
LINE
5
3B2
100
AcDbEntity
8
0
100
AcDbLine
62
7
6
CONTINUOUS
10
5.4053004845
20
-27.6726123460
11
5.4053004845
21
-28.9894545628
0
LINE
5
3B3
100
AcDbEntity
8
0
100
AcDbLine
62
7
6
CONTINUOUS
10
5.4170611009
20
6.9843953882
11
5.4170611009
21
5.6891441580
0
LINE
5
3B4
100
AcDbEntity
8
0
100
AcDbLine
62
7
6
CONTINUOUS
10
5.5000727290
20
-27.5778401016
11
5.5000727290
21
-28.5152776008
0
LINE
5
3B5
100
AcDbEntity
8
0
100
AcDbLine
62
7
6
CONTINUOUS
10
5.5047851610
20
12.8768682182
11
5.5047851610
21
11.5268641058
0
LINE
5
3B6
100
AcDbEntity
8
0
100
AcDbLine
62
7
6
CONTINUOUS
10
5.5047851610
20
6.8769719498
11
5.5047851610
21
5.7768682182
0
LINE
5
3B7
100
AcDbEntity
8
0
100
AcDbLine
62
7
6
CONTINUOUS
10
5.5047851610
20
-28.5231317818
11
5.5047851610
21
-28.9231317818
0
LINE
5
3B8
100
AcDbEntity
8
0
100
AcDbLine
62
7
6
CONTINUOUS
10
8.8524248050
20
-6.5731317818
11
8.9047851610
21
-6.4858631039
0
LINE
5
3B9
100
AcDbEntity
8
0
100
AcDbLine
62
9
6
CONTINUOUS
10
-11.9952148390
20
-28.0231508203
11
-11.9873606580
21
-28.0152966393
0
LINE
5
3BA
100
AcDbEntity
8
0
100
AcDbLine
62
9
6
CONTINUOUS
10
-11.4952338774
20
-28.5231317818
11
-11.4873796964
21
-28.5152776008
0
LINE
5
3BB
100
AcDbEntity
8
0
100
AcDbLine
62
7
6
CONTINUOUS
10
-0.5952148390
20
-0.1231317818
11
-3.3952148390
21
-0.1231317818
0
LINE
5
3BC
100
AcDbEntity
8
0
100
AcDbLine
62
7
6
CONTINUOUS
10
-12.8428544829
20
0.4768682182
11
-11.3452148390
21
0.4768682182
0
LINE
5
3BD
100
AcDbEntity
8
0
100
AcDbLine
62
7
6
CONTINUOUS
10
8.8524248050
20
0.4768682182
11
7.3547851610
21
0.4768682182
0
LINE
5
3BE
100
AcDbEntity
8
0
100
AcDbLine
62
7
6
CONTINUOUS
10
-12.8952148390
20
0.5645922783
11
-11.3452148390
21
0.5645922783
0
LINE
5
3BF
100
AcDbEntity
8
0
100
AcDbLine
62
7
6
CONTINUOUS
10
7.3547851610
20
0.5645922783
11
8.9047851610
21
0.5645922783
0
LINE
5
3C0
100
AcDbEntity
8
0
100
AcDbLine
62
9
6
CONTINUOUS
10
-12.6452148390
20
0.8145827591
11
-11.3452148390
21
0.8145827591
0
LINE
5
3C1
100
AcDbEntity
8
0
100
AcDbLine
62
9
6
CONTINUOUS
10
7.3547851610
20
0.8145827591
11
8.6547851610
21
0.8145827591
0
LINE
5
3C2
100
AcDbEntity
8
0
100
AcDbLine
62
7
6
CONTINUOUS
10
-5.9952148390
20
1.0268682182
11
-5.3952148390
21
1.0268682182
0
LINE
5
3C3
100
AcDbEntity
8
0
100
AcDbLine
62
7
6
CONTINUOUS
10
1.4047851610
20
1.0268682182
11
2.0047851610
21
1.0268682182
0
LINE
5
3C4
100
AcDbEntity
8
0
100
AcDbLine
62
9
6
CONTINUOUS
10
8.6547851610
20
1.1391536773
11
7.3547851610
21
1.1391536773
0
LINE
5
3C5
100
AcDbEntity
8
0
100
AcDbLine
62
9
6
CONTINUOUS
10
-11.3452148390
20
1.1391536773
11
-12.6452148390
21
1.1391536773
0
LINE
5
3C6
100
AcDbEntity
8
0
100
AcDbLine
62
7
6
CONTINUOUS
10
8.9047851610
20
1.3891441580
11
7.3547851610
21
1.3891441580
0
LINE
5
3C7
100
AcDbEntity
8
0
100
AcDbLine
62
7
6
CONTINUOUS
10
-11.3452148390
20
1.3891441580
11
-12.8952148390
21
1.3891441580
0
LINE
5
3C8
100
AcDbEntity
8
0
100
AcDbLine
62
7
6
CONTINUOUS
10
-12.8428544829
20
1.4768682182
11
-11.3452148390
21
1.4768682182
0
LINE
5
3C9
100
AcDbEntity
8
0
100
AcDbLine
62
7
6
CONTINUOUS
10
8.8524248050
20
1.4768682182
11
7.3547851610
21
1.4768682182
0
LINE
5
3CA
100
AcDbEntity
8
0
100
AcDbLine
62
7
6
CONTINUOUS
10
6.9047851610
20
5.0268682182
11
6.9047851610
21
5.4768682182
0
LINE
5
3CB
100
AcDbEntity
8
0
100
AcDbLine
62
7
6
CONTINUOUS
10
7.3547851610
20
-18.6731317818
11
7.3547851610
21
5.0268682182
0
LINE
5
3CC
100
AcDbEntity
8
0
100
AcDbLine
62
7
6
CONTINUOUS
10
7.9969309800
20
-19.2309669244
11
7.9969309800
21
-28.0152966393
0
LINE
5
3CD
100
AcDbEntity
8
0
100
AcDbLine
62
7
6
CONTINUOUS
10
8.0047851610
20
-19.2231127434
11
8.0047851610
21
-28.0231508203
0
LINE
5
3CE
100
AcDbEntity
8
0
100
AcDbLine
62
7
6
CONTINUOUS
10
8.2476895767
20
-31.7102623548
11
8.2476895767
21
-30.4927619427
0
LINE
5
3CF
100
AcDbEntity
8
0
100
AcDbLine
62
7
6
CONTINUOUS
10
8.2476895767
20
14.4464983790
11
8.2476895767
21
15.6639987911
0
LINE
5
3D0
100
AcDbEntity
8
0
100
AcDbLine
62
7
6
CONTINUOUS
10
-7.0894908956
20
-27.3674078384
11
-6.9999272710
21
-27.2778442139
0
LINE
5
3D1
100
AcDbEntity
8
0
100
AcDbLine
62
7
6
CONTINUOUS
10
-6.9952148390
20
11.2268682182
11
-7.0894908956
21
11.3211442748
0
LINE
5
3D2
100
AcDbEntity
8
0
100
AcDbLine
62
7
6
CONTINUOUS
10
9.6047851610
20
-25.5231317818
11
9.6519094815
21
-28.7988638902
0
LINE
5
3D3
100
AcDbEntity
8
0
100
AcDbLine
62
9
6
CONTINUOUS
10
8.6547851610
20
-15.2854172409
11
8.6547851610
21
-14.9608463227
0
LINE
5
3D4
100
AcDbEntity
8
0
100
AcDbLine
62
9
6
CONTINUOUS
10
8.6547851610
20
-6.2354172409
11
8.6547851610
21
-5.9108463227
0
LINE
5
3D5
100
AcDbEntity
8
0
100
AcDbLine
62
9
6
CONTINUOUS
10
8.6547851610
20
0.8145827591
11
8.6547851610
21
1.1391536773
0
LINE
5
3D6
100
AcDbEntity
8
0
100
AcDbLine
62
9
6
CONTINUOUS
10
8.6547851610
20
5.1145827591
11
8.6547851610
21
5.4391536773
0
LINE
5
3D7
100
AcDbEntity
8
0
100
AcDbLine
62
7
6
CONTINUOUS
10
8.8524248050
20
12.8768682182
11
8.8524248050
21
5.7768682182
0
LINE
5
3D8
100
AcDbEntity
8
0
100
AcDbLine
62
7
6
CONTINUOUS
10
8.8524248050
20
-15.6231317818
11
8.8524248050
21
-28.9231317818
0
LINE
5
3D9
100
AcDbEntity
8
0
100
AcDbLine
62
7
6
CONTINUOUS
10
8.8524248050
20
-14.6231317818
11
8.8524248050
21
-6.5731317818
0
LINE
5
3DA
100
AcDbEntity
8
0
100
AcDbLine
62
7
6
CONTINUOUS
10
8.8524248050
20
-5.5731317818
11
8.8524248050
21
0.4768682182
0
LINE
5
3DB
100
AcDbEntity
8
0
100
AcDbLine
62
7
6
CONTINUOUS
10
8.8524248050
20
1.4768682182
11
8.8524248050
21
4.7768682182
0
LINE
5
3DC
100
AcDbEntity
8
0
100
AcDbLine
62
7
6
CONTINUOUS
10
8.9047851610
20
-28.9580385087
11
8.9047851610
21
12.9117749450
0
LINE
5
3DD
100
AcDbEntity
8
0
100
AcDbLine
62
7
6
CONTINUOUS
10
9.6047851610
20
-28.9580385087
11
9.6047851610
21
-25.5231317818
0
LINE
5
3DE
100
AcDbEntity
8
0
100
AcDbLine
62
7
6
CONTINUOUS
10
9.6047851610
20
9.4768682182
11
9.6047851610
21
12.9117749450
0
LINE
5
3DF
100
AcDbEntity
8
0
100
AcDbLine
62
7
6
CONTINUOUS
10
9.6519094815
20
12.9431909991
11
9.6519094815
21
12.7526003266
0
LINE
5
3E0
100
AcDbEntity
8
0
100
AcDbLine
62
7
6
CONTINUOUS
10
9.6519094815
20
-28.7988638902
11
9.6519094815
21
-28.9894545628
0
LINE
5
3E1
100
AcDbEntity
8
0
100
AcDbLine
62
7
6
CONTINUOUS
10
10.2476895767
20
15.6640597125
11
10.2476895767
21
12.7526003266
0
LINE
5
3E2
100
AcDbEntity
8
0
100
AcDbLine
62
7
6
CONTINUOUS
10
10.2476895767
20
-28.7988638902
11
10.2476895767
21
-31.7103232762
0
LINE
5
3E3
100
AcDbEntity
8
0
100
AcDbLine
62
7
6
CONTINUOUS
10
9.6519094815
20
12.7526003266
11
9.6047851610
21
9.4768682182
0
LINE
5
3E4
100
AcDbEntity
8
0
100
AcDbLine
62
7
6
CONTINUOUS
10
-5.9153183390
20
-30.4576247501
11
-5.8974739197
21
-30.4362112078
0
LINE
5
3E5
100
AcDbEntity
8
0
100
AcDbLine
62
7
6
CONTINUOUS
10
-13.6423391594
20
-28.9894545628
11
-13.5952148390
21
-28.9580385087
0
LINE
5
3E6
100
AcDbEntity
8
0
100
AcDbLine
62
7
6
CONTINUOUS
10
-12.8952148390
20
-28.9580385087
11
-12.8428544829
21
-28.9231317818
0
LINE
5
3E7
100
AcDbEntity
8
0
100
AcDbLine
62
9
6
CONTINUOUS
10
2.0047851610
20
4.6268682182
11
1.4047851610
21
4.6268682182
0
LINE
5
3E8
100
AcDbEntity
8
0
100
AcDbLine
62
9
6
CONTINUOUS
10
-5.3952148390
20
4.6268682182
11
-5.9952148390
21
4.6268682182
0
LINE
5
3E9
100
AcDbEntity
8
0
100
AcDbLine
62
7
6
CONTINUOUS
10
8.8524248050
20
4.7768682182
11
7.3547851610
21
4.7768682182
0
LINE
5
3EA
100
AcDbEntity
8
0
100
AcDbLine
62
7
6
CONTINUOUS
10
-11.3452148390
20
4.7768682182
11
-12.8428544829
21
4.7768682182
0
LINE
5
3EB
100
AcDbEntity
8
0
100
AcDbLine
62
7
6
CONTINUOUS
10
-12.8952148390
20
4.8645922783
11
-11.3452148390
21
4.8645922783
0
LINE
5
3EC
100
AcDbEntity
8
0
100
AcDbLine
62
7
6
CONTINUOUS
10
7.3547851610
20
4.8645922783
11
8.9047851610
21
4.8645922783
0
LINE
5
3ED
100
AcDbEntity
8
0
100
AcDbLine
62
7
6
CONTINUOUS
10
-11.3452148390
20
5.0268682182
11
-5.9952148390
21
5.0268682182
0
LINE
5
3EE
100
AcDbEntity
8
0
100
AcDbLine
62
7
6
CONTINUOUS
10
2.0047851610
20
5.0268682182
11
7.3547851610
21
5.0268682182
0
LINE
5
3EF
100
AcDbEntity
8
0
100
AcDbLine
62
9
6
CONTINUOUS
10
-12.6452148390
20
5.1145827591
11
-10.8952148390
21
5.1145827591
0
LINE
5
3F0
100
AcDbEntity
8
0
100
AcDbLine
62
9
6
CONTINUOUS
10
6.9047851610
20
5.1145827591
11
8.6547851610
21
5.1145827591
0
LINE
5
3F1
100
AcDbEntity
8
0
100
AcDbLine
62
7
6
CONTINUOUS
10
3.0047851610
20
5.1268682182
11
1.4047851610
21
5.1268682182
0
LINE
5
3F2
100
AcDbEntity
8
0
100
AcDbLine
62
7
6
CONTINUOUS
10
-5.3952148390
20
5.1268682182
11
-6.9952148390
21
5.1268682182
0
LINE
5
3F3
100
AcDbEntity
8
0
100
AcDbLine
62
7
6
CONTINUOUS
10
1.4047851610
20
5.1768682182
11
6.9047851610
21
5.1768682182
0
LINE
5
3F4
100
AcDbEntity
8
0
100
AcDbLine
62
7
6
CONTINUOUS
10
-5.3952148390
20
5.1768682182
11
-10.8952148390
21
5.1768682182
0
LINE
5
3F5
100
AcDbEntity
8
0
100
AcDbLine
62
9
6
CONTINUOUS
10
8.6547851610
20
5.4391536773
11
6.9047851610
21
5.4391536773
0
LINE
5
3F6
100
AcDbEntity
8
0
100
AcDbLine
62
9
6
CONTINUOUS
10
-10.8952148390
20
5.4391536773
11
-12.6452148390
21
5.4391536773
0
LINE
5
3F7
100
AcDbEntity
8
0
100
AcDbLine
62
7
6
CONTINUOUS
10
6.9047851610
20
5.4768682182
11
-10.8952148390
21
5.4768682182
0
LINE
5
3F8
100
AcDbEntity
8
0
100
AcDbLine
62
7
6
CONTINUOUS
10
-13.6423391594
20
12.9431909991
11
-13.5952148390
21
12.9117749450
0
LINE
5
3F9
100
AcDbEntity
8
0
100
AcDbLine
62
7
6
CONTINUOUS
10
-12.8952148390
20
12.9117749450
11
-12.8428544829
21
12.8768682182
0
LINE
5
3FA
100
AcDbEntity
8
0
100
AcDbLine
62
7
6
CONTINUOUS
10
-5.9153183390
20
14.4113611864
11
-5.8974739197
21
14.3899476441
0
LINE
5
3FB
100
AcDbEntity
8
0
100
AcDbLine
62
7
6
CONTINUOUS
10
8.8524248050
20
-5.5731317818
11
8.9047851610
21
-5.6604004597
0
LINE
5
3FC
100
AcDbEntity
8
0
100
AcDbLine
62
7
6
CONTINUOUS
10
10.2476895767
20
12.7526003266
11
10.4047851610
21
9.4768682182
0
LINE
5
3FD
100
AcDbEntity
8
0
100
AcDbLine
62
7
6
CONTINUOUS
10
10.4047851610
20
-31.7731561501
11
10.4047851610
21
15.7268925864
0
LINE
5
3FE
100
AcDbEntity
8
0
100
AcDbLine
62
7
6
CONTINUOUS
10
10.4047851610
20
-25.5231317818
11
10.2476895767
21
-28.7988638902
0
LINE
5
3FF
100
AcDbEntity
8
0
100
AcDbLine
62
7
6
CONTINUOUS
10
8.9047851610
20
-15.5358631039
11
8.8524248050
21
-15.6231317818
0
LINE
5
400
100
AcDbEntity
8
0
100
AcDbLine
62
9
6
CONTINUOUS
10
7.5048041995
20
-18.7231317818
11
7.4969500185
21
-18.7309859629
0
LINE
5
401
100
AcDbEntity
8
0
100
AcDbLine
62
7
6
CONTINUOUS
10
8.9047851610
20
5.6891441580
11
5.4170611009
21
5.6891441580
0
LINE
5
402
100
AcDbEntity
8
0
100
AcDbLine
62
7
6
CONTINUOUS
10
-9.4074907788
20
5.6891441580
11
-12.8952148390
21
5.6891441580
0
LINE
5
403
100
AcDbEntity
8
0
100
AcDbLine
62
7
6
CONTINUOUS
10
-12.8428544829
20
5.7768682182
11
-9.4952148390
21
5.7768682182
0
LINE
5
404
100
AcDbEntity
8
0
100
AcDbLine
62
7
6
CONTINUOUS
10
5.5047851610
20
5.7768682182
11
8.8524248050
21
5.7768682182
0
LINE
5
405
100
AcDbEntity
8
0
100
AcDbLine
62
7
6
CONTINUOUS
10
-8.9952148390
20
5.8768682182
11
5.0047851610
21
5.8768682182
0
LINE
5
406
100
AcDbEntity
8
0
100
AcDbLine
62
9
6
CONTINUOUS
10
4.2047851610
20
6.1268682182
11
-8.1952148390
21
6.1268682182
0
LINE
5
407
100
AcDbEntity
8
0
100
AcDbLine
62
7
6
CONTINUOUS
10
4.2047851610
20
6.3768682182
11
-8.1952148390
21
6.3768682182
0
LINE
5
408
100
AcDbEntity
8
0
100
AcDbLine
62
9
6
CONTINUOUS
10
-8.7452148390
20
6.6768682182
11
-8.4952148390
21
6.6768682182
0
LINE
5
409
100
AcDbEntity
8
0
100
AcDbLine
62
9
6
CONTINUOUS
10
4.7547851610
20
6.6768682182
11
4.5047851610
21
6.6768682151
0
LINE
5
40A
100
AcDbEntity
8
0
100
AcDbLine
62
9
6
CONTINUOUS
10
5.4170611009
20
6.9843953882
11
5.1670706201
21
6.9843953882
0
LINE
5
40B
100
AcDbEntity
8
0
100
AcDbLine
62
9
6
CONTINUOUS
10
-9.1575002981
20
6.9843953882
11
-9.4074907788
21
6.9843953882
0
LINE
5
40C
100
AcDbEntity
8
0
100
AcDbLine
62
9
6
CONTINUOUS
10
4.7547851610
20
7.0391536773
11
5.1123123311
21
7.0391536773
0
LINE
5
40D
100
AcDbEntity
8
0
100
AcDbLine
62
9
6
CONTINUOUS
10
-8.7452148390
20
7.0391536773
11
-9.1027420090
21
7.0391536773
0
LINE
5
40E
100
AcDbEntity
8
0
100
AcDbLine
62
7
6
CONTINUOUS
10
4.5047851610
20
7.2891441580
11
5.1123123311
21
7.2891441580
0
LINE
5
40F
100
AcDbEntity
8
0
100
AcDbLine
62
7
6
CONTINUOUS
10
-8.4952148390
20
7.2891441580
11
-9.1027420090
21
7.2891441580
0
LINE
5
410
100
AcDbEntity
8
0
100
AcDbLine
62
7
6
CONTINUOUS
10
4.5047851610
20
7.2957083477
11
-8.4952148390
21
7.2957083477
0
LINE
5
411
100
AcDbEntity
8
0
100
AcDbLine
62
7
6
CONTINUOUS
10
5.0048888927
20
7.3768682182
11
-8.9953185706
21
7.3768682182
0
LINE
5
412
100
AcDbEntity
8
0
100
AcDbLine
62
7
6
CONTINUOUS
10
8.8524248050
20
1.4768682182
11
8.9047851610
21
1.3895995403
0
LINE
5
413
100
AcDbEntity
8
0
100
AcDbLine
62
9
6
CONTINUOUS
10
8.0047851610
20
-19.2231127434
11
7.9969309800
21
-19.2309669244
0
LINE
5
414
100
AcDbEntity
8
0
100
AcDbLine
62
7
6
CONTINUOUS
10
-8.1979348651
20
-28.9552915647
11
-8.1978580999
21
-28.9552477004
0
LINE
5
415
100
AcDbEntity
8
0
100
AcDbLine
62
7
6
CONTINUOUS
10
-8.1979348651
20
12.9090280011
11
-8.1978580999
21
12.9089841367
0
LINE
5
416
100
AcDbEntity
8
0
100
AcDbLine
62
9
6
CONTINUOUS
10
5.1123123311
20
7.2891441580
11
5.0048888927
21
7.3768682182
0
LINE
5
417
100
AcDbEntity
8
0
100
AcDbLine
62
9
6
CONTINUOUS
10
5.4170611009
20
6.9843953882
11
5.5047851610
21
6.8769719498
0
LINE
5
418
100
AcDbEntity
8
0
100
AcDbLine
62
9
6
CONTINUOUS
10
-14.3952148390
20
-31.7731561501
11
-14.2381192546
21
-31.7103232762
0
LINE
5
419
100
AcDbEntity
8
0
100
AcDbLine
62
9
6
CONTINUOUS
10
-14.1452072215
20
-32.0231317818
11
-13.9881116372
21
-31.9602989080
0
LINE
5
41A
100
AcDbEntity
8
0
100
AcDbLine
62
9
6
CONTINUOUS
10
-12.6452833856
20
-32.0231317818
11
-12.4881878012
21
-31.9602989080
0
LINE
5
41B
100
AcDbEntity
8
0
100
AcDbLine
62
7
6
CONTINUOUS
10
-12.5524402889
20
-32.0052588758
11
-12.4815464304
21
-31.9769037512
0
LINE
5
41C
100
AcDbEntity
8
0
100
AcDbLine
62
7
6
CONTINUOUS
10
-14.3952148390
20
9.4768682182
11
-13.5952148390
21
9.4768682182
0
LINE
5
41D
100
AcDbEntity
8
0
100
AcDbLine
62
7
6
CONTINUOUS
10
10.4047851610
20
9.4768682182
11
9.6047851610
21
9.4768682182
0
LINE
5
41E
100
AcDbEntity
8
0
100
AcDbLine
62
7
6
CONTINUOUS
10
5.2047892734
20
11.2268682182
11
3.0047851610
21
11.2268682182
0
LINE
5
41F
100
AcDbEntity
8
0
100
AcDbLine
62
7
6
CONTINUOUS
10
-6.9952148390
20
11.2268682182
11
-9.1952189513
21
11.2268682182
0
LINE
5
420
100
AcDbEntity
8
0
100
AcDbLine
62
9
6
CONTINUOUS
10
-14.3952148390
20
15.7268925864
11
-14.2381192546
21
15.6640597125
0
LINE
5
421
100
AcDbEntity
8
0
100
AcDbLine
62
9
6
CONTINUOUS
10
-14.1452072215
20
15.9768682182
11
-13.9881116372
21
15.9140353443
0
LINE
5
422
100
AcDbEntity
8
0
100
AcDbLine
62
9
6
CONTINUOUS
10
-12.6452833856
20
15.9768682182
11
-12.4881878012
21
15.9140353443
0
LINE
5
423
100
AcDbEntity
8
0
100
AcDbLine
62
7
6
CONTINUOUS
10
-12.5524402889
20
15.9589953121
11
-12.4815464304
21
15.9306401875
0
LINE
5
424
100
AcDbEntity
8
0
100
AcDbLine
62
7
6
CONTINUOUS
10
8.9047851610
20
5.6895995403
11
8.8524248050
21
5.7768682182
0
LINE
5
425
100
AcDbEntity
8
0
100
AcDbLine
62
9
6
CONTINUOUS
10
5.1053045968
20
-27.3726164583
11
5.2000768413
21
-27.2778442139
0
LINE
5
426
100
AcDbEntity
8
0
100
AcDbLine
62
9
6
CONTINUOUS
10
5.4053004845
20
-27.6726123460
11
5.5000727290
21
-27.5778401016
0
LINE
5
427
100
AcDbEntity
8
0
100
AcDbLine
62
7
6
CONTINUOUS
10
-7.0894908956
20
12.3269588084
11
-6.9952148390
21
12.3518682182
0
LINE
5
428
100
AcDbEntity
8
0
100
AcDbLine
62
7
6
CONTINUOUS
10
4.2074284220
20
12.9089841367
11
3.9826060344
21
12.8768682182
0
LINE
5
429
100
AcDbEntity
8
0
100
AcDbLine
62
7
6
CONTINUOUS
10
-8.1978580999
20
12.3447522996
11
-7.9969458795
21
12.3734526465
0
LINE
5
42A
100
AcDbEntity
8
0
100
AcDbLine
62
7
6
CONTINUOUS
10
1.9961344486
20
13.0089810758
11
1.9070442418
21
12.9973497540
0
LINE
5
42B
100
AcDbEntity
8
0
100
AcDbLine
62
7
6
CONTINUOUS
10
3.3634233300
20
12.3447522996
11
3.1829901177
21
12.3321351803
0
LINE
5
42C
100
AcDbEntity
8
0
100
AcDbLine
62
7
6
CONTINUOUS
10
3.0047851610
20
12.3518682182
11
3.0968691137
21
12.3583073554
0
LINE
5
42D
100
AcDbEntity
8
0
100
AcDbLine
62
7
6
CONTINUOUS
10
-5.9952148390
20
12.9768682182
11
-7.4252814646
21
12.8768682182
0
LINE
5
42E
100
AcDbEntity
8
0
100
AcDbLine
62
7
6
CONTINUOUS
10
5.1053045968
20
11.3263528947
11
4.0990475099
21
11.3263528947
0
LINE
5
42F
100
AcDbEntity
8
0
100
AcDbLine
62
7
6
CONTINUOUS
10
-8.0894771878
20
11.3263528947
11
-9.0957342748
21
11.3263528947
0
LINE
5
430
100
AcDbEntity
8
0
100
AcDbLine
62
9
6
CONTINUOUS
10
-1.7952148390
20
11.7268682182
11
-1.4952148390
21
11.7268682182
0
LINE
5
431
100
AcDbEntity
8
0
100
AcDbLine
62
9
6
CONTINUOUS
10
-2.1952148390
20
11.7268682182
11
-2.4952148390
21
11.7268682181
0
LINE
5
432
100
AcDbEntity
8
0
100
AcDbLine
62
9
6
CONTINUOUS
10
4.8074604089
20
11.7447532135
11
4.0990475099
21
11.7447532135
0
LINE
5
433
100
AcDbEntity
8
0
100
AcDbLine
62
9
6
CONTINUOUS
10
-8.0894771878
20
11.7447532135
11
-8.7978900869
21
11.7447532135
0
LINE
5
434
100
AcDbEntity
8
0
100
AcDbLine
62
7
6
CONTINUOUS
10
1.4223282396
20
11.9613347720
11
-5.4127579176
21
11.9613347720
0
LINE
5
435
100
AcDbEntity
8
0
100
AcDbLine
62
7
6
CONTINUOUS
10
4.2074284220
20
12.3447522996
11
3.3634233300
21
12.3447522996
0
LINE
5
436
100
AcDbEntity
8
0
100
AcDbLine
62
7
6
CONTINUOUS
10
-7.3538530080
20
12.3447522996
11
-8.1978580999
21
12.3447522996
0
LINE
5
437
100
AcDbEntity
8
0
100
AcDbLine
62
7
6
CONTINUOUS
10
4.0047851610
20
12.3613347720
11
-7.9952148390
21
12.3613347720
0
LINE
5
438
100
AcDbEntity
8
0
100
AcDbLine
62
7
6
CONTINUOUS
10
-14.2381192546
20
12.7526003266
11
-13.6423391594
21
12.7526003266
0
LINE
5
439
100
AcDbEntity
8
0
100
AcDbLine
62
7
6
CONTINUOUS
10
9.6519094815
20
12.7526003266
11
10.2476895767
21
12.7526003266
0
LINE
5
43A
100
AcDbEntity
8
0
100
AcDbLine
62
7
6
CONTINUOUS
10
-7.9952148390
20
12.7613347720
11
-6.7390578097
21
12.7613347720
0
LINE
5
43B
100
AcDbEntity
8
0
100
AcDbLine
62
7
6
CONTINUOUS
10
-6.7277343453
20
12.7613347720
11
-5.9452148390
21
12.7613347720
0
LINE
5
43C
100
AcDbEntity
8
0
100
AcDbLine
62
7
6
CONTINUOUS
10
4.0047851610
20
12.7613347720
11
2.7486281317
21
12.7613347720
0
LINE
5
43D
100
AcDbEntity
8
0
100
AcDbLine
62
7
6
CONTINUOUS
10
2.7373046674
20
12.7613347720
11
1.9547851610
21
12.7613347720
0
LINE
5
43E
100
AcDbEntity
8
0
100
AcDbLine
62
7
6
CONTINUOUS
10
8.8524248050
20
12.8768682182
11
5.5047851610
21
12.8768682182
0
LINE
5
43F
100
AcDbEntity
8
0
100
AcDbLine
62
7
6
CONTINUOUS
10
3.9826060344
20
12.8768682182
11
3.4348517867
21
12.8768682182
0
LINE
5
440
100
AcDbEntity
8
0
100
AcDbLine
62
7
6
CONTINUOUS
10
-7.4252814646
20
12.8768682182
11
-7.9730357123
21
12.8768682182
0
LINE
5
441
100
AcDbEntity
8
0
100
AcDbLine
62
7
6
CONTINUOUS
10
-9.4952148390
20
12.8768682182
11
-12.8428544829
21
12.8768682182
0
LINE
5
442
100
AcDbEntity
8
0
100
AcDbLine
62
7
6
CONTINUOUS
10
-8.1978580999
20
12.9089841367
11
-7.4264029772
21
12.9089841367
0
LINE
5
443
100
AcDbEntity
8
0
100
AcDbLine
62
7
6
CONTINUOUS
10
3.4359732993
20
12.9089841367
11
4.2074284220
21
12.9089841367
0
LINE
5
444
100
AcDbEntity
8
0
100
AcDbLine
62
7
6
CONTINUOUS
10
-13.5952148390
20
12.9117749450
11
-12.8952148390
21
12.9117749450
0
LINE
5
445
100
AcDbEntity
8
0
100
AcDbLine
62
7
6
CONTINUOUS
10
8.9047851610
20
12.9117749450
11
9.6047851610
21
12.9117749450
0
LINE
5
446
100
AcDbEntity
8
0
100
AcDbLine
62
7
6
CONTINUOUS
10
-13.6423391594
20
12.9431909991
11
-9.3957301625
21
12.9431909991
0
LINE
5
447
100
AcDbEntity
8
0
100
AcDbLine
62
7
6
CONTINUOUS
10
5.4053004845
20
12.9431909991
11
9.6519094815
21
12.9431909991
0
LINE
5
448
100
AcDbEntity
8
0
100
AcDbLine
62
7
6
CONTINUOUS
10
2.0047851610
20
12.9768682182
11
1.7547851610
21
12.9768682182
0
LINE
5
449
100
AcDbEntity
8
0
100
AcDbLine
62
7
6
CONTINUOUS
10
-5.7452148390
20
12.9768682182
11
-5.9952148390
21
12.9768682182
0
LINE
5
44A
100
AcDbEntity
8
0
100
AcDbLine
62
7
6
CONTINUOUS
10
-5.9956902357
20
12.9904818001
11
-5.7452148390
21
12.9904818001
0
LINE
5
44B
100
AcDbEntity
8
0
100
AcDbLine
62
7
6
CONTINUOUS
10
1.7547851610
20
12.9904818001
11
2.0052605578
21
12.9904818001
0
LINE
5
44C
100
AcDbEntity
8
0
100
AcDbLine
62
7
6
CONTINUOUS
10
-7.1734197956
20
12.3321351803
11
-7.3538530080
21
12.3447522996
0
LINE
5
44D
100
AcDbEntity
8
0
100
AcDbLine
62
7
6
CONTINUOUS
10
-7.1305928667
20
12.3613347720
11
-6.9952148390
21
12.3518682182
0
LINE
5
44E
100
AcDbEntity
8
0
100
AcDbLine
62
7
6
CONTINUOUS
10
-5.9865641265
20
13.0089810758
11
-5.8974739197
21
12.9973497540
0
LINE
5
44F
100
AcDbEntity
8
0
100
AcDbLine
62
7
6
CONTINUOUS
10
-8.1978580999
20
12.9089841367
11
-7.9730357123
21
12.8768682182
0
LINE
5
450
100
AcDbEntity
8
0
100
AcDbLine
62
9
6
CONTINUOUS
10
5.2047892734
20
11.2268682182
11
5.1053045968
21
11.3263528947
0
LINE
5
451
100
AcDbEntity
8
0
100
AcDbLine
62
9
6
CONTINUOUS
10
5.5047851610
20
11.5268641058
11
5.4053004845
21
11.6263487823
0
LINE
5
452
100
AcDbEntity
8
0
100
AcDbLine
62
7
6
CONTINUOUS
10
5.4053004845
20
-28.9894545628
11
5.5047851610
21
-28.9231317818
0
LINE
5
453
100
AcDbEntity
8
0
100
AcDbLine
62
7
6
CONTINUOUS
10
4.2075051871
20
-28.3909719989
11
4.2074284220
21
-28.3910158633
0
LINE
5
454
100
AcDbEntity
8
0
100
AcDbLine
62
7
6
CONTINUOUS
10
-5.9956902357
20
12.9904818001
11
-5.8974739197
21
12.9973497540
0
LINE
5
455
100
AcDbEntity
8
0
100
AcDbLine
62
7
6
CONTINUOUS
10
-7.4264029771
20
12.9089841323
11
-6.1161749007
21
13.0007640945
0
LINE
5
456
100
AcDbEntity
8
0
100
AcDbLine
62
9
6
CONTINUOUS
10
2.9960963716
20
13.5076911742
11
4.8074604089
21
13.5089832229
0
LINE
5
457
100
AcDbEntity
8
0
100
AcDbLine
62
9
6
CONTINUOUS
10
4.2047851610
20
13.6475855316
11
2.9960963716
21
13.6475855316
0
LINE
5
458
100
AcDbEntity
8
0
100
AcDbLine
62
9
6
CONTINUOUS
10
-6.9865260496
20
13.6475855316
11
-8.1952148390
21
13.6475855316
0
LINE
5
459
100
AcDbEntity
8
0
100
AcDbLine
62
9
6
CONTINUOUS
10
-5.7452148390
20
14.1172856367
11
1.7547851610
21
14.1172856367
0
LINE
5
45A
100
AcDbEntity
8
0
100
AcDbLine
62
7
6
CONTINUOUS
10
-5.8974739197
20
14.3899476441
11
-5.7919801831
21
14.3899476441
0
LINE
5
45B
100
AcDbEntity
8
0
100
AcDbLine
62
7
6
CONTINUOUS
10
1.8015505052
20
14.3899476441
11
1.9070442418
21
14.3899476441
0
LINE
5
45C
100
AcDbEntity
8
0
100
AcDbLine
62
9
6
CONTINUOUS
10
4.2047851610
20
14.3993396283
11
2.1153649847
21
14.3993396283
0
LINE
5
45D
100
AcDbEntity
8
0
100
AcDbLine
62
9
6
CONTINUOUS
10
-6.1057946626
20
14.3993396283
11
-8.1952148390
21
14.3993396283
0
LINE
5
45E
100
AcDbEntity
8
0
100
AcDbLine
62
7
6
CONTINUOUS
10
8.2476895767
20
14.4464983790
11
4.2047851610
21
14.4464983790
0
LINE
5
45F
100
AcDbEntity
8
0
100
AcDbLine
62
7
6
CONTINUOUS
10
-8.1952148390
20
14.4464983790
11
-12.2381192546
21
14.4464983790
0
LINE
5
460
100
AcDbEntity
8
0
100
AcDbLine
62
7
6
CONTINUOUS
10
8.2476895767
20
14.4768682182
11
4.2047851610
21
14.4768682182
0
LINE
5
461
100
AcDbEntity
8
0
100
AcDbLine
62
7
6
CONTINUOUS
10
-8.1952148390
20
14.4768682182
11
-12.2381192546
21
14.4768682182
0
LINE
5
462
100
AcDbEntity
8
0
100
AcDbLine
62
7
6
CONTINUOUS
10
-5.9699069224
20
14.7925062271
11
-5.9452148390
21
14.7925062271
0
LINE
5
463
100
AcDbEntity
8
0
100
AcDbLine
62
7
6
CONTINUOUS
10
1.9794772444
20
14.7925062271
11
1.9547851610
21
14.7925062271
0
LINE
5
464
100
AcDbEntity
8
0
100
AcDbLine
62
9
6
CONTINUOUS
10
-8.7978900869
20
13.5089832229
11
-6.9865260496
21
13.5076911742
0
LINE
5
465
100
AcDbEntity
8
0
100
AcDbLine
62
7
6
CONTINUOUS
10
3.4348517867
20
12.8768682182
11
2.0047851610
21
12.9768682182
0
LINE
5
466
100
AcDbEntity
8
0
100
AcDbLine
62
7
6
CONTINUOUS
10
2.0052605578
20
12.9904818001
11
1.9070442418
21
12.9973497540
0
LINE
5
467
100
AcDbEntity
8
0
100
AcDbLine
62
7
6
CONTINUOUS
10
2.1257452228
20
13.0007640945
11
3.4359732991
21
12.9089841323
0
LINE
5
468
100
AcDbEntity
8
0
100
AcDbLine
62
7
6
CONTINUOUS
10
4.2074284220
20
12.3447522996
11
4.0065162016
21
12.3734526465
0
LINE
5
469
100
AcDbEntity
8
0
100
AcDbLine
62
7
6
CONTINUOUS
10
3.0990612176
20
12.3269588084
11
3.0047851610
21
12.3518682182
0
LINE
5
46A
100
AcDbEntity
8
0
100
AcDbLine
62
7
6
CONTINUOUS
10
4.2075051871
20
12.3447084353
11
4.2074284220
21
12.3447522996
0
LINE
5
46B
100
AcDbEntity
8
0
100
AcDbLine
62
7
6
CONTINUOUS
10
5.4053004845
20
12.9431909991
11
5.5047851610
21
12.8768682182
0
LINE
5
46C
100
AcDbEntity
8
0
100
AcDbLine
62
7
6
CONTINUOUS
10
4.2047851610
20
15.2268682182
11
1.9803499312
21
15.2268682182
0
LINE
5
46D
100
AcDbEntity
8
0
100
AcDbLine
62
7
6
CONTINUOUS
10
-5.9707796092
20
15.2268682182
11
-8.1952148390
21
15.2268682182
0
LINE
5
46E
100
AcDbEntity
8
0
100
AcDbLine
62
7
6
CONTINUOUS
10
2.3047851610
20
15.8197442319
11
-0.5952148390
21
15.8197442319
0
LINE
5
46F
100
AcDbEntity
8
0
100
AcDbLine
62
7
6
CONTINUOUS
10
-3.3952148390
20
15.8197442319
11
-6.2952148390
21
15.8197442319
0
LINE
5
470
100
AcDbEntity
8
0
100
AcDbLine
62
7
6
CONTINUOUS
10
-13.9881116372
20
15.9140353443
11
-12.4881878012
21
15.9140353443
0
LINE
5
471
100
AcDbEntity
8
0
100
AcDbLine
62
7
6
CONTINUOUS
10
8.4977581233
20
15.9140353443
11
9.9976819593
21
15.9140353443
0
LINE
5
472
100
AcDbEntity
8
0
100
AcDbLine
62
7
6
CONTINUOUS
10
-6.4952148390
20
15.9613347720
11
-5.9284810738
21
15.9613347720
0
LINE
5
473
100
AcDbEntity
8
0
100
AcDbLine
62
7
6
CONTINUOUS
10
1.9380513958
20
15.9613347720
11
2.5047851610
21
15.9613347720
0
LINE
5
474
100
AcDbEntity
8
0
100
AcDbLine
62
7
6
CONTINUOUS
10
8.6547927785
20
15.9768682182
11
10.1547775436
21
15.9768682182
0
LINE
5
475
100
AcDbEntity
8
0
100
AcDbLine
62
7
6
CONTINUOUS
10
-12.6452224564
20
15.9768682182
11
-14.1452072215
21
15.9768682182
0
LINE
5
476
100
AcDbEntity
8
0
100
AcDbLine
62
9
6
CONTINUOUS
10
-6.4952148390
20
16.2613347720
11
-3.1952148390
21
16.2613347720
0
LINE
5
477
100
AcDbEntity
8
0
100
AcDbLine
62
9
6
CONTINUOUS
10
-0.7952148390
20
16.2613347720
11
2.5047851610
21
16.2613347720
0
LINE
5
478
100
AcDbEntity
8
0
100
AcDbLine
62
7
6
CONTINUOUS
10
-6.2952148390
20
16.4590777068
11
-3.3952148390
21
16.4590777068
0
LINE
5
479
100
AcDbEntity
8
0
100
AcDbLine
62
7
6
CONTINUOUS
10
-0.5952148390
20
16.4590777068
11
2.3047851610
21
16.4590777068
0
LINE
5
47A
100
AcDbEntity
8
0
100
AcDbLine
62
7
6
CONTINUOUS
10
-6.2952148390
20
16.8395003133
11
-3.3952148390
21
16.8395003133
0
LINE
5
47B
100
AcDbEntity
8
0
100
AcDbLine
62
7
6
CONTINUOUS
10
-0.5952148390
20
16.8395003133
11
2.3047851610
21
16.8395003133
0
LINE
5
47C
100
AcDbEntity
8
0
100
AcDbLine
62
9
6
CONTINUOUS
10
-7.9952148390
20
16.9270743335
11
4.0047851610
21
16.9270743335
0
LINE
5
47D
100
AcDbEntity
8
0
100
AcDbLine
62
7
6
CONTINUOUS
10
-7.9952148390
20
16.9613347720
11
4.0047851610
21
16.9613347720
0
ARC
5
47E
100
AcDbEntity
8
0
100
AcDbCircle
62
7
6
CONTINUOUS
10
-11.0452148390
20
-18.6731317818
40
0.3000000000
100
AcDbArc
50
180.0000000000
51
270.0000000000
0
ARC
5
47F
100
AcDbEntity
8
0
100
AcDbCircle
62
7
6
CONTINUOUS
10
7.0547851610
20
-18.6731317818
40
0.3000000000
100
AcDbArc
50
270.0000000000
51
360.0000000000
0
ARC
5
480
100
AcDbEntity
8
0
100
AcDbCircle
62
7
6
CONTINUOUS
10
-1.9952148390
20
-10.8731317818
40
4.0000000000
100
AcDbArc
50
180.0000000000
51
360.0000000000
0
ARC
5
481
100
AcDbEntity
8
0
100
AcDbCircle
62
7
6
CONTINUOUS
10
4.2047851610
20
6.6768682182
40
0.3000000000
100
AcDbArc
50
270.0000000000
51
360.0000000000
0
ARC
5
482
100
AcDbEntity
8
0
100
AcDbCircle
62
7
6
CONTINUOUS
10
-8.1952148390
20
6.6768682182
40
0.3000000000
100
AcDbArc
50
180.0000000000
51
270.0000000000
0
ARC
5
483
100
AcDbEntity
8
0
100
AcDbCircle
62
7
6
CONTINUOUS
10
-1.9952148390
20
11.7268682182
40
0.5000000000
100
AcDbArc
50
180.0000000000
51
360.0000000000
0
ARC
5
484
100
AcDbEntity
8
0
100
AcDbCircle
62
9
6
CONTINUOUS
10
-8.1952148390
20
6.6768682182
40
0.5499936569
100
AcDbArc
50
180.0000000000
51
270.0000000000
0
ARC
5
485
100
AcDbEntity
8
0
100
AcDbCircle
62
9
6
CONTINUOUS
10
4.2047851610
20
6.6768682182
40
0.5499936544
100
AcDbArc
50
270.0000000000
51
360.0000000000
0
ARC
5
486
100
AcDbEntity
8
0
100
AcDbCircle
62
9
6
CONTINUOUS
10
-1.9952148390
20
11.7268682182
40
0.1999984797
100
AcDbArc
50
180.0000000000
51
360.0000000000
0
ARC
5
487
100
AcDbEntity
8
0
100
AcDbCircle
62
7
6
CONTINUOUS
10
1.9380513958
20
-31.8075983357
40
0.2000000000
100
AcDbArc
50
196.9854272590
51
270.0000000000
0
ARC
5
488
100
AcDbEntity
8
0
100
AcDbCircle
62
7
6
CONTINUOUS
10
-5.9284810738
20
-31.8075983357
40
0.2000000000
100
AcDbArc
50
270.0000000000
51
343.0145727410
0
ARC
5
489
100
AcDbEntity
8
0
100
AcDbCircle
62
7
6
CONTINUOUS
10
-5.9284810738
20
15.7613347720
40
0.2000000000
100
AcDbArc
50
16.9854272590
51
90.0000000000
0
ARC
5
48A
100
AcDbEntity
8
0
100
AcDbCircle
62
7
6
CONTINUOUS
10
1.9380513958
20
15.7613347720
40
0.2000000000
100
AcDbArc
50
90.0000000000
51
163.0145727410
0
SPLINE
5
48B
100
AcDbEntity
8
0
100
AcDbSpline
62
7
6
CONTINUOUS
70
0
71
3
72
24
73
20
74
18
42
0.0000001000
43
0.0000001000
44
0.0000000001
12
0.3659311517
22
0.0000000000
32
0.0000000000
13
0.0102264250
23
-0.3657882213
33
0.0000000000
40
0.0000000000
40
0.0000000000
40
0.0000000000
40
0.0000000000
40
0.0020002757
40
0.0062443427
40
0.0130011176
40
0.0223031600
40
0.0341454197
40
0.0485119188
40
0.0847338933
40
0.1307262049
40
0.1859832621
40
0.2499323389
40
0.3219985204
40
0.4015577042
40
0.4877928750
40
0.5798385094
40
0.6768288026
40
0.8819788285
40
1.0000000000
40
1.0000000000
40
1.0000000000
40
1.0000000000
10
1.4223282396
20
-28.0075983357
30
0.0000000000
10
1.4225722274
20
-28.0075983357
30
0.0000000000
10
1.4230974100
20
-28.0083726784
30
0.0000000000
10
1.4235080787
20
-28.0097921309
30
0.0000000000
10
1.4240643089
20
-28.0122658004
30
0.0000000000
10
1.4245742688
20
-28.0156075721
30
0.0000000000
10
1.4251158525
20
-28.0199145001
30
0.0000000000
10
1.4258918857
20
-28.0274862151
30
0.0000000000
10
1.4268284462
20
-28.0392334094
30
0.0000000000
10
1.4278942412
20
-28.0559669616
30
0.0000000000
10
1.4289683677
20
-28.0760894290
30
0.0000000000
10
1.4300480227
20
-28.0993952461
30
0.0000000000
10
1.4311307234
20
-28.1256682151
30
0.0000000000
10
1.4322143513
20
-28.1546615348
30
0.0000000000
10
1.4332996962
20
-28.1860933990
30
0.0000000000
10
1.4343863826
20
-28.2196525842
30
0.0000000000
10
1.4358639534
20
-28.2677115322
30
0.0000000000
10
1.4373446004
20
-28.3189402301
30
0.0000000000
10
1.4384514762
20
-28.3583441564
30
0.0000000000
10
1.4388537877
20
-28.3727344078
30
0.0000000000
11
1.4223282396
21
-28.0075983357
31
0.0000000000
11
1.4228750438
21
-28.0080849314
31
0.0000000000
11
1.4234218479
21
-28.0095385225
31
0.0000000000
11
1.4239686521
21
-28.0119498152
31
0.0000000000
11
1.4245154562
21
-28.0153095159
31
0.0000000000
11
1.4250622604
21
-28.0196083308
31
0.0000000000
11
1.4256090645
21
-28.0248369660
31
0.0000000000
11
1.4267026728
21
-28.0380465227
31
0.0000000000
11
1.4277962811
21
-28.0548409736
31
0.0000000000
11
1.4288898894
21
-28.0750316567
31
0.0000000000
11
1.4299834977
21
-28.0984070480
31
0.0000000000
11
1.4310771060
21
-28.1247556233
31
0.0000000000
11
1.4321707143
21
-28.1538482596
31
0.0000000000
11
1.4332643226
21
-28.1853854392
31
0.0000000000
11
1.4343579309
21
-28.2190500458
31
0.0000000000
11
1.4354515392
21
-28.2545249628
31
0.0000000000
11
1.4376387557
21
-28.3295638785
31
0.0000000000
11
1.4388537877
21
-28.3727344078
31
0.0000000000
0
SPLINE
5
48C
100
AcDbEntity
8
0
100
AcDbSpline
62
7
6
CONTINUOUS
70
0
71
3
72
8
73
4
74
2
42
0.0000001000
43
0.0000001000
44
0.0000000001
12
0.0009746968
22
-0.0348638576
32
0.0000000000
13
0.0009709093
23
-0.0348639640
33
0.0000000000
40
0.0000000000
40
0.0000000000
40
0.0000000000
40
0.0000000000
40
1.0000000000
40
1.0000000000
40
1.0000000000
40
1.0000000000
10
1.4388537877
20
-28.3727344078
30
0.0000000000
10
1.4391786867
20
-28.3843556937
30
0.0000000000
10
1.4395023359
20
-28.3959770144
30
0.0000000000
10
1.4398259723
20
-28.4075983357
30
0.0000000000
11
1.4388537877
21
-28.3727344078
31
0.0000000000
11
1.4398259723
21
-28.4075983357
31
0.0000000000
0
SPLINE
5
48D
100
AcDbEntity
8
0
100
AcDbSpline
62
7
6
CONTINUOUS
70
0
71
3
72
8
73
4
74
2
42
0.0000001000
43
0.0000001000
44
0.0000000001
12
0.0009709093
22
0.0348639640
32
0.0000000000
13
0.0009746968
23
0.0348638576
33
0.0000000000
40
0.0000000000
40
0.0000000000
40
0.0000000000
40
0.0000000000
40
1.0000000000
40
1.0000000000
40
1.0000000000
40
1.0000000000
10
-5.4302556503
20
-28.4075983357
30
0.0000000000
10
-5.4299320138
20
-28.3959770144
30
0.0000000000
10
-5.4296083646
20
-28.3843556937
30
0.0000000000
10
-5.4292834657
20
-28.3727344078
30
0.0000000000
11
-5.4302556503
21
-28.4075983357
31
0.0000000000
11
-5.4292834657
21
-28.3727344078
31
0.0000000000
0
SPLINE
5
48E
100
AcDbEntity
8
0
100
AcDbSpline
62
7
6
CONTINUOUS
70
0
71
3
72
24
73
20
74
18
42
0.0000001000
43
0.0000001000
44
0.0000000001
12
0.0102264250
22
0.3657882213
32
0.0000000000
13
0.3659311517
23
0.0000000000
33
0.0000000000
40
0.0000000000
40
0.0000000000
40
0.0000000000
40
0.0000000000
40
0.1180211715
40
0.3231711974
40
0.4201614906
40
0.5122071250
40
0.5984422958
40
0.6780014796
40
0.7500676611
40
0.8140167379
40
0.8692737951
40
0.9152661067
40
0.9514880812
40
0.9658545803
40
0.9776968400
40
0.9869988824
40
0.9937556573
40
0.9979997243
40
1.0000000000
40
1.0000000000
40
1.0000000000
40
1.0000000000
10
-5.4292834657
20
-28.3727344078
30
0.0000000000
10
-5.4288811541
20
-28.3583441564
30
0.0000000000
10
-5.4277742783
20
-28.3189402301
30
0.0000000000
10
-5.4262936314
20
-28.2677115322
30
0.0000000000
10
-5.4248160605
20
-28.2196525842
30
0.0000000000
10
-5.4237293741
20
-28.1860933990
30
0.0000000000
10
-5.4226440292
20
-28.1546615348
30
0.0000000000
10
-5.4215604014
20
-28.1256682151
30
0.0000000000
10
-5.4204777006
20
-28.0993952461
30
0.0000000000
10
-5.4193980457
20
-28.0760894290
30
0.0000000000
10
-5.4183239191
20
-28.0559669616
30
0.0000000000
10
-5.4172581242
20
-28.0392334094
30
0.0000000000
10
-5.4163215637
20
-28.0274862151
30
0.0000000000
10
-5.4155455305
20
-28.0199145001
30
0.0000000000
10
-5.4150039467
20
-28.0156075721
30
0.0000000000
10
-5.4144939869
20
-28.0122658004
30
0.0000000000
10
-5.4139377566
20
-28.0097921309
30
0.0000000000
10
-5.4135270879
20
-28.0083726784
30
0.0000000000
10
-5.4130019053
20
-28.0075983357
30
0.0000000000
10
-5.4127579176
20
-28.0075983357
30
0.0000000000
11
-5.4292834657
21
-28.3727344078
31
0.0000000000
11
-5.4280684337
21
-28.3295638785
31
0.0000000000
11
-5.4258812171
21
-28.2545249628
31
0.0000000000
11
-5.4247876088
21
-28.2190500458
31
0.0000000000
11
-5.4236940005
21
-28.1853854392
31
0.0000000000
11
-5.4226003922
21
-28.1538482596
31
0.0000000000
11
-5.4215067839
21
-28.1247556233
31
0.0000000000
11
-5.4204131756
21
-28.0984070480
31
0.0000000000
11
-5.4193195673
21
-28.0750316567
31
0.0000000000
11
-5.4182259590
21
-28.0548409736
31
0.0000000000
11
-5.4171323507
21
-28.0380465227
31
0.0000000000
11
-5.4160387425
21
-28.0248369660
31
0.0000000000
11
-5.4154919383
21
-28.0196083308
31
0.0000000000
11
-5.4149451342
21
-28.0153095159
31
0.0000000000
11
-5.4143983300
21
-28.0119498152
31
0.0000000000
11
-5.4138515259
21
-28.0095385225
31
0.0000000000
11
-5.4133047217
21
-28.0080849314
31
0.0000000000
11
-5.4127579176
21
-28.0075983357
31
0.0000000000
0
SPLINE
5
48F
100
AcDbEntity
8
0
100
AcDbSpline
62
7
6
CONTINUOUS
70
0
71
3
72
15
73
11
74
9
42
0.0000001000
43
0.0000001000
44
0.0000000001
12
0.2198589173
22
0.0000000000
32
0.0000000000
13
0.0000000000
23
-0.2198589173
33
0.0000000000
40
0.0000000000
40
0.0000000000
40
0.0000000000
40
0.0000000000
40
0.1775508236
40
0.3489475586
40
0.5083491360
40
0.6505618283
40
0.7714455810
40
0.8685458831
40
0.9424410166
40
1.0000000000
40
1.0000000000
40
1.0000000000
40
1.0000000000
10
2.3047851610
20
-31.8660077956
30
0.0000000000
10
2.3177972050
20
-31.8660077956
30
0.0000000000
10
2.3433775442
20
-31.8667727587
30
0.0000000000
10
2.3804999053
20
-31.8701890600
30
0.0000000000
10
2.4147540220
20
-31.8757254611
30
0.0000000000
10
2.4448506908
20
-31.8831626808
30
0.0000000000
10
2.4697430115
20
-31.8921809185
30
0.0000000000
10
2.4885750127
20
-31.9025307754
30
0.0000000000
10
2.5012025964
20
-31.9139779386
30
0.0000000000
10
2.5047851610
20
-31.9235929092
30
0.0000000000
10
2.5047851610
20
-31.9278111945
30
0.0000000000
11
2.3047851610
21
-31.8660077956
31
0.0000000000
11
2.3438032254
21
-31.8671953306
31
0.0000000000
11
2.3813218475
21
-31.8707122992
31
0.0000000000
11
2.4158992076
21
-31.8764235464
31
0.0000000000
11
2.4462065173
21
-31.8841095920
31
0.0000000000
11
2.4710790835
21
-31.8934750657
31
0.0000000000
11
2.4895610675
21
-31.9041600577
31
0.0000000000
11
2.5009422171
21
-31.9157539495
31
0.0000000000
11
2.5047851610
21
-31.9278111945
31
0.0000000000
0
SPLINE
5
490
100
AcDbEntity
8
0
100
AcDbSpline
62
7
6
CONTINUOUS
70
0
71
3
72
15
73
11
74
9
42
0.0000001000
43
0.0000001000
44
0.0000000001
12
0.2198589173
22
0.0000000000
32
0.0000000000
13
0.0000000000
23
-0.2198589173
33
0.0000000000
40
0.0000000000
40
0.0000000000
40
0.0000000000
40
0.0000000000
40
0.1775508236
40
0.3489475586
40
0.5083491360
40
0.6505618283
40
0.7714455810
40
0.8685458831
40
0.9424410166
40
1.0000000000
40
1.0000000000
40
1.0000000000
40
1.0000000000
10
-3.3952148390
20
-31.8660077956
30
0.0000000000
10
-3.3822027950
20
-31.8660077956
30
0.0000000000
10
-3.3566224558
20
-31.8667727587
30
0.0000000000
10
-3.3195000947
20
-31.8701890600
30
0.0000000000
10
-3.2852459780
20
-31.8757254611
30
0.0000000000
10
-3.2551493092
20
-31.8831626808
30
0.0000000000
10
-3.2302569885
20
-31.8921809185
30
0.0000000000
10
-3.2114249873
20
-31.9025307754
30
0.0000000000
10
-3.1987974036
20
-31.9139779386
30
0.0000000000
10
-3.1952148390
20
-31.9235929092
30
0.0000000000
10
-3.1952148390
20
-31.9278111945
30
0.0000000000
11
-3.3952148390
21
-31.8660077956
31
0.0000000000
11
-3.3561967746
21
-31.8671953306
31
0.0000000000
11
-3.3186781525
21
-31.8707122992
31
0.0000000000
11
-3.2841007924
21
-31.8764235464
31
0.0000000000
11
-3.2537934827
21
-31.8841095920
31
0.0000000000
11
-3.2289209165
21
-31.8934750657
31
0.0000000000
11
-3.2104389325
21
-31.9041600577
31
0.0000000000
11
-3.1990577829
21
-31.9157539495
31
0.0000000000
11
-3.1952148390
21
-31.9278111945
31
0.0000000000
0
SPLINE
5
491
100
AcDbEntity
8
0
100
AcDbSpline
62
7
6
CONTINUOUS
70
0
71
3
72
15
73
11
74
9
42
0.0000001000
43
0.0000001000
44
0.0000000001
12
0.0000000000
22
0.2198589173
32
0.0000000000
13
0.2198589173
23
0.0000000000
33
0.0000000000
40
0.0000000000
40
0.0000000000
40
0.0000000000
40
0.0000000000
40
0.0575589834
40
0.1314541169
40
0.2285544190
40
0.3494381717
40
0.4916508640
40
0.6510524414
40
0.8224491764
40
1.0000000000
40
1.0000000000
40
1.0000000000
40
1.0000000000
10
-0.7952148390
20
-31.9278111945
30
0.0000000000
10
-0.7952148390
20
-31.9235929092
30
0.0000000000
10
-0.7916322743
20
-31.9139779386
30
0.0000000000
10
-0.7790046906
20
-31.9025307754
30
0.0000000000
10
-0.7601726894
20
-31.8921809185
30
0.0000000000
10
-0.7352803687
20
-31.8831626808
30
0.0000000000
10
-0.7051837000
20
-31.8757254611
30
0.0000000000
10
-0.6709295832
20
-31.8701890600
30
0.0000000000
10
-0.6338072222
20
-31.8667727587
30
0.0000000000
10
-0.6082268829
20
-31.8660077956
30
0.0000000000
10
-0.5952148390
20
-31.8660077956
30
0.0000000000
11
-0.7952148390
21
-31.9278111945
31
0.0000000000
11
-0.7913718951
21
-31.9157539495
31
0.0000000000
11
-0.7799907455
21
-31.9041600577
31
0.0000000000
11
-0.7615087614
21
-31.8934750657
31
0.0000000000
11
-0.7366361952
21
-31.8841095920
31
0.0000000000
11
-0.7063288856
21
-31.8764235464
31
0.0000000000
11
-0.6717515254
21
-31.8707122992
31
0.0000000000
11
-0.6342329034
21
-31.8671953306
31
0.0000000000
11
-0.5952148390
21
-31.8660077956
31
0.0000000000
0
SPLINE
5
492
100
AcDbEntity
8
0
100
AcDbSpline
62
7
6
CONTINUOUS
70
0
71
3
72
15
73
11
74
9
42
0.0000001000
43
0.0000001000
44
0.0000000001
12
0.0000000000
22
0.2198589173
32
0.0000000000
13
0.2198589173
23
-0.0000000000
33
0.0000000000
40
0.0000000000
40
0.0000000000
40
0.0000000000
40
0.0000000000
40
0.0575589834
40
0.1314541169
40
0.2285544190
40
0.3494381717
40
0.4916508640
40
0.6510524414
40
0.8224491764
40
1.0000000000
40
1.0000000000
40
1.0000000000
40
1.0000000000
10
-6.4952148390
20
-31.9278111945
30
0.0000000000
10
-6.4952148390
20
-31.9235929092
30
0.0000000000
10
-6.4916322743
20
-31.9139779386
30
0.0000000000
10
-6.4790046906
20
-31.9025307754
30
0.0000000000
10
-6.4601726894
20
-31.8921809185
30
0.0000000000
10
-6.4352803687
20
-31.8831626808
30
0.0000000000
10
-6.4051837000
20
-31.8757254611
30
0.0000000000
10
-6.3709295832
20
-31.8701890600
30
0.0000000000
10
-6.3338072222
20
-31.8667727587
30
0.0000000000
10
-6.3082268829
20
-31.8660077956
30
0.0000000000
10
-6.2952148390
20
-31.8660077956
30
0.0000000000
11
-6.4952148390
21
-31.9278111945
31
0.0000000000
11
-6.4913718951
21
-31.9157539495
31
0.0000000000
11
-6.4799907455
21
-31.9041600577
31
0.0000000000
11
-6.4615087614
21
-31.8934750657
31
0.0000000000
11
-6.4366361952
21
-31.8841095920
31
0.0000000000
11
-6.4063288856
21
-31.8764235464
31
0.0000000000
11
-6.3717515254
21
-31.8707122992
31
0.0000000000
11
-6.3342329034
21
-31.8671953306
31
0.0000000000
11
-6.2952148390
21
-31.8660077956
31
0.0000000000
0
SPLINE
5
493
100
AcDbEntity
8
0
100
AcDbSpline
62
7
6
CONTINUOUS
70
0
71
3
72
15
73
11
74
9
42
0.0000001000
43
0.0000001000
44
0.0000000001
12
0.0000000000
22
-0.2198589173
32
0.0000000000
13
-0.2198589173
23
0.0000000000
33
0.0000000000
40
0.0000000000
40
0.0000000000
40
0.0000000000
40
0.0000000000
40
0.0575589834
40
0.1314541169
40
0.2285544190
40
0.3494381717
40
0.4916508640
40
0.6510524414
40
0.8224491764
40
1.0000000000
40
1.0000000000
40
1.0000000000
40
1.0000000000
10
-5.7452148390
20
-30.7769663919
30
0.0000000000
10
-5.7452148390
20
-30.7811846771
30
0.0000000000
10
-5.7487974036
20
-30.7907996477
30
0.0000000000
10
-5.7614249873
20
-30.8022468109
30
0.0000000000
10
-5.7802569885
20
-30.8125966678
30
0.0000000000
10
-5.8051493092
20
-30.8216149056
30
0.0000000000
10
-5.8352459780
20
-30.8290521253
30
0.0000000000
10
-5.8695000947
20
-30.8345885263
30
0.0000000000
10
-5.9066224558
20
-30.8380048277
30
0.0000000000
10
-5.9322027950
20
-30.8387697908
30
0.0000000000
10
-5.9452148390
20
-30.8387697908
30
0.0000000000
11
-5.7452148390
21
-30.7769663919
31
0.0000000000
11
-5.7490577829
21
-30.7890236369
31
0.0000000000
11
-5.7604389325
21
-30.8006175287
31
0.0000000000
11
-5.7789209165
21
-30.8113025206
31
0.0000000000
11
-5.8037934827
21
-30.8206679943
31
0.0000000000
11
-5.8341007924
21
-30.8283540400
31
0.0000000000
11
-5.8686781525
21
-30.8340652871
31
0.0000000000
11
-5.9061967746
21
-30.8375822558
31
0.0000000000
11
-5.9452148390
21
-30.8387697908
31
0.0000000000
0
SPLINE
5
494
100
AcDbEntity
8
0
100
AcDbSpline
62
7
6
CONTINUOUS
70
0
71
3
72
15
73
11
74
9
42
0.0000001000
43
0.0000001000
44
0.0000000001
12
-0.2198589173
22
0.0000000000
32
0.0000000000
13
0.0000000000
23
0.2198589173
33
0.0000000000
40
0.0000000000
40
0.0000000000
40
0.0000000000
40
0.0000000000
40
0.1775508236
40
0.3489475586
40
0.5083491360
40
0.6505618283
40
0.7714455810
40
0.8685458831
40
0.9424410166
40
1.0000000000
40
1.0000000000
40
1.0000000000
40
1.0000000000
10
1.9547851610
20
-30.8387697908
30
0.0000000000
10
1.9417731171
20
-30.8387697908
30
0.0000000000
10
1.9161927778
20
-30.8380048277
30
0.0000000000
10
1.8790704168
20
-30.8345885263
30
0.0000000000
10
1.8448163000
20
-30.8290521253
30
0.0000000000
10
1.8147196313
20
-30.8216149056
30
0.0000000000
10
1.7898273106
20
-30.8125966678
30
0.0000000000
10
1.7709953094
20
-30.8022468109
30
0.0000000000
10
1.7583677257
20
-30.7907996477
30
0.0000000000
10
1.7547851610
20
-30.7811846771
30
0.0000000000
10
1.7547851610
20
-30.7769663919
30
0.0000000000
11
1.9547851610
21
-30.8387697908
31
0.0000000000
11
1.9157670966
21
-30.8375822558
31
0.0000000000
11
1.8782484746
21
-30.8340652871
31
0.0000000000
11
1.8436711144
21
-30.8283540400
31
0.0000000000
11
1.8133638048
21
-30.8206679943
31
0.0000000000
11
1.7884912386
21
-30.8113025206
31
0.0000000000
11
1.7700092545
21
-30.8006175287
31
0.0000000000
11
1.7586281049
21
-30.7890236369
31
0.0000000000
11
1.7547851610
21
-30.7769663919
31
0.0000000000
0
SPLINE
5
495
100
AcDbEntity
8
0
100
AcDbSpline
62
7
6
CONTINUOUS
70
0
71
3
72
15
73
11
74
9
42
0.0000001000
43
0.0000001000
44
0.0000000001
12
-0.2198589173
22
0.0000000000
32
0.0000000000
13
-0.0000000000
23
0.2198589173
33
0.0000000000
40
0.0000000000
40
0.0000000000
40
0.0000000000
40
0.0000000000
40
0.1775508236
40
0.3489475586
40
0.5083491360
40
0.6505618283
40
0.7714455810
40
0.8685458831
40
0.9424410166
40
1.0000000000
40
1.0000000000
40
1.0000000000
40
1.0000000000
10
-0.5952148390
20
-32.8857638770
30
0.0000000000
10
-0.6082268829
20
-32.8857638770
30
0.0000000000
10
-0.6338072222
20
-32.8849989140
30
0.0000000000
10
-0.6709295832
20
-32.8815826126
30
0.0000000000
10
-0.7051837000
20
-32.8760462116
30
0.0000000000
10
-0.7352803687
20
-32.8686089918
30
0.0000000000
10
-0.7601726894
20
-32.8595907541
30
0.0000000000
10
-0.7790046906
20
-32.8492408972
30
0.0000000000
10
-0.7916322743
20
-32.8377937340
30
0.0000000000
10
-0.7952148390
20
-32.8281787634
30
0.0000000000
10
-0.7952148390
20
-32.8239604782
30
0.0000000000
11
-0.5952148390
21
-32.8857638770
31
0.0000000000
11
-0.6342329034
21
-32.8845763420
31
0.0000000000
11
-0.6717515254
21
-32.8810593734
31
0.0000000000
11
-0.7063288856
21
-32.8753481263
31
0.0000000000
11
-0.7366361952
21
-32.8676620806
31
0.0000000000
11
-0.7615087614
21
-32.8582966069
31
0.0000000000
11
-0.7799907455
21
-32.8476116150
31
0.0000000000
11
-0.7913718951
21
-32.8360177231
31
0.0000000000
11
-0.7952148390
21
-32.8239604782
31
0.0000000000
0
SPLINE
5
496
100
AcDbEntity
8
0
100
AcDbSpline
62
7
6
CONTINUOUS
70
0
71
3
72
15
73
11
74
9
42
0.0000001000
43
0.0000001000
44
0.0000000001
12
-0.0014006394
22
0.2483099203
32
0.0000000000
13
0.2483138706
23
0.0000000000
33
0.0000000000
40
0.0000000000
40
0.0000000000
40
0.0000000000
40
0.0000000000
40
0.0926202882
40
0.1777653558
40
0.2617319066
40
0.3526553716
40
0.4603908153
40
0.5958910118
40
0.7707964804
40
1.0000000000
40
1.0000000000
40
1.0000000000
40
1.0000000000
10
1.7547851610
20
-28.5013725609
30
0.0000000000
10
1.7547419185
20
-28.4937063821
30
0.0000000000
10
1.7561621476
20
-28.4789026920
30
0.0000000000
10
1.7639681589
20
-28.4583470053
30
0.0000000000
10
1.7779068041
20
-28.4414562108
30
0.0000000000
10
1.7976770983
20
-28.4284597623
30
0.0000000000
10
1.8237569393
20
-28.4187758111
30
0.0000000000
10
1.8578014639
20
-28.4120228170
30
0.0000000000
10
1.9023519729
20
-28.4081478660
30
0.0000000000
10
1.9358136900
20
-28.4075983357
30
0.0000000000
10
1.9547851610
20
-28.4075983357
30
0.0000000000
11
1.7547851610
21
-28.5013725609
31
0.0000000000
11
1.7572755782
21
-28.4785088926
31
0.0000000000
11
1.7650226726
21
-28.4588366699
31
0.0000000000
11
1.7781929876
21
-28.4426728902
31
0.0000000000
11
1.7968378852
21
-28.4299404947
31
0.0000000000
11
1.8217509415
21
-28.4201926694
31
0.0000000000
11
1.8546606816
21
-28.4131897246
31
0.0000000000
11
1.8978874837
21
-28.4089784577
31
0.0000000000
11
1.9547851610
21
-28.4075983357
31
0.0000000000
0
SPLINE
5
497
100
AcDbEntity
8
0
100
AcDbSpline
62
7
6
CONTINUOUS
70
0
71
3
72
15
73
11
74
9
42
0.0000001000
43
0.0000001000
44
0.0000000001
12
0.0000000000
22
-0.2198589173
32
0.0000000000
13
-0.2198589173
23
-0.0000000000
33
0.0000000000
40
0.0000000000
40
0.0000000000
40
0.0000000000
40
0.0000000000
40
0.0575589834
40
0.1314541169
40
0.2285544190
40
0.3494381717
40
0.4916508640
40
0.6510524414
40
0.8224491764
40
1.0000000000
40
1.0000000000
40
1.0000000000
40
1.0000000000
10
2.5047851610
20
-32.8239604782
30
0.0000000000
10
2.5047851610
20
-32.8281787634
30
0.0000000000
10
2.5012025964
20
-32.8377937340
30
0.0000000000
10
2.4885750127
20
-32.8492408972
30
0.0000000000
10
2.4697430115
20
-32.8595907541
30
0.0000000000
10
2.4448506908
20
-32.8686089918
30
0.0000000000
10
2.4147540220
20
-32.8760462116
30
0.0000000000
10
2.3804999053
20
-32.8815826126
30
0.0000000000
10
2.3433775442
20
-32.8849989140
30
0.0000000000
10
2.3177972050
20
-32.8857638770
30
0.0000000000
10
2.3047851610
20
-32.8857638770
30
0.0000000000
11
2.5047851610
21
-32.8239604782
31
0.0000000000
11
2.5009422171
21
-32.8360177231
31
0.0000000000
11
2.4895610675
21
-32.8476116150
31
0.0000000000
11
2.4710790835
21
-32.8582966069
31
0.0000000000
11
2.4462065173
21
-32.8676620806
31
0.0000000000
11
2.4158992076
21
-32.8753481263
31
0.0000000000
11
2.3813218475
21
-32.8810593734
31
0.0000000000
11
2.3438032254
21
-32.8845763420
31
0.0000000000
11
2.3047851610
21
-32.8857638770
31
0.0000000000
0
SPLINE
5
498
100
AcDbEntity
8
0
100
AcDbSpline
62
7
6
CONTINUOUS
70
0
71
3
72
15
73
11
74
9
42
0.0000001000
43
0.0000001000
44
0.0000000001
12
0.2483138888
22
0.0000000000
32
0.0000000000
13
-0.0014001197
23
-0.2483099414
33
0.0000000000
40
0.0000000000
40
0.0000000000
40
0.0000000000
40
0.0000000000
40
0.2292119856
40
0.4041239592
40
0.5396273611
40
0.6473625758
40
0.7382831531
40
0.8222452540
40
0.9073850020
40
1.0000000000
40
1.0000000000
40
1.0000000000
40
1.0000000000
10
-5.9452148390
20
-28.4075983357
30
0.0000000000
10
-5.9262426658
20
-28.4075983357
30
0.0000000000
10
-5.8927797055
20
-28.4081479032
30
0.0000000000
10
-5.8482277033
20
-28.4120232102
30
0.0000000000
10
-5.8141824865
20
-28.4187768706
30
0.0000000000
10
-5.7881029043
20
-28.4284616388
30
0.0000000000
10
-5.7683337410
20
-28.4414587071
30
0.0000000000
10
-5.7543966430
20
-28.4583493598
30
0.0000000000
10
-5.7465916628
20
-28.4789040266
30
0.0000000000
10
-5.7451716149
20
-28.4937068193
30
0.0000000000
10
-5.7452148390
20
-28.5013725609
30
0.0000000000
11
-5.9452148390
21
-28.4075983357
31
0.0000000000
11
-5.8883150575
21
-28.4089785766
31
0.0000000000
11
-5.8450866715
21
-28.4131902759
31
0.0000000000
11
-5.8121762690
21
-28.4201939437
31
0.0000000000
11
-5.7872635804
21
-28.4299425583
31
0.0000000000
11
-5.7686198707
21
-28.4426754247
31
0.0000000000
11
-5.7554510117
21
-28.4588389673
31
0.0000000000
11
-5.7477049509
21
-28.4785101791
31
0.0000000000
11
-5.7452148390
21
-28.5013725609
31
0.0000000000
0
SPLINE
5
499
100
AcDbEntity
8
0
100
AcDbSpline
62
7
6
CONTINUOUS
70
0
71
3
72
15
73
11
74
9
42
0.0000001000
43
0.0000001000
44
0.0000000001
12
-0.2198589173
22
0.0000000000
32
0.0000000000
13
0.0000000000
23
0.2198589173
33
0.0000000000
40
0.0000000000
40
0.0000000000
40
0.0000000000
40
0.0000000000
40
0.1775508236
40
0.3489475586
40
0.5083491360
40
0.6505618283
40
0.7714455810
40
0.8685458831
40
0.9424410166
40
1.0000000000
40
1.0000000000
40
1.0000000000
40
1.0000000000
10
-6.2952148390
20
-32.8857638770
30
0.0000000000
10
-6.3082268829
20
-32.8857638770
30
0.0000000000
10
-6.3338072222
20
-32.8849989140
30
0.0000000000
10
-6.3709295832
20
-32.8815826126
30
0.0000000000
10
-6.4051837000
20
-32.8760462116
30
0.0000000000
10
-6.4352803687
20
-32.8686089918
30
0.0000000000
10
-6.4601726894
20
-32.8595907541
30
0.0000000000
10
-6.4790046906
20
-32.8492408972
30
0.0000000000
10
-6.4916322743
20
-32.8377937340
30
0.0000000000
10
-6.4952148390
20
-32.8281787634
30
0.0000000000
10
-6.4952148390
20
-32.8239604782
30
0.0000000000
11
-6.2952148390
21
-32.8857638770
31
0.0000000000
11
-6.3342329034
21
-32.8845763420
31
0.0000000000
11
-6.3717515254
21
-32.8810593734
31
0.0000000000
11
-6.4063288856
21
-32.8753481263
31
0.0000000000
11
-6.4366361952
21
-32.8676620806
31
0.0000000000
11
-6.4615087614
21
-32.8582966069
31
0.0000000000
11
-6.4799907455
21
-32.8476116150
31
0.0000000000
11
-6.4913718951
21
-32.8360177231
31
0.0000000000
11
-6.4952148390
21
-32.8239604782
31
0.0000000000
0
SPLINE
5
49A
100
AcDbEntity
8
0
100
AcDbSpline
62
7
6
CONTINUOUS
70
0
71
3
72
15
73
11
74
9
42
0.0000001000
43
0.0000001000
44
0.0000000001
12
0.0000000000
22
-0.2198589173
32
0.0000000000
13
-0.2198589173
23
0.0000000000
33
0.0000000000
40
0.0000000000
40
0.0000000000
40
0.0000000000
40
0.0000000000
40
0.0575589834
40
0.1314541169
40
0.2285544190
40
0.3494381717
40
0.4916508640
40
0.6510524414
40
0.8224491764
40
1.0000000000
40
1.0000000000
40
1.0000000000
40
1.0000000000
10
-3.1952148390
20
-32.8239604782
30
0.0000000000
10
-3.1952148390
20
-32.8281787634
30
0.0000000000
10
-3.1987974036
20
-32.8377937340
30
0.0000000000
10
-3.2114249873
20
-32.8492408972
30
0.0000000000
10
-3.2302569885
20
-32.8595907541
30
0.0000000000
10
-3.2551493092
20
-32.8686089918
30
0.0000000000
10
-3.2852459780
20
-32.8760462116
30
0.0000000000
10
-3.3195000947
20
-32.8815826126
30
0.0000000000
10
-3.3566224558
20
-32.8849989140
30
0.0000000000
10
-3.3822027950
20
-32.8857638770
30
0.0000000000
10
-3.3952148390
20
-32.8857638770
30
0.0000000000
11
-3.1952148390
21
-32.8239604782
31
0.0000000000
11
-3.1990577829
21
-32.8360177231
31
0.0000000000
11
-3.2104389325
21
-32.8476116150
31
0.0000000000
11
-3.2289209165
21
-32.8582966069
31
0.0000000000
11
-3.2537934827
21
-32.8676620806
31
0.0000000000
11
-3.2841007924
21
-32.8753481263
31
0.0000000000
11
-3.3186781525
21
-32.8810593734
31
0.0000000000
11
-3.3561967746
21
-32.8845763420
31
0.0000000000
11
-3.3952148390
21
-32.8857638770
31
0.0000000000
0
SPLINE
5
49B
100
AcDbEntity
8
0
100
AcDbSpline
62
7
6
CONTINUOUS
70
0
71
3
72
24
73
20
74
18
42
0.0000001000
43
0.0000001000
44
0.0000000001
12
-0.3659311517
22
0.0000000000
32
0.0000000000
13
-0.0102264250
23
0.3657882213
33
0.0000000000
40
0.0000000000
40
0.0000000000
40
0.0000000000
40
0.0000000000
40
0.0020002757
40
0.0062443427
40
0.0130011176
40
0.0223031600
40
0.0341454197
40
0.0485119188
40
0.0847338933
40
0.1307262049
40
0.1859832621
40
0.2499323389
40
0.3219985204
40
0.4015577042
40
0.4877928750
40
0.5798385094
40
0.6768288026
40
0.8819788285
40
1.0000000000
40
1.0000000000
40
1.0000000000
40
1.0000000000
10
-5.4127579176
20
11.9613347720
30
0.0000000000
10
-5.4130019053
20
11.9613347720
30
0.0000000000
10
-5.4135270879
20
11.9621091147
30
0.0000000000
10
-5.4139377566
20
11.9635285672
30
0.0000000000
10
-5.4144939869
20
11.9660022367
30
0.0000000000
10
-5.4150039467
20
11.9693440084
30
0.0000000000
10
-5.4155455305
20
11.9736509364
30
0.0000000000
10
-5.4163215637
20
11.9812226514
30
0.0000000000
10
-5.4172581242
20
11.9929698457
30
0.0000000000
10
-5.4183239191
20
12.0097033979
30
0.0000000000
10
-5.4193980457
20
12.0298258653
30
0.0000000000
10
-5.4204777006
20
12.0531316824
30
0.0000000000
10
-5.4215604014
20
12.0794046514
30
0.0000000000
10
-5.4226440292
20
12.1083979711
30
0.0000000000
10
-5.4237293741
20
12.1398298353
30
0.0000000000
10
-5.4248160605
20
12.1733890205
30
0.0000000000
10
-5.4262936314
20
12.2214479685
30
0.0000000000
10
-5.4277742783
20
12.2726766664
30
0.0000000000
10
-5.4288811541
20
12.3120805927
30
0.0000000000
10
-5.4292834657
20
12.3264708441
30
0.0000000000
11
-5.4127579176
21
11.9613347720
31
0.0000000000
11
-5.4133047217
21
11.9618213677
31
0.0000000000
11
-5.4138515259
21
11.9632749588
31
0.0000000000
11
-5.4143983300
21
11.9656862515
31
0.0000000000
11
-5.4149451342
21
11.9690459522
31
0.0000000000
11
-5.4154919383
21
11.9733447671
31
0.0000000000
11
-5.4160387425
21
11.9785734023
31
0.0000000000
11
-5.4171323507
21
11.9917829590
31
0.0000000000
11
-5.4182259590
21
12.0085774099
31
0.0000000000
11
-5.4193195673
21
12.0287680930
31
0.0000000000
11
-5.4204131756
21
12.0521434843
31
0.0000000000
11
-5.4215067839
21
12.0784920596
31
0.0000000000
11
-5.4226003922
21
12.1075846959
31
0.0000000000
11
-5.4236940005
21
12.1391218755
31
0.0000000000
11
-5.4247876088
21
12.1727864821
31
0.0000000000
11
-5.4258812171
21
12.2082613991
31
0.0000000000
11
-5.4280684337
21
12.2833003149
31
0.0000000000
11
-5.4292834657
21
12.3264708441
31
0.0000000000
0
SPLINE
5
49C
100
AcDbEntity
8
0
100
AcDbSpline
62
7
6
CONTINUOUS
70
0
71
3
72
8
73
4
74
2
42
0.0000001000
43
0.0000001000
44
0.0000000001
12
-0.0009746968
22
0.0348638576
32
0.0000000000
13
-0.0009709093
23
0.0348639640
33
0.0000000000
40
0.0000000000
40
0.0000000000
40
0.0000000000
40
0.0000000000
40
1.0000000000
40
1.0000000000
40
1.0000000000
40
1.0000000000
10
-5.4292834657
20
12.3264708441
30
0.0000000000
10
-5.4296083646
20
12.3380921300
30
0.0000000000
10
-5.4299320138
20
12.3497134507
30
0.0000000000
10
-5.4302556503
20
12.3613347720
30
0.0000000000
11
-5.4292834657
21
12.3264708441
31
0.0000000000
11
-5.4302556503
21
12.3613347720
31
0.0000000000
0
SPLINE
5
49D
100
AcDbEntity
8
0
100
AcDbSpline
62
7
6
CONTINUOUS
70
0
71
3
72
8
73
4
74
2
42
0.0000001000
43
0.0000001000
44
0.0000000001
12
-0.0009709093
22
-0.0348639640
32
0.0000000000
13
-0.0009746968
23
-0.0348638576
33
0.0000000000
40
0.0000000000
40
0.0000000000
40
0.0000000000
40
0.0000000000
40
1.0000000000
40
1.0000000000
40
1.0000000000
40
1.0000000000
10
1.4398259723
20
12.3613347720
30
0.0000000000
10
1.4395023359
20
12.3497134507
30
0.0000000000
10
1.4391786867
20
12.3380921300
30
0.0000000000
10
1.4388537877
20
12.3264708441
30
0.0000000000
11
1.4398259723
21
12.3613347720
31
0.0000000000
11
1.4388537877
21
12.3264708441
31
0.0000000000
0
SPLINE
5
49E
100
AcDbEntity
8
0
100
AcDbSpline
62
7
6
CONTINUOUS
70
0
71
3
72
24
73
20
74
18
42
0.0000001000
43
0.0000001000
44
0.0000000001
12
-0.0102264250
22
-0.3657882213
32
0.0000000000
13
-0.3659311517
23
0.0000000000
33
0.0000000000
40
0.0000000000
40
0.0000000000
40
0.0000000000
40
0.0000000000
40
0.1180211715
40
0.3231711974
40
0.4201614906
40
0.5122071250
40
0.5984422958
40
0.6780014796
40
0.7500676611
40
0.8140167379
40
0.8692737951
40
0.9152661067
40
0.9514880812
40
0.9658545803
40
0.9776968400
40
0.9869988824
40
0.9937556573
40
0.9979997243
40
1.0000000000
40
1.0000000000
40
1.0000000000
40
1.0000000000
10
1.4388537877
20
12.3264708441
30
0.0000000000
10
1.4384514762
20
12.3120805927
30
0.0000000000
10
1.4373446004
20
12.2726766664
30
0.0000000000
10
1.4358639534
20
12.2214479685
30
0.0000000000
10
1.4343863826
20
12.1733890205
30
0.0000000000
10
1.4332996962
20
12.1398298353
30
0.0000000000
10
1.4322143513
20
12.1083979711
30
0.0000000000
10
1.4311307234
20
12.0794046514
30
0.0000000000
10
1.4300480227
20
12.0531316824
30
0.0000000000
10
1.4289683677
20
12.0298258653
30
0.0000000000
10
1.4278942412
20
12.0097033979
30
0.0000000000
10
1.4268284462
20
11.9929698457
30
0.0000000000
10
1.4258918857
20
11.9812226514
30
0.0000000000
10
1.4251158525
20
11.9736509364
30
0.0000000000
10
1.4245742688
20
11.9693440084
30
0.0000000000
10
1.4240643089
20
11.9660022367
30
0.0000000000
10
1.4235080787
20
11.9635285672
30
0.0000000000
10
1.4230974100
20
11.9621091147
30
0.0000000000
10
1.4225722274
20
11.9613347720
30
0.0000000000
10
1.4223282396
20
11.9613347720
30
0.0000000000
11
1.4388537877
21
12.3264708441
31
0.0000000000
11
1.4376387557
21
12.2833003149
31
0.0000000000
11
1.4354515392
21
12.2082613991
31
0.0000000000
11
1.4343579309
21
12.1727864821
31
0.0000000000
11
1.4332643226
21
12.1391218755
31
0.0000000000
11
1.4321707143
21
12.1075846959
31
0.0000000000
11
1.4310771060
21
12.0784920596
31
0.0000000000
11
1.4299834977
21
12.0521434843
31
0.0000000000
11
1.4288898894
21
12.0287680930
31
0.0000000000
11
1.4277962811
21
12.0085774099
31
0.0000000000
11
1.4267026728
21
11.9917829590
31
0.0000000000
11
1.4256090645
21
11.9785734023
31
0.0000000000
11
1.4250622604
21
11.9733447671
31
0.0000000000
11
1.4245154562
21
11.9690459522
31
0.0000000000
11
1.4239686521
21
11.9656862515
31
0.0000000000
11
1.4234218479
21
11.9632749588
31
0.0000000000
11
1.4228750438
21
11.9618213677
31
0.0000000000
11
1.4223282396
21
11.9613347720
31
0.0000000000
0
SPLINE
5
49F
100
AcDbEntity
8
0
100
AcDbSpline
62
7
6
CONTINUOUS
70
0
71
3
72
15
73
11
74
9
42
0.0000001000
43
0.0000001000
44
0.0000000001
12
-0.2198589173
22
0.0000000000
32
0.0000000000
13
0.0000000000
23
0.2198589173
33
0.0000000000
40
0.0000000000
40
0.0000000000
40
0.0000000000
40
0.0000000000
40
0.1775508236
40
0.3489475586
40
0.5083491360
40
0.6505618283
40
0.7714455810
40
0.8685458831
40
0.9424410166
40
1.0000000000
40
1.0000000000
40
1.0000000000
40
1.0000000000
10
-6.2952148390
20
15.8197442319
30
0.0000000000
10
-6.3082268829
20
15.8197442319
30
0.0000000000
10
-6.3338072222
20
15.8205091950
30
0.0000000000
10
-6.3709295832
20
15.8239254964
30
0.0000000000
10
-6.4051837000
20
15.8294618974
30
0.0000000000
10
-6.4352803687
20
15.8368991171
30
0.0000000000
10
-6.4601726894
20
15.8459173548
30
0.0000000000
10
-6.4790046906
20
15.8562672117
30
0.0000000000
10
-6.4916322743
20
15.8677143750
30
0.0000000000
10
-6.4952148390
20
15.8773293455
30
0.0000000000
10
-6.4952148390
20
15.8815476308
30
0.0000000000
11
-6.2952148390
21
15.8197442319
31
0.0000000000
11
-6.3342329034
21
15.8209317669
31
0.0000000000
11
-6.3717515254
21
15.8244487355
31
0.0000000000
11
-6.4063288856
21
15.8301599827
31
0.0000000000
11
-6.4366361952
21
15.8378460283
31
0.0000000000
11
-6.4615087614
21
15.8472115021
31
0.0000000000
11
-6.4799907455
21
15.8578964940
31
0.0000000000
11
-6.4913718951
21
15.8694903858
31
0.0000000000
11
-6.4952148390
21
15.8815476308
31
0.0000000000
0
SPLINE
5
4A0
100
AcDbEntity
8
0
100
AcDbSpline
62
7
6
CONTINUOUS
70
0
71
3
72
15
73
11
74
9
42
0.0000001000
43
0.0000001000
44
0.0000000001
12
-0.2198589173
22
0.0000000000
32
0.0000000000
13
0.0000000000
23
0.2198589173
33
0.0000000000
40
0.0000000000
40
0.0000000000
40
0.0000000000
40
0.0000000000
40
0.1775508236
40
0.3489475586
40
0.5083491360
40
0.6505618283
40
0.7714455810
40
0.8685458831
40
0.9424410166
40
1.0000000000
40
1.0000000000
40
1.0000000000
40
1.0000000000
10
-0.5952148390
20
15.8197442319
30
0.0000000000
10
-0.6082268829
20
15.8197442319
30
0.0000000000
10
-0.6338072222
20
15.8205091950
30
0.0000000000
10
-0.6709295832
20
15.8239254964
30
0.0000000000
10
-0.7051837000
20
15.8294618974
30
0.0000000000
10
-0.7352803687
20
15.8368991171
30
0.0000000000
10
-0.7601726894
20
15.8459173548
30
0.0000000000
10
-0.7790046906
20
15.8562672117
30
0.0000000000
10
-0.7916322743
20
15.8677143750
30
0.0000000000
10
-0.7952148390
20
15.8773293455
30
0.0000000000
10
-0.7952148390
20
15.8815476308
30
0.0000000000
11
-0.5952148390
21
15.8197442319
31
0.0000000000
11
-0.6342329034
21
15.8209317669
31
0.0000000000
11
-0.6717515254
21
15.8244487355
31
0.0000000000
11
-0.7063288856
21
15.8301599827
31
0.0000000000
11
-0.7366361952
21
15.8378460283
31
0.0000000000
11
-0.7615087614
21
15.8472115021
31
0.0000000000
11
-0.7799907455
21
15.8578964940
31
0.0000000000
11
-0.7913718951
21
15.8694903858
31
0.0000000000
11
-0.7952148390
21
15.8815476308
31
0.0000000000
0
SPLINE
5
4A1
100
AcDbEntity
8
0
100
AcDbSpline
62
7
6
CONTINUOUS
70
0
71
3
72
15
73
11
74
9
42
0.0000001000
43
0.0000001000
44
0.0000000001
12
0.0000000000
22
-0.2198589173
32
0.0000000000
13
-0.2198589173
23
0.0000000000
33
0.0000000000
40
0.0000000000
40
0.0000000000
40
0.0000000000
40
0.0000000000
40
0.0575589834
40
0.1314541169
40
0.2285544190
40
0.3494381717
40
0.4916508640
40
0.6510524414
40
0.8224491764
40
1.0000000000
40
1.0000000000
40
1.0000000000
40
1.0000000000
10
-3.1952148390
20
15.8815476308
30
0.0000000000
10
-3.1952148390
20
15.8773293455
30
0.0000000000
10
-3.1987974036
20
15.8677143750
30
0.0000000000
10
-3.2114249873
20
15.8562672117
30
0.0000000000
10
-3.2302569885
20
15.8459173548
30
0.0000000000
10
-3.2551493092
20
15.8368991171
30
0.0000000000
10
-3.2852459780
20
15.8294618974
30
0.0000000000
10
-3.3195000947
20
15.8239254964
30
0.0000000000
10
-3.3566224558
20
15.8205091950
30
0.0000000000
10
-3.3822027950
20
15.8197442319
30
0.0000000000
10
-3.3952148390
20
15.8197442319
30
0.0000000000
11
-3.1952148390
21
15.8815476308
31
0.0000000000
11
-3.1990577829
21
15.8694903858
31
0.0000000000
11
-3.2104389325
21
15.8578964940
31
0.0000000000
11
-3.2289209165
21
15.8472115021
31
0.0000000000
11
-3.2537934827
21
15.8378460283
31
0.0000000000
11
-3.2841007924
21
15.8301599827
31
0.0000000000
11
-3.3186781525
21
15.8244487355
31
0.0000000000
11
-3.3561967746
21
15.8209317669
31
0.0000000000
11
-3.3952148390
21
15.8197442319
31
0.0000000000
0
SPLINE
5
4A2
100
AcDbEntity
8
0
100
AcDbSpline
62
7
6
CONTINUOUS
70
0
71
3
72
15
73
11
74
9
42
0.0000001000
43
0.0000001000
44
0.0000000001
12
0.0000000000
22
-0.2198589173
32
0.0000000000
13
-0.2198589173
23
0.0000000000
33
0.0000000000
40
0.0000000000
40
0.0000000000
40
0.0000000000
40
0.0000000000
40
0.0575589834
40
0.1314541169
40
0.2285544190
40
0.3494381717
40
0.4916508640
40
0.6510524414
40
0.8224491764
40
1.0000000000
40
1.0000000000
40
1.0000000000
40
1.0000000000
10
2.5047851610
20
15.8815476308
30
0.0000000000
10
2.5047851610
20
15.8773293455
30
0.0000000000
10
2.5012025964
20
15.8677143750
30
0.0000000000
10
2.4885750127
20
15.8562672117
30
0.0000000000
10
2.4697430115
20
15.8459173548
30
0.0000000000
10
2.4448506908
20
15.8368991171
30
0.0000000000
10
2.4147540220
20
15.8294618974
30
0.0000000000
10
2.3804999053
20
15.8239254964
30
0.0000000000
10
2.3433775442
20
15.8205091950
30
0.0000000000
10
2.3177972050
20
15.8197442319
30
0.0000000000
10
2.3047851610
20
15.8197442319
30
0.0000000000
11
2.5047851610
21
15.8815476308
31
0.0000000000
11
2.5009422171
21
15.8694903858
31
0.0000000000
11
2.4895610675
21
15.8578964940
31
0.0000000000
11
2.4710790835
21
15.8472115021
31
0.0000000000
11
2.4462065173
21
15.8378460283
31
0.0000000000
11
2.4158992076
21
15.8301599827
31
0.0000000000
11
2.3813218475
21
15.8244487355
31
0.0000000000
11
2.3438032254
21
15.8209317669
31
0.0000000000
11
2.3047851610
21
15.8197442319
31
0.0000000000
0
SPLINE
5
4A3
100
AcDbEntity
8
0
100
AcDbSpline
62
7
6
CONTINUOUS
70
0
71
3
72
15
73
11
74
9
42
0.0000001000
43
0.0000001000
44
0.0000000001
12
0.0000000000
22
0.2198589173
32
0.0000000000
13
0.2198589173
23
0.0000000000
33
0.0000000000
40
0.0000000000
40
0.0000000000
40
0.0000000000
40
0.0000000000
40
0.0575589834
40
0.1314541169
40
0.2285544190
40
0.3494381717
40
0.4916508640
40
0.6510524414
40
0.8224491764
40
1.0000000000
40
1.0000000000
40
1.0000000000
40
1.0000000000
10
1.7547851610
20
14.7307028282
30
0.0000000000
10
1.7547851610
20
14.7349211135
30
0.0000000000
10
1.7583677257
20
14.7445360840
30
0.0000000000
10
1.7709953094
20
14.7559832473
30
0.0000000000
10
1.7898273106
20
14.7663331041
30
0.0000000000
10
1.8147196313
20
14.7753513419
30
0.0000000000
10
1.8448163000
20
14.7827885616
30
0.0000000000
10
1.8790704168
20
14.7883249626
30
0.0000000000
10
1.9161927778
20
14.7917412640
30
0.0000000000
10
1.9417731171
20
14.7925062271
30
0.0000000000
10
1.9547851610
20
14.7925062271
30
0.0000000000
11
1.7547851610
21
14.7307028282
31
0.0000000000
11
1.7586281049
21
14.7427600732
31
0.0000000000
11
1.7700092545
21
14.7543539650
31
0.0000000000
11
1.7884912386
21
14.7650389569
31
0.0000000000
11
1.8133638048
21
14.7744044306
31
0.0000000000
11
1.8436711144
21
14.7820904763
31
0.0000000000
11
1.8782484746
21
14.7878017235
31
0.0000000000
11
1.9157670966
21
14.7913186921
31
0.0000000000
11
1.9547851610
21
14.7925062271
31
0.0000000000
0
SPLINE
5
4A4
100
AcDbEntity
8
0
100
AcDbSpline
62
7
6
CONTINUOUS
70
0
71
3
72
15
73
11
74
9
42
0.0000001000
43
0.0000001000
44
0.0000000001
12
0.2198589173
22
0.0000000000
32
0.0000000000
13
0.0000000000
23
-0.2198589173
33
0.0000000000
40
0.0000000000
40
0.0000000000
40
0.0000000000
40
0.0000000000
40
0.1775508236
40
0.3489475586
40
0.5083491360
40
0.6505618283
40
0.7714455810
40
0.8685458831
40
0.9424410166
40
1.0000000000
40
1.0000000000
40
1.0000000000
40
1.0000000000
10
-5.9452148390
20
14.7925062271
30
0.0000000000
10
-5.9322027950
20
14.7925062271
30
0.0000000000
10
-5.9066224558
20
14.7917412640
30
0.0000000000
10
-5.8695000947
20
14.7883249626
30
0.0000000000
10
-5.8352459780
20
14.7827885616
30
0.0000000000
10
-5.8051493092
20
14.7753513419
30
0.0000000000
10
-5.7802569885
20
14.7663331041
30
0.0000000000
10
-5.7614249873
20
14.7559832473
30
0.0000000000
10
-5.7487974036
20
14.7445360840
30
0.0000000000
10
-5.7452148390
20
14.7349211135
30
0.0000000000
10
-5.7452148390
20
14.7307028282
30
0.0000000000
11
-5.9452148390
21
14.7925062271
31
0.0000000000
11
-5.9061967746
21
14.7913186921
31
0.0000000000
11
-5.8686781525
21
14.7878017235
31
0.0000000000
11
-5.8341007924
21
14.7820904763
31
0.0000000000
11
-5.8037934827
21
14.7744044306
31
0.0000000000
11
-5.7789209165
21
14.7650389569
31
0.0000000000
11
-5.7604389325
21
14.7543539650
31
0.0000000000
11
-5.7490577829
21
14.7427600732
31
0.0000000000
11
-5.7452148390
21
14.7307028282
31
0.0000000000
0
SPLINE
5
4A5
100
AcDbEntity
8
0
100
AcDbSpline
62
7
6
CONTINUOUS
70
0
71
3
72
15
73
11
74
9
42
0.0000001000
43
0.0000001000
44
0.0000000001
12
0.2198589173
22
0.0000000000
32
0.0000000000
13
0.0000000000
23
-0.2198589173
33
0.0000000000
40
0.0000000000
40
0.0000000000
40
0.0000000000
40
0.0000000000
40
0.1775508236
40
0.3489475586
40
0.5083491360
40
0.6505618283
40
0.7714455810
40
0.8685458831
40
0.9424410166
40
1.0000000000
40
1.0000000000
40
1.0000000000
40
1.0000000000
10
-3.3952148390
20
16.8395003133
30
0.0000000000
10
-3.3822027950
20
16.8395003133
30
0.0000000000
10
-3.3566224558
20
16.8387353503
30
0.0000000000
10
-3.3195000947
20
16.8353190489
30
0.0000000000
10
-3.2852459780
20
16.8297826479
30
0.0000000000
10
-3.2551493092
20
16.8223454282
30
0.0000000000
10
-3.2302569885
20
16.8133271904
30
0.0000000000
10
-3.2114249873
20
16.8029773335
30
0.0000000000
10
-3.1987974036
20
16.7915301703
30
0.0000000000
10
-3.1952148390
20
16.7819151997
30
0.0000000000
10
-3.1952148390
20
16.7776969145
30
0.0000000000
11
-3.3952148390
21
16.8395003133
31
0.0000000000
11
-3.3561967746
21
16.8383127784
31
0.0000000000
11
-3.3186781525
21
16.8347958097
31
0.0000000000
11
-3.2841007924
21
16.8290845626
31
0.0000000000
11
-3.2537934827
21
16.8213985169
31
0.0000000000
11
-3.2289209165
21
16.8120330432
31
0.0000000000
11
-3.2104389325
21
16.8013480513
31
0.0000000000
11
-3.1990577829
21
16.7897541595
31
0.0000000000
11
-3.1952148390
21
16.7776969145
31
0.0000000000
0
SPLINE
5
4A6
100
AcDbEntity
8
0
100
AcDbSpline
62
7
6
CONTINUOUS
70
0
71
3
72
15
73
11
74
9
42
0.0000001000
43
0.0000001000
44
0.0000000001
12
0.0014006394
22
-0.2483099203
32
0.0000000000
13
-0.2483138706
23
-0.0000000000
33
0.0000000000
40
0.0000000000
40
0.0000000000
40
0.0000000000
40
0.0000000000
40
0.0926202882
40
0.1777653558
40
0.2617319066
40
0.3526553716
40
0.4603908153
40
0.5958910118
40
0.7707964804
40
1.0000000000
40
1.0000000000
40
1.0000000000
40
1.0000000000
10
-5.7452148390
20
12.4551089972
30
0.0000000000
10
-5.7451715964
20
12.4474428184
30
0.0000000000
10
-5.7465918255
20
12.4326391283
30
0.0000000000
10
-5.7543978369
20
12.4120834416
30
0.0000000000
10
-5.7683364821
20
12.3951926471
30
0.0000000000
10
-5.7881067763
20
12.3821961986
30
0.0000000000
10
-5.8141866173
20
12.3725122474
30
0.0000000000
10
-5.8482311418
20
12.3657592533
30
0.0000000000
10
-5.8927816509
20
12.3618843023
30
0.0000000000
10
-5.9262433679
20
12.3613347720
30
0.0000000000
10
-5.9452148390
20
12.3613347720
30
0.0000000000
11
-5.7452148390
21
12.4551089972
31
0.0000000000
11
-5.7477052561
21
12.4322453289
31
0.0000000000
11
-5.7554523506
21
12.4125731062
31
0.0000000000
11
-5.7686226655
21
12.3964093266
31
0.0000000000
11
-5.7872675632
21
12.3836769310
31
0.0000000000
11
-5.8121806195
21
12.3739291057
31
0.0000000000
11
-5.8450903596
21
12.3669261610
31
0.0000000000
11
-5.8883171617
21
12.3627148940
31
0.0000000000
11
-5.9452148390
21
12.3613347720
31
0.0000000000
0
SPLINE
5
4A7
100
AcDbEntity
8
0
100
AcDbSpline
62
7
6
CONTINUOUS
70
0
71
3
72
15
73
11
74
9
42
0.0000001000
43
0.0000001000
44
0.0000000001
12
0.0000000000
22
0.2198589173
32
0.0000000000
13
0.2198589173
23
0.0000000000
33
0.0000000000
40
0.0000000000
40
0.0000000000
40
0.0000000000
40
0.0000000000
40
0.0575589834
40
0.1314541169
40
0.2285544190
40
0.3494381717
40
0.4916508640
40
0.6510524414
40
0.8224491764
40
1.0000000000
40
1.0000000000
40
1.0000000000
40
1.0000000000
10
-6.4952148390
20
16.7776969145
30
0.0000000000
10
-6.4952148390
20
16.7819151997
30
0.0000000000
10
-6.4916322743
20
16.7915301703
30
0.0000000000
10
-6.4790046906
20
16.8029773335
30
0.0000000000
10
-6.4601726894
20
16.8133271904
30
0.0000000000
10
-6.4352803687
20
16.8223454282
30
0.0000000000
10
-6.4051837000
20
16.8297826479
30
0.0000000000
10
-6.3709295832
20
16.8353190489
30
0.0000000000
10
-6.3338072222
20
16.8387353503
30
0.0000000000
10
-6.3082268829
20
16.8395003133
30
0.0000000000
10
-6.2952148390
20
16.8395003133
30
0.0000000000
11
-6.4952148390
21
16.7776969145
31
0.0000000000
11
-6.4913718951
21
16.7897541595
31
0.0000000000
11
-6.4799907455
21
16.8013480513
31
0.0000000000
11
-6.4615087614
21
16.8120330432
31
0.0000000000
11
-6.4366361952
21
16.8213985169
31
0.0000000000
11
-6.4063288856
21
16.8290845626
31
0.0000000000
11
-6.3717515254
21
16.8347958097
31
0.0000000000
11
-6.3342329034
21
16.8383127784
31
0.0000000000
11
-6.2952148390
21
16.8395003133
31
0.0000000000
0
SPLINE
5
4A8
100
AcDbEntity
8
0
100
AcDbSpline
62
7
6
CONTINUOUS
70
0
71
3
72
15
73
11
74
9
42
0.0000001000
43
0.0000001000
44
0.0000000001
12
-0.2483138888
22
0.0000000000
32
0.0000000000
13
0.0014001197
23
0.2483099414
33
0.0000000000
40
0.0000000000
40
0.0000000000
40
0.0000000000
40
0.0000000000
40
0.2292119856
40
0.4041239592
40
0.5396273611
40
0.6473625758
40
0.7382831531
40
0.8222452540
40
0.9073850020
40
1.0000000000
40
1.0000000000
40
1.0000000000
40
1.0000000000
10
1.9547851610
20
12.3613347720
30
0.0000000000
10
1.9358129879
20
12.3613347720
30
0.0000000000
10
1.9023500275
20
12.3618843396
30
0.0000000000
10
1.8577980254
20
12.3657596465
30
0.0000000000
10
1.8237528086
20
12.3725133069
30
0.0000000000
10
1.7976732264
20
12.3821980751
30
0.0000000000
10
1.7779040631
20
12.3951951434
30
0.0000000000
10
1.7639669650
20
12.4120857961
30
0.0000000000
10
1.7561619848
20
12.4326404629
30
0.0000000000
10
1.7547419370
20
12.4474432556
30
0.0000000000
10
1.7547851610
20
12.4551089972
30
0.0000000000
11
1.9547851610
21
12.3613347720
31
0.0000000000
11
1.8978853796
21
12.3627150129
31
0.0000000000
11
1.8546569935
21
12.3669267122
31
0.0000000000
11
1.8217465910
21
12.3739303801
31
0.0000000000
11
1.7968339025
21
12.3836789946
31
0.0000000000
11
1.7781901927
21
12.3964118610
31
0.0000000000
11
1.7650213338
21
12.4125754036
31
0.0000000000
11
1.7572752730
21
12.4322466154
31
0.0000000000
11
1.7547851610
21
12.4551089972
31
0.0000000000
0
SPLINE
5
4A9
100
AcDbEntity
8
0
100
AcDbSpline
62
7
6
CONTINUOUS
70
0
71
3
72
15
73
11
74
9
42
0.0000001000
43
0.0000001000
44
0.0000000001
12
0.2198589173
22
0.0000000000
32
0.0000000000
13
0.0000000000
23
-0.2198589173
33
0.0000000000
40
0.0000000000
40
0.0000000000
40
0.0000000000
40
0.0000000000
40
0.1775508236
40
0.3489475586
40
0.5083491360
40
0.6505618283
40
0.7714455810
40
0.8685458831
40
0.9424410166
40
1.0000000000
40
1.0000000000
40
1.0000000000
40
1.0000000000
10
2.3047851610
20
16.8395003133
30
0.0000000000
10
2.3177972050
20
16.8395003133
30
0.0000000000
10
2.3433775442
20
16.8387353503
30
0.0000000000
10
2.3804999053
20
16.8353190489
30
0.0000000000
10
2.4147540220
20
16.8297826479
30
0.0000000000
10
2.4448506908
20
16.8223454282
30
0.0000000000
10
2.4697430115
20
16.8133271904
30
0.0000000000
10
2.4885750127
20
16.8029773335
30
0.0000000000
10
2.5012025964
20
16.7915301703
30
0.0000000000
10
2.5047851610
20
16.7819151997
30
0.0000000000
10
2.5047851610
20
16.7776969145
30
0.0000000000
11
2.3047851610
21
16.8395003133
31
0.0000000000
11
2.3438032254
21
16.8383127784
31
0.0000000000
11
2.3813218475
21
16.8347958097
31
0.0000000000
11
2.4158992076
21
16.8290845626
31
0.0000000000
11
2.4462065173
21
16.8213985169
31
0.0000000000
11
2.4710790835
21
16.8120330432
31
0.0000000000
11
2.4895610675
21
16.8013480513
31
0.0000000000
11
2.5009422171
21
16.7897541595
31
0.0000000000
11
2.5047851610
21
16.7776969145
31
0.0000000000
0
SPLINE
5
4AA
100
AcDbEntity
8
0
100
AcDbSpline
62
7
6
CONTINUOUS
70
0
71
3
72
15
73
11
74
9
42
0.0000001000
43
0.0000001000
44
0.0000000001
12
0.0000000000
22
0.2198589173
32
0.0000000000
13
0.2198589173
23
0.0000000000
33
0.0000000000
40
0.0000000000
40
0.0000000000
40
0.0000000000
40
0.0000000000
40
0.0575589834
40
0.1314541169
40
0.2285544190
40
0.3494381717
40
0.4916508640
40
0.6510524414
40
0.8224491764
40
1.0000000000
40
1.0000000000
40
1.0000000000
40
1.0000000000
10
-0.7952148390
20
16.7776969145
30
0.0000000000
10
-0.7952148390
20
16.7819151997
30
0.0000000000
10
-0.7916322743
20
16.7915301703
30
0.0000000000
10
-0.7790046906
20
16.8029773335
30
0.0000000000
10
-0.7601726894
20
16.8133271904
30
0.0000000000
10
-0.7352803687
20
16.8223454282
30
0.0000000000
10
-0.7051837000
20
16.8297826479
30
0.0000000000
10
-0.6709295832
20
16.8353190489
30
0.0000000000
10
-0.6338072222
20
16.8387353503
30
0.0000000000
10
-0.6082268829
20
16.8395003133
30
0.0000000000
10
-0.5952148390
20
16.8395003133
30
0.0000000000
11
-0.7952148390
21
16.7776969145
31
0.0000000000
11
-0.7913718951
21
16.7897541595
31
0.0000000000
11
-0.7799907455
21
16.8013480513
31
0.0000000000
11
-0.7615087614
21
16.8120330432
31
0.0000000000
11
-0.7366361952
21
16.8213985169
31
0.0000000000
11
-0.7063288856
21
16.8290845626
31
0.0000000000
11
-0.6717515254
21
16.8347958097
31
0.0000000000
11
-0.6342329034
21
16.8383127784
31
0.0000000000
11
-0.5952148390
21
16.8395003133
31
0.0000000000
0
SPLINE
5
4AB
100
AcDbEntity
8
0
100
AcDbSpline
62
7
6
CONTINUOUS
70
0
71
3
72
13
73
9
74
7
42
0.0000001000
43
0.0000001000
44
0.0000000001
12
0.7071251313
22
-0.7071251313
32
0.0000000000
13
1.0000259509
23
0.0000000000
33
0.0000000000
40
0.0000000000
40
0.0000000000
40
0.0000000000
40
0.0000000000
40
0.0352244628
40
0.1357434686
40
0.2947657516
40
0.5015276275
40
0.7420325810
40
1.0000000000
40
1.0000000000
40
1.0000000000
40
1.0000000000
10
3.0990612176
20
-27.3674078384
30
0.0000000000
10
3.1073639186
20
-27.3757105394
30
0.0000000000
10
3.1606825145
20
-27.3591349324
30
0.0000000000
10
3.2514777670
20
-27.3763392238
30
0.0000000000
10
3.4108879786
20
-27.3686957176
30
0.0000000000
10
3.6113965748
20
-27.3729146859
30
0.0000000000
10
3.8470299590
20
-27.3722120937
30
0.0000000000
10
4.0130561387
20
-27.3726164583
30
0.0000000000
10
4.0990475099
20
-27.3726164583
30
0.0000000000
11
3.0990612176
21
-27.3674078384
31
0.0000000000
11
3.1342607222
21
-27.3687576738
31
0.0000000000
11
3.2347744820
21
-27.3700142691
31
0.0000000000
11
3.3937972362
21
-27.3710925543
31
0.0000000000
11
3.6005628239
21
-27.3719195342
31
0.0000000000
11
3.8410734572
21
-27.3724392282
31
0.0000000000
11
4.0990475099
21
-27.3726164583
31
0.0000000000
0
SPLINE
5
4AC
100
AcDbEntity
8
0
100
AcDbSpline
62
7
6
CONTINUOUS
70
0
71
3
72
13
73
9
74
7
42
0.0000001000
43
0.0000001000
44
0.0000000001
12
0.7071251313
22
0.7071251313
32
0.0000000000
13
1.0000259509
23
-0.0000000000
33
0.0000000000
40
0.0000000000
40
0.0000000000
40
0.0000000000
40
0.0000000000
40
0.0352244628
40
0.1357434686
40
0.2947657516
40
0.5015276275
40
0.7420325810
40
1.0000000000
40
1.0000000000
40
1.0000000000
40
1.0000000000
10
3.0990612176
20
11.3211442748
30
0.0000000000
10
3.1073639186
20
11.3294469757
30
0.0000000000
10
3.1606825145
20
11.3128713687
30
0.0000000000
10
3.2514777670
20
11.3300756601
30
0.0000000000
10
3.4108879786
20
11.3224321539
30
0.0000000000
10
3.6113965748
20
11.3266511222
30
0.0000000000
10
3.8470299590
20
11.3259485300
30
0.0000000000
10
4.0130561387
20
11.3263528947
30
0.0000000000
10
4.0990475099
20
11.3263528947
30
0.0000000000
11
3.0990612176
21
11.3211442748
31
0.0000000000
11
3.1342607222
21
11.3224941102
31
0.0000000000
11
3.2347744820
21
11.3237507054
31
0.0000000000
11
3.3937972362
21
11.3248289906
31
0.0000000000
11
3.6005628239
21
11.3256559705
31
0.0000000000
11
3.8410734572
21
11.3261756645
31
0.0000000000
11
4.0990475099
21
11.3263528947
31
0.0000000000
0
SPLINE
5
4AD
100
AcDbEntity
8
0
100
AcDbSpline
62
7
6
CONTINUOUS
70
0
71
3
72
9
73
5
74
3
42
0.0000001000
43
0.0000001000
44
0.0000000001
12
0.0812993863
22
-0.0214807428
32
0.0000000000
13
0.0839071457
23
0.0055320363
33
0.0000000000
40
0.0000000000
40
0.0000000000
40
0.0000000000
40
0.0000000000
40
0.2601651824
40
1.0000000000
40
1.0000000000
40
1.0000000000
40
1.0000000000
10
3.0990612176
20
12.3269588084
30
0.0000000000
10
3.1061116408
20
12.3250959613
30
0.0000000000
10
3.1346659400
20
12.3319841623
30
0.0000000000
10
3.1622976418
20
12.3307709159
30
0.0000000000
10
3.1829901177
20
12.3321351803
30
0.0000000000
11
3.0990612176
21
12.3269588084
31
0.0000000000
11
3.1209068629
21
12.3281317475
31
0.0000000000
11
3.1829901177
21
12.3321351803
31
0.0000000000
0
SPLINE
5
4AE
100
AcDbEntity
8
0
100
AcDbSpline
62
7
6
CONTINUOUS
70
0
71
3
72
9
73
5
74
3
42
0.0000001000
43
0.0000001000
44
0.0000000001
12
0.0839071457
22
-0.0055320363
32
0.0000000000
13
0.0812993863
23
0.0214807428
33
0.0000000000
40
0.0000000000
40
0.0000000000
40
0.0000000000
40
0.0000000000
40
0.7398353041
40
1.0000000000
40
1.0000000000
40
1.0000000000
40
1.0000000000
10
-7.1734197956
20
12.3321351803
30
0.0000000000
10
-7.1527273061
20
12.3307709150
30
0.0000000000
10
-7.1250956046
20
12.3319841630
30
0.0000000000
10
-7.0965413056
20
12.3250959648
30
0.0000000000
10
-7.0894908956
20
12.3269588084
30
0.0000000000
11
-7.1734197956
21
12.3321351803
31
0.0000000000
11
-7.1113365000
21
12.3281317450
31
0.0000000000
11
-7.0894908956
21
12.3269588084
31
0.0000000000
0
SPLINE
5
4AF
100
AcDbEntity
8
0
100
AcDbSpline
62
7
6
CONTINUOUS
70
0
71
3
72
9
73
5
74
3
42
0.0000001000
43
0.0000001000
44
0.0000000001
12
0.0839071457
22
0.0055320363
32
0.0000000000
13
0.0812993863
23
-0.0214807428
33
0.0000000000
40
0.0000000000
40
0.0000000000
40
0.0000000000
40
0.0000000000
40
0.7398353041
40
1.0000000000
40
1.0000000000
40
1.0000000000
40
1.0000000000
10
-7.1734197956
20
-28.3783987440
30
0.0000000000
10
-7.1527273061
20
-28.3770344787
30
0.0000000000
10
-7.1250956046
20
-28.3782477267
30
0.0000000000
10
-7.0965413056
20
-28.3713595285
30
0.0000000000
10
-7.0894908956
20
-28.3732223721
30
0.0000000000
11
-7.1734197956
21
-28.3783987440
31
0.0000000000
11
-7.1113365000
21
-28.3743953087
31
0.0000000000
11
-7.0894908956
21
-28.3732223721
31
0.0000000000
0
SPLINE
5
4B0
100
AcDbEntity
8
0
100
AcDbSpline
62
7
6
CONTINUOUS
70
0
71
3
72
9
73
5
74
3
42
0.0000001000
43
0.0000001000
44
0.0000000001
12
0.0812993863
22
0.0214807428
32
0.0000000000
13
0.0839071457
23
-0.0055320363
33
0.0000000000
40
0.0000000000
40
0.0000000000
40
0.0000000000
40
0.0000000000
40
0.2601651824
40
1.0000000000
40
1.0000000000
40
1.0000000000
40
1.0000000000
10
3.0990612176
20
-28.3732223721
30
0.0000000000
10
3.1061116408
20
-28.3713595250
30
0.0000000000
10
3.1346659400
20
-28.3782477260
30
0.0000000000
10
3.1622976418
20
-28.3770344796
30
0.0000000000
10
3.1829901177
20
-28.3783987440
30
0.0000000000
11
3.0990612176
21
-28.3732223721
31
0.0000000000
11
3.1209068629
21
-28.3743953112
31
0.0000000000
11
3.1829901177
21
-28.3783987440
31
0.0000000000
0
SPLINE
5
4B1
100
AcDbEntity
8
0
100
AcDbSpline
62
7
6
CONTINUOUS
70
0
71
3
72
8
73
4
74
2
42
0.0000001000
43
0.0000001000
44
0.0000000001
12
-0.0464324222
22
-0.0232351488
32
0.0000000000
13
-0.0475937545
23
-0.0207923180
33
0.0000000000
40
0.0000000000
40
0.0000000000
40
0.0000000000
40
0.0000000000
40
1.0000000000
40
1.0000000000
40
1.0000000000
40
1.0000000000
10
3.3658448941
20
-28.3216713413
30
0.0000000000
10
3.3503674201
20
-28.3294163909
30
0.0000000000
10
3.3347192235
20
-28.3368579500
30
0.0000000000
10
3.3188546387
20
-28.3437887227
30
0.0000000000
11
3.3658448941
21
-28.3216713413
31
0.0000000000
11
3.3188546387
21
-28.3437887227
31
0.0000000000
0
SPLINE
5
4B2
100
AcDbEntity
8
0
100
AcDbSpline
62
7
6
CONTINUOUS
70
0
71
3
72
8
73
4
74
2
42
0.0000001000
43
0.0000001000
44
0.0000000001
12
-0.0506772815
22
-0.0116287828
32
0.0000000000
13
-0.0516010244
23
0.0034020790
33
0.0000000000
40
0.0000000000
40
0.0000000000
40
0.0000000000
40
0.0000000000
40
1.0000000000
40
1.0000000000
40
1.0000000000
40
1.0000000000
10
3.2344376832
20
-28.3731654029
30
0.0000000000
10
3.2175452560
20
-28.3770416638
30
0.0000000000
10
3.2001904591
20
-28.3795327703
30
0.0000000000
10
3.1829901177
20
-28.3783987440
30
0.0000000000
11
3.2344376832
21
-28.3731654029
31
0.0000000000
11
3.1829901177
21
-28.3783987440
31
0.0000000000
0
SPLINE
5
4B3
100
AcDbEntity
8
0
100
AcDbSpline
62
7
6
CONTINUOUS
70
0
71
3
72
8
73
4
74
2
42
0.0000001000
43
0.0000001000
44
0.0000000001
12
-0.0517636539
22
-0.0034128013
32
0.0000000000
13
-0.0508310674
23
0.0116961280
33
0.0000000000
40
0.0000000000
40
0.0000000000
40
0.0000000000
40
0.0000000000
40
1.0000000000
40
1.0000000000
40
1.0000000000
40
1.0000000000
10
-7.1734197956
20
-28.3783987440
30
0.0000000000
10
-7.1906743469
20
-28.3795363444
30
0.0000000000
10
-7.2080837578
20
-28.3770274054
30
0.0000000000
10
-7.2250274469
20
-28.3731286961
30
0.0000000000
11
-7.1734197956
21
-28.3783987440
31
0.0000000000
11
-7.2250274469
21
-28.3731286961
31
0.0000000000
0
SPLINE
5
4B4
100
AcDbEntity
8
0
100
AcDbSpline
62
7
6
CONTINUOUS
70
0
71
3
72
8
73
4
74
2
42
0.0000001000
43
0.0000001000
44
0.0000000001
12
0.0463874919
22
0.0232126654
32
0.0000000000
13
0.0475463328
23
0.0207751701
33
0.0000000000
40
0.0000000000
40
0.0000000000
40
0.0000000000
40
0.0000000000
40
1.0000000000
40
1.0000000000
40
1.0000000000
40
1.0000000000
10
-7.3562745720
20
12.2754077776
30
0.0000000000
10
-7.3408120747
20
12.2831453327
30
0.0000000000
10
-7.3251790757
20
12.2905800812
30
0.0000000000
10
-7.3093302981
20
12.2975051379
30
0.0000000000
11
-7.3562745720
21
12.2754077776
31
0.0000000000
11
-7.3093302981
21
12.2975051379
31
0.0000000000
0
SPLINE
5
4B5
100
AcDbEntity
8
0
100
AcDbSpline
62
7
6
CONTINUOUS
70
0
71
3
72
8
73
4
74
2
42
0.0000001000
43
0.0000001000
44
0.0000000001
12
0.0508188196
22
0.0116908068
32
0.0000000000
13
0.0517507327
23
-0.0034119494
33
0.0000000000
40
0.0000000000
40
0.0000000000
40
0.0000000000
40
0.0000000000
40
1.0000000000
40
1.0000000000
40
1.0000000000
40
1.0000000000
10
-7.2250147285
20
12.3268680522
30
0.0000000000
10
-7.2080751220
20
12.3307649878
30
0.0000000000
10
-7.1906700399
20
12.3332724968
30
0.0000000000
10
-7.1734197956
20
12.3321351803
30
0.0000000000
11
-7.2250147285
21
12.3268680522
31
0.0000000000
11
-7.1734197956
21
12.3321351803
31
0.0000000000
0
SPLINE
5
4B6
100
AcDbEntity
8
0
100
AcDbSpline
62
7
6
CONTINUOUS
70
0
71
3
72
8
73
4
74
2
42
0.0000001000
43
0.0000001000
44
0.0000000001
12
0.0516049341
22
0.0034023368
32
0.0000000000
13
0.0506810038
23
-0.0116303731
33
0.0000000000
40
0.0000000000
40
0.0000000000
40
0.0000000000
40
0.0000000000
40
1.0000000000
40
1.0000000000
40
1.0000000000
40
1.0000000000
10
3.1829901177
20
12.3321351803
30
0.0000000000
10
3.2001917624
20
12.3332692926
30
0.0000000000
10
3.2175478641
20
12.3307777489
30
0.0000000000
10
3.2344415320
20
12.3269009578
30
0.0000000000
11
3.1829901177
21
12.3321351803
31
0.0000000000
11
3.2344415320
21
12.3269009578
31
0.0000000000
0
SPLINE
5
4B7
100
AcDbEntity
8
0
100
AcDbSpline
62
7
6
CONTINUOUS
70
0
71
3
72
14
73
10
74
8
42
0.0000001000
43
0.0000001000
44
0.0000000001
12
-0.2762842310
22
-0.1105300879
32
0.0000000000
13
-0.0000000000
23
-0.2971353993
33
0.0000000000
40
0.0000000000
40
0.0000000000
40
0.0000000000
40
0.0000000000
40
0.0101768417
40
0.1751468980
40
0.3401168657
40
0.5050874774
40
0.6700581322
40
0.8350292301
40
1.0000000000
40
1.0000000000
40
1.0000000000
40
1.0000000000
10
8.4048718653
20
15.8961452692
30
0.0000000000
10
8.4039346317
20
15.8957703201
30
0.0000000000
10
8.3878435393
20
15.8892194303
30
0.0000000000
10
8.3579390210
20
15.8732391578
30
0.0000000000
10
8.3198012978
20
15.8419448816
30
0.0000000000
10
8.2884995523
20
15.8038131455
30
0.0000000000
10
8.2652390673
20
15.7603020364
30
0.0000000000
10
8.2509143519
20
15.7131080745
30
0.0000000000
10
8.2476895767
20
15.6803383430
30
0.0000000000
10
8.2476895767
20
15.6639987911
30
0.0000000000
11
8.4048718653
21
15.8961452692
31
0.0000000000
11
8.4020670329
21
15.8950033801
31
0.0000000000
11
8.3588351660
21
15.8718989758
31
0.0000000000
11
8.3209406794
21
15.8408053573
31
0.0000000000
11
8.2898397754
21
15.8029166022
31
0.0000000000
11
8.2667283806
21
15.7596882704
31
0.0000000000
11
8.2524956056
21
15.7127812745
31
0.0000000000
11
8.2476895767
21
15.6639987911
31
0.0000000000
0
SPLINE
5
4B8
100
AcDbEntity
8
0
100
AcDbSpline
62
7
6
CONTINUOUS
70
0
71
3
72
8
73
4
74
2
42
0.0000001000
43
0.0000001000
44
0.0000000001
12
0.0884918707
22
-0.0353162570
32
0.0000000000
13
0.0945151939
23
0.0000000000
33
0.0000000000
40
0.0000000000
40
0.0000000000
40
0.0000000000
40
0.0000000000
40
1.0000000000
40
1.0000000000
40
1.0000000000
40
1.0000000000
10
8.5620111715
20
-32.0052568970
30
0.0000000000
10
8.5915084617
20
-32.0170289827
30
0.0000000000
10
8.6233486430
20
-32.0231317818
30
0.0000000000
10
8.6548537076
20
-32.0231317818
30
0.0000000000
11
8.5620111715
21
-32.0052568970
31
0.0000000000
11
8.6548537076
21
-32.0231317818
31
0.0000000000
0
SPLINE
5
4B9
100
AcDbEntity
8
0
100
AcDbSpline
62
7
6
CONTINUOUS
70
0
71
3
72
14
73
10
74
8
42
0.0000001000
43
0.0000001000
44
0.0000000001
12
0.2762842310
22
0.1105300879
32
0.0000000000
13
0.0000000000
23
0.2971353993
33
0.0000000000
40
0.0000000000
40
0.0000000000
40
0.0000000000
40
0.0000000000
40
0.0101768417
40
0.1751468980
40
0.3401168657
40
0.5050874774
40
0.6700581322
40
0.8350292301
40
1.0000000000
40
1.0000000000
40
1.0000000000
40
1.0000000000
10
-12.3953015432
20
-31.9424088329
30
0.0000000000
10
-12.3943643096
20
-31.9420338838
30
0.0000000000
10
-12.3782732173
20
-31.9354829940
30
0.0000000000
10
-12.3483686990
20
-31.9195027215
30
0.0000000000
10
-12.3102309757
20
-31.8882084453
30
0.0000000000
10
-12.2789292303
20
-31.8500767092
30
0.0000000000
10
-12.2556687452
20
-31.8065656001
30
0.0000000000
10
-12.2413440298
20
-31.7593716382
30
0.0000000000
10
-12.2381192546
20
-31.7266019067
30
0.0000000000
10
-12.2381192546
20
-31.7102623548
30
0.0000000000
11
-12.3953015432
21
-31.9424088329
31
0.0000000000
11
-12.3924967108
21
-31.9412669438
31
0.0000000000
11
-12.3492648440
21
-31.9181625395
31
0.0000000000
11
-12.3113703574
21
-31.8870689210
31
0.0000000000
11
-12.2802694533
21
-31.8491801659
31
0.0000000000
11
-12.2571580585
21
-31.8059518341
31
0.0000000000
11
-12.2429252836
21
-31.7590448382
31
0.0000000000
11
-12.2381192546
21
-31.7102623548
31
0.0000000000
0
SPLINE
5
4BA
100
AcDbEntity
8
0
100
AcDbSpline
62
7
6
CONTINUOUS
70
0
71
3
72
8
73
4
74
2
42
0.0000001000
43
0.0000001000
44
0.0000000001
12
-0.0884364228
22
-0.0353016534
32
0.0000000000
13
-0.0944567056
23
0.0000000000
33
0.0000000000
40
0.0000000000
40
0.0000000000
40
0.0000000000
40
0.0000000000
40
1.0000000000
40
1.0000000000
40
1.0000000000
40
1.0000000000
10
-12.5524395153
20
-32.0052565705
30
0.0000000000
10
-12.5819183229
20
-32.0170237883
30
0.0000000000
10
-12.6137368879
20
-32.0231317818
30
0.0000000000
10
-12.6452224564
20
-32.0231317818
30
0.0000000000
11
-12.5524395153
21
-32.0052565705
31
0.0000000000
11
-12.6452224564
21
-32.0231317818
31
0.0000000000
0
SPLINE
5
4BB
100
AcDbEntity
8
0
100
AcDbSpline
62
7
6
CONTINUOUS
70
0
71
3
72
14
73
10
74
8
42
0.0000001000
43
0.0000001000
44
0.0000000001
12
0.0000000000
22
0.2971353994
32
0.0000000000
13
-0.2762842294
23
0.1105300870
33
0.0000000000
40
0.0000000000
40
0.0000000000
40
0.0000000000
40
0.0000000000
40
0.1649709169
40
0.3299423337
40
0.4949133163
40
0.6598840660
40
0.8248538957
40
0.9898236240
40
1.0000000000
40
1.0000000000
40
1.0000000000
40
1.0000000000
10
-12.2381192546
20
15.6639987911
30
0.0000000000
10
-12.2381192546
20
15.6803383576
30
0.0000000000
10
-12.2413440373
20
15.7131081355
30
0.0000000000
10
-12.2556687933
20
15.7603021690
30
0.0000000000
10
-12.2789293485
20
15.8038133307
30
0.0000000000
10
-12.3102311544
20
15.8419450603
30
0.0000000000
10
-12.3483688842
20
15.8732392760
30
0.0000000000
10
-12.3782733319
20
15.8892194819
30
0.0000000000
10
-12.3943643530
20
15.8957703375
30
0.0000000000
10
-12.3953015437
20
15.8961452694
30
0.0000000000
11
-12.2381192546
21
15.6639987911
31
0.0000000000
11
-12.2429252922
21
15.7127813175
31
0.0000000000
11
-12.2571581118
21
15.7596883989
31
0.0000000000
11
-12.2802695850
21
15.8029167993
31
0.0000000000
11
-12.3113705541
21
15.8408055540
31
0.0000000000
11
-12.3492650410
21
15.8718991075
31
0.0000000000
11
-12.3924968393
21
15.8950034333
31
0.0000000000
11
-12.3953015437
21
15.8961452694
31
0.0000000000
0
SPLINE
5
4BC
100
AcDbEntity
8
0
100
AcDbSpline
62
7
6
CONTINUOUS
70
0
71
3
72
8
73
4
74
2
42
0.0000001000
43
0.0000001000
44
0.0000000001
12
0.0944567056
22
0.0000000000
32
0.0000000000
13
0.0884364228
23
-0.0353016534
33
0.0000000000
40
0.0000000000
40
0.0000000000
40
0.0000000000
40
0.0000000000
40
1.0000000000
40
1.0000000000
40
1.0000000000
40
1.0000000000
10
-12.6452224564
20
15.9768682182
30
0.0000000000
10
-12.6137368879
20
15.9768682182
30
0.0000000000
10
-12.5819183229
20
15.9707602246
30
0.0000000000
10
-12.5524395153
20
15.9589930068
30
0.0000000000
11
-12.6452224564
21
15.9768682182
31
0.0000000000
11
-12.5524395153
21
15.9589930068
31
0.0000000000
0
SPLINE
5
4BD
100
AcDbEntity
8
0
100
AcDbSpline
62
7
6
CONTINUOUS
70
0
71
3
72
11
73
7
74
5
42
0.0000001000
43
0.0000001000
44
0.0000000001
12
-0.3901697090
22
0.0000000000
32
0.0000000000
13
-0.0000000000
23
-0.3901697090
33
0.0000000000
40
0.0000000000
40
0.0000000000
40
0.0000000000
40
0.0000000000
40
0.2499979982
40
0.4999986853
40
0.7499986747
40
1.0000000000
40
1.0000000000
40
1.0000000000
40
1.0000000000
10
-14.1452072215
20
15.9768682182
30
0.0000000000
10
-14.1777211036
20
15.9768682182
30
0.0000000000
10
-14.2434608508
20
15.9638633325
30
0.0000000000
10
-14.3265610889
20
15.9082375486
30
0.0000000000
10
-14.3822041525
20
15.8251474514
30
0.0000000000
10
-14.3952148390
20
15.7594069012
30
0.0000000000
10
-14.3952148390
20
15.7268925864
30
0.0000000000
11
-14.1452072215
21
15.9768682182
31
0.0000000000
11
-14.2408756160
21
15.9578437326
31
0.0000000000
11
-14.3219849023
21
15.9036601457
31
0.0000000000
11
-14.3761829136
21
15.8225608246
31
0.0000000000
11
-14.3952148390
21
15.7268925864
31
0.0000000000
0
SPLINE
5
4BE
100
AcDbEntity
8
0
100
AcDbSpline
62
7
6
CONTINUOUS
70
0
71
3
72
11
73
7
74
5
42
0.0000001000
43
0.0000001000
44
0.0000000001
12
0.3901697090
22
0.0000000000
32
0.0000000000
13
0.0000000000
23
-0.3901697090
33
0.0000000000
40
0.0000000000
40
0.0000000000
40
0.0000000000
40
0.0000000000
40
0.2499979982
40
0.4999986853
40
0.7499986747
40
1.0000000000
40
1.0000000000
40
1.0000000000
40
1.0000000000
10
10.1547775436
20
15.9768682182
30
0.0000000000
10
10.1872914257
20
15.9768682182
30
0.0000000000
10
10.2530311728
20
15.9638633325
30
0.0000000000
10
10.3361314110
20
15.9082375486
30
0.0000000000
10
10.3917744746
20
15.8251474514
30
0.0000000000
10
10.4047851610
20
15.7594069012
30
0.0000000000
10
10.4047851610
20
15.7268925864
30
0.0000000000
11
10.1547775436
21
15.9768682182
31
0.0000000000
11
10.2504459380
21
15.9578437326
31
0.0000000000
11
10.3315552243
21
15.9036601457
31
0.0000000000
11
10.3857532357
21
15.8225608246
31
0.0000000000
11
10.4047851610
21
15.7268925864
31
0.0000000000
0
SPLINE
5
4BF
100
AcDbEntity
8
0
100
AcDbSpline
62
7
6
CONTINUOUS
70
0
71
3
72
8
73
4
74
2
42
0.0000001000
43
0.0000001000
44
0.0000000001
12
-0.0945151939
22
0.0000000000
32
0.0000000000
13
-0.0884918707
23
-0.0353162570
33
0.0000000000
40
0.0000000000
40
0.0000000000
40
0.0000000000
40
0.0000000000
40
1.0000000000
40
1.0000000000
40
1.0000000000
40
1.0000000000
10
8.6548537076
20
15.9768682182
30
0.0000000000
10
8.6233486430
20
15.9768682182
30
0.0000000000
10
8.5915084617
20
15.9707654190
30
0.0000000000
10
8.5620111715
20
15.9589933333
30
0.0000000000
11
8.6548537076
21
15.9768682182
31
0.0000000000
11
8.5620111715
21
15.9589933333
31
0.0000000000
0
SPLINE
5
4C0
100
AcDbEntity
8
0
100
AcDbSpline
62
7
6
CONTINUOUS
70
0
71
3
72
14
73
10
74
8
42
0.0000001000
43
0.0000001000
44
0.0000000001
12
0.0000000000
22
-0.2971353994
32
0.0000000000
13
0.2762842294
23
-0.1105300870
33
0.0000000000
40
0.0000000000
40
0.0000000000
40
0.0000000000
40
0.0000000000
40
0.1649709169
40
0.3299423337
40
0.4949133163
40
0.6598840660
40
0.8248538957
40
0.9898236240
40
1.0000000000
40
1.0000000000
40
1.0000000000
40
1.0000000000
10
8.2476895767
20
-31.7102623548
30
0.0000000000
10
8.2476895767
20
-31.7266019212
30
0.0000000000
10
8.2509143593
20
-31.7593716992
30
0.0000000000
10
8.2652391153
20
-31.8065657327
30
0.0000000000
10
8.2884996706
20
-31.8500768944
30
0.0000000000
10
8.3198014765
20
-31.8882086239
30
0.0000000000
10
8.3579392063
20
-31.9195028397
30
0.0000000000
10
8.3878436539
20
-31.9354830456
30
0.0000000000
10
8.4039346750
20
-31.9420339012
30
0.0000000000
10
8.4048718658
20
-31.9424088331
30
0.0000000000
11
8.2476895767
21
-31.7102623548
31
0.0000000000
11
8.2524956142
21
-31.7590448812
31
0.0000000000
11
8.2667284338
21
-31.8059519626
31
0.0000000000
11
8.2898399071
21
-31.8491803630
31
0.0000000000
11
8.3209408762
21
-31.8870691177
31
0.0000000000
11
8.3588353631
21
-31.9181626712
31
0.0000000000
11
8.4020671614
21
-31.9412669970
31
0.0000000000
11
8.4048718658
21
-31.9424088331
31
0.0000000000
0
SPLINE
5
4C1
100
AcDbEntity
8
0
100
AcDbSpline
62
7
6
CONTINUOUS
70
0
71
3
72
11
73
7
74
5
42
0.0000001000
43
0.0000001000
44
0.0000000001
12
0.0000000000
22
-0.3901697090
32
0.0000000000
13
-0.3901697090
23
-0.0000000000
33
0.0000000000
40
0.0000000000
40
0.0000000000
40
0.0000000000
40
0.0000000000
40
0.2500013253
40
0.5000013147
40
0.7500020018
40
1.0000000000
40
1.0000000000
40
1.0000000000
40
1.0000000000
10
10.4047851610
20
-31.7731561501
30
0.0000000000
10
10.4047851610
20
-31.8056704648
30
0.0000000000
10
10.3917744746
20
-31.8714110151
30
0.0000000000
10
10.3361314110
20
-31.9545011123
30
0.0000000000
10
10.2530311728
20
-32.0101268962
30
0.0000000000
10
10.1872914257
20
-32.0231317818
30
0.0000000000
10
10.1547775436
20
-32.0231317818
30
0.0000000000
11
10.4047851610
21
-31.7731561501
31
0.0000000000
11
10.3857532357
21
-31.8688243883
31
0.0000000000
11
10.3315552243
21
-31.9499237094
31
0.0000000000
11
10.2504459380
21
-32.0041072963
31
0.0000000000
11
10.1547775436
21
-32.0231317818
31
0.0000000000
0
SPLINE
5
4C2
100
AcDbEntity
8
0
100
AcDbSpline
62
7
6
CONTINUOUS
70
0
71
3
72
11
73
7
74
5
42
0.0000001000
43
0.0000001000
44
0.0000000001
12
0.0000000000
22
-0.3901697090
32
0.0000000000
13
0.3901697090
23
0.0000000000
33
0.0000000000
40
0.0000000000
40
0.0000000000
40
0.0000000000
40
0.0000000000
40
0.2500013253
40
0.5000013147
40
0.7500020018
40
1.0000000000
40
1.0000000000
40
1.0000000000
40
1.0000000000
10
-14.3952148390
20
-31.7731561501
30
0.0000000000
10
-14.3952148390
20
-31.8056704648
30
0.0000000000
10
-14.3822041525
20
-31.8714110151
30
0.0000000000
10
-14.3265610889
20
-31.9545011123
30
0.0000000000
10
-14.2434608508
20
-32.0101268962
30
0.0000000000
10
-14.1777211036
20
-32.0231317818
30
0.0000000000
10
-14.1452072215
20
-32.0231317818
30
0.0000000000
11
-14.3952148390
21
-31.7731561501
31
0.0000000000
11
-14.3761829136
21
-31.8688243883
31
0.0000000000
11
-14.3219849023
21
-31.9499237094
31
0.0000000000
11
-14.2408756160
21
-32.0041072963
31
0.0000000000
11
-14.1452072215
21
-32.0231317818
31
0.0000000000
0
SPLINE
5
4C3
100
AcDbEntity
8
0
100
AcDbSpline
62
7
6
CONTINUOUS
70
0
71
3
72
12
73
8
74
6
42
0.0000001000
43
0.0000001000
44
0.0000000001
12
0.0000000000
22
-0.4692975279
32
0.0000000000
13
0.4692975279
23
0.0000000000
33
0.0000000000
40
0.0000000000
40
0.0000000000
40
0.0000000000
40
0.0000000000
40
0.1999804070
40
0.4004349683
40
0.5999488995
40
0.7999086466
40
1.0000000000
40
1.0000000000
40
1.0000000000
40
1.0000000000
10
-9.3957301625
20
11.6263487823
30
0.0000000000
10
-9.3957301625
20
11.5950653455
30
0.0000000000
10
-9.3857691490
20
11.5319835958
30
0.0000000000
10
-9.3424280831
20
11.4470554643
30
0.0000000000
10
-9.2749325070
20
11.3796016835
30
0.0000000000
10
-9.1900575994
20
11.3363106192
30
0.0000000000
10
-9.1270350673
20
11.3263528947
30
0.0000000000
10
-9.0957342748
20
11.3263528947
30
0.0000000000
11
-9.3957301625
21
11.6263487823
31
0.0000000000
11
-9.3810504380
21
11.5336536557
31
0.0000000000
11
-9.3383150065
21
11.4498480458
31
0.0000000000
11
-9.2720874879
21
11.3836607823
31
0.0000000000
11
-9.1884795365
21
11.3410489119
31
0.0000000000
11
-9.0957342748
21
11.3263528947
31
0.0000000000
0
SPLINE
5
4C4
100
AcDbEntity
8
0
100
AcDbSpline
62
7
6
CONTINUOUS
70
0
71
3
72
13
73
9
74
7
42
0.0000001000
43
0.0000001000
44
0.0000000001
12
1.0000259509
22
0.0000000000
32
0.0000000000
13
0.7071251313
23
0.7071251313
33
0.0000000000
40
0.0000000000
40
0.0000000000
40
0.0000000000
40
0.0000000000
40
0.2579674224
40
0.4984723750
40
0.7052342484
40
0.8642565300
40
0.9647755362
40
1.0000000000
40
1.0000000000
40
1.0000000000
40
1.0000000000
10
-8.0894771878
20
-27.3726164583
30
0.0000000000
10
-8.0034858155
20
-27.3726164583
30
0.0000000000
10
-7.8374596350
20
-27.3722120937
30
0.0000000000
10
-7.6018262508
20
-27.3729146858
30
0.0000000000
10
-7.4013176561
20
-27.3686957176
30
0.0000000000
10
-7.2419074458
20
-27.3763392237
30
0.0000000000
10
-7.1511121933
20
-27.3591349323
30
0.0000000000
10
-7.0977935968
20
-27.3757105396
30
0.0000000000
10
-7.0894908956
20
-27.3674078384
30
0.0000000000
11
-8.0894771878
21
-27.3726164583
31
0.0000000000
11
-7.8315031318
21
-27.3724392282
31
0.0000000000
11
-7.5909924994
21
-27.3719195342
31
0.0000000000
11
-7.3842269141
21
-27.3710925543
31
0.0000000000
11
-7.2252041614
21
-27.3700142691
31
0.0000000000
11
-7.1246904011
21
-27.3687576739
31
0.0000000000
11
-7.0894908956
21
-27.3674078384
31
0.0000000000
0
SPLINE
5
4C5
100
AcDbEntity
8
0
100
AcDbSpline
62
7
6
CONTINUOUS
70
0
71
3
72
13
73
9
74
7
42
0.0000001000
43
0.0000001000
44
0.0000000001
12
0.7071251313
22
-0.7071251313
32
0.0000000000
13
1.0000259509
23
0.0000000000
33
0.0000000000
40
0.0000000000
40
0.0000000000
40
0.0000000000
40
0.0000000000
40
0.0352244628
40
0.1357434686
40
0.2947657516
40
0.5015276275
40
0.7420325810
40
1.0000000000
40
1.0000000000
40
1.0000000000
40
1.0000000000
10
3.0990612176
20
-27.3674078384
30
0.0000000000
10
3.1073639186
20
-27.3757105394
30
0.0000000000
10
3.1606825145
20
-27.3591349324
30
0.0000000000
10
3.2514777670
20
-27.3763392238
30
0.0000000000
10
3.4108879786
20
-27.3686957176
30
0.0000000000
10
3.6113965748
20
-27.3729146859
30
0.0000000000
10
3.8470299590
20
-27.3722120937
30
0.0000000000
10
4.0130561387
20
-27.3726164583
30
0.0000000000
10
4.0990475099
20
-27.3726164583
30
0.0000000000
11
3.0990612176
21
-27.3674078384
31
0.0000000000
11
3.1342607222
21
-27.3687576738
31
0.0000000000
11
3.2347744820
21
-27.3700142691
31
0.0000000000
11
3.3937972362
21
-27.3710925543
31
0.0000000000
11
3.6005628239
21
-27.3719195342
31
0.0000000000
11
3.8410734572
21
-27.3724392282
31
0.0000000000
11
4.0990475099
21
-27.3726164583
31
0.0000000000
0
SPLINE
5
4C6
100
AcDbEntity
8
0
100
AcDbSpline
62
7
6
CONTINUOUS
70
0
71
3
72
13
73
9
74
7
42
0.0000001000
43
0.0000001000
44
0.0000000001
12
1.0000259509
22
0.0000000000
32
0.0000000000
13
0.7071251313
23
-0.7071251313
33
0.0000000000
40
0.0000000000
40
0.0000000000
40
0.0000000000
40
0.0000000000
40
0.2579674224
40
0.4984723750
40
0.7052342484
40
0.8642565300
40
0.9647755362
40
1.0000000000
40
1.0000000000
40
1.0000000000
40
1.0000000000
10
-8.0894771878
20
11.3263528947
30
0.0000000000
10
-8.0034858155
20
11.3263528947
30
0.0000000000
10
-7.8374596350
20
11.3259485300
30
0.0000000000
10
-7.6018262508
20
11.3266511222
30
0.0000000000
10
-7.4013176561
20
11.3224321540
30
0.0000000000
10
-7.2419074458
20
11.3300756600
30
0.0000000000
10
-7.1511121933
20
11.3128713686
30
0.0000000000
10
-7.0977935968
20
11.3294469759
30
0.0000000000
10
-7.0894908956
20
11.3211442748
30
0.0000000000
11
-8.0894771878
21
11.3263528947
31
0.0000000000
11
-7.8315031318
21
11.3261756645
31
0.0000000000
11
-7.5909924994
21
11.3256559705
31
0.0000000000
11
-7.3842269141
21
11.3248289906
31
0.0000000000
11
-7.2252041614
21
11.3237507054
31
0.0000000000
11
-7.1246904011
21
11.3224941102
31
0.0000000000
11
-7.0894908956
21
11.3211442748
31
0.0000000000
0
SPLINE
5
4C7
100
AcDbEntity
8
0
100
AcDbSpline
62
7
6
CONTINUOUS
70
0
71
3
72
13
73
9
74
7
42
0.0000001000
43
0.0000001000
44
0.0000000001
12
0.7071251313
22
0.7071251313
32
0.0000000000
13
1.0000259509
23
-0.0000000000
33
0.0000000000
40
0.0000000000
40
0.0000000000
40
0.0000000000
40
0.0000000000
40
0.0352244628
40
0.1357434686
40
0.2947657516
40
0.5015276275
40
0.7420325810
40
1.0000000000
40
1.0000000000
40
1.0000000000
40
1.0000000000
10
3.0990612176
20
11.3211442748
30
0.0000000000
10
3.1073639186
20
11.3294469757
30
0.0000000000
10
3.1606825145
20
11.3128713687
30
0.0000000000
10
3.2514777670
20
11.3300756601
30
0.0000000000
10
3.4108879786
20
11.3224321539
30
0.0000000000
10
3.6113965748
20
11.3266511222
30
0.0000000000
10
3.8470299590
20
11.3259485300
30
0.0000000000
10
4.0130561387
20
11.3263528947
30
0.0000000000
10
4.0990475099
20
11.3263528947
30
0.0000000000
11
3.0990612176
21
11.3211442748
31
0.0000000000
11
3.1342607222
21
11.3224941102
31
0.0000000000
11
3.2347744820
21
11.3237507054
31
0.0000000000
11
3.3937972362
21
11.3248289906
31
0.0000000000
11
3.6005628239
21
11.3256559705
31
0.0000000000
11
3.8410734572
21
11.3261756645
31
0.0000000000
11
4.0990475099
21
11.3263528947
31
0.0000000000
0
SPLINE
5
4C8
100
AcDbEntity
8
0
100
AcDbSpline
62
7
6
CONTINUOUS
70
0
71
3
72
9
73
5
74
3
42
0.0000001000
43
0.0000001000
44
0.0000000001
12
0.0812993863
22
-0.0214807428
32
0.0000000000
13
0.0839071457
23
0.0055320363
33
0.0000000000
40
0.0000000000
40
0.0000000000
40
0.0000000000
40
0.0000000000
40
0.2601651824
40
1.0000000000
40
1.0000000000
40
1.0000000000
40
1.0000000000
10
3.0990612176
20
12.3269588084
30
0.0000000000
10
3.1061116408
20
12.3250959613
30
0.0000000000
10
3.1346659400
20
12.3319841623
30
0.0000000000
10
3.1622976418
20
12.3307709159
30
0.0000000000
10
3.1829901177
20
12.3321351803
30
0.0000000000
11
3.0990612176
21
12.3269588084
31
0.0000000000
11
3.1209068629
21
12.3281317475
31
0.0000000000
11
3.1829901177
21
12.3321351803
31
0.0000000000
0
SPLINE
5
4C9
100
AcDbEntity
8
0
100
AcDbSpline
62
7
6
CONTINUOUS
70
0
71
3
72
9
73
5
74
3
42
0.0000001000
43
0.0000001000
44
0.0000000001
12
0.1287790141
22
0.0168129608
32
0.0000000000
13
0.1295828080
23
-0.0086606000
33
0.0000000000
40
0.0000000000
40
0.0000000000
40
0.0000000000
40
0.0000000000
40
0.2624507649
40
1.0000000000
40
1.0000000000
40
1.0000000000
40
1.0000000000
10
1.9961344486
20
13.0089810758
30
0.0000000000
10
2.0074004988
20
13.0104519339
30
0.0000000000
10
2.0508118711
20
13.0029810570
30
0.0000000000
10
2.0938873224
20
13.0028933008
30
0.0000000000
10
2.1257452228
20
13.0007640945
30
0.0000000000
11
1.9961344486
21
13.0089810758
31
0.0000000000
11
2.0301640562
21
13.0070390115
31
0.0000000000
11
2.1257452228
21
13.0007640945
31
0.0000000000
0
SPLINE
5
4CA
100
AcDbEntity
8
0
100
AcDbSpline
62
7
6
CONTINUOUS
70
0
71
3
72
13
73
9
74
7
42
0.0000001000
43
0.0000001000
44
0.0000000001
12
-0.2499952412
22
-0.2499952412
32
0.0000000000
13
0.0000000000
23
-0.3535466607
33
0.0000000000
40
0.0000000000
40
0.0000000000
40
0.0000000000
40
0.0000000000
40
0.2176724759
40
0.4350476293
40
0.6387593861
40
0.8152322208
40
0.9458072093
40
1.0000000000
40
1.0000000000
40
1.0000000000
40
1.0000000000
10
-12.6452148390
20
5.1145827591
30
0.0000000000
10
-12.6633538667
20
5.0964437313
30
0.0000000000
10
-12.6995263454
20
5.0601569339
30
0.0000000000
10
-12.7531108622
20
5.0070755043
30
0.0000000000
10
-12.8017354481
20
4.9567939938
30
0.0000000000
10
-12.8477409143
20
4.9156597582
30
0.0000000000
10
-12.8701066990
20
4.8823473916
30
0.0000000000
10
-12.8952148390
20
4.8709788383
30
0.0000000000
10
-12.8952148390
20
4.8645922783
30
0.0000000000
11
-12.6452148390
21
5.1145827591
31
0.0000000000
11
-12.6996319221
21
5.0601656759
31
0.0000000000
11
-12.7539746760
21
5.0058229220
31
0.0000000000
11
-12.8049016458
21
4.9548959522
31
0.0000000000
11
-12.8490190147
21
4.9107785834
31
0.0000000000
11
-12.8816621404
21
4.8781354576
31
0.0000000000
11
-12.8952148390
21
4.8645922783
31
0.0000000000
0
SPLINE
5
4CB
100
AcDbEntity
8
0
100
AcDbSpline
62
7
6
CONTINUOUS
70
0
71
3
72
9
73
5
74
3
42
0.0000001000
43
0.0000001000
44
0.0000000001
12
0.1295828080
22
0.0086606000
32
0.0000000000
13
0.1287790141
23
-0.0168129608
33
0.0000000000
40
0.0000000000
40
0.0000000000
40
0.0000000000
40
0.0000000000
40
0.7375499161
40
1.0000000000
40
1.0000000000
40
1.0000000000
40
1.0000000000
10
-6.1161749007
20
13.0007640945
30
0.0000000000
10
-6.0843169710
20
13.0028933028
30
0.0000000000
10
-6.0412415198
20
13.0029810570
30
0.0000000000
10
-5.9978301475
20
13.0104519301
30
0.0000000000
10
-5.9865641265
20
13.0089810758
30
0.0000000000
11
-6.1161749007
21
13.0007640945
31
0.0000000000
11
-6.0205936459
21
13.0070390171
31
0.0000000000
11
-5.9865641265
21
13.0089810758
31
0.0000000000
0
SPLINE
5
4CC
100
AcDbEntity
8
0
100
AcDbSpline
62
7
6
CONTINUOUS
70
0
71
3
72
9
73
5
74
3
42
0.0000001000
43
0.0000001000
44
0.0000000001
12
0.0839071457
22
-0.0055320363
32
0.0000000000
13
0.0812993863
23
0.0214807428
33
0.0000000000
40
0.0000000000
40
0.0000000000
40
0.0000000000
40
0.0000000000
40
0.7398353041
40
1.0000000000
40
1.0000000000
40
1.0000000000
40
1.0000000000
10
-7.1734197956
20
12.3321351803
30
0.0000000000
10
-7.1527273061
20
12.3307709150
30
0.0000000000
10
-7.1250956046
20
12.3319841630
30
0.0000000000
10
-7.0965413056
20
12.3250959648
30
0.0000000000
10
-7.0894908956
20
12.3269588084
30
0.0000000000
11
-7.1734197956
21
12.3321351803
31
0.0000000000
11
-7.1113365000
21
12.3281317450
31
0.0000000000
11
-7.0894908956
21
12.3269588084
31
0.0000000000
0
SPLINE
5
4CD
100
AcDbEntity
8
0
100
AcDbSpline
62
7
6
CONTINUOUS
70
0
71
3
72
12
73
8
74
6
42
0.0000001000
43
0.0000001000
44
0.0000000001
12
0.0000000000
22
0.4692975279
32
0.0000000000
13
-0.4692975279
23
0.0000000000
33
0.0000000000
40
0.0000000000
40
0.0000000000
40
0.0000000000
40
0.0000000000
40
0.1999804070
40
0.4004349683
40
0.5999488995
40
0.7999086466
40
1.0000000000
40
1.0000000000
40
1.0000000000
40
1.0000000000
10
5.4053004845
20
-27.6726123460
30
0.0000000000
10
5.4053004845
20
-27.6413289091
30
0.0000000000
10
5.3953394711
20
-27.5782471595
30
0.0000000000
10
5.3519984051
20
-27.4933190279
30
0.0000000000
10
5.2845028291
20
-27.4258652472
30
0.0000000000
10
5.1996279215
20
-27.3825741829
30
0.0000000000
10
5.1366053893
20
-27.3726164583
30
0.0000000000
10
5.1053045968
20
-27.3726164583
30
0.0000000000
11
5.4053004845
21
-27.6726123460
31
0.0000000000
11
5.3906207600
21
-27.5799172194
31
0.0000000000
11
5.3478853286
21
-27.4961116095
31
0.0000000000
11
5.2816578100
21
-27.4299243460
31
0.0000000000
11
5.1980498586
21
-27.3873124756
31
0.0000000000
11
5.1053045968
21
-27.3726164583
31
0.0000000000
0
SPLINE
5
4CE
100
AcDbEntity
8
0
100
AcDbSpline
62
7
6
CONTINUOUS
70
0
71
3
72
9
73
5
74
3
42
0.0000001000
43
0.0000001000
44
0.0000000001
12
0.0839071457
22
0.0055320363
32
0.0000000000
13
0.0812993863
23
-0.0214807428
33
0.0000000000
40
0.0000000000
40
0.0000000000
40
0.0000000000
40
0.0000000000
40
0.7398353041
40
1.0000000000
40
1.0000000000
40
1.0000000000
40
1.0000000000
10
-7.1734197956
20
-28.3783987440
30
0.0000000000
10
-7.1527273061
20
-28.3770344787
30
0.0000000000
10
-7.1250956046
20
-28.3782477267
30
0.0000000000
10
-7.0965413056
20
-28.3713595285
30
0.0000000000
10
-7.0894908956
20
-28.3732223721
30
0.0000000000
11
-7.1734197956
21
-28.3783987440
31
0.0000000000
11
-7.1113365000
21
-28.3743953087
31
0.0000000000
11
-7.0894908956
21
-28.3732223721
31
0.0000000000
0
SPLINE
5
4CF
100
AcDbEntity
8
0
100
AcDbSpline
62
7
6
CONTINUOUS
70
0
71
3
72
9
73
5
74
3
42
0.0000001000
43
0.0000001000
44
0.0000000001
12
-0.0883459530
22
0.0353436238
32
0.0000000000
13
-0.0950134218
23
0.0000000000
33
0.0000000000
40
0.0000000000
40
0.0000000000
40
0.0000000000
40
0.0000000000
40
0.4840862961
40
1.0000000000
40
1.0000000000
40
1.0000000000
40
1.0000000000
10
-12.3953015437
20
15.8961452694
30
0.0000000000
10
-12.4095572321
20
15.9018483907
30
0.0000000000
10
-12.4400893482
20
15.9109112640
30
0.0000000000
10
-12.4718482258
20
15.9140353443
30
0.0000000000
10
-12.4881878012
20
15.9140353443
30
0.0000000000
11
-12.3953015437
21
15.8961452694
31
0.0000000000
11
-12.4394050688
21
15.9092311222
31
0.0000000000
11
-12.4881878012
21
15.9140353443
31
0.0000000000
0
SPLINE
5
4D0
100
AcDbEntity
8
0
100
AcDbSpline
62
7
6
CONTINUOUS
70
0
71
3
72
9
73
5
74
3
42
0.0000001000
43
0.0000001000
44
0.0000000001
12
0.1198386815
22
-0.0080093567
32
0.0000000000
13
0.1199078499
23
-0.0068968768
33
0.0000000000
40
0.0000000000
40
0.0000000000
40
0.0000000000
40
0.0000000000
40
0.6408292315
40
1.0000000000
40
1.0000000000
40
1.0000000000
40
1.0000000000
10
-6.1161750964
20
-29.0470276451
30
0.0000000000
10
-6.0905763863
20
-29.0487385218
30
0.0000000000
10
-6.0506280183
20
-29.0513727180
30
0.0000000000
10
-6.0106762160
20
-29.0539656987
30
0.0000000000
10
-5.9963204178
20
-29.0547914175
30
0.0000000000
11
-6.1161750964
21
-29.0470276451
31
0.0000000000
11
-6.0393748120
21
-29.0520977360
31
0.0000000000
11
-5.9963204178
21
-29.0547914175
31
0.0000000000
0
SPLINE
5
4D1
100
AcDbEntity
8
0
100
AcDbSpline
62
7
6
CONTINUOUS
70
0
71
3
72
9
73
5
74
3
42
0.0000001000
43
0.0000001000
44
0.0000000001
12
0.0095700963
22
-0.0019139726
32
0.0000000000
13
0.0097588647
23
-0.0001207995
33
0.0000000000
40
0.0000000000
40
0.0000000000
40
0.0000000000
40
0.0000000000
40
0.2827692806
40
1.0000000000
40
1.0000000000
40
1.0000000000
40
1.0000000000
10
1.9961344486
20
-29.0545629710
30
0.0000000000
10
1.9970364916
20
-29.0547433752
30
0.0000000000
10
2.0003249046
20
-29.0545787951
30
0.0000000000
10
2.0035576207
20
-29.0547625372
30
0.0000000000
10
2.0058907399
20
-29.0547914175
30
0.0000000000
11
1.9961344486
21
-29.0545629710
31
0.0000000000
11
1.9988917625
21
-29.0546781501
31
0.0000000000
11
2.0058907399
21
-29.0547914175
31
0.0000000000
0
SPLINE
5
4D2
100
AcDbEntity
8
0
100
AcDbSpline
62
7
6
CONTINUOUS
70
0
71
3
72
9
73
5
74
3
42
0.0000001000
43
0.0000001000
44
0.0000000001
12
0.0097588647
22
0.0001207995
32
0.0000000000
13
0.0095700963
23
0.0019139726
33
0.0000000000
40
0.0000000000
40
0.0000000000
40
0.0000000000
40
0.0000000000
40
0.7172307194
40
1.0000000000
40
1.0000000000
40
1.0000000000
40
1.0000000000
10
-5.9963204178
20
-29.0547914175
30
0.0000000000
10
-5.9939872986
20
-29.0547625372
30
0.0000000000
10
-5.9907545825
20
-29.0545787951
30
0.0000000000
10
-5.9874661696
20
-29.0547433752
30
0.0000000000
10
-5.9865641265
20
-29.0545629710
30
0.0000000000
11
-5.9963204178
21
-29.0547914175
31
0.0000000000
11
-5.9893214405
21
-29.0546781501
31
0.0000000000
11
-5.9865641265
21
-29.0545629710
31
0.0000000000
0
SPLINE
5
4D3
100
AcDbEntity
8
0
100
AcDbSpline
62
7
6
CONTINUOUS
70
0
71
3
72
9
73
5
74
3
42
0.0000001000
43
0.0000001000
44
0.0000000001
12
0.1199076541
22
0.0068968655
32
0.0000000000
13
0.1198384858
23
0.0080093433
33
0.0000000000
40
0.0000000000
40
0.0000000000
40
0.0000000000
40
0.0000000000
40
0.3591712915
40
1.0000000000
40
1.0000000000
40
1.0000000000
40
1.0000000000
10
2.0058907399
20
-29.0547914175
30
0.0000000000
10
2.0202465355
20
-29.0539656988
30
0.0000000000
10
2.0601982726
20
-29.0513727224
30
0.0000000000
10
2.1001465754
20
-29.0487385306
30
0.0000000000
10
2.1257452228
20
-29.0470276582
30
0.0000000000
11
2.0058907399
21
-29.0547914175
31
0.0000000000
11
2.0489451265
21
-29.0520977365
31
0.0000000000
11
2.1257452228
21
-29.0470276582
31
0.0000000000
0
SPLINE
5
4D4
100
AcDbEntity
8
0
100
AcDbSpline
62
7
6
CONTINUOUS
70
0
71
3
72
9
73
5
74
3
42
0.0000001000
43
0.0000001000
44
0.0000000001
12
0.0812993863
22
0.0214807428
32
0.0000000000
13
0.0839071457
23
-0.0055320363
33
0.0000000000
40
0.0000000000
40
0.0000000000
40
0.0000000000
40
0.0000000000
40
0.2601651824
40
1.0000000000
40
1.0000000000
40
1.0000000000
40
1.0000000000
10
3.0990612176
20
-28.3732223721
30
0.0000000000
10
3.1061116408
20
-28.3713595250
30
0.0000000000
10
3.1346659400
20
-28.3782477260
30
0.0000000000
10
3.1622976418
20
-28.3770344796
30
0.0000000000
10
3.1829901177
20
-28.3783987440
30
0.0000000000
11
3.0990612176
21
-28.3732223721
31
0.0000000000
11
3.1209068629
21
-28.3743953112
31
0.0000000000
11
3.1829901177
21
-28.3783987440
31
0.0000000000
0
SPLINE
5
4D5
100
AcDbEntity
8
0
100
AcDbSpline
62
7
6
CONTINUOUS
70
0
71
3
72
13
73
9
74
7
42
0.0000001000
43
0.0000001000
44
0.0000000001
12
-0.2499952412
22
0.2499952412
32
0.0000000000
13
0.0000000000
23
0.3535466607
33
0.0000000000
40
0.0000000000
40
0.0000000000
40
0.0000000000
40
0.0000000000
40
0.2176724759
40
0.4350476293
40
0.6387593861
40
0.8152322208
40
0.9458072093
40
1.0000000000
40
1.0000000000
40
1.0000000000
40
1.0000000000
10
-12.6452148390
20
5.4391536773
30
0.0000000000
10
-12.6633538667
20
5.4572927050
30
0.0000000000
10
-12.6995263454
20
5.4935795024
30
0.0000000000
10
-12.7531108622
20
5.5466609321
30
0.0000000000
10
-12.8017354481
20
5.5969424425
30
0.0000000000
10
-12.8477409143
20
5.6380766781
30
0.0000000000
10
-12.8701066990
20
5.6713890447
30
0.0000000000
10
-12.8952148390
20
5.6827575980
30
0.0000000000
10
-12.8952148390
20
5.6891441580
30
0.0000000000
11
-12.6452148390
21
5.4391536773
31
0.0000000000
11
-12.6996319221
21
5.4935707604
31
0.0000000000
11
-12.7539746760
21
5.5479135143
31
0.0000000000
11
-12.8049016458
21
5.5988404841
31
0.0000000000
11
-12.8490190147
21
5.6429578529
31
0.0000000000
11
-12.8816621404
21
5.6756009787
31
0.0000000000
11
-12.8952148390
21
5.6891441580
31
0.0000000000
0
SPLINE
5
4D6
100
AcDbEntity
8
0
100
AcDbSpline
62
7
6
CONTINUOUS
70
0
71
3
72
13
73
9
74
7
42
0.0000001000
43
0.0000001000
44
0.0000000001
12
0.2499952412
22
-0.2499952412
32
0.0000000000
13
0.0000000000
23
-0.3535466607
33
0.0000000000
40
0.0000000000
40
0.0000000000
40
0.0000000000
40
0.0000000000
40
0.2176724759
40
0.4350476293
40
0.6387593861
40
0.8152322208
40
0.9458072093
40
1.0000000000
40
1.0000000000
40
1.0000000000
40
1.0000000000
10
8.6547851610
20
5.1145827591
30
0.0000000000
10
8.6729241887
20
5.0964437313
30
0.0000000000
10
8.7090966675
20
5.0601569339
30
0.0000000000
10
8.7626811843
20
5.0070755043
30
0.0000000000
10
8.8113057701
20
4.9567939938
30
0.0000000000
10
8.8573112364
20
4.9156597582
30
0.0000000000
10
8.8796770211
20
4.8823473916
30
0.0000000000
10
8.9047851610
20
4.8709788383
30
0.0000000000
10
8.9047851610
20
4.8645922783
30
0.0000000000
11
8.6547851610
21
5.1145827591
31
0.0000000000
11
8.7092022442
21
5.0601656759
31
0.0000000000
11
8.7635449981
21
5.0058229220
31
0.0000000000
11
8.8144719678
21
4.9548959522
31
0.0000000000
11
8.8585893367
21
4.9107785834
31
0.0000000000
11
8.8912324625
21
4.8781354576
31
0.0000000000
11
8.9047851610
21
4.8645922783
31
0.0000000000
0
SPLINE
5
4D7
100
AcDbEntity
8
0
100
AcDbSpline
62
7
6
CONTINUOUS
70
0
71
3
72
13
73
9
74
7
42
0.0000001000
43
0.0000001000
44
0.0000000001
12
0.2500047606
22
0.2500047606
32
0.0000000000
13
0.0000000000
23
0.3535601232
33
0.0000000000
40
0.0000000000
40
0.0000000000
40
0.0000000000
40
0.0000000000
40
0.2164912796
40
0.4340806922
40
0.6386795793
40
0.8158303209
40
0.9462722615
40
1.0000000000
40
1.0000000000
40
1.0000000000
40
1.0000000000
10
8.6547851610
20
5.4391536773
30
0.0000000000
10
8.6728264445
20
5.4571949608
30
0.0000000000
10
8.7089201428
20
5.4934022857
30
0.0000000000
10
8.7625004599
20
5.5464793571
30
0.0000000000
10
8.8112686503
20
5.5969123058
30
0.0000000000
10
8.8574110372
20
5.6381651635
30
0.0000000000
10
8.8797895070
20
5.6714737105
30
0.0000000000
10
8.9047851610
20
5.6828312016
30
0.0000000000
10
8.9047851610
20
5.6891631969
30
0.0000000000
11
8.6547851610
21
5.4391536773
31
0.0000000000
11
8.7089090116
21
5.4932775278
31
0.0000000000
11
8.7633074006
21
5.5476759168
31
0.0000000000
11
8.8144580964
21
5.5988266126
31
0.0000000000
11
8.8587466251
21
5.6431151414
31
0.0000000000
11
8.8913577313
21
5.6757262475
31
0.0000000000
11
8.9047851610
21
5.6891631969
31
0.0000000000
0
SPLINE
5
4D8
100
AcDbEntity
8
0
100
AcDbSpline
62
7
6
CONTINUOUS
70
0
71
3
72
9
73
5
74
3
42
0.0000001000
43
0.0000001000
44
0.0000000001
12
0.1762974342
22
-0.1193242911
32
0.0000000000
13
0.0051027963
23
-0.2128215995
33
0.0000000000
40
0.0000000000
40
0.0000000000
40
0.0000000000
40
0.0000000000
40
0.5622485349
40
1.0000000000
40
1.0000000000
40
1.0000000000
40
1.0000000000
10
-6.1057946626
20
-30.4456031920
30
0.0000000000
10
-6.0727536713
20
-30.4679664946
30
0.0000000000
10
-6.0167468033
20
-30.5138252657
30
0.0000000000
10
-5.9873087120
20
-30.5837548387
30
0.0000000000
10
-5.9865641265
20
-30.6148091610
30
0.0000000000
11
-6.1057946626
21
-30.4456031920
31
0.0000000000
11
-6.0181731248
21
-30.5271438924
31
0.0000000000
11
-5.9865641265
21
-30.6148091610
31
0.0000000000
0
SPLINE
5
4D9
100
AcDbEntity
8
0
100
AcDbSpline
62
7
6
CONTINUOUS
70
0
71
3
72
9
73
5
74
3
42
0.0000001000
43
0.0000001000
44
0.0000000001
12
0.0051027971
22
0.2128216341
32
0.0000000000
13
0.1762974629
23
0.1193243105
33
0.0000000000
40
0.0000000000
40
0.0000000000
40
0.0000000000
40
0.0000000000
40
0.4377411386
40
1.0000000000
40
1.0000000000
40
1.0000000000
40
1.0000000000
10
1.9961344486
20
-30.6148091610
30
0.0000000000
10
1.9968790166
20
-30.5837555662
30
0.0000000000
10
2.0263164384
20
-30.5138259009
30
0.0000000000
10
2.0823233811
20
-30.4679669089
30
0.0000000000
10
2.1153649847
20
-30.4456031920
30
0.0000000000
11
1.9961344486
21
-30.6148091610
31
0.0000000000
11
2.0277421377
21
-30.5271457411
31
0.0000000000
11
2.1153649847
21
-30.4456031920
31
0.0000000000
0
SPLINE
5
4DA
100
AcDbEntity
8
0
100
AcDbSpline
62
7
6
CONTINUOUS
70
0
71
3
72
13
73
9
74
7
42
0.0000001000
43
0.0000001000
44
0.0000000001
12
-0.2499952412
22
0.2499952412
32
0.0000000000
13
0.0000000000
23
0.3535466607
33
0.0000000000
40
0.0000000000
40
0.0000000000
40
0.0000000000
40
0.0000000000
40
0.2176724759
40
0.4350476293
40
0.6387593861
40
0.8152322208
40
0.9458072093
40
1.0000000000
40
1.0000000000
40
1.0000000000
40
1.0000000000
10
-12.6452148390
20
-14.9608463227
30
0.0000000000
10
-12.6633538667
20
-14.9427072950
30
0.0000000000
10
-12.6995263454
20
-14.9064204976
30
0.0000000000
10
-12.7531108622
20
-14.8533390679
30
0.0000000000
10
-12.8017354481
20
-14.8030575575
30
0.0000000000
10
-12.8477409143
20
-14.7619233219
30
0.0000000000
10
-12.8701066990
20
-14.7286109553
30
0.0000000000
10
-12.8952148390
20
-14.7172424020
30
0.0000000000
10
-12.8952148390
20
-14.7108558420
30
0.0000000000
11
-12.6452148390
21
-14.9608463227
31
0.0000000000
11
-12.6996319221
21
-14.9064292396
31
0.0000000000
11
-12.7539746760
21
-14.8520864857
31
0.0000000000
11
-12.8049016458
21
-14.8011595159
31
0.0000000000
11
-12.8490190147
21
-14.7570421471
31
0.0000000000
11
-12.8816621404
21
-14.7243990213
31
0.0000000000
11
-12.8952148390
21
-14.7108558420
31
0.0000000000
0
SPLINE
5
4DB
100
AcDbEntity
8
0
100
AcDbSpline
62
7
6
CONTINUOUS
70
0
71
3
72
12
73
8
74
6
42
0.0000001000
43
0.0000001000
44
0.0000000001
12
0.4692975279
22
0.0000000000
32
0.0000000000
13
0.0000000000
23
0.4692975279
33
0.0000000000
40
0.0000000000
40
0.0000000000
40
0.0000000000
40
0.0000000000
40
0.2000913534
40
0.4000511005
40
0.5995650317
40
0.8000195930
40
1.0000000000
40
1.0000000000
40
1.0000000000
40
1.0000000000
10
5.1053045968
20
11.3263528947
30
0.0000000000
10
5.1366053893
20
11.3263528947
30
0.0000000000
10
5.1996279215
20
11.3363106192
30
0.0000000000
10
5.2845028291
20
11.3796016835
30
0.0000000000
10
5.3519984051
20
11.4470554643
30
0.0000000000
10
5.3953394711
20
11.5319835958
30
0.0000000000
10
5.4053004845
20
11.5950653455
30
0.0000000000
10
5.4053004845
20
11.6263487823
30
0.0000000000
11
5.1053045968
21
11.3263528947
31
0.0000000000
11
5.1980498586
21
11.3410489119
31
0.0000000000
11
5.2816578100
21
11.3836607823
31
0.0000000000
11
5.3478853286
21
11.4498480458
31
0.0000000000
11
5.3906207600
21
11.5336536557
31
0.0000000000
11
5.4053004845
21
11.6263487823
31
0.0000000000
0
SPLINE
5
4DC
100
AcDbEntity
8
0
100
AcDbSpline
62
7
6
CONTINUOUS
70
0
71
3
72
13
73
9
74
7
42
0.0000001000
43
0.0000001000
44
0.0000000001
12
-0.2500047606
22
-0.2500047606
32
0.0000000000
13
0.0000000000
23
-0.3535601232
33
0.0000000000
40
0.0000000000
40
0.0000000000
40
0.0000000000
40
0.0000000000
40
0.2164912796
40
0.4340806922
40
0.6386795793
40
0.8158303209
40
0.9462722615
40
1.0000000000
40
1.0000000000
40
1.0000000000
40
1.0000000000
10
-12.6452148390
20
-15.2854172409
30
0.0000000000
10
-12.6632561225
20
-15.3034585245
30
0.0000000000
10
-12.6993498208
20
-15.3396658494
30
0.0000000000
10
-12.7529301379
20
-15.3927429208
30
0.0000000000
10
-12.8016983282
20
-15.4431758695
30
0.0000000000
10
-12.8478407152
20
-15.4844287271
30
0.0000000000
10
-12.8702191849
20
-15.5177372742
30
0.0000000000
10
-12.8952148390
20
-15.5290947653
30
0.0000000000
10
-12.8952148390
20
-15.5354267605
30
0.0000000000
11
-12.6452148390
21
-15.2854172409
31
0.0000000000
11
-12.6993386895
21
-15.3395410915
31
0.0000000000
11
-12.7537370785
21
-15.3939394805
31
0.0000000000
11
-12.8048877743
21
-15.4450901763
31
0.0000000000
11
-12.8491763031
21
-15.4893787051
31
0.0000000000
11
-12.8817874092
21
-15.5219898112
31
0.0000000000
11
-12.8952148390
21
-15.5354267605
31
0.0000000000
0
SPLINE
5
4DD
100
AcDbEntity
8
0
100
AcDbSpline
62
7
6
CONTINUOUS
70
0
71
3
72
9
73
5
74
3
42
0.0000001000
43
0.0000001000
44
0.0000000001
12
0.1762974342
22
0.1193242911
32
0.0000000000
13
0.0051027963
23
0.2128215995
33
0.0000000000
40
0.0000000000
40
0.0000000000
40
0.0000000000
40
0.0000000000
40
0.5622485349
40
1.0000000000
40
1.0000000000
40
1.0000000000
40
1.0000000000
10
-6.1057946626
20
14.3993396283
30
0.0000000000
10
-6.0727536713
20
14.4217029309
30
0.0000000000
10
-6.0167468033
20
14.4675617020
30
0.0000000000
10
-5.9873087120
20
14.5374912750
30
0.0000000000
10
-5.9865641265
20
14.5685455973
30
0.0000000000
11
-6.1057946626
21
14.3993396283
31
0.0000000000
11
-6.0181731248
21
14.4808803287
31
0.0000000000
11
-5.9865641265
21
14.5685455973
31
0.0000000000
0
SPLINE
5
4DE
100
AcDbEntity
8
0
100
AcDbSpline
62
7
6
CONTINUOUS
70
0
71
3
72
9
73
5
74
3
42
0.0000001000
43
0.0000001000
44
0.0000000001
12
0.0051027971
22
-0.2128216341
32
0.0000000000
13
0.1762974629
23
-0.1193243105
33
0.0000000000
40
0.0000000000
40
0.0000000000
40
0.0000000000
40
0.0000000000
40
0.4377411386
40
1.0000000000
40
1.0000000000
40
1.0000000000
40
1.0000000000
10
1.9961344486
20
14.5685455973
30
0.0000000000
10
1.9968790166
20
14.5374920025
30
0.0000000000
10
2.0263164384
20
14.4675623373
30
0.0000000000
10
2.0823233811
20
14.4217033453
30
0.0000000000
10
2.1153649847
20
14.3993396283
30
0.0000000000
11
1.9961344486
21
14.5685455973
31
0.0000000000
11
2.0277421377
21
14.4808821774
31
0.0000000000
11
2.1153649847
21
14.3993396283
31
0.0000000000
0
SPLINE
5
4DF
100
AcDbEntity
8
0
100
AcDbSpline
62
7
6
CONTINUOUS
70
0
71
3
72
13
73
9
74
7
42
0.0000001000
43
0.0000001000
44
0.0000000001
12
0.2499952412
22
0.2499952412
32
0.0000000000
13
0.0000000000
23
0.3535466607
33
0.0000000000
40
0.0000000000
40
0.0000000000
40
0.0000000000
40
0.0000000000
40
0.2176724759
40
0.4350476293
40
0.6387593861
40
0.8152322208
40
0.9458072093
40
1.0000000000
40
1.0000000000
40
1.0000000000
40
1.0000000000
10
-8.7452148390
20
7.0391536773
30
0.0000000000
10
-8.7270758113
20
7.0572927050
30
0.0000000000
10
-8.6909033325
20
7.0935795024
30
0.0000000000
10
-8.6373188157
20
7.1466609321
30
0.0000000000
10
-8.5886942299
20
7.1969424425
30
0.0000000000
10
-8.5426887636
20
7.2380766781
30
0.0000000000
10
-8.5203229789
20
7.2713890447
30
0.0000000000
10
-8.4952148390
20
7.2827575980
30
0.0000000000
10
-8.4952148390
20
7.2891441580
30
0.0000000000
11
-8.7452148390
21
7.0391536773
31
0.0000000000
11
-8.6907977558
21
7.0935707604
31
0.0000000000
11
-8.6364550019
21
7.1479135143
31
0.0000000000
11
-8.5855280322
21
7.1988404841
31
0.0000000000
11
-8.5414106633
21
7.2429578529
31
0.0000000000
11
-8.5087675375
21
7.2756009787
31
0.0000000000
11
-8.4952148390
21
7.2891441580
31
0.0000000000
0
SPLINE
5
4E0
100
AcDbEntity
8
0
100
AcDbSpline
62
7
6
CONTINUOUS
70
0
71
3
72
12
73
8
74
6
42
0.0000001000
43
0.0000001000
44
0.0000000001
12
-0.2125010499
22
0.2125010499
32
0.0000000000
13
-0.2125010499
23
0.2125010499
33
0.0000000000
40
0.0000000000
40
0.0000000000
40
0.0000000000
40
0.0000000000
40
0.2027936401
40
0.5358445425
40
0.7884666250
40
0.9458323523
40
1.0000000000
40
1.0000000000
40
1.0000000000
40
1.0000000000
10
-9.1949897289
20
5.4766431081
30
0.0000000000
10
-9.2093543494
20
5.4910077286
30
0.0000000000
10
-9.2473101920
20
5.5289635712
30
0.0000000000
10
-9.3031601872
20
5.5848135664
30
0.0000000000
10
-9.3557923561
20
5.6374457352
30
0.0000000000
10
-9.3886701967
20
5.6703235759
30
0.0000000000
10
-9.4036538848
20
5.6853072640
30
0.0000000000
10
-9.4074907788
20
5.6891441580
30
0.0000000000
11
-9.1949897289
21
5.4766431081
31
0.0000000000
11
-9.2380835903
21
5.5197369695
31
0.0000000000
11
-9.3088572568
21
5.5905106360
31
0.0000000000
11
-9.3625397146
21
5.6441930938
31
0.0000000000
11
-9.3959800968
21
5.6776334760
31
0.0000000000
11
-9.4074907788
21
5.6891441580
31
0.0000000000
0
SPLINE
5
4E1
100
AcDbEntity
8
0
100
AcDbSpline
62
7
6
CONTINUOUS
70
0
71
3
72
12
73
8
74
6
42
0.0000001000
43
0.0000001000
44
0.0000000001
12
0.0000000000
22
0.7821449713
32
0.0000000000
13
-0.7821449713
23
0.0000000000
33
0.0000000000
40
0.0000000000
40
0.0000000000
40
0.0000000000
40
0.0000000000
40
0.1990994105
40
0.4000808791
40
0.5996317239
40
0.8010552663
40
1.0000000000
40
1.0000000000
40
1.0000000000
40
1.0000000000
10
7.9969309800
20
-19.2309669244
30
0.0000000000
10
7.9969309800
20
-19.1790587235
30
0.0000000000
10
7.9804230034
20
-19.0740271012
30
0.0000000000
10
7.9083584709
20
-18.9324692625
30
0.0000000000
10
7.7955532689
20
-18.8196114677
30
0.0000000000
10
7.6539225972
20
-18.7474916464
30
0.0000000000
10
7.5488178928
20
-18.7309859629
30
0.0000000000
10
7.4969500185
20
-18.7309859629
30
0.0000000000
11
7.9969309800
21
-19.2309669244
31
0.0000000000
11
7.9726811832
21
-19.0771420264
31
0.0000000000
11
7.9014077772
21
-18.9370317598
31
0.0000000000
11
7.7910693141
21
-18.8266430430
31
0.0000000000
11
7.6506583792
21
-18.7551980954
31
0.0000000000
11
7.4969500185
21
-18.7309859629
31
0.0000000000
0
SPLINE
5
4E2
100
AcDbEntity
8
0
100
AcDbSpline
62
7
6
CONTINUOUS
70
0
71
3
72
12
73
8
74
6
42
0.0000001000
43
0.0000001000
44
0.0000000001
12
0.7821449713
22
0.0000000000
32
0.0000000000
13
-0.0000000000
23
0.7821449713
33
0.0000000000
40
0.0000000000
40
0.0000000000
40
0.0000000000
40
0.0000000000
40
0.1990994105
40
0.4000808791
40
0.5996317239
40
0.8010552663
40
1.0000000000
40
1.0000000000
40
1.0000000000
40
1.0000000000
10
7.4969500185
20
-28.5152776008
30
0.0000000000
10
7.5488582194
20
-28.5152776008
30
0.0000000000
10
7.6538898417
20
-28.4987696242
30
0.0000000000
10
7.7954476804
20
-28.4267050917
30
0.0000000000
10
7.9083054751
20
-28.3138998897
30
0.0000000000
10
7.9804252964
20
-28.1722692180
30
0.0000000000
10
7.9969309800
20
-28.0671645136
30
0.0000000000
10
7.9969309800
20
-28.0152966393
30
0.0000000000
11
7.4969500185
21
-28.5152776008
31
0.0000000000
11
7.6507749165
21
-28.4910278041
31
0.0000000000
11
7.7908851830
21
-28.4197543981
31
0.0000000000
11
7.9012738999
21
-28.3094159349
31
0.0000000000
11
7.9727188475
21
-28.1690050000
31
0.0000000000
11
7.9969309800
21
-28.0152966393
31
0.0000000000
0
SPLINE
5
4E3
100
AcDbEntity
8
0
100
AcDbSpline
62
7
6
CONTINUOUS
70
0
71
3
72
12
73
8
74
6
42
0.0000001000
43
0.0000001000
44
0.0000000001
12
0.0000000000
22
-0.7821449713
32
0.0000000000
13
0.7821449713
23
0.0000000000
33
0.0000000000
40
0.0000000000
40
0.0000000000
40
0.0000000000
40
0.0000000000
40
0.1990994105
40
0.4000808791
40
0.5996317239
40
0.8010552663
40
1.0000000000
40
1.0000000000
40
1.0000000000
40
1.0000000000
10
-11.9873606580
20
-28.0152966393
30
0.0000000000
10
-11.9873606580
20
-28.0672048402
30
0.0000000000
10
-11.9708526813
20
-28.1722364625
30
0.0000000000
10
-11.8987881489
20
-28.3137943012
30
0.0000000000
10
-11.7859829469
20
-28.4266520960
30
0.0000000000
10
-11.6443522751
20
-28.4987719173
30
0.0000000000
10
-11.5392475708
20
-28.5152776008
30
0.0000000000
10
-11.4873796964
20
-28.5152776008
30
0.0000000000
11
-11.9873606580
21
-28.0152966393
31
0.0000000000
11
-11.9631108612
21
-28.1691215373
31
0.0000000000
11
-11.8918374552
21
-28.3092318038
31
0.0000000000
11
-11.7814989920
21
-28.4196205207
31
0.0000000000
11
-11.6410880571
21
-28.4910654683
31
0.0000000000
11
-11.4873796964
21
-28.5152776008
31
0.0000000000
0
SPLINE
5
4E4
100
AcDbEntity
8
0
100
AcDbSpline
62
7
6
CONTINUOUS
70
0
71
3
72
12
73
8
74
6
42
0.0000001000
43
0.0000001000
44
0.0000000001
12
-0.7821449713
22
0.0000000000
32
0.0000000000
13
-0.0000000000
23
-0.7821449713
33
0.0000000000
40
0.0000000000
40
0.0000000000
40
0.0000000000
40
0.0000000000
40
0.1990994105
40
0.4000808791
40
0.5996317239
40
0.8010552663
40
1.0000000000
40
1.0000000000
40
1.0000000000
40
1.0000000000
10
-11.4873796964
20
-18.7309859629
30
0.0000000000
10
-11.5392878973
20
-18.7309859629
30
0.0000000000
10
-11.6443195196
20
-18.7474939395
30
0.0000000000
10
-11.7858773583
20
-18.8195584719
30
0.0000000000
10
-11.8987351531
20
-18.9323636740
30
0.0000000000
10
-11.9708549744
20
-19.0739943457
30
0.0000000000
10
-11.9873606580
20
-19.1790990500
30
0.0000000000
10
-11.9873606580
20
-19.2309669244
30
0.0000000000
11
-11.4873796964
21
-18.7309859629
31
0.0000000000
11
-11.6412045944
21
-18.7552357596
31
0.0000000000
11
-11.7813148610
21
-18.8265091656
31
0.0000000000
11
-11.8917035778
21
-18.9368476288
31
0.0000000000
11
-11.9631485254
21
-19.0772585637
31
0.0000000000
11
-11.9873606580
21
-19.2309669244
31
0.0000000000
0
SPLINE
5
4E5
100
AcDbEntity
8
0
100
AcDbSpline
62
9
6
CONTINUOUS
70
0
71
3
72
9
73
5
74
3
42
0.0000001000
43
0.0000001000
44
0.0000000001
12
-0.0554597700
22
6.2771092266
32
0.0000000000
13
-0.0554597700
23
6.2771092266
33
0.0000000000
40
0.0000000000
40
0.0000000000
40
0.0000000000
40
0.0000000000
40
0.6135803263
40
1.0000000000
40
1.0000000000
40
1.0000000000
40
1.0000000000
10
-4.2530690200
20
-25.2502410085
30
0.0000000000
10
-4.2644120279
20
-23.9664040993
30
0.0000000000
10
-4.2828986179
20
-21.8740343571
30
0.0000000000
10
-4.3013852079
20
-19.7816646149
30
0.0000000000
10
-4.3085287900
20
-18.9731317818
30
0.0000000000
11
-4.2530690200
21
-25.2502410085
31
0.0000000000
11
-4.2870980438
21
-21.3987302809
31
0.0000000000
11
-4.3085287900
21
-18.9731317818
31
0.0000000000
0
SPLINE
5
4E6
100
AcDbEntity
8
0
100
AcDbSpline
62
7
6
CONTINUOUS
70
0
71
3
72
13
73
9
74
7
42
0.0000001000
43
0.0000001000
44
0.0000000001
12
0.2499952412
22
0.2499952412
32
0.0000000000
13
0.0000000000
23
0.3535466607
33
0.0000000000
40
0.0000000000
40
0.0000000000
40
0.0000000000
40
0.0000000000
40
0.2176724759
40
0.4350476293
40
0.6387593861
40
0.8152322208
40
0.9458072093
40
1.0000000000
40
1.0000000000
40
1.0000000000
40
1.0000000000
10
8.6547851610
20
-14.9608463227
30
0.0000000000
10
8.6729241887
20
-14.9427072950
30
0.0000000000
10
8.7090966675
20
-14.9064204976
30
0.0000000000
10
8.7626811843
20
-14.8533390679
30
0.0000000000
10
8.8113057701
20
-14.8030575575
30
0.0000000000
10
8.8573112364
20
-14.7619233219
30
0.0000000000
10
8.8796770211
20
-14.7286109553
30
0.0000000000
10
8.9047851610
20
-14.7172424020
30
0.0000000000
10
8.9047851610
20
-14.7108558420
30
0.0000000000
11
8.6547851610
21
-14.9608463227
31
0.0000000000
11
8.7092022442
21
-14.9064292396
31
0.0000000000
11
8.7635449981
21
-14.8520864857
31
0.0000000000
11
8.8144719678
21
-14.8011595159
31
0.0000000000
11
8.8585893367
21
-14.7570421471
31
0.0000000000
11
8.8912324625
21
-14.7243990213
31
0.0000000000
11
8.9047851610
21
-14.7108558420
31
0.0000000000
0
SPLINE
5
4E7
100
AcDbEntity
8
0
100
AcDbSpline
62
9
6
CONTINUOUS
70
0
71
3
72
9
73
5
74
3
42
0.0000001000
43
0.0000001000
44
0.0000000001
12
-0.0554597700
22
-6.2771092266
32
0.0000000000
13
-0.0554597700
23
-6.2771092266
33
0.0000000000
40
0.0000000000
40
0.0000000000
40
0.0000000000
40
0.0000000000
40
0.3864196737
40
1.0000000000
40
1.0000000000
40
1.0000000000
40
1.0000000000
10
0.3180991121
20
-18.9731317818
30
0.0000000000
10
0.3109555300
20
-19.7816646149
30
0.0000000000
10
0.2924689400
20
-21.8740343571
30
0.0000000000
10
0.2739823500
20
-23.9664040993
30
0.0000000000
10
0.2626393420
20
-25.2502410085
30
0.0000000000
11
0.3180991121
21
-18.9731317818
31
0.0000000000
11
0.2966683658
21
-21.3987302809
31
0.0000000000
11
0.2626393420
21
-25.2502410085
31
0.0000000000
0
SPLINE
5
4E8
100
AcDbEntity
8
0
100
AcDbSpline
62
7
6
CONTINUOUS
70
0
71
3
72
13
73
9
74
7
42
0.0000001000
43
0.0000001000
44
0.0000000001
12
-0.2500047606
22
0.2500047606
32
0.0000000000
13
0.0000000000
23
0.3535601232
33
0.0000000000
40
0.0000000000
40
0.0000000000
40
0.0000000000
40
0.0000000000
40
0.2164912796
40
0.4340806922
40
0.6386795793
40
0.8158303209
40
0.9462722615
40
1.0000000000
40
1.0000000000
40
1.0000000000
40
1.0000000000
10
4.7547851610
20
7.0391536773
30
0.0000000000
10
4.7367438775
20
7.0571949608
30
0.0000000000
10
4.7006501792
20
7.0934022857
30
0.0000000000
10
4.6470698621
20
7.1464793571
30
0.0000000000
10
4.5983016718
20
7.1969123058
30
0.0000000000
10
4.5521592848
20
7.2381651635
30
0.0000000000
10
4.5297808151
20
7.2714737105
30
0.0000000000
10
4.5047851610
20
7.2828312016
30
0.0000000000
10
4.5047851610
20
7.2891631969
30
0.0000000000
11
4.7547851610
21
7.0391536773
31
0.0000000000
11
4.7006613105
21
7.0932775278
31
0.0000000000
11
4.6462629215
21
7.1476759168
31
0.0000000000
11
4.5951122257
21
7.1988266126
31
0.0000000000
11
4.5508236969
21
7.2431151414
31
0.0000000000
11
4.5182125908
21
7.2757262475
31
0.0000000000
11
4.5047851610
21
7.2891631969
31
0.0000000000
0
SPLINE
5
4E9
100
AcDbEntity
8
0
100
AcDbSpline
62
7
6
CONTINUOUS
70
0
71
3
72
13
73
9
74
7
42
0.0000001000
43
0.0000001000
44
0.0000000001
12
0.2500047606
22
-0.2500047606
32
0.0000000000
13
-0.0000000000
23
-0.3535601232
33
0.0000000000
40
0.0000000000
40
0.0000000000
40
0.0000000000
40
0.0000000000
40
0.2164912796
40
0.4340806922
40
0.6386795793
40
0.8158303209
40
0.9462722615
40
1.0000000000
40
1.0000000000
40
1.0000000000
40
1.0000000000
10
8.6547851610
20
-15.2854172409
30
0.0000000000
10
8.6728264445
20
-15.3034585245
30
0.0000000000
10
8.7089201428
20
-15.3396658494
30
0.0000000000
10
8.7625004599
20
-15.3927429208
30
0.0000000000
10
8.8112686503
20
-15.4431758695
30
0.0000000000
10
8.8574110372
20
-15.4844287271
30
0.0000000000
10
8.8797895070
20
-15.5177372742
30
0.0000000000
10
8.9047851610
20
-15.5290947653
30
0.0000000000
10
8.9047851610
20
-15.5354267605
30
0.0000000000
11
8.6547851610
21
-15.2854172409
31
0.0000000000
11
8.7089090116
21
-15.3395410915
31
0.0000000000
11
8.7633074006
21
-15.3939394805
31
0.0000000000
11
8.8144580964
21
-15.4450901763
31
0.0000000000
11
8.8587466251
21
-15.4893787051
31
0.0000000000
11
8.8913577313
21
-15.5219898112
31
0.0000000000
11
8.9047851610
21
-15.5354267605
31
0.0000000000
0
SPLINE
5
4EA
100
AcDbEntity
8
0
100
AcDbSpline
62
7
6
CONTINUOUS
70
0
71
3
72
12
73
8
74
6
42
0.0000001000
43
0.0000001000
44
0.0000000001
12
-0.4692975279
22
0.0000000000
32
0.0000000000
13
0.0000000000
23
0.4692975279
33
0.0000000000
40
0.0000000000
40
0.0000000000
40
0.0000000000
40
0.0000000000
40
0.2000913534
40
0.4000511005
40
0.5995650317
40
0.8000195930
40
1.0000000000
40
1.0000000000
40
1.0000000000
40
1.0000000000
10
-9.1952189513
20
11.2268682182
30
0.0000000000
10
-9.2265197438
20
11.2268682182
30
0.0000000000
10
-9.2895422759
20
11.2368259427
30
0.0000000000
10
-9.3744171835
20
11.2801170070
30
0.0000000000
10
-9.4419127596
20
11.3475707878
30
0.0000000000
10
-9.4852538255
20
11.4324989193
30
0.0000000000
10
-9.4952148390
20
11.4955806690
30
0.0000000000
10
-9.4952148390
20
11.5268641058
30
0.0000000000
11
-9.1952189513
21
11.2268682182
31
0.0000000000
11
-9.2879642130
21
11.2415642354
31
0.0000000000
11
-9.3715721644
21
11.2841761058
31
0.0000000000
11
-9.4377996830
21
11.3503633693
31
0.0000000000
11
-9.4805351145
21
11.4341689792
31
0.0000000000
11
-9.4952148390
21
11.5268641058
31
0.0000000000
0
SPLINE
5
4EB
100
AcDbEntity
8
0
100
AcDbSpline
62
7
6
CONTINUOUS
70
0
71
3
72
12
73
8
74
6
42
0.0000001000
43
0.0000001000
44
0.0000000001
12
0.0000000000
22
-0.4692975279
32
0.0000000000
13
-0.4692975279
23
-0.0000000000
33
0.0000000000
40
0.0000000000
40
0.0000000000
40
0.0000000000
40
0.0000000000
40
0.1999804070
40
0.4004349683
40
0.5999488995
40
0.7999086466
40
1.0000000000
40
1.0000000000
40
1.0000000000
40
1.0000000000
10
5.5047851610
20
11.5268641058
30
0.0000000000
10
5.5047851610
20
11.4955806690
30
0.0000000000
10
5.4948241476
20
11.4324989193
30
0.0000000000
10
5.4514830816
20
11.3475707878
30
0.0000000000
10
5.3839875056
20
11.2801170070
30
0.0000000000
10
5.2991125980
20
11.2368259427
30
0.0000000000
10
5.2360900659
20
11.2268682182
30
0.0000000000
10
5.2047892734
20
11.2268682182
30
0.0000000000
11
5.5047851610
21
11.5268641058
31
0.0000000000
11
5.4901054366
21
11.4341689792
31
0.0000000000
11
5.4473700051
21
11.3503633693
31
0.0000000000
11
5.3811424865
21
11.2841761058
31
0.0000000000
11
5.2975345351
21
11.2415642354
31
0.0000000000
11
5.2047892734
21
11.2268682182
31
0.0000000000
0
SPLINE
5
4EC
100
AcDbEntity
8
0
100
AcDbSpline
62
7
6
CONTINUOUS
70
0
71
3
72
12
73
8
74
6
42
0.0000001000
43
0.0000001000
44
0.0000000001
12
0.0000000000
22
0.4692975279
32
0.0000000000
13
0.4692975279
23
-0.0000000000
33
0.0000000000
40
0.0000000000
40
0.0000000000
40
0.0000000000
40
0.0000000000
40
0.1999804070
40
0.4004349683
40
0.5999488995
40
0.7999086466
40
1.0000000000
40
1.0000000000
40
1.0000000000
40
1.0000000000
10
-9.4905024069
20
-27.5778401016
30
0.0000000000
10
-9.4905024069
20
-27.5465566647
30
0.0000000000
10
-9.4805413935
20
-27.4834749151
30
0.0000000000
10
-9.4372003275
20
-27.3985467835
30
0.0000000000
10
-9.3697047515
20
-27.3310930027
30
0.0000000000
10
-9.2848298439
20
-27.2878019384
30
0.0000000000
10
-9.2218073117
20
-27.2778442139
30
0.0000000000
10
-9.1905065193
20
-27.2778442139
30
0.0000000000
11
-9.4905024069
21
-27.5778401016
31
0.0000000000
11
-9.4758226824
21
-27.4851449750
31
0.0000000000
11
-9.4330872510
21
-27.4013393650
31
0.0000000000
11
-9.3668597324
21
-27.3351521015
31
0.0000000000
11
-9.2832517810
21
-27.2925402312
31
0.0000000000
11
-9.1905065193
21
-27.2778442139
31
0.0000000000
0
SPLINE
5
4ED
100
AcDbEntity
8
0
100
AcDbSpline
62
7
6
CONTINUOUS
70
0
71
3
72
12
73
8
74
6
42
0.0000001000
43
0.0000001000
44
0.0000000001
12
0.4692975279
22
0.0000000000
32
0.0000000000
13
-0.0000000000
23
-0.4692975279
33
0.0000000000
40
0.0000000000
40
0.0000000000
40
0.0000000000
40
0.0000000000
40
0.2000913534
40
0.4000511005
40
0.5995650317
40
0.8000195930
40
1.0000000000
40
1.0000000000
40
1.0000000000
40
1.0000000000
10
5.2000768413
20
-27.2778442139
30
0.0000000000
10
5.2313776338
20
-27.2778442139
30
0.0000000000
10
5.2944001659
20
-27.2878019384
30
0.0000000000
10
5.3792750736
20
-27.3310930027
30
0.0000000000
10
5.4467706496
20
-27.3985467835
30
0.0000000000
10
5.4901117156
20
-27.4834749151
30
0.0000000000
10
5.5000727290
20
-27.5465566647
30
0.0000000000
10
5.5000727290
20
-27.5778401016
30
0.0000000000
11
5.2000768413
21
-27.2778442139
31
0.0000000000
11
5.2928221031
21
-27.2925402312
31
0.0000000000
11
5.3764300544
21
-27.3351521015
31
0.0000000000
11
5.4426575730
21
-27.4013393650
31
0.0000000000
11
5.4853930045
21
-27.4851449750
31
0.0000000000
11
5.5000727290
21
-27.5778401016
31
0.0000000000
0
SPLINE
5
4EE
100
AcDbEntity
8
0
100
AcDbSpline
62
7
6
CONTINUOUS
70
0
71
3
72
12
73
8
74
6
42
0.0000001000
43
0.0000001000
44
0.0000000001
12
0.0000000000
22
-0.7821449713
32
0.0000000000
13
-0.7821449713
23
0.0000000000
33
0.0000000000
40
0.0000000000
40
0.0000000000
40
0.0000000000
40
0.0000000000
40
0.1989447337
40
0.4003682761
40
0.5999191209
40
0.8009005895
40
1.0000000000
40
1.0000000000
40
1.0000000000
40
1.0000000000
10
8.0047851610
20
-28.0231508203
30
0.0000000000
10
8.0047851610
20
-28.0750186947
30
0.0000000000
10
7.9882794775
20
-28.1801233990
30
0.0000000000
10
7.9161596562
20
-28.3217540707
30
0.0000000000
10
7.8033018614
20
-28.4345592728
30
0.0000000000
10
7.6617440227
20
-28.5066238052
30
0.0000000000
10
7.5567124004
20
-28.5231317818
30
0.0000000000
10
7.5048041995
20
-28.5231317818
30
0.0000000000
11
8.0047851610
21
-28.0231508203
31
0.0000000000
11
7.9805730285
21
-28.1768591810
31
0.0000000000
11
7.9091280809
21
-28.3172701159
31
0.0000000000
11
7.7987393640
21
-28.4276085791
31
0.0000000000
11
7.6586290975
21
-28.4988819851
31
0.0000000000
11
7.5048041995
21
-28.5231317818
31
0.0000000000
0
SPLINE
5
4EF
100
AcDbEntity
8
0
100
AcDbSpline
62
7
6
CONTINUOUS
70
0
71
3
72
12
73
8
74
6
42
0.0000001000
43
0.0000001000
44
0.0000000001
12
-0.7821449713
22
0.0000000000
32
0.0000000000
13
0.0000000000
23
0.7821449713
33
0.0000000000
40
0.0000000000
40
0.0000000000
40
0.0000000000
40
0.0000000000
40
0.1989447337
40
0.4003682761
40
0.5999191209
40
0.8009005895
40
1.0000000000
40
1.0000000000
40
1.0000000000
40
1.0000000000
10
-11.4952338774
20
-28.5231317818
30
0.0000000000
10
-11.5471017518
20
-28.5231317818
30
0.0000000000
10
-11.6522064561
20
-28.5066260983
30
0.0000000000
10
-11.7938371279
20
-28.4345062770
30
0.0000000000
10
-11.9066423299
20
-28.3216484822
30
0.0000000000
10
-11.9787068624
20
-28.1800906435
30
0.0000000000
10
-11.9952148390
20
-28.0750590212
30
0.0000000000
10
-11.9952148390
20
-28.0231508203
30
0.0000000000
11
-11.4952338774
21
-28.5231317818
31
0.0000000000
11
-11.6489422381
21
-28.4989196493
31
0.0000000000
11
-11.7893531730
21
-28.4274747017
31
0.0000000000
11
-11.8996916362
21
-28.3170859849
31
0.0000000000
11
-11.9709650422
21
-28.1769757183
31
0.0000000000
11
-11.9952148390
21
-28.0231508203
31
0.0000000000
0
SPLINE
5
4F0
100
AcDbEntity
8
0
100
AcDbSpline
62
7
6
CONTINUOUS
70
0
71
3
72
12
73
8
74
6
42
0.0000001000
43
0.0000001000
44
0.0000000001
12
0.0000000000
22
0.7821449713
32
0.0000000000
13
0.7821449713
23
-0.0000000000
33
0.0000000000
40
0.0000000000
40
0.0000000000
40
0.0000000000
40
0.0000000000
40
0.1989447337
40
0.4003682761
40
0.5999191209
40
0.8009005895
40
1.0000000000
40
1.0000000000
40
1.0000000000
40
1.0000000000
10
-11.9952148390
20
-19.2231127434
30
0.0000000000
10
-11.9952148390
20
-19.1712448690
30
0.0000000000
10
-11.9787091554
20
-19.0661401647
30
0.0000000000
10
-11.9065893341
20
-18.9245094929
30
0.0000000000
10
-11.7937315393
20
-18.8117042909
30
0.0000000000
10
-11.6521737006
20
-18.7396397585
30
0.0000000000
10
-11.5471420783
20
-18.7231317818
30
0.0000000000
10
-11.4952338774
20
-18.7231317818
30
0.0000000000
11
-11.9952148390
21
-19.2231127434
31
0.0000000000
11
-11.9710027065
21
-19.0694043827
31
0.0000000000
11
-11.8995577588
21
-18.9289934478
31
0.0000000000
11
-11.7891690420
21
-18.8186549846
31
0.0000000000
11
-11.6490587755
21
-18.7473815786
31
0.0000000000
11
-11.4952338774
21
-18.7231317818
31
0.0000000000
0
SPLINE
5
4F1
100
AcDbEntity
8
0
100
AcDbSpline
62
7
6
CONTINUOUS
70
0
71
3
72
12
73
8
74
6
42
0.0000001000
43
0.0000001000
44
0.0000000001
12
0.7821449713
22
0.0000000000
32
0.0000000000
13
-0.0000000000
23
-0.7821449713
33
0.0000000000
40
0.0000000000
40
0.0000000000
40
0.0000000000
40
0.0000000000
40
0.1989447337
40
0.4003682761
40
0.5999191209
40
0.8009005895
40
1.0000000000
40
1.0000000000
40
1.0000000000
40
1.0000000000
10
7.5048041995
20
-18.7231317818
30
0.0000000000
10
7.5566720739
20
-18.7231317818
30
0.0000000000
10
7.6617767782
20
-18.7396374654
30
0.0000000000
10
7.8034074499
20
-18.8117572867
30
0.0000000000
10
7.9162126519
20
-18.9246150815
30
0.0000000000
10
7.9882771844
20
-19.0661729202
30
0.0000000000
10
8.0047851610
20
-19.1712045425
30
0.0000000000
10
8.0047851610
20
-19.2231127434
30
0.0000000000
11
7.5048041995
21
-18.7231317818
31
0.0000000000
11
7.6585125602
21
-18.7473439143
31
0.0000000000
11
7.7989234951
21
-18.8187888620
31
0.0000000000
11
7.9092619583
21
-18.9291775788
31
0.0000000000
11
7.9805353643
21
-19.0692878454
31
0.0000000000
11
8.0047851610
21
-19.2231127434
31
0.0000000000
0
SPLINE
5
4F2
100
AcDbEntity
8
0
100
AcDbSpline
62
7
6
CONTINUOUS
70
0
71
3
72
13
73
9
74
7
42
0.0000001000
43
0.0000001000
44
0.0000000001
12
0.1370975421
22
0.6720230035
32
0.0000000000
13
0.6826573401
23
0.0000000000
33
0.0000000000
40
0.0000000000
40
0.0000000000
40
0.0000000000
40
0.0000000000
40
0.0648932723
40
0.2632160917
40
0.4526011790
40
0.6391843557
40
0.8229449562
40
1.0000000000
40
1.0000000000
40
1.0000000000
40
1.0000000000
10
4.5149263615
20
5.4769670086
30
0.0000000000
10
4.5178919309
20
5.4915035992
30
0.0000000000
10
4.5325314616
20
5.5499404866
30
0.0000000000
10
4.5756611316
20
5.6447904839
30
0.0000000000
10
4.6599635794
20
5.7465772106
30
0.0000000000
10
4.7646556586
20
5.8215524942
30
0.0000000000
10
4.8820522805
20
5.8668503458
30
0.0000000000
10
4.9644958526
20
5.8768682182
30
0.0000000000
10
5.0047851610
20
5.8768682182
30
0.0000000000
11
4.5149263615
21
5.4769670086
31
0.0000000000
11
4.5257451392
21
5.5201185497
31
0.0000000000
11
4.5817374794
21
5.6433839946
31
0.0000000000
11
4.6642143536
21
5.7429440643
31
0.0000000000
11
4.7677613335
21
5.8171178123
31
0.0000000000
11
4.8848033672
21
5.8622591628
31
0.0000000000
11
5.0047851610
21
5.8768682182
31
0.0000000000
0
SPLINE
5
4F3
100
AcDbEntity
8
0
100
AcDbSpline
62
7
6
CONTINUOUS
70
0
71
3
72
12
73
8
74
6
42
0.0000001000
43
0.0000001000
44
0.0000000001
12
-0.2125020471
22
-0.2125020471
32
0.0000000000
13
-0.2125020471
23
-0.2125020471
33
0.0000000000
40
0.0000000000
40
0.0000000000
40
0.0000000000
40
0.0000000000
40
0.0592351163
40
0.2265789699
40
0.4751434568
40
0.8092725512
40
1.0000000000
40
1.0000000000
40
1.0000000000
40
1.0000000000
10
5.4170611009
20
5.6891441580
30
0.0000000000
10
5.4128652397
20
5.6849482969
30
0.0000000000
10
5.3968157414
20
5.6688987986
30
0.0000000000
10
5.3631594223
20
5.6352424795
30
0.0000000000
10
5.3100312589
20
5.5821143160
30
0.0000000000
10
5.2552467415
20
5.5273297986
30
0.0000000000
10
5.2180690449
20
5.4901521020
30
0.0000000000
10
5.2045590538
20
5.4766421109
30
0.0000000000
11
5.4170611009
21
5.6891441580
31
0.0000000000
11
5.4044735174
21
5.6765565746
31
0.0000000000
11
5.3689126060
21
5.6409956631
31
0.0000000000
11
5.3160921437
21
5.5881752008
31
0.0000000000
11
5.2450890271
21
5.5171720842
31
0.0000000000
11
5.2045590538
21
5.4766421109
31
0.0000000000
0
SPLINE
5
4F4
100
AcDbEntity
8
0
100
AcDbSpline
62
7
6
CONTINUOUS
70
0
71
3
72
13
73
9
74
7
42
0.0000001000
43
0.0000001000
44
0.0000000001
12
0.6826578385
22
0.0000000000
32
0.0000000000
13
0.1370949711
23
-0.6720176711
33
0.0000000000
40
0.0000000000
40
0.0000000000
40
0.0000000000
40
0.0000000000
40
0.1769617196
40
0.3601199417
40
0.5468946464
40
0.7368912747
40
0.9353294721
40
1.0000000000
40
1.0000000000
40
1.0000000000
40
1.0000000000
10
-8.9952148390
20
5.8768682182
30
0.0000000000
10
-8.9549467373
20
5.8768682182
30
0.0000000000
10
-8.8726617453
20
5.8668746061
30
0.0000000000
10
-8.7553580288
20
5.8216858465
30
0.0000000000
10
-8.6505631841
20
5.7467687863
30
0.0000000000
10
-8.5660915915
20
5.6448339923
30
0.0000000000
10
-8.5229354498
20
5.5498669135
30
0.0000000000
10
-8.5083110404
20
5.4914525688
30
0.0000000000
10
-8.5053557057
20
5.4769659897
30
0.0000000000
11
-8.9952148390
21
5.8768682182
31
0.0000000000
11
-8.8752952634
21
5.8622745381
31
0.0000000000
11
-8.7586124205
21
5.8173444327
31
0.0000000000
11
-8.6548978498
21
5.7431800346
31
0.0000000000
11
-8.5721274242
21
5.6433209147
31
0.0000000000
11
-8.5161306768
21
5.5199708583
31
0.0000000000
11
-8.5053557057
21
5.4769659897
31
0.0000000000
0
SPLINE
5
4F5
100
AcDbEntity
8
0
100
AcDbSpline
62
7
6
CONTINUOUS
70
0
71
3
72
13
73
9
74
7
42
0.0000001000
43
0.0000001000
44
0.0000000001
12
0.2499952412
22
-0.2499952412
32
0.0000000000
13
0.0000000000
23
-0.3535466607
33
0.0000000000
40
0.0000000000
40
0.0000000000
40
0.0000000000
40
0.0000000000
40
0.2176724759
40
0.4350476293
40
0.6387593861
40
0.8152322208
40
0.9458072093
40
1.0000000000
40
1.0000000000
40
1.0000000000
40
1.0000000000
10
8.6547851610
20
0.8145827591
30
0.0000000000
10
8.6729241887
20
0.7964437313
30
0.0000000000
10
8.7090966675
20
0.7601569339
30
0.0000000000
10
8.7626811843
20
0.7070755043
30
0.0000000000
10
8.8113057701
20
0.6567939938
30
0.0000000000
10
8.8573112364
20
0.6156597582
30
0.0000000000
10
8.8796770211
20
0.5823473916
30
0.0000000000
10
8.9047851610
20
0.5709788383
30
0.0000000000
10
8.9047851610
20
0.5645922783
30
0.0000000000
11
8.6547851610
21
0.8145827591
31
0.0000000000
11
8.7092022442
21
0.7601656759
31
0.0000000000
11
8.7635449981
21
0.7058229220
31
0.0000000000
11
8.8144719678
21
0.6548959522
31
0.0000000000
11
8.8585893367
21
0.6107785834
31
0.0000000000
11
8.8912324625
21
0.5781354576
31
0.0000000000
11
8.9047851610
21
0.5645922783
31
0.0000000000
0
SPLINE
5
4F6
100
AcDbEntity
8
0
100
AcDbSpline
62
9
6
CONTINUOUS
70
0
71
3
72
12
73
8
74
6
42
0.0000001000
43
0.0000001000
44
0.0000000001
12
-0.0856596080
22
0.0000610655
32
0.0000000000
13
0.0000355970
23
-0.0856596223
33
0.0000000000
40
0.0000000000
40
0.0000000000
40
0.0000000000
40
0.0000000000
40
0.2004026857
40
0.4007357499
40
0.6009533756
40
0.8010302194
40
1.0000000000
40
1.0000000000
40
1.0000000000
40
1.0000000000
10
-9.1027420090
20
7.0391536773
30
0.0000000000
10
-9.1084641475
20
7.0391577565
30
0.0000000000
10
-9.1199876173
20
7.0373286629
30
0.0000000000
10
-9.1355092774
20
7.0293964304
30
0.0000000000
10
-9.1478239081
20
7.0170467381
30
0.0000000000
10
-9.1556969611
20
7.0015502248
30
0.0000000000
10
-9.1575026590
20
6.9900766136
30
0.0000000000
10
-9.1575002981
20
6.9843953882
30
0.0000000000
11
-9.1027420090
21
7.0391536773
31
0.0000000000
11
-9.1196962401
21
7.0364629486
31
0.0000000000
11
-9.1349786731
21
7.0286572780
31
0.0000000000
11
-9.1470892263
21
7.0165132888
31
0.0000000000
11
-9.1548475007
21
7.0012313502
31
0.0000000000
11
-9.1575002981
21
6.9843953882
31
0.0000000000
0
SPLINE
5
4F7
100
AcDbEntity
8
0
100
AcDbSpline
62
9
6
CONTINUOUS
70
0
71
3
72
12
73
8
74
6
42
0.0000001000
43
0.0000001000
44
0.0000000001
12
0.0856595903
22
0.0000435538
32
0.0000000000
13
-0.0000318618
23
-0.0856595954
33
0.0000000000
40
0.0000000000
40
0.0000000000
40
0.0000000000
40
0.0000000000
40
0.1995931806
40
0.3999439875
40
0.6003338181
40
0.8006524629
40
1.0000000000
40
1.0000000000
40
1.0000000000
40
1.0000000000
10
5.1123123311
20
7.0391536773
30
0.0000000000
10
5.1180113544
20
7.0391565749
30
0.0000000000
10
5.1295112168
20
7.0373401412
30
0.0000000000
10
5.1450270564
20
7.0294350447
30
0.0000000000
10
5.1573654474
20
7.0170908309
30
0.0000000000
10
5.1652610292
20
7.0015790616
30
0.0000000000
10
5.1670727373
20
6.9900873980
30
0.0000000000
10
5.1670706201
20
6.9843953882
30
0.0000000000
11
5.1123123311
21
7.0391536773
31
0.0000000000
11
5.1291997407
21
7.0364843561
31
0.0000000000
11
5.1444934060
21
7.0286973781
31
0.0000000000
11
5.1566283741
21
7.0165569284
31
0.0000000000
11
5.1644078317
21
7.0012625272
31
0.0000000000
11
5.1670706201
21
6.9843953882
31
0.0000000000
0
SPLINE
5
4F8
100
AcDbEntity
8
0
100
AcDbSpline
62
7
6
CONTINUOUS
70
0
71
3
72
8
73
4
74
2
42
0.0000001000
43
0.0000001000
44
0.0000000001
12
0.1546060003
22
0.0000000000
32
0.0000000000
13
0.1479794245
23
-0.0474371279
33
0.0000000000
40
0.0000000000
40
0.0000000000
40
0.0000000000
40
0.0000000000
40
1.0000000000
40
1.0000000000
40
1.0000000000
40
1.0000000000
10
5.0048888927
20
7.3768682182
30
0.0000000000
10
5.0564242261
20
7.3768682182
30
0.0000000000
10
5.1083089880
20
7.3687745145
30
0.0000000000
10
5.1576354628
20
7.3529621386
30
0.0000000000
11
5.0048888927
21
7.3768682182
31
0.0000000000
11
5.1576354628
21
7.3529621386
31
0.0000000000
0
SPLINE
5
4F9
100
AcDbEntity
8
0
100
AcDbSpline
62
7
6
CONTINUOUS
70
0
71
3
72
10
73
6
74
4
42
0.0000001000
43
0.0000001000
44
0.0000000001
12
0.4524202969
22
-0.1450304294
32
0.0000000000
13
0.1451423201
23
-0.4523889128
33
0.0000000000
40
0.0000000000
40
0.0000000000
40
0.0000000000
40
0.0000000000
40
0.3356504325
40
0.6640414796
40
1.0000000000
40
1.0000000000
40
1.0000000000
40
1.0000000000
10
5.1576354628
20
7.3529621386
30
0.0000000000
10
5.2082538189
20
7.3367356298
30
0.0000000000
10
5.3030659388
20
7.2885527981
30
0.0000000000
10
5.4163436880
20
7.1753364523
30
0.0000000000
10
5.4645877913
20
7.0804961946
30
0.0000000000
10
5.4808417243
20
7.0298348914
30
0.0000000000
11
5.1576354628
21
7.3529621386
31
0.0000000000
11
5.2990970170
21
7.2811283010
31
0.0000000000
11
5.4088864491
21
7.1713980930
31
0.0000000000
11
5.4808417243
21
7.0298348914
31
0.0000000000
0
SPLINE
5
4FA
100
AcDbEntity
8
0
100
AcDbSpline
62
7
6
CONTINUOUS
70
0
71
3
72
8
73
4
74
2
42
0.0000001000
43
0.0000001000
44
0.0000000001
12
0.0475108032
22
-0.1480847252
32
0.0000000000
13
0.0000000000
23
-0.1547267497
33
0.0000000000
40
0.0000000000
40
0.0000000000
40
0.0000000000
40
0.0000000000
40
1.0000000000
40
1.0000000000
40
1.0000000000
40
1.0000000000
10
5.4808417243
20
7.0298348914
30
0.0000000000
10
5.4966786587
20
6.9804733163
30
0.0000000000
10
5.5047851610
20
6.9285475330
30
0.0000000000
10
5.5047851610
20
6.8769719498
30
0.0000000000
11
5.4808417243
21
7.0298348914
31
0.0000000000
11
5.5047851610
21
6.8769719498
31
0.0000000000
0
SPLINE
5
4FB
100
AcDbEntity
8
0
100
AcDbSpline
62
9
6
CONTINUOUS
70
0
71
3
72
12
73
8
74
6
42
0.0000001000
43
0.0000001000
44
0.0000000001
12
0.4767401000
22
0.0001355355
32
0.0000000000
13
-0.0001049320
23
-0.4767401078
33
0.0000000000
40
0.0000000000
40
0.0000000000
40
0.0000000000
40
0.0000000000
40
0.1999868440
40
0.3999797042
40
0.6000357611
40
0.8000079067
40
1.0000000000
40
1.0000000000
40
1.0000000000
40
1.0000000000
10
5.1123123311
20
7.2891441580
30
0.0000000000
10
5.1440929138
20
7.2891531931
30
0.0000000000
10
5.2081038704
20
7.2790379065
30
0.0000000000
10
5.2943994324
20
7.2350436663
30
0.0000000000
10
5.3629624468
20
7.1664786174
30
0.0000000000
10
5.4069558897
20
7.0801853628
30
0.0000000000
10
5.4170680961
20
7.0161768056
30
0.0000000000
10
5.4170611009
20
6.9843953882
30
0.0000000000
11
5.1123123311
21
7.2891441580
31
0.0000000000
11
5.2064812239
21
7.2742354605
31
0.0000000000
11
5.2914359473
21
7.2309539223
31
0.0000000000
11
5.3588752528
21
7.1635129651
31
0.0000000000
11
5.4021516209
21
7.0785666910
31
0.0000000000
11
5.4170611009
21
6.9843953882
31
0.0000000000
0
SPLINE
5
4FC
100
AcDbEntity
8
0
100
AcDbSpline
62
9
6
CONTINUOUS
70
0
71
3
72
12
73
8
74
6
42
0.0000001000
43
0.0000001000
44
0.0000000001
12
-0.4767400842
22
0.0001823956
32
0.0000000000
13
0.0001127260
23
-0.4767401057
33
0.0000000000
40
0.0000000000
40
0.0000000000
40
0.0000000000
40
0.0000000000
40
0.2000295061
40
0.4000543549
40
0.6000890006
40
0.8000224849
40
1.0000000000
40
1.0000000000
40
1.0000000000
40
1.0000000000
10
-9.1027420090
20
7.2891441580
30
0.0000000000
10
-9.1345293702
20
7.2891563195
30
0.0000000000
10
-9.1985524741
20
7.2790323455
30
0.0000000000
10
-9.2848520321
20
7.2350277230
30
0.0000000000
10
-9.3534046735
20
7.1664586830
30
0.0000000000
10
-9.3973874137
20
7.0801745203
30
0.0000000000
10
-9.4074982931
20
7.0161744888
30
0.0000000000
10
-9.4074907788
20
6.9843953882
30
0.0000000000
11
-9.1027420090
21
7.2891441580
31
0.0000000000
11
-9.1969304864
21
7.2742290969
31
0.0000000000
11
-9.2818947759
21
7.2309327419
31
0.0000000000
11
-9.3493200337
21
7.1634921735
31
0.0000000000
11
-9.3925834732
21
7.0785599986
31
0.0000000000
11
-9.4074907788
21
6.9843953882
31
0.0000000000
0
SPLINE
5
4FD
100
AcDbEntity
8
0
100
AcDbSpline
62
7
6
CONTINUOUS
70
0
71
3
72
8
73
4
74
2
42
0.0000001000
43
0.0000001000
44
0.0000000001
12
0.0000000000
22
0.1545501498
32
0.0000000000
13
0.0474033387
23
0.1479310653
33
0.0000000000
40
0.0000000000
40
0.0000000000
40
0.0000000000
40
0.0000000000
40
1.0000000000
40
1.0000000000
40
1.0000000000
40
1.0000000000
10
-9.4952148390
20
6.8769719498
30
0.0000000000
10
-9.4952148390
20
6.9284886664
30
0.0000000000
10
-9.4871271413
20
6.9803543369
30
0.0000000000
10
-9.4713260284
20
7.0296646920
30
0.0000000000
11
-9.4952148390
21
6.8769719498
31
0.0000000000
11
-9.4713260284
21
7.0296646920
31
0.0000000000
0
SPLINE
5
4FE
100
AcDbEntity
8
0
100
AcDbSpline
62
7
6
CONTINUOUS
70
0
71
3
72
10
73
6
74
4
42
0.0000001000
43
0.0000001000
44
0.0000000001
12
0.1450143536
22
0.4525446607
32
0.0000000000
13
0.4525140015
23
0.1451245845
33
0.0000000000
40
0.0000000000
40
0.0000000000
40
0.0000000000
40
0.0000000000
40
0.3356263424
40
0.6640357658
40
1.0000000000
40
1.0000000000
40
1.0000000000
40
1.0000000000
10
-9.4713260284
20
7.0296646920
30
0.0000000000
10
-9.4551024827
20
7.0802933285
30
0.0000000000
10
-9.4069163812
20
7.1751323231
30
0.0000000000
10
-9.2936731889
20
7.2884397670
30
0.0000000000
10
-9.1988019442
20
7.3366904559
30
0.0000000000
10
-9.1481257709
20
7.3529426792
30
0.0000000000
11
-9.4713260284
21
7.0296646920
31
0.0000000000
11
-9.3994922432
21
7.1711562777
31
0.0000000000
11
-9.2897308629
21
7.2809795999
31
0.0000000000
11
-9.1481257709
21
7.3529426792
31
0.0000000000
0
SPLINE
5
4FF
100
AcDbEntity
8
0
100
AcDbSpline
62
7
6
CONTINUOUS
70
0
71
3
72
8
73
4
74
2
42
0.0000001000
43
0.0000001000
44
0.0000000001
12
0.1480347099
22
0.0474758255
32
0.0000000000
13
0.1546689105
23
0.0000000000
33
0.0000000000
40
0.0000000000
40
0.0000000000
40
0.0000000000
40
0.0000000000
40
1.0000000000
40
1.0000000000
40
1.0000000000
40
1.0000000000
10
-9.1481257709
20
7.3529426792
30
0.0000000000
10
-9.0987808676
20
7.3687679544
30
0.0000000000
10
-9.0468748741
20
7.3768682182
30
0.0000000000
10
-8.9953185706
20
7.3768682182
30
0.0000000000
11
-9.1481257709
21
7.3529426792
31
0.0000000000
11
-8.9953185706
21
7.3768682182
31
0.0000000000
0
SPLINE
5
500
100
AcDbEntity
8
0
100
AcDbSpline
62
7
6
CONTINUOUS
70
0
71
3
72
13
73
9
74
7
42
0.0000001000
43
0.0000001000
44
0.0000000001
12
0.2499952412
22
0.2499952412
32
0.0000000000
13
0.0000000000
23
0.3535466607
33
0.0000000000
40
0.0000000000
40
0.0000000000
40
0.0000000000
40
0.0000000000
40
0.2176724759
40
0.4350476293
40
0.6387593861
40
0.8152322208
40
0.9458072093
40
1.0000000000
40
1.0000000000
40
1.0000000000
40
1.0000000000
10
8.6547851610
20
1.1391536773
30
0.0000000000
10
8.6729241887
20
1.1572927050
30
0.0000000000
10
8.7090966675
20
1.1935795024
30
0.0000000000
10
8.7626811843
20
1.2466609321
30
0.0000000000
10
8.8113057701
20
1.2969424425
30
0.0000000000
10
8.8573112364
20
1.3380766781
30
0.0000000000
10
8.8796770211
20
1.3713890447
30
0.0000000000
10
8.9047851610
20
1.3827575980
30
0.0000000000
10
8.9047851610
20
1.3891441580
30
0.0000000000
11
8.6547851610
21
1.1391536773
31
0.0000000000
11
8.7092022442
21
1.1935707604
31
0.0000000000
11
8.7635449981
21
1.2479135143
31
0.0000000000
11
8.8144719678
21
1.2988404841
31
0.0000000000
11
8.8585893367
21
1.3429578529
31
0.0000000000
11
8.8912324625
21
1.3756009787
31
0.0000000000
11
8.9047851610
21
1.3891441580
31
0.0000000000
0
SPLINE
5
501
100
AcDbEntity
8
0
100
AcDbSpline
62
7
6
CONTINUOUS
70
0
71
3
72
9
73
5
74
3
42
0.0000001000
43
0.0000001000
44
0.0000000001
12
0.0883459530
22
-0.0353436238
32
0.0000000000
13
0.0950134218
23
0.0000000000
33
0.0000000000
40
0.0000000000
40
0.0000000000
40
0.0000000000
40
0.0000000000
40
0.4840862961
40
1.0000000000
40
1.0000000000
40
1.0000000000
40
1.0000000000
10
8.4048718658
20
-31.9424088331
30
0.0000000000
10
8.4191275541
20
-31.9481119544
30
0.0000000000
10
8.4496596702
20
-31.9571748277
30
0.0000000000
10
8.4814185478
20
-31.9602989080
30
0.0000000000
10
8.4977581233
20
-31.9602989080
30
0.0000000000
11
8.4048718658
21
-31.9424088331
31
0.0000000000
11
8.4489753909
21
-31.9554946859
31
0.0000000000
11
8.4977581233
21
-31.9602989080
31
0.0000000000
0
SPLINE
5
502
100
AcDbEntity
8
0
100
AcDbSpline
62
7
6
CONTINUOUS
70
0
71
3
72
13
73
9
74
7
42
0.0000001000
43
0.0000001000
44
0.0000000001
12
-0.2499952412
22
-0.2499952412
32
0.0000000000
13
0.0000000000
23
-0.3535466607
33
0.0000000000
40
0.0000000000
40
0.0000000000
40
0.0000000000
40
0.0000000000
40
0.2176724759
40
0.4350476293
40
0.6387593861
40
0.8152322208
40
0.9458072093
40
1.0000000000
40
1.0000000000
40
1.0000000000
40
1.0000000000
10
-12.6452148390
20
0.8145827591
30
0.0000000000
10
-12.6633538667
20
0.7964437313
30
0.0000000000
10
-12.6995263454
20
0.7601569339
30
0.0000000000
10
-12.7531108622
20
0.7070755043
30
0.0000000000
10
-12.8017354481
20
0.6567939938
30
0.0000000000
10
-12.8477409143
20
0.6156597582
30
0.0000000000
10
-12.8701066990
20
0.5823473916
30
0.0000000000
10
-12.8952148390
20
0.5709788383
30
0.0000000000
10
-12.8952148390
20
0.5645922783
30
0.0000000000
11
-12.6452148390
21
0.8145827591
31
0.0000000000
11
-12.6996319221
21
0.7601656759
31
0.0000000000
11
-12.7539746760
21
0.7058229220
31
0.0000000000
11
-12.8049016458
21
0.6548959522
31
0.0000000000
11
-12.8490190147
21
0.6107785834
31
0.0000000000
11
-12.8816621404
21
0.5781354576
31
0.0000000000
11
-12.8952148390
21
0.5645922783
31
0.0000000000
0
SPLINE
5
503
100
AcDbEntity
8
0
100
AcDbSpline
62
7
6
CONTINUOUS
70
0
71
3
72
13
73
9
74
7
42
0.0000001000
43
0.0000001000
44
0.0000000001
12
-0.2499952412
22
0.2499952412
32
0.0000000000
13
0.0000000000
23
0.3535466607
33
0.0000000000
40
0.0000000000
40
0.0000000000
40
0.0000000000
40
0.0000000000
40
0.2176724759
40
0.4350476293
40
0.6387593861
40
0.8152322208
40
0.9458072093
40
1.0000000000
40
1.0000000000
40
1.0000000000
40
1.0000000000
10
-12.6452148390
20
1.1391536773
30
0.0000000000
10
-12.6633538667
20
1.1572927050
30
0.0000000000
10
-12.6995263454
20
1.1935795024
30
0.0000000000
10
-12.7531108622
20
1.2466609321
30
0.0000000000
10
-12.8017354481
20
1.2969424425
30
0.0000000000
10
-12.8477409143
20
1.3380766781
30
0.0000000000
10
-12.8701066990
20
1.3713890447
30
0.0000000000
10
-12.8952148390
20
1.3827575980
30
0.0000000000
10
-12.8952148390
20
1.3891441580
30
0.0000000000
11
-12.6452148390
21
1.1391536773
31
0.0000000000
11
-12.6996319221
21
1.1935707604
31
0.0000000000
11
-12.7539746760
21
1.2479135143
31
0.0000000000
11
-12.8049016458
21
1.2988404841
31
0.0000000000
11
-12.8490190147
21
1.3429578529
31
0.0000000000
11
-12.8816621404
21
1.3756009787
31
0.0000000000
11
-12.8952148390
21
1.3891441580
31
0.0000000000
0
SPLINE
5
504
100
AcDbEntity
8
0
100
AcDbSpline
62
7
6
CONTINUOUS
70
0
71
3
72
12
73
8
74
6
42
0.0000001000
43
0.0000001000
44
0.0000000001
12
-0.4692975279
22
0.0000000000
32
0.0000000000
13
-0.0000000000
23
-0.4692975279
33
0.0000000000
40
0.0000000000
40
0.0000000000
40
0.0000000000
40
0.0000000000
40
0.2000913534
40
0.4000511005
40
0.5995650317
40
0.8000195930
40
1.0000000000
40
1.0000000000
40
1.0000000000
40
1.0000000000
10
-9.0957342748
20
-27.3726164583
30
0.0000000000
10
-9.1270350673
20
-27.3726164583
30
0.0000000000
10
-9.1900575994
20
-27.3825741829
30
0.0000000000
10
-9.2749325070
20
-27.4258652472
30
0.0000000000
10
-9.3424280831
20
-27.4933190279
30
0.0000000000
10
-9.3857691490
20
-27.5782471595
30
0.0000000000
10
-9.3957301625
20
-27.6413289091
30
0.0000000000
10
-9.3957301625
20
-27.6726123460
30
0.0000000000
11
-9.0957342748
21
-27.3726164583
31
0.0000000000
11
-9.1884795365
21
-27.3873124756
31
0.0000000000
11
-9.2720874879
21
-27.4299243460
31
0.0000000000
11
-9.3383150065
21
-27.4961116095
31
0.0000000000
11
-9.3810504380
21
-27.5799172194
31
0.0000000000
11
-9.3957301625
21
-27.6726123460
31
0.0000000000
0
SPLINE
5
505
100
AcDbEntity
8
0
100
AcDbSpline
62
7
6
CONTINUOUS
70
0
71
3
72
13
73
9
74
7
42
0.0000001000
43
0.0000001000
44
0.0000000001
12
-0.2500047606
22
0.2500047606
32
0.0000000000
13
0.0000000000
23
0.3535601232
33
0.0000000000
40
0.0000000000
40
0.0000000000
40
0.0000000000
40
0.0000000000
40
0.2164912796
40
0.4340806922
40
0.6386795793
40
0.8158303209
40
0.9462722615
40
1.0000000000
40
1.0000000000
40
1.0000000000
40
1.0000000000
10
-12.6452148390
20
-5.9108463227
30
0.0000000000
10
-12.6632561225
20
-5.8928050392
30
0.0000000000
10
-12.6993498208
20
-5.8565977143
30
0.0000000000
10
-12.7529301379
20
-5.8035206429
30
0.0000000000
10
-12.8016983282
20
-5.7530876942
30
0.0000000000
10
-12.8478407152
20
-5.7118348365
30
0.0000000000
10
-12.8702191849
20
-5.6785262895
30
0.0000000000
10
-12.8952148390
20
-5.6671687984
30
0.0000000000
10
-12.8952148390
20
-5.6608368031
30
0.0000000000
11
-12.6452148390
21
-5.9108463227
31
0.0000000000
11
-12.6993386895
21
-5.8567224722
31
0.0000000000
11
-12.7537370785
21
-5.8023240832
31
0.0000000000
11
-12.8048877743
21
-5.7511733874
31
0.0000000000
11
-12.8491763031
21
-5.7068848586
31
0.0000000000
11
-12.8817874092
21
-5.6742737525
31
0.0000000000
11
-12.8952148390
21
-5.6608368031
31
0.0000000000
0
SPLINE
5
506
100
AcDbEntity
8
0
100
AcDbSpline
62
7
6
CONTINUOUS
70
0
71
3
72
13
73
9
74
7
42
0.0000001000
43
0.0000001000
44
0.0000000001
12
-0.2500047606
22
-0.2500047606
32
0.0000000000
13
0.0000000000
23
-0.3535601232
33
0.0000000000
40
0.0000000000
40
0.0000000000
40
0.0000000000
40
0.0000000000
40
0.2164912796
40
0.4340806922
40
0.6386795793
40
0.8158303209
40
0.9462722615
40
1.0000000000
40
1.0000000000
40
1.0000000000
40
1.0000000000
10
-12.6452148390
20
-6.2354172409
30
0.0000000000
10
-12.6632561225
20
-6.2534585245
30
0.0000000000
10
-12.6993498208
20
-6.2896658494
30
0.0000000000
10
-12.7529301379
20
-6.3427429208
30
0.0000000000
10
-12.8016983282
20
-6.3931758695
30
0.0000000000
10
-12.8478407152
20
-6.4344287271
30
0.0000000000
10
-12.8702191849
20
-6.4677372742
30
0.0000000000
10
-12.8952148390
20
-6.4790947653
30
0.0000000000
10
-12.8952148390
20
-6.4854267605
30
0.0000000000
11
-12.6452148390
21
-6.2354172409
31
0.0000000000
11
-12.6993386895
21
-6.2895410915
31
0.0000000000
11
-12.7537370785
21
-6.3439394805
31
0.0000000000
11
-12.8048877743
21
-6.3950901763
31
0.0000000000
11
-12.8491763031
21
-6.4393787051
31
0.0000000000
11
-12.8817874092
21
-6.4719898112
31
0.0000000000
11
-12.8952148390
21
-6.4854267605
31
0.0000000000
0
SPLINE
5
507
100
AcDbEntity
8
0
100
AcDbSpline
62
7
6
CONTINUOUS
70
0
71
3
72
13
73
9
74
7
42
0.0000001000
43
0.0000001000
44
0.0000000001
12
0.2499952412
22
0.2499952412
32
0.0000000000
13
0.0000000000
23
0.3535466607
33
0.0000000000
40
0.0000000000
40
0.0000000000
40
0.0000000000
40
0.0000000000
40
0.2176724759
40
0.4350476293
40
0.6387593861
40
0.8152322208
40
0.9458072093
40
1.0000000000
40
1.0000000000
40
1.0000000000
40
1.0000000000
10
8.6547851610
20
-5.9108463227
30
0.0000000000
10
8.6729241887
20
-5.8927072950
30
0.0000000000
10
8.7090966675
20
-5.8564204976
30
0.0000000000
10
8.7626811843
20
-5.8033390679
30
0.0000000000
10
8.8113057701
20
-5.7530575575
30
0.0000000000
10
8.8573112364
20
-5.7119233219
30
0.0000000000
10
8.8796770211
20
-5.6786109553
30
0.0000000000
10
8.9047851610
20
-5.6672424020
30
0.0000000000
10
8.9047851610
20
-5.6608558420
30
0.0000000000
11
8.6547851610
21
-5.9108463227
31
0.0000000000
11
8.7092022442
21
-5.8564292396
31
0.0000000000
11
8.7635449981
21
-5.8020864857
31
0.0000000000
11
8.8144719678
21
-5.7511595159
31
0.0000000000
11
8.8585893367
21
-5.7070421471
31
0.0000000000
11
8.8912324625
21
-5.6743990213
31
0.0000000000
11
8.9047851610
21
-5.6608558420
31
0.0000000000
0
SPLINE
5
508
100
AcDbEntity
8
0
100
AcDbSpline
62
9
6
CONTINUOUS
70
0
71
3
72
9
73
5
74
3
42
0.0000001000
43
0.0000001000
44
0.0000000001
12
0.0554597700
22
6.2771092266
32
0.0000000000
13
0.0554597700
23
6.2771092266
33
0.0000000000
40
0.0000000000
40
0.0000000000
40
0.0000000000
40
0.0000000000
40
0.6135803263
40
1.0000000000
40
1.0000000000
40
1.0000000000
40
1.0000000000
10
-5.2373606580
20
-25.2502410085
30
0.0000000000
10
-5.2260176500
20
-23.9664040993
30
0.0000000000
10
-5.2075310600
20
-21.8740343571
30
0.0000000000
10
-5.1890444700
20
-19.7816646149
30
0.0000000000
10
-5.1819008879
20
-18.9731317818
30
0.0000000000
11
-5.2373606580
21
-25.2502410085
31
0.0000000000
11
-5.2033316342
21
-21.3987302809
31
0.0000000000
11
-5.1819008879
21
-18.9731317818
31
0.0000000000
0
SPLINE
5
509
100
AcDbEntity
8
0
100
AcDbSpline
62
9
6
CONTINUOUS
70
0
71
3
72
9
73
5
74
3
42
0.0000001000
43
0.0000001000
44
0.0000000001
12
0.0554597700
22
-6.2771092266
32
0.0000000000
13
0.0554597700
23
-6.2771092266
33
0.0000000000
40
0.0000000000
40
0.0000000000
40
0.0000000000
40
0.0000000000
40
0.3864196737
40
1.0000000000
40
1.0000000000
40
1.0000000000
40
1.0000000000
10
1.1914712100
20
-18.9731317818
30
0.0000000000
10
1.1986147921
20
-19.7816646149
30
0.0000000000
10
1.2171013821
20
-21.8740343571
30
0.0000000000
10
1.2355879721
20
-23.9664040993
30
0.0000000000
10
1.2469309800
20
-25.2502410085
30
0.0000000000
11
1.1914712100
21
-18.9731317818
31
0.0000000000
11
1.2129019562
21
-21.3987302809
31
0.0000000000
11
1.2469309800
21
-25.2502410085
31
0.0000000000
0
SPLINE
5
50A
100
AcDbEntity
8
0
100
AcDbSpline
62
7
6
CONTINUOUS
70
0
71
3
72
13
73
9
74
7
42
0.0000001000
43
0.0000001000
44
0.0000000001
12
0.2499952412
22
-0.2499952412
32
0.0000000000
13
0.0000000000
23
-0.3535466607
33
0.0000000000
40
0.0000000000
40
0.0000000000
40
0.0000000000
40
0.0000000000
40
0.2176724759
40
0.4350476293
40
0.6387593861
40
0.8152322208
40
0.9458072093
40
1.0000000000
40
1.0000000000
40
1.0000000000
40
1.0000000000
10
8.6547851610
20
-6.2354172409
30
0.0000000000
10
8.6729241887
20
-6.2535562687
30
0.0000000000
10
8.7090966675
20
-6.2898430661
30
0.0000000000
10
8.7626811843
20
-6.3429244957
30
0.0000000000
10
8.8113057701
20
-6.3932060062
30
0.0000000000
10
8.8573112364
20
-6.4343402418
30
0.0000000000
10
8.8796770211
20
-6.4676526084
30
0.0000000000
10
8.9047851610
20
-6.4790211617
30
0.0000000000
10
8.9047851610
20
-6.4854077217
30
0.0000000000
11
8.6547851610
21
-6.2354172409
31
0.0000000000
11
8.7092022442
21
-6.2898343241
31
0.0000000000
11
8.7635449981
21
-6.3441770780
31
0.0000000000
11
8.8144719678
21
-6.3951040478
31
0.0000000000
11
8.8585893367
21
-6.4392214166
31
0.0000000000
11
8.8912324625
21
-6.4718645424
31
0.0000000000
11
8.9047851610
21
-6.4854077217
31
0.0000000000
0
SPLINE
5
50B
100
AcDbEntity
8
0
100
AcDbSpline
62
7
6
CONTINUOUS
70
0
71
3
72
18
73
14
74
12
42
0.0000001000
43
0.0000001000
44
0.0000000001
12
0.0000000000
22
-1.8666835394
32
0.0000000000
13
0.0000000000
23
1.8666835394
33
0.0000000000
40
0.0000000000
40
0.0000000000
40
0.0000000000
40
0.0000000000
40
0.1149701902
40
0.2189337323
40
0.3093591632
40
0.3889168514
40
0.4631528749
40
0.5331509653
40
0.6071548792
40
0.6878919293
40
0.7804957122
40
0.8844803433
40
1.0000000000
40
1.0000000000
40
1.0000000000
40
1.0000000000
10
1.2469309800
20
-25.2502410085
30
0.0000000000
10
1.2469309800
20
-25.3217786623
30
0.0000000000
10
1.2319551617
20
-25.4585435061
30
0.0000000000
10
1.1685408738
20
-25.6420163567
30
0.0000000000
10
1.0751072615
20
-25.7867964073
30
0.0000000000
10
0.9594910041
20
-25.8888093887
30
0.0000000000
10
0.8279416609
20
-25.9431907309
30
0.0000000000
10
0.6888065621
20
-25.9446202975
30
0.0000000000
10
0.5556493745
20
-25.8924992832
30
0.0000000000
10
0.4371912334
20
-25.7905291696
30
0.0000000000
10
0.3419288741
20
-25.6442644568
30
0.0000000000
10
0.2777268364
20
-25.4592530845
30
0.0000000000
10
0.2626393420
20
-25.3221205557
30
0.0000000000
10
0.2626393420
20
-25.2502410085
30
0.0000000000
11
1.2469309800
21
-25.2502410085
31
0.0000000000
11
1.2229560856
21
-25.4635106211
31
0.0000000000
11
1.1581994842
21
-25.6464548633
31
0.0000000000
11
1.0650343222
21
-25.7872107818
31
0.0000000000
11
0.9522631583
21
-25.8838420176
31
0.0000000000
11
0.8235508586
21
-25.9351861481
31
0.0000000000
11
0.6928929822
21
-25.9364800629
31
0.0000000000
11
0.5636584693
21
-25.8876781995
31
0.0000000000
11
0.4479667246
21
-25.7910910275
31
0.0000000000
11
0.3518492375
21
-25.6474154036
31
0.0000000000
11
0.2868468050
21
-25.4645165846
31
0.0000000000
11
0.2626393420
21
-25.2502410085
31
0.0000000000
0
SPLINE
5
50C
100
AcDbEntity
8
0
100
AcDbSpline
62
7
6
CONTINUOUS
70
0
71
3
72
14
73
10
74
8
42
0.0000001000
43
0.0000001000
44
0.0000000001
12
1.0152103670
22
0.0678510605
32
0.0000000000
13
0.8130738893
23
-0.6116916758
33
0.0000000000
40
0.0000000000
40
0.0000000000
40
0.0000000000
40
0.0000000000
40
0.0962838023
40
0.2163719892
40
0.3533378800
40
0.5051399855
40
0.6670323997
40
0.8333558038
40
1.0000000000
40
1.0000000000
40
1.0000000000
40
1.0000000000
10
2.1257452228
20
-29.0470276582
30
0.0000000000
10
2.1583279942
20
-29.0448500055
30
0.0000000000
10
2.2319722725
20
-29.0613765475
30
0.0000000000
10
2.3411894573
20
-29.1100780342
30
0.0000000000
10
2.4620919657
20
-29.1785864236
30
0.0000000000
10
2.5906446554
20
-29.2612437777
30
0.0000000000
10
2.7245364193
20
-29.3539219166
30
0.0000000000
10
2.8604191203
20
-29.4524403532
30
0.0000000000
10
2.9509316901
20
-29.5199764487
30
0.0000000000
10
2.9960963716
20
-29.5539547379
30
0.0000000000
11
2.1257452228
21
-29.0470276582
31
0.0000000000
11
2.2225309436
21
-29.0621913230
31
0.0000000000
11
2.3352212165
21
-29.1094195540
31
0.0000000000
11
2.4570255500
21
-29.1771303159
31
0.0000000000
11
2.5873018507
21
-29.2601025788
31
0.0000000000
11
2.7229537086
21
-29.3535464302
31
0.0000000000
11
2.8601023781
21
-29.4526878277
31
0.0000000000
11
2.9960963716
21
-29.5539547379
31
0.0000000000
0
SPLINE
5
50D
100
AcDbEntity
8
0
100
AcDbSpline
62
7
6
CONTINUOUS
70
0
71
3
72
14
73
10
74
8
42
0.0000001000
43
0.0000001000
44
0.0000000001
12
0.5999552218
22
-0.5999552218
32
0.0000000000
13
0.5999552218
23
-0.5999552218
33
0.0000000000
40
0.0000000000
40
0.0000000000
40
0.0000000000
40
0.0000000000
40
0.0422771168
40
0.1441181202
40
0.2842576237
40
0.4489129753
40
0.6284578521
40
0.8148216501
40
1.0000000000
40
1.0000000000
40
1.0000000000
40
1.0000000000
10
4.2075051871
20
-28.9552915647
30
0.0000000000
10
4.2159599795
20
-28.9637463571
30
0.0000000000
10
4.2447814524
20
-28.9925678300
30
0.0000000000
10
4.3016287343
20
-29.0494151119
30
0.0000000000
10
4.3829498365
20
-29.1307362141
30
0.0000000000
10
4.4798105536
20
-29.2275969312
30
0.0000000000
10
4.5859154396
20
-29.3337018172
30
0.0000000000
10
4.6961246190
20
-29.4439109966
30
0.0000000000
10
4.7704275029
20
-29.5182138805
30
0.0000000000
10
4.8074604089
20
-29.5552467865
30
0.0000000000
11
4.2075051871
21
-28.9552915647
31
0.0000000000
11
4.2328695641
21
-28.9806559418
31
0.0000000000
11
4.2939696059
21
-29.0417559835
31
0.0000000000
11
4.3780470328
21
-29.1258334104
31
0.0000000000
11
4.4768328708
21
-29.2246192484
31
0.0000000000
11
4.5845517572
21
-29.3323381348
31
0.0000000000
11
4.6963616909
21
-29.4441480685
31
0.0000000000
11
4.8074604089
21
-29.5552467865
31
0.0000000000
0
SPLINE
5
50E
100
AcDbEntity
8
0
100
AcDbSpline
62
7
6
CONTINUOUS
70
0
71
3
72
12
73
8
74
6
42
0.0000001000
43
0.0000001000
44
0.0000000001
12
-0.4160809903
22
0.4780890576
32
0.0000000000
13
-0.0221190284
23
0.6334060989
33
0.0000000000
40
0.0000000000
40
0.0000000000
40
0.0000000000
40
0.0000000000
40
0.3204749937
40
0.5894025526
40
0.8067496060
40
0.9534214152
40
1.0000000000
40
1.0000000000
40
1.0000000000
40
1.0000000000
10
3.4359732993
20
-29.5552467865
30
0.0000000000
10
3.3915254484
20
-29.5041749240
30
0.0000000000
10
3.3025312468
20
-29.3799649412
30
0.0000000000
10
3.4212015516
20
-29.2271082675
30
0.0000000000
10
3.4259537866
20
-29.0920647862
30
0.0000000000
10
3.4327617065
20
-29.0058867879
30
0.0000000000
10
3.4363167236
20
-28.9650820870
30
0.0000000000
10
3.4359732993
20
-28.9552477004
30
0.0000000000
11
3.4359732993
21
-29.5552467865
31
0.0000000000
11
3.3466902114
21
-29.3728076197
31
0.0000000000
11
3.4080283083
21
-29.2137829097
31
0.0000000000
11
3.4276617759
21
-29.0774363709
31
0.0000000000
11
3.4346233934
21
-28.9847379640
31
0.0000000000
11
3.4359732993
21
-28.9552477004
31
0.0000000000
0
SPLINE
5
50F
100
AcDbEntity
8
0
100
AcDbSpline
62
7
6
CONTINUOUS
70
0
71
3
72
14
73
10
74
8
42
0.0000001000
43
0.0000001000
44
0.0000000001
12
0.5999552218
22
0.5999552218
32
0.0000000000
13
0.5999552218
23
0.5999552218
33
0.0000000000
40
0.0000000000
40
0.0000000000
40
0.0000000000
40
0.0000000000
40
0.0422771168
40
0.1441181202
40
0.2842576237
40
0.4489129753
40
0.6284578521
40
0.8148216501
40
1.0000000000
40
1.0000000000
40
1.0000000000
40
1.0000000000
10
4.2075051871
20
-28.3909719989
30
0.0000000000
10
4.2159599795
20
-28.3825172066
30
0.0000000000
10
4.2447814524
20
-28.3536957337
30
0.0000000000
10
4.3016287343
20
-28.2968484518
30
0.0000000000
10
4.3829498365
20
-28.2155273496
30
0.0000000000
10
4.4798105536
20
-28.1186666325
30
0.0000000000
10
4.5859154396
20
-28.0125617464
30
0.0000000000
10
4.6961246190
20
-27.9023525671
30
0.0000000000
10
4.7704275029
20
-27.8280496831
30
0.0000000000
10
4.8074604089
20
-27.7910167771
30
0.0000000000
11
4.2075051871
21
-28.3909719989
31
0.0000000000
11
4.2328695641
21
-28.3656076219
31
0.0000000000
11
4.2939696059
21
-28.3045075802
31
0.0000000000
11
4.3780470328
21
-28.2204301533
31
0.0000000000
11
4.4768328708
21
-28.1216443153
31
0.0000000000
11
4.5845517572
21
-28.0139254289
31
0.0000000000
11
4.6963616909
21
-27.9021154952
31
0.0000000000
11
4.8074604089
21
-27.7910167771
31
0.0000000000
0
SPLINE
5
510
100
AcDbEntity
8
0
100
AcDbSpline
62
7
6
CONTINUOUS
70
0
71
3
72
11
73
7
74
5
42
0.0000001000
43
0.0000001000
44
0.0000000001
12
-0.7159553367
22
-0.5545766191
32
0.0000000000
13
-0.7871388180
23
-0.4478389797
33
0.0000000000
40
0.0000000000
40
0.0000000000
40
0.0000000000
40
0.0000000000
40
0.3097571529
40
0.5845168775
40
0.8159997335
40
1.0000000000
40
1.0000000000
40
1.0000000000
40
1.0000000000
10
4.0990475099
20
-27.7910167771
30
0.0000000000
10
4.0251234143
20
-27.8482781353
30
0.0000000000
10
3.8856355737
20
-27.9563372786
30
0.0000000000
10
3.6891170232
20
-28.1048983921
30
0.0000000000
10
3.5196432579
20
-28.2261317226
30
0.0000000000
10
3.4141228115
20
-28.2942038441
30
0.0000000000
10
3.3658448941
20
-28.3216713413
30
0.0000000000
11
4.0990475099
21
-27.7910167771
31
0.0000000000
11
3.8769237465
21
-27.9623461359
31
0.0000000000
11
3.6779942826
21
-28.1118197772
31
0.0000000000
11
3.5068961163
21
-28.2329496465
31
0.0000000000
11
3.3658448941
21
-28.3216713413
31
0.0000000000
0
SPLINE
5
511
100
AcDbEntity
8
0
100
AcDbSpline
62
7
6
CONTINUOUS
70
0
71
3
72
8
73
4
74
2
42
0.0000001000
43
0.0000001000
44
0.0000000001
12
-0.0464324222
22
-0.0232351488
32
0.0000000000
13
-0.0475937545
23
-0.0207923180
33
0.0000000000
40
0.0000000000
40
0.0000000000
40
0.0000000000
40
0.0000000000
40
1.0000000000
40
1.0000000000
40
1.0000000000
40
1.0000000000
10
3.3658448941
20
-28.3216713413
30
0.0000000000
10
3.3503674201
20
-28.3294163909
30
0.0000000000
10
3.3347192235
20
-28.3368579500
30
0.0000000000
10
3.3188546387
20
-28.3437887227
30
0.0000000000
11
3.3658448941
21
-28.3216713413
31
0.0000000000
11
3.3188546387
21
-28.3437887227
31
0.0000000000
0
SPLINE
5
512
100
AcDbEntity
8
0
100
AcDbSpline
62
7
6
CONTINUOUS
70
0
71
3
72
9
73
5
74
3
42
0.0000001000
43
0.0000001000
44
0.0000000001
12
-0.0819871269
22
-0.0358177756
32
0.0000000000
13
-0.0876508331
23
-0.0201130066
33
0.0000000000
40
0.0000000000
40
0.0000000000
40
0.0000000000
40
0.0000000000
40
0.2706873461
40
1.0000000000
40
1.0000000000
40
1.0000000000
40
1.0000000000
10
3.3188546387
20
-28.3437887227
30
0.0000000000
10
3.3114570128
20
-28.3470205289
30
0.0000000000
10
3.2839541531
20
-28.3585494901
30
0.0000000000
10
3.2557459704
20
-28.3682758461
30
0.0000000000
10
3.2344376832
20
-28.3731654029
30
0.0000000000
11
3.3188546387
21
-28.3437887227
31
0.0000000000
11
3.2965159804
21
-28.3531299369
31
0.0000000000
11
3.2344376832
21
-28.3731654029
31
0.0000000000
0
SPLINE
5
513
100
AcDbEntity
8
0
100
AcDbSpline
62
7
6
CONTINUOUS
70
0
71
3
72
8
73
4
74
2
42
0.0000001000
43
0.0000001000
44
0.0000000001
12
-0.0506772815
22
-0.0116287828
32
0.0000000000
13
-0.0516010244
23
0.0034020790
33
0.0000000000
40
0.0000000000
40
0.0000000000
40
0.0000000000
40
0.0000000000
40
1.0000000000
40
1.0000000000
40
1.0000000000
40
1.0000000000
10
3.2344376832
20
-28.3731654029
30
0.0000000000
10
3.2175452560
20
-28.3770416638
30
0.0000000000
10
3.2001904591
20
-28.3795327703
30
0.0000000000
10
3.1829901177
20
-28.3783987440
30
0.0000000000
11
3.2344376832
21
-28.3731654029
31
0.0000000000
11
3.1829901177
21
-28.3783987440
31
0.0000000000
0
SPLINE
5
514
100
AcDbEntity
8
0
100
AcDbSpline
62
7
6
CONTINUOUS
70
0
71
3
72
9
73
5
74
3
42
0.0000001000
43
0.0000001000
44
0.0000000001
12
-0.0024215641
22
-0.0693445220
32
0.0000000000
13
-0.0024215641
23
-0.0693445220
33
0.0000000000
40
0.0000000000
40
0.0000000000
40
0.0000000000
40
0.0000000000
40
0.7444406889
40
1.0000000000
40
1.0000000000
40
1.0000000000
40
1.0000000000
10
3.3658448941
20
-28.3216713413
30
0.0000000000
10
3.3652439905
20
-28.3388789692
30
0.0000000000
10
3.3644368025
20
-28.3619938099
30
0.0000000000
10
3.3636296145
20
-28.3851086505
30
0.0000000000
10
3.3634233300
20
-28.3910158633
30
0.0000000000
11
3.3658448941
21
-28.3216713413
31
0.0000000000
11
3.3640421833
21
-28.3732942250
31
0.0000000000
11
3.3634233300
21
-28.3910158633
31
0.0000000000
0
SPLINE
5
515
100
AcDbEntity
8
0
100
AcDbSpline
62
7
6
CONTINUOUS
70
0
71
3
72
8
73
4
74
2
42
0.0000001000
43
0.0000001000
44
0.0000000001
12
-0.0517636539
22
-0.0034128013
32
0.0000000000
13
-0.0508310674
23
0.0116961280
33
0.0000000000
40
0.0000000000
40
0.0000000000
40
0.0000000000
40
0.0000000000
40
1.0000000000
40
1.0000000000
40
1.0000000000
40
1.0000000000
10
-7.1734197956
20
-28.3783987440
30
0.0000000000
10
-7.1906743469
20
-28.3795363444
30
0.0000000000
10
-7.2080837578
20
-28.3770274054
30
0.0000000000
10
-7.2250274469
20
-28.3731286961
30
0.0000000000
11
-7.1734197956
21
-28.3783987440
31
0.0000000000
11
-7.2250274469
21
-28.3731286961
31
0.0000000000
0
SPLINE
5
516
100
AcDbEntity
8
0
100
AcDbSpline
62
7
6
CONTINUOUS
70
0
71
3
72
9
73
5
74
3
42
0.0000001000
43
0.0000001000
44
0.0000000001
12
-0.1123958092
22
0.0258620531
32
0.0000000000
13
-0.1038136130
23
0.0489215271
33
0.0000000000
40
0.0000000000
40
0.0000000000
40
0.0000000000
40
0.0000000000
40
0.5681377313
40
1.0000000000
40
1.0000000000
40
1.0000000000
40
1.0000000000
10
-7.2250274469
20
-28.3731286961
30
0.0000000000
10
-7.2463128803
20
-28.3682309600
30
0.0000000000
10
-7.2824844848
20
-28.3557498211
30
0.0000000000
10
-7.3174979252
20
-28.3403052857
30
0.0000000000
10
-7.3324423194
20
-28.3332628318
30
0.0000000000
11
-7.2250274469
21
-28.3731286961
31
0.0000000000
11
-7.2870399542
21
-28.3530924216
31
0.0000000000
11
-7.3324423194
21
-28.3332628318
31
0.0000000000
0
SPLINE
5
517
100
AcDbEntity
8
0
100
AcDbSpline
62
7
6
CONTINUOUS
70
0
71
3
72
8
73
4
74
2
42
0.0000001000
43
0.0000001000
44
0.0000000001
12
-0.0239777553
22
0.0112993698
32
0.0000000000
13
-0.0236927794
23
0.0118560530
33
0.0000000000
40
0.0000000000
40
0.0000000000
40
0.0000000000
40
0.0000000000
40
1.0000000000
40
1.0000000000
40
1.0000000000
40
1.0000000000
10
-7.3324423194
20
-28.3332628318
30
0.0000000000
10
-7.3404349045
20
-28.3294963752
30
0.0000000000
10
-7.3483769789
20
-28.3256233589
30
0.0000000000
10
-7.3562745720
20
-28.3216713413
30
0.0000000000
11
-7.3324423194
21
-28.3332628318
31
0.0000000000
11
-7.3562745720
21
-28.3216713413
31
0.0000000000
0
SPLINE
5
518
100
AcDbEntity
8
0
100
AcDbSpline
62
7
6
CONTINUOUS
70
0
71
3
72
11
73
7
74
5
42
0.0000001000
43
0.0000001000
44
0.0000000001
12
-0.7871387936
22
0.4478389658
32
0.0000000000
13
-0.7159553145
23
0.5545766019
33
0.0000000000
40
0.0000000000
40
0.0000000000
40
0.0000000000
40
0.0000000000
40
0.1840164803
40
0.4156881876
40
0.6906497562
40
1.0000000000
40
1.0000000000
40
1.0000000000
40
1.0000000000
10
-7.3562745720
20
-28.3216713413
30
0.0000000000
10
-7.4045567421
20
-28.2942014245
30
0.0000000000
10
-7.5101289623
20
-28.2260952261
30
0.0000000000
10
-7.6796999090
20
-28.1047865537
30
0.0000000000
10
-7.8762112226
20
-27.9562240298
30
0.0000000000
10
-8.0156502041
20
-27.8482029128
30
0.0000000000
10
-8.0894771878
20
-27.7910167771
30
0.0000000000
11
-7.3562745720
21
-28.3216713413
31
0.0000000000
11
-7.4973379678
21
-28.2329414318
31
0.0000000000
11
-7.6685737073
21
-28.1117099069
31
0.0000000000
11
-7.8676461723
21
-27.9621222980
31
0.0000000000
11
-8.0894771878
21
-27.7910167771
31
0.0000000000
0
SPLINE
5
519
100
AcDbEntity
8
0
100
AcDbSpline
62
7
6
CONTINUOUS
70
0
71
3
72
9
73
5
74
3
42
0.0000001000
43
0.0000001000
44
0.0000000001
12
0.0024215641
22
-0.0693445220
32
0.0000000000
13
0.0024215641
23
-0.0693445220
33
0.0000000000
40
0.0000000000
40
0.0000000000
40
0.0000000000
40
0.0000000000
40
0.7444406889
40
1.0000000000
40
1.0000000000
40
1.0000000000
40
1.0000000000
10
-7.3562745720
20
-28.3216713413
30
0.0000000000
10
-7.3556736684
20
-28.3388789692
30
0.0000000000
10
-7.3548664804
20
-28.3619938099
30
0.0000000000
10
-7.3540592924
20
-28.3851086505
30
0.0000000000
10
-7.3538530080
20
-28.3910158633
30
0.0000000000
11
-7.3562745720
21
-28.3216713413
31
0.0000000000
11
-7.3544718612
21
-28.3732942250
31
0.0000000000
11
-7.3538530080
21
-28.3910158633
31
0.0000000000
0
SPLINE
5
51A
100
AcDbEntity
8
0
100
AcDbSpline
62
7
6
CONTINUOUS
70
0
71
3
72
14
73
10
74
8
42
0.0000001000
43
0.0000001000
44
0.0000000001
12
-0.5999552218
22
0.5999552218
32
0.0000000000
13
-0.5999552218
23
0.5999552218
33
0.0000000000
40
0.0000000000
40
0.0000000000
40
0.0000000000
40
0.0000000000
40
0.0422771168
40
0.1441181202
40
0.2842576237
40
0.4489129753
40
0.6284578521
40
0.8148216501
40
1.0000000000
40
1.0000000000
40
1.0000000000
40
1.0000000000
10
-8.1979348651
20
-28.3909719989
30
0.0000000000
10
-8.2063896574
20
-28.3825172066
30
0.0000000000
10
-8.2352111303
20
-28.3536957337
30
0.0000000000
10
-8.2920584122
20
-28.2968484518
30
0.0000000000
10
-8.3733795144
20
-28.2155273496
30
0.0000000000
10
-8.4702402315
20
-28.1186666325
30
0.0000000000
10
-8.5763451176
20
-28.0125617464
30
0.0000000000
10
-8.6865542970
20
-27.9023525671
30
0.0000000000
10
-8.7608571809
20
-27.8280496831
30
0.0000000000
10
-8.7978900869
20
-27.7910167771
30
0.0000000000
11
-8.1979348651
21
-28.3909719989
31
0.0000000000
11
-8.2232992421
21
-28.3656076219
31
0.0000000000
11
-8.2843992838
21
-28.3045075802
31
0.0000000000
11
-8.3684767107
21
-28.2204301533
31
0.0000000000
11
-8.4672625488
21
-28.1216443153
31
0.0000000000
11
-8.5749814351
21
-28.0139254289
31
0.0000000000
11
-8.6867913689
21
-27.9021154952
31
0.0000000000
11
-8.7978900869
21
-27.7910167771
31
0.0000000000
0
SPLINE
5
51B
100
AcDbEntity
8
0
100
AcDbSpline
62
7
6
CONTINUOUS
70
0
71
3
72
14
73
10
74
8
42
0.0000001000
43
0.0000001000
44
0.0000000001
12
-0.5999552218
22
-0.5999552218
32
0.0000000000
13
-0.5999552218
23
-0.5999552218
33
0.0000000000
40
0.0000000000
40
0.0000000000
40
0.0000000000
40
0.0000000000
40
0.0422771168
40
0.1441181202
40
0.2842576237
40
0.4489129753
40
0.6284578521
40
0.8148216501
40
1.0000000000
40
1.0000000000
40
1.0000000000
40
1.0000000000
10
-8.1979348651
20
-28.9552915647
30
0.0000000000
10
-8.2063896574
20
-28.9637463571
30
0.0000000000
10
-8.2352111303
20
-28.9925678300
30
0.0000000000
10
-8.2920584122
20
-29.0494151119
30
0.0000000000
10
-8.3733795144
20
-29.1307362141
30
0.0000000000
10
-8.4702402315
20
-29.2275969312
30
0.0000000000
10
-8.5763451176
20
-29.3337018172
30
0.0000000000
10
-8.6865542970
20
-29.4439109966
30
0.0000000000
10
-8.7608571809
20
-29.5182138805
30
0.0000000000
10
-8.7978900869
20
-29.5552467865
30
0.0000000000
11
-8.1979348651
21
-28.9552915647
31
0.0000000000
11
-8.2232992421
21
-28.9806559418
31
0.0000000000
11
-8.2843992838
21
-29.0417559835
31
0.0000000000
11
-8.3684767107
21
-29.1258334104
31
0.0000000000
11
-8.4672625488
21
-29.2246192484
31
0.0000000000
11
-8.5749814351
21
-29.3323381348
31
0.0000000000
11
-8.6867913689
21
-29.4441480685
31
0.0000000000
11
-8.7978900869
21
-29.5552467865
31
0.0000000000
0
SPLINE
5
51C
100
AcDbEntity
8
0
100
AcDbSpline
62
7
6
CONTINUOUS
70
0
71
3
72
12
73
8
74
6
42
0.0000001000
43
0.0000001000
44
0.0000000001
12
0.5408939396
22
0.3869038346
32
0.0000000000
13
0.0232091055
23
0.6646218237
33
0.0000000000
40
0.0000000000
40
0.0000000000
40
0.0000000000
40
0.0000000000
40
0.3323540623
40
0.5905456759
40
0.8053457752
40
0.9559024698
40
1.0000000000
40
1.0000000000
40
1.0000000000
40
1.0000000000
10
-7.4682569751
20
-29.5552467865
30
0.0000000000
10
-7.4083342090
20
-29.5123837662
30
0.0000000000
10
-7.2687744927
20
-29.3999884911
30
0.0000000000
10
-7.4128275577
20
-29.2372836213
30
0.0000000000
10
-7.4152410688
20
-29.0983909063
30
0.0000000000
10
-7.4230345246
20
-29.0081369461
30
0.0000000000
10
-7.4267441320
20
-28.9650170940
30
0.0000000000
10
-7.4264029772
20
-28.9552477004
30
0.0000000000
11
-7.4682569751
21
-29.5552467865
31
0.0000000000
11
-7.3289086393
21
-29.3836838857
31
0.0000000000
11
-7.3959246793
21
-29.2255976939
31
0.0000000000
11
-7.4174046087
21
-29.0843740354
31
0.0000000000
11
-7.4250635980
21
-28.9845431439
31
0.0000000000
11
-7.4264029772
21
-28.9552477004
31
0.0000000000
0
SPLINE
5
51D
100
AcDbEntity
8
0
100
AcDbSpline
62
7
6
CONTINUOUS
70
0
71
3
72
14
73
10
74
8
42
0.0000001000
43
0.0000001000
44
0.0000000001
12
0.8130620250
22
0.6116829007
32
0.0000000000
13
1.0151956433
23
-0.0678500794
33
0.0000000000
40
0.0000000000
40
0.0000000000
40
0.0000000000
40
0.0000000000
40
0.1659950196
40
0.3305610674
40
0.4908676964
40
0.6423201385
40
0.7808894018
40
0.9024587047
40
1.0000000000
40
1.0000000000
40
1.0000000000
40
1.0000000000
10
-6.9865260496
20
-29.5539546067
30
0.0000000000
10
-6.9415379673
20
-29.5201091683
30
0.0000000000
10
-6.8516819188
20
-29.4530607314
30
0.0000000000
10
-6.7169110975
20
-29.3553202444
30
0.0000000000
10
-6.5840976196
20
-29.2632899542
30
0.0000000000
10
-6.4557378989
20
-29.1805515221
30
0.0000000000
10
-6.3341577201
20
-29.1113486966
30
0.0000000000
10
-6.2237395522
20
-29.0617883840
30
0.0000000000
10
-6.1491829291
20
-29.0448215836
30
0.0000000000
10
-6.1161750964
20
-29.0470276451
30
0.0000000000
11
-6.9865260496
21
-29.5539546067
31
0.0000000000
11
-6.8510661358
21
-29.4530805121
31
0.0000000000
11
-6.7153854288
21
-29.3549646870
31
0.0000000000
11
-6.5811172205
21
-29.2623606674
31
0.0000000000
11
-6.4512467608
21
-29.1794178534
31
0.0000000000
11
-6.3281532080
21
-29.1106733654
31
0.0000000000
11
-6.2141930313
21
-29.0625820004
31
0.0000000000
11
-6.1161750964
21
-29.0470276451
31
0.0000000000
0
SPLINE
5
51E
100
AcDbEntity
8
0
100
AcDbSpline
62
7
6
CONTINUOUS
70
0
71
3
72
12
73
8
74
6
42
0.0000001000
43
0.0000001000
44
0.0000000001
12
0.5408856624
22
-0.3869093738
32
0.0000000000
13
0.0232089830
23
-0.6646183163
33
0.0000000000
40
0.0000000000
40
0.0000000000
40
0.0000000000
40
0.0000000000
40
0.3323531927
40
0.5905455715
40
0.8053459721
40
0.9559022267
40
1.0000000000
40
1.0000000000
40
1.0000000000
40
1.0000000000
10
-7.4682569751
20
13.5089832229
30
0.0000000000
10
-7.4083352828
20
13.4661197010
30
0.0000000000
10
-7.2687801243
20
13.3537240721
30
0.0000000000
10
-7.4128277420
20
13.1910186391
30
0.0000000000
10
-7.4152413684
20
13.0521266587
30
0.0000000000
10
-7.4230345867
20
12.9618731138
30
0.0000000000
10
-7.4267441321
20
12.9187535327
30
0.0000000000
10
-7.4264029772
20
12.9089841367
30
0.0000000000
11
-7.4682569751
21
13.5089832229
31
0.0000000000
11
-7.3289121246
21
13.3374197387
31
0.0000000000
11
-7.3959255456
21
13.1793328681
31
0.0000000000
11
-7.4174048321
21
13.0381096718
31
0.0000000000
11
-7.4250636181
21
12.9382795881
31
0.0000000000
11
-7.4264029772
21
12.9089841367
31
0.0000000000
0
SPLINE
5
51F
100
AcDbEntity
8
0
100
AcDbSpline
62
7
6
CONTINUOUS
70
0
71
3
72
14
73
10
74
8
42
0.0000001000
43
0.0000001000
44
0.0000000001
12
-1.0152064562
22
-0.0678507992
32
0.0000000000
13
-0.8130707572
23
0.6116893194
33
0.0000000000
40
0.0000000000
40
0.0000000000
40
0.0000000000
40
0.0000000000
40
0.0964796341
40
0.2174670447
40
0.3559605359
40
0.5077700931
40
0.6685426268
40
0.8336061761
40
1.0000000000
40
1.0000000000
40
1.0000000000
40
1.0000000000
10
-6.1161749007
20
13.0007640945
30
0.0000000000
10
-6.1488238165
20
12.9985820211
30
0.0000000000
10
-6.2228359888
20
13.0152286951
30
0.0000000000
10
-6.3328169728
20
13.0643954556
30
0.0000000000
10
-6.4543665009
20
13.1334415796
30
0.0000000000
10
-6.5829762526
20
13.2162669771
30
0.0000000000
10
-6.7161757142
20
13.3085293357
30
0.0000000000
10
-6.8513281266
20
13.4065339798
30
0.0000000000
10
-6.9414293988
20
13.4737640659
30
0.0000000000
10
-6.9865260496
20
13.5076911742
30
0.0000000000
11
-6.1161749007
21
13.0007640945
31
0.0000000000
11
-6.2131524275
21
13.0159883394
31
0.0000000000
11
-6.3266500832
21
13.0636558598
31
0.0000000000
11
-6.4497431105
21
13.1322461202
31
0.0000000000
11
-6.5799598517
21
13.2153248155
31
0.0000000000
11
-6.7146383826
21
13.3081719012
31
0.0000000000
11
-6.8507378011
21
13.4065755924
31
0.0000000000
11
-6.9865260496
21
13.5076911742
31
0.0000000000
0
SPLINE
5
520
100
AcDbEntity
8
0
100
AcDbSpline
62
7
6
CONTINUOUS
70
0
71
3
72
14
73
10
74
8
42
0.0000001000
43
0.0000001000
44
0.0000000001
12
-0.5999552218
22
0.5999552218
32
0.0000000000
13
-0.5999552218
23
0.5999552218
33
0.0000000000
40
0.0000000000
40
0.0000000000
40
0.0000000000
40
0.0000000000
40
0.0422771168
40
0.1441181202
40
0.2842576237
40
0.4489129753
40
0.6284578521
40
0.8148216501
40
1.0000000000
40
1.0000000000
40
1.0000000000
40
1.0000000000
10
-8.1979348651
20
12.9090280011
30
0.0000000000
10
-8.2063896574
20
12.9174827934
30
0.0000000000
10
-8.2352111303
20
12.9463042663
30
0.0000000000
10
-8.2920584122
20
13.0031515482
30
0.0000000000
10
-8.3733795144
20
13.0844726504
30
0.0000000000
10
-8.4702402315
20
13.1813333675
30
0.0000000000
10
-8.5763451176
20
13.2874382536
30
0.0000000000
10
-8.6865542970
20
13.3976474329
30
0.0000000000
10
-8.7608571809
20
13.4719503169
30
0.0000000000
10
-8.7978900869
20
13.5089832229
30
0.0000000000
11
-8.1979348651
21
12.9090280011
31
0.0000000000
11
-8.2232992421
21
12.9343923781
31
0.0000000000
11
-8.2843992838
21
12.9954924198
31
0.0000000000
11
-8.3684767107
21
13.0795698467
31
0.0000000000
11
-8.4672625488
21
13.1783556847
31
0.0000000000
11
-8.5749814351
21
13.2860745711
31
0.0000000000
11
-8.6867913689
21
13.3978845048
31
0.0000000000
11
-8.7978900869
21
13.5089832229
31
0.0000000000
0
SPLINE
5
521
100
AcDbEntity
8
0
100
AcDbSpline
62
7
6
CONTINUOUS
70
0
71
3
72
11
73
7
74
5
42
0.0000001000
43
0.0000001000
44
0.0000000001
12
0.7159553049
22
0.5545765945
32
0.0000000000
13
0.7871387831
23
0.4478389599
33
0.0000000000
40
0.0000000000
40
0.0000000000
40
0.0000000000
40
0.0000000000
40
0.3093045689
40
0.5842836446
40
0.8159459954
40
1.0000000000
40
1.0000000000
40
1.0000000000
40
1.0000000000
10
-8.0894771878
20
11.7447532135
30
0.0000000000
10
-8.0156611055
20
11.8019309050
30
0.0000000000
10
-7.8762288341
20
11.9099467886
30
0.0000000000
10
-7.6797269665
20
12.0585030352
30
0.0000000000
10
-7.5101453433
20
12.1798204125
30
0.0000000000
10
-7.4045665871
20
12.2479322596
30
0.0000000000
10
-7.3562745720
20
12.2754077776
30
0.0000000000
11
-8.0894771878
21
11.7447532135
31
0.0000000000
11
-7.8676790348
21
11.9158336068
31
0.0000000000
11
-7.6685942805
21
12.0654312481
31
0.0000000000
11
-7.4973661495
21
12.1866588507
31
0.0000000000
11
-7.3562745720
21
12.2754077776
31
0.0000000000
0
SPLINE
5
522
100
AcDbEntity
8
0
100
AcDbSpline
62
7
6
CONTINUOUS
70
0
71
3
72
14
73
10
74
8
42
0.0000001000
43
0.0000001000
44
0.0000000001
12
-0.5999552218
22
-0.5999552218
32
0.0000000000
13
-0.5999552218
23
-0.5999552218
33
0.0000000000
40
0.0000000000
40
0.0000000000
40
0.0000000000
40
0.0000000000
40
0.0422771168
40
0.1441181202
40
0.2842576237
40
0.4489129753
40
0.6284578521
40
0.8148216501
40
1.0000000000
40
1.0000000000
40
1.0000000000
40
1.0000000000
10
-8.1979348651
20
12.3447084353
30
0.0000000000
10
-8.2063896574
20
12.3362536429
30
0.0000000000
10
-8.2352111303
20
12.3074321700
30
0.0000000000
10
-8.2920584122
20
12.2505848881
30
0.0000000000
10
-8.3733795144
20
12.1692637859
30
0.0000000000
10
-8.4702402315
20
12.0724030688
30
0.0000000000
10
-8.5763451176
20
11.9662981828
30
0.0000000000
10
-8.6865542970
20
11.8560890034
30
0.0000000000
10
-8.7608571809
20
11.7817861195
30
0.0000000000
10
-8.7978900869
20
11.7447532135
30
0.0000000000
11
-8.1979348651
21
12.3447084353
31
0.0000000000
11
-8.2232992421
21
12.3193440582
31
0.0000000000
11
-8.2843992838
21
12.2582440165
31
0.0000000000
11
-8.3684767107
21
12.1741665896
31
0.0000000000
11
-8.4672625488
21
12.0753807516
31
0.0000000000
11
-8.5749814351
21
11.9676618652
31
0.0000000000
11
-8.6867913689
21
11.8558519315
31
0.0000000000
11
-8.7978900869
21
11.7447532135
31
0.0000000000
0
SPLINE
5
523
100
AcDbEntity
8
0
100
AcDbSpline
62
7
6
CONTINUOUS
70
0
71
3
72
9
73
5
74
3
42
0.0000001000
43
0.0000001000
44
0.0000000001
12
0.0024215641
22
0.0693445220
32
0.0000000000
13
0.0024215641
23
0.0693445220
33
0.0000000000
40
0.0000000000
40
0.0000000000
40
0.0000000000
40
0.0000000000
40
0.7444406889
40
1.0000000000
40
1.0000000000
40
1.0000000000
40
1.0000000000
10
-7.3562745720
20
12.2754077776
30
0.0000000000
10
-7.3556736684
20
12.2926154055
30
0.0000000000
10
-7.3548664804
20
12.3157302462
30
0.0000000000
10
-7.3540592924
20
12.3388450869
30
0.0000000000
10
-7.3538530080
20
12.3447522996
30
0.0000000000
11
-7.3562745720
21
12.2754077776
31
0.0000000000
11
-7.3544718612
21
12.3270306613
31
0.0000000000
11
-7.3538530080
21
12.3447522996
31
0.0000000000
0
SPLINE
5
524
100
AcDbEntity
8
0
100
AcDbSpline
62
7
6
CONTINUOUS
70
0
71
3
72
8
73
4
74
2
42
0.0000001000
43
0.0000001000
44
0.0000000001
12
0.0463874919
22
0.0232126654
32
0.0000000000
13
0.0475463328
23
0.0207751701
33
0.0000000000
40
0.0000000000
40
0.0000000000
40
0.0000000000
40
0.0000000000
40
1.0000000000
40
1.0000000000
40
1.0000000000
40
1.0000000000
10
-7.3562745720
20
12.2754077776
30
0.0000000000
10
-7.3408120747
20
12.2831453327
30
0.0000000000
10
-7.3251790757
20
12.2905800812
30
0.0000000000
10
-7.3093302981
20
12.2975051379
30
0.0000000000
11
-7.3562745720
21
12.2754077776
31
0.0000000000
11
-7.3093302981
21
12.2975051379
31
0.0000000000
0
SPLINE
5
525
100
AcDbEntity
8
0
100
AcDbSpline
62
7
6
CONTINUOUS
70
0
71
3
72
9
73
5
74
3
42
0.0000001000
43
0.0000001000
44
0.0000000001
12
0.0818926852
22
0.0357826643
32
0.0000000000
13
0.0875429279
23
0.0201391426
33
0.0000000000
40
0.0000000000
40
0.0000000000
40
0.0000000000
40
0.0000000000
40
0.2707061759
40
1.0000000000
40
1.0000000000
40
1.0000000000
40
1.0000000000
10
-7.3093302981
20
12.2975051379
30
0.0000000000
10
-7.3019406795
20
12.3007340007
30
0.0000000000
10
-7.2744698322
20
12.3122522363
30
0.0000000000
10
-7.2462962341
20
12.3219722681
30
0.0000000000
10
-7.2250147285
20
12.3268680522
30
0.0000000000
11
-7.3093302981
21
12.2975051379
31
0.0000000000
11
-7.2870161246
21
12.3068383401
31
0.0000000000
11
-7.2250147285
21
12.3268680522
31
0.0000000000
0
SPLINE
5
526
100
AcDbEntity
8
0
100
AcDbSpline
62
7
6
CONTINUOUS
70
0
71
3
72
8
73
4
74
2
42
0.0000001000
43
0.0000001000
44
0.0000000001
12
0.0508188196
22
0.0116908068
32
0.0000000000
13
0.0517507327
23
-0.0034119494
33
0.0000000000
40
0.0000000000
40
0.0000000000
40
0.0000000000
40
0.0000000000
40
1.0000000000
40
1.0000000000
40
1.0000000000
40
1.0000000000
10
-7.2250147285
20
12.3268680522
30
0.0000000000
10
-7.2080751220
20
12.3307649878
30
0.0000000000
10
-7.1906700399
20
12.3332724968
30
0.0000000000
10
-7.1734197956
20
12.3321351803
30
0.0000000000
11
-7.2250147285
21
12.3268680522
31
0.0000000000
11
-7.1734197956
21
12.3321351803
31
0.0000000000
0
SPLINE
5
527
100
AcDbEntity
8
0
100
AcDbSpline
62
7
6
CONTINUOUS
70
0
71
3
72
14
73
10
74
8
42
0.0000001000
43
0.0000001000
44
0.0000000001
12
-0.8130652924
22
-0.6116852082
32
0.0000000000
13
-1.0151996329
23
0.0678503431
33
0.0000000000
40
0.0000000000
40
0.0000000000
40
0.0000000000
40
0.0000000000
40
0.1662773050
40
0.3321195312
40
0.4935362719
40
0.6449471343
40
0.7819293331
40
0.9026437282
40
1.0000000000
40
1.0000000000
40
1.0000000000
40
1.0000000000
10
2.9960963716
20
13.5076911742
30
0.0000000000
10
2.9510316031
20
13.4737880516
30
0.0000000000
10
2.8607510897
20
13.4064238911
30
0.0000000000
10
2.7252390835
20
13.3081624015
30
0.0000000000
10
2.5917405487
20
13.2157223029
30
0.0000000000
10
2.4634671305
20
13.1331710873
30
0.0000000000
10
2.3425493164
20
13.0645132925
30
0.0000000000
10
2.2328980109
20
13.0154141654
30
0.0000000000
10
2.1586905732
20
12.9985622090
30
0.0000000000
10
2.1257452228
20
13.0007640945
30
0.0000000000
11
2.9960963716
21
13.5076911742
31
0.0000000000
11
2.8604045434
21
13.4066465131
31
0.0000000000
11
2.7236607923
21
13.3077837146
31
0.0000000000
11
2.5884270879
21
13.2145890628
31
0.0000000000
11
2.4585263515
21
13.1317712184
31
0.0000000000
11
2.3367751631
21
13.0639338738
31
0.0000000000
11
2.2235820828
21
13.0162608221
31
0.0000000000
11
2.1257452228
21
13.0007640945
31
0.0000000000
0
SPLINE
5
528
100
AcDbEntity
8
0
100
AcDbSpline
62
7
6
CONTINUOUS
70
0
71
3
72
14
73
10
74
8
42
0.0000001000
43
0.0000001000
44
0.0000000001
12
0.5999552218
22
0.5999552218
32
0.0000000000
13
0.5999552218
23
0.5999552218
33
0.0000000000
40
0.0000000000
40
0.0000000000
40
0.0000000000
40
0.0000000000
40
0.0422771168
40
0.1441181202
40
0.2842576237
40
0.4489129753
40
0.6284578521
40
0.8148216501
40
1.0000000000
40
1.0000000000
40
1.0000000000
40
1.0000000000
10
4.2075051871
20
12.9090280011
30
0.0000000000
10
4.2159599795
20
12.9174827934
30
0.0000000000
10
4.2447814524
20
12.9463042663
30
0.0000000000
10
4.3016287343
20
13.0031515482
30
0.0000000000
10
4.3829498365
20
13.0844726504
30
0.0000000000
10
4.4798105536
20
13.1813333675
30
0.0000000000
10
4.5859154396
20
13.2874382536
30
0.0000000000
10
4.6961246190
20
13.3976474329
30
0.0000000000
10
4.7704275029
20
13.4719503169
30
0.0000000000
10
4.8074604089
20
13.5089832229
30
0.0000000000
11
4.2075051871
21
12.9090280011
31
0.0000000000
11
4.2328695641
21
12.9343923781
31
0.0000000000
11
4.2939696059
21
12.9954924198
31
0.0000000000
11
4.3780470328
21
13.0795698467
31
0.0000000000
11
4.4768328708
21
13.1783556847
31
0.0000000000
11
4.5845517572
21
13.2860745711
31
0.0000000000
11
4.6963616909
21
13.3978845048
31
0.0000000000
11
4.8074604089
21
13.5089832229
31
0.0000000000
0
SPLINE
5
529
100
AcDbEntity
8
0
100
AcDbSpline
62
7
6
CONTINUOUS
70
0
71
3
72
12
73
8
74
6
42
0.0000001000
43
0.0000001000
44
0.0000000001
12
-0.4160809903
22
-0.4780890576
32
0.0000000000
13
-0.0221190284
23
-0.6334060989
33
0.0000000000
40
0.0000000000
40
0.0000000000
40
0.0000000000
40
0.0000000000
40
0.3204749937
40
0.5894025526
40
0.8067496060
40
0.9534214152
40
1.0000000000
40
1.0000000000
40
1.0000000000
40
1.0000000000
10
3.4359732993
20
13.5089832229
30
0.0000000000
10
3.3915254484
20
13.4579113603
30
0.0000000000
10
3.3025312468
20
13.3337013775
30
0.0000000000
10
3.4212015516
20
13.1808447038
30
0.0000000000
10
3.4259537866
20
13.0458012226
30
0.0000000000
10
3.4327617065
20
12.9596232242
30
0.0000000000
10
3.4363167236
20
12.9188185233
30
0.0000000000
10
3.4359732993
20
12.9089841367
30
0.0000000000
11
3.4359732993
21
13.5089832229
31
0.0000000000
11
3.3466902114
21
13.3265440560
31
0.0000000000
11
3.4080283083
21
13.1675193460
31
0.0000000000
11
3.4276617759
21
13.0311728073
31
0.0000000000
11
3.4346233934
21
12.9384744003
31
0.0000000000
11
3.4359732993
21
12.9089841367
31
0.0000000000
0
SPLINE
5
52A
100
AcDbEntity
8
0
100
AcDbSpline
62
7
6
CONTINUOUS
70
0
71
3
72
14
73
10
74
8
42
0.0000001000
43
0.0000001000
44
0.0000000001
12
0.5999552218
22
-0.5999552218
32
0.0000000000
13
0.5999552218
23
-0.5999552218
33
0.0000000000
40
0.0000000000
40
0.0000000000
40
0.0000000000
40
0.0000000000
40
0.0422771168
40
0.1441181202
40
0.2842576237
40
0.4489129753
40
0.6284578521
40
0.8148216501
40
1.0000000000
40
1.0000000000
40
1.0000000000
40
1.0000000000
10
4.2075051871
20
12.3447084353
30
0.0000000000
10
4.2159599795
20
12.3362536429
30
0.0000000000
10
4.2447814524
20
12.3074321700
30
0.0000000000
10
4.3016287343
20
12.2505848881
30
0.0000000000
10
4.3829498365
20
12.1692637859
30
0.0000000000
10
4.4798105536
20
12.0724030688
30
0.0000000000
10
4.5859154396
20
11.9662981828
30
0.0000000000
10
4.6961246190
20
11.8560890034
30
0.0000000000
10
4.7704275029
20
11.7817861195
30
0.0000000000
10
4.8074604089
20
11.7447532135
30
0.0000000000
11
4.2075051871
21
12.3447084353
31
0.0000000000
11
4.2328695641
21
12.3193440582
31
0.0000000000
11
4.2939696059
21
12.2582440165
31
0.0000000000
11
4.3780470328
21
12.1741665896
31
0.0000000000
11
4.4768328708
21
12.0753807516
31
0.0000000000
11
4.5845517572
21
11.9676618652
31
0.0000000000
11
4.6963616909
21
11.8558519315
31
0.0000000000
11
4.8074604089
21
11.7447532135
31
0.0000000000
0
SPLINE
5
52B
100
AcDbEntity
8
0
100
AcDbSpline
62
7
6
CONTINUOUS
70
0
71
3
72
11
73
7
74
5
42
0.0000001000
43
0.0000001000
44
0.0000000001
12
0.7871388291
22
-0.4478389861
32
0.0000000000
13
0.7159553468
23
-0.5545766269
33
0.0000000000
40
0.0000000000
40
0.0000000000
40
0.0000000000
40
0.0000000000
40
0.1839640801
40
0.4154430913
40
0.6901908956
40
1.0000000000
40
1.0000000000
40
1.0000000000
40
1.0000000000
10
3.3658448941
20
12.2754077776
30
0.0000000000
10
3.4141133176
20
12.2479456819
30
0.0000000000
10
3.5196241956
20
12.1798811180
30
0.0000000000
10
3.6890858883
20
12.0586578062
30
0.0000000000
10
3.8856136319
20
11.9100907433
30
0.0000000000
10
4.0251110149
20
11.8020241762
30
0.0000000000
10
4.0990475099
20
11.7447532135
30
0.0000000000
11
3.3658448941
21
12.2754077776
31
0.0000000000
11
3.5068689394
21
12.1867044217
31
0.0000000000
11
3.6779650460
21
12.0655776641
31
0.0000000000
11
3.8768863678
21
11.9161111518
31
0.0000000000
11
4.0990475099
21
11.7447532135
31
0.0000000000
0
SPLINE
5
52C
100
AcDbEntity
8
0
100
AcDbSpline
62
7
6
CONTINUOUS
70
0
71
3
72
8
73
4
74
2
42
0.0000001000
43
0.0000001000
44
0.0000000001
12
0.0516049341
22
0.0034023368
32
0.0000000000
13
0.0506810038
23
-0.0116303731
33
0.0000000000
40
0.0000000000
40
0.0000000000
40
0.0000000000
40
0.0000000000
40
1.0000000000
40
1.0000000000
40
1.0000000000
40
1.0000000000
10
3.1829901177
20
12.3321351803
30
0.0000000000
10
3.2001917624
20
12.3332692926
30
0.0000000000
10
3.2175478641
20
12.3307777489
30
0.0000000000
10
3.2344415320
20
12.3269009578
30
0.0000000000
11
3.1829901177
21
12.3321351803
31
0.0000000000
11
3.2344415320
21
12.3269009578
31
0.0000000000
0
SPLINE
5
52D
100
AcDbEntity
8
0
100
AcDbSpline
62
7
6
CONTINUOUS
70
0
71
3
72
9
73
5
74
3
42
0.0000001000
43
0.0000001000
44
0.0000000001
12
0.1125369292
22
-0.0258251885
32
0.0000000000
13
0.1039331906
23
-0.0489740056
33
0.0000000000
40
0.0000000000
40
0.0000000000
40
0.0000000000
40
0.0000000000
40
0.5681431278
40
1.0000000000
40
1.0000000000
40
1.0000000000
40
1.0000000000
10
3.2344415320
20
12.3269009578
30
0.0000000000
10
3.2557538930
20
12.3220101567
30
0.0000000000
10
3.2919707935
20
12.3095212865
30
0.0000000000
10
3.3270251259
20
12.2940614611
30
0.0000000000
10
3.3419865468
20
12.2870115408
30
0.0000000000
11
3.2344415320
21
12.3269009578
31
0.0000000000
11
3.2965313979
21
12.3068602406
31
0.0000000000
11
3.3419865468
21
12.2870115408
31
0.0000000000
0
SPLINE
5
52E
100
AcDbEntity
8
0
100
AcDbSpline
62
7
6
CONTINUOUS
70
0
71
3
72
8
73
4
74
2
42
0.0000001000
43
0.0000001000
44
0.0000000001
12
0.0240041630
22
-0.0113109201
32
0.0000000000
13
0.0237186173
23
-0.0118689824
33
0.0000000000
40
0.0000000000
40
0.0000000000
40
0.0000000000
40
0.0000000000
40
1.0000000000
40
1.0000000000
40
1.0000000000
40
1.0000000000
10
3.3419865468
20
12.2870115408
30
0.0000000000
10
3.3499879344
20
12.2832412341
30
0.0000000000
10
3.3579386883
20
12.2793641051
30
0.0000000000
10
3.3658448941
20
12.2754077776
30
0.0000000000
11
3.3419865468
21
12.2870115408
31
0.0000000000
11
3.3658448941
21
12.2754077776
31
0.0000000000
0
SPLINE
5
52F
100
AcDbEntity
8
0
100
AcDbSpline
62
7
6
CONTINUOUS
70
0
71
3
72
9
73
5
74
3
42
0.0000001000
43
0.0000001000
44
0.0000000001
12
-0.0024215641
22
0.0693445220
32
0.0000000000
13
-0.0024215641
23
0.0693445220
33
0.0000000000
40
0.0000000000
40
0.0000000000
40
0.0000000000
40
0.0000000000
40
0.7444406889
40
1.0000000000
40
1.0000000000
40
1.0000000000
40
1.0000000000
10
3.3658448941
20
12.2754077776
30
0.0000000000
10
3.3652439905
20
12.2926154055
30
0.0000000000
10
3.3644368025
20
12.3157302462
30
0.0000000000
10
3.3636296145
20
12.3388450869
30
0.0000000000
10
3.3634233300
20
12.3447522996
30
0.0000000000
11
3.3658448941
21
12.2754077776
31
0.0000000000
11
3.3640421833
21
12.3270306613
31
0.0000000000
11
3.3634233300
21
12.3447522996
31
0.0000000000
0
SPLINE
5
530
100
AcDbEntity
8
0
100
AcDbSpline
62
7
6
CONTINUOUS
70
0
71
3
72
12
73
8
74
6
42
0.0000001000
43
0.0000001000
44
0.0000000001
12
-0.9593254794
22
0.6493051546
32
0.0000000000
13
-0.8634242421
23
0.7722701195
33
0.0000000000
40
0.0000000000
40
0.0000000000
40
0.0000000000
40
0.0000000000
40
0.1168749680
40
0.2782659351
40
0.4811672482
40
0.7238238610
40
1.0000000000
40
1.0000000000
40
1.0000000000
40
1.0000000000
10
-6.1057946626
20
-30.4456031920
30
0.0000000000
10
-6.1431683742
20
-30.4203073522
30
0.0000000000
10
-6.2286291293
20
-30.3549868230
30
0.0000000000
10
-6.3717603344
20
-30.2365483184
30
0.0000000000
10
-6.5490251892
20
-30.0832018790
30
0.0000000000
10
-6.7577214997
20
-29.8985114567
30
0.0000000000
10
-6.9070403251
20
-29.7649432886
30
0.0000000000
10
-6.9865260496
20
-29.6938490953
30
0.0000000000
11
-6.1057946626
21
-30.4456031920
31
0.0000000000
11
-6.2144835970
21
-30.3648766167
31
0.0000000000
11
-6.3590257390
21
-30.2463010519
31
0.0000000000
11
-6.5371463995
21
-30.0929461040
31
0.0000000000
11
-6.7478744395
21
-29.9069140889
31
0.0000000000
11
-6.9865260496
21
-29.6938490953
31
0.0000000000
0
SPLINE
5
531
100
AcDbEntity
8
0
100
AcDbSpline
62
7
6
CONTINUOUS
70
0
71
3
72
12
73
8
74
6
42
0.0000001000
43
0.0000001000
44
0.0000000001
12
-0.8634242106
22
-0.7722700914
32
0.0000000000
13
-0.9593254445
23
-0.6493051309
33
0.0000000000
40
0.0000000000
40
0.0000000000
40
0.0000000000
40
0.0000000000
40
0.2763238199
40
0.5186885016
40
0.7213385940
40
0.8830595754
40
1.0000000000
40
1.0000000000
40
1.0000000000
40
1.0000000000
10
2.9960963716
20
-29.6938490953
30
0.0000000000
10
2.9165681463
20
-29.7649813025
30
0.0000000000
10
2.7672908481
20
-29.8985123327
30
0.0000000000
10
2.5587086180
20
-30.0831012612
30
0.0000000000
10
2.3815081899
20
-30.2363962114
30
0.0000000000
10
2.2383401918
20
-30.3548775817
30
0.0000000000
10
2.1527596263
20
-30.4202931861
30
0.0000000000
10
2.1153649847
20
-30.4456031920
30
0.0000000000
11
2.9960963716
21
-29.6938490953
31
0.0000000000
11
2.7573169401
21
-29.9070277736
31
0.0000000000
11
2.5468425638
21
-30.0928361289
31
0.0000000000
11
2.3689461682
21
-30.2460055163
31
0.0000000000
11
2.2241134819
21
-30.3648296510
31
0.0000000000
11
2.1153649847
21
-30.4456031920
31
0.0000000000
0
SPLINE
5
532
100
AcDbEntity
8
0
100
AcDbSpline
62
7
6
CONTINUOUS
70
0
71
3
72
12
73
8
74
6
42
0.0000001000
43
0.0000001000
44
0.0000000001
12
0.8634242421
22
0.7722701195
32
0.0000000000
13
0.9593254794
23
0.6493051546
33
0.0000000000
40
0.0000000000
40
0.0000000000
40
0.0000000000
40
0.0000000000
40
0.2761761390
40
0.5188327518
40
0.7217340649
40
0.8831250320
40
1.0000000000
40
1.0000000000
40
1.0000000000
40
1.0000000000
10
-6.9865260496
20
13.6475855316
30
0.0000000000
10
-6.9070403251
20
13.7186797249
30
0.0000000000
10
-6.7577214997
20
13.8522478930
30
0.0000000000
10
-6.5490251892
20
14.0369383153
30
0.0000000000
10
-6.3717603344
20
14.1902847547
30
0.0000000000
10
-6.2286291293
20
14.3087232593
30
0.0000000000
10
-6.1431683742
20
14.3740437886
30
0.0000000000
10
-6.1057946626
20
14.3993396283
30
0.0000000000
11
-6.9865260496
21
13.6475855316
31
0.0000000000
11
-6.7478744395
21
13.8606505253
31
0.0000000000
11
-6.5371463995
21
14.0466825404
31
0.0000000000
11
-6.3590257390
21
14.2000374882
31
0.0000000000
11
-6.2144835970
21
14.3186130531
31
0.0000000000
11
-6.1057946626
21
14.3993396283
31
0.0000000000
0
SPLINE
5
533
100
AcDbEntity
8
0
100
AcDbSpline
62
7
6
CONTINUOUS
70
0
71
3
72
12
73
8
74
6
42
0.0000001000
43
0.0000001000
44
0.0000000001
12
0.9593254445
22
-0.6493051309
32
0.0000000000
13
0.8634242106
23
-0.7722700914
33
0.0000000000
40
0.0000000000
40
0.0000000000
40
0.0000000000
40
0.0000000000
40
0.1169404246
40
0.2786614060
40
0.4813114984
40
0.7236761801
40
1.0000000000
40
1.0000000000
40
1.0000000000
40
1.0000000000
10
2.1153649847
20
14.3993396283
30
0.0000000000
10
2.1527596263
20
14.3740296224
30
0.0000000000
10
2.2383401918
20
14.3086140180
30
0.0000000000
10
2.3815081899
20
14.1901326477
30
0.0000000000
10
2.5587086180
20
14.0368376975
30
0.0000000000
10
2.7672908481
20
13.8522487691
30
0.0000000000
10
2.9165681463
20
13.7187177388
30
0.0000000000
10
2.9960963716
20
13.6475855316
30
0.0000000000
11
2.1153649847
21
14.3993396283
31
0.0000000000
11
2.2241134819
21
14.3185660873
31
0.0000000000
11
2.3689461682
21
14.1997419526
31
0.0000000000
11
2.5468425638
21
14.0465725653
31
0.0000000000
11
2.7573169401
21
13.8607642099
31
0.0000000000
11
2.9960963716
21
13.6475855316
31
0.0000000000
0
SPLINE
5
534
100
AcDbEntity
8
0
100
AcDbSpline
62
7
6
CONTINUOUS
70
0
71
3
72
18
73
14
74
12
42
0.0000001000
43
0.0000001000
44
0.0000000001
12
-0.0000000000
22
-1.8666007483
32
0.0000000000
13
-0.0000000000
23
1.8666007483
33
0.0000000000
40
0.0000000000
40
0.0000000000
40
0.0000000000
40
0.0000000000
40
0.1176742771
40
0.2236767360
40
0.3154757846
40
0.3967218281
40
0.4716049105
40
0.5429538465
40
0.6183459742
40
0.7037820115
40
0.8002242182
40
0.9015008770
40
1.0000000000
40
1.0000000000
40
1.0000000000
40
1.0000000000
10
-4.2530690200
20
-25.2502410085
30
0.0000000000
10
-4.2530690200
20
-25.3234579731
30
0.0000000000
10
-4.2687236834
20
-25.4632080285
30
0.0000000000
10
-4.3349180197
20
-25.6498630394
30
0.0000000000
10
-4.4323406549
20
-25.7959859185
30
0.0000000000
10
-4.5525211053
20
-25.8966396629
30
0.0000000000
10
-4.6885329882
20
-25.9465729166
30
0.0000000000
10
-4.8298483978
20
-25.9408556385
30
0.0000000000
10
-4.9643622880
20
-25.8800130632
30
0.0000000000
10
-5.0820361841
20
-25.7677614615
30
0.0000000000
10
-5.1717739955
20
-25.6138675153
30
0.0000000000
10
-5.2256419791
20
-25.4361542276
30
0.0000000000
10
-5.2373606580
20
-25.3115271874
30
0.0000000000
10
-5.2373606580
20
-25.2502410085
30
0.0000000000
11
-4.2530690200
21
-25.2502410085
31
0.0000000000
11
-4.2781974424
21
-25.4684498018
31
0.0000000000
11
-4.3458115555
21
-25.6544030236
31
0.0000000000
11
-4.4426291711
21
-25.7957816515
31
0.0000000000
11
-4.5603902802
21
-25.8913391438
31
0.0000000000
11
-4.6921693458
21
-25.9379421119
31
0.0000000000
11
-4.8252486167
21
-25.9327638872
31
0.0000000000
11
-4.9542327804
21
-25.8764862308
31
0.0000000000
11
-5.0713644441
21
-25.7682622050
31
0.0000000000
11
-5.1638879443
21
-25.6138398084
31
0.0000000000
11
-5.2198220427
21
-25.4332611126
31
0.0000000000
11
-5.2373606580
21
-25.2502410085
31
0.0000000000
0
SPLINE
5
535
100
AcDbEntity
8
0
100
AcDbSpline
62
7
6
CONTINUOUS
70
0
71
3
72
15
73
11
74
9
42
0.0000001000
43
0.0000001000
44
0.0000000001
12
-0.3920575792
22
0.0000000000
32
0.0000000000
13
0.0000000000
23
-0.3920575792
33
0.0000000000
40
0.0000000000
40
0.0000000000
40
0.0000000000
40
0.0000000000
40
0.1250004118
40
0.2500001462
40
0.3749999295
40
0.4999995608
40
0.6249996381
40
0.7499997748
40
0.8749999251
40
1.0000000000
40
1.0000000000
40
1.0000000000
40
1.0000000000
10
-13.9881116372
20
15.9140353443
30
0.0000000000
10
-14.0044474235
20
15.9140353443
30
0.0000000000
10
-14.0372094045
20
15.9108133423
30
0.0000000000
10
-14.0843942547
20
15.8964991318
30
0.0000000000
10
-14.1278996359
20
15.8732528453
30
0.0000000000
10
-14.1660290077
20
15.8419662788
30
0.0000000000
10
-14.1973230179
20
15.8038428903
30
0.0000000000
10
-14.2205765647
20
15.7603410469
30
0.0000000000
10
-14.2348959912
20
15.7131575119
30
0.0000000000
10
-14.2381192546
20
15.6803954548
30
0.0000000000
10
-14.2381192546
20
15.6640597125
30
0.0000000000
11
-13.9881116372
21
15.9140353443
31
0.0000000000
11
-14.0368831440
21
15.9092331219
31
0.0000000000
11
-14.0837810201
21
15.8950104494
31
0.0000000000
11
-14.1270036451
21
15.8719127924
31
0.0000000000
11
-14.1648897343
21
15.8408268555
31
0.0000000000
11
-14.1959829293
21
15.8029464965
31
0.0000000000
11
-14.2190875437
21
15.7597274331
31
0.0000000000
11
-14.2333152381
21
15.7128309099
31
0.0000000000
11
-14.2381192546
21
15.6640597125
31
0.0000000000
0
SPLINE
5
536
100
AcDbEntity
8
0
100
AcDbSpline
62
7
6
CONTINUOUS
70
0
71
3
72
15
73
11
74
9
42
0.0000001000
43
0.0000001000
44
0.0000000001
12
0.0000000000
22
0.3920575792
32
0.0000000000
13
-0.3920575792
23
0.0000000000
33
0.0000000000
40
0.0000000000
40
0.0000000000
40
0.0000000000
40
0.0000000000
40
0.1250002312
40
0.2500007204
40
0.3750012057
40
0.5000014296
40
0.6250009143
40
0.7500003490
40
0.8749997445
40
1.0000000000
40
1.0000000000
40
1.0000000000
40
1.0000000000
10
10.2476895767
20
15.6640597125
30
0.0000000000
10
10.2476895767
20
15.6803954752
30
0.0000000000
10
10.2444663029
20
15.7131575974
30
0.0000000000
10
10.2301468194
20
15.7603412329
30
0.0000000000
10
10.2068931741
20
15.8038431501
30
0.0000000000
10
10.1755990791
20
15.8419665294
30
0.0000000000
10
10.1374696981
20
15.8732530111
30
0.0000000000
10
10.0939643908
20
15.8964991991
30
0.0000000000
10
10.0467796411
20
15.9108133527
30
0.0000000000
10
10.0140177251
20
15.9140353443
30
0.0000000000
10
9.9976819593
20
15.9140353443
30
0.0000000000
11
10.2476895767
21
15.6640597125
31
0.0000000000
11
10.2428855481
21
15.7128309703
31
0.0000000000
11
10.2286577911
21
15.7597276134
31
0.0000000000
11
10.2055530666
21
15.8029467729
31
0.0000000000
11
10.1744597805
21
15.8408271314
31
0.0000000000
11
10.1365736907
21
15.8719129771
31
0.0000000000
11
10.0933511619
21
15.8950105240
31
0.0000000000
11
10.0464534057
21
15.9092331339
31
0.0000000000
11
9.9976819593
21
15.9140353443
31
0.0000000000
0
SPLINE
5
537
100
AcDbEntity
8
0
100
AcDbSpline
62
7
6
CONTINUOUS
70
0
71
3
72
9
73
5
74
3
42
0.0000001000
43
0.0000001000
44
0.0000000001
12
-0.0950134218
22
0.0000000000
32
0.0000000000
13
-0.0883459535
23
-0.0353436241
33
0.0000000000
40
0.0000000000
40
0.0000000000
40
0.0000000000
40
0.0000000000
40
0.5159141634
40
1.0000000000
40
1.0000000000
40
1.0000000000
40
1.0000000000
10
8.4977581233
20
15.9140353443
30
0.0000000000
10
8.4814185333
20
15.9140353443
30
0.0000000000
10
8.4496596555
20
15.9109112612
30
0.0000000000
10
8.4191275402
20
15.9018483852
30
0.0000000000
10
8.4048718653
20
15.8961452692
30
0.0000000000
11
8.4977581233
21
15.9140353443
31
0.0000000000
11
8.4489753478
21
15.9092311136
31
0.0000000000
11
8.4048718653
21
15.8961452692
31
0.0000000000
0
SPLINE
5
538
100
AcDbEntity
8
0
100
AcDbSpline
62
7
6
CONTINUOUS
70
0
71
3
72
15
73
11
74
9
42
0.0000001000
43
0.0000001000
44
0.0000000001
12
0.3920575792
22
0.0000000000
32
0.0000000000
13
0.0000000000
23
0.3920575792
33
0.0000000000
40
0.0000000000
40
0.0000000000
40
0.0000000000
40
0.0000000000
40
0.1250004118
40
0.2500001462
40
0.3749999295
40
0.4999995608
40
0.6249996381
40
0.7499997748
40
0.8749999251
40
1.0000000000
40
1.0000000000
40
1.0000000000
40
1.0000000000
10
9.9976819593
20
-31.9602989080
30
0.0000000000
10
10.0140177455
20
-31.9602989080
30
0.0000000000
10
10.0467797266
20
-31.9570769059
30
0.0000000000
10
10.0939645767
20
-31.9427626954
30
0.0000000000
10
10.1374699579
20
-31.9195164089
30
0.0000000000
10
10.1755993297
20
-31.8882298425
30
0.0000000000
10
10.2068933399
20
-31.8501064540
30
0.0000000000
10
10.2301468868
20
-31.8066046106
30
0.0000000000
10
10.2444663133
20
-31.7594210756
30
0.0000000000
10
10.2476895767
20
-31.7266590184
30
0.0000000000
10
10.2476895767
20
-31.7103232762
30
0.0000000000
11
9.9976819593
21
-31.9602989080
31
0.0000000000
11
10.0464534661
21
-31.9554966856
31
0.0000000000
11
10.0933513422
21
-31.9412740131
31
0.0000000000
11
10.1365739672
21
-31.9181763561
31
0.0000000000
11
10.1744600564
21
-31.8870904192
31
0.0000000000
11
10.2055532513
21
-31.8492100602
31
0.0000000000
11
10.2286578658
21
-31.8059909968
31
0.0000000000
11
10.2428855601
21
-31.7590944736
31
0.0000000000
11
10.2476895767
21
-31.7103232762
31
0.0000000000
0
SPLINE
5
539
100
AcDbEntity
8
0
100
AcDbSpline
62
7
6
CONTINUOUS
70
0
71
3
72
9
73
5
74
3
42
0.0000001000
43
0.0000001000
44
0.0000000001
12
0.0950134218
22
0.0000000000
32
0.0000000000
13
0.0883459535
23
0.0353436241
33
0.0000000000
40
0.0000000000
40
0.0000000000
40
0.0000000000
40
0.0000000000
40
0.5159141634
40
1.0000000000
40
1.0000000000
40
1.0000000000
40
1.0000000000
10
-12.4881878012
20
-31.9602989080
30
0.0000000000
10
-12.4718482112
20
-31.9602989080
30
0.0000000000
10
-12.4400893335
20
-31.9571748249
30
0.0000000000
10
-12.4095572182
20
-31.9481119488
30
0.0000000000
10
-12.3953015432
20
-31.9424088329
30
0.0000000000
11
-12.4881878012
21
-31.9602989080
31
0.0000000000
11
-12.4394050257
21
-31.9554946773
31
0.0000000000
11
-12.3953015432
21
-31.9424088329
31
0.0000000000
0
SPLINE
5
53A
100
AcDbEntity
8
0
100
AcDbSpline
62
7
6
CONTINUOUS
70
0
71
3
72
15
73
11
74
9
42
0.0000001000
43
0.0000001000
44
0.0000000001
12
0.0000000000
22
-0.3920575792
32
0.0000000000
13
0.3920575792
23
0.0000000000
33
0.0000000000
40
0.0000000000
40
0.0000000000
40
0.0000000000
40
0.0000000000
40
0.1250002312
40
0.2500007204
40
0.3750012057
40
0.5000014296
40
0.6250009143
40
0.7500003490
40
0.8749997445
40
1.0000000000
40
1.0000000000
40
1.0000000000
40
1.0000000000
10
-14.2381192546
20
-31.7103232762
30
0.0000000000
10
-14.2381192546
20
-31.7266590389
30
0.0000000000
10
-14.2348959808
20
-31.7594211611
30
0.0000000000
10
-14.2205764973
20
-31.8066047965
30
0.0000000000
10
-14.1973228520
20
-31.8501067138
30
0.0000000000
10
-14.1660287571
20
-31.8882300930
30
0.0000000000
10
-14.1278993760
20
-31.9195165748
30
0.0000000000
10
-14.0843940687
20
-31.9427627628
30
0.0000000000
10
-14.0372093191
20
-31.9570769164
30
0.0000000000
10
-14.0044474031
20
-31.9602989080
30
0.0000000000
10
-13.9881116372
20
-31.9602989080
30
0.0000000000
11
-14.2381192546
21
-31.7103232762
31
0.0000000000
11
-14.2333152261
21
-31.7590945340
31
0.0000000000
11
-14.2190874691
21
-31.8059911770
31
0.0000000000
11
-14.1959827446
21
-31.8492103366
31
0.0000000000
11
-14.1648894584
21
-31.8870906951
31
0.0000000000
11
-14.1270033687
21
-31.9181765407
31
0.0000000000
11
-14.0837808399
21
-31.9412740877
31
0.0000000000
11
-14.0368830837
21
-31.9554966976
31
0.0000000000
11
-13.9881116372
21
-31.9602989080
31
0.0000000000
0
SPLINE
5
53B
100
AcDbEntity
8
0
100
AcDbSpline
62
7
6
CONTINUOUS
70
0
71
3
72
15
73
11
74
9
42
0.0000001000
43
0.0000001000
44
0.0000000001
12
0.2210488440
22
0.0000000000
32
0.0000000000
13
-0.0022434141
23
-0.2210374596
33
0.0000000000
40
0.0000000000
40
0.0000000000
40
0.0000000000
40
0.0000000000
40
0.2574315567
40
0.4532781548
40
0.6031980172
40
0.7185326510
40
0.8087415865
40
0.8808482422
40
0.9414468022
40
1.0000000000
40
1.0000000000
40
1.0000000000
40
1.0000000000
10
-5.9452148390
20
-28.8075983357
30
0.0000000000
10
-5.9262465230
20
-28.8075983357
30
0.0000000000
10
-5.8928438644
20
-28.8079029738
30
0.0000000000
10
-5.8484324826
20
-28.8100443647
30
0.0000000000
10
-5.8146312474
20
-28.8137495089
30
0.0000000000
10
-5.7889107299
20
-28.8189906224
30
0.0000000000
10
-5.7695537507
20
-28.8258761117
30
0.0000000000
10
-5.7554719079
20
-28.8347859355
30
0.0000000000
10
-5.7468366163
20
-28.8464306353
30
0.0000000000
10
-5.7451710526
20
-28.8553809775
30
0.0000000000
10
-5.7452148390
20
-28.8596951275
30
0.0000000000
11
-5.9452148390
21
-28.8075983357
31
0.0000000000
11
-5.8883150575
21
-28.8083651362
31
0.0000000000
11
-5.8450866715
21
-28.8107049691
31
0.0000000000
11
-5.8121762690
21
-28.8145958957
31
0.0000000000
11
-5.7872635804
21
-28.8200117927
31
0.0000000000
11
-5.7686198707
21
-28.8270856074
31
0.0000000000
11
-5.7554510117
21
-28.8360653533
31
0.0000000000
11
-5.7477049509
21
-28.8469938043
31
0.0000000000
11
-5.7452148390
21
-28.8596951275
31
0.0000000000
0
SPLINE
5
53C
100
AcDbEntity
8
0
100
AcDbSpline
62
7
6
CONTINUOUS
70
0
71
3
72
10
73
6
74
4
42
0.0000001000
43
0.0000001000
44
0.0000000001
12
0.1004640251
22
0.0000000000
32
0.0000000000
13
0.0989212013
23
0.0176644657
33
0.0000000000
40
0.0000000000
40
0.0000000000
40
0.0000000000
40
0.0000000000
40
0.3885583105
40
0.7636488026
40
1.0000000000
40
1.0000000000
40
1.0000000000
40
1.0000000000
10
-5.9452148390
20
-30.4583471842
30
0.0000000000
10
-5.9322027950
20
-30.4583471842
30
0.0000000000
10
-5.9066224558
20
-30.4575822212
30
0.0000000000
10
-5.8732537018
20
-30.4545113572
30
0.0000000000
10
-5.8529941693
20
-30.4514575170
30
0.0000000000
10
-5.8452007879
20
-30.4500658445
30
0.0000000000
11
-5.9452148390
21
-30.4583471842
31
0.0000000000
11
-5.9061967746
21
-30.4571596493
31
0.0000000000
11
-5.8686781525
21
-30.4536426806
31
0.0000000000
11
-5.8452007879
21
-30.4500658445
31
0.0000000000
0
SPLINE
5
53D
100
AcDbEntity
8
0
100
AcDbSpline
62
7
6
CONTINUOUS
70
0
71
3
72
13
73
9
74
7
42
0.0000001000
43
0.0000001000
44
0.0000000001
12
0.1175613476
22
0.0209930568
32
0.0000000000
13
0.0000000000
23
0.1193948922
33
0.0000000000
40
0.0000000000
40
0.0000000000
40
0.0000000000
40
0.0000000000
40
0.0946528397
40
0.3565294407
40
0.5791300100
40
0.7579347050
40
0.8940083991
40
1.0000000000
40
1.0000000000
40
1.0000000000
40
1.0000000000
10
-5.8452007879
20
-30.4500658445
30
0.0000000000
10
-5.8414916161
20
-30.4494034937
30
0.0000000000
10
-5.8275525827
20
-30.4467283957
30
0.0000000000
10
-5.8051493092
20
-30.4411922991
30
0.0000000000
10
-5.7802569885
20
-30.4321740613
30
0.0000000000
10
-5.7614249873
20
-30.4218242044
30
0.0000000000
10
-5.7487974036
20
-30.4103770412
30
0.0000000000
10
-5.7452148390
20
-30.4007620706
30
0.0000000000
10
-5.7452148390
20
-30.3965437854
30
0.0000000000
11
-5.8452007879
21
-30.4500658445
31
0.0000000000
11
-5.8341007924
21
-30.4479314335
31
0.0000000000
11
-5.8037934827
21
-30.4402453878
31
0.0000000000
11
-5.7789209165
21
-30.4308799141
31
0.0000000000
11
-5.7604389325
21
-30.4201949222
31
0.0000000000
11
-5.7490577829
21
-30.4086010304
31
0.0000000000
11
-5.7452148390
21
-30.3965437854
31
0.0000000000
0
SPLINE
5
53E
100
AcDbEntity
8
0
100
AcDbSpline
62
7
6
CONTINUOUS
70
0
71
3
72
15
73
11
74
9
42
0.0000001000
43
0.0000001000
44
0.0000000001
12
0.0000000000
22
-0.2066863661
32
0.0000000000
13
0.2066732478
23
-0.0042084686
33
0.0000000000
40
0.0000000000
40
0.0000000000
40
0.0000000000
40
0.0000000000
40
0.0612273369
40
0.1398319606
40
0.2431206666
40
0.3717085918
40
0.5229847942
40
0.6925453650
40
0.8748655698
40
1.0000000000
40
1.0000000000
40
1.0000000000
40
1.0000000000
10
1.7547851610
20
-30.3965437854
30
0.0000000000
10
1.7547851610
20
-30.4007620706
30
0.0000000000
10
1.7583677257
20
-30.4103770412
30
0.0000000000
10
1.7709953094
20
-30.4218242044
30
0.0000000000
10
1.7898273106
20
-30.4321740613
30
0.0000000000
10
1.8147196313
20
-30.4411922991
30
0.0000000000
10
1.8448163000
20
-30.4486295188
30
0.0000000000
10
1.8790704168
20
-30.4541659198
30
0.0000000000
10
1.9118175637
20
-30.4571795784
30
0.0000000000
10
1.9329918214
20
-30.4580379170
30
0.0000000000
10
1.9416124678
20
-30.4582134585
30
0.0000000000
11
1.7547851610
21
-30.3965437854
31
0.0000000000
11
1.7586281049
21
-30.4086010304
31
0.0000000000
11
1.7700092545
21
-30.4201949222
31
0.0000000000
11
1.7884912386
21
-30.4308799141
31
0.0000000000
11
1.8133638048
21
-30.4402453878
31
0.0000000000
11
1.8436711144
21
-30.4479314335
31
0.0000000000
11
1.8782484746
21
-30.4536426806
31
0.0000000000
11
1.9157670966
21
-30.4571596493
31
0.0000000000
11
1.9416124678
21
-30.4582134585
31
0.0000000000
0
SPLINE
5
53F
100
AcDbEntity
8
0
100
AcDbSpline
62
7
6
CONTINUOUS
70
0
71
3
72
8
73
4
74
2
42
0.0000001000
43
0.0000001000
44
0.0000000001
12
0.0131717151
22
-0.0002682144
32
0.0000000000
13
0.0131725512
23
0.0000000000
33
0.0000000000
40
0.0000000000
40
0.0000000000
40
0.0000000000
40
0.0000000000
40
1.0000000000
40
1.0000000000
40
1.0000000000
40
1.0000000000
10
1.9416124678
20
-30.4582134585
30
0.0000000000
10
1.9460030395
20
-30.4583028633
30
0.0000000000
10
1.9503943106
20
-30.4583471842
30
0.0000000000
10
1.9547851610
20
-30.4583471842
30
0.0000000000
11
1.9416124678
21
-30.4582134585
31
0.0000000000
11
1.9547851610
21
-30.4583471842
31
0.0000000000
0
SPLINE
5
540
100
AcDbEntity
8
0
100
AcDbSpline
62
7
6
CONTINUOUS
70
0
71
3
72
15
73
11
74
9
42
0.0000001000
43
0.0000001000
44
0.0000000001
12
0.2198589173
22
0.0000000000
32
0.0000000000
13
-0.0000000000
23
0.2198589173
33
0.0000000000
40
0.0000000000
40
0.0000000000
40
0.0000000000
40
0.0000000000
40
0.1775508236
40
0.3489475586
40
0.5083491360
40
0.6505618283
40
0.7714455810
40
0.8685458831
40
0.9424410166
40
1.0000000000
40
1.0000000000
40
1.0000000000
40
1.0000000000
10
2.3047851610
20
-32.5053412705
30
0.0000000000
10
2.3177972050
20
-32.5053412705
30
0.0000000000
10
2.3433775442
20
-32.5045763074
30
0.0000000000
10
2.3804999053
20
-32.5011600061
30
0.0000000000
10
2.4147540220
20
-32.4956236050
30
0.0000000000
10
2.4448506908
20
-32.4881863853
30
0.0000000000
10
2.4697430115
20
-32.4791681476
30
0.0000000000
10
2.4885750127
20
-32.4688182907
30
0.0000000000
10
2.5012025964
20
-32.4573711275
30
0.0000000000
10
2.5047851610
20
-32.4477561569
30
0.0000000000
10
2.5047851610
20
-32.4435378716
30
0.0000000000
11
2.3047851610
21
-32.5053412705
31
0.0000000000
11
2.3438032254
21
-32.5041537355
31
0.0000000000
11
2.3813218475
21
-32.5006367669
31
0.0000000000
11
2.4158992076
21
-32.4949255197
31
0.0000000000
11
2.4462065173
21
-32.4872394741
31
0.0000000000
11
2.4710790835
21
-32.4778740003
31
0.0000000000
11
2.4895610675
21
-32.4671890084
31
0.0000000000
11
2.5009422171
21
-32.4555951166
31
0.0000000000
11
2.5047851610
21
-32.4435378716
31
0.0000000000
0
SPLINE
5
541
100
AcDbEntity
8
0
100
AcDbSpline
62
7
6
CONTINUOUS
70
0
71
3
72
15
73
11
74
9
42
0.0000001000
43
0.0000001000
44
0.0000000001
12
0.2198589173
22
0.0000000000
32
0.0000000000
13
0.0000000000
23
0.2198589173
33
0.0000000000
40
0.0000000000
40
0.0000000000
40
0.0000000000
40
0.0000000000
40
0.1775508236
40
0.3489475586
40
0.5083491360
40
0.6505618283
40
0.7714455810
40
0.8685458831
40
0.9424410166
40
1.0000000000
40
1.0000000000
40
1.0000000000
40
1.0000000000
10
-3.3952148390
20
-32.5053412705
30
0.0000000000
10
-3.3822027950
20
-32.5053412705
30
0.0000000000
10
-3.3566224558
20
-32.5045763074
30
0.0000000000
10
-3.3195000947
20
-32.5011600061
30
0.0000000000
10
-3.2852459780
20
-32.4956236050
30
0.0000000000
10
-3.2551493092
20
-32.4881863853
30
0.0000000000
10
-3.2302569885
20
-32.4791681476
30
0.0000000000
10
-3.2114249873
20
-32.4688182907
30
0.0000000000
10
-3.1987974036
20
-32.4573711275
30
0.0000000000
10
-3.1952148390
20
-32.4477561569
30
0.0000000000
10
-3.1952148390
20
-32.4435378716
30
0.0000000000
11
-3.3952148390
21
-32.5053412705
31
0.0000000000
11
-3.3561967746
21
-32.5041537355
31
0.0000000000
11
-3.3186781525
21
-32.5006367669
31
0.0000000000
11
-3.2841007924
21
-32.4949255197
31
0.0000000000
11
-3.2537934827
21
-32.4872394741
31
0.0000000000
11
-3.2289209165
21
-32.4778740003
31
0.0000000000
11
-3.2104389325
21
-32.4671890084
31
0.0000000000
11
-3.1990577829
21
-32.4555951166
31
0.0000000000
11
-3.1952148390
21
-32.4435378716
31
0.0000000000
0
SPLINE
5
542
100
AcDbEntity
8
0
100
AcDbSpline
62
7
6
CONTINUOUS
70
0
71
3
72
15
73
11
74
9
42
0.0000001000
43
0.0000001000
44
0.0000000001
12
-0.0022442467
22
0.2210374239
32
0.0000000000
13
0.2210488168
23
-0.0000000000
33
0.0000000000
40
0.0000000000
40
0.0000000000
40
0.0000000000
40
0.0000000000
40
0.0585566434
40
0.1191599879
40
0.1912724304
40
0.2814859815
40
0.3968218339
40
0.5467385255
40
0.7425779336
40
1.0000000000
40
1.0000000000
40
1.0000000000
40
1.0000000000
10
1.7547851610
20
-28.8596951275
30
0.0000000000
10
1.7547413558
20
-28.8553807243
30
0.0000000000
10
1.7564071740
20
-28.8464297409
30
0.0000000000
10
1.7650436344
20
-28.8347845419
30
0.0000000000
10
1.7791268421
20
-28.8258747839
30
0.0000000000
10
1.7984848265
20
-28.8189896223
30
0.0000000000
10
1.8242056183
20
-28.8137489366
30
0.0000000000
10
1.8580062034
20
-28.8100441490
30
0.0000000000
10
1.9024161218
20
-28.8079029534
30
0.0000000000
10
1.9358175466
20
-28.8075983357
30
0.0000000000
10
1.9547851610
20
-28.8075983357
30
0.0000000000
11
1.7547851610
21
-28.8596951275
31
0.0000000000
11
1.7572755782
21
-28.8469930896
31
0.0000000000
11
1.7650226726
21
-28.8360640769
31
0.0000000000
11
1.7781929876
21
-28.8270841993
31
0.0000000000
11
1.7968378852
21
-28.8200106463
31
0.0000000000
11
1.8217509415
21
-28.8145951878
31
0.0000000000
11
1.8546606816
21
-28.8107046629
31
0.0000000000
11
1.8978874837
21
-28.8083650701
31
0.0000000000
11
1.9547851610
21
-28.8075983357
31
0.0000000000
0
SPLINE
5
543
100
AcDbEntity
8
0
100
AcDbSpline
62
7
6
CONTINUOUS
70
0
71
3
72
15
73
11
74
9
42
0.0000001000
43
0.0000001000
44
0.0000000001
12
0.0000000000
22
-0.2198589173
32
0.0000000000
13
0.2198589173
23
0.0000000000
33
0.0000000000
40
0.0000000000
40
0.0000000000
40
0.0000000000
40
0.0000000000
40
0.0575589834
40
0.1314541169
40
0.2285544190
40
0.3494381717
40
0.4916508640
40
0.6510524414
40
0.8224491764
40
1.0000000000
40
1.0000000000
40
1.0000000000
40
1.0000000000
10
-0.7952148390
20
-32.4435378716
30
0.0000000000
10
-0.7952148390
20
-32.4477561569
30
0.0000000000
10
-0.7916322743
20
-32.4573711275
30
0.0000000000
10
-0.7790046906
20
-32.4688182907
30
0.0000000000
10
-0.7601726894
20
-32.4791681476
30
0.0000000000
10
-0.7352803687
20
-32.4881863853
30
0.0000000000
10
-0.7051837000
20
-32.4956236050
30
0.0000000000
10
-0.6709295832
20
-32.5011600061
30
0.0000000000
10
-0.6338072222
20
-32.5045763074
30
0.0000000000
10
-0.6082268829
20
-32.5053412705
30
0.0000000000
10
-0.5952148390
20
-32.5053412705
30
0.0000000000
11
-0.7952148390
21
-32.4435378716
31
0.0000000000
11
-0.7913718951
21
-32.4555951166
31
0.0000000000
11
-0.7799907455
21
-32.4671890084
31
0.0000000000
11
-0.7615087614
21
-32.4778740003
31
0.0000000000
11
-0.7366361952
21
-32.4872394741
31
0.0000000000
11
-0.7063288856
21
-32.4949255197
31
0.0000000000
11
-0.6717515254
21
-32.5006367669
31
0.0000000000
11
-0.6342329034
21
-32.5041537355
31
0.0000000000
11
-0.5952148390
21
-32.5053412705
31
0.0000000000
0
SPLINE
5
544
100
AcDbEntity
8
0
100
AcDbSpline
62
7
6
CONTINUOUS
70
0
71
3
72
15
73
11
74
9
42
0.0000001000
43
0.0000001000
44
0.0000000001
12
0.0000000000
22
-0.2198589173
32
0.0000000000
13
0.2198589173
23
-0.0000000000
33
0.0000000000
40
0.0000000000
40
0.0000000000
40
0.0000000000
40
0.0000000000
40
0.0575589834
40
0.1314541169
40
0.2285544190
40
0.3494381717
40
0.4916508640
40
0.6510524414
40
0.8224491764
40
1.0000000000
40
1.0000000000
40
1.0000000000
40
1.0000000000
10
-6.4952148390
20
-32.4435378716
30
0.0000000000
10
-6.4952148390
20
-32.4477561569
30
0.0000000000
10
-6.4916322743
20
-32.4573711275
30
0.0000000000
10
-6.4790046906
20
-32.4688182907
30
0.0000000000
10
-6.4601726894
20
-32.4791681476
30
0.0000000000
10
-6.4352803687
20
-32.4881863853
30
0.0000000000
10
-6.4051837000
20
-32.4956236050
30
0.0000000000
10
-6.3709295832
20
-32.5011600061
30
0.0000000000
10
-6.3338072222
20
-32.5045763074
30
0.0000000000
10
-6.3082268829
20
-32.5053412705
30
0.0000000000
10
-6.2952148390
20
-32.5053412705
30
0.0000000000
11
-6.4952148390
21
-32.4435378716
31
0.0000000000
11
-6.4913718951
21
-32.4555951166
31
0.0000000000
11
-6.4799907455
21
-32.4671890084
31
0.0000000000
11
-6.4615087614
21
-32.4778740003
31
0.0000000000
11
-6.4366361952
21
-32.4872394741
31
0.0000000000
11
-6.4063288856
21
-32.4949255197
31
0.0000000000
11
-6.3717515254
21
-32.5006367669
31
0.0000000000
11
-6.3342329034
21
-32.5041537355
31
0.0000000000
11
-6.2952148390
21
-32.5053412705
31
0.0000000000
0
SPLINE
5
545
100
AcDbEntity
8
0
100
AcDbSpline
62
7
6
CONTINUOUS
70
0
71
3
72
15
73
11
74
9
42
0.0000001000
43
0.0000001000
44
0.0000000001
12
-0.2210488440
22
0.0000000000
32
0.0000000000
13
0.0022434141
23
0.2210374596
33
0.0000000000
40
0.0000000000
40
0.0000000000
40
0.0000000000
40
0.0000000000
40
0.2574315567
40
0.4532781548
40
0.6031980172
40
0.7185326510
40
0.8087415865
40
0.8808482422
40
0.9414468022
40
1.0000000000
40
1.0000000000
40
1.0000000000
40
1.0000000000
10
1.9547851610
20
12.7613347720
30
0.0000000000
10
1.9358168450
20
12.7613347720
30
0.0000000000
10
1.9024141864
20
12.7616394102
30
0.0000000000
10
1.8580028046
20
12.7637808010
30
0.0000000000
10
1.8242015695
20
12.7674859452
30
0.0000000000
10
1.7984810520
20
12.7727270587
30
0.0000000000
10
1.7791240727
20
12.7796125480
30
0.0000000000
10
1.7650422300
20
12.7885223718
30
0.0000000000
10
1.7564069383
20
12.8001670716
30
0.0000000000
10
1.7547413747
20
12.8091174138
30
0.0000000000
10
1.7547851610
20
12.8134315638
30
0.0000000000
11
1.9547851610
21
12.7613347720
31
0.0000000000
11
1.8978853796
21
12.7621015725
31
0.0000000000
11
1.8546569935
21
12.7644414055
31
0.0000000000
11
1.8217465910
21
12.7683323320
31
0.0000000000
11
1.7968339025
21
12.7737482290
31
0.0000000000
11
1.7781901927
21
12.7808220437
31
0.0000000000
11
1.7650213338
21
12.7898017896
31
0.0000000000
11
1.7572752730
21
12.8007302406
31
0.0000000000
11
1.7547851610
21
12.8134315638
31
0.0000000000
0
SPLINE
5
546
100
AcDbEntity
8
0
100
AcDbSpline
62
7
6
CONTINUOUS
70
0
71
3
72
10
73
6
74
4
42
0.0000001000
43
0.0000001000
44
0.0000000001
12
-0.1004640251
22
0.0000000000
32
0.0000000000
13
-0.0989212013
23
-0.0176644657
33
0.0000000000
40
0.0000000000
40
0.0000000000
40
0.0000000000
40
0.0000000000
40
0.3885583105
40
0.7636488026
40
1.0000000000
40
1.0000000000
40
1.0000000000
40
1.0000000000
10
1.9547851610
20
14.4120836206
30
0.0000000000
10
1.9417731171
20
14.4120836206
30
0.0000000000
10
1.9161927778
20
14.4113186575
30
0.0000000000
10
1.8828240239
20
14.4082477935
30
0.0000000000
10
1.8625644914
20
14.4051939534
30
0.0000000000
10
1.8547711099
20
14.4038022808
30
0.0000000000
11
1.9547851610
21
14.4120836206
31
0.0000000000
11
1.9157670966
21
14.4108960856
31
0.0000000000
11
1.8782484746
21
14.4073791169
31
0.0000000000
11
1.8547711099
21
14.4038022808
31
0.0000000000
0
SPLINE
5
547
100
AcDbEntity
8
0
100
AcDbSpline
62
7
6
CONTINUOUS
70
0
71
3
72
13
73
9
74
7
42
0.0000001000
43
0.0000001000
44
0.0000000001
12
-0.1175613476
22
-0.0209930568
32
0.0000000000
13
0.0000000000
23
-0.1193948922
33
0.0000000000
40
0.0000000000
40
0.0000000000
40
0.0000000000
40
0.0000000000
40
0.0946528397
40
0.3565294407
40
0.5791300100
40
0.7579347050
40
0.8940083991
40
1.0000000000
40
1.0000000000
40
1.0000000000
40
1.0000000000
10
1.8547711099
20
14.4038022808
30
0.0000000000
10
1.8510619381
20
14.4031399300
30
0.0000000000
10
1.8371229048
20
14.4004648320
30
0.0000000000
10
1.8147196313
20
14.3949287354
30
0.0000000000
10
1.7898273106
20
14.3859104976
30
0.0000000000
10
1.7709953094
20
14.3755606408
30
0.0000000000
10
1.7583677257
20
14.3641134775
30
0.0000000000
10
1.7547851610
20
14.3544985069
30
0.0000000000
10
1.7547851610
20
14.3502802217
30
0.0000000000
11
1.8547711099
21
14.4038022808
31
0.0000000000
11
1.8436711144
21
14.4016678698
31
0.0000000000
11
1.8133638048
21
14.3939818241
31
0.0000000000
11
1.7884912386
21
14.3846163504
31
0.0000000000
11
1.7700092545
21
14.3739313585
31
0.0000000000
11
1.7586281049
21
14.3623374667
31
0.0000000000
11
1.7547851610
21
14.3502802217
31
0.0000000000
0
SPLINE
5
548
100
AcDbEntity
8
0
100
AcDbSpline
62
7
6
CONTINUOUS
70
0
71
3
72
15
73
11
74
9
42
0.0000001000
43
0.0000001000
44
0.0000000001
12
0.0000000000
22
0.2066863661
32
0.0000000000
13
-0.2066732478
23
0.0042084686
33
0.0000000000
40
0.0000000000
40
0.0000000000
40
0.0000000000
40
0.0000000000
40
0.0612273369
40
0.1398319606
40
0.2431206666
40
0.3717085918
40
0.5229847942
40
0.6925453650
40
0.8748655698
40
1.0000000000
40
1.0000000000
40
1.0000000000
40
1.0000000000
10
-5.7452148390
20
14.3502802217
30
0.0000000000
10
-5.7452148390
20
14.3544985069
30
0.0000000000
10
-5.7487974036
20
14.3641134775
30
0.0000000000
10
-5.7614249873
20
14.3755606408
30
0.0000000000
10
-5.7802569885
20
14.3859104976
30
0.0000000000
10
-5.8051493092
20
14.3949287354
30
0.0000000000
10
-5.8352459780
20
14.4023659551
30
0.0000000000
10
-5.8695000947
20
14.4079023561
30
0.0000000000
10
-5.9022472417
20
14.4109160147
30
0.0000000000
10
-5.9234214994
20
14.4117743533
30
0.0000000000
10
-5.9320421457
20
14.4119498948
30
0.0000000000
11
-5.7452148390
21
14.3502802217
31
0.0000000000
11
-5.7490577829
21
14.3623374667
31
0.0000000000
11
-5.7604389325
21
14.3739313585
31
0.0000000000
11
-5.7789209165
21
14.3846163504
31
0.0000000000
11
-5.8037934827
21
14.3939818241
31
0.0000000000
11
-5.8341007924
21
14.4016678698
31
0.0000000000
11
-5.8686781525
21
14.4073791169
31
0.0000000000
11
-5.9061967746
21
14.4108960856
31
0.0000000000
11
-5.9320421457
21
14.4119498948
31
0.0000000000
0
SPLINE
5
549
100
AcDbEntity
8
0
100
AcDbSpline
62
7
6
CONTINUOUS
70
0
71
3
72
8
73
4
74
2
42
0.0000001000
43
0.0000001000
44
0.0000000001
12
-0.0131717151
22
0.0002682144
32
0.0000000000
13
-0.0131725512
23
0.0000000000
33
0.0000000000
40
0.0000000000
40
0.0000000000
40
0.0000000000
40
0.0000000000
40
1.0000000000
40
1.0000000000
40
1.0000000000
40
1.0000000000
10
-5.9320421457
20
14.4119498948
30
0.0000000000
10
-5.9364327174
20
14.4120392996
30
0.0000000000
10
-5.9408239886
20
14.4120836206
30
0.0000000000
10
-5.9452148390
20
14.4120836206
30
0.0000000000
11
-5.9320421457
21
14.4119498948
31
0.0000000000
11
-5.9452148390
21
14.4120836206
31
0.0000000000
0
SPLINE
5
54A
100
AcDbEntity
8
0
100
AcDbSpline
62
7
6
CONTINUOUS
70
0
71
3
72
15
73
11
74
9
42
0.0000001000
43
0.0000001000
44
0.0000000001
12
-0.2198589173
22
0.0000000000
32
0.0000000000
13
0.0000000000
23
-0.2198589173
33
0.0000000000
40
0.0000000000
40
0.0000000000
40
0.0000000000
40
0.0000000000
40
0.1775508236
40
0.3489475586
40
0.5083491360
40
0.6505618283
40
0.7714455810
40
0.8685458831
40
0.9424410166
40
1.0000000000
40
1.0000000000
40
1.0000000000
40
1.0000000000
10
-6.2952148390
20
16.4590777068
30
0.0000000000
10
-6.3082268829
20
16.4590777068
30
0.0000000000
10
-6.3338072222
20
16.4583127438
30
0.0000000000
10
-6.3709295832
20
16.4548964424
30
0.0000000000
10
-6.4051837000
20
16.4493600414
30
0.0000000000
10
-6.4352803687
20
16.4419228216
30
0.0000000000
10
-6.4601726894
20
16.4329045839
30
0.0000000000
10
-6.4790046906
20
16.4225547270
30
0.0000000000
10
-6.4916322743
20
16.4111075638
30
0.0000000000
10
-6.4952148390
20
16.4014925932
30
0.0000000000
10
-6.4952148390
20
16.3972743080
30
0.0000000000
11
-6.2952148390
21
16.4590777068
31
0.0000000000
11
-6.3342329034
21
16.4578901718
31
0.0000000000
11
-6.3717515254
21
16.4543732032
31
0.0000000000
11
-6.4063288856
21
16.4486619561
31
0.0000000000
11
-6.4366361952
21
16.4409759104
31
0.0000000000
11
-6.4615087614
21
16.4316104367
31
0.0000000000
11
-6.4799907455
21
16.4209254448
31
0.0000000000
11
-6.4913718951
21
16.4093315529
31
0.0000000000
11
-6.4952148390
21
16.3972743080
31
0.0000000000
0
SPLINE
5
54B
100
AcDbEntity
8
0
100
AcDbSpline
62
7
6
CONTINUOUS
70
0
71
3
72
15
73
11
74
9
42
0.0000001000
43
0.0000001000
44
0.0000000001
12
-0.2198589173
22
0.0000000000
32
0.0000000000
13
0.0000000000
23
-0.2198589173
33
0.0000000000
40
0.0000000000
40
0.0000000000
40
0.0000000000
40
0.0000000000
40
0.1775508236
40
0.3489475586
40
0.5083491360
40
0.6505618283
40
0.7714455810
40
0.8685458831
40
0.9424410166
40
1.0000000000
40
1.0000000000
40
1.0000000000
40
1.0000000000
10
-0.5952148390
20
16.4590777068
30
0.0000000000
10
-0.6082268829
20
16.4590777068
30
0.0000000000
10
-0.6338072222
20
16.4583127438
30
0.0000000000
10
-0.6709295832
20
16.4548964424
30
0.0000000000
10
-0.7051837000
20
16.4493600414
30
0.0000000000
10
-0.7352803687
20
16.4419228216
30
0.0000000000
10
-0.7601726894
20
16.4329045839
30
0.0000000000
10
-0.7790046906
20
16.4225547270
30
0.0000000000
10
-0.7916322743
20
16.4111075638
30
0.0000000000
10
-0.7952148390
20
16.4014925932
30
0.0000000000
10
-0.7952148390
20
16.3972743080
30
0.0000000000
11
-0.5952148390
21
16.4590777068
31
0.0000000000
11
-0.6342329034
21
16.4578901718
31
0.0000000000
11
-0.6717515254
21
16.4543732032
31
0.0000000000
11
-0.7063288856
21
16.4486619561
31
0.0000000000
11
-0.7366361952
21
16.4409759104
31
0.0000000000
11
-0.7615087614
21
16.4316104367
31
0.0000000000
11
-0.7799907455
21
16.4209254448
31
0.0000000000
11
-0.7913718951
21
16.4093315529
31
0.0000000000
11
-0.7952148390
21
16.3972743080
31
0.0000000000
0
SPLINE
5
54C
100
AcDbEntity
8
0
100
AcDbSpline
62
7
6
CONTINUOUS
70
0
71
3
72
15
73
11
74
9
42
0.0000001000
43
0.0000001000
44
0.0000000001
12
0.0022442467
22
-0.2210374239
32
0.0000000000
13
-0.2210488168
23
0.0000000000
33
0.0000000000
40
0.0000000000
40
0.0000000000
40
0.0000000000
40
0.0000000000
40
0.0585566434
40
0.1191599879
40
0.1912724304
40
0.2814859815
40
0.3968218339
40
0.5467385255
40
0.7425779336
40
1.0000000000
40
1.0000000000
40
1.0000000000
40
1.0000000000
10
-5.7452148390
20
12.8134315638
30
0.0000000000
10
-5.7451710338
20
12.8091171606
30
0.0000000000
10
-5.7468368520
20
12.8001661772
30
0.0000000000
10
-5.7554733124
20
12.7885209782
30
0.0000000000
10
-5.7695565201
20
12.7796112202
30
0.0000000000
10
-5.7889145045
20
12.7727260586
30
0.0000000000
10
-5.8146352962
20
12.7674853729
30
0.0000000000
10
-5.8484358814
20
12.7637805853
30
0.0000000000
10
-5.8928457997
20
12.7616393897
30
0.0000000000
10
-5.9262472246
20
12.7613347720
30
0.0000000000
10
-5.9452148390
20
12.7613347720
30
0.0000000000
11
-5.7452148390
21
12.8134315638
31
0.0000000000
11
-5.7477052561
21
12.8007295259
31
0.0000000000
11
-5.7554523506
21
12.7898005133
31
0.0000000000
11
-5.7686226655
21
12.7808206357
31
0.0000000000
11
-5.7872675632
21
12.7737470826
31
0.0000000000
11
-5.8121806195
21
12.7683316241
31
0.0000000000
11
-5.8450903596
21
12.7644410992
31
0.0000000000
11
-5.8883171617
21
12.7621015064
31
0.0000000000
11
-5.9452148390
21
12.7613347720
31
0.0000000000
0
SPLINE
5
54D
100
AcDbEntity
8
0
100
AcDbSpline
62
7
6
CONTINUOUS
70
0
71
3
72
15
73
11
74
9
42
0.0000001000
43
0.0000001000
44
0.0000000001
12
0.0000000000
22
0.2198589173
32
0.0000000000
13
-0.2198589173
23
-0.0000000000
33
0.0000000000
40
0.0000000000
40
0.0000000000
40
0.0000000000
40
0.0000000000
40
0.0575589834
40
0.1314541169
40
0.2285544190
40
0.3494381717
40
0.4916508640
40
0.6510524414
40
0.8224491764
40
1.0000000000
40
1.0000000000
40
1.0000000000
40
1.0000000000
10
-3.1952148390
20
16.3972743080
30
0.0000000000
10
-3.1952148390
20
16.4014925932
30
0.0000000000
10
-3.1987974036
20
16.4111075638
30
0.0000000000
10
-3.2114249873
20
16.4225547270
30
0.0000000000
10
-3.2302569885
20
16.4329045839
30
0.0000000000
10
-3.2551493092
20
16.4419228216
30
0.0000000000
10
-3.2852459780
20
16.4493600414
30
0.0000000000
10
-3.3195000947
20
16.4548964424
30
0.0000000000
10
-3.3566224558
20
16.4583127438
30
0.0000000000
10
-3.3822027950
20
16.4590777068
30
0.0000000000
10
-3.3952148390
20
16.4590777068
30
0.0000000000
11
-3.1952148390
21
16.3972743080
31
0.0000000000
11
-3.1990577829
21
16.4093315529
31
0.0000000000
11
-3.2104389325
21
16.4209254448
31
0.0000000000
11
-3.2289209165
21
16.4316104367
31
0.0000000000
11
-3.2537934827
21
16.4409759104
31
0.0000000000
11
-3.2841007924
21
16.4486619561
31
0.0000000000
11
-3.3186781525
21
16.4543732032
31
0.0000000000
11
-3.3561967746
21
16.4578901718
31
0.0000000000
11
-3.3952148390
21
16.4590777068
31
0.0000000000
0
SPLINE
5
54E
100
AcDbEntity
8
0
100
AcDbSpline
62
7
6
CONTINUOUS
70
0
71
3
72
15
73
11
74
9
42
0.0000001000
43
0.0000001000
44
0.0000000001
12
0.0000000000
22
0.2198589173
32
0.0000000000
13
-0.2198589173
23
0.0000000000
33
0.0000000000
40
0.0000000000
40
0.0000000000
40
0.0000000000
40
0.0000000000
40
0.0575589834
40
0.1314541169
40
0.2285544190
40
0.3494381717
40
0.4916508640
40
0.6510524414
40
0.8224491764
40
1.0000000000
40
1.0000000000
40
1.0000000000
40
1.0000000000
10
2.5047851610
20
16.3972743080
30
0.0000000000
10
2.5047851610
20
16.4014925932
30
0.0000000000
10
2.5012025964
20
16.4111075638
30
0.0000000000
10
2.4885750127
20
16.4225547270
30
0.0000000000
10
2.4697430115
20
16.4329045839
30
0.0000000000
10
2.4448506908
20
16.4419228216
30
0.0000000000
10
2.4147540220
20
16.4493600414
30
0.0000000000
10
2.3804999053
20
16.4548964424
30
0.0000000000
10
2.3433775442
20
16.4583127438
30
0.0000000000
10
2.3177972050
20
16.4590777068
30
0.0000000000
10
2.3047851610
20
16.4590777068
30
0.0000000000
11
2.5047851610
21
16.3972743080
31
0.0000000000
11
2.5009422171
21
16.4093315529
31
0.0000000000
11
2.4895610675
21
16.4209254448
31
0.0000000000
11
2.4710790835
21
16.4316104367
31
0.0000000000
11
2.4462065173
21
16.4409759104
31
0.0000000000
11
2.4158992076
21
16.4486619561
31
0.0000000000
11
2.3813218475
21
16.4543732032
31
0.0000000000
11
2.3438032254
21
16.4578901718
31
0.0000000000
11
2.3047851610
21
16.4590777068
31
0.0000000000
0
ENDSEC
0
SECTION
2
OBJECTS
0
DICTIONARY
5
54F
100
AcDbDictionary
3
ACAD_GROUP
350
550
3
ACAD_MLINESTYLE
350
551
0
DICTIONARY
5
550
102
{ACAD_REACTORS
330
54F
102
}
100
AcDbDictionary
0
DICTIONARY
5
551
102
{ACAD_REACTORS
330
54F
102
}
100
AcDbDictionary
3
STANDARD
350
552
0
MLINESTYLE
5
552
102
{ACAD_REACTORS
330
551
102
}
100
AcDbMlineStyle
2
STANDARD
70
0
3

62
256
51
90.0
52
90.0
71
2
49
0.5
62
256
6
BYLAYER
49
-0.5
62
256
6
BYLAYER
0
ENDSEC
0
EOF
