  0
SECTION
  2
HEADER
  9
$ACADVER
  1
AC1024
  9
$DWGCODEPAGE
  3
ANSI_1252
  9
$EXTMAX
 10
297.0
 20
210.0
 30
0.0
  9
$EXTMIN
 10
0.0
 20
0.0
 30
0.0
  9
$LIMMIN
 10
0.0
 20
0.0
  9
$LIMMAX
 10
297.0
 20
210.0
  9
$VIEWCTR
 10
148.5
 20
105.0
  9
$VIEWSIZE
 40
210.0
  9
$CLAYER
  8
0
  9
$LTSCALE
 40
16.335
  9
$CELTYPE
  6
BYLAYER
  9
$DIMSCALE
 40
1.0
  9
$DIMASZ
 40
3.0
  9
$DIMEXO
 40
0.5
  9
$DIMDLI
 40
11.286
  9
$DIMEXE
 40
1.5
  9
$DIMCEN
 40
2.673
  9
$DIMLFAC
 40
1.0
  9
$DIMBLK
  1
_FILLED
  9
$DIMALT
 70
0
  9
$DIMALTF
 40
0.0393700787
  9
$DIMTXT
 40
3.0
  9
$DIMTOL
 70
1
  9
$DIMLIM
 70
0
  9
$DIMTFAC
 40
1.0
  9
$DIMTP
 40
0.01
  9
$DIMTM
 40
0.01
  9
$DIMGAP
 40
0.625
  9
$DIMDSEP
 70
44
  9
$AUNITS
 70
0
  9
$PDMODE
 70
3
  9
$PDSIZE
 40
3.0
  9
$HANDSEED
  5
643
  9
$TILEMODE
 70
1
  9
$MEASUREMENT
 70
1
  9
$INSUNITS
 70
4
  0
ENDSEC
  0
SECTION
  2
CLASSES
  0
CLASS
  1
ACDBDICTIONARYWDFLT
  2
AcDbDictionaryWithDefault
  3
AutoCAD 2000
 90
0
 91
1
280
0
281
0
  0
CLASS
  1
ACDBPLACEHOLDER
  2
AcDbPlaceHolder
  3
AutoCAD 2000
 90
0
 91
1
280
0
281
0
  0
CLASS
  1
LAYOUT
  2
AcDbLayout
  3
AutoCAD 2000
 90
0
 91
0
280
0
281
0
  0
ENDSEC
  0
SECTION
  2
TABLES
  0
TABLE
  2
VPORT
  5
8
100
AcDbSymbolTable
 70
2
  0
VPORT
  5
1F4
100
AcDbSymbolTableRecord
100
AcDbViewportTableRecord
  2
*ACTIVE
 70
0
 10
0.0
 20
0.0
 11
1.0
 21
1.0
 12
148.5
 22
105.0
 13
0.0
 23
0.0
 14
1.0
 24
1.0
 15
0.0
 25
0.0
 16
0.0
 26
0.0
 36
1.0
 17
0.0
 27
0.0
 37
0.0
 40
210.0
 41
1.4142857143
 42
50.0
 43
0.0
 44
0.0
 50
0.0
 51
0.0
 71
0
 72
100
 73
1
 74
1
 75
0
 76
0
 77
0
 78
0
  0
ENDTAB
  0
TABLE
  2
LTYPE
  5
5
100
AcDbSymbolTable
 70
6
  0
LTYPE
  5
14
100
AcDbSymbolTableRecord
100
AcDbLinetypeTableRecord
  2
BYBLOCK
 70
0
  3

 72
65
 73
0
 40
0.0
  0
LTYPE
  5
15
100
AcDbSymbolTableRecord
100
AcDbLinetypeTableRecord
  2
BYLAYER
 70
0
  3

 72
65
 73
0
 40
0.0
  0
LTYPE
  5
16
100
AcDbSymbolTableRecord
100
AcDbLinetypeTableRecord
  2
CONTINUOUS
 70
64
  3
Solid line
 72
65
 73
0
 40
0.0
  0
LTYPE
  5
1F5
100
AcDbSymbolTableRecord
100
AcDbLinetypeTableRecord
  2
CENTER
 70
64
  3
____ _ ____ _ ____ _ ____ _ ____ _ ____ _ ____
 72
65
 73
4
 40
0.6
 49
0.375
 74
0
 49
-0.075
 74
0
 49
0.075
 74
0
 49
-0.075
 74
0
  0
LTYPE
  5
1F6
100
AcDbSymbolTableRecord
100
AcDbLinetypeTableRecord
  2
HIDDEN
 70
64
  3
- - - - - - - - - - - - - - - - - - - -
 72
65
 73
2
 40
0.2
 49
0.1
 74
0
 49
-0.1
 74
0
  0
LTYPE
  5
1F7
100
AcDbSymbolTableRecord
100
AcDbLinetypeTableRecord
  2
PHANTOM
 70
64
  3
_____ _ _ _____ _ _ _____ _ _ _____
 72
65
 73
6
 40
0.8
 49
0.45
 74
0
 49
-0.05
 74
0
 49
0.1
 74
0
 49
-0.05
 74
0
 49
0.1
 74
0
 49
-0.05
 74
0
  0
LTYPE
  5
1F8
100
AcDbSymbolTableRecord
100
AcDbLinetypeTableRecord
  2
DOT
 70
64
  3
. . . . . . . . . . . . . . . . . . . .
 72
65
 73
2
 40
0.2
 49
0.1
 74
0
 49
-0.1
 74
0
  0
LTYPE
  5
1F9
100
AcDbSymbolTableRecord
100
AcDbLinetypeTableRecord
  2
DASHED
 70
64
  3
- - - - - - - - - - - - - - - - - - - -
 72
65
 73
2
 40
0.2
 49
0.1
 74
0
 49
-0.1
 74
0
  0
ENDTAB
  0
TABLE
  2
LAYER
  5
2
100
AcDbSymbolTable
 70
36
  0
LAYER
  5
10
100
AcDbSymbolTableRecord
100
AcDbLayerTableRecord
  2
0
 70
0
 62
7
  6
CONTINUOUS
370
-3
390
F
  0
LAYER
  5
1FA
100
AcDbSymbolTableRecord
100
AcDbLayerTableRecord
  2
DEFAULT_1
 70
0
 62
7
  6
CENTER
370
-3
390
F
  0
LAYER
  5
1FB
100
AcDbSymbolTableRecord
100
AcDbLayerTableRecord
  2
DEFAULT_2
 70
0
 62
7
  6
HIDDEN
370
-3
390
F
  0
LAYER
  5
1FC
100
AcDbSymbolTableRecord
100
AcDbLayerTableRecord
  2
DEFAULT_3
 70
0
 62
7
  6
PHANTOM
370
-3
390
F
  0
LAYER
  5
1FD
100
AcDbSymbolTableRecord
100
AcDbLayerTableRecord
  2
40225_-_32A_DURA_DP_-_MYRAH_1
 70
0
 62
7
  6
CONTINUOUS
370
-3
390
F
  0
LAYER
  5
1FE
100
AcDbSymbolTableRecord
100
AcDbLayerTableRecord
  2
40225_-_32A_DURA_DP_-_MYRAH_23
 70
0
 62
7
  6
CONTINUOUS
370
-3
390
F
  0
LAYER
  5
1FF
100
AcDbSymbolTableRecord
100
AcDbLayerTableRecord
  2
40225_-_32A_DURA_DP_-_MYRAH_24
 70
0
 62
7
  6
CONTINUOUS
370
-3
390
F
  0
LAYER
  5
200
100
AcDbSymbolTableRecord
100
AcDbLayerTableRecord
  2
40225_-_32A_DURA_DP_-_MYRAH_25
 70
0
 62
7
  6
CONTINUOUS
370
-3
390
F
  0
LAYER
  5
201
100
AcDbSymbolTableRecord
100
AcDbLayerTableRecord
  2
40225_-_32A_DURA_DP_-_MYRAH_26
 70
0
 62
7
  6
CONTINUOUS
370
-3
390
F
  0
LAYER
  5
202
100
AcDbSymbolTableRecord
100
AcDbLayerTableRecord
  2
40225_-_32A_DURA_DP_-_MYRAH_27
 70
0
 62
7
  6
CONTINUOUS
370
-3
390
F
  0
LAYER
  5
203
100
AcDbSymbolTableRecord
100
AcDbLayerTableRecord
  2
40225_-_32A_DURA_DP_-_MYRAH_3
 70
0
 62
7
  6
CONTINUOUS
370
-3
390
F
  0
LAYER
  5
204
100
AcDbSymbolTableRecord
100
AcDbLayerTableRecord
  2
40225_-_32A_DURA_DP_-_MYRAH_4
 70
0
 62
7
  6
CONTINUOUS
370
-3
390
F
  0
LAYER
  5
205
100
AcDbSymbolTableRecord
100
AcDbLayerTableRecord
  2
ASSI
 70
0
 62
7
  6
CONTINUOUS
370
-3
390
F
  0
LAYER
  5
206
100
AcDbSymbolTableRecord
100
AcDbLayerTableRecord
  2
COORDINATE
 70
0
 62
7
  6
CONTINUOUS
370
-3
390
F
  0
LAYER
  5
207
100
AcDbSymbolTableRecord
100
AcDbLayerTableRecord
  2
COORD_ORIGINE
 70
0
 62
7
  6
CONTINUOUS
370
-3
390
F
  0
LAYER
  5
208
100
AcDbSymbolTableRecord
100
AcDbLayerTableRecord
  2
COPY_PUBLISH
 70
0
 62
7
  6
CONTINUOUS
370
-3
390
F
  0
LAYER
  5
209
100
AcDbSymbolTableRecord
100
AcDbLayerTableRecord
  2
COSMETICI
 70
0
 62
7
  6
CONTINUOUS
370
-3
390
F
  0
LAYER
  5
20A
100
AcDbSymbolTableRecord
100
AcDbLayerTableRecord
  2
CURVE
 70
0
 62
7
  6
CONTINUOUS
370
-3
390
F
  0
LAYER
  5
20B
100
AcDbSymbolTableRecord
100
AcDbLayerTableRecord
  2
DRAFT
 70
0
 62
7
  6
CONTINUOUS
370
-3
390
F
  0
LAYER
  5
20C
100
AcDbSymbolTableRecord
100
AcDbLayerTableRecord
  2
IGES
 70
0
 62
7
  6
CONTINUOUS
370
-3
390
F
  0
LAYER
  5
20D
100
AcDbSymbolTableRecord
100
AcDbLayerTableRecord
  2
IMPORT_IGES
 70
0
 62
7
  6
CONTINUOUS
370
-3
390
F
  0
LAYER
  5
20E
100
AcDbSymbolTableRecord
100
AcDbLayerTableRecord
  2
INTF_1
 70
0
 62
7
  6
CONTINUOUS
370
-3
390
F
  0
LAYER
  5
20F
100
AcDbSymbolTableRecord
100
AcDbLayerTableRecord
  2
INTF_11
 70
0
 62
7
  6
CONTINUOUS
370
-3
390
F
  0
LAYER
  5
210
100
AcDbSymbolTableRecord
100
AcDbLayerTableRecord
  2
INTF_2
 70
0
 62
7
  6
CONTINUOUS
370
-3
390
F
  0
LAYER
  5
211
100
AcDbSymbolTableRecord
100
AcDbLayerTableRecord
  2
INTF_5
 70
0
 62
7
  6
CONTINUOUS
370
-3
390
F
  0
LAYER
  5
212
100
AcDbSymbolTableRecord
100
AcDbLayerTableRecord
  2
INTF_CYAN
 70
0
 62
7
  6
CONTINUOUS
370
-3
390
F
  0
LAYER
  5
213
100
AcDbSymbolTableRecord
100
AcDbLayerTableRecord
  2
NOTE
 70
0
 62
7
  6
CONTINUOUS
370
-3
390
F
  0
LAYER
  5
214
100
AcDbSymbolTableRecord
100
AcDbLayerTableRecord
  2
PIANI
 70
0
 62
7
  6
CONTINUOUS
370
-3
390
F
  0
LAYER
  5
215
100
AcDbSymbolTableRecord
100
AcDbLayerTableRecord
  2
PIANI_ORIGINE
 70
0
 62
7
  6
CONTINUOUS
370
-3
390
F
  0
LAYER
  5
216
100
AcDbSymbolTableRecord
100
AcDbLayerTableRecord
  2
PUNTI
 70
0
 62
7
  6
CONTINUOUS
370
-3
390
F
  0
LAYER
  5
217
100
AcDbSymbolTableRecord
100
AcDbLayerTableRecord
  2
RACCORDO
 70
0
 62
7
  6
CONTINUOUS
370
-3
390
F
  0
LAYER
  5
218
100
AcDbSymbolTableRecord
100
AcDbLayerTableRecord
  2
RGB__255__255__255__
 70
0
 62
7
  6
CONTINUOUS
370
-3
390
F
  0
LAYER
  5
219
100
AcDbSymbolTableRecord
100
AcDbLayerTableRecord
  2
RGB____0____0____0__
 70
0
 62
7
  6
CONTINUOUS
370
-3
390
F
  0
LAYER
  5
21A
100
AcDbSymbolTableRecord
100
AcDbLayerTableRecord
  2
SHELL
 70
0
 62
7
  6
CONTINUOUS
370
-3
390
F
  0
LAYER
  5
21B
100
AcDbSymbolTableRecord
100
AcDbLayerTableRecord
  2
SHELL_1
 70
0
 62
7
  6
CONTINUOUS
370
-3
390
F
  0
LAYER
  5
21C
100
AcDbSymbolTableRecord
100
AcDbLayerTableRecord
  2
SHELL_2
 70
0
 62
7
  6
CONTINUOUS
370
-3
390
F
  0
LAYER
  5
21D
100
AcDbSymbolTableRecord
100
AcDbLayerTableRecord
  2
SHELL_3
 70
0
 62
7
  6
CONTINUOUS
370
-3
390
F
  0
LAYER
  5
21E
100
AcDbSymbolTableRecord
100
AcDbLayerTableRecord
  2
SHELL_4
 70
0
 62
7
  6
CONTINUOUS
370
-3
390
F
  0
LAYER
  5
21F
100
AcDbSymbolTableRecord
100
AcDbLayerTableRecord
  2
SIMBOLI
 70
0
 62
7
  6
CONTINUOUS
370
-3
390
F
  0
LAYER
  5
220
100
AcDbSymbolTableRecord
100
AcDbLayerTableRecord
  2
SMUSSO
 70
0
 62
7
  6
CONTINUOUS
370
-3
390
F
  0
LAYER
  5
221
100
AcDbSymbolTableRecord
100
AcDbLayerTableRecord
  2
SUPERFICI
 70
0
 62
7
  6
CONTINUOUS
370
-3
390
F
  0
LAYER
  5
222
100
AcDbSymbolTableRecord
100
AcDbLayerTableRecord
  2
TRASH
 70
0
 62
7
  6
CONTINUOUS
370
-3
390
F
  0
LAYER
  5
223
100
AcDbSymbolTableRecord
100
AcDbLayerTableRecord
  2
___SHELL
 70
0
 62
7
  6
CONTINUOUS
370
-3
390
F
  0
ENDTAB
  0
TABLE
  2
STYLE
  5
3
100
AcDbSymbolTable
 70
1
  0
STYLE
  5
11
100
AcDbSymbolTableRecord
100
AcDbTextStyleTableRecord
  2
STANDARD
 70
0
 40
0.0
 41
0.8
 50
0.0
 71
0
 42
0.2
  3
txt
  4

  0
STYLE
  5
224
100
AcDbSymbolTableRecord
100
AcDbTextStyleTableRecord
  2
TEXTSTYLE_1
 70
0
 40
0.0
 41
0.8
 50
0.0
 71
0
 42
0.2
  3
gdt
  4

  0
ENDTAB
  0
TABLE
  2
VIEW
  5
6
100
AcDbSymbolTable
 70
0
  0
ENDTAB
  0
TABLE
  2
UCS
  5
7
100
AcDbSymbolTable
 70
0
  0
ENDTAB
  0
TABLE
  2
APPID
  5
9
100
AcDbSymbolTable
 70
1
  0
APPID
  5
225
100
AcDbSymbolTableRecord
100
AcDbRegAppTableRecord
  2
ACAD
 70
0
  0
ENDTAB
  0
TABLE
  2
BLOCK_RECORD
  5
1
100
AcDbSymbolTable
 70
0
  0
BLOCK_RECORD
  5
226
100
AcDbSymbolTableRecord
100
AcDbBlockTableRecord
  2
*Model_Space
  0
BLOCK_RECORD
  5
227
100
AcDbSymbolTableRecord
100
AcDbBlockTableRecord
  2
*Paper_Space
  0
BLOCK_RECORD
  5
228
100
AcDbSymbolTableRecord
100
AcDbBlockTableRecord
  2
_FILLED
  0
ENDTAB
  0
TABLE
  2
DIMSTYLE
  5
A
100
AcDbSymbolTable
 70
1
100
AcDbDimStyleTable
 71
0
  0
DIMSTYLE
105
229
100
AcDbSymbolTableRecord
100
AcDbDimStyleTableRecord
  2
STANDARD
 70
0
  3

  4

 40
1.0
 41
3.0
 42
0.5
 43
0.38
 44
1.5
 45
0.0
 46
0.0
 47
0.01
 48
0.01
140
3.0
141
0.09
142
0.0
143
25.4
144
1.0
145
0.0
146
1.0
147
0.625
 71
1
 72
0
 73
0
 74
0
 75
0
 76
0
 77
1
 78
8
 79
2
170
0
171
1
172
0
173
0
174
0
175
0
176
0
177
0
178
0
270
2
179
2
271
2
272
2
273
2
274
2
275
0
280
0
281
0
282
0
283
1
284
8
285
0
286
0
287
3
288
0
340
11
278
44
341
228
342
228
343
228
344
228
  0
ENDTAB
  0
ENDSEC
  0
SECTION
  2
BLOCKS
  0
BLOCK
  5
20
100
AcDbEntity
  8
0
100
AcDbBlockBegin
  2
*Model_Space
 70
0
 10
0.0
 20
0.0
 30
0.0
  3
*Model_Space
  1

  0
ENDBLK
  5
21
100
AcDbEntity
  8
0
100
AcDbBlockEnd
  0
BLOCK
  5
1C
100
AcDbEntity
  8
0
100
AcDbBlockBegin
  2
*Paper_Space
 70
0
 10
0.0
 20
0.0
 30
0.0
  3
*Paper_Space
  1

  0
ENDBLK
  5
1D
100
AcDbEntity
  8
0
100
AcDbBlockEnd
  0
BLOCK
  5
22A
100
AcDbEntity
  8
0
100
AcDbBlockBegin
  2
_FILLED
 70
64
 10
0.0
 20
0.0
  3
_FILLED
  1

  0
SOLID
  5
22B
100
AcDbEntity
  8
0
  6
BYBLOCK
 62
0
100
AcDbTrace
 10
0.0
 20
0.0
 11
-1.0
 21
0.3166666667
 12
-1.0
 22
-0.3166666667
 13
-1.0
 23
-0.3166666667
  0
ENDBLK
  5
22C
100
AcDbEntity
  8
0
  6
BYBLOCK
 62
0
100
AcDbBlockEnd
  0
ENDSEC
  0
SECTION
  2
ENTITIES
  0
LINE
  5
22D
100
AcDbEntity
  8
RACCORDO
100
AcDbLine
 62
7
  6
CONTINUOUS
 10
38.7857307215
 20
-7.2407739234
 11
38.6487334239
 21
-7.377771221
  0
LINE
  5
22E
100
AcDbEntity
  8
ASSI
100
AcDbLine
 62
7
  6
CONTINUOUS
 10
38.7857307215
 20
-7.2407739234
 11
38.6487334239
 21
-7.377771221
  0
LINE
  5
22F
100
AcDbEntity
  8
RACCORDO
100
AcDbLine
 62
7
  6
CONTINUOUS
 10
38.7857307215
 20
-46.2321232109
 11
38.6487334239
 21
-46.0951259134
  0
LINE
  5
230
100
AcDbEntity
  8
ASSI
100
AcDbLine
 62
7
  6
CONTINUOUS
 10
38.7857307215
 20
-46.2321232109
 11
38.6487334239
 21
-46.0951259134
  0
LINE
  5
231
100
AcDbEntity
  8
ASSI
100
AcDbLine
 62
7
  6
CONTINUOUS
 10
35.0230912572
 20
-4.8366774192
 11
35.0230912572
 21
-48.6362197151
  0
LINE
  5
232
100
AcDbEntity
  8
RACCORDO
100
AcDbLine
 62
7
  6
CONTINUOUS
 10
42.185423361
 20
-10.0733582655
 11
42.2030307424
 21
-10.0645552453
  0
LINE
  5
233
100
AcDbEntity
  8
ASSI
100
AcDbLine
 62
7
  6
CONTINUOUS
 10
42.185423361
 20
-10.0733582655
 11
42.2030307424
 21
-10.0645552453
  0
LINE
  5
234
100
AcDbEntity
  8
0
100
AcDbLine
 62
7
  6
CONTINUOUS
 10
42.1997539096
 20
-50.2364485672
 11
50.1464286049
 21
-50.2364485672
  0
LINE
  5
235
100
AcDbEntity
  8
ASSI
100
AcDbLine
 62
7
  6
CONTINUOUS
 10
42.1997539096
 20
-50.2364485672
 11
50.1464286049
 21
-50.2364485672
  0
LINE
  5
236
100
AcDbEntity
  8
0
100
AcDbLine
 62
7
  6
CONTINUOUS
 10
64.6997539096
 20
-50.2364485672
 11
72.6464286049
 21
-50.2364485672
  0
LINE
  5
237
100
AcDbEntity
  8
ASSI
100
AcDbLine
 62
7
  6
CONTINUOUS
 10
64.6997539096
 20
-50.2364485672
 11
72.6464286049
 21
-50.2364485672
  0
LINE
  5
238
100
AcDbEntity
  8
ASSI
100
AcDbLine
 62
7
  6
CONTINUOUS
 10
35.5227106575
 20
-49.1364485672
 11
40.6230912572
 21
-49.1364485672
  0
LINE
  5
239
100
AcDbEntity
  8
ASSI
100
AcDbLine
 62
7
  6
CONTINUOUS
 10
51.7230912572
 20
-49.1364485672
 11
63.1230912572
 21
-49.1364485672
  0
LINE
  5
23A
100
AcDbEntity
  8
ASSI
100
AcDbLine
 62
7
  6
CONTINUOUS
 10
74.2230912572
 20
-49.1364485672
 11
79.323471857
 21
-49.1364485672
  0
LINE
  5
23B
100
AcDbEntity
  8
0
100
AcDbLine
 62
7
  6
CONTINUOUS
 10
43.0730912572
 20
-48.9364485672
 11
49.2730912572
 21
-48.9364485672
  0
LINE
  5
23C
100
AcDbEntity
  8
ASSI
100
AcDbLine
 62
7
  6
CONTINUOUS
 10
43.0730912572
 20
-48.9364485672
 11
49.2730912572
 21
-48.9364485672
  0
LINE
  5
23D
100
AcDbEntity
  8
0
100
AcDbLine
 62
7
  6
CONTINUOUS
 10
65.5730912572
 20
-48.9364485672
 11
71.7730912572
 21
-48.9364485672
  0
LINE
  5
23E
100
AcDbEntity
  8
ASSI
100
AcDbLine
 62
7
  6
CONTINUOUS
 10
65.5730912572
 20
-48.9364485672
 11
71.7730912572
 21
-48.9364485672
  0
LINE
  5
23F
100
AcDbEntity
  8
RACCORDO
100
AcDbLine
 62
7
  6
CONTINUOUS
 10
42.185423361
 20
-43.3995388689
 11
42.2030307424
 21
-43.4083418891
  0
LINE
  5
240
100
AcDbEntity
  8
ASSI
100
AcDbLine
 62
7
  6
CONTINUOUS
 10
42.185423361
 20
-43.3995388689
 11
42.2030307424
 21
-43.4083418891
  0
LINE
  5
241
100
AcDbEntity
  8
ASSI
100
AcDbLine
 62
7
  6
CONTINUOUS
 10
36.5230912572
 20
-5.8364485672
 11
36.5230912572
 21
-47.6364485672
  0
LWPOLYLINE
  5
242
100
AcDbEntity
  8
RACCORDO
100
AcDbPolyline
 62
7
  6
CONTINUOUS
 90
16
 70
0
 10
39.106024747
 20
-9.0193630185
 10
39.1087582716
 20
-8.9673236141
 10
39.1169170778
 20
-8.9157509235
 10
39.130443514
 20
-8.865212687
 10
39.1492548336
 20
-8.8161933568
 10
39.1731555999
 20
-8.7693280335
 10
39.2017593358
 20
-8.7253556572
 10
39.2345782834
 20
-8.6848813794
 10
39.2713181805
 20
-8.6481433973
 10
39.3118229797
 20
-8.6153044443
 10
39.3558805828
 20
-8.5866560163
 10
39.4028718944
 20
-8.5627120652
 10
39.4519917235
 20
-8.543891026
 10
39.5025750366
 20
-8.530382962
 10
39.5541551879
 20
-8.5222503709
 10
39.6061630227
 20
-8.5195393711
  0
LWPOLYLINE
  5
243
100
AcDbEntity
  8
ASSI
100
AcDbPolyline
 62
7
  6
CONTINUOUS
 90
16
 70
0
 10
39.106024747
 20
-9.0193630185
 10
39.1087582716
 20
-8.9673236141
 10
39.1169170778
 20
-8.9157509235
 10
39.130443514
 20
-8.865212687
 10
39.1492548336
 20
-8.8161933568
 10
39.1731555999
 20
-8.7693280335
 10
39.2017593358
 20
-8.7253556572
 10
39.2345782834
 20
-8.6848813794
 10
39.2713181805
 20
-8.6481433973
 10
39.3118229797
 20
-8.6153044443
 10
39.3558805828
 20
-8.5866560163
 10
39.4028718944
 20
-8.5627120652
 10
39.4519917235
 20
-8.543891026
 10
39.5025750366
 20
-8.530382962
 10
39.5541551879
 20
-8.5222503709
 10
39.6061630227
 20
-8.5195393711
  0
LWPOLYLINE
  5
244
100
AcDbEntity
  8
IMPORT_IGES
100
AcDbPolyline
 62
7
  6
CONTINUOUS
 90
29
 70
0
 10
43.7452697151
 20
-12.601195508
 10
43.7557520605
 20
-12.5867805762
 10
43.7619583997
 20
-12.5783857232
 10
43.7688810678
 20
-12.5692328233
 10
43.7765951171
 20
-12.5593399003
 10
43.7851630421
 20
-12.5487575723
 10
43.7946486535
 20
-12.5375348342
 10
43.8051377923
 20
-12.5257002962
 10
43.8167076381
 20
-12.5133240221
 10
43.8294259392
 20
-12.5004873438
 10
43.8433707615
 20
-12.4872532055
 10
43.8587042434
 20
-12.4736505403
 10
43.8754168851
 20
-12.4598741759
 10
43.8933013374
 20
-12.4462267332
 10
43.9124908855
 20
-12.432744303
 10
43.9329256395
 20
-12.4196201048
 10
43.9540183875
 20
-12.4072997435
 10
43.9756048201
 20
-12.395887241
 10
43.997771455
 20
-12.3853563502
 10
44.0202318268
 20
-12.3758472264
 10
44.0428700207
 20
-12.3673852138
 10
44.0656886969
 20
-12.3599497176
 10
44.0885593598
 20
-12.3535643682
 10
44.1114267194
 20
-12.3482152833
 10
44.1342358126
 20
-12.3438882939
 10
44.1568555502
 20
-12.3405804444
 10
44.1792082958
 20
-12.3382637243
 10
44.2012724774
 20
-12.3368981898
 10
44.2230036492
 20
-12.3364484833
  0
LINE
  5
245
100
AcDbEntity
  8
ASSI
100
AcDbLine
 62
7
  6
CONTINUOUS
 10
39.1321098729
 20
-47.9364485672
 11
43.4962760109
 21
-47.9364485672
  0
LINE
  5
246
100
AcDbEntity
  8
ASSI
100
AcDbLine
 62
7
  6
CONTINUOUS
 10
48.8499065035
 20
-47.9364485672
 11
53.2140726415
 21
-47.9364485672
  0
LINE
  5
247
100
AcDbEntity
  8
ASSI
100
AcDbLine
 62
7
  6
CONTINUOUS
 10
61.6321098729
 20
-47.9364485672
 11
65.9962760109
 21
-47.9364485672
  0
LINE
  5
248
100
AcDbEntity
  8
ASSI
100
AcDbLine
 62
7
  6
CONTINUOUS
 10
71.3499065035
 20
-47.9364485672
 11
75.7140726415
 21
-47.9364485672
  0
LINE
  5
249
100
AcDbEntity
  8
DRAFT
100
AcDbLine
 62
7
  6
CONTINUOUS
 10
53.5561264367
 20
-47.6364485672
 11
38.7900560777
 21
-47.6364485672
  0
LINE
  5
24A
100
AcDbEntity
  8
ASSI
100
AcDbLine
 62
7
  6
CONTINUOUS
 10
53.5561264367
 20
-47.6364485672
 11
38.7900560777
 21
-47.6364485672
  0
LINE
  5
24B
100
AcDbEntity
  8
DRAFT
100
AcDbLine
 62
7
  6
CONTINUOUS
 10
36.5230912572
 20
-47.6364485672
 11
38.7152668208
 21
-47.6364485672
  0
LINE
  5
24C
100
AcDbEntity
  8
ASSI
100
AcDbLine
 62
7
  6
CONTINUOUS
 10
36.5230912572
 20
-47.6364485672
 11
38.7152668208
 21
-47.6364485672
  0
LINE
  5
24D
100
AcDbEntity
  8
DRAFT
100
AcDbLine
 62
7
  6
CONTINUOUS
 10
53.6309156937
 20
-47.6364485672
 11
61.2152668208
 21
-47.6364485672
  0
LINE
  5
24E
100
AcDbEntity
  8
ASSI
100
AcDbLine
 62
7
  6
CONTINUOUS
 10
53.6309156937
 20
-47.6364485672
 11
61.2152668208
 21
-47.6364485672
  0
LINE
  5
24F
100
AcDbEntity
  8
DRAFT
100
AcDbLine
 62
7
  6
CONTINUOUS
 10
61.2900560777
 20
-47.6364485672
 11
76.0561264367
 21
-47.6364485672
  0
LINE
  5
250
100
AcDbEntity
  8
ASSI
100
AcDbLine
 62
7
  6
CONTINUOUS
 10
61.2900560777
 20
-47.6364485672
 11
76.0561264367
 21
-47.6364485672
  0
LINE
  5
251
100
AcDbEntity
  8
DRAFT
100
AcDbLine
 62
7
  6
CONTINUOUS
 10
76.1309156937
 20
-47.6364485672
 11
78.3230912572
 21
-47.6364485672
  0
LINE
  5
252
100
AcDbEntity
  8
ASSI
100
AcDbLine
 62
7
  6
CONTINUOUS
 10
76.1309156937
 20
-47.6364485672
 11
78.3230912572
 21
-47.6364485672
  0
LINE
  5
253
100
AcDbEntity
  8
DRAFT
100
AcDbLine
 62
7
  6
CONTINUOUS
 10
52.5561264367
 20
-47.2364485672
 11
39.7900560777
 21
-47.2364485672
  0
LINE
  5
254
100
AcDbEntity
  8
ASSI
100
AcDbLine
 62
7
  6
CONTINUOUS
 10
52.5561264367
 20
-47.2364485672
 11
39.7900560777
 21
-47.2364485672
  0
LINE
  5
255
100
AcDbEntity
  8
DRAFT
100
AcDbLine
 62
7
  6
CONTINUOUS
 10
62.2900560777
 20
-47.2364485672
 11
75.0561264367
 21
-47.2364485672
  0
LINE
  5
256
100
AcDbEntity
  8
ASSI
100
AcDbLine
 62
7
  6
CONTINUOUS
 10
62.2900560777
 20
-47.2364485672
 11
75.0561264367
 21
-47.2364485672
  0
LINE
  5
257
100
AcDbEntity
  8
DRAFT
100
AcDbLine
 62
7
  6
CONTINUOUS
 10
74.9151518345
 20
-47.095473965
 11
62.43103068
 21
-47.095473965
  0
LINE
  5
258
100
AcDbEntity
  8
ASSI
100
AcDbLine
 62
7
  6
CONTINUOUS
 10
74.9151518345
 20
-47.095473965
 11
62.43103068
 21
-47.095473965
  0
LINE
  5
259
100
AcDbEntity
  8
DRAFT
100
AcDbLine
 62
7
  6
CONTINUOUS
 10
52.4151518345
 20
-47.095473965
 11
39.93103068
 21
-47.095473965
  0
LINE
  5
25A
100
AcDbEntity
  8
ASSI
100
AcDbLine
 62
7
  6
CONTINUOUS
 10
52.4151518345
 20
-47.095473965
 11
39.93103068
 21
-47.095473965
  0
LINE
  5
25B
100
AcDbEntity
  8
RACCORDO
100
AcDbLine
 62
250
  6
CONTINUOUS
 10
76.0561264367
 20
-46.7321041725
 11
75.0561264367
 21
-46.7321041725
  0
LINE
  5
25C
100
AcDbEntity
  8
ASSI
100
AcDbLine
 62
250
  6
CONTINUOUS
 10
76.0561264367
 20
-46.7321041725
 11
75.0561264367
 21
-46.7321041725
  0
LINE
  5
25D
100
AcDbEntity
  8
RACCORDO
100
AcDbLine
 62
250
  6
CONTINUOUS
 10
62.2900560777
 20
-46.7321041725
 11
61.2900560777
 21
-46.7321041725
  0
LINE
  5
25E
100
AcDbEntity
  8
ASSI
100
AcDbLine
 62
250
  6
CONTINUOUS
 10
62.2900560777
 20
-46.7321041725
 11
61.2900560777
 21
-46.7321041725
  0
LINE
  5
25F
100
AcDbEntity
  8
RACCORDO
100
AcDbLine
 62
250
  6
CONTINUOUS
 10
53.5561264367
 20
-46.7321041725
 11
52.5561264367
 21
-46.7321041725
  0
LINE
  5
260
100
AcDbEntity
  8
ASSI
100
AcDbLine
 62
250
  6
CONTINUOUS
 10
53.5561264367
 20
-46.7321041725
 11
52.5561264367
 21
-46.7321041725
  0
LINE
  5
261
100
AcDbEntity
  8
RACCORDO
100
AcDbLine
 62
250
  6
CONTINUOUS
 10
39.7900560777
 20
-46.7321041725
 11
38.7900560777
 21
-46.7321041725
  0
LINE
  5
262
100
AcDbEntity
  8
ASSI
100
AcDbLine
 62
250
  6
CONTINUOUS
 10
39.7900560777
 20
-46.7321041725
 11
38.7900560777
 21
-46.7321041725
  0
LINE
  5
263
100
AcDbEntity
  8
RACCORDO
100
AcDbLine
 62
7
  6
CONTINUOUS
 10
76.0604517929
 20
-46.2321232109
 11
75.0518010805
 21
-46.2321232109
  0
LINE
  5
264
100
AcDbEntity
  8
ASSI
100
AcDbLine
 62
7
  6
CONTINUOUS
 10
76.0604517929
 20
-46.2321232109
 11
75.0518010805
 21
-46.2321232109
  0
LINE
  5
265
100
AcDbEntity
  8
RACCORDO
100
AcDbLine
 62
7
  6
CONTINUOUS
 10
62.294381434
 20
-46.2321232109
 11
61.2857307215
 21
-46.2321232109
  0
LINE
  5
266
100
AcDbEntity
  8
ASSI
100
AcDbLine
 62
7
  6
CONTINUOUS
 10
62.294381434
 20
-46.2321232109
 11
61.2857307215
 21
-46.2321232109
  0
LINE
  5
267
100
AcDbEntity
  8
RACCORDO
100
AcDbLine
 62
7
  6
CONTINUOUS
 10
53.5604517929
 20
-46.2321232109
 11
52.5518010805
 21
-46.2321232109
  0
LINE
  5
268
100
AcDbEntity
  8
ASSI
100
AcDbLine
 62
7
  6
CONTINUOUS
 10
53.5604517929
 20
-46.2321232109
 11
52.5518010805
 21
-46.2321232109
  0
LINE
  5
269
100
AcDbEntity
  8
RACCORDO
100
AcDbLine
 62
7
  6
CONTINUOUS
 10
39.794381434
 20
-46.2321232109
 11
38.7857307215
 21
-46.2321232109
  0
LINE
  5
26A
100
AcDbEntity
  8
ASSI
100
AcDbLine
 62
7
  6
CONTINUOUS
 10
39.794381434
 20
-46.2321232109
 11
38.7857307215
 21
-46.2321232109
  0
LINE
  5
26B
100
AcDbEntity
  8
DRAFT
100
AcDbLine
 62
7
  6
CONTINUOUS
 10
76.1974490905
 20
-46.0951259134
 11
74.9148037829
 21
-46.0951259134
  0
LINE
  5
26C
100
AcDbEntity
  8
ASSI
100
AcDbLine
 62
7
  6
CONTINUOUS
 10
76.1974490905
 20
-46.0951259134
 11
74.9148037829
 21
-46.0951259134
  0
LINE
  5
26D
100
AcDbEntity
  8
DRAFT
100
AcDbLine
 62
7
  6
CONTINUOUS
 10
62.4313787315
 20
-46.0951259134
 11
61.1487334239
 21
-46.0951259134
  0
LINE
  5
26E
100
AcDbEntity
  8
ASSI
100
AcDbLine
 62
7
  6
CONTINUOUS
 10
62.4313787315
 20
-46.0951259134
 11
61.1487334239
 21
-46.0951259134
  0
LINE
  5
26F
100
AcDbEntity
  8
DRAFT
100
AcDbLine
 62
7
  6
CONTINUOUS
 10
53.6974490905
 20
-46.0951259134
 11
52.4148037829
 21
-46.0951259134
  0
LINE
  5
270
100
AcDbEntity
  8
ASSI
100
AcDbLine
 62
7
  6
CONTINUOUS
 10
53.6974490905
 20
-46.0951259134
 11
52.4148037829
 21
-46.0951259134
  0
LINE
  5
271
100
AcDbEntity
  8
DRAFT
100
AcDbLine
 62
7
  6
CONTINUOUS
 10
39.9313787315
 20
-46.0951259134
 11
38.6487334239
 21
-46.0951259134
  0
LINE
  5
272
100
AcDbEntity
  8
ASSI
100
AcDbLine
 62
7
  6
CONTINUOUS
 10
39.9313787315
 20
-46.0951259134
 11
38.6487334239
 21
-46.0951259134
  0
LWPOLYLINE
  5
273
100
AcDbEntity
  8
RACCORDO
100
AcDbPolyline
 62
250
  6
CONTINUOUS
 90
19
 70
0
 10
39.1792381423
 20
-44.3803207205
 10
39.1811438548
 20
-44.4238948254
 10
39.1868398533
 20
-44.4671373372
 10
39.1962827921
 20
-44.5097191862
 10
39.2094008117
 20
-44.5513163303
 10
39.2260940858
 20
-44.5916122206
 10
39.2462355807
 20
-44.6303002108
 10
39.2696720223
 20
-44.6670858903
 10
39.2962250624
 20
-44.7016893252
 10
39.325692636
 20
-44.733847188
 10
39.3578504989
 20
-44.7633147617
 10
39.3924539339
 20
-44.789867802
 10
39.4292396135
 20
-44.8133042437
 10
39.4679276037
 20
-44.8334457385
 10
39.5082234939
 20
-44.8501390126
 10
39.5498206378
 20
-44.8632570322
 10
39.5924024869
 20
-44.8726999711
 10
39.6356449988
 20
-44.8783959696
 10
39.6792191039
 20
-44.8803016821
  0
LWPOLYLINE
  5
274
100
AcDbEntity
  8
ASSI
100
AcDbPolyline
 62
250
  6
CONTINUOUS
 90
19
 70
0
 10
39.1792381423
 20
-44.3803207205
 10
39.1811438548
 20
-44.4238948254
 10
39.1868398533
 20
-44.4671373372
 10
39.1962827921
 20
-44.5097191862
 10
39.2094008117
 20
-44.5513163303
 10
39.2260940858
 20
-44.5916122206
 10
39.2462355807
 20
-44.6303002108
 10
39.2696720223
 20
-44.6670858903
 10
39.2962250624
 20
-44.7016893252
 10
39.325692636
 20
-44.733847188
 10
39.3578504989
 20
-44.7633147617
 10
39.3924539339
 20
-44.789867802
 10
39.4292396135
 20
-44.8133042437
 10
39.4679276037
 20
-44.8334457385
 10
39.5082234939
 20
-44.8501390126
 10
39.5498206378
 20
-44.8632570322
 10
39.5924024869
 20
-44.8726999711
 10
39.6356449988
 20
-44.8783959696
 10
39.6792191039
 20
-44.8803016821
  0
LINE
  5
275
100
AcDbEntity
  8
DRAFT
100
AcDbLine
 62
7
  6
CONTINUOUS
 10
38.7152668208
 20
-47.6364485672
 11
38.7152668208
 21
-47.5695305488
  0
LINE
  5
276
100
AcDbEntity
  8
ASSI
100
AcDbLine
 62
7
  6
CONTINUOUS
 10
38.7152668208
 20
-47.6364485672
 11
38.7152668208
 21
-47.5695305488
  0
LINE
  5
277
100
AcDbEntity
  8
DRAFT
100
AcDbLine
 62
7
  6
CONTINUOUS
 10
38.7152668208
 20
-5.9033665855
 11
38.7152668208
 21
-5.8364485672
  0
LINE
  5
278
100
AcDbEntity
  8
ASSI
100
AcDbLine
 62
7
  6
CONTINUOUS
 10
38.7152668208
 20
-5.9033665855
 11
38.7152668208
 21
-5.8364485672
  0
LINE
  5
279
100
AcDbEntity
  8
RACCORDO
100
AcDbLine
 62
7
  6
CONTINUOUS
 10
38.7900560777
 20
-5.8364485672
 11
38.7900560777
 21
-6.7407929619
  0
LINE
  5
27A
100
AcDbEntity
  8
ASSI
100
AcDbLine
 62
7
  6
CONTINUOUS
 10
38.7900560777
 20
-5.8364485672
 11
38.7900560777
 21
-6.7407929619
  0
LINE
  5
27B
100
AcDbEntity
  8
RACCORDO
100
AcDbLine
 62
7
  6
CONTINUOUS
 10
38.7900560777
 20
-46.7321041725
 11
38.7900560777
 21
-47.6364485672
  0
LINE
  5
27C
100
AcDbEntity
  8
ASSI
100
AcDbLine
 62
7
  6
CONTINUOUS
 10
38.7900560777
 20
-46.7321041725
 11
38.7900560777
 21
-47.6364485672
  0
LINE
  5
27D
100
AcDbEntity
  8
RACCORDO
100
AcDbLine
 62
7
  6
CONTINUOUS
 10
39.1792381423
 20
-9.0925764138
 11
39.1792381423
 21
-44.3803207205
  0
LINE
  5
27E
100
AcDbEntity
  8
ASSI
100
AcDbLine
 62
7
  6
CONTINUOUS
 10
39.1792381423
 20
-9.0925764138
 11
39.1792381423
 21
-44.3803207205
  0
LINE
  5
27F
100
AcDbEntity
  8
RACCORDO
100
AcDbLine
 62
250
  6
CONTINUOUS
 10
39.6792191039
 20
-44.8803016821
 11
39.6792191015
 21
-8.5925954523
  0
LINE
  5
280
100
AcDbEntity
  8
ASSI
100
AcDbLine
 62
250
  6
CONTINUOUS
 10
39.6792191039
 20
-44.8803016821
 11
39.6792191015
 21
-8.5925954523
  0
LINE
  5
281
100
AcDbEntity
  8
RACCORDO
100
AcDbLine
 62
7
  6
CONTINUOUS
 10
39.7900560777
 20
-47.2364485672
 11
39.7900560777
 21
-46.7321041725
  0
LINE
  5
282
100
AcDbEntity
  8
ASSI
100
AcDbLine
 62
7
  6
CONTINUOUS
 10
39.7900560777
 20
-47.2364485672
 11
39.7900560777
 21
-46.7321041725
  0
LINE
  5
283
100
AcDbEntity
  8
RACCORDO
100
AcDbLine
 62
7
  6
CONTINUOUS
 10
39.7900560777
 20
-6.7407929619
 11
39.7900560777
 21
-6.2364485672
  0
LINE
  5
284
100
AcDbEntity
  8
ASSI
100
AcDbLine
 62
7
  6
CONTINUOUS
 10
39.7900560777
 20
-6.7407929619
 11
39.7900560777
 21
-6.2364485672
  0
LINE
  5
285
100
AcDbEntity
  8
DRAFT
100
AcDbLine
 62
7
  6
CONTINUOUS
 10
52.4151518345
 20
-6.3774231694
 11
52.5561264367
 21
-6.2364485672
  0
LINE
  5
286
100
AcDbEntity
  8
ASSI
100
AcDbLine
 62
7
  6
CONTINUOUS
 10
52.4151518345
 20
-6.3774231694
 11
52.5561264367
 21
-6.2364485672
  0
LINE
  5
287
100
AcDbEntity
  8
RACCORDO
100
AcDbLine
 62
7
  6
CONTINUOUS
 10
52.5518010805
 20
-7.2407739234
 11
52.4148037829
 21
-7.377771221
  0
LINE
  5
288
100
AcDbEntity
  8
ASSI
100
AcDbLine
 62
7
  6
CONTINUOUS
 10
52.5518010805
 20
-7.2407739234
 11
52.4148037829
 21
-7.377771221
  0
LWPOLYLINE
  5
289
100
AcDbEntity
  8
RACCORDO
100
AcDbPolyline
 62
250
  6
CONTINUOUS
 90
19
 70
0
 10
72.1432279244
 20
-44.7860515099
 10
72.1867949454
 20
-44.7841426641
 10
72.2300304593
 20
-44.7784439233
 10
72.2726054815
 20
-44.76899865
 10
72.3141960532
 20
-44.7558787144
 10
72.3544857063
 20
-44.7391839479
 10
72.3931678717
 20
-44.7190413831
 10
72.4299482118
 20
-44.6956042873
 10
72.4645468602
 20
-44.6690509964
 10
72.4967005514
 20
-44.6395835579
 10
72.5261646237
 20
-44.6074261933
 10
72.5527148814
 20
-44.5728235922
 10
72.5761492999
 20
-44.5360390501
 10
72.5962895638
 20
-44.4973524654
 10
72.6129824232
 20
-44.4570582094
 10
72.6261008601
 20
-44.4154628862
 10
72.6355450545
 20
-44.372883
 10
72.6412431443
 20
-44.3296425467
 10
72.643151772
 20
-44.2860705484
  0
LWPOLYLINE
  5
28A
100
AcDbEntity
  8
ASSI
100
AcDbPolyline
 62
250
  6
CONTINUOUS
 90
19
 70
0
 10
72.1432279244
 20
-44.7860515099
 10
72.1867949454
 20
-44.7841426641
 10
72.2300304593
 20
-44.7784439233
 10
72.2726054815
 20
-44.76899865
 10
72.3141960532
 20
-44.7558787144
 10
72.3544857063
 20
-44.7391839479
 10
72.3931678717
 20
-44.7190413831
 10
72.4299482118
 20
-44.6956042873
 10
72.4645468602
 20
-44.6690509964
 10
72.4967005514
 20
-44.6395835579
 10
72.5261646237
 20
-44.6074261933
 10
72.5527148814
 20
-44.5728235922
 10
72.5761492999
 20
-44.5360390501
 10
72.5962895638
 20
-44.4973524654
 10
72.6129824232
 20
-44.4570582094
 10
72.6261008601
 20
-44.4154628862
 10
72.6355450545
 20
-44.372883
 10
72.6412431443
 20
-44.3296425467
 10
72.643151772
 20
-44.2860705484
  0
LWPOLYLINE
  5
28B
100
AcDbEntity
  8
RACCORDO
100
AcDbPolyline
 62
250
  6
CONTINUOUS
 90
19
 70
0
 10
75.1669634106
 20
-44.8803016821
 10
75.2105375155
 20
-44.8783959696
 10
75.2537800273
 20
-44.8726999711
 10
75.2963618763
 20
-44.8632570323
 10
75.3379590203
 20
-44.8501390127
 10
75.3782549106
 20
-44.8334457386
 10
75.4169429008
 20
-44.8133042437
 10
75.4537285804
 20
-44.7898678021
 10
75.4883320153
 20
-44.763314762
 10
75.5204898781
 20
-44.7338471884
 10
75.5499574518
 20
-44.7016893255
 10
75.576510492
 20
-44.6670858905
 10
75.5999469337
 20
-44.6303002108
 10
75.6200884286
 20
-44.5916122207
 10
75.6367817026
 20
-44.5513163305
 10
75.6498997223
 20
-44.5097191865
 10
75.6593426611
 20
-44.4671373375
 10
75.6650386597
 20
-44.4238948256
 10
75.6669443721
 20
-44.3803207205
  0
LWPOLYLINE
  5
28C
100
AcDbEntity
  8
ASSI
100
AcDbPolyline
 62
250
  6
CONTINUOUS
 90
19
 70
0
 10
75.1669634106
 20
-44.8803016821
 10
75.2105375155
 20
-44.8783959696
 10
75.2537800273
 20
-44.8726999711
 10
75.2963618763
 20
-44.8632570323
 10
75.3379590203
 20
-44.8501390127
 10
75.3782549106
 20
-44.8334457386
 10
75.4169429008
 20
-44.8133042437
 10
75.4537285804
 20
-44.7898678021
 10
75.4883320153
 20
-44.763314762
 10
75.5204898781
 20
-44.7338471884
 10
75.5499574518
 20
-44.7016893255
 10
75.576510492
 20
-44.6670858905
 10
75.5999469337
 20
-44.6303002108
 10
75.6200884286
 20
-44.5916122207
 10
75.6367817026
 20
-44.5513163305
 10
75.6498997223
 20
-44.5097191865
 10
75.6593426611
 20
-44.4671373375
 10
75.6650386597
 20
-44.4238948256
 10
75.6669443721
 20
-44.3803207205
  0
LINE
  5
28D
100
AcDbEntity
  8
RACCORDO
100
AcDbLine
 62
7
  6
CONTINUOUS
 10
75.2400194917
 20
-44.9533577632
 11
39.6061630227
 21
-44.9533577632
  0
LINE
  5
28E
100
AcDbEntity
  8
ASSI
100
AcDbLine
 62
7
  6
CONTINUOUS
 10
75.2400194917
 20
-44.9533577632
 11
39.6061630227
 21
-44.9533577632
  0
LINE
  5
28F
100
AcDbEntity
  8
RACCORDO
100
AcDbLine
 62
7
  6
CONTINUOUS
 10
75.1669634106
 20
-44.8803016821
 11
72.3317426257
 21
-44.8803016821
  0
LINE
  5
290
100
AcDbEntity
  8
ASSI
100
AcDbLine
 62
7
  6
CONTINUOUS
 10
75.1669634106
 20
-44.8803016821
 11
72.3317426257
 21
-44.8803016821
  0
LINE
  5
291
100
AcDbEntity
  8
RACCORDO
100
AcDbLine
 62
7
  6
CONTINUOUS
 10
42.5144398888
 20
-44.8803016821
 11
39.6792191039
 21
-44.8803016821
  0
LINE
  5
292
100
AcDbEntity
  8
ASSI
100
AcDbLine
 62
7
  6
CONTINUOUS
 10
42.5144398888
 20
-44.8803016821
 11
39.6792191039
 21
-44.8803016821
  0
LINE
  5
293
100
AcDbEntity
  8
RACCORDO
100
AcDbLine
 62
7
  6
CONTINUOUS
 10
42.70295459
 20
-44.7860515099
 11
72.1432279244
 21
-44.7860515099
  0
LINE
  5
294
100
AcDbEntity
  8
ASSI
100
AcDbLine
 62
7
  6
CONTINUOUS
 10
42.70295459
 20
-44.7860515099
 11
72.1432279244
 21
-44.7860515099
  0
LINE
  5
295
100
AcDbEntity
  8
RACCORDO
100
AcDbLine
 62
250
  6
CONTINUOUS
 10
39.1792381423
 20
-44.3803207205
 11
42.0230912572
 21
-44.3803207205
  0
LINE
  5
296
100
AcDbEntity
  8
ASSI
100
AcDbLine
 62
250
  6
CONTINUOUS
 10
39.1792381423
 20
-44.3803207205
 11
42.0230912572
 21
-44.3803207205
  0
LINE
  5
297
100
AcDbEntity
  8
RACCORDO
100
AcDbLine
 62
250
  6
CONTINUOUS
 10
72.8230912572
 20
-44.3803207205
 11
75.6669443721
 21
-44.3803207205
  0
LINE
  5
298
100
AcDbEntity
  8
ASSI
100
AcDbLine
 62
250
  6
CONTINUOUS
 10
72.8230912572
 20
-44.3803207205
 11
75.6669443721
 21
-44.3803207205
  0
LINE
  5
299
100
AcDbEntity
  8
RACCORDO
100
AcDbLine
 62
250
  6
CONTINUOUS
 10
42.2030307424
 20
-44.2860705484
 11
72.643151772
 21
-44.2860705484
  0
LINE
  5
29A
100
AcDbEntity
  8
ASSI
100
AcDbLine
 62
250
  6
CONTINUOUS
 10
42.2030307424
 20
-44.2860705484
 11
72.643151772
 21
-44.2860705484
  0
LWPOLYLINE
  5
29B
100
AcDbEntity
  8
RACCORDO
100
AcDbPolyline
 62
7
  6
CONTINUOUS
 90
16
 70
0
 10
39.6061630227
 20
-44.9533577632
 10
39.5541215443
 20
-44.9506432491
 10
39.502542411
 20
-44.9425072683
 10
39.4519930878
 20
-44.9290065503
 10
39.4029572524
 20
-44.9102230218
 10
39.3560708259
 20
-44.8863509949
 10
39.3120749636
 20
-44.8577759502
 10
39.2715754619
 20
-44.8249854075
 10
39.2348103075
 20
-44.7882730508
 10
39.2019431381
 20
-44.7477938239
 10
39.1732659877
 20
-44.7037599192
 10
39.1492931615
 20
-44.6567898236
 10
39.1304441806
 20
-44.6076865009
 10
39.1169102762
 20
-44.5571141612
 10
39.1087547758
 20
-44.5055402214
 10
39.106024747
 20
-44.4535341159
  0
LWPOLYLINE
  5
29C
100
AcDbEntity
  8
ASSI
100
AcDbPolyline
 62
7
  6
CONTINUOUS
 90
16
 70
0
 10
39.6061630227
 20
-44.9533577632
 10
39.5541215443
 20
-44.9506432491
 10
39.502542411
 20
-44.9425072683
 10
39.4519930878
 20
-44.9290065503
 10
39.4029572524
 20
-44.9102230218
 10
39.3560708259
 20
-44.8863509949
 10
39.3120749636
 20
-44.8577759502
 10
39.2715754619
 20
-44.8249854075
 10
39.2348103075
 20
-44.7882730508
 10
39.2019431381
 20
-44.7477938239
 10
39.1732659877
 20
-44.7037599192
 10
39.1492931615
 20
-44.6567898236
 10
39.1304441806
 20
-44.6076865009
 10
39.1169102762
 20
-44.5571141612
 10
39.1087547758
 20
-44.5055402214
 10
39.106024747
 20
-44.4535341159
  0
LWPOLYLINE
  5
29D
100
AcDbEntity
  8
RACCORDO
100
AcDbPolyline
 62
7
  6
CONTINUOUS
 90
22
 70
0
 10
42.5144398888
 20
-44.8803016821
 10
42.4717717235
 20
-44.8780300481
 10
42.4303125749
 20
-44.8721680633
 10
42.3903376509
 20
-44.8629889686
 10
42.3521287344
 20
-44.8507943489
 10
42.315826672
 20
-44.8358703365
 10
42.2814475238
 20
-44.8184464306
 10
42.2492072444
 20
-44.7988451156
 10
42.2191158362
 20
-44.7772887624
 10
42.1909048755
 20
-44.7537399774
 10
42.1646202368
 20
-44.7283131024
 10
42.1404327529
 20
-44.701254175
 10
42.1183200711
 20
-44.6726213123
 10
42.0983019369
 20
-44.642470367
 10
42.0805445259
 20
-44.6110815103
 10
42.0652058626
 20
-44.5788570928
 10
42.0523537359
 20
-44.5461847517
 10
42.0418841981
 20
-44.5130805946
 10
42.0336990853
 20
-44.4793840592
 10
42.0278132992
 20
-44.4451425331
 10
42.0242773027
 20
-44.4106355374
 10
42.0230985549
 20
-44.3760297905
  0
LWPOLYLINE
  5
29E
100
AcDbEntity
  8
ASSI
100
AcDbPolyline
 62
7
  6
CONTINUOUS
 90
22
 70
0
 10
42.5144398888
 20
-44.8803016821
 10
42.4717717235
 20
-44.8780300481
 10
42.4303125749
 20
-44.8721680633
 10
42.3903376509
 20
-44.8629889686
 10
42.3521287344
 20
-44.8507943489
 10
42.315826672
 20
-44.8358703365
 10
42.2814475238
 20
-44.8184464306
 10
42.2492072444
 20
-44.7988451156
 10
42.2191158362
 20
-44.7772887624
 10
42.1909048755
 20
-44.7537399774
 10
42.1646202368
 20
-44.7283131024
 10
42.1404327529
 20
-44.701254175
 10
42.1183200711
 20
-44.6726213123
 10
42.0983019369
 20
-44.642470367
 10
42.0805445259
 20
-44.6110815103
 10
42.0652058626
 20
-44.5788570928
 10
42.0523537359
 20
-44.5461847517
 10
42.0418841981
 20
-44.5130805946
 10
42.0336990853
 20
-44.4793840592
 10
42.0278132992
 20
-44.4451425331
 10
42.0242773027
 20
-44.4106355374
 10
42.0230985549
 20
-44.3760297905
  0
LINE
  5
29F
100
AcDbEntity
  8
DRAFT
100
AcDbLine
 62
7
  6
CONTINUOUS
 10
52.4151518345
 20
-47.095473965
 11
52.5561264367
 21
-47.2364485672
  0
LINE
  5
2A0
100
AcDbEntity
  8
ASSI
100
AcDbLine
 62
7
  6
CONTINUOUS
 10
52.4151518345
 20
-47.095473965
 11
52.5561264367
 21
-47.2364485672
  0
LINE
  5
2A1
100
AcDbEntity
  8
RACCORDO
100
AcDbLine
 62
7
  6
CONTINUOUS
 10
52.5518010805
 20
-46.2321232109
 11
52.4148037829
 21
-46.0951259134
  0
LINE
  5
2A2
100
AcDbEntity
  8
ASSI
100
AcDbLine
 62
7
  6
CONTINUOUS
 10
52.5518010805
 20
-46.2321232109
 11
52.4148037829
 21
-46.0951259134
  0
LWPOLYLINE
  5
2A3
100
AcDbEntity
  8
IMPORT_IGES
100
AcDbPolyline
 62
7
  6
CONTINUOUS
 90
12
 70
0
 10
43.7559594712
 20
-38.8863996674
 10
43.7454241415
 20
-38.871913518
 10
43.7410398613
 20
-38.8659462007
 10
43.7371883291
 20
-38.8608586121
 10
43.7338375785
 20
-38.856676664
 10
43.7309690975
 20
-38.8534667705
 10
43.7285570128
 20
-38.8512444306
 10
43.7265839194
 20
-38.8500134428
 10
43.7250514779
 20
-38.84981879
 10
43.723958695
 20
-38.850676095
 10
43.7233024652
 20
-38.8525714645
 10
43.7230912572
 20
-38.8555013134
  0
LWPOLYLINE
  5
2A4
100
AcDbEntity
  8
RACCORDO
100
AcDbPolyline
 62
250
  6
CONTINUOUS
 90
19
 70
0
 10
42.2030307424
 20
-44.2860705484
 10
42.2049505563
 20
-44.3297700215
 10
42.2106831958
 20
-44.3731418147
 10
42.2201865596
 20
-44.4158536279
 10
42.2333929975
 20
-44.4575871832
 10
42.2502012984
 20
-44.4980123969
 10
42.2704694813
 20
-44.5367931442
 10
42.294023103
 20
-44.5736152732
 10
42.3206874763
 20
-44.6082225466
 10
42.3502851019
 20
-44.6403849682
 10
42.3826263764
 20
-44.6698802637
 10
42.417439763
 20
-44.6964458947
 10
42.4543886998
 20
-44.7198320002
 10
42.4931826595
 20
-44.7398740789
 10
42.5335173226
 20
-44.7564333189
 10
42.5749955629
 20
-44.7693767333
 10
42.6172638805
 20
-44.7786388464
 10
42.6600245934
 20
-44.784198084
 10
42.70295459
 20
-44.7860515099
  0
LWPOLYLINE
  5
2A5
100
AcDbEntity
  8
ASSI
100
AcDbPolyline
 62
250
  6
CONTINUOUS
 90
19
 70
0
 10
42.2030307424
 20
-44.2860705484
 10
42.2049505563
 20
-44.3297700215
 10
42.2106831958
 20
-44.3731418147
 10
42.2201865596
 20
-44.4158536279
 10
42.2333929975
 20
-44.4575871832
 10
42.2502012984
 20
-44.4980123969
 10
42.2704694813
 20
-44.5367931442
 10
42.294023103
 20
-44.5736152732
 10
42.3206874763
 20
-44.6082225466
 10
42.3502851019
 20
-44.6403849682
 10
42.3826263764
 20
-44.6698802637
 10
42.417439763
 20
-44.6964458947
 10
42.4543886998
 20
-44.7198320002
 10
42.4931826595
 20
-44.7398740789
 10
42.5335173226
 20
-44.7564333189
 10
42.5749955629
 20
-44.7693767333
 10
42.6172638805
 20
-44.7786388464
 10
42.6600245934
 20
-44.784198084
 10
42.70295459
 20
-44.7860515099
  0
LINE
  5
2A6
100
AcDbEntity
  8
DRAFT
100
AcDbLine
 62
7
  6
CONTINUOUS
 10
42.4569232022
 20
-24.580300208
 11
42.4707567602
 21
-26.3720075407
  0
LINE
  5
2A7
100
AcDbEntity
  8
ASSI
100
AcDbLine
 62
7
  6
CONTINUOUS
 10
42.4569232022
 20
-24.580300208
 11
42.4707567602
 21
-26.3720075407
  0
LINE
  5
2A8
100
AcDbEntity
  8
RACCORDO
100
AcDbLine
 62
7
  6
CONTINUOUS
 10
42.0230912572
 20
-9.0968636953
 11
42.0230912572
 21
-24.4864485672
  0
LINE
  5
2A9
100
AcDbEntity
  8
DRAFT
100
AcDbLine
 62
7
  6
CONTINUOUS
 10
42.0230912572
 20
-28.9864485672
 11
42.0230912572
 21
-24.4864485672
  0
LINE
  5
2AA
100
AcDbEntity
  8
RACCORDO
100
AcDbLine
 62
7
  6
CONTINUOUS
 10
42.0230912572
 20
-28.9864485672
 11
42.0230912572
 21
-44.3760334391
  0
LINE
  5
2AB
100
AcDbEntity
  8
ASSI
100
AcDbLine
 62
7
  6
CONTINUOUS
 10
42.0230912572
 20
-9.0968636953
 11
42.0230912572
 21
-44.3760334391
  0
LINE
  5
2AC
100
AcDbEntity
  8
DRAFT
100
AcDbLine
 62
7
  6
CONTINUOUS
 10
42.0492738546
 20
-28.9602659698
 11
42.0492738546
 21
-24.5126311646
  0
LINE
  5
2AD
100
AcDbEntity
  8
ASSI
100
AcDbLine
 62
7
  6
CONTINUOUS
 10
42.0492738546
 20
-28.9602659698
 11
42.0492738546
 21
-24.5126311646
  0
LINE
  5
2AE
100
AcDbEntity
  8
ASSI
100
AcDbLine
 62
7
  6
CONTINUOUS
 10
42.1230912572
 20
-24.5126311646
 11
42.1230912572
 21
-28.9602659698
  0
LINE
  5
2AF
100
AcDbEntity
  8
0
100
AcDbLine
 62
7
  6
CONTINUOUS
 10
42.1230912572
 20
-24.5126311646
 11
42.1230912572
 21
-28.9602659698
  0
LINE
  5
2B0
100
AcDbEntity
  8
DRAFT
100
AcDbLine
 62
7
  6
CONTINUOUS
 10
42.185423361
 20
-10.0733582655
 11
42.185423361
 21
-24.3241164633
  0
LINE
  5
2B1
100
AcDbEntity
  8
ASSI
100
AcDbLine
 62
7
  6
CONTINUOUS
 10
42.185423361
 20
-10.0733582655
 11
42.185423361
 21
-24.3241164633
  0
LINE
  5
2B2
100
AcDbEntity
  8
DRAFT
100
AcDbLine
 62
7
  6
CONTINUOUS
 10
42.185423361
 20
-29.148780671
 11
42.185423361
 21
-43.3995388689
  0
LINE
  5
2B3
100
AcDbEntity
  8
ASSI
100
AcDbLine
 62
7
  6
CONTINUOUS
 10
42.185423361
 20
-29.148780671
 11
42.185423361
 21
-43.3995388689
  0
LINE
  5
2B4
100
AcDbEntity
  8
RACCORDO
100
AcDbLine
 62
250
  6
CONTINUOUS
 10
42.2030307424
 20
-9.186826586
 11
42.2030307424
 21
-10.0645552453
  0
LINE
  5
2B5
100
AcDbEntity
  8
ASSI
100
AcDbLine
 62
250
  6
CONTINUOUS
 10
42.2030307424
 20
-9.186826586
 11
42.2030307424
 21
-10.0645552453
  0
LINE
  5
2B6
100
AcDbEntity
  8
RACCORDO
100
AcDbLine
 62
250
  6
CONTINUOUS
 10
42.2030307424
 20
-43.4083418891
 11
42.2030307424
 21
-44.2860705484
  0
LINE
  5
2B7
100
AcDbEntity
  8
ASSI
100
AcDbLine
 62
250
  6
CONTINUOUS
 10
42.2030307424
 20
-43.4083418891
 11
42.2030307424
 21
-44.2860705484
  0
LINE
  5
2B8
100
AcDbEntity
  8
ASSI
100
AcDbLine
 62
250
  6
CONTINUOUS
 10
42.3230912572
 20
-24.5126311646
 11
42.3230912572
 21
-28.9602659698
  0
LINE
  5
2B9
100
AcDbEntity
  8
0
100
AcDbLine
 62
250
  6
CONTINUOUS
 10
42.3230912572
 20
-24.5126311646
 11
42.3230912572
 21
-28.9602659698
  0
LINE
  5
2BA
100
AcDbEntity
  8
DRAFT
100
AcDbLine
 62
7
  6
CONTINUOUS
 10
42.4707567602
 20
-27.1008895937
 11
42.4569232022
 21
-28.8925969263
  0
LINE
  5
2BB
100
AcDbEntity
  8
ASSI
100
AcDbLine
 62
7
  6
CONTINUOUS
 10
42.4707567602
 20
-27.1008895937
 11
42.4569232022
 21
-28.8925969263
  0
LWPOLYLINE
  5
2BC
100
AcDbEntity
  8
RACCORDO
100
AcDbPolyline
 62
7
  6
CONTINUOUS
 90
22
 70
0
 10
42.0230985549
 20
-9.0968673438
 10
42.0242773027
 20
-9.0622615969
 10
42.0278132992
 20
-9.0277546012
 10
42.0336990853
 20
-8.9935130752
 10
42.0418841981
 20
-8.9598165398
 10
42.0523537359
 20
-8.9267123826
 10
42.0652058626
 20
-8.8940400416
 10
42.0805445259
 20
-8.8618156241
 10
42.0983019369
 20
-8.8304267674
 10
42.1183200711
 20
-8.8002758221
 10
42.1404327529
 20
-8.7716429593
 10
42.1646202368
 20
-8.7445840319
 10
42.1909048755
 20
-8.719157157
 10
42.2191158362
 20
-8.6956083719
 10
42.2492072444
 20
-8.6740520188
 10
42.2814475238
 20
-8.6544507037
 10
42.315826672
 20
-8.6370267978
 10
42.3521287344
 20
-8.6221027854
 10
42.3903376509
 20
-8.6099081657
 10
42.4303125749
 20
-8.600729071
 10
42.4717717235
 20
-8.5948670863
 10
42.5144398888
 20
-8.5925954523
  0
LWPOLYLINE
  5
2BD
100
AcDbEntity
  8
ASSI
100
AcDbPolyline
 62
7
  6
CONTINUOUS
 90
22
 70
0
 10
42.0230985549
 20
-9.0968673438
 10
42.0242773027
 20
-9.0622615969
 10
42.0278132992
 20
-9.0277546012
 10
42.0336990853
 20
-8.9935130752
 10
42.0418841981
 20
-8.9598165398
 10
42.0523537359
 20
-8.9267123826
 10
42.0652058626
 20
-8.8940400416
 10
42.0805445259
 20
-8.8618156241
 10
42.0983019369
 20
-8.8304267674
 10
42.1183200711
 20
-8.8002758221
 10
42.1404327529
 20
-8.7716429593
 10
42.1646202368
 20
-8.7445840319
 10
42.1909048755
 20
-8.719157157
 10
42.2191158362
 20
-8.6956083719
 10
42.2492072444
 20
-8.6740520188
 10
42.2814475238
 20
-8.6544507037
 10
42.315826672
 20
-8.6370267978
 10
42.3521287344
 20
-8.6221027854
 10
42.3903376509
 20
-8.6099081657
 10
42.4303125749
 20
-8.600729071
 10
42.4717717235
 20
-8.5948670863
 10
42.5144398888
 20
-8.5925954523
  0
LINE
  5
2BE
100
AcDbEntity
  8
0
100
AcDbLine
 62
7
  6
CONTINUOUS
 10
49.1849277669
 20
-4.5364485672
 11
48.8499065035
 21
-5.5364485672
  0
LINE
  5
2BF
100
AcDbEntity
  8
ASSI
100
AcDbLine
 62
7
  6
CONTINUOUS
 10
49.1849277669
 20
-4.5364485672
 11
48.8499065035
 21
-5.5364485672
  0
LINE
  5
2C0
100
AcDbEntity
  8
DRAFT
100
AcDbLine
 62
7
  6
CONTINUOUS
 10
67.6730912572
 20
-43.3864485672
 11
67.1730912572
 21
-43.4004115556
  0
LINE
  5
2C1
100
AcDbEntity
  8
ASSI
100
AcDbLine
 62
7
  6
CONTINUOUS
 10
67.6730912572
 20
-43.3864485672
 11
67.1730912572
 21
-43.4004115556
  0
LINE
  5
2C2
100
AcDbEntity
  8
DRAFT
100
AcDbLine
 62
7
  6
CONTINUOUS
 10
63.6730912572
 20
-43.3724855787
 11
63.5168412572
 21
-43.3768490126
  0
LINE
  5
2C3
100
AcDbEntity
  8
ASSI
100
AcDbLine
 62
7
  6
CONTINUOUS
 10
63.6730912572
 20
-43.3724855787
 11
63.5168412572
 21
-43.3768490126
  0
LINE
  5
2C4
100
AcDbEntity
  8
DRAFT
100
AcDbLine
 62
7
  6
CONTINUOUS
 10
51.6730912572
 20
-43.3864485672
 11
51.1730912572
 21
-43.4004115556
  0
LINE
  5
2C5
100
AcDbEntity
  8
ASSI
100
AcDbLine
 62
7
  6
CONTINUOUS
 10
51.6730912572
 20
-43.3864485672
 11
51.1730912572
 21
-43.4004115556
  0
LINE
  5
2C6
100
AcDbEntity
  8
DRAFT
100
AcDbLine
 62
7
  6
CONTINUOUS
 10
47.6730912572
 20
-43.3724855787
 11
47.5168412572
 21
-43.3768490126
  0
LINE
  5
2C7
100
AcDbEntity
  8
ASSI
100
AcDbLine
 62
7
  6
CONTINUOUS
 10
47.6730912572
 20
-43.3724855787
 11
47.5168412572
 21
-43.3768490126
  0
LINE
  5
2C8
100
AcDbEntity
  8
RACCORDO
100
AcDbLine
 62
7
  6
CONTINUOUS
 10
72.1432279244
 20
-43.4126291705
 11
67.1730912572
 21
-43.4126291705
  0
LINE
  5
2C9
100
AcDbEntity
  8
ASSI
100
AcDbLine
 62
7
  6
CONTINUOUS
 10
72.1432279244
 20
-43.4126291705
 11
67.1730912572
 21
-43.4126291705
  0
LINE
  5
2CA
100
AcDbEntity
  8
RACCORDO
100
AcDbLine
 62
7
  6
CONTINUOUS
 10
47.6730912572
 20
-43.4126291705
 11
42.70295459
 21
-43.4126291705
  0
LINE
  5
2CB
100
AcDbEntity
  8
ASSI
100
AcDbLine
 62
7
  6
CONTINUOUS
 10
47.6730912572
 20
-43.4126291705
 11
42.70295459
 21
-43.4126291705
  0
LINE
  5
2CC
100
AcDbEntity
  8
DRAFT
100
AcDbLine
 62
7
  6
CONTINUOUS
 10
51.1730912572
 20
-43.4126291705
 11
63.6730912572
 21
-43.4126291705
  0
LINE
  5
2CD
100
AcDbEntity
  8
ASSI
100
AcDbLine
 62
7
  6
CONTINUOUS
 10
51.1730912572
 20
-43.4126291705
 11
63.6730912572
 21
-43.4126291705
  0
LINE
  5
2CE
100
AcDbEntity
  8
DRAFT
100
AcDbLine
 62
7
  6
CONTINUOUS
 10
72.6607591534
 20
-43.3995388689
 11
71.6230912572
 21
-43.3995388689
  0
LINE
  5
2CF
100
AcDbEntity
  8
ASSI
100
AcDbLine
 62
7
  6
CONTINUOUS
 10
72.6607591534
 20
-43.3995388689
 11
71.6230912572
 21
-43.3995388689
  0
LINE
  5
2D0
100
AcDbEntity
  8
DRAFT
100
AcDbLine
 62
7
  6
CONTINUOUS
 10
43.2230912572
 20
-43.3995388689
 11
42.185423361
 21
-43.3995388689
  0
LINE
  5
2D1
100
AcDbEntity
  8
ASSI
100
AcDbLine
 62
7
  6
CONTINUOUS
 10
43.2230912572
 20
-43.3995388689
 11
42.185423361
 21
-43.3995388689
  0
LINE
  5
2D2
100
AcDbEntity
  8
DRAFT
100
AcDbLine
 62
7
  6
CONTINUOUS
 10
71.6230912572
 20
-43.3864485672
 11
70.3730912572
 21
-43.3864485672
  0
LINE
  5
2D3
100
AcDbEntity
  8
ASSI
100
AcDbLine
 62
7
  6
CONTINUOUS
 10
71.6230912572
 20
-43.3864485672
 11
70.3730912572
 21
-43.3864485672
  0
LINE
  5
2D4
100
AcDbEntity
  8
IMPORT_IGES
100
AcDbLine
 62
7
  6
CONTINUOUS
 10
70.3730912572
 20
-43.3864485672
 11
67.1730912572
 21
-43.3864485672
  0
LINE
  5
2D5
100
AcDbEntity
  8
DRAFT
100
AcDbLine
 62
7
  6
CONTINUOUS
 10
67.1730912572
 20
-43.3864485672
 11
63.6730912572
 21
-43.3864485672
  0
LINE
  5
2D6
100
AcDbEntity
  8
ASSI
100
AcDbLine
 62
7
  6
CONTINUOUS
 10
67.1730912572
 20
-43.3864485672
 11
63.6730912572
 21
-43.3864485672
  0
LINE
  5
2D7
100
AcDbEntity
  8
IMPORT_IGES
100
AcDbLine
 62
7
  6
CONTINUOUS
 10
63.6730912572
 20
-43.3864485672
 11
51.1730912572
 21
-43.3864485672
  0
LINE
  5
2D8
100
AcDbEntity
  8
DRAFT
100
AcDbLine
 62
7
  6
CONTINUOUS
 10
51.1730912572
 20
-43.3864485672
 11
47.6730912572
 21
-43.3864485672
  0
LINE
  5
2D9
100
AcDbEntity
  8
ASSI
100
AcDbLine
 62
7
  6
CONTINUOUS
 10
51.1730912572
 20
-43.3864485672
 11
47.6730912572
 21
-43.3864485672
  0
LINE
  5
2DA
100
AcDbEntity
  8
IMPORT_IGES
100
AcDbLine
 62
7
  6
CONTINUOUS
 10
47.6730912572
 20
-43.3864485672
 11
44.4730912572
 21
-43.3864485672
  0
LINE
  5
2DB
100
AcDbEntity
  8
DRAFT
100
AcDbLine
 62
7
  6
CONTINUOUS
 10
44.4730912572
 20
-43.3864485672
 11
43.2230912572
 21
-43.3864485672
  0
LINE
  5
2DC
100
AcDbEntity
  8
ASSI
100
AcDbLine
 62
7
  6
CONTINUOUS
 10
44.4730912572
 20
-43.3864485672
 11
43.2230912572
 21
-43.3864485672
  0
LINE
  5
2DD
100
AcDbEntity
  8
IMPORT_IGES
100
AcDbLine
 62
250
  6
CONTINUOUS
 10
44.4730912572
 20
-42.8864485672
 11
47.6730912572
 21
-42.8864485672
  0
LINE
  5
2DE
100
AcDbEntity
  8
IMPORT_IGES
100
AcDbLine
 62
250
  6
CONTINUOUS
 10
51.1730912572
 20
-42.8864485672
 11
63.6730912572
 21
-42.8864485672
  0
LINE
  5
2DF
100
AcDbEntity
  8
IMPORT_IGES
100
AcDbLine
 62
250
  6
CONTINUOUS
 10
67.1730912572
 20
-42.8864485672
 11
70.3730912572
 21
-42.8864485672
  0
LINE
  5
2E0
100
AcDbEntity
  8
0
100
AcDbLine
 62
7
  6
CONTINUOUS
 10
67.1730912572
 20
-42.6364485672
 11
63.6730912572
 21
-42.6364485672
  0
LINE
  5
2E1
100
AcDbEntity
  8
ASSI
100
AcDbLine
 62
7
  6
CONTINUOUS
 10
67.1730912572
 20
-42.6364485672
 11
63.6730912572
 21
-42.6364485672
  0
LINE
  5
2E2
100
AcDbEntity
  8
0
100
AcDbLine
 62
7
  6
CONTINUOUS
 10
51.1730912572
 20
-42.6364485672
 11
47.6730912572
 21
-42.6364485672
  0
LINE
  5
2E3
100
AcDbEntity
  8
ASSI
100
AcDbLine
 62
7
  6
CONTINUOUS
 10
51.1730912572
 20
-42.6364485672
 11
47.6730912572
 21
-42.6364485672
  0
LINE
  5
2E4
100
AcDbEntity
  8
IMPORT_IGES
100
AcDbLine
 62
250
  6
CONTINUOUS
 10
43.7230912572
 20
-42.6364485672
 11
44.2230912572
 21
-42.6364485672
  0
LINE
  5
2E5
100
AcDbEntity
  8
IMPORT_IGES
100
AcDbLine
 62
250
  6
CONTINUOUS
 10
70.6230912572
 20
-42.6364485672
 11
71.1230912572
 21
-42.6364485672
  0
LINE
  5
2E6
100
AcDbEntity
  8
IMPORT_IGES
100
AcDbLine
 62
7
  6
CONTINUOUS
 10
70.6230912572
 20
-42.1364485672
 11
62.4230912572
 21
-42.1364485672
  0
LINE
  5
2E7
100
AcDbEntity
  8
IMPORT_IGES
100
AcDbLine
 62
7
  6
CONTINUOUS
 10
52.4230912572
 20
-42.1364485672
 11
44.2230912572
 21
-42.1364485672
  0
LINE
  5
2E8
100
AcDbEntity
  8
IMPORT_IGES
100
AcDbLine
 62
250
  6
CONTINUOUS
 10
43.7230912572
 20
-41.6364485672
 11
52.9230912572
 21
-41.6364485672
  0
LINE
  5
2E9
100
AcDbEntity
  8
IMPORT_IGES
100
AcDbLine
 62
250
  6
CONTINUOUS
 10
61.9230912572
 20
-41.6364485672
 11
71.1230912572
 21
-41.6364485672
  0
LINE
  5
2EA
100
AcDbEntity
  8
DRAFT
100
AcDbLine
 62
7
  6
CONTINUOUS
 10
47.6730912572
 20
-43.4004115556
 11
47.1730912572
 21
-43.3864485672
  0
LINE
  5
2EB
100
AcDbEntity
  8
ASSI
100
AcDbLine
 62
7
  6
CONTINUOUS
 10
47.6730912572
 20
-43.4004115556
 11
47.1730912572
 21
-43.3864485672
  0
LINE
  5
2EC
100
AcDbEntity
  8
DRAFT
100
AcDbLine
 62
7
  6
CONTINUOUS
 10
51.3293412572
 20
-43.3768490126
 11
51.1730912572
 21
-43.3724855787
  0
LINE
  5
2ED
100
AcDbEntity
  8
ASSI
100
AcDbLine
 62
7
  6
CONTINUOUS
 10
51.3293412572
 20
-43.3768490126
 11
51.1730912572
 21
-43.3724855787
  0
LINE
  5
2EE
100
AcDbEntity
  8
DRAFT
100
AcDbLine
 62
7
  6
CONTINUOUS
 10
63.6730912572
 20
-43.4004115556
 11
63.1730912572
 21
-43.3864485672
  0
LINE
  5
2EF
100
AcDbEntity
  8
ASSI
100
AcDbLine
 62
7
  6
CONTINUOUS
 10
63.6730912572
 20
-43.4004115556
 11
63.1730912572
 21
-43.3864485672
  0
LINE
  5
2F0
100
AcDbEntity
  8
DRAFT
100
AcDbLine
 62
7
  6
CONTINUOUS
 10
67.3293412572
 20
-43.3768490126
 11
67.1730912572
 21
-43.3724855787
  0
LINE
  5
2F1
100
AcDbEntity
  8
ASSI
100
AcDbLine
 62
7
  6
CONTINUOUS
 10
67.3293412572
 20
-43.3768490126
 11
67.1730912572
 21
-43.3724855787
  0
LINE
  5
2F2
100
AcDbEntity
  8
0
100
AcDbLine
 62
7
  6
CONTINUOUS
 10
48.8499065035
 20
-47.9364485672
 11
49.1849277669
 21
-48.9364485672
  0
LINE
  5
2F3
100
AcDbEntity
  8
ASSI
100
AcDbLine
 62
7
  6
CONTINUOUS
 10
48.8499065035
 20
-47.9364485672
 11
49.1849277669
 21
-48.9364485672
  0
LINE
  5
2F4
100
AcDbEntity
  8
RACCORDO
100
AcDbLine
 62
250
  6
CONTINUOUS
 10
42.70295459
 20
-10.0602679638
 11
42.70295459
 21
-8.6868456244
  0
LINE
  5
2F5
100
AcDbEntity
  8
ASSI
100
AcDbLine
 62
250
  6
CONTINUOUS
 10
42.70295459
 20
-10.0602679638
 11
42.70295459
 21
-8.6868456244
  0
LINE
  5
2F6
100
AcDbEntity
  8
RACCORDO
100
AcDbLine
 62
250
  6
CONTINUOUS
 10
42.70295459
 20
-43.4126291705
 11
42.70295459
 21
-44.7860515099
  0
LINE
  5
2F7
100
AcDbEntity
  8
ASSI
100
AcDbLine
 62
250
  6
CONTINUOUS
 10
42.70295459
 20
-43.4126291705
 11
42.70295459
 21
-44.7860515099
  0
LINE
  5
2F8
100
AcDbEntity
  8
0
100
AcDbLine
 62
7
  6
CONTINUOUS
 10
42.9230912572
 20
-27.5182546158
 11
42.9230912572
 21
-25.7055029236
  0
LINE
  5
2F9
100
AcDbEntity
  8
0
100
AcDbLine
 62
7
  6
CONTINUOUS
 10
43.0730912572
 20
-5.5364485672
 11
43.0730912572
 21
-4.5364485672
  0
LINE
  5
2FA
100
AcDbEntity
  8
ASSI
100
AcDbLine
 62
7
  6
CONTINUOUS
 10
43.0730912572
 20
-5.5364485672
 11
43.0730912572
 21
-4.5364485672
  0
LINE
  5
2FB
100
AcDbEntity
  8
0
100
AcDbLine
 62
7
  6
CONTINUOUS
 10
43.0730912572
 20
-47.9364485672
 11
43.0730912572
 21
-48.9364485672
  0
LINE
  5
2FC
100
AcDbEntity
  8
ASSI
100
AcDbLine
 62
7
  6
CONTINUOUS
 10
43.0730912572
 20
-47.9364485672
 11
43.0730912572
 21
-48.9364485672
  0
LINE
  5
2FD
100
AcDbEntity
  8
DRAFT
100
AcDbLine
 62
7
  6
CONTINUOUS
 10
43.2230912572
 20
-29.1225980736
 11
43.2230912572
 21
-43.3995388689
  0
LINE
  5
2FE
100
AcDbEntity
  8
ASSI
100
AcDbLine
 62
7
  6
CONTINUOUS
 10
43.2230912572
 20
-29.1225980736
 11
43.2230912572
 21
-43.3995388689
  0
LINE
  5
2FF
100
AcDbEntity
  8
DRAFT
100
AcDbLine
 62
7
  6
CONTINUOUS
 10
43.2230912572
 20
-24.3502990607
 11
43.2230912572
 21
-10.0733582655
  0
LINE
  5
300
100
AcDbEntity
  8
ASSI
100
AcDbLine
 62
7
  6
CONTINUOUS
 10
43.2230912572
 20
-24.3502990607
 11
43.2230912572
 21
-10.0733582655
  0
LINE
  5
301
100
AcDbEntity
  8
IMPORT_IGES
100
AcDbLine
 62
7
  6
CONTINUOUS
 10
43.7230912572
 20
-10.8364485672
 11
43.7230912572
 21
-42.6364485672
  0
LINE
  5
302
100
AcDbEntity
  8
IMPORT_IGES
100
AcDbLine
 62
250
  6
CONTINUOUS
 10
44.2230329542
 20
-39.1364510865
 11
44.2230912572
 21
-42.6364485672
  0
LINE
  5
303
100
AcDbEntity
  8
IMPORT_IGES
100
AcDbLine
 62
250
  6
CONTINUOUS
 10
44.4730912572
 20
-10.0864485672
 11
44.4730912572
 21
-10.5864485672
  0
LINE
  5
304
100
AcDbEntity
  8
IMPORT_IGES
100
AcDbLine
 62
250
  6
CONTINUOUS
 10
44.4730912572
 20
-42.8864485672
 11
44.4730912572
 21
-43.3864485672
  0
LINE
  5
305
100
AcDbEntity
  8
IMPORT_IGES
100
AcDbLine
 62
7
  6
CONTINUOUS
 10
44.7230912572
 20
-36.7364485672
 11
44.7230912572
 21
-30.7364485672
  0
LINE
  5
306
100
AcDbEntity
  8
IMPORT_IGES
100
AcDbLine
 62
7
  6
CONTINUOUS
 10
44.7230912572
 20
-20.7364485672
 11
44.7230912572
 21
-14.7364485672
  0
LINE
  5
307
100
AcDbEntity
  8
IMPORT_IGES
100
AcDbLine
 62
250
  6
CONTINUOUS
 10
44.2230912572
 20
-10.8364485672
 11
44.2230329542
 21
-12.3364461309
  0
LWPOLYLINE
  5
308
100
AcDbEntity
  8
IMPORT_IGES
100
AcDbPolyline
 62
250
  6
CONTINUOUS
 90
16
 70
0
 10
45.0860878326
 20
-13.5653611043
 10
45.0889852902
 20
-13.5132624039
 10
45.0972871804
 20
-13.4617311854
 10
45.1109031894
 20
-13.4113295477
 10
45.1296850826
 20
-13.362607195
 10
45.1534281861
 20
-13.3160957944
 10
45.181873497
 20
-13.2723031157
 10
45.2147108471
 20
-13.2317069087
 10
45.251582107
 20
-13.1947501246
 10
45.2920847623
 20
-13.1618362804
 10
45.3357759921
 20
-13.1333249692
 10
45.3821800275
 20
-13.109526421
 10
45.430793434
 20
-13.0906993056
 10
45.4810871325
 20
-13.0770496332
 10
45.5325117165
 20
-13.0687275823
 10
45.5845061732
 20
-13.0658248355
  0
LINE
  5
309
100
AcDbEntity
  8
IMPORT_IGES
100
AcDbLine
 62
250
  6
CONTINUOUS
 10
52.7230912572
 20
-39.8864485672
 11
53.2230912572
 21
-39.8864485672
  0
LINE
  5
30A
100
AcDbEntity
  8
IMPORT_IGES
100
AcDbLine
 62
250
  6
CONTINUOUS
 10
61.6230912572
 20
-39.8864485672
 11
62.1230912572
 21
-39.8864485672
  0
LWPOLYLINE
  5
30B
100
AcDbEntity
  8
ASSI
100
AcDbPolyline
 62
250
  6
CONTINUOUS
 90
13
 70
0
 10
42.1230912572
 20
-26.786499975
 10
42.1248022849
 20
-26.7929920838
 10
42.129906092
 20
-26.7993731109
 10
42.1383153507
 20
-26.805533875
 10
42.1498861765
 20
-26.8113689638
 10
42.1644205892
 20
-26.8167785373
 10
42.181669901
 20
-26.8216700362
 10
42.2013389715
 20
-26.8259597656
 10
42.2230912572
 20
-26.829574327
 10
42.2465545708
 20
-26.8324518744
 10
42.2713274482
 20
-26.834543172
 10
42.2969860188
 20
-26.8358124372
 10
42.3230912572
 20
-26.8362379525
  0
LWPOLYLINE
  5
30C
100
AcDbEntity
  8
0
100
AcDbPolyline
 62
250
  6
CONTINUOUS
 90
13
 70
0
 10
42.1230912572
 20
-26.786499975
 10
42.1248022849
 20
-26.7929920838
 10
42.129906092
 20
-26.7993731109
 10
42.1383153507
 20
-26.805533875
 10
42.1498861765
 20
-26.8113689638
 10
42.1644205892
 20
-26.8167785373
 10
42.181669901
 20
-26.8216700362
 10
42.2013389715
 20
-26.8259597656
 10
42.2230912572
 20
-26.829574327
 10
42.2465545708
 20
-26.8324518744
 10
42.2713274482
 20
-26.834543172
 10
42.2969860188
 20
-26.8358124372
 10
42.3230912572
 20
-26.8362379525
  0
LWPOLYLINE
  5
30D
100
AcDbEntity
  8
IMPORT_IGES
100
AcDbPolyline
 62
7
  6
CONTINUOUS
 90
11
 70
0
 10
43.7230912572
 20
-12.617395821
 10
43.72330153
 20
-12.6203162938
 10
43.7239530184
 20
-12.6222104013
 10
43.7250373145
 20
-12.6230745839
 10
43.7265566135
 20
-12.6228960491
 10
43.7285125958
 20
-12.6216892245
 10
43.7309059443
 20
-12.6194956242
 10
43.7337541856
 20
-12.6163191328
 10
43.7370824542
 20
-12.6121748718
 10
43.7409104208
 20
-12.6071251217
 10
43.7452697151
 20
-12.601195508
  0
LINE
  5
30E
100
AcDbEntity
  8
IMPORT_IGES
100
AcDbLine
 62
250
  6
CONTINUOUS
 10
45.0860878326
 20
-37.90753603
 11
45.0860878326
 21
-13.5653611043
  0
LINE
  5
30F
100
AcDbEntity
  8
IMPORT_IGES
100
AcDbLine
 62
250
  6
CONTINUOUS
 10
45.5844772049
 20
-13.0658249349
 11
45.5844772049
 21
-38.4070721994
  0
LINE
  5
310
100
AcDbEntity
  8
IMPORT_IGES
100
AcDbLine
 62
7
  6
CONTINUOUS
 10
46.2109493745
 20
-27.8364485672
 11
46.2109493745
 21
-29.6364485672
  0
LINE
  5
311
100
AcDbEntity
  8
IMPORT_IGES
100
AcDbLine
 62
7
  6
CONTINUOUS
 10
46.7671567415
 20
-29.1932016368
 11
46.7671567415
 21
-27.8364485672
  0
LINE
  5
312
100
AcDbEntity
  8
DRAFT
100
AcDbLine
 62
7
  6
CONTINUOUS
 10
42.4230912572
 20
-28.9602659698
 11
42.4569232022
 21
-28.8925969263
  0
LINE
  5
313
100
AcDbEntity
  8
ASSI
100
AcDbLine
 62
7
  6
CONTINUOUS
 10
42.4230912572
 20
-28.9602659698
 11
42.4569232022
 21
-28.8925969263
  0
LINE
  5
314
100
AcDbEntity
  8
DRAFT
100
AcDbLine
 62
7
  6
CONTINUOUS
 10
42.0230912572
 20
-24.4864485672
 11
42.185423361
 21
-24.3241164633
  0
LINE
  5
315
100
AcDbEntity
  8
ASSI
100
AcDbLine
 62
7
  6
CONTINUOUS
 10
42.0230912572
 20
-24.4864485672
 11
42.185423361
 21
-24.3241164633
  0
LINE
  5
316
100
AcDbEntity
  8
RACCORDO
100
AcDbLine
 62
7
  6
CONTINUOUS
 10
61.2857307215
 20
-7.2407739234
 11
61.1487334239
 21
-7.377771221
  0
LINE
  5
317
100
AcDbEntity
  8
ASSI
100
AcDbLine
 62
7
  6
CONTINUOUS
 10
61.2857307215
 20
-7.2407739234
 11
61.1487334239
 21
-7.377771221
  0
LINE
  5
318
100
AcDbEntity
  8
IMPORT_IGES
100
AcDbLine
 62
7
  6
CONTINUOUS
 10
70.6231495602
 20
-39.1364485718
 11
62.1230912572
 21
-39.1364485672
  0
LINE
  5
319
100
AcDbEntity
  8
IMPORT_IGES
100
AcDbLine
 62
7
  6
CONTINUOUS
 10
52.7230912572
 20
-39.1364485672
 11
44.2230329542
 21
-39.136448572
  0
LINE
  5
31A
100
AcDbEntity
  8
IMPORT_IGES
100
AcDbLine
 62
7
  6
CONTINUOUS
 10
53.2230912572
 20
-38.8778278775
 11
53.5230912572
 21
-38.8778278775
  0
LINE
  5
31B
100
AcDbEntity
  8
IMPORT_IGES
100
AcDbLine
 62
7
  6
CONTINUOUS
 10
61.3230912572
 20
-38.8778278775
 11
61.6230912572
 21
-38.8778278775
  0
LINE
  5
31C
100
AcDbEntity
  8
IMPORT_IGES
100
AcDbLine
 62
250
  6
CONTINUOUS
 10
69.2617053095
 20
-38.4070721994
 11
61.3230912572
 21
-38.4070721994
  0
LINE
  5
31D
100
AcDbEntity
  8
IMPORT_IGES
100
AcDbLine
 62
250
  6
CONTINUOUS
 10
53.5230912572
 20
-38.4070721994
 11
45.5844772049
 21
-38.4070721994
  0
LINE
  5
31E
100
AcDbEntity
  8
IMPORT_IGES
100
AcDbLine
 62
250
  6
CONTINUOUS
 10
45.0860878326
 20
-37.90753603
 11
54.0230912572
 21
-37.90753603
  0
LINE
  5
31F
100
AcDbEntity
  8
IMPORT_IGES
100
AcDbLine
 62
250
  6
CONTINUOUS
 10
60.8230912572
 20
-37.90753603
 11
69.7600946818
 21
-37.90753603
  0
LWPOLYLINE
  5
320
100
AcDbEntity
  8
IMPORT_IGES
100
AcDbPolyline
 62
7
  6
CONTINUOUS
 90
28
 70
0
 10
44.2230036495
 20
-39.136448651
 10
44.2013361831
 20
-39.1360015785
 10
44.179336681
 20
-39.1346440284
 10
44.1570492006
 20
-39.1323408328
 10
44.1344933258
 20
-39.1290519978
 10
44.1117478454
 20
-39.1247497436
 10
44.0889480202
 20
-39.1194322652
 10
44.0661549407
 20
-39.1130880404
 10
44.0434161885
 20
-39.1057024199
 10
44.0208442177
 20
-39.0972934373
 10
43.9984339865
 20
-39.0878377252
 10
43.9763041618
 20
-39.0773600129
 10
43.9547344318
 20
-39.0659949478
 10
43.933635488
 20
-39.0537116282
 10
43.9131772091
 20
-39.0406136442
 10
43.8939531184
 20
-39.0271473686
 10
43.8760222475
 20
-39.0135031273
 10
43.8592549019
 20
-38.9997176108
 10
43.8438699109
 20
-38.9861018045
 10
43.8298795808
 20
-38.9728538039
 10
43.8171187627
 20
-38.9600004864
 10
43.8055107464
 20
-38.9476065796
 10
43.794988756
 20
-38.9357552767
 10
43.785474084
 20
-38.924515761
 10
43.7768785761
 20
-38.913914175
 10
43.7691383084
 20
-38.9039993856
 10
43.7621908512
 20
-38.8948224891
 10
43.7559594712
 20
-38.8863996674
  0
LWPOLYLINE
  5
321
100
AcDbEntity
  8
IMPORT_IGES
100
AcDbPolyline
 62
250
  6
CONTINUOUS
 90
16
 70
0
 10
61.3230912572
 20
-38.4070721994
 10
61.27082787
 20
-38.4043357767
 10
61.2191368864
 20
-38.3961564488
 10
61.1685846388
 20
-38.382623769
 10
61.1197249679
 20
-38.3638859325
 10
61.0730932343
 20
-38.3401481833
 10
61.02920044
 20
-38.3116705934
 10
60.9885275038
 20
-38.2787651436
 10
60.9515200685
 20
-38.2417923282
 10
60.918583669
 20
-38.2011572734
 10
60.8900791766
 20
-38.1573051898
 10
60.8663188992
 20
-38.1107165269
 10
60.8475631894
 20
-38.061901781
 10
60.834017535
 20
-38.0113958068
 10
60.8258303273
 20
-37.9597519475
 10
60.8230912572
 20
-37.90753603
  0
LWPOLYLINE
  5
322
100
AcDbEntity
  8
IMPORT_IGES
100
AcDbPolyline
 62
250
  6
CONTINUOUS
 90
16
 70
0
 10
45.5845061733
 20
-38.4070722989
 10
45.5325116008
 20
-38.4041695394
 10
45.4810869213
 20
-38.3958474555
 10
45.4307931498
 20
-38.3821977354
 10
45.3821796943
 20
-38.3633705639
 10
45.3357756337
 20
-38.3395719571
 10
45.2920844011
 20
-38.3110605904
 10
45.2515817633
 20
-38.2781466993
 10
45.2147105379
 20
-38.2411898817
 10
45.1818732353
 20
-38.2005936583
 10
45.1534336485
 20
-38.1568107916
 10
45.1296941731
 20
-38.1103102963
 10
45.1109030976
 20
-38.0615673058
 10
45.0972728562
 20
-38.0110993095
 10
45.0889670597
 20
-37.9594657708
 10
45.0860868729
 20
-37.9072304467
  0
LINE
  5
323
100
AcDbEntity
  8
DRAFT
100
AcDbLine
 62
7
  6
CONTINUOUS
 10
59.3517822421
 20
-38.686827259
 11
59.6153591456
 21
-38.7819623864
  0
LINE
  5
324
100
AcDbEntity
  8
DRAFT
100
AcDbLine
 62
7
  6
CONTINUOUS
 10
59.3266371639
 20
-38.8994854186
 11
59.4510910337
 21
-38.9451079085
  0
LINE
  5
325
100
AcDbEntity
  8
DRAFT
100
AcDbLine
 62
7
  6
CONTINUOUS
 10
42.185423361
 20
-29.148780671
 11
42.0230912572
 21
-28.9864485672
  0
LINE
  5
326
100
AcDbEntity
  8
ASSI
100
AcDbLine
 62
7
  6
CONTINUOUS
 10
42.185423361
 20
-29.148780671
 11
42.0230912572
 21
-28.9864485672
  0
LINE
  5
327
100
AcDbEntity
  8
RACCORDO
100
AcDbLine
 62
7
  6
CONTINUOUS
 10
61.2857307215
 20
-46.2321232109
 11
61.1487334239
 21
-46.0951259134
  0
LINE
  5
328
100
AcDbEntity
  8
ASSI
100
AcDbLine
 62
7
  6
CONTINUOUS
 10
61.2857307215
 20
-46.2321232109
 11
61.1487334239
 21
-46.0951259134
  0
LINE
  5
329
100
AcDbEntity
  8
DRAFT
100
AcDbLine
 62
7
  6
CONTINUOUS
 10
42.4230912572
 20
-24.5126311646
 11
42.4569232022
 21
-24.580300208
  0
LINE
  5
32A
100
AcDbEntity
  8
ASSI
100
AcDbLine
 62
7
  6
CONTINUOUS
 10
42.4230912572
 20
-24.5126311646
 11
42.4569232022
 21
-24.580300208
  0
LWPOLYLINE
  5
32B
100
AcDbEntity
  8
IMPORT_IGES
100
AcDbPolyline
 62
7
  6
CONTINUOUS
 90
67
 70
0
 10
48.4965905751
 20
-28.7374717595
 10
48.4974350168
 20
-28.7849326687
 10
48.4999892875
 20
-28.8307620975
 10
48.5042533873
 20
-28.874960046
 10
48.5102569947
 20
-28.917523744
 10
48.5179704312
 20
-28.9584559617
 10
48.5273046613
 20
-28.9977650095
 10
48.5383056197
 20
-29.0354171869
 10
48.5509273716
 20
-29.0714461944
 10
48.5649430773
 20
-29.1059614434
 10
48.5803553227
 20
-29.1389869237
 10
48.5971615218
 20
-29.1704986455
 10
48.6151270767
 20
-29.2005340502
 10
48.6342026072
 20
-29.2290655001
 10
48.6544374935
 20
-29.2561206328
 10
48.6757452781
 20
-29.2818198037
 10
48.6981201618
 20
-29.3062213586
 10
48.7215679438
 20
-29.3292669515
 10
48.7460195649
 20
-29.3509018999
 10
48.7713533047
 20
-29.3710771293
 10
48.7976908835
 20
-29.3898417142
 10
48.8253284027
 20
-29.4072881946
 10
48.8542478075
 20
-29.4234515535
 10
48.8844671527
 20
-29.438296808
 10
48.9163367033
 20
-29.4518115497
 10
48.9499326259
 20
-29.464005721
 10
48.9851787541
 20
-29.4748693795
 10
49.0221968531
 20
-29.4843602897
 10
49.0611849386
 20
-29.4924781256
 10
49.1019449949
 20
-29.4992232133
 10
49.1440047416
 20
-29.5045542953
 10
49.1876371514
 20
-29.5084977262
 10
49.2325692516
 20
-29.5110271515
 10
49.2775098429
 20
-29.512022251
 10
49.3225024637
 20
-29.5114421516
 10
49.3675035757
 20
-29.5093277264
 10
49.4110913652
 20
-29.5056812743
 10
49.452884789
 20
-29.5005057295
 10
49.4932648903
 20
-29.4937981577
 10
49.5319529845
 20
-29.4855520547
 10
49.5687672344
 20
-29.4757379686
 10
49.6038894772
 20
-29.4643853514
 10
49.6375865406
 20
-29.4515760547
 10
49.6699081793
 20
-29.4372795902
 10
49.7008046387
 20
-29.4215264462
 10
49.7303934819
 20
-29.4044899395
 10
49.7587100293
 20
-29.3861730217
 10
49.7857189606
 20
-29.3665727412
 10
49.8114318784
 20
-29.3458535592
 10
49.8358290746
 20
-29.324100527
 10
49.8589302573
 20
-29.3012285934
 10
49.8808061532
 20
-29.2771470663
 10
49.9015058878
 20
-29.2518789075
 10
49.9209803356
 20
-29.2254011552
 10
49.9391528469
 20
-29.197554232
 10
49.9559993515
 20
-29.1683956621
 10
49.9715439196
 20
-29.1378679214
 10
49.9857821125
 20
-29.1056388597
 10
49.9987450836
 20
-29.0717077309
 10
50.0104016794
 20
-29.0360752813
 10
50.0206540017
 20
-28.9984115988
 10
50.0295309962
 20
-28.9587519107
 10
50.0370037171
 20
-28.9170609897
 10
50.0428874285
 20
-28.8729032426
 10
50.0471205518
 20
-28.8261334717
 10
50.0497646657
 20
-28.7768968747
 10
50.0508197702
 20
-28.7251934516
  0
LINE
  5
32C
100
AcDbEntity
  8
IMPORT_IGES
100
AcDbLine
 62
7
  6
CONTINUOUS
 10
47.2109493745
 20
-21.8364485672
 11
47.2109493745
 21
-23.6364485672
  0
LINE
  5
32D
100
AcDbEntity
  8
IMPORT_IGES
100
AcDbLine
 62
7
  6
CONTINUOUS
 10
47.6352331399
 20
-29.6364485672
 11
47.6352331399
 21
-29.1932016368
  0
LINE
  5
32E
100
AcDbEntity
  8
DRAFT
100
AcDbLine
 62
7
  6
CONTINUOUS
 10
47.6730912572
 20
-43.4126291705
 11
47.6730912572
 21
-42.6364485672
  0
LINE
  5
32F
100
AcDbEntity
  8
ASSI
100
AcDbLine
 62
7
  6
CONTINUOUS
 10
47.6730912572
 20
-43.4126291705
 11
47.6730912572
 21
-42.6364485672
  0
LINE
  5
330
100
AcDbEntity
  8
DRAFT
100
AcDbLine
 62
7
  6
CONTINUOUS
 10
47.6730912572
 20
-10.8364485672
 11
47.6730912572
 21
-10.0602679638
  0
LINE
  5
331
100
AcDbEntity
  8
ASSI
100
AcDbLine
 62
7
  6
CONTINUOUS
 10
47.6730912572
 20
-10.8364485672
 11
47.6730912572
 21
-10.0602679638
  0
LINE
  5
332
100
AcDbEntity
  8
IMPORT_IGES
100
AcDbLine
 62
7
  6
CONTINUOUS
 10
47.7671567415
 20
-23.1932016368
 11
47.7671567415
 21
-21.8364485672
  0
LINE
  5
333
100
AcDbEntity
  8
IMPORT_IGES
100
AcDbLine
 62
7
  6
CONTINUOUS
 10
48.6352331399
 20
-23.6364485672
 11
48.6352331399
 21
-23.1932016368
  0
LWPOLYLINE
  5
334
100
AcDbEntity
  8
IMPORT_IGES
100
AcDbPolyline
 62
7
  6
CONTINUOUS
 90
58
 70
0
 10
48.9600967142
 20
-28.7395181443
 10
48.9604870661
 20
-28.710000284
 10
48.9616707554
 20
-28.6814930185
 10
48.9636477823
 20
-28.6539963476
 10
48.966422284
 20
-28.6274836964
 10
48.9699901232
 20
-28.6019816399
 10
48.974338888
 20
-28.5775699033
 10
48.9794896996
 20
-28.5542352515
 10
48.9854214367
 20
-28.5319909196
 10
48.9920583246
 20
-28.5109563376
 10
48.9994010477
 20
-28.4911837079
 10
49.0074489214
 20
-28.4726208281
 10
49.016124117
 20
-28.4552305218
 10
49.0253997413
 20
-28.4390471937
 10
49.0353026875
 20
-28.4240364391
 10
49.045835807
 20
-28.4100578675
 10
49.0569722619
 20
-28.3971073051
 10
49.0687388901
 20
-28.3851889258
 10
49.0812190574
 20
-28.3741748605
 10
49.0943900867
 20
-28.3640441191
 10
49.1082746551
 20
-28.3548176918
 10
49.1230241602
 20
-28.3464306801
 10
49.1386598522
 20
-28.3388382663
 10
49.1551604808
 20
-28.3320852682
 10
49.1726136934
 20
-28.3262412413
 10
49.1911621825
 20
-28.3212519743
 10
49.2106632555
 20
-28.3171716786
 10
49.2307764813
 20
-28.3142325428
 10
49.2517063842
 20
-28.3124957092
 10
49.2732484399
 20
-28.3119000355
 10
49.2944486439
 20
-28.312494284
 10
49.3151340092
 20
-28.3143586623
 10
49.3354775228
 20
-28.3174129628
 10
49.355044142
 20
-28.3214653237
 10
49.3737313765
 20
-28.326496014
 10
49.3916417165
 20
-28.3325247648
 10
49.4086475898
 20
-28.3394189073
 10
49.4246697349
 20
-28.3471308922
 10
49.4397874133
 20
-28.3557082688
 10
49.4541108369
 20
-28.3651610164
 10
49.4676414452
 20
-28.3754616972
 10
49.4803777988
 20
-28.3866377491
 10
49.4924257916
 20
-28.3987814641
 10
49.5038002675
 20
-28.4118516898
 10
49.5144863827
 20
-28.4258895786
 10
49.5245454988
 20
-28.4411108803
 10
49.5340299901
 20
-28.4575470624
 10
49.5428874824
 20
-28.4751666574
 10
49.5510222149
 20
-28.4940910127
 10
49.5584479837
 20
-28.5144016595
 10
49.5651509927
 20
-28.5360170668
 10
49.5709940936
 20
-28.5588139884
 10
49.575946633
 20
-28.5827923252
 10
49.5800392643
 20
-28.6079521765
 10
49.5832267986
 20
-28.6341705941
 10
49.585494173
 20
-28.6614065952
 10
49.5868564505
 20
-28.6897011626
 10
49.587313631
 20
-28.7190542964
  0
LINE
  5
335
100
AcDbEntity
  8
DRAFT
100
AcDbLine
 62
7
  6
CONTINUOUS
 10
42.0492738546
 20
-28.9602659698
 11
42.0230912572
 21
-28.9864485672
  0
LINE
  5
336
100
AcDbEntity
  8
ASSI
100
AcDbLine
 62
7
  6
CONTINUOUS
 10
42.0492738546
 20
-28.9602659698
 11
42.0230912572
 21
-28.9864485672
  0
LINE
  5
337
100
AcDbEntity
  8
RACCORDO
100
AcDbLine
 62
250
  6
CONTINUOUS
 10
72.3317426257
 20
-8.5925954523
 11
72.1432279244
 21
-8.6868456244
  0
LINE
  5
338
100
AcDbEntity
  8
ASSI
100
AcDbLine
 62
250
  6
CONTINUOUS
 10
72.3317426257
 20
-8.5925954523
 11
72.1432279244
 21
-8.6868456244
  0
LINE
  5
339
100
AcDbEntity
  8
RACCORDO
100
AcDbLine
 62
250
  6
CONTINUOUS
 10
72.8230912572
 20
-9.0968636953
 11
72.643151772
 21
-9.186826586
  0
LINE
  5
33A
100
AcDbEntity
  8
ASSI
100
AcDbLine
 62
250
  6
CONTINUOUS
 10
72.8230912572
 20
-9.0968636953
 11
72.643151772
 21
-9.186826586
  0
LWPOLYLINE
  5
33B
100
AcDbEntity
  8
DRAFT
100
AcDbPolyline
 62
7
  6
CONTINUOUS
 90
10
 70
0
 10
56.6399266339
 20
-36.3448901364
 10
56.8115489703
 20
-36.2978720216
 10
56.98437843
 20
-36.2626084355
 10
57.158415013
 20
-36.2390993781
 10
57.3344634681
 20
-36.2273448494
 10
57.5117190464
 20
-36.2273448494
 10
57.6877675014
 20
-36.2390993781
 10
57.8618040844
 20
-36.2626084355
 10
58.0346335441
 20
-36.2978720216
 10
58.2062558806
 20
-36.3448901364
  0
LWPOLYLINE
  5
33C
100
AcDbEntity
  8
0
100
AcDbPolyline
 62
7
  6
CONTINUOUS
 90
9
 70
0
 10
56.6730912572
 20
-36.6511744053
 10
56.8362938592
 20
-36.6070944725
 10
57.002088751
 20
-36.5738629954
 10
57.169743502
 20
-36.5516267804
 10
57.3385174652
 20
-36.5404840604
 10
57.5076650493
 20
-36.5404840604
 10
57.6764390125
 20
-36.5516267804
 10
57.8440937634
 20
-36.5738629954
 10
58.0098886552
 20
-36.6070944725
  0
LWPOLYLINE
  5
33D
100
AcDbEntity
  8
DRAFT
100
AcDbPolyline
 62
7
  6
CONTINUOUS
 90
9
 70
0
 10
56.6730912572
 20
-36.6504057906
 10
56.8375258541
 20
-36.6061602008
 10
57.0030764859
 20
-36.5729760084
 10
57.1697431526
 20
-36.5508532135
 10
57.3382698774
 20
-36.539791816
 10
57.5079126371
 20
-36.539791816
 10
57.6764393618
 20
-36.5508532135
 10
57.8431060285
 20
-36.5729760084
 10
58.0086566603
 20
-36.6061602008
  0
LWPOLYLINE
  5
33E
100
AcDbEntity
  8
0
100
AcDbPolyline
 62
7
  6
CONTINUOUS
 90
10
 70
0
 10
56.6724451953
 20
-36.6086202623
 10
56.8359544519
 20
-36.5650801616
 10
57.001953691
 20
-36.5322716721
 10
57.1697273401
 20
-36.510328768
 10
57.3385279948
 20
-36.4993393738
 10
57.5076545198
 20
-36.4993393738
 10
57.6764551743
 20
-36.510328768
 10
57.8442288232
 20
-36.5322716721
 10
58.0102280619
 20
-36.5650801615
 10
58.1737373179
 20
-36.608620262
  0
LINE
  5
33F
100
AcDbEntity
  8
ASSI
100
AcDbLine
 62
250
  6
CONTINUOUS
 10
58.0036858431
 20
-36.7453658698
 11
57.6080844387
 21
-36.7453658698
  0
LINE
  5
340
100
AcDbEntity
  8
0
100
AcDbLine
 62
250
  6
CONTINUOUS
 10
58.0036858431
 20
-36.7453658698
 11
57.6080844387
 21
-36.7453658698
  0
LINE
  5
341
100
AcDbEntity
  8
ASSI
100
AcDbLine
 62
250
  6
CONTINUOUS
 10
57.2381268786
 20
-36.7453658698
 11
56.8425865786
 21
-36.7453658698
  0
LINE
  5
342
100
AcDbEntity
  8
0
100
AcDbLine
 62
250
  6
CONTINUOUS
 10
57.2381268786
 20
-36.7453658698
 11
56.8425865786
 21
-36.7453658698
  0
LINE
  5
343
100
AcDbEntity
  8
IMPORT_IGES
100
AcDbLine
 62
7
  6
CONTINUOUS
 10
70.7449303377
 20
-36.7364485672
 11
70.1230912572
 21
-36.7364485672
  0
LINE
  5
344
100
AcDbEntity
  8
IMPORT_IGES
100
AcDbLine
 62
7
  6
CONTINUOUS
 10
44.7230912572
 20
-36.7364485672
 11
44.1012521768
 21
-36.7364485672
  0
LWPOLYLINE
  5
345
100
AcDbEntity
  8
0
100
AcDbPolyline
 62
7
  6
CONTINUOUS
 90
10
 70
0
 10
58.1680409209
 20
-36.643616153
 10
58.0086392226
 20
-36.600820842
 10
57.8430798719
 20
-36.5677074433
 10
57.6764132049
 20
-36.5456318443
 10
57.5079010109
 20
-36.5345940448
 10
57.3382815007
 20
-36.5345940449
 10
57.169769307
 20
-36.5456318445
 10
57.0031026406
 20
-36.5677074436
 10
56.8375432907
 20
-36.6008208421
 10
56.6781415936
 20
-36.643616153
  0
LINE
  5
346
100
AcDbEntity
  8
DRAFT
100
AcDbLine
 62
7
  6
CONTINUOUS
 10
58.0086566603
 20
-36.6061602008
 11
58.1730912572
 21
-36.6504057906
  0
LINE
  5
347
100
AcDbEntity
  8
0
100
AcDbLine
 62
7
  6
CONTINUOUS
 10
58.0098886552
 20
-36.6070944725
 11
58.1730912572
 21
-36.6511744053
  0
LINE
  5
348
100
AcDbEntity
  8
RACCORDO
100
AcDbLine
 62
250
  6
CONTINUOUS
 10
58.1730912572
 20
-36.7483928777
 11
58.1846971488
 21
-36.7517811571
  0
LWPOLYLINE
  5
349
100
AcDbEntity
  8
0
100
AcDbPolyline
 62
7
  6
CONTINUOUS
 90
11
 70
0
 10
58.1730912572
 20
-36.79153472
 10
58.1406215036
 20
-36.7814441008
 10
57.9648819589
 20
-36.7351422692
 10
57.7861502364
 20
-36.7018720504
 10
57.6054224532
 20
-36.6818191986
 10
57.4236763965
 20
-36.6750932417
 10
57.2419194716
 20
-36.6817338144
 10
57.0611606509
 20
-36.7017049318
 10
56.8823803983
 20
-36.7349001173
 10
56.7065756107
 20
-36.7811366788
 10
56.6730912572
 20
-36.79153472
  0
LINE
  5
34A
100
AcDbEntity
  8
RACCORDO
100
AcDbLine
 62
7
  6
CONTINUOUS
 10
58.1730912572
 20
-36.750240542
 11
58.1849233975
 21
-36.7539671304
  0
LWPOLYLINE
  5
34B
100
AcDbEntity
  8
0
100
AcDbPolyline
 62
7
  6
CONTINUOUS
 90
15
 70
0
 10
58.1836888981
 20
-36.8593302177
 10
58.1064094954
 20
-36.8348930264
 10
57.9949006247
 20
-36.8053630314
 10
57.8818769114
 20
-36.7810473421
 10
57.7680883862
 20
-36.7621073163
 10
57.6535299628
 20
-36.7485787077
 10
57.5382067275
 20
-36.7404257626
 10
57.4228839705
 20
-36.7377025784
 10
57.3075616955
 20
-36.7404452682
 10
57.1922398988
 20
-36.7486177189
 10
57.077683859
 20
-36.7621656879
 10
56.9638986702
 20
-36.7811249275
 10
56.8508792382
 20
-36.8054596855
 10
56.7393755601
 20
-36.8350084624
 10
56.6624936237
 20
-36.8593342459
  0
LWPOLYLINE
  5
34C
100
AcDbEntity
  8
DRAFT
100
AcDbPolyline
 62
7
  6
CONTINUOUS
 90
25
 70
0
 10
58.2062558806
 20
-37.0644718908
 10
58.2857624966
 20
-37.1016010285
 10
58.3631769814
 20
-37.1420635954
 10
58.4384993351
 20
-37.1858595915
 10
58.5118740518
 20
-37.2330939639
 10
58.5831566374
 20
-37.2836617655
 10
58.6519136095
 20
-37.3372481551
 10
58.7181291555
 20
-37.393871475
 10
58.781819088
 20
-37.4535133829
 10
58.8425973624
 20
-37.5158040117
 10
58.9004456142
 20
-37.5807590554
 10
58.9553822079
 20
-37.6483628201
 10
59.0070761922
 20
-37.7181983565
 10
59.0555067501
 20
-37.7902767922
 10
59.1006946986
 20
-37.8645869996
 10
59.142371538
 20
-37.9406786477
 10
59.1805168012
 20
-38.0185617371
 10
59.2151509553
 20
-38.0982262672
 10
59.2460669007
 20
-38.1791919047
 10
59.273243151
 20
-38.2614659852
 10
59.2967011927
 20
-38.345041173
 10
59.3162983866
 20
-38.4294151284
 10
59.3319871862
 20
-38.5144204045
 10
59.3438151381
 20
-38.600224448
 10
59.3517822421
 20
-38.686827259
  0
LINE
  5
34D
100
AcDbEntity
  8
RACCORDO
100
AcDbLine
 62
250
  6
CONTINUOUS
 10
72.1432279244
 20
-44.7860515099
 11
72.3317426257
 21
-44.8803016821
  0
LINE
  5
34E
100
AcDbEntity
  8
ASSI
100
AcDbLine
 62
250
  6
CONTINUOUS
 10
72.1432279244
 20
-44.7860515099
 11
72.3317426257
 21
-44.8803016821
  0
LINE
  5
34F
100
AcDbEntity
  8
RACCORDO
100
AcDbLine
 62
250
  6
CONTINUOUS
 10
72.643151772
 20
-44.2860705484
 11
72.8230912572
 21
-44.3760334391
  0
LINE
  5
350
100
AcDbEntity
  8
ASSI
100
AcDbLine
 62
250
  6
CONTINUOUS
 10
72.643151772
 20
-44.2860705484
 11
72.8230912572
 21
-44.3760334391
  0
LINE
  5
351
100
AcDbEntity
  8
DRAFT
100
AcDbLine
 62
7
  6
CONTINUOUS
 10
42.0230912572
 20
-24.4864485672
 11
42.0492738546
 21
-24.5126311646
  0
LINE
  5
352
100
AcDbEntity
  8
ASSI
100
AcDbLine
 62
7
  6
CONTINUOUS
 10
42.0230912572
 20
-24.4864485672
 11
42.0492738546
 21
-24.5126311646
  0
LWPOLYLINE
  5
353
100
AcDbEntity
  8
IMPORT_IGES
100
AcDbPolyline
 62
7
  6
CONTINUOUS
 90
67
 70
0
 10
50.3015018984
 20
-28.8801271629
 10
50.3028569997
 20
-28.9121827339
 10
50.3052346502
 20
-28.9436951809
 10
50.3086348499
 20
-28.9746645038
 10
50.3130767335
 20
-29.0050651905
 10
50.3185411662
 20
-29.0349227532
 10
50.3249707442
 20
-29.0643137287
 10
50.332214416
 20
-29.0933121026
 10
50.340423233
 20
-29.1218438893
 10
50.3499929454
 20
-29.1497636694
 10
50.3609535388
 20
-29.1770948212
 10
50.3732750276
 20
-29.2038139664
 10
50.3872632053
 20
-29.2297055498
 10
50.4031724325
 20
-29.2547130847
 10
50.4207483486
 20
-29.2788930578
 10
50.4395336653
 20
-29.3021993754
 10
50.4594661565
 20
-29.3247480469
 10
50.4806080483
 20
-29.3464230628
 10
50.5026887305
 20
-29.3668303006
 10
50.5256965022
 20
-29.3859725169
 10
50.5496430644
 20
-29.4038469552
 10
50.5742929096
 20
-29.4200512232
 10
50.5993725819
 20
-29.4343603457
 10
50.6251555371
 20
-29.446999298
 10
50.6522266357
 20
-29.4582406142
 10
50.6806208489
 20
-29.4680546903
 10
50.7103032053
 20
-29.4764711304
 10
50.7417536518
 20
-29.4838512808
 10
50.7752427033
 20
-29.4902283273
 10
50.8104998449
 20
-29.4955690842
 10
50.8471934772
 20
-29.5001353409
 10
50.8854662539
 20
-29.5040156311
 10
50.9251755215
 20
-29.5071214211
 10
50.9655617199
 20
-29.5094488989
 10
51.006814938
 20
-29.5111179028
 10
51.048745087
 20
-29.5120085945
 10
51.0900223401
 20
-29.5117576466
 10
51.1304220063
 20
-29.5103142653
 10
51.1701687765
 20
-29.5077292444
 10
51.208606897
 20
-29.5037916373
 10
51.2455168317
 20
-29.4984782248
 10
51.2811181166
 20
-29.4918122262
 10
51.315413606
 20
-29.4836523526
 10
51.3484200925
 20
-29.474001442
 10
51.3801207836
 20
-29.4628566565
 10
51.4104681557
 20
-29.4500681937
 10
51.4394757405
 20
-29.4354514113
 10
51.4671300064
 20
-29.4191909515
 10
51.4933428357
 20
-29.401690939
 10
51.5180052478
 20
-29.3829868754
 10
51.5412262233
 20
-29.363043259
 10
51.5632445864
 20
-29.3421577087
 10
51.5841644977
 20
-29.3204732333
 10
51.6038817965
 20
-29.297846824
 10
51.6223228254
 20
-29.2741470731
 10
51.6394671161
 20
-29.2494271789
 10
51.6553351368
 20
-29.2236339432
 10
51.6699146346
 20
-29.1964763629
 10
51.683213836
 20
-29.1679318256
 10
51.6952245145
 20
-29.1380229437
 10
51.7059097373
 20
-29.1065265512
 10
51.7153692482
 20
-29.0735029627
 10
51.7235033034
 20
-29.0388918637
 10
51.729975739
 20
-29.0022891445
 10
51.7346745004
 20
-28.9635601021
 10
51.7377116422
 20
-28.9228394395
 10
51.7390871644
 20
-28.8801271569
  0
LWPOLYLINE
  5
354
100
AcDbEntity
  8
0
100
AcDbPolyline
 62
7
  6
CONTINUOUS
 90
34
 70
0
 10
50.0508197702
 20
-28.7251934516
 10
50.0476185462
 20
-28.6377883951
 10
50.0383180934
 20
-28.5555189156
 10
50.0229184118
 20
-28.4783850132
 10
50.0010798953
 20
-28.4061959104
 10
49.9731421501
 20
-28.3391423847
 10
49.9401239942
 20
-28.2777967683
 10
49.9024874458
 20
-28.2226377535
 10
49.8597704868
 20
-28.173186648
 10
49.8116058812
 20
-28.1285797079
 10
49.7579756619
 20
-28.0882717282
 10
49.6988977959
 20
-28.0528079139
 10
49.6340589488
 20
-28.0229601353
 10
49.5625083899
 20
-27.9988343329
 10
49.4851968499
 20
-27.9803245663
 10
49.4046631856
 20
-27.9678848843
 10
49.3196063715
 20
-27.9616047311
 10
49.231327433
 20
-27.9613946627
 10
49.1462683037
 20
-27.967440396
 10
49.0657618161
 20
-27.9799598681
 10
48.9884751377
 20
-27.998735142
 10
48.9168517041
 20
-28.0232981238
 10
48.8518132241
 20
-28.0537560991
 10
48.792437989
 20
-28.0900017822
 10
48.7384043088
 20
-28.1312452229
 10
48.6896444303
 20
-28.1770266125
 10
48.6462261067
 20
-28.2278057596
 10
48.6080309068
 20
-28.2841721393
 10
48.5747126079
 20
-28.3464485208
 10
48.5466174326
 20
-28.4143121348
 10
48.524665618
 20
-28.487384149
 10
48.5091639097
 20
-28.5655382858
 10
48.4998055621
 20
-28.6489008226
 10
48.4965905751
 20
-28.7374717595
  0
LINE
  5
355
100
AcDbEntity
  8
0
100
AcDbLine
 62
7
  6
CONTINUOUS
 10
49.2730912572
 20
-5.5364485672
 11
49.2730912572
 21
-4.5364485672
  0
LINE
  5
356
100
AcDbEntity
  8
ASSI
100
AcDbLine
 62
7
  6
CONTINUOUS
 10
49.2730912572
 20
-5.5364485672
 11
49.2730912572
 21
-4.5364485672
  0
LINE
  5
357
100
AcDbEntity
  8
0
100
AcDbLine
 62
7
  6
CONTINUOUS
 10
49.2730912572
 20
-47.9364485672
 11
49.2730912572
 21
-48.9364485672
  0
LINE
  5
358
100
AcDbEntity
  8
ASSI
100
AcDbLine
 62
7
  6
CONTINUOUS
 10
49.2730912572
 20
-47.9364485672
 11
49.2730912572
 21
-48.9364485672
  0
LINE
  5
359
100
AcDbEntity
  8
IMPORT_IGES
100
AcDbLine
 62
7
  6
CONTINUOUS
 10
49.8057651999
 20
-22.1364485672
 11
49.8057651999
 21
-23.6364485672
  0
LINE
  5
35A
100
AcDbEntity
  8
IMPORT_IGES
100
AcDbLine
 62
7
  6
CONTINUOUS
 10
50.2702945314
 20
-23.6364485672
 11
50.2702945314
 21
-22.1364485672
  0
LINE
  5
35B
100
AcDbEntity
  8
0
100
AcDbLine
 62
7
  6
CONTINUOUS
 10
50.3015018984
 20
-27.9864485672
 11
50.3015018984
 21
-28.8801271629
  0
LINE
  5
35C
100
AcDbEntity
  8
IMPORT_IGES
100
AcDbLine
 62
7
  6
CONTINUOUS
 10
50.6059016256
 20
-22.1364485672
 11
50.6059016256
 21
-23.6364485672
  0
LINE
  5
35D
100
AcDbEntity
  8
0
100
AcDbLine
 62
7
  6
CONTINUOUS
 10
50.7639848452
 20
-28.9014063605
 11
50.7639848452
 21
-27.9864485672
  0
LINE
  5
35E
100
AcDbEntity
  8
IMPORT_IGES
100
AcDbLine
 62
7
  6
CONTINUOUS
 10
51.041781571
 20
-23.6364485672
 11
51.041781571
 21
-22.8128426668
  0
LINE
  5
35F
100
AcDbEntity
  8
DRAFT
100
AcDbLine
 62
7
  6
CONTINUOUS
 10
51.1730912572
 20
-43.4126291705
 11
51.1730912572
 21
-42.6364485672
  0
LINE
  5
360
100
AcDbEntity
  8
ASSI
100
AcDbLine
 62
7
  6
CONTINUOUS
 10
51.1730912572
 20
-43.4126291705
 11
51.1730912572
 21
-42.6364485672
  0
LINE
  5
361
100
AcDbEntity
  8
DRAFT
100
AcDbLine
 62
7
  6
CONTINUOUS
 10
51.1730912572
 20
-10.8364485672
 11
51.1730912572
 21
-10.0602679638
  0
LINE
  5
362
100
AcDbEntity
  8
ASSI
100
AcDbLine
 62
7
  6
CONTINUOUS
 10
51.1730912572
 20
-10.8364485672
 11
51.1730912572
 21
-10.0602679638
  0
LWPOLYLINE
  5
363
100
AcDbEntity
  8
IMPORT_IGES
100
AcDbPolyline
 62
7
  6
CONTINUOUS
 90
61
 70
0
 10
49.587313631
 20
-28.7190542964
 10
49.5870774015
 20
-28.7476702723
 10
49.5862561067
 20
-28.7754386614
 10
49.5848497466
 20
-28.8023594636
 10
49.5828804455
 20
-28.8284620012
 10
49.5803260791
 20
-28.853716952
 10
49.5771202743
 20
-28.8780363489
 10
49.5732518294
 20
-28.9014389158
 10
49.5687319461
 20
-28.9239059289
 10
49.5635278564
 20
-28.9452932495
 10
49.5576179079
 20
-28.9655606183
 10
49.5510237531
 20
-28.9847482946
 10
49.5437775815
 20
-29.0028329178
 10
49.5358836151
 20
-29.0197793082
 10
49.5273376318
 20
-29.0356226456
 10
49.5181591554
 20
-29.0504451085
 10
49.5083898673
 20
-29.0642293869
 10
49.4979880859
 20
-29.0769927908
 10
49.4868482904
 20
-29.0888694284
 10
49.4749538577
 20
-29.0998948242
 10
49.4623214109
 20
-29.1100334538
 10
49.4488952979
 20
-29.1193128522
 10
49.4346895306
 20
-29.1277212658
 10
49.4196900972
 20
-29.1352704482
 10
49.4037993099
 20
-29.1420231954
 10
49.3869606899
 20
-29.148039758
 10
49.3692307161
 20
-29.1532598853
 10
49.3506811369
 20
-29.1575656222
 10
49.3311510833
 20
-29.1609881652
 10
49.3108014244
 20
-29.1634963178
 10
49.2901865154
 20
-29.1648785347
 10
49.2691865054
 20
-29.1650404209
 10
49.2479212454
 20
-29.1640763713
 10
49.2273046425
 20
-29.162058026
 10
49.2075625357
 20
-29.1589495851
 10
49.1884690861
 20
-29.1547868484
 10
49.1702606843
 20
-29.1497488555
 10
49.1530306592
 20
-29.1438823666
 10
49.136685682
 20
-29.1371406215
 10
49.1211821569
 20
-29.1295623798
 10
49.106550078
 20
-29.1211845408
 10
49.0927594512
 20
-29.1119702052
 10
49.0796766987
 20
-29.1018474348
 10
49.0672789893
 20
-29.090825235
 10
49.0555891541
 20
-29.0788946004
 10
49.044542109
 20
-29.0659565763
 10
49.0341215517
 20
-29.0520257867
 10
49.0243437844
 20
-29.0370876076
 10
49.0151926292
 20
-29.0209992115
 10
49.0066381977
 20
-29.003723609
 10
48.9987103784
 20
-28.9852977895
 10
48.9914826592
 20
-28.9656898937
 10
48.9849567876
 20
-28.9448534924
 10
48.9791310161
 20
-28.9228350148
 10
48.9740735905
 20
-28.8997418892
 10
48.9698037069
 20
-28.8755844524
 10
48.9663021692
 20
-28.8503523675
 10
48.9635796353
 20
-28.8241220525
 10
48.9616396578
 20
-28.7969189799
 10
48.9604786841
 20
-28.7687176772
 10
48.9600967142
 20
-28.7395181443
  0
LINE
  5
364
100
AcDbEntity
  8
0
100
AcDbLine
 62
7
  6
CONTINUOUS
 10
43.4962760109
 20
-47.9364485672
 11
43.1612547476
 21
-48.9364485672
  0
LINE
  5
365
100
AcDbEntity
  8
ASSI
100
AcDbLine
 62
7
  6
CONTINUOUS
 10
43.4962760109
 20
-47.9364485672
 11
43.1612547476
 21
-48.9364485672
  0
LINE
  5
366
100
AcDbEntity
  8
ASSI
100
AcDbLine
 62
7
  6
CONTINUOUS
 10
43.5246456734
 20
-25.3809286792
 11
42.9230912572
 21
-25.7055029236
  0
LINE
  5
367
100
AcDbEntity
  8
IMPORT_IGES
100
AcDbLine
 62
250
  6
CONTINUOUS
 10
70.6231495602
 20
-12.3364485624
 11
69.2617053095
 21
-13.0658249349
  0
LWPOLYLINE
  5
368
100
AcDbEntity
  8
IMPORT_IGES
100
AcDbPolyline
 62
7
  6
CONTINUOUS
 90
3
 70
0
 10
53.679938173
 20
-33.7425986555
 10
53.729481857
 20
-33.7599437492
 10
53.8618033498
 20
-33.8069924761
  0
LWPOLYLINE
  5
369
100
AcDbEntity
  8
IMPORT_IGES
100
AcDbPolyline
 62
7
  6
CONTINUOUS
 90
3
 70
0
 10
53.5230874972
 20
-33.6881114515
 10
53.5761688042
 20
-33.7067862462
 10
53.679938173
 20
-33.7425986555
  0
LINE
  5
36A
100
AcDbEntity
  8
IMPORT_IGES
100
AcDbLine
 62
7
  6
CONTINUOUS
 10
53.8618033498
 20
-33.8069924761
 11
53.9594177066
 21
-33.8421926348
  0
LWPOLYLINE
  5
36B
100
AcDbEntity
  8
IMPORT_IGES
100
AcDbPolyline
 62
7
  6
CONTINUOUS
 90
3
 70
0
 10
53.9594177066
 20
-33.8421926348
 10
54.0206147661
 20
-33.8645783077
 10
54.0230912572
 20
-33.8654731232
  0
LINE
  5
36C
100
AcDbEntity
  8
IMPORT_IGES
100
AcDbLine
 62
250
  6
CONTINUOUS
 10
61.6230912572
 20
-39.8864485672
 11
62.0230912572
 21
-40.1864485672
  0
LINE
  5
36D
100
AcDbEntity
  8
IMPORT_IGES
100
AcDbLine
 62
7
  6
CONTINUOUS
 10
62.3434406373
 20
-42.0571828365
 11
62.3826551453
 21
-42.0956087947
  0
LWPOLYLINE
  5
36E
100
AcDbEntity
  8
IMPORT_IGES
100
AcDbPolyline
 62
7
  6
CONTINUOUS
 90
6
 70
0
 10
62.3826551453
 20
-42.0956087947
 10
62.3980998379
 20
-42.1110124927
 10
62.4095958271
 20
-42.1228778505
 10
62.4172919831
 20
-42.1309397629
 10
62.4216919642
 20
-42.1354633351
 10
62.4230912572
 20
-42.1364485672
  0
LWPOLYLINE
  5
36F
100
AcDbEntity
  8
IMPORT_IGES
100
AcDbPolyline
 62
7
  6
CONTINUOUS
 90
3
 70
0
 10
62.0705011293
 20
-41.7838891387
 10
62.1520762339
 20
-41.8656272633
 10
62.2273756512
 20
-41.9403367363
  0
LWPOLYLINE
  5
370
100
AcDbEntity
  8
IMPORT_IGES
100
AcDbPolyline
 62
7
  6
CONTINUOUS
 90
3
 70
0
 10
61.9230912572
 20
-41.6364485672
 10
61.9748524872
 20
-41.6887161828
 10
62.0705011293
 20
-41.7838891387
  0
LINE
  5
371
100
AcDbEntity
  8
IMPORT_IGES
100
AcDbLine
 62
7
  6
CONTINUOUS
 10
62.2273756512
 20
-41.9403367363
 11
62.3434406373
 21
-42.0571828365
  0
LINE
  5
372
100
AcDbEntity
  8
0
100
AcDbLine
 62
7
  6
CONTINUOUS
 10
43.1612547476
 20
-4.5364485672
 11
43.4962760109
 21
-5.5364485672
  0
LINE
  5
373
100
AcDbEntity
  8
ASSI
100
AcDbLine
 62
7
  6
CONTINUOUS
 10
43.1612547476
 20
-4.5364485672
 11
43.4962760109
 21
-5.5364485672
  0
LINE
  5
374
100
AcDbEntity
  8
0
100
AcDbLine
 62
7
  6
CONTINUOUS
 10
51.2766042177
 20
-27.9864485672
 11
51.2766042177
 21
-28.9014063665
  0
LINE
  5
375
100
AcDbEntity
  8
IMPORT_IGES
100
AcDbLine
 62
7
  6
CONTINUOUS
 10
51.6035141767
 20
-22.1364485672
 11
51.6035141767
 21
-22.9663215208
  0
LINE
  5
376
100
AcDbEntity
  8
0
100
AcDbLine
 62
7
  6
CONTINUOUS
 10
51.7390871644
 20
-28.8801271569
 11
51.7390871644
 21
-27.9864485672
  0
LINE
  5
377
100
AcDbEntity
  8
IMPORT_IGES
100
AcDbLine
 62
7
  6
CONTINUOUS
 10
51.9406560594
 20
-27.9864485672
 11
51.9406560594
 21
-28.3568442016
  0
LINE
  5
378
100
AcDbEntity
  8
IMPORT_IGES
100
AcDbLine
 62
7
  6
CONTINUOUS
 10
52.0404173145
 20
-23.6364485672
 11
52.0404173145
 21
-22.1364485672
  0
LINE
  5
379
100
AcDbEntity
  8
IMPORT_IGES
100
AcDbLine
 62
7
  6
CONTINUOUS
 10
52.4133709298
 20
-28.3568442016
 11
52.4133709298
 21
-29.4864485672
  0
LINE
  5
37A
100
AcDbEntity
  8
IMPORT_IGES
100
AcDbLine
 62
7
  6
CONTINUOUS
 10
52.4230912572
 20
-42.8864485672
 11
52.4230912572
 21
-42.1364485672
  0
LINE
  5
37B
100
AcDbEntity
  8
RACCORDO
100
AcDbLine
 62
7
  6
CONTINUOUS
 10
52.5561264367
 20
-6.2364485672
 11
52.5561264367
 21
-6.7407929619
  0
LINE
  5
37C
100
AcDbEntity
  8
ASSI
100
AcDbLine
 62
7
  6
CONTINUOUS
 10
52.5561264367
 20
-6.2364485672
 11
52.5561264367
 21
-6.7407929619
  0
LINE
  5
37D
100
AcDbEntity
  8
RACCORDO
100
AcDbLine
 62
7
  6
CONTINUOUS
 10
52.5561264367
 20
-46.7321041725
 11
52.5561264367
 21
-47.2364485672
  0
LINE
  5
37E
100
AcDbEntity
  8
ASSI
100
AcDbLine
 62
7
  6
CONTINUOUS
 10
52.5561264367
 20
-46.7321041725
 11
52.5561264367
 21
-47.2364485672
  0
LINE
  5
37F
100
AcDbEntity
  8
IMPORT_IGES
100
AcDbLine
 62
7
  6
CONTINUOUS
 10
52.7230912572
 20
-39.8864485672
 11
52.7230912572
 21
-38.8993796017
  0
LINE
  5
380
100
AcDbEntity
  8
IMPORT_IGES
100
AcDbLine
 62
7
  6
CONTINUOUS
 10
52.8768770689
 20
-29.4864485672
 11
52.8768770689
 21
-28.3568442016
  0
LINE
  5
381
100
AcDbEntity
  8
IMPORT_IGES
100
AcDbLine
 62
250
  6
CONTINUOUS
 10
52.9230912572
 20
-41.6364485672
 11
52.9230912572
 21
-43.3864485672
  0
LINE
  5
382
100
AcDbEntity
  8
IMPORT_IGES
100
AcDbLine
 62
250
  6
CONTINUOUS
 10
53.2230912572
 20
-39.8864485672
 11
53.2230912572
 21
-38.8778278775
  0
LINE
  5
383
100
AcDbEntity
  8
IMPORT_IGES
100
AcDbLine
 62
7
  6
CONTINUOUS
 10
53.3495919393
 20
-28.3568442016
 11
53.3495919393
 21
-27.9864485672
  0
LWPOLYLINE
  5
384
100
AcDbEntity
  8
IMPORT_IGES
100
AcDbPolyline
 62
7
  6
CONTINUOUS
 90
52
 70
0
 10
51.2766042177
 20
-28.9014063665
 10
51.2760345823
 20
-28.9218418342
 10
51.2745669207
 20
-28.9413627126
 10
51.2722012327
 20
-28.9599690018
 10
51.2689031694
 20
-28.9776405862
 10
51.2647070799
 20
-28.9943975814
 10
51.2597160106
 20
-29.010300334
 10
51.2539286069
 20
-29.025361646
 10
51.2473462236
 20
-29.0395687155
 10
51.240075971
 20
-29.0529434833
 10
51.2321369512
 20
-29.0654697311
 10
51.2235100621
 20
-29.0771636772
 10
51.2142451083
 20
-29.0880959166
 10
51.2043764781
 20
-29.0982772381
 10
51.1938697832
 20
-29.107696853
 10
51.1826716635
 20
-29.1163929899
 10
51.170789929
 20
-29.1243891297
 10
51.1582167698
 20
-29.1316617915
 10
51.144875396
 20
-29.1381787619
 10
51.1307266166
 20
-29.1439411504
 10
51.1158096226
 20
-29.1489478474
 10
51.1001651982
 20
-29.1531633111
 10
51.0836982938
 20
-29.1565988992
 10
51.0665039589
 20
-29.159243254
 10
51.0489081261
 20
-29.1610267602
 10
51.0307652658
 20
-29.1619294411
 10
51.0122209076
 20
-29.1619712734
 10
50.9940375724
 20
-29.1611425715
 10
50.9763481158
 20
-29.1594188413
 10
50.9590196823
 20
-29.156824577
 10
50.942416226
 20
-29.1534235749
 10
50.9266377392
 20
-29.1492210445
 10
50.9115842297
 20
-29.1442117763
 10
50.8973196751
 20
-29.1384439388
 10
50.8839012634
 20
-29.1319239573
 10
50.8712718067
 20
-29.1246454064
 10
50.8593237186
 20
-29.1166371781
 10
50.8480333268
 20
-29.1079117905
 10
50.8374243036
 20
-29.0984567255
 10
50.8274600801
 20
-29.0882633204
 10
50.8181202927
 20
-29.0773657765
 10
50.809425305
 20
-29.0657298924
 10
50.801399638
 20
-29.0532444013
 10
50.7940075654
 20
-29.0398766059
 10
50.7872848135
 20
-29.0256592035
 10
50.7813630822
 20
-29.0105790184
 10
50.7762467412
 20
-28.9946519091
 10
50.7719314209
 20
-28.9778620171
 10
50.768535712
 20
-28.9601485913
 10
50.7660991449
 20
-28.9414913814
 10
50.7645821893
 20
-28.9219106378
 10
50.7639848452
 20
-28.9014063605
  0
LINE
  5
385
100
AcDbEntity
  8
IMPORT_IGES
100
AcDbLine
 62
250
  6
CONTINUOUS
 10
69.7600946818
 20
-13.5653611043
 11
71.1230912572
 21
-12.8357995729
  0
LINE
  5
386
100
AcDbEntity
  8
ASSI
100
AcDbLine
 62
7
  6
CONTINUOUS
 10
71.9230912572
 20
-27.5182546158
 11
71.3215368411
 21
-27.6878737405
  0
LINE
  5
387
100
AcDbEntity
  8
ASSI
100
AcDbLine
 62
7
  6
CONTINUOUS
 10
43.5246456734
 20
-27.6878737405
 11
42.9230912572
 21
-27.5182546158
  0
LINE
  5
388
100
AcDbEntity
  8
IMPORT_IGES
100
AcDbLine
 62
250
  6
CONTINUOUS
 10
69.2617053095
 20
-38.4070721994
 11
70.6231495602
 21
-39.1364485718
  0
LINE
  5
389
100
AcDbEntity
  8
IMPORT_IGES
100
AcDbLine
 62
250
  6
CONTINUOUS
 10
53.5230912572
 20
-38.8778278775
 11
53.5230837371
 21
-33.6880963515
  0
LINE
  5
38A
100
AcDbEntity
  8
RACCORDO
100
AcDbLine
 62
7
  6
CONTINUOUS
 10
53.5561264367
 20
-47.6364485672
 11
53.5561264367
 21
-46.7321041725
  0
LINE
  5
38B
100
AcDbEntity
  8
ASSI
100
AcDbLine
 62
7
  6
CONTINUOUS
 10
53.5561264367
 20
-47.6364485672
 11
53.5561264367
 21
-46.7321041725
  0
LINE
  5
38C
100
AcDbEntity
  8
RACCORDO
100
AcDbLine
 62
7
  6
CONTINUOUS
 10
53.5561264367
 20
-6.7407929619
 11
53.5561264367
 21
-5.8364485672
  0
LINE
  5
38D
100
AcDbEntity
  8
ASSI
100
AcDbLine
 62
7
  6
CONTINUOUS
 10
53.5561264367
 20
-6.7407929619
 11
53.5561264367
 21
-5.8364485672
  0
LINE
  5
38E
100
AcDbEntity
  8
DRAFT
100
AcDbLine
 62
7
  6
CONTINUOUS
 10
53.6309156937
 20
-5.8364485672
 11
53.6309156937
 21
-5.9033665855
  0
LINE
  5
38F
100
AcDbEntity
  8
ASSI
100
AcDbLine
 62
7
  6
CONTINUOUS
 10
53.6309156937
 20
-5.8364485672
 11
53.6309156937
 21
-5.9033665855
  0
LINE
  5
390
100
AcDbEntity
  8
DRAFT
100
AcDbLine
 62
7
  6
CONTINUOUS
 10
53.6309156937
 20
-47.5695305488
 11
53.6309156937
 21
-47.6364485672
  0
LINE
  5
391
100
AcDbEntity
  8
ASSI
100
AcDbLine
 62
7
  6
CONTINUOUS
 10
53.6309156937
 20
-47.5695305488
 11
53.6309156937
 21
-47.6364485672
  0
LINE
  5
392
100
AcDbEntity
  8
IMPORT_IGES
100
AcDbLine
 62
7
  6
CONTINUOUS
 10
54.0230912572
 20
-33.8654731232
 11
54.0230912572
 21
-39.6074240112
  0
LINE
  5
393
100
AcDbEntity
  8
IMPORT_IGES
100
AcDbLine
 62
7
  6
CONTINUOUS
 10
54.7230912572
 20
-34.1340458312
 11
54.7230912572
 21
-39.3388513031
  0
LWPOLYLINE
  5
394
100
AcDbEntity
  8
IMPORT_IGES
100
AcDbPolyline
 62
250
  6
CONTINUOUS
 90
16
 70
0
 10
54.0230912572
 20
-37.90753603
 10
54.0203521863
 20
-37.9597519546
 10
54.0121649767
 20
-38.0113958198
 10
53.9986193194
 20
-38.0619017984
 10
53.9798636062
 20
-38.1107165471
 10
53.9561033254
 20
-38.1573052114
 10
53.9275988297
 20
-38.2011572949
 10
53.8946624276
 20
-38.2417923485
 10
53.8576549905
 20
-38.2787651617
 10
53.8169820535
 20
-38.3116706086
 10
53.7730892596
 20
-38.3401481951
 10
53.7264575277
 20
-38.3638859408
 10
53.6775978597
 20
-38.3826237741
 10
53.6270456163
 20
-38.3961564512
 10
53.5753546381
 20
-38.4043357774
 10
53.5230912572
 20
-38.4070721994
  0
LINE
  5
395
100
AcDbEntity
  8
DRAFT
100
AcDbLine
 62
7
  6
CONTINUOUS
 10
74.9151518345
 20
-6.3774231694
 11
75.0561264367
 21
-6.2364485672
  0
LINE
  5
396
100
AcDbEntity
  8
ASSI
100
AcDbLine
 62
7
  6
CONTINUOUS
 10
74.9151518345
 20
-6.3774231694
 11
75.0561264367
 21
-6.2364485672
  0
LWPOLYLINE
  5
397
100
AcDbEntity
  8
ASSI
100
AcDbPolyline
 62
250
  6
CONTINUOUS
 90
4
 70
0
 10
72.7230912572
 20
-27.3182589541
 10
72.7213802295
 20
-27.3184412016
 10
72.7162764225
 20
-27.3186203308
 10
72.7078671637
 20
-27.3187932767
  0
LWPOLYLINE
  5
398
100
AcDbEntity
  8
0
100
AcDbPolyline
 62
250
  6
CONTINUOUS
 90
4
 70
0
 10
72.7230912572
 20
-27.3182589541
 10
72.7213802295
 20
-27.3184412016
 10
72.7162764225
 20
-27.3186203308
 10
72.7078671637
 20
-27.3187932767
  0
LINE
  5
399
100
AcDbEntity
  8
IMPORT_IGES
100
AcDbLine
 62
7
  6
CONTINUOUS
 10
44.1012521768
 20
-30.7364485672
 11
44.7230912572
 21
-30.7364485672
  0
LINE
  5
39A
100
AcDbEntity
  8
IMPORT_IGES
100
AcDbLine
 62
7
  6
CONTINUOUS
 10
70.1230912572
 20
-30.7364485672
 11
70.7449303377
 21
-30.7364485672
  0
LINE
  5
39B
100
AcDbEntity
  8
IMPORT_IGES
100
AcDbLine
 62
7
  6
CONTINUOUS
 10
46.2109493745
 20
-29.6364485672
 11
47.6352331399
 21
-29.6364485672
  0
LINE
  5
39C
100
AcDbEntity
  8
IMPORT_IGES
100
AcDbLine
 62
7
  6
CONTINUOUS
 10
61.4223818438
 20
-29.6364485672
 11
61.9454377784
 21
-29.6364485672
  0
LINE
  5
39D
100
AcDbEntity
  8
IMPORT_IGES
100
AcDbLine
 62
7
  6
CONTINUOUS
 10
62.6195169052
 20
-29.6364485672
 11
63.1438006706
 21
-29.6364485672
  0
LINE
  5
39E
100
AcDbEntity
  8
IMPORT_IGES
100
AcDbLine
 62
7
  6
CONTINUOUS
 10
67.7733709298
 20
-29.6364485672
 11
68.2368770689
 21
-29.6364485672
  0
LINE
  5
39F
100
AcDbEntity
  8
IMPORT_IGES
100
AcDbLine
 62
7
  6
CONTINUOUS
 10
52.4133709298
 20
-29.4864485672
 11
52.8768770689
 21
-29.4864485672
  0
LINE
  5
3A0
100
AcDbEntity
  8
IMPORT_IGES
100
AcDbLine
 62
7
  6
CONTINUOUS
 10
47.6352331399
 20
-29.1932016368
 11
46.7671567415
 21
-29.1932016368
  0
LINE
  5
3A1
100
AcDbEntity
  8
DRAFT
100
AcDbLine
 62
7
  6
CONTINUOUS
 10
72.6607591534
 20
-29.148780671
 11
71.6230912572
 21
-29.148780671
  0
LINE
  5
3A2
100
AcDbEntity
  8
ASSI
100
AcDbLine
 62
7
  6
CONTINUOUS
 10
72.6607591534
 20
-29.148780671
 11
71.6230912572
 21
-29.148780671
  0
LINE
  5
3A3
100
AcDbEntity
  8
DRAFT
100
AcDbLine
 62
7
  6
CONTINUOUS
 10
42.185423361
 20
-29.148780671
 11
43.2230912572
 21
-29.148780671
  0
LINE
  5
3A4
100
AcDbEntity
  8
ASSI
100
AcDbLine
 62
7
  6
CONTINUOUS
 10
42.185423361
 20
-29.148780671
 11
43.2230912572
 21
-29.148780671
  0
LINE
  5
3A5
100
AcDbEntity
  8
DRAFT
100
AcDbLine
 62
7
  6
CONTINUOUS
 10
71.6230912572
 20
-29.1225980736
 11
71.1230912572
 21
-29.1225980736
  0
LINE
  5
3A6
100
AcDbEntity
  8
ASSI
100
AcDbLine
 62
7
  6
CONTINUOUS
 10
71.6230912572
 20
-29.1225980736
 11
71.1230912572
 21
-29.1225980736
  0
LINE
  5
3A7
100
AcDbEntity
  8
DRAFT
100
AcDbLine
 62
7
  6
CONTINUOUS
 10
43.2230912572
 20
-29.1225980736
 11
43.7230806681
 21
-29.1225980736
  0
LINE
  5
3A8
100
AcDbEntity
  8
ASSI
100
AcDbLine
 62
7
  6
CONTINUOUS
 10
43.2230912572
 20
-29.1225980736
 11
43.7230806681
 21
-29.1225980736
  0
LINE
  5
3A9
100
AcDbEntity
  8
DRAFT
100
AcDbLine
 62
7
  6
CONTINUOUS
 10
42.4230912572
 20
-28.9602659698
 11
42.0492738546
 21
-28.9602659698
  0
LINE
  5
3AA
100
AcDbEntity
  8
ASSI
100
AcDbLine
 62
7
  6
CONTINUOUS
 10
42.4230912572
 20
-28.9602659698
 11
42.0492738546
 21
-28.9602659698
  0
LINE
  5
3AB
100
AcDbEntity
  8
DRAFT
100
AcDbLine
 62
7
  6
CONTINUOUS
 10
72.4230912572
 20
-28.9602659698
 11
72.7969086598
 21
-28.9602659698
  0
LINE
  5
3AC
100
AcDbEntity
  8
ASSI
100
AcDbLine
 62
7
  6
CONTINUOUS
 10
72.4230912572
 20
-28.9602659698
 11
72.7969086598
 21
-28.9602659698
  0
LINE
  5
3AD
100
AcDbEntity
  8
DRAFT
100
AcDbLine
 62
7
  6
CONTINUOUS
 10
72.3892593123
 20
-28.8925969263
 11
71.1230912572
 21
-28.8925969263
  0
LINE
  5
3AE
100
AcDbEntity
  8
ASSI
100
AcDbLine
 62
7
  6
CONTINUOUS
 10
72.3892593123
 20
-28.8925969263
 11
71.1230912572
 21
-28.8925969263
  0
LINE
  5
3AF
100
AcDbEntity
  8
DRAFT
100
AcDbLine
 62
7
  6
CONTINUOUS
 10
43.7230808176
 20
-28.8925969263
 11
42.4569232022
 21
-28.8925969263
  0
LINE
  5
3B0
100
AcDbEntity
  8
ASSI
100
AcDbLine
 62
7
  6
CONTINUOUS
 10
43.7230808176
 20
-28.8925969263
 11
42.4569232022
 21
-28.8925969263
  0
LWPOLYLINE
  5
3B1
100
AcDbEntity
  8
ASSI
100
AcDbPolyline
 62
250
  6
CONTINUOUS
 90
5
 70
0
 10
42.1230912572
 20
-27.3182589541
 10
42.1248022849
 20
-27.3184412016
 10
42.129906092
 20
-27.3186203308
 10
42.1383153507
 20
-27.3187932767
 10
42.1644205892
 20
-27.3191089385
  0
LWPOLYLINE
  5
3B2
100
AcDbEntity
  8
0
100
AcDbPolyline
 62
250
  6
CONTINUOUS
 90
5
 70
0
 10
42.1230912572
 20
-27.3182589541
 10
42.1248022849
 20
-27.3184412016
 10
42.129906092
 20
-27.3186203308
 10
42.1383153507
 20
-27.3187932767
 10
42.1644205892
 20
-27.3191089385
  0
LINE
  5
3B3
100
AcDbEntity
  8
IMPORT_IGES
100
AcDbLine
 62
250
  6
CONTINUOUS
 10
71.1230912572
 20
-38.6377127669
 11
69.7600946818
 21
-37.90753603
  0
LINE
  5
3B4
100
AcDbEntity
  8
DRAFT
100
AcDbLine
 62
7
  6
CONTINUOUS
 10
74.9151518345
 20
-47.095473965
 11
75.0561264367
 21
-47.2364485672
  0
LINE
  5
3B5
100
AcDbEntity
  8
ASSI
100
AcDbLine
 62
7
  6
CONTINUOUS
 10
74.9151518345
 20
-47.095473965
 11
75.0561264367
 21
-47.2364485672
  0
LINE
  5
3B6
100
AcDbEntity
  8
IMPORT_IGES
100
AcDbLine
 62
7
  6
CONTINUOUS
 10
51.041781571
 20
-22.8128426668
 11
51.6035141767
 21
-23.6364485672
  0
LINE
  5
3B7
100
AcDbEntity
  8
IMPORT_IGES
100
AcDbLine
 62
7
  6
CONTINUOUS
 10
51.6035141767
 20
-22.9663215208
 11
51.0387119939
 21
-22.1364485672
  0
LINE
  5
3B8
100
AcDbEntity
  8
DRAFT
100
AcDbLine
 62
7
  6
CONTINUOUS
 10
56.6619901195
 20
-36.5834560014
 11
56.6730912572
 21
-36.6504057906
  0
LINE
  5
3B9
100
AcDbEntity
  8
DRAFT
100
AcDbLine
 62
7
  6
CONTINUOUS
 10
56.6399266339
 20
-37.0644718908
 11
56.6632090973
 21
-37.251353942
  0
LINE
  5
3BA
100
AcDbEntity
  8
0
100
AcDbLine
 62
7
  6
CONTINUOUS
 10
56.6399266339
 20
-36.3448901364
 11
56.6724451953
 21
-36.6086202623
  0
LINE
  5
3BB
100
AcDbEntity
  8
DRAFT
100
AcDbLine
 62
7
  6
CONTINUOUS
 10
55.4944002723
 20
-38.686827259
 11
55.5195453505
 21
-38.8994854186
  0
LINE
  5
3BC
100
AcDbEntity
  8
DRAFT
100
AcDbLine
 62
7
  6
CONTINUOUS
 10
56.6632090973
 20
-37.251353942
 11
56.6619901195
 21
-36.5834560014
  0
LINE
  5
3BD
100
AcDbEntity
  8
DRAFT
100
AcDbLine
 62
7
  6
CONTINUOUS
 10
56.6399266339
 20
-37.0644718908
 11
56.6399266339
 21
-36.3448901364
  0
LINE
  5
3BE
100
AcDbEntity
  8
0
100
AcDbLine
 62
7
  6
CONTINUOUS
 10
56.6730912572
 20
-36.6511744053
 11
56.6730912572
 21
-36.791534689
  0
LWPOLYLINE
  5
3BF
100
AcDbEntity
  8
DRAFT
100
AcDbPolyline
 62
7
  6
CONTINUOUS
 90
25
 70
0
 10
55.4944002723
 20
-38.686827259
 10
55.5023670555
 20
-38.6002118384
 10
55.514199078
 20
-38.5143882516
 10
55.5298963397
 20
-38.4293564984
 10
55.5495066208
 20
-38.3449463199
 10
55.5729821411
 20
-38.261327975
 10
55.6001795608
 20
-38.1790122409
 10
55.6311218677
 20
-38.0980067079
 10
55.665786074
 20
-38.0183037856
 10
55.7039598757
 20
-37.94039148
 10
55.7456641092
 20
-37.864281709
 10
55.7908779381
 20
-37.7899625546
 10
55.8393265491
 20
-37.7178862684
 10
55.8910287686
 20
-37.6480667995
 10
55.9459657702
 20
-37.5804901988
 10
56.0038062617
 20
-37.5155668708
 10
56.0645666701
 20
-37.4533128173
 10
56.1282305685
 20
-37.3937120365
 10
56.1944173836
 20
-37.3371269266
 10
56.2631421742
 20
-37.2835745192
 10
56.3343898816
 20
-37.2330377827
 10
56.4077347562
 20
-37.1858280213
 10
56.4830348815
 20
-37.1420490028
 10
56.5604321741
 20
-37.1015969593
 10
56.6399266339
 20
-37.0644718908
  0
LINE
  5
3C0
100
AcDbEntity
  8
RACCORDO
100
AcDbLine
 62
7
  6
CONTINUOUS
 10
75.0518010805
 20
-7.2407739234
 11
74.9148037829
 21
-7.377771221
  0
LINE
  5
3C1
100
AcDbEntity
  8
ASSI
100
AcDbLine
 62
7
  6
CONTINUOUS
 10
75.0518010805
 20
-7.2407739234
 11
74.9148037829
 21
-7.377771221
  0
LINE
  5
3C2
100
AcDbEntity
  8
RACCORDO
100
AcDbLine
 62
250
  6
CONTINUOUS
 10
39.1792381423
 20
-44.3803207205
 11
39.106024747
 21
-44.4535341159
  0
LINE
  5
3C3
100
AcDbEntity
  8
ASSI
100
AcDbLine
 62
250
  6
CONTINUOUS
 10
39.1792381423
 20
-44.3803207205
 11
39.106024747
 21
-44.4535341159
  0
LINE
  5
3C4
100
AcDbEntity
  8
RACCORDO
100
AcDbLine
 62
250
  6
CONTINUOUS
 10
75.1669634106
 20
-8.5925954523
 11
75.2400194917
 21
-8.5195393711
  0
LINE
  5
3C5
100
AcDbEntity
  8
ASSI
100
AcDbLine
 62
250
  6
CONTINUOUS
 10
75.1669634106
 20
-8.5925954523
 11
75.2400194917
 21
-8.5195393711
  0
LINE
  5
3C6
100
AcDbEntity
  8
RACCORDO
100
AcDbLine
 62
250
  6
CONTINUOUS
 10
39.6792191039
 20
-44.8803016821
 11
39.6061630227
 21
-44.9533577632
  0
LINE
  5
3C7
100
AcDbEntity
  8
ASSI
100
AcDbLine
 62
250
  6
CONTINUOUS
 10
39.6792191039
 20
-44.8803016821
 11
39.6061630227
 21
-44.9533577632
  0
LINE
  5
3C8
100
AcDbEntity
  8
ASSI
100
AcDbLine
 62
250
  6
CONTINUOUS
 10
72.7078671637
 20
-27.3187932767
 11
72.6817619252
 21
-27.3191089385
  0
LINE
  5
3C9
100
AcDbEntity
  8
0
100
AcDbLine
 62
250
  6
CONTINUOUS
 10
72.7078671637
 20
-27.3187932767
 11
72.6817619252
 21
-27.3191089385
  0
LINE
  5
3CA
100
AcDbEntity
  8
ASSI
100
AcDbLine
 62
250
  6
CONTINUOUS
 10
72.6817619252
 20
-27.3191089385
 11
72.6230912572
 21
-27.3194681439
  0
LINE
  5
3CB
100
AcDbEntity
  8
0
100
AcDbLine
 62
250
  6
CONTINUOUS
 10
72.6817619252
 20
-27.3191089385
 11
72.6230912572
 21
-27.3194681439
  0
LINE
  5
3CC
100
AcDbEntity
  8
IMPORT_IGES
100
AcDbLine
 62
7
  6
CONTINUOUS
 10
67.3006560594
 20
-28.5068442016
 11
67.7733709298
 21
-28.5068442016
  0
LINE
  5
3CD
100
AcDbEntity
  8
IMPORT_IGES
100
AcDbLine
 62
7
  6
CONTINUOUS
 10
68.2368770689
 20
-28.5068442016
 11
68.7095919393
 21
-28.5068442016
  0
LINE
  5
3CE
100
AcDbEntity
  8
IMPORT_IGES
100
AcDbLine
 62
7
  6
CONTINUOUS
 10
51.9406560594
 20
-28.3568442016
 11
52.4133709298
 21
-28.3568442016
  0
LINE
  5
3CF
100
AcDbEntity
  8
IMPORT_IGES
100
AcDbLine
 62
7
  6
CONTINUOUS
 10
52.8768770689
 20
-28.3568442016
 11
53.3495919393
 21
-28.3568442016
  0
LINE
  5
3D0
100
AcDbEntity
  8
IMPORT_IGES
100
AcDbLine
 62
7
  6
CONTINUOUS
 10
68.7095919393
 20
-28.1364485672
 11
67.3006560594
 21
-28.1364485672
  0
LINE
  5
3D1
100
AcDbEntity
  8
IMPORT_IGES
100
AcDbLine
 62
7
  6
CONTINUOUS
 10
67.0990871644
 20
-28.1364485672
 11
66.6366042177
 21
-28.1364485672
  0
LINE
  5
3D2
100
AcDbEntity
  8
IMPORT_IGES
100
AcDbLine
 62
7
  6
CONTINUOUS
 10
66.1239848452
 20
-28.1364485672
 11
65.6615018984
 21
-28.1364485672
  0
LINE
  5
3D3
100
AcDbEntity
  8
IMPORT_IGES
100
AcDbLine
 62
7
  6
CONTINUOUS
 10
53.3495919393
 20
-27.9864485672
 11
51.9406560594
 21
-27.9864485672
  0
LINE
  5
3D4
100
AcDbEntity
  8
IMPORT_IGES
100
AcDbLine
 62
7
  6
CONTINUOUS
 10
51.7390871644
 20
-27.9864485672
 11
51.2766042177
 21
-27.9864485672
  0
LINE
  5
3D5
100
AcDbEntity
  8
IMPORT_IGES
100
AcDbLine
 62
7
  6
CONTINUOUS
 10
50.7639848452
 20
-27.9864485672
 11
50.3015018984
 21
-27.9864485672
  0
LINE
  5
3D6
100
AcDbEntity
  8
IMPORT_IGES
100
AcDbLine
 62
7
  6
CONTINUOUS
 10
63.1438006706
 20
-27.8364485672
 11
62.6195169052
 21
-27.8364485672
  0
LINE
  5
3D7
100
AcDbEntity
  8
IMPORT_IGES
100
AcDbLine
 62
7
  6
CONTINUOUS
 10
61.9417542859
 20
-27.8364485672
 11
61.4223818438
 21
-27.8364485672
  0
LINE
  5
3D8
100
AcDbEntity
  8
IMPORT_IGES
100
AcDbLine
 62
7
  6
CONTINUOUS
 10
46.7671567415
 20
-27.8364485672
 11
46.2109493745
 21
-27.8364485672
  0
LINE
  5
3D9
100
AcDbEntity
  8
DRAFT
100
AcDbLine
 62
7
  6
CONTINUOUS
 10
43.5246456734
 20
-27.6878737405
 11
43.7230816008
 21
-27.6878737405
  0
LINE
  5
3DA
100
AcDbEntity
  8
DRAFT
100
AcDbLine
 62
7
  6
CONTINUOUS
 10
71.1230912572
 20
-27.6878737405
 11
71.3215368411
 21
-27.6878737405
  0
LINE
  5
3DB
100
AcDbEntity
  8
ASSI
100
AcDbLine
 62
250
  6
CONTINUOUS
 10
72.3771148174
 20
-27.3196552062
 11
72.6230912572
 21
-27.3194681439
  0
LINE
  5
3DC
100
AcDbEntity
  8
0
100
AcDbLine
 62
250
  6
CONTINUOUS
 10
72.3771148174
 20
-27.3196552062
 11
72.6230912572
 21
-27.3194681439
  0
LINE
  5
3DD
100
AcDbEntity
  8
DRAFT
100
AcDbLine
 62
250
  6
CONTINUOUS
 10
72.3754257542
 20
-27.1008895937
 11
71.9230912572
 21
-27.1008895937
  0
LINE
  5
3DE
100
AcDbEntity
  8
ASSI
100
AcDbLine
 62
250
  6
CONTINUOUS
 10
72.3754257542
 20
-27.1008895937
 11
71.9230912572
 21
-27.1008895937
  0
LINE
  5
3DF
100
AcDbEntity
  8
DRAFT
100
AcDbLine
 62
250
  6
CONTINUOUS
 10
42.9230912572
 20
-27.1008895937
 11
42.4707567602
 21
-27.1008895937
  0
LINE
  5
3E0
100
AcDbEntity
  8
ASSI
100
AcDbLine
 62
250
  6
CONTINUOUS
 10
42.9230912572
 20
-27.1008895937
 11
42.4707567602
 21
-27.1008895937
  0
LINE
  5
3E1
100
AcDbEntity
  8
ASSI
100
AcDbLine
 62
250
  6
CONTINUOUS
 10
42.3230912572
 20
-26.8362379525
 11
42.4718818546
 21
-26.8362379525
  0
LINE
  5
3E2
100
AcDbEntity
  8
0
100
AcDbLine
 62
250
  6
CONTINUOUS
 10
42.3230912572
 20
-26.8362379525
 11
42.4718818546
 21
-26.8362379525
  0
LINE
  5
3E3
100
AcDbEntity
  8
ASSI
100
AcDbLine
 62
250
  6
CONTINUOUS
 10
72.3743006598
 20
-26.8362379525
 11
72.5230912572
 21
-26.8362379525
  0
LINE
  5
3E4
100
AcDbEntity
  8
0
100
AcDbLine
 62
250
  6
CONTINUOUS
 10
72.3743006598
 20
-26.8362379525
 11
72.5230912572
 21
-26.8362379525
  0
LINE
  5
3E5
100
AcDbEntity
  8
ASSI
100
AcDbLine
 62
250
  6
CONTINUOUS
 10
42.2230912572
 20
-27.3194681439
 11
42.4690676971
 21
-27.3196552062
  0
LINE
  5
3E6
100
AcDbEntity
  8
0
100
AcDbLine
 62
250
  6
CONTINUOUS
 10
42.2230912572
 20
-27.3194681439
 11
42.4690676971
 21
-27.3196552062
  0
LINE
  5
3E7
100
AcDbEntity
  8
ASSI
100
AcDbLine
 62
250
  6
CONTINUOUS
 10
42.1644205892
 20
-27.3191089385
 11
42.2230912572
 21
-27.3194681439
  0
LINE
  5
3E8
100
AcDbEntity
  8
0
100
AcDbLine
 62
250
  6
CONTINUOUS
 10
42.1644205892
 20
-27.3191089385
 11
42.2230912572
 21
-27.3194681439
  0
LINE
  5
3E9
100
AcDbEntity
  8
RACCORDO
100
AcDbLine
 62
7
  6
CONTINUOUS
 10
75.0518010805
 20
-46.2321232109
 11
74.9148037829
 21
-46.0951259134
  0
LINE
  5
3EA
100
AcDbEntity
  8
ASSI
100
AcDbLine
 62
7
  6
CONTINUOUS
 10
75.0518010805
 20
-46.2321232109
 11
74.9148037829
 21
-46.0951259134
  0
LINE
  5
3EB
100
AcDbEntity
  8
RACCORDO
100
AcDbLine
 62
250
  6
CONTINUOUS
 10
39.1792381423
 20
-9.0925764138
 11
39.106024747
 21
-9.0193630185
  0
LINE
  5
3EC
100
AcDbEntity
  8
ASSI
100
AcDbLine
 62
250
  6
CONTINUOUS
 10
39.1792381423
 20
-9.0925764138
 11
39.106024747
 21
-9.0193630185
  0
LINE
  5
3ED
100
AcDbEntity
  8
RACCORDO
100
AcDbLine
 62
250
  6
CONTINUOUS
 10
75.1669634106
 20
-44.8803016821
 11
75.2400194917
 21
-44.9533577632
  0
LINE
  5
3EE
100
AcDbEntity
  8
ASSI
100
AcDbLine
 62
250
  6
CONTINUOUS
 10
75.1669634106
 20
-44.8803016821
 11
75.2400194917
 21
-44.9533577632
  0
LINE
  5
3EF
100
AcDbEntity
  8
RACCORDO
100
AcDbLine
 62
250
  6
CONTINUOUS
 10
39.6792191039
 20
-8.5925954523
 11
39.6061630227
 21
-8.5195393711
  0
LINE
  5
3F0
100
AcDbEntity
  8
ASSI
100
AcDbLine
 62
250
  6
CONTINUOUS
 10
39.6792191039
 20
-8.5925954523
 11
39.6061630227
 21
-8.5195393711
  0
LINE
  5
3F1
100
AcDbEntity
  8
0
100
AcDbLine
 62
7
  6
CONTINUOUS
 10
58.1730912572
 20
-36.791534881
 11
58.1730912572
 21
-36.6511744053
  0
LINE
  5
3F2
100
AcDbEntity
  8
0
100
AcDbLine
 62
7
  6
CONTINUOUS
 10
58.1730912572
 20
-36.6148827134
 11
58.1730912572
 21
-36.608651301
  0
LINE
  5
3F3
100
AcDbEntity
  8
DRAFT
100
AcDbLine
 62
7
  6
CONTINUOUS
 10
58.2062558806
 20
-36.3448901364
 11
58.2062558806
 21
-37.0644718908
  0
LINE
  5
3F4
100
AcDbEntity
  8
DRAFT
100
AcDbLine
 62
7
  6
CONTINUOUS
 10
58.184192395
 20
-36.5834560014
 11
58.1829734172
 21
-37.251353942
  0
LINE
  5
3F5
100
AcDbEntity
  8
0
100
AcDbLine
 62
7
  6
CONTINUOUS
 10
58.2062558806
 20
-36.3448901364
 11
58.1737371665
 21
-36.6086215009
  0
LINE
  5
3F6
100
AcDbEntity
  8
DRAFT
100
AcDbLine
 62
7
  6
CONTINUOUS
 10
58.2062558806
 20
-37.0644718908
 11
58.1829734172
 21
-37.251353942
  0
LINE
  5
3F7
100
AcDbEntity
  8
DRAFT
100
AcDbLine
 62
7
  6
CONTINUOUS
 10
58.184192395
 20
-36.5834560014
 11
58.1730912572
 21
-36.6504057906
  0
LINE
  5
3F8
100
AcDbEntity
  8
RACCORDO
100
AcDbLine
 62
250
  6
CONTINUOUS
 10
75.6669443721
 20
-9.0925764138
 11
75.7401577674
 21
-9.0193630185
  0
LINE
  5
3F9
100
AcDbEntity
  8
ASSI
100
AcDbLine
 62
250
  6
CONTINUOUS
 10
75.6669443721
 20
-9.0925764138
 11
75.7401577674
 21
-9.0193630185
  0
LINE
  5
3FA
100
AcDbEntity
  8
RACCORDO
100
AcDbLine
 62
7
  6
CONTINUOUS
 10
39.794381434
 20
-46.2321232109
 11
39.9313787315
 21
-46.0951259134
  0
LINE
  5
3FB
100
AcDbEntity
  8
ASSI
100
AcDbLine
 62
7
  6
CONTINUOUS
 10
39.794381434
 20
-46.2321232109
 11
39.9313787315
 21
-46.0951259134
  0
LINE
  5
3FC
100
AcDbEntity
  8
DRAFT
100
AcDbLine
 62
7
  6
CONTINUOUS
 10
39.93103068
 20
-47.095473965
 11
39.7900560777
 21
-47.2364485672
  0
LINE
  5
3FD
100
AcDbEntity
  8
ASSI
100
AcDbLine
 62
7
  6
CONTINUOUS
 10
39.93103068
 20
-47.095473965
 11
39.7900560777
 21
-47.2364485672
  0
LINE
  5
3FE
100
AcDbEntity
  8
DRAFT
100
AcDbLine
 62
250
  6
CONTINUOUS
 10
72.3754257542
 20
-26.3720075407
 11
71.9230912572
 21
-26.3720075407
  0
LINE
  5
3FF
100
AcDbEntity
  8
ASSI
100
AcDbLine
 62
250
  6
CONTINUOUS
 10
72.3754257542
 20
-26.3720075407
 11
71.9230912572
 21
-26.3720075407
  0
LINE
  5
400
100
AcDbEntity
  8
DRAFT
100
AcDbLine
 62
250
  6
CONTINUOUS
 10
42.9230912572
 20
-26.3720075407
 11
42.4707567602
 21
-26.3720075407
  0
LINE
  5
401
100
AcDbEntity
  8
ASSI
100
AcDbLine
 62
250
  6
CONTINUOUS
 10
42.9230912572
 20
-26.3720075407
 11
42.4707567602
 21
-26.3720075407
  0
LINE
  5
402
100
AcDbEntity
  8
DRAFT
100
AcDbLine
 62
7
  6
CONTINUOUS
 10
43.5246456734
 20
-25.3809286792
 11
43.7230831007
 21
-25.3809286792
  0
LINE
  5
403
100
AcDbEntity
  8
DRAFT
100
AcDbLine
 62
7
  6
CONTINUOUS
 10
71.1230912572
 20
-25.3809286792
 11
71.3215368411
 21
-25.3809286792
  0
LINE
  5
404
100
AcDbEntity
  8
DRAFT
100
AcDbLine
 62
7
  6
CONTINUOUS
 10
72.3892593123
 20
-24.580300208
 11
71.1230912572
 21
-24.580300208
  0
LINE
  5
405
100
AcDbEntity
  8
ASSI
100
AcDbLine
 62
7
  6
CONTINUOUS
 10
72.3892593123
 20
-24.580300208
 11
71.1230912572
 21
-24.580300208
  0
LINE
  5
406
100
AcDbEntity
  8
DRAFT
100
AcDbLine
 62
7
  6
CONTINUOUS
 10
43.7230836212
 20
-24.580300208
 11
42.4569232022
 21
-24.580300208
  0
LINE
  5
407
100
AcDbEntity
  8
ASSI
100
AcDbLine
 62
7
  6
CONTINUOUS
 10
43.7230836212
 20
-24.580300208
 11
42.4569232022
 21
-24.580300208
  0
LINE
  5
408
100
AcDbEntity
  8
DRAFT
100
AcDbLine
 62
7
  6
CONTINUOUS
 10
42.4230912572
 20
-24.5126311646
 11
42.0492738546
 21
-24.5126311646
  0
LINE
  5
409
100
AcDbEntity
  8
ASSI
100
AcDbLine
 62
7
  6
CONTINUOUS
 10
42.4230912572
 20
-24.5126311646
 11
42.0492738546
 21
-24.5126311646
  0
LINE
  5
40A
100
AcDbEntity
  8
DRAFT
100
AcDbLine
 62
7
  6
CONTINUOUS
 10
72.4230912572
 20
-24.5126311646
 11
72.7969086598
 21
-24.5126311646
  0
LINE
  5
40B
100
AcDbEntity
  8
ASSI
100
AcDbLine
 62
7
  6
CONTINUOUS
 10
72.4230912572
 20
-24.5126311646
 11
72.7969086598
 21
-24.5126311646
  0
LINE
  5
40C
100
AcDbEntity
  8
DRAFT
100
AcDbLine
 62
7
  6
CONTINUOUS
 10
71.6230912572
 20
-24.3502990607
 11
71.1230912572
 21
-24.3502990607
  0
LINE
  5
40D
100
AcDbEntity
  8
ASSI
100
AcDbLine
 62
7
  6
CONTINUOUS
 10
71.6230912572
 20
-24.3502990607
 11
71.1230912572
 21
-24.3502990607
  0
LINE
  5
40E
100
AcDbEntity
  8
DRAFT
100
AcDbLine
 62
7
  6
CONTINUOUS
 10
43.2230912572
 20
-24.3502990607
 11
43.7230837707
 21
-24.3502990607
  0
LINE
  5
40F
100
AcDbEntity
  8
ASSI
100
AcDbLine
 62
7
  6
CONTINUOUS
 10
43.2230912572
 20
-24.3502990607
 11
43.7230837707
 21
-24.3502990607
  0
LINE
  5
410
100
AcDbEntity
  8
DRAFT
100
AcDbLine
 62
7
  6
CONTINUOUS
 10
72.6607591534
 20
-24.3241164633
 11
71.6230912572
 21
-24.3241164633
  0
LINE
  5
411
100
AcDbEntity
  8
ASSI
100
AcDbLine
 62
7
  6
CONTINUOUS
 10
72.6607591534
 20
-24.3241164633
 11
71.6230912572
 21
-24.3241164633
  0
LINE
  5
412
100
AcDbEntity
  8
DRAFT
100
AcDbLine
 62
7
  6
CONTINUOUS
 10
42.185423361
 20
-24.3241164633
 11
43.2230912572
 21
-24.3241164633
  0
LINE
  5
413
100
AcDbEntity
  8
ASSI
100
AcDbLine
 62
7
  6
CONTINUOUS
 10
42.185423361
 20
-24.3241164633
 11
43.2230912572
 21
-24.3241164633
  0
LINE
  5
414
100
AcDbEntity
  8
RACCORDO
100
AcDbLine
 62
250
  6
CONTINUOUS
 10
75.6669443721
 20
-44.3803207205
 11
75.7401577674
 21
-44.4535341159
  0
LINE
  5
415
100
AcDbEntity
  8
ASSI
100
AcDbLine
 62
250
  6
CONTINUOUS
 10
75.6669443721
 20
-44.3803207205
 11
75.7401577674
 21
-44.4535341159
  0
LINE
  5
416
100
AcDbEntity
  8
RACCORDO
100
AcDbLine
 62
7
  6
CONTINUOUS
 10
39.794381434
 20
-7.2407739234
 11
39.9313787315
 21
-7.377771221
  0
LINE
  5
417
100
AcDbEntity
  8
ASSI
100
AcDbLine
 62
7
  6
CONTINUOUS
 10
39.794381434
 20
-7.2407739234
 11
39.9313787315
 21
-7.377771221
  0
LINE
  5
418
100
AcDbEntity
  8
DRAFT
100
AcDbLine
 62
7
  6
CONTINUOUS
 10
39.93103068
 20
-6.3774231694
 11
39.7900560777
 21
-6.2364485672
  0
LINE
  5
419
100
AcDbEntity
  8
ASSI
100
AcDbLine
 62
7
  6
CONTINUOUS
 10
39.93103068
 20
-6.3774231694
 11
39.7900560777
 21
-6.2364485672
  0
LINE
  5
41A
100
AcDbEntity
  8
IMPORT_IGES
100
AcDbLine
 62
7
  6
CONTINUOUS
 10
60.1230912572
 20
-39.3388513031
 11
60.1230912572
 21
-34.1340458312
  0
LINE
  5
41B
100
AcDbEntity
  8
IMPORT_IGES
100
AcDbLine
 62
7
  6
CONTINUOUS
 10
60.8230912572
 20
-33.8654731232
 11
60.8230912572
 21
-39.6074240112
  0
LINE
  5
41C
100
AcDbEntity
  8
DRAFT
100
AcDbLine
 62
7
  6
CONTINUOUS
 10
61.2152668208
 20
-47.6364485672
 11
61.2152668208
 21
-47.5695305488
  0
LINE
  5
41D
100
AcDbEntity
  8
ASSI
100
AcDbLine
 62
7
  6
CONTINUOUS
 10
61.2152668208
 20
-47.6364485672
 11
61.2152668208
 21
-47.5695305488
  0
LINE
  5
41E
100
AcDbEntity
  8
DRAFT
100
AcDbLine
 62
7
  6
CONTINUOUS
 10
61.2152668208
 20
-5.9033665855
 11
61.2152668208
 21
-5.8364485672
  0
LINE
  5
41F
100
AcDbEntity
  8
ASSI
100
AcDbLine
 62
7
  6
CONTINUOUS
 10
61.2152668208
 20
-5.9033665855
 11
61.2152668208
 21
-5.8364485672
  0
LINE
  5
420
100
AcDbEntity
  8
RACCORDO
100
AcDbLine
 62
7
  6
CONTINUOUS
 10
61.2900560777
 20
-5.8364485672
 11
61.2900560777
 21
-6.7407929619
  0
LINE
  5
421
100
AcDbEntity
  8
ASSI
100
AcDbLine
 62
7
  6
CONTINUOUS
 10
61.2900560777
 20
-5.8364485672
 11
61.2900560777
 21
-6.7407929619
  0
LINE
  5
422
100
AcDbEntity
  8
RACCORDO
100
AcDbLine
 62
7
  6
CONTINUOUS
 10
61.2900560777
 20
-46.7321041725
 11
61.2900560777
 21
-47.6364485672
  0
LINE
  5
423
100
AcDbEntity
  8
ASSI
100
AcDbLine
 62
7
  6
CONTINUOUS
 10
61.2900560777
 20
-46.7321041725
 11
61.2900560777
 21
-47.6364485672
  0
LINE
  5
424
100
AcDbEntity
  8
IMPORT_IGES
100
AcDbLine
 62
250
  6
CONTINUOUS
 10
61.3230987773
 20
-33.6880992493
 11
61.3230912572
 21
-38.8778278775
  0
LINE
  5
425
100
AcDbEntity
  8
IMPORT_IGES
100
AcDbLine
 62
7
  6
CONTINUOUS
 10
61.4223818438
 20
-27.8364485672
 11
61.4223818438
 21
-29.6364485672
  0
LINE
  5
426
100
AcDbEntity
  8
IMPORT_IGES
100
AcDbLine
 62
250
  6
CONTINUOUS
 10
61.6230912572
 20
-38.8778278775
 11
61.6230912572
 21
-39.8864485672
  0
LINE
  5
427
100
AcDbEntity
  8
IMPORT_IGES
100
AcDbLine
 62
250
  6
CONTINUOUS
 10
61.9230912572
 20
-43.3864485672
 11
61.9230912572
 21
-41.6364485672
  0
LINE
  5
428
100
AcDbEntity
  8
IMPORT_IGES
100
AcDbLine
 62
7
  6
CONTINUOUS
 10
61.9454377784
 20
-29.6364485672
 11
61.9454377784
 21
-28.6481214867
  0
LINE
  5
429
100
AcDbEntity
  8
DRAFT
100
AcDbLine
 62
7
  6
CONTINUOUS
 10
59.3517822421
 20
-38.686827259
 11
59.3266371639
 21
-38.8994854186
  0
LINE
  5
42A
100
AcDbEntity
  8
IMPORT_IGES
100
AcDbLine
 62
250
  6
CONTINUOUS
 10
45.0860878326
 20
-37.90753603
 11
43.7230744823
 21
-38.6371094585
  0
LINE
  5
42B
100
AcDbEntity
  8
IMPORT_IGES
100
AcDbLine
 62
7
  6
CONTINUOUS
 10
51.6123297939
 20
-32.532189951
 11
46.9371207323
 21
-33.9857463704
  0
LINE
  5
42C
100
AcDbEntity
  8
IMPORT_IGES
100
AcDbLine
 62
7
  6
CONTINUOUS
 10
47.2109493745
 20
-23.6364485672
 11
48.6352331399
 21
-23.6364485672
  0
LINE
  5
42D
100
AcDbEntity
  8
IMPORT_IGES
100
AcDbLine
 62
7
  6
CONTINUOUS
 10
49.8057651999
 20
-23.6364485672
 11
50.2702945314
 21
-23.6364485672
  0
LINE
  5
42E
100
AcDbEntity
  8
IMPORT_IGES
100
AcDbLine
 62
7
  6
CONTINUOUS
 10
50.6059016256
 20
-23.6364485672
 11
51.041781571
 21
-23.6364485672
  0
LINE
  5
42F
100
AcDbEntity
  8
IMPORT_IGES
100
AcDbLine
 62
7
  6
CONTINUOUS
 10
51.6035141767
 20
-23.6364485672
 11
52.0404173145
 21
-23.6364485672
  0
LINE
  5
430
100
AcDbEntity
  8
IMPORT_IGES
100
AcDbLine
 62
7
  6
CONTINUOUS
 10
62.7323818438
 20
-23.6364485672
 11
63.2554377784
 21
-23.6364485672
  0
LINE
  5
431
100
AcDbEntity
  8
IMPORT_IGES
100
AcDbLine
 62
7
  6
CONTINUOUS
 10
63.9295169052
 20
-23.6364485672
 11
64.4538006706
 21
-23.6364485672
  0
LINE
  5
432
100
AcDbEntity
  8
IMPORT_IGES
100
AcDbLine
 62
7
  6
CONTINUOUS
 10
65.4757651999
 20
-23.6364485672
 11
65.9402945314
 21
-23.6364485672
  0
LINE
  5
433
100
AcDbEntity
  8
IMPORT_IGES
100
AcDbLine
 62
7
  6
CONTINUOUS
 10
66.2759016256
 20
-23.6364485672
 11
66.711781571
 21
-23.6364485672
  0
LINE
  5
434
100
AcDbEntity
  8
IMPORT_IGES
100
AcDbLine
 62
7
  6
CONTINUOUS
 10
67.2735141767
 20
-23.6364485672
 11
67.7104173145
 21
-23.6364485672
  0
LINE
  5
435
100
AcDbEntity
  8
IMPORT_IGES
100
AcDbLine
 62
7
  6
CONTINUOUS
 10
48.6352331399
 20
-23.1932016368
 11
47.7671567415
 21
-23.1932016368
  0
LINE
  5
436
100
AcDbEntity
  8
IMPORT_IGES
100
AcDbLine
 62
7
  6
CONTINUOUS
 10
67.7104173145
 20
-22.1364485672
 11
67.2735141767
 21
-22.1364485672
  0
LINE
  5
437
100
AcDbEntity
  8
IMPORT_IGES
100
AcDbLine
 62
7
  6
CONTINUOUS
 10
66.7087119939
 20
-22.1364485672
 11
66.2759016256
 21
-22.1364485672
  0
LINE
  5
438
100
AcDbEntity
  8
IMPORT_IGES
100
AcDbLine
 62
7
  6
CONTINUOUS
 10
65.9402945314
 20
-22.1364485672
 11
65.4757651999
 21
-22.1364485672
  0
LINE
  5
439
100
AcDbEntity
  8
IMPORT_IGES
100
AcDbLine
 62
7
  6
CONTINUOUS
 10
52.0404173145
 20
-22.1364485672
 11
51.6035141767
 21
-22.1364485672
  0
LINE
  5
43A
100
AcDbEntity
  8
IMPORT_IGES
100
AcDbLine
 62
7
  6
CONTINUOUS
 10
51.0387119939
 20
-22.1364485672
 11
50.6059016256
 21
-22.1364485672
  0
LINE
  5
43B
100
AcDbEntity
  8
IMPORT_IGES
100
AcDbLine
 62
7
  6
CONTINUOUS
 10
50.2702945314
 20
-22.1364485672
 11
49.8057651999
 21
-22.1364485672
  0
LINE
  5
43C
100
AcDbEntity
  8
IMPORT_IGES
100
AcDbLine
 62
7
  6
CONTINUOUS
 10
61.9454377784
 20
-28.6481214867
 11
62.6195169052
 21
-29.6364485672
  0
LINE
  5
43D
100
AcDbEntity
  8
IMPORT_IGES
100
AcDbLine
 62
7
  6
CONTINUOUS
 10
62.6195169052
 20
-28.8322961115
 11
61.9417542859
 21
-27.8364485672
  0
LWPOLYLINE
  5
43E
100
AcDbEntity
  8
IMPORT_IGES
100
AcDbPolyline
 62
7
  6
CONTINUOUS
 90
67
 70
0
 10
63.8565905751
 20
-28.8874717595
 10
63.8574350168
 20
-28.9349326687
 10
63.8599892875
 20
-28.9807620975
 10
63.8642533873
 20
-29.024960046
 10
63.8702569947
 20
-29.067523744
 10
63.8779704312
 20
-29.1084559617
 10
63.8873046613
 20
-29.1477650095
 10
63.8983056197
 20
-29.1854171869
 10
63.9109273716
 20
-29.2214461944
 10
63.9249430773
 20
-29.2559614434
 10
63.9403553227
 20
-29.2889869237
 10
63.9571615218
 20
-29.3204986455
 10
63.9751270767
 20
-29.3505340502
 10
63.9942026072
 20
-29.3790655001
 10
64.0144374935
 20
-29.4061206328
 10
64.0357452781
 20
-29.4318198037
 10
64.0581201618
 20
-29.4562213586
 10
64.0815679438
 20
-29.4792669515
 10
64.1060195649
 20
-29.5009018999
 10
64.1313533047
 20
-29.5210771293
 10
64.1576908835
 20
-29.5398417142
 10
64.1853284027
 20
-29.5572881946
 10
64.2142478075
 20
-29.5734515535
 10
64.2444671527
 20
-29.588296808
 10
64.2763367033
 20
-29.6018115497
 10
64.3099326259
 20
-29.614005721
 10
64.3451787541
 20
-29.6248693795
 10
64.3821968531
 20
-29.6343602897
 10
64.4211849386
 20
-29.6424781256
 10
64.4619449949
 20
-29.6492232133
 10
64.5040047416
 20
-29.6545542953
 10
64.5476371514
 20
-29.6584977262
 10
64.5925692516
 20
-29.6610271515
 10
64.6375098429
 20
-29.662022251
 10
64.6825024637
 20
-29.6614421516
 10
64.7275035757
 20
-29.6593277264
 10
64.7710913652
 20
-29.6556812743
 10
64.812884789
 20
-29.6505057295
 10
64.8532648903
 20
-29.6437981577
 10
64.8919529845
 20
-29.6355520547
 10
64.9287672344
 20
-29.6257379686
 10
64.9638894772
 20
-29.6143853514
 10
64.9975865406
 20
-29.6015760547
 10
65.0299081793
 20
-29.5872795902
 10
65.0608046387
 20
-29.5715264462
 10
65.0903934819
 20
-29.5544899395
 10
65.1187100293
 20
-29.5361730217
 10
65.1457189606
 20
-29.5165727412
 10
65.1714318784
 20
-29.4958535592
 10
65.1958290746
 20
-29.474100527
 10
65.2189302573
 20
-29.4512285934
 10
65.2408061532
 20
-29.4271470663
 10
65.2615058878
 20
-29.4018789075
 10
65.2809803356
 20
-29.3754011552
 10
65.2991528469
 20
-29.347554232
 10
65.3159993515
 20
-29.3183956621
 10
65.3315439196
 20
-29.2878679214
 10
65.3457821125
 20
-29.2556388597
 10
65.3587450836
 20
-29.2217077309
 10
65.3704016794
 20
-29.1860752813
 10
65.3806540017
 20
-29.1484115988
 10
65.3895309962
 20
-29.1087519107
 10
65.3970037171
 20
-29.0670609897
 10
65.4028874285
 20
-29.0229032426
 10
65.4071205518
 20
-28.9761334717
 10
65.4097646657
 20
-28.9268968747
 10
65.4108197702
 20
-28.8751934516
  0
LINE
  5
43F
100
AcDbEntity
  8
IMPORT_IGES
100
AcDbLine
 62
7
  6
CONTINUOUS
 10
62.1230912572
 20
-38.8993796017
 11
62.1230912572
 21
-39.8864485672
  0
LINE
  5
440
100
AcDbEntity
  8
RACCORDO
100
AcDbLine
 62
7
  6
CONTINUOUS
 10
62.2900560777
 20
-47.2364485672
 11
62.2900560777
 21
-46.7321041725
  0
LINE
  5
441
100
AcDbEntity
  8
ASSI
100
AcDbLine
 62
7
  6
CONTINUOUS
 10
62.2900560777
 20
-47.2364485672
 11
62.2900560777
 21
-46.7321041725
  0
LINE
  5
442
100
AcDbEntity
  8
RACCORDO
100
AcDbLine
 62
7
  6
CONTINUOUS
 10
62.2900560777
 20
-6.7407929619
 11
62.2900560777
 21
-6.2364485672
  0
LINE
  5
443
100
AcDbEntity
  8
ASSI
100
AcDbLine
 62
7
  6
CONTINUOUS
 10
62.2900560777
 20
-6.7407929619
 11
62.2900560777
 21
-6.2364485672
  0
LINE
  5
444
100
AcDbEntity
  8
IMPORT_IGES
100
AcDbLine
 62
7
  6
CONTINUOUS
 10
62.4230912572
 20
-42.1364485672
 11
62.4230912572
 21
-42.8864485672
  0
LINE
  5
445
100
AcDbEntity
  8
IMPORT_IGES
100
AcDbLine
 62
7
  6
CONTINUOUS
 10
62.6195169052
 20
-27.8364485672
 11
62.6195169052
 21
-28.8322961115
  0
LINE
  5
446
100
AcDbEntity
  8
IMPORT_IGES
100
AcDbLine
 62
7
  6
CONTINUOUS
 10
62.7323818438
 20
-21.8364485672
 11
62.7323818438
 21
-23.6364485672
  0
LINE
  5
447
100
AcDbEntity
  8
IMPORT_IGES
100
AcDbLine
 62
7
  6
CONTINUOUS
 10
63.1438006706
 20
-29.6364485672
 11
63.1438006706
 21
-27.8364485672
  0
LINE
  5
448
100
AcDbEntity
  8
IMPORT_IGES
100
AcDbLine
 62
7
  6
CONTINUOUS
 10
63.2554377784
 20
-23.6364485672
 11
63.2554377784
 21
-22.6481214867
  0
LINE
  5
449
100
AcDbEntity
  8
DRAFT
100
AcDbLine
 62
7
  6
CONTINUOUS
 10
63.6730912572
 20
-43.4126291705
 11
63.6730912572
 21
-42.6364485672
  0
LINE
  5
44A
100
AcDbEntity
  8
ASSI
100
AcDbLine
 62
7
  6
CONTINUOUS
 10
63.6730912572
 20
-43.4126291705
 11
63.6730912572
 21
-42.6364485672
  0
LINE
  5
44B
100
AcDbEntity
  8
DRAFT
100
AcDbLine
 62
7
  6
CONTINUOUS
 10
63.6730912572
 20
-10.8364485672
 11
63.6730912572
 21
-10.0602679638
  0
LINE
  5
44C
100
AcDbEntity
  8
ASSI
100
AcDbLine
 62
7
  6
CONTINUOUS
 10
63.6730912572
 20
-10.8364485672
 11
63.6730912572
 21
-10.0602679638
  0
LINE
  5
44D
100
AcDbEntity
  8
IMPORT_IGES
100
AcDbLine
 62
7
  6
CONTINUOUS
 10
63.9295169052
 20
-21.8364485672
 11
63.9295169052
 21
-22.8322961115
  0
LINE
  5
44E
100
AcDbEntity
  8
0
100
AcDbLine
 62
7
  6
CONTINUOUS
 10
71.6849277669
 20
-4.5364485672
 11
71.3499065035
 21
-5.5364485672
  0
LINE
  5
44F
100
AcDbEntity
  8
ASSI
100
AcDbLine
 62
7
  6
CONTINUOUS
 10
71.6849277669
 20
-4.5364485672
 11
71.3499065035
 21
-5.5364485672
  0
LINE
  5
450
100
AcDbEntity
  8
IMPORT_IGES
100
AcDbLine
 62
250
  6
CONTINUOUS
 10
44.2230329542
 20
-39.136448572
 11
45.5844772049
 21
-38.4070721994
  0
LINE
  5
451
100
AcDbEntity
  8
IMPORT_IGES
100
AcDbLine
 62
7
  6
CONTINUOUS
 10
47.2338527206
 20
-34.9407071833
 11
51.9090617821
 21
-33.4871507639
  0
LINE
  5
452
100
AcDbEntity
  8
IMPORT_IGES
100
AcDbLine
 62
7
  6
CONTINUOUS
 10
64.4538006706
 20
-21.8364485672
 11
63.9295169052
 21
-21.8364485672
  0
LINE
  5
453
100
AcDbEntity
  8
IMPORT_IGES
100
AcDbLine
 62
7
  6
CONTINUOUS
 10
63.2517542859
 20
-21.8364485672
 11
62.7323818438
 21
-21.8364485672
  0
LINE
  5
454
100
AcDbEntity
  8
IMPORT_IGES
100
AcDbLine
 62
7
  6
CONTINUOUS
 10
47.7671567415
 20
-21.8364485672
 11
47.2109493745
 21
-21.8364485672
  0
LINE
  5
455
100
AcDbEntity
  8
IMPORT_IGES
100
AcDbLine
 62
7
  6
CONTINUOUS
 10
70.8495280388
 20
-20.7364485672
 11
70.1230912572
 21
-20.7364485672
  0
LINE
  5
456
100
AcDbEntity
  8
IMPORT_IGES
100
AcDbLine
 62
7
  6
CONTINUOUS
 10
44.7230912572
 20
-20.7364485672
 11
43.9966544756
 21
-20.7364485672
  0
LINE
  5
457
100
AcDbEntity
  8
IMPORT_IGES
100
AcDbLine
 62
250
  6
CONTINUOUS
 10
43.7230912572
 20
-12.8351843675
 11
45.0860878326
 21
-13.5653611043
  0
LINE
  5
458
100
AcDbEntity
  8
IMPORT_IGES
100
AcDbLine
 62
250
  6
CONTINUOUS
 10
45.5844772049
 20
-13.0658249349
 11
44.2230329542
 21
-12.3364485625
  0
LINE
  5
459
100
AcDbEntity
  8
0
100
AcDbLine
 62
7
  6
CONTINUOUS
 10
71.3499065035
 20
-47.9364485672
 11
71.6849277669
 21
-48.9364485672
  0
LINE
  5
45A
100
AcDbEntity
  8
ASSI
100
AcDbLine
 62
7
  6
CONTINUOUS
 10
71.3499065035
 20
-47.9364485672
 11
71.6849277669
 21
-48.9364485672
  0
LWPOLYLINE
  5
45B
100
AcDbEntity
  8
IMPORT_IGES
100
AcDbPolyline
 62
7
  6
CONTINUOUS
 90
67
 70
0
 10
65.6615018984
 20
-29.0301271629
 10
65.6628569997
 20
-29.0621827339
 10
65.6652346502
 20
-29.0936951809
 10
65.6686348499
 20
-29.1246645038
 10
65.6730767335
 20
-29.1550651905
 10
65.6785411662
 20
-29.1849227532
 10
65.6849707442
 20
-29.2143137287
 10
65.692214416
 20
-29.2433121026
 10
65.700423233
 20
-29.2718438893
 10
65.7099929454
 20
-29.2997636694
 10
65.7209535388
 20
-29.3270948212
 10
65.7332750276
 20
-29.3538139664
 10
65.7472632053
 20
-29.3797055498
 10
65.7631724325
 20
-29.4047130847
 10
65.7807483486
 20
-29.4288930578
 10
65.7995336653
 20
-29.4521993754
 10
65.8194661565
 20
-29.4747480469
 10
65.8406080483
 20
-29.4964230628
 10
65.8626887305
 20
-29.5168303006
 10
65.8856965022
 20
-29.5359725169
 10
65.9096430644
 20
-29.5538469552
 10
65.9342929096
 20
-29.5700512232
 10
65.9593725819
 20
-29.5843603457
 10
65.9851555371
 20
-29.596999298
 10
66.0122266357
 20
-29.6082406142
 10
66.0406208489
 20
-29.6180546903
 10
66.0703032053
 20
-29.6264711304
 10
66.1017536518
 20
-29.6338512808
 10
66.1352427033
 20
-29.6402283273
 10
66.1704998449
 20
-29.6455690842
 10
66.2071934772
 20
-29.6501353409
 10
66.2454662539
 20
-29.6540156311
 10
66.2851755215
 20
-29.6571214211
 10
66.3255617199
 20
-29.6594488989
 10
66.366814938
 20
-29.6611179028
 10
66.408745087
 20
-29.6620085945
 10
66.4500223401
 20
-29.6617576466
 10
66.4904220063
 20
-29.6603142653
 10
66.5301687765
 20
-29.6577292444
 10
66.568606897
 20
-29.6537916373
 10
66.6055168317
 20
-29.6484782248
 10
66.6411181166
 20
-29.6418122262
 10
66.675413606
 20
-29.6336523526
 10
66.7084200925
 20
-29.624001442
 10
66.7401207836
 20
-29.6128566565
 10
66.7704681557
 20
-29.6000681937
 10
66.7994757405
 20
-29.5854514113
 10
66.8271300064
 20
-29.5691909515
 10
66.8533428357
 20
-29.551690939
 10
66.8780052478
 20
-29.5329868754
 10
66.9012262233
 20
-29.513043259
 10
66.9232445864
 20
-29.4921577087
 10
66.9441644977
 20
-29.4704732333
 10
66.9638817965
 20
-29.447846824
 10
66.9823228254
 20
-29.4241470731
 10
66.9994671161
 20
-29.3994271789
 10
67.0153351368
 20
-29.3736339432
 10
67.0299146346
 20
-29.3464763629
 10
67.043213836
 20
-29.3179318256
 10
67.0552245145
 20
-29.2880229437
 10
67.0659097373
 20
-29.2565265512
 10
67.0753692482
 20
-29.2235029627
 10
67.0835033034
 20
-29.1888918637
 10
67.089975739
 20
-29.1522891445
 10
67.0946745004
 20
-29.1135601021
 10
67.0977116422
 20
-29.0728394395
 10
67.0990871644
 20
-29.0301271569
  0
LWPOLYLINE
  5
45C
100
AcDbEntity
  8
0
100
AcDbPolyline
 62
7
  6
CONTINUOUS
 90
34
 70
0
 10
65.4108197702
 20
-28.8751934516
 10
65.4076185462
 20
-28.7877883951
 10
65.3983180934
 20
-28.7055189156
 10
65.3829184118
 20
-28.6283850132
 10
65.3610798953
 20
-28.5561959104
 10
65.3331421501
 20
-28.4891423847
 10
65.3001239942
 20
-28.4277967683
 10
65.2624874458
 20
-28.3726377535
 10
65.2197704868
 20
-28.323186648
 10
65.1716058812
 20
-28.2785797079
 10
65.1179756619
 20
-28.2382717282
 10
65.0588977959
 20
-28.2028079139
 10
64.9940589488
 20
-28.1729601353
 10
64.9225083899
 20
-28.1488343329
 10
64.8451968499
 20
-28.1303245663
 10
64.7646631856
 20
-28.1178848843
 10
64.6796063715
 20
-28.1116047311
 10
64.591327433
 20
-28.1113946627
 10
64.5062683037
 20
-28.117440396
 10
64.4257618161
 20
-28.1299598681
 10
64.3484751377
 20
-28.148735142
 10
64.2768517041
 20
-28.1732981238
 10
64.2118132241
 20
-28.2037560991
 10
64.152437989
 20
-28.2400017822
 10
64.0984043088
 20
-28.2812452229
 10
64.0496444303
 20
-28.3270266125
 10
64.0062261067
 20
-28.3778057596
 10
63.9680309068
 20
-28.4341721393
 10
63.9347126079
 20
-28.4964485208
 10
63.9066174326
 20
-28.5643121348
 10
63.884665618
 20
-28.637384149
 10
63.8691639097
 20
-28.7155382858
 10
63.8598055621
 20
-28.7989008226
 10
63.8565905751
 20
-28.8874717595
  0
LINE
  5
45D
100
AcDbEntity
  8
IMPORT_IGES
100
AcDbLine
 62
7
  6
CONTINUOUS
 10
64.4538006706
 20
-23.6364485672
 11
64.4538006706
 21
-21.8364485672
  0
LINE
  5
45E
100
AcDbEntity
  8
IMPORT_IGES
100
AcDbLine
 62
7
  6
CONTINUOUS
 10
65.4757651999
 20
-22.1364485672
 11
65.4757651999
 21
-23.6364485672
  0
LINE
  5
45F
100
AcDbEntity
  8
0
100
AcDbLine
 62
7
  6
CONTINUOUS
 10
65.5730912572
 20
-5.5364485672
 11
65.5730912572
 21
-4.5364485672
  0
LINE
  5
460
100
AcDbEntity
  8
ASSI
100
AcDbLine
 62
7
  6
CONTINUOUS
 10
65.5730912572
 20
-5.5364485672
 11
65.5730912572
 21
-4.5364485672
  0
LINE
  5
461
100
AcDbEntity
  8
0
100
AcDbLine
 62
7
  6
CONTINUOUS
 10
65.5730912572
 20
-47.9364485672
 11
65.5730912572
 21
-48.9364485672
  0
LINE
  5
462
100
AcDbEntity
  8
ASSI
100
AcDbLine
 62
7
  6
CONTINUOUS
 10
65.5730912572
 20
-47.9364485672
 11
65.5730912572
 21
-48.9364485672
  0
LINE
  5
463
100
AcDbEntity
  8
0
100
AcDbLine
 62
7
  6
CONTINUOUS
 10
65.6615018984
 20
-28.1364485672
 11
65.6615018984
 21
-29.0301271629
  0
LINE
  5
464
100
AcDbEntity
  8
IMPORT_IGES
100
AcDbLine
 62
7
  6
CONTINUOUS
 10
65.9402945314
 20
-23.6364485672
 11
65.9402945314
 21
-22.1364485672
  0
LINE
  5
465
100
AcDbEntity
  8
0
100
AcDbLine
 62
7
  6
CONTINUOUS
 10
66.1239848452
 20
-29.0514063605
 11
66.1239848452
 21
-28.1364485672
  0
LINE
  5
466
100
AcDbEntity
  8
IMPORT_IGES
100
AcDbLine
 62
7
  6
CONTINUOUS
 10
66.2759016256
 20
-22.1364485672
 11
66.2759016256
 21
-23.6364485672
  0
LWPOLYLINE
  5
467
100
AcDbEntity
  8
IMPORT_IGES
100
AcDbPolyline
 62
7
  6
CONTINUOUS
 90
61
 70
0
 10
64.947313631
 20
-28.8690542964
 10
64.9470774015
 20
-28.8976702723
 10
64.9462561067
 20
-28.9254386614
 10
64.9448497466
 20
-28.9523594636
 10
64.9428804455
 20
-28.9784620012
 10
64.9403260791
 20
-29.003716952
 10
64.9371202743
 20
-29.0280363489
 10
64.9332518294
 20
-29.0514389158
 10
64.9287319461
 20
-29.0739059289
 10
64.9235278564
 20
-29.0952932495
 10
64.9176179079
 20
-29.1155606183
 10
64.9110237531
 20
-29.1347482946
 10
64.9037775815
 20
-29.1528329178
 10
64.8958836151
 20
-29.1697793082
 10
64.8873376318
 20
-29.1856226456
 10
64.8781591554
 20
-29.2004451085
 10
64.8683898673
 20
-29.2142293869
 10
64.8579880859
 20
-29.2269927908
 10
64.8468482904
 20
-29.2388694284
 10
64.8349538577
 20
-29.2498948242
 10
64.8223214109
 20
-29.2600334538
 10
64.8088952979
 20
-29.2693128522
 10
64.7946895306
 20
-29.2777212658
 10
64.7796900972
 20
-29.2852704482
 10
64.7637993099
 20
-29.2920231954
 10
64.7469606899
 20
-29.298039758
 10
64.7292307161
 20
-29.3032598853
 10
64.7106811369
 20
-29.3075656222
 10
64.6911510833
 20
-29.3109881652
 10
64.6708014244
 20
-29.3134963178
 10
64.6501865154
 20
-29.3148785347
 10
64.6291865054
 20
-29.3150404209
 10
64.6079212454
 20
-29.3140763713
 10
64.5873046425
 20
-29.312058026
 10
64.5675625357
 20
-29.3089495851
 10
64.5484690861
 20
-29.3047868484
 10
64.5302606843
 20
-29.2997488555
 10
64.5130306592
 20
-29.2938823666
 10
64.496685682
 20
-29.2871406215
 10
64.4811821569
 20
-29.2795623798
 10
64.466550078
 20
-29.2711845408
 10
64.4527594512
 20
-29.2619702052
 10
64.4396766987
 20
-29.2518474348
 10
64.4272789893
 20
-29.240825235
 10
64.4155891541
 20
-29.2288946004
 10
64.404542109
 20
-29.2159565763
 10
64.3941215517
 20
-29.2020257867
 10
64.3843437844
 20
-29.1870876076
 10
64.3751926292
 20
-29.1709992115
 10
64.3666381977
 20
-29.153723609
 10
64.3587103784
 20
-29.1352977895
 10
64.3514826592
 20
-29.1156898937
 10
64.3449567876
 20
-29.0948534924
 10
64.3391310161
 20
-29.0728350148
 10
64.3340735905
 20
-29.0497418892
 10
64.3298037069
 20
-29.0255844524
 10
64.3263021692
 20
-29.0003523675
 10
64.3235796353
 20
-28.9741220525
 10
64.3216396578
 20
-28.9469189799
 10
64.3204786841
 20
-28.9187176772
 10
64.3200967142
 20
-28.8895181443
  0
LWPOLYLINE
  5
468
100
AcDbEntity
  8
IMPORT_IGES
100
AcDbPolyline
 62
7
  6
CONTINUOUS
 90
58
 70
0
 10
64.3200967142
 20
-28.8895181443
 10
64.3204870661
 20
-28.860000284
 10
64.3216707554
 20
-28.8314930185
 10
64.3236477823
 20
-28.8039963476
 10
64.326422284
 20
-28.7774836964
 10
64.3299901232
 20
-28.7519816399
 10
64.334338888
 20
-28.7275699033
 10
64.3394896996
 20
-28.7042352515
 10
64.3454214367
 20
-28.6819909196
 10
64.3520583246
 20
-28.6609563376
 10
64.3594010477
 20
-28.6411837079
 10
64.3674489214
 20
-28.6226208281
 10
64.376124117
 20
-28.6052305218
 10
64.3853997413
 20
-28.5890471937
 10
64.3953026875
 20
-28.5740364391
 10
64.405835807
 20
-28.5600578675
 10
64.4169722619
 20
-28.5471073051
 10
64.4287388901
 20
-28.5351889258
 10
64.4412190574
 20
-28.5241748605
 10
64.4543900867
 20
-28.5140441191
 10
64.4682746551
 20
-28.5048176918
 10
64.4830241602
 20
-28.4964306801
 10
64.4986598522
 20
-28.4888382663
 10
64.5151604808
 20
-28.4820852682
 10
64.5326136934
 20
-28.4762412413
 10
64.5511621825
 20
-28.4712519743
 10
64.5706632555
 20
-28.4671716786
 10
64.5907764813
 20
-28.4642325428
 10
64.6117063842
 20
-28.4624957092
 10
64.6332484399
 20
-28.4619000355
 10
64.6544486439
 20
-28.462494284
 10
64.6751340092
 20
-28.4643586623
 10
64.6954775228
 20
-28.4674129628
 10
64.715044142
 20
-28.4714653237
 10
64.7337313765
 20
-28.476496014
 10
64.7516417165
 20
-28.4825247648
 10
64.7686475898
 20
-28.4894189073
 10
64.7846697349
 20
-28.4971308922
 10
64.7997874133
 20
-28.5057082688
 10
64.8141108369
 20
-28.5151610164
 10
64.8276414452
 20
-28.5254616972
 10
64.8403777988
 20
-28.5366377491
 10
64.8524257916
 20
-28.5487814641
 10
64.8638002675
 20
-28.5618516898
 10
64.8744863827
 20
-28.5758895786
 10
64.8845454988
 20
-28.5911108803
 10
64.8940299901
 20
-28.6075470624
 10
64.9028874824
 20
-28.6251666574
 10
64.9110222149
 20
-28.6440910127
 10
64.9184479837
 20
-28.6644016595
 10
64.9251509927
 20
-28.6860170668
 10
64.9309940936
 20
-28.7088139884
 10
64.935946633
 20
-28.7327923252
 10
64.9400392643
 20
-28.7579521765
 10
64.9432267986
 20
-28.7841705941
 10
64.945494173
 20
-28.8114065952
 10
64.9468564505
 20
-28.8397011626
 10
64.947313631
 20
-28.8690542964
  0
LINE
  5
469
100
AcDbEntity
  8
IMPORT_IGES
100
AcDbLine
 62
7
  6
CONTINUOUS
 10
52.5023569879
 20
-42.0567979472
 11
52.4639310297
 21
-42.0960124552
  0
LWPOLYLINE
  5
46A
100
AcDbEntity
  8
IMPORT_IGES
100
AcDbPolyline
 62
7
  6
CONTINUOUS
 90
6
 70
0
 10
52.4639310297
 20
-42.0960124552
 10
52.4485273317
 20
-42.1114571478
 10
52.4366619739
 20
-42.122953137
 10
52.4286000615
 20
-42.130649293
 10
52.4240764893
 20
-42.1350492742
 10
52.4230912572
 20
-42.1364485672
  0
LWPOLYLINE
  5
46B
100
AcDbEntity
  8
IMPORT_IGES
100
AcDbPolyline
 62
7
  6
CONTINUOUS
 90
3
 70
0
 10
52.7756506857
 20
-41.7838584393
 10
52.6939125611
 20
-41.8654335438
 10
52.6192030881
 20
-41.9407329612
  0
LWPOLYLINE
  5
46C
100
AcDbEntity
  8
IMPORT_IGES
100
AcDbPolyline
 62
7
  6
CONTINUOUS
 90
3
 70
0
 10
52.9230912572
 20
-41.6364485672
 10
52.8708236416
 20
-41.6882097971
 10
52.7756506857
 20
-41.7838584393
  0
LINE
  5
46D
100
AcDbEntity
  8
IMPORT_IGES
100
AcDbLine
 62
7
  6
CONTINUOUS
 10
52.6192030881
 20
-41.9407329612
 11
52.5023569879
 21
-42.0567979472
  0
LINE
  5
46E
100
AcDbEntity
  8
IMPORT_IGES
100
AcDbLine
 62
250
  6
CONTINUOUS
 10
53.2230912572
 20
-39.8864485672
 11
52.8230912572
 21
-40.1864485672
  0
LINE
  5
46F
100
AcDbEntity
  8
RACCORDO
100
AcDbLine
 62
250
  6
CONTINUOUS
 10
42.0230912572
 20
-44.3760334391
 11
42.2030307424
 21
-44.2860705484
  0
LINE
  5
470
100
AcDbEntity
  8
ASSI
100
AcDbLine
 62
250
  6
CONTINUOUS
 10
42.0230912572
 20
-44.3760334391
 11
42.2030307424
 21
-44.2860705484
  0
LINE
  5
471
100
AcDbEntity
  8
IMPORT_IGES
100
AcDbLine
 62
7
  6
CONTINUOUS
 10
60.8255645221
 20
-33.8645811336
 11
60.8230912572
 21
-33.8654731232
  0
LWPOLYLINE
  5
472
100
AcDbEntity
  8
IMPORT_IGES
100
AcDbPolyline
 62
7
  6
CONTINUOUS
 90
3
 70
0
 10
60.9844327294
 20
-33.806971737
 10
60.8867548529
 20
-33.8421950255
 10
60.8255645221
 20
-33.8645811336
  0
LINE
  5
473
100
AcDbEntity
  8
IMPORT_IGES
100
AcDbLine
 62
7
  6
CONTINUOUS
 10
61.1168177918
 20
-33.7599016334
 11
60.9844327294
 21
-33.806971737
  0
LINE
  5
474
100
AcDbEntity
  8
IMPORT_IGES
100
AcDbLine
 62
7
  6
CONTINUOUS
 10
61.3230950173
 20
-33.6881114515
 11
61.2700707453
 21
-33.7067664647
  0
LWPOLYLINE
  5
475
100
AcDbEntity
  8
IMPORT_IGES
100
AcDbPolyline
 62
7
  6
CONTINUOUS
 90
3
 70
0
 10
61.2700707453
 20
-33.7067664647
 10
61.1663612491
 20
-33.7425571222
 10
61.1168177918
 20
-33.7599016334
  0
LINE
  5
476
100
AcDbEntity
  8
IMPORT_IGES
100
AcDbLine
 62
7
  6
CONTINUOUS
 10
67.6123297939
 20
-32.532189951
 11
62.9371207323
 21
-33.9857463704
  0
LINE
  5
477
100
AcDbEntity
  8
IMPORT_IGES
100
AcDbLine
 62
7
  6
CONTINUOUS
 10
46.9278208504
 20
-17.8628496065
 11
51.7681558866
 21
-18.5987022872
  0
LINE
  5
478
100
AcDbEntity
  8
IMPORT_IGES
100
AcDbLine
 62
7
  6
CONTINUOUS
 10
51.918361664
 20
-17.6100475279
 11
47.0780266279
 21
-16.8741948471
  0
LINE
  5
479
100
AcDbEntity
  8
RACCORDO
100
AcDbLine
 62
250
  6
CONTINUOUS
 10
42.2030307424
 20
-9.186826586
 11
42.0230912572
 21
-9.0968636953
  0
LINE
  5
47A
100
AcDbEntity
  8
ASSI
100
AcDbLine
 62
250
  6
CONTINUOUS
 10
42.2030307424
 20
-9.186826586
 11
42.0230912572
 21
-9.0968636953
  0
LINE
  5
47B
100
AcDbEntity
  8
ASSI
100
AcDbLine
 62
7
  6
CONTINUOUS
 10
71.9230912572
 20
-25.7055029236
 11
71.3215368411
 21
-25.3809286792
  0
LINE
  5
47C
100
AcDbEntity
  8
IMPORT_IGES
100
AcDbLine
 62
7
  6
CONTINUOUS
 10
63.2554377784
 20
-22.6481214867
 11
63.9295169052
 21
-23.6364485672
  0
LINE
  5
47D
100
AcDbEntity
  8
IMPORT_IGES
100
AcDbLine
 62
7
  6
CONTINUOUS
 10
63.9295169052
 20
-22.8322961115
 11
63.2517542859
 21
-21.8364485672
  0
LINE
  5
47E
100
AcDbEntity
  8
0
100
AcDbLine
 62
7
  6
CONTINUOUS
 10
66.6366042177
 20
-28.1364485672
 11
66.6366042177
 21
-29.0514063645
  0
LINE
  5
47F
100
AcDbEntity
  8
IMPORT_IGES
100
AcDbLine
 62
7
  6
CONTINUOUS
 10
66.711781571
 20
-23.6364485672
 11
66.711781571
 21
-22.8128426668
  0
LINE
  5
480
100
AcDbEntity
  8
0
100
AcDbLine
 62
7
  6
CONTINUOUS
 10
67.0990871644
 20
-29.0301271569
 11
67.0990871644
 21
-28.1364485672
  0
LINE
  5
481
100
AcDbEntity
  8
DRAFT
100
AcDbLine
 62
7
  6
CONTINUOUS
 10
67.1730912572
 20
-43.4126291705
 11
67.1730912572
 21
-42.6364485672
  0
LINE
  5
482
100
AcDbEntity
  8
ASSI
100
AcDbLine
 62
7
  6
CONTINUOUS
 10
67.1730912572
 20
-43.4126291705
 11
67.1730912572
 21
-42.6364485672
  0
LINE
  5
483
100
AcDbEntity
  8
DRAFT
100
AcDbLine
 62
7
  6
CONTINUOUS
 10
67.1730912572
 20
-10.8364485672
 11
67.1730912572
 21
-10.0602679638
  0
LINE
  5
484
100
AcDbEntity
  8
ASSI
100
AcDbLine
 62
7
  6
CONTINUOUS
 10
67.1730912572
 20
-10.8364485672
 11
67.1730912572
 21
-10.0602679638
  0
LINE
  5
485
100
AcDbEntity
  8
IMPORT_IGES
100
AcDbLine
 62
7
  6
CONTINUOUS
 10
67.2735141767
 20
-22.1364485672
 11
67.2735141767
 21
-22.9663215208
  0
LINE
  5
486
100
AcDbEntity
  8
IMPORT_IGES
100
AcDbLine
 62
7
  6
CONTINUOUS
 10
67.3006560594
 20
-28.1364485672
 11
67.3006560594
 21
-28.5068442016
  0
LINE
  5
487
100
AcDbEntity
  8
IMPORT_IGES
100
AcDbLine
 62
7
  6
CONTINUOUS
 10
67.7104173145
 20
-23.6364485672
 11
67.7104173145
 21
-22.1364485672
  0
LINE
  5
488
100
AcDbEntity
  8
IMPORT_IGES
100
AcDbLine
 62
7
  6
CONTINUOUS
 10
67.7733709298
 20
-28.5068442016
 11
67.7733709298
 21
-29.6364485672
  0
LINE
  5
489
100
AcDbEntity
  8
IMPORT_IGES
100
AcDbLine
 62
7
  6
CONTINUOUS
 10
68.2368770689
 20
-29.6364485672
 11
68.2368770689
 21
-28.5068442016
  0
LWPOLYLINE
  5
48A
100
AcDbEntity
  8
IMPORT_IGES
100
AcDbPolyline
 62
7
  6
CONTINUOUS
 90
52
 70
0
 10
66.6366042177
 20
-29.0514063645
 10
66.6360345824
 20
-29.0718418323
 10
66.6345669209
 20
-29.0913627108
 10
66.6322012329
 20
-29.1099690002
 10
66.6289031698
 20
-29.1276405847
 10
66.6247070802
 20
-29.14439758
 10
66.619716011
 20
-29.1603003327
 10
66.6139286074
 20
-29.1753616449
 10
66.6073462242
 20
-29.1895687145
 10
66.6000759716
 20
-29.2029434823
 10
66.5921369518
 20
-29.2154697302
 10
66.5835100628
 20
-29.2271636764
 10
66.574245109
 20
-29.2380959158
 10
66.5643764788
 20
-29.2482772374
 10
66.553869784
 20
-29.2576968524
 10
66.5426716643
 20
-29.2663929893
 10
66.5307899298
 20
-29.2743891292
 10
66.5182167706
 20
-29.281661791
 10
66.5048753969
 20
-29.2881787615
 10
66.4907266175
 20
-29.29394115
 10
66.4758096236
 20
-29.2989478471
 10
66.4601651991
 20
-29.3031633109
 10
66.4436982947
 20
-29.3065988991
 10
66.4265039599
 20
-29.3092432539
 10
66.408908127
 20
-29.3110267601
 10
66.3907652667
 20
-29.3119294411
 10
66.3722209085
 20
-29.3119712734
 10
66.3540375732
 20
-29.3111425715
 10
66.3363481166
 20
-29.3094188414
 10
66.319019683
 20
-29.3068245771
 10
66.3024162267
 20
-29.303423575
 10
66.2866377399
 20
-29.2992210447
 10
66.2715842303
 20
-29.2942117766
 10
66.2573196756
 20
-29.288443939
 10
66.2439012639
 20
-29.2819239575
 10
66.2312718071
 20
-29.2746454066
 10
66.2193237189
 20
-29.2666371783
 10
66.2080333271
 20
-29.2579117908
 10
66.1974243039
 20
-29.2484567258
 10
66.1874600803
 20
-29.2382633206
 10
66.1781202929
 20
-29.2273657767
 10
66.1694253052
 20
-29.2157298926
 10
66.1613996381
 20
-29.2032444015
 10
66.1540075655
 20
-29.1898766061
 10
66.1472848136
 20
-29.1756592037
 10
66.1413630823
 20
-29.1605790186
 10
66.1362467413
 20
-29.1446519092
 10
66.1319314209
 20
-29.1278620172
 10
66.128535712
 20
-29.1101485914
 10
66.1260991449
 20
-29.0914913815
 10
66.1245821893
 20
-29.0719106379
 10
66.1239848452
 20
-29.0514063605
  0
LINE
  5
48B
100
AcDbEntity
  8
DRAFT
100
AcDbLine
 62
7
  6
CONTINUOUS
 10
72.8230912572
 20
-24.4864485672
 11
72.7969086598
 21
-24.5126311646
  0
LINE
  5
48C
100
AcDbEntity
  8
ASSI
100
AcDbLine
 62
7
  6
CONTINUOUS
 10
72.8230912572
 20
-24.4864485672
 11
72.7969086598
 21
-24.5126311646
  0
LINE
  5
48D
100
AcDbEntity
  8
RACCORDO
100
AcDbLine
 62
7
  6
CONTINUOUS
 10
53.5604517929
 20
-46.2321232109
 11
53.6974490905
 21
-46.0951259134
  0
LINE
  5
48E
100
AcDbEntity
  8
ASSI
100
AcDbLine
 62
7
  6
CONTINUOUS
 10
53.5604517929
 20
-46.2321232109
 11
53.6974490905
 21
-46.0951259134
  0
LINE
  5
48F
100
AcDbEntity
  8
RACCORDO
100
AcDbLine
 62
250
  6
CONTINUOUS
 10
42.5144398888
 20
-44.8803016821
 11
42.70295459
 21
-44.7860515099
  0
LINE
  5
490
100
AcDbEntity
  8
ASSI
100
AcDbLine
 62
250
  6
CONTINUOUS
 10
42.5144398888
 20
-44.8803016821
 11
42.70295459
 21
-44.7860515099
  0
LINE
  5
491
100
AcDbEntity
  8
DRAFT
100
AcDbLine
 62
7
  6
CONTINUOUS
 10
55.3950914807
 20
-38.9451079085
 11
55.5195453505
 21
-38.8994854186
  0
LINE
  5
492
100
AcDbEntity
  8
DRAFT
100
AcDbLine
 62
7
  6
CONTINUOUS
 10
55.2308233688
 20
-38.7819623864
 11
55.4944002723
 21
-38.686827259
  0
LINE
  5
493
100
AcDbEntity
  8
RACCORDO
100
AcDbLine
 62
7
  6
CONTINUOUS
 10
56.6611596873
 20
-36.7539786282
 11
56.6730912572
 21
-36.7501879686
  0
LINE
  5
494
100
AcDbEntity
  8
IMPORT_IGES
100
AcDbLine
 62
7
  6
CONTINUOUS
 10
63.2338527206
 20
-34.9407071833
 11
67.9090617821
 21
-33.4871507639
  0
LINE
  5
495
100
AcDbEntity
  8
RACCORDO
100
AcDbLine
 62
250
  6
CONTINUOUS
 10
56.6614297826
 20
-36.7518867684
 11
56.6730912572
 21
-36.748456831
  0
LINE
  5
496
100
AcDbEntity
  8
IMPORT_IGES
100
AcDbLine
 62
7
  6
CONTINUOUS
 10
62.9278208504
 20
-17.8628496065
 11
67.7681558866
 21
-18.5987022872
  0
LINE
  5
497
100
AcDbEntity
  8
IMPORT_IGES
100
AcDbLine
 62
7
  6
CONTINUOUS
 10
67.918361664
 20
-17.6100475279
 11
63.0780266279
 21
-16.8741948471
  0
LINE
  5
498
100
AcDbEntity
  8
RACCORDO
100
AcDbLine
 62
250
  6
CONTINUOUS
 10
42.70295459
 20
-8.6868456244
 11
42.5144398888
 21
-8.5925954523
  0
LINE
  5
499
100
AcDbEntity
  8
ASSI
100
AcDbLine
 62
250
  6
CONTINUOUS
 10
42.70295459
 20
-8.6868456244
 11
42.5144398888
 21
-8.5925954523
  0
LINE
  5
49A
100
AcDbEntity
  8
DRAFT
100
AcDbLine
 62
7
  6
CONTINUOUS
 10
72.7969086598
 20
-28.9602659698
 11
72.8230912572
 21
-28.9864485672
  0
LINE
  5
49B
100
AcDbEntity
  8
ASSI
100
AcDbLine
 62
7
  6
CONTINUOUS
 10
72.7969086598
 20
-28.9602659698
 11
72.8230912572
 21
-28.9864485672
  0
LINE
  5
49C
100
AcDbEntity
  8
RACCORDO
100
AcDbLine
 62
7
  6
CONTINUOUS
 10
53.5604517929
 20
-7.2407739234
 11
53.6974490905
 21
-7.377771221
  0
LINE
  5
49D
100
AcDbEntity
  8
ASSI
100
AcDbLine
 62
7
  6
CONTINUOUS
 10
53.5604517929
 20
-7.2407739234
 11
53.6974490905
 21
-7.377771221
  0
LINE
  5
49E
100
AcDbEntity
  8
IMPORT_IGES
100
AcDbLine
 62
7
  6
CONTINUOUS
 10
66.711781571
 20
-22.8128426668
 11
67.2735141767
 21
-23.6364485672
  0
LINE
  5
49F
100
AcDbEntity
  8
IMPORT_IGES
100
AcDbLine
 62
7
  6
CONTINUOUS
 10
67.2735141767
 20
-22.9663215208
 11
66.7087119939
 21
-22.1364485672
  0
LWPOLYLINE
  5
4A0
100
AcDbEntity
  8
IMPORT_IGES
100
AcDbPolyline
 62
7
  6
CONTINUOUS
 90
11
 70
0
 10
71.1230912572
 20
-38.8555013134
 10
71.1228809493
 20
-38.8525809756
 10
71.1222295059
 20
-38.8506868804
 10
71.1211453341
 20
-38.8498225868
 10
71.1196262591
 20
-38.8500008779
 10
71.1176705835
 20
-38.8512073371
 10
71.1152775687
 20
-38.8534004806
 10
71.1124296947
 20
-38.8565763873
 10
71.1091018317
 20
-38.8607199775
 10
71.1052742463
 20
-38.8657691173
 10
71.1009153132
 20
-38.8716981798
  0
LINE
  5
4A1
100
AcDbEntity
  8
IMPORT_IGES
100
AcDbLine
 62
7
  6
CONTINUOUS
 10
68.7095919393
 20
-28.5068442016
 11
68.7095919393
 21
-28.1364485672
  0
LINE
  5
4A2
100
AcDbEntity
  8
IMPORT_IGES
100
AcDbLine
 62
250
  6
CONTINUOUS
 10
69.2617053095
 20
-38.4070721994
 11
69.2617053095
 21
-13.0658249349
  0
LINE
  5
4A3
100
AcDbEntity
  8
IMPORT_IGES
100
AcDbLine
 62
250
  6
CONTINUOUS
 10
69.7600946818
 20
-13.5653611043
 11
69.7600946818
 21
-37.90753603
  0
LINE
  5
4A4
100
AcDbEntity
  8
IMPORT_IGES
100
AcDbLine
 62
7
  6
CONTINUOUS
 10
70.1230912572
 20
-14.7364485672
 11
70.1230912572
 21
-20.7364485672
  0
LINE
  5
4A5
100
AcDbEntity
  8
IMPORT_IGES
100
AcDbLine
 62
7
  6
CONTINUOUS
 10
70.1230912572
 20
-30.7364485672
 11
70.1230912572
 21
-36.7364485672
  0
LINE
  5
4A6
100
AcDbEntity
  8
IMPORT_IGES
100
AcDbLine
 62
250
  6
CONTINUOUS
 10
70.3730912572
 20
-43.3864485672
 11
70.3730912572
 21
-42.8864485672
  0
LINE
  5
4A7
100
AcDbEntity
  8
IMPORT_IGES
100
AcDbLine
 62
250
  6
CONTINUOUS
 10
70.3730912572
 20
-10.5864485672
 11
70.3730912572
 21
-10.0864485672
  0
LINE
  5
4A8
100
AcDbEntity
  8
IMPORT_IGES
100
AcDbLine
 62
250
  6
CONTINUOUS
 10
70.6230912572
 20
-11.8364485672
 11
70.6230912572
 21
-10.8364485672
  0
LINE
  5
4A9
100
AcDbEntity
  8
IMPORT_IGES
100
AcDbLine
 62
250
  6
CONTINUOUS
 10
70.6230912572
 20
-42.6364485672
 11
70.6231495602
 21
-39.1364510034
  0
LINE
  5
4AA
100
AcDbEntity
  8
IMPORT_IGES
100
AcDbLine
 62
250
  6
CONTINUOUS
 10
70.6231495602
 20
-12.3364460478
 11
70.6230912572
 21
-11.8364485672
  0
LWPOLYLINE
  5
4AB
100
AcDbEntity
  8
IMPORT_IGES
100
AcDbPolyline
 62
250
  6
CONTINUOUS
 90
16
 70
0
 10
69.7600946818
 20
-37.90753603
 10
69.7571972243
 20
-37.9596347304
 10
69.7488953341
 20
-38.0111659489
 10
69.7352793251
 20
-38.0615675867
 10
69.7164974319
 20
-38.1102899393
 10
69.6927543283
 20
-38.15680134
 10
69.6643090174
 20
-38.2005940187
 10
69.6314716673
 20
-38.2411902257
 10
69.5946004074
 20
-38.2781470097
 10
69.5540977521
 20
-38.3110608539
 10
69.5104065223
 20
-38.3395721652
 10
69.464002487
 20
-38.3633707134
 10
69.4153890804
 20
-38.3821978287
 10
69.3650953819
 20
-38.3958475011
 10
69.313670798
 20
-38.404169552
 10
69.2616763412
 20
-38.4070722989
  0
LINE
  5
4AC
100
AcDbEntity
  8
DRAFT
100
AcDbLine
 62
7
  6
CONTINUOUS
 10
72.4230912572
 20
-24.5126311646
 11
72.3892593123
 21
-24.580300208
  0
LINE
  5
4AD
100
AcDbEntity
  8
ASSI
100
AcDbLine
 62
7
  6
CONTINUOUS
 10
72.4230912572
 20
-24.5126311646
 11
72.3892593123
 21
-24.580300208
  0
LINE
  5
4AE
100
AcDbEntity
  8
DRAFT
100
AcDbLine
 62
7
  6
CONTINUOUS
 10
72.8230912572
 20
-28.9864485672
 11
72.6607591534
 21
-29.148780671
  0
LINE
  5
4AF
100
AcDbEntity
  8
ASSI
100
AcDbLine
 62
7
  6
CONTINUOUS
 10
72.8230912572
 20
-28.9864485672
 11
72.6607591534
 21
-29.148780671
  0
LINE
  5
4B0
100
AcDbEntity
  8
IMPORT_IGES
100
AcDbLine
 62
7
  6
CONTINUOUS
 10
43.9966544756
 20
-14.7364485672
 11
44.7230912572
 21
-14.7364485672
  0
LINE
  5
4B1
100
AcDbEntity
  8
IMPORT_IGES
100
AcDbLine
 62
7
  6
CONTINUOUS
 10
70.1230912572
 20
-14.7364485672
 11
70.8495280388
 21
-14.7364485672
  0
LINE
  5
4B2
100
AcDbEntity
  8
IMPORT_IGES
100
AcDbLine
 62
250
  6
CONTINUOUS
 10
69.7600946818
 20
-13.5653611043
 11
45.0860878326
 21
-13.5653611043
  0
LINE
  5
4B3
100
AcDbEntity
  8
DRAFT
100
AcDbLine
 62
7
  6
CONTINUOUS
 10
72.6607591534
 20
-24.3241164633
 11
72.8230912572
 21
-24.4864485672
  0
LINE
  5
4B4
100
AcDbEntity
  8
ASSI
100
AcDbLine
 62
7
  6
CONTINUOUS
 10
72.6607591534
 20
-24.3241164633
 11
72.8230912572
 21
-24.4864485672
  0
LINE
  5
4B5
100
AcDbEntity
  8
DRAFT
100
AcDbLine
 62
7
  6
CONTINUOUS
 10
72.4230912572
 20
-28.9602659698
 11
72.3892593123
 21
-28.8925969263
  0
LINE
  5
4B6
100
AcDbEntity
  8
ASSI
100
AcDbLine
 62
7
  6
CONTINUOUS
 10
72.4230912572
 20
-28.9602659698
 11
72.3892593123
 21
-28.8925969263
  0
LINE
  5
4B7
100
AcDbEntity
  8
DRAFT
100
AcDbLine
 62
7
  6
CONTINUOUS
 10
72.3754257542
 20
-27.1008895937
 11
72.3892593123
 21
-28.8925969263
  0
LINE
  5
4B8
100
AcDbEntity
  8
ASSI
100
AcDbLine
 62
7
  6
CONTINUOUS
 10
72.3754257542
 20
-27.1008895937
 11
72.3892593123
 21
-28.8925969263
  0
LINE
  5
4B9
100
AcDbEntity
  8
IMPORT_IGES
100
AcDbLine
 62
7
  6
CONTINUOUS
 10
71.1230912572
 20
-10.8364485672
 11
71.1230912572
 21
-42.6364485672
  0
LINE
  5
4BA
100
AcDbEntity
  8
DRAFT
100
AcDbLine
 62
7
  6
CONTINUOUS
 10
71.6230912572
 20
-24.3502990607
 11
71.6230912572
 21
-10.0733582655
  0
LINE
  5
4BB
100
AcDbEntity
  8
ASSI
100
AcDbLine
 62
7
  6
CONTINUOUS
 10
71.6230912572
 20
-24.3502990607
 11
71.6230912572
 21
-10.0733582655
  0
LINE
  5
4BC
100
AcDbEntity
  8
DRAFT
100
AcDbLine
 62
7
  6
CONTINUOUS
 10
71.6230912572
 20
-29.1225980736
 11
71.6230912572
 21
-43.3995388689
  0
LINE
  5
4BD
100
AcDbEntity
  8
ASSI
100
AcDbLine
 62
7
  6
CONTINUOUS
 10
71.6230912572
 20
-29.1225980736
 11
71.6230912572
 21
-43.3995388689
  0
LINE
  5
4BE
100
AcDbEntity
  8
0
100
AcDbLine
 62
7
  6
CONTINUOUS
 10
71.7730912572
 20
-5.5364485672
 11
71.7730912572
 21
-4.5364485672
  0
LINE
  5
4BF
100
AcDbEntity
  8
ASSI
100
AcDbLine
 62
7
  6
CONTINUOUS
 10
71.7730912572
 20
-5.5364485672
 11
71.7730912572
 21
-4.5364485672
  0
LINE
  5
4C0
100
AcDbEntity
  8
0
100
AcDbLine
 62
7
  6
CONTINUOUS
 10
71.7730912572
 20
-47.9364485672
 11
71.7730912572
 21
-48.9364485672
  0
LINE
  5
4C1
100
AcDbEntity
  8
ASSI
100
AcDbLine
 62
7
  6
CONTINUOUS
 10
71.7730912572
 20
-47.9364485672
 11
71.7730912572
 21
-48.9364485672
  0
LINE
  5
4C2
100
AcDbEntity
  8
0
100
AcDbLine
 62
7
  6
CONTINUOUS
 10
71.9230912572
 20
-27.5182546158
 11
71.9230912572
 21
-25.7055029236
  0
LINE
  5
4C3
100
AcDbEntity
  8
RACCORDO
100
AcDbLine
 62
250
  6
CONTINUOUS
 10
72.1432279244
 20
-10.0602679638
 11
72.1432279244
 21
-8.6868456244
  0
LINE
  5
4C4
100
AcDbEntity
  8
ASSI
100
AcDbLine
 62
250
  6
CONTINUOUS
 10
72.1432279244
 20
-10.0602679638
 11
72.1432279244
 21
-8.6868456244
  0
LINE
  5
4C5
100
AcDbEntity
  8
RACCORDO
100
AcDbLine
 62
250
  6
CONTINUOUS
 10
72.1432279244
 20
-43.4126291705
 11
72.1432279244
 21
-44.7860515099
  0
LINE
  5
4C6
100
AcDbEntity
  8
ASSI
100
AcDbLine
 62
250
  6
CONTINUOUS
 10
72.1432279244
 20
-43.4126291705
 11
72.1432279244
 21
-44.7860515099
  0
LINE
  5
4C7
100
AcDbEntity
  8
ASSI
100
AcDbLine
 62
250
  6
CONTINUOUS
 10
72.5230912572
 20
-28.9602659698
 11
72.5230912572
 21
-24.5126311646
  0
LINE
  5
4C8
100
AcDbEntity
  8
0
100
AcDbLine
 62
250
  6
CONTINUOUS
 10
72.5230912572
 20
-28.9602659698
 11
72.5230912572
 21
-24.5126311646
  0
LINE
  5
4C9
100
AcDbEntity
  8
RACCORDO
100
AcDbLine
 62
250
  6
CONTINUOUS
 10
72.643151772
 20
-44.2860705484
 11
72.643151772
 21
-43.4083418891
  0
LINE
  5
4CA
100
AcDbEntity
  8
ASSI
100
AcDbLine
 62
250
  6
CONTINUOUS
 10
72.643151772
 20
-44.2860705484
 11
72.643151772
 21
-43.4083418891
  0
LINE
  5
4CB
100
AcDbEntity
  8
RACCORDO
100
AcDbLine
 62
250
  6
CONTINUOUS
 10
72.643151772
 20
-10.0645552453
 11
72.643151772
 21
-9.186826586
  0
LINE
  5
4CC
100
AcDbEntity
  8
ASSI
100
AcDbLine
 62
250
  6
CONTINUOUS
 10
72.643151772
 20
-10.0645552453
 11
72.643151772
 21
-9.186826586
  0
LINE
  5
4CD
100
AcDbEntity
  8
DRAFT
100
AcDbLine
 62
7
  6
CONTINUOUS
 10
72.6607591534
 20
-43.3995388689
 11
72.6607591534
 21
-29.148780671
  0
LINE
  5
4CE
100
AcDbEntity
  8
ASSI
100
AcDbLine
 62
7
  6
CONTINUOUS
 10
72.6607591534
 20
-43.3995388689
 11
72.6607591534
 21
-29.148780671
  0
LINE
  5
4CF
100
AcDbEntity
  8
DRAFT
100
AcDbLine
 62
7
  6
CONTINUOUS
 10
72.6607591534
 20
-24.3241164633
 11
72.6607591534
 21
-10.0733582655
  0
LINE
  5
4D0
100
AcDbEntity
  8
ASSI
100
AcDbLine
 62
7
  6
CONTINUOUS
 10
72.6607591534
 20
-24.3241164633
 11
72.6607591534
 21
-10.0733582655
  0
LINE
  5
4D1
100
AcDbEntity
  8
ASSI
100
AcDbLine
 62
7
  6
CONTINUOUS
 10
72.7230912572
 20
-24.5126311646
 11
72.7230912572
 21
-28.9602659698
  0
LINE
  5
4D2
100
AcDbEntity
  8
0
100
AcDbLine
 62
7
  6
CONTINUOUS
 10
72.7230912572
 20
-24.5126311646
 11
72.7230912572
 21
-28.9602659698
  0
LINE
  5
4D3
100
AcDbEntity
  8
DRAFT
100
AcDbLine
 62
7
  6
CONTINUOUS
 10
72.7969086598
 20
-28.9602659698
 11
72.7969086598
 21
-24.5126311646
  0
LINE
  5
4D4
100
AcDbEntity
  8
ASSI
100
AcDbLine
 62
7
  6
CONTINUOUS
 10
72.7969086598
 20
-28.9602659698
 11
72.7969086598
 21
-24.5126311646
  0
LINE
  5
4D5
100
AcDbEntity
  8
RACCORDO
100
AcDbLine
 62
7
  6
CONTINUOUS
 10
72.8230912572
 20
-44.3760334391
 11
72.8230912572
 21
-28.9864485672
  0
LINE
  5
4D6
100
AcDbEntity
  8
DRAFT
100
AcDbLine
 62
7
  6
CONTINUOUS
 10
72.8230912572
 20
-28.9864485672
 11
72.8230912572
 21
-24.4864485672
  0
LINE
  5
4D7
100
AcDbEntity
  8
RACCORDO
100
AcDbLine
 62
7
  6
CONTINUOUS
 10
72.8230912572
 20
-24.4864485672
 11
72.8230912572
 21
-9.0968636953
  0
LINE
  5
4D8
100
AcDbEntity
  8
ASSI
100
AcDbLine
 62
7
  6
CONTINUOUS
 10
72.8230912572
 20
-44.3760334391
 11
72.8230912572
 21
-9.0968636953
  0
LINE
  5
4D9
100
AcDbEntity
  8
DRAFT
100
AcDbLine
 62
7
  6
CONTINUOUS
 10
72.3892593123
 20
-24.580300208
 11
72.3754257542
 21
-26.3720075407
  0
LINE
  5
4DA
100
AcDbEntity
  8
ASSI
100
AcDbLine
 62
7
  6
CONTINUOUS
 10
72.3892593123
 20
-24.580300208
 11
72.3754257542
 21
-26.3720075407
  0
LWPOLYLINE
  5
4DB
100
AcDbEntity
  8
ASSI
100
AcDbPolyline
 62
250
  6
CONTINUOUS
 90
13
 70
0
 10
72.7230912572
 20
-26.786499975
 10
72.7213802295
 20
-26.7929920838
 10
72.7162764225
 20
-26.7993731109
 10
72.7078671637
 20
-26.805533875
 10
72.696296338
 20
-26.8113689637
 10
72.6817619253
 20
-26.8167785372
 10
72.6645126135
 20
-26.8216700362
 10
72.644843543
 20
-26.8259597656
 10
72.6230912572
 20
-26.829574327
 10
72.5996279437
 20
-26.8324518744
 10
72.5748550662
 20
-26.834543172
 10
72.5491964957
 20
-26.8358124372
 10
72.5230912572
 20
-26.8362379524
  0
LWPOLYLINE
  5
4DC
100
AcDbEntity
  8
0
100
AcDbPolyline
 62
250
  6
CONTINUOUS
 90
13
 70
0
 10
72.7230912572
 20
-26.786499975
 10
72.7213802295
 20
-26.7929920838
 10
72.7162764225
 20
-26.7993731109
 10
72.7078671637
 20
-26.805533875
 10
72.696296338
 20
-26.8113689637
 10
72.6817619253
 20
-26.8167785372
 10
72.6645126135
 20
-26.8216700362
 10
72.644843543
 20
-26.8259597656
 10
72.6230912572
 20
-26.829574327
 10
72.5996279437
 20
-26.8324518744
 10
72.5748550662
 20
-26.834543172
 10
72.5491964957
 20
-26.8358124372
 10
72.5230912572
 20
-26.8362379524
  0
LINE
  5
4DD
100
AcDbEntity
  8
0
100
AcDbLine
 62
7
  6
CONTINUOUS
 10
65.9962760109
 20
-47.9364485672
 11
65.6612547476
 21
-48.9364485672
  0
LINE
  5
4DE
100
AcDbEntity
  8
ASSI
100
AcDbLine
 62
7
  6
CONTINUOUS
 10
65.9962760109
 20
-47.9364485672
 11
65.6612547476
 21
-48.9364485672
  0
LINE
  5
4DF
100
AcDbEntity
  8
IMPORT_IGES
100
AcDbLine
 62
250
  6
CONTINUOUS
 10
45.5844772049
 20
-13.0658249349
 11
69.2617053095
 21
-13.0658249349
  0
LINE
  5
4E0
100
AcDbEntity
  8
IMPORT_IGES
100
AcDbLine
 62
7
  6
CONTINUOUS
 10
70.6231495602
 20
-12.3364460478
 11
44.2230329542
 21
-12.3364461309
  0
LINE
  5
4E1
100
AcDbEntity
  8
IMPORT_IGES
100
AcDbLine
 62
250
  6
CONTINUOUS
 10
71.1230912572
 20
-11.8364485672
 11
43.7230912572
 21
-11.8364485672
  0
LINE
  5
4E2
100
AcDbEntity
  8
IMPORT_IGES
100
AcDbLine
 62
7
  6
CONTINUOUS
 10
44.2230912572
 20
-11.3364485672
 11
70.6230912572
 21
-11.3364485672
  0
LWPOLYLINE
  5
4E3
100
AcDbEntity
  8
IMPORT_IGES
100
AcDbPolyline
 62
7
  6
CONTINUOUS
 90
28
 70
0
 10
70.623178865
 20
-12.3364484834
 10
70.6448463314
 20
-12.3368955558
 10
70.6668458334
 20
-12.338253106
 10
70.6891333138
 20
-12.3405563015
 10
70.7116891886
 20
-12.3438451365
 10
70.734434669
 20
-12.3481473907
 10
70.7572344943
 20
-12.3534648692
 10
70.7800275738
 20
-12.359809094
 10
70.8027663259
 20
-12.3671947145
 10
70.8253382968
 20
-12.375603697
 10
70.847748528
 20
-12.3850594092
 10
70.8698783526
 20
-12.3955371215
 10
70.8914480827
 20
-12.4069021866
 10
70.9125470264
 20
-12.4191855061
 10
70.9330053053
 20
-12.4322834901
 10
70.952229396
 20
-12.4457497657
 10
70.9701602669
 20
-12.459394007
 10
70.9869276125
 20
-12.4731795236
 10
71.0023126036
 20
-12.4867953298
 10
71.0163029336
 20
-12.5000433304
 10
71.0290637517
 20
-12.5128966479
 10
71.0406717681
 20
-12.5252905547
 10
71.0511937585
 20
-12.5371418577
 10
71.0607084304
 20
-12.5483813733
 10
71.0693039384
 20
-12.5589829594
 10
71.077044206
 20
-12.5688977488
 10
71.0839916633
 20
-12.5780746453
 10
71.0902230432
 20
-12.5864974669
  0
LWPOLYLINE
  5
4E4
100
AcDbEntity
  8
IMPORT_IGES
100
AcDbPolyline
 62
250
  6
CONTINUOUS
 90
16
 70
0
 10
69.2616763411
 20
-13.0658248355
 10
69.3136709137
 20
-13.0687275949
 10
69.3650955932
 20
-13.0770496788
 10
69.4153893646
 20
-13.090699399
 10
69.4640028202
 20
-13.1095265705
 10
69.5104068808
 20
-13.1333251773
 10
69.5540981134
 20
-13.161836544
 10
69.5946007512
 20
-13.194750435
 10
69.6314719765
 20
-13.2317072526
 10
69.6643092791
 20
-13.272303476
 10
69.692748839
 20
-13.3160862962
 10
69.7164882974
 20
-13.3625867398
 10
69.7352794169
 20
-13.4113298285
 10
69.7489097261
 20
-13.4617981407
 10
69.7572155412
 20
-13.5134321662
 10
69.7600956457
 20
-13.5656681401
  0
LINE
  5
4E5
100
AcDbEntity
  8
0
100
AcDbLine
 62
7
  6
CONTINUOUS
 10
65.6612547476
 20
-4.5364485672
 11
65.9962760109
 21
-5.5364485672
  0
LINE
  5
4E6
100
AcDbEntity
  8
ASSI
100
AcDbLine
 62
7
  6
CONTINUOUS
 10
65.6612547476
 20
-4.5364485672
 11
65.9962760109
 21
-5.5364485672
  0
LWPOLYLINE
  5
4E7
100
AcDbEntity
  8
RACCORDO
100
AcDbPolyline
 62
250
  6
CONTINUOUS
 90
19
 70
0
 10
72.643151772
 20
-9.186826586
 10
72.6412319582
 20
-9.1431271128
 10
72.6354993186
 20
-9.0997553197
 10
72.6259959548
 20
-9.0570435064
 10
72.6127895169
 20
-9.0153099512
 10
72.595981216
 20
-8.9748847374
 10
72.5757130331
 20
-8.9361039901
 10
72.5521594114
 20
-8.8992818612
 10
72.5254950381
 20
-8.8646745878
 10
72.4958974125
 20
-8.8325121662
 10
72.4635561381
 20
-8.8030168707
 10
72.4287427514
 20
-8.7764512397
 10
72.3917938146
 20
-8.7530651342
 10
72.3529998549
 20
-8.7330230554
 10
72.3126651919
 20
-8.7164638155
 10
72.2711869515
 20
-8.7035204011
 10
72.2289186339
 20
-8.6942582879
 10
72.186157921
 20
-8.6886990504
 10
72.1432279244
 20
-8.6868456244
  0
LWPOLYLINE
  5
4E8
100
AcDbEntity
  8
ASSI
100
AcDbPolyline
 62
250
  6
CONTINUOUS
 90
19
 70
0
 10
72.643151772
 20
-9.186826586
 10
72.6412319582
 20
-9.1431271128
 10
72.6354993186
 20
-9.0997553197
 10
72.6259959548
 20
-9.0570435064
 10
72.6127895169
 20
-9.0153099512
 10
72.595981216
 20
-8.9748847374
 10
72.5757130331
 20
-8.9361039901
 10
72.5521594114
 20
-8.8992818612
 10
72.5254950381
 20
-8.8646745878
 10
72.4958974125
 20
-8.8325121662
 10
72.4635561381
 20
-8.8030168707
 10
72.4287427514
 20
-8.7764512397
 10
72.3917938146
 20
-8.7530651342
 10
72.3529998549
 20
-8.7330230554
 10
72.3126651919
 20
-8.7164638155
 10
72.2711869515
 20
-8.7035204011
 10
72.2289186339
 20
-8.6942582879
 10
72.186157921
 20
-8.6886990504
 10
72.1432279244
 20
-8.6868456244
  0
LWPOLYLINE
  5
4E9
100
AcDbEntity
  8
RACCORDO
100
AcDbPolyline
 62
7
  6
CONTINUOUS
 90
22
 70
0
 10
72.8230839596
 20
-44.3760297905
 10
72.8219052117
 20
-44.4106355374
 10
72.8183692152
 20
-44.4451425331
 10
72.8124834291
 20
-44.4793840592
 10
72.8042983164
 20
-44.5130805946
 10
72.7938287785
 20
-44.5461847517
 10
72.7809766518
 20
-44.5788570928
 10
72.7656379885
 20
-44.6110815103
 10
72.7478805775
 20
-44.642470367
 10
72.7278624433
 20
-44.6726213123
 10
72.7057497616
 20
-44.701254175
 10
72.6815622777
 20
-44.7283131024
 10
72.655277639
 20
-44.7537399774
 10
72.6270666782
 20
-44.7772887624
 10
72.59697527
 20
-44.7988451156
 10
72.5647349906
 20
-44.8184464306
 10
72.5303558425
 20
-44.8358703365
 10
72.49405378
 20
-44.8507943489
 10
72.4558448635
 20
-44.8629889686
 10
72.4158699395
 20
-44.8721680633
 10
72.3744107909
 20
-44.8780300481
 10
72.3317426257
 20
-44.8803016821
  0
LWPOLYLINE
  5
4EA
100
AcDbEntity
  8
ASSI
100
AcDbPolyline
 62
7
  6
CONTINUOUS
 90
22
 70
0
 10
72.8230839596
 20
-44.3760297905
 10
72.8219052117
 20
-44.4106355374
 10
72.8183692152
 20
-44.4451425331
 10
72.8124834291
 20
-44.4793840592
 10
72.8042983164
 20
-44.5130805946
 10
72.7938287785
 20
-44.5461847517
 10
72.7809766518
 20
-44.5788570928
 10
72.7656379885
 20
-44.6110815103
 10
72.7478805775
 20
-44.642470367
 10
72.7278624433
 20
-44.6726213123
 10
72.7057497616
 20
-44.701254175
 10
72.6815622777
 20
-44.7283131024
 10
72.655277639
 20
-44.7537399774
 10
72.6270666782
 20
-44.7772887624
 10
72.59697527
 20
-44.7988451156
 10
72.5647349906
 20
-44.8184464306
 10
72.5303558425
 20
-44.8358703365
 10
72.49405378
 20
-44.8507943489
 10
72.4558448635
 20
-44.8629889686
 10
72.4158699395
 20
-44.8721680633
 10
72.3744107909
 20
-44.8780300481
 10
72.3317426257
 20
-44.8803016821
  0
LINE
  5
4EB
100
AcDbEntity
  8
RACCORDO
100
AcDbLine
 62
7
  6
CONTINUOUS
 10
62.294381434
 20
-46.2321232109
 11
62.4313787315
 21
-46.0951259134
  0
LINE
  5
4EC
100
AcDbEntity
  8
ASSI
100
AcDbLine
 62
7
  6
CONTINUOUS
 10
62.294381434
 20
-46.2321232109
 11
62.4313787315
 21
-46.0951259134
  0
LINE
  5
4ED
100
AcDbEntity
  8
DRAFT
100
AcDbLine
 62
7
  6
CONTINUOUS
 10
67.3293412572
 20
-10.0960481217
 11
67.1730912572
 21
-10.1004115556
  0
LINE
  5
4EE
100
AcDbEntity
  8
ASSI
100
AcDbLine
 62
7
  6
CONTINUOUS
 10
67.3293412572
 20
-10.0960481217
 11
67.1730912572
 21
-10.1004115556
  0
LINE
  5
4EF
100
AcDbEntity
  8
DRAFT
100
AcDbLine
 62
7
  6
CONTINUOUS
 10
63.6730912572
 20
-10.0724855787
 11
63.1730912572
 21
-10.0864485672
  0
LINE
  5
4F0
100
AcDbEntity
  8
ASSI
100
AcDbLine
 62
7
  6
CONTINUOUS
 10
63.6730912572
 20
-10.0724855787
 11
63.1730912572
 21
-10.0864485672
  0
LINE
  5
4F1
100
AcDbEntity
  8
DRAFT
100
AcDbLine
 62
7
  6
CONTINUOUS
 10
51.3293412572
 20
-10.0960481217
 11
51.1730912572
 21
-10.1004115556
  0
LINE
  5
4F2
100
AcDbEntity
  8
ASSI
100
AcDbLine
 62
7
  6
CONTINUOUS
 10
51.3293412572
 20
-10.0960481217
 11
51.1730912572
 21
-10.1004115556
  0
LINE
  5
4F3
100
AcDbEntity
  8
DRAFT
100
AcDbLine
 62
7
  6
CONTINUOUS
 10
47.6730912572
 20
-10.0724855787
 11
47.1730912572
 21
-10.0864485672
  0
LINE
  5
4F4
100
AcDbEntity
  8
ASSI
100
AcDbLine
 62
7
  6
CONTINUOUS
 10
47.6730912572
 20
-10.0724855787
 11
47.1730912572
 21
-10.0864485672
  0
LINE
  5
4F5
100
AcDbEntity
  8
IMPORT_IGES
100
AcDbLine
 62
250
  6
CONTINUOUS
 10
71.1230912572
 20
-10.8364485672
 11
70.6230912572
 21
-10.8364485672
  0
LINE
  5
4F6
100
AcDbEntity
  8
0
100
AcDbLine
 62
7
  6
CONTINUOUS
 10
67.1730912572
 20
-10.8364485672
 11
63.6730912572
 21
-10.8364485672
  0
LINE
  5
4F7
100
AcDbEntity
  8
ASSI
100
AcDbLine
 62
7
  6
CONTINUOUS
 10
67.1730912572
 20
-10.8364485672
 11
63.6730912572
 21
-10.8364485672
  0
LINE
  5
4F8
100
AcDbEntity
  8
0
100
AcDbLine
 62
7
  6
CONTINUOUS
 10
51.1730912572
 20
-10.8364485672
 11
47.6730912572
 21
-10.8364485672
  0
LINE
  5
4F9
100
AcDbEntity
  8
ASSI
100
AcDbLine
 62
7
  6
CONTINUOUS
 10
51.1730912572
 20
-10.8364485672
 11
47.6730912572
 21
-10.8364485672
  0
LINE
  5
4FA
100
AcDbEntity
  8
IMPORT_IGES
100
AcDbLine
 62
250
  6
CONTINUOUS
 10
44.2230912572
 20
-10.8364485672
 11
43.7230912572
 21
-10.8364485672
  0
LINE
  5
4FB
100
AcDbEntity
  8
IMPORT_IGES
100
AcDbLine
 62
250
  6
CONTINUOUS
 10
70.3730912572
 20
-10.5864485672
 11
67.1730912572
 21
-10.5864485672
  0
LINE
  5
4FC
100
AcDbEntity
  8
IMPORT_IGES
100
AcDbLine
 62
250
  6
CONTINUOUS
 10
63.6730912572
 20
-10.5864485672
 11
51.1730912572
 21
-10.5864485672
  0
LINE
  5
4FD
100
AcDbEntity
  8
IMPORT_IGES
100
AcDbLine
 62
250
  6
CONTINUOUS
 10
47.6730912572
 20
-10.5864485672
 11
44.4730912572
 21
-10.5864485672
  0
LINE
  5
4FE
100
AcDbEntity
  8
DRAFT
100
AcDbLine
 62
7
  6
CONTINUOUS
 10
71.6230912572
 20
-10.0864485672
 11
70.3730912572
 21
-10.0864485672
  0
LINE
  5
4FF
100
AcDbEntity
  8
ASSI
100
AcDbLine
 62
7
  6
CONTINUOUS
 10
71.6230912572
 20
-10.0864485672
 11
70.3730912572
 21
-10.0864485672
  0
LINE
  5
500
100
AcDbEntity
  8
DRAFT
100
AcDbLine
 62
7
  6
CONTINUOUS
 10
67.1730912572
 20
-10.0864485672
 11
63.6730912572
 21
-10.0864485672
  0
LINE
  5
501
100
AcDbEntity
  8
ASSI
100
AcDbLine
 62
7
  6
CONTINUOUS
 10
67.1730912572
 20
-10.0864485672
 11
63.6730912572
 21
-10.0864485672
  0
LINE
  5
502
100
AcDbEntity
  8
DRAFT
100
AcDbLine
 62
7
  6
CONTINUOUS
 10
51.1730912572
 20
-10.0864485672
 11
47.6730912572
 21
-10.0864485672
  0
LINE
  5
503
100
AcDbEntity
  8
ASSI
100
AcDbLine
 62
7
  6
CONTINUOUS
 10
51.1730912572
 20
-10.0864485672
 11
47.6730912572
 21
-10.0864485672
  0
LINE
  5
504
100
AcDbEntity
  8
DRAFT
100
AcDbLine
 62
7
  6
CONTINUOUS
 10
44.4730912572
 20
-10.0864485672
 11
43.2230912572
 21
-10.0864485672
  0
LINE
  5
505
100
AcDbEntity
  8
ASSI
100
AcDbLine
 62
7
  6
CONTINUOUS
 10
44.4730912572
 20
-10.0864485672
 11
43.2230912572
 21
-10.0864485672
  0
LINE
  5
506
100
AcDbEntity
  8
IMPORT_IGES
100
AcDbLine
 62
7
  6
CONTINUOUS
 10
44.4730912572
 20
-10.0864485672
 11
47.6730912572
 21
-10.0864485672
  0
LINE
  5
507
100
AcDbEntity
  8
IMPORT_IGES
100
AcDbLine
 62
7
  6
CONTINUOUS
 10
51.1730912572
 20
-10.0864485672
 11
63.6730912572
 21
-10.0864485672
  0
LINE
  5
508
100
AcDbEntity
  8
IMPORT_IGES
100
AcDbLine
 62
7
  6
CONTINUOUS
 10
67.1730912572
 20
-10.0864485672
 11
70.3730912572
 21
-10.0864485672
  0
LINE
  5
509
100
AcDbEntity
  8
DRAFT
100
AcDbLine
 62
7
  6
CONTINUOUS
 10
72.6607591534
 20
-10.0733582655
 11
71.6230912572
 21
-10.0733582655
  0
LINE
  5
50A
100
AcDbEntity
  8
ASSI
100
AcDbLine
 62
7
  6
CONTINUOUS
 10
72.6607591534
 20
-10.0733582655
 11
71.6230912572
 21
-10.0733582655
  0
LINE
  5
50B
100
AcDbEntity
  8
DRAFT
100
AcDbLine
 62
7
  6
CONTINUOUS
 10
43.2230912572
 20
-10.0733582655
 11
42.185423361
 21
-10.0733582655
  0
LINE
  5
50C
100
AcDbEntity
  8
ASSI
100
AcDbLine
 62
7
  6
CONTINUOUS
 10
43.2230912572
 20
-10.0733582655
 11
42.185423361
 21
-10.0733582655
  0
LINE
  5
50D
100
AcDbEntity
  8
DRAFT
100
AcDbLine
 62
7
  6
CONTINUOUS
 10
63.6730912572
 20
-10.0602679638
 11
51.1730912572
 21
-10.0602679638
  0
LINE
  5
50E
100
AcDbEntity
  8
ASSI
100
AcDbLine
 62
7
  6
CONTINUOUS
 10
63.6730912572
 20
-10.0602679638
 11
51.1730912572
 21
-10.0602679638
  0
LINE
  5
50F
100
AcDbEntity
  8
RACCORDO
100
AcDbLine
 62
7
  6
CONTINUOUS
 10
42.70295459
 20
-10.0602679638
 11
47.6730912572
 21
-10.0602679638
  0
LINE
  5
510
100
AcDbEntity
  8
ASSI
100
AcDbLine
 62
7
  6
CONTINUOUS
 10
42.70295459
 20
-10.0602679638
 11
47.6730912572
 21
-10.0602679638
  0
LINE
  5
511
100
AcDbEntity
  8
RACCORDO
100
AcDbLine
 62
7
  6
CONTINUOUS
 10
67.1730912572
 20
-10.0602679638
 11
72.1432279244
 21
-10.0602679638
  0
LINE
  5
512
100
AcDbEntity
  8
ASSI
100
AcDbLine
 62
7
  6
CONTINUOUS
 10
67.1730912572
 20
-10.0602679638
 11
72.1432279244
 21
-10.0602679638
  0
LINE
  5
513
100
AcDbEntity
  8
RACCORDO
100
AcDbLine
 62
250
  6
CONTINUOUS
 10
42.2030307424
 20
-9.186826586
 11
72.643151772
 21
-9.186826586
  0
LINE
  5
514
100
AcDbEntity
  8
ASSI
100
AcDbLine
 62
250
  6
CONTINUOUS
 10
42.2030307424
 20
-9.186826586
 11
72.643151772
 21
-9.186826586
  0
LINE
  5
515
100
AcDbEntity
  8
DRAFT
100
AcDbLine
 62
7
  6
CONTINUOUS
 10
47.6730912572
 20
-10.1004115556
 11
47.5168412572
 21
-10.0960481217
  0
LINE
  5
516
100
AcDbEntity
  8
ASSI
100
AcDbLine
 62
7
  6
CONTINUOUS
 10
47.6730912572
 20
-10.1004115556
 11
47.5168412572
 21
-10.0960481217
  0
LINE
  5
517
100
AcDbEntity
  8
DRAFT
100
AcDbLine
 62
7
  6
CONTINUOUS
 10
51.6730912572
 20
-10.0864485672
 11
51.1730912572
 21
-10.0724855787
  0
LINE
  5
518
100
AcDbEntity
  8
ASSI
100
AcDbLine
 62
7
  6
CONTINUOUS
 10
51.6730912572
 20
-10.0864485672
 11
51.1730912572
 21
-10.0724855787
  0
LINE
  5
519
100
AcDbEntity
  8
DRAFT
100
AcDbLine
 62
7
  6
CONTINUOUS
 10
63.6730912572
 20
-10.1004115556
 11
63.5168412572
 21
-10.0960481217
  0
LINE
  5
51A
100
AcDbEntity
  8
ASSI
100
AcDbLine
 62
7
  6
CONTINUOUS
 10
63.6730912572
 20
-10.1004115556
 11
63.5168412572
 21
-10.0960481217
  0
LINE
  5
51B
100
AcDbEntity
  8
DRAFT
100
AcDbLine
 62
7
  6
CONTINUOUS
 10
67.6730912572
 20
-10.0864485672
 11
67.1730912572
 21
-10.0724855787
  0
LINE
  5
51C
100
AcDbEntity
  8
ASSI
100
AcDbLine
 62
7
  6
CONTINUOUS
 10
67.6730912572
 20
-10.0864485672
 11
67.1730912572
 21
-10.0724855787
  0
LINE
  5
51D
100
AcDbEntity
  8
RACCORDO
100
AcDbLine
 62
7
  6
CONTINUOUS
 10
62.294381434
 20
-7.2407739234
 11
62.4313787315
 21
-7.377771221
  0
LINE
  5
51E
100
AcDbEntity
  8
ASSI
100
AcDbLine
 62
7
  6
CONTINUOUS
 10
62.294381434
 20
-7.2407739234
 11
62.4313787315
 21
-7.377771221
  0
LWPOLYLINE
  5
51F
100
AcDbEntity
  8
RACCORDO
100
AcDbPolyline
 62
250
  6
CONTINUOUS
 90
19
 70
0
 10
75.6669443721
 20
-9.0925764138
 10
75.6650386597
 20
-9.0490023089
 10
75.6593426612
 20
-9.0057597971
 10
75.6498997224
 20
-8.9631779481
 10
75.6367817027
 20
-8.9215808041
 10
75.6200884286
 20
-8.8812849137
 10
75.5999469337
 20
-8.8425969236
 10
75.5765104921
 20
-8.805811244
 10
75.549957452
 20
-8.7712078091
 10
75.5204898784
 20
-8.7390499463
 10
75.4883320156
 20
-8.7095823726
 10
75.4537285805
 20
-8.6830293324
 10
75.4169429009
 20
-8.6595928907
 10
75.3782549108
 20
-8.6394513958
 10
75.3379590206
 20
-8.6227581217
 10
75.2963618766
 20
-8.6096401021
 10
75.2537800275
 20
-8.6001971633
 10
75.2105375156
 20
-8.5945011647
 10
75.1669634106
 20
-8.5925954523
  0
LWPOLYLINE
  5
520
100
AcDbEntity
  8
ASSI
100
AcDbPolyline
 62
250
  6
CONTINUOUS
 90
19
 70
0
 10
75.6669443721
 20
-9.0925764138
 10
75.6650386597
 20
-9.0490023089
 10
75.6593426612
 20
-9.0057597971
 10
75.6498997224
 20
-8.9631779481
 10
75.6367817027
 20
-8.9215808041
 10
75.6200884286
 20
-8.8812849137
 10
75.5999469337
 20
-8.8425969236
 10
75.5765104921
 20
-8.805811244
 10
75.549957452
 20
-8.7712078091
 10
75.5204898784
 20
-8.7390499463
 10
75.4883320156
 20
-8.7095823726
 10
75.4537285805
 20
-8.6830293324
 10
75.4169429009
 20
-8.6595928907
 10
75.3782549108
 20
-8.6394513958
 10
75.3379590206
 20
-8.6227581217
 10
75.2963618766
 20
-8.6096401021
 10
75.2537800275
 20
-8.6001971633
 10
75.2105375156
 20
-8.5945011647
 10
75.1669634106
 20
-8.5925954523
  0
LINE
  5
521
100
AcDbEntity
  8
RACCORDO
100
AcDbLine
 62
7
  6
CONTINUOUS
 10
75.0561264367
 20
-6.2364485672
 11
75.0561264367
 21
-6.7407929619
  0
LINE
  5
522
100
AcDbEntity
  8
ASSI
100
AcDbLine
 62
7
  6
CONTINUOUS
 10
75.0561264367
 20
-6.2364485672
 11
75.0561264367
 21
-6.7407929619
  0
LINE
  5
523
100
AcDbEntity
  8
RACCORDO
100
AcDbLine
 62
7
  6
CONTINUOUS
 10
75.0561264367
 20
-46.7321041725
 11
75.0561264367
 21
-47.2364485672
  0
LINE
  5
524
100
AcDbEntity
  8
ASSI
100
AcDbLine
 62
7
  6
CONTINUOUS
 10
75.0561264367
 20
-46.7321041725
 11
75.0561264367
 21
-47.2364485672
  0
LINE
  5
525
100
AcDbEntity
  8
RACCORDO
100
AcDbLine
 62
250
  6
CONTINUOUS
 10
75.166963413
 20
-44.8803016821
 11
75.1669634106
 21
-8.5925954523
  0
LINE
  5
526
100
AcDbEntity
  8
ASSI
100
AcDbLine
 62
250
  6
CONTINUOUS
 10
75.166963413
 20
-44.8803016821
 11
75.1669634106
 21
-8.5925954523
  0
LINE
  5
527
100
AcDbEntity
  8
RACCORDO
100
AcDbLine
 62
7
  6
CONTINUOUS
 10
75.6669443721
 20
-44.3803207205
 11
75.6669443721
 21
-9.0925764138
  0
LINE
  5
528
100
AcDbEntity
  8
ASSI
100
AcDbLine
 62
7
  6
CONTINUOUS
 10
75.6669443721
 20
-44.3803207205
 11
75.6669443721
 21
-9.0925764138
  0
LINE
  5
529
100
AcDbEntity
  8
RACCORDO
100
AcDbLine
 62
7
  6
CONTINUOUS
 10
76.0561264367
 20
-47.6364485672
 11
76.0561264367
 21
-46.7321041725
  0
LINE
  5
52A
100
AcDbEntity
  8
ASSI
100
AcDbLine
 62
7
  6
CONTINUOUS
 10
76.0561264367
 20
-47.6364485672
 11
76.0561264367
 21
-46.7321041725
  0
LINE
  5
52B
100
AcDbEntity
  8
RACCORDO
100
AcDbLine
 62
7
  6
CONTINUOUS
 10
76.0561264367
 20
-6.7407929619
 11
76.0561264367
 21
-5.8364485672
  0
LINE
  5
52C
100
AcDbEntity
  8
ASSI
100
AcDbLine
 62
7
  6
CONTINUOUS
 10
76.0561264367
 20
-6.7407929619
 11
76.0561264367
 21
-5.8364485672
  0
LINE
  5
52D
100
AcDbEntity
  8
DRAFT
100
AcDbLine
 62
7
  6
CONTINUOUS
 10
76.1309156937
 20
-5.8364485672
 11
76.1309156937
 21
-5.9033665855
  0
LINE
  5
52E
100
AcDbEntity
  8
ASSI
100
AcDbLine
 62
7
  6
CONTINUOUS
 10
76.1309156937
 20
-5.8364485672
 11
76.1309156937
 21
-5.9033665855
  0
LINE
  5
52F
100
AcDbEntity
  8
DRAFT
100
AcDbLine
 62
7
  6
CONTINUOUS
 10
76.1309156937
 20
-47.5695305488
 11
76.1309156937
 21
-47.6364485672
  0
LINE
  5
530
100
AcDbEntity
  8
ASSI
100
AcDbLine
 62
7
  6
CONTINUOUS
 10
76.1309156937
 20
-47.5695305488
 11
76.1309156937
 21
-47.6364485672
  0
LWPOLYLINE
  5
531
100
AcDbEntity
  8
RACCORDO
100
AcDbPolyline
 62
7
  6
CONTINUOUS
 90
16
 70
0
 10
75.7401577674
 20
-44.4535341159
 10
75.7374242428
 20
-44.5055735202
 10
75.7292654367
 20
-44.5571462108
 10
75.7157390004
 20
-44.6076844473
 10
75.6969276809
 20
-44.6567037775
 10
75.6730269145
 20
-44.7035691009
 10
75.6444231786
 20
-44.7475414772
 10
75.611604231
 20
-44.7880157549
 10
75.5748643339
 20
-44.8247537371
 10
75.5343595348
 20
-44.8575926901
 10
75.4903019316
 20
-44.8862411181
 10
75.44331062
 20
-44.9101850692
 10
75.3941907909
 20
-44.9290061083
 10
75.3436074779
 20
-44.9425141723
 10
75.2920273266
 20
-44.9506467635
 10
75.2400194917
 20
-44.9533577632
  0
LWPOLYLINE
  5
532
100
AcDbEntity
  8
ASSI
100
AcDbPolyline
 62
7
  6
CONTINUOUS
 90
16
 70
0
 10
75.7401577674
 20
-44.4535341159
 10
75.7374242428
 20
-44.5055735202
 10
75.7292654367
 20
-44.5571462108
 10
75.7157390004
 20
-44.6076844473
 10
75.6969276809
 20
-44.6567037775
 10
75.6730269145
 20
-44.7035691009
 10
75.6444231786
 20
-44.7475414772
 10
75.611604231
 20
-44.7880157549
 10
75.5748643339
 20
-44.8247537371
 10
75.5343595348
 20
-44.8575926901
 10
75.4903019316
 20
-44.8862411181
 10
75.44331062
 20
-44.9101850692
 10
75.3941907909
 20
-44.9290061083
 10
75.3436074779
 20
-44.9425141723
 10
75.2920273266
 20
-44.9506467635
 10
75.2400194917
 20
-44.9533577632
  0
LWPOLYLINE
  5
533
100
AcDbEntity
  8
IMPORT_IGES
100
AcDbPolyline
 62
7
  6
CONTINUOUS
 90
29
 70
0
 10
71.1009153132
 20
-38.8716981798
 10
71.0904335382
 20
-38.8861123472
 10
71.0842271972
 20
-38.8945072961
 10
71.0773043885
 20
-38.9036604889
 10
71.069590317
 20
-38.913553555
 10
71.0610225941
 20
-38.9241357789
 10
71.0515373332
 20
-38.9353582842
 10
71.0410487062
 20
-38.9471924572
 10
71.0294797021
 20
-38.9595680831
 10
71.0167624499
 20
-38.9724040254
 10
71.0028184093
 20
-38.9856378158
 10
70.9874850438
 20
-38.9992408039
 10
70.9707721472
 20
-39.013017791
 10
70.9528876402
 20
-39.0266656645
 10
70.9336986197
 20
-39.0401481249
 10
70.9132646617
 20
-39.0532722509
 10
70.8921725275
 20
-39.0655927188
 10
70.8705864318
 20
-39.0770055089
 10
70.8484199096
 20
-39.0875368069
 10
70.8259591389
 20
-39.0970465414
 10
70.80331979
 20
-39.1055093736
 10
70.7804993923
 20
-39.1129457331
 10
70.7576268149
 20
-39.1193318276
 10
70.7347571035
 20
-39.1246815797
 10
70.7119454771
 20
-39.1290090533
 10
70.6893242005
 20
-39.132317035
 10
70.6669713304
 20
-39.13463364
 10
70.6449080689
 20
-39.1359990151
 10
70.6231788653
 20
-39.136448651
  0
LINE
  5
534
100
AcDbEntity
  8
DRAFT
100
AcDbLine
 62
7
  6
CONTINUOUS
 10
62.43103068
 20
-47.095473965
 11
62.2900560777
 21
-47.2364485672
  0
LINE
  5
535
100
AcDbEntity
  8
ASSI
100
AcDbLine
 62
7
  6
CONTINUOUS
 10
62.43103068
 20
-47.095473965
 11
62.2900560777
 21
-47.2364485672
  0
LWPOLYLINE
  5
536
100
AcDbEntity
  8
RACCORDO
100
AcDbPolyline
 62
250
  6
CONTINUOUS
 90
19
 70
0
 10
42.70295459
 20
-8.6868456244
 10
42.659387569
 20
-8.6887544702
 10
42.6161520551
 20
-8.694453211
 10
42.573577033
 20
-8.7038984843
 10
42.5319864613
 20
-8.7170184199
 10
42.4916968082
 20
-8.7337131864
 10
42.4530146428
 20
-8.7538557513
 10
42.4162343027
 20
-8.7772928471
 10
42.3816356542
 20
-8.8038461379
 10
42.349481963
 20
-8.8333135764
 10
42.3200178907
 20
-8.865470941
 10
42.2934676331
 20
-8.9000735422
 10
42.2700332146
 20
-8.9368580843
 10
42.2498929506
 20
-8.9755446689
 10
42.2332000912
 20
-9.0158389249
 10
42.2200816544
 20
-9.0574342481
 10
42.21063746
 20
-9.1000141343
 10
42.2049393702
 20
-9.1432545877
 10
42.2030307424
 20
-9.186826586
  0
LWPOLYLINE
  5
537
100
AcDbEntity
  8
ASSI
100
AcDbPolyline
 62
250
  6
CONTINUOUS
 90
19
 70
0
 10
42.70295459
 20
-8.6868456244
 10
42.659387569
 20
-8.6887544702
 10
42.6161520551
 20
-8.694453211
 10
42.573577033
 20
-8.7038984843
 10
42.5319864613
 20
-8.7170184199
 10
42.4916968082
 20
-8.7337131864
 10
42.4530146428
 20
-8.7538557513
 10
42.4162343027
 20
-8.7772928471
 10
42.3816356542
 20
-8.8038461379
 10
42.349481963
 20
-8.8333135764
 10
42.3200178907
 20
-8.865470941
 10
42.2934676331
 20
-8.9000735422
 10
42.2700332146
 20
-8.9368580843
 10
42.2498929506
 20
-8.9755446689
 10
42.2332000912
 20
-9.0158389249
 10
42.2200816544
 20
-9.0574342481
 10
42.21063746
 20
-9.1000141343
 10
42.2049393702
 20
-9.1432545877
 10
42.2030307424
 20
-9.186826586
  0
LWPOLYLINE
  5
538
100
AcDbEntity
  8
RACCORDO
100
AcDbPolyline
 62
250
  6
CONTINUOUS
 90
19
 70
0
 10
39.6792191039
 20
-8.5925954523
 10
39.635644999
 20
-8.5945011647
 10
39.5924024871
 20
-8.6001971632
 10
39.5498206381
 20
-8.609640102
 10
39.5082234941
 20
-8.6227581217
 10
39.4679276038
 20
-8.6394513957
 10
39.4292396136
 20
-8.6595928907
 10
39.392453934
 20
-8.6830293323
 10
39.3578504992
 20
-8.7095823724
 10
39.3256926363
 20
-8.739049946
 10
39.2962250627
 20
-8.7712078088
 10
39.2696720224
 20
-8.8058112439
 10
39.2462355807
 20
-8.8425969235
 10
39.2260940858
 20
-8.8812849136
 10
39.2094008118
 20
-8.9215808038
 10
39.1962827921
 20
-8.9631779478
 10
39.1868398533
 20
-9.0057597968
 10
39.1811438548
 20
-9.0490023088
 10
39.1792381423
 20
-9.0925764138
  0
LWPOLYLINE
  5
539
100
AcDbEntity
  8
ASSI
100
AcDbPolyline
 62
250
  6
CONTINUOUS
 90
19
 70
0
 10
39.6792191039
 20
-8.5925954523
 10
39.635644999
 20
-8.5945011647
 10
39.5924024871
 20
-8.6001971632
 10
39.5498206381
 20
-8.609640102
 10
39.5082234941
 20
-8.6227581217
 10
39.4679276038
 20
-8.6394513957
 10
39.4292396136
 20
-8.6595928907
 10
39.392453934
 20
-8.6830293323
 10
39.3578504992
 20
-8.7095823724
 10
39.3256926363
 20
-8.739049946
 10
39.2962250627
 20
-8.7712078088
 10
39.2696720224
 20
-8.8058112439
 10
39.2462355807
 20
-8.8425969235
 10
39.2260940858
 20
-8.8812849136
 10
39.2094008118
 20
-8.9215808038
 10
39.1962827921
 20
-8.9631779478
 10
39.1868398533
 20
-9.0057597968
 10
39.1811438548
 20
-9.0490023088
 10
39.1792381423
 20
-9.0925764138
  0
LINE
  5
53A
100
AcDbEntity
  8
RACCORDO
100
AcDbLine
 62
250
  6
CONTINUOUS
 10
42.0230912572
 20
-9.0925764138
 11
39.1792381423
 21
-9.0925764138
  0
LINE
  5
53B
100
AcDbEntity
  8
ASSI
100
AcDbLine
 62
250
  6
CONTINUOUS
 10
42.0230912572
 20
-9.0925764138
 11
39.1792381423
 21
-9.0925764138
  0
LINE
  5
53C
100
AcDbEntity
  8
RACCORDO
100
AcDbLine
 62
250
  6
CONTINUOUS
 10
72.8230912572
 20
-9.0925764138
 11
75.6669443721
 21
-9.0925764138
  0
LINE
  5
53D
100
AcDbEntity
  8
ASSI
100
AcDbLine
 62
250
  6
CONTINUOUS
 10
72.8230912572
 20
-9.0925764138
 11
75.6669443721
 21
-9.0925764138
  0
LINE
  5
53E
100
AcDbEntity
  8
RACCORDO
100
AcDbLine
 62
7
  6
CONTINUOUS
 10
72.1432279244
 20
-8.6868456244
 11
42.70295459
 21
-8.6868456244
  0
LINE
  5
53F
100
AcDbEntity
  8
ASSI
100
AcDbLine
 62
7
  6
CONTINUOUS
 10
72.1432279244
 20
-8.6868456244
 11
42.70295459
 21
-8.6868456244
  0
LINE
  5
540
100
AcDbEntity
  8
RACCORDO
100
AcDbLine
 62
7
  6
CONTINUOUS
 10
39.6792191039
 20
-8.5925954523
 11
42.5144398888
 21
-8.5925954523
  0
LINE
  5
541
100
AcDbEntity
  8
ASSI
100
AcDbLine
 62
7
  6
CONTINUOUS
 10
39.6792191039
 20
-8.5925954523
 11
42.5144398888
 21
-8.5925954523
  0
LINE
  5
542
100
AcDbEntity
  8
RACCORDO
100
AcDbLine
 62
7
  6
CONTINUOUS
 10
72.3317426257
 20
-8.5925954523
 11
75.1669634106
 21
-8.5925954523
  0
LINE
  5
543
100
AcDbEntity
  8
ASSI
100
AcDbLine
 62
7
  6
CONTINUOUS
 10
72.3317426257
 20
-8.5925954523
 11
75.1669634106
 21
-8.5925954523
  0
LINE
  5
544
100
AcDbEntity
  8
RACCORDO
100
AcDbLine
 62
7
  6
CONTINUOUS
 10
39.6061630227
 20
-8.5195393711
 11
75.2400194917
 21
-8.5195393711
  0
LINE
  5
545
100
AcDbEntity
  8
ASSI
100
AcDbLine
 62
7
  6
CONTINUOUS
 10
39.6061630227
 20
-8.5195393711
 11
75.2400194917
 21
-8.5195393711
  0
LINE
  5
546
100
AcDbEntity
  8
DRAFT
100
AcDbLine
 62
7
  6
CONTINUOUS
 10
76.1974490905
 20
-7.377771221
 11
74.9148037829
 21
-7.377771221
  0
LINE
  5
547
100
AcDbEntity
  8
ASSI
100
AcDbLine
 62
7
  6
CONTINUOUS
 10
76.1974490905
 20
-7.377771221
 11
74.9148037829
 21
-7.377771221
  0
LINE
  5
548
100
AcDbEntity
  8
DRAFT
100
AcDbLine
 62
7
  6
CONTINUOUS
 10
62.4313787315
 20
-7.377771221
 11
61.1487334239
 21
-7.377771221
  0
LINE
  5
549
100
AcDbEntity
  8
ASSI
100
AcDbLine
 62
7
  6
CONTINUOUS
 10
62.4313787315
 20
-7.377771221
 11
61.1487334239
 21
-7.377771221
  0
LINE
  5
54A
100
AcDbEntity
  8
DRAFT
100
AcDbLine
 62
7
  6
CONTINUOUS
 10
53.6974490905
 20
-7.377771221
 11
52.4148037829
 21
-7.377771221
  0
LINE
  5
54B
100
AcDbEntity
  8
ASSI
100
AcDbLine
 62
7
  6
CONTINUOUS
 10
53.6974490905
 20
-7.377771221
 11
52.4148037829
 21
-7.377771221
  0
LINE
  5
54C
100
AcDbEntity
  8
DRAFT
100
AcDbLine
 62
7
  6
CONTINUOUS
 10
39.9313787315
 20
-7.377771221
 11
38.6487334239
 21
-7.377771221
  0
LINE
  5
54D
100
AcDbEntity
  8
ASSI
100
AcDbLine
 62
7
  6
CONTINUOUS
 10
39.9313787315
 20
-7.377771221
 11
38.6487334239
 21
-7.377771221
  0
LINE
  5
54E
100
AcDbEntity
  8
RACCORDO
100
AcDbLine
 62
7
  6
CONTINUOUS
 10
38.7857307215
 20
-7.2407739234
 11
39.794381434
 21
-7.2407739234
  0
LINE
  5
54F
100
AcDbEntity
  8
ASSI
100
AcDbLine
 62
7
  6
CONTINUOUS
 10
38.7857307215
 20
-7.2407739234
 11
39.794381434
 21
-7.2407739234
  0
LINE
  5
550
100
AcDbEntity
  8
RACCORDO
100
AcDbLine
 62
7
  6
CONTINUOUS
 10
52.5518010805
 20
-7.2407739234
 11
53.5604517929
 21
-7.2407739234
  0
LINE
  5
551
100
AcDbEntity
  8
ASSI
100
AcDbLine
 62
7
  6
CONTINUOUS
 10
52.5518010805
 20
-7.2407739234
 11
53.5604517929
 21
-7.2407739234
  0
LINE
  5
552
100
AcDbEntity
  8
RACCORDO
100
AcDbLine
 62
7
  6
CONTINUOUS
 10
61.2857307215
 20
-7.2407739234
 11
62.294381434
 21
-7.2407739234
  0
LINE
  5
553
100
AcDbEntity
  8
ASSI
100
AcDbLine
 62
7
  6
CONTINUOUS
 10
61.2857307215
 20
-7.2407739234
 11
62.294381434
 21
-7.2407739234
  0
LINE
  5
554
100
AcDbEntity
  8
RACCORDO
100
AcDbLine
 62
7
  6
CONTINUOUS
 10
75.0518010805
 20
-7.2407739234
 11
76.0604517929
 21
-7.2407739234
  0
LINE
  5
555
100
AcDbEntity
  8
ASSI
100
AcDbLine
 62
7
  6
CONTINUOUS
 10
75.0518010805
 20
-7.2407739234
 11
76.0604517929
 21
-7.2407739234
  0
LWPOLYLINE
  5
556
100
AcDbEntity
  8
RACCORDO
100
AcDbPolyline
 62
7
  6
CONTINUOUS
 90
16
 70
0
 10
75.2400194917
 20
-8.5195393711
 10
75.2920609702
 20
-8.5222538853
 10
75.3436401034
 20
-8.530389866
 10
75.3941894267
 20
-8.543890584
 10
75.4432252621
 20
-8.5626741125
 10
75.4901116885
 20
-8.5865461395
 10
75.5341075508
 20
-8.6151211841
 10
75.5746070525
 20
-8.6479117269
 10
75.6113722069
 20
-8.6846240835
 10
75.6442393763
 20
-8.7251033104
 10
75.6729165268
 20
-8.7691372151
 10
75.6968893529
 20
-8.8161073107
 10
75.7157383338
 20
-8.8652106335
 10
75.7292722383
 20
-8.9157829731
 10
75.7374277386
 20
-8.9673569129
 10
75.7401577674
 20
-9.0193630185
  0
LWPOLYLINE
  5
557
100
AcDbEntity
  8
ASSI
100
AcDbPolyline
 62
7
  6
CONTINUOUS
 90
16
 70
0
 10
75.2400194917
 20
-8.5195393711
 10
75.2920609702
 20
-8.5222538853
 10
75.3436401034
 20
-8.530389866
 10
75.3941894267
 20
-8.543890584
 10
75.4432252621
 20
-8.5626741125
 10
75.4901116885
 20
-8.5865461395
 10
75.5341075508
 20
-8.6151211841
 10
75.5746070525
 20
-8.6479117269
 10
75.6113722069
 20
-8.6846240835
 10
75.6442393763
 20
-8.7251033104
 10
75.6729165268
 20
-8.7691372151
 10
75.6968893529
 20
-8.8161073107
 10
75.7157383338
 20
-8.8652106335
 10
75.7292722383
 20
-8.9157829731
 10
75.7374277386
 20
-8.9673569129
 10
75.7401577674
 20
-9.0193630185
  0
LWPOLYLINE
  5
558
100
AcDbEntity
  8
RACCORDO
100
AcDbPolyline
 62
7
  6
CONTINUOUS
 90
22
 70
0
 10
72.3317426257
 20
-8.5925954523
 10
72.3744107909
 20
-8.5948670863
 10
72.4158699395
 20
-8.600729071
 10
72.4558448635
 20
-8.6099081657
 10
72.49405378
 20
-8.6221027854
 10
72.5303558425
 20
-8.6370267978
 10
72.5647349906
 20
-8.6544507037
 10
72.59697527
 20
-8.6740520188
 10
72.6270666782
 20
-8.6956083719
 10
72.655277639
 20
-8.719157157
 10
72.6815622777
 20
-8.7445840319
 10
72.7057497616
 20
-8.7716429593
 10
72.7278624433
 20
-8.8002758221
 10
72.7478805775
 20
-8.8304267674
 10
72.7656379885
 20
-8.8618156241
 10
72.7809766518
 20
-8.8940400416
 10
72.7938287785
 20
-8.9267123826
 10
72.8042983164
 20
-8.9598165398
 10
72.8124834291
 20
-8.9935130752
 10
72.8183692152
 20
-9.0277546012
 10
72.8219052117
 20
-9.0622615969
 10
72.8230839596
 20
-9.0968673438
  0
LWPOLYLINE
  5
559
100
AcDbEntity
  8
ASSI
100
AcDbPolyline
 62
7
  6
CONTINUOUS
 90
22
 70
0
 10
72.3317426257
 20
-8.5925954523
 10
72.3744107909
 20
-8.5948670863
 10
72.4158699395
 20
-8.600729071
 10
72.4558448635
 20
-8.6099081657
 10
72.49405378
 20
-8.6221027854
 10
72.5303558425
 20
-8.6370267978
 10
72.5647349906
 20
-8.6544507037
 10
72.59697527
 20
-8.6740520188
 10
72.6270666782
 20
-8.6956083719
 10
72.655277639
 20
-8.719157157
 10
72.6815622777
 20
-8.7445840319
 10
72.7057497616
 20
-8.7716429593
 10
72.7278624433
 20
-8.8002758221
 10
72.7478805775
 20
-8.8304267674
 10
72.7656379885
 20
-8.8618156241
 10
72.7809766518
 20
-8.8940400416
 10
72.7938287785
 20
-8.9267123826
 10
72.8042983164
 20
-8.9598165398
 10
72.8124834291
 20
-8.9935130752
 10
72.8183692152
 20
-9.0277546012
 10
72.8219052117
 20
-9.0622615969
 10
72.8230839596
 20
-9.0968673438
  0
LINE
  5
55A
100
AcDbEntity
  8
DRAFT
100
AcDbLine
 62
7
  6
CONTINUOUS
 10
62.43103068
 20
-6.3774231694
 11
62.2900560777
 21
-6.2364485672
  0
LINE
  5
55B
100
AcDbEntity
  8
ASSI
100
AcDbLine
 62
7
  6
CONTINUOUS
 10
62.43103068
 20
-6.3774231694
 11
62.2900560777
 21
-6.2364485672
  0
LWPOLYLINE
  5
55C
100
AcDbEntity
  8
IMPORT_IGES
100
AcDbPolyline
 62
7
  6
CONTINUOUS
 90
12
 70
0
 10
71.0902230432
 20
-12.5864974669
 10
71.1007583729
 20
-12.6009836164
 10
71.1051426531
 20
-12.6069509336
 10
71.1089941853
 20
-12.6120385222
 10
71.1123449359
 20
-12.6162204703
 10
71.1152134169
 20
-12.6194303638
 10
71.1176255017
 20
-12.6216527038
 10
71.1195985951
 20
-12.6228836916
 10
71.1211310365
 20
-12.6230783444
 10
71.1222238194
 20
-12.6222210393
 10
71.1228800492
 20
-12.6203256699
 10
71.1230912572
 20
-12.617395821
  0
LINE
  5
55D
100
AcDbEntity
  8
ASSI
100
AcDbLine
 62
7
  6
CONTINUOUS
 10
78.3230912572
 20
-47.6364485672
 11
78.3230912572
 21
-5.8364485672
  0
LINE
  5
55E
100
AcDbEntity
  8
RACCORDO
100
AcDbLine
 62
7
  6
CONTINUOUS
 10
72.6607591534
 20
-43.3995388689
 11
72.643151772
 21
-43.4083418891
  0
LINE
  5
55F
100
AcDbEntity
  8
ASSI
100
AcDbLine
 62
7
  6
CONTINUOUS
 10
72.6607591534
 20
-43.3995388689
 11
72.643151772
 21
-43.4083418891
  0
LINE
  5
560
100
AcDbEntity
  8
RACCORDO
100
AcDbLine
 62
250
  6
CONTINUOUS
 10
38.7900560777
 20
-6.7407929619
 11
39.7900560777
 21
-6.7407929619
  0
LINE
  5
561
100
AcDbEntity
  8
ASSI
100
AcDbLine
 62
250
  6
CONTINUOUS
 10
38.7900560777
 20
-6.7407929619
 11
39.7900560777
 21
-6.7407929619
  0
LINE
  5
562
100
AcDbEntity
  8
RACCORDO
100
AcDbLine
 62
250
  6
CONTINUOUS
 10
52.5561264367
 20
-6.7407929619
 11
53.5561264367
 21
-6.7407929619
  0
LINE
  5
563
100
AcDbEntity
  8
ASSI
100
AcDbLine
 62
250
  6
CONTINUOUS
 10
52.5561264367
 20
-6.7407929619
 11
53.5561264367
 21
-6.7407929619
  0
LINE
  5
564
100
AcDbEntity
  8
RACCORDO
100
AcDbLine
 62
250
  6
CONTINUOUS
 10
61.2900560777
 20
-6.7407929619
 11
62.2900560777
 21
-6.7407929619
  0
LINE
  5
565
100
AcDbEntity
  8
ASSI
100
AcDbLine
 62
250
  6
CONTINUOUS
 10
61.2900560777
 20
-6.7407929619
 11
62.2900560777
 21
-6.7407929619
  0
LINE
  5
566
100
AcDbEntity
  8
RACCORDO
100
AcDbLine
 62
250
  6
CONTINUOUS
 10
75.0561264367
 20
-6.7407929619
 11
76.0561264367
 21
-6.7407929619
  0
LINE
  5
567
100
AcDbEntity
  8
ASSI
100
AcDbLine
 62
250
  6
CONTINUOUS
 10
75.0561264367
 20
-6.7407929619
 11
76.0561264367
 21
-6.7407929619
  0
LINE
  5
568
100
AcDbEntity
  8
DRAFT
100
AcDbLine
 62
7
  6
CONTINUOUS
 10
74.9151518345
 20
-6.3774231694
 11
62.43103068
 21
-6.3774231694
  0
LINE
  5
569
100
AcDbEntity
  8
ASSI
100
AcDbLine
 62
7
  6
CONTINUOUS
 10
74.9151518345
 20
-6.3774231694
 11
62.43103068
 21
-6.3774231694
  0
LINE
  5
56A
100
AcDbEntity
  8
DRAFT
100
AcDbLine
 62
7
  6
CONTINUOUS
 10
52.4151518345
 20
-6.3774231694
 11
39.93103068
 21
-6.3774231694
  0
LINE
  5
56B
100
AcDbEntity
  8
ASSI
100
AcDbLine
 62
7
  6
CONTINUOUS
 10
52.4151518345
 20
-6.3774231694
 11
39.93103068
 21
-6.3774231694
  0
LINE
  5
56C
100
AcDbEntity
  8
DRAFT
100
AcDbLine
 62
7
  6
CONTINUOUS
 10
52.5561264367
 20
-6.2364485672
 11
39.7900560777
 21
-6.2364485672
  0
LINE
  5
56D
100
AcDbEntity
  8
ASSI
100
AcDbLine
 62
7
  6
CONTINUOUS
 10
52.5561264367
 20
-6.2364485672
 11
39.7900560777
 21
-6.2364485672
  0
LINE
  5
56E
100
AcDbEntity
  8
DRAFT
100
AcDbLine
 62
7
  6
CONTINUOUS
 10
62.2900560777
 20
-6.2364485672
 11
75.0561264367
 21
-6.2364485672
  0
LINE
  5
56F
100
AcDbEntity
  8
ASSI
100
AcDbLine
 62
7
  6
CONTINUOUS
 10
62.2900560777
 20
-6.2364485672
 11
75.0561264367
 21
-6.2364485672
  0
LINE
  5
570
100
AcDbEntity
  8
DRAFT
100
AcDbLine
 62
7
  6
CONTINUOUS
 10
78.3230912572
 20
-5.8364485672
 11
76.1309156937
 21
-5.8364485672
  0
LINE
  5
571
100
AcDbEntity
  8
ASSI
100
AcDbLine
 62
7
  6
CONTINUOUS
 10
78.3230912572
 20
-5.8364485672
 11
76.1309156937
 21
-5.8364485672
  0
LINE
  5
572
100
AcDbEntity
  8
DRAFT
100
AcDbLine
 62
7
  6
CONTINUOUS
 10
61.2152668208
 20
-5.8364485672
 11
53.6309156937
 21
-5.8364485672
  0
LINE
  5
573
100
AcDbEntity
  8
ASSI
100
AcDbLine
 62
7
  6
CONTINUOUS
 10
61.2152668208
 20
-5.8364485672
 11
53.6309156937
 21
-5.8364485672
  0
LINE
  5
574
100
AcDbEntity
  8
DRAFT
100
AcDbLine
 62
7
  6
CONTINUOUS
 10
53.5561264367
 20
-5.8364485672
 11
38.7900560777
 21
-5.8364485672
  0
LINE
  5
575
100
AcDbEntity
  8
ASSI
100
AcDbLine
 62
7
  6
CONTINUOUS
 10
53.5561264367
 20
-5.8364485672
 11
38.7900560777
 21
-5.8364485672
  0
LINE
  5
576
100
AcDbEntity
  8
DRAFT
100
AcDbLine
 62
7
  6
CONTINUOUS
 10
38.7152668208
 20
-5.8364485672
 11
36.5230912572
 21
-5.8364485672
  0
LINE
  5
577
100
AcDbEntity
  8
ASSI
100
AcDbLine
 62
7
  6
CONTINUOUS
 10
38.7152668208
 20
-5.8364485672
 11
36.5230912572
 21
-5.8364485672
  0
LINE
  5
578
100
AcDbEntity
  8
DRAFT
100
AcDbLine
 62
7
  6
CONTINUOUS
 10
61.2900560777
 20
-5.8364485672
 11
76.0561264367
 21
-5.8364485672
  0
LINE
  5
579
100
AcDbEntity
  8
ASSI
100
AcDbLine
 62
7
  6
CONTINUOUS
 10
61.2900560777
 20
-5.8364485672
 11
76.0561264367
 21
-5.8364485672
  0
LINE
  5
57A
100
AcDbEntity
  8
ASSI
100
AcDbLine
 62
7
  6
CONTINUOUS
 10
39.1321098729
 20
-5.5364485672
 11
43.4962760109
 21
-5.5364485672
  0
LINE
  5
57B
100
AcDbEntity
  8
ASSI
100
AcDbLine
 62
7
  6
CONTINUOUS
 10
48.8499065035
 20
-5.5364485672
 11
53.2140726415
 21
-5.5364485672
  0
LINE
  5
57C
100
AcDbEntity
  8
ASSI
100
AcDbLine
 62
7
  6
CONTINUOUS
 10
61.6321098729
 20
-5.5364485672
 11
65.9962760109
 21
-5.5364485672
  0
LINE
  5
57D
100
AcDbEntity
  8
ASSI
100
AcDbLine
 62
7
  6
CONTINUOUS
 10
71.3499065035
 20
-5.5364485672
 11
75.7140726415
 21
-5.5364485672
  0
LINE
  5
57E
100
AcDbEntity
  8
RACCORDO
100
AcDbLine
 62
7
  6
CONTINUOUS
 10
72.6607591534
 20
-10.0733582655
 11
72.643151772
 21
-10.0645552453
  0
LINE
  5
57F
100
AcDbEntity
  8
ASSI
100
AcDbLine
 62
7
  6
CONTINUOUS
 10
72.6607591534
 20
-10.0733582655
 11
72.643151772
 21
-10.0645552453
  0
LINE
  5
580
100
AcDbEntity
  8
ASSI
100
AcDbLine
 62
7
  6
CONTINUOUS
 10
79.8230912572
 20
-48.6362197151
 11
79.8230912572
 21
-4.8366774192
  0
LINE
  5
581
100
AcDbEntity
  8
0
100
AcDbLine
 62
7
  6
CONTINUOUS
 10
71.7730912572
 20
-4.5364485672
 11
65.5730912572
 21
-4.5364485672
  0
LINE
  5
582
100
AcDbEntity
  8
ASSI
100
AcDbLine
 62
7
  6
CONTINUOUS
 10
71.7730912572
 20
-4.5364485672
 11
65.5730912572
 21
-4.5364485672
  0
LINE
  5
583
100
AcDbEntity
  8
0
100
AcDbLine
 62
7
  6
CONTINUOUS
 10
49.2730912572
 20
-4.5364485672
 11
43.0730912572
 21
-4.5364485672
  0
LINE
  5
584
100
AcDbEntity
  8
ASSI
100
AcDbLine
 62
7
  6
CONTINUOUS
 10
49.2730912572
 20
-4.5364485672
 11
43.0730912572
 21
-4.5364485672
  0
LINE
  5
585
100
AcDbEntity
  8
ASSI
100
AcDbLine
 62
7
  6
CONTINUOUS
 10
79.323471857
 20
-4.3364485672
 11
74.2230912572
 21
-4.3364485672
  0
LINE
  5
586
100
AcDbEntity
  8
ASSI
100
AcDbLine
 62
7
  6
CONTINUOUS
 10
63.1230912572
 20
-4.3364485672
 11
51.7230912572
 21
-4.3364485672
  0
LINE
  5
587
100
AcDbEntity
  8
ASSI
100
AcDbLine
 62
7
  6
CONTINUOUS
 10
40.6230912572
 20
-4.3364485672
 11
35.5227106575
 21
-4.3364485672
  0
LINE
  5
588
100
AcDbEntity
  8
0
100
AcDbLine
 62
7
  6
CONTINUOUS
 10
72.6464286049
 20
-3.2364485672
 11
64.6997539096
 21
-3.2364485672
  0
LINE
  5
589
100
AcDbEntity
  8
ASSI
100
AcDbLine
 62
7
  6
CONTINUOUS
 10
72.6464286049
 20
-3.2364485672
 11
64.6997539096
 21
-3.2364485672
  0
LINE
  5
58A
100
AcDbEntity
  8
0
100
AcDbLine
 62
7
  6
CONTINUOUS
 10
50.1464286049
 20
-3.2364485672
 11
42.1997539096
 21
-3.2364485672
  0
LINE
  5
58B
100
AcDbEntity
  8
ASSI
100
AcDbLine
 62
7
  6
CONTINUOUS
 10
50.1464286049
 20
-3.2364485672
 11
42.1997539096
 21
-3.2364485672
  0
LINE
  5
58C
100
AcDbEntity
  8
RACCORDO
100
AcDbLine
 62
7
  6
CONTINUOUS
 10
76.0604517929
 20
-46.2321232109
 11
76.1974490905
 21
-46.0951259134
  0
LINE
  5
58D
100
AcDbEntity
  8
ASSI
100
AcDbLine
 62
7
  6
CONTINUOUS
 10
76.0604517929
 20
-46.2321232109
 11
76.1974490905
 21
-46.0951259134
  0
LINE
  5
58E
100
AcDbEntity
  8
RACCORDO
100
AcDbLine
 62
7
  6
CONTINUOUS
 10
76.0604517929
 20
-7.2407739234
 11
76.1974490905
 21
-7.377771221
  0
LINE
  5
58F
100
AcDbEntity
  8
ASSI
100
AcDbLine
 62
7
  6
CONTINUOUS
 10
76.0604517929
 20
-7.2407739234
 11
76.1974490905
 21
-7.377771221
  0
CIRCLE
  5
590
100
AcDbEntity
  8
IMPORT_IGES
100
AcDbCircle
 62
7
  6
CONTINUOUS
 10
49.4230912572
 20
-33.7364485672
 40
3.7
  0
CIRCLE
  5
591
100
AcDbEntity
  8
IMPORT_IGES
100
AcDbCircle
 62
250
  6
CONTINUOUS
 10
49.4230912572
 20
-33.7364485672
 40
3.2
  0
CIRCLE
  5
592
100
AcDbEntity
  8
IMPORT_IGES
100
AcDbCircle
 62
7
  6
CONTINUOUS
 10
49.4230912572
 20
-33.7364485672
 40
3.0
  0
CIRCLE
  5
593
100
AcDbEntity
  8
IMPORT_IGES
100
AcDbCircle
 62
7
  6
CONTINUOUS
 10
49.4230912572
 20
-33.7364485672
 40
2.5
  0
ARC
  5
594
100
AcDbEntity
  8
IMPORT_IGES
100
AcDbCircle
 62
7
  6
CONTINUOUS
 10
44.4730912572
 20
-42.6364485672
 40
0.75
100
AcDbArc
 50
180.0
 51
270.0
  0
ARC
  5
595
100
AcDbEntity
  8
IMPORT_IGES
100
AcDbCircle
 62
7
  6
CONTINUOUS
 10
53.2230912572
 20
-39.8864485672
 40
0.5
100
AcDbArc
 50
180.0
 51
216.8698976458
  0
ARC
  5
596
100
AcDbEntity
  8
IMPORT_IGES
100
AcDbCircle
 62
7
  6
CONTINUOUS
 10
44.2230912572
 20
-41.6364485672
 40
0.5
100
AcDbArc
 50
180.0
 51
270.0
  0
ARC
  5
597
100
AcDbEntity
  8
IMPORT_IGES
100
AcDbCircle
 62
7
  6
CONTINUOUS
 10
52.9230912572
 20
-42.8864485672
 40
0.5
100
AcDbArc
 50
180.0
 51
270.0
  0
ARC
  5
598
100
AcDbEntity
  8
ASSI
100
AcDbCircle
 62
7
  6
CONTINUOUS
 10
51.1230912572
 20
-49.8364485672
 40
0.5
100
AcDbArc
 50
60.887577224
 51
189.196281579
  0
ARC
  5
599
100
AcDbEntity
  8
ASSI
100
AcDbCircle
 62
7
  6
CONTINUOUS
 10
41.2230912572
 20
-49.8364485672
 40
0.5
100
AcDbArc
 50
350.8037184209
 51
119.112422776
  0
ARC
  5
59A
100
AcDbEntity
  8
IMPORT_IGES
100
AcDbCircle
 62
250
  6
CONTINUOUS
 10
44.4730912572
 20
-42.6364485672
 40
0.25
100
AcDbArc
 50
180.0000000007
 51
269.9999999993
  0
ARC
  5
59B
100
AcDbEntity
  8
DRAFT
100
AcDbCircle
 62
7
  6
CONTINUOUS
 10
34.9230912572
 20
-26.7364485672
 40
28.0
100
AcDbArc
 50
310.7870381933
 51
311.9234080988
  0
ARC
  5
59C
100
AcDbEntity
  8
DRAFT
100
AcDbCircle
 62
7
  6
CONTINUOUS
 10
34.9230912572
 20
-26.7364485672
 40
28.0
100
AcDbArc
 50
48.0765919012
 51
49.2129618067
  0
ARC
  5
59D
100
AcDbEntity
  8
ASSI
100
AcDbCircle
 62
7
  6
CONTINUOUS
 10
34.9230912572
 20
-26.7364485672
 40
28.0
100
AcDbArc
 50
302.9352304972
 51
304.1210936517
  0
ARC
  5
59E
100
AcDbEntity
  8
ASSI
100
AcDbCircle
 62
7
  6
CONTINUOUS
 10
34.9230912572
 20
-26.7364485672
 40
28.0
100
AcDbArc
 50
55.8789063483
 51
57.0647695028
  0
ARC
  5
59F
100
AcDbEntity
  8
ASSI
100
AcDbCircle
 62
7
  6
CONTINUOUS
 10
34.9230912572
 20
-26.7364485672
 40
28.0
100
AcDbArc
 50
305.9627651514
 51
311.9234080988
  0
ARC
  5
5A0
100
AcDbEntity
  8
ASSI
100
AcDbCircle
 62
7
  6
CONTINUOUS
 10
34.9230912572
 20
-26.7364485672
 40
28.0
100
AcDbArc
 50
48.0765919012
 51
54.0372348486
  0
CIRCLE
  5
5A1
100
AcDbEntity
  8
IMPORT_IGES
100
AcDbCircle
 62
7
  6
CONTINUOUS
 10
49.4230912572
 20
-17.7364485672
 40
3.7
  0
CIRCLE
  5
5A2
100
AcDbEntity
  8
IMPORT_IGES
100
AcDbCircle
 62
250
  6
CONTINUOUS
 10
49.4230912572
 20
-17.7364485672
 40
3.2
  0
CIRCLE
  5
5A3
100
AcDbEntity
  8
IMPORT_IGES
100
AcDbCircle
 62
7
  6
CONTINUOUS
 10
49.4230912572
 20
-17.7364485672
 40
3.0
  0
CIRCLE
  5
5A4
100
AcDbEntity
  8
IMPORT_IGES
100
AcDbCircle
 62
7
  6
CONTINUOUS
 10
49.4230912572
 20
-17.7364485672
 40
2.5
  0
ARC
  5
5A5
100
AcDbEntity
  8
IMPORT_IGES
100
AcDbCircle
 62
7
  6
CONTINUOUS
 10
44.4730912572
 20
-10.8364485672
 40
0.75
100
AcDbArc
 50
90.0
 51
180.0
  0
ARC
  5
5A6
100
AcDbEntity
  8
IMPORT_IGES
100
AcDbCircle
 62
7
  6
CONTINUOUS
 10
44.2230912572
 20
-11.8364485672
 40
0.5
100
AcDbArc
 50
90.0
 51
180.0
  0
ARC
  5
5A7
100
AcDbEntity
  8
ASSI
100
AcDbCircle
 62
7
  6
CONTINUOUS
 10
51.1230912572
 20
-3.6364485672
 40
0.5
100
AcDbArc
 50
170.8037184209
 51
299.112422776
  0
ARC
  5
5A8
100
AcDbEntity
  8
ASSI
100
AcDbCircle
 62
7
  6
CONTINUOUS
 10
41.2230912572
 20
-3.6364485672
 40
0.5
100
AcDbArc
 50
240.887577224
 51
9.196281579
  0
ARC
  5
5A9
100
AcDbEntity
  8
IMPORT_IGES
100
AcDbCircle
 62
250
  6
CONTINUOUS
 10
44.4730912572
 20
-10.8364485672
 40
0.25
100
AcDbArc
 50
90.0000000007
 51
179.9999999993
  0
ARC
  5
5AA
100
AcDbEntity
  8
IMPORT_IGES
100
AcDbCircle
 62
7
  6
CONTINUOUS
 10
57.4230912572
 20
-36.7364485672
 40
5.75
100
AcDbArc
 50
216.8698976458
 51
323.1301023542
  0
ARC
  5
5AB
100
AcDbEntity
  8
IMPORT_IGES
100
AcDbCircle
 62
250
  6
CONTINUOUS
 10
57.4230912572
 20
-36.7364485672
 40
5.25
100
AcDbArc
 50
216.8698976458
 51
323.1301023542
  0
ARC
  5
5AC
100
AcDbEntity
  8
IMPORT_IGES
100
AcDbCircle
 62
250
  6
CONTINUOUS
 10
57.4230912572
 20
-36.7364485672
 40
4.95
100
AcDbArc
 50
38.0121265625
 51
141.9878470103
  0
ARC
  5
5AD
100
AcDbEntity
  8
IMPORT_IGES
100
AcDbCircle
 62
7
  6
CONTINUOUS
 10
57.4230912572
 20
-36.7364485672
 40
4.45
100
AcDbArc
 50
40.1778993328
 51
139.8221006672
  0
ARC
  5
5AE
100
AcDbEntity
  8
IMPORT_IGES
100
AcDbCircle
 62
7
  6
CONTINUOUS
 10
57.4230912572
 20
-36.7364485672
 40
4.45
100
AcDbArc
 50
220.1778993328
 51
319.8221006672
  0
ARC
  5
5AF
100
AcDbEntity
  8
IMPORT_IGES
100
AcDbCircle
 62
7
  6
CONTINUOUS
 10
57.4230912572
 20
-36.7364485672
 40
3.75
100
AcDbArc
 50
223.9455195623
 51
316.0544804377
  0
ARC
  5
5B0
100
AcDbEntity
  8
IMPORT_IGES
100
AcDbCircle
 62
7
  6
CONTINUOUS
 10
57.4230912572
 20
-36.7364485672
 40
3.75
100
AcDbArc
 50
43.9455195623
 51
136.0544804377
  0
CIRCLE
  5
5B1
100
AcDbEntity
  8
IMPORT_IGES
100
AcDbCircle
 62
7
  6
CONTINUOUS
 10
65.4230912572
 20
-33.7364485672
 40
3.7
  0
CIRCLE
  5
5B2
100
AcDbEntity
  8
IMPORT_IGES
100
AcDbCircle
 62
250
  6
CONTINUOUS
 10
65.4230912572
 20
-33.7364485672
 40
3.2
  0
ARC
  5
5B3
100
AcDbEntity
  8
DRAFT
100
AcDbCircle
 62
7
  6
CONTINUOUS
 10
57.4230912572
 20
-36.7364485672
 40
3.1623321038
100
AcDbArc
 50
31.3285535051
 51
148.6714464949
  0
ARC
  5
5B4
100
AcDbEntity
  8
DRAFT
100
AcDbCircle
 62
7
  6
CONTINUOUS
 10
57.4230912572
 20
-36.7364485672
 40
3.1623321038
100
AcDbArc
 50
211.3285535051
 51
328.6714464949
  0
ARC
  5
5B5
100
AcDbEntity
  8
ASSI
100
AcDbCircle
 62
7
  6
CONTINUOUS
 10
57.4230912572
 20
-36.7364485672
 40
3.1623321038
100
AcDbArc
 50
31.3285535051
 51
148.6714464949
  0
ARC
  5
5B6
100
AcDbEntity
  8
ASSI
100
AcDbCircle
 62
7
  6
CONTINUOUS
 10
57.4230912572
 20
-36.7364485672
 40
3.1623321038
100
AcDbArc
 50
211.3285535051
 51
328.6714464949
  0
CIRCLE
  5
5B7
100
AcDbEntity
  8
IMPORT_IGES
100
AcDbCircle
 62
7
  6
CONTINUOUS
 10
65.4230912572
 20
-33.7364485672
 40
3.0
  0
ARC
  5
5B8
100
AcDbEntity
  8
DRAFT
100
AcDbCircle
 62
7
  6
CONTINUOUS
 10
57.4230912572
 20
-36.7364485672
 40
3.0
100
AcDbArc
 50
25.8116564209
 51
154.1883435791
  0
ARC
  5
5B9
100
AcDbEntity
  8
DRAFT
100
AcDbCircle
 62
7
  6
CONTINUOUS
 10
57.4230912572
 20
-36.7364485672
 40
3.0
100
AcDbArc
 50
205.8116564209
 51
334.1883435791
  0
ARC
  5
5BA
100
AcDbEntity
  8
ASSI
100
AcDbCircle
 62
7
  6
CONTINUOUS
 10
57.4230912572
 20
-36.7364485672
 40
3.0
100
AcDbArc
 50
205.8116564209
 51
334.1883435791
  0
ARC
  5
5BB
100
AcDbEntity
  8
ASSI
100
AcDbCircle
 62
7
  6
CONTINUOUS
 10
57.4230912572
 20
-36.7364485672
 40
3.0
100
AcDbArc
 50
25.8116564209
 51
154.1883435791
  0
CIRCLE
  5
5BC
100
AcDbEntity
  8
IMPORT_IGES
100
AcDbCircle
 62
7
  6
CONTINUOUS
 10
65.4230912572
 20
-33.7364485672
 40
2.5
  0
ARC
  5
5BD
100
AcDbEntity
  8
IMPORT_IGES
100
AcDbCircle
 62
7
  6
CONTINUOUS
 10
70.3730912572
 20
-42.6364485672
 40
0.75
100
AcDbArc
 50
270.0
 51
360.0
  0
ARC
  5
5BE
100
AcDbEntity
  8
IMPORT_IGES
100
AcDbCircle
 62
7
  6
CONTINUOUS
 10
70.6230912572
 20
-41.6364485672
 40
0.5
100
AcDbArc
 50
270.0
 51
360.0
  0
ARC
  5
5BF
100
AcDbEntity
  8
IMPORT_IGES
100
AcDbCircle
 62
7
  6
CONTINUOUS
 10
61.6230912572
 20
-39.8864485672
 40
0.5
100
AcDbArc
 50
323.1301023542
 51
360.0
  0
ARC
  5
5C0
100
AcDbEntity
  8
IMPORT_IGES
100
AcDbCircle
 62
7
  6
CONTINUOUS
 10
61.9230912572
 20
-42.8864485672
 40
0.5
100
AcDbArc
 50
270.0
 51
360.0
  0
ARC
  5
5C1
100
AcDbEntity
  8
ASSI
100
AcDbCircle
 62
7
  6
CONTINUOUS
 10
63.7230912572
 20
-49.8364485672
 40
0.5
100
AcDbArc
 50
350.803718421
 51
119.112422776
  0
ARC
  5
5C2
100
AcDbEntity
  8
ASSI
100
AcDbCircle
 62
7
  6
CONTINUOUS
 10
73.6230912572
 20
-49.8364485672
 40
0.5
100
AcDbArc
 50
60.887577224
 51
189.196281579
  0
ARC
  5
5C3
100
AcDbEntity
  8
IMPORT_IGES
100
AcDbCircle
 62
250
  6
CONTINUOUS
 10
70.3730912572
 20
-42.6364485672
 40
0.25
100
AcDbArc
 50
270.0000000007
 51
359.9999999993
  0
ARC
  5
5C4
100
AcDbEntity
  8
DRAFT
100
AcDbCircle
 62
7
  6
CONTINUOUS
 10
57.4230912572
 20
-26.7364485672
 40
28.0
100
AcDbArc
 50
310.7870381933
 51
311.9234080988
  0
ARC
  5
5C5
100
AcDbEntity
  8
DRAFT
100
AcDbCircle
 62
7
  6
CONTINUOUS
 10
57.4230912572
 20
-26.7364485672
 40
28.0
100
AcDbArc
 50
130.7870381933
 51
131.9234080988
  0
ARC
  5
5C6
100
AcDbEntity
  8
DRAFT
100
AcDbCircle
 62
7
  6
CONTINUOUS
 10
57.4230912572
 20
-26.7364485672
 40
28.0
100
AcDbArc
 50
228.0765919012
 51
229.2129618067
  0
ARC
  5
5C7
100
AcDbEntity
  8
DRAFT
100
AcDbCircle
 62
7
  6
CONTINUOUS
 10
57.4230912572
 20
-26.7364485672
 40
28.0
100
AcDbArc
 50
48.0765919012
 51
49.2129618067
  0
ARC
  5
5C8
100
AcDbEntity
  8
ASSI
100
AcDbCircle
 62
7
  6
CONTINUOUS
 10
57.4230912572
 20
-26.7364485672
 40
28.0
100
AcDbArc
 50
235.8789063483
 51
237.0647695028
  0
ARC
  5
5C9
100
AcDbEntity
  8
ASSI
100
AcDbCircle
 62
7
  6
CONTINUOUS
 10
57.4230912572
 20
-26.7364485672
 40
28.0
100
AcDbArc
 50
122.9352304972
 51
124.1210936517
  0
ARC
  5
5CA
100
AcDbEntity
  8
ASSI
100
AcDbCircle
 62
7
  6
CONTINUOUS
 10
57.4230912572
 20
-26.7364485672
 40
28.0
100
AcDbArc
 50
302.9352304972
 51
304.1210936517
  0
ARC
  5
5CB
100
AcDbEntity
  8
ASSI
100
AcDbCircle
 62
7
  6
CONTINUOUS
 10
57.4230912572
 20
-26.7364485672
 40
28.0
100
AcDbArc
 50
55.8789063483
 51
57.0647695028
  0
ARC
  5
5CC
100
AcDbEntity
  8
ASSI
100
AcDbCircle
 62
7
  6
CONTINUOUS
 10
57.4230912572
 20
-26.7364485672
 40
28.0
100
AcDbArc
 50
305.9627651514
 51
311.9234080988
  0
ARC
  5
5CD
100
AcDbEntity
  8
ASSI
100
AcDbCircle
 62
7
  6
CONTINUOUS
 10
57.4230912572
 20
-26.7364485672
 40
28.0
100
AcDbArc
 50
125.9627651514
 51
131.9234080988
  0
ARC
  5
5CE
100
AcDbEntity
  8
ASSI
100
AcDbCircle
 62
7
  6
CONTINUOUS
 10
57.4230912572
 20
-26.7364485672
 40
28.0
100
AcDbArc
 50
228.0765919012
 51
234.0372348486
  0
ARC
  5
5CF
100
AcDbEntity
  8
ASSI
100
AcDbCircle
 62
7
  6
CONTINUOUS
 10
57.4230912572
 20
-26.7364485672
 40
28.0
100
AcDbArc
 50
48.0765919012
 51
54.0372348486
  0
CIRCLE
  5
5D0
100
AcDbEntity
  8
IMPORT_IGES
100
AcDbCircle
 62
7
  6
CONTINUOUS
 10
65.4230912572
 20
-17.7364485672
 40
3.7
  0
CIRCLE
  5
5D1
100
AcDbEntity
  8
IMPORT_IGES
100
AcDbCircle
 62
250
  6
CONTINUOUS
 10
65.4230912572
 20
-17.7364485672
 40
3.2
  0
CIRCLE
  5
5D2
100
AcDbEntity
  8
IMPORT_IGES
100
AcDbCircle
 62
7
  6
CONTINUOUS
 10
65.4230912572
 20
-17.7364485672
 40
3.0
  0
CIRCLE
  5
5D3
100
AcDbEntity
  8
IMPORT_IGES
100
AcDbCircle
 62
7
  6
CONTINUOUS
 10
65.4230912572
 20
-17.7364485672
 40
2.5
  0
ARC
  5
5D4
100
AcDbEntity
  8
ASSI
100
AcDbCircle
 62
7
  6
CONTINUOUS
 10
63.7230912572
 20
-3.6364485672
 40
0.5
100
AcDbArc
 50
240.887577224
 51
9.1962815791
  0
ARC
  5
5D5
100
AcDbEntity
  8
DRAFT
100
AcDbCircle
 62
7
  6
CONTINUOUS
 10
79.9230912572
 20
-26.7364485672
 40
28.0
100
AcDbArc
 50
130.7870381933
 51
131.9234080988
  0
ARC
  5
5D6
100
AcDbEntity
  8
DRAFT
100
AcDbCircle
 62
7
  6
CONTINUOUS
 10
79.9230912572
 20
-26.7364485672
 40
28.0
100
AcDbArc
 50
228.0765919012
 51
229.2129618067
  0
ARC
  5
5D7
100
AcDbEntity
  8
ASSI
100
AcDbCircle
 62
7
  6
CONTINUOUS
 10
79.9230912572
 20
-26.7364485672
 40
28.0
100
AcDbArc
 50
235.8789063483
 51
237.0647695028
  0
ARC
  5
5D8
100
AcDbEntity
  8
ASSI
100
AcDbCircle
 62
7
  6
CONTINUOUS
 10
79.9230912572
 20
-26.7364485672
 40
28.0
100
AcDbArc
 50
122.9352304972
 51
124.1210936517
  0
ARC
  5
5D9
100
AcDbEntity
  8
ASSI
100
AcDbCircle
 62
7
  6
CONTINUOUS
 10
79.9230912572
 20
-26.7364485672
 40
28.0
100
AcDbArc
 50
125.9627651514
 51
131.9234080988
  0
ARC
  5
5DA
100
AcDbEntity
  8
ASSI
100
AcDbCircle
 62
7
  6
CONTINUOUS
 10
79.9230912572
 20
-26.7364485672
 40
28.0
100
AcDbArc
 50
228.0765919012
 51
234.0372348486
  0
ARC
  5
5DB
100
AcDbEntity
  8
IMPORT_IGES
100
AcDbCircle
 62
7
  6
CONTINUOUS
 10
70.3730912572
 20
-10.8364485672
 40
0.75
100
AcDbArc
 50
0.0
 51
90.0
  0
ARC
  5
5DC
100
AcDbEntity
  8
IMPORT_IGES
100
AcDbCircle
 62
7
  6
CONTINUOUS
 10
70.6230912572
 20
-11.8364485672
 40
0.5
100
AcDbArc
 50
0.0
 51
90.0
  0
ARC
  5
5DD
100
AcDbEntity
  8
ASSI
100
AcDbCircle
 62
7
  6
CONTINUOUS
 10
73.6230912572
 20
-3.6364485672
 40
0.5
100
AcDbArc
 50
170.803718421
 51
299.112422776
  0
ARC
  5
5DE
100
AcDbEntity
  8
IMPORT_IGES
100
AcDbCircle
 62
250
  6
CONTINUOUS
 10
70.3730912572
 20
-10.8364485672
 40
0.25
100
AcDbArc
 50
0.0000000007
 51
89.9999999993
  0
ELLIPSE
  5
5DF
100
AcDbEntity
  8
DRAFT
100
AcDbEllipse
 62
7
  6
CONTINUOUS
 10
57.4230912572
 20
-39.0091703352
 30
0.0
 11
-0.0
 21
1.916604173
 31
0.0
 40
0.9948171848
 41
-1.513536263
 42
-0.4099230313
  0
ELLIPSE
  5
5E0
100
AcDbEntity
  8
DRAFT
100
AcDbEllipse
 62
7
  6
CONTINUOUS
 10
57.4230912572
 20
-39.0091703352
 30
0.0
 11
-0.0
 21
1.916604173
 31
0.0
 40
0.9948171848
 41
0.4099230313
 42
1.513536263
  0
ELLIPSE
  5
5E1
100
AcDbEntity
  8
ASSI
100
AcDbEllipse
 62
7
  6
CONTINUOUS
 10
72.1526940947
 20
-26.6414506042
 30
0.0
 11
1.0740093369
 21
-1.0740093369
 31
0.0
 40
0.8785214661
 41
-1.6547115518
 42
-1.4704117948
  0
ELLIPSE
  5
5E2
100
AcDbEntity
  8
ASSI
100
AcDbEllipse
 62
7
  6
CONTINUOUS
 10
72.1526940947
 20
-26.6414506042
 30
0.0
 11
1.0740093369
 21
-1.0740093369
 31
0.0
 40
0.8785214661
 41
2.912053757
 42
3.0963536207
  0
ELLIPSE
  5
5E3
100
AcDbEntity
  8
ASSI
100
AcDbEllipse
 62
7
  6
CONTINUOUS
 10
42.6934884197
 20
-26.6414506042
 30
0.0
 11
1.0740093369
 21
1.0740093369
 31
0.0
 40
0.8785214661
 41
0.0452473848
 42
0.2295388966
  0
ELLIPSE
  5
5E4
100
AcDbEntity
  8
ASSI
100
AcDbEllipse
 62
7
  6
CONTINUOUS
 10
42.6934884197
 20
-26.6414506042
 30
0.0
 11
1.0740093369
 21
1.0740093369
 31
0.0
 40
0.8785214661
 41
-1.6711808588
 42
-1.4868907457
  0
ELLIPSE
  5
5E5
100
AcDbEntity
  8
IMPORT_IGES
100
AcDbEllipse
 62
7
  6
CONTINUOUS
 10
70.8495280388
 20
-17.7364485672
 30
0.0
 11
0.0
 21
3.0
 31
0.0
 40
0.0804597701
 41
-3.1415926536
 42
0.0
  0
ELLIPSE
  5
5E6
100
AcDbEntity
  8
IMPORT_IGES
100
AcDbEllipse
 62
7
  6
CONTINUOUS
 10
44.1012521768
 20
-33.7364485672
 30
0.0
 11
-0.0
 21
3.0
 31
0.0
 40
0.0804597701
 41
-0.0
 42
3.1415926536
  0
ELLIPSE
  5
5E7
100
AcDbEntity
  8
IMPORT_IGES
100
AcDbEllipse
 62
7
  6
CONTINUOUS
 10
53.2230912572
 20
-38.8993796017
 30
0.0
 11
0.5
 21
0.0
 31
0.0
 40
0.0431034483
 41
1.5707963268
 42
3.1415926536
  0
ELLIPSE
  5
5E8
100
AcDbEntity
  8
IMPORT_IGES
100
AcDbEllipse
 62
7
  6
CONTINUOUS
 10
53.5230912572
 20
-38.3773636162
 30
0.0
 11
-0.0
 21
0.5004642613
 31
0.0
 40
0.9990723388
 41
3.1415926536
 42
4.7123889804
  0
ELLIPSE
  5
5E9
100
AcDbEntity
  8
IMPORT_IGES
100
AcDbEllipse
 62
7
  6
CONTINUOUS
 10
61.3230912572
 20
-38.3773636162
 30
0.0
 11
0.0
 21
-0.5004642613
 31
0.0
 40
0.9990723388
 41
-1.5707963268
 42
0.0
  0
ELLIPSE
  5
5EA
100
AcDbEntity
  8
IMPORT_IGES
100
AcDbEllipse
 62
7
  6
CONTINUOUS
 10
43.9966544756
 20
-17.7364485672
 30
0.0
 11
0.0
 21
3.0
 31
0.0
 40
0.0804597701
 41
6.2831853072
 42
9.4247779608
  0
ELLIPSE
  5
5EB
100
AcDbEntity
  8
IMPORT_IGES
100
AcDbEllipse
 62
7
  6
CONTINUOUS
 10
61.6230912572
 20
-38.8993796017
 30
0.0
 11
0.5
 21
0.0
 31
0.0
 40
0.0431034483
 41
0.0
 42
1.5707963268
  0
ELLIPSE
  5
5EC
100
AcDbEntity
  8
IMPORT_IGES
100
AcDbEllipse
 62
7
  6
CONTINUOUS
 10
70.7449303377
 20
-33.7364485672
 30
0.0
 11
-0.0
 21
3.0
 31
0.0
 40
0.0804597701
 41
3.1415926536
 42
6.2831853072
  0
ELLIPSE
  5
5ED
100
AcDbEntity
  8
DRAFT
100
AcDbEllipse
 62
7
  6
CONTINUOUS
 10
42.4671619396
 20
-26.7364485672
 30
0.0
 11
-0.0
 21
0.55
 31
0.0
 40
0.0087268678
 41
-2.2951079664
 42
-0.8464846872
  0
ELLIPSE
  5
5EE
100
AcDbEntity
  8
DRAFT
100
AcDbEllipse
 62
7
  6
CONTINUOUS
 10
72.3790205749
 20
-26.7364485672
 30
0.0
 11
0.0
 21
0.55
 31
0.0
 40
0.0087268678
 41
0.8464846872
 42
2.2951079664
  0
ELLIPSE
  5
5EF
100
AcDbEntity
  8
RACCORDO
100
AcDbEllipse
 62
7
  6
CONTINUOUS
 10
42.70295459
 20
-10.0646313977
 30
0.0
 11
0.5
 21
-0.0
 31
0.0
 40
0.0087268678
 41
1.5707963268
 42
3.1241393611
  0
ELLIPSE
  5
5F0
100
AcDbEntity
  8
RACCORDO
100
AcDbEllipse
 62
7
  6
CONTINUOUS
 10
53.5604898706
 20
-46.7321041725
 30
0.0
 11
-0.0
 21
0.5
 31
0.0
 40
0.0087268678
 41
0.0087266463
 42
1.5707963268
  0
ELLIPSE
  5
5F1
100
AcDbEntity
  8
DRAFT
100
AcDbEllipse
 62
7
  6
CONTINUOUS
 10
49.3503870423
 20
-26.7364485672
 30
0.0
 11
-0.0
 21
498.5
 31
0.0
 40
0.0087268678
 41
-1.6127343965
 42
-1.6096399504
  0
ELLIPSE
  5
5F2
100
AcDbEntity
  8
RACCORDO
100
AcDbEllipse
 62
7
  6
CONTINUOUS
 10
38.7856926438
 20
-46.7321041725
 30
0.0
 11
0.0
 21
0.5
 31
0.0
 40
0.0087268678
 41
-1.5707963268
 42
-0.0087266463
  0
ELLIPSE
  5
5F3
100
AcDbEntity
  8
DRAFT
100
AcDbEllipse
 62
7
  6
CONTINUOUS
 10
42.9957954721
 20
-26.7364485672
 30
0.0
 11
-0.0
 21
498.5
 31
0.0
 40
0.0087268678
 41
-4.6735453568
 42
-4.6704509107
  0
ELLIPSE
  5
5F4
100
AcDbEntity
  8
RACCORDO
100
AcDbEllipse
 62
7
  6
CONTINUOUS
 10
38.7856926438
 20
-6.7407929619
 30
0.0
 11
0.0
 21
0.5
 31
0.0
 40
0.0087268678
 41
-3.1328660073
 42
-1.5707963268
  0
ELLIPSE
  5
5F5
100
AcDbEntity
  8
DRAFT
100
AcDbEllipse
 62
7
  6
CONTINUOUS
 10
42.9957954721
 20
-26.7364485672
 30
0.0
 11
-0.0
 21
498.5
 31
0.0
 40
0.0087268678
 41
1.5288582571
 42
1.5319527032
  0
ELLIPSE
  5
5F6
100
AcDbEntity
  8
RACCORDO
100
AcDbEllipse
 62
7
  6
CONTINUOUS
 10
53.5604898706
 20
-6.7407929619
 30
0.0
 11
0.0
 21
0.5
 31
0.0
 40
0.0087268678
 41
-4.7123889804
 42
-3.1503192998
  0
ELLIPSE
  5
5F7
100
AcDbEntity
  8
DRAFT
100
AcDbEllipse
 62
7
  6
CONTINUOUS
 10
49.3503870423
 20
-26.7364485672
 30
0.0
 11
-0.0
 21
498.5
 31
0.0
 40
0.0087268678
 41
-1.5319527032
 42
-1.5288582571
  0
ELLIPSE
  5
5F8
100
AcDbEntity
  8
RACCORDO
100
AcDbEllipse
 62
7
  6
CONTINUOUS
 10
76.0604898706
 20
-46.7321041725
 30
0.0
 11
0.0
 21
0.5
 31
0.0
 40
0.0087268678
 41
0.0087266463
 42
1.5707963268
  0
ELLIPSE
  5
5F9
100
AcDbEntity
  8
DRAFT
100
AcDbEllipse
 62
7
  6
CONTINUOUS
 10
71.8503870423
 20
-26.7364485672
 30
0.0
 11
-0.0
 21
498.5
 31
0.0
 40
0.0087268678
 41
-1.6127343965
 42
-1.6096399504
  0
ELLIPSE
  5
5FA
100
AcDbEntity
  8
RACCORDO
100
AcDbEllipse
 62
7
  6
CONTINUOUS
 10
61.2856926438
 20
-46.7321041725
 30
0.0
 11
-0.0
 21
0.5
 31
0.0
 40
0.0087268678
 41
-1.5707963268
 42
-0.0087266463
  0
ELLIPSE
  5
5FB
100
AcDbEntity
  8
DRAFT
100
AcDbEllipse
 62
7
  6
CONTINUOUS
 10
65.4957954721
 20
-26.7364485672
 30
0.0
 11
-0.0
 21
498.5
 31
0.0
 40
0.0087268678
 41
-4.6735453568
 42
-4.6704509107
  0
ELLIPSE
  5
5FC
100
AcDbEntity
  8
RACCORDO
100
AcDbEllipse
 62
7
  6
CONTINUOUS
 10
61.2856926438
 20
-6.7407929619
 30
0.0
 11
0.0
 21
0.5
 31
0.0
 40
0.0087268678
 41
-3.1328660073
 42
-1.5707963268
  0
ELLIPSE
  5
5FD
100
AcDbEntity
  8
DRAFT
100
AcDbEllipse
 62
7
  6
CONTINUOUS
 10
65.4957954721
 20
-26.7364485672
 30
0.0
 11
-0.0
 21
498.5
 31
0.0
 40
0.0087268678
 41
1.5288582571
 42
1.5319527032
  0
ELLIPSE
  5
5FE
100
AcDbEntity
  8
RACCORDO
100
AcDbEllipse
 62
7
  6
CONTINUOUS
 10
76.0604898706
 20
-6.7407929619
 30
0.0
 11
0.0
 21
0.5
 31
0.0
 40
0.0087268678
 41
-4.7123889804
 42
-3.1503192999
  0
ELLIPSE
  5
5FF
100
AcDbEntity
  8
DRAFT
100
AcDbEllipse
 62
7
  6
CONTINUOUS
 10
71.8503870423
 20
-26.7364485672
 30
0.0
 11
-0.0
 21
498.5
 31
0.0
 40
0.0087268678
 41
-1.5319527032
 42
-1.5288582571
  0
ELLIPSE
  5
600
100
AcDbEntity
  8
RACCORDO
100
AcDbEllipse
 62
7
  6
CONTINUOUS
 10
72.1432279244
 20
-10.0646313977
 30
0.0
 11
0.5
 21
0.0
 31
0.0
 40
0.0087268678
 41
0.0174532925
 42
1.5707963268
  0
ELLIPSE
  5
601
100
AcDbEntity
  8
DRAFT
100
AcDbEllipse
 62
7
  6
CONTINUOUS
 10
56.7618658311
 20
-26.7364485672
 30
0.0
 11
-0.0
 21
498.5
 31
0.0
 40
0.0087268678
 41
1.5299443924
 42
1.5319527032
  0
ELLIPSE
  5
602
100
AcDbEntity
  8
DRAFT
100
AcDbEllipse
 62
7
  6
CONTINUOUS
 10
58.0843166833
 20
-26.7364485672
 30
0.0
 11
-0.0
 21
498.5
 31
0.0
 40
0.0087268678
 41
-1.5319527032
 42
-1.5299443924
  0
ELLIPSE
  5
603
100
AcDbEntity
  8
DRAFT
100
AcDbEllipse
 62
7
  6
CONTINUOUS
 10
79.2618658311
 20
-26.7364485672
 30
0.0
 11
-0.0
 21
498.5
 31
0.0
 40
0.0087268678
 41
1.5299443924
 42
1.5319527032
  0
ELLIPSE
  5
604
100
AcDbEntity
  8
DRAFT
100
AcDbEllipse
 62
7
  6
CONTINUOUS
 10
79.2618658311
 20
-26.7364485672
 30
0.0
 11
-0.0
 21
498.5
 31
0.0
 40
0.0087268678
 41
-4.6735453568
 42
-4.671537046
  0
ELLIPSE
  5
605
100
AcDbEntity
  8
RACCORDO
100
AcDbEllipse
 62
7
  6
CONTINUOUS
 10
52.5517630028
 20
-6.7407929619
 30
0.0
 11
0.0
 21
0.5
 31
0.0
 40
0.0087268678
 41
-3.1328660073
 42
-1.5707963268
  0
ELLIPSE
  5
606
100
AcDbEntity
  8
DRAFT
100
AcDbEllipse
 62
7
  6
CONTINUOUS
 10
58.0843166833
 20
-26.7364485672
 30
0.0
 11
-0.0
 21
498.5
 31
0.0
 40
0.0087268678
 41
-1.6116482612
 42
-1.6096399504
  0
ELLIPSE
  5
607
100
AcDbEntity
  8
RACCORDO
100
AcDbEllipse
 62
7
  6
CONTINUOUS
 10
39.7944195116
 20
-6.7407929619
 30
0.0
 11
0.0
 21
0.5
 31
0.0
 40
0.0087268678
 41
-4.7123889804
 42
-3.1503192998
  0
ELLIPSE
  5
608
100
AcDbEntity
  8
RACCORDO
100
AcDbEllipse
 62
7
  6
CONTINUOUS
 10
62.2944195116
 20
-6.7407929619
 30
0.0
 11
0.0
 21
0.5
 31
0.0
 40
0.0087268678
 41
-4.7123889804
 42
-3.1503192998
  0
ELLIPSE
  5
609
100
AcDbEntity
  8
RACCORDO
100
AcDbEllipse
 62
7
  6
CONTINUOUS
 10
75.0517630028
 20
-6.7407929619
 30
0.0
 11
-0.0
 21
0.5
 31
0.0
 40
0.0087268678
 41
-3.1328660073
 42
-1.5707963268
  0
ELLIPSE
  5
60A
100
AcDbEntity
  8
DRAFT
100
AcDbEllipse
 62
7
  6
CONTINUOUS
 10
56.7618658311
 20
-26.7364485672
 30
0.0
 11
-0.0
 21
498.5
 31
0.0
 40
0.0087268678
 41
-4.6735453568
 42
-4.671537046
  0
ELLIPSE
  5
60B
100
AcDbEntity
  8
RACCORDO
100
AcDbEllipse
 62
7
  6
CONTINUOUS
 10
52.5517630028
 20
-46.7321041725
 30
0.0
 11
0.0
 21
0.5
 31
0.0
 40
0.0087268678
 41
-1.5707963268
 42
-0.0087266463
  0
ELLIPSE
  5
60C
100
AcDbEntity
  8
RACCORDO
100
AcDbEllipse
 62
7
  6
CONTINUOUS
 10
39.7944195116
 20
-46.7321041725
 30
0.0
 11
0.0
 21
0.5
 31
0.0
 40
0.0087268678
 41
0.0087266463
 42
1.5707963268
  0
ELLIPSE
  5
60D
100
AcDbEntity
  8
DRAFT
100
AcDbEllipse
 62
7
  6
CONTINUOUS
 10
35.5843166833
 20
-26.7364485672
 30
0.0
 11
-0.0
 21
498.5
 31
0.0
 40
0.0087268678
 41
-1.6116482612
 42
-1.6096399504
  0
ELLIPSE
  5
60E
100
AcDbEntity
  8
RACCORDO
100
AcDbEllipse
 62
7
  6
CONTINUOUS
 10
62.2944195116
 20
-46.7321041725
 30
0.0
 11
-0.0
 21
0.5
 31
0.0
 40
0.0087268678
 41
0.0087266463
 42
1.5707963268
  0
ELLIPSE
  5
60F
100
AcDbEntity
  8
RACCORDO
100
AcDbEllipse
 62
7
  6
CONTINUOUS
 10
75.0517630028
 20
-46.7321041725
 30
0.0
 11
0.0
 21
0.5
 31
0.0
 40
0.0087268678
 41
-1.5707963268
 42
-0.0087266463
  0
ELLIPSE
  5
610
100
AcDbEntity
  8
DRAFT
100
AcDbEllipse
 62
7
  6
CONTINUOUS
 10
35.5843166833
 20
-26.7364485672
 30
0.0
 11
-0.0
 21
498.5
 31
0.0
 40
0.0087268678
 41
-1.5319527032
 42
-1.5299443924
  0
ELLIPSE
  5
611
100
AcDbEntity
  8
RACCORDO
100
AcDbEllipse
 62
7
  6
CONTINUOUS
 10
43.4536199086
 20
-26.7364485672
 30
0.0
 11
-0.0
 21
498.5
 31
0.0
 40
0.0087268678
 41
1.5352480468
 42
1.6063446067
  0
ELLIPSE
  5
612
100
AcDbEntity
  8
RACCORDO
100
AcDbEllipse
 62
7
  6
CONTINUOUS
 10
71.3925626058
 20
-26.7364485672
 30
0.0
 11
-0.0
 21
498.5
 31
0.0
 40
0.0087268678
 41
-1.6063446067
 42
-1.5352480468
  0
ELLIPSE
  5
613
100
AcDbEntity
  8
RACCORDO
100
AcDbEllipse
 62
7
  6
CONTINUOUS
 10
72.1432279244
 20
-43.4082657367
 30
0.0
 11
0.5
 21
0.0
 31
0.0
 40
0.0087268678
 41
-1.5707963268
 42
-0.0174532925
  0
ELLIPSE
  5
614
100
AcDbEntity
  8
RACCORDO
100
AcDbEllipse
 62
7
  6
CONTINUOUS
 10
42.70295459
 20
-43.4082657367
 30
0.0
 11
0.5
 21
0.0
 31
0.0
 40
0.0087268678
 41
-3.1241393611
 42
-1.5707963268
  0
ELLIPSE
  5
615
100
AcDbEntity
  8
ASSI
100
AcDbEllipse
 62
7
  6
CONTINUOUS
 10
35.5231674212
 20
-48.6357623942
 30
0.0
 11
-0.1582391023
 21
-0.4751033573
 31
0.0
 40
0.9984778551
 41
-1.2488325878
 42
0.3210503505
  0
ELLIPSE
  5
616
100
AcDbEntity
  8
ASSI
100
AcDbEllipse
 62
7
  6
CONTINUOUS
 10
35.5231674212
 20
-4.8371347402
 30
0.0
 11
0.1582391023
 21
-0.4751033573
 31
0.0
 40
0.9984778551
 41
2.8205423031
 42
4.3904252414
  0
ELLIPSE
  5
617
100
AcDbEntity
  8
ASSI
100
AcDbEllipse
 62
7
  6
CONTINUOUS
 10
79.3230150932
 20
-48.6357623942
 30
0.0
 11
0.1582391023
 21
-0.4751033573
 31
0.0
 40
0.9984778551
 41
-0.3210503505
 42
1.2488325878
  0
ELLIPSE
  5
618
100
AcDbEntity
  8
ASSI
100
AcDbEllipse
 62
7
  6
CONTINUOUS
 10
79.3230150932
 20
-4.8371347402
 30
0.0
 11
-0.1582391023
 21
-0.4751033573
 31
0.0
 40
0.9984778551
 41
1.8927600658
 42
3.4626430041
  0
ELLIPSE
  5
619
100
AcDbEntity
  8
ASSI
100
AcDbEllipse
 62
7
  6
CONTINUOUS
 10
72.3790205749
 20
-26.7364485672
 30
0.0
 11
0.0
 21
0.55
 31
0.0
 40
0.0087268678
 41
0.8464846872
 42
2.2951079664
  0
ELLIPSE
  5
61A
100
AcDbEntity
  8
ASSI
100
AcDbEllipse
 62
7
  6
CONTINUOUS
 10
42.4671619396
 20
-26.7364485672
 30
0.0
 11
-0.0
 21
0.55
 31
0.0
 40
0.0087268678
 41
-2.2951079664
 42
-0.8464846872
  0
ELLIPSE
  5
61B
100
AcDbEntity
  8
ASSI
100
AcDbEllipse
 62
7
  6
CONTINUOUS
 10
52.5517630028
 20
-6.7407929619
 30
0.0
 11
0.0
 21
0.5
 31
0.0
 40
0.0087268678
 41
-3.1328660073
 42
-1.5707963268
  0
ELLIPSE
  5
61C
100
AcDbEntity
  8
ASSI
100
AcDbEllipse
 62
7
  6
CONTINUOUS
 10
56.7618658311
 20
-26.7364485672
 30
0.0
 11
-0.0
 21
498.5
 31
0.0
 40
0.0087268678
 41
-4.6735453568
 42
-4.671537046
  0
ELLIPSE
  5
61D
100
AcDbEntity
  8
ASSI
100
AcDbEllipse
 62
7
  6
CONTINUOUS
 10
39.7944195116
 20
-6.7407929619
 30
0.0
 11
0.0
 21
0.5
 31
0.0
 40
0.0087268678
 41
-4.7123889804
 42
-3.1503192998
  0
ELLIPSE
  5
61E
100
AcDbEntity
  8
ASSI
100
AcDbEllipse
 62
7
  6
CONTINUOUS
 10
62.2944195116
 20
-6.7407929619
 30
0.0
 11
0.0
 21
0.5
 31
0.0
 40
0.0087268678
 41
-4.7123889804
 42
-3.1503192998
  0
ELLIPSE
  5
61F
100
AcDbEntity
  8
ASSI
100
AcDbEllipse
 62
7
  6
CONTINUOUS
 10
75.0517630028
 20
-6.7407929619
 30
0.0
 11
-0.0
 21
0.5
 31
0.0
 40
0.0087268678
 41
-3.1328660073
 42
-1.5707963268
  0
ELLIPSE
  5
620
100
AcDbEntity
  8
ASSI
100
AcDbEllipse
 62
7
  6
CONTINUOUS
 10
72.1432279244
 20
-43.4082657367
 30
0.0
 11
0.5
 21
0.0
 31
0.0
 40
0.0087268678
 41
-1.5707963268
 42
-0.0174532925
  0
ELLIPSE
  5
621
100
AcDbEntity
  8
ASSI
100
AcDbEllipse
 62
7
  6
CONTINUOUS
 10
35.5843166833
 20
-26.7364485672
 30
0.0
 11
-0.0
 21
498.5
 31
0.0
 40
0.0087268678
 41
-1.6116482612
 42
-1.6096399504
  0
ELLIPSE
  5
622
100
AcDbEntity
  8
ASSI
100
AcDbEllipse
 62
7
  6
CONTINUOUS
 10
52.5517630028
 20
-46.7321041725
 30
0.0
 11
0.0
 21
0.5
 31
0.0
 40
0.0087268678
 41
-1.5707963268
 42
-0.0087266463
  0
ELLIPSE
  5
623
100
AcDbEntity
  8
ASSI
100
AcDbEllipse
 62
7
  6
CONTINUOUS
 10
39.7944195116
 20
-46.7321041725
 30
0.0
 11
0.0
 21
0.5
 31
0.0
 40
0.0087268678
 41
0.0087266463
 42
1.5707963268
  0
ELLIPSE
  5
624
100
AcDbEntity
  8
ASSI
100
AcDbEllipse
 62
7
  6
CONTINUOUS
 10
62.2944195116
 20
-46.7321041725
 30
0.0
 11
-0.0
 21
0.5
 31
0.0
 40
0.0087268678
 41
0.0087266463
 42
1.5707963268
  0
ELLIPSE
  5
625
100
AcDbEntity
  8
ASSI
100
AcDbEllipse
 62
7
  6
CONTINUOUS
 10
35.5843166833
 20
-26.7364485672
 30
0.0
 11
-0.0
 21
498.5
 31
0.0
 40
0.0087268678
 41
-1.5319527032
 42
-1.5299443924
  0
ELLIPSE
  5
626
100
AcDbEntity
  8
ASSI
100
AcDbEllipse
 62
7
  6
CONTINUOUS
 10
75.0517630028
 20
-46.7321041725
 30
0.0
 11
0.0
 21
0.5
 31
0.0
 40
0.0087268678
 41
-1.5707963268
 42
-0.0087266463
  0
ELLIPSE
  5
627
100
AcDbEntity
  8
ASSI
100
AcDbEllipse
 62
7
  6
CONTINUOUS
 10
42.70295459
 20
-43.4082657367
 30
0.0
 11
0.5
 21
0.0
 31
0.0
 40
0.0087268678
 41
-3.1241393611
 42
-1.5707963268
  0
ELLIPSE
  5
628
100
AcDbEntity
  8
ASSI
100
AcDbEllipse
 62
7
  6
CONTINUOUS
 10
71.8503870423
 20
-26.7364485672
 30
0.0
 11
-0.0
 21
498.5
 31
0.0
 40
0.0087268678
 41
-1.6127343965
 42
-1.6096399504
  0
ELLIPSE
  5
629
100
AcDbEntity
  8
ASSI
100
AcDbEllipse
 62
7
  6
CONTINUOUS
 10
61.2856926438
 20
-46.7321041725
 30
0.0
 11
-0.0
 21
0.5
 31
0.0
 40
0.0087268678
 41
-1.5707963268
 42
-0.0087266463
  0
ELLIPSE
  5
62A
100
AcDbEntity
  8
ASSI
100
AcDbEllipse
 62
7
  6
CONTINUOUS
 10
65.4957954721
 20
-26.7364485672
 30
0.0
 11
-0.0
 21
498.5
 31
0.0
 40
0.0087268678
 41
-4.6735453568
 42
-4.6704509107
  0
ELLIPSE
  5
62B
100
AcDbEntity
  8
ASSI
100
AcDbEllipse
 62
7
  6
CONTINUOUS
 10
61.2856926438
 20
-6.7407929619
 30
0.0
 11
0.0
 21
0.5
 31
0.0
 40
0.0087268678
 41
-3.1328660073
 42
-1.5707963268
  0
ELLIPSE
  5
62C
100
AcDbEntity
  8
ASSI
100
AcDbEllipse
 62
7
  6
CONTINUOUS
 10
65.4957954721
 20
-26.7364485672
 30
0.0
 11
-0.0
 21
498.5
 31
0.0
 40
0.0087268678
 41
1.5288582571
 42
1.5319527032
  0
ELLIPSE
  5
62D
100
AcDbEntity
  8
ASSI
100
AcDbEllipse
 62
7
  6
CONTINUOUS
 10
76.0604898706
 20
-6.7407929619
 30
0.0
 11
0.0
 21
0.5
 31
0.0
 40
0.0087268678
 41
-4.7123889804
 42
-3.1503192999
  0
ELLIPSE
  5
62E
100
AcDbEntity
  8
ASSI
100
AcDbEllipse
 62
7
  6
CONTINUOUS
 10
71.8503870423
 20
-26.7364485672
 30
0.0
 11
-0.0
 21
498.5
 31
0.0
 40
0.0087268678
 41
-1.5319527032
 42
-1.5288582571
  0
ELLIPSE
  5
62F
100
AcDbEntity
  8
ASSI
100
AcDbEllipse
 62
7
  6
CONTINUOUS
 10
53.5604898706
 20
-46.7321041725
 30
0.0
 11
-0.0
 21
0.5
 31
0.0
 40
0.0087268678
 41
0.0087266463
 42
1.5707963268
  0
ELLIPSE
  5
630
100
AcDbEntity
  8
ASSI
100
AcDbEllipse
 62
7
  6
CONTINUOUS
 10
49.3503870423
 20
-26.7364485672
 30
0.0
 11
-0.0
 21
498.5
 31
0.0
 40
0.0087268678
 41
-1.6127343965
 42
-1.6096399504
  0
ELLIPSE
  5
631
100
AcDbEntity
  8
ASSI
100
AcDbEllipse
 62
7
  6
CONTINUOUS
 10
42.70295459
 20
-10.0646313977
 30
0.0
 11
0.5
 21
-0.0
 31
0.0
 40
0.0087268678
 41
1.5707963268
 42
3.1241393611
  0
ELLIPSE
  5
632
100
AcDbEntity
  8
ASSI
100
AcDbEllipse
 62
7
  6
CONTINUOUS
 10
43.4536199086
 20
-26.7364485672
 30
0.0
 11
-0.0
 21
498.5
 31
0.0
 40
0.0087268678
 41
1.5352480468
 42
1.6063446067
  0
ELLIPSE
  5
633
100
AcDbEntity
  8
ASSI
100
AcDbEllipse
 62
7
  6
CONTINUOUS
 10
71.3925626058
 20
-26.7364485672
 30
0.0
 11
-0.0
 21
498.5
 31
0.0
 40
0.0087268678
 41
-1.6063446067
 42
-1.5352480468
  0
ELLIPSE
  5
634
100
AcDbEntity
  8
ASSI
100
AcDbEllipse
 62
7
  6
CONTINUOUS
 10
38.7856926438
 20
-46.7321041725
 30
0.0
 11
0.0
 21
0.5
 31
0.0
 40
0.0087268678
 41
-1.5707963268
 42
-0.0087266463
  0
ELLIPSE
  5
635
100
AcDbEntity
  8
ASSI
100
AcDbEllipse
 62
7
  6
CONTINUOUS
 10
42.9957954721
 20
-26.7364485672
 30
0.0
 11
-0.0
 21
498.5
 31
0.0
 40
0.0087268678
 41
-4.6735453568
 42
-4.6704509107
  0
ELLIPSE
  5
636
100
AcDbEntity
  8
ASSI
100
AcDbEllipse
 62
7
  6
CONTINUOUS
 10
38.7856926438
 20
-6.7407929619
 30
0.0
 11
0.0
 21
0.5
 31
0.0
 40
0.0087268678
 41
-3.1328660073
 42
-1.5707963268
  0
ELLIPSE
  5
637
100
AcDbEntity
  8
ASSI
100
AcDbEllipse
 62
7
  6
CONTINUOUS
 10
42.9957954721
 20
-26.7364485672
 30
0.0
 11
-0.0
 21
498.5
 31
0.0
 40
0.0087268678
 41
1.5288582571
 42
1.5319527032
  0
ELLIPSE
  5
638
100
AcDbEntity
  8
ASSI
100
AcDbEllipse
 62
7
  6
CONTINUOUS
 10
53.5604898706
 20
-6.7407929619
 30
0.0
 11
0.0
 21
0.5
 31
0.0
 40
0.0087268678
 41
-4.7123889804
 42
-3.1503192998
  0
ELLIPSE
  5
639
100
AcDbEntity
  8
ASSI
100
AcDbEllipse
 62
7
  6
CONTINUOUS
 10
56.7618658311
 20
-26.7364485672
 30
0.0
 11
-0.0
 21
498.5
 31
0.0
 40
0.0087268678
 41
1.5299443924
 42
1.5319527032
  0
ELLIPSE
  5
63A
100
AcDbEntity
  8
ASSI
100
AcDbEllipse
 62
7
  6
CONTINUOUS
 10
58.0843166833
 20
-26.7364485672
 30
0.0
 11
-0.0
 21
498.5
 31
0.0
 40
0.0087268678
 41
-1.5319527032
 42
-1.5299443924
  0
ELLIPSE
  5
63B
100
AcDbEntity
  8
ASSI
100
AcDbEllipse
 62
7
  6
CONTINUOUS
 10
49.3503870423
 20
-26.7364485672
 30
0.0
 11
-0.0
 21
498.5
 31
0.0
 40
0.0087268678
 41
-1.5319527032
 42
-1.5288582571
  0
ELLIPSE
  5
63C
100
AcDbEntity
  8
ASSI
100
AcDbEllipse
 62
7
  6
CONTINUOUS
 10
72.1432279244
 20
-10.0646313977
 30
0.0
 11
0.5
 21
0.0
 31
0.0
 40
0.0087268678
 41
0.0174532925
 42
1.5707963268
  0
ELLIPSE
  5
63D
100
AcDbEntity
  8
ASSI
100
AcDbEllipse
 62
7
  6
CONTINUOUS
 10
79.2618658311
 20
-26.7364485672
 30
0.0
 11
-0.0
 21
498.5
 31
0.0
 40
0.0087268678
 41
1.5299443924
 42
1.5319527032
  0
ELLIPSE
  5
63E
100
AcDbEntity
  8
ASSI
100
AcDbEllipse
 62
7
  6
CONTINUOUS
 10
79.2618658311
 20
-26.7364485672
 30
0.0
 11
-0.0
 21
498.5
 31
0.0
 40
0.0087268678
 41
-4.6735453568
 42
-4.671537046
  0
ELLIPSE
  5
63F
100
AcDbEntity
  8
ASSI
100
AcDbEllipse
 62
7
  6
CONTINUOUS
 10
76.0604898706
 20
-46.7321041725
 30
0.0
 11
0.0
 21
0.5
 31
0.0
 40
0.0087268678
 41
0.0087266463
 42
1.5707963268
  0
ELLIPSE
  5
640
100
AcDbEntity
  8
ASSI
100
AcDbEllipse
 62
7
  6
CONTINUOUS
 10
58.0843166833
 20
-26.7364485672
 30
0.0
 11
-0.0
 21
498.5
 31
0.0
 40
0.0087268678
 41
-1.6116482612
 42
-1.6096399504
  0
ENDSEC
  0
SECTION
  2
OBJECTS
  0
DICTIONARY
  5
C
100
AcDbDictionary
280
0
281
1
  3
ACAD_GROUP
350
D
  3
ACAD_MLINESTYLE
350
17
  3
ACAD_LAYOUT
350
1A
  3
ACAD_PLOTSETTINGS
350
19
  3
ACAD_PLOTSTYLENAME
350
E
  0
DICTIONARY
  5
D
102
{ACAD_REACTORS
330
C
102
}
100
AcDbDictionary
280
0
281
1
  0
ACDBDICTIONARYWDFLT
  5
E
102
{ACAD_REACTORS
330
C
102
}
100
AcDbDictionary
281
1
  3
Normal
350
F
100
AcDbDictionaryWithDefault
340
F
  0
DICTIONARY
  5
17
102
{ACAD_REACTORS
330
C
102
}
100
AcDbDictionary
280
0
281
1
  3
Standard
350
18
  0
DICTIONARY
  5
19
102
{ACAD_REACTORS
330
C
102
}
100
AcDbDictionary
281
1
  0
DICTIONARY
  5
1A
102
{ACAD_REACTORS
330
C
102
}
100
AcDbDictionary
281
1
  3
Model
350
641
  3
Layout1
350
642
  0
ACDBPLACEHOLDER
  5
F
102
{ACAD_REACTORS
330
E
102
}
  0
MLINESTYLE
  5
18
102
{ACAD_REACTORS
330
17
102
}
100
AcDbMlineStyle
  2
STANDARD
 70
0
  3

 62
256
 51
90.0
 52
90.0
 71
2
 49
0.5
 62
256
  6
BYLAYER
 49
-0.5
 62
256
  6
BYLAYER
  0
LAYOUT
  5
641
102
{ACAD_REACTORS
330
1A
102
}
100
AcDbPlotSettings
  1

  2
none_device
  4
ISO_A4_(297.00_x_210.00_MM)
  6

 40
0.0
 41
0.0
 42
0.0
 43
0.0
 44
297.0
 45
210.0
 46
0.0
 47
0.0
 48
0.0
 49
0.0
140
0.0
141
0.0
142
1.0
143
1.0
 70
1024
 72
1
 73
0
 74
0
  7

 75
0
147
1.0
148
0.0
149
0.0
100
AcDbLayout
  1
Model
 70
0
 71
0
 10
0.0
 20
0.0
 11
297.0
 21
210.0
 12
0.0
 22
0.0
 32
0.0
 14
0.0
 24
0.0
 34
0.0
 15
0.0
 25
0.0
 35
0.0
146
0.0
 13
0.0
 23
0.0
 33
0.0
 16
1.0
 26
0.0
 36
0.0
 17
0.0
 27
1.0
 37
0.0
 76
0
330
226
345
0
346
0
  0
LAYOUT
  5
642
102
{ACAD_REACTORS
330
1A
102
}
100
AcDbPlotSettings
  1

  2
none_device
  4
ISO_A4_(297.00_x_210.00_MM)
  6

 40
0.0
 41
0.0
 42
0.0
 43
0.0
 44
297.0
 45
210.0
 46
0.0
 47
0.0
 48
0.0
 49
0.0
140
0.0
141
0.0
142
1.0
143
1.0
 70
0
 72
1
 73
0
 74
0
  7

 75
0
147
1.0
148
0.0
149
0.0
100
AcDbLayout
  1
Layout1
 70
0
 71
1
 10
0.0
 20
0.0
 11
297.0
 21
210.0
 12
0.0
 22
0.0
 32
0.0
 14
0.0
 24
0.0
 34
0.0
 15
0.0
 25
0.0
 35
0.0
146
0.0
 13
0.0
 23
0.0
 33
0.0
 16
1.0
 26
0.0
 36
0.0
 17
0.0
 27
1.0
 37
0.0
 76
0
330
227
345
0
346
0
  0
ENDSEC
  0
EOF
