  0
SECTION
  2
HEADER
  9
$ACADVER
  1
AC1024
  9
$DWGCODEPAGE
  3
ANSI_1252
  9
$EXTMAX
 10
297.0
 20
210.0
 30
0.0
  9
$EXTMIN
 10
0.0
 20
0.0
 30
0.0
  9
$LIMMIN
 10
0.0
 20
0.0
  9
$LIMMAX
 10
297.0
 20
210.0
  9
$VIEWCTR
 10
148.5
 20
105.0
  9
$VIEWSIZE
 40
210.0
  9
$CLAYER
  8
0
  9
$LTSCALE
 40
16.335
  9
$CELTYPE
  6
BYLAYER
  9
$DIMSCALE
 40
1.0
  9
$DIMASZ
 40
3.0
  9
$DIMEXO
 40
0.5
  9
$DIMDLI
 40
11.286
  9
$DIMEXE
 40
1.5
  9
$DIMCEN
 40
2.673
  9
$DIMLFAC
 40
1.0
  9
$DIMBLK
  1
_FILLED
  9
$DIMALT
 70
0
  9
$DIMALTF
 40
0.0393700787
  9
$DIMTXT
 40
3.0
  9
$DIMTOL
 70
1
  9
$DIMLIM
 70
0
  9
$DIMTFAC
 40
1.0
  9
$DIMTP
 40
0.01
  9
$DIMTM
 40
0.01
  9
$DIMGAP
 40
0.625
  9
$DIMDSEP
 70
44
  9
$AUNITS
 70
0
  9
$PDMODE
 70
3
  9
$PDSIZE
 40
3.0
  9
$HANDSEED
  5
4B3
  9
$TILEMODE
 70
1
  9
$MEASUREMENT
 70
1
  9
$INSUNITS
 70
4
  0
ENDSEC
  0
SECTION
  2
CLASSES
  0
CLASS
  1
ACDBDICTIONARYWDFLT
  2
AcDbDictionaryWithDefault
  3
AutoCAD 2000
 90
0
 91
1
280
0
281
0
  0
CLASS
  1
ACDBPLACEHOLDER
  2
AcDbPlaceHolder
  3
AutoCAD 2000
 90
0
 91
1
280
0
281
0
  0
CLASS
  1
LAYOUT
  2
AcDbLayout
  3
AutoCAD 2000
 90
0
 91
0
280
0
281
0
  0
ENDSEC
  0
SECTION
  2
TABLES
  0
TABLE
  2
VPORT
  5
8
100
AcDbSymbolTable
 70
2
  0
VPORT
  5
1F4
100
AcDbSymbolTableRecord
100
AcDbViewportTableRecord
  2
*ACTIVE
 70
0
 10
0.0
 20
0.0
 11
1.0
 21
1.0
 12
148.5
 22
105.0
 13
0.0
 23
0.0
 14
1.0
 24
1.0
 15
0.0
 25
0.0
 16
0.0
 26
0.0
 36
1.0
 17
0.0
 27
0.0
 37
0.0
 40
210.0
 41
1.4142857143
 42
50.0
 43
0.0
 44
0.0
 50
0.0
 51
0.0
 71
0
 72
100
 73
1
 74
1
 75
0
 76
0
 77
0
 78
0
  0
ENDTAB
  0
TABLE
  2
LTYPE
  5
5
100
AcDbSymbolTable
 70
6
  0
LTYPE
  5
14
100
AcDbSymbolTableRecord
100
AcDbLinetypeTableRecord
  2
BYBLOCK
 70
0
  3

 72
65
 73
0
 40
0.0
  0
LTYPE
  5
15
100
AcDbSymbolTableRecord
100
AcDbLinetypeTableRecord
  2
BYLAYER
 70
0
  3

 72
65
 73
0
 40
0.0
  0
LTYPE
  5
16
100
AcDbSymbolTableRecord
100
AcDbLinetypeTableRecord
  2
CONTINUOUS
 70
64
  3
Solid line
 72
65
 73
0
 40
0.0
  0
LTYPE
  5
1F5
100
AcDbSymbolTableRecord
100
AcDbLinetypeTableRecord
  2
CENTER
 70
64
  3
____ _ ____ _ ____ _ ____ _ ____ _ ____ _ ____
 72
65
 73
4
 40
0.6
 49
0.375
 74
0
 49
-0.075
 74
0
 49
0.075
 74
0
 49
-0.075
 74
0
  0
LTYPE
  5
1F6
100
AcDbSymbolTableRecord
100
AcDbLinetypeTableRecord
  2
HIDDEN
 70
64
  3
- - - - - - - - - - - - - - - - - - - -
 72
65
 73
2
 40
0.2
 49
0.1
 74
0
 49
-0.1
 74
0
  0
LTYPE
  5
1F7
100
AcDbSymbolTableRecord
100
AcDbLinetypeTableRecord
  2
PHANTOM
 70
64
  3
_____ _ _ _____ _ _ _____ _ _ _____
 72
65
 73
6
 40
0.8
 49
0.45
 74
0
 49
-0.05
 74
0
 49
0.1
 74
0
 49
-0.05
 74
0
 49
0.1
 74
0
 49
-0.05
 74
0
  0
LTYPE
  5
1F8
100
AcDbSymbolTableRecord
100
AcDbLinetypeTableRecord
  2
DOT
 70
64
  3
. . . . . . . . . . . . . . . . . . . .
 72
65
 73
2
 40
0.2
 49
0.1
 74
0
 49
-0.1
 74
0
  0
LTYPE
  5
1F9
100
AcDbSymbolTableRecord
100
AcDbLinetypeTableRecord
  2
DASHED
 70
64
  3
- - - - - - - - - - - - - - - - - - - -
 72
65
 73
2
 40
0.2
 49
0.1
 74
0
 49
-0.1
 74
0
  0
ENDTAB
  0
TABLE
  2
LAYER
  5
2
100
AcDbSymbolTable
 70
36
  0
LAYER
  5
10
100
AcDbSymbolTableRecord
100
AcDbLayerTableRecord
  2
0
 70
0
 62
7
  6
CONTINUOUS
370
-3
390
F
  0
LAYER
  5
1FA
100
AcDbSymbolTableRecord
100
AcDbLayerTableRecord
  2
DEFAULT_1
 70
0
 62
7
  6
CENTER
370
-3
390
F
  0
LAYER
  5
1FB
100
AcDbSymbolTableRecord
100
AcDbLayerTableRecord
  2
DEFAULT_2
 70
0
 62
7
  6
HIDDEN
370
-3
390
F
  0
LAYER
  5
1FC
100
AcDbSymbolTableRecord
100
AcDbLayerTableRecord
  2
DEFAULT_3
 70
0
 62
7
  6
PHANTOM
370
-3
390
F
  0
LAYER
  5
1FD
100
AcDbSymbolTableRecord
100
AcDbLayerTableRecord
  2
ASSI
 70
0
 62
7
  6
CONTINUOUS
370
-3
390
F
  0
LAYER
  5
1FE
100
AcDbSymbolTableRecord
100
AcDbLayerTableRecord
  2
COORDINATE
 70
0
 62
7
  6
CONTINUOUS
370
-3
390
F
  0
LAYER
  5
1FF
100
AcDbSymbolTableRecord
100
AcDbLayerTableRecord
  2
COORD_ORIGINE
 70
0
 62
7
  6
CONTINUOUS
370
-3
390
F
  0
LAYER
  5
200
100
AcDbSymbolTableRecord
100
AcDbLayerTableRecord
  2
COPY_PUBLISH
 70
0
 62
7
  6
CONTINUOUS
370
-3
390
F
  0
LAYER
  5
201
100
AcDbSymbolTableRecord
100
AcDbLayerTableRecord
  2
COSMETIC
 70
0
 62
7
  6
CONTINUOUS
370
-3
390
F
  0
LAYER
  5
202
100
AcDbSymbolTableRecord
100
AcDbLayerTableRecord
  2
COSMETICI
 70
0
 62
7
  6
CONTINUOUS
370
-3
390
F
  0
LAYER
  5
203
100
AcDbSymbolTableRecord
100
AcDbLayerTableRecord
  2
CURVE
 70
0
 62
7
  6
CONTINUOUS
370
-3
390
F
  0
LAYER
  5
204
100
AcDbSymbolTableRecord
100
AcDbLayerTableRecord
  2
DRAFT
 70
0
 62
7
  6
CONTINUOUS
370
-3
390
F
  0
LAYER
  5
205
100
AcDbSymbolTableRecord
100
AcDbLayerTableRecord
  2
IMPORT_IGES
 70
0
 62
7
  6
CONTINUOUS
370
-3
390
F
  0
LAYER
  5
206
100
AcDbSymbolTableRecord
100
AcDbLayerTableRecord
  2
INTFCLR_1
 70
0
 62
7
  6
CONTINUOUS
370
-3
390
F
  0
LAYER
  5
207
100
AcDbSymbolTableRecord
100
AcDbLayerTableRecord
  2
NOTE
 70
0
 62
7
  6
CONTINUOUS
370
-3
390
F
  0
LAYER
  5
208
100
AcDbSymbolTableRecord
100
AcDbLayerTableRecord
  2
PIANI
 70
0
 62
7
  6
CONTINUOUS
370
-3
390
F
  0
LAYER
  5
209
100
AcDbSymbolTableRecord
100
AcDbLayerTableRecord
  2
PIANI_ORIGINE
 70
0
 62
7
  6
CONTINUOUS
370
-3
390
F
  0
LAYER
  5
20A
100
AcDbSymbolTableRecord
100
AcDbLayerTableRecord
  2
PUNTI
 70
0
 62
7
  6
CONTINUOUS
370
-3
390
F
  0
LAYER
  5
20B
100
AcDbSymbolTableRecord
100
AcDbLayerTableRecord
  2
RACCORDO
 70
0
 62
7
  6
CONTINUOUS
370
-3
390
F
  0
LAYER
  5
20C
100
AcDbSymbolTableRecord
100
AcDbLayerTableRecord
  2
SIMBOLI
 70
0
 62
7
  6
CONTINUOUS
370
-3
390
F
  0
LAYER
  5
20D
100
AcDbSymbolTableRecord
100
AcDbLayerTableRecord
  2
SMUSSO
 70
0
 62
7
  6
CONTINUOUS
370
-3
390
F
  0
LAYER
  5
20E
100
AcDbSymbolTableRecord
100
AcDbLayerTableRecord
  2
SNAPLINE
 70
0
 62
7
  6
CONTINUOUS
370
-3
390
F
  0
LAYER
  5
20F
100
AcDbSymbolTableRecord
100
AcDbLayerTableRecord
  2
SUPERFICI
 70
0
 62
7
  6
CONTINUOUS
370
-3
390
F
  0
LAYER
  5
210
100
AcDbSymbolTableRecord
100
AcDbLayerTableRecord
  2
TRASH
 70
0
 62
7
  6
CONTINUOUS
370
-3
390
F
  0
LAYER
  5
211
100
AcDbSymbolTableRecord
100
AcDbLayerTableRecord
  2
XSEC_DATUMS
 70
0
 62
7
  6
CONTINUOUS
370
-3
390
F
  0
ENDTAB
  0
TABLE
  2
STYLE
  5
3
100
AcDbSymbolTable
 70
1
  0
STYLE
  5
11
100
AcDbSymbolTableRecord
100
AcDbTextStyleTableRecord
  2
STANDARD
 70
0
 40
0.0
 41
0.8
 50
0.0
 71
0
 42
0.2
  3
txt
  4

  0
STYLE
  5
212
100
AcDbSymbolTableRecord
100
AcDbTextStyleTableRecord
  2
TEXTSTYLE_1
 70
0
 40
0.0
 41
0.8
 50
0.0
 71
0
 42
0.2
  3
gdt
  4

  0
ENDTAB
  0
TABLE
  2
VIEW
  5
6
100
AcDbSymbolTable
 70
0
  0
ENDTAB
  0
TABLE
  2
UCS
  5
7
100
AcDbSymbolTable
 70
0
  0
ENDTAB
  0
TABLE
  2
APPID
  5
9
100
AcDbSymbolTable
 70
1
  0
APPID
  5
213
100
AcDbSymbolTableRecord
100
AcDbRegAppTableRecord
  2
ACAD
 70
0
  0
ENDTAB
  0
TABLE
  2
BLOCK_RECORD
  5
1
100
AcDbSymbolTable
 70
0
  0
BLOCK_RECORD
  5
214
100
AcDbSymbolTableRecord
100
AcDbBlockTableRecord
  2
*Model_Space
  0
BLOCK_RECORD
  5
215
100
AcDbSymbolTableRecord
100
AcDbBlockTableRecord
  2
*Paper_Space
  0
BLOCK_RECORD
  5
216
100
AcDbSymbolTableRecord
100
AcDbBlockTableRecord
  2
_FILLED
  0
ENDTAB
  0
TABLE
  2
DIMSTYLE
  5
A
100
AcDbSymbolTable
 70
1
100
AcDbDimStyleTable
 71
0
  0
DIMSTYLE
105
217
100
AcDbSymbolTableRecord
100
AcDbDimStyleTableRecord
  2
STANDARD
 70
0
  3

  4

 40
1.0
 41
3.0
 42
0.5
 43
0.38
 44
1.5
 45
0.0
 46
0.0
 47
0.01
 48
0.01
140
3.0
141
0.09
142
0.0
143
25.4
144
1.0
145
0.0
146
1.0
147
0.625
 71
1
 72
0
 73
0
 74
0
 75
0
 76
0
 77
1
 78
8
 79
2
170
0
171
1
172
0
173
0
174
0
175
0
176
0
177
0
178
0
270
2
179
2
271
2
272
2
273
2
274
2
275
0
280
0
281
0
282
0
283
1
284
8
285
0
286
0
287
3
288
0
340
11
278
44
341
216
342
216
343
216
344
216
  0
ENDTAB
  0
ENDSEC
  0
SECTION
  2
BLOCKS
  0
BLOCK
  5
20
100
AcDbEntity
  8
0
100
AcDbBlockBegin
  2
*Model_Space
 70
0
 10
0.0
 20
0.0
 30
0.0
  3
*Model_Space
  1

  0
ENDBLK
  5
21
100
AcDbEntity
  8
0
100
AcDbBlockEnd
  0
BLOCK
  5
1C
100
AcDbEntity
  8
0
100
AcDbBlockBegin
  2
*Paper_Space
 70
0
 10
0.0
 20
0.0
 30
0.0
  3
*Paper_Space
  1

  0
ENDBLK
  5
1D
100
AcDbEntity
  8
0
100
AcDbBlockEnd
  0
BLOCK
  5
218
100
AcDbEntity
  8
0
100
AcDbBlockBegin
  2
_FILLED
 70
64
 10
0.0
 20
0.0
  3
_FILLED
  1

  0
SOLID
  5
219
100
AcDbEntity
  8
0
  6
BYBLOCK
 62
0
100
AcDbTrace
 10
0.0
 20
0.0
 11
-1.0
 21
0.3166666667
 12
-1.0
 22
-0.3166666667
 13
-1.0
 23
-0.3166666667
  0
ENDBLK
  5
21A
100
AcDbEntity
  8
0
  6
BYBLOCK
 62
0
100
AcDbBlockEnd
  0
ENDSEC
  0
SECTION
  2
ENTITIES
  0
LINE
  5
21B
100
AcDbEntity
  8
RACCORDO
100
AcDbLine
 62
7
  6
CONTINUOUS
 10
23.1810678937
 20
-22.2347495898
 11
2.1807633014
 21
-22.2347495898
  0
LINE
  5
21C
100
AcDbEntity
  8
0
100
AcDbLine
 62
7
  6
CONTINUOUS
 10
11.1809155976
 20
-21.8347495898
 11
14.1809155976
 21
-21.8347495898
  0
LINE
  5
21D
100
AcDbEntity
  8
RACCORDO
100
AcDbLine
 62
7
  6
CONTINUOUS
 10
22.3315428538
 20
-21.085365423
 11
14.1809155976
 21
-21.085365423
  0
LINE
  5
21E
100
AcDbEntity
  8
RACCORDO
100
AcDbLine
 62
7
  6
CONTINUOUS
 10
11.1809155976
 20
-21.085365423
 11
3.0302883413
 21
-21.085365423
  0
LINE
  5
21F
100
AcDbEntity
  8
RACCORDO
100
AcDbLine
 62
7
  6
CONTINUOUS
 10
22.2830896988
 20
-21.036912268
 11
16.8627082264
 21
-21.036912268
  0
LINE
  5
220
100
AcDbEntity
  8
RACCORDO
100
AcDbLine
 62
7
  6
CONTINUOUS
 10
8.4991229687
 20
-21.036912268
 11
5.6392034751
 21
-21.036912268
  0
LINE
  5
221
100
AcDbEntity
  8
RACCORDO
100
AcDbLine
 62
7
  6
CONTINUOUS
 10
5.2226277201
 20
-21.036912268
 11
3.0787381938
 21
-21.036912268
  0
LINE
  5
222
100
AcDbEntity
  8
RACCORDO
100
AcDbLine
 62
7
  6
CONTINUOUS
 10
3.7307937537
 20
-20.8347495898
 11
4.9979028957
 21
-20.8347495898
  0
LINE
  5
223
100
AcDbEntity
  8
0
100
AcDbLine
 62
7
  6
CONTINUOUS
 10
5.8639282995
 20
-20.8347495898
 11
8.3492831513
 21
-20.8347495898
  0
LINE
  5
224
100
AcDbEntity
  8
0
100
AcDbLine
 62
7
  6
CONTINUOUS
 10
21.5042268703
 20
-20.8347495898
 11
21.6310374414
 21
-20.8347495898
  0
LINE
  5
225
100
AcDbEntity
  8
RACCORDO
100
AcDbLine
 62
250
  6
CONTINUOUS
 10
22.2830896988
 20
-20.7869217872
 11
21.8984298553
 21
-20.7869217872
  0
LINE
  5
226
100
AcDbEntity
  8
RACCORDO
100
AcDbLine
 62
250
  6
CONTINUOUS
 10
3.4634017054
 20
-20.7869217872
 11
3.0787414964
 21
-20.7869217872
  0
LINE
  5
227
100
AcDbEntity
  8
0
100
AcDbLine
 62
7
  6
CONTINUOUS
 10
21.443134143
 20
-20.7736568626
 11
20.2580695916
 21
-20.7736568626
  0
LINE
  5
228
100
AcDbEntity
  8
0
100
AcDbLine
 62
7
  6
CONTINUOUS
 10
19.6037616035
 20
-20.7736568626
 11
16.8889586077
 21
-20.7736568626
  0
LINE
  5
229
100
AcDbEntity
  8
RACCORDO
100
AcDbLine
 62
250
  6
CONTINUOUS
 10
3.0287434002
 20
-20.736923691
 11
2.7787529195
 21
-20.736923691
  0
LINE
  5
22A
100
AcDbEntity
  8
RACCORDO
100
AcDbLine
 62
250
  6
CONTINUOUS
 10
22.3330877949
 20
-20.736923691
 11
22.5830782757
 21
-20.736923691
  0
LINE
  5
22B
100
AcDbEntity
  8
DRAFT
100
AcDbLine
 62
7
  6
CONTINUOUS
 10
9.9871333802
 20
-20.6847495898
 11
15.3746978149
 21
-20.6847495898
  0
LINE
  5
22C
100
AcDbEntity
  8
RACCORDO
100
AcDbLine
 62
7
  6
CONTINUOUS
 10
15.3806172282
 20
-20.6397871819
 11
9.9812139669
 21
-20.6397871819
  0
LINE
  5
22D
100
AcDbEntity
  8
0
100
AcDbLine
 62
7
  6
CONTINUOUS
 10
15.3698228703
 20
-20.4847495898
 11
9.9187658265
 21
-20.4847495898
  0
LINE
  5
22E
100
AcDbEntity
  8
0
100
AcDbLine
 62
7
  6
CONTINUOUS
 10
15.582740825
 20
-20.4236568626
 11
15.4309155976
 21
-20.4236568626
  0
LWPOLYLINE
  5
22F
100
AcDbEntity
  8
RACCORDO
100
AcDbPolyline
 62
250
  6
CONTINUOUS
 90
22
 70
0
 10
3.0787414964
 20
-20.7869217872
 10
3.0761654437
 20
-20.7868824944
 10
3.0735144451
 20
-20.7866703062
 10
3.0707885006
 20
-20.7862852225
 10
3.0679769374
 20
-20.7857446366
 10
3.0650904283
 20
-20.7850311553
 10
3.0621609914
 20
-20.7840925984
 10
3.0591794141
 20
-20.782929286
 10
3.0561549089
 20
-20.781540898
 10
3.0531471318
 20
-20.7798742952
 10
3.0501445267
 20
-20.7779258733
 10
3.0471586495
 20
-20.7756992365
 10
3.044283824
 20
-20.7731520581
 10
3.04150481
 20
-20.7702659374
 10
3.0388368475
 20
-20.7670592751
 10
3.0364199803
 20
-20.7635449465
 10
3.0342537956
 20
-20.7596939118
 10
3.032338706
 20
-20.7555352108
 10
3.0308159935
 20
-20.7511688388
 10
3.0297327521
 20
-20.7466281273
 10
3.0290418876
 20
-20.7418797447
 10
3.0287434002
 20
-20.736923691
  0
LWPOLYLINE
  5
230
100
AcDbEntity
  8
RACCORDO
100
AcDbPolyline
 62
250
  6
CONTINUOUS
 90
22
 70
0
 10
3.078738194
 20
-21.0369122677
 10
3.0634034505
 20
-21.0365189388
 10
3.0474921815
 20
-21.0352782728
 10
3.0310571986
 20
-21.0330952398
 10
3.0141892418
 20
-21.0298806752
 10
2.9969361634
 20
-21.0255377956
 10
2.9793075988
 20
-21.0199476497
 10
2.9614097663
 20
-21.0130077555
 10
2.9433649337
 20
-21.0046210375
 10
2.9252408039
 20
-20.9946557609
 10
2.9072016267
 20
-20.9830172436
 10
2.8894313392
 20
-20.9696239485
 10
2.8720736554
 20
-20.9543542362
 10
2.8553283767
 20
-20.9371092052
 10
2.8394936406
 20
-20.9178885993
 10
2.8248865615
 20
-20.896754326
 10
2.8117582556
 20
-20.8737030548
 10
2.8004223735
 20
-20.8488511646
 10
2.7912326407
 20
-20.8225317894
 10
2.7844307778
 20
-20.7949944357
 10
2.7802042145
 20
-20.7663775659
 10
2.7787529195
 20
-20.736923691
  0
LINE
  5
231
100
AcDbEntity
  8
DRAFT
100
AcDbLine
 62
7
  6
CONTINUOUS
 10
8.505042382
 20
-21.0818746759
 11
9.9871333802
 21
-20.6847495898
  0
LINE
  5
232
100
AcDbEntity
  8
RACCORDO
100
AcDbLine
 62
7
  6
CONTINUOUS
 10
9.9812139669
 20
-20.6397871819
 11
8.4991229687
 21
-21.036912268
  0
LINE
  5
233
100
AcDbEntity
  8
0
100
AcDbLine
 62
7
  6
CONTINUOUS
 10
9.6599862008
 20
-20.5188185739
 11
8.608062777
 21
-20.8006806058
  0
LINE
  5
234
100
AcDbEntity
  8
0
100
AcDbLine
 62
7
  6
CONTINUOUS
 10
3.8576043249
 20
-19.9080608625
 11
8.3589147121
 21
-19.9080608625
  0
LINE
  5
235
100
AcDbEntity
  8
0
100
AcDbLine
 62
7
  6
CONTINUOUS
 10
21.443134143
 20
-19.8469681353
 11
17.0109594931
 21
-19.8469681353
  0
LINE
  5
236
100
AcDbEntity
  8
0
100
AcDbLine
 62
7
  6
CONTINUOUS
 10
3.9309155976
 20
-19.8347495898
 11
8.3492631
 21
-19.8347495898
  0
LINE
  5
237
100
AcDbEntity
  8
0
100
AcDbLine
 62
7
  6
CONTINUOUS
 10
15.3698228703
 20
-19.5580608625
 11
9.6651324948
 21
-19.5580608625
  0
LINE
  5
238
100
AcDbEntity
  8
0
100
AcDbLine
 62
7
  6
CONTINUOUS
 10
15.7047417105
 20
-19.4969681353
 11
15.4309155976
 21
-19.4969681353
  0
LINE
  5
239
100
AcDbEntity
  8
0
100
AcDbLine
 62
7
  6
CONTINUOUS
 10
15.7063503125
 20
-19.4847495898
 11
9.6554808826
 21
-19.4847495898
  0
LINE
  5
23A
100
AcDbEntity
  8
0
100
AcDbLine
 62
7
  6
CONTINUOUS
 10
2.9309155976
 20
-18.7787092686
 11
3.8576043249
 21
-18.7787092686
  0
LINE
  5
23B
100
AcDbEntity
  8
0
100
AcDbLine
 62
7
  6
CONTINUOUS
 10
21.5042268703
 20
-18.7787092686
 11
22.4309155976
 21
-18.7787092686
  0
LINE
  5
23C
100
AcDbEntity
  8
0
100
AcDbLine
 62
7
  6
CONTINUOUS
 10
22.4117150261
 20
-18.5847495898
 11
21.4850262988
 21
-18.5847495898
  0
LINE
  5
23D
100
AcDbEntity
  8
0
100
AcDbLine
 62
7
  6
CONTINUOUS
 10
3.8768048963
 20
-18.5847495898
 11
2.950116169
 21
-18.5847495898
  0
LINE
  5
23E
100
AcDbEntity
  8
DRAFT
100
AcDbLine
 62
7
  6
CONTINUOUS
 10
15.3746978149
 20
-20.6847495898
 11
16.8567888131
 21
-21.0818746759
  0
LINE
  5
23F
100
AcDbEntity
  8
RACCORDO
100
AcDbLine
 62
7
  6
CONTINUOUS
 10
16.8627082264
 20
-21.036912268
 11
15.3806172282
 21
-20.6397871819
  0
LINE
  5
240
100
AcDbEntity
  8
0
100
AcDbLine
 62
7
  6
CONTINUOUS
 10
16.8889586077
 20
-20.7736568626
 11
15.582740825
 21
-20.4236568626
  0
LINE
  5
241
100
AcDbEntity
  8
0
100
AcDbLine
 62
7
  6
CONTINUOUS
 10
9.6651324948
 20
-19.5580608625
 11
8.3589147121
 21
-19.9080608625
  0
LINE
  5
242
100
AcDbEntity
  8
0
100
AcDbLine
 62
7
  6
CONTINUOUS
 10
9.6554808826
 20
-19.4847495898
 11
8.3492631
 21
-19.8347495898
  0
LINE
  5
243
100
AcDbEntity
  8
0
100
AcDbLine
 62
7
  6
CONTINUOUS
 10
22.6315314308
 20
-18.3347495898
 11
22.0309155976
 21
-18.3347495898
  0
LINE
  5
244
100
AcDbEntity
  8
0
100
AcDbLine
 62
7
  6
CONTINUOUS
 10
3.3309155976
 20
-18.3347495898
 11
2.7302997644
 21
-18.3347495898
  0
LINE
  5
245
100
AcDbEntity
  8
0
100
AcDbLine
 62
7
  6
CONTINUOUS
 10
14.7809155976
 20
-18.1347495898
 11
10.5809155976
 21
-18.1347495898
  0
LINE
  5
246
100
AcDbEntity
  8
0
100
AcDbLine
 62
7
  6
CONTINUOUS
 10
17.0109594931
 20
-19.8469681353
 11
15.7047417105
 21
-19.4969681353
  0
LINE
  5
247
100
AcDbEntity
  8
0
100
AcDbLine
 62
7
  6
CONTINUOUS
 10
11.7898623974
 20
-16.5347495898
 11
13.5712152948
 21
-16.5347495898
  0
LINE
  5
248
100
AcDbEntity
  8
0
100
AcDbLine
 62
7
  6
CONTINUOUS
 10
22.6315314308
 20
-16.3347495898
 11
22.0309155976
 21
-16.3347495898
  0
LINE
  5
249
100
AcDbEntity
  8
0
100
AcDbLine
 62
7
  6
CONTINUOUS
 10
3.3309155976
 20
-16.3347495898
 11
2.7302997644
 21
-16.3347495898
  0
LINE
  5
24A
100
AcDbEntity
  8
0
100
AcDbLine
 62
7
  6
CONTINUOUS
 10
2.950116169
 20
-16.0847495898
 11
3.8768048963
 21
-16.0847495898
  0
LINE
  5
24B
100
AcDbEntity
  8
0
100
AcDbLine
 62
7
  6
CONTINUOUS
 10
21.4850262988
 20
-16.0847495898
 11
22.4117150261
 21
-16.0847495898
  0
LINE
  5
24C
100
AcDbEntity
  8
0
100
AcDbLine
 62
7
  6
CONTINUOUS
 10
2.9309155976
 20
-15.8907899111
 11
3.8576043249
 21
-15.8907899111
  0
LINE
  5
24D
100
AcDbEntity
  8
0
100
AcDbLine
 62
7
  6
CONTINUOUS
 10
21.5042268703
 20
-15.8907899111
 11
22.4309155976
 21
-15.8907899111
  0
LINE
  5
24E
100
AcDbEntity
  8
DRAFT
100
AcDbLine
 62
7
  6
CONTINUOUS
 10
2.4209486885
 20
5.689629487
 11
2.7302997644
 21
6.35303501
  0
LINE
  5
24F
100
AcDbEntity
  8
0
100
AcDbLine
 62
250
  6
CONTINUOUS
 10
22.4309155976
 20
-13.2142612091
 11
21.5042268703
 21
-13.2142612091
  0
LINE
  5
250
100
AcDbEntity
  8
0
100
AcDbLine
 62
250
  6
CONTINUOUS
 10
3.8576043249
 20
-13.2142612091
 11
2.9309155976
 21
-13.2142612091
  0
LINE
  5
251
100
AcDbEntity
  8
0
100
AcDbLine
 62
250
  6
CONTINUOUS
 10
22.4224926516
 20
-12.7145657956
 11
21.4958039243
 21
-12.7145657956
  0
LINE
  5
252
100
AcDbEntity
  8
0
100
AcDbLine
 62
250
  6
CONTINUOUS
 10
3.8660272708
 20
-12.7145657956
 11
2.9393385435
 21
-12.7145657956
  0
LINE
  5
253
100
AcDbEntity
  8
0
100
AcDbLine
 62
7
  6
CONTINUOUS
 10
3.0042268703
 20
-12.5847495898
 11
3.9309155976
 21
-12.5847495898
  0
LINE
  5
254
100
AcDbEntity
  8
0
100
AcDbLine
 62
7
  6
CONTINUOUS
 10
21.4309155976
 20
-12.5847495898
 11
22.3576043249
 21
-12.5847495898
  0
LINE
  5
255
100
AcDbEntity
  8
0
100
AcDbLine
 62
7
  6
CONTINUOUS
 10
9.3231632474
 20
-13.2621757704
 11
10.3543544272
 21
-13.8575342756
  0
LINE
  5
256
100
AcDbEntity
  8
DRAFT
100
AcDbLine
 62
7
  6
CONTINUOUS
 10
2.7302997644
 20
-7.0225341897
 11
2.4209486885
 21
-6.3591286666
  0
LINE
  5
257
100
AcDbEntity
  8
RACCORDO
100
AcDbLine
 62
250
  6
CONTINUOUS
 10
2.7787719568
 20
-6.8970757136
 11
2.5179004571
 21
-6.337634977
  0
LINE
  5
258
100
AcDbEntity
  8
DRAFT
100
AcDbLine
 62
7
  6
CONTINUOUS
 10
2.9309155976
 20
-15.8907899111
 11
2.950116169
 21
-16.0847495898
  0
LINE
  5
259
100
AcDbEntity
  8
0
100
AcDbLine
 62
7
  6
CONTINUOUS
 10
3.8576043249
 20
-15.8907899111
 11
3.8768048963
 21
-16.0847495898
  0
LINE
  5
25A
100
AcDbEntity
  8
RACCORDO
100
AcDbLine
 62
250
  6
CONTINUOUS
 10
2.5266279896
 20
2.1433782443
 11
2.5179004571
 21
4.9790191541
  0
LINE
  5
25B
100
AcDbEntity
  8
RACCORDO
100
AcDbLine
 62
7
  6
CONTINUOUS
 10
1.6809155976
 20
-21.7348066973
 11
1.6809155976
 21
21.0653075176
  0
LINE
  5
25C
100
AcDbEntity
  8
DRAFT
100
AcDbLine
 62
7
  6
CONTINUOUS
 10
2.4209486885
 20
-6.3591286666
 11
2.4209486885
 21
5.689629487
  0
LINE
  5
25D
100
AcDbEntity
  8
RACCORDO
100
AcDbLine
 62
250
  6
CONTINUOUS
 10
2.5179004571
 20
-6.337634977
 11
2.5179004571
 21
-5.6485183338
  0
LINE
  5
25E
100
AcDbEntity
  8
RACCORDO
100
AcDbLine
 62
250
  6
CONTINUOUS
 10
2.5179004571
 20
4.9790191541
 11
2.5179004571
 21
5.6681357973
  0
LINE
  5
25F
100
AcDbEntity
  8
RACCORDO
100
AcDbLine
 62
250
  6
CONTINUOUS
 10
2.5266279896
 20
-2.812877424
 11
2.5266279896
 21
2.1433782443
  0
LINE
  5
260
100
AcDbEntity
  8
0
100
AcDbLine
 62
7
  6
CONTINUOUS
 10
2.5809155976
 20
5.1652694486
 11
2.5809155976
 21
-5.8347686283
  0
LINE
  5
261
100
AcDbEntity
  8
RACCORDO
100
AcDbLine
 62
250
  6
CONTINUOUS
 10
2.5179004571
 20
-5.6485183338
 11
2.5266279896
 21
-2.812877424
  0
LWPOLYLINE
  5
262
100
AcDbEntity
  8
RACCORDO
100
AcDbPolyline
 62
250
  6
CONTINUOUS
 90
22
 70
0
 10
2.7787529197
 20
20.0674278137
 10
2.7791462486
 20
20.0827625572
 10
2.7803869146
 20
20.0986738262
 10
2.7825699476
 20
20.1151088091
 10
2.7857845122
 20
20.1319767659
 10
2.7901273918
 20
20.1492298444
 10
2.7957175377
 20
20.166858409
 10
2.8026574319
 20
20.1847562414
 10
2.8110441499
 20
20.202801074
 10
2.8210094265
 20
20.2209252038
 10
2.8326479438
 20
20.238964381
 10
2.8460412389
 20
20.2567346685
 10
2.8613109512
 20
20.2740923523
 10
2.8785559822
 20
20.2908376311
 10
2.8977765882
 20
20.3066723672
 10
2.9189108614
 20
20.3212794462
 10
2.9419621326
 20
20.3344077521
 10
2.9668140228
 20
20.3457436343
 10
2.993133398
 20
20.354933367
 10
3.0206707517
 20
20.3617352299
 10
3.0492876215
 20
20.3659617932
 10
3.0787414964
 20
20.3674130883
  0
LINE
  5
263
100
AcDbEntity
  8
DRAFT
100
AcDbLine
 62
7
  6
CONTINUOUS
 10
2.9309155976
 20
15.2212907314
 11
2.950116169
 21
15.4152504102
  0
LINE
  5
264
100
AcDbEntity
  8
0
100
AcDbLine
 62
7
  6
CONTINUOUS
 10
3.8576043249
 20
15.2212907314
 11
3.8768048963
 21
15.4152504102
  0
LINE
  5
265
100
AcDbEntity
  8
RACCORDO
100
AcDbLine
 62
250
  6
CONTINUOUS
 10
2.5179004571
 20
5.6681357973
 11
2.7787719568
 21
6.2275765339
  0
LINE
  5
266
100
AcDbEntity
  8
RACCORDO
100
AcDbLine
 62
250
  6
CONTINUOUS
 10
2.7678623809
 20
5.612720573
 11
3.0042268703
 21
6.1196058562
  0
LWPOLYLINE
  5
267
100
AcDbEntity
  8
RACCORDO
100
AcDbPolyline
 62
7
  6
CONTINUOUS
 90
7
 70
0
 10
2.5179004571
 20
4.9790191541
 10
2.5205445965
 20
4.9819110241
 10
2.5273123088
 20
4.9846673205
 10
2.5380953418
 20
4.9872880435
 10
2.5527177384
 20
4.9898122011
 10
2.5709397842
 20
4.9922007852
 10
2.5809155976
 20
4.9931908036
  0
LINE
  5
268
100
AcDbEntity
  8
0
100
AcDbLine
 62
7
  6
CONTINUOUS
 10
10.5809155976
 20
-10.5347495898
 11
14.7809155976
 21
-10.5347495898
  0
LINE
  5
269
100
AcDbEntity
  8
0
100
AcDbLine
 62
7
  6
CONTINUOUS
 10
10.0731632474
 20
-11.9631376647
 11
11.1043544272
 21
-12.5584961699
  0
LWPOLYLINE
  5
26A
100
AcDbEntity
  8
RACCORDO
100
AcDbPolyline
 62
7
  6
CONTINUOUS
 90
7
 70
0
 10
2.5179004571
 20
-5.6485183338
 10
2.5205437162
 20
-5.6512621698
 10
2.5273091899
 20
-5.6540487243
 10
2.5380899739
 20
-5.6567861197
 10
2.5527120295
 20
-5.6593468049
 10
2.5709363863
 20
-5.6616845622
 10
2.5809155976
 20
-5.6626819018
  0
LINE
  5
26B
100
AcDbEntity
  8
RACCORDO
100
AcDbLine
 62
250
  6
CONTINUOUS
 10
3.0042268703
 20
-6.7891050359
 11
2.7678623809
 21
-6.2822197526
  0
LWPOLYLINE
  5
26C
100
AcDbEntity
  8
0
100
AcDbPolyline
 62
250
  6
CONTINUOUS
 90
11
 70
0
 10
2.890474618
 20
-2.5301430966
 10
2.9033549602
 20
-2.6158523123
 10
2.9213013083
 20
-2.6984781528
 10
2.944648211
 20
-2.7772660282
 10
2.974399315
 20
-2.849952168
 10
3.0112034602
 20
-2.9177372446
 10
3.0544118065
 20
-2.9794205857
 10
3.1030814808
 20
-3.0291364032
 10
3.1568981918
 20
-3.0649294347
 10
3.2161762307
 20
-3.0887549426
 10
3.2809155976
 20
-3.100612927
  0
LWPOLYLINE
  5
26D
100
AcDbEntity
  8
0
100
AcDbPolyline
 62
250
  6
CONTINUOUS
 90
3
 70
0
 10
2.8809155976
 20
-2.3472107696
 10
2.8829948304
 20
-2.4405959157
 10
2.890474618
 20
-2.5301430966
  0
LINE
  5
26E
100
AcDbEntity
  8
0
100
AcDbLine
 62
7
  6
CONTINUOUS
 10
2.7302997644
 20
-16.3347495898
 11
2.7302997644
 21
-18.3347495898
  0
LINE
  5
26F
100
AcDbEntity
  8
RACCORDO
100
AcDbLine
 62
7
  6
CONTINUOUS
 10
2.7302997644
 20
-20.7853768461
 11
2.7302997644
 21
-18.3347495898
  0
LINE
  5
270
100
AcDbEntity
  8
DRAFT
100
AcDbLine
 62
7
  6
CONTINUOUS
 10
2.7302997644
 20
-16.3347495898
 11
2.7302997644
 21
-7.0225341897
  0
LINE
  5
271
100
AcDbEntity
  8
DRAFT
100
AcDbLine
 62
7
  6
CONTINUOUS
 10
2.7302997644
 20
6.35303501
 11
2.7302997644
 21
15.6652504102
  0
LINE
  5
272
100
AcDbEntity
  8
0
100
AcDbLine
 62
7
  6
CONTINUOUS
 10
2.7302997644
 20
15.6652504102
 11
2.7302997644
 21
17.6652504102
  0
LINE
  5
273
100
AcDbEntity
  8
RACCORDO
100
AcDbLine
 62
7
  6
CONTINUOUS
 10
2.7302997644
 20
17.6652504102
 11
2.7302997644
 21
20.1158776664
  0
LINE
  5
274
100
AcDbEntity
  8
RACCORDO
100
AcDbLine
 62
250
  6
CONTINUOUS
 10
2.7678623809
 20
-6.2822197526
 11
2.7678623809
 21
-6.2224451207
  0
LINE
  5
275
100
AcDbEntity
  8
RACCORDO
100
AcDbLine
 62
250
  6
CONTINUOUS
 10
2.7678623809
 20
5.552945938
 11
2.7678623809
 21
5.612720573
  0
LINE
  5
276
100
AcDbEntity
  8
RACCORDO
100
AcDbLine
 62
7
  6
CONTINUOUS
 10
2.7787529195
 20
-20.736923691
 11
2.7787529195
 21
-18.3347495898
  0
LINE
  5
277
100
AcDbEntity
  8
RACCORDO
100
AcDbLine
 62
7
  6
CONTINUOUS
 10
2.7787529195
 20
-16.3347495898
 11
2.7787529195
 21
-14.1286383706
  0
LINE
  5
278
100
AcDbEntity
  8
RACCORDO
100
AcDbLine
 62
7
  6
CONTINUOUS
 10
2.7787529195
 20
-13.5408608091
 11
2.7787529195
 21
-6.8971249872
  0
LINE
  5
279
100
AcDbEntity
  8
RACCORDO
100
AcDbLine
 62
7
  6
CONTINUOUS
 10
2.7787529195
 20
6.2276258075
 11
2.7787529195
 21
12.8713616294
  0
LINE
  5
27A
100
AcDbEntity
  8
RACCORDO
100
AcDbLine
 62
7
  6
CONTINUOUS
 10
2.7787529195
 20
13.4591391909
 11
2.7787529195
 21
15.6652504102
  0
LINE
  5
27B
100
AcDbEntity
  8
RACCORDO
100
AcDbLine
 62
7
  6
CONTINUOUS
 10
2.7787529195
 20
17.6652504102
 11
2.7787529195
 21
20.0674278139
  0
LINE
  5
27C
100
AcDbEntity
  8
0
100
AcDbLine
 62
250
  6
CONTINUOUS
 10
2.8809155976
 20
-2.3472107696
 11
2.8809155976
 21
1.6777115899
  0
LINE
  5
27D
100
AcDbEntity
  8
RACCORDO
100
AcDbLine
 62
7
  6
CONTINUOUS
 10
2.9309155976
 20
19.365372254
 11
2.9309155976
 21
18.1092100889
  0
LINE
  5
27E
100
AcDbEntity
  8
DRAFT
100
AcDbLine
 62
7
  6
CONTINUOUS
 10
2.9309155976
 20
15.2212907314
 11
2.9309155976
 21
13.5982631121
  0
LINE
  5
27F
100
AcDbEntity
  8
0
100
AcDbLine
 62
7
  6
CONTINUOUS
 10
2.9309155976
 20
12.7322377083
 11
2.9309155976
 21
12.5447620294
  0
LINE
  5
280
100
AcDbEntity
  8
0
100
AcDbLine
 62
7
  6
CONTINUOUS
 10
2.9309155976
 20
-13.2142612091
 11
2.9309155976
 21
-13.4017368879
  0
LINE
  5
281
100
AcDbEntity
  8
DRAFT
100
AcDbLine
 62
7
  6
CONTINUOUS
 10
2.9309155976
 20
-14.2677622917
 11
2.9309155976
 21
-15.8907899111
  0
LINE
  5
282
100
AcDbEntity
  8
RACCORDO
100
AcDbLine
 62
7
  6
CONTINUOUS
 10
2.9309155976
 20
-18.7787092686
 11
2.9309155976
 21
-20.0348714337
  0
LINE
  5
283
100
AcDbEntity
  8
DRAFT
100
AcDbLine
 62
7
  6
CONTINUOUS
 10
2.950116169
 20
-18.5847495898
 11
2.950116169
 21
-18.3347495898
  0
LINE
  5
284
100
AcDbEntity
  8
DRAFT
100
AcDbLine
 62
7
  6
CONTINUOUS
 10
2.950116169
 20
-16.3347495898
 11
2.950116169
 21
-16.0847495898
  0
LINE
  5
285
100
AcDbEntity
  8
DRAFT
100
AcDbLine
 62
7
  6
CONTINUOUS
 10
2.950116169
 20
15.4152504102
 11
2.950116169
 21
15.6652504102
  0
LINE
  5
286
100
AcDbEntity
  8
DRAFT
100
AcDbLine
 62
7
  6
CONTINUOUS
 10
2.950116169
 20
17.6652504102
 11
2.950116169
 21
17.9152504102
  0
LINE
  5
287
100
AcDbEntity
  8
0
100
AcDbLine
 62
7
  6
CONTINUOUS
 10
3.0042268703
 20
11.9152504102
 11
3.0042268703
 21
5.6593373609
  0
LINE
  5
288
100
AcDbEntity
  8
0
100
AcDbLine
 62
7
  6
CONTINUOUS
 10
3.0042268703
 20
-6.3288365406
 11
3.0042268703
 21
-12.5847495898
  0
LINE
  5
289
100
AcDbEntity
  8
RACCORDO
100
AcDbLine
 62
250
  6
CONTINUOUS
 10
3.0287434002
 20
-20.736923691
 11
3.0287434002
 21
-20.4147273009
  0
LINE
  5
28A
100
AcDbEntity
  8
RACCORDO
100
AcDbLine
 62
250
  6
CONTINUOUS
 10
3.0287434002
 20
19.7452280016
 11
3.0287434002
 21
20.0674245114
  0
LINE
  5
28B
100
AcDbEntity
  8
RACCORDO
100
AcDbLine
 62
250
  6
CONTINUOUS
 10
3.0787414964
 20
-20.7869217872
 11
3.0787414964
 21
-21.036912268
  0
LINE
  5
28C
100
AcDbEntity
  8
RACCORDO
100
AcDbLine
 62
250
  6
CONTINUOUS
 10
3.0787414964
 20
20.1174226075
 11
3.0787414964
 21
20.3674130883
  0
LINE
  5
28D
100
AcDbEntity
  8
0
100
AcDbLine
 62
7
  6
CONTINUOUS
 10
3.0809155976
 20
-2.3471857128
 11
3.0809155976
 21
1.6776440285
  0
LINE
  5
28E
100
AcDbEntity
  8
0
100
AcDbLine
 62
250
  6
CONTINUOUS
 10
3.2809155976
 20
-3.100612927
 11
3.2809155976
 21
2.4311137473
  0
LINE
  5
28F
100
AcDbEntity
  8
0
100
AcDbLine
 62
7
  6
CONTINUOUS
 10
3.3309155976
 20
-16.3347495898
 11
3.3309155976
 21
-18.3347495898
  0
LINE
  5
290
100
AcDbEntity
  8
0
100
AcDbLine
 62
7
  6
CONTINUOUS
 10
3.3309155976
 20
15.6652504102
 11
3.3309155976
 21
17.6652504102
  0
LINE
  5
291
100
AcDbEntity
  8
0
100
AcDbLine
 62
7
  6
CONTINUOUS
 10
3.8576043249
 20
19.2385616829
 11
3.8576043249
 21
18.1092100889
  0
LINE
  5
292
100
AcDbEntity
  8
0
100
AcDbLine
 62
7
  6
CONTINUOUS
 10
3.8576043249
 20
15.2212907314
 11
3.8576043249
 21
12.5447620294
  0
LINE
  5
293
100
AcDbEntity
  8
0
100
AcDbLine
 62
7
  6
CONTINUOUS
 10
3.8576043249
 20
-13.2142612091
 11
3.8576043249
 21
-15.8907899111
  0
LINE
  5
294
100
AcDbEntity
  8
0
100
AcDbLine
 62
7
  6
CONTINUOUS
 10
3.8576043249
 20
-18.7787092686
 11
3.8576043249
 21
-19.9080608625
  0
LINE
  5
295
100
AcDbEntity
  8
0
100
AcDbLine
 62
7
  6
CONTINUOUS
 10
3.8768048963
 20
-18.5847495898
 11
3.8768048963
 21
-16.0847495898
  0
LINE
  5
296
100
AcDbEntity
  8
0
100
AcDbLine
 62
7
  6
CONTINUOUS
 10
3.8768048963
 20
15.4152504102
 11
3.8768048963
 21
17.9152504102
  0
LINE
  5
297
100
AcDbEntity
  8
0
100
AcDbLine
 62
7
  6
CONTINUOUS
 10
3.9309155976
 20
19.1652504102
 11
3.9309155976
 21
11.9152504102
  0
LINE
  5
298
100
AcDbEntity
  8
0
100
AcDbLine
 62
7
  6
CONTINUOUS
 10
3.9309155976
 20
-12.5847495898
 11
3.9309155976
 21
-19.8347495898
  0
LINE
  5
299
100
AcDbEntity
  8
0
100
AcDbLine
 62
250
  6
CONTINUOUS
 10
4.3809155976
 20
-3.100612927
 11
4.3809155976
 21
2.4311137473
  0
LWPOLYLINE
  5
29A
100
AcDbEntity
  8
0
100
AcDbPolyline
 62
250
  6
CONTINUOUS
 90
49
 70
0
 10
3.0809155976
 20
1.6777115899
 10
3.0810452707
 20
1.7048797199
 10
3.0814276728
 20
1.7312688413
 10
3.0820527476
 20
1.7568756464
 10
3.0829097234
 20
1.7816740455
 10
3.0839885953
 20
1.8056843124
 10
3.0852815345
 20
1.8289728523
 10
3.0867792931
 20
1.8515374676
 10
3.0884726395
 20
1.8733755475
 10
3.0903561414
 20
1.8945527383
 10
3.0924220525
 20
1.915071785
 10
3.0946619199
 20
1.9349258781
 10
3.0970712651
 20
1.9541661055
 10
3.0996424761
 20
1.9727903795
 10
3.1023684353
 20
1.9907973612
 10
3.105247182
 20
2.0082389539
 10
3.1082723133
 20
2.0251157929
 10
3.1114373792
 20
2.0414241399
 10
3.114742153
 20
2.0572089023
 10
3.1181845832
 20
2.0724840946
 10
3.1217558041
 20
2.0872326
 10
3.1254456876
 20
2.1014526223
 10
3.1292499747
 20
2.1151466893
 10
3.1331608015
 20
2.1283102966
 10
3.1371611176
 20
2.1409319003
 10
3.1412406637
 20
2.1529994258
 10
3.1453956488
 20
2.1645249372
 10
3.1496177471
 20
2.1755337887
 10
3.1538897598
 20
2.1860049234
 10
3.1582151849
 20
2.1959605794
 10
3.1626188629
 20
2.2054898283
 10
3.167089238
 20
2.2145893075
 10
3.1716289461
 20
2.223261244
 10
3.176289115
 20
2.2315992477
 10
3.1810605868
 20
2.2396063993
 10
3.1859489869
 20
2.2472735884
 10
3.1910340103
 20
2.254669784
 10
3.1963065115
 20
2.2618026472
 10
3.2017773097
 20
2.268650004
 10
3.2075636015
 20
2.27522601
 10
3.2136536291
 20
2.2815499624
 10
3.2200650369
 20
2.2875730816
 10
3.2269676603
 20
2.2931907042
 10
3.2343565446
 20
2.2984470344
 10
3.2422427967
 20
2.3032400885
 10
3.2508270128
 20
2.3072194057
 10
3.260175008
 20
2.3102268616
 10
3.2702105221
 20
2.3123122671
 10
3.2809155976
 20
2.3134174351
  0
LWPOLYLINE
  5
29B
100
AcDbEntity
  8
RACCORDO
100
AcDbPolyline
 62
250
  6
CONTINUOUS
 90
22
 70
0
 10
3.0287434002
 20
20.0674245114
 10
3.028782693
 20
20.070000564
 10
3.0289948812
 20
20.0726515626
 10
3.029379965
 20
20.0753775071
 10
3.0299205508
 20
20.0781890703
 10
3.0306340322
 20
20.0810755794
 10
3.031572589
 20
20.0840050163
 10
3.0327359015
 20
20.0869865937
 10
3.0341242894
 20
20.0900110988
 10
3.0357908922
 20
20.093018876
 10
3.0377393141
 20
20.0960214811
 10
3.0399659509
 20
20.0990073582
 10
3.0425131293
 20
20.1018821838
 10
3.04539925
 20
20.1046611978
 10
3.0486059123
 20
20.1073291602
 10
3.0521202409
 20
20.1097460274
 10
3.0559712756
 20
20.1119122122
 10
3.0601299766
 20
20.1138273017
 10
3.0644963486
 20
20.1153500142
 10
3.0690370601
 20
20.1164332557
 10
3.0737854427
 20
20.1171241201
 10
3.0787414964
 20
20.1174226075
  0
LWPOLYLINE
  5
29C
100
AcDbEntity
  8
RACCORDO
100
AcDbPolyline
 62
7
  6
CONTINUOUS
 90
7
 70
0
 10
2.5266279896
 20
2.1433782443
 10
2.5292712486
 20
2.1461220803
 10
2.5360367224
 20
2.1489086348
 10
2.5468175063
 20
2.1516460302
 10
2.561439562
 20
2.1542067154
 10
2.5796639188
 20
2.1565444727
 10
2.5809155976
 20
2.1566695676
  0
LWPOLYLINE
  5
29D
100
AcDbEntity
  8
0
100
AcDbPolyline
 62
7
  6
CONTINUOUS
 90
10
 70
0
 10
13.3190382471
 20
11.6483993841
 10
13.3318752346
 20
11.6590279502
 10
13.3569111961
 20
11.6843824877
 10
13.3941461316
 20
11.7235072685
 10
13.4456170981
 20
11.7751487369
 10
13.5092870387
 20
11.8375617686
 10
13.5790447824
 20
11.9084059193
 10
13.6528532721
 20
11.9852776202
 10
13.7327495648
 20
12.0659518355
 10
13.8187336607
 20
12.1480947976
  0
LINE
  5
29E
100
AcDbEntity
  8
0
100
AcDbLine
 62
7
  6
CONTINUOUS
 10
13.8187336607
 20
-9.6847495898
 11
11.5430975345
 21
-9.6847495898
  0
LINE
  5
29F
100
AcDbEntity
  8
0
100
AcDbLine
 62
7
  6
CONTINUOUS
 10
12.1726091538
 20
-9.538082358
 11
13.1892220414
 21
-9.538082358
  0
LWPOLYLINE
  5
2A0
100
AcDbEntity
  8
0
100
AcDbPolyline
 62
7
  6
CONTINUOUS
 90
10
 70
0
 10
5.3809155976
 20
-6.610928441
 10
5.289011104
 20
-6.5231942422
 10
5.2049666971
 20
-6.433206328
 10
5.1287823768
 20
-6.3409646984
 10
5.058821946
 20
-6.2462946815
 10
4.9967216018
 20
-6.1493709491
 10
4.9473899357
 20
-6.050717517
 10
4.9124631449
 20
-5.9505090569
 10
4.8903050322
 20
-5.8485708969
 10
4.8809155976
 20
-5.7449030372
  0
LINE
  5
2A1
100
AcDbEntity
  8
0
100
AcDbLine
 62
7
  6
CONTINUOUS
 10
21.5042268703
 20
-20.8347495898
 11
21.443134143
 21
-20.7736568626
  0
LWPOLYLINE
  5
2A2
100
AcDbEntity
  8
RACCORDO
100
AcDbPolyline
 62
7
  6
CONTINUOUS
 90
7
 70
0
 10
2.5266279896
 20
-2.812877424
 10
2.5292721289
 20
-2.8157692939
 10
2.5360398412
 20
-2.8185255904
 10
2.5468228742
 20
-2.8211463133
 10
2.5614452709
 20
-2.823670471
 10
2.5796673166
 20
-2.8260590551
 10
2.5809155976
 20
-2.8261829369
  0
LINE
  5
2A3
100
AcDbEntity
  8
DRAFT
100
AcDbLine
 62
7
  6
CONTINUOUS
 10
2.9309155976
 20
18.1092100889
 11
2.950116169
 21
17.9152504102
  0
LINE
  5
2A4
100
AcDbEntity
  8
0
100
AcDbLine
 62
7
  6
CONTINUOUS
 10
3.8576043249
 20
18.1092100889
 11
3.8768048963
 21
17.9152504102
  0
LWPOLYLINE
  5
2A5
100
AcDbEntity
  8
0
100
AcDbPolyline
 62
7
  6
CONTINUOUS
 90
10
 70
0
 10
4.5809155976
 20
-1.6085235101
 10
4.583972492
 20
-1.6399714909
 10
4.5922404858
 20
-1.6680511646
 10
4.6057195789
 20
-1.6929544081
 10
4.6249694612
 20
-1.7154263543
 10
4.6494304427
 20
-1.7350463981
 10
4.6774234541
 20
-1.7503589872
 10
4.7083888054
 20
-1.7610617656
 10
4.7428861866
 20
-1.7678696748
 10
4.7809155976
 20
-1.7708902515
  0
LINE
  5
2A6
100
AcDbEntity
  8
0
100
AcDbLine
 62
250
  6
CONTINUOUS
 10
4.7788359202
 20
1.7710996547
 11
4.7713561864
 21
1.8606476914
  0
LINE
  5
2A7
100
AcDbEntity
  8
0
100
AcDbLine
 62
250
  6
CONTINUOUS
 10
4.7809155976
 20
1.6777115899
 11
4.7788359202
 21
1.7710996547
  0
LINE
  5
2A8
100
AcDbEntity
  8
0
100
AcDbLine
 62
7
  6
CONTINUOUS
 10
4.5809155976
 20
1.6760696336
 11
4.5809155976
 21
0.1982641162
  0
LINE
  5
2A9
100
AcDbEntity
  8
0
100
AcDbLine
 62
7
  6
CONTINUOUS
 10
4.5809155976
 20
-0.8673022681
 11
4.5809155976
 21
-2.3473578056
  0
LINE
  5
2AA
100
AcDbEntity
  8
0
100
AcDbLine
 62
250
  6
CONTINUOUS
 10
4.7809155976
 20
1.6777115899
 11
4.7809155976
 21
1.1013910718
  0
LINE
  5
2AB
100
AcDbEntity
  8
0
100
AcDbLine
 62
250
  6
CONTINUOUS
 10
4.7809155976
 20
-1.7708902515
 11
4.7809155976
 21
-2.3472107696
  0
LINE
  5
2AC
100
AcDbEntity
  8
0
100
AcDbLine
 62
7
  6
CONTINUOUS
 10
4.8809155976
 20
5.0754038575
 11
4.8809155976
 21
4.9420384343
  0
LINE
  5
2AD
100
AcDbEntity
  8
0
100
AcDbLine
 62
7
  6
CONTINUOUS
 10
4.8809155976
 20
-5.6770742093
 11
4.8809155976
 21
-5.7449030372
  0
LINE
  5
2AE
100
AcDbEntity
  8
0
100
AcDbLine
 62
7
  6
CONTINUOUS
 10
4.8809155976
 20
-5.4811120496
 11
4.8809155976
 21
-1.6721010961
  0
LINE
  5
2AF
100
AcDbEntity
  8
0
100
AcDbLine
 62
7
  6
CONTINUOUS
 10
4.8809155976
 20
1.0026019164
 11
4.8809155976
 21
4.8116128699
  0
LINE
  5
2B0
100
AcDbEntity
  8
0
100
AcDbLine
 62
250
  6
CONTINUOUS
 10
5.3809155976
 20
5.9414292613
 11
5.3809155976
 21
5.311917642
  0
LINE
  5
2B1
100
AcDbEntity
  8
0
100
AcDbLine
 62
250
  6
CONTINUOUS
 10
5.3809155976
 20
-5.9814168217
 11
5.3809155976
 21
-6.610928441
  0
LINE
  5
2B2
100
AcDbEntity
  8
0
100
AcDbLine
 62
7
  6
CONTINUOUS
 10
5.7809155976
 20
-6.0233217451
 11
5.7809155976
 21
-1.6721010961
  0
LINE
  5
2B3
100
AcDbEntity
  8
0
100
AcDbLine
 62
7
  6
CONTINUOUS
 10
5.7809155976
 20
1.0026019164
 11
5.7809155976
 21
5.3538225654
  0
LINE
  5
2B4
100
AcDbEntity
  8
0
100
AcDbLine
 62
7
  6
CONTINUOUS
 10
6.0809155976
 20
-4.2660218662
 11
6.0809155976
 21
3.5965226865
  0
LWPOLYLINE
  5
2B5
100
AcDbEntity
  8
0
100
AcDbPolyline
 62
250
  6
CONTINUOUS
 90
31
 70
0
 10
4.5809155976
 20
-2.3472107696
 10
4.5806890946
 20
-2.383169853
 10
4.5799913699
 20
-2.4188649371
 10
4.5787956009
 20
-2.4542868565
 10
4.5770654221
 20
-2.4896595054
 10
4.5747809967
 20
-2.5247335296
 10
4.5719661218
 20
-2.558790446
 10
4.5686220844
 20
-2.5917539426
 10
4.5647532545
 20
-2.623674359
 10
4.5604388779
 20
-2.6540309906
 10
4.5557436537
 20
-2.6825806765
 10
4.5506691916
 20
-2.7095539884
 10
4.545218591
 20
-2.7351451482
 10
4.5394186194
 20
-2.7593542094
 10
4.5332909015
 20
-2.7821683427
 10
4.5268181903
 20
-2.8037581564
 10
4.5200020038
 20
-2.8241735153
 10
4.5128757256
 20
-2.8433480847
 10
4.505464659
 20
-2.8612760358
 10
4.4978391467
 20
-2.8778746657
 10
4.4899730438
 20
-2.8932176298
 10
4.4817338081
 20
-2.907523171
 10
4.4731760141
 20
-2.9208161467
 10
4.4642660797
 20
-2.9330396063
 10
4.454706289
 20
-2.9442516797
 10
4.4444743828
 20
-2.9545821226
 10
4.433592026
 20
-2.963804193
 10
4.4218024348
 20
-2.9713865631
 10
4.4090267033
 20
-2.9770822704
 10
4.3953817422
 20
-2.9809573091
 10
4.3809155976
 20
-2.9829166148
  0
LWPOLYLINE
  5
2B6
100
AcDbEntity
  8
0
100
AcDbPolyline
 62
7
  6
CONTINUOUS
 90
10
 70
0
 10
4.5809155976
 20
0.1983432806
 10
4.578702163
 20
0.0833400229
 10
4.5770420613
 20
-0.0340297558
 10
4.5759352924
 20
-0.1532326648
 10
4.5753818221
 20
-0.2739979938
 10
4.5753816847
 20
-0.3954768629
 10
4.5759349832
 20
-0.5162447291
 10
4.577041752
 20
-0.6354526409
 10
4.5787019568
 20
-0.7528297494
 10
4.5809155976
 20
-0.8678424603
  0
LINE
  5
2B7
100
AcDbEntity
  8
0
100
AcDbLine
 62
250
  6
CONTINUOUS
 10
4.7787426019
 20
-2.4416360991
 11
4.7809155976
 21
-2.3472107696
  0
LWPOLYLINE
  5
2B8
100
AcDbEntity
  8
0
100
AcDbPolyline
 62
7
  6
CONTINUOUS
 90
10
 70
0
 10
4.8809155976
 20
5.0754038575
 10
4.8902799063
 20
5.1790219217
 10
4.912427738
 20
5.2809360968
 10
4.9473590926
 20
5.3811463829
 10
4.996721585
 20
5.4798452675
 10
5.0588676003
 20
5.576840263
 10
5.1288542937
 20
5.6715539064
 10
5.2050340503
 20
5.7637937101
 10
5.2890544849
 20
5.8537521618
 10
5.3809155976
 20
5.9414292613
  0
LINE
  5
2B9
100
AcDbEntity
  8
DRAFT
100
AcDbLine
 62
7
  6
CONTINUOUS
 10
2.9309155976
 20
-18.7787092686
 11
2.950116169
 21
-18.5847495898
  0
LINE
  5
2BA
100
AcDbEntity
  8
0
100
AcDbLine
 62
7
  6
CONTINUOUS
 10
3.8576043249
 20
-18.7787092686
 11
3.8768048963
 21
-18.5847495898
  0
LINE
  5
2BB
100
AcDbEntity
  8
0
100
AcDbLine
 62
7
  6
CONTINUOUS
 10
8.3492631
 20
19.1652504102
 11
8.3589147121
 21
19.2385616829
  0
LINE
  5
2BC
100
AcDbEntity
  8
0
100
AcDbLine
 62
7
  6
CONTINUOUS
 10
6.1809155976
 20
2.1652504102
 11
6.5608888093
 21
4.3201855781
  0
LWPOLYLINE
  5
2BD
100
AcDbEntity
  8
0
100
AcDbPolyline
 62
250
  6
CONTINUOUS
 90
4
 70
0
 10
4.739762697
 20
-2.7013519265
 10
4.7580322949
 20
-2.6183174578
 10
4.7711148344
 20
-2.5320049951
 10
4.7787426019
 20
-2.4416360991
  0
LINE
  5
2BE
100
AcDbEntity
  8
RACCORDO
100
AcDbLine
 62
7
  6
CONTINUOUS
 10
2.7302997644
 20
-7.0225341897
 11
2.7787529195
 21
-6.8971249872
  0
LINE
  5
2BF
100
AcDbEntity
  8
0
100
AcDbLine
 62
7
  6
CONTINUOUS
 10
13.2229240936
 20
11.5522852305
 11
13.3190382471
 21
11.6483993841
  0
LINE
  5
2C0
100
AcDbEntity
  8
RACCORDO
100
AcDbLine
 62
250
  6
CONTINUOUS
 10
22.3315428538
 20
20.4158662433
 11
22.2830930013
 21
20.3674130883
  0
LINE
  5
2C1
100
AcDbEntity
  8
0
100
AcDbLine
 62
7
  6
CONTINUOUS
 10
21.5042268703
 20
19.2385616829
 11
21.4309155976
 21
19.1652504102
  0
LINE
  5
2C2
100
AcDbEntity
  8
RACCORDO
100
AcDbLine
 62
250
  6
CONTINUOUS
 10
22.6315314308
 20
20.1158776664
 11
22.5830782757
 21
20.0674245114
  0
LWPOLYLINE
  5
2C3
100
AcDbEntity
  8
0
100
AcDbPolyline
 62
250
  6
CONTINUOUS
 90
10
 70
0
 10
19.9809155976
 20
-6.1112330275
 10
20.0677396685
 20
-6.1036415345
 10
20.1519256387
 20
-6.0810977178
 10
20.2309155605
 20
-6.0442865576
 10
20.3023093639
 20
-5.994326541
 10
20.3639377846
 20
-5.9327356755
 10
20.4139282741
 20
-5.8613853646
 10
20.4507618942
 20
-5.7824435488
 10
20.47331947
 20
-5.6983088349
 10
20.4809155976
 20
-5.611537614
  0
LWPOLYLINE
  5
2C4
100
AcDbEntity
  8
0
100
AcDbPolyline
 62
250
  6
CONTINUOUS
 90
22
 70
0
 10
14.1185509088
 20
-6.610928441
 10
14.09617175
 20
-6.6118449735
 10
14.0742977676
 20
-6.6142658041
 10
14.0529289617
 20
-6.6181909327
 10
14.0320387807
 20
-6.6236385299
 10
14.0116537761
 20
-6.6305904251
 10
13.9918536028
 20
-6.6389921064
 10
13.9725374139
 20
-6.6488930101
 10
13.9538060562
 20
-6.6602436998
 10
13.9360417253
 20
-6.6728413548
 10
13.9192880143
 20
-6.6867034445
 10
13.90350133
 20
-6.7018124996
 10
13.8889330886
 20
-6.7179132914
 10
13.8756414578
 20
-6.7348940108
 10
13.8635682699
 20
-6.7528664669
 10
13.8527904386
 20
-6.7719108593
 10
13.843213087
 20
-6.7919836464
 10
13.8349310919
 20
-6.8131283696
 10
13.8283059973
 20
-6.8355558531
 10
13.8234583179
 20
-6.8593363716
 10
13.820267539
 20
-6.8843996502
 10
13.8187336607
 20
-6.9107456891
  0
LINE
  5
2C5
100
AcDbEntity
  8
0
100
AcDbLine
 62
7
  6
CONTINUOUS
 10
12.1726091538
 20
-8.3347495898
 11
13.1892220414
 21
-8.3347495898
  0
LINE
  5
2C6
100
AcDbEntity
  8
0
100
AcDbLine
 62
250
  6
CONTINUOUS
 10
12.2855743334
 20
-8.2217844102
 11
13.0762568617
 21
-8.2217844102
  0
LINE
  5
2C7
100
AcDbEntity
  8
0
100
AcDbLine
 62
250
  6
CONTINUOUS
 10
12.3192763856
 20
-7.2223935832
 11
13.0425548095
 21
-7.2223935832
  0
LINE
  5
2C8
100
AcDbEntity
  8
0
100
AcDbLine
 62
250
  6
CONTINUOUS
 10
12.042792948
 20
-6.9107456891
 11
11.5430975345
 21
-6.9107456891
  0
LINE
  5
2C9
100
AcDbEntity
  8
0
100
AcDbLine
 62
250
  6
CONTINUOUS
 10
13.3190382471
 20
-6.9107456891
 11
13.8187336607
 21
-6.9107456891
  0
LWPOLYLINE
  5
2CA
100
AcDbEntity
  8
0
100
AcDbPolyline
 62
250
  6
CONTINUOUS
 90
10
 70
0
 10
5.3809155976
 20
-6.1112330275
 10
5.2940915267
 20
-6.1036415345
 10
5.2099055565
 20
-6.0810977178
 10
5.1309156348
 20
-6.0442865577
 10
5.0595218313
 20
-5.9943265411
 10
4.9978934106
 20
-5.9327356756
 10
4.9479029211
 20
-5.8613853647
 10
4.911069301
 20
-5.7824435489
 10
4.8885117251
 20
-5.698308835
 10
4.8809155976
 20
-5.611537614
  0
LINE
  5
2CB
100
AcDbEntity
  8
RACCORDO
100
AcDbLine
 62
250
  6
CONTINUOUS
 10
22.2830896988
 20
-21.036912268
 11
22.3315428538
 21
-21.085365423
  0
LINE
  5
2CC
100
AcDbEntity
  8
RACCORDO
100
AcDbLine
 62
250
  6
CONTINUOUS
 10
22.5830782757
 20
-20.7369174783
 11
22.6315314308
 21
-20.7853768461
  0
LINE
  5
2CD
100
AcDbEntity
  8
RACCORDO
100
AcDbLine
 62
7
  6
CONTINUOUS
 10
2.7302997644
 20
6.35303501
 11
2.7787529195
 21
6.2276258075
  0
LINE
  5
2CE
100
AcDbEntity
  8
0
100
AcDbLine
 62
7
  6
CONTINUOUS
 10
6.5608888091
 20
-4.9896847564
 11
6.1809155976
 21
-2.8347495898
  0
LWPOLYLINE
  5
2CF
100
AcDbEntity
  8
0
100
AcDbPolyline
 62
250
  6
CONTINUOUS
 90
5
 70
0
 10
4.7713561864
 20
1.8606476914
 10
4.7584763962
 20
1.9463557
 10
4.740531212
 20
2.0289767662
 10
4.7171859714
 20
2.1077578042
 10
4.6874366867
 20
2.1804395569
  0
LINE
  5
2D0
100
AcDbEntity
  8
RACCORDO
100
AcDbLine
 62
7
  6
CONTINUOUS
 10
8.4991229687
 20
-21.036912268
 11
8.498761596
 21
-21.0344894446
  0
LINE
  5
2D1
100
AcDbEntity
  8
RACCORDO
100
AcDbLine
 62
7
  6
CONTINUOUS
 10
8.505042382
 20
-21.0818746759
 11
8.4991229687
 21
-21.036912268
  0
LINE
  5
2D2
100
AcDbEntity
  8
0
100
AcDbLine
 62
7
  6
CONTINUOUS
 10
8.3492631
 20
-19.8347495898
 11
8.3589147121
 21
-19.9080608625
  0
LINE
  5
2D3
100
AcDbEntity
  8
RACCORDO
100
AcDbLine
 62
7
  6
CONTINUOUS
 10
8.498761596
 20
-21.0344894446
 11
8.4716275472
 21
-20.8272481249
  0
LINE
  5
2D4
100
AcDbEntity
  8
0
100
AcDbLine
 62
7
  6
CONTINUOUS
 10
6.1809155976
 20
-2.8347495898
 11
6.1809155976
 21
2.1652504102
  0
LINE
  5
2D5
100
AcDbEntity
  8
0
100
AcDbLine
 62
7
  6
CONTINUOUS
 10
6.6809155976
 20
-5.0299773007
 11
6.6809155976
 21
4.3604781235
  0
LINE
  5
2D6
100
AcDbEntity
  8
0
100
AcDbLine
 62
7
  6
CONTINUOUS
 10
9.6651324948
 20
18.8885616829
 11
9.6554808826
 21
18.8152504102
  0
LINE
  5
2D7
100
AcDbEntity
  8
0
100
AcDbLine
 62
7
  6
CONTINUOUS
 10
13.1892220414
 20
7.6652504102
 11
13.0762568617
 21
7.5522852305
  0
LWPOLYLINE
  5
2D8
100
AcDbEntity
  8
0
100
AcDbPolyline
 62
7
  6
CONTINUOUS
 90
7
 70
0
 10
4.6774234541
 20
1.0808598075
 10
4.6494304427
 20
1.0655472184
 10
4.6249694612
 20
1.0459271746
 10
4.6057195789
 20
1.0234552284
 10
4.5922404858
 20
0.9985519849
 10
4.583972492
 20
0.9704723113
 10
4.5809155976
 20
0.9390243304
  0
LINE
  5
2D9
100
AcDbEntity
  8
0
100
AcDbLine
 62
7
  6
CONTINUOUS
 10
10.1809155976
 20
4.4122417597
 11
10.2690361852
 21
4.4386754932
  0
LWPOLYLINE
  5
2DA
100
AcDbEntity
  8
0
100
AcDbPolyline
 62
250
  6
CONTINUOUS
 90
22
 70
0
 10
14.1185509088
 20
-6.1112330275
 10
14.059394146
 20
-6.1134685179
 10
14.0010015583
 20
-6.1200075562
 10
13.9436773523
 20
-6.1307179645
 10
13.8879223995
 20
-6.1453829743
 10
13.8337809446
 20
-6.1638670709
 10
13.7808914138
 20
-6.1862694588
 10
13.7292775533
 20
-6.2126690918
 10
13.6795194451
 20
-6.2428618724
 10
13.6321042586
 20
-6.2765786366
 10
13.5873310416
 20
-6.3135919353
 10
13.5453758365
 20
-6.3537403713
 10
13.5064853573
 20
-6.3967745976
 10
13.4710617955
 20
-6.442170614
 10
13.4390296836
 20
-6.4899395793
 10
13.4100687704
 20
-6.5407319227
 10
13.3845529926
 20
-6.5942919229
 10
13.3627641096
 20
-6.6504972597
 10
13.3446974631
 20
-6.7103724613
 10
13.3308958056
 20
-6.7741330781
 10
13.3221330472
 20
-6.8410586179
 10
13.3190382471
 20
-6.9107456891
  0
LINE
  5
2DB
100
AcDbEntity
  8
0
100
AcDbLine
 62
250
  6
CONTINUOUS
 10
19.9809155976
 20
-6.610928441
 11
14.1185509088
 21
-6.610928441
  0
LINE
  5
2DC
100
AcDbEntity
  8
0
100
AcDbLine
 62
250
  6
CONTINUOUS
 10
11.2432802864
 20
-6.610928441
 11
5.3809155976
 21
-6.610928441
  0
LINE
  5
2DD
100
AcDbEntity
  8
0
100
AcDbLine
 62
250
  6
CONTINUOUS
 10
19.9809155976
 20
-6.1112330275
 11
14.1185509088
 21
-6.1112330275
  0
LINE
  5
2DE
100
AcDbEntity
  8
0
100
AcDbLine
 62
250
  6
CONTINUOUS
 10
11.2432802864
 20
-6.1112330275
 11
5.3809155976
 21
-6.1112330275
  0
LINE
  5
2DF
100
AcDbEntity
  8
0
100
AcDbLine
 62
7
  6
CONTINUOUS
 10
5.7809155976
 20
-6.0233217451
 11
10.1809155976
 21
-6.0233217451
  0
LINE
  5
2E0
100
AcDbEntity
  8
0
100
AcDbLine
 62
7
  6
CONTINUOUS
 10
15.1809155976
 20
-6.0233217451
 11
19.5809155976
 21
-6.0233217451
  0
LINE
  5
2E1
100
AcDbEntity
  8
0
100
AcDbLine
 62
7
  6
CONTINUOUS
 10
5.3809155976
 20
-5.9814168217
 11
5.7809155976
 21
-5.9814168217
  0
LINE
  5
2E2
100
AcDbEntity
  8
0
100
AcDbLine
 62
7
  6
CONTINUOUS
 10
19.5809155976
 20
-5.9814168217
 11
19.9809155976
 21
-5.9814168217
  0
LINE
  5
2E3
100
AcDbEntity
  8
0
100
AcDbLine
 62
7
  6
CONTINUOUS
 10
10.2751729482
 20
-5.8347495898
 11
11.519763724
 21
-5.8347495898
  0
LINE
  5
2E4
100
AcDbEntity
  8
0
100
AcDbLine
 62
7
  6
CONTINUOUS
 10
13.8420674711
 20
-5.8347495898
 11
15.086658247
 21
-5.8347495898
  0
LINE
  5
2E5
100
AcDbEntity
  8
0
100
AcDbLine
 62
7
  6
CONTINUOUS
 10
15.086658247
 20
-5.4597495898
 11
13.4292470749
 21
-5.4597495898
  0
LINE
  5
2E6
100
AcDbEntity
  8
0
100
AcDbLine
 62
7
  6
CONTINUOUS
 10
11.9325841202
 20
-5.4597495898
 11
10.2751729482
 21
-5.4597495898
  0
LINE
  5
2E7
100
AcDbEntity
  8
0
100
AcDbLine
 62
7
  6
CONTINUOUS
 10
15.09279501
 20
-5.1081746729
 11
13.8430213853
 21
-5.1081746729
  0
LINE
  5
2E8
100
AcDbEntity
  8
0
100
AcDbLine
 62
7
  6
CONTINUOUS
 10
11.5188098098
 20
-5.1081746729
 11
10.2690361852
 21
-5.1081746729
  0
LINE
  5
2E9
100
AcDbEntity
  8
0
100
AcDbLine
 62
7
  6
CONTINUOUS
 10
19.5809155976
 20
-5.0817409394
 11
15.1809155976
 21
-5.0817409394
  0
LINE
  5
2EA
100
AcDbEntity
  8
0
100
AcDbLine
 62
7
  6
CONTINUOUS
 10
10.1809155976
 20
-5.0817409394
 11
5.7809155976
 21
-5.0817409394
  0
LINE
  5
2EB
100
AcDbEntity
  8
0
100
AcDbLine
 62
7
  6
CONTINUOUS
 10
6.8809155976
 20
-5.0597495898
 11
11.4809155976
 21
-5.0597495898
  0
LINE
  5
2EC
100
AcDbEntity
  8
0
100
AcDbLine
 62
7
  6
CONTINUOUS
 10
13.8809155976
 20
-5.0597495898
 11
18.4809155976
 21
-5.0597495898
  0
LINE
  5
2ED
100
AcDbEntity
  8
0
100
AcDbLine
 62
7
  6
CONTINUOUS
 10
10.1809155976
 20
-5.0817409394
 11
10.2690361852
 21
-5.1081746729
  0
LINE
  5
2EE
100
AcDbEntity
  8
0
100
AcDbLine
 62
7
  6
CONTINUOUS
 10
13.1892220414
 20
-9.538082358
 11
13.3190382471
 21
-9.6678985637
  0
LINE
  5
2EF
100
AcDbEntity
  8
0
100
AcDbLine
 62
7
  6
CONTINUOUS
 10
13.1892220414
 20
-8.3347495898
 11
13.0762568617
 21
-8.2217844102
  0
LWPOLYLINE
  5
2F0
100
AcDbEntity
  8
0
100
AcDbPolyline
 62
250
  6
CONTINUOUS
 90
7
 70
0
 10
4.6874366867
 20
2.1804395569
 10
4.6506350839
 20
2.2482249689
 10
4.607429437
 20
2.3099110956
 10
4.5587605814
 20
2.3596298459
 10
4.5049421289
 20
2.3954251894
 10
4.4456604676
 20
2.4192531566
 10
4.3809155976
 20
2.4311137473
  0
LINE
  5
2F1
100
AcDbEntity
  8
RACCORDO
100
AcDbLine
 62
7
  6
CONTINUOUS
 10
9.9808525942
 20
-20.6373643585
 11
9.9812139669
 21
-20.6397871819
  0
LINE
  5
2F2
100
AcDbEntity
  8
0
100
AcDbLine
 62
7
  6
CONTINUOUS
 10
9.6651324948
 20
-19.5580608625
 11
9.6554808826
 21
-19.4847495898
  0
LINE
  5
2F3
100
AcDbEntity
  8
RACCORDO
100
AcDbLine
 62
7
  6
CONTINUOUS
 10
9.9871333802
 20
-20.6847495898
 11
9.9812139669
 21
-20.6397871819
  0
LINE
  5
2F4
100
AcDbEntity
  8
RACCORDO
100
AcDbLine
 62
7
  6
CONTINUOUS
 10
9.9608027025
 20
-20.4847495898
 11
9.9808525942
 21
-20.6373643585
  0
LINE
  5
2F5
100
AcDbEntity
  8
0
100
AcDbLine
 62
7
  6
CONTINUOUS
 10
11.4809155976
 20
4.3902504102
 11
11.5188098098
 21
4.4386754932
  0
LINE
  5
2F6
100
AcDbEntity
  8
0
100
AcDbLine
 62
250
  6
CONTINUOUS
 10
13.0425548095
 20
5.9647630718
 11
13.3190382471
 21
6.2412465094
  0
LWPOLYLINE
  5
2F7
100
AcDbEntity
  8
RACCORDO
100
AcDbPolyline
 62
7
  6
CONTINUOUS
 90
5
 70
0
 10
2.5179004571
 20
-6.337634977
 10
2.5206282335
 20
-6.3369490475
 10
2.5275957828
 20
-6.3354157726
 10
2.5386489255
 20
-6.3330351523
 10
2.572063003
 20
-6.325583382
  0
LINE
  5
2F8
100
AcDbEntity
  8
RACCORDO
100
AcDbLine
 62
7
  6
CONTINUOUS
 10
2.7360670766
 20
-6.2894554151
 11
2.7678623809
 21
-6.2822197526
  0
LWPOLYLINE
  5
2F9
100
AcDbEntity
  8
RACCORDO
100
AcDbPolyline
 62
7
  6
CONTINUOUS
 90
3
 70
0
 10
2.9057923531
 20
-6.8689819694
 10
2.9966605638
 20
-6.8486069249
 10
3.0042268703
 20
-6.8469735158
  0
LWPOLYLINE
  5
2FA
100
AcDbEntity
  8
RACCORDO
100
AcDbPolyline
 62
7
  6
CONTINUOUS
 90
3
 70
0
 10
2.8326042639
 20
-6.8852120352
 10
2.8788132415
 20
-6.8748961426
 10
2.9057923531
 20
-6.8689819694
  0
LINE
  5
2FB
100
AcDbEntity
  8
RACCORDO
100
AcDbLine
 62
7
  6
CONTINUOUS
 10
2.4209486885
 20
-6.3591286666
 11
2.5179004571
 21
-6.337634977
  0
LINE
  5
2FC
100
AcDbEntity
  8
RACCORDO
100
AcDbLine
 62
7
  6
CONTINUOUS
 10
2.7992944571
 20
-6.8925485101
 11
2.8326042639
 21
-6.8852120352
  0
LINE
  5
2FD
100
AcDbEntity
  8
RACCORDO
100
AcDbLine
 62
7
  6
CONTINUOUS
 10
2.572063003
 20
-6.325583382
 11
2.7360670766
 21
-6.2894554151
  0
LWPOLYLINE
  5
2FE
100
AcDbEntity
  8
RACCORDO
100
AcDbPolyline
 62
7
  6
CONTINUOUS
 90
4
 70
0
 10
2.7787719568
 20
-6.8970757136
 10
2.7814940393
 20
-6.896552765
 10
2.7883722944
 20
-6.8950262471
 10
2.7992944571
 20
-6.8925485101
  0
LWPOLYLINE
  5
2FF
100
AcDbEntity
  8
0
100
AcDbPolyline
 62
250
  6
CONTINUOUS
 90
13
 70
0
 10
22.0809155976
 20
-3.100612927
 10
22.1452572057
 20
-3.0888994113
 10
22.2042048671
 20
-3.0653581898
 10
22.2577585817
 20
-3.0299892624
 10
22.3062063381
 20
-2.9809806446
 10
22.3492601478
 20
-2.9201443209
 10
22.3860560449
 20
-2.8529162451
 10
22.4160383272
 20
-2.7803299619
 10
22.439762697
 20
-2.7013519265
 10
22.4580322949
 20
-2.6183174578
 10
22.4711148344
 20
-2.5320049951
 10
22.4787426019
 20
-2.4416360991
 10
22.4809155976
 20
-2.3472107696
  0
LWPOLYLINE
  5
300
100
AcDbEntity
  8
0
100
AcDbPolyline
 62
250
  6
CONTINUOUS
 90
46
 70
0
 10
3.2809155976
 20
-2.9829166148
 10
3.2750214526
 20
-2.9827233165
 10
3.2690017971
 20
-2.9819860104
 10
3.2628626254
 20
-2.9806978892
 10
3.2565915316
 20
-2.9788657905
 10
3.2502153076
 20
-2.9764685316
 10
3.2437991206
 20
-2.9734605147
 10
3.2373601802
 20
-2.9698316831
 10
3.2308975819
 20
-2.9655857754
 10
3.2244485117
 20
-2.9607029732
 10
3.2180270374
 20
-2.9551812115
 10
3.2116359336
 20
-2.9490204572
 10
3.2052946956
 20
-2.9422064782
 10
3.1990116559
 20
-2.9347354613
 10
3.1927956336
 20
-2.9266112898
 10
3.1866660957
 20
-2.9178328122
 10
3.180627383
 20
-2.9083895357
 10
3.174691705
 20
-2.8982942778
 10
3.1688884184
 20
-2.8875830429
 10
3.1632287855
 20
-2.8762627052
 10
3.1577143685
 20
-2.8643324999
 10
3.1523577898
 20
-2.8518188272
 10
3.1471731292
 20
-2.838749332
 10
3.1421563922
 20
-2.8251038812
 10
3.1372940414
 20
-2.8108365888
 10
3.1325914628
 20
-2.7959525975
 10
3.1280564811
 20
-2.7804521464
 10
3.1236824967
 20
-2.7642802506
 10
3.119475333
 20
-2.7474345202
 10
3.1154451508
 20
-2.729921939
 10
3.1115942679
 20
-2.7117006301
 10
3.1079300392
 20
-2.6927672485
 10
3.104462435
 20
-2.6731301092
 10
3.1011987312
 20
-2.6527645733
 10
3.0981487612
 20
-2.63168266
 10
3.0953196442
 20
-2.6098783167
 10
3.0927158302
 20
-2.5872995951
 10
3.090347
 20
-2.5639538133
 10
3.0882221295
 20
-2.5398401596
 10
3.0863470748
 20
-2.5148941538
 10
3.0847322624
 20
-2.4891188883
 10
3.0833880894
 20
-2.4625185435
 10
3.0823230953
 20
-2.4350300857
 10
3.081548306
 20
-2.4066352072
 10
3.081075534
 20
-2.3773605719
 10
3.0809155976
 20
-2.3472107696
  0
LWPOLYLINE
  5
301
100
AcDbEntity
  8
RACCORDO
100
AcDbPolyline
 62
7
  6
CONTINUOUS
 90
5
 70
0
 10
22.843930738
 20
-6.337634977
 10
22.8411686467
 20
-6.3371038321
 10
22.8342059126
 20
-6.3355488375
 10
22.8231822696
 20
-6.3330351523
 10
22.7897495768
 20
-6.3256673504
  0
LINE
  5
302
100
AcDbEntity
  8
RACCORDO
100
AcDbLine
 62
7
  6
CONTINUOUS
 10
22.6258430692
 20
-6.2890992916
 11
22.5939688143
 21
-6.2822197526
  0
LWPOLYLINE
  5
303
100
AcDbEntity
  8
RACCORDO
100
AcDbPolyline
 62
7
  6
CONTINUOUS
 90
3
 70
0
 10
22.455744861
 20
-6.8688273509
 10
22.3648495008
 20
-6.8489123916
 10
22.3576043249
 20
-6.8472628139
  0
LINE
  5
304
100
AcDbEntity
  8
RACCORDO
100
AcDbLine
 62
7
  6
CONTINUOUS
 10
22.9408825066
 20
-6.3591286666
 11
22.843930738
 21
-6.337634977
  0
LINE
  5
305
100
AcDbEntity
  8
RACCORDO
100
AcDbLine
 62
7
  6
CONTINUOUS
 10
22.5627138071
 20
-6.8925877653
 11
22.455744861
 21
-6.8688273509
  0
LINE
  5
306
100
AcDbEntity
  8
RACCORDO
100
AcDbLine
 62
7
  6
CONTINUOUS
 10
22.7897495768
 20
-6.3256673504
 11
22.6258430692
 21
-6.2890992916
  0
LWPOLYLINE
  5
307
100
AcDbEntity
  8
RACCORDO
100
AcDbPolyline
 62
7
  6
CONTINUOUS
 90
4
 70
0
 10
22.5830782757
 20
-6.8971249872
 10
22.5805725161
 20
-6.896467534
 10
22.5737233671
 20
-6.8949551267
 10
22.5627138071
 20
-6.8925877653
  0
LINE
  5
308
100
AcDbEntity
  8
0
100
AcDbLine
 62
250
  6
CONTINUOUS
 10
13.3190382471
 20
-6.9107456891
 11
13.0425548095
 21
-6.6342622515
  0
LINE
  5
309
100
AcDbEntity
  8
0
100
AcDbLine
 62
250
  6
CONTINUOUS
 10
14.1185509088
 20
-6.1112330275
 11
13.8420674711
 21
-5.8347495898
  0
LINE
  5
30A
100
AcDbEntity
  8
0
100
AcDbLine
 62
7
  6
CONTINUOUS
 10
11.4809155976
 20
-5.0597495898
 11
11.5188098098
 21
-5.1081746729
  0
LINE
  5
30B
100
AcDbEntity
  8
0
100
AcDbLine
 62
7
  6
CONTINUOUS
 10
2.9393385435
 20
12.0450666159
 11
3.0042268703
 21
11.9152504102
  0
LINE
  5
30C
100
AcDbEntity
  8
0
100
AcDbLine
 62
7
  6
CONTINUOUS
 10
10.2751729482
 20
-5.4597495898
 11
10.2690361852
 21
-5.1081746729
  0
LINE
  5
30D
100
AcDbEntity
  8
0
100
AcDbLine
 62
7
  6
CONTINUOUS
 10
10.1809155976
 20
5.3538225654
 11
10.1809155976
 21
4.4122417597
  0
LINE
  5
30E
100
AcDbEntity
  8
0
100
AcDbLine
 62
7
  6
CONTINUOUS
 10
10.1809155976
 20
-5.0817409394
 11
10.1809155976
 21
-6.0233217451
  0
LINE
  5
30F
100
AcDbEntity
  8
0
100
AcDbLine
 62
7
  6
CONTINUOUS
 10
10.2751729482
 20
5.1652504102
 11
10.2751729482
 21
4.7902504102
  0
LINE
  5
310
100
AcDbEntity
  8
0
100
AcDbLine
 62
7
  6
CONTINUOUS
 10
10.2751729482
 20
-5.4597495898
 11
10.2751729482
 21
-5.8347495898
  0
LINE
  5
311
100
AcDbEntity
  8
DRAFT
100
AcDbLine
 62
7
  6
CONTINUOUS
 10
11.1809155976
 20
-21.085365423
 11
11.1809155976
 21
-21.8347495898
  0
LINE
  5
312
100
AcDbEntity
  8
0
100
AcDbLine
 62
7
  6
CONTINUOUS
 10
10.2690361852
 20
4.4386754932
 11
10.2751729482
 21
4.7902504102
  0
LINE
  5
313
100
AcDbEntity
  8
0
100
AcDbLine
 62
7
  6
CONTINUOUS
 10
2.9393385435
 20
-12.7145657956
 11
3.0042268703
 21
-12.5847495898
  0
LINE
  5
314
100
AcDbEntity
  8
0
100
AcDbLine
 62
7
  6
CONTINUOUS
 10
3.9309155976
 20
-12.5847495898
 11
3.8660272708
 21
-12.7145657956
  0
LINE
  5
315
100
AcDbEntity
  8
0
100
AcDbLine
 62
250
  6
CONTINUOUS
 10
13.8420674711
 20
5.1652504102
 11
14.1185509088
 21
5.4417338478
  0
LWPOLYLINE
  5
316
100
AcDbEntity
  8
0
100
AcDbPolyline
 62
250
  6
CONTINUOUS
 90
9
 70
0
 10
4.3809155976
 20
-3.100612927
 10
4.4452572057
 20
-3.0888994113
 10
4.5042048671
 20
-3.0653581898
 10
4.5577585817
 20
-3.0299892624
 10
4.6062063381
 20
-2.9809806446
 10
4.6492601478
 20
-2.9201443209
 10
4.6860560449
 20
-2.8529162451
 10
4.7160383272
 20
-2.7803299619
 10
4.739762697
 20
-2.7013519265
  0
LWPOLYLINE
  5
317
100
AcDbEntity
  8
0
100
AcDbPolyline
 62
7
  6
CONTINUOUS
 90
4
 70
0
 10
20.5809155976
 20
-1.7708902515
 10
20.6189450086
 20
-1.7678696748
 10
20.6534423897
 20
-1.7610617656
 10
20.6844077411
 20
-1.7503589872
  0
LINE
  5
318
100
AcDbEntity
  8
0
100
AcDbLine
 62
250
  6
CONTINUOUS
 10
22.0809155976
 20
-3.100612927
 11
20.9809155976
 21
-3.100612927
  0
LINE
  5
319
100
AcDbEntity
  8
0
100
AcDbLine
 62
250
  6
CONTINUOUS
 10
4.3809155976
 20
-3.100612927
 11
3.2809155976
 21
-3.100612927
  0
LINE
  5
31A
100
AcDbEntity
  8
0
100
AcDbLine
 62
250
  6
CONTINUOUS
 10
22.0809155976
 20
-2.9829166148
 11
20.9809155976
 21
-2.9829166148
  0
LINE
  5
31B
100
AcDbEntity
  8
0
100
AcDbLine
 62
250
  6
CONTINUOUS
 10
4.3809155976
 20
-2.9829166148
 11
3.2809155976
 21
-2.9829166148
  0
LINE
  5
31C
100
AcDbEntity
  8
0
100
AcDbLine
 62
7
  6
CONTINUOUS
 10
6.1809155976
 20
-2.8347495898
 11
6.0809155976
 21
-2.8347495898
  0
LINE
  5
31D
100
AcDbEntity
  8
0
100
AcDbLine
 62
7
  6
CONTINUOUS
 10
4.8809155976
 20
-2.8347495898
 11
5.7809155976
 21
-2.8347495898
  0
LINE
  5
31E
100
AcDbEntity
  8
0
100
AcDbLine
 62
7
  6
CONTINUOUS
 10
19.1809155976
 20
-2.8347495898
 11
19.2809155976
 21
-2.8347495898
  0
LINE
  5
31F
100
AcDbEntity
  8
0
100
AcDbLine
 62
7
  6
CONTINUOUS
 10
19.5809155976
 20
-2.8347495898
 11
20.4809155976
 21
-2.8347495898
  0
LINE
  5
320
100
AcDbEntity
  8
0
100
AcDbLine
 62
250
  6
CONTINUOUS
 10
22.4809155976
 20
-2.3472107696
 11
22.2809155976
 21
-2.3472107696
  0
LINE
  5
321
100
AcDbEntity
  8
0
100
AcDbLine
 62
250
  6
CONTINUOUS
 10
20.7809155976
 20
-2.3472107696
 11
20.5809155976
 21
-2.3472107696
  0
LINE
  5
322
100
AcDbEntity
  8
0
100
AcDbLine
 62
250
  6
CONTINUOUS
 10
4.7809155976
 20
-2.3472107696
 11
4.5809155976
 21
-2.3472107696
  0
LINE
  5
323
100
AcDbEntity
  8
0
100
AcDbLine
 62
250
  6
CONTINUOUS
 10
3.0809155976
 20
-2.3472107696
 11
2.8809155976
 21
-2.3472107696
  0
LINE
  5
324
100
AcDbEntity
  8
0
100
AcDbLine
 62
250
  6
CONTINUOUS
 10
4.8809155976
 20
-1.9055048946
 11
5.7809155976
 21
-1.9055048946
  0
LINE
  5
325
100
AcDbEntity
  8
0
100
AcDbLine
 62
250
  6
CONTINUOUS
 10
19.5809155976
 20
-1.9055048946
 11
20.4809155976
 21
-1.9055048946
  0
LINE
  5
326
100
AcDbEntity
  8
0
100
AcDbLine
 62
7
  6
CONTINUOUS
 10
20.5809155976
 20
-1.7708902515
 11
20.4809155976
 21
-1.7708902515
  0
LINE
  5
327
100
AcDbEntity
  8
0
100
AcDbLine
 62
7
  6
CONTINUOUS
 10
19.5809155976
 20
-1.7708902515
 11
19.2809155976
 21
-1.7708902515
  0
LINE
  5
328
100
AcDbEntity
  8
0
100
AcDbLine
 62
7
  6
CONTINUOUS
 10
6.0809155976
 20
-1.7708902515
 11
5.7809155976
 21
-1.7708902515
  0
LINE
  5
329
100
AcDbEntity
  8
0
100
AcDbLine
 62
7
  6
CONTINUOUS
 10
4.8809155976
 20
-1.7708902515
 11
4.7809155976
 21
-1.7708902515
  0
LINE
  5
32A
100
AcDbEntity
  8
0
100
AcDbLine
 62
7
  6
CONTINUOUS
 10
4.8809155976
 20
-1.6715493377
 11
5.7809155976
 21
-1.6715493377
  0
LINE
  5
32B
100
AcDbEntity
  8
0
100
AcDbLine
 62
7
  6
CONTINUOUS
 10
19.5809155976
 20
-1.6715493377
 11
20.4809155976
 21
-1.6715493377
  0
LWPOLYLINE
  5
32C
100
AcDbEntity
  8
0
100
AcDbPolyline
 62
250
  6
CONTINUOUS
 90
46
 70
0
 10
20.9809155976
 20
-2.9829166148
 10
20.9750214526
 20
-2.9827233165
 10
20.9690017971
 20
-2.9819860104
 10
20.9628626254
 20
-2.9806978892
 10
20.9565915316
 20
-2.9788657905
 10
20.9502153076
 20
-2.9764685316
 10
20.9437991206
 20
-2.9734605147
 10
20.9373601802
 20
-2.9698316831
 10
20.9308975819
 20
-2.9655857754
 10
20.9244485117
 20
-2.9607029732
 10
20.9180270374
 20
-2.9551812115
 10
20.9116359336
 20
-2.9490204572
 10
20.9052946956
 20
-2.9422064782
 10
20.8990116559
 20
-2.9347354613
 10
20.8927956336
 20
-2.9266112898
 10
20.8866660957
 20
-2.9178328122
 10
20.880627383
 20
-2.9083895357
 10
20.874691705
 20
-2.8982942778
 10
20.8688884184
 20
-2.8875830429
 10
20.8632287855
 20
-2.8762627052
 10
20.8577143685
 20
-2.8643324999
 10
20.8523577898
 20
-2.8518188272
 10
20.8471731292
 20
-2.838749332
 10
20.8421563922
 20
-2.8251038812
 10
20.8372940414
 20
-2.8108365888
 10
20.8325914628
 20
-2.7959525975
 10
20.8280564811
 20
-2.7804521464
 10
20.8236824967
 20
-2.7642802506
 10
20.819475333
 20
-2.7474345202
 10
20.8154451508
 20
-2.729921939
 10
20.8115942679
 20
-2.7117006301
 10
20.8079300392
 20
-2.6927672485
 10
20.804462435
 20
-2.6731301092
 10
20.8011987312
 20
-2.6527645733
 10
20.7981487612
 20
-2.63168266
 10
20.7953196442
 20
-2.6098783167
 10
20.7927158302
 20
-2.5872995951
 10
20.790347
 20
-2.5639538133
 10
20.7882221295
 20
-2.5398401596
 10
20.7863470748
 20
-2.5148941538
 10
20.7847322624
 20
-2.4891188883
 10
20.7833880894
 20
-2.4625185435
 10
20.7823230953
 20
-2.4350300857
 10
20.781548306
 20
-2.4066352072
 10
20.781075534
 20
-2.3773605719
 10
20.7809155976
 20
-2.3472107696
  0
LINE
  5
32D
100
AcDbEntity
  8
0
100
AcDbLine
 62
7
  6
CONTINUOUS
 10
3.9309155976
 20
11.9152504102
 11
3.8660272708
 21
12.0450666159
  0
LWPOLYLINE
  5
32E
100
AcDbEntity
  8
0
100
AcDbPolyline
 62
250
  6
CONTINUOUS
 90
22
 70
0
 10
11.5430975345
 20
-6.9107456891
 10
11.5421318989
 20
-6.8880971653
 10
11.5396682327
 20
-6.8660329229
 10
11.5357065358
 20
-6.844552962
 10
11.5302268586
 20
-6.8236545336
 10
11.5232491506
 20
-6.8033403866
 10
11.5148332609
 20
-6.7836187679
 10
11.5049389843
 20
-6.7643745
 10
11.4936065259
 20
-6.7457227604
 10
11.4810163497
 20
-6.7280173294
 10
11.4671447083
 20
-6.711287296
 10
11.4520153492
 20
-6.6955035712
 10
11.4358799781
 20
-6.6809326684
 10
11.4188377711
 20
-6.6676308953
 10
11.4007895522
 20
-6.6555419442
 10
11.3816895001
 20
-6.6447634056
 10
11.3615826654
 20
-6.6352121644
 10
11.3404239976
 20
-6.6269713358
 10
11.3180325231
 20
-6.6203878556
 10
11.2943479175
 20
-6.615577369
 10
11.2694305052
 20
-6.6124242308
 10
11.2432802864
 20
-6.610928441
  0
LWPOLYLINE
  5
32F
100
AcDbEntity
  8
0
100
AcDbPolyline
 62
250
  6
CONTINUOUS
 90
22
 70
0
 10
12.042792948
 20
-6.9107456891
 10
12.0405028561
 20
-6.8508651128
 10
12.033833422
 20
-6.7919644335
 10
12.0229644309
 20
-6.7343509479
 10
12.0081769531
 20
-6.678579173
 10
11.989640981
 20
-6.6246229821
 10
11.9672210969
 20
-6.5719410182
 10
11.9408283162
 20
-6.5205266941
 10
11.9106819434
 20
-6.4709819822
 10
11.8769985132
 20
-6.4237146722
 10
11.8399671524
 20
-6.3790015356
 10
11.7997590187
 20
-6.3370593374
 10
11.7566309048
 20
-6.2981595268
 10
11.7110795775
 20
-6.262695647
 10
11.6631094587
 20
-6.2306200819
 10
11.6121594899
 20
-6.2016716353
 10
11.5585062021
 20
-6.1762189692
 10
11.5022676806
 20
-6.1545251173
 10
11.4424872401
 20
-6.1365904612
 10
11.3789779608
 20
-6.1229317995
 10
11.3124423434
 20
-6.114281656
 10
11.2432802864
 20
-6.1112330275
  0
LINE
  5
330
100
AcDbEntity
  8
0
100
AcDbLine
 62
250
  6
CONTINUOUS
 10
11.2432802864
 20
-6.1112330275
 11
11.2432802864
 21
-6.610928441
  0
LINE
  5
331
100
AcDbEntity
  8
0
100
AcDbLine
 62
250
  6
CONTINUOUS
 10
11.2432802864
 20
5.4417338478
 11
11.2432802864
 21
5.9414292613
  0
LINE
  5
332
100
AcDbEntity
  8
0
100
AcDbLine
 62
250
  6
CONTINUOUS
 10
11.5430975345
 20
-9.6847495898
 11
11.5430975345
 21
-6.9107456891
  0
LINE
  5
333
100
AcDbEntity
  8
0
100
AcDbLine
 62
250
  6
CONTINUOUS
 10
11.5430975345
 20
6.2412465094
 11
11.5430975345
 21
12.1480947976
  0
LINE
  5
334
100
AcDbEntity
  8
0
100
AcDbLine
 62
7
  6
CONTINUOUS
 10
11.9309155976
 20
-17.7789353344
 11
11.9309155976
 21
-16.588218324
  0
LINE
  5
335
100
AcDbEntity
  8
0
100
AcDbLine
 62
250
  6
CONTINUOUS
 10
12.042792948
 20
-9.6678985637
 11
12.042792948
 21
-6.9107456891
  0
LINE
  5
336
100
AcDbEntity
  8
0
100
AcDbLine
 62
250
  6
CONTINUOUS
 10
12.042792948
 20
6.2412465094
 11
12.042792948
 21
11.6483993841
  0
LINE
  5
337
100
AcDbEntity
  8
0
100
AcDbLine
 62
7
  6
CONTINUOUS
 10
12.1726091538
 20
10.5528944035
 11
12.1726091538
 21
7.6652504102
  0
LINE
  5
338
100
AcDbEntity
  8
0
100
AcDbLine
 62
7
  6
CONTINUOUS
 10
12.1726091538
 20
-8.3347495898
 11
12.1726091538
 21
-9.538082358
  0
LINE
  5
339
100
AcDbEntity
  8
0
100
AcDbLine
 62
7
  6
CONTINUOUS
 10
12.3192763856
 20
6.5528944035
 11
12.3192763856
 21
5.9647630718
  0
LINE
  5
33A
100
AcDbEntity
  8
0
100
AcDbLine
 62
7
  6
CONTINUOUS
 10
12.3192763856
 20
-6.6342622515
 11
12.3192763856
 21
-7.2223935832
  0
LINE
  5
33B
100
AcDbEntity
  8
0
100
AcDbLine
 62
7
  6
CONTINUOUS
 10
15.1809155976
 20
5.3538225654
 11
15.086658247
 21
5.1652504102
  0
LINE
  5
33C
100
AcDbEntity
  8
0
100
AcDbLine
 62
7
  6
CONTINUOUS
 10
15.1809155976
 20
-6.0233217451
 11
15.086658247
 21
-5.8347495898
  0
LINE
  5
33D
100
AcDbEntity
  8
0
100
AcDbLine
 62
7
  6
CONTINUOUS
 10
10.1809155976
 20
5.3538225654
 11
10.2751729482
 21
5.1652504102
  0
LWPOLYLINE
  5
33E
100
AcDbEntity
  8
0
100
AcDbPolyline
 62
250
  6
CONTINUOUS
 90
22
 70
0
 10
13.8187336607
 20
6.2412465094
 10
13.8196992962
 20
6.2185979856
 10
13.8221629624
 20
6.1965337433
 10
13.8261246593
 20
6.1750537824
 10
13.8316043366
 20
6.1541553539
 10
13.8385820445
 20
6.1338412069
 10
13.8469979342
 20
6.1141195883
 10
13.8568922108
 20
6.0948753203
 10
13.8682246692
 20
6.0762235807
 10
13.8808148454
 20
6.0585181498
 10
13.8946864868
 20
6.0417881163
 10
13.909815846
 20
6.0260043915
 10
13.925951217
 20
6.0114334887
 10
13.9429934241
 20
5.9981317156
 10
13.961041643
 20
5.9860427645
 10
13.9801416951
 20
5.9752642259
 10
14.0002485297
 20
5.9657129848
 10
14.0214071976
 20
5.9574721562
 10
14.0437986721
 20
5.9508886759
 10
14.0674832777
 20
5.9460781893
 10
14.0924006899
 20
5.9429250511
 10
14.1185509088
 20
5.9414292613
  0
LWPOLYLINE
  5
33F
100
AcDbEntity
  8
0
100
AcDbPolyline
 62
250
  6
CONTINUOUS
 90
22
 70
0
 10
13.3190382471
 20
6.2412465094
 10
13.321328339
 20
6.1813659331
 10
13.3279977732
 20
6.1224652538
 10
13.3388667643
 20
6.0648517683
 10
13.3536542421
 20
6.0090799933
 10
13.3721902142
 20
5.9551238024
 10
13.3946100983
 20
5.9024418385
 10
13.421002879
 20
5.8510275144
 10
13.4511492518
 20
5.8014828026
 10
13.4848326819
 20
5.7542154926
 10
13.5218640427
 20
5.709502356
 10
13.5620721764
 20
5.6675601577
 10
13.6052002903
 20
5.6286603471
 10
13.6507516176
 20
5.5931964674
 10
13.6987217364
 20
5.5611209022
 10
13.7496717053
 20
5.5321724556
 10
13.803324993
 20
5.5067197895
 10
13.8595635145
 20
5.4850259376
 10
13.9193439551
 20
5.4670912815
 10
13.9828532344
 20
5.4534326198
 10
14.0493888518
 20
5.4447824763
 10
14.1185509088
 20
5.4417338478
  0
LINE
  5
340
100
AcDbEntity
  8
0
100
AcDbLine
 62
7
  6
CONTINUOUS
 10
13.0425548095
 20
-7.2223935832
 11
13.0425548095
 21
-6.6342622515
  0
LINE
  5
341
100
AcDbEntity
  8
0
100
AcDbLine
 62
7
  6
CONTINUOUS
 10
13.0425548095
 20
5.9647630718
 11
13.0425548095
 21
6.5528944035
  0
LINE
  5
342
100
AcDbEntity
  8
0
100
AcDbLine
 62
7
  6
CONTINUOUS
 10
13.1892220414
 20
-9.538082358
 11
13.1892220414
 21
-8.3347495898
  0
LINE
  5
343
100
AcDbEntity
  8
0
100
AcDbLine
 62
7
  6
CONTINUOUS
 10
13.1892220414
 20
7.6652504102
 11
13.1892220414
 21
10.5528944035
  0
LINE
  5
344
100
AcDbEntity
  8
0
100
AcDbLine
 62
250
  6
CONTINUOUS
 10
13.3190382471
 20
11.6483993841
 11
13.3190382471
 21
6.2412465094
  0
LINE
  5
345
100
AcDbEntity
  8
0
100
AcDbLine
 62
250
  6
CONTINUOUS
 10
13.3190382471
 20
-6.9107456891
 11
13.3190382471
 21
-9.6678985637
  0
LINE
  5
346
100
AcDbEntity
  8
0
100
AcDbLine
 62
7
  6
CONTINUOUS
 10
13.4309155976
 20
-17.7789353344
 11
13.4309155976
 21
-16.588218324
  0
LINE
  5
347
100
AcDbEntity
  8
0
100
AcDbLine
 62
250
  6
CONTINUOUS
 10
13.8187336607
 20
12.1480947976
 11
13.8187336607
 21
6.2412465094
  0
LINE
  5
348
100
AcDbEntity
  8
0
100
AcDbLine
 62
250
  6
CONTINUOUS
 10
13.8187336607
 20
-6.9107456891
 11
13.8187336607
 21
-9.6847495898
  0
LINE
  5
349
100
AcDbEntity
  8
0
100
AcDbLine
 62
250
  6
CONTINUOUS
 10
14.1185509088
 20
-6.1112330275
 11
14.1185509088
 21
-6.610928441
  0
LINE
  5
34A
100
AcDbEntity
  8
0
100
AcDbLine
 62
250
  6
CONTINUOUS
 10
14.1185509088
 20
5.4417338478
 11
14.1185509088
 21
5.9414292613
  0
LINE
  5
34B
100
AcDbEntity
  8
DRAFT
100
AcDbLine
 62
7
  6
CONTINUOUS
 10
14.1809155976
 20
-21.8347495898
 11
14.1809155976
 21
-21.085365423
  0
LINE
  5
34C
100
AcDbEntity
  8
0
100
AcDbLine
 62
7
  6
CONTINUOUS
 10
10.1809155976
 20
-6.0233217451
 11
10.2751729482
 21
-5.8347495898
  0
LWPOLYLINE
  5
34D
100
AcDbEntity
  8
0
100
AcDbPolyline
 62
7
  6
CONTINUOUS
 90
4
 70
0
 10
4.7809155976
 20
1.1013910718
 10
4.7428861866
 20
1.0983704952
 10
4.7083888054
 20
1.091562586
 10
4.6774234541
 20
1.0808598075
  0
LINE
  5
34E
100
AcDbEntity
  8
0
100
AcDbLine
 62
7
  6
CONTINUOUS
 10
20.4809155976
 20
1.0020501581
 11
19.5809155976
 21
1.0020501581
  0
LINE
  5
34F
100
AcDbEntity
  8
0
100
AcDbLine
 62
7
  6
CONTINUOUS
 10
5.7809155976
 20
1.0020501581
 11
4.8809155976
 21
1.0020501581
  0
LINE
  5
350
100
AcDbEntity
  8
0
100
AcDbLine
 62
7
  6
CONTINUOUS
 10
20.6591804884
 20
1.1013911761
 11
20.4809155976
 21
1.1013910718
  0
LINE
  5
351
100
AcDbEntity
  8
0
100
AcDbLine
 62
7
  6
CONTINUOUS
 10
19.5809155976
 20
1.1013910718
 11
19.2809155976
 21
1.1013910718
  0
LINE
  5
352
100
AcDbEntity
  8
0
100
AcDbLine
 62
7
  6
CONTINUOUS
 10
6.0809155976
 20
1.1013910718
 11
5.7809155976
 21
1.1013910718
  0
LINE
  5
353
100
AcDbEntity
  8
0
100
AcDbLine
 62
7
  6
CONTINUOUS
 10
4.8809155976
 20
1.1013910718
 11
4.7809155976
 21
1.1013910718
  0
LINE
  5
354
100
AcDbEntity
  8
0
100
AcDbLine
 62
250
  6
CONTINUOUS
 10
20.4809155976
 20
1.2360057149
 11
19.5809155976
 21
1.2360057149
  0
LINE
  5
355
100
AcDbEntity
  8
0
100
AcDbLine
 62
250
  6
CONTINUOUS
 10
5.7809155976
 20
1.2360057149
 11
4.8809155976
 21
1.2360057149
  0
LINE
  5
356
100
AcDbEntity
  8
0
100
AcDbLine
 62
250
  6
CONTINUOUS
 10
2.8809155976
 20
1.6777115899
 11
3.0809155976
 21
1.6777115899
  0
LINE
  5
357
100
AcDbEntity
  8
0
100
AcDbLine
 62
250
  6
CONTINUOUS
 10
4.5809155976
 20
1.6777115899
 11
4.7809155976
 21
1.6777115899
  0
LINE
  5
358
100
AcDbEntity
  8
0
100
AcDbLine
 62
250
  6
CONTINUOUS
 10
22.2809155976
 20
1.6777115899
 11
22.4809155976
 21
1.6777115899
  0
LINE
  5
359
100
AcDbEntity
  8
0
100
AcDbLine
 62
7
  6
CONTINUOUS
 10
15.086658247
 20
4.7902504102
 11
15.09279501
 21
4.4386754932
  0
LINE
  5
35A
100
AcDbEntity
  8
0
100
AcDbLine
 62
7
  6
CONTINUOUS
 10
15.086658247
 20
-5.8347495898
 11
15.086658247
 21
-5.4597495898
  0
LINE
  5
35B
100
AcDbEntity
  8
0
100
AcDbLine
 62
7
  6
CONTINUOUS
 10
15.086658247
 20
4.7902504102
 11
15.086658247
 21
5.1652504102
  0
LINE
  5
35C
100
AcDbEntity
  8
0
100
AcDbLine
 62
7
  6
CONTINUOUS
 10
15.1809155976
 20
-6.0233217451
 11
15.1809155976
 21
-5.0817409394
  0
LINE
  5
35D
100
AcDbEntity
  8
0
100
AcDbLine
 62
7
  6
CONTINUOUS
 10
15.1809155976
 20
4.4122417597
 11
15.1809155976
 21
5.3538225654
  0
LINE
  5
35E
100
AcDbEntity
  8
0
100
AcDbLine
 62
7
  6
CONTINUOUS
 10
15.3698228703
 20
-20.4847495898
 11
15.3698228703
 21
-19.5580608625
  0
LINE
  5
35F
100
AcDbEntity
  8
0
100
AcDbLine
 62
7
  6
CONTINUOUS
 10
15.4309155976
 20
-19.4969681353
 11
15.4309155976
 21
-20.4236568626
  0
LINE
  5
360
100
AcDbEntity
  8
0
100
AcDbLine
 62
7
  6
CONTINUOUS
 10
15.09279501
 20
-5.1081746729
 11
15.086658247
 21
-5.4597495898
  0
LINE
  5
361
100
AcDbEntity
  8
0
100
AcDbLine
 62
7
  6
CONTINUOUS
 10
21.4309155976
 20
11.9152504102
 11
21.4958039243
 21
12.0450666159
  0
LINE
  5
362
100
AcDbEntity
  8
0
100
AcDbLine
 62
7
  6
CONTINUOUS
 10
22.4224926516
 20
12.0450666159
 11
22.3576043249
 21
11.9152504102
  0
LINE
  5
363
100
AcDbEntity
  8
0
100
AcDbLine
 62
250
  6
CONTINUOUS
 10
11.519763724
 20
-5.8347495898
 11
11.2432802864
 21
-6.1112330275
  0
LWPOLYLINE
  5
364
100
AcDbEntity
  8
0
100
AcDbPolyline
 62
250
  6
CONTINUOUS
 90
10
 70
0
 10
20.8097828474
 20
2.3652477682
 10
20.8063993507
 20
2.3624453534
 10
20.8030604343
 20
2.3596147229
 10
20.7997660981
 20
2.3567558767
 10
20.7965171008
 20
2.3538678689
 10
20.7933126837
 20
2.3509516453
 10
20.7901505709
 20
2.3480100437
 10
20.787030004
 20
2.3450440099
 10
20.7839517414
 20
2.3420525979
 10
20.7809157831
 20
2.3390358079
  0
LWPOLYLINE
  5
365
100
AcDbEntity
  8
RACCORDO
100
AcDbPolyline
 62
7
  6
CONTINUOUS
 90
5
 70
0
 10
22.843930738
 20
5.6681357973
 10
22.8412029617
 20
5.6674498678
 10
22.8342354123
 20
5.6659165929
 10
22.8231822696
 20
5.6635359726
 10
22.7897681921
 20
5.6560842023
  0
LINE
  5
366
100
AcDbEntity
  8
RACCORDO
100
AcDbLine
 62
7
  6
CONTINUOUS
 10
22.6257641185
 20
5.6199562355
 11
22.5939688143
 21
5.612720573
  0
LINE
  5
367
100
AcDbEntity
  8
RACCORDO
100
AcDbLine
 62
7
  6
CONTINUOUS
 10
22.9408825066
 20
5.689629487
 11
22.843930738
 21
5.6681357973
  0
LINE
  5
368
100
AcDbEntity
  8
RACCORDO
100
AcDbLine
 62
7
  6
CONTINUOUS
 10
22.7897681921
 20
5.6560842023
 11
22.6257641185
 21
5.6199562355
  0
LWPOLYLINE
  5
369
100
AcDbEntity
  8
0
100
AcDbPolyline
 62
250
  6
CONTINUOUS
 90
10
 70
0
 10
20.9815366477
 20
2.4311137473
 10
20.9620147047
 20
2.4303711436
 10
20.9425131294
 20
2.427966759
 10
20.9230319218
 20
2.4239005937
 10
20.9034521765
 20
2.4181488859
 10
20.8838927989
 20
2.4107353973
 10
20.8647105055
 20
2.4017314128
 10
20.8460242019
 20
2.3911606939
 10
20.8277149825
 20
2.378999479
 10
20.8097828474
 20
2.3652477682
  0
LINE
  5
36A
100
AcDbEntity
  8
0
100
AcDbLine
 62
7
  6
CONTINUOUS
 10
6.1809155976
 20
2.1652504102
 11
6.0809155976
 21
2.1652504102
  0
LINE
  5
36B
100
AcDbEntity
  8
0
100
AcDbLine
 62
7
  6
CONTINUOUS
 10
4.8809155976
 20
2.1652504102
 11
5.7809155976
 21
2.1652504102
  0
LINE
  5
36C
100
AcDbEntity
  8
0
100
AcDbLine
 62
7
  6
CONTINUOUS
 10
19.1809155976
 20
2.1652504102
 11
19.2809155976
 21
2.1652504102
  0
LINE
  5
36D
100
AcDbEntity
  8
0
100
AcDbLine
 62
7
  6
CONTINUOUS
 10
19.5809155976
 20
2.1652504102
 11
20.4809155976
 21
2.1652504102
  0
LINE
  5
36E
100
AcDbEntity
  8
0
100
AcDbLine
 62
250
  6
CONTINUOUS
 10
3.2809155976
 20
2.3134174351
 11
4.3809155976
 21
2.3134174351
  0
LINE
  5
36F
100
AcDbEntity
  8
0
100
AcDbLine
 62
250
  6
CONTINUOUS
 10
20.9809155976
 20
2.3134174351
 11
22.0809155976
 21
2.3134174351
  0
LINE
  5
370
100
AcDbEntity
  8
0
100
AcDbLine
 62
250
  6
CONTINUOUS
 10
3.2809155976
 20
2.4311137473
 11
4.3809155976
 21
2.4311137473
  0
LINE
  5
371
100
AcDbEntity
  8
0
100
AcDbLine
 62
250
  6
CONTINUOUS
 10
20.9815366477
 20
2.4311137473
 11
22.0809155976
 21
2.4311137473
  0
LWPOLYLINE
  5
372
100
AcDbEntity
  8
0
100
AcDbPolyline
 62
250
  6
CONTINUOUS
 90
43
 70
0
 10
4.3809155976
 20
2.3134174351
 10
4.3880071704
 20
2.3130638418
 10
4.3950596163
 20
2.3120469418
 10
4.4020643114
 20
2.3103689075
 10
4.4089955005
 20
2.308038674
 10
4.415862628
 20
2.3050528555
 10
4.4227093811
 20
2.3013921919
 10
4.4295361555
 20
2.2970619161
 10
4.4363247234
 20
2.2920559051
 10
4.443089155
 20
2.2863335052
 10
4.4498285074
 20
2.2798884196
 10
4.456523377
 20
2.2727244285
 10
4.4631592799
 20
2.2648150978
 10
4.4697344938
 20
2.2561428038
 10
4.4762293249
 20
2.246724616
 10
4.4826039471
 20
2.2365886013
 10
4.4888459801
 20
2.2257340974
 10
4.4949500666
 20
2.2141668246
 10
4.5008901246
 20
2.2019276944
 10
4.5066477064
 20
2.1890455775
 10
4.5122279947
 20
2.1755000869
 10
4.5176405756
 20
2.1612584923
 10
4.522878165
 20
2.1463283465
 10
4.5279325023
 20
2.1307086828
 10
4.532808893
 20
2.1143523293
 10
4.5375002846
 20
2.0972592278
 10
4.5419958522
 20
2.0794352707
 10
4.5462929255
 20
2.060841203
 10
4.550380706
 20
2.0414895649
 10
4.5542512505
 20
2.0213741305
 10
4.5579036741
 20
2.0004267253
 10
4.5613269459
 20
1.978655265
 10
4.5645103884
 20
1.9560583048
 10
4.5674500872
 20
1.9325527945
 10
4.5701338896
 20
1.9081404868
 10
4.5725487519
 20
1.8828267549
 10
4.574685951
 20
1.8565334517
 10
4.5765319533
 20
1.8292584481
 10
4.5780725393
 20
1.8010123329
 10
4.579295418
 20
1.7717358948
 10
4.580186471
 20
1.7414127001
 10
4.580731092
 20
1.7100693768
 10
4.5809155976
 20
1.6777115899
  0
LWPOLYLINE
  5
373
100
AcDbEntity
  8
0
100
AcDbPolyline
 62
250
  6
CONTINUOUS
 90
43
 70
0
 10
22.0809155976
 20
2.3134174351
 10
22.0880071704
 20
2.3130638418
 10
22.0950596163
 20
2.3120469418
 10
22.1020643114
 20
2.3103689075
 10
22.1089955005
 20
2.308038674
 10
22.115862628
 20
2.3050528555
 10
22.1227093811
 20
2.3013921919
 10
22.1295361555
 20
2.2970619161
 10
22.1363247234
 20
2.2920559051
 10
22.143089155
 20
2.2863335052
 10
22.1498285074
 20
2.2798884196
 10
22.156523377
 20
2.2727244285
 10
22.1631592799
 20
2.2648150978
 10
22.1697344938
 20
2.2561428038
 10
22.1762293249
 20
2.246724616
 10
22.1826039471
 20
2.2365886013
 10
22.1888459801
 20
2.2257340974
 10
22.1949500666
 20
2.2141668246
 10
22.2008901246
 20
2.2019276944
 10
22.2066477064
 20
2.1890455775
 10
22.2122279947
 20
2.1755000869
 10
22.2176405756
 20
2.1612584923
 10
22.222878165
 20
2.1463283465
 10
22.2279325023
 20
2.1307086828
 10
22.232808893
 20
2.1143523293
 10
22.2375002846
 20
2.0972592278
 10
22.2419958522
 20
2.0794352707
 10
22.2462929255
 20
2.060841203
 10
22.250380706
 20
2.0414895649
 10
22.2542512505
 20
2.0213741305
 10
22.2579036741
 20
2.0004267253
 10
22.2613269459
 20
1.978655265
 10
22.2645103884
 20
1.9560583048
 10
22.2674500872
 20
1.9325527945
 10
22.2701338896
 20
1.9081404868
 10
22.2725487519
 20
1.8828267549
 10
22.274685951
 20
1.8565334517
 10
22.2765319533
 20
1.8292584481
 10
22.2780725393
 20
1.8010123329
 10
22.279295418
 20
1.7717358948
 10
22.280186471
 20
1.7414127001
 10
22.280731092
 20
1.7100693768
 10
22.2809155976
 20
1.6777115899
  0
LINE
  5
374
100
AcDbEntity
  8
RACCORDO
100
AcDbLine
 62
7
  6
CONTINUOUS
 10
2.7359881259
 20
5.6196001119
 11
2.7678623809
 21
5.612720573
  0
LINE
  5
375
100
AcDbEntity
  8
RACCORDO
100
AcDbLine
 62
7
  6
CONTINUOUS
 10
2.4209486885
 20
5.689629487
 11
2.5179004571
 21
5.6681357973
  0
LINE
  5
376
100
AcDbEntity
  8
RACCORDO
100
AcDbLine
 62
7
  6
CONTINUOUS
 10
2.5720816184
 20
5.6561681707
 11
2.7359881259
 21
5.6196001119
  0
LWPOLYLINE
  5
377
100
AcDbEntity
  8
RACCORDO
100
AcDbPolyline
 62
7
  6
CONTINUOUS
 90
4
 70
0
 10
2.7787529195
 20
6.2276258075
 10
2.781258679
 20
6.2269683543
 10
2.788107828
 20
6.225455947
 10
2.799117388
 20
6.2230885857
  0
LINE
  5
378
100
AcDbEntity
  8
0
100
AcDbLine
 62
250
  6
CONTINUOUS
 10
11.2432802864
 20
5.4417338478
 11
11.519763724
 21
5.1652504102
  0
LINE
  5
379
100
AcDbEntity
  8
0
100
AcDbLine
 62
7
  6
CONTINUOUS
 10
21.4309155976
 20
-12.5847495898
 11
21.4958039243
 21
-12.7145657956
  0
LINE
  5
37A
100
AcDbEntity
  8
0
100
AcDbLine
 62
7
  6
CONTINUOUS
 10
22.4224926516
 20
-12.7145657956
 11
22.3576043249
 21
-12.5847495898
  0
LINE
  5
37B
100
AcDbEntity
  8
RACCORDO
100
AcDbLine
 62
7
  6
CONTINUOUS
 10
15.3808952418
 20
-20.6373533841
 11
15.3806172282
 21
-20.6397871819
  0
LINE
  5
37C
100
AcDbEntity
  8
0
100
AcDbLine
 62
7
  6
CONTINUOUS
 10
13.8809155976
 20
-5.0597495898
 11
13.8430213853
 21
-5.1081746729
  0
LWPOLYLINE
  5
37D
100
AcDbEntity
  8
0
100
AcDbPolyline
 62
250
  6
CONTINUOUS
 90
10
 70
0
 10
20.8953058725
 20
2.2604850654
 10
20.9042440398
 20
2.2715357048
 10
20.9134080098
 20
2.2813224912
 10
20.9227780634
 20
2.2898367533
 10
20.9323760219
 20
2.297090427
 10
20.9421386024
 20
2.3030531212
 10
20.9519126708
 20
2.307664663
 10
20.9616283598
 20
2.3109135454
 10
20.9713038936
 20
2.3128243639
 10
20.9809155976
 20
2.3134034983
  0
LWPOLYLINE
  5
37E
100
AcDbEntity
  8
0
100
AcDbPolyline
 62
250
  6
CONTINUOUS
 90
13
 70
0
 10
20.7809157831
 20
2.3390358079
 10
20.7600659408
 20
2.3162874654
 10
20.7404457278
 20
2.2920466097
 10
20.722055144
 20
2.2663132408
 10
20.7049821972
 20
2.2391917041
 10
20.6891388797
 20
2.2105776543
 10
20.6742611683
 20
2.1801580552
 10
20.6602239937
 20
2.1478229223
 10
20.6471524254
 20
2.1136822402
 10
20.6351576486
 20
2.0777529255
 10
20.6242224642
 20
2.0399258762
 10
20.6143640714
 20
2.0003101943
 10
20.6057452535
 20
1.9592501028
  0
LINE
  5
37F
100
AcDbEntity
  8
0
100
AcDbLine
 62
250
  6
CONTINUOUS
 10
12.3192763856
 20
-6.6342622515
 11
12.042792948
 21
-6.9107456891
  0
LWPOLYLINE
  5
380
100
AcDbEntity
  8
0
100
AcDbPolyline
 62
7
  6
CONTINUOUS
 90
7
 70
0
 10
20.6844077411
 20
-1.7503589872
 10
20.7124007524
 20
-1.7350463981
 10
20.736861734
 20
-1.7154263543
 10
20.7561116162
 20
-1.6929544081
 10
20.7695907093
 20
-1.6680511646
 10
20.7778587031
 20
-1.6399714909
 10
20.7809155976
 20
-1.6085235101
  0
LWPOLYLINE
  5
381
100
AcDbEntity
  8
RACCORDO
100
AcDbPolyline
 62
7
  6
CONTINUOUS
 90
3
 70
0
 10
22.4560388421
 20
6.1994827897
 10
22.3651706314
 20
6.1791077453
 10
22.3576043249
 20
6.1774743362
  0
LWPOLYLINE
  5
382
100
AcDbEntity
  8
RACCORDO
100
AcDbPolyline
 62
7
  6
CONTINUOUS
 90
3
 70
0
 10
22.5292269312
 20
6.2157128555
 10
22.4830179536
 20
6.205396963
 10
22.4560388421
 20
6.1994827897
  0
LINE
  5
383
100
AcDbEntity
  8
RACCORDO
100
AcDbLine
 62
7
  6
CONTINUOUS
 10
22.5625367381
 20
6.2230493304
 11
22.5292269312
 21
6.2157128555
  0
LWPOLYLINE
  5
384
100
AcDbEntity
  8
RACCORDO
100
AcDbPolyline
 62
7
  6
CONTINUOUS
 90
4
 70
0
 10
22.5830592383
 20
6.2275765339
 10
22.5803371559
 20
6.2270535853
 10
22.5734589007
 20
6.2255270674
 10
22.5625367381
 20
6.2230493304
  0
LWPOLYLINE
  5
385
100
AcDbEntity
  8
0
100
AcDbPolyline
 62
250
  6
CONTINUOUS
 90
16
 70
0
 10
3.2809155976
 20
2.4311137473
 10
3.2299665742
 20
2.424319561
 10
3.1820264287
 20
2.4090848039
 10
3.1370951609
 20
2.3854094762
 10
3.0947942965
 20
2.3522019348
 10
3.05550231
 20
2.3105538227
 10
3.020354624
 20
2.2637400688
 10
2.9898487727
 20
2.2122326928
 10
2.963487222
 20
2.1555596749
 10
2.9409127928
 20
2.0955798849
 10
2.9221310851
 20
2.0326264675
 10
2.9071364991
 20
1.966366278
 10
2.8955550552
 20
1.8976587519
 10
2.8872620938
 20
1.8267903678
 10
2.8823822746
 20
1.7534746471
 10
2.8809155976
 20
1.6777115899
  0
LINE
  5
386
100
AcDbEntity
  8
0
100
AcDbLine
 62
7
  6
CONTINUOUS
 10
18.4809155976
 20
4.3902504102
 11
13.8809155976
 21
4.3902504102
  0
LINE
  5
387
100
AcDbEntity
  8
0
100
AcDbLine
 62
7
  6
CONTINUOUS
 10
11.4809155976
 20
4.3902504102
 11
6.8809155976
 21
4.3902504102
  0
LINE
  5
388
100
AcDbEntity
  8
0
100
AcDbLine
 62
7
  6
CONTINUOUS
 10
5.7809155976
 20
4.4122417597
 11
10.1809155976
 21
4.4122417597
  0
LINE
  5
389
100
AcDbEntity
  8
0
100
AcDbLine
 62
7
  6
CONTINUOUS
 10
15.1809155976
 20
4.4122417597
 11
19.5809155976
 21
4.4122417597
  0
LINE
  5
38A
100
AcDbEntity
  8
0
100
AcDbLine
 62
7
  6
CONTINUOUS
 10
10.2690361852
 20
4.4386754932
 11
11.5188098098
 21
4.4386754932
  0
LINE
  5
38B
100
AcDbEntity
  8
0
100
AcDbLine
 62
7
  6
CONTINUOUS
 10
13.8430213853
 20
4.4386754932
 11
15.09279501
 21
4.4386754932
  0
LINE
  5
38C
100
AcDbEntity
  8
0
100
AcDbLine
 62
7
  6
CONTINUOUS
 10
10.2751729482
 20
4.7902504102
 11
11.9325841202
 21
4.7902504102
  0
LINE
  5
38D
100
AcDbEntity
  8
0
100
AcDbLine
 62
7
  6
CONTINUOUS
 10
13.4292470749
 20
4.7902504102
 11
15.086658247
 21
4.7902504102
  0
LINE
  5
38E
100
AcDbEntity
  8
0
100
AcDbLine
 62
7
  6
CONTINUOUS
 10
15.086658247
 20
5.1652504102
 11
13.8420674711
 21
5.1652504102
  0
LINE
  5
38F
100
AcDbEntity
  8
0
100
AcDbLine
 62
7
  6
CONTINUOUS
 10
11.519763724
 20
5.1652504102
 11
10.2751729482
 21
5.1652504102
  0
LWPOLYLINE
  5
390
100
AcDbEntity
  8
RACCORDO
100
AcDbPolyline
 62
7
  6
CONTINUOUS
 90
5
 70
0
 10
2.5179004571
 20
5.6681357973
 10
2.5206625484
 20
5.6676046525
 10
2.5276252826
 20
5.6660496579
 10
2.5386489255
 20
5.6635359726
 10
2.5720816184
 20
5.6561681707
  0
LWPOLYLINE
  5
391
100
AcDbEntity
  8
RACCORDO
100
AcDbPolyline
 62
7
  6
CONTINUOUS
 90
3
 70
0
 10
2.9060863341
 20
6.1993281712
 10
2.9969816943
 20
6.1794132119
 10
3.0042268703
 20
6.1777636342
  0
LINE
  5
392
100
AcDbEntity
  8
RACCORDO
100
AcDbLine
 62
7
  6
CONTINUOUS
 10
2.799117388
 20
6.2230885857
 11
2.9060863341
 21
6.1993281712
  0
LINE
  5
393
100
AcDbEntity
  8
0
100
AcDbLine
 62
7
  6
CONTINUOUS
 10
15.1809155976
 20
4.4122417597
 11
15.09279501
 21
4.4386754932
  0
LWPOLYLINE
  5
394
100
AcDbEntity
  8
0
100
AcDbPolyline
 62
7
  6
CONTINUOUS
 90
7
 70
0
 10
20.7809155976
 20
1.0773372134
 10
20.7626216243
 20
1.0844036717
 10
20.7435297622
 20
1.0902151754
 10
20.7236400113
 20
1.0947999748
 10
20.7029523717
 20
1.0981806565
 10
20.6814668433
 20
1.1003740466
 10
20.6591834261
 20
1.101391141
  0
LINE
  5
395
100
AcDbEntity
  8
0
100
AcDbLine
 62
250
  6
CONTINUOUS
 10
12.042792948
 20
6.2412465094
 11
12.3192763856
 21
5.9647630718
  0
LINE
  5
396
100
AcDbEntity
  8
0
100
AcDbLine
 62
7
  6
CONTINUOUS
 10
12.1726091538
 20
7.6652504102
 11
12.2855743334
 21
7.5522852305
  0
LINE
  5
397
100
AcDbEntity
  8
0
100
AcDbLine
 62
7
  6
CONTINUOUS
 10
13.8809155976
 20
4.3902504102
 11
13.8430213853
 21
4.4386754932
  0
LINE
  5
398
100
AcDbEntity
  8
0
100
AcDbLine
 62
7
  6
CONTINUOUS
 10
21.5042268703
 20
-18.7787092686
 11
21.4850262988
 21
-18.5847495898
  0
LINE
  5
399
100
AcDbEntity
  8
0
100
AcDbLine
 62
7
  6
CONTINUOUS
 10
18.6809155976
 20
4.360478121
 11
18.6809155976
 21
-5.0299773031
  0
LINE
  5
39A
100
AcDbEntity
  8
0
100
AcDbLine
 62
7
  6
CONTINUOUS
 10
19.1809155976
 20
2.1652504102
 11
19.1809155976
 21
-2.8347495898
  0
LINE
  5
39B
100
AcDbEntity
  8
0
100
AcDbLine
 62
7
  6
CONTINUOUS
 10
19.2809155976
 20
3.5965226865
 11
19.2809155976
 21
-4.2660218662
  0
LINE
  5
39C
100
AcDbEntity
  8
0
100
AcDbLine
 62
7
  6
CONTINUOUS
 10
19.5809155976
 20
-6.0233217451
 11
19.5809155976
 21
-1.6721010961
  0
LINE
  5
39D
100
AcDbEntity
  8
0
100
AcDbLine
 62
7
  6
CONTINUOUS
 10
19.5809155976
 20
1.0026019164
 11
19.5809155976
 21
5.3538225654
  0
LINE
  5
39E
100
AcDbEntity
  8
0
100
AcDbLine
 62
7
  6
CONTINUOUS
 10
21.5042268703
 20
18.1092100889
 11
21.4850262988
 21
17.9152504102
  0
LINE
  5
39F
100
AcDbEntity
  8
RACCORDO
100
AcDbLine
 62
7
  6
CONTINUOUS
 10
15.3746978149
 20
-20.6847495898
 11
15.3806172282
 21
-20.6397871819
  0
LINE
  5
3A0
100
AcDbEntity
  8
0
100
AcDbLine
 62
7
  6
CONTINUOUS
 10
15.7047417105
 20
-19.4969681353
 11
15.7063503125
 21
-19.4847495898
  0
LINE
  5
3A1
100
AcDbEntity
  8
RACCORDO
100
AcDbLine
 62
7
  6
CONTINUOUS
 10
16.8627082264
 20
-21.036912268
 11
16.8567888131
 21
-21.0818746759
  0
LWPOLYLINE
  5
3A2
100
AcDbEntity
  8
RACCORDO
100
AcDbPolyline
 62
7
  6
CONTINUOUS
 90
3
 70
0
 10
16.8912574113
 20
-20.8191988021
 10
16.8672461983
 20
-21.0024345643
 10
16.8630695992
 20
-21.0344894446
  0
LINE
  5
3A3
100
AcDbEntity
  8
RACCORDO
100
AcDbLine
 62
7
  6
CONTINUOUS
 10
15.4058673257
 20
-20.4487051344
 11
15.3808952418
 21
-20.6373533841
  0
LINE
  5
3A4
100
AcDbEntity
  8
RACCORDO
100
AcDbLine
 62
7
  6
CONTINUOUS
 10
16.8956200976
 20
-20.7869217872
 11
16.8912574113
 21
-20.8191988021
  0
LINE
  5
3A5
100
AcDbEntity
  8
0
100
AcDbLine
 62
7
  6
CONTINUOUS
 10
19.1809155976
 20
-2.8347495898
 11
18.8009423858
 21
-4.9896847577
  0
LINE
  5
3A6
100
AcDbEntity
  8
RACCORDO
100
AcDbLine
 62
7
  6
CONTINUOUS
 10
22.6315314308
 20
6.35303501
 11
22.5830782757
 21
6.2276258075
  0
LWPOLYLINE
  5
3A7
100
AcDbEntity
  8
0
100
AcDbPolyline
 62
250
  6
CONTINUOUS
 90
10
 70
0
 10
20.8809155976
 20
2.2393644474
 10
20.8824337359
 20
2.241805611
 10
20.8839728693
 20
2.2442257307
 10
20.8855330769
 20
2.246624564
 10
20.8871156915
 20
2.2490045432
 10
20.8887195351
 20
2.2513627253
 10
20.8903408595
 20
2.2536908595
 10
20.8919783926
 20
2.2559860908
 10
20.8936333987
 20
2.258250893
 10
20.8953058725
 20
2.2604850654
  0
LINE
  5
3A8
100
AcDbEntity
  8
0
100
AcDbLine
 62
7
  6
CONTINUOUS
 10
12.1726091538
 20
-8.3347495898
 11
12.2855743334
 21
-8.2217844102
  0
LINE
  5
3A9
100
AcDbEntity
  8
0
100
AcDbLine
 62
7
  6
CONTINUOUS
 10
12.1726091538
 20
-9.538082358
 11
12.042792948
 21
-9.6678985637
  0
LINE
  5
3AA
100
AcDbEntity
  8
0
100
AcDbLine
 62
7
  6
CONTINUOUS
 10
15.1809155976
 20
-5.0817409394
 11
15.09279501
 21
-5.1081746729
  0
LWPOLYLINE
  5
3AB
100
AcDbEntity
  8
0
100
AcDbPolyline
 62
250
  6
CONTINUOUS
 90
10
 70
0
 10
5.3809155976
 20
5.4417338478
 10
5.2940915266
 20
5.4341423548
 10
5.2099055564
 20
5.4115985381
 10
5.1309156347
 20
5.3747873779
 10
5.0595218312
 20
5.3248273613
 10
4.9978934105
 20
5.2632364958
 10
4.947902921
 20
5.1918861849
 10
4.911069301
 20
5.1129443691
 10
4.8885117251
 20
5.0288096553
 10
4.8809155976
 20
4.9420384343
  0
LWPOLYLINE
  5
3AC
100
AcDbEntity
  8
0
100
AcDbPolyline
 62
250
  6
CONTINUOUS
 90
22
 70
0
 10
11.2432802864
 20
5.9414292613
 10
11.2656594452
 20
5.9423457939
 10
11.2875334275
 20
5.9447666244
 10
11.3089022334
 20
5.948691753
 10
11.3297924144
 20
5.9541393502
 10
11.350177419
 20
5.9610912454
 10
11.3699775923
 20
5.9694929267
 10
11.3892937813
 20
5.9793938304
 10
11.4080251389
 20
5.9907445201
 10
11.4257894698
 20
6.0033421752
 10
11.4425431809
 20
6.0172042649
 10
11.4583298652
 20
6.0323133199
 10
11.4728981065
 20
6.0484141117
 10
11.4861897373
 20
6.0653948311
 10
11.4982629252
 20
6.0833672873
 10
11.5090407566
 20
6.1024116796
 10
11.5186181082
 20
6.1224844667
 10
11.5269001033
 20
6.14362919
 10
11.5335251978
 20
6.1660566735
 10
11.5383728772
 20
6.1898371919
 10
11.5415636561
 20
6.2149004705
 10
11.5430975345
 20
6.2412465094
  0
LWPOLYLINE
  5
3AD
100
AcDbEntity
  8
0
100
AcDbPolyline
 62
250
  6
CONTINUOUS
 90
22
 70
0
 10
11.2432802864
 20
5.4417338478
 10
11.3024370491
 20
5.4439693382
 10
11.3608296369
 20
5.4505083766
 10
11.4181538428
 20
5.4612187848
 10
11.4739087957
 20
5.4758837947
 10
11.5280502505
 20
5.4943678912
 10
11.5809397813
 20
5.5167702792
 10
11.6325536418
 20
5.5431699121
 10
11.6823117501
 20
5.5733626927
 10
11.7297269365
 20
5.6070794569
 10
11.7745001535
 20
5.6440927557
 10
11.8164553586
 20
5.6842411916
 10
11.8553458379
 20
5.7272754179
 10
11.8907693997
 20
5.7726714343
 10
11.9228015115
 20
5.8204403996
 10
11.9517624248
 20
5.871232743
 10
11.9772782026
 20
5.9247927432
 10
11.9990670855
 20
5.98099808
 10
12.017133732
 20
6.0408732816
 10
12.0309353895
 20
6.1046338984
 10
12.039698148
 20
6.1715594382
 10
12.042792948
 20
6.2412465094
  0
LINE
  5
3AE
100
AcDbEntity
  8
0
100
AcDbLine
 62
7
  6
CONTINUOUS
 10
19.9809155976
 20
5.311917642
 11
19.5809155976
 21
5.311917642
  0
LINE
  5
3AF
100
AcDbEntity
  8
0
100
AcDbLine
 62
7
  6
CONTINUOUS
 10
5.7809155976
 20
5.311917642
 11
5.3809155976
 21
5.311917642
  0
LINE
  5
3B0
100
AcDbEntity
  8
0
100
AcDbLine
 62
7
  6
CONTINUOUS
 10
19.5809155976
 20
5.3538225654
 11
15.1809155976
 21
5.3538225654
  0
LINE
  5
3B1
100
AcDbEntity
  8
0
100
AcDbLine
 62
7
  6
CONTINUOUS
 10
10.1809155976
 20
5.3538225654
 11
5.7809155976
 21
5.3538225654
  0
LINE
  5
3B2
100
AcDbEntity
  8
0
100
AcDbLine
 62
250
  6
CONTINUOUS
 10
5.3809155976
 20
5.4417338478
 11
11.2432802864
 21
5.4417338478
  0
LINE
  5
3B3
100
AcDbEntity
  8
0
100
AcDbLine
 62
250
  6
CONTINUOUS
 10
14.1185509088
 20
5.4417338478
 11
19.9809155976
 21
5.4417338478
  0
LINE
  5
3B4
100
AcDbEntity
  8
0
100
AcDbLine
 62
250
  6
CONTINUOUS
 10
5.3809155976
 20
5.9414292613
 11
11.2432802864
 21
5.9414292613
  0
LINE
  5
3B5
100
AcDbEntity
  8
0
100
AcDbLine
 62
250
  6
CONTINUOUS
 10
14.1185509088
 20
5.9414292613
 11
19.9809155976
 21
5.9414292613
  0
LINE
  5
3B6
100
AcDbEntity
  8
0
100
AcDbLine
 62
250
  6
CONTINUOUS
 10
12.042792948
 20
6.2412465094
 11
11.5430975345
 21
6.2412465094
  0
LINE
  5
3B7
100
AcDbEntity
  8
0
100
AcDbLine
 62
250
  6
CONTINUOUS
 10
13.3190382471
 20
6.2412465094
 11
13.8187336607
 21
6.2412465094
  0
LINE
  5
3B8
100
AcDbEntity
  8
0
100
AcDbLine
 62
250
  6
CONTINUOUS
 10
13.0425548095
 20
6.5528944035
 11
12.3192763856
 21
6.5528944035
  0
LWPOLYLINE
  5
3B9
100
AcDbEntity
  8
0
100
AcDbPolyline
 62
250
  6
CONTINUOUS
 90
10
 70
0
 10
19.9809155976
 20
5.4417338478
 10
20.0677396685
 20
5.4341423548
 10
20.1519256387
 20
5.4115985381
 10
20.2309155604
 20
5.374787378
 10
20.3023093638
 20
5.3248273614
 10
20.3639377845
 20
5.2632364959
 10
20.413928274
 20
5.191886185
 10
20.4507618941
 20
5.1129443692
 10
20.47331947
 20
5.0288096553
 10
20.4809155976
 20
4.9420384343
  0
LWPOLYLINE
  5
3BA
100
AcDbEntity
  8
0
100
AcDbPolyline
 62
7
  6
CONTINUOUS
 90
10
 70
0
 10
12.042792948
 20
11.6483993841
 10
12.0321643819
 20
11.6612363715
 10
12.0068098443
 20
11.686272333
 10
11.9676850635
 20
11.7235072685
 10
11.9160435951
 20
11.774978235
 10
11.8536305634
 20
11.8386481756
 10
11.7827864128
 20
11.9084059193
 10
11.7059147119
 20
11.982214409
 10
11.6252404965
 20
12.0621107017
 10
11.5430975345
 20
12.1480947976
  0
LWPOLYLINE
  5
3BB
100
AcDbEntity
  8
0
100
AcDbPolyline
 62
250
  6
CONTINUOUS
 90
7
 70
0
 10
20.674399315
 20
-2.849952168
 10
20.7112034602
 20
-2.9177372446
 10
20.7544118065
 20
-2.9794205857
 10
20.8030814808
 20
-3.0291364032
 10
20.8568981918
 20
-3.0649294347
 10
20.9161762307
 20
-3.0887549426
 10
20.9809155976
 20
-3.100612927
  0
LINE
  5
3BC
100
AcDbEntity
  8
RACCORDO
100
AcDbLine
 62
7
  6
CONTINUOUS
 10
22.6315314308
 20
-7.0225341897
 11
22.5830782757
 21
-6.8971249872
  0
LINE
  5
3BD
100
AcDbEntity
  8
0
100
AcDbLine
 62
7
  6
CONTINUOUS
 10
18.800942386
 20
4.3201855767
 11
19.1809155976
 21
2.1652504102
  0
LINE
  5
3BE
100
AcDbEntity
  8
0
100
AcDbLine
 62
7
  6
CONTINUOUS
 10
15.6966987004
 20
18.8885616829
 11
15.7063503125
 21
18.8152504102
  0
LINE
  5
3BF
100
AcDbEntity
  8
0
100
AcDbLine
 62
7
  6
CONTINUOUS
 10
17.0125680952
 20
19.1652504102
 11
17.002916483
 21
19.2385616829
  0
LINE
  5
3C0
100
AcDbEntity
  8
DRAFT
100
AcDbLine
 62
7
  6
CONTINUOUS
 10
22.4309155976
 20
-18.7787092686
 11
22.4117150261
 21
-18.5847495898
  0
LWPOLYLINE
  5
3C1
100
AcDbEntity
  8
0
100
AcDbPolyline
 62
250
  6
CONTINUOUS
 90
8
 70
0
 10
20.5882159919
 20
1.5092244622
 10
20.5923567652
 20
1.4661219635
 10
20.5970976359
 20
1.4242605014
 10
20.602409055
 20
1.3837811016
 10
20.6083205715
 20
1.3445427382
 10
20.6146207438
 20
1.3065012589
 10
20.6212753942
 20
1.269712593
 10
20.6283187003
 20
1.2341208112
  0
LINE
  5
3C2
100
AcDbEntity
  8
0
100
AcDbLine
 62
250
  6
CONTINUOUS
 10
20.5829948304
 20
-2.4405959157
 11
20.590474618
 21
-2.5301430966
  0
LINE
  5
3C3
100
AcDbEntity
  8
0
100
AcDbLine
 62
250
  6
CONTINUOUS
 10
20.5849754056
 20
1.5531890721
 11
20.5882159919
 21
1.5092244622
  0
LINE
  5
3C4
100
AcDbEntity
  8
0
100
AcDbLine
 62
250
  6
CONTINUOUS
 10
20.5809155976
 20
-2.3472107696
 11
20.5829948304
 21
-2.4405959157
  0
LWPOLYLINE
  5
3C5
100
AcDbEntity
  8
0
100
AcDbPolyline
 62
250
  6
CONTINUOUS
 90
4
 70
0
 10
20.580954858
 20
1.6898766443
 10
20.581213147
 20
1.6439390922
 10
20.5826441828
 20
1.5981330265
 10
20.5849754056
 20
1.5531890721
  0
LINE
  5
3C6
100
AcDbEntity
  8
0
100
AcDbLine
 62
250
  6
CONTINUOUS
 10
19.9809155976
 20
-6.610928441
 11
19.9809155976
 21
-5.9814168217
  0
LINE
  5
3C7
100
AcDbEntity
  8
0
100
AcDbLine
 62
250
  6
CONTINUOUS
 10
19.9809155976
 20
5.311917642
 11
19.9809155976
 21
5.9414292613
  0
LINE
  5
3C8
100
AcDbEntity
  8
0
100
AcDbLine
 62
7
  6
CONTINUOUS
 10
20.4809155976
 20
-5.7449030372
 11
20.4809155976
 21
-5.611537614
  0
LINE
  5
3C9
100
AcDbEntity
  8
0
100
AcDbLine
 62
7
  6
CONTINUOUS
 10
20.4809155976
 20
-5.4811120496
 11
20.4809155976
 21
-1.6721010961
  0
LINE
  5
3CA
100
AcDbEntity
  8
0
100
AcDbLine
 62
7
  6
CONTINUOUS
 10
20.4809155976
 20
1.0026019164
 11
20.4809155976
 21
4.8116128699
  0
LINE
  5
3CB
100
AcDbEntity
  8
0
100
AcDbLine
 62
7
  6
CONTINUOUS
 10
20.4809155976
 20
5.0075750296
 11
20.4809155976
 21
5.0754038575
  0
LINE
  5
3CC
100
AcDbEntity
  8
0
100
AcDbLine
 62
250
  6
CONTINUOUS
 10
20.5809155976
 20
-2.3472107696
 11
20.5809155976
 21
-1.7708902515
  0
LINE
  5
3CD
100
AcDbEntity
  8
0
100
AcDbLine
 62
7
  6
CONTINUOUS
 10
20.7809155976
 20
1.677949431
 11
20.7809155976
 21
0.1987450302
  0
LINE
  5
3CE
100
AcDbEntity
  8
0
100
AcDbLine
 62
7
  6
CONTINUOUS
 10
20.7809155976
 20
-2.3477769909
 11
20.7809155976
 21
-0.8674805906
  0
LINE
  5
3CF
100
AcDbEntity
  8
0
100
AcDbLine
 62
250
  6
CONTINUOUS
 10
20.9809155976
 20
-3.100612927
 11
20.9809155976
 21
2.4311137473
  0
LWPOLYLINE
  5
3D0
100
AcDbEntity
  8
0
100
AcDbPolyline
 62
250
  6
CONTINUOUS
 90
19
 70
0
 10
20.7809155976
 20
1.6777139169
 10
20.7812259173
 20
1.7197006284
 10
20.7821705566
 20
1.760874074
 10
20.7837686137
 20
1.8012201242
 10
20.7860465796
 20
1.8409133987
 10
20.7890144447
 20
1.8797434978
 10
20.7926416551
 20
1.9171194147
 10
20.7969075166
 20
1.9528992792
 10
20.8018047806
 20
1.9871902819
 10
20.8072892668
 20
2.0197807248
 10
20.8133177025
 20
2.0505606948
 10
20.819875861
 20
2.0796116512
 10
20.8269569173
 20
2.1070104502
 10
20.8344855898
 20
2.1326402342
 10
20.8424783715
 20
2.1565917213
 10
20.8510997858
 20
2.1792359917
 10
20.8604156396
 20
2.2006674877
 10
20.8703582426
 20
2.2207221798
 10
20.8809155976
 20
2.2393644474
  0
LWPOLYLINE
  5
3D1
100
AcDbEntity
  8
0
100
AcDbPolyline
 62
7
  6
CONTINUOUS
 90
10
 70
0
 10
20.7809155976
 20
-0.8678424603
 10
20.7831292013
 20
-0.7528311627
 10
20.7847893888
 20
-0.63545528
 10
20.7858961601
 20
-0.5162483799
 10
20.7864494949
 20
-0.3954814661
 10
20.7864494135
 20
-0.2740033001
 10
20.7858959769
 20
-0.1532378899
 10
20.7847892056
 20
-0.0340339543
 10
20.7831290791
 20
0.0833375849
 10
20.7809155976
 20
0.1983432806
  0
LINE
  5
3D2
100
AcDbEntity
  8
0
100
AcDbLine
 62
250
  6
CONTINUOUS
 10
20.5819169351
 20
1.7359818378
 11
20.580954858
 21
1.6898766443
  0
LWPOLYLINE
  5
3D3
100
AcDbEntity
  8
0
100
AcDbPolyline
 62
7
  6
CONTINUOUS
 90
10
 70
0
 10
20.4809155976
 20
-5.7449030372
 10
20.4715512888
 20
-5.8485211014
 10
20.4494034571
 20
-5.9504352765
 10
20.4144721026
 20
-6.0506455625
 10
20.3651096101
 20
-6.1493444471
 10
20.3029635948
 20
-6.2463394427
 10
20.2329769014
 20
-6.3410530861
 10
20.1567971449
 20
-6.4332928898
 10
20.0727767103
 20
-6.5232513414
 10
19.9809155976
 20
-6.610928441
  0
LINE
  5
3D4
100
AcDbEntity
  8
DRAFT
100
AcDbLine
 62
7
  6
CONTINUOUS
 10
22.4309155976
 20
18.1092100889
 11
22.4117150261
 21
17.9152504102
  0
LINE
  5
3D5
100
AcDbEntity
  8
RACCORDO
100
AcDbLine
 62
7
  6
CONTINUOUS
 10
16.8630695992
 20
-21.0344894446
 11
16.8627082264
 21
-21.036912268
  0
LWPOLYLINE
  5
3D6
100
AcDbEntity
  8
0
100
AcDbPolyline
 62
250
  6
CONTINUOUS
 90
6
 70
0
 10
20.6057452535
 20
1.9592501028
 10
20.5983993134
 20
1.9166147408
 10
20.5922929482
 20
1.8725349692
 10
20.5874890325
 20
1.8277475932
 10
20.584051759
 20
1.7822185177
 10
20.5819169351
 20
1.7359818378
  0
LINE
  5
3D7
100
AcDbEntity
  8
RACCORDO
100
AcDbLine
 62
250
  6
CONTINUOUS
 10
2.7302997644
 20
-20.7853768461
 11
2.7787529195
 21
-20.736923691
  0
LINE
  5
3D8
100
AcDbEntity
  8
0
100
AcDbLine
 62
7
  6
CONTINUOUS
 10
3.8576043249
 20
-19.9080608625
 11
3.9309155976
 21
-19.8347495898
  0
LINE
  5
3D9
100
AcDbEntity
  8
RACCORDO
100
AcDbLine
 62
250
  6
CONTINUOUS
 10
3.0302883413
 20
-21.085365423
 11
3.0787381938
 21
-21.036912268
  0
LINE
  5
3DA
100
AcDbEntity
  8
0
100
AcDbLine
 62
250
  6
CONTINUOUS
 10
13.0762568617
 20
7.5522852305
 11
12.2855743334
 21
7.5522852305
  0
LINE
  5
3DB
100
AcDbEntity
  8
0
100
AcDbLine
 62
7
  6
CONTINUOUS
 10
13.1892220414
 20
7.6652504102
 11
12.1726091538
 21
7.6652504102
  0
LINE
  5
3DC
100
AcDbEntity
  8
RACCORDO
100
AcDbLine
 62
250
  6
CONTINUOUS
 10
2.7302997644
 20
20.1158776664
 11
2.7787529195
 21
20.0674278139
  0
LINE
  5
3DD
100
AcDbEntity
  8
0
100
AcDbLine
 62
7
  6
CONTINUOUS
 10
3.8576043249
 20
19.2385616829
 11
3.9309155976
 21
19.1652504102
  0
LINE
  5
3DE
100
AcDbEntity
  8
RACCORDO
100
AcDbLine
 62
250
  6
CONTINUOUS
 10
3.0302883413
 20
20.4158662433
 11
3.0787414964
 21
20.3674130883
  0
LINE
  5
3DF
100
AcDbEntity
  8
0
100
AcDbLine
 62
7
  6
CONTINUOUS
 10
12.1389071015
 20
11.5522852305
 11
12.042792948
 21
11.6483993841
  0
LINE
  5
3E0
100
AcDbEntity
  8
0
100
AcDbLine
 62
250
  6
CONTINUOUS
 10
20.6510544962
 20
1.1331138316
 11
20.6591804884
 21
1.1013911761
  0
LWPOLYLINE
  5
3E1
100
AcDbEntity
  8
0
100
AcDbPolyline
 62
250
  6
CONTINUOUS
 90
4
 70
0
 10
20.6283187003
 20
1.2341208112
 10
20.6356417536
 20
1.1995139726
 10
20.6432082513
 20
1.1658214305
 10
20.6510544962
 20
1.1331138316
  0
LWPOLYLINE
  5
3E2
100
AcDbEntity
  8
0
100
AcDbPolyline
 62
250
  6
CONTINUOUS
 90
5
 70
0
 10
20.590474618
 20
-2.5301430966
 10
20.6033549602
 20
-2.6158523123
 10
20.6213013083
 20
-2.6984781528
 10
20.644648211
 20
-2.7772660282
 10
20.674399315
 20
-2.849952168
  0
LINE
  5
3E3
100
AcDbEntity
  8
0
100
AcDbLine
 62
7
  6
CONTINUOUS
 10
21.5042268703
 20
15.2212907314
 11
21.4850262988
 21
15.4152504102
  0
LWPOLYLINE
  5
3E4
100
AcDbEntity
  8
0
100
AcDbPolyline
 62
250
  6
CONTINUOUS
 90
3
 70
0
 10
22.4809155976
 20
1.6777115899
 10
22.4788359202
 20
1.7710996547
 10
22.4713561864
 20
1.8606476914
  0
LINE
  5
3E5
100
AcDbEntity
  8
RACCORDO
100
AcDbLine
 62
250
  6
CONTINUOUS
 10
22.8352032056
 20
-2.812877424
 11
22.843930738
 21
-5.6485183338
  0
LINE
  5
3E6
100
AcDbEntity
  8
0
100
AcDbLine
 62
7
  6
CONTINUOUS
 10
21.4309155976
 20
-19.8347495898
 11
21.4309155976
 21
-12.5847495898
  0
LINE
  5
3E7
100
AcDbEntity
  8
0
100
AcDbLine
 62
7
  6
CONTINUOUS
 10
21.4309155976
 20
11.9152504102
 11
21.4309155976
 21
19.1652504102
  0
LINE
  5
3E8
100
AcDbEntity
  8
0
100
AcDbLine
 62
7
  6
CONTINUOUS
 10
21.443134143
 20
-20.7736568626
 11
21.443134143
 21
-19.8469681353
  0
LINE
  5
3E9
100
AcDbEntity
  8
0
100
AcDbLine
 62
7
  6
CONTINUOUS
 10
21.4850262988
 20
-18.5847495898
 11
21.4850262988
 21
-16.0847495898
  0
LINE
  5
3EA
100
AcDbEntity
  8
0
100
AcDbLine
 62
7
  6
CONTINUOUS
 10
21.4850262988
 20
15.4152504102
 11
21.4850262988
 21
17.9152504102
  0
LINE
  5
3EB
100
AcDbEntity
  8
0
100
AcDbLine
 62
7
  6
CONTINUOUS
 10
21.5042268703
 20
-18.7787092686
 11
21.5042268703
 21
-20.8347495898
  0
LINE
  5
3EC
100
AcDbEntity
  8
0
100
AcDbLine
 62
7
  6
CONTINUOUS
 10
21.5042268703
 20
-15.8907899111
 11
21.5042268703
 21
-13.2142612091
  0
LINE
  5
3ED
100
AcDbEntity
  8
0
100
AcDbLine
 62
7
  6
CONTINUOUS
 10
21.5042268703
 20
12.5447620294
 11
21.5042268703
 21
15.2212907314
  0
LINE
  5
3EE
100
AcDbEntity
  8
0
100
AcDbLine
 62
7
  6
CONTINUOUS
 10
21.5042268703
 20
18.1092100889
 11
21.5042268703
 21
19.2385616829
  0
LINE
  5
3EF
100
AcDbEntity
  8
0
100
AcDbLine
 62
7
  6
CONTINUOUS
 10
22.0309155976
 20
-16.3347495898
 11
22.0309155976
 21
-18.3347495898
  0
LINE
  5
3F0
100
AcDbEntity
  8
0
100
AcDbLine
 62
7
  6
CONTINUOUS
 10
22.0309155976
 20
15.6652504102
 11
22.0309155976
 21
17.6652504102
  0
LINE
  5
3F1
100
AcDbEntity
  8
0
100
AcDbLine
 62
250
  6
CONTINUOUS
 10
22.0809155976
 20
-3.100612927
 11
22.0809155976
 21
2.4311137473
  0
LINE
  5
3F2
100
AcDbEntity
  8
0
100
AcDbLine
 62
7
  6
CONTINUOUS
 10
22.2809155976
 20
1.6760619493
 11
22.2809155976
 21
-2.3471729063
  0
LINE
  5
3F3
100
AcDbEntity
  8
RACCORDO
100
AcDbLine
 62
250
  6
CONTINUOUS
 10
22.2830896988
 20
-20.7869217872
 11
22.2830896988
 21
-21.036912268
  0
LINE
  5
3F4
100
AcDbEntity
  8
RACCORDO
100
AcDbLine
 62
250
  6
CONTINUOUS
 10
22.2830896988
 20
20.1174226075
 11
22.2830896988
 21
20.3674130883
  0
LINE
  5
3F5
100
AcDbEntity
  8
RACCORDO
100
AcDbLine
 62
250
  6
CONTINUOUS
 10
22.3330877949
 20
20.0674245114
 11
22.3330877949
 21
19.7452281212
  0
LINE
  5
3F6
100
AcDbEntity
  8
RACCORDO
100
AcDbLine
 62
250
  6
CONTINUOUS
 10
22.3330877949
 20
-20.4147271813
 11
22.3330877949
 21
-20.736923691
  0
LINE
  5
3F7
100
AcDbEntity
  8
0
100
AcDbLine
 62
7
  6
CONTINUOUS
 10
22.3576043249
 20
11.9152504102
 11
22.3576043249
 21
5.6593373609
  0
LINE
  5
3F8
100
AcDbEntity
  8
0
100
AcDbLine
 62
7
  6
CONTINUOUS
 10
22.3576043249
 20
-6.3288365406
 11
22.3576043249
 21
-12.5847495898
  0
LINE
  5
3F9
100
AcDbEntity
  8
DRAFT
100
AcDbLine
 62
7
  6
CONTINUOUS
 10
22.4117150261
 20
-18.5847495898
 11
22.4117150261
 21
-18.3347495898
  0
LINE
  5
3FA
100
AcDbEntity
  8
DRAFT
100
AcDbLine
 62
7
  6
CONTINUOUS
 10
22.4117150261
 20
-16.3347495898
 11
22.4117150261
 21
-16.0847495898
  0
LINE
  5
3FB
100
AcDbEntity
  8
DRAFT
100
AcDbLine
 62
7
  6
CONTINUOUS
 10
22.4117150261
 20
15.4152504102
 11
22.4117150261
 21
15.6652504102
  0
LINE
  5
3FC
100
AcDbEntity
  8
DRAFT
100
AcDbLine
 62
7
  6
CONTINUOUS
 10
22.4117150261
 20
17.6652504102
 11
22.4117150261
 21
17.9152504102
  0
LINE
  5
3FD
100
AcDbEntity
  8
RACCORDO
100
AcDbLine
 62
7
  6
CONTINUOUS
 10
22.4309155976
 20
-20.0348714337
 11
22.4309155976
 21
-18.7787092686
  0
LINE
  5
3FE
100
AcDbEntity
  8
DRAFT
100
AcDbLine
 62
7
  6
CONTINUOUS
 10
22.4309155976
 20
-15.8907899111
 11
22.4309155976
 21
-14.2677622917
  0
LINE
  5
3FF
100
AcDbEntity
  8
0
100
AcDbLine
 62
7
  6
CONTINUOUS
 10
22.4309155976
 20
-13.4017368879
 11
22.4309155976
 21
-13.2142612091
  0
LINE
  5
400
100
AcDbEntity
  8
0
100
AcDbLine
 62
7
  6
CONTINUOUS
 10
22.4309155976
 20
12.5447620294
 11
22.4309155976
 21
12.7322377083
  0
LINE
  5
401
100
AcDbEntity
  8
DRAFT
100
AcDbLine
 62
7
  6
CONTINUOUS
 10
22.4309155976
 20
13.5982631121
 11
22.4309155976
 21
15.2212907314
  0
LINE
  5
402
100
AcDbEntity
  8
RACCORDO
100
AcDbLine
 62
7
  6
CONTINUOUS
 10
22.4309155976
 20
18.1092100889
 11
22.4309155976
 21
19.365372254
  0
LINE
  5
403
100
AcDbEntity
  8
0
100
AcDbLine
 62
250
  6
CONTINUOUS
 10
22.4809155976
 20
1.6777115899
 11
22.4809155976
 21
-2.3472107696
  0
LINE
  5
404
100
AcDbEntity
  8
RACCORDO
100
AcDbLine
 62
7
  6
CONTINUOUS
 10
22.5830782757
 20
20.0674245114
 11
22.5830782757
 21
17.6652504102
  0
LINE
  5
405
100
AcDbEntity
  8
RACCORDO
100
AcDbLine
 62
7
  6
CONTINUOUS
 10
22.5830782757
 20
15.6652504102
 11
22.5830782757
 21
13.4591391909
  0
LINE
  5
406
100
AcDbEntity
  8
RACCORDO
100
AcDbLine
 62
7
  6
CONTINUOUS
 10
22.5830782757
 20
12.8713616294
 11
22.5830782757
 21
6.2276258075
  0
LINE
  5
407
100
AcDbEntity
  8
RACCORDO
100
AcDbLine
 62
7
  6
CONTINUOUS
 10
22.5830782757
 20
-6.8971249872
 11
22.5830782757
 21
-13.5408608091
  0
LINE
  5
408
100
AcDbEntity
  8
RACCORDO
100
AcDbLine
 62
7
  6
CONTINUOUS
 10
22.5830782757
 20
-14.1286383706
 11
22.5830782757
 21
-16.3347495898
  0
LINE
  5
409
100
AcDbEntity
  8
RACCORDO
100
AcDbLine
 62
7
  6
CONTINUOUS
 10
22.5830782757
 20
-18.3347495898
 11
22.5830782757
 21
-20.7369174783
  0
LINE
  5
40A
100
AcDbEntity
  8
RACCORDO
100
AcDbLine
 62
250
  6
CONTINUOUS
 10
22.5939688143
 20
5.612720573
 11
22.5939688143
 21
5.5529459411
  0
LINE
  5
40B
100
AcDbEntity
  8
RACCORDO
100
AcDbLine
 62
250
  6
CONTINUOUS
 10
22.5939688143
 20
-6.2224451176
 11
22.5939688143
 21
-6.2822197526
  0
LINE
  5
40C
100
AcDbEntity
  8
0
100
AcDbLine
 62
7
  6
CONTINUOUS
 10
22.6315314308
 20
-16.3347495898
 11
22.6315314308
 21
-18.3347495898
  0
LINE
  5
40D
100
AcDbEntity
  8
RACCORDO
100
AcDbLine
 62
7
  6
CONTINUOUS
 10
22.6315314308
 20
-20.7853768461
 11
22.6315314308
 21
-18.3347495898
  0
LINE
  5
40E
100
AcDbEntity
  8
DRAFT
100
AcDbLine
 62
7
  6
CONTINUOUS
 10
22.6315314308
 20
-16.3347495898
 11
22.6315314308
 21
-7.0225341897
  0
LINE
  5
40F
100
AcDbEntity
  8
DRAFT
100
AcDbLine
 62
7
  6
CONTINUOUS
 10
22.6315314308
 20
6.35303501
 11
22.6315314308
 21
15.6652504102
  0
LINE
  5
410
100
AcDbEntity
  8
0
100
AcDbLine
 62
7
  6
CONTINUOUS
 10
22.6315314308
 20
15.6652504102
 11
22.6315314308
 21
17.6652504102
  0
LINE
  5
411
100
AcDbEntity
  8
RACCORDO
100
AcDbLine
 62
7
  6
CONTINUOUS
 10
22.6315314308
 20
17.6652504102
 11
22.6315314308
 21
20.1158776664
  0
LINE
  5
412
100
AcDbEntity
  8
0
100
AcDbLine
 62
7
  6
CONTINUOUS
 10
22.7809155976
 20
-5.8347686283
 11
22.7809155976
 21
5.1652694486
  0
LINE
  5
413
100
AcDbEntity
  8
RACCORDO
100
AcDbLine
 62
250
  6
CONTINUOUS
 10
22.8352032056
 20
2.1433782443
 11
22.8352032056
 21
-2.812877424
  0
LINE
  5
414
100
AcDbEntity
  8
RACCORDO
100
AcDbLine
 62
250
  6
CONTINUOUS
 10
22.843930738
 20
5.6681357973
 11
22.843930738
 21
4.9790191541
  0
LINE
  5
415
100
AcDbEntity
  8
RACCORDO
100
AcDbLine
 62
250
  6
CONTINUOUS
 10
22.843930738
 20
-5.6485183338
 11
22.843930738
 21
-6.337634977
  0
LINE
  5
416
100
AcDbEntity
  8
DRAFT
100
AcDbLine
 62
7
  6
CONTINUOUS
 10
22.9408825066
 20
5.689629487
 11
22.9408825066
 21
-6.3591286666
  0
LINE
  5
417
100
AcDbEntity
  8
RACCORDO
100
AcDbLine
 62
250
  6
CONTINUOUS
 10
22.843930738
 20
4.9790191541
 11
22.8352032056
 21
2.1433782443
  0
LWPOLYLINE
  5
418
100
AcDbEntity
  8
0
100
AcDbPolyline
 62
250
  6
CONTINUOUS
 90
31
 70
0
 10
22.2809155976
 20
-2.3472107696
 10
22.2806890946
 20
-2.383169853
 10
22.2799913699
 20
-2.4188649371
 10
22.2787956009
 20
-2.4542868565
 10
22.2770654221
 20
-2.4896595054
 10
22.2747809967
 20
-2.5247335296
 10
22.2719661218
 20
-2.558790446
 10
22.2686220844
 20
-2.5917539426
 10
22.2647532545
 20
-2.623674359
 10
22.2604388779
 20
-2.6540309906
 10
22.2557436537
 20
-2.6825806765
 10
22.2506691916
 20
-2.7095539884
 10
22.245218591
 20
-2.7351451482
 10
22.2394186194
 20
-2.7593542094
 10
22.2332909015
 20
-2.7821683427
 10
22.2268181903
 20
-2.8037581564
 10
22.2200020038
 20
-2.8241735153
 10
22.2128757256
 20
-2.8433480847
 10
22.205464659
 20
-2.8612760358
 10
22.1978391467
 20
-2.8778746657
 10
22.1899730438
 20
-2.8932176298
 10
22.1817338081
 20
-2.907523171
 10
22.1731760141
 20
-2.9208161467
 10
22.1642660797
 20
-2.9330396063
 10
22.154706289
 20
-2.9442516797
 10
22.1444743828
 20
-2.9545821226
 10
22.133592026
 20
-2.963804193
 10
22.1218024348
 20
-2.9713865631
 10
22.1090267033
 20
-2.9770822704
 10
22.0953817422
 20
-2.9809573091
 10
22.0809155976
 20
-2.9829166148
  0
LWPOLYLINE
  5
419
100
AcDbEntity
  8
RACCORDO
100
AcDbPolyline
 62
250
  6
CONTINUOUS
 90
22
 70
0
 10
22.3330877949
 20
-20.736923691
 10
22.3330420468
 20
-20.7396352706
 10
22.3328083512
 20
-20.7424165351
 10
22.3323867081
 20
-20.7452674847
 10
22.3317937697
 20
-20.7482018028
 10
22.3310128839
 20
-20.751205806
 10
22.3299940933
 20
-20.7542384435
 10
22.3287362711
 20
-20.7573082059
 10
22.3272405442
 20
-20.7604066027
 10
22.3254603365
 20
-20.7634671114
 10
22.3233843333
 20
-20.7665037356
 10
22.3210238493
 20
-20.7695024718
 10
22.318366252
 20
-20.7723547874
 10
22.3153927646
 20
-20.7750653245
 10
22.3121221639
 20
-20.7776294409
 10
22.3085981474
 20
-20.7799246783
 10
22.3048030594
 20
-20.7819429184
 10
22.3007545557
 20
-20.7836922794
 10
22.2965493012
 20
-20.7850746572
 10
22.2922195178
 20
-20.7860573505
 10
22.2877329836
 20
-20.7866730604
 10
22.2830896988
 20
-20.7869217872
  0
LINE
  5
41A
100
AcDbEntity
  8
0
100
AcDbLine
 62
7
  6
CONTINUOUS
 10
21.5042268703
 20
-15.8907899111
 11
21.4850262988
 21
-16.0847495898
  0
LWPOLYLINE
  5
41B
100
AcDbEntity
  8
RACCORDO
100
AcDbPolyline
 62
7
  6
CONTINUOUS
 90
7
 70
0
 10
22.8352032056
 20
-2.812877424
 10
22.8325599465
 20
-2.81562126
 10
22.8257944728
 20
-2.8184078145
 10
22.8150136888
 20
-2.8211452099
 10
22.8003916332
 20
-2.8237058951
 10
22.7821672764
 20
-2.8260436524
 10
22.7809155976
 20
-2.8261687473
  0
LWPOLYLINE
  5
41C
100
AcDbEntity
  8
0
100
AcDbPolyline
 62
7
  6
CONTINUOUS
 90
10
 70
0
 10
19.9809155976
 20
5.9414292613
 10
20.0728200911
 20
5.8536950625
 10
20.156864498
 20
5.7637071483
 10
20.2330488183
 20
5.6714655187
 10
20.3030092492
 20
5.5767955018
 10
20.3651095934
 20
5.4798717694
 10
20.4144412595
 20
5.3812183373
 10
20.4493680503
 20
5.2810098772
 10
20.471526163
 20
5.1790717172
 10
20.4809155976
 20
5.0754038575
  0
LWPOLYLINE
  5
41D
100
AcDbEntity
  8
RACCORDO
100
AcDbPolyline
 62
7
  6
CONTINUOUS
 90
7
 70
0
 10
22.8352032056
 20
2.1433782443
 10
22.8325590662
 20
2.1462701142
 10
22.8257913539
 20
2.1490264107
 10
22.8150083209
 20
2.1516471337
 10
22.8003859242
 20
2.1541712913
 10
22.7821638785
 20
2.1565598754
 10
22.7809155976
 20
2.1566837572
  0
LWPOLYLINE
  5
41E
100
AcDbEntity
  8
0
100
AcDbPolyline
 62
250
  6
CONTINUOUS
 90
11
 70
0
 10
22.4713561864
 20
1.8606476914
 10
22.4584763962
 20
1.9463557
 10
22.440531212
 20
2.0289767662
 10
22.4171859714
 20
2.1077578042
 10
22.3874366867
 20
2.1804395569
 10
22.3506350839
 20
2.2482249689
 10
22.307429437
 20
2.3099110956
 10
22.2587605814
 20
2.3596298459
 10
22.2049421289
 20
2.3954251894
 10
22.1456604676
 20
2.4192531566
 10
22.0809155976
 20
2.4311137473
  0
LINE
  5
41F
100
AcDbEntity
  8
DRAFT
100
AcDbLine
 62
7
  6
CONTINUOUS
 10
22.4309155976
 20
15.2212907314
 11
22.4117150261
 21
15.4152504102
  0
LINE
  5
420
100
AcDbEntity
  8
RACCORDO
100
AcDbLine
 62
7
  6
CONTINUOUS
 10
23.6809155976
 20
-21.7348066973
 11
23.6809155976
 21
21.0653075176
  0
LWPOLYLINE
  5
421
100
AcDbEntity
  8
RACCORDO
100
AcDbPolyline
 62
250
  6
CONTINUOUS
 90
22
 70
0
 10
22.583078276
 20
-20.7369174787
 10
22.5826422614
 20
-20.753072988
 10
22.5812712352
 20
-20.7697822987
 10
22.5788686257
 20
-20.7869848527
 10
22.5753434426
 20
-20.8045877943
 10
22.5705997726
 20
-20.8225277148
 10
22.5645255781
 20
-20.8407667242
 10
22.5570244209
 20
-20.8591888978
 10
22.5480063906
 20
-20.8776635352
 10
22.5373563979
 20
-20.8960984971
 10
22.5249679116
 20
-20.9143576482
 10
22.510794786
 20
-20.9322134453
 10
22.4948341559
 20
-20.9494134934
 10
22.4770447252
 20
-20.9657667596
 10
22.4574538944
 20
-20.9810241798
 10
22.4362323987
 20
-20.9948686497
 10
22.4134537188
 20
-21.0070977543
 10
22.3892323982
 20
-21.017500218
 10
22.363882924
 20
-21.0258228074
 10
22.3376405103
 20
-21.0319073246
 10
22.3106390887
 20
-21.0356428605
 10
22.2830896988
 20
-21.036912268
  0
LINE
  5
422
100
AcDbEntity
  8
DRAFT
100
AcDbLine
 62
7
  6
CONTINUOUS
 10
22.4309155976
 20
-15.8907899111
 11
22.4117150261
 21
-16.0847495898
  0
LINE
  5
423
100
AcDbEntity
  8
RACCORDO
100
AcDbLine
 62
250
  6
CONTINUOUS
 10
22.5939688143
 20
-6.2822197526
 11
22.3576043249
 21
-6.7891050359
  0
LINE
  5
424
100
AcDbEntity
  8
RACCORDO
100
AcDbLine
 62
250
  6
CONTINUOUS
 10
22.843930738
 20
-6.337634977
 11
22.5830592383
 21
-6.8970757136
  0
LINE
  5
425
100
AcDbEntity
  8
DRAFT
100
AcDbLine
 62
7
  6
CONTINUOUS
 10
22.9408825066
 20
-6.3591286666
 11
22.6315314308
 21
-7.0225341897
  0
LWPOLYLINE
  5
426
100
AcDbEntity
  8
RACCORDO
100
AcDbPolyline
 62
7
  6
CONTINUOUS
 90
7
 70
0
 10
22.843930738
 20
-5.6485183338
 10
22.8412865987
 20
-5.6514102037
 10
22.8345188864
 20
-5.6541665002
 10
22.8237358534
 20
-5.6567872232
 10
22.8091134567
 20
-5.6593113808
 10
22.790891411
 20
-5.6616999649
 10
22.7809155976
 20
-5.6626899833
  0
LINE
  5
427
100
AcDbEntity
  8
0
100
AcDbLine
 62
7
  6
CONTINUOUS
 10
14.257476768
 20
-12.5584961699
 11
15.2886679477
 21
-11.9631376647
  0
LINE
  5
428
100
AcDbEntity
  8
0
100
AcDbLine
 62
250
  6
CONTINUOUS
 10
13.1892220414
 20
10.5528944035
 11
12.1726091538
 21
10.5528944035
  0
LINE
  5
429
100
AcDbEntity
  8
0
100
AcDbLine
 62
250
  6
CONTINUOUS
 10
13.2229240936
 20
11.5522852305
 11
12.1389071015
 21
11.5522852305
  0
LINE
  5
42A
100
AcDbEntity
  8
0
100
AcDbLine
 62
250
  6
CONTINUOUS
 10
13.3190382471
 20
11.6483993841
 11
12.042792948
 21
11.6483993841
  0
LINE
  5
42B
100
AcDbEntity
  8
0
100
AcDbLine
 62
7
  6
CONTINUOUS
 10
22.3576043249
 20
11.9152504102
 11
21.4309155976
 21
11.9152504102
  0
LINE
  5
42C
100
AcDbEntity
  8
0
100
AcDbLine
 62
7
  6
CONTINUOUS
 10
3.9309155976
 20
11.9152504102
 11
3.0042268703
 21
11.9152504102
  0
LWPOLYLINE
  5
42D
100
AcDbEntity
  8
RACCORDO
100
AcDbPolyline
 62
7
  6
CONTINUOUS
 90
7
 70
0
 10
22.843930738
 20
4.9790191541
 10
22.841287479
 20
4.9817629901
 10
22.8345220052
 20
4.9845495446
 10
22.8237412213
 20
4.98728694
 10
22.8091191656
 20
4.9898476252
 10
22.7908948088
 20
4.9921853825
 10
22.7809155976
 20
4.9931827221
  0
LINE
  5
42E
100
AcDbEntity
  8
RACCORDO
100
AcDbLine
 62
250
  6
CONTINUOUS
 10
22.3576043249
 20
6.1196058562
 11
22.5939688143
 21
5.612720573
  0
LINE
  5
42F
100
AcDbEntity
  8
RACCORDO
100
AcDbLine
 62
250
  6
CONTINUOUS
 10
22.5830592383
 20
6.2275765339
 11
22.843930738
 21
5.6681357973
  0
LINE
  5
430
100
AcDbEntity
  8
DRAFT
100
AcDbLine
 62
7
  6
CONTINUOUS
 10
22.6315314308
 20
6.35303501
 11
22.9408825066
 21
5.689629487
  0
LINE
  5
431
100
AcDbEntity
  8
0
100
AcDbLine
 62
7
  6
CONTINUOUS
 10
15.007476768
 20
-13.8575342756
 11
16.0386679477
 21
-13.2621757704
  0
LINE
  5
432
100
AcDbEntity
  8
0
100
AcDbLine
 62
250
  6
CONTINUOUS
 10
2.9393385435
 20
12.0450666159
 11
3.8660272708
 21
12.0450666159
  0
LINE
  5
433
100
AcDbEntity
  8
0
100
AcDbLine
 62
250
  6
CONTINUOUS
 10
21.4958039243
 20
12.0450666159
 11
22.4224926516
 21
12.0450666159
  0
LINE
  5
434
100
AcDbEntity
  8
0
100
AcDbLine
 62
250
  6
CONTINUOUS
 10
13.8187336607
 20
12.1480947976
 11
11.5430975345
 21
12.1480947976
  0
LINE
  5
435
100
AcDbEntity
  8
0
100
AcDbLine
 62
250
  6
CONTINUOUS
 10
2.9309155976
 20
12.5447620294
 11
3.8576043249
 21
12.5447620294
  0
LINE
  5
436
100
AcDbEntity
  8
0
100
AcDbLine
 62
250
  6
CONTINUOUS
 10
21.5042268703
 20
12.5447620294
 11
22.4309155976
 21
12.5447620294
  0
LINE
  5
437
100
AcDbEntity
  8
0
100
AcDbLine
 62
7
  6
CONTINUOUS
 10
2.9309155976
 20
15.2212907314
 11
3.8576043249
 21
15.2212907314
  0
LINE
  5
438
100
AcDbEntity
  8
0
100
AcDbLine
 62
7
  6
CONTINUOUS
 10
21.5042268703
 20
15.2212907314
 11
22.4309155976
 21
15.2212907314
  0
LINE
  5
439
100
AcDbEntity
  8
0
100
AcDbLine
 62
7
  6
CONTINUOUS
 10
22.4117150261
 20
15.4152504102
 11
21.4850262988
 21
15.4152504102
  0
LINE
  5
43A
100
AcDbEntity
  8
0
100
AcDbLine
 62
7
  6
CONTINUOUS
 10
3.8768048963
 20
15.4152504102
 11
2.950116169
 21
15.4152504102
  0
LINE
  5
43B
100
AcDbEntity
  8
0
100
AcDbLine
 62
7
  6
CONTINUOUS
 10
15.4309155976
 20
-19.4969681353
 11
15.3698228703
 21
-19.5580608625
  0
LINE
  5
43C
100
AcDbEntity
  8
0
100
AcDbLine
 62
7
  6
CONTINUOUS
 10
15.3698228703
 20
-20.4847495898
 11
15.4309155976
 21
-20.4236568626
  0
LINE
  5
43D
100
AcDbEntity
  8
0
100
AcDbLine
 62
7
  6
CONTINUOUS
 10
22.6315314308
 20
15.6652504102
 11
22.0309155976
 21
15.6652504102
  0
LINE
  5
43E
100
AcDbEntity
  8
0
100
AcDbLine
 62
7
  6
CONTINUOUS
 10
3.3309155976
 20
15.6652504102
 11
2.7302997644
 21
15.6652504102
  0
LINE
  5
43F
100
AcDbEntity
  8
0
100
AcDbLine
 62
7
  6
CONTINUOUS
 10
15.7063503125
 20
18.8152504102
 11
17.0125680952
 21
19.1652504102
  0
LINE
  5
440
100
AcDbEntity
  8
0
100
AcDbLine
 62
7
  6
CONTINUOUS
 10
15.6966987004
 20
18.8885616829
 11
17.002916483
 21
19.2385616829
  0
LINE
  5
441
100
AcDbEntity
  8
0
100
AcDbLine
 62
7
  6
CONTINUOUS
 10
15.7018449944
 20
19.8493193942
 11
16.7537684181
 21
20.1311814261
  0
LINE
  5
442
100
AcDbEntity
  8
0
100
AcDbLine
 62
7
  6
CONTINUOUS
 10
22.6315314308
 20
17.6652504102
 11
22.0309155976
 21
17.6652504102
  0
LINE
  5
443
100
AcDbEntity
  8
0
100
AcDbLine
 62
7
  6
CONTINUOUS
 10
3.3309155976
 20
17.6652504102
 11
2.7302997644
 21
17.6652504102
  0
LINE
  5
444
100
AcDbEntity
  8
0
100
AcDbLine
 62
7
  6
CONTINUOUS
 10
2.950116169
 20
17.9152504102
 11
3.8768048963
 21
17.9152504102
  0
LINE
  5
445
100
AcDbEntity
  8
0
100
AcDbLine
 62
7
  6
CONTINUOUS
 10
21.4850262988
 20
17.9152504102
 11
22.4117150261
 21
17.9152504102
  0
LINE
  5
446
100
AcDbEntity
  8
0
100
AcDbLine
 62
7
  6
CONTINUOUS
 10
2.9309155976
 20
18.1092100889
 11
3.8576043249
 21
18.1092100889
  0
LINE
  5
447
100
AcDbEntity
  8
0
100
AcDbLine
 62
7
  6
CONTINUOUS
 10
21.5042268703
 20
18.1092100889
 11
22.4309155976
 21
18.1092100889
  0
LINE
  5
448
100
AcDbEntity
  8
0
100
AcDbLine
 62
7
  6
CONTINUOUS
 10
9.6554808826
 20
18.8152504102
 11
15.7063503125
 21
18.8152504102
  0
LINE
  5
449
100
AcDbEntity
  8
0
100
AcDbLine
 62
7
  6
CONTINUOUS
 10
8.3492631
 20
19.1652504102
 11
9.6554808826
 21
18.8152504102
  0
LINE
  5
44A
100
AcDbEntity
  8
0
100
AcDbLine
 62
7
  6
CONTINUOUS
 10
8.3589147121
 20
19.2385616829
 11
9.6651324948
 21
18.8885616829
  0
LINE
  5
44B
100
AcDbEntity
  8
0
100
AcDbLine
 62
7
  6
CONTINUOUS
 10
8.608062777
 20
20.1311814261
 11
9.6599862008
 21
19.8493193942
  0
LINE
  5
44C
100
AcDbEntity
  8
0
100
AcDbLine
 62
7
  6
CONTINUOUS
 10
9.6651324948
 20
18.8885616829
 11
15.6966987004
 21
18.8885616829
  0
LINE
  5
44D
100
AcDbEntity
  8
0
100
AcDbLine
 62
7
  6
CONTINUOUS
 10
21.4309155976
 20
19.1652504102
 11
17.0125680952
 21
19.1652504102
  0
LINE
  5
44E
100
AcDbEntity
  8
0
100
AcDbLine
 62
7
  6
CONTINUOUS
 10
8.3492631
 20
19.1652504102
 11
3.9309155976
 21
19.1652504102
  0
LINE
  5
44F
100
AcDbEntity
  8
0
100
AcDbLine
 62
7
  6
CONTINUOUS
 10
21.5042268703
 20
19.2385616829
 11
17.002916483
 21
19.2385616829
  0
LINE
  5
450
100
AcDbEntity
  8
0
100
AcDbLine
 62
7
  6
CONTINUOUS
 10
8.3589147121
 20
19.2385616829
 11
3.8576043249
 21
19.2385616829
  0
LINE
  5
451
100
AcDbEntity
  8
0
100
AcDbLine
 62
7
  6
CONTINUOUS
 10
9.9187658265
 20
19.8152504102
 11
15.4430653686
 21
19.8152504102
  0
LINE
  5
452
100
AcDbEntity
  8
RACCORDO
100
AcDbLine
 62
250
  6
CONTINUOUS
 10
3.0287434002
 20
20.0674245114
 11
2.7787529195
 21
20.0674245114
  0
LINE
  5
453
100
AcDbEntity
  8
RACCORDO
100
AcDbLine
 62
250
  6
CONTINUOUS
 10
22.3330877949
 20
20.0674245114
 11
22.5830782757
 21
20.0674245114
  0
LINE
  5
454
100
AcDbEntity
  8
RACCORDO
100
AcDbLine
 62
250
  6
CONTINUOUS
 10
3.0787414964
 20
20.1174226075
 11
3.4634013399
 21
20.1174226075
  0
LINE
  5
455
100
AcDbEntity
  8
RACCORDO
100
AcDbLine
 62
250
  6
CONTINUOUS
 10
8.6594113871
 20
20.1174226075
 11
16.7024198081
 21
20.1174226075
  0
LINE
  5
456
100
AcDbEntity
  8
RACCORDO
100
AcDbLine
 62
250
  6
CONTINUOUS
 10
21.8984294898
 20
20.1174226075
 11
22.2830896988
 21
20.1174226075
  0
LINE
  5
457
100
AcDbEntity
  8
RACCORDO
100
AcDbLine
 62
7
  6
CONTINUOUS
 10
21.6310374414
 20
20.1652504102
 11
20.3639282995
 21
20.1652504102
  0
LINE
  5
458
100
AcDbEntity
  8
0
100
AcDbLine
 62
7
  6
CONTINUOUS
 10
19.4979028957
 20
20.1652504102
 11
17.0125480438
 21
20.1652504102
  0
LINE
  5
459
100
AcDbEntity
  8
0
100
AcDbLine
 62
7
  6
CONTINUOUS
 10
8.3492831513
 20
20.1652504102
 11
5.8639282995
 21
20.1652504102
  0
LINE
  5
45A
100
AcDbEntity
  8
RACCORDO
100
AcDbLine
 62
7
  6
CONTINUOUS
 10
4.9979028957
 20
20.1652504102
 11
3.7307937537
 21
20.1652504102
  0
LINE
  5
45B
100
AcDbEntity
  8
RACCORDO
100
AcDbLine
 62
7
  6
CONTINUOUS
 10
3.0787414964
 20
20.3674130883
 11
5.2226277201
 21
20.3674130883
  0
LINE
  5
45C
100
AcDbEntity
  8
RACCORDO
100
AcDbLine
 62
7
  6
CONTINUOUS
 10
5.6392034751
 20
20.3674130883
 11
19.7226277201
 21
20.3674130883
  0
LINE
  5
45D
100
AcDbEntity
  8
RACCORDO
100
AcDbLine
 62
7
  6
CONTINUOUS
 10
20.1392034751
 20
20.3674130883
 11
22.2830930013
 21
20.3674130883
  0
LINE
  5
45E
100
AcDbEntity
  8
RACCORDO
100
AcDbLine
 62
7
  6
CONTINUOUS
 10
22.3315428538
 20
20.4158662433
 11
3.0302883413
 21
20.4158662433
  0
LWPOLYLINE
  5
45F
100
AcDbEntity
  8
RACCORDO
100
AcDbPolyline
 62
250
  6
CONTINUOUS
 90
22
 70
0
 10
22.2830896988
 20
20.1174226075
 10
22.2856657514
 20
20.1173833147
 10
22.28831675
 20
20.1171711265
 10
22.2910426945
 20
20.1167860428
 10
22.2938542577
 20
20.1162454569
 10
22.2967407668
 20
20.1155319756
 10
22.2996702038
 20
20.1145934188
 10
22.3026517811
 20
20.1134301063
 10
22.3056762862
 20
20.1120417183
 10
22.3086840634
 20
20.1103751155
 10
22.3116866685
 20
20.1084266936
 10
22.3146725456
 20
20.1062000568
 10
22.3175473712
 20
20.1036528785
 10
22.3203263852
 20
20.1007667578
 10
22.3229943476
 20
20.0975600954
 10
22.3254112148
 20
20.0940457669
 10
22.3275773996
 20
20.0901947321
 10
22.3294924891
 20
20.0860360312
 10
22.3310152016
 20
20.0816696591
 10
22.3320984431
 20
20.0771289476
 10
22.3327893075
 20
20.072380565
 10
22.3330877949
 20
20.0674245114
  0
LINE
  5
460
100
AcDbEntity
  8
RACCORDO
100
AcDbLine
 62
7
  6
CONTINUOUS
 10
23.1810678937
 20
21.5652504102
 11
2.1807633014
 21
21.5652504102
  0
LWPOLYLINE
  5
461
100
AcDbEntity
  8
RACCORDO
100
AcDbPolyline
 62
250
  6
CONTINUOUS
 90
22
 70
0
 10
22.2830930011
 20
20.367413088
 10
22.2984277446
 20
20.3670197591
 10
22.3143390136
 20
20.3657790931
 10
22.3307739965
 20
20.3635960601
 10
22.3476419533
 20
20.3603814955
 10
22.3648950318
 20
20.356038616
 10
22.3825235964
 20
20.35044847
 10
22.4004214289
 20
20.3435085759
 10
22.4184662614
 20
20.3351218578
 10
22.4365903912
 20
20.3251565812
 10
22.4546295684
 20
20.3135180639
 10
22.4723998559
 20
20.3001247688
 10
22.4897575397
 20
20.2848550565
 10
22.5065028185
 20
20.2676100255
 10
22.5223375546
 20
20.2483894196
 10
22.5369446337
 20
20.2272551463
 10
22.5500729395
 20
20.2042038751
 10
22.5614088217
 20
20.1793519849
 10
22.5705985544
 20
20.1530326097
 10
22.5774004173
 20
20.125495256
 10
22.5816269806
 20
20.0968783863
 10
22.5830782757
 20
20.0674245114
  0
ARC
  5
462
100
AcDbEntity
  8
0
100
AcDbCircle
 62
7
  6
CONTINUOUS
 10
10.5809155976
 20
-14.3347495898
 40
3.8
100
AcDbArc
 50
90.0
 51
270.0
  0
ARC
  5
463
100
AcDbEntity
  8
DRAFT
100
AcDbCircle
 62
7
  6
CONTINUOUS
 10
5.4309155976
 20
-20.5847495898
 40
0.5
100
AcDbArc
 50
210.0
 51
330.0
  0
ARC
  5
464
100
AcDbEntity
  8
DRAFT
100
AcDbCircle
 62
7
  6
CONTINUOUS
 10
5.4309155976
 20
19.9152504102
 40
0.5
100
AcDbArc
 50
30.0
 51
150.0
  0
ARC
  5
465
100
AcDbEntity
  8
0
100
AcDbCircle
 62
7
  6
CONTINUOUS
 10
14.7809155976
 20
-14.3347495898
 40
3.8
100
AcDbArc
 50
270.0
 51
90.0
  0
ARC
  5
466
100
AcDbEntity
  8
0
100
AcDbCircle
 62
250
  6
CONTINUOUS
 10
12.6809155976
 20
-14.3347495898
 40
3.5248993522
100
AcDbArc
 50
42.2848500959
 51
137.7151499041
  0
ARC
  5
467
100
AcDbEntity
  8
0
100
AcDbCircle
 62
250
  6
CONTINUOUS
 10
12.6809155976
 20
-14.3347495898
 40
3.5248993522
100
AcDbArc
 50
162.2848500959
 51
257.7151499041
  0
ARC
  5
468
100
AcDbEntity
  8
0
100
AcDbCircle
 62
250
  6
CONTINUOUS
 10
12.6809155976
 20
-14.3347495898
 40
3.5248993522
100
AcDbArc
 50
282.2848500959
 51
17.7151499041
  0
ARC
  5
469
100
AcDbEntity
  8
0
100
AcDbCircle
 62
250
  6
CONTINUOUS
 10
12.6809155976
 20
-14.3347495898
 40
3.2260409428
100
AcDbArc
 50
163.4433064498
 51
256.5566935502
  0
ARC
  5
46A
100
AcDbEntity
  8
0
100
AcDbCircle
 62
250
  6
CONTINUOUS
 10
12.6809155976
 20
-14.3347495898
 40
3.2260409428
100
AcDbArc
 50
283.4433064498
 51
16.5566935502
  0
ARC
  5
46B
100
AcDbEntity
  8
0
100
AcDbCircle
 62
250
  6
CONTINUOUS
 10
12.6809155976
 20
-14.3347495898
 40
3.2260409428
100
AcDbArc
 50
43.4433064498
 51
136.5566935502
  0
ARC
  5
46C
100
AcDbEntity
  8
0
100
AcDbCircle
 62
7
  6
CONTINUOUS
 10
12.6809155976
 20
-14.3347495898
 40
3.0400272075
100
AcDbArc
 50
44.2828125326
 51
135.7171874674
  0
ARC
  5
46D
100
AcDbEntity
  8
0
100
AcDbCircle
 62
7
  6
CONTINUOUS
 10
12.6809155976
 20
-14.3347495898
 40
3.0400272075
100
AcDbArc
 50
164.2828125326
 51
255.7171874674
  0
ARC
  5
46E
100
AcDbEntity
  8
0
100
AcDbCircle
 62
7
  6
CONTINUOUS
 10
12.6809155976
 20
-14.3347495898
 40
3.0400272075
100
AcDbArc
 50
284.2828125326
 51
15.7171874674
  0
ARC
  5
46F
100
AcDbEntity
  8
0
100
AcDbCircle
 62
250
  6
CONTINUOUS
 10
12.6809155976
 20
-14.3347495898
 40
2.5921572875
100
AcDbArc
 50
46.8181054078
 51
133.1818945922
  0
ARC
  5
470
100
AcDbEntity
  8
0
100
AcDbCircle
 62
250
  6
CONTINUOUS
 10
12.6809155976
 20
-14.3347495898
 40
2.5921572875
100
AcDbArc
 50
166.8181054078
 51
253.1818945922
  0
ARC
  5
471
100
AcDbEntity
  8
0
100
AcDbCircle
 62
250
  6
CONTINUOUS
 10
12.6809155976
 20
-14.3347495898
 40
2.5921572875
100
AcDbArc
 50
286.8181054078
 51
13.1818945922
  0
ARC
  5
472
100
AcDbEntity
  8
0
100
AcDbCircle
 62
7
  6
CONTINUOUS
 10
12.6809155976
 20
-14.3347495898
 40
2.45
100
AcDbArc
 50
12.1712260281
 51
47.8320067786
  0
ARC
  5
473
100
AcDbEntity
  8
0
100
AcDbCircle
 62
7
  6
CONTINUOUS
 10
12.6809155976
 20
-14.3347495898
 40
2.45
100
AcDbArc
 50
132.1679715216
 51
167.828819857
  0
ARC
  5
474
100
AcDbEntity
  8
0
100
AcDbCircle
 62
7
  6
CONTINUOUS
 10
12.6809155976
 20
-14.3347495898
 40
2.45
100
AcDbArc
 50
252.1742941315
 51
287.8257058685
  0
ARC
  5
475
100
AcDbEntity
  8
0
100
AcDbCircle
 62
250
  6
CONTINUOUS
 10
12.6809155976
 20
-14.3347495898
 40
2.4035954792
100
AcDbArc
 50
288.181763499
 51
11.818236501
  0
ARC
  5
476
100
AcDbEntity
  8
0
100
AcDbCircle
 62
250
  6
CONTINUOUS
 10
12.6809155976
 20
-14.3347495898
 40
2.4035954792
100
AcDbArc
 50
168.181763499
 51
251.818236501
  0
ARC
  5
477
100
AcDbEntity
  8
0
100
AcDbCircle
 62
250
  6
CONTINUOUS
 10
12.6809155976
 20
-14.3347495898
 40
2.4035954792
100
AcDbArc
 50
48.181763499
 51
131.818236501
  0
ARC
  5
478
100
AcDbEntity
  8
0
100
AcDbCircle
 62
7
  6
CONTINUOUS
 10
12.6809155976
 20
-14.3347495898
 40
2.375
100
AcDbArc
 50
288.4084801706
 51
11.5915198294
  0
ARC
  5
479
100
AcDbEntity
  8
0
100
AcDbCircle
 62
7
  6
CONTINUOUS
 10
12.6809155976
 20
-14.3347495898
 40
2.375
100
AcDbArc
 50
168.4084801706
 51
251.5915198294
  0
ARC
  5
47A
100
AcDbEntity
  8
0
100
AcDbCircle
 62
7
  6
CONTINUOUS
 10
12.6809155976
 20
-14.3347495898
 40
2.375
100
AcDbArc
 50
48.4084801706
 51
131.5915198294
  0
ARC
  5
47B
100
AcDbEntity
  8
0
100
AcDbCircle
 62
7
  6
CONTINUOUS
 10
12.6809155976
 20
-4.1597495898
 40
1.5
100
AcDbArc
 50
219.2187884477
 51
320.7812115523
  0
ARC
  5
47C
100
AcDbEntity
  8
0
100
AcDbCircle
 62
7
  6
CONTINUOUS
 10
19.9309155976
 20
-20.5847495898
 40
0.3777773068
100
AcDbArc
 50
210.0032608293
 51
329.9967391707
  0
ARC
  5
47D
100
AcDbEntity
  8
0
100
AcDbCircle
 62
7
  6
CONTINUOUS
 10
12.6809155976
 20
3.4902504102
 40
1.5
100
AcDbArc
 50
39.2187884477
 51
140.7812115523
  0
ARC
  5
47E
100
AcDbEntity
  8
DRAFT
100
AcDbCircle
 62
7
  6
CONTINUOUS
 10
19.9309155976
 20
19.9152504102
 40
0.5
100
AcDbArc
 50
30.0
 51
150.0
  0
ELLIPSE
  5
47F
100
AcDbEntity
  8
RACCORDO
100
AcDbEllipse
 62
7
  6
CONTINUOUS
 10
2.1809917616
 20
-21.7345781936
 30
0.0
 11
-0.2774630169
 21
-0.416247366
 31
0.0
 40
0.9995051766
 41
-0.9826238685
 42
0.5877156075
  0
ELLIPSE
  5
480
100
AcDbEntity
  8
RACCORDO
100
AcDbEllipse
 62
7
  6
CONTINUOUS
 10
2.1809917616
 20
21.0650790139
 30
0.0
 11
0.2774630169
 21
-0.416247366
 31
0.0
 40
0.9995051766
 41
2.5538770461
 42
4.1242165221
  0
ELLIPSE
  5
481
100
AcDbEntity
  8
RACCORDO
100
AcDbEllipse
 62
7
  6
CONTINUOUS
 10
23.1808394335
 20
-21.7345781936
 30
0.0
 11
0.2774630169
 21
-0.416247366
 31
0.0
 40
0.9995051766
 41
-0.5877156075
 42
0.9826238685
  0
ELLIPSE
  5
482
100
AcDbEntity
  8
RACCORDO
100
AcDbEllipse
 62
7
  6
CONTINUOUS
 10
23.1808394335
 20
21.0650790139
 30
0.0
 11
-0.2774630169
 21
-0.416247366
 31
0.0
 40
0.9995051766
 41
2.1589687851
 42
3.7293082611
  0
ELLIPSE
  5
483
100
AcDbEntity
  8
RACCORDO
100
AcDbEllipse
 62
7
  6
CONTINUOUS
 10
22.3315200072
 20
20.1158548198
 30
0.0
 11
0.2121481893
 21
0.2121481893
 31
0.0
 40
0.9999238505
 41
-0.7853600872
 42
0.7853600872
  0
ELLIPSE
  5
484
100
AcDbEntity
  8
RACCORDO
100
AcDbEllipse
 62
7
  6
CONTINUOUS
 10
3.0303111879
 20
20.1158548198
 30
0.0
 11
0.2121481893
 21
-0.2121481893
 31
0.0
 40
0.9999238505
 41
2.3562325664
 42
3.9269527408
  0
ELLIPSE
  5
485
100
AcDbEntity
  8
RACCORDO
100
AcDbEllipse
 62
7
  6
CONTINUOUS
 10
22.3315200072
 20
-20.7853539995
 30
0.0
 11
-0.2121481893
 21
0.2121481893
 31
0.0
 40
0.9999238505
 41
-3.9269527408
 42
-2.3562325664
  0
ELLIPSE
  5
486
100
AcDbEntity
  8
RACCORDO
100
AcDbEllipse
 62
7
  6
CONTINUOUS
 10
3.0303111879
 20
-20.7853539995
 30
0.0
 11
0.2121481893
 21
0.2121481893
 31
0.0
 40
0.9999238505
 41
-3.9269527408
 42
-2.3562325664
  0
ELLIPSE
  5
487
100
AcDbEntity
  8
RACCORDO
100
AcDbEllipse
 62
7
  6
CONTINUOUS
 10
21.6307937351
 20
-20.0346277274
 30
0.0
 11
-0.5658577513
 21
0.5658577513
 31
0.0
 40
0.9996954599
 41
2.3563467834
 42
3.9268385237
  0
ELLIPSE
  5
488
100
AcDbEntity
  8
0
100
AcDbEllipse
 62
7
  6
CONTINUOUS
 10
8.3492430456
 20
19.1650980821
 30
0.0
 11
0.1305464196
 21
0.9915985036
 31
0.0
 40
0.999845056
 41
-0.1308796426
 42
0.1308796426
  0
ELLIPSE
  5
489
100
AcDbEntity
  8
0
100
AcDbEllipse
 62
7
  6
CONTINUOUS
 10
9.9188059322
 20
20.8154027382
 30
0.0
 11
-0.1305464196
 21
-0.9915985036
 31
0.0
 40
0.999845056
 41
-0.1308796426
 42
0.1308796426
  0
ELLIPSE
  5
48A
100
AcDbEntity
  8
0
100
AcDbEllipse
 62
7
  6
CONTINUOUS
 10
15.443025263
 20
20.8154027382
 30
0.0
 11
0.1305464196
 21
-0.9915985036
 31
0.0
 40
0.999845056
 41
-0.1308796426
 42
0.1308796426
  0
ELLIPSE
  5
48B
100
AcDbEntity
  8
0
100
AcDbEllipse
 62
7
  6
CONTINUOUS
 10
17.0125881495
 20
19.1650980821
 30
0.0
 11
-0.1305464196
 21
0.9915985036
 31
0.0
 40
0.999845056
 41
-0.1308796426
 42
0.1308796426
  0
ELLIPSE
  5
48C
100
AcDbEntity
  8
RACCORDO
100
AcDbEllipse
 62
7
  6
CONTINUOUS
 10
21.6307937351
 20
19.3651285477
 30
0.0
 11
-0.5658577513
 21
-0.5658577513
 31
0.0
 40
0.9996954599
 41
2.3563467834
 42
3.9268385237
  0
ELLIPSE
  5
48D
100
AcDbEntity
  8
RACCORDO
100
AcDbEllipse
 62
7
  6
CONTINUOUS
 10
3.73103746
 20
19.3651285477
 30
0.0
 11
0.5658577513
 21
-0.5658577513
 31
0.0
 40
0.9996954599
 41
2.3563467834
 42
3.9268385237
  0
ELLIPSE
  5
48E
100
AcDbEntity
  8
0
100
AcDbEllipse
 62
7
  6
CONTINUOUS
 10
8.3492430456
 20
-19.8345972618
 30
0.0
 11
-0.1305464196
 21
0.9915985036
 31
0.0
 40
0.999845056
 41
-3.2724722962
 42
-3.010713011
  0
ELLIPSE
  5
48F
100
AcDbEntity
  8
RACCORDO
100
AcDbEllipse
 62
7
  6
CONTINUOUS
 10
3.73103746
 20
-20.0346277274
 30
0.0
 11
0.5658577513
 21
0.5658577513
 31
0.0
 40
0.9996954599
 41
2.3563467834
 42
3.9268385237
  0
ELLIPSE
  5
490
100
AcDbEntity
  8
0
100
AcDbEllipse
 62
7
  6
CONTINUOUS
 10
9.9188059322
 20
-21.4849019179
 30
0.0
 11
-0.1305464196
 21
0.9915985036
 31
0.0
 40
0.999845056
 41
-0.1308796426
 42
0.1308796426
  0
ELLIPSE
  5
491
100
AcDbEntity
  8
0
100
AcDbEllipse
 62
7
  6
CONTINUOUS
 10
22.2808965584
 20
-5.8347305506
 30
0.0
 11
-0.3535803156
 21
0.3535803156
 31
0.0
 40
0.9999238505
 41
2.5101743064
 42
3.9269527408
  0
ELLIPSE
  5
492
100
AcDbEntity
  8
0
100
AcDbEllipse
 62
7
  6
CONTINUOUS
 10
3.0809346368
 20
-5.8347305506
 30
0.0
 11
0.3535803156
 21
0.3535803156
 31
0.0
 40
0.9999238505
 41
2.3562325664
 42
3.7730110008
  0
ELLIPSE
  5
493
100
AcDbEntity
  8
0
100
AcDbEllipse
 62
7
  6
CONTINUOUS
 10
3.0809346368
 20
5.165231371
 30
0.0
 11
0.3535803156
 21
-0.3535803156
 31
0.0
 40
0.9999238505
 41
2.5101743064
 42
3.9269527408
  0
ELLIPSE
  5
494
100
AcDbEntity
  8
0
100
AcDbEllipse
 62
7
  6
CONTINUOUS
 10
22.2808965584
 20
5.165231371
 30
0.0
 11
-0.3535803156
 21
-0.3535803156
 31
0.0
 40
0.9999238505
 41
2.3562325664
 42
3.7730110008
  0
ELLIPSE
  5
495
100
AcDbEntity
  8
0
100
AcDbEllipse
 62
7
  6
CONTINUOUS
 10
2.93964313
 20
-13.2142612091
 30
0.0
 11
0.0
 21
0.5
 31
0.0
 40
0.0174550649
 41
0.034906585
 42
1.5707963268
  0
ELLIPSE
  5
496
100
AcDbEntity
  8
0
100
AcDbEllipse
 62
7
  6
CONTINUOUS
 10
2.93964313
 20
12.5447620294
 30
0.0
 11
0.0
 21
0.5
 31
0.0
 40
0.0174550649
 41
-4.7123889804
 42
-3.1764992386
  0
ELLIPSE
  5
497
100
AcDbEntity
  8
0
100
AcDbEllipse
 62
7
  6
CONTINUOUS
 10
22.4221880651
 20
-13.2142612091
 30
0.0
 11
0.0
 21
0.5
 31
0.0
 40
0.0174550649
 41
-1.5707963268
 42
-0.034906585
  0
ELLIPSE
  5
498
100
AcDbEntity
  8
0
100
AcDbEllipse
 62
7
  6
CONTINUOUS
 10
22.4221880651
 20
12.5447620294
 30
0.0
 11
-0.0
 21
0.5
 31
0.0
 40
0.0174550649
 41
-3.1066860686
 42
-1.5707963268
  0
ELLIPSE
  5
499
100
AcDbEntity
  8
0
100
AcDbEllipse
 62
7
  6
CONTINUOUS
 10
21.4954993378
 20
12.5447620294
 30
0.0
 11
0.0
 21
0.5
 31
0.0
 40
0.0174550649
 41
-3.1066860686
 42
-1.5707963268
  0
ELLIPSE
  5
49A
100
AcDbEntity
  8
0
100
AcDbEllipse
 62
7
  6
CONTINUOUS
 10
18.4809155976
 20
-4.2660218662
 30
0.0
 11
0.0
 21
0.8000109664
 31
0.0
 40
0.9999862922
 41
-3.1415926536
 42
-1.5707963268
  0
ELLIPSE
  5
49B
100
AcDbEntity
  8
0
100
AcDbEllipse
 62
7
  6
CONTINUOUS
 10
6.8809155976
 20
-4.2660218662
 30
0.0
 11
0.0
 21
0.8000109664
 31
0.0
 40
0.9999862922
 41
-4.7123889804
 42
-3.1415926536
  0
ELLIPSE
  5
49C
100
AcDbEntity
  8
0
100
AcDbEllipse
 62
7
  6
CONTINUOUS
 10
21.4954993378
 20
-13.2142612091
 30
0.0
 11
-0.0
 21
0.5
 31
0.0
 40
0.0174550649
 41
-1.5707963268
 42
-0.034906585
  0
ELLIPSE
  5
49D
100
AcDbEntity
  8
0
100
AcDbEllipse
 62
7
  6
CONTINUOUS
 10
11.5430975345
 20
-9.6672892051
 30
0.0
 11
0.5
 21
-0.0
 31
0.0
 40
0.0349207695
 41
-1.5707963268
 42
-0.034906585
  0
ELLIPSE
  5
49E
100
AcDbEntity
  8
0
100
AcDbEllipse
 62
7
  6
CONTINUOUS
 10
13.8187336607
 20
-9.6672892051
 30
0.0
 11
0.5
 21
0.0
 31
0.0
 40
0.0349207695
 41
-3.1066860685
 42
-1.5707963268
  0
ELLIPSE
  5
49F
100
AcDbEntity
  8
0
100
AcDbEllipse
 62
7
  6
CONTINUOUS
 10
3.8663318573
 20
12.5447620294
 30
0.0
 11
0.0
 21
0.5
 31
0.0
 40
0.0174550649
 41
-4.7123889804
 42
-3.1764992386
  0
ELLIPSE
  5
4A0
100
AcDbEntity
  8
0
100
AcDbEllipse
 62
7
  6
CONTINUOUS
 10
3.8663318573
 20
-13.2142612091
 30
0.0
 11
0.0
 21
0.5
 31
0.0
 40
0.0174550649
 41
0.034906585
 42
1.5707963268
  0
ELLIPSE
  5
4A1
100
AcDbEntity
  8
0
100
AcDbEllipse
 62
7
  6
CONTINUOUS
 10
13.2241428109
 20
10.5528944035
 30
0.0
 11
0.0
 21
1.0
 31
0.0
 40
0.0349207695
 41
0.034906585
 42
1.5707963268
  0
ELLIPSE
  5
4A2
100
AcDbEntity
  8
0
100
AcDbEllipse
 62
7
  6
CONTINUOUS
 10
13.077475579
 20
6.5528944035
 30
0.0
 11
-0.0
 21
1.0
 31
0.0
 40
0.0349207695
 41
0.034906585
 42
1.5707963268
  0
ELLIPSE
  5
4A3
100
AcDbEntity
  8
0
100
AcDbEllipse
 62
7
  6
CONTINUOUS
 10
13.843042445
 20
-6.6352372253
 30
0.0
 11
0.5663748357
 21
-0.5663748357
 31
0.0
 40
0.998782766
 41
2.3568034778
 42
3.9263818294
  0
ELLIPSE
  5
4A4
100
AcDbEntity
  8
0
100
AcDbEllipse
 62
7
  6
CONTINUOUS
 10
5.3809155976
 20
-5.4811120496
 30
0.0
 11
-0.0
 21
-0.5003047721
 31
0.0
 40
0.999390827
 41
-1.5707963268
 42
-0.0
  0
ELLIPSE
  5
4A5
100
AcDbEntity
  8
0
100
AcDbEllipse
 62
7
  6
CONTINUOUS
 10
11.5187887502
 20
-6.6352372253
 30
0.0
 11
0.5663748357
 21
0.5663748357
 31
0.0
 40
0.998782766
 41
-0.7847891758
 42
0.7847891758
  0
ELLIPSE
  5
4A6
100
AcDbEntity
  8
0
100
AcDbEllipse
 62
7
  6
CONTINUOUS
 10
19.9809155976
 20
4.8116128699
 30
0.0
 11
0.0
 21
0.5003047721
 31
0.0
 40
0.999390827
 41
-1.5707963268
 42
0.0
  0
ELLIPSE
  5
4A7
100
AcDbEntity
  8
0
100
AcDbEllipse
 62
7
  6
CONTINUOUS
 10
11.5187887502
 20
5.9657380456
 30
0.0
 11
-0.5663748357
 21
0.5663748357
 31
0.0
 40
0.998782766
 41
-3.9263818294
 42
-2.3568034778
  0
ELLIPSE
  5
4A8
100
AcDbEntity
  8
0
100
AcDbEllipse
 62
7
  6
CONTINUOUS
 10
13.843042445
 20
5.9657380456
 30
0.0
 11
0.5663748357
 21
0.5663748357
 31
0.0
 40
0.998782766
 41
-3.9263818294
 42
-2.3568034778
  0
ELLIPSE
  5
4A9
100
AcDbEntity
  8
0
100
AcDbEllipse
 62
7
  6
CONTINUOUS
 10
5.3809155976
 20
4.8116128699
 30
0.0
 11
-0.0
 21
-0.5003047721
 31
0.0
 40
0.999390827
 41
3.1415926536
 42
4.7123889804
  0
ELLIPSE
  5
4AA
100
AcDbEntity
  8
0
100
AcDbEllipse
 62
7
  6
CONTINUOUS
 10
19.9809155976
 20
-5.4811120496
 30
0.0
 11
0.0
 21
0.5003047721
 31
0.0
 40
0.999390827
 41
3.1415926536
 42
4.7123889804
  0
ELLIPSE
  5
4AB
100
AcDbEntity
  8
0
100
AcDbEllipse
 62
7
  6
CONTINUOUS
 10
12.2843556161
 20
6.5528944035
 30
0.0
 11
-0.0
 21
1.0
 31
0.0
 40
0.0349207695
 41
-1.5707963268
 42
-0.034906585
  0
ELLIPSE
  5
4AC
100
AcDbEntity
  8
0
100
AcDbEllipse
 62
7
  6
CONTINUOUS
 10
12.1376883843
 20
10.5528944035
 30
0.0
 11
-0.0
 21
1.0
 31
0.0
 40
0.0349207695
 41
-1.5707963268
 42
-0.034906585
  0
ELLIPSE
  5
4AD
100
AcDbEntity
  8
0
100
AcDbEllipse
 62
7
  6
CONTINUOUS
 10
12.2843556161
 20
-7.2223935832
 30
0.0
 11
0.0
 21
1.0
 31
0.0
 40
0.0349207695
 41
-3.1066860685
 42
-1.5707963268
  0
ELLIPSE
  5
4AE
100
AcDbEntity
  8
0
100
AcDbEllipse
 62
7
  6
CONTINUOUS
 10
13.077475579
 20
-7.2223935832
 30
0.0
 11
0.0
 21
1.0
 31
0.0
 40
0.0349207695
 41
1.5707963268
 42
3.1066860685
  0
ELLIPSE
  5
4AF
100
AcDbEntity
  8
0
100
AcDbEllipse
 62
7
  6
CONTINUOUS
 10
18.4809155976
 20
3.5965226865
 30
0.0
 11
-0.0
 21
0.8000109664
 31
0.0
 40
0.9999862922
 41
-1.5707963268
 42
0.0
  0
ELLIPSE
  5
4B0
100
AcDbEntity
  8
0
100
AcDbEllipse
 62
7
  6
CONTINUOUS
 10
6.8809155976
 20
3.5965226865
 30
0.0
 11
0.0
 21
0.8000109664
 31
0.0
 40
0.9999862922
 41
0.0
 42
1.5707963268
  0
ENDSEC
  0
SECTION
  2
OBJECTS
  0
DICTIONARY
  5
C
100
AcDbDictionary
280
0
281
1
  3
ACAD_GROUP
350
D
  3
ACAD_MLINESTYLE
350
17
  3
ACAD_LAYOUT
350
1A
  3
ACAD_PLOTSETTINGS
350
19
  3
ACAD_PLOTSTYLENAME
350
E
  0
DICTIONARY
  5
D
102
{ACAD_REACTORS
330
C
102
}
100
AcDbDictionary
280
0
281
1
  0
ACDBDICTIONARYWDFLT
  5
E
102
{ACAD_REACTORS
330
C
102
}
100
AcDbDictionary
281
1
  3
Normal
350
F
100
AcDbDictionaryWithDefault
340
F
  0
DICTIONARY
  5
17
102
{ACAD_REACTORS
330
C
102
}
100
AcDbDictionary
280
0
281
1
  3
Standard
350
18
  0
DICTIONARY
  5
19
102
{ACAD_REACTORS
330
C
102
}
100
AcDbDictionary
281
1
  0
DICTIONARY
  5
1A
102
{ACAD_REACTORS
330
C
102
}
100
AcDbDictionary
281
1
  3
Model
350
4B1
  3
Layout1
350
4B2
  0
ACDBPLACEHOLDER
  5
F
102
{ACAD_REACTORS
330
E
102
}
  0
MLINESTYLE
  5
18
102
{ACAD_REACTORS
330
17
102
}
100
AcDbMlineStyle
  2
STANDARD
 70
0
  3

 62
256
 51
90.0
 52
90.0
 71
2
 49
0.5
 62
256
  6
BYLAYER
 49
-0.5
 62
256
  6
BYLAYER
  0
LAYOUT
  5
4B1
102
{ACAD_REACTORS
330
1A
102
}
100
AcDbPlotSettings
  1

  2
none_device
  4
ISO_A4_(297.00_x_210.00_MM)
  6

 40
0.0
 41
0.0
 42
0.0
 43
0.0
 44
297.0
 45
210.0
 46
0.0
 47
0.0
 48
0.0
 49
0.0
140
0.0
141
0.0
142
1.0
143
1.0
 70
1024
 72
1
 73
0
 74
0
  7

 75
0
147
1.0
148
0.0
149
0.0
100
AcDbLayout
  1
Model
 70
0
 71
0
 10
0.0
 20
0.0
 11
297.0
 21
210.0
 12
0.0
 22
0.0
 32
0.0
 14
0.0
 24
0.0
 34
0.0
 15
0.0
 25
0.0
 35
0.0
146
0.0
 13
0.0
 23
0.0
 33
0.0
 16
1.0
 26
0.0
 36
0.0
 17
0.0
 27
1.0
 37
0.0
 76
0
330
214
345
0
346
0
  0
LAYOUT
  5
4B2
102
{ACAD_REACTORS
330
1A
102
}
100
AcDbPlotSettings
  1

  2
none_device
  4
ISO_A4_(297.00_x_210.00_MM)
  6

 40
0.0
 41
0.0
 42
0.0
 43
0.0
 44
297.0
 45
210.0
 46
0.0
 47
0.0
 48
0.0
 49
0.0
140
0.0
141
0.0
142
1.0
143
1.0
 70
0
 72
1
 73
0
 74
0
  7

 75
0
147
1.0
148
0.0
149
0.0
100
AcDbLayout
  1
Layout1
 70
0
 71
1
 10
0.0
 20
0.0
 11
297.0
 21
210.0
 12
0.0
 22
0.0
 32
0.0
 14
0.0
 24
0.0
 34
0.0
 15
0.0
 25
0.0
 35
0.0
146
0.0
 13
0.0
 23
0.0
 33
0.0
 16
1.0
 26
0.0
 36
0.0
 17
0.0
 27
1.0
 37
0.0
 76
0
330
215
345
0
346
0
  0
ENDSEC
  0
EOF
