  0
SECTION
  2
HEADER
  9
$ACADVER
  1
AC1024
  9
$DWGCODEPAGE
  3
ANSI_1252
  9
$EXTMAX
 10
297.0
 20
210.0
 30
0.0
  9
$EXTMIN
 10
0.0
 20
0.0
 30
0.0
  9
$LIMMIN
 10
0.0
 20
0.0
  9
$LIMMAX
 10
297.0
 20
210.0
  9
$VIEWCTR
 10
148.5
 20
105.0
  9
$VIEWSIZE
 40
210.0
  9
$CLAYER
  8
0
  9
$LTSCALE
 40
16.335
  9
$CELTYPE
  6
BYLAYER
  9
$DIMSCALE
 40
1.0
  9
$DIMASZ
 40
3.0
  9
$DIMEXO
 40
0.5
  9
$DIMDLI
 40
11.286
  9
$DIMEXE
 40
1.5
  9
$DIMCEN
 40
2.673
  9
$DIMLFAC
 40
1.0
  9
$DIMBLK
  1
_FILLED
  9
$DIMALT
 70
0
  9
$DIMALTF
 40
0.0393700787
  9
$DIMTXT
 40
3.0
  9
$DIMTOL
 70
1
  9
$DIMLIM
 70
0
  9
$DIMTFAC
 40
1.0
  9
$DIMTP
 40
0.01
  9
$DIMTM
 40
0.01
  9
$DIMGAP
 40
0.625
  9
$DIMDSEP
 70
44
  9
$AUNITS
 70
0
  9
$PDMODE
 70
3
  9
$PDSIZE
 40
3.0
  9
$HANDSEED
  5
37D
  9
$TILEMODE
 70
1
  9
$MEASUREMENT
 70
1
  9
$INSUNITS
 70
4
  0
ENDSEC
  0
SECTION
  2
CLASSES
  0
CLASS
  1
ACDBDICTIONARYWDFLT
  2
AcDbDictionaryWithDefault
  3
AutoCAD 2000
 90
0
 91
1
280
0
281
0
  0
CLASS
  1
ACDBPLACEHOLDER
  2
AcDbPlaceHolder
  3
AutoCAD 2000
 90
0
 91
1
280
0
281
0
  0
CLASS
  1
LAYOUT
  2
AcDbLayout
  3
AutoCAD 2000
 90
0
 91
0
280
0
281
0
  0
ENDSEC
  0
SECTION
  2
TABLES
  0
TABLE
  2
VPORT
  5
8
100
AcDbSymbolTable
 70
2
  0
VPORT
  5
1F4
100
AcDbSymbolTableRecord
100
AcDbViewportTableRecord
  2
*ACTIVE
 70
0
 10
0.0
 20
0.0
 11
1.0
 21
1.0
 12
148.5
 22
105.0
 13
0.0
 23
0.0
 14
1.0
 24
1.0
 15
0.0
 25
0.0
 16
0.0
 26
0.0
 36
1.0
 17
0.0
 27
0.0
 37
0.0
 40
210.0
 41
1.4142857143
 42
50.0
 43
0.0
 44
0.0
 50
0.0
 51
0.0
 71
0
 72
100
 73
1
 74
1
 75
0
 76
0
 77
0
 78
0
  0
ENDTAB
  0
TABLE
  2
LTYPE
  5
5
100
AcDbSymbolTable
 70
6
  0
LTYPE
  5
14
100
AcDbSymbolTableRecord
100
AcDbLinetypeTableRecord
  2
BYBLOCK
 70
0
  3

 72
65
 73
0
 40
0.0
  0
LTYPE
  5
15
100
AcDbSymbolTableRecord
100
AcDbLinetypeTableRecord
  2
BYLAYER
 70
0
  3

 72
65
 73
0
 40
0.0
  0
LTYPE
  5
16
100
AcDbSymbolTableRecord
100
AcDbLinetypeTableRecord
  2
CONTINUOUS
 70
64
  3
Solid line
 72
65
 73
0
 40
0.0
  0
LTYPE
  5
1F5
100
AcDbSymbolTableRecord
100
AcDbLinetypeTableRecord
  2
CENTER
 70
64
  3
____ _ ____ _ ____ _ ____ _ ____ _ ____ _ ____
 72
65
 73
4
 40
0.6
 49
0.375
 74
0
 49
-0.075
 74
0
 49
0.075
 74
0
 49
-0.075
 74
0
  0
LTYPE
  5
1F6
100
AcDbSymbolTableRecord
100
AcDbLinetypeTableRecord
  2
HIDDEN
 70
64
  3
- - - - - - - - - - - - - - - - - - - -
 72
65
 73
2
 40
0.2
 49
0.1
 74
0
 49
-0.1
 74
0
  0
LTYPE
  5
1F7
100
AcDbSymbolTableRecord
100
AcDbLinetypeTableRecord
  2
PHANTOM
 70
64
  3
_____ _ _ _____ _ _ _____ _ _ _____
 72
65
 73
6
 40
0.8
 49
0.45
 74
0
 49
-0.05
 74
0
 49
0.1
 74
0
 49
-0.05
 74
0
 49
0.1
 74
0
 49
-0.05
 74
0
  0
LTYPE
  5
1F8
100
AcDbSymbolTableRecord
100
AcDbLinetypeTableRecord
  2
DOT
 70
64
  3
. . . . . . . . . . . . . . . . . . . .
 72
65
 73
2
 40
0.2
 49
0.1
 74
0
 49
-0.1
 74
0
  0
LTYPE
  5
1F9
100
AcDbSymbolTableRecord
100
AcDbLinetypeTableRecord
  2
DASHED
 70
64
  3
- - - - - - - - - - - - - - - - - - - -
 72
65
 73
2
 40
0.2
 49
0.1
 74
0
 49
-0.1
 74
0
  0
ENDTAB
  0
TABLE
  2
LAYER
  5
2
100
AcDbSymbolTable
 70
36
  0
LAYER
  5
10
100
AcDbSymbolTableRecord
100
AcDbLayerTableRecord
  2
0
 70
0
 62
7
  6
CONTINUOUS
370
-3
390
F
  0
LAYER
  5
1FA
100
AcDbSymbolTableRecord
100
AcDbLayerTableRecord
  2
DEFAULT_1
 70
0
 62
7
  6
CENTER
370
-3
390
F
  0
LAYER
  5
1FB
100
AcDbSymbolTableRecord
100
AcDbLayerTableRecord
  2
DEFAULT_2
 70
0
 62
7
  6
HIDDEN
370
-3
390
F
  0
LAYER
  5
1FC
100
AcDbSymbolTableRecord
100
AcDbLayerTableRecord
  2
DEFAULT_3
 70
0
 62
7
  6
PHANTOM
370
-3
390
F
  0
LAYER
  5
1FD
100
AcDbSymbolTableRecord
100
AcDbLayerTableRecord
  2
ASSI
 70
0
 62
7
  6
CONTINUOUS
370
-3
390
F
  0
LAYER
  5
1FE
100
AcDbSymbolTableRecord
100
AcDbLayerTableRecord
  2
COORDINATE
 70
0
 62
7
  6
CONTINUOUS
370
-3
390
F
  0
LAYER
  5
1FF
100
AcDbSymbolTableRecord
100
AcDbLayerTableRecord
  2
COORD_ORIGINE
 70
0
 62
7
  6
CONTINUOUS
370
-3
390
F
  0
LAYER
  5
200
100
AcDbSymbolTableRecord
100
AcDbLayerTableRecord
  2
COSMETICI
 70
0
 62
7
  6
CONTINUOUS
370
-3
390
F
  0
LAYER
  5
201
100
AcDbSymbolTableRecord
100
AcDbLayerTableRecord
  2
CURVE
 70
0
 62
7
  6
CONTINUOUS
370
-3
390
F
  0
LAYER
  5
202
100
AcDbSymbolTableRecord
100
AcDbLayerTableRecord
  2
DRAFT
 70
0
 62
7
  6
CONTINUOUS
370
-3
390
F
  0
LAYER
  5
203
100
AcDbSymbolTableRecord
100
AcDbLayerTableRecord
  2
INTFCLR_1
 70
0
 62
7
  6
CONTINUOUS
370
-3
390
F
  0
LAYER
  5
204
100
AcDbSymbolTableRecord
100
AcDbLayerTableRecord
  2
NOTE
 70
0
 62
7
  6
CONTINUOUS
370
-3
390
F
  0
LAYER
  5
205
100
AcDbSymbolTableRecord
100
AcDbLayerTableRecord
  2
PIANI
 70
0
 62
7
  6
CONTINUOUS
370
-3
390
F
  0
LAYER
  5
206
100
AcDbSymbolTableRecord
100
AcDbLayerTableRecord
  2
PIANI_ORIGINE
 70
0
 62
7
  6
CONTINUOUS
370
-3
390
F
  0
LAYER
  5
207
100
AcDbSymbolTableRecord
100
AcDbLayerTableRecord
  2
PUNTI
 70
0
 62
7
  6
CONTINUOUS
370
-3
390
F
  0
LAYER
  5
208
100
AcDbSymbolTableRecord
100
AcDbLayerTableRecord
  2
RACCORDO
 70
0
 62
7
  6
CONTINUOUS
370
-3
390
F
  0
LAYER
  5
209
100
AcDbSymbolTableRecord
100
AcDbLayerTableRecord
  2
SIMBOLI
 70
0
 62
7
  6
CONTINUOUS
370
-3
390
F
  0
LAYER
  5
20A
100
AcDbSymbolTableRecord
100
AcDbLayerTableRecord
  2
SMUSSO
 70
0
 62
7
  6
CONTINUOUS
370
-3
390
F
  0
LAYER
  5
20B
100
AcDbSymbolTableRecord
100
AcDbLayerTableRecord
  2
SNAPLINE
 70
0
 62
7
  6
CONTINUOUS
370
-3
390
F
  0
LAYER
  5
20C
100
AcDbSymbolTableRecord
100
AcDbLayerTableRecord
  2
SUPERFICI
 70
0
 62
7
  6
CONTINUOUS
370
-3
390
F
  0
LAYER
  5
20D
100
AcDbSymbolTableRecord
100
AcDbLayerTableRecord
  2
TRASH
 70
0
 62
7
  6
CONTINUOUS
370
-3
390
F
  0
ENDTAB
  0
TABLE
  2
STYLE
  5
3
100
AcDbSymbolTable
 70
1
  0
STYLE
  5
11
100
AcDbSymbolTableRecord
100
AcDbTextStyleTableRecord
  2
STANDARD
 70
0
 40
0.0
 41
0.8
 50
0.0
 71
0
 42
0.2
  3
txt
  4

  0
STYLE
  5
20E
100
AcDbSymbolTableRecord
100
AcDbTextStyleTableRecord
  2
TEXTSTYLE_1
 70
0
 40
0.0
 41
0.8
 50
0.0
 71
0
 42
0.2
  3
gdt
  4

  0
ENDTAB
  0
TABLE
  2
VIEW
  5
6
100
AcDbSymbolTable
 70
0
  0
ENDTAB
  0
TABLE
  2
UCS
  5
7
100
AcDbSymbolTable
 70
0
  0
ENDTAB
  0
TABLE
  2
APPID
  5
9
100
AcDbSymbolTable
 70
1
  0
APPID
  5
20F
100
AcDbSymbolTableRecord
100
AcDbRegAppTableRecord
  2
ACAD
 70
0
  0
ENDTAB
  0
TABLE
  2
BLOCK_RECORD
  5
1
100
AcDbSymbolTable
 70
0
  0
BLOCK_RECORD
  5
210
100
AcDbSymbolTableRecord
100
AcDbBlockTableRecord
  2
*Model_Space
  0
BLOCK_RECORD
  5
211
100
AcDbSymbolTableRecord
100
AcDbBlockTableRecord
  2
*Paper_Space
  0
BLOCK_RECORD
  5
212
100
AcDbSymbolTableRecord
100
AcDbBlockTableRecord
  2
_FILLED
  0
ENDTAB
  0
TABLE
  2
DIMSTYLE
  5
A
100
AcDbSymbolTable
 70
1
100
AcDbDimStyleTable
 71
0
  0
DIMSTYLE
105
213
100
AcDbSymbolTableRecord
100
AcDbDimStyleTableRecord
  2
STANDARD
 70
0
  3

  4

 40
1.0
 41
3.0
 42
0.5
 43
0.38
 44
1.5
 45
0.0
 46
0.0
 47
0.01
 48
0.01
140
3.0
141
0.09
142
0.0
143
25.4
144
1.0
145
0.0
146
1.0
147
0.625
 71
1
 72
0
 73
0
 74
0
 75
0
 76
0
 77
1
 78
8
 79
2
170
0
171
1
172
0
173
0
174
0
175
0
176
0
177
0
178
0
270
2
179
2
271
2
272
2
273
2
274
2
275
0
280
0
281
0
282
0
283
1
284
8
285
0
286
0
287
3
288
0
340
11
278
44
341
212
342
212
343
212
344
212
  0
ENDTAB
  0
ENDSEC
  0
SECTION
  2
BLOCKS
  0
BLOCK
  5
20
100
AcDbEntity
  8
0
100
AcDbBlockBegin
  2
*Model_Space
 70
0
 10
0.0
 20
0.0
 30
0.0
  3
*Model_Space
  1

  0
ENDBLK
  5
21
100
AcDbEntity
  8
0
100
AcDbBlockEnd
  0
BLOCK
  5
1C
100
AcDbEntity
  8
0
100
AcDbBlockBegin
  2
*Paper_Space
 70
0
 10
0.0
 20
0.0
 30
0.0
  3
*Paper_Space
  1

  0
ENDBLK
  5
1D
100
AcDbEntity
  8
0
100
AcDbBlockEnd
  0
BLOCK
  5
214
100
AcDbEntity
  8
0
100
AcDbBlockBegin
  2
_FILLED
 70
64
 10
0.0
 20
0.0
  3
_FILLED
  1

  0
SOLID
  5
215
100
AcDbEntity
  8
0
  6
BYBLOCK
 62
0
100
AcDbTrace
 10
0.0
 20
0.0
 11
-1.0
 21
0.3166666667
 12
-1.0
 22
-0.3166666667
 13
-1.0
 23
-0.3166666667
  0
ENDBLK
  5
216
100
AcDbEntity
  8
0
  6
BYBLOCK
 62
0
100
AcDbBlockEnd
  0
ENDSEC
  0
SECTION
  2
ENTITIES
  0
LINE
  5
217
100
AcDbEntity
  8
RACCORDO
100
AcDbLine
 62
7
  6
CONTINUOUS
 10
10.5501522961
 20
-22.1424416113
 11
-10.5501522961
 21
-22.1424416113
  0
LWPOLYLINE
  5
218
100
AcDbEntity
  8
RACCORDO
100
AcDbPolyline
 62
7
  6
CONTINUOUS
 90
12
 70
0
 10
-9.7435174012
 20
-21.1002561043
 10
-9.7566242844
 20
-21.0972730164
 10
-9.781242131
 20
-21.0890517303
 10
-9.8047770826
 20
-21.0776047837
 10
-9.826746232
 20
-21.0630845554
 10
-9.8466188457
 20
-21.0458029945
 10
-9.8640180333
 20
-21.026100336
 10
-9.87868406
 20
-21.0042849256
 10
-9.8903608599
 20
-20.9807381083
 10
-9.8988474433
 20
-20.9558688696
 10
-9.9039993887
 20
-20.930105487
 10
-9.9057217764
 20
-20.905565857
  0
LWPOLYLINE
  5
219
100
AcDbEntity
  8
RACCORDO
100
AcDbPolyline
 62
250
  6
CONTINUOUS
 90
8
 70
0
 10
-9.90572903
 20
-20.9038929264
 10
-9.903833595
 20
-20.9043520574
 10
-9.8985771572
 20
-20.9055277437
 10
-9.8900080916
 20
-20.9070426428
 10
-9.8783179662
 20
-20.9081054723
 10
-9.8637641554
 20
-20.9087419691
 10
-9.8465401152
 20
-20.9097226232
 10
-9.8267607233
 20
-20.9106534791
  0
LWPOLYLINE
  5
21A
100
AcDbEntity
  8
RACCORDO
100
AcDbPolyline
 62
250
  6
CONTINUOUS
 90
5
 70
0
 10
9.8639013572
 20
-20.9090981646
 10
9.8900080916
 20
-20.9070426428
 10
9.8984362973
 20
-20.9065042842
 10
9.9037377995
 20
-20.9055838437
 10
9.90572903
 20
-20.9038929264
  0
LWPOLYLINE
  5
21B
100
AcDbEntity
  8
RACCORDO
100
AcDbPolyline
 62
250
  6
CONTINUOUS
 90
8
 70
0
 10
9.7057366454
 20
-20.912190698
 10
9.7315160499
 20
-20.9114959885
 10
9.7570767123
 20
-20.9113929121
 10
9.7818703745
 20
-20.9115293242
 10
9.805289601
 20
-20.9111225882
 10
9.8269177671
 20
-20.9102438162
 10
9.8465401152
 20
-20.9097226232
 10
9.8639013572
 20
-20.9090981646
  0
LINE
  5
21C
100
AcDbEntity
  8
RACCORDO
100
AcDbLine
 62
7
  6
CONTINUOUS
 10
9.7500228453
 20
-21.1924416113
 11
-9.7500228453
 21
-21.1924416113
  0
LINE
  5
21D
100
AcDbEntity
  8
RACCORDO
100
AcDbLine
 62
250
  6
CONTINUOUS
 10
-9.7057366454
 20
-21.1038624654
 11
9.7057366454
 21
-21.1038624654
  0
LINE
  5
21E
100
AcDbEntity
  8
RACCORDO
100
AcDbLine
 62
250
  6
CONTINUOUS
 10
-9.7057366262
 20
-20.912190698
 11
9.7057366262
 21
-20.912190698
  0
LWPOLYLINE
  5
21F
100
AcDbEntity
  8
RACCORDO
100
AcDbPolyline
 62
250
  6
CONTINUOUS
 90
5
 70
0
 10
-9.8267607233
 20
-20.9106534791
 10
-9.7818703745
 20
-20.9115293242
 10
-9.7576847022
 20
-20.91225456
 10
-9.732322773
 20
-20.9125937811
 10
-9.7057366454
 20
-20.912190698
  0
LWPOLYLINE
  5
220
100
AcDbEntity
  8
RACCORDO
100
AcDbPolyline
 62
250
  6
CONTINUOUS
 90
3
 70
0
 10
-9.7057366454
 20
-21.1038624654
 10
-9.7313114511
 20
-21.102216779
 10
-9.7435174012
 20
-21.1002561043
  0
LWPOLYLINE
  5
221
100
AcDbEntity
  8
0
100
AcDbPolyline
 62
7
  6
CONTINUOUS
 90
28
 70
0
 10
4.7538771586
 20
-18.8561166111
 10
4.7871243325
 20
-18.8549787698
 10
4.8199539288
 20
-18.8518270036
 10
4.8523659475
 20
-18.846661311
 10
4.884558103
 20
-18.8395950142
 10
4.9163326809
 20
-18.8305147857
 10
4.9470965385
 20
-18.8190806471
 10
4.9768319644
 20
-18.8051166204
 10
5.00555667
 20
-18.78879867
 10
5.0327306473
 20
-18.7703147293
 10
5.0582909897
 20
-18.7495352296
 10
5.0823006037
 20
-18.7265897203
 10
5.1044082015
 20
-18.7020548138
 10
5.1245247568
 20
-18.6759289811
 10
5.1427392958
 20
-18.6482137333
 10
5.1589676084
 20
-18.6194902491
 10
5.1730682449
 20
-18.5897352854
 10
5.185182655
 20
-18.5589720723
 10
5.1956509769
 20
-18.5278515051
 10
5.204436053
 20
-18.4964940861
 10
5.2115750409
 20
-18.464779309
 10
5.2175195513
 20
-18.432996563
 10
5.2222872176
 20
-18.4012565467
 10
5.2258604064
 20
-18.3694485613
 10
5.2286378282
 20
-18.3375299025
 10
5.2307523863
 20
-18.3054863347
 10
5.2320711774
 20
-18.273332092
 10
5.2325942013
 20
-18.2410671738
  0
LINE
  5
222
100
AcDbEntity
  8
0
100
AcDbLine
 62
7
  6
CONTINUOUS
 10
5.988399
 20
-19.0410676113
 11
5.756579
 21
-19.0410676113
  0
LINE
  5
223
100
AcDbEntity
  8
0
100
AcDbLine
 62
7
  6
CONTINUOUS
 10
4.782808566
 20
-19.0410676113
 11
4.134344
 21
-19.0410676113
  0
LINE
  5
224
100
AcDbEntity
  8
0
100
AcDbLine
 62
7
  6
CONTINUOUS
 10
3.78453
 20
-19.0410676113
 11
3.541719
 21
-19.0410676113
  0
LINE
  5
225
100
AcDbEntity
  8
0
100
AcDbLine
 62
7
  6
CONTINUOUS
 10
2.723843
 20
-19.0410676113
 11
2.514384
 21
-19.0410676113
  0
LINE
  5
226
100
AcDbEntity
  8
0
100
AcDbLine
 62
7
  6
CONTINUOUS
 10
2.231399
 20
-19.0410676113
 11
1.050317
 21
-19.0410676113
  0
LINE
  5
227
100
AcDbEntity
  8
0
100
AcDbLine
 62
7
  6
CONTINUOUS
 10
-0.219829
 20
-19.0410676113
 11
-0.435983
 21
-19.0410676113
  0
LINE
  5
228
100
AcDbEntity
  8
0
100
AcDbLine
 62
7
  6
CONTINUOUS
 10
-1.440958
 20
-19.0410676113
 11
-1.672651
 21
-19.0410676113
  0
LINE
  5
229
100
AcDbEntity
  8
0
100
AcDbLine
 62
7
  6
CONTINUOUS
 10
-2.439236
 20
-19.0410676113
 11
-2.655391
 21
-19.0410676113
  0
LINE
  5
22A
100
AcDbEntity
  8
0
100
AcDbLine
 62
7
  6
CONTINUOUS
 10
-3.256986
 20
-19.0410676113
 11
-3.493101
 21
-19.0410676113
  0
LINE
  5
22B
100
AcDbEntity
  8
0
100
AcDbLine
 62
7
  6
CONTINUOUS
 10
-4.460302
 20
-19.0410676113
 11
-4.683153
 21
-19.0410676113
  0
LINE
  5
22C
100
AcDbEntity
  8
0
100
AcDbLine
 62
7
  6
CONTINUOUS
 10
-5.792857
 20
-19.0410676113
 11
-6.009011
 21
-19.0410676113
  0
LINE
  5
22D
100
AcDbEntity
  8
0
100
AcDbLine
 62
7
  6
CONTINUOUS
 10
4.7538784436
 20
-18.8561166113
 11
4.350499
 21
-18.8561166113
  0
LINE
  5
22E
100
AcDbEntity
  8
0
100
AcDbLine
 62
7
  6
CONTINUOUS
 10
2.231399
 20
-18.8494206113
 11
1.266472
 21
-18.8494206113
  0
LINE
  5
22F
100
AcDbEntity
  8
0
100
AcDbLine
 62
7
  6
CONTINUOUS
 10
5.988399
 20
-18.8048256113
 11
5.756579
 21
-18.8048256113
  0
LINE
  5
230
100
AcDbEntity
  8
0
100
AcDbLine
 62
7
  6
CONTINUOUS
 10
-1.440958
 20
-18.8048256113
 11
-1.672651
 21
-18.8048256113
  0
LINE
  5
231
100
AcDbEntity
  8
0
100
AcDbLine
 62
7
  6
CONTINUOUS
 10
-3.651396
 20
-18.5752796113
 11
-4.293165
 21
-18.5752796113
  0
LWPOLYLINE
  5
232
100
AcDbEntity
  8
0
100
AcDbPolyline
 62
7
  6
CONTINUOUS
 90
22
 70
0
 10
0.2191782882
 20
-18.1808696115
 10
0.2499674612
 20
-18.180077116
 10
0.2794888533
 20
-18.1778709208
 10
0.3077424644
 20
-18.1742510252
 10
0.3348617051
 20
-18.1693121121
 10
0.3607131648
 20
-18.1629594959
 10
0.3848966124
 20
-18.1549091225
 10
0.4074001197
 20
-18.1449157092
 10
0.4282356147
 20
-18.1332245317
 10
0.4470386514
 20
-18.1202873727
 10
0.4636019601
 20
-18.1060989547
 10
0.4781328103
 20
-18.0906645478
 10
0.4908885648
 20
-18.0744517587
 10
0.5019055153
 20
-18.0575443985
 10
0.51114737
 20
-18.0398586508
 10
0.5187626168
 20
-18.0216106839
 10
0.5246339584
 20
-18.002772727
 10
0.528878692
 20
-17.9833725462
 10
0.5319971972
 20
-17.9637096167
 10
0.5341562672
 20
-17.9438837632
 10
0.5351891088
 20
-17.9237951591
 10
0.5350957221
 20
-17.9034438032
  0
LWPOLYLINE
  5
233
100
AcDbEntity
  8
0
100
AcDbPolyline
 62
7
  6
CONTINUOUS
 90
22
 70
0
 10
-5.3538497418
 20
-18.1808696115
 10
-5.3230605683
 20
-18.180077116
 10
-5.2935391758
 20
-18.1778709208
 10
-5.2652855642
 20
-18.174251025
 10
-5.2381663232
 20
-18.1693121117
 10
-5.2123148631
 20
-18.1629594953
 10
-5.1881314152
 20
-18.1549091216
 10
-5.1656279079
 20
-18.144915708
 10
-5.1447924127
 20
-18.1332245301
 10
-5.125989376
 20
-18.1202873708
 10
-5.1094260674
 20
-18.1060989523
 10
-5.0948952173
 20
-18.0906645449
 10
-5.0821394629
 20
-18.0744517555
 10
-5.0711225126
 20
-18.0575443948
 10
-5.0618806581
 20
-18.0398586468
 10
-5.0542654115
 20
-18.0216106793
 10
-5.0483940703
 20
-18.002772722
 10
-5.0441493371
 20
-17.9833725408
 10
-5.0410308322
 20
-17.9637096109
 10
-5.0388717624
 20
-17.943883757
 10
-5.037838921
 20
-17.9237951525
 10
-5.0379323079
 20
-17.9034437963
  0
LINE
  5
234
100
AcDbEntity
  8
0
100
AcDbLine
 62
7
  6
CONTINUOUS
 10
-3.729469
 20
-18.3836336113
 11
-4.226335
 21
-18.3836336113
  0
LINE
  5
235
100
AcDbEntity
  8
0
100
AcDbLine
 62
7
  6
CONTINUOUS
 10
0.2837095262
 20
-18.3658206113
 11
-0.219829
 21
-18.3658206113
  0
LINE
  5
236
100
AcDbEntity
  8
0
100
AcDbLine
 62
7
  6
CONTINUOUS
 10
-5.2893185038
 20
-18.3658206113
 11
-5.792857
 21
-18.3658206113
  0
LINE
  5
237
100
AcDbEntity
  8
0
100
AcDbLine
 62
7
  6
CONTINUOUS
 10
2.142335
 20
-18.3146556113
 11
1.266472
 21
-18.3146556113
  0
LINE
  5
238
100
AcDbEntity
  8
0
100
AcDbLine
 62
7
  6
CONTINUOUS
 10
0.2191765091
 20
-18.1808696113
 11
-0.219829
 21
-18.1808696113
  0
LINE
  5
239
100
AcDbEntity
  8
0
100
AcDbLine
 62
7
  6
CONTINUOUS
 10
-5.3538515209
 20
-18.1808696113
 11
-5.792857
 21
-18.1808696113
  0
LINE
  5
23A
100
AcDbEntity
  8
0
100
AcDbLine
 62
7
  6
CONTINUOUS
 10
2.142335
 20
-18.1230096113
 11
1.266472
 21
-18.1230096113
  0
LINE
  5
23B
100
AcDbEntity
  8
0
100
AcDbLine
 62
7
  6
CONTINUOUS
 10
2.21586
 20
-17.6327136113
 11
1.266472
 21
-17.6327136113
  0
LINE
  5
23C
100
AcDbEntity
  8
0
100
AcDbLine
 62
7
  6
CONTINUOUS
 10
-1.897776
 20
-17.6327136113
 11
-2.439236
 21
-17.6327136113
  0
LINE
  5
23D
100
AcDbEntity
  8
0
100
AcDbLine
 62
7
  6
CONTINUOUS
 10
-2.655391
 20
-17.6327136113
 11
-3.196852
 21
-17.6327136113
  0
LINE
  5
23E
100
AcDbEntity
  8
0
100
AcDbLine
 62
7
  6
CONTINUOUS
 10
4.7538784436
 20
-17.6260176113
 11
4.350499
 21
-17.6260176113
  0
LINE
  5
23F
100
AcDbEntity
  8
0
100
AcDbLine
 62
7
  6
CONTINUOUS
 10
0.2191765091
 20
-17.6260176113
 11
-0.219829
 21
-17.6260176113
  0
LINE
  5
240
100
AcDbEntity
  8
0
100
AcDbLine
 62
7
  6
CONTINUOUS
 10
-5.3538515209
 20
-17.6260176113
 11
-5.792857
 21
-17.6260176113
  0
LINE
  5
241
100
AcDbEntity
  8
0
100
AcDbLine
 62
7
  6
CONTINUOUS
 10
4.782808566
 20
-17.4410676113
 11
4.134344
 21
-17.4410676113
  0
LINE
  5
242
100
AcDbEntity
  8
0
100
AcDbLine
 62
7
  6
CONTINUOUS
 10
3.78453
 20
-17.4410676113
 11
3.575071
 21
-17.4410676113
  0
LINE
  5
243
100
AcDbEntity
  8
0
100
AcDbLine
 62
7
  6
CONTINUOUS
 10
2.770712
 20
-17.4410676113
 11
2.514384
 21
-17.4410676113
  0
LINE
  5
244
100
AcDbEntity
  8
0
100
AcDbLine
 62
7
  6
CONTINUOUS
 10
2.21586
 20
-17.4410676113
 11
1.050317
 21
-17.4410676113
  0
LINE
  5
245
100
AcDbEntity
  8
0
100
AcDbLine
 62
7
  6
CONTINUOUS
 10
0.2837821993
 20
-17.4410676113
 11
-0.435983
 21
-17.4410676113
  0
LINE
  5
246
100
AcDbEntity
  8
0
100
AcDbLine
 62
7
  6
CONTINUOUS
 10
-1.897776
 20
-17.4410676113
 11
-3.196852
 21
-17.4410676113
  0
LINE
  5
247
100
AcDbEntity
  8
0
100
AcDbLine
 62
7
  6
CONTINUOUS
 10
-3.836347
 20
-17.4410676113
 11
-4.081431
 21
-17.4410676113
  0
LINE
  5
248
100
AcDbEntity
  8
0
100
AcDbLine
 62
7
  6
CONTINUOUS
 10
-5.2892458307
 20
-17.4410676113
 11
-6.009011
 21
-17.4410676113
  0
LWPOLYLINE
  5
249
100
AcDbEntity
  8
0
100
AcDbPolyline
 62
7
  6
CONTINUOUS
 90
31
 70
0
 10
4.7828140042
 20
-17.4410676107
 10
4.8225299143
 20
-17.4423249467
 10
4.8618567735
 20
-17.4457323507
 10
4.900794582
 20
-17.4512898212
 10
4.9394698885
 20
-17.4589981656
 10
4.9777561443
 20
-17.4688565706
 10
5.0152737024
 20
-17.480862602
 10
5.0520517292
 20
-17.4949890426
 10
5.0880610584
 20
-17.5112630979
 10
5.1228345446
 20
-17.5297639668
 10
5.1564039136
 20
-17.5505720732
 10
5.1887374396
 20
-17.5736069745
 10
5.2192727992
 20
-17.5987065679
 10
5.247917195
 20
-17.6259972979
 10
5.2747634246
 20
-17.6553526967
 10
5.2995275567
 20
-17.6862312958
 10
5.3220344015
 20
-17.718662442
 10
5.3424591488
 20
-17.7526167677
 10
5.3610434373
 20
-17.7874647393
 10
5.3777821235
 20
-17.8231647882
 10
5.3926803508
 20
-17.8597584695
 10
5.4059951873
 20
-17.8967409428
 10
5.4178593448
 20
-17.933981097
 10
5.4281401115
 20
-17.9716100373
 10
5.4366964198
 20
-18.0095162526
 10
5.4433537632
 20
-18.0477176087
 10
5.4482866482
 20
-18.0861962347
 10
5.4518775273
 20
-18.1247870164
 10
5.4542538843
 20
-18.1634349156
 10
5.4552882354
 20
-18.2021949685
 10
5.4549805805
 20
-18.2410671739
  0
LWPOLYLINE
  5
24A
100
AcDbEntity
  8
0
100
AcDbPolyline
 62
7
  6
CONTINUOUS
 90
19
 70
0
 10
-5.2892458307
 20
-17.4410676113
 10
-5.2419220649
 20
-17.4434675141
 10
-5.196707441
 20
-17.4488260028
 10
-5.1536019592
 20
-17.457143074
 10
-5.1125360591
 20
-17.4684385466
 10
-5.0735793009
 20
-17.4826925895
 10
-5.0369403656
 20
-17.4998457223
 10
-5.0025229532
 20
-17.5198925905
 10
-4.9704233637
 20
-17.5428385259
 10
-4.941139178
 20
-17.5686400749
 10
-4.9147482686
 20
-17.5974741282
 10
-4.891172763
 20
-17.6291637614
 10
-4.8706766241
 20
-17.6631348006
 10
-4.8532608522
 20
-17.6995764982
 10
-4.8389244469
 20
-17.7382995666
 10
-4.8279283704
 20
-17.7781620321
 10
-4.8203596101
 20
-17.8187832347
 10
-4.8161311786
 20
-17.8605438166
 10
-4.8152430759
 20
-17.9034437675
  0
LWPOLYLINE
  5
24B
100
AcDbEntity
  8
0
100
AcDbPolyline
 62
7
  6
CONTINUOUS
 90
19
 70
0
 10
0.2837821993
 20
-17.4410676113
 10
0.3311059651
 20
-17.4434675141
 10
0.376320589
 20
-17.4488260028
 10
0.4194260708
 20
-17.457143074
 10
0.4604919709
 20
-17.4684385466
 10
0.4994487291
 20
-17.4826925895
 10
0.5360876644
 20
-17.4998457223
 10
0.5705050768
 20
-17.5198925905
 10
0.6026046663
 20
-17.5428385259
 10
0.631888852
 20
-17.5686400749
 10
0.6582797614
 20
-17.5974741282
 10
0.681855267
 20
-17.6291637614
 10
0.7023514059
 20
-17.6631348006
 10
0.7197671779
 20
-17.6995764982
 10
0.7341035831
 20
-17.7382995666
 10
0.7450996596
 20
-17.7781620321
 10
0.7526684199
 20
-17.8187832347
 10
0.7568968514
 20
-17.8605438166
 10
0.7577849541
 20
-17.9034437675
  0
LINE
  5
24C
100
AcDbEntity
  8
RACCORDO
100
AcDbLine
 62
250
  6
CONTINUOUS
 10
-9.9057217764
 20
-20.905565857
 11
-9.90572903
 21
-20.9038929264
  0
LINE
  5
24D
100
AcDbEntity
  8
RACCORDO
100
AcDbLine
 62
7
  6
CONTINUOUS
 10
-11.05
 20
-21.6424987187
 11
-11.05
 21
21.1576154961
  0
LWPOLYLINE
  5
24E
100
AcDbEntity
  8
RACCORDO
100
AcDbPolyline
 62
250
  6
CONTINUOUS
 90
13
 70
0
 10
-9.90572903
 20
20.4190097038
 10
-9.9040144234
 20
20.4451084504
 10
-9.898907886
 20
20.4707607266
 10
-9.8904967751
 20
20.4955277
 10
-9.8789249792
 20
20.5189856827
 10
-9.8643904568
 20
20.5407333799
 10
-9.8471418492
 20
20.5603987546
 10
-9.8274742279
 20
20.5776453918
 10
-9.8057240461
 20
20.592178254
 10
-9.7822633834
 20
20.603748728
 10
-9.7574935805
 20
20.6121588781
 10
-9.7318383736
 20
20.6172648322
 10
-9.7057366454
 20
20.6189792428
  0
LINE
  5
24F
100
AcDbEntity
  8
RACCORDO
100
AcDbLine
 62
7
  6
CONTINUOUS
 10
-9.95
 20
-20.9924416101
 11
-9.95
 21
20.5075583875
  0
LINE
  5
250
100
AcDbEntity
  8
RACCORDO
100
AcDbLine
 62
250
  6
CONTINUOUS
 10
-9.9057290344
 20
20.4190097125
 11
-9.9020332558
 21
-2.5389620751
  0
LINE
  5
251
100
AcDbEntity
  8
RACCORDO
100
AcDbLine
 62
250
  6
CONTINUOUS
 10
-9.7057366454
 20
20.6189792428
 11
-9.7020408671
 21
-2.539722322
  0
LWPOLYLINE
  5
252
100
AcDbEntity
  8
RACCORDO
100
AcDbPolyline
 62
250
  6
CONTINUOUS
 90
3
 70
0
 10
-9.9020332558
 20
-2.5389620751
 10
-9.904250724
 20
-16.3136514581
 10
-9.9057290351
 20
-20.9038929366
  0
LWPOLYLINE
  5
253
100
AcDbEntity
  8
RACCORDO
100
AcDbPolyline
 62
250
  6
CONTINUOUS
 90
3
 70
0
 10
-9.7020408671
 20
-2.539722322
 10
-9.7042583226
 20
-16.320722327
 10
-9.7057366454
 20
-21.1038624654
  0
LINE
  5
254
100
AcDbEntity
  8
0
100
AcDbLine
 62
7
  6
CONTINUOUS
 10
-4.169977
 20
18.1576143887
 11
-4.788994
 21
16.2295763887
  0
LINE
  5
255
100
AcDbEntity
  8
0
100
AcDbLine
 62
7
  6
CONTINUOUS
 10
-3.609949
 20
18.1576143887
 11
-4.50898
 21
15.3574883887
  0
LINE
  5
256
100
AcDbEntity
  8
DRAFT
100
AcDbLine
 62
7
  6
CONTINUOUS
 10
0.485591077
 20
-9.828549773
 11
-0.485591077
 21
-9.828549773
  0
LINE
  5
257
100
AcDbEntity
  8
DRAFT
100
AcDbLine
 62
7
  6
CONTINUOUS
 10
0.4383982183
 20
-9.5924416113
 11
-0.4383982183
 21
-9.5924416113
  0
LINE
  5
258
100
AcDbEntity
  8
DRAFT
100
AcDbLine
 62
7
  6
CONTINUOUS
 10
0.4383982183
 20
-8.5501195838
 11
-0.4383982183
 21
-8.5501195838
  0
LINE
  5
259
100
AcDbEntity
  8
RACCORDO
100
AcDbLine
 62
250
  6
CONTINUOUS
 10
-0.4081181123
 20
-8.3074905754
 11
0.4081181123
 21
-8.3074905754
  0
LINE
  5
25A
100
AcDbEntity
  8
0
100
AcDbLine
 62
7
  6
CONTINUOUS
 10
-3.836347
 20
-17.4410676113
 11
-3.256986
 21
-19.0410676113
  0
LINE
  5
25B
100
AcDbEntity
  8
0
100
AcDbLine
 62
7
  6
CONTINUOUS
 10
-3.651396
 20
-18.5752796113
 11
-3.493101
 21
-19.0410676113
  0
LINE
  5
25C
100
AcDbEntity
  8
0
100
AcDbLine
 62
7
  6
CONTINUOUS
 10
-3.967832
 20
-17.6731336113
 11
-3.729469
 21
-18.3836336113
  0
LINE
  5
25D
100
AcDbEntity
  8
RACCORDO
100
AcDbLine
 62
7
  6
CONTINUOUS
 10
-7.95
 20
3.5075583887
 11
-7.9091086907
 21
2.5031889164
  0
LINE
  5
25E
100
AcDbEntity
  8
RACCORDO
100
AcDbLine
 62
7
  6
CONTINUOUS
 10
-7.9102320144
 20
-1.8263971682
 11
-7.9072184527
 21
-2.1161550216
  0
LINE
  5
25F
100
AcDbEntity
  8
RACCORDO
100
AcDbLine
 62
7
  6
CONTINUOUS
 10
-7.0
 20
3.5075583887
 11
-7.0
 21
2.5031889164
  0
LINE
  5
260
100
AcDbEntity
  8
ASSI
100
AcDbLine
 62
7
  6
CONTINUOUS
 10
-7.0
 20
2.5031889164
 11
-7.0
 21
2.2575583887
  0
LINE
  5
261
100
AcDbEntity
  8
ASSI
100
AcDbLine
 62
7
  6
CONTINUOUS
 10
-7.0
 20
0.4664307326
 11
-7.0
 21
-0.9513139552
  0
LINE
  5
262
100
AcDbEntity
  8
ASSI
100
AcDbLine
 62
7
  6
CONTINUOUS
 10
-7.0
 20
-2.7424416113
 11
-7.0
 21
-2.988072139
  0
LINE
  5
263
100
AcDbEntity
  8
RACCORDO
100
AcDbLine
 62
7
  6
CONTINUOUS
 10
-7.0
 20
-2.988072139
 11
-7.0
 21
-3.9924416113
  0
LINE
  5
264
100
AcDbEntity
  8
ASSI
100
AcDbLine
 62
7
  6
CONTINUOUS
 10
-6.8
 20
-2.7424416113
 11
-6.8
 21
-0.9513139552
  0
LINE
  5
265
100
AcDbEntity
  8
ASSI
100
AcDbLine
 62
7
  6
CONTINUOUS
 10
-6.8
 20
0.4664307326
 11
-6.8
 21
2.2575583887
  0
LINE
  5
266
100
AcDbEntity
  8
RACCORDO
100
AcDbLine
 62
7
  6
CONTINUOUS
 10
-7.9072184527
 20
1.631271799
 11
-7.9102320144
 21
1.3415139456
  0
LINE
  5
267
100
AcDbEntity
  8
RACCORDO
100
AcDbLine
 62
7
  6
CONTINUOUS
 10
-7.9091086907
 20
-2.988072139
 11
-7.95
 21
-3.9924416113
  0
LINE
  5
268
100
AcDbEntity
  8
RACCORDO
100
AcDbLine
 62
7
  6
CONTINUOUS
 10
-4.0116616658
 20
20.6189792428
 11
-4.0009192012
 21
20.7005763627
  0
LINE
  5
269
100
AcDbEntity
  8
RACCORDO
100
AcDbLine
 62
7
  6
CONTINUOUS
 10
-4.0253159163
 20
20.5224586371
 11
-4.0346092516
 21
20.4522178334
  0
LINE
  5
26A
100
AcDbEntity
  8
RACCORDO
100
AcDbLine
 62
7
  6
CONTINUOUS
 10
-4.0346092516
 20
20.4522178334
 11
-4.037988155
 21
20.4273074754
  0
LINE
  5
26B
100
AcDbEntity
  8
RACCORDO
100
AcDbLine
 62
7
  6
CONTINUOUS
 10
-4.0176782927
 20
20.5783409016
 11
-4.0253159163
 21
20.5224586371
  0
LWPOLYLINE
  5
26C
100
AcDbEntity
  8
RACCORDO
100
AcDbPolyline
 62
7
  6
CONTINUOUS
 90
4
 70
0
 10
-4.0116616658
 20
20.6189792428
 10
-4.0120999578
 20
20.6169458138
 10
-4.0129144418
 20
20.6117582667
 10
-4.0176782927
 20
20.5783409016
  0
LINE
  5
26D
100
AcDbEntity
  8
RACCORDO
100
AcDbLine
 62
250
  6
CONTINUOUS
 10
-0.4
 20
-7.3099265252
 11
0.4
 21
-7.3099265252
  0
LINE
  5
26E
100
AcDbEntity
  8
0
100
AcDbLine
 62
7
  6
CONTINUOUS
 10
2.723843
 20
-17.7415346113
 11
3.541719
 21
-19.0410676113
  0
LINE
  5
26F
100
AcDbEntity
  8
0
100
AcDbLine
 62
7
  6
CONTINUOUS
 10
2.770712
 20
-17.4410676113
 11
3.575071
 21
-18.7407186113
  0
LINE
  5
270
100
AcDbEntity
  8
0
100
AcDbLine
 62
7
  6
CONTINUOUS
 10
-6.009011
 20
-17.4410676113
 11
-6.009011
 21
-19.0410676113
  0
LINE
  5
271
100
AcDbEntity
  8
0
100
AcDbLine
 62
7
  6
CONTINUOUS
 10
-5.792857
 20
-17.6260176113
 11
-5.792857
 21
-18.1808696113
  0
LINE
  5
272
100
AcDbEntity
  8
0
100
AcDbLine
 62
7
  6
CONTINUOUS
 10
-5.792857
 20
-18.3658206113
 11
-5.792857
 21
-19.0410676113
  0
LWPOLYLINE
  5
273
100
AcDbEntity
  8
0
100
AcDbPolyline
 62
7
  6
CONTINUOUS
 90
22
 70
0
 10
-5.0379323079
 20
-17.9034437963
 10
-5.0378472005
 20
-17.8834695066
 10
-5.0388398886
 20
-17.8637314262
 10
-5.0409103723
 20
-17.8442295562
 10
-5.0438812597
 20
-17.8248814383
 10
-5.0479299427
 20
-17.8057695325
 10
-5.0535885967
 20
-17.787141218
 10
-5.0609649625
 20
-17.7690084601
 10
-5.0699512993
 20
-17.7513592972
 10
-5.0807565606
 20
-17.7344052195
 10
-5.0933473755
 20
-17.7180417424
 10
-5.1077571148
 20
-17.7023733552
 10
-5.1242948441
 20
-17.6879250104
 10
-5.1432153661
 20
-17.6746934539
 10
-5.1642638781
 20
-17.662681947
 10
-5.1869850383
 20
-17.6524252188
 10
-5.2113631043
 20
-17.644204745
 10
-5.2374138184
 20
-17.6377390571
 10
-5.2647290662
 20
-17.6327184675
 10
-5.2931728095
 20
-17.6290397478
 10
-5.3228810865
 20
-17.6268061288
 10
-5.3538538971
 20
-17.6260176115
  0
LWPOLYLINE
  5
274
100
AcDbEntity
  8
RACCORDO
100
AcDbPolyline
 62
7
  6
CONTINUOUS
 90
4
 70
0
 10
-1.7724876425
 20
20.0185503772
 10
-1.7729242417
 20
20.0165092521
 10
-1.7737370368
 20
20.0113042769
 10
-1.7784957311
 20
19.977835212
  0
LINE
  5
275
100
AcDbEntity
  8
0
100
AcDbLine
 62
7
  6
CONTINUOUS
 10
-0.224196
 20
18.1576143887
 11
-0.747089
 21
16.3340723887
  0
LINE
  5
276
100
AcDbEntity
  8
DRAFT
100
AcDbLine
 62
7
  6
CONTINUOUS
 10
2.4999831983
 20
-5.8535618384
 11
0.4861202271
 21
-5.8535618384
  0
LINE
  5
277
100
AcDbEntity
  8
DRAFT
100
AcDbLine
 62
7
  6
CONTINUOUS
 10
-0.4861202271
 20
-5.8535618384
 11
-2.0999831983
 21
-5.8535618384
  0
LINE
  5
278
100
AcDbEntity
  8
DRAFT
100
AcDbLine
 62
7
  6
CONTINUOUS
 10
2.3277296255
 20
-5.7674416113
 11
0.4
 21
-5.7674416113
  0
LINE
  5
279
100
AcDbEntity
  8
DRAFT
100
AcDbLine
 62
7
  6
CONTINUOUS
 10
-0.4
 20
-5.7674416113
 11
-1.9277296255
 21
-5.7674416113
  0
LINE
  5
27A
100
AcDbEntity
  8
SMUSSO
100
AcDbLine
 62
7
  6
CONTINUOUS
 10
2.3277296255
 20
-5.3674416113
 11
0.7483314774
 21
-5.3674416113
  0
LINE
  5
27B
100
AcDbEntity
  8
SMUSSO
100
AcDbLine
 62
7
  6
CONTINUOUS
 10
-0.7483314774
 20
-5.3674416113
 11
-1.9277296255
 21
-5.3674416113
  0
LINE
  5
27C
100
AcDbEntity
  8
SMUSSO
100
AcDbLine
 62
7
  6
CONTINUOUS
 10
-1.2
 20
-4.9674416113
 11
-2.1001436563
 21
-4.9674416113
  0
LINE
  5
27D
100
AcDbEntity
  8
SMUSSO
100
AcDbLine
 62
7
  6
CONTINUOUS
 10
1.2
 20
-4.9674416113
 11
2.5001436563
 21
-4.9674416113
  0
LINE
  5
27E
100
AcDbEntity
  8
0
100
AcDbLine
 62
7
  6
CONTINUOUS
 10
-3.236604
 20
18.1576143887
 11
-3.236611
 21
15.3574813887
  0
LINE
  5
27F
100
AcDbEntity
  8
0
100
AcDbLine
 62
7
  6
CONTINUOUS
 10
-3.196852
 20
-17.4410676113
 11
-3.196852
 21
-17.6327136113
  0
LWPOLYLINE
  5
280
100
AcDbEntity
  8
0
100
AcDbPolyline
 62
7
  6
CONTINUOUS
 90
19
 70
0
 10
-4.8152430759
 20
-17.9034437675
 10
-4.816157425
 20
-17.9465727789
 10
-4.8204298824
 20
-17.9885235979
 10
-4.8280604482
 20
-18.0292962348
 10
-4.8391309843
 20
-18.0692593681
 10
-4.8535596287
 20
-18.1080443372
 10
-4.8711007955
 20
-18.1445451522
 10
-4.8917835918
 20
-18.178603078
 10
-4.9155789105
 20
-18.2103768851
 10
-4.9421538443
 20
-18.2392368541
 10
-4.9715676615
 20
-18.2649709088
 10
-5.0037610938
 20
-18.2877911609
 10
-5.038223429
 20
-18.3077041737
 10
-5.0748697806
 20
-18.3247241169
 10
-5.1137850351
 20
-18.3388368443
 10
-5.1547131399
 20
-18.3500064433
 10
-5.1975687442
 20
-18.3582209474
 10
-5.2424371988
 20
-18.3634923356
 10
-5.2893185038
 20
-18.3658206113
  0
LINE
  5
281
100
AcDbEntity
  8
RACCORDO
100
AcDbLine
 62
7
  6
CONTINUOUS
 10
-1.7616887166
 20
20.1005763627
 11
-1.7724870107
 21
20.0185551764
  0
LINE
  5
282
100
AcDbEntity
  8
RACCORDO
100
AcDbLine
 62
7
  6
CONTINUOUS
 10
-1.7861281792
 20
19.9219302337
 11
-1.7954288245
 21
19.8516015434
  0
LINE
  5
283
100
AcDbEntity
  8
RACCORDO
100
AcDbLine
 62
7
  6
CONTINUOUS
 10
-1.7954288245
 20
19.8516015434
 11
-1.7988141317
 21
19.8266374737
  0
LINE
  5
284
100
AcDbEntity
  8
RACCORDO
100
AcDbLine
 62
7
  6
CONTINUOUS
 10
-1.7784957311
 20
19.977835212
 11
-1.7861281792
 21
19.9219302337
  0
LINE
  5
285
100
AcDbEntity
  8
0
100
AcDbLine
 62
7
  6
CONTINUOUS
 10
0.062377
 20
17.2039833887
 11
-0.467089
 21
15.3574953887
  0
LINE
  5
286
100
AcDbEntity
  8
0
100
AcDbLine
 62
7
  6
CONTINUOUS
 10
1.894767
 20
18.1576213887
 11
0.99575
 21
15.3574883887
  0
LINE
  5
287
100
AcDbEntity
  8
0
100
AcDbLine
 62
7
  6
CONTINUOUS
 10
1.73257
 20
15.9081573887
 11
1.555771
 21
15.3574953887
  0
LINE
  5
288
100
AcDbEntity
  8
0
100
AcDbLine
 62
7
  6
CONTINUOUS
 10
2.174788
 20
17.2855263887
 11
1.903391
 21
16.4401783887
  0
LINE
  5
289
100
AcDbEntity
  8
DRAFT
100
AcDbLine
 62
7
  6
CONTINUOUS
 10
0.4
 20
5.2825583887
 11
0.4861202271
 21
5.3686786158
  0
LINE
  5
28A
100
AcDbEntity
  8
DRAFT
100
AcDbLine
 62
7
  6
CONTINUOUS
 10
2.4999831983
 20
5.3686786158
 11
2.3277296255
 21
5.2825583887
  0
LINE
  5
28B
100
AcDbEntity
  8
DRAFT
100
AcDbLine
 62
7
  6
CONTINUOUS
 10
7.95
 20
-3.9924416113
 11
7.0
 21
-3.9924416113
  0
LINE
  5
28C
100
AcDbEntity
  8
DRAFT
100
AcDbLine
 62
7
  6
CONTINUOUS
 10
-7.0
 20
-3.9924416113
 11
-7.95
 21
-3.9924416113
  0
LINE
  5
28D
100
AcDbEntity
  8
DRAFT
100
AcDbLine
 62
7
  6
CONTINUOUS
 10
2.4999831983
 20
-5.8535618384
 11
2.3277296255
 21
-5.7674416113
  0
LINE
  5
28E
100
AcDbEntity
  8
DRAFT
100
AcDbLine
 62
7
  6
CONTINUOUS
 10
0.4
 20
-5.7674416113
 11
0.4861202271
 21
-5.8535618384
  0
LINE
  5
28F
100
AcDbEntity
  8
SMUSSO
100
AcDbLine
 62
7
  6
CONTINUOUS
 10
-1.9277296255
 20
-5.3674416113
 11
-1.9347116515
 21
-4.9674416113
  0
LINE
  5
290
100
AcDbEntity
  8
0
100
AcDbLine
 62
7
  6
CONTINUOUS
 10
-2.676583
 20
18.1576143887
 11
-2.67659
 21
15.3574883887
  0
LINE
  5
291
100
AcDbEntity
  8
0
100
AcDbLine
 62
7
  6
CONTINUOUS
 10
-2.655391
 20
-17.6327136113
 11
-2.655391
 21
-19.0410676113
  0
LINE
  5
292
100
AcDbEntity
  8
0
100
AcDbLine
 62
7
  6
CONTINUOUS
 10
-2.439236
 20
-17.6327136113
 11
-2.439236
 21
-19.0410676113
  0
LINE
  5
293
100
AcDbEntity
  8
0
100
AcDbLine
 62
7
  6
CONTINUOUS
 10
-2.116583
 20
18.1576143887
 11
-2.116583
 21
15.3574883887
  0
LINE
  5
294
100
AcDbEntity
  8
SMUSSO
100
AcDbLine
 62
7
  6
CONTINUOUS
 10
-1.9277296255
 20
-5.7674416113
 11
-1.9277296255
 21
-5.3674416113
  0
LINE
  5
295
100
AcDbEntity
  8
SMUSSO
100
AcDbLine
 62
7
  6
CONTINUOUS
 10
-1.9277296255
 20
4.8825583887
 11
-1.9277296255
 21
5.2825583887
  0
LINE
  5
296
100
AcDbEntity
  8
0
100
AcDbLine
 62
7
  6
CONTINUOUS
 10
-1.897776
 20
-17.4410676113
 11
-1.897776
 21
-17.6327136113
  0
LINE
  5
297
100
AcDbEntity
  8
0
100
AcDbLine
 62
7
  6
CONTINUOUS
 10
-1.672651
 20
-18.8048256113
 11
-1.672651
 21
-19.0410676113
  0
LINE
  5
298
100
AcDbEntity
  8
0
100
AcDbLine
 62
7
  6
CONTINUOUS
 10
-1.556562
 20
17.2039833887
 11
-1.556562
 21
15.3574883887
  0
LINE
  5
299
100
AcDbEntity
  8
DRAFT
100
AcDbLine
 62
7
  6
CONTINUOUS
 10
-1.5
 20
21.5075583887
 11
-1.5
 21
20.7075583887
  0
LINE
  5
29A
100
AcDbEntity
  8
SMUSSO
100
AcDbLine
 62
7
  6
CONTINUOUS
 10
-1.9347116515
 20
4.4825583887
 11
-1.9277296255
 21
4.8825583887
  0
LINE
  5
29B
100
AcDbEntity
  8
RACCORDO
100
AcDbLine
 62
7
  6
CONTINUOUS
 10
0.4467444254
 20
11.799314868
 11
0.4850850082
 21
11.9911346636
  0
LINE
  5
29C
100
AcDbEntity
  8
RACCORDO
100
AcDbLine
 62
250
  6
CONTINUOUS
 10
7.0
 20
-2.988072139
 11
7.9091086907
 21
-2.988072139
  0
LINE
  5
29D
100
AcDbEntity
  8
RACCORDO
100
AcDbLine
 62
250
  6
CONTINUOUS
 10
-7.0
 20
-2.988072139
 11
-7.9091086907
 21
-2.988072139
  0
LINE
  5
29E
100
AcDbEntity
  8
ASSI
100
AcDbLine
 62
7
  6
CONTINUOUS
 10
-7.0
 20
-2.7424416113
 11
-6.8
 21
-2.7424416113
  0
LINE
  5
29F
100
AcDbEntity
  8
ASSI
100
AcDbLine
 62
7
  6
CONTINUOUS
 10
7.0
 20
-2.7424416113
 11
6.8
 21
-2.7424416113
  0
LINE
  5
2A0
100
AcDbEntity
  8
ASSI
100
AcDbLine
 62
250
  6
CONTINUOUS
 10
7.9072184527
 20
-2.1161550216
 11
6.8
 21
-2.1161550216
  0
LINE
  5
2A1
100
AcDbEntity
  8
ASSI
100
AcDbLine
 62
250
  6
CONTINUOUS
 10
-6.8
 20
-2.1161550216
 11
-7.9072184527
 21
-2.1161550216
  0
LINE
  5
2A2
100
AcDbEntity
  8
ASSI
100
AcDbLine
 62
250
  6
CONTINUOUS
 10
7.9102320144
 20
-1.8263971682
 11
6.8
 21
-1.8263971682
  0
LINE
  5
2A3
100
AcDbEntity
  8
ASSI
100
AcDbLine
 62
250
  6
CONTINUOUS
 10
-6.8
 20
-1.8263971682
 11
-7.9102320144
 21
-1.8263971682
  0
LINE
  5
2A4
100
AcDbEntity
  8
ASSI
100
AcDbLine
 62
7
  6
CONTINUOUS
 10
-7.9158415369
 20
-1.5924416113
 11
-6.8
 21
-1.5924416113
  0
LINE
  5
2A5
100
AcDbEntity
  8
ASSI
100
AcDbLine
 62
7
  6
CONTINUOUS
 10
7.9158415369
 20
-1.5924416113
 11
6.8
 21
-1.5924416113
  0
LINE
  5
2A6
100
AcDbEntity
  8
0
100
AcDbLine
 62
7
  6
CONTINUOUS
 10
-1.440958
 20
-18.8048256113
 11
-1.440958
 21
-19.0410676113
  0
LINE
  5
2A7
100
AcDbEntity
  8
DRAFT
100
AcDbLine
 62
7
  6
CONTINUOUS
 10
-0.4383982183
 20
-9.5924416113
 11
-0.4383982183
 21
-8.5501195838
  0
LINE
  5
2A8
100
AcDbEntity
  8
RACCORDO
100
AcDbLine
 62
7
  6
CONTINUOUS
 10
-0.4383982183
 20
8.0652363613
 11
-0.4383982183
 21
10.8002666465
  0
LINE
  5
2A9
100
AcDbEntity
  8
0
100
AcDbLine
 62
7
  6
CONTINUOUS
 10
-0.435983
 20
-17.4410676113
 11
-0.435983
 21
-19.0410676113
  0
LINE
  5
2AA
100
AcDbEntity
  8
RACCORDO
100
AcDbLine
 62
7
  6
CONTINUOUS
 10
-0.4
 20
-7.3099265252
 11
-0.4
 21
-5.7674416113
  0
LINE
  5
2AB
100
AcDbEntity
  8
RACCORDO
100
AcDbLine
 62
7
  6
CONTINUOUS
 10
-0.4
 20
5.2825583887
 11
-0.4
 21
6.8250433026
  0
LINE
  5
2AC
100
AcDbEntity
  8
0
100
AcDbLine
 62
7
  6
CONTINUOUS
 10
-0.219829
 20
-17.6260176113
 11
-0.219829
 21
-18.1808696113
  0
LINE
  5
2AD
100
AcDbEntity
  8
0
100
AcDbLine
 62
7
  6
CONTINUOUS
 10
-0.219829
 20
-18.3658206113
 11
-0.219829
 21
-19.0410676113
  0
LINE
  5
2AE
100
AcDbEntity
  8
0
100
AcDbLine
 62
7
  6
CONTINUOUS
 10
0.062377
 20
17.2039833887
 11
0.062384
 21
15.3574883887
  0
LINE
  5
2AF
100
AcDbEntity
  8
RACCORDO
100
AcDbLine
 62
7
  6
CONTINUOUS
 10
0.4081181123
 20
7.8226073528
 11
0.4383982183
 21
8.0652363613
  0
LINE
  5
2B0
100
AcDbEntity
  8
RACCORDO
100
AcDbLine
 62
250
  6
CONTINUOUS
 10
9.7500228453
 20
20.7075583887
 11
9.7057366454
 21
20.6189792428
  0
LINE
  5
2B1
100
AcDbEntity
  8
RACCORDO
100
AcDbLine
 62
250
  6
CONTINUOUS
 10
9.95
 20
20.5075583875
 11
9.9057290344
 21
20.4190097125
  0
LINE
  5
2B2
100
AcDbEntity
  8
ASSI
100
AcDbLine
 62
7
  6
CONTINUOUS
 10
-7.0
 20
-0.9513139552
 11
-6.8
 21
-0.9513139552
  0
LINE
  5
2B3
100
AcDbEntity
  8
ASSI
100
AcDbLine
 62
7
  6
CONTINUOUS
 10
7.0
 20
-0.9513139552
 11
6.8
 21
-0.9513139552
  0
LINE
  5
2B4
100
AcDbEntity
  8
RACCORDO
100
AcDbLine
 62
250
  6
CONTINUOUS
 10
9.7500228453
 20
-21.1924416113
 11
9.7057366454
 21
-21.1038624654
  0
LINE
  5
2B5
100
AcDbEntity
  8
RACCORDO
100
AcDbLine
 62
250
  6
CONTINUOUS
 10
9.95
 20
-20.9924416101
 11
9.9057290351
 21
-20.9038929366
  0
LINE
  5
2B6
100
AcDbEntity
  8
0
100
AcDbLine
 62
7
  6
CONTINUOUS
 10
-5.968046
 20
18.1576143887
 11
-5.069022
 21
15.3574813887
  0
LINE
  5
2B7
100
AcDbEntity
  8
DRAFT
100
AcDbLine
 62
7
  6
CONTINUOUS
 10
0.4383982183
 20
-9.5924416113
 11
0.485591077
 21
-9.828549773
  0
LINE
  5
2B8
100
AcDbEntity
  8
RACCORDO
100
AcDbLine
 62
7
  6
CONTINUOUS
 10
0.4081181123
 20
-8.3074905754
 11
0.4383982183
 21
-8.5501195838
  0
LINE
  5
2B9
100
AcDbEntity
  8
RACCORDO
100
AcDbLine
 62
7
  6
CONTINUOUS
 10
0.4
 20
6.8250433026
 11
0.4
 21
5.2825583887
  0
LINE
  5
2BA
100
AcDbEntity
  8
RACCORDO
100
AcDbLine
 62
7
  6
CONTINUOUS
 10
0.4
 20
-5.7674416113
 11
0.4
 21
-7.3099265252
  0
LINE
  5
2BB
100
AcDbEntity
  8
RACCORDO
100
AcDbLine
 62
7
  6
CONTINUOUS
 10
0.4383982183
 20
10.8002666465
 11
0.4383982183
 21
8.0652363613
  0
LINE
  5
2BC
100
AcDbEntity
  8
DRAFT
100
AcDbLine
 62
7
  6
CONTINUOUS
 10
0.4383982183
 20
-8.5501195838
 11
0.4383982183
 21
-9.5924416113
  0
LINE
  5
2BD
100
AcDbEntity
  8
0
100
AcDbLine
 62
7
  6
CONTINUOUS
 10
0.622405
 20
18.1576143887
 11
0.622405
 21
15.3574883887
  0
LINE
  5
2BE
100
AcDbEntity
  8
0
100
AcDbLine
 62
7
  6
CONTINUOUS
 10
1.050317
 20
-17.4410676113
 11
1.050317
 21
-19.0410676113
  0
LINE
  5
2BF
100
AcDbEntity
  8
0
100
AcDbLine
 62
7
  6
CONTINUOUS
 10
1.266472
 20
-17.6327136113
 11
1.266472
 21
-18.1230096113
  0
LINE
  5
2C0
100
AcDbEntity
  8
0
100
AcDbLine
 62
7
  6
CONTINUOUS
 10
1.266472
 20
-18.3146556113
 11
1.266472
 21
-18.8494206113
  0
LINE
  5
2C1
100
AcDbEntity
  8
DRAFT
100
AcDbLine
 62
7
  6
CONTINUOUS
 10
1.5
 20
20.7075583887
 11
1.5
 21
21.5075583887
  0
LWPOLYLINE
  5
2C2
100
AcDbEntity
  8
0
100
AcDbPolyline
 62
7
  6
CONTINUOUS
 90
22
 70
0
 10
0.5350957221
 20
-17.9034438032
 10
0.5351808297
 20
-17.8834695133
 10
0.5341881418
 20
-17.8637314327
 10
0.5321176584
 20
-17.8442295623
 10
0.5291467714
 20
-17.8248814441
 10
0.5250980888
 20
-17.805769538
 10
0.5194394352
 20
-17.7871412231
 10
0.5120630697
 20
-17.7690084648
 10
0.5030767331
 20
-17.7513593015
 10
0.4922714721
 20
-17.7344052234
 10
0.4796806574
 20
-17.7180417458
 10
0.4652709182
 20
-17.702373358
 10
0.4487331889
 20
-17.6879250128
 10
0.4298126669
 20
-17.6746934558
 10
0.4087641547
 20
-17.6626819484
 10
0.3860429943
 20
-17.6524252198
 10
0.361664928
 20
-17.6442047457
 10
0.3356142135
 20
-17.6377390576
 10
0.3082989652
 20
-17.6327184678
 10
0.2798552215
 20
-17.6290397478
 10
0.2501469441
 20
-17.6268061289
 10
0.2191741329
 20
-17.6260176115
  0
LWPOLYLINE
  5
2C3
100
AcDbEntity
  8
0
100
AcDbPolyline
 62
7
  6
CONTINUOUS
 90
19
 70
0
 10
0.7577849541
 20
-17.9034437675
 10
0.756870605
 20
-17.9465727789
 10
0.7525981476
 20
-17.9885235979
 10
0.7449675818
 20
-18.0292962348
 10
0.7338970457
 20
-18.0692593681
 10
0.7194684013
 20
-18.1080443372
 10
0.7019272345
 20
-18.1445451522
 10
0.6812444382
 20
-18.178603078
 10
0.6574491195
 20
-18.2103768851
 10
0.6308741857
 20
-18.2392368541
 10
0.6014603685
 20
-18.2649709088
 10
0.5692669362
 20
-18.2877911609
 10
0.534804601
 20
-18.3077041737
 10
0.4981582494
 20
-18.3247241169
 10
0.4592429949
 20
-18.3388368443
 10
0.4183148901
 20
-18.3500064433
 10
0.3754592858
 20
-18.3582209474
 10
0.3305908312
 20
-18.3634923356
 10
0.2837095262
 20
-18.3658206113
  0
LINE
  5
2C4
100
AcDbEntity
  8
RACCORDO
100
AcDbLine
 62
7
  6
CONTINUOUS
 10
-0.4081181123
 20
-8.3074905754
 11
-0.4383982183
 21
-8.5501195838
  0
LINE
  5
2C5
100
AcDbEntity
  8
DRAFT
100
AcDbLine
 62
7
  6
CONTINUOUS
 10
-0.4383982183
 20
-9.5924416113
 11
-0.485591077
 21
-9.828549773
  0
LINE
  5
2C6
100
AcDbEntity
  8
RACCORDO
100
AcDbLine
 62
250
  6
CONTINUOUS
 10
-9.95
 20
-20.9924416101
 11
-9.9057290351
 21
-20.9038929366
  0
LINE
  5
2C7
100
AcDbEntity
  8
RACCORDO
100
AcDbLine
 62
250
  6
CONTINUOUS
 10
-9.7500228453
 20
-21.1924416113
 11
-9.7057366454
 21
-21.1038624654
  0
LINE
  5
2C8
100
AcDbEntity
  8
ASSI
100
AcDbLine
 62
7
  6
CONTINUOUS
 10
-7.0
 20
0.4664307326
 11
-6.8
 21
0.4664307326
  0
LINE
  5
2C9
100
AcDbEntity
  8
ASSI
100
AcDbLine
 62
7
  6
CONTINUOUS
 10
7.0
 20
0.4664307326
 11
6.8
 21
0.4664307326
  0
LINE
  5
2CA
100
AcDbEntity
  8
ASSI
100
AcDbLine
 62
7
  6
CONTINUOUS
 10
-7.9158415369
 20
1.1075583887
 11
-6.8
 21
1.1075583887
  0
LINE
  5
2CB
100
AcDbEntity
  8
ASSI
100
AcDbLine
 62
7
  6
CONTINUOUS
 10
7.9158415369
 20
1.1075583887
 11
6.8
 21
1.1075583887
  0
LINE
  5
2CC
100
AcDbEntity
  8
ASSI
100
AcDbLine
 62
250
  6
CONTINUOUS
 10
7.9102320144
 20
1.3415139456
 11
6.8
 21
1.3415139456
  0
LINE
  5
2CD
100
AcDbEntity
  8
ASSI
100
AcDbLine
 62
250
  6
CONTINUOUS
 10
-6.8
 20
1.3415139456
 11
-7.9102320144
 21
1.3415139456
  0
LINE
  5
2CE
100
AcDbEntity
  8
ASSI
100
AcDbLine
 62
250
  6
CONTINUOUS
 10
7.9072184527
 20
1.631271799
 11
6.8
 21
1.631271799
  0
LINE
  5
2CF
100
AcDbEntity
  8
ASSI
100
AcDbLine
 62
250
  6
CONTINUOUS
 10
-6.8
 20
1.631271799
 11
-7.9072184527
 21
1.631271799
  0
LINE
  5
2D0
100
AcDbEntity
  8
RACCORDO
100
AcDbLine
 62
250
  6
CONTINUOUS
 10
-9.95
 20
20.5075583875
 11
-9.9057290344
 21
20.4190097125
  0
LINE
  5
2D1
100
AcDbEntity
  8
RACCORDO
100
AcDbLine
 62
250
  6
CONTINUOUS
 10
-9.7500228453
 20
20.7075583887
 11
-9.7057366454
 21
20.6189792428
  0
LINE
  5
2D2
100
AcDbEntity
  8
0
100
AcDbLine
 62
7
  6
CONTINUOUS
 10
-5.408018
 20
18.1576143887
 11
-4.788994
 21
16.2295763887
  0
LINE
  5
2D3
100
AcDbEntity
  8
RACCORDO
100
AcDbLine
 62
7
  6
CONTINUOUS
 10
-0.4467444254
 20
11.799314868
 11
-0.4850850082
 21
11.9911346636
  0
LINE
  5
2D4
100
AcDbEntity
  8
RACCORDO
100
AcDbLine
 62
7
  6
CONTINUOUS
 10
-0.4081181123
 20
7.8226073528
 11
-0.4383982183
 21
8.0652363613
  0
LINE
  5
2D5
100
AcDbEntity
  8
SMUSSO
100
AcDbLine
 62
7
  6
CONTINUOUS
 10
2.3277296255
 20
4.8825583887
 11
2.3347116515
 21
4.4825583887
  0
LINE
  5
2D6
100
AcDbEntity
  8
0
100
AcDbLine
 62
7
  6
CONTINUOUS
 10
2.142335
 20
-18.1230096113
 11
2.142335
 21
-18.3146556113
  0
LINE
  5
2D7
100
AcDbEntity
  8
0
100
AcDbLine
 62
7
  6
CONTINUOUS
 10
2.21586
 20
-17.4410676113
 11
2.21586
 21
-17.6327136113
  0
LINE
  5
2D8
100
AcDbEntity
  8
0
100
AcDbLine
 62
7
  6
CONTINUOUS
 10
2.231399
 20
-18.8494206113
 11
2.231399
 21
-19.0410676113
  0
LINE
  5
2D9
100
AcDbEntity
  8
SMUSSO
100
AcDbLine
 62
7
  6
CONTINUOUS
 10
2.3277296255
 20
5.2825583887
 11
2.3277296255
 21
4.8825583887
  0
LINE
  5
2DA
100
AcDbEntity
  8
SMUSSO
100
AcDbLine
 62
7
  6
CONTINUOUS
 10
2.3277296255
 20
-5.3674416113
 11
2.3277296255
 21
-5.7674416113
  0
LINE
  5
2DB
100
AcDbEntity
  8
0
100
AcDbLine
 62
7
  6
CONTINUOUS
 10
2.514384
 20
-17.4410676113
 11
2.514384
 21
-19.0410676113
  0
LINE
  5
2DC
100
AcDbEntity
  8
0
100
AcDbLine
 62
7
  6
CONTINUOUS
 10
2.723843
 20
-17.7415346113
 11
2.723843
 21
-19.0410676113
  0
LINE
  5
2DD
100
AcDbEntity
  8
0
100
AcDbLine
 62
7
  6
CONTINUOUS
 10
3.575071
 20
-17.4410676113
 11
3.575071
 21
-18.7407186113
  0
LINE
  5
2DE
100
AcDbEntity
  8
SMUSSO
100
AcDbLine
 62
7
  6
CONTINUOUS
 10
2.3347116515
 20
-4.9674416113
 11
2.3277296255
 21
-5.3674416113
  0
LINE
  5
2DF
100
AcDbEntity
  8
0
100
AcDbLine
 62
7
  6
CONTINUOUS
 10
-4.293165
 20
-18.5752796113
 11
-4.460302
 21
-19.0410676113
  0
LINE
  5
2E0
100
AcDbEntity
  8
0
100
AcDbLine
 62
7
  6
CONTINUOUS
 10
-3.967832
 20
-17.6731336113
 11
-4.226335
 21
-18.3836336113
  0
LINE
  5
2E1
100
AcDbEntity
  8
0
100
AcDbLine
 62
7
  6
CONTINUOUS
 10
-4.081431
 20
-17.4410676113
 11
-4.683153
 21
-19.0410676113
  0
LINE
  5
2E2
100
AcDbEntity
  8
ASSI
100
AcDbLine
 62
7
  6
CONTINUOUS
 10
-7.0
 20
2.2575583887
 11
-6.8
 21
2.2575583887
  0
LINE
  5
2E3
100
AcDbEntity
  8
ASSI
100
AcDbLine
 62
7
  6
CONTINUOUS
 10
7.0
 20
2.2575583887
 11
6.8
 21
2.2575583887
  0
LINE
  5
2E4
100
AcDbEntity
  8
RACCORDO
100
AcDbLine
 62
250
  6
CONTINUOUS
 10
7.0
 20
2.5031889164
 11
7.9091086907
 21
2.5031889164
  0
LINE
  5
2E5
100
AcDbEntity
  8
RACCORDO
100
AcDbLine
 62
250
  6
CONTINUOUS
 10
-7.0
 20
2.5031889164
 11
-7.9091086907
 21
2.5031889164
  0
LINE
  5
2E6
100
AcDbEntity
  8
DRAFT
100
AcDbLine
 62
7
  6
CONTINUOUS
 10
7.95
 20
3.5075583887
 11
7.0
 21
3.5075583887
  0
LINE
  5
2E7
100
AcDbEntity
  8
DRAFT
100
AcDbLine
 62
7
  6
CONTINUOUS
 10
-7.0
 20
3.5075583887
 11
-7.95
 21
3.5075583887
  0
LINE
  5
2E8
100
AcDbEntity
  8
DRAFT
100
AcDbLine
 62
7
  6
CONTINUOUS
 10
-0.4
 20
5.2825583887
 11
-0.4861202271
 21
5.3686786158
  0
LINE
  5
2E9
100
AcDbEntity
  8
0
100
AcDbLine
 62
7
  6
CONTINUOUS
 10
-1.556562
 20
17.2039833887
 11
-1.027096
 21
15.3574883887
  0
LWPOLYLINE
  5
2EA
100
AcDbEntity
  8
0
100
AcDbPolyline
 62
7
  6
CONTINUOUS
 90
28
 70
0
 10
5.2325942013
 20
-18.2410671738
 10
5.2320666793
 20
-18.2085083743
 10
5.2307261838
 20
-18.1760637696
 10
5.2285727148
 20
-18.1437333605
 10
5.2257391331
 20
-18.1115176941
 10
5.222092578
 20
-18.0794162252
 10
5.2172344669
 20
-18.0474273171
 10
5.2111739392
 20
-18.0154416109
 10
5.2039018556
 20
-17.9835684668
 10
5.1949922156
 20
-17.952134329
 10
5.1844172646
 20
-17.9210536163
 10
5.1722047574
 20
-17.8904119156
 10
5.1580119574
 20
-17.8607924296
 10
5.141694923
 20
-17.8322005015
 10
5.1233975959
 20
-17.8046308009
 10
5.1032090651
 20
-17.7786505259
 10
5.0810337946
 20
-17.7542528025
 10
5.0569673205
 20
-17.7314445218
 10
5.0313853396
 20
-17.7108135356
 10
5.0042331722
 20
-17.6925033663
 10
4.9755654981
 20
-17.6763705098
 10
4.9459220536
 20
-17.66257228
 10
4.9152891622
 20
-17.6512762063
 10
4.8836805004
 20
-17.6423147719
 10
4.8516768336
 20
-17.635342719
 10
4.8194717506
 20
-17.630244963
 10
4.7868716627
 20
-17.6271365934
 10
4.7538765699
 20
-17.6260176115
  0
LWPOLYLINE
  5
2EB
100
AcDbEntity
  8
0
100
AcDbPolyline
 62
7
  6
CONTINUOUS
 90
31
 70
0
 10
5.4549805805
 20
-18.2410671739
 10
5.4552929979
 20
-18.2802957116
 10
5.4542350496
 20
-18.3194006807
 10
5.4518067356
 20
-18.3583820821
 10
5.4481287798
 20
-18.3973127647
 10
5.4430804584
 20
-18.4361198808
 10
5.4362995993
 20
-18.4745848884
 10
5.4276108157
 20
-18.5126697112
 10
5.4171894945
 20
-18.550412431
 10
5.4051996246
 20
-18.5877087453
 10
5.3917844917
 20
-18.6246832965
 10
5.3768008101
 20
-18.6612114485
 10
5.3599827112
 20
-18.6968149857
 10
5.3413236758
 20
-18.7315322044
 10
5.3208302231
 20
-18.7653248223
 10
5.2982560417
 20
-18.7975997637
 10
5.2734195423
 20
-18.8283427477
 10
5.2465023142
 20
-18.8575680765
 10
5.2178028133
 20
-18.8847255572
 10
5.1872264524
 20
-18.9096849443
 10
5.1548678187
 20
-18.9325765079
 10
5.1213091296
 20
-18.9532408314
 10
5.0865881733
 20
-18.9715943907
 10
5.0506671616
 20
-18.9877207297
 10
5.0140149479
 20
-19.0017110321
 10
4.9766722989
 20
-19.0135924049
 10
4.9385984478
 20
-19.0233377537
 10
4.9001399472
 20
-19.030956958
 10
4.8614123145
 20
-19.0364533131
 10
4.8223000322
 20
-19.0398235301
 10
4.7828031003
 20
-19.0410676106
  0
LINE
  5
2EC
100
AcDbEntity
  8
0
100
AcDbLine
 62
7
  6
CONTINUOUS
 10
3.727192
 20
18.1576213887
 11
3.727192
 21
15.3574953887
  0
LINE
  5
2ED
100
AcDbEntity
  8
0
100
AcDbLine
 62
7
  6
CONTINUOUS
 10
3.78453
 20
-17.4410676113
 11
3.78453
 21
-19.0410676113
  0
LINE
  5
2EE
100
AcDbEntity
  8
0
100
AcDbLine
 62
7
  6
CONTINUOUS
 10
4.134344
 20
-17.4410676113
 11
4.134344
 21
-19.0410676113
  0
LINE
  5
2EF
100
AcDbEntity
  8
0
100
AcDbLine
 62
7
  6
CONTINUOUS
 10
4.279492
 20
17.6396003887
 11
4.279499
 21
16.9582063887
  0
LINE
  5
2F0
100
AcDbEntity
  8
0
100
AcDbLine
 62
7
  6
CONTINUOUS
 10
4.350499
 20
-17.6260176113
 11
4.350499
 21
-18.8561166113
  0
LINE
  5
2F1
100
AcDbEntity
  8
0
100
AcDbLine
 62
7
  6
CONTINUOUS
 10
4.287283
 20
16.4401853887
 11
4.28722
 21
15.3574953887
  0
LINE
  5
2F2
100
AcDbEntity
  8
DRAFT
100
AcDbLine
 62
7
  6
CONTINUOUS
 10
-0.4
 20
-5.7674416113
 11
-0.4861202271
 21
-5.8535618384
  0
LINE
  5
2F3
100
AcDbEntity
  8
DRAFT
100
AcDbLine
 62
7
  6
CONTINUOUS
 10
-2.0999831983
 20
-5.8535618384
 11
-1.9277296255
 21
-5.7674416113
  0
LINE
  5
2F4
100
AcDbEntity
  8
SMUSSO
100
AcDbLine
 62
7
  6
CONTINUOUS
 10
-1.2
 20
4.4825583887
 11
-2.1001436563
 21
4.4825583887
  0
LINE
  5
2F5
100
AcDbEntity
  8
SMUSSO
100
AcDbLine
 62
7
  6
CONTINUOUS
 10
1.2
 20
4.4825583887
 11
2.5001436563
 21
4.4825583887
  0
LINE
  5
2F6
100
AcDbEntity
  8
SMUSSO
100
AcDbLine
 62
7
  6
CONTINUOUS
 10
-1.9277296255
 20
4.8825583887
 11
-0.7483314774
 21
4.8825583887
  0
LINE
  5
2F7
100
AcDbEntity
  8
SMUSSO
100
AcDbLine
 62
7
  6
CONTINUOUS
 10
0.7483314774
 20
4.8825583887
 11
2.3277296255
 21
4.8825583887
  0
LINE
  5
2F8
100
AcDbEntity
  8
DRAFT
100
AcDbLine
 62
7
  6
CONTINUOUS
 10
-1.9277296255
 20
5.2825583887
 11
-0.4
 21
5.2825583887
  0
LINE
  5
2F9
100
AcDbEntity
  8
DRAFT
100
AcDbLine
 62
7
  6
CONTINUOUS
 10
0.4
 20
5.2825583887
 11
2.3277296255
 21
5.2825583887
  0
LINE
  5
2FA
100
AcDbEntity
  8
DRAFT
100
AcDbLine
 62
7
  6
CONTINUOUS
 10
-2.0999831983
 20
5.3686786158
 11
-1.9277296255
 21
5.2825583887
  0
LINE
  5
2FB
100
AcDbEntity
  8
0
100
AcDbLine
 62
7
  6
CONTINUOUS
 10
-1.269982
 20
18.1576143887
 11
-0.747089
 21
16.3340723887
  0
LINE
  5
2FC
100
AcDbEntity
  8
RACCORDO
100
AcDbLine
 62
7
  6
CONTINUOUS
 10
1.7737342267
 20
20.0113177257
 11
1.7784941664
 21
19.9778491509
  0
LWPOLYLINE
  5
2FD
100
AcDbEntity
  8
RACCORDO
100
AcDbPolyline
 62
7
  6
CONTINUOUS
 90
4
 70
0
 10
1.7784941664
 20
19.9778491509
 10
1.7891146911
 20
19.899578393
 10
1.7921995128
 20
19.8760134221
 10
1.7988141317
 20
19.8266374737
  0
LINE
  5
2FE
100
AcDbEntity
  8
RACCORDO
100
AcDbLine
 62
7
  6
CONTINUOUS
 10
1.7616887166
 20
20.1005763627
 11
1.7724876425
 21
20.0185503772
  0
LINE
  5
2FF
100
AcDbEntity
  8
0
100
AcDbLine
 62
7
  6
CONTINUOUS
 10
5.756579
 20
-18.8048256113
 11
5.756579
 21
-19.0410676113
  0
LINE
  5
300
100
AcDbEntity
  8
0
100
AcDbLine
 62
7
  6
CONTINUOUS
 10
5.988399
 20
-18.8048256113
 11
5.988399
 21
-19.0410676113
  0
LINE
  5
301
100
AcDbEntity
  8
ASSI
100
AcDbLine
 62
7
  6
CONTINUOUS
 10
6.8
 20
-2.7424416113
 11
6.8
 21
-0.9513139552
  0
LINE
  5
302
100
AcDbEntity
  8
ASSI
100
AcDbLine
 62
7
  6
CONTINUOUS
 10
6.8
 20
0.4664307326
 11
6.8
 21
2.2575583887
  0
LINE
  5
303
100
AcDbEntity
  8
RACCORDO
100
AcDbLine
 62
7
  6
CONTINUOUS
 10
7.0
 20
-3.9924416113
 11
7.0
 21
-2.988072139
  0
LINE
  5
304
100
AcDbEntity
  8
ASSI
100
AcDbLine
 62
7
  6
CONTINUOUS
 10
7.0
 20
-2.988072139
 11
7.0
 21
-2.7424416113
  0
LINE
  5
305
100
AcDbEntity
  8
ASSI
100
AcDbLine
 62
7
  6
CONTINUOUS
 10
7.0
 20
-0.9513139552
 11
7.0
 21
0.4664307326
  0
LINE
  5
306
100
AcDbEntity
  8
ASSI
100
AcDbLine
 62
7
  6
CONTINUOUS
 10
7.0
 20
2.2575583887
 11
7.0
 21
2.5031889164
  0
LINE
  5
307
100
AcDbEntity
  8
RACCORDO
100
AcDbLine
 62
7
  6
CONTINUOUS
 10
7.0
 20
2.5031889164
 11
7.0
 21
3.5075583887
  0
LINE
  5
308
100
AcDbEntity
  8
DRAFT
100
AcDbLine
 62
7
  6
CONTINUOUS
 10
2.4999831983
 20
5.3686786158
 11
0.4861202271
 21
5.3686786158
  0
LINE
  5
309
100
AcDbEntity
  8
DRAFT
100
AcDbLine
 62
7
  6
CONTINUOUS
 10
-0.4861202271
 20
5.3686786158
 11
-2.0999831983
 21
5.3686786158
  0
LINE
  5
30A
100
AcDbEntity
  8
RACCORDO
100
AcDbLine
 62
250
  6
CONTINUOUS
 10
0.4
 20
6.8250433026
 11
-0.4
 21
6.8250433026
  0
LWPOLYLINE
  5
30B
100
AcDbEntity
  8
RACCORDO
100
AcDbPolyline
 62
7
  6
CONTINUOUS
 90
3
 70
0
 10
1.7724876425
 20
20.0185503772
 10
1.7729224853
 20
20.0165137662
 10
1.7737342267
 20
20.0113177257
  0
LINE
  5
30C
100
AcDbEntity
  8
RACCORDO
100
AcDbLine
 62
7
  6
CONTINUOUS
 10
4.0129173419
 20
20.6117444248
 11
4.0176799066
 21
20.5783265539
  0
LWPOLYLINE
  5
30D
100
AcDbEntity
  8
RACCORDO
100
AcDbPolyline
 62
7
  6
CONTINUOUS
 90
4
 70
0
 10
4.0176799066
 20
20.5783265539
 10
4.0282882451
 20
20.5002263849
 10
4.0313719972
 20
20.4766845992
 10
4.037988155
 20
20.4273074754
  0
LINE
  5
30E
100
AcDbEntity
  8
RACCORDO
100
AcDbLine
 62
7
  6
CONTINUOUS
 10
4.0116616658
 20
20.6189792428
 11
4.0009192012
 21
20.7005763627
  0
LINE
  5
30F
100
AcDbEntity
  8
RACCORDO
100
AcDbLine
 62
7
  6
CONTINUOUS
 10
7.95
 20
-3.9924416113
 11
7.9091086907
 21
-2.988072139
  0
LINE
  5
310
100
AcDbEntity
  8
RACCORDO
100
AcDbLine
 62
7
  6
CONTINUOUS
 10
7.9102320144
 20
1.3415139456
 11
7.9072184527
 21
1.631271799
  0
LINE
  5
311
100
AcDbEntity
  8
RACCORDO
100
AcDbLine
 62
7
  6
CONTINUOUS
 10
7.9072184527
 20
-2.1161550216
 11
7.9102320144
 21
-1.8263971682
  0
LINE
  5
312
100
AcDbEntity
  8
RACCORDO
100
AcDbLine
 62
7
  6
CONTINUOUS
 10
7.9091086907
 20
2.5031889164
 11
7.95
 21
3.5075583887
  0
LINE
  5
313
100
AcDbEntity
  8
RACCORDO
100
AcDbLine
 62
250
  6
CONTINUOUS
 10
0.4081181123
 20
7.8226073528
 11
-0.4081181123
 21
7.8226073528
  0
LINE
  5
314
100
AcDbEntity
  8
DRAFT
100
AcDbLine
 62
7
  6
CONTINUOUS
 10
-0.4383982183
 20
8.0652363613
 11
0.4383982183
 21
8.0652363613
  0
LINE
  5
315
100
AcDbEntity
  8
0
100
AcDbLine
 62
7
  6
CONTINUOUS
 10
2.617027
 20
15.9081573887
 11
2.793819
 21
15.3574953887
  0
LINE
  5
316
100
AcDbEntity
  8
0
100
AcDbLine
 62
7
  6
CONTINUOUS
 10
2.174788
 20
17.2855263887
 11
2.446199
 21
16.4401783887
  0
LINE
  5
317
100
AcDbEntity
  8
0
100
AcDbLine
 62
7
  6
CONTINUOUS
 10
2.454816
 20
18.1576213887
 11
3.353847
 21
15.3574883887
  0
LWPOLYLINE
  5
318
100
AcDbEntity
  8
RACCORDO
100
AcDbPolyline
 62
7
  6
CONTINUOUS
 90
3
 70
0
 10
4.0116616658
 20
20.6189792428
 10
4.0121017704
 20
20.6169411676
 10
4.0129173419
 20
20.6117444248
  0
LINE
  5
319
100
AcDbEntity
  8
RACCORDO
100
AcDbLine
 62
250
  6
CONTINUOUS
 10
9.9057217764
 20
20.4206826344
 11
9.90572903
 21
20.4190097038
  0
LINE
  5
31A
100
AcDbEntity
  8
RACCORDO
100
AcDbLine
 62
250
  6
CONTINUOUS
 10
9.9057290351
 20
-20.9038929366
 11
9.9024028346
 21
-7.1313852914
  0
LINE
  5
31B
100
AcDbEntity
  8
RACCORDO
100
AcDbLine
 62
250
  6
CONTINUOUS
 10
9.7057366454
 20
-21.1038624654
 11
9.7024104431
 21
-7.1340950241
  0
LINE
  5
31C
100
AcDbEntity
  8
RACCORDO
100
AcDbLine
 62
7
  6
CONTINUOUS
 10
9.95
 20
-20.9924416101
 11
9.95
 21
20.5075583875
  0
LINE
  5
31D
100
AcDbEntity
  8
RACCORDO
100
AcDbLine
 62
250
  6
CONTINUOUS
 10
9.7024104431
 20
-7.1340950241
 11
9.7024104432
 21
6.6492115678
  0
LINE
  5
31E
100
AcDbEntity
  8
RACCORDO
100
AcDbLine
 62
250
  6
CONTINUOUS
 10
9.9024028346
 20
-7.1313852914
 11
9.9024028318
 21
6.6464775141
  0
LINE
  5
31F
100
AcDbEntity
  8
RACCORDO
100
AcDbLine
 62
250
  6
CONTINUOUS
 10
9.7024104432
 20
6.6492115678
 11
9.7057366454
 21
20.6189792428
  0
LINE
  5
320
100
AcDbEntity
  8
RACCORDO
100
AcDbLine
 62
250
  6
CONTINUOUS
 10
9.9024028318
 20
6.6464775141
 11
9.9057290344
 21
20.4190097125
  0
LINE
  5
321
100
AcDbEntity
  8
RACCORDO
100
AcDbLine
 62
7
  6
CONTINUOUS
 10
11.05
 20
-21.6424987187
 11
11.05
 21
21.1576154961
  0
LWPOLYLINE
  5
322
100
AcDbEntity
  8
RACCORDO
100
AcDbPolyline
 62
250
  6
CONTINUOUS
 90
13
 70
0
 10
9.90572903
 20
-20.9038929264
 10
9.9040144234
 20
-20.929991673
 10
9.898907886
 20
-20.9556439492
 10
9.8904967751
 20
-20.9804109226
 10
9.8789249792
 20
-21.0038689053
 10
9.8643904568
 20
-21.0256166025
 10
9.8471418492
 20
-21.0452819772
 10
9.8274742279
 20
-21.0625286144
 10
9.8057240461
 20
-21.0770614766
 10
9.7822633834
 20
-21.0886319506
 10
9.7574935805
 20
-21.0970421007
 10
9.7318383736
 20
-21.1021480547
 10
9.7057366454
 20
-21.1038624654
  0
LINE
  5
323
100
AcDbEntity
  8
RACCORDO
100
AcDbLine
 62
250
  6
CONTINUOUS
 10
0.4383982183
 20
10.8002666465
 11
-0.4383982183
 21
10.8002666465
  0
LINE
  5
324
100
AcDbEntity
  8
RACCORDO
100
AcDbLine
 62
250
  6
CONTINUOUS
 10
0.4467444254
 20
11.799314868
 11
-0.4467444254
 21
11.799314868
  0
LINE
  5
325
100
AcDbEntity
  8
DRAFT
100
AcDbLine
 62
7
  6
CONTINUOUS
 10
0.4850850082
 20
11.9911346636
 11
-0.4850850082
 21
11.9911346636
  0
LINE
  5
326
100
AcDbEntity
  8
0
100
AcDbLine
 62
7
  6
CONTINUOUS
 10
4.776058
 20
16.4401783887
 11
5.337269
 21
15.3574953887
  0
LINE
  5
327
100
AcDbEntity
  8
0
100
AcDbLine
 62
7
  6
CONTINUOUS
 10
5.3719317907
 20
16.5075277218
 11
5.968046
 21
15.3575023887
  0
LINE
  5
328
100
AcDbEntity
  8
0
100
AcDbLine
 62
7
  6
CONTINUOUS
 10
5.968046
 20
15.3575023887
 11
5.337269
 21
15.3574953887
  0
LINE
  5
329
100
AcDbEntity
  8
0
100
AcDbLine
 62
7
  6
CONTINUOUS
 10
1.555771
 20
15.3574953887
 11
0.99575
 21
15.3574883887
  0
LINE
  5
32A
100
AcDbEntity
  8
0
100
AcDbLine
 62
7
  6
CONTINUOUS
 10
0.622405
 20
15.3574883887
 11
0.062384
 21
15.3574883887
  0
LINE
  5
32B
100
AcDbEntity
  8
0
100
AcDbLine
 62
7
  6
CONTINUOUS
 10
-1.556562
 20
15.3574883887
 11
-2.116583
 21
15.3574883887
  0
LINE
  5
32C
100
AcDbEntity
  8
0
100
AcDbLine
 62
7
  6
CONTINUOUS
 10
4.28722
 20
15.3574953887
 11
3.727192
 21
15.3574953887
  0
LINE
  5
32D
100
AcDbEntity
  8
0
100
AcDbLine
 62
7
  6
CONTINUOUS
 10
-0.467089
 20
15.3574953887
 11
-1.027096
 21
15.3574883887
  0
LINE
  5
32E
100
AcDbEntity
  8
0
100
AcDbLine
 62
7
  6
CONTINUOUS
 10
-2.67659
 20
15.3574883887
 11
-3.236611
 21
15.3574813887
  0
LINE
  5
32F
100
AcDbEntity
  8
0
100
AcDbLine
 62
7
  6
CONTINUOUS
 10
3.353847
 20
15.3574883887
 11
2.793819
 21
15.3574953887
  0
LINE
  5
330
100
AcDbEntity
  8
0
100
AcDbLine
 62
7
  6
CONTINUOUS
 10
-4.50898
 20
15.3574883887
 11
-5.069022
 21
15.3574813887
  0
LINE
  5
331
100
AcDbEntity
  8
0
100
AcDbLine
 62
7
  6
CONTINUOUS
 10
2.617027
 20
15.9081573887
 11
1.73257
 21
15.9081573887
  0
LINE
  5
332
100
AcDbEntity
  8
0
100
AcDbLine
 62
7
  6
CONTINUOUS
 10
2.446199
 20
16.4401783887
 11
1.903391
 21
16.4401783887
  0
LINE
  5
333
100
AcDbEntity
  8
0
100
AcDbLine
 62
7
  6
CONTINUOUS
 10
4.776058
 20
16.4401783887
 11
4.287283
 21
16.4401853887
  0
LINE
  5
334
100
AcDbEntity
  8
0
100
AcDbLine
 62
7
  6
CONTINUOUS
 10
4.960842
 20
16.9582063887
 11
4.279499
 21
16.9582063887
  0
LINE
  5
335
100
AcDbEntity
  8
RACCORDO
100
AcDbLine
 62
250
  6
CONTINUOUS
 10
1.7988141317
 20
19.8266374737
 11
4.037988155
 21
20.4273074754
  0
LINE
  5
336
100
AcDbEntity
  8
RACCORDO
100
AcDbLine
 62
250
  6
CONTINUOUS
 10
1.7724870107
 20
20.0185551764
 11
4.011661015
 21
20.618984186
  0
LINE
  5
337
100
AcDbEntity
  8
0
100
AcDbLine
 62
7
  6
CONTINUOUS
 10
4.960842
 20
17.6396003887
 11
4.279492
 21
17.6396003887
  0
LINE
  5
338
100
AcDbEntity
  8
0
100
AcDbLine
 62
7
  6
CONTINUOUS
 10
0.622405
 20
18.1576143887
 11
-0.224196
 21
18.1576143887
  0
LINE
  5
339
100
AcDbEntity
  8
0
100
AcDbLine
 62
7
  6
CONTINUOUS
 10
-1.269982
 20
18.1576143887
 11
-2.116583
 21
18.1576143887
  0
LINE
  5
33A
100
AcDbEntity
  8
0
100
AcDbLine
 62
7
  6
CONTINUOUS
 10
-2.676583
 20
18.1576143887
 11
-3.236604
 21
18.1576143887
  0
LINE
  5
33B
100
AcDbEntity
  8
0
100
AcDbLine
 62
7
  6
CONTINUOUS
 10
-3.609949
 20
18.1576143887
 11
-4.169977
 21
18.1576143887
  0
LINE
  5
33C
100
AcDbEntity
  8
0
100
AcDbLine
 62
7
  6
CONTINUOUS
 10
-5.408018
 20
18.1576143887
 11
-5.968046
 21
18.1576143887
  0
LINE
  5
33D
100
AcDbEntity
  8
0
100
AcDbLine
 62
7
  6
CONTINUOUS
 10
5.038572
 20
18.1576213887
 11
3.727192
 21
18.1576213887
  0
LINE
  5
33E
100
AcDbEntity
  8
0
100
AcDbLine
 62
7
  6
CONTINUOUS
 10
2.454816
 20
18.1576213887
 11
1.894767
 21
18.1576213887
  0
LINE
  5
33F
100
AcDbEntity
  8
RACCORDO
100
AcDbLine
 62
250
  6
CONTINUOUS
 10
-4.011661015
 20
20.618984186
 11
-1.7724870107
 21
20.0185551764
  0
LINE
  5
340
100
AcDbEntity
  8
RACCORDO
100
AcDbLine
 62
250
  6
CONTINUOUS
 10
-4.037988155
 20
20.4273074754
 11
-1.7988141317
 21
19.8266374737
  0
LINE
  5
341
100
AcDbEntity
  8
DRAFT
100
AcDbLine
 62
7
  6
CONTINUOUS
 10
4.0009192012
 20
20.7005763627
 11
1.7616887166
 21
20.1005763627
  0
LINE
  5
342
100
AcDbEntity
  8
RACCORDO
100
AcDbLine
 62
250
  6
CONTINUOUS
 10
-1.7988141317
 20
19.8266374737
 11
1.7988141317
 21
19.8266374737
  0
LINE
  5
343
100
AcDbEntity
  8
RACCORDO
100
AcDbLine
 62
250
  6
CONTINUOUS
 10
-1.7724876425
 20
20.0185503772
 11
1.7724876425
 21
20.0185503772
  0
LINE
  5
344
100
AcDbEntity
  8
DRAFT
100
AcDbLine
 62
7
  6
CONTINUOUS
 10
1.7616887166
 20
20.1005763627
 11
-1.7616887166
 21
20.1005763627
  0
LINE
  5
345
100
AcDbEntity
  8
RACCORDO
100
AcDbLine
 62
250
  6
CONTINUOUS
 10
9.7057366292
 20
20.4273074754
 11
4.037988155
 21
20.4273074754
  0
LINE
  5
346
100
AcDbEntity
  8
RACCORDO
100
AcDbLine
 62
250
  6
CONTINUOUS
 10
-4.037988155
 20
20.4273074754
 11
-9.7057366292
 21
20.4273074754
  0
LINE
  5
347
100
AcDbEntity
  8
RACCORDO
100
AcDbLine
 62
250
  6
CONTINUOUS
 10
9.7057366454
 20
20.6189792428
 11
4.0116616658
 21
20.6189792428
  0
LINE
  5
348
100
AcDbEntity
  8
RACCORDO
100
AcDbLine
 62
250
  6
CONTINUOUS
 10
-4.0116616658
 20
20.6189792428
 11
-9.7057366454
 21
20.6189792428
  0
LINE
  5
349
100
AcDbEntity
  8
DRAFT
100
AcDbLine
 62
7
  6
CONTINUOUS
 10
-1.7616887166
 20
20.1005763627
 11
-4.0009192012
 21
20.7005763627
  0
LWPOLYLINE
  5
34A
100
AcDbEntity
  8
RACCORDO
100
AcDbPolyline
 62
250
  6
CONTINUOUS
 90
5
 70
0
 10
-9.8639013563
 20
20.4242149268
 10
-9.890008091
 20
20.4221594085
 10
-9.8984362969
 20
20.421621053
 10
-9.9037377993
 20
20.4207006165
 10
-9.90572903
 20
20.4190097038
  0
LWPOLYLINE
  5
34B
100
AcDbEntity
  8
RACCORDO
100
AcDbPolyline
 62
250
  6
CONTINUOUS
 90
8
 70
0
 10
-9.7057366454
 20
20.4273074754
 10
-9.7315160495
 20
20.4266127612
 10
-9.7570767115
 20
20.4265096809
 10
-9.7818703735
 20
20.42664609
 10
-9.8052895999
 20
20.4262393517
 10
-9.8269177659
 20
20.4253605783
 10
-9.846540114
 20
20.4248393849
 10
-9.8639013563
 20
20.4242149268
  0
LINE
  5
34C
100
AcDbEntity
  8
RACCORDO
100
AcDbLine
 62
7
  6
CONTINUOUS
 10
9.7500228453
 20
20.7075583887
 11
1.5
 21
20.7075583887
  0
LINE
  5
34D
100
AcDbEntity
  8
RACCORDO
100
AcDbLine
 62
7
  6
CONTINUOUS
 10
-1.5
 20
20.7075583887
 11
-9.7500228453
 21
20.7075583887
  0
LINE
  5
34E
100
AcDbEntity
  8
0
100
AcDbLine
 62
7
  6
CONTINUOUS
 10
1.5
 20
21.5075583887
 11
-1.5
 21
21.5075583887
  0
LINE
  5
34F
100
AcDbEntity
  8
RACCORDO
100
AcDbLine
 62
7
  6
CONTINUOUS
 10
10.5501522961
 20
21.6575583887
 11
-10.5501522961
 21
21.6575583887
  0
LWPOLYLINE
  5
350
100
AcDbEntity
  8
RACCORDO
100
AcDbPolyline
 62
250
  6
CONTINUOUS
 90
3
 70
0
 10
9.7057366454
 20
20.6189792428
 10
9.7313114511
 20
20.6173335564
 10
9.7435174012
 20
20.6153728817
  0
LWPOLYLINE
  5
351
100
AcDbEntity
  8
RACCORDO
100
AcDbPolyline
 62
7
  6
CONTINUOUS
 90
12
 70
0
 10
9.7435174012
 20
20.6153728817
 10
9.7566242844
 20
20.6123897938
 10
9.781242131
 20
20.6041685077
 10
9.8047770826
 20
20.5927215611
 10
9.826746232
 20
20.5782013328
 10
9.8466188457
 20
20.5609197719
 10
9.8640180333
 20
20.5412171134
 10
9.87868406
 20
20.519401703
 10
9.8903608599
 20
20.4958548858
 10
9.8988474433
 20
20.470985647
 10
9.9039993887
 20
20.4452222644
 10
9.9057217764
 20
20.4206826344
  0
LWPOLYLINE
  5
352
100
AcDbEntity
  8
RACCORDO
100
AcDbPolyline
 62
250
  6
CONTINUOUS
 90
13
 70
0
 10
9.90572903
 20
20.4190097038
 10
9.9038335949
 20
20.4194688301
 10
9.8985771569
 20
20.4206445124
 10
9.890008091
 20
20.4221594085
 10
9.8783179654
 20
20.4232222358
 10
9.8637641543
 20
20.4238587312
 10
9.846540114
 20
20.4248393849
 10
9.8267607221
 20
20.4257702413
 10
9.8049731572
 20
20.426149269
 10
9.7818703735
 20
20.42664609
 10
9.757684702
 20
20.4273713287
 10
9.7323227732
 20
20.4277105537
 10
9.7057366454
 20
20.4273074754
  0
ARC
  5
353
100
AcDbEntity
  8
SMUSSO
100
AcDbCircle
 62
7
  6
CONTINUOUS
 10
0.0
 20
3.5825583887
 40
1.5
100
AcDbArc
 50
36.8698976458
 51
143.1301023542
  0
ARC
  5
354
100
AcDbEntity
  8
SMUSSO
100
AcDbCircle
 62
7
  6
CONTINUOUS
 10
-0.0
 20
-4.0674416113
 40
1.5
100
AcDbArc
 50
216.8698976458
 51
323.1301023542
  0
ARC
  5
355
100
AcDbEntity
  8
0
100
AcDbCircle
 62
7
  6
CONTINUOUS
 10
5.038572
 20
17.2989023887
 40
0.8587214994
100
AcDbArc
 50
292.8428415932
 51
90.0
  0
ARC
  5
356
100
AcDbEntity
  8
0
100
AcDbCircle
 62
7
  6
CONTINUOUS
 10
4.960842
 20
17.2989023887
 40
0.340698
100
AcDbArc
 50
270.0
 51
90.0
  0
ELLIPSE
  5
357
100
AcDbEntity
  8
RACCORDO
100
AcDbEllipse
 62
7
  6
CONTINUOUS
 10
-10.549923836
 20
-21.642270215
 30
0.0
 11
-0.2774630169
 21
-0.416247366
 31
0.0
 40
0.9995051766
 41
-0.9826238685
 42
0.5877156075
  0
ELLIPSE
  5
358
100
AcDbEntity
  8
RACCORDO
100
AcDbEllipse
 62
7
  6
CONTINUOUS
 10
-10.549923836
 20
21.1573869925
 30
0.0
 11
0.2774630169
 21
-0.416247366
 31
0.0
 40
0.9995051766
 41
2.5538770461
 42
4.1242165221
  0
ELLIPSE
  5
359
100
AcDbEntity
  8
RACCORDO
100
AcDbEllipse
 62
7
  6
CONTINUOUS
 10
10.549923836
 20
-21.642270215
 30
0.0
 11
0.2774630169
 21
-0.416247366
 31
0.0
 40
0.9995051766
 41
-0.5877156075
 42
0.9826238685
  0
ELLIPSE
  5
35A
100
AcDbEntity
  8
RACCORDO
100
AcDbEllipse
 62
7
  6
CONTINUOUS
 10
10.549923836
 20
21.1573869925
 30
0.0
 11
-0.2774630169
 21
-0.416247366
 31
0.0
 40
0.9995051766
 41
2.1589687851
 42
3.7293082611
  0
ELLIPSE
  5
35B
100
AcDbEntity
  8
DRAFT
100
AcDbEllipse
 62
7
  6
CONTINUOUS
 10
7.9283059972
 20
-0.2424416113
 30
0.0
 11
0.0
 21
1.75
 31
0.0
 40
0.0087268678
 41
2.5954713602
 42
6.8293066006
  0
ELLIPSE
  5
35C
100
AcDbEntity
  8
RACCORDO
100
AcDbEllipse
 62
7
  6
CONTINUOUS
 10
7.910023214
 20
-2.4991772432
 30
0.0
 11
0.0
 21
0.5
 31
0.0
 40
0.0087268678
 41
0.6981317008
 42
2.9304390866
  0
ELLIPSE
  5
35D
100
AcDbEntity
  8
DRAFT
100
AcDbEllipse
 62
7
  6
CONTINUOUS
 10
7.9158415369
 20
-2.5924416113
 30
0.0
 11
0.0
 21
1.0
 31
0.0
 40
0.0087268678
 41
5.7370640138
 42
6.981317008
  0
ELLIPSE
  5
35E
100
AcDbEntity
  8
DRAFT
100
AcDbEllipse
 62
7
  6
CONTINUOUS
 10
-7.9158415369
 20
-2.5924416113
 30
0.0
 11
0.0
 21
1.0
 31
0.0
 40
0.0087268678
 41
-0.6981317008
 42
-0.0000000002
  0
ELLIPSE
  5
35F
100
AcDbEntity
  8
RACCORDO
100
AcDbEllipse
 62
7
  6
CONTINUOUS
 10
7.910023214
 20
2.0142940206
 30
0.0
 11
-0.0
 21
0.5
 31
0.0
 40
0.0087268678
 41
0.211153567
 42
2.4434609528
  0
ELLIPSE
  5
360
100
AcDbEntity
  8
DRAFT
100
AcDbEllipse
 62
7
  6
CONTINUOUS
 10
-3.6023976334
 20
-0.2424416113
 30
0.0
 11
0.0
 21
498.2
 31
0.0
 40
0.0087268678
 41
1.5632691582
 42
1.568086566
  0
ELLIPSE
  5
361
100
AcDbEntity
  8
DRAFT
100
AcDbEllipse
 62
7
  6
CONTINUOUS
 10
-3.6023976334
 20
-0.2424416113
 30
0.0
 11
0.0
 21
498.2
 31
0.0
 40
0.0087268678
 41
-4.7096792195
 42
-4.7048618118
  0
ELLIPSE
  5
362
100
AcDbEntity
  8
DRAFT
100
AcDbEllipse
 62
7
  6
CONTINUOUS
 10
-7.9283059972
 20
-0.2424416113
 30
0.0
 11
0.0
 21
1.75
 31
0.0
 40
0.0087268678
 41
-0.5461212934
 42
3.687713947
  0
ELLIPSE
  5
363
100
AcDbEntity
  8
DRAFT
100
AcDbEllipse
 62
7
  6
CONTINUOUS
 10
6.5955785789
 20
-0.2424416113
 30
0.0
 11
0.0
 21
498.2
 31
0.0
 40
0.0174550649
 41
-4.7029046953
 42
-4.7011259558
  0
ELLIPSE
  5
364
100
AcDbEntity
  8
DRAFT
100
AcDbEllipse
 62
7
  6
CONTINUOUS
 10
-6.1955785789
 20
-0.2424416113
 30
0.0
 11
0.0
 21
498.2
 31
0.0
 40
0.0174550649
 41
-1.5820593514
 42
-1.5802806119
  0
ELLIPSE
  5
365
100
AcDbEntity
  8
DRAFT
100
AcDbEllipse
 62
7
  6
CONTINUOUS
 10
7.9158415369
 20
2.1075583887
 30
0.0
 11
0.0
 21
1.0
 31
0.0
 40
0.0087268678
 41
-3.8397243544
 42
-3.1415926538
  0
ELLIPSE
  5
366
100
AcDbEntity
  8
DRAFT
100
AcDbEllipse
 62
7
  6
CONTINUOUS
 10
3.6023976334
 20
-0.2424416113
 30
0.0
 11
0.0
 21
498.2
 31
0.0
 40
0.0087268678
 41
-1.568086566
 42
-1.5632691582
  0
ELLIPSE
  5
367
100
AcDbEntity
  8
DRAFT
100
AcDbEllipse
 62
7
  6
CONTINUOUS
 10
3.6023976334
 20
-0.2424416113
 30
0.0
 11
0.0
 21
498.2
 31
0.0
 40
0.0087268678
 41
-1.5783234954
 42
-1.5735060876
  0
ELLIPSE
  5
368
100
AcDbEntity
  8
DRAFT
100
AcDbEllipse
 62
7
  6
CONTINUOUS
 10
-6.1955785789
 20
-0.2424416113
 30
0.0
 11
0.0
 21
498.2
 31
0.0
 40
0.0174550649
 41
-1.5613120417
 42
-1.5595333022
  0
ELLIPSE
  5
369
100
AcDbEntity
  8
RACCORDO
100
AcDbEllipse
 62
7
  6
CONTINUOUS
 10
0.4087268678
 20
-7.3099265252
 30
0.0
 11
0.0
 21
1.0
 31
0.0
 40
0.0087268678
 41
-4.7123889804
 42
-3.2114058237
  0
ELLIPSE
  5
36A
100
AcDbEntity
  8
DRAFT
100
AcDbEllipse
 62
7
  6
CONTINUOUS
 10
-3.8613295422
 20
-0.2424416113
 30
0.0
 11
0.0
 21
498.2
 31
0.0
 40
0.0087268678
 41
-1.590039
 42
-1.5820593514
  0
ELLIPSE
  5
36B
100
AcDbEntity
  8
RACCORDO
100
AcDbEllipse
 62
7
  6
CONTINUOUS
 10
-0.4087268678
 20
-7.3099265252
 30
0.0
 11
0.0
 21
1.0
 31
0.0
 40
0.0087268678
 41
-3.0717794835
 42
-1.5707963268
  0
ELLIPSE
  5
36C
100
AcDbEntity
  8
DRAFT
100
AcDbEllipse
 62
7
  6
CONTINUOUS
 10
3.8613295422
 20
-0.2424416113
 30
0.0
 11
0.0
 21
498.2
 31
0.0
 40
0.0087268678
 41
-4.7011259558
 42
-4.6931463072
  0
ELLIPSE
  5
36D
100
AcDbEntity
  8
RACCORDO
100
AcDbEllipse
 62
7
  6
CONTINUOUS
 10
-0.4087268678
 20
6.8250433026
 30
0.0
 11
0.0
 21
1.0
 31
0.0
 40
0.0087268678
 41
-1.5707963268
 42
-0.0698131701
  0
ELLIPSE
  5
36E
100
AcDbEntity
  8
DRAFT
100
AcDbEllipse
 62
7
  6
CONTINUOUS
 10
3.8613295422
 20
-0.2424416113
 30
0.0
 11
0.0
 21
498.2
 31
0.0
 40
0.0087268678
 41
1.5462383059
 42
1.5595333022
  0
ELLIPSE
  5
36F
100
AcDbEntity
  8
RACCORDO
100
AcDbEllipse
 62
7
  6
CONTINUOUS
 10
-0.4471250861
 20
10.8002666465
 30
0.0
 11
0.0
 21
1.0
 31
0.0
 40
0.0087268678
 41
-1.5707963268
 42
-0.0436332313
  0
ELLIPSE
  5
370
100
AcDbEntity
  8
RACCORDO
100
AcDbEllipse
 62
7
  6
CONTINUOUS
 10
0.4087268678
 20
6.8250433026
 30
0.0
 11
0.0
 21
1.0
 31
0.0
 40
0.0087268678
 41
0.0698131701
 42
1.5707963268
  0
ELLIPSE
  5
371
100
AcDbEntity
  8
RACCORDO
100
AcDbEllipse
 62
7
  6
CONTINUOUS
 10
0.4471250861
 20
10.8002666465
 30
0.0
 11
0.0
 21
1.0
 31
0.0
 40
0.0087268678
 41
0.0436332313
 42
1.5707963268
  0
ELLIPSE
  5
372
100
AcDbEntity
  8
DRAFT
100
AcDbEllipse
 62
7
  6
CONTINUOUS
 10
-3.8613295422
 20
-0.2424416113
 30
0.0
 11
0.0
 21
498.2
 31
0.0
 40
0.0087268678
 41
-1.5595333022
 42
-1.5462383059
  0
ELLIPSE
  5
373
100
AcDbEntity
  8
RACCORDO
100
AcDbEllipse
 62
7
  6
CONTINUOUS
 10
-7.910023214
 20
2.0142940206
 30
0.0
 11
-0.0
 21
0.5
 31
0.0
 40
0.0087268678
 41
-2.4434609528
 42
-0.211153567
  0
ELLIPSE
  5
374
100
AcDbEntity
  8
DRAFT
100
AcDbEllipse
 62
7
  6
CONTINUOUS
 10
-7.9158415369
 20
2.1075583887
 30
0.0
 11
0.0
 21
1.0
 31
0.0
 40
0.0087268678
 41
2.5954713602
 42
3.8397243544
  0
ELLIPSE
  5
375
100
AcDbEntity
  8
DRAFT
100
AcDbEllipse
 62
7
  6
CONTINUOUS
 10
6.5955785789
 20
-0.2424416113
 30
0.0
 11
0.0
 21
498.2
 31
0.0
 40
0.0174550649
 41
1.5595333022
 42
1.5613120417
  0
ELLIPSE
  5
376
100
AcDbEntity
  8
RACCORDO
100
AcDbEllipse
 62
7
  6
CONTINUOUS
 10
-7.910023214
 20
-2.4991772432
 30
0.0
 11
0.0
 21
0.5
 31
0.0
 40
0.0087268678
 41
-2.9304390866
 42
-0.6981317008
  0
ELLIPSE
  5
377
100
AcDbEntity
  8
RACCORDO
100
AcDbEllipse
 62
7
  6
CONTINUOUS
 10
9.7499923843
 20
20.5075279231
 30
0.0
 11
0.0894542984
 21
0.1789222233
 31
0.0
 40
0.9998096356
 41
-1.1071030277
 42
0.4635410001
  0
ELLIPSE
  5
378
100
AcDbEntity
  8
RACCORDO
100
AcDbEllipse
 62
7
  6
CONTINUOUS
 10
-9.7499923843
 20
20.5075279231
 30
0.0
 11
-0.0894542984
 21
0.1789222233
 31
0.0
 40
0.9998096356
 41
-0.4635410001
 42
1.1071030277
  0
ELLIPSE
  5
379
100
AcDbEntity
  8
RACCORDO
100
AcDbEllipse
 62
7
  6
CONTINUOUS
 10
-9.7499923843
 20
-20.9924111457
 30
0.0
 11
0.0894542984
 21
0.1789222233
 31
0.0
 40
0.9998096356
 41
-4.2486956813
 42
-2.6780516535
  0
ELLIPSE
  5
37A
100
AcDbEntity
  8
RACCORDO
100
AcDbEllipse
 62
7
  6
CONTINUOUS
 10
9.7499923843
 20
-20.9924111457
 30
0.0
 11
-0.0894542984
 21
0.1789222233
 31
0.0
 40
0.9998096356
 41
-3.6051336537
 42
-2.0344896259
  0
ENDSEC
  0
SECTION
  2
OBJECTS
  0
DICTIONARY
  5
C
100
AcDbDictionary
280
0
281
1
  3
ACAD_GROUP
350
D
  3
ACAD_MLINESTYLE
350
17
  3
ACAD_LAYOUT
350
1A
  3
ACAD_PLOTSETTINGS
350
19
  3
ACAD_PLOTSTYLENAME
350
E
  0
DICTIONARY
  5
D
102
{ACAD_REACTORS
330
C
102
}
100
AcDbDictionary
280
0
281
1
  0
ACDBDICTIONARYWDFLT
  5
E
102
{ACAD_REACTORS
330
C
102
}
100
AcDbDictionary
281
1
  3
Normal
350
F
100
AcDbDictionaryWithDefault
340
F
  0
DICTIONARY
  5
17
102
{ACAD_REACTORS
330
C
102
}
100
AcDbDictionary
280
0
281
1
  3
Standard
350
18
  0
DICTIONARY
  5
19
102
{ACAD_REACTORS
330
C
102
}
100
AcDbDictionary
281
1
  0
DICTIONARY
  5
1A
102
{ACAD_REACTORS
330
C
102
}
100
AcDbDictionary
281
1
  3
Model
350
37B
  3
Layout1
350
37C
  0
ACDBPLACEHOLDER
  5
F
102
{ACAD_REACTORS
330
E
102
}
  0
MLINESTYLE
  5
18
102
{ACAD_REACTORS
330
17
102
}
100
AcDbMlineStyle
  2
STANDARD
 70
0
  3

 62
256
 51
90.0
 52
90.0
 71
2
 49
0.5
 62
256
  6
BYLAYER
 49
-0.5
 62
256
  6
BYLAYER
  0
LAYOUT
  5
37B
102
{ACAD_REACTORS
330
1A
102
}
100
AcDbPlotSettings
  1

  2
none_device
  4
ISO_A4_(297.00_x_210.00_MM)
  6

 40
0.0
 41
0.0
 42
0.0
 43
0.0
 44
297.0
 45
210.0
 46
0.0
 47
0.0
 48
0.0
 49
0.0
140
0.0
141
0.0
142
1.0
143
1.0
 70
1024
 72
1
 73
0
 74
0
  7

 75
0
147
1.0
148
0.0
149
0.0
100
AcDbLayout
  1
Model
 70
0
 71
0
 10
0.0
 20
0.0
 11
297.0
 21
210.0
 12
0.0
 22
0.0
 32
0.0
 14
0.0
 24
0.0
 34
0.0
 15
0.0
 25
0.0
 35
0.0
146
0.0
 13
0.0
 23
0.0
 33
0.0
 16
1.0
 26
0.0
 36
0.0
 17
0.0
 27
1.0
 37
0.0
 76
0
330
210
345
0
346
0
  0
LAYOUT
  5
37C
102
{ACAD_REACTORS
330
1A
102
}
100
AcDbPlotSettings
  1

  2
none_device
  4
ISO_A4_(297.00_x_210.00_MM)
  6

 40
0.0
 41
0.0
 42
0.0
 43
0.0
 44
297.0
 45
210.0
 46
0.0
 47
0.0
 48
0.0
 49
0.0
140
0.0
141
0.0
142
1.0
143
1.0
 70
0
 72
1
 73
0
 74
0
  7

 75
0
147
1.0
148
0.0
149
0.0
100
AcDbLayout
  1
Layout1
 70
0
 71
1
 10
0.0
 20
0.0
 11
297.0
 21
210.0
 12
0.0
 22
0.0
 32
0.0
 14
0.0
 24
0.0
 34
0.0
 15
0.0
 25
0.0
 35
0.0
146
0.0
 13
0.0
 23
0.0
 33
0.0
 16
1.0
 26
0.0
 36
0.0
 17
0.0
 27
1.0
 37
0.0
 76
0
330
211
345
0
346
0
  0
ENDSEC
  0
EOF
