  0
SECTION
  2
HEADER
  9
$ACADVER
  1
AC1024
  9
$DWGCODEPAGE
  3
ANSI_1252
  9
$EXTMAX
 10
297.0
 20
210.0
 30
0.0
  9
$EXTMIN
 10
0.0
 20
0.0
 30
0.0
  9
$LIMMIN
 10
0.0
 20
0.0
  9
$LIMMAX
 10
297.0
 20
210.0
  9
$VIEWCTR
 10
148.5
 20
105.0
  9
$VIEWSIZE
 40
210.0
  9
$CLAYER
  8
0
  9
$LTSCALE
 40
16.335
  9
$CELTYPE
  6
BYLAYER
  9
$DIMSCALE
 40
1.0
  9
$DIMASZ
 40
3.0
  9
$DIMEXO
 40
0.5
  9
$DIMDLI
 40
11.286
  9
$DIMEXE
 40
1.5
  9
$DIMCEN
 40
2.673
  9
$DIMLFAC
 40
1.0
  9
$DIMBLK
  1
_FILLED
  9
$DIMALT
 70
0
  9
$DIMALTF
 40
0.0393700787
  9
$DIMTXT
 40
3.0
  9
$DIMTOL
 70
1
  9
$DIMLIM
 70
0
  9
$DIMTFAC
 40
1.0
  9
$DIMTP
 40
0.01
  9
$DIMTM
 40
0.01
  9
$DIMGAP
 40
0.625
  9
$DIMDSEP
 70
44
  9
$AUNITS
 70
0
  9
$PDMODE
 70
3
  9
$PDSIZE
 40
3.0
  9
$HANDSEED
  5
497
  9
$TILEMODE
 70
1
  9
$MEASUREMENT
 70
1
  9
$INSUNITS
 70
4
  0
ENDSEC
  0
SECTION
  2
CLASSES
  0
CLASS
  1
ACDBDICTIONARYWDFLT
  2
AcDbDictionaryWithDefault
  3
AutoCAD 2000
 90
0
 91
1
280
0
281
0
  0
CLASS
  1
ACDBPLACEHOLDER
  2
AcDbPlaceHolder
  3
AutoCAD 2000
 90
0
 91
1
280
0
281
0
  0
CLASS
  1
LAYOUT
  2
AcDbLayout
  3
AutoCAD 2000
 90
0
 91
0
280
0
281
0
  0
ENDSEC
  0
SECTION
  2
TABLES
  0
TABLE
  2
VPORT
  5
8
100
AcDbSymbolTable
 70
2
  0
VPORT
  5
1F4
100
AcDbSymbolTableRecord
100
AcDbViewportTableRecord
  2
*ACTIVE
 70
0
 10
0.0
 20
0.0
 11
1.0
 21
1.0
 12
148.5
 22
105.0
 13
0.0
 23
0.0
 14
1.0
 24
1.0
 15
0.0
 25
0.0
 16
0.0
 26
0.0
 36
1.0
 17
0.0
 27
0.0
 37
0.0
 40
210.0
 41
1.4142857143
 42
50.0
 43
0.0
 44
0.0
 50
0.0
 51
0.0
 71
0
 72
100
 73
1
 74
1
 75
0
 76
0
 77
0
 78
0
  0
ENDTAB
  0
TABLE
  2
LTYPE
  5
5
100
AcDbSymbolTable
 70
6
  0
LTYPE
  5
14
100
AcDbSymbolTableRecord
100
AcDbLinetypeTableRecord
  2
BYBLOCK
 70
0
  3

 72
65
 73
0
 40
0.0
  0
LTYPE
  5
15
100
AcDbSymbolTableRecord
100
AcDbLinetypeTableRecord
  2
BYLAYER
 70
0
  3

 72
65
 73
0
 40
0.0
  0
LTYPE
  5
16
100
AcDbSymbolTableRecord
100
AcDbLinetypeTableRecord
  2
CONTINUOUS
 70
64
  3
Solid line
 72
65
 73
0
 40
0.0
  0
LTYPE
  5
1F5
100
AcDbSymbolTableRecord
100
AcDbLinetypeTableRecord
  2
CENTER
 70
64
  3
____ _ ____ _ ____ _ ____ _ ____ _ ____ _ ____
 72
65
 73
4
 40
0.6
 49
0.375
 74
0
 49
-0.075
 74
0
 49
0.075
 74
0
 49
-0.075
 74
0
  0
LTYPE
  5
1F6
100
AcDbSymbolTableRecord
100
AcDbLinetypeTableRecord
  2
HIDDEN
 70
64
  3
- - - - - - - - - - - - - - - - - - - -
 72
65
 73
2
 40
0.2
 49
0.1
 74
0
 49
-0.1
 74
0
  0
LTYPE
  5
1F7
100
AcDbSymbolTableRecord
100
AcDbLinetypeTableRecord
  2
PHANTOM
 70
64
  3
_____ _ _ _____ _ _ _____ _ _ _____
 72
65
 73
6
 40
0.8
 49
0.45
 74
0
 49
-0.05
 74
0
 49
0.1
 74
0
 49
-0.05
 74
0
 49
0.1
 74
0
 49
-0.05
 74
0
  0
LTYPE
  5
1F8
100
AcDbSymbolTableRecord
100
AcDbLinetypeTableRecord
  2
DOT
 70
64
  3
. . . . . . . . . . . . . . . . . . . .
 72
65
 73
2
 40
0.2
 49
0.1
 74
0
 49
-0.1
 74
0
  0
LTYPE
  5
1F9
100
AcDbSymbolTableRecord
100
AcDbLinetypeTableRecord
  2
DASHED
 70
64
  3
- - - - - - - - - - - - - - - - - - - -
 72
65
 73
2
 40
0.2
 49
0.1
 74
0
 49
-0.1
 74
0
  0
ENDTAB
  0
TABLE
  2
LAYER
  5
2
100
AcDbSymbolTable
 70
36
  0
LAYER
  5
10
100
AcDbSymbolTableRecord
100
AcDbLayerTableRecord
  2
0
 70
0
 62
7
  6
CONTINUOUS
370
-3
390
F
  0
LAYER
  5
1FA
100
AcDbSymbolTableRecord
100
AcDbLayerTableRecord
  2
DEFAULT_1
 70
0
 62
7
  6
CENTER
370
-3
390
F
  0
LAYER
  5
1FB
100
AcDbSymbolTableRecord
100
AcDbLayerTableRecord
  2
DEFAULT_2
 70
0
 62
7
  6
HIDDEN
370
-3
390
F
  0
LAYER
  5
1FC
100
AcDbSymbolTableRecord
100
AcDbLayerTableRecord
  2
DEFAULT_3
 70
0
 62
7
  6
PHANTOM
370
-3
390
F
  0
LAYER
  5
1FD
100
AcDbSymbolTableRecord
100
AcDbLayerTableRecord
  2
ASSI
 70
0
 62
7
  6
CONTINUOUS
370
-3
390
F
  0
LAYER
  5
1FE
100
AcDbSymbolTableRecord
100
AcDbLayerTableRecord
  2
COORDINATE
 70
0
 62
7
  6
CONTINUOUS
370
-3
390
F
  0
LAYER
  5
1FF
100
AcDbSymbolTableRecord
100
AcDbLayerTableRecord
  2
COORD_ORIGINE
 70
0
 62
7
  6
CONTINUOUS
370
-3
390
F
  0
LAYER
  5
200
100
AcDbSymbolTableRecord
100
AcDbLayerTableRecord
  2
COPY_PUBLISH
 70
0
 62
7
  6
CONTINUOUS
370
-3
390
F
  0
LAYER
  5
201
100
AcDbSymbolTableRecord
100
AcDbLayerTableRecord
  2
COSMETIC
 70
0
 62
7
  6
CONTINUOUS
370
-3
390
F
  0
LAYER
  5
202
100
AcDbSymbolTableRecord
100
AcDbLayerTableRecord
  2
COSMETICI
 70
0
 62
7
  6
CONTINUOUS
370
-3
390
F
  0
LAYER
  5
203
100
AcDbSymbolTableRecord
100
AcDbLayerTableRecord
  2
CURVE
 70
0
 62
7
  6
CONTINUOUS
370
-3
390
F
  0
LAYER
  5
204
100
AcDbSymbolTableRecord
100
AcDbLayerTableRecord
  2
DRAFT
 70
0
 62
7
  6
CONTINUOUS
370
-3
390
F
  0
LAYER
  5
205
100
AcDbSymbolTableRecord
100
AcDbLayerTableRecord
  2
IMPORT_IGES
 70
0
 62
7
  6
CONTINUOUS
370
-3
390
F
  0
LAYER
  5
206
100
AcDbSymbolTableRecord
100
AcDbLayerTableRecord
  2
INTFCLR_1
 70
0
 62
7
  6
CONTINUOUS
370
-3
390
F
  0
LAYER
  5
207
100
AcDbSymbolTableRecord
100
AcDbLayerTableRecord
  2
INTF_10
 70
0
 62
7
  6
CONTINUOUS
370
-3
390
F
  0
LAYER
  5
208
100
AcDbSymbolTableRecord
100
AcDbLayerTableRecord
  2
NOTE
 70
0
 62
7
  6
CONTINUOUS
370
-3
390
F
  0
LAYER
  5
209
100
AcDbSymbolTableRecord
100
AcDbLayerTableRecord
  2
PIANI
 70
0
 62
7
  6
CONTINUOUS
370
-3
390
F
  0
LAYER
  5
20A
100
AcDbSymbolTableRecord
100
AcDbLayerTableRecord
  2
PIANI_ORIGINE
 70
0
 62
7
  6
CONTINUOUS
370
-3
390
F
  0
LAYER
  5
20B
100
AcDbSymbolTableRecord
100
AcDbLayerTableRecord
  2
PUNTI
 70
0
 62
7
  6
CONTINUOUS
370
-3
390
F
  0
LAYER
  5
20C
100
AcDbSymbolTableRecord
100
AcDbLayerTableRecord
  2
RACCORDO
 70
0
 62
7
  6
CONTINUOUS
370
-3
390
F
  0
LAYER
  5
20D
100
AcDbSymbolTableRecord
100
AcDbLayerTableRecord
  2
SIMBOLI
 70
0
 62
7
  6
CONTINUOUS
370
-3
390
F
  0
LAYER
  5
20E
100
AcDbSymbolTableRecord
100
AcDbLayerTableRecord
  2
SMUSSO
 70
0
 62
7
  6
CONTINUOUS
370
-3
390
F
  0
LAYER
  5
20F
100
AcDbSymbolTableRecord
100
AcDbLayerTableRecord
  2
SNAPLINE
 70
0
 62
7
  6
CONTINUOUS
370
-3
390
F
  0
LAYER
  5
210
100
AcDbSymbolTableRecord
100
AcDbLayerTableRecord
  2
SUPERFICI
 70
0
 62
7
  6
CONTINUOUS
370
-3
390
F
  0
LAYER
  5
211
100
AcDbSymbolTableRecord
100
AcDbLayerTableRecord
  2
TRASH
 70
0
 62
7
  6
CONTINUOUS
370
-3
390
F
  0
LAYER
  5
212
100
AcDbSymbolTableRecord
100
AcDbLayerTableRecord
  2
XSEC_DATUMS
 70
0
 62
7
  6
CONTINUOUS
370
-3
390
F
  0
ENDTAB
  0
TABLE
  2
STYLE
  5
3
100
AcDbSymbolTable
 70
1
  0
STYLE
  5
11
100
AcDbSymbolTableRecord
100
AcDbTextStyleTableRecord
  2
STANDARD
 70
0
 40
0.0
 41
0.8
 50
0.0
 71
0
 42
0.2
  3
txt
  4

  0
STYLE
  5
213
100
AcDbSymbolTableRecord
100
AcDbTextStyleTableRecord
  2
TEXTSTYLE_1
 70
0
 40
0.0
 41
0.8
 50
0.0
 71
0
 42
0.2
  3
gdt
  4

  0
ENDTAB
  0
TABLE
  2
VIEW
  5
6
100
AcDbSymbolTable
 70
0
  0
ENDTAB
  0
TABLE
  2
UCS
  5
7
100
AcDbSymbolTable
 70
0
  0
ENDTAB
  0
TABLE
  2
APPID
  5
9
100
AcDbSymbolTable
 70
1
  0
APPID
  5
214
100
AcDbSymbolTableRecord
100
AcDbRegAppTableRecord
  2
ACAD
 70
0
  0
ENDTAB
  0
TABLE
  2
BLOCK_RECORD
  5
1
100
AcDbSymbolTable
 70
0
  0
BLOCK_RECORD
  5
215
100
AcDbSymbolTableRecord
100
AcDbBlockTableRecord
  2
*Model_Space
  0
BLOCK_RECORD
  5
216
100
AcDbSymbolTableRecord
100
AcDbBlockTableRecord
  2
*Paper_Space
  0
BLOCK_RECORD
  5
217
100
AcDbSymbolTableRecord
100
AcDbBlockTableRecord
  2
_FILLED
  0
ENDTAB
  0
TABLE
  2
DIMSTYLE
  5
A
100
AcDbSymbolTable
 70
1
100
AcDbDimStyleTable
 71
0
  0
DIMSTYLE
105
218
100
AcDbSymbolTableRecord
100
AcDbDimStyleTableRecord
  2
STANDARD
 70
0
  3

  4

 40
1.0
 41
3.0
 42
0.5
 43
0.38
 44
1.5
 45
0.0
 46
0.0
 47
0.01
 48
0.01
140
3.0
141
0.09
142
0.0
143
25.4
144
1.0
145
0.0
146
1.0
147
0.625
 71
1
 72
0
 73
0
 74
0
 75
0
 76
0
 77
1
 78
8
 79
2
170
0
171
1
172
0
173
0
174
0
175
0
176
0
177
0
178
0
270
2
179
2
271
2
272
2
273
2
274
2
275
0
280
0
281
0
282
0
283
1
284
8
285
0
286
0
287
3
288
0
340
11
278
44
341
217
342
217
343
217
344
217
  0
ENDTAB
  0
ENDSEC
  0
SECTION
  2
BLOCKS
  0
BLOCK
  5
20
100
AcDbEntity
  8
0
100
AcDbBlockBegin
  2
*Model_Space
 70
0
 10
0.0
 20
0.0
 30
0.0
  3
*Model_Space
  1

  0
ENDBLK
  5
21
100
AcDbEntity
  8
0
100
AcDbBlockEnd
  0
BLOCK
  5
1C
100
AcDbEntity
  8
0
100
AcDbBlockBegin
  2
*Paper_Space
 70
0
 10
0.0
 20
0.0
 30
0.0
  3
*Paper_Space
  1

  0
ENDBLK
  5
1D
100
AcDbEntity
  8
0
100
AcDbBlockEnd
  0
BLOCK
  5
219
100
AcDbEntity
  8
0
100
AcDbBlockBegin
  2
_FILLED
 70
64
 10
0.0
 20
0.0
  3
_FILLED
  1

  0
SOLID
  5
21A
100
AcDbEntity
  8
0
  6
BYBLOCK
 62
0
100
AcDbTrace
 10
0.0
 20
0.0
 11
-1.0
 21
0.3166666667
 12
-1.0
 22
-0.3166666667
 13
-1.0
 23
-0.3166666667
  0
ENDBLK
  5
21B
100
AcDbEntity
  8
0
  6
BYBLOCK
 62
0
100
AcDbBlockEnd
  0
ENDSEC
  0
SECTION
  2
ENTITIES
  0
LINE
  5
21C
100
AcDbEntity
  8
RACCORDO
100
AcDbLine
 62
7
  6
CONTINUOUS
 10
10.5001522961
 20
-21.5123057015
 11
-10.5001522961
 21
-21.5123057015
  0
LINE
  5
21D
100
AcDbEntity
  8
0
100
AcDbLine
 62
7
  6
CONTINUOUS
 10
-1.5
 20
-21.1123057015
 11
1.5
 21
-21.1123057015
  0
LINE
  5
21E
100
AcDbEntity
  8
RACCORDO
100
AcDbLine
 62
7
  6
CONTINUOUS
 10
9.6506272563
 20
-20.5629215346
 11
1.5
 21
-20.5629215346
  0
LINE
  5
21F
100
AcDbEntity
  8
RACCORDO
100
AcDbLine
 62
7
  6
CONTINUOUS
 10
-1.5
 20
-20.5629215346
 11
-9.6506272563
 21
-20.5629215346
  0
LINE
  5
220
100
AcDbEntity
  8
RACCORDO
100
AcDbLine
 62
7
  6
CONTINUOUS
 10
9.6021741012
 20
-20.5144683796
 11
4.1817926288
 21
-20.5144683796
  0
LINE
  5
221
100
AcDbEntity
  8
RACCORDO
100
AcDbLine
 62
7
  6
CONTINUOUS
 10
-4.1817926288
 20
-20.5144683796
 11
-9.6021773948
 21
-20.5144683796
  0
LINE
  5
222
100
AcDbEntity
  8
RACCORDO
100
AcDbLine
 62
250
  6
CONTINUOUS
 10
9.6021741012
 20
-20.2644778988
 11
7.3847652298
 21
-20.2644778988
  0
LINE
  5
223
100
AcDbEntity
  8
RACCORDO
100
AcDbLine
 62
250
  6
CONTINUOUS
 10
7.1152347702
 20
-20.2644778988
 11
3.2571713998
 21
-20.2644778988
  0
LINE
  5
224
100
AcDbEntity
  8
RACCORDO
100
AcDbLine
 62
250
  6
CONTINUOUS
 10
-3.2571713998
 20
-20.2644778988
 11
-6.8990033895
 21
-20.2644778988
  0
LINE
  5
225
100
AcDbEntity
  8
RACCORDO
100
AcDbLine
 62
250
  6
CONTINUOUS
 10
-7.6009966105
 20
-20.2644778988
 11
-9.6021741012
 21
-20.2644778988
  0
LINE
  5
226
100
AcDbEntity
  8
RACCORDO
100
AcDbLine
 62
250
  6
CONTINUOUS
 10
9.6521721974
 20
-20.2144798027
 11
9.9021626781
 21
-20.2144798027
  0
LINE
  5
227
100
AcDbEntity
  8
RACCORDO
100
AcDbLine
 62
250
  6
CONTINUOUS
 10
-9.6521721974
 20
-20.2144798027
 11
-9.9021626781
 21
-20.2144798027
  0
LWPOLYLINE
  5
228
100
AcDbEntity
  8
RACCORDO
100
AcDbPolyline
 62
250
  6
CONTINUOUS
 90
22
 70
0
 10
-9.6021741012
 20
-20.2644778988
 10
-9.6047496873
 20
-20.2644386308
 10
-9.6074002469
 20
-20.2642265133
 10
-9.6101257799
 20
-20.2638415464
 10
-9.6129369486
 20
-20.2633011285
 10
-9.6158230908
 20
-20.2625878611
 10
-9.6187522194
 20
-20.2616495493
 10
-9.6217335501
 20
-20.2604865197
 10
-9.6247578672
 20
-20.2590984457
 10
-9.6277655369
 20
-20.2574321526
 10
-9.630768122
 20
-20.2554840436
 10
-9.6337540596
 20
-20.2532577154
 10
-9.6366290268
 20
-20.2507107832
 10
-9.6394082793
 20
-20.2478248484
 10
-9.6420765614
 20
-20.2446183096
 10
-9.6444937823
 20
-20.2411039774
 10
-9.6466603725
 20
-20.2372527941
 10
-9.6485759016
 20
-20.2330938174
 10
-9.6500989869
 20
-20.2287270315
 10
-9.6511825008
 20
-20.2241857644
 10
-9.651873571
 20
-20.2194366881
 10
-9.6521721974
 20
-20.2144798027
  0
LWPOLYLINE
  5
229
100
AcDbEntity
  8
RACCORDO
100
AcDbPolyline
 62
250
  6
CONTINUOUS
 90
22
 70
0
 10
-9.6021773946
 20
-20.5144683793
 10
-9.6175094158
 20
-20.5140751904
 10
-9.6334180691
 20
-20.5128349447
 10
-9.6498505666
 20
-20.5106526128
 10
-9.6667161528
 20
-20.5074390354
 10
-9.6839670445
 20
-20.5030974194
 10
-9.7015937543
 20
-20.4975087661
 10
-9.7194900876
 20
-20.4905705583
 10
-9.7375337934
 20
-20.4821856808
 10
-9.7556572894
 20
-20.4722222976
 10
-9.7736963153
 20
-20.4605856617
 10
-9.791466929
 20
-20.4471941574
 10
-9.8088255036
 20
-20.4319259716
 10
-9.8255721804
 20
-20.414682101
 10
-9.8414087342
 20
-20.3954621904
 10
-9.856018016
 20
-20.3743279382
 10
-9.8691487762
 20
-20.3512758835
 10
-9.8804871525
 20
-20.3264223709
 10
-9.8896792075
 20
-20.3001004897
 10
-9.8964830037
 20
-20.2725597476
 10
-9.9007108918
 20
-20.2439386528
 10
-9.9021626781
 20
-20.2144798027
  0
LINE
  5
22A
100
AcDbEntity
  8
DRAFT
100
AcDbLine
 62
7
  6
CONTINUOUS
 10
-2.8258429704
 20
-20.1489037945
 11
-2.1404303657
 21
-19.9632692639
  0
LINE
  5
22B
100
AcDbEntity
  8
DRAFT
100
AcDbLine
 62
7
  6
CONTINUOUS
 10
-4.1758732155
 20
-20.5594307875
 11
-2.1339745962
 21
-20.0123057015
  0
LINE
  5
22C
100
AcDbEntity
  8
RACCORDO
100
AcDbLine
 62
7
  6
CONTINUOUS
 10
-3.2571713998
 20
-20.2644778988
 11
-2.8258429704
 21
-20.1489037945
  0
LINE
  5
22D
100
AcDbEntity
  8
0
100
AcDbLine
 62
7
  6
CONTINUOUS
 10
-3.0209293968
 20
-19.8463746855
 11
-4.0728528206
 21
-20.1282367174
  0
LINE
  5
22E
100
AcDbEntity
  8
RACCORDO
100
AcDbLine
 62
7
  6
CONTINUOUS
 10
-8.9501218439
 20
-20.1623057015
 11
-7.6830127019
 21
-20.1623057015
  0
LINE
  5
22F
100
AcDbEntity
  8
0
100
AcDbLine
 62
7
  6
CONTINUOUS
 10
-6.8169872981
 20
-20.1623057015
 11
-4.3316324463
 21
-20.1623057015
  0
LINE
  5
230
100
AcDbEntity
  8
0
100
AcDbLine
 62
7
  6
CONTINUOUS
 10
8.8233112727
 20
-20.1623057015
 11
8.9501218439
 21
-20.1623057015
  0
LINE
  5
231
100
AcDbEntity
  8
0
100
AcDbLine
 62
7
  6
CONTINUOUS
 10
8.7622185454
 20
-20.1012129742
 11
7.577153994
 21
-20.1012129742
  0
LINE
  5
232
100
AcDbEntity
  8
0
100
AcDbLine
 62
7
  6
CONTINUOUS
 10
6.922846006
 20
-20.1012129742
 11
4.2080430101
 21
-20.1012129742
  0
LINE
  5
233
100
AcDbEntity
  8
DRAFT
100
AcDbLine
 62
7
  6
CONTINUOUS
 10
-2.1339745962
 20
-20.0123057015
 11
2.1339745962
 21
-20.0123057015
  0
LINE
  5
234
100
AcDbEntity
  8
DRAFT
100
AcDbLine
 62
7
  6
CONTINUOUS
 10
-2.1404303657
 20
-19.9632692639
 11
2.1404303657
 21
-19.9632692639
  0
LINE
  5
235
100
AcDbEntity
  8
0
100
AcDbLine
 62
7
  6
CONTINUOUS
 10
2.6889072728
 20
-19.8123057015
 11
-2.7621497711
 21
-19.8123057015
  0
LINE
  5
236
100
AcDbEntity
  8
0
100
AcDbLine
 62
7
  6
CONTINUOUS
 10
2.9018252275
 20
-19.7512129742
 11
2.75
 21
-19.7512129742
  0
LINE
  5
237
100
AcDbEntity
  8
0
100
AcDbLine
 62
7
  6
CONTINUOUS
 10
-8.8233112727
 20
-19.2356169742
 11
-4.3220008854
 21
-19.2356169742
  0
LINE
  5
238
100
AcDbEntity
  8
0
100
AcDbLine
 62
7
  6
CONTINUOUS
 10
8.7622185454
 20
-19.1745242469
 11
4.3300438956
 21
-19.1745242469
  0
LINE
  5
239
100
AcDbEntity
  8
0
100
AcDbLine
 62
7
  6
CONTINUOUS
 10
-8.75
 20
-19.1623057015
 11
-4.3316524976
 21
-19.1623057015
  0
LINE
  5
23A
100
AcDbEntity
  8
0
100
AcDbLine
 62
7
  6
CONTINUOUS
 10
2.6889072728
 20
-18.8856169742
 11
-3.0157831028
 21
-18.8856169742
  0
LINE
  5
23B
100
AcDbEntity
  8
0
100
AcDbLine
 62
7
  6
CONTINUOUS
 10
3.0238261129
 20
-18.8245242469
 11
2.75
 21
-18.8245242469
  0
LINE
  5
23C
100
AcDbEntity
  8
0
100
AcDbLine
 62
7
  6
CONTINUOUS
 10
3.0254347149
 20
-18.8123057015
 11
-3.0254347149
 21
-18.8123057015
  0
LINE
  5
23D
100
AcDbEntity
  8
DRAFT
100
AcDbLine
 62
7
  6
CONTINUOUS
 10
2.1339745962
 20
-20.0123057015
 11
4.1758732155
 21
-20.5594307875
  0
LINE
  5
23E
100
AcDbEntity
  8
RACCORDO
100
AcDbLine
 62
7
  6
CONTINUOUS
 10
2.8258429704
 20
-20.1489037945
 11
3.2571713998
 21
-20.2644778988
  0
LINE
  5
23F
100
AcDbEntity
  8
DRAFT
100
AcDbLine
 62
7
  6
CONTINUOUS
 10
2.1404303657
 20
-19.9632692639
 11
2.8258429704
 21
-20.1489037945
  0
LINE
  5
240
100
AcDbEntity
  8
0
100
AcDbLine
 62
7
  6
CONTINUOUS
 10
-3.0157831028
 20
-18.8856169742
 11
-4.3220008854
 21
-19.2356169742
  0
LINE
  5
241
100
AcDbEntity
  8
0
100
AcDbLine
 62
7
  6
CONTINUOUS
 10
-3.0254347149
 20
-18.8123057015
 11
-4.3316524976
 21
-19.1623057015
  0
LINE
  5
242
100
AcDbEntity
  8
0
100
AcDbLine
 62
7
  6
CONTINUOUS
 10
-9.75
 20
-18.1062653802
 11
-8.8233112727
 21
-18.1062653802
  0
LINE
  5
243
100
AcDbEntity
  8
0
100
AcDbLine
 62
7
  6
CONTINUOUS
 10
8.8233112727
 20
-18.1062653802
 11
9.75
 21
-18.1062653802
  0
LINE
  5
244
100
AcDbEntity
  8
0
100
AcDbLine
 62
7
  6
CONTINUOUS
 10
9.7307994286
 20
-17.9123057015
 11
8.8041107013
 21
-17.9123057015
  0
LINE
  5
245
100
AcDbEntity
  8
0
100
AcDbLine
 62
7
  6
CONTINUOUS
 10
-8.8041107013
 20
-17.9123057015
 11
-9.7307994286
 21
-17.9123057015
  0
LINE
  5
246
100
AcDbEntity
  8
0
100
AcDbLine
 62
7
  6
CONTINUOUS
 10
9.9506158332
 20
-17.6623057015
 11
9.35
 21
-17.6623057015
  0
LINE
  5
247
100
AcDbEntity
  8
0
100
AcDbLine
 62
7
  6
CONTINUOUS
 10
-9.35
 20
-17.6623057015
 11
-9.9506158332
 21
-17.6623057015
  0
LINE
  5
248
100
AcDbEntity
  8
0
100
AcDbLine
 62
7
  6
CONTINUOUS
 10
2.1
 20
-17.4623057015
 11
-2.1
 21
-17.4623057015
  0
LINE
  5
249
100
AcDbEntity
  8
0
100
AcDbLine
 62
7
  6
CONTINUOUS
 10
4.2080430101
 20
-20.1012129742
 11
2.9018252275
 21
-19.7512129742
  0
LINE
  5
24A
100
AcDbEntity
  8
0
100
AcDbLine
 62
7
  6
CONTINUOUS
 10
4.3300438956
 20
-19.1745242469
 11
3.0238261129
 21
-18.8245242469
  0
LINE
  5
24B
100
AcDbEntity
  8
0
100
AcDbLine
 62
7
  6
CONTINUOUS
 10
9.9506158332
 20
-15.6623057015
 11
9.35
 21
-15.6623057015
  0
LINE
  5
24C
100
AcDbEntity
  8
0
100
AcDbLine
 62
7
  6
CONTINUOUS
 10
-9.35
 20
-15.6623057015
 11
-9.9506158332
 21
-15.6623057015
  0
LINE
  5
24D
100
AcDbEntity
  8
0
100
AcDbLine
 62
7
  6
CONTINUOUS
 10
-9.7307994286
 20
-15.4123057015
 11
-8.8041107013
 21
-15.4123057015
  0
LINE
  5
24E
100
AcDbEntity
  8
0
100
AcDbLine
 62
7
  6
CONTINUOUS
 10
8.8041107013
 20
-15.4123057015
 11
9.7307994286
 21
-15.4123057015
  0
LINE
  5
24F
100
AcDbEntity
  8
0
100
AcDbLine
 62
7
  6
CONTINUOUS
 10
-9.75
 20
-15.2183460227
 11
-8.8233112727
 21
-15.2183460227
  0
LINE
  5
250
100
AcDbEntity
  8
0
100
AcDbLine
 62
7
  6
CONTINUOUS
 10
8.8233112727
 20
-15.2183460227
 11
9.75
 21
-15.2183460227
  0
LINE
  5
251
100
AcDbEntity
  8
DRAFT
100
AcDbLine
 62
7
  6
CONTINUOUS
 10
-9.75
 20
-15.2183460227
 11
-9.7307994286
 21
-15.4123057015
  0
LINE
  5
252
100
AcDbEntity
  8
RACCORDO
100
AcDbLine
 62
7
  6
CONTINUOUS
 10
-11.0
 20
-21.0123628089
 11
-11.0
 21
21.687751406
  0
LINE
  5
253
100
AcDbEntity
  8
DRAFT
100
AcDbLine
 62
7
  6
CONTINUOUS
 10
-9.75
 20
15.8937346198
 11
-9.7307994286
 21
16.0876942985
  0
LINE
  5
254
100
AcDbEntity
  8
DRAFT
100
AcDbLine
 62
7
  6
CONTINUOUS
 10
-10.259966909
 20
6.3620733753
 11
-9.9506158332
 21
7.0254788984
  0
LINE
  5
255
100
AcDbEntity
  8
RACCORDO
100
AcDbLine
 62
250
  6
CONTINUOUS
 10
-10.1630151405
 20
6.3405796857
 11
-9.9021436407
 21
6.9000204223
  0
LINE
  5
256
100
AcDbEntity
  8
RACCORDO
100
AcDbLine
 62
250
  6
CONTINUOUS
 10
-9.9130532167
 20
6.2851644614
 11
-9.6766887273
 21
6.7920497446
  0
LWPOLYLINE
  5
257
100
AcDbEntity
  8
RACCORDO
100
AcDbPolyline
 62
7
  6
CONTINUOUS
 90
7
 70
0
 10
-10.1630151405
 20
5.6514630425
 10
-10.1603710011
 20
5.6543549124
 10
-10.1536032888
 20
5.6571112089
 10
-10.1428202558
 20
5.6597319319
 10
-10.1281978591
 20
5.6622560895
 10
-10.1099758134
 20
5.6646446736
 10
-10.1
 20
5.665634692
  0
LINE
  5
258
100
AcDbEntity
  8
0
100
AcDbLine
 62
250
  6
CONTINUOUS
 10
9.75
 20
-12.5418173207
 11
8.8233112727
 21
-12.5418173207
  0
LINE
  5
259
100
AcDbEntity
  8
0
100
AcDbLine
 62
250
  6
CONTINUOUS
 10
-8.8233112727
 20
-12.5418173207
 11
-9.75
 21
-12.5418173207
  0
LINE
  5
25A
100
AcDbEntity
  8
0
100
AcDbLine
 62
250
  6
CONTINUOUS
 10
9.741577054
 20
-12.0421219072
 11
8.8148883267
 21
-12.0421219072
  0
LINE
  5
25B
100
AcDbEntity
  8
0
100
AcDbLine
 62
250
  6
CONTINUOUS
 10
-8.8148883267
 20
-12.0421219072
 11
-9.741577054
 21
-12.0421219072
  0
LINE
  5
25C
100
AcDbEntity
  8
0
100
AcDbLine
 62
7
  6
CONTINUOUS
 10
-9.6766887273
 20
-11.9123057015
 11
-8.75
 21
-11.9123057015
  0
LINE
  5
25D
100
AcDbEntity
  8
0
100
AcDbLine
 62
7
  6
CONTINUOUS
 10
8.75
 20
-11.9123057015
 11
9.6766887273
 21
-11.9123057015
  0
LINE
  5
25E
100
AcDbEntity
  8
DRAFT
100
AcDbLine
 62
7
  6
CONTINUOUS
 10
-9.9506158332
 20
-6.3500903013
 11
-10.259966909
 21
-5.6866847783
  0
LINE
  5
25F
100
AcDbEntity
  8
RACCORDO
100
AcDbLine
 62
250
  6
CONTINUOUS
 10
-9.9021436407
 20
-6.2246318252
 11
-10.1630151405
 21
-5.6651910886
  0
LINE
  5
260
100
AcDbEntity
  8
RACCORDO
100
AcDbLine
 62
250
  6
CONTINUOUS
 10
-9.6766887273
 20
-6.1166611475
 11
-9.9130532167
 21
-5.6097758643
  0
LINE
  5
261
100
AcDbEntity
  8
0
100
AcDbLine
 62
7
  6
CONTINUOUS
 10
-8.8233112727
 20
-15.2183460227
 11
-8.8041107013
 21
-15.4123057015
  0
LWPOLYLINE
  5
262
100
AcDbEntity
  8
0
100
AcDbPolyline
 62
250
  6
CONTINUOUS
 90
3
 70
0
 10
-9.8
 20
-1.6747668812
 10
-9.7979207671
 20
-1.7681520273
 10
-9.7904409796
 20
-1.8576992082
  0
LINE
  5
263
100
AcDbEntity
  8
DRAFT
100
AcDbLine
 62
7
  6
CONTINUOUS
 10
-10.259966909
 20
-5.6866847783
 11
-10.259966909
 21
6.3620733753
  0
LINE
  5
264
100
AcDbEntity
  8
RACCORDO
100
AcDbLine
 62
250
  6
CONTINUOUS
 10
-10.1630151405
 20
-5.6651910886
 11
-10.1630151405
 21
-4.9760744454
  0
LINE
  5
265
100
AcDbEntity
  8
RACCORDO
100
AcDbLine
 62
250
  6
CONTINUOUS
 10
-10.154287608
 20
2.8158221327
 11
-10.1630151405
 21
5.837713337
  0
LINE
  5
266
100
AcDbEntity
  8
RACCORDO
100
AcDbLine
 62
250
  6
CONTINUOUS
 10
-10.1630151405
 20
5.837713337
 11
-10.1630151405
 21
6.3405796857
  0
LINE
  5
267
100
AcDbEntity
  8
RACCORDO
100
AcDbLine
 62
250
  6
CONTINUOUS
 10
-10.154287608
 20
-2.1404335356
 11
-10.154287608
 21
2.8158221327
  0
LINE
  5
268
100
AcDbEntity
  8
0
100
AcDbLine
 62
7
  6
CONTINUOUS
 10
-10.1
 20
5.837713337
 11
-10.1
 21
-5.1623247399
  0
LINE
  5
269
100
AcDbEntity
  8
0
100
AcDbLine
 62
7
  6
CONTINUOUS
 10
-9.9506158332
 20
-15.6623057015
 11
-9.9506158332
 21
-17.6623057015
  0
LINE
  5
26A
100
AcDbEntity
  8
RACCORDO
100
AcDbLine
 62
7
  6
CONTINUOUS
 10
-9.9506158332
 20
-20.2629329577
 11
-9.9506158332
 21
-17.6623057015
  0
LINE
  5
26B
100
AcDbEntity
  8
DRAFT
100
AcDbLine
 62
7
  6
CONTINUOUS
 10
-9.9506158332
 20
-15.6623057015
 11
-9.9506158332
 21
-6.3500903013
  0
LINE
  5
26C
100
AcDbEntity
  8
DRAFT
100
AcDbLine
 62
7
  6
CONTINUOUS
 10
-9.9506158332
 20
7.0254788984
 11
-9.9506158332
 21
16.3376942985
  0
LINE
  5
26D
100
AcDbEntity
  8
0
100
AcDbLine
 62
7
  6
CONTINUOUS
 10
-9.9506158332
 20
16.3376942985
 11
-9.9506158332
 21
18.3376942985
  0
LINE
  5
26E
100
AcDbEntity
  8
RACCORDO
100
AcDbLine
 62
7
  6
CONTINUOUS
 10
-9.9506158332
 20
18.3376942985
 11
-9.9506158332
 21
20.9383215548
  0
LINE
  5
26F
100
AcDbEntity
  8
RACCORDO
100
AcDbLine
 62
250
  6
CONTINUOUS
 10
-9.9130532167
 20
-5.6097758643
 11
-9.9130532167
 21
-5.5500012324
  0
LINE
  5
270
100
AcDbEntity
  8
RACCORDO
100
AcDbLine
 62
250
  6
CONTINUOUS
 10
-9.9130532167
 20
6.2253898263
 11
-9.9130532167
 21
6.2851644614
  0
LINE
  5
271
100
AcDbEntity
  8
RACCORDO
100
AcDbLine
 62
7
  6
CONTINUOUS
 10
-9.9021626781
 20
-20.2144798027
 11
-9.9021626781
 21
-17.6623057015
  0
LINE
  5
272
100
AcDbEntity
  8
RACCORDO
100
AcDbLine
 62
7
  6
CONTINUOUS
 10
-9.9021626781
 20
-15.6623057015
 11
-9.9021626781
 21
-13.4561944822
  0
LINE
  5
273
100
AcDbEntity
  8
RACCORDO
100
AcDbLine
 62
7
  6
CONTINUOUS
 10
-9.9021626781
 20
-12.8684169207
 11
-9.9021626781
 21
-6.2246810988
  0
LINE
  5
274
100
AcDbEntity
  8
RACCORDO
100
AcDbLine
 62
7
  6
CONTINUOUS
 10
-9.9021626781
 20
6.9000696959
 11
-9.9021626781
 21
13.5438055178
  0
LINE
  5
275
100
AcDbEntity
  8
RACCORDO
100
AcDbLine
 62
7
  6
CONTINUOUS
 10
-9.9021626781
 20
14.1315830793
 11
-9.9021626781
 21
16.3376942985
  0
LINE
  5
276
100
AcDbEntity
  8
RACCORDO
100
AcDbLine
 62
7
  6
CONTINUOUS
 10
-9.9021626781
 20
18.3376942985
 11
-9.9021626781
 21
20.8898716933
  0
LINE
  5
277
100
AcDbEntity
  8
0
100
AcDbLine
 62
250
  6
CONTINUOUS
 10
-9.8
 20
-1.6747668812
 11
-9.8
 21
2.3501554783
  0
LINE
  5
278
100
AcDbEntity
  8
RACCORDO
100
AcDbLine
 62
7
  6
CONTINUOUS
 10
-9.75
 20
20.0378161424
 11
-9.75
 21
18.7816539773
  0
LINE
  5
279
100
AcDbEntity
  8
DRAFT
100
AcDbLine
 62
7
  6
CONTINUOUS
 10
-9.75
 20
15.8937346198
 11
-9.75
 21
14.2707070004
  0
LINE
  5
27A
100
AcDbEntity
  8
0
100
AcDbLine
 62
7
  6
CONTINUOUS
 10
-9.75
 20
13.4046815966
 11
-9.75
 21
13.2172059178
  0
LINE
  5
27B
100
AcDbEntity
  8
0
100
AcDbLine
 62
7
  6
CONTINUOUS
 10
-9.75
 20
-12.5418173207
 11
-9.75
 21
-12.7292929996
  0
LINE
  5
27C
100
AcDbEntity
  8
DRAFT
100
AcDbLine
 62
7
  6
CONTINUOUS
 10
-9.75
 20
-13.5953184034
 11
-9.75
 21
-15.2183460227
  0
LINE
  5
27D
100
AcDbEntity
  8
RACCORDO
100
AcDbLine
 62
7
  6
CONTINUOUS
 10
-9.75
 20
-18.1062653802
 11
-9.75
 21
-19.3624275453
  0
LINE
  5
27E
100
AcDbEntity
  8
DRAFT
100
AcDbLine
 62
7
  6
CONTINUOUS
 10
-9.7307994286
 20
-17.9123057015
 11
-9.7307994286
 21
-17.6623057015
  0
LINE
  5
27F
100
AcDbEntity
  8
DRAFT
100
AcDbLine
 62
7
  6
CONTINUOUS
 10
-9.7307994286
 20
-15.6623057015
 11
-9.7307994286
 21
-15.4123057015
  0
LINE
  5
280
100
AcDbEntity
  8
DRAFT
100
AcDbLine
 62
7
  6
CONTINUOUS
 10
-9.7307994286
 20
16.0876942985
 11
-9.7307994286
 21
16.3376942985
  0
LINE
  5
281
100
AcDbEntity
  8
DRAFT
100
AcDbLine
 62
7
  6
CONTINUOUS
 10
-9.7307994286
 20
18.3376942985
 11
-9.7307994286
 21
18.5876942985
  0
LINE
  5
282
100
AcDbEntity
  8
0
100
AcDbLine
 62
7
  6
CONTINUOUS
 10
-9.6766887273
 20
12.5876942985
 11
-9.6766887273
 21
6.3317812493
  0
LINE
  5
283
100
AcDbEntity
  8
0
100
AcDbLine
 62
7
  6
CONTINUOUS
 10
-9.6766887273
 20
-5.6563926522
 11
-9.6766887273
 21
-11.9123057015
  0
LINE
  5
284
100
AcDbEntity
  8
RACCORDO
100
AcDbLine
 62
250
  6
CONTINUOUS
 10
-9.6521721974
 20
-20.2144798027
 11
-9.6521721974
 21
-19.7422834125
  0
LINE
  5
285
100
AcDbEntity
  8
RACCORDO
100
AcDbLine
 62
250
  6
CONTINUOUS
 10
-9.6521721974
 20
20.41767189
 11
-9.6521721974
 21
20.8898683997
  0
LINE
  5
286
100
AcDbEntity
  8
RACCORDO
100
AcDbLine
 62
250
  6
CONTINUOUS
 10
-9.6021741012
 20
-20.2644778988
 11
-9.6021741012
 21
-20.5144683796
  0
LINE
  5
287
100
AcDbEntity
  8
RACCORDO
100
AcDbLine
 62
250
  6
CONTINUOUS
 10
-9.6021741012
 20
20.9398664959
 11
-9.6021741012
 21
21.1898569767
  0
LINE
  5
288
100
AcDbEntity
  8
0
100
AcDbLine
 62
7
  6
CONTINUOUS
 10
-9.6
 20
-1.6747418244
 11
-9.6
 21
2.3500879169
  0
LINE
  5
289
100
AcDbEntity
  8
0
100
AcDbLine
 62
250
  6
CONTINUOUS
 10
-9.4
 20
-2.4281690386
 11
-9.4
 21
3.1035576357
  0
LINE
  5
28A
100
AcDbEntity
  8
0
100
AcDbLine
 62
7
  6
CONTINUOUS
 10
-9.35
 20
-15.6623057015
 11
-9.35
 21
-17.6623057015
  0
LINE
  5
28B
100
AcDbEntity
  8
0
100
AcDbLine
 62
7
  6
CONTINUOUS
 10
-9.35
 20
16.3376942985
 11
-9.35
 21
18.3376942985
  0
LINE
  5
28C
100
AcDbEntity
  8
RACCORDO
100
AcDbLine
 62
250
  6
CONTINUOUS
 10
-10.1630151405
 20
-4.9760744454
 11
-10.154287608
 21
-2.1404335356
  0
LWPOLYLINE
  5
28D
100
AcDbEntity
  8
0
100
AcDbPolyline
 62
250
  6
CONTINUOUS
 90
49
 70
0
 10
-9.6
 20
2.3501554783
 10
-9.5998703269
 20
2.3773236083
 10
-9.5994879247
 20
2.4037127297
 10
-9.5988628499
 20
2.4293195348
 10
-9.5980058741
 20
2.4541179339
 10
-9.5969270022
 20
2.4781282008
 10
-9.5956340631
 20
2.5014167407
 10
-9.5941363044
 20
2.523981356
 10
-9.5924429581
 20
2.5458194359
 10
-9.5905594562
 20
2.5669966267
 10
-9.588493545
 20
2.5875156734
 10
-9.5862536777
 20
2.6073697664
 10
-9.5838443325
 20
2.6266099939
 10
-9.5812731214
 20
2.6452342679
 10
-9.5785471622
 20
2.6632412496
 10
-9.5756684156
 20
2.6806828423
 10
-9.5726432843
 20
2.6975596812
 10
-9.5694782183
 20
2.7138680282
 10
-9.5661734445
 20
2.7296527907
 10
-9.5627310144
 20
2.7449279829
 10
-9.5591597935
 20
2.7596764884
 10
-9.5554699099
 20
2.7738965107
 10
-9.5516656229
 20
2.7875905777
 10
-9.5477547961
 20
2.800754185
 10
-9.54375448
 20
2.8133757887
 10
-9.5396749339
 20
2.8254433142
 10
-9.5355199487
 20
2.8369688255
 10
-9.5312978505
 20
2.8479776771
 10
-9.5270258378
 20
2.8584488118
 10
-9.5227004126
 20
2.8684044678
 10
-9.5182967347
 20
2.8779337167
 10
-9.5138263596
 20
2.8870331958
 10
-9.5092866515
 20
2.8957051324
 10
-9.5046264826
 20
2.904043136
 10
-9.4998550107
 20
2.9120502877
 10
-9.4949666107
 20
2.9197174768
 10
-9.4898815873
 20
2.9271136724
 10
-9.4846090861
 20
2.9342465356
 10
-9.4791382878
 20
2.9410938924
 10
-9.4733519961
 20
2.9476698984
 10
-9.4672619685
 20
2.9539938507
 10
-9.4608505607
 20
2.96001697
 10
-9.4539479373
 20
2.9656345926
 10
-9.446559053
 20
2.9708909228
 10
-9.4386728009
 20
2.9756839769
 10
-9.4300885848
 20
2.9796632941
 10
-9.4207405895
 20
2.98267075
 10
-9.4107050755
 20
2.9847561555
 10
-9.4
 20
2.9858613235
  0
LWPOLYLINE
  5
28E
100
AcDbEntity
  8
RACCORDO
100
AcDbPolyline
 62
250
  6
CONTINUOUS
 90
22
 70
0
 10
-9.6521721974
 20
20.8898683997
 10
-9.6521329293
 20
20.8924439859
 10
-9.6519208119
 20
20.8950945454
 10
-9.651535845
 20
20.8978200784
 10
-9.650995427
 20
20.9006312471
 10
-9.6502821596
 20
20.9035173893
 10
-9.6493438478
 20
20.9064465179
 10
-9.6481808182
 20
20.9094278486
 10
-9.6467927443
 20
20.9124521658
 10
-9.6451264511
 20
20.9154598354
 10
-9.6431783421
 20
20.9184624205
 10
-9.6409520139
 20
20.9214483582
 10
-9.6384050817
 20
20.9243233253
 10
-9.6355191469
 20
20.9271025779
 10
-9.6323126081
 20
20.9297708599
 10
-9.6287982759
 20
20.9321880808
 10
-9.6249470926
 20
20.9343546711
 10
-9.6207881159
 20
20.9362702001
 10
-9.61642133
 20
20.9377932854
 10
-9.611880063
 20
20.9388767994
 10
-9.6071309867
 20
20.9395678695
 10
-9.6021741012
 20
20.9398664959
  0
LWPOLYLINE
  5
28F
100
AcDbEntity
  8
RACCORDO
100
AcDbPolyline
 62
250
  6
CONTINUOUS
 90
22
 70
0
 10
-9.9021626779
 20
20.8898716931
 10
-9.9017694889
 20
20.9052037144
 10
-9.9005292432
 20
20.9211123676
 10
-9.8983469114
 20
20.9375448651
 10
-9.895133334
 20
20.9544104514
 10
-9.890791718
 20
20.971661343
 10
-9.8852030647
 20
20.9892880529
 10
-9.8782648568
 20
21.0071843861
 10
-9.8698799793
 20
21.0252280919
 10
-9.8599165962
 20
21.0433515879
 10
-9.8482799602
 20
21.0613906138
 10
-9.834888456
 20
21.0791612276
 10
-9.8196202702
 20
21.0965198021
 10
-9.8023763995
 20
21.113266479
 10
-9.7831564889
 20
21.1291030328
 10
-9.7620222367
 20
21.1437123146
 10
-9.738970182
 20
21.1568430747
 10
-9.7141166694
 20
21.168181451
 10
-9.6877947882
 20
21.177373506
 10
-9.6602540461
 20
21.1841773023
 10
-9.6316329513
 20
21.1884051904
 10
-9.6021741012
 20
21.1898569767
  0
LINE
  5
290
100
AcDbEntity
  8
0
100
AcDbLine
 62
7
  6
CONTINUOUS
 10
-8.8233112727
 20
15.8937346198
 11
-8.8041107013
 21
16.0876942985
  0
LWPOLYLINE
  5
291
100
AcDbEntity
  8
RACCORDO
100
AcDbPolyline
 62
7
  6
CONTINUOUS
 90
7
 70
0
 10
-10.154287608
 20
2.8158221327
 10
-10.1516443489
 20
2.8185659687
 10
-10.1448788752
 20
2.8213525232
 10
-10.1340980912
 20
2.8240899186
 10
-10.1194760356
 20
2.8266506038
 10
-10.1012516788
 20
2.8289883611
 10
-10.1
 20
2.829113456
  0
LWPOLYLINE
  5
292
100
AcDbEntity
  8
0
100
AcDbPolyline
 62
7
  6
CONTINUOUS
 90
10
 70
0
 10
0.6381226496
 20
12.3208432724
 10
0.650959637
 20
12.3314718386
 10
0.6759955985
 20
12.3568263761
 10
0.713230534
 20
12.3959511569
 10
0.7647015006
 20
12.4475926253
 10
0.8283714411
 20
12.510005657
 10
0.8981291848
 20
12.5808498076
 10
0.9719376745
 20
12.6577215086
 10
1.0518339673
 20
12.7383957239
 10
1.1378180631
 20
12.8205386859
  0
LINE
  5
293
100
AcDbEntity
  8
0
100
AcDbLine
 62
7
  6
CONTINUOUS
 10
-2.1
 20
-9.8623057015
 11
2.1
 21
-9.8623057015
  0
LWPOLYLINE
  5
294
100
AcDbEntity
  8
0
100
AcDbPolyline
 62
7
  6
CONTINUOUS
 90
10
 70
0
 10
-7.3
 20
-5.9384845526
 10
-7.3919044935
 20
-5.8507503538
 10
-7.4759489005
 20
-5.7607624396
 10
-7.5521332208
 20
-5.66852081
 10
-7.6220936516
 20
-5.5738507931
 10
-7.6841939958
 20
-5.4769270607
 10
-7.7335256619
 20
-5.3782736286
 10
-7.7684524527
 20
-5.2780651685
 10
-7.7906105654
 20
-5.1761270085
 10
-7.8
 20
-5.0724591488
  0
LWPOLYLINE
  5
295
100
AcDbEntity
  8
RACCORDO
100
AcDbPolyline
 62
7
  6
CONTINUOUS
 90
7
 70
0
 10
-10.1630151405
 20
-4.9760744454
 10
-10.1603718814
 20
-4.9788182814
 10
-10.1536064077
 20
-4.9816048359
 10
-10.1428256237
 20
-4.9843422313
 10
-10.1282035681
 20
-4.9869029165
 10
-10.1099792113
 20
-4.9892406738
 10
-10.1
 20
-4.9902380134
  0
LWPOLYLINE
  5
296
100
AcDbEntity
  8
0
100
AcDbPolyline
 62
250
  6
CONTINUOUS
 90
11
 70
0
 10
-9.7904409796
 20
-1.8576992082
 10
-9.7775606374
 20
-1.9434084239
 10
-9.7596142893
 20
-2.0260342645
 10
-9.7362673865
 20
-2.1048221398
 10
-9.7065162826
 20
-2.1775082796
 10
-9.6697121374
 20
-2.2452933562
 10
-9.626503791
 20
-2.3069766973
 10
-9.5778341168
 20
-2.3566925148
 10
-9.5240174058
 20
-2.3924855463
 10
-9.4647393668
 20
-2.4163110542
 10
-9.4
 20
-2.4281690386
  0
LINE
  5
297
100
AcDbEntity
  8
DRAFT
100
AcDbLine
 62
7
  6
CONTINUOUS
 10
-9.75
 20
18.7816539773
 11
-9.7307994286
 21
18.5876942985
  0
LWPOLYLINE
  5
298
100
AcDbEntity
  8
0
100
AcDbPolyline
 62
7
  6
CONTINUOUS
 90
10
 70
0
 10
-8.1
 20
-0.9360796217
 10
-8.0969431055
 20
-0.9675276026
 10
-8.0886751117
 20
-0.9956072762
 10
-8.0751960186
 20
-1.0205105197
 10
-8.0559461364
 20
-1.0429824659
 10
-8.0314851549
 20
-1.0626025097
 10
-8.0034921435
 20
-1.0779150988
 10
-7.9725267922
 20
-1.0886178773
 10
-7.938029411
 20
-1.0954257865
 10
-7.9
 20
-1.0984463631
  0
LINE
  5
299
100
AcDbEntity
  8
0
100
AcDbLine
 62
250
  6
CONTINUOUS
 10
-7.9020796773
 20
2.4435435431
 11
-7.9095594111
 21
2.5330915798
  0
LINE
  5
29A
100
AcDbEntity
  8
0
100
AcDbLine
 62
250
  6
CONTINUOUS
 10
-7.9
 20
2.3501554783
 11
-7.9020796773
 21
2.4435435431
  0
LINE
  5
29B
100
AcDbEntity
  8
0
100
AcDbLine
 62
7
  6
CONTINUOUS
 10
-8.8233112727
 20
19.9110055712
 11
-8.8233112727
 21
18.7816539773
  0
LINE
  5
29C
100
AcDbEntity
  8
0
100
AcDbLine
 62
7
  6
CONTINUOUS
 10
-8.8233112727
 20
15.8937346198
 11
-8.8233112727
 21
13.2172059178
  0
LINE
  5
29D
100
AcDbEntity
  8
0
100
AcDbLine
 62
7
  6
CONTINUOUS
 10
-8.8233112727
 20
-12.5418173207
 11
-8.8233112727
 21
-15.2183460227
  0
LINE
  5
29E
100
AcDbEntity
  8
0
100
AcDbLine
 62
7
  6
CONTINUOUS
 10
-8.8233112727
 20
-18.1062653802
 11
-8.8233112727
 21
-19.2356169742
  0
LINE
  5
29F
100
AcDbEntity
  8
0
100
AcDbLine
 62
7
  6
CONTINUOUS
 10
-8.8041107013
 20
-17.9123057015
 11
-8.8041107013
 21
-15.4123057015
  0
LINE
  5
2A0
100
AcDbEntity
  8
0
100
AcDbLine
 62
7
  6
CONTINUOUS
 10
-8.8041107013
 20
16.0876942985
 11
-8.8041107013
 21
18.5876942985
  0
LINE
  5
2A1
100
AcDbEntity
  8
0
100
AcDbLine
 62
7
  6
CONTINUOUS
 10
-8.75
 20
19.8376942985
 11
-8.75
 21
12.5876942985
  0
LINE
  5
2A2
100
AcDbEntity
  8
0
100
AcDbLine
 62
7
  6
CONTINUOUS
 10
-8.75
 20
-11.9123057015
 11
-8.75
 21
-19.1623057015
  0
LINE
  5
2A3
100
AcDbEntity
  8
0
100
AcDbLine
 62
250
  6
CONTINUOUS
 10
-8.3
 20
-2.4281690386
 11
-8.3
 21
3.1035576357
  0
LINE
  5
2A4
100
AcDbEntity
  8
0
100
AcDbLine
 62
7
  6
CONTINUOUS
 10
-8.1
 20
2.348513522
 11
-8.1
 21
0.8707080046
  0
LINE
  5
2A5
100
AcDbEntity
  8
0
100
AcDbLine
 62
7
  6
CONTINUOUS
 10
-8.1
 20
-0.1948583797
 11
-8.1
 21
-1.6749139172
  0
LINE
  5
2A6
100
AcDbEntity
  8
0
100
AcDbLine
 62
250
  6
CONTINUOUS
 10
-7.9
 20
2.3501554783
 11
-7.9
 21
1.7738349602
  0
LINE
  5
2A7
100
AcDbEntity
  8
0
100
AcDbLine
 62
250
  6
CONTINUOUS
 10
-7.9
 20
-1.0984463631
 11
-7.9
 21
-1.6747668812
  0
LINE
  5
2A8
100
AcDbEntity
  8
0
100
AcDbLine
 62
7
  6
CONTINUOUS
 10
-7.8
 20
5.7478477459
 11
-7.8
 21
5.6144823227
  0
LINE
  5
2A9
100
AcDbEntity
  8
0
100
AcDbLine
 62
7
  6
CONTINUOUS
 10
-7.8
 20
-5.0046303209
 11
-7.8
 21
-5.0724591488
  0
LINE
  5
2AA
100
AcDbEntity
  8
0
100
AcDbLine
 62
7
  6
CONTINUOUS
 10
-7.8
 20
-4.8086681612
 11
-7.8
 21
-0.9996572077
  0
LINE
  5
2AB
100
AcDbEntity
  8
0
100
AcDbLine
 62
7
  6
CONTINUOUS
 10
-7.8
 20
1.6750458048
 11
-7.8
 21
5.4840567583
  0
LINE
  5
2AC
100
AcDbEntity
  8
0
100
AcDbLine
 62
250
  6
CONTINUOUS
 10
-7.3
 20
6.6138731497
 11
-7.3
 21
5.9843615304
  0
LINE
  5
2AD
100
AcDbEntity
  8
0
100
AcDbLine
 62
250
  6
CONTINUOUS
 10
-7.3
 20
-5.3089729333
 11
-7.3
 21
-5.9384845526
  0
LWPOLYLINE
  5
2AE
100
AcDbEntity
  8
0
100
AcDbPolyline
 62
250
  6
CONTINUOUS
 90
31
 70
0
 10
-8.1
 20
-1.6747668812
 10
-8.1002265029
 20
-1.7107259647
 10
-8.1009242276
 20
-1.7464210487
 10
-8.1021199966
 20
-1.7818429682
 10
-8.1038501755
 20
-1.817215617
 10
-8.1061346009
 20
-1.8522896412
 10
-8.1089494757
 20
-1.8863465576
 10
-8.1122935131
 20
-1.9193100542
 10
-8.116162343
 20
-1.9512304706
 10
-8.1204767197
 20
-1.9815871022
 10
-8.1251719439
 20
-2.0101367881
 10
-8.130246406
 20
-2.0371101
 10
-8.1356970066
 20
-2.0627012598
 10
-8.1414969782
 20
-2.086910321
 10
-8.1476246961
 20
-2.1097244543
 10
-8.1540974073
 20
-2.131314268
 10
-8.1609135937
 20
-2.151729627
 10
-8.1680398719
 20
-2.1709041963
 10
-8.1754509386
 20
-2.1888321475
 10
-8.1830764509
 20
-2.2054307774
 10
-8.1909425538
 20
-2.2207737414
 10
-8.1991817894
 20
-2.2350792827
 10
-8.2077395834
 20
-2.2483722583
 10
-8.2166495178
 20
-2.2605957179
 10
-8.2262093086
 20
-2.2718077913
 10
-8.2364412147
 20
-2.2821382342
 10
-8.2473235716
 20
-2.2913603046
 10
-8.2591131627
 20
-2.2989426747
 10
-8.2718888942
 20
-2.304638382
 10
-8.2855338554
 20
-2.3085134207
 10
-8.3
 20
-2.3104727264
  0
LWPOLYLINE
  5
2AF
100
AcDbEntity
  8
0
100
AcDbPolyline
 62
7
  6
CONTINUOUS
 90
10
 70
0
 10
-8.1
 20
0.870787169
 10
-8.1022134346
 20
0.7557839113
 10
-8.1038735363
 20
0.6384141326
 10
-8.1049803051
 20
0.5192112236
 10
-8.1055337755
 20
0.3984458946
 10
-8.1055339129
 20
0.2769670255
 10
-8.1049806144
 20
0.1561991592
 10
-8.1038738455
 20
0.0369912475
 10
-8.1022136408
 20
-0.080385861
 10
-8.1
 20
-0.1953985719
  0
LINE
  5
2B0
100
AcDbEntity
  8
0
100
AcDbLine
 62
250
  6
CONTINUOUS
 10
-7.9021729956
 20
-1.7691922107
 11
-7.9
 21
-1.6747668812
  0
LWPOLYLINE
  5
2B1
100
AcDbEntity
  8
0
100
AcDbPolyline
 62
7
  6
CONTINUOUS
 90
10
 70
0
 10
-7.8
 20
5.7478477459
 10
-7.7906356912
 20
5.8514658101
 10
-7.7684878596
 20
5.9533799852
 10
-7.733556505
 20
6.0535902712
 10
-7.6841940126
 20
6.1522891559
 10
-7.6220479972
 20
6.2492841514
 10
-7.5520613038
 20
6.3439977948
 10
-7.4758815473
 20
6.4362375985
 10
-7.3918611127
 20
6.5261960501
 10
-7.3
 20
6.6138731497
  0
LINE
  5
2B2
100
AcDbEntity
  8
DRAFT
100
AcDbLine
 62
7
  6
CONTINUOUS
 10
-9.75
 20
-18.1062653802
 11
-9.7307994286
 21
-17.9123057015
  0
LWPOLYLINE
  5
2B3
100
AcDbEntity
  8
0
100
AcDbPolyline
 62
250
  6
CONTINUOUS
 90
4
 70
0
 10
-7.9411529006
 20
-2.0289080382
 10
-7.9228833027
 20
-1.9458735694
 10
-7.9098007632
 20
-1.8595611067
 10
-7.9021729956
 20
-1.7691922107
  0
LINE
  5
2B4
100
AcDbEntity
  8
0
100
AcDbLine
 62
7
  6
CONTINUOUS
 10
0.542008496
 20
12.2247291189
 11
0.6381226496
 21
12.3208432724
  0
LINE
  5
2B5
100
AcDbEntity
  8
RACCORDO
100
AcDbLine
 62
250
  6
CONTINUOUS
 10
9.6506272563
 20
21.2383101317
 11
9.6021773948
 21
21.1898569767
  0
LINE
  5
2B6
100
AcDbEntity
  8
0
100
AcDbLine
 62
7
  6
CONTINUOUS
 10
8.8233112727
 20
19.9110055712
 11
8.75
 21
19.8376942985
  0
LINE
  5
2B7
100
AcDbEntity
  8
RACCORDO
100
AcDbLine
 62
250
  6
CONTINUOUS
 10
9.9506158332
 20
20.9383215548
 11
9.9021626781
 21
20.8898683997
  0
LINE
  5
2B8
100
AcDbEntity
  8
0
100
AcDbLine
 62
7
  6
CONTINUOUS
 10
1.1378180631
 20
-9.0123057015
 11
-1.1378180631
 21
-9.0123057015
  0
LINE
  5
2B9
100
AcDbEntity
  8
0
100
AcDbLine
 62
7
  6
CONTINUOUS
 10
-0.5083064438
 20
-8.8656384696
 11
0.5083064438
 21
-8.8656384696
  0
LINE
  5
2BA
100
AcDbEntity
  8
0
100
AcDbLine
 62
7
  6
CONTINUOUS
 10
-0.5083064438
 20
-7.6623057015
 11
0.5083064438
 21
-7.6623057015
  0
LINE
  5
2BB
100
AcDbEntity
  8
0
100
AcDbLine
 62
250
  6
CONTINUOUS
 10
-0.3953412642
 20
-7.5493405218
 11
0.3953412642
 21
-7.5493405218
  0
LINE
  5
2BC
100
AcDbEntity
  8
0
100
AcDbLine
 62
7
  6
CONTINUOUS
 10
8.8233112727
 20
-20.1623057015
 11
8.7622185454
 21
-20.1012129742
  0
LINE
  5
2BD
100
AcDbEntity
  8
RACCORDO
100
AcDbLine
 62
250
  6
CONTINUOUS
 10
9.6021741012
 20
-20.5144683796
 11
9.6506272563
 21
-20.5629215346
  0
LINE
  5
2BE
100
AcDbEntity
  8
RACCORDO
100
AcDbLine
 62
250
  6
CONTINUOUS
 10
9.9021626781
 20
-20.2144735728
 11
9.9506158332
 21
-20.2629329577
  0
LWPOLYLINE
  5
2BF
100
AcDbEntity
  8
RACCORDO
100
AcDbPolyline
 62
7
  6
CONTINUOUS
 90
7
 70
0
 10
-10.154287608
 20
-2.1404335356
 10
-10.1516434686
 20
-2.1433254055
 10
-10.1448757563
 20
-2.146081702
 10
-10.1340927233
 20
-2.148702425
 10
-10.1194703267
 20
-2.1512265826
 10
-10.101248281
 20
-2.1536151667
 10
-10.1
 20
-2.1537390485
  0
LWPOLYLINE
  5
2C0
100
AcDbEntity
  8
0
100
AcDbPolyline
 62
250
  6
CONTINUOUS
 90
5
 70
0
 10
-7.9095594111
 20
2.5330915798
 10
-7.9224392014
 20
2.6187995884
 10
-7.9403843856
 20
2.7014206546
 10
-7.9637296262
 20
2.7802016926
 10
-7.9934789108
 20
2.8528834453
  0
LINE
  5
2C1
100
AcDbEntity
  8
0
100
AcDbLine
 62
7
  6
CONTINUOUS
 10
-8.8233112727
 20
18.7816539773
 11
-8.8041107013
 21
18.5876942985
  0
LINE
  5
2C2
100
AcDbEntity
  8
0
100
AcDbLine
 62
7
  6
CONTINUOUS
 10
-6.9
 20
-5.3508778567
 11
-6.9
 21
-0.9996572077
  0
LINE
  5
2C3
100
AcDbEntity
  8
0
100
AcDbLine
 62
7
  6
CONTINUOUS
 10
-6.9
 20
1.6750458048
 11
-6.9
 21
6.0262664538
  0
LINE
  5
2C4
100
AcDbEntity
  8
0
100
AcDbLine
 62
7
  6
CONTINUOUS
 10
-6.6
 20
-3.5935779778
 11
-6.6
 21
4.2689665749
  0
LINE
  5
2C5
100
AcDbEntity
  8
0
100
AcDbLine
 62
7
  6
CONTINUOUS
 10
-6.5
 20
-2.1623057015
 11
-6.5
 21
2.8376942985
  0
LINE
  5
2C6
100
AcDbEntity
  8
0
100
AcDbLine
 62
7
  6
CONTINUOUS
 10
-6.0
 20
-4.3575334123
 11
-6.0
 21
5.0329220118
  0
LINE
  5
2C7
100
AcDbEntity
  8
0
100
AcDbLine
 62
7
  6
CONTINUOUS
 10
-8.8233112727
 20
-18.1062653802
 11
-8.8041107013
 21
-17.9123057015
  0
LINE
  5
2C8
100
AcDbEntity
  8
0
100
AcDbLine
 62
7
  6
CONTINUOUS
 10
-4.3316524976
 20
19.8376942985
 11
-4.3220008854
 21
19.9110055712
  0
LINE
  5
2C9
100
AcDbEntity
  8
0
100
AcDbLine
 62
7
  6
CONTINUOUS
 10
-3.0157831028
 20
19.5610055712
 11
-3.0254347149
 21
19.4876942985
  0
LINE
  5
2CA
100
AcDbEntity
  8
0
100
AcDbLine
 62
7
  6
CONTINUOUS
 10
-6.5
 20
2.8376942985
 11
-6.1200267882
 21
4.9926294664
  0
LINE
  5
2CB
100
AcDbEntity
  8
RACCORDO
100
AcDbLine
 62
7
  6
CONTINUOUS
 10
-9.9506158332
 20
-6.3500903013
 11
-9.9021626781
 21
-6.2246810988
  0
LINE
  5
2CC
100
AcDbEntity
  8
0
100
AcDbLine
 62
7
  6
CONTINUOUS
 10
0.5083064438
 20
8.3376942985
 11
0.3953412642
 21
8.2247291189
  0
LWPOLYLINE
  5
2CD
100
AcDbEntity
  8
0
100
AcDbPolyline
 62
7
  6
CONTINUOUS
 90
7
 70
0
 10
-8.0034921435
 20
1.7533036959
 10
-8.0314851549
 20
1.7379911068
 10
-8.0559461364
 20
1.718371063
 10
-8.0751960186
 20
1.6958991168
 10
-8.0886751117
 20
1.6709958733
 10
-8.0969431055
 20
1.6429161996
 10
-8.1
 20
1.6114682188
  0
LINE
  5
2CE
100
AcDbEntity
  8
0
100
AcDbLine
 62
7
  6
CONTINUOUS
 10
-2.5
 20
5.0846856481
 11
-2.4118794124
 21
5.1111193816
  0
LWPOLYLINE
  5
2CF
100
AcDbEntity
  8
0
100
AcDbPolyline
 62
250
  6
CONTINUOUS
 90
10
 70
0
 10
7.3
 20
-5.4387891391
 10
7.3868240709
 20
-5.4311976461
 10
7.4710100412
 20
-5.4086538294
 10
7.5499999629
 20
-5.3718426692
 10
7.6213937664
 20
-5.3218826526
 10
7.683022187
 20
-5.2602917871
 10
7.7330126765
 20
-5.1889414762
 10
7.7698462966
 20
-5.1099996604
 10
7.7924038724
 20
-5.0258649466
 10
7.8
 20
-4.9390937256
  0
LWPOLYLINE
  5
2D0
100
AcDbEntity
  8
0
100
AcDbPolyline
 62
250
  6
CONTINUOUS
 90
22
 70
0
 10
1.4376353112
 20
-5.9384845526
 10
1.4152561524
 20
-5.9394010852
 10
1.3933821701
 20
-5.9418219157
 10
1.3720133642
 20
-5.9457470443
 10
1.3511231831
 20
-5.9511946415
 10
1.3307381785
 20
-5.9581465367
 10
1.3109380052
 20
-5.966548218
 10
1.2916218163
 20
-5.9764491217
 10
1.2728904587
 20
-5.9877998114
 10
1.2551261278
 20
-6.0003974665
 10
1.2383724167
 20
-6.0142595562
 10
1.2225857324
 20
-6.0293686112
 10
1.2080174911
 20
-6.045469403
 10
1.1947258602
 20
-6.0624501224
 10
1.1826526724
 20
-6.0804225786
 10
1.171874841
 20
-6.0994669709
 10
1.1622974894
 20
-6.119539758
 10
1.1540154943
 20
-6.1406844813
 10
1.1473903997
 20
-6.1631119648
 10
1.1425427203
 20
-6.1868924832
 10
1.1393519414
 20
-6.2119557618
 10
1.1378180631
 20
-6.2383018007
  0
LWPOLYLINE
  5
2D1
100
AcDbEntity
  8
0
100
AcDbPolyline
 62
250
  6
CONTINUOUS
 90
22
 70
0
 10
1.4376353112
 20
-5.4387891391
 10
1.3784785484
 20
-5.4410246295
 10
1.3200859607
 20
-5.4475636679
 10
1.2627617547
 20
-5.4582740761
 10
1.2070068019
 20
-5.472939086
 10
1.152865347
 20
-5.4914231825
 10
1.0999758163
 20
-5.5138255705
 10
1.0483619557
 20
-5.5402252034
 10
0.9986038475
 20
-5.570417984
 10
0.951188661
 20
-5.6041347482
 10
0.9064154441
 20
-5.641148047
 10
0.864460239
 20
-5.6812964829
 10
0.8255697597
 20
-5.7243307092
 10
0.7901461979
 20
-5.7697267256
 10
0.758114086
 20
-5.8174956909
 10
0.7291531728
 20
-5.8682880343
 10
0.703637395
 20
-5.9218480345
 10
0.6818485121
 20
-5.9780533713
 10
0.6637818655
 20
-6.0379285729
 10
0.649980208
 20
-6.1016891897
 10
0.6412174496
 20
-6.1686147295
 10
0.6381226496
 20
-6.2383018007
  0
LINE
  5
2D2
100
AcDbEntity
  8
0
100
AcDbLine
 62
250
  6
CONTINUOUS
 10
-0.361639212
 20
-6.5499496948
 11
0.361639212
 21
-6.5499496948
  0
LINE
  5
2D3
100
AcDbEntity
  8
0
100
AcDbLine
 62
250
  6
CONTINUOUS
 10
0.6381226496
 20
-6.2383018007
 11
1.1378180631
 21
-6.2383018007
  0
LINE
  5
2D4
100
AcDbEntity
  8
0
100
AcDbLine
 62
250
  6
CONTINUOUS
 10
-0.6381226496
 20
-6.2383018007
 11
-1.1378180631
 21
-6.2383018007
  0
LINE
  5
2D5
100
AcDbEntity
  8
0
100
AcDbLine
 62
250
  6
CONTINUOUS
 10
7.3
 20
-5.9384845526
 11
1.4376353112
 21
-5.9384845526
  0
LINE
  5
2D6
100
AcDbEntity
  8
0
100
AcDbLine
 62
250
  6
CONTINUOUS
 10
-1.4376353112
 20
-5.9384845526
 11
-7.3
 21
-5.9384845526
  0
LINE
  5
2D7
100
AcDbEntity
  8
0
100
AcDbLine
 62
250
  6
CONTINUOUS
 10
7.3
 20
-5.4387891391
 11
1.4376353112
 21
-5.4387891391
  0
LINE
  5
2D8
100
AcDbEntity
  8
0
100
AcDbLine
 62
250
  6
CONTINUOUS
 10
-1.4376353112
 20
-5.4387891391
 11
-7.3
 21
-5.4387891391
  0
LINE
  5
2D9
100
AcDbEntity
  8
0
100
AcDbLine
 62
7
  6
CONTINUOUS
 10
-6.9
 20
-5.3508778567
 11
-2.5
 21
-5.3508778567
  0
LINE
  5
2DA
100
AcDbEntity
  8
0
100
AcDbLine
 62
7
  6
CONTINUOUS
 10
2.5
 20
-5.3508778567
 11
6.9
 21
-5.3508778567
  0
LWPOLYLINE
  5
2DB
100
AcDbEntity
  8
0
100
AcDbPolyline
 62
250
  6
CONTINUOUS
 90
10
 70
0
 10
-7.3
 20
-5.4387891391
 10
-7.3868240709
 20
-5.4311976461
 10
-7.4710100411
 20
-5.4086538294
 10
-7.5499999628
 20
-5.3718426693
 10
-7.6213937663
 20
-5.3218826527
 10
-7.6830221869
 20
-5.2602917872
 10
-7.7330126765
 20
-5.1889414763
 10
-7.7698462966
 20
-5.1099996605
 10
-7.7924038724
 20
-5.0258649466
 10
-7.8
 20
-4.9390937256
  0
LINE
  5
2DC
100
AcDbEntity
  8
0
100
AcDbLine
 62
7
  6
CONTINUOUS
 10
0.5083064438
 20
-8.8656384696
 11
0.6381226496
 21
-8.9954546754
  0
LWPOLYLINE
  5
2DD
100
AcDbEntity
  8
0
100
AcDbPolyline
 62
250
  6
CONTINUOUS
 90
7
 70
0
 10
-7.9934789108
 20
2.8528834453
 10
-8.0302805137
 20
2.9206688573
 10
-8.0734861605
 20
2.982354984
 10
-8.1221550161
 20
3.0320737342
 10
-8.1759734687
 20
3.0678690778
 10
-8.23525513
 20
3.0916970449
 10
-8.3
 20
3.1035576357
  0
LINE
  5
2DE
100
AcDbEntity
  8
RACCORDO
100
AcDbLine
 62
7
  6
CONTINUOUS
 10
-9.9506158332
 20
7.0254788984
 11
-9.9021626781
 21
6.9000696959
  0
LINE
  5
2DF
100
AcDbEntity
  8
0
100
AcDbLine
 62
7
  6
CONTINUOUS
 10
-6.1200267885
 20
-4.317240868
 11
-6.5
 21
-2.1623057015
  0
LINE
  5
2E0
100
AcDbEntity
  8
RACCORDO
100
AcDbLine
 62
7
  6
CONTINUOUS
 10
-4.1817926288
 20
-20.5144683796
 11
-4.1758732155
 21
-20.5594307875
  0
LINE
  5
2E1
100
AcDbEntity
  8
0
100
AcDbLine
 62
7
  6
CONTINUOUS
 10
-4.3316524976
 20
-19.1623057015
 11
-4.3220008854
 21
-19.2356169742
  0
LINE
  5
2E2
100
AcDbEntity
  8
0
100
AcDbLine
 62
7
  6
CONTINUOUS
 10
-3.0157831028
 20
-18.8856169742
 11
-3.0254347149
 21
-18.8123057015
  0
LINE
  5
2E3
100
AcDbEntity
  8
0
100
AcDbLine
 62
7
  6
CONTINUOUS
 10
-1.2
 20
5.0626942985
 11
-1.1621057877
 21
5.1111193816
  0
LINE
  5
2E4
100
AcDbEntity
  8
0
100
AcDbLine
 62
250
  6
CONTINUOUS
 10
0.361639212
 20
6.6372069602
 11
0.6381226496
 21
6.9136903978
  0
LWPOLYLINE
  5
2E5
100
AcDbEntity
  8
RACCORDO
100
AcDbPolyline
 62
7
  6
CONTINUOUS
 90
3
 70
0
 10
-9.7751232445
 20
-6.196538081
 10
-9.6842550338
 20
-6.1761630366
 10
-9.6766887273
 20
-6.1745296275
  0
LWPOLYLINE
  5
2E6
100
AcDbEntity
  8
RACCORDO
100
AcDbPolyline
 62
7
  6
CONTINUOUS
 90
3
 70
0
 10
-9.8483113336
 20
-6.2127681468
 10
-9.802102356
 20
-6.2024522543
 10
-9.7751232445
 20
-6.196538081
  0
LINE
  5
2E7
100
AcDbEntity
  8
RACCORDO
100
AcDbLine
 62
7
  6
CONTINUOUS
 10
-9.8816211405
 20
-6.2201046217
 11
-9.8483113336
 21
-6.2127681468
  0
LWPOLYLINE
  5
2E8
100
AcDbEntity
  8
RACCORDO
100
AcDbPolyline
 62
7
  6
CONTINUOUS
 90
4
 70
0
 10
-9.9021436407
 20
-6.2246318252
 10
-9.8994215583
 20
-6.2241088766
 10
-9.8925433032
 20
-6.2225823587
 10
-9.8816211405
 20
-6.2201046217
  0
LWPOLYLINE
  5
2E9
100
AcDbEntity
  8
0
100
AcDbPolyline
 62
250
  6
CONTINUOUS
 90
13
 70
0
 10
9.4
 20
-2.4281690386
 10
9.4643416081
 20
-2.416455523
 10
9.5232892695
 20
-2.3929143014
 10
9.5768429841
 20
-2.357545374
 10
9.6252907405
 20
-2.3085367562
 10
9.6683445502
 20
-2.2477004325
 10
9.7051404473
 20
-2.1804723567
 10
9.7351227296
 20
-2.1078860735
 10
9.7588470994
 20
-2.0289080382
 10
9.7771166973
 20
-1.9458735694
 10
9.7901992368
 20
-1.8595611067
 10
9.7978270044
 20
-1.7691922107
 10
9.8
 20
-1.6747668812
  0
LINE
  5
2EA
100
AcDbEntity
  8
0
100
AcDbLine
 62
7
  6
CONTINUOUS
 10
-7.3
 20
-5.3089729333
 11
-6.9
 21
-5.3089729333
  0
LINE
  5
2EB
100
AcDbEntity
  8
0
100
AcDbLine
 62
7
  6
CONTINUOUS
 10
6.9
 20
-5.3089729333
 11
7.3
 21
-5.3089729333
  0
LINE
  5
2EC
100
AcDbEntity
  8
0
100
AcDbLine
 62
7
  6
CONTINUOUS
 10
-2.4057426494
 20
-5.1623057015
 11
-1.1611518736
 21
-5.1623057015
  0
LINE
  5
2ED
100
AcDbEntity
  8
0
100
AcDbLine
 62
7
  6
CONTINUOUS
 10
1.1611518736
 20
-5.1623057015
 11
2.4057426494
 21
-5.1623057015
  0
LINE
  5
2EE
100
AcDbEntity
  8
0
100
AcDbLine
 62
7
  6
CONTINUOUS
 10
2.4057426494
 20
-4.7873057015
 11
0.7483314774
 21
-4.7873057015
  0
LINE
  5
2EF
100
AcDbEntity
  8
0
100
AcDbLine
 62
7
  6
CONTINUOUS
 10
-0.7483314774
 20
-4.7873057015
 11
-2.4057426494
 21
-4.7873057015
  0
LINE
  5
2F0
100
AcDbEntity
  8
0
100
AcDbLine
 62
7
  6
CONTINUOUS
 10
2.4118794124
 20
-4.4357307845
 11
1.1621057877
 21
-4.4357307845
  0
LINE
  5
2F1
100
AcDbEntity
  8
0
100
AcDbLine
 62
7
  6
CONTINUOUS
 10
-1.1621057877
 20
-4.4357307845
 11
-2.4118794124
 21
-4.4357307845
  0
LINE
  5
2F2
100
AcDbEntity
  8
0
100
AcDbLine
 62
7
  6
CONTINUOUS
 10
6.9
 20
-4.409297051
 11
2.5
 21
-4.409297051
  0
LINE
  5
2F3
100
AcDbEntity
  8
0
100
AcDbLine
 62
7
  6
CONTINUOUS
 10
-2.5
 20
-4.409297051
 11
-6.9
 21
-4.409297051
  0
LINE
  5
2F4
100
AcDbEntity
  8
0
100
AcDbLine
 62
7
  6
CONTINUOUS
 10
-5.8
 20
-4.3873057015
 11
-1.2
 21
-4.3873057015
  0
LINE
  5
2F5
100
AcDbEntity
  8
0
100
AcDbLine
 62
7
  6
CONTINUOUS
 10
1.2
 20
-4.3873057015
 11
5.8
 21
-4.3873057015
  0
LWPOLYLINE
  5
2F6
100
AcDbEntity
  8
RACCORDO
100
AcDbPolyline
 62
7
  6
CONTINUOUS
 90
5
 70
0
 10
10.1630151405
 20
-5.6651910886
 10
10.1602530492
 20
-5.6646599438
 10
10.153290315
 20
-5.6631049492
 10
10.142266672
 20
-5.6605912639
 10
10.1088339792
 20
-5.653223462
  0
LWPOLYLINE
  5
2F7
100
AcDbEntity
  8
RACCORDO
100
AcDbPolyline
 62
7
  6
CONTINUOUS
 90
3
 70
0
 10
9.7748292635
 20
-6.1963834625
 10
9.6839339033
 20
-6.1764685032
 10
9.6766887273
 20
-6.1748189255
  0
LINE
  5
2F8
100
AcDbEntity
  8
RACCORDO
100
AcDbLine
 62
7
  6
CONTINUOUS
 10
9.8817982095
 20
-6.220143877
 11
9.7748292635
 21
-6.1963834625
  0
LWPOLYLINE
  5
2F9
100
AcDbEntity
  8
RACCORDO
100
AcDbPolyline
 62
7
  6
CONTINUOUS
 90
4
 70
0
 10
9.9021626781
 20
-6.2246810988
 10
9.8996569185
 20
-6.2240236456
 10
9.8928077696
 20
-6.2225112383
 10
9.8817982095
 20
-6.220143877
  0
LINE
  5
2FA
100
AcDbEntity
  8
0
100
AcDbLine
 62
7
  6
CONTINUOUS
 10
-2.5
 20
-4.409297051
 11
-2.4118794124
 21
-4.4357307845
  0
LINE
  5
2FB
100
AcDbEntity
  8
0
100
AcDbLine
 62
7
  6
CONTINUOUS
 10
0.5083064438
 20
-7.6623057015
 11
0.3953412642
 21
-7.5493405218
  0
LINE
  5
2FC
100
AcDbEntity
  8
0
100
AcDbLine
 62
250
  6
CONTINUOUS
 10
0.6381226496
 20
-6.2383018007
 11
0.361639212
 21
-5.9618183631
  0
LINE
  5
2FD
100
AcDbEntity
  8
0
100
AcDbLine
 62
7
  6
CONTINUOUS
 10
-1.2
 20
-4.3873057015
 11
-1.1621057877
 21
-4.4357307845
  0
LINE
  5
2FE
100
AcDbEntity
  8
DRAFT
100
AcDbLine
 62
7
  6
CONTINUOUS
 10
-2.1339745962
 20
-20.0123057015
 11
-2.1404303657
 21
-19.9632692639
  0
LINE
  5
2FF
100
AcDbEntity
  8
0
100
AcDbLine
 62
7
  6
CONTINUOUS
 10
-2.4057426494
 20
-4.7873057015
 11
-2.4118794124
 21
-4.4357307845
  0
LINE
  5
300
100
AcDbEntity
  8
0
100
AcDbLine
 62
7
  6
CONTINUOUS
 10
-2.5
 20
6.0262664538
 11
-2.5
 21
5.0846856481
  0
LINE
  5
301
100
AcDbEntity
  8
0
100
AcDbLine
 62
7
  6
CONTINUOUS
 10
-2.5
 20
-4.409297051
 11
-2.5
 21
-5.3508778567
  0
LINE
  5
302
100
AcDbEntity
  8
0
100
AcDbLine
 62
7
  6
CONTINUOUS
 10
-2.4057426494
 20
5.8376942985
 11
-2.4057426494
 21
5.4626942985
  0
LINE
  5
303
100
AcDbEntity
  8
0
100
AcDbLine
 62
7
  6
CONTINUOUS
 10
-2.4057426494
 20
-4.7873057015
 11
-2.4057426494
 21
-5.1623057015
  0
LINE
  5
304
100
AcDbEntity
  8
DRAFT
100
AcDbLine
 62
250
  6
CONTINUOUS
 10
-2.1
 20
-19.8123057015
 11
-2.1
 21
-19.9632681399
  0
LINE
  5
305
100
AcDbEntity
  8
0
100
AcDbLine
 62
7
  6
CONTINUOUS
 10
-2.4118794124
 20
5.1111193816
 11
-2.4057426494
 21
5.4626942985
  0
LINE
  5
306
100
AcDbEntity
  8
0
100
AcDbLine
 62
7
  6
CONTINUOUS
 10
-9.741577054
 20
-12.0421219072
 11
-9.6766887273
 21
-11.9123057015
  0
LINE
  5
307
100
AcDbEntity
  8
0
100
AcDbLine
 62
7
  6
CONTINUOUS
 10
-8.75
 20
-11.9123057015
 11
-8.8148883267
 21
-12.0421219072
  0
LINE
  5
308
100
AcDbEntity
  8
0
100
AcDbLine
 62
250
  6
CONTINUOUS
 10
1.1611518736
 20
5.8376942985
 11
1.4376353112
 21
6.1141777362
  0
LWPOLYLINE
  5
309
100
AcDbEntity
  8
RACCORDO
100
AcDbPolyline
 62
7
  6
CONTINUOUS
 90
5
 70
0
 10
-10.1630151405
 20
-5.6651910886
 10
-10.1602873641
 20
-5.6645051591
 10
-10.1533198148
 20
-5.6629718842
 10
-10.142266672
 20
-5.6605912639
 10
-10.1088525945
 20
-5.6531394936
  0
LINE
  5
30A
100
AcDbEntity
  8
RACCORDO
100
AcDbLine
 62
7
  6
CONTINUOUS
 10
-9.9448485209
 20
-5.6170115268
 11
-9.9130532167
 21
-5.6097758643
  0
LINE
  5
30B
100
AcDbEntity
  8
RACCORDO
100
AcDbLine
 62
7
  6
CONTINUOUS
 10
-10.259966909
 20
-5.6866847783
 11
-10.1630151405
 21
-5.6651910886
  0
LINE
  5
30C
100
AcDbEntity
  8
RACCORDO
100
AcDbLine
 62
7
  6
CONTINUOUS
 10
-10.1088525945
 20
-5.6531394936
 11
-9.9448485209
 21
-5.6170115268
  0
LWPOLYLINE
  5
30D
100
AcDbEntity
  8
0
100
AcDbPolyline
 62
7
  6
CONTINUOUS
 90
4
 70
0
 10
7.9
 20
-1.0984463631
 10
7.938029411
 20
-1.0954257865
 10
7.9725267922
 20
-1.0886178773
 10
8.0034921435
 20
-1.0779150988
  0
LINE
  5
30E
100
AcDbEntity
  8
0
100
AcDbLine
 62
250
  6
CONTINUOUS
 10
9.4
 20
-2.4281690386
 11
8.3
 21
-2.4281690386
  0
LINE
  5
30F
100
AcDbEntity
  8
0
100
AcDbLine
 62
250
  6
CONTINUOUS
 10
-8.3
 20
-2.4281690386
 11
-9.4
 21
-2.4281690386
  0
LINE
  5
310
100
AcDbEntity
  8
0
100
AcDbLine
 62
250
  6
CONTINUOUS
 10
9.4
 20
-2.3104727264
 11
8.3
 21
-2.3104727264
  0
LINE
  5
311
100
AcDbEntity
  8
0
100
AcDbLine
 62
250
  6
CONTINUOUS
 10
-8.3
 20
-2.3104727264
 11
-9.4
 21
-2.3104727264
  0
LINE
  5
312
100
AcDbEntity
  8
0
100
AcDbLine
 62
7
  6
CONTINUOUS
 10
-7.8
 20
-2.1623057015
 11
-6.9
 21
-2.1623057015
  0
LINE
  5
313
100
AcDbEntity
  8
0
100
AcDbLine
 62
7
  6
CONTINUOUS
 10
6.5
 20
-2.1623057015
 11
6.6
 21
-2.1623057015
  0
LINE
  5
314
100
AcDbEntity
  8
0
100
AcDbLine
 62
7
  6
CONTINUOUS
 10
-6.5
 20
-2.1623057015
 11
-6.6
 21
-2.1623057015
  0
LINE
  5
315
100
AcDbEntity
  8
0
100
AcDbLine
 62
7
  6
CONTINUOUS
 10
6.9
 20
-2.1623057015
 11
7.8
 21
-2.1623057015
  0
LINE
  5
316
100
AcDbEntity
  8
0
100
AcDbLine
 62
250
  6
CONTINUOUS
 10
9.8
 20
-1.6747668812
 11
9.6
 21
-1.6747668812
  0
LINE
  5
317
100
AcDbEntity
  8
0
100
AcDbLine
 62
250
  6
CONTINUOUS
 10
8.1
 20
-1.6747668812
 11
7.9
 21
-1.6747668812
  0
LINE
  5
318
100
AcDbEntity
  8
0
100
AcDbLine
 62
250
  6
CONTINUOUS
 10
-7.9
 20
-1.6747668812
 11
-8.1
 21
-1.6747668812
  0
LINE
  5
319
100
AcDbEntity
  8
0
100
AcDbLine
 62
250
  6
CONTINUOUS
 10
-9.6
 20
-1.6747668812
 11
-9.8
 21
-1.6747668812
  0
LWPOLYLINE
  5
31A
100
AcDbEntity
  8
0
100
AcDbPolyline
 62
250
  6
CONTINUOUS
 90
46
 70
0
 10
-9.4
 20
-2.3104727264
 10
-9.405894145
 20
-2.3102794281
 10
-9.4119138005
 20
-2.309542122
 10
-9.4180529722
 20
-2.3082540008
 10
-9.4243240659
 20
-2.3064219021
 10
-9.43070029
 20
-2.3040246432
 10
-9.437116477
 20
-2.3010166264
 10
-9.4435554174
 20
-2.2973877947
 10
-9.4500180157
 20
-2.2931418871
 10
-9.4564670859
 20
-2.2882590849
 10
-9.4628885602
 20
-2.2827373232
 10
-9.469279664
 20
-2.2765765689
 10
-9.475620902
 20
-2.2697625898
 10
-9.4819039416
 20
-2.2622915729
 10
-9.488119964
 20
-2.2541674015
 10
-9.4942495019
 20
-2.2453889238
 10
-9.5002882146
 20
-2.2359456473
 10
-9.5062238926
 20
-2.2258503894
 10
-9.5120271792
 20
-2.2151391545
 10
-9.517686812
 20
-2.2038188168
 10
-9.523201229
 20
-2.1918886115
 10
-9.5285578078
 20
-2.1793749388
 10
-9.5337424683
 20
-2.1663054436
 10
-9.5387592054
 20
-2.1526599928
 10
-9.5436215562
 20
-2.1383927004
 10
-9.5483241347
 20
-2.1235087091
 10
-9.5528591165
 20
-2.108008258
 10
-9.5572331009
 20
-2.0918363622
 10
-9.5614402645
 20
-2.0749906318
 10
-9.5654704467
 20
-2.0574780506
 10
-9.5693213297
 20
-2.0392567417
 10
-9.5729855583
 20
-2.0203233601
 10
-9.5764531626
 20
-2.0006862208
 10
-9.5797168664
 20
-1.980320685
 10
-9.5827668364
 20
-1.9592387717
 10
-9.5855959533
 20
-1.9374344283
 10
-9.5881997674
 20
-1.9148557067
 10
-9.5905685976
 20
-1.8915099249
 10
-9.5926934681
 20
-1.8673962712
 10
-9.5945685227
 20
-1.8424502654
 10
-9.5961833352
 20
-1.816675
 10
-9.5975275082
 20
-1.7900746551
 10
-9.5985925023
 20
-1.7625861973
 10
-9.5993672916
 20
-1.7341913189
 10
-9.5998400635
 20
-1.7049166836
 10
-9.6
 20
-1.6747668812
  0
LWPOLYLINE
  5
31B
100
AcDbEntity
  8
0
100
AcDbPolyline
 62
250
  6
CONTINUOUS
 90
46
 70
0
 10
8.3
 20
-2.3104727264
 10
8.294105855
 20
-2.3102794281
 10
8.2880861995
 20
-2.309542122
 10
8.2819470278
 20
-2.3082540008
 10
8.2756759341
 20
-2.3064219021
 10
8.26929971
 20
-2.3040246432
 10
8.262883523
 20
-2.3010166264
 10
8.2564445826
 20
-2.2973877947
 10
8.2499819843
 20
-2.2931418871
 10
8.2435329141
 20
-2.2882590849
 10
8.2371114398
 20
-2.2827373232
 10
8.230720336
 20
-2.2765765689
 10
8.224379098
 20
-2.2697625898
 10
8.2180960584
 20
-2.2622915729
 10
8.211880036
 20
-2.2541674015
 10
8.2057504981
 20
-2.2453889238
 10
8.1997117854
 20
-2.2359456473
 10
8.1937761074
 20
-2.2258503894
 10
8.1879728208
 20
-2.2151391545
 10
8.182313188
 20
-2.2038188168
 10
8.176798771
 20
-2.1918886115
 10
8.1714421922
 20
-2.1793749388
 10
8.1662575317
 20
-2.1663054436
 10
8.1612407946
 20
-2.1526599928
 10
8.1563784438
 20
-2.1383927004
 10
8.1516758653
 20
-2.1235087091
 10
8.1471408835
 20
-2.108008258
 10
8.1427668991
 20
-2.0918363622
 10
8.1385597355
 20
-2.0749906318
 10
8.1345295533
 20
-2.0574780506
 10
8.1306786703
 20
-2.0392567417
 10
8.1270144417
 20
-2.0203233601
 10
8.1235468374
 20
-2.0006862208
 10
8.1202831336
 20
-1.980320685
 10
8.1172331636
 20
-1.9592387717
 10
8.1144040467
 20
-1.9374344283
 10
8.1118002326
 20
-1.9148557067
 10
8.1094314024
 20
-1.8915099249
 10
8.1073065319
 20
-1.8673962712
 10
8.1054314773
 20
-1.8424502654
 10
8.1038166648
 20
-1.816675
 10
8.1024724918
 20
-1.7900746551
 10
8.1014074977
 20
-1.7625861973
 10
8.1006327084
 20
-1.7341913189
 10
8.1001599365
 20
-1.7049166836
 10
8.1
 20
-1.6747668812
  0
LINE
  5
31C
100
AcDbEntity
  8
RACCORDO
100
AcDbLine
 62
7
  6
CONTINUOUS
 10
9.9449274716
 20
-5.6166554032
 11
9.9130532167
 21
-5.6097758643
  0
LINE
  5
31D
100
AcDbEntity
  8
RACCORDO
100
AcDbLine
 62
7
  6
CONTINUOUS
 10
10.259966909
 20
-5.6866847783
 11
10.1630151405
 21
-5.6651910886
  0
LINE
  5
31E
100
AcDbEntity
  8
RACCORDO
100
AcDbLine
 62
7
  6
CONTINUOUS
 10
10.1088339792
 20
-5.653223462
 11
9.9449274716
 21
-5.6166554032
  0
LINE
  5
31F
100
AcDbEntity
  8
0
100
AcDbLine
 62
250
  6
CONTINUOUS
 10
1.4376353112
 20
-5.4387891391
 11
1.1611518736
 21
-5.1623057015
  0
LINE
  5
320
100
AcDbEntity
  8
0
100
AcDbLine
 62
7
  6
CONTINUOUS
 10
-9.741577054
 20
12.7175105043
 11
-9.6766887273
 21
12.5876942985
  0
LINE
  5
321
100
AcDbEntity
  8
0
100
AcDbLine
 62
7
  6
CONTINUOUS
 10
-8.75
 20
12.5876942985
 11
-8.8148883267
 21
12.7175105043
  0
LWPOLYLINE
  5
322
100
AcDbEntity
  8
0
100
AcDbPolyline
 62
250
  6
CONTINUOUS
 90
22
 70
0
 10
-1.1378180631
 20
-6.2383018007
 10
-1.1387836986
 20
-6.2156532769
 10
-1.1412473649
 20
-6.1935890346
 10
-1.1452090618
 20
-6.1721090736
 10
-1.150688739
 20
-6.1512106452
 10
-1.1576664469
 20
-6.1308964982
 10
-1.1660823367
 20
-6.1111748796
 10
-1.1759766133
 20
-6.0919306116
 10
-1.1873090717
 20
-6.073278872
 10
-1.1998992479
 20
-6.0555734411
 10
-1.2137708892
 20
-6.0388434076
 10
-1.2289002484
 20
-6.0230596828
 10
-1.2450356194
 20
-6.00848878
 10
-1.2620778265
 20
-5.9951870069
 10
-1.2801260454
 20
-5.9830980558
 10
-1.2992260975
 20
-5.9723195172
 10
-1.3193329322
 20
-5.9627682761
 10
-1.3404916
 20
-5.9545274475
 10
-1.3628830745
 20
-5.9479439672
 10
-1.3865676801
 20
-5.9431334806
 10
-1.4114850923
 20
-5.9399803424
 10
-1.4376353112
 20
-5.9384845526
  0
LWPOLYLINE
  5
323
100
AcDbEntity
  8
0
100
AcDbPolyline
 62
250
  6
CONTINUOUS
 90
22
 70
0
 10
-0.6381226496
 20
-6.2383018007
 10
-0.6404127414
 20
-6.1784212244
 10
-0.6470821756
 20
-6.1195205451
 10
-0.6579511667
 20
-6.0619070596
 10
-0.6727386445
 20
-6.0061352846
 10
-0.6912746166
 20
-5.9521790937
 10
-0.7136945007
 20
-5.8994971298
 10
-0.7400872814
 20
-5.8480828057
 10
-0.7702336542
 20
-5.7985380939
 10
-0.8039170844
 20
-5.7512707839
 10
-0.8409484452
 20
-5.7065576473
 10
-0.8811565788
 20
-5.664615449
 10
-0.9242846927
 20
-5.6257156384
 10
-0.9698360201
 20
-5.5902517587
 10
-1.0178061389
 20
-5.5581761935
 10
-1.0687561077
 20
-5.5292277469
 10
-1.1224093954
 20
-5.5037750808
 10
-1.178647917
 20
-5.4820812289
 10
-1.2384283575
 20
-5.4641465728
 10
-1.3019376368
 20
-5.4504879111
 10
-1.3684732542
 20
-5.4418377676
 10
-1.4376353112
 20
-5.4387891391
  0
LINE
  5
324
100
AcDbEntity
  8
DRAFT
100
AcDbLine
 62
7
  6
CONTINUOUS
 10
-1.5
 20
-20.5629215346
 11
-1.5
 21
-21.1123057015
  0
LINE
  5
325
100
AcDbEntity
  8
0
100
AcDbLine
 62
250
  6
CONTINUOUS
 10
-1.4376353112
 20
-5.4387891391
 11
-1.4376353112
 21
-5.9384845526
  0
LINE
  5
326
100
AcDbEntity
  8
0
100
AcDbLine
 62
250
  6
CONTINUOUS
 10
-1.4376353112
 20
6.1141777362
 11
-1.4376353112
 21
6.6138731497
  0
LINE
  5
327
100
AcDbEntity
  8
0
100
AcDbLine
 62
250
  6
CONTINUOUS
 10
-1.1378180631
 20
-9.0123057015
 11
-1.1378180631
 21
-6.2383018007
  0
LINE
  5
328
100
AcDbEntity
  8
0
100
AcDbLine
 62
250
  6
CONTINUOUS
 10
-1.1378180631
 20
6.9136903978
 11
-1.1378180631
 21
12.8205386859
  0
LINE
  5
329
100
AcDbEntity
  8
0
100
AcDbLine
 62
250
  6
CONTINUOUS
 10
-0.6381226496
 20
-8.9954546754
 11
-0.6381226496
 21
-6.2383018007
  0
LINE
  5
32A
100
AcDbEntity
  8
0
100
AcDbLine
 62
250
  6
CONTINUOUS
 10
-0.6381226496
 20
6.9136903978
 11
-0.6381226496
 21
12.3208432724
  0
LINE
  5
32B
100
AcDbEntity
  8
0
100
AcDbLine
 62
7
  6
CONTINUOUS
 10
-0.5083064438
 20
11.2253382919
 11
-0.5083064438
 21
8.3376942985
  0
LINE
  5
32C
100
AcDbEntity
  8
0
100
AcDbLine
 62
7
  6
CONTINUOUS
 10
-0.5083064438
 20
-7.6623057015
 11
-0.5083064438
 21
-8.8656384696
  0
LINE
  5
32D
100
AcDbEntity
  8
0
100
AcDbLine
 62
7
  6
CONTINUOUS
 10
-0.361639212
 20
7.2253382919
 11
-0.361639212
 21
6.6372069602
  0
LINE
  5
32E
100
AcDbEntity
  8
0
100
AcDbLine
 62
7
  6
CONTINUOUS
 10
-0.361639212
 20
-5.9618183631
 11
-0.361639212
 21
-6.5499496948
  0
LINE
  5
32F
100
AcDbEntity
  8
0
100
AcDbLine
 62
7
  6
CONTINUOUS
 10
2.5
 20
6.0262664538
 11
2.4057426494
 21
5.8376942985
  0
LINE
  5
330
100
AcDbEntity
  8
0
100
AcDbLine
 62
7
  6
CONTINUOUS
 10
-2.5
 20
-5.3508778567
 11
-2.4057426494
 21
-5.1623057015
  0
LWPOLYLINE
  5
331
100
AcDbEntity
  8
0
100
AcDbPolyline
 62
250
  6
CONTINUOUS
 90
9
 70
0
 10
-8.3
 20
-2.4281690386
 10
-8.2356583919
 20
-2.416455523
 10
-8.1767107305
 20
-2.3929143014
 10
-8.1231570159
 20
-2.357545374
 10
-8.0747092595
 20
-2.3085367562
 10
-8.0316554498
 20
-2.2477004325
 10
-7.9948595527
 20
-2.1804723567
 10
-7.9648772704
 20
-2.1078860735
 10
-7.9411529006
 20
-2.0289080382
  0
LINE
  5
332
100
AcDbEntity
  8
0
100
AcDbLine
 62
250
  6
CONTINUOUS
 10
-7.8
 20
-1.2330610062
 11
-6.9
 21
-1.2330610062
  0
LINE
  5
333
100
AcDbEntity
  8
0
100
AcDbLine
 62
250
  6
CONTINUOUS
 10
6.9
 20
-1.2330610062
 11
7.8
 21
-1.2330610062
  0
LINE
  5
334
100
AcDbEntity
  8
0
100
AcDbLine
 62
7
  6
CONTINUOUS
 10
7.9
 20
-1.0984463631
 11
7.8
 21
-1.0984463631
  0
LINE
  5
335
100
AcDbEntity
  8
0
100
AcDbLine
 62
7
  6
CONTINUOUS
 10
6.9
 20
-1.0984463631
 11
6.6
 21
-1.0984463631
  0
LINE
  5
336
100
AcDbEntity
  8
0
100
AcDbLine
 62
7
  6
CONTINUOUS
 10
-6.6
 20
-1.0984463631
 11
-6.9
 21
-1.0984463631
  0
LINE
  5
337
100
AcDbEntity
  8
0
100
AcDbLine
 62
7
  6
CONTINUOUS
 10
-7.8
 20
-1.0984463631
 11
-7.9
 21
-1.0984463631
  0
LINE
  5
338
100
AcDbEntity
  8
0
100
AcDbLine
 62
7
  6
CONTINUOUS
 10
-7.8
 20
-0.9991054494
 11
-6.9
 21
-0.9991054494
  0
LINE
  5
339
100
AcDbEntity
  8
0
100
AcDbLine
 62
7
  6
CONTINUOUS
 10
6.9
 20
-0.9991054494
 11
7.8
 21
-0.9991054494
  0
LINE
  5
33A
100
AcDbEntity
  8
0
100
AcDbLine
 62
7
  6
CONTINUOUS
 10
2.5
 20
-5.3508778567
 11
2.4057426494
 21
-5.1623057015
  0
LWPOLYLINE
  5
33B
100
AcDbEntity
  8
0
100
AcDbPolyline
 62
250
  6
CONTINUOUS
 90
22
 70
0
 10
1.1378180631
 20
6.9136903978
 10
1.1387836986
 20
6.891041874
 10
1.1412473649
 20
6.8689776316
 10
1.1452090618
 20
6.8474976707
 10
1.150688739
 20
6.8265992423
 10
1.1576664469
 20
6.8062850953
 10
1.1660823367
 20
6.7865634766
 10
1.1759766133
 20
6.7673192087
 10
1.1873090717
 20
6.7486674691
 10
1.1998992479
 20
6.7309620381
 10
1.2137708892
 20
6.7142320047
 10
1.2289002484
 20
6.6984482799
 10
1.2450356194
 20
6.6838773771
 10
1.2620778265
 20
6.670575604
 10
1.2801260454
 20
6.6584866529
 10
1.2992260975
 20
6.6477081143
 10
1.3193329322
 20
6.6381568731
 10
1.3404916
 20
6.6299160445
 10
1.3628830745
 20
6.6233325643
 10
1.3865676801
 20
6.6185220777
 10
1.4114850923
 20
6.6153689395
 10
1.4376353112
 20
6.6138731497
  0
LWPOLYLINE
  5
33C
100
AcDbEntity
  8
0
100
AcDbPolyline
 62
250
  6
CONTINUOUS
 90
22
 70
0
 10
0.6381226496
 20
6.9136903978
 10
0.6404127414
 20
6.8538098215
 10
0.6470821756
 20
6.7949091422
 10
0.6579511667
 20
6.7372956566
 10
0.6727386445
 20
6.6815238817
 10
0.6912746166
 20
6.6275676908
 10
0.7136945007
 20
6.5748857269
 10
0.7400872814
 20
6.5234714028
 10
0.7702336542
 20
6.4739266909
 10
0.8039170844
 20
6.426659381
 10
0.8409484452
 20
6.3819462443
 10
0.8811565788
 20
6.3400040461
 10
0.9242846927
 20
6.3011042355
 10
0.9698360201
 20
6.2656403557
 10
1.0178061389
 20
6.2335647906
 10
1.0687561077
 20
6.204616344
 10
1.1224093954
 20
6.1791636779
 10
1.178647917
 20
6.157469826
 10
1.2384283575
 20
6.1395351699
 10
1.3019376368
 20
6.1258765082
 10
1.3684732542
 20
6.1172263647
 10
1.4376353112
 20
6.1141777362
  0
LINE
  5
33D
100
AcDbEntity
  8
0
100
AcDbLine
 62
7
  6
CONTINUOUS
 10
0.361639212
 20
-6.5499496948
 11
0.361639212
 21
-5.9618183631
  0
LINE
  5
33E
100
AcDbEntity
  8
0
100
AcDbLine
 62
7
  6
CONTINUOUS
 10
0.361639212
 20
6.6372069602
 11
0.361639212
 21
7.2253382919
  0
LINE
  5
33F
100
AcDbEntity
  8
0
100
AcDbLine
 62
7
  6
CONTINUOUS
 10
0.5083064438
 20
-8.8656384696
 11
0.5083064438
 21
-7.6623057015
  0
LINE
  5
340
100
AcDbEntity
  8
0
100
AcDbLine
 62
7
  6
CONTINUOUS
 10
0.5083064438
 20
8.3376942985
 11
0.5083064438
 21
11.2253382919
  0
LINE
  5
341
100
AcDbEntity
  8
0
100
AcDbLine
 62
250
  6
CONTINUOUS
 10
0.6381226496
 20
12.3208432724
 11
0.6381226496
 21
6.9136903978
  0
LINE
  5
342
100
AcDbEntity
  8
0
100
AcDbLine
 62
250
  6
CONTINUOUS
 10
0.6381226496
 20
-6.2383018007
 11
0.6381226496
 21
-8.9954546754
  0
LINE
  5
343
100
AcDbEntity
  8
0
100
AcDbLine
 62
250
  6
CONTINUOUS
 10
1.1378180631
 20
12.8205386859
 11
1.1378180631
 21
6.9136903978
  0
LINE
  5
344
100
AcDbEntity
  8
0
100
AcDbLine
 62
250
  6
CONTINUOUS
 10
1.1378180631
 20
-6.2383018007
 11
1.1378180631
 21
-9.0123057015
  0
LINE
  5
345
100
AcDbEntity
  8
0
100
AcDbLine
 62
250
  6
CONTINUOUS
 10
1.4376353112
 20
-5.4387891391
 11
1.4376353112
 21
-5.9384845526
  0
LINE
  5
346
100
AcDbEntity
  8
0
100
AcDbLine
 62
250
  6
CONTINUOUS
 10
1.4376353112
 20
6.1141777362
 11
1.4376353112
 21
6.6138731497
  0
LINE
  5
347
100
AcDbEntity
  8
DRAFT
100
AcDbLine
 62
7
  6
CONTINUOUS
 10
1.5
 20
-21.1123057015
 11
1.5
 21
-20.5629215346
  0
LINE
  5
348
100
AcDbEntity
  8
DRAFT
100
AcDbLine
 62
250
  6
CONTINUOUS
 10
2.1
 20
-19.8123057015
 11
2.1
 21
-19.9632681399
  0
LINE
  5
349
100
AcDbEntity
  8
0
100
AcDbLine
 62
7
  6
CONTINUOUS
 10
7.8
 20
1.6744940464
 11
6.9
 21
1.6744940464
  0
LINE
  5
34A
100
AcDbEntity
  8
0
100
AcDbLine
 62
7
  6
CONTINUOUS
 10
-6.9
 20
1.6744940464
 11
-7.8
 21
1.6744940464
  0
LINE
  5
34B
100
AcDbEntity
  8
0
100
AcDbLine
 62
7
  6
CONTINUOUS
 10
7.9782648908
 20
1.7738350645
 11
7.8
 21
1.7738349602
  0
LINE
  5
34C
100
AcDbEntity
  8
0
100
AcDbLine
 62
7
  6
CONTINUOUS
 10
6.9
 20
1.7738349602
 11
6.6
 21
1.7738349602
  0
LINE
  5
34D
100
AcDbEntity
  8
0
100
AcDbLine
 62
7
  6
CONTINUOUS
 10
-6.6
 20
1.7738349602
 11
-6.9
 21
1.7738349602
  0
LINE
  5
34E
100
AcDbEntity
  8
0
100
AcDbLine
 62
7
  6
CONTINUOUS
 10
-7.8
 20
1.7738349602
 11
-7.9
 21
1.7738349602
  0
LINE
  5
34F
100
AcDbEntity
  8
0
100
AcDbLine
 62
250
  6
CONTINUOUS
 10
7.8
 20
1.9084496033
 11
6.9
 21
1.9084496033
  0
LINE
  5
350
100
AcDbEntity
  8
0
100
AcDbLine
 62
250
  6
CONTINUOUS
 10
-6.9
 20
1.9084496033
 11
-7.8
 21
1.9084496033
  0
LINE
  5
351
100
AcDbEntity
  8
0
100
AcDbLine
 62
7
  6
CONTINUOUS
 10
-2.5
 20
6.0262664538
 11
-2.4057426494
 21
5.8376942985
  0
LINE
  5
352
100
AcDbEntity
  8
0
100
AcDbLine
 62
7
  6
CONTINUOUS
 10
2.4057426494
 20
5.4626942985
 11
2.4118794124
 21
5.1111193816
  0
LINE
  5
353
100
AcDbEntity
  8
0
100
AcDbLine
 62
7
  6
CONTINUOUS
 10
2.4057426494
 20
-5.1623057015
 11
2.4057426494
 21
-4.7873057015
  0
LINE
  5
354
100
AcDbEntity
  8
0
100
AcDbLine
 62
7
  6
CONTINUOUS
 10
2.4057426494
 20
5.4626942985
 11
2.4057426494
 21
5.8376942985
  0
LINE
  5
355
100
AcDbEntity
  8
0
100
AcDbLine
 62
7
  6
CONTINUOUS
 10
2.5
 20
-5.3508778567
 11
2.5
 21
-4.409297051
  0
LINE
  5
356
100
AcDbEntity
  8
0
100
AcDbLine
 62
7
  6
CONTINUOUS
 10
2.5
 20
5.0846856481
 11
2.5
 21
6.0262664538
  0
LINE
  5
357
100
AcDbEntity
  8
0
100
AcDbLine
 62
7
  6
CONTINUOUS
 10
2.6889072728
 20
-19.8123057015
 11
2.6889072728
 21
-18.8856169742
  0
LINE
  5
358
100
AcDbEntity
  8
0
100
AcDbLine
 62
7
  6
CONTINUOUS
 10
2.75
 20
-18.8245242469
 11
2.75
 21
-19.7512129742
  0
LINE
  5
359
100
AcDbEntity
  8
0
100
AcDbLine
 62
7
  6
CONTINUOUS
 10
2.4118794124
 20
-4.4357307845
 11
2.4057426494
 21
-4.7873057015
  0
LINE
  5
35A
100
AcDbEntity
  8
0
100
AcDbLine
 62
7
  6
CONTINUOUS
 10
8.75
 20
12.5876942985
 11
8.8148883267
 21
12.7175105043
  0
LINE
  5
35B
100
AcDbEntity
  8
0
100
AcDbLine
 62
7
  6
CONTINUOUS
 10
9.741577054
 20
12.7175105043
 11
9.6766887273
 21
12.5876942985
  0
LINE
  5
35C
100
AcDbEntity
  8
0
100
AcDbLine
 62
7
  6
CONTINUOUS
 10
1.2
 20
-4.3873057015
 11
1.1621057877
 21
-4.4357307845
  0
LWPOLYLINE
  5
35D
100
AcDbEntity
  8
0
100
AcDbPolyline
 62
250
  6
CONTINUOUS
 90
13
 70
0
 10
8.1000001856
 20
3.0114796963
 10
8.0791503433
 20
2.9887313538
 10
8.0595301302
 20
2.9644904981
 10
8.0411395464
 20
2.9387571292
 10
8.0240665996
 20
2.9116355925
 10
8.0082232821
 20
2.8830215427
 10
7.9933455708
 20
2.8526019435
 10
7.9793083962
 20
2.8202668107
 10
7.9662368278
 20
2.7861261285
 10
7.954242051
 20
2.7501968138
 10
7.9433068666
 20
2.7123697645
 10
7.9334484738
 20
2.6727540827
 10
7.9248296559
 20
2.6316939912
  0
LINE
  5
35E
100
AcDbEntity
  8
0
100
AcDbLine
 62
250
  6
CONTINUOUS
 10
-1.1611518736
 20
-5.1623057015
 11
-1.4376353112
 21
-5.4387891391
  0
LINE
  5
35F
100
AcDbEntity
  8
0
100
AcDbLine
 62
250
  6
CONTINUOUS
 10
-0.361639212
 20
-5.9618183631
 11
-0.6381226496
 21
-6.2383018007
  0
LWPOLYLINE
  5
360
100
AcDbEntity
  8
0
100
AcDbPolyline
 62
250
  6
CONTINUOUS
 90
10
 70
0
 10
8.1288672498
 20
3.0376916566
 10
8.1254837531
 20
3.0348892418
 10
8.1221448367
 20
3.0320586113
 10
8.1188505005
 20
3.0291997651
 10
8.1156015032
 20
3.0263117573
 10
8.1123970861
 20
3.0233955337
 10
8.1092349734
 20
3.0204539321
 10
8.1061144064
 20
3.0174878982
 10
8.1030361438
 20
3.0144964863
 10
8.1000001856
 20
3.0114796963
  0
LWPOLYLINE
  5
361
100
AcDbEntity
  8
RACCORDO
100
AcDbPolyline
 62
7
  6
CONTINUOUS
 90
7
 70
0
 10
10.1630151405
 20
6.3405796857
 10
10.1602873641
 20
6.3398937562
 10
10.1533198148
 20
6.3383604813
 10
10.142266672
 20
6.335979861
 10
10.1273493747
 20
6.3326776486
 10
10.1088525945
 20
6.3285280907
 10
10.0625432153
 20
6.3183284156
  0
LINE
  5
362
100
AcDbEntity
  8
RACCORDO
100
AcDbLine
 62
7
  6
CONTINUOUS
 10
9.9448485209
 20
6.2924001238
 11
9.9130532167
 21
6.2851644614
  0
LINE
  5
363
100
AcDbEntity
  8
RACCORDO
100
AcDbLine
 62
7
  6
CONTINUOUS
 10
10.0625432153
 20
6.3183284156
 11
10.035555723
 21
6.3122782983
  0
LWPOLYLINE
  5
364
100
AcDbEntity
  8
0
100
AcDbPolyline
 62
7
  6
CONTINUOUS
 90
4
 70
0
 10
-7.9
 20
1.7738349602
 10
-7.938029411
 20
1.7708143835
 10
-7.9725267922
 20
1.7640064743
 10
-8.0034921435
 20
1.7533036959
  0
LWPOLYLINE
  5
365
100
AcDbEntity
  8
0
100
AcDbPolyline
 62
250
  6
CONTINUOUS
 90
10
 70
0
 10
8.3006210501
 20
3.1035576357
 10
8.2810991071
 20
3.102815032
 10
8.2615975318
 20
3.1004106474
 10
8.2421163242
 20
3.0963444821
 10
8.2225365789
 20
3.0905927743
 10
8.2029772013
 20
3.0831792857
 10
8.183794908
 20
3.0741753011
 10
8.1651086044
 20
3.0636045823
 10
8.146799385
 20
3.0514433674
 10
8.1288672498
 20
3.0376916566
  0
LINE
  5
366
100
AcDbEntity
  8
0
100
AcDbLine
 62
250
  6
CONTINUOUS
 10
-9.8
 20
2.3501554783
 11
-9.6
 21
2.3501554783
  0
LINE
  5
367
100
AcDbEntity
  8
0
100
AcDbLine
 62
250
  6
CONTINUOUS
 10
-8.1
 20
2.3501554783
 11
-7.9
 21
2.3501554783
  0
LINE
  5
368
100
AcDbEntity
  8
0
100
AcDbLine
 62
250
  6
CONTINUOUS
 10
9.6
 20
2.3501554783
 11
9.8
 21
2.3501554783
  0
LINE
  5
369
100
AcDbEntity
  8
0
100
AcDbLine
 62
7
  6
CONTINUOUS
 10
-7.8
 20
2.8376942985
 11
-6.9
 21
2.8376942985
  0
LINE
  5
36A
100
AcDbEntity
  8
0
100
AcDbLine
 62
7
  6
CONTINUOUS
 10
6.5
 20
2.8376942985
 11
6.6
 21
2.8376942985
  0
LINE
  5
36B
100
AcDbEntity
  8
0
100
AcDbLine
 62
7
  6
CONTINUOUS
 10
-6.5
 20
2.8376942985
 11
-6.6
 21
2.8376942985
  0
LINE
  5
36C
100
AcDbEntity
  8
0
100
AcDbLine
 62
7
  6
CONTINUOUS
 10
6.9
 20
2.8376942985
 11
7.8
 21
2.8376942985
  0
LINE
  5
36D
100
AcDbEntity
  8
0
100
AcDbLine
 62
250
  6
CONTINUOUS
 10
-9.4
 20
2.9858613235
 11
-8.3
 21
2.9858613235
  0
LINE
  5
36E
100
AcDbEntity
  8
0
100
AcDbLine
 62
250
  6
CONTINUOUS
 10
8.3
 20
2.9858613235
 11
9.4
 21
2.9858613235
  0
LINE
  5
36F
100
AcDbEntity
  8
0
100
AcDbLine
 62
250
  6
CONTINUOUS
 10
-9.4
 20
3.1035576357
 11
-8.3
 21
3.1035576357
  0
LINE
  5
370
100
AcDbEntity
  8
0
100
AcDbLine
 62
250
  6
CONTINUOUS
 10
8.3006210501
 20
3.1035576357
 11
9.4
 21
3.1035576357
  0
LWPOLYLINE
  5
371
100
AcDbEntity
  8
0
100
AcDbPolyline
 62
250
  6
CONTINUOUS
 90
43
 70
0
 10
-8.3
 20
2.9858613235
 10
-8.2929084272
 20
2.9855077302
 10
-8.2858559813
 20
2.9844908302
 10
-8.2788512862
 20
2.9828127959
 10
-8.2719200971
 20
2.9804825624
 10
-8.2650529696
 20
2.9774967439
 10
-8.2582062165
 20
2.9738360803
 10
-8.2513794421
 20
2.9695058045
 10
-8.2445908742
 20
2.9644997935
 10
-8.2378264426
 20
2.9587773936
 10
-8.2310870902
 20
2.9523323079
 10
-8.2243922205
 20
2.9451683169
 10
-8.2177563177
 20
2.9372589862
 10
-8.2111811037
 20
2.9285866922
 10
-8.2046862727
 20
2.9191685044
 10
-8.1983116505
 20
2.9090324897
 10
-8.1920696175
 20
2.8981779857
 10
-8.1859655309
 20
2.8866107129
 10
-8.1800254729
 20
2.8743715828
 10
-8.1742678912
 20
2.8614894658
 10
-8.1686876029
 20
2.8479439753
 10
-8.163275022
 20
2.8337023807
 10
-8.1580374326
 20
2.8187722349
 10
-8.1529830952
 20
2.8031525712
 10
-8.1481067046
 20
2.7867962177
 10
-8.1434153129
 20
2.7697031162
 10
-8.1389197453
 20
2.7518791591
 10
-8.1346226721
 20
2.7332850914
 10
-8.1305348916
 20
2.7139334533
 10
-8.1266643471
 20
2.6938180189
 10
-8.1230119234
 20
2.6728706137
 10
-8.1195886516
 20
2.6510991534
 10
-8.1164052092
 20
2.6285021931
 10
-8.1134655103
 20
2.6049966829
 10
-8.110781708
 20
2.5805843751
 10
-8.1083668456
 20
2.5552706433
 10
-8.1062296465
 20
2.5289773401
 10
-8.1043836442
 20
2.5017023365
 10
-8.1028430583
 20
2.4734562213
 10
-8.1016201796
 20
2.4441797832
 10
-8.1007291266
 20
2.4138565885
 10
-8.1001845056
 20
2.3825132652
 10
-8.1
 20
2.3501554783
  0
LWPOLYLINE
  5
372
100
AcDbEntity
  8
0
100
AcDbPolyline
 62
250
  6
CONTINUOUS
 90
43
 70
0
 10
9.4
 20
2.9858613235
 10
9.4070915728
 20
2.9855077302
 10
9.4141440187
 20
2.9844908302
 10
9.4211487138
 20
2.9828127959
 10
9.4280799029
 20
2.9804825624
 10
9.4349470304
 20
2.9774967439
 10
9.4417937835
 20
2.9738360803
 10
9.4486205579
 20
2.9695058045
 10
9.4554091258
 20
2.9644997935
 10
9.4621735574
 20
2.9587773936
 10
9.4689129098
 20
2.9523323079
 10
9.4756077795
 20
2.9451683169
 10
9.4822436823
 20
2.9372589862
 10
9.4888188963
 20
2.9285866922
 10
9.4953137273
 20
2.9191685044
 10
9.5016883495
 20
2.9090324897
 10
9.5079303825
 20
2.8981779857
 10
9.5140344691
 20
2.8866107129
 10
9.5199745271
 20
2.8743715828
 10
9.5257321088
 20
2.8614894658
 10
9.5313123971
 20
2.8479439753
 10
9.536724978
 20
2.8337023807
 10
9.5419625674
 20
2.8187722349
 10
9.5470169048
 20
2.8031525712
 10
9.5518932954
 20
2.7867962177
 10
9.5565846871
 20
2.7697031162
 10
9.5610802547
 20
2.7518791591
 10
9.5653773279
 20
2.7332850914
 10
9.5694651084
 20
2.7139334533
 10
9.5733356529
 20
2.6938180189
 10
9.5769880766
 20
2.6728706137
 10
9.5804113484
 20
2.6510991534
 10
9.5835947908
 20
2.6285021931
 10
9.5865344897
 20
2.6049966829
 10
9.589218292
 20
2.5805843751
 10
9.5916331544
 20
2.5552706433
 10
9.5937703535
 20
2.5289773401
 10
9.5956163558
 20
2.5017023365
 10
9.5971569417
 20
2.4734562213
 10
9.5983798204
 20
2.4441797832
 10
9.5992708734
 20
2.4138565885
 10
9.5998154944
 20
2.3825132652
 10
9.6
 20
2.3501554783
  0
LWPOLYLINE
  5
373
100
AcDbEntity
  8
RACCORDO
100
AcDbPolyline
 62
7
  6
CONTINUOUS
 90
4
 70
0
 10
-10.0066147192
 20
6.3059065471
 10
-9.9762711469
 20
6.2990310096
 10
-9.9449274716
 20
6.2920440003
 10
-9.9130532167
 20
6.2851644614
  0
LINE
  5
374
100
AcDbEntity
  8
0
100
AcDbLine
 62
250
  6
CONTINUOUS
 10
-1.4376353112
 20
6.1141777362
 11
-1.1611518736
 21
5.8376942985
  0
LINE
  5
375
100
AcDbEntity
  8
0
100
AcDbLine
 62
7
  6
CONTINUOUS
 10
8.75
 20
-11.9123057015
 11
8.8148883267
 21
-12.0421219072
  0
LINE
  5
376
100
AcDbEntity
  8
0
100
AcDbLine
 62
7
  6
CONTINUOUS
 10
9.741577054
 20
-12.0421219072
 11
9.6766887273
 21
-11.9123057015
  0
LINE
  5
377
100
AcDbEntity
  8
DRAFT
100
AcDbLine
 62
7
  6
CONTINUOUS
 10
2.1339745962
 20
-20.0123057015
 11
2.1404303657
 21
-19.9632692639
  0
LINE
  5
378
100
AcDbEntity
  8
0
100
AcDbLine
 62
7
  6
CONTINUOUS
 10
3.0238261129
 20
-18.8245242469
 11
3.0254347149
 21
-18.8123057015
  0
LWPOLYLINE
  5
379
100
AcDbEntity
  8
0
100
AcDbPolyline
 62
250
  6
CONTINUOUS
 90
10
 70
0
 10
8.2
 20
2.9118083358
 10
8.2015181383
 20
2.9142494993
 10
8.2030572717
 20
2.9166696191
 10
8.2046174794
 20
2.9190684524
 10
8.2062000939
 20
2.9214484316
 10
8.2078039376
 20
2.9238066137
 10
8.2094252619
 20
2.9261347479
 10
8.211062795
 20
2.9284299792
 10
8.2127178011
 20
2.9306947814
 10
8.214390275
 20
2.9329289538
  0
LWPOLYLINE
  5
37A
100
AcDbEntity
  8
0
100
AcDbPolyline
 62
250
  6
CONTINUOUS
 90
10
 70
0
 10
8.214390275
 20
2.9329289538
 10
8.2233284422
 20
2.9439795932
 10
8.2324924122
 20
2.9537663796
 10
8.2418624659
 20
2.9622806417
 10
8.2514604243
 20
2.9695343154
 10
8.2612230048
 20
2.9754970096
 10
8.2709970732
 20
2.9801085514
 10
8.2807127622
 20
2.9833574338
 10
8.290388296
 20
2.9852682522
 10
8.3
 20
2.9858473867
  0
LINE
  5
37B
100
AcDbEntity
  8
0
100
AcDbLine
 62
7
  6
CONTINUOUS
 10
-0.5083064438
 20
-7.6623057015
 11
-0.3953412642
 21
-7.5493405218
  0
LWPOLYLINE
  5
37C
100
AcDbEntity
  8
0
100
AcDbPolyline
 62
7
  6
CONTINUOUS
 90
7
 70
0
 10
8.0034921435
 20
-1.0779150988
 10
8.0314851549
 20
-1.0626025097
 10
8.0559461364
 20
-1.0429824659
 10
8.0751960186
 20
-1.0205105197
 10
8.0886751117
 20
-0.9956072762
 10
8.0969431055
 20
-0.9675276026
 10
8.1
 20
-0.9360796217
  0
LINE
  5
37D
100
AcDbEntity
  8
0
100
AcDbLine
 62
7
  6
CONTINUOUS
 10
2.5
 20
-4.409297051
 11
2.4118794124
 21
-4.4357307845
  0
LWPOLYLINE
  5
37E
100
AcDbEntity
  8
RACCORDO
100
AcDbPolyline
 62
7
  6
CONTINUOUS
 90
3
 70
0
 10
9.7751232445
 20
6.8719266781
 10
9.6842550338
 20
6.8515516336
 10
9.6766887273
 20
6.8499182245
  0
LWPOLYLINE
  5
37F
100
AcDbEntity
  8
RACCORDO
100
AcDbPolyline
 62
7
  6
CONTINUOUS
 90
3
 70
0
 10
9.8483113336
 20
6.8881567439
 10
9.802102356
 20
6.8778408513
 10
9.7751232445
 20
6.8719266781
  0
LINE
  5
380
100
AcDbEntity
  8
RACCORDO
100
AcDbLine
 62
7
  6
CONTINUOUS
 10
10.259966909
 20
6.3620733753
 11
10.1630151405
 21
6.3405796857
  0
LINE
  5
381
100
AcDbEntity
  8
RACCORDO
100
AcDbLine
 62
7
  6
CONTINUOUS
 10
9.8816211405
 20
6.8954932188
 11
9.8483113336
 21
6.8881567439
  0
LINE
  5
382
100
AcDbEntity
  8
RACCORDO
100
AcDbLine
 62
7
  6
CONTINUOUS
 10
10.035555723
 20
6.3122782983
 11
9.9448485209
 21
6.2924001238
  0
LWPOLYLINE
  5
383
100
AcDbEntity
  8
RACCORDO
100
AcDbPolyline
 62
7
  6
CONTINUOUS
 90
4
 70
0
 10
9.9021436407
 20
6.9000204223
 10
9.8994215583
 20
6.8994974737
 10
9.8925433032
 20
6.8979709558
 10
9.8816211405
 20
6.8954932188
  0
LWPOLYLINE
  5
384
100
AcDbEntity
  8
0
100
AcDbPolyline
 62
250
  6
CONTINUOUS
 90
16
 70
0
 10
-9.4
 20
3.1035576357
 10
-9.4509490233
 20
3.0967634494
 10
-9.4988891689
 20
3.0815286923
 10
-9.5438204367
 20
3.0578533646
 10
-9.586121301
 20
3.0246458232
 10
-9.6254132876
 20
2.9829977111
 10
-9.6605609736
 20
2.9361839572
 10
-9.6910668249
 20
2.8846765812
 10
-9.7174283756
 20
2.8280035633
 10
-9.7400028048
 20
2.7680237733
 10
-9.7587845124
 20
2.7050703559
 10
-9.7737790985
 20
2.6388101663
 10
-9.7853605424
 20
2.5701026403
 10
-9.7936535038
 20
2.4992342561
 10
-9.798533323
 20
2.4259185355
 10
-9.8
 20
2.3501554783
  0
LINE
  5
385
100
AcDbEntity
  8
0
100
AcDbLine
 62
7
  6
CONTINUOUS
 10
5.8
 20
5.0626942985
 11
1.2
 21
5.0626942985
  0
LINE
  5
386
100
AcDbEntity
  8
0
100
AcDbLine
 62
7
  6
CONTINUOUS
 10
-1.2
 20
5.0626942985
 11
-5.8
 21
5.0626942985
  0
LINE
  5
387
100
AcDbEntity
  8
0
100
AcDbLine
 62
7
  6
CONTINUOUS
 10
-6.9
 20
5.0846856481
 11
-2.5
 21
5.0846856481
  0
LINE
  5
388
100
AcDbEntity
  8
0
100
AcDbLine
 62
7
  6
CONTINUOUS
 10
2.5
 20
5.0846856481
 11
6.9
 21
5.0846856481
  0
LINE
  5
389
100
AcDbEntity
  8
0
100
AcDbLine
 62
7
  6
CONTINUOUS
 10
-2.4118794124
 20
5.1111193816
 11
-1.1621057877
 21
5.1111193816
  0
LINE
  5
38A
100
AcDbEntity
  8
0
100
AcDbLine
 62
7
  6
CONTINUOUS
 10
1.1621057877
 20
5.1111193816
 11
2.4118794124
 21
5.1111193816
  0
LINE
  5
38B
100
AcDbEntity
  8
0
100
AcDbLine
 62
7
  6
CONTINUOUS
 10
-2.4057426494
 20
5.4626942985
 11
-0.7483314774
 21
5.4626942985
  0
LINE
  5
38C
100
AcDbEntity
  8
0
100
AcDbLine
 62
7
  6
CONTINUOUS
 10
0.7483314774
 20
5.4626942985
 11
2.4057426494
 21
5.4626942985
  0
LWPOLYLINE
  5
38D
100
AcDbEntity
  8
RACCORDO
100
AcDbPolyline
 62
7
  6
CONTINUOUS
 90
5
 70
0
 10
-10.1630151405
 20
6.3405796857
 10
-10.1602530492
 20
6.3400485408
 10
-10.153290315
 20
6.3384935462
 10
-10.142266672
 20
6.335979861
 10
-10.1088339792
 20
6.3286120591
  0
LWPOLYLINE
  5
38E
100
AcDbEntity
  8
RACCORDO
100
AcDbPolyline
 62
7
  6
CONTINUOUS
 90
3
 70
0
 10
-9.7748292635
 20
6.8717720596
 10
-9.6839339033
 20
6.8518571003
 10
-9.6766887273
 20
6.8502075226
  0
LINE
  5
38F
100
AcDbEntity
  8
RACCORDO
100
AcDbLine
 62
7
  6
CONTINUOUS
 10
-10.259966909
 20
6.3620733753
 11
-10.1630151405
 21
6.3405796857
  0
LINE
  5
390
100
AcDbEntity
  8
RACCORDO
100
AcDbLine
 62
7
  6
CONTINUOUS
 10
-10.1088339792
 20
6.3286120591
 11
-10.0066147192
 21
6.3059065471
  0
LINE
  5
391
100
AcDbEntity
  8
RACCORDO
100
AcDbLine
 62
7
  6
CONTINUOUS
 10
-9.8817982095
 20
6.895532474
 11
-9.7748292635
 21
6.8717720596
  0
LWPOLYLINE
  5
392
100
AcDbEntity
  8
RACCORDO
100
AcDbPolyline
 62
7
  6
CONTINUOUS
 90
4
 70
0
 10
-9.9021626781
 20
6.9000696959
 10
-9.8996569185
 20
6.8994122427
 10
-9.8928077696
 20
6.8978998354
 10
-9.8817982095
 20
6.895532474
  0
LINE
  5
393
100
AcDbEntity
  8
0
100
AcDbLine
 62
7
  6
CONTINUOUS
 10
2.5
 20
5.0846856481
 11
2.4118794124
 21
5.1111193816
  0
LWPOLYLINE
  5
394
100
AcDbEntity
  8
0
100
AcDbPolyline
 62
7
  6
CONTINUOUS
 90
7
 70
0
 10
8.1
 20
1.7497811017
 10
8.0817060267
 20
1.7568475601
 10
8.0626141646
 20
1.7626590637
 10
8.0427244138
 20
1.7672438632
 10
8.0220367741
 20
1.7706245449
 10
8.0005512457
 20
1.772817935
 10
7.9782678286
 20
1.7738350294
  0
LINE
  5
395
100
AcDbEntity
  8
0
100
AcDbLine
 62
250
  6
CONTINUOUS
 10
-0.6381226496
 20
6.9136903978
 11
-0.361639212
 21
6.6372069602
  0
LINE
  5
396
100
AcDbEntity
  8
0
100
AcDbLine
 62
7
  6
CONTINUOUS
 10
-0.5083064438
 20
8.3376942985
 11
-0.3953412642
 21
8.2247291189
  0
LINE
  5
397
100
AcDbEntity
  8
0
100
AcDbLine
 62
7
  6
CONTINUOUS
 10
1.2
 20
5.0626942985
 11
1.1621057877
 21
5.1111193816
  0
LINE
  5
398
100
AcDbEntity
  8
0
100
AcDbLine
 62
7
  6
CONTINUOUS
 10
3.0157831028
 20
19.5610055712
 11
3.0254347149
 21
19.4876942985
  0
LINE
  5
399
100
AcDbEntity
  8
0
100
AcDbLine
 62
7
  6
CONTINUOUS
 10
8.8233112727
 20
-18.1062653802
 11
8.8041107013
 21
-17.9123057015
  0
LINE
  5
39A
100
AcDbEntity
  8
0
100
AcDbLine
 62
7
  6
CONTINUOUS
 10
6.0
 20
5.0329220094
 11
6.0
 21
-4.3575334148
  0
LINE
  5
39B
100
AcDbEntity
  8
0
100
AcDbLine
 62
7
  6
CONTINUOUS
 10
6.5
 20
2.8376942985
 11
6.5
 21
-2.1623057015
  0
LINE
  5
39C
100
AcDbEntity
  8
0
100
AcDbLine
 62
7
  6
CONTINUOUS
 10
6.6
 20
4.2689665749
 11
6.6
 21
-3.5935779778
  0
LINE
  5
39D
100
AcDbEntity
  8
0
100
AcDbLine
 62
7
  6
CONTINUOUS
 10
6.9
 20
-5.3508778567
 11
6.9
 21
-0.9996572077
  0
LINE
  5
39E
100
AcDbEntity
  8
0
100
AcDbLine
 62
7
  6
CONTINUOUS
 10
6.9
 20
1.6750458048
 11
6.9
 21
6.0262664538
  0
LINE
  5
39F
100
AcDbEntity
  8
0
100
AcDbLine
 62
250
  6
CONTINUOUS
 10
7.3
 20
-5.9384845526
 11
7.3
 21
-5.3089729333
  0
LINE
  5
3A0
100
AcDbEntity
  8
0
100
AcDbLine
 62
250
  6
CONTINUOUS
 10
7.3
 20
5.9843615304
 11
7.3
 21
6.6138731497
  0
LINE
  5
3A1
100
AcDbEntity
  8
0
100
AcDbLine
 62
7
  6
CONTINUOUS
 10
8.8233112727
 20
18.7816539773
 11
8.8041107013
 21
18.5876942985
  0
LINE
  5
3A2
100
AcDbEntity
  8
RACCORDO
100
AcDbLine
 62
7
  6
CONTINUOUS
 10
4.1817926288
 20
-20.5144683796
 11
4.1758732155
 21
-20.5594307875
  0
LWPOLYLINE
  5
3A3
100
AcDbEntity
  8
0
100
AcDbPolyline
 62
250
  6
CONTINUOUS
 90
6
 70
0
 10
7.9248296559
 20
2.6316939912
 10
7.9174837158
 20
2.5890586292
 10
7.9113773506
 20
2.5449788576
 10
7.906573435
 20
2.5001914815
 10
7.9031361614
 20
2.454662406
 10
7.9010013375
 20
2.4084257262
  0
LINE
  5
3A4
100
AcDbEntity
  8
0
100
AcDbLine
 62
7
  6
CONTINUOUS
 10
6.5
 20
-2.1623057015
 11
6.1200267882
 21
-4.3172408694
  0
LINE
  5
3A5
100
AcDbEntity
  8
RACCORDO
100
AcDbLine
 62
7
  6
CONTINUOUS
 10
9.9506158332
 20
7.0254788984
 11
9.9021626781
 21
6.9000696959
  0
LINE
  5
3A6
100
AcDbEntity
  8
0
100
AcDbLine
 62
7
  6
CONTINUOUS
 10
-0.5083064438
 20
-8.8656384696
 11
-0.6381226496
 21
-8.9954546754
  0
LINE
  5
3A7
100
AcDbEntity
  8
RACCORDO
100
AcDbLine
 62
250
  6
CONTINUOUS
 10
-9.9506158332
 20
-20.2629329577
 11
-9.9021626781
 21
-20.2144798027
  0
LINE
  5
3A8
100
AcDbEntity
  8
0
100
AcDbLine
 62
7
  6
CONTINUOUS
 10
-8.8233112727
 20
-19.2356169742
 11
-8.75
 21
-19.1623057015
  0
LWPOLYLINE
  5
3A9
100
AcDbEntity
  8
0
100
AcDbPolyline
 62
250
  6
CONTINUOUS
 90
10
 70
0
 10
-7.3
 20
6.1141777362
 10
-7.3868240709
 20
6.1065862432
 10
-7.4710100412
 20
6.0840424265
 10
-7.5499999629
 20
6.0472312663
 10
-7.6213937664
 20
5.9972712497
 10
-7.683022187
 20
5.9356803842
 10
-7.7330126765
 20
5.8643300733
 10
-7.7698462966
 20
5.7853882575
 10
-7.7924038724
 20
5.7012535436
 10
-7.8
 20
5.6144823227
  0
LWPOLYLINE
  5
3AA
100
AcDbEntity
  8
0
100
AcDbPolyline
 62
250
  6
CONTINUOUS
 90
22
 70
0
 10
-1.4376353112
 20
6.6138731497
 10
-1.4152561524
 20
6.6147896822
 10
-1.3933821701
 20
6.6172105128
 10
-1.3720133642
 20
6.6211356414
 10
-1.3511231831
 20
6.6265832386
 10
-1.3307381785
 20
6.6335351338
 10
-1.3109380052
 20
6.6419368151
 10
-1.2916218163
 20
6.6518377188
 10
-1.2728904587
 20
6.6631884085
 10
-1.2551261278
 20
6.6757860635
 10
-1.2383724167
 20
6.6896481532
 10
-1.2225857324
 20
6.7047572083
 10
-1.2080174911
 20
6.7208580001
 10
-1.1947258602
 20
6.7378387195
 10
-1.1826526724
 20
6.7558111756
 10
-1.171874841
 20
6.774855568
 10
-1.1622974894
 20
6.7949283551
 10
-1.1540154943
 20
6.8160730783
 10
-1.1473903997
 20
6.8385005618
 10
-1.1425427203
 20
6.8622810803
 10
-1.1393519414
 20
6.8873443589
 10
-1.1378180631
 20
6.9136903978
  0
LWPOLYLINE
  5
3AB
100
AcDbEntity
  8
0
100
AcDbPolyline
 62
250
  6
CONTINUOUS
 90
22
 70
0
 10
-1.4376353112
 20
6.1141777362
 10
-1.3784785484
 20
6.1164132266
 10
-1.3200859607
 20
6.1229522649
 10
-1.2627617547
 20
6.1336626732
 10
-1.2070068019
 20
6.148327683
 10
-1.152865347
 20
6.1668117796
 10
-1.0999758163
 20
6.1892141676
 10
-1.0483619557
 20
6.2156138005
 10
-0.9986038475
 20
6.2458065811
 10
-0.951188661
 20
6.2795233453
 10
-0.9064154441
 20
6.316536644
 10
-0.864460239
 20
6.35668508
 10
-0.8255697597
 20
6.3997193063
 10
-0.7901461979
 20
6.4451153227
 10
-0.758114086
 20
6.492884288
 10
-0.7291531728
 20
6.5436766314
 10
-0.703637395
 20
6.5972366316
 10
-0.6818485121
 20
6.6534419684
 10
-0.6637818655
 20
6.71331717
 10
-0.649980208
 20
6.7770777868
 10
-0.6412174496
 20
6.8440033266
 10
-0.6381226496
 20
6.9136903978
  0
LINE
  5
3AC
100
AcDbEntity
  8
0
100
AcDbLine
 62
7
  6
CONTINUOUS
 10
2.4057426494
 20
5.8376942985
 11
1.1611518736
 21
5.8376942985
  0
LINE
  5
3AD
100
AcDbEntity
  8
0
100
AcDbLine
 62
7
  6
CONTINUOUS
 10
-1.1611518736
 20
5.8376942985
 11
-2.4057426494
 21
5.8376942985
  0
LINE
  5
3AE
100
AcDbEntity
  8
0
100
AcDbLine
 62
7
  6
CONTINUOUS
 10
7.3
 20
5.9843615304
 11
6.9
 21
5.9843615304
  0
LINE
  5
3AF
100
AcDbEntity
  8
0
100
AcDbLine
 62
7
  6
CONTINUOUS
 10
-6.9
 20
5.9843615304
 11
-7.3
 21
5.9843615304
  0
LINE
  5
3B0
100
AcDbEntity
  8
0
100
AcDbLine
 62
7
  6
CONTINUOUS
 10
6.9
 20
6.0262664538
 11
2.5
 21
6.0262664538
  0
LINE
  5
3B1
100
AcDbEntity
  8
0
100
AcDbLine
 62
7
  6
CONTINUOUS
 10
-2.5
 20
6.0262664538
 11
-6.9
 21
6.0262664538
  0
LINE
  5
3B2
100
AcDbEntity
  8
0
100
AcDbLine
 62
250
  6
CONTINUOUS
 10
-7.3
 20
6.1141777362
 11
-1.4376353112
 21
6.1141777362
  0
LINE
  5
3B3
100
AcDbEntity
  8
0
100
AcDbLine
 62
250
  6
CONTINUOUS
 10
1.4376353112
 20
6.1141777362
 11
7.3
 21
6.1141777362
  0
LINE
  5
3B4
100
AcDbEntity
  8
0
100
AcDbLine
 62
250
  6
CONTINUOUS
 10
-7.3
 20
6.6138731497
 11
-1.4376353112
 21
6.6138731497
  0
LINE
  5
3B5
100
AcDbEntity
  8
0
100
AcDbLine
 62
250
  6
CONTINUOUS
 10
1.4376353112
 20
6.6138731497
 11
7.3
 21
6.6138731497
  0
LINE
  5
3B6
100
AcDbEntity
  8
0
100
AcDbLine
 62
250
  6
CONTINUOUS
 10
0.6381226496
 20
6.9136903978
 11
1.1378180631
 21
6.9136903978
  0
LINE
  5
3B7
100
AcDbEntity
  8
0
100
AcDbLine
 62
250
  6
CONTINUOUS
 10
-0.6381226496
 20
6.9136903978
 11
-1.1378180631
 21
6.9136903978
  0
LINE
  5
3B8
100
AcDbEntity
  8
0
100
AcDbLine
 62
250
  6
CONTINUOUS
 10
0.361639212
 20
7.2253382919
 11
-0.361639212
 21
7.2253382919
  0
LWPOLYLINE
  5
3B9
100
AcDbEntity
  8
0
100
AcDbPolyline
 62
250
  6
CONTINUOUS
 90
10
 70
0
 10
7.3
 20
6.1141777362
 10
7.3868240709
 20
6.1065862432
 10
7.4710100411
 20
6.0840424265
 10
7.5499999628
 20
6.0472312664
 10
7.6213937663
 20
5.9972712498
 10
7.6830221869
 20
5.9356803843
 10
7.7330126765
 20
5.8643300734
 10
7.7698462966
 20
5.7853882576
 10
7.7924038724
 20
5.7012535437
 10
7.8
 20
5.6144823227
  0
LWPOLYLINE
  5
3BA
100
AcDbEntity
  8
0
100
AcDbPolyline
 62
7
  6
CONTINUOUS
 90
10
 70
0
 10
-0.6381226496
 20
12.3208432724
 10
-0.6487512157
 20
12.3336802599
 10
-0.6741057533
 20
12.3587162214
 10
-0.713230534
 20
12.3959511569
 10
-0.7648720025
 20
12.4474221234
 10
-0.8272850342
 20
12.511092064
 10
-0.8981291848
 20
12.5808498076
 10
-0.9750008857
 20
12.6546582974
 10
-1.0556751011
 20
12.7345545901
 10
-1.1378180631
 20
12.8205386859
  0
LWPOLYLINE
  5
3BB
100
AcDbEntity
  8
0
100
AcDbPolyline
 62
250
  6
CONTINUOUS
 90
7
 70
0
 10
7.9934837174
 20
-2.1775082796
 10
8.0302878626
 20
-2.2452933562
 10
8.073496209
 20
-2.3069766973
 10
8.1221658832
 20
-2.3566925148
 10
8.1759825942
 20
-2.3924855463
 10
8.2352606332
 20
-2.4163110542
 10
8.3
 20
-2.4281690386
  0
LINE
  5
3BC
100
AcDbEntity
  8
RACCORDO
100
AcDbLine
 62
7
  6
CONTINUOUS
 10
9.9506158332
 20
-6.3500903013
 11
9.9021626781
 21
-6.2246810988
  0
LINE
  5
3BD
100
AcDbEntity
  8
0
100
AcDbLine
 62
7
  6
CONTINUOUS
 10
6.1200267885
 20
4.9926294651
 11
6.5
 21
2.8376942985
  0
LWPOLYLINE
  5
3BE
100
AcDbEntity
  8
0
100
AcDbPolyline
 62
250
  6
CONTINUOUS
 90
5
 70
0
 10
7.9095590204
 20
-1.8576992082
 10
7.9224393626
 20
-1.9434084239
 10
7.9403857107
 20
-2.0260342645
 10
7.9637326135
 20
-2.1048221398
 10
7.9934837174
 20
-2.1775082796
  0
LINE
  5
3BF
100
AcDbEntity
  8
0
100
AcDbLine
 62
7
  6
CONTINUOUS
 10
4.3316524976
 20
19.8376942985
 11
4.3220008854
 21
19.9110055712
  0
LINE
  5
3C0
100
AcDbEntity
  8
DRAFT
100
AcDbLine
 62
7
  6
CONTINUOUS
 10
9.75
 20
-18.1062653802
 11
9.7307994286
 21
-17.9123057015
  0
LWPOLYLINE
  5
3C1
100
AcDbEntity
  8
0
100
AcDbPolyline
 62
250
  6
CONTINUOUS
 90
8
 70
0
 10
7.9073003943
 20
2.1816683505
 10
7.9114411676
 20
2.1385658519
 10
7.9161820383
 20
2.0967043897
 10
7.9214934574
 20
2.0562249899
 10
7.9274049739
 20
2.0169866266
 10
7.9337051463
 20
1.9789451473
 10
7.9403597966
 20
1.9421564814
 10
7.9474031027
 20
1.9065646996
  0
LINE
  5
3C2
100
AcDbEntity
  8
0
100
AcDbLine
 62
250
  6
CONTINUOUS
 10
7.9020792329
 20
-1.7681520273
 11
7.9095590204
 21
-1.8576992082
  0
LINE
  5
3C3
100
AcDbEntity
  8
0
100
AcDbLine
 62
250
  6
CONTINUOUS
 10
7.904059808
 20
2.2256329605
 11
7.9073003943
 21
2.1816683505
  0
LINE
  5
3C4
100
AcDbEntity
  8
0
100
AcDbLine
 62
250
  6
CONTINUOUS
 10
7.9
 20
-1.6747668812
 11
7.9020792329
 21
-1.7681520273
  0
LWPOLYLINE
  5
3C5
100
AcDbEntity
  8
0
100
AcDbPolyline
 62
250
  6
CONTINUOUS
 90
4
 70
0
 10
7.9000392604
 20
2.3623205326
 10
7.9002975494
 20
2.3163829806
 10
7.9017285852
 20
2.2705769149
 10
7.904059808
 20
2.2256329605
  0
LINE
  5
3C6
100
AcDbEntity
  8
0
100
AcDbLine
 62
7
  6
CONTINUOUS
 10
7.8
 20
-5.0724591488
 11
7.8
 21
-4.9390937256
  0
LINE
  5
3C7
100
AcDbEntity
  8
0
100
AcDbLine
 62
7
  6
CONTINUOUS
 10
7.8
 20
-4.8086681612
 11
7.8
 21
-0.9996572077
  0
LINE
  5
3C8
100
AcDbEntity
  8
0
100
AcDbLine
 62
7
  6
CONTINUOUS
 10
7.8
 20
1.6750458048
 11
7.8
 21
5.4840567583
  0
LINE
  5
3C9
100
AcDbEntity
  8
0
100
AcDbLine
 62
7
  6
CONTINUOUS
 10
7.8
 20
5.680018918
 11
7.8
 21
5.7478477459
  0
LINE
  5
3CA
100
AcDbEntity
  8
0
100
AcDbLine
 62
250
  6
CONTINUOUS
 10
7.9
 20
-1.6747668812
 11
7.9
 21
-1.0984463631
  0
LINE
  5
3CB
100
AcDbEntity
  8
0
100
AcDbLine
 62
7
  6
CONTINUOUS
 10
8.1
 20
2.3503933194
 11
8.1
 21
0.8711889186
  0
LINE
  5
3CC
100
AcDbEntity
  8
0
100
AcDbLine
 62
7
  6
CONTINUOUS
 10
8.1
 20
-1.6753331026
 11
8.1
 21
-0.1950367022
  0
LINE
  5
3CD
100
AcDbEntity
  8
0
100
AcDbLine
 62
250
  6
CONTINUOUS
 10
8.3
 20
-2.4281690386
 11
8.3
 21
3.1035576357
  0
LINE
  5
3CE
100
AcDbEntity
  8
0
100
AcDbLine
 62
7
  6
CONTINUOUS
 10
8.75
 20
-19.1623057015
 11
8.75
 21
-11.9123057015
  0
LINE
  5
3CF
100
AcDbEntity
  8
0
100
AcDbLine
 62
7
  6
CONTINUOUS
 10
8.75
 20
12.5876942985
 11
8.75
 21
19.8376942985
  0
LINE
  5
3D0
100
AcDbEntity
  8
0
100
AcDbLine
 62
7
  6
CONTINUOUS
 10
8.7622185454
 20
-20.1012129742
 11
8.7622185454
 21
-19.1745242469
  0
LINE
  5
3D1
100
AcDbEntity
  8
0
100
AcDbLine
 62
7
  6
CONTINUOUS
 10
8.8041107013
 20
-17.9123057015
 11
8.8041107013
 21
-15.4123057015
  0
LINE
  5
3D2
100
AcDbEntity
  8
0
100
AcDbLine
 62
7
  6
CONTINUOUS
 10
8.8041107013
 20
16.0876942985
 11
8.8041107013
 21
18.5876942985
  0
LINE
  5
3D3
100
AcDbEntity
  8
0
100
AcDbLine
 62
7
  6
CONTINUOUS
 10
8.8233112727
 20
-18.1062653802
 11
8.8233112727
 21
-20.1623057015
  0
LINE
  5
3D4
100
AcDbEntity
  8
0
100
AcDbLine
 62
7
  6
CONTINUOUS
 10
8.8233112727
 20
-15.2183460227
 11
8.8233112727
 21
-12.5418173207
  0
LINE
  5
3D5
100
AcDbEntity
  8
0
100
AcDbLine
 62
7
  6
CONTINUOUS
 10
8.8233112727
 20
13.2172059178
 11
8.8233112727
 21
15.8937346198
  0
LINE
  5
3D6
100
AcDbEntity
  8
0
100
AcDbLine
 62
7
  6
CONTINUOUS
 10
8.8233112727
 20
18.7816539773
 11
8.8233112727
 21
19.9110055712
  0
LINE
  5
3D7
100
AcDbEntity
  8
0
100
AcDbLine
 62
7
  6
CONTINUOUS
 10
9.35
 20
-15.6623057015
 11
9.35
 21
-17.6623057015
  0
LINE
  5
3D8
100
AcDbEntity
  8
0
100
AcDbLine
 62
7
  6
CONTINUOUS
 10
9.35
 20
16.3376942985
 11
9.35
 21
18.3376942985
  0
LINE
  5
3D9
100
AcDbEntity
  8
0
100
AcDbLine
 62
250
  6
CONTINUOUS
 10
9.4
 20
-2.4281690386
 11
9.4
 21
3.1035576357
  0
LWPOLYLINE
  5
3DA
100
AcDbEntity
  8
0
100
AcDbPolyline
 62
250
  6
CONTINUOUS
 90
19
 70
0
 10
8.1
 20
2.3501578053
 10
8.1003103198
 20
2.3921445168
 10
8.101254959
 20
2.4333179624
 10
8.1028530161
 20
2.4736640125
 10
8.1051309821
 20
2.5133572871
 10
8.1080988471
 20
2.5521873862
 10
8.1117260575
 20
2.5895633031
 10
8.115991919
 20
2.6253431676
 10
8.120889183
 20
2.6596341703
 10
8.1263736692
 20
2.6922246132
 10
8.132402105
 20
2.7230045831
 10
8.1389602635
 20
2.7520555396
 10
8.1460413197
 20
2.7794543385
 10
8.1535699922
 20
2.8050841225
 10
8.1615627739
 20
2.8290356097
 10
8.1701841882
 20
2.8516798801
 10
8.179500042
 20
2.8731113761
 10
8.1894426451
 20
2.8931660682
 10
8.2
 20
2.9118083358
  0
LWPOLYLINE
  5
3DB
100
AcDbEntity
  8
0
100
AcDbPolyline
 62
7
  6
CONTINUOUS
 90
10
 70
0
 10
8.1
 20
-0.1953985719
 10
8.1022136037
 20
-0.0803872744
 10
8.1038737912
 20
0.0369886084
 10
8.1049805626
 20
0.1561955085
 10
8.1055338973
 20
0.2769624223
 10
8.1055338159
 20
0.3984405883
 10
8.1049803793
 20
0.5192059985
 10
8.103873608
 20
0.6384099341
 10
8.1022134816
 20
0.7557814733
 10
8.1
 20
0.870787169
  0
LINE
  5
3DC
100
AcDbEntity
  8
0
100
AcDbLine
 62
250
  6
CONTINUOUS
 10
7.9010013375
 20
2.4084257262
 11
7.9000392604
 21
2.3623205326
  0
LWPOLYLINE
  5
3DD
100
AcDbEntity
  8
0
100
AcDbPolyline
 62
7
  6
CONTINUOUS
 90
10
 70
0
 10
7.8
 20
-5.0724591488
 10
7.7906356912
 20
-5.176077213
 10
7.7684878596
 20
-5.2779913881
 10
7.733556505
 20
-5.3782016742
 10
7.6841940126
 20
-5.4769005588
 10
7.6220479972
 20
-5.5738955543
 10
7.5520613038
 20
-5.6686091977
 10
7.4758815473
 20
-5.7608490014
 10
7.3918611127
 20
-5.8508074531
 10
7.3
 20
-5.9384845526
  0
LINE
  5
3DE
100
AcDbEntity
  8
DRAFT
100
AcDbLine
 62
7
  6
CONTINUOUS
 10
9.75
 20
18.7816539773
 11
9.7307994286
 21
18.5876942985
  0
LWPOLYLINE
  5
3DF
100
AcDbEntity
  8
RACCORDO
100
AcDbPolyline
 62
7
  6
CONTINUOUS
 90
7
 70
0
 10
10.154287608
 20
-2.1404335356
 10
10.1516443489
 20
-2.1431773716
 10
10.1448788752
 20
-2.1459639261
 10
10.1340980912
 20
-2.1487013215
 10
10.1194760356
 20
-2.1512620067
 10
10.1012516788
 20
-2.153599764
 10
10.1
 20
-2.1537248589
  0
LINE
  5
3E0
100
AcDbEntity
  8
RACCORDO
100
AcDbLine
 62
250
  6
CONTINUOUS
 10
-9.6506272563
 20
-20.5629215346
 11
-9.6021773948
 21
-20.5144683796
  0
LINE
  5
3E1
100
AcDbEntity
  8
0
100
AcDbLine
 62
250
  6
CONTINUOUS
 10
0.3953412642
 20
8.2247291189
 11
-0.3953412642
 21
8.2247291189
  0
LINE
  5
3E2
100
AcDbEntity
  8
0
100
AcDbLine
 62
7
  6
CONTINUOUS
 10
0.5083064438
 20
8.3376942985
 11
-0.5083064438
 21
8.3376942985
  0
LINE
  5
3E3
100
AcDbEntity
  8
RACCORDO
100
AcDbLine
 62
250
  6
CONTINUOUS
 10
-9.9506158332
 20
20.9383215548
 11
-9.9021626781
 21
20.8898716933
  0
LINE
  5
3E4
100
AcDbEntity
  8
0
100
AcDbLine
 62
7
  6
CONTINUOUS
 10
-8.8233112727
 20
19.9110055712
 11
-8.75
 21
19.8376942985
  0
LINE
  5
3E5
100
AcDbEntity
  8
RACCORDO
100
AcDbLine
 62
250
  6
CONTINUOUS
 10
-9.6506272563
 20
21.2383101317
 11
-9.6021741012
 21
21.1898569767
  0
LINE
  5
3E6
100
AcDbEntity
  8
0
100
AcDbLine
 62
7
  6
CONTINUOUS
 10
-0.542008496
 20
12.2247291189
 11
-0.6381226496
 21
12.3208432724
  0
LWPOLYLINE
  5
3E7
100
AcDbEntity
  8
RACCORDO
100
AcDbPolyline
 62
7
  6
CONTINUOUS
 90
7
 70
0
 10
10.154287608
 20
2.8158221327
 10
10.1516434686
 20
2.8187140026
 10
10.1448757563
 20
2.8214702991
 10
10.1340927233
 20
2.824091022
 10
10.1194703267
 20
2.8266151797
 10
10.101248281
 20
2.8290037638
 10
10.1
 20
2.8291276456
  0
LINE
  5
3E8
100
AcDbEntity
  8
0
100
AcDbLine
 62
250
  6
CONTINUOUS
 10
7.9701388987
 20
1.80555772
 11
7.9782648908
 21
1.7738350645
  0
LWPOLYLINE
  5
3E9
100
AcDbEntity
  8
0
100
AcDbPolyline
 62
250
  6
CONTINUOUS
 90
4
 70
0
 10
7.9474031027
 20
1.9065646996
 10
7.954726156
 20
1.871957861
 10
7.9622926537
 20
1.8382653189
 10
7.9701388987
 20
1.80555772
  0
LINE
  5
3EA
100
AcDbEntity
  8
0
100
AcDbLine
 62
7
  6
CONTINUOUS
 10
8.8233112727
 20
15.8937346198
 11
8.8041107013
 21
16.0876942985
  0
LINE
  5
3EB
100
AcDbEntity
  8
DRAFT
100
AcDbLine
 62
7
  6
CONTINUOUS
 10
9.75
 20
15.8937346198
 11
9.7307994286
 21
16.0876942985
  0
LWPOLYLINE
  5
3EC
100
AcDbEntity
  8
0
100
AcDbPolyline
 62
250
  6
CONTINUOUS
 90
3
 70
0
 10
9.8
 20
2.3501554783
 10
9.7979203227
 20
2.4435435431
 10
9.7904405889
 20
2.5330915798
  0
LINE
  5
3ED
100
AcDbEntity
  8
0
100
AcDbLine
 62
7
  6
CONTINUOUS
 10
9.6
 20
2.3485058377
 11
9.6
 21
-1.6747290179
  0
LINE
  5
3EE
100
AcDbEntity
  8
RACCORDO
100
AcDbLine
 62
250
  6
CONTINUOUS
 10
9.6021741012
 20
-20.2644778988
 11
9.6021741012
 21
-20.5144683796
  0
LINE
  5
3EF
100
AcDbEntity
  8
RACCORDO
100
AcDbLine
 62
250
  6
CONTINUOUS
 10
9.6021741012
 20
20.9398664959
 11
9.6021741012
 21
21.1898569767
  0
LINE
  5
3F0
100
AcDbEntity
  8
RACCORDO
100
AcDbLine
 62
250
  6
CONTINUOUS
 10
9.6521721974
 20
20.8898683997
 11
9.6521721974
 21
20.4176720096
  0
LINE
  5
3F1
100
AcDbEntity
  8
RACCORDO
100
AcDbLine
 62
250
  6
CONTINUOUS
 10
9.6521721974
 20
-19.7422832929
 11
9.6521721974
 21
-20.2144798027
  0
LINE
  5
3F2
100
AcDbEntity
  8
0
100
AcDbLine
 62
7
  6
CONTINUOUS
 10
9.6766887273
 20
12.5876942985
 11
9.6766887273
 21
6.3317812493
  0
LINE
  5
3F3
100
AcDbEntity
  8
0
100
AcDbLine
 62
7
  6
CONTINUOUS
 10
9.6766887273
 20
-5.6563926522
 11
9.6766887273
 21
-11.9123057015
  0
LINE
  5
3F4
100
AcDbEntity
  8
DRAFT
100
AcDbLine
 62
7
  6
CONTINUOUS
 10
9.7307994286
 20
-17.9123057015
 11
9.7307994286
 21
-17.6623057015
  0
LINE
  5
3F5
100
AcDbEntity
  8
DRAFT
100
AcDbLine
 62
7
  6
CONTINUOUS
 10
9.7307994286
 20
-15.6623057015
 11
9.7307994286
 21
-15.4123057015
  0
LINE
  5
3F6
100
AcDbEntity
  8
DRAFT
100
AcDbLine
 62
7
  6
CONTINUOUS
 10
9.7307994286
 20
16.0876942985
 11
9.7307994286
 21
16.3376942985
  0
LINE
  5
3F7
100
AcDbEntity
  8
DRAFT
100
AcDbLine
 62
7
  6
CONTINUOUS
 10
9.7307994286
 20
18.3376942985
 11
9.7307994286
 21
18.5876942985
  0
LINE
  5
3F8
100
AcDbEntity
  8
RACCORDO
100
AcDbLine
 62
7
  6
CONTINUOUS
 10
9.75
 20
-19.3624275453
 11
9.75
 21
-18.1062653802
  0
LINE
  5
3F9
100
AcDbEntity
  8
DRAFT
100
AcDbLine
 62
7
  6
CONTINUOUS
 10
9.75
 20
-15.2183460227
 11
9.75
 21
-13.5953184034
  0
LINE
  5
3FA
100
AcDbEntity
  8
0
100
AcDbLine
 62
7
  6
CONTINUOUS
 10
9.75
 20
-12.7292929996
 11
9.75
 21
-12.5418173207
  0
LINE
  5
3FB
100
AcDbEntity
  8
0
100
AcDbLine
 62
7
  6
CONTINUOUS
 10
9.75
 20
13.2172059178
 11
9.75
 21
13.4046815966
  0
LINE
  5
3FC
100
AcDbEntity
  8
DRAFT
100
AcDbLine
 62
7
  6
CONTINUOUS
 10
9.75
 20
14.2707070004
 11
9.75
 21
15.8937346198
  0
LINE
  5
3FD
100
AcDbEntity
  8
RACCORDO
100
AcDbLine
 62
7
  6
CONTINUOUS
 10
9.75
 20
18.7816539773
 11
9.75
 21
20.0378161424
  0
LINE
  5
3FE
100
AcDbEntity
  8
0
100
AcDbLine
 62
250
  6
CONTINUOUS
 10
9.8
 20
2.3501554783
 11
9.8
 21
-1.6747668812
  0
LINE
  5
3FF
100
AcDbEntity
  8
RACCORDO
100
AcDbLine
 62
7
  6
CONTINUOUS
 10
9.9021626781
 20
20.8898683997
 11
9.9021626781
 21
18.3376942985
  0
LINE
  5
400
100
AcDbEntity
  8
RACCORDO
100
AcDbLine
 62
7
  6
CONTINUOUS
 10
9.9021626781
 20
16.3376942985
 11
9.9021626781
 21
14.1315830793
  0
LINE
  5
401
100
AcDbEntity
  8
RACCORDO
100
AcDbLine
 62
7
  6
CONTINUOUS
 10
9.9021626781
 20
13.5438055178
 11
9.9021626781
 21
6.9000696959
  0
LINE
  5
402
100
AcDbEntity
  8
RACCORDO
100
AcDbLine
 62
7
  6
CONTINUOUS
 10
9.9021626781
 20
-6.2246810988
 11
9.9021626781
 21
-12.8684169207
  0
LINE
  5
403
100
AcDbEntity
  8
RACCORDO
100
AcDbLine
 62
7
  6
CONTINUOUS
 10
9.9021626781
 20
-13.4561944822
 11
9.9021626781
 21
-15.6623057015
  0
LINE
  5
404
100
AcDbEntity
  8
RACCORDO
100
AcDbLine
 62
7
  6
CONTINUOUS
 10
9.9021626781
 20
-17.6623057015
 11
9.9021626781
 21
-20.2144735728
  0
LINE
  5
405
100
AcDbEntity
  8
RACCORDO
100
AcDbLine
 62
250
  6
CONTINUOUS
 10
9.9130532167
 20
6.2851644614
 11
9.9130532167
 21
6.2253898294
  0
LINE
  5
406
100
AcDbEntity
  8
RACCORDO
100
AcDbLine
 62
250
  6
CONTINUOUS
 10
9.9130532167
 20
-5.5500012293
 11
9.9130532167
 21
-5.6097758643
  0
LINE
  5
407
100
AcDbEntity
  8
0
100
AcDbLine
 62
7
  6
CONTINUOUS
 10
9.9506158332
 20
-15.6623057015
 11
9.9506158332
 21
-17.6623057015
  0
LINE
  5
408
100
AcDbEntity
  8
RACCORDO
100
AcDbLine
 62
7
  6
CONTINUOUS
 10
9.9506158332
 20
-20.2629329577
 11
9.9506158332
 21
-17.6623057015
  0
LINE
  5
409
100
AcDbEntity
  8
DRAFT
100
AcDbLine
 62
7
  6
CONTINUOUS
 10
9.9506158332
 20
-15.6623057015
 11
9.9506158332
 21
-6.3500903013
  0
LINE
  5
40A
100
AcDbEntity
  8
DRAFT
100
AcDbLine
 62
7
  6
CONTINUOUS
 10
9.9506158332
 20
7.0254788984
 11
9.9506158332
 21
16.3376942985
  0
LINE
  5
40B
100
AcDbEntity
  8
0
100
AcDbLine
 62
7
  6
CONTINUOUS
 10
9.9506158332
 20
16.3376942985
 11
9.9506158332
 21
18.3376942985
  0
LINE
  5
40C
100
AcDbEntity
  8
RACCORDO
100
AcDbLine
 62
7
  6
CONTINUOUS
 10
9.9506158332
 20
18.3376942985
 11
9.9506158332
 21
20.9383215548
  0
LINE
  5
40D
100
AcDbEntity
  8
0
100
AcDbLine
 62
7
  6
CONTINUOUS
 10
10.1
 20
-5.1623247399
 11
10.1
 21
5.837713337
  0
LINE
  5
40E
100
AcDbEntity
  8
RACCORDO
100
AcDbLine
 62
250
  6
CONTINUOUS
 10
10.154287608
 20
2.8158221327
 11
10.154287608
 21
-1.7623057015
  0
LINE
  5
40F
100
AcDbEntity
  8
RACCORDO
100
AcDbLine
 62
250
  6
CONTINUOUS
 10
10.154287608
 20
-1.7623057015
 11
10.1630151405
 21
-4.9760744454
  0
LINE
  5
410
100
AcDbEntity
  8
RACCORDO
100
AcDbLine
 62
250
  6
CONTINUOUS
 10
10.1630151405
 20
6.3405796857
 11
10.1630151405
 21
5.6514630425
  0
LINE
  5
411
100
AcDbEntity
  8
RACCORDO
100
AcDbLine
 62
250
  6
CONTINUOUS
 10
10.1630151405
 20
-4.9760744454
 11
10.1630151405
 21
-5.6651910886
  0
LINE
  5
412
100
AcDbEntity
  8
DRAFT
100
AcDbLine
 62
7
  6
CONTINUOUS
 10
10.259966909
 20
6.3620733753
 11
10.259966909
 21
-5.6866847783
  0
LINE
  5
413
100
AcDbEntity
  8
RACCORDO
100
AcDbLine
 62
7
  6
CONTINUOUS
 10
11.0
 20
-21.0123628089
 11
11.0
 21
21.687751406
  0
LINE
  5
414
100
AcDbEntity
  8
RACCORDO
100
AcDbLine
 62
250
  6
CONTINUOUS
 10
10.1630151405
 20
5.6514630425
 11
10.154287608
 21
2.8158221327
  0
LWPOLYLINE
  5
415
100
AcDbEntity
  8
0
100
AcDbPolyline
 62
250
  6
CONTINUOUS
 90
31
 70
0
 10
9.6
 20
-1.6747668812
 10
9.5997734971
 20
-1.7107259647
 10
9.5990757724
 20
-1.7464210487
 10
9.5978800034
 20
-1.7818429682
 10
9.5961498245
 20
-1.817215617
 10
9.5938653991
 20
-1.8522896412
 10
9.5910505243
 20
-1.8863465576
 10
9.5877064869
 20
-1.9193100542
 10
9.583837657
 20
-1.9512304706
 10
9.5795232803
 20
-1.9815871022
 10
9.5748280561
 20
-2.0101367881
 10
9.569753594
 20
-2.0371101
 10
9.5643029934
 20
-2.0627012598
 10
9.5585030218
 20
-2.086910321
 10
9.5523753039
 20
-2.1097244543
 10
9.5459025927
 20
-2.131314268
 10
9.5390864063
 20
-2.151729627
 10
9.5319601281
 20
-2.1709041963
 10
9.5245490614
 20
-2.1888321475
 10
9.5169235491
 20
-2.2054307774
 10
9.5090574462
 20
-2.2207737414
 10
9.5008182106
 20
-2.2350792827
 10
9.4922604166
 20
-2.2483722583
 10
9.4833504822
 20
-2.2605957179
 10
9.4737906914
 20
-2.2718077913
 10
9.4635587853
 20
-2.2821382342
 10
9.4526764284
 20
-2.2913603046
 10
9.4408868373
 20
-2.2989426747
 10
9.4281111058
 20
-2.304638382
 10
9.4144661446
 20
-2.3085134207
 10
9.4
 20
-2.3104727264
  0
LWPOLYLINE
  5
416
100
AcDbEntity
  8
RACCORDO
100
AcDbPolyline
 62
250
  6
CONTINUOUS
 90
22
 70
0
 10
9.6521721974
 20
-20.2144798027
 10
9.6521264804
 20
-20.2171908932
 10
9.6518928606
 20
-20.2199717096
 10
9.6514713379
 20
-20.2228222519
 10
9.6508785713
 20
-20.2257561963
 10
9.6500979018
 20
-20.2287598665
 10
9.6490793531
 20
-20.2317922335
 10
9.6478218045
 20
-20.2348617894
 10
9.6463263767
 20
-20.237960042
 10
9.6445464543
 20
-20.241020486
 10
9.6424707273
 20
-20.2440571345
 10
9.6401105058
 20
-20.2470559744
 10
9.6374531048
 20
-20.2499084608
 10
9.6344797429
 20
-20.2526192491
 10
9.6312092014
 20
-20.255183684
 10
9.6276851394
 20
-20.2574792544
 10
9.6238898894
 20
-20.2594978497
 10
9.6198411189
 20
-20.2612475805
 10
9.6156354887
 20
-20.2626302687
 10
9.6113052191
 20
-20.2636131881
 10
9.60681809
 20
-20.2642290648
 10
9.6021741012
 20
-20.2644778988
  0
LWPOLYLINE
  5
417
100
AcDbEntity
  8
RACCORDO
100
AcDbPolyline
 62
250
  6
CONTINUOUS
 90
22
 70
0
 10
9.9021626785
 20
-20.2144735732
 10
9.9017268142
 20
-20.230626314
 10
9.9003562323
 20
-20.2473330163
 10
9.8979543515
 20
-20.2645331477
 10
9.8944301741
 20
-20.2821338481
 10
9.8896877665
 20
-20.3000717655
 10
9.8836150407
 20
-20.3183091227
 10
9.8761155196
 20
-20.3367300068
 10
9.8670992444
 20
-20.3552037387
 10
9.8564510183
 20
-20.3736382862
 10
9.8440642357
 20
-20.3918975077
 10
9.8298926727
 20
-20.4097538338
 10
9.8139333094
 20
-20.4269549047
 10
9.7961447437
 20
-20.4433096347
 10
9.7765543034
 20
-20.4585688565
 10
9.7553326081
 20
-20.4724153754
 10
9.732553076
 20
-20.4846466488
 10
9.7083302113
 20
-20.4950512552
 10
9.6829784478
 20
-20.5033758079
 10
9.656732998
 20
-20.5094619404
 10
9.6297278457
 20
-20.5131985702
 10
9.6021741012
 20
-20.5144683796
  0
LINE
  5
418
100
AcDbEntity
  8
0
100
AcDbLine
 62
7
  6
CONTINUOUS
 10
8.8233112727
 20
-15.2183460227
 11
8.8041107013
 21
-15.4123057015
  0
LINE
  5
419
100
AcDbEntity
  8
DRAFT
100
AcDbLine
 62
7
  6
CONTINUOUS
 10
9.75
 20
-15.2183460227
 11
9.7307994286
 21
-15.4123057015
  0
LINE
  5
41A
100
AcDbEntity
  8
RACCORDO
100
AcDbLine
 62
250
  6
CONTINUOUS
 10
9.9130532167
 20
-5.6097758643
 11
9.6766887273
 21
-6.1166611475
  0
LWPOLYLINE
  5
41B
100
AcDbEntity
  8
RACCORDO
100
AcDbPolyline
 62
7
  6
CONTINUOUS
 90
7
 70
0
 10
10.1630151405
 20
-4.9760744454
 10
10.1603710011
 20
-4.9789663153
 10
10.1536032888
 20
-4.9817226118
 10
10.1428202558
 20
-4.9843433348
 10
10.1281978591
 20
-4.9868674924
 10
10.1099758134
 20
-4.9892560765
 10
10.1
 20
-4.9902460949
  0
LINE
  5
41C
100
AcDbEntity
  8
0
100
AcDbLine
 62
250
  6
CONTINUOUS
 10
0.5083064438
 20
11.2253382919
 11
-0.5083064438
 21
11.2253382919
  0
LWPOLYLINE
  5
41D
100
AcDbEntity
  8
0
100
AcDbPolyline
 62
7
  6
CONTINUOUS
 90
10
 70
0
 10
7.3
 20
6.6138731497
 10
7.3919044935
 20
6.5261389509
 10
7.4759489005
 20
6.4361510367
 10
7.5521332208
 20
6.3439094071
 10
7.6220936516
 20
6.2492393902
 10
7.6841939958
 20
6.1523156578
 10
7.7335256619
 20
6.0536622257
 10
7.7684524527
 20
5.9534537656
 10
7.7906105654
 20
5.8515156056
 10
7.8
 20
5.7478477459
  0
LWPOLYLINE
  5
41E
100
AcDbEntity
  8
RACCORDO
100
AcDbPolyline
 62
7
  6
CONTINUOUS
 90
7
 70
0
 10
10.1630151405
 20
5.6514630425
 10
10.1603718814
 20
5.6542068785
 10
10.1536064077
 20
5.656993433
 10
10.1428256237
 20
5.6597308284
 10
10.1282035681
 20
5.6622915136
 10
10.1099792113
 20
5.6646292709
 10
10.1
 20
5.6656266105
  0
LWPOLYLINE
  5
41F
100
AcDbEntity
  8
0
100
AcDbPolyline
 62
250
  6
CONTINUOUS
 90
11
 70
0
 10
9.7904405889
 20
2.5330915798
 10
9.7775607986
 20
2.6187995884
 10
9.7596156144
 20
2.7014206546
 10
9.7362703738
 20
2.7802016926
 10
9.7065210892
 20
2.8528834453
 10
9.6697194863
 20
2.9206688573
 10
9.6265138395
 20
2.982354984
 10
9.5778449839
 20
3.0320737342
 10
9.5240265313
 20
3.0678690778
 10
9.46474487
 20
3.0916970449
 10
9.4
 20
3.1035576357
  0
LINE
  5
420
100
AcDbEntity
  8
RACCORDO
100
AcDbLine
 62
250
  6
CONTINUOUS
 10
10.1630151405
 20
-5.6651910886
 11
9.9021436407
 21
-6.2246318252
  0
LINE
  5
421
100
AcDbEntity
  8
DRAFT
100
AcDbLine
 62
7
  6
CONTINUOUS
 10
10.259966909
 20
-5.6866847783
 11
9.9506158332
 21
-6.3500903013
  0
LINE
  5
422
100
AcDbEntity
  8
0
100
AcDbLine
 62
250
  6
CONTINUOUS
 10
0.542008496
 20
12.2247291189
 11
-0.542008496
 21
12.2247291189
  0
LINE
  5
423
100
AcDbEntity
  8
0
100
AcDbLine
 62
250
  6
CONTINUOUS
 10
0.6381226496
 20
12.3208432724
 11
-0.6381226496
 21
12.3208432724
  0
LINE
  5
424
100
AcDbEntity
  8
0
100
AcDbLine
 62
7
  6
CONTINUOUS
 10
9.6766887273
 20
12.5876942985
 11
8.75
 21
12.5876942985
  0
LINE
  5
425
100
AcDbEntity
  8
0
100
AcDbLine
 62
7
  6
CONTINUOUS
 10
-8.75
 20
12.5876942985
 11
-9.6766887273
 21
12.5876942985
  0
LINE
  5
426
100
AcDbEntity
  8
0
100
AcDbLine
 62
250
  6
CONTINUOUS
 10
-9.741577054
 20
12.7175105043
 11
-8.8148883267
 21
12.7175105043
  0
LINE
  5
427
100
AcDbEntity
  8
0
100
AcDbLine
 62
250
  6
CONTINUOUS
 10
8.8148883267
 20
12.7175105043
 11
9.741577054
 21
12.7175105043
  0
LINE
  5
428
100
AcDbEntity
  8
0
100
AcDbLine
 62
250
  6
CONTINUOUS
 10
1.1378180631
 20
12.8205386859
 11
-1.1378180631
 21
12.8205386859
  0
LINE
  5
429
100
AcDbEntity
  8
0
100
AcDbLine
 62
250
  6
CONTINUOUS
 10
-9.75
 20
13.2172059178
 11
-8.8233112727
 21
13.2172059178
  0
LINE
  5
42A
100
AcDbEntity
  8
0
100
AcDbLine
 62
250
  6
CONTINUOUS
 10
8.8233112727
 20
13.2172059178
 11
9.75
 21
13.2172059178
  0
LINE
  5
42B
100
AcDbEntity
  8
RACCORDO
100
AcDbLine
 62
250
  6
CONTINUOUS
 10
9.6766887273
 20
6.7920497446
 11
9.9130532167
 21
6.2851644614
  0
LINE
  5
42C
100
AcDbEntity
  8
RACCORDO
100
AcDbLine
 62
250
  6
CONTINUOUS
 10
9.9021436407
 20
6.9000204223
 11
10.1630151405
 21
6.3405796857
  0
LINE
  5
42D
100
AcDbEntity
  8
DRAFT
100
AcDbLine
 62
7
  6
CONTINUOUS
 10
9.9506158332
 20
7.0254788984
 11
10.259966909
 21
6.3620733753
  0
LINE
  5
42E
100
AcDbEntity
  8
0
100
AcDbLine
 62
7
  6
CONTINUOUS
 10
2.75
 20
-18.8245242469
 11
2.6889072728
 21
-18.8856169742
  0
LINE
  5
42F
100
AcDbEntity
  8
0
100
AcDbLine
 62
7
  6
CONTINUOUS
 10
2.6889072728
 20
-19.8123057015
 11
2.75
 21
-19.7512129742
  0
LINE
  5
430
100
AcDbEntity
  8
0
100
AcDbLine
 62
7
  6
CONTINUOUS
 10
-9.75
 20
15.8937346198
 11
-8.8233112727
 21
15.8937346198
  0
LINE
  5
431
100
AcDbEntity
  8
0
100
AcDbLine
 62
7
  6
CONTINUOUS
 10
8.8233112727
 20
15.8937346198
 11
9.75
 21
15.8937346198
  0
LINE
  5
432
100
AcDbEntity
  8
0
100
AcDbLine
 62
7
  6
CONTINUOUS
 10
9.7307994286
 20
16.0876942985
 11
8.8041107013
 21
16.0876942985
  0
LINE
  5
433
100
AcDbEntity
  8
0
100
AcDbLine
 62
7
  6
CONTINUOUS
 10
-8.8041107013
 20
16.0876942985
 11
-9.7307994286
 21
16.0876942985
  0
LINE
  5
434
100
AcDbEntity
  8
0
100
AcDbLine
 62
7
  6
CONTINUOUS
 10
9.9506158332
 20
16.3376942985
 11
9.35
 21
16.3376942985
  0
LINE
  5
435
100
AcDbEntity
  8
0
100
AcDbLine
 62
7
  6
CONTINUOUS
 10
-9.35
 20
16.3376942985
 11
-9.9506158332
 21
16.3376942985
  0
LINE
  5
436
100
AcDbEntity
  8
0
100
AcDbLine
 62
7
  6
CONTINUOUS
 10
3.0254347149
 20
19.4876942985
 11
4.3316524976
 21
19.8376942985
  0
LINE
  5
437
100
AcDbEntity
  8
0
100
AcDbLine
 62
7
  6
CONTINUOUS
 10
3.0157831028
 20
19.5610055712
 11
4.3220008854
 21
19.9110055712
  0
LINE
  5
438
100
AcDbEntity
  8
0
100
AcDbLine
 62
7
  6
CONTINUOUS
 10
9.9506158332
 20
18.3376942985
 11
9.35
 21
18.3376942985
  0
LINE
  5
439
100
AcDbEntity
  8
0
100
AcDbLine
 62
7
  6
CONTINUOUS
 10
-9.35
 20
18.3376942985
 11
-9.9506158332
 21
18.3376942985
  0
LINE
  5
43A
100
AcDbEntity
  8
0
100
AcDbLine
 62
7
  6
CONTINUOUS
 10
-9.7307994286
 20
18.5876942985
 11
-8.8041107013
 21
18.5876942985
  0
LINE
  5
43B
100
AcDbEntity
  8
0
100
AcDbLine
 62
7
  6
CONTINUOUS
 10
8.8041107013
 20
18.5876942985
 11
9.7307994286
 21
18.5876942985
  0
LINE
  5
43C
100
AcDbEntity
  8
0
100
AcDbLine
 62
7
  6
CONTINUOUS
 10
-9.75
 20
18.7816539773
 11
-8.8233112727
 21
18.7816539773
  0
LINE
  5
43D
100
AcDbEntity
  8
0
100
AcDbLine
 62
7
  6
CONTINUOUS
 10
8.8233112727
 20
18.7816539773
 11
9.75
 21
18.7816539773
  0
LINE
  5
43E
100
AcDbEntity
  8
0
100
AcDbLine
 62
7
  6
CONTINUOUS
 10
-4.3316524976
 20
19.8376942985
 11
-3.0254347149
 21
19.4876942985
  0
LINE
  5
43F
100
AcDbEntity
  8
0
100
AcDbLine
 62
7
  6
CONTINUOUS
 10
-4.3220008854
 20
19.9110055712
 11
-3.0157831028
 21
19.5610055712
  0
LINE
  5
440
100
AcDbEntity
  8
0
100
AcDbLine
 62
7
  6
CONTINUOUS
 10
3.0209293968
 20
20.5217632826
 11
4.0728528206
 21
20.8036253145
  0
LINE
  5
441
100
AcDbEntity
  8
0
100
AcDbLine
 62
7
  6
CONTINUOUS
 10
-3.0254347149
 20
19.4876942985
 11
3.0254347149
 21
19.4876942985
  0
LINE
  5
442
100
AcDbEntity
  8
0
100
AcDbLine
 62
7
  6
CONTINUOUS
 10
-3.0157831028
 20
19.5610055712
 11
3.0157831028
 21
19.5610055712
  0
LINE
  5
443
100
AcDbEntity
  8
0
100
AcDbLine
 62
7
  6
CONTINUOUS
 10
8.75
 20
19.8376942985
 11
4.3316524976
 21
19.8376942985
  0
LINE
  5
444
100
AcDbEntity
  8
0
100
AcDbLine
 62
7
  6
CONTINUOUS
 10
-4.3316524976
 20
19.8376942985
 11
-8.75
 21
19.8376942985
  0
LINE
  5
445
100
AcDbEntity
  8
0
100
AcDbLine
 62
7
  6
CONTINUOUS
 10
8.8233112727
 20
19.9110055712
 11
4.3220008854
 21
19.9110055712
  0
LINE
  5
446
100
AcDbEntity
  8
0
100
AcDbLine
 62
7
  6
CONTINUOUS
 10
-4.3220008854
 20
19.9110055712
 11
-8.8233112727
 21
19.9110055712
  0
LINE
  5
447
100
AcDbEntity
  8
0
100
AcDbLine
 62
7
  6
CONTINUOUS
 10
-2.7621497711
 20
20.4876942985
 11
2.7621497711
 21
20.4876942985
  0
LINE
  5
448
100
AcDbEntity
  8
0
100
AcDbLine
 62
7
  6
CONTINUOUS
 10
-4.0728528206
 20
20.8036253145
 11
-3.0209293968
 21
20.5217632826
  0
LINE
  5
449
100
AcDbEntity
  8
RACCORDO
100
AcDbLine
 62
7
  6
CONTINUOUS
 10
8.9501218439
 20
20.8376942985
 11
7.6830127019
 21
20.8376942985
  0
LINE
  5
44A
100
AcDbEntity
  8
0
100
AcDbLine
 62
7
  6
CONTINUOUS
 10
6.8169872981
 20
20.8376942985
 11
4.3316324463
 21
20.8376942985
  0
LINE
  5
44B
100
AcDbEntity
  8
0
100
AcDbLine
 62
7
  6
CONTINUOUS
 10
-4.3316324463
 20
20.8376942985
 11
-6.8169872981
 21
20.8376942985
  0
LINE
  5
44C
100
AcDbEntity
  8
RACCORDO
100
AcDbLine
 62
7
  6
CONTINUOUS
 10
-7.6830127019
 20
20.8376942985
 11
-8.9501218439
 21
20.8376942985
  0
LINE
  5
44D
100
AcDbEntity
  8
RACCORDO
100
AcDbLine
 62
250
  6
CONTINUOUS
 10
9.6521721974
 20
20.8898683997
 11
9.9021626781
 21
20.8898683997
  0
LINE
  5
44E
100
AcDbEntity
  8
RACCORDO
100
AcDbLine
 62
250
  6
CONTINUOUS
 10
-9.6521721974
 20
20.8898683997
 11
-9.9021626781
 21
20.8898683997
  0
LINE
  5
44F
100
AcDbEntity
  8
RACCORDO
100
AcDbLine
 62
250
  6
CONTINUOUS
 10
-9.6021741012
 20
20.9398664959
 11
-7.6009966105
 21
20.9398664959
  0
LINE
  5
450
100
AcDbEntity
  8
RACCORDO
100
AcDbLine
 62
250
  6
CONTINUOUS
 10
-6.8990033895
 20
20.9398664959
 11
6.8990033895
 21
20.9398664959
  0
LINE
  5
451
100
AcDbEntity
  8
RACCORDO
100
AcDbLine
 62
250
  6
CONTINUOUS
 10
7.6009966105
 20
20.9398664959
 11
9.6021741012
 21
20.9398664959
  0
LINE
  5
452
100
AcDbEntity
  8
RACCORDO
100
AcDbLine
 62
7
  6
CONTINUOUS
 10
-9.6021741012
 20
21.1898569767
 11
9.6021773948
 21
21.1898569767
  0
LINE
  5
453
100
AcDbEntity
  8
RACCORDO
100
AcDbLine
 62
7
  6
CONTINUOUS
 10
9.6506272563
 20
21.2383101317
 11
-9.6506272563
 21
21.2383101317
  0
LINE
  5
454
100
AcDbEntity
  8
RACCORDO
100
AcDbLine
 62
7
  6
CONTINUOUS
 10
10.5001522961
 20
22.1876942985
 11
-10.5001522961
 21
22.1876942985
  0
LWPOLYLINE
  5
455
100
AcDbEntity
  8
RACCORDO
100
AcDbPolyline
 62
250
  6
CONTINUOUS
 90
22
 70
0
 10
9.6021741012
 20
20.9398664959
 10
9.6047496873
 20
20.9398272279
 10
9.6074002469
 20
20.9396151104
 10
9.6101257799
 20
20.9392301435
 10
9.6129369486
 20
20.9386897255
 10
9.6158230908
 20
20.9379764581
 10
9.6187522194
 20
20.9370381464
 10
9.6217335501
 20
20.9358751168
 10
9.6247578672
 20
20.9344870428
 10
9.6277655369
 20
20.9328207496
 10
9.630768122
 20
20.9308726406
 10
9.6337540596
 20
20.9286463125
 10
9.6366290268
 20
20.9260993802
 10
9.6394082793
 20
20.9232134455
 10
9.6420765614
 20
20.9200069066
 10
9.6444937823
 20
20.9164925745
 10
9.6466603725
 20
20.9126413911
 10
9.6485759016
 20
20.9084824145
 10
9.6500989869
 20
20.9041156286
 10
9.6511825008
 20
20.8995743615
 10
9.651873571
 20
20.8948252852
 10
9.6521721974
 20
20.8898683997
  0
LWPOLYLINE
  5
456
100
AcDbEntity
  8
RACCORDO
100
AcDbPolyline
 62
250
  6
CONTINUOUS
 90
22
 70
0
 10
9.6021773946
 20
21.1898569764
 10
9.6175094158
 20
21.1894637875
 10
9.6334180691
 20
21.1882235418
 10
9.6498505666
 20
21.1860412099
 10
9.6667161528
 20
21.1828276325
 10
9.6839670445
 20
21.1784860165
 10
9.7015937543
 20
21.1728973632
 10
9.7194900876
 20
21.1659591553
 10
9.7375337934
 20
21.1575742779
 10
9.7556572894
 20
21.1476108947
 10
9.7736963153
 20
21.1359742588
 10
9.791466929
 20
21.1225827545
 10
9.8088255036
 20
21.1073145687
 10
9.8255721804
 20
21.0900706981
 10
9.8414087342
 20
21.0708507874
 10
9.856018016
 20
21.0497165353
 10
9.8691487762
 20
21.0266644806
 10
9.8804871525
 20
21.0018109679
 10
9.8896792075
 20
20.9754890868
 10
9.8964830037
 20
20.9479483447
 10
9.9007108918
 20
20.9193272498
 10
9.9021626781
 20
20.8898683997
  0
ARC
  5
457
100
AcDbEntity
  8
0
100
AcDbCircle
 62
7
  6
CONTINUOUS
 10
2.1
 20
-13.6623057015
 40
3.8
100
AcDbArc
 50
270.0
 51
90.0
  0
ARC
  5
458
100
AcDbEntity
  8
0
100
AcDbCircle
 62
7
  6
CONTINUOUS
 10
-2.1
 20
-13.6623057015
 40
3.8
100
AcDbArc
 50
90.0
 51
270.0
  0
ARC
  5
459
100
AcDbEntity
  8
0
100
AcDbCircle
 62
7
  6
CONTINUOUS
 10
-0.0
 20
-3.4873057015
 40
1.5
100
AcDbArc
 50
219.2187884477
 51
320.7812115523
  0
ARC
  5
45A
100
AcDbEntity
  8
0
100
AcDbCircle
 62
7
  6
CONTINUOUS
 10
-0.0
 20
4.1626942985
 40
1.5
100
AcDbArc
 50
39.2187884477
 51
140.7812115523
  0
ARC
  5
45B
100
AcDbEntity
  8
DRAFT
100
AcDbCircle
 62
7
  6
CONTINUOUS
 10
7.25
 20
20.5876942985
 40
0.5
100
AcDbArc
 50
30.0
 51
150.0
  0
ARC
  5
45C
100
AcDbEntity
  8
DRAFT
100
AcDbCircle
 62
7
  6
CONTINUOUS
 10
-7.25
 20
20.5876942985
 40
0.5
100
AcDbArc
 50
30.0
 51
150.0
  0
ARC
  5
45D
100
AcDbEntity
  8
DRAFT
100
AcDbCircle
 62
7
  6
CONTINUOUS
 10
-7.25
 20
-19.9123057015
 40
0.5
100
AcDbArc
 50
210.0
 51
330.0
  0
ARC
  5
45E
100
AcDbEntity
  8
0
100
AcDbCircle
 62
7
  6
CONTINUOUS
 10
7.25
 20
-19.9123057015
 40
0.3777773068
100
AcDbArc
 50
210.0032608293
 51
329.9967391707
  0
ELLIPSE
  5
45F
100
AcDbEntity
  8
RACCORDO
100
AcDbEllipse
 62
7
  6
CONTINUOUS
 10
10.499923836
 20
21.6875229023
 30
0.0
 11
-0.2774630169
 21
-0.416247366
 31
0.0
 40
0.9995051766
 41
2.1589687851
 42
3.7293082611
  0
ELLIPSE
  5
460
100
AcDbEntity
  8
RACCORDO
100
AcDbEllipse
 62
7
  6
CONTINUOUS
 10
10.499923836
 20
-21.0121343052
 30
0.0
 11
0.2774630169
 21
-0.416247366
 31
0.0
 40
0.9995051766
 41
-0.5877156075
 42
0.9826238685
  0
ELLIPSE
  5
461
100
AcDbEntity
  8
RACCORDO
100
AcDbEllipse
 62
7
  6
CONTINUOUS
 10
-10.499923836
 20
21.6875229023
 30
0.0
 11
0.2774630169
 21
-0.416247366
 31
0.0
 40
0.9995051766
 41
2.5538770461
 42
4.1242165221
  0
ELLIPSE
  5
462
100
AcDbEntity
  8
RACCORDO
100
AcDbEllipse
 62
7
  6
CONTINUOUS
 10
-10.499923836
 20
-21.0121343052
 30
0.0
 11
-0.2774630169
 21
-0.416247366
 31
0.0
 40
0.9995051766
 41
-0.9826238685
 42
0.5877156075
  0
ELLIPSE
  5
463
100
AcDbEntity
  8
DRAFT
100
AcDbEllipse
 62
7
  6
CONTINUOUS
 10
2.1
 20
-13.7871624797
 30
0.0
 11
0.0
 21
-6.4030400366
 31
0.0
 40
0.9996953671
 41
0.1136380832
 42
0.2590688274
  0
ELLIPSE
  5
464
100
AcDbEntity
  8
DRAFT
100
AcDbEllipse
 62
7
  6
CONTINUOUS
 10
-2.1
 20
-13.7871624797
 30
0.0
 11
-0.0
 21
-6.4030400366
 31
0.0
 40
0.9996953671
 41
6.0435254252
 42
6.169547224
  0
ELLIPSE
  5
465
100
AcDbEntity
  8
RACCORDO
100
AcDbEllipse
 62
7
  6
CONTINUOUS
 10
9.6506044097
 20
20.9382987082
 30
0.0
 11
0.2121481893
 21
0.2121481893
 31
0.0
 40
0.9999238505
 41
-0.7853600872
 42
0.7853600872
  0
ELLIPSE
  5
466
100
AcDbEntity
  8
RACCORDO
100
AcDbEllipse
 62
7
  6
CONTINUOUS
 10
-9.6506044097
 20
20.9382987082
 30
0.0
 11
0.2121481893
 21
-0.2121481893
 31
0.0
 40
0.9999238505
 41
2.3562325664
 42
3.9269527408
  0
ELLIPSE
  5
467
100
AcDbEntity
  8
RACCORDO
100
AcDbEllipse
 62
7
  6
CONTINUOUS
 10
9.6506044097
 20
-20.2629101111
 30
0.0
 11
-0.2121481893
 21
0.2121481893
 31
0.0
 40
0.9999238505
 41
-3.9269527408
 42
-2.3562325664
  0
ELLIPSE
  5
468
100
AcDbEntity
  8
RACCORDO
100
AcDbEllipse
 62
7
  6
CONTINUOUS
 10
-9.6506044097
 20
-20.2629101111
 30
0.0
 11
0.2121481893
 21
0.2121481893
 31
0.0
 40
0.9999238505
 41
-3.9269527408
 42
-2.3562325664
  0
ELLIPSE
  5
469
100
AcDbEntity
  8
RACCORDO
100
AcDbEllipse
 62
7
  6
CONTINUOUS
 10
-3.2487418928
 20
-20.2644778988
 30
0.0
 11
0.9330506094
 21
0.2499911183
 31
0.0
 40
0.0022585191
 41
1.5792256771
 42
3.1412953577
  0
ELLIPSE
  5
46A
100
AcDbEntity
  8
RACCORDO
100
AcDbEllipse
 62
7
  6
CONTINUOUS
 10
3.2487418928
 20
-20.2644778988
 30
0.0
 11
0.9330506094
 21
-0.2499911183
 31
0.0
 40
0.0022585191
 41
0.0002972959
 42
1.5623669765
  0
ELLIPSE
  5
46B
100
AcDbEntity
  8
RACCORDO
100
AcDbEllipse
 62
7
  6
CONTINUOUS
 10
8.9498781376
 20
-19.362183839
 30
0.0
 11
-0.5658577513
 21
0.5658577513
 31
0.0
 40
0.9996954599
 41
2.3563467834
 42
3.9268385237
  0
ELLIPSE
  5
46C
100
AcDbEntity
  8
0
100
AcDbEllipse
 62
7
  6
CONTINUOUS
 10
-4.331672552
 20
19.8375419705
 30
0.0
 11
0.1305464196
 21
0.9915985036
 31
0.0
 40
0.999845056
 41
-0.1308796426
 42
0.1308796426
  0
ELLIPSE
  5
46D
100
AcDbEntity
  8
0
100
AcDbEllipse
 62
7
  6
CONTINUOUS
 10
-2.7621096654
 20
21.4878466266
 30
0.0
 11
-0.1305464196
 21
-0.9915985036
 31
0.0
 40
0.999845056
 41
-0.1308796426
 42
0.1308796426
  0
ELLIPSE
  5
46E
100
AcDbEntity
  8
0
100
AcDbEllipse
 62
7
  6
CONTINUOUS
 10
2.7621096654
 20
21.4878466266
 30
0.0
 11
0.1305464196
 21
-0.9915985036
 31
0.0
 40
0.999845056
 41
-0.1308796426
 42
0.1308796426
  0
ELLIPSE
  5
46F
100
AcDbEntity
  8
0
100
AcDbEllipse
 62
7
  6
CONTINUOUS
 10
4.331672552
 20
19.8375419705
 30
0.0
 11
-0.1305464196
 21
0.9915985036
 31
0.0
 40
0.999845056
 41
-0.1308796426
 42
0.1308796426
  0
ELLIPSE
  5
470
100
AcDbEntity
  8
RACCORDO
100
AcDbEllipse
 62
7
  6
CONTINUOUS
 10
8.9498781376
 20
20.0375724361
 30
0.0
 11
-0.5658577513
 21
-0.5658577513
 31
0.0
 40
0.9996954599
 41
2.3563467834
 42
3.9268385237
  0
ELLIPSE
  5
471
100
AcDbEntity
  8
RACCORDO
100
AcDbEllipse
 62
7
  6
CONTINUOUS
 10
-8.9498781376
 20
20.0375724361
 30
0.0
 11
0.5658577513
 21
-0.5658577513
 31
0.0
 40
0.9996954599
 41
2.3563467834
 42
3.9268385237
  0
ELLIPSE
  5
472
100
AcDbEntity
  8
0
100
AcDbEllipse
 62
7
  6
CONTINUOUS
 10
-4.331672552
 20
-19.1621533734
 30
0.0
 11
-0.1305464196
 21
0.9915985036
 31
0.0
 40
0.999845056
 41
-3.2724722962
 42
-3.010713011
  0
ELLIPSE
  5
473
100
AcDbEntity
  8
RACCORDO
100
AcDbEllipse
 62
7
  6
CONTINUOUS
 10
-8.9498781376
 20
-19.362183839
 30
0.0
 11
0.5658577513
 21
0.5658577513
 31
0.0
 40
0.9996954599
 41
2.3563467834
 42
3.9268385237
  0
ELLIPSE
  5
474
100
AcDbEntity
  8
0
100
AcDbEllipse
 62
7
  6
CONTINUOUS
 10
-2.7621096654
 20
-20.8124580295
 30
0.0
 11
-0.1305464196
 21
0.9915985036
 31
0.0
 40
0.999845056
 41
-0.1308796426
 42
0.1308796426
  0
ELLIPSE
  5
475
100
AcDbEntity
  8
0
100
AcDbEllipse
 62
7
  6
CONTINUOUS
 10
9.5999809608
 20
-5.1622866623
 30
0.0
 11
-0.3535803156
 21
0.3535803156
 31
0.0
 40
0.9999238505
 41
2.5101743064
 42
3.9269527408
  0
ELLIPSE
  5
476
100
AcDbEntity
  8
0
100
AcDbEllipse
 62
7
  6
CONTINUOUS
 10
-9.5999809608
 20
-5.1622866623
 30
0.0
 11
0.3535803156
 21
0.3535803156
 31
0.0
 40
0.9999238505
 41
2.3562325664
 42
3.7730110008
  0
ELLIPSE
  5
477
100
AcDbEntity
  8
0
100
AcDbEllipse
 62
7
  6
CONTINUOUS
 10
-9.5999809608
 20
5.8376752593
 30
0.0
 11
0.3535803156
 21
-0.3535803156
 31
0.0
 40
0.9999238505
 41
2.5101743064
 42
3.9269527408
  0
ELLIPSE
  5
478
100
AcDbEntity
  8
0
100
AcDbEllipse
 62
7
  6
CONTINUOUS
 10
9.5999809608
 20
5.8376752593
 30
0.0
 11
-0.3535803156
 21
-0.3535803156
 31
0.0
 40
0.9999238505
 41
2.3562325664
 42
3.7730110008
  0
ELLIPSE
  5
479
100
AcDbEntity
  8
0
100
AcDbEllipse
 62
7
  6
CONTINUOUS
 10
-9.7412724675
 20
-12.5418173207
 30
0.0
 11
0.0
 21
0.5
 31
0.0
 40
0.0174550649
 41
0.034906585
 42
1.5707963268
  0
ELLIPSE
  5
47A
100
AcDbEntity
  8
0
100
AcDbEllipse
 62
7
  6
CONTINUOUS
 10
-9.7412724675
 20
13.2172059178
 30
0.0
 11
-0.0
 21
0.5
 31
0.0
 40
0.0174550649
 41
-4.7123889804
 42
-3.1764992386
  0
ELLIPSE
  5
47B
100
AcDbEntity
  8
0
100
AcDbEllipse
 62
7
  6
CONTINUOUS
 10
9.7412724675
 20
-12.5418173207
 30
0.0
 11
-0.0
 21
0.5
 31
0.0
 40
0.0174550649
 41
-1.5707963268
 42
-0.034906585
  0
ELLIPSE
  5
47C
100
AcDbEntity
  8
0
100
AcDbEllipse
 62
7
  6
CONTINUOUS
 10
9.7412724675
 20
13.2172059178
 30
0.0
 11
0.0
 21
0.5
 31
0.0
 40
0.0174550649
 41
-3.1066860685
 42
-1.5707963268
  0
ELLIPSE
  5
47D
100
AcDbEntity
  8
0
100
AcDbEllipse
 62
7
  6
CONTINUOUS
 10
8.8145837402
 20
13.2172059178
 30
0.0
 11
0.0
 21
0.5
 31
0.0
 40
0.0174550649
 41
-3.1066860685
 42
-1.5707963268
  0
ELLIPSE
  5
47E
100
AcDbEntity
  8
0
100
AcDbEllipse
 62
7
  6
CONTINUOUS
 10
-5.8
 20
4.2689665749
 30
0.0
 11
0.0
 21
0.8000109664
 31
0.0
 40
0.9999862922
 41
0.0
 42
1.5707963268
  0
ELLIPSE
  5
47F
100
AcDbEntity
  8
0
100
AcDbEllipse
 62
7
  6
CONTINUOUS
 10
5.8
 20
-3.5935779778
 30
0.0
 11
-0.0
 21
0.8000109664
 31
0.0
 40
0.9999862922
 41
-3.1415926536
 42
-1.5707963268
  0
ELLIPSE
  5
480
100
AcDbEntity
  8
0
100
AcDbEllipse
 62
7
  6
CONTINUOUS
 10
-5.8
 20
-3.5935779778
 30
0.0
 11
0.0
 21
0.8000109664
 31
0.0
 40
0.9999862922
 41
-4.7123889804
 42
-3.1415926536
  0
ELLIPSE
  5
481
100
AcDbEntity
  8
0
100
AcDbEllipse
 62
7
  6
CONTINUOUS
 10
8.8145837402
 20
-12.5418173207
 30
0.0
 11
0.0
 21
0.5
 31
0.0
 40
0.0174550649
 41
-1.5707963268
 42
-0.034906585
  0
ELLIPSE
  5
482
100
AcDbEntity
  8
0
100
AcDbEllipse
 62
7
  6
CONTINUOUS
 10
-1.1378180631
 20
-8.9948453167
 30
0.0
 11
0.5
 21
-0.0
 31
0.0
 40
0.0349207695
 41
-1.5707963268
 42
-0.034906585
  0
ELLIPSE
  5
483
100
AcDbEntity
  8
0
100
AcDbEllipse
 62
7
  6
CONTINUOUS
 10
1.1378180631
 20
-8.9948453167
 30
0.0
 11
0.5
 21
-0.0
 31
0.0
 40
0.0349207695
 41
-3.1066860685
 42
-1.5707963268
  0
ELLIPSE
  5
484
100
AcDbEntity
  8
0
100
AcDbEllipse
 62
7
  6
CONTINUOUS
 10
-8.8145837402
 20
13.2172059178
 30
0.0
 11
0.0
 21
0.5
 31
0.0
 40
0.0174550649
 41
-4.7123889804
 42
-3.1764992386
  0
ELLIPSE
  5
485
100
AcDbEntity
  8
0
100
AcDbEllipse
 62
7
  6
CONTINUOUS
 10
-8.8145837402
 20
-12.5418173207
 30
0.0
 11
0.0
 21
0.5
 31
0.0
 40
0.0174550649
 41
0.034906585
 42
1.5707963268
  0
ELLIPSE
  5
486
100
AcDbEntity
  8
0
100
AcDbEllipse
 62
7
  6
CONTINUOUS
 10
0.5432272133
 20
11.2253382919
 30
0.0
 11
-0.0
 21
1.0
 31
0.0
 40
0.0349207695
 41
0.034906585
 42
1.5707963268
  0
ELLIPSE
  5
487
100
AcDbEntity
  8
0
100
AcDbEllipse
 62
7
  6
CONTINUOUS
 10
0.3965599814
 20
7.2253382919
 30
0.0
 11
-0.0
 21
1.0
 31
0.0
 40
0.0349207695
 41
0.034906585
 42
1.5707963268
  0
ELLIPSE
  5
488
100
AcDbEntity
  8
0
100
AcDbEllipse
 62
7
  6
CONTINUOUS
 10
-7.3
 20
-4.8086681612
 30
0.0
 11
0.0
 21
-0.5003047721
 31
0.0
 40
0.999390827
 41
-1.5707963268
 42
0.0
  0
ELLIPSE
  5
489
100
AcDbEntity
  8
0
100
AcDbEllipse
 62
7
  6
CONTINUOUS
 10
1.1621268474
 20
-5.9627933369
 30
0.0
 11
0.5663748357
 21
-0.5663748357
 31
0.0
 40
0.998782766
 41
2.3568034778
 42
3.9263818294
  0
ELLIPSE
  5
48A
100
AcDbEntity
  8
0
100
AcDbEllipse
 62
7
  6
CONTINUOUS
 10
7.3
 20
5.4840567583
 30
0.0
 11
-0.0
 21
0.5003047721
 31
0.0
 40
0.999390827
 41
-1.5707963268
 42
0.0
  0
ELLIPSE
  5
48B
100
AcDbEntity
  8
0
100
AcDbEllipse
 62
7
  6
CONTINUOUS
 10
-1.1621268474
 20
-5.9627933369
 30
0.0
 11
0.5663748357
 21
0.5663748357
 31
0.0
 40
0.998782766
 41
-0.7847891758
 42
0.7847891758
  0
ELLIPSE
  5
48C
100
AcDbEntity
  8
0
100
AcDbEllipse
 62
7
  6
CONTINUOUS
 10
-1.1621268474
 20
6.638181934
 30
0.0
 11
-0.5663748357
 21
0.5663748357
 31
0.0
 40
0.998782766
 41
-3.9263818294
 42
-2.3568034778
  0
ELLIPSE
  5
48D
100
AcDbEntity
  8
0
100
AcDbEllipse
 62
7
  6
CONTINUOUS
 10
-7.3
 20
5.4840567583
 30
0.0
 11
0.0
 21
-0.5003047721
 31
0.0
 40
0.999390827
 41
3.1415926536
 42
4.7123889804
  0
ELLIPSE
  5
48E
100
AcDbEntity
  8
0
100
AcDbEllipse
 62
7
  6
CONTINUOUS
 10
1.1621268474
 20
6.638181934
 30
0.0
 11
0.5663748357
 21
0.5663748357
 31
0.0
 40
0.998782766
 41
-3.9263818294
 42
-2.3568034778
  0
ELLIPSE
  5
48F
100
AcDbEntity
  8
0
100
AcDbEllipse
 62
7
  6
CONTINUOUS
 10
7.3
 20
-4.8086681612
 30
0.0
 11
-0.0
 21
0.5003047721
 31
0.0
 40
0.999390827
 41
3.1415926536
 42
4.7123889804
  0
ELLIPSE
  5
490
100
AcDbEntity
  8
0
100
AcDbEllipse
 62
7
  6
CONTINUOUS
 10
-0.3965599814
 20
7.2253382919
 30
0.0
 11
-0.0
 21
1.0
 31
0.0
 40
0.0349207695
 41
-1.5707963268
 42
-0.034906585
  0
ELLIPSE
  5
491
100
AcDbEntity
  8
0
100
AcDbEllipse
 62
7
  6
CONTINUOUS
 10
-0.5432272133
 20
11.2253382919
 30
0.0
 11
-0.0
 21
1.0
 31
0.0
 40
0.0349207695
 41
-1.5707963268
 42
-0.034906585
  0
ELLIPSE
  5
492
100
AcDbEntity
  8
0
100
AcDbEllipse
 62
7
  6
CONTINUOUS
 10
-0.3965599814
 20
-6.5499496948
 30
0.0
 11
-0.0
 21
1.0
 31
0.0
 40
0.0349207695
 41
-3.1066860685
 42
-1.5707963268
  0
ELLIPSE
  5
493
100
AcDbEntity
  8
0
100
AcDbEllipse
 62
7
  6
CONTINUOUS
 10
0.3965599814
 20
-6.5499496948
 30
0.0
 11
-0.0
 21
1.0
 31
0.0
 40
0.0349207695
 41
1.5707963268
 42
3.1066860685
  0
ELLIPSE
  5
494
100
AcDbEntity
  8
0
100
AcDbEllipse
 62
7
  6
CONTINUOUS
 10
5.8
 20
4.2689665749
 30
0.0
 11
0.0
 21
0.8000109664
 31
0.0
 40
0.9999862922
 41
-1.5707963268
 42
0.0
  0
ENDSEC
  0
SECTION
  2
OBJECTS
  0
DICTIONARY
  5
C
100
AcDbDictionary
280
0
281
1
  3
ACAD_GROUP
350
D
  3
ACAD_MLINESTYLE
350
17
  3
ACAD_LAYOUT
350
1A
  3
ACAD_PLOTSETTINGS
350
19
  3
ACAD_PLOTSTYLENAME
350
E
  0
DICTIONARY
  5
D
102
{ACAD_REACTORS
330
C
102
}
100
AcDbDictionary
280
0
281
1
  0
ACDBDICTIONARYWDFLT
  5
E
102
{ACAD_REACTORS
330
C
102
}
100
AcDbDictionary
281
1
  3
Normal
350
F
100
AcDbDictionaryWithDefault
340
F
  0
DICTIONARY
  5
17
102
{ACAD_REACTORS
330
C
102
}
100
AcDbDictionary
280
0
281
1
  3
Standard
350
18
  0
DICTIONARY
  5
19
102
{ACAD_REACTORS
330
C
102
}
100
AcDbDictionary
281
1
  0
DICTIONARY
  5
1A
102
{ACAD_REACTORS
330
C
102
}
100
AcDbDictionary
281
1
  3
Model
350
495
  3
Layout1
350
496
  0
ACDBPLACEHOLDER
  5
F
102
{ACAD_REACTORS
330
E
102
}
  0
MLINESTYLE
  5
18
102
{ACAD_REACTORS
330
17
102
}
100
AcDbMlineStyle
  2
STANDARD
 70
0
  3

 62
256
 51
90.0
 52
90.0
 71
2
 49
0.5
 62
256
  6
BYLAYER
 49
-0.5
 62
256
  6
BYLAYER
  0
LAYOUT
  5
495
102
{ACAD_REACTORS
330
1A
102
}
100
AcDbPlotSettings
  1

  2
none_device
  4
ISO_A4_(297.00_x_210.00_MM)
  6

 40
0.0
 41
0.0
 42
0.0
 43
0.0
 44
297.0
 45
210.0
 46
0.0
 47
0.0
 48
0.0
 49
0.0
140
0.0
141
0.0
142
1.0
143
1.0
 70
1024
 72
1
 73
0
 74
0
  7

 75
0
147
1.0
148
0.0
149
0.0
100
AcDbLayout
  1
Model
 70
0
 71
0
 10
0.0
 20
0.0
 11
297.0
 21
210.0
 12
0.0
 22
0.0
 32
0.0
 14
0.0
 24
0.0
 34
0.0
 15
0.0
 25
0.0
 35
0.0
146
0.0
 13
0.0
 23
0.0
 33
0.0
 16
1.0
 26
0.0
 36
0.0
 17
0.0
 27
1.0
 37
0.0
 76
0
330
215
345
0
346
0
  0
LAYOUT
  5
496
102
{ACAD_REACTORS
330
1A
102
}
100
AcDbPlotSettings
  1

  2
none_device
  4
ISO_A4_(297.00_x_210.00_MM)
  6

 40
0.0
 41
0.0
 42
0.0
 43
0.0
 44
297.0
 45
210.0
 46
0.0
 47
0.0
 48
0.0
 49
0.0
140
0.0
141
0.0
142
1.0
143
1.0
 70
0
 72
1
 73
0
 74
0
  7

 75
0
147
1.0
148
0.0
149
0.0
100
AcDbLayout
  1
Layout1
 70
0
 71
1
 10
0.0
 20
0.0
 11
297.0
 21
210.0
 12
0.0
 22
0.0
 32
0.0
 14
0.0
 24
0.0
 34
0.0
 15
0.0
 25
0.0
 35
0.0
146
0.0
 13
0.0
 23
0.0
 33
0.0
 16
1.0
 26
0.0
 36
0.0
 17
0.0
 27
1.0
 37
0.0
 76
0
330
216
345
0
346
0
  0
ENDSEC
  0
EOF
