  0
SECTION
  2
HEADER
  9
$ACADVER
  1
AC1024
  9
$DWGCODEPAGE
  3
ANSI_1252
  9
$EXTMAX
 10
297.0
 20
210.0
 30
0.0
  9
$EXTMIN
 10
0.0
 20
0.0
 30
0.0
  9
$LIMMIN
 10
0.0
 20
0.0
  9
$LIMMAX
 10
297.0
 20
210.0
  9
$VIEWCTR
 10
148.5
 20
105.0
  9
$VIEWSIZE
 40
210.0
  9
$CLAYER
  8
0
  9
$LTSCALE
 40
16.335
  9
$CELTYPE
  6
BYLAYER
  9
$DIMSCALE
 40
1.0
  9
$DIMASZ
 40
3.0
  9
$DIMEXO
 40
0.5
  9
$DIMDLI
 40
11.286
  9
$DIMEXE
 40
1.5
  9
$DIMCEN
 40
2.673
  9
$DIMLFAC
 40
1.0
  9
$DIMBLK
  1
_FILLED
  9
$DIMALT
 70
0
  9
$DIMALTF
 40
0.0393700787
  9
$DIMTXT
 40
3.0
  9
$DIMTOL
 70
1
  9
$DIMLIM
 70
0
  9
$DIMTFAC
 40
1.0
  9
$DIMTP
 40
0.01
  9
$DIMTM
 40
0.01
  9
$DIMGAP
 40
0.625
  9
$DIMDSEP
 70
44
  9
$AUNITS
 70
0
  9
$PDMODE
 70
3
  9
$PDSIZE
 40
3.0
  9
$HANDSEED
  5
4E7
  9
$TILEMODE
 70
1
  9
$MEASUREMENT
 70
1
  9
$INSUNITS
 70
4
  0
ENDSEC
  0
SECTION
  2
CLASSES
  0
CLASS
  1
ACDBDICTIONARYWDFLT
  2
AcDbDictionaryWithDefault
  3
AutoCAD 2000
 90
0
 91
1
280
0
281
0
  0
CLASS
  1
ACDBPLACEHOLDER
  2
AcDbPlaceHolder
  3
AutoCAD 2000
 90
0
 91
1
280
0
281
0
  0
CLASS
  1
LAYOUT
  2
AcDbLayout
  3
AutoCAD 2000
 90
0
 91
0
280
0
281
0
  0
ENDSEC
  0
SECTION
  2
TABLES
  0
TABLE
  2
VPORT
  5
8
100
AcDbSymbolTable
 70
2
  0
VPORT
  5
1F4
100
AcDbSymbolTableRecord
100
AcDbViewportTableRecord
  2
*ACTIVE
 70
0
 10
0.0
 20
0.0
 11
1.0
 21
1.0
 12
148.5
 22
105.0
 13
0.0
 23
0.0
 14
1.0
 24
1.0
 15
0.0
 25
0.0
 16
0.0
 26
0.0
 36
1.0
 17
0.0
 27
0.0
 37
0.0
 40
210.0
 41
1.4142857143
 42
50.0
 43
0.0
 44
0.0
 50
0.0
 51
0.0
 71
0
 72
100
 73
1
 74
1
 75
0
 76
0
 77
0
 78
0
  0
ENDTAB
  0
TABLE
  2
LTYPE
  5
5
100
AcDbSymbolTable
 70
6
  0
LTYPE
  5
14
100
AcDbSymbolTableRecord
100
AcDbLinetypeTableRecord
  2
BYBLOCK
 70
0
  3

 72
65
 73
0
 40
0.0
  0
LTYPE
  5
15
100
AcDbSymbolTableRecord
100
AcDbLinetypeTableRecord
  2
BYLAYER
 70
0
  3

 72
65
 73
0
 40
0.0
  0
LTYPE
  5
16
100
AcDbSymbolTableRecord
100
AcDbLinetypeTableRecord
  2
CONTINUOUS
 70
64
  3
Solid line
 72
65
 73
0
 40
0.0
  0
LTYPE
  5
1F5
100
AcDbSymbolTableRecord
100
AcDbLinetypeTableRecord
  2
CENTER
 70
64
  3
____ _ ____ _ ____ _ ____ _ ____ _ ____ _ ____
 72
65
 73
4
 40
0.6
 49
0.375
 74
0
 49
-0.075
 74
0
 49
0.075
 74
0
 49
-0.075
 74
0
  0
LTYPE
  5
1F6
100
AcDbSymbolTableRecord
100
AcDbLinetypeTableRecord
  2
HIDDEN
 70
64
  3
- - - - - - - - - - - - - - - - - - - -
 72
65
 73
2
 40
0.2
 49
0.1
 74
0
 49
-0.1
 74
0
  0
LTYPE
  5
1F7
100
AcDbSymbolTableRecord
100
AcDbLinetypeTableRecord
  2
PHANTOM
 70
64
  3
_____ _ _ _____ _ _ _____ _ _ _____
 72
65
 73
6
 40
0.8
 49
0.45
 74
0
 49
-0.05
 74
0
 49
0.1
 74
0
 49
-0.05
 74
0
 49
0.1
 74
0
 49
-0.05
 74
0
  0
LTYPE
  5
1F8
100
AcDbSymbolTableRecord
100
AcDbLinetypeTableRecord
  2
DOT
 70
64
  3
. . . . . . . . . . . . . . . . . . . .
 72
65
 73
2
 40
0.2
 49
0.1
 74
0
 49
-0.1
 74
0
  0
LTYPE
  5
1F9
100
AcDbSymbolTableRecord
100
AcDbLinetypeTableRecord
  2
DASHED
 70
64
  3
- - - - - - - - - - - - - - - - - - - -
 72
65
 73
2
 40
0.2
 49
0.1
 74
0
 49
-0.1
 74
0
  0
ENDTAB
  0
TABLE
  2
LAYER
  5
2
100
AcDbSymbolTable
 70
36
  0
LAYER
  5
10
100
AcDbSymbolTableRecord
100
AcDbLayerTableRecord
  2
0
 70
0
 62
7
  6
CONTINUOUS
370
-3
390
F
  0
LAYER
  5
1FA
100
AcDbSymbolTableRecord
100
AcDbLayerTableRecord
  2
DEFAULT_1
 70
0
 62
7
  6
CENTER
370
-3
390
F
  0
LAYER
  5
1FB
100
AcDbSymbolTableRecord
100
AcDbLayerTableRecord
  2
DEFAULT_2
 70
0
 62
7
  6
HIDDEN
370
-3
390
F
  0
LAYER
  5
1FC
100
AcDbSymbolTableRecord
100
AcDbLayerTableRecord
  2
DEFAULT_3
 70
0
 62
7
  6
PHANTOM
370
-3
390
F
  0
LAYER
  5
1FD
100
AcDbSymbolTableRecord
100
AcDbLayerTableRecord
  2
ASSI
 70
0
 62
7
  6
CONTINUOUS
370
-3
390
F
  0
LAYER
  5
1FE
100
AcDbSymbolTableRecord
100
AcDbLayerTableRecord
  2
COORDINATE
 70
0
 62
7
  6
CONTINUOUS
370
-3
390
F
  0
LAYER
  5
1FF
100
AcDbSymbolTableRecord
100
AcDbLayerTableRecord
  2
COORD_ORIGINE
 70
0
 62
7
  6
CONTINUOUS
370
-3
390
F
  0
LAYER
  5
200
100
AcDbSymbolTableRecord
100
AcDbLayerTableRecord
  2
COSMETICI
 70
0
 62
7
  6
CONTINUOUS
370
-3
390
F
  0
LAYER
  5
201
100
AcDbSymbolTableRecord
100
AcDbLayerTableRecord
  2
CURVE
 70
0
 62
7
  6
CONTINUOUS
370
-3
390
F
  0
LAYER
  5
202
100
AcDbSymbolTableRecord
100
AcDbLayerTableRecord
  2
DRAFT
 70
0
 62
7
  6
CONTINUOUS
370
-3
390
F
  0
LAYER
  5
203
100
AcDbSymbolTableRecord
100
AcDbLayerTableRecord
  2
INTFCLR_1
 70
0
 62
7
  6
CONTINUOUS
370
-3
390
F
  0
LAYER
  5
204
100
AcDbSymbolTableRecord
100
AcDbLayerTableRecord
  2
NOTE
 70
0
 62
7
  6
CONTINUOUS
370
-3
390
F
  0
LAYER
  5
205
100
AcDbSymbolTableRecord
100
AcDbLayerTableRecord
  2
PIANI
 70
0
 62
7
  6
CONTINUOUS
370
-3
390
F
  0
LAYER
  5
206
100
AcDbSymbolTableRecord
100
AcDbLayerTableRecord
  2
PIANI_ORIGINE
 70
0
 62
7
  6
CONTINUOUS
370
-3
390
F
  0
LAYER
  5
207
100
AcDbSymbolTableRecord
100
AcDbLayerTableRecord
  2
PUNTI
 70
0
 62
7
  6
CONTINUOUS
370
-3
390
F
  0
LAYER
  5
208
100
AcDbSymbolTableRecord
100
AcDbLayerTableRecord
  2
RACCORDO
 70
0
 62
7
  6
CONTINUOUS
370
-3
390
F
  0
LAYER
  5
209
100
AcDbSymbolTableRecord
100
AcDbLayerTableRecord
  2
SIMBOLI
 70
0
 62
7
  6
CONTINUOUS
370
-3
390
F
  0
LAYER
  5
20A
100
AcDbSymbolTableRecord
100
AcDbLayerTableRecord
  2
SMUSSO
 70
0
 62
7
  6
CONTINUOUS
370
-3
390
F
  0
LAYER
  5
20B
100
AcDbSymbolTableRecord
100
AcDbLayerTableRecord
  2
SNAPLINE
 70
0
 62
7
  6
CONTINUOUS
370
-3
390
F
  0
LAYER
  5
20C
100
AcDbSymbolTableRecord
100
AcDbLayerTableRecord
  2
SUPERFICI
 70
0
 62
7
  6
CONTINUOUS
370
-3
390
F
  0
LAYER
  5
20D
100
AcDbSymbolTableRecord
100
AcDbLayerTableRecord
  2
TRASH
 70
0
 62
7
  6
CONTINUOUS
370
-3
390
F
  0
ENDTAB
  0
TABLE
  2
STYLE
  5
3
100
AcDbSymbolTable
 70
1
  0
STYLE
  5
11
100
AcDbSymbolTableRecord
100
AcDbTextStyleTableRecord
  2
STANDARD
 70
0
 40
0.0
 41
0.8
 50
0.0
 71
0
 42
0.2
  3
txt
  4

  0
STYLE
  5
20E
100
AcDbSymbolTableRecord
100
AcDbTextStyleTableRecord
  2
TEXTSTYLE_1
 70
0
 40
0.0
 41
0.8
 50
0.0
 71
0
 42
0.2
  3
gdt
  4

  0
ENDTAB
  0
TABLE
  2
VIEW
  5
6
100
AcDbSymbolTable
 70
0
  0
ENDTAB
  0
TABLE
  2
UCS
  5
7
100
AcDbSymbolTable
 70
0
  0
ENDTAB
  0
TABLE
  2
APPID
  5
9
100
AcDbSymbolTable
 70
1
  0
APPID
  5
20F
100
AcDbSymbolTableRecord
100
AcDbRegAppTableRecord
  2
ACAD
 70
0
  0
ENDTAB
  0
TABLE
  2
BLOCK_RECORD
  5
1
100
AcDbSymbolTable
 70
0
  0
BLOCK_RECORD
  5
210
100
AcDbSymbolTableRecord
100
AcDbBlockTableRecord
  2
*Model_Space
  0
BLOCK_RECORD
  5
211
100
AcDbSymbolTableRecord
100
AcDbBlockTableRecord
  2
*Paper_Space
  0
BLOCK_RECORD
  5
212
100
AcDbSymbolTableRecord
100
AcDbBlockTableRecord
  2
_FILLED
  0
ENDTAB
  0
TABLE
  2
DIMSTYLE
  5
A
100
AcDbSymbolTable
 70
1
100
AcDbDimStyleTable
 71
0
  0
DIMSTYLE
105
213
100
AcDbSymbolTableRecord
100
AcDbDimStyleTableRecord
  2
STANDARD
 70
0
  3

  4

 40
1.0
 41
3.0
 42
0.5
 43
0.38
 44
1.5
 45
0.0
 46
0.0
 47
0.01
 48
0.01
140
3.0
141
0.09
142
0.0
143
25.4
144
1.0
145
0.0
146
1.0
147
0.625
 71
1
 72
0
 73
0
 74
0
 75
0
 76
0
 77
1
 78
8
 79
2
170
0
171
1
172
0
173
0
174
0
175
0
176
0
177
0
178
0
270
2
179
2
271
2
272
2
273
2
274
2
275
0
280
0
281
0
282
0
283
1
284
8
285
0
286
0
287
3
288
0
340
11
278
44
341
212
342
212
343
212
344
212
  0
ENDTAB
  0
ENDSEC
  0
SECTION
  2
BLOCKS
  0
BLOCK
  5
20
100
AcDbEntity
  8
0
100
AcDbBlockBegin
  2
*Model_Space
 70
0
 10
0.0
 20
0.0
 30
0.0
  3
*Model_Space
  1

  0
ENDBLK
  5
21
100
AcDbEntity
  8
0
100
AcDbBlockEnd
  0
BLOCK
  5
1C
100
AcDbEntity
  8
0
100
AcDbBlockBegin
  2
*Paper_Space
 70
0
 10
0.0
 20
0.0
 30
0.0
  3
*Paper_Space
  1

  0
ENDBLK
  5
1D
100
AcDbEntity
  8
0
100
AcDbBlockEnd
  0
BLOCK
  5
214
100
AcDbEntity
  8
0
100
AcDbBlockBegin
  2
_FILLED
 70
64
 10
0.0
 20
0.0
  3
_FILLED
  1

  0
SOLID
  5
215
100
AcDbEntity
  8
0
  6
BYBLOCK
 62
0
100
AcDbTrace
 10
0.0
 20
0.0
 11
-1.0
 21
0.3166666667
 12
-1.0
 22
-0.3166666667
 13
-1.0
 23
-0.3166666667
  0
ENDBLK
  5
216
100
AcDbEntity
  8
0
  6
BYBLOCK
 62
0
100
AcDbBlockEnd
  0
ENDSEC
  0
SECTION
  2
ENTITIES
  0
LWPOLYLINE
  5
217
100
AcDbEntity
  8
RACCORDO
100
AcDbPolyline
 62
7
  6
CONTINUOUS
 90
13
 70
0
 10
-21.8443014089
 20
17.3594295911
 10
-21.911020854
 20
17.2699643978
 10
-21.972384507
 20
17.1773782935
 10
-22.0283923677
 20
17.081671278
 10
-22.0792191393
 20
16.9824822155
 10
-22.1246901186
 20
16.8801722418
 10
-22.1642811968
 20
16.7758247651
 10
-22.1979029126
 20
16.6694105511
 10
-22.2256447272
 20
16.5609588341
 10
-22.2472509158
 20
16.4516407259
 10
-22.2626362366
 20
16.3418465971
 10
-22.2718859314
 20
16.2311860772
 10
-22.275
 20
16.119659166
  0
LWPOLYLINE
  5
218
100
AcDbEntity
  8
RACCORDO
100
AcDbPolyline
 62
7
  6
CONTINUOUS
 90
7
 70
0
 10
-16.8102955243
 20
-22.2978870308
 10
-16.7643156787
 20
-22.3287225274
 10
-16.7165709887
 20
-22.3540235025
 10
-16.6670614544
 20
-22.3737899561
 10
-16.6157870756
 20
-22.3880218881
 10
-16.5627478524
 20
-22.3967192986
 10
-16.5079437848
 20
-22.3998821875
  0
LWPOLYLINE
  5
219
100
AcDbEntity
  8
RACCORDO
100
AcDbPolyline
 62
7
  6
CONTINUOUS
 90
13
 70
0
 10
-21.7964988845
 20
-17.2585598083
 10
-21.8628857886
 20
-17.1692251386
 10
-21.9239419269
 20
-17.0767920704
 10
-21.9796672995
 20
-16.9812606035
 10
-22.0302351204
 20
-16.8822720474
 10
-22.0754721756
 20
-16.7801850927
 10
-22.1148588224
 20
-16.6760758112
 10
-22.1483063222
 20
-16.5699150386
 10
-22.1759034137
 20
-16.4617319392
 10
-22.1973966698
 20
-16.3526900781
 10
-22.2127016152
 20
-16.2431773103
 10
-22.2219027252
 20
-16.1328057808
 10
-22.225
 20
-16.0215754896
  0
LWPOLYLINE
  5
21A
100
AcDbEntity
  8
RACCORDO
100
AcDbPolyline
 62
7
  6
CONTINUOUS
 90
13
 70
0
 10
-21.7255203787
 20
17.2358250037
 10
-21.7920856754
 20
17.1464162131
 10
-21.8533060435
 20
17.0538984507
 10
-21.909181483
 20
16.9582717164
 10
-21.9598857122
 20
16.8591761558
 10
-22.0052450128
 20
16.7569716232
 10
-22.0447382296
 20
16.6527376827
 10
-22.0782763747
 20
16.5464454731
 10
-22.1059484359
 20
16.4381238555
 10
-22.1275002223
 20
16.3289389765
 10
-22.1428470032
 20
16.2192795517
 10
-22.1520735092
 20
16.1087568655
 10
-22.1551797403
 20
15.9973709179
  0
LINE
  5
21B
100
AcDbEntity
  8
DRAFT
100
AcDbLine
 62
7
  6
CONTINUOUS
 10
-18.4382149198
 20
20.0698149423
 11
-18.5080351795
 21
20.0349074712
  0
LINE
  5
21C
100
AcDbEntity
  8
DRAFT
100
AcDbLine
 62
7
  6
CONTINUOUS
 10
-18.4382149198
 20
-20.0698149423
 11
-18.5080351795
 21
-20.0349074712
  0
LINE
  5
21D
100
AcDbEntity
  8
RACCORDO
100
AcDbLine
 62
7
  6
CONTINUOUS
 10
-15.0577802714
 20
20.0672197286
 11
-15.125
 21
20.0
  0
LINE
  5
21E
100
AcDbEntity
  8
DRAFT
100
AcDbLine
 62
7
  6
CONTINUOUS
 10
-7.3363830423
 20
-23.5
 11
-7.9272516364
 21
-23.5
  0
LINE
  5
21F
100
AcDbEntity
  8
DRAFT
100
AcDbLine
 62
7
  6
CONTINUOUS
 10
-14.3227483636
 20
-23.5
 11
-14.9136169577
 21
-23.5
  0
LINE
  5
220
100
AcDbEntity
  8
RACCORDO
100
AcDbLine
 62
7
  6
CONTINUOUS
 10
-15.0577802714
 20
-20.0672197286
 11
-15.125
 21
-20.0
  0
LWPOLYLINE
  5
221
100
AcDbEntity
  8
RACCORDO
100
AcDbPolyline
 62
7
  6
CONTINUOUS
 90
13
 70
0
 10
-22.275
 20
-16.119659166
 10
-22.2718859314
 20
-16.2311860772
 10
-22.2626362366
 20
-16.3418465971
 10
-22.2472509158
 20
-16.4516407259
 10
-22.2256447272
 20
-16.5609588341
 10
-22.1979029126
 20
-16.6694105511
 10
-22.1642811968
 20
-16.7758247651
 10
-22.124690118
 20
-16.8801722426
 10
-22.0792191382
 20
-16.9824822171
 10
-22.0283923677
 20
-17.081671278
 10
-21.9723845102
 20
-17.1773782886
 10
-21.9110208621
 20
-17.2699643857
 10
-21.8443014234
 20
-17.3594295692
  0
LWPOLYLINE
  5
222
100
AcDbEntity
  8
RACCORDO
100
AcDbPolyline
 62
7
  6
CONTINUOUS
 90
13
 70
0
 10
-22.1551797403
 20
-15.9973709179
 10
-22.1520735092
 20
-16.1087568655
 10
-22.1428470032
 20
-16.2192795517
 10
-22.1275002223
 20
-16.3289389765
 10
-22.1059484359
 20
-16.4381238555
 10
-22.0782763747
 20
-16.5464454731
 10
-22.0447382296
 20
-16.6527376827
 10
-22.0052450128
 20
-16.7569716232
 10
-21.9598857122
 20
-16.8591761558
 10
-21.909181483
 20
-16.9582717164
 10
-21.8533060435
 20
-17.0538984507
 10
-21.7920856754
 20
-17.1464162131
 10
-21.7255203787
 20
-17.2358250037
  0
LINE
  5
223
100
AcDbEntity
  8
RACCORDO
100
AcDbLine
 62
7
  6
CONTINUOUS
 10
-22.275
 20
-16.1196590187
 11
-22.275
 21
16.1196590187
  0
LINE
  5
224
100
AcDbEntity
  8
RACCORDO
100
AcDbLine
 62
7
  6
CONTINUOUS
 10
-22.225
 20
16.0215754896
 11
-22.225
 21
-16.0215754896
  0
LINE
  5
225
100
AcDbEntity
  8
RACCORDO
100
AcDbLine
 62
7
  6
CONTINUOUS
 10
-22.1551797403
 20
15.9973709179
 11
-22.1551797403
 21
-15.9973709179
  0
LINE
  5
226
100
AcDbEntity
  8
RACCORDO
100
AcDbLine
 62
7
  6
CONTINUOUS
 10
-22.025
 20
-21.3500571074
 11
-22.025
 21
-17.0874682035
  0
LINE
  5
227
100
AcDbEntity
  8
RACCORDO
100
AcDbLine
 62
7
  6
CONTINUOUS
 10
-22.025
 20
17.0874682035
 11
-22.025
 21
21.3500571074
  0
LWPOLYLINE
  5
228
100
AcDbEntity
  8
RACCORDO
100
AcDbPolyline
 62
7
  6
CONTINUOUS
 90
13
 70
0
 10
-22.225
 20
16.0215754896
 10
-22.2219027252
 20
16.1328057808
 10
-22.2127016152
 20
16.2431773103
 10
-22.1973966698
 20
16.3526900781
 10
-22.1759034137
 20
16.4617319392
 10
-22.1483063222
 20
16.5699150386
 10
-22.1148588224
 20
16.6760758112
 10
-22.0754721756
 20
16.7801850927
 10
-22.0302351204
 20
16.8822720474
 10
-21.9796672995
 20
16.9812606035
 10
-21.9239419269
 20
17.0767920704
 10
-21.8628857886
 20
17.1692251386
 10
-21.7964988845
 20
17.2585598083
  0
LINE
  5
229
100
AcDbEntity
  8
DRAFT
100
AcDbLine
 62
7
  6
CONTINUOUS
 10
-7.9970718961
 20
23.4301797403
 11
-7.9272516364
 21
23.5
  0
LINE
  5
22A
100
AcDbEntity
  8
DRAFT
100
AcDbLine
 62
7
  6
CONTINUOUS
 10
-7.9970718961
 20
21.1650925288
 11
-8.025
 21
21.1511295404
  0
LINE
  5
22B
100
AcDbEntity
  8
DRAFT
100
AcDbLine
 62
7
  6
CONTINUOUS
 10
7.4010572757
 20
-20.843017974
 11
9.2410254038
 21
-20.35
  0
LINE
  5
22C
100
AcDbEntity
  8
DRAFT
100
AcDbLine
 62
7
  6
CONTINUOUS
 10
9.2354118688
 20
-20.3073609684
 11
7.5540147964
 21
-20.7580579181
  0
LWPOLYLINE
  5
22D
100
AcDbEntity
  8
RACCORDO
100
AcDbPolyline
 62
7
  6
CONTINUOUS
 90
7
 70
0
 10
-5.7420562152
 20
-22.3998821875
 10
-5.6872521419
 20
-22.3967192955
 10
-5.6342129187
 20
-22.388021885
 10
-5.5829385456
 20
-22.3737899561
 10
-5.5334290228
 20
-22.3540235087
 10
-5.4856843502
 20
-22.3287225427
 10
-5.4397045277
 20
-22.2978870583
  0
LINE
  5
22E
100
AcDbEntity
  8
DRAFT
100
AcDbLine
 62
7
  6
CONTINUOUS
 10
-7.3568249539
 20
-23.4301797403
 11
-7.9970718961
 21
-23.4301797403
  0
LINE
  5
22F
100
AcDbEntity
  8
DRAFT
100
AcDbLine
 62
7
  6
CONTINUOUS
 10
-14.2529281039
 20
-23.4301797403
 11
-14.8931750461
 21
-23.4301797403
  0
LINE
  5
230
100
AcDbEntity
  8
0
100
AcDbLine
 62
7
  6
CONTINUOUS
 10
-14.225
 20
-22.2
 11
-8.025
 21
-22.2
  0
LINE
  5
231
100
AcDbEntity
  8
RACCORDO
100
AcDbLine
 62
7
  6
CONTINUOUS
 10
21.7751522961
 20
-21.85
 11
-4.8669431538
 21
-21.85
  0
LINE
  5
232
100
AcDbEntity
  8
RACCORDO
100
AcDbLine
 62
7
  6
CONTINUOUS
 10
-7.9970718961
 20
-21.85
 11
-8.025
 21
-21.85
  0
LINE
  5
233
100
AcDbEntity
  8
RACCORDO
100
AcDbLine
 62
7
  6
CONTINUOUS
 10
-14.225
 20
-21.85
 11
-14.2529281039
 21
-21.85
  0
LINE
  5
234
100
AcDbEntity
  8
RACCORDO
100
AcDbLine
 62
7
  6
CONTINUOUS
 10
-17.3830568475
 20
-21.85
 11
-21.5251522961
 21
-21.85
  0
LINE
  5
235
100
AcDbEntity
  8
0
100
AcDbLine
 62
7
  6
CONTINUOUS
 10
9.875
 20
-21.45
 11
12.875
 21
-21.45
  0
LINE
  5
236
100
AcDbEntity
  8
DRAFT
100
AcDbLine
 62
7
  6
CONTINUOUS
 10
-8.3005120085
 20
-21.1374937549
 11
-8.025
 21
-21.1511295404
  0
LINE
  5
237
100
AcDbEntity
  8
DRAFT
100
AcDbLine
 62
7
  6
CONTINUOUS
 10
-7.9970718961
 20
-21.1650925288
 11
-8.025
 21
-21.1511295404
  0
LINE
  5
238
100
AcDbEntity
  8
DRAFT
100
AcDbLine
 62
7
  6
CONTINUOUS
 10
-7.9970718961
 20
-23.4301797403
 11
-7.9272516364
 21
-23.5
  0
LINE
  5
239
100
AcDbEntity
  8
DRAFT
100
AcDbLine
 62
7
  6
CONTINUOUS
 10
-21.106076581
 20
14.5
 11
-21.075
 21
-0.0
  0
LINE
  5
23A
100
AcDbEntity
  8
DRAFT
100
AcDbLine
 62
7
  6
CONTINUOUS
 10
-21.1830247758
 20
-16.4319772848
 11
-21.1830247758
 21
16.4319772848
  0
LINE
  5
23B
100
AcDbEntity
  8
RACCORDO
100
AcDbLine
 62
7
  6
CONTINUOUS
 10
-21.1132045161
 20
-16.408165363
 11
-21.1132045161
 21
-14.7
  0
LINE
  5
23C
100
AcDbEntity
  8
RACCORDO
100
AcDbLine
 62
7
  6
CONTINUOUS
 10
-21.1132045161
 20
14.7
 11
-21.1132045161
 21
16.408165363
  0
LINE
  5
23D
100
AcDbEntity
  8
DRAFT
100
AcDbLine
 62
7
  6
CONTINUOUS
 10
-21.075
 20
-20.85
 11
-21.075
 21
-18.2867783841
  0
LINE
  5
23E
100
AcDbEntity
  8
DRAFT
100
AcDbLine
 62
7
  6
CONTINUOUS
 10
-21.075
 20
18.2867783838
 11
-21.075
 21
20.85
  0
LINE
  5
23F
100
AcDbEntity
  8
DRAFT
100
AcDbLine
 62
7
  6
CONTINUOUS
 10
-21.075
 20
-0.0
 11
-21.106076581
 21
-14.5
  0
LINE
  5
240
100
AcDbEntity
  8
RACCORDO
100
AcDbLine
 62
7
  6
CONTINUOUS
 10
-8.0577802714
 20
20.0672197286
 11
-8.125
 21
20.0
  0
LINE
  5
241
100
AcDbEntity
  8
DRAFT
100
AcDbLine
 62
7
  6
CONTINUOUS
 10
-4.478374015
 20
20.0
 11
-4.4126983669
 21
20.0349074712
  0
LINE
  5
242
100
AcDbEntity
  8
DRAFT
100
AcDbLine
 62
7
  6
CONTINUOUS
 10
-4.3567936515
 20
21.1374937549
 11
-4.3040907085
 21
21.1650925288
  0
LINE
  5
243
100
AcDbEntity
  8
DRAFT
100
AcDbLine
 62
7
  6
CONTINUOUS
 10
-3.8057889216
 20
20.6435196952
 11
-3.7419648205
 21
20.671935187
  0
LINE
  5
244
100
AcDbEntity
  8
DRAFT
100
AcDbLine
 62
7
  6
CONTINUOUS
 10
-14.225
 20
-21.1511295404
 11
-13.9494879915
 21
-21.1374937549
  0
LWPOLYLINE
  5
245
100
AcDbEntity
  8
0
100
AcDbPolyline
 62
7
  6
CONTINUOUS
 90
28
 70
0
 10
16.1288771586
 20
-19.1136749998
 10
16.1621194189
 20
-19.1125373802
 10
16.1949441476
 20
-19.109386537
 10
16.2273513447
 20
-19.1042224689
 10
16.259538779
 20
-19.0971582821
 10
16.2913086816
 20
-19.0880808647
 10
16.3220677464
 20
-19.0766508862
 10
16.3517981291
 20
-19.0626924633
 10
16.380517674
 20
-19.0463814653
 10
16.4076866067
 20
-19.0279061882
 10
16.4332418355
 20
-19.0071370548
 10
16.4572464521
 20
-18.9842036226
 10
16.4793499577
 20
-18.9596828924
 10
16.499463187
 20
-18.9335746191
 10
16.5176753053
 20
-18.9058790296
 10
16.5339033091
 20
-18.8771738391
 10
16.5480063887
 20
-18.8474362698
 10
16.5601253538
 20
-18.8166890862
 10
16.5705996301
 20
-18.7855783249
 10
16.5793925209
 20
-18.7542228496
 10
16.586540723
 20
-18.7225037923
 10
16.5924937527
 20
-18.6907105986
 10
16.5972687872
 20
-18.6589526356
 10
16.6008486492
 20
-18.627120536
 10
16.6036313232
 20
-18.5951756455
 10
16.6057494706
 20
-18.5631050789
 10
16.60707043
 20
-18.53092172
 10
16.6075942013
 20
-18.4986255681
  0
LINE
  5
246
100
AcDbEntity
  8
DRAFT
100
AcDbLine
 62
7
  6
CONTINUOUS
 10
-17.9459092915
 20
-21.1650925288
 11
-14.2529281039
 21
-21.1650925288
  0
LINE
  5
247
100
AcDbEntity
  8
DRAFT
100
AcDbLine
 62
7
  6
CONTINUOUS
 10
-7.9970718961
 20
-21.1650925288
 11
-4.3040907085
 21
-21.1650925288
  0
LINE
  5
248
100
AcDbEntity
  8
DRAFT
100
AcDbLine
 62
7
  6
CONTINUOUS
 10
-4.3567936515
 20
-21.1374937549
 11
-8.3005120085
 21
-21.1374937549
  0
LINE
  5
249
100
AcDbEntity
  8
DRAFT
100
AcDbLine
 62
7
  6
CONTINUOUS
 10
-13.9494879915
 20
-21.1374937549
 11
-17.8932063485
 21
-21.1374937549
  0
LINE
  5
24A
100
AcDbEntity
  8
DRAFT
100
AcDbLine
 62
7
  6
CONTINUOUS
 10
21.325
 20
-20.85
 11
18.3241376746
 21
-20.85
  0
LINE
  5
24B
100
AcDbEntity
  8
DRAFT
100
AcDbLine
 62
7
  6
CONTINUOUS
 10
15.4258623254
 20
-20.85
 11
12.875
 21
-20.85
  0
LINE
  5
24C
100
AcDbEntity
  8
DRAFT
100
AcDbLine
 62
7
  6
CONTINUOUS
 10
9.875
 20
-20.85
 11
1.375543925
 21
-20.85
  0
LINE
  5
24D
100
AcDbEntity
  8
DRAFT
100
AcDbLine
 62
7
  6
CONTINUOUS
 10
0.674456075
 20
-20.85
 11
-3.6876055168
 21
-20.85
  0
LINE
  5
24E
100
AcDbEntity
  8
DRAFT
100
AcDbLine
 62
7
  6
CONTINUOUS
 10
-18.5623944799
 20
-20.85
 11
-21.075
 21
-20.85
  0
LINE
  5
24F
100
AcDbEntity
  8
DRAFT
100
AcDbLine
 62
7
  6
CONTINUOUS
 10
21.2790324601
 20
-20.7580579181
 11
18.5204660744
 21
-20.7580579181
  0
LINE
  5
250
100
AcDbEntity
  8
DRAFT
100
AcDbLine
 62
7
  6
CONTINUOUS
 10
15.2295339256
 20
-20.7580579181
 11
15.1959852036
 21
-20.7580579181
  0
LINE
  5
251
100
AcDbEntity
  8
DRAFT
100
AcDbLine
 62
7
  6
CONTINUOUS
 10
7.5540147964
 20
-20.7580579181
 11
1.4215114649
 21
-20.7580579181
  0
LINE
  5
252
100
AcDbEntity
  8
DRAFT
100
AcDbLine
 62
7
  6
CONTINUOUS
 10
0.6284885351
 20
-20.7580579181
 11
-3.5850202049
 21
-20.7580579181
  0
LINE
  5
253
100
AcDbEntity
  8
DRAFT
100
AcDbLine
 62
7
  6
CONTINUOUS
 10
-18.6649797986
 20
-20.7580579181
 11
-21.0290324601
 21
-20.7580579181
  0
LINE
  5
254
100
AcDbEntity
  8
DRAFT
100
AcDbLine
 62
7
  6
CONTINUOUS
 10
9.2410254038
 20
-20.35
 11
13.5089745962
 21
-20.35
  0
LINE
  5
255
100
AcDbEntity
  8
DRAFT
100
AcDbLine
 62
7
  6
CONTINUOUS
 10
13.5145881312
 20
-20.3073609684
 11
9.2354118688
 21
-20.3073609684
  0
LINE
  5
256
100
AcDbEntity
  8
DRAFT
100
AcDbLine
 62
7
  6
CONTINUOUS
 10
-18.4382149198
 20
-20.3
 11
-3.8117850802
 21
-20.3
  0
LINE
  5
257
100
AcDbEntity
  8
RACCORDO
100
AcDbLine
 62
7
  6
CONTINUOUS
 10
-3.8117850802
 20
-20.0698149423
 11
-7.4922083055
 21
-20.0698149423
  0
LINE
  5
258
100
AcDbEntity
  8
RACCORDO
100
AcDbLine
 62
7
  6
CONTINUOUS
 10
-7.7577916945
 20
-20.0698149423
 11
-14.4922083055
 21
-20.0698149423
  0
LINE
  5
259
100
AcDbEntity
  8
RACCORDO
100
AcDbLine
 62
7
  6
CONTINUOUS
 10
-14.7577916945
 20
-20.0698149423
 11
-18.4382149198
 21
-20.0698149423
  0
LINE
  5
25A
100
AcDbEntity
  8
DRAFT
100
AcDbLine
 62
7
  6
CONTINUOUS
 10
-18.5080351795
 20
-20.0349074712
 11
-17.8373016331
 21
-20.0349074712
  0
LINE
  5
25B
100
AcDbEntity
  8
DRAFT
100
AcDbLine
 62
7
  6
CONTINUOUS
 10
-4.4126983669
 20
-20.0349074712
 11
-3.7419648205
 21
-20.0349074712
  0
LINE
  5
25C
100
AcDbEntity
  8
DRAFT
100
AcDbLine
 62
7
  6
CONTINUOUS
 10
-17.771625985
 20
-20.0
 11
-15.125
 21
-20.0
  0
LINE
  5
25D
100
AcDbEntity
  8
DRAFT
100
AcDbLine
 62
7
  6
CONTINUOUS
 10
-14.125
 20
-20.0
 11
-8.125
 21
-20.0
  0
LINE
  5
25E
100
AcDbEntity
  8
DRAFT
100
AcDbLine
 62
7
  6
CONTINUOUS
 10
-7.125
 20
-20.0
 11
-4.478374015
 21
-20.0
  0
LINE
  5
25F
100
AcDbEntity
  8
RACCORDO
100
AcDbLine
 62
250
  6
CONTINUOUS
 10
-7.1922197286
 20
-19.8501037691
 11
-8.0577802714
 21
-19.8501037691
  0
LINE
  5
260
100
AcDbEntity
  8
RACCORDO
100
AcDbLine
 62
250
  6
CONTINUOUS
 10
-14.1922197286
 20
-19.8501037691
 11
-15.0577802714
 21
-19.8501037691
  0
LINE
  5
261
100
AcDbEntity
  8
RACCORDO
100
AcDbLine
 62
250
  6
CONTINUOUS
 10
-7.4910598849
 20
-19.3802574587
 11
-7.7589401151
 21
-19.3802574587
  0
LINE
  5
262
100
AcDbEntity
  8
RACCORDO
100
AcDbLine
 62
250
  6
CONTINUOUS
 10
-14.4910598849
 20
-19.3802574587
 11
-14.7589401151
 21
-19.3802574587
  0
LINE
  5
263
100
AcDbEntity
  8
0
100
AcDbLine
 62
7
  6
CONTINUOUS
 10
17.363399
 20
-19.298626
 11
17.131579
 21
-19.298626
  0
LINE
  5
264
100
AcDbEntity
  8
0
100
AcDbLine
 62
7
  6
CONTINUOUS
 10
16.157808566
 20
-19.298626
 11
15.509344
 21
-19.298626
  0
LINE
  5
265
100
AcDbEntity
  8
0
100
AcDbLine
 62
7
  6
CONTINUOUS
 10
15.15953
 20
-19.298626
 11
14.916719
 21
-19.298626
  0
LINE
  5
266
100
AcDbEntity
  8
0
100
AcDbLine
 62
7
  6
CONTINUOUS
 10
14.098843
 20
-19.298626
 11
13.889384
 21
-19.298626
  0
LINE
  5
267
100
AcDbEntity
  8
0
100
AcDbLine
 62
7
  6
CONTINUOUS
 10
13.606399
 20
-19.298626
 11
12.425317
 21
-19.298626
  0
LINE
  5
268
100
AcDbEntity
  8
0
100
AcDbLine
 62
7
  6
CONTINUOUS
 10
11.155171
 20
-19.298626
 11
10.939017
 21
-19.298626
  0
LINE
  5
269
100
AcDbEntity
  8
0
100
AcDbLine
 62
7
  6
CONTINUOUS
 10
9.934042
 20
-19.298626
 11
9.702349
 21
-19.298626
  0
LINE
  5
26A
100
AcDbEntity
  8
0
100
AcDbLine
 62
7
  6
CONTINUOUS
 10
8.935764
 20
-19.298626
 11
8.719609
 21
-19.298626
  0
LINE
  5
26B
100
AcDbEntity
  8
0
100
AcDbLine
 62
7
  6
CONTINUOUS
 10
8.118014
 20
-19.298626
 11
7.881899
 21
-19.298626
  0
LINE
  5
26C
100
AcDbEntity
  8
0
100
AcDbLine
 62
7
  6
CONTINUOUS
 10
6.914698
 20
-19.298626
 11
6.691847
 21
-19.298626
  0
LINE
  5
26D
100
AcDbEntity
  8
0
100
AcDbLine
 62
7
  6
CONTINUOUS
 10
5.582143
 20
-19.298626
 11
5.365989
 21
-19.298626
  0
LINE
  5
26E
100
AcDbEntity
  8
DRAFT
100
AcDbLine
 62
7
  6
CONTINUOUS
 10
-3.8057889216
 20
-20.6435196952
 11
-3.7419648205
 21
-20.671935187
  0
LINE
  5
26F
100
AcDbEntity
  8
DRAFT
100
AcDbLine
 62
7
  6
CONTINUOUS
 10
-4.3567936515
 20
-21.1374937549
 11
-4.3040907085
 21
-21.1650925288
  0
LINE
  5
270
100
AcDbEntity
  8
DRAFT
100
AcDbLine
 62
7
  6
CONTINUOUS
 10
-4.478374015
 20
-20.0
 11
-4.4126983669
 21
-20.0349074712
  0
LINE
  5
271
100
AcDbEntity
  8
RACCORDO
100
AcDbLine
 62
7
  6
CONTINUOUS
 10
-8.0577802714
 20
-20.0672197286
 11
-8.125
 21
-20.0
  0
LINE
  5
272
100
AcDbEntity
  8
DRAFT
100
AcDbLine
 62
7
  6
CONTINUOUS
 10
-18.4442110784
 20
20.6435196952
 11
-18.4382149198
 21
20.3
  0
LINE
  5
273
100
AcDbEntity
  8
DRAFT
100
AcDbLine
 62
7
  6
CONTINUOUS
 10
-18.5080351795
 20
-20.671935187
 11
-18.5080351795
 21
-20.0349074712
  0
LINE
  5
274
100
AcDbEntity
  8
DRAFT
100
AcDbLine
 62
7
  6
CONTINUOUS
 10
-18.5080351795
 20
20.0349074712
 11
-18.5080351795
 21
20.671935187
  0
LINE
  5
275
100
AcDbEntity
  8
DRAFT
100
AcDbLine
 62
7
  6
CONTINUOUS
 10
-18.4382149198
 20
-20.3
 11
-18.4382149198
 21
-20.0698149423
  0
LINE
  5
276
100
AcDbEntity
  8
DRAFT
100
AcDbLine
 62
7
  6
CONTINUOUS
 10
-18.4382149198
 20
20.0698149423
 11
-18.4382149198
 21
20.3
  0
LINE
  5
277
100
AcDbEntity
  8
DRAFT
100
AcDbLine
 62
7
  6
CONTINUOUS
 10
-18.4442110784
 20
-20.6435196952
 11
-18.4382149198
 21
-20.3
  0
LWPOLYLINE
  5
278
100
AcDbEntity
  8
0
100
AcDbPolyline
 62
7
  6
CONTINUOUS
 90
22
 70
0
 10
11.5941782947
 20
-18.4384280002
 10
11.6248270453
 20
-18.4376432254
 10
11.6542320608
 20
-18.4354540653
 10
11.6823933414
 20
-18.4318605193
 10
11.7094453765
 20
-18.4269600468
 10
11.7352536767
 20
-18.4206551858
 10
11.7594147725
 20
-18.4126535522
 10
11.781918477
 20
-18.4027113427
 10
11.8027749773
 20
-18.3910723534
 10
11.8216113655
 20
-18.3781755997
 10
11.8382218926
 20
-18.3640123858
 10
11.8528123077
 20
-18.3485913999
 10
11.8656269495
 20
-18.3323777345
 10
11.8767003361
 20
-18.315450777
 10
11.8859979494
 20
-18.2977311344
 10
11.8936605745
 20
-18.2794457311
 10
11.8995680075
 20
-18.2605703509
 10
11.9038404523
 20
-18.2411292053
 10
11.9069793064
 20
-18.221421862
 10
11.9091517023
 20
-18.2015481765
 10
11.9101905075
 20
-18.1814082914
 10
11.9100957221
 20
-18.1610022053
  0
LWPOLYLINE
  5
279
100
AcDbEntity
  8
0
100
AcDbPolyline
 62
7
  6
CONTINUOUS
 90
22
 70
0
 10
6.0211502647
 20
-18.4384280002
 10
6.0517990154
 20
-18.4376432254
 10
6.0812040311
 20
-18.4354540653
 10
6.1093653117
 20
-18.4318605192
 10
6.136417347
 20
-18.4269600467
 10
6.1622256472
 20
-18.4206551857
 10
6.1863867431
 20
-18.412653552
 10
6.2088904477
 20
-18.4027113424
 10
6.229746948
 20
-18.391072353
 10
6.2485833361
 20
-18.3781755991
 10
6.2651938633
 20
-18.3640123852
 10
6.2797842783
 20
-18.3485913991
 10
6.2925989201
 20
-18.3323777336
 10
6.3036723066
 20
-18.315450776
 10
6.3129699199
 20
-18.2977311334
 10
6.320632545
 20
-18.27944573
 10
6.3265399778
 20
-18.2605703497
 10
6.3308124225
 20
-18.241129204
 10
6.3339512765
 20
-18.2214218605
 10
6.3361236724
 20
-18.2015481749
 10
6.3371624776
 20
-18.1814082897
 10
6.3370676921
 20
-18.1610022036
  0
LINE
  5
27A
100
AcDbEntity
  8
0
100
AcDbLine
 62
7
  6
CONTINUOUS
 10
16.1288784436
 20
-19.113675
 11
15.725499
 21
-19.113675
  0
LINE
  5
27B
100
AcDbEntity
  8
0
100
AcDbLine
 62
7
  6
CONTINUOUS
 10
13.606399
 20
-19.106979
 11
12.641472
 21
-19.106979
  0
LINE
  5
27C
100
AcDbEntity
  8
0
100
AcDbLine
 62
7
  6
CONTINUOUS
 10
17.363399
 20
-19.062384
 11
17.131579
 21
-19.062384
  0
LINE
  5
27D
100
AcDbEntity
  8
0
100
AcDbLine
 62
7
  6
CONTINUOUS
 10
9.934042
 20
-19.062384
 11
9.702349
 21
-19.062384
  0
LINE
  5
27E
100
AcDbEntity
  8
0
100
AcDbLine
 62
7
  6
CONTINUOUS
 10
7.723604
 20
-18.832838
 11
7.081835
 21
-18.832838
  0
LINE
  5
27F
100
AcDbEntity
  8
0
100
AcDbLine
 62
7
  6
CONTINUOUS
 10
7.645531
 20
-18.641192
 11
7.148665
 21
-18.641192
  0
LINE
  5
280
100
AcDbEntity
  8
0
100
AcDbLine
 62
7
  6
CONTINUOUS
 10
11.6587095262
 20
-18.623379
 11
11.155171
 21
-18.623379
  0
LINE
  5
281
100
AcDbEntity
  8
0
100
AcDbLine
 62
7
  6
CONTINUOUS
 10
6.0856814962
 20
-18.623379
 11
5.582143
 21
-18.623379
  0
LINE
  5
282
100
AcDbEntity
  8
0
100
AcDbLine
 62
7
  6
CONTINUOUS
 10
13.517335
 20
-18.572214
 11
12.641472
 21
-18.572214
  0
LINE
  5
283
100
AcDbEntity
  8
0
100
AcDbLine
 62
7
  6
CONTINUOUS
 10
11.5941765091
 20
-18.438428
 11
11.155171
 21
-18.438428
  0
LINE
  5
284
100
AcDbEntity
  8
0
100
AcDbLine
 62
7
  6
CONTINUOUS
 10
6.0211484791
 20
-18.438428
 11
5.582143
 21
-18.438428
  0
LINE
  5
285
100
AcDbEntity
  8
0
100
AcDbLine
 62
7
  6
CONTINUOUS
 10
13.517335
 20
-18.380568
 11
12.641472
 21
-18.380568
  0
LINE
  5
286
100
AcDbEntity
  8
0
100
AcDbLine
 62
7
  6
CONTINUOUS
 10
13.59086
 20
-17.890272
 11
12.641472
 21
-17.890272
  0
LINE
  5
287
100
AcDbEntity
  8
0
100
AcDbLine
 62
7
  6
CONTINUOUS
 10
9.477224
 20
-17.890272
 11
8.935764
 21
-17.890272
  0
LINE
  5
288
100
AcDbEntity
  8
0
100
AcDbLine
 62
7
  6
CONTINUOUS
 10
8.719609
 20
-17.890272
 11
8.178148
 21
-17.890272
  0
LINE
  5
289
100
AcDbEntity
  8
0
100
AcDbLine
 62
7
  6
CONTINUOUS
 10
16.1288784436
 20
-17.883576
 11
15.725499
 21
-17.883576
  0
LINE
  5
28A
100
AcDbEntity
  8
0
100
AcDbLine
 62
7
  6
CONTINUOUS
 10
11.5941765091
 20
-17.883576
 11
11.155171
 21
-17.883576
  0
LINE
  5
28B
100
AcDbEntity
  8
0
100
AcDbLine
 62
7
  6
CONTINUOUS
 10
6.0211484791
 20
-17.883576
 11
5.582143
 21
-17.883576
  0
LINE
  5
28C
100
AcDbEntity
  8
0
100
AcDbLine
 62
7
  6
CONTINUOUS
 10
16.157808566
 20
-17.698626
 11
15.509344
 21
-17.698626
  0
LINE
  5
28D
100
AcDbEntity
  8
0
100
AcDbLine
 62
7
  6
CONTINUOUS
 10
15.15953
 20
-17.698626
 11
14.950071
 21
-17.698626
  0
LINE
  5
28E
100
AcDbEntity
  8
0
100
AcDbLine
 62
7
  6
CONTINUOUS
 10
14.145712
 20
-17.698626
 11
13.889384
 21
-17.698626
  0
LINE
  5
28F
100
AcDbEntity
  8
0
100
AcDbLine
 62
7
  6
CONTINUOUS
 10
13.59086
 20
-17.698626
 11
12.425317
 21
-17.698626
  0
LINE
  5
290
100
AcDbEntity
  8
0
100
AcDbLine
 62
7
  6
CONTINUOUS
 10
11.6587821993
 20
-17.698626
 11
10.939017
 21
-17.698626
  0
LINE
  5
291
100
AcDbEntity
  8
0
100
AcDbLine
 62
7
  6
CONTINUOUS
 10
9.477224
 20
-17.698626
 11
8.178148
 21
-17.698626
  0
LINE
  5
292
100
AcDbEntity
  8
0
100
AcDbLine
 62
7
  6
CONTINUOUS
 10
7.538653
 20
-17.698626
 11
7.293569
 21
-17.698626
  0
LINE
  5
293
100
AcDbEntity
  8
0
100
AcDbLine
 62
7
  6
CONTINUOUS
 10
6.0857541693
 20
-17.698626
 11
5.365989
 21
-17.698626
  0
LWPOLYLINE
  5
294
100
AcDbEntity
  8
0
100
AcDbPolyline
 62
7
  6
CONTINUOUS
 90
31
 70
0
 10
16.1578140037
 20
-17.6986259994
 10
16.1975277815
 20
-17.6998832177
 10
16.2368525179
 20
-17.7032902559
 10
16.275788213
 20
-17.7088471124
 10
16.3144615398
 20
-17.7165546949
 10
16.3527458253
 20
-17.7264120896
 10
16.3902610502
 20
-17.7384165609
 10
16.4270363349
 20
-17.7525410484
 10
16.463042559
 20
-17.7688126005
 10
16.4978123417
 20
-17.7873096431
 10
16.5313770694
 20
-17.8081124352
 10
16.5637053558
 20
-17.8311406986
 10
16.5942356607
 20
-17.8562320532
 10
16.6228752464
 20
-17.8835127889
 10
16.6497168506
 20
-17.9128565917
 10
16.6744771472
 20
-17.9437221784
 10
16.6969808613
 20
-17.9761376602
 10
16.7174032678
 20
-18.0100749045
 10
16.7359868641
 20
-18.0449082696
 10
16.7527267817
 20
-18.0805966425
 10
16.7676278892
 20
-18.1171811222
 10
16.7809472893
 20
-18.1541593937
 10
16.7928184171
 20
-18.1914014996
 10
16.8031078374
 20
-18.229037391
 10
16.8116723471
 20
-18.26695462
 10
16.8183371489
 20
-18.3051718319
 10
16.8232770402
 20
-18.343670376
 10
16.8268732101
 20
-18.382281862
 10
16.8292527216
 20
-18.4209501596
 10
16.8302885117
 20
-18.459731397
 10
16.8299805805
 20
-18.498625573
  0
LWPOLYLINE
  5
295
100
AcDbEntity
  8
0
100
AcDbPolyline
 62
7
  6
CONTINUOUS
 90
16
 70
0
 10
6.0857541693
 20
-17.698626
 10
6.1420970645
 20
-17.7019141171
 10
6.1953987737
 20
-17.7093817542
 10
6.245659297
 20
-17.7210289045
 10
6.2930361377
 20
-17.7368253144
 10
6.3373717924
 20
-17.7568012129
 10
6.378193751
 20
-17.781047312
 10
6.4156272572
 20
-17.809783274
 10
6.4495470672
 20
-17.8427893869
 10
6.4791049403
 20
-17.8794972976
 10
6.5041439848
 20
-17.9202857639
 10
6.5248210923
 20
-17.9647759634
 10
6.5407586966
 20
-18.0112631888
 10
6.5518309423
 20
-18.0591791976
 10
6.5581636848
 20
-18.1090921942
 10
6.5597569241
 20
-18.1610021562
  0
LWPOLYLINE
  5
296
100
AcDbEntity
  8
0
100
AcDbPolyline
 62
7
  6
CONTINUOUS
 90
16
 70
0
 10
11.6587821993
 20
-17.698626
 10
11.7151250945
 20
-17.7019141171
 10
11.7684268037
 20
-17.7093817542
 10
11.818687327
 20
-17.7210289045
 10
11.8660641677
 20
-17.7368253144
 10
11.9103998224
 20
-17.7568012129
 10
11.951221781
 20
-17.781047312
 10
11.9886552872
 20
-17.809783274
 10
12.0225750972
 20
-17.8427893869
 10
12.0521329703
 20
-17.8794972976
 10
12.0771720148
 20
-17.9202857639
 10
12.0978491223
 20
-17.9647759634
 10
12.1137867267
 20
-18.0112631888
 10
12.1248589723
 20
-18.0591791976
 10
12.1311917148
 20
-18.1090921942
 10
12.1327849541
 20
-18.1610021562
  0
LWPOLYLINE
  5
297
100
AcDbEntity
  8
RACCORDO
100
AcDbPolyline
 62
250
  6
CONTINUOUS
 90
13
 70
0
 10
-14.1910713079
 20
-19.6621652449
 10
-14.193744652
 20
-19.6254383745
 10
-14.2014858274
 20
-19.5893375031
 10
-14.2141628923
 20
-19.554477983
 10
-14.2315597697
 20
-19.5214540105
 10
-14.2533799322
 20
-19.4908284932
 10
-14.2792514584
 20
-19.4631234553
 10
-14.3087333703
 20
-19.4388111444
 10
-14.3413231404
 20
-19.4183059859
 10
-14.3764652591
 20
-19.4019575115
 10
-14.4135607129
 20
-19.3900443958
 10
-14.4519771971
 20
-19.3827697089
 10
-14.4910598849
 20
-19.3802574587
  0
LINE
  5
298
100
AcDbEntity
  8
RACCORDO
100
AcDbLine
 62
250
  6
CONTINUOUS
 10
-14.7589401151
 20
-19.3802574587
 11
-14.8258840059
 21
-16.5882381259
  0
LINE
  5
299
100
AcDbEntity
  8
RACCORDO
100
AcDbLine
 62
250
  6
CONTINUOUS
 10
-15.0588253313
 20
-19.6668029005
 11
-15.125
 21
-16.9065385979
  0
LINE
  5
29A
100
AcDbEntity
  8
RACCORDO
100
AcDbLine
 62
250
  6
CONTINUOUS
 10
-15.0586235895
 20
-19.678886964
 11
-15.0588253313
 21
-19.6668029005
  0
LINE
  5
29B
100
AcDbEntity
  8
RACCORDO
100
AcDbLine
 62
250
  6
CONTINUOUS
 10
-15.0583334262
 20
-19.7040349405
 11
-15.0586235895
 21
-19.678886964
  0
LINE
  5
29C
100
AcDbEntity
  8
RACCORDO
100
AcDbLine
 62
250
  6
CONTINUOUS
 10
-15.0579619177
 20
-19.7613645642
 11
-15.0583334262
 21
-19.7040349405
  0
LINE
  5
29D
100
AcDbEntity
  8
RACCORDO
100
AcDbLine
 62
250
  6
CONTINUOUS
 10
-14.7584375929
 20
-19.4617809412
 11
-14.7589401151
 21
-19.3802574587
  0
LINE
  5
29E
100
AcDbEntity
  8
RACCORDO
100
AcDbLine
 62
250
  6
CONTINUOUS
 10
-14.7582572025
 20
-19.5103034779
 11
-14.7584375929
 21
-19.4617809412
  0
LINE
  5
29F
100
AcDbEntity
  8
RACCORDO
100
AcDbLine
 62
250
  6
CONTINUOUS
 10
-15.0577802714
 20
-19.8501037691
 11
-15.0579619177
 21
-19.7613645642
  0
LINE
  5
2A0
100
AcDbEntity
  8
RACCORDO
100
AcDbLine
 62
7
  6
CONTINUOUS
 10
-15.125
 20
20.0
 11
-15.125
 21
16.9065385979
  0
LINE
  5
2A1
100
AcDbEntity
  8
RACCORDO
100
AcDbLine
 62
7
  6
CONTINUOUS
 10
-15.125
 20
-16.9065385979
 11
-15.125
 21
-20.0
  0
LINE
  5
2A2
100
AcDbEntity
  8
RACCORDO
100
AcDbLine
 62
7
  6
CONTINUOUS
 10
-15.0577802714
 20
-20.0672197286
 11
-15.0577802714
 21
-19.8501037691
  0
LINE
  5
2A3
100
AcDbEntity
  8
RACCORDO
100
AcDbLine
 62
7
  6
CONTINUOUS
 10
-15.0577802714
 20
19.8501037691
 11
-15.0577802714
 21
20.0672197286
  0
LINE
  5
2A4
100
AcDbEntity
  8
RACCORDO
100
AcDbLine
 62
250
  6
CONTINUOUS
 10
-15.0579731001
 20
19.7588240983
 11
-15.0577802714
 21
19.8501037691
  0
LINE
  5
2A5
100
AcDbEntity
  8
RACCORDO
100
AcDbLine
 62
250
  6
CONTINUOUS
 10
-15.0583506324
 20
19.7022148453
 11
-15.0579731001
 21
19.7588240983
  0
LWPOLYLINE
  5
2A6
100
AcDbEntity
  8
RACCORDO
100
AcDbPolyline
 62
250
  6
CONTINUOUS
 90
3
 70
0
 10
-14.7589401151
 20
19.3802574587
 10
-14.7588418465
 20
19.3913319166
 10
-14.7582746258
 20
19.5049297437
  0
LINE
  5
2A7
100
AcDbEntity
  8
RACCORDO
100
AcDbLine
 62
250
  6
CONTINUOUS
 10
-15.0586361082
 20
19.678027854
 11
-15.0583506324
 21
19.7022148453
  0
LINE
  5
2A8
100
AcDbEntity
  8
RACCORDO
100
AcDbLine
 62
250
  6
CONTINUOUS
 10
-15.0588303743
 20
19.6665278499
 11
-15.0586361082
 21
19.678027854
  0
LINE
  5
2A9
100
AcDbEntity
  8
RACCORDO
100
AcDbLine
 62
250
  6
CONTINUOUS
 10
-15.125
 20
16.9065385979
 11
-15.0588303743
 21
19.6665278499
  0
LINE
  5
2AA
100
AcDbEntity
  8
RACCORDO
100
AcDbLine
 62
250
  6
CONTINUOUS
 10
-14.8258840059
 20
16.5882381259
 11
-14.7589401151
 21
19.3802574587
  0
LWPOLYLINE
  5
2AB
100
AcDbEntity
  8
RACCORDO
100
AcDbPolyline
 62
250
  6
CONTINUOUS
 90
13
 70
0
 10
-14.1910713079
 20
19.6621652449
 10
-14.1937446698
 20
19.6254382492
 10
-14.2014858912
 20
19.5893372802
 10
-14.2141630198
 20
19.5544776936
 10
-14.2315599688
 20
19.5214536854
 10
-14.2533802001
 20
19.4908281633
 10
-14.279251779
 20
19.4631231519
 10
-14.3087337137
 20
19.4388108945
 10
-14.3413234725
 20
19.4183058033
 10
-14.3764655499
 20
19.4019573962
 10
-14.4135609346
 20
19.3900443384
 10
-14.4519773206
 20
19.3827696928
 10
-14.4910598849
 20
19.3802574587
  0
LINE
  5
2AC
100
AcDbEntity
  8
0
100
AcDbLine
 62
7
  6
CONTINUOUS
 10
-14.289157
 20
10.151155
 11
-13.880163
 21
11.425037
  0
LINE
  5
2AD
100
AcDbEntity
  8
0
100
AcDbLine
 62
7
  6
CONTINUOUS
 10
-13.510145
 20
11.425037
 11
-14.104148
 21
9.574954
  0
LINE
  5
2AE
100
AcDbEntity
  8
RACCORDO
100
AcDbLine
 62
250
  6
CONTINUOUS
 10
-0.025
 20
16.0215754898
 11
-0.0948202597
 21
15.9973709177
  0
LINE
  5
2AF
100
AcDbEntity
  8
DRAFT
100
AcDbLine
 62
7
  6
CONTINUOUS
 10
-1.1367954839
 20
16.408165363
 11
-1.0669752242
 21
16.4319772848
  0
LINE
  5
2B0
100
AcDbEntity
  8
RACCORDO
100
AcDbLine
 62
250
  6
CONTINUOUS
 10
-0.4535011149
 20
17.2585598075
 11
-0.5244796219
 21
17.2358250044
  0
LINE
  5
2B1
100
AcDbEntity
  8
RACCORDO
100
AcDbLine
 62
7
  6
CONTINUOUS
 10
-7.8258840059
 20
-16.5882381259
 11
-7.4241159941
 21
-16.5882381259
  0
LINE
  5
2B2
100
AcDbEntity
  8
RACCORDO
100
AcDbLine
 62
7
  6
CONTINUOUS
 10
-14.4241159941
 20
-16.5882381259
 11
-14.8258840059
 21
-16.5882381259
  0
LINE
  5
2B3
100
AcDbEntity
  8
DRAFT
100
AcDbLine
 62
7
  6
CONTINUOUS
 10
13.5089745962
 20
-20.35
 11
15.3489427243
 21
-20.843017974
  0
LINE
  5
2B4
100
AcDbEntity
  8
DRAFT
100
AcDbLine
 62
7
  6
CONTINUOUS
 10
13.5145881312
 20
-20.3073609684
 11
15.1959852036
 21
-20.7580579181
  0
LINE
  5
2B5
100
AcDbEntity
  8
RACCORDO
100
AcDbLine
 62
250
  6
CONTINUOUS
 10
-0.5244796219
 20
-17.2358250044
 11
-0.4535011149
 21
-17.2585598076
  0
LINE
  5
2B6
100
AcDbEntity
  8
DRAFT
100
AcDbLine
 62
7
  6
CONTINUOUS
 10
-1.1367954839
 20
-16.408165363
 11
-1.0669752242
 21
-16.4319772848
  0
LINE
  5
2B7
100
AcDbEntity
  8
RACCORDO
100
AcDbLine
 62
250
  6
CONTINUOUS
 10
-0.0948202597
 20
-15.9973709177
 11
-0.025
 21
-16.0215754898
  0
LWPOLYLINE
  5
2B8
100
AcDbEntity
  8
RACCORDO
100
AcDbPolyline
 62
250
  6
CONTINUOUS
 90
13
 70
0
 10
-15.0589286921
 20
19.6621652449
 10
-15.0562553303
 20
19.6254382497
 10
-15.0485141091
 20
19.589337281
 10
-15.0358369807
 20
19.5544776947
 10
-15.0184400319
 20
19.5214536866
 10
-14.9966198009
 20
19.4908281645
 10
-14.9707482223
 20
19.463123153
 10
-14.9412662877
 20
19.4388108954
 10
-14.9086765287
 20
19.418305804
 10
-14.8735344512
 20
19.4019573966
 10
-14.8364390663
 20
19.3900443386
 10
-14.7980226799
 20
19.3827696928
 10
-14.7589401151
 20
19.3802574587
  0
LINE
  5
2B9
100
AcDbEntity
  8
RACCORDO
100
AcDbLine
 62
7
  6
CONTINUOUS
 10
-13.694142774
 20
4.5705002888
 11
-13.6424162707
 21
3.7764571353
  0
LINE
  5
2BA
100
AcDbEntity
  8
DRAFT
100
AcDbLine
 62
7
  6
CONTINUOUS
 10
-13.694142774
 20
4.5705002888
 11
-13.7214193998
 21
4.9892182871
  0
LINE
  5
2BB
100
AcDbEntity
  8
RACCORDO
100
AcDbLine
 62
250
  6
CONTINUOUS
 10
-14.4910598849
 20
19.3802574587
 11
-14.4241159941
 21
16.5882381259
  0
LINE
  5
2BC
100
AcDbEntity
  8
RACCORDO
100
AcDbLine
 62
250
  6
CONTINUOUS
 10
-14.1911700053
 20
19.6665484372
 11
-14.125
 21
16.9065385979
  0
LINE
  5
2BD
100
AcDbEntity
  8
RACCORDO
100
AcDbLine
 62
250
  6
CONTINUOUS
 10
-14.1913648315
 20
19.678091689
 11
-14.1911700053
 21
19.6665484372
  0
LINE
  5
2BE
100
AcDbEntity
  8
RACCORDO
100
AcDbLine
 62
250
  6
CONTINUOUS
 10
-14.1916506493
 20
19.7023487345
 11
-14.1913648315
 21
19.678091689
  0
LINE
  5
2BF
100
AcDbEntity
  8
RACCORDO
100
AcDbLine
 62
250
  6
CONTINUOUS
 10
-14.192027728
 20
19.7590098183
 11
-14.1916506493
 21
19.7023487345
  0
LINE
  5
2C0
100
AcDbEntity
  8
RACCORDO
100
AcDbLine
 62
250
  6
CONTINUOUS
 10
-14.4915469838
 20
19.4581810583
 11
-14.4910598849
 21
19.3802574587
  0
LINE
  5
2C1
100
AcDbEntity
  8
DRAFT
100
AcDbLine
 62
7
  6
CONTINUOUS
 10
-13.7107264449
 20
-0.0
 11
-13.7214193998
 21
4.9892182871
  0
LINE
  5
2C2
100
AcDbEntity
  8
RACCORDO
100
AcDbLine
 62
250
  6
CONTINUOUS
 10
-14.1922197286
 20
19.8501037691
 11
-14.192027728
 21
19.7590098183
  0
LINE
  5
2C3
100
AcDbEntity
  8
RACCORDO
100
AcDbLine
 62
250
  6
CONTINUOUS
 10
-14.7577916945
 20
-20.0698149423
 11
-14.7582572025
 21
-19.5103034779
  0
LINE
  5
2C4
100
AcDbEntity
  8
RACCORDO
100
AcDbLine
 62
250
  6
CONTINUOUS
 10
-14.4922083055
 20
20.0698149423
 11
-14.4915469838
 21
19.4581810583
  0
LINE
  5
2C5
100
AcDbEntity
  8
DRAFT
100
AcDbLine
 62
7
  6
CONTINUOUS
 10
-14.2529281039
 20
23.4301797403
 11
-14.2529281039
 21
21.1650925288
  0
LINE
  5
2C6
100
AcDbEntity
  8
DRAFT
100
AcDbLine
 62
7
  6
CONTINUOUS
 10
-14.2529281039
 20
-23.4301797403
 11
-14.2529281039
 21
-21.1650925288
  0
LINE
  5
2C7
100
AcDbEntity
  8
DRAFT
100
AcDbLine
 62
7
  6
CONTINUOUS
 10
-14.225
 20
-21.1511295404
 11
-14.225
 21
-22.2
  0
LINE
  5
2C8
100
AcDbEntity
  8
DRAFT
100
AcDbLine
 62
7
  6
CONTINUOUS
 10
-14.225
 20
21.1511295404
 11
-14.225
 21
22.2
  0
LINE
  5
2C9
100
AcDbEntity
  8
RACCORDO
100
AcDbLine
 62
7
  6
CONTINUOUS
 10
-14.1922197286
 20
20.0672197286
 11
-14.1922197286
 21
19.8501037691
  0
LINE
  5
2CA
100
AcDbEntity
  8
RACCORDO
100
AcDbLine
 62
7
  6
CONTINUOUS
 10
-14.1922197286
 20
-19.8501037691
 11
-14.1922197286
 21
-20.0672197286
  0
LINE
  5
2CB
100
AcDbEntity
  8
RACCORDO
100
AcDbLine
 62
7
  6
CONTINUOUS
 10
-14.125
 20
20.0
 11
-14.125
 21
16.9065385979
  0
LINE
  5
2CC
100
AcDbEntity
  8
RACCORDO
100
AcDbLine
 62
7
  6
CONTINUOUS
 10
-14.125
 20
-16.9065385979
 11
-14.125
 21
-20.0
  0
LINE
  5
2CD
100
AcDbEntity
  8
RACCORDO
100
AcDbLine
 62
7
  6
CONTINUOUS
 10
-13.625
 20
3.35362032
 11
-13.625
 21
1.65
  0
LINE
  5
2CE
100
AcDbEntity
  8
RACCORDO
100
AcDbLine
 62
7
  6
CONTINUOUS
 10
-13.625
 20
-1.65
 11
-13.625
 21
-3.35362032
  0
LINE
  5
2CF
100
AcDbEntity
  8
0
100
AcDbLine
 62
7
  6
CONTINUOUS
 10
-13.263475
 20
9.574949
 11
-13.263471
 21
11.425037
  0
LINE
  5
2D0
100
AcDbEntity
  8
0
100
AcDbLine
 62
7
  6
CONTINUOUS
 10
-12.893457
 20
11.425037
 11
-12.893461
 21
9.574954
  0
LINE
  5
2D1
100
AcDbEntity
  8
DRAFT
100
AcDbLine
 62
7
  6
CONTINUOUS
 10
-13.7107264449
 20
-0.0
 11
-13.7214193998
 21
-4.9892182871
  0
LINE
  5
2D2
100
AcDbEntity
  8
RACCORDO
100
AcDbLine
 62
250
  6
CONTINUOUS
 10
-14.7582746258
 20
19.5049297437
 11
-14.7577916945
 21
20.0698149423
  0
LINE
  5
2D3
100
AcDbEntity
  8
RACCORDO
100
AcDbLine
 62
250
  6
CONTINUOUS
 10
-14.4915612335
 20
-19.4615072474
 11
-14.4922083055
 21
-20.0698149423
  0
LINE
  5
2D4
100
AcDbEntity
  8
RACCORDO
100
AcDbLine
 62
250
  6
CONTINUOUS
 10
-14.1920372725
 20
-19.761176738
 11
-14.1922197286
 21
-19.8501037691
  0
LINE
  5
2D5
100
AcDbEntity
  8
RACCORDO
100
AcDbLine
 62
250
  6
CONTINUOUS
 10
-14.1916653436
 20
-19.7039032582
 11
-14.1920372725
 21
-19.761176738
  0
LINE
  5
2D6
100
AcDbEntity
  8
RACCORDO
100
AcDbLine
 62
250
  6
CONTINUOUS
 10
-14.4910598849
 20
-19.3802574587
 11
-14.4915612335
 21
-19.4615072474
  0
LINE
  5
2D7
100
AcDbEntity
  8
RACCORDO
100
AcDbLine
 62
250
  6
CONTINUOUS
 10
-14.1913755197
 20
-19.6788254091
 11
-14.1916653436
 21
-19.7039032582
  0
LINE
  5
2D8
100
AcDbEntity
  8
RACCORDO
100
AcDbLine
 62
250
  6
CONTINUOUS
 10
-14.1911743105
 20
-19.6667833347
 11
-14.1913755197
 21
-19.6788254091
  0
LINE
  5
2D9
100
AcDbEntity
  8
RACCORDO
100
AcDbLine
 62
250
  6
CONTINUOUS
 10
-14.4241159941
 20
-16.5882381259
 11
-14.4910598849
 21
-19.3802574587
  0
LINE
  5
2DA
100
AcDbEntity
  8
RACCORDO
100
AcDbLine
 62
250
  6
CONTINUOUS
 10
-14.125
 20
-16.9065385979
 11
-14.1911743105
 21
-19.6667833347
  0
LINE
  5
2DB
100
AcDbEntity
  8
RACCORDO
100
AcDbLine
 62
7
  6
CONTINUOUS
 10
-13.6424162707
 20
-3.7764571353
 11
-13.694142774
 21
-4.5705002888
  0
LINE
  5
2DC
100
AcDbEntity
  8
DRAFT
100
AcDbLine
 62
7
  6
CONTINUOUS
 10
-13.7214193998
 20
-4.9892182871
 11
-13.694142774
 21
-4.5705002888
  0
LWPOLYLINE
  5
2DD
100
AcDbEntity
  8
RACCORDO
100
AcDbPolyline
 62
250
  6
CONTINUOUS
 90
13
 70
0
 10
-15.0589286921
 20
-19.6621652449
 10
-15.0562553302
 20
-19.6254382492
 10
-15.0485141088
 20
-19.5893372802
 10
-15.0358369802
 20
-19.5544776936
 10
-15.0184400312
 20
-19.5214536854
 10
-14.9966197999
 20
-19.4908281633
 10
-14.970748221
 20
-19.4631231519
 10
-14.9412662864
 20
-19.4388108945
 10
-14.9086765275
 20
-19.4183058033
 10
-14.8735344501
 20
-19.4019573962
 10
-14.8364390655
 20
-19.3900443384
 10
-14.7980226794
 20
-19.3827696928
 10
-14.7589401151
 20
-19.3802574587
  0
LINE
  5
2DE
100
AcDbEntity
  8
0
100
AcDbLine
 62
7
  6
CONTINUOUS
 10
-11.618612
 20
10.220197
 11
-11.27313
 21
11.425037
  0
LINE
  5
2DF
100
AcDbEntity
  8
0
100
AcDbLine
 62
7
  6
CONTINUOUS
 10
-11.083787
 20
10.794959
 11
-11.433612
 21
9.574958
  0
LINE
  5
2E0
100
AcDbEntity
  8
DRAFT
100
AcDbLine
 62
7
  6
CONTINUOUS
 10
-7.3568249539
 20
23.4301797403
 11
-7.3363830423
 21
23.5
  0
LINE
  5
2E1
100
AcDbEntity
  8
0
100
AcDbLine
 62
7
  6
CONTINUOUS
 10
-10.467094
 20
9.574954
 11
-9.8731
 21
11.425042
  0
LINE
  5
2E2
100
AcDbEntity
  8
RACCORDO
100
AcDbLine
 62
250
  6
CONTINUOUS
 10
-1.1367954839
 20
-14.7
 11
-21.1132045161
 21
-14.7
  0
LINE
  5
2E3
100
AcDbEntity
  8
RACCORDO
100
AcDbLine
 62
7
  6
CONTINUOUS
 10
-1.1402864969
 20
-14.5
 11
-21.1097135031
 21
-14.5
  0
LINE
  5
2E4
100
AcDbEntity
  8
DRAFT
100
AcDbLine
 62
7
  6
CONTINUOUS
 10
-7.3568249539
 20
-23.4301797403
 11
-7.3363830423
 21
-23.5
  0
LINE
  5
2E5
100
AcDbEntity
  8
RACCORDO
100
AcDbLine
 62
7
  6
CONTINUOUS
 10
-11.5841086907
 20
2.7456305277
 11
-11.625
 21
3.75
  0
LINE
  5
2E6
100
AcDbEntity
  8
RACCORDO
100
AcDbLine
 62
7
  6
CONTINUOUS
 10
-10.625
 20
-3.75
 11
-10.6658913093
 21
-2.7456305277
  0
LINE
  5
2E7
100
AcDbEntity
  8
RACCORDO
100
AcDbLine
 62
7
  6
CONTINUOUS
 10
-11.5822184527
 20
-1.8737134103
 11
-11.5852320144
 21
-1.5839555569
  0
LINE
  5
2E8
100
AcDbEntity
  8
RACCORDO
100
AcDbLine
 62
7
  6
CONTINUOUS
 10
-10.6647679856
 20
1.5839555569
 11
-10.6677815473
 21
1.8737134103
  0
LINE
  5
2E9
100
AcDbEntity
  8
0
100
AcDbLine
 62
7
  6
CONTINUOUS
 10
-12.523457
 20
9.574954
 11
-12.523457
 21
11.425037
  0
LINE
  5
2EA
100
AcDbEntity
  8
0
100
AcDbLine
 62
7
  6
CONTINUOUS
 10
-12.153443
 20
10.794959
 11
-12.153443
 21
9.574954
  0
LINE
  5
2EB
100
AcDbEntity
  8
0
100
AcDbLine
 62
7
  6
CONTINUOUS
 10
-11.083782
 20
9.574954
 11
-11.083787
 21
10.794959
  0
LINE
  5
2EC
100
AcDbEntity
  8
0
100
AcDbLine
 62
7
  6
CONTINUOUS
 10
-10.713768
 20
11.425037
 11
-10.713768
 21
9.574954
  0
LINE
  5
2ED
100
AcDbEntity
  8
RACCORDO
100
AcDbLine
 62
7
  6
CONTINUOUS
 10
-11.5852320144
 20
1.5839555569
 11
-11.5822184527
 21
1.8737134103
  0
LINE
  5
2EE
100
AcDbEntity
  8
RACCORDO
100
AcDbLine
 62
7
  6
CONTINUOUS
 10
-10.6677815473
 20
-1.8737134103
 11
-10.6647679856
 21
-1.5839555569
  0
LINE
  5
2EF
100
AcDbEntity
  8
RACCORDO
100
AcDbLine
 62
7
  6
CONTINUOUS
 10
-11.625
 20
-3.75
 11
-11.5841086907
 21
-2.7456305277
  0
LINE
  5
2F0
100
AcDbEntity
  8
RACCORDO
100
AcDbLine
 62
7
  6
CONTINUOUS
 10
-10.6658913093
 20
2.7456305277
 11
-10.625
 21
3.75
  0
LINE
  5
2F1
100
AcDbEntity
  8
DRAFT
100
AcDbLine
 62
7
  6
CONTINUOUS
 10
-8.3005120085
 20
21.1374937549
 11
-8.1131634904
 21
22.2
  0
LINE
  5
2F2
100
AcDbEntity
  8
0
100
AcDbLine
 62
7
  6
CONTINUOUS
 10
-9.980266
 20
9.938789
 11
-10.09708
 21
9.574958
  0
LINE
  5
2F3
100
AcDbEntity
  8
0
100
AcDbLine
 62
7
  6
CONTINUOUS
 10
-9.688086
 20
10.848836
 11
-9.867402
 21
10.290302
  0
LINE
  5
2F4
100
AcDbEntity
  8
DRAFT
100
AcDbLine
 62
7
  6
CONTINUOUS
 10
15.1959852036
 20
-20.7580579181
 11
15.3489427243
 21
-20.843017974
  0
LINE
  5
2F5
100
AcDbEntity
  8
0
100
AcDbLine
 62
7
  6
CONTINUOUS
 10
-14.474175
 20
9.574949
 11
-15.068173
 21
11.425037
  0
LINE
  5
2F6
100
AcDbEntity
  8
DRAFT
100
AcDbLine
 62
7
  6
CONTINUOUS
 10
-8.3005120085
 20
-21.1374937549
 11
-8.1131634904
 21
-22.2
  0
LWPOLYLINE
  5
2F7
100
AcDbEntity
  8
RACCORDO
100
AcDbPolyline
 62
250
  6
CONTINUOUS
 90
13
 70
0
 10
-7.1910713079
 20
-19.6621652449
 10
-7.193744652
 20
-19.6254383745
 10
-7.2014858274
 20
-19.5893375031
 10
-7.2141628923
 20
-19.554477983
 10
-7.2315597697
 20
-19.5214540105
 10
-7.2533799322
 20
-19.4908284932
 10
-7.2792514584
 20
-19.4631234553
 10
-7.3087333703
 20
-19.4388111444
 10
-7.3413231404
 20
-19.4183059859
 10
-7.3764652591
 20
-19.4019575115
 10
-7.4135607129
 20
-19.3900443958
 10
-7.4519771971
 20
-19.3827697089
 10
-7.4910598849
 20
-19.3802574587
  0
LINE
  5
2F8
100
AcDbEntity
  8
RACCORDO
100
AcDbLine
 62
7
  6
CONTINUOUS
 10
-8.6075837293
 20
-3.7764571353
 11
-8.555857226
 21
-4.5705002888
  0
LINE
  5
2F9
100
AcDbEntity
  8
DRAFT
100
AcDbLine
 62
7
  6
CONTINUOUS
 10
-8.5285806002
 20
-4.9892182871
 11
-8.555857226
 21
-4.5705002888
  0
LINE
  5
2FA
100
AcDbEntity
  8
RACCORDO
100
AcDbLine
 62
250
  6
CONTINUOUS
 10
-8.0588253313
 20
-19.6668029005
 11
-8.125
 21
-16.9065385979
  0
LINE
  5
2FB
100
AcDbEntity
  8
RACCORDO
100
AcDbLine
 62
250
  6
CONTINUOUS
 10
-8.0586235895
 20
-19.678886964
 11
-8.0588253313
 21
-19.6668029005
  0
LINE
  5
2FC
100
AcDbEntity
  8
DRAFT
100
AcDbLine
 62
7
  6
CONTINUOUS
 10
-8.5392735551
 20
-0.0
 11
-8.5285806002
 21
-4.9892182871
  0
LINE
  5
2FD
100
AcDbEntity
  8
0
100
AcDbLine
 62
7
  6
CONTINUOUS
 10
-8.662391
 20
9.574958
 11
-8.662391
 21
11.425042
  0
LINE
  5
2FE
100
AcDbEntity
  8
RACCORDO
100
AcDbLine
 62
7
  6
CONTINUOUS
 10
-8.625
 20
3.35362032
 11
-8.625
 21
1.65
  0
LINE
  5
2FF
100
AcDbEntity
  8
RACCORDO
100
AcDbLine
 62
7
  6
CONTINUOUS
 10
-8.625
 20
-1.65
 11
-8.625
 21
-3.35362032
  0
LINE
  5
300
100
AcDbEntity
  8
DRAFT
100
AcDbLine
 62
7
  6
CONTINUOUS
 10
-8.5392735551
 20
-0.0
 11
-8.5285806002
 21
4.9892182871
  0
LINE
  5
301
100
AcDbEntity
  8
RACCORDO
100
AcDbLine
 62
250
  6
CONTINUOUS
 10
-8.0588303743
 20
19.6665278499
 11
-8.0586361082
 21
19.678027854
  0
LINE
  5
302
100
AcDbEntity
  8
RACCORDO
100
AcDbLine
 62
250
  6
CONTINUOUS
 10
-8.125
 20
16.9065385979
 11
-8.0588303743
 21
19.6665278499
  0
LINE
  5
303
100
AcDbEntity
  8
RACCORDO
100
AcDbLine
 62
7
  6
CONTINUOUS
 10
-8.555857226
 20
4.5705002888
 11
-8.6075837293
 21
3.7764571353
  0
LINE
  5
304
100
AcDbEntity
  8
DRAFT
100
AcDbLine
 62
7
  6
CONTINUOUS
 10
-8.555857226
 20
4.5705002888
 11
-8.5285806002
 21
4.9892182871
  0
LWPOLYLINE
  5
305
100
AcDbEntity
  8
RACCORDO
100
AcDbPolyline
 62
250
  6
CONTINUOUS
 90
13
 70
0
 10
-7.1910713079
 20
19.6621652449
 10
-7.1937446698
 20
19.6254382492
 10
-7.2014858912
 20
19.5893372802
 10
-7.2141630198
 20
19.5544776936
 10
-7.2315599688
 20
19.5214536854
 10
-7.2533802001
 20
19.4908281633
 10
-7.279251779
 20
19.4631231519
 10
-7.3087337137
 20
19.4388108945
 10
-7.3413234725
 20
19.4183058033
 10
-7.3764655499
 20
19.4019573962
 10
-7.4135609346
 20
19.3900443384
 10
-7.4519773206
 20
19.3827696928
 10
-7.4910598849
 20
19.3802574587
  0
LINE
  5
306
100
AcDbEntity
  8
DRAFT
100
AcDbLine
 62
7
  6
CONTINUOUS
 10
-13.9494879915
 20
-21.1374937549
 11
-14.1368365096
 21
-22.2
  0
LINE
  5
307
100
AcDbEntity
  8
DRAFT
100
AcDbLine
 62
7
  6
CONTINUOUS
 10
-21.075
 20
-20.85
 11
-21.0290324601
 21
-20.7580579181
  0
LINE
  5
308
100
AcDbEntity
  8
DRAFT
100
AcDbLine
 62
7
  6
CONTINUOUS
 10
0.6284885351
 20
20.7580579181
 11
0.674456075
 21
20.85
  0
LINE
  5
309
100
AcDbEntity
  8
DRAFT
100
AcDbLine
 62
7
  6
CONTINUOUS
 10
11.8745996034
 20
-8.8592457589
 11
10.8754003966
 21
-8.8592457589
  0
LINE
  5
30A
100
AcDbEntity
  8
DRAFT
100
AcDbLine
 62
7
  6
CONTINUOUS
 10
-21.075
 20
20.85
 11
-21.0290324601
 21
20.7580579181
  0
LINE
  5
30B
100
AcDbEntity
  8
DRAFT
100
AcDbLine
 62
7
  6
CONTINUOUS
 10
0.6284885351
 20
-20.7580579181
 11
0.674456075
 21
-20.85
  0
LINE
  5
30C
100
AcDbEntity
  8
0
100
AcDbLine
 62
7
  6
CONTINUOUS
 10
-14.698155
 20
11.425037
 11
-14.289157
 21
10.151155
  0
LINE
  5
30D
100
AcDbEntity
  8
0
100
AcDbLine
 62
7
  6
CONTINUOUS
 10
-11.803617
 20
9.574954
 11
-12.153443
 21
10.794959
  0
LINE
  5
30E
100
AcDbEntity
  8
0
100
AcDbLine
 62
7
  6
CONTINUOUS
 10
-11.964095
 20
11.425037
 11
-11.618612
 21
10.220197
  0
LINE
  5
30F
100
AcDbEntity
  8
DRAFT
100
AcDbLine
 62
7
  6
CONTINUOUS
 10
-13.9494879915
 20
21.1374937549
 11
-14.1368365096
 21
22.2
  0
LWPOLYLINE
  5
310
100
AcDbEntity
  8
RACCORDO
100
AcDbPolyline
 62
250
  6
CONTINUOUS
 90
13
 70
0
 10
-8.0589286921
 20
19.6621652449
 10
-8.0562553303
 20
19.6254382497
 10
-8.0485141091
 20
19.589337281
 10
-8.0358369807
 20
19.5544776947
 10
-8.0184400319
 20
19.5214536866
 10
-7.9966198009
 20
19.4908281645
 10
-7.9707482223
 20
19.463123153
 10
-7.9412662877
 20
19.4388108954
 10
-7.9086765287
 20
19.418305804
 10
-7.8735344512
 20
19.4019573966
 10
-7.8364390663
 20
19.3900443386
 10
-7.7980226799
 20
19.3827696928
 10
-7.7589401151
 20
19.3802574587
  0
LINE
  5
311
100
AcDbEntity
  8
RACCORDO
100
AcDbLine
 62
250
  6
CONTINUOUS
 10
-7.7589401151
 20
-19.3802574587
 11
-7.8258840059
 21
-16.5882381259
  0
LINE
  5
312
100
AcDbEntity
  8
RACCORDO
100
AcDbLine
 62
250
  6
CONTINUOUS
 10
-7.4910598849
 20
19.3802574587
 11
-7.4241159941
 21
16.5882381259
  0
LINE
  5
313
100
AcDbEntity
  8
RACCORDO
100
AcDbLine
 62
250
  6
CONTINUOUS
 10
-7.1911700053
 20
19.6665484372
 11
-7.125
 21
16.9065385979
  0
LINE
  5
314
100
AcDbEntity
  8
RACCORDO
100
AcDbLine
 62
250
  6
CONTINUOUS
 10
-7.1913648315
 20
19.678091689
 11
-7.1911700053
 21
19.6665484372
  0
LINE
  5
315
100
AcDbEntity
  8
RACCORDO
100
AcDbLine
 62
250
  6
CONTINUOUS
 10
-7.1916506493
 20
19.7023487345
 11
-7.1913648315
 21
19.678091689
  0
LINE
  5
316
100
AcDbEntity
  8
RACCORDO
100
AcDbLine
 62
250
  6
CONTINUOUS
 10
-8.0583334262
 20
-19.7040349405
 11
-8.0586235895
 21
-19.678886964
  0
LINE
  5
317
100
AcDbEntity
  8
RACCORDO
100
AcDbLine
 62
250
  6
CONTINUOUS
 10
-7.192027728
 20
19.7590098183
 11
-7.1916506493
 21
19.7023487345
  0
LINE
  5
318
100
AcDbEntity
  8
RACCORDO
100
AcDbLine
 62
250
  6
CONTINUOUS
 10
-8.0579619177
 20
-19.7613645642
 11
-8.0583334262
 21
-19.7040349405
  0
LINE
  5
319
100
AcDbEntity
  8
RACCORDO
100
AcDbLine
 62
250
  6
CONTINUOUS
 10
-7.4915469838
 20
19.4581810583
 11
-7.4910598849
 21
19.3802574587
  0
LINE
  5
31A
100
AcDbEntity
  8
RACCORDO
100
AcDbLine
 62
250
  6
CONTINUOUS
 10
-7.7584375929
 20
-19.4617809412
 11
-7.7589401151
 21
-19.3802574587
  0
LINE
  5
31B
100
AcDbEntity
  8
RACCORDO
100
AcDbLine
 62
250
  6
CONTINUOUS
 10
-8.0577802714
 20
-19.8501037691
 11
-8.0579619177
 21
-19.7613645642
  0
LINE
  5
31C
100
AcDbEntity
  8
RACCORDO
100
AcDbLine
 62
250
  6
CONTINUOUS
 10
-7.1922197286
 20
19.8501037691
 11
-7.192027728
 21
19.7590098183
  0
LINE
  5
31D
100
AcDbEntity
  8
0
100
AcDbLine
 62
7
  6
CONTINUOUS
 10
-8.297478
 20
11.082778
 11
-8.297474
 21
10.632571
  0
LINE
  5
31E
100
AcDbEntity
  8
RACCORDO
100
AcDbLine
 62
7
  6
CONTINUOUS
 10
-8.125
 20
20.0
 11
-8.125
 21
16.9065385979
  0
LINE
  5
31F
100
AcDbEntity
  8
RACCORDO
100
AcDbLine
 62
7
  6
CONTINUOUS
 10
-8.125
 20
-16.9065385979
 11
-8.125
 21
-20.0
  0
LINE
  5
320
100
AcDbEntity
  8
RACCORDO
100
AcDbLine
 62
7
  6
CONTINUOUS
 10
-8.0577802714
 20
-20.0672197286
 11
-8.0577802714
 21
-19.8501037691
  0
LINE
  5
321
100
AcDbEntity
  8
RACCORDO
100
AcDbLine
 62
7
  6
CONTINUOUS
 10
-8.0577802714
 20
19.8501037691
 11
-8.0577802714
 21
20.0672197286
  0
LINE
  5
322
100
AcDbEntity
  8
DRAFT
100
AcDbLine
 62
7
  6
CONTINUOUS
 10
-8.025
 20
-21.1511295404
 11
-8.025
 21
-22.2
  0
LINE
  5
323
100
AcDbEntity
  8
DRAFT
100
AcDbLine
 62
7
  6
CONTINUOUS
 10
-8.025
 20
21.1511295404
 11
-8.025
 21
22.2
  0
LINE
  5
324
100
AcDbEntity
  8
DRAFT
100
AcDbLine
 62
7
  6
CONTINUOUS
 10
-7.9970718961
 20
23.4301797403
 11
-7.9970718961
 21
21.1650925288
  0
LINE
  5
325
100
AcDbEntity
  8
DRAFT
100
AcDbLine
 62
7
  6
CONTINUOUS
 10
-7.9970718961
 20
-23.4301797403
 11
-7.9970718961
 21
-21.1650925288
  0
LINE
  5
326
100
AcDbEntity
  8
RACCORDO
100
AcDbLine
 62
250
  6
CONTINUOUS
 10
-7.7577916945
 20
-20.0698149423
 11
-7.7584375929
 21
-19.4617809412
  0
LINE
  5
327
100
AcDbEntity
  8
RACCORDO
100
AcDbLine
 62
250
  6
CONTINUOUS
 10
-7.4922083055
 20
20.0698149423
 11
-7.4915469838
 21
19.4581810583
  0
LINE
  5
328
100
AcDbEntity
  8
RACCORDO
100
AcDbLine
 62
7
  6
CONTINUOUS
 10
-7.1922197286
 20
20.0672197286
 11
-7.1922197286
 21
19.8501037691
  0
LINE
  5
329
100
AcDbEntity
  8
RACCORDO
100
AcDbLine
 62
7
  6
CONTINUOUS
 10
-7.1922197286
 20
-19.8501037691
 11
-7.1922197286
 21
-20.0672197286
  0
LINE
  5
32A
100
AcDbEntity
  8
RACCORDO
100
AcDbLine
 62
7
  6
CONTINUOUS
 10
-7.125
 20
20.0
 11
-7.125
 21
16.9065385979
  0
LINE
  5
32B
100
AcDbEntity
  8
RACCORDO
100
AcDbLine
 62
7
  6
CONTINUOUS
 10
-7.125
 20
-16.9065385979
 11
-7.125
 21
-20.0
  0
LINE
  5
32C
100
AcDbEntity
  8
0
100
AcDbLine
 62
7
  6
CONTINUOUS
 10
-8.292331
 20
10.290307
 11
-8.292372
 21
9.574958
  0
LINE
  5
32D
100
AcDbEntity
  8
RACCORDO
100
AcDbLine
 62
250
  6
CONTINUOUS
 10
-7.4915612335
 20
-19.4615072474
 11
-7.4922083055
 21
-20.0698149423
  0
LINE
  5
32E
100
AcDbEntity
  8
RACCORDO
100
AcDbLine
 62
250
  6
CONTINUOUS
 10
-7.1920372725
 20
-19.761176738
 11
-7.1922197286
 21
-19.8501037691
  0
LINE
  5
32F
100
AcDbEntity
  8
RACCORDO
100
AcDbLine
 62
250
  6
CONTINUOUS
 10
-8.0579731001
 20
19.7588240983
 11
-8.0577802714
 21
19.8501037691
  0
LINE
  5
330
100
AcDbEntity
  8
RACCORDO
100
AcDbLine
 62
250
  6
CONTINUOUS
 10
-7.7584542423
 20
19.457903154
 11
-7.7577916945
 21
20.0698149423
  0
LINE
  5
331
100
AcDbEntity
  8
RACCORDO
100
AcDbLine
 62
250
  6
CONTINUOUS
 10
-7.1916653436
 20
-19.7039032582
 11
-7.1920372725
 21
-19.761176738
  0
LINE
  5
332
100
AcDbEntity
  8
RACCORDO
100
AcDbLine
 62
250
  6
CONTINUOUS
 10
-8.0583506324
 20
19.7022148453
 11
-8.0579731001
 21
19.7588240983
  0
LINE
  5
333
100
AcDbEntity
  8
RACCORDO
100
AcDbLine
 62
250
  6
CONTINUOUS
 10
-7.7589401151
 20
19.3802574587
 11
-7.7584542423
 21
19.457903154
  0
LINE
  5
334
100
AcDbEntity
  8
RACCORDO
100
AcDbLine
 62
250
  6
CONTINUOUS
 10
-7.4910598849
 20
-19.3802574587
 11
-7.4915612335
 21
-19.4615072474
  0
LINE
  5
335
100
AcDbEntity
  8
RACCORDO
100
AcDbLine
 62
250
  6
CONTINUOUS
 10
-7.1913755197
 20
-19.6788254091
 11
-7.1916653436
 21
-19.7039032582
  0
LINE
  5
336
100
AcDbEntity
  8
RACCORDO
100
AcDbLine
 62
250
  6
CONTINUOUS
 10
-8.0586361082
 20
19.678027854
 11
-8.0583506324
 21
19.7022148453
  0
LINE
  5
337
100
AcDbEntity
  8
RACCORDO
100
AcDbLine
 62
250
  6
CONTINUOUS
 10
-7.1911743105
 20
-19.6667833347
 11
-7.1913755197
 21
-19.6788254091
  0
LINE
  5
338
100
AcDbEntity
  8
RACCORDO
100
AcDbLine
 62
250
  6
CONTINUOUS
 10
-7.8258840059
 20
16.5882381259
 11
-7.7589401151
 21
19.3802574587
  0
LINE
  5
339
100
AcDbEntity
  8
RACCORDO
100
AcDbLine
 62
250
  6
CONTINUOUS
 10
-7.4241159941
 20
-16.5882381259
 11
-7.4910598849
 21
-19.3802574587
  0
LINE
  5
33A
100
AcDbEntity
  8
RACCORDO
100
AcDbLine
 62
250
  6
CONTINUOUS
 10
-7.125
 20
-16.9065385979
 11
-7.1911743105
 21
-19.6667833347
  0
LWPOLYLINE
  5
33B
100
AcDbEntity
  8
RACCORDO
100
AcDbPolyline
 62
250
  6
CONTINUOUS
 90
13
 70
0
 10
-8.0589286921
 20
-19.6621652449
 10
-8.0562553302
 20
-19.6254382492
 10
-8.0485141088
 20
-19.5893372802
 10
-8.0358369802
 20
-19.5544776936
 10
-8.0184400312
 20
-19.5214536854
 10
-7.9966197999
 20
-19.4908281633
 10
-7.970748221
 20
-19.4631231519
 10
-7.9412662864
 20
-19.4388108945
 10
-7.9086765275
 20
-19.4183058033
 10
-7.8735344501
 20
-19.4019573962
 10
-7.8364390655
 20
-19.3900443384
 10
-7.7980226794
 20
-19.3827696928
 10
-7.7589401151
 20
-19.3802574587
  0
LINE
  5
33C
100
AcDbEntity
  8
DRAFT
100
AcDbLine
 62
7
  6
CONTINUOUS
 10
-14.8931750461
 20
-23.4301797403
 11
-14.9136169577
 21
-23.5
  0
LINE
  5
33D
100
AcDbEntity
  8
RACCORDO
100
AcDbLine
 62
250
  6
CONTINUOUS
 10
10.9531426485
 20
-8.0798635241
 11
11.7968573515
 21
-8.0798635241
  0
LINE
  5
33E
100
AcDbEntity
  8
RACCORDO
100
AcDbLine
 62
250
  6
CONTINUOUS
 10
10.9611089197
 20
-7.083668826
 11
11.7888910803
 21
-7.083668826
  0
LINE
  5
33F
100
AcDbEntity
  8
DRAFT
100
AcDbLine
 62
7
  6
CONTINUOUS
 10
-14.8931750461
 20
23.4301797403
 11
-14.9136169577
 21
23.5
  0
LINE
  5
340
100
AcDbEntity
  8
DRAFT
100
AcDbLine
 62
7
  6
CONTINUOUS
 10
-3.8057889216
 20
-20.6435196952
 11
-3.8117850802
 21
-20.3
  0
LINE
  5
341
100
AcDbEntity
  8
DRAFT
100
AcDbLine
 62
7
  6
CONTINUOUS
 10
-3.8057889216
 20
20.6435196952
 11
-3.8117850802
 21
20.3
  0
LINE
  5
342
100
AcDbEntity
  8
DRAFT
100
AcDbLine
 62
7
  6
CONTINUOUS
 10
10.9611089197
 20
-5.725
 11
9.275
 21
-5.725
  0
LINE
  5
343
100
AcDbEntity
  8
DRAFT
100
AcDbLine
 62
7
  6
CONTINUOUS
 10
11.7888910803
 20
-5.725
 11
13.475
 21
-5.725
  0
LINE
  5
344
100
AcDbEntity
  8
SMUSSO
100
AcDbLine
 62
7
  6
CONTINUOUS
 10
9.3611089197
 20
-5.125
 11
10.6267780819
 21
-5.125
  0
LINE
  5
345
100
AcDbEntity
  8
SMUSSO
100
AcDbLine
 62
7
  6
CONTINUOUS
 10
12.1233289675
 20
-5.125
 11
13.3888910803
 21
-5.125
  0
LINE
  5
346
100
AcDbEntity
  8
DRAFT
100
AcDbLine
 62
7
  6
CONTINUOUS
 10
-13.7214193998
 20
-4.9892182871
 11
-8.5285806002
 21
-4.9892182871
  0
LINE
  5
347
100
AcDbEntity
  8
SMUSSO
100
AcDbLine
 62
7
  6
CONTINUOUS
 10
9.2749084697
 20
-4.725
 11
10.175
 21
-4.725
  0
LINE
  5
348
100
AcDbEntity
  8
SMUSSO
100
AcDbLine
 62
7
  6
CONTINUOUS
 10
12.575
 20
-4.725
 11
13.4750915303
 21
-4.725
  0
LINE
  5
349
100
AcDbEntity
  8
DRAFT
100
AcDbLine
 62
7
  6
CONTINUOUS
 10
-13.694142774
 20
-4.5705002888
 11
-8.555857226
 21
-4.5705002888
  0
LINE
  5
34A
100
AcDbEntity
  8
0
100
AcDbLine
 62
7
  6
CONTINUOUS
 10
-9.279084
 20
9.574958
 11
-9.395893
 21
9.938789
  0
LINE
  5
34B
100
AcDbEntity
  8
0
100
AcDbLine
 62
7
  6
CONTINUOUS
 10
-9.508761
 20
10.290302
 11
-9.688086
 21
10.848836
  0
LINE
  5
34C
100
AcDbEntity
  8
0
100
AcDbLine
 62
7
  6
CONTINUOUS
 10
-9.503068
 20
11.425042
 11
-8.909065
 21
9.574954
  0
LINE
  5
34D
100
AcDbEntity
  8
DRAFT
100
AcDbLine
 62
7
  6
CONTINUOUS
 10
-3.8117850802
 20
20.3
 11
-3.8117850802
 21
20.0698149423
  0
LINE
  5
34E
100
AcDbEntity
  8
DRAFT
100
AcDbLine
 62
7
  6
CONTINUOUS
 10
-3.8117850802
 20
-20.0698149423
 11
-3.8117850802
 21
-20.3
  0
LINE
  5
34F
100
AcDbEntity
  8
DRAFT
100
AcDbLine
 62
7
  6
CONTINUOUS
 10
-3.7419648205
 20
20.671935187
 11
-3.7419648205
 21
20.0349074712
  0
LINE
  5
350
100
AcDbEntity
  8
DRAFT
100
AcDbLine
 62
7
  6
CONTINUOUS
 10
-3.7419648205
 20
-20.0349074712
 11
-3.7419648205
 21
-20.671935187
  0
LINE
  5
351
100
AcDbEntity
  8
DRAFT
100
AcDbLine
 62
7
  6
CONTINUOUS
 10
19.125
 20
-3.75
 11
18.125
 21
-3.75
  0
LINE
  5
352
100
AcDbEntity
  8
DRAFT
100
AcDbLine
 62
7
  6
CONTINUOUS
 10
4.625
 20
-3.75
 11
3.625
 21
-3.75
  0
LINE
  5
353
100
AcDbEntity
  8
DRAFT
100
AcDbLine
 62
7
  6
CONTINUOUS
 10
-10.625
 20
-3.75
 11
-11.625
 21
-3.75
  0
LINE
  5
354
100
AcDbEntity
  8
RACCORDO
100
AcDbLine
 62
250
  6
CONTINUOUS
 10
-11.5841086907
 20
-2.7456305277
 11
-10.6658913093
 21
-2.7456305277
  0
LINE
  5
355
100
AcDbEntity
  8
RACCORDO
100
AcDbLine
 62
250
  6
CONTINUOUS
 10
4.625
 20
-2.7456305277
 11
3.6658913093
 21
-2.7456305277
  0
LINE
  5
356
100
AcDbEntity
  8
RACCORDO
100
AcDbLine
 62
250
  6
CONTINUOUS
 10
18.125
 20
-2.7456305277
 11
19.0841086907
 21
-2.7456305277
  0
LINE
  5
357
100
AcDbEntity
  8
RACCORDO
100
AcDbLine
 62
250
  6
CONTINUOUS
 10
-11.5822184527
 20
-1.8737134103
 11
-10.6677815473
 21
-1.8737134103
  0
LINE
  5
358
100
AcDbEntity
  8
RACCORDO
100
AcDbLine
 62
250
  6
CONTINUOUS
 10
4.625
 20
-1.8737134103
 11
3.6677815473
 21
-1.8737134103
  0
LINE
  5
359
100
AcDbEntity
  8
RACCORDO
100
AcDbLine
 62
250
  6
CONTINUOUS
 10
18.125
 20
-1.8737134103
 11
19.0822184527
 21
-1.8737134103
  0
LINE
  5
35A
100
AcDbEntity
  8
0
100
AcDbLine
 62
7
  6
CONTINUOUS
 10
-7.59859
 20
9.574958
 11
-7.96939
 21
10.290302
  0
LINE
  5
35B
100
AcDbEntity
  8
0
100
AcDbLine
 62
7
  6
CONTINUOUS
 10
-7.5756876047
 20
10.3348011665
 11
-7.181827
 21
9.574963
  0
LINE
  5
35C
100
AcDbEntity
  8
DRAFT
100
AcDbLine
 62
7
  6
CONTINUOUS
 10
-1.175
 20
-0.0
 11
-1.143923419
 21
-14.5
  0
LINE
  5
35D
100
AcDbEntity
  8
RACCORDO
100
AcDbLine
 62
7
  6
CONTINUOUS
 10
-1.1367954839
 20
16.408165363
 11
-1.1367954839
 21
14.7
  0
LINE
  5
35E
100
AcDbEntity
  8
RACCORDO
100
AcDbLine
 62
7
  6
CONTINUOUS
 10
-1.1367954839
 20
-14.7
 11
-1.1367954839
 21
-16.408165363
  0
LINE
  5
35F
100
AcDbEntity
  8
DRAFT
100
AcDbLine
 62
7
  6
CONTINUOUS
 10
-1.0669752242
 20
16.4319772848
 11
-1.0669752242
 21
-16.4319772848
  0
LINE
  5
360
100
AcDbEntity
  8
RACCORDO
100
AcDbLine
 62
7
  6
CONTINUOUS
 10
-0.0948202597
 20
-15.9973709179
 11
-0.0948202597
 21
15.9973709179
  0
LINE
  5
361
100
AcDbEntity
  8
RACCORDO
100
AcDbLine
 62
7
  6
CONTINUOUS
 10
-0.025
 20
-16.0215754896
 11
-0.025
 21
16.0215754896
  0
LINE
  5
362
100
AcDbEntity
  8
RACCORDO
100
AcDbLine
 62
7
  6
CONTINUOUS
 10
0.025
 20
-16.1196590187
 11
0.025
 21
16.1196590187
  0
LINE
  5
363
100
AcDbEntity
  8
DRAFT
100
AcDbLine
 62
7
  6
CONTINUOUS
 10
-1.143923419
 20
14.5
 11
-1.175
 21
-0.0
  0
LINE
  5
364
100
AcDbEntity
  8
DRAFT
100
AcDbLine
 62
7
  6
CONTINUOUS
 10
-8.6162180899
 20
-1.65
 11
-10.6517430518
 21
-1.65
  0
LINE
  5
365
100
AcDbEntity
  8
DRAFT
100
AcDbLine
 62
7
  6
CONTINUOUS
 10
-11.5982569482
 20
-1.65
 11
-13.6337819101
 21
-1.65
  0
LINE
  5
366
100
AcDbEntity
  8
DRAFT
100
AcDbLine
 62
250
  6
CONTINUOUS
 10
19.0852320144
 20
-1.5839555569
 11
18.125
 21
-1.5839555569
  0
LINE
  5
367
100
AcDbEntity
  8
DRAFT
100
AcDbLine
 62
250
  6
CONTINUOUS
 10
3.6647679856
 20
-1.5839555569
 11
4.625
 21
-1.5839555569
  0
LINE
  5
368
100
AcDbEntity
  8
DRAFT
100
AcDbLine
 62
250
  6
CONTINUOUS
 10
-10.6647679856
 20
-1.5839555569
 11
-11.5852320144
 21
-1.5839555569
  0
LINE
  5
369
100
AcDbEntity
  8
ASSI
100
AcDbLine
 62
7
  6
CONTINUOUS
 10
19.0908415369
 20
-1.35
 11
18.125
 21
-1.35
  0
LINE
  5
36A
100
AcDbEntity
  8
ASSI
100
AcDbLine
 62
7
  6
CONTINUOUS
 10
3.6591584631
 20
-1.35
 11
4.625
 21
-1.35
  0
LINE
  5
36B
100
AcDbEntity
  8
ASSI
100
AcDbLine
 62
7
  6
CONTINUOUS
 10
-10.6591584631
 20
-1.35
 11
-11.5908415369
 21
-1.35
  0
LINE
  5
36C
100
AcDbEntity
  8
DRAFT
100
AcDbLine
 62
7
  6
CONTINUOUS
 10
-21.075
 20
-0.0
 11
-13.7107264449
 21
-0.0
  0
LINE
  5
36D
100
AcDbEntity
  8
DRAFT
100
AcDbLine
 62
7
  6
CONTINUOUS
 10
-8.5392735551
 20
-0.0
 11
-1.175
 21
-0.0
  0
LWPOLYLINE
  5
36E
100
AcDbEntity
  8
RACCORDO
100
AcDbPolyline
 62
7
  6
CONTINUOUS
 90
13
 70
0
 10
-0.0948202597
 20
15.9973709179
 10
-0.0979264908
 20
16.1087568655
 10
-0.1071529968
 20
16.2192795517
 10
-0.1224997777
 20
16.3289389765
 10
-0.1440515641
 20
16.4381238555
 10
-0.1717236253
 20
16.5464454731
 10
-0.2052617704
 20
16.6527376827
 10
-0.2447549872
 20
16.7569716232
 10
-0.2901142878
 20
16.8591761558
 10
-0.340818517
 20
16.9582717164
 10
-0.3966939565
 20
17.0538984507
 10
-0.4579143246
 20
17.1464162131
 10
-0.5244796213
 20
17.2358250037
  0
LWPOLYLINE
  5
36F
100
AcDbEntity
  8
RACCORDO
100
AcDbPolyline
 62
7
  6
CONTINUOUS
 90
13
 70
0
 10
0.025
 20
16.119659166
 10
0.0218859314
 20
16.2311860772
 10
0.0126362366
 20
16.3418465971
 10
-0.0027490842
 20
16.4516407259
 10
-0.0243552728
 20
16.5609588341
 10
-0.0520970874
 20
16.6694105511
 10
-0.0857188032
 20
16.7758247651
 10
-0.125309882
 20
16.8801722426
 10
-0.1707808618
 20
16.9824822171
 10
-0.2216076323
 20
17.081671278
 10
-0.2776154898
 20
17.1773782886
 10
-0.3389791379
 20
17.2699643857
 10
-0.4056985766
 20
17.3594295692
  0
LINE
  5
370
100
AcDbEntity
  8
DRAFT
100
AcDbLine
 62
7
  6
CONTINUOUS
 10
0.674456075
 20
-20.85
 11
0.674456075
 21
20.85
  0
LINE
  5
371
100
AcDbEntity
  8
DRAFT
100
AcDbLine
 62
7
  6
CONTINUOUS
 10
1.375543925
 20
20.85
 11
1.375543925
 21
-20.85
  0
LWPOLYLINE
  5
372
100
AcDbEntity
  8
RACCORDO
100
AcDbPolyline
 62
7
  6
CONTINUOUS
 90
13
 70
0
 10
-0.025
 20
-16.0215754896
 10
-0.0280972748
 20
-16.1328057808
 10
-0.0372983848
 20
-16.2431773103
 10
-0.0526033302
 20
-16.3526900781
 10
-0.0740965863
 20
-16.4617319392
 10
-0.1016936778
 20
-16.5699150386
 10
-0.1351411776
 20
-16.6760758112
 10
-0.1745278244
 20
-16.7801850927
 10
-0.2197648796
 20
-16.8822720474
 10
-0.2703327005
 20
-16.9812606035
 10
-0.3260580731
 20
-17.0767920704
 10
-0.3871142114
 20
-17.1692251386
 10
-0.4535011155
 20
-17.2585598083
  0
LINE
  5
373
100
AcDbEntity
  8
0
100
AcDbLine
 62
7
  6
CONTINUOUS
 10
7.205023
 20
18.400056
 11
6.586006
 21
16.472018
  0
LINE
  5
374
100
AcDbEntity
  8
0
100
AcDbLine
 62
7
  6
CONTINUOUS
 10
7.765051
 20
18.400056
 11
6.86602
 21
15.59993
  0
LINE
  5
375
100
AcDbEntity
  8
ASSI
100
AcDbLine
 62
7
  6
CONTINUOUS
 10
19.0908415369
 20
1.35
 11
18.125
 21
1.35
  0
LINE
  5
376
100
AcDbEntity
  8
ASSI
100
AcDbLine
 62
7
  6
CONTINUOUS
 10
3.6591584631
 20
1.35
 11
4.625
 21
1.35
  0
LINE
  5
377
100
AcDbEntity
  8
ASSI
100
AcDbLine
 62
7
  6
CONTINUOUS
 10
-10.6591584631
 20
1.35
 11
-11.5908415369
 21
1.35
  0
LINE
  5
378
100
AcDbEntity
  8
DRAFT
100
AcDbLine
 62
250
  6
CONTINUOUS
 10
19.0852320144
 20
1.5839555569
 11
18.125
 21
1.5839555569
  0
LINE
  5
379
100
AcDbEntity
  8
DRAFT
100
AcDbLine
 62
250
  6
CONTINUOUS
 10
3.6647679856
 20
1.5839555569
 11
4.625
 21
1.5839555569
  0
LINE
  5
37A
100
AcDbEntity
  8
DRAFT
100
AcDbLine
 62
250
  6
CONTINUOUS
 10
-10.6647679856
 20
1.5839555569
 11
-11.5852320144
 21
1.5839555569
  0
LINE
  5
37B
100
AcDbEntity
  8
DRAFT
100
AcDbLine
 62
7
  6
CONTINUOUS
 10
-8.6162180899
 20
1.65
 11
-10.6517430518
 21
1.65
  0
LINE
  5
37C
100
AcDbEntity
  8
DRAFT
100
AcDbLine
 62
7
  6
CONTINUOUS
 10
-11.5982569482
 20
1.65
 11
-13.6337819101
 21
1.65
  0
LINE
  5
37D
100
AcDbEntity
  8
RACCORDO
100
AcDbLine
 62
250
  6
CONTINUOUS
 10
-11.5822184527
 20
1.8737134103
 11
-10.6677815473
 21
1.8737134103
  0
LINE
  5
37E
100
AcDbEntity
  8
RACCORDO
100
AcDbLine
 62
250
  6
CONTINUOUS
 10
4.625
 20
1.8737134103
 11
3.6677815473
 21
1.8737134103
  0
LINE
  5
37F
100
AcDbEntity
  8
RACCORDO
100
AcDbLine
 62
250
  6
CONTINUOUS
 10
18.125
 20
1.8737134103
 11
19.0822184527
 21
1.8737134103
  0
LINE
  5
380
100
AcDbEntity
  8
0
100
AcDbLine
 62
7
  6
CONTINUOUS
 10
14.098843
 20
-17.999093
 11
14.916719
 21
-19.298626
  0
LINE
  5
381
100
AcDbEntity
  8
0
100
AcDbLine
 62
7
  6
CONTINUOUS
 10
7.538653
 20
-17.698626
 11
8.118014
 21
-19.298626
  0
LINE
  5
382
100
AcDbEntity
  8
0
100
AcDbLine
 62
7
  6
CONTINUOUS
 10
7.723604
 20
-18.832838
 11
7.881899
 21
-19.298626
  0
LINE
  5
383
100
AcDbEntity
  8
0
100
AcDbLine
 62
7
  6
CONTINUOUS
 10
7.407168
 20
-17.930692
 11
7.645531
 21
-18.641192
  0
LINE
  5
384
100
AcDbEntity
  8
RACCORDO
100
AcDbLine
 62
7
  6
CONTINUOUS
 10
3.625
 20
3.75
 11
3.6658913093
 21
2.7456305277
  0
LINE
  5
385
100
AcDbEntity
  8
RACCORDO
100
AcDbLine
 62
7
  6
CONTINUOUS
 10
3.6647679856
 20
-1.5839555569
 11
3.6677815473
 21
-1.8737134103
  0
LINE
  5
386
100
AcDbEntity
  8
RACCORDO
100
AcDbLine
 62
7
  6
CONTINUOUS
 10
3.6677815473
 20
1.8737134103
 11
3.6647679856
 21
1.5839555569
  0
LINE
  5
387
100
AcDbEntity
  8
RACCORDO
100
AcDbLine
 62
7
  6
CONTINUOUS
 10
3.6658913093
 20
-2.7456305277
 11
3.625
 21
-3.75
  0
LINE
  5
388
100
AcDbEntity
  8
RACCORDO
100
AcDbLine
 62
7
  6
CONTINUOUS
 10
-14.1922197286
 20
-20.0672197286
 11
-14.125
 21
-20.0
  0
LINE
  5
389
100
AcDbEntity
  8
RACCORDO
100
AcDbLine
 62
250
  6
CONTINUOUS
 10
-11.5841086907
 20
2.7456305277
 11
-10.6658913093
 21
2.7456305277
  0
LINE
  5
38A
100
AcDbEntity
  8
RACCORDO
100
AcDbLine
 62
250
  6
CONTINUOUS
 10
4.625
 20
2.7456305277
 11
3.6658913093
 21
2.7456305277
  0
LINE
  5
38B
100
AcDbEntity
  8
RACCORDO
100
AcDbLine
 62
250
  6
CONTINUOUS
 10
18.125
 20
2.7456305277
 11
19.0841086907
 21
2.7456305277
  0
LINE
  5
38C
100
AcDbEntity
  8
DRAFT
100
AcDbLine
 62
7
  6
CONTINUOUS
 10
19.125
 20
3.75
 11
18.125
 21
3.75
  0
LINE
  5
38D
100
AcDbEntity
  8
DRAFT
100
AcDbLine
 62
7
  6
CONTINUOUS
 10
4.625
 20
3.75
 11
3.625
 21
3.75
  0
LINE
  5
38E
100
AcDbEntity
  8
DRAFT
100
AcDbLine
 62
7
  6
CONTINUOUS
 10
-10.625
 20
3.75
 11
-11.625
 21
3.75
  0
LINE
  5
38F
100
AcDbEntity
  8
DRAFT
100
AcDbLine
 62
7
  6
CONTINUOUS
 10
-13.694142774
 20
4.5705002888
 11
-8.555857226
 21
4.5705002888
  0
LINE
  5
390
100
AcDbEntity
  8
RACCORDO
100
AcDbLine
 62
7
  6
CONTINUOUS
 10
-14.1922197286
 20
20.0672197286
 11
-14.125
 21
20.0
  0
LINE
  5
391
100
AcDbEntity
  8
0
100
AcDbLine
 62
7
  6
CONTINUOUS
 10
14.145712
 20
-17.698626
 11
14.950071
 21
-18.998277
  0
LINE
  5
392
100
AcDbEntity
  8
RACCORDO
100
AcDbLine
 62
7
  6
CONTINUOUS
 10
4.625
 20
3.75
 11
4.625
 21
1.5839555569
  0
LINE
  5
393
100
AcDbEntity
  8
ASSI
100
AcDbLine
 62
7
  6
CONTINUOUS
 10
4.625
 20
1.5839555569
 11
4.625
 21
-1.5839555569
  0
LINE
  5
394
100
AcDbEntity
  8
RACCORDO
100
AcDbLine
 62
7
  6
CONTINUOUS
 10
4.625
 20
-1.5839555569
 11
4.625
 21
-3.75
  0
LINE
  5
395
100
AcDbEntity
  8
0
100
AcDbLine
 62
7
  6
CONTINUOUS
 10
5.365989
 20
-17.698626
 11
5.365989
 21
-19.298626
  0
LINE
  5
396
100
AcDbEntity
  8
0
100
AcDbLine
 62
7
  6
CONTINUOUS
 10
5.582143
 20
-17.883576
 11
5.582143
 21
-18.438428
  0
LINE
  5
397
100
AcDbEntity
  8
0
100
AcDbLine
 62
7
  6
CONTINUOUS
 10
5.582143
 20
-18.623379
 11
5.582143
 21
-19.298626
  0
LWPOLYLINE
  5
398
100
AcDbEntity
  8
0
100
AcDbPolyline
 62
7
  6
CONTINUOUS
 90
22
 70
0
 10
6.3370676921
 20
-18.1610022036
 10
6.3371546265
 20
-18.1409697561
 10
6.3361556571
 20
-18.1211762191
 10
6.3340707839
 20
-18.1016215936
 10
6.331077611
 20
-18.0822226044
 10
6.3269985344
 20
-18.0630625286
 10
6.3213007411
 20
-18.0443911965
 10
6.3138736415
 20
-18.026217995
 10
6.3048278253
 20
-18.0085335411
 10
6.2939622495
 20
-17.9915595124
 10
6.2813084508
 20
-17.9751956989
 10
6.2668348926
 20
-17.9595423156
 10
6.2502459214
 20
-17.9451216797
 10
6.2312871498
 20
-17.9319341061
 10
6.2102129652
 20
-17.9199792873
 10
6.1874908769
 20
-17.9097786104
 10
6.1631412139
 20
-17.9016124837
 10
6.1371436471
 20
-17.8952005062
 10
6.1099046995
 20
-17.8902228507
 10
6.0815598785
 20
-17.886572909
 10
6.0519736766
 20
-17.8843572919
 10
6.0211460938
 20
-17.8835760002
  0
LINE
  5
399
100
AcDbEntity
  8
0
100
AcDbLine
 62
7
  6
CONTINUOUS
 10
11.150804
 20
18.400056
 11
10.627911
 21
16.576514
  0
LINE
  5
39A
100
AcDbEntity
  8
0
100
AcDbLine
 62
7
  6
CONTINUOUS
 10
11.437377
 20
17.446425
 11
10.907911
 21
15.599937
  0
LINE
  5
39B
100
AcDbEntity
  8
DRAFT
100
AcDbLine
 62
7
  6
CONTINUOUS
 10
-14.2529281039
 20
-23.4301797403
 11
-14.3227483636
 21
-23.5
  0
LINE
  5
39C
100
AcDbEntity
  8
SMUSSO
100
AcDbLine
 62
7
  6
CONTINUOUS
 10
10.175
 20
4.725
 11
9.2749084697
 21
4.725
  0
LINE
  5
39D
100
AcDbEntity
  8
SMUSSO
100
AcDbLine
 62
7
  6
CONTINUOUS
 10
12.575
 20
4.725
 11
13.4750915303
 21
4.725
  0
LINE
  5
39E
100
AcDbEntity
  8
DRAFT
100
AcDbLine
 62
7
  6
CONTINUOUS
 10
-13.7214193998
 20
4.9892182871
 11
-8.5285806002
 21
4.9892182871
  0
LINE
  5
39F
100
AcDbEntity
  8
SMUSSO
100
AcDbLine
 62
7
  6
CONTINUOUS
 10
13.3888910803
 20
5.125
 11
12.1233289675
 21
5.125
  0
LINE
  5
3A0
100
AcDbEntity
  8
SMUSSO
100
AcDbLine
 62
7
  6
CONTINUOUS
 10
10.6267780819
 20
5.125
 11
9.3611089197
 21
5.125
  0
LINE
  5
3A1
100
AcDbEntity
  8
DRAFT
100
AcDbLine
 62
7
  6
CONTINUOUS
 10
9.275
 20
5.725
 11
10.9611089197
 21
5.725
  0
LINE
  5
3A2
100
AcDbEntity
  8
DRAFT
100
AcDbLine
 62
7
  6
CONTINUOUS
 10
11.7888910803
 20
5.725
 11
13.475
 21
5.725
  0
LINE
  5
3A3
100
AcDbEntity
  8
DRAFT
100
AcDbLine
 62
7
  6
CONTINUOUS
 10
-14.2529281039
 20
23.4301797403
 11
-14.3227483636
 21
23.5
  0
LINE
  5
3A4
100
AcDbEntity
  8
DRAFT
100
AcDbLine
 62
7
  6
CONTINUOUS
 10
9.2410254038
 20
-20.35
 11
9.2354118688
 21
-20.3073609684
  0
LINE
  5
3A5
100
AcDbEntity
  8
0
100
AcDbLine
 62
7
  6
CONTINUOUS
 10
8.138396
 20
18.400056
 11
8.138389
 21
15.599923
  0
LINE
  5
3A6
100
AcDbEntity
  8
0
100
AcDbLine
 62
7
  6
CONTINUOUS
 10
8.178148
 20
-17.698626
 11
8.178148
 21
-17.890272
  0
LINE
  5
3A7
100
AcDbEntity
  8
0
100
AcDbLine
 62
7
  6
CONTINUOUS
 10
8.698417
 20
18.400056
 11
8.69841
 21
15.59993
  0
LINE
  5
3A8
100
AcDbEntity
  8
0
100
AcDbLine
 62
7
  6
CONTINUOUS
 10
8.719609
 20
-17.890272
 11
8.719609
 21
-19.298626
  0
LWPOLYLINE
  5
3A9
100
AcDbEntity
  8
0
100
AcDbPolyline
 62
7
  6
CONTINUOUS
 90
16
 70
0
 10
6.5597569241
 20
-18.1610021562
 10
6.5581317142
 20
-18.213153478
 10
6.5517420509
 20
-18.2632650177
 10
6.5405879344
 20
-18.3113367974
 10
6.5245441421
 20
-18.3579309363
 10
6.5037358965
 20
-18.4024853533
 10
6.4785388644
 20
-18.443313785
 10
6.4487617572
 20
-18.4800526914
 10
6.4145958635
 20
-18.5130656788
 10
6.3769907168
 20
-18.54175722
 10
6.3360907206
 20
-18.565876501
 10
6.2917514714
 20
-18.5856743879
 10
6.244489292
 20
-18.6013078714
 10
6.1944762902
 20
-18.61282929
 10
6.1415403582
 20
-18.6201863306
 10
6.0856814962
 20
-18.623379
  0
LINE
  5
3AA
100
AcDbEntity
  8
RACCORDO
100
AcDbLine
 62
7
  6
CONTINUOUS
 10
11.8426930973
 20
12.0337020522
 11
11.8739920374
 21
12.158945507
  0
LINE
  5
3AB
100
AcDbEntity
  8
0
100
AcDbLine
 62
7
  6
CONTINUOUS
 10
13.269767
 20
18.400063
 11
12.37075
 21
15.59993
  0
LINE
  5
3AC
100
AcDbEntity
  8
0
100
AcDbLine
 62
7
  6
CONTINUOUS
 10
13.10757
 20
16.150599
 11
12.930771
 21
15.599937
  0
LINE
  5
3AD
100
AcDbEntity
  8
0
100
AcDbLine
 62
7
  6
CONTINUOUS
 10
13.549788
 20
17.527968
 11
13.278391
 21
16.68262
  0
LINE
  5
3AE
100
AcDbEntity
  8
RACCORDO
100
AcDbLine
 62
250
  6
CONTINUOUS
 10
-22.225
 20
-16.0215754898
 11
-22.1551797403
 21
-15.9973709177
  0
LINE
  5
3AF
100
AcDbEntity
  8
DRAFT
100
AcDbLine
 62
7
  6
CONTINUOUS
 10
-21.1132045161
 20
-16.408165363
 11
-21.1830247758
 21
-16.4319772848
  0
LINE
  5
3B0
100
AcDbEntity
  8
RACCORDO
100
AcDbLine
 62
250
  6
CONTINUOUS
 10
11.7888910803
 20
7.083668826
 11
10.9611089197
 21
7.083668826
  0
LINE
  5
3B1
100
AcDbEntity
  8
RACCORDO
100
AcDbLine
 62
250
  6
CONTINUOUS
 10
11.7968573515
 20
8.0798635241
 11
10.9531426485
 21
8.0798635241
  0
LINE
  5
3B2
100
AcDbEntity
  8
DRAFT
100
AcDbLine
 62
7
  6
CONTINUOUS
 10
10.9157292072
 20
8.4549410503
 11
11.8342707928
 21
8.4549410503
  0
LINE
  5
3B3
100
AcDbEntity
  8
DRAFT
100
AcDbLine
 62
7
  6
CONTINUOUS
 10
-21.1132045161
 20
16.408165363
 11
-21.1830247758
 21
16.4319772848
  0
LINE
  5
3B4
100
AcDbEntity
  8
RACCORDO
100
AcDbLine
 62
250
  6
CONTINUOUS
 10
-22.1551797403
 20
15.9973709177
 11
-22.225
 21
16.0215754898
  0
LINE
  5
3B5
100
AcDbEntity
  8
RACCORDO
100
AcDbLine
 62
7
  6
CONTINUOUS
 10
11.7968573515
 20
-8.0798635241
 11
11.8745996034
 21
-8.8592457589
  0
LINE
  5
3B6
100
AcDbEntity
  8
SMUSSO
100
AcDbLine
 62
7
  6
CONTINUOUS
 10
9.3611089197
 20
-5.125
 11
9.3576181726
 21
-4.725
  0
LINE
  5
3B7
100
AcDbEntity
  8
0
100
AcDbLine
 62
7
  6
CONTINUOUS
 10
8.935764
 20
-17.890272
 11
8.935764
 21
-19.298626
  0
LINE
  5
3B8
100
AcDbEntity
  8
0
100
AcDbLine
 62
7
  6
CONTINUOUS
 10
9.258417
 20
18.400056
 11
9.258417
 21
15.59993
  0
LINE
  5
3B9
100
AcDbEntity
  8
SMUSSO
100
AcDbLine
 62
7
  6
CONTINUOUS
 10
9.3611089197
 20
-5.725
 11
9.3611089197
 21
-5.125
  0
LINE
  5
3BA
100
AcDbEntity
  8
SMUSSO
100
AcDbLine
 62
7
  6
CONTINUOUS
 10
9.3611089197
 20
5.125
 11
9.3611089197
 21
5.725
  0
LINE
  5
3BB
100
AcDbEntity
  8
0
100
AcDbLine
 62
7
  6
CONTINUOUS
 10
9.477224
 20
-17.698626
 11
9.477224
 21
-17.890272
  0
LINE
  5
3BC
100
AcDbEntity
  8
0
100
AcDbLine
 62
7
  6
CONTINUOUS
 10
9.702349
 20
-19.062384
 11
9.702349
 21
-19.298626
  0
LINE
  5
3BD
100
AcDbEntity
  8
0
100
AcDbLine
 62
7
  6
CONTINUOUS
 10
9.818438
 20
17.446425
 11
9.818438
 21
15.59993
  0
LINE
  5
3BE
100
AcDbEntity
  8
DRAFT
100
AcDbLine
 62
7
  6
CONTINUOUS
 10
9.875
 20
-20.85
 11
9.875
 21
-21.45
  0
LINE
  5
3BF
100
AcDbEntity
  8
0
100
AcDbLine
 62
7
  6
CONTINUOUS
 10
9.934042
 20
-19.062384
 11
9.934042
 21
-19.298626
  0
LINE
  5
3C0
100
AcDbEntity
  8
RACCORDO
100
AcDbLine
 62
7
  6
CONTINUOUS
 10
10.9157292072
 20
8.4549410503
 11
10.9157292072
 21
11.0343112252
  0
LINE
  5
3C1
100
AcDbEntity
  8
0
100
AcDbLine
 62
7
  6
CONTINUOUS
 10
10.939017
 20
-17.698626
 11
10.939017
 21
-19.298626
  0
LINE
  5
3C2
100
AcDbEntity
  8
RACCORDO
100
AcDbLine
 62
7
  6
CONTINUOUS
 10
10.9611089197
 20
-7.083668826
 11
10.9611089197
 21
-5.725
  0
LINE
  5
3C3
100
AcDbEntity
  8
RACCORDO
100
AcDbLine
 62
7
  6
CONTINUOUS
 10
10.9611089197
 20
5.725
 11
10.9611089197
 21
7.083668826
  0
LINE
  5
3C4
100
AcDbEntity
  8
SMUSSO
100
AcDbLine
 62
7
  6
CONTINUOUS
 10
9.3611089197
 20
5.125
 11
9.3576181726
 21
4.725
  0
LINE
  5
3C5
100
AcDbEntity
  8
RACCORDO
100
AcDbLine
 62
7
  6
CONTINUOUS
 10
11.7968573515
 20
8.0798635241
 11
11.8342707928
 21
8.4549410503
  0
LINE
  5
3C6
100
AcDbEntity
  8
DRAFT
100
AcDbLine
 62
7
  6
CONTINUOUS
 10
21.325
 20
20.85
 11
21.2790324601
 21
20.7580579181
  0
LINE
  5
3C7
100
AcDbEntity
  8
DRAFT
100
AcDbLine
 62
7
  6
CONTINUOUS
 10
1.4215114649
 20
-20.7580579181
 11
1.375543925
 21
-20.85
  0
LWPOLYLINE
  5
3C8
100
AcDbEntity
  8
RACCORDO
100
AcDbPolyline
 62
7
  6
CONTINUOUS
 90
13
 70
0
 10
-0.5244796213
 20
-17.2358250037
 10
-0.4579143246
 20
-17.1464162131
 10
-0.3966939565
 20
-17.0538984507
 10
-0.340818517
 20
-16.9582717164
 10
-0.2901142878
 20
-16.8591761558
 10
-0.2447549872
 20
-16.7569716232
 10
-0.2052617704
 20
-16.6527376827
 10
-0.1717236253
 20
-16.5464454731
 10
-0.1440515641
 20
-16.4381238555
 10
-0.1224997777
 20
-16.3289389765
 10
-0.1071529968
 20
-16.2192795517
 10
-0.0979264908
 20
-16.1087568655
 10
-0.0948202597
 20
-15.9973709179
  0
LWPOLYLINE
  5
3C9
100
AcDbEntity
  8
RACCORDO
100
AcDbPolyline
 62
7
  6
CONTINUOUS
 90
13
 70
0
 10
-0.4056985766
 20
-17.3594295692
 10
-0.3389791379
 20
-17.2699643857
 10
-0.2776154898
 20
-17.1773782886
 10
-0.2216076323
 20
-17.081671278
 10
-0.1707808618
 20
-16.9824822171
 10
-0.125309882
 20
-16.8801722426
 10
-0.0857188032
 20
-16.7758247651
 10
-0.0520970874
 20
-16.6694105511
 10
-0.0243552728
 20
-16.5609588341
 10
-0.0027490842
 20
-16.4516407259
 10
0.0126362366
 20
-16.3418465971
 10
0.0218859314
 20
-16.2311860772
 10
0.025
 20
-16.119659166
  0
LINE
  5
3CA
100
AcDbEntity
  8
RACCORDO
100
AcDbLine
 62
7
  6
CONTINUOUS
 10
-7.1922197286
 20
-20.0672197286
 11
-7.125
 21
-20.0
  0
LINE
  5
3CB
100
AcDbEntity
  8
DRAFT
100
AcDbLine
 62
7
  6
CONTINUOUS
 10
-17.771625985
 20
-20.0
 11
-17.8373016331
 21
-20.0349074712
  0
LINE
  5
3CC
100
AcDbEntity
  8
DRAFT
100
AcDbLine
 62
7
  6
CONTINUOUS
 10
-17.8932063485
 20
-21.1374937549
 11
-17.9459092915
 21
-21.1650925288
  0
LINE
  5
3CD
100
AcDbEntity
  8
RACCORDO
100
AcDbLine
 62
250
  6
CONTINUOUS
 10
-21.7964988851
 20
-17.2585598075
 11
-21.7255203781
 21
-17.2358250044
  0
LINE
  5
3CE
100
AcDbEntity
  8
0
100
AcDbLine
 62
7
  6
CONTINUOUS
 10
-8.909065
 20
9.574954
 11
-9.279084
 21
9.574958
  0
LINE
  5
3CF
100
AcDbEntity
  8
0
100
AcDbLine
 62
7
  6
CONTINUOUS
 10
-10.713768
 20
9.574954
 11
-11.083782
 21
9.574954
  0
LINE
  5
3D0
100
AcDbEntity
  8
0
100
AcDbLine
 62
7
  6
CONTINUOUS
 10
-12.153443
 20
9.574954
 11
-12.523457
 21
9.574954
  0
LINE
  5
3D1
100
AcDbEntity
  8
0
100
AcDbLine
 62
7
  6
CONTINUOUS
 10
-8.292372
 20
9.574958
 11
-8.662391
 21
9.574958
  0
LINE
  5
3D2
100
AcDbEntity
  8
0
100
AcDbLine
 62
7
  6
CONTINUOUS
 10
-7.181827
 20
9.574963
 11
-7.59859
 21
9.574958
  0
LINE
  5
3D3
100
AcDbEntity
  8
0
100
AcDbLine
 62
7
  6
CONTINUOUS
 10
-10.09708
 20
9.574958
 11
-10.467094
 21
9.574954
  0
LINE
  5
3D4
100
AcDbEntity
  8
0
100
AcDbLine
 62
7
  6
CONTINUOUS
 10
-11.433612
 20
9.574958
 11
-11.803617
 21
9.574954
  0
LINE
  5
3D5
100
AcDbEntity
  8
0
100
AcDbLine
 62
7
  6
CONTINUOUS
 10
-12.893461
 20
9.574954
 11
-13.263475
 21
9.574949
  0
LINE
  5
3D6
100
AcDbEntity
  8
0
100
AcDbLine
 62
7
  6
CONTINUOUS
 10
-14.104148
 20
9.574954
 11
-14.474175
 21
9.574949
  0
LINE
  5
3D7
100
AcDbEntity
  8
0
100
AcDbLine
 62
7
  6
CONTINUOUS
 10
-9.395893
 20
9.938789
 11
-9.980266
 21
9.938789
  0
LINE
  5
3D8
100
AcDbEntity
  8
0
100
AcDbLine
 62
7
  6
CONTINUOUS
 10
-7.96939
 20
10.290302
 11
-8.292331
 21
10.290307
  0
LINE
  5
3D9
100
AcDbEntity
  8
0
100
AcDbLine
 62
7
  6
CONTINUOUS
 10
-9.867402
 20
10.290302
 11
-9.508761
 21
10.290302
  0
LINE
  5
3DA
100
AcDbEntity
  8
0
100
AcDbLine
 62
7
  6
CONTINUOUS
 10
-8.297474
 20
10.632571
 11
-7.847301
 21
10.632571
  0
LINE
  5
3DB
100
AcDbEntity
  8
RACCORDO
100
AcDbLine
 62
250
  6
CONTINUOUS
 10
11.8342707928
 20
11.0343112252
 11
10.9157292072
 21
11.0343112252
  0
LINE
  5
3DC
100
AcDbEntity
  8
0
100
AcDbLine
 62
7
  6
CONTINUOUS
 10
-7.847301
 20
11.082778
 11
-8.297478
 21
11.082778
  0
LINE
  5
3DD
100
AcDbEntity
  8
RACCORDO
100
AcDbLine
 62
250
  6
CONTINUOUS
 10
-21.7255203781
 20
17.2358250044
 11
-21.7964988851
 21
17.2585598076
  0
LINE
  5
3DE
100
AcDbEntity
  8
DRAFT
100
AcDbLine
 62
7
  6
CONTINUOUS
 10
-17.8932063485
 20
21.1374937549
 11
-17.9459092915
 21
21.1650925288
  0
LINE
  5
3DF
100
AcDbEntity
  8
DRAFT
100
AcDbLine
 62
7
  6
CONTINUOUS
 10
-17.771625985
 20
20.0
 11
-17.8373016331
 21
20.0349074712
  0
LINE
  5
3E0
100
AcDbEntity
  8
RACCORDO
100
AcDbLine
 62
7
  6
CONTINUOUS
 10
-7.1922197286
 20
20.0672197286
 11
-7.125
 21
20.0
  0
LWPOLYLINE
  5
3E1
100
AcDbEntity
  8
RACCORDO
100
AcDbPolyline
 62
7
  6
CONTINUOUS
 90
13
 70
0
 10
-0.4535011155
 20
17.2585598083
 10
-0.3871142114
 20
17.1692251386
 10
-0.3260580731
 20
17.0767920704
 10
-0.2703327005
 20
16.9812606035
 10
-0.2197648796
 20
16.8822720474
 10
-0.1745278244
 20
16.7801850927
 10
-0.1351411776
 20
16.6760758112
 10
-0.1016936778
 20
16.5699150386
 10
-0.0740965863
 20
16.4617319392
 10
-0.0526033302
 20
16.3526900781
 10
-0.0372983848
 20
16.2431773103
 10
-0.0280972748
 20
16.1328057808
 10
-0.025
 20
16.0215754896
  0
LINE
  5
3E2
100
AcDbEntity
  8
DRAFT
100
AcDbLine
 62
7
  6
CONTINUOUS
 10
21.325
 20
-20.85
 11
21.2790324601
 21
-20.7580579181
  0
LINE
  5
3E3
100
AcDbEntity
  8
DRAFT
100
AcDbLine
 62
7
  6
CONTINUOUS
 10
1.4215114649
 20
20.7580579181
 11
1.375543925
 21
20.85
  0
LINE
  5
3E4
100
AcDbEntity
  8
0
100
AcDbLine
 62
7
  6
CONTINUOUS
 10
5.406954
 20
18.400056
 11
6.305978
 21
15.599923
  0
LINE
  5
3E5
100
AcDbEntity
  8
RACCORDO
100
AcDbLine
 62
7
  6
CONTINUOUS
 10
10.9531426485
 20
8.0798635241
 11
10.9157292072
 21
8.4549410503
  0
LINE
  5
3E6
100
AcDbEntity
  8
0
100
AcDbLine
 62
7
  6
CONTINUOUS
 10
11.155171
 20
-17.883576
 11
11.155171
 21
-18.438428
  0
LINE
  5
3E7
100
AcDbEntity
  8
0
100
AcDbLine
 62
7
  6
CONTINUOUS
 10
11.155171
 20
-18.623379
 11
11.155171
 21
-19.298626
  0
LINE
  5
3E8
100
AcDbEntity
  8
0
100
AcDbLine
 62
7
  6
CONTINUOUS
 10
11.437377
 20
17.446425
 11
11.437384
 21
15.59993
  0
LINE
  5
3E9
100
AcDbEntity
  8
RACCORDO
100
AcDbLine
 62
7
  6
CONTINUOUS
 10
11.7888910803
 20
7.083668826
 11
11.7888910803
 21
5.725
  0
LINE
  5
3EA
100
AcDbEntity
  8
RACCORDO
100
AcDbLine
 62
7
  6
CONTINUOUS
 10
11.7888910803
 20
-5.725
 11
11.7888910803
 21
-7.083668826
  0
LINE
  5
3EB
100
AcDbEntity
  8
RACCORDO
100
AcDbLine
 62
7
  6
CONTINUOUS
 10
11.8342707928
 20
11.0343112252
 11
11.8342707928
 21
8.4549410503
  0
LINE
  5
3EC
100
AcDbEntity
  8
0
100
AcDbLine
 62
7
  6
CONTINUOUS
 10
11.997405
 20
18.400056
 11
11.997405
 21
15.59993
  0
LINE
  5
3ED
100
AcDbEntity
  8
0
100
AcDbLine
 62
7
  6
CONTINUOUS
 10
12.425317
 20
-17.698626
 11
12.425317
 21
-19.298626
  0
LINE
  5
3EE
100
AcDbEntity
  8
0
100
AcDbLine
 62
7
  6
CONTINUOUS
 10
12.641472
 20
-17.890272
 11
12.641472
 21
-18.380568
  0
LINE
  5
3EF
100
AcDbEntity
  8
0
100
AcDbLine
 62
7
  6
CONTINUOUS
 10
12.641472
 20
-18.572214
 11
12.641472
 21
-19.106979
  0
LINE
  5
3F0
100
AcDbEntity
  8
DRAFT
100
AcDbLine
 62
7
  6
CONTINUOUS
 10
12.875
 20
-21.45
 11
12.875
 21
-20.85
  0
LWPOLYLINE
  5
3F1
100
AcDbEntity
  8
0
100
AcDbPolyline
 62
7
  6
CONTINUOUS
 90
22
 70
0
 10
11.9100957221
 20
-18.1610022053
 10
11.9101826565
 20
-18.1409697578
 10
11.9091836872
 20
-18.1211762207
 10
11.907098814
 20
-18.1016215951
 10
11.9041056413
 20
-18.0822226059
 10
11.9000265647
 20
-18.06306253
 10
11.8943287716
 20
-18.0443911978
 10
11.886901672
 20
-18.0262179962
 10
11.8778558559
 20
-18.0085335422
 10
11.8669902802
 20
-17.9915595134
 10
11.8543364816
 20
-17.9751956998
 10
11.8398629234
 20
-17.9595423163
 10
11.8232739522
 20
-17.9451216803
 10
11.8043151805
 20
-17.9319341065
 10
11.7832409959
 20
-17.9199792877
 10
11.7605189076
 20
-17.9097786107
 10
11.7361692444
 20
-17.9016124839
 10
11.7101716776
 20
-17.8952005063
 10
11.6829327298
 20
-17.8902228508
 10
11.6545879088
 20
-17.886572909
 10
11.6250017067
 20
-17.8843572919
 10
11.5941741238
 20
-17.8835760002
  0
LWPOLYLINE
  5
3F2
100
AcDbEntity
  8
0
100
AcDbPolyline
 62
7
  6
CONTINUOUS
 90
16
 70
0
 10
12.1327849541
 20
-18.1610021562
 10
12.1311597442
 20
-18.213153478
 10
12.124770081
 20
-18.2632650177
 10
12.1136159644
 20
-18.3113367974
 10
12.0975721721
 20
-18.3579309363
 10
12.0767639265
 20
-18.4024853533
 10
12.0515668944
 20
-18.443313785
 10
12.0217897872
 20
-18.4800526914
 10
11.9876238935
 20
-18.5130656788
 10
11.9500187468
 20
-18.54175722
 10
11.9091187506
 20
-18.565876501
 10
11.8647795014
 20
-18.5856743879
 10
11.817517322
 20
-18.6013078714
 10
11.7675043202
 20
-18.61282929
 10
11.7145683882
 20
-18.6201863306
 10
11.6587095262
 20
-18.623379
  0
LINE
  5
3F3
100
AcDbEntity
  8
RACCORDO
100
AcDbLine
 62
7
  6
CONTINUOUS
 10
10.9531426485
 20
-8.0798635241
 11
10.8754003966
 21
-8.8592457589
  0
LINE
  5
3F4
100
AcDbEntity
  8
0
100
AcDbLine
 62
7
  6
CONTINUOUS
 10
7.081835
 20
-18.832838
 11
6.914698
 21
-19.298626
  0
LINE
  5
3F5
100
AcDbEntity
  8
0
100
AcDbLine
 62
7
  6
CONTINUOUS
 10
7.407168
 20
-17.930692
 11
7.148665
 21
-18.641192
  0
LINE
  5
3F6
100
AcDbEntity
  8
0
100
AcDbLine
 62
7
  6
CONTINUOUS
 10
7.293569
 20
-17.698626
 11
6.691847
 21
-19.298626
  0
LINE
  5
3F7
100
AcDbEntity
  8
DRAFT
100
AcDbLine
 62
7
  6
CONTINUOUS
 10
-14.2529281039
 20
-21.1650925288
 11
-14.225
 21
-21.1511295404
  0
LINE
  5
3F8
100
AcDbEntity
  8
DRAFT
100
AcDbLine
 62
7
  6
CONTINUOUS
 10
-18.4442110784
 20
-20.6435196952
 11
-18.5080351795
 21
-20.671935187
  0
LINE
  5
3F9
100
AcDbEntity
  8
0
100
AcDbLine
 62
7
  6
CONTINUOUS
 10
-15.068173
 20
11.425037
 11
-14.698155
 21
11.425037
  0
LINE
  5
3FA
100
AcDbEntity
  8
0
100
AcDbLine
 62
7
  6
CONTINUOUS
 10
-13.880163
 20
11.425037
 11
-13.510145
 21
11.425037
  0
LINE
  5
3FB
100
AcDbEntity
  8
0
100
AcDbLine
 62
7
  6
CONTINUOUS
 10
-13.263471
 20
11.425037
 11
-12.893457
 21
11.425037
  0
LINE
  5
3FC
100
AcDbEntity
  8
0
100
AcDbLine
 62
7
  6
CONTINUOUS
 10
-12.523457
 20
11.425037
 11
-11.964095
 21
11.425037
  0
LINE
  5
3FD
100
AcDbEntity
  8
0
100
AcDbLine
 62
7
  6
CONTINUOUS
 10
-11.27313
 20
11.425037
 11
-10.713768
 21
11.425037
  0
LINE
  5
3FE
100
AcDbEntity
  8
0
100
AcDbLine
 62
7
  6
CONTINUOUS
 10
-9.8731
 20
11.425042
 11
-9.503068
 21
11.425042
  0
LINE
  5
3FF
100
AcDbEntity
  8
0
100
AcDbLine
 62
7
  6
CONTINUOUS
 10
-8.662391
 20
11.425042
 11
-7.795944
 21
11.425042
  0
LINE
  5
400
100
AcDbEntity
  8
RACCORDO
100
AcDbLine
 62
250
  6
CONTINUOUS
 10
11.8426930973
 20
12.0337020522
 11
10.9073069027
 21
12.0337020522
  0
LINE
  5
401
100
AcDbEntity
  8
DRAFT
100
AcDbLine
 62
7
  6
CONTINUOUS
 10
11.8739920374
 20
12.158945507
 11
10.8760079626
 21
12.158945507
  0
LINE
  5
402
100
AcDbEntity
  8
DRAFT
100
AcDbLine
 62
7
  6
CONTINUOUS
 10
-18.4442110784
 20
20.6435196952
 11
-18.5080351795
 21
20.671935187
  0
LINE
  5
403
100
AcDbEntity
  8
DRAFT
100
AcDbLine
 62
7
  6
CONTINUOUS
 10
-14.2529281039
 20
21.1650925288
 11
-14.225
 21
21.1511295404
  0
LINE
  5
404
100
AcDbEntity
  8
0
100
AcDbLine
 62
7
  6
CONTINUOUS
 10
5.966982
 20
18.400056
 11
6.586006
 21
16.472018
  0
LINE
  5
405
100
AcDbEntity
  8
SMUSSO
100
AcDbLine
 62
7
  6
CONTINUOUS
 10
13.3888910803
 20
5.125
 11
13.3923818274
 21
4.725
  0
LINE
  5
406
100
AcDbEntity
  8
SMUSSO
100
AcDbLine
 62
7
  6
CONTINUOUS
 10
13.3888910803
 20
5.725
 11
13.3888910803
 21
5.125
  0
LINE
  5
407
100
AcDbEntity
  8
SMUSSO
100
AcDbLine
 62
7
  6
CONTINUOUS
 10
13.3888910803
 20
-5.125
 11
13.3888910803
 21
-5.725
  0
LINE
  5
408
100
AcDbEntity
  8
0
100
AcDbLine
 62
7
  6
CONTINUOUS
 10
13.517335
 20
-18.380568
 11
13.517335
 21
-18.572214
  0
LINE
  5
409
100
AcDbEntity
  8
0
100
AcDbLine
 62
7
  6
CONTINUOUS
 10
13.59086
 20
-17.698626
 11
13.59086
 21
-17.890272
  0
LINE
  5
40A
100
AcDbEntity
  8
0
100
AcDbLine
 62
7
  6
CONTINUOUS
 10
13.606399
 20
-19.106979
 11
13.606399
 21
-19.298626
  0
LINE
  5
40B
100
AcDbEntity
  8
0
100
AcDbLine
 62
7
  6
CONTINUOUS
 10
13.889384
 20
-17.698626
 11
13.889384
 21
-19.298626
  0
LINE
  5
40C
100
AcDbEntity
  8
0
100
AcDbLine
 62
7
  6
CONTINUOUS
 10
14.098843
 20
-17.999093
 11
14.098843
 21
-19.298626
  0
LINE
  5
40D
100
AcDbEntity
  8
0
100
AcDbLine
 62
7
  6
CONTINUOUS
 10
14.950071
 20
-17.698626
 11
14.950071
 21
-18.998277
  0
LINE
  5
40E
100
AcDbEntity
  8
0
100
AcDbLine
 62
7
  6
CONTINUOUS
 10
15.102192
 20
18.400063
 11
15.102192
 21
15.599937
  0
LINE
  5
40F
100
AcDbEntity
  8
0
100
AcDbLine
 62
7
  6
CONTINUOUS
 10
15.15953
 20
-17.698626
 11
15.15953
 21
-19.298626
  0
LINE
  5
410
100
AcDbEntity
  8
SMUSSO
100
AcDbLine
 62
7
  6
CONTINUOUS
 10
13.3888910803
 20
-5.125
 11
13.3923818274
 21
-4.725
  0
LINE
  5
411
100
AcDbEntity
  8
RACCORDO
100
AcDbLine
 62
7
  6
CONTINUOUS
 10
-21.1097135031
 20
14.5
 11
-1.1402864969
 21
14.5
  0
LINE
  5
412
100
AcDbEntity
  8
RACCORDO
100
AcDbLine
 62
250
  6
CONTINUOUS
 10
-21.1132045161
 20
14.7
 11
-1.1367954839
 21
14.7
  0
LINE
  5
413
100
AcDbEntity
  8
0
100
AcDbLine
 62
7
  6
CONTINUOUS
 10
9.818438
 20
17.446425
 11
10.347904
 21
15.59993
  0
LINE
  5
414
100
AcDbEntity
  8
0
100
AcDbLine
 62
7
  6
CONTINUOUS
 10
10.105018
 20
18.400056
 11
10.627911
 21
16.576514
  0
LINE
  5
415
100
AcDbEntity
  8
RACCORDO
100
AcDbLine
 62
7
  6
CONTINUOUS
 10
10.9073069027
 20
12.0337020522
 11
10.8760079626
 21
12.158945507
  0
LWPOLYLINE
  5
416
100
AcDbEntity
  8
0
100
AcDbPolyline
 62
7
  6
CONTINUOUS
 90
28
 70
0
 10
16.6075942013
 20
-18.4986255681
 10
16.6070658857
 20
-18.466037354
 10
16.6057233764
 20
-18.4335659362
 10
16.6035666737
 20
-18.4012113156
 10
16.6007283455
 20
-18.3689728826
 10
16.5970758239
 20
-18.3368512489
 10
16.5922114039
 20
-18.3048482471
 10
16.5861438984
 20
-18.2728559727
 10
16.5788644945
 20
-18.2409823317
 10
16.5699490498
 20
-18.2095528752
 10
16.5593703507
 20
-18.1784833193
 10
16.5471556108
 20
-18.1478579539
 10
16.532962328
 20
-18.118255196
 10
16.5166469907
 20
-18.0896796058
 10
16.4983531105
 20
-18.0621266364
 10
16.4781687202
 20
-18.036161051
 10
16.4559982802
 20
-18.011775076
 10
16.4319373301
 20
-17.9889765026
 10
16.4063605214
 20
-17.9683534466
 10
16.379212906
 20
-17.9500492722
 10
16.3505494321
 20
-17.9339206341
 10
16.3209095956
 20
-17.9201255854
 10
16.2902795023
 20
-17.9088316693
 10
16.2586730466
 20
-17.8998713556
 10
16.2266714075
 20
-17.8929000857
 10
16.1944683116
 20
-17.8878030079
 10
16.1618700325
 20
-17.884694979
 10
16.1288765701
 20
-17.8835760002
  0
LWPOLYLINE
  5
417
100
AcDbEntity
  8
0
100
AcDbPolyline
 62
7
  6
CONTINUOUS
 90
31
 70
0
 10
16.8299805805
 20
-18.498625573
 10
16.8302932881
 20
-18.5378729886
 10
16.829234068
 20
-18.5769964042
 10
16.8268029199
 20
-18.6159958206
 10
16.8231201938
 20
-18.6549451334
 10
16.8180655398
 20
-18.6937704484
 10
16.8112779089
 20
-18.7322500831
 10
16.8025816191
 20
-18.7703452887
 10
16.7921523523
 20
-18.8080948199
 10
16.780156105
 20
-18.8453932527
 10
16.7667367941
 20
-18.8823641079
 10
16.7517505026
 20
-18.9188838713
 10
16.7349314763
 20
-18.9544765711
 10
16.7162734753
 20
-18.9891800239
 10
16.6957827395
 20
-19.0229564276
 10
16.673212234
 20
-19.0552163911
 10
16.6483804206
 20
-19.0859466951
 10
16.6214688377
 20
-19.1151605808
 10
16.592775065
 20
-19.142308356
 10
16.5622045594
 20
-19.1672600471
 10
16.5298518641
 20
-19.190145653
 10
16.4962981892
 20
-19.2108054427
 10
16.4615809279
 20
-19.2291560909
 10
16.4256626871
 20
-19.2452809432
 10
16.3890124962
 20
-19.2592702738
 10
16.3516709711
 20
-19.2711510357
 10
16.313597496
 20
-19.2808962888
 10
16.2751392532
 20
-19.2885154656
 10
16.2364119702
 20
-19.2940117127
 10
16.1972999195
 20
-19.29738189
 10
16.1578031011
 20
-19.2986259993
  0
LINE
  5
418
100
AcDbEntity
  8
0
100
AcDbLine
 62
7
  6
CONTINUOUS
 10
15.509344
 20
-17.698626
 11
15.509344
 21
-19.298626
  0
LINE
  5
419
100
AcDbEntity
  8
0
100
AcDbLine
 62
7
  6
CONTINUOUS
 10
15.654492
 20
17.882042
 11
15.654499
 21
17.200648
  0
LINE
  5
41A
100
AcDbEntity
  8
0
100
AcDbLine
 62
7
  6
CONTINUOUS
 10
15.725499
 20
-17.883576
 11
15.725499
 21
-19.113675
  0
LINE
  5
41B
100
AcDbEntity
  8
0
100
AcDbLine
 62
7
  6
CONTINUOUS
 10
17.131579
 20
-19.062384
 11
17.131579
 21
-19.298626
  0
LINE
  5
41C
100
AcDbEntity
  8
0
100
AcDbLine
 62
7
  6
CONTINUOUS
 10
17.363399
 20
-19.062384
 11
17.363399
 21
-19.298626
  0
LINE
  5
41D
100
AcDbEntity
  8
0
100
AcDbLine
 62
7
  6
CONTINUOUS
 10
15.662283
 20
16.682627
 11
15.66222
 21
15.599937
  0
LINE
  5
41E
100
AcDbEntity
  8
DRAFT
100
AcDbLine
 62
7
  6
CONTINUOUS
 10
13.5089745962
 20
-20.35
 11
13.5145881312
 21
-20.3073609684
  0
LINE
  5
41F
100
AcDbEntity
  8
DRAFT
100
AcDbLine
 62
7
  6
CONTINUOUS
 10
-3.8117850802
 20
-20.0698149423
 11
-3.7419648205
 21
-20.0349074712
  0
LINE
  5
420
100
AcDbEntity
  8
0
100
AcDbLine
 62
7
  6
CONTINUOUS
 10
17.343046
 20
15.599944
 11
16.712269
 21
15.599937
  0
LINE
  5
421
100
AcDbEntity
  8
0
100
AcDbLine
 62
7
  6
CONTINUOUS
 10
12.930771
 20
15.599937
 11
12.37075
 21
15.59993
  0
LINE
  5
422
100
AcDbEntity
  8
0
100
AcDbLine
 62
7
  6
CONTINUOUS
 10
10.907911
 20
15.599937
 11
10.347904
 21
15.59993
  0
LINE
  5
423
100
AcDbEntity
  8
0
100
AcDbLine
 62
7
  6
CONTINUOUS
 10
8.69841
 20
15.59993
 11
8.138389
 21
15.599923
  0
LINE
  5
424
100
AcDbEntity
  8
0
100
AcDbLine
 62
7
  6
CONTINUOUS
 10
6.86602
 20
15.59993
 11
6.305978
 21
15.599923
  0
LINE
  5
425
100
AcDbEntity
  8
0
100
AcDbLine
 62
7
  6
CONTINUOUS
 10
11.997405
 20
15.59993
 11
11.437384
 21
15.59993
  0
LINE
  5
426
100
AcDbEntity
  8
0
100
AcDbLine
 62
7
  6
CONTINUOUS
 10
9.818438
 20
15.59993
 11
9.258417
 21
15.59993
  0
LINE
  5
427
100
AcDbEntity
  8
0
100
AcDbLine
 62
7
  6
CONTINUOUS
 10
15.66222
 20
15.599937
 11
15.102192
 21
15.599937
  0
LINE
  5
428
100
AcDbEntity
  8
0
100
AcDbLine
 62
7
  6
CONTINUOUS
 10
14.728847
 20
15.59993
 11
14.168819
 21
15.599937
  0
LINE
  5
429
100
AcDbEntity
  8
0
100
AcDbLine
 62
7
  6
CONTINUOUS
 10
13.992027
 20
16.150599
 11
13.10757
 21
16.150599
  0
LINE
  5
42A
100
AcDbEntity
  8
RACCORDO
100
AcDbLine
 62
7
  6
CONTINUOUS
 10
-7.8258840059
 20
16.5882381259
 11
-7.4241159941
 21
16.5882381259
  0
LINE
  5
42B
100
AcDbEntity
  8
RACCORDO
100
AcDbLine
 62
7
  6
CONTINUOUS
 10
-14.4241159941
 20
16.5882381259
 11
-14.8258840059
 21
16.5882381259
  0
LINE
  5
42C
100
AcDbEntity
  8
0
100
AcDbLine
 62
7
  6
CONTINUOUS
 10
13.821199
 20
16.68262
 11
13.278391
 21
16.68262
  0
LINE
  5
42D
100
AcDbEntity
  8
0
100
AcDbLine
 62
7
  6
CONTINUOUS
 10
16.151058
 20
16.68262
 11
15.662283
 21
16.682627
  0
LINE
  5
42E
100
AcDbEntity
  8
0
100
AcDbLine
 62
7
  6
CONTINUOUS
 10
16.335842
 20
17.200648
 11
15.654499
 21
17.200648
  0
LINE
  5
42F
100
AcDbEntity
  8
DRAFT
100
AcDbLine
 62
7
  6
CONTINUOUS
 10
-3.8117850802
 20
20.0698149423
 11
-3.7419648205
 21
20.0349074712
  0
LWPOLYLINE
  5
430
100
AcDbEntity
  8
RACCORDO
100
AcDbPolyline
 62
7
  6
CONTINUOUS
 90
7
 70
0
 10
-5.4397044757
 20
22.2978870308
 10
-5.4856843213
 20
22.3287225274
 10
-5.5334290112
 20
22.3540235025
 10
-5.5829385456
 20
22.3737899561
 10
-5.6342129244
 20
22.3880218881
 10
-5.6872521476
 20
22.3967192986
 10
-5.7420562152
 20
22.3998821875
  0
LINE
  5
431
100
AcDbEntity
  8
RACCORDO
100
AcDbLine
 62
7
  6
CONTINUOUS
 10
19.125
 20
-3.75
 11
19.0841086907
 21
-2.7456305277
  0
LINE
  5
432
100
AcDbEntity
  8
RACCORDO
100
AcDbLine
 62
7
  6
CONTINUOUS
 10
19.0852320144
 20
1.5839555569
 11
19.0822184527
 21
1.8737134103
  0
LINE
  5
433
100
AcDbEntity
  8
RACCORDO
100
AcDbLine
 62
7
  6
CONTINUOUS
 10
18.125
 20
-3.75
 11
18.125
 21
-1.5839555569
  0
LINE
  5
434
100
AcDbEntity
  8
ASSI
100
AcDbLine
 62
7
  6
CONTINUOUS
 10
18.125
 20
-1.5839555569
 11
18.125
 21
1.5839555569
  0
LINE
  5
435
100
AcDbEntity
  8
RACCORDO
100
AcDbLine
 62
7
  6
CONTINUOUS
 10
18.125
 20
1.5839555569
 11
18.125
 21
3.75
  0
LINE
  5
436
100
AcDbEntity
  8
RACCORDO
100
AcDbLine
 62
7
  6
CONTINUOUS
 10
19.0822184527
 20
-1.8737134103
 11
19.0852320144
 21
-1.5839555569
  0
LINE
  5
437
100
AcDbEntity
  8
RACCORDO
100
AcDbLine
 62
7
  6
CONTINUOUS
 10
19.0841086907
 20
2.7456305277
 11
19.125
 21
3.75
  0
LINE
  5
438
100
AcDbEntity
  8
0
100
AcDbLine
 62
7
  6
CONTINUOUS
 10
16.335842
 20
17.882042
 11
15.654492
 21
17.882042
  0
LINE
  5
439
100
AcDbEntity
  8
0
100
AcDbLine
 62
7
  6
CONTINUOUS
 10
11.997405
 20
18.400056
 11
11.150804
 21
18.400056
  0
LINE
  5
43A
100
AcDbEntity
  8
0
100
AcDbLine
 62
7
  6
CONTINUOUS
 10
10.105018
 20
18.400056
 11
9.258417
 21
18.400056
  0
LINE
  5
43B
100
AcDbEntity
  8
0
100
AcDbLine
 62
7
  6
CONTINUOUS
 10
8.698417
 20
18.400056
 11
8.138396
 21
18.400056
  0
LINE
  5
43C
100
AcDbEntity
  8
0
100
AcDbLine
 62
7
  6
CONTINUOUS
 10
7.765051
 20
18.400056
 11
7.205023
 21
18.400056
  0
LINE
  5
43D
100
AcDbEntity
  8
0
100
AcDbLine
 62
7
  6
CONTINUOUS
 10
5.966982
 20
18.400056
 11
5.406954
 21
18.400056
  0
LINE
  5
43E
100
AcDbEntity
  8
0
100
AcDbLine
 62
7
  6
CONTINUOUS
 10
16.413572
 20
18.400063
 11
15.102192
 21
18.400063
  0
LINE
  5
43F
100
AcDbEntity
  8
0
100
AcDbLine
 62
7
  6
CONTINUOUS
 10
13.829816
 20
18.400063
 11
13.269767
 21
18.400063
  0
LINE
  5
440
100
AcDbEntity
  8
RACCORDO
100
AcDbLine
 62
250
  6
CONTINUOUS
 10
-7.4910598849
 20
19.3802574587
 11
-7.7589401151
 21
19.3802574587
  0
LINE
  5
441
100
AcDbEntity
  8
RACCORDO
100
AcDbLine
 62
250
  6
CONTINUOUS
 10
-14.4910598849
 20
19.3802574587
 11
-14.7589401151
 21
19.3802574587
  0
LINE
  5
442
100
AcDbEntity
  8
0
100
AcDbLine
 62
7
  6
CONTINUOUS
 10
13.992027
 20
16.150599
 11
14.168819
 21
15.599937
  0
LINE
  5
443
100
AcDbEntity
  8
0
100
AcDbLine
 62
7
  6
CONTINUOUS
 10
13.549788
 20
17.527968
 11
13.821199
 21
16.68262
  0
LINE
  5
444
100
AcDbEntity
  8
0
100
AcDbLine
 62
7
  6
CONTINUOUS
 10
13.829816
 20
18.400063
 11
14.728847
 21
15.59993
  0
LINE
  5
445
100
AcDbEntity
  8
DRAFT
100
AcDbLine
 62
7
  6
CONTINUOUS
 10
21.325
 20
-20.85
 11
21.325
 21
20.85
  0
LINE
  5
446
100
AcDbEntity
  8
DRAFT
100
AcDbLine
 62
7
  6
CONTINUOUS
 10
7.5540147964
 20
-20.7580579181
 11
7.4010572757
 21
-20.843017974
  0
LINE
  5
447
100
AcDbEntity
  8
DRAFT
100
AcDbLine
 62
7
  6
CONTINUOUS
 10
-8.3005120085
 20
21.1374937549
 11
-8.025
 21
21.1511295404
  0
LINE
  5
448
100
AcDbEntity
  8
RACCORDO
100
AcDbLine
 62
250
  6
CONTINUOUS
 10
-7.1922197286
 20
19.8501037691
 11
-8.0577802714
 21
19.8501037691
  0
LINE
  5
449
100
AcDbEntity
  8
RACCORDO
100
AcDbLine
 62
250
  6
CONTINUOUS
 10
-14.1922197286
 20
19.8501037691
 11
-15.0577802714
 21
19.8501037691
  0
LINE
  5
44A
100
AcDbEntity
  8
DRAFT
100
AcDbLine
 62
7
  6
CONTINUOUS
 10
-4.478374015
 20
20.0
 11
-7.125
 21
20.0
  0
LINE
  5
44B
100
AcDbEntity
  8
DRAFT
100
AcDbLine
 62
7
  6
CONTINUOUS
 10
-8.125
 20
20.0
 11
-14.125
 21
20.0
  0
LINE
  5
44C
100
AcDbEntity
  8
DRAFT
100
AcDbLine
 62
7
  6
CONTINUOUS
 10
-15.125
 20
20.0
 11
-17.771625985
 21
20.0
  0
LINE
  5
44D
100
AcDbEntity
  8
DRAFT
100
AcDbLine
 62
7
  6
CONTINUOUS
 10
-3.7419648205
 20
20.0349074712
 11
-4.4126983669
 21
20.0349074712
  0
LINE
  5
44E
100
AcDbEntity
  8
DRAFT
100
AcDbLine
 62
7
  6
CONTINUOUS
 10
-17.8373016331
 20
20.0349074712
 11
-18.5080351795
 21
20.0349074712
  0
LINE
  5
44F
100
AcDbEntity
  8
RACCORDO
100
AcDbLine
 62
7
  6
CONTINUOUS
 10
-18.4382149198
 20
20.0698149423
 11
-14.7577916945
 21
20.0698149423
  0
LINE
  5
450
100
AcDbEntity
  8
RACCORDO
100
AcDbLine
 62
7
  6
CONTINUOUS
 10
-14.4922083055
 20
20.0698149423
 11
-7.7577916945
 21
20.0698149423
  0
LINE
  5
451
100
AcDbEntity
  8
RACCORDO
100
AcDbLine
 62
7
  6
CONTINUOUS
 10
-7.4922083055
 20
20.0698149423
 11
-3.8117850802
 21
20.0698149423
  0
LINE
  5
452
100
AcDbEntity
  8
DRAFT
100
AcDbLine
 62
7
  6
CONTINUOUS
 10
-18.4382149198
 20
20.3
 11
-3.8117850802
 21
20.3
  0
LINE
  5
453
100
AcDbEntity
  8
DRAFT
100
AcDbLine
 62
7
  6
CONTINUOUS
 10
21.2790324601
 20
20.7580579181
 11
1.4215114649
 21
20.7580579181
  0
LINE
  5
454
100
AcDbEntity
  8
DRAFT
100
AcDbLine
 62
7
  6
CONTINUOUS
 10
0.6284885351
 20
20.7580579181
 11
-3.5850202014
 21
20.7580579181
  0
LINE
  5
455
100
AcDbEntity
  8
DRAFT
100
AcDbLine
 62
7
  6
CONTINUOUS
 10
-18.6649797947
 20
20.7580579181
 11
-21.0290324601
 21
20.7580579181
  0
LINE
  5
456
100
AcDbEntity
  8
DRAFT
100
AcDbLine
 62
7
  6
CONTINUOUS
 10
21.325
 20
20.85
 11
1.375543925
 21
20.85
  0
LINE
  5
457
100
AcDbEntity
  8
DRAFT
100
AcDbLine
 62
7
  6
CONTINUOUS
 10
0.674456075
 20
20.85
 11
-3.6876055201
 21
20.85
  0
LINE
  5
458
100
AcDbEntity
  8
DRAFT
100
AcDbLine
 62
7
  6
CONTINUOUS
 10
-18.5623944837
 20
20.85
 11
-21.075
 21
20.85
  0
LINE
  5
459
100
AcDbEntity
  8
DRAFT
100
AcDbLine
 62
7
  6
CONTINUOUS
 10
-4.3567936515
 20
21.1374937549
 11
-8.3005120085
 21
21.1374937549
  0
LINE
  5
45A
100
AcDbEntity
  8
DRAFT
100
AcDbLine
 62
7
  6
CONTINUOUS
 10
-13.9494879915
 20
21.1374937549
 11
-17.8932063485
 21
21.1374937549
  0
LINE
  5
45B
100
AcDbEntity
  8
DRAFT
100
AcDbLine
 62
7
  6
CONTINUOUS
 10
-17.9459092915
 20
21.1650925288
 11
-14.2529281039
 21
21.1650925288
  0
LINE
  5
45C
100
AcDbEntity
  8
DRAFT
100
AcDbLine
 62
7
  6
CONTINUOUS
 10
-7.9970718961
 20
21.1650925288
 11
-4.3040907085
 21
21.1650925288
  0
LINE
  5
45D
100
AcDbEntity
  8
RACCORDO
100
AcDbLine
 62
7
  6
CONTINUOUS
 10
21.7751522961
 20
21.85
 11
-4.8669431525
 21
21.85
  0
LINE
  5
45E
100
AcDbEntity
  8
RACCORDO
100
AcDbLine
 62
7
  6
CONTINUOUS
 10
-7.9970718961
 20
21.85
 11
-8.025
 21
21.85
  0
LINE
  5
45F
100
AcDbEntity
  8
RACCORDO
100
AcDbLine
 62
7
  6
CONTINUOUS
 10
-14.225
 20
21.85
 11
-14.2529281039
 21
21.85
  0
LINE
  5
460
100
AcDbEntity
  8
RACCORDO
100
AcDbLine
 62
7
  6
CONTINUOUS
 10
-17.3830568464
 20
21.85
 11
-21.5251522961
 21
21.85
  0
LINE
  5
461
100
AcDbEntity
  8
DRAFT
100
AcDbLine
 62
7
  6
CONTINUOUS
 10
-14.225
 20
21.1511295404
 11
-13.9494879915
 21
21.1374937549
  0
LINE
  5
462
100
AcDbEntity
  8
RACCORDO
100
AcDbLine
 62
7
  6
CONTINUOUS
 10
22.275
 20
-21.3500571074
 11
22.275
 21
21.3500571074
  0
LWPOLYLINE
  5
463
100
AcDbEntity
  8
RACCORDO
100
AcDbPolyline
 62
7
  6
CONTINUOUS
 90
7
 70
0
 10
-16.5079437848
 20
22.3998821875
 10
-16.5627478581
 20
22.3967192955
 10
-16.6157870813
 20
22.388021885
 10
-16.6670614544
 20
22.3737899561
 10
-16.7165709772
 20
22.3540235087
 10
-16.7643156498
 20
22.3287225427
 10
-16.8102954723
 20
22.2978870583
  0
LINE
  5
464
100
AcDbEntity
  8
0
100
AcDbLine
 62
7
  6
CONTINUOUS
 10
-8.025
 20
22.2
 11
-14.225
 21
22.2
  0
LINE
  5
465
100
AcDbEntity
  8
DRAFT
100
AcDbLine
 62
7
  6
CONTINUOUS
 10
-14.8931750461
 20
23.4301797403
 11
-14.2529281039
 21
23.4301797403
  0
LINE
  5
466
100
AcDbEntity
  8
DRAFT
100
AcDbLine
 62
7
  6
CONTINUOUS
 10
-7.9970718961
 20
23.4301797403
 11
-7.3568249539
 21
23.4301797403
  0
LINE
  5
467
100
AcDbEntity
  8
DRAFT
100
AcDbLine
 62
7
  6
CONTINUOUS
 10
-14.9136169577
 20
23.5
 11
-14.3227483636
 21
23.5
  0
LINE
  5
468
100
AcDbEntity
  8
DRAFT
100
AcDbLine
 62
7
  6
CONTINUOUS
 10
-7.9272516364
 20
23.5
 11
-7.3363830423
 21
23.5
  0
LINE
  5
469
100
AcDbEntity
  8
0
100
AcDbLine
 62
7
  6
CONTINUOUS
 10
16.151058
 20
16.68262
 11
16.712269
 21
15.599937
  0
LINE
  5
46A
100
AcDbEntity
  8
0
100
AcDbLine
 62
7
  6
CONTINUOUS
 10
16.7469317907
 20
16.7499693331
 11
17.343046
 21
15.599944
  0
ARC
  5
46B
100
AcDbEntity
  8
DRAFT
100
AcDbCircle
 62
7
  6
CONTINUOUS
 10
-16.075
 20
-23.1
 40
0.5
100
AcDbArc
 50
4.309433156
 51
105.6067080409
  0
ARC
  5
46C
100
AcDbEntity
  8
DRAFT
100
AcDbCircle
 62
7
  6
CONTINUOUS
 10
-6.175
 20
-23.1
 40
0.5
100
AcDbArc
 50
74.3932919591
 51
175.690566844
  0
ARC
  5
46D
100
AcDbEntity
  8
RACCORDO
100
AcDbCircle
 62
7
  6
CONTINUOUS
 10
-22.375
 20
0.0
 40
28.0
100
AcDbArc
 50
38.3146467789
 51
52.7832475454
  0
ARC
  5
46E
100
AcDbEntity
  8
RACCORDO
100
AcDbCircle
 62
7
  6
CONTINUOUS
 10
-22.375
 20
0.0
 40
28.0
100
AcDbArc
 50
307.2167523357
 51
321.6853532211
  0
ARC
  5
46F
100
AcDbEntity
  8
DRAFT
100
AcDbCircle
 62
7
  6
CONTINUOUS
 10
-22.375
 20
0.0
 40
27.9
100
AcDbArc
 50
302.6168508246
 51
304.2479034811
  0
ARC
  5
470
100
AcDbEntity
  8
DRAFT
100
AcDbCircle
 62
7
  6
CONTINUOUS
 10
-22.375
 20
0.0
 40
27.9
100
AcDbArc
 50
305.835955322
 51
306.5952036598
  0
ARC
  5
471
100
AcDbEntity
  8
DRAFT
100
AcDbCircle
 62
7
  6
CONTINUOUS
 10
-22.375
 20
0.0
 40
27.9
100
AcDbArc
 50
53.4047963402
 51
54.164044678
  0
ARC
  5
472
100
AcDbEntity
  8
DRAFT
100
AcDbCircle
 62
7
  6
CONTINUOUS
 10
-22.375
 20
0.0
 40
27.9
100
AcDbArc
 50
55.7520965189
 51
57.3831491754
  0
ARC
  5
473
100
AcDbEntity
  8
RACCORDO
100
AcDbCircle
 62
7
  6
CONTINUOUS
 10
-22.375
 20
0.0
 40
27.9
100
AcDbArc
 50
306.5955867406
 51
321.7870227264
  0
ARC
  5
474
100
AcDbEntity
  8
RACCORDO
100
AcDbCircle
 62
7
  6
CONTINUOUS
 10
-22.375
 20
0.0
 40
27.9
100
AcDbArc
 50
38.2129772736
 51
53.4044132594
  0
ARC
  5
475
100
AcDbEntity
  8
DRAFT
100
AcDbCircle
 62
7
  6
CONTINUOUS
 10
-22.375
 20
0.0
 40
27.8301797403
100
AcDbArc
 50
49.5090602232
 51
54.3037406731
  0
ARC
  5
476
100
AcDbEntity
  8
DRAFT
100
AcDbCircle
 62
7
  6
CONTINUOUS
 10
-22.375
 20
0.0
 40
27.8301797403
100
AcDbArc
 50
55.6124005238
 51
57.3411167897
  0
ARC
  5
477
100
AcDbEntity
  8
DRAFT
100
AcDbCircle
 62
7
  6
CONTINUOUS
 10
-22.375
 20
0.0
 40
27.8301797403
100
AcDbArc
 50
302.6588832103
 51
304.3875994762
  0
ARC
  5
478
100
AcDbEntity
  8
DRAFT
100
AcDbCircle
 62
7
  6
CONTINUOUS
 10
-22.375
 20
0.0
 40
27.8301797403
100
AcDbArc
 50
305.6962593269
 51
310.4909397768
  0
ARC
  5
479
100
AcDbEntity
  8
RACCORDO
100
AcDbCircle
 62
7
  6
CONTINUOUS
 10
-22.375
 20
0.0
 40
27.8301797403
100
AcDbArc
 50
312.0305091384
 51
321.733405871
  0
ARC
  5
47A
100
AcDbEntity
  8
RACCORDO
100
AcDbCircle
 62
7
  6
CONTINUOUS
 10
-22.375
 20
0.0
 40
27.8301797403
100
AcDbArc
 50
38.266594129
 51
47.9694908616
  0
ARC
  5
47B
100
AcDbEntity
  8
DRAFT
100
AcDbCircle
 62
7
  6
CONTINUOUS
 10
-22.375
 20
0.0
 40
26.9080247758
100
AcDbArc
 50
311.8778232385
 51
322.3618912411
  0
ARC
  5
47C
100
AcDbEntity
  8
DRAFT
100
AcDbCircle
 62
7
  6
CONTINUOUS
 10
-22.375
 20
0.0
 40
26.9080247758
100
AcDbArc
 50
37.6381087589
 51
48.1221767615
  0
ARC
  5
47D
100
AcDbEntity
  8
DRAFT
100
AcDbCircle
 62
7
  6
CONTINUOUS
 10
-22.375
 20
0.0
 40
26.8382045161
100
AcDbArc
 50
37.6888778579
 51
48.1768245217
  0
ARC
  5
47E
100
AcDbEntity
  8
DRAFT
100
AcDbCircle
 62
7
  6
CONTINUOUS
 10
-22.375
 20
0.0
 40
26.8382045161
100
AcDbArc
 50
311.8231754783
 51
322.3111221421
  0
ARC
  5
47F
100
AcDbEntity
  8
0
100
AcDbCircle
 62
7
  6
CONTINUOUS
 10
-7.795944
 20
10.857674
 40
0.5673701434
100
AcDbArc
 50
292.8429066477
 51
90.0
  0
ARC
  5
480
100
AcDbEntity
  8
DRAFT
100
AcDbCircle
 62
7
  6
CONTINUOUS
 10
-16.075
 20
23.1
 40
0.5
100
AcDbArc
 50
254.3932919591
 51
355.690566844
  0
ARC
  5
481
100
AcDbEntity
  8
DRAFT
100
AcDbCircle
 62
7
  6
CONTINUOUS
 10
-6.175
 20
23.1
 40
0.5
100
AcDbArc
 50
184.309433156
 51
285.6067080409
  0
ARC
  5
482
100
AcDbEntity
  8
0
100
AcDbCircle
 62
7
  6
CONTINUOUS
 10
-7.847301
 20
10.857674
 40
0.225104
100
AcDbArc
 50
270.0
 51
90.0
  0
ARC
  5
483
100
AcDbEntity
  8
DRAFT
100
AcDbCircle
 62
7
  6
CONTINUOUS
 10
16.875
 20
-17.5
 40
3.65
100
AcDbArc
 50
243.204167032
 51
296.795832968
  0
ARC
  5
484
100
AcDbEntity
  8
SMUSSO
100
AcDbCircle
 62
7
  6
CONTINUOUS
 10
11.375
 20
-3.825
 40
1.5
100
AcDbArc
 50
216.8698976458
 51
323.1301023542
  0
ARC
  5
485
100
AcDbEntity
  8
RACCORDO
100
AcDbCircle
 62
7
  6
CONTINUOUS
 10
0.125
 20
-0.0
 40
28.0
100
AcDbArc
 50
218.3146467789
 51
232.7832475456
  0
ARC
  5
486
100
AcDbEntity
  8
RACCORDO
100
AcDbCircle
 62
7
  6
CONTINUOUS
 10
0.125
 20
-0.0
 40
28.0
100
AcDbArc
 50
127.2167523357
 51
141.6853531675
  0
ARC
  5
487
100
AcDbEntity
  8
DRAFT
100
AcDbCircle
 62
7
  6
CONTINUOUS
 10
0.125
 20
-0.0
 40
27.9
100
AcDbArc
 50
233.4047963402
 51
234.164044678
  0
ARC
  5
488
100
AcDbEntity
  8
DRAFT
100
AcDbCircle
 62
7
  6
CONTINUOUS
 10
0.125
 20
-0.0
 40
27.9
100
AcDbArc
 50
235.7520965189
 51
237.3831491754
  0
ARC
  5
489
100
AcDbEntity
  8
DRAFT
100
AcDbCircle
 62
7
  6
CONTINUOUS
 10
0.125
 20
-0.0
 40
27.9
100
AcDbArc
 50
122.6168508246
 51
124.2479034811
  0
ARC
  5
48A
100
AcDbEntity
  8
DRAFT
100
AcDbCircle
 62
7
  6
CONTINUOUS
 10
0.125
 20
-0.0
 40
27.9
100
AcDbArc
 50
125.835955322
 51
126.5952036598
  0
ARC
  5
48B
100
AcDbEntity
  8
RACCORDO
100
AcDbCircle
 62
7
  6
CONTINUOUS
 10
0.125
 20
-0.0
 40
27.9
100
AcDbArc
 50
126.5955867406
 51
141.7870227264
  0
ARC
  5
48C
100
AcDbEntity
  8
RACCORDO
100
AcDbCircle
 62
7
  6
CONTINUOUS
 10
0.125
 20
-0.0
 40
27.9
100
AcDbArc
 50
218.2129772736
 51
233.4044132594
  0
ARC
  5
48D
100
AcDbEntity
  8
DRAFT
100
AcDbCircle
 62
7
  6
CONTINUOUS
 10
0.125
 20
-0.0
 40
27.8301797403
100
AcDbArc
 50
122.6588832103
 51
124.3875994762
  0
ARC
  5
48E
100
AcDbEntity
  8
DRAFT
100
AcDbCircle
 62
7
  6
CONTINUOUS
 10
0.125
 20
-0.0
 40
27.8301797403
100
AcDbArc
 50
125.6962593269
 51
130.4909397768
  0
ARC
  5
48F
100
AcDbEntity
  8
DRAFT
100
AcDbCircle
 62
7
  6
CONTINUOUS
 10
0.125
 20
-0.0
 40
27.8301797403
100
AcDbArc
 50
229.5090602232
 51
234.3037406731
  0
ARC
  5
490
100
AcDbEntity
  8
DRAFT
100
AcDbCircle
 62
7
  6
CONTINUOUS
 10
0.125
 20
-0.0
 40
27.8301797403
100
AcDbArc
 50
235.6124005238
 51
237.3411167897
  0
ARC
  5
491
100
AcDbEntity
  8
RACCORDO
100
AcDbCircle
 62
7
  6
CONTINUOUS
 10
0.125
 20
-0.0
 40
27.8301797403
100
AcDbArc
 50
132.0305091384
 51
141.733405871
  0
ARC
  5
492
100
AcDbEntity
  8
RACCORDO
100
AcDbCircle
 62
7
  6
CONTINUOUS
 10
0.125
 20
-0.0
 40
27.8301797403
100
AcDbArc
 50
218.266594129
 51
227.9694908616
  0
ARC
  5
493
100
AcDbEntity
  8
DRAFT
100
AcDbCircle
 62
7
  6
CONTINUOUS
 10
0.125
 20
-0.0
 40
26.9080247758
100
AcDbArc
 50
131.8778232385
 51
142.3618912411
  0
ARC
  5
494
100
AcDbEntity
  8
DRAFT
100
AcDbCircle
 62
7
  6
CONTINUOUS
 10
0.125
 20
-0.0
 40
26.9080247758
100
AcDbArc
 50
217.6381087589
 51
228.1221767615
  0
ARC
  5
495
100
AcDbEntity
  8
DRAFT
100
AcDbCircle
 62
7
  6
CONTINUOUS
 10
0.125
 20
-0.0
 40
26.8382045161
100
AcDbArc
 50
131.8231754783
 51
142.3111221421
  0
ARC
  5
496
100
AcDbEntity
  8
DRAFT
100
AcDbCircle
 62
7
  6
CONTINUOUS
 10
0.125
 20
-0.0
 40
26.8382045161
100
AcDbArc
 50
217.6888778579
 51
228.1768245217
  0
ARC
  5
497
100
AcDbEntity
  8
SMUSSO
100
AcDbCircle
 62
7
  6
CONTINUOUS
 10
11.375
 20
3.825
 40
1.5
100
AcDbArc
 50
36.8698976458
 51
143.1301023542
  0
ARC
  5
498
100
AcDbEntity
  8
0
100
AcDbCircle
 62
7
  6
CONTINUOUS
 10
16.413572
 20
17.541344
 40
0.8587214994
100
AcDbArc
 50
292.8428415932
 51
90.0
  0
ARC
  5
499
100
AcDbEntity
  8
0
100
AcDbCircle
 62
7
  6
CONTINUOUS
 10
16.335842
 20
17.541344
 40
0.340698
100
AcDbArc
 50
270.0
 51
90.0
  0
ELLIPSE
  5
49A
100
AcDbEntity
  8
RACCORDO
100
AcDbEllipse
 62
7
  6
CONTINUOUS
 10
-13.6600790271
 20
0.0
 30
0.0
 11
0.0
 21
3.9096761185
 31
0.0
 40
0.0174550649
 41
-2.8797932658
 42
-2.6017206067
  0
ELLIPSE
  5
49B
100
AcDbEntity
  8
RACCORDO
100
AcDbEllipse
 62
7
  6
CONTINUOUS
 10
-13.6600790271
 20
0.0
 30
0.0
 11
0.0
 21
3.9096761185
 31
0.0
 40
0.0174550649
 41
-0.5398720469
 42
-0.2617993878
  0
ELLIPSE
  5
49C
100
AcDbEntity
  8
RACCORDO
100
AcDbEllipse
 62
7
  6
CONTINUOUS
 10
-8.5899209729
 20
0.0
 30
0.0
 11
0.0
 21
3.9096761185
 31
0.0
 40
0.0174550649
 41
0.2617993878
 42
0.5398720469
  0
ELLIPSE
  5
49D
100
AcDbEntity
  8
RACCORDO
100
AcDbEllipse
 62
7
  6
CONTINUOUS
 10
-8.5899209729
 20
0.0
 30
0.0
 11
0.0
 21
3.9096761185
 31
0.0
 40
0.0174550649
 41
-3.6814647005
 42
-3.4033920414
  0
ELLIPSE
  5
49E
100
AcDbEntity
  8
RACCORDO
100
AcDbEllipse
 62
7
  6
CONTINUOUS
 10
-7.4250114235
 20
-16.9074914576
 30
0.0
 11
0.0076527543
 21
0.319172335
 31
0.0
 40
0.9396610255
 41
-1.5452853501
 42
0.0225263213
  0
ELLIPSE
  5
49F
100
AcDbEntity
  8
RACCORDO
100
AcDbEllipse
 62
7
  6
CONTINUOUS
 10
-7.8249885765
 20
-16.9074914576
 30
0.0
 11
-0.0076527543
 21
0.319172335
 31
0.0
 40
0.9396610255
 41
-0.0225263213
 42
1.5452853501
  0
ELLIPSE
  5
4A0
100
AcDbEntity
  8
RACCORDO
100
AcDbEllipse
 62
7
  6
CONTINUOUS
 10
-14.4250114235
 20
-16.9074914576
 30
0.0
 11
0.0076527543
 21
0.319172335
 31
0.0
 40
0.9396610255
 41
-1.5452853501
 42
0.0225263213
  0
ELLIPSE
  5
4A1
100
AcDbEntity
  8
RACCORDO
100
AcDbEllipse
 62
7
  6
CONTINUOUS
 10
-21.1097135031
 20
-14.7
 30
0.0
 11
0.0
 21
0.2
 31
0.0
 40
0.0174550649
 41
-0.0
 42
1.5707963268
  0
ELLIPSE
  5
4A2
100
AcDbEntity
  8
RACCORDO
100
AcDbEllipse
 62
7
  6
CONTINUOUS
 10
-14.8249885765
 20
-16.9074914576
 30
0.0
 11
-0.0076527543
 21
0.319172335
 31
0.0
 40
0.9396610255
 41
-0.0225263213
 42
1.5452853501
  0
ELLIPSE
  5
4A3
100
AcDbEntity
  8
RACCORDO
100
AcDbEllipse
 62
7
  6
CONTINUOUS
 10
-7.4250114235
 20
16.9074914576
 30
0.0
 11
-0.0076527543
 21
0.319172335
 31
0.0
 40
0.9396610255
 41
-3.1641189749
 42
-1.5963073035
  0
ELLIPSE
  5
4A4
100
AcDbEntity
  8
RACCORDO
100
AcDbEllipse
 62
7
  6
CONTINUOUS
 10
-7.8249885765
 20
16.9074914576
 30
0.0
 11
0.0076527543
 21
0.319172335
 31
0.0
 40
0.9396610255
 41
-4.6868780037
 42
-3.1190663323
  0
ELLIPSE
  5
4A5
100
AcDbEntity
  8
RACCORDO
100
AcDbEllipse
 62
7
  6
CONTINUOUS
 10
-1.1402864969
 20
-14.7
 30
0.0
 11
0.0
 21
0.2
 31
0.0
 40
0.0174550649
 41
-1.5707963268
 42
0.0
  0
ELLIPSE
  5
4A6
100
AcDbEntity
  8
RACCORDO
100
AcDbEllipse
 62
7
  6
CONTINUOUS
 10
-1.1402864969
 20
14.7
 30
0.0
 11
0.0
 21
0.2
 31
0.0
 40
0.0174550649
 41
-3.1415926536
 42
-1.5707963268
  0
ELLIPSE
  5
4A7
100
AcDbEntity
  8
RACCORDO
100
AcDbEllipse
 62
7
  6
CONTINUOUS
 10
-14.4250114235
 20
16.9074914576
 30
0.0
 11
-0.0076527543
 21
0.319172335
 31
0.0
 40
0.9396610255
 41
-3.1641189749
 42
-1.5963073035
  0
ELLIPSE
  5
4A8
100
AcDbEntity
  8
RACCORDO
100
AcDbEllipse
 62
7
  6
CONTINUOUS
 10
-21.1097135031
 20
14.7
 30
0.0
 11
-0.0
 21
0.2
 31
0.0
 40
0.0174550649
 41
1.5707963268
 42
3.1415926536
  0
ELLIPSE
  5
4A9
100
AcDbEntity
  8
RACCORDO
100
AcDbEllipse
 62
7
  6
CONTINUOUS
 10
-14.8249885765
 20
16.9074914576
 30
0.0
 11
0.0076527543
 21
0.319172335
 31
0.0
 40
0.9396610255
 41
-4.6868780037
 42
-3.1190663323
  0
ELLIPSE
  5
4AA
100
AcDbEntity
  8
DRAFT
100
AcDbEllipse
 62
7
  6
CONTINUOUS
 10
-22.375
 20
0.4785196826
 30
0.0
 11
0.0
 21
27.4143742547
 31
0.0
 40
0.9998476487
 41
-0.7442989358
 42
-0.7173022884
  0
ELLIPSE
  5
4AB
100
AcDbEntity
  8
DRAFT
100
AcDbEllipse
 62
7
  6
CONTINUOUS
 10
0.125
 20
0.4785196826
 30
0.0
 11
0.0
 21
27.4143742547
 31
0.0
 40
0.9998476487
 41
0.7173022884
 42
0.7442989358
  0
ELLIPSE
  5
4AC
100
AcDbEntity
  8
DRAFT
100
AcDbEllipse
 62
7
  6
CONTINUOUS
 10
-22.375
 20
-0.4785196826
 30
0.0
 11
0.0
 21
27.4143742547
 31
0.0
 40
0.9998476487
 41
-2.4242903652
 42
-2.3972937178
  0
ELLIPSE
  5
4AD
100
AcDbEntity
  8
DRAFT
100
AcDbEllipse
 62
7
  6
CONTINUOUS
 10
0.125
 20
-0.4785196826
 30
0.0
 11
0.0
 21
27.4143742547
 31
0.0
 40
0.9998476487
 41
-3.8858915894
 42
-3.858894942
  0
ELLIPSE
  5
4AE
100
AcDbEntity
  8
DRAFT
100
AcDbEllipse
 62
7
  6
CONTINUOUS
 10
-8.625
 20
-0.0
 30
0.0
 11
0.0
 21
1.725
 31
0.0
 40
0.0174550649
 41
-2.8456297321
 42
-0.2959629215
  0
ELLIPSE
  5
4AF
100
AcDbEntity
  8
DRAFT
100
AcDbEllipse
 62
7
  6
CONTINUOUS
 10
-13.625
 20
0.0
 30
0.0
 11
0.0
 21
1.725
 31
0.0
 40
0.0174550649
 41
0.2959629215
 42
2.8456297321
  0
ELLIPSE
  5
4B0
100
AcDbEntity
  8
RACCORDO
100
AcDbEllipse
 62
7
  6
CONTINUOUS
 10
-21.524923836
 20
-21.3498286038
 30
0.0
 11
-0.2774630169
 21
-0.416247366
 31
0.0
 40
0.9995051766
 41
-0.9826238685
 42
0.5877156075
  0
ELLIPSE
  5
4B1
100
AcDbEntity
  8
RACCORDO
100
AcDbEllipse
 62
7
  6
CONTINUOUS
 10
21.774923836
 20
21.3498286038
 30
0.0
 11
-0.2774630169
 21
-0.416247366
 31
0.0
 40
0.9995051766
 41
2.1589687851
 42
3.7293082611
  0
ELLIPSE
  5
4B2
100
AcDbEntity
  8
RACCORDO
100
AcDbEllipse
 62
7
  6
CONTINUOUS
 10
21.774923836
 20
-21.3498286038
 30
0.0
 11
0.2774630169
 21
-0.416247366
 31
0.0
 40
0.9995051766
 41
-0.5877156075
 42
0.9826238685
  0
ELLIPSE
  5
4B3
100
AcDbEntity
  8
RACCORDO
100
AcDbEllipse
 62
7
  6
CONTINUOUS
 10
-21.524923836
 20
21.3498286038
 30
0.0
 11
0.2774630169
 21
-0.416247366
 31
0.0
 40
0.9995051766
 41
2.5538770461
 42
4.1242165221
  0
ELLIPSE
  5
4B4
100
AcDbEntity
  8
DRAFT
100
AcDbEllipse
 62
7
  6
CONTINUOUS
 10
3.6591584631
 20
2.35
 30
0.0
 11
0.0
 21
1.0
 31
0.0
 40
0.0087268678
 41
2.5954713602
 42
3.8397243544
  0
ELLIPSE
  5
4B5
100
AcDbEntity
  8
DRAFT
100
AcDbEllipse
 62
7
  6
CONTINUOUS
 10
-14.9726023666
 20
-0.0
 30
0.0
 11
0.0
 21
498.2
 31
0.0
 40
0.0087268678
 41
-1.5674843967
 42
-1.5632691582
  0
ELLIPSE
  5
4B6
100
AcDbEntity
  8
DRAFT
100
AcDbEllipse
 62
7
  6
CONTINUOUS
 10
-14.9726023666
 20
-0.0
 30
0.0
 11
0.0
 21
498.2
 31
0.0
 40
0.0087268678
 41
-1.5783234954
 42
-1.5741082569
  0
ELLIPSE
  5
4B7
100
AcDbEntity
  8
RACCORDO
100
AcDbEllipse
 62
7
  6
CONTINUOUS
 10
3.664976786
 20
-2.2567356319
 30
0.0
 11
0.0
 21
0.5
 31
0.0
 40
0.0087268678
 41
-2.9304390866
 42
-0.6981317008
  0
ELLIPSE
  5
4B8
100
AcDbEntity
  8
DRAFT
100
AcDbEllipse
 62
7
  6
CONTINUOUS
 10
-7.2773976334
 20
-0.0
 30
0.0
 11
0.0
 21
498.2
 31
0.0
 40
0.0087268678
 41
1.5632691582
 42
1.5674843967
  0
ELLIPSE
  5
4B9
100
AcDbEntity
  8
DRAFT
100
AcDbEllipse
 62
7
  6
CONTINUOUS
 10
-7.2773976334
 20
-0.0
 30
0.0
 11
0.0
 21
498.2
 31
0.0
 40
0.0087268678
 41
-4.7090770503
 42
-4.7048618118
  0
ELLIPSE
  5
4BA
100
AcDbEntity
  8
DRAFT
100
AcDbEllipse
 62
7
  6
CONTINUOUS
 10
7.9726023666
 20
-0.0
 30
0.0
 11
0.0
 21
498.2
 31
0.0
 40
0.0087268678
 41
1.5632691582
 42
1.568086566
  0
ELLIPSE
  5
4BB
100
AcDbEntity
  8
DRAFT
100
AcDbEllipse
 62
7
  6
CONTINUOUS
 10
7.9726023666
 20
-0.0
 30
0.0
 11
0.0
 21
498.2
 31
0.0
 40
0.0087268678
 41
-4.7096792195
 42
-4.7048618118
  0
ELLIPSE
  5
4BC
100
AcDbEntity
  8
DRAFT
100
AcDbEllipse
 62
7
  6
CONTINUOUS
 10
19.1033059972
 20
-0.0
 30
0.0
 11
0.0
 21
1.75
 31
0.0
 40
0.0087268678
 41
2.5954713602
 42
6.8293066006
  0
ELLIPSE
  5
4BD
100
AcDbEntity
  8
DRAFT
100
AcDbEllipse
 62
7
  6
CONTINUOUS
 10
-11.5908415369
 20
2.35
 30
0.0
 11
0.0
 21
1.0
 31
0.0
 40
0.0087268678
 41
-3.1415926534
 42
-2.4434609528
  0
ELLIPSE
  5
4BE
100
AcDbEntity
  8
DRAFT
100
AcDbEllipse
 62
7
  6
CONTINUOUS
 10
13.6224384619
 20
-0.0
 30
0.0
 11
0.0
 21
498.2
 31
0.0
 40
0.0087268678
 41
-4.7029046953
 42
-4.7008973585
  0
ELLIPSE
  5
4BF
100
AcDbEntity
  8
DRAFT
100
AcDbEllipse
 62
7
  6
CONTINUOUS
 10
-11.6033059972
 20
-0.0
 30
0.0
 11
-0.0
 21
1.75
 31
0.0
 40
0.0087268678
 41
-3.4786007873
 42
-2.5954713602
  0
ELLIPSE
  5
4C0
100
AcDbEntity
  8
DRAFT
100
AcDbEllipse
 62
7
  6
CONTINUOUS
 10
-11.6033059972
 20
0.0
 30
0.0
 11
0.0
 21
1.75
 31
0.0
 40
0.0087268678
 41
5.7370640138
 42
6.6201934408
  0
ELLIPSE
  5
4C1
100
AcDbEntity
  8
RACCORDO
100
AcDbEllipse
 62
7
  6
CONTINUOUS
 10
19.085023214
 20
-2.2567356319
 30
0.0
 11
0.0
 21
0.5
 31
0.0
 40
0.0087268678
 41
0.6981317008
 42
2.9304390866
  0
ELLIPSE
  5
4C2
100
AcDbEntity
  8
DRAFT
100
AcDbEllipse
 62
7
  6
CONTINUOUS
 10
19.0908415369
 20
-2.35
 30
0.0
 11
-0.0
 21
1.0
 31
0.0
 40
0.0087268678
 41
5.7370640138
 42
6.981317008
  0
ELLIPSE
  5
4C3
100
AcDbEntity
  8
RACCORDO
100
AcDbEllipse
 62
7
  6
CONTINUOUS
 10
19.085023214
 20
2.2567356319
 30
0.0
 11
0.0
 21
0.5
 31
0.0
 40
0.0087268678
 41
0.211153567
 42
2.4434609528
  0
ELLIPSE
  5
4C4
100
AcDbEntity
  8
DRAFT
100
AcDbEllipse
 62
7
  6
CONTINUOUS
 10
3.6591584631
 20
-2.35
 30
0.0
 11
0.0
 21
1.0
 31
0.0
 40
0.0087268678
 41
-0.6981317008
 42
-0.0000000002
  0
ELLIPSE
  5
4C5
100
AcDbEntity
  8
DRAFT
100
AcDbEllipse
 62
7
  6
CONTINUOUS
 10
15.2224384619
 20
-0.0
 30
0.0
 11
0.0
 21
498.2
 31
0.0
 40
0.0087268678
 41
-4.7008973585
 42
-4.6946055345
  0
ELLIPSE
  5
4C6
100
AcDbEntity
  8
DRAFT
100
AcDbEllipse
 62
7
  6
CONTINUOUS
 10
7.5275615381
 20
-0.0
 30
0.0
 11
0.0
 21
498.2
 31
0.0
 40
0.0087268678
 41
-1.5885797727
 42
-1.5822879486
  0
ELLIPSE
  5
4C7
100
AcDbEntity
  8
DRAFT
100
AcDbEllipse
 62
7
  6
CONTINUOUS
 10
3.6466940028
 20
-0.0
 30
0.0
 11
0.0
 21
1.75
 31
0.0
 40
0.0087268678
 41
-0.5461212934
 42
3.687713947
  0
ELLIPSE
  5
4C8
100
AcDbEntity
  8
DRAFT
100
AcDbEllipse
 62
7
  6
CONTINUOUS
 10
-10.6466940028
 20
0.0
 30
0.0
 11
0.0
 21
1.75
 31
0.0
 40
0.0087268678
 41
2.5954713602
 42
3.4786007873
  0
ELLIPSE
  5
4C9
100
AcDbEntity
  8
DRAFT
100
AcDbEllipse
 62
7
  6
CONTINUOUS
 10
-10.6466940028
 20
0.0
 30
0.0
 11
-0.0
 21
1.75
 31
0.0
 40
0.0087268678
 41
-0.3370081337
 42
0.5461212934
  0
ELLIPSE
  5
4CA
100
AcDbEntity
  8
DRAFT
100
AcDbEllipse
 62
7
  6
CONTINUOUS
 10
9.1275615381
 20
-0.0
 30
0.0
 11
0.0
 21
498.2
 31
0.0
 40
0.0087268678
 41
-1.5822879486
 42
-1.5802806119
  0
ELLIPSE
  5
4CB
100
AcDbEntity
  8
DRAFT
100
AcDbEllipse
 62
7
  6
CONTINUOUS
 10
13.6224384619
 20
0.0
 30
0.0
 11
0.0
 21
498.2
 31
0.0
 40
0.0087268678
 41
1.5593047049
 42
1.5613120417
  0
ELLIPSE
  5
4CC
100
AcDbEntity
  8
DRAFT
100
AcDbEllipse
 62
7
  6
CONTINUOUS
 10
14.7773976334
 20
-0.0
 30
0.0
 11
0.0
 21
498.2
 31
0.0
 40
0.0087268678
 41
-1.568086566
 42
-1.5632691582
  0
ELLIPSE
  5
4CD
100
AcDbEntity
  8
DRAFT
100
AcDbEllipse
 62
7
  6
CONTINUOUS
 10
14.7773976334
 20
-0.0
 30
0.0
 11
0.0
 21
498.2
 31
0.0
 40
0.0087268678
 41
-1.5783234954
 42
-1.5735060876
  0
ELLIPSE
  5
4CE
100
AcDbEntity
  8
DRAFT
100
AcDbEllipse
 62
7
  6
CONTINUOUS
 10
-10.6591584631
 20
2.35
 30
0.0
 11
0.0
 21
1.0
 31
0.0
 40
0.0087268678
 41
-3.8397243544
 42
-3.1415926538
  0
ELLIPSE
  5
4CF
100
AcDbEntity
  8
DRAFT
100
AcDbEllipse
 62
7
  6
CONTINUOUS
 10
9.1275615381
 20
-0.0
 30
0.0
 11
0.0
 21
498.2
 31
0.0
 40
0.0087268678
 41
-1.5613120417
 42
-1.5593047049
  0
ELLIPSE
  5
4D0
100
AcDbEntity
  8
DRAFT
100
AcDbEllipse
 62
7
  6
CONTINUOUS
 10
19.0908415369
 20
2.35
 30
0.0
 11
-0.0
 21
1.0
 31
0.0
 40
0.0087268678
 41
-3.8397243544
 42
-3.1415926538
  0
ELLIPSE
  5
4D1
100
AcDbEntity
  8
RACCORDO
100
AcDbEllipse
 62
7
  6
CONTINUOUS
 10
11.7976179481
 20
-7.083668826
 30
0.0
 11
0.0
 21
1.0
 31
0.0
 40
0.0087268678
 41
1.5707963268
 42
3.054326191
  0
ELLIPSE
  5
4D2
100
AcDbEntity
  8
RACCORDO
100
AcDbEllipse
 62
7
  6
CONTINUOUS
 10
10.9523820519
 20
-7.083668826
 30
0.0
 11
0.0
 21
1.0
 31
0.0
 40
0.0087268678
 41
-3.054326191
 42
-1.5707963268
  0
ELLIPSE
  5
4D3
100
AcDbEntity
  8
RACCORDO
100
AcDbEllipse
 62
7
  6
CONTINUOUS
 10
10.9523820519
 20
7.083668826
 30
0.0
 11
0.0
 21
1.0
 31
0.0
 40
0.0087268678
 41
-1.5707963268
 42
-0.0872664626
  0
ELLIPSE
  5
4D4
100
AcDbEntity
  8
DRAFT
100
AcDbEllipse
 62
7
  6
CONTINUOUS
 10
15.2224384619
 20
0.0
 30
0.0
 11
0.0
 21
498.2
 31
0.0
 40
0.0087268678
 41
1.5463881516
 42
1.5593047049
  0
ELLIPSE
  5
4D5
100
AcDbEntity
  8
RACCORDO
100
AcDbEllipse
 62
7
  6
CONTINUOUS
 10
10.9070023394
 20
11.0343112252
 30
0.0
 11
0.0
 21
1.0
 31
0.0
 40
0.0087268678
 41
-1.5707963268
 42
-0.034906585
  0
ELLIPSE
  5
4D6
100
AcDbEntity
  8
RACCORDO
100
AcDbEllipse
 62
7
  6
CONTINUOUS
 10
11.7976179481
 20
7.083668826
 30
0.0
 11
0.0
 21
1.0
 31
0.0
 40
0.0087268678
 41
0.0872664626
 42
1.5707963268
  0
ELLIPSE
  5
4D7
100
AcDbEntity
  8
RACCORDO
100
AcDbEllipse
 62
7
  6
CONTINUOUS
 10
11.8429976606
 20
11.0343112252
 30
0.0
 11
0.0
 21
1.0
 31
0.0
 40
0.0087268678
 41
0.034906585
 42
1.5707963268
  0
ELLIPSE
  5
4D8
100
AcDbEntity
  8
DRAFT
100
AcDbEllipse
 62
7
  6
CONTINUOUS
 10
7.5275615381
 20
-0.0
 30
0.0
 11
0.0
 21
498.2
 31
0.0
 40
0.0087268678
 41
-1.5593047049
 42
-1.5463881516
  0
ELLIPSE
  5
4D9
100
AcDbEntity
  8
DRAFT
100
AcDbEllipse
 62
7
  6
CONTINUOUS
 10
4.9724384619
 20
-0.0
 30
0.0
 11
0.0
 21
498.2
 31
0.0
 40
0.0087268678
 41
1.5291181477
 42
1.6124745059
  0
ELLIPSE
  5
4DA
100
AcDbEntity
  8
DRAFT
100
AcDbEllipse
 62
7
  6
CONTINUOUS
 10
-2.9224384619
 20
-0.0
 30
0.0
 11
0.0
 21
498.2
 31
0.0
 40
0.0087268678
 41
-1.6124745059
 42
-1.5291181477
  0
ELLIPSE
  5
4DB
100
AcDbEntity
  8
RACCORDO
100
AcDbEllipse
 62
7
  6
CONTINUOUS
 10
-10.664976786
 20
2.2567356319
 30
0.0
 11
-0.0
 21
0.5
 31
0.0
 40
0.0087268678
 41
0.211153567
 42
2.4434609528
  0
ELLIPSE
  5
4DC
100
AcDbEntity
  8
RACCORDO
100
AcDbEllipse
 62
7
  6
CONTINUOUS
 10
-10.664976786
 20
-2.2567356319
 30
0.0
 11
-0.0
 21
0.5
 31
0.0
 40
0.0087268678
 41
0.6981317008
 42
2.9304390866
  0
ELLIPSE
  5
4DD
100
AcDbEntity
  8
DRAFT
100
AcDbEllipse
 62
7
  6
CONTINUOUS
 10
-10.6591584631
 20
-2.35
 30
0.0
 11
0.0
 21
1.0
 31
0.0
 40
0.0087268678
 41
5.7370640138
 42
6.981317008
  0
ELLIPSE
  5
4DE
100
AcDbEntity
  8
RACCORDO
100
AcDbEllipse
 62
7
  6
CONTINUOUS
 10
-11.585023214
 20
2.2567356319
 30
0.0
 11
-0.0
 21
0.5
 31
0.0
 40
0.0087268678
 41
-2.4434609528
 42
-0.211153567
  0
ELLIPSE
  5
4DF
100
AcDbEntity
  8
DRAFT
100
AcDbEllipse
 62
7
  6
CONTINUOUS
 10
-11.5908415369
 20
-2.35
 30
0.0
 11
0.0
 21
1.0
 31
0.0
 40
0.0087268678
 41
-0.6981317008
 42
0.5461212934
  0
ELLIPSE
  5
4E0
100
AcDbEntity
  8
RACCORDO
100
AcDbEllipse
 62
7
  6
CONTINUOUS
 10
-11.585023214
 20
-2.2567356319
 30
0.0
 11
-0.0
 21
0.5
 31
0.0
 40
0.0087268678
 41
-2.9304390866
 42
-0.6981317008
  0
ELLIPSE
  5
4E1
100
AcDbEntity
  8
DRAFT
100
AcDbEllipse
 62
7
  6
CONTINUOUS
 10
-25.3729823869
 20
-0.0
 30
0.0
 11
0.0
 21
498.2
 31
0.0
 40
0.0087268678
 41
-1.5339729154
 42
-1.5291181477
  0
ELLIPSE
  5
4E2
100
AcDbEntity
  8
DRAFT
100
AcDbEllipse
 62
7
  6
CONTINUOUS
 10
-25.3729823869
 20
-0.0
 30
0.0
 11
0.0
 21
498.2
 31
0.0
 40
0.0087268678
 41
-1.6124745059
 42
-1.6076197382
  0
ELLIPSE
  5
4E3
100
AcDbEntity
  8
DRAFT
100
AcDbEllipse
 62
7
  6
CONTINUOUS
 10
25.6229823869
 20
-0.0
 30
0.0
 11
0.0
 21
498.2
 31
0.0
 40
0.0087268678
 41
1.5291181477
 42
1.6124745059
  0
ELLIPSE
  5
4E4
100
AcDbEntity
  8
RACCORDO
100
AcDbEllipse
 62
7
  6
CONTINUOUS
 10
3.664976786
 20
2.2567356319
 30
0.0
 11
0.0
 21
0.5
 31
0.0
 40
0.0087268678
 41
-2.4434609528
 42
-0.211153567
  0
ENDSEC
  0
SECTION
  2
OBJECTS
  0
DICTIONARY
  5
C
100
AcDbDictionary
280
0
281
1
  3
ACAD_GROUP
350
D
  3
ACAD_MLINESTYLE
350
17
  3
ACAD_LAYOUT
350
1A
  3
ACAD_PLOTSETTINGS
350
19
  3
ACAD_PLOTSTYLENAME
350
E
  0
DICTIONARY
  5
D
102
{ACAD_REACTORS
330
C
102
}
100
AcDbDictionary
280
0
281
1
  0
ACDBDICTIONARYWDFLT
  5
E
102
{ACAD_REACTORS
330
C
102
}
100
AcDbDictionary
281
1
  3
Normal
350
F
100
AcDbDictionaryWithDefault
340
F
  0
DICTIONARY
  5
17
102
{ACAD_REACTORS
330
C
102
}
100
AcDbDictionary
280
0
281
1
  3
Standard
350
18
  0
DICTIONARY
  5
19
102
{ACAD_REACTORS
330
C
102
}
100
AcDbDictionary
281
1
  0
DICTIONARY
  5
1A
102
{ACAD_REACTORS
330
C
102
}
100
AcDbDictionary
281
1
  3
Model
350
4E5
  3
Layout1
350
4E6
  0
ACDBPLACEHOLDER
  5
F
102
{ACAD_REACTORS
330
E
102
}
  0
MLINESTYLE
  5
18
102
{ACAD_REACTORS
330
17
102
}
100
AcDbMlineStyle
  2
STANDARD
 70
0
  3

 62
256
 51
90.0
 52
90.0
 71
2
 49
0.5
 62
256
  6
BYLAYER
 49
-0.5
 62
256
  6
BYLAYER
  0
LAYOUT
  5
4E5
102
{ACAD_REACTORS
330
1A
102
}
100
AcDbPlotSettings
  1

  2
none_device
  4
ISO_A4_(297.00_x_210.00_MM)
  6

 40
0.0
 41
0.0
 42
0.0
 43
0.0
 44
297.0
 45
210.0
 46
0.0
 47
0.0
 48
0.0
 49
0.0
140
0.0
141
0.0
142
1.0
143
1.0
 70
1024
 72
1
 73
0
 74
0
  7

 75
0
147
1.0
148
0.0
149
0.0
100
AcDbLayout
  1
Model
 70
0
 71
0
 10
0.0
 20
0.0
 11
297.0
 21
210.0
 12
0.0
 22
0.0
 32
0.0
 14
0.0
 24
0.0
 34
0.0
 15
0.0
 25
0.0
 35
0.0
146
0.0
 13
0.0
 23
0.0
 33
0.0
 16
1.0
 26
0.0
 36
0.0
 17
0.0
 27
1.0
 37
0.0
 76
0
330
210
345
0
346
0
  0
LAYOUT
  5
4E6
102
{ACAD_REACTORS
330
1A
102
}
100
AcDbPlotSettings
  1

  2
none_device
  4
ISO_A4_(297.00_x_210.00_MM)
  6

 40
0.0
 41
0.0
 42
0.0
 43
0.0
 44
297.0
 45
210.0
 46
0.0
 47
0.0
 48
0.0
 49
0.0
140
0.0
141
0.0
142
1.0
143
1.0
 70
0
 72
1
 73
0
 74
0
  7

 75
0
147
1.0
148
0.0
149
0.0
100
AcDbLayout
  1
Layout1
 70
0
 71
1
 10
0.0
 20
0.0
 11
297.0
 21
210.0
 12
0.0
 22
0.0
 32
0.0
 14
0.0
 24
0.0
 34
0.0
 15
0.0
 25
0.0
 35
0.0
146
0.0
 13
0.0
 23
0.0
 33
0.0
 16
1.0
 26
0.0
 36
0.0
 17
0.0
 27
1.0
 37
0.0
 76
0
330
211
345
0
346
0
  0
ENDSEC
  0
EOF
