  0
SECTION
  2
HEADER
  9
$ACADVER
  1
AC1024
  9
$DWGCODEPAGE
  3
ANSI_1252
  9
$EXTMAX
 10
297.0
 20
210.0
 30
0.0
  9
$EXTMIN
 10
0.0
 20
0.0
 30
0.0
  9
$LIMMIN
 10
0.0
 20
0.0
  9
$LIMMAX
 10
297.0
 20
210.0
  9
$VIEWCTR
 10
148.5
 20
105.0
  9
$VIEWSIZE
 40
210.0
  9
$CLAYER
  8
0
  9
$LTSCALE
 40
16.335
  9
$CELTYPE
  6
BYLAYER
  9
$DIMSCALE
 40
1.0
  9
$DIMASZ
 40
3.0
  9
$DIMEXO
 40
0.5
  9
$DIMDLI
 40
11.286
  9
$DIMEXE
 40
1.5
  9
$DIMCEN
 40
2.673
  9
$DIMLFAC
 40
1.0
  9
$DIMBLK
  1
_FILLED
  9
$DIMALT
 70
0
  9
$DIMALTF
 40
0.0393700787
  9
$DIMTXT
 40
3.0
  9
$DIMTOL
 70
1
  9
$DIMLIM
 70
0
  9
$DIMTFAC
 40
1.0
  9
$DIMTP
 40
0.01
  9
$DIMTM
 40
0.01
  9
$DIMGAP
 40
0.625
  9
$DIMDSEP
 70
44
  9
$AUNITS
 70
0
  9
$PDMODE
 70
3
  9
$PDSIZE
 40
3.0
  9
$HANDSEED
  5
693
  9
$TILEMODE
 70
1
  9
$MEASUREMENT
 70
1
  9
$INSUNITS
 70
4
  0
ENDSEC
  0
SECTION
  2
CLASSES
  0
CLASS
  1
ACDBDICTIONARYWDFLT
  2
AcDbDictionaryWithDefault
  3
AutoCAD 2000
 90
0
 91
1
280
0
281
0
  0
CLASS
  1
ACDBPLACEHOLDER
  2
AcDbPlaceHolder
  3
AutoCAD 2000
 90
0
 91
1
280
0
281
0
  0
CLASS
  1
LAYOUT
  2
AcDbLayout
  3
AutoCAD 2000
 90
0
 91
0
280
0
281
0
  0
ENDSEC
  0
SECTION
  2
TABLES
  0
TABLE
  2
VPORT
  5
8
100
AcDbSymbolTable
 70
2
  0
VPORT
  5
1F4
100
AcDbSymbolTableRecord
100
AcDbViewportTableRecord
  2
*ACTIVE
 70
0
 10
0.0
 20
0.0
 11
1.0
 21
1.0
 12
148.5
 22
105.0
 13
0.0
 23
0.0
 14
1.0
 24
1.0
 15
0.0
 25
0.0
 16
0.0
 26
0.0
 36
1.0
 17
0.0
 27
0.0
 37
0.0
 40
210.0
 41
1.4142857143
 42
50.0
 43
0.0
 44
0.0
 50
0.0
 51
0.0
 71
0
 72
100
 73
1
 74
1
 75
0
 76
0
 77
0
 78
0
  0
ENDTAB
  0
TABLE
  2
LTYPE
  5
5
100
AcDbSymbolTable
 70
6
  0
LTYPE
  5
14
100
AcDbSymbolTableRecord
100
AcDbLinetypeTableRecord
  2
BYBLOCK
 70
0
  3

 72
65
 73
0
 40
0.0
  0
LTYPE
  5
15
100
AcDbSymbolTableRecord
100
AcDbLinetypeTableRecord
  2
BYLAYER
 70
0
  3

 72
65
 73
0
 40
0.0
  0
LTYPE
  5
16
100
AcDbSymbolTableRecord
100
AcDbLinetypeTableRecord
  2
CONTINUOUS
 70
64
  3
Solid line
 72
65
 73
0
 40
0.0
  0
LTYPE
  5
1F5
100
AcDbSymbolTableRecord
100
AcDbLinetypeTableRecord
  2
CENTER
 70
64
  3
____ _ ____ _ ____ _ ____ _ ____ _ ____ _ ____
 72
65
 73
4
 40
0.6
 49
0.375
 74
0
 49
-0.075
 74
0
 49
0.075
 74
0
 49
-0.075
 74
0
  0
LTYPE
  5
1F6
100
AcDbSymbolTableRecord
100
AcDbLinetypeTableRecord
  2
HIDDEN
 70
64
  3
- - - - - - - - - - - - - - - - - - - -
 72
65
 73
2
 40
0.2
 49
0.1
 74
0
 49
-0.1
 74
0
  0
LTYPE
  5
1F7
100
AcDbSymbolTableRecord
100
AcDbLinetypeTableRecord
  2
PHANTOM
 70
64
  3
_____ _ _ _____ _ _ _____ _ _ _____
 72
65
 73
6
 40
0.8
 49
0.45
 74
0
 49
-0.05
 74
0
 49
0.1
 74
0
 49
-0.05
 74
0
 49
0.1
 74
0
 49
-0.05
 74
0
  0
LTYPE
  5
1F8
100
AcDbSymbolTableRecord
100
AcDbLinetypeTableRecord
  2
DOT
 70
64
  3
. . . . . . . . . . . . . . . . . . . .
 72
65
 73
2
 40
0.2
 49
0.1
 74
0
 49
-0.1
 74
0
  0
LTYPE
  5
1F9
100
AcDbSymbolTableRecord
100
AcDbLinetypeTableRecord
  2
DASHED
 70
64
  3
- - - - - - - - - - - - - - - - - - - -
 72
65
 73
2
 40
0.2
 49
0.1
 74
0
 49
-0.1
 74
0
  0
ENDTAB
  0
TABLE
  2
LAYER
  5
2
100
AcDbSymbolTable
 70
36
  0
LAYER
  5
10
100
AcDbSymbolTableRecord
100
AcDbLayerTableRecord
  2
0
 70
0
 62
7
  6
CONTINUOUS
370
-3
390
F
  0
LAYER
  5
1FA
100
AcDbSymbolTableRecord
100
AcDbLayerTableRecord
  2
DEFAULT_1
 70
0
 62
7
  6
CENTER
370
-3
390
F
  0
LAYER
  5
1FB
100
AcDbSymbolTableRecord
100
AcDbLayerTableRecord
  2
DEFAULT_2
 70
0
 62
7
  6
HIDDEN
370
-3
390
F
  0
LAYER
  5
1FC
100
AcDbSymbolTableRecord
100
AcDbLayerTableRecord
  2
DEFAULT_3
 70
0
 62
7
  6
PHANTOM
370
-3
390
F
  0
LAYER
  5
1FD
100
AcDbSymbolTableRecord
100
AcDbLayerTableRecord
  2
ASSI
 70
0
 62
7
  6
CONTINUOUS
370
-3
390
F
  0
LAYER
  5
1FE
100
AcDbSymbolTableRecord
100
AcDbLayerTableRecord
  2
COORDINATE
 70
0
 62
7
  6
CONTINUOUS
370
-3
390
F
  0
LAYER
  5
1FF
100
AcDbSymbolTableRecord
100
AcDbLayerTableRecord
  2
COORD_ORIGINE
 70
0
 62
7
  6
CONTINUOUS
370
-3
390
F
  0
LAYER
  5
200
100
AcDbSymbolTableRecord
100
AcDbLayerTableRecord
  2
COPY_PUBLISH
 70
0
 62
7
  6
CONTINUOUS
370
-3
390
F
  0
LAYER
  5
201
100
AcDbSymbolTableRecord
100
AcDbLayerTableRecord
  2
COSMETIC
 70
0
 62
7
  6
CONTINUOUS
370
-3
390
F
  0
LAYER
  5
202
100
AcDbSymbolTableRecord
100
AcDbLayerTableRecord
  2
COSMETICI
 70
0
 62
7
  6
CONTINUOUS
370
-3
390
F
  0
LAYER
  5
203
100
AcDbSymbolTableRecord
100
AcDbLayerTableRecord
  2
CURVE
 70
0
 62
7
  6
CONTINUOUS
370
-3
390
F
  0
LAYER
  5
204
100
AcDbSymbolTableRecord
100
AcDbLayerTableRecord
  2
DRAFT
 70
0
 62
7
  6
CONTINUOUS
370
-3
390
F
  0
LAYER
  5
205
100
AcDbSymbolTableRecord
100
AcDbLayerTableRecord
  2
IMPORT_IGES
 70
0
 62
7
  6
CONTINUOUS
370
-3
390
F
  0
LAYER
  5
206
100
AcDbSymbolTableRecord
100
AcDbLayerTableRecord
  2
INTFCLR_1
 70
0
 62
7
  6
CONTINUOUS
370
-3
390
F
  0
LAYER
  5
207
100
AcDbSymbolTableRecord
100
AcDbLayerTableRecord
  2
NOTE
 70
0
 62
7
  6
CONTINUOUS
370
-3
390
F
  0
LAYER
  5
208
100
AcDbSymbolTableRecord
100
AcDbLayerTableRecord
  2
PIANI
 70
0
 62
7
  6
CONTINUOUS
370
-3
390
F
  0
LAYER
  5
209
100
AcDbSymbolTableRecord
100
AcDbLayerTableRecord
  2
PIANI_ORIGINE
 70
0
 62
7
  6
CONTINUOUS
370
-3
390
F
  0
LAYER
  5
20A
100
AcDbSymbolTableRecord
100
AcDbLayerTableRecord
  2
PUNTI
 70
0
 62
7
  6
CONTINUOUS
370
-3
390
F
  0
LAYER
  5
20B
100
AcDbSymbolTableRecord
100
AcDbLayerTableRecord
  2
RACCORDO
 70
0
 62
7
  6
CONTINUOUS
370
-3
390
F
  0
LAYER
  5
20C
100
AcDbSymbolTableRecord
100
AcDbLayerTableRecord
  2
SIMBOLI
 70
0
 62
7
  6
CONTINUOUS
370
-3
390
F
  0
LAYER
  5
20D
100
AcDbSymbolTableRecord
100
AcDbLayerTableRecord
  2
SMUSSO
 70
0
 62
7
  6
CONTINUOUS
370
-3
390
F
  0
LAYER
  5
20E
100
AcDbSymbolTableRecord
100
AcDbLayerTableRecord
  2
SNAPLINE
 70
0
 62
7
  6
CONTINUOUS
370
-3
390
F
  0
LAYER
  5
20F
100
AcDbSymbolTableRecord
100
AcDbLayerTableRecord
  2
SUPERFICI
 70
0
 62
7
  6
CONTINUOUS
370
-3
390
F
  0
LAYER
  5
210
100
AcDbSymbolTableRecord
100
AcDbLayerTableRecord
  2
TRASH
 70
0
 62
7
  6
CONTINUOUS
370
-3
390
F
  0
LAYER
  5
211
100
AcDbSymbolTableRecord
100
AcDbLayerTableRecord
  2
XSEC_DATUMS
 70
0
 62
7
  6
CONTINUOUS
370
-3
390
F
  0
ENDTAB
  0
TABLE
  2
STYLE
  5
3
100
AcDbSymbolTable
 70
1
  0
STYLE
  5
11
100
AcDbSymbolTableRecord
100
AcDbTextStyleTableRecord
  2
STANDARD
 70
0
 40
0.0
 41
0.8
 50
0.0
 71
0
 42
0.2
  3
txt
  4

  0
STYLE
  5
212
100
AcDbSymbolTableRecord
100
AcDbTextStyleTableRecord
  2
TEXTSTYLE_1
 70
0
 40
0.0
 41
0.8
 50
0.0
 71
0
 42
0.2
  3
gdt
  4

  0
ENDTAB
  0
TABLE
  2
VIEW
  5
6
100
AcDbSymbolTable
 70
0
  0
ENDTAB
  0
TABLE
  2
UCS
  5
7
100
AcDbSymbolTable
 70
0
  0
ENDTAB
  0
TABLE
  2
APPID
  5
9
100
AcDbSymbolTable
 70
1
  0
APPID
  5
213
100
AcDbSymbolTableRecord
100
AcDbRegAppTableRecord
  2
ACAD
 70
0
  0
ENDTAB
  0
TABLE
  2
BLOCK_RECORD
  5
1
100
AcDbSymbolTable
 70
0
  0
BLOCK_RECORD
  5
214
100
AcDbSymbolTableRecord
100
AcDbBlockTableRecord
  2
*Model_Space
  0
BLOCK_RECORD
  5
215
100
AcDbSymbolTableRecord
100
AcDbBlockTableRecord
  2
*Paper_Space
  0
BLOCK_RECORD
  5
216
100
AcDbSymbolTableRecord
100
AcDbBlockTableRecord
  2
_FILLED
  0
ENDTAB
  0
TABLE
  2
DIMSTYLE
  5
A
100
AcDbSymbolTable
 70
1
100
AcDbDimStyleTable
 71
0
  0
DIMSTYLE
105
217
100
AcDbSymbolTableRecord
100
AcDbDimStyleTableRecord
  2
STANDARD
 70
0
  3

  4

 40
1.0
 41
3.0
 42
0.5
 43
0.38
 44
1.5
 45
0.0
 46
0.0
 47
0.01
 48
0.01
140
3.0
141
0.09
142
0.0
143
25.4
144
1.0
145
0.0
146
1.0
147
0.625
 71
1
 72
0
 73
0
 74
0
 75
0
 76
0
 77
1
 78
8
 79
2
170
0
171
1
172
0
173
0
174
0
175
0
176
0
177
0
178
0
270
2
179
2
271
2
272
2
273
2
274
2
275
0
280
0
281
0
282
0
283
1
284
8
285
0
286
0
287
3
288
0
340
11
278
44
341
216
342
216
343
216
344
216
  0
ENDTAB
  0
ENDSEC
  0
SECTION
  2
BLOCKS
  0
BLOCK
  5
20
100
AcDbEntity
  8
0
100
AcDbBlockBegin
  2
*Model_Space
 70
0
 10
0.0
 20
0.0
 30
0.0
  3
*Model_Space
  1

  0
ENDBLK
  5
21
100
AcDbEntity
  8
0
100
AcDbBlockEnd
  0
BLOCK
  5
1C
100
AcDbEntity
  8
0
100
AcDbBlockBegin
  2
*Paper_Space
 70
0
 10
0.0
 20
0.0
 30
0.0
  3
*Paper_Space
  1

  0
ENDBLK
  5
1D
100
AcDbEntity
  8
0
100
AcDbBlockEnd
  0
BLOCK
  5
218
100
AcDbEntity
  8
0
100
AcDbBlockBegin
  2
_FILLED
 70
64
 10
0.0
 20
0.0
  3
_FILLED
  1

  0
SOLID
  5
219
100
AcDbEntity
  8
0
  6
BYBLOCK
 62
0
100
AcDbTrace
 10
0.0
 20
0.0
 11
-1.0
 21
0.3166666667
 12
-1.0
 22
-0.3166666667
 13
-1.0
 23
-0.3166666667
  0
ENDBLK
  5
21A
100
AcDbEntity
  8
0
  6
BYBLOCK
 62
0
100
AcDbBlockEnd
  0
ENDSEC
  0
SECTION
  2
ENTITIES
  0
LWPOLYLINE
  5
21B
100
AcDbEntity
  8
RACCORDO
100
AcDbPolyline
 62
7
  6
CONTINUOUS
 90
13
 70
0
 10
-21.8443014089
 20
17.3594295911
 10
-21.911020854
 20
17.2699643978
 10
-21.972384507
 20
17.1773782935
 10
-22.0283923677
 20
17.081671278
 10
-22.0792191393
 20
16.9824822155
 10
-22.1246901186
 20
16.8801722418
 10
-22.1642811968
 20
16.7758247651
 10
-22.1979029126
 20
16.6694105511
 10
-22.2256447272
 20
16.5609588341
 10
-22.2472509158
 20
16.4516407259
 10
-22.2626362366
 20
16.3418465971
 10
-22.2718859314
 20
16.2311860772
 10
-22.275
 20
16.119659166
  0
LWPOLYLINE
  5
21C
100
AcDbEntity
  8
0
100
AcDbPolyline
 62
250
  6
CONTINUOUS
 90
10
 70
0
 10
-21.081343015
 20
20.6563506304
 10
-21.0779093511
 20
20.6593045062
 10
-21.0686461112
 20
20.6603846672
 10
-21.0539715349
 20
20.6604675461
 10
-21.0341993148
 20
20.6613239697
 10
-21.0095950792
 20
20.6629706908
 10
-20.9808468525
 20
20.6635007743
 10
-20.9490860082
 20
20.6628566035
 10
-20.9154932359
 20
20.6629415555
 10
-20.8813506304
 20
20.6646463536
  0
LWPOLYLINE
  5
21D
100
AcDbEntity
  8
RACCORDO
100
AcDbPolyline
 62
7
  6
CONTINUOUS
 90
7
 70
0
 10
-16.8102955243
 20
-22.2978870308
 10
-16.7643156787
 20
-22.3287225274
 10
-16.7165709887
 20
-22.3540235025
 10
-16.6670614544
 20
-22.3737899561
 10
-16.6157870756
 20
-22.3880218881
 10
-16.5627478524
 20
-22.3967192986
 10
-16.5079437848
 20
-22.3998821875
  0
LWPOLYLINE
  5
21E
100
AcDbEntity
  8
RACCORDO
100
AcDbPolyline
 62
7
  6
CONTINUOUS
 90
13
 70
0
 10
-21.7964988845
 20
-17.2585598083
 10
-21.8628857886
 20
-17.1692251386
 10
-21.9239419269
 20
-17.0767920704
 10
-21.9796672995
 20
-16.9812606035
 10
-22.0302351204
 20
-16.8822720474
 10
-22.0754721756
 20
-16.7801850927
 10
-22.1148588224
 20
-16.6760758112
 10
-22.1483063222
 20
-16.5699150386
 10
-22.1759034137
 20
-16.4617319392
 10
-22.1973966698
 20
-16.3526900781
 10
-22.2127016152
 20
-16.2431773103
 10
-22.2219027252
 20
-16.1328057808
 10
-22.225
 20
-16.0215754896
  0
LWPOLYLINE
  5
21F
100
AcDbEntity
  8
RACCORDO
100
AcDbPolyline
 62
7
  6
CONTINUOUS
 90
13
 70
0
 10
-21.7255203787
 20
17.2358250037
 10
-21.7920856754
 20
17.1464162131
 10
-21.8533060435
 20
17.0538984507
 10
-21.909181483
 20
16.9582717164
 10
-21.9598857122
 20
16.8591761558
 10
-22.0052450128
 20
16.7569716232
 10
-22.0447382296
 20
16.6527376827
 10
-22.0782763747
 20
16.5464454731
 10
-22.1059484359
 20
16.4381238555
 10
-22.1275002223
 20
16.3289389765
 10
-22.1428470032
 20
16.2192795517
 10
-22.1520735092
 20
16.1087568655
 10
-22.1551797403
 20
15.9973709179
  0
LINE
  5
220
100
AcDbEntity
  8
DRAFT
100
AcDbLine
 62
7
  6
CONTINUOUS
 10
-18.4382149198
 20
20.0698149423
 11
-18.5080351795
 21
20.0349074712
  0
LINE
  5
221
100
AcDbEntity
  8
DRAFT
100
AcDbLine
 62
7
  6
CONTINUOUS
 10
-18.4382149198
 20
-20.0698149423
 11
-18.5080351795
 21
-20.0349074712
  0
LINE
  5
222
100
AcDbEntity
  8
RACCORDO
100
AcDbLine
 62
7
  6
CONTINUOUS
 10
-15.0577802714
 20
20.0672197286
 11
-15.125
 21
20.0
  0
LINE
  5
223
100
AcDbEntity
  8
DRAFT
100
AcDbLine
 62
7
  6
CONTINUOUS
 10
-7.3363830423
 20
-23.5
 11
-7.9272516364
 21
-23.5
  0
LINE
  5
224
100
AcDbEntity
  8
DRAFT
100
AcDbLine
 62
7
  6
CONTINUOUS
 10
-14.3227483636
 20
-23.5
 11
-14.9136169577
 21
-23.5
  0
LINE
  5
225
100
AcDbEntity
  8
RACCORDO
100
AcDbLine
 62
7
  6
CONTINUOUS
 10
-15.0577802714
 20
-20.0672197286
 11
-15.125
 21
-20.0
  0
LWPOLYLINE
  5
226
100
AcDbEntity
  8
0
100
AcDbPolyline
 62
250
  6
CONTINUOUS
 90
13
 70
0
 10
-21.081343015
 20
-20.6563506304
 10
-21.0796302303
 20
-20.6824536166
 10
-21.0745251551
 20
-20.7081100167
 10
-21.0661151303
 20
-20.7328808852
 10
-21.0545440397
 20
-20.7563424265
 10
-21.0400098488
 20
-20.7780932461
 10
-21.0227612175
 20
-20.7977612175
 10
-21.0030932461
 20
-20.8150098488
 10
-20.9813424265
 20
-20.8295440397
 10
-20.9578808852
 20
-20.8411151303
 10
-20.9331100167
 20
-20.8495251551
 10
-20.9074536166
 20
-20.8546302303
 10
-20.8813506304
 20
-20.856343015
  0
LWPOLYLINE
  5
227
100
AcDbEntity
  8
RACCORDO
100
AcDbPolyline
 62
7
  6
CONTINUOUS
 90
13
 70
0
 10
-22.275
 20
-16.119659166
 10
-22.2718859314
 20
-16.2311860772
 10
-22.2626362366
 20
-16.3418465971
 10
-22.2472509158
 20
-16.4516407259
 10
-22.2256447272
 20
-16.5609588341
 10
-22.1979029126
 20
-16.6694105511
 10
-22.1642811968
 20
-16.7758247651
 10
-22.124690118
 20
-16.8801722426
 10
-22.0792191382
 20
-16.9824822171
 10
-22.0283923677
 20
-17.081671278
 10
-21.9723845102
 20
-17.1773782886
 10
-21.9110208621
 20
-17.2699643857
 10
-21.8443014234
 20
-17.3594295692
  0
LWPOLYLINE
  5
228
100
AcDbEntity
  8
RACCORDO
100
AcDbPolyline
 62
7
  6
CONTINUOUS
 90
13
 70
0
 10
-22.1551797403
 20
-15.9973709179
 10
-22.1520735092
 20
-16.1087568655
 10
-22.1428470032
 20
-16.2192795517
 10
-22.1275002223
 20
-16.3289389765
 10
-22.1059484359
 20
-16.4381238555
 10
-22.0782763747
 20
-16.5464454731
 10
-22.0447382296
 20
-16.6527376827
 10
-22.0052450128
 20
-16.7569716232
 10
-21.9598857122
 20
-16.8591761558
 10
-21.909181483
 20
-16.9582717164
 10
-21.8533060435
 20
-17.0538984507
 10
-21.7920856754
 20
-17.1464162131
 10
-21.7255203787
 20
-17.2358250037
  0
LINE
  5
229
100
AcDbEntity
  8
RACCORDO
100
AcDbLine
 62
7
  6
CONTINUOUS
 10
-22.275
 20
-16.1196590187
 11
-22.275
 21
16.1196590187
  0
LINE
  5
22A
100
AcDbEntity
  8
RACCORDO
100
AcDbLine
 62
7
  6
CONTINUOUS
 10
-22.225
 20
16.0215754896
 11
-22.225
 21
-16.0215754896
  0
LINE
  5
22B
100
AcDbEntity
  8
RACCORDO
100
AcDbLine
 62
7
  6
CONTINUOUS
 10
-22.1551797403
 20
15.9973709179
 11
-22.1551797403
 21
-15.9973709179
  0
LINE
  5
22C
100
AcDbEntity
  8
RACCORDO
100
AcDbLine
 62
7
  6
CONTINUOUS
 10
-22.025
 20
-21.3500571074
 11
-22.025
 21
-17.0874682035
  0
LINE
  5
22D
100
AcDbEntity
  8
RACCORDO
100
AcDbLine
 62
7
  6
CONTINUOUS
 10
-22.025
 20
17.0874682035
 11
-22.025
 21
21.3500571074
  0
LWPOLYLINE
  5
22E
100
AcDbEntity
  8
RACCORDO
100
AcDbPolyline
 62
7
  6
CONTINUOUS
 90
13
 70
0
 10
-22.225
 20
16.0215754896
 10
-22.2219027252
 20
16.1328057808
 10
-22.2127016152
 20
16.2431773103
 10
-22.1973966698
 20
16.3526900781
 10
-22.1759034137
 20
16.4617319392
 10
-22.1483063222
 20
16.5699150386
 10
-22.1148588224
 20
16.6760758112
 10
-22.0754721756
 20
16.7801850927
 10
-22.0302351204
 20
16.8822720474
 10
-21.9796672995
 20
16.9812606035
 10
-21.9239419269
 20
17.0767920704
 10
-21.8628857886
 20
17.1692251386
 10
-21.7964988845
 20
17.2585598083
  0
LINE
  5
22F
100
AcDbEntity
  8
DRAFT
100
AcDbLine
 62
7
  6
CONTINUOUS
 10
-7.9970718961
 20
23.4301797403
 11
-7.9272516364
 21
23.5
  0
LINE
  5
230
100
AcDbEntity
  8
DRAFT
100
AcDbLine
 62
7
  6
CONTINUOUS
 10
-7.9970718961
 20
21.1650925288
 11
-8.025
 21
21.1511295404
  0
LINE
  5
231
100
AcDbEntity
  8
0
100
AcDbLine
 62
7
  6
CONTINUOUS
 10
6.6331013807
 20
-20.8971250861
 11
8.675
 21
-20.35
  0
LINE
  5
232
100
AcDbEntity
  8
0
100
AcDbLine
 62
7
  6
CONTINUOUS
 10
8.6690236423
 20
-20.3046050564
 11
6.627125023
 21
-20.8517301425
  0
LINE
  5
233
100
AcDbEntity
  8
0
100
AcDbLine
 62
7
  6
CONTINUOUS
 10
8.3540706032
 20
-20.184068984
 11
7.3021471794
 21
-20.465931016
  0
LINE
  5
234
100
AcDbEntity
  8
0
100
AcDbLine
 62
250
  6
CONTINUOUS
 10
7.0516552888
 20
-20.5309302485
 11
6.6007955261
 21
-20.6517377579
  0
LWPOLYLINE
  5
235
100
AcDbEntity
  8
0
100
AcDbPolyline
 62
7
  6
CONTINUOUS
 90
12
 70
0
 10
21.1284830661
 20
-20.8517223939
 10
21.1529212381
 20
-20.8500067383
 10
21.1787756379
 20
-20.8448374278
 10
21.2038418801
 20
-20.8362634778
 10
21.2277678286
 20
-20.8243275114
 10
21.2499872902
 20
-20.8092291873
 10
21.2698191829
 20
-20.7914575308
 10
21.2868920965
 20
-20.7715067868
 10
21.3010893868
 20
-20.7496962294
 10
21.31226574
 20
-20.7263984041
 10
21.3203029516
 20
-20.7020168531
 10
21.3249924167
 20
-20.6780293968
  0
LWPOLYLINE
  5
236
100
AcDbEntity
  8
RACCORDO
100
AcDbPolyline
 62
7
  6
CONTINUOUS
 90
7
 70
0
 10
-5.7420562152
 20
-22.3998821875
 10
-5.6872521419
 20
-22.3967192955
 10
-5.6342129187
 20
-22.388021885
 10
-5.5829385456
 20
-22.3737899561
 10
-5.5334290228
 20
-22.3540235087
 10
-5.4856843502
 20
-22.3287225427
 10
-5.4397045277
 20
-22.2978870583
  0
LINE
  5
237
100
AcDbEntity
  8
DRAFT
100
AcDbLine
 62
7
  6
CONTINUOUS
 10
-7.3568249539
 20
-23.4301797403
 11
-7.9970718961
 21
-23.4301797403
  0
LINE
  5
238
100
AcDbEntity
  8
DRAFT
100
AcDbLine
 62
7
  6
CONTINUOUS
 10
-14.2529281039
 20
-23.4301797403
 11
-14.8931750461
 21
-23.4301797403
  0
LINE
  5
239
100
AcDbEntity
  8
0
100
AcDbLine
 62
7
  6
CONTINUOUS
 10
-14.225
 20
-22.2
 11
-8.025
 21
-22.2
  0
LINE
  5
23A
100
AcDbEntity
  8
RACCORDO
100
AcDbLine
 62
7
  6
CONTINUOUS
 10
21.7751522961
 20
-21.85
 11
-4.8669431538
 21
-21.85
  0
LINE
  5
23B
100
AcDbEntity
  8
RACCORDO
100
AcDbLine
 62
7
  6
CONTINUOUS
 10
-7.9970718961
 20
-21.85
 11
-8.025
 21
-21.85
  0
LINE
  5
23C
100
AcDbEntity
  8
RACCORDO
100
AcDbLine
 62
7
  6
CONTINUOUS
 10
-14.225
 20
-21.85
 11
-14.2529281039
 21
-21.85
  0
LINE
  5
23D
100
AcDbEntity
  8
RACCORDO
100
AcDbLine
 62
7
  6
CONTINUOUS
 10
-17.3830568475
 20
-21.85
 11
-21.5251522961
 21
-21.85
  0
LINE
  5
23E
100
AcDbEntity
  8
0
100
AcDbLine
 62
7
  6
CONTINUOUS
 10
9.875
 20
-21.2971250861
 11
12.875
 21
-21.2971250861
  0
LINE
  5
23F
100
AcDbEntity
  8
DRAFT
100
AcDbLine
 62
7
  6
CONTINUOUS
 10
-8.3005120085
 20
-21.1374937549
 11
-8.025
 21
-21.1511295404
  0
LWPOLYLINE
  5
240
100
AcDbEntity
  8
0
100
AcDbPolyline
 62
250
  6
CONTINUOUS
 90
10
 70
0
 10
-20.8813506304
 20
-20.6646463536
 10
-20.915493219
 20
-20.6629421787
 10
-20.9490859709
 20
-20.6628576852
 10
-20.9808468008
 20
-20.6635021492
 10
-21.0095950053
 20
-20.6629722057
 10
-21.0341992383
 20
-20.6613254876
 10
-21.0539714992
 20
-20.6604689224
 10
-21.068646118
 20
-20.6603857366
 10
-21.077909364
 20
-20.6593051089
 10
-21.081343015
 20
-20.6563506304
  0
LINE
  5
241
100
AcDbEntity
  8
DRAFT
100
AcDbLine
 62
7
  6
CONTINUOUS
 10
-7.9970718961
 20
-21.1650925288
 11
-8.025
 21
-21.1511295404
  0
LINE
  5
242
100
AcDbEntity
  8
DRAFT
100
AcDbLine
 62
7
  6
CONTINUOUS
 10
-7.9970718961
 20
-23.4301797403
 11
-7.9272516364
 21
-23.5
  0
LINE
  5
243
100
AcDbEntity
  8
DRAFT
100
AcDbLine
 62
7
  6
CONTINUOUS
 10
-21.106076581
 20
14.5
 11
-21.075
 21
-0.0
  0
LINE
  5
244
100
AcDbEntity
  8
0
100
AcDbLine
 62
250
  6
CONTINUOUS
 10
-21.0813331242
 20
20.6563407396
 11
-21.0805421527
 21
18.2803407255
  0
LINE
  5
245
100
AcDbEntity
  8
DRAFT
100
AcDbLine
 62
7
  6
CONTINUOUS
 10
-21.1830247758
 20
-16.4319772848
 11
-21.1830247758
 21
16.4319772848
  0
LINE
  5
246
100
AcDbEntity
  8
0
100
AcDbLine
 62
7
  6
CONTINUOUS
 10
-21.1256158332
 20
-20.7006234486
 11
-21.1256158332
 21
-18.2279840025
  0
LINE
  5
247
100
AcDbEntity
  8
0
100
AcDbLine
 62
7
  6
CONTINUOUS
 10
-21.1256158332
 20
18.2279840027
 11
-21.1256158332
 21
20.7006234486
  0
LINE
  5
248
100
AcDbEntity
  8
RACCORDO
100
AcDbLine
 62
7
  6
CONTINUOUS
 10
-21.1132045161
 20
-16.408165363
 11
-21.1132045161
 21
-14.7
  0
LINE
  5
249
100
AcDbEntity
  8
RACCORDO
100
AcDbLine
 62
7
  6
CONTINUOUS
 10
-21.1132045161
 20
14.7
 11
-21.1132045161
 21
16.408165363
  0
LINE
  5
24A
100
AcDbEntity
  8
0
100
AcDbLine
 62
250
  6
CONTINUOUS
 10
-20.880624533
 20
18.5125611985
 11
-20.8813506304
 21
20.856343015
  0
LINE
  5
24B
100
AcDbEntity
  8
0
100
AcDbLine
 62
250
  6
CONTINUOUS
 10
-21.0805998995
 20
-18.2802736482
 11
-21.0813448196
 21
-20.656352435
  0
LINE
  5
24C
100
AcDbEntity
  8
0
100
AcDbLine
 62
250
  6
CONTINUOUS
 10
-20.8806779271
 20
-18.5124991791
 11
-20.8813506304
 21
-20.856343015
  0
LINE
  5
24D
100
AcDbEntity
  8
DRAFT
100
AcDbLine
 62
7
  6
CONTINUOUS
 10
-21.075
 20
-0.0
 11
-21.106076581
 21
-14.5
  0
LINE
  5
24E
100
AcDbEntity
  8
RACCORDO
100
AcDbLine
 62
7
  6
CONTINUOUS
 10
-8.0577802714
 20
20.0672197286
 11
-8.125
 21
20.0
  0
LINE
  5
24F
100
AcDbEntity
  8
DRAFT
100
AcDbLine
 62
7
  6
CONTINUOUS
 10
-4.478374015
 20
20.0
 11
-4.4126983669
 21
20.0349074712
  0
LINE
  5
250
100
AcDbEntity
  8
DRAFT
100
AcDbLine
 62
7
  6
CONTINUOUS
 10
-4.3567936515
 20
21.1374937549
 11
-4.3040907085
 21
21.1650925288
  0
LINE
  5
251
100
AcDbEntity
  8
DRAFT
100
AcDbLine
 62
7
  6
CONTINUOUS
 10
-3.8057889216
 20
20.6435196952
 11
-3.7419648205
 21
20.671935187
  0
LINE
  5
252
100
AcDbEntity
  8
0
100
AcDbLine
 62
7
  6
CONTINUOUS
 10
8.3592168972
 20
-19.2233112727
 11
7.0529991146
 21
-19.5733112727
  0
LINE
  5
253
100
AcDbEntity
  8
0
100
AcDbLine
 62
7
  6
CONTINUOUS
 10
8.3495652851
 20
-19.15
 11
7.0433475024
 21
-19.5
  0
LWPOLYLINE
  5
254
100
AcDbEntity
  8
0
100
AcDbPolyline
 62
7
  6
CONTINUOUS
 90
13
 70
0
 10
0.4330981125
 20
-20.8563352473
 10
0.4575334822
 20
-20.8546196939
 10
0.483372937
 20
-20.8494544976
 10
0.5084118593
 20
-20.8408942701
 10
0.5322895069
 20
-20.8289937391
 10
0.5544586081
 20
-20.8139527392
 10
0.5742735594
 20
-20.7962325282
 10
0.5913685649
 20
-20.7763018336
 10
0.6056034911
 20
-20.7544846715
 10
0.6168172996
 20
-20.7311634317
 10
0.624885455
 20
-20.7067464644
 10
0.629732089
 20
-20.6816683286
 10
0.6304080339
 20
-20.6756513783
  0
LINE
  5
255
100
AcDbEntity
  8
DRAFT
100
AcDbLine
 62
7
  6
CONTINUOUS
 10
-14.225
 20
-21.1511295404
 11
-13.9494879915
 21
-21.1374937549
  0
LINE
  5
256
100
AcDbEntity
  8
0
100
AcDbLine
 62
250
  6
CONTINUOUS
 10
0.4993903786
 20
-20.6641204735
 11
0.4658894321
 21
-20.6645058815
  0
LINE
  5
257
100
AcDbEntity
  8
0
100
AcDbLine
 62
250
  6
CONTINUOUS
 10
21.1267377579
 20
-20.8517301425
 11
21.1284830661
 21
-20.8517223939
  0
LINE
  5
258
100
AcDbEntity
  8
0
100
AcDbLine
 62
250
  6
CONTINUOUS
 10
0.4313506304
 20
-20.856343015
 11
0.4330981125
 21
-20.8563352473
  0
LINE
  5
259
100
AcDbEntity
  8
DRAFT
100
AcDbLine
 62
7
  6
CONTINUOUS
 10
-17.9459092915
 20
-21.1650925288
 11
-14.2529281039
 21
-21.1650925288
  0
LINE
  5
25A
100
AcDbEntity
  8
DRAFT
100
AcDbLine
 62
7
  6
CONTINUOUS
 10
-7.9970718961
 20
-21.1650925288
 11
-4.3040907085
 21
-21.1650925288
  0
LINE
  5
25B
100
AcDbEntity
  8
DRAFT
100
AcDbLine
 62
7
  6
CONTINUOUS
 10
-4.3567936515
 20
-21.1374937549
 11
-8.3005120085
 21
-21.1374937549
  0
LINE
  5
25C
100
AcDbEntity
  8
DRAFT
100
AcDbLine
 62
7
  6
CONTINUOUS
 10
-13.9494879915
 20
-21.1374937549
 11
-17.8932063485
 21
-21.1374937549
  0
LINE
  5
25D
100
AcDbEntity
  8
0
100
AcDbLine
 62
7
  6
CONTINUOUS
 10
21.1756234486
 20
-20.9006158332
 11
12.875
 21
-20.9006158332
  0
LINE
  5
25E
100
AcDbEntity
  8
0
100
AcDbLine
 62
7
  6
CONTINUOUS
 10
9.875
 20
-20.9006158332
 11
1.5743765514
 21
-20.9006158332
  0
LINE
  5
25F
100
AcDbEntity
  8
0
100
AcDbLine
 62
7
  6
CONTINUOUS
 10
0.4756234486
 20
-20.9006158332
 11
-3.7453497486
 21
-20.9006158332
  0
LINE
  5
260
100
AcDbEntity
  8
0
100
AcDbLine
 62
7
  6
CONTINUOUS
 10
-18.5046502487
 20
-20.9006158332
 11
-20.9256234486
 21
-20.9006158332
  0
LINE
  5
261
100
AcDbEntity
  8
0
100
AcDbLine
 62
7
  6
CONTINUOUS
 10
-20.8813506304
 20
-20.856343015
 11
-18.5551581568
 21
-20.856343015
  0
LINE
  5
262
100
AcDbEntity
  8
0
100
AcDbLine
 62
7
  6
CONTINUOUS
 10
-3.69484184
 20
-20.856343015
 11
0.4313506304
 21
-20.856343015
  0
LINE
  5
263
100
AcDbEntity
  8
0
100
AcDbLine
 62
7
  6
CONTINUOUS
 10
21.1267377579
 20
-20.8517301425
 11
16.122874977
 21
-20.8517301425
  0
LINE
  5
264
100
AcDbEntity
  8
0
100
AcDbLine
 62
7
  6
CONTINUOUS
 10
6.627125023
 20
-20.8517301425
 11
1.6232622421
 21
-20.8517301425
  0
LINE
  5
265
100
AcDbEntity
  8
0
100
AcDbLine
 62
250
  6
CONTINUOUS
 10
-20.8813524965
 20
-20.6646463536
 11
-18.7753898099
 21
-20.6646463536
  0
LINE
  5
266
100
AcDbEntity
  8
0
100
AcDbLine
 62
250
  6
CONTINUOUS
 10
-3.4843106397
 20
-20.6646463536
 11
0.4658894321
 21
-20.6645058815
  0
LINE
  5
267
100
AcDbEntity
  8
0
100
AcDbLine
 62
250
  6
CONTINUOUS
 10
21.3267301425
 20
-20.6517377579
 11
16.1492044739
 21
-20.6517377579
  0
LINE
  5
268
100
AcDbEntity
  8
0
100
AcDbLine
 62
250
  6
CONTINUOUS
 10
6.6007955261
 20
-20.6517377579
 11
4.4193940276
 21
-20.6517377579
  0
LINE
  5
269
100
AcDbEntity
  8
0
100
AcDbLine
 62
250
  6
CONTINUOUS
 10
3.8306059724
 20
-20.6517377579
 11
1.4232698575
 21
-20.6517377579
  0
LINE
  5
26A
100
AcDbEntity
  8
RACCORDO
100
AcDbLine
 62
7
  6
CONTINUOUS
 10
2.4248781561
 20
-20.5
 11
3.6919872981
 21
-20.5
  0
LINE
  5
26B
100
AcDbEntity
  8
0
100
AcDbLine
 62
7
  6
CONTINUOUS
 10
4.5580127019
 20
-20.5
 11
7.0433675537
 21
-20.5
  0
LINE
  5
26C
100
AcDbEntity
  8
0
100
AcDbLine
 62
7
  6
CONTINUOUS
 10
20.1983112727
 20
-20.5
 11
20.3251218439
 21
-20.5
  0
LINE
  5
26D
100
AcDbEntity
  8
0
100
AcDbLine
 62
7
  6
CONTINUOUS
 10
20.1372185454
 20
-20.4389072728
 11
18.952153994
 21
-20.4389072728
  0
LINE
  5
26E
100
AcDbEntity
  8
0
100
AcDbLine
 62
7
  6
CONTINUOUS
 10
18.297846006
 20
-20.4389072728
 11
15.5830430101
 21
-20.4389072728
  0
LINE
  5
26F
100
AcDbEntity
  8
0
100
AcDbLine
 62
7
  6
CONTINUOUS
 10
8.675
 20
-20.35
 11
14.075
 21
-20.35
  0
LINE
  5
270
100
AcDbEntity
  8
0
100
AcDbLine
 62
7
  6
CONTINUOUS
 10
14.0809763577
 20
-20.3046050564
 11
8.6690236423
 21
-20.3046050564
  0
LINE
  5
271
100
AcDbEntity
  8
DRAFT
100
AcDbLine
 62
7
  6
CONTINUOUS
 10
-18.4382149198
 20
-20.3
 11
-3.8117850802
 21
-20.3
  0
LINE
  5
272
100
AcDbEntity
  8
0
100
AcDbLine
 62
7
  6
CONTINUOUS
 10
14.0639072728
 20
-20.15
 11
8.6128502289
 21
-20.15
  0
LINE
  5
273
100
AcDbEntity
  8
0
100
AcDbLine
 62
7
  6
CONTINUOUS
 10
14.2768252275
 20
-20.0889072728
 11
14.125
 21
-20.0889072728
  0
LINE
  5
274
100
AcDbEntity
  8
RACCORDO
100
AcDbLine
 62
7
  6
CONTINUOUS
 10
-3.8117850802
 20
-20.0698149423
 11
-7.4922083055
 21
-20.0698149423
  0
LINE
  5
275
100
AcDbEntity
  8
RACCORDO
100
AcDbLine
 62
7
  6
CONTINUOUS
 10
-7.7577916945
 20
-20.0698149423
 11
-14.4922083055
 21
-20.0698149423
  0
LINE
  5
276
100
AcDbEntity
  8
RACCORDO
100
AcDbLine
 62
7
  6
CONTINUOUS
 10
-14.7577916945
 20
-20.0698149423
 11
-18.4382149198
 21
-20.0698149423
  0
LINE
  5
277
100
AcDbEntity
  8
DRAFT
100
AcDbLine
 62
7
  6
CONTINUOUS
 10
-18.5080351795
 20
-20.0349074712
 11
-17.8373016331
 21
-20.0349074712
  0
LINE
  5
278
100
AcDbEntity
  8
DRAFT
100
AcDbLine
 62
7
  6
CONTINUOUS
 10
-4.4126983669
 20
-20.0349074712
 11
-3.7419648205
 21
-20.0349074712
  0
LINE
  5
279
100
AcDbEntity
  8
DRAFT
100
AcDbLine
 62
7
  6
CONTINUOUS
 10
-17.771625985
 20
-20.0
 11
-15.125
 21
-20.0
  0
LINE
  5
27A
100
AcDbEntity
  8
DRAFT
100
AcDbLine
 62
7
  6
CONTINUOUS
 10
-14.125
 20
-20.0
 11
-8.125
 21
-20.0
  0
LINE
  5
27B
100
AcDbEntity
  8
DRAFT
100
AcDbLine
 62
7
  6
CONTINUOUS
 10
-7.125
 20
-20.0
 11
-4.478374015
 21
-20.0
  0
LINE
  5
27C
100
AcDbEntity
  8
RACCORDO
100
AcDbLine
 62
250
  6
CONTINUOUS
 10
-7.1922197286
 20
-19.8501037691
 11
-8.0577802714
 21
-19.8501037691
  0
LINE
  5
27D
100
AcDbEntity
  8
RACCORDO
100
AcDbLine
 62
250
  6
CONTINUOUS
 10
-14.1922197286
 20
-19.8501037691
 11
-15.0577802714
 21
-19.8501037691
  0
LINE
  5
27E
100
AcDbEntity
  8
0
100
AcDbLine
 62
7
  6
CONTINUOUS
 10
2.5516887273
 20
-19.5733112727
 11
7.0529991146
 21
-19.5733112727
  0
LINE
  5
27F
100
AcDbEntity
  8
0
100
AcDbLine
 62
7
  6
CONTINUOUS
 10
20.1372185454
 20
-19.5122185454
 11
15.7050438956
 21
-19.5122185454
  0
LINE
  5
280
100
AcDbEntity
  8
0
100
AcDbLine
 62
7
  6
CONTINUOUS
 10
2.625
 20
-19.5
 11
7.0433475024
 21
-19.5
  0
LINE
  5
281
100
AcDbEntity
  8
RACCORDO
100
AcDbLine
 62
250
  6
CONTINUOUS
 10
-7.4910598849
 20
-19.3802574587
 11
-7.7589401151
 21
-19.3802574587
  0
LINE
  5
282
100
AcDbEntity
  8
RACCORDO
100
AcDbLine
 62
250
  6
CONTINUOUS
 10
-14.4910598849
 20
-19.3802574587
 11
-14.7589401151
 21
-19.3802574587
  0
LINE
  5
283
100
AcDbEntity
  8
0
100
AcDbLine
 62
7
  6
CONTINUOUS
 10
14.0639072728
 20
-19.2233112727
 11
8.3592168972
 21
-19.2233112727
  0
LINE
  5
284
100
AcDbEntity
  8
0
100
AcDbLine
 62
7
  6
CONTINUOUS
 10
14.3988261129
 20
-19.1622185454
 11
14.125
 21
-19.1622185454
  0
LINE
  5
285
100
AcDbEntity
  8
0
100
AcDbLine
 62
7
  6
CONTINUOUS
 10
14.4004347149
 20
-19.15
 11
8.3495652851
 21
-19.15
  0
LINE
  5
286
100
AcDbEntity
  8
DRAFT
100
AcDbLine
 62
7
  6
CONTINUOUS
 10
-3.8057889216
 20
-20.6435196952
 11
-3.7419648205
 21
-20.671935187
  0
LINE
  5
287
100
AcDbEntity
  8
DRAFT
100
AcDbLine
 62
7
  6
CONTINUOUS
 10
-4.3567936515
 20
-21.1374937549
 11
-4.3040907085
 21
-21.1650925288
  0
LINE
  5
288
100
AcDbEntity
  8
DRAFT
100
AcDbLine
 62
7
  6
CONTINUOUS
 10
-4.478374015
 20
-20.0
 11
-4.4126983669
 21
-20.0349074712
  0
LINE
  5
289
100
AcDbEntity
  8
RACCORDO
100
AcDbLine
 62
7
  6
CONTINUOUS
 10
-8.0577802714
 20
-20.0672197286
 11
-8.125
 21
-20.0
  0
LINE
  5
28A
100
AcDbEntity
  8
DRAFT
100
AcDbLine
 62
7
  6
CONTINUOUS
 10
-18.4442110784
 20
20.6435196952
 11
-18.4382149198
 21
20.3
  0
LINE
  5
28B
100
AcDbEntity
  8
DRAFT
100
AcDbLine
 62
7
  6
CONTINUOUS
 10
-18.5080351795
 20
-20.671935187
 11
-18.5080351795
 21
-20.0349074712
  0
LINE
  5
28C
100
AcDbEntity
  8
DRAFT
100
AcDbLine
 62
7
  6
CONTINUOUS
 10
-18.5080351795
 20
20.0349074712
 11
-18.5080351795
 21
20.671935187
  0
LINE
  5
28D
100
AcDbEntity
  8
DRAFT
100
AcDbLine
 62
7
  6
CONTINUOUS
 10
-18.4382149198
 20
-20.3
 11
-18.4382149198
 21
-20.0698149423
  0
LINE
  5
28E
100
AcDbEntity
  8
DRAFT
100
AcDbLine
 62
7
  6
CONTINUOUS
 10
-18.4382149198
 20
20.0698149423
 11
-18.4382149198
 21
20.3
  0
LINE
  5
28F
100
AcDbEntity
  8
DRAFT
100
AcDbLine
 62
7
  6
CONTINUOUS
 10
-18.4442110784
 20
-20.6435196952
 11
-18.4382149198
 21
-20.3
  0
LINE
  5
290
100
AcDbEntity
  8
0
100
AcDbLine
 62
7
  6
CONTINUOUS
 10
1.625
 20
-18.4439596788
 11
2.5516887273
 21
-18.4439596788
  0
LINE
  5
291
100
AcDbEntity
  8
0
100
AcDbLine
 62
7
  6
CONTINUOUS
 10
20.1983112727
 20
-18.4439596788
 11
21.125
 21
-18.4439596788
  0
LINE
  5
292
100
AcDbEntity
  8
0
100
AcDbLine
 62
7
  6
CONTINUOUS
 10
21.1057994286
 20
-18.25
 11
20.1791107013
 21
-18.25
  0
LINE
  5
293
100
AcDbEntity
  8
0
100
AcDbLine
 62
7
  6
CONTINUOUS
 10
2.5708892987
 20
-18.25
 11
1.6442005714
 21
-18.25
  0
LINE
  5
294
100
AcDbEntity
  8
0
100
AcDbLine
 62
7
  6
CONTINUOUS
 10
21.3756158332
 20
-18.0
 11
20.725
 21
-18.0
  0
LINE
  5
295
100
AcDbEntity
  8
0
100
AcDbLine
 62
7
  6
CONTINUOUS
 10
2.025
 20
-18.0
 11
1.3743841668
 21
-18.0
  0
LINE
  5
296
100
AcDbEntity
  8
0
100
AcDbLine
 62
7
  6
CONTINUOUS
 10
13.475
 20
-17.8
 11
9.275
 21
-17.8
  0
LWPOLYLINE
  5
297
100
AcDbEntity
  8
RACCORDO
100
AcDbPolyline
 62
250
  6
CONTINUOUS
 90
13
 70
0
 10
-14.1910713079
 20
-19.6621652449
 10
-14.193744652
 20
-19.6254383745
 10
-14.2014858274
 20
-19.5893375031
 10
-14.2141628923
 20
-19.554477983
 10
-14.2315597697
 20
-19.5214540105
 10
-14.2533799322
 20
-19.4908284932
 10
-14.2792514584
 20
-19.4631234553
 10
-14.3087333703
 20
-19.4388111444
 10
-14.3413231404
 20
-19.4183059859
 10
-14.3764652591
 20
-19.4019575115
 10
-14.4135607129
 20
-19.3900443958
 10
-14.4519771971
 20
-19.3827697089
 10
-14.4910598849
 20
-19.3802574587
  0
LINE
  5
298
100
AcDbEntity
  8
RACCORDO
100
AcDbLine
 62
250
  6
CONTINUOUS
 10
-14.7589401151
 20
-19.3802574587
 11
-14.8258840059
 21
-16.5882381259
  0
LINE
  5
299
100
AcDbEntity
  8
RACCORDO
100
AcDbLine
 62
250
  6
CONTINUOUS
 10
-15.0588253313
 20
-19.6668029005
 11
-15.125
 21
-16.9065385979
  0
LINE
  5
29A
100
AcDbEntity
  8
RACCORDO
100
AcDbLine
 62
250
  6
CONTINUOUS
 10
-15.0586235895
 20
-19.678886964
 11
-15.0588253313
 21
-19.6668029005
  0
LINE
  5
29B
100
AcDbEntity
  8
RACCORDO
100
AcDbLine
 62
250
  6
CONTINUOUS
 10
-15.0583334262
 20
-19.7040349405
 11
-15.0586235895
 21
-19.678886964
  0
LINE
  5
29C
100
AcDbEntity
  8
RACCORDO
100
AcDbLine
 62
250
  6
CONTINUOUS
 10
-15.0579619177
 20
-19.7613645642
 11
-15.0583334262
 21
-19.7040349405
  0
LINE
  5
29D
100
AcDbEntity
  8
RACCORDO
100
AcDbLine
 62
250
  6
CONTINUOUS
 10
-14.7584375929
 20
-19.4617809412
 11
-14.7589401151
 21
-19.3802574587
  0
LINE
  5
29E
100
AcDbEntity
  8
RACCORDO
100
AcDbLine
 62
250
  6
CONTINUOUS
 10
-14.7582572025
 20
-19.5103034779
 11
-14.7584375929
 21
-19.4617809412
  0
LINE
  5
29F
100
AcDbEntity
  8
RACCORDO
100
AcDbLine
 62
250
  6
CONTINUOUS
 10
-15.0577802714
 20
-19.8501037691
 11
-15.0579619177
 21
-19.7613645642
  0
LINE
  5
2A0
100
AcDbEntity
  8
RACCORDO
100
AcDbLine
 62
7
  6
CONTINUOUS
 10
-15.125
 20
20.0
 11
-15.125
 21
16.9065385979
  0
LINE
  5
2A1
100
AcDbEntity
  8
RACCORDO
100
AcDbLine
 62
7
  6
CONTINUOUS
 10
-15.125
 20
-16.9065385979
 11
-15.125
 21
-20.0
  0
LINE
  5
2A2
100
AcDbEntity
  8
RACCORDO
100
AcDbLine
 62
7
  6
CONTINUOUS
 10
-15.0577802714
 20
-20.0672197286
 11
-15.0577802714
 21
-19.8501037691
  0
LINE
  5
2A3
100
AcDbEntity
  8
RACCORDO
100
AcDbLine
 62
7
  6
CONTINUOUS
 10
-15.0577802714
 20
19.8501037691
 11
-15.0577802714
 21
20.0672197286
  0
LINE
  5
2A4
100
AcDbEntity
  8
RACCORDO
100
AcDbLine
 62
250
  6
CONTINUOUS
 10
-15.0579731001
 20
19.7588240983
 11
-15.0577802714
 21
19.8501037691
  0
LINE
  5
2A5
100
AcDbEntity
  8
RACCORDO
100
AcDbLine
 62
250
  6
CONTINUOUS
 10
-15.0583506324
 20
19.7022148453
 11
-15.0579731001
 21
19.7588240983
  0
LWPOLYLINE
  5
2A6
100
AcDbEntity
  8
RACCORDO
100
AcDbPolyline
 62
250
  6
CONTINUOUS
 90
3
 70
0
 10
-14.7589401151
 20
19.3802574587
 10
-14.7588418465
 20
19.3913319166
 10
-14.7582746258
 20
19.5049297437
  0
LINE
  5
2A7
100
AcDbEntity
  8
RACCORDO
100
AcDbLine
 62
250
  6
CONTINUOUS
 10
-15.0586361082
 20
19.678027854
 11
-15.0583506324
 21
19.7022148453
  0
LINE
  5
2A8
100
AcDbEntity
  8
RACCORDO
100
AcDbLine
 62
250
  6
CONTINUOUS
 10
-15.0588303743
 20
19.6665278499
 11
-15.0586361082
 21
19.678027854
  0
LINE
  5
2A9
100
AcDbEntity
  8
RACCORDO
100
AcDbLine
 62
250
  6
CONTINUOUS
 10
-15.125
 20
16.9065385979
 11
-15.0588303743
 21
19.6665278499
  0
LINE
  5
2AA
100
AcDbEntity
  8
RACCORDO
100
AcDbLine
 62
250
  6
CONTINUOUS
 10
-14.8258840059
 20
16.5882381259
 11
-14.7589401151
 21
19.3802574587
  0
LWPOLYLINE
  5
2AB
100
AcDbEntity
  8
RACCORDO
100
AcDbPolyline
 62
250
  6
CONTINUOUS
 90
13
 70
0
 10
-14.1910713079
 20
19.6621652449
 10
-14.1937446698
 20
19.6254382492
 10
-14.2014858912
 20
19.5893372802
 10
-14.2141630198
 20
19.5544776936
 10
-14.2315599688
 20
19.5214536854
 10
-14.2533802001
 20
19.4908281633
 10
-14.279251779
 20
19.4631231519
 10
-14.3087337137
 20
19.4388108945
 10
-14.3413234725
 20
19.4183058033
 10
-14.3764655499
 20
19.4019573962
 10
-14.4135609346
 20
19.3900443384
 10
-14.4519773206
 20
19.3827696928
 10
-14.4910598849
 20
19.3802574587
  0
LINE
  5
2AC
100
AcDbEntity
  8
0
100
AcDbLine
 62
7
  6
CONTINUOUS
 10
-14.289157
 20
10.151155
 11
-13.880163
 21
11.425037
  0
LINE
  5
2AD
100
AcDbEntity
  8
0
100
AcDbLine
 62
7
  6
CONTINUOUS
 10
-13.510145
 20
11.425037
 11
-14.104148
 21
9.574954
  0
LINE
  5
2AE
100
AcDbEntity
  8
RACCORDO
100
AcDbLine
 62
250
  6
CONTINUOUS
 10
-0.025
 20
16.0215754898
 11
-0.0948202597
 21
15.9973709177
  0
LINE
  5
2AF
100
AcDbEntity
  8
DRAFT
100
AcDbLine
 62
7
  6
CONTINUOUS
 10
-1.1367954839
 20
16.408165363
 11
-1.0669752242
 21
16.4319772848
  0
LINE
  5
2B0
100
AcDbEntity
  8
RACCORDO
100
AcDbLine
 62
250
  6
CONTINUOUS
 10
-0.4535011149
 20
17.2585598075
 11
-0.5244796219
 21
17.2358250044
  0
LINE
  5
2B1
100
AcDbEntity
  8
RACCORDO
100
AcDbLine
 62
7
  6
CONTINUOUS
 10
-7.8258840059
 20
-16.5882381259
 11
-7.4241159941
 21
-16.5882381259
  0
LINE
  5
2B2
100
AcDbEntity
  8
RACCORDO
100
AcDbLine
 62
7
  6
CONTINUOUS
 10
-14.4241159941
 20
-16.5882381259
 11
-14.8258840059
 21
-16.5882381259
  0
LINE
  5
2B3
100
AcDbEntity
  8
0
100
AcDbLine
 62
7
  6
CONTINUOUS
 10
10.4850321949
 20
-16.2
 11
12.2660956311
 21
-16.2
  0
LINE
  5
2B4
100
AcDbEntity
  8
0
100
AcDbLine
 62
7
  6
CONTINUOUS
 10
21.3756158332
 20
-16.0
 11
20.725
 21
-16.0
  0
LINE
  5
2B5
100
AcDbEntity
  8
0
100
AcDbLine
 62
7
  6
CONTINUOUS
 10
2.025
 20
-16.0
 11
1.3743841668
 21
-16.0
  0
LINE
  5
2B6
100
AcDbEntity
  8
0
100
AcDbLine
 62
7
  6
CONTINUOUS
 10
1.6442005714
 20
-15.75
 11
2.5708892987
 21
-15.75
  0
LINE
  5
2B7
100
AcDbEntity
  8
0
100
AcDbLine
 62
7
  6
CONTINUOUS
 10
20.1791107013
 20
-15.75
 11
21.1057994286
 21
-15.75
  0
LINE
  5
2B8
100
AcDbEntity
  8
0
100
AcDbLine
 62
7
  6
CONTINUOUS
 10
1.625
 20
-15.5560403212
 11
2.5516887273
 21
-15.5560403212
  0
LINE
  5
2B9
100
AcDbEntity
  8
0
100
AcDbLine
 62
7
  6
CONTINUOUS
 10
20.1983112727
 20
-15.5560403212
 11
21.125
 21
-15.5560403212
  0
LINE
  5
2BA
100
AcDbEntity
  8
0
100
AcDbLine
 62
7
  6
CONTINUOUS
 10
14.075
 20
-20.35
 11
16.1168986193
 21
-20.8971250861
  0
LINE
  5
2BB
100
AcDbEntity
  8
0
100
AcDbLine
 62
7
  6
CONTINUOUS
 10
16.122874977
 20
-20.8517301425
 11
14.0809763577
 21
-20.3046050564
  0
LINE
  5
2BC
100
AcDbEntity
  8
0
100
AcDbLine
 62
250
  6
CONTINUOUS
 10
16.1492044739
 20
-20.6517377579
 11
14.1198883672
 21
-20.1079841459
  0
LINE
  5
2BD
100
AcDbEntity
  8
0
100
AcDbLine
 62
7
  6
CONTINUOUS
 10
15.5830430101
 20
-20.4389072728
 11
14.2768252275
 21
-20.0889072728
  0
LINE
  5
2BE
100
AcDbEntity
  8
RACCORDO
100
AcDbLine
 62
250
  6
CONTINUOUS
 10
-0.5244796219
 20
-17.2358250044
 11
-0.4535011149
 21
-17.2585598076
  0
LINE
  5
2BF
100
AcDbEntity
  8
DRAFT
100
AcDbLine
 62
7
  6
CONTINUOUS
 10
-1.1367954839
 20
-16.408165363
 11
-1.0669752242
 21
-16.4319772848
  0
LINE
  5
2C0
100
AcDbEntity
  8
RACCORDO
100
AcDbLine
 62
250
  6
CONTINUOUS
 10
-0.0948202597
 20
-15.9973709177
 11
-0.025
 21
-16.0215754898
  0
LWPOLYLINE
  5
2C1
100
AcDbEntity
  8
RACCORDO
100
AcDbPolyline
 62
250
  6
CONTINUOUS
 90
13
 70
0
 10
-15.0589286921
 20
19.6621652449
 10
-15.0562553303
 20
19.6254382497
 10
-15.0485141091
 20
19.589337281
 10
-15.0358369807
 20
19.5544776947
 10
-15.0184400319
 20
19.5214536866
 10
-14.9966198009
 20
19.4908281645
 10
-14.9707482223
 20
19.463123153
 10
-14.9412662877
 20
19.4388108954
 10
-14.9086765287
 20
19.418305804
 10
-14.8735344512
 20
19.4019573966
 10
-14.8364390663
 20
19.3900443386
 10
-14.7980226799
 20
19.3827696928
 10
-14.7589401151
 20
19.3802574587
  0
LINE
  5
2C2
100
AcDbEntity
  8
RACCORDO
100
AcDbLine
 62
7
  6
CONTINUOUS
 10
-13.694142774
 20
4.5705002888
 11
-13.6424162707
 21
3.7764571353
  0
LINE
  5
2C3
100
AcDbEntity
  8
DRAFT
100
AcDbLine
 62
7
  6
CONTINUOUS
 10
-13.694142774
 20
4.5705002888
 11
-13.7214193998
 21
4.9892182871
  0
LINE
  5
2C4
100
AcDbEntity
  8
RACCORDO
100
AcDbLine
 62
250
  6
CONTINUOUS
 10
-14.4910598849
 20
19.3802574587
 11
-14.4241159941
 21
16.5882381259
  0
LINE
  5
2C5
100
AcDbEntity
  8
RACCORDO
100
AcDbLine
 62
250
  6
CONTINUOUS
 10
-14.1911700053
 20
19.6665484372
 11
-14.125
 21
16.9065385979
  0
LINE
  5
2C6
100
AcDbEntity
  8
RACCORDO
100
AcDbLine
 62
250
  6
CONTINUOUS
 10
-14.1913648315
 20
19.678091689
 11
-14.1911700053
 21
19.6665484372
  0
LINE
  5
2C7
100
AcDbEntity
  8
RACCORDO
100
AcDbLine
 62
250
  6
CONTINUOUS
 10
-14.1916506493
 20
19.7023487345
 11
-14.1913648315
 21
19.678091689
  0
LINE
  5
2C8
100
AcDbEntity
  8
RACCORDO
100
AcDbLine
 62
250
  6
CONTINUOUS
 10
-14.192027728
 20
19.7590098183
 11
-14.1916506493
 21
19.7023487345
  0
LINE
  5
2C9
100
AcDbEntity
  8
RACCORDO
100
AcDbLine
 62
250
  6
CONTINUOUS
 10
-14.4915469838
 20
19.4581810583
 11
-14.4910598849
 21
19.3802574587
  0
LINE
  5
2CA
100
AcDbEntity
  8
DRAFT
100
AcDbLine
 62
7
  6
CONTINUOUS
 10
-13.7107264449
 20
-0.0
 11
-13.7214193998
 21
4.9892182871
  0
LINE
  5
2CB
100
AcDbEntity
  8
RACCORDO
100
AcDbLine
 62
250
  6
CONTINUOUS
 10
-14.1922197286
 20
19.8501037691
 11
-14.192027728
 21
19.7590098183
  0
LINE
  5
2CC
100
AcDbEntity
  8
RACCORDO
100
AcDbLine
 62
250
  6
CONTINUOUS
 10
-14.7577916945
 20
-19.8501037691
 11
-14.7582572025
 21
-19.5103034779
  0
LINE
  5
2CD
100
AcDbEntity
  8
RACCORDO
100
AcDbLine
 62
250
  6
CONTINUOUS
 10
-14.7577916945
 20
-20.0698149423
 11
-14.7577916945
 21
-19.8501037691
  0
LINE
  5
2CE
100
AcDbEntity
  8
RACCORDO
100
AcDbLine
 62
250
  6
CONTINUOUS
 10
-14.4922083055
 20
20.0698149423
 11
-14.4922083055
 21
19.8501037691
  0
LINE
  5
2CF
100
AcDbEntity
  8
RACCORDO
100
AcDbLine
 62
250
  6
CONTINUOUS
 10
-14.4922083055
 20
19.8501037691
 11
-14.4915469838
 21
19.4581810583
  0
LINE
  5
2D0
100
AcDbEntity
  8
DRAFT
100
AcDbLine
 62
7
  6
CONTINUOUS
 10
-14.2529281039
 20
23.4301797403
 11
-14.2529281039
 21
21.1650925288
  0
LINE
  5
2D1
100
AcDbEntity
  8
DRAFT
100
AcDbLine
 62
7
  6
CONTINUOUS
 10
-14.2529281039
 20
-23.4301797403
 11
-14.2529281039
 21
-21.1650925288
  0
LINE
  5
2D2
100
AcDbEntity
  8
DRAFT
100
AcDbLine
 62
7
  6
CONTINUOUS
 10
-14.225
 20
-21.1511295404
 11
-14.225
 21
-22.2
  0
LINE
  5
2D3
100
AcDbEntity
  8
DRAFT
100
AcDbLine
 62
7
  6
CONTINUOUS
 10
-14.225
 20
21.1511295404
 11
-14.225
 21
22.2
  0
LINE
  5
2D4
100
AcDbEntity
  8
RACCORDO
100
AcDbLine
 62
7
  6
CONTINUOUS
 10
-14.1922197286
 20
20.0672197286
 11
-14.1922197286
 21
19.8501037691
  0
LINE
  5
2D5
100
AcDbEntity
  8
RACCORDO
100
AcDbLine
 62
7
  6
CONTINUOUS
 10
-14.1922197286
 20
-19.8501037691
 11
-14.1922197286
 21
-20.0672197286
  0
LINE
  5
2D6
100
AcDbEntity
  8
RACCORDO
100
AcDbLine
 62
7
  6
CONTINUOUS
 10
-14.125
 20
20.0
 11
-14.125
 21
16.9065385979
  0
LINE
  5
2D7
100
AcDbEntity
  8
RACCORDO
100
AcDbLine
 62
7
  6
CONTINUOUS
 10
-14.125
 20
-16.9065385979
 11
-14.125
 21
-20.0
  0
LINE
  5
2D8
100
AcDbEntity
  8
RACCORDO
100
AcDbLine
 62
7
  6
CONTINUOUS
 10
-13.625
 20
3.35362032
 11
-13.625
 21
1.65
  0
LINE
  5
2D9
100
AcDbEntity
  8
RACCORDO
100
AcDbLine
 62
7
  6
CONTINUOUS
 10
-13.625
 20
-1.65
 11
-13.625
 21
-3.35362032
  0
LINE
  5
2DA
100
AcDbEntity
  8
0
100
AcDbLine
 62
7
  6
CONTINUOUS
 10
-13.263475
 20
9.574949
 11
-13.263471
 21
11.425037
  0
LINE
  5
2DB
100
AcDbEntity
  8
0
100
AcDbLine
 62
7
  6
CONTINUOUS
 10
-12.893457
 20
11.425037
 11
-12.893461
 21
9.574954
  0
LINE
  5
2DC
100
AcDbEntity
  8
DRAFT
100
AcDbLine
 62
7
  6
CONTINUOUS
 10
-13.7107264449
 20
-0.0
 11
-13.7214193998
 21
-4.9892182871
  0
LINE
  5
2DD
100
AcDbEntity
  8
RACCORDO
100
AcDbLine
 62
250
  6
CONTINUOUS
 10
-14.7582746258
 20
19.5049297437
 11
-14.7577916945
 21
20.0698149423
  0
LINE
  5
2DE
100
AcDbEntity
  8
RACCORDO
100
AcDbLine
 62
250
  6
CONTINUOUS
 10
-14.4915612335
 20
-19.4615072474
 11
-14.4922083055
 21
-20.0698149423
  0
LINE
  5
2DF
100
AcDbEntity
  8
RACCORDO
100
AcDbLine
 62
250
  6
CONTINUOUS
 10
-14.1920372725
 20
-19.761176738
 11
-14.1922197286
 21
-19.8501037691
  0
LINE
  5
2E0
100
AcDbEntity
  8
RACCORDO
100
AcDbLine
 62
250
  6
CONTINUOUS
 10
-14.1916653436
 20
-19.7039032582
 11
-14.1920372725
 21
-19.761176738
  0
LINE
  5
2E1
100
AcDbEntity
  8
RACCORDO
100
AcDbLine
 62
250
  6
CONTINUOUS
 10
-14.4910598849
 20
-19.3802574587
 11
-14.4915612335
 21
-19.4615072474
  0
LINE
  5
2E2
100
AcDbEntity
  8
RACCORDO
100
AcDbLine
 62
250
  6
CONTINUOUS
 10
-14.1913755197
 20
-19.6788254091
 11
-14.1916653436
 21
-19.7039032582
  0
LINE
  5
2E3
100
AcDbEntity
  8
RACCORDO
100
AcDbLine
 62
250
  6
CONTINUOUS
 10
-14.1911743105
 20
-19.6667833347
 11
-14.1913755197
 21
-19.6788254091
  0
LINE
  5
2E4
100
AcDbEntity
  8
RACCORDO
100
AcDbLine
 62
250
  6
CONTINUOUS
 10
-14.4241159941
 20
-16.5882381259
 11
-14.4910598849
 21
-19.3802574587
  0
LINE
  5
2E5
100
AcDbEntity
  8
RACCORDO
100
AcDbLine
 62
250
  6
CONTINUOUS
 10
-14.125
 20
-16.9065385979
 11
-14.1911743105
 21
-19.6667833347
  0
LINE
  5
2E6
100
AcDbEntity
  8
RACCORDO
100
AcDbLine
 62
7
  6
CONTINUOUS
 10
-13.6424162707
 20
-3.7764571353
 11
-13.694142774
 21
-4.5705002888
  0
LINE
  5
2E7
100
AcDbEntity
  8
DRAFT
100
AcDbLine
 62
7
  6
CONTINUOUS
 10
-13.7214193998
 20
-4.9892182871
 11
-13.694142774
 21
-4.5705002888
  0
LWPOLYLINE
  5
2E8
100
AcDbEntity
  8
RACCORDO
100
AcDbPolyline
 62
250
  6
CONTINUOUS
 90
13
 70
0
 10
-15.0589286921
 20
-19.6621652449
 10
-15.0562553302
 20
-19.6254382492
 10
-15.0485141088
 20
-19.5893372802
 10
-15.0358369802
 20
-19.5544776936
 10
-15.0184400312
 20
-19.5214536854
 10
-14.9966197999
 20
-19.4908281633
 10
-14.970748221
 20
-19.4631231519
 10
-14.9412662864
 20
-19.4388108945
 10
-14.9086765275
 20
-19.4183058033
 10
-14.8735344501
 20
-19.4019573962
 10
-14.8364390655
 20
-19.3900443384
 10
-14.7980226794
 20
-19.3827696928
 10
-14.7589401151
 20
-19.3802574587
  0
LINE
  5
2E9
100
AcDbEntity
  8
0
100
AcDbLine
 62
7
  6
CONTINUOUS
 10
-11.618612
 20
10.220197
 11
-11.27313
 21
11.425037
  0
LINE
  5
2EA
100
AcDbEntity
  8
0
100
AcDbLine
 62
7
  6
CONTINUOUS
 10
-11.083787
 20
10.794959
 11
-11.433612
 21
9.574958
  0
LINE
  5
2EB
100
AcDbEntity
  8
DRAFT
100
AcDbLine
 62
7
  6
CONTINUOUS
 10
-7.3568249539
 20
23.4301797403
 11
-7.3363830423
 21
23.5
  0
LINE
  5
2EC
100
AcDbEntity
  8
0
100
AcDbLine
 62
7
  6
CONTINUOUS
 10
-10.467094
 20
9.574954
 11
-9.8731
 21
11.425042
  0
LINE
  5
2ED
100
AcDbEntity
  8
0
100
AcDbLine
 62
250
  6
CONTINUOUS
 10
0.4756234486
 20
20.9006158332
 11
0.4313506304
 21
20.856343015
  0
LINE
  5
2EE
100
AcDbEntity
  8
0
100
AcDbLine
 62
250
  6
CONTINUOUS
 10
0.6756158332
 20
20.7006234486
 11
0.6313332112
 21
20.6563408266
  0
LINE
  5
2EF
100
AcDbEntity
  8
RACCORDO
100
AcDbLine
 62
250
  6
CONTINUOUS
 10
-1.1367954839
 20
-14.7
 11
-21.1132045161
 21
-14.7
  0
LINE
  5
2F0
100
AcDbEntity
  8
RACCORDO
100
AcDbLine
 62
7
  6
CONTINUOUS
 10
-1.1402864969
 20
-14.5
 11
-21.1097135031
 21
-14.5
  0
LINE
  5
2F1
100
AcDbEntity
  8
0
100
AcDbLine
 62
250
  6
CONTINUOUS
 10
21.125
 20
-12.8795116193
 11
20.1983112727
 21
-12.8795116193
  0
LINE
  5
2F2
100
AcDbEntity
  8
0
100
AcDbLine
 62
250
  6
CONTINUOUS
 10
2.5516887273
 20
-12.8795116193
 11
1.625
 21
-12.8795116193
  0
LINE
  5
2F3
100
AcDbEntity
  8
0
100
AcDbLine
 62
7
  6
CONTINUOUS
 10
15.7050438956
 20
-19.5122185454
 11
14.3988261129
 21
-19.1622185454
  0
LINE
  5
2F4
100
AcDbEntity
  8
0
100
AcDbLine
 62
250
  6
CONTINUOUS
 10
0.4313506304
 20
-20.856343015
 11
0.4756234486
 21
-20.9006158332
  0
LINE
  5
2F5
100
AcDbEntity
  8
0
100
AcDbLine
 62
250
  6
CONTINUOUS
 10
0.6313450104
 20
-20.6563526258
 11
0.6756158332
 21
-20.7006234486
  0
LINE
  5
2F6
100
AcDbEntity
  8
DRAFT
100
AcDbLine
 62
7
  6
CONTINUOUS
 10
-7.3568249539
 20
-23.4301797403
 11
-7.3363830423
 21
-23.5
  0
LINE
  5
2F7
100
AcDbEntity
  8
DRAFT
100
AcDbLine
 62
7
  6
CONTINUOUS
 10
-10.6303494774
 20
-3.5975629308
 11
-10.6709105079
 21
-2.7260851936
  0
LINE
  5
2F8
100
AcDbEntity
  8
DRAFT
100
AcDbLine
 62
7
  6
CONTINUOUS
 10
-10.670127273
 20
1.5839555569
 11
-10.6729111304
 21
1.8516270492
  0
LINE
  5
2F9
100
AcDbEntity
  8
0
100
AcDbLine
 62
7
  6
CONTINUOUS
 10
-12.523457
 20
9.574954
 11
-12.523457
 21
11.425037
  0
LINE
  5
2FA
100
AcDbEntity
  8
DRAFT
100
AcDbLine
 62
7
  6
CONTINUOUS
 10
-12.425
 20
-2.4860359481
 11
-12.425
 21
-1.8516270492
  0
LINE
  5
2FB
100
AcDbEntity
  8
0
100
AcDbLine
 62
7
  6
CONTINUOUS
 10
-12.425
 20
-1.8516270492
 11
-12.425
 21
-1.3500353409
  0
LINE
  5
2FC
100
AcDbEntity
  8
0
100
AcDbLine
 62
7
  6
CONTINUOUS
 10
-12.425
 20
1.3500353409
 11
-12.425
 21
1.8516270492
  0
LINE
  5
2FD
100
AcDbEntity
  8
DRAFT
100
AcDbLine
 62
7
  6
CONTINUOUS
 10
-12.425
 20
1.8516270492
 11
-12.425
 21
2.4860359481
  0
LINE
  5
2FE
100
AcDbEntity
  8
0
100
AcDbLine
 62
7
  6
CONTINUOUS
 10
-12.153443
 20
10.794959
 11
-12.153443
 21
9.574954
  0
LINE
  5
2FF
100
AcDbEntity
  8
DRAFT
100
AcDbLine
 62
7
  6
CONTINUOUS
 10
-11.625
 20
-2.7260851936
 11
-11.625
 21
-2.5
  0
LINE
  5
300
100
AcDbEntity
  8
RACCORDO
100
AcDbLine
 62
7
  6
CONTINUOUS
 10
-11.625
 20
-3.5975629308
 11
-11.625
 21
-2.7260851936
  0
LINE
  5
301
100
AcDbEntity
  8
DRAFT
100
AcDbLine
 62
7
  6
CONTINUOUS
 10
-11.625
 20
2.5
 11
-11.625
 21
2.7260851936
  0
LINE
  5
302
100
AcDbEntity
  8
RACCORDO
100
AcDbLine
 62
7
  6
CONTINUOUS
 10
-11.625
 20
2.7260851936
 11
-11.625
 21
3.5975629308
  0
LINE
  5
303
100
AcDbEntity
  8
0
100
AcDbLine
 62
7
  6
CONTINUOUS
 10
-11.083782
 20
9.574954
 11
-11.083787
 21
10.794959
  0
LINE
  5
304
100
AcDbEntity
  8
0
100
AcDbLine
 62
7
  6
CONTINUOUS
 10
-10.713768
 20
11.425037
 11
-10.713768
 21
9.574954
  0
LINE
  5
305
100
AcDbEntity
  8
DRAFT
100
AcDbLine
 62
7
  6
CONTINUOUS
 10
-10.6729111304
 20
-1.8516270492
 11
-10.670127273
 21
-1.5839555569
  0
LINE
  5
306
100
AcDbEntity
  8
DRAFT
100
AcDbLine
 62
7
  6
CONTINUOUS
 10
-10.6709105079
 20
2.7260851936
 11
-10.6303494774
 21
3.5975629308
  0
LINE
  5
307
100
AcDbEntity
  8
DRAFT
100
AcDbLine
 62
7
  6
CONTINUOUS
 10
-8.3005120085
 20
21.1374937549
 11
-8.1131634904
 21
22.2
  0
LINE
  5
308
100
AcDbEntity
  8
0
100
AcDbLine
 62
7
  6
CONTINUOUS
 10
-9.980266
 20
9.938789
 11
-10.09708
 21
9.574958
  0
LINE
  5
309
100
AcDbEntity
  8
0
100
AcDbLine
 62
7
  6
CONTINUOUS
 10
-9.688086
 20
10.848836
 11
-9.867402
 21
10.290302
  0
LINE
  5
30A
100
AcDbEntity
  8
0
100
AcDbLine
 62
250
  6
CONTINUOUS
 10
21.116577054
 20
-12.3798162058
 11
20.1898883267
 21
-12.3798162058
  0
LINE
  5
30B
100
AcDbEntity
  8
0
100
AcDbLine
 62
250
  6
CONTINUOUS
 10
2.5601116733
 20
-12.3798162058
 11
1.633422946
 21
-12.3798162058
  0
LINE
  5
30C
100
AcDbEntity
  8
0
100
AcDbLine
 62
7
  6
CONTINUOUS
 10
1.6983112727
 20
-12.25
 11
2.625
 21
-12.25
  0
LINE
  5
30D
100
AcDbEntity
  8
0
100
AcDbLine
 62
7
  6
CONTINUOUS
 10
20.125
 20
-12.25
 11
21.0516887273
 21
-12.25
  0
LINE
  5
30E
100
AcDbEntity
  8
0
100
AcDbLine
 62
7
  6
CONTINUOUS
 10
-14.474175
 20
9.574949
 11
-15.068173
 21
11.425037
  0
LINE
  5
30F
100
AcDbEntity
  8
DRAFT
100
AcDbLine
 62
7
  6
CONTINUOUS
 10
-8.3005120085
 20
-21.1374937549
 11
-8.1131634904
 21
-22.2
  0
LWPOLYLINE
  5
310
100
AcDbEntity
  8
RACCORDO
100
AcDbPolyline
 62
250
  6
CONTINUOUS
 90
13
 70
0
 10
-7.1910713079
 20
-19.6621652449
 10
-7.193744652
 20
-19.6254383745
 10
-7.2014858274
 20
-19.5893375031
 10
-7.2141628923
 20
-19.554477983
 10
-7.2315597697
 20
-19.5214540105
 10
-7.2533799322
 20
-19.4908284932
 10
-7.2792514584
 20
-19.4631234553
 10
-7.3087333703
 20
-19.4388111444
 10
-7.3413231404
 20
-19.4183059859
 10
-7.3764652591
 20
-19.4019575115
 10
-7.4135607129
 20
-19.3900443958
 10
-7.4519771971
 20
-19.3827697089
 10
-7.4910598849
 20
-19.3802574587
  0
LINE
  5
311
100
AcDbEntity
  8
RACCORDO
100
AcDbLine
 62
7
  6
CONTINUOUS
 10
-8.6075837293
 20
-3.7764571353
 11
-8.555857226
 21
-4.5705002888
  0
LINE
  5
312
100
AcDbEntity
  8
DRAFT
100
AcDbLine
 62
7
  6
CONTINUOUS
 10
-8.5285806002
 20
-4.9892182871
 11
-8.555857226
 21
-4.5705002888
  0
LINE
  5
313
100
AcDbEntity
  8
RACCORDO
100
AcDbLine
 62
250
  6
CONTINUOUS
 10
-8.0588253313
 20
-19.6668029005
 11
-8.125
 21
-16.9065385979
  0
LINE
  5
314
100
AcDbEntity
  8
RACCORDO
100
AcDbLine
 62
250
  6
CONTINUOUS
 10
-8.0586235895
 20
-19.678886964
 11
-8.0588253313
 21
-19.6668029005
  0
LINE
  5
315
100
AcDbEntity
  8
DRAFT
100
AcDbLine
 62
7
  6
CONTINUOUS
 10
-8.5392735551
 20
-0.0
 11
-8.5285806002
 21
-4.9892182871
  0
LINE
  5
316
100
AcDbEntity
  8
0
100
AcDbLine
 62
7
  6
CONTINUOUS
 10
-8.662391
 20
9.574958
 11
-8.662391
 21
11.425042
  0
LINE
  5
317
100
AcDbEntity
  8
RACCORDO
100
AcDbLine
 62
7
  6
CONTINUOUS
 10
-8.625
 20
3.35362032
 11
-8.625
 21
1.65
  0
LINE
  5
318
100
AcDbEntity
  8
RACCORDO
100
AcDbLine
 62
7
  6
CONTINUOUS
 10
-8.625
 20
-1.65
 11
-8.625
 21
-3.35362032
  0
LINE
  5
319
100
AcDbEntity
  8
DRAFT
100
AcDbLine
 62
7
  6
CONTINUOUS
 10
-8.5392735551
 20
-0.0
 11
-8.5285806002
 21
4.9892182871
  0
LINE
  5
31A
100
AcDbEntity
  8
RACCORDO
100
AcDbLine
 62
250
  6
CONTINUOUS
 10
-8.0588303743
 20
19.6665278499
 11
-8.0586361082
 21
19.678027854
  0
LINE
  5
31B
100
AcDbEntity
  8
RACCORDO
100
AcDbLine
 62
250
  6
CONTINUOUS
 10
-8.125
 20
16.9065385979
 11
-8.0588303743
 21
19.6665278499
  0
LINE
  5
31C
100
AcDbEntity
  8
RACCORDO
100
AcDbLine
 62
7
  6
CONTINUOUS
 10
-8.555857226
 20
4.5705002888
 11
-8.6075837293
 21
3.7764571353
  0
LINE
  5
31D
100
AcDbEntity
  8
DRAFT
100
AcDbLine
 62
7
  6
CONTINUOUS
 10
-8.555857226
 20
4.5705002888
 11
-8.5285806002
 21
4.9892182871
  0
LWPOLYLINE
  5
31E
100
AcDbEntity
  8
RACCORDO
100
AcDbPolyline
 62
250
  6
CONTINUOUS
 90
13
 70
0
 10
-7.1910713079
 20
19.6621652449
 10
-7.1937446698
 20
19.6254382492
 10
-7.2014858912
 20
19.5893372802
 10
-7.2141630198
 20
19.5544776936
 10
-7.2315599688
 20
19.5214536854
 10
-7.2533802001
 20
19.4908281633
 10
-7.279251779
 20
19.4631231519
 10
-7.3087337137
 20
19.4388108945
 10
-7.3413234725
 20
19.4183058033
 10
-7.3764655499
 20
19.4019573962
 10
-7.4135609346
 20
19.3900443384
 10
-7.4519773206
 20
19.3827696928
 10
-7.4910598849
 20
19.3802574587
  0
LINE
  5
31F
100
AcDbEntity
  8
DRAFT
100
AcDbLine
 62
7
  6
CONTINUOUS
 10
-13.9494879915
 20
-21.1374937549
 11
-14.1368365096
 21
-22.2
  0
LINE
  5
320
100
AcDbEntity
  8
0
100
AcDbLine
 62
7
  6
CONTINUOUS
 10
9.275
 20
-10.2
 11
13.475
 21
-10.2
  0
LINE
  5
321
100
AcDbEntity
  8
0
100
AcDbLine
 62
7
  6
CONTINUOUS
 10
12.5128180631
 20
-9.35
 11
10.2371819369
 21
-9.35
  0
LINE
  5
322
100
AcDbEntity
  8
0
100
AcDbLine
 62
7
  6
CONTINUOUS
 10
10.8666935562
 20
-9.2033327681
 11
11.8833064438
 21
-9.2033327681
  0
LINE
  5
323
100
AcDbEntity
  8
0
100
AcDbLine
 62
7
  6
CONTINUOUS
 10
-14.698155
 20
11.425037
 11
-14.289157
 21
10.151155
  0
LINE
  5
324
100
AcDbEntity
  8
0
100
AcDbLine
 62
7
  6
CONTINUOUS
 10
-11.803617
 20
9.574954
 11
-12.153443
 21
10.794959
  0
LINE
  5
325
100
AcDbEntity
  8
0
100
AcDbLine
 62
7
  6
CONTINUOUS
 10
-11.964095
 20
11.425037
 11
-11.618612
 21
10.220197
  0
LINE
  5
326
100
AcDbEntity
  8
DRAFT
100
AcDbLine
 62
7
  6
CONTINUOUS
 10
-13.9494879915
 20
21.1374937549
 11
-14.1368365096
 21
22.2
  0
LWPOLYLINE
  5
327
100
AcDbEntity
  8
RACCORDO
100
AcDbPolyline
 62
250
  6
CONTINUOUS
 90
13
 70
0
 10
-8.0589286921
 20
19.6621652449
 10
-8.0562553303
 20
19.6254382497
 10
-8.0485141091
 20
19.589337281
 10
-8.0358369807
 20
19.5544776947
 10
-8.0184400319
 20
19.5214536866
 10
-7.9966198009
 20
19.4908281645
 10
-7.9707482223
 20
19.463123153
 10
-7.9412662877
 20
19.4388108954
 10
-7.9086765287
 20
19.418305804
 10
-7.8735344512
 20
19.4019573966
 10
-7.8364390663
 20
19.3900443386
 10
-7.7980226799
 20
19.3827696928
 10
-7.7589401151
 20
19.3802574587
  0
LINE
  5
328
100
AcDbEntity
  8
RACCORDO
100
AcDbLine
 62
250
  6
CONTINUOUS
 10
-7.7589401151
 20
-19.3802574587
 11
-7.8258840059
 21
-16.5882381259
  0
LINE
  5
329
100
AcDbEntity
  8
RACCORDO
100
AcDbLine
 62
250
  6
CONTINUOUS
 10
-7.4910598849
 20
19.3802574587
 11
-7.4241159941
 21
16.5882381259
  0
LINE
  5
32A
100
AcDbEntity
  8
RACCORDO
100
AcDbLine
 62
250
  6
CONTINUOUS
 10
-7.1911700053
 20
19.6665484372
 11
-7.125
 21
16.9065385979
  0
LINE
  5
32B
100
AcDbEntity
  8
RACCORDO
100
AcDbLine
 62
250
  6
CONTINUOUS
 10
-7.1913648315
 20
19.678091689
 11
-7.1911700053
 21
19.6665484372
  0
LINE
  5
32C
100
AcDbEntity
  8
RACCORDO
100
AcDbLine
 62
250
  6
CONTINUOUS
 10
-7.1916506493
 20
19.7023487345
 11
-7.1913648315
 21
19.678091689
  0
LINE
  5
32D
100
AcDbEntity
  8
RACCORDO
100
AcDbLine
 62
250
  6
CONTINUOUS
 10
-8.0583334262
 20
-19.7040349405
 11
-8.0586235895
 21
-19.678886964
  0
LINE
  5
32E
100
AcDbEntity
  8
RACCORDO
100
AcDbLine
 62
250
  6
CONTINUOUS
 10
-7.192027728
 20
19.7590098183
 11
-7.1916506493
 21
19.7023487345
  0
LINE
  5
32F
100
AcDbEntity
  8
RACCORDO
100
AcDbLine
 62
250
  6
CONTINUOUS
 10
-8.0579619177
 20
-19.7613645642
 11
-8.0583334262
 21
-19.7040349405
  0
LINE
  5
330
100
AcDbEntity
  8
RACCORDO
100
AcDbLine
 62
250
  6
CONTINUOUS
 10
-7.4915469838
 20
19.4581810583
 11
-7.4910598849
 21
19.3802574587
  0
LINE
  5
331
100
AcDbEntity
  8
RACCORDO
100
AcDbLine
 62
250
  6
CONTINUOUS
 10
-7.7584375929
 20
-19.4617809412
 11
-7.7589401151
 21
-19.3802574587
  0
LINE
  5
332
100
AcDbEntity
  8
RACCORDO
100
AcDbLine
 62
250
  6
CONTINUOUS
 10
-8.0577802714
 20
-19.8501037691
 11
-8.0579619177
 21
-19.7613645642
  0
LINE
  5
333
100
AcDbEntity
  8
RACCORDO
100
AcDbLine
 62
250
  6
CONTINUOUS
 10
-7.1922197286
 20
19.8501037691
 11
-7.192027728
 21
19.7590098183
  0
LINE
  5
334
100
AcDbEntity
  8
0
100
AcDbLine
 62
7
  6
CONTINUOUS
 10
-8.297478
 20
11.082778
 11
-8.297474
 21
10.632571
  0
LINE
  5
335
100
AcDbEntity
  8
RACCORDO
100
AcDbLine
 62
7
  6
CONTINUOUS
 10
-8.125
 20
20.0
 11
-8.125
 21
16.9065385979
  0
LINE
  5
336
100
AcDbEntity
  8
RACCORDO
100
AcDbLine
 62
7
  6
CONTINUOUS
 10
-8.125
 20
-16.9065385979
 11
-8.125
 21
-20.0
  0
LINE
  5
337
100
AcDbEntity
  8
RACCORDO
100
AcDbLine
 62
7
  6
CONTINUOUS
 10
-8.0577802714
 20
-20.0672197286
 11
-8.0577802714
 21
-19.8501037691
  0
LINE
  5
338
100
AcDbEntity
  8
RACCORDO
100
AcDbLine
 62
7
  6
CONTINUOUS
 10
-8.0577802714
 20
19.8501037691
 11
-8.0577802714
 21
20.0672197286
  0
LINE
  5
339
100
AcDbEntity
  8
DRAFT
100
AcDbLine
 62
7
  6
CONTINUOUS
 10
-8.025
 20
-21.1511295404
 11
-8.025
 21
-22.2
  0
LINE
  5
33A
100
AcDbEntity
  8
DRAFT
100
AcDbLine
 62
7
  6
CONTINUOUS
 10
-8.025
 20
21.1511295404
 11
-8.025
 21
22.2
  0
LINE
  5
33B
100
AcDbEntity
  8
DRAFT
100
AcDbLine
 62
7
  6
CONTINUOUS
 10
-7.9970718961
 20
23.4301797403
 11
-7.9970718961
 21
21.1650925288
  0
LINE
  5
33C
100
AcDbEntity
  8
DRAFT
100
AcDbLine
 62
7
  6
CONTINUOUS
 10
-7.9970718961
 20
-23.4301797403
 11
-7.9970718961
 21
-21.1650925288
  0
LINE
  5
33D
100
AcDbEntity
  8
RACCORDO
100
AcDbLine
 62
250
  6
CONTINUOUS
 10
-7.7577916945
 20
-19.8501037691
 11
-7.7584375929
 21
-19.4617809412
  0
LINE
  5
33E
100
AcDbEntity
  8
RACCORDO
100
AcDbLine
 62
250
  6
CONTINUOUS
 10
-7.7577916945
 20
-20.0698149423
 11
-7.7577916945
 21
-19.8501037691
  0
LINE
  5
33F
100
AcDbEntity
  8
RACCORDO
100
AcDbLine
 62
250
  6
CONTINUOUS
 10
-7.4922083055
 20
20.0698149423
 11
-7.4922083055
 21
19.8501037691
  0
LINE
  5
340
100
AcDbEntity
  8
RACCORDO
100
AcDbLine
 62
250
  6
CONTINUOUS
 10
-7.4922083055
 20
19.8501037691
 11
-7.4915469838
 21
19.4581810583
  0
LINE
  5
341
100
AcDbEntity
  8
RACCORDO
100
AcDbLine
 62
7
  6
CONTINUOUS
 10
-7.1922197286
 20
20.0672197286
 11
-7.1922197286
 21
19.8501037691
  0
LINE
  5
342
100
AcDbEntity
  8
RACCORDO
100
AcDbLine
 62
7
  6
CONTINUOUS
 10
-7.1922197286
 20
-19.8501037691
 11
-7.1922197286
 21
-20.0672197286
  0
LINE
  5
343
100
AcDbEntity
  8
RACCORDO
100
AcDbLine
 62
7
  6
CONTINUOUS
 10
-7.125
 20
20.0
 11
-7.125
 21
16.9065385979
  0
LINE
  5
344
100
AcDbEntity
  8
RACCORDO
100
AcDbLine
 62
7
  6
CONTINUOUS
 10
-7.125
 20
-16.9065385979
 11
-7.125
 21
-20.0
  0
LINE
  5
345
100
AcDbEntity
  8
0
100
AcDbLine
 62
7
  6
CONTINUOUS
 10
-8.292331
 20
10.290307
 11
-8.292372
 21
9.574958
  0
LINE
  5
346
100
AcDbEntity
  8
RACCORDO
100
AcDbLine
 62
250
  6
CONTINUOUS
 10
-7.4915612335
 20
-19.4615072474
 11
-7.4922083055
 21
-20.0698149423
  0
LINE
  5
347
100
AcDbEntity
  8
RACCORDO
100
AcDbLine
 62
250
  6
CONTINUOUS
 10
-7.1920372725
 20
-19.761176738
 11
-7.1922197286
 21
-19.8501037691
  0
LINE
  5
348
100
AcDbEntity
  8
RACCORDO
100
AcDbLine
 62
250
  6
CONTINUOUS
 10
-8.0579731001
 20
19.7588240983
 11
-8.0577802714
 21
19.8501037691
  0
LINE
  5
349
100
AcDbEntity
  8
RACCORDO
100
AcDbLine
 62
250
  6
CONTINUOUS
 10
-7.7584542423
 20
19.457903154
 11
-7.7577916945
 21
20.0698149423
  0
LINE
  5
34A
100
AcDbEntity
  8
RACCORDO
100
AcDbLine
 62
250
  6
CONTINUOUS
 10
-7.1916653436
 20
-19.7039032582
 11
-7.1920372725
 21
-19.761176738
  0
LINE
  5
34B
100
AcDbEntity
  8
RACCORDO
100
AcDbLine
 62
250
  6
CONTINUOUS
 10
-8.0583506324
 20
19.7022148453
 11
-8.0579731001
 21
19.7588240983
  0
LINE
  5
34C
100
AcDbEntity
  8
RACCORDO
100
AcDbLine
 62
250
  6
CONTINUOUS
 10
-7.7589401151
 20
19.3802574587
 11
-7.7584542423
 21
19.457903154
  0
LINE
  5
34D
100
AcDbEntity
  8
RACCORDO
100
AcDbLine
 62
250
  6
CONTINUOUS
 10
-7.4910598849
 20
-19.3802574587
 11
-7.4915612335
 21
-19.4615072474
  0
LINE
  5
34E
100
AcDbEntity
  8
RACCORDO
100
AcDbLine
 62
250
  6
CONTINUOUS
 10
-7.1913755197
 20
-19.6788254091
 11
-7.1916653436
 21
-19.7039032582
  0
LINE
  5
34F
100
AcDbEntity
  8
RACCORDO
100
AcDbLine
 62
250
  6
CONTINUOUS
 10
-8.0586361082
 20
19.678027854
 11
-8.0583506324
 21
19.7022148453
  0
LINE
  5
350
100
AcDbEntity
  8
RACCORDO
100
AcDbLine
 62
250
  6
CONTINUOUS
 10
-7.1911743105
 20
-19.6667833347
 11
-7.1913755197
 21
-19.6788254091
  0
LINE
  5
351
100
AcDbEntity
  8
RACCORDO
100
AcDbLine
 62
250
  6
CONTINUOUS
 10
-7.8258840059
 20
16.5882381259
 11
-7.7589401151
 21
19.3802574587
  0
LINE
  5
352
100
AcDbEntity
  8
RACCORDO
100
AcDbLine
 62
250
  6
CONTINUOUS
 10
-7.4241159941
 20
-16.5882381259
 11
-7.4910598849
 21
-19.3802574587
  0
LINE
  5
353
100
AcDbEntity
  8
RACCORDO
100
AcDbLine
 62
250
  6
CONTINUOUS
 10
-7.125
 20
-16.9065385979
 11
-7.1911743105
 21
-19.6667833347
  0
LWPOLYLINE
  5
354
100
AcDbEntity
  8
RACCORDO
100
AcDbPolyline
 62
250
  6
CONTINUOUS
 90
13
 70
0
 10
-8.0589286921
 20
-19.6621652449
 10
-8.0562553302
 20
-19.6254382492
 10
-8.0485141088
 20
-19.5893372802
 10
-8.0358369802
 20
-19.5544776936
 10
-8.0184400312
 20
-19.5214536854
 10
-7.9966197999
 20
-19.4908281633
 10
-7.970748221
 20
-19.4631231519
 10
-7.9412662864
 20
-19.4388108945
 10
-7.9086765275
 20
-19.4183058033
 10
-7.8735344501
 20
-19.4019573962
 10
-7.8364390655
 20
-19.3900443384
 10
-7.7980226794
 20
-19.3827696928
 10
-7.7589401151
 20
-19.3802574587
  0
LINE
  5
355
100
AcDbEntity
  8
DRAFT
100
AcDbLine
 62
7
  6
CONTINUOUS
 10
-14.8931750461
 20
-23.4301797403
 11
-14.9136169577
 21
-23.5
  0
LWPOLYLINE
  5
356
100
AcDbEntity
  8
0
100
AcDbPolyline
 62
250
  6
CONTINUOUS
 90
13
 70
0
 10
20.775
 20
-2.7658633372
 10
20.8393416081
 20
-2.7541498215
 10
20.8982892695
 20
-2.7306085999
 10
20.9518429841
 20
-2.6952396725
 10
21.0002907405
 20
-2.6462310547
 10
21.0433445502
 20
-2.5853947311
 10
21.0801404473
 20
-2.5181666552
 10
21.1101227296
 20
-2.4455803721
 10
21.1338470994
 20
-2.3666023367
 10
21.1521166973
 20
-2.2835678679
 10
21.1651992368
 20
-2.1972554053
 10
21.1728270044
 20
-2.1068865092
 10
21.175
 20
-2.0124611797
  0
LWPOLYLINE
  5
357
100
AcDbEntity
  8
0
100
AcDbPolyline
 62
7
  6
CONTINUOUS
 90
3
 70
0
 10
1.5234116484
 20
-6.5321722905
 10
1.5971064765
 20
-6.5190265446
 10
1.6232622421
 20
-6.5145365013
  0
LINE
  5
358
100
AcDbEntity
  8
0
100
AcDbLine
 62
7
  6
CONTINUOUS
 10
1.4232698575
 20
-6.5498005547
 11
1.3743841668
 21
-6.5584204209
  0
LINE
  5
359
100
AcDbEntity
  8
0
100
AcDbLine
 62
7
  6
CONTINUOUS
 10
1.4251512131
 20
-6.5494987598
 11
1.5017341857
 21
-6.5359522767
  0
LINE
  5
35A
100
AcDbEntity
  8
0
100
AcDbLine
 62
7
  6
CONTINUOUS
 10
1.5017341857
 20
-6.5359522767
 11
1.5234116484
 21
-6.5321722905
  0
LINE
  5
35B
100
AcDbEntity
  8
0
100
AcDbLine
 62
7
  6
CONTINUOUS
 10
1.4232698575
 20
-6.5498005547
 11
1.4251512131
 21
-6.5494987598
  0
LWPOLYLINE
  5
35C
100
AcDbEntity
  8
0
100
AcDbPolyline
 62
250
  6
CONTINUOUS
 90
10
 70
0
 10
18.675
 20
-5.7764834376
 10
18.7618240709
 20
-5.7688919446
 10
18.8460100412
 20
-5.7463481279
 10
18.9249999629
 20
-5.7095369678
 10
18.9963937664
 20
-5.6595769511
 10
19.058022187
 20
-5.5979860857
 10
19.1080126765
 20
-5.5266357748
 10
19.1448462966
 20
-5.4476939589
 10
19.1674038724
 20
-5.3635592451
 10
19.175
 20
-5.2767880241
  0
LWPOLYLINE
  5
35D
100
AcDbEntity
  8
0
100
AcDbPolyline
 62
250
  6
CONTINUOUS
 90
22
 70
0
 10
12.8126353112
 20
-6.2761788511
 10
12.7902561524
 20
-6.2770953837
 10
12.7683821701
 20
-6.2795162143
 10
12.7470133642
 20
-6.2834413428
 10
12.7261231831
 20
-6.2888889401
 10
12.7057381785
 20
-6.2958408353
 10
12.6859380052
 20
-6.3042425166
 10
12.6666218163
 20
-6.3141434202
 10
12.6478904587
 20
-6.3254941099
 10
12.6301261278
 20
-6.338091765
 10
12.6133724167
 20
-6.3519538547
 10
12.5975857324
 20
-6.3670629097
 10
12.5830174911
 20
-6.3831637016
 10
12.5697258602
 20
-6.4001444209
 10
12.5576526724
 20
-6.4181168771
 10
12.546874841
 20
-6.4371612695
 10
12.5372974894
 20
-6.4572340565
 10
12.5290154943
 20
-6.4783787798
 10
12.5223903997
 20
-6.5008062633
 10
12.5175427203
 20
-6.5245867817
 10
12.5143519414
 20
-6.5496500604
 10
12.5128180631
 20
-6.5759960992
  0
LWPOLYLINE
  5
35E
100
AcDbEntity
  8
0
100
AcDbPolyline
 62
250
  6
CONTINUOUS
 90
22
 70
0
 10
12.8126353112
 20
-5.7764834376
 10
12.7534785484
 20
-5.778718928
 10
12.6950859607
 20
-5.7852579664
 10
12.6377617547
 20
-5.7959683746
 10
12.5820068019
 20
-5.8106333845
 10
12.527865347
 20
-5.8291174811
 10
12.4749758163
 20
-5.851519869
 10
12.4233619557
 20
-5.8779195019
 10
12.3736038475
 20
-5.9081122826
 10
12.326188661
 20
-5.9418290467
 10
12.2814154441
 20
-5.9788423455
 10
12.239460239
 20
-6.0189907814
 10
12.2005697597
 20
-6.0620250078
 10
12.1651461979
 20
-6.1074210242
 10
12.133114086
 20
-6.1551899894
 10
12.1041531728
 20
-6.2059823328
 10
12.078637395
 20
-6.259542333
 10
12.0568485121
 20
-6.3157476699
 10
12.0387818655
 20
-6.3756228715
 10
12.024980208
 20
-6.4393834882
 10
12.0162174496
 20
-6.506309028
 10
12.0131226496
 20
-6.5759960992
  0
LINE
  5
35F
100
AcDbEntity
  8
0
100
AcDbLine
 62
7
  6
CONTINUOUS
 10
10.8666935562
 20
-8.0
 11
11.8833064438
 21
-8.0
  0
LINE
  5
360
100
AcDbEntity
  8
0
100
AcDbLine
 62
250
  6
CONTINUOUS
 10
10.9796587358
 20
-7.8870348203
 11
11.7703412642
 21
-7.8870348203
  0
LINE
  5
361
100
AcDbEntity
  8
0
100
AcDbLine
 62
250
  6
CONTINUOUS
 10
11.013360788
 20
-6.8876439933
 11
11.736639212
 21
-6.8876439933
  0
LINE
  5
362
100
AcDbEntity
  8
0
100
AcDbLine
 62
250
  6
CONTINUOUS
 10
10.7368773504
 20
-6.5759960992
 11
10.2371819369
 21
-6.5759960992
  0
LINE
  5
363
100
AcDbEntity
  8
0
100
AcDbLine
 62
250
  6
CONTINUOUS
 10
12.0131226496
 20
-6.5759960992
 11
12.5128180631
 21
-6.5759960992
  0
LINE
  5
364
100
AcDbEntity
  8
0
100
AcDbLine
 62
250
  6
CONTINUOUS
 10
18.675
 20
-6.2761788511
 11
12.8126353112
 21
-6.2761788511
  0
LINE
  5
365
100
AcDbEntity
  8
0
100
AcDbLine
 62
250
  6
CONTINUOUS
 10
9.9373646888
 20
-6.2761788511
 11
4.075
 21
-6.2761788511
  0
LINE
  5
366
100
AcDbEntity
  8
0
100
AcDbLine
 62
7
  6
CONTINUOUS
 10
8.0172476498
 20
-12.9274261805
 11
9.048438765
 21
-13.5227846485
  0
LINE
  5
367
100
AcDbEntity
  8
DRAFT
100
AcDbLine
 62
7
  6
CONTINUOUS
 10
-14.8931750461
 20
23.4301797403
 11
-14.9136169577
 21
23.5
  0
LINE
  5
368
100
AcDbEntity
  8
DRAFT
100
AcDbLine
 62
7
  6
CONTINUOUS
 10
-3.8057889216
 20
-20.6435196952
 11
-3.8117850802
 21
-20.3
  0
LINE
  5
369
100
AcDbEntity
  8
DRAFT
100
AcDbLine
 62
7
  6
CONTINUOUS
 10
-3.8057889216
 20
20.6435196952
 11
-3.8117850802
 21
20.3
  0
LINE
  5
36A
100
AcDbEntity
  8
0
100
AcDbLine
 62
7
  6
CONTINUOUS
 10
1.2232698575
 20
-6.0003050708
 11
1.2251409734
 21
-5.9999452037
  0
LINE
  5
36B
100
AcDbEntity
  8
0
100
AcDbLine
 62
7
  6
CONTINUOUS
 10
1.3971481769
 20
-5.9697675556
 11
1.4232622421
 21
-5.9650410175
  0
LINE
  5
36C
100
AcDbEntity
  8
0
100
AcDbLine
 62
7
  6
CONTINUOUS
 10
1.1743841668
 20
-6.008924937
 11
1.2232698575
 21
-6.0003050708
  0
LINE
  5
36D
100
AcDbEntity
  8
0
100
AcDbLine
 62
7
  6
CONTINUOUS
 10
1.2251409734
 20
-5.9999452037
 11
1.3971481769
 21
-5.9697675556
  0
LINE
  5
36E
100
AcDbEntity
  8
0
100
AcDbLine
 62
250
  6
CONTINUOUS
 10
18.675
 20
-5.7764834376
 11
12.8126353112
 21
-5.7764834376
  0
LINE
  5
36F
100
AcDbEntity
  8
0
100
AcDbLine
 62
250
  6
CONTINUOUS
 10
9.9373646888
 20
-5.7764834376
 11
4.075
 21
-5.7764834376
  0
LINE
  5
370
100
AcDbEntity
  8
0
100
AcDbLine
 62
7
  6
CONTINUOUS
 10
4.475
 20
-5.6885721553
 11
8.875
 21
-5.6885721553
  0
LINE
  5
371
100
AcDbEntity
  8
0
100
AcDbLine
 62
7
  6
CONTINUOUS
 10
13.875
 20
-5.6885721553
 11
18.275
 21
-5.6885721553
  0
LINE
  5
372
100
AcDbEntity
  8
0
100
AcDbLine
 62
7
  6
CONTINUOUS
 10
4.075
 20
-5.6466672319
 11
4.475
 21
-5.6466672319
  0
LINE
  5
373
100
AcDbEntity
  8
0
100
AcDbLine
 62
7
  6
CONTINUOUS
 10
18.275
 20
-5.6466672319
 11
18.675
 21
-5.6466672319
  0
LINE
  5
374
100
AcDbEntity
  8
0
100
AcDbLine
 62
7
  6
CONTINUOUS
 10
8.9692573506
 20
-5.5
 11
10.2138481264
 21
-5.5
  0
LINE
  5
375
100
AcDbEntity
  8
0
100
AcDbLine
 62
7
  6
CONTINUOUS
 10
12.5361518736
 20
-5.5
 11
13.7807426494
 21
-5.5
  0
LINE
  5
376
100
AcDbEntity
  8
0
100
AcDbLine
 62
7
  6
CONTINUOUS
 10
13.7807426494
 20
-5.125
 11
12.1233314774
 21
-5.125
  0
LINE
  5
377
100
AcDbEntity
  8
0
100
AcDbLine
 62
7
  6
CONTINUOUS
 10
10.6266685226
 20
-5.125
 11
8.9692573506
 21
-5.125
  0
LINE
  5
378
100
AcDbEntity
  8
DRAFT
100
AcDbLine
 62
7
  6
CONTINUOUS
 10
-13.7214193998
 20
-4.9892182871
 11
-8.5285806002
 21
-4.9892182871
  0
LINE
  5
379
100
AcDbEntity
  8
0
100
AcDbLine
 62
7
  6
CONTINUOUS
 10
13.7868794124
 20
-4.773425083
 11
12.5371057877
 21
-4.773425083
  0
LINE
  5
37A
100
AcDbEntity
  8
0
100
AcDbLine
 62
7
  6
CONTINUOUS
 10
10.2128942123
 20
-4.773425083
 11
8.9631205876
 21
-4.773425083
  0
LINE
  5
37B
100
AcDbEntity
  8
0
100
AcDbLine
 62
7
  6
CONTINUOUS
 10
18.275
 20
-4.7469913495
 11
13.875
 21
-4.7469913495
  0
LINE
  5
37C
100
AcDbEntity
  8
0
100
AcDbLine
 62
7
  6
CONTINUOUS
 10
8.875
 20
-4.7469913495
 11
4.475
 21
-4.7469913495
  0
LINE
  5
37D
100
AcDbEntity
  8
0
100
AcDbLine
 62
7
  6
CONTINUOUS
 10
5.575
 20
-4.725
 11
10.175
 21
-4.725
  0
LINE
  5
37E
100
AcDbEntity
  8
0
100
AcDbLine
 62
7
  6
CONTINUOUS
 10
12.575
 20
-4.725
 11
17.175
 21
-4.725
  0
LINE
  5
37F
100
AcDbEntity
  8
DRAFT
100
AcDbLine
 62
7
  6
CONTINUOUS
 10
-13.694142774
 20
-4.5705002888
 11
-8.555857226
 21
-4.5705002888
  0
LWPOLYLINE
  5
380
100
AcDbEntity
  8
0
100
AcDbPolyline
 62
250
  6
CONTINUOUS
 90
10
 70
0
 10
4.075
 20
-5.7764834376
 10
3.9881759291
 20
-5.7688919446
 10
3.9039899589
 20
-5.7463481279
 10
3.8250000372
 20
-5.7095369678
 10
3.7536062337
 20
-5.6595769512
 10
3.6919778131
 20
-5.5979860858
 10
3.6419873235
 20
-5.5266357749
 10
3.6051537034
 20
-5.447693959
 10
3.5825961276
 20
-5.3635592452
 10
3.575
 20
-5.2767880241
  0
LINE
  5
381
100
AcDbEntity
  8
0
100
AcDbLine
 62
7
  6
CONTINUOUS
 10
8.7672476498
 20
-11.6283880749
 11
9.798438765
 21
-12.2237465428
  0
LINE
  5
382
100
AcDbEntity
  8
0
100
AcDbLine
 62
7
  6
CONTINUOUS
 10
-9.279084
 20
9.574958
 11
-9.395893
 21
9.938789
  0
LINE
  5
383
100
AcDbEntity
  8
0
100
AcDbLine
 62
7
  6
CONTINUOUS
 10
-9.508761
 20
10.290302
 11
-9.688086
 21
10.848836
  0
LINE
  5
384
100
AcDbEntity
  8
0
100
AcDbLine
 62
7
  6
CONTINUOUS
 10
-9.503068
 20
11.425042
 11
-8.909065
 21
9.574954
  0
LINE
  5
385
100
AcDbEntity
  8
DRAFT
100
AcDbLine
 62
7
  6
CONTINUOUS
 10
-3.8117850802
 20
20.3
 11
-3.8117850802
 21
20.0698149423
  0
LINE
  5
386
100
AcDbEntity
  8
DRAFT
100
AcDbLine
 62
7
  6
CONTINUOUS
 10
-3.8117850802
 20
-20.0698149423
 11
-3.8117850802
 21
-20.3
  0
LINE
  5
387
100
AcDbEntity
  8
DRAFT
100
AcDbLine
 62
7
  6
CONTINUOUS
 10
-3.7419648205
 20
20.671935187
 11
-3.7419648205
 21
20.0349074712
  0
LINE
  5
388
100
AcDbEntity
  8
DRAFT
100
AcDbLine
 62
7
  6
CONTINUOUS
 10
-3.7419648205
 20
-20.0349074712
 11
-3.7419648205
 21
-20.671935187
  0
LWPOLYLINE
  5
389
100
AcDbEntity
  8
0
100
AcDbPolyline
 62
7
  6
CONTINUOUS
 90
7
 70
0
 10
1.2232698575
 20
5.3181431771
 10
1.2251847398
 20
5.3204726333
 10
1.2304457475
 20
5.3226912294
 10
1.2389659131
 20
5.3247989654
 10
1.2505962299
 20
5.3268270072
 10
1.2651456343
 20
5.3287441889
 10
1.275
 20
5.3297224853
  0
LINE
  5
38A
100
AcDbEntity
  8
0
100
AcDbLine
 62
7
  6
CONTINUOUS
 10
8.875
 20
4.7469913495
 11
8.9631205876
 21
4.773425083
  0
LWPOLYLINE
  5
38B
100
AcDbEntity
  8
0
100
AcDbPolyline
 62
250
  6
CONTINUOUS
 90
9
 70
0
 10
3.075
 20
-2.7658633372
 10
3.1393416081
 20
-2.7541498215
 10
3.1982892695
 20
-2.7306085999
 10
3.2518429841
 20
-2.6952396725
 10
3.3002907405
 20
-2.6462310547
 10
3.3433445502
 20
-2.5853947311
 10
3.3801404473
 20
-2.5181666552
 10
3.4101227296
 20
-2.4455803721
 10
3.4338470994
 20
-2.3666023367
  0
LWPOLYLINE
  5
38C
100
AcDbEntity
  8
0
100
AcDbPolyline
 62
7
  6
CONTINUOUS
 90
4
 70
0
 10
19.275
 20
-1.4361406616
 10
19.313029411
 20
-1.433120085
 10
19.3475267922
 20
-1.4263121758
 10
19.3784921435
 20
-1.4156093973
  0
LINE
  5
38D
100
AcDbEntity
  8
DRAFT
100
AcDbLine
 62
7
  6
CONTINUOUS
 10
-10.6303494774
 20
-3.5975629308
 11
-11.625
 21
-3.5975629308
  0
LINE
  5
38E
100
AcDbEntity
  8
0
100
AcDbLine
 62
250
  6
CONTINUOUS
 10
20.775
 20
-2.7658633372
 11
19.675
 21
-2.7658633372
  0
LINE
  5
38F
100
AcDbEntity
  8
0
100
AcDbLine
 62
250
  6
CONTINUOUS
 10
3.075
 20
-2.7658633372
 11
1.975
 21
-2.7658633372
  0
LINE
  5
390
100
AcDbEntity
  8
DRAFT
100
AcDbLine
 62
250
  6
CONTINUOUS
 10
-11.625
 20
-2.7260851936
 11
-10.6709105079
 21
-2.7260851936
  0
LINE
  5
391
100
AcDbEntity
  8
0
100
AcDbLine
 62
250
  6
CONTINUOUS
 10
20.775
 20
-2.648167025
 11
19.675
 21
-2.648167025
  0
LINE
  5
392
100
AcDbEntity
  8
0
100
AcDbLine
 62
250
  6
CONTINUOUS
 10
3.075
 20
-2.648167025
 11
1.975
 21
-2.648167025
  0
LINE
  5
393
100
AcDbEntity
  8
0
100
AcDbLine
 62
7
  6
CONTINUOUS
 10
4.875
 20
-2.5
 11
4.775
 21
-2.5
  0
LINE
  5
394
100
AcDbEntity
  8
0
100
AcDbLine
 62
7
  6
CONTINUOUS
 10
3.575
 20
-2.5
 11
4.475
 21
-2.5
  0
LINE
  5
395
100
AcDbEntity
  8
0
100
AcDbLine
 62
7
  6
CONTINUOUS
 10
17.875
 20
-2.5
 11
17.975
 21
-2.5
  0
LINE
  5
396
100
AcDbEntity
  8
0
100
AcDbLine
 62
7
  6
CONTINUOUS
 10
18.275
 20
-2.5
 11
19.175
 21
-2.5
  0
LINE
  5
397
100
AcDbEntity
  8
0
100
AcDbLine
 62
250
  6
CONTINUOUS
 10
21.175
 20
-2.0124611797
 11
20.975
 21
-2.0124611797
  0
LINE
  5
398
100
AcDbEntity
  8
0
100
AcDbLine
 62
250
  6
CONTINUOUS
 10
19.475
 20
-2.0124611797
 11
19.275
 21
-2.0124611797
  0
LINE
  5
399
100
AcDbEntity
  8
0
100
AcDbLine
 62
250
  6
CONTINUOUS
 10
3.475
 20
-2.0124611797
 11
3.275
 21
-2.0124611797
  0
LINE
  5
39A
100
AcDbEntity
  8
0
100
AcDbLine
 62
250
  6
CONTINUOUS
 10
1.775
 20
-2.0124611797
 11
1.575
 21
-2.0124611797
  0
LINE
  5
39B
100
AcDbEntity
  8
DRAFT
100
AcDbLine
 62
7
  6
CONTINUOUS
 10
-11.625
 20
-2.5
 11
-12.425
 21
-2.4860359481
  0
LWPOLYLINE
  5
39C
100
AcDbEntity
  8
0
100
AcDbPolyline
 62
250
  6
CONTINUOUS
 90
46
 70
0
 10
1.975
 20
-2.648167025
 10
1.969105855
 20
-2.6479737267
 10
1.9630861995
 20
-2.6472364205
 10
1.9569470278
 20
-2.6459482994
 10
1.9506759341
 20
-2.6441162006
 10
1.94429971
 20
-2.6417189417
 10
1.937883523
 20
-2.6387109249
 10
1.9314445826
 20
-2.6350820933
 10
1.9249819843
 20
-2.6308361856
 10
1.9185329141
 20
-2.6259533834
 10
1.9121114398
 20
-2.6204316217
 10
1.905720336
 20
-2.6142708674
 10
1.899379098
 20
-2.6074568884
 10
1.8930960584
 20
-2.5999858714
 10
1.886880036
 20
-2.5918617
 10
1.8807504981
 20
-2.5830832223
 10
1.8747117854
 20
-2.5736399458
 10
1.8687761074
 20
-2.563544688
 10
1.8629728208
 20
-2.552833453
 10
1.857313188
 20
-2.5415131154
 10
1.851798771
 20
-2.52958291
 10
1.8464421922
 20
-2.5170692374
 10
1.8412575317
 20
-2.5039997421
 10
1.8362407946
 20
-2.4903542914
 10
1.8313784438
 20
-2.4760869989
 10
1.8266758653
 20
-2.4612030077
 10
1.8221408835
 20
-2.4457025566
 10
1.8177668991
 20
-2.4295306608
 10
1.8135597355
 20
-2.4126849303
 10
1.8095295533
 20
-2.3951723491
 10
1.8056786703
 20
-2.3769510403
 10
1.8020144417
 20
-2.3580176586
 10
1.7985468374
 20
-2.3383805194
 10
1.7952831336
 20
-2.3180149835
 10
1.7922331636
 20
-2.2969330702
 10
1.7894040467
 20
-2.2751287268
 10
1.7868002326
 20
-2.2525500052
 10
1.7844314024
 20
-2.2292042234
 10
1.7823065319
 20
-2.2050905697
 10
1.7804314773
 20
-2.1801445639
 10
1.7788166648
 20
-2.1543692985
 10
1.7774724918
 20
-2.1277689536
 10
1.7764074977
 20
-2.1002804959
 10
1.7756327084
 20
-2.0718856174
 10
1.7751599365
 20
-2.0426109821
 10
1.775
 20
-2.0124611797
  0
LWPOLYLINE
  5
39D
100
AcDbEntity
  8
0
100
AcDbPolyline
 62
250
  6
CONTINUOUS
 90
46
 70
0
 10
19.675
 20
-2.648167025
 10
19.669105855
 20
-2.6479737267
 10
19.6630861995
 20
-2.6472364205
 10
19.6569470278
 20
-2.6459482994
 10
19.6506759341
 20
-2.6441162006
 10
19.64429971
 20
-2.6417189417
 10
19.637883523
 20
-2.6387109249
 10
19.6314445826
 20
-2.6350820933
 10
19.6249819843
 20
-2.6308361856
 10
19.6185329141
 20
-2.6259533834
 10
19.6121114398
 20
-2.6204316217
 10
19.605720336
 20
-2.6142708674
 10
19.599379098
 20
-2.6074568884
 10
19.5930960584
 20
-2.5999858714
 10
19.586880036
 20
-2.5918617
 10
19.5807504981
 20
-2.5830832223
 10
19.5747117854
 20
-2.5736399458
 10
19.5687761074
 20
-2.563544688
 10
19.5629728208
 20
-2.552833453
 10
19.557313188
 20
-2.5415131154
 10
19.551798771
 20
-2.52958291
 10
19.5464421922
 20
-2.5170692374
 10
19.5412575317
 20
-2.5039997421
 10
19.5362407946
 20
-2.4903542914
 10
19.5313784438
 20
-2.4760869989
 10
19.5266758653
 20
-2.4612030077
 10
19.5221408835
 20
-2.4457025566
 10
19.5177668991
 20
-2.4295306608
 10
19.5135597355
 20
-2.4126849303
 10
19.5095295533
 20
-2.3951723491
 10
19.5056786703
 20
-2.3769510403
 10
19.5020144417
 20
-2.3580176586
 10
19.4985468374
 20
-2.3383805194
 10
19.4952831336
 20
-2.3180149835
 10
19.4922331636
 20
-2.2969330702
 10
19.4894040467
 20
-2.2751287268
 10
19.4868002326
 20
-2.2525500052
 10
19.4844314024
 20
-2.2292042234
 10
19.4823065319
 20
-2.2050905697
 10
19.4804314773
 20
-2.1801445639
 10
19.4788166648
 20
-2.1543692985
 10
19.4774724918
 20
-2.1277689536
 10
19.4764074977
 20
-2.1002804959
 10
19.4756327084
 20
-2.0718856174
 10
19.4751599365
 20
-2.0426109821
 10
19.475
 20
-2.0124611797
  0
LINE
  5
39E
100
AcDbEntity
  8
0
100
AcDbLine
 62
7
  6
CONTINUOUS
 10
21.5267301425
 20
-6.0003050708
 11
21.5248487869
 21
-6.0000032759
  0
LINE
  5
39F
100
AcDbEntity
  8
0
100
AcDbLine
 62
7
  6
CONTINUOUS
 10
21.3528935235
 20
-5.9695310607
 11
21.3267377579
 21
-5.9650410175
  0
LWPOLYLINE
  5
3A0
100
AcDbEntity
  8
0
100
AcDbPolyline
 62
7
  6
CONTINUOUS
 90
3
 70
0
 10
21.2265984191
 20
-6.5321151948
 10
21.1528518231
 20
-6.5192630395
 10
21.1267377579
 20
-6.5145365013
  0
LINE
  5
3A1
100
AcDbEntity
  8
0
100
AcDbLine
 62
7
  6
CONTINUOUS
 10
21.3267301425
 20
-6.5498005547
 11
21.3756158332
 21
-6.5584204209
  0
LINE
  5
3A2
100
AcDbEntity
  8
0
100
AcDbLine
 62
7
  6
CONTINUOUS
 10
21.5756158332
 20
-6.008924937
 11
21.5267301425
 21
-6.0003050708
  0
LINE
  5
3A3
100
AcDbEntity
  8
0
100
AcDbLine
 62
7
  6
CONTINUOUS
 10
21.3248590266
 20
-6.5494406876
 11
21.2482614023
 21
-6.5359772985
  0
LINE
  5
3A4
100
AcDbEntity
  8
0
100
AcDbLine
 62
7
  6
CONTINUOUS
 10
21.2482614023
 20
-6.5359772985
 11
21.2265984191
 21
-6.5321151948
  0
LINE
  5
3A5
100
AcDbEntity
  8
0
100
AcDbLine
 62
7
  6
CONTINUOUS
 10
21.5248487869
 20
-6.0000032759
 11
21.3528935235
 21
-5.9695310607
  0
LINE
  5
3A6
100
AcDbEntity
  8
0
100
AcDbLine
 62
7
  6
CONTINUOUS
 10
21.3267301425
 20
-6.5498005547
 11
21.3248590266
 21
-6.5494406876
  0
LINE
  5
3A7
100
AcDbEntity
  8
0
100
AcDbLine
 62
7
  6
CONTINUOUS
 10
8.875
 20
-4.7469913495
 11
8.9631205876
 21
-4.773425083
  0
LWPOLYLINE
  5
3A8
100
AcDbEntity
  8
0
100
AcDbPolyline
 62
7
  6
CONTINUOUS
 90
7
 70
0
 10
1.2232698575
 20
-5.3181431771
 10
1.2251848571
 20
-5.3203527734
 10
1.2304459585
 20
-5.3225963563
 10
1.2389663041
 20
-5.3247990468
 10
1.2505970456
 20
-5.3268556844
 10
1.2651471525
 20
-5.3287306262
 10
1.275
 20
-5.3297165869
  0
LINE
  5
3A9
100
AcDbEntity
  8
0
100
AcDbLine
 62
7
  6
CONTINUOUS
 10
-7.59859
 20
9.574958
 11
-7.96939
 21
10.290302
  0
LINE
  5
3AA
100
AcDbEntity
  8
0
100
AcDbLine
 62
7
  6
CONTINUOUS
 10
-7.5756876047
 20
10.3348011665
 11
-7.181827
 21
9.574963
  0
LINE
  5
3AB
100
AcDbEntity
  8
DRAFT
100
AcDbLine
 62
7
  6
CONTINUOUS
 10
1.625
 20
-15.5560403212
 11
1.6442005714
 21
-15.75
  0
LWPOLYLINE
  5
3AC
100
AcDbEntity
  8
0
100
AcDbPolyline
 62
250
  6
CONTINUOUS
 90
13
 70
0
 10
1.4232698575
 20
-20.6517377579
 10
1.4249826422
 20
-20.6778407441
 10
1.4300877174
 20
-20.7034971442
 10
1.4384977423
 20
-20.7282680126
 10
1.4500688328
 20
-20.751729554
 10
1.4646030238
 20
-20.7734803736
 10
1.4818516551
 20
-20.7931483449
 10
1.5015196264
 20
-20.8103969762
 10
1.523270446
 20
-20.8249311672
 10
1.5467319874
 20
-20.8365022577
 10
1.5715028558
 20
-20.8449122826
 10
1.5971592559
 20
-20.8500173578
 10
1.6232622421
 20
-20.8517301425
  0
LINE
  5
3AD
100
AcDbEntity
  8
DRAFT
100
AcDbLine
 62
7
  6
CONTINUOUS
 10
-1.175
 20
-0.0
 11
-1.143923419
 21
-14.5
  0
LINE
  5
3AE
100
AcDbEntity
  8
RACCORDO
100
AcDbLine
 62
7
  6
CONTINUOUS
 10
-1.1367954839
 20
16.408165363
 11
-1.1367954839
 21
14.7
  0
LINE
  5
3AF
100
AcDbEntity
  8
RACCORDO
100
AcDbLine
 62
7
  6
CONTINUOUS
 10
-1.1367954839
 20
-14.7
 11
-1.1367954839
 21
-16.408165363
  0
LINE
  5
3B0
100
AcDbEntity
  8
DRAFT
100
AcDbLine
 62
7
  6
CONTINUOUS
 10
-1.0669752242
 20
16.4319772848
 11
-1.0669752242
 21
-16.4319772848
  0
LINE
  5
3B1
100
AcDbEntity
  8
RACCORDO
100
AcDbLine
 62
7
  6
CONTINUOUS
 10
-0.0948202597
 20
-15.9973709179
 11
-0.0948202597
 21
15.9973709179
  0
LINE
  5
3B2
100
AcDbEntity
  8
RACCORDO
100
AcDbLine
 62
7
  6
CONTINUOUS
 10
-0.025
 20
-16.0215754896
 11
-0.025
 21
16.0215754896
  0
LINE
  5
3B3
100
AcDbEntity
  8
RACCORDO
100
AcDbLine
 62
7
  6
CONTINUOUS
 10
0.025
 20
-16.1196590187
 11
0.025
 21
16.1196590187
  0
LINE
  5
3B4
100
AcDbEntity
  8
DRAFT
100
AcDbLine
 62
7
  6
CONTINUOUS
 10
-1.143923419
 20
14.5
 11
-1.175
 21
-0.0
  0
LINE
  5
3B5
100
AcDbEntity
  8
0
100
AcDbLine
 62
250
  6
CONTINUOUS
 10
1.4250075833
 20
20.6780293968
 11
1.4232698575
 21
20.6517377579
  0
LINE
  5
3B6
100
AcDbEntity
  8
DRAFT
100
AcDbLine
 62
7
  6
CONTINUOUS
 10
1.625
 20
15.5560403212
 11
1.6442005714
 21
15.75
  0
LINE
  5
3B7
100
AcDbEntity
  8
DRAFT
100
AcDbLine
 62
7
  6
CONTINUOUS
 10
1.3743841668
 20
6.5584204209
 11
1.1743841668
 21
6.008924937
  0
LINE
  5
3B8
100
AcDbEntity
  8
0
100
AcDbLine
 62
7
  6
CONTINUOUS
 10
1.2232698575
 20
6.0003050708
 11
1.4232698575
 21
6.5498005547
  0
LINE
  5
3B9
100
AcDbEntity
  8
0
100
AcDbLine
 62
250
  6
CONTINUOUS
 10
1.4232622421
 20
5.9650410175
 11
1.6232622421
 21
6.5145365013
  0
LWPOLYLINE
  5
3BA
100
AcDbEntity
  8
0
100
AcDbPolyline
 62
7
  6
CONTINUOUS
 90
7
 70
0
 10
1.2276332914
 20
2.4825022673
 10
1.2295482743
 20
2.4847118528
 10
1.2348093376
 20
2.4869554287
 10
1.2433296385
 20
2.4891581162
 10
1.2549603485
 20
2.4912147552
 10
1.2695104473
 20
2.4930897007
 10
1.275
 20
2.4936390337
  0
LINE
  5
3BB
100
AcDbEntity
  8
0
100
AcDbLine
 62
250
  6
CONTINUOUS
 10
-21.1256158332
 20
-20.7006234486
 11
-21.0813448196
 21
-20.656352435
  0
LINE
  5
3BC
100
AcDbEntity
  8
0
100
AcDbLine
 62
250
  6
CONTINUOUS
 10
-20.9256234486
 20
-20.9006158332
 11
-20.8813506304
 21
-20.856343015
  0
LINE
  5
3BD
100
AcDbEntity
  8
0
100
AcDbLine
 62
7
  6
CONTINUOUS
 10
11.917008496
 20
11.8870348203
 11
12.0131226496
 21
11.9831489739
  0
LINE
  5
3BE
100
AcDbEntity
  8
0
100
AcDbLine
 62
250
  6
CONTINUOUS
 10
21.1756234486
 20
20.9006158332
 11
21.1267377579
 21
20.8517301425
  0
LWPOLYLINE
  5
3BF
100
AcDbEntity
  8
0
100
AcDbPolyline
 62
7
  6
CONTINUOUS
 90
10
 70
0
 10
12.0131226496
 20
11.9831489739
 10
12.025959637
 20
11.99377754
 10
12.0509955985
 20
12.0191320776
 10
12.088230534
 20
12.0582568583
 10
12.1397015006
 20
12.1098983268
 10
12.2033714411
 20
12.1723113585
 10
12.2731291848
 20
12.2431555091
 10
12.3469376745
 20
12.32002721
 10
12.4268339673
 20
12.4007014254
 10
12.5128180631
 20
12.4828443874
  0
LINE
  5
3C0
100
AcDbEntity
  8
DRAFT
100
AcDbLine
 62
250
  6
CONTINUOUS
 10
-12.425
 20
-1.8516270492
 11
-10.6729111304
 21
-1.8516270492
  0
LINE
  5
3C1
100
AcDbEntity
  8
DRAFT
100
AcDbLine
 62
7
  6
CONTINUOUS
 10
-8.6162180899
 20
-1.65
 11
-10.6570995875
 21
-1.65
  0
LINE
  5
3C2
100
AcDbEntity
  8
DRAFT
100
AcDbLine
 62
7
  6
CONTINUOUS
 10
-12.425
 20
-1.65
 11
-13.6337819101
 21
-1.65
  0
LINE
  5
3C3
100
AcDbEntity
  8
DRAFT
100
AcDbLine
 62
250
  6
CONTINUOUS
 10
-12.425
 20
-1.5839555569
 11
-10.670127273
 21
-1.5839555569
  0
LINE
  5
3C4
100
AcDbEntity
  8
0
100
AcDbLine
 62
250
  6
CONTINUOUS
 10
3.575
 20
-1.5707553048
 11
4.475
 21
-1.5707553048
  0
LINE
  5
3C5
100
AcDbEntity
  8
0
100
AcDbLine
 62
250
  6
CONTINUOUS
 10
18.275
 20
-1.5707553048
 11
19.175
 21
-1.5707553048
  0
LINE
  5
3C6
100
AcDbEntity
  8
0
100
AcDbLine
 62
7
  6
CONTINUOUS
 10
19.275
 20
-1.4361406616
 11
19.175
 21
-1.4361406616
  0
LINE
  5
3C7
100
AcDbEntity
  8
0
100
AcDbLine
 62
7
  6
CONTINUOUS
 10
18.275
 20
-1.4361406616
 11
17.975
 21
-1.4361406616
  0
LINE
  5
3C8
100
AcDbEntity
  8
0
100
AcDbLine
 62
7
  6
CONTINUOUS
 10
4.775
 20
-1.4361406616
 11
4.475
 21
-1.4361406616
  0
LINE
  5
3C9
100
AcDbEntity
  8
0
100
AcDbLine
 62
7
  6
CONTINUOUS
 10
3.575
 20
-1.4361406616
 11
3.475
 21
-1.4361406616
  0
LINE
  5
3CA
100
AcDbEntity
  8
ASSI
100
AcDbLine
 62
7
  6
CONTINUOUS
 10
-10.6645177505
 20
-1.35
 11
-12.425
 21
-1.35
  0
LINE
  5
3CB
100
AcDbEntity
  8
0
100
AcDbLine
 62
7
  6
CONTINUOUS
 10
3.575
 20
-1.3367997479
 11
4.475
 21
-1.3367997479
  0
LINE
  5
3CC
100
AcDbEntity
  8
0
100
AcDbLine
 62
7
  6
CONTINUOUS
 10
18.275
 20
-1.3367997479
 11
19.175
 21
-1.3367997479
  0
LINE
  5
3CD
100
AcDbEntity
  8
DRAFT
100
AcDbLine
 62
7
  6
CONTINUOUS
 10
-21.075
 20
-0.0
 11
-13.7107264449
 21
-0.0
  0
LINE
  5
3CE
100
AcDbEntity
  8
DRAFT
100
AcDbLine
 62
7
  6
CONTINUOUS
 10
-8.5392735551
 20
-0.0
 11
-1.175
 21
-0.0
  0
LWPOLYLINE
  5
3CF
100
AcDbEntity
  8
0
100
AcDbPolyline
 62
7
  6
CONTINUOUS
 90
10
 70
0
 10
4.075
 20
-6.2761788511
 10
3.9830955065
 20
-6.1884446524
 10
3.8990510995
 20
-6.0984567382
 10
3.8228667792
 20
-6.0062151085
 10
3.7529063484
 20
-5.9115450916
 10
3.6908060042
 20
-5.8146213593
 10
3.6414743381
 20
-5.7159679271
 10
3.6065475473
 20
-5.615759467
 10
3.5843894346
 20
-5.5138213071
 10
3.575
 20
-5.4101534473
  0
LINE
  5
3D0
100
AcDbEntity
  8
0
100
AcDbLine
 62
250
  6
CONTINUOUS
 10
-21.1256158332
 20
20.7006234486
 11
-21.0813331242
 21
20.6563407396
  0
LINE
  5
3D1
100
AcDbEntity
  8
0
100
AcDbLine
 62
7
  6
CONTINUOUS
 10
20.1983112727
 20
-20.5
 11
20.1372185454
 21
-20.4389072728
  0
LINE
  5
3D2
100
AcDbEntity
  8
0
100
AcDbLine
 62
250
  6
CONTINUOUS
 10
-20.9256234486
 20
20.9006158332
 11
-20.8813506304
 21
20.856343015
  0
LINE
  5
3D3
100
AcDbEntity
  8
0
100
AcDbLine
 62
250
  6
CONTINUOUS
 10
21.1756234486
 20
-20.9006158332
 11
21.1267377579
 21
-20.8517301425
  0
LWPOLYLINE
  5
3D4
100
AcDbEntity
  8
0
100
AcDbPolyline
 62
7
  6
CONTINUOUS
 90
7
 70
0
 10
1.2276332914
 20
-2.4825022673
 10
1.2295481571
 20
-2.4848317134
 10
1.2348091267
 20
-2.4870503025
 10
1.2433292478
 20
-2.4891580349
 10
1.2549595331
 20
-2.4911860774
 10
1.2695089292
 20
-2.4931032631
 10
1.275
 20
-2.4936483927
  0
LINE
  5
3D5
100
AcDbEntity
  8
DRAFT
100
AcDbLine
 62
7
  6
CONTINUOUS
 10
1.1743841668
 20
-6.008924937
 11
1.3743841668
 21
-6.5584204209
  0
LINE
  5
3D6
100
AcDbEntity
  8
0
100
AcDbLine
 62
7
  6
CONTINUOUS
 10
1.4232698575
 20
-6.5498005547
 11
1.2232698575
 21
-6.0003050708
  0
LINE
  5
3D7
100
AcDbEntity
  8
0
100
AcDbLine
 62
250
  6
CONTINUOUS
 10
1.6232622421
 20
-6.5145365013
 11
1.4232622421
 21
-5.9650410175
  0
LINE
  5
3D8
100
AcDbEntity
  8
0
100
AcDbLine
 62
7
  6
CONTINUOUS
 10
2.5516887273
 20
-15.5560403212
 11
2.5708892987
 21
-15.75
  0
LWPOLYLINE
  5
3D9
100
AcDbEntity
  8
0
100
AcDbPolyline
 62
250
  6
CONTINUOUS
 90
13
 70
0
 10
0.631343015
 20
20.6563506304
 10
0.6296302303
 20
20.6824536166
 10
0.6245251551
 20
20.7081100167
 10
0.6161151303
 20
20.7328808852
 10
0.6045440397
 20
20.7563424265
 10
0.5900098488
 20
20.7780932461
 10
0.5727612175
 20
20.7977612175
 10
0.5530932461
 20
20.8150098488
 10
0.5313424265
 20
20.8295440397
 10
0.5078808852
 20
20.8411151303
 10
0.4831100167
 20
20.8495251551
 10
0.4574536166
 20
20.8546302303
 10
0.4313506304
 20
20.856343015
  0
LWPOLYLINE
  5
3DA
100
AcDbEntity
  8
RACCORDO
100
AcDbPolyline
 62
7
  6
CONTINUOUS
 90
13
 70
0
 10
-0.0948202597
 20
15.9973709179
 10
-0.0979264908
 20
16.1087568655
 10
-0.1071529968
 20
16.2192795517
 10
-0.1224997777
 20
16.3289389765
 10
-0.1440515641
 20
16.4381238555
 10
-0.1717236253
 20
16.5464454731
 10
-0.2052617704
 20
16.6527376827
 10
-0.2447549872
 20
16.7569716232
 10
-0.2901142878
 20
16.8591761558
 10
-0.340818517
 20
16.9582717164
 10
-0.3966939565
 20
17.0538984507
 10
-0.4579143246
 20
17.1464162131
 10
-0.5244796213
 20
17.2358250037
  0
LWPOLYLINE
  5
3DB
100
AcDbEntity
  8
RACCORDO
100
AcDbPolyline
 62
7
  6
CONTINUOUS
 90
13
 70
0
 10
0.025
 20
16.119659166
 10
0.0218859314
 20
16.2311860772
 10
0.0126362366
 20
16.3418465971
 10
-0.0027490842
 20
16.4516407259
 10
-0.0243552728
 20
16.5609588341
 10
-0.0520970874
 20
16.6694105511
 10
-0.0857188032
 20
16.7758247651
 10
-0.125309882
 20
16.8801722426
 10
-0.1707808618
 20
16.9824822171
 10
-0.2216076323
 20
17.081671278
 10
-0.2776154898
 20
17.1773782886
 10
-0.3389791379
 20
17.2699643857
 10
-0.4056985766
 20
17.3594295692
  0
LWPOLYLINE
  5
3DC
100
AcDbEntity
  8
0
100
AcDbPolyline
 62
250
  6
CONTINUOUS
 90
3
 70
0
 10
1.575
 20
-2.0124611797
 10
1.5770792329
 20
-2.1058463259
 10
1.5845590204
 20
-2.1953935067
  0
LINE
  5
3DD
100
AcDbEntity
  8
0
100
AcDbLine
 62
7
  6
CONTINUOUS
 10
1.2232698575
 20
5.3181431771
 11
1.2276332914
 21
2.4825022673
  0
LINE
  5
3DE
100
AcDbEntity
  8
0
100
AcDbLine
 62
250
  6
CONTINUOUS
 10
0.4298196662
 20
-15.7805779708
 11
0.4313506304
 21
-20.856343015
  0
LINE
  5
3DF
100
AcDbEntity
  8
0
100
AcDbLine
 62
7
  6
CONTINUOUS
 10
0.6756158332
 20
-20.7006234486
 11
0.6756158332
 21
20.7006234486
  0
LINE
  5
3E0
100
AcDbEntity
  8
DRAFT
100
AcDbLine
 62
7
  6
CONTINUOUS
 10
1.1743841668
 20
6.008924937
 11
1.1743841668
 21
-6.008924937
  0
LINE
  5
3E1
100
AcDbEntity
  8
0
100
AcDbLine
 62
7
  6
CONTINUOUS
 10
1.2232698575
 20
-6.0003050708
 11
1.2232698575
 21
-5.3181431771
  0
LINE
  5
3E2
100
AcDbEntity
  8
0
100
AcDbLine
 62
7
  6
CONTINUOUS
 10
1.2232698575
 20
5.3181431771
 11
1.2232698575
 21
6.0003050708
  0
LINE
  5
3E3
100
AcDbEntity
  8
0
100
AcDbLine
 62
7
  6
CONTINUOUS
 10
1.2276332914
 20
2.4825022673
 11
1.2276332914
 21
-2.4825022673
  0
LINE
  5
3E4
100
AcDbEntity
  8
0
100
AcDbLine
 62
7
  6
CONTINUOUS
 10
1.275
 20
5.5000190385
 11
1.275
 21
-5.5000190385
  0
LINE
  5
3E5
100
AcDbEntity
  8
0
100
AcDbLine
 62
7
  6
CONTINUOUS
 10
1.3743841668
 20
20.7006234486
 11
1.3743841668
 21
16.0
  0
LINE
  5
3E6
100
AcDbEntity
  8
DRAFT
100
AcDbLine
 62
7
  6
CONTINUOUS
 10
1.3743841668
 20
16.0
 11
1.3743841668
 21
6.5584204209
  0
LINE
  5
3E7
100
AcDbEntity
  8
DRAFT
100
AcDbLine
 62
7
  6
CONTINUOUS
 10
1.3743841668
 20
-6.5584204209
 11
1.3743841668
 21
-16.0
  0
LINE
  5
3E8
100
AcDbEntity
  8
0
100
AcDbLine
 62
7
  6
CONTINUOUS
 10
1.3743841668
 20
-16.0
 11
1.3743841668
 21
-20.7006234486
  0
LINE
  5
3E9
100
AcDbEntity
  8
0
100
AcDbLine
 62
250
  6
CONTINUOUS
 10
1.4232622421
 20
-5.9650410175
 11
1.4232622421
 21
-5.8540725136
  0
LINE
  5
3EA
100
AcDbEntity
  8
0
100
AcDbLine
 62
250
  6
CONTINUOUS
 10
1.4232622421
 20
5.8540725021
 11
1.4232622421
 21
5.9650410175
  0
LINE
  5
3EB
100
AcDbEntity
  8
0
100
AcDbLine
 62
7
  6
CONTINUOUS
 10
1.4232698575
 20
-20.6517377579
 11
1.4232698575
 21
-18.0
  0
LINE
  5
3EC
100
AcDbEntity
  8
0
100
AcDbLine
 62
7
  6
CONTINUOUS
 10
1.4232698575
 20
-16.0
 11
1.4232698575
 21
-13.7091225827
  0
LINE
  5
3ED
100
AcDbEntity
  8
0
100
AcDbLine
 62
7
  6
CONTINUOUS
 10
1.4232698575
 20
-13.2908774173
 11
1.4232698575
 21
-6.5498005547
  0
LINE
  5
3EE
100
AcDbEntity
  8
0
100
AcDbLine
 62
7
  6
CONTINUOUS
 10
1.4232698575
 20
6.5498005547
 11
1.4232698575
 21
13.2908774173
  0
LINE
  5
3EF
100
AcDbEntity
  8
0
100
AcDbLine
 62
7
  6
CONTINUOUS
 10
1.4232698575
 20
13.7091225827
 11
1.4232698575
 21
16.0
  0
LINE
  5
3F0
100
AcDbEntity
  8
0
100
AcDbLine
 62
7
  6
CONTINUOUS
 10
1.4232698575
 20
18.0
 11
1.4232698575
 21
20.6517377579
  0
LINE
  5
3F1
100
AcDbEntity
  8
0
100
AcDbLine
 62
250
  6
CONTINUOUS
 10
1.575
 20
-2.0124611797
 11
1.575
 21
2.0124611797
  0
LINE
  5
3F2
100
AcDbEntity
  8
0
100
AcDbLine
 62
250
  6
CONTINUOUS
 10
1.6232622421
 20
-20.8517301425
 11
1.6232622421
 21
-19.7001218439
  0
LINE
  5
3F3
100
AcDbEntity
  8
0
100
AcDbLine
 62
250
  6
CONTINUOUS
 10
1.6232622421
 20
-18.25
 11
1.6232622421
 21
-18.0
  0
LINE
  5
3F4
100
AcDbEntity
  8
0
100
AcDbLine
 62
250
  6
CONTINUOUS
 10
1.6232622421
 20
-16.0
 11
1.6232622421
 21
-15.75
  0
LINE
  5
3F5
100
AcDbEntity
  8
0
100
AcDbLine
 62
250
  6
CONTINUOUS
 10
1.6232622421
 20
-12.3798162058
 11
1.6232622421
 21
-6.5145365013
  0
LINE
  5
3F6
100
AcDbEntity
  8
0
100
AcDbLine
 62
250
  6
CONTINUOUS
 10
1.6232622421
 20
6.5145365013
 11
1.6232622421
 21
12.3798162058
  0
LINE
  5
3F7
100
AcDbEntity
  8
0
100
AcDbLine
 62
250
  6
CONTINUOUS
 10
1.6232622421
 20
15.75
 11
1.6232622421
 21
16.0
  0
LINE
  5
3F8
100
AcDbEntity
  8
0
100
AcDbLine
 62
250
  6
CONTINUOUS
 10
1.6232622421
 20
18.0
 11
1.6232622421
 21
18.25
  0
LINE
  5
3F9
100
AcDbEntity
  8
0
100
AcDbLine
 62
250
  6
CONTINUOUS
 10
1.6232622421
 20
19.7001218439
 11
1.6232622421
 21
20.8517301425
  0
LINE
  5
3FA
100
AcDbEntity
  8
RACCORDO
100
AcDbLine
 62
7
  6
CONTINUOUS
 10
1.625
 20
19.7001218439
 11
1.625
 21
18.4439596788
  0
LINE
  5
3FB
100
AcDbEntity
  8
DRAFT
100
AcDbLine
 62
7
  6
CONTINUOUS
 10
1.625
 20
15.5560403212
 11
1.625
 21
13.9330127019
  0
LINE
  5
3FC
100
AcDbEntity
  8
0
100
AcDbLine
 62
7
  6
CONTINUOUS
 10
1.625
 20
13.0669872981
 11
1.625
 21
12.8795116193
  0
LINE
  5
3FD
100
AcDbEntity
  8
0
100
AcDbLine
 62
7
  6
CONTINUOUS
 10
1.625
 20
-12.8795116193
 11
1.625
 21
-13.0669872981
  0
LINE
  5
3FE
100
AcDbEntity
  8
DRAFT
100
AcDbLine
 62
7
  6
CONTINUOUS
 10
1.625
 20
-13.9330127019
 11
1.625
 21
-15.5560403212
  0
LINE
  5
3FF
100
AcDbEntity
  8
RACCORDO
100
AcDbLine
 62
7
  6
CONTINUOUS
 10
1.625
 20
-18.4439596788
 11
1.625
 21
-19.7001218439
  0
LINE
  5
400
100
AcDbEntity
  8
DRAFT
100
AcDbLine
 62
7
  6
CONTINUOUS
 10
1.6442005714
 20
-18.25
 11
1.6442005714
 21
-18.0
  0
LINE
  5
401
100
AcDbEntity
  8
DRAFT
100
AcDbLine
 62
7
  6
CONTINUOUS
 10
1.6442005714
 20
-16.0
 11
1.6442005714
 21
-15.75
  0
LINE
  5
402
100
AcDbEntity
  8
DRAFT
100
AcDbLine
 62
7
  6
CONTINUOUS
 10
1.6442005714
 20
15.75
 11
1.6442005714
 21
16.0
  0
LINE
  5
403
100
AcDbEntity
  8
DRAFT
100
AcDbLine
 62
7
  6
CONTINUOUS
 10
1.6442005714
 20
18.0
 11
1.6442005714
 21
18.25
  0
LINE
  5
404
100
AcDbEntity
  8
0
100
AcDbLine
 62
7
  6
CONTINUOUS
 10
1.6983112727
 20
12.25
 11
1.6983112727
 21
5.9940869507
  0
LINE
  5
405
100
AcDbEntity
  8
0
100
AcDbLine
 62
7
  6
CONTINUOUS
 10
1.6983112727
 20
-5.9940869507
 11
1.6983112727
 21
-12.25
  0
LINE
  5
406
100
AcDbEntity
  8
0
100
AcDbLine
 62
7
  6
CONTINUOUS
 10
1.775
 20
-2.0124361229
 11
1.775
 21
2.0123936183
  0
LINE
  5
407
100
AcDbEntity
  8
0
100
AcDbLine
 62
250
  6
CONTINUOUS
 10
1.975
 20
-2.7658633372
 11
1.975
 21
2.7658633372
  0
LINE
  5
408
100
AcDbEntity
  8
0
100
AcDbLine
 62
7
  6
CONTINUOUS
 10
2.025
 20
18.0
 11
2.025
 21
16.0
  0
LINE
  5
409
100
AcDbEntity
  8
0
100
AcDbLine
 62
7
  6
CONTINUOUS
 10
2.025
 20
-16.0
 11
2.025
 21
-18.0
  0
LWPOLYLINE
  5
40A
100
AcDbEntity
  8
0
100
AcDbPolyline
 62
250
  6
CONTINUOUS
 90
9
 70
0
 10
0.4313506304
 20
20.856343015
 10
0.4299311514
 20
16.4283782562
 10
0.4288591184
 20
12.0948456038
 10
0.428124753
 20
7.6643049716
 10
0.4277079402
 20
3.1269989906
 10
0.4276287949
 20
-1.5066696043
 10
0.4279476625
 20
-6.2061339371
 10
0.4286846579
 20
-10.9609062004
 10
0.4298196662
 20
-15.7805779708
  0
LWPOLYLINE
  5
40B
100
AcDbEntity
  8
0
100
AcDbPolyline
 62
250
  6
CONTINUOUS
 90
10
 70
0
 10
0.6313332112
 20
20.6563408266
 10
0.6299235189
 20
16.4212584525
 10
0.6288514928
 20
12.0895421004
 10
0.6281171328
 20
7.6611917701
 10
0.6277003259
 20
3.1257677904
 10
0.6276211851
 20
-1.5062901675
 10
0.6279400493
 20
-6.2036630895
 10
0.6286770314
 20
-10.9559113042
 10
0.6298120184
 20
-15.7734744829
 10
0.6313450104
 20
-20.6563526258
  0
LINE
  5
40C
100
AcDbEntity
  8
0
100
AcDbLine
 62
7
  6
CONTINUOUS
 10
1.2276332914
 20
-2.4825022673
 11
1.2232698575
 21
-5.3181431771
  0
LWPOLYLINE
  5
40D
100
AcDbEntity
  8
0
100
AcDbPolyline
 62
250
  6
CONTINUOUS
 90
49
 70
0
 10
1.775
 20
2.0124611797
 10
1.7751296731
 20
2.0396293097
 10
1.7755120753
 20
2.0660184312
 10
1.7761371501
 20
2.0916252362
 10
1.7769941259
 20
2.1164236353
 10
1.7780729978
 20
2.1404339023
 10
1.7793659369
 20
2.1637224422
 10
1.7808636956
 20
2.1862870575
 10
1.7825570419
 20
2.2081251373
 10
1.7844405438
 20
2.2293023281
 10
1.786506455
 20
2.2498213749
 10
1.7887463223
 20
2.2696754679
 10
1.7911556675
 20
2.2889156953
 10
1.7937268786
 20
2.3075399694
 10
1.7964528378
 20
2.3255469511
 10
1.7993315844
 20
2.3429885438
 10
1.8023567157
 20
2.3598653827
 10
1.8055217817
 20
2.3761737297
 10
1.8088265555
 20
2.3919584922
 10
1.8122689856
 20
2.4072336844
 10
1.8158402065
 20
2.4219821899
 10
1.8195300901
 20
2.4362022122
 10
1.8233343771
 20
2.4498962791
 10
1.8272452039
 20
2.4630598864
 10
1.83124552
 20
2.4756814902
 10
1.8353250661
 20
2.4877490156
 10
1.8394800513
 20
2.499274527
 10
1.8437021495
 20
2.5102833786
 10
1.8479741622
 20
2.5207545132
 10
1.8522995874
 20
2.5307101693
 10
1.8567032653
 20
2.5402394181
 10
1.8611736404
 20
2.5493388973
 10
1.8657133485
 20
2.5580108338
 10
1.8703735174
 20
2.5663488375
 10
1.8751449893
 20
2.5743559892
 10
1.8800333893
 20
2.5820231783
 10
1.8851184127
 20
2.5894193738
 10
1.8903909139
 20
2.5965522371
 10
1.8958617122
 20
2.6033995939
 10
1.9016480039
 20
2.6099755998
 10
1.9077380315
 20
2.6162995522
 10
1.9141494393
 20
2.6223226714
 10
1.9210520627
 20
2.627940294
 10
1.928440947
 20
2.6331966243
 10
1.9363271991
 20
2.6379896783
 10
1.9449114152
 20
2.6419689955
 10
1.9542594105
 20
2.6449764514
 10
1.9642949245
 20
2.647061857
 10
1.975
 20
2.648167025
  0
LWPOLYLINE
  5
40E
100
AcDbEntity
  8
RACCORDO
100
AcDbPolyline
 62
7
  6
CONTINUOUS
 90
13
 70
0
 10
-0.025
 20
-16.0215754896
 10
-0.0280972748
 20
-16.1328057808
 10
-0.0372983848
 20
-16.2431773103
 10
-0.0526033302
 20
-16.3526900781
 10
-0.0740965863
 20
-16.4617319392
 10
-0.1016936778
 20
-16.5699150386
 10
-0.1351411776
 20
-16.6760758112
 10
-0.1745278244
 20
-16.7801850927
 10
-0.2197648796
 20
-16.8822720474
 10
-0.2703327005
 20
-16.9812606035
 10
-0.3260580731
 20
-17.0767920704
 10
-0.3871142114
 20
-17.1692251386
 10
-0.4535011155
 20
-17.2585598083
  0
LINE
  5
40F
100
AcDbEntity
  8
0
100
AcDbLine
 62
250
  6
CONTINUOUS
 10
0.6304080339
 20
-20.6756513783
 11
0.631343015
 21
-20.6563506304
  0
LINE
  5
410
100
AcDbEntity
  8
0
100
AcDbLine
 62
7
  6
CONTINUOUS
 10
2.5516887273
 20
15.5560403212
 11
2.5708892987
 21
15.75
  0
LINE
  5
411
100
AcDbEntity
  8
0
100
AcDbLine
 62
7
  6
CONTINUOUS
 10
20.1983112727
 20
19.5733112727
 11
20.125
 21
19.5
  0
LINE
  5
412
100
AcDbEntity
  8
0
100
AcDbLine
 62
250
  6
CONTINUOUS
 10
21.3756158332
 20
20.7006234486
 11
21.3267301425
 21
20.6517377579
  0
LWPOLYLINE
  5
413
100
AcDbEntity
  8
0
100
AcDbPolyline
 62
7
  6
CONTINUOUS
 90
7
 70
0
 10
3.3715078565
 20
1.4156093973
 10
3.3435148451
 20
1.4002968083
 10
3.3190538636
 20
1.3806767644
 10
3.2998039814
 20
1.3582048182
 10
3.2863248883
 20
1.3333015748
 10
3.2780568945
 20
1.3052219011
 10
3.275
 20
1.2737739203
  0
LINE
  5
414
100
AcDbEntity
  8
0
100
AcDbLine
 62
7
  6
CONTINUOUS
 10
21.5267301425
 20
6.0003050708
 11
21.5248590266
 21
5.9999452037
  0
LINE
  5
415
100
AcDbEntity
  8
0
100
AcDbLine
 62
7
  6
CONTINUOUS
 10
21.3528518231
 20
5.9697675556
 11
21.3267377579
 21
5.9650410175
  0
LINE
  5
416
100
AcDbEntity
  8
0
100
AcDbLine
 62
7
  6
CONTINUOUS
 10
21.5756158332
 20
6.008924937
 11
21.5267301425
 21
6.0003050708
  0
LINE
  5
417
100
AcDbEntity
  8
0
100
AcDbLine
 62
7
  6
CONTINUOUS
 10
21.5248590266
 20
5.9999452037
 11
21.3528518231
 21
5.9697675556
  0
LWPOLYLINE
  5
418
100
AcDbEntity
  8
0
100
AcDbPolyline
 62
7
  6
CONTINUOUS
 90
4
 70
0
 10
3.475
 20
1.4361406616
 10
3.436970589
 20
1.433120085
 10
3.4024732078
 20
1.4263121758
 10
3.3715078565
 20
1.4156093973
  0
LWPOLYLINE
  5
419
100
AcDbEntity
  8
0
100
AcDbPolyline
 62
250
  6
CONTINUOUS
 90
10
 70
0
 10
19.6756210501
 20
2.7658633372
 10
19.6560991071
 20
2.7651207334
 10
19.6365975318
 20
2.7627163489
 10
19.6171163242
 20
2.7586501835
 10
19.5975365789
 20
2.7528984757
 10
19.5779772013
 20
2.7454849871
 10
19.558794908
 20
2.7364810026
 10
19.5401086044
 20
2.7259102837
 10
19.521799385
 20
2.7137490689
 10
19.5038672498
 20
2.699997358
  0
LINE
  5
41A
100
AcDbEntity
  8
0
100
AcDbLine
 62
7
  6
CONTINUOUS
 10
19.175
 20
1.3367997479
 11
18.275
 21
1.3367997479
  0
LINE
  5
41B
100
AcDbEntity
  8
0
100
AcDbLine
 62
7
  6
CONTINUOUS
 10
4.475
 20
1.3367997479
 11
3.575
 21
1.3367997479
  0
LINE
  5
41C
100
AcDbEntity
  8
ASSI
100
AcDbLine
 62
7
  6
CONTINUOUS
 10
-10.6645177505
 20
1.35
 11
-12.425
 21
1.35
  0
LINE
  5
41D
100
AcDbEntity
  8
0
100
AcDbLine
 62
7
  6
CONTINUOUS
 10
19.3532648908
 20
1.4361407659
 11
19.175
 21
1.4361406616
  0
LINE
  5
41E
100
AcDbEntity
  8
0
100
AcDbLine
 62
7
  6
CONTINUOUS
 10
18.275
 20
1.4361406616
 11
17.975
 21
1.4361406616
  0
LINE
  5
41F
100
AcDbEntity
  8
0
100
AcDbLine
 62
7
  6
CONTINUOUS
 10
4.775
 20
1.4361406616
 11
4.475
 21
1.4361406616
  0
LINE
  5
420
100
AcDbEntity
  8
0
100
AcDbLine
 62
7
  6
CONTINUOUS
 10
3.575
 20
1.4361406616
 11
3.475
 21
1.4361406616
  0
LINE
  5
421
100
AcDbEntity
  8
0
100
AcDbLine
 62
250
  6
CONTINUOUS
 10
19.175
 20
1.5707553048
 11
18.275
 21
1.5707553048
  0
LINE
  5
422
100
AcDbEntity
  8
0
100
AcDbLine
 62
250
  6
CONTINUOUS
 10
4.475
 20
1.5707553048
 11
3.575
 21
1.5707553048
  0
LINE
  5
423
100
AcDbEntity
  8
DRAFT
100
AcDbLine
 62
250
  6
CONTINUOUS
 10
-10.670127273
 20
1.5839555569
 11
-12.425
 21
1.5839555569
  0
LINE
  5
424
100
AcDbEntity
  8
DRAFT
100
AcDbLine
 62
7
  6
CONTINUOUS
 10
-8.6162180899
 20
1.65
 11
-10.6570995875
 21
1.65
  0
LINE
  5
425
100
AcDbEntity
  8
DRAFT
100
AcDbLine
 62
7
  6
CONTINUOUS
 10
-12.425
 20
1.65
 11
-13.6337819101
 21
1.65
  0
LINE
  5
426
100
AcDbEntity
  8
DRAFT
100
AcDbLine
 62
250
  6
CONTINUOUS
 10
-12.425
 20
1.8516270492
 11
-10.6729111304
 21
1.8516270492
  0
LINE
  5
427
100
AcDbEntity
  8
0
100
AcDbLine
 62
250
  6
CONTINUOUS
 10
1.575
 20
2.0124611797
 11
1.775
 21
2.0124611797
  0
LINE
  5
428
100
AcDbEntity
  8
0
100
AcDbLine
 62
250
  6
CONTINUOUS
 10
3.275
 20
2.0124611797
 11
3.475
 21
2.0124611797
  0
LINE
  5
429
100
AcDbEntity
  8
0
100
AcDbLine
 62
250
  6
CONTINUOUS
 10
20.975
 20
2.0124611797
 11
21.175
 21
2.0124611797
  0
LINE
  5
42A
100
AcDbEntity
  8
0
100
AcDbLine
 62
250
  6
CONTINUOUS
 10
21.3756158332
 20
-20.7006234486
 11
21.3267301425
 21
-20.6517377579
  0
LINE
  5
42B
100
AcDbEntity
  8
0
100
AcDbLine
 62
7
  6
CONTINUOUS
 10
11.8833064438
 20
-9.2033327681
 11
12.0131226496
 21
-9.3331489739
  0
LWPOLYLINE
  5
42C
100
AcDbEntity
  8
0
100
AcDbPolyline
 62
250
  6
CONTINUOUS
 90
11
 70
0
 10
1.5845590204
 20
-2.1953935067
 10
1.5974393626
 20
-2.2811027224
 10
1.6153857107
 20
-2.363728563
 10
1.6387326135
 20
-2.4425164384
 10
1.6684837174
 20
-2.5152025781
 10
1.7052878626
 20
-2.5829876548
 10
1.748496209
 20
-2.6446709958
 10
1.7971658832
 20
-2.6943868134
 10
1.8509825942
 20
-2.7301798448
 10
1.9102606332
 20
-2.7540053527
 10
1.975
 20
-2.7658633372
  0
LINE
  5
42D
100
AcDbEntity
  8
DRAFT
100
AcDbLine
 62
7
  6
CONTINUOUS
 10
1.625
 20
18.4439596788
 11
1.6442005714
 21
18.25
  0
LINE
  5
42E
100
AcDbEntity
  8
0
100
AcDbLine
 62
7
  6
CONTINUOUS
 10
2.5516887273
 20
18.4439596788
 11
2.5708892987
 21
18.25
  0
LWPOLYLINE
  5
42F
100
AcDbEntity
  8
0
100
AcDbPolyline
 62
7
  6
CONTINUOUS
 90
10
 70
0
 10
3.275
 20
-1.2737739203
 10
3.2780568945
 20
-1.3052219011
 10
3.2863248883
 20
-1.3333015748
 10
3.2998039814
 20
-1.3582048182
 10
3.3190538636
 20
-1.3806767644
 10
3.3435148451
 20
-1.4002968083
 10
3.3715078565
 20
-1.4156093973
 10
3.4024732078
 20
-1.4263121758
 10
3.436970589
 20
-1.433120085
 10
3.475
 20
-1.4361406616
  0
LINE
  5
430
100
AcDbEntity
  8
0
100
AcDbLine
 62
250
  6
CONTINUOUS
 10
3.4729203227
 20
2.1058492446
 11
3.4654405889
 21
2.1953972813
  0
LINE
  5
431
100
AcDbEntity
  8
0
100
AcDbLine
 62
250
  6
CONTINUOUS
 10
3.475
 20
2.0124611797
 11
3.4729203227
 21
2.1058492446
  0
LINE
  5
432
100
AcDbEntity
  8
0
100
AcDbLine
 62
7
  6
CONTINUOUS
 10
2.5516887273
 20
19.5733112727
 11
2.5516887273
 21
18.4439596788
  0
LINE
  5
433
100
AcDbEntity
  8
0
100
AcDbLine
 62
7
  6
CONTINUOUS
 10
2.5516887273
 20
15.5560403212
 11
2.5516887273
 21
12.8795116193
  0
LINE
  5
434
100
AcDbEntity
  8
0
100
AcDbLine
 62
7
  6
CONTINUOUS
 10
2.5516887273
 20
-12.8795116193
 11
2.5516887273
 21
-15.5560403212
  0
LINE
  5
435
100
AcDbEntity
  8
0
100
AcDbLine
 62
7
  6
CONTINUOUS
 10
2.5516887273
 20
-18.4439596788
 11
2.5516887273
 21
-19.5733112727
  0
LINE
  5
436
100
AcDbEntity
  8
0
100
AcDbLine
 62
7
  6
CONTINUOUS
 10
2.5708892987
 20
-18.25
 11
2.5708892987
 21
-15.75
  0
LINE
  5
437
100
AcDbEntity
  8
0
100
AcDbLine
 62
7
  6
CONTINUOUS
 10
2.5708892987
 20
15.75
 11
2.5708892987
 21
18.25
  0
LINE
  5
438
100
AcDbEntity
  8
0
100
AcDbLine
 62
7
  6
CONTINUOUS
 10
2.625
 20
19.5
 11
2.625
 21
12.25
  0
LINE
  5
439
100
AcDbEntity
  8
0
100
AcDbLine
 62
7
  6
CONTINUOUS
 10
2.625
 20
-12.25
 11
2.625
 21
-19.5
  0
LINE
  5
43A
100
AcDbEntity
  8
0
100
AcDbLine
 62
250
  6
CONTINUOUS
 10
3.075
 20
-2.7658633372
 11
3.075
 21
2.7658633372
  0
LINE
  5
43B
100
AcDbEntity
  8
0
100
AcDbLine
 62
7
  6
CONTINUOUS
 10
3.275
 20
2.0108192234
 11
3.275
 21
0.5330137061
  0
LINE
  5
43C
100
AcDbEntity
  8
0
100
AcDbLine
 62
7
  6
CONTINUOUS
 10
3.275
 20
-0.5325526783
 11
3.275
 21
-2.0126082157
  0
LINE
  5
43D
100
AcDbEntity
  8
0
100
AcDbLine
 62
250
  6
CONTINUOUS
 10
3.475
 20
2.0124611797
 11
3.475
 21
1.4361406616
  0
LINE
  5
43E
100
AcDbEntity
  8
0
100
AcDbLine
 62
250
  6
CONTINUOUS
 10
3.475
 20
-1.4361406616
 11
3.475
 21
-2.0124611797
  0
LINE
  5
43F
100
AcDbEntity
  8
0
100
AcDbLine
 62
7
  6
CONTINUOUS
 10
3.575
 20
5.4101534473
 11
3.575
 21
5.2767880241
  0
LINE
  5
440
100
AcDbEntity
  8
0
100
AcDbLine
 62
7
  6
CONTINUOUS
 10
3.575
 20
-5.3423246195
 11
3.575
 21
-5.4101534473
  0
LINE
  5
441
100
AcDbEntity
  8
0
100
AcDbLine
 62
7
  6
CONTINUOUS
 10
3.575
 20
-5.1463624597
 11
3.575
 21
-1.3373515062
  0
LINE
  5
442
100
AcDbEntity
  8
0
100
AcDbLine
 62
7
  6
CONTINUOUS
 10
3.575
 20
1.3373515062
 11
3.575
 21
5.1463624597
  0
LINE
  5
443
100
AcDbEntity
  8
0
100
AcDbLine
 62
250
  6
CONTINUOUS
 10
4.075
 20
6.2761788511
 11
4.075
 21
5.6466672319
  0
LINE
  5
444
100
AcDbEntity
  8
0
100
AcDbLine
 62
250
  6
CONTINUOUS
 10
4.075
 20
-5.6466672319
 11
4.075
 21
-6.2761788511
  0
LINE
  5
445
100
AcDbEntity
  8
0
100
AcDbLine
 62
7
  6
CONTINUOUS
 10
4.475
 20
-5.6885721553
 11
4.475
 21
-1.3373515062
  0
LINE
  5
446
100
AcDbEntity
  8
0
100
AcDbLine
 62
7
  6
CONTINUOUS
 10
4.475
 20
1.3373515062
 11
4.475
 21
5.6885721553
  0
LWPOLYLINE
  5
447
100
AcDbEntity
  8
0
100
AcDbPolyline
 62
250
  6
CONTINUOUS
 90
31
 70
0
 10
3.275
 20
-2.0124611797
 10
3.2747734971
 20
-2.0484202632
 10
3.2740757724
 20
-2.0841153472
 10
3.2728800034
 20
-2.1195372667
 10
3.2711498245
 20
-2.1549099156
 10
3.2688653991
 20
-2.1899839398
 10
3.2660505243
 20
-2.2240408561
 10
3.2627064869
 20
-2.2570043528
 10
3.258837657
 20
-2.2889247692
 10
3.2545232803
 20
-2.3192814007
 10
3.2498280561
 20
-2.3478310866
 10
3.244753594
 20
-2.3748043986
 10
3.2393029934
 20
-2.4003955584
 10
3.2335030218
 20
-2.4246046196
 10
3.2273753039
 20
-2.4474187529
 10
3.2209025927
 20
-2.4690085666
 10
3.2140864063
 20
-2.4894239255
 10
3.2069601281
 20
-2.5085984949
 10
3.1995490614
 20
-2.526526446
 10
3.1919235491
 20
-2.5431250759
 10
3.1840574462
 20
-2.5584680399
 10
3.1758182106
 20
-2.5727735812
 10
3.1672604166
 20
-2.5860665568
 10
3.1583504822
 20
-2.5982900165
 10
3.1487906914
 20
-2.6095020898
 10
3.1385587853
 20
-2.6198325328
 10
3.1276764284
 20
-2.6290546032
 10
3.1158868373
 20
-2.6366369732
 10
3.1031111058
 20
-2.6423326805
 10
3.0894661446
 20
-2.6462077192
 10
3.075
 20
-2.648167025
  0
LWPOLYLINE
  5
448
100
AcDbEntity
  8
0
100
AcDbPolyline
 62
7
  6
CONTINUOUS
 90
10
 70
0
 10
3.275
 20
0.5330928704
 10
3.2727865654
 20
0.4180896127
 10
3.2711264637
 20
0.300719834
 10
3.2700196949
 20
0.1815169251
 10
3.2694662245
 20
0.060751596
 10
3.2694660871
 20
-0.060727273
 10
3.2700193856
 20
-0.1814951393
 10
3.2711261545
 20
-0.3007030511
 10
3.2727863592
 20
-0.4180801596
 10
3.275
 20
-0.5330928704
  0
LINE
  5
449
100
AcDbEntity
  8
0
100
AcDbLine
 62
250
  6
CONTINUOUS
 10
3.4728270044
 20
-2.1068865092
 11
3.475
 21
-2.0124611797
  0
LWPOLYLINE
  5
44A
100
AcDbEntity
  8
0
100
AcDbPolyline
 62
7
  6
CONTINUOUS
 90
10
 70
0
 10
3.575
 20
5.4101534473
 10
3.5843643088
 20
5.5137715116
 10
3.6065121404
 20
5.6156856867
 10
3.641443495
 20
5.7158959727
 10
3.6908059874
 20
5.8145948573
 10
3.7529520028
 20
5.9115898528
 10
3.8229386962
 20
6.0063034963
 10
3.8991184527
 20
6.0985433
 10
3.9831388873
 20
6.1885017516
 10
4.075
 20
6.2761788511
  0
LINE
  5
44B
100
AcDbEntity
  8
DRAFT
100
AcDbLine
 62
7
  6
CONTINUOUS
 10
1.625
 20
-18.4439596788
 11
1.6442005714
 21
-18.25
  0
LINE
  5
44C
100
AcDbEntity
  8
0
100
AcDbLine
 62
7
  6
CONTINUOUS
 10
2.5516887273
 20
-18.4439596788
 11
2.5708892987
 21
-18.25
  0
LINE
  5
44D
100
AcDbEntity
  8
0
100
AcDbLine
 62
7
  6
CONTINUOUS
 10
7.0433475024
 20
19.5
 11
7.0529991146
 21
19.5733112727
  0
LINE
  5
44E
100
AcDbEntity
  8
0
100
AcDbLine
 62
7
  6
CONTINUOUS
 10
4.875
 20
2.5
 11
5.2549732118
 21
4.6549351679
  0
LWPOLYLINE
  5
44F
100
AcDbEntity
  8
0
100
AcDbPolyline
 62
250
  6
CONTINUOUS
 90
4
 70
0
 10
3.4338470994
 20
-2.3666023367
 10
3.4521166973
 20
-2.2835678679
 10
3.4651992368
 20
-2.1972554053
 10
3.4728270044
 20
-2.1068865092
  0
LINE
  5
450
100
AcDbEntity
  8
0
100
AcDbLine
 62
7
  6
CONTINUOUS
 10
11.8833064438
 20
8.0
 11
11.7703412642
 21
7.8870348203
  0
LINE
  5
451
100
AcDbEntity
  8
0
100
AcDbLine
 62
250
  6
CONTINUOUS
 10
11.736639212
 20
6.2995126616
 11
12.0131226496
 21
6.5759960992
  0
LINE
  5
452
100
AcDbEntity
  8
RACCORDO
100
AcDbLine
 62
7
  6
CONTINUOUS
 10
-14.1922197286
 20
-20.0672197286
 11
-14.125
 21
-20.0
  0
LWPOLYLINE
  5
453
100
AcDbEntity
  8
0
100
AcDbPolyline
 62
7
  6
CONTINUOUS
 90
3
 70
0
 10
21.2265883516
 20
6.5321722905
 10
21.1528935235
 20
6.5190265446
 10
21.1267377579
 20
6.5145365013
  0
LINE
  5
454
100
AcDbEntity
  8
0
100
AcDbLine
 62
7
  6
CONTINUOUS
 10
21.3267301425
 20
6.5498005547
 11
21.3756158332
 21
6.5584204209
  0
LINE
  5
455
100
AcDbEntity
  8
0
100
AcDbLine
 62
7
  6
CONTINUOUS
 10
21.3248487869
 20
6.5494987598
 11
21.2482658143
 21
6.5359522767
  0
LINE
  5
456
100
AcDbEntity
  8
0
100
AcDbLine
 62
7
  6
CONTINUOUS
 10
21.2482658143
 20
6.5359522767
 11
21.2265883516
 21
6.5321722905
  0
LINE
  5
457
100
AcDbEntity
  8
0
100
AcDbLine
 62
7
  6
CONTINUOUS
 10
21.3267301425
 20
6.5498005547
 11
21.3248487869
 21
6.5494987598
  0
LWPOLYLINE
  5
458
100
AcDbEntity
  8
0
100
AcDbPolyline
 62
250
  6
CONTINUOUS
 90
16
 70
0
 10
1.975
 20
2.7658633372
 10
1.9240509767
 20
2.7590691508
 10
1.8761108311
 20
2.7438343938
 10
1.8311795633
 20
2.720159066
 10
1.788878699
 20
2.6869515247
 10
1.7495867124
 20
2.6453034126
 10
1.7144390264
 20
2.5984896587
 10
1.6839331751
 20
2.5469822826
 10
1.6575716244
 20
2.4903092648
 10
1.6349971952
 20
2.4303294748
 10
1.6162154876
 20
2.3673760574
 10
1.6012209015
 20
2.3011158678
 10
1.5896394576
 20
2.2324083417
 10
1.5813464962
 20
2.1615399576
 10
1.576466677
 20
2.0882242369
 10
1.575
 20
2.0124611797
  0
LINE
  5
459
100
AcDbEntity
  8
DRAFT
100
AcDbLine
 62
7
  6
CONTINUOUS
 10
-11.625
 20
2.5
 11
-12.425
 21
2.4860359481
  0
LINE
  5
45A
100
AcDbEntity
  8
0
100
AcDbLine
 62
7
  6
CONTINUOUS
 10
4.875
 20
2.5
 11
4.775
 21
2.5
  0
LINE
  5
45B
100
AcDbEntity
  8
0
100
AcDbLine
 62
7
  6
CONTINUOUS
 10
3.575
 20
2.5
 11
4.475
 21
2.5
  0
LINE
  5
45C
100
AcDbEntity
  8
0
100
AcDbLine
 62
7
  6
CONTINUOUS
 10
17.875
 20
2.5
 11
17.975
 21
2.5
  0
LINE
  5
45D
100
AcDbEntity
  8
0
100
AcDbLine
 62
7
  6
CONTINUOUS
 10
18.275
 20
2.5
 11
19.175
 21
2.5
  0
LINE
  5
45E
100
AcDbEntity
  8
0
100
AcDbLine
 62
250
  6
CONTINUOUS
 10
1.975
 20
2.648167025
 11
3.075
 21
2.648167025
  0
LINE
  5
45F
100
AcDbEntity
  8
0
100
AcDbLine
 62
250
  6
CONTINUOUS
 10
19.675
 20
2.648167025
 11
20.775
 21
2.648167025
  0
LINE
  5
460
100
AcDbEntity
  8
DRAFT
100
AcDbLine
 62
250
  6
CONTINUOUS
 10
-11.625
 20
2.7260851936
 11
-10.6709105079
 21
2.7260851936
  0
LINE
  5
461
100
AcDbEntity
  8
0
100
AcDbLine
 62
250
  6
CONTINUOUS
 10
1.975
 20
2.7658633372
 11
3.075
 21
2.7658633372
  0
LINE
  5
462
100
AcDbEntity
  8
0
100
AcDbLine
 62
250
  6
CONTINUOUS
 10
19.6756210501
 20
2.7658633372
 11
20.775
 21
2.7658633372
  0
LINE
  5
463
100
AcDbEntity
  8
DRAFT
100
AcDbLine
 62
7
  6
CONTINUOUS
 10
-10.6303494774
 20
3.5975629308
 11
-11.625
 21
3.5975629308
  0
LINE
  5
464
100
AcDbEntity
  8
DRAFT
100
AcDbLine
 62
7
  6
CONTINUOUS
 10
-13.694142774
 20
4.5705002888
 11
-8.555857226
 21
4.5705002888
  0
LWPOLYLINE
  5
465
100
AcDbEntity
  8
0
100
AcDbPolyline
 62
250
  6
CONTINUOUS
 90
43
 70
0
 10
3.075
 20
2.648167025
 10
3.0820915728
 20
2.6478134317
 10
3.0891440187
 20
2.6467965316
 10
3.0961487138
 20
2.6451184973
 10
3.1030799029
 20
2.6427882638
 10
3.1099470304
 20
2.6398024453
 10
3.1167937835
 20
2.6361417818
 10
3.1236205579
 20
2.631811506
 10
3.1304091258
 20
2.626805495
 10
3.1371735574
 20
2.621083095
 10
3.1439129098
 20
2.6146380094
 10
3.1506077795
 20
2.6074740183
 10
3.1572436823
 20
2.5995646877
 10
3.1638188963
 20
2.5908923936
 10
3.1703137273
 20
2.5814742058
 10
3.1766883495
 20
2.5713381911
 10
3.1829303825
 20
2.5604836872
 10
3.1890344691
 20
2.5489164144
 10
3.1949745271
 20
2.5366772842
 10
3.2007321088
 20
2.5237951673
 10
3.2063123971
 20
2.5102496767
 10
3.211724978
 20
2.4960080822
 10
3.2169625674
 20
2.4810779364
 10
3.2220169048
 20
2.4654582727
 10
3.2268932954
 20
2.4491019191
 10
3.2315846871
 20
2.4320088176
 10
3.2360802547
 20
2.4141848605
 10
3.2403773279
 20
2.3955907928
 10
3.2444651084
 20
2.3762391547
 10
3.2483356529
 20
2.3561237204
 10
3.2519880766
 20
2.3351763151
 10
3.2554113484
 20
2.3134048548
 10
3.2585947908
 20
2.2908078946
 10
3.2615344897
 20
2.2673023843
 10
3.264218292
 20
2.2428900766
 10
3.2666331544
 20
2.2175763447
 10
3.2687703535
 20
2.1912830416
 10
3.2706163558
 20
2.164008038
 10
3.2721569417
 20
2.1357619228
 10
3.2733798204
 20
2.1064854847
 10
3.2742708734
 20
2.0761622899
 10
3.2748154944
 20
2.0448189667
 10
3.275
 20
2.0124611797
  0
LWPOLYLINE
  5
466
100
AcDbEntity
  8
0
100
AcDbPolyline
 62
250
  6
CONTINUOUS
 90
43
 70
0
 10
20.775
 20
2.648167025
 10
20.7820915728
 20
2.6478134317
 10
20.7891440187
 20
2.6467965316
 10
20.7961487138
 20
2.6451184973
 10
20.8030799029
 20
2.6427882638
 10
20.8099470304
 20
2.6398024453
 10
20.8167937835
 20
2.6361417818
 10
20.8236205579
 20
2.631811506
 10
20.8304091258
 20
2.626805495
 10
20.8371735574
 20
2.621083095
 10
20.8439129098
 20
2.6146380094
 10
20.8506077795
 20
2.6074740183
 10
20.8572436823
 20
2.5995646877
 10
20.8638188963
 20
2.5908923936
 10
20.8703137273
 20
2.5814742058
 10
20.8766883495
 20
2.5713381911
 10
20.8829303825
 20
2.5604836872
 10
20.8890344691
 20
2.5489164144
 10
20.8949745271
 20
2.5366772842
 10
20.9007321088
 20
2.5237951673
 10
20.9063123971
 20
2.5102496767
 10
20.911724978
 20
2.4960080822
 10
20.9169625674
 20
2.4810779364
 10
20.9220169048
 20
2.4654582727
 10
20.9268932954
 20
2.4491019191
 10
20.9315846871
 20
2.4320088176
 10
20.9360802547
 20
2.4141848605
 10
20.9403773279
 20
2.3955907928
 10
20.9444651084
 20
2.3762391547
 10
20.9483356529
 20
2.3561237204
 10
20.9519880766
 20
2.3351763151
 10
20.9554113484
 20
2.3134048548
 10
20.9585947908
 20
2.2908078946
 10
20.9615344897
 20
2.2673023843
 10
20.964218292
 20
2.2428900766
 10
20.9666331544
 20
2.2175763447
 10
20.9687703535
 20
2.1912830416
 10
20.9706163558
 20
2.164008038
 10
20.9721569417
 20
2.1357619228
 10
20.9733798204
 20
2.1064854847
 10
20.9742708734
 20
2.0761622899
 10
20.9748154944
 20
2.0448189667
 10
20.975
 20
2.0124611797
  0
LINE
  5
467
100
AcDbEntity
  8
0
100
AcDbLine
 62
7
  6
CONTINUOUS
 10
11.8833064438
 20
-8.0
 11
11.7703412642
 21
-7.8870348203
  0
LINE
  5
468
100
AcDbEntity
  8
0
100
AcDbLine
 62
250
  6
CONTINUOUS
 10
12.0131226496
 20
-6.5759960992
 11
11.736639212
 21
-6.2995126616
  0
LINE
  5
469
100
AcDbEntity
  8
RACCORDO
100
AcDbLine
 62
7
  6
CONTINUOUS
 10
-14.1922197286
 20
20.0672197286
 11
-14.125
 21
20.0
  0
LWPOLYLINE
  5
46A
100
AcDbEntity
  8
0
100
AcDbPolyline
 62
250
  6
CONTINUOUS
 90
7
 70
0
 10
3.3815210892
 20
2.5151891467
 10
3.3447194863
 20
2.5829745587
 10
3.3015138395
 20
2.6446606854
 10
3.2528449839
 20
2.6943794357
 10
3.1990265313
 20
2.7301747792
 10
3.13974487
 20
2.7540027464
 10
3.075
 20
2.7658633372
  0
LINE
  5
46B
100
AcDbEntity
  8
0
100
AcDbLine
 62
7
  6
CONTINUOUS
 10
5.2549732115
 20
-4.6549351665
 11
4.875
 21
-2.5
  0
LWPOLYLINE
  5
46C
100
AcDbEntity
  8
0
100
AcDbPolyline
 62
250
  6
CONTINUOUS
 90
5
 70
0
 10
3.4654405889
 20
2.1953972813
 10
3.4525607986
 20
2.2811052898
 10
3.4346156144
 20
2.363726356
 10
3.4112703738
 20
2.442507394
 10
3.3815210892
 20
2.5151891467
  0
LINE
  5
46D
100
AcDbEntity
  8
0
100
AcDbLine
 62
7
  6
CONTINUOUS
 10
6.627125023
 20
-20.8517301425
 11
6.6268529031
 21
-20.8498455898
  0
LINE
  5
46E
100
AcDbEntity
  8
0
100
AcDbLine
 62
7
  6
CONTINUOUS
 10
6.6331013807
 20
-20.8971250861
 11
6.627125023
 21
-20.8517301425
  0
LINE
  5
46F
100
AcDbEntity
  8
0
100
AcDbLine
 62
7
  6
CONTINUOUS
 10
7.0433475024
 20
-19.5
 11
7.0529991146
 21
-19.5733112727
  0
LINE
  5
470
100
AcDbEntity
  8
0
100
AcDbLine
 62
7
  6
CONTINUOUS
 10
6.6268529031
 20
-20.8498455898
 11
6.6108327044
 21
-20.7279776968
  0
LWPOLYLINE
  5
471
100
AcDbEntity
  8
0
100
AcDbPolyline
 62
7
  6
CONTINUOUS
 90
3
 70
0
 10
6.6108327044
 20
-20.7279776968
 10
6.607656292
 20
-20.7033040376
 10
6.6007955261
 20
-20.6517377579
  0
LINE
  5
472
100
AcDbEntity
  8
0
100
AcDbLine
 62
7
  6
CONTINUOUS
 10
4.775
 20
-3.9312722764
 11
4.775
 21
3.9312722764
  0
LINE
  5
473
100
AcDbEntity
  8
0
100
AcDbLine
 62
7
  6
CONTINUOUS
 10
4.875
 20
-2.5
 11
4.875
 21
2.5
  0
LINE
  5
474
100
AcDbEntity
  8
0
100
AcDbLine
 62
7
  6
CONTINUOUS
 10
5.375
 20
-4.6952277108
 11
5.375
 21
4.6952277133
  0
LINE
  5
475
100
AcDbEntity
  8
0
100
AcDbLine
 62
7
  6
CONTINUOUS
 10
8.3592168972
 20
19.2233112727
 11
8.3495652851
 21
19.15
  0
LINE
  5
476
100
AcDbEntity
  8
0
100
AcDbLine
 62
7
  6
CONTINUOUS
 10
10.175
 20
4.725
 11
10.2128942123
 21
4.773425083
  0
LINE
  5
477
100
AcDbEntity
  8
0
100
AcDbLine
 62
250
  6
CONTINUOUS
 10
12.5361518736
 20
5.5
 11
12.8126353112
 21
5.7764834376
  0
LINE
  5
478
100
AcDbEntity
  8
DRAFT
100
AcDbLine
 62
7
  6
CONTINUOUS
 10
-14.2529281039
 20
-23.4301797403
 11
-14.3227483636
 21
-23.5
  0
LWPOLYLINE
  5
479
100
AcDbEntity
  8
0
100
AcDbPolyline
 62
250
  6
CONTINUOUS
 90
10
 70
0
 10
4.075
 20
5.7764834376
 10
3.9881759291
 20
5.7688919446
 10
3.9039899588
 20
5.7463481279
 10
3.8250000371
 20
5.7095369678
 10
3.7536062336
 20
5.6595769511
 10
3.691977813
 20
5.5979860857
 10
3.6419873235
 20
5.5266357748
 10
3.6051537034
 20
5.4476939589
 10
3.5825961276
 20
5.3635592451
 10
3.575
 20
5.2767880241
  0
LWPOLYLINE
  5
47A
100
AcDbEntity
  8
0
100
AcDbPolyline
 62
250
  6
CONTINUOUS
 90
22
 70
0
 10
9.9373646888
 20
6.2761788511
 10
9.9597438476
 20
6.2770953837
 10
9.9816178299
 20
6.2795162143
 10
10.0029866358
 20
6.2834413428
 10
10.0238768169
 20
6.2888889401
 10
10.0442618215
 20
6.2958408353
 10
10.0640619948
 20
6.3042425166
 10
10.0833781837
 20
6.3141434202
 10
10.1021095413
 20
6.3254941099
 10
10.1198738722
 20
6.338091765
 10
10.1366275833
 20
6.3519538547
 10
10.1524142676
 20
6.3670629097
 10
10.1669825089
 20
6.3831637016
 10
10.1802741398
 20
6.4001444209
 10
10.1923473276
 20
6.4181168771
 10
10.203125159
 20
6.4371612695
 10
10.2127025106
 20
6.4572340565
 10
10.2209845057
 20
6.4783787798
 10
10.2276096003
 20
6.5008062633
 10
10.2324572797
 20
6.5245867817
 10
10.2356480586
 20
6.5496500604
 10
10.2371819369
 20
6.5759960992
  0
LWPOLYLINE
  5
47B
100
AcDbEntity
  8
0
100
AcDbPolyline
 62
250
  6
CONTINUOUS
 90
22
 70
0
 10
9.9373646888
 20
5.7764834376
 10
9.9965214516
 20
5.778718928
 10
10.0549140393
 20
5.7852579664
 10
10.1122382453
 20
5.7959683746
 10
10.1679931981
 20
5.8106333845
 10
10.222134653
 20
5.8291174811
 10
10.2750241837
 20
5.851519869
 10
10.3266380443
 20
5.8779195019
 10
10.3763961525
 20
5.9081122826
 10
10.423811339
 20
5.9418290467
 10
10.4685845559
 20
5.9788423455
 10
10.510539761
 20
6.0189907814
 10
10.5494302403
 20
6.0620250078
 10
10.5848538021
 20
6.1074210242
 10
10.616885914
 20
6.1551899894
 10
10.6458468272
 20
6.2059823328
 10
10.671362605
 20
6.259542333
 10
10.6931514879
 20
6.3157476699
 10
10.7112181345
 20
6.3756228715
 10
10.725019792
 20
6.4393834882
 10
10.7337825504
 20
6.506309028
 10
10.7368773504
 20
6.5759960992
  0
LINE
  5
47C
100
AcDbEntity
  8
0
100
AcDbLine
 62
7
  6
CONTINUOUS
 10
17.175
 20
4.725
 11
12.575
 21
4.725
  0
LINE
  5
47D
100
AcDbEntity
  8
0
100
AcDbLine
 62
7
  6
CONTINUOUS
 10
10.175
 20
4.725
 11
5.575
 21
4.725
  0
LINE
  5
47E
100
AcDbEntity
  8
0
100
AcDbLine
 62
7
  6
CONTINUOUS
 10
4.475
 20
4.7469913495
 11
8.875
 21
4.7469913495
  0
LINE
  5
47F
100
AcDbEntity
  8
0
100
AcDbLine
 62
7
  6
CONTINUOUS
 10
13.875
 20
4.7469913495
 11
18.275
 21
4.7469913495
  0
LINE
  5
480
100
AcDbEntity
  8
0
100
AcDbLine
 62
7
  6
CONTINUOUS
 10
8.9631205876
 20
4.773425083
 11
10.2128942123
 21
4.773425083
  0
LINE
  5
481
100
AcDbEntity
  8
0
100
AcDbLine
 62
7
  6
CONTINUOUS
 10
12.5371057877
 20
4.773425083
 11
13.7868794124
 21
4.773425083
  0
LINE
  5
482
100
AcDbEntity
  8
DRAFT
100
AcDbLine
 62
7
  6
CONTINUOUS
 10
-13.7214193998
 20
4.9892182871
 11
-8.5285806002
 21
4.9892182871
  0
LINE
  5
483
100
AcDbEntity
  8
0
100
AcDbLine
 62
7
  6
CONTINUOUS
 10
8.9692573506
 20
5.125
 11
10.6266685226
 21
5.125
  0
LINE
  5
484
100
AcDbEntity
  8
0
100
AcDbLine
 62
7
  6
CONTINUOUS
 10
12.1233314774
 20
5.125
 11
13.7807426494
 21
5.125
  0
LINE
  5
485
100
AcDbEntity
  8
0
100
AcDbLine
 62
7
  6
CONTINUOUS
 10
13.7807426494
 20
5.5
 11
12.5361518736
 21
5.5
  0
LINE
  5
486
100
AcDbEntity
  8
0
100
AcDbLine
 62
7
  6
CONTINUOUS
 10
10.2138481264
 20
5.5
 11
8.9692573506
 21
5.5
  0
LINE
  5
487
100
AcDbEntity
  8
0
100
AcDbLine
 62
7
  6
CONTINUOUS
 10
18.675
 20
5.6466672319
 11
18.275
 21
5.6466672319
  0
LINE
  5
488
100
AcDbEntity
  8
0
100
AcDbLine
 62
7
  6
CONTINUOUS
 10
4.475
 20
5.6466672319
 11
4.075
 21
5.6466672319
  0
LINE
  5
489
100
AcDbEntity
  8
0
100
AcDbLine
 62
7
  6
CONTINUOUS
 10
18.275
 20
5.6885721553
 11
13.875
 21
5.6885721553
  0
LINE
  5
48A
100
AcDbEntity
  8
0
100
AcDbLine
 62
7
  6
CONTINUOUS
 10
8.875
 20
5.6885721553
 11
4.475
 21
5.6885721553
  0
LINE
  5
48B
100
AcDbEntity
  8
0
100
AcDbLine
 62
250
  6
CONTINUOUS
 10
4.075
 20
5.7764834376
 11
9.9373646888
 21
5.7764834376
  0
LINE
  5
48C
100
AcDbEntity
  8
0
100
AcDbLine
 62
250
  6
CONTINUOUS
 10
12.8126353112
 20
5.7764834376
 11
18.675
 21
5.7764834376
  0
LINE
  5
48D
100
AcDbEntity
  8
0
100
AcDbLine
 62
250
  6
CONTINUOUS
 10
4.075
 20
6.2761788511
 11
9.9373646888
 21
6.2761788511
  0
LINE
  5
48E
100
AcDbEntity
  8
0
100
AcDbLine
 62
250
  6
CONTINUOUS
 10
12.8126353112
 20
6.2761788511
 11
18.675
 21
6.2761788511
  0
LINE
  5
48F
100
AcDbEntity
  8
0
100
AcDbLine
 62
250
  6
CONTINUOUS
 10
10.7368773504
 20
6.5759960992
 11
10.2371819369
 21
6.5759960992
  0
LINE
  5
490
100
AcDbEntity
  8
0
100
AcDbLine
 62
250
  6
CONTINUOUS
 10
12.0131226496
 20
6.5759960992
 11
12.5128180631
 21
6.5759960992
  0
LINE
  5
491
100
AcDbEntity
  8
0
100
AcDbLine
 62
7
  6
CONTINUOUS
 10
1.2232698575
 20
6.0003050708
 11
1.2251512131
 21
6.0000032759
  0
LINE
  5
492
100
AcDbEntity
  8
0
100
AcDbLine
 62
7
  6
CONTINUOUS
 10
1.3971064765
 20
5.9695310607
 11
1.4232622421
 21
5.9650410175
  0
LWPOLYLINE
  5
493
100
AcDbEntity
  8
0
100
AcDbPolyline
 62
7
  6
CONTINUOUS
 90
3
 70
0
 10
1.5234015809
 20
6.5321151948
 10
1.5971481769
 20
6.5192630395
 10
1.6232622421
 20
6.5145365013
  0
LINE
  5
494
100
AcDbEntity
  8
0
100
AcDbLine
 62
7
  6
CONTINUOUS
 10
1.1743841668
 20
6.008924937
 11
1.2232698575
 21
6.0003050708
  0
LINE
  5
495
100
AcDbEntity
  8
0
100
AcDbLine
 62
7
  6
CONTINUOUS
 10
1.4232698575
 20
6.5498005547
 11
1.3743841668
 21
6.5584204209
  0
LINE
  5
496
100
AcDbEntity
  8
0
100
AcDbLine
 62
7
  6
CONTINUOUS
 10
1.4251409734
 20
6.5494406876
 11
1.5017385977
 21
6.5359772985
  0
LINE
  5
497
100
AcDbEntity
  8
0
100
AcDbLine
 62
7
  6
CONTINUOUS
 10
1.5017385977
 20
6.5359772985
 11
1.5234015809
 21
6.5321151948
  0
LINE
  5
498
100
AcDbEntity
  8
0
100
AcDbLine
 62
7
  6
CONTINUOUS
 10
1.2251512131
 20
6.0000032759
 11
1.3971064765
 21
5.9695310607
  0
LINE
  5
499
100
AcDbEntity
  8
0
100
AcDbLine
 62
7
  6
CONTINUOUS
 10
1.4232698575
 20
6.5498005547
 11
1.4251409734
 21
6.5494406876
  0
LINE
  5
49A
100
AcDbEntity
  8
0
100
AcDbLine
 62
250
  6
CONTINUOUS
 10
12.8126353112
 20
-5.7764834376
 11
12.5361518736
 21
-5.5
  0
LINE
  5
49B
100
AcDbEntity
  8
DRAFT
100
AcDbLine
 62
7
  6
CONTINUOUS
 10
-14.2529281039
 20
23.4301797403
 11
-14.3227483636
 21
23.5
  0
LINE
  5
49C
100
AcDbEntity
  8
0
100
AcDbLine
 62
7
  6
CONTINUOUS
 10
10.175
 20
-4.725
 11
10.2128942123
 21
-4.773425083
  0
LINE
  5
49D
100
AcDbEntity
  8
0
100
AcDbLine
 62
7
  6
CONTINUOUS
 10
8.3592168972
 20
-19.2233112727
 11
8.3495652851
 21
-19.15
  0
LINE
  5
49E
100
AcDbEntity
  8
0
100
AcDbLine
 62
7
  6
CONTINUOUS
 10
8.675
 20
-20.35
 11
8.6690236423
 21
-20.3046050564
  0
LINE
  5
49F
100
AcDbEntity
  8
0
100
AcDbLine
 62
7
  6
CONTINUOUS
 10
8.6687987318
 20
-20.3027142885
 11
8.6485929552
 21
-20.15
  0
LINE
  5
4A0
100
AcDbEntity
  8
0
100
AcDbLine
 62
7
  6
CONTINUOUS
 10
8.6690236423
 20
-20.3046050564
 11
8.6687987318
 21
-20.3027142885
  0
LINE
  5
4A1
100
AcDbEntity
  8
0
100
AcDbLine
 62
7
  6
CONTINUOUS
 10
8.9692573506
 20
-5.125
 11
8.9631205876
 21
-4.773425083
  0
LINE
  5
4A2
100
AcDbEntity
  8
0
100
AcDbLine
 62
7
  6
CONTINUOUS
 10
8.875
 20
5.6885721553
 11
8.875
 21
4.7469913495
  0
LINE
  5
4A3
100
AcDbEntity
  8
0
100
AcDbLine
 62
7
  6
CONTINUOUS
 10
8.875
 20
-4.7469913495
 11
8.875
 21
-5.6885721553
  0
LINE
  5
4A4
100
AcDbEntity
  8
0
100
AcDbLine
 62
7
  6
CONTINUOUS
 10
8.9631205876
 20
4.773425083
 11
8.9692573506
 21
5.125
  0
LINE
  5
4A5
100
AcDbEntity
  8
0
100
AcDbLine
 62
7
  6
CONTINUOUS
 10
1.633422946
 20
-12.3798162058
 11
1.6983112727
 21
-12.25
  0
LINE
  5
4A6
100
AcDbEntity
  8
0
100
AcDbLine
 62
7
  6
CONTINUOUS
 10
2.625
 20
-12.25
 11
2.5601116733
 21
-12.3798162058
  0
LINE
  5
4A7
100
AcDbEntity
  8
RACCORDO
100
AcDbLine
 62
250
  6
CONTINUOUS
 10
-22.225
 20
-16.0215754898
 11
-22.1551797403
 21
-15.9973709177
  0
LINE
  5
4A8
100
AcDbEntity
  8
DRAFT
100
AcDbLine
 62
7
  6
CONTINUOUS
 10
-21.1132045161
 20
-16.408165363
 11
-21.1830247758
 21
-16.4319772848
  0
LINE
  5
4A9
100
AcDbEntity
  8
0
100
AcDbLine
 62
7
  6
CONTINUOUS
 10
13.875
 20
-4.7469913495
 11
13.7868794124
 21
-4.773425083
  0
LINE
  5
4AA
100
AcDbEntity
  8
0
100
AcDbLine
 62
250
  6
CONTINUOUS
 10
11.736639212
 20
6.8876439933
 11
11.013360788
 21
6.8876439933
  0
LINE
  5
4AB
100
AcDbEntity
  8
0
100
AcDbLine
 62
250
  6
CONTINUOUS
 10
11.7703412642
 20
7.8870348203
 11
10.9796587358
 21
7.8870348203
  0
LINE
  5
4AC
100
AcDbEntity
  8
0
100
AcDbLine
 62
7
  6
CONTINUOUS
 10
11.8833064438
 20
8.0
 11
10.8666935562
 21
8.0
  0
LWPOLYLINE
  5
4AD
100
AcDbEntity
  8
0
100
AcDbPolyline
 62
250
  6
CONTINUOUS
 90
10
 70
0
 10
18.675
 20
5.7764834376
 10
18.7618240709
 20
5.7688919446
 10
18.8460100411
 20
5.7463481279
 10
18.9249999628
 20
5.7095369678
 10
18.9963937663
 20
5.6595769512
 10
19.0580221869
 20
5.5979860858
 10
19.1080126765
 20
5.5266357749
 10
19.1448462966
 20
5.447693959
 10
19.1674038724
 20
5.3635592452
 10
19.175
 20
5.2767880241
  0
LINE
  5
4AE
100
AcDbEntity
  8
0
100
AcDbLine
 62
7
  6
CONTINUOUS
 10
13.875
 20
4.7469913495
 11
13.7868794124
 21
4.773425083
  0
LINE
  5
4AF
100
AcDbEntity
  8
DRAFT
100
AcDbLine
 62
7
  6
CONTINUOUS
 10
-21.1132045161
 20
16.408165363
 11
-21.1830247758
 21
16.4319772848
  0
LINE
  5
4B0
100
AcDbEntity
  8
RACCORDO
100
AcDbLine
 62
250
  6
CONTINUOUS
 10
-22.1551797403
 20
15.9973709177
 11
-22.225
 21
16.0215754898
  0
LWPOLYLINE
  5
4B1
100
AcDbEntity
  8
0
100
AcDbPolyline
 62
7
  6
CONTINUOUS
 90
7
 70
0
 10
19.475
 20
1.4120868032
 10
19.4567060267
 20
1.4191532616
 10
19.4376141646
 20
1.4249647652
 10
19.4177244138
 20
1.4295495647
 10
19.3970367741
 20
1.4329302463
 10
19.3755512457
 20
1.4351236364
 10
19.3532678286
 20
1.4361407308
  0
LINE
  5
4B2
100
AcDbEntity
  8
0
100
AcDbLine
 62
7
  6
CONTINUOUS
 10
1.633422946
 20
12.3798162058
 11
1.6983112727
 21
12.25
  0
LINE
  5
4B3
100
AcDbEntity
  8
0
100
AcDbLine
 62
7
  6
CONTINUOUS
 10
2.625
 20
12.25
 11
2.5601116733
 21
12.3798162058
  0
LWPOLYLINE
  5
4B4
100
AcDbEntity
  8
0
100
AcDbPolyline
 62
250
  6
CONTINUOUS
 90
22
 70
0
 10
10.2371819369
 20
-6.5759960992
 10
10.2362163014
 20
-6.5533475755
 10
10.2337526351
 20
-6.5312833331
 10
10.2297909382
 20
-6.5098033722
 10
10.224311261
 20
-6.4889049437
 10
10.2173335531
 20
-6.4685907967
 10
10.2089176633
 20
-6.4488691781
 10
10.1990233867
 20
-6.4296249101
 10
10.1876909283
 20
-6.4109731706
 10
10.1751007521
 20
-6.3932677396
 10
10.1612291108
 20
-6.3765377062
 10
10.1460997516
 20
-6.3607539814
 10
10.1299643806
 20
-6.3461830786
 10
10.1129221735
 20
-6.3328813055
 10
10.0948739546
 20
-6.3207923543
 10
10.0757739025
 20
-6.3100138158
 10
10.0556670678
 20
-6.3004625746
 10
10.0345084
 20
-6.292221746
 10
10.0121169255
 20
-6.2856382658
 10
9.9884323199
 20
-6.2808277792
 10
9.9635149077
 20
-6.277674641
 10
9.9373646888
 20
-6.2761788511
  0
LWPOLYLINE
  5
4B5
100
AcDbEntity
  8
0
100
AcDbPolyline
 62
250
  6
CONTINUOUS
 90
22
 70
0
 10
10.7368773504
 20
-6.5759960992
 10
10.7345872586
 20
-6.5161155229
 10
10.7279178244
 20
-6.4572148437
 10
10.7170488333
 20
-6.3996013581
 10
10.7022613555
 20
-6.3438295831
 10
10.6837253834
 20
-6.2898733923
 10
10.6613054993
 20
-6.2371914284
 10
10.6349127186
 20
-6.1857771042
 10
10.6047663458
 20
-6.1362323924
 10
10.5710829156
 20
-6.0889650824
 10
10.5340515548
 20
-6.0442519458
 10
10.4938434212
 20
-6.0023097475
 10
10.4507153073
 20
-5.963409937
 10
10.4051639799
 20
-5.9279460572
 10
10.3571938611
 20
-5.895870492
 10
10.3062438923
 20
-5.8669220454
 10
10.2525906046
 20
-5.8414693793
 10
10.196352083
 20
-5.8197755274
 10
10.1365716425
 20
-5.8018408714
 10
10.0730623632
 20
-5.7881822096
 10
10.0065267458
 20
-5.7795320662
 10
9.9373646888
 20
-5.7764834376
  0
LINE
  5
4B6
100
AcDbEntity
  8
0
100
AcDbLine
 62
7
  6
CONTINUOUS
 10
8.9692573506
 20
5.5
 11
8.9692573506
 21
5.125
  0
LINE
  5
4B7
100
AcDbEntity
  8
0
100
AcDbLine
 62
7
  6
CONTINUOUS
 10
8.9692573506
 20
-5.125
 11
8.9692573506
 21
-5.5
  0
LINE
  5
4B8
100
AcDbEntity
  8
0
100
AcDbLine
 62
7
  6
CONTINUOUS
 10
9.875
 20
-20.9006158332
 11
9.875
 21
-21.2971250861
  0
LINE
  5
4B9
100
AcDbEntity
  8
0
100
AcDbLine
 62
250
  6
CONTINUOUS
 10
9.9373646888
 20
-5.7764834376
 11
9.9373646888
 21
-6.2761788511
  0
LINE
  5
4BA
100
AcDbEntity
  8
0
100
AcDbLine
 62
250
  6
CONTINUOUS
 10
9.9373646888
 20
5.7764834376
 11
9.9373646888
 21
6.2761788511
  0
LINE
  5
4BB
100
AcDbEntity
  8
0
100
AcDbLine
 62
250
  6
CONTINUOUS
 10
10.2371819369
 20
-9.35
 11
10.2371819369
 21
-6.5759960992
  0
LINE
  5
4BC
100
AcDbEntity
  8
0
100
AcDbLine
 62
250
  6
CONTINUOUS
 10
10.2371819369
 20
6.5759960992
 11
10.2371819369
 21
12.4828443874
  0
LINE
  5
4BD
100
AcDbEntity
  8
0
100
AcDbLine
 62
7
  6
CONTINUOUS
 10
10.625
 20
-17.4441857446
 11
10.625
 21
-16.2534688087
  0
LINE
  5
4BE
100
AcDbEntity
  8
0
100
AcDbLine
 62
250
  6
CONTINUOUS
 10
10.7368773504
 20
-9.3331489739
 11
10.7368773504
 21
-6.5759960992
  0
LINE
  5
4BF
100
AcDbEntity
  8
0
100
AcDbLine
 62
250
  6
CONTINUOUS
 10
10.7368773504
 20
6.5759960992
 11
10.7368773504
 21
11.9831489739
  0
LINE
  5
4C0
100
AcDbEntity
  8
0
100
AcDbLine
 62
7
  6
CONTINUOUS
 10
10.8666935562
 20
10.8876439933
 11
10.8666935562
 21
8.0
  0
LINE
  5
4C1
100
AcDbEntity
  8
0
100
AcDbLine
 62
7
  6
CONTINUOUS
 10
10.8666935562
 20
-8.0
 11
10.8666935562
 21
-9.2033327681
  0
LINE
  5
4C2
100
AcDbEntity
  8
0
100
AcDbLine
 62
7
  6
CONTINUOUS
 10
11.013360788
 20
6.8876439933
 11
11.013360788
 21
6.2995126616
  0
LINE
  5
4C3
100
AcDbEntity
  8
0
100
AcDbLine
 62
7
  6
CONTINUOUS
 10
11.013360788
 20
-6.2995126616
 11
11.013360788
 21
-6.8876439933
  0
LINE
  5
4C4
100
AcDbEntity
  8
0
100
AcDbLine
 62
7
  6
CONTINUOUS
 10
13.875
 20
5.6885721553
 11
13.7807426494
 21
5.5
  0
LINE
  5
4C5
100
AcDbEntity
  8
0
100
AcDbLine
 62
7
  6
CONTINUOUS
 10
8.875
 20
-5.6885721553
 11
8.9692573506
 21
-5.5
  0
LWPOLYLINE
  5
4C6
100
AcDbEntity
  8
RACCORDO
100
AcDbPolyline
 62
7
  6
CONTINUOUS
 90
13
 70
0
 10
-0.5244796213
 20
-17.2358250037
 10
-0.4579143246
 20
-17.1464162131
 10
-0.3966939565
 20
-17.0538984507
 10
-0.340818517
 20
-16.9582717164
 10
-0.2901142878
 20
-16.8591761558
 10
-0.2447549872
 20
-16.7569716232
 10
-0.2052617704
 20
-16.6527376827
 10
-0.1717236253
 20
-16.5464454731
 10
-0.1440515641
 20
-16.4381238555
 10
-0.1224997777
 20
-16.3289389765
 10
-0.1071529968
 20
-16.2192795517
 10
-0.0979264908
 20
-16.1087568655
 10
-0.0948202597
 20
-15.9973709179
  0
LWPOLYLINE
  5
4C7
100
AcDbEntity
  8
RACCORDO
100
AcDbPolyline
 62
7
  6
CONTINUOUS
 90
13
 70
0
 10
-0.4056985766
 20
-17.3594295692
 10
-0.3389791379
 20
-17.2699643857
 10
-0.2776154898
 20
-17.1773782886
 10
-0.2216076323
 20
-17.081671278
 10
-0.1707808618
 20
-16.9824822171
 10
-0.125309882
 20
-16.8801722426
 10
-0.0857188032
 20
-16.7758247651
 10
-0.0520970874
 20
-16.6694105511
 10
-0.0243552728
 20
-16.5609588341
 10
-0.0027490842
 20
-16.4516407259
 10
0.0126362366
 20
-16.3418465971
 10
0.0218859314
 20
-16.2311860772
 10
0.025
 20
-16.119659166
  0
LINE
  5
4C8
100
AcDbEntity
  8
RACCORDO
100
AcDbLine
 62
7
  6
CONTINUOUS
 10
-7.1922197286
 20
-20.0672197286
 11
-7.125
 21
-20.0
  0
LWPOLYLINE
  5
4C9
100
AcDbEntity
  8
0
100
AcDbPolyline
 62
250
  6
CONTINUOUS
 90
10
 70
0
 10
19.5038672498
 20
2.699997358
 10
19.5004837531
 20
2.6971949433
 10
19.4971448367
 20
2.6943643128
 10
19.4938505005
 20
2.6915054665
 10
19.4906015032
 20
2.6886174587
 10
19.4873970861
 20
2.6857012352
 10
19.4842349734
 20
2.6827596335
 10
19.4811144064
 20
2.6797935997
 10
19.4780361438
 20
2.6768021878
 10
19.4750001856
 20
2.6737853978
  0
LWPOLYLINE
  5
4CA
100
AcDbEntity
  8
0
100
AcDbPolyline
 62
7
  6
CONTINUOUS
 90
7
 70
0
 10
19.3784921435
 20
-1.4156093973
 10
19.4064851549
 20
-1.4002968083
 10
19.4309461364
 20
-1.3806767644
 10
19.4501960186
 20
-1.3582048182
 10
19.4636751117
 20
-1.3333015748
 10
19.4719431055
 20
-1.3052219011
 10
19.475
 20
-1.2737739203
  0
LINE
  5
4CB
100
AcDbEntity
  8
DRAFT
100
AcDbLine
 62
7
  6
CONTINUOUS
 10
-17.771625985
 20
-20.0
 11
-17.8373016331
 21
-20.0349074712
  0
LINE
  5
4CC
100
AcDbEntity
  8
DRAFT
100
AcDbLine
 62
7
  6
CONTINUOUS
 10
-17.8932063485
 20
-21.1374937549
 11
-17.9459092915
 21
-21.1650925288
  0
LINE
  5
4CD
100
AcDbEntity
  8
RACCORDO
100
AcDbLine
 62
250
  6
CONTINUOUS
 10
-21.7964988851
 20
-17.2585598075
 11
-21.7255203781
 21
-17.2358250044
  0
LINE
  5
4CE
100
AcDbEntity
  8
0
100
AcDbLine
 62
7
  6
CONTINUOUS
 10
-8.909065
 20
9.574954
 11
-9.279084
 21
9.574958
  0
LINE
  5
4CF
100
AcDbEntity
  8
0
100
AcDbLine
 62
7
  6
CONTINUOUS
 10
-10.713768
 20
9.574954
 11
-11.083782
 21
9.574954
  0
LINE
  5
4D0
100
AcDbEntity
  8
0
100
AcDbLine
 62
7
  6
CONTINUOUS
 10
-12.153443
 20
9.574954
 11
-12.523457
 21
9.574954
  0
LINE
  5
4D1
100
AcDbEntity
  8
0
100
AcDbLine
 62
7
  6
CONTINUOUS
 10
-8.292372
 20
9.574958
 11
-8.662391
 21
9.574958
  0
LINE
  5
4D2
100
AcDbEntity
  8
0
100
AcDbLine
 62
7
  6
CONTINUOUS
 10
-7.181827
 20
9.574963
 11
-7.59859
 21
9.574958
  0
LINE
  5
4D3
100
AcDbEntity
  8
0
100
AcDbLine
 62
7
  6
CONTINUOUS
 10
-10.09708
 20
9.574958
 11
-10.467094
 21
9.574954
  0
LINE
  5
4D4
100
AcDbEntity
  8
0
100
AcDbLine
 62
7
  6
CONTINUOUS
 10
-11.433612
 20
9.574958
 11
-11.803617
 21
9.574954
  0
LINE
  5
4D5
100
AcDbEntity
  8
0
100
AcDbLine
 62
7
  6
CONTINUOUS
 10
-12.893461
 20
9.574954
 11
-13.263475
 21
9.574949
  0
LINE
  5
4D6
100
AcDbEntity
  8
0
100
AcDbLine
 62
7
  6
CONTINUOUS
 10
-14.104148
 20
9.574954
 11
-14.474175
 21
9.574949
  0
LINE
  5
4D7
100
AcDbEntity
  8
0
100
AcDbLine
 62
7
  6
CONTINUOUS
 10
-9.395893
 20
9.938789
 11
-9.980266
 21
9.938789
  0
LINE
  5
4D8
100
AcDbEntity
  8
0
100
AcDbLine
 62
7
  6
CONTINUOUS
 10
-7.96939
 20
10.290302
 11
-8.292331
 21
10.290307
  0
LINE
  5
4D9
100
AcDbEntity
  8
0
100
AcDbLine
 62
7
  6
CONTINUOUS
 10
-9.867402
 20
10.290302
 11
-9.508761
 21
10.290302
  0
LINE
  5
4DA
100
AcDbEntity
  8
0
100
AcDbLine
 62
7
  6
CONTINUOUS
 10
-8.297474
 20
10.632571
 11
-7.847301
 21
10.632571
  0
LINE
  5
4DB
100
AcDbEntity
  8
0
100
AcDbLine
 62
250
  6
CONTINUOUS
 10
11.8833064438
 20
10.8876439933
 11
10.8666935562
 21
10.8876439933
  0
LINE
  5
4DC
100
AcDbEntity
  8
0
100
AcDbLine
 62
7
  6
CONTINUOUS
 10
-7.847301
 20
11.082778
 11
-8.297478
 21
11.082778
  0
LINE
  5
4DD
100
AcDbEntity
  8
RACCORDO
100
AcDbLine
 62
250
  6
CONTINUOUS
 10
-21.7255203781
 20
17.2358250044
 11
-21.7964988851
 21
17.2585598076
  0
LINE
  5
4DE
100
AcDbEntity
  8
DRAFT
100
AcDbLine
 62
7
  6
CONTINUOUS
 10
-17.8932063485
 20
21.1374937549
 11
-17.9459092915
 21
21.1650925288
  0
LINE
  5
4DF
100
AcDbEntity
  8
DRAFT
100
AcDbLine
 62
7
  6
CONTINUOUS
 10
-17.771625985
 20
20.0
 11
-17.8373016331
 21
20.0349074712
  0
LINE
  5
4E0
100
AcDbEntity
  8
RACCORDO
100
AcDbLine
 62
7
  6
CONTINUOUS
 10
-7.1922197286
 20
20.0672197286
 11
-7.125
 21
20.0
  0
LWPOLYLINE
  5
4E1
100
AcDbEntity
  8
RACCORDO
100
AcDbPolyline
 62
7
  6
CONTINUOUS
 90
13
 70
0
 10
-0.4535011155
 20
17.2585598083
 10
-0.3871142114
 20
17.1692251386
 10
-0.3260580731
 20
17.0767920704
 10
-0.2703327005
 20
16.9812606035
 10
-0.2197648796
 20
16.8822720474
 10
-0.1745278244
 20
16.7801850927
 10
-0.1351411776
 20
16.6760758112
 10
-0.1016936778
 20
16.5699150386
 10
-0.0740965863
 20
16.4617319392
 10
-0.0526033302
 20
16.3526900781
 10
-0.0372983848
 20
16.2431773103
 10
-0.0280972748
 20
16.1328057808
 10
-0.025
 20
16.0215754896
  0
LINE
  5
4E2
100
AcDbEntity
  8
0
100
AcDbLine
 62
7
  6
CONTINUOUS
 10
13.875
 20
-5.6885721553
 11
13.7807426494
 21
-5.5
  0
LINE
  5
4E3
100
AcDbEntity
  8
0
100
AcDbLine
 62
7
  6
CONTINUOUS
 10
8.875
 20
5.6885721553
 11
8.9692573506
 21
5.5
  0
LWPOLYLINE
  5
4E4
100
AcDbEntity
  8
0
100
AcDbPolyline
 62
250
  6
CONTINUOUS
 90
22
 70
0
 10
12.5128180631
 20
6.5759960992
 10
12.5137836986
 20
6.5533475755
 10
12.5162473649
 20
6.5312833331
 10
12.5202090618
 20
6.5098033722
 10
12.525688739
 20
6.4889049437
 10
12.5326664469
 20
6.4685907967
 10
12.5410823367
 20
6.4488691781
 10
12.5509766133
 20
6.4296249101
 10
12.5623090717
 20
6.4109731706
 10
12.5748992479
 20
6.3932677396
 10
12.5887708892
 20
6.3765377062
 10
12.6039002484
 20
6.3607539814
 10
12.6200356194
 20
6.3461830786
 10
12.6370778265
 20
6.3328813055
 10
12.6551260454
 20
6.3207923543
 10
12.6742260975
 20
6.3100138158
 10
12.6943329322
 20
6.3004625746
 10
12.7154916
 20
6.292221746
 10
12.7378830745
 20
6.2856382658
 10
12.7615676801
 20
6.2808277792
 10
12.7864850923
 20
6.277674641
 10
12.8126353112
 20
6.2761788511
  0
LWPOLYLINE
  5
4E5
100
AcDbEntity
  8
0
100
AcDbPolyline
 62
250
  6
CONTINUOUS
 90
22
 70
0
 10
12.0131226496
 20
6.5759960992
 10
12.0154127414
 20
6.5161155229
 10
12.0220821756
 20
6.4572148437
 10
12.0329511667
 20
6.3996013581
 10
12.0477386445
 20
6.3438295831
 10
12.0662746166
 20
6.2898733923
 10
12.0886945007
 20
6.2371914284
 10
12.1150872814
 20
6.1857771042
 10
12.1452336542
 20
6.1362323924
 10
12.1789170844
 20
6.0889650824
 10
12.2159484452
 20
6.0442519458
 10
12.2561565788
 20
6.0023097475
 10
12.2992846927
 20
5.963409937
 10
12.3448360201
 20
5.9279460572
 10
12.3928061389
 20
5.895870492
 10
12.4437561077
 20
5.8669220454
 10
12.4974093954
 20
5.8414693793
 10
12.553647917
 20
5.8197755274
 10
12.6134283575
 20
5.8018408714
 10
12.6769376368
 20
5.7881822096
 10
12.7434732542
 20
5.7795320662
 10
12.8126353112
 20
5.7764834376
  0
LINE
  5
4E6
100
AcDbEntity
  8
0
100
AcDbLine
 62
7
  6
CONTINUOUS
 10
11.736639212
 20
-6.8876439933
 11
11.736639212
 21
-6.2995126616
  0
LINE
  5
4E7
100
AcDbEntity
  8
0
100
AcDbLine
 62
7
  6
CONTINUOUS
 10
11.736639212
 20
6.2995126616
 11
11.736639212
 21
6.8876439933
  0
LINE
  5
4E8
100
AcDbEntity
  8
0
100
AcDbLine
 62
7
  6
CONTINUOUS
 10
11.8833064438
 20
-9.2033327681
 11
11.8833064438
 21
-8.0
  0
LINE
  5
4E9
100
AcDbEntity
  8
0
100
AcDbLine
 62
7
  6
CONTINUOUS
 10
11.8833064438
 20
8.0
 11
11.8833064438
 21
10.8876439933
  0
LINE
  5
4EA
100
AcDbEntity
  8
0
100
AcDbLine
 62
250
  6
CONTINUOUS
 10
12.0131226496
 20
11.9831489739
 11
12.0131226496
 21
6.5759960992
  0
LINE
  5
4EB
100
AcDbEntity
  8
0
100
AcDbLine
 62
250
  6
CONTINUOUS
 10
12.0131226496
 20
-6.5759960992
 11
12.0131226496
 21
-9.3331489739
  0
LINE
  5
4EC
100
AcDbEntity
  8
0
100
AcDbLine
 62
7
  6
CONTINUOUS
 10
12.125
 20
-17.4441857446
 11
12.125
 21
-16.2534688087
  0
LINE
  5
4ED
100
AcDbEntity
  8
0
100
AcDbLine
 62
250
  6
CONTINUOUS
 10
12.5128180631
 20
12.4828443874
 11
12.5128180631
 21
6.5759960992
  0
LINE
  5
4EE
100
AcDbEntity
  8
0
100
AcDbLine
 62
250
  6
CONTINUOUS
 10
12.5128180631
 20
-6.5759960992
 11
12.5128180631
 21
-9.35
  0
LINE
  5
4EF
100
AcDbEntity
  8
0
100
AcDbLine
 62
250
  6
CONTINUOUS
 10
12.8126353112
 20
-5.7764834376
 11
12.8126353112
 21
-6.2761788511
  0
LINE
  5
4F0
100
AcDbEntity
  8
0
100
AcDbLine
 62
250
  6
CONTINUOUS
 10
12.8126353112
 20
5.7764834376
 11
12.8126353112
 21
6.2761788511
  0
LINE
  5
4F1
100
AcDbEntity
  8
0
100
AcDbLine
 62
7
  6
CONTINUOUS
 10
12.875
 20
-21.2971250861
 11
12.875
 21
-20.9006158332
  0
LINE
  5
4F2
100
AcDbEntity
  8
0
100
AcDbLine
 62
7
  6
CONTINUOUS
 10
20.125
 20
12.25
 11
20.1898883267
 21
12.3798162058
  0
LINE
  5
4F3
100
AcDbEntity
  8
0
100
AcDbLine
 62
7
  6
CONTINUOUS
 10
12.575
 20
-4.725
 11
12.5371057877
 21
-4.773425083
  0
LWPOLYLINE
  5
4F4
100
AcDbEntity
  8
0
100
AcDbPolyline
 62
250
  6
CONTINUOUS
 90
13
 70
0
 10
19.4750001856
 20
2.6737853978
 10
19.4541503433
 20
2.6510370552
 10
19.4345301302
 20
2.6267961995
 10
19.4161395464
 20
2.6010628306
 10
19.3990665996
 20
2.573941294
 10
19.3832232821
 20
2.5453272442
 10
19.3683455708
 20
2.514907645
 10
19.3543083962
 20
2.4825725122
 10
19.3412368278
 20
2.44843183
 10
19.329242051
 20
2.4125025153
 10
19.3183068666
 20
2.374675466
 10
19.3084484738
 20
2.3350597842
 10
19.2998296559
 20
2.2939996927
  0
LINE
  5
4F5
100
AcDbEntity
  8
0
100
AcDbLine
 62
250
  6
CONTINUOUS
 10
10.2138481264
 20
-5.5
 11
9.9373646888
 21
-5.7764834376
  0
LINE
  5
4F6
100
AcDbEntity
  8
0
100
AcDbLine
 62
250
  6
CONTINUOUS
 10
11.013360788
 20
-6.2995126616
 11
10.7368773504
 21
-6.5759960992
  0
LINE
  5
4F7
100
AcDbEntity
  8
DRAFT
100
AcDbLine
 62
7
  6
CONTINUOUS
 10
-14.2529281039
 20
-21.1650925288
 11
-14.225
 21
-21.1511295404
  0
LINE
  5
4F8
100
AcDbEntity
  8
DRAFT
100
AcDbLine
 62
7
  6
CONTINUOUS
 10
-18.4442110784
 20
-20.6435196952
 11
-18.5080351795
 21
-20.671935187
  0
LINE
  5
4F9
100
AcDbEntity
  8
0
100
AcDbLine
 62
7
  6
CONTINUOUS
 10
-15.068173
 20
11.425037
 11
-14.698155
 21
11.425037
  0
LINE
  5
4FA
100
AcDbEntity
  8
0
100
AcDbLine
 62
7
  6
CONTINUOUS
 10
-13.880163
 20
11.425037
 11
-13.510145
 21
11.425037
  0
LINE
  5
4FB
100
AcDbEntity
  8
0
100
AcDbLine
 62
7
  6
CONTINUOUS
 10
-13.263471
 20
11.425037
 11
-12.893457
 21
11.425037
  0
LINE
  5
4FC
100
AcDbEntity
  8
0
100
AcDbLine
 62
7
  6
CONTINUOUS
 10
-12.523457
 20
11.425037
 11
-11.964095
 21
11.425037
  0
LINE
  5
4FD
100
AcDbEntity
  8
0
100
AcDbLine
 62
7
  6
CONTINUOUS
 10
-11.27313
 20
11.425037
 11
-10.713768
 21
11.425037
  0
LINE
  5
4FE
100
AcDbEntity
  8
0
100
AcDbLine
 62
7
  6
CONTINUOUS
 10
-9.8731
 20
11.425042
 11
-9.503068
 21
11.425042
  0
LINE
  5
4FF
100
AcDbEntity
  8
0
100
AcDbLine
 62
7
  6
CONTINUOUS
 10
-8.662391
 20
11.425042
 11
-7.795944
 21
11.425042
  0
LINE
  5
500
100
AcDbEntity
  8
0
100
AcDbLine
 62
250
  6
CONTINUOUS
 10
11.917008496
 20
11.8870348203
 11
10.832991504
 21
11.8870348203
  0
LINE
  5
501
100
AcDbEntity
  8
0
100
AcDbLine
 62
250
  6
CONTINUOUS
 10
12.0131226496
 20
11.9831489739
 11
10.7368773504
 21
11.9831489739
  0
LINE
  5
502
100
AcDbEntity
  8
0
100
AcDbLine
 62
7
  6
CONTINUOUS
 10
21.0516887273
 20
12.25
 11
20.125
 21
12.25
  0
LINE
  5
503
100
AcDbEntity
  8
0
100
AcDbLine
 62
7
  6
CONTINUOUS
 10
2.625
 20
12.25
 11
1.6983112727
 21
12.25
  0
LINE
  5
504
100
AcDbEntity
  8
0
100
AcDbLine
 62
250
  6
CONTINUOUS
 10
1.633422946
 20
12.3798162058
 11
2.5601116733
 21
12.3798162058
  0
LINE
  5
505
100
AcDbEntity
  8
0
100
AcDbLine
 62
250
  6
CONTINUOUS
 10
20.1898883267
 20
12.3798162058
 11
21.116577054
 21
12.3798162058
  0
LINE
  5
506
100
AcDbEntity
  8
0
100
AcDbLine
 62
250
  6
CONTINUOUS
 10
12.5128180631
 20
12.4828443874
 11
10.2371819369
 21
12.4828443874
  0
LINE
  5
507
100
AcDbEntity
  8
0
100
AcDbLine
 62
250
  6
CONTINUOUS
 10
1.625
 20
12.8795116193
 11
2.5516887273
 21
12.8795116193
  0
LINE
  5
508
100
AcDbEntity
  8
0
100
AcDbLine
 62
250
  6
CONTINUOUS
 10
20.1983112727
 20
12.8795116193
 11
21.125
 21
12.8795116193
  0
LINE
  5
509
100
AcDbEntity
  8
DRAFT
100
AcDbLine
 62
7
  6
CONTINUOUS
 10
-18.4442110784
 20
20.6435196952
 11
-18.5080351795
 21
20.671935187
  0
LINE
  5
50A
100
AcDbEntity
  8
DRAFT
100
AcDbLine
 62
7
  6
CONTINUOUS
 10
-14.2529281039
 20
21.1650925288
 11
-14.225
 21
21.1511295404
  0
LINE
  5
50B
100
AcDbEntity
  8
0
100
AcDbLine
 62
250
  6
CONTINUOUS
 10
9.9373646888
 20
5.7764834376
 11
10.2138481264
 21
5.5
  0
LINE
  5
50C
100
AcDbEntity
  8
0
100
AcDbLine
 62
250
  6
CONTINUOUS
 10
10.7368773504
 20
6.5759960992
 11
11.013360788
 21
6.2995126616
  0
LINE
  5
50D
100
AcDbEntity
  8
0
100
AcDbLine
 62
7
  6
CONTINUOUS
 10
12.575
 20
4.725
 11
12.5371057877
 21
4.773425083
  0
LINE
  5
50E
100
AcDbEntity
  8
0
100
AcDbLine
 62
7
  6
CONTINUOUS
 10
20.125
 20
-12.25
 11
20.1898883267
 21
-12.3798162058
  0
LINE
  5
50F
100
AcDbEntity
  8
0
100
AcDbLine
 62
7
  6
CONTINUOUS
 10
13.7807426494
 20
5.125
 11
13.7868794124
 21
4.773425083
  0
LINE
  5
510
100
AcDbEntity
  8
0
100
AcDbLine
 62
7
  6
CONTINUOUS
 10
13.7807426494
 20
-5.5
 11
13.7807426494
 21
-5.125
  0
LINE
  5
511
100
AcDbEntity
  8
0
100
AcDbLine
 62
7
  6
CONTINUOUS
 10
13.7807426494
 20
5.125
 11
13.7807426494
 21
5.5
  0
LINE
  5
512
100
AcDbEntity
  8
0
100
AcDbLine
 62
7
  6
CONTINUOUS
 10
13.875
 20
-5.6885721553
 11
13.875
 21
-4.7469913495
  0
LINE
  5
513
100
AcDbEntity
  8
0
100
AcDbLine
 62
7
  6
CONTINUOUS
 10
13.875
 20
4.7469913495
 11
13.875
 21
5.6885721553
  0
LINE
  5
514
100
AcDbEntity
  8
0
100
AcDbLine
 62
7
  6
CONTINUOUS
 10
14.0639072728
 20
-20.15
 11
14.0639072728
 21
-19.2233112727
  0
LINE
  5
515
100
AcDbEntity
  8
0
100
AcDbLine
 62
7
  6
CONTINUOUS
 10
14.125
 20
-19.1622185454
 11
14.125
 21
-20.0889072728
  0
LINE
  5
516
100
AcDbEntity
  8
0
100
AcDbLine
 62
7
  6
CONTINUOUS
 10
13.7868794124
 20
-4.773425083
 11
13.7807426494
 21
-5.125
  0
LINE
  5
517
100
AcDbEntity
  8
0
100
AcDbLine
 62
7
  6
CONTINUOUS
 10
21.116577054
 20
12.3798162058
 11
21.0516887273
 21
12.25
  0
LWPOLYLINE
  5
518
100
AcDbEntity
  8
0
100
AcDbPolyline
 62
250
  6
CONTINUOUS
 90
10
 70
0
 10
19.575
 20
2.5741140372
 10
19.5765181383
 20
2.5765552008
 10
19.5780572717
 20
2.5789753206
 10
19.5796174794
 20
2.5813741539
 10
19.5812000939
 20
2.583754133
 10
19.5828039376
 20
2.5861123152
 10
19.5844252619
 20
2.5884404494
 10
19.586062795
 20
2.5907356806
 10
19.5877178011
 20
2.5930004828
 10
19.589390275
 20
2.5952346553
  0
LWPOLYLINE
  5
519
100
AcDbEntity
  8
0
100
AcDbPolyline
 62
250
  6
CONTINUOUS
 90
10
 70
0
 10
19.589390275
 20
2.5952346553
 10
19.5983284422
 20
2.6062852947
 10
19.6074924122
 20
2.6160720811
 10
19.6168624659
 20
2.6245863432
 10
19.6264604243
 20
2.6318400168
 10
19.6362230048
 20
2.637802711
 10
19.6459970732
 20
2.6424142528
 10
19.6557127622
 20
2.6456631353
 10
19.665388296
 20
2.6475739537
 10
19.675
 20
2.6481530882
  0
LINE
  5
51A
100
AcDbEntity
  8
0
100
AcDbLine
 62
7
  6
CONTINUOUS
 10
10.8666935562
 20
-8.0
 11
10.9796587358
 21
-7.8870348203
  0
LINE
  5
51B
100
AcDbEntity
  8
0
100
AcDbLine
 62
7
  6
CONTINUOUS
 10
10.8666935562
 20
-9.2033327681
 11
10.7368773504
 21
-9.3331489739
  0
LINE
  5
51C
100
AcDbEntity
  8
0
100
AcDbLine
 62
7
  6
CONTINUOUS
 10
14.4004347149
 20
19.15
 11
15.7066524976
 21
19.5
  0
LINE
  5
51D
100
AcDbEntity
  8
0
100
AcDbLine
 62
7
  6
CONTINUOUS
 10
14.3907831028
 20
19.2233112727
 11
15.6970008854
 21
19.5733112727
  0
LINE
  5
51E
100
AcDbEntity
  8
RACCORDO
100
AcDbLine
 62
7
  6
CONTINUOUS
 10
-21.1097135031
 20
14.5
 11
-1.1402864969
 21
14.5
  0
LINE
  5
51F
100
AcDbEntity
  8
RACCORDO
100
AcDbLine
 62
250
  6
CONTINUOUS
 10
-21.1132045161
 20
14.7
 11
-1.1367954839
 21
14.7
  0
LINE
  5
520
100
AcDbEntity
  8
0
100
AcDbLine
 62
7
  6
CONTINUOUS
 10
10.8666935562
 20
8.0
 11
10.9796587358
 21
7.8870348203
  0
LINE
  5
521
100
AcDbEntity
  8
0
100
AcDbLine
 62
7
  6
CONTINUOUS
 10
21.116577054
 20
-12.3798162058
 11
21.0516887273
 21
-12.25
  0
LINE
  5
522
100
AcDbEntity
  8
0
100
AcDbLine
 62
7
  6
CONTINUOUS
 10
17.375
 20
4.6952277108
 11
17.375
 21
-4.6952277133
  0
LINE
  5
523
100
AcDbEntity
  8
0
100
AcDbLine
 62
7
  6
CONTINUOUS
 10
14.075
 20
-20.35
 11
14.0809763577
 21
-20.3046050564
  0
LINE
  5
524
100
AcDbEntity
  8
0
100
AcDbLine
 62
7
  6
CONTINUOUS
 10
14.3988261129
 20
-19.1622185454
 11
14.4004347149
 21
-19.15
  0
LINE
  5
525
100
AcDbEntity
  8
0
100
AcDbLine
 62
7
  6
CONTINUOUS
 10
14.0812484776
 20
-20.3027205037
 11
14.1037908148
 21
-20.1306213015
  0
LINE
  5
526
100
AcDbEntity
  8
0
100
AcDbLine
 62
7
  6
CONTINUOUS
 10
14.0809763577
 20
-20.3046050564
 11
14.0812484776
 21
-20.3027205037
  0
LINE
  5
527
100
AcDbEntity
  8
0
100
AcDbLine
 62
250
  6
CONTINUOUS
 10
1.4232698575
 20
-20.6517377579
 11
1.3743841668
 21
-20.7006234486
  0
LINE
  5
528
100
AcDbEntity
  8
0
100
AcDbLine
 62
7
  6
CONTINUOUS
 10
2.5516887273
 20
-19.5733112727
 11
2.625
 21
-19.5
  0
LINE
  5
529
100
AcDbEntity
  8
0
100
AcDbLine
 62
250
  6
CONTINUOUS
 10
1.6232622421
 20
-20.8517301425
 11
1.5743765514
 21
-20.9006158332
  0
LINE
  5
52A
100
AcDbEntity
  8
0
100
AcDbLine
 62
7
  6
CONTINUOUS
 10
12.951561235
 20
-12.2237465428
 11
13.9827523502
 21
-11.6283880749
  0
LINE
  5
52B
100
AcDbEntity
  8
DRAFT
100
AcDbLine
 62
7
  6
CONTINUOUS
 10
-3.8117850802
 20
-20.0698149423
 11
-3.7419648205
 21
-20.0349074712
  0
LINE
  5
52C
100
AcDbEntity
  8
0
100
AcDbLine
 62
7
  6
CONTINUOUS
 10
14.3959293968
 20
20.184068984
 11
15.4478528206
 21
20.465931016
  0
LINE
  5
52D
100
AcDbEntity
  8
0
100
AcDbLine
 62
7
  6
CONTINUOUS
 10
1.625
 20
15.5560403212
 11
2.5516887273
 21
15.5560403212
  0
LINE
  5
52E
100
AcDbEntity
  8
0
100
AcDbLine
 62
7
  6
CONTINUOUS
 10
20.1983112727
 20
15.5560403212
 11
21.125
 21
15.5560403212
  0
LINE
  5
52F
100
AcDbEntity
  8
0
100
AcDbLine
 62
7
  6
CONTINUOUS
 10
21.1057994286
 20
15.75
 11
20.1791107013
 21
15.75
  0
LINE
  5
530
100
AcDbEntity
  8
0
100
AcDbLine
 62
7
  6
CONTINUOUS
 10
2.5708892987
 20
15.75
 11
1.6442005714
 21
15.75
  0
LINE
  5
531
100
AcDbEntity
  8
0
100
AcDbLine
 62
7
  6
CONTINUOUS
 10
21.3756158332
 20
16.0
 11
20.725
 21
16.0
  0
LINE
  5
532
100
AcDbEntity
  8
0
100
AcDbLine
 62
7
  6
CONTINUOUS
 10
2.025
 20
16.0
 11
1.3743841668
 21
16.0
  0
LINE
  5
533
100
AcDbEntity
  8
RACCORDO
100
AcDbLine
 62
7
  6
CONTINUOUS
 10
-7.8258840059
 20
16.5882381259
 11
-7.4241159941
 21
16.5882381259
  0
LINE
  5
534
100
AcDbEntity
  8
RACCORDO
100
AcDbLine
 62
7
  6
CONTINUOUS
 10
-14.4241159941
 20
16.5882381259
 11
-14.8258840059
 21
16.5882381259
  0
LINE
  5
535
100
AcDbEntity
  8
DRAFT
100
AcDbLine
 62
7
  6
CONTINUOUS
 10
-3.8117850802
 20
20.0698149423
 11
-3.7419648205
 21
20.0349074712
  0
LWPOLYLINE
  5
536
100
AcDbEntity
  8
RACCORDO
100
AcDbPolyline
 62
7
  6
CONTINUOUS
 90
7
 70
0
 10
-5.4397044757
 20
22.2978870308
 10
-5.4856843213
 20
22.3287225274
 10
-5.5334290112
 20
22.3540235025
 10
-5.5829385456
 20
22.3737899561
 10
-5.6342129244
 20
22.3880218881
 10
-5.6872521476
 20
22.3967192986
 10
-5.7420562152
 20
22.3998821875
  0
LWPOLYLINE
  5
537
100
AcDbEntity
  8
0
100
AcDbPolyline
 62
7
  6
CONTINUOUS
 90
10
 70
0
 10
18.675
 20
6.2761788511
 10
18.7669044935
 20
6.1884446524
 10
18.8509489005
 20
6.0984567382
 10
18.9271332208
 20
6.0062151085
 10
18.9970936516
 20
5.9115450916
 10
19.0591939958
 20
5.8146213593
 10
19.1085256619
 20
5.7159679271
 10
19.1434524527
 20
5.615759467
 10
19.1656105654
 20
5.5138213071
 10
19.175
 20
5.4101534473
  0
LINE
  5
538
100
AcDbEntity
  8
0
100
AcDbLine
 62
250
  6
CONTINUOUS
 10
1.3743841668
 20
20.7006234486
 11
1.4232698575
 21
20.6517377579
  0
LINE
  5
539
100
AcDbEntity
  8
0
100
AcDbLine
 62
7
  6
CONTINUOUS
 10
2.5516887273
 20
19.5733112727
 11
2.625
 21
19.5
  0
LINE
  5
53A
100
AcDbEntity
  8
0
100
AcDbLine
 62
250
  6
CONTINUOUS
 10
1.5743765514
 20
20.9006158332
 11
1.6232622421
 21
20.8517301425
  0
LINE
  5
53B
100
AcDbEntity
  8
0
100
AcDbLine
 62
7
  6
CONTINUOUS
 10
10.832991504
 20
11.8870348203
 11
10.7368773504
 21
11.9831489739
  0
LWPOLYLINE
  5
53C
100
AcDbEntity
  8
0
100
AcDbPolyline
 62
7
  6
CONTINUOUS
 90
10
 70
0
 10
10.7368773504
 20
11.9831489739
 10
10.7262487843
 20
11.9959859613
 10
10.7008942467
 20
12.0210219228
 10
10.661769466
 20
12.0582568583
 10
10.6101279975
 20
12.1097278249
 10
10.5477149658
 20
12.1733977655
 10
10.4768708152
 20
12.2431555091
 10
10.3999991143
 20
12.3169639988
 10
10.3193248989
 20
12.3968602916
 10
10.2371819369
 20
12.4828443874
  0
LWPOLYLINE
  5
53D
100
AcDbEntity
  8
0
100
AcDbPolyline
 62
250
  6
CONTINUOUS
 90
7
 70
0
 10
19.3684837174
 20
-2.5152025781
 10
19.4052878626
 20
-2.5829876548
 10
19.448496209
 20
-2.6446709958
 10
19.4971658832
 20
-2.6943868134
 10
19.5509825942
 20
-2.7301798448
 10
19.6102606332
 20
-2.7540053527
 10
19.675
 20
-2.7658633372
  0
LINE
  5
53E
100
AcDbEntity
  8
0
100
AcDbLine
 62
7
  6
CONTINUOUS
 10
14.3907831028
 20
19.2233112727
 11
14.4004347149
 21
19.15
  0
LINE
  5
53F
100
AcDbEntity
  8
0
100
AcDbLine
 62
7
  6
CONTINUOUS
 10
20.1983112727
 20
-18.4439596788
 11
20.1791107013
 21
-18.25
  0
LINE
  5
540
100
AcDbEntity
  8
DRAFT
100
AcDbLine
 62
7
  6
CONTINUOUS
 10
21.125
 20
-18.4439596788
 11
21.1057994286
 21
-18.25
  0
LWPOLYLINE
  5
541
100
AcDbEntity
  8
0
100
AcDbPolyline
 62
250
  6
CONTINUOUS
 90
8
 70
0
 10
19.2823003943
 20
1.843974052
 10
19.2864411676
 20
1.8008715534
 10
19.2911820383
 20
1.7590100912
 10
19.2964934574
 20
1.7185306914
 10
19.3024049739
 20
1.6792923281
 10
19.3087051463
 20
1.6412508488
 10
19.3153597966
 20
1.6044621829
 10
19.3224031027
 20
1.568870401
  0
LINE
  5
542
100
AcDbEntity
  8
0
100
AcDbLine
 62
250
  6
CONTINUOUS
 10
19.2770792329
 20
-2.1058463259
 11
19.2845590204
 21
-2.1953935067
  0
LINE
  5
543
100
AcDbEntity
  8
0
100
AcDbLine
 62
250
  6
CONTINUOUS
 10
19.279059808
 20
1.8879386619
 11
19.2823003943
 21
1.843974052
  0
LINE
  5
544
100
AcDbEntity
  8
0
100
AcDbLine
 62
250
  6
CONTINUOUS
 10
19.275
 20
-2.0124611797
 11
19.2770792329
 21
-2.1058463259
  0
LWPOLYLINE
  5
545
100
AcDbEntity
  8
0
100
AcDbPolyline
 62
250
  6
CONTINUOUS
 90
4
 70
0
 10
19.2750392604
 20
2.0246262341
 10
19.2752975494
 20
1.9786886821
 10
19.2767285852
 20
1.9328826164
 10
19.279059808
 20
1.8879386619
  0
LINE
  5
546
100
AcDbEntity
  8
0
100
AcDbLine
 62
7
  6
CONTINUOUS
 10
17.875
 20
2.5
 11
17.875
 21
-2.5
  0
LINE
  5
547
100
AcDbEntity
  8
0
100
AcDbLine
 62
7
  6
CONTINUOUS
 10
17.975
 20
3.9312722764
 11
17.975
 21
-3.9312722764
  0
LINE
  5
548
100
AcDbEntity
  8
0
100
AcDbLine
 62
7
  6
CONTINUOUS
 10
18.275
 20
-5.6885721553
 11
18.275
 21
-1.3373515062
  0
LINE
  5
549
100
AcDbEntity
  8
0
100
AcDbLine
 62
7
  6
CONTINUOUS
 10
18.275
 20
1.3373515062
 11
18.275
 21
5.6885721553
  0
LINE
  5
54A
100
AcDbEntity
  8
0
100
AcDbLine
 62
250
  6
CONTINUOUS
 10
18.675
 20
-6.2761788511
 11
18.675
 21
-5.6466672319
  0
LINE
  5
54B
100
AcDbEntity
  8
0
100
AcDbLine
 62
250
  6
CONTINUOUS
 10
18.675
 20
5.6466672319
 11
18.675
 21
6.2761788511
  0
LINE
  5
54C
100
AcDbEntity
  8
0
100
AcDbLine
 62
7
  6
CONTINUOUS
 10
19.175
 20
-5.4101534473
 11
19.175
 21
-5.2767880241
  0
LINE
  5
54D
100
AcDbEntity
  8
0
100
AcDbLine
 62
7
  6
CONTINUOUS
 10
19.175
 20
-5.1463624597
 11
19.175
 21
-1.3373515062
  0
LINE
  5
54E
100
AcDbEntity
  8
0
100
AcDbLine
 62
7
  6
CONTINUOUS
 10
19.175
 20
1.3373515062
 11
19.175
 21
5.1463624597
  0
LINE
  5
54F
100
AcDbEntity
  8
0
100
AcDbLine
 62
7
  6
CONTINUOUS
 10
19.175
 20
5.3423246195
 11
19.175
 21
5.4101534473
  0
LINE
  5
550
100
AcDbEntity
  8
0
100
AcDbLine
 62
250
  6
CONTINUOUS
 10
19.275
 20
-2.0124611797
 11
19.275
 21
-1.4361406616
  0
LINE
  5
551
100
AcDbEntity
  8
0
100
AcDbLine
 62
7
  6
CONTINUOUS
 10
19.475
 20
2.0126990208
 11
19.475
 21
0.5334946201
  0
LINE
  5
552
100
AcDbEntity
  8
0
100
AcDbLine
 62
7
  6
CONTINUOUS
 10
19.475
 20
-2.0130274011
 11
19.475
 21
-0.5327310008
  0
LINE
  5
553
100
AcDbEntity
  8
0
100
AcDbLine
 62
250
  6
CONTINUOUS
 10
19.675
 20
-2.7658633372
 11
19.675
 21
2.7658633372
  0
LWPOLYLINE
  5
554
100
AcDbEntity
  8
0
100
AcDbPolyline
 62
250
  6
CONTINUOUS
 90
19
 70
0
 10
19.475
 20
2.0124635067
 10
19.4753103198
 20
2.0544502182
 10
19.476254959
 20
2.0956236639
 10
19.4778530161
 20
2.135969714
 10
19.4801309821
 20
2.1756629885
 10
19.4830988471
 20
2.2144930876
 10
19.4867260575
 20
2.2518690046
 10
19.490991919
 20
2.2876488691
 10
19.495889183
 20
2.3219398718
 10
19.5013736692
 20
2.3545303146
 10
19.507402105
 20
2.3853102846
 10
19.5139602635
 20
2.4143612411
 10
19.5210413197
 20
2.44176004
 10
19.5285699922
 20
2.467389824
 10
19.5365627739
 20
2.4913413111
 10
19.5451841882
 20
2.5139855815
 10
19.554500042
 20
2.5354170775
 10
19.5644426451
 20
2.5554717696
 10
19.575
 20
2.5741140372
  0
LWPOLYLINE
  5
555
100
AcDbEntity
  8
0
100
AcDbPolyline
 62
7
  6
CONTINUOUS
 90
10
 70
0
 10
19.475
 20
-0.5330928704
 10
19.4772136037
 20
-0.4180815729
 10
19.4788737912
 20
-0.3007056902
 10
19.4799805626
 20
-0.18149879
 10
19.4805338973
 20
-0.0607318762
 10
19.4805338159
 20
0.0607462897
 10
19.4799803793
 20
0.1815117
 10
19.478873608
 20
0.3007156355
 10
19.4772134816
 20
0.4180871747
 10
19.475
 20
0.5330928704
  0
LINE
  5
556
100
AcDbEntity
  8
0
100
AcDbLine
 62
250
  6
CONTINUOUS
 10
19.2760013375
 20
2.0707314276
 11
19.2750392604
 21
2.0246262341
  0
LWPOLYLINE
  5
557
100
AcDbEntity
  8
0
100
AcDbPolyline
 62
7
  6
CONTINUOUS
 90
10
 70
0
 10
19.175
 20
-5.4101534473
 10
19.1656356912
 20
-5.5137715116
 10
19.1434878596
 20
-5.6156856867
 10
19.108556505
 20
-5.7158959727
 10
19.0591940126
 20
-5.8145948573
 10
18.9970479972
 20
-5.9115898528
 10
18.9270613038
 20
-6.0063034963
 10
18.8508815473
 20
-6.0985433
 10
18.7668611127
 20
-6.1885017516
 10
18.675
 20
-6.2761788511
  0
LINE
  5
558
100
AcDbEntity
  8
0
100
AcDbLine
 62
7
  6
CONTINUOUS
 10
20.1983112727
 20
18.4439596788
 11
20.1791107013
 21
18.25
  0
LINE
  5
559
100
AcDbEntity
  8
DRAFT
100
AcDbLine
 62
7
  6
CONTINUOUS
 10
21.125
 20
18.4439596788
 11
21.1057994286
 21
18.25
  0
LINE
  5
55A
100
AcDbEntity
  8
0
100
AcDbLine
 62
7
  6
CONTINUOUS
 10
16.122874977
 20
-20.8517301425
 11
16.1230998875
 21
-20.8498393746
  0
LINE
  5
55B
100
AcDbEntity
  8
0
100
AcDbLine
 62
7
  6
CONTINUOUS
 10
16.1168986193
 20
-20.8971250861
 11
16.122874977
 21
-20.8517301425
  0
LINE
  5
55C
100
AcDbEntity
  8
0
100
AcDbLine
 62
7
  6
CONTINUOUS
 10
16.1230998875
 20
-20.8498393746
 11
16.1391672956
 21
-20.7279776968
  0
LWPOLYLINE
  5
55D
100
AcDbEntity
  8
0
100
AcDbPolyline
 62
7
  6
CONTINUOUS
 90
3
 70
0
 10
16.1391672956
 20
-20.7279776968
 10
16.1424851297
 20
-20.7033226561
 10
16.1492044739
 20
-20.6517377579
  0
LWPOLYLINE
  5
55E
100
AcDbEntity
  8
0
100
AcDbPolyline
 62
250
  6
CONTINUOUS
 90
6
 70
0
 10
19.2998296559
 20
2.2939996927
 10
19.2924837158
 20
2.2513643307
 10
19.2863773506
 20
2.207284559
 10
19.281573435
 20
2.162497183
 10
19.2781361614
 20
2.1169681075
 10
19.2760013375
 20
2.0707314276
  0
LINE
  5
55F
100
AcDbEntity
  8
0
100
AcDbLine
 62
7
  6
CONTINUOUS
 10
17.875
 20
-2.5
 11
17.4950267882
 21
-4.6549351679
  0
LWPOLYLINE
  5
560
100
AcDbEntity
  8
0
100
AcDbPolyline
 62
7
  6
CONTINUOUS
 90
7
 70
0
 10
21.5223667086
 20
-2.4825022673
 10
21.5204517257
 20
-2.4847118528
 10
21.5151906624
 20
-2.4869554287
 10
21.5066703615
 20
-2.4891581162
 10
21.4950396515
 20
-2.4912147552
 10
21.4804895527
 20
-2.4930897007
 10
21.475
 20
-2.4936390337
  0
LINE
  5
561
100
AcDbEntity
  8
0
100
AcDbLine
 62
7
  6
CONTINUOUS
 10
13.701561235
 20
-13.5227846485
 11
14.7327523502
 21
-12.9274261805
  0
LWPOLYLINE
  5
562
100
AcDbEntity
  8
0
100
AcDbPolyline
 62
250
  6
CONTINUOUS
 90
8
 70
0
 10
0.631343015
 20
-20.6563506304
 10
0.6280370878
 20
-20.657779965
 10
0.6188209374
 20
-20.6591664705
 10
0.6039714995
 20
-20.6604689028
 10
0.5839349842
 20
-20.661648418
 10
0.5593134678
 20
-20.6626697233
 10
0.5308468014
 20
-20.6635021296
 10
0.4993903786
 20
-20.6641204735
  0
LINE
  5
563
100
AcDbEntity
  8
0
100
AcDbLine
 62
7
  6
CONTINUOUS
 10
21.3756158332
 20
18.0
 11
20.725
 21
18.0
  0
LINE
  5
564
100
AcDbEntity
  8
0
100
AcDbLine
 62
7
  6
CONTINUOUS
 10
2.025
 20
18.0
 11
1.3743841668
 21
18.0
  0
LINE
  5
565
100
AcDbEntity
  8
0
100
AcDbLine
 62
7
  6
CONTINUOUS
 10
1.6442005714
 20
18.25
 11
2.5708892987
 21
18.25
  0
LINE
  5
566
100
AcDbEntity
  8
0
100
AcDbLine
 62
7
  6
CONTINUOUS
 10
20.1791107013
 20
18.25
 11
21.1057994286
 21
18.25
  0
LINE
  5
567
100
AcDbEntity
  8
0
100
AcDbLine
 62
7
  6
CONTINUOUS
 10
1.625
 20
18.4439596788
 11
2.5516887273
 21
18.4439596788
  0
LINE
  5
568
100
AcDbEntity
  8
0
100
AcDbLine
 62
7
  6
CONTINUOUS
 10
20.1983112727
 20
18.4439596788
 11
21.125
 21
18.4439596788
  0
LINE
  5
569
100
AcDbEntity
  8
0
100
AcDbLine
 62
7
  6
CONTINUOUS
 10
8.3495652851
 20
19.15
 11
14.4004347149
 21
19.15
  0
LINE
  5
56A
100
AcDbEntity
  8
0
100
AcDbLine
 62
7
  6
CONTINUOUS
 10
8.3592168972
 20
19.2233112727
 11
14.3907831028
 21
19.2233112727
  0
LINE
  5
56B
100
AcDbEntity
  8
RACCORDO
100
AcDbLine
 62
250
  6
CONTINUOUS
 10
-7.4910598849
 20
19.3802574587
 11
-7.7589401151
 21
19.3802574587
  0
LINE
  5
56C
100
AcDbEntity
  8
RACCORDO
100
AcDbLine
 62
250
  6
CONTINUOUS
 10
-14.4910598849
 20
19.3802574587
 11
-14.7589401151
 21
19.3802574587
  0
LINE
  5
56D
100
AcDbEntity
  8
0
100
AcDbLine
 62
7
  6
CONTINUOUS
 10
20.125
 20
19.5
 11
15.7066524976
 21
19.5
  0
LINE
  5
56E
100
AcDbEntity
  8
0
100
AcDbLine
 62
7
  6
CONTINUOUS
 10
7.0433475024
 20
19.5
 11
2.625
 21
19.5
  0
LINE
  5
56F
100
AcDbEntity
  8
0
100
AcDbLine
 62
7
  6
CONTINUOUS
 10
20.1983112727
 20
19.5733112727
 11
15.6970008854
 21
19.5733112727
  0
LINE
  5
570
100
AcDbEntity
  8
0
100
AcDbLine
 62
7
  6
CONTINUOUS
 10
7.0529991146
 20
19.5733112727
 11
2.5516887273
 21
19.5733112727
  0
LWPOLYLINE
  5
571
100
AcDbEntity
  8
0
100
AcDbPolyline
 62
7
  6
CONTINUOUS
 90
7
 70
0
 10
21.5223667086
 20
2.4825022673
 10
21.5204518429
 20
2.4848317134
 10
21.5151908733
 20
2.4870503025
 10
21.5066707522
 20
2.4891580349
 10
21.4950404669
 20
2.4911860774
 10
21.4804910708
 20
2.4931032631
 10
21.475
 20
2.4936483927
  0
LINE
  5
572
100
AcDbEntity
  8
0
100
AcDbLine
 62
250
  6
CONTINUOUS
 10
19.3451388987
 20
1.4678634215
 11
19.3532648908
 21
1.4361407659
  0
LWPOLYLINE
  5
573
100
AcDbEntity
  8
0
100
AcDbPolyline
 62
250
  6
CONTINUOUS
 90
4
 70
0
 10
19.3224031027
 20
1.568870401
 10
19.329726156
 20
1.5342635625
 10
19.3372926537
 20
1.5005710203
 10
19.3451388987
 20
1.4678634215
  0
LINE
  5
574
100
AcDbEntity
  8
0
100
AcDbLine
 62
7
  6
CONTINUOUS
 10
17.4950267885
 20
4.6549351665
 11
17.875
 21
2.5
  0
LWPOLYLINE
  5
575
100
AcDbEntity
  8
0
100
AcDbPolyline
 62
250
  6
CONTINUOUS
 90
5
 70
0
 10
19.2845590204
 20
-2.1953935067
 10
19.2974393626
 20
-2.2811027224
 10
19.3153857107
 20
-2.363728563
 10
19.3387326135
 20
-2.4425164384
 10
19.3684837174
 20
-2.5152025781
  0
LINE
  5
576
100
AcDbEntity
  8
0
100
AcDbLine
 62
7
  6
CONTINUOUS
 10
15.7066524976
 20
19.5
 11
15.6970008854
 21
19.5733112727
  0
LINE
  5
577
100
AcDbEntity
  8
0
100
AcDbLine
 62
7
  6
CONTINUOUS
 10
20.1983112727
 20
15.5560403212
 11
20.1791107013
 21
15.75
  0
LWPOLYLINE
  5
578
100
AcDbEntity
  8
0
100
AcDbPolyline
 62
250
  6
CONTINUOUS
 90
3
 70
0
 10
21.175
 20
2.0124611797
 10
21.1729203227
 20
2.1058492446
 10
21.1654405889
 20
2.1953972813
  0
LINE
  5
579
100
AcDbEntity
  8
0
100
AcDbLine
 62
7
  6
CONTINUOUS
 10
21.5267301425
 20
-5.3181431771
 11
21.5223667086
 21
-2.4825022673
  0
LINE
  5
57A
100
AcDbEntity
  8
0
100
AcDbLine
 62
7
  6
CONTINUOUS
 10
20.125
 20
-19.5
 11
20.125
 21
-12.25
  0
LINE
  5
57B
100
AcDbEntity
  8
0
100
AcDbLine
 62
7
  6
CONTINUOUS
 10
20.125
 20
12.25
 11
20.125
 21
19.5
  0
LINE
  5
57C
100
AcDbEntity
  8
0
100
AcDbLine
 62
7
  6
CONTINUOUS
 10
20.1372185454
 20
-20.4389072728
 11
20.1372185454
 21
-19.5122185454
  0
LINE
  5
57D
100
AcDbEntity
  8
0
100
AcDbLine
 62
7
  6
CONTINUOUS
 10
20.1791107013
 20
-18.25
 11
20.1791107013
 21
-15.75
  0
LINE
  5
57E
100
AcDbEntity
  8
0
100
AcDbLine
 62
7
  6
CONTINUOUS
 10
20.1791107013
 20
15.75
 11
20.1791107013
 21
18.25
  0
LINE
  5
57F
100
AcDbEntity
  8
0
100
AcDbLine
 62
7
  6
CONTINUOUS
 10
20.1983112727
 20
-18.4439596788
 11
20.1983112727
 21
-20.5
  0
LINE
  5
580
100
AcDbEntity
  8
0
100
AcDbLine
 62
7
  6
CONTINUOUS
 10
20.1983112727
 20
-15.5560403212
 11
20.1983112727
 21
-12.8795116193
  0
LINE
  5
581
100
AcDbEntity
  8
0
100
AcDbLine
 62
7
  6
CONTINUOUS
 10
20.1983112727
 20
12.8795116193
 11
20.1983112727
 21
15.5560403212
  0
LINE
  5
582
100
AcDbEntity
  8
0
100
AcDbLine
 62
7
  6
CONTINUOUS
 10
20.1983112727
 20
18.4439596788
 11
20.1983112727
 21
19.5733112727
  0
LINE
  5
583
100
AcDbEntity
  8
0
100
AcDbLine
 62
7
  6
CONTINUOUS
 10
20.725
 20
18.0
 11
20.725
 21
16.0
  0
LINE
  5
584
100
AcDbEntity
  8
0
100
AcDbLine
 62
7
  6
CONTINUOUS
 10
20.725
 20
-16.0
 11
20.725
 21
-18.0
  0
LINE
  5
585
100
AcDbEntity
  8
0
100
AcDbLine
 62
250
  6
CONTINUOUS
 10
20.775
 20
-2.7658633372
 11
20.775
 21
2.7658633372
  0
LINE
  5
586
100
AcDbEntity
  8
0
100
AcDbLine
 62
7
  6
CONTINUOUS
 10
20.975
 20
2.0108115392
 11
20.975
 21
-2.0124233164
  0
LINE
  5
587
100
AcDbEntity
  8
0
100
AcDbLine
 62
7
  6
CONTINUOUS
 10
21.0516887273
 20
12.25
 11
21.0516887273
 21
5.9940869507
  0
LINE
  5
588
100
AcDbEntity
  8
0
100
AcDbLine
 62
7
  6
CONTINUOUS
 10
21.0516887273
 20
-5.9940869507
 11
21.0516887273
 21
-12.25
  0
LINE
  5
589
100
AcDbEntity
  8
DRAFT
100
AcDbLine
 62
7
  6
CONTINUOUS
 10
21.1057994286
 20
-18.25
 11
21.1057994286
 21
-18.0
  0
LINE
  5
58A
100
AcDbEntity
  8
DRAFT
100
AcDbLine
 62
7
  6
CONTINUOUS
 10
21.1057994286
 20
-16.0
 11
21.1057994286
 21
-15.75
  0
LINE
  5
58B
100
AcDbEntity
  8
DRAFT
100
AcDbLine
 62
7
  6
CONTINUOUS
 10
21.1057994286
 20
15.75
 11
21.1057994286
 21
16.0
  0
LINE
  5
58C
100
AcDbEntity
  8
DRAFT
100
AcDbLine
 62
7
  6
CONTINUOUS
 10
21.1057994286
 20
18.0
 11
21.1057994286
 21
18.25
  0
LINE
  5
58D
100
AcDbEntity
  8
RACCORDO
100
AcDbLine
 62
7
  6
CONTINUOUS
 10
21.125
 20
-19.7001218439
 11
21.125
 21
-18.4439596788
  0
LINE
  5
58E
100
AcDbEntity
  8
DRAFT
100
AcDbLine
 62
7
  6
CONTINUOUS
 10
21.125
 20
-15.5560403212
 11
21.125
 21
-13.9330127019
  0
LINE
  5
58F
100
AcDbEntity
  8
0
100
AcDbLine
 62
7
  6
CONTINUOUS
 10
21.125
 20
-13.0669872981
 11
21.125
 21
-12.8795116193
  0
LINE
  5
590
100
AcDbEntity
  8
0
100
AcDbLine
 62
7
  6
CONTINUOUS
 10
21.125
 20
12.8795116193
 11
21.125
 21
13.0669872981
  0
LINE
  5
591
100
AcDbEntity
  8
DRAFT
100
AcDbLine
 62
7
  6
CONTINUOUS
 10
21.125
 20
13.9330127019
 11
21.125
 21
15.5560403212
  0
LINE
  5
592
100
AcDbEntity
  8
RACCORDO
100
AcDbLine
 62
7
  6
CONTINUOUS
 10
21.125
 20
18.4439596788
 11
21.125
 21
19.7001218439
  0
LINE
  5
593
100
AcDbEntity
  8
0
100
AcDbLine
 62
250
  6
CONTINUOUS
 10
21.1267377579
 20
20.8517301425
 11
21.1267377579
 21
19.7001218439
  0
LINE
  5
594
100
AcDbEntity
  8
0
100
AcDbLine
 62
250
  6
CONTINUOUS
 10
21.1267377579
 20
18.25
 11
21.1267377579
 21
18.0
  0
LINE
  5
595
100
AcDbEntity
  8
0
100
AcDbLine
 62
250
  6
CONTINUOUS
 10
21.1267377579
 20
16.0
 11
21.1267377579
 21
15.75
  0
LINE
  5
596
100
AcDbEntity
  8
0
100
AcDbLine
 62
250
  6
CONTINUOUS
 10
21.1267377579
 20
12.3798162058
 11
21.1267377579
 21
6.5145365013
  0
LINE
  5
597
100
AcDbEntity
  8
0
100
AcDbLine
 62
250
  6
CONTINUOUS
 10
21.1267377579
 20
-6.5145365013
 11
21.1267377579
 21
-12.3798162058
  0
LINE
  5
598
100
AcDbEntity
  8
0
100
AcDbLine
 62
250
  6
CONTINUOUS
 10
21.1267377579
 20
-15.75
 11
21.1267377579
 21
-16.0
  0
LINE
  5
599
100
AcDbEntity
  8
0
100
AcDbLine
 62
250
  6
CONTINUOUS
 10
21.1267377579
 20
-18.0
 11
21.1267377579
 21
-18.25
  0
LINE
  5
59A
100
AcDbEntity
  8
0
100
AcDbLine
 62
250
  6
CONTINUOUS
 10
21.1267377579
 20
-19.7001218439
 11
21.1267377579
 21
-20.8517301425
  0
LINE
  5
59B
100
AcDbEntity
  8
0
100
AcDbLine
 62
250
  6
CONTINUOUS
 10
21.175
 20
2.0124611797
 11
21.175
 21
-2.0124611797
  0
LINE
  5
59C
100
AcDbEntity
  8
0
100
AcDbLine
 62
7
  6
CONTINUOUS
 10
21.3267301425
 20
20.6517377579
 11
21.3267301425
 21
18.0
  0
LINE
  5
59D
100
AcDbEntity
  8
0
100
AcDbLine
 62
7
  6
CONTINUOUS
 10
21.3267301425
 20
16.0
 11
21.3267301425
 21
13.7091225827
  0
LINE
  5
59E
100
AcDbEntity
  8
0
100
AcDbLine
 62
7
  6
CONTINUOUS
 10
21.3267301425
 20
13.2908774173
 11
21.3267301425
 21
6.5498005547
  0
LINE
  5
59F
100
AcDbEntity
  8
0
100
AcDbLine
 62
7
  6
CONTINUOUS
 10
21.3267301425
 20
-6.5498005547
 11
21.3267301425
 21
-13.2908774173
  0
LINE
  5
5A0
100
AcDbEntity
  8
0
100
AcDbLine
 62
7
  6
CONTINUOUS
 10
21.3267301425
 20
-13.7091225827
 11
21.3267301425
 21
-16.0
  0
LINE
  5
5A1
100
AcDbEntity
  8
0
100
AcDbLine
 62
7
  6
CONTINUOUS
 10
21.3267301425
 20
-18.0
 11
21.3267301425
 21
-20.6517377579
  0
LINE
  5
5A2
100
AcDbEntity
  8
0
100
AcDbLine
 62
250
  6
CONTINUOUS
 10
21.3267377579
 20
5.9650410175
 11
21.3267377579
 21
5.8540725136
  0
LINE
  5
5A3
100
AcDbEntity
  8
0
100
AcDbLine
 62
250
  6
CONTINUOUS
 10
21.3267377579
 20
-5.8540725021
 11
21.3267377579
 21
-5.9650410175
  0
LINE
  5
5A4
100
AcDbEntity
  8
0
100
AcDbLine
 62
7
  6
CONTINUOUS
 10
21.3756158332
 20
-20.7006234486
 11
21.3756158332
 21
-16.0
  0
LINE
  5
5A5
100
AcDbEntity
  8
DRAFT
100
AcDbLine
 62
7
  6
CONTINUOUS
 10
21.3756158332
 20
-16.0
 11
21.3756158332
 21
-6.5584204209
  0
LINE
  5
5A6
100
AcDbEntity
  8
DRAFT
100
AcDbLine
 62
7
  6
CONTINUOUS
 10
21.3756158332
 20
6.5584204209
 11
21.3756158332
 21
16.0
  0
LINE
  5
5A7
100
AcDbEntity
  8
0
100
AcDbLine
 62
7
  6
CONTINUOUS
 10
21.3756158332
 20
16.0
 11
21.3756158332
 21
20.7006234486
  0
LINE
  5
5A8
100
AcDbEntity
  8
0
100
AcDbLine
 62
7
  6
CONTINUOUS
 10
21.475
 20
-5.5000190385
 11
21.475
 21
5.5000190385
  0
LINE
  5
5A9
100
AcDbEntity
  8
0
100
AcDbLine
 62
7
  6
CONTINUOUS
 10
21.5223667086
 20
-2.4825022673
 11
21.5223667086
 21
2.4825022673
  0
LINE
  5
5AA
100
AcDbEntity
  8
0
100
AcDbLine
 62
7
  6
CONTINUOUS
 10
21.5267301425
 20
6.0003050708
 11
21.5267301425
 21
5.3181431771
  0
LINE
  5
5AB
100
AcDbEntity
  8
0
100
AcDbLine
 62
7
  6
CONTINUOUS
 10
21.5267301425
 20
-5.3181431771
 11
21.5267301425
 21
-6.0003050708
  0
LINE
  5
5AC
100
AcDbEntity
  8
DRAFT
100
AcDbLine
 62
7
  6
CONTINUOUS
 10
21.5756158332
 20
-6.008924937
 11
21.5756158332
 21
6.008924937
  0
LINE
  5
5AD
100
AcDbEntity
  8
0
100
AcDbLine
 62
7
  6
CONTINUOUS
 10
21.5223667086
 20
2.4825022673
 11
21.5267301425
 21
5.3181431771
  0
LWPOLYLINE
  5
5AE
100
AcDbEntity
  8
0
100
AcDbPolyline
 62
250
  6
CONTINUOUS
 90
31
 70
0
 10
20.975
 20
-2.0124611797
 10
20.9747734971
 20
-2.0484202632
 10
20.9740757724
 20
-2.0841153472
 10
20.9728800034
 20
-2.1195372667
 10
20.9711498245
 20
-2.1549099156
 10
20.9688653991
 20
-2.1899839398
 10
20.9660505243
 20
-2.2240408561
 10
20.9627064869
 20
-2.2570043528
 10
20.958837657
 20
-2.2889247692
 10
20.9545232803
 20
-2.3192814007
 10
20.9498280561
 20
-2.3478310866
 10
20.944753594
 20
-2.3748043986
 10
20.9393029934
 20
-2.4003955584
 10
20.9335030218
 20
-2.4246046196
 10
20.9273753039
 20
-2.4474187529
 10
20.9209025927
 20
-2.4690085666
 10
20.9140864063
 20
-2.4894239255
 10
20.9069601281
 20
-2.5085984949
 10
20.8995490614
 20
-2.526526446
 10
20.8919235491
 20
-2.5431250759
 10
20.8840574462
 20
-2.5584680399
 10
20.8758182106
 20
-2.5727735812
 10
20.8672604166
 20
-2.5860665568
 10
20.8583504822
 20
-2.5982900165
 10
20.8487906914
 20
-2.6095020898
 10
20.8385587853
 20
-2.6198325328
 10
20.8276764284
 20
-2.6290546032
 10
20.8158868373
 20
-2.6366369732
 10
20.8031111058
 20
-2.6423326805
 10
20.7894661446
 20
-2.6462077192
 10
20.775
 20
-2.648167025
  0
LINE
  5
5AF
100
AcDbEntity
  8
0
100
AcDbLine
 62
7
  6
CONTINUOUS
 10
20.1983112727
 20
-15.5560403212
 11
20.1791107013
 21
-15.75
  0
LWPOLYLINE
  5
5B0
100
AcDbEntity
  8
0
100
AcDbPolyline
 62
7
  6
CONTINUOUS
 90
7
 70
0
 10
21.5267301425
 20
-5.3181431771
 10
21.5248152602
 20
-5.3204726333
 10
21.5195542525
 20
-5.3226912294
 10
21.5110340869
 20
-5.3247989654
 10
21.4994037701
 20
-5.3268270072
 10
21.4848543657
 20
-5.3287441889
 10
21.475
 20
-5.3297224853
  0
LWPOLYLINE
  5
5B1
100
AcDbEntity
  8
0
100
AcDbPolyline
 62
7
  6
CONTINUOUS
 90
12
 70
0
 10
1.6215169339
 20
20.8517223939
 10
1.5970787619
 20
20.8500067383
 10
1.5712243621
 20
20.8448374278
 10
1.5461581199
 20
20.8362634778
 10
1.5222321714
 20
20.8243275114
 10
1.5000127098
 20
20.8092291873
 10
1.4801808171
 20
20.7914575308
 10
1.4631079035
 20
20.7715067868
 10
1.4489106132
 20
20.7496962294
 10
1.43773426
 20
20.7263984041
 10
1.4296970484
 20
20.7020168531
 10
1.4250075833
 20
20.6780293968
  0
LINE
  5
5B2
100
AcDbEntity
  8
DRAFT
100
AcDbLine
 62
7
  6
CONTINUOUS
 10
-8.3005120085
 20
21.1374937549
 11
-8.025
 21
21.1511295404
  0
LINE
  5
5B3
100
AcDbEntity
  8
0
100
AcDbLine
 62
250
  6
CONTINUOUS
 10
1.6232622421
 20
20.8517301425
 11
1.6215169339
 21
20.8517223939
  0
LINE
  5
5B4
100
AcDbEntity
  8
RACCORDO
100
AcDbLine
 62
250
  6
CONTINUOUS
 10
-7.1922197286
 20
19.8501037691
 11
-8.0577802714
 21
19.8501037691
  0
LINE
  5
5B5
100
AcDbEntity
  8
RACCORDO
100
AcDbLine
 62
250
  6
CONTINUOUS
 10
-14.1922197286
 20
19.8501037691
 11
-15.0577802714
 21
19.8501037691
  0
LINE
  5
5B6
100
AcDbEntity
  8
DRAFT
100
AcDbLine
 62
7
  6
CONTINUOUS
 10
-4.478374015
 20
20.0
 11
-7.125
 21
20.0
  0
LINE
  5
5B7
100
AcDbEntity
  8
DRAFT
100
AcDbLine
 62
7
  6
CONTINUOUS
 10
-8.125
 20
20.0
 11
-14.125
 21
20.0
  0
LINE
  5
5B8
100
AcDbEntity
  8
DRAFT
100
AcDbLine
 62
7
  6
CONTINUOUS
 10
-15.125
 20
20.0
 11
-17.771625985
 21
20.0
  0
LINE
  5
5B9
100
AcDbEntity
  8
DRAFT
100
AcDbLine
 62
7
  6
CONTINUOUS
 10
-3.7419648205
 20
20.0349074712
 11
-4.4126983669
 21
20.0349074712
  0
LINE
  5
5BA
100
AcDbEntity
  8
DRAFT
100
AcDbLine
 62
7
  6
CONTINUOUS
 10
-17.8373016331
 20
20.0349074712
 11
-18.5080351795
 21
20.0349074712
  0
LINE
  5
5BB
100
AcDbEntity
  8
RACCORDO
100
AcDbLine
 62
7
  6
CONTINUOUS
 10
-18.4382149198
 20
20.0698149423
 11
-14.7577916945
 21
20.0698149423
  0
LINE
  5
5BC
100
AcDbEntity
  8
RACCORDO
100
AcDbLine
 62
7
  6
CONTINUOUS
 10
-14.4922083055
 20
20.0698149423
 11
-7.7577916945
 21
20.0698149423
  0
LINE
  5
5BD
100
AcDbEntity
  8
RACCORDO
100
AcDbLine
 62
7
  6
CONTINUOUS
 10
-7.4922083055
 20
20.0698149423
 11
-3.8117850802
 21
20.0698149423
  0
LINE
  5
5BE
100
AcDbEntity
  8
0
100
AcDbLine
 62
7
  6
CONTINUOUS
 10
8.6128502289
 20
20.15
 11
14.1371497711
 21
20.15
  0
LINE
  5
5BF
100
AcDbEntity
  8
DRAFT
100
AcDbLine
 62
7
  6
CONTINUOUS
 10
-18.4382149198
 20
20.3
 11
-3.8117850802
 21
20.3
  0
LINE
  5
5C0
100
AcDbEntity
  8
RACCORDO
100
AcDbLine
 62
7
  6
CONTINUOUS
 10
20.3251218439
 20
20.5
 11
19.0580127019
 21
20.5
  0
LINE
  5
5C1
100
AcDbEntity
  8
0
100
AcDbLine
 62
7
  6
CONTINUOUS
 10
18.1919872981
 20
20.5
 11
15.7066324463
 21
20.5
  0
LINE
  5
5C2
100
AcDbEntity
  8
0
100
AcDbLine
 62
7
  6
CONTINUOUS
 10
7.0433675537
 20
20.5
 11
4.5580127019
 21
20.5
  0
LINE
  5
5C3
100
AcDbEntity
  8
RACCORDO
100
AcDbLine
 62
7
  6
CONTINUOUS
 10
3.6919872981
 20
20.5
 11
2.4248781561
 21
20.5
  0
LINE
  5
5C4
100
AcDbEntity
  8
0
100
AcDbLine
 62
250
  6
CONTINUOUS
 10
1.4232698575
 20
20.6517377579
 11
3.8306059724
 21
20.6517377579
  0
LINE
  5
5C5
100
AcDbEntity
  8
0
100
AcDbLine
 62
250
  6
CONTINUOUS
 10
4.4193940276
 20
20.6517377579
 11
18.3306059724
 21
20.6517377579
  0
LINE
  5
5C6
100
AcDbEntity
  8
0
100
AcDbLine
 62
250
  6
CONTINUOUS
 10
18.9193940276
 20
20.6517377579
 11
21.3267301425
 21
20.6517377579
  0
LINE
  5
5C7
100
AcDbEntity
  8
0
100
AcDbLine
 62
250
  6
CONTINUOUS
 10
0.431340852
 20
20.6646463536
 11
-3.4843106372
 21
20.6646463536
  0
LINE
  5
5C8
100
AcDbEntity
  8
0
100
AcDbLine
 62
250
  6
CONTINUOUS
 10
-18.7753579292
 20
20.6646463536
 11
-20.881340765
 21
20.6646463536
  0
LINE
  5
5C9
100
AcDbEntity
  8
0
100
AcDbLine
 62
7
  6
CONTINUOUS
 10
1.6232622421
 20
20.8517301425
 11
21.1267377579
 21
20.8517301425
  0
LINE
  5
5CA
100
AcDbEntity
  8
0
100
AcDbLine
 62
7
  6
CONTINUOUS
 10
0.4313506304
 20
20.856343015
 11
-3.6948418432
 21
20.856343015
  0
LINE
  5
5CB
100
AcDbEntity
  8
0
100
AcDbLine
 62
7
  6
CONTINUOUS
 10
-18.5551581604
 20
20.856343015
 11
-20.8813506304
 21
20.856343015
  0
LINE
  5
5CC
100
AcDbEntity
  8
0
100
AcDbLine
 62
7
  6
CONTINUOUS
 10
21.1756234486
 20
20.9006158332
 11
1.5743765514
 21
20.9006158332
  0
LINE
  5
5CD
100
AcDbEntity
  8
0
100
AcDbLine
 62
7
  6
CONTINUOUS
 10
0.4756234486
 20
20.9006158332
 11
-3.7453497513
 21
20.9006158332
  0
LINE
  5
5CE
100
AcDbEntity
  8
0
100
AcDbLine
 62
7
  6
CONTINUOUS
 10
-18.5046502518
 20
20.9006158332
 11
-20.9256234486
 21
20.9006158332
  0
LINE
  5
5CF
100
AcDbEntity
  8
DRAFT
100
AcDbLine
 62
7
  6
CONTINUOUS
 10
-4.3567936515
 20
21.1374937549
 11
-8.3005120085
 21
21.1374937549
  0
LINE
  5
5D0
100
AcDbEntity
  8
DRAFT
100
AcDbLine
 62
7
  6
CONTINUOUS
 10
-13.9494879915
 20
21.1374937549
 11
-17.8932063485
 21
21.1374937549
  0
LINE
  5
5D1
100
AcDbEntity
  8
DRAFT
100
AcDbLine
 62
7
  6
CONTINUOUS
 10
-17.9459092915
 20
21.1650925288
 11
-14.2529281039
 21
21.1650925288
  0
LINE
  5
5D2
100
AcDbEntity
  8
DRAFT
100
AcDbLine
 62
7
  6
CONTINUOUS
 10
-7.9970718961
 20
21.1650925288
 11
-4.3040907085
 21
21.1650925288
  0
LINE
  5
5D3
100
AcDbEntity
  8
RACCORDO
100
AcDbLine
 62
7
  6
CONTINUOUS
 10
21.7751522961
 20
21.85
 11
-4.8669431525
 21
21.85
  0
LINE
  5
5D4
100
AcDbEntity
  8
RACCORDO
100
AcDbLine
 62
7
  6
CONTINUOUS
 10
-7.9970718961
 20
21.85
 11
-8.025
 21
21.85
  0
LINE
  5
5D5
100
AcDbEntity
  8
RACCORDO
100
AcDbLine
 62
7
  6
CONTINUOUS
 10
-14.225
 20
21.85
 11
-14.2529281039
 21
21.85
  0
LINE
  5
5D6
100
AcDbEntity
  8
RACCORDO
100
AcDbLine
 62
7
  6
CONTINUOUS
 10
-17.3830568464
 20
21.85
 11
-21.5251522961
 21
21.85
  0
LINE
  5
5D7
100
AcDbEntity
  8
DRAFT
100
AcDbLine
 62
7
  6
CONTINUOUS
 10
-14.225
 20
21.1511295404
 11
-13.9494879915
 21
21.1374937549
  0
LWPOLYLINE
  5
5D8
100
AcDbEntity
  8
0
100
AcDbPolyline
 62
250
  6
CONTINUOUS
 90
10
 70
0
 10
0.4313506304
 20
20.6646463536
 10
0.4654932358
 20
20.6629415545
 10
0.499086008
 20
20.6628566018
 10
0.5308468522
 20
20.6635007721
 10
0.559595079
 20
20.6629706884
 10
0.5841993147
 20
20.6613239673
 10
0.6039715348
 20
20.660467544
 10
0.618646111
 20
20.6603846655
 10
0.627909351
 20
20.6593045053
 10
0.631343015
 20
20.6563506304
  0
LINE
  5
5D9
100
AcDbEntity
  8
0
100
AcDbLine
 62
7
  6
CONTINUOUS
 10
7.0433475024
 20
19.5
 11
8.3495652851
 21
19.15
  0
LINE
  5
5DA
100
AcDbEntity
  8
0
100
AcDbLine
 62
7
  6
CONTINUOUS
 10
7.0529991146
 20
19.5733112727
 11
8.3592168972
 21
19.2233112727
  0
LINE
  5
5DB
100
AcDbEntity
  8
0
100
AcDbLine
 62
7
  6
CONTINUOUS
 10
7.3021471794
 20
20.465931016
 11
8.3540706032
 21
20.184068984
  0
LWPOLYLINE
  5
5DC
100
AcDbEntity
  8
0
100
AcDbPolyline
 62
7
  6
CONTINUOUS
 90
7
 70
0
 10
21.5267301425
 20
5.3181431771
 10
21.5248151429
 20
5.3203527734
 10
21.5195540415
 20
5.3225963563
 10
21.5110336959
 20
5.3247990468
 10
21.4994029544
 20
5.3268556844
 10
21.4848528475
 20
5.3287306262
 10
21.475
 20
5.3297165869
  0
LWPOLYLINE
  5
5DD
100
AcDbEntity
  8
0
100
AcDbPolyline
 62
250
  6
CONTINUOUS
 90
11
 70
0
 10
21.1654405889
 20
2.1953972813
 10
21.1525607986
 20
2.2811052898
 10
21.1346156144
 20
2.363726356
 10
21.1112703738
 20
2.442507394
 10
21.0815210892
 20
2.5151891467
 10
21.0447194863
 20
2.5829745587
 10
21.0015138395
 20
2.6446606854
 10
20.9528449839
 20
2.6943794357
 10
20.8990265313
 20
2.7301747792
 10
20.83974487
 20
2.7540027464
 10
20.775
 20
2.7658633372
  0
LINE
  5
5DE
100
AcDbEntity
  8
DRAFT
100
AcDbLine
 62
7
  6
CONTINUOUS
 10
21.125
 20
15.5560403212
 11
21.1057994286
 21
15.75
  0
LWPOLYLINE
  5
5DF
100
AcDbEntity
  8
0
100
AcDbPolyline
 62
250
  6
CONTINUOUS
 90
13
 70
0
 10
21.3267301425
 20
20.6517377579
 10
21.3250173578
 20
20.6778407441
 10
21.3199122826
 20
20.7034971442
 10
21.3115022577
 20
20.7282680126
 10
21.2999311672
 20
20.751729554
 10
21.2853969762
 20
20.7734803736
 10
21.2681483449
 20
20.7931483449
 10
21.2484803736
 20
20.8103969762
 10
21.226729554
 20
20.8249311672
 10
21.2032680126
 20
20.8365022577
 10
21.1784971442
 20
20.8449122826
 10
21.1528407441
 20
20.8500173578
 10
21.1267377579
 20
20.8517301425
  0
LINE
  5
5E0
100
AcDbEntity
  8
RACCORDO
100
AcDbLine
 62
7
  6
CONTINUOUS
 10
22.275
 20
-21.3500571074
 11
22.275
 21
21.3500571074
  0
LINE
  5
5E1
100
AcDbEntity
  8
0
100
AcDbLine
 62
250
  6
CONTINUOUS
 10
21.3249924167
 20
-20.6780293968
 11
21.3267301425
 21
-20.6517377579
  0
LINE
  5
5E2
100
AcDbEntity
  8
DRAFT
100
AcDbLine
 62
7
  6
CONTINUOUS
 10
21.125
 20
-15.5560403212
 11
21.1057994286
 21
-15.75
  0
LINE
  5
5E3
100
AcDbEntity
  8
0
100
AcDbLine
 62
250
  6
CONTINUOUS
 10
21.3267377579
 20
-5.9650410175
 11
21.1267377579
 21
-6.5145365013
  0
LINE
  5
5E4
100
AcDbEntity
  8
0
100
AcDbLine
 62
7
  6
CONTINUOUS
 10
21.5267301425
 20
-6.0003050708
 11
21.3267301425
 21
-6.5498005547
  0
LINE
  5
5E5
100
AcDbEntity
  8
DRAFT
100
AcDbLine
 62
7
  6
CONTINUOUS
 10
21.3756158332
 20
-6.5584204209
 11
21.5756158332
 21
-6.008924937
  0
LINE
  5
5E6
100
AcDbEntity
  8
0
100
AcDbLine
 62
7
  6
CONTINUOUS
 10
14.125
 20
-19.1622185454
 11
14.0639072728
 21
-19.2233112727
  0
LWPOLYLINE
  5
5E7
100
AcDbEntity
  8
0
100
AcDbPolyline
 62
250
  6
CONTINUOUS
 90
13
 70
0
 10
-20.8813506304
 20
20.856343015
 10
-20.9074536166
 20
20.8546302303
 10
-20.9331100167
 20
20.8495251551
 10
-20.9578808852
 20
20.8411151303
 10
-20.9813424265
 20
20.8295440397
 10
-21.0030932461
 20
20.8150098488
 10
-21.0227612175
 20
20.7977612175
 10
-21.0400098488
 20
20.7780932461
 10
-21.0545440397
 20
20.7563424265
 10
-21.0661151303
 20
20.7328808852
 10
-21.0745251551
 20
20.7081100167
 10
-21.0796302303
 20
20.6824536166
 10
-21.081343015
 20
20.6563506304
  0
LWPOLYLINE
  5
5E8
100
AcDbEntity
  8
RACCORDO
100
AcDbPolyline
 62
7
  6
CONTINUOUS
 90
7
 70
0
 10
-16.5079437848
 20
22.3998821875
 10
-16.5627478581
 20
22.3967192955
 10
-16.6157870813
 20
22.388021885
 10
-16.6670614544
 20
22.3737899561
 10
-16.7165709772
 20
22.3540235087
 10
-16.7643156498
 20
22.3287225427
 10
-16.8102954723
 20
22.2978870583
  0
LINE
  5
5E9
100
AcDbEntity
  8
0
100
AcDbLine
 62
7
  6
CONTINUOUS
 10
-8.025
 20
22.2
 11
-14.225
 21
22.2
  0
LINE
  5
5EA
100
AcDbEntity
  8
DRAFT
100
AcDbLine
 62
7
  6
CONTINUOUS
 10
-14.8931750461
 20
23.4301797403
 11
-14.2529281039
 21
23.4301797403
  0
LINE
  5
5EB
100
AcDbEntity
  8
DRAFT
100
AcDbLine
 62
7
  6
CONTINUOUS
 10
-7.9970718961
 20
23.4301797403
 11
-7.3568249539
 21
23.4301797403
  0
LINE
  5
5EC
100
AcDbEntity
  8
DRAFT
100
AcDbLine
 62
7
  6
CONTINUOUS
 10
-14.9136169577
 20
23.5
 11
-14.3227483636
 21
23.5
  0
LINE
  5
5ED
100
AcDbEntity
  8
DRAFT
100
AcDbLine
 62
7
  6
CONTINUOUS
 10
-7.9272516364
 20
23.5
 11
-7.3363830423
 21
23.5
  0
LINE
  5
5EE
100
AcDbEntity
  8
0
100
AcDbLine
 62
250
  6
CONTINUOUS
 10
21.1267377579
 20
6.5145365013
 11
21.3267377579
 21
5.9650410175
  0
LINE
  5
5EF
100
AcDbEntity
  8
0
100
AcDbLine
 62
7
  6
CONTINUOUS
 10
21.3267301425
 20
6.5498005547
 11
21.5267301425
 21
6.0003050708
  0
LINE
  5
5F0
100
AcDbEntity
  8
DRAFT
100
AcDbLine
 62
7
  6
CONTINUOUS
 10
21.5756158332
 20
6.008924937
 11
21.3756158332
 21
6.5584204209
  0
LINE
  5
5F1
100
AcDbEntity
  8
0
100
AcDbLine
 62
7
  6
CONTINUOUS
 10
14.0639072728
 20
-20.15
 11
14.125
 21
-20.0889072728
  0
ARC
  5
5F2
100
AcDbEntity
  8
DRAFT
100
AcDbCircle
 62
7
  6
CONTINUOUS
 10
-16.075
 20
-23.1
 40
0.5
100
AcDbArc
 50
4.309433156
 51
105.6067080409
  0
ARC
  5
5F3
100
AcDbEntity
  8
DRAFT
100
AcDbCircle
 62
7
  6
CONTINUOUS
 10
-6.175
 20
-23.1
 40
0.5
100
AcDbArc
 50
74.3932919591
 51
175.690566844
  0
ARC
  5
5F4
100
AcDbEntity
  8
RACCORDO
100
AcDbCircle
 62
7
  6
CONTINUOUS
 10
-22.375
 20
0.0
 40
28.0
100
AcDbArc
 50
38.3146467789
 51
52.7832475454
  0
ARC
  5
5F5
100
AcDbEntity
  8
RACCORDO
100
AcDbCircle
 62
7
  6
CONTINUOUS
 10
-22.375
 20
0.0
 40
28.0
100
AcDbArc
 50
307.2167523357
 51
321.6853532211
  0
ARC
  5
5F6
100
AcDbEntity
  8
DRAFT
100
AcDbCircle
 62
7
  6
CONTINUOUS
 10
-22.375
 20
0.0
 40
27.9
100
AcDbArc
 50
302.6168508246
 51
304.2479034811
  0
ARC
  5
5F7
100
AcDbEntity
  8
DRAFT
100
AcDbCircle
 62
7
  6
CONTINUOUS
 10
-22.375
 20
0.0
 40
27.9
100
AcDbArc
 50
305.835955322
 51
306.5952036598
  0
ARC
  5
5F8
100
AcDbEntity
  8
DRAFT
100
AcDbCircle
 62
7
  6
CONTINUOUS
 10
-22.375
 20
0.0
 40
27.9
100
AcDbArc
 50
53.4047963402
 51
54.164044678
  0
ARC
  5
5F9
100
AcDbEntity
  8
DRAFT
100
AcDbCircle
 62
7
  6
CONTINUOUS
 10
-22.375
 20
0.0
 40
27.9
100
AcDbArc
 50
55.7520965189
 51
57.3831491754
  0
ARC
  5
5FA
100
AcDbEntity
  8
RACCORDO
100
AcDbCircle
 62
7
  6
CONTINUOUS
 10
-22.375
 20
0.0
 40
27.9
100
AcDbArc
 50
306.5955867406
 51
321.7870227264
  0
ARC
  5
5FB
100
AcDbEntity
  8
RACCORDO
100
AcDbCircle
 62
7
  6
CONTINUOUS
 10
-22.375
 20
0.0
 40
27.9
100
AcDbArc
 50
38.2129772736
 51
53.4044132594
  0
ARC
  5
5FC
100
AcDbEntity
  8
DRAFT
100
AcDbCircle
 62
7
  6
CONTINUOUS
 10
-22.375
 20
0.0
 40
27.8301797403
100
AcDbArc
 50
49.5090602232
 51
54.3037406731
  0
ARC
  5
5FD
100
AcDbEntity
  8
DRAFT
100
AcDbCircle
 62
7
  6
CONTINUOUS
 10
-22.375
 20
0.0
 40
27.8301797403
100
AcDbArc
 50
55.6124005238
 51
57.3411167897
  0
ARC
  5
5FE
100
AcDbEntity
  8
DRAFT
100
AcDbCircle
 62
7
  6
CONTINUOUS
 10
-22.375
 20
0.0
 40
27.8301797403
100
AcDbArc
 50
302.6588832103
 51
304.3875994762
  0
ARC
  5
5FF
100
AcDbEntity
  8
DRAFT
100
AcDbCircle
 62
7
  6
CONTINUOUS
 10
-22.375
 20
0.0
 40
27.8301797403
100
AcDbArc
 50
305.6962593269
 51
310.4909397768
  0
ARC
  5
600
100
AcDbEntity
  8
RACCORDO
100
AcDbCircle
 62
7
  6
CONTINUOUS
 10
-22.375
 20
0.0
 40
27.8301797403
100
AcDbArc
 50
312.0305091384
 51
321.733405871
  0
ARC
  5
601
100
AcDbEntity
  8
RACCORDO
100
AcDbCircle
 62
7
  6
CONTINUOUS
 10
-22.375
 20
0.0
 40
27.8301797403
100
AcDbArc
 50
38.266594129
 51
47.9694908616
  0
ARC
  5
602
100
AcDbEntity
  8
DRAFT
100
AcDbCircle
 62
7
  6
CONTINUOUS
 10
-22.375
 20
0.0
 40
26.9080247758
100
AcDbArc
 50
311.8778232385
 51
322.3618912411
  0
ARC
  5
603
100
AcDbEntity
  8
DRAFT
100
AcDbCircle
 62
7
  6
CONTINUOUS
 10
-22.375
 20
0.0
 40
26.9080247758
100
AcDbArc
 50
37.6381087589
 51
48.1221767615
  0
ARC
  5
604
100
AcDbEntity
  8
DRAFT
100
AcDbCircle
 62
7
  6
CONTINUOUS
 10
-22.375
 20
0.0
 40
26.8382045161
100
AcDbArc
 50
37.6888778579
 51
48.1768245217
  0
ARC
  5
605
100
AcDbEntity
  8
DRAFT
100
AcDbCircle
 62
7
  6
CONTINUOUS
 10
-22.375
 20
0.0
 40
26.8382045161
100
AcDbArc
 50
311.8231754783
 51
322.3111221421
  0
ARC
  5
606
100
AcDbEntity
  8
0
100
AcDbCircle
 62
7
  6
CONTINUOUS
 10
-7.795944
 20
10.857674
 40
0.5673701434
100
AcDbArc
 50
292.8429066477
 51
90.0
  0
ARC
  5
607
100
AcDbEntity
  8
DRAFT
100
AcDbCircle
 62
7
  6
CONTINUOUS
 10
-16.075
 20
23.1
 40
0.5
100
AcDbArc
 50
254.3932919591
 51
355.690566844
  0
ARC
  5
608
100
AcDbEntity
  8
DRAFT
100
AcDbCircle
 62
7
  6
CONTINUOUS
 10
-6.175
 20
23.1
 40
0.5
100
AcDbArc
 50
184.309433156
 51
285.6067080409
  0
ARC
  5
609
100
AcDbEntity
  8
0
100
AcDbCircle
 62
7
  6
CONTINUOUS
 10
-7.847301
 20
10.857674
 40
0.225104
100
AcDbArc
 50
270.0
 51
90.0
  0
ARC
  5
60A
100
AcDbEntity
  8
0
100
AcDbCircle
 62
7
  6
CONTINUOUS
 10
9.275
 20
-14.0
 40
3.8
100
AcDbArc
 50
90.0
 51
270.0
  0
ARC
  5
60B
100
AcDbEntity
  8
0
100
AcDbCircle
 62
7
  6
CONTINUOUS
 10
1.875
 20
-13.5
 40
0.5
100
AcDbArc
 50
120.0
 51
240.0
  0
ARC
  5
60C
100
AcDbEntity
  8
DRAFT
100
AcDbCircle
 62
7
  6
CONTINUOUS
 10
4.125
 20
-20.25
 40
0.5
100
AcDbArc
 50
210.0
 51
330.0
  0
ARC
  5
60D
100
AcDbEntity
  8
0
100
AcDbCircle
 62
7
  6
CONTINUOUS
 10
13.475
 20
-14.0
 40
3.8
100
AcDbArc
 50
270.0
 51
90.0
  0
ARC
  5
60E
100
AcDbEntity
  8
0
100
AcDbCircle
 62
250
  6
CONTINUOUS
 10
11.375
 20
-14.0
 40
3.5248993522
100
AcDbArc
 50
162.2848500959
 51
257.7151499041
  0
ARC
  5
60F
100
AcDbEntity
  8
0
100
AcDbCircle
 62
250
  6
CONTINUOUS
 10
11.375
 20
-14.0
 40
3.5248993522
100
AcDbArc
 50
282.2848500959
 51
17.7151499041
  0
ARC
  5
610
100
AcDbEntity
  8
0
100
AcDbCircle
 62
250
  6
CONTINUOUS
 10
11.375
 20
-14.0
 40
3.5248993522
100
AcDbArc
 50
42.2848500959
 51
137.7151499041
  0
ARC
  5
611
100
AcDbEntity
  8
0
100
AcDbCircle
 62
250
  6
CONTINUOUS
 10
11.375
 20
-14.0
 40
3.2260409428
100
AcDbArc
 50
163.4433064498
 51
256.5566935502
  0
ARC
  5
612
100
AcDbEntity
  8
0
100
AcDbCircle
 62
250
  6
CONTINUOUS
 10
11.375
 20
-14.0
 40
3.2260409428
100
AcDbArc
 50
43.4433064498
 51
136.5566935502
  0
ARC
  5
613
100
AcDbEntity
  8
0
100
AcDbCircle
 62
250
  6
CONTINUOUS
 10
11.375
 20
-14.0
 40
3.2260409428
100
AcDbArc
 50
283.4433064498
 51
16.5566935502
  0
ARC
  5
614
100
AcDbEntity
  8
0
100
AcDbCircle
 62
7
  6
CONTINUOUS
 10
11.375
 20
-14.0
 40
3.0400272075
100
AcDbArc
 50
44.2828125326
 51
135.7171874674
  0
ARC
  5
615
100
AcDbEntity
  8
0
100
AcDbCircle
 62
7
  6
CONTINUOUS
 10
11.375
 20
-14.0
 40
3.0400272075
100
AcDbArc
 50
164.2828125326
 51
255.7171874674
  0
ARC
  5
616
100
AcDbEntity
  8
0
100
AcDbCircle
 62
7
  6
CONTINUOUS
 10
11.375
 20
-14.0
 40
3.0400272075
100
AcDbArc
 50
284.2828125326
 51
15.7171874674
  0
ARC
  5
617
100
AcDbEntity
  8
0
100
AcDbCircle
 62
250
  6
CONTINUOUS
 10
11.375
 20
-14.0
 40
2.5921572875
100
AcDbArc
 50
286.8181054078
 51
13.1818945922
  0
ARC
  5
618
100
AcDbEntity
  8
0
100
AcDbCircle
 62
250
  6
CONTINUOUS
 10
11.375
 20
-14.0
 40
2.5921572875
100
AcDbArc
 50
166.8181054078
 51
253.1818945922
  0
ARC
  5
619
100
AcDbEntity
  8
0
100
AcDbCircle
 62
250
  6
CONTINUOUS
 10
11.375
 20
-14.0
 40
2.5921572875
100
AcDbArc
 50
46.8181054078
 51
133.1818945922
  0
ARC
  5
61A
100
AcDbEntity
  8
0
100
AcDbCircle
 62
7
  6
CONTINUOUS
 10
11.375
 20
-14.0
 40
2.45
100
AcDbArc
 50
12.1712260281
 51
47.8320067786
  0
ARC
  5
61B
100
AcDbEntity
  8
0
100
AcDbCircle
 62
7
  6
CONTINUOUS
 10
11.375
 20
-14.0
 40
2.45
100
AcDbArc
 50
132.1679715216
 51
167.828819857
  0
ARC
  5
61C
100
AcDbEntity
  8
0
100
AcDbCircle
 62
7
  6
CONTINUOUS
 10
11.375
 20
-14.0
 40
2.45
100
AcDbArc
 50
252.1742941315
 51
287.8257058685
  0
ARC
  5
61D
100
AcDbEntity
  8
0
100
AcDbCircle
 62
250
  6
CONTINUOUS
 10
11.375
 20
-14.0
 40
2.4035954792
100
AcDbArc
 50
288.181763499
 51
11.818236501
  0
ARC
  5
61E
100
AcDbEntity
  8
0
100
AcDbCircle
 62
250
  6
CONTINUOUS
 10
11.375
 20
-14.0
 40
2.4035954792
100
AcDbArc
 50
168.181763499
 51
251.818236501
  0
ARC
  5
61F
100
AcDbEntity
  8
0
100
AcDbCircle
 62
250
  6
CONTINUOUS
 10
11.375
 20
-14.0
 40
2.4035954792
100
AcDbArc
 50
48.181763499
 51
131.818236501
  0
ARC
  5
620
100
AcDbEntity
  8
0
100
AcDbCircle
 62
7
  6
CONTINUOUS
 10
11.375
 20
-14.0
 40
2.375
100
AcDbArc
 50
48.4084801706
 51
131.5915198294
  0
ARC
  5
621
100
AcDbEntity
  8
0
100
AcDbCircle
 62
7
  6
CONTINUOUS
 10
11.375
 20
-14.0
 40
2.375
100
AcDbArc
 50
168.4084801706
 51
251.5915198294
  0
ARC
  5
622
100
AcDbEntity
  8
0
100
AcDbCircle
 62
7
  6
CONTINUOUS
 10
11.375
 20
-14.0
 40
2.375
100
AcDbArc
 50
288.4084801706
 51
11.5915198294
  0
ARC
  5
623
100
AcDbEntity
  8
0
100
AcDbCircle
 62
7
  6
CONTINUOUS
 10
20.875
 20
-13.5
 40
0.5
100
AcDbArc
 50
300.0
 51
60.0
  0
ARC
  5
624
100
AcDbEntity
  8
0
100
AcDbCircle
 62
7
  6
CONTINUOUS
 10
18.625
 20
-20.25
 40
0.3777773068
100
AcDbArc
 50
210.0032608293
 51
329.9967391707
  0
ARC
  5
625
100
AcDbEntity
  8
0
100
AcDbCircle
 62
7
  6
CONTINUOUS
 10
11.375
 20
-3.825
 40
1.5
100
AcDbArc
 50
219.2187884477
 51
320.7812115523
  0
ARC
  5
626
100
AcDbEntity
  8
RACCORDO
100
AcDbCircle
 62
7
  6
CONTINUOUS
 10
0.125
 20
-0.0
 40
28.0
100
AcDbArc
 50
218.3146467789
 51
232.7832475456
  0
ARC
  5
627
100
AcDbEntity
  8
RACCORDO
100
AcDbCircle
 62
7
  6
CONTINUOUS
 10
0.125
 20
-0.0
 40
28.0
100
AcDbArc
 50
127.2167523357
 51
141.6853531675
  0
ARC
  5
628
100
AcDbEntity
  8
DRAFT
100
AcDbCircle
 62
7
  6
CONTINUOUS
 10
0.125
 20
-0.0
 40
27.9
100
AcDbArc
 50
233.4047963402
 51
234.164044678
  0
ARC
  5
629
100
AcDbEntity
  8
DRAFT
100
AcDbCircle
 62
7
  6
CONTINUOUS
 10
0.125
 20
-0.0
 40
27.9
100
AcDbArc
 50
235.7520965189
 51
237.3831491754
  0
ARC
  5
62A
100
AcDbEntity
  8
DRAFT
100
AcDbCircle
 62
7
  6
CONTINUOUS
 10
0.125
 20
-0.0
 40
27.9
100
AcDbArc
 50
122.6168508246
 51
124.2479034811
  0
ARC
  5
62B
100
AcDbEntity
  8
DRAFT
100
AcDbCircle
 62
7
  6
CONTINUOUS
 10
0.125
 20
-0.0
 40
27.9
100
AcDbArc
 50
125.835955322
 51
126.5952036598
  0
ARC
  5
62C
100
AcDbEntity
  8
RACCORDO
100
AcDbCircle
 62
7
  6
CONTINUOUS
 10
0.125
 20
-0.0
 40
27.9
100
AcDbArc
 50
126.5955867406
 51
141.7870227264
  0
ARC
  5
62D
100
AcDbEntity
  8
RACCORDO
100
AcDbCircle
 62
7
  6
CONTINUOUS
 10
0.125
 20
-0.0
 40
27.9
100
AcDbArc
 50
218.2129772736
 51
233.4044132594
  0
ARC
  5
62E
100
AcDbEntity
  8
DRAFT
100
AcDbCircle
 62
7
  6
CONTINUOUS
 10
0.125
 20
-0.0
 40
27.8301797403
100
AcDbArc
 50
122.6588832103
 51
124.3875994762
  0
ARC
  5
62F
100
AcDbEntity
  8
DRAFT
100
AcDbCircle
 62
7
  6
CONTINUOUS
 10
0.125
 20
-0.0
 40
27.8301797403
100
AcDbArc
 50
125.6962593269
 51
130.4909397768
  0
ARC
  5
630
100
AcDbEntity
  8
DRAFT
100
AcDbCircle
 62
7
  6
CONTINUOUS
 10
0.125
 20
-0.0
 40
27.8301797403
100
AcDbArc
 50
229.5090602232
 51
234.3037406731
  0
ARC
  5
631
100
AcDbEntity
  8
DRAFT
100
AcDbCircle
 62
7
  6
CONTINUOUS
 10
0.125
 20
-0.0
 40
27.8301797403
100
AcDbArc
 50
235.6124005238
 51
237.3411167897
  0
ARC
  5
632
100
AcDbEntity
  8
RACCORDO
100
AcDbCircle
 62
7
  6
CONTINUOUS
 10
0.125
 20
-0.0
 40
27.8301797403
100
AcDbArc
 50
132.0305091384
 51
141.733405871
  0
ARC
  5
633
100
AcDbEntity
  8
RACCORDO
100
AcDbCircle
 62
7
  6
CONTINUOUS
 10
0.125
 20
-0.0
 40
27.8301797403
100
AcDbArc
 50
218.266594129
 51
227.9694908616
  0
ARC
  5
634
100
AcDbEntity
  8
DRAFT
100
AcDbCircle
 62
7
  6
CONTINUOUS
 10
0.125
 20
-0.0
 40
26.9080247758
100
AcDbArc
 50
131.8778232385
 51
142.3618912411
  0
ARC
  5
635
100
AcDbEntity
  8
DRAFT
100
AcDbCircle
 62
7
  6
CONTINUOUS
 10
0.125
 20
-0.0
 40
26.9080247758
100
AcDbArc
 50
217.6381087589
 51
228.1221767615
  0
ARC
  5
636
100
AcDbEntity
  8
DRAFT
100
AcDbCircle
 62
7
  6
CONTINUOUS
 10
0.125
 20
-0.0
 40
26.8382045161
100
AcDbArc
 50
131.8231754783
 51
142.3111221421
  0
ARC
  5
637
100
AcDbEntity
  8
DRAFT
100
AcDbCircle
 62
7
  6
CONTINUOUS
 10
0.125
 20
-0.0
 40
26.8382045161
100
AcDbArc
 50
217.6888778579
 51
228.1768245217
  0
ARC
  5
638
100
AcDbEntity
  8
0
100
AcDbCircle
 62
7
  6
CONTINUOUS
 10
11.375
 20
3.825
 40
1.5
100
AcDbArc
 50
39.2187884477
 51
140.7812115523
  0
ARC
  5
639
100
AcDbEntity
  8
0
100
AcDbCircle
 62
7
  6
CONTINUOUS
 10
20.875
 20
13.5
 40
0.5
100
AcDbArc
 50
300.0
 51
60.0
  0
ARC
  5
63A
100
AcDbEntity
  8
0
100
AcDbCircle
 62
7
  6
CONTINUOUS
 10
1.875
 20
13.5
 40
0.5
100
AcDbArc
 50
120.0
 51
240.0
  0
ARC
  5
63B
100
AcDbEntity
  8
DRAFT
100
AcDbCircle
 62
7
  6
CONTINUOUS
 10
18.625
 20
20.25
 40
0.5
100
AcDbArc
 50
30.0
 51
150.0
  0
ARC
  5
63C
100
AcDbEntity
  8
DRAFT
100
AcDbCircle
 62
7
  6
CONTINUOUS
 10
4.125
 20
20.25
 40
0.5
100
AcDbArc
 50
30.0
 51
150.0
  0
ELLIPSE
  5
63D
100
AcDbEntity
  8
RACCORDO
100
AcDbEllipse
 62
7
  6
CONTINUOUS
 10
20.3248781376
 20
-19.6998781376
 30
0.0
 11
-0.5658577513
 21
0.5658577513
 31
0.0
 40
0.9996954599
 41
2.3563467834
 42
3.9268385237
  0
ELLIPSE
  5
63E
100
AcDbEntity
  8
0
100
AcDbEllipse
 62
7
  6
CONTINUOUS
 10
7.043327448
 20
19.499847672
 30
0.0
 11
0.1305464196
 21
0.9915985036
 31
0.0
 40
0.999845056
 41
-0.1308796426
 42
0.1308796426
  0
ELLIPSE
  5
63F
100
AcDbEntity
  8
0
100
AcDbEllipse
 62
7
  6
CONTINUOUS
 10
8.6128903346
 20
21.150152328
 30
0.0
 11
-0.1305464196
 21
-0.9915985036
 31
0.0
 40
0.999845056
 41
-0.1308796426
 42
0.1308796426
  0
ELLIPSE
  5
640
100
AcDbEntity
  8
0
100
AcDbEllipse
 62
7
  6
CONTINUOUS
 10
14.1371096654
 20
21.150152328
 30
0.0
 11
0.1305464196
 21
-0.9915985036
 31
0.0
 40
0.999845056
 41
-0.1308796426
 42
0.1308796426
  0
ELLIPSE
  5
641
100
AcDbEntity
  8
0
100
AcDbEllipse
 62
7
  6
CONTINUOUS
 10
15.706672552
 20
19.499847672
 30
0.0
 11
-0.1305464196
 21
0.9915985036
 31
0.0
 40
0.999845056
 41
-0.1308796426
 42
0.1308796426
  0
ELLIPSE
  5
642
100
AcDbEntity
  8
RACCORDO
100
AcDbEllipse
 62
7
  6
CONTINUOUS
 10
20.3248781376
 20
19.6998781376
 30
0.0
 11
-0.5658577513
 21
-0.5658577513
 31
0.0
 40
0.9996954599
 41
2.3563467834
 42
3.9268385237
  0
ELLIPSE
  5
643
100
AcDbEntity
  8
RACCORDO
100
AcDbEllipse
 62
7
  6
CONTINUOUS
 10
2.4251218624
 20
19.6998781376
 30
0.0
 11
0.5658577513
 21
-0.5658577513
 31
0.0
 40
0.9996954599
 41
2.3563467834
 42
3.9268385237
  0
ELLIPSE
  5
644
100
AcDbEntity
  8
0
100
AcDbEllipse
 62
7
  6
CONTINUOUS
 10
7.043327448
 20
-19.499847672
 30
0.0
 11
-0.1305464196
 21
0.9915985036
 31
0.0
 40
0.999845056
 41
-3.2724722962
 42
-3.010713011
  0
ELLIPSE
  5
645
100
AcDbEntity
  8
RACCORDO
100
AcDbEllipse
 62
7
  6
CONTINUOUS
 10
2.4251218624
 20
-19.6998781376
 30
0.0
 11
0.5658577513
 21
0.5658577513
 31
0.0
 40
0.9996954599
 41
2.3563467834
 42
3.9268385237
  0
ELLIPSE
  5
646
100
AcDbEntity
  8
0
100
AcDbEllipse
 62
7
  6
CONTINUOUS
 10
8.6128903346
 20
-21.150152328
 30
0.0
 11
-0.1305464196
 21
0.9915985036
 31
0.0
 40
0.999845056
 41
-0.1308796426
 42
0.1308796426
  0
ELLIPSE
  5
647
100
AcDbEntity
  8
0
100
AcDbEllipse
 62
7
  6
CONTINUOUS
 10
20.9749809608
 20
-5.4999809608
 30
0.0
 11
-0.3535803156
 21
0.3535803156
 31
0.0
 40
0.9999238505
 41
2.5101743064
 42
3.9269527408
  0
ELLIPSE
  5
648
100
AcDbEntity
  8
0
100
AcDbEllipse
 62
7
  6
CONTINUOUS
 10
1.7750190392
 20
-5.4999809608
 30
0.0
 11
0.3535803156
 21
0.3535803156
 31
0.0
 40
0.9999238505
 41
2.3562325664
 42
3.7730110008
  0
ELLIPSE
  5
649
100
AcDbEntity
  8
0
100
AcDbEllipse
 62
7
  6
CONTINUOUS
 10
1.7750190392
 20
5.4999809608
 30
0.0
 11
0.3535803156
 21
-0.3535803156
 31
0.0
 40
0.9999238505
 41
2.5101743064
 42
3.9269527408
  0
ELLIPSE
  5
64A
100
AcDbEntity
  8
0
100
AcDbEllipse
 62
7
  6
CONTINUOUS
 10
20.9749809608
 20
5.4999809608
 30
0.0
 11
-0.3535803156
 21
-0.3535803156
 31
0.0
 40
0.9999238505
 41
2.3562325664
 42
3.7730110008
  0
ELLIPSE
  5
64B
100
AcDbEntity
  8
0
100
AcDbEllipse
 62
7
  6
CONTINUOUS
 10
1.6337275325
 20
-12.8795116193
 30
0.0
 11
0.0
 21
0.5
 31
0.0
 40
0.0174550649
 41
0.034906585
 42
1.5707963268
  0
ELLIPSE
  5
64C
100
AcDbEntity
  8
0
100
AcDbEllipse
 62
7
  6
CONTINUOUS
 10
1.6337275325
 20
12.8795116193
 30
0.0
 11
0.0
 21
0.5
 31
0.0
 40
0.0174550649
 41
-4.7123889804
 42
-3.1764992386
  0
ELLIPSE
  5
64D
100
AcDbEntity
  8
0
100
AcDbEllipse
 62
7
  6
CONTINUOUS
 10
21.1162724675
 20
-12.8795116193
 30
0.0
 11
-0.0
 21
0.5
 31
0.0
 40
0.0174550649
 41
-1.5707963268
 42
-0.034906585
  0
ELLIPSE
  5
64E
100
AcDbEntity
  8
0
100
AcDbEllipse
 62
7
  6
CONTINUOUS
 10
21.1162724675
 20
12.8795116193
 30
0.0
 11
0.0
 21
0.5
 31
0.0
 40
0.0174550649
 41
-3.1066860686
 42
-1.5707963268
  0
ELLIPSE
  5
64F
100
AcDbEntity
  8
0
100
AcDbEllipse
 62
7
  6
CONTINUOUS
 10
20.1895837402
 20
12.8795116193
 30
0.0
 11
0.0
 21
0.5
 31
0.0
 40
0.0174550649
 41
-3.1066860686
 42
-1.5707963268
  0
ELLIPSE
  5
650
100
AcDbEntity
  8
0
100
AcDbEllipse
 62
7
  6
CONTINUOUS
 10
17.175
 20
-3.9312722764
 30
0.0
 11
0.0
 21
0.8000109664
 31
0.0
 40
0.9999862922
 41
-3.1415926536
 42
-1.5707963268
  0
ELLIPSE
  5
651
100
AcDbEntity
  8
0
100
AcDbEllipse
 62
7
  6
CONTINUOUS
 10
5.575
 20
-3.9312722764
 30
0.0
 11
0.0
 21
0.8000109664
 31
0.0
 40
0.9999862922
 41
1.5707963268
 42
3.1415926536
  0
ELLIPSE
  5
652
100
AcDbEntity
  8
0
100
AcDbEllipse
 62
7
  6
CONTINUOUS
 10
20.1895837402
 20
-12.8795116193
 30
0.0
 11
0.0
 21
0.5
 31
0.0
 40
0.0174550649
 41
-1.5707963268
 42
-0.034906585
  0
ELLIPSE
  5
653
100
AcDbEntity
  8
0
100
AcDbEllipse
 62
7
  6
CONTINUOUS
 10
10.2371819369
 20
-9.3325396153
 30
0.0
 11
0.5
 21
-0.0
 31
0.0
 40
0.0349207695
 41
-1.5707963268
 42
-0.034906585
  0
ELLIPSE
  5
654
100
AcDbEntity
  8
0
100
AcDbEllipse
 62
7
  6
CONTINUOUS
 10
12.5128180631
 20
-9.3325396153
 30
0.0
 11
0.5
 21
0.0
 31
0.0
 40
0.0349207695
 41
-3.1066860685
 42
-1.5707963268
  0
ELLIPSE
  5
655
100
AcDbEntity
  8
0
100
AcDbEllipse
 62
7
  6
CONTINUOUS
 10
2.5604162598
 20
12.8795116193
 30
0.0
 11
0.0
 21
0.5
 31
0.0
 40
0.0174550649
 41
-4.7123889804
 42
-3.1764992386
  0
ELLIPSE
  5
656
100
AcDbEntity
  8
0
100
AcDbEllipse
 62
7
  6
CONTINUOUS
 10
2.5604162598
 20
-12.8795116193
 30
0.0
 11
0.0
 21
0.5
 31
0.0
 40
0.0174550649
 41
0.034906585
 42
1.5707963268
  0
ELLIPSE
  5
657
100
AcDbEntity
  8
0
100
AcDbEllipse
 62
7
  6
CONTINUOUS
 10
11.9182272133
 20
10.8876439933
 30
0.0
 11
-0.0
 21
1.0
 31
0.0
 40
0.0349207695
 41
0.034906585
 42
1.5707963268
  0
ELLIPSE
  5
658
100
AcDbEntity
  8
0
100
AcDbEllipse
 62
7
  6
CONTINUOUS
 10
11.7715599814
 20
6.8876439933
 30
0.0
 11
0.0
 21
1.0
 31
0.0
 40
0.0349207695
 41
0.034906585
 42
1.5707963268
  0
ELLIPSE
  5
659
100
AcDbEntity
  8
0
100
AcDbEllipse
 62
7
  6
CONTINUOUS
 10
12.5371268474
 20
-6.3004876354
 30
0.0
 11
0.5663748357
 21
-0.5663748357
 31
0.0
 40
0.998782766
 41
2.3568034778
 42
3.9263818294
  0
ELLIPSE
  5
65A
100
AcDbEntity
  8
0
100
AcDbEllipse
 62
7
  6
CONTINUOUS
 10
4.075
 20
-5.1463624597
 30
0.0
 11
-0.0
 21
-0.5003047721
 31
0.0
 40
0.999390827
 41
-1.5707963268
 42
-0.0
  0
ELLIPSE
  5
65B
100
AcDbEntity
  8
0
100
AcDbEllipse
 62
7
  6
CONTINUOUS
 10
10.2128731526
 20
-6.3004876354
 30
0.0
 11
0.5663748357
 21
0.5663748357
 31
0.0
 40
0.998782766
 41
-0.7847891758
 42
0.7847891758
  0
ELLIPSE
  5
65C
100
AcDbEntity
  8
0
100
AcDbEllipse
 62
7
  6
CONTINUOUS
 10
18.675
 20
5.1463624597
 30
0.0
 11
0.0
 21
0.5003047721
 31
0.0
 40
0.999390827
 41
-1.5707963268
 42
0.0
  0
ELLIPSE
  5
65D
100
AcDbEntity
  8
0
100
AcDbEllipse
 62
7
  6
CONTINUOUS
 10
10.2128731526
 20
6.3004876354
 30
0.0
 11
0.5663748357
 21
-0.5663748357
 31
0.0
 40
0.998782766
 41
-0.7847891758
 42
0.7847891758
  0
ELLIPSE
  5
65E
100
AcDbEntity
  8
0
100
AcDbEllipse
 62
7
  6
CONTINUOUS
 10
12.5371268474
 20
6.3004876354
 30
0.0
 11
0.5663748357
 21
0.5663748357
 31
0.0
 40
0.998782766
 41
-3.9263818294
 42
-2.3568034778
  0
ELLIPSE
  5
65F
100
AcDbEntity
  8
0
100
AcDbEllipse
 62
7
  6
CONTINUOUS
 10
4.075
 20
5.1463624597
 30
0.0
 11
-0.0
 21
-0.5003047721
 31
0.0
 40
0.999390827
 41
3.1415926536
 42
4.7123889804
  0
ELLIPSE
  5
660
100
AcDbEntity
  8
0
100
AcDbEllipse
 62
7
  6
CONTINUOUS
 10
18.675
 20
-5.1463624597
 30
0.0
 11
0.0
 21
0.5003047721
 31
0.0
 40
0.999390827
 41
3.1415926536
 42
4.7123889804
  0
ELLIPSE
  5
661
100
AcDbEntity
  8
0
100
AcDbEllipse
 62
7
  6
CONTINUOUS
 10
10.9784400186
 20
6.8876439933
 30
0.0
 11
-0.0
 21
1.0
 31
0.0
 40
0.0349207695
 41
-1.5707963268
 42
-0.034906585
  0
ELLIPSE
  5
662
100
AcDbEntity
  8
0
100
AcDbEllipse
 62
7
  6
CONTINUOUS
 10
10.8317727867
 20
10.8876439933
 30
0.0
 11
0.0
 21
1.0
 31
0.0
 40
0.0349207695
 41
-1.5707963268
 42
-0.034906585
  0
ELLIPSE
  5
663
100
AcDbEntity
  8
0
100
AcDbEllipse
 62
7
  6
CONTINUOUS
 10
10.9784400186
 20
-6.8876439933
 30
0.0
 11
-0.0
 21
1.0
 31
0.0
 40
0.0349207695
 41
-3.1066860685
 42
-1.5707963268
  0
ELLIPSE
  5
664
100
AcDbEntity
  8
0
100
AcDbEllipse
 62
7
  6
CONTINUOUS
 10
11.7715599814
 20
-6.8876439933
 30
0.0
 11
0.0
 21
1.0
 31
0.0
 40
0.0349207695
 41
1.5707963268
 42
3.1066860685
  0
ELLIPSE
  5
665
100
AcDbEntity
  8
0
100
AcDbEllipse
 62
7
  6
CONTINUOUS
 10
17.175
 20
3.9312722764
 30
0.0
 11
0.0
 21
0.8000109664
 31
0.0
 40
0.9999862922
 41
-1.5707963268
 42
0.0
  0
ELLIPSE
  5
666
100
AcDbEntity
  8
0
100
AcDbEllipse
 62
7
  6
CONTINUOUS
 10
5.575
 20
3.9312722764
 30
0.0
 11
0.0
 21
0.8000109664
 31
0.0
 40
0.9999862922
 41
0.0
 42
1.5707963268
  0
ELLIPSE
  5
667
100
AcDbEntity
  8
RACCORDO
100
AcDbEllipse
 62
7
  6
CONTINUOUS
 10
-13.6600790271
 20
0.0
 30
0.0
 11
0.0
 21
3.9096761185
 31
0.0
 40
0.0174550649
 41
-2.8797932658
 42
-2.6017206067
  0
ELLIPSE
  5
668
100
AcDbEntity
  8
RACCORDO
100
AcDbEllipse
 62
7
  6
CONTINUOUS
 10
-13.6600790271
 20
0.0
 30
0.0
 11
0.0
 21
3.9096761185
 31
0.0
 40
0.0174550649
 41
-0.5398720469
 42
-0.2617993878
  0
ELLIPSE
  5
669
100
AcDbEntity
  8
RACCORDO
100
AcDbEllipse
 62
7
  6
CONTINUOUS
 10
-8.5899209729
 20
0.0
 30
0.0
 11
0.0
 21
3.9096761185
 31
0.0
 40
0.0174550649
 41
0.2617993878
 42
0.5398720469
  0
ELLIPSE
  5
66A
100
AcDbEntity
  8
RACCORDO
100
AcDbEllipse
 62
7
  6
CONTINUOUS
 10
-8.5899209729
 20
0.0
 30
0.0
 11
0.0
 21
3.9096761185
 31
0.0
 40
0.0174550649
 41
-3.6814647005
 42
-3.4033920414
  0
ELLIPSE
  5
66B
100
AcDbEntity
  8
RACCORDO
100
AcDbEllipse
 62
7
  6
CONTINUOUS
 10
-7.4250114235
 20
-16.9074914576
 30
0.0
 11
0.0076527543
 21
0.319172335
 31
0.0
 40
0.9396610255
 41
-1.5452853501
 42
0.0225263213
  0
ELLIPSE
  5
66C
100
AcDbEntity
  8
RACCORDO
100
AcDbEllipse
 62
7
  6
CONTINUOUS
 10
-7.8249885765
 20
-16.9074914576
 30
0.0
 11
-0.0076527543
 21
0.319172335
 31
0.0
 40
0.9396610255
 41
-0.0225263213
 42
1.5452853501
  0
ELLIPSE
  5
66D
100
AcDbEntity
  8
RACCORDO
100
AcDbEllipse
 62
7
  6
CONTINUOUS
 10
-14.4250114235
 20
-16.9074914576
 30
0.0
 11
0.0076527543
 21
0.319172335
 31
0.0
 40
0.9396610255
 41
-1.5452853501
 42
0.0225263213
  0
ELLIPSE
  5
66E
100
AcDbEntity
  8
RACCORDO
100
AcDbEllipse
 62
7
  6
CONTINUOUS
 10
-21.1097135031
 20
-14.7
 30
0.0
 11
0.0
 21
0.2
 31
0.0
 40
0.0174550649
 41
-0.0
 42
1.5707963268
  0
ELLIPSE
  5
66F
100
AcDbEntity
  8
RACCORDO
100
AcDbEllipse
 62
7
  6
CONTINUOUS
 10
-14.8249885765
 20
-16.9074914576
 30
0.0
 11
-0.0076527543
 21
0.319172335
 31
0.0
 40
0.9396610255
 41
-0.0225263213
 42
1.5452853501
  0
ELLIPSE
  5
670
100
AcDbEntity
  8
RACCORDO
100
AcDbEllipse
 62
7
  6
CONTINUOUS
 10
-7.4250114235
 20
16.9074914576
 30
0.0
 11
-0.0076527543
 21
0.319172335
 31
0.0
 40
0.9396610255
 41
-3.1641189749
 42
-1.5963073035
  0
ELLIPSE
  5
671
100
AcDbEntity
  8
RACCORDO
100
AcDbEllipse
 62
7
  6
CONTINUOUS
 10
-7.8249885765
 20
16.9074914576
 30
0.0
 11
0.0076527543
 21
0.319172335
 31
0.0
 40
0.9396610255
 41
-4.6868780037
 42
-3.1190663323
  0
ELLIPSE
  5
672
100
AcDbEntity
  8
RACCORDO
100
AcDbEllipse
 62
7
  6
CONTINUOUS
 10
-1.1402864969
 20
-14.7
 30
0.0
 11
0.0
 21
0.2
 31
0.0
 40
0.0174550649
 41
-1.5707963268
 42
0.0
  0
ELLIPSE
  5
673
100
AcDbEntity
  8
RACCORDO
100
AcDbEllipse
 62
7
  6
CONTINUOUS
 10
-1.1402864969
 20
14.7
 30
0.0
 11
0.0
 21
0.2
 31
0.0
 40
0.0174550649
 41
-3.1415926536
 42
-1.5707963268
  0
ELLIPSE
  5
674
100
AcDbEntity
  8
RACCORDO
100
AcDbEllipse
 62
7
  6
CONTINUOUS
 10
-14.4250114235
 20
16.9074914576
 30
0.0
 11
-0.0076527543
 21
0.319172335
 31
0.0
 40
0.9396610255
 41
-3.1641189749
 42
-1.5963073035
  0
ELLIPSE
  5
675
100
AcDbEntity
  8
RACCORDO
100
AcDbEllipse
 62
7
  6
CONTINUOUS
 10
-21.1097135031
 20
14.7
 30
0.0
 11
-0.0
 21
0.2
 31
0.0
 40
0.0174550649
 41
1.5707963268
 42
3.1415926536
  0
ELLIPSE
  5
676
100
AcDbEntity
  8
RACCORDO
100
AcDbEllipse
 62
7
  6
CONTINUOUS
 10
-14.8249885765
 20
16.9074914576
 30
0.0
 11
0.0076527543
 21
0.319172335
 31
0.0
 40
0.9396610255
 41
-4.6868780037
 42
-3.1190663323
  0
ELLIPSE
  5
677
100
AcDbEntity
  8
DRAFT
100
AcDbEllipse
 62
7
  6
CONTINUOUS
 10
-22.375
 20
0.4785196826
 30
0.0
 11
0.0
 21
27.4143742547
 31
0.0
 40
0.9998476487
 41
-0.7442989358
 42
-0.7173022884
  0
ELLIPSE
  5
678
100
AcDbEntity
  8
DRAFT
100
AcDbEllipse
 62
7
  6
CONTINUOUS
 10
0.125
 20
0.4785196826
 30
0.0
 11
0.0
 21
27.4143742547
 31
0.0
 40
0.9998476487
 41
0.7173022884
 42
0.7442989358
  0
ELLIPSE
  5
679
100
AcDbEntity
  8
DRAFT
100
AcDbEllipse
 62
7
  6
CONTINUOUS
 10
-22.375
 20
-0.4785196826
 30
0.0
 11
0.0
 21
27.4143742547
 31
0.0
 40
0.9998476487
 41
-2.4242903652
 42
-2.3972937178
  0
ELLIPSE
  5
67A
100
AcDbEntity
  8
DRAFT
100
AcDbEllipse
 62
7
  6
CONTINUOUS
 10
0.125
 20
-0.4785196826
 30
0.0
 11
0.0
 21
27.4143742547
 31
0.0
 40
0.9998476487
 41
-3.8858915894
 42
-3.858894942
  0
ELLIPSE
  5
67B
100
AcDbEntity
  8
DRAFT
100
AcDbEllipse
 62
7
  6
CONTINUOUS
 10
-8.625
 20
-0.0
 30
0.0
 11
0.0
 21
1.725
 31
0.0
 40
0.0174550649
 41
-2.8456297321
 42
-0.2959629215
  0
ELLIPSE
  5
67C
100
AcDbEntity
  8
DRAFT
100
AcDbEllipse
 62
7
  6
CONTINUOUS
 10
-13.625
 20
0.0
 30
0.0
 11
0.0
 21
1.725
 31
0.0
 40
0.0174550649
 41
0.2959629215
 42
2.8456297321
  0
ELLIPSE
  5
67D
100
AcDbEntity
  8
RACCORDO
100
AcDbEllipse
 62
7
  6
CONTINUOUS
 10
-21.524923836
 20
-21.3498286038
 30
0.0
 11
-0.2774630169
 21
-0.416247366
 31
0.0
 40
0.9995051766
 41
-0.9826238685
 42
0.5877156075
  0
ELLIPSE
  5
67E
100
AcDbEntity
  8
RACCORDO
100
AcDbEllipse
 62
7
  6
CONTINUOUS
 10
-21.524923836
 20
21.3498286038
 30
0.0
 11
0.2774630169
 21
-0.416247366
 31
0.0
 40
0.9995051766
 41
2.5538770461
 42
4.1242165221
  0
ELLIPSE
  5
67F
100
AcDbEntity
  8
RACCORDO
100
AcDbEllipse
 62
7
  6
CONTINUOUS
 10
21.774923836
 20
-21.3498286038
 30
0.0
 11
0.2774630169
 21
-0.416247366
 31
0.0
 40
0.9995051766
 41
-0.5877156075
 42
0.9826238685
  0
ELLIPSE
  5
680
100
AcDbEntity
  8
RACCORDO
100
AcDbEllipse
 62
7
  6
CONTINUOUS
 10
21.774923836
 20
21.3498286038
 30
0.0
 11
-0.2774630169
 21
-0.416247366
 31
0.0
 40
0.9995051766
 41
2.1589687851
 42
3.7293082611
  0
ELLIPSE
  5
681
100
AcDbEntity
  8
DRAFT
100
AcDbEllipse
 62
7
  6
CONTINUOUS
 10
-10.6645177505
 20
2.35
 30
0.0
 11
-0.0
 21
1.0
 31
0.0
 40
0.0087268678
 41
-3.8397243544
 42
-3.1415926538
  0
ELLIPSE
  5
682
100
AcDbEntity
  8
DRAFT
100
AcDbEllipse
 62
7
  6
CONTINUOUS
 10
-10.6520532902
 20
0.0
 30
0.0
 11
0.0
 21
1.75
 31
0.0
 40
0.0087268678
 41
2.5954713602
 42
3.4806274902
  0
ELLIPSE
  5
683
100
AcDbEntity
  8
DRAFT
100
AcDbEllipse
 62
7
  6
CONTINUOUS
 10
-10.6520532902
 20
0.0
 30
0.0
 11
0.0
 21
1.75
 31
0.0
 40
0.0087268678
 41
-0.3390348366
 42
0.5461212934
  0
ELLIPSE
  5
684
100
AcDbEntity
  8
DRAFT
100
AcDbEllipse
 62
7
  6
CONTINUOUS
 10
-14.977961654
 20
-0.0
 30
0.0
 11
0.0
 21
498.2
 31
0.0
 40
0.0087268678
 41
-1.5674843968
 42
-1.5635751421
  0
ELLIPSE
  5
685
100
AcDbEntity
  8
DRAFT
100
AcDbEllipse
 62
7
  6
CONTINUOUS
 10
-14.977961654
 20
-0.0
 30
0.0
 11
0.0
 21
498.2
 31
0.0
 40
0.0087268678
 41
-1.5780175115
 42
-1.5741082568
  0
ELLIPSE
  5
686
100
AcDbEntity
  8
0
100
AcDbEllipse
 62
7
  6
CONTINUOUS
 10
-20.9256082175
 20
-20.7006082175
 30
0.0
 11
0.1414321262
 21
0.1414321262
 31
0.0
 40
0.9999238505
 41
-3.9269527408
 42
-2.3562325664
  0
ELLIPSE
  5
687
100
AcDbEntity
  8
0
100
AcDbEllipse
 62
7
  6
CONTINUOUS
 10
0.4756082175
 20
-20.7006082175
 30
0.0
 11
0.1414321262
 21
-0.1414321262
 31
0.0
 40
0.9999238505
 41
-0.7853600872
 42
0.7853600872
  0
ELLIPSE
  5
688
100
AcDbEntity
  8
0
100
AcDbEllipse
 62
7
  6
CONTINUOUS
 10
0.4756082175
 20
20.7006082175
 30
0.0
 11
0.1414321262
 21
0.1414321262
 31
0.0
 40
0.9999238505
 41
-0.7853600872
 42
0.7853600872
  0
ELLIPSE
  5
689
100
AcDbEntity
  8
0
100
AcDbEllipse
 62
7
  6
CONTINUOUS
 10
-20.9256082175
 20
20.7006082175
 30
0.0
 11
-0.1414321262
 21
0.1414321262
 31
0.0
 40
0.9999238505
 41
-0.7853600872
 42
0.7853600872
  0
ELLIPSE
  5
68A
100
AcDbEntity
  8
0
100
AcDbEllipse
 62
7
  6
CONTINUOUS
 10
21.1756082175
 20
-20.7006082175
 30
0.0
 11
0.1414321262
 21
-0.1414321262
 31
0.0
 40
0.9999238505
 41
-0.7853600872
 42
0.7853600872
  0
ELLIPSE
  5
68B
100
AcDbEntity
  8
0
100
AcDbEllipse
 62
7
  6
CONTINUOUS
 10
21.1756082175
 20
20.7006082175
 30
0.0
 11
0.1414321262
 21
0.1414321262
 31
0.0
 40
0.9999238505
 41
-0.7853600872
 42
0.7853600872
  0
ELLIPSE
  5
68C
100
AcDbEntity
  8
0
100
AcDbEllipse
 62
7
  6
CONTINUOUS
 10
1.5743917825
 20
20.7006082175
 30
0.0
 11
0.1414321262
 21
-0.1414321262
 31
0.0
 40
0.9999238505
 41
2.3562325664
 42
3.9269527408
  0
ELLIPSE
  5
68D
100
AcDbEntity
  8
0
100
AcDbEllipse
 62
7
  6
CONTINUOUS
 10
1.5743917825
 20
-20.7006082175
 30
0.0
 11
0.1414321262
 21
0.1414321262
 31
0.0
 40
0.9999238505
 41
-3.9269527408
 42
-2.3562325664
  0
ELLIPSE
  5
68E
100
AcDbEntity
  8
DRAFT
100
AcDbEllipse
 62
7
  6
CONTINUOUS
 10
-10.6701063692
 20
2.2346492708
 30
0.0
 11
-0.0
 21
0.5
 31
0.0
 40
0.0087268678
 41
0.1853498021
 42
2.4434609528
  0
ELLIPSE
  5
68F
100
AcDbEntity
  8
DRAFT
100
AcDbEllipse
 62
7
  6
CONTINUOUS
 10
-10.6645177505
 20
-2.35
 30
0.0
 11
-0.0
 21
1.0
 31
0.0
 40
0.0087268678
 41
5.7370640138
 42
6.981317008
  0
ELLIPSE
  5
690
100
AcDbEntity
  8
DRAFT
100
AcDbEllipse
 62
7
  6
CONTINUOUS
 10
-10.6701063692
 20
-2.2346492708
 30
0.0
 11
0.0
 21
0.5
 31
0.0
 40
0.0087268678
 41
0.6981317008
 42
2.9562428515
  0
ENDSEC
  0
SECTION
  2
OBJECTS
  0
DICTIONARY
  5
C
100
AcDbDictionary
280
0
281
1
  3
ACAD_GROUP
350
D
  3
ACAD_MLINESTYLE
350
17
  3
ACAD_LAYOUT
350
1A
  3
ACAD_PLOTSETTINGS
350
19
  3
ACAD_PLOTSTYLENAME
350
E
  0
DICTIONARY
  5
D
102
{ACAD_REACTORS
330
C
102
}
100
AcDbDictionary
280
0
281
1
  0
ACDBDICTIONARYWDFLT
  5
E
102
{ACAD_REACTORS
330
C
102
}
100
AcDbDictionary
281
1
  3
Normal
350
F
100
AcDbDictionaryWithDefault
340
F
  0
DICTIONARY
  5
17
102
{ACAD_REACTORS
330
C
102
}
100
AcDbDictionary
280
0
281
1
  3
Standard
350
18
  0
DICTIONARY
  5
19
102
{ACAD_REACTORS
330
C
102
}
100
AcDbDictionary
281
1
  0
DICTIONARY
  5
1A
102
{ACAD_REACTORS
330
C
102
}
100
AcDbDictionary
281
1
  3
Model
350
691
  3
Layout1
350
692
  0
ACDBPLACEHOLDER
  5
F
102
{ACAD_REACTORS
330
E
102
}
  0
MLINESTYLE
  5
18
102
{ACAD_REACTORS
330
17
102
}
100
AcDbMlineStyle
  2
STANDARD
 70
0
  3

 62
256
 51
90.0
 52
90.0
 71
2
 49
0.5
 62
256
  6
BYLAYER
 49
-0.5
 62
256
  6
BYLAYER
  0
LAYOUT
  5
691
102
{ACAD_REACTORS
330
1A
102
}
100
AcDbPlotSettings
  1

  2
none_device
  4
ISO_A4_(297.00_x_210.00_MM)
  6

 40
0.0
 41
0.0
 42
0.0
 43
0.0
 44
297.0
 45
210.0
 46
0.0
 47
0.0
 48
0.0
 49
0.0
140
0.0
141
0.0
142
1.0
143
1.0
 70
1024
 72
1
 73
0
 74
0
  7

 75
0
147
1.0
148
0.0
149
0.0
100
AcDbLayout
  1
Model
 70
0
 71
0
 10
0.0
 20
0.0
 11
297.0
 21
210.0
 12
0.0
 22
0.0
 32
0.0
 14
0.0
 24
0.0
 34
0.0
 15
0.0
 25
0.0
 35
0.0
146
0.0
 13
0.0
 23
0.0
 33
0.0
 16
1.0
 26
0.0
 36
0.0
 17
0.0
 27
1.0
 37
0.0
 76
0
330
214
345
0
346
0
  0
LAYOUT
  5
692
102
{ACAD_REACTORS
330
1A
102
}
100
AcDbPlotSettings
  1

  2
none_device
  4
ISO_A4_(297.00_x_210.00_MM)
  6

 40
0.0
 41
0.0
 42
0.0
 43
0.0
 44
297.0
 45
210.0
 46
0.0
 47
0.0
 48
0.0
 49
0.0
140
0.0
141
0.0
142
1.0
143
1.0
 70
0
 72
1
 73
0
 74
0
  7

 75
0
147
1.0
148
0.0
149
0.0
100
AcDbLayout
  1
Layout1
 70
0
 71
1
 10
0.0
 20
0.0
 11
297.0
 21
210.0
 12
0.0
 22
0.0
 32
0.0
 14
0.0
 24
0.0
 34
0.0
 15
0.0
 25
0.0
 35
0.0
146
0.0
 13
0.0
 23
0.0
 33
0.0
 16
1.0
 26
0.0
 36
0.0
 17
0.0
 27
1.0
 37
0.0
 76
0
330
215
345
0
346
0
  0
ENDSEC
  0
EOF
