  0
SECTION
  2
HEADER
  9
$ACADVER
  1
AC1024
  9
$DWGCODEPAGE
  3
ANSI_1252
  9
$EXTMAX
 10
297.0
 20
210.0
 30
0.0
  9
$EXTMIN
 10
0.0
 20
0.0
 30
0.0
  9
$LIMMIN
 10
0.0
 20
0.0
  9
$LIMMAX
 10
297.0
 20
210.0
  9
$VIEWCTR
 10
148.5
 20
105.0
  9
$VIEWSIZE
 40
210.0
  9
$CLAYER
  8
0
  9
$LTSCALE
 40
16.335
  9
$CELTYPE
  6
BYLAYER
  9
$DIMSCALE
 40
1.0
  9
$DIMASZ
 40
3.0
  9
$DIMEXO
 40
0.5
  9
$DIMDLI
 40
11.286
  9
$DIMEXE
 40
1.5
  9
$DIMCEN
 40
2.673
  9
$DIMLFAC
 40
1.0
  9
$DIMBLK
  1
_FILLED
  9
$DIMALT
 70
0
  9
$DIMALTF
 40
0.0393700787
  9
$DIMTXT
 40
3.0
  9
$DIMTOL
 70
1
  9
$DIMLIM
 70
0
  9
$DIMTFAC
 40
1.0
  9
$DIMTP
 40
0.01
  9
$DIMTM
 40
0.01
  9
$DIMGAP
 40
0.625
  9
$DIMDSEP
 70
44
  9
$AUNITS
 70
0
  9
$PDMODE
 70
3
  9
$PDSIZE
 40
3.0
  9
$HANDSEED
  5
53A
  9
$TILEMODE
 70
1
  9
$MEASUREMENT
 70
1
  9
$INSUNITS
 70
4
  0
ENDSEC
  0
SECTION
  2
CLASSES
  0
CLASS
  1
ACDBDICTIONARYWDFLT
  2
AcDbDictionaryWithDefault
  3
AutoCAD 2000
 90
0
 91
1
280
0
281
0
  0
CLASS
  1
ACDBPLACEHOLDER
  2
AcDbPlaceHolder
  3
AutoCAD 2000
 90
0
 91
1
280
0
281
0
  0
CLASS
  1
LAYOUT
  2
AcDbLayout
  3
AutoCAD 2000
 90
0
 91
0
280
0
281
0
  0
ENDSEC
  0
SECTION
  2
TABLES
  0
TABLE
  2
VPORT
  5
8
100
AcDbSymbolTable
 70
2
  0
VPORT
  5
1F4
100
AcDbSymbolTableRecord
100
AcDbViewportTableRecord
  2
*ACTIVE
 70
0
 10
0.0
 20
0.0
 11
1.0
 21
1.0
 12
148.5
 22
105.0
 13
0.0
 23
0.0
 14
1.0
 24
1.0
 15
0.0
 25
0.0
 16
0.0
 26
0.0
 36
1.0
 17
0.0
 27
0.0
 37
0.0
 40
210.0
 41
1.4142857143
 42
50.0
 43
0.0
 44
0.0
 50
0.0
 51
0.0
 71
0
 72
100
 73
1
 74
1
 75
0
 76
0
 77
0
 78
0
  0
ENDTAB
  0
TABLE
  2
LTYPE
  5
5
100
AcDbSymbolTable
 70
6
  0
LTYPE
  5
14
100
AcDbSymbolTableRecord
100
AcDbLinetypeTableRecord
  2
BYBLOCK
 70
0
  3

 72
65
 73
0
 40
0.0
  0
LTYPE
  5
15
100
AcDbSymbolTableRecord
100
AcDbLinetypeTableRecord
  2
BYLAYER
 70
0
  3

 72
65
 73
0
 40
0.0
  0
LTYPE
  5
16
100
AcDbSymbolTableRecord
100
AcDbLinetypeTableRecord
  2
CONTINUOUS
 70
64
  3
Solid line
 72
65
 73
0
 40
0.0
  0
LTYPE
  5
1F5
100
AcDbSymbolTableRecord
100
AcDbLinetypeTableRecord
  2
CENTER
 70
64
  3
____ _ ____ _ ____ _ ____ _ ____ _ ____ _ ____
 72
65
 73
4
 40
0.6
 49
0.375
 74
0
 49
-0.075
 74
0
 49
0.075
 74
0
 49
-0.075
 74
0
  0
LTYPE
  5
1F6
100
AcDbSymbolTableRecord
100
AcDbLinetypeTableRecord
  2
HIDDEN
 70
64
  3
- - - - - - - - - - - - - - - - - - - -
 72
65
 73
2
 40
0.2
 49
0.1
 74
0
 49
-0.1
 74
0
  0
LTYPE
  5
1F7
100
AcDbSymbolTableRecord
100
AcDbLinetypeTableRecord
  2
PHANTOM
 70
64
  3
_____ _ _ _____ _ _ _____ _ _ _____
 72
65
 73
6
 40
0.8
 49
0.45
 74
0
 49
-0.05
 74
0
 49
0.1
 74
0
 49
-0.05
 74
0
 49
0.1
 74
0
 49
-0.05
 74
0
  0
LTYPE
  5
1F8
100
AcDbSymbolTableRecord
100
AcDbLinetypeTableRecord
  2
DOT
 70
64
  3
. . . . . . . . . . . . . . . . . . . .
 72
65
 73
2
 40
0.2
 49
0.1
 74
0
 49
-0.1
 74
0
  0
LTYPE
  5
1F9
100
AcDbSymbolTableRecord
100
AcDbLinetypeTableRecord
  2
DASHED
 70
64
  3
- - - - - - - - - - - - - - - - - - - -
 72
65
 73
2
 40
0.2
 49
0.1
 74
0
 49
-0.1
 74
0
  0
ENDTAB
  0
TABLE
  2
LAYER
  5
2
100
AcDbSymbolTable
 70
36
  0
LAYER
  5
10
100
AcDbSymbolTableRecord
100
AcDbLayerTableRecord
  2
0
 70
0
 62
7
  6
CONTINUOUS
370
-3
390
F
  0
LAYER
  5
1FA
100
AcDbSymbolTableRecord
100
AcDbLayerTableRecord
  2
DEFAULT_1
 70
0
 62
7
  6
CENTER
370
-3
390
F
  0
LAYER
  5
1FB
100
AcDbSymbolTableRecord
100
AcDbLayerTableRecord
  2
DEFAULT_2
 70
0
 62
7
  6
HIDDEN
370
-3
390
F
  0
LAYER
  5
1FC
100
AcDbSymbolTableRecord
100
AcDbLayerTableRecord
  2
DEFAULT_3
 70
0
 62
7
  6
PHANTOM
370
-3
390
F
  0
LAYER
  5
1FD
100
AcDbSymbolTableRecord
100
AcDbLayerTableRecord
  2
ASSI
 70
0
 62
7
  6
CONTINUOUS
370
-3
390
F
  0
LAYER
  5
1FE
100
AcDbSymbolTableRecord
100
AcDbLayerTableRecord
  2
COORDINATE
 70
0
 62
7
  6
CONTINUOUS
370
-3
390
F
  0
LAYER
  5
1FF
100
AcDbSymbolTableRecord
100
AcDbLayerTableRecord
  2
COORD_ORIGINE
 70
0
 62
7
  6
CONTINUOUS
370
-3
390
F
  0
LAYER
  5
200
100
AcDbSymbolTableRecord
100
AcDbLayerTableRecord
  2
COPY_PUBLISH
 70
0
 62
7
  6
CONTINUOUS
370
-3
390
F
  0
LAYER
  5
201
100
AcDbSymbolTableRecord
100
AcDbLayerTableRecord
  2
COSMETIC
 70
0
 62
7
  6
CONTINUOUS
370
-3
390
F
  0
LAYER
  5
202
100
AcDbSymbolTableRecord
100
AcDbLayerTableRecord
  2
COSMETICI
 70
0
 62
7
  6
CONTINUOUS
370
-3
390
F
  0
LAYER
  5
203
100
AcDbSymbolTableRecord
100
AcDbLayerTableRecord
  2
CURVE
 70
0
 62
7
  6
CONTINUOUS
370
-3
390
F
  0
LAYER
  5
204
100
AcDbSymbolTableRecord
100
AcDbLayerTableRecord
  2
DRAFT
 70
0
 62
7
  6
CONTINUOUS
370
-3
390
F
  0
LAYER
  5
205
100
AcDbSymbolTableRecord
100
AcDbLayerTableRecord
  2
IMPORT_IGES
 70
0
 62
7
  6
CONTINUOUS
370
-3
390
F
  0
LAYER
  5
206
100
AcDbSymbolTableRecord
100
AcDbLayerTableRecord
  2
INTFCLR_1
 70
0
 62
7
  6
CONTINUOUS
370
-3
390
F
  0
LAYER
  5
207
100
AcDbSymbolTableRecord
100
AcDbLayerTableRecord
  2
NOTE
 70
0
 62
7
  6
CONTINUOUS
370
-3
390
F
  0
LAYER
  5
208
100
AcDbSymbolTableRecord
100
AcDbLayerTableRecord
  2
PIANI
 70
0
 62
7
  6
CONTINUOUS
370
-3
390
F
  0
LAYER
  5
209
100
AcDbSymbolTableRecord
100
AcDbLayerTableRecord
  2
PIANI_ORIGINE
 70
0
 62
7
  6
CONTINUOUS
370
-3
390
F
  0
LAYER
  5
20A
100
AcDbSymbolTableRecord
100
AcDbLayerTableRecord
  2
PUNTI
 70
0
 62
7
  6
CONTINUOUS
370
-3
390
F
  0
LAYER
  5
20B
100
AcDbSymbolTableRecord
100
AcDbLayerTableRecord
  2
RACCORDO
 70
0
 62
7
  6
CONTINUOUS
370
-3
390
F
  0
LAYER
  5
20C
100
AcDbSymbolTableRecord
100
AcDbLayerTableRecord
  2
SIMBOLI
 70
0
 62
7
  6
CONTINUOUS
370
-3
390
F
  0
LAYER
  5
20D
100
AcDbSymbolTableRecord
100
AcDbLayerTableRecord
  2
SIMBOLO
 70
0
 62
7
  6
CONTINUOUS
370
-3
390
F
  0
LAYER
  5
20E
100
AcDbSymbolTableRecord
100
AcDbLayerTableRecord
  2
SMUSSO
 70
0
 62
7
  6
CONTINUOUS
370
-3
390
F
  0
LAYER
  5
20F
100
AcDbSymbolTableRecord
100
AcDbLayerTableRecord
  2
SNAPLINE
 70
0
 62
7
  6
CONTINUOUS
370
-3
390
F
  0
LAYER
  5
210
100
AcDbSymbolTableRecord
100
AcDbLayerTableRecord
  2
SUPERFICI
 70
0
 62
7
  6
CONTINUOUS
370
-3
390
F
  0
LAYER
  5
211
100
AcDbSymbolTableRecord
100
AcDbLayerTableRecord
  2
TRASH
 70
0
 62
7
  6
CONTINUOUS
370
-3
390
F
  0
LAYER
  5
212
100
AcDbSymbolTableRecord
100
AcDbLayerTableRecord
  2
XSEC_DATUMS
 70
0
 62
7
  6
CONTINUOUS
370
-3
390
F
  0
ENDTAB
  0
TABLE
  2
STYLE
  5
3
100
AcDbSymbolTable
 70
1
  0
STYLE
  5
11
100
AcDbSymbolTableRecord
100
AcDbTextStyleTableRecord
  2
STANDARD
 70
0
 40
0.0
 41
0.8
 50
0.0
 71
0
 42
0.2
  3
txt
  4

  0
STYLE
  5
213
100
AcDbSymbolTableRecord
100
AcDbTextStyleTableRecord
  2
TEXTSTYLE_1
 70
0
 40
0.0
 41
0.8
 50
0.0
 71
0
 42
0.2
  3
gdt
  4

  0
ENDTAB
  0
TABLE
  2
VIEW
  5
6
100
AcDbSymbolTable
 70
0
  0
ENDTAB
  0
TABLE
  2
UCS
  5
7
100
AcDbSymbolTable
 70
0
  0
ENDTAB
  0
TABLE
  2
APPID
  5
9
100
AcDbSymbolTable
 70
1
  0
APPID
  5
214
100
AcDbSymbolTableRecord
100
AcDbRegAppTableRecord
  2
ACAD
 70
0
  0
ENDTAB
  0
TABLE
  2
BLOCK_RECORD
  5
1
100
AcDbSymbolTable
 70
0
  0
BLOCK_RECORD
  5
215
100
AcDbSymbolTableRecord
100
AcDbBlockTableRecord
  2
*Model_Space
  0
BLOCK_RECORD
  5
216
100
AcDbSymbolTableRecord
100
AcDbBlockTableRecord
  2
*Paper_Space
  0
BLOCK_RECORD
  5
217
100
AcDbSymbolTableRecord
100
AcDbBlockTableRecord
  2
_FILLED
  0
ENDTAB
  0
TABLE
  2
DIMSTYLE
  5
A
100
AcDbSymbolTable
 70
1
100
AcDbDimStyleTable
 71
0
  0
DIMSTYLE
105
218
100
AcDbSymbolTableRecord
100
AcDbDimStyleTableRecord
  2
STANDARD
 70
0
  3

  4

 40
1.0
 41
3.0
 42
0.5
 43
0.38
 44
1.5
 45
0.0
 46
0.0
 47
0.01
 48
0.01
140
3.0
141
0.09
142
0.0
143
25.4
144
1.0
145
0.0
146
1.0
147
0.625
 71
1
 72
0
 73
0
 74
0
 75
0
 76
0
 77
1
 78
8
 79
2
170
0
171
1
172
0
173
0
174
0
175
0
176
0
177
0
178
0
270
2
179
2
271
2
272
2
273
2
274
2
275
0
280
0
281
0
282
0
283
1
284
8
285
0
286
0
287
3
288
0
340
11
278
44
341
217
342
217
343
217
344
217
  0
ENDTAB
  0
ENDSEC
  0
SECTION
  2
BLOCKS
  0
BLOCK
  5
20
100
AcDbEntity
  8
0
100
AcDbBlockBegin
  2
*Model_Space
 70
0
 10
0.0
 20
0.0
 30
0.0
  3
*Model_Space
  1

  0
ENDBLK
  5
21
100
AcDbEntity
  8
0
100
AcDbBlockEnd
  0
BLOCK
  5
1C
100
AcDbEntity
  8
0
100
AcDbBlockBegin
  2
*Paper_Space
 70
0
 10
0.0
 20
0.0
 30
0.0
  3
*Paper_Space
  1

  0
ENDBLK
  5
1D
100
AcDbEntity
  8
0
100
AcDbBlockEnd
  0
BLOCK
  5
219
100
AcDbEntity
  8
0
100
AcDbBlockBegin
  2
_FILLED
 70
64
 10
0.0
 20
0.0
  3
_FILLED
  1

  0
SOLID
  5
21A
100
AcDbEntity
  8
0
  6
BYBLOCK
 62
0
100
AcDbTrace
 10
0.0
 20
0.0
 11
-1.0
 21
0.3166666667
 12
-1.0
 22
-0.3166666667
 13
-1.0
 23
-0.3166666667
  0
ENDBLK
  5
21B
100
AcDbEntity
  8
0
  6
BYBLOCK
 62
0
100
AcDbBlockEnd
  0
ENDSEC
  0
SECTION
  2
ENTITIES
  0
LWPOLYLINE
  5
21C
100
AcDbEntity
  8
ASSI
100
AcDbPolyline
 62
7
  6
CONTINUOUS
 90
11
 70
0
 10
-10.1630151405
 20
18.6494830795
 10
-10.1620078282
 20
18.6511153915
 10
-10.1596386153
 20
18.6527205853
 10
-10.1559228741
 20
18.6542986609
 10
-10.1508876932
 20
18.6558568441
 10
-10.1445604922
 20
18.6573879092
 10
-10.1369589215
 20
18.6588701791
 10
-10.128100617
 20
18.6603054088
 10
-10.118041001
 20
18.6616918435
 10
-10.1068674097
 20
18.6630025414
 10
-10.1
 20
18.6636957911
  0
LWPOLYLINE
  5
21D
100
AcDbEntity
  8
RACCORDO
100
AcDbPolyline
 62
7
  6
CONTINUOUS
 90
7
 70
0
 10
-10.1630151405
 20
18.6494830795
 10
-10.1603710011
 20
18.6523749495
 10
-10.1536032888
 20
18.6551312459
 10
-10.1428202558
 20
18.6577519689
 10
-10.1281978591
 20
18.6602761265
 10
-10.1099758134
 20
18.6626647107
 10
-10.1
 20
18.663654729
  0
LWPOLYLINE
  5
21E
100
AcDbEntity
  8
RACCORDO
100
AcDbPolyline
 62
7
  6
CONTINUOUS
 90
7
 70
0
 10
-10.154287608
 20
15.8138421697
 10
-10.1516443489
 20
15.8165860057
 10
-10.1448788752
 20
15.8193725602
 10
-10.1340980912
 20
15.8221099556
 10
-10.1194760356
 20
15.8246706408
 10
-10.1012516788
 20
15.8270083981
 10
-10.1
 20
15.8271334931
  0
LWPOLYLINE
  5
21F
100
AcDbEntity
  8
0
100
AcDbPolyline
 62
7
  6
CONTINUOUS
 90
10
 70
0
 10
0.6381226496
 20
25.3188633095
 10
0.650959637
 20
25.3294918756
 10
0.6759955985
 20
25.3548464132
 10
0.713230534
 20
25.3939711939
 10
0.7647015006
 20
25.4456126624
 10
0.8283714411
 20
25.5080256941
 10
0.8981291848
 20
25.5788698447
 10
0.9719376745
 20
25.6557415456
 10
1.0518339673
 20
25.736415761
 10
1.1378180631
 20
25.818558723
  0
LINE
  5
220
100
AcDbEntity
  8
ASSI
100
AcDbLine
 62
7
  6
CONTINUOUS
 10
-10.259966909
 20
19.3600934124
 11
-9.9506158332
 21
20.0234989354
  0
LINE
  5
221
100
AcDbEntity
  8
DRAFT
100
AcDbLine
 62
7
  6
CONTINUOUS
 10
-10.259966909
 20
19.3600934124
 11
-9.9506158332
 21
20.0234989354
  0
LINE
  5
222
100
AcDbEntity
  8
ASSI
100
AcDbLine
 62
250
  6
CONTINUOUS
 10
-10.1630151405
 20
19.3385997228
 11
-9.9021436407
 21
19.8980404593
  0
LINE
  5
223
100
AcDbEntity
  8
RACCORDO
100
AcDbLine
 62
250
  6
CONTINUOUS
 10
-10.1630151405
 20
19.3385997228
 11
-9.9021436407
 21
19.8980404593
  0
LINE
  5
224
100
AcDbEntity
  8
ASSI
100
AcDbLine
 62
250
  6
CONTINUOUS
 10
-9.9130532167
 20
19.2831844984
 11
-9.6766887273
 21
19.7900697816
  0
LINE
  5
225
100
AcDbEntity
  8
RACCORDO
100
AcDbLine
 62
250
  6
CONTINUOUS
 10
-9.9130532167
 20
19.2831844984
 11
-9.6766887273
 21
19.7900697816
  0
LWPOLYLINE
  5
226
100
AcDbEntity
  8
ASSI
100
AcDbPolyline
 62
7
  6
CONTINUOUS
 90
10
 70
0
 10
-10.154287608
 20
15.8138421697
 10
-10.153280004
 20
15.8154461684
 10
-10.150910149
 20
15.8170574043
 10
-10.147193391
 20
15.8186584532
 10
-10.1421567889
 20
15.8202226456
 10
-10.135827765
 20
15.8217427749
 10
-10.1282239694
 20
15.8232305875
 10
-10.1193629485
 20
15.8246729341
 10
-10.1093001372
 20
15.8260497019
 10
-10.1
 20
15.827142846
  0
LINE
  5
227
100
AcDbEntity
  8
0
100
AcDbLine
 62
7
  6
CONTINUOUS
 10
0.542008496
 20
25.2227491559
 11
0.6381226496
 21
25.3188633095
  0
LINE
  5
228
100
AcDbEntity
  8
ASSI
100
AcDbLine
 62
250
  6
CONTINUOUS
 10
9.6506272563
 20
34.2363301688
 11
9.6021773948
 21
34.1878770137
  0
LINE
  5
229
100
AcDbEntity
  8
RACCORDO
100
AcDbLine
 62
250
  6
CONTINUOUS
 10
9.6506272563
 20
34.2363301688
 11
9.6021773948
 21
34.1878770137
  0
LINE
  5
22A
100
AcDbEntity
  8
0
100
AcDbLine
 62
7
  6
CONTINUOUS
 10
8.8233112727
 20
32.9090256083
 11
8.75
 21
32.8357143356
  0
LINE
  5
22B
100
AcDbEntity
  8
ASSI
100
AcDbLine
 62
250
  6
CONTINUOUS
 10
9.9506158332
 20
33.9363415918
 11
9.9021626781
 21
33.8878884368
  0
LINE
  5
22C
100
AcDbEntity
  8
RACCORDO
100
AcDbLine
 62
250
  6
CONTINUOUS
 10
9.9506158332
 20
33.9363415918
 11
9.9021626781
 21
33.8878884368
  0
LWPOLYLINE
  5
22D
100
AcDbEntity
  8
0
100
AcDbPolyline
 62
7
  6
CONTINUOUS
 90
7
 70
0
 10
-8.0034921435
 20
14.7513237329
 10
-8.0314851549
 20
14.7360111438
 10
-8.0559461364
 20
14.7163911
 10
-8.0751960186
 20
14.6939191538
 10
-8.0886751117
 20
14.6690159103
 10
-8.0969431055
 20
14.6409362367
 10
-8.1
 20
14.6094882559
  0
LINE
  5
22E
100
AcDbEntity
  8
0
100
AcDbLine
 62
7
  6
CONTINUOUS
 10
-2.5
 20
18.0827056851
 11
-2.4118794124
 21
18.1091394186
  0
LINE
  5
22F
100
AcDbEntity
  8
0
100
AcDbLine
 62
7
  6
CONTINUOUS
 10
0.5083064438
 20
21.3357143356
 11
0.3953412642
 21
21.2227491559
  0
LINE
  5
230
100
AcDbEntity
  8
0
100
AcDbLine
 62
250
  6
CONTINUOUS
 10
0.361639212
 20
19.6352269972
 11
0.6381226496
 21
19.9117104348
  0
LINE
  5
231
100
AcDbEntity
  8
ASSI
100
AcDbLine
 62
7
  6
CONTINUOUS
 10
-11.0
 20
-8.0143427719
 11
-11.0
 21
34.685771443
  0
LINE
  5
232
100
AcDbEntity
  8
RACCORDO
100
AcDbLine
 62
7
  6
CONTINUOUS
 10
-11.0
 20
-8.0143427719
 11
-11.0
 21
34.685771443
  0
LINE
  5
233
100
AcDbEntity
  8
ASSI
100
AcDbLine
 62
7
  6
CONTINUOUS
 10
-10.259966909
 20
7.3113352588
 11
-10.259966909
 21
19.3600934124
  0
LINE
  5
234
100
AcDbEntity
  8
DRAFT
100
AcDbLine
 62
7
  6
CONTINUOUS
 10
-10.259966909
 20
7.3113352588
 11
-10.259966909
 21
19.3600934124
  0
LINE
  5
235
100
AcDbEntity
  8
ASSI
100
AcDbLine
 62
250
  6
CONTINUOUS
 10
-10.1630151405
 20
8.0219455916
 11
-10.154287608
 21
10.8575865015
  0
LINE
  5
236
100
AcDbEntity
  8
RACCORDO
100
AcDbLine
 62
250
  6
CONTINUOUS
 10
-10.1630151405
 20
8.0219455916
 11
-10.154287608
 21
10.8575865015
  0
LWPOLYLINE
  5
237
100
AcDbEntity
  8
RACCORDO
100
AcDbPolyline
 62
250
  6
CONTINUOUS
 90
22
 70
0
 10
-9.9021626779
 20
33.8878917301
 10
-9.9017694889
 20
33.9032237514
 10
-9.9005292432
 20
33.9191324047
 10
-9.8983469114
 20
33.9355649022
 10
-9.895133334
 20
33.9524304884
 10
-9.890791718
 20
33.96968138
 10
-9.8852030647
 20
33.9873080899
 10
-9.8782648568
 20
34.0052044232
 10
-9.8698799793
 20
34.023248129
 10
-9.8599165962
 20
34.0413716249
 10
-9.8482799602
 20
34.0594106508
 10
-9.834888456
 20
34.0771812646
 10
-9.8196202702
 20
34.0945398391
 10
-9.8023763995
 20
34.111286516
 10
-9.7831564889
 20
34.1271230698
 10
-9.7620222367
 20
34.1417323516
 10
-9.738970182
 20
34.1548631118
 10
-9.7141166694
 20
34.1662014881
 10
-9.6877947882
 20
34.1753935431
 10
-9.6602540461
 20
34.1821973393
 10
-9.6316329513
 20
34.1864252274
 10
-9.6021741012
 20
34.1878770137
  0
LWPOLYLINE
  5
238
100
AcDbEntity
  8
ASSI
100
AcDbPolyline
 62
250
  6
CONTINUOUS
 90
22
 70
0
 10
-9.9021626779
 20
33.8878917301
 10
-9.9013228692
 20
33.9103008663
 10
-9.8988112841
 20
33.9325859494
 10
-9.8946416884
 20
33.9546224132
 10
-9.8888371086
 20
33.9762870842
 10
-9.881429732
 20
33.9974587575
 10
-9.8724607571
 20
34.0180188844
 10
-9.8619800384
 20
34.0378525273
 10
-9.8500460052
 20
34.0568485587
 10
-9.8367254848
 20
34.0749002406
 10
-9.8220928713
 20
34.0919065258
 10
-9.8062298818
 20
34.1077722343
 10
-9.7892254681
 20
34.1224082701
 10
-9.7711747825
 20
34.1357326888
 10
-9.752178688
 20
34.1476709951
 10
-9.7323435382
 20
34.1581563182
 10
-9.7117802984
 20
34.1671299882
 10
-9.6906039467
 20
34.174541821
 10
-9.668932964
 20
34.1803503433
 10
-9.6468885722
 20
34.184523063
 10
-9.624594053
 20
34.1870366407
 10
-9.6021741012
 20
34.1878770137
  0
LWPOLYLINE
  5
239
100
AcDbEntity
  8
ASSI
100
AcDbPolyline
 62
250
  6
CONTINUOUS
 90
16
 70
0
 10
-9.6521721974
 20
33.8878884368
 10
-9.6518741598
 20
33.8932157632
 10
-9.6510549966
 20
33.8983765408
 10
-9.6497147077
 20
33.9033707695
 10
-9.6478264062
 20
33.9082511825
 10
-9.6454169791
 20
33.9129650466
 10
-9.6425670872
 20
33.9173541628
 10
-9.6392640626
 20
33.9214049324
 10
-9.6355205733
 20
33.9251309541
 10
-9.6314552845
 20
33.9284148249
 10
-9.6270473438
 20
33.931243764
 10
-9.6223176036
 20
33.9336305523
 10
-9.617447287
 20
33.9354961293
 10
-9.6124968015
 20
33.9368141417
 10
-9.6074057396
 20
33.9376109429
 10
-9.6021741012
 20
33.9378865329
  0
LINE
  5
23A
100
AcDbEntity
  8
DRAFT
100
AcDbLine
 62
7
  6
CONTINUOUS
 10
-9.75
 20
28.8917546568
 11
-9.7307994286
 21
29.0857143356
  0
LINE
  5
23B
100
AcDbEntity
  8
0
100
AcDbLine
 62
7
  6
CONTINUOUS
 10
-8.8233112727
 20
28.8917546568
 11
-8.8041107013
 21
29.0857143356
  0
LINE
  5
23C
100
AcDbEntity
  8
ASSI
100
AcDbLine
 62
7
  6
CONTINUOUS
 10
-9.9506158332
 20
6.6479297357
 11
-9.9021626781
 21
6.7733389382
  0
LINE
  5
23D
100
AcDbEntity
  8
RACCORDO
100
AcDbLine
 62
7
  6
CONTINUOUS
 10
-9.9506158332
 20
6.6479297357
 11
-9.9021626781
 21
6.7733389382
  0
LINE
  5
23E
100
AcDbEntity
  8
0
100
AcDbLine
 62
7
  6
CONTINUOUS
 10
-1.2
 20
18.0607143356
 11
-1.1621057877
 21
18.1091394186
  0
LINE
  5
23F
100
AcDbEntity
  8
0
100
AcDbLine
 62
250
  6
CONTINUOUS
 10
1.1611518736
 20
18.8357143356
 11
1.4376353112
 21
19.1121977732
  0
LINE
  5
240
100
AcDbEntity
  8
DRAFT
100
AcDbLine
 62
7
  6
CONTINUOUS
 10
-9.75
 20
-2.2203259856
 11
-9.7307994286
 21
-2.4142856644
  0
LINE
  5
241
100
AcDbEntity
  8
0
100
AcDbLine
 62
7
  6
CONTINUOUS
 10
-8.8233112727
 20
-2.2203259856
 11
-8.8041107013
 21
-2.4142856644
  0
LWPOLYLINE
  5
242
100
AcDbEntity
  8
0
100
AcDbPolyline
 62
250
  6
CONTINUOUS
 90
3
 70
0
 10
-9.8
 20
11.3232531558
 10
-9.7979207671
 20
11.2298680097
 10
-9.7904409796
 20
11.1403208288
  0
LINE
  5
243
100
AcDbEntity
  8
0
100
AcDbLine
 62
250
  6
CONTINUOUS
 10
-7.9
 20
15.3481755153
 11
-7.9020796773
 21
15.4415635802
  0
LINE
  5
244
100
AcDbEntity
  8
ASSI
100
AcDbLine
 62
250
  6
CONTINUOUS
 10
-10.154287608
 20
15.8138421697
 11
-10.1630151405
 21
18.6494830795
  0
LINE
  5
245
100
AcDbEntity
  8
ASSI
100
AcDbLine
 62
250
  6
CONTINUOUS
 10
-10.1630151405
 20
7.3328289484
 11
-10.1630151405
 21
8.0219455916
  0
LINE
  5
246
100
AcDbEntity
  8
RACCORDO
100
AcDbLine
 62
250
  6
CONTINUOUS
 10
-10.1630151405
 20
7.3328289484
 11
-10.1630151405
 21
8.0219455916
  0
LINE
  5
247
100
AcDbEntity
  8
RACCORDO
100
AcDbLine
 62
250
  6
CONTINUOUS
 10
-10.154287608
 20
15.8138421697
 11
-10.1630151405
 21
18.835733374
  0
LINE
  5
248
100
AcDbEntity
  8
ASSI
100
AcDbLine
 62
250
  6
CONTINUOUS
 10
-10.1630151405
 20
18.6494830795
 11
-10.1630151405
 21
19.3385997228
  0
LINE
  5
249
100
AcDbEntity
  8
RACCORDO
100
AcDbLine
 62
250
  6
CONTINUOUS
 10
-10.1630151405
 20
18.835733374
 11
-10.1630151405
 21
19.3385997228
  0
LINE
  5
24A
100
AcDbEntity
  8
ASSI
100
AcDbLine
 62
250
  6
CONTINUOUS
 10
-10.154287608
 20
10.8575865015
 11
-10.154287608
 21
15.8138421697
  0
LINE
  5
24B
100
AcDbEntity
  8
RACCORDO
100
AcDbLine
 62
250
  6
CONTINUOUS
 10
-10.154287608
 20
10.8575865015
 11
-10.154287608
 21
15.8138421697
  0
LINE
  5
24C
100
AcDbEntity
  8
0
100
AcDbLine
 62
7
  6
CONTINUOUS
 10
-10.1
 20
18.835733374
 11
-10.1
 21
7.8356952971
  0
LINE
  5
24D
100
AcDbEntity
  8
0
100
AcDbLine
 62
7
  6
CONTINUOUS
 10
-9.9506158332
 20
-2.6642856644
 11
-9.9506158332
 21
-4.6642856644
  0
LINE
  5
24E
100
AcDbEntity
  8
RACCORDO
100
AcDbLine
 62
7
  6
CONTINUOUS
 10
-9.9506158332
 20
-7.2649129207
 11
-9.9506158332
 21
-4.6642856644
  0
LINE
  5
24F
100
AcDbEntity
  8
ASSI
100
AcDbLine
 62
7
  6
CONTINUOUS
 10
-9.9506158332
 20
-7.2649129207
 11
-9.9506158332
 21
6.6479297357
  0
LINE
  5
250
100
AcDbEntity
  8
DRAFT
100
AcDbLine
 62
7
  6
CONTINUOUS
 10
-9.9506158332
 20
-2.6642856644
 11
-9.9506158332
 21
6.6479297357
  0
LINE
  5
251
100
AcDbEntity
  8
DRAFT
100
AcDbLine
 62
7
  6
CONTINUOUS
 10
-9.9506158332
 20
20.0234989354
 11
-9.9506158332
 21
29.3357143356
  0
LINE
  5
252
100
AcDbEntity
  8
0
100
AcDbLine
 62
7
  6
CONTINUOUS
 10
-9.9506158332
 20
29.3357143356
 11
-9.9506158332
 21
31.3357143356
  0
LINE
  5
253
100
AcDbEntity
  8
ASSI
100
AcDbLine
 62
7
  6
CONTINUOUS
 10
-9.9506158332
 20
20.0234989354
 11
-9.9506158332
 21
33.9363415918
  0
LINE
  5
254
100
AcDbEntity
  8
RACCORDO
100
AcDbLine
 62
7
  6
CONTINUOUS
 10
-9.9506158332
 20
31.3357143356
 11
-9.9506158332
 21
33.9363415918
  0
LINE
  5
255
100
AcDbEntity
  8
ASSI
100
AcDbLine
 62
250
  6
CONTINUOUS
 10
-9.9130532167
 20
7.3882441728
 11
-9.9130532167
 21
7.4480188047
  0
LINE
  5
256
100
AcDbEntity
  8
RACCORDO
100
AcDbLine
 62
250
  6
CONTINUOUS
 10
-9.9130532167
 20
7.3882441728
 11
-9.9130532167
 21
7.4480188047
  0
LINE
  5
257
100
AcDbEntity
  8
ASSI
100
AcDbLine
 62
250
  6
CONTINUOUS
 10
-9.9130532167
 20
19.2234098634
 11
-9.9130532167
 21
19.2831844984
  0
LINE
  5
258
100
AcDbEntity
  8
RACCORDO
100
AcDbLine
 62
250
  6
CONTINUOUS
 10
-9.9130532167
 20
19.2234098634
 11
-9.9130532167
 21
19.2831844984
  0
LINE
  5
259
100
AcDbEntity
  8
ASSI
100
AcDbLine
 62
7
  6
CONTINUOUS
 10
-9.9021626781
 20
-7.2164597656
 11
-9.9021626781
 21
-4.6642856644
  0
LINE
  5
25A
100
AcDbEntity
  8
RACCORDO
100
AcDbLine
 62
7
  6
CONTINUOUS
 10
-9.9021626781
 20
-7.2164597656
 11
-9.9021626781
 21
-4.6642856644
  0
LINE
  5
25B
100
AcDbEntity
  8
ASSI
100
AcDbLine
 62
7
  6
CONTINUOUS
 10
-9.9021626781
 20
-2.6642856644
 11
-9.9021626781
 21
-0.4581744452
  0
LINE
  5
25C
100
AcDbEntity
  8
RACCORDO
100
AcDbLine
 62
7
  6
CONTINUOUS
 10
-9.9021626781
 20
-2.6642856644
 11
-9.9021626781
 21
-0.4581744452
  0
LINE
  5
25D
100
AcDbEntity
  8
ASSI
100
AcDbLine
 62
7
  6
CONTINUOUS
 10
-9.9021626781
 20
0.1296031163
 11
-9.9021626781
 21
6.7733389382
  0
LINE
  5
25E
100
AcDbEntity
  8
RACCORDO
100
AcDbLine
 62
7
  6
CONTINUOUS
 10
-9.9021626781
 20
0.1296031163
 11
-9.9021626781
 21
6.7733389382
  0
LINE
  5
25F
100
AcDbEntity
  8
ASSI
100
AcDbLine
 62
7
  6
CONTINUOUS
 10
-9.9021626781
 20
19.8980897329
 11
-9.9021626781
 21
26.5418255548
  0
LINE
  5
260
100
AcDbEntity
  8
RACCORDO
100
AcDbLine
 62
7
  6
CONTINUOUS
 10
-9.9021626781
 20
19.8980897329
 11
-9.9021626781
 21
26.5418255548
  0
LINE
  5
261
100
AcDbEntity
  8
ASSI
100
AcDbLine
 62
7
  6
CONTINUOUS
 10
-9.9021626781
 20
27.1296031163
 11
-9.9021626781
 21
29.3357143356
  0
LINE
  5
262
100
AcDbEntity
  8
RACCORDO
100
AcDbLine
 62
7
  6
CONTINUOUS
 10
-9.9021626781
 20
27.1296031163
 11
-9.9021626781
 21
29.3357143356
  0
LINE
  5
263
100
AcDbEntity
  8
ASSI
100
AcDbLine
 62
7
  6
CONTINUOUS
 10
-9.9021626781
 20
31.3357143356
 11
-9.9021626781
 21
33.8878917304
  0
LINE
  5
264
100
AcDbEntity
  8
RACCORDO
100
AcDbLine
 62
7
  6
CONTINUOUS
 10
-9.9021626781
 20
31.3357143356
 11
-9.9021626781
 21
33.8878917304
  0
LINE
  5
265
100
AcDbEntity
  8
0
100
AcDbLine
 62
250
  6
CONTINUOUS
 10
-9.8
 20
11.3232531558
 11
-9.8
 21
15.3481755153
  0
LINE
  5
266
100
AcDbEntity
  8
RACCORDO
100
AcDbLine
 62
7
  6
CONTINUOUS
 10
-9.75
 20
33.0358361794
 11
-9.75
 21
31.7796740144
  0
LINE
  5
267
100
AcDbEntity
  8
DRAFT
100
AcDbLine
 62
7
  6
CONTINUOUS
 10
-9.75
 20
28.8917546568
 11
-9.75
 21
27.2687270375
  0
LINE
  5
268
100
AcDbEntity
  8
0
100
AcDbLine
 62
7
  6
CONTINUOUS
 10
-9.75
 20
26.4027016337
 11
-9.75
 21
26.2152259548
  0
LINE
  5
269
100
AcDbEntity
  8
0
100
AcDbLine
 62
7
  6
CONTINUOUS
 10
-9.75
 20
0.4562027163
 11
-9.75
 21
0.2687270375
  0
LINE
  5
26A
100
AcDbEntity
  8
DRAFT
100
AcDbLine
 62
7
  6
CONTINUOUS
 10
-9.75
 20
-0.5972983663
 11
-9.75
 21
-2.2203259856
  0
LINE
  5
26B
100
AcDbEntity
  8
RACCORDO
100
AcDbLine
 62
7
  6
CONTINUOUS
 10
-9.75
 20
-5.1082453432
 11
-9.75
 21
-6.3644075083
  0
LINE
  5
26C
100
AcDbEntity
  8
DRAFT
100
AcDbLine
 62
7
  6
CONTINUOUS
 10
-9.7307994286
 20
-4.9142856644
 11
-9.7307994286
 21
-4.6642856644
  0
LINE
  5
26D
100
AcDbEntity
  8
DRAFT
100
AcDbLine
 62
7
  6
CONTINUOUS
 10
-9.7307994286
 20
-2.6642856644
 11
-9.7307994286
 21
-2.4142856644
  0
LINE
  5
26E
100
AcDbEntity
  8
DRAFT
100
AcDbLine
 62
7
  6
CONTINUOUS
 10
-9.7307994286
 20
29.0857143356
 11
-9.7307994286
 21
29.3357143356
  0
LINE
  5
26F
100
AcDbEntity
  8
DRAFT
100
AcDbLine
 62
7
  6
CONTINUOUS
 10
-9.7307994286
 20
31.3357143356
 11
-9.7307994286
 21
31.5857143356
  0
LINE
  5
270
100
AcDbEntity
  8
0
100
AcDbLine
 62
7
  6
CONTINUOUS
 10
-9.6766887273
 20
25.5857143356
 11
-9.6766887273
 21
19.3298012863
  0
LINE
  5
271
100
AcDbEntity
  8
0
100
AcDbLine
 62
7
  6
CONTINUOUS
 10
-9.6766887273
 20
7.3416273848
 11
-9.6766887273
 21
1.0857143356
  0
LINE
  5
272
100
AcDbEntity
  8
ASSI
100
AcDbLine
 62
250
  6
CONTINUOUS
 10
-9.6521721974
 20
-7.2164597656
 11
-9.6521721974
 21
-6.7442633754
  0
LINE
  5
273
100
AcDbEntity
  8
RACCORDO
100
AcDbLine
 62
250
  6
CONTINUOUS
 10
-9.6521721974
 20
-7.2164597656
 11
-9.6521721974
 21
-6.7442633754
  0
LINE
  5
274
100
AcDbEntity
  8
ASSI
100
AcDbLine
 62
250
  6
CONTINUOUS
 10
-9.6521721974
 20
33.415691927
 11
-9.6521721974
 21
33.8878884368
  0
LINE
  5
275
100
AcDbEntity
  8
RACCORDO
100
AcDbLine
 62
250
  6
CONTINUOUS
 10
-9.6521721974
 20
33.415691927
 11
-9.6521721974
 21
33.8878884368
  0
LINE
  5
276
100
AcDbEntity
  8
ASSI
100
AcDbLine
 62
250
  6
CONTINUOUS
 10
-9.6021741012
 20
-7.2664578618
 11
-9.6021741012
 21
-7.5164483425
  0
LINE
  5
277
100
AcDbEntity
  8
RACCORDO
100
AcDbLine
 62
250
  6
CONTINUOUS
 10
-9.6021741012
 20
-7.2664578618
 11
-9.6021741012
 21
-7.5164483425
  0
LINE
  5
278
100
AcDbEntity
  8
ASSI
100
AcDbLine
 62
250
  6
CONTINUOUS
 10
-9.6021741012
 20
33.9378865329
 11
-9.6021741012
 21
34.1878770137
  0
LINE
  5
279
100
AcDbEntity
  8
RACCORDO
100
AcDbLine
 62
250
  6
CONTINUOUS
 10
-9.6021741012
 20
33.9378865329
 11
-9.6021741012
 21
34.1878770137
  0
LINE
  5
27A
100
AcDbEntity
  8
0
100
AcDbLine
 62
7
  6
CONTINUOUS
 10
-9.6
 20
11.3232782127
 11
-9.6
 21
15.3481079539
  0
LINE
  5
27B
100
AcDbEntity
  8
0
100
AcDbLine
 62
250
  6
CONTINUOUS
 10
-9.4
 20
10.5698509984
 11
-9.4
 21
16.1015776728
  0
LINE
  5
27C
100
AcDbEntity
  8
ASSI
100
AcDbLine
 62
7
  6
CONTINUOUS
 10
-9.35
 20
-2.6642856644
 11
-9.35
 21
-4.6642856644
  0
LINE
  5
27D
100
AcDbEntity
  8
0
100
AcDbLine
 62
7
  6
CONTINUOUS
 10
-9.35
 20
-2.6642856644
 11
-9.35
 21
-4.6642856644
  0
LINE
  5
27E
100
AcDbEntity
  8
ASSI
100
AcDbLine
 62
7
  6
CONTINUOUS
 10
-9.35
 20
29.3357143356
 11
-9.35
 21
31.3357143356
  0
LINE
  5
27F
100
AcDbEntity
  8
0
100
AcDbLine
 62
7
  6
CONTINUOUS
 10
-9.35
 20
29.3357143356
 11
-9.35
 21
31.3357143356
  0
LINE
  5
280
100
AcDbEntity
  8
0
100
AcDbLine
 62
7
  6
CONTINUOUS
 10
-8.8233112727
 20
32.9090256083
 11
-8.8233112727
 21
31.7796740144
  0
LINE
  5
281
100
AcDbEntity
  8
0
100
AcDbLine
 62
7
  6
CONTINUOUS
 10
-8.8233112727
 20
28.8917546568
 11
-8.8233112727
 21
26.2152259548
  0
LINE
  5
282
100
AcDbEntity
  8
0
100
AcDbLine
 62
7
  6
CONTINUOUS
 10
-8.8233112727
 20
0.4562027163
 11
-8.8233112727
 21
-2.2203259856
  0
LINE
  5
283
100
AcDbEntity
  8
0
100
AcDbLine
 62
7
  6
CONTINUOUS
 10
-8.8233112727
 20
-5.1082453432
 11
-8.8233112727
 21
-6.2375969371
  0
LINE
  5
284
100
AcDbEntity
  8
0
100
AcDbLine
 62
7
  6
CONTINUOUS
 10
-8.8041107013
 20
-4.9142856644
 11
-8.8041107013
 21
-2.4142856644
  0
LINE
  5
285
100
AcDbEntity
  8
0
100
AcDbLine
 62
7
  6
CONTINUOUS
 10
-8.8041107013
 20
29.0857143356
 11
-8.8041107013
 21
31.5857143356
  0
LINE
  5
286
100
AcDbEntity
  8
0
100
AcDbLine
 62
7
  6
CONTINUOUS
 10
-8.75
 20
32.8357143356
 11
-8.75
 21
25.5857143356
  0
LINE
  5
287
100
AcDbEntity
  8
0
100
AcDbLine
 62
7
  6
CONTINUOUS
 10
-8.75
 20
1.0857143356
 11
-8.75
 21
-6.1642856644
  0
LINE
  5
288
100
AcDbEntity
  8
0
100
AcDbLine
 62
250
  6
CONTINUOUS
 10
-8.3
 20
10.5698509984
 11
-8.3
 21
16.1015776728
  0
LINE
  5
289
100
AcDbEntity
  8
0
100
AcDbLine
 62
7
  6
CONTINUOUS
 10
-8.1
 20
15.346533559
 11
-8.1
 21
13.8687280416
  0
LINE
  5
28A
100
AcDbEntity
  8
0
100
AcDbLine
 62
7
  6
CONTINUOUS
 10
-8.1
 20
12.8031616573
 11
-8.1
 21
11.3231061198
  0
LINE
  5
28B
100
AcDbEntity
  8
0
100
AcDbLine
 62
250
  6
CONTINUOUS
 10
-7.9
 20
15.3481755153
 11
-7.9
 21
14.7718549972
  0
LINE
  5
28C
100
AcDbEntity
  8
0
100
AcDbLine
 62
250
  6
CONTINUOUS
 10
-7.9
 20
11.8995736739
 11
-7.9
 21
11.3232531558
  0
LINE
  5
28D
100
AcDbEntity
  8
0
100
AcDbLine
 62
7
  6
CONTINUOUS
 10
-7.8
 20
18.7458677829
 11
-7.8
 21
18.6125023597
  0
LINE
  5
28E
100
AcDbEntity
  8
0
100
AcDbLine
 62
7
  6
CONTINUOUS
 10
-7.8
 20
7.9933897161
 11
-7.8
 21
7.9255608882
  0
LINE
  5
28F
100
AcDbEntity
  8
0
100
AcDbLine
 62
7
  6
CONTINUOUS
 10
-7.8
 20
8.1893518759
 11
-7.8
 21
11.9983628293
  0
LINE
  5
290
100
AcDbEntity
  8
0
100
AcDbLine
 62
7
  6
CONTINUOUS
 10
-7.8
 20
14.6730658418
 11
-7.8
 21
18.4820767953
  0
LWPOLYLINE
  5
291
100
AcDbEntity
  8
0
100
AcDbPolyline
 62
250
  6
CONTINUOUS
 90
49
 70
0
 10
-9.6
 20
15.3481755153
 10
-9.5998703269
 20
15.3753436453
 10
-9.5994879247
 20
15.4017327667
 10
-9.5988628499
 20
15.4273395718
 10
-9.5980058741
 20
15.4521379709
 10
-9.5969270022
 20
15.4761482378
 10
-9.5956340631
 20
15.4994367777
 10
-9.5941363044
 20
15.522001393
 10
-9.5924429581
 20
15.5438394729
 10
-9.5905594562
 20
15.5650166637
 10
-9.588493545
 20
15.5855357104
 10
-9.5862536777
 20
15.6053898035
 10
-9.5838443325
 20
15.6246300309
 10
-9.5812731214
 20
15.6432543049
 10
-9.5785471622
 20
15.6612612866
 10
-9.5756684156
 20
15.6787028793
 10
-9.5726432843
 20
15.6955797183
 10
-9.5694782183
 20
15.7118880653
 10
-9.5661734445
 20
15.7276728278
 10
-9.5627310144
 20
15.74294802
 10
-9.5591597935
 20
15.7576965255
 10
-9.5554699099
 20
15.7719165478
 10
-9.5516656229
 20
15.7856106147
 10
-9.5477547961
 20
15.798774222
 10
-9.54375448
 20
15.8113958258
 10
-9.5396749339
 20
15.8234633512
 10
-9.5355199487
 20
15.8349888626
 10
-9.5312978505
 20
15.8459977142
 10
-9.5270258378
 20
15.8564688488
 10
-9.5227004126
 20
15.8664245048
 10
-9.5182967347
 20
15.8759537537
 10
-9.5138263596
 20
15.8850532329
 10
-9.5092866515
 20
15.8937251694
 10
-9.5046264826
 20
15.9020631731
 10
-9.4998550107
 20
15.9100703247
 10
-9.4949666107
 20
15.9177375138
 10
-9.4898815873
 20
15.9251337094
 10
-9.4846090861
 20
15.9322665726
 10
-9.4791382878
 20
15.9391139294
 10
-9.4733519961
 20
15.9456899354
 10
-9.4672619685
 20
15.9520138878
 10
-9.4608505607
 20
15.958037007
 10
-9.4539479373
 20
15.9636546296
 10
-9.446559053
 20
15.9689109598
 10
-9.4386728009
 20
15.9737040139
 10
-9.4300885848
 20
15.9776833311
 10
-9.4207405895
 20
15.980690787
 10
-9.4107050755
 20
15.9827761926
 10
-9.4
 20
15.9838813605
  0
LWPOLYLINE
  5
292
100
AcDbEntity
  8
0
100
AcDbPolyline
 62
250
  6
CONTINUOUS
 90
31
 70
0
 10
-8.1
 20
11.3232531558
 10
-8.1002265029
 20
11.2872940724
 10
-8.1009242276
 20
11.2515989883
 10
-8.1021199966
 20
11.2161770689
 10
-8.1038501755
 20
11.18080442
 10
-8.1061346009
 20
11.1457303958
 10
-8.1089494757
 20
11.1116734794
 10
-8.1122935131
 20
11.0787099828
 10
-8.116162343
 20
11.0467895664
 10
-8.1204767197
 20
11.0164329348
 10
-8.1251719439
 20
10.987883249
 10
-8.130246406
 20
10.960909937
 10
-8.1356970066
 20
10.9353187772
 10
-8.1414969782
 20
10.911109716
 10
-8.1476246961
 20
10.8882955827
 10
-8.1540974073
 20
10.866705769
 10
-8.1609135937
 20
10.8462904101
 10
-8.1680398719
 20
10.8271158407
 10
-8.1754509386
 20
10.8091878896
 10
-8.1830764509
 20
10.7925892597
 10
-8.1909425538
 20
10.7772462956
 10
-8.1991817894
 20
10.7629407544
 10
-8.2077395834
 20
10.7496477787
 10
-8.2166495178
 20
10.7374243191
 10
-8.2262093086
 20
10.7262122458
 10
-8.2364412147
 20
10.7158818028
 10
-8.2473235716
 20
10.7066597324
 10
-8.2591131627
 20
10.6990773623
 10
-8.2718888942
 20
10.693381655
 10
-8.2855338554
 20
10.6895066164
 10
-8.3
 20
10.6875473106
  0
LWPOLYLINE
  5
293
100
AcDbEntity
  8
RACCORDO
100
AcDbPolyline
 62
250
  6
CONTINUOUS
 90
22
 70
0
 10
-9.6521721974
 20
33.8878884368
 10
-9.6521329293
 20
33.8904640229
 10
-9.6519208119
 20
33.8931145825
 10
-9.651535845
 20
33.8958401154
 10
-9.650995427
 20
33.8986512842
 10
-9.6502821596
 20
33.9015374264
 10
-9.6493438478
 20
33.904466555
 10
-9.6481808182
 20
33.9074478857
 10
-9.6467927443
 20
33.9104722028
 10
-9.6451264511
 20
33.9134798724
 10
-9.6431783421
 20
33.9164824576
 10
-9.6409520139
 20
33.9194683952
 10
-9.6384050817
 20
33.9223433624
 10
-9.6355191469
 20
33.9251226149
 10
-9.6323126081
 20
33.927790897
 10
-9.6287982759
 20
33.9302081178
 10
-9.6249470926
 20
33.9323747081
 10
-9.6207881159
 20
33.9342902372
 10
-9.61642133
 20
33.9358133225
 10
-9.611880063
 20
33.9368968364
 10
-9.6071309867
 20
33.9375879066
 10
-9.6021741012
 20
33.9378865329
  0
LWPOLYLINE
  5
294
100
AcDbEntity
  8
0
100
AcDbPolyline
 62
7
  6
CONTINUOUS
 90
10
 70
0
 10
-8.1
 20
13.868807206
 10
-8.1022134346
 20
13.7538039483
 10
-8.1038735363
 20
13.6364341696
 10
-8.1049803051
 20
13.5172312606
 10
-8.1055337755
 20
13.3964659316
 10
-8.1055339129
 20
13.2749870625
 10
-8.1049806144
 20
13.1542191963
 10
-8.1038738455
 20
13.0350112845
 10
-8.1022136408
 20
12.917634176
 10
-8.1
 20
12.8026214651
  0
LINE
  5
295
100
AcDbEntity
  8
0
100
AcDbLine
 62
250
  6
CONTINUOUS
 10
-7.9021729956
 20
11.2288278263
 11
-7.9
 21
11.3232531558
  0
LWPOLYLINE
  5
296
100
AcDbEntity
  8
0
100
AcDbPolyline
 62
7
  6
CONTINUOUS
 90
10
 70
0
 10
-7.8
 20
18.7458677829
 10
-7.7906356912
 20
18.8494858471
 10
-7.7684878596
 20
18.9514000222
 10
-7.733556505
 20
19.0516103083
 10
-7.6841940126
 20
19.1503091929
 10
-7.6220479972
 20
19.2473041884
 10
-7.5520613038
 20
19.3420178319
 10
-7.4758815473
 20
19.4342576356
 10
-7.3918611127
 20
19.5242160872
 10
-7.3
 20
19.6118931867
  0
LINE
  5
297
100
AcDbEntity
  8
DRAFT
100
AcDbLine
 62
7
  6
CONTINUOUS
 10
-9.75
 20
-5.1082453432
 11
-9.7307994286
 21
-4.9142856644
  0
LINE
  5
298
100
AcDbEntity
  8
0
100
AcDbLine
 62
7
  6
CONTINUOUS
 10
-8.8233112727
 20
-5.1082453432
 11
-8.8041107013
 21
-4.9142856644
  0
LINE
  5
299
100
AcDbEntity
  8
0
100
AcDbLine
 62
7
  6
CONTINUOUS
 10
-4.3316524976
 20
32.8357143356
 11
-4.3220008854
 21
32.9090256083
  0
LINE
  5
29A
100
AcDbEntity
  8
ASSI
100
AcDbLine
 62
7
  6
CONTINUOUS
 10
-6.5
 20
15.8357143356
 11
-6.1200267882
 21
17.9906495035
  0
LINE
  5
29B
100
AcDbEntity
  8
0
100
AcDbLine
 62
7
  6
CONTINUOUS
 10
-6.5
 20
15.8357143356
 11
-6.1200267882
 21
17.9906495035
  0
LWPOLYLINE
  5
29C
100
AcDbEntity
  8
0
100
AcDbPolyline
 62
250
  6
CONTINUOUS
 90
4
 70
0
 10
-7.9411529006
 20
10.9691119989
 10
-7.9228833027
 20
11.0521464677
 10
-7.9098007632
 20
11.1384589303
 10
-7.9021729956
 20
11.2288278263
  0
LINE
  5
29D
100
AcDbEntity
  8
0
100
AcDbLine
 62
7
  6
CONTINUOUS
 10
-9.741577054
 20
0.9558981298
 11
-9.6766887273
 21
1.0857143356
  0
LINE
  5
29E
100
AcDbEntity
  8
0
100
AcDbLine
 62
7
  6
CONTINUOUS
 10
-8.75
 20
1.0857143356
 11
-8.8148883267
 21
0.9558981298
  0
LINE
  5
29F
100
AcDbEntity
  8
ASSI
100
AcDbLine
 62
7
  6
CONTINUOUS
 10
10.5001522961
 20
-8.5142856644
 11
-10.5001522961
 21
-8.5142856644
  0
LINE
  5
2A0
100
AcDbEntity
  8
RACCORDO
100
AcDbLine
 62
7
  6
CONTINUOUS
 10
10.5001522961
 20
-8.5142856644
 11
-10.5001522961
 21
-8.5142856644
  0
LINE
  5
2A1
100
AcDbEntity
  8
ASSI
100
AcDbLine
 62
7
  6
CONTINUOUS
 10
-1.5
 20
-8.1142856644
 11
1.5
 21
-8.1142856644
  0
LINE
  5
2A2
100
AcDbEntity
  8
0
100
AcDbLine
 62
7
  6
CONTINUOUS
 10
-1.5
 20
-8.1142856644
 11
1.5
 21
-8.1142856644
  0
LINE
  5
2A3
100
AcDbEntity
  8
ASSI
100
AcDbLine
 62
7
  6
CONTINUOUS
 10
9.6506272563
 20
-7.5649014976
 11
1.5
 21
-7.5649014976
  0
LINE
  5
2A4
100
AcDbEntity
  8
RACCORDO
100
AcDbLine
 62
7
  6
CONTINUOUS
 10
9.6506272563
 20
-7.5649014976
 11
1.5
 21
-7.5649014976
  0
LINE
  5
2A5
100
AcDbEntity
  8
ASSI
100
AcDbLine
 62
7
  6
CONTINUOUS
 10
-1.5
 20
-7.5649014976
 11
-9.6506272563
 21
-7.5649014976
  0
LINE
  5
2A6
100
AcDbEntity
  8
RACCORDO
100
AcDbLine
 62
7
  6
CONTINUOUS
 10
-1.5
 20
-7.5649014976
 11
-9.6506272563
 21
-7.5649014976
  0
LWPOLYLINE
  5
2A7
100
AcDbEntity
  8
RACCORDO
100
AcDbPolyline
 62
250
  6
CONTINUOUS
 90
22
 70
0
 10
-9.6021773946
 20
-7.5164483423
 10
-9.6175094158
 20
-7.5160551534
 10
-9.6334180691
 20
-7.5148149077
 10
-9.6498505666
 20
-7.5126325758
 10
-9.6667161528
 20
-7.5094189984
 10
-9.6839670445
 20
-7.5050773824
 10
-9.7015937543
 20
-7.4994887291
 10
-9.7194900876
 20
-7.4925505212
 10
-9.7375337934
 20
-7.4841656437
 10
-9.7556572894
 20
-7.4742022606
 10
-9.7736963153
 20
-7.4625656246
 10
-9.791466929
 20
-7.4491741204
 10
-9.8088255036
 20
-7.4339059346
 10
-9.8255721804
 20
-7.4166620639
 10
-9.8414087342
 20
-7.3974421533
 10
-9.856018016
 20
-7.3763079012
 10
-9.8691487762
 20
-7.3532558465
 10
-9.8804871525
 20
-7.3284023338
 10
-9.8896792075
 20
-7.3020804527
 10
-9.8964830037
 20
-7.2745397105
 10
-9.9007108918
 20
-7.2459186157
 10
-9.9021626781
 20
-7.2164597656
  0
LWPOLYLINE
  5
2A8
100
AcDbEntity
  8
ASSI
100
AcDbPolyline
 62
250
  6
CONTINUOUS
 90
22
 70
0
 10
-9.6021773946
 20
-7.5164483423
 10
-9.6245865307
 20
-7.5156085336
 10
-9.6468716139
 20
-7.5130969485
 10
-9.6689080776
 20
-7.5089273528
 10
-9.6905727486
 20
-7.503122773
 10
-9.711744422
 20
-7.4957153965
 10
-9.7323045489
 20
-7.4867464216
 10
-9.7521381918
 20
-7.4762657029
 10
-9.7711342231
 20
-7.4643316697
 10
-9.789185905
 20
-7.4510111492
 10
-9.8061921902
 20
-7.4363785357
 10
-9.8220578987
 20
-7.4205155462
 10
-9.8366939345
 20
-7.4035111325
 10
-9.8500183532
 20
-7.3854604469
 10
-9.8619566595
 20
-7.3664643524
 10
-9.8724419826
 20
-7.3466292027
 10
-9.8814156526
 20
-7.3260659628
 10
-9.8888274854
 20
-7.3048896111
 10
-9.8946360077
 20
-7.2832186284
 10
-9.8988087274
 20
-7.2611742367
 10
-9.9013223051
 20
-7.2388797174
 10
-9.9021626781
 20
-7.2164597656
  0
LWPOLYLINE
  5
2A9
100
AcDbEntity
  8
ASSI
100
AcDbPolyline
 62
250
  6
CONTINUOUS
 90
16
 70
0
 10
-9.6021741012
 20
-7.2664578618
 10
-9.6075014276
 20
-7.2661598242
 10
-9.6126622052
 20
-7.265340661
 10
-9.6176564339
 20
-7.2640003721
 10
-9.6225368469
 20
-7.2621120706
 10
-9.627250711
 20
-7.2597026435
 10
-9.6316398272
 20
-7.2568527517
 10
-9.6356905968
 20
-7.253549727
 10
-9.6394166185
 20
-7.2498062377
 10
-9.6427004893
 20
-7.245740949
 10
-9.6455294284
 20
-7.2413330082
 10
-9.6479162167
 20
-7.236603268
 10
-9.6497817937
 20
-7.2317329514
 10
-9.6510998061
 20
-7.2267824659
 10
-9.6518966074
 20
-7.221691404
 10
-9.6521721974
 20
-7.2164597656
  0
LWPOLYLINE
  5
2AA
100
AcDbEntity
  8
0
100
AcDbPolyline
 62
250
  6
CONTINUOUS
 90
11
 70
0
 10
-9.7904409796
 20
11.1403208288
 10
-9.7775606374
 20
11.0546116132
 10
-9.7596142893
 20
10.9719857726
 10
-9.7362673865
 20
10.8931978972
 10
-9.7065162826
 20
10.8205117574
 10
-9.6697121374
 20
10.7527266808
 10
-9.626503791
 20
10.6910433397
 10
-9.5778341168
 20
10.6413275222
 10
-9.5240174058
 20
10.6055344908
 10
-9.4647393668
 20
10.5817089828
 10
-9.4
 20
10.5698509984
  0
LINE
  5
2AB
100
AcDbEntity
  8
DRAFT
100
AcDbLine
 62
7
  6
CONTINUOUS
 10
-9.75
 20
31.7796740144
 11
-9.7307994286
 21
31.5857143356
  0
LINE
  5
2AC
100
AcDbEntity
  8
0
100
AcDbLine
 62
7
  6
CONTINUOUS
 10
-8.8233112727
 20
31.7796740144
 11
-8.8041107013
 21
31.5857143356
  0
LWPOLYLINE
  5
2AD
100
AcDbEntity
  8
0
100
AcDbPolyline
 62
7
  6
CONTINUOUS
 90
10
 70
0
 10
-8.1
 20
12.0619404153
 10
-8.0969431055
 20
12.0304924345
 10
-8.0886751117
 20
12.0024127608
 10
-8.0751960186
 20
11.9775095173
 10
-8.0559461364
 20
11.9550375712
 10
-8.0314851549
 20
11.9354175273
 10
-8.0034921435
 20
11.9201049382
 10
-7.9725267922
 20
11.9094021598
 10
-7.938029411
 20
11.9025942506
 10
-7.9
 20
11.8995736739
  0
LINE
  5
2AE
100
AcDbEntity
  8
0
100
AcDbLine
 62
250
  6
CONTINUOUS
 10
-7.9020796773
 20
15.4415635802
 11
-7.9095594111
 21
15.5311116169
  0
LINE
  5
2AF
100
AcDbEntity
  8
0
100
AcDbLine
 62
250
  6
CONTINUOUS
 10
-7.3
 20
19.6118931867
 11
-7.3
 21
18.9823815674
  0
LINE
  5
2B0
100
AcDbEntity
  8
0
100
AcDbLine
 62
250
  6
CONTINUOUS
 10
-7.3
 20
7.6890471037
 11
-7.3
 21
7.0595354844
  0
LINE
  5
2B1
100
AcDbEntity
  8
0
100
AcDbLine
 62
7
  6
CONTINUOUS
 10
-6.9
 20
7.6471421803
 11
-6.9
 21
11.9983628293
  0
LINE
  5
2B2
100
AcDbEntity
  8
0
100
AcDbLine
 62
7
  6
CONTINUOUS
 10
-6.9
 20
14.6730658418
 11
-6.9
 21
19.0242864908
  0
LINE
  5
2B3
100
AcDbEntity
  8
0
100
AcDbLine
 62
7
  6
CONTINUOUS
 10
-6.6
 20
9.4044420592
 11
-6.6
 21
17.2669866119
  0
LINE
  5
2B4
100
AcDbEntity
  8
ASSI
100
AcDbLine
 62
7
  6
CONTINUOUS
 10
-6.5
 20
10.8357143356
 11
-6.5
 21
15.8357143356
  0
LINE
  5
2B5
100
AcDbEntity
  8
0
100
AcDbLine
 62
7
  6
CONTINUOUS
 10
-6.5
 20
10.8357143356
 11
-6.5
 21
15.8357143356
  0
LINE
  5
2B6
100
AcDbEntity
  8
ASSI
100
AcDbLine
 62
7
  6
CONTINUOUS
 10
-6.0
 20
8.6404866247
 11
-6.0
 21
18.0309420489
  0
LINE
  5
2B7
100
AcDbEntity
  8
0
100
AcDbLine
 62
7
  6
CONTINUOUS
 10
-6.0
 20
8.6404866247
 11
-6.0
 21
18.0309420489
  0
LINE
  5
2B8
100
AcDbEntity
  8
0
100
AcDbLine
 62
7
  6
CONTINUOUS
 10
-3.0157831028
 20
32.5590256083
 11
-3.0254347149
 21
32.4857143356
  0
LINE
  5
2B9
100
AcDbEntity
  8
0
100
AcDbLine
 62
7
  6
CONTINUOUS
 10
2.5
 20
19.0242864908
 11
2.4057426494
 21
18.8357143356
  0
LINE
  5
2BA
100
AcDbEntity
  8
0
100
AcDbLine
 62
7
  6
CONTINUOUS
 10
-2.5
 20
7.6471421803
 11
-2.4057426494
 21
7.8357143356
  0
LINE
  5
2BB
100
AcDbEntity
  8
0
100
AcDbLine
 62
250
  6
CONTINUOUS
 10
-1.1611518736
 20
7.8357143356
 11
-1.4376353112
 21
7.559230898
  0
LINE
  5
2BC
100
AcDbEntity
  8
0
100
AcDbLine
 62
250
  6
CONTINUOUS
 10
-0.361639212
 20
7.036201674
 11
-0.6381226496
 21
6.7597182363
  0
LWPOLYLINE
  5
2BD
100
AcDbEntity
  8
0
100
AcDbPolyline
 62
250
  6
CONTINUOUS
 90
10
 70
0
 10
8.1288672498
 20
16.0357116936
 10
8.1254837531
 20
16.0329092788
 10
8.1221448367
 20
16.0300786483
 10
8.1188505005
 20
16.0272198021
 10
8.1156015032
 20
16.0243317943
 10
8.1123970861
 20
16.0214155707
 10
8.1092349734
 20
16.0184739691
 10
8.1061144064
 20
16.0155079353
 10
8.1030361438
 20
16.0125165234
 10
8.1000001856
 20
16.0094997334
  0
LWPOLYLINE
  5
2BE
100
AcDbEntity
  8
0
100
AcDbPolyline
 62
7
  6
CONTINUOUS
 90
7
 70
0
 10
8.0034921435
 20
11.9201049382
 10
8.0314851549
 20
11.9354175273
 10
8.0559461364
 20
11.9550375712
 10
8.0751960186
 20
11.9775095173
 10
8.0886751117
 20
12.0024127608
 10
8.0969431055
 20
12.0304924345
 10
8.1
 20
12.0619404153
  0
LINE
  5
2BF
100
AcDbEntity
  8
0
100
AcDbLine
 62
7
  6
CONTINUOUS
 10
2.5
 20
8.588722986
 11
2.4118794124
 21
8.5622892525
  0
LINE
  5
2C0
100
AcDbEntity
  8
DRAFT
100
AcDbLine
 62
7
  6
CONTINUOUS
 10
-2.8258429704
 20
-7.1508837574
 11
-2.1404303657
 21
-6.9652492269
  0
LINE
  5
2C1
100
AcDbEntity
  8
ASSI
100
AcDbLine
 62
7
  6
CONTINUOUS
 10
-4.1758732155
 20
-7.5614107505
 11
-2.1339745962
 21
-7.0142856644
  0
LINE
  5
2C2
100
AcDbEntity
  8
DRAFT
100
AcDbLine
 62
7
  6
CONTINUOUS
 10
-4.1758732155
 20
-7.5614107505
 11
-2.1339745962
 21
-7.0142856644
  0
LINE
  5
2C3
100
AcDbEntity
  8
ASSI
100
AcDbLine
 62
7
  6
CONTINUOUS
 10
-3.2571713998
 20
-7.2664578618
 11
-2.1404303657
 21
-6.9652492269
  0
LINE
  5
2C4
100
AcDbEntity
  8
RACCORDO
100
AcDbLine
 62
7
  6
CONTINUOUS
 10
-3.2571713998
 20
-7.2664578618
 11
-2.8258429704
 21
-7.1508837574
  0
LINE
  5
2C5
100
AcDbEntity
  8
0
100
AcDbLine
 62
7
  6
CONTINUOUS
 10
-3.0209293968
 20
-6.8483546485
 11
-4.0728528206
 21
-7.1302166804
  0
LINE
  5
2C6
100
AcDbEntity
  8
ASSI
100
AcDbLine
 62
7
  6
CONTINUOUS
 10
9.6021741012
 20
-7.5164483425
 11
4.1817926288
 21
-7.5164483425
  0
LINE
  5
2C7
100
AcDbEntity
  8
RACCORDO
100
AcDbLine
 62
7
  6
CONTINUOUS
 10
9.6021741012
 20
-7.5164483425
 11
4.1817926288
 21
-7.5164483425
  0
LINE
  5
2C8
100
AcDbEntity
  8
ASSI
100
AcDbLine
 62
7
  6
CONTINUOUS
 10
-4.1817926288
 20
-7.5164483425
 11
-9.6021773948
 21
-7.5164483425
  0
LINE
  5
2C9
100
AcDbEntity
  8
RACCORDO
100
AcDbLine
 62
7
  6
CONTINUOUS
 10
-4.1817926288
 20
-7.5164483425
 11
-9.6021773948
 21
-7.5164483425
  0
LINE
  5
2CA
100
AcDbEntity
  8
ASSI
100
AcDbLine
 62
250
  6
CONTINUOUS
 10
9.6021741012
 20
-7.2664578618
 11
7.3847652298
 21
-7.2664578618
  0
LINE
  5
2CB
100
AcDbEntity
  8
RACCORDO
100
AcDbLine
 62
250
  6
CONTINUOUS
 10
9.6021741012
 20
-7.2664578618
 11
7.3847652298
 21
-7.2664578618
  0
LINE
  5
2CC
100
AcDbEntity
  8
ASSI
100
AcDbLine
 62
250
  6
CONTINUOUS
 10
7.1152347702
 20
-7.2664578618
 11
3.2571713998
 21
-7.2664578618
  0
LINE
  5
2CD
100
AcDbEntity
  8
RACCORDO
100
AcDbLine
 62
250
  6
CONTINUOUS
 10
7.1152347702
 20
-7.2664578618
 11
3.2571713998
 21
-7.2664578618
  0
LINE
  5
2CE
100
AcDbEntity
  8
ASSI
100
AcDbLine
 62
250
  6
CONTINUOUS
 10
-3.2571713998
 20
-7.2664578618
 11
-6.8990033895
 21
-7.2664578618
  0
LINE
  5
2CF
100
AcDbEntity
  8
RACCORDO
100
AcDbLine
 62
250
  6
CONTINUOUS
 10
-3.2571713998
 20
-7.2664578618
 11
-6.8990033895
 21
-7.2664578618
  0
LINE
  5
2D0
100
AcDbEntity
  8
ASSI
100
AcDbLine
 62
250
  6
CONTINUOUS
 10
-7.6009966105
 20
-7.2664578618
 11
-9.6021741012
 21
-7.2664578618
  0
LINE
  5
2D1
100
AcDbEntity
  8
RACCORDO
100
AcDbLine
 62
250
  6
CONTINUOUS
 10
-7.6009966105
 20
-7.2664578618
 11
-9.6021741012
 21
-7.2664578618
  0
LINE
  5
2D2
100
AcDbEntity
  8
ASSI
100
AcDbLine
 62
250
  6
CONTINUOUS
 10
9.6521721974
 20
-7.2164597656
 11
9.9021626781
 21
-7.2164597656
  0
LINE
  5
2D3
100
AcDbEntity
  8
RACCORDO
100
AcDbLine
 62
250
  6
CONTINUOUS
 10
9.6521721974
 20
-7.2164597656
 11
9.9021626781
 21
-7.2164597656
  0
LINE
  5
2D4
100
AcDbEntity
  8
ASSI
100
AcDbLine
 62
250
  6
CONTINUOUS
 10
-9.6521721974
 20
-7.2164597656
 11
-9.9021626781
 21
-7.2164597656
  0
LINE
  5
2D5
100
AcDbEntity
  8
RACCORDO
100
AcDbLine
 62
250
  6
CONTINUOUS
 10
-9.6521721974
 20
-7.2164597656
 11
-9.9021626781
 21
-7.2164597656
  0
LINE
  5
2D6
100
AcDbEntity
  8
RACCORDO
100
AcDbLine
 62
7
  6
CONTINUOUS
 10
-8.9501218439
 20
-7.1642856644
 11
-7.6830127019
 21
-7.1642856644
  0
LINE
  5
2D7
100
AcDbEntity
  8
0
100
AcDbLine
 62
7
  6
CONTINUOUS
 10
-6.8169872981
 20
-7.1642856644
 11
-4.3316324463
 21
-7.1642856644
  0
LINE
  5
2D8
100
AcDbEntity
  8
0
100
AcDbLine
 62
7
  6
CONTINUOUS
 10
8.8233112727
 20
-7.1642856644
 11
8.9501218439
 21
-7.1642856644
  0
LINE
  5
2D9
100
AcDbEntity
  8
0
100
AcDbLine
 62
7
  6
CONTINUOUS
 10
8.7622185454
 20
-7.1031929372
 11
7.577153994
 21
-7.1031929372
  0
LINE
  5
2DA
100
AcDbEntity
  8
0
100
AcDbLine
 62
7
  6
CONTINUOUS
 10
6.922846006
 20
-7.1031929372
 11
4.2080430101
 21
-7.1031929372
  0
LINE
  5
2DB
100
AcDbEntity
  8
ASSI
100
AcDbLine
 62
7
  6
CONTINUOUS
 10
-2.1339745962
 20
-7.0142856644
 11
2.1339745962
 21
-7.0142856644
  0
LINE
  5
2DC
100
AcDbEntity
  8
DRAFT
100
AcDbLine
 62
7
  6
CONTINUOUS
 10
-2.1339745962
 20
-7.0142856644
 11
2.1339745962
 21
-7.0142856644
  0
LINE
  5
2DD
100
AcDbEntity
  8
ASSI
100
AcDbLine
 62
7
  6
CONTINUOUS
 10
-2.1404303657
 20
-6.9652492269
 11
2.1404303657
 21
-6.9652492269
  0
LINE
  5
2DE
100
AcDbEntity
  8
DRAFT
100
AcDbLine
 62
7
  6
CONTINUOUS
 10
-2.1404303657
 20
-6.9652492269
 11
2.1404303657
 21
-6.9652492269
  0
LINE
  5
2DF
100
AcDbEntity
  8
0
100
AcDbLine
 62
7
  6
CONTINUOUS
 10
2.6889072728
 20
-6.8142856644
 11
-2.7621497711
 21
-6.8142856644
  0
LINE
  5
2E0
100
AcDbEntity
  8
0
100
AcDbLine
 62
7
  6
CONTINUOUS
 10
2.9018252275
 20
-6.7531929372
 11
2.75
 21
-6.7531929372
  0
LINE
  5
2E1
100
AcDbEntity
  8
0
100
AcDbLine
 62
7
  6
CONTINUOUS
 10
-8.8233112727
 20
-6.2375969371
 11
-4.3220008854
 21
-6.2375969371
  0
LINE
  5
2E2
100
AcDbEntity
  8
0
100
AcDbLine
 62
7
  6
CONTINUOUS
 10
8.7622185454
 20
-6.1765042099
 11
4.3300438956
 21
-6.1765042099
  0
LINE
  5
2E3
100
AcDbEntity
  8
0
100
AcDbLine
 62
7
  6
CONTINUOUS
 10
-8.75
 20
-6.1642856644
 11
-4.3316524976
 21
-6.1642856644
  0
LINE
  5
2E4
100
AcDbEntity
  8
0
100
AcDbLine
 62
7
  6
CONTINUOUS
 10
2.6889072728
 20
-5.8875969371
 11
-3.0157831028
 21
-5.8875969371
  0
LINE
  5
2E5
100
AcDbEntity
  8
0
100
AcDbLine
 62
7
  6
CONTINUOUS
 10
3.0238261129
 20
-5.8265042099
 11
2.75
 21
-5.8265042099
  0
LINE
  5
2E6
100
AcDbEntity
  8
0
100
AcDbLine
 62
7
  6
CONTINUOUS
 10
3.0254347149
 20
-5.8142856644
 11
-3.0254347149
 21
-5.8142856644
  0
LINE
  5
2E7
100
AcDbEntity
  8
0
100
AcDbLine
 62
7
  6
CONTINUOUS
 10
-9.75
 20
-5.1082453432
 11
-8.8233112727
 21
-5.1082453432
  0
LINE
  5
2E8
100
AcDbEntity
  8
0
100
AcDbLine
 62
7
  6
CONTINUOUS
 10
8.8233112727
 20
-5.1082453432
 11
9.75
 21
-5.1082453432
  0
LINE
  5
2E9
100
AcDbEntity
  8
0
100
AcDbLine
 62
7
  6
CONTINUOUS
 10
9.7307994286
 20
-4.9142856644
 11
8.8041107013
 21
-4.9142856644
  0
LINE
  5
2EA
100
AcDbEntity
  8
0
100
AcDbLine
 62
7
  6
CONTINUOUS
 10
-8.8041107013
 20
-4.9142856644
 11
-9.7307994286
 21
-4.9142856644
  0
LWPOLYLINE
  5
2EB
100
AcDbEntity
  8
RACCORDO
100
AcDbPolyline
 62
250
  6
CONTINUOUS
 90
22
 70
0
 10
-9.6021741012
 20
-7.2664578618
 10
-9.6047496873
 20
-7.2664185937
 10
-9.6074002469
 20
-7.2662064763
 10
-9.6101257799
 20
-7.2658215094
 10
-9.6129369486
 20
-7.2652810914
 10
-9.6158230908
 20
-7.264567824
 10
-9.6187522194
 20
-7.2636295122
 10
-9.6217335501
 20
-7.2624664827
 10
-9.6247578672
 20
-7.2610784087
 10
-9.6277655369
 20
-7.2594121155
 10
-9.630768122
 20
-7.2574640065
 10
-9.6337540596
 20
-7.2552376783
 10
-9.6366290268
 20
-7.2526907461
 10
-9.6394082793
 20
-7.2498048113
 10
-9.6420765614
 20
-7.2465982725
 10
-9.6444937823
 20
-7.2430839404
 10
-9.6466603725
 20
-7.239232757
 10
-9.6485759016
 20
-7.2350737803
 10
-9.6500989869
 20
-7.2307069944
 10
-9.6511825008
 20
-7.2261657274
 10
-9.651873571
 20
-7.2214166511
 10
-9.6521721974
 20
-7.2164597656
  0
LINE
  5
2EC
100
AcDbEntity
  8
ASSI
100
AcDbLine
 62
7
  6
CONTINUOUS
 10
2.1339745962
 20
-7.0142856644
 11
4.1758732155
 21
-7.5614107505
  0
LINE
  5
2ED
100
AcDbEntity
  8
DRAFT
100
AcDbLine
 62
7
  6
CONTINUOUS
 10
2.1339745962
 20
-7.0142856644
 11
4.1758732155
 21
-7.5614107505
  0
LINE
  5
2EE
100
AcDbEntity
  8
RACCORDO
100
AcDbLine
 62
7
  6
CONTINUOUS
 10
2.8258429704
 20
-7.1508837574
 11
3.2571713998
 21
-7.2664578618
  0
LINE
  5
2EF
100
AcDbEntity
  8
0
100
AcDbLine
 62
7
  6
CONTINUOUS
 10
4.2080430101
 20
-7.1031929372
 11
2.9018252275
 21
-6.7531929372
  0
LINE
  5
2F0
100
AcDbEntity
  8
ASSI
100
AcDbLine
 62
7
  6
CONTINUOUS
 10
2.1404303657
 20
-6.9652492269
 11
3.2571713998
 21
-7.2664578618
  0
LINE
  5
2F1
100
AcDbEntity
  8
DRAFT
100
AcDbLine
 62
7
  6
CONTINUOUS
 10
2.1404303657
 20
-6.9652492269
 11
2.8258429704
 21
-7.1508837574
  0
LINE
  5
2F2
100
AcDbEntity
  8
ASSI
100
AcDbLine
 62
7
  6
CONTINUOUS
 10
-9.9506158332
 20
6.6479297357
 11
-10.259966909
 21
7.3113352588
  0
LINE
  5
2F3
100
AcDbEntity
  8
DRAFT
100
AcDbLine
 62
7
  6
CONTINUOUS
 10
-9.9506158332
 20
6.6479297357
 11
-10.259966909
 21
7.3113352588
  0
LINE
  5
2F4
100
AcDbEntity
  8
ASSI
100
AcDbLine
 62
250
  6
CONTINUOUS
 10
-9.9021436407
 20
6.7733882118
 11
-10.1630151405
 21
7.3328289484
  0
LINE
  5
2F5
100
AcDbEntity
  8
RACCORDO
100
AcDbLine
 62
250
  6
CONTINUOUS
 10
-9.9021436407
 20
6.7733882118
 11
-10.1630151405
 21
7.3328289484
  0
LINE
  5
2F6
100
AcDbEntity
  8
ASSI
100
AcDbLine
 62
250
  6
CONTINUOUS
 10
-9.6766887273
 20
6.8813588895
 11
-9.9130532167
 21
7.3882441728
  0
LINE
  5
2F7
100
AcDbEntity
  8
RACCORDO
100
AcDbLine
 62
250
  6
CONTINUOUS
 10
-9.6766887273
 20
6.8813588895
 11
-9.9130532167
 21
7.3882441728
  0
LWPOLYLINE
  5
2F8
100
AcDbEntity
  8
0
100
AcDbPolyline
 62
250
  6
CONTINUOUS
 90
5
 70
0
 10
-7.9095594111
 20
15.5311116169
 10
-7.9224392014
 20
15.6168196254
 10
-7.9403843856
 20
15.6994406916
 10
-7.9637296262
 20
15.7782217296
 10
-7.9934789108
 20
15.8509034823
  0
LINE
  5
2F9
100
AcDbEntity
  8
ASSI
100
AcDbLine
 62
7
  6
CONTINUOUS
 10
-4.1817926288
 20
-7.5164483425
 11
-4.1758732155
 21
-7.5614107505
  0
LINE
  5
2FA
100
AcDbEntity
  8
RACCORDO
100
AcDbLine
 62
7
  6
CONTINUOUS
 10
-4.1817926288
 20
-7.5164483425
 11
-4.1758732155
 21
-7.5614107505
  0
LINE
  5
2FB
100
AcDbEntity
  8
0
100
AcDbLine
 62
7
  6
CONTINUOUS
 10
-4.3316524976
 20
-6.1642856644
 11
-4.3220008854
 21
-6.2375969371
  0
LINE
  5
2FC
100
AcDbEntity
  8
0
100
AcDbLine
 62
7
  6
CONTINUOUS
 10
-2.5
 20
19.0242864908
 11
-2.5
 21
18.0827056851
  0
LINE
  5
2FD
100
AcDbEntity
  8
0
100
AcDbLine
 62
7
  6
CONTINUOUS
 10
-2.5
 20
8.588722986
 11
-2.5
 21
7.6471421803
  0
LINE
  5
2FE
100
AcDbEntity
  8
0
100
AcDbLine
 62
7
  6
CONTINUOUS
 10
-2.4057426494
 20
18.8357143356
 11
-2.4057426494
 21
18.4607143356
  0
LINE
  5
2FF
100
AcDbEntity
  8
0
100
AcDbLine
 62
7
  6
CONTINUOUS
 10
-2.4057426494
 20
8.2107143356
 11
-2.4057426494
 21
7.8357143356
  0
LINE
  5
300
100
AcDbEntity
  8
0
100
AcDbLine
 62
7
  6
CONTINUOUS
 10
-2.4118794124
 20
18.1091394186
 11
-2.4057426494
 21
18.4607143356
  0
LINE
  5
301
100
AcDbEntity
  8
0
100
AcDbLine
 62
7
  6
CONTINUOUS
 10
8.75
 20
25.5857143356
 11
8.8148883267
 21
25.7155305413
  0
LINE
  5
302
100
AcDbEntity
  8
0
100
AcDbLine
 62
7
  6
CONTINUOUS
 10
9.741577054
 20
25.7155305413
 11
9.6766887273
 21
25.5857143356
  0
LINE
  5
303
100
AcDbEntity
  8
0
100
AcDbLine
 62
7
  6
CONTINUOUS
 10
1.2
 20
8.6107143356
 11
1.1621057877
 21
8.5622892525
  0
LWPOLYLINE
  5
304
100
AcDbEntity
  8
0
100
AcDbPolyline
 62
250
  6
CONTINUOUS
 90
10
 70
0
 10
8.214390275
 20
15.9309489909
 10
8.2233284422
 20
15.9419996303
 10
8.2324924122
 20
15.9517864166
 10
8.2418624659
 20
15.9603006787
 10
8.2514604243
 20
15.9675543524
 10
8.2612230048
 20
15.9735170466
 10
8.2709970732
 20
15.9781285884
 10
8.2807127622
 20
15.9813774709
 10
8.290388296
 20
15.9832882893
 10
8.3
 20
15.9838674237
  0
LWPOLYLINE
  5
305
100
AcDbEntity
  8
0
100
AcDbPolyline
 62
250
  6
CONTINUOUS
 90
13
 70
0
 10
8.1000001856
 20
16.0094997334
 10
8.0791503433
 20
15.9867513908
 10
8.0595301302
 20
15.9625105351
 10
8.0411395464
 20
15.9367771662
 10
8.0240665996
 20
15.9096556296
 10
8.0082232821
 20
15.8810415797
 10
7.9933455708
 20
15.8506219806
 10
7.9793083962
 20
15.8182868477
 10
7.9662368278
 20
15.7841461656
 10
7.954242051
 20
15.7482168509
 10
7.9433068666
 20
15.7103898016
 10
7.9334484738
 20
15.6707741197
 10
7.9248296559
 20
15.6297140282
  0
LINE
  5
306
100
AcDbEntity
  8
0
100
AcDbLine
 62
7
  6
CONTINUOUS
 10
-0.5083064438
 20
5.3357143356
 11
-0.3953412642
 21
5.4486795152
  0
LINE
  5
307
100
AcDbEntity
  8
0
100
AcDbLine
 62
7
  6
CONTINUOUS
 10
-0.5083064438
 20
4.1323815674
 11
-0.6381226496
 21
4.0025653617
  0
LINE
  5
308
100
AcDbEntity
  8
0
100
AcDbLine
 62
7
  6
CONTINUOUS
 10
-3.0157831028
 20
-5.8875969371
 11
-4.3220008854
 21
-6.2375969371
  0
LINE
  5
309
100
AcDbEntity
  8
0
100
AcDbLine
 62
7
  6
CONTINUOUS
 10
-3.0254347149
 20
-5.8142856644
 11
-4.3316524976
 21
-6.1642856644
  0
LINE
  5
30A
100
AcDbEntity
  8
ASSI
100
AcDbLine
 62
7
  6
CONTINUOUS
 10
9.9506158332
 20
-4.6642856644
 11
9.35
 21
-4.6642856644
  0
LINE
  5
30B
100
AcDbEntity
  8
0
100
AcDbLine
 62
7
  6
CONTINUOUS
 10
9.9506158332
 20
-4.6642856644
 11
9.35
 21
-4.6642856644
  0
LINE
  5
30C
100
AcDbEntity
  8
ASSI
100
AcDbLine
 62
7
  6
CONTINUOUS
 10
-9.35
 20
-4.6642856644
 11
-9.9506158332
 21
-4.6642856644
  0
LINE
  5
30D
100
AcDbEntity
  8
0
100
AcDbLine
 62
7
  6
CONTINUOUS
 10
-9.35
 20
-4.6642856644
 11
-9.9506158332
 21
-4.6642856644
  0
LINE
  5
30E
100
AcDbEntity
  8
0
100
AcDbLine
 62
7
  6
CONTINUOUS
 10
2.1
 20
-4.4642856644
 11
-2.1
 21
-4.4642856644
  0
LINE
  5
30F
100
AcDbEntity
  8
ASSI
100
AcDbLine
 62
7
  6
CONTINUOUS
 10
9.9506158332
 20
-2.6642856644
 11
9.35
 21
-2.6642856644
  0
LINE
  5
310
100
AcDbEntity
  8
0
100
AcDbLine
 62
7
  6
CONTINUOUS
 10
9.9506158332
 20
-2.6642856644
 11
9.35
 21
-2.6642856644
  0
LINE
  5
311
100
AcDbEntity
  8
ASSI
100
AcDbLine
 62
7
  6
CONTINUOUS
 10
-9.35
 20
-2.6642856644
 11
-9.9506158332
 21
-2.6642856644
  0
LINE
  5
312
100
AcDbEntity
  8
0
100
AcDbLine
 62
7
  6
CONTINUOUS
 10
-9.35
 20
-2.6642856644
 11
-9.9506158332
 21
-2.6642856644
  0
LINE
  5
313
100
AcDbEntity
  8
0
100
AcDbLine
 62
7
  6
CONTINUOUS
 10
-9.7307994286
 20
-2.4142856644
 11
-8.8041107013
 21
-2.4142856644
  0
LINE
  5
314
100
AcDbEntity
  8
0
100
AcDbLine
 62
7
  6
CONTINUOUS
 10
8.8041107013
 20
-2.4142856644
 11
9.7307994286
 21
-2.4142856644
  0
LINE
  5
315
100
AcDbEntity
  8
0
100
AcDbLine
 62
7
  6
CONTINUOUS
 10
4.3300438956
 20
-6.1765042099
 11
3.0238261129
 21
-5.8265042099
  0
LWPOLYLINE
  5
316
100
AcDbEntity
  8
ASSI
100
AcDbPolyline
 62
7
  6
CONTINUOUS
 90
11
 70
0
 10
-10.1630151405
 20
8.0219455916
 10
-10.1620075364
 20
8.020341593
 10
-10.1596376815
 20
8.0187303571
 10
-10.1559209235
 20
8.0171293081
 10
-10.1508843214
 20
8.0155651158
 10
-10.1445552974
 20
8.0140449865
 10
-10.1369515019
 20
8.0125571738
 10
-10.128090481
 20
8.0111148273
 10
-10.1180276697
 20
8.0097380595
 10
-10.1068505746
 20
8.0084242965
 10
-10.1
 20
8.0077301907
  0
LWPOLYLINE
  5
317
100
AcDbEntity
  8
ASSI
100
AcDbPolyline
 62
7
  6
CONTINUOUS
 90
10
 70
0
 10
-10.154287608
 20
10.8575865015
 10
-10.1532802957
 20
10.8559541895
 10
-10.1509110828
 20
10.8543489957
 10
-10.1471953416
 20
10.85277092
 10
-10.1421601607
 20
10.8512127368
 10
-10.1358329597
 20
10.8496816718
 10
-10.128231389
 20
10.8481994019
 10
-10.1193730845
 20
10.8467641721
 10
-10.1093134685
 20
10.8453777375
 10
-10.1
 20
10.8442852379
  0
LINE
  5
318
100
AcDbEntity
  8
ASSI
100
AcDbLine
 62
7
  6
CONTINUOUS
 10
-6.1200267885
 20
8.6807791691
 11
-6.5
 21
10.8357143356
  0
LINE
  5
319
100
AcDbEntity
  8
0
100
AcDbLine
 62
7
  6
CONTINUOUS
 10
-6.1200267885
 20
8.6807791691
 11
-6.5
 21
10.8357143356
  0
LINE
  5
31A
100
AcDbEntity
  8
0
100
AcDbLine
 62
7
  6
CONTINUOUS
 10
-3.0157831028
 20
-5.8875969371
 11
-3.0254347149
 21
-5.8142856644
  0
LINE
  5
31B
100
AcDbEntity
  8
ASSI
100
AcDbLine
 62
7
  6
CONTINUOUS
 10
-2.1339745962
 20
-7.0142856644
 11
-2.1404303657
 21
-6.9652492269
  0
LINE
  5
31C
100
AcDbEntity
  8
DRAFT
100
AcDbLine
 62
7
  6
CONTINUOUS
 10
-2.1339745962
 20
-7.0142856644
 11
-2.1404303657
 21
-6.9652492269
  0
LWPOLYLINE
  5
31D
100
AcDbEntity
  8
0
100
AcDbPolyline
 62
250
  6
CONTINUOUS
 90
22
 70
0
 10
-1.1378180631
 20
6.7597182363
 10
-1.1387836986
 20
6.7823667601
 10
-1.1412473649
 20
6.8044310025
 10
-1.1452090618
 20
6.8259109634
 10
-1.150688739
 20
6.8468093918
 10
-1.1576664469
 20
6.8671235389
 10
-1.1660823367
 20
6.8868451575
 10
-1.1759766133
 20
6.9060894255
 10
-1.1873090717
 20
6.924741165
 10
-1.1998992479
 20
6.942446596
 10
-1.2137708892
 20
6.9591766294
 10
-1.2289002484
 20
6.9749603542
 10
-1.2450356194
 20
6.989531257
 10
-1.2620778265
 20
7.0028330301
 10
-1.2801260454
 20
7.0149219812
 10
-1.2992260975
 20
7.0257005198
 10
-1.3193329322
 20
7.035251761
 10
-1.3404916
 20
7.0434925896
 10
-1.3628830745
 20
7.0500760698
 10
-1.3865676801
 20
7.0548865564
 10
-1.4114850923
 20
7.0580396946
 10
-1.4376353112
 20
7.0595354844
  0
LWPOLYLINE
  5
31E
100
AcDbEntity
  8
0
100
AcDbPolyline
 62
250
  6
CONTINUOUS
 90
22
 70
0
 10
-0.6381226496
 20
6.7597182363
 10
-0.6404127414
 20
6.8195988126
 10
-0.6470821756
 20
6.8784994919
 10
-0.6579511667
 20
6.9361129775
 10
-0.6727386445
 20
6.9918847524
 10
-0.6912746166
 20
7.0458409433
 10
-0.7136945007
 20
7.0985229072
 10
-0.7400872814
 20
7.1499372313
 10
-0.7702336542
 20
7.1994819432
 10
-0.8039170844
 20
7.2467492532
 10
-0.8409484452
 20
7.2914623898
 10
-0.8811565788
 20
7.3334045881
 10
-0.9242846927
 20
7.3723043986
 10
-0.9698360201
 20
7.4077682784
 10
-1.0178061389
 20
7.4398438436
 10
-1.0687561077
 20
7.4687922902
 10
-1.1224093954
 20
7.4942449562
 10
-1.178647917
 20
7.5159388081
 10
-1.2384283575
 20
7.5338734642
 10
-1.3019376368
 20
7.5475321259
 10
-1.3684732542
 20
7.5561822694
 10
-1.4376353112
 20
7.559230898
  0
LINE
  5
31F
100
AcDbEntity
  8
0
100
AcDbLine
 62
7
  6
CONTINUOUS
 10
-2.4057426494
 20
8.2107143356
 11
-2.4118794124
 21
8.5622892525
  0
LINE
  5
320
100
AcDbEntity
  8
ASSI
100
AcDbLine
 62
250
  6
CONTINUOUS
 10
-2.1
 20
-6.8142856644
 11
-2.1
 21
-6.9652481029
  0
LINE
  5
321
100
AcDbEntity
  8
DRAFT
100
AcDbLine
 62
250
  6
CONTINUOUS
 10
-2.1
 20
-6.8142856644
 11
-2.1
 21
-6.9652481029
  0
LINE
  5
322
100
AcDbEntity
  8
ASSI
100
AcDbLine
 62
7
  6
CONTINUOUS
 10
-1.5
 20
-7.5649014976
 11
-1.5
 21
-8.1142856644
  0
LINE
  5
323
100
AcDbEntity
  8
DRAFT
100
AcDbLine
 62
7
  6
CONTINUOUS
 10
-1.5
 20
-7.5649014976
 11
-1.5
 21
-8.1142856644
  0
LINE
  5
324
100
AcDbEntity
  8
0
100
AcDbLine
 62
250
  6
CONTINUOUS
 10
-1.4376353112
 20
7.559230898
 11
-1.4376353112
 21
7.0595354844
  0
LINE
  5
325
100
AcDbEntity
  8
0
100
AcDbLine
 62
250
  6
CONTINUOUS
 10
-1.4376353112
 20
19.1121977732
 11
-1.4376353112
 21
19.6118931867
  0
LINE
  5
326
100
AcDbEntity
  8
0
100
AcDbLine
 62
250
  6
CONTINUOUS
 10
-1.1378180631
 20
3.9857143356
 11
-1.1378180631
 21
6.7597182363
  0
LINE
  5
327
100
AcDbEntity
  8
0
100
AcDbLine
 62
250
  6
CONTINUOUS
 10
-1.1378180631
 20
19.9117104348
 11
-1.1378180631
 21
25.818558723
  0
LINE
  5
328
100
AcDbEntity
  8
0
100
AcDbLine
 62
250
  6
CONTINUOUS
 10
-0.6381226496
 20
4.0025653617
 11
-0.6381226496
 21
6.7597182363
  0
LINE
  5
329
100
AcDbEntity
  8
0
100
AcDbLine
 62
250
  6
CONTINUOUS
 10
-0.6381226496
 20
19.9117104348
 11
-0.6381226496
 21
25.3188633095
  0
LINE
  5
32A
100
AcDbEntity
  8
0
100
AcDbLine
 62
7
  6
CONTINUOUS
 10
-0.5083064438
 20
24.2233583289
 11
-0.5083064438
 21
21.3357143356
  0
LINE
  5
32B
100
AcDbEntity
  8
0
100
AcDbLine
 62
7
  6
CONTINUOUS
 10
-0.5083064438
 20
5.3357143356
 11
-0.5083064438
 21
4.1323815674
  0
LINE
  5
32C
100
AcDbEntity
  8
0
100
AcDbLine
 62
7
  6
CONTINUOUS
 10
-0.361639212
 20
20.2233583289
 11
-0.361639212
 21
19.6352269972
  0
LINE
  5
32D
100
AcDbEntity
  8
0
100
AcDbLine
 62
7
  6
CONTINUOUS
 10
-0.361639212
 20
7.036201674
 11
-0.361639212
 21
6.4480703422
  0
LWPOLYLINE
  5
32E
100
AcDbEntity
  8
0
100
AcDbPolyline
 62
250
  6
CONTINUOUS
 90
10
 70
0
 10
8.2
 20
15.9098283728
 10
8.2015181383
 20
15.9122695364
 10
8.2030572717
 20
15.9146896561
 10
8.2046174794
 20
15.9170884894
 10
8.2062000939
 20
15.9194684686
 10
8.2078039376
 20
15.9218266507
 10
8.2094252619
 20
15.9241547849
 10
8.211062795
 20
15.9264500162
 10
8.2127178011
 20
15.9287148184
 10
8.214390275
 20
15.9309489909
  0
LWPOLYLINE
  5
32F
100
AcDbEntity
  8
RACCORDO
100
AcDbPolyline
 62
7
  6
CONTINUOUS
 90
7
 70
0
 10
10.154287608
 20
10.8575865015
 10
10.1516443489
 20
10.8548426654
 10
10.1448788752
 20
10.8520561109
 10
10.1340980912
 20
10.8493187156
 10
10.1194760356
 20
10.8467580303
 10
10.1012516788
 20
10.844420273
 10
10.1
 20
10.8442951781
  0
LINE
  5
330
100
AcDbEntity
  8
ASSI
100
AcDbLine
 62
250
  6
CONTINUOUS
 10
-9.9506158332
 20
-7.2649129207
 11
-9.9021626781
 21
-7.2164597656
  0
LINE
  5
331
100
AcDbEntity
  8
RACCORDO
100
AcDbLine
 62
250
  6
CONTINUOUS
 10
-9.9506158332
 20
-7.2649129207
 11
-9.9021626781
 21
-7.2164597656
  0
LINE
  5
332
100
AcDbEntity
  8
0
100
AcDbLine
 62
7
  6
CONTINUOUS
 10
-8.8233112727
 20
-6.2375969371
 11
-8.75
 21
-6.1642856644
  0
LINE
  5
333
100
AcDbEntity
  8
ASSI
100
AcDbLine
 62
250
  6
CONTINUOUS
 10
-9.6506272563
 20
-7.5649014976
 11
-9.6021773948
 21
-7.5164483425
  0
LINE
  5
334
100
AcDbEntity
  8
RACCORDO
100
AcDbLine
 62
250
  6
CONTINUOUS
 10
-9.6506272563
 20
-7.5649014976
 11
-9.6021773948
 21
-7.5164483425
  0
LINE
  5
335
100
AcDbEntity
  8
0
100
AcDbLine
 62
7
  6
CONTINUOUS
 10
-9.75
 20
-2.2203259856
 11
-8.8233112727
 21
-2.2203259856
  0
LINE
  5
336
100
AcDbEntity
  8
0
100
AcDbLine
 62
7
  6
CONTINUOUS
 10
8.8233112727
 20
-2.2203259856
 11
9.75
 21
-2.2203259856
  0
LWPOLYLINE
  5
337
100
AcDbEntity
  8
0
100
AcDbPolyline
 62
7
  6
CONTINUOUS
 90
10
 70
0
 10
-7.3
 20
7.0595354844
 10
-7.3919044935
 20
7.1472696832
 10
-7.4759489005
 20
7.2372575974
 10
-7.5521332208
 20
7.329499227
 10
-7.6220936516
 20
7.424169244
 10
-7.6841939958
 20
7.5210929763
 10
-7.7335256619
 20
7.6197464085
 10
-7.7684524527
 20
7.7199548686
 10
-7.7906105654
 20
7.8218930285
 10
-7.8
 20
7.9255608882
  0
LWPOLYLINE
  5
338
100
AcDbEntity
  8
RACCORDO
100
AcDbPolyline
 62
7
  6
CONTINUOUS
 90
7
 70
0
 10
-10.1630151405
 20
8.0219455916
 10
-10.1603718814
 20
8.0192017556
 10
-10.1536064077
 20
8.0164152011
 10
-10.1428256237
 20
8.0136778058
 10
-10.1282035681
 20
8.0111171205
 10
-10.1099792113
 20
8.0087793632
 10
-10.1
 20
8.0077820236
  0
LWPOLYLINE
  5
339
100
AcDbEntity
  8
RACCORDO
100
AcDbPolyline
 62
7
  6
CONTINUOUS
 90
7
 70
0
 10
-10.154287608
 20
10.8575865015
 10
-10.1516434686
 20
10.8546946315
 10
-10.1448757563
 20
10.851938335
 10
-10.1340927233
 20
10.8493176121
 10
-10.1194703267
 20
10.8467934544
 10
-10.101248281
 20
10.8444048703
 10
-10.1
 20
10.8442809886
  0
LINE
  5
33A
100
AcDbEntity
  8
ASSI
100
AcDbLine
 62
7
  6
CONTINUOUS
 10
-9.9506158332
 20
20.0234989354
 11
-9.9021626781
 21
19.8980897329
  0
LINE
  5
33B
100
AcDbEntity
  8
RACCORDO
100
AcDbLine
 62
7
  6
CONTINUOUS
 10
-9.9506158332
 20
20.0234989354
 11
-9.9021626781
 21
19.8980897329
  0
LWPOLYLINE
  5
33C
100
AcDbEntity
  8
0
100
AcDbPolyline
 62
250
  6
CONTINUOUS
 90
22
 70
0
 10
1.1378180631
 20
19.9117104348
 10
1.1387836986
 20
19.889061911
 10
1.1412473649
 20
19.8669976687
 10
1.1452090618
 20
19.8455177078
 10
1.150688739
 20
19.8246192793
 10
1.1576664469
 20
19.8043051323
 10
1.1660823367
 20
19.7845835137
 10
1.1759766133
 20
19.7653392457
 10
1.1873090717
 20
19.7466875061
 10
1.1998992479
 20
19.7289820752
 10
1.2137708892
 20
19.7122520418
 10
1.2289002484
 20
19.6964683169
 10
1.2450356194
 20
19.6818974142
 10
1.2620778265
 20
19.668595641
 10
1.2801260454
 20
19.6565066899
 10
1.2992260975
 20
19.6457281513
 10
1.3193329322
 20
19.6361769102
 10
1.3404916
 20
19.6279360816
 10
1.3628830745
 20
19.6213526013
 10
1.3865676801
 20
19.6165421147
 10
1.4114850923
 20
19.6133889765
 10
1.4376353112
 20
19.6118931867
  0
LWPOLYLINE
  5
33D
100
AcDbEntity
  8
0
100
AcDbPolyline
 62
250
  6
CONTINUOUS
 90
22
 70
0
 10
0.6381226496
 20
19.9117104348
 10
0.6404127414
 20
19.8518298585
 10
0.6470821756
 20
19.7929291792
 10
0.6579511667
 20
19.7353156937
 10
0.6727386445
 20
19.6795439187
 10
0.6912746166
 20
19.6255877278
 10
0.7136945007
 20
19.572905764
 10
0.7400872814
 20
19.5214914398
 10
0.7702336542
 20
19.471946728
 10
0.8039170844
 20
19.424679418
 10
0.8409484452
 20
19.3799662814
 10
0.8811565788
 20
19.3380240831
 10
0.9242846927
 20
19.2991242726
 10
0.9698360201
 20
19.2636603928
 10
1.0178061389
 20
19.2315848276
 10
1.0687561077
 20
19.202636381
 10
1.1224093954
 20
19.1771837149
 10
1.178647917
 20
19.155489863
 10
1.2384283575
 20
19.1375552069
 10
1.3019376368
 20
19.1238965452
 10
1.3684732542
 20
19.1152464017
 10
1.4376353112
 20
19.1121977732
  0
LINE
  5
33E
100
AcDbEntity
  8
0
100
AcDbLine
 62
7
  6
CONTINUOUS
 10
2.4057426494
 20
18.4607143356
 11
2.4118794124
 21
18.1091394186
  0
LINE
  5
33F
100
AcDbEntity
  8
0
100
AcDbLine
 62
7
  6
CONTINUOUS
 10
0.361639212
 20
6.4480703422
 11
0.361639212
 21
7.036201674
  0
LINE
  5
340
100
AcDbEntity
  8
0
100
AcDbLine
 62
7
  6
CONTINUOUS
 10
0.361639212
 20
19.6352269972
 11
0.361639212
 21
20.2233583289
  0
LINE
  5
341
100
AcDbEntity
  8
0
100
AcDbLine
 62
7
  6
CONTINUOUS
 10
0.5083064438
 20
4.1323815674
 11
0.5083064438
 21
5.3357143356
  0
LINE
  5
342
100
AcDbEntity
  8
0
100
AcDbLine
 62
7
  6
CONTINUOUS
 10
0.5083064438
 20
21.3357143356
 11
0.5083064438
 21
24.2233583289
  0
LINE
  5
343
100
AcDbEntity
  8
0
100
AcDbLine
 62
250
  6
CONTINUOUS
 10
0.6381226496
 20
25.3188633095
 11
0.6381226496
 21
19.9117104348
  0
LINE
  5
344
100
AcDbEntity
  8
0
100
AcDbLine
 62
250
  6
CONTINUOUS
 10
0.6381226496
 20
6.7597182363
 11
0.6381226496
 21
4.0025653617
  0
LINE
  5
345
100
AcDbEntity
  8
0
100
AcDbLine
 62
250
  6
CONTINUOUS
 10
1.1378180631
 20
25.818558723
 11
1.1378180631
 21
19.9117104348
  0
LINE
  5
346
100
AcDbEntity
  8
0
100
AcDbLine
 62
250
  6
CONTINUOUS
 10
1.1378180631
 20
6.7597182363
 11
1.1378180631
 21
3.9857143356
  0
LINE
  5
347
100
AcDbEntity
  8
0
100
AcDbLine
 62
250
  6
CONTINUOUS
 10
1.4376353112
 20
7.559230898
 11
1.4376353112
 21
7.0595354844
  0
LINE
  5
348
100
AcDbEntity
  8
0
100
AcDbLine
 62
250
  6
CONTINUOUS
 10
1.4376353112
 20
19.1121977732
 11
1.4376353112
 21
19.6118931867
  0
LINE
  5
349
100
AcDbEntity
  8
ASSI
100
AcDbLine
 62
7
  6
CONTINUOUS
 10
1.5
 20
-8.1142856644
 11
1.5
 21
-7.5649014976
  0
LINE
  5
34A
100
AcDbEntity
  8
DRAFT
100
AcDbLine
 62
7
  6
CONTINUOUS
 10
1.5
 20
-8.1142856644
 11
1.5
 21
-7.5649014976
  0
LINE
  5
34B
100
AcDbEntity
  8
ASSI
100
AcDbLine
 62
250
  6
CONTINUOUS
 10
2.1
 20
-6.8142856644
 11
2.1
 21
-6.9652481029
  0
LINE
  5
34C
100
AcDbEntity
  8
DRAFT
100
AcDbLine
 62
250
  6
CONTINUOUS
 10
2.1
 20
-6.8142856644
 11
2.1
 21
-6.9652481029
  0
LINE
  5
34D
100
AcDbEntity
  8
0
100
AcDbLine
 62
7
  6
CONTINUOUS
 10
2.4057426494
 20
7.8357143356
 11
2.4057426494
 21
8.2107143356
  0
LINE
  5
34E
100
AcDbEntity
  8
0
100
AcDbLine
 62
7
  6
CONTINUOUS
 10
2.4057426494
 20
18.4607143356
 11
2.4057426494
 21
18.8357143356
  0
LINE
  5
34F
100
AcDbEntity
  8
0
100
AcDbLine
 62
7
  6
CONTINUOUS
 10
2.5
 20
7.6471421803
 11
2.5
 21
8.588722986
  0
LINE
  5
350
100
AcDbEntity
  8
0
100
AcDbLine
 62
7
  6
CONTINUOUS
 10
2.5
 20
18.0827056851
 11
2.5
 21
19.0242864908
  0
LINE
  5
351
100
AcDbEntity
  8
0
100
AcDbLine
 62
7
  6
CONTINUOUS
 10
2.6889072728
 20
-6.8142856644
 11
2.6889072728
 21
-5.8875969371
  0
LINE
  5
352
100
AcDbEntity
  8
0
100
AcDbLine
 62
7
  6
CONTINUOUS
 10
2.75
 20
-5.8265042099
 11
2.75
 21
-6.7531929372
  0
LINE
  5
353
100
AcDbEntity
  8
0
100
AcDbLine
 62
7
  6
CONTINUOUS
 10
2.4118794124
 20
8.5622892525
 11
2.4057426494
 21
8.2107143356
  0
LINE
  5
354
100
AcDbEntity
  8
ASSI
100
AcDbLine
 62
7
  6
CONTINUOUS
 10
9.9506158332
 20
20.0234989354
 11
9.9021626781
 21
19.8980897329
  0
LINE
  5
355
100
AcDbEntity
  8
RACCORDO
100
AcDbLine
 62
7
  6
CONTINUOUS
 10
9.9506158332
 20
20.0234989354
 11
9.9021626781
 21
19.8980897329
  0
LWPOLYLINE
  5
356
100
AcDbEntity
  8
ASSI
100
AcDbPolyline
 62
7
  6
CONTINUOUS
 90
10
 70
0
 10
10.154287608
 20
10.8575865015
 10
10.153280004
 20
10.8559825028
 10
10.150910149
 20
10.8543712669
 10
10.147193391
 20
10.852770218
 10
10.1421567889
 20
10.8512060256
 10
10.135827765
 20
10.8496858963
 10
10.1282239694
 20
10.8481980836
 10
10.1193629485
 20
10.8467557371
 10
10.1093001372
 20
10.8453789693
 10
10.1
 20
10.8442858252
  0
LWPOLYLINE
  5
357
100
AcDbEntity
  8
RACCORDO
100
AcDbPolyline
 62
7
  6
CONTINUOUS
 90
7
 70
0
 10
10.1630151405
 20
8.0219455916
 10
10.1603710011
 20
8.0190537217
 10
10.1536032888
 20
8.0162974252
 10
10.1428202558
 20
8.0136767023
 10
10.1281978591
 20
8.0111525446
 10
10.1099758134
 20
8.0087639605
 10
10.1
 20
8.0077739421
  0
LINE
  5
358
100
AcDbEntity
  8
0
100
AcDbLine
 62
250
  6
CONTINUOUS
 10
9.75
 20
0.4562027163
 11
8.8233112727
 21
0.4562027163
  0
LINE
  5
359
100
AcDbEntity
  8
0
100
AcDbLine
 62
250
  6
CONTINUOUS
 10
-8.8233112727
 20
0.4562027163
 11
-9.75
 21
0.4562027163
  0
LINE
  5
35A
100
AcDbEntity
  8
0
100
AcDbLine
 62
250
  6
CONTINUOUS
 10
9.741577054
 20
0.9558981298
 11
8.8148883267
 21
0.9558981298
  0
LINE
  5
35B
100
AcDbEntity
  8
0
100
AcDbLine
 62
250
  6
CONTINUOUS
 10
-8.8148883267
 20
0.9558981298
 11
-9.741577054
 21
0.9558981298
  0
LINE
  5
35C
100
AcDbEntity
  8
0
100
AcDbLine
 62
7
  6
CONTINUOUS
 10
-9.6766887273
 20
1.0857143356
 11
-8.75
 21
1.0857143356
  0
LINE
  5
35D
100
AcDbEntity
  8
0
100
AcDbLine
 62
7
  6
CONTINUOUS
 10
8.75
 20
1.0857143356
 11
9.6766887273
 21
1.0857143356
  0
LINE
  5
35E
100
AcDbEntity
  8
0
100
AcDbLine
 62
7
  6
CONTINUOUS
 10
8.8233112727
 20
-7.1642856644
 11
8.7622185454
 21
-7.1031929372
  0
LINE
  5
35F
100
AcDbEntity
  8
ASSI
100
AcDbLine
 62
250
  6
CONTINUOUS
 10
9.6021741012
 20
-7.5164483425
 11
9.6506272563
 21
-7.5649014976
  0
LINE
  5
360
100
AcDbEntity
  8
RACCORDO
100
AcDbLine
 62
250
  6
CONTINUOUS
 10
9.6021741012
 20
-7.5164483425
 11
9.6506272563
 21
-7.5649014976
  0
LINE
  5
361
100
AcDbEntity
  8
ASSI
100
AcDbLine
 62
250
  6
CONTINUOUS
 10
9.9021626781
 20
-7.2164535357
 11
9.9506158332
 21
-7.2649129207
  0
LINE
  5
362
100
AcDbEntity
  8
RACCORDO
100
AcDbLine
 62
250
  6
CONTINUOUS
 10
9.9021626781
 20
-7.2164535357
 11
9.9506158332
 21
-7.2649129207
  0
LWPOLYLINE
  5
363
100
AcDbEntity
  8
0
100
AcDbPolyline
 62
250
  6
CONTINUOUS
 90
7
 70
0
 10
-7.9934789108
 20
15.8509034823
 10
-8.0302805137
 20
15.9186888943
 10
-8.0734861605
 20
15.980375021
 10
-8.1221550161
 20
16.0300937713
 10
-8.1759734687
 20
16.0658891148
 10
-8.23525513
 20
16.089717082
 10
-8.3
 20
16.1015776728
  0
LINE
  5
364
100
AcDbEntity
  8
0
100
AcDbLine
 62
7
  6
CONTINUOUS
 10
-9.741577054
 20
25.7155305413
 11
-9.6766887273
 21
25.5857143356
  0
LINE
  5
365
100
AcDbEntity
  8
ASSI
100
AcDbLine
 62
7
  6
CONTINUOUS
 10
2.1339745962
 20
-7.0142856644
 11
2.1404303657
 21
-6.9652492269
  0
LINE
  5
366
100
AcDbEntity
  8
DRAFT
100
AcDbLine
 62
7
  6
CONTINUOUS
 10
2.1339745962
 20
-7.0142856644
 11
2.1404303657
 21
-6.9652492269
  0
LINE
  5
367
100
AcDbEntity
  8
ASSI
100
AcDbLine
 62
7
  6
CONTINUOUS
 10
4.1817926288
 20
-7.5164483425
 11
4.1758732155
 21
-7.5614107505
  0
LINE
  5
368
100
AcDbEntity
  8
RACCORDO
100
AcDbLine
 62
7
  6
CONTINUOUS
 10
4.1817926288
 20
-7.5164483425
 11
4.1758732155
 21
-7.5614107505
  0
LWPOLYLINE
  5
369
100
AcDbEntity
  8
0
100
AcDbPolyline
 62
250
  6
CONTINUOUS
 90
6
 70
0
 10
7.9248296559
 20
15.6297140282
 10
7.9174837158
 20
15.5870786663
 10
7.9113773506
 20
15.5429988946
 10
7.906573435
 20
15.4982115186
 10
7.9031361614
 20
15.4526824431
 10
7.9010013375
 20
15.4064457632
  0
LINE
  5
36A
100
AcDbEntity
  8
ASSI
100
AcDbLine
 62
7
  6
CONTINUOUS
 10
6.5
 20
10.8357143356
 11
6.1200267882
 21
8.6807791677
  0
LINE
  5
36B
100
AcDbEntity
  8
0
100
AcDbLine
 62
7
  6
CONTINUOUS
 10
6.5
 20
10.8357143356
 11
6.1200267882
 21
8.6807791677
  0
LWPOLYLINE
  5
36C
100
AcDbEntity
  8
ASSI
100
AcDbPolyline
 62
7
  6
CONTINUOUS
 90
11
 70
0
 10
10.1630151405
 20
8.0219455916
 10
10.1620078282
 20
8.0203132797
 10
10.1596386153
 20
8.0187080859
 10
10.1559228741
 20
8.0171300102
 10
10.1508876932
 20
8.015571827
 10
10.1445604922
 20
8.014040762
 10
10.1369589215
 20
8.0125584921
 10
10.128100617
 20
8.0111232623
 10
10.118041001
 20
8.0097368277
 10
10.1068674097
 20
8.0084261298
 10
10.1
 20
8.0077328801
  0
LINE
  5
36D
100
AcDbEntity
  8
0
100
AcDbLine
 62
7
  6
CONTINUOUS
 10
-2.1
 20
3.1357143356
 11
2.1
 21
3.1357143356
  0
LINE
  5
36E
100
AcDbEntity
  8
0
100
AcDbLine
 62
7
  6
CONTINUOUS
 10
1.1378180631
 20
3.9857143356
 11
-1.1378180631
 21
3.9857143356
  0
LINE
  5
36F
100
AcDbEntity
  8
0
100
AcDbLine
 62
7
  6
CONTINUOUS
 10
-0.5083064438
 20
4.1323815674
 11
0.5083064438
 21
4.1323815674
  0
LINE
  5
370
100
AcDbEntity
  8
0
100
AcDbLine
 62
7
  6
CONTINUOUS
 10
-0.5083064438
 20
5.3357143356
 11
0.5083064438
 21
5.3357143356
  0
LINE
  5
371
100
AcDbEntity
  8
0
100
AcDbLine
 62
250
  6
CONTINUOUS
 10
-0.3953412642
 20
5.4486795152
 11
0.3953412642
 21
5.4486795152
  0
LINE
  5
372
100
AcDbEntity
  8
0
100
AcDbLine
 62
7
  6
CONTINUOUS
 10
0.5083064438
 20
4.1323815674
 11
0.6381226496
 21
4.0025653617
  0
LINE
  5
373
100
AcDbEntity
  8
0
100
AcDbLine
 62
7
  6
CONTINUOUS
 10
0.5083064438
 20
5.3357143356
 11
0.3953412642
 21
5.4486795152
  0
LINE
  5
374
100
AcDbEntity
  8
0
100
AcDbLine
 62
250
  6
CONTINUOUS
 10
0.6381226496
 20
6.7597182363
 11
0.361639212
 21
7.036201674
  0
LINE
  5
375
100
AcDbEntity
  8
0
100
AcDbLine
 62
7
  6
CONTINUOUS
 10
-1.2
 20
8.6107143356
 11
-1.1621057877
 21
8.5622892525
  0
LINE
  5
376
100
AcDbEntity
  8
0
100
AcDbLine
 62
7
  6
CONTINUOUS
 10
-8.75
 20
25.5857143356
 11
-8.8148883267
 21
25.7155305413
  0
LINE
  5
377
100
AcDbEntity
  8
0
100
AcDbLine
 62
250
  6
CONTINUOUS
 10
7.9
 20
11.3232531558
 11
7.9020792329
 21
11.2298680097
  0
LWPOLYLINE
  5
378
100
AcDbEntity
  8
0
100
AcDbPolyline
 62
250
  6
CONTINUOUS
 90
4
 70
0
 10
7.9000392604
 20
15.3603405697
 10
7.9002975494
 20
15.3144030177
 10
7.9017285852
 20
15.2685969519
 10
7.904059808
 20
15.2236529975
  0
LINE
  5
379
100
AcDbEntity
  8
ASSI
100
AcDbLine
 62
7
  6
CONTINUOUS
 10
6.0
 20
18.0309420464
 11
6.0
 21
8.6404866223
  0
LINE
  5
37A
100
AcDbEntity
  8
0
100
AcDbLine
 62
7
  6
CONTINUOUS
 10
6.0
 20
18.0309420464
 11
6.0
 21
8.6404866223
  0
LINE
  5
37B
100
AcDbEntity
  8
ASSI
100
AcDbLine
 62
7
  6
CONTINUOUS
 10
6.5
 20
15.8357143356
 11
6.5
 21
10.8357143356
  0
LINE
  5
37C
100
AcDbEntity
  8
0
100
AcDbLine
 62
7
  6
CONTINUOUS
 10
6.5
 20
15.8357143356
 11
6.5
 21
10.8357143356
  0
LINE
  5
37D
100
AcDbEntity
  8
0
100
AcDbLine
 62
7
  6
CONTINUOUS
 10
6.6
 20
17.2669866119
 11
6.6
 21
9.4044420592
  0
LINE
  5
37E
100
AcDbEntity
  8
0
100
AcDbLine
 62
7
  6
CONTINUOUS
 10
6.9
 20
7.6471421803
 11
6.9
 21
11.9983628293
  0
LINE
  5
37F
100
AcDbEntity
  8
0
100
AcDbLine
 62
7
  6
CONTINUOUS
 10
6.9
 20
14.6730658418
 11
6.9
 21
19.0242864908
  0
LINE
  5
380
100
AcDbEntity
  8
0
100
AcDbLine
 62
250
  6
CONTINUOUS
 10
7.3
 20
7.0595354844
 11
7.3
 21
7.6890471037
  0
LINE
  5
381
100
AcDbEntity
  8
0
100
AcDbLine
 62
250
  6
CONTINUOUS
 10
7.3
 20
18.9823815674
 11
7.3
 21
19.6118931867
  0
LINE
  5
382
100
AcDbEntity
  8
0
100
AcDbLine
 62
7
  6
CONTINUOUS
 10
7.8
 20
7.9255608882
 11
7.8
 21
8.0589263115
  0
LINE
  5
383
100
AcDbEntity
  8
0
100
AcDbLine
 62
7
  6
CONTINUOUS
 10
7.8
 20
8.1893518759
 11
7.8
 21
11.9983628293
  0
LINE
  5
384
100
AcDbEntity
  8
0
100
AcDbLine
 62
7
  6
CONTINUOUS
 10
7.8
 20
14.6730658418
 11
7.8
 21
18.4820767953
  0
LINE
  5
385
100
AcDbEntity
  8
0
100
AcDbLine
 62
7
  6
CONTINUOUS
 10
7.8
 20
18.678038955
 11
7.8
 21
18.7458677829
  0
LINE
  5
386
100
AcDbEntity
  8
0
100
AcDbLine
 62
250
  6
CONTINUOUS
 10
7.9
 20
11.3232531558
 11
7.9
 21
11.8995736739
  0
LINE
  5
387
100
AcDbEntity
  8
0
100
AcDbLine
 62
7
  6
CONTINUOUS
 10
8.1
 20
15.3484133564
 11
8.1
 21
13.8692089556
  0
LINE
  5
388
100
AcDbEntity
  8
0
100
AcDbLine
 62
7
  6
CONTINUOUS
 10
8.1
 20
11.3226869345
 11
8.1
 21
12.8029833348
  0
LWPOLYLINE
  5
389
100
AcDbEntity
  8
0
100
AcDbPolyline
 62
250
  6
CONTINUOUS
 90
19
 70
0
 10
8.1
 20
15.3481778423
 10
8.1003103198
 20
15.3901645538
 10
8.101254959
 20
15.4313379995
 10
8.1028530161
 20
15.4716840496
 10
8.1051309821
 20
15.5113773241
 10
8.1080988471
 20
15.5502074232
 10
8.1117260575
 20
15.5875833402
 10
8.115991919
 20
15.6233632046
 10
8.120889183
 20
15.6576542073
 10
8.1263736692
 20
15.6902446502
 10
8.132402105
 20
15.7210246202
 10
8.1389602635
 20
15.7500755767
 10
8.1460413197
 20
15.7774743756
 10
8.1535699922
 20
15.8031041596
 10
8.1615627739
 20
15.8270556467
 10
8.1701841882
 20
15.8496999171
 10
8.179500042
 20
15.8711314131
 10
8.1894426451
 20
15.8911861052
 10
8.2
 20
15.9098283728
  0
LWPOLYLINE
  5
38A
100
AcDbEntity
  8
0
100
AcDbPolyline
 62
7
  6
CONTINUOUS
 90
10
 70
0
 10
8.1
 20
12.8026214651
 10
8.1022136037
 20
12.9176327627
 10
8.1038737912
 20
13.0350086454
 10
8.1049805626
 20
13.1542155456
 10
8.1055338973
 20
13.2749824593
 10
8.1055338159
 20
13.3964606253
 10
8.1049803793
 20
13.5172260355
 10
8.103873608
 20
13.6364299711
 10
8.1022134816
 20
13.7538015103
 10
8.1
 20
13.868807206
  0
LINE
  5
38B
100
AcDbEntity
  8
0
100
AcDbLine
 62
250
  6
CONTINUOUS
 10
7.9010013375
 20
15.4064457632
 11
7.9000392604
 21
15.3603405697
  0
LWPOLYLINE
  5
38C
100
AcDbEntity
  8
0
100
AcDbPolyline
 62
7
  6
CONTINUOUS
 90
10
 70
0
 10
7.8
 20
7.9255608882
 10
7.7906356912
 20
7.821942824
 10
7.7684878596
 20
7.7200286489
 10
7.733556505
 20
7.6198183629
 10
7.6841940126
 20
7.5211194783
 10
7.6220479972
 20
7.4241244827
 10
7.5520613038
 20
7.3294108393
 10
7.4758815473
 20
7.2371710356
 10
7.3918611127
 20
7.147212584
 10
7.3
 20
7.0595354844
  0
LINE
  5
38D
100
AcDbEntity
  8
0
100
AcDbLine
 62
7
  6
CONTINUOUS
 10
8.8233112727
 20
31.7796740144
 11
8.8041107013
 21
31.5857143356
  0
LINE
  5
38E
100
AcDbEntity
  8
DRAFT
100
AcDbLine
 62
7
  6
CONTINUOUS
 10
9.75
 20
31.7796740144
 11
9.7307994286
 21
31.5857143356
  0
LINE
  5
38F
100
AcDbEntity
  8
ASSI
100
AcDbLine
 62
250
  6
CONTINUOUS
 10
9.9130532167
 20
7.3882441728
 11
9.6766887273
 21
6.8813588895
  0
LINE
  5
390
100
AcDbEntity
  8
RACCORDO
100
AcDbLine
 62
250
  6
CONTINUOUS
 10
9.9130532167
 20
7.3882441728
 11
9.6766887273
 21
6.8813588895
  0
LINE
  5
391
100
AcDbEntity
  8
ASSI
100
AcDbLine
 62
250
  6
CONTINUOUS
 10
10.1630151405
 20
7.3328289484
 11
9.9021436407
 21
6.7733882118
  0
LINE
  5
392
100
AcDbEntity
  8
RACCORDO
100
AcDbLine
 62
250
  6
CONTINUOUS
 10
10.1630151405
 20
7.3328289484
 11
9.9021436407
 21
6.7733882118
  0
LINE
  5
393
100
AcDbEntity
  8
ASSI
100
AcDbLine
 62
7
  6
CONTINUOUS
 10
10.259966909
 20
7.3113352588
 11
9.9506158332
 21
6.6479297357
  0
LINE
  5
394
100
AcDbEntity
  8
DRAFT
100
AcDbLine
 62
7
  6
CONTINUOUS
 10
10.259966909
 20
7.3113352588
 11
9.9506158332
 21
6.6479297357
  0
LINE
  5
395
100
AcDbEntity
  8
0
100
AcDbLine
 62
7
  6
CONTINUOUS
 10
2.75
 20
-5.8265042099
 11
2.6889072728
 21
-5.8875969371
  0
LINE
  5
396
100
AcDbEntity
  8
0
100
AcDbLine
 62
7
  6
CONTINUOUS
 10
2.6889072728
 20
-6.8142856644
 11
2.75
 21
-6.7531929372
  0
LWPOLYLINE
  5
397
100
AcDbEntity
  8
0
100
AcDbPolyline
 62
250
  6
CONTINUOUS
 90
10
 70
0
 10
7.3
 20
7.559230898
 10
7.3868240709
 20
7.5668223909
 10
7.4710100412
 20
7.5893662077
 10
7.5499999629
 20
7.6261773678
 10
7.6213937664
 20
7.6761373844
 10
7.683022187
 20
7.7377282499
 10
7.7330126765
 20
7.8090785608
 10
7.7698462966
 20
7.8880203766
 10
7.7924038724
 20
7.9721550905
 10
7.8
 20
8.0589263115
  0
LWPOLYLINE
  5
398
100
AcDbEntity
  8
0
100
AcDbPolyline
 62
250
  6
CONTINUOUS
 90
22
 70
0
 10
1.4376353112
 20
7.0595354844
 10
1.4152561524
 20
7.0586189519
 10
1.3933821701
 20
7.0561981213
 10
1.3720133642
 20
7.0522729927
 10
1.3511231831
 20
7.0468253955
 10
1.3307381785
 20
7.0398735003
 10
1.3109380052
 20
7.031471819
 10
1.2916218163
 20
7.0215709154
 10
1.2728904587
 20
7.0102202256
 10
1.2551261278
 20
6.9976225706
 10
1.2383724167
 20
6.9837604809
 10
1.2225857324
 20
6.9686514258
 10
1.2080174911
 20
6.952550634
 10
1.1947258602
 20
6.9355699146
 10
1.1826526724
 20
6.9175974585
 10
1.171874841
 20
6.8985530661
 10
1.1622974894
 20
6.878480279
 10
1.1540154943
 20
6.8573355558
 10
1.1473903997
 20
6.8349080723
 10
1.1425427203
 20
6.8111275539
 10
1.1393519414
 20
6.7860642752
 10
1.1378180631
 20
6.7597182363
  0
LWPOLYLINE
  5
399
100
AcDbEntity
  8
0
100
AcDbPolyline
 62
250
  6
CONTINUOUS
 90
22
 70
0
 10
1.4376353112
 20
7.559230898
 10
1.3784785484
 20
7.5569954075
 10
1.3200859607
 20
7.5504563692
 10
1.2627617547
 20
7.539745961
 10
1.2070068019
 20
7.5250809511
 10
1.152865347
 20
7.5065968545
 10
1.0999758163
 20
7.4841944666
 10
1.0483619557
 20
7.4577948336
 10
0.9986038475
 20
7.427602053
 10
0.951188661
 20
7.3938852888
 10
0.9064154441
 20
7.3568719901
 10
0.864460239
 20
7.3167235541
 10
0.8255697597
 20
7.2736893278
 10
0.7901461979
 20
7.2282933114
 10
0.758114086
 20
7.1805243461
 10
0.7291531728
 20
7.1297320027
 10
0.703637395
 20
7.0761720025
 10
0.6818485121
 20
7.0199666657
 10
0.6637818655
 20
6.9600914641
 10
0.649980208
 20
6.8963308473
 10
0.6412174496
 20
6.8294053076
 10
0.6381226496
 20
6.7597182363
  0
LINE
  5
39A
100
AcDbEntity
  8
0
100
AcDbLine
 62
250
  6
CONTINUOUS
 10
-0.361639212
 20
6.4480703422
 11
0.361639212
 21
6.4480703422
  0
LINE
  5
39B
100
AcDbEntity
  8
0
100
AcDbLine
 62
250
  6
CONTINUOUS
 10
0.6381226496
 20
6.7597182363
 11
1.1378180631
 21
6.7597182363
  0
LINE
  5
39C
100
AcDbEntity
  8
0
100
AcDbLine
 62
250
  6
CONTINUOUS
 10
-0.6381226496
 20
6.7597182363
 11
-1.1378180631
 21
6.7597182363
  0
LINE
  5
39D
100
AcDbEntity
  8
0
100
AcDbLine
 62
250
  6
CONTINUOUS
 10
7.3
 20
7.0595354844
 11
1.4376353112
 21
7.0595354844
  0
LINE
  5
39E
100
AcDbEntity
  8
0
100
AcDbLine
 62
250
  6
CONTINUOUS
 10
-1.4376353112
 20
7.0595354844
 11
-7.3
 21
7.0595354844
  0
LINE
  5
39F
100
AcDbEntity
  8
0
100
AcDbLine
 62
250
  6
CONTINUOUS
 10
7.3
 20
7.559230898
 11
1.4376353112
 21
7.559230898
  0
LINE
  5
3A0
100
AcDbEntity
  8
0
100
AcDbLine
 62
250
  6
CONTINUOUS
 10
-1.4376353112
 20
7.559230898
 11
-7.3
 21
7.559230898
  0
LINE
  5
3A1
100
AcDbEntity
  8
0
100
AcDbLine
 62
7
  6
CONTINUOUS
 10
-6.9
 20
7.6471421803
 11
-2.5
 21
7.6471421803
  0
LINE
  5
3A2
100
AcDbEntity
  8
0
100
AcDbLine
 62
7
  6
CONTINUOUS
 10
2.5
 20
7.6471421803
 11
6.9
 21
7.6471421803
  0
LINE
  5
3A3
100
AcDbEntity
  8
0
100
AcDbLine
 62
7
  6
CONTINUOUS
 10
-7.3
 20
7.6890471037
 11
-6.9
 21
7.6890471037
  0
LINE
  5
3A4
100
AcDbEntity
  8
0
100
AcDbLine
 62
7
  6
CONTINUOUS
 10
6.9
 20
7.6890471037
 11
7.3
 21
7.6890471037
  0
LINE
  5
3A5
100
AcDbEntity
  8
0
100
AcDbLine
 62
7
  6
CONTINUOUS
 10
-2.4057426494
 20
7.8357143356
 11
-1.1611518736
 21
7.8357143356
  0
LINE
  5
3A6
100
AcDbEntity
  8
0
100
AcDbLine
 62
7
  6
CONTINUOUS
 10
1.1611518736
 20
7.8357143356
 11
2.4057426494
 21
7.8357143356
  0
LINE
  5
3A7
100
AcDbEntity
  8
0
100
AcDbLine
 62
7
  6
CONTINUOUS
 10
2.4057426494
 20
8.2107143356
 11
0.7483314774
 21
8.2107143356
  0
LINE
  5
3A8
100
AcDbEntity
  8
0
100
AcDbLine
 62
7
  6
CONTINUOUS
 10
-0.7483314774
 20
8.2107143356
 11
-2.4057426494
 21
8.2107143356
  0
LWPOLYLINE
  5
3A9
100
AcDbEntity
  8
0
100
AcDbPolyline
 62
250
  6
CONTINUOUS
 90
10
 70
0
 10
-7.3
 20
7.559230898
 10
-7.3868240709
 20
7.5668223909
 10
-7.4710100411
 20
7.5893662076
 10
-7.5499999628
 20
7.6261773677
 10
-7.6213937663
 20
7.6761373843
 10
-7.6830221869
 20
7.7377282498
 10
-7.7330126765
 20
7.8090785607
 10
-7.7698462966
 20
7.8880203765
 10
-7.7924038724
 20
7.9721550904
 10
-7.8
 20
8.0589263114
  0
LINE
  5
3AA
100
AcDbEntity
  8
0
100
AcDbLine
 62
7
  6
CONTINUOUS
 10
-2.5
 20
8.588722986
 11
-2.4118794124
 21
8.5622892525
  0
LINE
  5
3AB
100
AcDbEntity
  8
0
100
AcDbLine
 62
250
  6
CONTINUOUS
 10
1.4376353112
 20
7.559230898
 11
1.1611518736
 21
7.8357143356
  0
LINE
  5
3AC
100
AcDbEntity
  8
0
100
AcDbLine
 62
7
  6
CONTINUOUS
 10
2.5
 20
7.6471421803
 11
2.4057426494
 21
7.8357143356
  0
LINE
  5
3AD
100
AcDbEntity
  8
0
100
AcDbLine
 62
7
  6
CONTINUOUS
 10
-2.5
 20
19.0242864908
 11
-2.4057426494
 21
18.8357143356
  0
LINE
  5
3AE
100
AcDbEntity
  8
0
100
AcDbLine
 62
7
  6
CONTINUOUS
 10
3.0157831028
 20
32.5590256083
 11
3.0254347149
 21
32.4857143356
  0
LINE
  5
3AF
100
AcDbEntity
  8
0
100
AcDbLine
 62
7
  6
CONTINUOUS
 10
8.8233112727
 20
-5.1082453432
 11
8.8041107013
 21
-4.9142856644
  0
LINE
  5
3B0
100
AcDbEntity
  8
DRAFT
100
AcDbLine
 62
7
  6
CONTINUOUS
 10
9.75
 20
-5.1082453432
 11
9.7307994286
 21
-4.9142856644
  0
LWPOLYLINE
  5
3B1
100
AcDbEntity
  8
0
100
AcDbPolyline
 62
250
  6
CONTINUOUS
 90
8
 70
0
 10
7.9073003943
 20
15.1796883876
 10
7.9114411676
 20
15.1365858889
 10
7.9161820383
 20
15.0947244268
 10
7.9214934574
 20
15.054245027
 10
7.9274049739
 20
15.0150066636
 10
7.9337051463
 20
14.9769651843
 10
7.9403597966
 20
14.9401765185
 10
7.9474031027
 20
14.9045847366
  0
LINE
  5
3B2
100
AcDbEntity
  8
0
100
AcDbLine
 62
250
  6
CONTINUOUS
 10
7.9020792329
 20
11.2298680097
 11
7.9095590204
 21
11.1403208288
  0
LINE
  5
3B3
100
AcDbEntity
  8
0
100
AcDbLine
 62
250
  6
CONTINUOUS
 10
7.904059808
 20
15.2236529975
 11
7.9073003943
 21
15.1796883876
  0
LWPOLYLINE
  5
3B4
100
AcDbEntity
  8
0
100
AcDbPolyline
 62
250
  6
CONTINUOUS
 90
3
 70
0
 10
9.8
 20
15.3481755153
 10
9.7979203227
 20
15.4415635802
 10
9.7904405889
 20
15.5311116169
  0
LINE
  5
3B5
100
AcDbEntity
  8
ASSI
100
AcDbLine
 62
250
  6
CONTINUOUS
 10
10.154287608
 20
10.8575865015
 11
10.1630151405
 21
8.0219455916
  0
LINE
  5
3B6
100
AcDbEntity
  8
0
100
AcDbLine
 62
250
  6
CONTINUOUS
 10
8.3
 20
10.5698509984
 11
8.3
 21
16.1015776728
  0
LINE
  5
3B7
100
AcDbEntity
  8
0
100
AcDbLine
 62
7
  6
CONTINUOUS
 10
8.75
 20
-6.1642856644
 11
8.75
 21
1.0857143356
  0
LINE
  5
3B8
100
AcDbEntity
  8
0
100
AcDbLine
 62
7
  6
CONTINUOUS
 10
8.75
 20
25.5857143356
 11
8.75
 21
32.8357143356
  0
LINE
  5
3B9
100
AcDbEntity
  8
0
100
AcDbLine
 62
7
  6
CONTINUOUS
 10
8.7622185454
 20
-7.1031929372
 11
8.7622185454
 21
-6.1765042099
  0
LINE
  5
3BA
100
AcDbEntity
  8
0
100
AcDbLine
 62
7
  6
CONTINUOUS
 10
8.8041107013
 20
-4.9142856644
 11
8.8041107013
 21
-2.4142856644
  0
LINE
  5
3BB
100
AcDbEntity
  8
0
100
AcDbLine
 62
7
  6
CONTINUOUS
 10
8.8041107013
 20
29.0857143356
 11
8.8041107013
 21
31.5857143356
  0
LINE
  5
3BC
100
AcDbEntity
  8
0
100
AcDbLine
 62
7
  6
CONTINUOUS
 10
8.8233112727
 20
-5.1082453432
 11
8.8233112727
 21
-7.1642856644
  0
LINE
  5
3BD
100
AcDbEntity
  8
0
100
AcDbLine
 62
7
  6
CONTINUOUS
 10
8.8233112727
 20
-2.2203259856
 11
8.8233112727
 21
0.4562027163
  0
LINE
  5
3BE
100
AcDbEntity
  8
0
100
AcDbLine
 62
7
  6
CONTINUOUS
 10
8.8233112727
 20
26.2152259548
 11
8.8233112727
 21
28.8917546568
  0
LINE
  5
3BF
100
AcDbEntity
  8
0
100
AcDbLine
 62
7
  6
CONTINUOUS
 10
8.8233112727
 20
31.7796740144
 11
8.8233112727
 21
32.9090256083
  0
LINE
  5
3C0
100
AcDbEntity
  8
ASSI
100
AcDbLine
 62
7
  6
CONTINUOUS
 10
9.35
 20
-2.6642856644
 11
9.35
 21
-4.6642856644
  0
LINE
  5
3C1
100
AcDbEntity
  8
0
100
AcDbLine
 62
7
  6
CONTINUOUS
 10
9.35
 20
-2.6642856644
 11
9.35
 21
-4.6642856644
  0
LINE
  5
3C2
100
AcDbEntity
  8
ASSI
100
AcDbLine
 62
7
  6
CONTINUOUS
 10
9.35
 20
29.3357143356
 11
9.35
 21
31.3357143356
  0
LINE
  5
3C3
100
AcDbEntity
  8
0
100
AcDbLine
 62
7
  6
CONTINUOUS
 10
9.35
 20
29.3357143356
 11
9.35
 21
31.3357143356
  0
LINE
  5
3C4
100
AcDbEntity
  8
0
100
AcDbLine
 62
250
  6
CONTINUOUS
 10
9.4
 20
10.5698509984
 11
9.4
 21
16.1015776728
  0
LINE
  5
3C5
100
AcDbEntity
  8
0
100
AcDbLine
 62
7
  6
CONTINUOUS
 10
9.6
 20
15.3465258747
 11
9.6
 21
11.3232910191
  0
LINE
  5
3C6
100
AcDbEntity
  8
ASSI
100
AcDbLine
 62
250
  6
CONTINUOUS
 10
9.6021741012
 20
-7.2664578618
 11
9.6021741012
 21
-7.5164483425
  0
LINE
  5
3C7
100
AcDbEntity
  8
RACCORDO
100
AcDbLine
 62
250
  6
CONTINUOUS
 10
9.6021741012
 20
-7.2664578618
 11
9.6021741012
 21
-7.5164483425
  0
LINE
  5
3C8
100
AcDbEntity
  8
ASSI
100
AcDbLine
 62
250
  6
CONTINUOUS
 10
9.6021741012
 20
33.9378865329
 11
9.6021741012
 21
34.1878770137
  0
LINE
  5
3C9
100
AcDbEntity
  8
RACCORDO
100
AcDbLine
 62
250
  6
CONTINUOUS
 10
9.6021741012
 20
33.9378865329
 11
9.6021741012
 21
34.1878770137
  0
LINE
  5
3CA
100
AcDbEntity
  8
ASSI
100
AcDbLine
 62
250
  6
CONTINUOUS
 10
9.6521721974
 20
33.8878884368
 11
9.6521721974
 21
33.4156920466
  0
LINE
  5
3CB
100
AcDbEntity
  8
RACCORDO
100
AcDbLine
 62
250
  6
CONTINUOUS
 10
9.6521721974
 20
33.8878884368
 11
9.6521721974
 21
33.4156920466
  0
LINE
  5
3CC
100
AcDbEntity
  8
ASSI
100
AcDbLine
 62
250
  6
CONTINUOUS
 10
9.6521721974
 20
-6.7442632559
 11
9.6521721974
 21
-7.2164597656
  0
LINE
  5
3CD
100
AcDbEntity
  8
RACCORDO
100
AcDbLine
 62
250
  6
CONTINUOUS
 10
9.6521721974
 20
-6.7442632559
 11
9.6521721974
 21
-7.2164597656
  0
LINE
  5
3CE
100
AcDbEntity
  8
0
100
AcDbLine
 62
7
  6
CONTINUOUS
 10
9.6766887273
 20
25.5857143356
 11
9.6766887273
 21
19.3298012863
  0
LINE
  5
3CF
100
AcDbEntity
  8
0
100
AcDbLine
 62
7
  6
CONTINUOUS
 10
9.6766887273
 20
7.3416273848
 11
9.6766887273
 21
1.0857143356
  0
LINE
  5
3D0
100
AcDbEntity
  8
DRAFT
100
AcDbLine
 62
7
  6
CONTINUOUS
 10
9.7307994286
 20
-4.9142856644
 11
9.7307994286
 21
-4.6642856644
  0
LINE
  5
3D1
100
AcDbEntity
  8
DRAFT
100
AcDbLine
 62
7
  6
CONTINUOUS
 10
9.7307994286
 20
-2.6642856644
 11
9.7307994286
 21
-2.4142856644
  0
LINE
  5
3D2
100
AcDbEntity
  8
DRAFT
100
AcDbLine
 62
7
  6
CONTINUOUS
 10
9.7307994286
 20
29.0857143356
 11
9.7307994286
 21
29.3357143356
  0
LINE
  5
3D3
100
AcDbEntity
  8
DRAFT
100
AcDbLine
 62
7
  6
CONTINUOUS
 10
9.7307994286
 20
31.3357143356
 11
9.7307994286
 21
31.5857143356
  0
LINE
  5
3D4
100
AcDbEntity
  8
RACCORDO
100
AcDbLine
 62
7
  6
CONTINUOUS
 10
9.75
 20
-6.3644075083
 11
9.75
 21
-5.1082453432
  0
LINE
  5
3D5
100
AcDbEntity
  8
DRAFT
100
AcDbLine
 62
7
  6
CONTINUOUS
 10
9.75
 20
-2.2203259856
 11
9.75
 21
-0.5972983663
  0
LINE
  5
3D6
100
AcDbEntity
  8
0
100
AcDbLine
 62
7
  6
CONTINUOUS
 10
9.75
 20
0.2687270375
 11
9.75
 21
0.4562027163
  0
LINE
  5
3D7
100
AcDbEntity
  8
0
100
AcDbLine
 62
7
  6
CONTINUOUS
 10
9.75
 20
26.2152259548
 11
9.75
 21
26.4027016337
  0
LINE
  5
3D8
100
AcDbEntity
  8
DRAFT
100
AcDbLine
 62
7
  6
CONTINUOUS
 10
9.75
 20
27.2687270375
 11
9.75
 21
28.8917546568
  0
LINE
  5
3D9
100
AcDbEntity
  8
RACCORDO
100
AcDbLine
 62
7
  6
CONTINUOUS
 10
9.75
 20
31.7796740144
 11
9.75
 21
33.0358361794
  0
LINE
  5
3DA
100
AcDbEntity
  8
0
100
AcDbLine
 62
250
  6
CONTINUOUS
 10
9.8
 20
15.3481755153
 11
9.8
 21
11.3232531558
  0
LINE
  5
3DB
100
AcDbEntity
  8
ASSI
100
AcDbLine
 62
7
  6
CONTINUOUS
 10
9.9021626781
 20
33.8878884368
 11
9.9021626781
 21
31.3357143356
  0
LINE
  5
3DC
100
AcDbEntity
  8
RACCORDO
100
AcDbLine
 62
7
  6
CONTINUOUS
 10
9.9021626781
 20
33.8878884368
 11
9.9021626781
 21
31.3357143356
  0
LINE
  5
3DD
100
AcDbEntity
  8
ASSI
100
AcDbLine
 62
7
  6
CONTINUOUS
 10
9.9021626781
 20
29.3357143356
 11
9.9021626781
 21
27.1296031163
  0
LINE
  5
3DE
100
AcDbEntity
  8
RACCORDO
100
AcDbLine
 62
7
  6
CONTINUOUS
 10
9.9021626781
 20
29.3357143356
 11
9.9021626781
 21
27.1296031163
  0
LINE
  5
3DF
100
AcDbEntity
  8
ASSI
100
AcDbLine
 62
7
  6
CONTINUOUS
 10
9.9021626781
 20
26.5418255548
 11
9.9021626781
 21
19.8980897329
  0
LINE
  5
3E0
100
AcDbEntity
  8
RACCORDO
100
AcDbLine
 62
7
  6
CONTINUOUS
 10
9.9021626781
 20
26.5418255548
 11
9.9021626781
 21
19.8980897329
  0
LINE
  5
3E1
100
AcDbEntity
  8
ASSI
100
AcDbLine
 62
7
  6
CONTINUOUS
 10
9.9021626781
 20
6.7733389382
 11
9.9021626781
 21
0.1296031163
  0
LINE
  5
3E2
100
AcDbEntity
  8
RACCORDO
100
AcDbLine
 62
7
  6
CONTINUOUS
 10
9.9021626781
 20
6.7733389382
 11
9.9021626781
 21
0.1296031163
  0
LINE
  5
3E3
100
AcDbEntity
  8
ASSI
100
AcDbLine
 62
7
  6
CONTINUOUS
 10
9.9021626781
 20
-0.4581744452
 11
9.9021626781
 21
-2.6642856644
  0
LINE
  5
3E4
100
AcDbEntity
  8
RACCORDO
100
AcDbLine
 62
7
  6
CONTINUOUS
 10
9.9021626781
 20
-0.4581744452
 11
9.9021626781
 21
-2.6642856644
  0
LINE
  5
3E5
100
AcDbEntity
  8
ASSI
100
AcDbLine
 62
7
  6
CONTINUOUS
 10
9.9021626781
 20
-4.6642856644
 11
9.9021626781
 21
-7.2164535357
  0
LINE
  5
3E6
100
AcDbEntity
  8
RACCORDO
100
AcDbLine
 62
7
  6
CONTINUOUS
 10
9.9021626781
 20
-4.6642856644
 11
9.9021626781
 21
-7.2164535357
  0
LINE
  5
3E7
100
AcDbEntity
  8
ASSI
100
AcDbLine
 62
250
  6
CONTINUOUS
 10
9.9130532167
 20
19.2831844984
 11
9.9130532167
 21
19.2234098665
  0
LINE
  5
3E8
100
AcDbEntity
  8
RACCORDO
100
AcDbLine
 62
250
  6
CONTINUOUS
 10
9.9130532167
 20
19.2831844984
 11
9.9130532167
 21
19.2234098665
  0
LINE
  5
3E9
100
AcDbEntity
  8
ASSI
100
AcDbLine
 62
250
  6
CONTINUOUS
 10
9.9130532167
 20
7.4480188078
 11
9.9130532167
 21
7.3882441728
  0
LINE
  5
3EA
100
AcDbEntity
  8
RACCORDO
100
AcDbLine
 62
250
  6
CONTINUOUS
 10
9.9130532167
 20
7.4480188078
 11
9.9130532167
 21
7.3882441728
  0
LINE
  5
3EB
100
AcDbEntity
  8
0
100
AcDbLine
 62
7
  6
CONTINUOUS
 10
9.9506158332
 20
-2.6642856644
 11
9.9506158332
 21
-4.6642856644
  0
LINE
  5
3EC
100
AcDbEntity
  8
RACCORDO
100
AcDbLine
 62
7
  6
CONTINUOUS
 10
9.9506158332
 20
-7.2649129207
 11
9.9506158332
 21
-4.6642856644
  0
LINE
  5
3ED
100
AcDbEntity
  8
ASSI
100
AcDbLine
 62
7
  6
CONTINUOUS
 10
9.9506158332
 20
-7.2649129207
 11
9.9506158332
 21
6.6479297357
  0
LINE
  5
3EE
100
AcDbEntity
  8
DRAFT
100
AcDbLine
 62
7
  6
CONTINUOUS
 10
9.9506158332
 20
-2.6642856644
 11
9.9506158332
 21
6.6479297357
  0
LINE
  5
3EF
100
AcDbEntity
  8
DRAFT
100
AcDbLine
 62
7
  6
CONTINUOUS
 10
9.9506158332
 20
20.0234989354
 11
9.9506158332
 21
29.3357143356
  0
LINE
  5
3F0
100
AcDbEntity
  8
0
100
AcDbLine
 62
7
  6
CONTINUOUS
 10
9.9506158332
 20
29.3357143356
 11
9.9506158332
 21
31.3357143356
  0
LINE
  5
3F1
100
AcDbEntity
  8
ASSI
100
AcDbLine
 62
7
  6
CONTINUOUS
 10
9.9506158332
 20
20.0234989354
 11
9.9506158332
 21
33.9363415918
  0
LINE
  5
3F2
100
AcDbEntity
  8
RACCORDO
100
AcDbLine
 62
7
  6
CONTINUOUS
 10
9.9506158332
 20
31.3357143356
 11
9.9506158332
 21
33.9363415918
  0
LINE
  5
3F3
100
AcDbEntity
  8
0
100
AcDbLine
 62
7
  6
CONTINUOUS
 10
10.1
 20
7.8356952971
 11
10.1
 21
18.835733374
  0
LINE
  5
3F4
100
AcDbEntity
  8
ASSI
100
AcDbLine
 62
250
  6
CONTINUOUS
 10
10.154287608
 20
15.8138421697
 11
10.154287608
 21
10.8575865015
  0
LINE
  5
3F5
100
AcDbEntity
  8
RACCORDO
100
AcDbLine
 62
250
  6
CONTINUOUS
 10
10.154287608
 20
15.8138421697
 11
10.154287608
 21
11.2357143356
  0
LINE
  5
3F6
100
AcDbEntity
  8
RACCORDO
100
AcDbLine
 62
250
  6
CONTINUOUS
 10
10.154287608
 20
11.2357143356
 11
10.1630151405
 21
8.0219455916
  0
LINE
  5
3F7
100
AcDbEntity
  8
ASSI
100
AcDbLine
 62
250
  6
CONTINUOUS
 10
10.1630151405
 20
19.3385997228
 11
10.1630151405
 21
18.6494830795
  0
LINE
  5
3F8
100
AcDbEntity
  8
RACCORDO
100
AcDbLine
 62
250
  6
CONTINUOUS
 10
10.1630151405
 20
19.3385997228
 11
10.1630151405
 21
18.6494830795
  0
LINE
  5
3F9
100
AcDbEntity
  8
ASSI
100
AcDbLine
 62
250
  6
CONTINUOUS
 10
10.1630151405
 20
8.0219455916
 11
10.1630151405
 21
7.3328289484
  0
LINE
  5
3FA
100
AcDbEntity
  8
RACCORDO
100
AcDbLine
 62
250
  6
CONTINUOUS
 10
10.1630151405
 20
8.0219455916
 11
10.1630151405
 21
7.3328289484
  0
LINE
  5
3FB
100
AcDbEntity
  8
ASSI
100
AcDbLine
 62
7
  6
CONTINUOUS
 10
10.259966909
 20
19.3600934124
 11
10.259966909
 21
7.3113352588
  0
LINE
  5
3FC
100
AcDbEntity
  8
DRAFT
100
AcDbLine
 62
7
  6
CONTINUOUS
 10
10.259966909
 20
19.3600934124
 11
10.259966909
 21
7.3113352588
  0
LINE
  5
3FD
100
AcDbEntity
  8
ASSI
100
AcDbLine
 62
250
  6
CONTINUOUS
 10
10.1630151405
 20
18.6494830795
 11
10.154287608
 21
15.8138421697
  0
LINE
  5
3FE
100
AcDbEntity
  8
RACCORDO
100
AcDbLine
 62
250
  6
CONTINUOUS
 10
10.1630151405
 20
18.6494830795
 11
10.154287608
 21
15.8138421697
  0
LWPOLYLINE
  5
3FF
100
AcDbEntity
  8
0
100
AcDbPolyline
 62
250
  6
CONTINUOUS
 90
31
 70
0
 10
9.6
 20
11.3232531558
 10
9.5997734971
 20
11.2872940724
 10
9.5990757724
 20
11.2515989883
 10
9.5978800034
 20
11.2161770689
 10
9.5961498245
 20
11.18080442
 10
9.5938653991
 20
11.1457303958
 10
9.5910505243
 20
11.1116734794
 10
9.5877064869
 20
11.0787099828
 10
9.583837657
 20
11.0467895664
 10
9.5795232803
 20
11.0164329348
 10
9.5748280561
 20
10.987883249
 10
9.569753594
 20
10.960909937
 10
9.5643029934
 20
10.9353187772
 10
9.5585030218
 20
10.911109716
 10
9.5523753039
 20
10.8882955827
 10
9.5459025927
 20
10.866705769
 10
9.5390864063
 20
10.8462904101
 10
9.5319601281
 20
10.8271158407
 10
9.5245490614
 20
10.8091878896
 10
9.5169235491
 20
10.7925892597
 10
9.5090574462
 20
10.7772462956
 10
9.5008182106
 20
10.7629407544
 10
9.4922604166
 20
10.7496477787
 10
9.4833504822
 20
10.7374243191
 10
9.4737906914
 20
10.7262122458
 10
9.4635587853
 20
10.7158818028
 10
9.4526764284
 20
10.7066597324
 10
9.4408868373
 20
10.6990773623
 10
9.4281111058
 20
10.693381655
 10
9.4144661446
 20
10.6895066164
 10
9.4
 20
10.6875473106
  0
LWPOLYLINE
  5
400
100
AcDbEntity
  8
RACCORDO
100
AcDbPolyline
 62
250
  6
CONTINUOUS
 90
22
 70
0
 10
9.6521721974
 20
-7.2164597656
 10
9.6521264804
 20
-7.2191708562
 10
9.6518928606
 20
-7.2219516726
 10
9.6514713379
 20
-7.2248022148
 10
9.6508785713
 20
-7.2277361593
 10
9.6500979018
 20
-7.2307398295
 10
9.6490793531
 20
-7.2337721965
 10
9.6478218045
 20
-7.2368417524
 10
9.6463263767
 20
-7.239940005
 10
9.6445464543
 20
-7.243000449
 10
9.6424707273
 20
-7.2460370975
 10
9.6401105058
 20
-7.2490359373
 10
9.6374531048
 20
-7.2518884237
 10
9.6344797429
 20
-7.2545992121
 10
9.6312092014
 20
-7.2571636469
 10
9.6276851394
 20
-7.2594592174
 10
9.6238898894
 20
-7.2614778126
 10
9.6198411189
 20
-7.2632275435
 10
9.6156354887
 20
-7.2646102317
 10
9.6113052191
 20
-7.2655931511
 10
9.60681809
 20
-7.2662090278
 10
9.6021741012
 20
-7.2664578618
  0
LWPOLYLINE
  5
401
100
AcDbEntity
  8
RACCORDO
100
AcDbPolyline
 62
250
  6
CONTINUOUS
 90
22
 70
0
 10
9.9021626785
 20
-7.2164535361
 10
9.9017268142
 20
-7.2326062769
 10
9.9003562323
 20
-7.2493129793
 10
9.8979543515
 20
-7.2665131107
 10
9.8944301741
 20
-7.2841138111
 10
9.8896877665
 20
-7.3020517284
 10
9.8836150407
 20
-7.3202890856
 10
9.8761155196
 20
-7.3387099698
 10
9.8670992444
 20
-7.3571837017
 10
9.8564510183
 20
-7.3756182492
 10
9.8440642357
 20
-7.3938774706
 10
9.8298926727
 20
-7.4117337967
 10
9.8139333094
 20
-7.4289348677
 10
9.7961447437
 20
-7.4452895977
 10
9.7765543034
 20
-7.4605488195
 10
9.7553326081
 20
-7.4743953384
 10
9.732553076
 20
-7.4866266117
 10
9.7083302113
 20
-7.4970312182
 10
9.6829784478
 20
-7.5053557709
 10
9.656732998
 20
-7.5114419034
 10
9.6297278457
 20
-7.5151785331
 10
9.6021741012
 20
-7.5164483425
  0
LWPOLYLINE
  5
402
100
AcDbEntity
  8
ASSI
100
AcDbPolyline
 62
250
  6
CONTINUOUS
 90
22
 70
0
 10
9.9021626785
 20
-7.2164535361
 10
9.9013247411
 20
-7.2388472156
 10
9.8988174963
 20
-7.2611160462
 10
9.8946549143
 20
-7.2831357651
 10
9.8888610102
 20
-7.3047808791
 10
9.881467678
 20
-7.325933338
 10
9.8725125778
 20
-7.3464825339
 10
9.8620417808
 20
-7.3663168459
 10
9.8501137877
 20
-7.3853204086
 10
9.8367969211
 20
-7.4033819402
 10
9.8221656071
 20
-7.4203994227
 10
9.8063007719
 20
-7.4362777549
 10
9.7892929979
 20
-7.4509257212
 10
9.7712381946
 20
-7.4642607639
 10
9.7522367318
 20
-7.4762087955
 10
9.732395145
 20
-7.4867027804
 10
9.7118245051
 20
-7.4956839556
 10
9.6906399534
 20
-7.5031020337
 10
9.6689602732
 20
-7.5089154318
 10
9.6469068998
 20
-7.5130916246
 10
9.6246032247
 20
-7.5156072798
 10
9.6021741012
 20
-7.5164483425
  0
LWPOLYLINE
  5
403
100
AcDbEntity
  8
ASSI
100
AcDbPolyline
 62
250
  6
CONTINUOUS
 90
16
 70
0
 10
9.6521721974
 20
-7.2164597656
 10
9.6518770278
 20
-7.2217724852
 10
9.6510615908
 20
-7.226921757
 10
9.6497258862
 20
-7.2319075812
 10
9.6478433445
 20
-7.2367832407
 10
9.6454405352
 20
-7.2414954526
 10
9.6425971676
 20
-7.2458843676
 10
9.6393007487
 20
-7.2499359198
 10
9.6355637715
 20
-7.2536641752
 10
9.6315034242
 20
-7.256951483
 10
9.6270999116
 20
-7.2597853767
 10
9.6223730289
 20
-7.2621783227
 10
9.6174993492
 20
-7.2640500694
 10
9.6125377302
 20
-7.2653738662
 10
9.6074293142
 20
-7.2661764636
 10
9.6021741012
 20
-7.2664578618
  0
LINE
  5
404
100
AcDbEntity
  8
0
100
AcDbLine
 62
7
  6
CONTINUOUS
 10
8.8233112727
 20
-2.2203259856
 11
8.8041107013
 21
-2.4142856644
  0
LINE
  5
405
100
AcDbEntity
  8
DRAFT
100
AcDbLine
 62
7
  6
CONTINUOUS
 10
9.75
 20
-2.2203259856
 11
9.7307994286
 21
-2.4142856644
  0
LWPOLYLINE
  5
406
100
AcDbEntity
  8
RACCORDO
100
AcDbPolyline
 62
7
  6
CONTINUOUS
 90
5
 70
0
 10
-10.1630151405
 20
7.3328289484
 10
-10.1602873641
 20
7.3335148779
 10
-10.1533198148
 20
7.3350481528
 10
-10.142266672
 20
7.3374287731
 10
-10.1088525945
 20
7.3448805434
  0
LINE
  5
407
100
AcDbEntity
  8
ASSI
100
AcDbLine
 62
7
  6
CONTINUOUS
 10
-10.1630151405
 20
7.3328289484
 11
-10.1620302259
 21
7.3330536707
  0
LINE
  5
408
100
AcDbEntity
  8
RACCORDO
100
AcDbLine
 62
7
  6
CONTINUOUS
 10
-9.9448485209
 20
7.3810085103
 11
-9.9130532167
 21
7.3882441728
  0
LWPOLYLINE
  5
409
100
AcDbEntity
  8
RACCORDO
100
AcDbPolyline
 62
7
  6
CONTINUOUS
 90
3
 70
0
 10
-9.7751232445
 20
6.801481956
 10
-9.6842550338
 20
6.8218570005
 10
-9.6766887273
 20
6.8234904096
  0
LWPOLYLINE
  5
40A
100
AcDbEntity
  8
RACCORDO
100
AcDbPolyline
 62
7
  6
CONTINUOUS
 90
3
 70
0
 10
-9.8483113336
 20
6.7852518902
 10
-9.802102356
 20
6.7955677828
 10
-9.7751232445
 20
6.801481956
  0
LINE
  5
40B
100
AcDbEntity
  8
RACCORDO
100
AcDbLine
 62
7
  6
CONTINUOUS
 10
-10.259966909
 20
7.3113352588
 11
-10.1630151405
 21
7.3328289484
  0
LINE
  5
40C
100
AcDbEntity
  8
ASSI
100
AcDbLine
 62
7
  6
CONTINUOUS
 10
-9.8955914161
 20
6.7748182798
 11
-9.6766887273
 21
6.8233834047
  0
LINE
  5
40D
100
AcDbEntity
  8
ASSI
100
AcDbLine
 62
7
  6
CONTINUOUS
 10
-10.259966909
 20
7.3113352588
 11
-9.9130532167
 21
7.3882441728
  0
LINE
  5
40E
100
AcDbEntity
  8
RACCORDO
100
AcDbLine
 62
7
  6
CONTINUOUS
 10
-9.8816211405
 20
6.7779154153
 11
-9.8483113336
 21
6.7852518902
  0
LINE
  5
40F
100
AcDbEntity
  8
ASSI
100
AcDbLine
 62
7
  6
CONTINUOUS
 10
-9.9021436407
 20
6.7733882118
 11
-9.8955914161
 21
6.7748182798
  0
LINE
  5
410
100
AcDbEntity
  8
RACCORDO
100
AcDbLine
 62
7
  6
CONTINUOUS
 10
-10.1088525945
 20
7.3448805434
 11
-9.9448485209
 21
7.3810085103
  0
LWPOLYLINE
  5
411
100
AcDbEntity
  8
RACCORDO
100
AcDbPolyline
 62
7
  6
CONTINUOUS
 90
4
 70
0
 10
-9.9021436407
 20
6.7733882118
 10
-9.8994215583
 20
6.7739111605
 10
-9.8925433032
 20
6.7754376783
 10
-9.8816211405
 20
6.7779154153
  0
LWPOLYLINE
  5
412
100
AcDbEntity
  8
0
100
AcDbPolyline
 62
250
  6
CONTINUOUS
 90
13
 70
0
 10
9.4
 20
10.5698509984
 10
9.4643416081
 20
10.5815645141
 10
9.5232892695
 20
10.6051057356
 10
9.5768429841
 20
10.640474663
 10
9.6252907405
 20
10.6894832808
 10
9.6683445502
 20
10.7503196045
 10
9.7051404473
 20
10.8175476804
 10
9.7351227296
 20
10.8901339635
 10
9.7588470994
 20
10.9691119989
 10
9.7771166973
 20
11.0521464677
 10
9.7901992368
 20
11.1384589303
 10
9.7978270044
 20
11.2288278263
 10
9.8
 20
11.3232531558
  0
LINE
  5
413
100
AcDbEntity
  8
0
100
AcDbLine
 62
7
  6
CONTINUOUS
 10
2.4118794124
 20
8.5622892525
 11
1.1621057877
 21
8.5622892525
  0
LINE
  5
414
100
AcDbEntity
  8
0
100
AcDbLine
 62
7
  6
CONTINUOUS
 10
-1.1621057877
 20
8.5622892525
 11
-2.4118794124
 21
8.5622892525
  0
LINE
  5
415
100
AcDbEntity
  8
0
100
AcDbLine
 62
7
  6
CONTINUOUS
 10
6.9
 20
8.588722986
 11
2.5
 21
8.588722986
  0
LINE
  5
416
100
AcDbEntity
  8
0
100
AcDbLine
 62
7
  6
CONTINUOUS
 10
-2.5
 20
8.588722986
 11
-6.9
 21
8.588722986
  0
LINE
  5
417
100
AcDbEntity
  8
0
100
AcDbLine
 62
7
  6
CONTINUOUS
 10
-5.8
 20
8.6107143356
 11
-1.2
 21
8.6107143356
  0
LINE
  5
418
100
AcDbEntity
  8
0
100
AcDbLine
 62
7
  6
CONTINUOUS
 10
1.2
 20
8.6107143356
 11
5.8
 21
8.6107143356
  0
LINE
  5
419
100
AcDbEntity
  8
0
100
AcDbLine
 62
250
  6
CONTINUOUS
 10
9.4
 20
10.5698509984
 11
8.3
 21
10.5698509984
  0
LINE
  5
41A
100
AcDbEntity
  8
0
100
AcDbLine
 62
250
  6
CONTINUOUS
 10
-8.3
 20
10.5698509984
 11
-9.4
 21
10.5698509984
  0
LINE
  5
41B
100
AcDbEntity
  8
0
100
AcDbLine
 62
250
  6
CONTINUOUS
 10
9.4
 20
10.6875473106
 11
8.3
 21
10.6875473106
  0
LINE
  5
41C
100
AcDbEntity
  8
0
100
AcDbLine
 62
250
  6
CONTINUOUS
 10
-8.3
 20
10.6875473106
 11
-9.4
 21
10.6875473106
  0
LINE
  5
41D
100
AcDbEntity
  8
0
100
AcDbLine
 62
7
  6
CONTINUOUS
 10
-7.8
 20
10.8357143356
 11
-6.9
 21
10.8357143356
  0
LINE
  5
41E
100
AcDbEntity
  8
ASSI
100
AcDbLine
 62
7
  6
CONTINUOUS
 10
6.5
 20
10.8357143356
 11
6.6
 21
10.8357143356
  0
LINE
  5
41F
100
AcDbEntity
  8
0
100
AcDbLine
 62
7
  6
CONTINUOUS
 10
6.5
 20
10.8357143356
 11
6.6
 21
10.8357143356
  0
LINE
  5
420
100
AcDbEntity
  8
ASSI
100
AcDbLine
 62
7
  6
CONTINUOUS
 10
-6.5
 20
10.8357143356
 11
-6.6
 21
10.8357143356
  0
LINE
  5
421
100
AcDbEntity
  8
0
100
AcDbLine
 62
7
  6
CONTINUOUS
 10
-6.5
 20
10.8357143356
 11
-6.6
 21
10.8357143356
  0
LINE
  5
422
100
AcDbEntity
  8
0
100
AcDbLine
 62
7
  6
CONTINUOUS
 10
6.9
 20
10.8357143356
 11
7.8
 21
10.8357143356
  0
LWPOLYLINE
  5
423
100
AcDbEntity
  8
0
100
AcDbPolyline
 62
250
  6
CONTINUOUS
 90
46
 70
0
 10
-9.4
 20
10.6875473106
 10
-9.405894145
 20
10.6877406089
 10
-9.4119138005
 20
10.6884779151
 10
-9.4180529722
 20
10.6897660362
 10
-9.4243240659
 20
10.6915981349
 10
-9.43070029
 20
10.6939953938
 10
-9.437116477
 20
10.6970034107
 10
-9.4435554174
 20
10.7006322423
 10
-9.4500180157
 20
10.70487815
 10
-9.4564670859
 20
10.7097609522
 10
-9.4628885602
 20
10.7152827139
 10
-9.469279664
 20
10.7214434682
 10
-9.475620902
 20
10.7282574472
 10
-9.4819039416
 20
10.7357284641
 10
-9.488119964
 20
10.7438526356
 10
-9.4942495019
 20
10.7526311132
 10
-9.5002882146
 20
10.7620743897
 10
-9.5062238926
 20
10.7721696476
 10
-9.5120271792
 20
10.7828808825
 10
-9.517686812
 20
10.7942012202
 10
-9.523201229
 20
10.8061314255
 10
-9.5285578078
 20
10.8186450982
 10
-9.5337424683
 20
10.8317145934
 10
-9.5387592054
 20
10.8453600442
 10
-9.5436215562
 20
10.8596273367
 10
-9.5483241347
 20
10.8745113279
 10
-9.5528591165
 20
10.890011779
 10
-9.5572331009
 20
10.9061836748
 10
-9.5614402645
 20
10.9230294052
 10
-9.5654704467
 20
10.9405419864
 10
-9.5693213297
 20
10.9587632953
 10
-9.5729855583
 20
10.9776966769
 10
-9.5764531626
 20
10.9973338162
 10
-9.5797168664
 20
11.0176993521
 10
-9.5827668364
 20
11.0387812654
 10
-9.5855959533
 20
11.0605856087
 10
-9.5881997674
 20
11.0831643304
 10
-9.5905685976
 20
11.1065101121
 10
-9.5926934681
 20
11.1306237659
 10
-9.5945685227
 20
11.1555697716
 10
-9.5961833352
 20
11.1813450371
 10
-9.5975275082
 20
11.2079453819
 10
-9.5985925023
 20
11.2354338397
 10
-9.5993672916
 20
11.2638287182
 10
-9.5998400635
 20
11.2931033535
 10
-9.6
 20
11.3232531558
  0
LWPOLYLINE
  5
424
100
AcDbEntity
  8
RACCORDO
100
AcDbPolyline
 62
7
  6
CONTINUOUS
 90
5
 70
0
 10
10.1630151405
 20
7.3328289484
 10
10.1602530492
 20
7.3333600933
 10
10.153290315
 20
7.3349150879
 10
10.142266672
 20
7.3374287731
 10
10.1088339792
 20
7.344796575
  0
LINE
  5
425
100
AcDbEntity
  8
ASSI
100
AcDbLine
 62
7
  6
CONTINUOUS
 10
10.1630151405
 20
7.3328289484
 11
10.162027533
 21
7.3330415237
  0
LINE
  5
426
100
AcDbEntity
  8
RACCORDO
100
AcDbLine
 62
7
  6
CONTINUOUS
 10
9.9449274716
 20
7.3813646338
 11
9.9130532167
 21
7.3882441728
  0
LWPOLYLINE
  5
427
100
AcDbEntity
  8
RACCORDO
100
AcDbPolyline
 62
7
  6
CONTINUOUS
 90
3
 70
0
 10
9.7748292635
 20
6.8016365745
 10
9.6839339033
 20
6.8215515339
 10
9.6766887273
 20
6.8232011115
  0
LINE
  5
428
100
AcDbEntity
  8
RACCORDO
100
AcDbLine
 62
7
  6
CONTINUOUS
 10
10.259966909
 20
7.3113352588
 11
10.1630151405
 21
7.3328289484
  0
LINE
  5
429
100
AcDbEntity
  8
ASSI
100
AcDbLine
 62
7
  6
CONTINUOUS
 10
10.259966909
 20
7.3113352588
 11
9.9130532167
 21
7.3882441728
  0
LINE
  5
42A
100
AcDbEntity
  8
RACCORDO
100
AcDbLine
 62
7
  6
CONTINUOUS
 10
9.8817982095
 20
6.7778761601
 11
9.7748292635
 21
6.8016365745
  0
LINE
  5
42B
100
AcDbEntity
  8
RACCORDO
100
AcDbLine
 62
7
  6
CONTINUOUS
 10
10.1088339792
 20
7.344796575
 11
9.9449274716
 21
7.3813646338
  0
LWPOLYLINE
  5
42C
100
AcDbEntity
  8
ASSI
100
AcDbPolyline
 62
7
  6
CONTINUOUS
 90
3
 70
0
 10
9.9021626781
 20
6.7733389382
 10
9.901325861
 20
6.7735437189
 10
9.6766887273
 20
6.8233121713
  0
LWPOLYLINE
  5
42D
100
AcDbEntity
  8
RACCORDO
100
AcDbPolyline
 62
7
  6
CONTINUOUS
 90
4
 70
0
 10
9.9021626781
 20
6.7733389382
 10
9.8996569185
 20
6.7739963914
 10
9.8928077696
 20
6.7755087987
 10
9.8817982095
 20
6.7778761601
  0
LINE
  5
42E
100
AcDbEntity
  8
0
100
AcDbLine
 62
7
  6
CONTINUOUS
 10
8.75
 20
1.0857143356
 11
8.8148883267
 21
0.9558981298
  0
LINE
  5
42F
100
AcDbEntity
  8
0
100
AcDbLine
 62
7
  6
CONTINUOUS
 10
9.741577054
 20
0.9558981298
 11
9.6766887273
 21
1.0857143356
  0
LWPOLYLINE
  5
430
100
AcDbEntity
  8
0
100
AcDbPolyline
 62
250
  6
CONTINUOUS
 90
4
 70
0
 10
7.9474031027
 20
14.9045847366
 10
7.954726156
 20
14.8699778981
 10
7.9622926537
 20
14.8362853559
 10
7.9701388987
 20
14.8035777571
  0
LINE
  5
431
100
AcDbEntity
  8
ASSI
100
AcDbLine
 62
7
  6
CONTINUOUS
 10
6.1200267885
 20
17.9906495021
 11
6.5
 21
15.8357143356
  0
LINE
  5
432
100
AcDbEntity
  8
0
100
AcDbLine
 62
7
  6
CONTINUOUS
 10
6.1200267885
 20
17.9906495021
 11
6.5
 21
15.8357143356
  0
LWPOLYLINE
  5
433
100
AcDbEntity
  8
0
100
AcDbPolyline
 62
250
  6
CONTINUOUS
 90
5
 70
0
 10
7.9095590204
 20
11.1403208288
 10
7.9224393626
 20
11.0546116132
 10
7.9403857107
 20
10.9719857726
 10
7.9637326135
 20
10.8931978972
 10
7.9934837174
 20
10.8205117574
  0
LINE
  5
434
100
AcDbEntity
  8
0
100
AcDbLine
 62
7
  6
CONTINUOUS
 10
4.3316524976
 20
32.8357143356
 11
4.3220008854
 21
32.9090256083
  0
LINE
  5
435
100
AcDbEntity
  8
0
100
AcDbLine
 62
7
  6
CONTINUOUS
 10
8.8233112727
 20
28.8917546568
 11
8.8041107013
 21
29.0857143356
  0
LINE
  5
436
100
AcDbEntity
  8
DRAFT
100
AcDbLine
 62
7
  6
CONTINUOUS
 10
9.75
 20
28.8917546568
 11
9.7307994286
 21
29.0857143356
  0
LINE
  5
437
100
AcDbEntity
  8
ASSI
100
AcDbLine
 62
7
  6
CONTINUOUS
 10
11.0
 20
-8.0143427719
 11
11.0
 21
34.685771443
  0
LINE
  5
438
100
AcDbEntity
  8
RACCORDO
100
AcDbLine
 62
7
  6
CONTINUOUS
 10
11.0
 20
-8.0143427719
 11
11.0
 21
34.685771443
  0
LWPOLYLINE
  5
439
100
AcDbEntity
  8
0
100
AcDbPolyline
 62
250
  6
CONTINUOUS
 90
9
 70
0
 10
-8.3
 20
10.5698509984
 10
-8.2356583919
 20
10.5815645141
 10
-8.1767107305
 20
10.6051057356
 10
-8.1231570159
 20
10.640474663
 10
-8.0747092595
 20
10.6894832808
 10
-8.0316554498
 20
10.7503196045
 10
-7.9948595527
 20
10.8175476804
 10
-7.9648772704
 20
10.8901339635
 10
-7.9411529006
 20
10.9691119989
  0
LWPOLYLINE
  5
43A
100
AcDbEntity
  8
0
100
AcDbPolyline
 62
7
  6
CONTINUOUS
 90
4
 70
0
 10
7.9
 20
11.8995736739
 10
7.938029411
 20
11.9025942506
 10
7.9725267922
 20
11.9094021598
 10
8.0034921435
 20
11.9201049382
  0
LINE
  5
43B
100
AcDbEntity
  8
0
100
AcDbLine
 62
250
  6
CONTINUOUS
 10
9.8
 20
11.3232531558
 11
9.6
 21
11.3232531558
  0
LINE
  5
43C
100
AcDbEntity
  8
0
100
AcDbLine
 62
250
  6
CONTINUOUS
 10
8.1
 20
11.3232531558
 11
7.9
 21
11.3232531558
  0
LINE
  5
43D
100
AcDbEntity
  8
0
100
AcDbLine
 62
250
  6
CONTINUOUS
 10
-7.9
 20
11.3232531558
 11
-8.1
 21
11.3232531558
  0
LINE
  5
43E
100
AcDbEntity
  8
0
100
AcDbLine
 62
250
  6
CONTINUOUS
 10
-9.6
 20
11.3232531558
 11
-9.8
 21
11.3232531558
  0
LINE
  5
43F
100
AcDbEntity
  8
0
100
AcDbLine
 62
250
  6
CONTINUOUS
 10
-7.8
 20
11.7649590308
 11
-6.9
 21
11.7649590308
  0
LINE
  5
440
100
AcDbEntity
  8
0
100
AcDbLine
 62
250
  6
CONTINUOUS
 10
6.9
 20
11.7649590308
 11
7.8
 21
11.7649590308
  0
LINE
  5
441
100
AcDbEntity
  8
0
100
AcDbLine
 62
7
  6
CONTINUOUS
 10
7.9
 20
11.8995736739
 11
7.8
 21
11.8995736739
  0
LINE
  5
442
100
AcDbEntity
  8
0
100
AcDbLine
 62
7
  6
CONTINUOUS
 10
6.9
 20
11.8995736739
 11
6.6
 21
11.8995736739
  0
LINE
  5
443
100
AcDbEntity
  8
0
100
AcDbLine
 62
7
  6
CONTINUOUS
 10
-6.6
 20
11.8995736739
 11
-6.9
 21
11.8995736739
  0
LINE
  5
444
100
AcDbEntity
  8
0
100
AcDbLine
 62
7
  6
CONTINUOUS
 10
-7.8
 20
11.8995736739
 11
-7.9
 21
11.8995736739
  0
LINE
  5
445
100
AcDbEntity
  8
0
100
AcDbLine
 62
7
  6
CONTINUOUS
 10
-7.8
 20
11.9989145877
 11
-6.9
 21
11.9989145877
  0
LINE
  5
446
100
AcDbEntity
  8
0
100
AcDbLine
 62
7
  6
CONTINUOUS
 10
6.9
 20
11.9989145877
 11
7.8
 21
11.9989145877
  0
LWPOLYLINE
  5
447
100
AcDbEntity
  8
0
100
AcDbPolyline
 62
250
  6
CONTINUOUS
 90
46
 70
0
 10
8.3
 20
10.6875473106
 10
8.294105855
 20
10.6877406089
 10
8.2880861995
 20
10.6884779151
 10
8.2819470278
 20
10.6897660362
 10
8.2756759341
 20
10.6915981349
 10
8.26929971
 20
10.6939953938
 10
8.262883523
 20
10.6970034107
 10
8.2564445826
 20
10.7006322423
 10
8.2499819843
 20
10.70487815
 10
8.2435329141
 20
10.7097609522
 10
8.2371114398
 20
10.7152827139
 10
8.230720336
 20
10.7214434682
 10
8.224379098
 20
10.7282574472
 10
8.2180960584
 20
10.7357284641
 10
8.211880036
 20
10.7438526356
 10
8.2057504981
 20
10.7526311132
 10
8.1997117854
 20
10.7620743897
 10
8.1937761074
 20
10.7721696476
 10
8.1879728208
 20
10.7828808825
 10
8.182313188
 20
10.7942012202
 10
8.176798771
 20
10.8061314255
 10
8.1714421922
 20
10.8186450982
 10
8.1662575317
 20
10.8317145934
 10
8.1612407946
 20
10.8453600442
 10
8.1563784438
 20
10.8596273367
 10
8.1516758653
 20
10.8745113279
 10
8.1471408835
 20
10.890011779
 10
8.1427668991
 20
10.9061836748
 10
8.1385597355
 20
10.9230294052
 10
8.1345295533
 20
10.9405419864
 10
8.1306786703
 20
10.9587632953
 10
8.1270144417
 20
10.9776966769
 10
8.1235468374
 20
10.9973338162
 10
8.1202831336
 20
11.0176993521
 10
8.1172331636
 20
11.0387812654
 10
8.1144040467
 20
11.0605856087
 10
8.1118002326
 20
11.0831643304
 10
8.1094314024
 20
11.1065101121
 10
8.1073065319
 20
11.1306237659
 10
8.1054314773
 20
11.1555697716
 10
8.1038166648
 20
11.1813450371
 10
8.1024724918
 20
11.2079453819
 10
8.1014074977
 20
11.2354338397
 10
8.1006327084
 20
11.2638287182
 10
8.1001599365
 20
11.2931033535
 10
8.1
 20
11.3232531558
  0
LINE
  5
448
100
AcDbEntity
  8
0
100
AcDbLine
 62
250
  6
CONTINUOUS
 10
-1.4376353112
 20
19.1121977732
 11
-1.1611518736
 21
18.8357143356
  0
LINE
  5
449
100
AcDbEntity
  8
0
100
AcDbLine
 62
7
  6
CONTINUOUS
 10
1.2
 20
18.0607143356
 11
1.1621057877
 21
18.1091394186
  0
LWPOLYLINE
  5
44A
100
AcDbEntity
  8
0
100
AcDbPolyline
 62
250
  6
CONTINUOUS
 90
7
 70
0
 10
7.9934837174
 20
10.8205117574
 10
8.0302878626
 20
10.7527266808
 10
8.073496209
 20
10.6910433397
 10
8.1221658832
 20
10.6413275222
 10
8.1759825942
 20
10.6055344908
 10
8.2352606332
 20
10.5817089828
 10
8.3
 20
10.5698509984
  0
LINE
  5
44B
100
AcDbEntity
  8
ASSI
100
AcDbLine
 62
7
  6
CONTINUOUS
 10
9.9506158332
 20
6.6479297357
 11
9.9021626781
 21
6.7733389382
  0
LINE
  5
44C
100
AcDbEntity
  8
RACCORDO
100
AcDbLine
 62
7
  6
CONTINUOUS
 10
9.9506158332
 20
6.6479297357
 11
9.9021626781
 21
6.7733389382
  0
LINE
  5
44D
100
AcDbEntity
  8
0
100
AcDbLine
 62
250
  6
CONTINUOUS
 10
7.9701388987
 20
14.8035777571
 11
7.9782648908
 21
14.7718551015
  0
LWPOLYLINE
  5
44E
100
AcDbEntity
  8
0
100
AcDbPolyline
 62
250
  6
CONTINUOUS
 90
11
 70
0
 10
9.7904405889
 20
15.5311116169
 10
9.7775607986
 20
15.6168196254
 10
9.7596156144
 20
15.6994406916
 10
9.7362703738
 20
15.7782217296
 10
9.7065210892
 20
15.8509034823
 10
9.6697194863
 20
15.9186888943
 10
9.6265138395
 20
15.980375021
 10
9.5778449839
 20
16.0300937713
 10
9.5240265313
 20
16.0658891148
 10
9.46474487
 20
16.089717082
 10
9.4
 20
16.1015776728
  0
LWPOLYLINE
  5
44F
100
AcDbEntity
  8
0
100
AcDbPolyline
 62
7
  6
CONTINUOUS
 90
4
 70
0
 10
-7.9
 20
14.7718549972
 10
-7.938029411
 20
14.7688344206
 10
-7.9725267922
 20
14.7620265114
 10
-8.0034921435
 20
14.7513237329
  0
LWPOLYLINE
  5
450
100
AcDbEntity
  8
0
100
AcDbPolyline
 62
250
  6
CONTINUOUS
 90
10
 70
0
 10
8.3006210501
 20
16.1015776728
 10
8.2810991071
 20
16.100835069
 10
8.2615975318
 20
16.0984306844
 10
8.2421163242
 20
16.0943645191
 10
8.2225365789
 20
16.0886128113
 10
8.2029772013
 20
16.0811993227
 10
8.183794908
 20
16.0721953382
 10
8.1651086044
 20
16.0616246193
 10
8.146799385
 20
16.0494634044
 10
8.1288672498
 20
16.0357116936
  0
LINE
  5
451
100
AcDbEntity
  8
0
100
AcDbLine
 62
7
  6
CONTINUOUS
 10
7.8
 20
14.6725140835
 11
6.9
 21
14.6725140835
  0
LINE
  5
452
100
AcDbEntity
  8
0
100
AcDbLine
 62
7
  6
CONTINUOUS
 10
-6.9
 20
14.6725140835
 11
-7.8
 21
14.6725140835
  0
LINE
  5
453
100
AcDbEntity
  8
0
100
AcDbLine
 62
7
  6
CONTINUOUS
 10
7.9782648908
 20
14.7718551015
 11
7.8
 21
14.7718549972
  0
LINE
  5
454
100
AcDbEntity
  8
0
100
AcDbLine
 62
7
  6
CONTINUOUS
 10
6.9
 20
14.7718549972
 11
6.6
 21
14.7718549972
  0
LINE
  5
455
100
AcDbEntity
  8
0
100
AcDbLine
 62
7
  6
CONTINUOUS
 10
-6.6
 20
14.7718549972
 11
-6.9
 21
14.7718549972
  0
LINE
  5
456
100
AcDbEntity
  8
0
100
AcDbLine
 62
7
  6
CONTINUOUS
 10
-7.8
 20
14.7718549972
 11
-7.9
 21
14.7718549972
  0
LINE
  5
457
100
AcDbEntity
  8
0
100
AcDbLine
 62
250
  6
CONTINUOUS
 10
7.8
 20
14.9064696404
 11
6.9
 21
14.9064696404
  0
LINE
  5
458
100
AcDbEntity
  8
0
100
AcDbLine
 62
250
  6
CONTINUOUS
 10
-6.9
 20
14.9064696404
 11
-7.8
 21
14.9064696404
  0
LINE
  5
459
100
AcDbEntity
  8
0
100
AcDbLine
 62
250
  6
CONTINUOUS
 10
-9.8
 20
15.3481755153
 11
-9.6
 21
15.3481755153
  0
LINE
  5
45A
100
AcDbEntity
  8
0
100
AcDbLine
 62
250
  6
CONTINUOUS
 10
-8.1
 20
15.3481755153
 11
-7.9
 21
15.3481755153
  0
LINE
  5
45B
100
AcDbEntity
  8
0
100
AcDbLine
 62
250
  6
CONTINUOUS
 10
9.6
 20
15.3481755153
 11
9.8
 21
15.3481755153
  0
LINE
  5
45C
100
AcDbEntity
  8
0
100
AcDbLine
 62
7
  6
CONTINUOUS
 10
-7.8
 20
15.8357143356
 11
-6.9
 21
15.8357143356
  0
LINE
  5
45D
100
AcDbEntity
  8
ASSI
100
AcDbLine
 62
7
  6
CONTINUOUS
 10
6.5
 20
15.8357143356
 11
6.6
 21
15.8357143356
  0
LINE
  5
45E
100
AcDbEntity
  8
0
100
AcDbLine
 62
7
  6
CONTINUOUS
 10
6.5
 20
15.8357143356
 11
6.6
 21
15.8357143356
  0
LINE
  5
45F
100
AcDbEntity
  8
ASSI
100
AcDbLine
 62
7
  6
CONTINUOUS
 10
-6.5
 20
15.8357143356
 11
-6.6
 21
15.8357143356
  0
LINE
  5
460
100
AcDbEntity
  8
0
100
AcDbLine
 62
7
  6
CONTINUOUS
 10
-6.5
 20
15.8357143356
 11
-6.6
 21
15.8357143356
  0
LINE
  5
461
100
AcDbEntity
  8
0
100
AcDbLine
 62
7
  6
CONTINUOUS
 10
6.9
 20
15.8357143356
 11
7.8
 21
15.8357143356
  0
LINE
  5
462
100
AcDbEntity
  8
0
100
AcDbLine
 62
250
  6
CONTINUOUS
 10
-9.4
 20
15.9838813605
 11
-8.3
 21
15.9838813605
  0
LINE
  5
463
100
AcDbEntity
  8
0
100
AcDbLine
 62
250
  6
CONTINUOUS
 10
8.3
 20
15.9838813605
 11
9.4
 21
15.9838813605
  0
LINE
  5
464
100
AcDbEntity
  8
0
100
AcDbLine
 62
250
  6
CONTINUOUS
 10
-9.4
 20
16.1015776728
 11
-8.3
 21
16.1015776728
  0
LINE
  5
465
100
AcDbEntity
  8
0
100
AcDbLine
 62
250
  6
CONTINUOUS
 10
8.3006210501
 20
16.1015776728
 11
9.4
 21
16.1015776728
  0
LWPOLYLINE
  5
466
100
AcDbEntity
  8
0
100
AcDbPolyline
 62
250
  6
CONTINUOUS
 90
43
 70
0
 10
-8.3
 20
15.9838813605
 10
-8.2929084272
 20
15.9835277673
 10
-8.2858559813
 20
15.9825108672
 10
-8.2788512862
 20
15.9808328329
 10
-8.2719200971
 20
15.9785025994
 10
-8.2650529696
 20
15.9755167809
 10
-8.2582062165
 20
15.9718561173
 10
-8.2513794421
 20
15.9675258415
 10
-8.2445908742
 20
15.9625198306
 10
-8.2378264426
 20
15.9567974306
 10
-8.2310870902
 20
15.950352345
 10
-8.2243922205
 20
15.9431883539
 10
-8.2177563177
 20
15.9352790233
 10
-8.2111811037
 20
15.9266067292
 10
-8.2046862727
 20
15.9171885414
 10
-8.1983116505
 20
15.9070525267
 10
-8.1920696175
 20
15.8961980228
 10
-8.1859655309
 20
15.88463075
 10
-8.1800254729
 20
15.8723916198
 10
-8.1742678912
 20
15.8595095029
 10
-8.1686876029
 20
15.8459640123
 10
-8.163275022
 20
15.8317224178
 10
-8.1580374326
 20
15.816792272
 10
-8.1529830952
 20
15.8011726082
 10
-8.1481067046
 20
15.7848162547
 10
-8.1434153129
 20
15.7677231532
 10
-8.1389197453
 20
15.7498991961
 10
-8.1346226721
 20
15.7313051284
 10
-8.1305348916
 20
15.7119534903
 10
-8.1266643471
 20
15.691838056
 10
-8.1230119234
 20
15.6708906507
 10
-8.1195886516
 20
15.6491191904
 10
-8.1164052092
 20
15.6265222302
 10
-8.1134655103
 20
15.6030167199
 10
-8.110781708
 20
15.5786044122
 10
-8.1083668456
 20
15.5532906803
 10
-8.1062296465
 20
15.5269973771
 10
-8.1043836442
 20
15.4997223736
 10
-8.1028430583
 20
15.4714762583
 10
-8.1016201796
 20
15.4421998203
 10
-8.1007291266
 20
15.4118766255
 10
-8.1001845056
 20
15.3805333023
 10
-8.1
 20
15.3481755153
  0
LINE
  5
467
100
AcDbEntity
  8
0
100
AcDbLine
 62
250
  6
CONTINUOUS
 10
-0.6381226496
 20
19.9117104348
 11
-0.361639212
 21
19.6352269972
  0
LINE
  5
468
100
AcDbEntity
  8
0
100
AcDbLine
 62
7
  6
CONTINUOUS
 10
-0.5083064438
 20
21.3357143356
 11
-0.3953412642
 21
21.2227491559
  0
LWPOLYLINE
  5
469
100
AcDbEntity
  8
0
100
AcDbPolyline
 62
7
  6
CONTINUOUS
 90
10
 70
0
 10
-0.6381226496
 20
25.3188633095
 10
-0.6487512157
 20
25.3317002969
 10
-0.6741057533
 20
25.3567362584
 10
-0.713230534
 20
25.3939711939
 10
-0.7648720025
 20
25.4454421605
 10
-0.8272850342
 20
25.509112101
 10
-0.8981291848
 20
25.5788698447
 10
-0.9750008857
 20
25.6526783344
 10
-1.0556751011
 20
25.7325746272
 10
-1.1378180631
 20
25.818558723
  0
LWPOLYLINE
  5
46A
100
AcDbEntity
  8
RACCORDO
100
AcDbPolyline
 62
7
  6
CONTINUOUS
 90
5
 70
0
 10
10.1630151405
 20
19.3385997228
 10
10.1602873641
 20
19.3379137933
 10
10.1533198148
 20
19.3363805184
 10
10.142266672
 20
19.333999898
 10
10.1088525945
 20
19.3265481277
  0
LINE
  5
46B
100
AcDbEntity
  8
ASSI
100
AcDbLine
 62
7
  6
CONTINUOUS
 10
10.1630151405
 20
19.3385997228
 11
10.1620302259
 21
19.3383750004
  0
LINE
  5
46C
100
AcDbEntity
  8
RACCORDO
100
AcDbLine
 62
7
  6
CONTINUOUS
 10
9.9448485209
 20
19.2904201609
 11
9.9130532167
 21
19.2831844984
  0
LWPOLYLINE
  5
46D
100
AcDbEntity
  8
RACCORDO
100
AcDbPolyline
 62
7
  6
CONTINUOUS
 90
3
 70
0
 10
9.7751232445
 20
19.8699467151
 10
9.6842550338
 20
19.8495716707
 10
9.6766887273
 20
19.8479382616
  0
LWPOLYLINE
  5
46E
100
AcDbEntity
  8
RACCORDO
100
AcDbPolyline
 62
7
  6
CONTINUOUS
 90
3
 70
0
 10
9.8483113336
 20
19.8861767809
 10
9.802102356
 20
19.8758608884
 10
9.7751232445
 20
19.8699467151
  0
LINE
  5
46F
100
AcDbEntity
  8
RACCORDO
100
AcDbLine
 62
7
  6
CONTINUOUS
 10
10.259966909
 20
19.3600934124
 11
10.1630151405
 21
19.3385997228
  0
LINE
  5
470
100
AcDbEntity
  8
ASSI
100
AcDbLine
 62
7
  6
CONTINUOUS
 10
10.259966909
 20
19.3600934124
 11
9.9130532167
 21
19.2831844984
  0
LINE
  5
471
100
AcDbEntity
  8
RACCORDO
100
AcDbLine
 62
7
  6
CONTINUOUS
 10
9.8816211405
 20
19.8935132558
 11
9.8483113336
 21
19.8861767809
  0
LINE
  5
472
100
AcDbEntity
  8
ASSI
100
AcDbLine
 62
7
  6
CONTINUOUS
 10
9.9021436407
 20
19.8980404593
 11
9.6766887273
 21
19.8480452664
  0
LINE
  5
473
100
AcDbEntity
  8
RACCORDO
100
AcDbLine
 62
7
  6
CONTINUOUS
 10
10.1088525945
 20
19.3265481277
 11
9.9448485209
 21
19.2904201609
  0
LWPOLYLINE
  5
474
100
AcDbEntity
  8
RACCORDO
100
AcDbPolyline
 62
7
  6
CONTINUOUS
 90
4
 70
0
 10
9.9021436407
 20
19.8980404593
 10
9.8994215583
 20
19.8975175107
 10
9.8925433032
 20
19.8959909928
 10
9.8816211405
 20
19.8935132558
  0
LWPOLYLINE
  5
475
100
AcDbEntity
  8
0
100
AcDbPolyline
 62
250
  6
CONTINUOUS
 90
16
 70
0
 10
-9.4
 20
16.1015776728
 10
-9.4509490233
 20
16.0947834864
 10
-9.4988891689
 20
16.0795487294
 10
-9.5438204367
 20
16.0558734016
 10
-9.586121301
 20
16.0226658602
 10
-9.6254132876
 20
15.9810177482
 10
-9.6605609736
 20
15.9342039942
 10
-9.6910668249
 20
15.8826966182
 10
-9.7174283756
 20
15.8260236004
 10
-9.7400028048
 20
15.7660438104
 10
-9.7587845124
 20
15.7030903929
 10
-9.7737790985
 20
15.6368302034
 10
-9.7853605424
 20
15.5681226773
 10
-9.7936535038
 20
15.4972542932
 10
-9.798533323
 20
15.4239385725
 10
-9.8
 20
15.3481755153
  0
LINE
  5
476
100
AcDbEntity
  8
0
100
AcDbLine
 62
7
  6
CONTINUOUS
 10
5.8
 20
18.0607143356
 11
1.2
 21
18.0607143356
  0
LINE
  5
477
100
AcDbEntity
  8
0
100
AcDbLine
 62
7
  6
CONTINUOUS
 10
-1.2
 20
18.0607143356
 11
-5.8
 21
18.0607143356
  0
LINE
  5
478
100
AcDbEntity
  8
0
100
AcDbLine
 62
7
  6
CONTINUOUS
 10
-6.9
 20
18.0827056851
 11
-2.5
 21
18.0827056851
  0
LINE
  5
479
100
AcDbEntity
  8
0
100
AcDbLine
 62
7
  6
CONTINUOUS
 10
2.5
 20
18.0827056851
 11
6.9
 21
18.0827056851
  0
LINE
  5
47A
100
AcDbEntity
  8
0
100
AcDbLine
 62
7
  6
CONTINUOUS
 10
-2.4118794124
 20
18.1091394186
 11
-1.1621057877
 21
18.1091394186
  0
LINE
  5
47B
100
AcDbEntity
  8
0
100
AcDbLine
 62
7
  6
CONTINUOUS
 10
1.1621057877
 20
18.1091394186
 11
2.4118794124
 21
18.1091394186
  0
LINE
  5
47C
100
AcDbEntity
  8
0
100
AcDbLine
 62
7
  6
CONTINUOUS
 10
-2.4057426494
 20
18.4607143356
 11
-0.7483314774
 21
18.4607143356
  0
LINE
  5
47D
100
AcDbEntity
  8
0
100
AcDbLine
 62
7
  6
CONTINUOUS
 10
0.7483314774
 20
18.4607143356
 11
2.4057426494
 21
18.4607143356
  0
LWPOLYLINE
  5
47E
100
AcDbEntity
  8
0
100
AcDbPolyline
 62
250
  6
CONTINUOUS
 90
43
 70
0
 10
9.4
 20
15.9838813605
 10
9.4070915728
 20
15.9835277673
 10
9.4141440187
 20
15.9825108672
 10
9.4211487138
 20
15.9808328329
 10
9.4280799029
 20
15.9785025994
 10
9.4349470304
 20
15.9755167809
 10
9.4417937835
 20
15.9718561173
 10
9.4486205579
 20
15.9675258415
 10
9.4554091258
 20
15.9625198306
 10
9.4621735574
 20
15.9567974306
 10
9.4689129098
 20
15.950352345
 10
9.4756077795
 20
15.9431883539
 10
9.4822436823
 20
15.9352790233
 10
9.4888188963
 20
15.9266067292
 10
9.4953137273
 20
15.9171885414
 10
9.5016883495
 20
15.9070525267
 10
9.5079303825
 20
15.8961980228
 10
9.5140344691
 20
15.88463075
 10
9.5199745271
 20
15.8723916198
 10
9.5257321088
 20
15.8595095029
 10
9.5313123971
 20
15.8459640123
 10
9.536724978
 20
15.8317224178
 10
9.5419625674
 20
15.816792272
 10
9.5470169048
 20
15.8011726082
 10
9.5518932954
 20
15.7848162547
 10
9.5565846871
 20
15.7677231532
 10
9.5610802547
 20
15.7498991961
 10
9.5653773279
 20
15.7313051284
 10
9.5694651084
 20
15.7119534903
 10
9.5733356529
 20
15.691838056
 10
9.5769880766
 20
15.6708906507
 10
9.5804113484
 20
15.6491191904
 10
9.5835947908
 20
15.6265222302
 10
9.5865344897
 20
15.6030167199
 10
9.589218292
 20
15.5786044122
 10
9.5916331544
 20
15.5532906803
 10
9.5937703535
 20
15.5269973771
 10
9.5956163558
 20
15.4997223736
 10
9.5971569417
 20
15.4714762583
 10
9.5983798204
 20
15.4421998203
 10
9.5992708734
 20
15.4118766255
 10
9.5998154944
 20
15.3805333023
 10
9.6
 20
15.3481755153
  0
LWPOLYLINE
  5
47F
100
AcDbEntity
  8
RACCORDO
100
AcDbPolyline
 62
7
  6
CONTINUOUS
 90
5
 70
0
 10
-10.1630151405
 20
19.3385997228
 10
-10.1602530492
 20
19.3380685779
 10
-10.153290315
 20
19.3365135833
 10
-10.142266672
 20
19.333999898
 10
-10.1088339792
 20
19.3266320961
  0
LINE
  5
480
100
AcDbEntity
  8
ASSI
100
AcDbLine
 62
7
  6
CONTINUOUS
 10
-10.1630151405
 20
19.3385997228
 11
-10.162027533
 21
19.3383871475
  0
LINE
  5
481
100
AcDbEntity
  8
RACCORDO
100
AcDbLine
 62
7
  6
CONTINUOUS
 10
-9.9449274716
 20
19.2900640373
 11
-9.9130532167
 21
19.2831844984
  0
LWPOLYLINE
  5
482
100
AcDbEntity
  8
RACCORDO
100
AcDbPolyline
 62
7
  6
CONTINUOUS
 90
3
 70
0
 10
-9.7748292635
 20
19.8697920966
 10
-9.6839339033
 20
19.8498771373
 10
-9.6766887273
 20
19.8482275597
  0
LINE
  5
483
100
AcDbEntity
  8
RACCORDO
100
AcDbLine
 62
7
  6
CONTINUOUS
 10
-10.259966909
 20
19.3600934124
 11
-10.1630151405
 21
19.3385997228
  0
LINE
  5
484
100
AcDbEntity
  8
ASSI
100
AcDbLine
 62
7
  6
CONTINUOUS
 10
-10.259966909
 20
19.3600934124
 11
-9.9130532167
 21
19.2831844984
  0
LINE
  5
485
100
AcDbEntity
  8
RACCORDO
100
AcDbLine
 62
7
  6
CONTINUOUS
 10
-9.8817982095
 20
19.8935525111
 11
-9.7748292635
 21
19.8697920966
  0
LINE
  5
486
100
AcDbEntity
  8
RACCORDO
100
AcDbLine
 62
7
  6
CONTINUOUS
 10
-10.1088339792
 20
19.3266320961
 11
-9.9449274716
 21
19.2900640373
  0
LWPOLYLINE
  5
487
100
AcDbEntity
  8
ASSI
100
AcDbPolyline
 62
7
  6
CONTINUOUS
 90
3
 70
0
 10
-9.9021626781
 20
19.8980897329
 10
-9.901325861
 20
19.8978849522
 10
-9.6766887273
 20
19.8481164998
  0
LWPOLYLINE
  5
488
100
AcDbEntity
  8
RACCORDO
100
AcDbPolyline
 62
7
  6
CONTINUOUS
 90
4
 70
0
 10
-9.9021626781
 20
19.8980897329
 10
-9.8996569185
 20
19.8974322797
 10
-9.8928077696
 20
19.8959198724
 10
-9.8817982095
 20
19.8935525111
  0
LINE
  5
489
100
AcDbEntity
  8
0
100
AcDbLine
 62
7
  6
CONTINUOUS
 10
2.5
 20
18.0827056851
 11
2.4118794124
 21
18.1091394186
  0
LWPOLYLINE
  5
48A
100
AcDbEntity
  8
0
100
AcDbPolyline
 62
7
  6
CONTINUOUS
 90
7
 70
0
 10
8.1
 20
14.7478011388
 10
8.0817060267
 20
14.7548675971
 10
8.0626141646
 20
14.7606791008
 10
8.0427244138
 20
14.7652639002
 10
8.0220367741
 20
14.7686445819
 10
8.0005512457
 20
14.770837972
 10
7.9782678286
 20
14.7718550664
  0
LINE
  5
48B
100
AcDbEntity
  8
ASSI
100
AcDbLine
 62
250
  6
CONTINUOUS
 10
-9.9506158332
 20
33.9363415918
 11
-9.9021626781
 21
33.8878917304
  0
LINE
  5
48C
100
AcDbEntity
  8
RACCORDO
100
AcDbLine
 62
250
  6
CONTINUOUS
 10
-9.9506158332
 20
33.9363415918
 11
-9.9021626781
 21
33.8878917304
  0
LINE
  5
48D
100
AcDbEntity
  8
0
100
AcDbLine
 62
7
  6
CONTINUOUS
 10
-8.8233112727
 20
32.9090256083
 11
-8.75
 21
32.8357143356
  0
LINE
  5
48E
100
AcDbEntity
  8
ASSI
100
AcDbLine
 62
250
  6
CONTINUOUS
 10
-9.6506272563
 20
34.2363301688
 11
-9.6021741012
 21
34.1878770137
  0
LINE
  5
48F
100
AcDbEntity
  8
RACCORDO
100
AcDbLine
 62
250
  6
CONTINUOUS
 10
-9.6506272563
 20
34.2363301688
 11
-9.6021741012
 21
34.1878770137
  0
LINE
  5
490
100
AcDbEntity
  8
0
100
AcDbLine
 62
7
  6
CONTINUOUS
 10
-0.542008496
 20
25.2227491559
 11
-0.6381226496
 21
25.3188633095
  0
LWPOLYLINE
  5
491
100
AcDbEntity
  8
RACCORDO
100
AcDbPolyline
 62
7
  6
CONTINUOUS
 90
7
 70
0
 10
10.154287608
 20
15.8138421697
 10
10.1516434686
 20
15.8167340397
 10
10.1448757563
 20
15.8194903361
 10
10.1340927233
 20
15.8221110591
 10
10.1194703267
 20
15.8246352167
 10
10.101248281
 20
15.8270238009
 10
10.1
 20
15.8271476826
  0
LWPOLYLINE
  5
492
100
AcDbEntity
  8
ASSI
100
AcDbPolyline
 62
7
  6
CONTINUOUS
 90
11
 70
0
 10
10.1630151405
 20
18.6494830795
 10
10.1620075364
 20
18.6510870782
 10
10.1596376815
 20
18.6526983141
 10
10.1559209235
 20
18.654299363
 10
10.1508843214
 20
18.6558635554
 10
10.1445552974
 20
18.6573836847
 10
10.1369515019
 20
18.6588714973
 10
10.128090481
 20
18.6603138439
 10
10.1180276697
 20
18.6616906117
 10
10.1068505746
 20
18.6630043746
 10
10.1
 20
18.6636984805
  0
LWPOLYLINE
  5
493
100
AcDbEntity
  8
ASSI
100
AcDbPolyline
 62
7
  6
CONTINUOUS
 90
10
 70
0
 10
10.154287608
 20
15.8138421697
 10
10.1532802957
 20
15.8154744816
 10
10.1509110828
 20
15.8170796755
 10
10.1471953416
 20
15.8186577511
 10
10.1421601607
 20
15.8202159343
 10
10.1358329597
 20
15.8217469993
 10
10.128231389
 20
15.8232292693
 10
10.1193730845
 20
15.824664499
 10
10.1093134685
 20
15.8260509337
 10
10.1
 20
15.8271434332
  0
LINE
  5
494
100
AcDbEntity
  8
ASSI
100
AcDbLine
 62
250
  6
CONTINUOUS
 10
9.6766887273
 20
19.7900697816
 11
9.9130532167
 21
19.2831844984
  0
LINE
  5
495
100
AcDbEntity
  8
RACCORDO
100
AcDbLine
 62
250
  6
CONTINUOUS
 10
9.6766887273
 20
19.7900697816
 11
9.9130532167
 21
19.2831844984
  0
LINE
  5
496
100
AcDbEntity
  8
ASSI
100
AcDbLine
 62
250
  6
CONTINUOUS
 10
9.9021436407
 20
19.8980404593
 11
10.1630151405
 21
19.3385997228
  0
LINE
  5
497
100
AcDbEntity
  8
RACCORDO
100
AcDbLine
 62
250
  6
CONTINUOUS
 10
9.9021436407
 20
19.8980404593
 11
10.1630151405
 21
19.3385997228
  0
LINE
  5
498
100
AcDbEntity
  8
ASSI
100
AcDbLine
 62
7
  6
CONTINUOUS
 10
9.9506158332
 20
20.0234989354
 11
10.259966909
 21
19.3600934124
  0
LINE
  5
499
100
AcDbEntity
  8
DRAFT
100
AcDbLine
 62
7
  6
CONTINUOUS
 10
9.9506158332
 20
20.0234989354
 11
10.259966909
 21
19.3600934124
  0
LWPOLYLINE
  5
49A
100
AcDbEntity
  8
0
100
AcDbPolyline
 62
250
  6
CONTINUOUS
 90
10
 70
0
 10
-7.3
 20
19.1121977732
 10
-7.3868240709
 20
19.1046062802
 10
-7.4710100412
 20
19.0820624635
 10
-7.5499999629
 20
19.0452513033
 10
-7.6213937664
 20
18.9952912867
 10
-7.683022187
 20
18.9337004212
 10
-7.7330126765
 20
18.8623501103
 10
-7.7698462966
 20
18.7834082945
 10
-7.7924038724
 20
18.6992735807
 10
-7.8
 20
18.6125023597
  0
LWPOLYLINE
  5
49B
100
AcDbEntity
  8
0
100
AcDbPolyline
 62
250
  6
CONTINUOUS
 90
22
 70
0
 10
-1.4376353112
 20
19.6118931867
 10
-1.4152561524
 20
19.6128097193
 10
-1.3933821701
 20
19.6152305498
 10
-1.3720133642
 20
19.6191556784
 10
-1.3511231831
 20
19.6246032756
 10
-1.3307381785
 20
19.6315551708
 10
-1.3109380052
 20
19.6399568521
 10
-1.2916218163
 20
19.6498577558
 10
-1.2728904587
 20
19.6612084455
 10
-1.2551261278
 20
19.6738061006
 10
-1.2383724167
 20
19.6876681903
 10
-1.2225857324
 20
19.7027772453
 10
-1.2080174911
 20
19.7188780372
 10
-1.1947258602
 20
19.7358587565
 10
-1.1826526724
 20
19.7538312127
 10
-1.171874841
 20
19.7728756051
 10
-1.1622974894
 20
19.7929483921
 10
-1.1540154943
 20
19.8140931154
 10
-1.1473903997
 20
19.8365205989
 10
-1.1425427203
 20
19.8603011173
 10
-1.1393519414
 20
19.8853643959
 10
-1.1378180631
 20
19.9117104348
  0
LWPOLYLINE
  5
49C
100
AcDbEntity
  8
0
100
AcDbPolyline
 62
250
  6
CONTINUOUS
 90
22
 70
0
 10
-1.4376353112
 20
19.1121977732
 10
-1.3784785484
 20
19.1144332636
 10
-1.3200859607
 20
19.120972302
 10
-1.2627617547
 20
19.1316827102
 10
-1.2070068019
 20
19.1463477201
 10
-1.152865347
 20
19.1648318166
 10
-1.0999758163
 20
19.1872342046
 10
-1.0483619557
 20
19.2136338375
 10
-0.9986038475
 20
19.2438266182
 10
-0.951188661
 20
19.2775433823
 10
-0.9064154441
 20
19.3145566811
 10
-0.864460239
 20
19.354705117
 10
-0.8255697597
 20
19.3977393434
 10
-0.7901461979
 20
19.4431353597
 10
-0.758114086
 20
19.490904325
 10
-0.7291531728
 20
19.5416966684
 10
-0.703637395
 20
19.5952566686
 10
-0.6818485121
 20
19.6514620054
 10
-0.6637818655
 20
19.7113372071
 10
-0.649980208
 20
19.7750978238
 10
-0.6412174496
 20
19.8420233636
 10
-0.6381226496
 20
19.9117104348
  0
LINE
  5
49D
100
AcDbEntity
  8
0
100
AcDbLine
 62
7
  6
CONTINUOUS
 10
2.4057426494
 20
18.8357143356
 11
1.1611518736
 21
18.8357143356
  0
LINE
  5
49E
100
AcDbEntity
  8
0
100
AcDbLine
 62
7
  6
CONTINUOUS
 10
-1.1611518736
 20
18.8357143356
 11
-2.4057426494
 21
18.8357143356
  0
LINE
  5
49F
100
AcDbEntity
  8
0
100
AcDbLine
 62
7
  6
CONTINUOUS
 10
7.3
 20
18.9823815674
 11
6.9
 21
18.9823815674
  0
LINE
  5
4A0
100
AcDbEntity
  8
0
100
AcDbLine
 62
7
  6
CONTINUOUS
 10
-6.9
 20
18.9823815674
 11
-7.3
 21
18.9823815674
  0
LINE
  5
4A1
100
AcDbEntity
  8
0
100
AcDbLine
 62
7
  6
CONTINUOUS
 10
6.9
 20
19.0242864908
 11
2.5
 21
19.0242864908
  0
LINE
  5
4A2
100
AcDbEntity
  8
0
100
AcDbLine
 62
7
  6
CONTINUOUS
 10
-2.5
 20
19.0242864908
 11
-6.9
 21
19.0242864908
  0
LINE
  5
4A3
100
AcDbEntity
  8
0
100
AcDbLine
 62
250
  6
CONTINUOUS
 10
-7.3
 20
19.1121977732
 11
-1.4376353112
 21
19.1121977732
  0
LINE
  5
4A4
100
AcDbEntity
  8
0
100
AcDbLine
 62
250
  6
CONTINUOUS
 10
1.4376353112
 20
19.1121977732
 11
7.3
 21
19.1121977732
  0
LINE
  5
4A5
100
AcDbEntity
  8
0
100
AcDbLine
 62
250
  6
CONTINUOUS
 10
-7.3
 20
19.6118931867
 11
-1.4376353112
 21
19.6118931867
  0
LINE
  5
4A6
100
AcDbEntity
  8
0
100
AcDbLine
 62
250
  6
CONTINUOUS
 10
1.4376353112
 20
19.6118931867
 11
7.3
 21
19.6118931867
  0
LINE
  5
4A7
100
AcDbEntity
  8
0
100
AcDbLine
 62
250
  6
CONTINUOUS
 10
0.6381226496
 20
19.9117104348
 11
1.1378180631
 21
19.9117104348
  0
LINE
  5
4A8
100
AcDbEntity
  8
0
100
AcDbLine
 62
250
  6
CONTINUOUS
 10
-0.6381226496
 20
19.9117104348
 11
-1.1378180631
 21
19.9117104348
  0
LINE
  5
4A9
100
AcDbEntity
  8
0
100
AcDbLine
 62
250
  6
CONTINUOUS
 10
0.361639212
 20
20.2233583289
 11
-0.361639212
 21
20.2233583289
  0
LINE
  5
4AA
100
AcDbEntity
  8
0
100
AcDbLine
 62
250
  6
CONTINUOUS
 10
0.3953412642
 20
21.2227491559
 11
-0.3953412642
 21
21.2227491559
  0
LINE
  5
4AB
100
AcDbEntity
  8
0
100
AcDbLine
 62
7
  6
CONTINUOUS
 10
0.5083064438
 20
21.3357143356
 11
-0.5083064438
 21
21.3357143356
  0
LWPOLYLINE
  5
4AC
100
AcDbEntity
  8
0
100
AcDbPolyline
 62
250
  6
CONTINUOUS
 90
10
 70
0
 10
7.3
 20
19.1121977732
 10
7.3868240709
 20
19.1046062802
 10
7.4710100411
 20
19.0820624635
 10
7.5499999628
 20
19.0452513034
 10
7.6213937663
 20
18.9952912868
 10
7.6830221869
 20
18.9337004213
 10
7.7330126765
 20
18.8623501104
 10
7.7698462966
 20
18.7834082946
 10
7.7924038724
 20
18.6992735808
 10
7.8
 20
18.6125023597
  0
LWPOLYLINE
  5
4AD
100
AcDbEntity
  8
0
100
AcDbPolyline
 62
7
  6
CONTINUOUS
 90
10
 70
0
 10
7.3
 20
19.6118931867
 10
7.3919044935
 20
19.5241589879
 10
7.4759489005
 20
19.4341710737
 10
7.5521332208
 20
19.3419294441
 10
7.6220936516
 20
19.2472594272
 10
7.6841939958
 20
19.1503356948
 10
7.7335256619
 20
19.0516822627
 10
7.7684524527
 20
18.9514738026
 10
7.7906105654
 20
18.8495356427
 10
7.8
 20
18.7458677829
  0
LWPOLYLINE
  5
4AE
100
AcDbEntity
  8
RACCORDO
100
AcDbPolyline
 62
7
  6
CONTINUOUS
 90
7
 70
0
 10
10.1630151405
 20
18.6494830795
 10
10.1603718814
 20
18.6522269155
 10
10.1536064077
 20
18.65501347
 10
10.1428256237
 20
18.6577508654
 10
10.1282035681
 20
18.6603115506
 10
10.1099792113
 20
18.6626493079
 10
10.1
 20
18.6636466476
  0
LINE
  5
4AF
100
AcDbEntity
  8
0
100
AcDbLine
 62
250
  6
CONTINUOUS
 10
0.5083064438
 20
24.2233583289
 11
-0.5083064438
 21
24.2233583289
  0
LINE
  5
4B0
100
AcDbEntity
  8
0
100
AcDbLine
 62
250
  6
CONTINUOUS
 10
0.542008496
 20
25.2227491559
 11
-0.542008496
 21
25.2227491559
  0
LINE
  5
4B1
100
AcDbEntity
  8
0
100
AcDbLine
 62
250
  6
CONTINUOUS
 10
0.6381226496
 20
25.3188633095
 11
-0.6381226496
 21
25.3188633095
  0
LINE
  5
4B2
100
AcDbEntity
  8
0
100
AcDbLine
 62
7
  6
CONTINUOUS
 10
9.6766887273
 20
25.5857143356
 11
8.75
 21
25.5857143356
  0
LINE
  5
4B3
100
AcDbEntity
  8
0
100
AcDbLine
 62
7
  6
CONTINUOUS
 10
-8.75
 20
25.5857143356
 11
-9.6766887273
 21
25.5857143356
  0
LINE
  5
4B4
100
AcDbEntity
  8
0
100
AcDbLine
 62
250
  6
CONTINUOUS
 10
-9.741577054
 20
25.7155305413
 11
-8.8148883267
 21
25.7155305413
  0
LINE
  5
4B5
100
AcDbEntity
  8
0
100
AcDbLine
 62
250
  6
CONTINUOUS
 10
8.8148883267
 20
25.7155305413
 11
9.741577054
 21
25.7155305413
  0
LINE
  5
4B6
100
AcDbEntity
  8
0
100
AcDbLine
 62
250
  6
CONTINUOUS
 10
1.1378180631
 20
25.818558723
 11
-1.1378180631
 21
25.818558723
  0
LINE
  5
4B7
100
AcDbEntity
  8
0
100
AcDbLine
 62
250
  6
CONTINUOUS
 10
-9.75
 20
26.2152259548
 11
-8.8233112727
 21
26.2152259548
  0
LINE
  5
4B8
100
AcDbEntity
  8
0
100
AcDbLine
 62
250
  6
CONTINUOUS
 10
8.8233112727
 20
26.2152259548
 11
9.75
 21
26.2152259548
  0
LINE
  5
4B9
100
AcDbEntity
  8
0
100
AcDbLine
 62
7
  6
CONTINUOUS
 10
-9.75
 20
28.8917546568
 11
-8.8233112727
 21
28.8917546568
  0
LINE
  5
4BA
100
AcDbEntity
  8
0
100
AcDbLine
 62
7
  6
CONTINUOUS
 10
8.8233112727
 20
28.8917546568
 11
9.75
 21
28.8917546568
  0
LINE
  5
4BB
100
AcDbEntity
  8
0
100
AcDbLine
 62
7
  6
CONTINUOUS
 10
9.7307994286
 20
29.0857143356
 11
8.8041107013
 21
29.0857143356
  0
LINE
  5
4BC
100
AcDbEntity
  8
0
100
AcDbLine
 62
7
  6
CONTINUOUS
 10
-8.8041107013
 20
29.0857143356
 11
-9.7307994286
 21
29.0857143356
  0
LINE
  5
4BD
100
AcDbEntity
  8
0
100
AcDbLine
 62
7
  6
CONTINUOUS
 10
3.0254347149
 20
32.4857143356
 11
4.3316524976
 21
32.8357143356
  0
LINE
  5
4BE
100
AcDbEntity
  8
0
100
AcDbLine
 62
7
  6
CONTINUOUS
 10
3.0157831028
 20
32.5590256083
 11
4.3220008854
 21
32.9090256083
  0
LINE
  5
4BF
100
AcDbEntity
  8
0
100
AcDbLine
 62
7
  6
CONTINUOUS
 10
3.0209293968
 20
33.5197833196
 11
4.0728528206
 21
33.8016453515
  0
LINE
  5
4C0
100
AcDbEntity
  8
ASSI
100
AcDbLine
 62
7
  6
CONTINUOUS
 10
9.9506158332
 20
29.3357143356
 11
9.35
 21
29.3357143356
  0
LINE
  5
4C1
100
AcDbEntity
  8
0
100
AcDbLine
 62
7
  6
CONTINUOUS
 10
9.9506158332
 20
29.3357143356
 11
9.35
 21
29.3357143356
  0
LINE
  5
4C2
100
AcDbEntity
  8
ASSI
100
AcDbLine
 62
7
  6
CONTINUOUS
 10
-9.35
 20
29.3357143356
 11
-9.9506158332
 21
29.3357143356
  0
LINE
  5
4C3
100
AcDbEntity
  8
0
100
AcDbLine
 62
7
  6
CONTINUOUS
 10
-9.35
 20
29.3357143356
 11
-9.9506158332
 21
29.3357143356
  0
LINE
  5
4C4
100
AcDbEntity
  8
ASSI
100
AcDbLine
 62
7
  6
CONTINUOUS
 10
9.9506158332
 20
31.3357143356
 11
9.35
 21
31.3357143356
  0
LINE
  5
4C5
100
AcDbEntity
  8
0
100
AcDbLine
 62
7
  6
CONTINUOUS
 10
9.9506158332
 20
31.3357143356
 11
9.35
 21
31.3357143356
  0
LINE
  5
4C6
100
AcDbEntity
  8
ASSI
100
AcDbLine
 62
7
  6
CONTINUOUS
 10
-9.35
 20
31.3357143356
 11
-9.9506158332
 21
31.3357143356
  0
LINE
  5
4C7
100
AcDbEntity
  8
0
100
AcDbLine
 62
7
  6
CONTINUOUS
 10
-9.35
 20
31.3357143356
 11
-9.9506158332
 21
31.3357143356
  0
LINE
  5
4C8
100
AcDbEntity
  8
0
100
AcDbLine
 62
7
  6
CONTINUOUS
 10
-9.7307994286
 20
31.5857143356
 11
-8.8041107013
 21
31.5857143356
  0
LINE
  5
4C9
100
AcDbEntity
  8
0
100
AcDbLine
 62
7
  6
CONTINUOUS
 10
8.8041107013
 20
31.5857143356
 11
9.7307994286
 21
31.5857143356
  0
LINE
  5
4CA
100
AcDbEntity
  8
0
100
AcDbLine
 62
7
  6
CONTINUOUS
 10
-9.75
 20
31.7796740144
 11
-8.8233112727
 21
31.7796740144
  0
LINE
  5
4CB
100
AcDbEntity
  8
0
100
AcDbLine
 62
7
  6
CONTINUOUS
 10
8.8233112727
 20
31.7796740144
 11
9.75
 21
31.7796740144
  0
LINE
  5
4CC
100
AcDbEntity
  8
0
100
AcDbLine
 62
7
  6
CONTINUOUS
 10
-4.3316524976
 20
32.8357143356
 11
-3.0254347149
 21
32.4857143356
  0
LINE
  5
4CD
100
AcDbEntity
  8
0
100
AcDbLine
 62
7
  6
CONTINUOUS
 10
-4.3220008854
 20
32.9090256083
 11
-3.0157831028
 21
32.5590256083
  0
LINE
  5
4CE
100
AcDbEntity
  8
0
100
AcDbLine
 62
7
  6
CONTINUOUS
 10
-4.0728528206
 20
33.8016453515
 11
-3.0209293968
 21
33.5197833196
  0
LINE
  5
4CF
100
AcDbEntity
  8
0
100
AcDbLine
 62
7
  6
CONTINUOUS
 10
-3.0254347149
 20
32.4857143356
 11
3.0254347149
 21
32.4857143356
  0
LINE
  5
4D0
100
AcDbEntity
  8
0
100
AcDbLine
 62
7
  6
CONTINUOUS
 10
-3.0157831028
 20
32.5590256083
 11
3.0157831028
 21
32.5590256083
  0
LINE
  5
4D1
100
AcDbEntity
  8
0
100
AcDbLine
 62
7
  6
CONTINUOUS
 10
8.75
 20
32.8357143356
 11
4.3316524976
 21
32.8357143356
  0
LINE
  5
4D2
100
AcDbEntity
  8
0
100
AcDbLine
 62
7
  6
CONTINUOUS
 10
-4.3316524976
 20
32.8357143356
 11
-8.75
 21
32.8357143356
  0
LINE
  5
4D3
100
AcDbEntity
  8
0
100
AcDbLine
 62
7
  6
CONTINUOUS
 10
8.8233112727
 20
32.9090256083
 11
4.3220008854
 21
32.9090256083
  0
LINE
  5
4D4
100
AcDbEntity
  8
0
100
AcDbLine
 62
7
  6
CONTINUOUS
 10
-4.3220008854
 20
32.9090256083
 11
-8.8233112727
 21
32.9090256083
  0
LINE
  5
4D5
100
AcDbEntity
  8
0
100
AcDbLine
 62
7
  6
CONTINUOUS
 10
-2.7621497711
 20
33.4857143356
 11
2.7621497711
 21
33.4857143356
  0
LINE
  5
4D6
100
AcDbEntity
  8
RACCORDO
100
AcDbLine
 62
7
  6
CONTINUOUS
 10
8.9501218439
 20
33.8357143356
 11
7.6830127019
 21
33.8357143356
  0
LINE
  5
4D7
100
AcDbEntity
  8
0
100
AcDbLine
 62
7
  6
CONTINUOUS
 10
6.8169872981
 20
33.8357143356
 11
4.3316324463
 21
33.8357143356
  0
LINE
  5
4D8
100
AcDbEntity
  8
0
100
AcDbLine
 62
7
  6
CONTINUOUS
 10
-4.3316324463
 20
33.8357143356
 11
-6.8169872981
 21
33.8357143356
  0
LINE
  5
4D9
100
AcDbEntity
  8
RACCORDO
100
AcDbLine
 62
7
  6
CONTINUOUS
 10
-7.6830127019
 20
33.8357143356
 11
-8.9501218439
 21
33.8357143356
  0
LINE
  5
4DA
100
AcDbEntity
  8
ASSI
100
AcDbLine
 62
250
  6
CONTINUOUS
 10
9.6521721974
 20
33.8878884368
 11
9.9021626781
 21
33.8878884368
  0
LINE
  5
4DB
100
AcDbEntity
  8
RACCORDO
100
AcDbLine
 62
250
  6
CONTINUOUS
 10
9.6521721974
 20
33.8878884368
 11
9.9021626781
 21
33.8878884368
  0
LINE
  5
4DC
100
AcDbEntity
  8
ASSI
100
AcDbLine
 62
250
  6
CONTINUOUS
 10
-9.6521721974
 20
33.8878884368
 11
-9.9021626781
 21
33.8878884368
  0
LINE
  5
4DD
100
AcDbEntity
  8
RACCORDO
100
AcDbLine
 62
250
  6
CONTINUOUS
 10
-9.6521721974
 20
33.8878884368
 11
-9.9021626781
 21
33.8878884368
  0
LINE
  5
4DE
100
AcDbEntity
  8
ASSI
100
AcDbLine
 62
250
  6
CONTINUOUS
 10
-9.6021741012
 20
33.9378865329
 11
-7.6009966105
 21
33.9378865329
  0
LINE
  5
4DF
100
AcDbEntity
  8
RACCORDO
100
AcDbLine
 62
250
  6
CONTINUOUS
 10
-9.6021741012
 20
33.9378865329
 11
-7.6009966105
 21
33.9378865329
  0
LINE
  5
4E0
100
AcDbEntity
  8
ASSI
100
AcDbLine
 62
250
  6
CONTINUOUS
 10
-6.8990033895
 20
33.9378865329
 11
6.8990033895
 21
33.9378865329
  0
LINE
  5
4E1
100
AcDbEntity
  8
RACCORDO
100
AcDbLine
 62
250
  6
CONTINUOUS
 10
-6.8990033895
 20
33.9378865329
 11
6.8990033895
 21
33.9378865329
  0
LINE
  5
4E2
100
AcDbEntity
  8
ASSI
100
AcDbLine
 62
250
  6
CONTINUOUS
 10
7.6009966105
 20
33.9378865329
 11
9.6021741012
 21
33.9378865329
  0
LINE
  5
4E3
100
AcDbEntity
  8
RACCORDO
100
AcDbLine
 62
250
  6
CONTINUOUS
 10
7.6009966105
 20
33.9378865329
 11
9.6021741012
 21
33.9378865329
  0
LINE
  5
4E4
100
AcDbEntity
  8
ASSI
100
AcDbLine
 62
7
  6
CONTINUOUS
 10
-9.6021741012
 20
34.1878770137
 11
9.6021773948
 21
34.1878770137
  0
LINE
  5
4E5
100
AcDbEntity
  8
RACCORDO
100
AcDbLine
 62
7
  6
CONTINUOUS
 10
-9.6021741012
 20
34.1878770137
 11
9.6021773948
 21
34.1878770137
  0
LINE
  5
4E6
100
AcDbEntity
  8
ASSI
100
AcDbLine
 62
7
  6
CONTINUOUS
 10
9.6506272563
 20
34.2363301688
 11
-9.6506272563
 21
34.2363301688
  0
LINE
  5
4E7
100
AcDbEntity
  8
RACCORDO
100
AcDbLine
 62
7
  6
CONTINUOUS
 10
9.6506272563
 20
34.2363301688
 11
-9.6506272563
 21
34.2363301688
  0
LWPOLYLINE
  5
4E8
100
AcDbEntity
  8
RACCORDO
100
AcDbPolyline
 62
250
  6
CONTINUOUS
 90
22
 70
0
 10
9.6021741012
 20
33.9378865329
 10
9.6047496873
 20
33.9378472649
 10
9.6074002469
 20
33.9376351474
 10
9.6101257799
 20
33.9372501806
 10
9.6129369486
 20
33.9367097626
 10
9.6158230908
 20
33.9359964952
 10
9.6187522194
 20
33.9350581834
 10
9.6217335501
 20
33.9338951538
 10
9.6247578672
 20
33.9325070798
 10
9.6277655369
 20
33.9308407867
 10
9.630768122
 20
33.9288926777
 10
9.6337540596
 20
33.9266663495
 10
9.6366290268
 20
33.9241194173
 10
9.6394082793
 20
33.9212334825
 10
9.6420765614
 20
33.9180269437
 10
9.6444937823
 20
33.9145126115
 10
9.6466603725
 20
33.9106614282
 10
9.6485759016
 20
33.9065024515
 10
9.6500989869
 20
33.9021356656
 10
9.6511825008
 20
33.8975943985
 10
9.651873571
 20
33.8928453223
 10
9.6521721974
 20
33.8878884368
  0
LWPOLYLINE
  5
4E9
100
AcDbEntity
  8
RACCORDO
100
AcDbPolyline
 62
250
  6
CONTINUOUS
 90
22
 70
0
 10
9.6021773946
 20
34.1878770135
 10
9.6175094158
 20
34.1874838245
 10
9.6334180691
 20
34.1862435788
 10
9.6498505666
 20
34.1840612469
 10
9.6667161528
 20
34.1808476696
 10
9.6839670445
 20
34.1765060536
 10
9.7015937543
 20
34.1709174002
 10
9.7194900876
 20
34.1639791924
 10
9.7375337934
 20
34.1555943149
 10
9.7556572894
 20
34.1456309318
 10
9.7736963153
 20
34.1339942958
 10
9.791466929
 20
34.1206027916
 10
9.8088255036
 20
34.1053346057
 10
9.8255721804
 20
34.0880907351
 10
9.8414087342
 20
34.0688708245
 10
9.856018016
 20
34.0477365723
 10
9.8691487762
 20
34.0246845176
 10
9.8804871525
 20
33.999831005
 10
9.8896792075
 20
33.9735091238
 10
9.8964830037
 20
33.9459683817
 10
9.9007108918
 20
33.9173472869
 10
9.9021626781
 20
33.8878884368
  0
LWPOLYLINE
  5
4EA
100
AcDbEntity
  8
ASSI
100
AcDbPolyline
 62
250
  6
CONTINUOUS
 90
22
 70
0
 10
9.6021773946
 20
34.1878770135
 10
9.6245865307
 20
34.1870372048
 10
9.6468716139
 20
34.1845256197
 10
9.6689080776
 20
34.180356024
 10
9.6905727486
 20
34.1745514442
 10
9.711744422
 20
34.1671440676
 10
9.7323045489
 20
34.1581750927
 10
9.7521381918
 20
34.147694374
 10
9.7711342231
 20
34.1357603408
 10
9.789185905
 20
34.1224398203
 10
9.8061921902
 20
34.1078072069
 10
9.8220578987
 20
34.0919442174
 10
9.8366939345
 20
34.0749398037
 10
9.8500183532
 20
34.0568891181
 10
9.8619566595
 20
34.0378930236
 10
9.8724419826
 20
34.0180578738
 10
9.8814156526
 20
33.997494634
 10
9.8888274854
 20
33.9763182822
 10
9.8946360077
 20
33.9546472996
 10
9.8988087274
 20
33.9326029078
 10
9.9013223051
 20
33.9103083886
 10
9.9021626781
 20
33.8878884368
  0
LWPOLYLINE
  5
4EB
100
AcDbEntity
  8
ASSI
100
AcDbPolyline
 62
250
  6
CONTINUOUS
 90
16
 70
0
 10
9.6021741012
 20
33.9378865329
 10
9.6075014276
 20
33.9375884953
 10
9.6126622052
 20
33.9367693321
 10
9.6176564339
 20
33.9354290433
 10
9.6225368469
 20
33.9335407418
 10
9.627250711
 20
33.9311313146
 10
9.6316398272
 20
33.9282814228
 10
9.6356905968
 20
33.9249783982
 10
9.6394166185
 20
33.9212349089
 10
9.6427004893
 20
33.9171696201
 10
9.6455294284
 20
33.9127616794
 10
9.6479162167
 20
33.9080319392
 10
9.6497817937
 20
33.9031616225
 10
9.6510998061
 20
33.8982111371
 10
9.6518966074
 20
33.8931200752
 10
9.6521721974
 20
33.8878884368
  0
LINE
  5
4EC
100
AcDbEntity
  8
ASSI
100
AcDbLine
 62
7
  6
CONTINUOUS
 10
10.5001522961
 20
35.1857143356
 11
-10.5001522961
 21
35.1857143356
  0
LINE
  5
4ED
100
AcDbEntity
  8
RACCORDO
100
AcDbLine
 62
7
  6
CONTINUOUS
 10
10.5001522961
 20
35.1857143356
 11
-10.5001522961
 21
35.1857143356
  0
ARC
  5
4EE
100
AcDbEntity
  8
0
100
AcDbCircle
 62
7
  6
CONTINUOUS
 10
2.1
 20
-0.6642856644
 40
3.8
100
AcDbArc
 50
270.0
 51
90.0
  0
ARC
  5
4EF
100
AcDbEntity
  8
0
100
AcDbCircle
 62
7
  6
CONTINUOUS
 10
-2.1
 20
-0.6642856644
 40
3.8
100
AcDbArc
 50
90.0
 51
270.0
  0
ARC
  5
4F0
100
AcDbEntity
  8
0
100
AcDbCircle
 62
7
  6
CONTINUOUS
 10
-0.0
 20
9.5107143356
 40
1.5
100
AcDbArc
 50
219.2187884477
 51
320.7812115523
  0
ARC
  5
4F1
100
AcDbEntity
  8
0
100
AcDbCircle
 62
7
  6
CONTINUOUS
 10
-0.0
 20
17.1607143356
 40
1.5
100
AcDbArc
 50
39.2187884477
 51
140.7812115523
  0
ARC
  5
4F2
100
AcDbEntity
  8
DRAFT
100
AcDbCircle
 62
7
  6
CONTINUOUS
 10
7.25
 20
33.5857143356
 40
0.5
100
AcDbArc
 50
30.0
 51
150.0
  0
ARC
  5
4F3
100
AcDbEntity
  8
DRAFT
100
AcDbCircle
 62
7
  6
CONTINUOUS
 10
-7.25
 20
33.5857143356
 40
0.5
100
AcDbArc
 50
30.0
 51
150.0
  0
ARC
  5
4F4
100
AcDbEntity
  8
DRAFT
100
AcDbCircle
 62
7
  6
CONTINUOUS
 10
-7.25
 20
-6.9142856644
 40
0.5
100
AcDbArc
 50
210.0
 51
330.0
  0
ARC
  5
4F5
100
AcDbEntity
  8
0
100
AcDbCircle
 62
7
  6
CONTINUOUS
 10
7.25
 20
-6.9142856644
 40
0.3777773068
100
AcDbArc
 50
210.0032608293
 51
329.9967391707
  0
ELLIPSE
  5
4F6
100
AcDbEntity
  8
ASSI
100
AcDbEllipse
 62
7
  6
CONTINUOUS
 10
-10.499923836
 20
-8.0141142682
 30
0.0
 11
-0.2774630169
 21
-0.416247366
 31
0.0
 40
0.9995051766
 41
-0.9826238685
 42
0.5877156075
  0
ELLIPSE
  5
4F7
100
AcDbEntity
  8
ASSI
100
AcDbEllipse
 62
7
  6
CONTINUOUS
 10
-10.499923836
 20
34.6855429393
 30
0.0
 11
0.2774630169
 21
-0.416247366
 31
0.0
 40
0.9995051766
 41
2.5538770461
 42
4.1242165221
  0
ELLIPSE
  5
4F8
100
AcDbEntity
  8
ASSI
100
AcDbEllipse
 62
7
  6
CONTINUOUS
 10
10.499923836
 20
-8.0141142682
 30
0.0
 11
0.2774630169
 21
-0.416247366
 31
0.0
 40
0.9995051766
 41
-0.5877156075
 42
0.9826238685
  0
ELLIPSE
  5
4F9
100
AcDbEntity
  8
ASSI
100
AcDbEllipse
 62
7
  6
CONTINUOUS
 10
10.499923836
 20
34.6855429393
 30
0.0
 11
-0.2774630169
 21
-0.416247366
 31
0.0
 40
0.9995051766
 41
2.1589687851
 42
3.7293082611
  0
ELLIPSE
  5
4FA
100
AcDbEntity
  8
ASSI
100
AcDbEllipse
 62
7
  6
CONTINUOUS
 10
-3.2487418928
 20
-7.2664578618
 30
0.0
 11
0.9330506094
 21
0.2499911183
 31
0.0
 40
0.0022585191
 41
1.5792256771
 42
3.1412953577
  0
ELLIPSE
  5
4FB
100
AcDbEntity
  8
ASSI
100
AcDbEllipse
 62
7
  6
CONTINUOUS
 10
3.2487418928
 20
-7.2664578618
 30
0.0
 11
0.9330506094
 21
-0.2499911183
 31
0.0
 40
0.0022585191
 41
0.0002972959
 42
1.5623669765
  0
ELLIPSE
  5
4FC
100
AcDbEntity
  8
ASSI
100
AcDbEllipse
 62
7
  6
CONTINUOUS
 10
2.1
 20
-0.7891424427
 30
0.0
 11
0.0
 21
-6.4030400366
 31
0.0
 40
0.9996953671
 41
0.1136380832
 42
0.2590688231
  0
ELLIPSE
  5
4FD
100
AcDbEntity
  8
ASSI
100
AcDbEllipse
 62
7
  6
CONTINUOUS
 10
-2.1
 20
-0.7891424427
 30
0.0
 11
-0.0
 21
-6.4030400366
 31
0.0
 40
0.9996953671
 41
6.0435254319
 42
6.169547224
  0
ELLIPSE
  5
4FE
100
AcDbEntity
  8
ASSI
100
AcDbEllipse
 62
7
  6
CONTINUOUS
 10
-9.6506044097
 20
-7.2648900741
 30
0.0
 11
0.2121481893
 21
0.2121481893
 31
0.0
 40
0.9999238505
 41
-3.9269527408
 42
-2.3562325664
  0
ELLIPSE
  5
4FF
100
AcDbEntity
  8
ASSI
100
AcDbEllipse
 62
7
  6
CONTINUOUS
 10
9.6506044097
 20
-7.2648900741
 30
0.0
 11
0.2121481893
 21
-0.2121481893
 31
0.0
 40
0.9999238505
 41
-0.7853600872
 42
0.7853600872
  0
ELLIPSE
  5
500
100
AcDbEntity
  8
ASSI
100
AcDbEllipse
 62
7
  6
CONTINUOUS
 10
-9.6506044097
 20
33.9363187452
 30
0.0
 11
0.2121481893
 21
-0.2121481893
 31
0.0
 40
0.9999238505
 41
2.3562325664
 42
3.9269527408
  0
ELLIPSE
  5
501
100
AcDbEntity
  8
ASSI
100
AcDbEllipse
 62
7
  6
CONTINUOUS
 10
9.6506044097
 20
33.9363187452
 30
0.0
 11
0.2121481893
 21
0.2121481893
 31
0.0
 40
0.9999238505
 41
-0.7853600872
 42
0.7853600872
  0
ELLIPSE
  5
502
100
AcDbEntity
  8
RACCORDO
100
AcDbEllipse
 62
7
  6
CONTINUOUS
 10
10.499923836
 20
34.6855429393
 30
0.0
 11
-0.2774630169
 21
-0.416247366
 31
0.0
 40
0.9995051766
 41
8.4421540923
 42
10.0124935683
  0
ELLIPSE
  5
503
100
AcDbEntity
  8
RACCORDO
100
AcDbEllipse
 62
7
  6
CONTINUOUS
 10
10.499923836
 20
-8.0141142682
 30
0.0
 11
0.2774630169
 21
-0.416247366
 31
0.0
 40
0.9995051766
 41
5.6954696996
 42
7.2658091757
  0
ELLIPSE
  5
504
100
AcDbEntity
  8
RACCORDO
100
AcDbEllipse
 62
7
  6
CONTINUOUS
 10
-10.499923836
 20
34.6855429393
 30
0.0
 11
0.2774630169
 21
-0.416247366
 31
0.0
 40
0.9995051766
 41
8.8370623532
 42
10.4074018293
  0
ELLIPSE
  5
505
100
AcDbEntity
  8
RACCORDO
100
AcDbEllipse
 62
7
  6
CONTINUOUS
 10
-10.499923836
 20
-8.0141142682
 30
0.0
 11
-0.2774630169
 21
-0.416247366
 31
0.0
 40
0.9995051766
 41
5.3005614387
 42
6.8709009147
  0
ELLIPSE
  5
506
100
AcDbEntity
  8
DRAFT
100
AcDbEllipse
 62
7
  6
CONTINUOUS
 10
2.1
 20
-0.7891424427
 30
0.0
 11
0.0
 21
-6.4030400366
 31
0.0
 40
0.9996953671
 41
0.1136380832
 42
0.2590688274
  0
ELLIPSE
  5
507
100
AcDbEntity
  8
DRAFT
100
AcDbEllipse
 62
7
  6
CONTINUOUS
 10
-2.1
 20
-0.7891424427
 30
0.0
 11
-0.0
 21
-6.4030400366
 31
0.0
 40
0.9996953671
 41
6.0435254252
 42
6.169547224
  0
ELLIPSE
  5
508
100
AcDbEntity
  8
RACCORDO
100
AcDbEllipse
 62
7
  6
CONTINUOUS
 10
9.6506044097
 20
33.9363187452
 30
0.0
 11
0.2121481893
 21
0.2121481893
 31
0.0
 40
0.9999238505
 41
-0.7853600872
 42
0.7853600872
  0
ELLIPSE
  5
509
100
AcDbEntity
  8
RACCORDO
100
AcDbEllipse
 62
7
  6
CONTINUOUS
 10
-9.6506044097
 20
33.9363187452
 30
0.0
 11
0.2121481893
 21
-0.2121481893
 31
0.0
 40
0.9999238505
 41
2.3562325664
 42
3.9269527408
  0
ELLIPSE
  5
50A
100
AcDbEntity
  8
RACCORDO
100
AcDbEllipse
 62
7
  6
CONTINUOUS
 10
9.6506044097
 20
-7.2648900741
 30
0.0
 11
0.2121481893
 21
-0.2121481893
 31
0.0
 40
0.9999238505
 41
-0.7853600872
 42
0.7853600872
  0
ELLIPSE
  5
50B
100
AcDbEntity
  8
RACCORDO
100
AcDbEllipse
 62
7
  6
CONTINUOUS
 10
-9.6506044097
 20
-7.2648900741
 30
0.0
 11
0.2121481893
 21
0.2121481893
 31
0.0
 40
0.9999238505
 41
-3.9269527408
 42
-2.3562325664
  0
ELLIPSE
  5
50C
100
AcDbEntity
  8
RACCORDO
100
AcDbEllipse
 62
7
  6
CONTINUOUS
 10
-3.2487418928
 20
-7.2664578618
 30
0.0
 11
0.9330506094
 21
0.2499911183
 31
0.0
 40
0.0022585191
 41
1.5792256771
 42
3.1412953577
  0
ELLIPSE
  5
50D
100
AcDbEntity
  8
RACCORDO
100
AcDbEllipse
 62
7
  6
CONTINUOUS
 10
3.2487418928
 20
-7.2664578618
 30
0.0
 11
0.9330506094
 21
-0.2499911183
 31
0.0
 40
0.0022585191
 41
0.0002972959
 42
1.5623669765
  0
ELLIPSE
  5
50E
100
AcDbEntity
  8
RACCORDO
100
AcDbEllipse
 62
7
  6
CONTINUOUS
 10
8.9498781376
 20
-6.364163802
 30
0.0
 11
-0.5658577513
 21
0.5658577513
 31
0.0
 40
0.9996954599
 41
2.3563467834
 42
3.9268385237
  0
ELLIPSE
  5
50F
100
AcDbEntity
  8
0
100
AcDbEllipse
 62
7
  6
CONTINUOUS
 10
-4.331672552
 20
32.8355620075
 30
0.0
 11
0.1305464196
 21
0.9915985036
 31
0.0
 40
0.999845056
 41
-0.1308796426
 42
0.1308796426
  0
ELLIPSE
  5
510
100
AcDbEntity
  8
0
100
AcDbEllipse
 62
7
  6
CONTINUOUS
 10
-2.7621096654
 20
34.4858666636
 30
0.0
 11
-0.1305464196
 21
-0.9915985036
 31
0.0
 40
0.999845056
 41
-0.1308796426
 42
0.1308796426
  0
ELLIPSE
  5
511
100
AcDbEntity
  8
0
100
AcDbEllipse
 62
7
  6
CONTINUOUS
 10
2.7621096654
 20
34.4858666636
 30
0.0
 11
0.1305464196
 21
-0.9915985036
 31
0.0
 40
0.999845056
 41
-0.1308796426
 42
0.1308796426
  0
ELLIPSE
  5
512
100
AcDbEntity
  8
0
100
AcDbEllipse
 62
7
  6
CONTINUOUS
 10
4.331672552
 20
32.8355620075
 30
0.0
 11
-0.1305464196
 21
0.9915985036
 31
0.0
 40
0.999845056
 41
-0.1308796426
 42
0.1308796426
  0
ELLIPSE
  5
513
100
AcDbEntity
  8
RACCORDO
100
AcDbEllipse
 62
7
  6
CONTINUOUS
 10
8.9498781376
 20
33.0355924731
 30
0.0
 11
-0.5658577513
 21
-0.5658577513
 31
0.0
 40
0.9996954599
 41
2.3563467834
 42
3.9268385237
  0
ELLIPSE
  5
514
100
AcDbEntity
  8
RACCORDO
100
AcDbEllipse
 62
7
  6
CONTINUOUS
 10
-8.9498781376
 20
33.0355924731
 30
0.0
 11
0.5658577513
 21
-0.5658577513
 31
0.0
 40
0.9996954599
 41
2.3563467834
 42
3.9268385237
  0
ELLIPSE
  5
515
100
AcDbEntity
  8
0
100
AcDbEllipse
 62
7
  6
CONTINUOUS
 10
-4.331672552
 20
-6.1641333364
 30
0.0
 11
-0.1305464196
 21
0.9915985036
 31
0.0
 40
0.999845056
 41
-3.2724722962
 42
-3.010713011
  0
ELLIPSE
  5
516
100
AcDbEntity
  8
RACCORDO
100
AcDbEllipse
 62
7
  6
CONTINUOUS
 10
-8.9498781376
 20
-6.364163802
 30
0.0
 11
0.5658577513
 21
0.5658577513
 31
0.0
 40
0.9996954599
 41
2.3563467834
 42
3.9268385237
  0
ELLIPSE
  5
517
100
AcDbEntity
  8
0
100
AcDbEllipse
 62
7
  6
CONTINUOUS
 10
-2.7621096654
 20
-7.8144379925
 30
0.0
 11
-0.1305464196
 21
0.9915985036
 31
0.0
 40
0.999845056
 41
-0.1308796426
 42
0.1308796426
  0
ELLIPSE
  5
518
100
AcDbEntity
  8
0
100
AcDbEllipse
 62
7
  6
CONTINUOUS
 10
9.5999809608
 20
7.8357333748
 30
0.0
 11
-0.3535803156
 21
0.3535803156
 31
0.0
 40
0.9999238505
 41
2.5101743064
 42
3.9269527408
  0
ELLIPSE
  5
519
100
AcDbEntity
  8
0
100
AcDbEllipse
 62
7
  6
CONTINUOUS
 10
-9.5999809608
 20
7.8357333748
 30
0.0
 11
0.3535803156
 21
0.3535803156
 31
0.0
 40
0.9999238505
 41
2.3562325664
 42
3.7730110008
  0
ELLIPSE
  5
51A
100
AcDbEntity
  8
0
100
AcDbEllipse
 62
7
  6
CONTINUOUS
 10
-9.5999809608
 20
18.8356952964
 30
0.0
 11
0.3535803156
 21
-0.3535803156
 31
0.0
 40
0.9999238505
 41
2.5101743064
 42
3.9269527408
  0
ELLIPSE
  5
51B
100
AcDbEntity
  8
0
100
AcDbEllipse
 62
7
  6
CONTINUOUS
 10
9.5999809608
 20
18.8356952964
 30
0.0
 11
-0.3535803156
 21
-0.3535803156
 31
0.0
 40
0.9999238505
 41
2.3562325664
 42
3.7730110008
  0
ELLIPSE
  5
51C
100
AcDbEntity
  8
0
100
AcDbEllipse
 62
7
  6
CONTINUOUS
 10
-9.7412724675
 20
0.4562027163
 30
0.0
 11
0.0
 21
0.5
 31
0.0
 40
0.0174550649
 41
0.034906585
 42
1.5707963268
  0
ELLIPSE
  5
51D
100
AcDbEntity
  8
0
100
AcDbEllipse
 62
7
  6
CONTINUOUS
 10
-9.7412724675
 20
26.2152259548
 30
0.0
 11
0.0
 21
0.5
 31
0.0
 40
0.0174550649
 41
-4.7123889804
 42
-3.1764992386
  0
ELLIPSE
  5
51E
100
AcDbEntity
  8
0
100
AcDbEllipse
 62
7
  6
CONTINUOUS
 10
9.7412724675
 20
0.4562027163
 30
0.0
 11
0.0
 21
0.5
 31
0.0
 40
0.0174550649
 41
-1.5707963268
 42
-0.034906585
  0
ELLIPSE
  5
51F
100
AcDbEntity
  8
0
100
AcDbEllipse
 62
7
  6
CONTINUOUS
 10
9.7412724675
 20
26.2152259548
 30
0.0
 11
0.0
 21
0.5
 31
0.0
 40
0.0174550649
 41
-3.1066860685
 42
-1.5707963268
  0
ELLIPSE
  5
520
100
AcDbEntity
  8
0
100
AcDbEllipse
 62
7
  6
CONTINUOUS
 10
8.8145837402
 20
26.2152259548
 30
0.0
 11
0.0
 21
0.5
 31
0.0
 40
0.0174550649
 41
-3.1066860685
 42
-1.5707963268
  0
ELLIPSE
  5
521
100
AcDbEntity
  8
0
100
AcDbEllipse
 62
7
  6
CONTINUOUS
 10
-5.8
 20
17.2669866119
 30
0.0
 11
0.0
 21
0.8000109664
 31
0.0
 40
0.9999862922
 41
0.0
 42
1.5707963268
  0
ELLIPSE
  5
522
100
AcDbEntity
  8
0
100
AcDbEllipse
 62
7
  6
CONTINUOUS
 10
5.8
 20
9.4044420592
 30
0.0
 11
0.0
 21
0.8000109664
 31
0.0
 40
0.9999862922
 41
-3.1415926536
 42
-1.5707963268
  0
ELLIPSE
  5
523
100
AcDbEntity
  8
0
100
AcDbEllipse
 62
7
  6
CONTINUOUS
 10
-5.8
 20
9.4044420592
 30
0.0
 11
0.0
 21
0.8000109664
 31
0.0
 40
0.9999862922
 41
-4.7123889804
 42
-3.1415926536
  0
ELLIPSE
  5
524
100
AcDbEntity
  8
0
100
AcDbEllipse
 62
7
  6
CONTINUOUS
 10
8.8145837402
 20
0.4562027163
 30
0.0
 11
-0.0
 21
0.5
 31
0.0
 40
0.0174550649
 41
-1.5707963268
 42
-0.034906585
  0
ELLIPSE
  5
525
100
AcDbEntity
  8
0
100
AcDbEllipse
 62
7
  6
CONTINUOUS
 10
-1.1378180631
 20
4.0031747203
 30
0.0
 11
0.5
 21
-0.0
 31
0.0
 40
0.0349207695
 41
-1.5707963268
 42
-0.034906585
  0
ELLIPSE
  5
526
100
AcDbEntity
  8
0
100
AcDbEllipse
 62
7
  6
CONTINUOUS
 10
1.1378180631
 20
4.0031747203
 30
0.0
 11
0.5
 21
-0.0
 31
0.0
 40
0.0349207695
 41
-3.1066860685
 42
-1.5707963268
  0
ELLIPSE
  5
527
100
AcDbEntity
  8
0
100
AcDbEllipse
 62
7
  6
CONTINUOUS
 10
-8.8145837402
 20
26.2152259548
 30
0.0
 11
0.0
 21
0.5
 31
0.0
 40
0.0174550649
 41
-4.7123889804
 42
-3.1764992386
  0
ELLIPSE
  5
528
100
AcDbEntity
  8
0
100
AcDbEllipse
 62
7
  6
CONTINUOUS
 10
-8.8145837402
 20
0.4562027163
 30
0.0
 11
-0.0
 21
0.5
 31
0.0
 40
0.0174550649
 41
0.034906585
 42
1.5707963268
  0
ELLIPSE
  5
529
100
AcDbEntity
  8
0
100
AcDbEllipse
 62
7
  6
CONTINUOUS
 10
0.5432272133
 20
24.2233583289
 30
0.0
 11
-0.0
 21
1.0
 31
0.0
 40
0.0349207695
 41
0.034906585
 42
1.5707963268
  0
ELLIPSE
  5
52A
100
AcDbEntity
  8
0
100
AcDbEllipse
 62
7
  6
CONTINUOUS
 10
0.3965599814
 20
20.2233583289
 30
0.0
 11
-0.0
 21
1.0
 31
0.0
 40
0.0349207695
 41
0.034906585
 42
1.5707963268
  0
ELLIPSE
  5
52B
100
AcDbEntity
  8
0
100
AcDbEllipse
 62
7
  6
CONTINUOUS
 10
-7.3
 20
8.1893518759
 30
0.0
 11
0.0
 21
-0.5003047721
 31
0.0
 40
0.999390827
 41
-1.5707963268
 42
0.0
  0
ELLIPSE
  5
52C
100
AcDbEntity
  8
0
100
AcDbEllipse
 62
7
  6
CONTINUOUS
 10
1.1621268474
 20
7.0352267001
 30
0.0
 11
-0.5663748357
 21
0.5663748357
 31
0.0
 40
0.998782766
 41
-0.7847891758
 42
0.7847891758
  0
ELLIPSE
  5
52D
100
AcDbEntity
  8
0
100
AcDbEllipse
 62
7
  6
CONTINUOUS
 10
7.3
 20
18.4820767953
 30
0.0
 11
-0.0
 21
0.5003047721
 31
0.0
 40
0.999390827
 41
-1.5707963268
 42
0.0
  0
ELLIPSE
  5
52E
100
AcDbEntity
  8
0
100
AcDbEllipse
 62
7
  6
CONTINUOUS
 10
-1.1621268474
 20
7.0352267001
 30
0.0
 11
0.5663748357
 21
0.5663748357
 31
0.0
 40
0.998782766
 41
-0.7847891758
 42
0.7847891758
  0
ELLIPSE
  5
52F
100
AcDbEntity
  8
0
100
AcDbEllipse
 62
7
  6
CONTINUOUS
 10
-1.1621268474
 20
19.636201971
 30
0.0
 11
-0.5663748357
 21
0.5663748357
 31
0.0
 40
0.998782766
 41
-3.9263818294
 42
-2.3568034778
  0
ELLIPSE
  5
530
100
AcDbEntity
  8
0
100
AcDbEllipse
 62
7
  6
CONTINUOUS
 10
-7.3
 20
18.4820767953
 30
0.0
 11
0.0
 21
-0.5003047721
 31
0.0
 40
0.999390827
 41
3.1415926536
 42
4.7123889804
  0
ELLIPSE
  5
531
100
AcDbEntity
  8
0
100
AcDbEllipse
 62
7
  6
CONTINUOUS
 10
1.1621268474
 20
19.636201971
 30
0.0
 11
0.5663748357
 21
0.5663748357
 31
0.0
 40
0.998782766
 41
-3.9263818294
 42
-2.3568034778
  0
ELLIPSE
  5
532
100
AcDbEntity
  8
0
100
AcDbEllipse
 62
7
  6
CONTINUOUS
 10
7.3
 20
8.1893518759
 30
0.0
 11
-0.0
 21
0.5003047721
 31
0.0
 40
0.999390827
 41
3.1415926536
 42
4.7123889804
  0
ELLIPSE
  5
533
100
AcDbEntity
  8
0
100
AcDbEllipse
 62
7
  6
CONTINUOUS
 10
-0.3965599814
 20
20.2233583289
 30
0.0
 11
-0.0
 21
1.0
 31
0.0
 40
0.0349207695
 41
-1.5707963268
 42
-0.034906585
  0
ELLIPSE
  5
534
100
AcDbEntity
  8
0
100
AcDbEllipse
 62
7
  6
CONTINUOUS
 10
-0.5432272133
 20
24.2233583289
 30
0.0
 11
-0.0
 21
1.0
 31
0.0
 40
0.0349207695
 41
-1.5707963268
 42
-0.034906585
  0
ELLIPSE
  5
535
100
AcDbEntity
  8
0
100
AcDbEllipse
 62
7
  6
CONTINUOUS
 10
-0.3965599814
 20
6.4480703422
 30
0.0
 11
-0.0
 21
1.0
 31
0.0
 40
0.0349207695
 41
-3.1066860685
 42
-1.5707963268
  0
ELLIPSE
  5
536
100
AcDbEntity
  8
0
100
AcDbEllipse
 62
7
  6
CONTINUOUS
 10
0.3965599814
 20
6.4480703422
 30
0.0
 11
-0.0
 21
1.0
 31
0.0
 40
0.0349207695
 41
1.5707963268
 42
3.1066860685
  0
ELLIPSE
  5
537
100
AcDbEntity
  8
0
100
AcDbEllipse
 62
7
  6
CONTINUOUS
 10
5.8
 20
17.2669866119
 30
0.0
 11
0.0
 21
0.8000109664
 31
0.0
 40
0.9999862922
 41
-1.5707963268
 42
0.0
  0
ENDSEC
  0
SECTION
  2
OBJECTS
  0
DICTIONARY
  5
C
100
AcDbDictionary
280
0
281
1
  3
ACAD_GROUP
350
D
  3
ACAD_MLINESTYLE
350
17
  3
ACAD_LAYOUT
350
1A
  3
ACAD_PLOTSETTINGS
350
19
  3
ACAD_PLOTSTYLENAME
350
E
  0
DICTIONARY
  5
D
102
{ACAD_REACTORS
330
C
102
}
100
AcDbDictionary
280
0
281
1
  0
ACDBDICTIONARYWDFLT
  5
E
102
{ACAD_REACTORS
330
C
102
}
100
AcDbDictionary
281
1
  3
Normal
350
F
100
AcDbDictionaryWithDefault
340
F
  0
DICTIONARY
  5
17
102
{ACAD_REACTORS
330
C
102
}
100
AcDbDictionary
280
0
281
1
  3
Standard
350
18
  0
DICTIONARY
  5
19
102
{ACAD_REACTORS
330
C
102
}
100
AcDbDictionary
281
1
  0
DICTIONARY
  5
1A
102
{ACAD_REACTORS
330
C
102
}
100
AcDbDictionary
281
1
  3
Model
350
538
  3
Layout1
350
539
  0
ACDBPLACEHOLDER
  5
F
102
{ACAD_REACTORS
330
E
102
}
  0
MLINESTYLE
  5
18
102
{ACAD_REACTORS
330
17
102
}
100
AcDbMlineStyle
  2
STANDARD
 70
0
  3

 62
256
 51
90.0
 52
90.0
 71
2
 49
0.5
 62
256
  6
BYLAYER
 49
-0.5
 62
256
  6
BYLAYER
  0
LAYOUT
  5
538
102
{ACAD_REACTORS
330
1A
102
}
100
AcDbPlotSettings
  1

  2
none_device
  4
ISO_A4_(297.00_x_210.00_MM)
  6

 40
0.0
 41
0.0
 42
0.0
 43
0.0
 44
297.0
 45
210.0
 46
0.0
 47
0.0
 48
0.0
 49
0.0
140
0.0
141
0.0
142
1.0
143
1.0
 70
1024
 72
1
 73
0
 74
0
  7

 75
0
147
1.0
148
0.0
149
0.0
100
AcDbLayout
  1
Model
 70
0
 71
0
 10
0.0
 20
0.0
 11
297.0
 21
210.0
 12
0.0
 22
0.0
 32
0.0
 14
0.0
 24
0.0
 34
0.0
 15
0.0
 25
0.0
 35
0.0
146
0.0
 13
0.0
 23
0.0
 33
0.0
 16
1.0
 26
0.0
 36
0.0
 17
0.0
 27
1.0
 37
0.0
 76
0
330
215
345
0
346
0
  0
LAYOUT
  5
539
102
{ACAD_REACTORS
330
1A
102
}
100
AcDbPlotSettings
  1

  2
none_device
  4
ISO_A4_(297.00_x_210.00_MM)
  6

 40
0.0
 41
0.0
 42
0.0
 43
0.0
 44
297.0
 45
210.0
 46
0.0
 47
0.0
 48
0.0
 49
0.0
140
0.0
141
0.0
142
1.0
143
1.0
 70
0
 72
1
 73
0
 74
0
  7

 75
0
147
1.0
148
0.0
149
0.0
100
AcDbLayout
  1
Layout1
 70
0
 71
1
 10
0.0
 20
0.0
 11
297.0
 21
210.0
 12
0.0
 22
0.0
 32
0.0
 14
0.0
 24
0.0
 34
0.0
 15
0.0
 25
0.0
 35
0.0
146
0.0
 13
0.0
 23
0.0
 33
0.0
 16
1.0
 26
0.0
 36
0.0
 17
0.0
 27
1.0
 37
0.0
 76
0
330
216
345
0
346
0
  0
ENDSEC
  0
EOF
