  0
SECTION
  2
HEADER
  9
$ACADVER
  1
AC1024
  9
$DWGCODEPAGE
  3
ANSI_1252
  9
$EXTMAX
 10
297.0
 20
210.0
 30
0.0
  9
$EXTMIN
 10
0.0
 20
0.0
 30
0.0
  9
$LIMMIN
 10
0.0
 20
0.0
  9
$LIMMAX
 10
297.0
 20
210.0
  9
$VIEWCTR
 10
148.5
 20
105.0
  9
$VIEWSIZE
 40
210.0
  9
$CLAYER
  8
0
  9
$LTSCALE
 40
16.335
  9
$CELTYPE
  6
BYLAYER
  9
$DIMSCALE
 40
1.0
  9
$DIMASZ
 40
3.0
  9
$DIMEXO
 40
0.5
  9
$DIMDLI
 40
11.286
  9
$DIMEXE
 40
1.5
  9
$DIMCEN
 40
2.673
  9
$DIMLFAC
 40
1.0
  9
$DIMBLK
  1
_FILLED
  9
$DIMALT
 70
0
  9
$DIMALTF
 40
0.0393700787
  9
$DIMTXT
 40
3.0
  9
$DIMTOL
 70
1
  9
$DIMLIM
 70
0
  9
$DIMTFAC
 40
1.0
  9
$DIMTP
 40
0.01
  9
$DIMTM
 40
0.01
  9
$DIMGAP
 40
0.625
  9
$DIMDSEP
 70
44
  9
$AUNITS
 70
0
  9
$PDMODE
 70
3
  9
$PDSIZE
 40
3.0
  9
$HANDSEED
  5
474
  9
$TILEMODE
 70
1
  9
$MEASUREMENT
 70
1
  9
$INSUNITS
 70
4
  0
ENDSEC
  0
SECTION
  2
CLASSES
  0
CLASS
  1
ACDBDICTIONARYWDFLT
  2
AcDbDictionaryWithDefault
  3
AutoCAD 2000
 90
0
 91
1
280
0
281
0
  0
CLASS
  1
ACDBPLACEHOLDER
  2
AcDbPlaceHolder
  3
AutoCAD 2000
 90
0
 91
1
280
0
281
0
  0
CLASS
  1
LAYOUT
  2
AcDbLayout
  3
AutoCAD 2000
 90
0
 91
0
280
0
281
0
  0
ENDSEC
  0
SECTION
  2
TABLES
  0
TABLE
  2
VPORT
  5
8
100
AcDbSymbolTable
 70
2
  0
VPORT
  5
1F4
100
AcDbSymbolTableRecord
100
AcDbViewportTableRecord
  2
*ACTIVE
 70
0
 10
0.0
 20
0.0
 11
1.0
 21
1.0
 12
148.5
 22
105.0
 13
0.0
 23
0.0
 14
1.0
 24
1.0
 15
0.0
 25
0.0
 16
0.0
 26
0.0
 36
1.0
 17
0.0
 27
0.0
 37
0.0
 40
210.0
 41
1.4142857143
 42
50.0
 43
0.0
 44
0.0
 50
0.0
 51
0.0
 71
0
 72
100
 73
1
 74
1
 75
0
 76
0
 77
0
 78
0
  0
ENDTAB
  0
TABLE
  2
LTYPE
  5
5
100
AcDbSymbolTable
 70
6
  0
LTYPE
  5
14
100
AcDbSymbolTableRecord
100
AcDbLinetypeTableRecord
  2
BYBLOCK
 70
0
  3

 72
65
 73
0
 40
0.0
  0
LTYPE
  5
15
100
AcDbSymbolTableRecord
100
AcDbLinetypeTableRecord
  2
BYLAYER
 70
0
  3

 72
65
 73
0
 40
0.0
  0
LTYPE
  5
16
100
AcDbSymbolTableRecord
100
AcDbLinetypeTableRecord
  2
CONTINUOUS
 70
64
  3
Solid line
 72
65
 73
0
 40
0.0
  0
LTYPE
  5
1F5
100
AcDbSymbolTableRecord
100
AcDbLinetypeTableRecord
  2
CENTER
 70
64
  3
____ _ ____ _ ____ _ ____ _ ____ _ ____ _ ____
 72
65
 73
4
 40
0.6
 49
0.375
 74
0
 49
-0.075
 74
0
 49
0.075
 74
0
 49
-0.075
 74
0
  0
LTYPE
  5
1F6
100
AcDbSymbolTableRecord
100
AcDbLinetypeTableRecord
  2
HIDDEN
 70
64
  3
- - - - - - - - - - - - - - - - - - - -
 72
65
 73
2
 40
0.2
 49
0.1
 74
0
 49
-0.1
 74
0
  0
LTYPE
  5
1F7
100
AcDbSymbolTableRecord
100
AcDbLinetypeTableRecord
  2
PHANTOM
 70
64
  3
_____ _ _ _____ _ _ _____ _ _ _____
 72
65
 73
6
 40
0.8
 49
0.45
 74
0
 49
-0.05
 74
0
 49
0.1
 74
0
 49
-0.05
 74
0
 49
0.1
 74
0
 49
-0.05
 74
0
  0
LTYPE
  5
1F8
100
AcDbSymbolTableRecord
100
AcDbLinetypeTableRecord
  2
DOT
 70
64
  3
. . . . . . . . . . . . . . . . . . . .
 72
65
 73
2
 40
0.2
 49
0.1
 74
0
 49
-0.1
 74
0
  0
LTYPE
  5
1F9
100
AcDbSymbolTableRecord
100
AcDbLinetypeTableRecord
  2
DASHED
 70
64
  3
- - - - - - - - - - - - - - - - - - - -
 72
65
 73
2
 40
0.2
 49
0.1
 74
0
 49
-0.1
 74
0
  0
ENDTAB
  0
TABLE
  2
LAYER
  5
2
100
AcDbSymbolTable
 70
36
  0
LAYER
  5
10
100
AcDbSymbolTableRecord
100
AcDbLayerTableRecord
  2
0
 70
0
 62
7
  6
CONTINUOUS
370
-3
390
F
  0
LAYER
  5
1FA
100
AcDbSymbolTableRecord
100
AcDbLayerTableRecord
  2
DEFAULT_1
 70
0
 62
7
  6
CENTER
370
-3
390
F
  0
LAYER
  5
1FB
100
AcDbSymbolTableRecord
100
AcDbLayerTableRecord
  2
DEFAULT_2
 70
0
 62
7
  6
HIDDEN
370
-3
390
F
  0
LAYER
  5
1FC
100
AcDbSymbolTableRecord
100
AcDbLayerTableRecord
  2
DEFAULT_3
 70
0
 62
7
  6
PHANTOM
370
-3
390
F
  0
LAYER
  5
1FD
100
AcDbSymbolTableRecord
100
AcDbLayerTableRecord
  2
ASSI
 70
0
 62
7
  6
CONTINUOUS
370
-3
390
F
  0
LAYER
  5
1FE
100
AcDbSymbolTableRecord
100
AcDbLayerTableRecord
  2
COORDINATE
 70
0
 62
7
  6
CONTINUOUS
370
-3
390
F
  0
LAYER
  5
1FF
100
AcDbSymbolTableRecord
100
AcDbLayerTableRecord
  2
COORD_ORIGINE
 70
0
 62
7
  6
CONTINUOUS
370
-3
390
F
  0
LAYER
  5
200
100
AcDbSymbolTableRecord
100
AcDbLayerTableRecord
  2
DRAFT
 70
0
 62
7
  6
CONTINUOUS
370
-3
390
F
  0
LAYER
  5
201
100
AcDbSymbolTableRecord
100
AcDbLayerTableRecord
  2
IMPORT_FEATURES
 70
0
 62
7
  6
CONTINUOUS
370
-3
390
F
  0
LAYER
  5
202
100
AcDbSymbolTableRecord
100
AcDbLayerTableRecord
  2
INTF_1
 70
0
 62
7
  6
CONTINUOUS
370
-3
390
F
  0
LAYER
  5
203
100
AcDbSymbolTableRecord
100
AcDbLayerTableRecord
  2
INTF_9
 70
0
 62
7
  6
CONTINUOUS
370
-3
390
F
  0
LAYER
  5
204
100
AcDbSymbolTableRecord
100
AcDbLayerTableRecord
  2
PIANI
 70
0
 62
7
  6
CONTINUOUS
370
-3
390
F
  0
LAYER
  5
205
100
AcDbSymbolTableRecord
100
AcDbLayerTableRecord
  2
PIANI_ORIGINE
 70
0
 62
7
  6
CONTINUOUS
370
-3
390
F
  0
LAYER
  5
206
100
AcDbSymbolTableRecord
100
AcDbLayerTableRecord
  2
PUNTI
 70
0
 62
7
  6
CONTINUOUS
370
-3
390
F
  0
LAYER
  5
207
100
AcDbSymbolTableRecord
100
AcDbLayerTableRecord
  2
RACCORDO
 70
0
 62
7
  6
CONTINUOUS
370
-3
390
F
  0
LAYER
  5
208
100
AcDbSymbolTableRecord
100
AcDbLayerTableRecord
  2
RGB____0____0____0__
 70
0
 62
7
  6
CONTINUOUS
370
-3
390
F
  0
LAYER
  5
209
100
AcDbSymbolTableRecord
100
AcDbLayerTableRecord
  2
SNAPLINE
 70
0
 62
7
  6
CONTINUOUS
370
-3
390
F
  0
LAYER
  5
20A
100
AcDbSymbolTableRecord
100
AcDbLayerTableRecord
  2
SUPERFICI
 70
0
 62
7
  6
CONTINUOUS
370
-3
390
F
  0
LAYER
  5
20B
100
AcDbSymbolTableRecord
100
AcDbLayerTableRecord
  2
TRASH
 70
0
 62
7
  6
CONTINUOUS
370
-3
390
F
  0
LAYER
  5
20C
100
AcDbSymbolTableRecord
100
AcDbLayerTableRecord
  2
XSEC_DATUMS
 70
0
 62
7
  6
CONTINUOUS
370
-3
390
F
  0
ENDTAB
  0
TABLE
  2
STYLE
  5
3
100
AcDbSymbolTable
 70
1
  0
STYLE
  5
11
100
AcDbSymbolTableRecord
100
AcDbTextStyleTableRecord
  2
STANDARD
 70
0
 40
0.0
 41
0.8
 50
0.0
 71
0
 42
0.2
  3
txt
  4

  0
STYLE
  5
20D
100
AcDbSymbolTableRecord
100
AcDbTextStyleTableRecord
  2
TEXTSTYLE_1
 70
0
 40
0.0
 41
0.8
 50
0.0
 71
0
 42
0.2
  3
gdt
  4

  0
ENDTAB
  0
TABLE
  2
VIEW
  5
6
100
AcDbSymbolTable
 70
0
  0
ENDTAB
  0
TABLE
  2
UCS
  5
7
100
AcDbSymbolTable
 70
0
  0
ENDTAB
  0
TABLE
  2
APPID
  5
9
100
AcDbSymbolTable
 70
1
  0
APPID
  5
20E
100
AcDbSymbolTableRecord
100
AcDbRegAppTableRecord
  2
ACAD
 70
0
  0
ENDTAB
  0
TABLE
  2
BLOCK_RECORD
  5
1
100
AcDbSymbolTable
 70
0
  0
BLOCK_RECORD
  5
20F
100
AcDbSymbolTableRecord
100
AcDbBlockTableRecord
  2
*Model_Space
  0
BLOCK_RECORD
  5
210
100
AcDbSymbolTableRecord
100
AcDbBlockTableRecord
  2
*Paper_Space
  0
BLOCK_RECORD
  5
211
100
AcDbSymbolTableRecord
100
AcDbBlockTableRecord
  2
_FILLED
  0
ENDTAB
  0
TABLE
  2
DIMSTYLE
  5
A
100
AcDbSymbolTable
 70
1
100
AcDbDimStyleTable
 71
0
  0
DIMSTYLE
105
212
100
AcDbSymbolTableRecord
100
AcDbDimStyleTableRecord
  2
STANDARD
 70
0
  3

  4

 40
1.0
 41
3.0
 42
0.5
 43
0.38
 44
1.5
 45
0.0
 46
0.0
 47
0.01
 48
0.01
140
3.0
141
0.09
142
0.0
143
25.4
144
1.0
145
0.0
146
1.0
147
0.625
 71
1
 72
0
 73
0
 74
0
 75
0
 76
0
 77
1
 78
8
 79
2
170
0
171
1
172
0
173
0
174
0
175
0
176
0
177
0
178
0
270
2
179
2
271
2
272
2
273
2
274
2
275
0
280
0
281
0
282
0
283
1
284
8
285
0
286
0
287
3
288
0
340
11
278
44
341
211
342
211
343
211
344
211
  0
ENDTAB
  0
ENDSEC
  0
SECTION
  2
BLOCKS
  0
BLOCK
  5
20
100
AcDbEntity
  8
0
100
AcDbBlockBegin
  2
*Model_Space
 70
0
 10
0.0
 20
0.0
 30
0.0
  3
*Model_Space
  1

  0
ENDBLK
  5
21
100
AcDbEntity
  8
0
100
AcDbBlockEnd
  0
BLOCK
  5
1C
100
AcDbEntity
  8
0
100
AcDbBlockBegin
  2
*Paper_Space
 70
0
 10
0.0
 20
0.0
 30
0.0
  3
*Paper_Space
  1

  0
ENDBLK
  5
1D
100
AcDbEntity
  8
0
100
AcDbBlockEnd
  0
BLOCK
  5
213
100
AcDbEntity
  8
0
100
AcDbBlockBegin
  2
_FILLED
 70
64
 10
0.0
 20
0.0
  3
_FILLED
  1

  0
SOLID
  5
214
100
AcDbEntity
  8
0
  6
BYBLOCK
 62
0
100
AcDbTrace
 10
0.0
 20
0.0
 11
-1.0
 21
0.3166666667
 12
-1.0
 22
-0.3166666667
 13
-1.0
 23
-0.3166666667
  0
ENDBLK
  5
215
100
AcDbEntity
  8
0
  6
BYBLOCK
 62
0
100
AcDbBlockEnd
  0
ENDSEC
  0
SECTION
  2
ENTITIES
  0
LWPOLYLINE
  5
216
100
AcDbEntity
  8
RACCORDO
100
AcDbPolyline
 62
250
  6
CONTINUOUS
 90
12
 70
0
 10
-9.5210191682
 20
20.3126512938
 10
-9.5188959256
 20
20.3137007462
 10
-9.5134621207
 20
20.3147327087
 10
-9.5048086774
 20
20.315730166
 10
-9.4930803942
 20
20.3166767132
 10
-9.4784735204
 20
20.3175565789
 10
-9.4612324728
 20
20.3183548618
 10
-9.4416457456
 20
20.3190580513
 10
-9.4200410839
 20
20.3196545338
 10
-9.3967799985
 20
20.320134507
 10
-9.3722517172
 20
20.3204898723
 10
-9.3468666714
 20
20.3207143977
  0
LINE
  5
217
100
AcDbEntity
  8
DRAFT
100
AcDbLine
 62
7
  6
CONTINUOUS
 10
-3.0
 20
-23.5
 11
-2.7812783412
 21
-23.4563623377
  0
LINE
  5
218
100
AcDbEntity
  8
DRAFT
100
AcDbLine
 62
7
  6
CONTINUOUS
 10
-3.9733373476
 20
-23.5
 11
-3.0
 21
-23.5
  0
LINE
  5
219
100
AcDbEntity
  8
DRAFT
100
AcDbLine
 62
7
  6
CONTINUOUS
 10
3.0
 20
-23.5
 11
3.9733373476
 21
-23.5
  0
LINE
  5
21A
100
AcDbEntity
  8
DRAFT
100
AcDbLine
 62
7
  6
CONTINUOUS
 10
2.7812783412
 20
-23.4563623377
 11
-2.7812783412
 21
-23.4563623377
  0
LINE
  5
21B
100
AcDbEntity
  8
DRAFT
100
AcDbLine
 62
7
  6
CONTINUOUS
 10
-3.9526845545
 20
-23.4301797403
 11
3.9526845545
 21
-23.4301797403
  0
LINE
  5
21C
100
AcDbEntity
  8
DRAFT
100
AcDbLine
 62
7
  6
CONTINUOUS
 10
-10.6503805997
 20
-22.4
 11
-5.55
 21
-22.4
  0
LINE
  5
21D
100
AcDbEntity
  8
DRAFT
100
AcDbLine
 62
7
  6
CONTINUOUS
 10
5.55
 20
-22.4
 11
10.6503805997
 21
-22.4
  0
LINE
  5
21E
100
AcDbEntity
  8
DRAFT
100
AcDbLine
 62
7
  6
CONTINUOUS
 10
3.0
 20
-23.5
 11
2.7812783412
 21
-23.4563623377
  0
LWPOLYLINE
  5
21F
100
AcDbEntity
  8
RACCORDO
100
AcDbPolyline
 62
250
  6
CONTINUOUS
 90
9
 70
0
 10
9.5052085901
 20
-20.3156902119
 10
9.4790992263
 20
-20.3177367244
 10
9.4617089354
 20
-20.3183362944
 10
9.4420809454
 20
-20.3188504442
 10
9.4204600803
 20
-20.3197222231
 10
9.397060979
 20
-20.3201290961
 10
9.3722975552
 20
-20.3200005322
 10
9.3467780747
 20
-20.3201100731
 10
9.3210496291
 20
-20.3208040737
  0
LINE
  5
220
100
AcDbEntity
  8
0
100
AcDbLine
 62
7
  6
CONTINUOUS
 10
3.1
 20
-22.2
 11
-3.1
 21
-22.2
  0
LINE
  5
221
100
AcDbEntity
  8
DRAFT
100
AcDbLine
 62
7
  6
CONTINUOUS
 10
6.9339198284
 20
-21.2
 11
-6.9339198284
 21
-21.2
  0
LINE
  5
222
100
AcDbEntity
  8
DRAFT
100
AcDbLine
 62
7
  6
CONTINUOUS
 10
6.8667670239
 20
-21.1647852141
 11
3.75
 21
-21.1647852141
  0
LINE
  5
223
100
AcDbEntity
  8
DRAFT
100
AcDbLine
 62
7
  6
CONTINUOUS
 10
-3.75
 20
-21.1647852141
 11
-6.8667670239
 21
-21.1647852141
  0
LINE
  5
224
100
AcDbEntity
  8
RACCORDO
100
AcDbLine
 62
7
  6
CONTINUOUS
 10
-9.4501522399
 20
-20.9
 11
-7.3830351795
 21
-20.9
  0
LINE
  5
225
100
AcDbEntity
  8
RACCORDO
100
AcDbLine
 62
7
  6
CONTINUOUS
 10
7.3830351795
 20
-20.9
 11
9.4501522399
 21
-20.9
  0
LINE
  5
226
100
AcDbEntity
  8
RACCORDO
100
AcDbLine
 62
250
  6
CONTINUOUS
 10
-6.6568305096
 20
-20.7438927334
 11
6.6568305096
 21
-20.7438927334
  0
LWPOLYLINE
  5
227
100
AcDbEntity
  8
RACCORDO
100
AcDbPolyline
 62
250
  6
CONTINUOUS
 90
13
 70
0
 10
-9.3210496291
 20
-20.5123772007
 10
-9.346655665
 20
-20.5107096496
 10
-9.3719842757
 20
-20.5057431705
 10
-9.3966025615
 20
-20.4975042382
 10
-9.4201206733
 20
-20.4860523429
 10
-9.4420626753
 20
-20.4715438975
 10
-9.4619106837
 20
-20.4542864547
 10
-9.4792908308
 20
-20.4346181913
 10
-9.4939433947
 20
-20.4128479513
 10
-9.5056161109
 20
-20.3893505636
 10
-9.5141077576
 20
-20.3645308309
 10
-9.5192718077
 20
-20.3388166709
 10
-9.5210191682
 20
-20.3126512938
  0
LWPOLYLINE
  5
228
100
AcDbEntity
  8
RACCORDO
100
AcDbPolyline
 62
250
  6
CONTINUOUS
 90
6
 70
0
 10
-9.5134347178
 20
-20.3142589312
 10
-9.5046707778
 20
-20.3157427324
 10
-9.4928024084
 20
-20.3167918874
 10
-9.4780898414
 20
-20.3174239521
 10
-9.4607382703
 20
-20.3183761309
 10
-9.4408217307
 20
-20.3193150847
  0
LINE
  5
229
100
AcDbEntity
  8
RACCORDO
100
AcDbLine
 62
250
  6
CONTINUOUS
 10
-9.5210191682
 20
-20.3126512938
 11
-9.5134347178
 21
-20.3142589312
  0
LINE
  5
22A
100
AcDbEntity
  8
RACCORDO
100
AcDbLine
 62
7
  6
CONTINUOUS
 10
-6.6562210424
 20
-20.5731858629
 11
6.6562210424
 21
-20.5731858629
  0
LINE
  5
22B
100
AcDbEntity
  8
RACCORDO
100
AcDbLine
 62
250
  6
CONTINUOUS
 10
-9.3210496291
 20
-20.5123772007
 11
-7.5121377902
 21
-20.5123772007
  0
LINE
  5
22C
100
AcDbEntity
  8
RACCORDO
100
AcDbLine
 62
250
  6
CONTINUOUS
 10
7.5121377902
 20
-20.5123772007
 11
9.3210496291
 21
-20.5123772007
  0
LINE
  5
22D
100
AcDbEntity
  8
RACCORDO
100
AcDbLine
 62
7
  6
CONTINUOUS
 10
6.518537492
 20
-20.4355023125
 11
0.4644976875
 21
-20.4355023125
  0
LINE
  5
22E
100
AcDbEntity
  8
RACCORDO
100
AcDbLine
 62
7
  6
CONTINUOUS
 10
-0.4644976875
 20
-20.4355023125
 11
-6.518537492
 21
-20.4355023125
  0
LINE
  5
22F
100
AcDbEntity
  8
RACCORDO
100
AcDbLine
 62
250
  6
CONTINUOUS
 10
-9.3210496032
 20
-20.3208040737
 11
-7.515443196
 21
-20.3208040737
  0
LINE
  5
230
100
AcDbEntity
  8
RACCORDO
100
AcDbLine
 62
250
  6
CONTINUOUS
 10
7.515443196
 20
-20.3208040737
 11
9.3210496032
 21
-20.3208040737
  0
LINE
  5
231
100
AcDbEntity
  8
RACCORDO
100
AcDbLine
 62
250
  6
CONTINUOUS
 10
-7.2269620892
 20
-20.2585786438
 11
-6.6610657815
 21
-20.2585786438
  0
LINE
  5
232
100
AcDbEntity
  8
RACCORDO
100
AcDbLine
 62
250
  6
CONTINUOUS
 10
6.6610657815
 20
-20.2585786438
 11
7.2269620892
 21
-20.2585786438
  0
LINE
  5
233
100
AcDbEntity
  8
RACCORDO
100
AcDbLine
 62
250
  6
CONTINUOUS
 10
6.5168087892
 20
-20.2436317461
 11
0.4662263902
 21
-20.2436317461
  0
LINE
  5
234
100
AcDbEntity
  8
RACCORDO
100
AcDbLine
 62
250
  6
CONTINUOUS
 10
-0.4662263902
 20
-20.2436317461
 11
-6.5168087892
 21
-20.2436317461
  0
LINE
  5
235
100
AcDbEntity
  8
RACCORDO
100
AcDbLine
 62
250
  6
CONTINUOUS
 10
-7.2259395951
 20
-20.1171572875
 11
-6.6615769896
 21
-20.1171572875
  0
LINE
  5
236
100
AcDbEntity
  8
RACCORDO
100
AcDbLine
 62
250
  6
CONTINUOUS
 10
6.6615769896
 20
-20.1171572875
 11
7.2259395951
 21
-20.1171572875
  0
LINE
  5
237
100
AcDbEntity
  8
DRAFT
100
AcDbLine
 62
7
  6
CONTINUOUS
 10
-0.3301850577
 20
-19.5
 11
0.3301850577
 21
-19.5
  0
LINE
  5
238
100
AcDbEntity
  8
RACCORDO
100
AcDbLine
 62
250
  6
CONTINUOUS
 10
7.2259395951
 20
-19.0
 11
6.6615769896
 21
-19.0
  0
LINE
  5
239
100
AcDbEntity
  8
RACCORDO
100
AcDbLine
 62
250
  6
CONTINUOUS
 10
-6.6615769896
 20
-19.0
 11
-7.2259395951
 21
-19.0
  0
LWPOLYLINE
  5
23A
100
AcDbEntity
  8
RACCORDO
100
AcDbPolyline
 62
250
  6
CONTINUOUS
 90
5
 70
0
 10
-9.4408217307
 20
-20.3193150847
 10
-9.3958354496
 20
-20.3201485912
 10
-9.3719096433
 20
-20.3207657043
 10
-9.3469979038
 20
-20.3210743851
 10
-9.3210496291
 20
-20.3208040737
  0
LINE
  5
23B
100
AcDbEntity
  8
RACCORDO
100
AcDbLine
 62
7
  6
CONTINUOUS
 10
6.6288732496
 20
-18.5
 11
7.2913520568
 21
-18.5
  0
LINE
  5
23C
100
AcDbEntity
  8
RACCORDO
100
AcDbLine
 62
7
  6
CONTINUOUS
 10
-6.6288732496
 20
-18.5
 11
-7.2913520568
 21
-18.5
  0
LINE
  5
23D
100
AcDbEntity
  8
DRAFT
100
AcDbLine
 62
7
  6
CONTINUOUS
 10
6.8667670239
 20
21.1647852141
 11
6.9339198284
 21
21.2
  0
LINE
  5
23E
100
AcDbEntity
  8
DRAFT
100
AcDbLine
 62
7
  6
CONTINUOUS
 10
7.237014021
 20
20.8344534339
 11
7.3830351795
 21
20.9
  0
LINE
  5
23F
100
AcDbEntity
  8
DRAFT
100
AcDbLine
 62
7
  6
CONTINUOUS
 10
7.237014021
 20
-20.8344534339
 11
7.3830351795
 21
-20.9
  0
LINE
  5
240
100
AcDbEntity
  8
DRAFT
100
AcDbLine
 62
7
  6
CONTINUOUS
 10
6.9339198284
 20
-21.2
 11
6.8667670239
 21
-21.1647852141
  0
LINE
  5
241
100
AcDbEntity
  8
RACCORDO
100
AcDbLine
 62
7
  6
CONTINUOUS
 10
-0.4644976875
 20
20.4355023125
 11
-0.3301850577
 21
20.5698149423
  0
LINE
  5
242
100
AcDbEntity
  8
DRAFT
100
AcDbLine
 62
7
  6
CONTINUOUS
 10
7.5193672252
 20
-13.7454640196
 11
6.5148743481
 21
-13.7454640196
  0
LINE
  5
243
100
AcDbEntity
  8
DRAFT
100
AcDbLine
 62
7
  6
CONTINUOUS
 10
0.4681608314
 20
-13.7454640196
 11
-0.4681608314
 21
-13.7454640196
  0
LINE
  5
244
100
AcDbEntity
  8
DRAFT
100
AcDbLine
 62
7
  6
CONTINUOUS
 10
-6.5148743481
 20
-13.7454640196
 11
-7.5193672252
 21
-13.7454640196
  0
LINE
  5
245
100
AcDbEntity
  8
RACCORDO
100
AcDbLine
 62
7
  6
CONTINUOUS
 10
-0.4644976875
 20
-20.4355023125
 11
-0.3301850577
 21
-20.5698149423
  0
LINE
  5
246
100
AcDbEntity
  8
RACCORDO
100
AcDbLine
 62
7
  6
CONTINUOUS
 10
-7.5121377902
 20
20.5123772007
 11
-7.3830351795
 21
20.9
  0
LINE
  5
247
100
AcDbEntity
  8
RACCORDO
100
AcDbLine
 62
7
  6
CONTINUOUS
 10
-7.5121377902
 20
-20.5123772007
 11
-7.3830351795
 21
-20.9
  0
LINE
  5
248
100
AcDbEntity
  8
0
100
AcDbLine
 62
7
  6
CONTINUOUS
 10
-11.15
 20
21.8997711479
 11
-11.15
 21
-21.8997711479
  0
LWPOLYLINE
  5
249
100
AcDbEntity
  8
RACCORDO
100
AcDbPolyline
 62
250
  6
CONTINUOUS
 90
13
 70
0
 10
-9.5210191682
 20
20.3126512938
 10
-9.5193495891
 20
20.3382260856
 10
-9.5143767353
 20
20.3635250566
 10
-9.5061266304
 20
20.3881156754
 10
-9.4946581805
 20
20.4116086597
 10
-9.4801277429
 20
20.4335278121
 10
-9.4628439209
 20
20.4533544445
 10
-9.4431443865
 20
20.4707158323
 10
-9.4213395366
 20
20.4853512199
 10
-9.3978101886
 20
20.4970063412
 10
-9.372964526
 20
20.5054817361
 10
-9.3472298056
 20
20.5106342433
 10
-9.3210496291
 20
20.5123772007
  0
LINE
  5
24A
100
AcDbEntity
  8
0
100
AcDbLine
 62
7
  6
CONTINUOUS
 10
-7.0
 20
-11.0
 11
7.0
 21
-11.0
  0
LINE
  5
24B
100
AcDbEntity
  8
RACCORDO
100
AcDbLine
 62
250
  6
CONTINUOUS
 10
-9.5210191919
 20
20.3126513649
 11
-9.5160210092
 21
11.2864877793
  0
LINE
  5
24C
100
AcDbEntity
  8
RACCORDO
100
AcDbLine
 62
250
  6
CONTINUOUS
 10
-9.5160210092
 20
11.2864877793
 11
-9.5138789322
 21
2.2577040656
  0
LINE
  5
24D
100
AcDbEntity
  8
RACCORDO
100
AcDbLine
 62
250
  6
CONTINUOUS
 10
-9.316051455
 20
11.2914828051
 11
-9.3139093902
 21
2.2584780405
  0
LINE
  5
24E
100
AcDbEntity
  8
RACCORDO
100
AcDbLine
 62
7
  6
CONTINUOUS
 10
-9.65
 20
20.6999084592
 11
-9.65
 21
-20.6999084592
  0
LINE
  5
24F
100
AcDbEntity
  8
RACCORDO
100
AcDbLine
 62
250
  6
CONTINUOUS
 10
-9.3210496291
 20
20.5123772007
 11
-9.316051455
 21
11.2914828051
  0
LINE
  5
250
100
AcDbEntity
  8
RACCORDO
100
AcDbLine
 62
250
  6
CONTINUOUS
 10
-9.5138789322
 20
2.2577040656
 11
-9.5145929601
 21
-6.7725757411
  0
LINE
  5
251
100
AcDbEntity
  8
RACCORDO
100
AcDbLine
 62
250
  6
CONTINUOUS
 10
-9.3139093902
 20
2.2584780405
 11
-9.3146234116
 21
-6.7752542768
  0
LWPOLYLINE
  5
252
100
AcDbEntity
  8
RACCORDO
100
AcDbPolyline
 62
250
  6
CONTINUOUS
 90
3
 70
0
 10
-9.5145929601
 20
-6.7725757411
 10
-9.5181630905
 20
-15.7998555012
 10
-9.5210191944
 20
-20.3126513725
  0
LWPOLYLINE
  5
253
100
AcDbEntity
  8
RACCORDO
100
AcDbPolyline
 62
250
  6
CONTINUOUS
 90
3
 70
0
 10
-9.3146234116
 20
-6.7752542768
 10
-9.3181935181
 20
-15.8067897508
 10
-9.3210496291
 20
-20.5123772007
  0
LINE
  5
254
100
AcDbEntity
  8
RACCORDO
100
AcDbLine
 62
7
  6
CONTINUOUS
 10
6.6562210424
 20
20.5731858629
 11
6.518537492
 21
20.4355023125
  0
LINE
  5
255
100
AcDbEntity
  8
RACCORDO
100
AcDbLine
 62
7
  6
CONTINUOUS
 10
6.518537492
 20
-20.4355023125
 11
6.6562210424
 21
-20.5731858629
  0
LINE
  5
256
100
AcDbEntity
  8
DRAFT
100
AcDbLine
 62
7
  6
CONTINUOUS
 10
-7.2913520568
 20
-18.5
 11
-7.5193672252
 21
-13.7454640196
  0
LINE
  5
257
100
AcDbEntity
  8
RACCORDO
100
AcDbLine
 62
7
  6
CONTINUOUS
 10
-7.237014021
 20
20.8344534339
 11
-7.2269620892
 21
20.2585786438
  0
LINE
  5
258
100
AcDbEntity
  8
RACCORDO
100
AcDbLine
 62
7
  6
CONTINUOUS
 10
-6.6568305096
 20
-20.7438927334
 11
-6.6610657815
 21
-20.2585786438
  0
LINE
  5
259
100
AcDbEntity
  8
RACCORDO
100
AcDbLine
 62
7
  6
CONTINUOUS
 10
-7.2259395951
 20
-20.1171572875
 11
-7.2259395951
 21
-19.0
  0
LINE
  5
25A
100
AcDbEntity
  8
RACCORDO
100
AcDbLine
 62
7
  6
CONTINUOUS
 10
-7.2259395951
 20
19.0
 11
-7.2259395951
 21
20.1171572875
  0
LINE
  5
25B
100
AcDbEntity
  8
0
100
AcDbLine
 62
7
  6
CONTINUOUS
 10
-7.0
 20
-11.0
 11
-7.0
 21
7.0
  0
LINE
  5
25C
100
AcDbEntity
  8
RACCORDO
100
AcDbLine
 62
7
  6
CONTINUOUS
 10
-6.6610657815
 20
20.2585786438
 11
-6.6568305096
 21
20.7438927334
  0
LINE
  5
25D
100
AcDbEntity
  8
RACCORDO
100
AcDbLine
 62
7
  6
CONTINUOUS
 10
-7.2269620892
 20
-20.2585786438
 11
-7.237014021
 21
-20.8344534339
  0
LINE
  5
25E
100
AcDbEntity
  8
DRAFT
100
AcDbLine
 62
7
  6
CONTINUOUS
 10
-7.5193672252
 20
13.7454640196
 11
-7.2913520568
 21
18.5
  0
LINE
  5
25F
100
AcDbEntity
  8
0
100
AcDbLine
 62
7
  6
CONTINUOUS
 10
-3.053019
 20
13.025041
 11
-3.506228
 21
11.613442
  0
LINE
  5
260
100
AcDbEntity
  8
0
100
AcDbLine
 62
7
  6
CONTINUOUS
 10
-3.9976357296
 20
-6.799748543
 11
-3.867554
 21
-6.79722
  0
LINE
  5
261
100
AcDbEntity
  8
DRAFT
100
AcDbLine
 62
7
  6
CONTINUOUS
 10
-6.5148743481
 20
13.7454640196
 11
-6.6288732496
 21
18.5
  0
LINE
  5
262
100
AcDbEntity
  8
RACCORDO
100
AcDbLine
 62
7
  6
CONTINUOUS
 10
-6.6615769896
 20
20.1171572875
 11
-6.6615769896
 21
19.0
  0
LINE
  5
263
100
AcDbEntity
  8
RACCORDO
100
AcDbLine
 62
7
  6
CONTINUOUS
 10
-6.6615769896
 20
-19.0
 11
-6.6615769896
 21
-20.1171572875
  0
LINE
  5
264
100
AcDbEntity
  8
0
100
AcDbLine
 62
7
  6
CONTINUOUS
 10
-6.212781
 20
-0.375
 11
-6.212781
 21
-1.625
  0
LINE
  5
265
100
AcDbEntity
  8
0
100
AcDbLine
 62
7
  6
CONTINUOUS
 10
-6.049139
 20
-0.57688
 11
-6.049139
 21
-1.625
  0
LINE
  5
266
100
AcDbEntity
  8
0
100
AcDbLine
 62
7
  6
CONTINUOUS
 10
-5.178666
 20
-0.575162
 11
-5.178666
 21
-1.625
  0
LINE
  5
267
100
AcDbEntity
  8
0
100
AcDbLine
 62
7
  6
CONTINUOUS
 10
-5.014958
 20
-0.375
 11
-5.014958
 21
-1.625
  0
LINE
  5
268
100
AcDbEntity
  8
DRAFT
100
AcDbLine
 62
7
  6
CONTINUOUS
 10
-6.6288732496
 20
-18.5
 11
-6.5148743481
 21
-13.7454640196
  0
LINE
  5
269
100
AcDbEntity
  8
0
100
AcDbLine
 62
7
  6
CONTINUOUS
 10
-2.642998
 20
13.025041
 11
-3.301218
 21
10.974949
  0
LINE
  5
26A
100
AcDbEntity
  8
0
100
AcDbLine
 62
7
  6
CONTINUOUS
 10
-3.354035
 20
8.73997
 11
-3.484611
 21
8.376074
  0
LINE
  5
26B
100
AcDbEntity
  8
0
100
AcDbLine
 62
7
  6
CONTINUOUS
 10
-3.099869
 20
9.444772
 11
-3.301824
 21
8.889694
  0
LINE
  5
26C
100
AcDbEntity
  8
0
100
AcDbLine
 62
7
  6
CONTINUOUS
 10
-3.188618
 20
9.626074
 11
-3.658713
 21
8.376074
  0
LINE
  5
26D
100
AcDbEntity
  8
0
100
AcDbLine
 62
7
  6
CONTINUOUS
 10
0.117556
 20
-5.375
 11
-1.342945
 21
-5.375
  0
LINE
  5
26E
100
AcDbEntity
  8
0
100
AcDbLine
 62
7
  6
CONTINUOUS
 10
-5.970779
 20
-0.375
 11
-5.612151
 21
-1.436898
  0
LINE
  5
26F
100
AcDbEntity
  8
0
100
AcDbLine
 62
7
  6
CONTINUOUS
 10
-6.049139
 20
-0.57688
 11
-5.697438
 21
-1.625
  0
LINE
  5
270
100
AcDbEntity
  8
0
100
AcDbLine
 62
7
  6
CONTINUOUS
 10
-4.69454
 20
9.626074
 11
-4.69454
 21
8.376074
  0
LINE
  5
271
100
AcDbEntity
  8
0
100
AcDbLine
 62
7
  6
CONTINUOUS
 10
-4.525669
 20
9.481581
 11
-4.525669
 21
9.048103
  0
LINE
  5
272
100
AcDbEntity
  8
0
100
AcDbLine
 62
7
  6
CONTINUOUS
 10
-4.525669
 20
8.90361
 11
-4.525669
 21
8.376074
  0
LINE
  5
273
100
AcDbEntity
  8
0
100
AcDbLine
 62
7
  6
CONTINUOUS
 10
-3.867554
 20
-2.451963
 11
-3.867554
 21
-3.20278
  0
LINE
  5
274
100
AcDbEntity
  8
0
100
AcDbLine
 62
7
  6
CONTINUOUS
 10
-3.867554
 20
-6.79722
 11
-3.867554
 21
-7.548037
  0
LINE
  5
275
100
AcDbEntity
  8
DRAFT
100
AcDbLine
 62
7
  6
CONTINUOUS
 10
-3.75
 20
21.2
 11
-3.75
 21
21.1647852141
  0
LINE
  5
276
100
AcDbEntity
  8
DRAFT
100
AcDbLine
 62
7
  6
CONTINUOUS
 10
-3.75
 20
-21.2
 11
-3.75
 21
-21.1647852141
  0
LINE
  5
277
100
AcDbEntity
  8
0
100
AcDbLine
 62
7
  6
CONTINUOUS
 10
-3.58739
 20
-0.375
 11
-3.58739
 21
-1.625
  0
LINE
  5
278
100
AcDbEntity
  8
0
100
AcDbLine
 62
7
  6
CONTINUOUS
 10
-3.418466
 20
-0.51946
 11
-3.418466
 21
-1.48054
  0
LINE
  5
279
100
AcDbEntity
  8
0
100
AcDbLine
 62
7
  6
CONTINUOUS
 10
-3.243211
 20
5.400011
 11
-3.243211
 21
3.6
  0
LWPOLYLINE
  5
27A
100
AcDbEntity
  8
0
100
AcDbPolyline
 62
7
  6
CONTINUOUS
 90
16
 70
0
 10
-3.935934399
 20
9.2365011229
 10
-3.9357365672
 20
9.2923846968
 10
-3.9385086445
 20
9.3185411522
 10
-3.9442008476
 20
9.3433114358
 10
-3.9530222027
 20
9.3670689569
 10
-3.9647636836
 20
9.3894403129
 10
-3.9787982108
 20
9.4093052924
 10
-3.9951439925
 20
9.4262447507
 10
-4.0137828205
 20
9.4406778435
 10
-4.034032991
 20
9.4527418123
 10
-4.0558640691
 20
9.4622626887
 10
-4.0793064896
 20
9.469414447
 10
-4.1037698538
 20
9.4748562413
 10
-4.1290573621
 20
9.4788077898
 10
-4.155365814
 20
9.4810493759
 10
-4.1826952096
 20
9.481581
  0
LWPOLYLINE
  5
27B
100
AcDbEntity
  8
0
100
AcDbPolyline
 62
7
  6
CONTINUOUS
 90
22
 70
0
 10
-3.7619086531
 20
9.2648420655
 10
-3.762856007
 20
9.2320331022
 10
-3.7658652647
 20
9.2007134368
 10
-3.7709364262
 20
9.1708830746
 10
-3.7781735419
 20
9.1425484496
 10
-3.7874725614
 20
9.1157031376
 10
-3.7985213334
 20
9.0903278565
 10
-3.8112295862
 20
9.0663697134
 10
-3.8256875916
 20
9.0438816093
 10
-3.8418540133
 20
9.0230029525
 10
-3.859792267
 20
9.0037465959
 10
-3.879438937
 20
8.9860996938
 10
-3.9005624404
 20
8.9701631073
 10
-3.9233249218
 20
8.9559589235
 10
-3.9475642367
 20
8.9434650609
 10
-3.9725623686
 20
8.932716128
 10
-3.9982560367
 20
8.9237727495
 10
-4.0247085218
 20
8.9165743044
 10
-4.05139165
 20
8.9109735323
 10
-4.0781293633
 20
8.9069213468
 10
-4.1050977197
 20
8.9044668359
 10
-4.1322967192
 20
8.90361
  0
LINE
  5
27C
100
AcDbEntity
  8
0
100
AcDbLine
 62
7
  6
CONTINUOUS
 10
-0.164144
 20
13.025041
 11
-0.546976
 21
11.689948
  0
LINE
  5
27D
100
AcDbEntity
  8
0
100
AcDbLine
 62
7
  6
CONTINUOUS
 10
0.045669
 20
12.326847
 11
-0.341976
 21
10.974954
  0
LINE
  5
27E
100
AcDbEntity
  8
0
100
AcDbLine
 62
7
  6
CONTINUOUS
 10
-5.178666
 20
-0.575162
 11
-5.5303
 21
-1.625
  0
LINE
  5
27F
100
AcDbEntity
  8
DRAFT
100
AcDbLine
 62
7
  6
CONTINUOUS
 10
2.6768152463
 20
21.2
 11
3.0118365096
 21
22.2
  0
LINE
  5
280
100
AcDbEntity
  8
0
100
AcDbLine
 62
7
  6
CONTINUOUS
 10
-5.255243
 20
-0.375
 11
-5.612151
 21
-1.436898
  0
LINE
  5
281
100
AcDbEntity
  8
0
100
AcDbLine
 62
7
  6
CONTINUOUS
 10
-4.560561
 20
-1.261171
 11
-4.691151
 21
-1.625
  0
LINE
  5
282
100
AcDbEntity
  8
0
100
AcDbLine
 62
7
  6
CONTINUOUS
 10
-4.306304
 20
-0.556311
 11
-4.508316
 21
-1.111454
  0
LINE
  5
283
100
AcDbEntity
  8
0
100
AcDbLine
 62
7
  6
CONTINUOUS
 10
-4.395195
 20
-0.375
 11
-4.865231
 21
-1.625
  0
LINE
  5
284
100
AcDbEntity
  8
0
100
AcDbLine
 62
7
  6
CONTINUOUS
 10
0.117556
 20
-4.625
 11
-1.342948112
 21
-4.625
  0
LINE
  5
285
100
AcDbEntity
  8
0
100
AcDbLine
 62
7
  6
CONTINUOUS
 10
-4.203656
 20
-0.375
 11
-3.751028
 21
-1.625
  0
LINE
  5
286
100
AcDbEntity
  8
0
100
AcDbLine
 62
7
  6
CONTINUOUS
 10
-4.059186
 20
-1.261171
 11
-3.935591
 21
-1.625
  0
LINE
  5
287
100
AcDbEntity
  8
0
100
AcDbLine
 62
7
  6
CONTINUOUS
 10
-4.306304
 20
-0.556311
 11
-4.120073
 21
-1.111454
  0
LINE
  5
288
100
AcDbEntity
  8
DRAFT
100
AcDbLine
 62
7
  6
CONTINUOUS
 10
3.0118365096
 20
-22.2
 11
2.6768152463
 21
-21.2
  0
LWPOLYLINE
  5
289
100
AcDbEntity
  8
0
100
AcDbPolyline
 62
7
  6
CONTINUOUS
 90
18
 70
0
 10
-2.4721971152
 20
1.459208834
 10
-2.4718439485
 20
1.4319828552
 10
-2.4711797212
 20
1.4047615628
 10
-2.470241486
 20
1.3775464856
 10
-2.4689921901
 20
1.3503360951
 10
-2.4673206752
 20
1.3231258057
 10
-2.4652272404
 20
1.2959235911
 10
-2.4627115866
 20
1.2687214777
 10
-2.4596616583
 20
1.2414909587
 10
-2.4561739598
 20
1.2142362694
 10
-2.4521519869
 20
1.1869531745
 10
-2.4471941708
 20
1.1596004615
 10
-2.4415663941
 20
1.1320731467
 10
-2.4350027743
 20
1.1044762139
 10
-2.4263040954
 20
1.0770834016
 10
-2.4150706188
 20
1.0499859562
 10
-2.4017020832
 20
1.0230926318
 10
-2.3861984885
 20
0.9964034284
  0
LWPOLYLINE
  5
28A
100
AcDbEntity
  8
0
100
AcDbPolyline
 62
7
  6
CONTINUOUS
 90
19
 70
0
 10
-2.5555601745
 20
-1.0
 10
-2.5551232829
 20
-1.0495815106
 10
-2.5579758788
 20
-1.098824375
 10
-2.5641179622
 20
-1.1477285927
 10
-2.5735470388
 20
-1.1967006031
 10
-2.586265603
 20
-1.2453339663
 10
-2.6022811375
 20
-1.292409364
 10
-2.6214226365
 20
-1.3379568364
 10
-2.643861106
 20
-1.3819463447
 10
-2.670117046
 20
-1.4230684553
 10
-2.7003876726
 20
-1.461185035
 10
-2.7344757698
 20
-1.4964342203
 10
-2.7723101901
 20
-1.5279209826
 10
-2.8137597533
 20
-1.5557558962
 10
-2.8589556396
 20
-1.5798283906
 10
-2.9082202418
 20
-1.5989117212
 10
-2.9616610241
 20
-1.6125969744
 10
-3.0191705223
 20
-1.6212930671
 10
-3.0807487364
 20
-1.625
  0
LINE
  5
28B
100
AcDbEntity
  8
DRAFT
100
AcDbLine
 62
7
  6
CONTINUOUS
 10
-3.1
 20
-21.2
 11
-3.1
 21
-22.2
  0
LINE
  5
28C
100
AcDbEntity
  8
DRAFT
100
AcDbLine
 62
7
  6
CONTINUOUS
 10
-3.1
 20
21.2
 11
-3.1
 21
22.2
  0
LINE
  5
28D
100
AcDbEntity
  8
0
100
AcDbLine
 62
7
  6
CONTINUOUS
 10
-3.016329
 20
5.044534
 11
-3.016329
 21
3.6
  0
LINE
  5
28E
100
AcDbEntity
  8
0
100
AcDbLine
 62
7
  6
CONTINUOUS
 10
-2.497541
 20
9.626074
 11
-2.497541
 21
9.47635
  0
LINE
  5
28F
100
AcDbEntity
  8
0
100
AcDbLine
 62
7
  6
CONTINUOUS
 10
-2.369657
 20
13.025041
 11
-2.369662
 21
10.974944
  0
LINE
  5
290
100
AcDbEntity
  8
0
100
AcDbLine
 62
7
  6
CONTINUOUS
 10
-2.321671
 20
-0.375
 11
-2.321671
 21
-1.625
  0
LINE
  5
291
100
AcDbEntity
  8
0
100
AcDbLine
 62
7
  6
CONTINUOUS
 10
-2.152756
 20
-0.524717
 11
-2.152756
 21
-0.907754
  0
LINE
  5
292
100
AcDbEntity
  8
0
100
AcDbLine
 62
7
  6
CONTINUOUS
 10
-2.152756
 20
-1.057471
 11
-2.152756
 21
-1.475283
  0
LINE
  5
293
100
AcDbEntity
  8
0
100
AcDbLine
 62
7
  6
CONTINUOUS
 10
-2.074524
 20
9.47635
 11
-2.074524
 21
8.376074
  0
LINE
  5
294
100
AcDbEntity
  8
0
100
AcDbLine
 62
7
  6
CONTINUOUS
 10
-2.035628
 20
5.400011
 11
-2.035628
 21
3.940324
  0
LINE
  5
295
100
AcDbEntity
  8
0
100
AcDbLine
 62
7
  6
CONTINUOUS
 10
-1.959641
 20
13.025041
 11
-1.959646
 21
10.974949
  0
LINE
  5
296
100
AcDbEntity
  8
0
100
AcDbLine
 62
7
  6
CONTINUOUS
 10
-1.905653
 20
9.47635
 11
-1.905653
 21
8.376074
  0
LINE
  5
297
100
AcDbEntity
  8
0
100
AcDbLine
 62
7
  6
CONTINUOUS
 10
-1.808728
 20
5.400011
 11
-1.808728
 21
3.6
  0
LINE
  5
298
100
AcDbEntity
  8
0
100
AcDbLine
 62
7
  6
CONTINUOUS
 10
-1.549641
 20
13.025041
 11
-1.549641
 21
10.974949
  0
LWPOLYLINE
  5
299
100
AcDbEntity
  8
0
100
AcDbPolyline
 62
7
  6
CONTINUOUS
 90
22
 70
0
 10
-2.7292657319
 20
-1.0313857407
 10
-2.7292665387
 20
-0.968542088
 10
-2.7305532026
 20
-0.9371799232
 10
-2.7331781445
 20
-0.9059135057
 10
-2.737102548
 20
-0.8746361464
 10
-2.7423652293
 20
-0.8434545348
 10
-2.7490826377
 20
-0.8126887387
 10
-2.757056168
 20
-0.7822232788
 10
-2.7664844253
 20
-0.7521736349
 10
-2.7780796732
 20
-0.7232063134
 10
-2.7920312577
 20
-0.6953330356
 10
-2.8081498329
 20
-0.6685420809
 10
-2.826579625
 20
-0.643464793
 10
-2.8474646378
 20
-0.6200828973
 10
-2.8706608675
 20
-0.5984146691
 10
-2.8958805296
 20
-0.5791462776
 10
-2.9231781352
 20
-0.5623525518
 10
-2.9524991731
 20
-0.5479586634
 10
-2.9833923247
 20
-0.5364262955
 10
-3.0157071507
 20
-0.5279093427
 10
-3.0495940904
 20
-0.5222539108
 10
-3.0850531438
 20
-0.51946
  0
LWPOLYLINE
  5
29A
100
AcDbEntity
  8
0
100
AcDbPolyline
 62
7
  6
CONTINUOUS
 90
43
 70
0
 10
-1.6878147378
 20
1.5356783187
 10
-1.6879960738
 20
1.4380156004
 10
-1.6895760338
 20
1.3890314913
 10
-1.6925563696
 20
1.3399059143
 10
-1.6967455234
 20
1.290260855
 10
-1.7023350531
 20
1.2404743283
 10
-1.7098996329
 20
1.1916803786
 10
-1.7194573605
 20
1.1440033205
 10
-1.7309901382
 20
1.0973188417
 10
-1.7450183474
 20
1.0523880477
 10
-1.7614911073
 20
1.0093382761
 10
-1.7804592988
 20
0.968042192
 10
-1.8025959453
 20
0.9288788923
 10
-1.8277462809
 20
0.8915631902
 10
-1.8560650715
 20
0.8563802747
 10
-1.888689638
 20
0.8245648075
 10
-1.9263528007
 20
0.7958565171
 10
-1.9683217394
 20
0.7705156772
 10
-2.0135353134
 20
0.7505577669
 10
-2.0625944056
 20
0.7366743409
 10
-2.1148981333
 20
0.7281738464
 10
-2.1675827074
 20
0.7249971019
 10
-2.22080796
 20
0.7270176484
 10
-2.2744140592
 20
0.7343619449
 10
-2.3250577199
 20
0.747350187
 10
-2.3721528975
 20
0.7667450279
 10
-2.4162856367
 20
0.7917838125
 10
-2.455870787
 20
0.8204987729
 10
-2.490083916
 20
0.8527159111
 10
-2.519749456
 20
0.8886092227
 10
-2.5457555546
 20
0.9267329307
 10
-2.5680033503
 20
0.9668394424
 10
-2.5865917045
 20
1.0091763482
 10
-2.6027053481
 20
1.0530406467
 10
-2.6165446194
 20
1.0984298345
 10
-2.6279091802
 20
1.1453464126
 10
-2.637382747
 20
1.193094887
 10
-2.6449999181
 20
1.2417657762
 10
-2.6507260953
 20
1.2912685596
 10
-2.6550411999
 20
1.3406361855
 10
-2.6581052058
 20
1.3895463035
 10
-2.6597581392
 20
1.4383212634
 10
-2.66
 20
1.486961065
  0
LWPOLYLINE
  5
29B
100
AcDbEntity
  8
0
100
AcDbPolyline
 62
7
  6
CONTINUOUS
 90
42
 70
0
 10
-2.66
 20
1.486961065
 10
-2.65981286
 20
1.5359671851
 10
-2.6582170811
 20
1.5851169355
 10
-2.6552126633
 20
1.6344103156
 10
-2.6509868621
 20
1.6842315727
 10
-2.6453524221
 20
1.7341964581
 10
-2.6377475762
 20
1.7831522273
 10
-2.6281668557
 20
1.8309716651
 10
-2.6166157295
 20
1.8777819882
 10
-2.602548837
 20
1.9228121023
 10
-2.5860065061
 20
1.9659233687
 10
-2.566948409
 20
2.0072544292
 10
-2.5447082017
 20
2.0464501119
 10
-2.5194452151
 20
2.0838100962
 10
-2.4910001184
 20
2.1190347062
 10
-2.4582285749
 20
2.1508697385
 10
-2.4203693043
 20
2.1795713231
 10
-2.3781835869
 20
2.204883335
 10
-2.3328109279
 20
2.2247831909
 10
-2.2836603777
 20
2.2385777753
 10
-2.2313228858
 20
2.2469602088
 10
-2.1787108063
 20
2.2499872623
 10
-2.1256838142
 20
2.2477694734
 10
-2.0723822345
 20
2.2401963047
 10
-2.0221393963
 20
2.226992913
 10
-1.9755990329
 20
2.2073818513
 10
-1.9321174111
 20
2.1821405614
 10
-1.8930966599
 20
2.1533265332
 10
-1.8593475463
 20
2.1211619211
 10
-1.8300593033
 20
2.0854245652
 10
-1.8042017593
 20
2.047505486
 10
-1.7817985686
 20
2.0076733939
 10
-1.7628260769
 20
1.9656595749
 10
-1.7461831492
 20
1.922048914
 10
-1.7315385925
 20
1.8768220798
 10
-1.7192236
 20
1.8299984011
 10
-1.7091306161
 20
1.7822207549
 10
-1.7014905778
 20
1.7333311768
 10
-1.6960725483
 20
1.6834876302
 10
-1.6920761613
 20
1.6338068854
 10
-1.6892346282
 20
1.5846612003
 10
-1.6878147378
 20
1.5356783187
  0
LINE
  5
29C
100
AcDbEntity
  8
DRAFT
100
AcDbLine
 62
7
  6
CONTINUOUS
 10
3.9733373476
 20
23.5
 11
3.9526845545
 21
23.4301797403
  0
LINE
  5
29D
100
AcDbEntity
  8
0
100
AcDbLine
 62
7
  6
CONTINUOUS
 10
1.38724
 20
13.025046
 11
0.729031
 21
10.974949
  0
LINE
  5
29E
100
AcDbEntity
  8
0
100
AcDbLine
 62
7
  6
CONTINUOUS
 10
1.268489
 20
11.378117
 11
1.139047
 21
10.974954
  0
LINE
  5
29F
100
AcDbEntity
  8
0
100
AcDbLine
 62
7
  6
CONTINUOUS
 10
1.592256
 20
12.386548
 11
1.393554
 21
11.767632
  0
LINE
  5
2A0
100
AcDbEntity
  8
RACCORDO
100
AcDbLine
 62
250
  6
CONTINUOUS
 10
-9.65
 20
-20.6999084592
 11
-9.5210191944
 21
-20.3126513725
  0
LINE
  5
2A1
100
AcDbEntity
  8
RACCORDO
100
AcDbLine
 62
250
  6
CONTINUOUS
 10
-9.4501522399
 20
-20.9
 11
-9.3210496291
 21
-20.5123772007
  0
LWPOLYLINE
  5
2A2
100
AcDbEntity
  8
0
100
AcDbPolyline
 62
7
  6
CONTINUOUS
 90
28
 70
0
 10
-1.9616179073
 20
0.9969086951
 10
-1.9454697883
 20
1.0241736592
 10
-1.9313865177
 20
1.0533077286
 10
-1.9193680954
 20
1.0843109027
 10
-1.9097340111
 20
1.1173868266
 10
-1.9021647752
 20
1.1523318532
 10
-1.8957019185
 20
1.1885350438
 10
-1.8901024659
 20
1.2259433512
 10
-1.8856093925
 20
1.2646098209
 10
-1.8819931548
 20
1.3040826525
 10
-1.8792492679
 20
1.3443861259
 10
-1.8773822167
 20
1.3854959597
 10
-1.8761759124
 20
1.4268875126
 10
-1.8755568861
 20
1.4685832346
 10
-1.8755986069
 20
1.5105606747
 10
-1.8763053933
 20
1.552227841
 10
-1.8776109781
 20
1.593580969
 10
-1.8795816287
 20
1.634623823
 10
-1.8824204657
 20
1.6747757049
 10
-1.8861261556
 20
1.7140022958
 10
-1.8907000319
 20
1.7523379156
 10
-1.8963492169
 20
1.7893048249
 10
-1.9028421186
 20
1.8249264578
 10
-1.9104103289
 20
1.8591793821
 10
-1.919955745
 20
1.8915155597
 10
-1.9317789991
 20
1.9217523123
 10
-1.9455794589
 20
1.9500723207
 10
-1.9613571245
 20
1.9764755861
  0
LWPOLYLINE
  5
2A3
100
AcDbEntity
  8
0
100
AcDbPolyline
 62
7
  6
CONTINUOUS
 90
42
 70
0
 10
-1.4093736082
 20
2.0600471208
 10
-1.3765746786
 20
2.1006369539
 10
-1.3401500738
 20
2.1367172322
 10
-1.3001890252
 20
2.1684699775
 10
-1.2566023014
 20
2.1957131756
 10
-1.2103113922
 20
2.2175302931
 10
-1.1608261872
 20
2.2336237362
 10
-1.108636797
 20
2.2442911043
 10
-1.0561350426
 20
2.2495086543
 10
-1.003375245
 20
2.2492172111
 10
-0.9503030833
 20
2.2434759505
 10
-0.8991474163
 20
2.2324386551
 10
-0.8502799748
 20
2.2159444543
 10
-0.803329028
 20
2.1941542147
 10
-0.7594082426
 20
2.1677043239
 10
-0.7185099286
 20
2.1364497634
 10
-0.680641776
 20
2.1005355447
 10
-0.6469405217
 20
2.0610331013
 10
-0.6177762182
 20
2.0176817278
 10
-0.5927788131
 20
1.9707421225
 10
-0.5719748856
 20
1.9220678267
 10
-0.555898399
 20
1.8717644869
 10
-0.5440153901
 20
1.8197264537
 10
-0.5347505486
 20
1.7674903283
 10
-0.5279655704
 20
1.7154709906
 10
-0.5237987596
 20
1.6632535616
 10
-0.5210897179
 20
1.6111300061
 10
-0.5195187566
 20
1.5592189009
 10
-0.5194055644
 20
1.5074016706
 10
-0.5205488096
 20
1.4556145512
 10
-0.522667979
 20
1.4038554328
 10
-0.5260435858
 20
1.3521264266
 10
-0.5313158381
 20
1.3003701002
 10
-0.538387844
 20
1.2481788439
 10
-0.5473564955
 20
1.1959602682
 10
-0.559152676
 20
1.1448797723
 10
-0.574159195
 20
1.0946012456
 10
-0.5919932431
 20
1.0454608012
 10
-0.6124372755
 20
0.999632175
 10
-0.6357803182
 20
0.9576304532
 10
-0.6617333452
 20
0.9189405541
 10
-0.6892117338
 20
0.8841909631
  0
LWPOLYLINE
  5
2A4
100
AcDbEntity
  8
0
100
AcDbPolyline
 62
7
  6
CONTINUOUS
 90
5
 70
0
 10
-0.8280362923
 20
1.4864889415
 10
-0.8080825258
 20
1.5065590711
 10
-0.7892567508
 20
1.5295571504
 10
-0.77260968
 20
1.5551153697
 10
-0.758365763
 20
1.5833463988
  0
LWPOLYLINE
  5
2A5
100
AcDbEntity
  8
0
100
AcDbPolyline
 62
7
  6
CONTINUOUS
 90
26
 70
0
 10
-0.796577568
 20
1.3497918141
 10
-0.8366349097
 20
1.3215811405
 10
-0.8808465728
 20
1.2969204842
 10
-0.9274285909
 20
1.2779523991
 10
-0.9767250848
 20
1.2653248206
 10
-1.0283919338
 20
1.2583898161
 10
-1.0796128088
 20
1.2573461374
 10
-1.1300396271
 20
1.2622555186
 10
-1.1800204714
 20
1.2730562252
 10
-1.2277832608
 20
1.289761806
 10
-1.2731787888
 20
1.3125585043
 10
-1.316356262
 20
1.3412600732
 10
-1.3559912191
 20
1.375321325
 10
-1.392379769
 20
1.4150352044
 10
-1.4252258028
 20
1.4601087597
 10
-1.4523165324
 20
1.5091179594
 10
-1.4728529696
 20
1.5625624187
 10
-1.4876341027
 20
1.6199425137
 10
-1.4968441087
 20
1.6783353569
 10
-1.5004747929
 20
1.7378331756
 10
-1.4985343499
 20
1.7983437385
 10
-1.4912315408
 20
1.8566674778
 10
-1.4784534506
 20
1.9123886302
 10
-1.4603129942
 20
1.9659229635
 10
-1.4373576777
 20
2.0153182125
 10
-1.4093736082
 20
2.0600471208
  0
LINE
  5
2A6
100
AcDbEntity
  8
0
100
AcDbLine
 62
7
  6
CONTINUOUS
 10
5.740885
 20
-1.625
 11
5.572062
 21
-1.625
  0
LINE
  5
2A7
100
AcDbEntity
  8
0
100
AcDbLine
 62
7
  6
CONTINUOUS
 10
5.042846
 20
-1.625
 11
4.240177
 21
-1.625
  0
LINE
  5
2A8
100
AcDbEntity
  8
0
100
AcDbLine
 62
7
  6
CONTINUOUS
 10
4.085305
 20
-1.625
 11
3.900711
 21
-1.625
  0
LINE
  5
2A9
100
AcDbEntity
  8
0
100
AcDbLine
 62
7
  6
CONTINUOUS
 10
3.14508
 20
-1.625
 11
2.97101
 21
-1.625
  0
LINE
  5
2AA
100
AcDbEntity
  8
0
100
AcDbLine
 62
7
  6
CONTINUOUS
 10
2.499195
 20
-1.625
 11
2.330341
 21
-1.625
  0
LINE
  5
2AB
100
AcDbEntity
  8
0
100
AcDbLine
 62
7
  6
CONTINUOUS
 10
1.726206
 20
-1.625
 11
1.557292
 21
-1.625
  0
LINE
  5
2AC
100
AcDbEntity
  8
0
100
AcDbLine
 62
7
  6
CONTINUOUS
 10
0.782585
 20
-1.625
 11
0.592826
 21
-1.625
  0
LINE
  5
2AD
100
AcDbEntity
  8
0
100
AcDbLine
 62
7
  6
CONTINUOUS
 10
-0.046125
 20
-1.625
 11
-0.209843
 21
-1.625
  0
LINE
  5
2AE
100
AcDbEntity
  8
0
100
AcDbLine
 62
7
  6
CONTINUOUS
 10
-0.498804
 20
-1.625
 11
-0.667667
 21
-1.625
  0
LINE
  5
2AF
100
AcDbEntity
  8
0
100
AcDbLine
 62
7
  6
CONTINUOUS
 10
-1.398905
 20
-1.625
 11
-2.321671
 21
-1.625
  0
LINE
  5
2B0
100
AcDbEntity
  8
0
100
AcDbLine
 62
7
  6
CONTINUOUS
 10
-3.0807487364
 20
-1.625
 11
-3.58739
 21
-1.625
  0
LINE
  5
2B1
100
AcDbEntity
  8
0
100
AcDbLine
 62
7
  6
CONTINUOUS
 10
-3.751028
 20
-1.625
 11
-3.935591
 21
-1.625
  0
LINE
  5
2B2
100
AcDbEntity
  8
0
100
AcDbLine
 62
7
  6
CONTINUOUS
 10
-4.691151
 20
-1.625
 11
-4.865231
 21
-1.625
  0
LINE
  5
2B3
100
AcDbEntity
  8
0
100
AcDbLine
 62
7
  6
CONTINUOUS
 10
-5.014958
 20
-1.625
 11
-5.178666
 21
-1.625
  0
LINE
  5
2B4
100
AcDbEntity
  8
0
100
AcDbLine
 62
7
  6
CONTINUOUS
 10
-5.5303
 20
-1.625
 11
-5.697438
 21
-1.625
  0
LINE
  5
2B5
100
AcDbEntity
  8
0
100
AcDbLine
 62
7
  6
CONTINUOUS
 10
-6.049139
 20
-1.625
 11
-6.212781
 21
-1.625
  0
LINE
  5
2B6
100
AcDbEntity
  8
RACCORDO
100
AcDbLine
 62
250
  6
CONTINUOUS
 10
-9.65
 20
20.6999084592
 11
-9.5210191919
 21
20.3126513649
  0
LINE
  5
2B7
100
AcDbEntity
  8
RACCORDO
100
AcDbLine
 62
250
  6
CONTINUOUS
 10
-9.4501522399
 20
20.9
 11
-9.3210496291
 21
20.5123772007
  0
LINE
  5
2B8
100
AcDbEntity
  8
DRAFT
100
AcDbLine
 62
7
  6
CONTINUOUS
 10
3.9733373476
 20
-23.5
 11
3.9526845545
 21
-23.4301797403
  0
LINE
  5
2B9
100
AcDbEntity
  8
DRAFT
100
AcDbLine
 62
7
  6
CONTINUOUS
 10
-0.4681608314
 20
-13.7454640196
 11
-0.3301850577
 21
-19.5
  0
LWPOLYLINE
  5
2BA
100
AcDbEntity
  8
0
100
AcDbPolyline
 62
7
  6
CONTINUOUS
 90
31
 70
0
 10
-1.312294854
 20
1.7398839688
 10
-1.3119082859
 20
1.7171201264
 10
-1.3101430626
 20
1.6945724528
 10
-1.306999184
 20
1.6722409481
 10
-1.3025370063
 20
1.6499887073
 10
-1.2966961734
 20
1.6279526358
 10
-1.2892956166
 20
1.6065434489
 10
-1.2802326248
 20
1.5857967603
 10
-1.2696099093
 20
1.5656769569
 10
-1.2575545355
 20
1.5464879157
 10
-1.2440347853
 20
1.5282157812
 10
-1.2290823768
 20
1.5108744095
 10
-1.2129195304
 20
1.4948092439
 10
-1.1955358171
 20
1.4800116405
 10
-1.1769416658
 20
1.4664902439
 10
-1.157390583
 20
1.4546164298
 10
-1.1367611704
 20
1.4444713185
 10
-1.1151748264
 20
1.4359737904
 10
-1.093249252
 20
1.4292518609
 10
-1.0710428302
 20
1.4244297074
 10
-1.048497178
 20
1.4213831529
 10
-1.0260548477
 20
1.4198676824
 10
-1.0038945011
 20
1.4197360324
 10
-0.9818374763
 20
1.4211354665
 10
-0.95979034
 20
1.4242632597
 10
-0.9377031337
 20
1.4289344728
 10
-0.9156258158
 20
1.4353340449
 10
-0.8936148285
 20
1.4442140689
 10
-0.8713350989
 20
1.4556760752
 10
-0.8491216999
 20
1.4696185325
 10
-0.8280362923
 20
1.4864889415
  0
LWPOLYLINE
  5
2BB
100
AcDbEntity
  8
0
100
AcDbPolyline
 62
7
  6
CONTINUOUS
 90
34
 70
0
 10
-0.7239777469
 20
1.7551395421
 10
-0.7243055653
 20
1.7797898589
 10
-0.7259768014
 20
1.8042527306
 10
-0.7289914551
 20
1.8285281571
 10
-0.7332825936
 20
1.8527942294
 10
-0.7389171498
 20
1.8768728566
 10
-0.7460959219
 20
1.900229766
 10
-0.7548330479
 20
1.9227888013
 10
-0.76511439
 20
1.9446261195
 10
-0.7770983325
 20
1.9654359181
 10
-0.7907518925
 20
1.9851942676
 10
-0.806108053
 20
2.0039250985
 10
-0.8234241477
 20
2.0213943992
 10
-0.8427334587
 20
2.037718654
 10
-0.8640027038
 20
2.0527813796
 10
-0.8873893706
 20
2.0659991134
 10
-0.9132512237
 20
2.0776496432
 10
-0.9412304985
 20
2.0874551823
 10
-0.9704113879
 20
2.0939989069
 10
-1.0009146025
 20
2.097088973
 10
-1.0326194319
 20
2.0969172254
 10
-1.0642479374
 20
2.092642373
 10
-1.0958145456
 20
2.083981299
 10
-1.12730483
 20
2.0712171189
 10
-1.1573975733
 20
2.0543578895
 10
-1.1861148847
 20
2.0332006759
 10
-1.213434655
 20
2.0079484091
 10
-1.2379693388
 20
1.9792179446
 10
-1.2596868167
 20
1.9470349964
 10
-1.278619208
 20
1.9113738457
 10
-1.2934753261
 20
1.872774199
 10
-1.3038247754
 20
1.8314159571
 10
-1.3100979513
 20
1.7871192146
 10
-1.312294854
 20
1.7398839688
  0
LWPOLYLINE
  5
2BC
100
AcDbEntity
  8
0
100
AcDbPolyline
 62
7
  6
CONTINUOUS
 90
18
 70
0
 10
-0.1523083808
 20
1.459208834
 10
-0.1519552141
 20
1.4319828552
 10
-0.1512909868
 20
1.4047615628
 10
-0.1503527516
 20
1.3775464856
 10
-0.1491034558
 20
1.3503360951
 10
-0.1474319409
 20
1.3231258057
 10
-0.1453385061
 20
1.2959235911
 10
-0.1428228522
 20
1.2687214777
 10
-0.1397729239
 20
1.2414909587
 10
-0.1362852255
 20
1.2142362694
 10
-0.1322632525
 20
1.1869531745
 10
-0.1273054365
 20
1.1596004615
 10
-0.1216776598
 20
1.1320731467
 10
-0.1151140399
 20
1.1044762139
 10
-0.1064153611
 20
1.0770834016
 10
-0.0951818845
 20
1.0499859562
 10
-0.0818133488
 20
1.0230926318
 10
-0.0663097541
 20
0.9964034284
  0
LWPOLYLINE
  5
2BD
100
AcDbEntity
  8
0
100
AcDbPolyline
 62
7
  6
CONTINUOUS
 90
7
 70
0
 10
-0.7020723068
 20
1.4169093573
 10
-0.7021365523
 20
1.4229922411
 10
-0.7022446417
 20
1.4290867723
 10
-0.702396575
 20
1.4351929509
 10
-0.7025923522
 20
1.4413107769
 10
-0.7028319732
 20
1.4474402502
 10
-0.7031154381
 20
1.453581371
  0
LINE
  5
2BE
100
AcDbEntity
  8
0
100
AcDbLine
 62
7
  6
CONTINUOUS
 10
-1.482637
 20
9.626074
 11
-1.482637
 21
9.47635
  0
LINE
  5
2BF
100
AcDbEntity
  8
0
100
AcDbLine
 62
7
  6
CONTINUOUS
 10
-1.468557
 20
-0.907754
 11
-1.468557
 21
-1.057471
  0
LINE
  5
2C0
100
AcDbEntity
  8
0
100
AcDbLine
 62
7
  6
CONTINUOUS
 10
-1.411107
 20
-0.375
 11
-1.411107
 21
-0.524717
  0
LINE
  5
2C1
100
AcDbEntity
  8
0
100
AcDbLine
 62
7
  6
CONTINUOUS
 10
-1.398905
 20
-1.475283
 11
-1.398905
 21
-1.625
  0
LINE
  5
2C2
100
AcDbEntity
  8
0
100
AcDbLine
 62
7
  6
CONTINUOUS
 10
-1.307101
 20
5.400011
 11
-1.307101
 21
3.6
  0
LINE
  5
2C3
100
AcDbEntity
  8
0
100
AcDbLine
 62
7
  6
CONTINUOUS
 10
-1.306759
 20
8.560638
 11
-1.306759
 21
8.376074
  0
LINE
  5
2C4
100
AcDbEntity
  8
0
100
AcDbLine
 62
7
  6
CONTINUOUS
 10
-1.139626
 20
12.326847
 11
-1.139626
 21
10.974949
  0
LINE
  5
2C5
100
AcDbEntity
  8
0
100
AcDbLine
 62
7
  6
CONTINUOUS
 10
-1.125748
 20
8.560638
 11
-1.125748
 21
8.376074
  0
LINE
  5
2C6
100
AcDbEntity
  8
0
100
AcDbLine
 62
7
  6
CONTINUOUS
 10
-1.067591
 20
5.198332
 11
-1.067591
 21
4.626057
  0
LINE
  5
2C7
100
AcDbEntity
  8
0
100
AcDbLine
 62
7
  6
CONTINUOUS
 10
-1.067591
 20
4.42436
 11
-1.067591
 21
3.801679
  0
LINE
  5
2C8
100
AcDbEntity
  8
0
100
AcDbLine
 62
7
  6
CONTINUOUS
 10
-0.667667
 20
-0.375
 11
-0.667667
 21
-1.625
  0
LINE
  5
2C9
100
AcDbEntity
  8
0
100
AcDbLine
 62
7
  6
CONTINUOUS
 10
-0.498804
 20
-0.375
 11
-0.498804
 21
-1.625
  0
LINE
  5
2CA
100
AcDbEntity
  8
0
100
AcDbLine
 62
7
  6
CONTINUOUS
 10
-0.340612
 20
9.626074
 11
-0.340612
 21
8.376074
  0
LINE
  5
2CB
100
AcDbEntity
  8
DRAFT
100
AcDbLine
 62
7
  6
CONTINUOUS
 10
-0.3301850577
 20
20.5698149423
 11
-0.3301850577
 21
19.5
  0
LINE
  5
2CC
100
AcDbEntity
  8
DRAFT
100
AcDbLine
 62
7
  6
CONTINUOUS
 10
-0.3301850577
 20
-19.5
 11
-0.3301850577
 21
-20.5698149423
  0
LINE
  5
2CD
100
AcDbEntity
  8
0
100
AcDbLine
 62
7
  6
CONTINUOUS
 10
-0.209843
 20
-0.375
 11
-0.209843
 21
-1.625
  0
LINE
  5
2CE
100
AcDbEntity
  8
0
100
AcDbLine
 62
7
  6
CONTINUOUS
 10
-0.171741
 20
9.481581
 11
-0.171741
 21
9.048103
  0
LINE
  5
2CF
100
AcDbEntity
  8
0
100
AcDbLine
 62
7
  6
CONTINUOUS
 10
-0.171741
 20
8.90361
 11
-0.171741
 21
8.376074
  0
LINE
  5
2D0
100
AcDbEntity
  8
0
100
AcDbLine
 62
7
  6
CONTINUOUS
 10
-0.132297
 20
4.626057
 11
-0.132297
 21
4.42436
  0
LINE
  5
2D1
100
AcDbEntity
  8
0
100
AcDbLine
 62
7
  6
CONTINUOUS
 10
-0.064229
 20
5.400011
 11
-0.064229
 21
5.198332
  0
LINE
  5
2D2
100
AcDbEntity
  8
0
100
AcDbLine
 62
7
  6
CONTINUOUS
 10
-0.056669
 20
3.801679
 11
-0.056669
 21
3.6
  0
LINE
  5
2D3
100
AcDbEntity
  8
0
100
AcDbLine
 62
7
  6
CONTINUOUS
 10
-0.046125
 20
-0.60985
 11
-0.046125
 21
-1.625
  0
LINE
  5
2D4
100
AcDbEntity
  8
0
100
AcDbLine
 62
7
  6
CONTINUOUS
 10
0.045669
 20
12.326847
 11
0.045674
 21
10.974949
  0
LINE
  5
2D5
100
AcDbEntity
  8
0
100
AcDbLine
 62
7
  6
CONTINUOUS
 10
0.117556
 20
-4.625
 11
0.117556
 21
-5.375
  0
LWPOLYLINE
  5
2D6
100
AcDbEntity
  8
0
100
AcDbPolyline
 62
7
  6
CONTINUOUS
 90
42
 70
0
 10
-0.3401112656
 20
1.486961065
 10
-0.3399241257
 20
1.5359671851
 10
-0.3383283467
 20
1.5851169355
 10
-0.3353239289
 20
1.6344103156
 10
-0.3310981278
 20
1.6842315727
 10
-0.3254636877
 20
1.7341964581
 10
-0.3178588419
 20
1.7831522273
 10
-0.3082781214
 20
1.8309716651
 10
-0.2967269951
 20
1.8777819882
 10
-0.2826601026
 20
1.9228121023
 10
-0.2661177717
 20
1.9659233687
 10
-0.2470596746
 20
2.0072544292
 10
-0.2248194674
 20
2.0464501119
 10
-0.1995564808
 20
2.0838100962
 10
-0.171111384
 20
2.1190347062
 10
-0.1383398406
 20
2.1508697385
 10
-0.1004805699
 20
2.1795713231
 10
-0.0582948526
 20
2.204883335
 10
-0.0129221936
 20
2.2247831909
 10
0.0362283567
 20
2.2385777753
 10
0.0885658485
 20
2.2469602088
 10
0.141177928
 20
2.2499872623
 10
0.1942049201
 20
2.2477694734
 10
0.2475064999
 20
2.2401963047
 10
0.2977493381
 20
2.226992913
 10
0.3442897014
 20
2.2073818513
 10
0.3877713233
 20
2.1821405614
 10
0.4267920745
 20
2.1533265332
 10
0.4605411881
 20
2.1211619211
 10
0.4898294311
 20
2.0854245652
 10
0.5156869751
 20
2.047505486
 10
0.5380901658
 20
2.0076733939
 10
0.5570626575
 20
1.9656595749
 10
0.5737055851
 20
1.922048914
 10
0.5883501418
 20
1.8768220798
 10
0.6006651344
 20
1.8299984011
 10
0.6107581183
 20
1.7822207549
 10
0.6183981565
 20
1.7333311768
 10
0.6238161861
 20
1.6834876302
 10
0.6278125731
 20
1.6338068854
 10
0.6306541061
 20
1.5846612003
 10
0.6320739966
 20
1.5356783187
  0
LINE
  5
2D7
100
AcDbEntity
  8
DRAFT
100
AcDbLine
 62
7
  6
CONTINUOUS
 10
-0.3301850577
 20
19.5
 11
-0.4681608314
 21
13.7454640196
  0
LWPOLYLINE
  5
2D8
100
AcDbEntity
  8
0
100
AcDbPolyline
 62
7
  6
CONTINUOUS
 90
5
 70
0
 10
-0.7060880315
 20
1.3302402107
 10
-0.7043188329
 20
1.3518655518
 10
-0.7030586387
 20
1.3735188353
 10
-0.7023097966
 20
1.3952001038
 10
-0.7020723068
 20
1.4169093573
  0
LINE
  5
2D9
100
AcDbEntity
  8
0
100
AcDbLine
 62
7
  6
CONTINUOUS
 10
1.445817
 20
5.400005
 11
0.9239835
 21
3.839488
  0
LINE
  5
2DA
100
AcDbEntity
  8
0
100
AcDbLine
 62
7
  6
CONTINUOUS
 10
1.695412
 20
5.400005
 11
1.055052
 21
3.599995
  0
LWPOLYLINE
  5
2DB
100
AcDbEntity
  8
0
100
AcDbPolyline
 62
7
  6
CONTINUOUS
 90
6
 70
0
 10
-0.758365763
 20
1.5833463988
 10
-0.7463005501
 20
1.6141375653
 10
-0.7367914056
 20
1.6467830463
 10
-0.7299641176
 20
1.6810475668
 10
-0.7256928981
 20
1.7171663993
 10
-0.7239777469
 20
1.7551395421
  0
LWPOLYLINE
  5
2DC
100
AcDbEntity
  8
0
100
AcDbPolyline
 62
7
  6
CONTINUOUS
 90
28
 70
0
 10
0.3582708271
 20
0.9969086951
 10
0.374418946
 20
1.0241736592
 10
0.3885022167
 20
1.0533077286
 10
0.400520639
 20
1.0843109027
 10
0.4101547233
 20
1.1173868266
 10
0.4177239592
 20
1.1523318532
 10
0.4241868159
 20
1.1885350438
 10
0.4297862685
 20
1.2259433512
 10
0.4342793418
 20
1.2646098209
 10
0.4378955795
 20
1.3040826525
 10
0.4406394665
 20
1.3443861259
 10
0.4425065177
 20
1.3854959597
 10
0.4437128219
 20
1.4268875126
 10
0.4443318482
 20
1.4685832346
 10
0.4442901275
 20
1.5105606747
 10
0.443583341
 20
1.552227841
 10
0.4422777562
 20
1.593580969
 10
0.4403071057
 20
1.634623823
 10
0.4374682686
 20
1.6747757049
 10
0.4337625788
 20
1.7140022958
 10
0.4291887024
 20
1.7523379156
 10
0.4235395175
 20
1.7893048249
 10
0.4170466157
 20
1.8249264578
 10
0.4094784054
 20
1.8591793821
 10
0.3999329894
 20
1.8915155597
 10
0.3881097353
 20
1.9217523123
 10
0.3743092754
 20
1.9500723207
 10
0.3585316099
 20
1.9764755861
  0
LWPOLYLINE
  5
2DD
100
AcDbEntity
  8
0
100
AcDbPolyline
 62
7
  6
CONTINUOUS
 90
16
 70
0
 10
-0.8113062289
 20
0.9971860404
 10
-0.7956072611
 20
1.0202779409
 10
-0.7824393911
 20
1.0432938658
 10
-0.7715420869
 20
1.0665516436
 10
-0.7618578387
 20
1.0896075555
 10
-0.7531982067
 20
1.1123241291
 10
-0.7457516307
 20
1.1348388368
 10
-0.7390259194
 20
1.1571203771
 10
-0.7329184129
 20
1.179113016
 10
-0.7275317712
 20
1.2008724876
 10
-0.722681783
 20
1.2225346929
 10
-0.7183131306
 20
1.244103139
 10
-0.7144811318
 20
1.2655743189
 10
-0.7111675284
 20
1.2870736122
 10
-0.7083685822
 20
1.3086428548
 10
-0.7060880315
 20
1.3302402107
  0
LINE
  5
2DE
100
AcDbEntity
  8
0
100
AcDbLine
 62
7
  6
CONTINUOUS
 10
1.4060639777
 20
1.9477247079
 11
0.9376073684
 21
1.2757301808
  0
LINE
  5
2DF
100
AcDbEntity
  8
0
100
AcDbLine
 62
7
  6
CONTINUOUS
 10
1.4394436718
 20
2.2437413074
 11
0.7572461752
 21
1.2757301808
  0
LWPOLYLINE
  5
2E0
100
AcDbEntity
  8
0
100
AcDbPolyline
 62
7
  6
CONTINUOUS
 90
4
 70
0
 10
-0.7031154381
 20
1.453581371
 10
-0.73011516
 20
1.4154348395
 10
-0.7612692033
 20
1.3808383198
 10
-0.796577568
 20
1.3497918141
  0
LINE
  5
2E1
100
AcDbEntity
  8
0
100
AcDbLine
 62
7
  6
CONTINUOUS
 10
-0.8292757627
 20
0.9743359929
 11
-0.8113062289
 21
0.9971860404
  0
LWPOLYLINE
  5
2E2
100
AcDbEntity
  8
0
100
AcDbPolyline
 62
7
  6
CONTINUOUS
 90
37
 70
0
 10
-0.6892117338
 20
0.8841909631
 10
-0.7183053232
 20
0.8537036011
 10
-0.7489242742
 20
0.8271565504
 10
-0.7797144457
 20
0.8042125388
 10
-0.810425957
 20
0.7850858271
 10
-0.8413086888
 20
0.769562156
 10
-0.8717581432
 20
0.7566614736
 10
-0.9015933386
 20
0.7463284003
 10
-0.9309952567
 20
0.7386183163
 10
-0.9599023437
 20
0.7327173083
 10
-0.9882908154
 20
0.7285245269
 10
-1.0161844561
 20
0.7261408217
 10
-1.0435930649
 20
0.725054828
 10
-1.0704671273
 20
0.725087102
 10
-1.0968561577
 20
0.7264170875
 10
-1.1229184991
 20
0.7290717512
 10
-1.1487202534
 20
0.7329693051
 10
-1.1741953186
 20
0.738191537
 10
-1.1993037313
 20
0.7450107773
 10
-1.2242145777
 20
0.7535080808
 10
-1.2487587716
 20
0.7636023925
 10
-1.2723890911
 20
0.7753228775
 10
-1.2950608336
 20
0.7887109897
 10
-1.3168187016
 20
0.8037252747
 10
-1.337249581
 20
0.8202705359
 10
-1.3562700276
 20
0.8385029651
 10
-1.3739634855
 20
0.8582663698
 10
-1.3901671733
 20
0.8789969763
 10
-1.4047764782
 20
0.9006151367
 10
-1.417896013
 20
0.9232004984
 10
-1.4296768344
 20
0.9464282314
 10
-1.440155082
 20
0.9702760009
 10
-1.4492946162
 20
0.9947661413
 10
-1.4571380746
 20
1.0196408267
 10
-1.4636996694
 20
1.044814115
 10
-1.4689651884
 20
1.070371948
 10
-1.4729346314
 20
1.0963143255
  0
LWPOLYLINE
  5
2E3
100
AcDbEntity
  8
0
100
AcDbPolyline
 62
7
  6
CONTINUOUS
 90
10
 70
0
 10
2.4846453408
 20
1.9188108564
 10
2.4503103774
 20
1.8891684742
 10
2.4142522269
 20
1.8607841661
 10
2.3764708893
 20
1.8336579332
 10
2.3368229286
 20
1.8077755973
 10
2.2954517807
 20
1.7831513381
 10
2.2527877538
 20
1.7598276926
 10
2.2089742838
 20
1.7378188403
 10
2.1638679347
 20
1.717110603
 10
2.1174687065
 20
1.6977029813
  0
LWPOLYLINE
  5
2E4
100
AcDbEntity
  8
0
100
AcDbPolyline
 62
7
  6
CONTINUOUS
 90
22
 70
0
 10
2.1174687065
 20
1.875000008
 10
2.142423458
 20
1.8870093644
 10
2.1670458828
 20
1.8995675719
 10
2.1913359809
 20
1.9126746303
 10
2.2153112757
 20
1.9263190377
 10
2.2389542439
 20
1.9405122956
 10
2.2622123152
 20
1.9552889089
 10
2.285075846
 20
1.9706624792
 10
2.3075544801
 20
1.9866194044
 10
2.3296245779
 20
2.003153384
 10
2.3513045776
 20
2.0202633008
 10
2.3725760412
 20
2.0379502716
 10
2.3933600153
 20
2.0562113466
 10
2.4136931208
 20
2.0750177059
 10
2.4335387368
 20
2.094398169
 10
2.452708048
 20
2.1144362456
 10
2.471258065
 20
2.1351094603
 10
2.4891317772
 20
2.1564402879
 10
2.5059693375
 20
2.1785796627
 10
2.5216507967
 20
2.2015778958
 10
2.536296104
 20
2.2253846751
 10
2.5499052593
 20
2.25
  0
LWPOLYLINE
  5
2E5
100
AcDbEntity
  8
0
100
AcDbPolyline
 62
7
  6
CONTINUOUS
 90
21
 70
0
 10
-3.0850531438
 20
-1.48054
 10
-3.0497424139
 20
-1.4777982476
 10
-3.015936592
 20
-1.4721686899
 10
-2.9836356783
 20
-1.4636513266
 10
-2.9526577122
 20
-1.4520853477
 10
-2.9231846543
 20
-1.4376315621
 10
-2.8957623856
 20
-1.4207723982
 10
-2.8704815742
 20
-1.401438546
 10
-2.8472515522
 20
-1.3796993141
 10
-2.8263461964
 20
-1.3562450588
 10
-2.8079054115
 20
-1.3310862154
 10
-2.791789293
 20
-1.3042123473
 10
-2.7778520045
 20
-1.2762825035
 10
-2.7662870974
 20
-1.2472937172
 10
-2.7569010203
 20
-1.2172489544
 10
-2.7489672832
 20
-1.1868161631
 10
-2.7422841992
 20
-1.156121945
 10
-2.737053455
 20
-1.1250396983
 10
-2.7331536213
 20
-1.0938575661
 10
-2.7305442214
 20
-1.0626715961
 10
-2.7292657319
 20
-1.0313857407
  0
LINE
  5
2E6
100
AcDbEntity
  8
0
100
AcDbLine
 62
7
  6
CONTINUOUS
 10
-3.0850531438
 20
-1.48054
 11
-3.418466
 21
-1.48054
  0
LINE
  5
2E7
100
AcDbEntity
  8
0
100
AcDbLine
 62
7
  6
CONTINUOUS
 10
5.042846
 20
-1.475283
 11
4.409102
 21
-1.475283
  0
LINE
  5
2E8
100
AcDbEntity
  8
0
100
AcDbLine
 62
7
  6
CONTINUOUS
 10
-1.398905
 20
-1.475283
 11
-2.152756
 21
-1.475283
  0
LINE
  5
2E9
100
AcDbEntity
  8
0
100
AcDbLine
 62
7
  6
CONTINUOUS
 10
3.777106
 20
-1.261171
 11
3.275681
 21
-1.261171
  0
LINE
  5
2EA
100
AcDbEntity
  8
0
100
AcDbLine
 62
7
  6
CONTINUOUS
 10
-4.059186
 20
-1.261171
 11
-4.560561
 21
-1.261171
  0
LINE
  5
2EB
100
AcDbEntity
  8
0
100
AcDbLine
 62
7
  6
CONTINUOUS
 10
3.716158
 20
-1.111454
 11
3.327915
 21
-1.111454
  0
LINE
  5
2EC
100
AcDbEntity
  8
0
100
AcDbLine
 62
7
  6
CONTINUOUS
 10
-4.120073
 20
-1.111454
 11
-4.508316
 21
-1.111454
  0
LINE
  5
2ED
100
AcDbEntity
  8
0
100
AcDbLine
 62
7
  6
CONTINUOUS
 10
-1.468557
 20
-1.057471
 11
-2.152756
 21
-1.057471
  0
LINE
  5
2EE
100
AcDbEntity
  8
0
100
AcDbLine
 62
7
  6
CONTINUOUS
 10
-1.468557
 20
-0.907754
 11
-2.152756
 21
-0.907754
  0
LINE
  5
2EF
100
AcDbEntity
  8
0
100
AcDbLine
 62
7
  6
CONTINUOUS
 10
2.922264
 20
-0.524717
 11
2.499195
 21
-0.524717
  0
LINE
  5
2F0
100
AcDbEntity
  8
0
100
AcDbLine
 62
7
  6
CONTINUOUS
 10
2.330341
 20
-0.524717
 11
1.907272
 21
-0.524717
  0
LINE
  5
2F1
100
AcDbEntity
  8
0
100
AcDbLine
 62
7
  6
CONTINUOUS
 10
-1.411107
 20
-0.524717
 11
-2.152756
 21
-0.524717
  0
LINE
  5
2F2
100
AcDbEntity
  8
0
100
AcDbLine
 62
7
  6
CONTINUOUS
 10
-3.0850531438
 20
-0.51946
 11
-3.418466
 21
-0.51946
  0
LINE
  5
2F3
100
AcDbEntity
  8
0
100
AcDbLine
 62
7
  6
CONTINUOUS
 10
6.212781
 20
-0.375
 11
6.014237
 21
-0.375
  0
LINE
  5
2F4
100
AcDbEntity
  8
0
100
AcDbLine
 62
7
  6
CONTINUOUS
 10
5.296991
 20
-0.375
 11
5.100266
 21
-0.375
  0
LINE
  5
2F5
100
AcDbEntity
  8
0
100
AcDbLine
 62
7
  6
CONTINUOUS
 10
4.409102
 20
-0.375
 11
4.240177
 21
-0.375
  0
LINE
  5
2F6
100
AcDbEntity
  8
0
100
AcDbLine
 62
7
  6
CONTINUOUS
 10
3.632585
 20
-0.375
 11
3.441107
 21
-0.375
  0
LINE
  5
2F7
100
AcDbEntity
  8
0
100
AcDbLine
 62
7
  6
CONTINUOUS
 10
2.922264
 20
-0.375
 11
1.907272
 21
-0.375
  0
LINE
  5
2F8
100
AcDbEntity
  8
0
100
AcDbLine
 62
7
  6
CONTINUOUS
 10
1.726206
 20
-0.375
 11
1.557292
 21
-0.375
  0
LINE
  5
2F9
100
AcDbEntity
  8
0
100
AcDbLine
 62
7
  6
CONTINUOUS
 10
0.782585
 20
-0.375
 11
0.618948
 21
-0.375
  0
LINE
  5
2FA
100
AcDbEntity
  8
0
100
AcDbLine
 62
7
  6
CONTINUOUS
 10
-0.00959
 20
-0.375
 11
-0.209843
 21
-0.375
  0
LINE
  5
2FB
100
AcDbEntity
  8
0
100
AcDbLine
 62
7
  6
CONTINUOUS
 10
-0.498804
 20
-0.375
 11
-0.667667
 21
-0.375
  0
LINE
  5
2FC
100
AcDbEntity
  8
0
100
AcDbLine
 62
7
  6
CONTINUOUS
 10
-1.411107
 20
-0.375
 11
-2.321671
 21
-0.375
  0
LINE
  5
2FD
100
AcDbEntity
  8
0
100
AcDbLine
 62
7
  6
CONTINUOUS
 10
-3.0754340192
 20
-0.375
 11
-3.58739
 21
-0.375
  0
LINE
  5
2FE
100
AcDbEntity
  8
0
100
AcDbLine
 62
7
  6
CONTINUOUS
 10
-4.203656
 20
-0.375
 11
-4.395195
 21
-0.375
  0
LINE
  5
2FF
100
AcDbEntity
  8
0
100
AcDbLine
 62
7
  6
CONTINUOUS
 10
-5.014958
 20
-0.375
 11
-5.255243
 21
-0.375
  0
LINE
  5
300
100
AcDbEntity
  8
0
100
AcDbLine
 62
7
  6
CONTINUOUS
 10
-5.970779
 20
-0.375
 11
-6.212781
 21
-0.375
  0
LWPOLYLINE
  5
301
100
AcDbEntity
  8
0
100
AcDbPolyline
 62
7
  6
CONTINUOUS
 90
19
 70
0
 10
-3.0754340192
 20
-0.375
 10
-3.0137168136
 20
-0.3793405952
 10
-2.956226002
 20
-0.3886149626
 10
-2.9029615847
 20
-0.4028231022
 10
-2.8540767357
 20
-0.4224034233
 10
-2.8094182808
 20
-0.4469175156
 10
-2.7685266973
 20
-0.4750501491
 10
-2.7312425624
 20
-0.5066447739
 10
-2.6977252988
 20
-0.5418579384
 10
-2.6679936512
 20
-0.579844061
 10
-2.6422452766
 20
-0.6207300573
 10
-2.620282518
 20
-0.6643890097
 10
-2.6015311485
 20
-0.7095945865
 10
-2.5857906288
 20
-0.756340027
 10
-2.5732614983
 20
-0.80463209
 10
-2.5639711485
 20
-0.8532647244
 10
-2.5579287098
 20
-0.9018359129
 10
-2.5551250518
 20
-0.9507476716
 10
-2.5555601745
 20
-1.0
  0
LWPOLYLINE
  5
302
100
AcDbEntity
  8
0
100
AcDbPolyline
 62
7
  6
CONTINUOUS
 90
37
 70
0
 10
-1.9613571245
 20
1.9764755861
 10
-1.9853916558
 20
2.007011341
 10
-2.0108066091
 20
2.0330691427
 10
-2.0376019844
 20
2.0546489942
 10
-2.0662215829
 20
2.0715708558
 10
-2.0962216033
 20
2.0840147713
 10
-2.1262706425
 20
2.0925208683
 10
-2.1561458012
 20
2.0971301407
 10
-2.1860699787
 20
2.0978015958
 10
-2.2153804689
 20
2.094952381
 10
-2.2442241265
 20
2.0886992606
 10
-2.2724540969
 20
2.0789254694
 10
-2.2989671105
 20
2.0656978599
 10
-2.3236894072
 20
2.0484752668
 10
-2.346694747
 20
2.0277988527
 10
-2.3671011405
 20
2.0053589616
 10
-2.3844625784
 20
1.9812114494
 10
-2.39922507
 20
1.9553004584
 10
-2.4118446533
 20
1.9291487636
 10
-2.4221362571
 20
1.903136654
 10
-2.4302849527
 20
1.8768838406
 10
-2.4373019924
 20
1.8507722324
 10
-2.4433488301
 20
1.8248630012
 10
-2.4482640119
 20
1.7990949756
 10
-2.4525744284
 20
1.7736665502
 10
-2.4563986391
 20
1.7486681882
 10
-2.4596180845
 20
1.7240094268
 10
-2.4624039766
 20
1.6996172722
 10
-2.4647759058
 20
1.6755250029
 10
-2.4667142817
 20
1.6516993407
 10
-2.4683315448
 20
1.6279674559
 10
-2.4696384127
 20
1.6042998985
 10
-2.4706241678
 20
1.5807261187
 10
-2.4713690974
 20
1.5571616368
 10
-2.4718999641
 20
1.533578293
 10
-2.4721900053
 20
1.5100042471
 10
-2.4721971152
 20
1.459208834
  0
LWPOLYLINE
  5
303
100
AcDbEntity
  8
0
100
AcDbPolyline
 62
7
  6
CONTINUOUS
 90
16
 70
0
 10
-2.3861984885
 20
0.9964034284
 10
-2.3628305534
 20
0.9662445781
 10
-2.3377564383
 20
0.9403727
 10
-2.3109761433
 20
0.9187877954
 10
-2.2821245498
 20
0.9014481051
 10
-2.2515667764
 20
0.8883953902
 10
-2.2203981785
 20
0.8797549325
 10
-2.1885283426
 20
0.8755894295
 10
-2.1560476822
 20
0.8758361842
 10
-2.1243227924
 20
0.8804323874
 10
-2.0934743875
 20
0.8894427941
 10
-2.0633817532
 20
0.9028026486
 10
-2.0350493428
 20
0.9202548744
 10
-2.0088119738
 20
0.9417137789
 10
-1.9843348287
 20
0.9672650529
 10
-1.9616179073
 20
0.9969086951
  0
LINE
  5
304
100
AcDbEntity
  8
0
100
AcDbLine
 62
7
  6
CONTINUOUS
 10
-0.046125
 20
-0.60985
 11
0.592826
 21
-1.625
  0
LINE
  5
305
100
AcDbEntity
  8
0
100
AcDbLine
 62
7
  6
CONTINUOUS
 10
-0.00959
 20
-0.375
 11
0.618948
 21
-1.390355
  0
LINE
  5
306
100
AcDbEntity
  8
0
100
AcDbLine
 62
7
  6
CONTINUOUS
 10
-2.852653
 20
8.73997
 11
-2.728985
 21
8.376074
  0
LINE
  5
307
100
AcDbEntity
  8
0
100
AcDbLine
 62
7
  6
CONTINUOUS
 10
-3.099869
 20
9.444772
 11
-2.913648
 21
8.889694
  0
LINE
  5
308
100
AcDbEntity
  8
0
100
AcDbLine
 62
7
  6
CONTINUOUS
 10
-4.369462
 20
13.025041
 11
-3.711248
 21
10.974944
  0
LINE
  5
309
100
AcDbEntity
  8
0
100
AcDbLine
 62
7
  6
CONTINUOUS
 10
-3.959442
 20
13.025041
 11
-3.506228
 21
11.613442
  0
LWPOLYLINE
  5
30A
100
AcDbEntity
  8
0
100
AcDbPolyline
 62
7
  6
CONTINUOUS
 90
26
 70
0
 10
-1.2976912378
 20
1.1109179416
 10
-1.2936066678
 20
1.0895617399
 10
-1.2884307433
 20
1.0685899606
 10
-1.2821634645
 20
1.048002604
 10
-1.2748922294
 20
1.0276042603
 10
-1.2665296399
 20
1.0075903394
 10
-1.2568135018
 20
0.9885470712
 10
-1.2457866422
 20
0.9705171879
 10
-1.233406234
 20
0.9534579578
 10
-1.2192816022
 20
0.9378274151
 10
-1.2033063256
 20
0.9236451596
 10
-1.1855868254
 20
0.910891592
 10
-1.16605169
 20
0.8999659482
 10
-1.1445679025
 20
0.8908732912
 10
-1.1212684799
 20
0.8836085583
 10
-1.0964810619
 20
0.878555797
 10
-1.069954466
 20
0.875648028
 10
-1.0419398748
 20
0.8749522307
 10
-1.0135184754
 20
0.8770533904
 10
-0.98456243
 20
0.8820147022
 10
-0.9551995764
 20
0.8897729707
 10
-0.9268946143
 20
0.9007235955
 10
-0.8996395807
 20
0.9155161416
 10
-0.8734424385
 20
0.9335010431
 10
-0.8497917766
 20
0.9531250037
 10
-0.8292757627
 20
0.9743359929
  0
LINE
  5
30B
100
AcDbEntity
  8
DRAFT
100
AcDbLine
 62
7
  6
CONTINUOUS
 10
0.3301850577
 20
19.5
 11
0.4681608314
 21
13.7454640196
  0
LINE
  5
30C
100
AcDbEntity
  8
DRAFT
100
AcDbLine
 62
7
  6
CONTINUOUS
 10
0.3301850577
 20
20.5698149423
 11
0.3301850577
 21
19.5
  0
LINE
  5
30D
100
AcDbEntity
  8
DRAFT
100
AcDbLine
 62
7
  6
CONTINUOUS
 10
0.3301850577
 20
-19.5
 11
0.3301850577
 21
-20.5698149423
  0
LINE
  5
30E
100
AcDbEntity
  8
0
100
AcDbLine
 62
7
  6
CONTINUOUS
 10
0.455689
 20
13.025041
 11
0.455689
 21
10.974949
  0
LINE
  5
30F
100
AcDbEntity
  8
0
100
AcDbLine
 62
7
  6
CONTINUOUS
 10
0.517556
 20
-2.4519628823
 11
0.517556
 21
-3.20278
  0
LINE
  5
310
100
AcDbEntity
  8
0
100
AcDbLine
 62
7
  6
CONTINUOUS
 10
0.517556
 20
-6.7972169516
 11
0.517556
 21
-7.5480371177
  0
LINE
  5
311
100
AcDbEntity
  8
0
100
AcDbLine
 62
7
  6
CONTINUOUS
 10
0.618948
 20
-0.375
 11
0.618948
 21
-1.390355
  0
LINE
  5
312
100
AcDbEntity
  8
0
100
AcDbLine
 62
7
  6
CONTINUOUS
 10
0.7572461752
 20
1.2757301808
 11
0.7572461752
 21
1.1067454798
  0
LINE
  5
313
100
AcDbEntity
  8
0
100
AcDbLine
 62
7
  6
CONTINUOUS
 10
0.782585
 20
-0.375
 11
0.782585
 21
-1.625
  0
LINE
  5
314
100
AcDbEntity
  8
0
100
AcDbLine
 62
7
  6
CONTINUOUS
 10
0.820561
 20
9.626074
 11
0.820561
 21
8.376074
  0
LINE
  5
315
100
AcDbEntity
  8
0
100
AcDbLine
 62
7
  6
CONTINUOUS
 10
0.989431
 20
9.47635
 11
0.989431
 21
9.093306
  0
LINE
  5
316
100
AcDbEntity
  8
0
100
AcDbLine
 62
7
  6
CONTINUOUS
 10
0.989431
 20
8.943583
 11
0.989431
 21
8.525797
  0
LINE
  5
317
100
AcDbEntity
  8
0
100
AcDbLine
 62
7
  6
CONTINUOUS
 10
1.4060639777
 20
1.9477247079
 11
1.4060639777
 21
1.2757301808
  0
LINE
  5
318
100
AcDbEntity
  8
0
100
AcDbLine
 62
7
  6
CONTINUOUS
 10
1.4060639777
 20
1.1067454798
 11
1.4060639777
 21
0.75
  0
LINE
  5
319
100
AcDbEntity
  8
0
100
AcDbLine
 62
7
  6
CONTINUOUS
 10
1.557292
 20
-0.375
 11
1.557292
 21
-1.625
  0
LINE
  5
31A
100
AcDbEntity
  8
0
100
AcDbLine
 62
7
  6
CONTINUOUS
 10
1.5896522949
 20
2.2437413074
 11
1.5896522949
 21
1.2757301808
  0
LINE
  5
31B
100
AcDbEntity
  8
0
100
AcDbLine
 62
7
  6
CONTINUOUS
 10
1.5896522949
 20
1.1067454798
 11
1.5896522949
 21
0.75
  0
LINE
  5
31C
100
AcDbEntity
  8
0
100
AcDbLine
 62
7
  6
CONTINUOUS
 10
1.673699
 20
9.093306
 11
1.673699
 21
8.943583
  0
LINE
  5
31D
100
AcDbEntity
  8
0
100
AcDbLine
 62
7
  6
CONTINUOUS
 10
1.726206
 20
-0.375
 11
1.726206
 21
-1.625
  0
LINE
  5
31E
100
AcDbEntity
  8
0
100
AcDbLine
 62
7
  6
CONTINUOUS
 10
1.731141
 20
9.626074
 11
1.731141
 21
9.47635
  0
LINE
  5
31F
100
AcDbEntity
  8
0
100
AcDbLine
 62
7
  6
CONTINUOUS
 10
1.743281
 20
8.525797
 11
1.743281
 21
8.376074
  0
LINE
  5
320
100
AcDbEntity
  8
0
100
AcDbLine
 62
7
  6
CONTINUOUS
 10
1.7920166898
 20
1.2757301808
 11
1.7920166898
 21
1.1067454798
  0
LINE
  5
321
100
AcDbEntity
  8
0
100
AcDbLine
 62
7
  6
CONTINUOUS
 10
1.907272
 20
-0.375
 11
1.907272
 21
-0.524717
  0
LINE
  5
322
100
AcDbEntity
  8
0
100
AcDbLine
 62
7
  6
CONTINUOUS
 10
1.964362
 20
9.626074
 11
1.964362
 21
8.376074
  0
LWPOLYLINE
  5
323
100
AcDbEntity
  8
0
100
AcDbPolyline
 62
7
  6
CONTINUOUS
 90
43
 70
0
 10
0.6320739966
 20
1.5356783187
 10
0.6318926605
 20
1.4380156004
 10
0.6303127006
 20
1.3890314913
 10
0.6273323647
 20
1.3399059143
 10
0.623143211
 20
1.290260855
 10
0.6175536813
 20
1.2404743283
 10
0.6099891014
 20
1.1916803786
 10
0.6004313739
 20
1.1440033205
 10
0.5888985962
 20
1.0973188417
 10
0.574870387
 20
1.0523880477
 10
0.558397627
 20
1.0093382761
 10
0.5394294355
 20
0.968042192
 10
0.5172927891
 20
0.9288788923
 10
0.4921424535
 20
0.8915631902
 10
0.4638236628
 20
0.8563802747
 10
0.4311990964
 20
0.8245648075
 10
0.3935359336
 20
0.7958565171
 10
0.351566995
 20
0.7705156772
 10
0.3063534209
 20
0.7505577669
 10
0.2572943287
 20
0.7366743409
 10
0.2049906011
 20
0.7281738464
 10
0.152306027
 20
0.7249971019
 10
0.0990807743
 20
0.7270176484
 10
0.0454746752
 20
0.7343619449
 10
-0.0051689856
 20
0.747350187
 10
-0.0522641632
 20
0.7667450279
 10
-0.0963969023
 20
0.7917838125
 10
-0.1359820527
 20
0.8204987729
 10
-0.1701951816
 20
0.8527159111
 10
-0.1998607217
 20
0.8886092227
 10
-0.2258668202
 20
0.9267329307
 10
-0.2481146159
 20
0.9668394424
 10
-0.2667029701
 20
1.0091763482
 10
-0.2828166138
 20
1.0530406467
 10
-0.296655885
 20
1.0984298345
 10
-0.3080204458
 20
1.1453464126
 10
-0.3174940126
 20
1.193094887
 10
-0.3251111838
 20
1.2417657762
 10
-0.3308373609
 20
1.2912685596
 10
-0.3351524656
 20
1.3406361855
 10
-0.3382164715
 20
1.3895463035
 10
-0.3398694048
 20
1.4383212634
 10
-0.3401112656
 20
1.486961065
  0
LWPOLYLINE
  5
324
100
AcDbEntity
  8
0
100
AcDbPolyline
 62
7
  6
CONTINUOUS
 90
16
 70
0
 10
0.4179937495
 20
9.2365011229
 10
0.4181915812
 20
9.2923846968
 10
0.4154195039
 20
9.3185411522
 10
0.4097273009
 20
9.3433114358
 10
0.4009059457
 20
9.3670689569
 10
0.3891644648
 20
9.3894403129
 10
0.3751299376
 20
9.4093052924
 10
0.358784156
 20
9.4262447507
 10
0.3401453279
 20
9.4406778435
 10
0.3198951574
 20
9.4527418123
 10
0.2980640794
 20
9.4622626887
 10
0.2746216588
 20
9.469414447
 10
0.2501582946
 20
9.4748562413
 10
0.2248707864
 20
9.4788077898
 10
0.1985623344
 20
9.4810493759
 10
0.1712329388
 20
9.481581
  0
LINE
  5
325
100
AcDbEntity
  8
DRAFT
100
AcDbLine
 62
7
  6
CONTINUOUS
 10
0.4681608314
 20
-13.7454640196
 11
0.3301850577
 21
-19.5
  0
LWPOLYLINE
  5
326
100
AcDbEntity
  8
0
100
AcDbPolyline
 62
7
  6
CONTINUOUS
 90
22
 70
0
 10
0.5920194954
 20
9.2648420655
 10
0.5910721414
 20
9.2320331022
 10
0.5880628837
 20
9.2007134367
 10
0.5829917222
 20
9.1708830746
 10
0.5757546065
 20
9.1425484496
 10
0.5664555871
 20
9.1157031376
 10
0.555406815
 20
9.0903278565
 10
0.5426985622
 20
9.0663697134
 10
0.5282405568
 20
9.0438816093
 10
0.5120741351
 20
9.0230029525
 10
0.4941358815
 20
9.0037465959
 10
0.4744892115
 20
8.9860996938
 10
0.453365708
 20
8.9701631073
 10
0.4306032266
 20
8.9559589235
 10
0.4063639117
 20
8.9434650609
 10
0.3813657798
 20
8.932716128
 10
0.3556721117
 20
8.9237727495
 10
0.3292196266
 20
8.9165743044
 10
0.3025364984
 20
8.9109735323
 10
0.2757987851
 20
8.9069213468
 10
0.2488304287
 20
8.9044668359
 10
0.2216314292
 20
8.90361
  0
LINE
  5
327
100
AcDbEntity
  8
0
100
AcDbLine
 62
7
  6
CONTINUOUS
 10
-1.2976912378
 20
1.1109179416
 11
-1.4729346314
 21
1.0963143255
  0
LINE
  5
328
100
AcDbEntity
  8
0
100
AcDbLine
 62
7
  6
CONTINUOUS
 10
2.6682336579
 20
0.75
 11
2.4846453408
 21
0.75
  0
LINE
  5
329
100
AcDbEntity
  8
0
100
AcDbLine
 62
7
  6
CONTINUOUS
 10
1.5896522949
 20
0.75
 11
1.4060639777
 21
0.75
  0
LINE
  5
32A
100
AcDbEntity
  8
0
100
AcDbLine
 62
7
  6
CONTINUOUS
 10
1.7920166898
 20
1.1067454798
 11
1.5896522949
 21
1.1067454798
  0
LINE
  5
32B
100
AcDbEntity
  8
0
100
AcDbLine
 62
7
  6
CONTINUOUS
 10
1.4060639777
 20
1.1067454798
 11
0.7572461752
 21
1.1067454798
  0
LINE
  5
32C
100
AcDbEntity
  8
0
100
AcDbLine
 62
7
  6
CONTINUOUS
 10
1.7920166898
 20
1.2757301808
 11
1.5896522949
 21
1.2757301808
  0
LINE
  5
32D
100
AcDbEntity
  8
0
100
AcDbLine
 62
7
  6
CONTINUOUS
 10
1.4060639777
 20
1.2757301808
 11
0.9376073684
 21
1.2757301808
  0
LWPOLYLINE
  5
32E
100
AcDbEntity
  8
0
100
AcDbPolyline
 62
7
  6
CONTINUOUS
 90
37
 70
0
 10
0.3585316099
 20
1.9764755861
 10
0.3344970786
 20
2.007011341
 10
0.3090821253
 20
2.0330691427
 10
0.2822867499
 20
2.0546489942
 10
0.2536671515
 20
2.0715708558
 10
0.223667131
 20
2.0840147713
 10
0.1936180919
 20
2.0925208683
 10
0.1637429331
 20
2.0971301407
 10
0.1338187557
 20
2.0978015958
 10
0.1045082654
 20
2.094952381
 10
0.0756646079
 20
2.0886992606
 10
0.0474346375
 20
2.0789254694
 10
0.0209216239
 20
2.0656978599
 10
-0.0038006728
 20
2.0484752668
 10
-0.0268060127
 20
2.0277988527
 10
-0.0472124062
 20
2.0053589616
 10
-0.0645738441
 20
1.9812114494
 10
-0.0793363356
 20
1.9553004584
 10
-0.0919559189
 20
1.9291487636
 10
-0.1022475227
 20
1.903136654
 10
-0.1103962184
 20
1.8768838406
 10
-0.1174132581
 20
1.8507722324
 10
-0.1234600958
 20
1.8248630012
 10
-0.1283752776
 20
1.7990949756
 10
-0.1326856941
 20
1.7736665502
 10
-0.1365099048
 20
1.7486681882
 10
-0.1397293502
 20
1.7240094268
 10
-0.1425152422
 20
1.6996172722
 10
-0.1448871715
 20
1.6755250029
 10
-0.1468255473
 20
1.6516993407
 10
-0.1484428104
 20
1.6279674559
 10
-0.1497496783
 20
1.6042998985
 10
-0.1507354334
 20
1.5807261187
 10
-0.1514803631
 20
1.5571616368
 10
-0.1520112298
 20
1.533578293
 10
-0.152301271
 20
1.5100042471
 10
-0.1523083808
 20
1.459208834
  0
LWPOLYLINE
  5
32F
100
AcDbEntity
  8
0
100
AcDbPolyline
 62
7
  6
CONTINUOUS
 90
16
 70
0
 10
-0.0663097541
 20
0.9964034284
 10
-0.042941819
 20
0.9662445781
 10
-0.0178677039
 20
0.9403727
 10
0.0089125911
 20
0.9187877954
 10
0.0377641845
 20
0.9014481051
 10
0.0683219579
 20
0.8883953902
 10
0.0994905559
 20
0.8797549325
 10
0.1313603918
 20
0.8755894295
 10
0.1638410522
 20
0.8758361842
 10
0.1955659419
 20
0.8804323874
 10
0.2264143469
 20
0.8894427941
 10
0.2565069811
 20
0.9028026486
 10
0.2848393916
 20
0.9202548744
 10
0.3110767605
 20
0.9417137789
 10
0.3355539057
 20
0.9672650529
 10
0.3582708271
 20
0.9969086951
  0
LINE
  5
330
100
AcDbEntity
  8
0
100
AcDbLine
 62
7
  6
CONTINUOUS
 10
-3.016329
 20
5.044534
 11
-2.070916
 21
3.6
  0
LINE
  5
331
100
AcDbEntity
  8
0
100
AcDbLine
 62
7
  6
CONTINUOUS
 10
-2.988583
 20
5.400011
 11
-2.035628
 21
3.940324
  0
LINE
  5
332
100
AcDbEntity
  8
0
100
AcDbLine
 62
7
  6
CONTINUOUS
 10
-2.997146
 20
9.626074
 11
-2.54452
 21
8.376074
  0
LINE
  5
333
100
AcDbEntity
  8
0
100
AcDbLine
 62
7
  6
CONTINUOUS
 10
0.147504
 20
5.400005
 11
0.782796
 21
3.599995
  0
LINE
  5
334
100
AcDbEntity
  8
0
100
AcDbLine
 62
7
  6
CONTINUOUS
 10
2.000444
 20
5.400011
 11
2.000444
 21
3.6
  0
LINE
  5
335
100
AcDbEntity
  8
0
100
AcDbLine
 62
7
  6
CONTINUOUS
 10
2.1174687065
 20
1.875000008
 11
2.1174687065
 21
1.6977029813
  0
LINE
  5
336
100
AcDbEntity
  8
0
100
AcDbLine
 62
7
  6
CONTINUOUS
 10
2.128002
 20
9.391334
 11
2.128002
 21
8.376074
  0
LINE
  5
337
100
AcDbEntity
  8
0
100
AcDbLine
 62
7
  6
CONTINUOUS
 10
2.239937
 20
5.198332
 11
2.239937
 21
4.626057
  0
LINE
  5
338
100
AcDbEntity
  8
0
100
AcDbLine
 62
7
  6
CONTINUOUS
 10
2.239937
 20
4.42436
 11
2.239937
 21
3.801679
  0
LINE
  5
339
100
AcDbEntity
  8
0
100
AcDbLine
 62
7
  6
CONTINUOUS
 10
2.330341
 20
-0.524717
 11
2.330341
 21
-1.625
  0
LINE
  5
33A
100
AcDbEntity
  8
0
100
AcDbLine
 62
7
  6
CONTINUOUS
 10
2.4846453408
 20
1.9188108564
 11
2.4846453408
 21
0.75
  0
LINE
  5
33B
100
AcDbEntity
  8
0
100
AcDbLine
 62
7
  6
CONTINUOUS
 10
2.499195
 20
-0.524717
 11
2.499195
 21
-1.625
  0
LINE
  5
33C
100
AcDbEntity
  8
0
100
AcDbLine
 62
7
  6
CONTINUOUS
 10
2.6682336579
 20
2.25
 11
2.6682336579
 21
0.75
  0
LINE
  5
33D
100
AcDbEntity
  8
0
100
AcDbLine
 62
7
  6
CONTINUOUS
 10
2.728837
 20
13.025046
 11
2.728837
 21
10.974954
  0
LINE
  5
33E
100
AcDbEntity
  8
0
100
AcDbLine
 62
7
  6
CONTINUOUS
 10
2.793024
 20
9.626074
 11
2.793024
 21
8.610721
  0
LINE
  5
33F
100
AcDbEntity
  8
0
100
AcDbLine
 62
7
  6
CONTINUOUS
 10
2.922264
 20
-0.375
 11
2.922264
 21
-0.524717
  0
LINE
  5
340
100
AcDbEntity
  8
0
100
AcDbLine
 62
7
  6
CONTINUOUS
 10
2.956664
 20
9.626074
 11
2.956664
 21
8.376074
  0
LINE
  5
341
100
AcDbEntity
  8
DRAFT
100
AcDbLine
 62
7
  6
CONTINUOUS
 10
3.1
 20
-21.2
 11
3.1
 21
-22.2
  0
LINE
  5
342
100
AcDbEntity
  8
DRAFT
100
AcDbLine
 62
7
  6
CONTINUOUS
 10
3.1
 20
21.2
 11
3.1
 21
22.2
  0
LINE
  5
343
100
AcDbEntity
  8
0
100
AcDbLine
 62
7
  6
CONTINUOUS
 10
3.1332
 20
12.645781
 11
3.133205
 21
12.146903
  0
LINE
  5
344
100
AcDbEntity
  8
0
100
AcDbLine
 62
7
  6
CONTINUOUS
 10
3.175282
 20
4.626057
 11
3.175282
 21
4.42436
  0
LINE
  5
345
100
AcDbEntity
  8
0
100
AcDbLine
 62
7
  6
CONTINUOUS
 10
3.229956
 20
9.626074
 11
3.229956
 21
8.376074
  0
LINE
  5
346
100
AcDbEntity
  8
0
100
AcDbLine
 62
7
  6
CONTINUOUS
 10
3.243299
 20
5.400011
 11
3.243299
 21
5.198332
  0
LINE
  5
347
100
AcDbEntity
  8
0
100
AcDbLine
 62
7
  6
CONTINUOUS
 10
3.250892
 20
3.801679
 11
3.250892
 21
3.6
  0
LINE
  5
348
100
AcDbEntity
  8
0
100
AcDbLine
 62
7
  6
CONTINUOUS
 10
3.398827
 20
9.481581
 11
3.398827
 21
8.520566
  0
LINE
  5
349
100
AcDbEntity
  8
0
100
AcDbLine
 62
7
  6
CONTINUOUS
 10
3.138904
 20
11.767638
 11
3.138858
 21
10.974954
  0
LINE
  5
34A
100
AcDbEntity
  8
DRAFT
100
AcDbLine
 62
7
  6
CONTINUOUS
 10
-3.9733373476
 20
-23.5
 11
-3.9526845545
 21
-23.4301797403
  0
LINE
  5
34B
100
AcDbEntity
  8
RACCORDO
100
AcDbLine
 62
250
  6
CONTINUOUS
 10
9.4501522399
 20
20.9
 11
9.3210496291
 21
20.5123772007
  0
LINE
  5
34C
100
AcDbEntity
  8
RACCORDO
100
AcDbLine
 62
250
  6
CONTINUOUS
 10
9.65
 20
20.6999084592
 11
9.5210191919
 21
20.3126513649
  0
LINE
  5
34D
100
AcDbEntity
  8
0
100
AcDbLine
 62
7
  6
CONTINUOUS
 10
3.275681
 20
-1.261171
 11
3.14508
 21
-1.625
  0
LINE
  5
34E
100
AcDbEntity
  8
0
100
AcDbLine
 62
7
  6
CONTINUOUS
 10
3.529917
 20
-0.556311
 11
3.327915
 21
-1.111454
  0
LINE
  5
34F
100
AcDbEntity
  8
0
100
AcDbLine
 62
7
  6
CONTINUOUS
 10
3.441107
 20
-0.375
 11
2.97101
 21
-1.625
  0
LWPOLYLINE
  5
350
100
AcDbEntity
  8
0
100
AcDbPolyline
 62
7
  6
CONTINUOUS
 90
34
 70
0
 10
4.5443048685
 20
3.6514088616
 10
4.5755090798
 20
3.6516050414
 10
4.6066068545
 20
3.6529206092
 10
4.6375981925
 20
3.6553555649
 10
4.6685656942
 20
3.6587865883
 10
4.6994267593
 20
3.6633369994
 10
4.7299335864
 20
3.6693767584
 10
4.7601020968
 20
3.6769290478
 10
4.7899163692
 20
3.6859706842
 10
4.8190808379
 20
3.696802078
 10
4.847643479
 20
3.7095325593
 10
4.8755563165
 20
3.724052796
 10
4.9023798565
 20
3.7403352046
 10
4.928146032
 20
3.7584226643
 10
4.95282291
 20
3.7782722932
 10
4.9758751977
 20
3.7997278656
 10
4.9971871729
 20
3.8228876066
 10
5.0168745579
 20
3.8476532878
 10
5.0347492256
 20
3.8735740041
 10
5.0506609402
 20
3.9007100708
 10
5.0647599377
 20
3.9290011697
 10
5.0773087983
 20
3.957815447
 10
5.0882840807
 20
3.9870667282
 10
5.0977092263
 20
4.0168411862
 10
5.1059171394
 20
4.0467654903
 10
5.1129294643
 20
4.0767272464
 10
5.1187245567
 20
4.106838848
 10
5.1235703885
 20
4.1370641458
 10
5.1274808897
 20
4.1673925394
 10
5.1304421304
 20
4.1978346285
 10
5.1326802923
 20
4.2283860642
 10
5.1342707696
 20
4.2590453966
 10
5.1351381682
 20
4.2898140749
 10
5.135282488
 20
4.3206920989
  0
LINE
  5
351
100
AcDbEntity
  8
0
100
AcDbLine
 62
7
  6
CONTINUOUS
 10
1.5896522949
 20
2.2437413074
 11
1.4394436718
 21
2.2437413074
  0
LINE
  5
352
100
AcDbEntity
  8
0
100
AcDbLine
 62
7
  6
CONTINUOUS
 10
2.6682336579
 20
2.25
 11
2.5499052593
 21
2.25
  0
LINE
  5
353
100
AcDbEntity
  8
0
100
AcDbLine
 62
7
  6
CONTINUOUS
 10
5.6756639214
 20
3.5983862352
 11
5.5644741674
 21
3.5983862352
  0
LINE
  5
354
100
AcDbEntity
  8
0
100
AcDbLine
 62
7
  6
CONTINUOUS
 10
1.055052
 20
3.599995
 11
0.782796
 21
3.599995
  0
LINE
  5
355
100
AcDbEntity
  8
0
100
AcDbLine
 62
7
  6
CONTINUOUS
 10
3.250892
 20
3.6
 11
2.000444
 21
3.6
  0
LINE
  5
356
100
AcDbEntity
  8
0
100
AcDbLine
 62
7
  6
CONTINUOUS
 10
-0.056669
 20
3.6
 11
-1.307101
 21
3.6
  0
LINE
  5
357
100
AcDbEntity
  8
0
100
AcDbLine
 62
7
  6
CONTINUOUS
 10
-1.808728
 20
3.6
 11
-2.070916
 21
3.6
  0
LINE
  5
358
100
AcDbEntity
  8
0
100
AcDbLine
 62
7
  6
CONTINUOUS
 10
-3.016329
 20
3.6
 11
-3.243211
 21
3.6
  0
LINE
  5
359
100
AcDbEntity
  8
0
100
AcDbLine
 62
7
  6
CONTINUOUS
 10
3.632585
 20
-0.375
 11
4.085305
 21
-1.625
  0
LINE
  5
35A
100
AcDbEntity
  8
0
100
AcDbLine
 62
7
  6
CONTINUOUS
 10
3.777106
 20
-1.261171
 11
3.900711
 21
-1.625
  0
LINE
  5
35B
100
AcDbEntity
  8
0
100
AcDbLine
 62
7
  6
CONTINUOUS
 10
3.529917
 20
-0.556311
 11
3.716158
 21
-1.111454
  0
LINE
  5
35C
100
AcDbEntity
  8
RACCORDO
100
AcDbLine
 62
250
  6
CONTINUOUS
 10
9.4501522399
 20
-20.9
 11
9.3210496291
 21
-20.5123772007
  0
LINE
  5
35D
100
AcDbEntity
  8
RACCORDO
100
AcDbLine
 62
250
  6
CONTINUOUS
 10
9.65
 20
-20.6999084592
 11
9.5210191944
 21
-20.3126513725
  0
LINE
  5
35E
100
AcDbEntity
  8
0
100
AcDbLine
 62
7
  6
CONTINUOUS
 10
0.407133
 20
5.400005
 11
0.9239835
 21
3.839488
  0
LINE
  5
35F
100
AcDbEntity
  8
DRAFT
100
AcDbLine
 62
7
  6
CONTINUOUS
 10
-3.9733373476
 20
23.5
 11
-3.9526845545
 21
23.4301797403
  0
LINE
  5
360
100
AcDbEntity
  8
0
100
AcDbLine
 62
7
  6
CONTINUOUS
 10
-1.139626
 20
12.326847
 11
-0.751981
 21
10.974949
  0
LINE
  5
361
100
AcDbEntity
  8
0
100
AcDbLine
 62
7
  6
CONTINUOUS
 10
-0.929808
 20
13.025041
 11
-0.546976
 21
11.689948
  0
LWPOLYLINE
  5
362
100
AcDbEntity
  8
0
100
AcDbPolyline
 62
7
  6
CONTINUOUS
 90
40
 70
0
 10
3.9785326484
 20
4.3206920989
 10
3.9791040631
 20
4.2835884559
 10
3.9805010519
 20
4.2480179822
 10
3.9827236148
 20
4.213980681
 10
3.9858071755
 20
4.1815877998
 10
3.9897163104
 20
4.1507280966
 10
3.9943447476
 20
4.1210678393
 10
3.9996543254
 20
4.0925627603
 10
4.0056832055
 20
4.0652571309
 10
4.0124396021
 20
4.0389500266
 10
4.0199150673
 20
4.0136155194
 10
4.0281180489
 20
3.98927954
 10
4.0370821042
 20
3.9658189518
 10
4.0467944076
 20
3.9432439198
 10
4.0572677848
 20
3.921544281
 10
4.0685742697
 20
3.9005664062
 10
4.0807199506
 20
3.8802842484
 10
4.0936987393
 20
3.8607238559
 10
4.1075644056
 20
3.8418097422
 10
4.1223445569
 20
3.8234631535
 10
4.1380115858
 20
3.8057628447
 10
4.1545364397
 20
3.7888695926
 10
4.1719522202
 20
3.7727533823
 10
4.1902258258
 20
3.75744423
 10
4.2092288986
 20
3.7431929584
 10
4.2289858218
 20
3.7300637025
 10
4.2494722122
 20
3.7179923288
 10
4.2704865622
 20
3.7070372577
 10
4.2920560128
 20
3.6972549987
 10
4.3141534231
 20
3.6885890433
 10
4.3364958622
 20
3.6809282859
 10
4.359022108
 20
3.6742900644
 10
4.3817933827
 20
3.6686570414
 10
4.4047104225
 20
3.6638660979
 10
4.42776867
 20
3.6599024544
 10
4.4509726825
 20
3.6567808907
 10
4.4742368678
 20
3.6543826275
 10
4.4975326952
 20
3.6526680716
 10
4.5208886955
 20
3.6516768163
 10
4.5443048685
 20
3.6514088616
  0
LWPOLYLINE
  5
363
100
AcDbEntity
  8
0
100
AcDbPolyline
 62
7
  6
CONTINUOUS
 90
22
 70
0
 10
4.0879642198
 20
9.0010738065
 10
4.0874979863
 20
9.0332520609
 10
4.085877266
 20
9.0653348747
 10
4.0831020589
 20
9.0973222483
 10
4.0793745594
 20
9.1293397837
 10
4.0744925731
 20
9.1612618789
 10
4.0678495162
 20
9.1927117294
 10
4.0594242895
 20
9.2237889072
 10
4.0492379922
 20
9.2543938431
 10
4.0367473379
 20
9.2838510249
 10
4.0218061933
 20
9.3121749554
 10
4.0045606918
 20
9.339351139
 10
3.9849059468
 20
9.3646605699
 10
3.962705403
 20
9.3881585558
 10
3.9380956159
 20
9.4097897992
 10
3.9113813648
 20
9.4286693908
 10
3.8824251059
 20
9.4445324282
 10
3.851364383
 20
9.457643825
 10
3.8189166078
 20
9.4679133965
 10
3.7853209172
 20
9.4753110833
 10
3.7503381742
 20
9.4798669507
 10
3.7139683787
 20
9.481581
  0
LWPOLYLINE
  5
364
100
AcDbEntity
  8
0
100
AcDbPolyline
 62
7
  6
CONTINUOUS
 90
22
 70
0
 10
4.2617035785
 20
9.0010738065
 10
4.2621343163
 20
8.9580212729
 10
4.2601595256
 20
8.915217084
 10
4.2557792065
 20
8.8726612414
 10
4.2490198805
 20
8.8301799101
 10
4.2398550261
 20
8.7879469273
 10
4.2282050783
 20
8.7464838053
 10
4.214150311
 20
8.7056374591
 10
4.1976104503
 20
8.6655609805
 10
4.178265109
 20
8.6272351529
 10
4.1560706319
 20
8.5906672487
 10
4.1310706743
 20
8.5558500096
 10
4.1030758144
 20
8.5237424303
 10
4.0718267587
 20
8.4944910657
 10
4.0375828008
 20
8.4679493784
 10
4.0009323991
 20
8.4446367283
 10
3.9618902593
 20
8.4246349691
 10
3.9204416758
 20
8.4078622614
 10
3.87713099
 20
8.3945924252
 10
3.832139649
 20
8.3849167364
 10
3.7852862057
 20
8.3787439273
 10
3.7365706601
 20
8.3760739999
  0
LINE
  5
365
100
AcDbEntity
  8
DRAFT
100
AcDbLine
 62
7
  6
CONTINUOUS
 10
3.75
 20
21.2
 11
3.75
 21
21.1647852141
  0
LINE
  5
366
100
AcDbEntity
  8
DRAFT
100
AcDbLine
 62
7
  6
CONTINUOUS
 10
3.75
 20
-21.2
 11
3.75
 21
-21.1647852141
  0
LINE
  5
367
100
AcDbEntity
  8
0
100
AcDbLine
 62
7
  6
CONTINUOUS
 10
3.8674116336
 20
5.4016950318
 11
3.8674925225
 21
4.2638843943
  0
LINE
  5
368
100
AcDbEntity
  8
0
100
AcDbLine
 62
7
  6
CONTINUOUS
 10
3.9785326484
 20
5.4016950318
 11
3.9785326484
 21
4.3206920989
  0
LINE
  5
369
100
AcDbEntity
  8
0
100
AcDbLine
 62
7
  6
CONTINUOUS
 10
4.240177
 20
-0.375
 11
4.240177
 21
-1.625
  0
LINE
  5
36A
100
AcDbEntity
  8
0
100
AcDbLine
 62
7
  6
CONTINUOUS
 10
4.409102
 20
-0.375
 11
4.409102
 21
-1.475283
  0
LINE
  5
36B
100
AcDbEntity
  8
0
100
AcDbLine
 62
7
  6
CONTINUOUS
 10
4.497327
 20
8.560638
 11
4.497327
 21
8.376074
  0
LINE
  5
36C
100
AcDbEntity
  8
0
100
AcDbLine
 62
7
  6
CONTINUOUS
 10
4.678437
 20
8.560638
 11
4.678437
 21
8.376074
  0
LINE
  5
36D
100
AcDbEntity
  8
0
100
AcDbLine
 62
7
  6
CONTINUOUS
 10
5.042846
 20
-1.475283
 11
5.042846
 21
-1.625
  0
LINE
  5
36E
100
AcDbEntity
  8
0
100
AcDbLine
 62
7
  6
CONTINUOUS
 10
5.135282488
 20
5.4016950318
 11
5.135282488
 21
4.3206920989
  0
LINE
  5
36F
100
AcDbEntity
  8
0
100
AcDbLine
 62
7
  6
CONTINUOUS
 10
5.2464024613
 20
5.4016950318
 11
5.2464024613
 21
4.3206920989
  0
LWPOLYLINE
  5
370
100
AcDbEntity
  8
0
100
AcDbPolyline
 62
7
  6
CONTINUOUS
 90
39
 70
0
 10
5.2464024613
 20
4.3206920989
 10
5.246078604
 20
4.2637371252
 10
5.2428939398
 20
4.2068919261
 10
5.2368484686
 20
4.1501565025
 10
5.2282501938
 20
4.0930164845
 10
5.2167911121
 20
4.0359862431
 10
5.2015472131
 20
3.9806088958
 10
5.1824283415
 20
3.9269051821
 10
5.1595246526
 20
3.8748543724
 10
5.1321826018
 20
3.8259373876
 10
5.1004542163
 20
3.7803843282
 10
5.0642874689
 20
3.7379651086
 10
5.0228727337
 20
3.6994703752
 10
4.9758882391
 20
3.6648313035
 10
4.9236557566
 20
3.6341167311
 10
4.8663309745
 20
3.6083237996
 10
4.8029818508
 20
3.5877358896
 10
4.7345404274
 20
3.5720696306
 10
4.6639585183
 20
3.5614720369
 10
4.5907475987
 20
3.5559238629
 10
4.5153961934
 20
3.5554443578
 10
4.4423216899
 20
3.5602382769
 10
4.3720396855
 20
3.5704419663
 10
4.304034583
 20
3.5859190764
 10
4.2411769783
 20
3.6064653174
 10
4.184406748
 20
3.632387946
 10
4.1327840156
 20
3.6633796948
 10
4.086359748
 20
3.6983144886
 10
4.0454126089
 20
3.7370963816
 10
4.0096639347
 20
3.7798213061
 10
3.9783287007
 20
3.8256510059
 10
3.9513434125
 20
3.8748122334
 10
3.9287715645
 20
3.9270782213
 10
3.9100186163
 20
3.9809304382
 10
3.8952233178
 20
4.0363673427
 10
3.884246919
 20
4.0933904666
 10
3.8760786302
 20
4.1504858956
 10
3.8703815214
 20
4.2071489929
 10
3.8674925225
 20
4.2638843943
  0
LINE
  5
371
100
AcDbEntity
  8
DRAFT
100
AcDbLine
 62
7
  6
CONTINUOUS
 10
-3.0118365096
 20
-22.2
 11
-2.6768152463
 21
-21.2
  0
LINE
  5
372
100
AcDbEntity
  8
0
100
AcDbLine
 62
7
  6
CONTINUOUS
 10
6.014237
 20
-0.375
 11
5.655665
 21
-0.975687
  0
LWPOLYLINE
  5
373
100
AcDbEntity
  8
0
100
AcDbPolyline
 62
7
  6
CONTINUOUS
 90
43
 70
0
 10
6.3095556055
 20
4.4975043148
 10
6.3642602129
 20
4.4994027666
 10
6.41585399
 20
4.5057582192
 10
6.4643369369
 20
4.5165706711
 10
6.5100505672
 20
4.5321072806
 10
6.5526533672
 20
4.5521008828
 10
6.5911207959
 20
4.5757499909
 10
6.6252281251
 20
4.6033931989
 10
6.6552000829
 20
4.634691902
 10
6.680686313
 20
4.6678288187
 10
6.7012866382
 20
4.7027250994
 10
6.7174012357
 20
4.7394595864
 10
6.7298802803
 20
4.7764515424
 10
6.7387195606
 20
4.8135741302
 10
6.7439232879
 20
4.8509541855
 10
6.7463542722
 20
4.8873914868
 10
6.7460579632
 20
4.9226175283
 10
6.7429889111
 20
4.9569008196
 10
6.7378735759
 20
4.9898466655
 10
6.7307632448
 20
5.0215356916
 10
6.7216066305
 20
5.0518872771
 10
6.7109763318
 20
5.0802648583
 10
6.6989286724
 20
5.1064450643
 10
6.6854073285
 20
5.1306512726
 10
6.6708159275
 20
5.1529170434
 10
6.6551222748
 20
5.1731591153
 10
6.6383585649
 20
5.1914607547
 10
6.6210250087
 20
5.2081053119
 10
6.6031894337
 20
5.223107861
 10
6.5847840123
 20
5.2364533313
 10
6.5661054726
 20
5.2483798548
 10
6.5472454154
 20
5.2588668347
 10
6.5281122398
 20
5.26793487
 10
6.5087278717
 20
5.275883886
 10
6.4890972624
 20
5.2827344411
 10
6.4692154605
 20
5.288465978
 10
6.4490895377
 20
5.2933167484
 10
6.4286674009
 20
5.2973179037
 10
6.4080011431
 20
5.300438293
 10
6.3872541151
 20
5.3028227138
 10
6.3664807669
 20
5.304519432
 10
6.3456266485
 20
5.305480182
 10
6.3246917597
 20
5.3057049638
  0
LINE
  5
374
100
AcDbEntity
  8
0
100
AcDbLine
 62
7
  6
CONTINUOUS
 10
3.250892
 20
3.801679
 11
2.239937
 21
3.801679
  0
LINE
  5
375
100
AcDbEntity
  8
0
100
AcDbLine
 62
7
  6
CONTINUOUS
 10
-0.056669
 20
3.801679
 11
-1.067591
 21
3.801679
  0
LINE
  5
376
100
AcDbEntity
  8
0
100
AcDbLine
 62
7
  6
CONTINUOUS
 10
6.2918948494
 20
4.4015194543
 11
5.6756639214
 21
4.4015194543
  0
LINE
  5
377
100
AcDbEntity
  8
0
100
AcDbLine
 62
7
  6
CONTINUOUS
 10
3.175282
 20
4.42436
 11
2.239937
 21
4.42436
  0
LINE
  5
378
100
AcDbEntity
  8
0
100
AcDbLine
 62
7
  6
CONTINUOUS
 10
-0.132297
 20
4.42436
 11
-1.067591
 21
4.42436
  0
LINE
  5
379
100
AcDbEntity
  8
0
100
AcDbLine
 62
7
  6
CONTINUOUS
 10
6.3095556055
 20
4.4975043148
 11
5.6756639214
 21
4.4975043148
  0
LINE
  5
37A
100
AcDbEntity
  8
0
100
AcDbLine
 62
7
  6
CONTINUOUS
 10
3.175282
 20
4.626057
 11
2.239937
 21
4.626057
  0
LINE
  5
37B
100
AcDbEntity
  8
0
100
AcDbLine
 62
7
  6
CONTINUOUS
 10
-0.132297
 20
4.626057
 11
-1.067591
 21
4.626057
  0
LINE
  5
37C
100
AcDbEntity
  8
0
100
AcDbLine
 62
7
  6
CONTINUOUS
 10
3.243299
 20
5.198332
 11
2.239937
 21
5.198332
  0
LINE
  5
37D
100
AcDbEntity
  8
0
100
AcDbLine
 62
7
  6
CONTINUOUS
 10
-0.064229
 20
5.198332
 11
-1.067591
 21
5.198332
  0
LINE
  5
37E
100
AcDbEntity
  8
0
100
AcDbLine
 62
7
  6
CONTINUOUS
 10
6.3246917597
 20
5.3057049638
 11
5.6756639214
 21
5.3057049638
  0
LINE
  5
37F
100
AcDbEntity
  8
0
100
AcDbLine
 62
7
  6
CONTINUOUS
 10
1.695412
 20
5.400005
 11
1.445817
 21
5.400005
  0
LINE
  5
380
100
AcDbEntity
  8
0
100
AcDbLine
 62
7
  6
CONTINUOUS
 10
0.407133
 20
5.400005
 11
0.147504
 21
5.400005
  0
LINE
  5
381
100
AcDbEntity
  8
0
100
AcDbLine
 62
7
  6
CONTINUOUS
 10
3.243299
 20
5.400011
 11
2.000444
 21
5.400011
  0
LINE
  5
382
100
AcDbEntity
  8
0
100
AcDbLine
 62
7
  6
CONTINUOUS
 10
-0.064229
 20
5.400011
 11
-1.307101
 21
5.400011
  0
LINE
  5
383
100
AcDbEntity
  8
0
100
AcDbLine
 62
7
  6
CONTINUOUS
 10
-1.808728
 20
5.400011
 11
-2.035628
 21
5.400011
  0
LINE
  5
384
100
AcDbEntity
  8
0
100
AcDbLine
 62
7
  6
CONTINUOUS
 10
-2.988583
 20
5.400011
 11
-3.243211
 21
5.400011
  0
LINE
  5
385
100
AcDbEntity
  8
0
100
AcDbLine
 62
7
  6
CONTINUOUS
 10
6.3322853537
 20
5.4016898243
 11
5.5644741674
 21
5.4016898243
  0
LINE
  5
386
100
AcDbEntity
  8
0
100
AcDbLine
 62
7
  6
CONTINUOUS
 10
5.2464024613
 20
5.4016950318
 11
5.135282488
 21
5.4016950318
  0
LINE
  5
387
100
AcDbEntity
  8
0
100
AcDbLine
 62
7
  6
CONTINUOUS
 10
3.9785326484
 20
5.4016950318
 11
3.8674116336
 21
5.4016950318
  0
LINE
  5
388
100
AcDbEntity
  8
0
100
AcDbLine
 62
7
  6
CONTINUOUS
 10
5.100266
 20
-0.375
 11
5.572062
 21
-1.121866
  0
LINE
  5
389
100
AcDbEntity
  8
0
100
AcDbLine
 62
7
  6
CONTINUOUS
 10
5.296991
 20
-0.375
 11
5.655665
 21
-0.975687
  0
LINE
  5
38A
100
AcDbEntity
  8
DRAFT
100
AcDbLine
 62
7
  6
CONTINUOUS
 10
-2.6768152463
 20
21.2
 11
-3.0118365096
 21
22.2
  0
LINE
  5
38B
100
AcDbEntity
  8
0
100
AcDbLine
 62
7
  6
CONTINUOUS
 10
1.916038
 20
11.378117
 11
2.045475
 21
10.974954
  0
LINE
  5
38C
100
AcDbEntity
  8
0
100
AcDbLine
 62
7
  6
CONTINUOUS
 10
1.592256
 20
12.386548
 11
1.790967
 21
11.767632
  0
LINE
  5
38D
100
AcDbEntity
  8
DRAFT
100
AcDbLine
 62
7
  6
CONTINUOUS
 10
6.6288732496
 20
-18.5
 11
6.5148743481
 21
-13.7454640196
  0
LINE
  5
38E
100
AcDbEntity
  8
RACCORDO
100
AcDbLine
 62
7
  6
CONTINUOUS
 10
7.2269620892
 20
-20.2585786438
 11
7.237014021
 21
-20.8344534339
  0
LINE
  5
38F
100
AcDbEntity
  8
RACCORDO
100
AcDbLine
 62
7
  6
CONTINUOUS
 10
6.6568305096
 20
20.7438927334
 11
6.6610657815
 21
20.2585786438
  0
LINE
  5
390
100
AcDbEntity
  8
0
100
AcDbLine
 62
7
  6
CONTINUOUS
 10
5.5644741674
 20
5.4016898243
 11
5.5644741674
 21
3.5983862352
  0
LINE
  5
391
100
AcDbEntity
  8
0
100
AcDbLine
 62
7
  6
CONTINUOUS
 10
5.572062
 20
-1.121866
 11
5.572062
 21
-1.625
  0
LINE
  5
392
100
AcDbEntity
  8
0
100
AcDbLine
 62
7
  6
CONTINUOUS
 10
5.6756639214
 20
5.3057049638
 11
5.6756639214
 21
4.4975043148
  0
LINE
  5
393
100
AcDbEntity
  8
0
100
AcDbLine
 62
7
  6
CONTINUOUS
 10
5.6756639214
 20
4.4015194543
 11
5.6756639214
 21
3.5983862352
  0
LINE
  5
394
100
AcDbEntity
  8
0
100
AcDbLine
 62
7
  6
CONTINUOUS
 10
5.740885
 20
-1.121866
 11
5.740885
 21
-1.625
  0
LINE
  5
395
100
AcDbEntity
  8
RACCORDO
100
AcDbLine
 62
7
  6
CONTINUOUS
 10
6.6615769896
 20
-20.1171572875
 11
6.6615769896
 21
-19.0
  0
LINE
  5
396
100
AcDbEntity
  8
RACCORDO
100
AcDbLine
 62
7
  6
CONTINUOUS
 10
6.6615769896
 20
19.0
 11
6.6615769896
 21
20.1171572875
  0
LINE
  5
397
100
AcDbEntity
  8
0
100
AcDbLine
 62
7
  6
CONTINUOUS
 10
7.0
 20
-11.0
 11
7.0
 21
7.0
  0
LINE
  5
398
100
AcDbEntity
  8
RACCORDO
100
AcDbLine
 62
7
  6
CONTINUOUS
 10
6.6610657815
 20
-20.2585786438
 11
6.6568305096
 21
-20.7438927334
  0
LINE
  5
399
100
AcDbEntity
  8
RACCORDO
100
AcDbLine
 62
7
  6
CONTINUOUS
 10
7.237014021
 20
20.8344534339
 11
7.2269620892
 21
20.2585786438
  0
LINE
  5
39A
100
AcDbEntity
  8
DRAFT
100
AcDbLine
 62
7
  6
CONTINUOUS
 10
6.5148743481
 20
13.7454640196
 11
6.6288732496
 21
18.5
  0
LWPOLYLINE
  5
39B
100
AcDbEntity
  8
0
100
AcDbPolyline
 62
7
  6
CONTINUOUS
 90
19
 70
0
 10
6.8576170774
 20
4.8965793902
 10
6.8550537129
 20
4.839360874
 10
6.8481222934
 20
4.7857184387
 10
6.8368228189
 20
4.7356520961
 10
6.820950328
 20
4.6891967931
 10
6.8007097821
 20
4.6463176036
 10
6.7767160655
 20
4.6069097278
 10
6.748904888
 20
4.5708468202
 10
6.7173405397
 20
4.5382552412
 10
6.6828307749
 20
4.5094092495
 10
6.6451745966
 20
4.4845455482
 10
6.6045730017
 20
4.4634274455
 10
6.5624367347
 20
4.4456191067
 10
6.5188033645
 20
4.4311931483
 10
6.4736353222
 20
4.4200769595
 10
6.4282306458
 20
4.4116168626
 10
6.3830220145
 20
4.4055949657
 10
6.337576749
 20
4.4022291628
 10
6.2918948494
 20
4.4015194543
  0
LINE
  5
39C
100
AcDbEntity
  8
0
100
AcDbLine
 62
7
  6
CONTINUOUS
 10
6.212781
 20
-0.375
 11
5.740885
 21
-1.121866
  0
LINE
  5
39D
100
AcDbEntity
  8
0
100
AcDbLine
 62
7
  6
CONTINUOUS
 10
-7.0
 20
7.0
 11
7.0
 21
7.0
  0
LWPOLYLINE
  5
39E
100
AcDbEntity
  8
0
100
AcDbPolyline
 62
7
  6
CONTINUOUS
 90
28
 70
0
 10
6.3322853537
 20
5.4016898243
 10
6.36969276
 20
5.4010692241
 10
6.4067661713
 20
5.3985416068
 10
6.4435055875
 20
5.3941069722
 10
6.4802453214
 20
5.3878059652
 10
6.5166510603
 20
5.3795979396
 10
6.5517198659
 20
5.3693609574
 10
6.5854668499
 20
5.3569078731
 10
6.6178769005
 20
5.3424258292
 10
6.6479017438
 20
5.3263543202
 10
6.6751789167
 20
5.3085476778
 10
6.7000708823
 20
5.2891515668
 10
6.7226167559
 20
5.2690424828
 10
6.7426201915
 20
5.2484762894
 10
6.7602775349
 20
5.2271971213
 10
6.7762169388
 20
5.2053138819
 10
6.7905461759
 20
5.1829384351
 10
6.8031574734
 20
5.1599589155
 10
6.8143556656
 20
5.1361486322
 10
6.8242022139
 20
5.1113236626
 10
6.8326356568
 20
5.0856679267
 10
6.8397764445
 20
5.0595064981
 10
6.8455943282
 20
5.0327991827
 10
6.8501195567
 20
5.005586173
 10
6.8535633262
 20
4.9783131233
 10
6.8559960355
 20
4.9511285855
 10
6.8573472859
 20
4.9238840078
 10
6.8576170774
 20
4.8965793902
  0
LINE
  5
39F
100
AcDbEntity
  8
0
100
AcDbLine
 62
7
  6
CONTINUOUS
 10
2.128002
 20
9.391334
 11
2.766968
 21
8.376074
  0
LINE
  5
3A0
100
AcDbEntity
  8
0
100
AcDbLine
 62
7
  6
CONTINUOUS
 10
2.164619
 20
9.626074
 11
2.793024
 21
8.610721
  0
LINE
  5
3A1
100
AcDbEntity
  8
0
100
AcDbLine
 62
7
  6
CONTINUOUS
 10
1.797276
 20
13.025046
 11
2.455495
 21
10.974949
  0
LINE
  5
3A2
100
AcDbEntity
  8
DRAFT
100
AcDbLine
 62
7
  6
CONTINUOUS
 10
7.5193672252
 20
13.7454640196
 11
7.2913520568
 21
18.5
  0
LINE
  5
3A3
100
AcDbEntity
  8
RACCORDO
100
AcDbLine
 62
7
  6
CONTINUOUS
 10
7.2259395951
 20
20.1171572875
 11
7.2259395951
 21
19.0
  0
LINE
  5
3A4
100
AcDbEntity
  8
RACCORDO
100
AcDbLine
 62
7
  6
CONTINUOUS
 10
7.2259395951
 20
-19.0
 11
7.2259395951
 21
-20.1171572875
  0
LINE
  5
3A5
100
AcDbEntity
  8
DRAFT
100
AcDbLine
 62
7
  6
CONTINUOUS
 10
7.2913520568
 20
-18.5
 11
7.5193672252
 21
-13.7454640196
  0
LWPOLYLINE
  5
3A6
100
AcDbEntity
  8
0
100
AcDbPolyline
 62
7
  6
CONTINUOUS
 90
22
 70
0
 10
3.7139636758
 20
8.5205660001
 10
3.75030287
 20
8.5222538561
 10
3.7852963819
 20
8.5268123286
 10
3.8189442115
 20
8.5342414163
 10
3.8515134719
 20
8.544581177
 10
3.8827370501
 20
8.5577915475
 10
3.9118136061
 20
8.5737523443
 10
3.9385683805
 20
8.5927199971
 10
3.9631761329
 20
8.6144380657
 10
3.9853598024
 20
8.6380170632
 10
4.0049896426
 20
8.6634075231
 10
4.0221954001
 20
8.6906589023
 10
4.037089253
 20
8.7190301016
 10
4.0495228334
 20
8.7484979598
 10
4.0596445093
 20
8.7790856311
 10
4.0680115631
 20
8.8101214931
 10
4.0746066876
 20
8.8415050626
 10
4.07944719
 20
8.8733368199
 10
4.083142274
 20
8.9052465905
 10
4.0858950076
 20
8.9371109832
 10
4.0875023229
 20
8.9690533886
 10
4.0879642198
 20
9.0010738065
  0
LINE
  5
3A7
100
AcDbEntity
  8
0
100
AcDbLine
 62
7
  6
CONTINUOUS
 10
4.678437
 20
8.376074
 11
4.497327
 21
8.376074
  0
LINE
  5
3A8
100
AcDbEntity
  8
0
100
AcDbLine
 62
7
  6
CONTINUOUS
 10
3.7365691922
 20
8.376074
 11
3.229956
 21
8.376074
  0
LINE
  5
3A9
100
AcDbEntity
  8
0
100
AcDbLine
 62
7
  6
CONTINUOUS
 10
2.956664
 20
8.376074
 11
2.766968
 21
8.376074
  0
LINE
  5
3AA
100
AcDbEntity
  8
0
100
AcDbLine
 62
7
  6
CONTINUOUS
 10
2.128002
 20
8.376074
 11
1.964362
 21
8.376074
  0
LINE
  5
3AB
100
AcDbEntity
  8
0
100
AcDbLine
 62
7
  6
CONTINUOUS
 10
1.743281
 20
8.376074
 11
0.820561
 21
8.376074
  0
LINE
  5
3AC
100
AcDbEntity
  8
0
100
AcDbLine
 62
7
  6
CONTINUOUS
 10
-0.171741
 20
8.376074
 11
-0.340612
 21
8.376074
  0
LINE
  5
3AD
100
AcDbEntity
  8
0
100
AcDbLine
 62
7
  6
CONTINUOUS
 10
-1.125748
 20
8.376074
 11
-1.306759
 21
8.376074
  0
LINE
  5
3AE
100
AcDbEntity
  8
0
100
AcDbLine
 62
7
  6
CONTINUOUS
 10
-1.905653
 20
8.376074
 11
-2.074524
 21
8.376074
  0
LINE
  5
3AF
100
AcDbEntity
  8
0
100
AcDbLine
 62
7
  6
CONTINUOUS
 10
-2.54452
 20
8.376074
 11
-2.728985
 21
8.376074
  0
LINE
  5
3B0
100
AcDbEntity
  8
0
100
AcDbLine
 62
7
  6
CONTINUOUS
 10
-3.484611
 20
8.376074
 11
-3.658713
 21
8.376074
  0
LINE
  5
3B1
100
AcDbEntity
  8
0
100
AcDbLine
 62
7
  6
CONTINUOUS
 10
-4.525669
 20
8.376074
 11
-4.69454
 21
8.376074
  0
LINE
  5
3B2
100
AcDbEntity
  8
0
100
AcDbLine
 62
7
  6
CONTINUOUS
 10
3.7139675341
 20
8.520566
 11
3.398827
 21
8.520566
  0
LINE
  5
3B3
100
AcDbEntity
  8
0
100
AcDbLine
 62
7
  6
CONTINUOUS
 10
1.743281
 20
8.525797
 11
0.989431
 21
8.525797
  0
LINE
  5
3B4
100
AcDbEntity
  8
0
100
AcDbLine
 62
7
  6
CONTINUOUS
 10
4.678437
 20
8.560638
 11
4.497327
 21
8.560638
  0
LINE
  5
3B5
100
AcDbEntity
  8
0
100
AcDbLine
 62
7
  6
CONTINUOUS
 10
-1.125748
 20
8.560638
 11
-1.306759
 21
8.560638
  0
LINE
  5
3B6
100
AcDbEntity
  8
0
100
AcDbLine
 62
7
  6
CONTINUOUS
 10
-2.852653
 20
8.73997
 11
-3.354035
 21
8.73997
  0
LINE
  5
3B7
100
AcDbEntity
  8
0
100
AcDbLine
 62
7
  6
CONTINUOUS
 10
-2.913648
 20
8.889694
 11
-3.301824
 21
8.889694
  0
LINE
  5
3B8
100
AcDbEntity
  8
0
100
AcDbLine
 62
7
  6
CONTINUOUS
 10
3.496757
 20
11.767632
 11
3.907643
 21
10.974954
  0
LINE
  5
3B9
100
AcDbEntity
  8
RACCORDO
100
AcDbLine
 62
250
  6
CONTINUOUS
 10
9.5210191944
 20
-20.3126513725
 11
9.5160210124
 21
-11.2864969574
  0
LINE
  5
3BA
100
AcDbEntity
  8
RACCORDO
100
AcDbLine
 62
250
  6
CONTINUOUS
 10
9.3160514542
 20
-11.2914829087
 11
9.3139093903
 21
-2.2584781886
  0
LINE
  5
3BB
100
AcDbEntity
  8
RACCORDO
100
AcDbLine
 62
250
  6
CONTINUOUS
 10
9.5160210124
 20
-11.2864969574
 11
9.5138789333
 21
-2.257717174
  0
LINE
  5
3BC
100
AcDbEntity
  8
RACCORDO
100
AcDbLine
 62
250
  6
CONTINUOUS
 10
9.3210496291
 20
-20.5123772007
 11
9.3160514542
 21
-11.2914829087
  0
LINE
  5
3BD
100
AcDbEntity
  8
RACCORDO
100
AcDbLine
 62
7
  6
CONTINUOUS
 10
9.65
 20
-20.6999084592
 11
9.65
 21
20.6999084592
  0
LINE
  5
3BE
100
AcDbEntity
  8
RACCORDO
100
AcDbLine
 62
250
  6
CONTINUOUS
 10
9.3139093903
 20
-2.2584781886
 11
9.3146234118
 21
6.7752541436
  0
LINE
  5
3BF
100
AcDbEntity
  8
RACCORDO
100
AcDbLine
 62
250
  6
CONTINUOUS
 10
9.5138789333
 20
-2.257717174
 11
9.5145929574
 21
6.7725639428
  0
LWPOLYLINE
  5
3C0
100
AcDbEntity
  8
RACCORDO
100
AcDbPolyline
 62
250
  6
CONTINUOUS
 90
3
 70
0
 10
9.3146234118
 20
6.7752541436
 10
9.3181935197
 20
15.8067896916
 10
9.3210496291
 20
20.5123772007
  0
LWPOLYLINE
  5
3C1
100
AcDbEntity
  8
RACCORDO
100
AcDbPolyline
 62
250
  6
CONTINUOUS
 90
3
 70
0
 10
9.5145929574
 20
6.7725639428
 10
9.5181630874
 20
15.7998502533
 10
9.5210191919
 20
20.3126513649
  0
LINE
  5
3C2
100
AcDbEntity
  8
RACCORDO
100
AcDbLine
 62
7
  6
CONTINUOUS
 10
-6.6562210424
 20
-20.5731858629
 11
-6.518537492
 21
-20.4355023125
  0
LWPOLYLINE
  5
3C3
100
AcDbEntity
  8
0
100
AcDbPolyline
 62
7
  6
CONTINUOUS
 90
15
 70
0
 10
0.1712314022
 20
9.048103
 10
0.198505804
 20
9.0486576647
 10
0.2247225811
 20
9.0508833637
 10
0.2498817334
 20
9.0547800967
 10
0.2741254576
 20
9.0600990405
 10
0.2973115571
 20
9.0670890168
 10
0.3190134419
 20
9.0764964908
 10
0.339381523
 20
9.0885831533
 10
0.3582653895
 20
9.1030873076
 10
0.3747872187
 20
9.1199703364
 10
0.3888216709
 20
9.1394528944
 10
0.4004940859
 20
9.1613143171
 10
0.4093026599
 20
9.1848540089
 10
0.4150801251
 20
9.2098384357
 10
0.4179937495
 20
9.2365011229
  0
LWPOLYLINE
  5
3C4
100
AcDbEntity
  8
0
100
AcDbPolyline
 62
7
  6
CONTINUOUS
 90
15
 70
0
 10
-4.1826967463
 20
9.048103
 10
-4.1554223444
 20
9.0486576647
 10
-4.1292055674
 20
9.0508833637
 10
-4.104046415
 20
9.0547800967
 10
-4.0798026908
 20
9.0600990405
 10
-4.0566165914
 20
9.0670890168
 10
-4.0349147065
 20
9.0764964908
 10
-4.0145466254
 20
9.0885831533
 10
-3.9956627589
 20
9.1030873076
 10
-3.9791409297
 20
9.1199703364
 10
-3.9651064775
 20
9.1394528944
 10
-3.9534340626
 20
9.1613143171
 10
-3.9446254885
 20
9.1848540089
 10
-3.9388480233
 20
9.2098384357
 10
-3.935934399
 20
9.2365011229
  0
LINE
  5
3C5
100
AcDbEntity
  8
0
100
AcDbLine
 62
7
  6
CONTINUOUS
 10
0.2216314292
 20
8.90361
 11
-0.171741
 21
8.90361
  0
LINE
  5
3C6
100
AcDbEntity
  8
0
100
AcDbLine
 62
7
  6
CONTINUOUS
 10
-4.1322967192
 20
8.90361
 11
-4.525669
 21
8.90361
  0
LINE
  5
3C7
100
AcDbEntity
  8
0
100
AcDbLine
 62
7
  6
CONTINUOUS
 10
1.673699
 20
8.943583
 11
0.989431
 21
8.943583
  0
LINE
  5
3C8
100
AcDbEntity
  8
0
100
AcDbLine
 62
7
  6
CONTINUOUS
 10
0.1712316478
 20
9.048103
 11
-0.171741
 21
9.048103
  0
LINE
  5
3C9
100
AcDbEntity
  8
0
100
AcDbLine
 62
7
  6
CONTINUOUS
 10
-4.1826965007
 20
9.048103
 11
-4.525669
 21
9.048103
  0
LINE
  5
3CA
100
AcDbEntity
  8
0
100
AcDbLine
 62
7
  6
CONTINUOUS
 10
1.673699
 20
9.093306
 11
0.989431
 21
9.093306
  0
LINE
  5
3CB
100
AcDbEntity
  8
0
100
AcDbLine
 62
7
  6
CONTINUOUS
 10
1.731141
 20
9.47635
 11
0.989431
 21
9.47635
  0
LINE
  5
3CC
100
AcDbEntity
  8
0
100
AcDbLine
 62
7
  6
CONTINUOUS
 10
-1.482637
 20
9.47635
 11
-1.905653
 21
9.47635
  0
LINE
  5
3CD
100
AcDbEntity
  8
0
100
AcDbLine
 62
7
  6
CONTINUOUS
 10
-2.074524
 20
9.47635
 11
-2.497541
 21
9.47635
  0
LINE
  5
3CE
100
AcDbEntity
  8
0
100
AcDbLine
 62
7
  6
CONTINUOUS
 10
3.7139675341
 20
9.481581
 11
3.398827
 21
9.481581
  0
LINE
  5
3CF
100
AcDbEntity
  8
0
100
AcDbLine
 62
7
  6
CONTINUOUS
 10
0.1712316478
 20
9.481581
 11
-0.171741
 21
9.481581
  0
LINE
  5
3D0
100
AcDbEntity
  8
0
100
AcDbLine
 62
7
  6
CONTINUOUS
 10
-4.1826965007
 20
9.481581
 11
-4.525669
 21
9.481581
  0
LINE
  5
3D1
100
AcDbEntity
  8
0
100
AcDbLine
 62
7
  6
CONTINUOUS
 10
3.7365691922
 20
9.626074
 11
3.229956
 21
9.626074
  0
LINE
  5
3D2
100
AcDbEntity
  8
0
100
AcDbLine
 62
7
  6
CONTINUOUS
 10
2.956664
 20
9.626074
 11
2.793024
 21
9.626074
  0
LINE
  5
3D3
100
AcDbEntity
  8
0
100
AcDbLine
 62
7
  6
CONTINUOUS
 10
2.164619
 20
9.626074
 11
1.964362
 21
9.626074
  0
LINE
  5
3D4
100
AcDbEntity
  8
0
100
AcDbLine
 62
7
  6
CONTINUOUS
 10
1.731141
 20
9.626074
 11
0.820561
 21
9.626074
  0
LINE
  5
3D5
100
AcDbEntity
  8
0
100
AcDbLine
 62
7
  6
CONTINUOUS
 10
0.2216453768
 20
9.626074
 11
-0.340612
 21
9.626074
  0
LINE
  5
3D6
100
AcDbEntity
  8
0
100
AcDbLine
 62
7
  6
CONTINUOUS
 10
-1.482637
 20
9.626074
 11
-2.497541
 21
9.626074
  0
LINE
  5
3D7
100
AcDbEntity
  8
0
100
AcDbLine
 62
7
  6
CONTINUOUS
 10
-2.997146
 20
9.626074
 11
-3.188618
 21
9.626074
  0
LINE
  5
3D8
100
AcDbEntity
  8
0
100
AcDbLine
 62
7
  6
CONTINUOUS
 10
-4.1322827716
 20
9.626074
 11
-4.69454
 21
9.626074
  0
LWPOLYLINE
  5
3D9
100
AcDbEntity
  8
0
100
AcDbPolyline
 62
7
  6
CONTINUOUS
 90
22
 70
0
 10
-4.1322827716
 20
9.626074
 10
-4.1050238253
 20
9.6252178365
 10
-4.0779848887
 20
9.6227500084
 10
-4.051165962
 20
9.6186705152
 10
-4.0243867731
 20
9.6130309747
 10
-3.997827594
 20
9.6057797674
 10
-3.9720292406
 20
9.5967620363
 10
-3.9469268234
 20
9.5859140479
 10
-3.922585232
 20
9.5732995317
 10
-3.8997399507
 20
9.5589548251
 10
-3.8785482539
 20
9.5428364357
 10
-3.8588528673
 20
9.5249878499
 10
-3.8409174523
 20
9.5055758727
 10
-3.8248320705
 20
9.4846092905
 10
-3.8105066603
 20
9.4620793098
 10
-3.7979346987
 20
9.4381263674
 10
-3.7870178501
 20
9.4127959807
 10
-3.7778544502
 20
9.3860426245
 10
-3.7707329822
 20
9.3578701717
 10
-3.7657496072
 20
9.3282799103
 10
-3.7628081642
 20
9.2972705431
 10
-3.7619086531
 20
9.2648420655
  0
LWPOLYLINE
  5
3DA
100
AcDbEntity
  8
0
100
AcDbPolyline
 62
7
  6
CONTINUOUS
 90
22
 70
0
 10
0.2216453768
 20
9.626074
 10
0.2489043232
 20
9.6252178365
 10
0.2759432597
 20
9.6227500084
 10
0.3027621865
 20
9.6186705152
 10
0.3295413754
 20
9.6130309747
 10
0.3561005545
 20
9.6057797674
 10
0.3818989079
 20
9.5967620363
 10
0.407001325
 20
9.5859140479
 10
0.4313429164
 20
9.5732995317
 10
0.4541881977
 20
9.5589548251
 10
0.4753798945
 20
9.5428364358
 10
0.4950752811
 20
9.5249878499
 10
0.5130106961
 20
9.5055758727
 10
0.529096078
 20
9.4846092905
 10
0.5434214881
 20
9.4620793098
 10
0.5559934498
 20
9.4381263674
 10
0.5669102983
 20
9.4127959807
 10
0.5760736983
 20
9.3860426245
 10
0.5831951663
 20
9.3578701717
 10
0.5881785412
 20
9.3282799103
 10
0.5911199843
 20
9.2972705431
 10
0.5920194954
 20
9.2648420655
  0
LWPOLYLINE
  5
3DB
100
AcDbEntity
  8
0
100
AcDbPolyline
 62
7
  6
CONTINUOUS
 90
22
 70
0
 10
3.7365677337
 20
9.6260739999
 10
3.7856658922
 20
9.6233364949
 10
3.8328152032
 20
9.6170854379
 10
3.8780156669
 20
9.6073208263
 10
3.9214274831
 20
9.5939490558
 10
3.9628904519
 20
9.5770637213
 10
4.0019239736
 20
9.5569456176
 10
4.0385669156
 20
9.5335006766
 10
4.0727804106
 20
9.5068229501
 10
4.1039672566
 20
9.4774754139
 10
4.1318517186
 20
9.4453275721
 10
4.1567095316
 20
9.4105099017
 10
4.1787706993
 20
9.3739768418
 10
4.1980026857
 20
9.3357313918
 10
4.2144380269
 20
9.2957705382
 10
4.2284043345
 20
9.2550397088
 10
4.2399850391
 20
9.2136800523
 10
4.2490967103
 20
9.1715504139
 10
4.2558166678
 20
9.1291727725
 10
4.260170685
 20
9.0867211216
 10
4.2621329886
 20
9.0440214666
 10
4.2617035785
 20
9.0010738065
  0
LINE
  5
3DC
100
AcDbEntity
  8
RACCORDO
100
AcDbLine
 62
7
  6
CONTINUOUS
 10
-6.518537492
 20
20.4355023125
 11
-6.6562210424
 21
20.5731858629
  0
LINE
  5
3DD
100
AcDbEntity
  8
0
100
AcDbLine
 62
7
  6
CONTINUOUS
 10
3.9330213953
 20
11.8169411665
 11
4.369462
 21
10.974959
  0
LINE
  5
3DE
100
AcDbEntity
  8
0
100
AcDbLine
 62
7
  6
CONTINUOUS
 10
11.15
 20
-21.8997711479
 11
11.15
 21
21.8997711479
  0
LWPOLYLINE
  5
3DF
100
AcDbEntity
  8
RACCORDO
100
AcDbPolyline
 62
250
  6
CONTINUOUS
 90
13
 70
0
 10
9.5210191682
 20
-20.3126512938
 10
9.5192865604
 20
-20.3387056945
 10
9.5141660016
 20
-20.3643148147
 10
9.5057450043
 20
-20.389040984
 10
9.4941674867
 20
-20.412461622
 10
9.4796313136
 20
-20.4341764603
 10
9.4623849139
 20
-20.4538143833
 10
9.442723036
 20
-20.4710397708
 10
9.4209817092
 20
-20.4855582339
 10
9.397532502
 20
-20.497121646
 10
9.3727761709
 20
-20.5055323836
 10
9.3471358118
 20
-20.5106467038
 10
9.3210496291
 20
-20.5123772007
  0
LINE
  5
3E0
100
AcDbEntity
  8
0
100
AcDbLine
 62
7
  6
CONTINUOUS
 10
4.369462
 20
10.974959
 11
3.907643
 21
10.974954
  0
LINE
  5
3E1
100
AcDbEntity
  8
0
100
AcDbLine
 62
7
  6
CONTINUOUS
 10
1.139047
 20
10.974954
 11
0.729031
 21
10.974949
  0
LINE
  5
3E2
100
AcDbEntity
  8
0
100
AcDbLine
 62
7
  6
CONTINUOUS
 10
0.455689
 20
10.974949
 11
0.045674
 21
10.974949
  0
LINE
  5
3E3
100
AcDbEntity
  8
0
100
AcDbLine
 62
7
  6
CONTINUOUS
 10
-1.139626
 20
10.974949
 11
-1.549641
 21
10.974949
  0
LINE
  5
3E4
100
AcDbEntity
  8
0
100
AcDbLine
 62
7
  6
CONTINUOUS
 10
3.138858
 20
10.974954
 11
2.728837
 21
10.974954
  0
LINE
  5
3E5
100
AcDbEntity
  8
0
100
AcDbLine
 62
7
  6
CONTINUOUS
 10
-0.341976
 20
10.974954
 11
-0.751981
 21
10.974949
  0
LINE
  5
3E6
100
AcDbEntity
  8
0
100
AcDbLine
 62
7
  6
CONTINUOUS
 10
-1.959646
 20
10.974949
 11
-2.369662
 21
10.974944
  0
LINE
  5
3E7
100
AcDbEntity
  8
0
100
AcDbLine
 62
7
  6
CONTINUOUS
 10
2.455495
 20
10.974949
 11
2.045475
 21
10.974954
  0
LINE
  5
3E8
100
AcDbEntity
  8
0
100
AcDbLine
 62
7
  6
CONTINUOUS
 10
-3.301218
 20
10.974949
 11
-3.711248
 21
10.974944
  0
LINE
  5
3E9
100
AcDbEntity
  8
0
100
AcDbLine
 62
7
  6
CONTINUOUS
 10
1.916038
 20
11.378117
 11
1.268489
 21
11.378117
  0
LINE
  5
3EA
100
AcDbEntity
  8
0
100
AcDbLine
 62
7
  6
CONTINUOUS
 10
1.790967
 20
11.767632
 11
1.393554
 21
11.767632
  0
LINE
  5
3EB
100
AcDbEntity
  8
0
100
AcDbLine
 62
7
  6
CONTINUOUS
 10
3.496757
 20
11.767632
 11
3.138904
 21
11.767638
  0
LINE
  5
3EC
100
AcDbEntity
  8
0
100
AcDbLine
 62
7
  6
CONTINUOUS
 10
3.632045
 20
12.146903
 11
3.133205
 21
12.146903
  0
LINE
  5
3ED
100
AcDbEntity
  8
RACCORDO
100
AcDbLine
 62
7
  6
CONTINUOUS
 10
7.5121377902
 20
-20.5123772007
 11
7.3830351795
 21
-20.9
  0
LINE
  5
3EE
100
AcDbEntity
  8
0
100
AcDbLine
 62
7
  6
CONTINUOUS
 10
3.632045
 20
12.645781
 11
3.1332
 21
12.645781
  0
LINE
  5
3EF
100
AcDbEntity
  8
0
100
AcDbLine
 62
7
  6
CONTINUOUS
 10
0.455689
 20
13.025041
 11
-0.164144
 21
13.025041
  0
LINE
  5
3F0
100
AcDbEntity
  8
0
100
AcDbLine
 62
7
  6
CONTINUOUS
 10
-0.929808
 20
13.025041
 11
-1.549641
 21
13.025041
  0
LINE
  5
3F1
100
AcDbEntity
  8
0
100
AcDbLine
 62
7
  6
CONTINUOUS
 10
-1.959641
 20
13.025041
 11
-2.369657
 21
13.025041
  0
LINE
  5
3F2
100
AcDbEntity
  8
0
100
AcDbLine
 62
7
  6
CONTINUOUS
 10
-2.642998
 20
13.025041
 11
-3.053019
 21
13.025041
  0
LINE
  5
3F3
100
AcDbEntity
  8
0
100
AcDbLine
 62
7
  6
CONTINUOUS
 10
-3.959442
 20
13.025041
 11
-4.369462
 21
13.025041
  0
LINE
  5
3F4
100
AcDbEntity
  8
0
100
AcDbLine
 62
7
  6
CONTINUOUS
 10
3.688954
 20
13.025046
 11
2.728837
 21
13.025046
  0
LINE
  5
3F5
100
AcDbEntity
  8
0
100
AcDbLine
 62
7
  6
CONTINUOUS
 10
1.797276
 20
13.025046
 11
1.38724
 21
13.025046
  0
LINE
  5
3F6
100
AcDbEntity
  8
DRAFT
100
AcDbLine
 62
7
  6
CONTINUOUS
 10
7.5193672252
 20
13.7454640196
 11
6.5148743481
 21
13.7454640196
  0
LINE
  5
3F7
100
AcDbEntity
  8
DRAFT
100
AcDbLine
 62
7
  6
CONTINUOUS
 10
0.4681608314
 20
13.7454640196
 11
-0.4681608314
 21
13.7454640196
  0
LINE
  5
3F8
100
AcDbEntity
  8
DRAFT
100
AcDbLine
 62
7
  6
CONTINUOUS
 10
-6.5148743481
 20
13.7454640196
 11
-7.5193672252
 21
13.7454640196
  0
LINE
  5
3F9
100
AcDbEntity
  8
RACCORDO
100
AcDbLine
 62
7
  6
CONTINUOUS
 10
7.5121377902
 20
20.5123772007
 11
7.3830351795
 21
20.9
  0
LINE
  5
3FA
100
AcDbEntity
  8
RACCORDO
100
AcDbLine
 62
7
  6
CONTINUOUS
 10
0.4644976875
 20
-20.4355023125
 11
0.3301850577
 21
-20.5698149423
  0
LINE
  5
3FB
100
AcDbEntity
  8
DRAFT
100
AcDbLine
 62
7
  6
CONTINUOUS
 10
-6.9339198284
 20
-21.2
 11
-6.8667670239
 21
-21.1647852141
  0
LINE
  5
3FC
100
AcDbEntity
  8
DRAFT
100
AcDbLine
 62
7
  6
CONTINUOUS
 10
-6.9339198284
 20
21.2
 11
-6.8667670239
 21
21.1647852141
  0
LINE
  5
3FD
100
AcDbEntity
  8
RACCORDO
100
AcDbLine
 62
7
  6
CONTINUOUS
 10
0.4644976875
 20
20.4355023125
 11
0.3301850577
 21
20.5698149423
  0
LINE
  5
3FE
100
AcDbEntity
  8
DRAFT
100
AcDbLine
 62
7
  6
CONTINUOUS
 10
-7.3830351795
 20
-20.9
 11
-7.237014021
 21
-20.8344534339
  0
LINE
  5
3FF
100
AcDbEntity
  8
DRAFT
100
AcDbLine
 62
7
  6
CONTINUOUS
 10
-7.237014021
 20
20.8344534339
 11
-7.3830351795
 21
20.9
  0
LINE
  5
400
100
AcDbEntity
  8
RACCORDO
100
AcDbLine
 62
7
  6
CONTINUOUS
 10
6.6288732496
 20
18.5
 11
7.2913520568
 21
18.5
  0
LINE
  5
401
100
AcDbEntity
  8
RACCORDO
100
AcDbLine
 62
7
  6
CONTINUOUS
 10
-6.6288732496
 20
18.5
 11
-7.2913520568
 21
18.5
  0
LINE
  5
402
100
AcDbEntity
  8
RACCORDO
100
AcDbLine
 62
250
  6
CONTINUOUS
 10
-7.2259395951
 20
19.0
 11
-6.6615769896
 21
19.0
  0
LINE
  5
403
100
AcDbEntity
  8
RACCORDO
100
AcDbLine
 62
250
  6
CONTINUOUS
 10
6.6615769896
 20
19.0
 11
7.2259395951
 21
19.0
  0
LINE
  5
404
100
AcDbEntity
  8
DRAFT
100
AcDbLine
 62
7
  6
CONTINUOUS
 10
-0.3301850577
 20
19.5
 11
0.3301850577
 21
19.5
  0
LINE
  5
405
100
AcDbEntity
  8
RACCORDO
100
AcDbLine
 62
250
  6
CONTINUOUS
 10
7.2259395951
 20
20.1171572875
 11
6.6615769896
 21
20.1171572875
  0
LINE
  5
406
100
AcDbEntity
  8
RACCORDO
100
AcDbLine
 62
250
  6
CONTINUOUS
 10
-6.6615769896
 20
20.1171572875
 11
-7.2259395951
 21
20.1171572875
  0
LINE
  5
407
100
AcDbEntity
  8
RACCORDO
100
AcDbLine
 62
250
  6
CONTINUOUS
 10
-6.5168087892
 20
20.2436317461
 11
-0.4662263902
 21
20.2436317461
  0
LINE
  5
408
100
AcDbEntity
  8
RACCORDO
100
AcDbLine
 62
250
  6
CONTINUOUS
 10
0.4662263902
 20
20.2436317461
 11
6.5168087892
 21
20.2436317461
  0
LINE
  5
409
100
AcDbEntity
  8
RACCORDO
100
AcDbLine
 62
250
  6
CONTINUOUS
 10
7.2269620892
 20
20.2585786438
 11
6.6610657815
 21
20.2585786438
  0
LINE
  5
40A
100
AcDbEntity
  8
RACCORDO
100
AcDbLine
 62
250
  6
CONTINUOUS
 10
-6.6610657815
 20
20.2585786438
 11
-7.2269620892
 21
20.2585786438
  0
LINE
  5
40B
100
AcDbEntity
  8
RACCORDO
100
AcDbLine
 62
250
  6
CONTINUOUS
 10
-7.515443196
 20
20.3208040737
 11
-9.3468666714
 21
20.3207143977
  0
LINE
  5
40C
100
AcDbEntity
  8
RACCORDO
100
AcDbLine
 62
7
  6
CONTINUOUS
 10
-6.518537492
 20
20.4355023125
 11
-0.4644976875
 21
20.4355023125
  0
LINE
  5
40D
100
AcDbEntity
  8
RACCORDO
100
AcDbLine
 62
7
  6
CONTINUOUS
 10
0.4644976875
 20
20.4355023125
 11
6.518537492
 21
20.4355023125
  0
LINE
  5
40E
100
AcDbEntity
  8
RACCORDO
100
AcDbLine
 62
250
  6
CONTINUOUS
 10
9.3210496291
 20
20.5123772007
 11
7.5121377902
 21
20.5123772007
  0
LINE
  5
40F
100
AcDbEntity
  8
RACCORDO
100
AcDbLine
 62
250
  6
CONTINUOUS
 10
-7.5121377902
 20
20.5123772007
 11
-9.3210496291
 21
20.5123772007
  0
LINE
  5
410
100
AcDbEntity
  8
RACCORDO
100
AcDbLine
 62
7
  6
CONTINUOUS
 10
-6.6562210424
 20
20.5731858629
 11
6.6562210424
 21
20.5731858629
  0
LINE
  5
411
100
AcDbEntity
  8
RACCORDO
100
AcDbLine
 62
250
  6
CONTINUOUS
 10
-6.6568305096
 20
20.7438927334
 11
6.6568305096
 21
20.7438927334
  0
LINE
  5
412
100
AcDbEntity
  8
RACCORDO
100
AcDbLine
 62
7
  6
CONTINUOUS
 10
9.4501522399
 20
20.9
 11
7.3830351795
 21
20.9
  0
LINE
  5
413
100
AcDbEntity
  8
RACCORDO
100
AcDbLine
 62
7
  6
CONTINUOUS
 10
-7.3830351795
 20
20.9
 11
-9.4501522399
 21
20.9
  0
LWPOLYLINE
  5
414
100
AcDbEntity
  8
RACCORDO
100
AcDbPolyline
 62
250
  6
CONTINUOUS
 90
4
 70
0
 10
9.5210191682
 20
-20.3126512938
 10
9.5189004142
 20
-20.3142162831
 10
9.5135944777
 20
-20.315121299
 10
9.5052085901
 20
-20.3156902119
  0
LINE
  5
415
100
AcDbEntity
  8
DRAFT
100
AcDbLine
 62
7
  6
CONTINUOUS
 10
3.0
 20
23.5
 11
2.7812783412
 21
23.4563623377
  0
LINE
  5
416
100
AcDbEntity
  8
DRAFT
100
AcDbLine
 62
7
  6
CONTINUOUS
 10
-6.8667670239
 20
21.1647852141
 11
-3.75
 21
21.1647852141
  0
LINE
  5
417
100
AcDbEntity
  8
DRAFT
100
AcDbLine
 62
7
  6
CONTINUOUS
 10
3.75
 20
21.1647852141
 11
6.8667670239
 21
21.1647852141
  0
LINE
  5
418
100
AcDbEntity
  8
DRAFT
100
AcDbLine
 62
7
  6
CONTINUOUS
 10
6.9339198284
 20
21.2
 11
-6.9339198284
 21
21.2
  0
LINE
  5
419
100
AcDbEntity
  8
0
100
AcDbLine
 62
7
  6
CONTINUOUS
 10
3.1
 20
22.2
 11
-3.1
 21
22.2
  0
LINE
  5
41A
100
AcDbEntity
  8
DRAFT
100
AcDbLine
 62
7
  6
CONTINUOUS
 10
10.6503805997
 20
22.4
 11
5.55
 21
22.4
  0
LINE
  5
41B
100
AcDbEntity
  8
DRAFT
100
AcDbLine
 62
7
  6
CONTINUOUS
 10
-5.55
 20
22.4
 11
-10.6503805997
 21
22.4
  0
LWPOLYLINE
  5
41C
100
AcDbEntity
  8
RACCORDO
100
AcDbPolyline
 62
250
  6
CONTINUOUS
 90
13
 70
0
 10
9.3210496291
 20
20.5123772007
 10
9.3472298056
 20
20.5106342433
 10
9.372964526
 20
20.5054817361
 10
9.3978101886
 20
20.4970063412
 10
9.4213395366
 20
20.4853512199
 10
9.4431443865
 20
20.4707158323
 10
9.4628439209
 20
20.4533544445
 10
9.4801277429
 20
20.4335278121
 10
9.4946581805
 20
20.4116086597
 10
9.5061266304
 20
20.3881156754
 10
9.5143767353
 20
20.3635250566
 10
9.5193495891
 20
20.3382260856
 10
9.5210191682
 20
20.3126512938
  0
LINE
  5
41D
100
AcDbEntity
  8
DRAFT
100
AcDbLine
 62
7
  6
CONTINUOUS
 10
-3.0
 20
23.5
 11
-2.7812783412
 21
23.4563623377
  0
LWPOLYLINE
  5
41E
100
AcDbEntity
  8
RACCORDO
100
AcDbPolyline
 62
250
  6
CONTINUOUS
 90
13
 70
0
 10
9.5210191682
 20
20.3126512938
 10
9.5188959256
 20
20.3137007462
 10
9.5134621207
 20
20.3147327087
 10
9.5048086774
 20
20.315730166
 10
9.4930803942
 20
20.3166767131
 10
9.4784735204
 20
20.3175565789
 10
9.4612324728
 20
20.3183548618
 10
9.4416457456
 20
20.3190580513
 10
9.4200410839
 20
20.3196545338
 10
9.3967799985
 20
20.320134507
 10
9.3722517172
 20
20.3204898723
 10
9.3468666714
 20
20.3207143977
 10
7.515443196
 20
20.3208040737
  0
LINE
  5
41F
100
AcDbEntity
  8
DRAFT
100
AcDbLine
 62
7
  6
CONTINUOUS
 10
3.9526845545
 20
23.4301797403
 11
-3.9526845545
 21
23.4301797403
  0
LINE
  5
420
100
AcDbEntity
  8
DRAFT
100
AcDbLine
 62
7
  6
CONTINUOUS
 10
2.7812783412
 20
23.4563623377
 11
-2.7812783412
 21
23.4563623377
  0
LINE
  5
421
100
AcDbEntity
  8
DRAFT
100
AcDbLine
 62
7
  6
CONTINUOUS
 10
3.9733373476
 20
23.5
 11
3.0
 21
23.5
  0
LINE
  5
422
100
AcDbEntity
  8
DRAFT
100
AcDbLine
 62
7
  6
CONTINUOUS
 10
-3.0
 20
23.5
 11
-3.9733373476
 21
23.5
  0
ARC
  5
423
100
AcDbEntity
  8
DRAFT
100
AcDbCircle
 62
7
  6
CONTINUOUS
 10
-11.25
 20
-0.0
 40
28.0
100
AcDbArc
 50
302.9352304972
 51
304.1210936517
  0
ARC
  5
424
100
AcDbEntity
  8
DRAFT
100
AcDbCircle
 62
7
  6
CONTINUOUS
 10
-11.25
 20
-0.0
 40
28.0
100
AcDbArc
 50
55.8789063483
 51
57.0647695028
  0
ARC
  5
425
100
AcDbEntity
  8
DRAFT
100
AcDbCircle
 62
7
  6
CONTINUOUS
 10
11.25
 20
0.0
 40
28.0
100
AcDbArc
 50
235.8789063483
 51
237.0647695028
  0
ARC
  5
426
100
AcDbEntity
  8
DRAFT
100
AcDbCircle
 62
7
  6
CONTINUOUS
 10
11.25
 20
0.0
 40
28.0
100
AcDbArc
 50
122.9352304972
 51
124.1210936517
  0
ARC
  5
427
100
AcDbEntity
  8
DRAFT
100
AcDbCircle
 62
7
  6
CONTINUOUS
 10
11.25
 20
0.0
 40
28.0
100
AcDbArc
 50
228.2819495688
 51
234.0372348486
  0
ARC
  5
428
100
AcDbEntity
  8
DRAFT
100
AcDbCircle
 62
7
  6
CONTINUOUS
 10
11.25
 20
0.0
 40
28.0
100
AcDbArc
 50
125.9627651514
 51
131.7180504312
  0
ARC
  5
429
100
AcDbEntity
  8
DRAFT
100
AcDbCircle
 62
7
  6
CONTINUOUS
 10
-11.25
 20
-0.0
 40
28.0
100
AcDbArc
 50
48.2819495688
 51
54.0372348486
  0
ARC
  5
42A
100
AcDbEntity
  8
DRAFT
100
AcDbCircle
 62
7
  6
CONTINUOUS
 10
-11.25
 20
-0.0
 40
28.0
100
AcDbArc
 50
305.9627651514
 51
311.7180504312
  0
ARC
  5
42B
100
AcDbEntity
  8
DRAFT
100
AcDbCircle
 62
7
  6
CONTINUOUS
 10
11.25
 20
0.0
 40
27.9301797403
100
AcDbArc
 50
125.881601122
 51
130.6207502002
  0
ARC
  5
42C
100
AcDbEntity
  8
DRAFT
100
AcDbCircle
 62
7
  6
CONTINUOUS
 10
11.25
 20
0.0
 40
27.9301797403
100
AcDbArc
 50
122.9775446409
 51
124.2022576811
  0
ARC
  5
42D
100
AcDbEntity
  8
DRAFT
100
AcDbCircle
 62
7
  6
CONTINUOUS
 10
-11.25
 20
-0.0
 40
27.9301797403
100
AcDbArc
 50
55.7977423189
 51
57.0224553591
  0
ARC
  5
42E
100
AcDbEntity
  8
DRAFT
100
AcDbCircle
 62
7
  6
CONTINUOUS
 10
-11.25
 20
-0.0
 40
27.9301797403
100
AcDbArc
 50
49.3792497998
 51
54.118398878
  0
ARC
  5
42F
100
AcDbEntity
  8
DRAFT
100
AcDbCircle
 62
7
  6
CONTINUOUS
 10
-11.25
 20
-0.0
 40
27.9301797403
100
AcDbArc
 50
302.9775446409
 51
304.2022576811
  0
ARC
  5
430
100
AcDbEntity
  8
DRAFT
100
AcDbCircle
 62
7
  6
CONTINUOUS
 10
-11.25
 20
-0.0
 40
27.9301797403
100
AcDbArc
 50
305.881601122
 51
310.6207502002
  0
ARC
  5
431
100
AcDbEntity
  8
DRAFT
100
AcDbCircle
 62
7
  6
CONTINUOUS
 10
11.25
 20
0.0
 40
27.9301797403
100
AcDbArc
 50
235.7977423189
 51
237.0224553591
  0
ARC
  5
432
100
AcDbEntity
  8
DRAFT
100
AcDbCircle
 62
7
  6
CONTINUOUS
 10
11.25
 20
0.0
 40
27.9301797403
100
AcDbArc
 50
229.3792497998
 51
234.118398878
  0
ARC
  5
433
100
AcDbEntity
  8
0
100
AcDbCircle
 62
7
  6
CONTINUOUS
 10
0.417556
 20
-5.0
 40
2.5499986575
100
AcDbArc
 50
87.752529198
 51
272.247470802
  0
ARC
  5
434
100
AcDbEntity
  8
0
100
AcDbCircle
 62
7
  6
CONTINUOUS
 10
-3.967554
 20
-5.0
 40
2.5499985399
100
AcDbArc
 50
87.7525290943
 51
272.2474709057
  0
ARC
  5
435
100
AcDbEntity
  8
0
100
AcDbCircle
 62
7
  6
CONTINUOUS
 10
0.417556
 20
-5.0
 40
1.7999999246
100
AcDbArc
 50
86.8152613297
 51
167.9753003079
  0
ARC
  5
436
100
AcDbEntity
  8
0
100
AcDbCircle
 62
7
  6
CONTINUOUS
 10
-3.967554
 20
-5.0
 40
1.7999999246
100
AcDbArc
 50
86.8152613297
 51
269.0424241889
  0
ARC
  5
437
100
AcDbEntity
  8
0
100
AcDbCircle
 62
7
  6
CONTINUOUS
 10
0.417556
 20
-5.0
 40
1.7999968808
100
AcDbArc
 50
192.0247203293
 51
273.1847440612
  0
ARC
  5
438
100
AcDbEntity
  8
0
100
AcDbCircle
 62
7
  6
CONTINUOUS
 10
3.688954
 20
12.396341
 40
0.6287074522
100
AcDbArc
 50
292.8428571402
 51
90.0
  0
ARC
  5
439
100
AcDbEntity
  8
DRAFT
100
AcDbCircle
 62
7
  6
CONTINUOUS
 10
-4.95
 20
23.1
 40
0.5
100
AcDbArc
 50
240.887577224
 51
9.196281579
  0
ARC
  5
43A
100
AcDbEntity
  8
DRAFT
100
AcDbCircle
 62
7
  6
CONTINUOUS
 10
4.95
 20
23.1
 40
0.5
100
AcDbArc
 50
170.803718421
 51
299.112422776
  0
ARC
  5
43B
100
AcDbEntity
  8
DRAFT
100
AcDbCircle
 62
7
  6
CONTINUOUS
 10
4.95
 20
-23.1
 40
0.5
100
AcDbArc
 50
60.887577224
 51
189.196281579
  0
ARC
  5
43C
100
AcDbEntity
  8
DRAFT
100
AcDbCircle
 62
7
  6
CONTINUOUS
 10
-4.95
 20
-23.1
 40
0.5
100
AcDbArc
 50
350.803718421
 51
119.112422776
  0
ARC
  5
43D
100
AcDbEntity
  8
0
100
AcDbCircle
 62
7
  6
CONTINUOUS
 10
3.632045
 20
12.396341
 40
0.249439
100
AcDbArc
 50
270.0
 51
90.0
  0
ELLIPSE
  5
43E
100
AcDbEntity
  8
0
100
AcDbEllipse
 62
7
  6
CONTINUOUS
 10
-10.649923836
 20
-21.899313827
 30
0.0
 11
-0.1582391023
 21
-0.4751033573
 31
0.0
 40
0.9984778551
 41
-1.2488325878
 42
0.3210503505
  0
ELLIPSE
  5
43F
100
AcDbEntity
  8
0
100
AcDbEllipse
 62
7
  6
CONTINUOUS
 10
-10.649923836
 20
21.899313827
 30
0.0
 11
0.1582391023
 21
-0.4751033573
 31
0.0
 40
0.9984778551
 41
2.8205423031
 42
4.3904252414
  0
ELLIPSE
  5
440
100
AcDbEntity
  8
0
100
AcDbEllipse
 62
7
  6
CONTINUOUS
 10
10.649923836
 20
-21.899313827
 30
0.0
 11
0.1582391023
 21
-0.4751033573
 31
0.0
 40
0.9984778551
 41
-0.3210503505
 42
1.2488325878
  0
ELLIPSE
  5
441
100
AcDbEntity
  8
0
100
AcDbEllipse
 62
7
  6
CONTINUOUS
 10
10.649923836
 20
21.899313827
 30
0.0
 11
-0.1582391023
 21
-0.4751033573
 31
0.0
 40
0.9984778551
 41
1.8927600658
 42
3.4626430041
  0
ELLIPSE
  5
442
100
AcDbEntity
  8
RACCORDO
100
AcDbEllipse
 62
7
  6
CONTINUOUS
 10
3.8805286514
 20
-0.0
 30
0.0
 11
-0.0
 21
498.5
 31
0.0
 40
0.0087268678
 41
1.5301760663
 42
1.5432191825
  0
ELLIPSE
  5
443
100
AcDbEntity
  8
RACCORDO
100
AcDbEllipse
 62
7
  6
CONTINUOUS
 10
-0.4644824564
 20
-20.2355099279
 30
0.0
 11
-0.0
 21
0.2
 31
0.0
 40
0.0087268678
 41
-4.6717687199
 42
-3.1503192998
  0
ELLIPSE
  5
444
100
AcDbEntity
  8
RACCORDO
100
AcDbEllipse
 62
7
  6
CONTINUOUS
 10
3.8805286514
 20
-0.0
 30
0.0
 11
-0.0
 21
498.5
 31
0.0
 40
0.0087268678
 41
-4.6848118361
 42
-4.6717687199
  0
ELLIPSE
  5
445
100
AcDbEntity
  8
RACCORDO
100
AcDbEllipse
 62
7
  6
CONTINUOUS
 10
0.4644824564
 20
20.2355099279
 30
0.0
 11
-0.0
 21
0.2
 31
0.0
 40
0.0087268678
 41
-1.5301760663
 42
-0.0087266463
  0
ELLIPSE
  5
446
100
AcDbEntity
  8
RACCORDO
100
AcDbEllipse
 62
7
  6
CONTINUOUS
 10
-3.8805286514
 20
-0.0
 30
0.0
 11
-0.0
 21
498.5
 31
0.0
 40
0.0087268678
 41
-1.5432191825
 42
-1.5301760663
  0
ELLIPSE
  5
447
100
AcDbEntity
  8
RACCORDO
100
AcDbEllipse
 62
7
  6
CONTINUOUS
 10
0.4644824564
 20
-20.2355099279
 30
0.0
 11
-0.0
 21
0.2
 31
0.0
 40
0.0087268678
 41
-3.1328660073
 42
-1.6114165872
  0
ELLIPSE
  5
448
100
AcDbEntity
  8
RACCORDO
100
AcDbEllipse
 62
7
  6
CONTINUOUS
 10
-3.8805286514
 20
-0.0
 30
0.0
 11
-0.0
 21
498.5
 31
0.0
 40
0.0087268678
 41
-1.6114165872
 42
-1.598373471
  0
ELLIPSE
  5
449
100
AcDbEntity
  8
RACCORDO
100
AcDbEllipse
 62
7
  6
CONTINUOUS
 10
10.8635638309
 20
-0.0
 30
0.0
 11
-0.0
 21
498.5
 31
0.0
 40
0.0087268678
 41
-4.6848118361
 42
-4.6717687199
  0
ELLIPSE
  5
44A
100
AcDbEntity
  8
RACCORDO
100
AcDbEllipse
 62
7
  6
CONTINUOUS
 10
-9.4499695344
 20
-20.6997255308
 30
0.0
 11
0.0632956409
 21
0.1900413429
 31
0.0
 40
0.9984778551
 41
-4.3904252414
 42
-2.8205423031
  0
ELLIPSE
  5
44B
100
AcDbEntity
  8
RACCORDO
100
AcDbEllipse
 62
7
  6
CONTINUOUS
 10
-9.4499695344
 20
20.6997255308
 30
0.0
 11
-0.0632956409
 21
0.1900413429
 31
0.0
 40
0.9984778551
 41
-0.3210503505
 42
1.2488325878
  0
ELLIPSE
  5
44C
100
AcDbEntity
  8
RACCORDO
100
AcDbEllipse
 62
7
  6
CONTINUOUS
 10
9.4499695344
 20
20.6997255308
 30
0.0
 11
0.0632956409
 21
0.1900413429
 31
0.0
 40
0.9984778551
 41
-1.2488325878
 42
0.3210503505
  0
ELLIPSE
  5
44D
100
AcDbEntity
  8
RACCORDO
100
AcDbEllipse
 62
7
  6
CONTINUOUS
 10
9.4499695344
 20
-20.6997255308
 30
0.0
 11
-0.0632956409
 21
0.1900413429
 31
0.0
 40
0.9984778551
 41
-3.4626430041
 42
-1.8927600658
  0
ELLIPSE
  5
44E
100
AcDbEntity
  8
RACCORDO
100
AcDbEllipse
 62
7
  6
CONTINUOUS
 10
-10.8635638309
 20
-0.0
 30
0.0
 11
-0.0
 21
498.5
 31
0.0
 40
0.0087268678
 41
-1.6114165872
 42
-1.598373471
  0
ELLIPSE
  5
44F
100
AcDbEntity
  8
RACCORDO
100
AcDbEllipse
 62
7
  6
CONTINUOUS
 10
-6.5185527231
 20
20.2355099279
 30
0.0
 11
0.0
 21
0.2
 31
0.0
 40
0.0087268678
 41
-1.5301760663
 42
-0.0087266463
  0
ELLIPSE
  5
450
100
AcDbEntity
  8
RACCORDO
100
AcDbEllipse
 62
7
  6
CONTINUOUS
 10
-6.6572135557
 20
19.0
 30
0.0
 11
-0.0
 21
0.5
 31
0.0
 40
0.0087268678
 41
-4.7123889804
 42
-3.1415926536
  0
ELLIPSE
  5
451
100
AcDbEntity
  8
RACCORDO
100
AcDbEllipse
 62
7
  6
CONTINUOUS
 10
-6.659831616
 20
20.1171572875
 30
0.0
 11
0.0
 21
0.2
 31
0.0
 40
0.0087268678
 41
0.7853981634
 42
1.5707963268
  0
ELLIPSE
  5
452
100
AcDbEntity
  8
RACCORDO
100
AcDbEllipse
 62
7
  6
CONTINUOUS
 10
-6.659831616
 20
-20.1171572875
 30
0.0
 11
0.0
 21
0.2
 31
0.0
 40
0.0087268678
 41
-4.7123889804
 42
-3.926990817
  0
ELLIPSE
  5
453
100
AcDbEntity
  8
RACCORDO
100
AcDbEllipse
 62
7
  6
CONTINUOUS
 10
-6.6572135557
 20
-19.0
 30
0.0
 11
-0.0
 21
0.5
 31
0.0
 40
0.0087268678
 41
0.0
 42
1.5707963268
  0
ELLIPSE
  5
454
100
AcDbEntity
  8
RACCORDO
100
AcDbEllipse
 62
7
  6
CONTINUOUS
 10
-6.5185527231
 20
-20.2355099279
 30
0.0
 11
-0.0
 21
0.2
 31
0.0
 40
0.0087268678
 41
-3.1328660073
 42
-1.6114165872
  0
ELLIPSE
  5
455
100
AcDbEntity
  8
RACCORDO
100
AcDbEllipse
 62
7
  6
CONTINUOUS
 10
6.659831616
 20
20.1171572875
 30
0.0
 11
0.0
 21
0.2
 31
0.0
 40
0.0087268678
 41
-1.5707963268
 42
-0.7853981634
  0
ELLIPSE
  5
456
100
AcDbEntity
  8
RACCORDO
100
AcDbEllipse
 62
7
  6
CONTINUOUS
 10
6.6572135557
 20
19.0
 30
0.0
 11
-0.0
 21
0.5
 31
0.0
 40
0.0087268678
 41
-3.1415926536
 42
-1.5707963268
  0
ELLIPSE
  5
457
100
AcDbEntity
  8
RACCORDO
100
AcDbEllipse
 62
7
  6
CONTINUOUS
 10
6.5185527231
 20
20.2355099279
 30
0.0
 11
-0.0
 21
0.2
 31
0.0
 40
0.0087268678
 41
0.0087266463
 42
1.5301760663
  0
ELLIPSE
  5
458
100
AcDbEntity
  8
RACCORDO
100
AcDbEllipse
 62
7
  6
CONTINUOUS
 10
6.5185527231
 20
-20.2355099279
 30
0.0
 11
-0.0
 21
0.2
 31
0.0
 40
0.0087268678
 41
-4.6717687199
 42
-3.1503192999
  0
ELLIPSE
  5
459
100
AcDbEntity
  8
RACCORDO
100
AcDbEllipse
 62
7
  6
CONTINUOUS
 10
6.6572135557
 20
-19.0
 30
0.0
 11
-0.0
 21
0.5
 31
0.0
 40
0.0087268678
 41
-1.5707963268
 42
-0.0
  0
ELLIPSE
  5
45A
100
AcDbEntity
  8
RACCORDO
100
AcDbEllipse
 62
7
  6
CONTINUOUS
 10
6.659831616
 20
-20.1171572875
 30
0.0
 11
-0.0
 21
0.2
 31
0.0
 40
0.0087268678
 41
-2.3561944902
 42
-1.5707963268
  0
ELLIPSE
  5
45B
100
AcDbEntity
  8
DRAFT
100
AcDbEllipse
 62
7
  6
CONTINUOUS
 10
11.25
 20
0.4799914261
 30
0.0
 11
-0.0
 21
27.4986903856
 31
0.0
 40
0.9998476487
 41
0.7193864675
 42
0.7374322803
  0
ELLIPSE
  5
45C
100
AcDbEntity
  8
DRAFT
100
AcDbEllipse
 62
7
  6
CONTINUOUS
 10
-11.25
 20
0.4799914261
 30
0.0
 11
-0.0
 21
27.4986903856
 31
0.0
 40
0.9998476487
 41
-0.7374322803
 42
-0.7193864675
  0
ELLIPSE
  5
45D
100
AcDbEntity
  8
RACCORDO
100
AcDbEllipse
 62
7
  6
CONTINUOUS
 10
-7.2346671276
 20
19.0
 30
0.0
 11
-0.0
 21
0.5
 31
0.0
 40
0.0174550649
 41
-3.1415926536
 42
-1.5707963268
  0
ELLIPSE
  5
45E
100
AcDbEntity
  8
RACCORDO
100
AcDbEllipse
 62
7
  6
CONTINUOUS
 10
1.1786741678
 20
-0.0
 30
0.0
 11
-0.0
 21
498.5
 31
0.0
 40
0.0174550649
 41
1.530021129
 42
1.5432191825
  0
ELLIPSE
  5
45F
100
AcDbEntity
  8
RACCORDO
100
AcDbEllipse
 62
7
  6
CONTINUOUS
 10
-7.5119550847
 20
20.3126512938
 30
0.0
 11
-0.0
 21
0.2
 31
0.0
 40
0.0174550649
 41
0.0523598776
 42
1.530021129
  0
ELLIPSE
  5
460
100
AcDbEntity
  8
RACCORDO
100
AcDbEllipse
 62
7
  6
CONTINUOUS
 10
-7.2294306081
 20
20.1171572875
 30
0.0
 11
0.0
 21
0.2
 31
0.0
 40
0.0174550649
 41
-1.5707963268
 42
-0.7853981634
  0
ELLIPSE
  5
461
100
AcDbEntity
  8
RACCORDO
100
AcDbEllipse
 62
7
  6
CONTINUOUS
 10
-7.2346671276
 20
-19.0
 30
0.0
 11
-0.0
 21
0.5
 31
0.0
 40
0.0174550649
 41
-1.5707963268
 42
0.0
  0
ELLIPSE
  5
462
100
AcDbEntity
  8
RACCORDO
100
AcDbEllipse
 62
7
  6
CONTINUOUS
 10
-7.2294306081
 20
-20.1171572875
 30
0.0
 11
-0.0
 21
0.2
 31
0.0
 40
0.0174550649
 41
-2.3561944902
 42
-1.5707963268
  0
ELLIPSE
  5
463
100
AcDbEntity
  8
RACCORDO
100
AcDbEllipse
 62
7
  6
CONTINUOUS
 10
-7.5119550847
 20
-20.3126512938
 30
0.0
 11
-0.0
 21
0.2
 31
0.0
 40
0.0174550649
 41
-4.6716137826
 42
-3.1939525311
  0
ELLIPSE
  5
464
100
AcDbEntity
  8
RACCORDO
100
AcDbEllipse
 62
7
  6
CONTINUOUS
 10
1.1786741678
 20
-0.0
 30
0.0
 11
-0.0
 21
498.5
 31
0.0
 40
0.0174550649
 41
-4.6848118361
 42
-4.6716137826
  0
ELLIPSE
  5
465
100
AcDbEntity
  8
RACCORDO
100
AcDbEllipse
 62
7
  6
CONTINUOUS
 10
-10.8635638309
 20
-0.0
 30
0.0
 11
-0.0
 21
498.5
 31
0.0
 40
0.0087268678
 41
-1.5432191825
 42
-1.5301760663
  0
ELLIPSE
  5
466
100
AcDbEntity
  8
RACCORDO
100
AcDbEllipse
 62
7
  6
CONTINUOUS
 10
7.2346671276
 20
19.0
 30
0.0
 11
-0.0
 21
0.5
 31
0.0
 40
0.0174550649
 41
-4.7123889804
 42
-3.1415926536
  0
ELLIPSE
  5
467
100
AcDbEntity
  8
RACCORDO
100
AcDbEllipse
 62
7
  6
CONTINUOUS
 10
7.2294306081
 20
20.1171572875
 30
0.0
 11
0.0
 21
0.2
 31
0.0
 40
0.0174550649
 41
0.7853981634
 42
1.5707963268
  0
ELLIPSE
  5
468
100
AcDbEntity
  8
RACCORDO
100
AcDbEllipse
 62
7
  6
CONTINUOUS
 10
7.5119550847
 20
20.3126512938
 30
0.0
 11
0.0
 21
0.2
 31
0.0
 40
0.0174550649
 41
-1.530021129
 42
-0.0523598776
  0
ELLIPSE
  5
469
100
AcDbEntity
  8
RACCORDO
100
AcDbEllipse
 62
7
  6
CONTINUOUS
 10
-1.1786741678
 20
-0.0
 30
0.0
 11
-0.0
 21
498.5
 31
0.0
 40
0.0174550649
 41
-1.5432191825
 42
-1.530021129
  0
ELLIPSE
  5
46A
100
AcDbEntity
  8
RACCORDO
100
AcDbEllipse
 62
7
  6
CONTINUOUS
 10
7.2346671276
 20
-19.0
 30
0.0
 11
0.0
 21
0.5
 31
0.0
 40
0.0174550649
 41
0.0
 42
1.5707963268
  0
ELLIPSE
  5
46B
100
AcDbEntity
  8
RACCORDO
100
AcDbEllipse
 62
7
  6
CONTINUOUS
 10
-1.1786741678
 20
-0.0
 30
0.0
 11
-0.0
 21
498.5
 31
0.0
 40
0.0174550649
 41
-1.6115715246
 42
-1.598373471
  0
ELLIPSE
  5
46C
100
AcDbEntity
  8
RACCORDO
100
AcDbEllipse
 62
7
  6
CONTINUOUS
 10
7.5119550847
 20
-20.3126512938
 30
0.0
 11
0.0
 21
0.2
 31
0.0
 40
0.0174550649
 41
-3.089232776
 42
-1.6115715246
  0
ELLIPSE
  5
46D
100
AcDbEntity
  8
RACCORDO
100
AcDbEllipse
 62
7
  6
CONTINUOUS
 10
7.2294306081
 20
-20.1171572875
 30
0.0
 11
0.0
 21
0.2
 31
0.0
 40
0.0174550649
 41
-4.7123889804
 42
-3.926990817
  0
ELLIPSE
  5
46E
100
AcDbEntity
  8
RACCORDO
100
AcDbEllipse
 62
7
  6
CONTINUOUS
 10
10.8635638309
 20
-0.0
 30
0.0
 11
-0.0
 21
498.5
 31
0.0
 40
0.0087268678
 41
1.5301760663
 42
1.5432191825
  0
ELLIPSE
  5
46F
100
AcDbEntity
  8
DRAFT
100
AcDbEllipse
 62
7
  6
CONTINUOUS
 10
-11.25
 20
-0.4799914261
 30
0.0
 11
-0.0
 21
27.4986903856
 31
0.0
 40
0.9998476487
 41
-2.4222061861
 42
-2.4041603733
  0
ELLIPSE
  5
470
100
AcDbEntity
  8
DRAFT
100
AcDbEllipse
 62
7
  6
CONTINUOUS
 10
11.25
 20
-0.4799914261
 30
0.0
 11
-0.0
 21
27.4986903856
 31
0.0
 40
0.9998476487
 41
-3.8790249339
 42
-3.8609791211
  0
ELLIPSE
  5
471
100
AcDbEntity
  8
RACCORDO
100
AcDbEllipse
 62
7
  6
CONTINUOUS
 10
-0.4644824564
 20
20.2355099279
 30
0.0
 11
-0.0
 21
0.2
 31
0.0
 40
0.0087268678
 41
0.0087266463
 42
1.5301760663
  0
ENDSEC
  0
SECTION
  2
OBJECTS
  0
DICTIONARY
  5
C
100
AcDbDictionary
280
0
281
1
  3
ACAD_GROUP
350
D
  3
ACAD_MLINESTYLE
350
17
  3
ACAD_LAYOUT
350
1A
  3
ACAD_PLOTSETTINGS
350
19
  3
ACAD_PLOTSTYLENAME
350
E
  0
DICTIONARY
  5
D
102
{ACAD_REACTORS
330
C
102
}
100
AcDbDictionary
280
0
281
1
  0
ACDBDICTIONARYWDFLT
  5
E
102
{ACAD_REACTORS
330
C
102
}
100
AcDbDictionary
281
1
  3
Normal
350
F
100
AcDbDictionaryWithDefault
340
F
  0
DICTIONARY
  5
17
102
{ACAD_REACTORS
330
C
102
}
100
AcDbDictionary
280
0
281
1
  3
Standard
350
18
  0
DICTIONARY
  5
19
102
{ACAD_REACTORS
330
C
102
}
100
AcDbDictionary
281
1
  0
DICTIONARY
  5
1A
102
{ACAD_REACTORS
330
C
102
}
100
AcDbDictionary
281
1
  3
Model
350
472
  3
Layout1
350
473
  0
ACDBPLACEHOLDER
  5
F
102
{ACAD_REACTORS
330
E
102
}
  0
MLINESTYLE
  5
18
102
{ACAD_REACTORS
330
17
102
}
100
AcDbMlineStyle
  2
STANDARD
 70
0
  3

 62
256
 51
90.0
 52
90.0
 71
2
 49
0.5
 62
256
  6
BYLAYER
 49
-0.5
 62
256
  6
BYLAYER
  0
LAYOUT
  5
472
102
{ACAD_REACTORS
330
1A
102
}
100
AcDbPlotSettings
  1

  2
none_device
  4
ISO_A4_(297.00_x_210.00_MM)
  6

 40
0.0
 41
0.0
 42
0.0
 43
0.0
 44
297.0
 45
210.0
 46
0.0
 47
0.0
 48
0.0
 49
0.0
140
0.0
141
0.0
142
1.0
143
1.0
 70
1024
 72
1
 73
0
 74
0
  7

 75
0
147
1.0
148
0.0
149
0.0
100
AcDbLayout
  1
Model
 70
0
 71
0
 10
0.0
 20
0.0
 11
297.0
 21
210.0
 12
0.0
 22
0.0
 32
0.0
 14
0.0
 24
0.0
 34
0.0
 15
0.0
 25
0.0
 35
0.0
146
0.0
 13
0.0
 23
0.0
 33
0.0
 16
1.0
 26
0.0
 36
0.0
 17
0.0
 27
1.0
 37
0.0
 76
0
330
20F
345
0
346
0
  0
LAYOUT
  5
473
102
{ACAD_REACTORS
330
1A
102
}
100
AcDbPlotSettings
  1

  2
none_device
  4
ISO_A4_(297.00_x_210.00_MM)
  6

 40
0.0
 41
0.0
 42
0.0
 43
0.0
 44
297.0
 45
210.0
 46
0.0
 47
0.0
 48
0.0
 49
0.0
140
0.0
141
0.0
142
1.0
143
1.0
 70
0
 72
1
 73
0
 74
0
  7

 75
0
147
1.0
148
0.0
149
0.0
100
AcDbLayout
  1
Layout1
 70
0
 71
1
 10
0.0
 20
0.0
 11
297.0
 21
210.0
 12
0.0
 22
0.0
 32
0.0
 14
0.0
 24
0.0
 34
0.0
 15
0.0
 25
0.0
 35
0.0
146
0.0
 13
0.0
 23
0.0
 33
0.0
 16
1.0
 26
0.0
 36
0.0
 17
0.0
 27
1.0
 37
0.0
 76
0
330
210
345
0
346
0
  0
ENDSEC
  0
EOF
