0
SECTION
2
HEADER
9
$ACADVER
1
AC1015
9
$DWGCODEPAGE
3
ANSI_1252
9
$EXTMAX
10
297.0000000000
20
210.0000000000
30
0.0000000000
9
$EXTMIN
10
0.0000000000
20
0.0000000000
30
0.0000000000
9
$LIMMIN
10
0.0000000000
20
0.0000000000
9
$LIMMAX
10
297.0000000000
20
210.0000000000
9
$VIEWCTR
10
148.5000000000
20
105.0000000000
9
$VIEWSIZE
40
210.0000000000
9
$CLAYER
8
0
9
$LTSCALE
40
16.3350000000
9
$CELTYPE
6
BYLAYER
9
$DIMSCALE
40
1
9
$DIMASZ
40
3.0000000000
9
$DIMEXO
40
1.8562500000
9
$DIMDLI
40
11.2860000000
9
$DIMEXE
40
5.3460000000
9
$DIMCEN
40
2.6730000000
9
$DIMLFAC
40
1.0000000000
9
$DIMBLK
1
_FILLED
9
$DIMTXT
40
3.0000000000
9
$DIMTOL
70
1
9
$DIMLIM
70
0
9
$DIMTFAC
40
1.0000000000
9
$DIMTP
40
0.0100000000
9
$DIMTM
40
0.0100000000
9
$PDMODE
70
3
9
$PDSIZE
40
3.0000000000
9
$HANDSEED
5
40D
9
$MEASUREMENT
70
1
9
$INSUNITS
70
4
0
ENDSEC
0
SECTION
2
CLASSES
0
CLASS
1
ACDBDICTIONARYWDFLT
2
AcDbDictionaryWithDefault
3
AutoCAD 2000
90
0
280
0
281
0
0
CLASS
1
ACDBPLACEHOLDER
2
AcDbPlaceHolder
3
AutoCAD 2000
90
0
280
0
281
0
0
CLASS
1
LAYOUT
2
AcDbLayout
3
AutoCAD 2000
90
0
280
0
281
0
0
ENDSEC
0
SECTION
2
TABLES
0
TABLE
2
VPORT
5
8
100
AcDbSymbolTable
70
2
0
VPORT
5
1F4
100
AcDbSymbolTableRecord
100
AcDbViewportTableRecord
2
*ACTIVE
70
0
10
0.0
20
0.0
11
1.0
21
1.0
12
148.5000000000
22
105.0000000000
13
0.0
23
0.0
14
1.0
24
1.0
15
0.0
25
0.0
16
0.0
26
0.0
36
1.0
17
0.0
27
0.0
37
0.0
40
210.0000000000
41
1.4142857143
42
50.0
43
0.0
44
0.0
50
0.0
51
0.0
71
0
72
100
73
1
74
1
75
0
76
0
77
0
78
0
0
ENDTAB
0
TABLE
2
LTYPE
5
5
100
AcDbSymbolTable
70
6
0
LTYPE
5
14
100
AcDbSymbolTableRecord
100
AcDbLinetypeTableRecord
2
BYBLOCK
70
0
3

72
65
73
0
40
0.0
0
LTYPE
5
15
100
AcDbSymbolTableRecord
100
AcDbLinetypeTableRecord
2
BYLAYER
70
0
3

72
65
73
0
40
0.0
0
LTYPE
5
16
100
AcDbSymbolTableRecord
100
AcDbLinetypeTableRecord
2
CONTINUOUS
70
64
3
Solid line
72
65
73
0
40
0
0
LTYPE
5
1F5
100
AcDbSymbolTableRecord
100
AcDbLinetypeTableRecord
2
CENTER
70
64
3
____ _ ____ _ ____ _ ____ _ ____ _ ____ _ ____
72
65
73
4
40
0.6
49
0.375
74
0
49
-0.075
74
0
49
0.075
74
0
49
-0.075
74
0
0
LTYPE
5
1F6
100
AcDbSymbolTableRecord
100
AcDbLinetypeTableRecord
2
HIDDEN
70
64
3
- - - - - - - - - - - - - - - - - - - -
72
65
73
2
40
0.2
49
0.1
74
0
49
-0.1
74
0
0
LTYPE
5
1F7
100
AcDbSymbolTableRecord
100
AcDbLinetypeTableRecord
2
PHANTOM
70
64
3
_____ _ _ _____ _ _ _____ _ _ _____
72
65
73
6
40
0.8
49
0.45
74
0
49
-0.05
74
0
49
0.1
74
0
49
-0.05
74
0
49
0.1
74
0
49
-0.05
74
0
0
LTYPE
5
1F8
100
AcDbSymbolTableRecord
100
AcDbLinetypeTableRecord
2
DOT
70
64
3
. . . . . . . . . . . . . . . . . . . .
72
65
73
2
40
0.2
49
0.1
74
0
49
-0.1
74
0
0
LTYPE
5
1F9
100
AcDbSymbolTableRecord
100
AcDbLinetypeTableRecord
2
DASHED
70
64
3
- - - - - - - - - - - - - - - - - - - -
72
65
73
2
40
0.2
49
0.1
74
0
49
-0.1
74
0
0
ENDTAB
0
TABLE
2
LAYER
5
2
100
AcDbSymbolTable
70
36
0
LAYER
5
10
100
AcDbSymbolTableRecord
100
AcDbLayerTableRecord
2
0
70
0
62
7
6
CONTINUOUS
370
-3
390
F
0
LAYER
5
1FA
100
AcDbSymbolTableRecord
100
AcDbLayerTableRecord
2
DEFAULT_1
70
0
62
7
6
CENTER
370
-3
390
F
0
LAYER
5
1FB
100
AcDbSymbolTableRecord
100
AcDbLayerTableRecord
2
DEFAULT_2
70
0
62
8
6
HIDDEN
370
-3
390
F
0
LAYER
5
1FC
100
AcDbSymbolTableRecord
100
AcDbLayerTableRecord
2
DEFAULT_3
70
0
62
7
6
PHANTOM
370
-3
390
F
0
LAYER
5
1FD
100
AcDbSymbolTableRecord
100
AcDbLayerTableRecord
2
ASSI
70
0
62
7
6
CONTINUOUS
370
-3
390
F
0
LAYER
5
1FE
100
AcDbSymbolTableRecord
100
AcDbLayerTableRecord
2
COORDINATE
70
0
62
7
6
CONTINUOUS
370
-3
390
F
0
LAYER
5
1FF
100
AcDbSymbolTableRecord
100
AcDbLayerTableRecord
2
COORD_ORIGINE
70
0
62
7
6
CONTINUOUS
370
-3
390
F
0
LAYER
5
200
100
AcDbSymbolTableRecord
100
AcDbLayerTableRecord
2
DRAFT
70
0
62
7
6
CONTINUOUS
370
-3
390
F
0
LAYER
5
201
100
AcDbSymbolTableRecord
100
AcDbLayerTableRecord
2
IMPORT_FEATURES
70
0
62
7
6
CONTINUOUS
370
-3
390
F
0
LAYER
5
202
100
AcDbSymbolTableRecord
100
AcDbLayerTableRecord
2
INTF_1
70
0
62
7
6
CONTINUOUS
370
-3
390
F
0
LAYER
5
203
100
AcDbSymbolTableRecord
100
AcDbLayerTableRecord
2
PIANI
70
0
62
7
6
CONTINUOUS
370
-3
390
F
0
LAYER
5
204
100
AcDbSymbolTableRecord
100
AcDbLayerTableRecord
2
PIANI_ORIGINE
70
0
62
7
6
CONTINUOUS
370
-3
390
F
0
LAYER
5
205
100
AcDbSymbolTableRecord
100
AcDbLayerTableRecord
2
PUNTI
70
0
62
7
6
CONTINUOUS
370
-3
390
F
0
LAYER
5
206
100
AcDbSymbolTableRecord
100
AcDbLayerTableRecord
2
RACCORDO
70
0
62
7
6
CONTINUOUS
370
-3
390
F
0
LAYER
5
207
100
AcDbSymbolTableRecord
100
AcDbLayerTableRecord
2
RGB____0____0____0__
70
0
62
7
6
CONTINUOUS
370
-3
390
F
0
LAYER
5
208
100
AcDbSymbolTableRecord
100
AcDbLayerTableRecord
2
SUPERFICI
70
0
62
7
6
CONTINUOUS
370
-3
390
F
0
LAYER
5
209
100
AcDbSymbolTableRecord
100
AcDbLayerTableRecord
2
TRASH
70
0
62
7
6
CONTINUOUS
370
-3
390
F
0
LAYER
5
20A
100
AcDbSymbolTableRecord
100
AcDbLayerTableRecord
2
XSEC_DATUMS
70
0
62
7
6
CONTINUOUS
370
-3
390
F
0
ENDTAB
0
TABLE
2
STYLE
5
3
100
AcDbSymbolTable
70
1
0
STYLE
5
11
100
AcDbSymbolTableRecord
100
AcDbTextStyleTableRecord
2
STANDARD
70
0
40
0.0
41
0.8000000000
50
0.0
71
0
42
0.2
3
txt
4

0
ENDTAB
0
TABLE
2
VIEW
5
6
100
AcDbSymbolTable
70
0
0
ENDTAB
0
TABLE
2
UCS
5
7
100
AcDbSymbolTable
70
0
0
ENDTAB
0
TABLE
2
APPID
5
9
100
AcDbSymbolTable
70
1
0
APPID
5
20B
100
AcDbSymbolTableRecord
100
AcDbRegAppTableRecord
2
ACAD
70
0
0
ENDTAB
0
TABLE
2
BLOCK_RECORD
5
1
100
AcDbSymbolTable
70
0
0
BLOCK_RECORD
5
1F
100
AcDbSymbolTableRecord
100
AcDbBlockTableRecord
2
*MODEL_SPACE
0
BLOCK_RECORD
5
1B
100
AcDbSymbolTableRecord
100
AcDbBlockTableRecord
2
*PAPER_SPACE
0
ENDTAB
0
TABLE
2
DIMSTYLE
5
A
100
AcDbSymbolTable
70
1
100
AcDbDimStyleTable
71
0
0
DIMSTYLE
105
20C
100
AcDbSymbolTableRecord
100
AcDbDimStyleTableRecord
2
STANDARD
70
0
3

4

40
1.0
41
3.0000000000
42
0.0625
43
0.38
44
0.18
45
0.0
46
0.0
47
0.0100000000
48
0.0100000000
140
3.0000000000
141
0.09
142
0.0
143
25.4
144
1.0000000000
145
0.0
146
1.0000000000
147
0.09
71
1
72
0
73
0
74
0
75
0
76
0
77
1
78
8
170
0
171
2
172
0
173
0
174
0
175
0
176
0
177
0
178
0
270
2
271
2
272
2
273
2
274
2
275
0
280
0
281
0
282
0
283
1
284
8
285
0
286
0
287
3
288
0
340
11
0
ENDTAB
0
ENDSEC
0
SECTION
2
BLOCKS
0
BLOCK
5
20
100
AcDbEntity
8
0
100
AcDbBlockBegin
2
*MODEL_SPACE
70
0
10
0.0
20
0.0
30
0.0
3
*MODEL_SPACE
1

0
ENDBLK
5
21
100
AcDbEntity
8
0
100
AcDbBlockEnd
0
BLOCK
5
1C
100
AcDbEntity
8
0
100
AcDbBlockBegin
2
*PAPER_SPACE
70
0
10
0.0
20
0.0
30
0.0
3
*PAPER_SPACE
1

0
ENDBLK
5
1D
100
AcDbEntity
8
0
100
AcDbBlockEnd
0
ENDSEC
0
SECTION
2
ENTITIES
0
LINE
5
20D
100
AcDbEntity
8
0
100
AcDbLine
62
7
6
CONTINUOUS
10
-3.0000000000
20
-23.5000000000
11
-2.7812783412
21
-23.4563623377
0
LINE
5
20E
100
AcDbEntity
8
0
100
AcDbLine
62
7
6
CONTINUOUS
10
-3.9733373476
20
-23.5000000000
11
-3.0000000000
21
-23.5000000000
0
LINE
5
20F
100
AcDbEntity
8
0
100
AcDbLine
62
7
6
CONTINUOUS
10
3.0000000000
20
-23.5000000000
11
3.9733373476
21
-23.5000000000
0
LINE
5
210
100
AcDbEntity
8
0
100
AcDbLine
62
7
6
CONTINUOUS
10
2.7812783412
20
-23.4563623377
11
-2.7812783412
21
-23.4563623377
0
LINE
5
211
100
AcDbEntity
8
0
100
AcDbLine
62
7
6
CONTINUOUS
10
-3.9526845545
20
-23.4301797403
11
3.9526845545
21
-23.4301797403
0
LINE
5
212
100
AcDbEntity
8
0
100
AcDbLine
62
7
6
CONTINUOUS
10
-10.6503805997
20
-22.4000000000
11
-5.5500000000
21
-22.4000000000
0
LINE
5
213
100
AcDbEntity
8
0
100
AcDbLine
62
7
6
CONTINUOUS
10
5.5500000000
20
-22.4000000000
11
10.6503805997
21
-22.4000000000
0
LINE
5
214
100
AcDbEntity
8
0
100
AcDbLine
62
7
6
CONTINUOUS
10
3.0000000000
20
-23.5000000000
11
2.7812783412
21
-23.4563623377
0
LINE
5
215
100
AcDbEntity
8
0
100
AcDbLine
62
7
6
CONTINUOUS
10
3.1000000000
20
-22.2000000000
11
-3.1000000000
21
-22.2000000000
0
LINE
5
216
100
AcDbEntity
8
0
100
AcDbLine
62
7
6
CONTINUOUS
10
6.9339198284
20
-21.2000000000
11
-6.9339198284
21
-21.2000000000
0
LINE
5
217
100
AcDbEntity
8
0
100
AcDbLine
62
7
6
CONTINUOUS
10
6.6528501218
20
-21.1650925288
11
3.7500000000
21
-21.1650925288
0
LINE
5
218
100
AcDbEntity
8
0
100
AcDbLine
62
7
6
CONTINUOUS
10
-3.7500000000
20
-21.1650925288
11
-6.6528501218
21
-21.1650925288
0
LINE
5
219
100
AcDbEntity
8
0
100
AcDbLine
62
7
6
CONTINUOUS
10
-9.4501522399
20
-20.9000000000
11
-7.3830351795
21
-20.9000000000
0
LINE
5
21A
100
AcDbEntity
8
0
100
AcDbLine
62
7
6
CONTINUOUS
10
7.3830351795
20
-20.9000000000
11
9.4501522399
21
-20.9000000000
0
LINE
5
21B
100
AcDbEntity
8
0
100
AcDbLine
62
7
6
CONTINUOUS
10
6.6528501218
20
-20.5698149423
11
0.3301850577
21
-20.5698149423
0
LINE
5
21C
100
AcDbEntity
8
0
100
AcDbLine
62
7
6
CONTINUOUS
10
-0.3301850577
20
-20.5698149423
11
-6.6528501218
21
-20.5698149423
0
LINE
5
21D
100
AcDbEntity
8
0
100
AcDbLine
62
9
6
CONTINUOUS
10
-9.3210496291
20
-20.5123772007
11
-7.5121377902
21
-20.5123772007
0
LINE
5
21E
100
AcDbEntity
8
0
100
AcDbLine
62
9
6
CONTINUOUS
10
7.5121377902
20
-20.5123772007
11
9.3210496291
21
-20.5123772007
0
LINE
5
21F
100
AcDbEntity
8
0
100
AcDbLine
62
7
6
CONTINUOUS
10
6.5185374920
20
-20.4355023125
11
0.4644976875
21
-20.4355023125
0
LINE
5
220
100
AcDbEntity
8
0
100
AcDbLine
62
7
6
CONTINUOUS
10
-0.4644976875
20
-20.4355023125
11
-6.5185374920
21
-20.4355023125
0
LINE
5
221
100
AcDbEntity
8
0
100
AcDbLine
62
9
6
CONTINUOUS
10
-9.3210496032
20
-20.3208040737
11
-7.5154431960
21
-20.3208040737
0
LINE
5
222
100
AcDbEntity
8
0
100
AcDbLine
62
9
6
CONTINUOUS
10
7.5154431960
20
-20.3208040737
11
9.3210496032
21
-20.3208040737
0
LINE
5
223
100
AcDbEntity
8
0
100
AcDbLine
62
9
6
CONTINUOUS
10
-7.2269620892
20
-20.2585786438
11
-6.6610657815
21
-20.2585786438
0
LINE
5
224
100
AcDbEntity
8
0
100
AcDbLine
62
9
6
CONTINUOUS
10
6.6610657815
20
-20.2585786438
11
7.2269620892
21
-20.2585786438
0
LINE
5
225
100
AcDbEntity
8
0
100
AcDbLine
62
9
6
CONTINUOUS
10
6.5168087892
20
-20.2436317461
11
0.4662263902
21
-20.2436317461
0
LINE
5
226
100
AcDbEntity
8
0
100
AcDbLine
62
9
6
CONTINUOUS
10
-0.4662263902
20
-20.2436317461
11
-6.5168087892
21
-20.2436317461
0
LINE
5
227
100
AcDbEntity
8
0
100
AcDbLine
62
9
6
CONTINUOUS
10
-7.2259395951
20
-20.1171572875
11
-6.6615769896
21
-20.1171572875
0
LINE
5
228
100
AcDbEntity
8
0
100
AcDbLine
62
9
6
CONTINUOUS
10
6.6615769896
20
-20.1171572875
11
7.2259395951
21
-20.1171572875
0
LINE
5
229
100
AcDbEntity
8
0
100
AcDbLine
62
7
6
CONTINUOUS
10
-0.3301850577
20
-19.5000000000
11
0.3301850577
21
-19.5000000000
0
LINE
5
22A
100
AcDbEntity
8
0
100
AcDbLine
62
9
6
CONTINUOUS
10
7.2259395951
20
-19.0000000000
11
6.6615769896
21
-19.0000000000
0
LINE
5
22B
100
AcDbEntity
8
0
100
AcDbLine
62
9
6
CONTINUOUS
10
-6.6615769896
20
-19.0000000000
11
-7.2259395951
21
-19.0000000000
0
LINE
5
22C
100
AcDbEntity
8
0
100
AcDbLine
62
7
6
CONTINUOUS
10
6.6288732496
20
-18.5000000000
11
7.2913520568
21
-18.5000000000
0
LINE
5
22D
100
AcDbEntity
8
0
100
AcDbLine
62
7
6
CONTINUOUS
10
-6.6288732496
20
-18.5000000000
11
-7.2913520568
21
-18.5000000000
0
LINE
5
22E
100
AcDbEntity
8
0
100
AcDbLine
62
7
6
CONTINUOUS
10
6.8673532458
20
21.1650925288
11
6.9339198284
21
21.2000000000
0
LINE
5
22F
100
AcDbEntity
8
0
100
AcDbLine
62
7
6
CONTINUOUS
10
7.2370140210
20
20.8344534339
11
7.3830351795
21
20.9000000000
0
LINE
5
230
100
AcDbEntity
8
0
100
AcDbLine
62
7
6
CONTINUOUS
10
7.2370140210
20
-20.8344534339
11
7.3830351795
21
-20.9000000000
0
LINE
5
231
100
AcDbEntity
8
0
100
AcDbLine
62
7
6
CONTINUOUS
10
6.9339198284
20
-21.2000000000
11
6.8673532458
21
-21.1650925288
0
LINE
5
232
100
AcDbEntity
8
0
100
AcDbLine
62
7
6
CONTINUOUS
10
-0.4644976875
20
20.4355023125
11
-0.3301850577
21
20.5698149423
0
LINE
5
233
100
AcDbEntity
8
0
100
AcDbLine
62
7
6
CONTINUOUS
10
7.5193672252
20
-13.7454640196
11
6.5148743481
21
-13.7454640196
0
LINE
5
234
100
AcDbEntity
8
0
100
AcDbLine
62
7
6
CONTINUOUS
10
0.4681608314
20
-13.7454640196
11
-0.4681608314
21
-13.7454640196
0
LINE
5
235
100
AcDbEntity
8
0
100
AcDbLine
62
7
6
CONTINUOUS
10
-6.5148743481
20
-13.7454640196
11
-7.5193672252
21
-13.7454640196
0
LINE
5
236
100
AcDbEntity
8
0
100
AcDbLine
62
7
6
CONTINUOUS
10
-0.4644976875
20
-20.4355023125
11
-0.3301850577
21
-20.5698149423
0
LINE
5
237
100
AcDbEntity
8
0
100
AcDbLine
62
7
6
CONTINUOUS
10
-7.5121377902
20
20.5123772007
11
-7.3830351795
21
20.9000000000
0
LINE
5
238
100
AcDbEntity
8
0
100
AcDbLine
62
7
6
CONTINUOUS
10
-7.5121377902
20
-20.5123772007
11
-7.3830351795
21
-20.9000000000
0
LINE
5
239
100
AcDbEntity
8
0
100
AcDbLine
62
7
6
CONTINUOUS
10
-11.1500000000
20
21.8997711479
11
-11.1500000000
21
-21.8997711479
0
LINE
5
23A
100
AcDbEntity
8
0
100
AcDbLine
62
7
6
CONTINUOUS
10
-7.0000000000
20
-11.0000000000
11
7.0000000000
21
-11.0000000000
0
LINE
5
23B
100
AcDbEntity
8
0
100
AcDbLine
62
7
6
CONTINUOUS
10
-9.6500000000
20
20.6999084592
11
-9.6500000000
21
-20.6999084592
0
LINE
5
23C
100
AcDbEntity
8
0
100
AcDbLine
62
9
6
CONTINUOUS
10
-9.3210496291
20
20.5123772007
11
-9.3210496291
21
20.3208040737
0
LINE
5
23D
100
AcDbEntity
8
0
100
AcDbLine
62
9
6
CONTINUOUS
10
-9.3210496291
20
-20.5123772007
11
-9.3210496291
21
-20.3208040737
0
LINE
5
23E
100
AcDbEntity
8
0
100
AcDbLine
62
7
6
CONTINUOUS
10
6.5185374920
20
20.4355023125
11
6.6528501218
21
20.5698149423
0
LINE
5
23F
100
AcDbEntity
8
0
100
AcDbLine
62
7
6
CONTINUOUS
10
6.5185374920
20
-20.4355023125
11
6.6528501218
21
-20.5698149423
0
LINE
5
240
100
AcDbEntity
8
0
100
AcDbLine
62
7
6
CONTINUOUS
10
-7.2913520568
20
-18.5000000000
11
-7.5193672252
21
-13.7454640196
0
LINE
5
241
100
AcDbEntity
8
0
100
AcDbLine
62
7
6
CONTINUOUS
10
-7.2370140210
20
20.8344534339
11
-7.2269620892
21
20.2585786438
0
LINE
5
242
100
AcDbEntity
8
0
100
AcDbLine
62
7
6
CONTINUOUS
10
-6.6610657815
20
-20.2585786438
11
-6.6528501218
21
-21.2000000000
0
LINE
5
243
100
AcDbEntity
8
0
100
AcDbLine
62
7
6
CONTINUOUS
10
-7.2259395951
20
-20.1171572875
11
-7.2259395951
21
-19.0000000000
0
LINE
5
244
100
AcDbEntity
8
0
100
AcDbLine
62
7
6
CONTINUOUS
10
-7.2259395951
20
19.0000000000
11
-7.2259395951
21
20.1171572875
0
LINE
5
245
100
AcDbEntity
8
0
100
AcDbLine
62
7
6
CONTINUOUS
10
-7.0000000000
20
-11.0000000000
11
-7.0000000000
21
7.0000000000
0
LINE
5
246
100
AcDbEntity
8
0
100
AcDbLine
62
7
6
CONTINUOUS
10
-6.6528501218
20
21.2000000000
11
-6.6610657815
21
20.2585786438
0
LINE
5
247
100
AcDbEntity
8
0
100
AcDbLine
62
7
6
CONTINUOUS
10
-7.2269620892
20
-20.2585786438
11
-7.2370140210
21
-20.8344534339
0
LINE
5
248
100
AcDbEntity
8
0
100
AcDbLine
62
7
6
CONTINUOUS
10
-7.5193672252
20
13.7454640196
11
-7.2913520568
21
18.5000000000
0
LINE
5
249
100
AcDbEntity
8
0
100
AcDbLine
62
7
6
CONTINUOUS
10
-3.0530190000
20
13.0250410000
11
-3.5062280000
21
11.6134420000
0
LINE
5
24A
100
AcDbEntity
8
0
100
AcDbLine
62
7
6
CONTINUOUS
10
-3.9976357296
20
-6.7997485430
11
-3.8675540000
21
-6.7972200000
0
LINE
5
24B
100
AcDbEntity
8
0
100
AcDbLine
62
7
6
CONTINUOUS
10
4.3938160000
20
-6.9061170000
11
3.2115700000
21
-6.9061170000
0
LINE
5
24C
100
AcDbEntity
8
0
100
AcDbLine
62
7
6
CONTINUOUS
10
-6.5148743481
20
13.7454640196
11
-6.6288732496
21
18.5000000000
0
LINE
5
24D
100
AcDbEntity
8
0
100
AcDbLine
62
7
6
CONTINUOUS
10
-6.6615769896
20
20.1171572875
11
-6.6615769896
21
19.0000000000
0
LINE
5
24E
100
AcDbEntity
8
0
100
AcDbLine
62
7
6
CONTINUOUS
10
-6.6615769896
20
-19.0000000000
11
-6.6615769896
21
-20.1171572875
0
LINE
5
24F
100
AcDbEntity
8
0
100
AcDbLine
62
7
6
CONTINUOUS
10
-6.6528501218
20
-21.2000000000
11
-6.6528501218
21
-20.5698149423
0
LINE
5
250
100
AcDbEntity
8
0
100
AcDbLine
62
7
6
CONTINUOUS
10
-6.6528501218
20
20.5698149423
11
-6.6528501218
21
21.2000000000
0
LINE
5
251
100
AcDbEntity
8
0
100
AcDbLine
62
7
6
CONTINUOUS
10
-6.6288732496
20
-18.5000000000
11
-6.5148743481
21
-13.7454640196
0
LINE
5
252
100
AcDbEntity
8
0
100
AcDbLine
62
7
6
CONTINUOUS
10
-2.6429980000
20
13.0250410000
11
-3.3012180000
21
10.9749490000
0
LINE
5
253
100
AcDbEntity
8
0
100
AcDbLine
62
7
6
CONTINUOUS
10
-3.3540350000
20
8.7399700000
11
-3.4846110000
21
8.3760740000
0
LINE
5
254
100
AcDbEntity
8
0
100
AcDbLine
62
7
6
CONTINUOUS
10
-3.0998690000
20
9.4447720000
11
-3.3018240000
21
8.8896940000
0
LINE
5
255
100
AcDbEntity
8
0
100
AcDbLine
62
7
6
CONTINUOUS
10
-3.1886180000
20
9.6260740000
11
-3.6587130000
21
8.3760740000
0
LINE
5
256
100
AcDbEntity
8
0
100
AcDbLine
62
7
6
CONTINUOUS
10
4.3938160000
20
-6.4894520000
11
4.0247040000
21
-6.4894520000
0
LINE
5
257
100
AcDbEntity
8
0
100
AcDbLine
62
7
6
CONTINUOUS
10
3.5808250000
20
-6.4894520000
11
3.2115700000
21
-6.4894520000
0
LINE
5
258
100
AcDbEntity
8
0
100
AcDbLine
62
7
6
CONTINUOUS
10
0.1175560000
20
-5.3750000000
11
-1.3429450000
21
-5.3750000000
0
LINE
5
259
100
AcDbEntity
8
0
100
AcDbLine
62
7
6
CONTINUOUS
10
-4.6945400000
20
9.6260740000
11
-4.6945400000
21
8.3760740000
0
LINE
5
25A
100
AcDbEntity
8
0
100
AcDbLine
62
7
6
CONTINUOUS
10
-4.5256690000
20
9.4815810000
11
-4.5256690000
21
9.0481030000
0
LINE
5
25B
100
AcDbEntity
8
0
100
AcDbLine
62
7
6
CONTINUOUS
10
-4.5256690000
20
8.9036100000
11
-4.5256690000
21
8.3760740000
0
LINE
5
25C
100
AcDbEntity
8
0
100
AcDbLine
62
7
6
CONTINUOUS
10
-3.8675540000
20
-2.4519630000
11
-3.8675540000
21
-3.2027800000
0
LINE
5
25D
100
AcDbEntity
8
0
100
AcDbLine
62
7
6
CONTINUOUS
10
-3.8675540000
20
-6.7972200000
11
-3.8675540000
21
-7.5480370000
0
LINE
5
25E
100
AcDbEntity
8
0
100
AcDbLine
62
7
6
CONTINUOUS
10
-3.7500000000
20
21.2000000000
11
-3.7500000000
21
21.1650925288
0
LINE
5
25F
100
AcDbEntity
8
0
100
AcDbLine
62
7
6
CONTINUOUS
10
-3.7500000000
20
-21.2000000000
11
-3.7500000000
21
-21.1650925288
0
LINE
5
260
100
AcDbEntity
8
0
100
AcDbLine
62
7
6
CONTINUOUS
10
-3.2432111455
20
5.3999998725
11
-3.2432111455
21
3.6000001275
0
LINE
5
261
100
AcDbEntity
8
0
100
AcDbLine
62
7
6
CONTINUOUS
10
-0.1641440000
20
13.0250410000
11
-0.5469760000
21
11.6899480000
0
LINE
5
262
100
AcDbEntity
8
0
100
AcDbLine
62
7
6
CONTINUOUS
10
0.0456690000
20
12.3268470000
11
-0.3419760000
21
10.9749540000
0
LINE
5
263
100
AcDbEntity
8
0
100
AcDbLine
62
7
6
CONTINUOUS
10
2.6768152463
20
21.2000000000
11
3.0118365096
21
22.2000000000
0
LINE
5
264
100
AcDbEntity
8
0
100
AcDbLine
62
7
6
CONTINUOUS
10
0.1175560000
20
-4.6250000000
11
-1.3429481120
21
-4.6250000000
0
LINE
5
265
100
AcDbEntity
8
0
100
AcDbLine
62
7
6
CONTINUOUS
10
4.3802090000
20
-3.5292540000
11
4.0247040000
21
-3.5292540000
0
LINE
5
266
100
AcDbEntity
8
0
100
AcDbLine
62
7
6
CONTINUOUS
10
3.5808250000
20
-3.5292540000
11
3.2251770000
21
-3.5292540000
0
LINE
5
267
100
AcDbEntity
8
0
100
AcDbLine
62
7
6
CONTINUOUS
10
3.0118365096
20
-22.2000000000
11
2.6768152463
21
-21.2000000000
0
LINE
5
268
100
AcDbEntity
8
0
100
AcDbLine
62
7
6
CONTINUOUS
10
-3.1000000000
20
-21.2000000000
11
-3.1000000000
21
-22.2000000000
0
LINE
5
269
100
AcDbEntity
8
0
100
AcDbLine
62
7
6
CONTINUOUS
10
-3.1000000000
20
21.2000000000
11
-3.1000000000
21
22.2000000000
0
LINE
5
26A
100
AcDbEntity
8
0
100
AcDbLine
62
7
6
CONTINUOUS
10
-3.0163215779
20
5.0522990884
11
-3.0163215779
21
3.6000001275
0
LINE
5
26B
100
AcDbEntity
8
0
100
AcDbLine
62
7
6
CONTINUOUS
10
-2.4975410000
20
9.6260740000
11
-2.4975410000
21
9.4763500000
0
LINE
5
26C
100
AcDbEntity
8
0
100
AcDbLine
62
7
6
CONTINUOUS
10
-2.3696570000
20
13.0250410000
11
-2.3696620000
21
10.9749440000
0
LINE
5
26D
100
AcDbEntity
8
0
100
AcDbLine
62
7
6
CONTINUOUS
10
-2.0745240000
20
9.4763500000
11
-2.0745240000
21
8.3760740000
0
LINE
5
26E
100
AcDbEntity
8
0
100
AcDbLine
62
7
6
CONTINUOUS
10
-2.0356451536
20
5.3999998725
11
-2.0356451536
21
3.9325756085
0
LINE
5
26F
100
AcDbEntity
8
0
100
AcDbLine
62
7
6
CONTINUOUS
10
-1.9596410000
20
13.0250410000
11
-1.9596460000
21
10.9749490000
0
LINE
5
270
100
AcDbEntity
8
0
100
AcDbLine
62
7
6
CONTINUOUS
10
-1.9056530000
20
9.4763500000
11
-1.9056530000
21
8.3760740000
0
LINE
5
271
100
AcDbEntity
8
0
100
AcDbLine
62
7
6
CONTINUOUS
10
-1.8087397048
20
5.3999998725
11
-1.8087397048
21
3.6000001275
0
LINE
5
272
100
AcDbEntity
8
0
100
AcDbLine
62
7
6
CONTINUOUS
10
-1.5496410000
20
13.0250410000
11
-1.5496410000
21
10.9749490000
0
LINE
5
273
100
AcDbEntity
8
0
100
AcDbLine
62
7
6
CONTINUOUS
10
3.9733373476
20
23.5000000000
11
3.9526845545
21
23.4301797403
0
LINE
5
274
100
AcDbEntity
8
0
100
AcDbLine
62
7
6
CONTINUOUS
10
1.3872400000
20
13.0250460000
11
0.7290310000
21
10.9749490000
0
LINE
5
275
100
AcDbEntity
8
0
100
AcDbLine
62
7
6
CONTINUOUS
10
1.2684890000
20
11.3781170000
11
1.1390470000
21
10.9749540000
0
LINE
5
276
100
AcDbEntity
8
0
100
AcDbLine
62
7
6
CONTINUOUS
10
1.5922560000
20
12.3865480000
11
1.3935540000
21
11.7676320000
0
LINE
5
277
100
AcDbEntity
8
0
100
AcDbLine
62
9
6
CONTINUOUS
10
-9.6500000000
20
-20.6999084592
11
-9.5210191944
21
-20.3126513725
0
LINE
5
278
100
AcDbEntity
8
0
100
AcDbLine
62
9
6
CONTINUOUS
10
-9.4501522399
20
-20.9000000000
11
-9.3210496291
21
-20.5123772007
0
LINE
5
279
100
AcDbEntity
8
0
100
AcDbLine
62
7
6
CONTINUOUS
10
4.3802090000
20
-3.1102970000
11
3.2251770000
21
-3.1102970000
0
LINE
5
27A
100
AcDbEntity
8
0
100
AcDbLine
62
7
6
CONTINUOUS
10
2.4604640000
20
-4.1638330000
11
3.5808250000
21
-5.1079690000
0
LINE
5
27B
100
AcDbEntity
8
0
100
AcDbLine
62
9
6
CONTINUOUS
10
-9.6500000000
20
20.6999084592
11
-9.5210191919
21
20.3126513649
0
LINE
5
27C
100
AcDbEntity
8
0
100
AcDbLine
62
9
6
CONTINUOUS
10
-9.4501522399
20
20.9000000000
11
-9.3210496291
21
20.5123772007
0
LINE
5
27D
100
AcDbEntity
8
0
100
AcDbLine
62
7
6
CONTINUOUS
10
3.9733373476
20
-23.5000000000
11
3.9526845545
21
-23.4301797403
0
LINE
5
27E
100
AcDbEntity
8
0
100
AcDbLine
62
7
6
CONTINUOUS
10
-0.4681608314
20
-13.7454640196
11
-0.3301850577
21
-19.5000000000
0
LINE
5
27F
100
AcDbEntity
8
0
100
AcDbLine
62
7
6
CONTINUOUS
10
-1.4826370000
20
9.6260740000
11
-1.4826370000
21
9.4763500000
0
LINE
5
280
100
AcDbEntity
8
0
100
AcDbLine
62
7
6
CONTINUOUS
10
-1.3071168335
20
5.3999998725
11
-1.3071168335
21
3.6000001275
0
LINE
5
281
100
AcDbEntity
8
0
100
AcDbLine
62
7
6
CONTINUOUS
10
-1.3067590000
20
8.5606380000
11
-1.3067590000
21
8.3760740000
0
LINE
5
282
100
AcDbEntity
8
0
100
AcDbLine
62
7
6
CONTINUOUS
10
-1.1396260000
20
12.3268470000
11
-1.1396260000
21
10.9749490000
0
LINE
5
283
100
AcDbEntity
8
0
100
AcDbLine
62
7
6
CONTINUOUS
10
-1.1257480000
20
8.5606380000
11
-1.1257480000
21
8.3760740000
0
LINE
5
284
100
AcDbEntity
8
0
100
AcDbLine
62
7
6
CONTINUOUS
10
-1.0676228782
20
5.1983201393
11
-1.0676228782
21
4.6260417603
0
LINE
5
285
100
AcDbEntity
8
0
100
AcDbLine
62
7
6
CONTINUOUS
10
-1.0676228782
20
4.4243620271
11
-1.0676228782
21
3.8016798607
0
LINE
5
286
100
AcDbEntity
8
0
100
AcDbLine
62
7
6
CONTINUOUS
10
-0.3406120000
20
9.6260740000
11
-0.3406120000
21
8.3760740000
0
LINE
5
287
100
AcDbEntity
8
0
100
AcDbLine
62
7
6
CONTINUOUS
10
-0.3301850577
20
20.5698149423
11
-0.3301850577
21
19.5000000000
0
LINE
5
288
100
AcDbEntity
8
0
100
AcDbLine
62
7
6
CONTINUOUS
10
-0.3301850577
20
-19.5000000000
11
-0.3301850577
21
-20.5698149423
0
LINE
5
289
100
AcDbEntity
8
0
100
AcDbLine
62
7
6
CONTINUOUS
10
-0.1717410000
20
9.4815810000
11
-0.1717410000
21
9.0481030000
0
LINE
5
28A
100
AcDbEntity
8
0
100
AcDbLine
62
7
6
CONTINUOUS
10
-0.1717410000
20
8.9036100000
11
-0.1717410000
21
8.3760740000
0
LINE
5
28B
100
AcDbEntity
8
0
100
AcDbLine
62
7
6
CONTINUOUS
10
-0.1323275436
20
4.6260417603
11
-0.1323275436
21
4.4243620271
0
LINE
5
28C
100
AcDbEntity
8
0
100
AcDbLine
62
7
6
CONTINUOUS
10
-0.0642638496
20
5.3999998725
11
-0.0642638496
21
5.1983201393
0
LINE
5
28D
100
AcDbEntity
8
0
100
AcDbLine
62
7
6
CONTINUOUS
10
-0.0566980407
20
3.8016798607
11
-0.0566980407
21
3.6000001275
0
LINE
5
28E
100
AcDbEntity
8
0
100
AcDbLine
62
7
6
CONTINUOUS
10
0.0456690000
20
12.3268470000
11
0.0456740000
21
10.9749490000
0
LINE
5
28F
100
AcDbEntity
8
0
100
AcDbLine
62
7
6
CONTINUOUS
10
0.1175560000
20
-4.6250000000
11
0.1175560000
21
-5.3750000000
0
LINE
5
290
100
AcDbEntity
8
0
100
AcDbLine
62
7
6
CONTINUOUS
10
-0.3301850577
20
19.5000000000
11
-0.4681608314
21
13.7454640196
0
LINE
5
291
100
AcDbEntity
8
0
100
AcDbLine
62
7
6
CONTINUOUS
10
1.4457555704
20
5.3999998725
11
0.9239174833
21
3.8318630366
0
LINE
5
292
100
AcDbEntity
8
0
100
AcDbLine
62
7
6
CONTINUOUS
10
1.6953605634
20
5.3999998725
11
1.0550015505
21
3.6000001275
0
LINE
5
293
100
AcDbEntity
8
0
100
AcDbLine
62
7
6
CONTINUOUS
10
1.4060639777
20
1.9477247079
11
0.9376073684
21
1.2757301808
0
LINE
5
294
100
AcDbEntity
8
0
100
AcDbLine
62
7
6
CONTINUOUS
10
1.4394436718
20
2.2437413074
11
0.7572461752
21
1.2757301808
0
LINE
5
295
100
AcDbEntity
8
0
100
AcDbLine
62
7
6
CONTINUOUS
10
2.4087510000
20
-3.6039000000
11
3.5808250000
21
-4.5916130000
0
LINE
5
296
100
AcDbEntity
8
0
100
AcDbLine
62
7
6
CONTINUOUS
10
-3.0163215779
20
5.0522990884
11
-2.0709321457
21
3.6000001275
0
LINE
5
297
100
AcDbEntity
8
0
100
AcDbLine
62
7
6
CONTINUOUS
10
-2.8526530000
20
8.7399700000
11
-2.7289850000
21
8.3760740000
0
LINE
5
298
100
AcDbEntity
8
0
100
AcDbLine
62
7
6
CONTINUOUS
10
-3.0998690000
20
9.4447720000
11
-2.9136480000
21
8.8896940000
0
LINE
5
299
100
AcDbEntity
8
0
100
AcDbLine
62
7
6
CONTINUOUS
10
-4.3694620000
20
13.0250410000
11
-3.7112480000
21
10.9749440000
0
LINE
5
29A
100
AcDbEntity
8
0
100
AcDbLine
62
7
6
CONTINUOUS
10
-3.9594420000
20
13.0250410000
11
-3.5062280000
21
11.6134420000
0
LINE
5
29B
100
AcDbEntity
8
0
100
AcDbLine
62
7
6
CONTINUOUS
10
0.3301850577
20
19.5000000000
11
0.4681608314
21
13.7454640196
0
LINE
5
29C
100
AcDbEntity
8
0
100
AcDbLine
62
7
6
CONTINUOUS
10
0.3301850577
20
20.5698149423
11
0.3301850577
21
19.5000000000
0
LINE
5
29D
100
AcDbEntity
8
0
100
AcDbLine
62
7
6
CONTINUOUS
10
0.3301850577
20
-19.5000000000
11
0.3301850577
21
-20.5698149423
0
LINE
5
29E
100
AcDbEntity
8
0
100
AcDbLine
62
7
6
CONTINUOUS
10
0.4556890000
20
13.0250410000
11
0.4556890000
21
10.9749490000
0
LINE
5
29F
100
AcDbEntity
8
0
100
AcDbLine
62
7
6
CONTINUOUS
10
0.5175560000
20
-2.4519628823
11
0.5175560000
21
-3.2027800000
0
LINE
5
2A0
100
AcDbEntity
8
0
100
AcDbLine
62
7
6
CONTINUOUS
10
0.5175560000
20
-6.7972169516
11
0.5175560000
21
-7.5480371177
0
LINE
5
2A1
100
AcDbEntity
8
0
100
AcDbLine
62
7
6
CONTINUOUS
10
0.7572461752
20
1.2757301808
11
0.7572461752
21
1.1067454798
0
LINE
5
2A2
100
AcDbEntity
8
0
100
AcDbLine
62
7
6
CONTINUOUS
10
0.8205610000
20
9.6260740000
11
0.8205610000
21
8.3760740000
0
LINE
5
2A3
100
AcDbEntity
8
0
100
AcDbLine
62
7
6
CONTINUOUS
10
0.9894310000
20
9.4763500000
11
0.9894310000
21
9.0933060000
0
LINE
5
2A4
100
AcDbEntity
8
0
100
AcDbLine
62
7
6
CONTINUOUS
10
0.9894310000
20
8.9435830000
11
0.9894310000
21
8.5257970000
0
LINE
5
2A5
100
AcDbEntity
8
0
100
AcDbLine
62
7
6
CONTINUOUS
10
1.4060639777
20
1.9477247079
11
1.4060639777
21
1.2757301808
0
LINE
5
2A6
100
AcDbEntity
8
0
100
AcDbLine
62
7
6
CONTINUOUS
10
1.4060639777
20
1.1067454798
11
1.4060639777
21
0.7500000000
0
LINE
5
2A7
100
AcDbEntity
8
0
100
AcDbLine
62
7
6
CONTINUOUS
10
1.5896522949
20
2.2437413074
11
1.5896522949
21
1.2757301808
0
LINE
5
2A8
100
AcDbEntity
8
0
100
AcDbLine
62
7
6
CONTINUOUS
10
1.5896522949
20
1.1067454798
11
1.5896522949
21
0.7500000000
0
LINE
5
2A9
100
AcDbEntity
8
0
100
AcDbLine
62
7
6
CONTINUOUS
10
1.6736990000
20
9.0933060000
11
1.6736990000
21
8.9435830000
0
LINE
5
2AA
100
AcDbEntity
8
0
100
AcDbLine
62
7
6
CONTINUOUS
10
1.7311410000
20
9.6260740000
11
1.7311410000
21
9.4763500000
0
LINE
5
2AB
100
AcDbEntity
8
0
100
AcDbLine
62
7
6
CONTINUOUS
10
1.7432810000
20
8.5257970000
11
1.7432810000
21
8.3760740000
0
LINE
5
2AC
100
AcDbEntity
8
0
100
AcDbLine
62
7
6
CONTINUOUS
10
1.7920166898
20
1.2757301808
11
1.7920166898
21
1.1067454798
0
LINE
5
2AD
100
AcDbEntity
8
0
100
AcDbLine
62
7
6
CONTINUOUS
10
1.9643620000
20
9.6260740000
11
1.9643620000
21
8.3760740000
0
LINE
5
2AE
100
AcDbEntity
8
0
100
AcDbLine
62
7
6
CONTINUOUS
10
0.4681608314
20
-13.7454640196
11
0.3301850577
21
-19.5000000000
0
LINE
5
2AF
100
AcDbEntity
8
0
100
AcDbLine
62
7
6
CONTINUOUS
10
-1.2976912378
20
1.1109179416
11
-1.4729346314
21
1.0963143255
0
LINE
5
2B0
100
AcDbEntity
8
0
100
AcDbLine
62
7
6
CONTINUOUS
10
2.6682336579
20
0.7500000000
11
2.4846453408
21
0.7500000000
0
LINE
5
2B1
100
AcDbEntity
8
0
100
AcDbLine
62
7
6
CONTINUOUS
10
1.5896522949
20
0.7500000000
11
1.4060639777
21
0.7500000000
0
LINE
5
2B2
100
AcDbEntity
8
0
100
AcDbLine
62
7
6
CONTINUOUS
10
1.7920166898
20
1.1067454798
11
1.5896522949
21
1.1067454798
0
LINE
5
2B3
100
AcDbEntity
8
0
100
AcDbLine
62
7
6
CONTINUOUS
10
1.4060639777
20
1.1067454798
11
0.7572461752
21
1.1067454798
0
LINE
5
2B4
100
AcDbEntity
8
0
100
AcDbLine
62
7
6
CONTINUOUS
10
1.7920166898
20
1.2757301808
11
1.5896522949
21
1.2757301808
0
LINE
5
2B5
100
AcDbEntity
8
0
100
AcDbLine
62
7
6
CONTINUOUS
10
1.4060639777
20
1.2757301808
11
0.9376073684
21
1.2757301808
0
LINE
5
2B6
100
AcDbEntity
8
0
100
AcDbLine
62
7
6
CONTINUOUS
10
-2.9885845136
20
5.3999998725
11
-2.0356451536
21
3.9325756085
0
LINE
5
2B7
100
AcDbEntity
8
0
100
AcDbLine
62
7
6
CONTINUOUS
10
4.5728790000
20
-6.3770220000
11
4.7646760000
21
-6.7187410000
0
LINE
5
2B8
100
AcDbEntity
8
0
100
AcDbLine
62
7
6
CONTINUOUS
10
-2.9971460000
20
9.6260740000
11
-2.5445200000
21
8.3760740000
0
LINE
5
2B9
100
AcDbEntity
8
0
100
AcDbLine
62
7
6
CONTINUOUS
10
0.1474602202
20
5.3999998725
11
0.7827467744
21
3.6000001275
0
LINE
5
2BA
100
AcDbEntity
8
0
100
AcDbLine
62
7
6
CONTINUOUS
10
2.0003740428
20
5.3999998725
11
2.0003740428
21
3.6000001275
0
LINE
5
2BB
100
AcDbEntity
8
0
100
AcDbLine
62
7
6
CONTINUOUS
10
2.1174687065
20
1.8750000080
11
2.1174687065
21
1.6977029813
0
LINE
5
2BC
100
AcDbEntity
8
0
100
AcDbLine
62
7
6
CONTINUOUS
10
2.1280020000
20
9.3913340000
11
2.1280020000
21
8.3760740000
0
LINE
5
2BD
100
AcDbEntity
8
0
100
AcDbLine
62
7
6
CONTINUOUS
10
2.2398690568
20
5.1983201393
11
2.2398690568
21
4.6260417603
0
LINE
5
2BE
100
AcDbEntity
8
0
100
AcDbLine
62
7
6
CONTINUOUS
10
2.2398690568
20
4.4243620271
11
2.2398690568
21
3.8016798607
0
LINE
5
2BF
100
AcDbEntity
8
0
100
AcDbLine
62
7
6
CONTINUOUS
10
2.4846453408
20
1.9188108564
11
2.4846453408
21
0.7500000000
0
LINE
5
2C0
100
AcDbEntity
8
0
100
AcDbLine
62
7
6
CONTINUOUS
10
2.6682336579
20
2.2500000000
11
2.6682336579
21
0.7500000000
0
LINE
5
2C1
100
AcDbEntity
8
0
100
AcDbLine
62
7
6
CONTINUOUS
10
2.7288370000
20
13.0250460000
11
2.7288370000
21
10.9749540000
0
LINE
5
2C2
100
AcDbEntity
8
0
100
AcDbLine
62
7
6
CONTINUOUS
10
2.7930240000
20
9.6260740000
11
2.7930240000
21
8.6107210000
0
LINE
5
2C3
100
AcDbEntity
8
0
100
AcDbLine
62
7
6
CONTINUOUS
10
2.9566640000
20
9.6260740000
11
2.9566640000
21
8.3760740000
0
LINE
5
2C4
100
AcDbEntity
8
0
100
AcDbLine
62
7
6
CONTINUOUS
10
3.1000000000
20
-21.2000000000
11
3.1000000000
21
-22.2000000000
0
LINE
5
2C5
100
AcDbEntity
8
0
100
AcDbLine
62
7
6
CONTINUOUS
10
3.1000000000
20
21.2000000000
11
3.1000000000
21
22.2000000000
0
LINE
5
2C6
100
AcDbEntity
8
0
100
AcDbLine
62
7
6
CONTINUOUS
10
3.1332000000
20
12.6457810000
11
3.1332050000
21
12.1469030000
0
LINE
5
2C7
100
AcDbEntity
8
0
100
AcDbLine
62
7
6
CONTINUOUS
10
3.1751972126
20
4.6260417603
11
3.1751972126
21
4.4243620271
0
LINE
5
2C8
100
AcDbEntity
8
0
100
AcDbLine
62
7
6
CONTINUOUS
10
3.2115700000
20
-6.4894520000
11
3.2115700000
21
-6.9061170000
0
LINE
5
2C9
100
AcDbEntity
8
0
100
AcDbLine
62
7
6
CONTINUOUS
10
3.2251770000
20
-3.1102970000
11
3.2251770000
21
-3.5292540000
0
LINE
5
2CA
100
AcDbEntity
8
0
100
AcDbLine
62
7
6
CONTINUOUS
10
3.2299560000
20
9.6260740000
11
3.2299560000
21
8.3760740000
0
LINE
5
2CB
100
AcDbEntity
8
0
100
AcDbLine
62
7
6
CONTINUOUS
10
3.2432111455
20
5.3999998725
11
3.2432111455
21
5.1983201393
0
LINE
5
2CC
100
AcDbEntity
8
0
100
AcDbLine
62
7
6
CONTINUOUS
10
3.2508267155
20
3.8016798607
11
3.2508267155
21
3.6000001275
0
LINE
5
2CD
100
AcDbEntity
8
0
100
AcDbLine
62
7
6
CONTINUOUS
10
3.3988270000
20
9.4815810000
11
3.3988270000
21
8.5205660000
0
LINE
5
2CE
100
AcDbEntity
8
0
100
AcDbLine
62
7
6
CONTINUOUS
10
3.5808250000
20
-3.5292540000
11
3.5808250000
21
-4.5916130000
0
LINE
5
2CF
100
AcDbEntity
8
0
100
AcDbLine
62
7
6
CONTINUOUS
10
3.5808250000
20
-5.1079690000
11
3.5808250000
21
-6.4894520000
0
LINE
5
2D0
100
AcDbEntity
8
0
100
AcDbLine
62
7
6
CONTINUOUS
10
3.1389040000
20
11.7676380000
11
3.1388580000
21
10.9749540000
0
LINE
5
2D1
100
AcDbEntity
8
0
100
AcDbLine
62
7
6
CONTINUOUS
10
-3.9733373476
20
-23.5000000000
11
-3.9526845545
21
-23.4301797403
0
LINE
5
2D2
100
AcDbEntity
8
0
100
AcDbLine
62
9
6
CONTINUOUS
10
9.4501522399
20
20.9000000000
11
9.3210496291
21
20.5123772007
0
LINE
5
2D3
100
AcDbEntity
8
0
100
AcDbLine
62
9
6
CONTINUOUS
10
9.6500000000
20
20.6999084592
11
9.5210191919
21
20.3126513649
0
LINE
5
2D4
100
AcDbEntity
8
0
100
AcDbLine
62
7
6
CONTINUOUS
10
1.5896522949
20
2.2437413074
11
1.4394436718
21
2.2437413074
0
LINE
5
2D5
100
AcDbEntity
8
0
100
AcDbLine
62
7
6
CONTINUOUS
10
2.6682336579
20
2.2500000000
11
2.5499052593
21
2.2500000000
0
LINE
5
2D6
100
AcDbEntity
8
0
100
AcDbLine
62
7
6
CONTINUOUS
10
3.2508267155
20
3.6000001275
11
2.0003740428
21
3.6000001275
0
LINE
5
2D7
100
AcDbEntity
8
0
100
AcDbLine
62
7
6
CONTINUOUS
10
1.0550015505
20
3.6000001275
11
0.7827467744
21
3.6000001275
0
LINE
5
2D8
100
AcDbEntity
8
0
100
AcDbLine
62
7
6
CONTINUOUS
10
-0.0566980407
20
3.6000001275
11
-1.3071168335
21
3.6000001275
0
LINE
5
2D9
100
AcDbEntity
8
0
100
AcDbLine
62
7
6
CONTINUOUS
10
-1.8087397048
20
3.6000001275
11
-2.0709321457
21
3.6000001275
0
LINE
5
2DA
100
AcDbEntity
8
0
100
AcDbLine
62
7
6
CONTINUOUS
10
-3.0163215779
20
3.6000001275
11
-3.2432111455
21
3.6000001275
0
LINE
5
2DB
100
AcDbEntity
8
0
100
AcDbLine
62
9
6
CONTINUOUS
10
9.4501522399
20
-20.9000000000
11
9.3210496291
21
-20.5123772007
0
LINE
5
2DC
100
AcDbEntity
8
0
100
AcDbLine
62
9
6
CONTINUOUS
10
9.6500000000
20
-20.6999084592
11
9.5210191944
21
-20.3126513725
0
LINE
5
2DD
100
AcDbEntity
8
0
100
AcDbLine
62
7
6
CONTINUOUS
10
0.4070926098
20
5.3999998725
11
0.9239174833
21
3.8318630366
0
LINE
5
2DE
100
AcDbEntity
8
0
100
AcDbLine
62
7
6
CONTINUOUS
10
-3.9733373476
20
23.5000000000
11
-3.9526845545
21
23.4301797403
0
LINE
5
2DF
100
AcDbEntity
8
0
100
AcDbLine
62
7
6
CONTINUOUS
10
-1.1396260000
20
12.3268470000
11
-0.7519810000
21
10.9749490000
0
LINE
5
2E0
100
AcDbEntity
8
0
100
AcDbLine
62
7
6
CONTINUOUS
10
-0.9298080000
20
13.0250410000
11
-0.5469760000
21
11.6899480000
0
LINE
5
2E1
100
AcDbEntity
8
0
100
AcDbLine
62
7
6
CONTINUOUS
10
3.7500000000
20
21.2000000000
11
3.7500000000
21
21.1650925288
0
LINE
5
2E2
100
AcDbEntity
8
0
100
AcDbLine
62
7
6
CONTINUOUS
10
3.7500000000
20
-21.2000000000
11
3.7500000000
21
-21.1650925288
0
LINE
5
2E3
100
AcDbEntity
8
0
100
AcDbLine
62
7
6
CONTINUOUS
10
4.0247040000
20
-3.5292540000
11
4.0247040000
21
-4.5916130000
0
LINE
5
2E4
100
AcDbEntity
8
0
100
AcDbLine
62
7
6
CONTINUOUS
10
4.0247040000
20
-5.1033090000
11
4.0247040000
21
-6.4894520000
0
LINE
5
2E5
100
AcDbEntity
8
0
100
AcDbLine
62
7
6
CONTINUOUS
10
4.3802090000
20
-3.1102970000
11
4.3802090000
21
-3.5292540000
0
LINE
5
2E6
100
AcDbEntity
8
0
100
AcDbLine
62
7
6
CONTINUOUS
10
4.3938160000
20
-6.4894520000
11
4.3938160000
21
-6.9061170000
0
LINE
5
2E7
100
AcDbEntity
8
0
100
AcDbLine
62
7
6
CONTINUOUS
10
4.4973270000
20
8.5606380000
11
4.4973270000
21
8.3760740000
0
LINE
5
2E8
100
AcDbEntity
8
0
100
AcDbLine
62
7
6
CONTINUOUS
10
4.6784370000
20
8.5606380000
11
4.6784370000
21
8.3760740000
0
LINE
5
2E9
100
AcDbEntity
8
0
100
AcDbLine
62
7
6
CONTINUOUS
10
-3.0118365096
20
-22.2000000000
11
-2.6768152463
21
-21.2000000000
0
LINE
5
2EA
100
AcDbEntity
8
0
100
AcDbLine
62
7
6
CONTINUOUS
10
3.2508267155
20
3.8016798607
11
2.2398690568
21
3.8016798607
0
LINE
5
2EB
100
AcDbEntity
8
0
100
AcDbLine
62
7
6
CONTINUOUS
10
-0.0566980407
20
3.8016798607
11
-1.0676228782
21
3.8016798607
0
LINE
5
2EC
100
AcDbEntity
8
0
100
AcDbLine
62
7
6
CONTINUOUS
10
3.1751972126
20
4.4243620271
11
2.2398690568
21
4.4243620271
0
LINE
5
2ED
100
AcDbEntity
8
0
100
AcDbLine
62
7
6
CONTINUOUS
10
-0.1323275436
20
4.4243620271
11
-1.0676228782
21
4.4243620271
0
LINE
5
2EE
100
AcDbEntity
8
0
100
AcDbLine
62
7
6
CONTINUOUS
10
3.1751972126
20
4.6260417603
11
2.2398690568
21
4.6260417603
0
LINE
5
2EF
100
AcDbEntity
8
0
100
AcDbLine
62
7
6
CONTINUOUS
10
-0.1323275436
20
4.6260417603
11
-1.0676228782
21
4.6260417603
0
LINE
5
2F0
100
AcDbEntity
8
0
100
AcDbLine
62
7
6
CONTINUOUS
10
3.2432111455
20
5.1983201393
11
2.2398690568
21
5.1983201393
0
LINE
5
2F1
100
AcDbEntity
8
0
100
AcDbLine
62
7
6
CONTINUOUS
10
-0.0642638496
20
5.1983201393
11
-1.0676228782
21
5.1983201393
0
LINE
5
2F2
100
AcDbEntity
8
0
100
AcDbLine
62
7
6
CONTINUOUS
10
3.2432111455
20
5.3999998725
11
2.0003740428
21
5.3999998725
0
LINE
5
2F3
100
AcDbEntity
8
0
100
AcDbLine
62
7
6
CONTINUOUS
10
1.6953605634
20
5.3999998725
11
1.4457555704
21
5.3999998725
0
LINE
5
2F4
100
AcDbEntity
8
0
100
AcDbLine
62
7
6
CONTINUOUS
10
0.4070926098
20
5.3999998725
11
0.1474602202
21
5.3999998725
0
LINE
5
2F5
100
AcDbEntity
8
0
100
AcDbLine
62
7
6
CONTINUOUS
10
-0.0642638496
20
5.3999998725
11
-1.3071168335
21
5.3999998725
0
LINE
5
2F6
100
AcDbEntity
8
0
100
AcDbLine
62
7
6
CONTINUOUS
10
-1.8087397048
20
5.3999998725
11
-2.0356451536
21
5.3999998725
0
LINE
5
2F7
100
AcDbEntity
8
0
100
AcDbLine
62
7
6
CONTINUOUS
10
-2.9885845136
20
5.3999998725
11
-3.2432111455
21
5.3999998725
0
LINE
5
2F8
100
AcDbEntity
8
0
100
AcDbLine
62
7
6
CONTINUOUS
10
-2.6768152463
20
21.2000000000
11
-3.0118365096
21
22.2000000000
0
LINE
5
2F9
100
AcDbEntity
8
0
100
AcDbLine
62
7
6
CONTINUOUS
10
1.9160380000
20
11.3781170000
11
2.0454750000
21
10.9749540000
0
LINE
5
2FA
100
AcDbEntity
8
0
100
AcDbLine
62
7
6
CONTINUOUS
10
1.5922560000
20
12.3865480000
11
1.7909670000
21
11.7676320000
0
LINE
5
2FB
100
AcDbEntity
8
0
100
AcDbLine
62
7
6
CONTINUOUS
10
6.6288732496
20
-18.5000000000
11
6.5148743481
21
-13.7454640196
0
LINE
5
2FC
100
AcDbEntity
8
0
100
AcDbLine
62
7
6
CONTINUOUS
10
7.2269620892
20
-20.2585786438
11
7.2370140210
21
-20.8344534339
0
LINE
5
2FD
100
AcDbEntity
8
0
100
AcDbLine
62
7
6
CONTINUOUS
10
6.6528501218
20
21.2000000000
11
6.6610657815
21
20.2585786438
0
LINE
5
2FE
100
AcDbEntity
8
0
100
AcDbLine
62
7
6
CONTINUOUS
10
6.6528501218
20
21.2000000000
11
6.6528501218
21
20.5698149423
0
LINE
5
2FF
100
AcDbEntity
8
0
100
AcDbLine
62
7
6
CONTINUOUS
10
6.6528501218
20
-20.5698149423
11
6.6528501218
21
-21.2000000000
0
LINE
5
300
100
AcDbEntity
8
0
100
AcDbLine
62
7
6
CONTINUOUS
10
6.6615769896
20
-20.1171572875
11
6.6615769896
21
-19.0000000000
0
LINE
5
301
100
AcDbEntity
8
0
100
AcDbLine
62
7
6
CONTINUOUS
10
6.6615769896
20
19.0000000000
11
6.6615769896
21
20.1171572875
0
LINE
5
302
100
AcDbEntity
8
0
100
AcDbLine
62
7
6
CONTINUOUS
10
7.0000000000
20
-11.0000000000
11
7.0000000000
21
7.0000000000
0
LINE
5
303
100
AcDbEntity
8
0
100
AcDbLine
62
7
6
CONTINUOUS
10
6.6610657815
20
-20.2585786438
11
6.6528501218
21
-21.2000000000
0
LINE
5
304
100
AcDbEntity
8
0
100
AcDbLine
62
7
6
CONTINUOUS
10
7.2370140210
20
20.8344534339
11
7.2269620892
21
20.2585786438
0
LINE
5
305
100
AcDbEntity
8
0
100
AcDbLine
62
7
6
CONTINUOUS
10
6.5148743481
20
13.7454640196
11
6.6288732496
21
18.5000000000
0
LINE
5
306
100
AcDbEntity
8
0
100
AcDbLine
62
7
6
CONTINUOUS
10
3.0271209364
20
-6.3770221132
11
2.8353241763
21
-6.7187406859
0
LINE
5
307
100
AcDbEntity
8
0
100
AcDbLine
62
7
6
CONTINUOUS
10
5.1937793924
20
-3.6064256693
11
4.0247040000
21
-4.5916130000
0
LINE
5
308
100
AcDbEntity
8
0
100
AcDbLine
62
7
6
CONTINUOUS
10
5.1395358997
20
-4.1638330845
11
4.0247040000
21
-5.1033090000
0
LINE
5
309
100
AcDbEntity
8
0
100
AcDbLine
62
7
6
CONTINUOUS
10
-7.0000000000
20
7.0000000000
11
7.0000000000
21
7.0000000000
0
LINE
5
30A
100
AcDbEntity
8
0
100
AcDbLine
62
7
6
CONTINUOUS
10
2.1280020000
20
9.3913340000
11
2.7669680000
21
8.3760740000
0
LINE
5
30B
100
AcDbEntity
8
0
100
AcDbLine
62
7
6
CONTINUOUS
10
2.1646190000
20
9.6260740000
11
2.7930240000
21
8.6107210000
0
LINE
5
30C
100
AcDbEntity
8
0
100
AcDbLine
62
7
6
CONTINUOUS
10
1.7972760000
20
13.0250460000
11
2.4554950000
21
10.9749490000
0
LINE
5
30D
100
AcDbEntity
8
0
100
AcDbLine
62
7
6
CONTINUOUS
10
7.5193672252
20
13.7454640196
11
7.2913520568
21
18.5000000000
0
LINE
5
30E
100
AcDbEntity
8
0
100
AcDbLine
62
7
6
CONTINUOUS
10
7.2259395951
20
20.1171572875
11
7.2259395951
21
19.0000000000
0
LINE
5
30F
100
AcDbEntity
8
0
100
AcDbLine
62
7
6
CONTINUOUS
10
7.2259395951
20
-19.0000000000
11
7.2259395951
21
-20.1171572875
0
LINE
5
310
100
AcDbEntity
8
0
100
AcDbLine
62
7
6
CONTINUOUS
10
7.2913520568
20
-18.5000000000
11
7.5193672252
21
-13.7454640196
0
LINE
5
311
100
AcDbEntity
8
0
100
AcDbLine
62
7
6
CONTINUOUS
10
4.6784370000
20
8.3760740000
11
4.4973270000
21
8.3760740000
0
LINE
5
312
100
AcDbEntity
8
0
100
AcDbLine
62
7
6
CONTINUOUS
10
3.7365691922
20
8.3760740000
11
3.2299560000
21
8.3760740000
0
LINE
5
313
100
AcDbEntity
8
0
100
AcDbLine
62
7
6
CONTINUOUS
10
2.9566640000
20
8.3760740000
11
2.7669680000
21
8.3760740000
0
LINE
5
314
100
AcDbEntity
8
0
100
AcDbLine
62
7
6
CONTINUOUS
10
2.1280020000
20
8.3760740000
11
1.9643620000
21
8.3760740000
0
LINE
5
315
100
AcDbEntity
8
0
100
AcDbLine
62
7
6
CONTINUOUS
10
1.7432810000
20
8.3760740000
11
0.8205610000
21
8.3760740000
0
LINE
5
316
100
AcDbEntity
8
0
100
AcDbLine
62
7
6
CONTINUOUS
10
-0.1717410000
20
8.3760740000
11
-0.3406120000
21
8.3760740000
0
LINE
5
317
100
AcDbEntity
8
0
100
AcDbLine
62
7
6
CONTINUOUS
10
-1.1257480000
20
8.3760740000
11
-1.3067590000
21
8.3760740000
0
LINE
5
318
100
AcDbEntity
8
0
100
AcDbLine
62
7
6
CONTINUOUS
10
-1.9056530000
20
8.3760740000
11
-2.0745240000
21
8.3760740000
0
LINE
5
319
100
AcDbEntity
8
0
100
AcDbLine
62
7
6
CONTINUOUS
10
-2.5445200000
20
8.3760740000
11
-2.7289850000
21
8.3760740000
0
LINE
5
31A
100
AcDbEntity
8
0
100
AcDbLine
62
7
6
CONTINUOUS
10
-3.4846110000
20
8.3760740000
11
-3.6587130000
21
8.3760740000
0
LINE
5
31B
100
AcDbEntity
8
0
100
AcDbLine
62
7
6
CONTINUOUS
10
-4.5256690000
20
8.3760740000
11
-4.6945400000
21
8.3760740000
0
LINE
5
31C
100
AcDbEntity
8
0
100
AcDbLine
62
7
6
CONTINUOUS
10
3.7139675341
20
8.5205660000
11
3.3988270000
21
8.5205660000
0
LINE
5
31D
100
AcDbEntity
8
0
100
AcDbLine
62
7
6
CONTINUOUS
10
1.7432810000
20
8.5257970000
11
0.9894310000
21
8.5257970000
0
LINE
5
31E
100
AcDbEntity
8
0
100
AcDbLine
62
7
6
CONTINUOUS
10
4.6784370000
20
8.5606380000
11
4.4973270000
21
8.5606380000
0
LINE
5
31F
100
AcDbEntity
8
0
100
AcDbLine
62
7
6
CONTINUOUS
10
-1.1257480000
20
8.5606380000
11
-1.3067590000
21
8.5606380000
0
LINE
5
320
100
AcDbEntity
8
0
100
AcDbLine
62
7
6
CONTINUOUS
10
-2.8526530000
20
8.7399700000
11
-3.3540350000
21
8.7399700000
0
LINE
5
321
100
AcDbEntity
8
0
100
AcDbLine
62
7
6
CONTINUOUS
10
-2.9136480000
20
8.8896940000
11
-3.3018240000
21
8.8896940000
0
LINE
5
322
100
AcDbEntity
8
0
100
AcDbLine
62
7
6
CONTINUOUS
10
3.4967570000
20
11.7676320000
11
3.9076430000
21
10.9749540000
0
LINE
5
323
100
AcDbEntity
8
0
100
AcDbLine
62
9
6
CONTINUOUS
10
9.3210496291
20
20.5123772007
11
9.3210496291
21
20.3208040737
0
LINE
5
324
100
AcDbEntity
8
0
100
AcDbLine
62
9
6
CONTINUOUS
10
9.3210496291
20
-20.5123772007
11
9.3210496291
21
-20.3208040737
0
LINE
5
325
100
AcDbEntity
8
0
100
AcDbLine
62
7
6
CONTINUOUS
10
9.6500000000
20
-20.6999084592
11
9.6500000000
21
20.6999084592
0
LINE
5
326
100
AcDbEntity
8
0
100
AcDbLine
62
7
6
CONTINUOUS
10
5.5263600000
20
-7.9207800000
11
5.3089320000
21
-8.2290180000
0
LINE
5
327
100
AcDbEntity
8
0
100
AcDbLine
62
7
6
CONTINUOUS
10
-6.5185374920
20
-20.4355023125
11
-6.6528501218
21
-20.5698149423
0
LINE
5
328
100
AcDbEntity
8
0
100
AcDbLine
62
7
6
CONTINUOUS
10
0.2216314292
20
8.9036100000
11
-0.1717410000
21
8.9036100000
0
LINE
5
329
100
AcDbEntity
8
0
100
AcDbLine
62
7
6
CONTINUOUS
10
-4.1322967192
20
8.9036100000
11
-4.5256690000
21
8.9036100000
0
LINE
5
32A
100
AcDbEntity
8
0
100
AcDbLine
62
7
6
CONTINUOUS
10
1.6736990000
20
8.9435830000
11
0.9894310000
21
8.9435830000
0
LINE
5
32B
100
AcDbEntity
8
0
100
AcDbLine
62
7
6
CONTINUOUS
10
0.1712316478
20
9.0481030000
11
-0.1717410000
21
9.0481030000
0
LINE
5
32C
100
AcDbEntity
8
0
100
AcDbLine
62
7
6
CONTINUOUS
10
-4.1826965007
20
9.0481030000
11
-4.5256690000
21
9.0481030000
0
LINE
5
32D
100
AcDbEntity
8
0
100
AcDbLine
62
7
6
CONTINUOUS
10
1.6736990000
20
9.0933060000
11
0.9894310000
21
9.0933060000
0
LINE
5
32E
100
AcDbEntity
8
0
100
AcDbLine
62
7
6
CONTINUOUS
10
1.7311410000
20
9.4763500000
11
0.9894310000
21
9.4763500000
0
LINE
5
32F
100
AcDbEntity
8
0
100
AcDbLine
62
7
6
CONTINUOUS
10
-1.4826370000
20
9.4763500000
11
-1.9056530000
21
9.4763500000
0
LINE
5
330
100
AcDbEntity
8
0
100
AcDbLine
62
7
6
CONTINUOUS
10
-2.0745240000
20
9.4763500000
11
-2.4975410000
21
9.4763500000
0
LINE
5
331
100
AcDbEntity
8
0
100
AcDbLine
62
7
6
CONTINUOUS
10
3.7139675341
20
9.4815810000
11
3.3988270000
21
9.4815810000
0
LINE
5
332
100
AcDbEntity
8
0
100
AcDbLine
62
7
6
CONTINUOUS
10
0.1712316478
20
9.4815810000
11
-0.1717410000
21
9.4815810000
0
LINE
5
333
100
AcDbEntity
8
0
100
AcDbLine
62
7
6
CONTINUOUS
10
-4.1826965007
20
9.4815810000
11
-4.5256690000
21
9.4815810000
0
LINE
5
334
100
AcDbEntity
8
0
100
AcDbLine
62
7
6
CONTINUOUS
10
3.7365691922
20
9.6260740000
11
3.2299560000
21
9.6260740000
0
LINE
5
335
100
AcDbEntity
8
0
100
AcDbLine
62
7
6
CONTINUOUS
10
2.9566640000
20
9.6260740000
11
2.7930240000
21
9.6260740000
0
LINE
5
336
100
AcDbEntity
8
0
100
AcDbLine
62
7
6
CONTINUOUS
10
2.1646190000
20
9.6260740000
11
1.9643620000
21
9.6260740000
0
LINE
5
337
100
AcDbEntity
8
0
100
AcDbLine
62
7
6
CONTINUOUS
10
1.7311410000
20
9.6260740000
11
0.8205610000
21
9.6260740000
0
LINE
5
338
100
AcDbEntity
8
0
100
AcDbLine
62
7
6
CONTINUOUS
10
0.2216453768
20
9.6260740000
11
-0.3406120000
21
9.6260740000
0
LINE
5
339
100
AcDbEntity
8
0
100
AcDbLine
62
7
6
CONTINUOUS
10
-1.4826370000
20
9.6260740000
11
-2.4975410000
21
9.6260740000
0
LINE
5
33A
100
AcDbEntity
8
0
100
AcDbLine
62
7
6
CONTINUOUS
10
-2.9971460000
20
9.6260740000
11
-3.1886180000
21
9.6260740000
0
LINE
5
33B
100
AcDbEntity
8
0
100
AcDbLine
62
7
6
CONTINUOUS
10
-4.1322827716
20
9.6260740000
11
-4.6945400000
21
9.6260740000
0
LINE
5
33C
100
AcDbEntity
8
0
100
AcDbLine
62
7
6
CONTINUOUS
10
-6.5185374920
20
20.4355023125
11
-6.6528501218
21
20.5698149423
0
LINE
5
33D
100
AcDbEntity
8
0
100
AcDbLine
62
7
6
CONTINUOUS
10
3.9330213953
20
11.8169411665
11
4.3694620000
21
10.9749590000
0
LINE
5
33E
100
AcDbEntity
8
0
100
AcDbLine
62
7
6
CONTINUOUS
10
11.1500000000
20
-21.8997711479
11
11.1500000000
21
21.8997711479
0
LINE
5
33F
100
AcDbEntity
8
0
100
AcDbLine
62
7
6
CONTINUOUS
10
4.3694620000
20
10.9749590000
11
3.9076430000
21
10.9749540000
0
LINE
5
340
100
AcDbEntity
8
0
100
AcDbLine
62
7
6
CONTINUOUS
10
1.1390470000
20
10.9749540000
11
0.7290310000
21
10.9749490000
0
LINE
5
341
100
AcDbEntity
8
0
100
AcDbLine
62
7
6
CONTINUOUS
10
0.4556890000
20
10.9749490000
11
0.0456740000
21
10.9749490000
0
LINE
5
342
100
AcDbEntity
8
0
100
AcDbLine
62
7
6
CONTINUOUS
10
-1.1396260000
20
10.9749490000
11
-1.5496410000
21
10.9749490000
0
LINE
5
343
100
AcDbEntity
8
0
100
AcDbLine
62
7
6
CONTINUOUS
10
3.1388580000
20
10.9749540000
11
2.7288370000
21
10.9749540000
0
LINE
5
344
100
AcDbEntity
8
0
100
AcDbLine
62
7
6
CONTINUOUS
10
-0.3419760000
20
10.9749540000
11
-0.7519810000
21
10.9749490000
0
LINE
5
345
100
AcDbEntity
8
0
100
AcDbLine
62
7
6
CONTINUOUS
10
-1.9596460000
20
10.9749490000
11
-2.3696620000
21
10.9749440000
0
LINE
5
346
100
AcDbEntity
8
0
100
AcDbLine
62
7
6
CONTINUOUS
10
2.4554950000
20
10.9749490000
11
2.0454750000
21
10.9749540000
0
LINE
5
347
100
AcDbEntity
8
0
100
AcDbLine
62
7
6
CONTINUOUS
10
-3.3012180000
20
10.9749490000
11
-3.7112480000
21
10.9749440000
0
LINE
5
348
100
AcDbEntity
8
0
100
AcDbLine
62
7
6
CONTINUOUS
10
1.9160380000
20
11.3781170000
11
1.2684890000
21
11.3781170000
0
LINE
5
349
100
AcDbEntity
8
0
100
AcDbLine
62
7
6
CONTINUOUS
10
1.7909670000
20
11.7676320000
11
1.3935540000
21
11.7676320000
0
LINE
5
34A
100
AcDbEntity
8
0
100
AcDbLine
62
7
6
CONTINUOUS
10
3.4967570000
20
11.7676320000
11
3.1389040000
21
11.7676380000
0
LINE
5
34B
100
AcDbEntity
8
0
100
AcDbLine
62
7
6
CONTINUOUS
10
3.6320450000
20
12.1469030000
11
3.1332050000
21
12.1469030000
0
LINE
5
34C
100
AcDbEntity
8
0
100
AcDbLine
62
7
6
CONTINUOUS
10
7.5121377902
20
-20.5123772007
11
7.3830351795
21
-20.9000000000
0
LINE
5
34D
100
AcDbEntity
8
0
100
AcDbLine
62
7
6
CONTINUOUS
10
3.6320450000
20
12.6457810000
11
3.1332000000
21
12.6457810000
0
LINE
5
34E
100
AcDbEntity
8
0
100
AcDbLine
62
7
6
CONTINUOUS
10
0.4556890000
20
13.0250410000
11
-0.1641440000
21
13.0250410000
0
LINE
5
34F
100
AcDbEntity
8
0
100
AcDbLine
62
7
6
CONTINUOUS
10
-0.9298080000
20
13.0250410000
11
-1.5496410000
21
13.0250410000
0
LINE
5
350
100
AcDbEntity
8
0
100
AcDbLine
62
7
6
CONTINUOUS
10
-1.9596410000
20
13.0250410000
11
-2.3696570000
21
13.0250410000
0
LINE
5
351
100
AcDbEntity
8
0
100
AcDbLine
62
7
6
CONTINUOUS
10
-2.6429980000
20
13.0250410000
11
-3.0530190000
21
13.0250410000
0
LINE
5
352
100
AcDbEntity
8
0
100
AcDbLine
62
7
6
CONTINUOUS
10
-3.9594420000
20
13.0250410000
11
-4.3694620000
21
13.0250410000
0
LINE
5
353
100
AcDbEntity
8
0
100
AcDbLine
62
7
6
CONTINUOUS
10
3.6889540000
20
13.0250460000
11
2.7288370000
21
13.0250460000
0
LINE
5
354
100
AcDbEntity
8
0
100
AcDbLine
62
7
6
CONTINUOUS
10
1.7972760000
20
13.0250460000
11
1.3872400000
21
13.0250460000
0
LINE
5
355
100
AcDbEntity
8
0
100
AcDbLine
62
7
6
CONTINUOUS
10
7.5193672252
20
13.7454640196
11
6.5148743481
21
13.7454640196
0
LINE
5
356
100
AcDbEntity
8
0
100
AcDbLine
62
7
6
CONTINUOUS
10
0.4681608314
20
13.7454640196
11
-0.4681608314
21
13.7454640196
0
LINE
5
357
100
AcDbEntity
8
0
100
AcDbLine
62
7
6
CONTINUOUS
10
-6.5148743481
20
13.7454640196
11
-7.5193672252
21
13.7454640196
0
LINE
5
358
100
AcDbEntity
8
0
100
AcDbLine
62
7
6
CONTINUOUS
10
7.5121377902
20
20.5123772007
11
7.3830351795
21
20.9000000000
0
LINE
5
359
100
AcDbEntity
8
0
100
AcDbLine
62
7
6
CONTINUOUS
10
0.4644976875
20
-20.4355023125
11
0.3301850577
21
-20.5698149423
0
LINE
5
35A
100
AcDbEntity
8
0
100
AcDbLine
62
7
6
CONTINUOUS
10
-6.9339198284
20
-21.2000000000
11
-6.8673532458
21
-21.1650925288
0
LINE
5
35B
100
AcDbEntity
8
0
100
AcDbLine
62
7
6
CONTINUOUS
10
-6.9339198284
20
21.2000000000
11
-6.8673532458
21
21.1650925288
0
LINE
5
35C
100
AcDbEntity
8
0
100
AcDbLine
62
7
6
CONTINUOUS
10
0.4644976875
20
20.4355023125
11
0.3301850577
21
20.5698149423
0
LINE
5
35D
100
AcDbEntity
8
0
100
AcDbLine
62
7
6
CONTINUOUS
10
-7.3830351795
20
-20.9000000000
11
-7.2370140210
21
-20.8344534339
0
LINE
5
35E
100
AcDbEntity
8
0
100
AcDbLine
62
7
6
CONTINUOUS
10
-7.2370140210
20
20.8344534339
11
-7.3830351795
21
20.9000000000
0
LINE
5
35F
100
AcDbEntity
8
0
100
AcDbLine
62
7
6
CONTINUOUS
10
-6.6288732496
20
18.5000000000
11
-7.2913520568
21
18.5000000000
0
LINE
5
360
100
AcDbEntity
8
0
100
AcDbLine
62
7
6
CONTINUOUS
10
6.6288732496
20
18.5000000000
11
7.2913520568
21
18.5000000000
0
LINE
5
361
100
AcDbEntity
8
0
100
AcDbLine
62
9
6
CONTINUOUS
10
-7.2259395951
20
19.0000000000
11
-6.6615769896
21
19.0000000000
0
LINE
5
362
100
AcDbEntity
8
0
100
AcDbLine
62
9
6
CONTINUOUS
10
6.6615769896
20
19.0000000000
11
7.2259395951
21
19.0000000000
0
LINE
5
363
100
AcDbEntity
8
0
100
AcDbLine
62
7
6
CONTINUOUS
10
-0.3301850577
20
19.5000000000
11
0.3301850577
21
19.5000000000
0
LINE
5
364
100
AcDbEntity
8
0
100
AcDbLine
62
9
6
CONTINUOUS
10
7.2259395951
20
20.1171572875
11
6.6615769896
21
20.1171572875
0
LINE
5
365
100
AcDbEntity
8
0
100
AcDbLine
62
9
6
CONTINUOUS
10
-6.6615769896
20
20.1171572875
11
-7.2259395951
21
20.1171572875
0
LINE
5
366
100
AcDbEntity
8
0
100
AcDbLine
62
9
6
CONTINUOUS
10
-6.5168087892
20
20.2436317461
11
-0.4662263902
21
20.2436317461
0
LINE
5
367
100
AcDbEntity
8
0
100
AcDbLine
62
9
6
CONTINUOUS
10
0.4662263902
20
20.2436317461
11
6.5168087892
21
20.2436317461
0
LINE
5
368
100
AcDbEntity
8
0
100
AcDbLine
62
9
6
CONTINUOUS
10
7.2269620892
20
20.2585786438
11
6.6610657815
21
20.2585786438
0
LINE
5
369
100
AcDbEntity
8
0
100
AcDbLine
62
9
6
CONTINUOUS
10
-6.6610657815
20
20.2585786438
11
-7.2269620892
21
20.2585786438
0
LINE
5
36A
100
AcDbEntity
8
0
100
AcDbLine
62
9
6
CONTINUOUS
10
9.3210496061
20
20.3208040737
11
7.5154431960
21
20.3208040737
0
LINE
5
36B
100
AcDbEntity
8
0
100
AcDbLine
62
9
6
CONTINUOUS
10
-7.5154431960
20
20.3208040737
11
-9.3210496061
21
20.3208040737
0
LINE
5
36C
100
AcDbEntity
8
0
100
AcDbLine
62
7
6
CONTINUOUS
10
-6.5185374920
20
20.4355023125
11
-0.4644976875
21
20.4355023125
0
LINE
5
36D
100
AcDbEntity
8
0
100
AcDbLine
62
7
6
CONTINUOUS
10
0.4644976875
20
20.4355023125
11
6.5185374920
21
20.4355023125
0
LINE
5
36E
100
AcDbEntity
8
0
100
AcDbLine
62
9
6
CONTINUOUS
10
9.3210496291
20
20.5123772007
11
7.5121377902
21
20.5123772007
0
LINE
5
36F
100
AcDbEntity
8
0
100
AcDbLine
62
9
6
CONTINUOUS
10
-7.5121377902
20
20.5123772007
11
-9.3210496291
21
20.5123772007
0
LINE
5
370
100
AcDbEntity
8
0
100
AcDbLine
62
7
6
CONTINUOUS
10
-6.6528501218
20
20.5698149423
11
-0.3301850577
21
20.5698149423
0
LINE
5
371
100
AcDbEntity
8
0
100
AcDbLine
62
7
6
CONTINUOUS
10
0.3301850577
20
20.5698149423
11
6.6528501218
21
20.5698149423
0
LINE
5
372
100
AcDbEntity
8
0
100
AcDbLine
62
7
6
CONTINUOUS
10
9.4501522399
20
20.9000000000
11
7.3830351795
21
20.9000000000
0
LINE
5
373
100
AcDbEntity
8
0
100
AcDbLine
62
7
6
CONTINUOUS
10
-7.3830351795
20
20.9000000000
11
-9.4501522399
21
20.9000000000
0
LINE
5
374
100
AcDbEntity
8
0
100
AcDbLine
62
7
6
CONTINUOUS
10
3.0000000000
20
23.5000000000
11
2.7812783412
21
23.4563623377
0
LINE
5
375
100
AcDbEntity
8
0
100
AcDbLine
62
7
6
CONTINUOUS
10
-6.6528501218
20
21.1650925288
11
-3.7500000000
21
21.1650925288
0
LINE
5
376
100
AcDbEntity
8
0
100
AcDbLine
62
7
6
CONTINUOUS
10
3.7500000000
20
21.1650925288
11
6.6528501218
21
21.1650925288
0
LINE
5
377
100
AcDbEntity
8
0
100
AcDbLine
62
7
6
CONTINUOUS
10
6.9339198284
20
21.2000000000
11
-6.9339198284
21
21.2000000000
0
LINE
5
378
100
AcDbEntity
8
0
100
AcDbLine
62
7
6
CONTINUOUS
10
3.1000000000
20
22.2000000000
11
-3.1000000000
21
22.2000000000
0
LINE
5
379
100
AcDbEntity
8
0
100
AcDbLine
62
7
6
CONTINUOUS
10
10.6503805997
20
22.4000000000
11
5.5500000000
21
22.4000000000
0
LINE
5
37A
100
AcDbEntity
8
0
100
AcDbLine
62
7
6
CONTINUOUS
10
-5.5500000000
20
22.4000000000
11
-10.6503805997
21
22.4000000000
0
LINE
5
37B
100
AcDbEntity
8
0
100
AcDbLine
62
7
6
CONTINUOUS
10
-3.0000000000
20
23.5000000000
11
-2.7812783412
21
23.4563623377
0
LINE
5
37C
100
AcDbEntity
8
0
100
AcDbLine
62
7
6
CONTINUOUS
10
3.9526845545
20
23.4301797403
11
-3.9526845545
21
23.4301797403
0
LINE
5
37D
100
AcDbEntity
8
0
100
AcDbLine
62
7
6
CONTINUOUS
10
2.7812783412
20
23.4563623377
11
-2.7812783412
21
23.4563623377
0
LINE
5
37E
100
AcDbEntity
8
0
100
AcDbLine
62
7
6
CONTINUOUS
10
3.9733373476
20
23.5000000000
11
3.0000000000
21
23.5000000000
0
LINE
5
37F
100
AcDbEntity
8
0
100
AcDbLine
62
7
6
CONTINUOUS
10
-3.0000000000
20
23.5000000000
11
-3.9733373476
21
23.5000000000
0
ARC
5
380
100
AcDbEntity
8
0
100
AcDbCircle
62
7
6
CONTINUOUS
10
3.8000000000
20
-5.0000000000
40
1.5790919977
100
AcDbArc
50
299.3041227603
51
31.9732907039
0
ARC
5
381
100
AcDbEntity
8
0
100
AcDbCircle
62
7
6
CONTINUOUS
10
3.8000000000
20
-5.0000000000
40
1.5790921275
100
AcDbArc
50
148.0267086216
51
240.6958772397
0
ARC
5
382
100
AcDbEntity
8
0
100
AcDbCircle
62
7
6
CONTINUOUS
10
3.8000000000
20
-5.0000000000
40
1.9709563643
100
AcDbArc
50
134.9002846268
51
240.6958542366
0
ARC
5
383
100
AcDbEntity
8
0
100
AcDbCircle
62
7
6
CONTINUOUS
10
3.8000000000
20
-5.0000000000
40
1.9709567246
100
AcDbArc
50
299.3041457634
51
44.9957848293
0
ARC
5
384
100
AcDbEntity
8
0
100
AcDbCircle
62
7
6
CONTINUOUS
10
3.7206430000
20
-9.9460930000
40
2.3390187052
100
AcDbArc
50
47.2312712626
51
84.2012841963
0
ARC
5
385
100
AcDbEntity
8
0
100
AcDbCircle
62
7
6
CONTINUOUS
10
3.9047220000
20
-9.5672240000
40
2.3109495123
100
AcDbArc
50
45.4348886633
51
67.5658613447
0
CIRCLE
5
386
100
AcDbEntity
8
0
100
AcDbCircle
62
7
6
CONTINUOUS
10
3.8000000000
20
-5.0000000000
40
2.2037600000
0
ARC
5
387
100
AcDbEntity
8
0
100
AcDbCircle
62
7
6
CONTINUOUS
10
0.4175560000
20
-5.0000000000
40
1.7999968808
100
AcDbArc
50
192.0247203293
51
273.1847440612
0
ARC
5
388
100
AcDbEntity
8
0
100
AcDbCircle
62
7
6
CONTINUOUS
10
0.4175560000
20
-5.0000000000
40
2.5499986575
100
AcDbArc
50
87.7525291980
51
272.2474708020
0
ARC
5
389
100
AcDbEntity
8
0
100
AcDbCircle
62
7
6
CONTINUOUS
10
0.4175560000
20
-5.0000000000
40
1.7999999246
100
AcDbArc
50
86.8152613297
51
167.9753003079
0
ARC
5
38A
100
AcDbEntity
8
0
100
AcDbCircle
62
7
6
CONTINUOUS
10
-3.9675540000
20
-5.0000000000
40
1.7999999246
100
AcDbArc
50
86.8152613297
51
269.0424241889
0
ARC
5
38B
100
AcDbEntity
8
0
100
AcDbCircle
62
7
6
CONTINUOUS
10
-3.9675540000
20
-5.0000000000
40
2.5499985399
100
AcDbArc
50
87.7525290943
51
272.2474709057
0
ARC
5
38C
100
AcDbEntity
8
0
100
AcDbCircle
62
7
6
CONTINUOUS
10
-11.2500000000
20
-0.0000000000
40
28.0000000000
100
AcDbArc
50
302.9352304972
51
304.1210936517
0
ARC
5
38D
100
AcDbEntity
8
0
100
AcDbCircle
62
7
6
CONTINUOUS
10
-11.2500000000
20
-0.0000000000
40
28.0000000000
100
AcDbArc
50
55.8789063483
51
57.0647695028
0
ARC
5
38E
100
AcDbEntity
8
0
100
AcDbCircle
62
7
6
CONTINUOUS
10
11.2500000000
20
0.0000000000
40
28.0000000000
100
AcDbArc
50
235.8789063483
51
237.0647695028
0
ARC
5
38F
100
AcDbEntity
8
0
100
AcDbCircle
62
7
6
CONTINUOUS
10
11.2500000000
20
0.0000000000
40
28.0000000000
100
AcDbArc
50
122.9352304972
51
124.1210936517
0
ARC
5
390
100
AcDbEntity
8
0
100
AcDbCircle
62
7
6
CONTINUOUS
10
11.2500000000
20
0.0000000000
40
27.8603594806
100
AcDbArc
50
130.4530599043
51
130.5635786974
0
ARC
5
391
100
AcDbEntity
8
0
100
AcDbCircle
62
7
6
CONTINUOUS
10
-11.2500000000
20
-0.0000000000
40
27.8603594806
100
AcDbArc
50
49.4364213026
51
49.5469400957
0
ARC
5
392
100
AcDbEntity
8
0
100
AcDbCircle
62
7
6
CONTINUOUS
10
11.2500000000
20
0.0000000000
40
27.8603594806
100
AcDbArc
50
229.4364213026
51
229.5469400957
0
ARC
5
393
100
AcDbEntity
8
0
100
AcDbCircle
62
7
6
CONTINUOUS
10
3.6320450000
20
12.3963410000
40
0.2494390000
100
AcDbArc
50
270.0000000000
51
90.0000000000
0
ARC
5
394
100
AcDbEntity
8
0
100
AcDbCircle
62
7
6
CONTINUOUS
10
4.9500000000
20
-23.1000000000
40
0.5000000000
100
AcDbArc
50
60.8875772240
51
189.1962815790
0
ARC
5
395
100
AcDbEntity
8
0
100
AcDbCircle
62
7
6
CONTINUOUS
10
4.9500000000
20
23.1000000000
40
0.5000000000
100
AcDbArc
50
170.8037184210
51
299.1124227760
0
ARC
5
396
100
AcDbEntity
8
0
100
AcDbCircle
62
7
6
CONTINUOUS
10
-4.9500000000
20
-23.1000000000
40
0.5000000000
100
AcDbArc
50
350.8037184210
51
119.1124227760
0
ARC
5
397
100
AcDbEntity
8
0
100
AcDbCircle
62
7
6
CONTINUOUS
10
-4.9500000000
20
23.1000000000
40
0.5000000000
100
AcDbArc
50
240.8875772240
51
9.1962815790
0
ARC
5
398
100
AcDbEntity
8
0
100
AcDbCircle
62
7
6
CONTINUOUS
10
3.6889540000
20
12.3963410000
40
0.6287074522
100
AcDbArc
50
292.8428571402
51
90.0000000000
0
ARC
5
399
100
AcDbEntity
8
0
100
AcDbCircle
62
7
6
CONTINUOUS
10
3.8000000000
20
-5.0000000000
40
2.6237424326
100
AcDbArc
50
292.0885393584
51
273.4297246723
0
ARC
5
39A
100
AcDbEntity
8
0
100
AcDbCircle
62
7
6
CONTINUOUS
10
11.2500000000
20
0.0000000000
40
28.0000000000
100
AcDbArc
50
125.9627651514
51
131.7180504312
0
ARC
5
39B
100
AcDbEntity
8
0
100
AcDbCircle
62
7
6
CONTINUOUS
10
-11.2500000000
20
-0.0000000000
40
28.0000000000
100
AcDbArc
50
48.2819495688
51
54.0372348486
0
ARC
5
39C
100
AcDbEntity
8
0
100
AcDbCircle
62
7
6
CONTINUOUS
10
-11.2500000000
20
-0.0000000000
40
28.0000000000
100
AcDbArc
50
305.9627651514
51
311.7180504312
0
ARC
5
39D
100
AcDbEntity
8
0
100
AcDbCircle
62
7
6
CONTINUOUS
10
-11.2500000000
20
-0.0000000000
40
27.9301797403
100
AcDbArc
50
302.9775446409
51
304.2022576811
0
ARC
5
39E
100
AcDbEntity
8
0
100
AcDbCircle
62
7
6
CONTINUOUS
10
-11.2500000000
20
-0.0000000000
40
27.9301797403
100
AcDbArc
50
305.8816011220
51
310.6207502002
0
ARC
5
39F
100
AcDbEntity
8
0
100
AcDbCircle
62
7
6
CONTINUOUS
10
11.2500000000
20
0.0000000000
40
27.9301797403
100
AcDbArc
50
235.7977423189
51
237.0224553591
0
ARC
5
3A0
100
AcDbEntity
8
0
100
AcDbCircle
62
7
6
CONTINUOUS
10
11.2500000000
20
0.0000000000
40
27.9301797403
100
AcDbArc
50
229.3792497998
51
234.1183988780
0
ARC
5
3A1
100
AcDbEntity
8
0
100
AcDbCircle
62
7
6
CONTINUOUS
10
11.2500000000
20
0.0000000000
40
27.9301797403
100
AcDbArc
50
125.8816011220
51
130.6207502002
0
ARC
5
3A2
100
AcDbEntity
8
0
100
AcDbCircle
62
7
6
CONTINUOUS
10
11.2500000000
20
0.0000000000
40
27.9301797403
100
AcDbArc
50
122.9775446409
51
124.2022576811
0
ARC
5
3A3
100
AcDbEntity
8
0
100
AcDbCircle
62
7
6
CONTINUOUS
10
-11.2500000000
20
-0.0000000000
40
27.9301797403
100
AcDbArc
50
55.7977423189
51
57.0224553591
0
ARC
5
3A4
100
AcDbEntity
8
0
100
AcDbCircle
62
7
6
CONTINUOUS
10
-11.2500000000
20
-0.0000000000
40
27.9301797403
100
AcDbArc
50
49.3792497998
51
54.1183988780
0
ARC
5
3A5
100
AcDbEntity
8
0
100
AcDbCircle
62
7
6
CONTINUOUS
10
11.2500000000
20
0.0000000000
40
28.0000000000
100
AcDbArc
50
228.2819495688
51
234.0372348486
0
SPLINE
5
3A6
100
AcDbEntity
8
0
100
AcDbSpline
62
7
6
CONTINUOUS
70
0
71
3
72
11
73
7
74
5
42
0.0000001000
43
0.0000001000
44
0.0000000001
12
-0.3118625697
22
-0.2971433160
32
0.0000000000
13
-0.4041593536
23
-0.1490222451
33
0.0000000000
40
0.0000000000
40
0.0000000000
40
0.0000000000
40
0.0000000000
40
0.2305508700
40
0.4998241452
40
0.7693960521
40
1.0000000000
40
1.0000000000
40
1.0000000000
40
1.0000000000
10
2.4846453408
20
1.9188108564
30
0.0000000000
10
2.4606786118
20
1.8959753064
30
0.0000000000
10
2.4046511326
20
1.8507077571
30
0.0000000000
10
2.3113550818
20
1.7913173225
30
0.0000000000
10
2.2143194833
20
1.7383450940
30
0.0000000000
10
2.1485356207
20
1.7091580207
30
0.0000000000
10
2.1174687065
20
1.6977029813
30
0.0000000000
11
2.4846453408
21
1.9188108564
31
0.0000000000
11
2.4080171073
21
1.8556371926
31
0.0000000000
11
2.3107384433
21
1.7924635128
31
0.0000000000
11
2.2086190694
21
1.7371865361
31
0.0000000000
11
2.1174687065
21
1.6977029813
31
0.0000000000
0
SPLINE
5
3A7
100
AcDbEntity
8
0
100
AcDbSpline
62
7
6
CONTINUOUS
70
0
71
3
72
11
73
7
74
5
42
0.0000001000
43
0.0000001000
44
0.0000000001
12
0.5259849815
22
0.2471817985
32
0.0000000000
13
0.2579415580
23
0.5207928523
33
0.0000000000
40
0.0000000000
40
0.0000000000
40
0.0000000000
40
0.0000000000
40
0.2839051795
40
0.5542495700
40
0.7973834611
40
1.0000000000
40
1.0000000000
40
1.0000000000
40
1.0000000000
10
2.1174687065
20
1.8750000080
30
0.0000000000
10
2.1672453267
20
1.8983920722
30
0.0000000000
10
2.2617943980
20
1.9501656728
30
0.0000000000
10
2.3850188266
20
2.0442237800
30
0.0000000000
10
2.4830169497
20
2.1429940786
30
0.0000000000
10
2.5324841841
20
2.2148262516
30
0.0000000000
10
2.5499052593
20
2.2500000000
30
0.0000000000
11
2.1174687065
21
1.8750000080
31
0.0000000000
11
2.2617731506
21
1.9550020875
31
0.0000000000
11
2.3867065980
21
2.0502760153
31
0.0000000000
11
2.4851302378
21
2.1516619375
31
0.0000000000
11
2.5499052593
21
2.2500000000
31
0.0000000000
0
SPLINE
5
3A8
100
AcDbEntity
8
0
100
AcDbSpline
62
7
6
CONTINUOUS
70
0
71
3
72
15
73
11
74
9
42
0.0000001000
43
0.0000001000
44
0.0000000001
12
0.5792929852
22
0.8196135853
32
0.0000000000
13
-0.5797271198
23
0.8193065718
33
0.0000000000
40
0.0000000000
40
0.0000000000
40
0.0000000000
40
0.0000000000
40
0.1935704442
40
0.3317666386
40
0.4119884436
40
0.4997810785
40
0.5878017450
40
0.6682036382
40
0.8066129446
40
1.0000000000
40
1.0000000000
40
1.0000000000
40
1.0000000000
10
0.3582708271
20
0.9969086951
30
0.0000000000
10
0.3956488272
20
1.0497930171
30
0.0000000000
10
0.4234826829
20
1.1624434121
30
0.0000000000
10
0.4386146375
20
1.2983685262
30
0.0000000000
10
0.4435229006
20
1.4008820184
30
0.0000000000
10
0.4447232704
20
1.4865159172
30
0.0000000000
10
0.4435244351
20
1.5722091715
30
0.0000000000
10
0.4386366313
20
1.6749343609
30
0.0000000000
10
0.4235541112
20
1.8109169206
30
0.0000000000
10
0.3959021834
20
1.9236611577
30
0.0000000000
10
0.3585316099
20
1.9764755861
30
0.0000000000
11
0.3582708271
21
0.9969086951
31
0.0000000000
11
0.4228013646
21
1.1801588174
31
0.0000000000
11
0.4389339990
21
1.3179203384
31
0.0000000000
11
0.4429671576
21
1.3983352139
31
0.0000000000
11
0.4443115438
21
1.4864394993
31
0.0000000000
11
0.4429712323
21
1.5747727409
31
0.0000000000
11
0.4389502979
21
1.6553692023
31
0.0000000000
11
0.4228665603
21
1.7933517845
31
0.0000000000
11
0.3585316099
21
1.9764755861
31
0.0000000000
0
SPLINE
5
3A9
100
AcDbEntity
8
0
100
AcDbSpline
62
7
6
CONTINUOUS
70
0
71
3
72
13
73
9
74
7
42
0.0000001000
43
0.0000001000
44
0.0000000001
12
-0.5824027725
22
0.8230879713
32
0.0000000000
13
0.0000000000
23
-1.0082989625
33
0.0000000000
40
0.0000000000
40
0.0000000000
40
0.0000000000
40
0.0000000000
40
0.1315187129
40
0.2523835064
40
0.3682015711
40
0.4866487322
40
0.6917135993
40
1.0000000000
40
1.0000000000
40
1.0000000000
40
1.0000000000
10
0.3585316099
20
1.9764755861
30
0.0000000000
10
0.3329993222
20
2.0125594097
30
0.0000000000
10
0.2711587452
20
2.0762700955
30
0.0000000000
10
0.1457521534
20
2.1071025129
30
0.0000000000
10
0.0243730952
20
2.0803382337
30
0.0000000000
10
-0.0873239078
20
1.9737444141
30
0.0000000000
10
-0.1441506748
20
1.7615999226
30
0.0000000000
10
-0.1523504868
20
1.5900544520
30
0.0000000000
10
-0.1523504868
20
1.4864394993
30
0.0000000000
11
0.3585316099
21
1.9764755861
31
0.0000000000
11
0.2619986138
21
2.0673977561
31
0.0000000000
11
0.1439594933
21
2.0977051460
31
0.0000000000
11
0.0302843669
21
2.0709590200
31
0.0000000000
11
-0.0581767167
21
1.9907206418
31
0.0000000000
11
-0.1288070443
21
1.7963914827
31
0.0000000000
11
-0.1523504868
21
1.4864394993
31
0.0000000000
0
SPLINE
5
3AA
100
AcDbEntity
8
0
100
AcDbSpline
62
7
6
CONTINUOUS
70
0
71
3
72
9
73
5
74
3
42
0.0000001000
43
0.0000001000
44
0.0000000001
12
0.0000000000
22
-0.5018261880
32
0.0000000000
13
0.2904457598
23
-0.4092319435
33
0.0000000000
40
0.0000000000
40
0.0000000000
40
0.0000000000
40
0.0000000000
40
0.6130910028
40
1.0000000000
40
1.0000000000
40
1.0000000000
40
1.0000000000
10
-0.1523504868
20
1.4864394993
30
0.0000000000
10
-0.1523504868
20
1.3838844590
30
0.0000000000
10
-0.1455018463
20
1.2183161729
30
0.0000000000
10
-0.1037684467
20
1.0491819353
30
0.0000000000
10
-0.0663097541
20
0.9964034284
30
0.0000000000
11
-0.1523504868
21
1.4864394993
31
0.0000000000
11
-0.1308403036
21
1.1795272340
31
0.0000000000
11
-0.0663097541
21
0.9964034284
31
0.0000000000
0
SPLINE
5
3AB
100
AcDbEntity
8
0
100
AcDbSpline
62
7
6
CONTINUOUS
70
0
71
3
72
11
73
7
74
5
42
0.0000001000
43
0.0000001000
44
0.0000000001
12
0.2923074059
22
-0.4118549635
32
0.0000000000
13
0.2914988631
23
0.4124276219
33
0.0000000000
40
0.0000000000
40
0.0000000000
40
0.0000000000
40
0.0000000000
40
0.2619386332
40
0.4997102280
40
0.7375451078
40
1.0000000000
40
1.0000000000
40
1.0000000000
40
1.0000000000
10
-0.0663097541
20
0.9964034284
30
0.0000000000
10
-0.0407875533
20
0.9604431863
30
0.0000000000
10
0.0201546920
20
0.8972385753
30
0.0000000000
10
0.1459911751
20
0.8646483193
30
0.0000000000
10
0.2719166761
20
0.8973707182
30
0.0000000000
10
0.3327690595
20
0.9608274794
30
0.0000000000
10
0.3582708271
20
0.9969086951
30
0.0000000000
11
-0.0663097541
21
0.9964034284
31
0.0000000000
11
0.0297831829
21
0.9054812465
31
0.0000000000
11
0.1459805285
21
0.8751738526
31
0.0000000000
11
0.2621778940
21
0.9056075632
31
0.0000000000
11
0.3582708271
21
0.9969086951
31
0.0000000000
0
SPLINE
5
3AC
100
AcDbEntity
8
0
100
AcDbSpline
62
7
6
CONTINUOUS
70
0
71
3
72
14
73
10
74
8
42
0.0000001000
43
0.0000001000
44
0.0000000001
12
0.0000000000
22
1.0097301868
32
0.0000000000
13
0.0000000000
23
-1.0097301868
33
0.0000000000
40
0.0000000000
40
0.0000000000
40
0.0000000000
40
0.0000000000
40
0.1414355073
40
0.2656624304
40
0.4858938611
40
0.6021530331
40
0.7243351706
40
0.8558136139
40
1.0000000000
40
1.0000000000
40
1.0000000000
40
1.0000000000
10
-0.7239777469
20
1.7551395421
30
0.0000000000
10
-0.7239777469
20
1.8027434424
30
0.0000000000
10
-0.7346905338
20
1.8934696091
30
0.0000000000
10
-0.8150633967
20
2.0405522934
30
0.0000000000
10
-0.9745394594
20
2.1152551842
30
0.0000000000
10
-1.1300264286
20
2.0801340947
30
0.0000000000
10
-1.2306133946
20
2.0009933624
30
0.0000000000
10
-1.3003005023
20
1.8827899407
30
0.0000000000
10
-1.3122948540
20
1.7884137510
30
0.0000000000
10
-1.3122948540
20
1.7398839688
30
0.0000000000
11
-0.7239777469
21
1.7551395421
31
0.0000000000
11
-0.7448033830
21
1.8964246257
31
0.0000000000
11
-0.8072802916
21
2.0051938506
31
0.0000000000
11
-1.0094979962
21
2.0977051460
31
0.0000000000
11
-1.1242162460
21
2.0728007669
31
0.0000000000
11
-1.2223913392
21
1.9980876297
31
0.0000000000
11
-1.2898189753
21
1.8837279563
31
0.0000000000
11
-1.3122948540
21
1.7398839688
31
0.0000000000
0
SPLINE
5
3AD
100
AcDbEntity
8
0
100
AcDbSpline
62
7
6
CONTINUOUS
70
0
71
3
72
13
73
9
74
7
42
0.0000001000
43
0.0000001000
44
0.0000000001
12
0.0000000000
22
-0.6880126241
32
0.0000000000
13
0.5210871705
23
0.4587627398
33
0.0000000000
40
0.0000000000
40
0.0000000000
40
0.0000000000
40
0.0000000000
40
0.1900084602
40
0.3653850145
40
0.5350126430
40
0.7075530031
40
0.8787962185
40
1.0000000000
40
1.0000000000
40
1.0000000000
40
1.0000000000
10
-1.3122948540
20
1.7398839688
30
0.0000000000
10
-1.3122948540
20
1.6963078957
30
0.0000000000
10
-1.3006313297
20
1.6109774808
30
0.0000000000
10
-1.2337147559
20
1.5041613406
30
0.0000000000
10
-1.1339142755
20
1.4333917792
30
0.0000000000
10
-1.0148615197
20
1.4127966430
30
0.0000000000
10
-0.9071580372
20
1.4313851207
30
0.0000000000
10
-0.8490888709
20
1.4679543485
30
0.0000000000
10
-0.8280362923
20
1.4864889415
30
0.0000000000
11
-1.3122948540
21
1.7398839688
31
0.0000000000
11
-1.2909598803
21
1.6109084432
31
0.0000000000
11
-1.2269549593
21
1.5086220053
31
0.0000000000
11
-1.1311920636
21
1.4419155848
31
0.0000000000
11
-1.0145831661
21
1.4196801113
31
0.0000000000
11
-0.8988829258
21
1.4419155848
31
0.0000000000
11
-0.8280362923
21
1.4864889415
31
0.0000000000
0
SPLINE
5
3AE
100
AcDbEntity
8
0
100
AcDbSpline
62
7
6
CONTINUOUS
70
0
71
3
72
9
73
5
74
3
42
0.0000001000
43
0.0000001000
44
0.0000000001
12
0.0900193540
22
0.0792526238
32
0.0000000000
13
0.0495432505
23
0.1109938596
33
0.0000000000
40
0.0000000000
40
0.0000000000
40
0.0000000000
40
0.0000000000
40
0.2620226325
40
1.0000000000
40
1.0000000000
40
1.0000000000
40
1.0000000000
10
-0.8280362923
20
1.4864889415
30
0.0000000000
10
-0.8201739230
20
1.4934109352
30
0.0000000000
10
-0.7917718348
20
1.5216269021
30
0.0000000000
10
-0.7705193625
20
1.5560277195
30
0.0000000000
10
-0.7583320967
20
1.5833313716
30
0.0000000000
11
-0.8280362923
21
1.4864889415
31
0.0000000000
11
-0.8057808062
21
1.5086220053
31
0.0000000000
11
-0.7583320967
21
1.5833313716
31
0.0000000000
0
SPLINE
5
3AF
100
AcDbEntity
8
0
100
AcDbSpline
62
7
6
CONTINUOUS
70
0
71
3
72
8
73
4
74
2
42
0.0000001000
43
0.0000001000
44
0.0000000001
12
0.0717047363
22
0.1606431825
32
0.0000000000
13
0.0000000000
23
0.1720225038
33
0.0000000000
40
0.0000000000
40
0.0000000000
40
0.0000000000
40
0.0000000000
40
1.0000000000
40
1.0000000000
40
1.0000000000
40
1.0000000000
10
-0.7583320967
20
1.5833313716
30
0.0000000000
10
-0.7344305179
20
1.6368790991
30
0.0000000000
10
-0.7239777469
20
1.6977987075
30
0.0000000000
10
-0.7239777469
20
1.7551395421
30
0.0000000000
11
-0.7583320967
21
1.5833313716
31
0.0000000000
11
-0.7239777469
21
1.7551395421
31
0.0000000000
0
SPLINE
5
3B0
100
AcDbEntity
8
0
100
AcDbSpline
62
7
6
CONTINUOUS
70
0
71
3
72
14
73
10
74
8
42
0.0000001000
43
0.0000001000
44
0.0000000001
12
0.1135233069
22
-0.6284259406
32
0.0000000000
13
0.3983771687
23
0.5010425354
33
0.0000000000
40
0.0000000000
40
0.0000000000
40
0.0000000000
40
0.0000000000
40
0.3118590619
40
0.4423694836
40
0.5847729012
40
0.7100429516
40
0.8276458202
40
0.9430921847
40
1.0000000000
40
1.0000000000
40
1.0000000000
40
1.0000000000
10
-1.2976912378
20
1.1109179416
30
0.0000000000
10
-1.2858901472
20
1.0455911668
30
0.0000000000
10
-1.2512444687
20
0.9462814101
30
0.0000000000
10
-1.1392971325
20
0.8828087652
30
0.0000000000
10
-1.0538959821
20
0.8717837992
30
0.0000000000
10
-0.9715479970
20
0.8807689940
30
0.0000000000
10
-0.9002905327
20
0.9108854469
30
0.0000000000
10
-0.8512841359
20
0.9494155333
30
0.0000000000
10
-0.8267835349
20
0.9769288459
30
0.0000000000
10
-0.8192266101
20
0.9864332579
30
0.0000000000
11
-1.2976912378
21
1.1109179416
31
0.0000000000
11
-1.2121720549
21
0.9310620311
31
0.0000000000
11
-1.1401359727
21
0.8891458972
31
0.0000000000
11
-1.0502772760
21
0.8751738526
31
0.0000000000
11
-0.9708701232
21
0.8848715672
31
0.0000000000
11
-0.9016333340
21
0.9139647109
31
0.0000000000
11
-0.8434674201
21
0.9592628165
31
0.0000000000
11
-0.8192266101
21
0.9864332579
31
0.0000000000
0
SPLINE
5
3B1
100
AcDbEntity
8
0
100
AcDbSpline
62
7
6
CONTINUOUS
70
0
71
3
72
8
73
4
74
2
42
0.0000001000
43
0.0000001000
44
0.0000000001
12
0.0083145997
22
0.0104573465
32
0.0000000000
13
0.0078805660
23
0.0107841557
33
0.0000000000
40
0.0000000000
40
0.0000000000
40
0.0000000000
40
0.0000000000
40
1.0000000000
40
1.0000000000
40
1.0000000000
40
1.0000000000
10
-0.8192266101
20
0.9864332579
30
0.0000000000
10
-0.8164550769
20
0.9899190401
30
0.0000000000
10
-0.8137551925
20
0.9934613267
30
0.0000000000
10
-0.8111283372
20
0.9970560452
30
0.0000000000
11
-0.8192266101
21
0.9864332579
31
0.0000000000
11
-0.8111283372
21
0.9970560452
31
0.0000000000
0
SPLINE
5
3B2
100
AcDbEntity
8
0
100
AcDbSpline
62
7
6
CONTINUOUS
70
0
71
3
72
12
73
8
74
6
42
0.0000001000
43
0.0000001000
44
0.0000000001
12
0.2084767431
22
0.2852898688
32
0.0000000000
13
0.0328340598
23
0.3513458963
33
0.0000000000
40
0.0000000000
40
0.0000000000
40
0.0000000000
40
0.0000000000
40
0.0701186189
40
0.3103169894
40
0.6038929644
40
0.9245958374
40
1.0000000000
40
1.0000000000
40
1.0000000000
40
1.0000000000
10
-0.8111283372
20
0.9970560452
30
0.0000000000
10
-0.8062556367
20
1.0037240891
30
0.0000000000
10
-0.7858030887
20
1.0340326140
30
0.0000000000
10
-0.7559148423
20
1.0989002522
30
0.0000000000
10
-0.7269501585
20
1.1952425242
30
0.0000000000
10
-0.7119206425
20
1.2750834086
30
0.0000000000
10
-0.7069059793
20
1.3214085450
30
0.0000000000
10
-0.7060807044
20
1.3302395260
30
0.0000000000
11
-0.8111283372
21
0.9970560452
31
0.0000000000
11
-0.7972728934
21
1.0175754168
31
0.0000000000
11
-0.7602422993
21
1.0937432214
31
0.0000000000
11
-0.7295681835
21
1.1926069402
31
0.0000000000
11
-0.7089462759
21
1.3037883825
31
0.0000000000
11
-0.7060807044
21
1.3302395260
31
0.0000000000
0
SPLINE
5
3B3
100
AcDbEntity
8
0
100
AcDbSpline
62
7
6
CONTINUOUS
70
0
71
3
72
8
73
4
74
2
42
0.0000001000
43
0.0000001000
44
0.0000000001
12
0.0080776091
22
0.0864356961
32
0.0000000000
13
-0.0000000000
23
0.0867426195
33
0.0000000000
40
0.0000000000
40
0.0000000000
40
0.0000000000
40
0.0000000000
40
1.0000000000
40
1.0000000000
40
1.0000000000
40
1.0000000000
10
-0.7060807044
20
1.3302395260
30
0.0000000000
10
-0.7033881680
20
1.3590514247
30
0.0000000000
10
-0.7020723068
20
1.3879951508
30
0.0000000000
10
-0.7020723068
20
1.4169093573
30
0.0000000000
11
-0.7060807044
21
1.3302395260
31
0.0000000000
11
-0.7020723068
21
1.4169093573
31
0.0000000000
0
SPLINE
5
3B4
100
AcDbEntity
8
0
100
AcDbSpline
62
7
6
CONTINUOUS
70
0
71
3
72
8
73
4
74
2
42
0.0000001000
43
0.0000001000
44
0.0000000001
12
-0.0000000000
22
0.0366868466
32
0.0000000000
13
-0.0015639070
23
0.0366534979
33
0.0000000000
40
0.0000000000
40
0.0000000000
40
0.0000000000
40
0.0000000000
40
1.0000000000
40
1.0000000000
40
1.0000000000
40
1.0000000000
10
-0.7020723068
20
1.4169093573
30
0.0000000000
10
-0.7020723068
20
1.4291383061
30
0.0000000000
10
-0.7025941358
20
1.4413635383
30
0.0000000000
10
-0.7031154381
20
1.4535813710
30
0.0000000000
11
-0.7020723068
21
1.4169093573
31
0.0000000000
11
-0.7031154381
21
1.4535813710
31
0.0000000000
0
SPLINE
5
3B5
100
AcDbEntity
8
0
100
AcDbSpline
62
7
6
CONTINUOUS
70
0
71
3
72
8
73
4
74
2
42
0.0000001000
43
0.0000001000
44
0.0000000001
12
-0.0738461510
22
-0.1178732381
32
0.0000000000
13
-0.1102578101
23
-0.0879518168
33
0.0000000000
40
0.0000000000
40
0.0000000000
40
0.0000000000
40
0.0000000000
40
1.0000000000
40
1.0000000000
40
1.0000000000
40
1.0000000000
10
-0.7031154381
20
1.4535813710
30
0.0000000000
10
-0.7277308218
20
1.4142902916
30
0.0000000000
10
-0.7598249646
20
1.3791090864
30
0.0000000000
10
-0.7965775680
20
1.3497918141
30
0.0000000000
11
-0.7031154381
21
1.4535813710
31
0.0000000000
11
-0.7965775680
21
1.3497918141
31
0.0000000000
0
SPLINE
5
3B6
100
AcDbEntity
8
0
100
AcDbSpline
62
7
6
CONTINUOUS
70
0
71
3
72
20
73
16
74
14
42
0.0000001000
43
0.0000001000
44
0.0000000001
12
-1.0691164380
22
-0.8528260533
32
0.0000000000
13
0.7869766429
23
1.0979125136
33
0.0000000000
40
0.0000000000
40
0.0000000000
40
0.0000000000
40
0.0000000000
40
0.0500423114
40
0.1294401596
40
0.2093101707
40
0.3383658426
40
0.4676832888
40
0.5356621251
40
0.6041593705
40
0.6760631117
40
0.7538830852
40
0.8342097991
40
0.9084531480
40
0.9792618614
40
1.0000000000
40
1.0000000000
40
1.0000000000
40
1.0000000000
10
-0.7965775680
20
1.3497918141
30
0.0000000000
10
-0.8144112539
20
1.3355660185
30
0.0000000000
10
-0.8633772571
20
1.3023406746
30
0.0000000000
10
-0.9509380330
20
1.2657196010
30
0.0000000000
10
-1.0809074417
20
1.2500759096
30
0.0000000000
10
-1.2350108458
20
1.2783557562
30
0.0000000000
10
-1.3572548404
20
1.3675688922
30
0.0000000000
10
-1.4309437574
20
1.4623826047
30
0.0000000000
10
-1.4715661791
20
1.5476400700
30
0.0000000000
10
-1.4953968266
20
1.6433975745
30
0.0000000000
10
-1.5025329466
20
1.7469776030
30
0.0000000000
10
-1.4951794677
20
1.8516130755
30
0.0000000000
10
-1.4702820927
20
1.9504653330
30
0.0000000000
10
-1.4376408597
20
2.0181097643
30
0.0000000000
10
-1.4146693774
20
2.0523540802
30
0.0000000000
10
-1.4092292338
20
2.0599436341
30
0.0000000000
11
-0.7965775680
21
1.3497918141
31
0.0000000000
11
-0.8530469635
21
1.3114568885
31
0.0000000000
11
-0.9520247669
21
1.2705797993
31
0.0000000000
11
-1.0588829823
21
1.2569541029
31
0.0000000000
11
-1.2296686829
21
1.2905660567
31
0.0000000000
11
-1.3719806030
21
1.3914019179
31
0.0000000000
11
-1.4280134285
21
1.4639728086
31
0.0000000000
11
-1.4680368754
21
1.5472376661
31
0.0000000000
11
-1.4920509435
21
1.6411964901
31
0.0000000000
11
-1.5000556328
21
1.7458492808
31
0.0000000000
11
-1.4916964478
21
1.8538657158
31
0.0000000000
11
-1.4666188926
21
1.9508092362
31
0.0000000000
11
-1.4248229672
21
2.0366798418
31
0.0000000000
11
-1.4092292338
21
2.0599436341
31
0.0000000000
0
SPLINE
5
3B7
100
AcDbEntity
8
0
100
AcDbSpline
62
7
6
CONTINUOUS
70
0
71
3
72
15
73
11
74
9
42
0.0000001000
43
0.0000001000
44
0.0000000001
12
0.5792929852
22
0.8196135853
32
0.0000000000
13
-0.5797271198
23
0.8193065718
33
0.0000000000
40
0.0000000000
40
0.0000000000
40
0.0000000000
40
0.0000000000
40
0.1935704442
40
0.3317666386
40
0.4119884436
40
0.4997810785
40
0.5878017450
40
0.6682036382
40
0.8066129446
40
1.0000000000
40
1.0000000000
40
1.0000000000
40
1.0000000000
10
-1.9616179073
20
0.9969086951
30
0.0000000000
10
-1.9242399071
20
1.0497930171
30
0.0000000000
10
-1.8964060514
20
1.1624434121
30
0.0000000000
10
-1.8812740968
20
1.2983685262
30
0.0000000000
10
-1.8763658337
20
1.4008820184
30
0.0000000000
10
-1.8751654640
20
1.4865159172
30
0.0000000000
10
-1.8763642992
20
1.5722091715
30
0.0000000000
10
-1.8812521030
20
1.6749343609
30
0.0000000000
10
-1.8963346231
20
1.8109169206
30
0.0000000000
10
-1.9239865509
20
1.9236611577
30
0.0000000000
10
-1.9613571245
20
1.9764755861
30
0.0000000000
11
-1.9616179073
21
0.9969086951
31
0.0000000000
11
-1.8970873697
21
1.1801588174
31
0.0000000000
11
-1.8809547353
21
1.3179203384
31
0.0000000000
11
-1.8769215767
21
1.3983352139
31
0.0000000000
11
-1.8755771905
21
1.4864394993
31
0.0000000000
11
-1.8769175020
21
1.5747727409
31
0.0000000000
11
-1.8809384364
21
1.6553692023
31
0.0000000000
11
-1.8970221740
21
1.7933517845
31
0.0000000000
11
-1.9613571245
21
1.9764755861
31
0.0000000000
0
SPLINE
5
3B8
100
AcDbEntity
8
0
100
AcDbSpline
62
7
6
CONTINUOUS
70
0
71
3
72
13
73
9
74
7
42
0.0000001000
43
0.0000001000
44
0.0000000001
12
-0.5824027725
22
0.8230879713
32
0.0000000000
13
0.0000000000
23
-1.0082989625
33
0.0000000000
40
0.0000000000
40
0.0000000000
40
0.0000000000
40
0.0000000000
40
0.1315187129
40
0.2523835064
40
0.3682015711
40
0.4866487322
40
0.6917135993
40
1.0000000000
40
1.0000000000
40
1.0000000000
40
1.0000000000
10
-1.9613571245
20
1.9764755861
30
0.0000000000
10
-1.9868894121
20
2.0125594097
30
0.0000000000
10
-2.0487299891
20
2.0762700955
30
0.0000000000
10
-2.1741365810
20
2.1071025129
30
0.0000000000
10
-2.2955156391
20
2.0803382337
30
0.0000000000
10
-2.4072126421
20
1.9737444141
30
0.0000000000
10
-2.4640394091
20
1.7615999226
30
0.0000000000
10
-2.4722392211
20
1.5900544520
30
0.0000000000
10
-2.4722392211
20
1.4864394993
30
0.0000000000
11
-1.9613571245
21
1.9764755861
31
0.0000000000
11
-2.0578901206
21
2.0673977561
31
0.0000000000
11
-2.1759292410
21
2.0977051460
31
0.0000000000
11
-2.2896043674
21
2.0709590200
31
0.0000000000
11
-2.3780654510
21
1.9907206418
31
0.0000000000
11
-2.4486957786
21
1.7963914827
31
0.0000000000
11
-2.4722392211
21
1.4864394993
31
0.0000000000
0
SPLINE
5
3B9
100
AcDbEntity
8
0
100
AcDbSpline
62
7
6
CONTINUOUS
70
0
71
3
72
9
73
5
74
3
42
0.0000001000
43
0.0000001000
44
0.0000000001
12
0.0000000000
22
-0.5018261880
32
0.0000000000
13
0.2904457598
23
-0.4092319435
33
0.0000000000
40
0.0000000000
40
0.0000000000
40
0.0000000000
40
0.0000000000
40
0.6130910028
40
1.0000000000
40
1.0000000000
40
1.0000000000
40
1.0000000000
10
-2.4722392211
20
1.4864394993
30
0.0000000000
10
-2.4722392211
20
1.3838844590
30
0.0000000000
10
-2.4653905806
20
1.2183161729
30
0.0000000000
10
-2.4236571810
20
1.0491819353
30
0.0000000000
10
-2.3861984885
20
0.9964034284
30
0.0000000000
11
-2.4722392211
21
1.4864394993
31
0.0000000000
11
-2.4507290380
21
1.1795272340
31
0.0000000000
11
-2.3861984885
21
0.9964034284
31
0.0000000000
0
SPLINE
5
3BA
100
AcDbEntity
8
0
100
AcDbSpline
62
7
6
CONTINUOUS
70
0
71
3
72
11
73
7
74
5
42
0.0000001000
43
0.0000001000
44
0.0000000001
12
0.2923074059
22
-0.4118549635
32
0.0000000000
13
0.2914988631
23
0.4124276219
33
0.0000000000
40
0.0000000000
40
0.0000000000
40
0.0000000000
40
0.0000000000
40
0.2619386332
40
0.4997102280
40
0.7375451078
40
1.0000000000
40
1.0000000000
40
1.0000000000
40
1.0000000000
10
-2.3861984885
20
0.9964034284
30
0.0000000000
10
-2.3606762877
20
0.9604431863
30
0.0000000000
10
-2.2997340424
20
0.8972385753
30
0.0000000000
10
-2.1738975592
20
0.8646483193
30
0.0000000000
10
-2.0479720583
20
0.8973707182
30
0.0000000000
10
-1.9871196749
20
0.9608274794
30
0.0000000000
10
-1.9616179073
20
0.9969086951
30
0.0000000000
11
-2.3861984885
21
0.9964034284
31
0.0000000000
11
-2.2901055515
21
0.9054812465
31
0.0000000000
11
-2.1739082058
21
0.8751738526
31
0.0000000000
11
-2.0577108403
21
0.9056075632
31
0.0000000000
11
-1.9616179073
21
0.9969086951
31
0.0000000000
0
SPLINE
5
3BB
100
AcDbEntity
8
0
100
AcDbSpline
62
7
6
CONTINUOUS
70
0
71
3
72
23
73
19
74
17
42
0.0000001000
43
0.0000001000
44
0.0000000001
12
-0.0004618499
22
2.0390689721
32
0.0000000000
13
-0.0015963675
23
-2.0395176157
33
0.0000000000
40
0.0000000000
40
0.0000000000
40
0.0000000000
40
0.0000000000
40
0.0316580556
40
0.0617151359
40
0.1172444230
40
0.2117486587
40
0.2894449145
40
0.3588810042
40
0.4263781922
40
0.5001522631
40
0.5557657116
40
0.6071414788
40
0.7074415816
40
0.7632552815
40
0.8257119993
40
0.9020973248
40
0.9482752700
40
1.0000000000
40
1.0000000000
40
1.0000000000
40
1.0000000000
10
-0.3401112656
20
1.4869610650
30
0.0000000000
10
-0.3401161394
20
1.5084787179
30
0.0000000000
10
-0.3395814520
20
1.5504257308
30
0.0000000000
10
-0.3363208176
20
1.6300659646
30
0.0000000000
10
-0.3256168300
20
1.7520063923
30
0.0000000000
10
-0.2958494245
20
1.9049565599
30
0.0000000000
10
-0.2272430936
20
2.0560394897
30
0.0000000000
10
-0.1306342096
20
2.1687938224
30
0.0000000000
10
-0.0013543931
20
2.2382180023
30
0.0000000000
10
0.1337458023
20
2.2547301518
30
0.0000000000
10
0.2568085937
20
2.2430182712
30
0.0000000000
10
0.3910258662
20
2.1948718621
30
0.0000000000
10
0.4973718943
20
2.0915203177
30
0.0000000000
10
0.5629914610
20
1.9578288644
30
0.0000000000
10
0.6046642504
20
1.8316900358
30
0.0000000000
10
0.6234051190
20
1.7068031857
30
0.0000000000
10
0.6308728309
20
1.5885734474
30
0.0000000000
10
0.6320997684
20
1.5220227405
30
0.0000000000
10
0.6320722445
20
1.4868582411
30
0.0000000000
11
-0.3401112656
21
1.4869610650
31
0.0000000000
11
-0.3392566444
21
1.5515070586
31
0.0000000000
11
-0.3366953770
21
1.6127407345
31
0.0000000000
11
-0.3264684798
21
1.7255036791
31
0.0000000000
11
-0.2857062736
21
1.9138397631
31
0.0000000000
11
-0.2180789796
21
2.0571051505
31
0.0000000000
11
-0.1240070818
21
2.1629161678
31
0.0000000000
11
-0.0028630793
21
2.2282290420
31
0.0000000000
11
0.1459805285
21
2.2500000000
31
0.0000000000
11
0.2587307266
21
2.2379023081
31
0.0000000000
11
0.3569995425
21
2.2016092326
31
0.0000000000
11
0.5064910287
21
2.0620436499
31
0.0000000000
11
0.5587282913
21
1.9609347936
31
0.0000000000
11
0.5985133564
21
1.8399578552
31
0.0000000000
11
0.6236825811
21
1.6862531679
31
0.0000000000
11
0.6299748873
21
1.5923055434
31
0.0000000000
11
0.6320722445
21
1.4868582411
31
0.0000000000
0
SPLINE
5
3BC
100
AcDbEntity
8
0
100
AcDbSpline
62
7
6
CONTINUOUS
70
0
71
3
72
24
73
20
74
18
42
0.0000001000
43
0.0000001000
44
0.0000000001
12
-0.0015963675
22
-2.0395176157
32
0.0000000000
13
-0.0004618499
23
2.0390689721
33
0.0000000000
40
0.0000000000
40
0.0000000000
40
0.0000000000
40
0.0000000000
40
0.0613308385
40
0.1167291558
40
0.2106491944
40
0.2883179111
40
0.3578509644
40
0.4255465870
40
0.4614217114
40
0.4999355168
40
0.5501875418
40
0.5967426906
40
0.6880592303
40
0.7498887750
40
0.8210023130
40
0.9038419701
40
0.9501871473
40
0.9746530445
40
1.0000000000
40
1.0000000000
40
1.0000000000
40
1.0000000000
10
0.6320722445
20
1.4868582411
30
0.0000000000
10
0.6320396090
20
1.4451631326
30
0.0000000000
10
0.6301692907
20
1.3657956569
30
0.0000000000
10
0.6178341479
20
1.2231338555
30
0.0000000000
10
0.5880593030
20
1.0707325921
30
0.0000000000
10
0.5200566114
20
0.9197744922
30
0.0000000000
10
0.4236142718
20
0.8066701558
30
0.0000000000
10
0.3174574204
20
0.7493045741
30
0.0000000000
10
0.2228062221
20
0.7282519472
30
0.0000000000
10
0.1380183644
20
0.7227344446
30
0.0000000000
10
0.0457803918
20
0.7306012088
30
0.0000000000
10
-0.0773533540
20
0.7686630365
30
0.0000000000
10
-0.1879789058
20
0.8574298989
30
0.0000000000
10
-0.2641330656
20
0.9909798694
30
0.0000000000
10
-0.3090968145
20
1.1314283207
30
0.0000000000
10
-0.3300426849
20
1.2663570243
30
0.0000000000
10
-0.3375072393
20
1.3705503123
30
0.0000000000
10
-0.3397480205
20
1.4358756388
30
0.0000000000
10
-0.3401073635
20
1.4697330015
30
0.0000000000
10
-0.3401112656
20
1.4869610650
30
0.0000000000
11
0.6320722445
21
1.4868582411
31
0.0000000000
11
0.6287035898
21
1.3618483334
31
0.0000000000
11
0.6185973913
21
1.2493426312
31
0.0000000000
11
0.5781725974
21
1.0621523148
31
0.0000000000
11
0.5109283282
21
0.9187687680
31
0.0000000000
11
0.4169949712
21
0.8125706433
31
0.0000000000
11
0.2956024101
21
0.7468665829
31
0.0000000000
11
0.2243201344
21
0.7304405678
31
0.0000000000
11
0.1459805285
21
0.7249652295
31
0.0000000000
11
0.0439671076
21
0.7345773767
31
0.0000000000
11
-0.0464742539
21
0.7634138183
31
0.0000000000
11
-0.1926407987
21
0.8787595848
31
0.0000000000
11
-0.2572074842
21
0.9870431509
31
0.0000000000
11
-0.3032436489
21
1.1245436539
31
0.0000000000
11
-0.3308846902
21
1.2911790518
31
0.0000000000
11
-0.3378034129
21
1.3854245340
31
0.0000000000
11
-0.3395341513
21
1.4352811437
31
0.0000000000
11
-0.3401112656
21
1.4869610650
31
0.0000000000
0
SPLINE
5
3BD
100
AcDbEntity
8
0
100
AcDbSpline
62
7
6
CONTINUOUS
70
0
71
3
72
23
73
19
74
17
42
0.0000001000
43
0.0000001000
44
0.0000000001
12
-0.0004618499
22
2.0390689721
32
0.0000000000
13
-0.0015963675
23
-2.0395176157
33
0.0000000000
40
0.0000000000
40
0.0000000000
40
0.0000000000
40
0.0000000000
40
0.0316580556
40
0.0617151359
40
0.1172444230
40
0.2117486587
40
0.2894449145
40
0.3588810042
40
0.4263781922
40
0.5001522631
40
0.5557657116
40
0.6071414788
40
0.7074415816
40
0.7632552815
40
0.8257119993
40
0.9020973248
40
0.9482752700
40
1.0000000000
40
1.0000000000
40
1.0000000000
40
1.0000000000
10
-2.6600000000
20
1.4869610650
30
0.0000000000
10
-2.6600048738
20
1.5084787179
30
0.0000000000
10
-2.6594701863
20
1.5504257308
30
0.0000000000
10
-2.6562095519
20
1.6300659646
30
0.0000000000
10
-2.6455055643
20
1.7520063923
30
0.0000000000
10
-2.6157381589
20
1.9049565599
30
0.0000000000
10
-2.5471318280
20
2.0560394897
30
0.0000000000
10
-2.4505229440
20
2.1687938224
30
0.0000000000
10
-2.3212431275
20
2.2382180023
30
0.0000000000
10
-2.1861429321
20
2.2547301518
30
0.0000000000
10
-2.0630801406
20
2.2430182712
30
0.0000000000
10
-1.9288628681
20
2.1948718621
30
0.0000000000
10
-1.8225168400
20
2.0915203177
30
0.0000000000
10
-1.7568972734
20
1.9578288644
30
0.0000000000
10
-1.7152244839
20
1.8316900358
30
0.0000000000
10
-1.6964836154
20
1.7068031857
30
0.0000000000
10
-1.6890159034
20
1.5885734474
30
0.0000000000
10
-1.6877889660
20
1.5220227405
30
0.0000000000
10
-1.6878164899
20
1.4868582411
30
0.0000000000
11
-2.6600000000
21
1.4869610650
31
0.0000000000
11
-2.6591453788
21
1.5515070586
31
0.0000000000
11
-2.6565841113
21
1.6127407345
31
0.0000000000
11
-2.6463572142
21
1.7255036791
31
0.0000000000
11
-2.6055950079
21
1.9138397631
31
0.0000000000
11
-2.5379677140
21
2.0571051505
31
0.0000000000
11
-2.4438958161
21
2.1629161678
31
0.0000000000
11
-2.3227518137
21
2.2282290420
31
0.0000000000
11
-2.1739082058
21
2.2500000000
31
0.0000000000
11
-2.0611580078
21
2.2379023081
31
0.0000000000
11
-1.9628891918
21
2.2016092326
31
0.0000000000
11
-1.8133977056
21
2.0620436499
31
0.0000000000
11
-1.7611604430
21
1.9609347936
31
0.0000000000
11
-1.7213753780
21
1.8399578552
31
0.0000000000
11
-1.6962061533
21
1.6862531679
31
0.0000000000
11
-1.6899138471
21
1.5923055434
31
0.0000000000
11
-1.6878164899
21
1.4868582411
31
0.0000000000
0
SPLINE
5
3BE
100
AcDbEntity
8
0
100
AcDbSpline
62
7
6
CONTINUOUS
70
0
71
3
72
24
73
20
74
18
42
0.0000001000
43
0.0000001000
44
0.0000000001
12
-0.0015963675
22
-2.0395176157
32
0.0000000000
13
-0.0004618499
23
2.0390689721
33
0.0000000000
40
0.0000000000
40
0.0000000000
40
0.0000000000
40
0.0000000000
40
0.0613308385
40
0.1167291558
40
0.2106491944
40
0.2883179111
40
0.3578509644
40
0.4255465870
40
0.4614217114
40
0.4999355168
40
0.5501875418
40
0.5967426906
40
0.6880592303
40
0.7498887750
40
0.8210023130
40
0.9038419701
40
0.9501871473
40
0.9746530445
40
1.0000000000
40
1.0000000000
40
1.0000000000
40
1.0000000000
10
-1.6878164899
20
1.4868582411
30
0.0000000000
10
-1.6878491254
20
1.4451631326
30
0.0000000000
10
-1.6897194436
20
1.3657956569
30
0.0000000000
10
-1.7020545864
20
1.2231338555
30
0.0000000000
10
-1.7318294313
20
1.0707325921
30
0.0000000000
10
-1.7998321229
20
0.9197744922
30
0.0000000000
10
-1.8962744626
20
0.8066701558
30
0.0000000000
10
-2.0024313139
20
0.7493045741
30
0.0000000000
10
-2.0970825123
20
0.7282519472
30
0.0000000000
10
-2.1818703699
20
0.7227344446
30
0.0000000000
10
-2.2741083425
20
0.7306012088
30
0.0000000000
10
-2.3972420884
20
0.7686630365
30
0.0000000000
10
-2.5078676402
20
0.8574298989
30
0.0000000000
10
-2.5840218000
20
0.9909798694
30
0.0000000000
10
-2.6289855488
20
1.1314283207
30
0.0000000000
10
-2.6499314192
20
1.2663570243
30
0.0000000000
10
-2.6573959736
20
1.3705503123
30
0.0000000000
10
-2.6596367548
20
1.4358756388
30
0.0000000000
10
-2.6599960978
20
1.4697330015
30
0.0000000000
10
-2.6600000000
20
1.4869610650
30
0.0000000000
11
-1.6878164899
21
1.4868582411
31
0.0000000000
11
-1.6911851445
21
1.3618483334
31
0.0000000000
11
-1.7012913430
21
1.2493426312
31
0.0000000000
11
-1.7417161370
21
1.0621523148
31
0.0000000000
11
-1.8089604062
21
0.9187687680
31
0.0000000000
11
-1.9028937631
21
0.8125706433
31
0.0000000000
11
-2.0242863242
21
0.7468665829
31
0.0000000000
11
-2.0955686000
21
0.7304405678
31
0.0000000000
11
-2.1739082058
21
0.7249652295
31
0.0000000000
11
-2.2759216268
21
0.7345773767
31
0.0000000000
11
-2.3663629883
21
0.7634138183
31
0.0000000000
11
-2.5125295331
21
0.8787595848
31
0.0000000000
11
-2.5770962186
21
0.9870431509
31
0.0000000000
11
-2.6231323833
21
1.1245436539
31
0.0000000000
11
-2.6507734246
21
1.2911790518
31
0.0000000000
11
-2.6576921472
21
1.3854245340
31
0.0000000000
11
-2.6594228857
21
1.4352811437
31
0.0000000000
11
-2.6600000000
21
1.4869610650
31
0.0000000000
0
SPLINE
5
3BF
100
AcDbEntity
8
0
100
AcDbSpline
62
7
6
CONTINUOUS
70
0
71
3
72
15
73
11
74
9
42
0.0000001000
43
0.0000001000
44
0.0000000001
12
0.6891582048
22
-0.0000068540
32
0.0000000000
13
0.0000000000
23
0.6891581982
33
0.0000000000
40
0.0000000000
40
0.0000000000
40
0.0000000000
40
0.0000000000
40
0.1189818369
40
0.2659041869
40
0.4087607378
40
0.5206578441
40
0.6865930391
40
0.8299214518
40
0.9350999512
40
1.0000000000
40
1.0000000000
40
1.0000000000
40
1.0000000000
10
3.7139636758
20
8.5205665029
30
0.0000000000
10
3.7412961122
20
8.5205662311
30
0.0000000000
10
3.8023732750
20
8.5270210446
30
0.0000000000
10
3.8930802334
20
8.5562476481
30
0.0000000000
10
3.9676268683
20
8.6134578513
30
0.0000000000
10
4.0274099705
20
8.6902974952
30
0.0000000000
10
4.0642078668
20
8.7813261906
30
0.0000000000
10
4.0812843928
20
8.8752563563
30
0.0000000000
10
4.0866838539
20
8.9471023455
30
0.0000000000
10
4.0879642198
20
8.9861650063
30
0.0000000000
10
4.0879642198
20
9.0010738065
30
0.0000000000
11
3.7139636758
21
8.5205665029
31
0.0000000000
11
3.7955407674
21
8.5288570674
31
0.0000000000
11
3.8912770485
21
8.5618219312
31
0.0000000000
11
3.9698893659
21
8.6210895980
31
0.0000000000
11
4.0172640204
21
8.6819364200
31
0.0000000000
11
4.0620725479
21
8.7871476320
31
0.0000000000
11
4.0808743639
21
8.8841176280
31
0.0000000000
11
4.0867468471
21
8.9563639763
31
0.0000000000
11
4.0879642198
21
9.0010738065
31
0.0000000000
0
SPLINE
5
3C0
100
AcDbEntity
8
0
100
AcDbSpline
62
7
6
CONTINUOUS
70
0
71
3
72
15
73
11
74
9
42
0.0000001000
43
0.0000001000
44
0.0000000001
12
0.0000000000
22
0.6891534953
32
0.0000000000
13
-0.6891534938
23
0.0000015005
33
0.0000000000
40
0.0000000000
40
0.0000000000
40
0.0000000000
40
0.0000000000
40
0.0649004916
40
0.1700797089
40
0.3134090996
40
0.4793454271
40
0.5912432970
40
0.7341008228
40
0.8810241754
40
1.0000000000
40
1.0000000000
40
1.0000000000
40
1.0000000000
10
4.0879642198
20
9.0010738065
30
0.0000000000
10
4.0879642198
20
9.0159826067
30
0.0000000000
10
4.0866838539
20
9.0550452674
30
0.0000000000
10
4.0812843928
20
9.1268912567
30
0.0000000000
10
4.0642078668
20
9.2208214224
30
0.0000000000
10
4.0274099705
20
9.3118501178
30
0.0000000000
10
3.9676268683
20
9.3886897617
30
0.0000000000
10
3.8930802334
20
9.4458999649
30
0.0000000000
10
3.8023747893
20
9.4751260804
30
0.0000000000
10
3.7412992472
20
9.4815810506
30
0.0000000000
10
3.7139683787
20
9.4815811101
30
0.0000000000
11
4.0879642198
21
9.0010738065
31
0.0000000000
11
4.0867468471
21
9.0457836367
31
0.0000000000
11
4.0808743639
21
9.1180299849
31
0.0000000000
11
4.0620725479
21
9.2149999810
31
0.0000000000
11
4.0172640204
21
9.3202111930
31
0.0000000000
11
3.9698893659
21
9.3810580149
31
0.0000000000
11
3.8912770485
21
9.4403256817
31
0.0000000000
11
3.7955407674
21
9.4732905455
31
0.0000000000
11
3.7139683787
21
9.4815811101
31
0.0000000000
0
SPLINE
5
3C1
100
AcDbEntity
8
0
100
AcDbSpline
62
7
6
CONTINUOUS
70
0
71
3
72
15
73
11
74
9
42
0.0000001000
43
0.0000001000
44
0.0000000001
12
0.9196912595
22
0.0000025726
32
0.0000000000
13
-0.0000000000
23
-0.9196912956
33
0.0000000000
40
0.0000000000
40
0.0000000000
40
0.0000000000
40
0.0000000000
40
0.1261858638
40
0.2819754857
40
0.3948877110
40
0.5471519058
40
0.6676191319
40
0.7950168296
40
0.8856984876
40
1.0000000000
40
1.0000000000
40
1.0000000000
40
1.0000000000
10
3.7365677337
20
9.6260738065
30
0.0000000000
10
3.7752517457
20
9.6260739147
30
0.0000000000
10
3.8618301361
20
9.6164538640
30
0.0000000000
10
3.9775227003
20
9.5758821223
30
0.0000000000
10
4.0856210247
20
9.5035032518
30
0.0000000000
10
4.1631086425
20
9.4113351795
30
0.0000000000
10
4.2154328764
20
9.2997840803
30
0.0000000000
10
4.2461990446
20
9.2002031106
30
0.0000000000
10
4.2608112140
20
9.0990614752
30
0.0000000000
10
4.2617035785
20
9.0361145085
30
0.0000000000
10
4.2617035785
20
9.0010738065
30
0.0000000000
11
3.7365677337
21
9.6260738065
31
0.0000000000
11
3.8519462155
21
9.6135886111
31
0.0000000000
11
3.9868159352
21
9.5652269845
31
0.0000000000
11
4.0728305424
21
9.5070449869
31
0.0000000000
11
4.1635332664
21
9.4003533170
31
0.0000000000
11
4.2121909845
21
9.3008171938
31
0.0000000000
11
4.2460441231
21
9.1886478294
31
0.0000000000
11
4.2581838783
21
9.1061369727
31
0.0000000000
11
4.2617035785
21
9.0010738065
31
0.0000000000
0
SPLINE
5
3C2
100
AcDbEntity
8
0
100
AcDbSpline
62
7
6
CONTINUOUS
70
0
71
3
72
15
73
11
74
9
42
0.0000001000
43
0.0000001000
44
0.0000000001
12
-0.0000000000
22
-0.9196883692
32
0.0000000000
13
-0.9196884055
23
-0.0000025893
33
0.0000000000
40
0.0000000000
40
0.0000000000
40
0.0000000000
40
0.0000000000
40
0.1143018761
40
0.2049838226
40
0.3323819257
40
0.4528495351
40
0.6051142144
40
0.7180267990
40
0.8738169166
40
1.0000000000
40
1.0000000000
40
1.0000000000
40
1.0000000000
10
4.2617035785
20
9.0010738065
30
0.0000000000
10
4.2617035785
20
8.9660331045
30
0.0000000000
10
4.2608112140
20
8.9030861377
30
0.0000000000
10
4.2461990446
20
8.8019445024
30
0.0000000000
10
4.2154328764
20
8.7023635327
30
0.0000000000
10
4.1631086425
20
8.5908124334
30
0.0000000000
10
4.0856210247
20
8.4986443612
30
0.0000000000
10
3.9775227003
20
8.4262654907
30
0.0000000000
10
3.8618310683
20
8.3856940759
30
0.0000000000
10
3.7752536997
20
8.3760739154
30
0.0000000000
10
3.7365706601
20
8.3760738065
30
0.0000000000
11
4.2617035785
21
9.0010738065
31
0.0000000000
11
4.2581838783
21
8.8960106403
31
0.0000000000
11
4.2460441231
21
8.8134997836
31
0.0000000000
11
4.2121909845
21
8.7013304192
31
0.0000000000
11
4.1635332664
21
8.6017942960
31
0.0000000000
11
4.0728305424
21
8.4951026261
31
0.0000000000
11
3.9868159352
21
8.4369206284
31
0.0000000000
11
3.8519462155
21
8.3885590019
31
0.0000000000
11
3.7365706601
21
8.3760738065
31
0.0000000000
0
SPLINE
5
3C3
100
AcDbEntity
8
0
100
AcDbSpline
62
7
6
CONTINUOUS
70
0
71
3
72
15
73
11
74
9
42
0.0000001000
43
0.0000001000
44
0.0000000001
12
0.0000000000
22
-0.7840504605
32
0.0000000000
13
0.7840504605
23
0.0000000000
33
0.0000000000
40
0.0000000000
40
0.0000000000
40
0.0000000000
40
0.0000000000
40
0.1250035856
40
0.2500003382
40
0.3749971738
40
0.4999931596
40
0.6249941993
40
0.7499962985
40
0.8749988330
40
1.0000000000
40
1.0000000000
40
1.0000000000
40
1.0000000000
10
-11.1500000000
20
-21.8997711479
30
0.0000000000
10
-11.1500000000
20
-21.9324408542
30
0.0000000000
10
-11.1435720625
20
-21.9979588343
30
0.0000000000
10
-11.1150028885
20
-22.0923353736
30
0.0000000000
10
-11.0685863853
20
-22.1793736183
30
0.0000000000
10
-11.0060858443
20
-22.2556795571
30
0.0000000000
10
-10.9298940235
20
-22.3183228818
30
0.0000000000
10
-10.8429223671
20
-22.3648787971
30
0.0000000000
10
-10.7485697898
20
-22.3935479377
30
0.0000000000
10
-10.6830496739
20
-22.4000000000
30
0.0000000000
10
-10.6503805997
20
-22.4000000000
30
0.0000000000
11
-11.1500000000
21
-21.8997711479
31
0.0000000000
11
-11.1404171274
21
-21.9973106575
31
0.0000000000
11
-11.1120282390
21
-22.0911126206
31
0.0000000000
11
-11.0659057104
21
-22.1775849419
31
0.0000000000
11
-11.0038050670
21
-22.2534013617
31
0.0000000000
11
-10.9280978412
21
-22.3156413172
31
0.0000000000
11
-10.8416923200
21
-22.3618976126
31
0.0000000000
11
-10.7479148288
21
-22.3903828363
31
0.0000000000
11
-10.6503805997
21
-22.4000000000
31
0.0000000000
0
SPLINE
5
3C4
100
AcDbEntity
8
0
100
AcDbSpline
62
7
6
CONTINUOUS
70
0
71
3
72
14
73
10
74
8
42
0.0000001000
43
0.0000001000
44
0.0000000001
12
0.3766294513
22
-0.0000002245
32
0.0000000000
13
-0.0000000000
23
0.3766294458
33
0.0000000000
40
0.0000000000
40
0.0000000000
40
0.0000000000
40
0.0000000000
40
0.1339874565
40
0.3391142834
40
0.5241325151
40
0.6710838711
40
0.7907117415
40
0.9296132615
40
1.0000000000
40
1.0000000000
40
1.0000000000
40
1.0000000000
10
0.1712314022
20
9.0481030209
30
0.0000000000
10
0.1880526096
20
9.0481030108
30
0.0000000000
10
0.2305618890
20
9.0507105809
30
0.0000000000
10
0.2959893878
20
9.0621892550
30
0.0000000000
10
0.3564103440
20
9.0959797998
30
0.0000000000
10
0.3926813951
20
9.1408800827
30
0.0000000000
10
0.4126684841
20
9.1883377478
30
0.0000000000
10
0.4173798456
20
9.2297650563
30
0.0000000000
10
0.4180435329
20
9.2560054927
30
0.0000000000
10
0.4180435329
20
9.2648420655
30
0.0000000000
11
0.1712314022
21
9.0481030209
31
0.0000000000
11
0.2216165668
21
9.0509158910
31
0.0000000000
11
0.2971692711
21
9.0670528827
31
0.0000000000
11
0.3573745613
21
9.1021397362
31
0.0000000000
11
0.3923627176
21
9.1450236683
31
0.0000000000
11
0.4097827729
21
9.1865751883
31
0.0000000000
11
0.4173331085
21
9.2383418681
31
0.0000000000
11
0.4180435329
21
9.2648420655
31
0.0000000000
0
SPLINE
5
3C5
100
AcDbEntity
8
0
100
AcDbSpline
62
7
6
CONTINUOUS
70
0
71
3
72
14
73
10
74
8
42
0.0000001000
43
0.0000001000
44
0.0000000001
12
-0.0000000000
22
0.3766279091
32
0.0000000000
13
-0.3766278800
23
0.0000011804
33
0.0000000000
40
0.0000000000
40
0.0000000000
40
0.0000000000
40
0.0000000000
40
0.0703870257
40
0.2092891124
40
0.3289174709
40
0.4758694265
40
0.6608884130
40
0.8660160768
40
1.0000000000
40
1.0000000000
40
1.0000000000
40
1.0000000000
10
0.4180435329
20
9.2648420655
30
0.0000000000
10
0.4180435329
20
9.2736786382
30
0.0000000000
10
0.4173798456
20
9.2999190746
30
0.0000000000
10
0.4126684841
20
9.3413463831
30
0.0000000000
10
0.3926813951
20
9.3888040483
30
0.0000000000
10
0.3564103440
20
9.4337043311
30
0.0000000000
10
0.2959893878
20
9.4674948759
30
0.0000000000
10
0.2305623983
20
9.4789734607
30
0.0000000000
10
0.1880536325
20
9.4815810574
30
0.0000000000
10
0.1712329388
20
9.4815811101
30
0.0000000000
11
0.4180435329
21
9.2648420655
31
0.0000000000
11
0.4173331085
21
9.2913422629
31
0.0000000000
11
0.4097827729
21
9.3431089427
31
0.0000000000
11
0.3923627176
21
9.3846604626
31
0.0000000000
11
0.3573745613
21
9.4275443947
31
0.0000000000
11
0.2971692711
21
9.4626312483
31
0.0000000000
11
0.2216165668
21
9.4787682400
31
0.0000000000
11
0.1712329388
21
9.4815811101
31
0.0000000000
0
SPLINE
5
3C6
100
AcDbEntity
8
0
100
AcDbSpline
62
7
6
CONTINUOUS
70
0
71
3
72
15
73
11
74
9
42
0.0000001000
43
0.0000001000
44
0.0000000001
12
-0.7840504604
22
0.0000000000
32
0.0000000000
13
0.0000000000
23
-0.7840504604
33
0.0000000000
40
0.0000000000
40
0.0000000000
40
0.0000000000
40
0.0000000000
40
0.1250026133
40
0.2500082844
40
0.3750136098
40
0.5000160060
40
0.6250106349
40
0.7500042447
40
0.8749978606
40
1.0000000000
40
1.0000000000
40
1.0000000000
40
1.0000000000
10
-10.6503805997
20
22.4000000000
30
0.0000000000
10
-10.6830500519
20
22.4000000000
30
0.0000000000
10
-10.7485713718
20
22.3935477443
30
0.0000000000
10
-10.8429258085
20
22.3648775487
30
0.0000000000
10
-10.9298988298
20
22.3183198083
30
0.0000000000
10
-11.0060904776
20
22.2556749149
30
0.0000000000
10
-11.0685894502
20
22.1793688070
30
0.0000000000
10
-11.1150041327
20
22.0923319310
30
0.0000000000
10
-11.1435722551
20
21.9979572524
30
0.0000000000
10
-11.1500000000
20
21.9324404763
30
0.0000000000
10
-11.1500000000
20
21.8997711479
30
0.0000000000
11
-10.6503805997
21
22.4000000000
31
0.0000000000
11
-10.7479159463
21
22.3903826137
31
0.0000000000
11
-10.8416956551
21
22.3618962291
31
0.0000000000
11
-10.9281029540
21
22.3156378952
31
0.0000000000
11
-11.0038101683
21
22.2533962508
31
0.0000000000
11
-11.0659091235
21
22.1775798235
31
0.0000000000
11
-11.1120296181
21
22.0911092838
31
0.0000000000
11
-11.1404173492
21
21.9973095399
31
0.0000000000
11
-11.1500000000
21
21.8997711479
31
0.0000000000
0
SPLINE
5
3C7
100
AcDbEntity
8
0
100
AcDbSpline
62
7
6
CONTINUOUS
70
0
71
3
72
15
73
11
74
9
42
0.0000001000
43
0.0000001000
44
0.0000000001
12
0.7840504604
22
-0.0000000000
32
0.0000000000
13
0.0000000000
23
0.7840504604
33
0.0000000000
40
0.0000000000
40
0.0000000000
40
0.0000000000
40
0.0000000000
40
0.1250026133
40
0.2500082844
40
0.3750136098
40
0.5000160060
40
0.6250106349
40
0.7500042447
40
0.8749978606
40
1.0000000000
40
1.0000000000
40
1.0000000000
40
1.0000000000
10
10.6503805997
20
-22.4000000000
30
0.0000000000
10
10.6830500519
20
-22.4000000000
30
0.0000000000
10
10.7485713718
20
-22.3935477443
30
0.0000000000
10
10.8429258085
20
-22.3648775487
30
0.0000000000
10
10.9298988298
20
-22.3183198083
30
0.0000000000
10
11.0060904776
20
-22.2556749149
30
0.0000000000
10
11.0685894502
20
-22.1793688070
30
0.0000000000
10
11.1150041327
20
-22.0923319310
30
0.0000000000
10
11.1435722551
20
-21.9979572524
30
0.0000000000
10
11.1500000000
20
-21.9324404763
30
0.0000000000
10
11.1500000000
20
-21.8997711479
30
0.0000000000
11
10.6503805997
21
-22.4000000000
31
0.0000000000
11
10.7479159463
21
-22.3903826137
31
0.0000000000
11
10.8416956551
21
-22.3618962291
31
0.0000000000
11
10.9281029540
21
-22.3156378952
31
0.0000000000
11
11.0038101683
21
-22.2533962508
31
0.0000000000
11
11.0659091235
21
-22.1775798235
31
0.0000000000
11
11.1120296181
21
-22.0911092838
31
0.0000000000
11
11.1404173492
21
-21.9973095399
31
0.0000000000
11
11.1500000000
21
-21.8997711479
31
0.0000000000
0
SPLINE
5
3C8
100
AcDbEntity
8
0
100
AcDbSpline
62
7
6
CONTINUOUS
70
0
71
3
72
14
73
10
74
8
42
0.0000001000
43
0.0000001000
44
0.0000000001
12
0.5826823340
22
-0.0054783287
32
0.0000000000
13
-0.0138156344
23
-0.5825447578
33
0.0000000000
40
0.0000000000
40
0.0000000000
40
0.0000000000
40
0.0000000000
40
0.1412136958
40
0.3123297786
40
0.4320367458
40
0.5853456843
40
0.7002028180
40
0.8582790632
40
1.0000000000
40
1.0000000000
40
1.0000000000
40
1.0000000000
10
0.2216453768
20
9.6260740000
30
0.0000000000
10
0.2490729521
20
9.6258161283
30
0.0000000000
10
0.3097896497
20
9.6204436717
30
0.0000000000
10
0.3911243475
20
9.5965380466
30
0.0000000000
10
0.4668938710
20
9.5541465926
30
0.0000000000
10
0.5217111675
20
9.5005471133
30
0.0000000000
10
0.5636544738
20
9.4285291636
30
0.0000000000
10
0.5879992458
20
9.3508787241
30
0.0000000000
10
0.5926721502
20
9.2923616617
30
0.0000000000
10
0.5920194954
20
9.2648420655
30
0.0000000000
11
0.2216453768
21
9.6260740000
31
0.0000000000
11
0.3035845889
21
9.6185234709
31
0.0000000000
11
0.3990247784
21
9.5896545408
31
0.0000000000
11
0.4596248574
21
9.5551105218
31
0.0000000000
11
0.5233832467
21
9.4925364990
31
0.0000000000
11
0.5574831282
21
9.4349466845
31
0.0000000000
11
0.5853650864
21
9.3471555278
31
0.0000000000
11
0.5920194954
21
9.2648420655
31
0.0000000000
0
SPLINE
5
3C9
100
AcDbEntity
8
0
100
AcDbSpline
62
7
6
CONTINUOUS
70
0
71
3
72
14
73
10
74
8
42
0.0000001000
43
0.0000001000
44
0.0000000001
12
0.0138159651
22
-0.5825587021
32
0.0000000000
13
-0.5826961065
23
-0.0054628224
33
0.0000000000
40
0.0000000000
40
0.0000000000
40
0.0000000000
40
0.0000000000
40
0.1417175445
40
0.2997900060
40
0.4146443905
40
0.5679496593
40
0.6876537611
40
0.8587657481
40
1.0000000000
40
1.0000000000
40
1.0000000000
40
1.0000000000
10
0.5920194954
20
9.2648420655
30
0.0000000000
10
0.5926721502
20
9.2373224692
30
0.0000000000
10
0.5879992458
20
9.1788054068
30
0.0000000000
10
0.5636544738
20
9.1011549673
30
0.0000000000
10
0.5217111675
20
9.0291370177
30
0.0000000000
10
0.4668938710
20
8.9755375384
30
0.0000000000
10
0.3911243475
20
8.9331460844
30
0.0000000000
10
0.3097851433
20
8.9092391348
30
0.0000000000
10
0.2490636455
20
8.9038671792
30
0.0000000000
10
0.2216314292
20
8.9036100000
30
0.0000000000
11
0.5920194954
21
9.2648420655
31
0.0000000000
11
0.5853650864
21
9.1825286032
31
0.0000000000
11
0.5574831282
21
9.0947374464
31
0.0000000000
11
0.5233832467
21
9.0371476320
31
0.0000000000
11
0.4596248574
21
8.9745736091
31
0.0000000000
11
0.3990247784
21
8.9400295901
31
0.0000000000
11
0.3035845889
21
8.9111606600
31
0.0000000000
11
0.2216314292
21
8.9036100000
31
0.0000000000
0
SPLINE
5
3CA
100
AcDbEntity
8
0
100
AcDbSpline
62
7
6
CONTINUOUS
70
0
71
3
72
15
73
11
74
9
42
0.0000001000
43
0.0000001000
44
0.0000000001
12
0.0000000000
22
0.7840504605
32
0.0000000000
13
-0.7840504605
23
-0.0000000000
33
0.0000000000
40
0.0000000000
40
0.0000000000
40
0.0000000000
40
0.0000000000
40
0.1250035856
40
0.2500003382
40
0.3749971738
40
0.4999931596
40
0.6249941993
40
0.7499962985
40
0.8749988330
40
1.0000000000
40
1.0000000000
40
1.0000000000
40
1.0000000000
10
11.1500000000
20
21.8997711479
30
0.0000000000
10
11.1500000000
20
21.9324408542
30
0.0000000000
10
11.1435720625
20
21.9979588343
30
0.0000000000
10
11.1150028885
20
22.0923353736
30
0.0000000000
10
11.0685863853
20
22.1793736183
30
0.0000000000
10
11.0060858443
20
22.2556795571
30
0.0000000000
10
10.9298940235
20
22.3183228818
30
0.0000000000
10
10.8429223671
20
22.3648787971
30
0.0000000000
10
10.7485697898
20
22.3935479377
30
0.0000000000
10
10.6830496739
20
22.4000000000
30
0.0000000000
10
10.6503805997
20
22.4000000000
30
0.0000000000
11
11.1500000000
21
21.8997711479
31
0.0000000000
11
11.1404171274
21
21.9973106575
31
0.0000000000
11
11.1120282390
21
22.0911126206
31
0.0000000000
11
11.0659057104
21
22.1775849419
31
0.0000000000
11
11.0038050670
21
22.2534013617
31
0.0000000000
11
10.9280978412
21
22.3156413172
31
0.0000000000
11
10.8416923200
21
22.3618976126
31
0.0000000000
11
10.7479148288
21
22.3903828363
31
0.0000000000
11
10.6503805997
21
22.4000000000
31
0.0000000000
0
SPLINE
5
3CB
100
AcDbEntity
8
0
100
AcDbSpline
62
7
6
CONTINUOUS
70
0
71
3
72
14
73
10
74
8
42
0.0000001000
43
0.0000001000
44
0.0000000001
12
0.5826823340
22
-0.0054783287
32
0.0000000000
13
-0.0138156344
23
-0.5825447578
33
0.0000000000
40
0.0000000000
40
0.0000000000
40
0.0000000000
40
0.0000000000
40
0.1412136958
40
0.3123297786
40
0.4320367458
40
0.5853456843
40
0.7002028180
40
0.8582790632
40
1.0000000000
40
1.0000000000
40
1.0000000000
40
1.0000000000
10
-4.1322827716
20
9.6260740000
30
0.0000000000
10
-4.1048551963
20
9.6258161283
30
0.0000000000
10
-4.0441384988
20
9.6204436717
30
0.0000000000
10
-3.9628038009
20
9.5965380466
30
0.0000000000
10
-3.8870342774
20
9.5541465926
30
0.0000000000
10
-3.8322169810
20
9.5005471133
30
0.0000000000
10
-3.7902736747
20
9.4285291636
30
0.0000000000
10
-3.7659289027
20
9.3508787241
30
0.0000000000
10
-3.7612559982
20
9.2923616617
30
0.0000000000
10
-3.7619086531
20
9.2648420655
30
0.0000000000
11
-4.1322827716
21
9.6260740000
31
0.0000000000
11
-4.0503435595
21
9.6185234709
31
0.0000000000
11
-3.9549033700
21
9.5896545408
31
0.0000000000
11
-3.8943032910
21
9.5551105218
31
0.0000000000
11
-3.8305449018
21
9.4925364990
31
0.0000000000
11
-3.7964450202
21
9.4349466845
31
0.0000000000
11
-3.7685630621
21
9.3471555278
31
0.0000000000
11
-3.7619086531
21
9.2648420655
31
0.0000000000
0
SPLINE
5
3CC
100
AcDbEntity
8
0
100
AcDbSpline
62
7
6
CONTINUOUS
70
0
71
3
72
14
73
10
74
8
42
0.0000001000
43
0.0000001000
44
0.0000000001
12
0.0138159651
22
-0.5825587021
32
0.0000000000
13
-0.5826961065
23
-0.0054628224
33
0.0000000000
40
0.0000000000
40
0.0000000000
40
0.0000000000
40
0.0000000000
40
0.1417175445
40
0.2997900060
40
0.4146443905
40
0.5679496593
40
0.6876537611
40
0.8587657481
40
1.0000000000
40
1.0000000000
40
1.0000000000
40
1.0000000000
10
-3.7619086531
20
9.2648420655
30
0.0000000000
10
-3.7612559982
20
9.2373224692
30
0.0000000000
10
-3.7659289027
20
9.1788054068
30
0.0000000000
10
-3.7902736747
20
9.1011549673
30
0.0000000000
10
-3.8322169810
20
9.0291370177
30
0.0000000000
10
-3.8870342774
20
8.9755375384
30
0.0000000000
10
-3.9628038009
20
8.9331460844
30
0.0000000000
10
-4.0441430051
20
8.9092391348
30
0.0000000000
10
-4.1048645030
20
8.9038671792
30
0.0000000000
10
-4.1322967192
20
8.9036100000
30
0.0000000000
11
-3.7619086531
21
9.2648420655
31
0.0000000000
11
-3.7685630621
21
9.1825286032
31
0.0000000000
11
-3.7964450202
21
9.0947374464
31
0.0000000000
11
-3.8305449018
21
9.0371476320
31
0.0000000000
11
-3.8943032910
21
8.9745736091
31
0.0000000000
11
-3.9549033700
21
8.9400295901
31
0.0000000000
11
-4.0503435595
21
8.9111606600
31
0.0000000000
11
-4.1322967192
21
8.9036100000
31
0.0000000000
0
SPLINE
5
3CD
100
AcDbEntity
8
0
100
AcDbSpline
62
7
6
CONTINUOUS
70
0
71
3
72
14
73
10
74
8
42
0.0000001000
43
0.0000001000
44
0.0000000001
12
0.3766294513
22
-0.0000002245
32
0.0000000000
13
-0.0000000000
23
0.3766294458
33
0.0000000000
40
0.0000000000
40
0.0000000000
40
0.0000000000
40
0.0000000000
40
0.1339874565
40
0.3391142834
40
0.5241325151
40
0.6710838711
40
0.7907117415
40
0.9296132615
40
1.0000000000
40
1.0000000000
40
1.0000000000
40
1.0000000000
10
-4.1826967463
20
9.0481030209
30
0.0000000000
10
-4.1658755388
20
9.0481030108
30
0.0000000000
10
-4.1233662595
20
9.0507105809
30
0.0000000000
10
-4.0579387607
20
9.0621892550
30
0.0000000000
10
-3.9975178045
20
9.0959797998
30
0.0000000000
10
-3.9612467533
20
9.1408800827
30
0.0000000000
10
-3.9412596644
20
9.1883377478
30
0.0000000000
10
-3.9365483028
20
9.2297650563
30
0.0000000000
10
-3.9358846156
20
9.2560054927
30
0.0000000000
10
-3.9358846156
20
9.2648420655
30
0.0000000000
11
-4.1826967463
21
9.0481030209
31
0.0000000000
11
-4.1323115816
21
9.0509158910
31
0.0000000000
11
-4.0567588773
21
9.0670528827
31
0.0000000000
11
-3.9965535871
21
9.1021397362
31
0.0000000000
11
-3.9615654308
21
9.1450236683
31
0.0000000000
11
-3.9441453755
21
9.1865751883
31
0.0000000000
11
-3.9365950400
21
9.2383418681
31
0.0000000000
11
-3.9358846156
21
9.2648420655
31
0.0000000000
0
SPLINE
5
3CE
100
AcDbEntity
8
0
100
AcDbSpline
62
7
6
CONTINUOUS
70
0
71
3
72
14
73
10
74
8
42
0.0000001000
43
0.0000001000
44
0.0000000001
12
-0.0000000000
22
0.3766279091
32
0.0000000000
13
-0.3766278800
23
0.0000011804
33
0.0000000000
40
0.0000000000
40
0.0000000000
40
0.0000000000
40
0.0000000000
40
0.0703870257
40
0.2092891124
40
0.3289174709
40
0.4758694265
40
0.6608884130
40
0.8660160768
40
1.0000000000
40
1.0000000000
40
1.0000000000
40
1.0000000000
10
-3.9358846156
20
9.2648420655
30
0.0000000000
10
-3.9358846156
20
9.2736786382
30
0.0000000000
10
-3.9365483028
20
9.2999190746
30
0.0000000000
10
-3.9412596644
20
9.3413463831
30
0.0000000000
10
-3.9612467533
20
9.3888040483
30
0.0000000000
10
-3.9975178045
20
9.4337043311
30
0.0000000000
10
-4.0579387607
20
9.4674948759
30
0.0000000000
10
-4.1233657502
20
9.4789734607
30
0.0000000000
10
-4.1658745160
20
9.4815810574
30
0.0000000000
10
-4.1826952096
20
9.4815811101
30
0.0000000000
11
-3.9358846156
21
9.2648420655
31
0.0000000000
11
-3.9365950400
21
9.2913422629
31
0.0000000000
11
-3.9441453755
21
9.3431089427
31
0.0000000000
11
-3.9615654308
21
9.3846604626
31
0.0000000000
11
-3.9965535871
21
9.4275443947
31
0.0000000000
11
-4.0567588773
21
9.4626312483
31
0.0000000000
11
-4.1323115816
21
9.4787682400
31
0.0000000000
11
-4.1826952096
21
9.4815811101
31
0.0000000000
0
SPLINE
5
3CF
100
AcDbEntity
8
0
100
AcDbSpline
62
7
6
CONTINUOUS
70
0
71
3
72
24
73
20
74
18
42
0.0000001000
43
0.0000001000
44
0.0000000001
12
1.2358053005
22
1.7240741717
32
0.0000000000
13
-1.4026578949
23
-1.5996067317
33
0.0000000000
40
0.0000000000
40
0.0000000000
40
0.0000000000
40
0.0000000000
40
0.0316326273
40
0.0757442861
40
0.1185102075
40
0.1618413932
40
0.2075780448
40
0.2739601994
40
0.3399426429
40
0.4072022921
40
0.4779409825
40
0.5646921550
40
0.6184145696
40
0.6795443636
40
0.7437035005
40
0.8012168796
40
0.8976085710
40
0.9769990890
40
1.0000000000
40
1.0000000000
40
1.0000000000
40
1.0000000000
10
-1.4092292338
20
2.0599436341
30
0.0000000000
10
-1.3961986443
20
2.0781226327
30
0.0000000000
10
-1.3617491787
20
2.1193466882
30
0.0000000000
10
-1.2978365640
20
2.1741809529
30
0.0000000000
10
-1.2165393842
20
2.2186006687
30
0.0000000000
10
-1.1264784623
20
2.2447177812
30
0.0000000000
10
-1.0166041098
20
2.2541365924
30
0.0000000000
10
-0.8902037019
20
2.2373815654
30
0.0000000000
10
-0.7605409613
20
2.1768955005
30
0.0000000000
10
-0.6517330721
20
2.0793309692
30
0.0000000000
10
-0.5698317450
20
1.9405166650
30
0.0000000000
10
-0.5355043397
20
1.7936441602
30
0.0000000000
10
-0.5216645222
20
1.6520105942
30
0.0000000000
10
-0.5183781702
20
1.5255628971
30
0.0000000000
10
-0.5217232684
20
1.3964683632
30
0.0000000000
10
-0.5357772318
20
1.2431326223
30
0.0000000000
10
-0.5700463176
20
1.0807587317
30
0.0000000000
10
-0.6332763073
20
0.9534024840
30
0.0000000000
10
-0.6784575973
20
0.8964551005
30
0.0000000000
10
-0.6892117338
20
0.8841909631
30
0.0000000000
11
-1.4092292338
21
2.0599436341
31
0.0000000000
11
-1.3663086718
21
2.1114775328
31
0.0000000000
11
-1.2952056832
21
2.1720811122
31
0.0000000000
11
-1.2156436787
21
2.2153693832
31
0.0000000000
11
-1.1276226582
21
2.2413423458
31
0.0000000000
11
-1.0311426217
21
2.2500000000
31
0.0000000000
11
-0.8919233912
21
2.2303886180
31
0.0000000000
11
-0.7651644998
21
2.1715544720
31
0.0000000000
11
-0.6591293762
21
2.0764272425
31
0.0000000000
11
-0.5820814494
21
1.9479366099
31
0.0000000000
11
-0.5351657031
21
1.7702932351
31
0.0000000000
11
-0.5234367665
21
1.6571182671
31
0.0000000000
11
-0.5195271210
21
1.5277077787
31
0.0000000000
11
-0.5234062060
21
1.3918776438
31
0.0000000000
11
-0.5350434612
21
1.2706246413
31
0.0000000000
11
-0.5815924816
21
1.0718500333
31
0.0000000000
11
-0.6587952403
21
0.9224767183
31
0.0000000000
11
-0.6892117338
21
0.8841909631
31
0.0000000000
0
SPLINE
5
3D0
100
AcDbEntity
8
0
100
AcDbSpline
62
7
6
CONTINUOUS
70
0
71
3
72
15
73
11
74
9
42
0.0000001000
43
0.0000001000
44
0.0000000001
12
-0.6767751176
22
-0.7718019039
32
0.0000000000
13
-0.1286404654
23
1.0137681242
33
0.0000000000
40
0.0000000000
40
0.0000000000
40
0.0000000000
40
0.0000000000
40
0.1020414822
40
0.2476933185
40
0.3223928382
40
0.4006542512
40
0.4825821871
40
0.5585825101
40
0.7019029522
40
1.0000000000
40
1.0000000000
40
1.0000000000
40
1.0000000000
10
-0.6892117338
20
0.8841909631
30
0.0000000000
10
-0.7122314458
20
0.8579390264
30
0.0000000000
10
-0.7748350150
20
0.8000920579
30
0.0000000000
10
-0.8751857135
20
0.7502650770
30
0.0000000000
10
-0.9748783124
20
0.7283811249
30
0.0000000000
10
-1.0549730022
20
0.7231600775
30
0.0000000000
10
-1.1355719716
20
0.7285576524
30
0.0000000000
10
-1.2358063891
20
0.7521816936
30
0.0000000000
10
-1.3944317857
20
0.8403261270
30
0.0000000000
10
-1.4601521838
20
0.9955805638
30
0.0000000000
10
-1.4729346314
20
1.0963143255
30
0.0000000000
11
-0.6892117338
21
0.8841909631
31
0.0000000000
11
-0.7662727950
21
0.8135974598
31
0.0000000000
11
-0.8994452189
21
0.7471232871
31
0.0000000000
11
-0.9739495341
21
0.7305047439
31
0.0000000000
11
-1.0537325849
21
0.7249652295
31
0.0000000000
11
-1.1372327650
21
0.7310548237
31
0.0000000000
11
-1.2127180650
21
0.7493236064
31
0.0000000000
11
-1.3396440244
21
0.8223987373
31
0.0000000000
11
-1.4729346314
21
1.0963143255
31
0.0000000000
0
SPLINE
5
3D1
100
AcDbEntity
8
0
100
AcDbSpline
62
9
6
CONTINUOUS
70
0
71
3
72
10
73
6
74
4
42
0.0000001000
43
0.0000001000
44
0.0000000001
12
0.0289303573
22
-40.6416008992
32
0.0000000000
13
-0.0289303520
23
-40.6416008992
33
0.0000000000
40
0.0000000000
40
0.0000000000
40
0.0000000000
40
0.0000000000
40
0.3332926785
40
0.6667073248
40
1.0000000000
40
1.0000000000
40
1.0000000000
40
1.0000000000
10
-9.3210496061
20
20.3208040737
30
0.0000000000
10
-9.3178355140
20
15.8056213995
30
0.0000000000
10
-9.3135521883
20
6.7736020499
30
0.0000000000
10
-9.3135521893
20
-6.7736021387
30
0.0000000000
10
-9.3178355118
20
-15.8056214439
30
0.0000000000
10
-9.3210496032
20
-20.3208040737
30
0.0000000000
11
-9.3210496061
21
20.3208040737
31
0.0000000000
11
-9.3146234118
21
6.7752541436
31
0.0000000000
11
-9.3146234116
21
-6.7752542768
31
0.0000000000
11
-9.3210496032
21
-20.3208040737
31
0.0000000000
0
SPLINE
5
3D2
100
AcDbEntity
8
0
100
AcDbSpline
62
7
6
CONTINUOUS
70
0
71
3
72
10
73
6
74
4
42
0.0000001000
43
0.0000001000
44
0.0000000001
12
0.0023047879
22
-6.4981676088
32
0.0000000000
13
0.0015642592
23
-6.4981678292
33
0.0000000000
40
0.0000000000
40
0.0000000000
40
0.0000000000
40
0.0000000000
40
0.3332826841
40
0.6666181964
40
1.0000000000
40
1.0000000000
40
1.0000000000
40
1.0000000000
10
-6.5168087892
20
20.2436317461
30
0.0000000000
10
-6.5165527406
20
19.5217228320
30
0.0000000000
10
-6.5160680429
20
18.0777905650
30
0.0000000000
10
-6.5154232353
20
15.9117346547
30
0.0000000000
10
-6.5150481799
20
14.4675876566
30
0.0000000000
10
-6.5148743481
20
13.7454640196
30
0.0000000000
11
-6.5168087892
21
20.2436317461
31
0.0000000000
11
-6.5160817935
21
18.0779049896
31
0.0000000000
11
-6.5154369755
21
15.9118349204
31
0.0000000000
11
-6.5148743481
21
13.7454640196
31
0.0000000000
0
SPLINE
5
3D3
100
AcDbEntity
8
0
100
AcDbSpline
62
7
6
CONTINUOUS
70
0
71
3
72
10
73
6
74
4
42
0.0000001000
43
0.0000001000
44
0.0000000001
12
-0.4141596907
22
-0.3614301979
32
0.0000000000
13
-0.4068517711
23
-0.3696372191
33
0.0000000000
40
0.0000000000
40
0.0000000000
40
0.0000000000
40
0.0000000000
40
0.3329503463
40
0.6662837738
40
1.0000000000
40
1.0000000000
40
1.0000000000
40
1.0000000000
10
-6.8264938632
20
21.2000000000
30
0.0000000000
10
-6.8724587340
20
21.1598872301
30
0.0000000000
10
-6.9641745086
20
21.0793091372
30
0.0000000000
10
-7.1010184300
20
20.9574587127
30
0.0000000000
10
-7.1917563418
20
20.8755714132
30
0.0000000000
10
-7.2370140210
20
20.8344534339
30
0.0000000000
11
-6.8264938632
21
21.2000000000
31
0.0000000000
11
-6.9639872088
21
21.0792034238
31
0.0000000000
11
-7.1008302577
21
20.9573537770
31
0.0000000000
11
-7.2370140210
21
20.8344534339
31
0.0000000000
0
SPLINE
5
3D4
100
AcDbEntity
8
0
100
AcDbSpline
62
7
6
CONTINUOUS
70
0
71
3
72
10
73
6
74
4
42
0.0000001000
43
0.0000001000
44
0.0000000001
12
-0.0023047879
22
-6.4981676088
32
0.0000000000
13
-0.0015642592
23
-6.4981678292
33
0.0000000000
40
0.0000000000
40
0.0000000000
40
0.0000000000
40
0.0000000000
40
0.3332826841
40
0.6666181964
40
1.0000000000
40
1.0000000000
40
1.0000000000
40
1.0000000000
10
6.5168087892
20
20.2436317461
30
0.0000000000
10
6.5165527406
20
19.5217228320
30
0.0000000000
10
6.5160680429
20
18.0777905650
30
0.0000000000
10
6.5154232353
20
15.9117346547
30
0.0000000000
10
6.5150481799
20
14.4675876566
30
0.0000000000
10
6.5148743481
20
13.7454640196
30
0.0000000000
11
6.5168087892
21
20.2436317461
31
0.0000000000
11
6.5160817935
21
18.0779049896
31
0.0000000000
11
6.5154369755
21
15.9118349204
31
0.0000000000
11
6.5148743481
21
13.7454640196
31
0.0000000000
0
SPLINE
5
3D5
100
AcDbEntity
8
0
100
AcDbSpline
62
7
6
CONTINUOUS
70
0
71
3
72
11
73
7
74
5
42
0.0000001000
43
0.0000001000
44
0.0000000001
12
-0.1356864029
22
-0.1356864029
32
0.0000000000
13
-0.0000680599
23
-0.1918895391
33
0.0000000000
40
0.0000000000
40
0.0000000000
40
0.0000000000
40
0.0000000000
40
0.0780935907
40
0.2945767613
40
0.6177468338
40
1.0000000000
40
1.0000000000
40
1.0000000000
40
1.0000000000
10
-0.4644976875
20
20.4355023125
30
0.0000000000
10
-0.4680297670
20
20.4319702330
30
0.0000000000
10
-0.4612576601
20
20.4097582206
30
0.0000000000
10
-0.4681238586
20
20.3732557001
30
0.0000000000
10
-0.4652104706
20
20.3127717367
30
0.0000000000
10
-0.4662177182
20
20.2680818740
30
0.0000000000
10
-0.4662263902
20
20.2436317461
30
0.0000000000
11
-0.4644976875
21
20.4355023125
31
0.0000000000
11
-0.4651451939
21
20.4205309641
31
0.0000000000
11
-0.4656983563
21
20.3789937888
31
0.0000000000
11
-0.4660764494
21
20.3169819813
31
0.0000000000
11
-0.4662263902
21
20.2436317461
31
0.0000000000
0
SPLINE
5
3D6
100
AcDbEntity
8
0
100
AcDbSpline
62
7
6
CONTINUOUS
70
0
71
3
72
10
73
6
74
4
42
0.0000001000
43
0.0000001000
44
0.0000000001
12
-0.0023047879
22
-6.4981676088
32
0.0000000000
13
-0.0015642592
23
-6.4981678292
33
0.0000000000
40
0.0000000000
40
0.0000000000
40
0.0000000000
40
0.0000000000
40
0.3332826841
40
0.6666181964
40
1.0000000000
40
1.0000000000
40
1.0000000000
40
1.0000000000
10
-0.4662263902
20
20.2436317461
30
0.0000000000
10
-0.4664824389
20
19.5217228320
30
0.0000000000
10
-0.4669671366
20
18.0777905650
30
0.0000000000
10
-0.4676119442
20
15.9117346547
30
0.0000000000
10
-0.4679869996
20
14.4675876566
30
0.0000000000
10
-0.4681608314
20
13.7454640196
30
0.0000000000
11
-0.4662263902
21
20.2436317461
31
0.0000000000
11
-0.4669533860
21
18.0779049896
31
0.0000000000
11
-0.4675982040
21
15.9118349204
31
0.0000000000
11
-0.4681608314
21
13.7454640196
31
0.0000000000
0
SPLINE
5
3D7
100
AcDbEntity
8
0
100
AcDbSpline
62
7
6
CONTINUOUS
70
0
71
3
72
11
73
7
74
5
42
0.0000001000
43
0.0000001000
44
0.0000000001
12
0.0000680599
22
-0.1918895391
32
0.0000000000
13
0.1356864029
23
-0.1356864029
33
0.0000000000
40
0.0000000000
40
0.0000000000
40
0.0000000000
40
0.0000000000
40
0.3822531662
40
0.7054232387
40
0.9219064093
40
1.0000000000
40
1.0000000000
40
1.0000000000
40
1.0000000000
10
-0.4662263902
20
-20.2436317461
30
0.0000000000
10
-0.4662177182
20
-20.2680818740
30
0.0000000000
10
-0.4652104706
20
-20.3127717367
30
0.0000000000
10
-0.4681238586
20
-20.3732557001
30
0.0000000000
10
-0.4612576601
20
-20.4097582206
30
0.0000000000
10
-0.4680297670
20
-20.4319702330
30
0.0000000000
10
-0.4644976875
20
-20.4355023125
30
0.0000000000
11
-0.4662263902
21
-20.2436317461
31
0.0000000000
11
-0.4660764494
21
-20.3169819813
31
0.0000000000
11
-0.4656983563
21
-20.3789937888
31
0.0000000000
11
-0.4651451939
21
-20.4205309641
31
0.0000000000
11
-0.4644976875
21
-20.4355023125
31
0.0000000000
0
SPLINE
5
3D8
100
AcDbEntity
8
0
100
AcDbSpline
62
7
6
CONTINUOUS
70
0
71
3
72
10
73
6
74
4
42
0.0000001000
43
0.0000001000
44
0.0000000001
12
0.0015642592
22
-6.4981678292
32
0.0000000000
13
0.0023047879
23
-6.4981676088
33
0.0000000000
40
0.0000000000
40
0.0000000000
40
0.0000000000
40
0.0000000000
40
0.3333818036
40
0.6667173159
40
1.0000000000
40
1.0000000000
40
1.0000000000
40
1.0000000000
10
-0.4681608314
20
-13.7454640196
30
0.0000000000
10
-0.4679869996
20
-14.4675876566
30
0.0000000000
10
-0.4676119442
20
-15.9117346547
30
0.0000000000
10
-0.4669671366
20
-18.0777905650
30
0.0000000000
10
-0.4664824389
20
-19.5217228320
30
0.0000000000
10
-0.4662263902
20
-20.2436317461
30
0.0000000000
11
-0.4681608314
21
-13.7454640196
31
0.0000000000
11
-0.4675982040
21
-15.9118349204
31
0.0000000000
11
-0.4669533860
21
-18.0779049896
31
0.0000000000
11
-0.4662263902
21
-20.2436317461
31
0.0000000000
0
SPLINE
5
3D9
100
AcDbEntity
8
0
100
AcDbSpline
62
7
6
CONTINUOUS
70
0
71
3
72
11
73
7
74
5
42
0.0000001000
43
0.0000001000
44
0.0000000001
12
-0.0000680599
22
0.1918895391
32
0.0000000000
13
-0.1356864029
23
0.1356864029
33
0.0000000000
40
0.0000000000
40
0.0000000000
40
0.0000000000
40
0.0000000000
40
0.3822531662
40
0.7054232387
40
0.9219064093
40
1.0000000000
40
1.0000000000
40
1.0000000000
40
1.0000000000
10
0.4662263902
20
20.2436317461
30
0.0000000000
10
0.4662177182
20
20.2680818740
30
0.0000000000
10
0.4652104706
20
20.3127717367
30
0.0000000000
10
0.4681238586
20
20.3732557001
30
0.0000000000
10
0.4612576601
20
20.4097582206
30
0.0000000000
10
0.4680297670
20
20.4319702330
30
0.0000000000
10
0.4644976875
20
20.4355023125
30
0.0000000000
11
0.4662263902
21
20.2436317461
31
0.0000000000
11
0.4660764494
21
20.3169819813
31
0.0000000000
11
0.4656983563
21
20.3789937888
31
0.0000000000
11
0.4651451939
21
20.4205309641
31
0.0000000000
11
0.4644976875
21
20.4355023125
31
0.0000000000
0
SPLINE
5
3DA
100
AcDbEntity
8
0
100
AcDbSpline
62
7
6
CONTINUOUS
70
0
71
3
72
10
73
6
74
4
42
0.0000001000
43
0.0000001000
44
0.0000000001
12
0.0023047879
22
-6.4981676088
32
0.0000000000
13
0.0015642592
23
-6.4981678292
33
0.0000000000
40
0.0000000000
40
0.0000000000
40
0.0000000000
40
0.0000000000
40
0.3332826841
40
0.6666181964
40
1.0000000000
40
1.0000000000
40
1.0000000000
40
1.0000000000
10
0.4662263902
20
20.2436317461
30
0.0000000000
10
0.4664824389
20
19.5217228320
30
0.0000000000
10
0.4669671366
20
18.0777905650
30
0.0000000000
10
0.4676119442
20
15.9117346547
30
0.0000000000
10
0.4679869996
20
14.4675876566
30
0.0000000000
10
0.4681608314
20
13.7454640196
30
0.0000000000
11
0.4662263902
21
20.2436317461
31
0.0000000000
11
0.4669533860
21
18.0779049896
31
0.0000000000
11
0.4675982040
21
15.9118349204
31
0.0000000000
11
0.4681608314
21
13.7454640196
31
0.0000000000
0
SPLINE
5
3DB
100
AcDbEntity
8
0
100
AcDbSpline
62
7
6
CONTINUOUS
70
0
71
3
72
11
73
7
74
5
42
0.0000001000
43
0.0000001000
44
0.0000000001
12
0.1356864029
22
0.1356864029
32
0.0000000000
13
0.0000680599
23
0.1918895391
33
0.0000000000
40
0.0000000000
40
0.0000000000
40
0.0000000000
40
0.0000000000
40
0.0780935907
40
0.2945767613
40
0.6177468338
40
1.0000000000
40
1.0000000000
40
1.0000000000
40
1.0000000000
10
0.4644976875
20
-20.4355023125
30
0.0000000000
10
0.4680297670
20
-20.4319702330
30
0.0000000000
10
0.4612576601
20
-20.4097582206
30
0.0000000000
10
0.4681238586
20
-20.3732557001
30
0.0000000000
10
0.4652104706
20
-20.3127717367
30
0.0000000000
10
0.4662177182
20
-20.2680818740
30
0.0000000000
10
0.4662263902
20
-20.2436317461
30
0.0000000000
11
0.4644976875
21
-20.4355023125
31
0.0000000000
11
0.4651451939
21
-20.4205309641
31
0.0000000000
11
0.4656983563
21
-20.3789937888
31
0.0000000000
11
0.4660764494
21
-20.3169819813
31
0.0000000000
11
0.4662263902
21
-20.2436317461
31
0.0000000000
0
SPLINE
5
3DC
100
AcDbEntity
8
0
100
AcDbSpline
62
7
6
CONTINUOUS
70
0
71
3
72
10
73
6
74
4
42
0.0000001000
43
0.0000001000
44
0.0000000001
12
-0.0015642592
22
-6.4981678292
32
0.0000000000
13
-0.0023047879
23
-6.4981676088
33
0.0000000000
40
0.0000000000
40
0.0000000000
40
0.0000000000
40
0.0000000000
40
0.3333818036
40
0.6667173159
40
1.0000000000
40
1.0000000000
40
1.0000000000
40
1.0000000000
10
0.4681608314
20
-13.7454640196
30
0.0000000000
10
0.4679869996
20
-14.4675876566
30
0.0000000000
10
0.4676119442
20
-15.9117346547
30
0.0000000000
10
0.4669671366
20
-18.0777905650
30
0.0000000000
10
0.4664824389
20
-19.5217228320
30
0.0000000000
10
0.4662263902
20
-20.2436317461
30
0.0000000000
11
0.4681608314
21
-13.7454640196
31
0.0000000000
11
0.4675982040
21
-15.9118349204
31
0.0000000000
11
0.4669533860
21
-18.0779049896
31
0.0000000000
11
0.4662263902
21
-20.2436317461
31
0.0000000000
0
SPLINE
5
3DD
100
AcDbEntity
8
0
100
AcDbSpline
62
7
6
CONTINUOUS
70
0
71
3
72
10
73
6
74
4
42
0.0000001000
43
0.0000001000
44
0.0000000001
12
-0.4068517711
22
0.3696372191
32
0.0000000000
13
-0.4141596907
23
0.3614301979
33
0.0000000000
40
0.0000000000
40
0.0000000000
40
0.0000000000
40
0.0000000000
40
0.3337162262
40
0.6670496537
40
1.0000000000
40
1.0000000000
40
1.0000000000
40
1.0000000000
10
7.2370140210
20
20.8344534339
30
0.0000000000
10
7.1917563418
20
20.8755714132
30
0.0000000000
10
7.1010184300
20
20.9574587127
30
0.0000000000
10
6.9641745086
20
21.0793091372
30
0.0000000000
10
6.8724587340
20
21.1598872301
30
0.0000000000
10
6.8264938632
20
21.2000000000
30
0.0000000000
11
7.2370140210
21
20.8344534339
31
0.0000000000
11
7.1008302577
21
20.9573537770
31
0.0000000000
11
6.9639872088
21
21.0792034238
31
0.0000000000
11
6.8264938632
21
21.2000000000
31
0.0000000000
0
SPLINE
5
3DE
100
AcDbEntity
8
0
100
AcDbSpline
62
9
6
CONTINUOUS
70
0
71
3
72
10
73
6
74
4
42
0.0000001000
43
0.0000001000
44
0.0000000001
12
-0.0289303520
22
40.6416008992
32
0.0000000000
13
0.0289303573
23
40.6416008992
33
0.0000000000
40
0.0000000000
40
0.0000000000
40
0.0000000000
40
0.0000000000
40
0.3332926752
40
0.6667073215
40
1.0000000000
40
1.0000000000
40
1.0000000000
40
1.0000000000
10
9.3210496032
20
-20.3208040737
30
0.0000000000
10
9.3178355118
20
-15.8056214439
30
0.0000000000
10
9.3135521893
20
-6.7736021387
30
0.0000000000
10
9.3135521883
20
6.7736020499
30
0.0000000000
10
9.3178355140
20
15.8056213995
30
0.0000000000
10
9.3210496061
20
20.3208040737
30
0.0000000000
11
9.3210496032
21
-20.3208040737
31
0.0000000000
11
9.3146234116
21
-6.7752542768
31
0.0000000000
11
9.3146234118
21
6.7752541436
31
0.0000000000
11
9.3210496061
21
20.3208040737
31
0.0000000000
0
SPLINE
5
3DF
100
AcDbEntity
8
0
100
AcDbSpline
62
7
6
CONTINUOUS
70
0
71
3
72
12
73
8
74
6
42
0.0000001000
43
0.0000001000
44
0.0000000001
12
0.0000000000
22
-0.5000533669
32
0.0000000000
13
0.5000533669
23
0.0000000000
33
0.0000000000
40
0.0000000000
40
0.0000000000
40
0.0000000000
40
0.0000000000
40
0.3075127963
40
0.5878288167
40
0.8085955321
40
0.9515311525
40
1.0000000000
40
1.0000000000
40
1.0000000000
40
1.0000000000
10
-6.6615769896
20
19.0000000000
30
0.0000000000
10
-6.6615769896
20
18.9487423969
30
0.0000000000
10
-6.6622961652
20
18.8498098205
30
0.0000000000
10
-6.6584403523
20
18.7187219774
30
0.0000000000
10
-6.6659935416
20
18.6019442288
30
0.0000000000
10
-6.6489096162
20
18.5513005722
30
0.0000000000
10
-6.6652925592
20
18.5000000000
30
0.0000000000
10
-6.6572135557
20
18.5000000000
30
0.0000000000
11
-6.6615769896
21
19.0000000000
31
0.0000000000
11
-6.6613655089
21
18.8462273363
31
0.0000000000
11
-6.6607433205
21
18.7060557474
31
0.0000000000
11
-6.6597803982
21
18.5956648077
31
0.0000000000
11
-6.6585546072
21
18.5241998813
31
0.0000000000
11
-6.6572135557
21
18.5000000000
31
0.0000000000
0
SPLINE
5
3E0
100
AcDbEntity
8
0
100
AcDbSpline
62
7
6
CONTINUOUS
70
0
71
3
72
9
73
5
74
3
42
0.0000001000
43
0.0000001000
44
0.0000000001
12
-0.0012341291
22
-0.1414171897
32
0.0000000000
13
0.0000000000
23
-0.1414225746
33
0.0000000000
40
0.0000000000
40
0.0000000000
40
0.0000000000
40
0.0000000000
40
0.4593094356
40
1.0000000000
40
1.0000000000
40
1.0000000000
40
1.0000000000
10
-6.6610657815
20
20.2585786438
30
0.0000000000
10
-6.6612547306
20
20.2369272272
30
0.0000000000
10
-6.6614996955
20
20.1897867633
30
0.0000000000
10
-6.6615769896
20
20.1426459048
30
0.0000000000
10
-6.6615769896
20
20.1171572875
30
0.0000000000
11
-6.6610657815
21
20.2585786438
31
0.0000000000
11
-6.6614443873
21
20.1936230242
31
0.0000000000
11
-6.6615769896
21
20.1171572875
31
0.0000000000
0
SPLINE
5
3E1
100
AcDbEntity
8
0
100
AcDbSpline
62
7
6
CONTINUOUS
70
0
71
3
72
11
73
7
74
5
42
0.0000001000
43
0.0000001000
44
0.0000000001
12
-0.0000680599
22
0.1918895391
32
0.0000000000
13
-0.1356864029
23
0.1356864029
33
0.0000000000
40
0.0000000000
40
0.0000000000
40
0.0000000000
40
0.0000000000
40
0.3822531662
40
0.7054232387
40
0.9219064093
40
1.0000000000
40
1.0000000000
40
1.0000000000
40
1.0000000000
10
-6.5168087892
20
20.2436317461
30
0.0000000000
10
-6.5168174613
20
20.2680818740
30
0.0000000000
10
-6.5178247089
20
20.3127717367
30
0.0000000000
10
-6.5149113209
20
20.3732557001
30
0.0000000000
10
-6.5217775194
20
20.4097582206
30
0.0000000000
10
-6.5150054125
20
20.4319702330
30
0.0000000000
10
-6.5185374920
20
20.4355023125
30
0.0000000000
11
-6.5168087892
21
20.2436317461
31
0.0000000000
11
-6.5169587300
21
20.3169819813
31
0.0000000000
11
-6.5173368232
21
20.3789937888
31
0.0000000000
11
-6.5178899856
21
20.4205309641
31
0.0000000000
11
-6.5185374920
21
20.4355023125
31
0.0000000000
0
SPLINE
5
3E2
100
AcDbEntity
8
0
100
AcDbSpline
62
7
6
CONTINUOUS
70
0
71
3
72
12
73
8
74
6
42
0.0000001000
43
0.0000001000
44
0.0000000001
12
-0.5000533669
22
0.0000000000
32
0.0000000000
13
-0.0000000000
23
-0.5000533669
33
0.0000000000
40
0.0000000000
40
0.0000000000
40
0.0000000000
40
0.0000000000
40
0.0484688475
40
0.1914044679
40
0.4121711833
40
0.6924872037
40
1.0000000000
40
1.0000000000
40
1.0000000000
40
1.0000000000
10
-6.6572135557
20
-18.5000000000
30
0.0000000000
10
-6.6652925592
20
-18.5000000000
30
0.0000000000
10
-6.6489096162
20
-18.5513005722
30
0.0000000000
10
-6.6659935416
20
-18.6019442288
30
0.0000000000
10
-6.6584403523
20
-18.7187219774
30
0.0000000000
10
-6.6622961652
20
-18.8498098205
30
0.0000000000
10
-6.6615769896
20
-18.9487423969
30
0.0000000000
10
-6.6615769896
20
-19.0000000000
30
0.0000000000
11
-6.6572135557
21
-18.5000000000
31
0.0000000000
11
-6.6585546072
21
-18.5241998813
31
0.0000000000
11
-6.6597803982
21
-18.5956648077
31
0.0000000000
11
-6.6607433205
21
-18.7060557474
31
0.0000000000
11
-6.6613655089
21
-18.8462273363
31
0.0000000000
11
-6.6615769896
21
-19.0000000000
31
0.0000000000
0
SPLINE
5
3E3
100
AcDbEntity
8
0
100
AcDbSpline
62
7
6
CONTINUOUS
70
0
71
3
72
11
73
7
74
5
42
0.0000001000
43
0.0000001000
44
0.0000000001
12
0.1356864029
22
0.1356864029
32
0.0000000000
13
0.0000680599
23
0.1918895391
33
0.0000000000
40
0.0000000000
40
0.0000000000
40
0.0000000000
40
0.0000000000
40
0.0780935907
40
0.2945767613
40
0.6177468338
40
1.0000000000
40
1.0000000000
40
1.0000000000
40
1.0000000000
10
-6.5185374920
20
-20.4355023125
30
0.0000000000
10
-6.5150054125
20
-20.4319702330
30
0.0000000000
10
-6.5217775194
20
-20.4097582206
30
0.0000000000
10
-6.5149113209
20
-20.3732557001
30
0.0000000000
10
-6.5178247089
20
-20.3127717367
30
0.0000000000
10
-6.5168174613
20
-20.2680818740
30
0.0000000000
10
-6.5168087892
20
-20.2436317461
30
0.0000000000
11
-6.5185374920
21
-20.4355023125
31
0.0000000000
11
-6.5178899856
21
-20.4205309641
31
0.0000000000
11
-6.5173368232
21
-20.3789937888
31
0.0000000000
11
-6.5169587300
21
-20.3169819813
31
0.0000000000
11
-6.5168087892
21
-20.2436317461
31
0.0000000000
0
SPLINE
5
3E4
100
AcDbEntity
8
0
100
AcDbSpline
62
7
6
CONTINUOUS
70
0
71
3
72
9
73
5
74
3
42
0.0000001000
43
0.0000001000
44
0.0000000001
12
0.0000000000
22
-0.1414225746
32
0.0000000000
13
0.0012341291
23
-0.1414171897
33
0.0000000000
40
0.0000000000
40
0.0000000000
40
0.0000000000
40
0.0000000000
40
0.5406905644
40
1.0000000000
40
1.0000000000
40
1.0000000000
40
1.0000000000
10
-6.6615769896
20
-20.1171572875
30
0.0000000000
10
-6.6615769896
20
-20.1426459048
30
0.0000000000
10
-6.6614996955
20
-20.1897867633
30
0.0000000000
10
-6.6612547306
20
-20.2369272272
30
0.0000000000
10
-6.6610657815
20
-20.2585786438
30
0.0000000000
11
-6.6615769896
21
-20.1171572875
31
0.0000000000
11
-6.6614443873
21
-20.1936230242
31
0.0000000000
11
-6.6610657815
21
-20.2585786438
31
0.0000000000
0
SPLINE
5
3E5
100
AcDbEntity
8
0
100
AcDbSpline
62
7
6
CONTINUOUS
70
0
71
3
72
10
73
6
74
4
42
0.0000001000
43
0.0000001000
44
0.0000000001
12
0.4141596907
22
0.3614301979
32
0.0000000000
13
0.4068517711
23
0.3696372191
33
0.0000000000
40
0.0000000000
40
0.0000000000
40
0.0000000000
40
0.0000000000
40
0.3329503463
40
0.6662837738
40
1.0000000000
40
1.0000000000
40
1.0000000000
40
1.0000000000
10
6.8264938632
20
-21.2000000000
30
0.0000000000
10
6.8724587340
20
-21.1598872301
30
0.0000000000
10
6.9641745086
20
-21.0793091372
30
0.0000000000
10
7.1010184300
20
-20.9574587127
30
0.0000000000
10
7.1917563418
20
-20.8755714132
30
0.0000000000
10
7.2370140210
20
-20.8344534339
30
0.0000000000
11
6.8264938632
21
-21.2000000000
31
0.0000000000
11
6.9639872088
21
-21.0792034238
31
0.0000000000
11
7.1008302577
21
-20.9573537770
31
0.0000000000
11
7.2370140210
21
-20.8344534339
31
0.0000000000
0
SPLINE
5
3E6
100
AcDbEntity
8
0
100
AcDbSpline
62
7
6
CONTINUOUS
70
0
71
3
72
12
73
8
74
6
42
0.0000001000
43
0.0000001000
44
0.0000000001
12
0.5000533669
22
0.0000000000
32
0.0000000000
13
0.0000000000
23
0.5000533669
33
0.0000000000
40
0.0000000000
40
0.0000000000
40
0.0000000000
40
0.0000000000
40
0.0484688475
40
0.1914044679
40
0.4121711833
40
0.6924872037
40
1.0000000000
40
1.0000000000
40
1.0000000000
40
1.0000000000
10
6.6572135557
20
18.5000000000
30
0.0000000000
10
6.6652925592
20
18.5000000000
30
0.0000000000
10
6.6489096162
20
18.5513005722
30
0.0000000000
10
6.6659935416
20
18.6019442288
30
0.0000000000
10
6.6584403523
20
18.7187219774
30
0.0000000000
10
6.6622961652
20
18.8498098205
30
0.0000000000
10
6.6615769896
20
18.9487423969
30
0.0000000000
10
6.6615769896
20
19.0000000000
30
0.0000000000
11
6.6572135557
21
18.5000000000
31
0.0000000000
11
6.6585546072
21
18.5241998813
31
0.0000000000
11
6.6597803982
21
18.5956648077
31
0.0000000000
11
6.6607433205
21
18.7060557474
31
0.0000000000
11
6.6613655089
21
18.8462273363
31
0.0000000000
11
6.6615769896
21
19.0000000000
31
0.0000000000
0
SPLINE
5
3E7
100
AcDbEntity
8
0
100
AcDbSpline
62
7
6
CONTINUOUS
70
0
71
3
72
11
73
7
74
5
42
0.0000001000
43
0.0000001000
44
0.0000000001
12
-0.1356864029
22
-0.1356864029
32
0.0000000000
13
-0.0000680599
23
-0.1918895391
33
0.0000000000
40
0.0000000000
40
0.0000000000
40
0.0000000000
40
0.0000000000
40
0.0780935907
40
0.2945767613
40
0.6177468338
40
1.0000000000
40
1.0000000000
40
1.0000000000
40
1.0000000000
10
6.5185374920
20
20.4355023125
30
0.0000000000
10
6.5150054125
20
20.4319702330
30
0.0000000000
10
6.5217775194
20
20.4097582206
30
0.0000000000
10
6.5149113209
20
20.3732557001
30
0.0000000000
10
6.5178247089
20
20.3127717367
30
0.0000000000
10
6.5168174613
20
20.2680818740
30
0.0000000000
10
6.5168087892
20
20.2436317461
30
0.0000000000
11
6.5185374920
21
20.4355023125
31
0.0000000000
11
6.5178899856
21
20.4205309641
31
0.0000000000
11
6.5173368232
21
20.3789937888
31
0.0000000000
11
6.5169587300
21
20.3169819813
31
0.0000000000
11
6.5168087892
21
20.2436317461
31
0.0000000000
0
SPLINE
5
3E8
100
AcDbEntity
8
0
100
AcDbSpline
62
7
6
CONTINUOUS
70
0
71
3
72
10
73
6
74
4
42
0.0000001000
43
0.0000001000
44
0.0000000001
12
0.0015642592
22
-6.4981678292
32
0.0000000000
13
0.0023047879
23
-6.4981676088
33
0.0000000000
40
0.0000000000
40
0.0000000000
40
0.0000000000
40
0.0000000000
40
0.3333818036
40
0.6667173159
40
1.0000000000
40
1.0000000000
40
1.0000000000
40
1.0000000000
10
6.5148743481
20
-13.7454640196
30
0.0000000000
10
6.5150481799
20
-14.4675876566
30
0.0000000000
10
6.5154232353
20
-15.9117346547
30
0.0000000000
10
6.5160680429
20
-18.0777905650
30
0.0000000000
10
6.5165527406
20
-19.5217228320
30
0.0000000000
10
6.5168087892
20
-20.2436317461
30
0.0000000000
11
6.5148743481
21
-13.7454640196
31
0.0000000000
11
6.5154369755
21
-15.9118349204
31
0.0000000000
11
6.5160817935
21
-18.0779049896
31
0.0000000000
11
6.5168087892
21
-20.2436317461
31
0.0000000000
0
SPLINE
5
3E9
100
AcDbEntity
8
0
100
AcDbSpline
62
7
6
CONTINUOUS
70
0
71
3
72
9
73
5
74
3
42
0.0000001000
43
0.0000001000
44
0.0000000001
12
0.0000000000
22
0.1414225746
32
0.0000000000
13
-0.0012341291
23
0.1414171897
33
0.0000000000
40
0.0000000000
40
0.0000000000
40
0.0000000000
40
0.0000000000
40
0.5406905644
40
1.0000000000
40
1.0000000000
40
1.0000000000
40
1.0000000000
10
6.6615769896
20
20.1171572875
30
0.0000000000
10
6.6615769896
20
20.1426459048
30
0.0000000000
10
6.6614996955
20
20.1897867633
30
0.0000000000
10
6.6612547306
20
20.2369272272
30
0.0000000000
10
6.6610657815
20
20.2585786438
30
0.0000000000
11
6.6615769896
21
20.1171572875
31
0.0000000000
11
6.6614443873
21
20.1936230242
31
0.0000000000
11
6.6610657815
21
20.2585786438
31
0.0000000000
0
SPLINE
5
3EA
100
AcDbEntity
8
0
100
AcDbSpline
62
7
6
CONTINUOUS
70
0
71
3
72
12
73
8
74
6
42
0.0000001000
43
0.0000001000
44
0.0000000001
12
0.0000000000
22
0.5000533669
32
0.0000000000
13
-0.5000533669
23
0.0000000000
33
0.0000000000
40
0.0000000000
40
0.0000000000
40
0.0000000000
40
0.0000000000
40
0.3075127963
40
0.5878288167
40
0.8085955321
40
0.9515311525
40
1.0000000000
40
1.0000000000
40
1.0000000000
40
1.0000000000
10
6.6615769896
20
-19.0000000000
30
0.0000000000
10
6.6615769896
20
-18.9487423969
30
0.0000000000
10
6.6622961652
20
-18.8498098205
30
0.0000000000
10
6.6584403523
20
-18.7187219774
30
0.0000000000
10
6.6659935416
20
-18.6019442288
30
0.0000000000
10
6.6489096162
20
-18.5513005722
30
0.0000000000
10
6.6652925592
20
-18.5000000000
30
0.0000000000
10
6.6572135557
20
-18.5000000000
30
0.0000000000
11
6.6615769896
21
-19.0000000000
31
0.0000000000
11
6.6613655089
21
-18.8462273363
31
0.0000000000
11
6.6607433205
21
-18.7060557474
31
0.0000000000
11
6.6597803982
21
-18.5956648077
31
0.0000000000
11
6.6585546072
21
-18.5241998813
31
0.0000000000
11
6.6572135557
21
-18.5000000000
31
0.0000000000
0
SPLINE
5
3EB
100
AcDbEntity
8
0
100
AcDbSpline
62
7
6
CONTINUOUS
70
0
71
3
72
9
73
5
74
3
42
0.0000001000
43
0.0000001000
44
0.0000000001
12
0.0012341291
22
0.1414171897
32
0.0000000000
13
0.0000000000
23
0.1414225746
33
0.0000000000
40
0.0000000000
40
0.0000000000
40
0.0000000000
40
0.0000000000
40
0.4593094356
40
1.0000000000
40
1.0000000000
40
1.0000000000
40
1.0000000000
10
6.6610657815
20
-20.2585786438
30
0.0000000000
10
6.6612547306
20
-20.2369272272
30
0.0000000000
10
6.6614996955
20
-20.1897867633
30
0.0000000000
10
6.6615769896
20
-20.1426459048
30
0.0000000000
10
6.6615769896
20
-20.1171572875
30
0.0000000000
11
6.6610657815
21
-20.2585786438
31
0.0000000000
11
6.6614443873
21
-20.1936230242
31
0.0000000000
11
6.6615769896
21
-20.1171572875
31
0.0000000000
0
SPLINE
5
3EC
100
AcDbEntity
8
0
100
AcDbSpline
62
7
6
CONTINUOUS
70
0
71
3
72
11
73
7
74
5
42
0.0000001000
43
0.0000001000
44
0.0000000001
12
0.0000680599
22
-0.1918895391
32
0.0000000000
13
0.1356864029
23
-0.1356864029
33
0.0000000000
40
0.0000000000
40
0.0000000000
40
0.0000000000
40
0.0000000000
40
0.3822531662
40
0.7054232387
40
0.9219064093
40
1.0000000000
40
1.0000000000
40
1.0000000000
40
1.0000000000
10
6.5168087892
20
-20.2436317461
30
0.0000000000
10
6.5168174613
20
-20.2680818740
30
0.0000000000
10
6.5178247089
20
-20.3127717367
30
0.0000000000
10
6.5149113209
20
-20.3732557001
30
0.0000000000
10
6.5217775194
20
-20.4097582206
30
0.0000000000
10
6.5150054125
20
-20.4319702330
30
0.0000000000
10
6.5185374920
20
-20.4355023125
30
0.0000000000
11
6.5168087892
21
-20.2436317461
31
0.0000000000
11
6.5169587300
21
-20.3169819813
31
0.0000000000
11
6.5173368232
21
-20.3789937888
31
0.0000000000
11
6.5178899856
21
-20.4205309641
31
0.0000000000
11
6.5185374920
21
-20.4355023125
31
0.0000000000
0
SPLINE
5
3ED
100
AcDbEntity
8
0
100
AcDbSpline
62
7
6
CONTINUOUS
70
0
71
3
72
10
73
6
74
4
42
0.0000001000
43
0.0000001000
44
0.0000000001
12
0.4068517711
22
-0.3696372191
32
0.0000000000
13
0.4141596907
23
-0.3614301979
33
0.0000000000
40
0.0000000000
40
0.0000000000
40
0.0000000000
40
0.0000000000
40
0.3337162262
40
0.6670496537
40
1.0000000000
40
1.0000000000
40
1.0000000000
40
1.0000000000
10
-7.2370140210
20
-20.8344534339
30
0.0000000000
10
-7.1917563418
20
-20.8755714132
30
0.0000000000
10
-7.1010184300
20
-20.9574587127
30
0.0000000000
10
-6.9641745086
20
-21.0793091372
30
0.0000000000
10
-6.8724587340
20
-21.1598872301
30
0.0000000000
10
-6.8264938632
20
-21.2000000000
30
0.0000000000
11
-7.2370140210
21
-20.8344534339
31
0.0000000000
11
-7.1008302577
21
-20.9573537770
31
0.0000000000
11
-6.9639872088
21
-21.0792034238
31
0.0000000000
11
-6.8264938632
21
-21.2000000000
31
0.0000000000
0
SPLINE
5
3EE
100
AcDbEntity
8
0
100
AcDbSpline
62
7
6
CONTINUOUS
70
0
71
3
72
10
73
6
74
4
42
0.0000001000
43
0.0000001000
44
0.0000000001
12
-0.0015642592
22
-6.4981678292
32
0.0000000000
13
-0.0023047879
23
-6.4981676088
33
0.0000000000
40
0.0000000000
40
0.0000000000
40
0.0000000000
40
0.0000000000
40
0.3333818036
40
0.6667173159
40
1.0000000000
40
1.0000000000
40
1.0000000000
40
1.0000000000
10
-6.5148743481
20
-13.7454640196
30
0.0000000000
10
-6.5150481799
20
-14.4675876566
30
0.0000000000
10
-6.5154232353
20
-15.9117346547
30
0.0000000000
10
-6.5160680429
20
-18.0777905650
30
0.0000000000
10
-6.5165527406
20
-19.5217228320
30
0.0000000000
10
-6.5168087892
20
-20.2436317461
30
0.0000000000
11
-6.5148743481
21
-13.7454640196
31
0.0000000000
11
-6.5154369755
21
-15.9118349204
31
0.0000000000
11
-6.5160817935
21
-18.0779049896
31
0.0000000000
11
-6.5168087892
21
-20.2436317461
31
0.0000000000
0
SPLINE
5
3EF
100
AcDbEntity
8
0
100
AcDbSpline
62
7
6
CONTINUOUS
70
0
71
3
72
12
73
8
74
6
42
0.0000001000
43
0.0000001000
44
0.0000000001
12
0.5002131468
22
0.0000000000
32
0.0000000000
13
0.0000000000
23
0.5002131468
33
0.0000000000
40
0.0000000000
40
0.0000000000
40
0.0000000000
40
0.0000000000
40
0.0486794165
40
0.1916389143
40
0.4123640319
40
0.6925967015
40
1.0000000000
40
1.0000000000
40
1.0000000000
40
1.0000000000
10
-7.2346671276
20
18.5000000000
30
0.0000000000
10
-7.2265504329
20
18.5000000000
30
0.0000000000
10
-7.2398898886
20
18.5511281427
30
0.0000000000
10
-7.2238199646
20
18.6020218260
30
0.0000000000
10
-7.2294629097
20
18.7186882211
30
0.0000000000
10
-7.2254550886
20
18.8498246784
30
0.0000000000
10
-7.2259395951
20
18.9487442762
30
0.0000000000
10
-7.2259395951
20
19.0000000000
30
0.0000000000
11
-7.2346671276
21
18.5000000000
31
0.0000000000
11
-7.2319847121
21
18.5242018851
31
0.0000000000
11
-7.2295329256
21
18.5956700623
31
0.0000000000
11
-7.2276069700
21
18.7060628687
31
0.0000000000
11
-7.2263625544
21
18.8462334104
31
0.0000000000
11
-7.2259395951
21
19.0000000000
31
0.0000000000
0
SPLINE
5
3F0
100
AcDbEntity
8
0
100
AcDbSpline
62
7
6
CONTINUOUS
70
0
71
3
72
10
73
6
74
4
42
0.0000001000
43
0.0000001000
44
0.0000000001
12
0.0031659140
22
6.5753404758
32
0.0000000000
13
0.0046824863
23
6.5753395707
33
0.0000000000
40
0.0000000000
40
0.0000000000
40
0.0000000000
40
0.0000000000
40
0.3333824599
40
0.6667180198
40
1.0000000000
40
1.0000000000
40
1.0000000000
40
1.0000000000
10
-7.5193672252
20
13.7454640196
30
0.0000000000
10
-7.5190154051
20
14.4761650804
30
0.0000000000
10
-7.5182556683
20
15.9374643813
30
0.0000000000
10
-7.5169476712
20
18.1292444056
30
0.0000000000
10
-7.5159633921
20
19.5903233430
30
0.0000000000
10
-7.5154431960
20
20.3208040737
30
0.0000000000
11
-7.5193672252
21
13.7454640196
31
0.0000000000
11
-7.5182275288
21
15.9375671599
31
0.0000000000
11
-7.5169195103
21
18.1293618230
31
0.0000000000
11
-7.5154431960
21
20.3208040737
31
0.0000000000
0
SPLINE
5
3F1
100
AcDbEntity
8
0
100
AcDbSpline
62
7
6
CONTINUOUS
70
0
71
3
72
11
73
7
74
5
42
0.0000001000
43
0.0000001000
44
0.0000000001
12
-0.0605563710
22
-0.1818168501
32
0.0000000000
13
-0.0001364696
23
-0.1916361720
33
0.0000000000
40
0.0000000000
40
0.0000000000
40
0.0000000000
40
0.0000000000
40
0.0896601267
40
0.3079652718
40
0.6261239145
40
1.0000000000
40
1.0000000000
40
1.0000000000
40
1.0000000000
10
-7.5121377902
20
20.5123772007
30
0.0000000000
10
-7.5139476209
20
20.5069432934
30
0.0000000000
10
-7.5125806708
20
20.4867323872
30
0.0000000000
10
-7.5152712751
20
20.4472010152
30
0.0000000000
10
-7.5150104047
20
20.3888308174
30
0.0000000000
10
-7.5154261884
20
20.3446868010
30
0.0000000000
10
-7.5154431960
20
20.3208040737
30
0.0000000000
11
-7.5121377902
21
20.5123772007
31
0.0000000000
11
-7.5133797174
21
20.4952400150
31
0.0000000000
11
-7.5144349753
21
20.4534181532
31
0.0000000000
11
-7.5151561692
21
20.3924516988
31
0.0000000000
11
-7.5154431960
21
20.3208040737
31
0.0000000000
0
SPLINE
5
3F2
100
AcDbEntity
8
0
100
AcDbSpline
62
7
6
CONTINUOUS
70
0
71
3
72
9
73
5
74
3
42
0.0000001000
43
0.0000001000
44
0.0000000001
12
0.0000000000
22
0.1414262303
32
0.0000000000
13
-0.0024682281
23
0.1414046904
33
0.0000000000
40
0.0000000000
40
0.0000000000
40
0.0000000000
40
0.0000000000
40
0.5406702814
40
1.0000000000
40
1.0000000000
40
1.0000000000
40
1.0000000000
10
-7.2259395951
20
20.1171572875
30
0.0000000000
10
-7.2259395951
20
20.1426456074
30
0.0000000000
10
-7.2260941947
20
20.1897876857
30
0.0000000000
10
-7.2265841790
20
20.2369281849
30
0.0000000000
10
-7.2269620892
20
20.2585786438
30
0.0000000000
11
-7.2259395951
21
20.1171572875
31
0.0000000000
11
-7.2262048110
21
20.1936217873
31
0.0000000000
11
-7.2269620892
21
20.2585786438
31
0.0000000000
0
SPLINE
5
3F3
100
AcDbEntity
8
0
100
AcDbSpline
62
7
6
CONTINUOUS
70
0
71
3
72
12
73
8
74
6
42
0.0000001000
43
0.0000001000
44
0.0000000001
12
0.0000000000
22
0.5002131468
32
0.0000000000
13
-0.5002131468
23
0.0000000000
33
0.0000000000
40
0.0000000000
40
0.0000000000
40
0.0000000000
40
0.0000000000
40
0.3074032985
40
0.5876359681
40
0.8083610857
40
0.9513205835
40
1.0000000000
40
1.0000000000
40
1.0000000000
40
1.0000000000
10
-7.2259395951
20
-19.0000000000
30
0.0000000000
10
-7.2259395951
20
-18.9487442762
30
0.0000000000
10
-7.2254550886
20
-18.8498246784
30
0.0000000000
10
-7.2294629097
20
-18.7186882211
30
0.0000000000
10
-7.2238199646
20
-18.6020218260
30
0.0000000000
10
-7.2398898886
20
-18.5511281427
30
0.0000000000
10
-7.2265504329
20
-18.5000000000
30
0.0000000000
10
-7.2346671276
20
-18.5000000000
30
0.0000000000
11
-7.2259395951
21
-19.0000000000
31
0.0000000000
11
-7.2263625544
21
-18.8462334104
31
0.0000000000
11
-7.2276069700
21
-18.7060628687
31
0.0000000000
11
-7.2295329256
21
-18.5956700623
31
0.0000000000
11
-7.2319847121
21
-18.5242018851
31
0.0000000000
11
-7.2346671276
21
-18.5000000000
31
0.0000000000
0
SPLINE
5
3F4
100
AcDbEntity
8
0
100
AcDbSpline
62
7
6
CONTINUOUS
70
0
71
3
72
9
73
5
74
3
42
0.0000001000
43
0.0000001000
44
0.0000000001
12
0.0024682281
22
0.1414046904
32
0.0000000000
13
0.0000000000
23
0.1414262303
33
0.0000000000
40
0.0000000000
40
0.0000000000
40
0.0000000000
40
0.0000000000
40
0.4593297186
40
1.0000000000
40
1.0000000000
40
1.0000000000
40
1.0000000000
10
-7.2269620892
20
-20.2585786438
30
0.0000000000
10
-7.2265841790
20
-20.2369281849
30
0.0000000000
10
-7.2260941947
20
-20.1897876857
30
0.0000000000
10
-7.2259395951
20
-20.1426456074
30
0.0000000000
10
-7.2259395951
20
-20.1171572875
30
0.0000000000
11
-7.2269620892
21
-20.2585786438
31
0.0000000000
11
-7.2262048110
21
-20.1936217873
31
0.0000000000
11
-7.2259395951
21
-20.1171572875
31
0.0000000000
0
SPLINE
5
3F5
100
AcDbEntity
8
0
100
AcDbSpline
62
7
6
CONTINUOUS
70
0
71
3
72
11
73
7
74
5
42
0.0000001000
43
0.0000001000
44
0.0000000001
12
0.0001364696
22
-0.1916361720
32
0.0000000000
13
0.0605563710
23
-0.1818168501
33
0.0000000000
40
0.0000000000
40
0.0000000000
40
0.0000000000
40
0.0000000000
40
0.3738760855
40
0.6920347282
40
0.9103398733
40
1.0000000000
40
1.0000000000
40
1.0000000000
40
1.0000000000
10
-7.5154431960
20
-20.3208040737
30
0.0000000000
10
-7.5154261884
20
-20.3446868010
30
0.0000000000
10
-7.5150104047
20
-20.3888308174
30
0.0000000000
10
-7.5152712751
20
-20.4472010152
30
0.0000000000
10
-7.5125806708
20
-20.4867323872
30
0.0000000000
10
-7.5139476209
20
-20.5069432934
30
0.0000000000
10
-7.5121377902
20
-20.5123772007
30
0.0000000000
11
-7.5154431960
21
-20.3208040737
31
0.0000000000
11
-7.5151561692
21
-20.3924516988
31
0.0000000000
11
-7.5144349753
21
-20.4534181532
31
0.0000000000
11
-7.5133797174
21
-20.4952400150
31
0.0000000000
11
-7.5121377902
21
-20.5123772007
31
0.0000000000
0
SPLINE
5
3F6
100
AcDbEntity
8
0
100
AcDbSpline
62
7
6
CONTINUOUS
70
0
71
3
72
10
73
6
74
4
42
0.0000001000
43
0.0000001000
44
0.0000000001
12
-0.0046824863
22
6.5753395707
32
0.0000000000
13
-0.0031659140
23
6.5753404758
33
0.0000000000
40
0.0000000000
40
0.0000000000
40
0.0000000000
40
0.0000000000
40
0.3332819802
40
0.6666175401
40
1.0000000000
40
1.0000000000
40
1.0000000000
40
1.0000000000
10
-7.5154431960
20
-20.3208040737
30
0.0000000000
10
-7.5159633921
20
-19.5903233430
30
0.0000000000
10
-7.5169476712
20
-18.1292444056
30
0.0000000000
10
-7.5182556683
20
-15.9374643813
30
0.0000000000
10
-7.5190154051
20
-14.4761650804
30
0.0000000000
10
-7.5193672252
20
-13.7454640196
30
0.0000000000
11
-7.5154431960
21
-20.3208040737
31
0.0000000000
11
-7.5169195103
21
-18.1293618230
31
0.0000000000
11
-7.5182275288
21
-15.9375671599
31
0.0000000000
11
-7.5193672252
21
-13.7454640196
31
0.0000000000
0
SPLINE
5
3F7
100
AcDbEntity
8
0
100
AcDbSpline
62
9
6
CONTINUOUS
70
0
71
3
72
11
73
7
74
5
42
0.0000001000
43
0.0000001000
44
0.0000000001
12
-0.3118205386
22
0.0002844663
32
0.0000000000
13
-0.0002851607
23
0.3118205380
33
0.0000000000
40
0.0000000000
40
0.0000000000
40
0.0000000000
40
0.0000000000
40
0.2469461897
40
0.4980937839
40
0.7491165839
40
1.0000000000
40
1.0000000000
40
1.0000000000
40
1.0000000000
10
-9.3210496291
20
-20.5123772007
30
0.0000000000
10
-9.3467172604
20
-20.5123537848
30
0.0000000000
10
-9.3990250732
20
-20.5021099442
30
0.0000000000
10
-9.4655714239
20
-20.4579941354
30
0.0000000000
10
-9.5104534190
20
-20.3914614475
30
0.0000000000
10
-9.5209953208
20
-20.3387281610
30
0.0000000000
10
-9.5210191682
20
-20.3126512938
30
0.0000000000
11
-9.3210496291
21
-20.5123772007
31
0.0000000000
11
-9.3966025615
21
-20.4975042382
31
0.0000000000
11
-9.4619106837
21
-20.4542864547
31
0.0000000000
11
-9.5056161109
21
-20.3893505636
31
0.0000000000
11
-9.5210191682
21
-20.3126512938
31
0.0000000000
0
SPLINE
5
3F8
100
AcDbEntity
8
0
100
AcDbSpline
62
7
6
CONTINUOUS
70
0
71
3
72
11
73
7
74
5
42
0.0000001000
43
0.0000001000
44
0.0000000001
12
-0.3121099602
22
0.0000000000
32
0.0000000000
13
0.0000000000
23
0.3121099602
33
0.0000000000
40
0.0000000000
40
0.0000000000
40
0.0000000000
40
0.0000000000
40
0.2489379712
40
0.4988589296
40
0.7493688729
40
1.0000000000
40
1.0000000000
40
1.0000000000
40
1.0000000000
10
-9.4501522399
20
-20.9000000000
30
0.0000000000
10
-9.4760509133
20
-20.9000000000
30
0.0000000000
10
-9.5285150163
20
-20.8896524624
30
0.0000000000
10
-9.5949756440
20
-20.8452465493
30
0.0000000000
10
-9.6395722548
20
-20.7786928342
30
0.0000000000
10
-9.6500000000
20
-20.7259832829
30
0.0000000000
10
-9.6500000000
20
-20.6999084592
30
0.0000000000
11
-9.4501522399
21
-20.9000000000
31
0.0000000000
11
-9.5263645033
21
-20.8848883333
31
0.0000000000
11
-9.5912650348
21
-20.8416175464
31
0.0000000000
11
-9.6347351353
21
-20.7766290678
31
0.0000000000
11
-9.6500000000
21
-20.6999084592
31
0.0000000000
0
SPLINE
5
3F9
100
AcDbEntity
8
0
100
AcDbSpline
62
9
6
CONTINUOUS
70
0
71
3
72
11
73
7
74
5
42
0.0000001000
43
0.0000001000
44
0.0000000001
12
0.0789881681
22
0.1841394492
32
0.0000000000
13
0.2003657652
23
0.0001661298
33
0.0000000000
40
0.0000000000
40
0.0000000000
40
0.0000000000
40
0.0000000000
40
0.0823508003
40
0.3002281598
40
0.6220247348
40
1.0000000000
40
1.0000000000
40
1.0000000000
40
1.0000000000
10
-9.5210191682
20
20.3126512938
30
0.0000000000
10
-9.5188509219
20
20.3177059708
30
0.0000000000
10
-9.4919045478
20
20.3129130944
30
0.0000000000
10
-9.4564596216
20
20.3209790131
30
0.0000000000
10
-9.3921844275
20
20.3195602551
30
0.0000000000
10
-9.3462940635
20
20.3207831427
30
0.0000000000
10
-9.3210496291
20
20.3208040737
30
0.0000000000
11
-9.5210191682
21
20.3126512938
31
0.0000000000
11
-9.5048086774
21
20.3157301660
31
0.0000000000
11
-9.4612324728
21
20.3183548618
31
0.0000000000
11
-9.3967799985
21
20.3201345070
31
0.0000000000
11
-9.3210496291
21
20.3208040737
31
0.0000000000
0
SPLINE
5
3FA
100
AcDbEntity
8
0
100
AcDbSpline
62
9
6
CONTINUOUS
70
0
71
3
72
11
73
7
74
5
42
0.0000001000
43
0.0000001000
44
0.0000000001
12
0.2002832312
22
0.0057302784
32
0.0000000000
13
0.2003000459
23
0.0051088534
33
0.0000000000
40
0.0000000000
40
0.0000000000
40
0.0000000000
40
0.0000000000
40
0.0830389493
40
0.3026946813
40
0.6267380900
40
1.0000000000
40
1.0000000000
40
1.0000000000
40
1.0000000000
10
-9.5210191682
20
-20.3126512938
30
0.0000000000
10
-9.5154753985
20
-20.3124926817
30
0.0000000000
10
-9.4958992486
20
-20.3195204555
30
0.0000000000
10
-9.4536088459
20
-20.3174035757
30
0.0000000000
10
-9.3926201673
20
-20.3207125948
30
0.0000000000
10
-9.3459710884
20
-20.3214397205
30
0.0000000000
10
-9.3210496291
20
-20.3208040737
30
0.0000000000
11
-9.5210191682
21
-20.3126512938
31
0.0000000000
11
-9.5046707778
21
-20.3157427324
31
0.0000000000
11
-9.4607382703
21
-20.3183761309
31
0.0000000000
11
-9.3958354496
21
-20.3201485912
31
0.0000000000
11
-9.3210496291
21
-20.3208040737
31
0.0000000000
0
SPLINE
5
3FB
100
AcDbEntity
8
0
100
AcDbSpline
62
9
6
CONTINUOUS
70
0
71
3
72
11
73
7
74
5
42
0.0000001000
43
0.0000001000
44
0.0000000001
12
0.0002851607
22
0.3118205970
32
0.0000000000
13
0.3118205977
23
0.0002844663
33
0.0000000000
40
0.0000000000
40
0.0000000000
40
0.0000000000
40
0.0000000000
40
0.2466796635
40
0.4977568121
40
0.7489442168
40
1.0000000000
40
1.0000000000
40
1.0000000000
40
1.0000000000
10
-9.5210191682
20
20.3126512938
30
0.0000000000
10
-9.5209957204
20
20.3382912271
30
0.0000000000
10
-9.5107290706
20
20.3905654807
30
0.0000000000
10
-9.4665297604
20
20.4570403233
30
0.0000000000
10
-9.3999106342
20
20.5018395796
30
0.0000000000
10
-9.3471444173
20
20.5123533951
30
0.0000000000
10
-9.3210496291
20
20.5123772007
30
0.0000000000
11
-9.5210191682
21
20.3126512938
31
0.0000000000
11
-9.5061266304
21
20.3881156754
31
0.0000000000
11
-9.4628439209
21
20.4533544445
31
0.0000000000
11
-9.3978101886
21
20.4970063412
31
0.0000000000
11
-9.3210496291
21
20.5123772007
31
0.0000000000
0
SPLINE
5
3FC
100
AcDbEntity
8
0
100
AcDbSpline
62
7
6
CONTINUOUS
70
0
71
3
72
11
73
7
74
5
42
0.0000001000
43
0.0000001000
44
0.0000000001
12
0.0000000000
22
0.3121099537
32
0.0000000000
13
0.3121099537
23
0.0000000000
33
0.0000000000
40
0.0000000000
40
0.0000000000
40
0.0000000000
40
0.0000000000
40
0.2494185173
40
0.4995006396
40
0.7498587459
40
1.0000000000
40
1.0000000000
40
1.0000000000
40
1.0000000000
10
-9.6500000000
20
20.6999084592
30
0.0000000000
10
-9.6500000000
20
20.7258571265
30
0.0000000000
10
-9.6396598922
20
20.7783878996
30
0.0000000000
10
-9.5952906154
20
20.8449314685
30
0.0000000000
10
-9.5288189155
20
20.8895650097
30
0.0000000000
10
-9.4761760983
20
20.9000000000
30
0.0000000000
10
-9.4501522399
20
20.9000000000
30
0.0000000000
11
-9.6500000000
21
20.6999084592
31
0.0000000000
11
-9.6348825264
21
20.7762724690
31
0.0000000000
11
-9.5916340038
21
20.8412482705
31
0.0000000000
11
-9.5267182940
21
20.8847418804
31
0.0000000000
11
-9.4501522399
21
20.9000000000
31
0.0000000000
0
SPLINE
5
3FD
100
AcDbEntity
8
0
100
AcDbSpline
62
9
6
CONTINUOUS
70
0
71
3
72
11
73
7
74
5
42
0.0000001000
43
0.0000001000
44
0.0000000001
12
0.3118205977
22
-0.0002844663
32
0.0000000000
13
0.0002851607
23
-0.3118205970
33
0.0000000000
40
0.0000000000
40
0.0000000000
40
0.0000000000
40
0.0000000000
40
0.2510557832
40
0.5022431879
40
0.7533203365
40
1.0000000000
40
1.0000000000
40
1.0000000000
40
1.0000000000
10
9.3210496291
20
20.5123772007
30
0.0000000000
10
9.3471444173
20
20.5123533951
30
0.0000000000
10
9.3999106342
20
20.5018395796
30
0.0000000000
10
9.4665297604
20
20.4570403233
30
0.0000000000
10
9.5107290706
20
20.3905654807
30
0.0000000000
10
9.5209957204
20
20.3382912271
30
0.0000000000
10
9.5210191682
20
20.3126512938
30
0.0000000000
11
9.3210496291
21
20.5123772007
31
0.0000000000
11
9.3978101886
21
20.4970063412
31
0.0000000000
11
9.4628439209
21
20.4533544445
31
0.0000000000
11
9.5061266304
21
20.3881156754
31
0.0000000000
11
9.5210191682
21
20.3126512938
31
0.0000000000
0
SPLINE
5
3FE
100
AcDbEntity
8
0
100
AcDbSpline
62
7
6
CONTINUOUS
70
0
71
3
72
11
73
7
74
5
42
0.0000001000
43
0.0000001000
44
0.0000000001
12
0.3121099602
22
0.0000000000
32
0.0000000000
13
0.0000000000
23
-0.3121099602
33
0.0000000000
40
0.0000000000
40
0.0000000000
40
0.0000000000
40
0.0000000000
40
0.2489379712
40
0.4988589296
40
0.7493688729
40
1.0000000000
40
1.0000000000
40
1.0000000000
40
1.0000000000
10
9.4501522399
20
20.9000000000
30
0.0000000000
10
9.4760509133
20
20.9000000000
30
0.0000000000
10
9.5285150163
20
20.8896524624
30
0.0000000000
10
9.5949756440
20
20.8452465493
30
0.0000000000
10
9.6395722548
20
20.7786928342
30
0.0000000000
10
9.6500000000
20
20.7259832829
30
0.0000000000
10
9.6500000000
20
20.6999084592
30
0.0000000000
11
9.4501522399
21
20.9000000000
31
0.0000000000
11
9.5263645033
21
20.8848883333
31
0.0000000000
11
9.5912650348
21
20.8416175464
31
0.0000000000
11
9.6347351353
21
20.7766290678
31
0.0000000000
11
9.6500000000
21
20.6999084592
31
0.0000000000
0
SPLINE
5
3FF
100
AcDbEntity
8
0
100
AcDbSpline
62
9
6
CONTINUOUS
70
0
71
3
72
11
73
7
74
5
42
0.0000001000
43
0.0000001000
44
0.0000000001
12
-0.0002851610
22
-0.3118208875
32
0.0000000000
13
-0.3118208881
23
-0.0002844666
33
0.0000000000
40
0.0000000000
40
0.0000000000
40
0.0000000000
40
0.0000000000
40
0.2498284583
40
0.4998010788
40
0.7498901823
40
1.0000000000
40
1.0000000000
40
1.0000000000
40
1.0000000000
10
9.5210191682
20
-20.3126512938
30
0.0000000000
10
9.5209954211
20
-20.3386185376
30
0.0000000000
10
9.5105445142
20
-20.3911259682
30
0.0000000000
10
9.4660251828
20
-20.4574775971
30
0.0000000000
10
9.3995935397
20
-20.5019241556
30
0.0000000000
10
9.3470461176
20
-20.5123534848
30
0.0000000000
10
9.3210496291
20
-20.5123772007
30
0.0000000000
11
9.5210191682
21
-20.3126512938
31
0.0000000000
11
9.5057450043
21
-20.3890409840
31
0.0000000000
11
9.4623849139
21
-20.4538143833
31
0.0000000000
11
9.3975325020
21
-20.4971216460
31
0.0000000000
11
9.3210496291
21
-20.5123772007
31
0.0000000000
0
SPLINE
5
400
100
AcDbEntity
8
0
100
AcDbSpline
62
7
6
CONTINUOUS
70
0
71
3
72
11
73
7
74
5
42
0.0000001000
43
0.0000001000
44
0.0000000001
12
0.0000000000
22
-0.3121099537
32
0.0000000000
13
-0.3121099537
23
0.0000000000
33
0.0000000000
40
0.0000000000
40
0.0000000000
40
0.0000000000
40
0.0000000000
40
0.2494185173
40
0.4995006396
40
0.7498587459
40
1.0000000000
40
1.0000000000
40
1.0000000000
40
1.0000000000
10
9.6500000000
20
-20.6999084592
30
0.0000000000
10
9.6500000000
20
-20.7258571265
30
0.0000000000
10
9.6396598922
20
-20.7783878996
30
0.0000000000
10
9.5952906154
20
-20.8449314685
30
0.0000000000
10
9.5288189155
20
-20.8895650097
30
0.0000000000
10
9.4761760983
20
-20.9000000000
30
0.0000000000
10
9.4501522399
20
-20.9000000000
30
0.0000000000
11
9.6500000000
21
-20.6999084592
31
0.0000000000
11
9.6348825264
21
-20.7762724690
31
0.0000000000
11
9.5916340038
21
-20.8412482705
31
0.0000000000
11
9.5267182940
21
-20.8847418804
31
0.0000000000
11
9.4501522399
21
-20.9000000000
31
0.0000000000
0
SPLINE
5
401
100
AcDbEntity
8
0
100
AcDbSpline
62
9
6
CONTINUOUS
70
0
71
3
72
11
73
7
74
5
42
0.0000001000
43
0.0000001000
44
0.0000000001
12
-0.0789881682
22
0.1841394492
32
0.0000000000
13
-0.2003657652
23
0.0001661299
33
0.0000000000
40
0.0000000000
40
0.0000000000
40
0.0000000000
40
0.0000000000
40
0.0823508003
40
0.3002281598
40
0.6220247348
40
1.0000000000
40
1.0000000000
40
1.0000000000
40
1.0000000000
10
9.5210191682
20
20.3126512938
30
0.0000000000
10
9.5188509219
20
20.3177059708
30
0.0000000000
10
9.4919045478
20
20.3129130944
30
0.0000000000
10
9.4564596216
20
20.3209790131
30
0.0000000000
10
9.3921844275
20
20.3195602551
30
0.0000000000
10
9.3462940635
20
20.3207831427
30
0.0000000000
10
9.3210496291
20
20.3208040737
30
0.0000000000
11
9.5210191682
21
20.3126512938
31
0.0000000000
11
9.5048086774
21
20.3157301660
31
0.0000000000
11
9.4612324728
21
20.3183548618
31
0.0000000000
11
9.3967799985
21
20.3201345070
31
0.0000000000
11
9.3210496291
21
20.3208040737
31
0.0000000000
0
SPLINE
5
402
100
AcDbEntity
8
0
100
AcDbSpline
62
9
6
CONTINUOUS
70
0
71
3
72
11
73
7
74
5
42
0.0000001000
43
0.0000001000
44
0.0000000001
12
-0.0441219419
22
-0.1954488907
32
0.0000000000
13
-0.2001850952
23
-0.0085406260
33
0.0000000000
40
0.0000000000
40
0.0000000000
40
0.0000000000
40
0.0000000000
40
0.0803523806
40
0.2978533538
40
0.6206247985
40
1.0000000000
40
1.0000000000
40
1.0000000000
40
1.0000000000
10
9.5210191682
20
-20.3126512938
30
0.0000000000
10
9.5198374005
20
-20.3178862216
30
0.0000000000
10
9.4910009718
20
-20.3125395092
30
0.0000000000
10
9.4575334839
20
-20.3211189286
30
0.0000000000
10
9.3921728571
20
-20.3198904449
30
0.0000000000
10
9.3463647161
20
-20.3197240398
30
0.0000000000
10
9.3210496291
20
-20.3208040737
30
0.0000000000
11
9.5210191682
21
-20.3126512938
31
0.0000000000
11
9.5052085901
21
-20.3156902119
31
0.0000000000
11
9.4617089354
21
-20.3183362944
31
0.0000000000
11
9.3970609790
21
-20.3201290961
31
0.0000000000
11
9.3210496291
21
-20.3208040737
31
0.0000000000
0
SPLINE
5
403
100
AcDbEntity
8
0
100
AcDbSpline
62
7
6
CONTINUOUS
70
0
71
3
72
12
73
8
74
6
42
0.0000001000
43
0.0000001000
44
0.0000000001
12
0.0000000000
22
-0.5002131468
32
0.0000000000
13
0.5002131468
23
0.0000000000
33
0.0000000000
40
0.0000000000
40
0.0000000000
40
0.0000000000
40
0.0000000000
40
0.3074032985
40
0.5876359681
40
0.8083610857
40
0.9513205835
40
1.0000000000
40
1.0000000000
40
1.0000000000
40
1.0000000000
10
7.2259395951
20
19.0000000000
30
0.0000000000
10
7.2259395951
20
18.9487442762
30
0.0000000000
10
7.2254550886
20
18.8498246784
30
0.0000000000
10
7.2294629097
20
18.7186882211
30
0.0000000000
10
7.2238199646
20
18.6020218260
30
0.0000000000
10
7.2398898886
20
18.5511281427
30
0.0000000000
10
7.2265504329
20
18.5000000000
30
0.0000000000
10
7.2346671276
20
18.5000000000
30
0.0000000000
11
7.2259395951
21
19.0000000000
31
0.0000000000
11
7.2263625544
21
18.8462334104
31
0.0000000000
11
7.2276069700
21
18.7060628687
31
0.0000000000
11
7.2295329256
21
18.5956700623
31
0.0000000000
11
7.2319847121
21
18.5242018851
31
0.0000000000
11
7.2346671276
21
18.5000000000
31
0.0000000000
0
SPLINE
5
404
100
AcDbEntity
8
0
100
AcDbSpline
62
7
6
CONTINUOUS
70
0
71
3
72
9
73
5
74
3
42
0.0000001000
43
0.0000001000
44
0.0000000001
12
-0.0024682281
22
-0.1414046904
32
0.0000000000
13
0.0000000000
23
-0.1414262303
33
0.0000000000
40
0.0000000000
40
0.0000000000
40
0.0000000000
40
0.0000000000
40
0.4593297186
40
1.0000000000
40
1.0000000000
40
1.0000000000
40
1.0000000000
10
7.2269620892
20
20.2585786438
30
0.0000000000
10
7.2265841790
20
20.2369281849
30
0.0000000000
10
7.2260941947
20
20.1897876857
30
0.0000000000
10
7.2259395951
20
20.1426456074
30
0.0000000000
10
7.2259395951
20
20.1171572875
30
0.0000000000
11
7.2269620892
21
20.2585786438
31
0.0000000000
11
7.2262048110
21
20.1936217873
31
0.0000000000
11
7.2259395951
21
20.1171572875
31
0.0000000000
0
SPLINE
5
405
100
AcDbEntity
8
0
100
AcDbSpline
62
7
6
CONTINUOUS
70
0
71
3
72
11
73
7
74
5
42
0.0000001000
43
0.0000001000
44
0.0000000001
12
-0.0001364696
22
0.1916361720
32
0.0000000000
13
-0.0605563710
23
0.1818168501
33
0.0000000000
40
0.0000000000
40
0.0000000000
40
0.0000000000
40
0.0000000000
40
0.3738760855
40
0.6920347282
40
0.9103398733
40
1.0000000000
40
1.0000000000
40
1.0000000000
40
1.0000000000
10
7.5154431960
20
20.3208040737
30
0.0000000000
10
7.5154261884
20
20.3446868010
30
0.0000000000
10
7.5150104047
20
20.3888308174
30
0.0000000000
10
7.5152712751
20
20.4472010152
30
0.0000000000
10
7.5125806708
20
20.4867323872
30
0.0000000000
10
7.5139476209
20
20.5069432934
30
0.0000000000
10
7.5121377902
20
20.5123772007
30
0.0000000000
11
7.5154431960
21
20.3208040737
31
0.0000000000
11
7.5151561692
21
20.3924516988
31
0.0000000000
11
7.5144349753
21
20.4534181532
31
0.0000000000
11
7.5133797174
21
20.4952400150
31
0.0000000000
11
7.5121377902
21
20.5123772007
31
0.0000000000
0
SPLINE
5
406
100
AcDbEntity
8
0
100
AcDbSpline
62
7
6
CONTINUOUS
70
0
71
3
72
10
73
6
74
4
42
0.0000001000
43
0.0000001000
44
0.0000000001
12
0.0046824863
22
-6.5753395707
32
0.0000000000
13
0.0031659140
23
-6.5753404758
33
0.0000000000
40
0.0000000000
40
0.0000000000
40
0.0000000000
40
0.0000000000
40
0.3332819802
40
0.6666175401
40
1.0000000000
40
1.0000000000
40
1.0000000000
40
1.0000000000
10
7.5154431960
20
20.3208040737
30
0.0000000000
10
7.5159633921
20
19.5903233430
30
0.0000000000
10
7.5169476712
20
18.1292444056
30
0.0000000000
10
7.5182556683
20
15.9374643813
30
0.0000000000
10
7.5190154051
20
14.4761650804
30
0.0000000000
10
7.5193672252
20
13.7454640196
30
0.0000000000
11
7.5154431960
21
20.3208040737
31
0.0000000000
11
7.5169195103
21
18.1293618230
31
0.0000000000
11
7.5182275288
21
15.9375671599
31
0.0000000000
11
7.5193672252
21
13.7454640196
31
0.0000000000
0
SPLINE
5
407
100
AcDbEntity
8
0
100
AcDbSpline
62
7
6
CONTINUOUS
70
0
71
3
72
12
73
8
74
6
42
0.0000001000
43
0.0000001000
44
0.0000000001
12
-0.5002131468
22
0.0000000000
32
0.0000000000
13
-0.0000000000
23
-0.5002131468
33
0.0000000000
40
0.0000000000
40
0.0000000000
40
0.0000000000
40
0.0000000000
40
0.0486794165
40
0.1916389143
40
0.4123640319
40
0.6925967015
40
1.0000000000
40
1.0000000000
40
1.0000000000
40
1.0000000000
10
7.2346671276
20
-18.5000000000
30
0.0000000000
10
7.2265504329
20
-18.5000000000
30
0.0000000000
10
7.2398898886
20
-18.5511281427
30
0.0000000000
10
7.2238199646
20
-18.6020218260
30
0.0000000000
10
7.2294629097
20
-18.7186882211
30
0.0000000000
10
7.2254550886
20
-18.8498246784
30
0.0000000000
10
7.2259395951
20
-18.9487442762
30
0.0000000000
10
7.2259395951
20
-19.0000000000
30
0.0000000000
11
7.2346671276
21
-18.5000000000
31
0.0000000000
11
7.2319847121
21
-18.5242018851
31
0.0000000000
11
7.2295329256
21
-18.5956700623
31
0.0000000000
11
7.2276069700
21
-18.7060628687
31
0.0000000000
11
7.2263625544
21
-18.8462334104
31
0.0000000000
11
7.2259395951
21
-19.0000000000
31
0.0000000000
0
SPLINE
5
408
100
AcDbEntity
8
0
100
AcDbSpline
62
7
6
CONTINUOUS
70
0
71
3
72
10
73
6
74
4
42
0.0000001000
43
0.0000001000
44
0.0000000001
12
-0.0031659140
22
-6.5753404758
32
0.0000000000
13
-0.0046824863
23
-6.5753395707
33
0.0000000000
40
0.0000000000
40
0.0000000000
40
0.0000000000
40
0.0000000000
40
0.3333824599
40
0.6667180198
40
1.0000000000
40
1.0000000000
40
1.0000000000
40
1.0000000000
10
7.5193672252
20
-13.7454640196
30
0.0000000000
10
7.5190154051
20
-14.4761650804
30
0.0000000000
10
7.5182556683
20
-15.9374643813
30
0.0000000000
10
7.5169476712
20
-18.1292444056
30
0.0000000000
10
7.5159633921
20
-19.5903233430
30
0.0000000000
10
7.5154431960
20
-20.3208040737
30
0.0000000000
11
7.5193672252
21
-13.7454640196
31
0.0000000000
11
7.5182275288
21
-15.9375671599
31
0.0000000000
11
7.5169195103
21
-18.1293618230
31
0.0000000000
11
7.5154431960
21
-20.3208040737
31
0.0000000000
0
SPLINE
5
409
100
AcDbEntity
8
0
100
AcDbSpline
62
7
6
CONTINUOUS
70
0
71
3
72
11
73
7
74
5
42
0.0000001000
43
0.0000001000
44
0.0000000001
12
0.0605563710
22
0.1818168501
32
0.0000000000
13
0.0001364696
23
0.1916361720
33
0.0000000000
40
0.0000000000
40
0.0000000000
40
0.0000000000
40
0.0000000000
40
0.0896601267
40
0.3079652718
40
0.6261239145
40
1.0000000000
40
1.0000000000
40
1.0000000000
40
1.0000000000
10
7.5121377902
20
-20.5123772007
30
0.0000000000
10
7.5139476209
20
-20.5069432934
30
0.0000000000
10
7.5125806708
20
-20.4867323872
30
0.0000000000
10
7.5152712751
20
-20.4472010152
30
0.0000000000
10
7.5150104047
20
-20.3888308174
30
0.0000000000
10
7.5154261884
20
-20.3446868010
30
0.0000000000
10
7.5154431960
20
-20.3208040737
30
0.0000000000
11
7.5121377902
21
-20.5123772007
31
0.0000000000
11
7.5133797174
21
-20.4952400150
31
0.0000000000
11
7.5144349753
21
-20.4534181532
31
0.0000000000
11
7.5151561692
21
-20.3924516988
31
0.0000000000
11
7.5154431960
21
-20.3208040737
31
0.0000000000
0
SPLINE
5
40A
100
AcDbEntity
8
0
100
AcDbSpline
62
7
6
CONTINUOUS
70
0
71
3
72
9
73
5
74
3
42
0.0000001000
43
0.0000001000
44
0.0000000001
12
0.0000000000
22
-0.1414262303
32
0.0000000000
13
0.0024682281
23
-0.1414046904
33
0.0000000000
40
0.0000000000
40
0.0000000000
40
0.0000000000
40
0.0000000000
40
0.5406702814
40
1.0000000000
40
1.0000000000
40
1.0000000000
40
1.0000000000
10
7.2259395951
20
-20.1171572875
30
0.0000000000
10
7.2259395951
20
-20.1426456074
30
0.0000000000
10
7.2260941947
20
-20.1897876857
30
0.0000000000
10
7.2265841790
20
-20.2369281849
30
0.0000000000
10
7.2269620892
20
-20.2585786438
30
0.0000000000
11
7.2259395951
21
-20.1171572875
31
0.0000000000
11
7.2262048110
21
-20.1936217873
31
0.0000000000
11
7.2269620892
21
-20.2585786438
31
0.0000000000
0
SPLINE
5
40B
100
AcDbEntity
8
0
100
AcDbSpline
62
9
6
CONTINUOUS
70
0
71
3
72
10
73
6
74
4
42
0.0000001000
43
0.0000001000
44
0.0000000001
12
0.0289303573
22
-40.6252954863
32
0.0000000000
13
-0.0289303521
23
-40.6252954863
33
0.0000000000
40
0.0000000000
40
0.0000000000
40
0.0000000000
40
0.0000000000
40
0.3332919884
40
0.6667083018
40
1.0000000000
40
1.0000000000
40
1.0000000000
40
1.0000000000
10
-9.5210191919
20
20.3126513649
30
0.0000000000
10
-9.5178051064
20
15.7992895270
30
0.0000000000
10
-9.5135217084
20
6.7708805923
30
0.0000000000
10
-9.5135217090
20
-6.7708884603
30
0.0000000000
10
-9.5178051123
20
-15.7992934648
30
0.0000000000
10
-9.5210191944
20
-20.3126513725
30
0.0000000000
11
-9.5210191919
21
20.3126513649
31
0.0000000000
11
-9.5145929574
21
6.7725639428
31
0.0000000000
11
-9.5145929601
21
-6.7725757411
31
0.0000000000
11
-9.5210191944
21
-20.3126513725
31
0.0000000000
0
SPLINE
5
40C
100
AcDbEntity
8
0
100
AcDbSpline
62
9
6
CONTINUOUS
70
0
71
3
72
10
73
6
74
4
42
0.0000001000
43
0.0000001000
44
0.0000000001
12
-0.0289303521
22
40.6252954863
32
0.0000000000
13
0.0289303573
23
40.6252954863
33
0.0000000000
40
0.0000000000
40
0.0000000000
40
0.0000000000
40
0.0000000000
40
0.3332916982
40
0.6667080116
40
1.0000000000
40
1.0000000000
40
1.0000000000
40
1.0000000000
10
9.5210191944
20
-20.3126513725
30
0.0000000000
10
9.5178051123
20
-15.7992934648
30
0.0000000000
10
9.5135217090
20
-6.7708884603
30
0.0000000000
10
9.5135217084
20
6.7708805923
30
0.0000000000
10
9.5178051064
20
15.7992895270
30
0.0000000000
10
9.5210191919
20
20.3126513649
30
0.0000000000
11
9.5210191944
21
-20.3126513725
31
0.0000000000
11
9.5145929601
21
-6.7725757411
31
0.0000000000
11
9.5145929574
21
6.7725639428
31
0.0000000000
11
9.5210191919
21
20.3126513649
31
0.0000000000
0
ENDSEC
0
SECTION
2
OBJECTS
0
DICTIONARY
5
C
100
AcDbDictionary
280
0
281
1
3
ACAD_GROUP
350
D
3
ACAD_MLINESTYLE
350
17
3
ACAD_LAYOUT
350
1A
3
ACAD_PLOTSETTINGS
350
19
3
ACAD_PLOTSTYLENAME
350
E
0
DICTIONARY
5
D
102
{ACAD_REACTORS
330
C
102
}
100
AcDbDictionary
280
0
281
1
0
ACDBDICTIONARYWDFLT
5
E
102
{ACAD_REACTORS
330
C
102
}
100
AcDbDictionary
281
1
3
Normal
350
F
100
AcDbDictionaryWithDefault
340
F
0
DICTIONARY
5
17
102
{ACAD_REACTORS
330
C
102
}
100
AcDbDictionary
280
0
281
1
3
Standard
350
18
0
DICTIONARY
5
19
102
{ACAD_REACTORS
330
C
102
}
100
AcDbDictionary
281
1
0
DICTIONARY
5
1A
102
{ACAD_REACTORS
330
C
102
}
100
AcDbDictionary
281
1
3
Layout1
350
1E
3
Model
350
22
0
ACDBPLACEHOLDER
5
F
102
{ACAD_REACTORS
330
E
102
}
0
MLINESTYLE
5
18
102
{ACAD_REACTORS
330
17
102
}
100
AcDbMlineStyle
2
STANDARD
70
0
3

62
256
51
90.0
52
90.0
71
2
49
0.5
62
256
6
BYLAYER
49
-0.5
62
256
6
BYLAYER
0
LAYOUT
5
1E
102
{ACAD_REACTORS
330
1A
102
}
100
AcDbPlotSettings
1

2

4

6

40
0.0
41
0.0
42
0.0
43
0.0
44
0.0
45
0.0
46
0.0
47
0.0
48
0.0
49
0.0
140
0.0
141
0.0
142
1.0
143
1.0
70
0
72
0
73
0
74
0
7

75
0
147
1.0
148
0.0
149
0.0
100
AcDbLayout
1
Layout1
70
0
71
0
10
0.0
20
0.0
11
0.0
21
0.0
12
0.0
22
0.0
32
0.0
14
0.0
24
0.0
34
0.0
15
0.0
25
0.0
35
0.0
146
0.0
13
0.0
23
0.0
33
0.0
16
0.0
26
0.0
36
0.0
17
0.0
27
0.0
37
0.0
76
0
330
1B
331
0
345
0
346
0
0
LAYOUT
5
22
102
{ACAD_REACTORS
330
1A
102
}
100
AcDbPlotSettings
1

2

4

6

40
0.0
41
0.0
42
0.0
43
0.0
44
0.0
45
0.0
46
0.0
47
0.0
48
0.0
49
0.0
140
0.0
141
0.0
142
1.0
143
1.0
70
0
72
0
73
0
74
0
7

75
0
147
1.0
148
0.0
149
0.0
100
AcDbLayout
1
Model
70
0
71
0
10
0.0
20
0.0
11
0.0
21
0.0
12
0.0
22
0.0
32
0.0
14
0.0
24
0.0
34
0.0
15
0.0
25
0.0
35
0.0
146
0.0
13
0.0
23
0.0
33
0.0
16
0.0
26
0.0
36
0.0
17
0.0
27
0.0
37
0.0
76
0
330
1F
331
0
345
0
346
0
0
ENDSEC
0
EOF
