  0
SECTION
  2
HEADER
  9
$ACADVER
  1
AC1024
  9
$DWGCODEPAGE
  3
ANSI_1252
  9
$EXTMAX
 10
297.0
 20
210.0
 30
0.0
  9
$EXTMIN
 10
0.0
 20
0.0
 30
0.0
  9
$LIMMIN
 10
0.0
 20
0.0
  9
$LIMMAX
 10
297.0
 20
210.0
  9
$VIEWCTR
 10
148.5
 20
105.0
  9
$VIEWSIZE
 40
210.0
  9
$CLAYER
  8
0
  9
$LTSCALE
 40
16.335
  9
$CELTYPE
  6
BYLAYER
  9
$DIMSCALE
 40
1.0
  9
$DIMASZ
 40
3.0
  9
$DIMEXO
 40
0.5
  9
$DIMDLI
 40
11.286
  9
$DIMEXE
 40
1.5
  9
$DIMCEN
 40
2.673
  9
$DIMLFAC
 40
1.0
  9
$DIMBLK
  1
_FILLED
  9
$DIMALT
 70
0
  9
$DIMALTF
 40
0.0393700787
  9
$DIMTXT
 40
3.0
  9
$DIMTOL
 70
1
  9
$DIMLIM
 70
0
  9
$DIMTFAC
 40
1.0
  9
$DIMTP
 40
0.01
  9
$DIMTM
 40
0.01
  9
$DIMGAP
 40
0.625
  9
$DIMDSEP
 70
44
  9
$AUNITS
 70
0
  9
$PDMODE
 70
3
  9
$PDSIZE
 40
3.0
  9
$HANDSEED
  5
8EA
  9
$TILEMODE
 70
1
  9
$MEASUREMENT
 70
1
  9
$INSUNITS
 70
4
  0
ENDSEC
  0
SECTION
  2
CLASSES
  0
CLASS
  1
ACDBDICTIONARYWDFLT
  2
AcDbDictionaryWithDefault
  3
AutoCAD 2000
 90
0
 91
1
280
0
281
0
  0
CLASS
  1
ACDBPLACEHOLDER
  2
AcDbPlaceHolder
  3
AutoCAD 2000
 90
0
 91
1
280
0
281
0
  0
CLASS
  1
LAYOUT
  2
AcDbLayout
  3
AutoCAD 2000
 90
0
 91
0
280
0
281
0
  0
ENDSEC
  0
SECTION
  2
TABLES
  0
TABLE
  2
VPORT
  5
8
100
AcDbSymbolTable
 70
2
  0
VPORT
  5
1F4
100
AcDbSymbolTableRecord
100
AcDbViewportTableRecord
  2
*ACTIVE
 70
0
 10
0.0
 20
0.0
 11
1.0
 21
1.0
 12
148.5
 22
105.0
 13
0.0
 23
0.0
 14
1.0
 24
1.0
 15
0.0
 25
0.0
 16
0.0
 26
0.0
 36
1.0
 17
0.0
 27
0.0
 37
0.0
 40
210.0
 41
1.4142857143
 42
50.0
 43
0.0
 44
0.0
 50
0.0
 51
0.0
 71
0
 72
100
 73
1
 74
1
 75
0
 76
0
 77
0
 78
0
  0
ENDTAB
  0
TABLE
  2
LTYPE
  5
5
100
AcDbSymbolTable
 70
6
  0
LTYPE
  5
14
100
AcDbSymbolTableRecord
100
AcDbLinetypeTableRecord
  2
BYBLOCK
 70
0
  3

 72
65
 73
0
 40
0.0
  0
LTYPE
  5
15
100
AcDbSymbolTableRecord
100
AcDbLinetypeTableRecord
  2
BYLAYER
 70
0
  3

 72
65
 73
0
 40
0.0
  0
LTYPE
  5
16
100
AcDbSymbolTableRecord
100
AcDbLinetypeTableRecord
  2
CONTINUOUS
 70
64
  3
Solid line
 72
65
 73
0
 40
0.0
  0
LTYPE
  5
1F5
100
AcDbSymbolTableRecord
100
AcDbLinetypeTableRecord
  2
CENTER
 70
64
  3
____ _ ____ _ ____ _ ____ _ ____ _ ____ _ ____
 72
65
 73
4
 40
0.6
 49
0.375
 74
0
 49
-0.075
 74
0
 49
0.075
 74
0
 49
-0.075
 74
0
  0
LTYPE
  5
1F6
100
AcDbSymbolTableRecord
100
AcDbLinetypeTableRecord
  2
HIDDEN
 70
64
  3
- - - - - - - - - - - - - - - - - - - -
 72
65
 73
2
 40
0.2
 49
0.1
 74
0
 49
-0.1
 74
0
  0
LTYPE
  5
1F7
100
AcDbSymbolTableRecord
100
AcDbLinetypeTableRecord
  2
PHANTOM
 70
64
  3
_____ _ _ _____ _ _ _____ _ _ _____
 72
65
 73
6
 40
0.8
 49
0.45
 74
0
 49
-0.05
 74
0
 49
0.1
 74
0
 49
-0.05
 74
0
 49
0.1
 74
0
 49
-0.05
 74
0
  0
LTYPE
  5
1F8
100
AcDbSymbolTableRecord
100
AcDbLinetypeTableRecord
  2
DOT
 70
64
  3
. . . . . . . . . . . . . . . . . . . .
 72
65
 73
2
 40
0.2
 49
0.1
 74
0
 49
-0.1
 74
0
  0
LTYPE
  5
1F9
100
AcDbSymbolTableRecord
100
AcDbLinetypeTableRecord
  2
DASHED
 70
64
  3
- - - - - - - - - - - - - - - - - - - -
 72
65
 73
2
 40
0.2
 49
0.1
 74
0
 49
-0.1
 74
0
  0
ENDTAB
  0
TABLE
  2
LAYER
  5
2
100
AcDbSymbolTable
 70
36
  0
LAYER
  5
10
100
AcDbSymbolTableRecord
100
AcDbLayerTableRecord
  2
0
 70
0
 62
7
  6
CONTINUOUS
370
-3
390
F
  0
LAYER
  5
1FA
100
AcDbSymbolTableRecord
100
AcDbLayerTableRecord
  2
DEFAULT_1
 70
0
 62
7
  6
CENTER
370
-3
390
F
  0
LAYER
  5
1FB
100
AcDbSymbolTableRecord
100
AcDbLayerTableRecord
  2
DEFAULT_2
 70
0
 62
7
  6
HIDDEN
370
-3
390
F
  0
LAYER
  5
1FC
100
AcDbSymbolTableRecord
100
AcDbLayerTableRecord
  2
DEFAULT_3
 70
0
 62
7
  6
PHANTOM
370
-3
390
F
  0
LAYER
  5
1FD
100
AcDbSymbolTableRecord
100
AcDbLayerTableRecord
  2
0603_C_REF_90000
 70
0
 62
7
  6
CONTINUOUS
370
-3
390
F
  0
LAYER
  5
1FE
100
AcDbSymbolTableRecord
100
AcDbLayerTableRecord
  2
0603_C_REF_90000_1
 70
0
 62
7
  6
CONTINUOUS
370
-3
390
F
  0
LAYER
  5
1FF
100
AcDbSymbolTableRecord
100
AcDbLayerTableRecord
  2
0603_C_REF_90000_2
 70
0
 62
7
  6
CONTINUOUS
370
-3
390
F
  0
LAYER
  5
200
100
AcDbSymbolTableRecord
100
AcDbLayerTableRecord
  2
0603_C_WAVE_90000
 70
0
 62
7
  6
CONTINUOUS
370
-3
390
F
  0
LAYER
  5
201
100
AcDbSymbolTableRecord
100
AcDbLayerTableRecord
  2
0603_C_WAVE_90000_1
 70
0
 62
7
  6
CONTINUOUS
370
-3
390
F
  0
LAYER
  5
202
100
AcDbSymbolTableRecord
100
AcDbLayerTableRecord
  2
0603_C_WAVE_90000_2
 70
0
 62
7
  6
CONTINUOUS
370
-3
390
F
  0
LAYER
  5
203
100
AcDbSymbolTableRecord
100
AcDbLayerTableRecord
  2
0603_C_WAVE_90000_3
 70
0
 62
7
  6
CONTINUOUS
370
-3
390
F
  0
LAYER
  5
204
100
AcDbSymbolTableRecord
100
AcDbLayerTableRecord
  2
0603_PTC_REF_80000
 70
0
 62
7
  6
CONTINUOUS
370
-3
390
F
  0
LAYER
  5
205
100
AcDbSymbolTableRecord
100
AcDbLayerTableRecord
  2
0603_R_REF_55000
 70
0
 62
7
  6
CONTINUOUS
370
-3
390
F
  0
LAYER
  5
206
100
AcDbSymbolTableRecord
100
AcDbLayerTableRecord
  2
0603_R_REF_55000_1
 70
0
 62
7
  6
CONTINUOUS
370
-3
390
F
  0
LAYER
  5
207
100
AcDbSymbolTableRecord
100
AcDbLayerTableRecord
  2
0603_R_REF_55000_10
 70
0
 62
7
  6
CONTINUOUS
370
-3
390
F
  0
LAYER
  5
208
100
AcDbSymbolTableRecord
100
AcDbLayerTableRecord
  2
0603_R_REF_55000_11
 70
0
 62
7
  6
CONTINUOUS
370
-3
390
F
  0
LAYER
  5
209
100
AcDbSymbolTableRecord
100
AcDbLayerTableRecord
  2
0603_R_REF_55000_12
 70
0
 62
7
  6
CONTINUOUS
370
-3
390
F
  0
LAYER
  5
20A
100
AcDbSymbolTableRecord
100
AcDbLayerTableRecord
  2
0603_R_REF_55000_13
 70
0
 62
7
  6
CONTINUOUS
370
-3
390
F
  0
LAYER
  5
20B
100
AcDbSymbolTableRecord
100
AcDbLayerTableRecord
  2
0603_R_REF_55000_14
 70
0
 62
7
  6
CONTINUOUS
370
-3
390
F
  0
LAYER
  5
20C
100
AcDbSymbolTableRecord
100
AcDbLayerTableRecord
  2
0603_R_REF_55000_15
 70
0
 62
7
  6
CONTINUOUS
370
-3
390
F
  0
LAYER
  5
20D
100
AcDbSymbolTableRecord
100
AcDbLayerTableRecord
  2
0603_R_REF_55000_16
 70
0
 62
7
  6
CONTINUOUS
370
-3
390
F
  0
LAYER
  5
20E
100
AcDbSymbolTableRecord
100
AcDbLayerTableRecord
  2
0603_R_REF_55000_17
 70
0
 62
7
  6
CONTINUOUS
370
-3
390
F
  0
LAYER
  5
20F
100
AcDbSymbolTableRecord
100
AcDbLayerTableRecord
  2
0603_R_REF_55000_2
 70
0
 62
7
  6
CONTINUOUS
370
-3
390
F
  0
LAYER
  5
210
100
AcDbSymbolTableRecord
100
AcDbLayerTableRecord
  2
0603_R_REF_55000_3
 70
0
 62
7
  6
CONTINUOUS
370
-3
390
F
  0
LAYER
  5
211
100
AcDbSymbolTableRecord
100
AcDbLayerTableRecord
  2
0603_R_REF_55000_4
 70
0
 62
7
  6
CONTINUOUS
370
-3
390
F
  0
LAYER
  5
212
100
AcDbSymbolTableRecord
100
AcDbLayerTableRecord
  2
0603_R_REF_55000_5
 70
0
 62
7
  6
CONTINUOUS
370
-3
390
F
  0
LAYER
  5
213
100
AcDbSymbolTableRecord
100
AcDbLayerTableRecord
  2
0603_R_REF_55000_6
 70
0
 62
7
  6
CONTINUOUS
370
-3
390
F
  0
LAYER
  5
214
100
AcDbSymbolTableRecord
100
AcDbLayerTableRecord
  2
0603_R_REF_55000_7
 70
0
 62
7
  6
CONTINUOUS
370
-3
390
F
  0
LAYER
  5
215
100
AcDbSymbolTableRecord
100
AcDbLayerTableRecord
  2
0603_R_REF_55000_8
 70
0
 62
7
  6
CONTINUOUS
370
-3
390
F
  0
LAYER
  5
216
100
AcDbSymbolTableRecord
100
AcDbLayerTableRecord
  2
0603_R_REF_55000_9
 70
0
 62
7
  6
CONTINUOUS
370
-3
390
F
  0
LAYER
  5
217
100
AcDbSymbolTableRecord
100
AcDbLayerTableRecord
  2
0603_R_WAVE_55000
 70
0
 62
7
  6
CONTINUOUS
370
-3
390
F
  0
LAYER
  5
218
100
AcDbSymbolTableRecord
100
AcDbLayerTableRecord
  2
0603_R_WAVE_55000_1
 70
0
 62
7
  6
CONTINUOUS
370
-3
390
F
  0
LAYER
  5
219
100
AcDbSymbolTableRecord
100
AcDbLayerTableRecord
  2
0603_R_WAVE_55000_2
 70
0
 62
7
  6
CONTINUOUS
370
-3
390
F
  0
LAYER
  5
21A
100
AcDbSymbolTableRecord
100
AcDbLayerTableRecord
  2
0603_R_WAVE_55000_3
 70
0
 62
7
  6
CONTINUOUS
370
-3
390
F
  0
LAYER
  5
21B
100
AcDbSymbolTableRecord
100
AcDbLayerTableRecord
  2
0603_R_WAVE_55000_4
 70
0
 62
7
  6
CONTINUOUS
370
-3
390
F
  0
LAYER
  5
21C
100
AcDbSymbolTableRecord
100
AcDbLayerTableRecord
  2
0603_R_WAVE_55000_5
 70
0
 62
7
  6
CONTINUOUS
370
-3
390
F
  0
LAYER
  5
21D
100
AcDbSymbolTableRecord
100
AcDbLayerTableRecord
  2
0603_R_WAVE_55000_6
 70
0
 62
7
  6
CONTINUOUS
370
-3
390
F
  0
LAYER
  5
21E
100
AcDbSymbolTableRecord
100
AcDbLayerTableRecord
  2
0603_R_WAVE_55000_7
 70
0
 62
7
  6
CONTINUOUS
370
-3
390
F
  0
LAYER
  5
21F
100
AcDbSymbolTableRecord
100
AcDbLayerTableRecord
  2
0603_R_WAVE_55000_8
 70
0
 62
7
  6
CONTINUOUS
370
-3
390
F
  0
LAYER
  5
220
100
AcDbSymbolTableRecord
100
AcDbLayerTableRecord
  2
0603_R_WAVE_55000_9
 70
0
 62
7
  6
CONTINUOUS
370
-3
390
F
  0
LAYER
  5
221
100
AcDbSymbolTableRecord
100
AcDbLayerTableRecord
  2
06___PRT_ALL_SURFS
 70
0
 62
7
  6
CONTINUOUS
370
-3
390
F
  0
LAYER
  5
222
100
AcDbSymbolTableRecord
100
AcDbLayerTableRecord
  2
06___PRT_ALL_SURFS_1
 70
0
 62
7
  6
CONTINUOUS
370
-3
390
F
  0
LAYER
  5
223
100
AcDbSymbolTableRecord
100
AcDbLayerTableRecord
  2
06___PRT_ALL_SURFS_10
 70
0
 62
7
  6
CONTINUOUS
370
-3
390
F
  0
LAYER
  5
224
100
AcDbSymbolTableRecord
100
AcDbLayerTableRecord
  2
06___PRT_ALL_SURFS_11
 70
0
 62
7
  6
CONTINUOUS
370
-3
390
F
  0
LAYER
  5
225
100
AcDbSymbolTableRecord
100
AcDbLayerTableRecord
  2
06___PRT_ALL_SURFS_12
 70
0
 62
7
  6
CONTINUOUS
370
-3
390
F
  0
LAYER
  5
226
100
AcDbSymbolTableRecord
100
AcDbLayerTableRecord
  2
06___PRT_ALL_SURFS_13
 70
0
 62
7
  6
CONTINUOUS
370
-3
390
F
  0
LAYER
  5
227
100
AcDbSymbolTableRecord
100
AcDbLayerTableRecord
  2
06___PRT_ALL_SURFS_14
 70
0
 62
7
  6
CONTINUOUS
370
-3
390
F
  0
LAYER
  5
228
100
AcDbSymbolTableRecord
100
AcDbLayerTableRecord
  2
06___PRT_ALL_SURFS_17
 70
0
 62
7
  6
CONTINUOUS
370
-3
390
F
  0
LAYER
  5
229
100
AcDbSymbolTableRecord
100
AcDbLayerTableRecord
  2
06___PRT_ALL_SURFS_18
 70
0
 62
7
  6
CONTINUOUS
370
-3
390
F
  0
LAYER
  5
22A
100
AcDbSymbolTableRecord
100
AcDbLayerTableRecord
  2
06___PRT_ALL_SURFS_19
 70
0
 62
7
  6
CONTINUOUS
370
-3
390
F
  0
LAYER
  5
22B
100
AcDbSymbolTableRecord
100
AcDbLayerTableRecord
  2
06___PRT_ALL_SURFS_2
 70
0
 62
7
  6
CONTINUOUS
370
-3
390
F
  0
LAYER
  5
22C
100
AcDbSymbolTableRecord
100
AcDbLayerTableRecord
  2
06___PRT_ALL_SURFS_23
 70
0
 62
7
  6
CONTINUOUS
370
-3
390
F
  0
LAYER
  5
22D
100
AcDbSymbolTableRecord
100
AcDbLayerTableRecord
  2
06___PRT_ALL_SURFS_5
 70
0
 62
7
  6
CONTINUOUS
370
-3
390
F
  0
LAYER
  5
22E
100
AcDbSymbolTableRecord
100
AcDbLayerTableRecord
  2
06___PRT_ALL_SURFS_6
 70
0
 62
7
  6
CONTINUOUS
370
-3
390
F
  0
LAYER
  5
22F
100
AcDbSymbolTableRecord
100
AcDbLayerTableRecord
  2
0805_C_WAVE_145000
 70
0
 62
7
  6
CONTINUOUS
370
-3
390
F
  0
LAYER
  5
230
100
AcDbSymbolTableRecord
100
AcDbLayerTableRecord
  2
0805_C_WAVE_145000_1
 70
0
 62
7
  6
CONTINUOUS
370
-3
390
F
  0
LAYER
  5
231
100
AcDbSymbolTableRecord
100
AcDbLayerTableRecord
  2
0805_R_REF_60000
 70
0
 62
7
  6
CONTINUOUS
370
-3
390
F
  0
LAYER
  5
232
100
AcDbSymbolTableRecord
100
AcDbLayerTableRecord
  2
0805_R_WAVE_60000
 70
0
 62
7
  6
CONTINUOUS
370
-3
390
F
  0
LAYER
  5
233
100
AcDbSymbolTableRecord
100
AcDbLayerTableRecord
  2
0805_R_WAVE_60000_1
 70
0
 62
7
  6
CONTINUOUS
370
-3
390
F
  0
LAYER
  5
234
100
AcDbSymbolTableRecord
100
AcDbLayerTableRecord
  2
0805_R_WAVE_60000_10
 70
0
 62
7
  6
CONTINUOUS
370
-3
390
F
  0
LAYER
  5
235
100
AcDbSymbolTableRecord
100
AcDbLayerTableRecord
  2
0805_R_WAVE_60000_2
 70
0
 62
7
  6
CONTINUOUS
370
-3
390
F
  0
LAYER
  5
236
100
AcDbSymbolTableRecord
100
AcDbLayerTableRecord
  2
0805_R_WAVE_60000_3
 70
0
 62
7
  6
CONTINUOUS
370
-3
390
F
  0
LAYER
  5
237
100
AcDbSymbolTableRecord
100
AcDbLayerTableRecord
  2
0805_R_WAVE_60000_4
 70
0
 62
7
  6
CONTINUOUS
370
-3
390
F
  0
LAYER
  5
238
100
AcDbSymbolTableRecord
100
AcDbLayerTableRecord
  2
0805_R_WAVE_60000_5
 70
0
 62
7
  6
CONTINUOUS
370
-3
390
F
  0
LAYER
  5
239
100
AcDbSymbolTableRecord
100
AcDbLayerTableRecord
  2
0805_R_WAVE_60000_6
 70
0
 62
7
  6
CONTINUOUS
370
-3
390
F
  0
LAYER
  5
23A
100
AcDbSymbolTableRecord
100
AcDbLayerTableRecord
  2
0805_R_WAVE_60000_7
 70
0
 62
7
  6
CONTINUOUS
370
-3
390
F
  0
LAYER
  5
23B
100
AcDbSymbolTableRecord
100
AcDbLayerTableRecord
  2
0805_R_WAVE_60000_8
 70
0
 62
7
  6
CONTINUOUS
370
-3
390
F
  0
LAYER
  5
23C
100
AcDbSymbolTableRecord
100
AcDbLayerTableRecord
  2
0805_R_WAVE_60000_9
 70
0
 62
7
  6
CONTINUOUS
370
-3
390
F
  0
LAYER
  5
23D
100
AcDbSymbolTableRecord
100
AcDbLayerTableRecord
  2
1206_C_REF_180000
 70
0
 62
7
  6
CONTINUOUS
370
-3
390
F
  0
LAYER
  5
23E
100
AcDbSymbolTableRecord
100
AcDbLayerTableRecord
  2
1206_C_WAVE_180000
 70
0
 62
7
  6
CONTINUOUS
370
-3
390
F
  0
LAYER
  5
23F
100
AcDbSymbolTableRecord
100
AcDbLayerTableRecord
  2
1206_R_REF_65000
 70
0
 62
7
  6
CONTINUOUS
370
-3
390
F
  0
LAYER
  5
240
100
AcDbSymbolTableRecord
100
AcDbLayerTableRecord
  2
1206_R_REF_65000_1
 70
0
 62
7
  6
CONTINUOUS
370
-3
390
F
  0
LAYER
  5
241
100
AcDbSymbolTableRecord
100
AcDbLayerTableRecord
  2
1206_R_WAVE_65000
 70
0
 62
7
  6
CONTINUOUS
370
-3
390
F
  0
LAYER
  5
242
100
AcDbSymbolTableRecord
100
AcDbLayerTableRecord
  2
1206_R_WAVE_65000_1
 70
0
 62
7
  6
CONTINUOUS
370
-3
390
F
  0
LAYER
  5
243
100
AcDbSymbolTableRecord
100
AcDbLayerTableRecord
  2
1206_R_WAVE_65000_2
 70
0
 62
7
  6
CONTINUOUS
370
-3
390
F
  0
LAYER
  5
244
100
AcDbSymbolTableRecord
100
AcDbLayerTableRecord
  2
2512_R_H1_REF_100000
 70
0
 62
7
  6
CONTINUOUS
370
-3
390
F
  0
LAYER
  5
245
100
AcDbSymbolTableRecord
100
AcDbLayerTableRecord
  2
43001106A0
 70
0
 62
7
  6
CONTINUOUS
370
-3
390
F
  0
LAYER
  5
246
100
AcDbSymbolTableRecord
100
AcDbLayerTableRecord
  2
43001108A0
 70
0
 62
7
  6
CONTINUOUS
370
-3
390
F
  0
LAYER
  5
247
100
AcDbSymbolTableRecord
100
AcDbLayerTableRecord
  2
43001108B0
 70
0
 62
7
  6
CONTINUOUS
370
-3
390
F
  0
LAYER
  5
248
100
AcDbSymbolTableRecord
100
AcDbLayerTableRecord
  2
ASSI
 70
0
 62
7
  6
CONTINUOUS
370
-3
390
F
  0
LAYER
  5
249
100
AcDbSymbolTableRecord
100
AcDbLayerTableRecord
  2
CAP-E-SMD-6_6-6_3-8_0_810000
 70
0
 62
7
  6
CONTINUOUS
370
-3
390
F
  0
LAYER
  5
24A
100
AcDbSymbolTableRecord
100
AcDbLayerTableRecord
  2
CAPC320X160X135L50N_180000
 70
0
 62
7
  6
CONTINUOUS
370
-3
390
F
  0
LAYER
  5
24B
100
AcDbSymbolTableRecord
100
AcDbLayerTableRecord
  2
CAPC320X160X135L50N_180000_1
 70
0
 62
7
  6
CONTINUOUS
370
-3
390
F
  0
LAYER
  5
24C
100
AcDbSymbolTableRecord
100
AcDbLayerTableRecord
  2
CC-20MILS-VIMAR_1000
 70
0
 62
7
  6
CONTINUOUS
370
-3
390
F
  0
LAYER
  5
24D
100
AcDbSymbolTableRecord
100
AcDbLayerTableRecord
  2
CC-20MILS-VIMAR_1000_1
 70
0
 62
7
  6
CONTINUOUS
370
-3
390
F
  0
LAYER
  5
24E
100
AcDbSymbolTableRecord
100
AcDbLayerTableRecord
  2
CN1-REF_SQUAREHOLE12_SPEA-VIMAR
 70
0
 62
7
  6
CONTINUOUS
370
-3
390
F
  0
LAYER
  5
24F
100
AcDbSymbolTableRecord
100
AcDbLayerTableRecord
  2
COLOR19
 70
0
 62
7
  6
CONTINUOUS
370
-3
390
F
  0
LAYER
  5
250
100
AcDbSymbolTableRecord
100
AcDbLayerTableRecord
  2
COLOR2
 70
0
 62
7
  6
CONTINUOUS
370
-3
390
F
  0
LAYER
  5
251
100
AcDbSymbolTableRecord
100
AcDbLayerTableRecord
  2
COLOR25
 70
0
 62
7
  6
CONTINUOUS
370
-3
390
F
  0
LAYER
  5
252
100
AcDbSymbolTableRecord
100
AcDbLayerTableRecord
  2
COLOR26
 70
0
 62
7
  6
CONTINUOUS
370
-3
390
F
  0
LAYER
  5
253
100
AcDbSymbolTableRecord
100
AcDbLayerTableRecord
  2
COLOR27
 70
0
 62
7
  6
CONTINUOUS
370
-3
390
F
  0
LAYER
  5
254
100
AcDbSymbolTableRecord
100
AcDbLayerTableRecord
  2
COLOR29
 70
0
 62
7
  6
CONTINUOUS
370
-3
390
F
  0
LAYER
  5
255
100
AcDbSymbolTableRecord
100
AcDbLayerTableRecord
  2
COLOR31
 70
0
 62
7
  6
CONTINUOUS
370
-3
390
F
  0
LAYER
  5
256
100
AcDbSymbolTableRecord
100
AcDbLayerTableRecord
  2
COLOR32
 70
0
 62
7
  6
CONTINUOUS
370
-3
390
F
  0
LAYER
  5
257
100
AcDbSymbolTableRecord
100
AcDbLayerTableRecord
  2
COLOR33
 70
0
 62
7
  6
CONTINUOUS
370
-3
390
F
  0
LAYER
  5
258
100
AcDbSymbolTableRecord
100
AcDbLayerTableRecord
  2
COLOR34
 70
0
 62
7
  6
CONTINUOUS
370
-3
390
F
  0
LAYER
  5
259
100
AcDbSymbolTableRecord
100
AcDbLayerTableRecord
  2
COLOR35
 70
0
 62
7
  6
CONTINUOUS
370
-3
390
F
  0
LAYER
  5
25A
100
AcDbSymbolTableRecord
100
AcDbLayerTableRecord
  2
COLOR36
 70
0
 62
7
  6
CONTINUOUS
370
-3
390
F
  0
LAYER
  5
25B
100
AcDbSymbolTableRecord
100
AcDbLayerTableRecord
  2
COLOR37
 70
0
 62
7
  6
CONTINUOUS
370
-3
390
F
  0
LAYER
  5
25C
100
AcDbSymbolTableRecord
100
AcDbLayerTableRecord
  2
COLOR38
 70
0
 62
7
  6
CONTINUOUS
370
-3
390
F
  0
LAYER
  5
25D
100
AcDbSymbolTableRecord
100
AcDbLayerTableRecord
  2
COLOR39
 70
0
 62
7
  6
CONTINUOUS
370
-3
390
F
  0
LAYER
  5
25E
100
AcDbSymbolTableRecord
100
AcDbLayerTableRecord
  2
COLOR40
 70
0
 62
7
  6
CONTINUOUS
370
-3
390
F
  0
LAYER
  5
25F
100
AcDbSymbolTableRecord
100
AcDbLayerTableRecord
  2
COLOR45
 70
0
 62
7
  6
CONTINUOUS
370
-3
390
F
  0
LAYER
  5
260
100
AcDbSymbolTableRecord
100
AcDbLayerTableRecord
  2
COLOR53
 70
0
 62
7
  6
CONTINUOUS
370
-3
390
F
  0
LAYER
  5
261
100
AcDbSymbolTableRecord
100
AcDbLayerTableRecord
  2
COLOR54
 70
0
 62
7
  6
CONTINUOUS
370
-3
390
F
  0
LAYER
  5
262
100
AcDbSymbolTableRecord
100
AcDbLayerTableRecord
  2
COLOR55
 70
0
 62
7
  6
CONTINUOUS
370
-3
390
F
  0
LAYER
  5
263
100
AcDbSymbolTableRecord
100
AcDbLayerTableRecord
  2
COLOR56
 70
0
 62
7
  6
CONTINUOUS
370
-3
390
F
  0
LAYER
  5
264
100
AcDbSymbolTableRecord
100
AcDbLayerTableRecord
  2
COLOR57
 70
0
 62
7
  6
CONTINUOUS
370
-3
390
F
  0
LAYER
  5
265
100
AcDbSymbolTableRecord
100
AcDbLayerTableRecord
  2
COLOR58
 70
0
 62
7
  6
CONTINUOUS
370
-3
390
F
  0
LAYER
  5
266
100
AcDbSymbolTableRecord
100
AcDbLayerTableRecord
  2
COLOR59
 70
0
 62
7
  6
CONTINUOUS
370
-3
390
F
  0
LAYER
  5
267
100
AcDbSymbolTableRecord
100
AcDbLayerTableRecord
  2
COLOR7
 70
0
 62
7
  6
CONTINUOUS
370
-3
390
F
  0
LAYER
  5
268
100
AcDbSymbolTableRecord
100
AcDbLayerTableRecord
  2
COORDINATE
 70
0
 62
7
  6
CONTINUOUS
370
-3
390
F
  0
LAYER
  5
269
100
AcDbSymbolTableRecord
100
AcDbLayerTableRecord
  2
COORD_ORIGINE
 70
0
 62
7
  6
CONTINUOUS
370
-3
390
F
  0
LAYER
  5
26A
100
AcDbSymbolTableRecord
100
AcDbLayerTableRecord
  2
COPY
 70
0
 62
7
  6
CONTINUOUS
370
-3
390
F
  0
LAYER
  5
26B
100
AcDbSymbolTableRecord
100
AcDbLayerTableRecord
  2
COPY_PUBLISH
 70
0
 62
7
  6
CONTINUOUS
370
-3
390
F
  0
LAYER
  5
26C
100
AcDbSymbolTableRecord
100
AcDbLayerTableRecord
  2
COSMETICI
 70
0
 62
7
  6
CONTINUOUS
370
-3
390
F
  0
LAYER
  5
26D
100
AcDbSymbolTableRecord
100
AcDbLayerTableRecord
  2
CURVE
 70
0
 62
7
  6
CONTINUOUS
370
-3
390
F
  0
LAYER
  5
26E
100
AcDbSymbolTableRecord
100
AcDbLayerTableRecord
  2
DRAFT
 70
0
 62
7
  6
CONTINUOUS
370
-3
390
F
  0
LAYER
  5
26F
100
AcDbSymbolTableRecord
100
AcDbLayerTableRecord
  2
GEOMETRIA_SOLIDA
 70
0
 62
7
  6
CONTINUOUS
370
-3
390
F
  0
LAYER
  5
270
100
AcDbSymbolTableRecord
100
AcDbLayerTableRecord
  2
GEOMETRIA_SOLIDA_1
 70
0
 62
7
  6
CONTINUOUS
370
-3
390
F
  0
LAYER
  5
271
100
AcDbSymbolTableRecord
100
AcDbLayerTableRecord
  2
GEOMETRIA_SOLIDA_10
 70
0
 62
7
  6
CONTINUOUS
370
-3
390
F
  0
LAYER
  5
272
100
AcDbSymbolTableRecord
100
AcDbLayerTableRecord
  2
GEOMETRIA_SOLIDA_2
 70
0
 62
7
  6
CONTINUOUS
370
-3
390
F
  0
LAYER
  5
273
100
AcDbSymbolTableRecord
100
AcDbLayerTableRecord
  2
GEOMETRIA_SOLIDA_3
 70
0
 62
7
  6
CONTINUOUS
370
-3
390
F
  0
LAYER
  5
274
100
AcDbSymbolTableRecord
100
AcDbLayerTableRecord
  2
GEOMETRIA_SOLIDA_4
 70
0
 62
7
  6
CONTINUOUS
370
-3
390
F
  0
LAYER
  5
275
100
AcDbSymbolTableRecord
100
AcDbLayerTableRecord
  2
GEOMETRIA_SOLIDA_5
 70
0
 62
7
  6
CONTINUOUS
370
-3
390
F
  0
LAYER
  5
276
100
AcDbSymbolTableRecord
100
AcDbLayerTableRecord
  2
GEOMETRIA_SOLIDA_6
 70
0
 62
7
  6
CONTINUOUS
370
-3
390
F
  0
LAYER
  5
277
100
AcDbSymbolTableRecord
100
AcDbLayerTableRecord
  2
GEOMETRIA_SOLIDA_7
 70
0
 62
7
  6
CONTINUOUS
370
-3
390
F
  0
LAYER
  5
278
100
AcDbSymbolTableRecord
100
AcDbLayerTableRecord
  2
GEOMETRIA_SOLIDA_8
 70
0
 62
7
  6
CONTINUOUS
370
-3
390
F
  0
LAYER
  5
279
100
AcDbSymbolTableRecord
100
AcDbLayerTableRecord
  2
GEOMETRIA_SOLIDA_9
 70
0
 62
7
  6
CONTINUOUS
370
-3
390
F
  0
LAYER
  5
27A
100
AcDbSymbolTableRecord
100
AcDbLayerTableRecord
  2
IGES
 70
0
 62
7
  6
CONTINUOUS
370
-3
390
F
  0
LAYER
  5
27B
100
AcDbSymbolTableRecord
100
AcDbLayerTableRecord
  2
IMPORT_IGES
 70
0
 62
7
  6
CONTINUOUS
370
-3
390
F
  0
LAYER
  5
27C
100
AcDbSymbolTableRecord
100
AcDbLayerTableRecord
  2
INTFCLR_2
 70
0
 62
7
  6
CONTINUOUS
370
-3
390
F
  0
LAYER
  5
27D
100
AcDbSymbolTableRecord
100
AcDbLayerTableRecord
  2
INTF_1
 70
0
 62
7
  6
CONTINUOUS
370
-3
390
F
  0
LAYER
  5
27E
100
AcDbSymbolTableRecord
100
AcDbLayerTableRecord
  2
INTF_11
 70
0
 62
7
  6
CONTINUOUS
370
-3
390
F
  0
LAYER
  5
27F
100
AcDbSymbolTableRecord
100
AcDbLayerTableRecord
  2
INTF_12
 70
0
 62
7
  6
CONTINUOUS
370
-3
390
F
  0
LAYER
  5
280
100
AcDbSymbolTableRecord
100
AcDbLayerTableRecord
  2
INTF_13
 70
0
 62
7
  6
CONTINUOUS
370
-3
390
F
  0
LAYER
  5
281
100
AcDbSymbolTableRecord
100
AcDbLayerTableRecord
  2
INTF_14
 70
0
 62
7
  6
CONTINUOUS
370
-3
390
F
  0
LAYER
  5
282
100
AcDbSymbolTableRecord
100
AcDbLayerTableRecord
  2
INTF_17
 70
0
 62
7
  6
CONTINUOUS
370
-3
390
F
  0
LAYER
  5
283
100
AcDbSymbolTableRecord
100
AcDbLayerTableRecord
  2
INTF_2
 70
0
 62
7
  6
CONTINUOUS
370
-3
390
F
  0
LAYER
  5
284
100
AcDbSymbolTableRecord
100
AcDbLayerTableRecord
  2
INTF_22
 70
0
 62
7
  6
CONTINUOUS
370
-3
390
F
  0
LAYER
  5
285
100
AcDbSymbolTableRecord
100
AcDbLayerTableRecord
  2
INTF_3
 70
0
 62
7
  6
CONTINUOUS
370
-3
390
F
  0
LAYER
  5
286
100
AcDbSymbolTableRecord
100
AcDbLayerTableRecord
  2
INTF_4
 70
0
 62
7
  6
CONTINUOUS
370
-3
390
F
  0
LAYER
  5
287
100
AcDbSymbolTableRecord
100
AcDbLayerTableRecord
  2
INTF_5
 70
0
 62
7
  6
CONTINUOUS
370
-3
390
F
  0
LAYER
  5
288
100
AcDbSymbolTableRecord
100
AcDbLayerTableRecord
  2
INTF_6
 70
0
 62
7
  6
CONTINUOUS
370
-3
390
F
  0
LAYER
  5
289
100
AcDbSymbolTableRecord
100
AcDbLayerTableRecord
  2
INTF_8
 70
0
 62
7
  6
CONTINUOUS
370
-3
390
F
  0
LAYER
  5
28A
100
AcDbSymbolTableRecord
100
AcDbLayerTableRecord
  2
INTF_BLANK
 70
0
 62
7
  6
CONTINUOUS
370
-3
390
F
  0
LAYER
  5
28B
100
AcDbSymbolTableRecord
100
AcDbLayerTableRecord
  2
INTF_CYAN
 70
0
 62
7
  6
CONTINUOUS
370
-3
390
F
  0
LAYER
  5
28C
100
AcDbSymbolTableRecord
100
AcDbLayerTableRecord
  2
INTF_RED
 70
0
 62
7
  6
CONTINUOUS
370
-3
390
F
  0
LAYER
  5
28D
100
AcDbSymbolTableRecord
100
AcDbLayerTableRecord
  2
INTF_YELLOW
 70
0
 62
7
  6
CONTINUOUS
370
-3
390
F
  0
LAYER
  5
28E
100
AcDbSymbolTableRecord
100
AcDbLayerTableRecord
  2
LED_0805_120000
 70
0
 62
7
  6
CONTINUOUS
370
-3
390
F
  0
LAYER
  5
28F
100
AcDbSymbolTableRecord
100
AcDbLayerTableRecord
  2
MINIMELF_R_REF_140000
 70
0
 62
7
  6
CONTINUOUS
370
-3
390
F
  0
LAYER
  5
290
100
AcDbSymbolTableRecord
100
AcDbLayerTableRecord
  2
MINIMELF_R_REF_140000_1
 70
0
 62
7
  6
CONTINUOUS
370
-3
390
F
  0
LAYER
  5
291
100
AcDbSymbolTableRecord
100
AcDbLayerTableRecord
  2
MINIMELF_R_REF_140000_2
 70
0
 62
7
  6
CONTINUOUS
370
-3
390
F
  0
LAYER
  5
292
100
AcDbSymbolTableRecord
100
AcDbLayerTableRecord
  2
NOTE
 70
0
 62
7
  6
CONTINUOUS
370
-3
390
F
  0
LAYER
  5
293
100
AcDbSymbolTableRecord
100
AcDbLayerTableRecord
  2
PIANI
 70
0
 62
7
  6
CONTINUOUS
370
-3
390
F
  0
LAYER
  5
294
100
AcDbSymbolTableRecord
100
AcDbLayerTableRecord
  2
PIANI_ORIGINE
 70
0
 62
7
  6
CONTINUOUS
370
-3
390
F
  0
LAYER
  5
295
100
AcDbSymbolTableRecord
100
AcDbLayerTableRecord
  2
PIANI_RIFERIMENTO
 70
0
 62
7
  6
CONTINUOUS
370
-3
390
F
  0
LAYER
  5
296
100
AcDbSymbolTableRecord
100
AcDbLayerTableRecord
  2
PIANI_SFORMO
 70
0
 62
7
  6
CONTINUOUS
370
-3
390
F
  0
LAYER
  5
297
100
AcDbSymbolTableRecord
100
AcDbLayerTableRecord
  2
PUNTI
 70
0
 62
7
  6
CONTINUOUS
370
-3
390
F
  0
LAYER
  5
298
100
AcDbSymbolTableRecord
100
AcDbLayerTableRecord
  2
P_2P_DIP_SWITCH_7_5X7_1_H_3_5MM
 70
0
 62
7
  6
CONTINUOUS
370
-3
390
F
  0
LAYER
  5
299
100
AcDbSymbolTableRecord
100
AcDbLayerTableRecord
  2
RACCORDO
 70
0
 62
7
  6
CONTINUOUS
370
-3
390
F
  0
LAYER
  5
29A
100
AcDbSymbolTableRecord
100
AcDbLayerTableRecord
  2
RGB__255__255__255__
 70
0
 62
7
  6
CONTINUOUS
370
-3
390
F
  0
LAYER
  5
29B
100
AcDbSymbolTableRecord
100
AcDbLayerTableRecord
  2
SIMBOLI
 70
0
 62
7
  6
CONTINUOUS
370
-3
390
F
  0
LAYER
  5
29C
100
AcDbSymbolTableRecord
100
AcDbLayerTableRecord
  2
SMUSSO
 70
0
 62
7
  6
CONTINUOUS
370
-3
390
F
  0
LAYER
  5
29D
100
AcDbSymbolTableRecord
100
AcDbLayerTableRecord
  2
SOD80_SOD-213AA_MINIMELF_REF_16
 70
0
 62
7
  6
CONTINUOUS
370
-3
390
F
  0
LAYER
  5
29E
100
AcDbSymbolTableRecord
100
AcDbLayerTableRecord
  2
SOD80_SOD-213AA_MINIMELF_WAVE_1
 70
0
 62
7
  6
CONTINUOUS
370
-3
390
F
  0
LAYER
  5
29F
100
AcDbSymbolTableRecord
100
AcDbLayerTableRecord
  2
SOT323_H1_1_REF_110000
 70
0
 62
7
  6
CONTINUOUS
370
-3
390
F
  0
LAYER
  5
2A0
100
AcDbSymbolTableRecord
100
AcDbLayerTableRecord
  2
SOT323_H1_1_REF_110000_1
 70
0
 62
7
  6
CONTINUOUS
370
-3
390
F
  0
LAYER
  5
2A1
100
AcDbSymbolTableRecord
100
AcDbLayerTableRecord
  2
SOT323_H1_1_REF_110000_2
 70
0
 62
7
  6
CONTINUOUS
370
-3
390
F
  0
LAYER
  5
2A2
100
AcDbSymbolTableRecord
100
AcDbLayerTableRecord
  2
SOT323_H1_1_REF_110000_3
 70
0
 62
7
  6
CONTINUOUS
370
-3
390
F
  0
LAYER
  5
2A3
100
AcDbSymbolTableRecord
100
AcDbLayerTableRecord
  2
SOT323_H1_1_REF_110000_4
 70
0
 62
7
  6
CONTINUOUS
370
-3
390
F
  0
LAYER
  5
2A4
100
AcDbSymbolTableRecord
100
AcDbLayerTableRecord
  2
SOT89_WAVE_H1_6_160000
 70
0
 62
7
  6
CONTINUOUS
370
-3
390
F
  0
LAYER
  5
2A5
100
AcDbSymbolTableRecord
100
AcDbLayerTableRecord
  2
SUB_SMA_143000
 70
0
 62
7
  6
CONTINUOUS
370
-3
390
F
  0
LAYER
  5
2A6
100
AcDbSymbolTableRecord
100
AcDbLayerTableRecord
  2
SUB_SMA_143000_1
 70
0
 62
7
  6
CONTINUOUS
370
-3
390
F
  0
LAYER
  5
2A7
100
AcDbSymbolTableRecord
100
AcDbLayerTableRecord
  2
SUB_SMA_143000_2
 70
0
 62
7
  6
CONTINUOUS
370
-3
390
F
  0
LAYER
  5
2A8
100
AcDbSymbolTableRecord
100
AcDbLayerTableRecord
  2
SUB_SMA_143000_3
 70
0
 62
7
  6
CONTINUOUS
370
-3
390
F
  0
LAYER
  5
2A9
100
AcDbSymbolTableRecord
100
AcDbLayerTableRecord
  2
SUPERFICI
 70
0
 62
7
  6
CONTINUOUS
370
-3
390
F
  0
LAYER
  5
2AA
100
AcDbSymbolTableRecord
100
AcDbLayerTableRecord
  2
SWITCH_SKRP_250000
 70
0
 62
7
  6
CONTINUOUS
370
-3
390
F
  0
LAYER
  5
2AB
100
AcDbSymbolTableRecord
100
AcDbLayerTableRecord
  2
SWITCH_SKRP_250000_1
 70
0
 62
7
  6
CONTINUOUS
370
-3
390
F
  0
LAYER
  5
2AC
100
AcDbSymbolTableRecord
100
AcDbLayerTableRecord
  2
T7YA_635000
 70
0
 62
7
  6
CONTINUOUS
370
-3
390
F
  0
LAYER
  5
2AD
100
AcDbSymbolTableRecord
100
AcDbLayerTableRecord
  2
TO92-H8_0-P2_54_800000
 70
0
 62
7
  6
CONTINUOUS
370
-3
390
F
  0
LAYER
  5
2AE
100
AcDbSymbolTableRecord
100
AcDbLayerTableRecord
  2
TP-RND-1_5_1000
 70
0
 62
7
  6
CONTINUOUS
370
-3
390
F
  0
LAYER
  5
2AF
100
AcDbSymbolTableRecord
100
AcDbLayerTableRecord
  2
TP-RND-1_5_1000_1
 70
0
 62
7
  6
CONTINUOUS
370
-3
390
F
  0
LAYER
  5
2B0
100
AcDbSymbolTableRecord
100
AcDbLayerTableRecord
  2
TP-RND-1_5_1000_2
 70
0
 62
7
  6
CONTINUOUS
370
-3
390
F
  0
LAYER
  5
2B1
100
AcDbSymbolTableRecord
100
AcDbLayerTableRecord
  2
TP-RND-1_5_1000_3
 70
0
 62
7
  6
CONTINUOUS
370
-3
390
F
  0
LAYER
  5
2B2
100
AcDbSymbolTableRecord
100
AcDbLayerTableRecord
  2
TP-RND-1_5_1000_4
 70
0
 62
7
  6
CONTINUOUS
370
-3
390
F
  0
LAYER
  5
2B3
100
AcDbSymbolTableRecord
100
AcDbLayerTableRecord
  2
TRASH
 70
0
 62
7
  6
CONTINUOUS
370
-3
390
F
  0
LAYER
  5
2B4
100
AcDbSymbolTableRecord
100
AcDbLayerTableRecord
  2
TSSOP16-5_0-6_4-1_1-REF_110000
 70
0
 62
7
  6
CONTINUOUS
370
-3
390
F
  0
LAYER
  5
2B5
100
AcDbSymbolTableRecord
100
AcDbLayerTableRecord
  2
VAR_S07_D9_S3_6_H11_1100000
 70
0
 62
7
  6
CONTINUOUS
370
-3
390
F
  0
LAYER
  5
2B6
100
AcDbSymbolTableRecord
100
AcDbLayerTableRecord
  2
VAR_S07_D9_S3_6_H11_1100000_1
 70
0
 62
7
  6
CONTINUOUS
370
-3
390
F
  0
LAYER
  5
2B7
100
AcDbSymbolTableRecord
100
AcDbLayerTableRecord
  2
VG_CAP-E-SMD-4_3-4_3-6_3_630000
 70
0
 62
7
  6
CONTINUOUS
370
-3
390
F
  0
LAYER
  5
2B8
100
AcDbSymbolTableRecord
100
AcDbLayerTableRecord
  2
VG_CN-THT-DINKLE-EK500VH-R1-P4-
 70
0
 62
7
  6
CONTINUOUS
370
-3
390
F
  0
LAYER
  5
2B9
100
AcDbSymbolTableRecord
100
AcDbLayerTableRecord
  2
VG_FUSE_13X3_H10_1300000
 70
0
 62
7
  6
CONTINUOUS
370
-3
390
F
  0
LAYER
  5
2BA
100
AcDbSymbolTableRecord
100
AcDbLayerTableRecord
  2
VG_SOP4_240000
 70
0
 62
7
  6
CONTINUOUS
370
-3
390
F
  0
LAYER
  5
2BB
100
AcDbSymbolTableRecord
100
AcDbLayerTableRecord
  2
VG_SOT23_H1_1_REF_110000
 70
0
 62
7
  6
CONTINUOUS
370
-3
390
F
  0
LAYER
  5
2BC
100
AcDbSymbolTableRecord
100
AcDbLayerTableRecord
  2
VG_SOT23_H1_1_WAVE_110000
 70
0
 62
7
  6
CONTINUOUS
370
-3
390
F
  0
LAYER
  5
2BD
100
AcDbSymbolTableRecord
100
AcDbLayerTableRecord
  2
VG_SOT23_H1_1_WAVE_110000_1
 70
0
 62
7
  6
CONTINUOUS
370
-3
390
F
  0
LAYER
  5
2BE
100
AcDbSymbolTableRecord
100
AcDbLayerTableRecord
  2
VG_SOT23_H1_2_REF_120000
 70
0
 62
7
  6
CONTINUOUS
370
-3
390
F
  0
LAYER
  5
2BF
100
AcDbSymbolTableRecord
100
AcDbLayerTableRecord
  2
VG_SOT23_H1_2_WAVE_120000
 70
0
 62
7
  6
CONTINUOUS
370
-3
390
F
  0
LAYER
  5
2C0
100
AcDbSymbolTableRecord
100
AcDbLayerTableRecord
  2
VG_SOT23_H1_2_WAVE_120000_1
 70
0
 62
7
  6
CONTINUOUS
370
-3
390
F
  0
LAYER
  5
2C1
100
AcDbSymbolTableRecord
100
AcDbLayerTableRecord
  2
VG_SOT23_H1_2_WAVE_120000_2
 70
0
 62
7
  6
CONTINUOUS
370
-3
390
F
  0
LAYER
  5
2C2
100
AcDbSymbolTableRecord
100
AcDbLayerTableRecord
  2
VG_TO220AB_1525000
 70
0
 62
7
  6
CONTINUOUS
370
-3
390
F
  0
LAYER
  5
2C3
100
AcDbSymbolTableRecord
100
AcDbLayerTableRecord
  2
VG_TO220F_H16_1600000
 70
0
 62
7
  6
CONTINUOUS
370
-3
390
F
  0
LAYER
  5
2C4
100
AcDbSymbolTableRecord
100
AcDbLayerTableRecord
  2
VG_TO220F_H16_1600000_1
 70
0
 62
7
  6
CONTINUOUS
370
-3
390
F
  0
LAYER
  5
2C5
100
AcDbSymbolTableRecord
100
AcDbLayerTableRecord
  2
VG_TO220F_H16_1600000_2
 70
0
 62
7
  6
CONTINUOUS
370
-3
390
F
  0
LAYER
  5
2C6
100
AcDbSymbolTableRecord
100
AcDbLayerTableRecord
  2
VG_TR-THT-H-7_0-7_0-5_8-CT6_580
 70
0
 62
7
  6
CONTINUOUS
370
-3
390
F
  0
LAYER
  5
2C7
100
AcDbSymbolTableRecord
100
AcDbLayerTableRecord
  2
XSEC_DATUMS
 70
0
 62
7
  6
CONTINUOUS
370
-3
390
F
  0
LAYER
  5
2C8
100
AcDbSymbolTableRecord
100
AcDbLayerTableRecord
  2
_WHITE_HOLE
 70
0
 62
7
  6
CONTINUOUS
370
-3
390
F
  0
LAYER
  5
2C9
100
AcDbSymbolTableRecord
100
AcDbLayerTableRecord
  2
___SHELL
 70
0
 62
7
  6
CONTINUOUS
370
-3
390
F
  0
ENDTAB
  0
TABLE
  2
STYLE
  5
3
100
AcDbSymbolTable
 70
1
  0
STYLE
  5
11
100
AcDbSymbolTableRecord
100
AcDbTextStyleTableRecord
  2
STANDARD
 70
0
 40
0.0
 41
0.8
 50
0.0
 71
0
 42
0.2
  3
txt
  4

  0
STYLE
  5
2CA
100
AcDbSymbolTableRecord
100
AcDbTextStyleTableRecord
  2
TEXTSTYLE_1
 70
0
 40
0.0
 41
0.8
 50
0.0
 71
0
 42
0.2
  3
gdt
  4

  0
ENDTAB
  0
TABLE
  2
VIEW
  5
6
100
AcDbSymbolTable
 70
0
  0
ENDTAB
  0
TABLE
  2
UCS
  5
7
100
AcDbSymbolTable
 70
0
  0
ENDTAB
  0
TABLE
  2
APPID
  5
9
100
AcDbSymbolTable
 70
1
  0
APPID
  5
2CB
100
AcDbSymbolTableRecord
100
AcDbRegAppTableRecord
  2
ACAD
 70
0
  0
ENDTAB
  0
TABLE
  2
BLOCK_RECORD
  5
1
100
AcDbSymbolTable
 70
0
  0
BLOCK_RECORD
  5
2CC
100
AcDbSymbolTableRecord
100
AcDbBlockTableRecord
  2
*Model_Space
  0
BLOCK_RECORD
  5
2CD
100
AcDbSymbolTableRecord
100
AcDbBlockTableRecord
  2
*Paper_Space
  0
BLOCK_RECORD
  5
2CE
100
AcDbSymbolTableRecord
100
AcDbBlockTableRecord
  2
_FILLED
  0
ENDTAB
  0
TABLE
  2
DIMSTYLE
  5
A
100
AcDbSymbolTable
 70
1
100
AcDbDimStyleTable
 71
0
  0
DIMSTYLE
105
2CF
100
AcDbSymbolTableRecord
100
AcDbDimStyleTableRecord
  2
STANDARD
 70
0
  3

  4

 40
1.0
 41
3.0
 42
0.5
 43
0.38
 44
1.5
 45
0.0
 46
0.0
 47
0.01
 48
0.01
140
3.0
141
0.09
142
0.0
143
25.4
144
1.0
145
0.0
146
1.0
147
0.625
 71
1
 72
0
 73
0
 74
0
 75
0
 76
0
 77
1
 78
8
 79
2
170
0
171
1
172
0
173
0
174
0
175
0
176
0
177
0
178
0
270
2
179
2
271
2
272
2
273
2
274
2
275
0
280
0
281
0
282
0
283
1
284
8
285
0
286
0
287
3
288
0
340
11
278
44
341
2CE
342
2CE
343
2CE
344
2CE
  0
ENDTAB
  0
ENDSEC
  0
SECTION
  2
BLOCKS
  0
BLOCK
  5
20
100
AcDbEntity
  8
0
100
AcDbBlockBegin
  2
*Model_Space
 70
0
 10
0.0
 20
0.0
 30
0.0
  3
*Model_Space
  1

  0
ENDBLK
  5
21
100
AcDbEntity
  8
0
100
AcDbBlockEnd
  0
BLOCK
  5
1C
100
AcDbEntity
  8
0
100
AcDbBlockBegin
  2
*Paper_Space
 70
0
 10
0.0
 20
0.0
 30
0.0
  3
*Paper_Space
  1

  0
ENDBLK
  5
1D
100
AcDbEntity
  8
0
100
AcDbBlockEnd
  0
BLOCK
  5
2D0
100
AcDbEntity
  8
0
100
AcDbBlockBegin
  2
_FILLED
 70
64
 10
0.0
 20
0.0
  3
_FILLED
  1

  0
SOLID
  5
2D1
100
AcDbEntity
  8
0
  6
BYBLOCK
 62
0
100
AcDbTrace
 10
0.0
 20
0.0
 11
-1.0
 21
0.3166666667
 12
-1.0
 22
-0.3166666667
 13
-1.0
 23
-0.3166666667
  0
ENDBLK
  5
2D2
100
AcDbEntity
  8
0
  6
BYBLOCK
 62
0
100
AcDbBlockEnd
  0
ENDSEC
  0
SECTION
  2
ENTITIES
  0
LWPOLYLINE
  5
2D3
100
AcDbEntity
  8
ASSI
100
AcDbPolyline
 62
7
  6
CONTINUOUS
 90
10
 70
0
 10
-62.6719418466
 20
-18.5503628353
 10
-62.6063805072
 20
-18.5481661765
 10
-62.5416415156
 20
-18.5418181373
 10
-62.4777248717
 20
-18.5313187177
 10
-62.4143671838
 20
-18.5165883901
 10
-62.3518318438
 20
-18.4977066822
 10
-62.2909090265
 20
-18.4749121766
 10
-62.2318621235
 20
-18.448284401
 10
-62.1744277433
 20
-18.4177438277
 10
-62.1186058859
 20
-18.3832904568
  0
LINE
  5
2D4
100
AcDbEntity
  8
ASSI
100
AcDbLine
 62
7
  6
CONTINUOUS
 10
-70.0005903998
 20
-18.620183095
 11
-62.6508754434
 21
-18.620183095
  0
LINE
  5
2D5
100
AcDbEntity
  8
ASSI
100
AcDbLine
 62
7
  6
CONTINUOUS
 10
-69.6890772852
 20
-18.5870184717
 11
-62.9623885579
 21
-18.5870184717
  0
LINE
  5
2D6
100
AcDbEntity
  8
ASSI
100
AcDbLine
 62
7
  6
CONTINUOUS
 10
-69.9795239966
 20
-18.5503628353
 11
-69.7257329216
 21
-18.5503628353
  0
LINE
  5
2D7
100
AcDbEntity
  8
ASSI
100
AcDbLine
 62
7
  6
CONTINUOUS
 10
-62.9257329216
 20
-18.5503628353
 11
-62.6719418466
 21
-18.5503628353
  0
LINE
  5
2D8
100
AcDbEntity
  8
RACCORDO
100
AcDbLine
 62
7
  6
CONTINUOUS
 10
-69.3432476316
 20
-18.495183095
 11
-63.3082182116
 21
-18.495183095
  0
LINE
  5
2D9
100
AcDbEntity
  8
RACCORDO
100
AcDbLine
 62
250
  6
CONTINUOUS
 10
-69.5558913826
 20
-18.295183095
 11
-69.5410801857
 21
-18.295183095
  0
LINE
  5
2DA
100
AcDbEntity
  8
RACCORDO
100
AcDbLine
 62
250
  6
CONTINUOUS
 10
-63.1103856575
 20
-18.295183095
 11
-63.0955744606
 21
-18.295183095
  0
LINE
  5
2DB
100
AcDbEntity
  8
ASSI
100
AcDbLine
 62
7
  6
CONTINUOUS
 10
-69.6890772852
 20
-17.620183095
 11
-69.5558913826
 21
-17.620183095
  0
LINE
  5
2DC
100
AcDbEntity
  8
ASSI
100
AcDbLine
 62
7
  6
CONTINUOUS
 10
-63.0955744606
 20
-17.620183095
 11
-62.9623885579
 21
-17.620183095
  0
LINE
  5
2DD
100
AcDbEntity
  8
0
100
AcDbLine
 62
7
  6
CONTINUOUS
 10
-76.9761135213
 20
-17.520183095
 11
-71.8702448992
 21
-17.520183095
  0
LINE
  5
2DE
100
AcDbEntity
  8
0
100
AcDbLine
 62
7
  6
CONTINUOUS
 10
-69.7106051987
 20
-17.520183095
 11
-69.6257329216
 21
-17.520183095
  0
LINE
  5
2DF
100
AcDbEntity
  8
0
100
AcDbLine
 62
7
  6
CONTINUOUS
 10
-63.0257329216
 20
-17.520183095
 11
-62.9408606445
 21
-17.520183095
  0
LINE
  5
2E0
100
AcDbEntity
  8
0
100
AcDbLine
 62
7
  6
CONTINUOUS
 10
-60.781220944
 20
-17.520183095
 11
-55.6753523219
 21
-17.520183095
  0
LWPOLYLINE
  5
2E1
100
AcDbEntity
  8
ASSI
100
AcDbPolyline
 62
7
  6
CONTINUOUS
 90
10
 70
0
 10
-70.0005903998
 20
-18.620183095
 10
-70.066063336
 20
-18.6179924796
 10
-70.1307171856
 20
-18.6116612881
 10
-70.1945519487
 20
-18.6011895205
 10
-70.2578299999
 20
-18.5864980681
 10
-70.3202889646
 20
-18.5676660397
 10
-70.3811417185
 20
-18.5449307612
 10
-70.4401258869
 20
-18.5183713416
 10
-70.4975038445
 20
-18.487908672
 10
-70.5532755914
 20
-18.4535427525
  0
LWPOLYLINE
  5
2E2
100
AcDbEntity
  8
ASSI
100
AcDbPolyline
 62
7
  6
CONTINUOUS
 90
10
 70
0
 10
-70.5328599573
 20
28.1429242668
 10
-70.4770380999
 20
28.1773776377
 10
-70.4196037197
 20
28.2079182109
 10
-70.3605568167
 20
28.2345459866
 10
-70.2996339994
 20
28.2573404921
 10
-70.2370986594
 20
28.2762222001
 10
-70.1737409715
 20
28.2909525276
 10
-70.1098243276
 20
28.3014519472
 10
-70.045085336
 20
28.3077999864
 10
-69.9795239966
 20
28.3099966453
  0
LWPOLYLINE
  5
2E3
100
AcDbEntity
  8
RACCORDO
100
AcDbPolyline
 62
250
  6
CONTINUOUS
 90
9
 70
0
 10
-69.4069857773
 20
26.8875186546
 10
-69.4163692282
 20
26.8830157768
 10
-69.4359479502
 20
26.8708186483
 10
-69.4531997618
 20
26.8569865548
 10
-69.4678477551
 20
26.8417446339
 10
-69.4796509957
 20
26.8253437269
 10
-69.488413374
 20
26.8080550289
 10
-69.493988205
 20
26.7901662012
 10
-69.496282331
 20
26.7719741925
  0
LINE
  5
2E4
100
AcDbEntity
  8
ASSI
100
AcDbLine
 62
7
  6
CONTINUOUS
 10
-76.0841593634
 20
23.1280713985
 11
-76.1567701686
 21
23.0949067751
  0
LINE
  5
2E5
100
AcDbEntity
  8
ASSI
100
AcDbLine
 62
7
  6
CONTINUOUS
 10
-69.7257329216
 20
-16.320183095
 11
-68.9433259572
 21
-16.2473459518
  0
LINE
  5
2E6
100
AcDbEntity
  8
ASSI
100
AcDbLine
 62
7
  6
CONTINUOUS
 10
-63.2444800659
 20
-17.320183095
 11
-69.4069857773
 21
-17.320183095
  0
LINE
  5
2E7
100
AcDbEntity
  8
RACCORDO
100
AcDbLine
 62
250
  6
CONTINUOUS
 10
-63.2444800659
 20
-17.0123403826
 11
-63.1551835122
 21
-17.0123403826
  0
LINE
  5
2E8
100
AcDbEntity
  8
RACCORDO
100
AcDbLine
 62
250
  6
CONTINUOUS
 10
-69.4069857773
 20
-17.0123403826
 11
-69.496282331
 21
-17.0123403826
  0
LINE
  5
2E9
100
AcDbEntity
  8
ASSI
100
AcDbLine
 62
7
  6
CONTINUOUS
 10
-69.0424961407
 20
-16.7762535967
 11
-63.6089697025
 21
-16.7762535967
  0
LINE
  5
2EA
100
AcDbEntity
  8
ASSI
100
AcDbLine
 62
7
  6
CONTINUOUS
 10
-73.25965275
 20
-16.320183095
 11
-69.7257329216
 21
-16.320183095
  0
LINE
  5
2EB
100
AcDbEntity
  8
ASSI
100
AcDbLine
 62
7
  6
CONTINUOUS
 10
-62.9257329216
 20
-16.320183095
 11
-59.3918130932
 21
-16.320183095
  0
LINE
  5
2EC
100
AcDbEntity
  8
ASSI
100
AcDbLine
 62
7
  6
CONTINUOUS
 10
-59.4176731538
 20
-16.2503628353
 11
-61.5257329216
 21
-16.2503628353
  0
LINE
  5
2ED
100
AcDbEntity
  8
ASSI
100
AcDbLine
 62
7
  6
CONTINUOUS
 10
-73.2326744645
 20
-16.2473459518
 11
-68.9433259572
 21
-16.2473459518
  0
LINE
  5
2EE
100
AcDbEntity
  8
ASSI
100
AcDbLine
 62
7
  6
CONTINUOUS
 10
-63.708139886
 20
-16.2473459518
 11
-61.5347909325
 21
-16.2473459518
  0
LINE
  5
2EF
100
AcDbEntity
  8
RACCORDO
100
AcDbLine
 62
7
  6
CONTINUOUS
 10
-75.475809074
 20
-16.020183095
 11
-73.7047192143
 21
-16.020183095
  0
LINE
  5
2F0
100
AcDbEntity
  8
RACCORDO
100
AcDbLine
 62
7
  6
CONTINUOUS
 10
-58.9467466288
 20
-16.020183095
 11
-57.1756567692
 21
-16.020183095
  0
LINE
  5
2F1
100
AcDbEntity
  8
RACCORDO
100
AcDbLine
 62
7
  6
CONTINUOUS
 10
-75.4670815416
 20
-16.0114555626
 11
-73.7143851935
 21
-16.0114555626
  0
LINE
  5
2F2
100
AcDbEntity
  8
RACCORDO
100
AcDbLine
 62
7
  6
CONTINUOUS
 10
-58.9370806497
 20
-16.0114555626
 11
-57.1843843016
 21
-16.0114555626
  0
LINE
  5
2F3
100
AcDbEntity
  8
DRAFT
100
AcDbLine
 62
7
  6
CONTINUOUS
 10
-57.8582778567
 20
-15.970183095
 11
-58.8913702715
 21
-15.970183095
  0
LINE
  5
2F4
100
AcDbEntity
  8
DRAFT
100
AcDbLine
 62
7
  6
CONTINUOUS
 10
-73.7600955717
 20
-15.970183095
 11
-74.7931879865
 21
-15.970183095
  0
LINE
  5
2F5
100
AcDbEntity
  8
ASSI
100
AcDbLine
 62
7
  6
CONTINUOUS
 10
-63.708139886
 20
-16.2473459518
 11
-62.9257329216
 21
-16.320183095
  0
LWPOLYLINE
  5
2F6
100
AcDbEntity
  8
RACCORDO
100
AcDbPolyline
 62
250
  6
CONTINUOUS
 90
9
 70
0
 10
-69.4069857773
 20
-17.127884833
 10
-69.4163702887
 20
-17.1233813857
 10
-69.4359488929
 20
-17.1111841721
 10
-69.4532004815
 20
-17.0973520889
 10
-69.4678482174
 20
-17.0821102709
 10
-69.4796512521
 20
-17.0657094968
 10
-69.4884134921
 20
-17.0484209292
 10
-69.4939882371
 20
-17.0305322439
 10
-69.496282331
 20
-17.0123403826
  0
LWPOLYLINE
  5
2F7
100
AcDbEntity
  8
ASSI
100
AcDbPolyline
 62
7
  6
CONTINUOUS
 90
10
 70
0
 10
-70.5328599573
 20
-18.3832904568
 10
-70.4770380999
 20
-18.4177438277
 10
-70.4196037197
 20
-18.448284401
 10
-70.3605568167
 20
-18.4749121766
 10
-70.2996339994
 20
-18.4977066822
 10
-70.2370986594
 20
-18.5165883901
 10
-70.1737409715
 20
-18.5313187177
 10
-70.1098243276
 20
-18.5418181373
 10
-70.045085336
 20
-18.5481661765
 10
-69.9795239966
 20
-18.5503628353
  0
LWPOLYLINE
  5
2F8
100
AcDbEntity
  8
ASSI
100
AcDbPolyline
 62
7
  6
CONTINUOUS
 90
13
 70
0
 10
-77.045034345
 20
22.2392464741
 10
-77.1119660552
 20
22.1493917997
 10
-77.173455652
 20
22.0565760789
 10
-77.2295031356
 20
21.9607993116
 10
-77.2802442388
 20
21.8617518365
 10
-77.3255432287
 20
21.759743315
 10
-77.3649929067
 20
21.6557027314
 10
-77.3985430251
 20
21.5496126298
 10
-77.4262438316
 20
21.4414904661
 10
-77.4478388701
 20
21.3323175932
 10
-77.4632426552
 20
21.2224211284
 10
-77.4725406724
 20
21.1114739544
 10
-77.4757329216
 20
20.999476071
  0
LINE
  5
2F9
100
AcDbEntity
  8
ASSI
100
AcDbLine
 62
7
  6
CONTINUOUS
 10
-69.7257329216
 20
28.3099966453
 11
-69.6890772852
 21
28.3466522816
  0
LINE
  5
2FA
100
AcDbEntity
  8
DRAFT
100
AcDbLine
 62
7
  6
CONTINUOUS
 10
-57.867738601
 20
-15.4281774156
 11
-58.303322747
 21
-15.4281774156
  0
LINE
  5
2FB
100
AcDbEntity
  8
DRAFT
100
AcDbLine
 62
7
  6
CONTINUOUS
 10
-74.3481430962
 20
-15.4281774156
 11
-74.7837272422
 21
-15.4281774156
  0
LINE
  5
2FC
100
AcDbEntity
  8
DRAFT
100
AcDbLine
 62
7
  6
CONTINUOUS
 10
-74.7757329216
 20
-15.420183095
 11
-74.3564724915
 21
-15.420183095
  0
LINE
  5
2FD
100
AcDbEntity
  8
DRAFT
100
AcDbLine
 62
7
  6
CONTINUOUS
 10
-58.2949933517
 20
-15.420183095
 11
-57.8757329216
 21
-15.420183095
  0
LINE
  5
2FE
100
AcDbEntity
  8
ASSI
100
AcDbLine
 62
250
  6
CONTINUOUS
 10
-74.7757329216
 20
-15.235444544
 11
-74.548954191
 21
-15.235444544
  0
LINE
  5
2FF
100
AcDbEntity
  8
ASSI
100
AcDbLine
 62
250
  6
CONTINUOUS
 10
-58.1025116522
 20
-15.235444544
 11
-57.8757329216
 21
-15.235444544
  0
LINE
  5
300
100
AcDbEntity
  8
ASSI
100
AcDbLine
 62
7
  6
CONTINUOUS
 10
-70.0388346464
 20
-14.7332733967
 11
-58.1942874416
 21
-14.7332733967
  0
LINE
  5
301
100
AcDbEntity
  8
ASSI
100
AcDbLine
 62
7
  6
CONTINUOUS
 10
-75.0254891512
 20
-14.520183095
 11
-70.3257329216
 21
-14.520183095
  0
LINE
  5
302
100
AcDbEntity
  8
ASSI
100
AcDbLine
 62
7
  6
CONTINUOUS
 10
-69.7257329216
 20
-18.5503628353
 11
-69.6890772852
 21
-18.5870184717
  0
LINE
  5
303
100
AcDbEntity
  8
ASSI
100
AcDbLine
 62
7
  6
CONTINUOUS
 10
-76.9225686305
 20
-12.4086621535
 11
-76.9371890238
 21
-12.3896909569
  0
LWPOLYLINE
  5
304
100
AcDbEntity
  8
ASSI
100
AcDbPolyline
 62
7
  6
CONTINUOUS
 90
13
 70
0
 10
-77.045034345
 20
-12.4796126642
 10
-77.1119660552
 20
-12.3897579898
 10
-77.173455652
 20
-12.2969422689
 10
-77.2295031356
 20
-12.2011655017
 10
-77.2802442388
 20
-12.1021180266
 10
-77.3255432287
 20
-12.0001095051
 10
-77.3649929067
 20
-11.8960689215
 10
-77.3985430251
 20
-11.7899788199
 10
-77.4262438316
 20
-11.6818566562
 10
-77.4478388701
 20
-11.5726837832
 10
-77.4632426552
 20
-11.4627873185
 10
-77.4725406724
 20
-11.3518401444
 10
-77.4757329216
 20
-11.2398422611
  0
LINE
  5
305
100
AcDbEntity
  8
ASSI
100
AcDbLine
 62
7
  6
CONTINUOUS
 10
-77.2044685748
 20
21.4853123022
 11
-76.3702228241
 21
22.7366809282
  0
LINE
  5
306
100
AcDbEntity
  8
CURVE
100
AcDbLine
 62
7
  6
CONTINUOUS
 10
-77.4444615359
 20
20.2305177513
 11
-77.427279453
 21
20.2476998342
  0
LINE
  5
307
100
AcDbEntity
  8
CURVE
100
AcDbLine
 62
7
  6
CONTINUOUS
 10
-77.4477035636
 20
20.0172650096
 11
-77.4437295408
 21
20.0212390324
  0
LINE
  5
308
100
AcDbEntity
  8
CURVE
100
AcDbLine
 62
7
  6
CONTINUOUS
 10
-77.4277391797
 20
20.0372293935
 11
-77.4238817654
 21
20.0410868078
  0
LINE
  5
309
100
AcDbEntity
  8
CURVE
100
AcDbLine
 62
7
  6
CONTINUOUS
 10
-77.4490649939
 20
19.8058928653
 11
-77.4460842694
 21
19.8088735898
  0
LINE
  5
30A
100
AcDbEntity
  8
CURVE
100
AcDbLine
 62
7
  6
CONTINUOUS
 10
-77.4252348088
 20
19.8297230504
 11
-77.4223264867
 21
19.8326313725
  0
LINE
  5
30B
100
AcDbEntity
  8
CURVE
100
AcDbLine
 62
7
  6
CONTINUOUS
 10
-77.4495608134
 20
19.5953863318
 11
-77.4468415198
 21
19.5981056253
  0
LINE
  5
30C
100
AcDbEntity
  8
CURVE
100
AcDbLine
 62
7
  6
CONTINUOUS
 10
-77.4243138157
 20
19.6206333294
 11
-77.4216222999
 21
19.6233248453
  0
LINE
  5
30D
100
AcDbEntity
  8
CURVE
100
AcDbLine
 62
7
  6
CONTINUOUS
 10
-77.4495940176
 20
19.3853424136
 11
-77.4468955488
 21
19.3880408824
  0
LINE
  5
30E
100
AcDbEntity
  8
CURVE
100
AcDbLine
 62
7
  6
CONTINUOUS
 10
-77.4241742132
 20
19.4107622179
 11
-77.4214757444
 21
19.4134606867
  0
LINE
  5
30F
100
AcDbEntity
  8
CURVE
100
AcDbLine
 62
7
  6
CONTINUOUS
 10
-77.4495940176
 20
19.1753316996
 11
-77.4468955488
 21
19.1780301684
  0
LINE
  5
310
100
AcDbEntity
  8
CURVE
100
AcDbLine
 62
7
  6
CONTINUOUS
 10
-77.4241742132
 20
19.2007515039
 11
-77.4214757444
 21
19.2034499727
  0
LINE
  5
311
100
AcDbEntity
  8
CURVE
100
AcDbLine
 62
7
  6
CONTINUOUS
 10
-77.4495940176
 20
18.9653209856
 11
-77.4468955488
 21
18.9680194543
  0
LINE
  5
312
100
AcDbEntity
  8
CURVE
100
AcDbLine
 62
7
  6
CONTINUOUS
 10
-77.4241742132
 20
18.9907407899
 11
-77.4214757444
 21
18.9934392587
  0
LINE
  5
313
100
AcDbEntity
  8
CURVE
100
AcDbLine
 62
7
  6
CONTINUOUS
 10
-77.4495940176
 20
18.7553102715
 11
-77.4468955488
 21
18.7580087403
  0
LINE
  5
314
100
AcDbEntity
  8
CURVE
100
AcDbLine
 62
7
  6
CONTINUOUS
 10
-77.4241742132
 20
18.7807300759
 11
-77.4214757444
 21
18.7834285447
  0
LINE
  5
315
100
AcDbEntity
  8
CURVE
100
AcDbLine
 62
7
  6
CONTINUOUS
 10
-77.4495940176
 20
18.5452995575
 11
-77.4468955488
 21
18.5479980263
  0
LINE
  5
316
100
AcDbEntity
  8
CURVE
100
AcDbLine
 62
7
  6
CONTINUOUS
 10
-77.4241742132
 20
18.5707193619
 11
-77.4214757444
 21
18.5734178307
  0
LINE
  5
317
100
AcDbEntity
  8
CURVE
100
AcDbLine
 62
7
  6
CONTINUOUS
 10
-77.4495940176
 20
18.3352888435
 11
-77.398896872
 21
18.3859859891
  0
LWPOLYLINE
  5
318
100
AcDbEntity
  8
CURVE
100
AcDbPolyline
 62
250
  6
CONTINUOUS
 90
16
 70
0
 10
-77.4353936038
 20
20.3777750545
 10
-77.4358402507
 20
20.3775534113
 10
-77.4362877519
 20
20.3768680079
 10
-77.4367356366
 20
20.3756881333
 10
-77.437183434
 20
20.3739830765
 10
-77.4376306734
 20
20.3717221266
 10
-77.4380768839
 20
20.3688745725
 10
-77.4385215948
 20
20.3654097034
 10
-77.4389643353
 20
20.3612968082
 10
-77.4394046346
 20
20.3565051759
 10
-77.4398420219
 20
20.3510040957
 10
-77.4402760265
 20
20.3447628565
 10
-77.4407061776
 20
20.3377507474
 10
-77.4411320044
 20
20.3299370574
 10
-77.4415228394
 20
20.3219462189
 10
-77.4422899045
 20
20.3038045445
  0
LINE
  5
319
100
AcDbEntity
  8
ASSI
100
AcDbLine
 62
7
  6
CONTINUOUS
 10
-61.5347909325
 20
26.0069797617
 11
-61.5257329216
 21
26.0099966453
  0
LINE
  5
31A
100
AcDbEntity
  8
ASSI
100
AcDbLine
 62
7
  6
CONTINUOUS
 10
-64.013402
 20
-13.420183095
 11
-63.8257329216
 21
-13.3827408046
  0
LINE
  5
31B
100
AcDbEntity
  8
ASSI
100
AcDbLine
 62
7
  6
CONTINUOUS
 10
-64.344452641
 20
-13.420183095
 11
-64.3532015074
 21
-13.4219286015
  0
LINE
  5
31C
100
AcDbEntity
  8
ASSI
100
AcDbLine
 62
7
  6
CONTINUOUS
 10
-68.9569659169
 20
-13.4838079829
 11
-68.6380638431
 21
-13.420183095
  0
LINE
  5
31D
100
AcDbEntity
  8
0
100
AcDbLine
 62
7
  6
CONTINUOUS
 10
-56.7797329216
 20
-13.860183095
 11
-57.0920265008
 21
-13.860183095
  0
LINE
  5
31E
100
AcDbEntity
  8
ASSI
100
AcDbLine
 62
7
  6
CONTINUOUS
 10
-70.3388232233
 20
-13.720183095
 11
-75.5257329216
 21
-13.720183095
  0
LINE
  5
31F
100
AcDbEntity
  8
0
100
AcDbLine
 62
250
  6
CONTINUOUS
 10
-56.7797329216
 20
-13.670183095
 11
-56.9336931675
 21
-13.670183095
  0
LINE
  5
320
100
AcDbEntity
  8
0
100
AcDbLine
 62
7
  6
CONTINUOUS
 10
-56.7797329216
 20
-13.660183095
 11
-56.7697329216
 21
-13.660183095
  0
LINE
  5
321
100
AcDbEntity
  8
ASSI
100
AcDbLine
 62
7
  6
CONTINUOUS
 10
-63.6944999263
 20
-13.4838079829
 11
-68.9569659169
 21
-13.4838079829
  0
LINE
  5
322
100
AcDbEntity
  8
0
100
AcDbLine
 62
250
  6
CONTINUOUS
 10
-56.7697329216
 20
-13.470183095
 11
-56.5797329216
 21
-13.470183095
  0
LINE
  5
323
100
AcDbEntity
  8
0
100
AcDbLine
 62
7
  6
CONTINUOUS
 10
-56.7586931675
 20
-13.460183095
 11
-56.5797329216
 21
-13.460183095
  0
LINE
  5
324
100
AcDbEntity
  8
ASSI
100
AcDbLine
 62
7
  6
CONTINUOUS
 10
-64.3532015074
 20
-13.4219286015
 11
-68.2982643358
 21
-13.4219286015
  0
LINE
  5
325
100
AcDbEntity
  8
ASSI
100
AcDbLine
 62
7
  6
CONTINUOUS
 10
-68.6380638431
 20
-13.420183095
 11
-68.3070132021
 21
-13.420183095
  0
LINE
  5
326
100
AcDbEntity
  8
ASSI
100
AcDbLine
 62
7
  6
CONTINUOUS
 10
-64.344452641
 20
-13.420183095
 11
-64.013402
 21
-13.420183095
  0
LINE
  5
327
100
AcDbEntity
  8
ASSI
100
AcDbLine
 62
7
  6
CONTINUOUS
 10
-75.7046079342
 20
-13.3332733967
 11
-70.3388232233
 21
-13.3332733967
  0
LINE
  5
328
100
AcDbEntity
  8
ASSI
100
AcDbLine
 62
7
  6
CONTINUOUS
 10
-75.7457524531
 20
-13.320183095
 11
-61.3357329216
 21
-13.320183095
  0
LINE
  5
329
100
AcDbEntity
  8
ASSI
100
AcDbLine
 62
7
  6
CONTINUOUS
 10
-75.7457524531
 20
-12.620183095
 11
-61.3357329216
 21
-12.620183095
  0
LINE
  5
32A
100
AcDbEntity
  8
ASSI
100
AcDbLine
 62
7
  6
CONTINUOUS
 10
-64.7444678724
 20
-12.420183095
 11
-67.9069979708
 21
-12.420183095
  0
LINE
  5
32B
100
AcDbEntity
  8
ASSI
100
AcDbLine
 62
7
  6
CONTINUOUS
 10
-68.3167100876
 20
-12.379205929
 11
-64.3347557556
 21
-12.379205929
  0
LINE
  5
32C
100
AcDbEntity
  8
ASSI
100
AcDbLine
 62
7
  6
CONTINUOUS
 10
-68.3257329216
 20
-12.370183095
 11
-64.3257329216
 21
-12.370183095
  0
LINE
  5
32D
100
AcDbEntity
  8
0
100
AcDbLine
 62
250
  6
CONTINUOUS
 10
-76.9257329216
 20
-12.320183095
 11
-76.8081321729
 21
-12.320183095
  0
LINE
  5
32E
100
AcDbEntity
  8
ASSI
100
AcDbLine
 62
7
  6
CONTINUOUS
 10
-68.8257329216
 20
-13.3827408046
 11
-68.6380638431
 21
-13.420183095
  0
LINE
  5
32F
100
AcDbEntity
  8
ASSI
100
AcDbLine
 62
7
  6
CONTINUOUS
 10
-68.2982643358
 20
-13.4219286015
 11
-68.3070132021
 21
-13.420183095
  0
LINE
  5
330
100
AcDbEntity
  8
ASSI
100
AcDbLine
 62
7
  6
CONTINUOUS
 10
-63.6944999263
 20
-13.4838079829
 11
-64.013402
 21
-13.420183095
  0
LINE
  5
331
100
AcDbEntity
  8
CURVE
100
AcDbLine
 62
250
  6
CONTINUOUS
 10
-74.8257329216
 20
-12.0487547007
 11
-73.5257329216
 21
-12.3273256865
  0
LINE
  5
332
100
AcDbEntity
  8
CURVE
100
AcDbLine
 62
250
  6
CONTINUOUS
 10
-74.8257329216
 20
-11.4916114894
 11
-73.8971614709
 21
-11.770183095
  0
LINE
  5
333
100
AcDbEntity
  8
ASSI
100
AcDbLine
 62
7
  6
CONTINUOUS
 10
-61.5347909325
 20
-16.2473459518
 11
-61.5257329216
 21
-16.2503628353
  0
LINE
  5
334
100
AcDbEntity
  8
CURVE
100
AcDbLine
 62
250
  6
CONTINUOUS
 10
-74.4543043336
 20
-10.8416117993
 11
-74.6400186276
 21
-10.7487543908
  0
LWPOLYLINE
  5
335
100
AcDbEntity
  8
ASSI
100
AcDbPolyline
 62
7
  6
CONTINUOUS
 90
13
 70
0
 10
-76.9371890238
 20
-12.3896909569
 10
-76.9700189023
 20
-12.3445412186
 10
-77.0015578132
 20
-12.2985164251
 10
-77.0318310765
 20
-12.251576036
 10
-77.0608133723
 20
-12.2037605917
 10
-77.0884287401
 20
-12.1551917127
 10
-77.1146713185
 20
-12.1058710424
 10
-77.1395469689
 20
-12.0557969375
 10
-77.1629973156
 20
-12.0050860885
 10
-77.1850192606
 20
-11.9537362259
 10
-77.2056159019
 20
-11.9017496194
 10
-77.2247381575
 20
-11.8492497678
 10
-77.2423822968
 20
-11.7962357379
  0
LINE
  5
336
100
AcDbEntity
  8
ASSI
100
AcDbLine
 62
7
  6
CONTINUOUS
 10
-77.2044685748
 20
-11.7256784923
 11
-76.3702228241
 21
-12.9770471182
  0
LWPOLYLINE
  5
337
100
AcDbEntity
  8
ASSI
100
AcDbPolyline
 62
7
  6
CONTINUOUS
 90
14
 70
0
 10
-77.2423796231
 20
21.5558776938
 10
-77.224735045
 20
21.6088925101
 10
-77.2056129706
 20
21.6613913815
 10
-77.1850168717
 20
21.7133759793
 10
-77.1629955098
 20
21.7647239514
 10
-77.1395456971
 20
21.815433399
 10
-77.1146706215
 20
21.865506221
 10
-77.0884286084
 20
21.9148257621
 10
-77.060813889
 20
21.9633935576
 10
-77.0318322321
 20
22.0112080723
 10
-77.0015592694
 20
22.058148045
 10
-76.9700202113
 20
22.1041730553
 10
-76.9371898474
 20
22.1493235236
 10
-76.9030681777
 20
22.1935994499
  0
LINE
  5
338
100
AcDbEntity
  8
CURVE
100
AcDbLine
 62
7
  6
CONTINUOUS
 10
-77.449594164
 20
17.7052565551
 11
-77.4120356877
 21
17.7428150314
  0
LINE
  5
339
100
AcDbEntity
  8
CURVE
100
AcDbLine
 62
7
  6
CONTINUOUS
 10
-77.4101982579
 20
17.5346417471
 11
-77.4039201221
 21
17.540919883
  0
LINE
  5
33A
100
AcDbEntity
  8
CURVE
100
AcDbLine
 62
7
  6
CONTINUOUS
 10
-77.4043095416
 20
17.3305197495
 11
-77.4006396281
 21
17.334189663
  0
LINE
  5
33B
100
AcDbEntity
  8
CURVE
100
AcDbLine
 62
7
  6
CONTINUOUS
 10
-77.4018984726
 20
17.1229201045
 11
-77.3989077377
 21
17.1259108393
  0
LINE
  5
33C
100
AcDbEntity
  8
CURVE
100
AcDbLine
 62
7
  6
CONTINUOUS
 10
-77.4007683953
 20
16.9140394677
 11
-77.3980337073
 21
16.9167741558
  0
LINE
  5
33D
100
AcDbEntity
  8
CURVE
100
AcDbLine
 62
7
  6
CONTINUOUS
 10
-77.4004066904
 20
16.7043904586
 11
-77.3977174623
 21
16.7070796867
  0
LINE
  5
33E
100
AcDbEntity
  8
CURVE
100
AcDbLine
 62
7
  6
CONTINUOUS
 10
-77.4005704473
 20
16.4942159877
 11
-77.3978271158
 21
16.4969593192
  0
LINE
  5
33F
100
AcDbEntity
  8
CURVE
100
AcDbLine
 62
7
  6
CONTINUOUS
 10
-77.4014210616
 20
16.2833546594
 11
-77.3984480723
 21
16.2863276487
  0
LINE
  5
340
100
AcDbEntity
  8
CURVE
100
AcDbLine
 62
7
  6
CONTINUOUS
 10
-77.4035094579
 20
16.0712555491
 11
-77.399835011
 21
16.074929996
  0
LINE
  5
341
100
AcDbEntity
  8
CURVE
100
AcDbLine
 62
7
  6
CONTINUOUS
 10
-77.4083412613
 20
15.8564130316
 11
-77.4025780137
 21
15.8621762793
  0
LINE
  5
342
100
AcDbEntity
  8
CURVE
100
AcDbLine
 62
7
  6
CONTINUOUS
 10
-77.449594164
 20
15.605149415
 11
-77.4087838487
 21
15.6459597302
  0
LINE
  5
343
100
AcDbEntity
  8
IMPORT_IGES
100
AcDbLine
 62
7
  6
CONTINUOUS
 10
-63.8257329216
 20
-11.9668101317
 11
-68.8257329216
 21
-11.9668101317
  0
LINE
  5
344
100
AcDbEntity
  8
IMPORT_IGES
100
AcDbLine
 62
7
  6
CONTINUOUS
 10
-63.8257329216
 20
-11.9168101317
 11
-68.8257329216
 21
-11.9168101317
  0
LINE
  5
345
100
AcDbEntity
  8
IMPORT_IGES
100
AcDbLine
 62
7
  6
CONTINUOUS
 10
-68.8257329216
 20
-11.7671423572
 11
-63.8257329216
 21
-11.7671423571
  0
LINE
  5
346
100
AcDbEntity
  8
ASSI
100
AcDbLine
 62
7
  6
CONTINUOUS
 10
-68.8257329216
 20
-11.720183095
 11
-63.8257329216
 21
-11.720183095
  0
LINE
  5
347
100
AcDbEntity
  8
ASSI
100
AcDbLine
 62
7
  6
CONTINUOUS
 10
-68.9569659169
 20
-11.5889500997
 11
-63.6944999263
 21
-11.5889500997
  0
LINE
  5
348
100
AcDbEntity
  8
CURVE
100
AcDbLine
 62
250
  6
CONTINUOUS
 10
-73.8971614709
 20
-10.8416117993
 11
-74.4543043336
 21
-10.8416117993
  0
LINE
  5
349
100
AcDbEntity
  8
CURVE
100
AcDbLine
 62
250
  6
CONTINUOUS
 10
-77.3520095197
 20
-10.620183095
 11
-77.3746976481
 21
-10.620183095
  0
LINE
  5
34A
100
AcDbEntity
  8
CURVE
100
AcDbLine
 62
250
  6
CONTINUOUS
 10
-73.8971614709
 20
-10.1916117993
 11
-73.7114471962
 21
-10.2844688979
  0
LINE
  5
34B
100
AcDbEntity
  8
CURVE
100
AcDbLine
 62
250
  6
CONTINUOUS
 10
-74.6400186276
 20
-10.7487543908
 11
-74.8257329216
 21
-10.5630401936
  0
LINE
  5
34C
100
AcDbEntity
  8
CURVE
100
AcDbLine
 62
250
  6
CONTINUOUS
 10
-74.8257329216
 20
-9.6344688979
 11
-74.6400186276
 21
-9.820183095
  0
LINE
  5
34D
100
AcDbEntity
  8
CURVE
100
AcDbLine
 62
250
  6
CONTINUOUS
 10
-73.7114471962
 20
-10.2844688979
 11
-73.5257329216
 21
-10.470183095
  0
LWPOLYLINE
  5
34E
100
AcDbEntity
  8
ASSI
100
AcDbPolyline
 62
7
  6
CONTINUOUS
 90
3
 70
0
 10
-77.308070335
 20
21.2844905331
 10
-77.2979799062
 20
21.3394396445
 10
-77.2863503181
 20
21.3941295792
  0
LINE
  5
34F
100
AcDbEntity
  8
ASSI
100
AcDbLine
 62
7
  6
CONTINUOUS
 10
-77.2863503181
 20
21.3941295792
 11
-77.2732083591
 21
21.4484326062
  0
LWPOLYLINE
  5
350
100
AcDbEntity
  8
ASSI
100
AcDbPolyline
 62
7
  6
CONTINUOUS
 90
3
 70
0
 10
-77.2732083591
 20
21.4484326062
 10
-77.2585501766
 20
21.5023486038
 10
-77.2423796231
 20
21.5558776938
  0
LINE
  5
351
100
AcDbEntity
  8
0
100
AcDbLine
 62
7
  6
CONTINUOUS
 10
-69.6257329216
 20
27.279816905
 11
-69.5558913826
 21
27.3846324635
  0
LINE
  5
352
100
AcDbEntity
  8
CURVE
100
AcDbLine
 62
7
  6
CONTINUOUS
 10
-77.4495468243
 20
14.3451324706
 11
-77.4438769125
 21
14.3508023824
  0
LINE
  5
353
100
AcDbEntity
  8
CURVE
100
AcDbLine
 62
7
  6
CONTINUOUS
 10
-77.4277882794
 20
14.3668910155
 11
-77.4221178964
 21
14.3725613985
  0
LINE
  5
354
100
AcDbEntity
  8
CURVE
100
AcDbLine
 62
7
  6
CONTINUOUS
 10
-77.4046121344
 20
14.3900671605
 11
-77.3989422574
 21
14.3957370374
  0
LINE
  5
355
100
AcDbEntity
  8
CURVE
100
AcDbLine
 62
7
  6
CONTINUOUS
 10
-77.4495468243
 20
14.1351217566
 11
-77.4438769125
 21
14.1407916684
  0
LINE
  5
356
100
AcDbEntity
  8
CURVE
100
AcDbLine
 62
7
  6
CONTINUOUS
 10
-77.4277882794
 20
14.1568803015
 11
-77.4221178964
 21
14.1625506844
  0
LINE
  5
357
100
AcDbEntity
  8
CURVE
100
AcDbLine
 62
7
  6
CONTINUOUS
 10
-77.4046121344
 20
14.1800564465
 11
-77.3989422574
 21
14.1857263234
  0
LINE
  5
358
100
AcDbEntity
  8
ASSI
100
AcDbLine
 62
7
  6
CONTINUOUS
 10
-68.2908227917
 20
23.1647270348
 11
-68.3257329216
 21
23.129816905
  0
LINE
  5
359
100
AcDbEntity
  8
CURVE
100
AcDbLine
 62
7
  6
CONTINUOUS
 10
-77.4495468243
 20
13.9251110425
 11
-77.4438769125
 21
13.9307809544
  0
LINE
  5
35A
100
AcDbEntity
  8
CURVE
100
AcDbLine
 62
7
  6
CONTINUOUS
 10
-77.4277882794
 20
13.9468695875
 11
-77.4221178964
 21
13.9525399704
  0
LINE
  5
35B
100
AcDbEntity
  8
CURVE
100
AcDbLine
 62
7
  6
CONTINUOUS
 10
-77.4046121344
 20
13.9700457325
 11
-77.3989422574
 21
13.9757156094
  0
LINE
  5
35C
100
AcDbEntity
  8
CURVE
100
AcDbLine
 62
7
  6
CONTINUOUS
 10
-77.4495468243
 20
13.7151003285
 11
-77.4438769125
 21
13.7207702404
  0
LINE
  5
35D
100
AcDbEntity
  8
CURVE
100
AcDbLine
 62
7
  6
CONTINUOUS
 10
-77.4277882794
 20
13.7368588734
 11
-77.4221178964
 21
13.7425292564
  0
LINE
  5
35E
100
AcDbEntity
  8
CURVE
100
AcDbLine
 62
7
  6
CONTINUOUS
 10
-77.4046121344
 20
13.7600350185
 11
-77.3989422574
 21
13.7657048954
  0
LINE
  5
35F
100
AcDbEntity
  8
CURVE
100
AcDbLine
 62
7
  6
CONTINUOUS
 10
-77.4495468243
 20
13.5050896145
 11
-77.4438769125
 21
13.5107595264
  0
LINE
  5
360
100
AcDbEntity
  8
CURVE
100
AcDbLine
 62
7
  6
CONTINUOUS
 10
-77.4277882794
 20
13.5268481594
 11
-77.4221178964
 21
13.5325185424
  0
LINE
  5
361
100
AcDbEntity
  8
CURVE
100
AcDbLine
 62
7
  6
CONTINUOUS
 10
-77.4046121344
 20
13.5500243045
 11
-77.3989422574
 21
13.5556941814
  0
LINE
  5
362
100
AcDbEntity
  8
CURVE
100
AcDbLine
 62
7
  6
CONTINUOUS
 10
-77.4495468243
 20
13.2950789005
 11
-77.4438769125
 21
13.3007488123
  0
LINE
  5
363
100
AcDbEntity
  8
CURVE
100
AcDbLine
 62
7
  6
CONTINUOUS
 10
-77.4277882794
 20
13.3168374454
 11
-77.4221178964
 21
13.3225078284
  0
LINE
  5
364
100
AcDbEntity
  8
CURVE
100
AcDbLine
 62
7
  6
CONTINUOUS
 10
-77.4046121344
 20
13.3400135904
 11
-77.3989422574
 21
13.3456834674
  0
LINE
  5
365
100
AcDbEntity
  8
CURVE
100
AcDbLine
 62
7
  6
CONTINUOUS
 10
-77.4495468243
 20
13.0850681865
 11
-77.4438769125
 21
13.0907380983
  0
LINE
  5
366
100
AcDbEntity
  8
CURVE
100
AcDbLine
 62
7
  6
CONTINUOUS
 10
-77.4277882794
 20
13.1068267314
 11
-77.4221178964
 21
13.1124971144
  0
LINE
  5
367
100
AcDbEntity
  8
CURVE
100
AcDbLine
 62
7
  6
CONTINUOUS
 10
-77.4046121344
 20
13.1300028764
 11
-77.3989422574
 21
13.1356727534
  0
LWPOLYLINE
  5
368
100
AcDbEntity
  8
CURVE
100
AcDbPolyline
 62
250
  6
CONTINUOUS
 90
17
 70
0
 10
-77.4192034059
 20
15.5602218395
 10
-77.4183748575
 20
15.5605533773
 10
-77.4175460671
 20
15.5616150909
 10
-77.4167175064
 20
15.5635076306
 10
-77.4158896469
 20
15.5663316464
 10
-77.4150629601
 20
15.5701877885
 10
-77.4142379177
 20
15.5751767071
 10
-77.4134149911
 20
15.5813990525
 10
-77.4125946519
 20
15.5889554747
 10
-77.4117773716
 20
15.5979466239
 10
-77.4109636219
 20
15.6084731504
 10
-77.4102919743
 20
15.6184353165
 10
-77.4096245865
 20
15.6295530524
 10
-77.4089629659
 20
15.6418566797
 10
-77.4083086197
 20
15.6553765198
 10
-77.4076630553
 20
15.6701428942
 10
-77.4064043006
 20
15.7035365321
  0
LINE
  5
369
100
AcDbEntity
  8
CURVE
100
AcDbLine
 62
250
  6
CONTINUOUS
 10
-73.5257329216
 20
-11.2130405036
 11
-74.8257329216
 21
-11.4916114894
  0
LINE
  5
36A
100
AcDbEntity
  8
CURVE
100
AcDbLine
 62
250
  6
CONTINUOUS
 10
-74.4543043336
 20
-10.1916117993
 11
-73.8971614709
 21
-10.1916117993
  0
LINE
  5
36B
100
AcDbEntity
  8
CURVE
100
AcDbLine
 62
250
  6
CONTINUOUS
 10
-74.6400186276
 20
-9.820183095
 11
-74.2685900589
 21
-9.820183095
  0
LINE
  5
36C
100
AcDbEntity
  8
CURVE
100
AcDbLine
 62
250
  6
CONTINUOUS
 10
-74.0828757455
 20
-9.2630401936
 11
-73.5257329216
 21
-9.2630401936
  0
LINE
  5
36D
100
AcDbEntity
  8
CURVE
100
AcDbLine
 62
250
  6
CONTINUOUS
 10
-73.5257329216
 20
-8.8916117993
 11
-74.8257329216
 21
-8.8916117993
  0
LINE
  5
36E
100
AcDbEntity
  8
CURVE
100
AcDbLine
 62
250
  6
CONTINUOUS
 10
-62.2757329216
 20
-8.8825846691
 11
-61.2590658903
 21
-8.8825846691
  0
LINE
  5
36F
100
AcDbEntity
  8
CURVE
100
AcDbLine
 62
250
  6
CONTINUOUS
 10
-57.1923988598
 20
-8.8825846691
 11
-56.1757329231
 21
-8.8825846691
  0
LINE
  5
370
100
AcDbEntity
  8
CURVE
100
AcDbLine
 62
250
  6
CONTINUOUS
 10
-73.8971614709
 20
-8.520183095
 11
-73.5257329216
 21
-8.8916117993
  0
LINE
  5
371
100
AcDbEntity
  8
CURVE
100
AcDbLine
 62
250
  6
CONTINUOUS
 10
-74.8257329216
 20
-7.0344688204
 11
-74.6400186276
 21
-7.220183095
  0
LWPOLYLINE
  5
372
100
AcDbEntity
  8
RACCORDO
100
AcDbPolyline
 62
7
  6
CONTINUOUS
 90
11
 70
0
 10
-69.5628755365
 20
-16.4831183555
 10
-69.5622289771
 20
-16.4840585263
 10
-69.5616114807
 20
-16.4863665794
 10
-69.5610230473
 20
-16.4900425149
 10
-69.5604628649
 20
-16.4951999933
 10
-69.5599317455
 20
-16.5017253541
 10
-69.5594321253
 20
-16.5092776156
 10
-69.5589657766
 20
-16.5177580142
 10
-69.5585309271
 20
-16.5272653136
 10
-69.5581246957
 20
-16.5377548224
 10
-69.557743506
 20
-16.5493017336
  0
LINE
  5
373
100
AcDbEntity
  8
0
100
AcDbLine
 62
7
  6
CONTINUOUS
 10
-69.5558913826
 20
-17.6249986536
 11
-69.6257329216
 21
-17.520183095
  0
LINE
  5
374
100
AcDbEntity
  8
ASSI
100
AcDbLine
 62
7
  6
CONTINUOUS
 10
-77.2423822968
 20
-11.7962357379
 11
-77.2585520505
 21
-11.7427084631
  0
LWPOLYLINE
  5
375
100
AcDbEntity
  8
ASSI
100
AcDbPolyline
 62
7
  6
CONTINUOUS
 90
3
 70
0
 10
-77.2585520505
 20
-11.7427084631
 10
-77.2732095288
 20
-11.6887942428
 10
-77.2863510338
 20
-11.6344926292
  0
LWPOLYLINE
  5
376
100
AcDbEntity
  8
ASSI
100
AcDbPolyline
 62
7
  6
CONTINUOUS
 90
5
 70
0
 10
-77.2863510338
 20
-11.6344926292
 10
-77.2979802634
 20
-11.5798040701
 10
-77.3080704221
 20
-11.5248562084
 10
-77.3166179442
 20
-11.4696442323
 10
-77.3173075662
 20
-11.4641859342
  0
LINE
  5
377
100
AcDbEntity
  8
CURVE
100
AcDbLine
 62
250
  6
CONTINUOUS
 10
-77.4148401997
 20
-9.410204095
 11
-77.4496685189
 21
-8.840593095
  0
LWPOLYLINE
  5
378
100
AcDbEntity
  8
ASSI
100
AcDbPolyline
 62
7
  6
CONTINUOUS
 90
4
 70
0
 10
-77.2704200436
 20
21.1273058122
 10
-77.2726854685
 20
21.0966632635
 10
-77.2740319339
 20
21.0615210013
 10
-77.2740785962
 20
21.0312614171
  0
LINE
  5
379
100
AcDbEntity
  8
ASSI
100
AcDbLine
 62
7
  6
CONTINUOUS
 10
-77.3290798773
 20
21.1182158695
 11
-77.3236265658
 21
21.1738049074
  0
LINE
  5
37A
100
AcDbEntity
  8
ASSI
100
AcDbLine
 62
7
  6
CONTINUOUS
 10
-77.3236265658
 20
21.1738049074
 11
-77.3178261371
 21
21.2197151686
  0
LWPOLYLINE
  5
37B
100
AcDbEntity
  8
ASSI
100
AcDbPolyline
 62
250
  6
CONTINUOUS
 90
4
 70
0
 10
-76.9842688761
 20
16.729816905
 10
-76.9827493909
 20
16.7351673632
 10
-76.9812543547
 20
16.7511569736
 10
-76.9797837677
 20
16.7776539967
  0
LWPOLYLINE
  5
37C
100
AcDbEntity
  8
ASSI
100
AcDbPolyline
 62
250
  6
CONTINUOUS
 90
4
 70
0
 10
-76.9842688761
 20
11.729816905
 10
-76.9827493924
 20
11.7351673511
 10
-76.9812543556
 20
11.7511569603
 10
-76.9797837657
 20
11.7776540448
  0
LINE
  5
37D
100
AcDbEntity
  8
ASSI
100
AcDbLine
 62
7
  6
CONTINUOUS
 10
-68.3167100876
 20
22.138839739
 11
-68.3257329216
 21
22.129816905
  0
LINE
  5
37E
100
AcDbEntity
  8
CURVE
100
AcDbLine
 62
7
  6
CONTINUOUS
 10
-77.4495468243
 20
12.8750574725
 11
-77.3989422574
 21
12.9256620393
  0
LINE
  5
37F
100
AcDbEntity
  8
CURVE
100
AcDbLine
 62
7
  6
CONTINUOUS
 10
-77.4495468243
 20
12.6650467585
 11
-77.3989422574
 21
12.7156513253
  0
LINE
  5
380
100
AcDbEntity
  8
CURVE
100
AcDbLine
 62
7
  6
CONTINUOUS
 10
-77.4495466847
 20
12.035014756
 11
-77.4483369402
 21
12.0362245006
  0
LINE
  5
381
100
AcDbEntity
  8
CURVE
100
AcDbLine
 62
7
  6
CONTINUOUS
 10
-77.4495466847
 20
11.825004042
 11
-77.4385175204
 21
11.8360332064
  0
LINE
  5
382
100
AcDbEntity
  8
CURVE
100
AcDbLine
 62
7
  6
CONTINUOUS
 10
-77.4473659138
 20
11.6171740989
 11
-77.4286981006
 21
11.6358419122
  0
LINE
  5
383
100
AcDbEntity
  8
CURVE
100
AcDbLine
 62
7
  6
CONTINUOUS
 10
-77.4369023616
 20
11.4176269371
 11
-77.4188786807
 21
11.435650618
  0
LINE
  5
384
100
AcDbEntity
  8
CURVE
100
AcDbLine
 62
7
  6
CONTINUOUS
 10
-77.4264388094
 20
11.2180797753
 11
-77.4090592609
 21
11.2354593238
  0
LINE
  5
385
100
AcDbEntity
  8
CURVE
100
AcDbLine
 62
7
  6
CONTINUOUS
 10
-77.4159752571
 20
11.0185326135
 11
-77.3992398411
 21
11.0352680296
  0
LINE
  5
386
100
AcDbEntity
  8
CURVE
100
AcDbLine
 62
7
  6
CONTINUOUS
 10
-77.4056750683
 20
10.8188220883
 11
-77.3989421004
 21
10.8255550563
  0
LINE
  5
387
100
AcDbEntity
  8
ASSI
100
AcDbLine
 62
250
  6
CONTINUOUS
 10
-55.7483976727
 20
22.1935994588
 11
-55.6064314982
 21
22.2392464741
  0
LINE
  5
388
100
AcDbEntity
  8
CURVE
100
AcDbLine
 62
250
  6
CONTINUOUS
 10
-77.3520095197
 20
-8.5773259965
 11
-77.3746976481
 21
-8.5773259965
  0
LINE
  5
389
100
AcDbEntity
  8
CURVE
100
AcDbLine
 62
250
  6
CONTINUOUS
 10
-77.4496715551
 20
-8.011118095
 11
-77.3990703037
 21
-8.011118095
  0
LINE
  5
38A
100
AcDbEntity
  8
CURVE
100
AcDbLine
 62
250
  6
CONTINUOUS
 10
-77.3520095197
 20
-7.9273259965
 11
-77.3746976481
 21
-7.9273259965
  0
LINE
  5
38B
100
AcDbEntity
  8
CURVE
100
AcDbLine
 62
250
  6
CONTINUOUS
 10
-77.3990703037
 20
-7.405847095
 11
-77.4496715551
 21
-7.405847095
  0
LINE
  5
38C
100
AcDbEntity
  8
CURVE
100
AcDbLine
 62
250
  6
CONTINUOUS
 10
-74.6400186276
 20
-7.220183095
 11
-74.2685900589
 21
-7.220183095
  0
LINE
  5
38D
100
AcDbEntity
  8
ASSI
100
AcDbLine
 62
250
  6
CONTINUOUS
 10
-55.7483976727
 20
-12.4339656488
 11
-55.6064314982
 21
-12.4796126642
  0
LINE
  5
38E
100
AcDbEntity
  8
ASSI
100
AcDbLine
 62
7
  6
CONTINUOUS
 10
-68.3257329216
 20
-12.370183095
 11
-68.3167100876
 21
-12.379205929
  0
LINE
  5
38F
100
AcDbEntity
  8
ASSI
100
AcDbLine
 62
7
  6
CONTINUOUS
 10
-68.8257329216
 20
-11.720183095
 11
-68.9569659169
 21
-11.5889500997
  0
LINE
  5
390
100
AcDbEntity
  8
CURVE
100
AcDbLine
 62
250
  6
CONTINUOUS
 10
-73.8971614709
 20
-5.920183095
 11
-73.5257329216
 21
-6.2916116831
  0
LWPOLYLINE
  5
391
100
AcDbEntity
  8
INTF_1
100
AcDbPolyline
 62
7
  6
CONTINUOUS
 90
54
 70
0
 10
-76.3257773077
 20
-3.120174474
 10
-76.3129584753
 20
-3.1571145717
 10
-76.2996522684
 20
-3.1936492288
 10
-76.2858247116
 20
-3.2298212814
 10
-76.2714418296
 20
-3.2656735652
 10
-76.2564696472
 20
-3.3012489163
 10
-76.2408741889
 20
-3.3365901708
 10
-76.2246214795
 20
-3.3717401644
 10
-76.2076775437
 20
-3.4067417333
 10
-76.1900084062
 20
-3.4416377133
 10
-76.1715800915
 20
-3.4764709404
 10
-76.1523586245
 20
-3.5112842506
 10
-76.1323100297
 20
-3.5461204798
 10
-76.1114003319
 20
-3.5810224641
 10
-76.0895955558
 20
-3.6160330393
 10
-76.077633584
 20
-3.6346912706
 10
-76.0654108517
 20
-3.6533654905
 10
-76.0529289571
 20
-3.672028926
 10
-76.0401894986
 20
-3.6906548037
 10
-76.0271940744
 20
-3.7092163503
 10
-76.0139442828
 20
-3.7276867927
 10
-76.0004417222
 20
-3.7460393574
 10
-75.9866879907
 20
-3.7642472714
 10
-75.9726846867
 20
-3.7822837612
 10
-75.9584334084
 20
-3.8001220537
 10
-75.9439357543
 20
-3.8177353756
 10
-75.9291933224
 20
-3.8350969537
 10
-75.9142077112
 20
-3.8521800146
 10
-75.8989805189
 20
-3.8689577851
 10
-75.8835133438
 20
-3.8854034919
 10
-75.8678077842
 20
-3.9014903619
 10
-75.8518654384
 20
-3.9171916217
 10
-75.8356879046
 20
-3.932480498
 10
-75.8192767812
 20
-3.9473302176
 10
-75.8026336664
 20
-3.9617140073
 10
-75.7857601585
 20
-3.9756050938
 10
-75.7686578559
 20
-3.9889767038
 10
-75.7513283567
 20
-4.0018020641
 10
-75.7337732594
 20
-4.0140544014
 10
-75.7159941621
 20
-4.0257069424
 10
-75.6979926632
 20
-4.0367329139
 10
-75.6797703609
 20
-4.0471055426
 10
-75.6613288536
 20
-4.0567980553
 10
-75.6426697394
 20
-4.0657836787
 10
-75.6237946168
 20
-4.0740356395
 10
-75.604705084
 20
-4.0815271645
 10
-75.5854027393
 20
-4.0882314805
 10
-75.5658891809
 20
-4.094121814
 10
-75.5461660072
 20
-4.099171392
 10
-75.5262348165
 20
-4.1033534411
 10
-75.506097207
 20
-4.1066411881
 10
-75.485754777
 20
-4.1090078597
 10
-75.4652091248
 20
-4.1104266827
 10
-75.4444618487
 20
-4.1108708838
  0
LWPOLYLINE
  5
392
100
AcDbEntity
  8
CURVE
100
AcDbPolyline
 62
250
  6
CONTINUOUS
 90
54
 70
0
 10
-76.3257773077
 20
-3.120174474
 10
-76.3129584753
 20
-3.1571145717
 10
-76.2996522684
 20
-3.1936492288
 10
-76.2858247116
 20
-3.2298212814
 10
-76.2714418296
 20
-3.2656735652
 10
-76.2564696472
 20
-3.3012489163
 10
-76.2408741889
 20
-3.3365901708
 10
-76.2246214795
 20
-3.3717401644
 10
-76.2076775437
 20
-3.4067417333
 10
-76.1900084062
 20
-3.4416377133
 10
-76.1715800915
 20
-3.4764709404
 10
-76.1523586245
 20
-3.5112842506
 10
-76.1323100297
 20
-3.5461204798
 10
-76.1114003319
 20
-3.5810224641
 10
-76.0895955558
 20
-3.6160330393
 10
-76.077633584
 20
-3.6346912706
 10
-76.0654108517
 20
-3.6533654905
 10
-76.0529289571
 20
-3.672028926
 10
-76.0401894986
 20
-3.6906548037
 10
-76.0271940744
 20
-3.7092163503
 10
-76.0139442828
 20
-3.7276867927
 10
-76.0004417222
 20
-3.7460393574
 10
-75.9866879907
 20
-3.7642472714
 10
-75.9726846867
 20
-3.7822837612
 10
-75.9584334084
 20
-3.8001220537
 10
-75.9439357543
 20
-3.8177353756
 10
-75.9291933224
 20
-3.8350969537
 10
-75.9142077112
 20
-3.8521800146
 10
-75.8989805189
 20
-3.8689577851
 10
-75.8835133438
 20
-3.8854034919
 10
-75.8678077842
 20
-3.9014903619
 10
-75.8518654384
 20
-3.9171916217
 10
-75.8356879046
 20
-3.932480498
 10
-75.8192767812
 20
-3.9473302176
 10
-75.8026336664
 20
-3.9617140073
 10
-75.7857601585
 20
-3.9756050938
 10
-75.7686578559
 20
-3.9889767038
 10
-75.7513283567
 20
-4.0018020641
 10
-75.7337732594
 20
-4.0140544014
 10
-75.7159941621
 20
-4.0257069424
 10
-75.6979926632
 20
-4.0367329139
 10
-75.6797703609
 20
-4.0471055426
 10
-75.6613288536
 20
-4.0567980553
 10
-75.6426697394
 20
-4.0657836787
 10
-75.6237946168
 20
-4.0740356395
 10
-75.604705084
 20
-4.0815271645
 10
-75.5854027393
 20
-4.0882314805
 10
-75.5658891809
 20
-4.094121814
 10
-75.5461660072
 20
-4.099171392
 10
-75.5262348165
 20
-4.1033534411
 10
-75.506097207
 20
-4.1066411881
 10
-75.485754777
 20
-4.1090078597
 10
-75.4652091248
 20
-4.1104266827
 10
-75.4444618487
 20
-4.1108708838
  0
LINE
  5
393
100
AcDbEntity
  8
CURVE
100
AcDbLine
 62
250
  6
CONTINUOUS
 10
-77.4321099888
 20
-6.370345095
 11
-77.3990703037
 21
-6.500962095
  0
LINE
  5
394
100
AcDbEntity
  8
CURVE
100
AcDbLine
 62
250
  6
CONTINUOUS
 10
-77.3990703037
 20
-7.080010095
 11
-77.4496685189
 21
-6.818188095
  0
LINE
  5
395
100
AcDbEntity
  8
CURVE
100
AcDbLine
 62
250
  6
CONTINUOUS
 10
-77.3614836836
 20
14.1869597945
 11
-77.3709578476
 21
14.3226740155
  0
LINE
  5
396
100
AcDbEntity
  8
CURVE
100
AcDbLine
 62
250
  6
CONTINUOUS
 10
-77.3591151424
 20
17.308388463
 11
-77.385169092
 21
17.715531126
  0
LINE
  5
397
100
AcDbEntity
  8
CURVE
100
AcDbLine
 62
250
  6
CONTINUOUS
 10
-77.4357654144
 20
-2.853309095
 11
-77.4169877751
 21
-3.154683095
  0
LINE
  5
398
100
AcDbEntity
  8
CURVE
100
AcDbLine
 62
250
  6
CONTINUOUS
 10
-77.3520095197
 20
-9.6916116443
 11
-77.3746976481
 21
-9.320183095
  0
LINE
  5
399
100
AcDbEntity
  8
CURVE
100
AcDbLine
 62
250
  6
CONTINUOUS
 10
-77.4091715093
 20
-3.278495095
 11
-77.3990703037
 21
-3.445512095
  0
LINE
  5
39A
100
AcDbEntity
  8
CURVE
100
AcDbLine
 62
250
  6
CONTINUOUS
 10
-77.3990703037
 20
-4.044216095
 11
-77.4496685189
 21
-3.134700095
  0
LINE
  5
39B
100
AcDbEntity
  8
CURVE
100
AcDbLine
 62
250
  6
CONTINUOUS
 10
-77.4496685189
 20
-8.235735095
 11
-77.3990703037
 21
-9.167800095
  0
LINE
  5
39C
100
AcDbEntity
  8
CURVE
100
AcDbLine
 62
250
  6
CONTINUOUS
 10
-77.4056750683
 20
10.822100905
 11
-77.4495466847
 21
11.658762905
  0
LWPOLYLINE
  5
39D
100
AcDbEntity
  8
CURVE
100
AcDbPolyline
 62
250
  6
CONTINUOUS
 90
14
 70
0
 10
-77.4299659243
 20
20.32759732
 10
-77.4303680255
 20
20.3355820296
 10
-77.4307743439
 20
20.3427934024
 10
-77.4311844301
 20
20.3492548537
 10
-77.4315978343
 20
20.3549897987
 10
-77.4320141071
 20
20.3600216529
 10
-77.4324327988
 20
20.3643738316
 10
-77.4328534598
 20
20.36806975
 10
-77.4332756405
 20
20.3711328236
 10
-77.4336988913
 20
20.3735864676
 10
-77.4341227627
 20
20.3754540973
 10
-77.4345468049
 20
20.3767591282
 10
-77.4349705685
 20
20.3775249755
 10
-77.4353936038
 20
20.3777750545
  0
LINE
  5
39E
100
AcDbEntity
  8
CURVE
100
AcDbLine
 62
250
  6
CONTINUOUS
 10
-77.4495466847
 20
12.060887905
 11
-77.3989421004
 21
11.029197905
  0
LWPOLYLINE
  5
39F
100
AcDbEntity
  8
CURVE
100
AcDbPolyline
 62
250
  6
CONTINUOUS
 90
14
 70
0
 10
-77.408310531
 20
17.682692372
 10
-77.4089654241
 20
17.6965141464
 10
-77.4096278038
 20
17.7091240254
 10
-77.4102961198
 20
17.7205547124
 10
-77.4109688223
 20
17.7308389107
 10
-77.4118721364
 20
17.7428525147
 10
-77.4127798667
 20
17.7529995031
 10
-77.4136913675
 20
17.7614009009
 10
-77.4146059935
 20
17.7681777331
 10
-77.415523099
 20
17.7734510247
 10
-77.4164420385
 20
17.7773418006
 10
-77.4173621666
 20
17.7799710858
 10
-77.4182828375
 20
17.7814599053
 10
-77.4192034059
 20
17.7819292841
  0
LINE
  5
3A0
100
AcDbEntity
  8
CURVE
100
AcDbLine
 62
250
  6
CONTINUOUS
 10
-77.4215762388
 20
-5.614538095
 11
-77.4496685189
 21
-5.009267095
  0
LWPOLYLINE
  5
3A1
100
AcDbEntity
  8
CURVE
100
AcDbPolyline
 62
250
  6
CONTINUOUS
 90
25
 70
0
 10
-77.4298125731
 20
0.4251058729
 10
-77.4302784439
 20
0.4351158974
 10
-77.4307468432
 20
0.4441403614
 10
-77.4312203019
 20
0.4522465805
 10
-77.4316982801
 20
0.4594334417
 10
-77.4321802381
 20
0.4656998319
 10
-77.4327329939
 20
0.4717152426
 10
-77.4332894686
 20
0.4765604468
 10
-77.4338489244
 20
0.4802592616
 10
-77.4344106234
 20
0.4828355039
 10
-77.4349738278
 20
0.4843129908
 10
-77.4355377997
 20
0.4847155392
 10
-77.4361018014
 20
0.4840669661
 10
-77.4365947962
 20
0.4826493925
 10
-77.4370867478
 20
0.4804229049
 10
-77.4375771553
 20
0.4773652792
 10
-77.4380655178
 20
0.4734542916
 10
-77.4385513344
 20
0.4686677181
 10
-77.4390341042
 20
0.4629833349
 10
-77.4395133263
 20
0.456378918
 10
-77.4399884998
 20
0.4488322436
 10
-77.4404594604
 20
0.4403192642
 10
-77.4409251235
 20
0.4308504595
 10
-77.4413847485
 20
0.4204360373
 10
-77.4422829214
 20
0.3968111712
  0
LINE
  5
3A2
100
AcDbEntity
  8
CURVE
100
AcDbLine
 62
250
  6
CONTINUOUS
 10
-77.4100574891
 20
17.5326017547
 11
-77.409152314
 21
17.5138304115
  0
LINE
  5
3A3
100
AcDbEntity
  8
CURVE
100
AcDbLine
 62
250
  6
CONTINUOUS
 10
-77.4319722579
 20
-4.855731095
 11
-77.3990703037
 21
-5.575399095
  0
LINE
  5
3A4
100
AcDbEntity
  8
CURVE
100
AcDbLine
 62
250
  6
CONTINUOUS
 10
-77.4291772229
 20
20.309247566
 11
-77.4299659243
 21
20.32759732
  0
LINE
  5
3A5
100
AcDbEntity
  8
CURVE
100
AcDbLine
 62
250
  6
CONTINUOUS
 10
-77.4316411777
 20
-0.1117324203
 11
-77.4312427577
 21
-0.1211339726
  0
LINE
  5
3A6
100
AcDbEntity
  8
CURVE
100
AcDbLine
 62
250
  6
CONTINUOUS
 10
-77.409152314
 20
17.5138304115
 11
-77.4082692031
 21
17.4922152519
  0
LINE
  5
3A7
100
AcDbEntity
  8
CURVE
100
AcDbLine
 62
250
  6
CONTINUOUS
 10
-77.4070294045
 20
17.6512823238
 11
-77.408310531
 21
17.682692372
  0
LINE
  5
3A8
100
AcDbEntity
  8
CURVE
100
AcDbLine
 62
250
  6
CONTINUOUS
 10
-77.4289004496
 20
0.4023358772
 11
-77.4298125731
 21
0.4251058729
  0
LINE
  5
3A9
100
AcDbEntity
  8
CURVE
100
AcDbLine
 62
250
  6
CONTINUOUS
 10
-77.4308024671
 20
20.1480766959
 11
-77.4300889392
 21
20.1297027605
  0
LINE
  5
3AA
100
AcDbEntity
  8
ASSI
100
AcDbLine
 62
7
  6
CONTINUOUS
 10
-77.4845228133
 20
3.6802094814
 11
-77.5034782457
 21
4.2112825284
  0
LINE
  5
3AB
100
AcDbEntity
  8
CURVE
100
AcDbLine
 62
250
  6
CONTINUOUS
 10
-77.375694929
 20
11.879816905
 11
-77.3804320105
 21
12.0155311967
  0
LINE
  5
3AC
100
AcDbEntity
  8
CURVE
100
AcDbLine
 62
250
  6
CONTINUOUS
 10
-77.3614836836
 20
12.829816905
 11
-77.3567466017
 21
12.6941026273
  0
LINE
  5
3AD
100
AcDbEntity
  8
CURVE
100
AcDbLine
 62
250
  6
CONTINUOUS
 10
-77.4312427577
 20
-0.1211339726
 11
-77.4308549293
 21
-0.1319769814
  0
LINE
  5
3AE
100
AcDbEntity
  8
CURVE
100
AcDbLine
 62
250
  6
CONTINUOUS
 10
-77.4284122349
 20
20.2877349744
 11
-77.4291772229
 21
20.309247566
  0
LINE
  5
3AF
100
AcDbEntity
  8
CURVE
100
AcDbLine
 62
250
  6
CONTINUOUS
 10
-77.4082692031
 20
17.4922152519
 11
-77.4074140405
 21
17.4675863228
  0
LINE
  5
3B0
100
AcDbEntity
  8
CURVE
100
AcDbLine
 62
250
  6
CONTINUOUS
 10
-77.4057968247
 20
17.6146322542
 11
-77.4070294045
 21
17.6512823238
  0
LINE
  5
3B1
100
AcDbEntity
  8
CURVE
100
AcDbLine
 62
250
  6
CONTINUOUS
 10
-77.4280215704
 20
0.3760462477
 11
-77.4289004496
 21
0.4023358772
  0
LINE
  5
3B2
100
AcDbEntity
  8
CURVE
100
AcDbLine
 62
250
  6
CONTINUOUS
 10
-77.4300889392
 20
20.1297027605
 11
-77.42940161
 21
20.1084073255
  0
LINE
  5
3B3
100
AcDbEntity
  8
CURVE
100
AcDbLine
 62
250
  6
CONTINUOUS
 10
-77.4308549293
 20
-0.1319769814
 11
-77.4304799943
 21
-0.1442241498
  0
LINE
  5
3B4
100
AcDbEntity
  8
CURVE
100
AcDbLine
 62
250
  6
CONTINUOUS
 10
-77.4276744383
 20
20.263173544
 11
-77.4284122349
 21
20.2877349744
  0
LINE
  5
3B5
100
AcDbEntity
  8
CURVE
100
AcDbLine
 62
250
  6
CONTINUOUS
 10
-77.4074140405
 20
17.4675863228
 11
-77.4065927105
 21
17.4397736714
  0
LINE
  5
3B6
100
AcDbEntity
  8
CURVE
100
AcDbLine
 62
250
  6
CONTINUOUS
 10
-77.4271815246
 20
0.3461995527
 11
-77.4280215704
 21
0.3760462477
  0
LINE
  5
3B7
100
AcDbEntity
  8
CURVE
100
AcDbLine
 62
250
  6
CONTINUOUS
 10
-77.404625192
 20
17.5724805364
 11
-77.4057968247
 21
17.6146322542
  0
LINE
  5
3B8
100
AcDbEntity
  8
CURVE
100
AcDbLine
 62
250
  6
CONTINUOUS
 10
-77.42940161
 20
20.1084073255
 11
-77.4287450972
 21
20.0841754198
  0
LINE
  5
3B9
100
AcDbEntity
  8
CURVE
100
AcDbLine
 62
250
  6
CONTINUOUS
 10
-77.4304799943
 20
-0.1442241498
 11
-77.4299468021
 21
-0.165146115
  0
LINE
  5
3BA
100
AcDbEntity
  8
CURVE
100
AcDbLine
 62
250
  6
CONTINUOUS
 10
-77.4266286925
 20
20.2209276495
 11
-77.4276744383
 21
20.263173544
  0
LINE
  5
3BB
100
AcDbEntity
  8
CURVE
100
AcDbLine
 62
250
  6
CONTINUOUS
 10
-77.4065927105
 20
17.4397736714
 11
-77.4054370226
 21
17.3917134424
  0
LINE
  5
3BC
100
AcDbEntity
  8
CURVE
100
AcDbLine
 62
250
  6
CONTINUOUS
 10
-77.4260139863
 20
0.2948476332
 11
-77.4271815246
 21
0.3461995527
  0
LINE
  5
3BD
100
AcDbEntity
  8
CURVE
100
AcDbLine
 62
250
  6
CONTINUOUS
 10
-77.4287450972
 20
20.0841754198
 11
-77.4278295205
 21
20.0424749306
  0
LINE
  5
3BE
100
AcDbEntity
  8
CURVE
100
AcDbLine
 62
250
  6
CONTINUOUS
 10
-77.4030084245
 20
17.4983512449
 11
-77.404625192
 21
17.5724805364
  0
LINE
  5
3BF
100
AcDbEntity
  8
ASSI
100
AcDbLine
 62
7
  6
CONTINUOUS
 10
-77.2762336481
 20
6.1469544519
 11
-77.2748340083
 21
6.0758601565
  0
LINE
  5
3C0
100
AcDbEntity
  8
ASSI
100
AcDbLine
 62
7
  6
CONTINUOUS
 10
-77.2762336481
 20
11.1469544519
 11
-77.2748340083
 21
11.0758601565
  0
LINE
  5
3C1
100
AcDbEntity
  8
ASSI
100
AcDbLine
 62
7
  6
CONTINUOUS
 10
-77.2762336481
 20
16.1469544519
 11
-77.2748340083
 21
16.0758601565
  0
LINE
  5
3C2
100
AcDbEntity
  8
CURVE
100
AcDbLine
 62
250
  6
CONTINUOUS
 10
-77.4299468021
 20
-0.165146115
 11
-77.4293024894
 21
-0.1976085243
  0
LINE
  5
3C3
100
AcDbEntity
  8
CURVE
100
AcDbLine
 62
250
  6
CONTINUOUS
 10
-77.3714564871
 20
-6.5344688979
 11
-77.3746976481
 21
-6.3487543908
  0
LINE
  5
3C4
100
AcDbEntity
  8
CURVE
100
AcDbLine
 62
250
  6
CONTINUOUS
 10
-77.3714564871
 20
-5.4511353579
 11
-77.3746976481
 21
-5.2654211608
  0
LINE
  5
3C5
100
AcDbEntity
  8
CURVE
100
AcDbLine
 62
250
  6
CONTINUOUS
 10
-77.3552506811
 20
-4.8011353579
 11
-77.3520095197
 21
-4.9868495551
  0
LINE
  5
3C6
100
AcDbEntity
  8
CURVE
100
AcDbLine
 62
250
  6
CONTINUOUS
 10
-77.3649741651
 20
-1.6439927664
 11
-77.3617330034
 21
-1.8297069636
  0
LINE
  5
3C7
100
AcDbEntity
  8
CURVE
100
AcDbLine
 62
250
  6
CONTINUOUS
 10
-77.3714564871
 20
-1.2725637522
 11
-77.3746976481
 21
-1.0868495551
  0
LINE
  5
3C8
100
AcDbEntity
  8
CURVE
100
AcDbLine
 62
250
  6
CONTINUOUS
 10
-77.3552506811
 20
-0.6225637522
 11
-77.3520095197
 21
-0.8082785693
  0
LINE
  5
3C9
100
AcDbEntity
  8
CURVE
100
AcDbLine
 62
250
  6
CONTINUOUS
 10
-77.3804320105
 20
12.0155311967
 11
-77.385169092
 21
12.2869597662
  0
LINE
  5
3CA
100
AcDbEntity
  8
CURVE
100
AcDbLine
 62
250
  6
CONTINUOUS
 10
-77.385169092
 20
13.6441025707
 11
-77.3804320105
 21
13.3726740155
  0
LINE
  5
3CB
100
AcDbEntity
  8
CURVE
100
AcDbLine
 62
250
  6
CONTINUOUS
 10
-77.3567466017
 20
12.6941026273
 11
-77.3520095197
 21
12.4226740721
  0
LINE
  5
3CC
100
AcDbEntity
  8
CURVE
100
AcDbLine
 62
250
  6
CONTINUOUS
 10
-77.375694929
 20
14.865531126
 11
-77.385169092
 21
15.4083882365
  0
LINE
  5
3CD
100
AcDbEntity
  8
CURVE
100
AcDbLine
 62
250
  6
CONTINUOUS
 10
-77.3520095197
 20
13.6441025707
 11
-77.3614836836
 21
14.1869597945
  0
LINE
  5
3CE
100
AcDbEntity
  8
CURVE
100
AcDbLine
 62
250
  6
CONTINUOUS
 10
-77.3520095197
 20
16.629816905
 11
-77.3543780607
 21
16.765531126
  0
LINE
  5
3CF
100
AcDbEntity
  8
CURVE
100
AcDbLine
 62
250
  6
CONTINUOUS
 10
-77.4253720536
 20
20.1552635688
 11
-77.4266286925
 21
20.2209276495
  0
LINE
  5
3D0
100
AcDbEntity
  8
CURVE
100
AcDbLine
 62
250
  6
CONTINUOUS
 10
-77.4054370226
 20
17.3917134424
 11
-77.4040664818
 21
17.3157611146
  0
LINE
  5
3D1
100
AcDbEntity
  8
ASSI
100
AcDbLine
 62
7
  6
CONTINUOUS
 10
-77.5035120349
 20
4.2099518425
 11
-77.5035696287
 21
4.2136693518
  0
LINE
  5
3D2
100
AcDbEntity
  8
CURVE
100
AcDbLine
 62
250
  6
CONTINUOUS
 10
-77.424303346
 20
0.194346466
 11
-77.4260139863
 21
0.2948476332
  0
LINE
  5
3D3
100
AcDbEntity
  8
CURVE
100
AcDbLine
 62
250
  6
CONTINUOUS
 10
-77.4015917479
 20
17.41148729
 11
-77.4030084245
 21
17.4983512449
  0
LINE
  5
3D4
100
AcDbEntity
  8
ASSI
100
AcDbLine
 62
7
  6
CONTINUOUS
 10
-77.2748340083
 20
6.0758601565
 11
-77.2732072005
 21
5.9744969798
  0
LINE
  5
3D5
100
AcDbEntity
  8
ASSI
100
AcDbLine
 62
7
  6
CONTINUOUS
 10
-77.2748340083
 20
11.0758601565
 11
-77.2732072005
 21
10.9744969798
  0
LINE
  5
3D6
100
AcDbEntity
  8
ASSI
100
AcDbLine
 62
7
  6
CONTINUOUS
 10
-77.2748340083
 20
16.0758601565
 11
-77.2732072005
 21
15.9744969798
  0
LWPOLYLINE
  5
3D7
100
AcDbEntity
  8
ASSI
100
AcDbPolyline
 62
250
  6
CONTINUOUS
 90
10
 70
0
 10
-76.9716519408
 20
5.6155676199
 10
-76.9728834765
 20
5.6997324814
 10
-76.974177271
 20
5.7751266997
 10
-76.9755157941
 20
5.8413882814
 10
-76.9768999541
 20
5.8981571698
 10
-76.9783288427
 20
5.9451008049
 10
-76.9797822047
 20
5.9819462977
 10
-76.9812532884
 20
6.0084618544
 10
-76.9827488455
 20
6.0244626858
 10
-76.9842688761
 20
6.029816905
  0
LWPOLYLINE
  5
3D8
100
AcDbEntity
  8
ASSI
100
AcDbPolyline
 62
250
  6
CONTINUOUS
 90
10
 70
0
 10
-76.9716519408
 20
10.6155676199
 10
-76.9728834765
 20
10.6997324814
 10
-76.974177271
 20
10.7751266997
 10
-76.9755157941
 20
10.8413882814
 10
-76.9768999541
 20
10.8981571698
 10
-76.9783288427
 20
10.9451008049
 10
-76.9797822047
 20
10.9819462977
 10
-76.9812532884
 20
11.0084618544
 10
-76.9827488455
 20
11.0244626858
 10
-76.9842688761
 20
11.029816905
  0
LWPOLYLINE
  5
3D9
100
AcDbEntity
  8
ASSI
100
AcDbPolyline
 62
250
  6
CONTINUOUS
 90
10
 70
0
 10
-76.9716519408
 20
15.6155676199
 10
-76.9728834765
 20
15.6997324814
 10
-76.974177271
 20
15.7751266997
 10
-76.9755157941
 20
15.8413882814
 10
-76.9768999541
 20
15.8981571698
 10
-76.9783288427
 20
15.9451008049
 10
-76.9797822047
 20
15.9819462977
 10
-76.9812532884
 20
16.0084618544
 10
-76.9827488455
 20
16.0244626858
 10
-76.9842688761
 20
16.029816905
  0
LWPOLYLINE
  5
3DA
100
AcDbEntity
  8
ASSI
100
AcDbPolyline
 62
250
  6
CONTINUOUS
 90
10
 70
0
 10
-76.9716519746
 20
20.6155700989
 10
-76.9728835106
 20
20.699734629
 10
-76.9741773045
 20
20.7751284924
 10
-76.9755158245
 20
20.8413896449
 10
-76.9769002953
 20
20.8981579999
 10
-76.9783294921
 20
20.9451011543
 10
-76.9797822085
 20
20.9819463794
 10
-76.9812513755
 20
21.008461851
 10
-76.9827440621
 20
21.024462675
 10
-76.9842602681
 20
21.029816905
  0
LINE
  5
3DB
100
AcDbEntity
  8
CURVE
100
AcDbLine
 62
250
  6
CONTINUOUS
 10
-77.4278295205
 20
20.0424749306
 11
-77.4267347751
 21
19.9760423869
  0
LINE
  5
3DC
100
AcDbEntity
  8
ASSI
100
AcDbLine
 62
7
  6
CONTINUOUS
 10
-77.2740768946
 20
21.0313789643
 11
-77.2725158784
 21
20.9245553202
  0
LINE
  5
3DD
100
AcDbEntity
  8
CURVE
100
AcDbLine
 62
250
  6
CONTINUOUS
 10
-77.4293024894
 20
-0.1976085243
 11
-77.4286248012
 21
-0.2450892578
  0
LINE
  5
3DE
100
AcDbEntity
  8
ASSI
100
AcDbLine
 62
7
  6
CONTINUOUS
 10
-77.2732072005
 20
5.9744969798
 11
-77.2716024875
 21
5.8518447555
  0
LINE
  5
3DF
100
AcDbEntity
  8
ASSI
100
AcDbLine
 62
7
  6
CONTINUOUS
 10
-77.2732072005
 20
10.9744969798
 11
-77.2716024875
 21
10.8518447555
  0
LINE
  5
3E0
100
AcDbEntity
  8
ASSI
100
AcDbLine
 62
7
  6
CONTINUOUS
 10
-77.2732072005
 20
15.9744969798
 11
-77.2716024875
 21
15.8518447555
  0
LINE
  5
3E1
100
AcDbEntity
  8
CURVE
100
AcDbLine
 62
250
  6
CONTINUOUS
 10
-77.4040664818
 20
17.3157611146
 11
-77.402903903
 21
17.2282439167
  0
LINE
  5
3E2
100
AcDbEntity
  8
CURVE
100
AcDbLine
 62
250
  6
CONTINUOUS
 10
-77.4240624826
 20
20.0591876067
 11
-77.4253720536
 21
20.1552635688
  0
LINE
  5
3E3
100
AcDbEntity
  8
CURVE
100
AcDbLine
 62
250
  6
CONTINUOUS
 10
-77.4232991788
 20
0.1218930966
 11
-77.424303346
 21
0.194346466
  0
LINE
  5
3E4
100
AcDbEntity
  8
ASSI
100
AcDbLine
 62
7
  6
CONTINUOUS
 10
-77.2725158784
 20
20.9245553202
 11
-77.2709269621
 21
20.7927919893
  0
LINE
  5
3E5
100
AcDbEntity
  8
ASSI
100
AcDbLine
 62
250
  6
CONTINUOUS
 10
-76.9693774409
 20
5.4227123355
 11
-76.9716519408
 21
5.6155676199
  0
LINE
  5
3E6
100
AcDbEntity
  8
ASSI
100
AcDbLine
 62
250
  6
CONTINUOUS
 10
-76.9693774409
 20
10.4227123355
 11
-76.9716519408
 21
10.6155676199
  0
LINE
  5
3E7
100
AcDbEntity
  8
ASSI
100
AcDbLine
 62
250
  6
CONTINUOUS
 10
-76.9693774409
 20
15.4227123355
 11
-76.9716519408
 21
15.6155676199
  0
LINE
  5
3E8
100
AcDbEntity
  8
ASSI
100
AcDbLine
 62
250
  6
CONTINUOUS
 10
-76.969377475
 20
20.4227157553
 11
-76.9716519746
 21
20.6155700989
  0
LINE
  5
3E9
100
AcDbEntity
  8
CURVE
100
AcDbLine
 62
250
  6
CONTINUOUS
 10
-77.3709578476
 20
16.494102684
 11
-77.3733263873
 21
16.7202932033
  0
LINE
  5
3EA
100
AcDbEntity
  8
CURVE
100
AcDbLine
 62
250
  6
CONTINUOUS
 10
-77.4267347751
 20
19.9760423869
 11
-77.4257861661
 21
19.8950348756
  0
LINE
  5
3EB
100
AcDbEntity
  8
CURVE
100
AcDbLine
 62
250
  6
CONTINUOUS
 10
-77.4000609647
 20
17.2795828209
 11
-77.4015917479
 21
17.41148729
  0
LINE
  5
3EC
100
AcDbEntity
  8
ASSI
100
AcDbLine
 62
7
  6
CONTINUOUS
 10
-77.2716024875
 20
5.8518447555
 11
-77.2700463088
 21
5.7079548027
  0
LINE
  5
3ED
100
AcDbEntity
  8
ASSI
100
AcDbLine
 62
7
  6
CONTINUOUS
 10
-77.2716024875
 20
10.8518447555
 11
-77.2700463088
 21
10.7079548027
  0
LINE
  5
3EE
100
AcDbEntity
  8
ASSI
100
AcDbLine
 62
7
  6
CONTINUOUS
 10
-77.2716024875
 20
15.8518447555
 11
-77.2700463088
 21
15.7079548027
  0
LINE
  5
3EF
100
AcDbEntity
  8
ASSI
100
AcDbLine
 62
7
  6
CONTINUOUS
 10
-77.2709269621
 20
20.7927919893
 11
-77.2694055067
 21
20.6398280629
  0
LINE
  5
3F0
100
AcDbEntity
  8
CURVE
100
AcDbLine
 62
250
  6
CONTINUOUS
 10
-77.402903903
 20
17.2282439167
 11
-77.401963826
 21
17.1319757566
  0
LINE
  5
3F1
100
AcDbEntity
  8
ASSI
100
AcDbLine
 62
250
  6
CONTINUOUS
 10
-76.9673974428
 20
5.2002562588
 11
-76.9693774409
 21
5.4227123355
  0
LINE
  5
3F2
100
AcDbEntity
  8
ASSI
100
AcDbLine
 62
250
  6
CONTINUOUS
 10
-76.9673974428
 20
10.2002562588
 11
-76.9693774409
 21
10.4227123355
  0
LINE
  5
3F3
100
AcDbEntity
  8
ASSI
100
AcDbLine
 62
250
  6
CONTINUOUS
 10
-76.9673974428
 20
15.2002562588
 11
-76.9693774409
 21
15.4227123355
  0
LINE
  5
3F4
100
AcDbEntity
  8
ASSI
100
AcDbLine
 62
250
  6
CONTINUOUS
 10
-76.9673974597
 20
20.2002581828
 11
-76.969377475
 21
20.4227157553
  0
LINE
  5
3F5
100
AcDbEntity
  8
ASSI
100
AcDbLine
 62
7
  6
CONTINUOUS
 10
-77.2700463088
 20
5.7079548027
 11
-77.2683768331
 21
5.5176425417
  0
LINE
  5
3F6
100
AcDbEntity
  8
ASSI
100
AcDbLine
 62
7
  6
CONTINUOUS
 10
-77.2700463088
 20
10.7079548027
 11
-77.2683768331
 21
10.5176425417
  0
LINE
  5
3F7
100
AcDbEntity
  8
ASSI
100
AcDbLine
 62
7
  6
CONTINUOUS
 10
-77.2700463088
 20
15.7079548027
 11
-77.2683768331
 21
15.5176425417
  0
LINE
  5
3F8
100
AcDbEntity
  8
CURVE
100
AcDbLine
 62
250
  6
CONTINUOUS
 10
-77.4286248012
 20
-0.2450892578
 11
-77.427916316
 21
-0.3212266316
  0
LINE
  5
3F9
100
AcDbEntity
  8
ASSI
100
AcDbLine
 62
7
  6
CONTINUOUS
 10
-77.2694055067
 20
20.6398280629
 11
-77.2677847829
 21
20.439305397
  0
LINE
  5
3FA
100
AcDbEntity
  8
CURVE
100
AcDbLine
 62
250
  6
CONTINUOUS
 10
-77.4257861661
 20
19.8950348756
 11
-77.4250647889
 21
19.8062928216
  0
LINE
  5
3FB
100
AcDbEntity
  8
CURVE
100
AcDbLine
 62
250
  6
CONTINUOUS
 10
-77.4227350347
 20
19.90515531
 11
-77.4240624826
 21
20.0591876067
  0
LINE
  5
3FC
100
AcDbEntity
  8
CURVE
100
AcDbLine
 62
250
  6
CONTINUOUS
 10
-77.4230689997
 20
0.0941705811
 11
-77.4232991788
 21
0.1218930966
  0
LINE
  5
3FD
100
AcDbEntity
  8
ASSI
100
AcDbLine
 62
7
  6
CONTINUOUS
 10
-77.2683768331
 20
5.5176425417
 11
-77.2668520316
 21
5.3004391535
  0
LINE
  5
3FE
100
AcDbEntity
  8
ASSI
100
AcDbLine
 62
7
  6
CONTINUOUS
 10
-77.2683768331
 20
10.5176425417
 11
-77.2668520316
 21
10.3004391535
  0
LINE
  5
3FF
100
AcDbEntity
  8
ASSI
100
AcDbLine
 62
7
  6
CONTINUOUS
 10
-77.2683768331
 20
15.5176425417
 11
-77.2668520316
 21
15.3004391535
  0
LINE
  5
400
100
AcDbEntity
  8
ASSI
100
AcDbLine
 62
250
  6
CONTINUOUS
 10
-76.9657387486
 20
4.9524107648
 11
-76.9673974428
 21
5.2002562588
  0
LINE
  5
401
100
AcDbEntity
  8
ASSI
100
AcDbLine
 62
250
  6
CONTINUOUS
 10
-76.9657387486
 20
9.9524107648
 11
-76.9673974428
 21
10.2002562588
  0
LINE
  5
402
100
AcDbEntity
  8
ASSI
100
AcDbLine
 62
250
  6
CONTINUOUS
 10
-76.9657387486
 20
14.9524107648
 11
-76.9673974428
 21
15.2002562588
  0
LINE
  5
403
100
AcDbEntity
  8
ASSI
100
AcDbLine
 62
250
  6
CONTINUOUS
 10
-76.9657387371
 20
19.9524087491
 11
-76.9673974597
 21
20.2002581828
  0
LINE
  5
404
100
AcDbEntity
  8
CURVE
100
AcDbLine
 62
250
  6
CONTINUOUS
 10
-77.401963826
 20
17.1319757566
 11
-77.4012496484
 21
17.0277857826
  0
LINE
  5
405
100
AcDbEntity
  8
ASSI
100
AcDbLine
 62
7
  6
CONTINUOUS
 10
-77.2677847829
 20
20.439305397
 11
-77.266330545
 21
20.2123928874
  0
LINE
  5
406
100
AcDbEntity
  8
CURVE
100
AcDbLine
 62
250
  6
CONTINUOUS
 10
-77.398544083
 20
17.0587417541
 11
-77.4000609647
 21
17.2795828209
  0
LINE
  5
407
100
AcDbEntity
  8
ASSI
100
AcDbLine
 62
7
  6
CONTINUOUS
 10
-77.2668520316
 20
5.3004391535
 11
-77.2655249802
 21
5.0579044627
  0
LINE
  5
408
100
AcDbEntity
  8
ASSI
100
AcDbLine
 62
7
  6
CONTINUOUS
 10
-77.2668520316
 20
10.3004391535
 11
-77.2655249802
 21
10.0579044627
  0
LINE
  5
409
100
AcDbEntity
  8
ASSI
100
AcDbLine
 62
7
  6
CONTINUOUS
 10
-77.2668520316
 20
15.3004391535
 11
-77.2655249802
 21
15.0579044627
  0
LINE
  5
40A
100
AcDbEntity
  8
ASSI
100
AcDbLine
 62
7
  6
CONTINUOUS
 10
-77.266330545
 20
20.2123928874
 11
-77.2650825069
 21
19.9609212298
  0
LINE
  5
40B
100
AcDbEntity
  8
ASSI
100
AcDbLine
 62
250
  6
CONTINUOUS
 10
-76.9644382952
 20
4.6836411776
 11
-76.9657387486
 21
4.9524107648
  0
LINE
  5
40C
100
AcDbEntity
  8
ASSI
100
AcDbLine
 62
250
  6
CONTINUOUS
 10
-76.9644382952
 20
9.6836411776
 11
-76.9657387486
 21
9.9524107648
  0
LINE
  5
40D
100
AcDbEntity
  8
ASSI
100
AcDbLine
 62
250
  6
CONTINUOUS
 10
-76.9644382952
 20
14.6836411776
 11
-76.9657387486
 21
14.9524107648
  0
LINE
  5
40E
100
AcDbEntity
  8
ASSI
100
AcDbLine
 62
250
  6
CONTINUOUS
 10
-76.9644382866
 20
19.6836394174
 11
-76.9657387371
 21
19.9524087491
  0
LINE
  5
40F
100
AcDbEntity
  8
CURVE
100
AcDbLine
 62
250
  6
CONTINUOUS
 10
-77.4250647889
 20
19.8062928216
 11
-77.4245518343
 21
19.7079330668
  0
LINE
  5
410
100
AcDbEntity
  8
CURVE
100
AcDbLine
 62
250
  6
CONTINUOUS
 10
-77.427916316
 20
-0.3212266316
 11
-77.4274239714
 21
-0.4134465549
  0
LINE
  5
411
100
AcDbEntity
  8
ASSI
100
AcDbLine
 62
7
  6
CONTINUOUS
 10
-77.2655249802
 20
5.0579044627
 11
-77.2644260871
 21
4.792392639
  0
LINE
  5
412
100
AcDbEntity
  8
ASSI
100
AcDbLine
 62
7
  6
CONTINUOUS
 10
-77.2655249802
 20
10.0579044627
 11
-77.2644260871
 21
9.792392639
  0
LINE
  5
413
100
AcDbEntity
  8
ASSI
100
AcDbLine
 62
7
  6
CONTINUOUS
 10
-77.2655249802
 20
15.0579044627
 11
-77.2644260871
 21
14.792392639
  0
LINE
  5
414
100
AcDbEntity
  8
CURVE
100
AcDbLine
 62
250
  6
CONTINUOUS
 10
-77.4229880891
 20
0.0743726149
 11
-77.4230689997
 21
0.0941705811
  0
LINE
  5
415
100
AcDbEntity
  8
CURVE
100
AcDbLine
 62
250
  6
CONTINUOUS
 10
-77.4012496484
 20
17.0277857826
 11
-77.4006713192
 21
16.8848146296
  0
LINE
  5
416
100
AcDbEntity
  8
ASSI
100
AcDbLine
 62
7
  6
CONTINUOUS
 10
-77.2650825069
 20
19.9609212298
 11
-77.2639791493
 21
19.6520555126
  0
LINE
  5
417
100
AcDbEntity
  8
ASSI
100
AcDbLine
 62
250
  6
CONTINUOUS
 10
-76.9635223527
 20
4.3990741705
 11
-76.9644382952
 21
4.6836411776
  0
LINE
  5
418
100
AcDbEntity
  8
ASSI
100
AcDbLine
 62
250
  6
CONTINUOUS
 10
-76.9635223527
 20
9.3990741705
 11
-76.9644382952
 21
9.6836411776
  0
LINE
  5
419
100
AcDbEntity
  8
ASSI
100
AcDbLine
 62
250
  6
CONTINUOUS
 10
-76.9635223527
 20
14.3990741705
 11
-76.9644382952
 21
14.6836411776
  0
LINE
  5
41A
100
AcDbEntity
  8
ASSI
100
AcDbLine
 62
250
  6
CONTINUOUS
 10
-76.9635223481
 20
19.3990711744
 11
-76.9644382866
 21
19.6836394174
  0
LINE
  5
41B
100
AcDbEntity
  8
ASSI
100
AcDbLine
 62
7
  6
CONTINUOUS
 10
-77.2644260871
 20
4.792392639
 11
-77.2635998165
 21
4.5071863941
  0
LINE
  5
41C
100
AcDbEntity
  8
ASSI
100
AcDbLine
 62
7
  6
CONTINUOUS
 10
-77.2644260871
 20
9.792392639
 11
-77.2635166724
 21
9.4703873515
  0
LINE
  5
41D
100
AcDbEntity
  8
ASSI
100
AcDbLine
 62
7
  6
CONTINUOUS
 10
-77.2644260871
 20
14.792392639
 11
-77.2635166724
 21
14.4703873515
  0
LINE
  5
41E
100
AcDbEntity
  8
CURVE
100
AcDbLine
 62
250
  6
CONTINUOUS
 10
-77.4216164331
 20
19.6241479286
 11
-77.4227350347
 21
19.90515531
  0
LINE
  5
41F
100
AcDbEntity
  8
ASSI
100
AcDbLine
 62
7
  6
CONTINUOUS
 10
-77.2639791493
 20
19.6520555126
 11
-77.2632979742
 21
19.3588366552
  0
LINE
  5
420
100
AcDbEntity
  8
CURVE
100
AcDbLine
 62
250
  6
CONTINUOUS
 10
-77.4245518343
 20
19.7079330668
 11
-77.4242215856
 21
19.5751410866
  0
LINE
  5
421
100
AcDbEntity
  8
ASSI
100
AcDbLine
 62
250
  6
CONTINUOUS
 10
-76.9630047805
 20
4.1041738621
 11
-76.9635223527
 21
4.3990741705
  0
LINE
  5
422
100
AcDbEntity
  8
ASSI
100
AcDbLine
 62
250
  6
CONTINUOUS
 10
-76.9630047805
 20
9.1041738621
 11
-76.9635223527
 21
9.3990741705
  0
LINE
  5
423
100
AcDbEntity
  8
ASSI
100
AcDbLine
 62
250
  6
CONTINUOUS
 10
-76.9630047805
 20
14.1041738621
 11
-76.9635223527
 21
14.3990741705
  0
LINE
  5
424
100
AcDbEntity
  8
ASSI
100
AcDbLine
 62
250
  6
CONTINUOUS
 10
-76.9630047754
 20
19.1041689068
 11
-76.9635223481
 21
19.3990711744
  0
LINE
  5
425
100
AcDbEntity
  8
CURVE
100
AcDbLine
 62
250
  6
CONTINUOUS
 10
-77.4410486094
 20
-0.8989843669
 11
-77.4414650046
 21
-0.705848848
  0
LINE
  5
426
100
AcDbEntity
  8
CURVE
100
AcDbLine
 62
250
  6
CONTINUOUS
 10
-77.3977432286
 20
16.7619050922
 11
-77.398544083
 21
17.0587417541
  0
LINE
  5
427
100
AcDbEntity
  8
ASSI
100
AcDbLine
 62
7
  6
CONTINUOUS
 10
-77.2635998165
 20
4.5071863941
 11
-77.2630796763
 21
4.2077125075
  0
LINE
  5
428
100
AcDbEntity
  8
CURVE
100
AcDbLine
 62
250
  6
CONTINUOUS
 10
-77.4274239714
 20
-0.4134465549
 11
-77.4271795871
 21
-0.5218849955
  0
LINE
  5
429
100
AcDbEntity
  8
ASSI
100
AcDbLine
 62
7
  6
CONTINUOUS
 10
-77.2635166724
 20
9.4703873515
 11
-77.2630380145
 21
9.169640116
  0
LINE
  5
42A
100
AcDbEntity
  8
ASSI
100
AcDbLine
 62
7
  6
CONTINUOUS
 10
-77.2635166724
 20
14.4703873515
 11
-77.2630380145
 21
14.169640116
  0
LINE
  5
42B
100
AcDbEntity
  8
CURVE
100
AcDbLine
 62
250
  6
CONTINUOUS
 10
-77.4006713192
 20
16.8848146296
 11
-77.4004020583
 21
16.709342408
  0
LINE
  5
42C
100
AcDbEntity
  8
ASSI
100
AcDbLine
 62
7
  6
CONTINUOUS
 10
-77.2632979742
 20
19.3588366552
 11
-77.2629421609
 21
19.0550198443
  0
LINE
  5
42D
100
AcDbEntity
  8
ASSI
100
AcDbLine
 62
7
  6
CONTINUOUS
 10
-77.2630796763
 20
4.2077125075
 11
-77.2628857733
 21
3.9015495622
  0
LINE
  5
42E
100
AcDbEntity
  8
ASSI
100
AcDbLine
 62
7
  6
CONTINUOUS
 10
-77.5035696287
 20
5.5459644581
 11
-77.5035696287
 21
4.2136693518
  0
LINE
  5
42F
100
AcDbEntity
  8
ASSI
100
AcDbLine
 62
250
  6
CONTINUOUS
 10
-77.5034782457
 20
5.5464029344
 11
-77.5035696287
 21
5.5459644581
  0
LINE
  5
430
100
AcDbEntity
  8
ASSI
100
AcDbLine
 62
250
  6
CONTINUOUS
 10
-77.5035696287
 20
4.2136693518
 11
-77.5034782457
 21
4.2112825284
  0
LINE
  5
431
100
AcDbEntity
  8
DRAFT
100
AcDbLine
 62
7
  6
CONTINUOUS
 10
-77.4757329216
 20
26.7795880529
 11
-77.4757329216
 21
18.0972719699
  0
LINE
  5
432
100
AcDbEntity
  8
DRAFT
100
AcDbLine
 62
7
  6
CONTINUOUS
 10
-77.4757329216
 20
13.86236184
 11
-77.4757329216
 21
6.1972719699
  0
LINE
  5
433
100
AcDbEntity
  8
DRAFT
100
AcDbLine
 62
7
  6
CONTINUOUS
 10
-77.4757329216
 20
3.56236184
 11
-77.4757329216
 21
-4.1027280301
  0
LINE
  5
434
100
AcDbEntity
  8
DRAFT
100
AcDbLine
 62
7
  6
CONTINUOUS
 10
-77.4757329216
 20
-8.33763816
 11
-77.4757329216
 21
-17.019954243
  0
LINE
  5
435
100
AcDbEntity
  8
ASSI
100
AcDbLine
 62
7
  6
CONTINUOUS
 10
-77.4757329216
 20
-11.2398422611
 11
-77.4757329216
 21
3.629816905
  0
LINE
  5
436
100
AcDbEntity
  8
ASSI
100
AcDbLine
 62
7
  6
CONTINUOUS
 10
-77.4757329216
 20
6.129816905
 11
-77.4757329216
 21
20.999476071
  0
LINE
  5
437
100
AcDbEntity
  8
CURVE
100
AcDbLine
 62
250
  6
CONTINUOUS
 10
-77.4496715551
 20
-7.405847095
 11
-77.4496715551
 21
-8.011118095
  0
LINE
  5
438
100
AcDbEntity
  8
CURVE
100
AcDbLine
 62
250
  6
CONTINUOUS
 10
-77.4496685189
 20
-10.620443095
 11
-77.4496685189
 21
-9.962931095
  0
LINE
  5
439
100
AcDbEntity
  8
CURVE
100
AcDbLine
 62
250
  6
CONTINUOUS
 10
-77.4496685189
 20
-8.840593095
 11
-77.4496685189
 21
-8.235735095
  0
LINE
  5
43A
100
AcDbEntity
  8
CURVE
100
AcDbLine
 62
250
  6
CONTINUOUS
 10
-77.4496685189
 20
-6.818188095
 11
-77.4496685189
 21
-6.213417095
  0
LINE
  5
43B
100
AcDbEntity
  8
CURVE
100
AcDbLine
 62
250
  6
CONTINUOUS
 10
-77.4496685189
 20
-5.009267095
 11
-77.4496685189
 21
-4.410410095
  0
LINE
  5
43C
100
AcDbEntity
  8
CURVE
100
AcDbLine
 62
250
  6
CONTINUOUS
 10
-77.4496685189
 20
-3.134700095
 11
-77.4496685189
 21
-2.549173095
  0
LINE
  5
43D
100
AcDbEntity
  8
CURVE
100
AcDbLine
 62
250
  6
CONTINUOUS
 10
-77.449594164
 20
15.5602218395
 11
-77.449594164
 21
15.739250141
  0
LINE
  5
43E
100
AcDbEntity
  8
CURVE
100
AcDbLine
 62
250
  6
CONTINUOUS
 10
-77.449594164
 20
17.6029026605
 11
-77.449594164
 21
17.7819292841
  0
LINE
  5
43F
100
AcDbEntity
  8
CURVE
100
AcDbLine
 62
250
  6
CONTINUOUS
 10
-77.4495468243
 20
4.104217905
 11
-77.4495468243
 21
4.514452905
  0
LINE
  5
440
100
AcDbEntity
  8
CURVE
100
AcDbLine
 62
250
  6
CONTINUOUS
 10
-77.4495468243
 20
6.049768905
 11
-77.4495468243
 21
6.415329905
  0
LINE
  5
441
100
AcDbEntity
  8
CURVE
100
AcDbLine
 62
250
  6
CONTINUOUS
 10
-77.4495468243
 20
7.223507905
 11
-77.4495468243
 21
9.225912905
  0
LINE
  5
442
100
AcDbEntity
  8
CURVE
100
AcDbLine
 62
250
  6
CONTINUOUS
 10
-77.4495466847
 20
9.567037905
 11
-77.4495466847
 21
9.985328905
  0
LINE
  5
443
100
AcDbEntity
  8
CURVE
100
AcDbLine
 62
250
  6
CONTINUOUS
 10
-77.4495466847
 20
11.658762905
 11
-77.4495466847
 21
12.060887905
  0
LINE
  5
444
100
AcDbEntity
  8
CURVE
100
AcDbLine
 62
250
  6
CONTINUOUS
 10
-77.4495468243
 20
12.552329905
 11
-77.4495468243
 21
14.554706905
  0
LINE
  5
445
100
AcDbEntity
  8
CURVE
100
AcDbLine
 62
250
  6
CONTINUOUS
 10
-77.4438769125
 20
14.554706905
 11
-77.4438769125
 21
12.938178905
  0
LINE
  5
446
100
AcDbEntity
  8
CURVE
100
AcDbLine
 62
250
  6
CONTINUOUS
 10
-77.4438769125
 20
9.225912905
 11
-77.4438769125
 21
7.609385905
  0
LINE
  5
447
100
AcDbEntity
  8
CURVE
100
AcDbLine
 62
250
  6
CONTINUOUS
 10
-77.4395531266
 20
4.477915905
 11
-77.4395531266
 21
4.469749905
  0
LINE
  5
448
100
AcDbEntity
  8
CURVE
100
AcDbLine
 62
250
  6
CONTINUOUS
 10
-77.4277882794
 20
7.609385905
 11
-77.4277882794
 21
9.116245905
  0
LINE
  5
449
100
AcDbEntity
  8
CURVE
100
AcDbLine
 62
250
  6
CONTINUOUS
 10
-77.4277882794
 20
12.938178905
 11
-77.4277882794
 21
14.445123905
  0
LINE
  5
44A
100
AcDbEntity
  8
CURVE
100
AcDbLine
 62
250
  6
CONTINUOUS
 10
-77.4271795871
 20
-0.5218849955
 11
-77.4271584116
 21
-0.8989843669
  0
LINE
  5
44B
100
AcDbEntity
  8
CURVE
100
AcDbLine
 62
250
  6
CONTINUOUS
 10
-77.4241742132
 20
18.4735171919
 11
-77.4242215856
 21
19.5751410866
  0
LINE
  5
44C
100
AcDbEntity
  8
CURVE
100
AcDbLine
 62
250
  6
CONTINUOUS
 10
-77.4221178964
 20
14.445123905
 11
-77.4221178964
 21
12.938178905
  0
LINE
  5
44D
100
AcDbEntity
  8
CURVE
100
AcDbLine
 62
250
  6
CONTINUOUS
 10
-77.4221178964
 20
9.116245905
 11
-77.4221178964
 21
7.609385905
  0
LINE
  5
44E
100
AcDbEntity
  8
CURVE
100
AcDbLine
 62
250
  6
CONTINUOUS
 10
-77.4216164331
 20
19.6241479286
 11
-77.4214757444
 21
18.4735171919
  0
LINE
  5
44F
100
AcDbEntity
  8
CURVE
100
AcDbLine
 62
250
  6
CONTINUOUS
 10
-77.4169877751
 20
-3.154683095
 11
-77.4169877751
 21
-2.575179095
  0
LINE
  5
450
100
AcDbEntity
  8
CURVE
100
AcDbLine
 62
250
  6
CONTINUOUS
 10
-77.4091715093
 20
-2.454216095
 11
-77.4091715093
 21
-3.278495095
  0
LINE
  5
451
100
AcDbEntity
  8
CURVE
100
AcDbLine
 62
250
  6
CONTINUOUS
 10
-77.408509937
 20
6.041659905
 11
-77.408509937
 21
6.049768905
  0
LINE
  5
452
100
AcDbEntity
  8
CURVE
100
AcDbLine
 62
250
  6
CONTINUOUS
 10
-77.4056750683
 20
10.813962905
 11
-77.4056750683
 21
10.822100905
  0
LINE
  5
453
100
AcDbEntity
  8
CURVE
100
AcDbLine
 62
250
  6
CONTINUOUS
 10
-77.4046121344
 20
7.609385905
 11
-77.4046121344
 21
9.238091905
  0
LINE
  5
454
100
AcDbEntity
  8
CURVE
100
AcDbLine
 62
250
  6
CONTINUOUS
 10
-77.4046121344
 20
12.938178905
 11
-77.4046121344
 21
14.566939905
  0
LINE
  5
455
100
AcDbEntity
  8
CURVE
100
AcDbLine
 62
250
  6
CONTINUOUS
 10
-77.3990703037
 20
-1.659487095
 11
-77.3990703037
 21
-2.297418095
  0
LINE
  5
456
100
AcDbEntity
  8
CURVE
100
AcDbLine
 62
250
  6
CONTINUOUS
 10
-77.3990703037
 20
-3.445512095
 11
-77.3990703037
 21
-4.044216095
  0
LINE
  5
457
100
AcDbEntity
  8
CURVE
100
AcDbLine
 62
250
  6
CONTINUOUS
 10
-77.3990703037
 20
-4.139260095
 11
-77.3990703037
 21
-4.731376095
  0
LINE
  5
458
100
AcDbEntity
  8
CURVE
100
AcDbLine
 62
250
  6
CONTINUOUS
 10
-77.3990703037
 20
-5.575399095
 11
-77.3990703037
 21
-5.660288095
  0
LINE
  5
459
100
AcDbEntity
  8
CURVE
100
AcDbLine
 62
250
  6
CONTINUOUS
 10
-77.3990703037
 20
-6.500962095
 11
-77.3990703037
 21
-7.080010095
  0
LINE
  5
45A
100
AcDbEntity
  8
CURVE
100
AcDbLine
 62
250
  6
CONTINUOUS
 10
-77.3990703037
 20
-9.167800095
 11
-77.3990703037
 21
-9.701196095
  0
LINE
  5
45B
100
AcDbEntity
  8
CURVE
100
AcDbLine
 62
250
  6
CONTINUOUS
 10
-77.3990703037
 20
-8.011118095
 11
-77.3990703037
 21
-7.405847095
  0
LINE
  5
45C
100
AcDbEntity
  8
CURVE
100
AcDbLine
 62
250
  6
CONTINUOUS
 10
-77.3990702976
 20
-1.4817504394
 11
-77.3990702976
 21
-0.8789144783
  0
LINE
  5
45D
100
AcDbEntity
  8
CURVE
100
AcDbLine
 62
250
  6
CONTINUOUS
 10
-77.3990702976
 20
0.0479751666
 11
-77.3990702976
 21
0.6301758902
  0
LINE
  5
45E
100
AcDbEntity
  8
CURVE
100
AcDbLine
 62
250
  6
CONTINUOUS
 10
-77.3989422574
 20
14.566939905
 11
-77.3989422574
 21
12.552329905
  0
LINE
  5
45F
100
AcDbEntity
  8
CURVE
100
AcDbLine
 62
250
  6
CONTINUOUS
 10
-77.3989422574
 20
9.238091905
 11
-77.3989422574
 21
7.223507905
  0
LINE
  5
460
100
AcDbEntity
  8
CURVE
100
AcDbLine
 62
250
  6
CONTINUOUS
 10
-77.3989422574
 20
6.415329905
 11
-77.3989422574
 21
5.992915905
  0
LINE
  5
461
100
AcDbEntity
  8
CURVE
100
AcDbLine
 62
250
  6
CONTINUOUS
 10
-77.3989422574
 20
4.469749905
 11
-77.3989422574
 21
4.104217905
  0
LINE
  5
462
100
AcDbEntity
  8
CURVE
100
AcDbLine
 62
250
  6
CONTINUOUS
 10
-77.3989421004
 20
11.029197905
 11
-77.3989421004
 21
10.590563905
  0
LINE
  5
463
100
AcDbEntity
  8
CURVE
100
AcDbLine
 62
250
  6
CONTINUOUS
 10
-77.398896872
 20
18.4735171919
 11
-77.398896872
 21
18.294378144
  0
LINE
  5
464
100
AcDbEntity
  8
CURVE
100
AcDbLine
 62
250
  6
CONTINUOUS
 10
-77.385169092
 20
16.494102684
 11
-77.385169092
 21
15.951245347
  0
LINE
  5
465
100
AcDbEntity
  8
CURVE
100
AcDbLine
 62
250
  6
CONTINUOUS
 10
-77.385169092
 20
14.0512455735
 11
-77.385169092
 21
13.6441025707
  0
LINE
  5
466
100
AcDbEntity
  8
CURVE
100
AcDbLine
 62
250
  6
CONTINUOUS
 10
-77.385169092
 20
12.2869597662
 11
-77.385169092
 21
12.4226740721
  0
LINE
  5
467
100
AcDbEntity
  8
CURVE
100
AcDbLine
 62
250
  6
CONTINUOUS
 10
-77.3746976481
 20
-10.620183095
 11
-77.3746976481
 21
-10.0630402324
  0
LINE
  5
468
100
AcDbEntity
  8
CURVE
100
AcDbLine
 62
250
  6
CONTINUOUS
 10
-77.3746976481
 20
-6.3487543908
 11
-77.3746976481
 21
-5.9773259965
  0
LINE
  5
469
100
AcDbEntity
  8
CURVE
100
AcDbLine
 62
250
  6
CONTINUOUS
 10
-77.3746976481
 20
-5.2654211608
 11
-77.3746976481
 21
-4.9868495551
  0
LINE
  5
46A
100
AcDbEntity
  8
CURVE
100
AcDbLine
 62
250
  6
CONTINUOUS
 10
-77.3746976481
 20
-3.4082785693
 11
-77.3746976481
 21
-2.6654211608
  0
LINE
  5
46B
100
AcDbEntity
  8
CURVE
100
AcDbLine
 62
250
  6
CONTINUOUS
 10
-77.3746976481
 20
-2.2939927664
 11
-77.3746976481
 21
-1.8297069636
  0
LINE
  5
46C
100
AcDbEntity
  8
CURVE
100
AcDbLine
 62
250
  6
CONTINUOUS
 10
-77.3746976481
 20
-1.0868495551
 11
-77.3746976481
 21
-0.8082785693
  0
LINE
  5
46D
100
AcDbEntity
  8
CURVE
100
AcDbLine
 62
250
  6
CONTINUOUS
 10
-77.3709578476
 20
16.494102684
 11
-77.3709578476
 21
16.222674242
  0
LINE
  5
46E
100
AcDbEntity
  8
CURVE
100
AcDbLine
 62
250
  6
CONTINUOUS
 10
-77.3662207651
 20
13.6441025707
 11
-77.3662207651
 21
14.2321979436
  0
LINE
  5
46F
100
AcDbEntity
  8
CURVE
100
AcDbLine
 62
250
  6
CONTINUOUS
 10
-77.3649741651
 20
-10.0630402324
 11
-77.3649741651
 21
-10.620183095
  0
LINE
  5
470
100
AcDbEntity
  8
CURVE
100
AcDbLine
 62
250
  6
CONTINUOUS
 10
-77.3617330034
 20
-1.8297069636
 11
-77.3617330034
 21
-2.2939927664
  0
LINE
  5
471
100
AcDbEntity
  8
CURVE
100
AcDbLine
 62
250
  6
CONTINUOUS
 10
-77.3591151424
 20
18.258388463
 11
-77.3591151424
 21
17.308388463
  0
LINE
  5
472
100
AcDbEntity
  8
CURVE
100
AcDbLine
 62
250
  6
CONTINUOUS
 10
-77.3584918424
 20
-9.5678021279
 11
-77.3584918424
 21
-9.0725640622
  0
LINE
  5
473
100
AcDbEntity
  8
CURVE
100
AcDbLine
 62
250
  6
CONTINUOUS
 10
-77.3520095197
 20
12.4226740721
 11
-77.3520095197
 21
12.2869597662
  0
LINE
  5
474
100
AcDbEntity
  8
CURVE
100
AcDbLine
 62
250
  6
CONTINUOUS
 10
-77.3520095197
 20
-0.8082785693
 11
-77.3520095197
 21
-1.0868495551
  0
LINE
  5
475
100
AcDbEntity
  8
CURVE
100
AcDbLine
 62
250
  6
CONTINUOUS
 10
-77.3520095197
 20
-4.9868495551
 11
-77.3520095197
 21
-5.2654211608
  0
LINE
  5
476
100
AcDbEntity
  8
CURVE
100
AcDbLine
 62
250
  6
CONTINUOUS
 10
-77.3520095197
 20
-5.9773259965
 11
-77.3520095197
 21
-6.3487543908
  0
LINE
  5
477
100
AcDbEntity
  8
CURVE
100
AcDbLine
 62
250
  6
CONTINUOUS
 10
-77.3520095197
 20
-0.2511353579
 11
-77.3520095197
 21
0.213149825
  0
LINE
  5
478
100
AcDbEntity
  8
CURVE
100
AcDbLine
 62
250
  6
CONTINUOUS
 10
-77.3520095197
 20
15.951245347
 11
-77.3520095197
 21
16.629816905
  0
LINE
  5
479
100
AcDbEntity
  8
ASSI
100
AcDbLine
 62
7
  6
CONTINUOUS
 10
-77.3388232233
 20
16.429816905
 11
-77.3388232233
 21
16.329816905
  0
LINE
  5
47A
100
AcDbEntity
  8
ASSI
100
AcDbLine
 62
7
  6
CONTINUOUS
 10
-77.3388232233
 20
11.429816905
 11
-77.3388232233
 21
11.329816905
  0
LINE
  5
47B
100
AcDbEntity
  8
ASSI
100
AcDbLine
 62
7
  6
CONTINUOUS
 10
-77.3388232233
 20
6.429816905
 11
-77.3388232233
 21
6.329816905
  0
LINE
  5
47C
100
AcDbEntity
  8
ASSI
100
AcDbLine
 62
7
  6
CONTINUOUS
 10
-77.3388232233
 20
1.429816905
 11
-77.3388232233
 21
-11.2819352323
  0
LINE
  5
47D
100
AcDbEntity
  8
ASSI
100
AcDbLine
 62
7
  6
CONTINUOUS
 10
-77.3360924022
 20
1.4677342411
 11
-77.3360924022
 21
6.2918995688
  0
LINE
  5
47E
100
AcDbEntity
  8
ASSI
100
AcDbLine
 62
7
  6
CONTINUOUS
 10
-77.3360924022
 20
6.4677342411
 11
-77.3360924022
 21
11.2918995688
  0
LINE
  5
47F
100
AcDbEntity
  8
ASSI
100
AcDbLine
 62
7
  6
CONTINUOUS
 10
-77.3360924022
 20
11.4677342411
 11
-77.3360924022
 21
16.2918995688
  0
LINE
  5
480
100
AcDbEntity
  8
ASSI
100
AcDbLine
 62
7
  6
CONTINUOUS
 10
-77.3360924022
 20
16.4677342411
 11
-77.3360924022
 21
20.9508914752
  0
LINE
  5
481
100
AcDbEntity
  8
ASSI
100
AcDbLine
 62
7
  6
CONTINUOUS
 10
-77.3257329216
 20
21.0648462022
 11
-77.3257329216
 21
16.5165890099
  0
LINE
  5
482
100
AcDbEntity
  8
ASSI
100
AcDbLine
 62
7
  6
CONTINUOUS
 10
-77.3257329216
 20
16.2430448
 11
-77.3257329216
 21
11.5165890099
  0
LINE
  5
483
100
AcDbEntity
  8
ASSI
100
AcDbLine
 62
7
  6
CONTINUOUS
 10
-77.3257329216
 20
11.2430448
 11
-77.3257329216
 21
6.5165890099
  0
LINE
  5
484
100
AcDbEntity
  8
ASSI
100
AcDbLine
 62
7
  6
CONTINUOUS
 10
-77.3257329216
 20
6.2430448
 11
-77.3257329216
 21
1.5165890099
  0
LINE
  5
485
100
AcDbEntity
  8
ASSI
100
AcDbLine
 62
7
  6
CONTINUOUS
 10
-77.2630380145
 20
9.169640116
 11
-77.262885274
 21
8.8632132227
  0
LINE
  5
486
100
AcDbEntity
  8
ASSI
100
AcDbLine
 62
7
  6
CONTINUOUS
 10
-77.2630380145
 20
14.169640116
 11
-77.262885274
 21
13.8632132227
  0
LINE
  5
487
100
AcDbEntity
  8
ASSI
100
AcDbLine
 62
250
  6
CONTINUOUS
 10
-76.9629021343
 20
18.8046228587
 11
-76.9630047754
 21
19.1041689068
  0
LINE
  5
488
100
AcDbEntity
  8
ASSI
100
AcDbLine
 62
250
  6
CONTINUOUS
 10
-76.9629021414
 20
13.8046188627
 11
-76.9630047805
 21
14.1041738621
  0
LINE
  5
489
100
AcDbEntity
  8
ASSI
100
AcDbLine
 62
250
  6
CONTINUOUS
 10
-76.9629021414
 20
8.8046188627
 11
-76.9630047805
 21
9.1041738621
  0
LINE
  5
48A
100
AcDbEntity
  8
ASSI
100
AcDbLine
 62
250
  6
CONTINUOUS
 10
-76.9629021414
 20
3.8046188627
 11
-76.9630047805
 21
4.1041738621
  0
LINE
  5
48B
100
AcDbEntity
  8
ASSI
100
AcDbLine
 62
7
  6
CONTINUOUS
 10
-76.9257329216
 20
-12.143781972
 11
-76.9257329216
 21
-12.320183095
  0
LINE
  5
48C
100
AcDbEntity
  8
CURVE
100
AcDbLine
 62
250
  6
CONTINUOUS
 10
-77.4502523409
 20
-0.6241925622
 11
-77.4490773623
 21
-1.4817504394
  0
LINE
  5
48D
100
AcDbEntity
  8
ASSI
100
AcDbLine
 62
7
  6
CONTINUOUS
 10
-77.2629421609
 20
19.0550198443
 11
-77.2629166266
 21
18.7485431009
  0
LINE
  5
48E
100
AcDbEntity
  8
CURVE
100
AcDbLine
 62
250
  6
CONTINUOUS
 10
-77.4414650046
 20
-0.705848848
 11
-77.4414994223
 21
-0.5327039371
  0
LINE
  5
48F
100
AcDbEntity
  8
ASSI
100
AcDbLine
 62
7
  6
CONTINUOUS
 10
-77.2628857733
 20
3.9015495622
 11
-77.2630313498
 21
3.5967882408
  0
LINE
  5
490
100
AcDbEntity
  8
CURVE
100
AcDbLine
 62
250
  6
CONTINUOUS
 10
-77.4004020583
 20
16.709342408
 11
-77.4004538065
 21
16.5500113848
  0
LINE
  5
491
100
AcDbEntity
  8
ASSI
100
AcDbLine
 62
7
  6
CONTINUOUS
 10
-77.262885274
 20
13.8632132227
 11
-77.2631170301
 21
13.5217657676
  0
LINE
  5
492
100
AcDbEntity
  8
ASSI
100
AcDbLine
 62
7
  6
CONTINUOUS
 10
-77.262885274
 20
8.8632132227
 11
-77.2631170301
 21
8.5217657676
  0
LINE
  5
493
100
AcDbEntity
  8
ASSI
100
AcDbLine
 62
250
  6
CONTINUOUS
 10
-76.963212845
 20
18.5066662303
 11
-76.9629021343
 21
18.8046228587
  0
LINE
  5
494
100
AcDbEntity
  8
ASSI
100
AcDbLine
 62
250
  6
CONTINUOUS
 10
-76.9632128519
 20
13.5066597524
 11
-76.9629021414
 21
13.8046188627
  0
LINE
  5
495
100
AcDbEntity
  8
ASSI
100
AcDbLine
 62
250
  6
CONTINUOUS
 10
-76.9632128519
 20
8.5066597524
 11
-76.9629021414
 21
8.8046188627
  0
LINE
  5
496
100
AcDbEntity
  8
ASSI
100
AcDbLine
 62
250
  6
CONTINUOUS
 10
-76.9632128519
 20
3.5066597524
 11
-76.9629021414
 21
3.8046188627
  0
LINE
  5
497
100
AcDbEntity
  8
ASSI
100
AcDbLine
 62
7
  6
CONTINUOUS
 10
-77.2629166266
 20
18.7485431009
 11
-77.2632217155
 21
18.4474918786
  0
LINE
  5
498
100
AcDbEntity
  8
CURVE
100
AcDbLine
 62
250
  6
CONTINUOUS
 10
-77.4468955488
 20
18.4735171919
 11
-77.4467491999
 21
19.6535136828
  0
LINE
  5
499
100
AcDbEntity
  8
ASSI
100
AcDbLine
 62
7
  6
CONTINUOUS
 10
-77.2630313498
 20
3.5967882408
 11
-77.2634900678
 21
3.3013850537
  0
LINE
  5
49A
100
AcDbEntity
  8
ASSI
100
AcDbLine
 62
7
  6
CONTINUOUS
 10
-77.2631170301
 20
13.5217657676
 11
-77.2636528701
 21
13.2298614208
  0
LINE
  5
49B
100
AcDbEntity
  8
ASSI
100
AcDbLine
 62
7
  6
CONTINUOUS
 10
-77.2631170301
 20
8.5217657676
 11
-77.2636528701
 21
8.2298614208
  0
LINE
  5
49C
100
AcDbEntity
  8
CURVE
100
AcDbLine
 62
250
  6
CONTINUOUS
 10
-77.3980426374
 20
16.3910398398
 11
-77.3977432286
 21
16.7619050922
  0
LINE
  5
49D
100
AcDbEntity
  8
ASSI
100
AcDbLine
 62
7
  6
CONTINUOUS
 10
-77.2632217155
 20
18.4474918786
 11
-77.2639295854
 21
18.1247983237
  0
LINE
  5
49E
100
AcDbEntity
  8
ASSI
100
AcDbLine
 62
250
  6
CONTINUOUS
 10
-76.9639320267
 20
18.2162012852
 11
-76.963212845
 21
18.5066662303
  0
LINE
  5
49F
100
AcDbEntity
  8
ASSI
100
AcDbLine
 62
250
  6
CONTINUOUS
 10
-76.9639320316
 20
13.2161997454
 11
-76.9632128519
 21
13.5066597524
  0
LINE
  5
4A0
100
AcDbEntity
  8
ASSI
100
AcDbLine
 62
250
  6
CONTINUOUS
 10
-76.9639320316
 20
8.2161997454
 11
-76.9632128519
 21
8.5066597524
  0
LINE
  5
4A1
100
AcDbEntity
  8
ASSI
100
AcDbLine
 62
250
  6
CONTINUOUS
 10
-76.9639320316
 20
3.2161997454
 11
-76.9632128519
 21
3.5066597524
  0
LINE
  5
4A2
100
AcDbEntity
  8
ASSI
100
AcDbLine
 62
7
  6
CONTINUOUS
 10
-77.2634900678
 20
3.3013850537
 11
-77.2642405907
 21
3.0225420014
  0
LINE
  5
4A3
100
AcDbEntity
  8
CURVE
100
AcDbLine
 62
250
  6
CONTINUOUS
 10
-77.4188716458
 20
-0.8789144783
 11
-77.418739619
 21
-0.4801713842
  0
LINE
  5
4A4
100
AcDbEntity
  8
ASSI
100
AcDbLine
 62
7
  6
CONTINUOUS
 10
-77.2636528701
 20
13.2298614208
 11
-77.2644659083
 21
12.9560829206
  0
LINE
  5
4A5
100
AcDbEntity
  8
CURVE
100
AcDbLine
 62
250
  6
CONTINUOUS
 10
-77.4004538065
 20
16.5500113848
 11
-77.4008539628
 21
16.3930986156
  0
LINE
  5
4A6
100
AcDbEntity
  8
CURVE
100
AcDbLine
 62
250
  6
CONTINUOUS
 10
-77.4414994223
 20
-0.5327039371
 11
-77.4412152904
 21
-0.3805961899
  0
LINE
  5
4A7
100
AcDbEntity
  8
CURVE
100
AcDbLine
 62
250
  6
CONTINUOUS
 10
-77.4490623748
 20
19.8097366077
 11
-77.4495940176
 21
18.294378144
  0
LINE
  5
4A8
100
AcDbEntity
  8
ASSI
100
AcDbLine
 62
7
  6
CONTINUOUS
 10
-77.2639295854
 20
18.1247983237
 11
-77.2648315909
 21
17.8590074855
  0
LINE
  5
4A9
100
AcDbEntity
  8
ASSI
100
AcDbLine
 62
7
  6
CONTINUOUS
 10
-77.2636528701
 20
8.2298614208
 11
-77.2652301762
 21
7.765014348
  0
LINE
  5
4AA
100
AcDbEntity
  8
ASSI
100
AcDbLine
 62
7
  6
CONTINUOUS
 10
-77.2642405907
 20
3.0225420014
 11
-77.2652301762
 21
2.765014348
  0
LINE
  5
4AB
100
AcDbEntity
  8
CURVE
100
AcDbLine
 62
250
  6
CONTINUOUS
 10
-77.4467491999
 20
19.6535136828
 11
-77.4463785241
 21
19.7590381774
  0
LINE
  5
4AC
100
AcDbEntity
  8
CURVE
100
AcDbLine
 62
250
  6
CONTINUOUS
 10
-77.4490825114
 20
-0.0858276175
 11
-77.4502523409
 21
-0.6241925622
  0
LINE
  5
4AD
100
AcDbEntity
  8
ASSI
100
AcDbLine
 62
250
  6
CONTINUOUS
 10
-76.9650460997
 20
17.9388802148
 11
-76.9639320267
 21
18.2162012852
  0
LINE
  5
4AE
100
AcDbEntity
  8
ASSI
100
AcDbLine
 62
250
  6
CONTINUOUS
 10
-76.9650461083
 20
12.9388787749
 11
-76.9639320316
 21
13.2161997454
  0
LINE
  5
4AF
100
AcDbEntity
  8
ASSI
100
AcDbLine
 62
250
  6
CONTINUOUS
 10
-76.9650461083
 20
7.9388787749
 11
-76.9639320316
 21
8.2161997454
  0
LINE
  5
4B0
100
AcDbEntity
  8
ASSI
100
AcDbLine
 62
250
  6
CONTINUOUS
 10
-76.9650461083
 20
2.9388787749
 11
-76.9639320316
 21
3.2161997454
  0
LINE
  5
4B1
100
AcDbEntity
  8
ASSI
100
AcDbLine
 62
7
  6
CONTINUOUS
 10
-77.2644659083
 20
12.9560829206
 11
-77.2655127036
 21
12.70415028
  0
LINE
  5
4B2
100
AcDbEntity
  8
ASSI
100
AcDbLine
 62
7
  6
CONTINUOUS
 10
-77.2648315909
 20
17.8590074855
 11
-77.2659586394
 21
17.6155822189
  0
LINE
  5
4B3
100
AcDbEntity
  8
ASSI
100
AcDbLine
 62
7
  6
CONTINUOUS
 10
-77.2652301762
 20
7.765014348
 11
-77.2664281407
 21
7.5302279462
  0
LINE
  5
4B4
100
AcDbEntity
  8
ASSI
100
AcDbLine
 62
7
  6
CONTINUOUS
 10
-77.2652301762
 20
2.765014348
 11
-77.2664281407
 21
2.5302279462
  0
LINE
  5
4B5
100
AcDbEntity
  8
CURVE
100
AcDbLine
 62
250
  6
CONTINUOUS
 10
-77.4008539628
 20
16.3930986156
 11
-77.4014147463
 21
16.2822872567
  0
LINE
  5
4B6
100
AcDbEntity
  8
ASSI
100
AcDbLine
 62
7
  6
CONTINUOUS
 10
-77.2655127036
 20
12.70415028
 11
-77.2667541083
 21
12.4751735046
  0
LINE
  5
4B7
100
AcDbEntity
  8
ASSI
100
AcDbLine
 62
250
  6
CONTINUOUS
 10
-76.9665263533
 20
17.6799702287
 11
-76.9650460997
 21
17.9388802148
  0
LINE
  5
4B8
100
AcDbEntity
  8
ASSI
100
AcDbLine
 62
250
  6
CONTINUOUS
 10
-76.9665263486
 20
12.6799706999
 11
-76.9650461083
 21
12.9388787749
  0
LINE
  5
4B9
100
AcDbEntity
  8
ASSI
100
AcDbLine
 62
250
  6
CONTINUOUS
 10
-76.9665263486
 20
7.6799706999
 11
-76.9650461083
 21
7.9388787749
  0
LINE
  5
4BA
100
AcDbEntity
  8
ASSI
100
AcDbLine
 62
250
  6
CONTINUOUS
 10
-76.9665263486
 20
2.6799706999
 11
-76.9650461083
 21
2.9388787749
  0
LINE
  5
4BB
100
AcDbEntity
  8
ASSI
100
AcDbLine
 62
7
  6
CONTINUOUS
 10
-77.2659586394
 20
17.6155822189
 11
-77.2672628871
 21
17.3953660026
  0
LINE
  5
4BC
100
AcDbEntity
  8
ASSI
100
AcDbLine
 62
7
  6
CONTINUOUS
 10
-77.2664281407
 20
7.5302279462
 11
-77.2677950903
 21
7.318818284
  0
LINE
  5
4BD
100
AcDbEntity
  8
ASSI
100
AcDbLine
 62
7
  6
CONTINUOUS
 10
-77.2664281407
 20
2.5302279462
 11
-77.2677950903
 21
2.318818284
  0
LINE
  5
4BE
100
AcDbEntity
  8
CURVE
100
AcDbLine
 62
250
  6
CONTINUOUS
 10
-77.3993956892
 20
16.125308981
 11
-77.3980426374
 21
16.3910398398
  0
LINE
  5
4BF
100
AcDbEntity
  8
ASSI
100
AcDbLine
 62
7
  6
CONTINUOUS
 10
-77.2667541083
 20
12.4751735046
 11
-77.2681615354
 21
12.2696416844
  0
LINE
  5
4C0
100
AcDbEntity
  8
CURVE
100
AcDbLine
 62
250
  6
CONTINUOUS
 10
-77.4412152904
 20
-0.3805961899
 11
-77.4407062953
 21
-0.2946581911
  0
LINE
  5
4C1
100
AcDbEntity
  8
CURVE
100
AcDbLine
 62
250
  6
CONTINUOUS
 10
-77.418739619
 20
-0.4801713842
 11
-77.4183229244
 21
-0.4093741359
  0
LINE
  5
4C2
100
AcDbEntity
  8
CURVE
100
AcDbLine
 62
250
  6
CONTINUOUS
 10
-77.4463785241
 20
19.7590381774
 11
-77.445662481
 21
19.8678719271
  0
LINE
  5
4C3
100
AcDbEntity
  8
ASSI
100
AcDbLine
 62
7
  6
CONTINUOUS
 10
-77.2672628871
 20
17.3953660026
 11
-77.2687261567
 21
17.1986538909
  0
LINE
  5
4C4
100
AcDbEntity
  8
ASSI
100
AcDbLine
 62
250
  6
CONTINUOUS
 10
-76.9683517645
 20
17.4443302278
 11
-76.9665263533
 21
17.6799702287
  0
LINE
  5
4C5
100
AcDbEntity
  8
ASSI
100
AcDbLine
 62
250
  6
CONTINUOUS
 10
-76.9683517334
 20
12.4443337389
 11
-76.9665263486
 21
12.6799706999
  0
LINE
  5
4C6
100
AcDbEntity
  8
ASSI
100
AcDbLine
 62
250
  6
CONTINUOUS
 10
-76.9683517334
 20
7.4443337389
 11
-76.9665263486
 21
7.6799706999
  0
LINE
  5
4C7
100
AcDbEntity
  8
ASSI
100
AcDbLine
 62
250
  6
CONTINUOUS
 10
-76.9683517334
 20
2.4443337389
 11
-76.9665263486
 21
2.6799706999
  0
LINE
  5
4C8
100
AcDbEntity
  8
CURVE
100
AcDbLine
 62
250
  6
CONTINUOUS
 10
-77.4478906098
 20
19.997081259
 11
-77.4490623748
 21
19.8097366077
  0
LINE
  5
4C9
100
AcDbEntity
  8
CURVE
100
AcDbLine
 62
250
  6
CONTINUOUS
 10
-77.4480725264
 20
0.0739333337
 11
-77.4490825114
 21
-0.0858276175
  0
LINE
  5
4CA
100
AcDbEntity
  8
CURVE
100
AcDbLine
 62
250
  6
CONTINUOUS
 10
-77.4014147463
 20
16.2822872567
 11
-77.4021529381
 21
16.1874045743
  0
LINE
  5
4CB
100
AcDbEntity
  8
ASSI
100
AcDbLine
 62
7
  6
CONTINUOUS
 10
-77.2677950903
 20
7.318818284
 11
-77.2693063603
 21
7.1309412199
  0
LINE
  5
4CC
100
AcDbEntity
  8
ASSI
100
AcDbLine
 62
7
  6
CONTINUOUS
 10
-77.2677950903
 20
2.318818284
 11
-77.2693063603
 21
2.1309412199
  0
LINE
  5
4CD
100
AcDbEntity
  8
ASSI
100
AcDbLine
 62
7
  6
CONTINUOUS
 10
-77.2681615354
 20
12.2696416844
 11
-77.2697017037
 21
12.0876477096
  0
LINE
  5
4CE
100
AcDbEntity
  8
ASSI
100
AcDbLine
 62
7
  6
CONTINUOUS
 10
-77.2687261567
 20
17.1986538909
 11
-77.2703079145
 21
17.0254647426
  0
LINE
  5
4CF
100
AcDbEntity
  8
ASSI
100
AcDbLine
 62
7
  6
CONTINUOUS
 10
-77.2693063603
 20
7.1309412199
 11
-77.270929946
 21
6.9665212311
  0
LINE
  5
4D0
100
AcDbEntity
  8
ASSI
100
AcDbLine
 62
7
  6
CONTINUOUS
 10
-77.2693063603
 20
2.1309412199
 11
-77.270929946
 21
1.9665212311
  0
LINE
  5
4D1
100
AcDbEntity
  8
CURVE
100
AcDbLine
 62
250
  6
CONTINUOUS
 10
-77.4221006261
 20
0.1375559439
 11
-77.4226890977
 21
0.0743726149
  0
LINE
  5
4D2
100
AcDbEntity
  8
ASSI
100
AcDbLine
 62
7
  6
CONTINUOUS
 10
-77.2697017037
 20
12.0876477096
 11
-77.2713523546
 21
11.9290441224
  0
LINE
  5
4D3
100
AcDbEntity
  8
CURVE
100
AcDbLine
 62
250
  6
CONTINUOUS
 10
-77.445662481
 20
19.8678719271
 11
-77.4448675382
 21
19.9450309158
  0
LINE
  5
4D4
100
AcDbEntity
  8
CURVE
100
AcDbLine
 62
250
  6
CONTINUOUS
 10
-77.4021529381
 20
16.1874045743
 11
-77.4030776433
 21
16.1024951472
  0
LINE
  5
4D5
100
AcDbEntity
  8
CURVE
100
AcDbLine
 62
250
  6
CONTINUOUS
 10
-77.4011318317
 20
15.9541471852
 11
-77.3993956892
 21
16.125308981
  0
LINE
  5
4D6
100
AcDbEntity
  8
ASSI
100
AcDbLine
 62
7
  6
CONTINUOUS
 10
-77.2703079145
 20
17.0254647426
 11
-77.2719956659
 21
16.8755384767
  0
LINE
  5
4D7
100
AcDbEntity
  8
CURVE
100
AcDbLine
 62
250
  6
CONTINUOUS
 10
-77.4467932284
 20
20.097936204
 11
-77.4478906098
 21
19.997081259
  0
LINE
  5
4D8
100
AcDbEntity
  8
CURVE
100
AcDbLine
 62
250
  6
CONTINUOUS
 10
-77.4407062953
 20
-0.2946581911
 11
-77.4399957094
 21
-0.2262130022
  0
LINE
  5
4D9
100
AcDbEntity
  8
CURVE
100
AcDbLine
 62
250
  6
CONTINUOUS
 10
-77.4183229244
 20
-0.4093741359
 11
-77.4177301068
 21
-0.3533870591
  0
LINE
  5
4DA
100
AcDbEntity
  8
ASSI
100
AcDbLine
 62
7
  6
CONTINUOUS
 10
-77.270929946
 20
6.9665212311
 11
-77.2726481432
 21
6.8252478606
  0
LINE
  5
4DB
100
AcDbEntity
  8
ASSI
100
AcDbLine
 62
7
  6
CONTINUOUS
 10
-77.270929946
 20
1.9665212311
 11
-77.2726481432
 21
1.8252478606
  0
LINE
  5
4DC
100
AcDbEntity
  8
CURVE
100
AcDbLine
 62
250
  6
CONTINUOUS
 10
-77.4467700929
 20
0.1875315127
 11
-77.4480725264
 21
0.0739333337
  0
LWPOLYLINE
  5
4DD
100
AcDbEntity
  8
ASSI
100
AcDbPolyline
 62
7
  6
CONTINUOUS
 90
4
 70
0
 10
-77.3360924022
 20
20.9508914752
 10
-77.3353101181
 20
21.00678291
 10
-77.3329726098
 20
21.0625577081
 10
-77.3290798773
 20
21.1182158695
  0
LINE
  5
4DE
100
AcDbEntity
  8
ASSI
100
AcDbLine
 62
7
  6
CONTINUOUS
 10
-77.5035696287
 20
5.5459644581
 11
-77.5035207445
 21
5.5494390137
  0
LINE
  5
4DF
100
AcDbEntity
  8
ASSI
100
AcDbLine
 62
7
  6
CONTINUOUS
 10
-77.2713523546
 20
11.9290441224
 11
-77.2730871612
 21
11.7935565681
  0
LINE
  5
4E0
100
AcDbEntity
  8
ASSI
100
AcDbLine
 62
7
  6
CONTINUOUS
 10
-77.2719956659
 20
16.8755384767
 11
-77.2737515773
 21
16.7488023554
  0
LINE
  5
4E1
100
AcDbEntity
  8
ASSI
100
AcDbLine
 62
7
  6
CONTINUOUS
 10
-77.2726481432
 20
6.8252478606
 11
-77.2741982493
 21
6.7208116806
  0
LINE
  5
4E2
100
AcDbEntity
  8
ASSI
100
AcDbLine
 62
7
  6
CONTINUOUS
 10
-77.2726481432
 20
1.8252478606
 11
-77.2741982493
 21
1.7208116806
  0
LINE
  5
4E3
100
AcDbEntity
  8
CURVE
100
AcDbLine
 62
250
  6
CONTINUOUS
 10
-77.4448675382
 20
19.9450309158
 11
-77.4438661243
 21
20.0141266905
  0
LINE
  5
4E4
100
AcDbEntity
  8
CURVE
100
AcDbLine
 62
250
  6
CONTINUOUS
 10
-77.4030776433
 20
16.1024951472
 11
-77.4042063716
 21
16.0255413006
  0
LINE
  5
4E5
100
AcDbEntity
  8
CURVE
100
AcDbLine
 62
250
  6
CONTINUOUS
 10
-77.4213048506
 20
0.1935729954
 11
-77.4221006261
 21
0.1375559439
  0
LINE
  5
4E6
100
AcDbEntity
  8
CURVE
100
AcDbLine
 62
250
  6
CONTINUOUS
 10
-77.4024917727
 20
15.8642567679
 11
-77.4011318317
 21
15.9541471852
  0
LINE
  5
4E7
100
AcDbEntity
  8
CURVE
100
AcDbLine
 62
250
  6
CONTINUOUS
 10
-77.4457011677
 20
20.1696750174
 11
-77.4467932284
 21
20.097936204
  0
LINE
  5
4E8
100
AcDbEntity
  8
ASSI
100
AcDbLine
 62
7
  6
CONTINUOUS
 10
-77.2730871612
 20
11.7935565681
 11
-77.2746468971
 21
11.6943201299
  0
LINE
  5
4E9
100
AcDbEntity
  8
CURVE
100
AcDbLine
 62
250
  6
CONTINUOUS
 10
-77.4177301068
 20
-0.3533870591
 11
-77.4171452662
 21
-0.3151817808
  0
LINE
  5
4EA
100
AcDbEntity
  8
CURVE
100
AcDbLine
 62
250
  6
CONTINUOUS
 10
-77.3662207651
 20
16.765531126
 11
-77.3709578476
 21
16.494102684
  0
LINE
  5
4EB
100
AcDbEntity
  8
CURVE
100
AcDbLine
 62
250
  6
CONTINUOUS
 10
-77.3804320105
 20
14.3226740155
 11
-77.385169092
 21
14.0512455735
  0
LINE
  5
4EC
100
AcDbEntity
  8
CURVE
100
AcDbLine
 62
250
  6
CONTINUOUS
 10
-77.3709578476
 20
13.3726740155
 11
-77.3662207651
 21
13.6441025707
  0
LINE
  5
4ED
100
AcDbEntity
  8
CURVE
100
AcDbLine
 62
250
  6
CONTINUOUS
 10
-77.385169092
 20
12.4226740721
 11
-77.3804320105
 21
12.6941026273
  0
LINE
  5
4EE
100
AcDbEntity
  8
CURVE
100
AcDbLine
 62
250
  6
CONTINUOUS
 10
-77.3520095197
 20
12.2869597662
 11
-77.3567466017
 21
12.0155311967
  0
LINE
  5
4EF
100
AcDbEntity
  8
CURVE
100
AcDbLine
 62
250
  6
CONTINUOUS
 10
-77.3746976481
 20
-0.8082785693
 11
-77.3714564871
 21
-0.6225637522
  0
LINE
  5
4F0
100
AcDbEntity
  8
CURVE
100
AcDbLine
 62
250
  6
CONTINUOUS
 10
-77.3746976481
 20
-1.8297069636
 11
-77.3714564871
 21
-1.6439927664
  0
LINE
  5
4F1
100
AcDbEntity
  8
CURVE
100
AcDbLine
 62
250
  6
CONTINUOUS
 10
-77.3520095197
 20
-1.0868495551
 11
-77.3552506811
 21
-1.2725637522
  0
LINE
  5
4F2
100
AcDbEntity
  8
CURVE
100
AcDbLine
 62
250
  6
CONTINUOUS
 10
-77.3746976481
 20
-4.9868495551
 11
-77.3714564871
 21
-4.8011353579
  0
LINE
  5
4F3
100
AcDbEntity
  8
CURVE
100
AcDbLine
 62
250
  6
CONTINUOUS
 10
-77.3520095197
 20
-5.2654211608
 11
-77.3552506811
 21
-5.4511353579
  0
LINE
  5
4F4
100
AcDbEntity
  8
CURVE
100
AcDbLine
 62
250
  6
CONTINUOUS
 10
-77.3520095197
 20
-6.3487543908
 11
-77.3552506811
 21
-6.5344688979
  0
LINE
  5
4F5
100
AcDbEntity
  8
CURVE
100
AcDbLine
 62
250
  6
CONTINUOUS
 10
-77.4399957094
 20
-0.2262130022
 11
-77.4393393389
 21
-0.18360522
  0
LINE
  5
4F6
100
AcDbEntity
  8
CURVE
100
AcDbLine
 62
250
  6
CONTINUOUS
 10
-77.4454967814
 20
0.2668615237
 11
-77.4467700929
 21
0.1875315127
  0
LINE
  5
4F7
100
AcDbEntity
  8
ASSI
100
AcDbLine
 62
7
  6
CONTINUOUS
 10
-77.2737515773
 20
16.7488023554
 11
-77.2753216603
 21
16.6573880917
  0
LINE
  5
4F8
100
AcDbEntity
  8
ASSI
100
AcDbLine
 62
7
  6
CONTINUOUS
 10
-77.2741982493
 20
6.7208116806
 11
-77.2757713847
 21
6.6346143388
  0
LINE
  5
4F9
100
AcDbEntity
  8
ASSI
100
AcDbLine
 62
7
  6
CONTINUOUS
 10
-77.2741982493
 20
1.7208116806
 11
-77.2757713847
 21
1.6346143388
  0
LINE
  5
4FA
100
AcDbEntity
  8
CURVE
100
AcDbLine
 62
250
  6
CONTINUOUS
 10
-77.4438661243
 20
20.0141266905
 11
-77.4429985925
 21
20.0593018589
  0
LINE
  5
4FB
100
AcDbEntity
  8
CURVE
100
AcDbLine
 62
250
  6
CONTINUOUS
 10
-77.3804320105
 20
16.7202932033
 11
-77.385169092
 21
16.494102684
  0
LINE
  5
4FC
100
AcDbEntity
  8
CURVE
100
AcDbLine
 62
250
  6
CONTINUOUS
 10
-77.4447676659
 20
20.217289519
 11
-77.4457011677
 21
20.1696750174
  0
LINE
  5
4FD
100
AcDbEntity
  8
CURVE
100
AcDbLine
 62
250
  6
CONTINUOUS
 10
-77.4042063716
 20
16.0255413006
 11
-77.4055084362
 21
15.9578041807
  0
LINE
  5
4FE
100
AcDbEntity
  8
CURVE
100
AcDbLine
 62
250
  6
CONTINUOUS
 10
-77.4204203408
 20
0.2391544395
 11
-77.4213048506
 21
0.1935729954
  0
LINE
  5
4FF
100
AcDbEntity
  8
CURVE
100
AcDbLine
 62
250
  6
CONTINUOUS
 10
-77.4443716294
 20
0.321932497
 11
-77.4454967814
 21
0.2668615237
  0
LINE
  5
500
100
AcDbEntity
  8
ASSI
100
AcDbLine
 62
7
  6
CONTINUOUS
 10
-77.2753216603
 20
16.6573880917
 11
-77.2762334409
 21
16.6126796136
  0
LINE
  5
501
100
AcDbEntity
  8
ASSI
100
AcDbLine
 62
7
  6
CONTINUOUS
 10
-77.2746468971
 20
11.6943201299
 11
-77.2762334391
 21
11.6126796157
  0
LINE
  5
502
100
AcDbEntity
  8
ASSI
100
AcDbLine
 62
7
  6
CONTINUOUS
 10
-77.2757713847
 20
6.6346143388
 11
-77.2762334391
 21
6.6126796157
  0
LINE
  5
503
100
AcDbEntity
  8
ASSI
100
AcDbLine
 62
7
  6
CONTINUOUS
 10
-77.2757713847
 20
1.6346143388
 11
-77.2762334391
 21
1.6126796157
  0
LINE
  5
504
100
AcDbEntity
  8
CURVE
100
AcDbLine
 62
250
  6
CONTINUOUS
 10
-77.4040584923
 20
15.7866163663
 11
-77.4024917727
 21
15.8642567679
  0
LINE
  5
505
100
AcDbEntity
  8
CURVE
100
AcDbLine
 62
250
  6
CONTINUOUS
 10
-77.4171452662
 20
-0.3151817808
 11
-77.4164597825
 21
-0.2812542786
  0
LINE
  5
506
100
AcDbEntity
  8
CURVE
100
AcDbLine
 62
250
  6
CONTINUOUS
 10
-77.4393393389
 20
-0.18360522
 11
-77.4387288153
 21
-0.1543700244
  0
LINE
  5
507
100
AcDbEntity
  8
CURVE
100
AcDbLine
 62
250
  6
CONTINUOUS
 10
-77.4055084362
 20
15.9578041807
 11
-77.4066790556
 21
15.909454934
  0
LINE
  5
508
100
AcDbEntity
  8
CURVE
100
AcDbLine
 62
250
  6
CONTINUOUS
 10
-77.3617330034
 20
-2.0154211608
 11
-77.3520095197
 21
-1.6439927664
  0
LINE
  5
509
100
AcDbEntity
  8
CURVE
100
AcDbLine
 62
250
  6
CONTINUOUS
 10
-77.4437500897
 20
20.2588113314
 11
-77.4447676659
 21
20.217289519
  0
LINE
  5
50A
100
AcDbEntity
  8
CURVE
100
AcDbLine
 62
250
  6
CONTINUOUS
 10
-77.4195844235
 20
0.2729662762
 11
-77.4204203408
 21
0.2391544395
  0
LINE
  5
50B
100
AcDbEntity
  8
CURVE
100
AcDbLine
 62
250
  6
CONTINUOUS
 10
-77.4429985925
 20
20.0593018589
 11
-77.4420429875
 21
20.0981297671
  0
LINE
  5
50C
100
AcDbEntity
  8
CURVE
100
AcDbLine
 62
250
  6
CONTINUOUS
 10
-77.4495468243
 20
4.514452905
 11
-77.408509937
 21
6.041659905
  0
LINE
  5
50D
100
AcDbEntity
  8
CURVE
100
AcDbLine
 62
250
  6
CONTINUOUS
 10
-77.3989422574
 20
5.992915905
 11
-77.4395531266
 21
4.477915905
  0
LINE
  5
50E
100
AcDbEntity
  8
CURVE
100
AcDbLine
 62
250
  6
CONTINUOUS
 10
-77.4051987602
 20
15.7422801654
 11
-77.4040584923
 21
15.7866163663
  0
LINE
  5
50F
100
AcDbEntity
  8
CURVE
100
AcDbLine
 62
250
  6
CONTINUOUS
 10
-77.4164597825
 20
-0.2812542786
 11
-77.4158333606
 21
-0.256644231
  0
LINE
  5
510
100
AcDbEntity
  8
CURVE
100
AcDbLine
 62
250
  6
CONTINUOUS
 10
-77.4431480537
 20
0.3695263284
 11
-77.4443716294
 21
0.321932497
  0
LINE
  5
511
100
AcDbEntity
  8
CURVE
100
AcDbLine
 62
250
  6
CONTINUOUS
 10
-77.4387288153
 20
-0.1543700244
 11
-77.4382285628
 21
-0.1354991539
  0
LINE
  5
512
100
AcDbEntity
  8
CURVE
100
AcDbLine
 62
250
  6
CONTINUOUS
 10
-77.4066790556
 20
15.909454934
 11
-77.4075377713
 21
15.8797611665
  0
LINE
  5
513
100
AcDbEntity
  8
CURVE
100
AcDbLine
 62
250
  6
CONTINUOUS
 10
-77.4430338
 20
20.2827662368
 11
-77.4437500897
 21
20.2588113314
  0
LINE
  5
514
100
AcDbEntity
  8
CURVE
100
AcDbLine
 62
250
  6
CONTINUOUS
 10
-77.4186999554
 20
0.3024552708
 11
-77.4195844235
 21
0.2729662762
  0
LINE
  5
515
100
AcDbEntity
  8
CURVE
100
AcDbLine
 62
250
  6
CONTINUOUS
 10
-77.4420429875
 20
20.0981297671
 11
-77.4413644698
 21
20.1201728628
  0
LINE
  5
516
100
AcDbEntity
  8
CURVE
100
AcDbLine
 62
250
  6
CONTINUOUS
 10
-77.4158333606
 20
-0.256644231
 11
-77.4153164119
 21
-0.2397964452
  0
LINE
  5
517
100
AcDbEntity
  8
CURVE
100
AcDbLine
 62
250
  6
CONTINUOUS
 10
-77.4064043006
 20
15.7035365321
 11
-77.4051987602
 21
15.7422801654
  0
LINE
  5
518
100
AcDbEntity
  8
CURVE
100
AcDbLine
 62
250
  6
CONTINUOUS
 10
-77.4382285628
 20
-0.1354991539
 11
-77.4378783462
 21
-0.1244272826
  0
LINE
  5
519
100
AcDbEntity
  8
CURVE
100
AcDbLine
 62
250
  6
CONTINUOUS
 10
-77.4422829214
 20
0.3968111712
 11
-77.4431480537
 21
0.3695263284
  0
LINE
  5
51A
100
AcDbEntity
  8
CURVE
100
AcDbLine
 62
250
  6
CONTINUOUS
 10
-77.3804320105
 20
12.6941026273
 11
-77.375694929
 21
12.829816905
  0
LINE
  5
51B
100
AcDbEntity
  8
CURVE
100
AcDbLine
 62
250
  6
CONTINUOUS
 10
-77.3567466017
 20
12.0155311967
 11
-77.3614836836
 21
11.879816905
  0
LINE
  5
51C
100
AcDbEntity
  8
CURVE
100
AcDbLine
 62
250
  6
CONTINUOUS
 10
-77.3746976481
 20
-4.4297069636
 11
-77.3520095197
 21
-3.7797069636
  0
LINE
  5
51D
100
AcDbEntity
  8
CURVE
100
AcDbLine
 62
250
  6
CONTINUOUS
 10
-77.3746976481
 20
-8.5773259965
 11
-77.3520095197
 21
-7.9273259965
  0
LINE
  5
51E
100
AcDbEntity
  8
CURVE
100
AcDbLine
 62
250
  6
CONTINUOUS
 10
-77.4075377713
 20
15.8797611665
 11
-77.4084279468
 21
15.8533290107
  0
LINE
  5
51F
100
AcDbEntity
  8
ASSI
100
AcDbLine
 62
7
  6
CONTINUOUS
 10
-77.5034782457
 20
5.5464029344
 11
-77.4845228133
 21
6.0794243286
  0
LINE
  5
520
100
AcDbEntity
  8
CURVE
100
AcDbLine
 62
250
  6
CONTINUOUS
 10
-77.4153164119
 20
-0.2397964452
 11
-77.4149608372
 21
-0.2297954718
  0
LINE
  5
521
100
AcDbEntity
  8
CURVE
100
AcDbLine
 62
250
  6
CONTINUOUS
 10
-77.4422899045
 20
20.3038045445
 11
-77.4430338
 21
20.2827662368
  0
LINE
  5
522
100
AcDbEntity
  8
CURVE
100
AcDbLine
 62
250
  6
CONTINUOUS
 10
-77.4177730413
 20
0.3286583142
 11
-77.4186999554
 21
0.3024552708
  0
LINE
  5
523
100
AcDbEntity
  8
CURVE
100
AcDbLine
 62
250
  6
CONTINUOUS
 10
-77.4378783462
 20
-0.1244272826
 11
-77.4375169083
 21
-0.1145957895
  0
LWPOLYLINE
  5
524
100
AcDbEntity
  8
CURVE
100
AcDbPolyline
 62
250
  6
CONTINUOUS
 90
24
 70
0
 10
-77.4413644698
 20
20.1201728628
 10
-77.4406585286
 20
20.139233627
 10
-77.4402971157
 20
20.1476928988
 10
-77.4399310569
 20
20.1554633045
 10
-77.4394875749
 20
20.1638851452
 10
-77.4390391519
 20
20.1713645418
 10
-77.4385864512
 20
20.1779195476
 10
-77.4381301367
 20
20.1835682154
 10
-77.4376708717
 20
20.1883285983
 10
-77.4372105343
 20
20.1922035222
 10
-77.436748228
 20
20.1951967273
 10
-77.436284258
 20
20.1972919421
 10
-77.4358189297
 20
20.1984728948
 10
-77.4353525485
 20
20.1987233139
 10
-77.4348870844
 20
20.1980321395
 10
-77.4344217138
 20
20.1963919549
 10
-77.4339572731
 20
20.1937941816
 10
-77.4334945985
 20
20.1902302413
 10
-77.4330345261
 20
20.1856915554
 10
-77.4325778923
 20
20.1801695455
 10
-77.4321255333
 20
20.173655633
 10
-77.4316782852
 20
20.1661412396
 10
-77.4312369844
 20
20.1576177867
 10
-77.4308024671
 20
20.1480766959
  0
LWPOLYLINE
  5
525
100
AcDbEntity
  8
ASSI
100
AcDbPolyline
 62
250
  6
CONTINUOUS
 90
9
 70
0
 10
-76.9797837677
 20
16.7776539967
 10
-76.9783308964
 20
16.8144734638
 10
-76.9769024741
 20
16.8613840765
 10
-76.975518701
 20
16.9181150683
 10
-76.9741804704
 20
16.984335504
 10
-76.972886889
 20
17.0596862712
 10
-76.9716554757
 20
17.1438076669
 10
-76.9704871211
 20
17.2362625102
 10
-76.9683517645
 20
17.4443302278
  0
LWPOLYLINE
  5
526
100
AcDbEntity
  8
ASSI
100
AcDbPolyline
 62
250
  6
CONTINUOUS
 90
9
 70
0
 10
-76.9797837657
 20
11.7776540448
 10
-76.978330888
 20
11.8144737238
 10
-76.9769024573
 20
11.8613847276
 10
-76.9755186773
 20
11.9181161697
 10
-76.9741804433
 20
11.9843369944
 10
-76.9728868601
 20
12.0596881187
 10
-76.9716554458
 20
12.1438098906
 10
-76.9704870889
 20
12.2362653155
 10
-76.9683517334
 20
12.4443337389
  0
LWPOLYLINE
  5
527
100
AcDbEntity
  8
ASSI
100
AcDbPolyline
 62
250
  6
CONTINUOUS
 90
9
 70
0
 10
-76.9797837657
 20
6.7776540448
 10
-76.978330888
 20
6.8144737238
 10
-76.9769024573
 20
6.8613847276
 10
-76.9755186773
 20
6.9181161697
 10
-76.9741804433
 20
6.9843369944
 10
-76.9728868601
 20
7.0596881187
 10
-76.9716554458
 20
7.1438098906
 10
-76.9704870889
 20
7.2362653155
 10
-76.9683517334
 20
7.4443337389
  0
LWPOLYLINE
  5
528
100
AcDbEntity
  8
ASSI
100
AcDbPolyline
 62
250
  6
CONTINUOUS
 90
9
 70
0
 10
-76.9797837657
 20
1.7776540448
 10
-76.978330888
 20
1.8144737238
 10
-76.9769024573
 20
1.8613847276
 10
-76.9755186773
 20
1.9181161697
 10
-76.9741804433
 20
1.9843369944
 10
-76.9728868601
 20
2.0596881187
 10
-76.9716554458
 20
2.1438098906
 10
-76.9704870889
 20
2.2362653155
 10
-76.9683517334
 20
2.4443337389
  0
LINE
  5
529
100
AcDbEntity
  8
CURVE
100
AcDbLine
 62
250
  6
CONTINUOUS
 10
-77.4084279468
 20
15.8533290107
 11
-77.4093444434
 21
15.830203299
  0
LINE
  5
52A
100
AcDbEntity
  8
CURVE
100
AcDbLine
 62
250
  6
CONTINUOUS
 10
-77.4170591388
 20
0.3462949777
 11
-77.4177730413
 21
0.3286583142
  0
LINE
  5
52B
100
AcDbEntity
  8
CURVE
100
AcDbLine
 62
250
  6
CONTINUOUS
 10
-77.4149608372
 20
-0.2297954718
 11
-77.4145975698
 21
-0.2208047755
  0
LWPOLYLINE
  5
52C
100
AcDbEntity
  8
CURVE
100
AcDbPolyline
 62
250
  6
CONTINUOUS
 90
13
 70
0
 10
-77.4375169083
 20
-0.1145957895
 10
-77.4371460925
 20
-0.1060333127
 10
-77.436957744
 20
-0.1022369048
 10
-77.4367677423
 20
-0.0987684903
 10
-77.4365763178
 20
-0.0956316489
 10
-77.436383701
 20
-0.0928299604
 10
-77.4361901222
 20
-0.0903670045
 10
-77.435995812
 20
-0.088246361
 10
-77.4358010007
 20
-0.0864716097
 10
-77.4356059187
 20
-0.0850463303
 10
-77.4354107965
 20
-0.0839741025
 10
-77.4352158646
 20
-0.0832585062
 10
-77.4350213533
 20
-0.0829031211
  0
LINE
  5
52D
100
AcDbEntity
  8
CURVE
100
AcDbLine
 62
250
  6
CONTINUOUS
 10
-77.4163337234
 20
0.3622959176
 11
-77.4170591388
 21
0.3462949777
  0
LINE
  5
52E
100
AcDbEntity
  8
CURVE
100
AcDbLine
 62
250
  6
CONTINUOUS
 10
-77.3990703037
 20
-5.660288095
 11
-77.4321099888
 21
-6.370345095
  0
LINE
  5
52F
100
AcDbEntity
  8
CURVE
100
AcDbLine
 62
250
  6
CONTINUOUS
 10
-77.4496685189
 20
-6.213417095
 11
-77.4215762388
 21
-5.614538095
  0
LINE
  5
530
100
AcDbEntity
  8
CURVE
100
AcDbLine
 62
250
  6
CONTINUOUS
 10
-77.4145975698
 20
-0.2208047755
 11
-77.4137296406
 21
-0.202332758
  0
LWPOLYLINE
  5
531
100
AcDbEntity
  8
CURVE
100
AcDbPolyline
 62
250
  6
CONTINUOUS
 90
17
 70
0
 10
-77.4093444434
 20
15.830203299
 10
-77.4102827757
 20
15.8102826486
 10
-77.4107589901
 20
15.8014493993
 10
-77.4112391863
 20
15.7933295368
 10
-77.4117228266
 20
15.7858945635
 10
-77.4122093734
 20
15.7791159815
 10
-77.4128348407
 20
15.7713626739
 10
-77.413463729
 20
15.764585394
 10
-77.4140955881
 20
15.7587340753
 10
-77.414729968
 20
15.7537586513
 10
-77.4153664187
 20
15.7496090553
 10
-77.4160044901
 20
15.7462352208
 10
-77.4166437321
 20
15.7435870812
 10
-77.4172836948
 20
15.74161457
 10
-77.417923928
 20
15.7402676206
 10
-77.4185639817
 20
15.7394961665
 10
-77.4192034059
 20
15.739250141
  0
LINE
  5
532
100
AcDbEntity
  8
CURVE
100
AcDbLine
 62
250
  6
CONTINUOUS
 10
-77.3989421004
 20
10.590563905
 11
-77.4495466847
 21
9.567037905
  0
LINE
  5
533
100
AcDbEntity
  8
CURVE
100
AcDbLine
 62
250
  6
CONTINUOUS
 10
-77.4155990026
 20
0.3767996757
 11
-77.4163337234
 21
0.3622959176
  0
LINE
  5
534
100
AcDbEntity
  8
CURVE
100
AcDbLine
 62
250
  6
CONTINUOUS
 10
-77.4495466847
 20
9.985328905
 11
-77.4056750683
 21
10.813962905
  0
LINE
  5
535
100
AcDbEntity
  8
CURVE
100
AcDbLine
 62
250
  6
CONTINUOUS
 10
-77.4137296406
 20
-0.202332758
 11
-77.4116588496
 21
-0.1625081737
  0
LINE
  5
536
100
AcDbEntity
  8
CURVE
100
AcDbLine
 62
250
  6
CONTINUOUS
 10
-77.3990703037
 20
-9.701196095
 11
-77.4496685189
 21
-10.620443095
  0
LINE
  5
537
100
AcDbEntity
  8
CURVE
100
AcDbLine
 62
250
  6
CONTINUOUS
 10
-77.4496685189
 20
-2.549173095
 11
-77.3990703037
 21
-1.659487095
  0
LINE
  5
538
100
AcDbEntity
  8
CURVE
100
AcDbLine
 62
250
  6
CONTINUOUS
 10
-77.4147943547
 20
0.3910567342
 11
-77.4155990026
 21
0.3767996757
  0
LINE
  5
539
100
AcDbEntity
  8
CURVE
100
AcDbLine
 62
250
  6
CONTINUOUS
 10
-77.4116588496
 20
-0.1625081737
 11
-77.4088671226
 21
-0.1145469345
  0
LINE
  5
53A
100
AcDbEntity
  8
CURVE
100
AcDbLine
 62
250
  6
CONTINUOUS
 10
-77.4088671226
 20
-0.1145469345
 11
-77.3990702976
 21
0.0479751666
  0
LINE
  5
53B
100
AcDbEntity
  8
CURVE
100
AcDbLine
 62
250
  6
CONTINUOUS
 10
-77.3990703037
 20
-2.297418095
 11
-77.4091715093
 21
-2.454216095
  0
LWPOLYLINE
  5
53C
100
AcDbEntity
  8
CURVE
100
AcDbPolyline
 62
250
  6
CONTINUOUS
 90
3
 70
0
 10
-77.3990702976
 20
0.6301758902
 10
-77.4059180599
 20
0.5267942811
 10
-77.4147943547
 20
0.3910567342
  0
LINE
  5
53D
100
AcDbEntity
  8
CURVE
100
AcDbLine
 62
250
  6
CONTINUOUS
 10
-77.4169877751
 20
-2.575179095
 11
-77.4357654144
 21
-2.853309095
  0
LWPOLYLINE
  5
53E
100
AcDbEntity
  8
ASSI
100
AcDbPolyline
 62
250
  6
CONTINUOUS
 90
4
 70
0
 10
-76.9842688761
 20
6.729816905
 10
-76.9827493924
 20
6.7351673511
 10
-76.9812543556
 20
6.7511569603
 10
-76.9797837657
 20
6.7776540448
  0
LINE
  5
53F
100
AcDbEntity
  8
CURVE
100
AcDbLine
 62
7
  6
CONTINUOUS
 10
-77.4171439275
 20
10.5973425152
 11
-77.3989421004
 21
10.6155443423
  0
LINE
  5
540
100
AcDbEntity
  8
CURVE
100
AcDbLine
 62
7
  6
CONTINUOUS
 10
-77.4288844361
 20
10.3755912926
 11
-77.4085660845
 21
10.3959096441
  0
LINE
  5
541
100
AcDbEntity
  8
CURVE
100
AcDbLine
 62
7
  6
CONTINUOUS
 10
-77.4406249446
 20
10.15384007
 11
-77.4194893767
 21
10.174975638
  0
LINE
  5
542
100
AcDbEntity
  8
CURVE
100
AcDbLine
 62
7
  6
CONTINUOUS
 10
-77.4495466847
 20
9.9349076159
 11
-77.4304126688
 21
9.9540416318
  0
LINE
  5
543
100
AcDbEntity
  8
CURVE
100
AcDbLine
 62
7
  6
CONTINUOUS
 10
-77.4495466847
 20
9.7248969019
 11
-77.441335961
 21
9.7331076256
  0
LINE
  5
544
100
AcDbEntity
  8
CURVE
100
AcDbLine
 62
7
  6
CONTINUOUS
 10
-77.4495468243
 20
9.0948646203
 11
-77.4438769125
 21
9.1005345321
  0
LINE
  5
545
100
AcDbEntity
  8
CURVE
100
AcDbLine
 62
7
  6
CONTINUOUS
 10
-77.4046121344
 20
9.1397993102
 11
-77.3989422574
 21
9.1454691871
  0
LINE
  5
546
100
AcDbEntity
  8
CURVE
100
AcDbLine
 62
7
  6
CONTINUOUS
 10
-77.4495468243
 20
8.8848539062
 11
-77.4438769125
 21
8.8905238181
  0
LINE
  5
547
100
AcDbEntity
  8
CURVE
100
AcDbLine
 62
7
  6
CONTINUOUS
 10
-77.4277882794
 20
8.9066124512
 11
-77.4221178964
 21
8.9122828341
  0
LINE
  5
548
100
AcDbEntity
  8
CURVE
100
AcDbLine
 62
7
  6
CONTINUOUS
 10
-77.4046121344
 20
8.9297885962
 11
-77.3989422574
 21
8.9354584731
  0
LINE
  5
549
100
AcDbEntity
  8
CURVE
100
AcDbLine
 62
7
  6
CONTINUOUS
 10
-77.4495468243
 20
8.6748431922
 11
-77.4438769125
 21
8.6805131041
  0
LINE
  5
54A
100
AcDbEntity
  8
CURVE
100
AcDbLine
 62
7
  6
CONTINUOUS
 10
-77.4277882794
 20
8.6966017371
 11
-77.4221178964
 21
8.7022721201
  0
LINE
  5
54B
100
AcDbEntity
  8
CURVE
100
AcDbLine
 62
7
  6
CONTINUOUS
 10
-77.4046121344
 20
8.7197778822
 11
-77.3989422574
 21
8.7254477591
  0
LINE
  5
54C
100
AcDbEntity
  8
CURVE
100
AcDbLine
 62
7
  6
CONTINUOUS
 10
-77.4495468243
 20
8.4648324782
 11
-77.4438769125
 21
8.4705023901
  0
LINE
  5
54D
100
AcDbEntity
  8
CURVE
100
AcDbLine
 62
7
  6
CONTINUOUS
 10
-77.4277882794
 20
8.4865910231
 11
-77.4221178964
 21
8.4922614061
  0
LINE
  5
54E
100
AcDbEntity
  8
CURVE
100
AcDbLine
 62
7
  6
CONTINUOUS
 10
-77.4046121344
 20
8.5097671682
 11
-77.3989422574
 21
8.5154370451
  0
LINE
  5
54F
100
AcDbEntity
  8
CURVE
100
AcDbLine
 62
7
  6
CONTINUOUS
 10
-77.4495468243
 20
8.2548217642
 11
-77.4438769125
 21
8.260491676
  0
LINE
  5
550
100
AcDbEntity
  8
CURVE
100
AcDbLine
 62
7
  6
CONTINUOUS
 10
-77.4277882794
 20
8.2765803091
 11
-77.4221178964
 21
8.2822506921
  0
LINE
  5
551
100
AcDbEntity
  8
CURVE
100
AcDbLine
 62
7
  6
CONTINUOUS
 10
-77.4046121344
 20
8.2997564541
 11
-77.3989422574
 21
8.3054263311
  0
LINE
  5
552
100
AcDbEntity
  8
IMPORT_IGES
100
AcDbLine
 62
7
  6
CONTINUOUS
 10
-62.3197329216
 20
20.629816905
 11
-62.5297329216
 21
20.479816905
  0
LINE
  5
553
100
AcDbEntity
  8
CURVE
100
AcDbLine
 62
250
  6
CONTINUOUS
 10
-73.5257329216
 20
13.079816905
 11
-74.2685900589
 21
12.7083883169
  0
LINE
  5
554
100
AcDbEntity
  8
ASSI
100
AcDbLine
 62
250
  6
CONTINUOUS
 10
-55.3126426199
 20
20.9518427961
 11
-55.1757329216
 21
20.999476071
  0
LINE
  5
555
100
AcDbEntity
  8
CURVE
100
AcDbLine
 62
250
  6
CONTINUOUS
 10
-74.0828757455
 20
-6.6630402711
 11
-73.5257329216
 21
-6.6630402711
  0
LINE
  5
556
100
AcDbEntity
  8
CURVE
100
AcDbLine
 62
250
  6
CONTINUOUS
 10
-77.3552506811
 20
-6.5344688979
 11
-77.3714564871
 21
-6.5344688979
  0
LINE
  5
557
100
AcDbEntity
  8
CURVE
100
AcDbLine
 62
250
  6
CONTINUOUS
 10
-73.5257329216
 20
-6.2916116831
 11
-74.8257329216
 21
-6.2916116831
  0
LINE
  5
558
100
AcDbEntity
  8
CURVE
100
AcDbLine
 62
250
  6
CONTINUOUS
 10
-77.3552506811
 20
-5.4511353579
 11
-77.3714564871
 21
-5.4511353579
  0
LINE
  5
559
100
AcDbEntity
  8
ASSI
100
AcDbLine
 62
250
  6
CONTINUOUS
 10
-55.3126426199
 20
-11.1922089862
 11
-55.1757329216
 21
-11.2398422611
  0
LWPOLYLINE
  5
55A
100
AcDbEntity
  8
INTF_1
100
AcDbPolyline
 62
7
  6
CONTINUOUS
 90
4
 70
0
 10
-74.4835024005
 20
-2.9902967998
 10
-74.4411049019
 20
-3.0263717282
 10
-74.4197912531
 20
-3.0450394099
 10
-74.4000907097
 20
-3.0627300602
  0
LWPOLYLINE
  5
55B
100
AcDbEntity
  8
CURVE
100
AcDbPolyline
 62
250
  6
CONTINUOUS
 90
4
 70
0
 10
-74.4835024005
 20
-2.9902967998
 10
-74.4411049019
 20
-3.0263717282
 10
-74.4197912531
 20
-3.0450394099
 10
-74.4000907097
 20
-3.0627300602
  0
LWPOLYLINE
  5
55C
100
AcDbEntity
  8
INTF_1
100
AcDbPolyline
 62
7
  6
CONTINUOUS
 90
4
 70
0
 10
-74.167837626
 20
-3.2500768703
 10
-74.2102270594
 20
-3.2140069624
 10
-74.2315386703
 20
-3.1953361346
 10
-74.2512377648
 20
-3.1776391974
  0
LWPOLYLINE
  5
55D
100
AcDbEntity
  8
CURVE
100
AcDbPolyline
 62
250
  6
CONTINUOUS
 90
4
 70
0
 10
-74.167837626
 20
-3.2500768703
 10
-74.2102270594
 20
-3.2140069624
 10
-74.2315386703
 20
-3.1953361346
 10
-74.2512377648
 20
-3.1776391974
  0
LWPOLYLINE
  5
55E
100
AcDbEntity
  8
INTF_1
100
AcDbPolyline
 62
7
  6
CONTINUOUS
 90
18
 70
0
 10
-74.4000907097
 20
-3.0627300602
 10
-74.3902035277
 20
-3.0712550614
 10
-74.3802858674
 20
-3.0792186482
 10
-74.3703333254
 20
-3.0863599219
 10
-74.3649825917
 20
-3.0898121929
 10
-74.3596187258
 20
-3.0932358005
 10
-74.3542398824
 20
-3.0969132941
 10
-74.3501948106
 20
-3.1000079977
 10
-74.3461394974
 20
-3.1035236465
 10
-74.3420731643
 20
-3.1075794407
 10
-74.3379950327
 20
-3.1122945807
 10
-74.3360153587
 20
-3.1148020523
 10
-74.3340204536
 20
-3.1172291077
 10
-74.3319980309
 20
-3.1193130701
 10
-74.3304557643
 20
-3.1204928705
 10
-74.3288859242
 20
-3.1212211087
 10
-74.3272833274
 20
-3.1213869677
 10
-74.3256427903
 20
-3.1208796309
  0
LWPOLYLINE
  5
55F
100
AcDbEntity
  8
CURVE
100
AcDbPolyline
 62
250
  6
CONTINUOUS
 90
18
 70
0
 10
-74.4000907097
 20
-3.0627300602
 10
-74.3902035277
 20
-3.0712550614
 10
-74.3802858674
 20
-3.0792186482
 10
-74.3703333254
 20
-3.0863599219
 10
-74.3649825917
 20
-3.0898121929
 10
-74.3596187258
 20
-3.0932358005
 10
-74.3542398824
 20
-3.0969132941
 10
-74.3501948106
 20
-3.1000079977
 10
-74.3461394974
 20
-3.1035236465
 10
-74.3420731643
 20
-3.1075794407
 10
-74.3379950327
 20
-3.1122945807
 10
-74.3360153587
 20
-3.1148020523
 10
-74.3340204536
 20
-3.1172291077
 10
-74.3319980309
 20
-3.1193130701
 10
-74.3304557643
 20
-3.1204928705
 10
-74.3288859242
 20
-3.1212211087
 10
-74.3272833274
 20
-3.1213869677
 10
-74.3256427903
 20
-3.1208796309
  0
LWPOLYLINE
  5
560
100
AcDbEntity
  8
INTF_1
100
AcDbPolyline
 62
7
  6
CONTINUOUS
 90
18
 70
0
 10
-74.2512377648
 20
-3.1776391974
 10
-74.2611233379
 20
-3.1691128764
 10
-74.2710378026
 20
-3.1611515394
 10
-74.2809848145
 20
-3.154017851
 10
-74.2863308052
 20
-3.1505725165
 10
-74.2916898453
 20
-3.1471558491
 10
-74.2970645854
 20
-3.1434833469
 10
-74.3011075383
 20
-3.1403899328
 10
-74.3051619318
 20
-3.1368725548
 10
-74.3092288843
 20
-3.1328111886
 10
-74.313309514
 20
-3.1280858099
 10
-74.3152897162
 20
-3.1255734779
 10
-74.3172849092
 20
-3.1231418878
 10
-74.3193066248
 20
-3.1210550824
 10
-74.320847254
 20
-3.1198750815
 10
-74.3224141536
 20
-3.1191489391
 10
-74.3240121888
 20
-3.1189880482
 10
-74.3256462243
 20
-3.1195038019
  0
LWPOLYLINE
  5
561
100
AcDbEntity
  8
CURVE
100
AcDbPolyline
 62
250
  6
CONTINUOUS
 90
18
 70
0
 10
-74.2512377648
 20
-3.1776391974
 10
-74.2611233379
 20
-3.1691128764
 10
-74.2710378026
 20
-3.1611515394
 10
-74.2809848145
 20
-3.154017851
 10
-74.2863308052
 20
-3.1505725165
 10
-74.2916898453
 20
-3.1471558491
 10
-74.2970645854
 20
-3.1434833469
 10
-74.3011075383
 20
-3.1403899328
 10
-74.3051619318
 20
-3.1368725548
 10
-74.3092288843
 20
-3.1328111886
 10
-74.313309514
 20
-3.1280858099
 10
-74.3152897162
 20
-3.1255734779
 10
-74.3172849092
 20
-3.1231418878
 10
-74.3193066248
 20
-3.1210550824
 10
-74.320847254
 20
-3.1198750815
 10
-74.3224141536
 20
-3.1191489391
 10
-74.3240121888
 20
-3.1189880482
 10
-74.3256462243
 20
-3.1195038019
  0
LWPOLYLINE
  5
562
100
AcDbEntity
  8
INTF_1
100
AcDbPolyline
 62
7
  6
CONTINUOUS
 90
15
 70
0
 10
-74.326420616
 20
-3.1201936535
 10
-74.3254035885
 20
-3.1211131519
 10
-74.3239274704
 20
-3.1213519471
 10
-74.3221753597
 20
-3.121174326
 10
-74.3203303544
 20
-3.1208445757
 10
-74.3155504916
 20
-3.1203502578
 10
-74.3112584072
 20
-3.1204579598
 10
-74.3072432526
 20
-3.1209010387
 10
-74.3032941794
 20
-3.1214128512
 10
-74.2945110118
 20
-3.1219977581
 10
-74.2853378173
 20
-3.1220415128
 10
-74.276042597
 20
-3.1219025449
 10
-74.2575473246
 20
-3.1219659158
 10
-74.2393061138
 20
-3.1223177215
 10
-74.1899266525
 20
-3.1228517904
  0
LWPOLYLINE
  5
563
100
AcDbEntity
  8
CURVE
100
AcDbPolyline
 62
250
  6
CONTINUOUS
 90
15
 70
0
 10
-74.326420616
 20
-3.1201936535
 10
-74.3254035885
 20
-3.1211131519
 10
-74.3239274704
 20
-3.1213519471
 10
-74.3221753597
 20
-3.121174326
 10
-74.3203303544
 20
-3.1208445757
 10
-74.3155504916
 20
-3.1203502578
 10
-74.3112584072
 20
-3.1204579598
 10
-74.3072432526
 20
-3.1209010387
 10
-74.3032941794
 20
-3.1214128512
 10
-74.2945110118
 20
-3.1219977581
 10
-74.2853378173
 20
-3.1220415128
 10
-74.276042597
 20
-3.1219025449
 10
-74.2575473246
 20
-3.1219659158
 10
-74.2393061138
 20
-3.1223177215
 10
-74.1899266525
 20
-3.1228517904
  0
LWPOLYLINE
  5
564
100
AcDbEntity
  8
INTF_1
100
AcDbPolyline
 62
7
  6
CONTINUOUS
 90
15
 70
0
 10
-74.3250447869
 20
-3.1201902195
 10
-74.3260506793
 20
-3.1192669073
 10
-74.3275236351
 20
-3.1190277178
 10
-74.3292773918
 20
-3.1192070302
 10
-74.3311256866
 20
-3.1195392234
 10
-74.3359133771
 20
-3.1200382266
 10
-74.3402040298
 20
-3.1199307908
 10
-74.3442124855
 20
-3.1194854603
 10
-74.3481535852
 20
-3.1189707797
 10
-74.3569285589
 20
-3.1183829323
 10
-74.3661010559
 20
-3.1183399377
 10
-74.3753979249
 20
-3.11848083
 10
-74.3938925345
 20
-3.1184185151
 10
-74.4121281474
 20
-3.1180653159
 10
-74.4615003224
 20
-3.1175295894
  0
LWPOLYLINE
  5
565
100
AcDbEntity
  8
CURVE
100
AcDbPolyline
 62
250
  6
CONTINUOUS
 90
15
 70
0
 10
-74.3250447869
 20
-3.1201902195
 10
-74.3260506793
 20
-3.1192669073
 10
-74.3275236351
 20
-3.1190277178
 10
-74.3292773918
 20
-3.1192070302
 10
-74.3311256866
 20
-3.1195392234
 10
-74.3359133771
 20
-3.1200382266
 10
-74.3402040298
 20
-3.1199307908
 10
-74.3442124855
 20
-3.1194854603
 10
-74.3481535852
 20
-3.1189707797
 10
-74.3569285589
 20
-3.1183829323
 10
-74.3661010559
 20
-3.1183399377
 10
-74.3753979249
 20
-3.11848083
 10
-74.3938925345
 20
-3.1184185151
 10
-74.4121281474
 20
-3.1180653159
 10
-74.4615003224
 20
-3.1175295894
  0
LWPOLYLINE
  5
566
100
AcDbEntity
  8
INTF_1
100
AcDbPolyline
 62
7
  6
CONTINUOUS
 90
34
 70
0
 10
-75.3164121579
 20
-2.0012687905
 10
-75.3158063965
 20
-2.0154061211
 10
-75.314126204
 20
-2.0294295144
 10
-75.3114709509
 20
-2.0433320251
 10
-75.3079400078
 20
-2.0571067081
 10
-75.3036327451
 20
-2.0707466182
 10
-75.2986485333
 20
-2.0842448101
 10
-75.293086743
 20
-2.0975943386
 10
-75.2870467446
 20
-2.1107882585
 10
-75.2806279086
 20
-2.1238196246
 10
-75.2739296055
 20
-2.1366814917
 10
-75.259745428
 20
-2.162278892
 10
-75.2448771388
 20
-2.1872239284
 10
-75.2293836992
 20
-2.2115922404
 10
-75.2133240703
 20
-2.2354594677
 10
-75.1967572134
 20
-2.2589012498
 10
-75.1797420899
 20
-2.2819932263
 10
-75.1623376608
 20
-2.3048110369
 10
-75.132219337
 20
-2.3428511186
 10
-75.1012717011
 20
-2.3803553064
 10
-75.0696062257
 20
-2.4173530879
 10
-75.0373343831
 20
-2.4538739509
 10
-75.0045676459
 20
-2.4899473831
 10
-74.9601986647
 20
-2.5374737673
 10
-74.9152021109
 20
-2.5843347964
 10
-74.8696341339
 20
-2.6306103949
 10
-74.8235508829
 20
-2.6763804876
 10
-74.7637765608
 20
-2.7344377372
 10
-74.703311145
 20
-2.7917820094
 10
-74.6422186937
 20
-2.8484003074
 10
-74.6005385928
 20
-2.8863347133
 10
-74.5586003525
 20
-2.9240958473
 10
-74.5211585784
 20
-2.9574854606
 10
-74.4835024005
 20
-2.9902967998
  0
LWPOLYLINE
  5
567
100
AcDbEntity
  8
CURVE
100
AcDbPolyline
 62
250
  6
CONTINUOUS
 90
34
 70
0
 10
-75.3164121579
 20
-2.0012687905
 10
-75.3158063965
 20
-2.0154061211
 10
-75.314126204
 20
-2.0294295144
 10
-75.3114709509
 20
-2.0433320251
 10
-75.3079400078
 20
-2.0571067081
 10
-75.3036327451
 20
-2.0707466182
 10
-75.2986485333
 20
-2.0842448101
 10
-75.293086743
 20
-2.0975943386
 10
-75.2870467446
 20
-2.1107882585
 10
-75.2806279086
 20
-2.1238196246
 10
-75.2739296055
 20
-2.1366814917
 10
-75.259745428
 20
-2.162278892
 10
-75.2448771388
 20
-2.1872239284
 10
-75.2293836992
 20
-2.2115922404
 10
-75.2133240703
 20
-2.2354594677
 10
-75.1967572134
 20
-2.2589012498
 10
-75.1797420899
 20
-2.2819932263
 10
-75.1623376608
 20
-2.3048110369
 10
-75.132219337
 20
-2.3428511186
 10
-75.1012717011
 20
-2.3803553064
 10
-75.0696062257
 20
-2.4173530879
 10
-75.0373343831
 20
-2.4538739509
 10
-75.0045676459
 20
-2.4899473831
 10
-74.9601986647
 20
-2.5374737673
 10
-74.9152021109
 20
-2.5843347964
 10
-74.8696341339
 20
-2.6306103949
 10
-74.8235508829
 20
-2.6763804876
 10
-74.7637765608
 20
-2.7344377372
 10
-74.703311145
 20
-2.7917820094
 10
-74.6422186937
 20
-2.8484003074
 10
-74.6005385928
 20
-2.8863347133
 10
-74.5586003525
 20
-2.9240958473
 10
-74.5211585784
 20
-2.9574854606
 10
-74.4835024005
 20
-2.9902967998
  0
LINE
  5
568
100
AcDbEntity
  8
ASSI
100
AcDbLine
 62
7
  6
CONTINUOUS
 10
-76.1257329216
 20
1.729816905
 11
-76.1257329216
 21
6.029816905
  0
LINE
  5
569
100
AcDbEntity
  8
ASSI
100
AcDbLine
 62
7
  6
CONTINUOUS
 10
-76.1257329216
 20
6.729816905
 11
-76.1257329216
 21
11.029816905
  0
LINE
  5
56A
100
AcDbEntity
  8
ASSI
100
AcDbLine
 62
7
  6
CONTINUOUS
 10
-76.1257329216
 20
11.729816905
 11
-76.1257329216
 21
16.029816905
  0
LINE
  5
56B
100
AcDbEntity
  8
ASSI
100
AcDbLine
 62
7
  6
CONTINUOUS
 10
-76.1257329216
 20
16.729816905
 11
-76.1257329216
 21
21.029816905
  0
LINE
  5
56C
100
AcDbEntity
  8
RACCORDO
100
AcDbLine
 62
7
  6
CONTINUOUS
 10
-75.9757329216
 20
25.2798930574
 11
-75.9757329216
 21
23.5118148868
  0
LINE
  5
56D
100
AcDbEntity
  8
RACCORDO
100
AcDbLine
 62
7
  6
CONTINUOUS
 10
-75.9757329216
 20
-13.7521810769
 11
-75.9757329216
 21
-15.5202592475
  0
LINE
  5
56E
100
AcDbEntity
  8
RACCORDO
100
AcDbLine
 62
7
  6
CONTINUOUS
 10
-75.9670053891
 20
25.2711655249
 11
-75.9670053891
 21
23.521877771
  0
LINE
  5
56F
100
AcDbEntity
  8
RACCORDO
100
AcDbLine
 62
7
  6
CONTINUOUS
 10
-75.9670053891
 20
-15.511531715
 11
-75.9670053891
 21
-13.762243961
  0
LINE
  5
570
100
AcDbEntity
  8
0
100
AcDbLine
 62
250
  6
CONTINUOUS
 10
-75.5257329216
 20
-13.720183095
 11
-75.5257329216
 21
-13.3332733967
  0
LINE
  5
571
100
AcDbEntity
  8
CURVE
100
AcDbLine
 62
250
  6
CONTINUOUS
 10
-74.8257329216
 20
9.6750549707
 11
-74.8257329216
 21
9.1179120693
  0
LINE
  5
572
100
AcDbEntity
  8
CURVE
100
AcDbLine
 62
250
  6
CONTINUOUS
 10
-74.8257329216
 20
1.7821975622
 11
-74.8257329216
 21
1.3179123792
  0
LINE
  5
573
100
AcDbEntity
  8
CURVE
100
AcDbLine
 62
250
  6
CONTINUOUS
 10
-74.8257329216
 20
-6.6630402711
 11
-74.8257329216
 21
-7.0344688204
  0
LINE
  5
574
100
AcDbEntity
  8
CURVE
100
AcDbLine
 62
250
  6
CONTINUOUS
 10
-74.8257329216
 20
-9.2630401936
 11
-74.8257329216
 21
-9.6344688979
  0
LINE
  5
575
100
AcDbEntity
  8
CURVE
100
AcDbLine
 62
250
  6
CONTINUOUS
 10
-74.8257329216
 20
-10.5630401936
 11
-74.8257329216
 21
-10.470183095
  0
LINE
  5
576
100
AcDbEntity
  8
CURVE
100
AcDbLine
 62
250
  6
CONTINUOUS
 10
-74.8257329216
 20
10.3869598064
 11
-74.8257329216
 21
10.8512454543
  0
LINE
  5
577
100
AcDbEntity
  8
RACCORDO
100
AcDbLine
 62
7
  6
CONTINUOUS
 10
-74.7931879865
 20
-15.970183095
 11
-74.7931879865
 21
-14.999643481
  0
LINE
  5
578
100
AcDbEntity
  8
RACCORDO
100
AcDbLine
 62
7
  6
CONTINUOUS
 10
-74.7931879865
 20
24.7592772909
 11
-74.7931879865
 21
25.729816905
  0
LINE
  5
579
100
AcDbEntity
  8
RACCORDO
100
AcDbLine
 62
7
  6
CONTINUOUS
 10
-74.7757329216
 20
25.179816905
 11
-74.7757329216
 21
24.7770824424
  0
LINE
  5
57A
100
AcDbEntity
  8
RACCORDO
100
AcDbLine
 62
7
  6
CONTINUOUS
 10
-74.7757329216
 20
-15.420183095
 11
-74.7757329216
 21
-15.0174486325
  0
LINE
  5
57B
100
AcDbEntity
  8
CURVE
100
AcDbLine
 62
250
  6
CONTINUOUS
 10
-77.3746976481
 20
-9.320183095
 11
-77.3520095197
 21
-8.9487545457
  0
LINE
  5
57C
100
AcDbEntity
  8
CURVE
100
AcDbLine
 62
250
  6
CONTINUOUS
 10
-77.4496685189
 20
-9.962931095
 11
-77.4148401997
 21
-9.410204095
  0
LINE
  5
57D
100
AcDbEntity
  8
CURVE
100
AcDbLine
 62
250
  6
CONTINUOUS
 10
-77.4496685189
 20
-4.410410095
 11
-77.3990703037
 21
-4.139260095
  0
LWPOLYLINE
  5
57E
100
AcDbEntity
  8
ASSI
100
AcDbPolyline
 62
250
  6
CONTINUOUS
 90
4
 70
0
 10
-76.9842688761
 20
1.729816905
 10
-76.9827493924
 20
1.7351673511
 10
-76.9812543556
 20
1.7511569603
 10
-76.9797837657
 20
1.7776540448
  0
LINE
  5
57F
100
AcDbEntity
  8
CURVE
100
AcDbLine
 62
7
  6
CONTINUOUS
 10
-77.4495468243
 20
8.0448110502
 11
-77.4438769125
 21
8.050480962
  0
LINE
  5
580
100
AcDbEntity
  8
CURVE
100
AcDbLine
 62
7
  6
CONTINUOUS
 10
-77.4277882794
 20
8.0665695951
 11
-77.4221178964
 21
8.0722399781
  0
LINE
  5
581
100
AcDbEntity
  8
CURVE
100
AcDbLine
 62
7
  6
CONTINUOUS
 10
-77.4046121344
 20
8.0897457401
 11
-77.3989422574
 21
8.0954156171
  0
LINE
  5
582
100
AcDbEntity
  8
CURVE
100
AcDbLine
 62
7
  6
CONTINUOUS
 10
-77.4495468243
 20
7.8348003362
 11
-77.4438769125
 21
7.840470248
  0
LINE
  5
583
100
AcDbEntity
  8
CURVE
100
AcDbLine
 62
7
  6
CONTINUOUS
 10
-77.4277882794
 20
7.8565588811
 11
-77.4221178964
 21
7.8622292641
  0
LINE
  5
584
100
AcDbEntity
  8
CURVE
100
AcDbLine
 62
7
  6
CONTINUOUS
 10
-77.4046121344
 20
7.8797350261
 11
-77.3989422574
 21
7.8854049031
  0
LINE
  5
585
100
AcDbEntity
  8
CURVE
100
AcDbLine
 62
7
  6
CONTINUOUS
 10
-77.4495468243
 20
7.6247896222
 11
-77.4438769125
 21
7.630459534
  0
LINE
  5
586
100
AcDbEntity
  8
CURVE
100
AcDbLine
 62
7
  6
CONTINUOUS
 10
-77.4277882794
 20
7.6465481671
 11
-77.4221178964
 21
7.6522185501
  0
LINE
  5
587
100
AcDbEntity
  8
CURVE
100
AcDbLine
 62
7
  6
CONTINUOUS
 10
-77.4046121344
 20
7.6697243121
 11
-77.3989422574
 21
7.675394189
  0
LINE
  5
588
100
AcDbEntity
  8
CURVE
100
AcDbLine
 62
7
  6
CONTINUOUS
 10
-77.4495468243
 20
7.4147789082
 11
-77.3989422574
 21
7.465383475
  0
LINE
  5
589
100
AcDbEntity
  8
CURVE
100
AcDbLine
 62
7
  6
CONTINUOUS
 10
-77.4308071135
 20
7.223507905
 11
-77.3989422574
 21
7.255372761
  0
LINE
  5
58A
100
AcDbEntity
  8
CURVE
100
AcDbLine
 62
250
  6
CONTINUOUS
 10
-73.5257329216
 20
10.3869598064
 11
-73.7114471962
 21
10.2012456092
  0
LINE
  5
58B
100
AcDbEntity
  8
CURVE
100
AcDbLine
 62
7
  6
CONTINUOUS
 10
-77.4495468243
 20
6.3647253381
 11
-77.3989422574
 21
6.415329905
  0
LINE
  5
58C
100
AcDbEntity
  8
CURVE
100
AcDbLine
 62
7
  6
CONTINUOUS
 10
-77.4495468243
 20
6.1547146241
 11
-77.3989422574
 21
6.205319191
  0
LINE
  5
58D
100
AcDbEntity
  8
CURVE
100
AcDbLine
 62
7
  6
CONTINUOUS
 10
-77.4100540039
 20
5.9841967304
 11
-77.3989422574
 21
5.9953084769
  0
LINE
  5
58E
100
AcDbEntity
  8
ASSI
100
AcDbLine
 62
7
  6
CONTINUOUS
 10
-66.5757329216
 20
16.629816905
 11
-66.0757329216
 21
17.129816905
  0
LINE
  5
58F
100
AcDbEntity
  8
CURVE
100
AcDbLine
 62
7
  6
CONTINUOUS
 10
-77.4158529269
 20
5.7683870935
 11
-77.4046609331
 21
5.7795790873
  0
LWPOLYLINE
  5
590
100
AcDbEntity
  8
INTF_1
100
AcDbPolyline
 62
7
  6
CONTINUOUS
 90
34
 70
0
 10
-75.4444618487
 20
-4.1108708838
 10
-75.4303274086
 20
-4.1102651048
 10
-75.4163069523
 20
-4.1085848569
 10
-75.4024074162
 20
-4.1059295285
 10
-75.3886357368
 20
-4.1023985076
 10
-75.3749988504
 20
-4.0980911825
 10
-75.3615036936
 20
-4.0931069413
 10
-75.3481572026
 20
-4.0875451723
 10
-75.334966314
 20
-4.0815052635
 10
-75.3219379641
 20
-4.0750866031
 10
-75.3090790893
 20
-4.0683885794
 10
-75.2834851238
 20
-4.0542038609
 10
-75.2585435221
 20
-4.0393353403
 10
-75.2341786323
 20
-4.0238419375
 10
-75.2103148025
 20
-4.0077825725
 10
-75.186876381
 20
-3.991216165
 10
-75.1637877157
 20
-3.974201635
 10
-75.1409731549
 20
-3.9567979023
 10
-75.1029372402
 20
-3.9266799675
 10
-75.0654370713
 20
-3.8957328483
 10
-75.028443188
 20
-3.8640680276
 10
-74.9919261299
 20
-3.8317969883
 10
-74.9558564368
 20
-3.7990312132
 10
-74.9083348091
 20
-3.7546636122
 10
-74.8614784079
 20
-3.7096686477
 10
-74.8152072435
 20
-3.664102381
 10
-74.7694413263
 20
-3.6180208731
 10
-74.7113899652
 20
-3.5582496979
 10
-74.6540517038
 20
-3.4977876915
 10
-74.5974402147
 20
-3.4366992427
 10
-74.5595117978
 20
-3.3950232092
 10
-74.5217550309
 20
-3.3530880566
 10
-74.4883687168
 20
-3.3156491702
 10
-74.4555654934
 20
-3.2779986831
  0
LWPOLYLINE
  5
591
100
AcDbEntity
  8
CURVE
100
AcDbPolyline
 62
250
  6
CONTINUOUS
 90
34
 70
0
 10
-75.4444618487
 20
-4.1108708838
 10
-75.4303274086
 20
-4.1102651048
 10
-75.4163069523
 20
-4.1085848569
 10
-75.4024074162
 20
-4.1059295285
 10
-75.3886357368
 20
-4.1023985076
 10
-75.3749988504
 20
-4.0980911825
 10
-75.3615036936
 20
-4.0931069413
 10
-75.3481572026
 20
-4.0875451723
 10
-75.334966314
 20
-4.0815052635
 10
-75.3219379641
 20
-4.0750866031
 10
-75.3090790893
 20
-4.0683885794
 10
-75.2834851238
 20
-4.0542038609
 10
-75.2585435221
 20
-4.0393353403
 10
-75.2341786323
 20
-4.0238419375
 10
-75.2103148025
 20
-4.0077825725
 10
-75.186876381
 20
-3.991216165
 10
-75.1637877157
 20
-3.974201635
 10
-75.1409731549
 20
-3.9567979023
 10
-75.1029372402
 20
-3.9266799675
 10
-75.0654370713
 20
-3.8957328483
 10
-75.028443188
 20
-3.8640680276
 10
-74.9919261299
 20
-3.8317969883
 10
-74.9558564368
 20
-3.7990312132
 10
-74.9083348091
 20
-3.7546636122
 10
-74.8614784079
 20
-3.7096686477
 10
-74.8152072435
 20
-3.664102381
 10
-74.7694413263
 20
-3.6180208731
 10
-74.7113899652
 20
-3.5582496979
 10
-74.6540517038
 20
-3.4977876915
 10
-74.5974402147
 20
-3.4366992427
 10
-74.5595117978
 20
-3.3950232092
 10
-74.5217550309
 20
-3.3530880566
 10
-74.4883687168
 20
-3.3156491702
 10
-74.4555654934
 20
-3.2779986831
  0
LINE
  5
592
100
AcDbEntity
  8
CURVE
100
AcDbLine
 62
250
  6
CONTINUOUS
 10
-66.8257329216
 20
-5.2219730548
 11
-69.8257329216
 21
-5.2219730548
  0
LINE
  5
593
100
AcDbEntity
  8
CURVE
100
AcDbLine
 62
250
  6
CONTINUOUS
 10
-62.1867209216
 20
-4.912545095
 11
-63.2057329216
 21
-4.912545095
  0
LINE
  5
594
100
AcDbEntity
  8
CURVE
100
AcDbLine
 62
250
  6
CONTINUOUS
 10
-77.3714564871
 20
-4.8011353579
 11
-77.3552506811
 21
-4.8011353579
  0
LINE
  5
595
100
AcDbEntity
  8
CURVE
100
AcDbLine
 62
250
  6
CONTINUOUS
 10
-65.7328757932
 20
-4.5648300819
 11
-66.8257329216
 21
-4.5648300819
  0
LINE
  5
596
100
AcDbEntity
  8
CURVE
100
AcDbLine
 62
250
  6
CONTINUOUS
 10
-77.3520095197
 20
-4.4297069636
 11
-77.3746976481
 21
-4.4297069636
  0
LINE
  5
597
100
AcDbEntity
  8
CURVE
100
AcDbLine
 62
250
  6
CONTINUOUS
 10
-57.3769379216
 20
-4.238130095
 11
-57.7494019216
 21
-4.238130095
  0
LINE
  5
598
100
AcDbEntity
  8
CURVE
100
AcDbLine
 62
250
  6
CONTINUOUS
 10
-65.6114471784
 20
-3.9981635503
 11
-66.8257329216
 21
-3.9981635503
  0
LINE
  5
599
100
AcDbEntity
  8
CURVE
100
AcDbLine
 62
250
  6
CONTINUOUS
 10
-57.7494019216
 20
-3.888070095
 11
-57.3769379216
 21
-3.888070095
  0
LINE
  5
59A
100
AcDbEntity
  8
CURVE
100
AcDbLine
 62
250
  6
CONTINUOUS
 10
-77.3520095197
 20
-3.7797069636
 11
-77.3746976481
 21
-3.7797069636
  0
LINE
  5
59B
100
AcDbEntity
  8
CURVE
100
AcDbLine
 62
250
  6
CONTINUOUS
 10
-62.2757329216
 20
-6.8492506066
 11
-61.7149136888
 21
-7.119638108
  0
LINE
  5
59C
100
AcDbEntity
  8
CURVE
100
AcDbLine
 62
250
  6
CONTINUOUS
 10
-60.7792521409
 20
-7.5707476619
 11
-60.3012060665
 21
-7.8012283962
  0
LWPOLYLINE
  5
59D
100
AcDbEntity
  8
RACCORDO
100
AcDbPolyline
 62
7
  6
CONTINUOUS
 90
11
 70
0
 10
-63.0885903067
 20
-17.0572478345
 10
-63.0892368661
 20
-17.0563076638
 10
-63.0898543625
 20
-17.0539996107
 10
-63.0904427959
 20
-17.0503236752
 10
-63.0910029783
 20
-17.0451661968
 10
-63.0915340977
 20
-17.038640836
 10
-63.0920337179
 20
-17.0310885745
 10
-63.0925000666
 20
-17.0226081758
 10
-63.092934916
 20
-17.0131008765
 10
-63.0933411475
 20
-17.0026113677
 10
-63.0937223372
 20
-16.9910644565
  0
LWPOLYLINE
  5
59E
100
AcDbEntity
  8
INTF_1
100
AcDbPolyline
 62
7
  6
CONTINUOUS
 90
34
 70
0
 10
-73.3349650949
 20
-4.2390972235
 10
-73.3355708551
 20
-4.2249599618
 10
-73.337251044
 20
-4.2109366381
 10
-73.3399062906
 20
-4.1970341972
 10
-73.343437224
 20
-4.1832595837
 10
-73.3477444732
 20
-4.1696197424
 10
-73.3527286673
 20
-4.156121618
 10
-73.3582904353
 20
-4.1427721553
 10
-73.3643304063
 20
-4.129578299
 10
-73.3707492093
 20
-4.1165469938
 10
-73.3774474734
 20
-4.1036851844
 10
-73.3916315422
 20
-4.0780879077
 10
-73.4064996975
 20
-4.0531429789
 10
-73.4219929804
 20
-4.0287747586
 10
-73.438052432
 20
-4.0049076073
 10
-73.4546190935
 20
-3.9814658854
 10
-73.4716340061
 20
-3.9583739535
 10
-73.4890382109
 20
-3.9355561722
 10
-73.5191559667
 20
-3.8975163083
 10
-73.5501029924
 20
-3.8600122933
 10
-73.5817678142
 20
-3.823014644
 10
-73.6140389584
 20
-3.7864938775
 10
-73.6468049513
 20
-3.7504205108
 10
-73.6911724514
 20
-3.7028946034
 10
-73.73616744
 20
-3.6560339478
 10
-73.781733781
 20
-3.609758577
 10
-73.8278153381
 20
-3.5639885241
 10
-73.8875864672
 20
-3.5059319293
 10
-73.9480484325
 20
-3.4485881786
 10
-74.0091370151
 20
-3.391970536
 10
-74.0508134706
 20
-3.3540372828
 10
-74.0927482261
 20
-3.3162762676
 10
-74.1301863189
 20
-3.2828863755
 10
-74.167837626
 20
-3.2500768703
  0
LWPOLYLINE
  5
59F
100
AcDbEntity
  8
CURVE
100
AcDbPolyline
 62
250
  6
CONTINUOUS
 90
34
 70
0
 10
-73.3349650949
 20
-4.2390972235
 10
-73.3355708551
 20
-4.2249599618
 10
-73.337251044
 20
-4.2109366381
 10
-73.3399062906
 20
-4.1970341972
 10
-73.343437224
 20
-4.1832595837
 10
-73.3477444732
 20
-4.1696197424
 10
-73.3527286673
 20
-4.156121618
 10
-73.3582904353
 20
-4.1427721553
 10
-73.3643304063
 20
-4.129578299
 10
-73.3707492093
 20
-4.1165469938
 10
-73.3774474734
 20
-4.1036851844
 10
-73.3916315422
 20
-4.0780879077
 10
-73.4064996975
 20
-4.0531429789
 10
-73.4219929804
 20
-4.0287747586
 10
-73.438052432
 20
-4.0049076073
 10
-73.4546190935
 20
-3.9814658854
 10
-73.4716340061
 20
-3.9583739535
 10
-73.4890382109
 20
-3.9355561722
 10
-73.5191559667
 20
-3.8975163083
 10
-73.5501029924
 20
-3.8600122933
 10
-73.5817678142
 20
-3.823014644
 10
-73.6140389584
 20
-3.7864938775
 10
-73.6468049513
 20
-3.7504205108
 10
-73.6911724514
 20
-3.7028946034
 10
-73.73616744
 20
-3.6560339478
 10
-73.781733781
 20
-3.609758577
 10
-73.8278153381
 20
-3.5639885241
 10
-73.8875864672
 20
-3.5059319293
 10
-73.9480484325
 20
-3.4485881786
 10
-74.0091370151
 20
-3.391970536
 10
-74.0508134706
 20
-3.3540372828
 10
-74.0927482261
 20
-3.3162762676
 10
-74.1301863189
 20
-3.2828863755
 10
-74.167837626
 20
-3.2500768703
  0
LINE
  5
5A0
100
AcDbEntity
  8
DRAFT
100
AcDbLine
 62
7
  6
CONTINUOUS
 10
-74.7837272422
 20
25.1878112256
 11
-74.7931879865
 21
25.729816905
  0
LINE
  5
5A1
100
AcDbEntity
  8
CURVE
100
AcDbLine
 62
250
  6
CONTINUOUS
 10
-74.4543043336
 20
11.8417216632
 11
-74.4543043336
 21
11.34648352
  0
LINE
  5
5A2
100
AcDbEntity
  8
CURVE
100
AcDbLine
 62
250
  6
CONTINUOUS
 10
-74.4543043336
 20
2.7726743135
 11
-74.4543043336
 21
2.2774362478
  0
LINE
  5
5A3
100
AcDbEntity
  8
CURVE
100
AcDbLine
 62
250
  6
CONTINUOUS
 10
-74.3614471962
 20
-7.5916116443
 11
-74.3614471962
 21
-8.1487545457
  0
LINE
  5
5A4
100
AcDbEntity
  8
CURVE
100
AcDbLine
 62
250
  6
CONTINUOUS
 10
-74.0828757455
 20
-9.6344688979
 11
-74.0828757455
 21
-9.2630401936
  0
LINE
  5
5A5
100
AcDbEntity
  8
CURVE
100
AcDbLine
 62
250
  6
CONTINUOUS
 10
-74.0828757455
 20
-7.0344688204
 11
-74.0828757455
 21
-6.6630402711
  0
LINE
  5
5A6
100
AcDbEntity
  8
CURVE
100
AcDbLine
 62
250
  6
CONTINUOUS
 10
-74.0828757455
 20
9.3036265764
 11
-74.0828757455
 21
9.6750549707
  0
LINE
  5
5A7
100
AcDbEntity
  8
CURVE
100
AcDbLine
 62
250
  6
CONTINUOUS
 10
-73.5257329216
 20
10.8512454543
 11
-73.5257329216
 21
10.3869598064
  0
LINE
  5
5A8
100
AcDbEntity
  8
CURVE
100
AcDbLine
 62
250
  6
CONTINUOUS
 10
-73.5257329216
 20
9.6750549707
 11
-73.5257329216
 21
9.1179120693
  0
LINE
  5
5A9
100
AcDbEntity
  8
CURVE
100
AcDbLine
 62
250
  6
CONTINUOUS
 10
-73.5257329216
 20
4.0107691678
 11
-73.5257329216
 21
3.2679123792
  0
LINE
  5
5AA
100
AcDbEntity
  8
CURVE
100
AcDbLine
 62
250
  6
CONTINUOUS
 10
-73.5257329216
 20
-6.6630402711
 11
-73.5257329216
 21
-7.220183095
  0
LINE
  5
5AB
100
AcDbEntity
  8
CURVE
100
AcDbLine
 62
250
  6
CONTINUOUS
 10
-73.5257329216
 20
-9.2630401936
 11
-73.5257329216
 21
-9.820183095
  0
LINE
  5
5AC
100
AcDbEntity
  8
CURVE
100
AcDbLine
 62
250
  6
CONTINUOUS
 10
-73.5257329216
 20
-10.470183095
 11
-73.5257329216
 21
-10.5630401936
  0
LWPOLYLINE
  5
5AD
100
AcDbEntity
  8
INTF_1
100
AcDbPolyline
 62
7
  6
CONTINUOUS
 90
8
 70
0
 10
-74.328340267
 20
-3.2559787658
 10
-74.3288181981
 20
-3.4337682367
 10
-74.3289837777
 20
-3.5852631784
 10
-74.3289636844
 20
-3.7542424316
 10
-74.328497064
 20
-4.1212794289
 10
-74.3276795071
 20
-4.4881303413
 10
-74.3267721843
 20
-4.8080462818
 10
-74.3257329216
 20
-5.1200776987
  0
LWPOLYLINE
  5
5AE
100
AcDbEntity
  8
CURVE
100
AcDbPolyline
 62
250
  6
CONTINUOUS
 90
8
 70
0
 10
-74.328340267
 20
-3.2559787658
 10
-74.3288181981
 20
-3.4337682367
 10
-74.3289837777
 20
-3.5852631784
 10
-74.3289636844
 20
-3.7542424316
 10
-74.328497064
 20
-4.1212794289
 10
-74.3276795071
 20
-4.4881303413
 10
-74.3267721843
 20
-4.8080462818
 10
-74.3257329216
 20
-5.1200776987
  0
LWPOLYLINE
  5
5AF
100
AcDbEntity
  8
INTF_1
100
AcDbPolyline
 62
7
  6
CONTINUOUS
 90
7
 70
0
 10
-74.322990607
 20
-2.9843856852
 10
-74.3225356714
 20
-2.8065803557
 10
-74.322385349
 20
-2.6550717276
 10
-74.3224200564
 20
-2.4860776753
 10
-74.3229134543
 20
-2.1190094978
 10
-74.3237536523
 20
-1.7521282216
 10
-74.3257329216
 20
-1.120129786
  0
LWPOLYLINE
  5
5B0
100
AcDbEntity
  8
CURVE
100
AcDbPolyline
 62
250
  6
CONTINUOUS
 90
7
 70
0
 10
-74.322990607
 20
-2.9843856852
 10
-74.3225356714
 20
-2.8065803557
 10
-74.322385349
 20
-2.6550717276
 10
-74.3224200564
 20
-2.4860776753
 10
-74.3229134543
 20
-2.1190094978
 10
-74.3237536523
 20
-1.7521282216
 10
-74.3257329216
 20
-1.120129786
  0
LINE
  5
5B1
100
AcDbEntity
  8
DRAFT
100
AcDbLine
 62
7
  6
CONTINUOUS
 10
-74.7931879865
 20
-15.970183095
 11
-74.7837272422
 21
-15.4281774156
  0
LINE
  5
5B2
100
AcDbEntity
  8
ASSI
100
AcDbLine
 62
7
  6
CONTINUOUS
 10
-69.7257329216
 20
27.2095466347
 11
-69.6890772852
 21
27.379816905
  0
LINE
  5
5B3
100
AcDbEntity
  8
CURVE
100
AcDbLine
 62
250
  6
CONTINUOUS
 10
-77.3990703037
 20
-4.731376095
 11
-77.4319722579
 21
-4.855731095
  0
LINE
  5
5B4
100
AcDbEntity
  8
ASSI
100
AcDbLine
 62
7
  6
CONTINUOUS
 10
-63.6089697025
 20
26.5358874066
 11
-63.3287633248
 21
27.079816905
  0
LINE
  5
5B5
100
AcDbEntity
  8
DRAFT
100
AcDbLine
 62
7
  6
CONTINUOUS
 10
-57.867738601
 20
25.1878112256
 11
-57.8757329216
 21
25.179816905
  0
LINE
  5
5B6
100
AcDbEntity
  8
CURVE
100
AcDbLine
 62
7
  6
CONTINUOUS
 10
-77.4216518499
 20
5.5525774565
 11
-77.4104455102
 21
5.5637837962
  0
LINE
  5
5B7
100
AcDbEntity
  8
RACCORDO
100
AcDbLine
 62
250
  6
CONTINUOUS
 10
-57.1756567692
 20
25.779816905
 11
-57.1843843016
 21
25.7710893725
  0
LINE
  5
5B8
100
AcDbEntity
  8
CURVE
100
AcDbLine
 62
7
  6
CONTINUOUS
 10
-77.4274507728
 20
5.3367678195
 11
-77.4162300873
 21
5.347988505
  0
LINE
  5
5B9
100
AcDbEntity
  8
ASSI
100
AcDbLine
 62
7
  6
CONTINUOUS
 10
-61.5757329216
 20
21.129816905
 11
-62.0757329216
 21
20.629816905
  0
LINE
  5
5BA
100
AcDbEntity
  8
CURVE
100
AcDbLine
 62
7
  6
CONTINUOUS
 10
-77.4332496958
 20
5.1209581825
 11
-77.4220146644
 21
5.1321932139
  0
LINE
  5
5BB
100
AcDbEntity
  8
CURVE
100
AcDbLine
 62
7
  6
CONTINUOUS
 10
-77.4390486188
 20
4.9051485455
 11
-77.4277992415
 21
4.9163979228
  0
LINE
  5
5BC
100
AcDbEntity
  8
CURVE
100
AcDbLine
 62
7
  6
CONTINUOUS
 10
-77.4448475417
 20
4.6893389086
 11
-77.4335838186
 21
4.7006026317
  0
LINE
  5
5BD
100
AcDbEntity
  8
RACCORDO
100
AcDbLine
 62
250
  6
CONTINUOUS
 10
-56.6757329216
 20
25.2798930574
 11
-56.6844604541
 21
25.2711655249
  0
LINE
  5
5BE
100
AcDbEntity
  8
CURVE
100
AcDbLine
 62
7
  6
CONTINUOUS
 10
-77.4495468243
 20
4.474628912
 11
-77.4393683958
 21
4.4848073405
  0
LINE
  5
5BF
100
AcDbEntity
  8
CURVE
100
AcDbLine
 62
7
  6
CONTINUOUS
 10
-77.4495468243
 20
4.264618198
 11
-77.3989422574
 21
4.3152227648
  0
LINE
  5
5C0
100
AcDbEntity
  8
CURVE
100
AcDbLine
 62
7
  6
CONTINUOUS
 10
-77.3999364033
 20
4.104217905
 11
-77.3989422574
 21
4.1052120508
  0
LINE
  5
5C1
100
AcDbEntity
  8
CURVE
100
AcDbLine
 62
250
  6
CONTINUOUS
 10
-57.1400186276
 20
17.7441025528
 11
-56.9543043336
 21
17.8369598064
  0
LINE
  5
5C2
100
AcDbEntity
  8
CURVE
100
AcDbLine
 62
250
  6
CONTINUOUS
 10
-73.5257329216
 20
11.5941025528
 11
-74.8257329216
 21
11.2226740035
  0
LINE
  5
5C3
100
AcDbEntity
  8
CURVE
100
AcDbLine
 62
250
  6
CONTINUOUS
 10
-57.0140279216
 20
-1.751307095
 11
-60.3762489216
 21
-2.045357095
  0
LWPOLYLINE
  5
5C4
100
AcDbEntity
  8
INTF_1
100
AcDbPolyline
 62
7
  6
CONTINUOUS
 90
34
 70
0
 10
-73.2068271659
 20
-2.129512549
 10
-73.2209643591
 20
-2.1301183083
 10
-73.2349876143
 20
-2.1317984952
 10
-73.2488899867
 20
-2.1344537392
 10
-73.2626645312
 20
-2.1379846698
 10
-73.2763043025
 20
-2.1422919165
 10
-73.2898023557
 20
-2.1472761088
 10
-73.3031517456
 20
-2.1528378763
 10
-73.3163455272
 20
-2.1588778484
 10
-73.3293767554
 20
-2.1652966547
 10
-73.342238485
 20
-2.1719949246
 10
-73.36783553
 20
-2.1861789793
 10
-73.3927802192
 20
-2.2010471278
 10
-73.4171481929
 20
-2.2165404094
 10
-73.4410150919
 20
-2.2325998635
 10
-73.4644565564
 20
-2.2491665296
 10
-73.4875482271
 20
-2.2661814469
 10
-73.5103657445
 20
-2.283585655
 10
-73.5484051761
 20
-2.3137034232
 10
-73.5859087559
 20
-2.3446504535
 10
-73.6229059694
 20
-2.3763152727
 10
-73.6594263023
 20
-2.4085864079
 10
-73.6954992402
 20
-2.4413523859
 10
-73.7430246498
 20
-2.4857199178
 10
-73.7898848153
 20
-2.5307149217
 10
-73.8361597001
 20
-2.5762812521
 10
-73.8819292679
 20
-2.6223627633
 10
-73.9399853834
 20
-2.682133914
 10
-73.9973287292
 20
-2.7425958653
 10
-74.0539461235
 20
-2.8036844329
 10
-74.091879402
 20
-2.8453609759
 10
-74.1296403292
 20
-2.8872956416
 10
-74.1630301293
 20
-2.9247335799
 10
-74.1958401028
 20
-2.9623850406
  0
LWPOLYLINE
  5
5C5
100
AcDbEntity
  8
CURVE
100
AcDbPolyline
 62
250
  6
CONTINUOUS
 90
34
 70
0
 10
-73.2068271659
 20
-2.129512549
 10
-73.2209643591
 20
-2.1301183083
 10
-73.2349876143
 20
-2.1317984952
 10
-73.2488899867
 20
-2.1344537392
 10
-73.2626645312
 20
-2.1379846698
 10
-73.2763043025
 20
-2.1422919165
 10
-73.2898023557
 20
-2.1472761088
 10
-73.3031517456
 20
-2.1528378763
 10
-73.3163455272
 20
-2.1588778484
 10
-73.3293767554
 20
-2.1652966547
 10
-73.342238485
 20
-2.1719949246
 10
-73.36783553
 20
-2.1861789793
 10
-73.3927802192
 20
-2.2010471278
 10
-73.4171481929
 20
-2.2165404094
 10
-73.4410150919
 20
-2.2325998635
 10
-73.4644565564
 20
-2.2491665296
 10
-73.4875482271
 20
-2.2661814469
 10
-73.5103657445
 20
-2.283585655
 10
-73.5484051761
 20
-2.3137034232
 10
-73.5859087559
 20
-2.3446504535
 10
-73.6229059694
 20
-2.3763152727
 10
-73.6594263023
 20
-2.4085864079
 10
-73.6954992402
 20
-2.4413523859
 10
-73.7430246498
 20
-2.4857199178
 10
-73.7898848153
 20
-2.5307149217
 10
-73.8361597001
 20
-2.5762812521
 10
-73.8819292679
 20
-2.6223627633
 10
-73.9399853834
 20
-2.682133914
 10
-73.9973287292
 20
-2.7425958653
 10
-74.0539461235
 20
-2.8036844329
 10
-74.091879402
 20
-2.8453609759
 10
-74.1296403292
 20
-2.8872956416
 10
-74.1630301293
 20
-2.9247335799
 10
-74.1958401028
 20
-2.9623850406
  0
LINE
  5
5C6
100
AcDbEntity
  8
CURVE
100
AcDbLine
 62
250
  6
CONTINUOUS
 10
-66.8257329216
 20
-3.4719730548
 11
-65.6114471784
 21
-3.4719730548
  0
LINE
  5
5C7
100
AcDbEntity
  8
CURVE
100
AcDbLine
 62
250
  6
CONTINUOUS
 10
-57.8418179216
 20
-3.431593095
 11
-58.0574539216
 21
-3.431593095
  0
LINE
  5
5C8
100
AcDbEntity
  8
CURVE
100
AcDbLine
 62
250
  6
CONTINUOUS
 10
-56.5269939216
 20
-3.236259095
 11
-56.7444879216
 21
-3.236259095
  0
LINE
  5
5C9
100
AcDbEntity
  8
CURVE
100
AcDbLine
 62
250
  6
CONTINUOUS
 10
-77.3520095197
 20
-3.0368495551
 11
-77.3746976481
 21
-3.0368495551
  0
LINE
  5
5CA
100
AcDbEntity
  8
CURVE
100
AcDbLine
 62
250
  6
CONTINUOUS
 10
-65.7328757932
 20
-2.9862585954
 11
-66.8257329216
 21
-2.9862585954
  0
LINE
  5
5CB
100
AcDbEntity
  8
CURVE
100
AcDbLine
 62
250
  6
CONTINUOUS
 10
-56.7439299216
 20
-2.663256095
 11
-56.5264359216
 21
-2.663256095
  0
LINE
  5
5CC
100
AcDbEntity
  8
CURVE
100
AcDbLine
 62
250
  6
CONTINUOUS
 10
-58.0574539216
 20
-2.608253095
 11
-57.8418179216
 21
-2.608253095
  0
LINE
  5
5CD
100
AcDbEntity
  8
CURVE
100
AcDbLine
 62
250
  6
CONTINUOUS
 10
-65.6114471784
 20
-2.4195920639
 11
-66.8257329216
 21
-2.4195920639
  0
LINE
  5
5CE
100
AcDbEntity
  8
CURVE
100
AcDbLine
 62
250
  6
CONTINUOUS
 10
-77.3520095197
 20
-2.2939927664
 11
-77.3746976481
 21
-2.2939927664
  0
LINE
  5
5CF
100
AcDbEntity
  8
CURVE
100
AcDbLine
 62
250
  6
CONTINUOUS
 10
-60.3762489216
 20
-2.219686095
 11
-60.5726969216
 21
-2.219686095
  0
LINE
  5
5D0
100
AcDbEntity
  8
CURVE
100
AcDbLine
 62
250
  6
CONTINUOUS
 10
-56.6194099216
 20
-2.137773095
 11
-57.0140279216
 21
-2.137773095
  0
LINE
  5
5D1
100
AcDbEntity
  8
CURVE
100
AcDbLine
 62
250
  6
CONTINUOUS
 10
-60.5726969216
 20
-2.102066095
 11
-60.3762489216
 21
-2.102066095
  0
LINE
  5
5D2
100
AcDbEntity
  8
CURVE
100
AcDbLine
 62
250
  6
CONTINUOUS
 10
-57.0140279216
 20
-2.038399095
 11
-56.6194099216
 21
-2.038399095
  0
LINE
  5
5D3
100
AcDbEntity
  8
CURVE
100
AcDbLine
 62
250
  6
CONTINUOUS
 10
-66.8257329216
 20
-1.8934015684
 11
-65.6114471784
 21
-1.8934015684
  0
LWPOLYLINE
  5
5D4
100
AcDbEntity
  8
INTF_1
100
AcDbPolyline
 62
7
  6
CONTINUOUS
 90
7
 70
0
 10
-74.1899266525
 20
-3.1228517904
 10
-74.0121212985
 20
-3.1233145526
 10
-73.8606126499
 20
-3.1234715498
 10
-73.6916185748
 20
-3.1234442924
 10
-73.3245503476
 20
-3.1229670864
 10
-72.9576690217
 20
-3.1221430803
 10
-72.3256705004
 20
-3.1201917161
  0
LWPOLYLINE
  5
5D5
100
AcDbEntity
  8
CURVE
100
AcDbPolyline
 62
250
  6
CONTINUOUS
 90
7
 70
0
 10
-74.1899266525
 20
-3.1228517904
 10
-74.0121212985
 20
-3.1233145526
 10
-73.8606126499
 20
-3.1234715498
 10
-73.6916185748
 20
-3.1234442924
 10
-73.3245503476
 20
-3.1229670864
 10
-72.9576690217
 20
-3.1221430803
 10
-72.3256705004
 20
-3.1201917161
  0
LWPOLYLINE
  5
5D6
100
AcDbEntity
  8
INTF_1
100
AcDbPolyline
 62
7
  6
CONTINUOUS
 90
7
 70
0
 10
-74.4615003224
 20
-3.1175295894
 10
-74.639296707
 20
-3.117066446
 10
-74.790801776
 20
-3.1169081049
 10
-74.9597947524
 20
-3.1169338696
 10
-75.3268665706
 20
-3.1174078461
 10
-75.6937564484
 20
-3.1182286352
 10
-76.3257773077
 20
-3.120174474
  0
LWPOLYLINE
  5
5D7
100
AcDbEntity
  8
CURVE
100
AcDbPolyline
 62
250
  6
CONTINUOUS
 90
7
 70
0
 10
-74.4615003224
 20
-3.1175295894
 10
-74.639296707
 20
-3.117066446
 10
-74.790801776
 20
-3.1169081049
 10
-74.9597947524
 20
-3.1169338696
 10
-75.3268665706
 20
-3.1174078461
 10
-75.6937564484
 20
-3.1182286352
 10
-76.3257773077
 20
-3.120174474
  0
LINE
  5
5D8
100
AcDbEntity
  8
CURVE
100
AcDbLine
 62
250
  6
CONTINUOUS
 10
-59.9381049216
 20
-3.700776095
 11
-57.0415799216
 21
-3.970022095
  0
LINE
  5
5D9
100
AcDbEntity
  8
CURVE
100
AcDbLine
 62
250
  6
CONTINUOUS
 10
-61.0058593139
 20
-6.4056834973
 11
-62.2757329216
 21
-5.8325846698
  0
LINE
  5
5DA
100
AcDbEntity
  8
CURVE
100
AcDbLine
 62
250
  6
CONTINUOUS
 10
-58.5984480167
 20
-7.4921578185
 11
-59.8243388069
 21
-6.9389083937
  0
LINE
  5
5DB
100
AcDbEntity
  8
CURVE
100
AcDbLine
 62
250
  6
CONTINUOUS
 10
-74.0828757455
 20
0.5750555906
 11
-73.5257329216
 21
0.2036259565
  0
LINE
  5
5DC
100
AcDbEntity
  8
DRAFT
100
AcDbLine
 62
7
  6
CONTINUOUS
 10
-57.867738601
 20
-15.4281774156
 11
-57.8757329216
 21
-15.420183095
  0
LINE
  5
5DD
100
AcDbEntity
  8
RACCORDO
100
AcDbLine
 62
250
  6
CONTINUOUS
 10
-57.1756567692
 20
-16.020183095
 11
-57.1843843016
 21
-16.0114555626
  0
LINE
  5
5DE
100
AcDbEntity
  8
RACCORDO
100
AcDbLine
 62
250
  6
CONTINUOUS
 10
-56.6757329216
 20
-15.5202592475
 11
-56.6844604541
 21
-15.511531715
  0
LINE
  5
5DF
100
AcDbEntity
  8
ASSI
100
AcDbLine
 62
7
  6
CONTINUOUS
 10
-63.6089697025
 20
-16.7762535967
 11
-63.3287633248
 21
-17.320183095
  0
LWPOLYLINE
  5
5E0
100
AcDbEntity
  8
INTF_1
100
AcDbPolyline
 62
7
  6
CONTINUOUS
 90
54
 70
0
 10
-72.3256705004
 20
-3.1201917161
 10
-72.3384858282
 20
-3.0832527443
 10
-72.3517884613
 20
-3.0467191887
 10
-72.3656123817
 20
-3.0105482
 10
-72.3799915715
 20
-2.9746969289
 10
-72.3949600126
 20
-2.9391225262
 10
-72.4105516869
 20
-2.9037821424
 10
-72.4268005764
 20
-2.8686329283
 10
-72.443740663
 20
-2.8336320345
 10
-72.4614059288
 20
-2.7987366118
 10
-72.4798303558
 20
-2.7639038109
 10
-72.4990479258
 20
-2.7290907824
 10
-72.5190926208
 20
-2.6942546769
 10
-72.5399984228
 20
-2.6593526453
 10
-72.5617993138
 20
-2.6243418382
 10
-72.573758575
 20
-2.6056844133
 10
-72.585978575
 20
-2.5870109499
 10
-72.5984577173
 20
-2.5683482228
 10
-72.6111944054
 20
-2.5497230068
 10
-72.6241870426
 20
-2.5311620767
 10
-72.6374340325
 20
-2.5126922073
 10
-72.6509337785
 20
-2.4943401734
 10
-72.6646846841
 20
-2.4761327497
 10
-72.6786851527
 20
-2.4580967111
 10
-72.6929335878
 20
-2.4402588323
 10
-72.7074283928
 20
-2.4226458882
 10
-72.7221679712
 20
-2.4052846534
 10
-72.7371507265
 20
-2.3882019029
 10
-72.7523750621
 20
-2.3714244113
 10
-72.7678393815
 20
-2.3549789535
 10
-72.7835420881
 20
-2.3388923043
 10
-72.7994815854
 20
-2.3231912384
 10
-72.8156562768
 20
-2.3079025307
 10
-72.8320645658
 20
-2.2930529559
 10
-72.8487048559
 20
-2.2786692888
 10
-72.8655755505
 20
-2.2647783042
 10
-72.882675053
 20
-2.2514067769
 10
-72.900001767
 20
-2.2385814817
 10
-72.9175540959
 20
-2.2263291934
 10
-72.9353304431
 20
-2.2146766867
 10
-72.9533292121
 20
-2.2036507365
 10
-72.9715488064
 20
-2.1932781175
 10
-72.9899876293
 20
-2.1835856046
 10
-73.0086440845
 20
-2.1745999724
 10
-73.0275165753
 20
-2.1663479959
 10
-73.0466035051
 20
-2.1588564497
 10
-73.0659032775
 20
-2.1521521087
 10
-73.0854142959
 20
-2.1462617477
 10
-73.1051349638
 20
-2.1412121414
 10
-73.1250636846
 20
-2.1370300647
 10
-73.1451988617
 20
-2.1337422923
 10
-73.1655388987
 20
-2.131375599
 10
-73.1860821989
 20
-2.1299567597
 10
-73.2068271659
 20
-2.129512549
  0
LWPOLYLINE
  5
5E1
100
AcDbEntity
  8
CURVE
100
AcDbPolyline
 62
250
  6
CONTINUOUS
 90
54
 70
0
 10
-72.3256705004
 20
-3.1201917161
 10
-72.3384858282
 20
-3.0832527443
 10
-72.3517884613
 20
-3.0467191887
 10
-72.3656123817
 20
-3.0105482
 10
-72.3799915715
 20
-2.9746969289
 10
-72.3949600126
 20
-2.9391225262
 10
-72.4105516869
 20
-2.9037821424
 10
-72.4268005764
 20
-2.8686329283
 10
-72.443740663
 20
-2.8336320345
 10
-72.4614059288
 20
-2.7987366118
 10
-72.4798303558
 20
-2.7639038109
 10
-72.4990479258
 20
-2.7290907824
 10
-72.5190926208
 20
-2.6942546769
 10
-72.5399984228
 20
-2.6593526453
 10
-72.5617993138
 20
-2.6243418382
 10
-72.573758575
 20
-2.6056844133
 10
-72.585978575
 20
-2.5870109499
 10
-72.5984577173
 20
-2.5683482228
 10
-72.6111944054
 20
-2.5497230068
 10
-72.6241870426
 20
-2.5311620767
 10
-72.6374340325
 20
-2.5126922073
 10
-72.6509337785
 20
-2.4943401734
 10
-72.6646846841
 20
-2.4761327497
 10
-72.6786851527
 20
-2.4580967111
 10
-72.6929335878
 20
-2.4402588323
 10
-72.7074283928
 20
-2.4226458882
 10
-72.7221679712
 20
-2.4052846534
 10
-72.7371507265
 20
-2.3882019029
 10
-72.7523750621
 20
-2.3714244113
 10
-72.7678393815
 20
-2.3549789535
 10
-72.7835420881
 20
-2.3388923043
 10
-72.7994815854
 20
-2.3231912384
 10
-72.8156562768
 20
-2.3079025307
 10
-72.8320645658
 20
-2.2930529559
 10
-72.8487048559
 20
-2.2786692888
 10
-72.8655755505
 20
-2.2647783042
 10
-72.882675053
 20
-2.2514067769
 10
-72.900001767
 20
-2.2385814817
 10
-72.9175540959
 20
-2.2263291934
 10
-72.9353304431
 20
-2.2146766867
 10
-72.9533292121
 20
-2.2036507365
 10
-72.9715488064
 20
-2.1932781175
 10
-72.9899876293
 20
-2.1835856046
 10
-73.0086440845
 20
-2.1745999724
 10
-73.0275165753
 20
-2.1663479959
 10
-73.0466035051
 20
-2.1588564497
 10
-73.0659032775
 20
-2.1521521087
 10
-73.0854142959
 20
-2.1462617477
 10
-73.1051349638
 20
-2.1412121414
 10
-73.1250636846
 20
-2.1370300647
 10
-73.1451988617
 20
-2.1337422923
 10
-73.1655388987
 20
-2.131375599
 10
-73.1860821989
 20
-2.1299567597
 10
-73.2068271659
 20
-2.129512549
  0
LINE
  5
5E2
100
AcDbEntity
  8
ASSI
100
AcDbLine
 62
7
  6
CONTINUOUS
 10
-69.7257329216
 20
-17.4499128248
 11
-69.6890772852
 21
-17.620183095
  0
LWPOLYLINE
  5
5E3
100
AcDbEntity
  8
RACCORDO
100
AcDbPolyline
 62
7
  6
CONTINUOUS
 90
13
 70
0
 10
-69.5410801857
 20
-18.295183095
 10
-69.5388479701
 20
-18.3224985836
 10
-69.5330566072
 20
-18.3487325709
 10
-69.5239554285
 20
-18.3735710601
 10
-69.5118998821
 20
-18.3967409099
 10
-69.4971875311
 20
-18.4180134433
 10
-69.479936977
 20
-18.4371515214
 10
-69.460295235
 20
-18.4540139417
 10
-69.4387184214
 20
-18.4683132308
 10
-69.41578886
 20
-18.4796412788
 10
-69.3919984982
 20
-18.4878589455
 10
-69.3676869352
 20
-18.4930344417
 10
-69.3432476316
 20
-18.495183095
  0
LINE
  5
5E4
100
AcDbEntity
  8
CURVE
100
AcDbLine
 62
250
  6
CONTINUOUS
 10
-72.7082449216
 20
15.319406905
 11
-72.7082449216
 21
16.807942905
  0
LINE
  5
5E5
100
AcDbEntity
  8
ASSI
100
AcDbLine
 62
250
  6
CONTINUOUS
 10
-72.0257329216
 20
-13.720183095
 11
-72.0257329216
 21
-13.3332733967
  0
LINE
  5
5E6
100
AcDbEntity
  8
CURVE
100
AcDbLine
 62
250
  6
CONTINUOUS
 10
-71.9432449216
 20
15.319406905
 11
-71.9432449216
 21
16.807942905
  0
LWPOLYLINE
  5
5E7
100
AcDbEntity
  8
RACCORDO
100
AcDbPolyline
 62
7
  6
CONTINUOUS
 90
13
 70
0
 10
-69.5410801857
 20
28.054816905
 10
-69.5388429712
 20
28.0818683824
 10
-69.5330725378
 20
28.1081219732
 10
-69.5239878444
 20
28.1331311941
 10
-69.5118946217
 20
28.156430117
 10
-69.4970843275
 20
28.1777523753
 10
-69.4797410033
 20
28.196976901
 10
-69.4601885047
 20
28.2137907609
 10
-69.4387470728
 20
28.2279590464
 10
-69.4155037874
 20
28.2393936501
 10
-69.3907062397
 20
28.2478517878
 10
-69.3648315496
 20
28.2530526608
 10
-69.338309089
 20
28.254816905
  0
LINE
  5
5E8
100
AcDbEntity
  8
IMPORT_IGES
100
AcDbLine
 62
7
  6
CONTINUOUS
 10
-62.3197329216
 20
15.629816905
 11
-62.5297329216
 21
15.479816905
  0
LINE
  5
5E9
100
AcDbEntity
  8
CURVE
100
AcDbLine
 62
250
  6
CONTINUOUS
 10
-56.2114471962
 20
17.279816905
 11
-56.3971614709
 21
17.1869598064
  0
LINE
  5
5EA
100
AcDbEntity
  8
CURVE
100
AcDbLine
 62
250
  6
CONTINUOUS
 10
-73.5257329216
 20
6.8893407735
 11
-74.8257329216
 21
6.2393407735
  0
LINE
  5
5EB
100
AcDbEntity
  8
CURVE
100
AcDbLine
 62
250
  6
CONTINUOUS
 10
-77.3714564871
 20
-1.6439927664
 11
-77.3649741651
 21
-1.6439927664
  0
LINE
  5
5EC
100
AcDbEntity
  8
CURVE
100
AcDbLine
 62
250
  6
CONTINUOUS
 10
-77.4490773623
 20
-1.4817504394
 11
-77.3990702976
 21
-1.4817504394
  0
LINE
  5
5ED
100
AcDbEntity
  8
CURVE
100
AcDbLine
 62
250
  6
CONTINUOUS
 10
-77.3552506811
 20
-1.2725637522
 11
-77.3714564871
 21
-1.2725637522
  0
LINE
  5
5EE
100
AcDbEntity
  8
CURVE
100
AcDbLine
 62
250
  6
CONTINUOUS
 10
-77.4271584116
 20
-0.8989843669
 11
-77.4410486094
 21
-0.8989843669
  0
LINE
  5
5EF
100
AcDbEntity
  8
CURVE
100
AcDbLine
 62
250
  6
CONTINUOUS
 10
-77.3990702976
 20
-0.8789144783
 11
-77.4188716458
 21
-0.8789144783
  0
LINE
  5
5F0
100
AcDbEntity
  8
CURVE
100
AcDbLine
 62
250
  6
CONTINUOUS
 10
-63.2057329216
 20
-0.727821095
 11
-62.1867209216
 21
-0.727821095
  0
LINE
  5
5F1
100
AcDbEntity
  8
CURVE
100
AcDbLine
 62
250
  6
CONTINUOUS
 10
-77.3714564871
 20
-0.6225637522
 11
-77.3552506811
 21
-0.6225637522
  0
LINE
  5
5F2
100
AcDbEntity
  8
CURVE
100
AcDbLine
 62
250
  6
CONTINUOUS
 10
-77.3746976481
 20
-0.2511353579
 11
-77.3520095197
 21
-0.2511353579
  0
LINE
  5
5F3
100
AcDbEntity
  8
RACCORDO
100
AcDbLine
 62
7
  6
CONTINUOUS
 10
-69.557743506
 20
-16.5493017336
 11
-69.557074828
 21
-16.5750719139
  0
LINE
  5
5F4
100
AcDbEntity
  8
RACCORDO
100
AcDbLine
 62
7
  6
CONTINUOUS
 10
-69.557074828
 20
-16.5750719139
 11
-69.5565557195
 21
-16.6037541295
  0
LINE
  5
5F5
100
AcDbEntity
  8
RACCORDO
100
AcDbLine
 62
7
  6
CONTINUOUS
 10
-69.5565557195
 20
-16.6037541295
 11
-69.5561924888
 21
-16.6342533738
  0
LWPOLYLINE
  5
5F6
100
AcDbEntity
  8
RACCORDO
100
AcDbPolyline
 62
7
  6
CONTINUOUS
 90
3
 70
0
 10
-69.5561924888
 20
-16.6342533738
 10
-69.5559190535
 20
-16.6807799432
 10
-69.5558894366
 20
-16.6957021787
  0
LINE
  5
5F7
100
AcDbEntity
  8
ASSI
100
AcDbLine
 62
7
  6
CONTINUOUS
 10
-71.0257329216
 20
-13.720183095
 11
-71.0257329216
 21
-13.3332733967
  0
LINE
  5
5F8
100
AcDbEntity
  8
ASSI
100
AcDbLine
 62
7
  6
CONTINUOUS
 10
-70.3388232233
 20
24.1929186297
 11
-70.3388232233
 21
23.3928957836
  0
LINE
  5
5F9
100
AcDbEntity
  8
ASSI
100
AcDbLine
 62
7
  6
CONTINUOUS
 10
-70.3388232233
 20
-14.4332848198
 11
-70.3388232233
 21
-13.3332733967
  0
LINE
  5
5FA
100
AcDbEntity
  8
CURVE
100
AcDbLine
 62
250
  6
CONTINUOUS
 10
-69.8257329216
 20
-5.2219730548
 11
-69.8257329216
 21
-10.4719730548
  0
LINE
  5
5FB
100
AcDbEntity
  8
ASSI
100
AcDbLine
 62
7
  6
CONTINUOUS
 10
-69.7257329216
 20
28.3099966453
 11
-69.7257329216
 21
26.079816905
  0
LINE
  5
5FC
100
AcDbEntity
  8
ASSI
100
AcDbLine
 62
7
  6
CONTINUOUS
 10
-69.7257329216
 20
-18.5503628353
 11
-69.7257329216
 21
-16.320183095
  0
LINE
  5
5FD
100
AcDbEntity
  8
ASSI
100
AcDbLine
 62
7
  6
CONTINUOUS
 10
-69.6890772852
 20
-17.620183095
 11
-69.6890772852
 21
-18.5870184717
  0
LINE
  5
5FE
100
AcDbEntity
  8
ASSI
100
AcDbLine
 62
7
  6
CONTINUOUS
 10
-69.6890772852
 20
27.379816905
 11
-69.6890772852
 21
28.3466522816
  0
LINE
  5
5FF
100
AcDbEntity
  8
ASSI
100
AcDbLine
 62
7
  6
CONTINUOUS
 10
-69.6257329216
 20
-17.520183095
 11
-69.6257329216
 21
-17.0299907162
  0
LINE
  5
600
100
AcDbEntity
  8
RACCORDO
100
AcDbLine
 62
7
  6
CONTINUOUS
 10
-69.6257329216
 20
-16.5103754739
 11
-69.6257329216
 21
-16.3108737271
  0
LINE
  5
601
100
AcDbEntity
  8
RACCORDO
100
AcDbLine
 62
7
  6
CONTINUOUS
 10
-69.6257329216
 20
26.070507537
 11
-69.6257329216
 21
26.2700092838
  0
LINE
  5
602
100
AcDbEntity
  8
ASSI
100
AcDbLine
 62
7
  6
CONTINUOUS
 10
-69.6257329216
 20
26.7896245261
 11
-69.6257329216
 21
27.279816905
  0
LINE
  5
603
100
AcDbEntity
  8
RACCORDO
100
AcDbLine
 62
7
  6
CONTINUOUS
 10
-69.5558884401
 20
26.4560605212
 11
-69.5560562259
 21
26.4119061861
  0
LINE
  5
604
100
AcDbEntity
  8
RACCORDO
100
AcDbLine
 62
7
  6
CONTINUOUS
 10
-69.5560562259
 20
26.4119061861
 11
-69.5563220585
 21
26.3811039889
  0
LINE
  5
605
100
AcDbEntity
  8
RACCORDO
100
AcDbLine
 62
7
  6
CONTINUOUS
 10
-69.5563220585
 20
26.3811039889
 11
-69.5567461855
 21
26.35153391
  0
LWPOLYLINE
  5
606
100
AcDbEntity
  8
RACCORDO
100
AcDbPolyline
 62
7
  6
CONTINUOUS
 90
13
 70
0
 10
-69.5567461855
 20
26.35153391
 10
-69.5573210286
 20
26.3242122099
 10
-69.5576647854
 20
26.3115408483
 10
-69.5580398673
 20
26.2997918089
 10
-69.5584432116
 20
26.2890230072
 10
-69.558877881
 20
26.2791765279
 10
-69.5593473542
 20
26.2703528877
 10
-69.559853772
 20
26.2624500196
 10
-69.5603949936
 20
26.2555699908
 10
-69.5609680752
 20
26.2501195192
 10
-69.5615720356
 20
26.2462341774
 10
-69.562207856
 20
26.2437783928
 10
-69.5628755365
 20
26.2427521655
  0
LINE
  5
607
100
AcDbEntity
  8
ASSI
100
AcDbLine
 62
250
  6
CONTINUOUS
 10
-62.6508754434
 20
28.379816905
 11
-62.6719418466
 21
28.3099966453
  0
LINE
  5
608
100
AcDbEntity
  8
ASSI
100
AcDbLine
 62
7
  6
CONTINUOUS
 10
-66.5757329216
 20
11.629816905
 11
-66.0757329216
 21
12.129816905
  0
LINE
  5
609
100
AcDbEntity
  8
ASSI
100
AcDbLine
 62
7
  6
CONTINUOUS
 10
-61.5757329216
 20
16.129816905
 11
-62.0757329216
 21
15.629816905
  0
LINE
  5
60A
100
AcDbEntity
  8
CURVE
100
AcDbLine
 62
250
  6
CONTINUOUS
 10
-58.6757329216
 20
18.2012454602
 11
-58.9471614768
 21
17.929816905
  0
LINE
  5
60B
100
AcDbEntity
  8
CURVE
100
AcDbLine
 62
250
  6
CONTINUOUS
 10
-58.6757329216
 20
13.879816905
 11
-60.5757329216
 21
12.929816905
  0
LINE
  5
60C
100
AcDbEntity
  8
CURVE
100
AcDbLine
 62
250
  6
CONTINUOUS
 10
-66.5828757679
 20
-0.0719730548
 11
-66.0971614858
 21
-0.0719730548
  0
LINE
  5
60D
100
AcDbEntity
  8
CURVE
100
AcDbLine
 62
250
  6
CONTINUOUS
 10
-77.4226890977
 20
0.0743726149
 11
-77.4229880891
 21
0.0743726149
  0
LINE
  5
60E
100
AcDbEntity
  8
CURVE
100
AcDbLine
 62
250
  6
CONTINUOUS
 10
-74.0828757455
 20
0.5750555906
 11
-74.8257329216
 21
0.5750555906
  0
LINE
  5
60F
100
AcDbEntity
  8
CURVE
100
AcDbLine
 62
250
  6
CONTINUOUS
 10
-65.9757329216
 20
0.7780269452
 11
-66.5828757679
 21
0.7780269452
  0
LINE
  5
610
100
AcDbEntity
  8
CURVE
100
AcDbLine
 62
250
  6
CONTINUOUS
 10
-67.3257329216
 20
0.7780269452
 11
-69.3257329216
 21
0.7780269452
  0
LINE
  5
611
100
AcDbEntity
  8
ASSI
100
AcDbLine
 62
7
  6
CONTINUOUS
 10
-61.5757329216
 20
1.379816905
 11
-66.5757329216
 21
1.379816905
  0
LINE
  5
612
100
AcDbEntity
  8
CURVE
100
AcDbLine
 62
250
  6
CONTINUOUS
 10
-74.8257329216
 20
2.896483365
 11
-73.5257329216
 21
2.5250555906
  0
LINE
  5
613
100
AcDbEntity
  8
CURVE
100
AcDbLine
 62
250
  6
CONTINUOUS
 10
-65.4900186648
 20
0.5351697914
 11
-65.9757329216
 21
0.7780269452
  0
LINE
  5
614
100
AcDbEntity
  8
CURVE
100
AcDbLine
 62
250
  6
CONTINUOUS
 10
-66.8257329216
 20
0.1708840735
 11
-66.5828757679
 21
-0.0719730548
  0
LINE
  5
615
100
AcDbEntity
  8
ASSI
100
AcDbLine
 62
250
  6
CONTINUOUS
 10
-62.6508754434
 20
-18.620183095
 11
-62.6719418466
 21
-18.5503628353
  0
LINE
  5
616
100
AcDbEntity
  8
RACCORDO
100
AcDbLine
 62
250
  6
CONTINUOUS
 10
-69.5410801857
 20
28.054816905
 11
-69.496282331
 21
26.7719741925
  0
LINE
  5
617
100
AcDbEntity
  8
RACCORDO
100
AcDbLine
 62
250
  6
CONTINUOUS
 10
-69.3432476316
 20
28.254816905
 11
-69.3022406798
 21
27.0805314481
  0
LINE
  5
618
100
AcDbEntity
  8
ASSI
100
AcDbLine
 62
7
  6
CONTINUOUS
 10
-68.3167100876
 20
-12.379205929
 11
-68.3088233274
 21
-12.620183095
  0
LINE
  5
619
100
AcDbEntity
  8
RACCORDO
100
AcDbLine
 62
7
  6
CONTINUOUS
 10
-69.557743506
 20
26.7506982664
 11
-69.557074828
 21
26.7249280861
  0
LINE
  5
61A
100
AcDbEntity
  8
RACCORDO
100
AcDbLine
 62
7
  6
CONTINUOUS
 10
-69.557074828
 20
26.7249280861
 11
-69.5565557195
 21
26.6962458705
  0
LINE
  5
61B
100
AcDbEntity
  8
RACCORDO
100
AcDbLine
 62
7
  6
CONTINUOUS
 10
-69.5565557195
 20
26.6962458705
 11
-69.5561924888
 21
26.6657466262
  0
LINE
  5
61C
100
AcDbEntity
  8
RACCORDO
100
AcDbLine
 62
7
  6
CONTINUOUS
 10
-69.5561924888
 20
26.6657466262
 11
-69.5559190535
 21
26.6192200568
  0
LINE
  5
61D
100
AcDbEntity
  8
RACCORDO
100
AcDbLine
 62
7
  6
CONTINUOUS
 10
-69.5558913826
 20
-18.295183095
 11
-69.5558913826
 21
-17.6249986536
  0
LINE
  5
61E
100
AcDbEntity
  8
RACCORDO
100
AcDbLine
 62
7
  6
CONTINUOUS
 10
-69.5558913826
 20
27.3846324635
 11
-69.5558913826
 21
28.054816905
  0
LINE
  5
61F
100
AcDbEntity
  8
RACCORDO
100
AcDbLine
 62
250
  6
CONTINUOUS
 10
-69.496282331
 20
26.7719741925
 11
-69.496282331
 21
26.0584565052
  0
LINE
  5
620
100
AcDbEntity
  8
RACCORDO
100
AcDbLine
 62
250
  6
CONTINUOUS
 10
-69.496282331
 20
-16.2988226953
 11
-69.496282331
 21
-17.0123403826
  0
LINE
  5
621
100
AcDbEntity
  8
ASSI
100
AcDbLine
 62
7
  6
CONTINUOUS
 10
-69.4069857773
 20
27.079816905
 11
-69.4069857773
 21
26.0501435604
  0
LINE
  5
622
100
AcDbEntity
  8
ASSI
100
AcDbLine
 62
7
  6
CONTINUOUS
 10
-69.4069857773
 20
-17.320183095
 11
-69.4069857773
 21
-16.2905097505
  0
LINE
  5
623
100
AcDbEntity
  8
CURVE
100
AcDbLine
 62
250
  6
CONTINUOUS
 10
-69.3257329216
 20
0.7780269452
 11
-69.3257329216
 21
-5.2219730548
  0
LINE
  5
624
100
AcDbEntity
  8
CURVE
100
AcDbLine
 62
250
  6
CONTINUOUS
 10
-69.2257329216
 20
0.7780269452
 11
-69.2257329216
 21
-5.2219730548
  0
LINE
  5
625
100
AcDbEntity
  8
CURVE
100
AcDbLine
 62
250
  6
CONTINUOUS
 10
-69.1257329216
 20
0.7780269452
 11
-69.1257329216
 21
-5.2219730548
  0
LINE
  5
626
100
AcDbEntity
  8
CURVE
100
AcDbLine
 62
250
  6
CONTINUOUS
 10
-69.0257329216
 20
0.7780269452
 11
-69.0257329216
 21
-5.2219730548
  0
LINE
  5
627
100
AcDbEntity
  8
ASSI
100
AcDbLine
 62
7
  6
CONTINUOUS
 10
-68.9569659169
 20
-13.4838079829
 11
-68.9569659169
 21
-11.5889500997
  0
LINE
  5
628
100
AcDbEntity
  8
CURVE
100
AcDbLine
 62
250
  6
CONTINUOUS
 10
-68.9257329216
 20
0.7780269452
 11
-68.9257329216
 21
-5.2219730548
  0
LINE
  5
629
100
AcDbEntity
  8
CURVE
100
AcDbLine
 62
250
  6
CONTINUOUS
 10
-68.8257329216
 20
0.7780269452
 11
-68.8257329216
 21
-5.2219730548
  0
LINE
  5
62A
100
AcDbEntity
  8
ASSI
100
AcDbLine
 62
7
  6
CONTINUOUS
 10
-68.8257329216
 20
-13.3827408046
 11
-68.8257329216
 21
-13.320183095
  0
LINE
  5
62B
100
AcDbEntity
  8
ASSI
100
AcDbLine
 62
7
  6
CONTINUOUS
 10
-68.8257329216
 20
-12.620183095
 11
-68.8257329216
 21
-11.720183095
  0
LINE
  5
62C
100
AcDbEntity
  8
ASSI
100
AcDbLine
 62
7
  6
CONTINUOUS
 10
-68.8257329216
 20
21.479816905
 11
-68.8257329216
 21
23.4006234763
  0
LINE
  5
62D
100
AcDbEntity
  8
CURVE
100
AcDbLine
 62
250
  6
CONTINUOUS
 10
-68.7257329216
 20
0.7780269452
 11
-68.7257329216
 21
-5.2219730548
  0
LINE
  5
62E
100
AcDbEntity
  8
CURVE
100
AcDbLine
 62
250
  6
CONTINUOUS
 10
-68.6257329216
 20
0.7780269452
 11
-68.6257329216
 21
-5.2219730548
  0
LINE
  5
62F
100
AcDbEntity
  8
CURVE
100
AcDbLine
 62
250
  6
CONTINUOUS
 10
-68.5257329216
 20
0.7780269452
 11
-68.5257329216
 21
-5.2219730548
  0
LINE
  5
630
100
AcDbEntity
  8
CURVE
100
AcDbLine
 62
250
  6
CONTINUOUS
 10
-68.4257329216
 20
0.7780269452
 11
-68.4257329216
 21
-5.2219730548
  0
LINE
  5
631
100
AcDbEntity
  8
0
100
AcDbLine
 62
7
  6
CONTINUOUS
 10
-68.4257329216
 20
23.079816905
 11
-68.4257329216
 21
23.129816905
  0
LINE
  5
632
100
AcDbEntity
  8
CURVE
100
AcDbLine
 62
250
  6
CONTINUOUS
 10
-68.3257329216
 20
0.7780269452
 11
-68.3257329216
 21
-5.2219730548
  0
LINE
  5
633
100
AcDbEntity
  8
ASSI
100
AcDbLine
 62
7
  6
CONTINUOUS
 10
-68.3257329216
 20
-12.620183095
 11
-68.3257329216
 21
-12.370183095
  0
LINE
  5
634
100
AcDbEntity
  8
ASSI
100
AcDbLine
 62
7
  6
CONTINUOUS
 10
-68.3257329216
 20
22.129816905
 11
-68.3257329216
 21
22.379816905
  0
LINE
  5
635
100
AcDbEntity
  8
ASSI
100
AcDbLine
 62
7
  6
CONTINUOUS
 10
-68.3257329216
 20
23.079816905
 11
-68.3257329216
 21
23.129816905
  0
LINE
  5
636
100
AcDbEntity
  8
ASSI
100
AcDbLine
 62
7
  6
CONTINUOUS
 10
-68.3070132021
 20
-13.420183095
 11
-68.3070132021
 21
-13.320183095
  0
LINE
  5
637
100
AcDbEntity
  8
ASSI
100
AcDbLine
 62
7
  6
CONTINUOUS
 10
-68.2982643358
 20
-13.4219286015
 11
-68.2982643358
 21
-13.320183095
  0
LINE
  5
638
100
AcDbEntity
  8
ASSI
100
AcDbLine
 62
7
  6
CONTINUOUS
 10
-68.2908227917
 20
23.1647270348
 11
-68.2908227917
 21
23.079816905
  0
LINE
  5
639
100
AcDbEntity
  8
ASSI
100
AcDbLine
 62
7
  6
CONTINUOUS
 10
-68.2284283457
 20
23.179816905
 11
-68.2284283457
 21
23.079816905
  0
LINE
  5
63A
100
AcDbEntity
  8
CURVE
100
AcDbLine
 62
250
  6
CONTINUOUS
 10
-68.2257329216
 20
0.7780269452
 11
-68.2257329216
 21
-5.2219730548
  0
LINE
  5
63B
100
AcDbEntity
  8
ASSI
100
AcDbLine
 62
7
  6
CONTINUOUS
 10
-68.2196794794
 20
23.079816905
 11
-68.2196794794
 21
23.1815624115
  0
LINE
  5
63C
100
AcDbEntity
  8
CURVE
100
AcDbLine
 62
250
  6
CONTINUOUS
 10
-68.1257329216
 20
0.7780269452
 11
-68.1257329216
 21
-5.2219730548
  0
LINE
  5
63D
100
AcDbEntity
  8
CURVE
100
AcDbLine
 62
250
  6
CONTINUOUS
 10
-68.0257329216
 20
0.7780269452
 11
-68.0257329216
 21
-5.2219730548
  0
LINE
  5
63E
100
AcDbEntity
  8
CURVE
100
AcDbLine
 62
250
  6
CONTINUOUS
 10
-67.9257329216
 20
0.7780269452
 11
-67.9257329216
 21
-5.2219730548
  0
LINE
  5
63F
100
AcDbEntity
  8
RACCORDO
100
AcDbLine
 62
7
  6
CONTINUOUS
 10
-69.5559190535
 20
26.6192200568
 11
-69.5558884401
 21
26.4560605212
  0
LINE
  5
640
100
AcDbEntity
  8
RACCORDO
100
AcDbLine
 62
7
  6
CONTINUOUS
 10
-69.5558894366
 20
-16.6957021787
 11
-69.5559722212
 21
-16.8728990336
  0
LINE
  5
641
100
AcDbEntity
  8
RACCORDO
100
AcDbLine
 62
7
  6
CONTINUOUS
 10
-69.5559722212
 20
-16.8728990336
 11
-69.5561701194
 21
-16.9036296136
  0
LINE
  5
642
100
AcDbEntity
  8
RACCORDO
100
AcDbLine
 62
7
  6
CONTINUOUS
 10
-69.5561701194
 20
-16.9036296136
 11
-69.5565150992
 21
-16.9338157516
  0
LINE
  5
643
100
AcDbEntity
  8
RACCORDO
100
AcDbLine
 62
7
  6
CONTINUOUS
 10
-69.5565150992
 20
-16.9338157516
 11
-69.5570143066
 21
-16.9624683689
  0
LWPOLYLINE
  5
644
100
AcDbEntity
  8
RACCORDO
100
AcDbPolyline
 62
7
  6
CONTINUOUS
 90
12
 70
0
 10
-69.5570143066
 20
-16.9624683689
 10
-69.5576647854
 20
-16.9884591517
 10
-69.5580398673
 20
-17.0002081911
 10
-69.5584432116
 20
-17.0109769928
 10
-69.558877881
 20
-17.0208234721
 10
-69.5593473542
 20
-17.0296471123
 10
-69.559853772
 20
-17.0375499804
 10
-69.5603949936
 20
-17.0444300092
 10
-69.5609680752
 20
-17.0498804808
 10
-69.5615720356
 20
-17.0537658226
 10
-69.562207856
 20
-17.0562216072
 10
-69.5628755365
 20
-17.0572478345
  0
LINE
  5
645
100
AcDbEntity
  8
ASSI
100
AcDbLine
 62
7
  6
CONTINUOUS
 10
-68.3088233274
 20
22.379816905
 11
-68.3167100876
 21
22.138839739
  0
LINE
  5
646
100
AcDbEntity
  8
RACCORDO
100
AcDbLine
 62
250
  6
CONTINUOUS
 10
-69.496282331
 20
-17.0123403826
 11
-69.5410801857
 21
-18.295183095
  0
LINE
  5
647
100
AcDbEntity
  8
RACCORDO
100
AcDbLine
 62
250
  6
CONTINUOUS
 10
-69.3022406798
 20
-17.3208976382
 11
-69.3432476316
 21
-18.495183095
  0
LINE
  5
648
100
AcDbEntity
  8
ASSI
100
AcDbLine
 62
250
  6
CONTINUOUS
 10
-62.0981902518
 20
28.2131765624
 11
-62.1186058859
 21
28.1429242668
  0
LINE
  5
649
100
AcDbEntity
  8
CURVE
100
AcDbLine
 62
250
  6
CONTINUOUS
 10
-56.2114471962
 20
19.229816905
 11
-56.0257329216
 21
19.4155311796
  0
LINE
  5
64A
100
AcDbEntity
  8
CURVE
100
AcDbLine
 62
250
  6
CONTINUOUS
 10
-57.3257329216
 20
17.5583883557
 11
-57.1400186276
 21
17.7441025528
  0
LINE
  5
64B
100
AcDbEntity
  8
CURVE
100
AcDbLine
 62
250
  6
CONTINUOUS
 10
-56.2114471962
 20
18.2083883557
 11
-56.0257329216
 21
18.3941025528
  0
LINE
  5
64C
100
AcDbEntity
  8
CURVE
100
AcDbLine
 62
250
  6
CONTINUOUS
 10
-56.0257329216
 20
17.4655312571
 11
-56.2114471962
 21
17.279816905
  0
LINE
  5
64D
100
AcDbEntity
  8
IMPORT_IGES
100
AcDbLine
 62
7
  6
CONTINUOUS
 10
-62.3197329216
 20
10.629816905
 11
-62.5297329216
 21
10.479816905
  0
LINE
  5
64E
100
AcDbEntity
  8
CURVE
100
AcDbLine
 62
250
  6
CONTINUOUS
 10
-57.1400186276
 20
11.7083885106
 11
-56.9543043336
 21
11.8012452993
  0
LINE
  5
64F
100
AcDbEntity
  8
CURVE
100
AcDbLine
 62
250
  6
CONTINUOUS
 10
-56.0257329216
 20
10.779816905
 11
-57.3257329216
 21
10.4083885106
  0
LINE
  5
650
100
AcDbEntity
  8
IMPORT_IGES
100
AcDbLine
 62
7
  6
CONTINUOUS
 10
-65.5297329216
 20
2.779816905
 11
-66.0757329216
 21
2.6378685136
  0
LINE
  5
651
100
AcDbEntity
  8
ASSI
100
AcDbLine
 62
7
  6
CONTINUOUS
 10
-77.0388117998
 20
1.729816905
 11
-76.1257329216
 21
1.729816905
  0
LINE
  5
652
100
AcDbEntity
  8
CURVE
100
AcDbLine
 62
250
  6
CONTINUOUS
 10
-73.5257329216
 20
1.7821975622
 11
-74.8257329216
 21
1.7821975622
  0
LINE
  5
653
100
AcDbEntity
  8
ASSI
100
AcDbLine
 62
7
  6
CONTINUOUS
 10
-62.0757329216
 20
1.879816905
 11
-66.0757329216
 21
1.879816905
  0
LINE
  5
654
100
AcDbEntity
  8
CURVE
100
AcDbLine
 62
250
  6
CONTINUOUS
 10
-56.3507329216
 20
2.257941905
 11
-56.3913579216
 21
2.257941905
  0
LINE
  5
655
100
AcDbEntity
  8
IMPORT_IGES
100
AcDbLine
 62
7
  6
CONTINUOUS
 10
-62.0757329216
 20
2.279816905
 11
-66.0757329216
 21
2.279816905
  0
LINE
  5
656
100
AcDbEntity
  8
CURVE
100
AcDbLine
 62
250
  6
CONTINUOUS
 10
-56.9194829216
 20
2.379816905
 11
-57.0413579216
 21
2.379816905
  0
LINE
  5
657
100
AcDbEntity
  8
IMPORT_IGES
100
AcDbLine
 62
7
  6
CONTINUOUS
 10
-62.5297329216
 20
2.779816905
 11
-65.5297329216
 21
2.779816905
  0
LINE
  5
658
100
AcDbEntity
  8
CURVE
100
AcDbLine
 62
250
  6
CONTINUOUS
 10
-65.1257329216
 20
0.1708840735
 11
-65.4900186648
 21
0.5351697914
  0
LINE
  5
659
100
AcDbEntity
  8
CURVE
100
AcDbLine
 62
250
  6
CONTINUOUS
 10
-74.6400186276
 20
10.2012456092
 11
-74.8257329216
 21
10.3869598064
  0
LINE
  5
65A
100
AcDbEntity
  8
ASSI
100
AcDbLine
 62
250
  6
CONTINUOUS
 10
-62.0981902518
 20
-18.4535427525
 11
-62.1186058859
 21
-18.3832904568
  0
LINE
  5
65B
100
AcDbEntity
  8
CURVE
100
AcDbLine
 62
250
  6
CONTINUOUS
 10
-67.8257329216
 20
0.7780269452
 11
-67.8257329216
 21
-5.2219730548
  0
LINE
  5
65C
100
AcDbEntity
  8
CURVE
100
AcDbLine
 62
250
  6
CONTINUOUS
 10
-67.7257329216
 20
0.7780269452
 11
-67.7257329216
 21
-5.2219730548
  0
LINE
  5
65D
100
AcDbEntity
  8
CURVE
100
AcDbLine
 62
250
  6
CONTINUOUS
 10
-67.6257329216
 20
0.7780269452
 11
-67.6257329216
 21
-5.2219730548
  0
LINE
  5
65E
100
AcDbEntity
  8
CURVE
100
AcDbLine
 62
250
  6
CONTINUOUS
 10
-67.5257329216
 20
0.7780269452
 11
-67.5257329216
 21
-5.2219730548
  0
LINE
  5
65F
100
AcDbEntity
  8
CURVE
100
AcDbLine
 62
250
  6
CONTINUOUS
 10
-67.4257329216
 20
0.7780269452
 11
-67.4257329216
 21
-5.2219730548
  0
LINE
  5
660
100
AcDbEntity
  8
CURVE
100
AcDbLine
 62
250
  6
CONTINUOUS
 10
-67.3257329216
 20
-5.2219730548
 11
-67.3257329216
 21
0.7780269452
  0
LINE
  5
661
100
AcDbEntity
  8
CURVE
100
AcDbLine
 62
250
  6
CONTINUOUS
 10
-66.8257329216
 20
0.5351697914
 11
-66.8257329216
 21
0.1708840735
  0
LINE
  5
662
100
AcDbEntity
  8
CURVE
100
AcDbLine
 62
250
  6
CONTINUOUS
 10
-66.8257329216
 20
-10.4719730548
 11
-66.8257329216
 21
-5.2219730548
  0
LINE
  5
663
100
AcDbEntity
  8
ASSI
100
AcDbLine
 62
7
  6
CONTINUOUS
 10
-66.5757329216
 20
1.379816905
 11
-66.5757329216
 21
6.379816905
  0
LINE
  5
664
100
AcDbEntity
  8
ASSI
100
AcDbLine
 62
7
  6
CONTINUOUS
 10
-66.5757329216
 20
6.629816905
 11
-66.5757329216
 21
11.129816905
  0
LINE
  5
665
100
AcDbEntity
  8
ASSI
100
AcDbLine
 62
7
  6
CONTINUOUS
 10
-66.5757329216
 20
11.629816905
 11
-66.5757329216
 21
16.129816905
  0
LINE
  5
666
100
AcDbEntity
  8
ASSI
100
AcDbLine
 62
7
  6
CONTINUOUS
 10
-66.5757329216
 20
16.629816905
 11
-66.5757329216
 21
21.129816905
  0
LINE
  5
667
100
AcDbEntity
  8
ASSI
100
AcDbLine
 62
7
  6
CONTINUOUS
 10
-63.6089697025
 20
26.5358874066
 11
-63.708139886
 21
26.0069797617
  0
LINE
  5
668
100
AcDbEntity
  8
ASSI
100
AcDbLine
 62
7
  6
CONTINUOUS
 10
-59.4176731538
 20
26.0099966453
 11
-59.3918130932
 21
26.079816905
  0
LWPOLYLINE
  5
669
100
AcDbEntity
  8
INTF_1
100
AcDbPolyline
 62
7
  6
CONTINUOUS
 90
4
 70
0
 10
-74.1958401028
 20
-2.9623850406
 10
-74.2319112871
 20
-3.004775084
 10
-74.2505817313
 20
-3.0260860855
 10
-74.2682776677
 20
-3.0457840594
  0
LWPOLYLINE
  5
66A
100
AcDbEntity
  8
CURVE
100
AcDbPolyline
 62
250
  6
CONTINUOUS
 90
4
 70
0
 10
-74.1958401028
 20
-2.9623850406
 10
-74.2319112871
 20
-3.004775084
 10
-74.2505817313
 20
-3.0260860855
 10
-74.2682776677
 20
-3.0457840594
  0
LWPOLYLINE
  5
66B
100
AcDbEntity
  8
INTF_1
100
AcDbPolyline
 62
7
  6
CONTINUOUS
 90
4
 70
0
 10
-74.4555654934
 20
-3.2779986831
 10
-74.4195061716
 20
-3.2356123229
 10
-74.4008356514
 20
-3.2142976676
 10
-74.3831358104
 20
-3.1945929107
  0
LWPOLYLINE
  5
66C
100
AcDbEntity
  8
CURVE
100
AcDbPolyline
 62
250
  6
CONTINUOUS
 90
4
 70
0
 10
-74.4555654934
 20
-3.2779986831
 10
-74.4195061716
 20
-3.2356123229
 10
-74.4008356514
 20
-3.2142976676
 10
-74.3831358104
 20
-3.1945929107
  0
LWPOLYLINE
  5
66D
100
AcDbEntity
  8
INTF_1
100
AcDbPolyline
 62
7
  6
CONTINUOUS
 90
18
 70
0
 10
-74.3831358104
 20
-3.1945929107
 10
-74.3746101274
 20
-3.184705929
 10
-74.3666532208
 20
-3.1747928907
 10
-74.3595295537
 20
-3.1648515551
 10
-74.3560924333
 20
-3.1595110021
 10
-74.3526841463
 20
-3.1541573993
 10
-74.3490182884
 20
-3.1487864667
 10
-74.3459275743
 20
-3.14474432
 10
-74.3424100475
 20
-3.1406882121
 10
-74.3383448814
 20
-3.1366163375
 10
-74.3336112493
 20
-3.1325268907
 10
-74.3310944073
 20
-3.1305418166
 10
-74.3286589035
 20
-3.1285419778
 10
-74.3265704637
 20
-3.1265171365
 10
-74.3253917454
 20
-3.124975939
 10
-74.3246698244
 20
-3.1234105997
 10
-74.3245168039
 20
-3.1218167995
 10
-74.3250447869
 20
-3.1201902195
  0
LWPOLYLINE
  5
66E
100
AcDbEntity
  8
CURVE
100
AcDbPolyline
 62
250
  6
CONTINUOUS
 90
18
 70
0
 10
-74.3831358104
 20
-3.1945929107
 10
-74.3746101274
 20
-3.184705929
 10
-74.3666532208
 20
-3.1747928907
 10
-74.3595295537
 20
-3.1648515551
 10
-74.3560924333
 20
-3.1595110021
 10
-74.3526841463
 20
-3.1541573993
 10
-74.3490182884
 20
-3.1487864667
 10
-74.3459275743
 20
-3.14474432
 10
-74.3424100475
 20
-3.1406882121
 10
-74.3383448814
 20
-3.1366163375
 10
-74.3336112493
 20
-3.1325268907
 10
-74.3310944073
 20
-3.1305418166
 10
-74.3286589035
 20
-3.1285419778
 10
-74.3265704637
 20
-3.1265171365
 10
-74.3253917454
 20
-3.124975939
 10
-74.3246698244
 20
-3.1234105997
 10
-74.3245168039
 20
-3.1218167995
 10
-74.3250447869
 20
-3.1201902195
  0
LWPOLYLINE
  5
66F
100
AcDbEntity
  8
INTF_1
100
AcDbPolyline
 62
7
  6
CONTINUOUS
 90
18
 70
0
 10
-74.2682776677
 20
-3.0457840594
 10
-74.2768039171
 20
-3.0556693526
 10
-74.2847659602
 20
-3.0655840981
 10
-74.2919015017
 20
-3.0755322322
 10
-74.2953484131
 20
-3.0808793026
 10
-74.298766691
 20
-3.0862394217
 10
-74.3024404472
 20
-3.091614917
 10
-74.3055343328
 20
-3.0956580294
 10
-74.3090515972
 20
-3.0997120821
 10
-74.3131121
 20
-3.1037780571
 10
-74.3178357009
 20
-3.1078569363
 10
-74.320347064
 20
-3.1098361743
 10
-74.3227778065
 20
-3.1118304475
 10
-74.3248642306
 20
-3.1138515439
 10
-74.3260444592
 20
-3.1153920602
 10
-74.3267714313
 20
-3.1169592685
 10
-74.3269338994
 20
-3.1185581419
 10
-74.326420616
 20
-3.1201936535
  0
LWPOLYLINE
  5
670
100
AcDbEntity
  8
CURVE
100
AcDbPolyline
 62
250
  6
CONTINUOUS
 90
18
 70
0
 10
-74.2682776677
 20
-3.0457840594
 10
-74.2768039171
 20
-3.0556693526
 10
-74.2847659602
 20
-3.0655840981
 10
-74.2919015017
 20
-3.0755322322
 10
-74.2953484131
 20
-3.0808793026
 10
-74.298766691
 20
-3.0862394217
 10
-74.3024404472
 20
-3.091614917
 10
-74.3055343328
 20
-3.0956580294
 10
-74.3090515972
 20
-3.0997120821
 10
-74.3131121
 20
-3.1037780571
 10
-74.3178357009
 20
-3.1078569363
 10
-74.320347064
 20
-3.1098361743
 10
-74.3227778065
 20
-3.1118304475
 10
-74.3248642306
 20
-3.1138515439
 10
-74.3260444592
 20
-3.1153920602
 10
-74.3267714313
 20
-3.1169592685
 10
-74.3269338994
 20
-3.1185581419
 10
-74.326420616
 20
-3.1201936535
  0
LWPOLYLINE
  5
671
100
AcDbEntity
  8
INTF_1
100
AcDbPolyline
 62
7
  6
CONTINUOUS
 90
15
 70
0
 10
-74.3256427903
 20
-3.1208796309
 10
-74.3247233186
 20
-3.1198626054
 10
-74.3244845831
 20
-3.1183864874
 10
-74.3246622839
 20
-3.116634376
 10
-74.3249921211
 20
-3.1147893701
 10
-74.3254866595
 20
-3.1100094976
 10
-74.325379144
 20
-3.1057174128
 10
-74.3249362325
 20
-3.1017022635
 10
-74.324424583
 20
-3.0977531973
 10
-74.3238400501
 20
-3.0889700347
 10
-74.3237966985
 20
-3.07979684
 10
-74.323936079
 20
-3.0705016186
 10
-74.3238735216
 20
-3.0520063455
 10
-74.3235225118
 20
-3.0337651404
 10
-74.322990607
 20
-2.9843856852
  0
LWPOLYLINE
  5
672
100
AcDbEntity
  8
CURVE
100
AcDbPolyline
 62
250
  6
CONTINUOUS
 90
15
 70
0
 10
-74.3256427903
 20
-3.1208796309
 10
-74.3247233186
 20
-3.1198626054
 10
-74.3244845831
 20
-3.1183864874
 10
-74.3246622839
 20
-3.116634376
 10
-74.3249921211
 20
-3.1147893701
 10
-74.3254866595
 20
-3.1100094976
 10
-74.325379144
 20
-3.1057174128
 10
-74.3249362325
 20
-3.1017022635
 10
-74.324424583
 20
-3.0977531973
 10
-74.3238400501
 20
-3.0889700347
 10
-74.3237966985
 20
-3.07979684
 10
-74.323936079
 20
-3.0705016186
 10
-74.3238735216
 20
-3.0520063455
 10
-74.3235225118
 20
-3.0337651404
 10
-74.322990607
 20
-2.9843856852
  0
LWPOLYLINE
  5
673
100
AcDbEntity
  8
INTF_1
100
AcDbPolyline
 62
7
  6
CONTINUOUS
 90
15
 70
0
 10
-74.3256462243
 20
-3.1195038019
 10
-74.3265694394
 20
-3.1205147635
 10
-74.3268104829
 20
-3.1219898534
 10
-74.3266341321
 20
-3.1237439734
 10
-74.3263051641
 20
-3.1255920254
 10
-74.3258127951
 20
-3.1303767842
 10
-74.3259224544
 20
-3.1346685192
 10
-74.3263674172
 20
-3.1386803482
 10
-74.3268809586
 20
-3.142625389
 10
-74.3274688526
 20
-3.1514041163
 10
-74.327514833
 20
-3.160577102
 10
-74.3273776886
 20
-3.1698734413
 10
-74.327444482
 20
-3.1883679903
 10
-74.3277994349
 20
-3.206605731
 10
-74.328340267
 20
-3.2559787658
  0
LWPOLYLINE
  5
674
100
AcDbEntity
  8
CURVE
100
AcDbPolyline
 62
250
  6
CONTINUOUS
 90
15
 70
0
 10
-74.3256462243
 20
-3.1195038019
 10
-74.3265694394
 20
-3.1205147635
 10
-74.3268104829
 20
-3.1219898534
 10
-74.3266341321
 20
-3.1237439734
 10
-74.3263051641
 20
-3.1255920254
 10
-74.3258127951
 20
-3.1303767842
 10
-74.3259224544
 20
-3.1346685192
 10
-74.3263674172
 20
-3.1386803482
 10
-74.3268809586
 20
-3.142625389
 10
-74.3274688526
 20
-3.1514041163
 10
-74.327514833
 20
-3.160577102
 10
-74.3273776886
 20
-3.1698734413
 10
-74.327444482
 20
-3.1883679903
 10
-74.3277994349
 20
-3.206605731
 10
-74.328340267
 20
-3.2559787658
  0
LINE
  5
675
100
AcDbEntity
  8
ASSI
100
AcDbLine
 62
7
  6
CONTINUOUS
 10
-66.5757329216
 20
6.629816905
 11
-66.0757329216
 21
7.129816905
  0
LINE
  5
676
100
AcDbEntity
  8
ASSI
100
AcDbLine
 62
7
  6
CONTINUOUS
 10
-61.5757329216
 20
11.129816905
 11
-62.0757329216
 21
10.629816905
  0
LINE
  5
677
100
AcDbEntity
  8
CURVE
100
AcDbLine
 62
250
  6
CONTINUOUS
 10
-73.5257329216
 20
0.9464839849
 11
-74.0828757455
 21
0.5750555906
  0
LINE
  5
678
100
AcDbEntity
  8
CURVE
100
AcDbLine
 62
250
  6
CONTINUOUS
 10
-56.2114471962
 20
11.2441027078
 11
-56.3971614709
 21
11.1512452993
  0
LINE
  5
679
100
AcDbEntity
  8
ASSI
100
AcDbLine
 62
7
  6
CONTINUOUS
 10
-55.1757329216
 20
3.629816905
 11
-55.1707613893
 21
3.629816905
  0
LINE
  5
67A
100
AcDbEntity
  8
ASSI
100
AcDbLine
 62
7
  6
CONTINUOUS
 10
-77.4757329216
 20
3.629816905
 11
-77.4807044539
 21
3.629816905
  0
LINE
  5
67B
100
AcDbEntity
  8
CURVE
100
AcDbLine
 62
250
  6
CONTINUOUS
 10
-74.8257329216
 20
3.6393407735
 11
-73.5257329216
 21
3.6393407735
  0
LINE
  5
67C
100
AcDbEntity
  8
ASSI
100
AcDbLine
 62
7
  6
CONTINUOUS
 10
-76.1257329216
 20
3.6581468914
 11
-76.1858348837
 21
3.6581468914
  0
LINE
  5
67D
100
AcDbEntity
  8
CURVE
100
AcDbLine
 62
250
  6
CONTINUOUS
 10
-58.6757329216
 20
3.879816905
 11
-60.5757329216
 21
3.879816905
  0
LINE
  5
67E
100
AcDbEntity
  8
CURVE
100
AcDbLine
 62
250
  6
CONTINUOUS
 10
-77.3989422574
 20
4.104217905
 11
-77.4495468243
 21
4.104217905
  0
LINE
  5
67F
100
AcDbEntity
  8
ASSI
100
AcDbLine
 62
7
  6
CONTINUOUS
 10
-76.1858070278
 20
4.129816905
 11
-76.1257329216
 21
4.129816905
  0
LINE
  5
680
100
AcDbEntity
  8
CURVE
100
AcDbLine
 62
250
  6
CONTINUOUS
 10
-77.4395531266
 20
4.469749905
 11
-77.3989422574
 21
4.469749905
  0
LINE
  5
681
100
AcDbEntity
  8
CURVE
100
AcDbLine
 62
250
  6
CONTINUOUS
 10
-74.8257329216
 20
4.5988646421
 11
-73.5257329216
 21
4.5988646421
  0
LINE
  5
682
100
AcDbEntity
  8
CURVE
100
AcDbLine
 62
250
  6
CONTINUOUS
 10
-56.0257329216
 20
5.0536259565
 11
-57.3257329216
 21
5.0536259565
  0
LINE
  5
683
100
AcDbEntity
  8
CURVE
100
AcDbLine
 62
250
  6
CONTINUOUS
 10
-61.1160109216
 20
-0.444561095
 11
-56.1057329216
 21
-5.381193095
  0
LINE
  5
684
100
AcDbEntity
  8
ASSI
100
AcDbLine
 62
7
  6
CONTINUOUS
 10
-59.4176731538
 20
-16.2503628353
 11
-59.3918130932
 21
-16.320183095
  0
LINE
  5
685
100
AcDbEntity
  8
ASSI
100
AcDbLine
 62
7
  6
CONTINUOUS
 10
-63.6089697025
 20
-16.7762535967
 11
-63.708139886
 21
-16.2473459518
  0
LINE
  5
686
100
AcDbEntity
  8
ASSI
100
AcDbLine
 62
7
  6
CONTINUOUS
 10
-66.0757329216
 20
1.879816905
 11
-66.0757329216
 21
5.879816905
  0
LINE
  5
687
100
AcDbEntity
  8
ASSI
100
AcDbLine
 62
7
  6
CONTINUOUS
 10
-66.0757329216
 20
7.129816905
 11
-66.0757329216
 21
10.629816905
  0
LINE
  5
688
100
AcDbEntity
  8
ASSI
100
AcDbLine
 62
7
  6
CONTINUOUS
 10
-66.0757329216
 20
12.129816905
 11
-66.0757329216
 21
15.629816905
  0
LINE
  5
689
100
AcDbEntity
  8
ASSI
100
AcDbLine
 62
7
  6
CONTINUOUS
 10
-66.0757329216
 20
17.129816905
 11
-66.0757329216
 21
20.629816905
  0
LINE
  5
68A
100
AcDbEntity
  8
CURVE
100
AcDbLine
 62
250
  6
CONTINUOUS
 10
-65.8543043067
 20
0.1708840735
 11
-65.8543043067
 21
0.6970745627
  0
LINE
  5
68B
100
AcDbEntity
  8
CURVE
100
AcDbLine
 62
250
  6
CONTINUOUS
 10
-65.6114471784
 20
-1.8934015684
 11
-65.6114471784
 21
-2.8648300819
  0
LINE
  5
68C
100
AcDbEntity
  8
CURVE
100
AcDbLine
 62
250
  6
CONTINUOUS
 10
-65.6114471784
 20
-3.4719730548
 11
-65.6114471784
 21
-4.4434015684
  0
LINE
  5
68D
100
AcDbEntity
  8
IMPORT_IGES
100
AcDbLine
 62
7
  6
CONTINUOUS
 10
-65.5297329216
 20
20.479816905
 11
-65.5297329216
 21
17.779816905
  0
LINE
  5
68E
100
AcDbEntity
  8
IMPORT_IGES
100
AcDbLine
 62
7
  6
CONTINUOUS
 10
-65.5297329216
 20
15.479816905
 11
-65.5297329216
 21
12.779816905
  0
LINE
  5
68F
100
AcDbEntity
  8
IMPORT_IGES
100
AcDbLine
 62
7
  6
CONTINUOUS
 10
-65.5297329216
 20
10.479816905
 11
-65.5297329216
 21
7.779816905
  0
LINE
  5
690
100
AcDbEntity
  8
IMPORT_IGES
100
AcDbLine
 62
7
  6
CONTINUOUS
 10
-65.5297329216
 20
5.479816905
 11
-65.5297329216
 21
2.779816905
  0
LINE
  5
691
100
AcDbEntity
  8
ASSI
100
AcDbLine
 62
7
  6
CONTINUOUS
 10
-64.4317863638
 20
23.079816905
 11
-64.4317863638
 21
23.1815624115
  0
LINE
  5
692
100
AcDbEntity
  8
ASSI
100
AcDbLine
 62
7
  6
CONTINUOUS
 10
-64.4230374975
 20
23.179816905
 11
-64.4230374975
 21
23.079816905
  0
LINE
  5
693
100
AcDbEntity
  8
ASSI
100
AcDbLine
 62
7
  6
CONTINUOUS
 10
-64.3606430515
 20
23.1647270348
 11
-64.3606430515
 21
23.079816905
  0
LINE
  5
694
100
AcDbEntity
  8
ASSI
100
AcDbLine
 62
7
  6
CONTINUOUS
 10
-69.0424961407
 20
-16.7762535967
 11
-68.9433259572
 21
-16.2473459518
  0
LINE
  5
695
100
AcDbEntity
  8
ASSI
100
AcDbLine
 62
7
  6
CONTINUOUS
 10
-73.2326744645
 20
-16.2473459518
 11
-73.25965275
 21
-16.320183095
  0
LINE
  5
696
100
AcDbEntity
  8
CURVE
100
AcDbLine
 62
250
  6
CONTINUOUS
 10
-56.2114471962
 20
13.1941027078
 11
-56.0257329216
 21
13.379816905
  0
LINE
  5
697
100
AcDbEntity
  8
CURVE
100
AcDbLine
 62
250
  6
CONTINUOUS
 10
-57.3257329216
 20
11.5226743135
 11
-57.1400186276
 21
11.7083885106
  0
LINE
  5
698
100
AcDbEntity
  8
IMPORT_IGES
100
AcDbLine
 62
7
  6
CONTINUOUS
 10
-62.0757329216
 20
5.8041026192
 11
-62.5297329216
 21
5.479816905
  0
LWPOLYLINE
  5
699
100
AcDbEntity
  8
CURVE
100
AcDbPolyline
 62
250
  6
CONTINUOUS
 90
15
 70
0
 10
-77.4350213533
 20
-0.0829031211
 10
-77.4347744034
 20
-0.0828071222
 10
-77.4345270029
 20
-0.0829688997
 10
-77.4342793887
 20
-0.0834088108
 10
-77.4340317979
 20
-0.0841472127
 10
-77.4337844674
 20
-0.0852044625
 10
-77.4335376344
 20
-0.0866009174
 10
-77.4332915357
 20
-0.0883569346
 10
-77.4330464086
 20
-0.0904928711
 10
-77.4328024899
 20
-0.0930290843
 10
-77.4325600167
 20
-0.0959859311
 10
-77.432319226
 20
-0.0993837688
 10
-77.4320803548
 20
-0.1032429546
 10
-77.4318436402
 20
-0.1075838455
 10
-77.4316411777
 20
-0.1117324203
  0
LINE
  5
69A
100
AcDbEntity
  8
CURVE
100
AcDbLine
 62
250
  6
CONTINUOUS
 10
-73.5257329216
 20
2.5250555906
 11
-74.8257329216
 21
2.1536259565
  0
LINE
  5
69B
100
AcDbEntity
  8
IMPORT_IGES
100
AcDbLine
 62
7
  6
CONTINUOUS
 10
-62.5297329216
 20
5.479816905
 11
-65.5297329216
 21
5.479816905
  0
LINE
  5
69C
100
AcDbEntity
  8
ASSI
100
AcDbLine
 62
7
  6
CONTINUOUS
 10
-76.1780663637
 20
5.629816905
 11
-76.1257329216
 21
5.629816905
  0
LINE
  5
69D
100
AcDbEntity
  8
CURVE
100
AcDbLine
 62
250
  6
CONTINUOUS
 10
-57.3257329216
 20
5.7036259565
 11
-56.0257329216
 21
5.7036259565
  0
LINE
  5
69E
100
AcDbEntity
  8
ASSI
100
AcDbLine
 62
7
  6
CONTINUOUS
 10
-66.0757329216
 20
5.879816905
 11
-62.0757329216
 21
5.879816905
  0
LINE
  5
69F
100
AcDbEntity
  8
ASSI
100
AcDbLine
 62
7
  6
CONTINUOUS
 10
-77.0388117998
 20
6.029816905
 11
-76.1257329216
 21
6.029816905
  0
LINE
  5
6A0
100
AcDbEntity
  8
CURVE
100
AcDbLine
 62
250
  6
CONTINUOUS
 10
-77.408509937
 20
6.049768905
 11
-77.4495468243
 21
6.049768905
  0
LINE
  5
6A1
100
AcDbEntity
  8
CURVE
100
AcDbLine
 62
250
  6
CONTINUOUS
 10
-56.3971614709
 20
6.0750555906
 11
-56.9543043336
 21
6.0750555906
  0
LINE
  5
6A2
100
AcDbEntity
  8
ASSI
100
AcDbLine
 62
7
  6
CONTINUOUS
 10
-55.1757329216
 20
6.129816905
 11
-55.1707613893
 21
6.129816905
  0
LINE
  5
6A3
100
AcDbEntity
  8
ASSI
100
AcDbLine
 62
7
  6
CONTINUOUS
 10
-77.4757329216
 20
6.129816905
 11
-77.4807044539
 21
6.129816905
  0
LINE
  5
6A4
100
AcDbEntity
  8
CURVE
100
AcDbLine
 62
250
  6
CONTINUOUS
 10
-74.8257329216
 20
6.2393407735
 11
-73.5257329216
 21
6.2393407735
  0
LINE
  5
6A5
100
AcDbEntity
  8
ASSI
100
AcDbLine
 62
7
  6
CONTINUOUS
 10
-66.5757329216
 20
6.379816905
 11
-61.5757329216
 21
6.379816905
  0
LINE
  5
6A6
100
AcDbEntity
  8
CURVE
100
AcDbLine
 62
250
  6
CONTINUOUS
 10
-77.4495468243
 20
6.415329905
 11
-77.3989422574
 21
6.415329905
  0
LINE
  5
6A7
100
AcDbEntity
  8
ASSI
100
AcDbLine
 62
7
  6
CONTINUOUS
 10
-61.5757329216
 20
6.629816905
 11
-66.5757329216
 21
6.629816905
  0
LINE
  5
6A8
100
AcDbEntity
  8
CURVE
100
AcDbLine
 62
250
  6
CONTINUOUS
 10
-56.9543043336
 20
6.7250555906
 11
-56.3971614709
 21
6.7250555906
  0
LINE
  5
6A9
100
AcDbEntity
  8
ASSI
100
AcDbLine
 62
7
  6
CONTINUOUS
 10
-77.0388117998
 20
6.729816905
 11
-76.1257329216
 21
6.729816905
  0
LINE
  5
6AA
100
AcDbEntity
  8
IMPORT_IGES
100
AcDbLine
 62
7
  6
CONTINUOUS
 10
-66.0757329216
 20
5.6217652963
 11
-65.5297329216
 21
5.479816905
  0
LINE
  5
6AB
100
AcDbEntity
  8
CURVE
100
AcDbLine
 62
250
  6
CONTINUOUS
 10
-56.7976079216
 20
2.339191905
 11
-56.9194829216
 21
2.379816905
  0
LINE
  5
6AC
100
AcDbEntity
  8
CURVE
100
AcDbLine
 62
250
  6
CONTINUOUS
 10
-56.2288579216
 20
2.217316905
 11
-56.3507329216
 21
2.257941905
  0
LINE
  5
6AD
100
AcDbEntity
  8
IMPORT_IGES
100
AcDbLine
 62
7
  6
CONTINUOUS
 10
-62.0757329216
 20
2.4555311907
 11
-62.5297329216
 21
2.779816905
  0
LINE
  5
6AE
100
AcDbEntity
  8
ASSI
100
AcDbLine
 62
7
  6
CONTINUOUS
 10
-66.5757329216
 20
6.379816905
 11
-66.0757329216
 21
5.879816905
  0
LINE
  5
6AF
100
AcDbEntity
  8
ASSI
100
AcDbLine
 62
7
  6
CONTINUOUS
 10
-61.5757329216
 20
1.379816905
 11
-62.0757329216
 21
1.879816905
  0
LINE
  5
6B0
100
AcDbEntity
  8
ASSI
100
AcDbLine
 62
7
  6
CONTINUOUS
 10
-73.2326744645
 20
26.0069797617
 11
-73.25965275
 21
26.079816905
  0
LINE
  5
6B1
100
AcDbEntity
  8
ASSI
100
AcDbLine
 62
7
  6
CONTINUOUS
 10
-69.0424961407
 20
26.5358874066
 11
-68.9433259572
 21
26.0069797617
  0
LINE
  5
6B2
100
AcDbEntity
  8
ASSI
100
AcDbLine
 62
7
  6
CONTINUOUS
 10
-61.5347909325
 20
-16.2473459518
 11
-61.6141401127
 21
-14.7332733967
  0
LINE
  5
6B3
100
AcDbEntity
  8
RACCORDO
100
AcDbLine
 62
250
  6
CONTINUOUS
 10
-63.3082182116
 20
-18.495183095
 11
-63.3492251634
 21
-17.3208976382
  0
LINE
  5
6B4
100
AcDbEntity
  8
RACCORDO
100
AcDbLine
 62
250
  6
CONTINUOUS
 10
-63.1103856575
 20
-18.295183095
 11
-63.1551835122
 21
-17.0123403826
  0
LINE
  5
6B5
100
AcDbEntity
  8
ASSI
100
AcDbLine
 62
7
  6
CONTINUOUS
 10
-64.3426425157
 20
22.379816905
 11
-64.3347557556
 21
22.138839739
  0
LINE
  5
6B6
100
AcDbEntity
  8
RACCORDO
100
AcDbLine
 62
7
  6
CONTINUOUS
 10
-63.0937223372
 20
-16.9910644565
 11
-63.0943910152
 21
-16.9652942761
  0
LINE
  5
6B7
100
AcDbEntity
  8
RACCORDO
100
AcDbLine
 62
7
  6
CONTINUOUS
 10
-63.0943910152
 20
-16.9652942761
 11
-63.0949101236
 21
-16.9366120606
  0
LINE
  5
6B8
100
AcDbEntity
  8
RACCORDO
100
AcDbLine
 62
7
  6
CONTINUOUS
 10
-63.0943910152
 20
26.3347057239
 11
-63.0949101236
 21
26.3633879394
  0
LINE
  5
6B9
100
AcDbEntity
  8
RACCORDO
100
AcDbLine
 62
7
  6
CONTINUOUS
 10
-63.0949101236
 20
-16.9366120606
 11
-63.0952733544
 21
-16.9061128163
  0
LINE
  5
6BA
100
AcDbEntity
  8
RACCORDO
100
AcDbLine
 62
7
  6
CONTINUOUS
 10
-63.0949101236
 20
26.3633879394
 11
-63.0952733544
 21
26.3938871837
  0
LINE
  5
6BB
100
AcDbEntity
  8
RACCORDO
100
AcDbLine
 62
7
  6
CONTINUOUS
 10
-63.0952733544
 20
-16.9061128163
 11
-63.0955467897
 21
-16.8595862469
  0
LINE
  5
6BC
100
AcDbEntity
  8
RACCORDO
100
AcDbLine
 62
7
  6
CONTINUOUS
 10
-63.0952733544
 20
26.3938871837
 11
-63.0955467897
 21
26.4404137531
  0
LINE
  5
6BD
100
AcDbEntity
  8
ASSI
100
AcDbLine
 62
7
  6
CONTINUOUS
 10
-64.3532015074
 20
-13.4219286015
 11
-64.3532015074
 21
-13.320183095
  0
LINE
  5
6BE
100
AcDbEntity
  8
ASSI
100
AcDbLine
 62
7
  6
CONTINUOUS
 10
-64.344452641
 20
-13.420183095
 11
-64.344452641
 21
-13.320183095
  0
LINE
  5
6BF
100
AcDbEntity
  8
ASSI
100
AcDbLine
 62
7
  6
CONTINUOUS
 10
-64.3257329216
 20
-12.620183095
 11
-64.3257329216
 21
-12.370183095
  0
LINE
  5
6C0
100
AcDbEntity
  8
ASSI
100
AcDbLine
 62
7
  6
CONTINUOUS
 10
-64.3257329216
 20
22.129816905
 11
-64.3257329216
 21
22.379816905
  0
LINE
  5
6C1
100
AcDbEntity
  8
ASSI
100
AcDbLine
 62
7
  6
CONTINUOUS
 10
-64.3257329216
 20
23.079816905
 11
-64.3257329216
 21
23.129816905
  0
LINE
  5
6C2
100
AcDbEntity
  8
0
100
AcDbLine
 62
7
  6
CONTINUOUS
 10
-64.2257329216
 20
23.079816905
 11
-64.2257329216
 21
23.129816905
  0
LINE
  5
6C3
100
AcDbEntity
  8
ASSI
100
AcDbLine
 62
7
  6
CONTINUOUS
 10
-63.8257329216
 20
23.4006234763
 11
-63.8257329216
 21
21.479816905
  0
LINE
  5
6C4
100
AcDbEntity
  8
ASSI
100
AcDbLine
 62
7
  6
CONTINUOUS
 10
-63.8257329216
 20
-11.720183095
 11
-63.8257329216
 21
-12.620183095
  0
LINE
  5
6C5
100
AcDbEntity
  8
ASSI
100
AcDbLine
 62
7
  6
CONTINUOUS
 10
-63.8257329216
 20
-13.320183095
 11
-63.8257329216
 21
-13.3827408046
  0
LINE
  5
6C6
100
AcDbEntity
  8
ASSI
100
AcDbLine
 62
7
  6
CONTINUOUS
 10
-63.6944999263
 20
-11.5889500997
 11
-63.6944999263
 21
-13.4838079829
  0
LINE
  5
6C7
100
AcDbEntity
  8
ASSI
100
AcDbLine
 62
7
  6
CONTINUOUS
 10
-63.2444800659
 20
27.079816905
 11
-63.2444800659
 21
26.0501435604
  0
LINE
  5
6C8
100
AcDbEntity
  8
ASSI
100
AcDbLine
 62
7
  6
CONTINUOUS
 10
-63.2444800659
 20
-17.320183095
 11
-63.2444800659
 21
-16.2905097505
  0
LINE
  5
6C9
100
AcDbEntity
  8
CURVE
100
AcDbLine
 62
250
  6
CONTINUOUS
 10
-63.2057329216
 20
-4.912545095
 11
-63.2057329216
 21
-0.727821095
  0
LINE
  5
6CA
100
AcDbEntity
  8
RACCORDO
100
AcDbLine
 62
250
  6
CONTINUOUS
 10
-63.1551835122
 20
26.7719741925
 11
-63.1551835122
 21
26.0584565052
  0
LINE
  5
6CB
100
AcDbEntity
  8
RACCORDO
100
AcDbLine
 62
250
  6
CONTINUOUS
 10
-63.1551835122
 20
-17.0123403826
 11
-63.1551835122
 21
-16.2988226953
  0
LINE
  5
6CC
100
AcDbEntity
  8
RACCORDO
100
AcDbLine
 62
7
  6
CONTINUOUS
 10
-63.0955744606
 20
-18.295183095
 11
-63.0955744606
 21
-17.6249986536
  0
LINE
  5
6CD
100
AcDbEntity
  8
RACCORDO
100
AcDbLine
 62
7
  6
CONTINUOUS
 10
-63.0955744606
 20
27.3846324635
 11
-63.0955744606
 21
28.054816905
  0
LINE
  5
6CE
100
AcDbEntity
  8
ASSI
100
AcDbLine
 62
7
  6
CONTINUOUS
 10
-63.0257329216
 20
-17.520183095
 11
-63.0257329216
 21
-17.0299907162
  0
LINE
  5
6CF
100
AcDbEntity
  8
RACCORDO
100
AcDbLine
 62
7
  6
CONTINUOUS
 10
-63.0257329216
 20
-16.5103754739
 11
-63.0257329216
 21
-16.3108737271
  0
LINE
  5
6D0
100
AcDbEntity
  8
RACCORDO
100
AcDbLine
 62
7
  6
CONTINUOUS
 10
-63.0257329216
 20
26.070507537
 11
-63.0257329216
 21
26.2700092838
  0
LINE
  5
6D1
100
AcDbEntity
  8
ASSI
100
AcDbLine
 62
7
  6
CONTINUOUS
 10
-63.0257329216
 20
26.7896245261
 11
-63.0257329216
 21
27.279816905
  0
LINE
  5
6D2
100
AcDbEntity
  8
ASSI
100
AcDbLine
 62
7
  6
CONTINUOUS
 10
-62.9623885579
 20
28.3466522816
 11
-62.9623885579
 21
27.379816905
  0
LINE
  5
6D3
100
AcDbEntity
  8
ASSI
100
AcDbLine
 62
7
  6
CONTINUOUS
 10
-62.9623885579
 20
-18.5870184717
 11
-62.9623885579
 21
-17.620183095
  0
LINE
  5
6D4
100
AcDbEntity
  8
ASSI
100
AcDbLine
 62
7
  6
CONTINUOUS
 10
-62.9257329216
 20
-16.320183095
 11
-62.9257329216
 21
-18.5503628353
  0
LINE
  5
6D5
100
AcDbEntity
  8
ASSI
100
AcDbLine
 62
7
  6
CONTINUOUS
 10
-62.9257329216
 20
26.079816905
 11
-62.9257329216
 21
28.3099966453
  0
LINE
  5
6D6
100
AcDbEntity
  8
RACCORDO
100
AcDbLine
 62
7
  6
CONTINUOUS
 10
-63.0955467897
 20
26.4404137531
 11
-63.095493622
 21
26.6325328435
  0
LINE
  5
6D7
100
AcDbEntity
  8
RACCORDO
100
AcDbLine
 62
7
  6
CONTINUOUS
 10
-63.0955467897
 20
-16.8595862469
 11
-63.095493622
 21
-16.6674671565
  0
LINE
  5
6D8
100
AcDbEntity
  8
RACCORDO
100
AcDbLine
 62
7
  6
CONTINUOUS
 10
-63.095493622
 20
26.6325328435
 11
-63.0952957238
 21
26.6632634235
  0
LINE
  5
6D9
100
AcDbEntity
  8
RACCORDO
100
AcDbLine
 62
7
  6
CONTINUOUS
 10
-63.095493622
 20
-16.6674671565
 11
-63.0952957238
 21
-16.6367365765
  0
LINE
  5
6DA
100
AcDbEntity
  8
RACCORDO
100
AcDbLine
 62
7
  6
CONTINUOUS
 10
-63.0952957238
 20
26.6632634235
 11
-63.094950744
 21
26.6934495616
  0
LINE
  5
6DB
100
AcDbEntity
  8
RACCORDO
100
AcDbLine
 62
7
  6
CONTINUOUS
 10
-63.0952957238
 20
-16.6367365765
 11
-63.094950744
 21
-16.6065504384
  0
LINE
  5
6DC
100
AcDbEntity
  8
RACCORDO
100
AcDbLine
 62
7
  6
CONTINUOUS
 10
-63.094950744
 20
26.6934495616
 11
-63.0944515366
 21
26.7221021788
  0
LINE
  5
6DD
100
AcDbEntity
  8
RACCORDO
100
AcDbLine
 62
7
  6
CONTINUOUS
 10
-63.094950744
 20
-16.6065504384
 11
-63.0944515366
 21
-16.5778978212
  0
LWPOLYLINE
  5
6DE
100
AcDbEntity
  8
RACCORDO
100
AcDbPolyline
 62
7
  6
CONTINUOUS
 90
12
 70
0
 10
-63.0944515366
 20
26.7221021788
 10
-63.0938010578
 20
26.7480929617
 10
-63.0934259759
 20
26.759842001
 10
-63.0930226316
 20
26.7706108027
 10
-63.0925879622
 20
26.7804572821
 10
-63.092118489
 20
26.7892809223
 10
-63.0916120712
 20
26.7971837903
 10
-63.0910708496
 20
26.8040638191
 10
-63.090497768
 20
26.8095142908
 10
-63.0898938076
 20
26.8133996325
 10
-63.0892579871
 20
26.8158554171
 10
-63.0885903067
 20
26.8168816445
  0
LINE
  5
6DF
100
AcDbEntity
  8
ASSI
100
AcDbLine
 62
7
  6
CONTINUOUS
 10
-64.3347557556
 20
-12.379205929
 11
-64.3426425157
 21
-12.620183095
  0
LINE
  5
6E0
100
AcDbEntity
  8
RACCORDO
100
AcDbLine
 62
250
  6
CONTINUOUS
 10
-63.3082182116
 20
28.254816905
 11
-63.3492251634
 21
27.0805314481
  0
LINE
  5
6E1
100
AcDbEntity
  8
RACCORDO
100
AcDbLine
 62
250
  6
CONTINUOUS
 10
-63.1103856575
 20
28.054816905
 11
-63.1551835122
 21
26.7719741925
  0
LINE
  5
6E2
100
AcDbEntity
  8
ASSI
100
AcDbLine
 62
7
  6
CONTINUOUS
 10
-61.5347909325
 20
26.0069797617
 11
-61.6141401127
 21
24.4929072067
  0
LINE
  5
6E3
100
AcDbEntity
  8
ASSI
100
AcDbLine
 62
250
  6
CONTINUOUS
 10
-70.5328599573
 20
-18.3832904568
 11
-70.5532755914
 21
-18.4535427525
  0
LINE
  5
6E4
100
AcDbEntity
  8
ASSI
100
AcDbLine
 62
250
  6
CONTINUOUS
 10
-69.9795239966
 20
-18.5503628353
 11
-70.0005903998
 21
-18.620183095
  0
LINE
  5
6E5
100
AcDbEntity
  8
CURVE
100
AcDbLine
 62
250
  6
CONTINUOUS
 10
-59.2828757575
 20
9.2698168975
 11
-59.7114472052
 21
8.6983883154
  0
LINE
  5
6E6
100
AcDbEntity
  8
ASSI
100
AcDbLine
 62
7
  6
CONTINUOUS
 10
-66.5757329216
 20
1.379816905
 11
-66.0757329216
 21
1.879816905
  0
LINE
  5
6E7
100
AcDbEntity
  8
ASSI
100
AcDbLine
 62
7
  6
CONTINUOUS
 10
-61.5757329216
 20
6.379816905
 11
-62.0757329216
 21
5.879816905
  0
LINE
  5
6E8
100
AcDbEntity
  8
CURVE
100
AcDbLine
 62
250
  6
CONTINUOUS
 10
-56.0257329216
 20
11.429816905
 11
-56.2114471962
 21
11.2441027078
  0
LINE
  5
6E9
100
AcDbEntity
  8
CURVE
100
AcDbLine
 62
250
  6
CONTINUOUS
 10
-66.5828757679
 20
0.7780269452
 11
-66.8257329216
 21
0.5351697914
  0
LINE
  5
6EA
100
AcDbEntity
  8
CURVE
100
AcDbLine
 62
250
  6
CONTINUOUS
 10
-74.2685900589
 20
-7.220183095
 11
-74.0828757455
 21
-7.0344688204
  0
LINE
  5
6EB
100
AcDbEntity
  8
CURVE
100
AcDbLine
 62
250
  6
CONTINUOUS
 10
-66.0971614858
 20
-0.0719730548
 11
-65.8543043067
 21
0.1708840735
  0
LINE
  5
6EC
100
AcDbEntity
  8
CURVE
100
AcDbLine
 62
250
  6
CONTINUOUS
 10
-57.1400186276
 20
6.6321975622
 11
-56.9543043336
 21
6.7250555906
  0
LINE
  5
6ED
100
AcDbEntity
  8
CURVE
100
AcDbLine
 62
250
  6
CONTINUOUS
 10
-56.2114471962
 20
6.1679123792
 11
-56.3971614709
 21
6.0750555906
  0
LWPOLYLINE
  5
6EE
100
AcDbEntity
  8
INTF_1
100
AcDbPolyline
 62
7
  6
CONTINUOUS
 90
54
 70
0
 10
-74.3257329216
 20
-1.120129786
 10
-74.3626718249
 20
-1.1329450821
 10
-74.399205304
 20
-1.1462476644
 10
-74.4353762129
 20
-1.1600715147
 10
-74.4712274056
 20
-1.174450615
 10
-74.5068017361
 20
-1.1894189471
 10
-74.5421420583
 20
-1.2050104931
 10
-74.5772912262
 20
-1.2212592348
 10
-74.6122920939
 20
-1.2381991541
 10
-74.6471875153
 20
-1.2558642331
 10
-74.6820203444
 20
-1.2742884535
 10
-74.7168334352
 20
-1.2935057973
 10
-74.7516696417
 20
-1.3135502465
 10
-74.7865718178
 20
-1.334455783
 10
-74.8215828176
 20
-1.3562563886
 10
-74.8402401166
 20
-1.3682153289
 10
-74.8589134674
 20
-1.3804349961
 10
-74.8775760945
 20
-1.3929137943
 10
-74.8962012228
 20
-1.4056501276
 10
-74.9147620767
 20
-1.4186424001
 10
-74.9332318812
 20
-1.4318890159
 10
-74.9515838607
 20
-1.445388379
 10
-74.96979124
 20
-1.4591388937
 10
-74.9878272438
 20
-1.473138964
 10
-75.0056650968
 20
-1.487386994
 10
-75.0232780235
 20
-1.5018813878
 10
-75.0406392489
 20
-1.5166205496
 10
-75.0577219974
 20
-1.5316028833
 10
-75.0744994938
 20
-1.5468267932
 10
-75.0909449627
 20
-1.5622906834
 10
-75.1070316289
 20
-1.5779929579
 10
-75.1227327171
 20
-1.5939320208
 10
-75.1380214518
 20
-1.6101062763
 10
-75.1528710578
 20
-1.6265141285
 10
-75.1672547598
 20
-1.6431539814
 10
-75.1811457825
 20
-1.6600242392
 10
-75.1945173505
 20
-1.6771233059
 10
-75.2073426885
 20
-1.6944495857
 10
-75.2195950212
 20
-1.7120014827
 10
-75.2312475732
 20
-1.729777401
 10
-75.2422735693
 20
-1.7477757447
 10
-75.2526462342
 20
-1.7659949179
 10
-75.2623387925
 20
-1.7844333246
 10
-75.2713244688
 20
-1.8030893691
 10
-75.279576488
 20
-1.8219614554
 10
-75.2870680746
 20
-1.8410479876
 10
-75.2937724534
 20
-1.8603473698
 10
-75.299662849
 20
-1.8798580061
 10
-75.304712486
 20
-1.8995783007
 10
-75.3088945893
 20
-1.9195066576
 10
-75.3121823835
 20
-1.9396414809
 10
-75.3145490932
 20
-1.9599811748
 10
-75.3159679431
 20
-1.9805241433
 10
-75.3164121579
 20
-2.0012687905
  0
LWPOLYLINE
  5
6EF
100
AcDbEntity
  8
CURVE
100
AcDbPolyline
 62
250
  6
CONTINUOUS
 90
54
 70
0
 10
-74.3257329216
 20
-1.120129786
 10
-74.3626718249
 20
-1.1329450821
 10
-74.399205304
 20
-1.1462476644
 10
-74.4353762129
 20
-1.1600715147
 10
-74.4712274056
 20
-1.174450615
 10
-74.5068017361
 20
-1.1894189471
 10
-74.5421420583
 20
-1.2050104931
 10
-74.5772912262
 20
-1.2212592348
 10
-74.6122920939
 20
-1.2381991541
 10
-74.6471875153
 20
-1.2558642331
 10
-74.6820203444
 20
-1.2742884535
 10
-74.7168334352
 20
-1.2935057973
 10
-74.7516696417
 20
-1.3135502465
 10
-74.7865718178
 20
-1.334455783
 10
-74.8215828176
 20
-1.3562563886
 10
-74.8402401166
 20
-1.3682153289
 10
-74.8589134674
 20
-1.3804349961
 10
-74.8775760945
 20
-1.3929137943
 10
-74.8962012228
 20
-1.4056501276
 10
-74.9147620767
 20
-1.4186424001
 10
-74.9332318812
 20
-1.4318890159
 10
-74.9515838607
 20
-1.445388379
 10
-74.96979124
 20
-1.4591388937
 10
-74.9878272438
 20
-1.473138964
 10
-75.0056650968
 20
-1.487386994
 10
-75.0232780235
 20
-1.5018813878
 10
-75.0406392489
 20
-1.5166205496
 10
-75.0577219974
 20
-1.5316028833
 10
-75.0744994938
 20
-1.5468267932
 10
-75.0909449627
 20
-1.5622906834
 10
-75.1070316289
 20
-1.5779929579
 10
-75.1227327171
 20
-1.5939320208
 10
-75.1380214518
 20
-1.6101062763
 10
-75.1528710578
 20
-1.6265141285
 10
-75.1672547598
 20
-1.6431539814
 10
-75.1811457825
 20
-1.6600242392
 10
-75.1945173505
 20
-1.6771233059
 10
-75.2073426885
 20
-1.6944495857
 10
-75.2195950212
 20
-1.7120014827
 10
-75.2312475732
 20
-1.729777401
 10
-75.2422735693
 20
-1.7477757447
 10
-75.2526462342
 20
-1.7659949179
 10
-75.2623387925
 20
-1.7844333246
 10
-75.2713244688
 20
-1.8030893691
 10
-75.279576488
 20
-1.8219614554
 10
-75.2870680746
 20
-1.8410479876
 10
-75.2937724534
 20
-1.8603473698
 10
-75.299662849
 20
-1.8798580061
 10
-75.304712486
 20
-1.8995783007
 10
-75.3088945893
 20
-1.9195066576
 10
-75.3121823835
 20
-1.9396414809
 10
-75.3145490932
 20
-1.9599811748
 10
-75.3159679431
 20
-1.9805241433
 10
-75.3164121579
 20
-2.0012687905
  0
LINE
  5
6F0
100
AcDbEntity
  8
IMPORT_IGES
100
AcDbLine
 62
7
  6
CONTINUOUS
 10
-65.5297329216
 20
7.779816905
 11
-66.0757329216
 21
7.6378685136
  0
LINE
  5
6F1
100
AcDbEntity
  8
CURVE
100
AcDbLine
 62
250
  6
CONTINUOUS
 10
-74.8257329216
 20
6.8893407735
 11
-73.5257329216
 21
6.8893407735
  0
LINE
  5
6F2
100
AcDbEntity
  8
CURVE
100
AcDbLine
 62
250
  6
CONTINUOUS
 10
-57.1400186276
 20
7.0964839849
 11
-56.7685900589
 21
7.0964839849
  0
LINE
  5
6F3
100
AcDbEntity
  8
ASSI
100
AcDbLine
 62
7
  6
CONTINUOUS
 10
-62.0757329216
 20
7.129816905
 11
-66.0757329216
 21
7.129816905
  0
LINE
  5
6F4
100
AcDbEntity
  8
CURVE
100
AcDbLine
 62
250
  6
CONTINUOUS
 10
-77.3989422574
 20
7.223507905
 11
-77.4495468243
 21
7.223507905
  0
LINE
  5
6F5
100
AcDbEntity
  8
IMPORT_IGES
100
AcDbLine
 62
7
  6
CONTINUOUS
 10
-62.0757329216
 20
7.279816905
 11
-66.0757329216
 21
7.279816905
  0
LINE
  5
6F6
100
AcDbEntity
  8
CURVE
100
AcDbLine
 62
250
  6
CONTINUOUS
 10
-74.8257329216
 20
7.4774362478
 11
-73.5257329216
 21
7.4774362478
  0
LINE
  5
6F7
100
AcDbEntity
  8
CURVE
100
AcDbLine
 62
250
  6
CONTINUOUS
 10
-77.4221178964
 20
7.609385905
 11
-77.4046121344
 21
7.609385905
  0
LINE
  5
6F8
100
AcDbEntity
  8
CURVE
100
AcDbLine
 62
250
  6
CONTINUOUS
 10
-77.4438769125
 20
7.609385905
 11
-77.4277882794
 21
7.609385905
  0
LINE
  5
6F9
100
AcDbEntity
  8
CURVE
100
AcDbLine
 62
250
  6
CONTINUOUS
 10
-56.5828757455
 20
7.6536259565
 11
-56.0257329216
 21
7.6536259565
  0
LINE
  5
6FA
100
AcDbEntity
  8
IMPORT_IGES
100
AcDbLine
 62
7
  6
CONTINUOUS
 10
-62.5297329216
 20
7.779816905
 11
-65.5297329216
 21
7.779816905
  0
LINE
  5
6FB
100
AcDbEntity
  8
CURVE
100
AcDbLine
 62
250
  6
CONTINUOUS
 10
-58.8409064327
 20
8.309816905
 11
-58.3209064327
 21
8.309816905
  0
LINE
  5
6FC
100
AcDbEntity
  8
CURVE
100
AcDbLine
 62
250
  6
CONTINUOUS
 10
-74.2685900589
 20
12.7083883169
 11
-73.5257329216
 21
12.3369597289
  0
LINE
  5
6FD
100
AcDbEntity
  8
ASSI
100
AcDbLine
 62
250
  6
CONTINUOUS
 10
-69.9795239966
 20
28.3099966453
 11
-70.0005903998
 21
28.379816905
  0
LINE
  5
6FE
100
AcDbEntity
  8
ASSI
100
AcDbLine
 62
250
  6
CONTINUOUS
 10
-70.5328599573
 20
28.1429242668
 11
-70.5532755914
 21
28.2131765624
  0
LWPOLYLINE
  5
6FF
100
AcDbEntity
  8
RACCORDO
100
AcDbPolyline
 62
7
  6
CONTINUOUS
 90
13
 70
0
 10
-63.1103856575
 20
28.054816905
 10
-63.1126178731
 20
28.0821323935
 10
-63.1184092359
 20
28.1083663808
 10
-63.1275104147
 20
28.13320487
 10
-63.1395659611
 20
28.1563747198
 10
-63.1542783121
 20
28.1776472533
 10
-63.1715288662
 20
28.1967853313
 10
-63.1911706082
 20
28.2136477517
 10
-63.2127474218
 20
28.2279470408
 10
-63.2356769832
 20
28.2392750887
 10
-63.259467345
 20
28.2474927554
 10
-63.283778908
 20
28.2526682516
 10
-63.3082182116
 20
28.254816905
  0
LINE
  5
700
100
AcDbEntity
  8
RACCORDO
100
AcDbLine
 62
7
  6
CONTINUOUS
 10
-63.0937223372
 20
26.3089355435
 11
-63.0943910152
 21
26.3347057239
  0
LINE
  5
701
100
AcDbEntity
  8
IMPORT_IGES
100
AcDbLine
 62
7
  6
CONTINUOUS
 10
-62.5297329216
 20
2.779816905
 11
-62.5297329216
 21
5.479816905
  0
LINE
  5
702
100
AcDbEntity
  8
IMPORT_IGES
100
AcDbLine
 62
7
  6
CONTINUOUS
 10
-62.5297329216
 20
7.779816905
 11
-62.5297329216
 21
10.479816905
  0
LINE
  5
703
100
AcDbEntity
  8
IMPORT_IGES
100
AcDbLine
 62
7
  6
CONTINUOUS
 10
-62.5297329216
 20
12.779816905
 11
-62.5297329216
 21
15.479816905
  0
LINE
  5
704
100
AcDbEntity
  8
IMPORT_IGES
100
AcDbLine
 62
7
  6
CONTINUOUS
 10
-62.5297329216
 20
17.779816905
 11
-62.5297329216
 21
20.479816905
  0
LINE
  5
705
100
AcDbEntity
  8
CURVE
100
AcDbLine
 62
250
  6
CONTINUOUS
 10
-62.2757329216
 20
-5.8325846698
 11
-62.2757329216
 21
-6.8492506066
  0
LINE
  5
706
100
AcDbEntity
  8
CURVE
100
AcDbLine
 62
250
  6
CONTINUOUS
 10
-62.1867209216
 20
-0.727821095
 11
-62.1867209216
 21
-4.912545095
  0
LINE
  5
707
100
AcDbEntity
  8
ASSI
100
AcDbLine
 62
7
  6
CONTINUOUS
 10
-62.0757329216
 20
20.629816905
 11
-62.0757329216
 21
17.129816905
  0
LINE
  5
708
100
AcDbEntity
  8
ASSI
100
AcDbLine
 62
7
  6
CONTINUOUS
 10
-62.0757329216
 20
15.629816905
 11
-62.0757329216
 21
12.129816905
  0
LINE
  5
709
100
AcDbEntity
  8
ASSI
100
AcDbLine
 62
7
  6
CONTINUOUS
 10
-62.0757329216
 20
10.629816905
 11
-62.0757329216
 21
7.129816905
  0
LINE
  5
70A
100
AcDbEntity
  8
ASSI
100
AcDbLine
 62
7
  6
CONTINUOUS
 10
-62.0757329216
 20
5.879816905
 11
-62.0757329216
 21
1.879816905
  0
LINE
  5
70B
100
AcDbEntity
  8
ASSI
100
AcDbLine
 62
7
  6
CONTINUOUS
 10
-61.5757329216
 20
21.129816905
 11
-61.5757329216
 21
16.629816905
  0
LINE
  5
70C
100
AcDbEntity
  8
ASSI
100
AcDbLine
 62
7
  6
CONTINUOUS
 10
-61.5757329216
 20
16.129816905
 11
-61.5757329216
 21
11.629816905
  0
LINE
  5
70D
100
AcDbEntity
  8
ASSI
100
AcDbLine
 62
7
  6
CONTINUOUS
 10
-61.5757329216
 20
11.129816905
 11
-61.5757329216
 21
6.629816905
  0
LINE
  5
70E
100
AcDbEntity
  8
ASSI
100
AcDbLine
 62
7
  6
CONTINUOUS
 10
-61.5757329216
 20
6.379816905
 11
-61.5757329216
 21
1.379816905
  0
LINE
  5
70F
100
AcDbEntity
  8
ASSI
100
AcDbLine
 62
7
  6
CONTINUOUS
 10
-61.5257329216
 20
26.0099966453
 11
-61.5257329216
 21
24.4929072067
  0
LINE
  5
710
100
AcDbEntity
  8
ASSI
100
AcDbLine
 62
7
  6
CONTINUOUS
 10
-61.5257329216
 20
-14.7332733967
 11
-61.5257329216
 21
-16.2503628353
  0
LWPOLYLINE
  5
711
100
AcDbEntity
  8
CURVE
100
AcDbPolyline
 62
250
  6
CONTINUOUS
 90
32
 70
0
 10
-61.2590658903
 20
-8.8825846691
 10
-61.2585678685
 20
-8.8366427331
 10
-61.2570648713
 20
-8.7907245667
 10
-61.2545435012
 20
-8.7448435247
 10
-61.2509903608
 20
-8.6990129622
 10
-61.2463920527
 20
-8.6532462339
 10
-61.2407351794
 20
-8.6075566949
 10
-61.2340063433
 20
-8.5619577002
 10
-61.2261921471
 20
-8.5164626045
 10
-61.2173799789
 20
-8.47154866
 10
-61.2075051979
 20
-8.4267783273
 10
-61.1965816943
 20
-8.382180339
 10
-61.1846233584
 20
-8.3377834279
 10
-61.1716440802
 20
-8.2936163265
 10
-61.1576577499
 20
-8.2497077676
 10
-61.1426782578
 20
-8.2060864837
 10
-61.126719494
 20
-8.1627812075
 10
-61.1097953486
 20
-8.1198206716
 10
-61.0919197119
 20
-8.0772336088
 10
-61.073106474
 20
-8.0350487517
 10
-61.053369525
 20
-7.9932948329
 10
-61.0327227552
 20
-7.9520005851
 10
-61.0111800547
 20
-7.9111947409
 10
-60.9887553137
 20
-7.8709060329
 10
-60.9654624224
 20
-7.8311631939
 10
-60.9413152709
 20
-7.7919949565
 10
-60.9163277494
 20
-7.7534300533
 10
-60.8905137481
 20
-7.715497217
 10
-60.8638871571
 20
-7.6782251802
 10
-60.8364618667
 20
-7.6416426756
 10
-60.8082517669
 20
-7.6057784359
 10
-60.779270748
 20
-7.5706611936
  0
LWPOLYLINE
  5
712
100
AcDbEntity
  8
RACCORDO
100
AcDbPolyline
 62
7
  6
CONTINUOUS
 90
12
 70
0
 10
-63.0944515366
 20
-16.5778978212
 10
-63.0938010578
 20
-16.5519070383
 10
-63.0934259759
 20
-16.540157999
 10
-63.0930226316
 20
-16.5293891973
 10
-63.0925879622
 20
-16.5195427179
 10
-63.092118489
 20
-16.5107190777
 10
-63.0916120712
 20
-16.5028162097
 10
-63.0910708496
 20
-16.4959361809
 10
-63.090497768
 20
-16.4904857092
 10
-63.0898938076
 20
-16.4866003675
 10
-63.0892579871
 20
-16.4841445829
 10
-63.0885903067
 20
-16.4831183555
  0
LWPOLYLINE
  5
713
100
AcDbEntity
  8
RACCORDO
100
AcDbPolyline
 62
7
  6
CONTINUOUS
 90
13
 70
0
 10
-63.1103856575
 20
-18.295183095
 10
-63.112622872
 20
-18.3222345725
 10
-63.1183933054
 20
-18.3484881632
 10
-63.1274779988
 20
-18.3734973842
 10
-63.1395712215
 20
-18.3967963071
 10
-63.1543815157
 20
-18.4181185654
 10
-63.1717248399
 20
-18.4373430911
 10
-63.1912773385
 20
-18.454156951
 10
-63.2127187704
 20
-18.4683252364
 10
-63.2359620558
 20
-18.4797598401
 10
-63.2607596035
 20
-18.4882179778
 10
-63.2866342936
 20
-18.4934188508
 10
-63.3131567542
 20
-18.495183095
  0
LINE
  5
714
100
AcDbEntity
  8
CURVE
100
AcDbLine
 62
250
  6
CONTINUOUS
 10
-58.5809064327
 20
8.7601501149
 11
-58.8409064327
 21
8.309816905
  0
LINE
  5
715
100
AcDbEntity
  8
CURVE
100
AcDbLine
 62
250
  6
CONTINUOUS
 10
-56.8304948171
 20
9.4488646421
 11
-57.0162091111
 21
9.2012452993
  0
LINE
  5
716
100
AcDbEntity
  8
CURVE
100
AcDbLine
 62
250
  6
CONTINUOUS
 10
-74.2685900589
 20
-9.820183095
 11
-74.0828757455
 21
-9.6344688979
  0
LINE
  5
717
100
AcDbEntity
  8
CURVE
100
AcDbLine
 62
250
  6
CONTINUOUS
 10
-74.8257329216
 20
-10.470183095
 11
-74.6400186276
 21
-10.2844688979
  0
LINE
  5
718
100
AcDbEntity
  8
CURVE
100
AcDbLine
 62
250
  6
CONTINUOUS
 10
-56.7685900589
 20
7.0964839849
 11
-56.5828757455
 21
7.2821975622
  0
LINE
  5
719
100
AcDbEntity
  8
CURVE
100
AcDbLine
 62
250
  6
CONTINUOUS
 10
-57.3257329216
 20
6.4464839849
 11
-57.1400186276
 21
6.6321975622
  0
LINE
  5
71A
100
AcDbEntity
  8
CURVE
100
AcDbLine
 62
250
  6
CONTINUOUS
 10
-57.0413579216
 20
2.379816905
 11
-57.1632329216
 21
2.339191905
  0
LINE
  5
71B
100
AcDbEntity
  8
CURVE
100
AcDbLine
 62
250
  6
CONTINUOUS
 10
-77.4277882794
 20
9.116245905
 11
-77.4221178964
 21
9.116245905
  0
LINE
  5
71C
100
AcDbEntity
  8
CURVE
100
AcDbLine
 62
250
  6
CONTINUOUS
 10
-77.4495468243
 20
9.225912905
 11
-77.4438769125
 21
9.225912905
  0
LINE
  5
71D
100
AcDbEntity
  8
CURVE
100
AcDbLine
 62
250
  6
CONTINUOUS
 10
-77.4046121344
 20
9.238091905
 11
-77.3989422574
 21
9.238091905
  0
LINE
  5
71E
100
AcDbEntity
  8
CURVE
100
AcDbLine
 62
250
  6
CONTINUOUS
 10
-74.8257329216
 20
9.6750549707
 11
-73.5257329216
 21
9.6750549707
  0
LINE
  5
71F
100
AcDbEntity
  8
CURVE
100
AcDbLine
 62
250
  6
CONTINUOUS
 10
-73.7114471962
 20
10.2012456092
 11
-74.6400186276
 21
10.2012456092
  0
LINE
  5
720
100
AcDbEntity
  8
CURVE
100
AcDbLine
 62
250
  6
CONTINUOUS
 10
-74.8257329216
 20
11.9655311796
 11
-73.5257329216
 21
11.5941025528
  0
LINE
  5
721
100
AcDbEntity
  8
CURVE
100
AcDbLine
 62
250
  6
CONTINUOUS
 10
-56.9543043336
 20
6.0750555906
 11
-57.1400186276
 21
6.1679123792
  0
LINE
  5
722
100
AcDbEntity
  8
CURVE
100
AcDbLine
 62
250
  6
CONTINUOUS
 10
-56.3971614709
 20
4.1250555906
 11
-57.3257329216
 21
4.6821975622
  0
LINE
  5
723
100
AcDbEntity
  8
IMPORT_IGES
100
AcDbLine
 62
7
  6
CONTINUOUS
 10
-62.0757329216
 20
7.4555311907
 11
-62.5297329216
 21
7.779816905
  0
LINE
  5
724
100
AcDbEntity
  8
CURVE
100
AcDbLine
 62
250
  6
CONTINUOUS
 10
-57.2038579216
 20
1.648566905
 11
-57.1226079216
 21
1.567316905
  0
LINE
  5
725
100
AcDbEntity
  8
ASSI
100
AcDbLine
 62
7
  6
CONTINUOUS
 10
-66.5757329216
 20
11.129816905
 11
-66.0757329216
 21
10.629816905
  0
LINE
  5
726
100
AcDbEntity
  8
ASSI
100
AcDbLine
 62
7
  6
CONTINUOUS
 10
-61.5757329216
 20
6.629816905
 11
-62.0757329216
 21
7.129816905
  0
LINE
  5
727
100
AcDbEntity
  8
CURVE
100
AcDbLine
 62
250
  6
CONTINUOUS
 10
-56.7163579216
 20
2.257941905
 11
-56.7976079216
 21
2.339191905
  0
LINE
  5
728
100
AcDbEntity
  8
CURVE
100
AcDbLine
 62
250
  6
CONTINUOUS
 10
-56.1476079216
 20
2.136066905
 11
-56.2288579216
 21
2.217316905
  0
LINE
  5
729
100
AcDbEntity
  8
CURVE
100
AcDbLine
 62
250
  6
CONTINUOUS
 10
-60.5757329216
 20
3.879816905
 11
-60.5757329216
 21
3.2012454602
  0
LINE
  5
72A
100
AcDbEntity
  8
CURVE
100
AcDbLine
 62
250
  6
CONTINUOUS
 10
-60.5726969216
 20
-2.219686095
 11
-60.5726969216
 21
-2.102066095
  0
LINE
  5
72B
100
AcDbEntity
  8
CURVE
100
AcDbLine
 62
250
  6
CONTINUOUS
 10
-60.3762489216
 20
-2.045357095
 11
-60.3762489216
 21
-3.391224095
  0
LINE
  5
72C
100
AcDbEntity
  8
CURVE
100
AcDbLine
 62
250
  6
CONTINUOUS
 10
-59.7614471992
 20
18.2012454602
 11
-59.7614471992
 21
18.879816905
  0
LINE
  5
72D
100
AcDbEntity
  8
CURVE
100
AcDbLine
 62
250
  6
CONTINUOUS
 10
-73.5257329216
 20
-10.5630401936
 11
-73.7114471962
 21
-10.7487543908
  0
LINE
  5
72E
100
AcDbEntity
  8
CURVE
100
AcDbLine
 62
250
  6
CONTINUOUS
 10
-65.6114471784
 20
-2.8648300819
 11
-65.7328757932
 21
-2.9862585954
  0
LINE
  5
72F
100
AcDbEntity
  8
CURVE
100
AcDbLine
 62
250
  6
CONTINUOUS
 10
-56.0257329216
 20
6.3536259565
 11
-56.2114471962
 21
6.1679123792
  0
LINE
  5
730
100
AcDbEntity
  8
CURVE
100
AcDbLine
 62
7
  6
CONTINUOUS
 10
-63.2057329216
 20
-0.8912999587
 11
-63.0422540579
 21
-0.727821095
  0
LINE
  5
731
100
AcDbEntity
  8
CURVE
100
AcDbLine
 62
7
  6
CONTINUOUS
 10
-63.2057329216
 20
-1.1013106728
 11
-62.8322433439
 21
-0.727821095
  0
LINE
  5
732
100
AcDbEntity
  8
CURVE
100
AcDbLine
 62
7
  6
CONTINUOUS
 10
-63.2057329216
 20
-1.3113213868
 11
-62.6222326299
 21
-0.727821095
  0
LINE
  5
733
100
AcDbEntity
  8
CURVE
100
AcDbLine
 62
7
  6
CONTINUOUS
 10
-63.2057329216
 20
-1.5213321008
 11
-62.4122219159
 21
-0.727821095
  0
LINE
  5
734
100
AcDbEntity
  8
CURVE
100
AcDbLine
 62
7
  6
CONTINUOUS
 10
-63.2057329216
 20
-1.7313428148
 11
-62.2022112018
 21
-0.727821095
  0
LINE
  5
735
100
AcDbEntity
  8
CURVE
100
AcDbLine
 62
7
  6
CONTINUOUS
 10
-63.2057329216
 20
-1.9413535288
 11
-62.1867209216
 21
-0.9223415288
  0
LINE
  5
736
100
AcDbEntity
  8
CURVE
100
AcDbLine
 62
250
  6
CONTINUOUS
 10
-65.6114471784
 20
-4.4434015684
 11
-65.7328757932
 21
-4.5648300819
  0
LINE
  5
737
100
AcDbEntity
  8
CURVE
100
AcDbLine
 62
250
  6
CONTINUOUS
 10
-56.3913579216
 20
2.257941905
 11
-56.4726079216
 21
2.217316905
  0
LWPOLYLINE
  5
738
100
AcDbEntity
  8
INTF_1
100
AcDbPolyline
 62
7
  6
CONTINUOUS
 90
54
 70
0
 10
-74.3257329216
 20
-5.1200776987
 10
-74.2887916517
 20
-5.1072622063
 10
-74.2522559345
 20
-5.0939596262
 10
-74.2160828537
 20
-5.0801359729
 10
-74.180229493
 20
-5.0657572606
 10
-74.144652936
 20
-5.0507895038
 10
-74.1093102664
 20
-5.0351987168
 10
-74.0741585678
 20
-5.018950914
 10
-74.0391549238
 20
-5.0020121098
 10
-74.0042564183
 20
-4.9843483185
 10
-73.9694201347
 20
-4.9659255545
 10
-73.9346031567
 20
-4.9467098322
 10
-73.8997625681
 20
-4.9266671659
 10
-73.8648554524
 20
-4.9057635701
 10
-73.8298388934
 20
-4.883965059
 10
-73.8111815354
 20
-4.8720093397
 10
-73.7925079568
 20
-4.859793017
 10
-73.7738449419
 20
-4.8473176786
 10
-73.7552192752
 20
-4.8345849127
 10
-73.736657741
 20
-4.8215963072
 10
-73.7181871238
 20
-4.80835345
 10
-73.699834208
 20
-4.7948579291
 10
-73.681625778
 20
-4.7811113325
 10
-73.6635886181
 20
-4.7671152481
 10
-73.6457495129
 20
-4.7528712639
 10
-73.6281352466
 20
-4.7383809679
 10
-73.6107726037
 20
-4.7236459481
 10
-73.5936883686
 20
-4.7086677924
 10
-73.5769093257
 20
-4.6934480887
 10
-73.5604622593
 20
-4.6779884251
 10
-73.544373954
 20
-4.6622903894
 10
-73.5286711941
 20
-4.6463555698
 10
-73.513380764
 20
-4.6301855541
 10
-73.4985294481
 20
-4.6137819303
 10
-73.4841440308
 20
-4.5971462864
 10
-73.4702512965
 20
-4.5802802103
 10
-73.4568780297
 20
-4.56318529
 10
-73.4440510147
 20
-4.5458631135
 10
-73.4317970359
 20
-4.5283152688
 10
-73.4201428777
 20
-4.5105433437
 10
-73.4091153245
 20
-4.4925489263
 10
-73.3987411608
 20
-4.4743336046
 10
-73.3890471709
 20
-4.4558989665
 10
-73.3800601393
 20
-4.4372465999
 10
-73.3718068503
 20
-4.4183780929
 10
-73.3643140884
 20
-4.3992950334
 10
-73.3576086379
 20
-4.3799990093
 10
-73.3517172832
 20
-4.3604916087
 10
-73.3466668089
 20
-4.3407744196
 10
-73.3424839991
 20
-4.3208490297
 10
-73.3391956385
 20
-4.3007170273
 10
-73.3368285113
 20
-4.2803800001
 10
-73.3354094019
 20
-4.2598395362
 10
-73.3349650949
 20
-4.2390972235
  0
LWPOLYLINE
  5
739
100
AcDbEntity
  8
CURVE
100
AcDbPolyline
 62
250
  6
CONTINUOUS
 90
54
 70
0
 10
-74.3257329216
 20
-5.1200776987
 10
-74.2887916517
 20
-5.1072622063
 10
-74.2522559345
 20
-5.0939596262
 10
-74.2160828537
 20
-5.0801359729
 10
-74.180229493
 20
-5.0657572606
 10
-74.144652936
 20
-5.0507895038
 10
-74.1093102664
 20
-5.0351987168
 10
-74.0741585678
 20
-5.018950914
 10
-74.0391549238
 20
-5.0020121098
 10
-74.0042564183
 20
-4.9843483185
 10
-73.9694201347
 20
-4.9659255545
 10
-73.9346031567
 20
-4.9467098322
 10
-73.8997625681
 20
-4.9266671659
 10
-73.8648554524
 20
-4.9057635701
 10
-73.8298388934
 20
-4.883965059
 10
-73.8111815354
 20
-4.8720093397
 10
-73.7925079568
 20
-4.859793017
 10
-73.7738449419
 20
-4.8473176786
 10
-73.7552192752
 20
-4.8345849127
 10
-73.736657741
 20
-4.8215963072
 10
-73.7181871238
 20
-4.80835345
 10
-73.699834208
 20
-4.7948579291
 10
-73.681625778
 20
-4.7811113325
 10
-73.6635886181
 20
-4.7671152481
 10
-73.6457495129
 20
-4.7528712639
 10
-73.6281352466
 20
-4.7383809679
 10
-73.6107726037
 20
-4.7236459481
 10
-73.5936883686
 20
-4.7086677924
 10
-73.5769093257
 20
-4.6934480887
 10
-73.5604622593
 20
-4.6779884251
 10
-73.544373954
 20
-4.6622903894
 10
-73.5286711941
 20
-4.6463555698
 10
-73.513380764
 20
-4.6301855541
 10
-73.4985294481
 20
-4.6137819303
 10
-73.4841440308
 20
-4.5971462864
 10
-73.4702512965
 20
-4.5802802103
 10
-73.4568780297
 20
-4.56318529
 10
-73.4440510147
 20
-4.5458631135
 10
-73.4317970359
 20
-4.5283152688
 10
-73.4201428777
 20
-4.5105433437
 10
-73.4091153245
 20
-4.4925489263
 10
-73.3987411608
 20
-4.4743336046
 10
-73.3890471709
 20
-4.4558989665
 10
-73.3800601393
 20
-4.4372465999
 10
-73.3718068503
 20
-4.4183780929
 10
-73.3643140884
 20
-4.3992950334
 10
-73.3576086379
 20
-4.3799990093
 10
-73.3517172832
 20
-4.3604916087
 10
-73.3466668089
 20
-4.3407744196
 10
-73.3424839991
 20
-4.3208490297
 10
-73.3391956385
 20
-4.3007170273
 10
-73.3368285113
 20
-4.2803800001
 10
-73.3354094019
 20
-4.2598395362
 10
-73.3349650949
 20
-4.2390972235
  0
LINE
  5
73A
100
AcDbEntity
  8
IMPORT_IGES
100
AcDbLine
 62
7
  6
CONTINUOUS
 10
-62.5297329216
 20
10.479816905
 11
-65.5297329216
 21
10.479816905
  0
LINE
  5
73B
100
AcDbEntity
  8
ASSI
100
AcDbLine
 62
7
  6
CONTINUOUS
 10
-66.0757329216
 20
10.629816905
 11
-62.0757329216
 21
10.629816905
  0
LINE
  5
73C
100
AcDbEntity
  8
CURVE
100
AcDbLine
 62
250
  6
CONTINUOUS
 10
-74.8257329216
 20
10.8512454543
 11
-73.5257329216
 21
10.8512454543
  0
LINE
  5
73D
100
AcDbEntity
  8
ASSI
100
AcDbLine
 62
7
  6
CONTINUOUS
 10
-77.0388117998
 20
11.029816905
 11
-76.1257329216
 21
11.029816905
  0
LINE
  5
73E
100
AcDbEntity
  8
ASSI
100
AcDbLine
 62
7
  6
CONTINUOUS
 10
-66.5757329216
 20
11.129816905
 11
-61.5757329216
 21
11.129816905
  0
LINE
  5
73F
100
AcDbEntity
  8
CURVE
100
AcDbLine
 62
250
  6
CONTINUOUS
 10
-56.3971614709
 20
11.1512452993
 11
-56.9543043336
 21
11.1512452993
  0
LINE
  5
740
100
AcDbEntity
  8
ASSI
100
AcDbLine
 62
7
  6
CONTINUOUS
 10
-61.5757329216
 20
11.629816905
 11
-66.5757329216
 21
11.629816905
  0
LINE
  5
741
100
AcDbEntity
  8
ASSI
100
AcDbLine
 62
7
  6
CONTINUOUS
 10
-77.0388117998
 20
11.729816905
 11
-76.1257329216
 21
11.729816905
  0
LINE
  5
742
100
AcDbEntity
  8
CURVE
100
AcDbLine
 62
250
  6
CONTINUOUS
 10
-56.9543043336
 20
11.8012452993
 11
-56.3971614709
 21
11.8012452993
  0
LINE
  5
743
100
AcDbEntity
  8
CURVE
100
AcDbLine
 62
250
  6
CONTINUOUS
 10
-77.3614836836
 20
11.879816905
 11
-77.375694929
 21
11.879816905
  0
LINE
  5
744
100
AcDbEntity
  8
IMPORT_IGES
100
AcDbLine
 62
7
  6
CONTINUOUS
 10
-66.0776936454
 20
10.6222750428
 11
-65.5297329216
 21
10.479816905
  0
LINE
  5
745
100
AcDbEntity
  8
CURVE
100
AcDbLine
 62
250
  6
CONTINUOUS
 10
-56.3971614709
 20
6.7250555906
 11
-56.2114471962
 21
6.6321975622
  0
LINE
  5
746
100
AcDbEntity
  8
CURVE
100
AcDbLine
 62
250
  6
CONTINUOUS
 10
-60.2957329216
 20
9.4499835099
 11
-58.3209064327
 21
8.309816905
  0
LINE
  5
747
100
AcDbEntity
  8
CURVE
100
AcDbLine
 62
250
  6
CONTINUOUS
 10
-57.2851079216
 20
1.770441905
 11
-57.2038579216
 21
1.648566905
  0
LWPOLYLINE
  5
748
100
AcDbEntity
  8
RACCORDO
100
AcDbPolyline
 62
250
  6
CONTINUOUS
 90
9
 70
0
 10
-63.1551835122
 20
26.7719741925
 10
-63.1574776382
 20
26.7901662011
 10
-63.1630524692
 20
26.8080550289
 10
-63.1718148475
 20
26.8253437268
 10
-63.1836180881
 20
26.8417446338
 10
-63.1982660813
 20
26.8569865547
 10
-63.2155178929
 20
26.8708186483
 10
-63.2350966149
 20
26.8830157768
 10
-63.2444800659
 20
26.8875186546
  0
LINE
  5
749
100
AcDbEntity
  8
DRAFT
100
AcDbLine
 62
7
  6
CONTINUOUS
 10
-57.867738601
 20
-15.4281774156
 11
-57.8582778567
 21
-15.970183095
  0
LWPOLYLINE
  5
74A
100
AcDbEntity
  8
CURVE
100
AcDbPolyline
 62
250
  6
CONTINUOUS
 90
42
 70
0
 10
-57.7007329227
 20
-8.8825846691
 10
-57.7013276034
 20
-8.8408922398
 10
-57.7031064031
 20
-8.7991462703
 10
-57.7060614581
 20
-8.7573834194
 10
-57.7101849048
 20
-8.7156403459
 10
-57.7154688794
 20
-8.6739537089
 10
-57.7219055185
 20
-8.6323601671
 10
-57.7294869582
 20
-8.5908963794
 10
-57.7382053349
 20
-8.5495990048
 10
-57.7480527851
 20
-8.5085047021
 10
-57.7590214449
 20
-8.4676501303
 10
-57.7711034509
 20
-8.4270719481
 10
-57.7842909392
 20
-8.3868068145
 10
-57.7985760463
 20
-8.3468913884
 10
-57.8139509086
 20
-8.3073623287
 10
-57.8304076622
 20
-8.2682562942
 10
-57.8479384437
 20
-8.2296099439
 10
-57.8665353893
 20
-8.1914599366
 10
-57.8861906354
 20
-8.1538429312
 10
-57.9068963184
 20
-8.1167955867
 10
-57.9286445745
 20
-8.0803545618
 10
-57.9514275401
 20
-8.0445565155
 10
-57.9757852831
 20
-8.0086469429
 10
-58.0011846268
 20
-7.9734709101
 10
-58.0275932141
 20
-7.9390511377
 10
-58.0549786879
 20
-7.9054103462
 10
-58.0833086912
 20
-7.8725712561
 10
-58.1125508669
 20
-7.8405565878
 10
-58.1426728579
 20
-7.8093890619
 10
-58.1736423071
 20
-7.7790913988
 10
-58.2054268575
 20
-7.7496863191
 10
-58.237994152
 20
-7.7211965433
 10
-58.2713118336
 20
-7.6936447919
 10
-58.3053475451
 20
-7.6670537854
 10
-58.3400689296
 20
-7.6414462442
 10
-58.3754436299
 20
-7.6168448889
 10
-58.4114392889
 20
-7.59327244
 10
-58.4480235496
 20
-7.5707516179
 10
-58.485164055
 20
-7.5493051433
 10
-58.5228284479
 20
-7.5289557365
 10
-58.5609843713
 20
-7.5097261181
 10
-58.5995994681
 20
-7.4916390086
  0
LINE
  5
74B
100
AcDbEntity
  8
CURVE
100
AcDbLine
 62
250
  6
CONTINUOUS
 10
-58.6757329216
 20
18.879816905
 11
-58.6757329216
 21
18.2012454602
  0
LINE
  5
74C
100
AcDbEntity
  8
CURVE
100
AcDbLine
 62
250
  6
CONTINUOUS
 10
-58.0574539216
 20
-3.431593095
 11
-58.0574539216
 21
-2.608253095
  0
LINE
  5
74D
100
AcDbEntity
  8
RACCORDO
100
AcDbLine
 62
7
  6
CONTINUOUS
 10
-57.8757329216
 20
25.179816905
 11
-57.8757329216
 21
24.7770824424
  0
LINE
  5
74E
100
AcDbEntity
  8
RACCORDO
100
AcDbLine
 62
7
  6
CONTINUOUS
 10
-57.8757329216
 20
-15.420183095
 11
-57.8757329216
 21
-15.0174486325
  0
LINE
  5
74F
100
AcDbEntity
  8
RACCORDO
100
AcDbLine
 62
7
  6
CONTINUOUS
 10
-57.8582778567
 20
25.729816905
 11
-57.8582778567
 21
24.7592772909
  0
LINE
  5
750
100
AcDbEntity
  8
RACCORDO
100
AcDbLine
 62
7
  6
CONTINUOUS
 10
-57.8582778567
 20
-14.999643481
 11
-57.8582778567
 21
-15.970183095
  0
LINE
  5
751
100
AcDbEntity
  8
CURVE
100
AcDbLine
 62
250
  6
CONTINUOUS
 10
-57.8418179216
 20
-2.608253095
 11
-57.8418179216
 21
-3.431593095
  0
LINE
  5
752
100
AcDbEntity
  8
CURVE
100
AcDbLine
 62
250
  6
CONTINUOUS
 10
-57.7494019216
 20
-4.238130095
 11
-57.7494019216
 21
-3.888070095
  0
LINE
  5
753
100
AcDbEntity
  8
DRAFT
100
AcDbLine
 62
7
  6
CONTINUOUS
 10
-57.8582778567
 20
25.729816905
 11
-57.867738601
 21
25.1878112256
  0
LINE
  5
754
100
AcDbEntity
  8
ASSI
100
AcDbLine
 62
7
  6
CONTINUOUS
 10
-62.9257329216
 20
-17.4499128248
 11
-62.9623885579
 21
-17.620183095
  0
LINE
  5
755
100
AcDbEntity
  8
ASSI
100
AcDbLine
 62
7
  6
CONTINUOUS
 10
-69.0424961407
 20
-16.7762535967
 11
-69.3227025184
 21
-17.320183095
  0
LINE
  5
756
100
AcDbEntity
  8
CURVE
100
AcDbLine
 62
7
  6
CONTINUOUS
 10
-63.2057329216
 20
-2.1513642428
 11
-62.1867209216
 21
-1.1323522428
  0
LINE
  5
757
100
AcDbEntity
  8
CURVE
100
AcDbLine
 62
7
  6
CONTINUOUS
 10
-63.2057329216
 20
-2.3613749568
 11
-62.1867209216
 21
-1.3423629568
  0
LINE
  5
758
100
AcDbEntity
  8
CURVE
100
AcDbLine
 62
7
  6
CONTINUOUS
 10
-63.2057329216
 20
-2.5713856708
 11
-62.1867209216
 21
-1.5523736708
  0
LINE
  5
759
100
AcDbEntity
  8
RACCORDO
100
AcDbLine
 62
250
  6
CONTINUOUS
 10
-75.9757329216
 20
-15.5202592475
 11
-75.9670053891
 21
-15.511531715
  0
LINE
  5
75A
100
AcDbEntity
  8
CURVE
100
AcDbLine
 62
7
  6
CONTINUOUS
 10
-63.2057329216
 20
-2.7813963848
 11
-62.1867209216
 21
-1.7623843848
  0
LINE
  5
75B
100
AcDbEntity
  8
CURVE
100
AcDbLine
 62
7
  6
CONTINUOUS
 10
-63.2057329216
 20
-2.9914070989
 11
-62.1867209216
 21
-1.9723950989
  0
LINE
  5
75C
100
AcDbEntity
  8
CURVE
100
AcDbLine
 62
7
  6
CONTINUOUS
 10
-63.2057329216
 20
-3.2014178129
 11
-62.1867209216
 21
-2.1824058129
  0
LINE
  5
75D
100
AcDbEntity
  8
CURVE
100
AcDbLine
 62
7
  6
CONTINUOUS
 10
-63.2057329216
 20
-3.4114285269
 11
-62.1867209216
 21
-2.3924165269
  0
LINE
  5
75E
100
AcDbEntity
  8
CURVE
100
AcDbLine
 62
7
  6
CONTINUOUS
 10
-63.2057329216
 20
-3.6214392409
 11
-62.1867209216
 21
-2.6024272409
  0
LINE
  5
75F
100
AcDbEntity
  8
CURVE
100
AcDbLine
 62
250
  6
CONTINUOUS
 10
-57.1632329216
 20
2.339191905
 11
-57.2444829216
 21
2.257941905
  0
LINE
  5
760
100
AcDbEntity
  8
RACCORDO
100
AcDbLine
 62
250
  6
CONTINUOUS
 10
-75.475809074
 20
-16.020183095
 11
-75.4670815416
 21
-16.0114555626
  0
LINE
  5
761
100
AcDbEntity
  8
CURVE
100
AcDbLine
 62
7
  6
CONTINUOUS
 10
-63.2057329216
 20
-3.8314499549
 11
-62.1867209216
 21
-2.8124379549
  0
LINE
  5
762
100
AcDbEntity
  8
DRAFT
100
AcDbLine
 62
7
  6
CONTINUOUS
 10
-74.7837272422
 20
-15.4281774156
 11
-74.7757329216
 21
-15.420183095
  0
LINE
  5
763
100
AcDbEntity
  8
CURVE
100
AcDbLine
 62
7
  6
CONTINUOUS
 10
-63.2057329216
 20
-4.0414606689
 11
-62.1867209216
 21
-3.0224486689
  0
LINE
  5
764
100
AcDbEntity
  8
CURVE
100
AcDbLine
 62
7
  6
CONTINUOUS
 10
-63.2057329216
 20
-4.2514713829
 11
-62.1867209216
 21
-3.2324593829
  0
LINE
  5
765
100
AcDbEntity
  8
CURVE
100
AcDbLine
 62
7
  6
CONTINUOUS
 10
-63.2057329216
 20
-4.4614820969
 11
-62.1867209216
 21
-3.4424700969
  0
LINE
  5
766
100
AcDbEntity
  8
CURVE
100
AcDbLine
 62
250
  6
CONTINUOUS
 10
-56.4726079216
 20
2.217316905
 11
-56.5132329216
 21
2.176691905
  0
LINE
  5
767
100
AcDbEntity
  8
IMPORT_IGES
100
AcDbLine
 62
7
  6
CONTINUOUS
 10
-65.5297329216
 20
12.779816905
 11
-66.0757329216
 21
12.6378685136
  0
LINE
  5
768
100
AcDbEntity
  8
ASSI
100
AcDbLine
 62
7
  6
CONTINUOUS
 10
-62.0757329216
 20
12.129816905
 11
-66.0757329216
 21
12.129816905
  0
LINE
  5
769
100
AcDbEntity
  8
IMPORT_IGES
100
AcDbLine
 62
7
  6
CONTINUOUS
 10
-62.0757329216
 20
12.279816905
 11
-66.0757329216
 21
12.279816905
  0
LINE
  5
76A
100
AcDbEntity
  8
CURVE
100
AcDbLine
 62
250
  6
CONTINUOUS
 10
-73.5257329216
 20
12.3369597289
 11
-74.8257329216
 21
12.3369597289
  0
LINE
  5
76B
100
AcDbEntity
  8
CURVE
100
AcDbLine
 62
250
  6
CONTINUOUS
 10
-57.3257329216
 20
12.3893407735
 11
-56.6757329216
 21
12.3893407735
  0
LINE
  5
76C
100
AcDbEntity
  8
CURVE
100
AcDbLine
 62
250
  6
CONTINUOUS
 10
-77.3989422574
 20
12.552329905
 11
-77.4495468243
 21
12.552329905
  0
LINE
  5
76D
100
AcDbEntity
  8
IMPORT_IGES
100
AcDbLine
 62
7
  6
CONTINUOUS
 10
-62.5297329216
 20
12.779816905
 11
-65.5297329216
 21
12.779816905
  0
LINE
  5
76E
100
AcDbEntity
  8
CURVE
100
AcDbLine
 62
250
  6
CONTINUOUS
 10
-77.375694929
 20
12.829816905
 11
-77.3614836836
 21
12.829816905
  0
LINE
  5
76F
100
AcDbEntity
  8
CURVE
100
AcDbLine
 62
250
  6
CONTINUOUS
 10
-60.5757329216
 20
12.929816905
 11
-58.6757329216
 21
12.929816905
  0
LINE
  5
770
100
AcDbEntity
  8
CURVE
100
AcDbLine
 62
250
  6
CONTINUOUS
 10
-77.4438769125
 20
12.938178905
 11
-77.4277882794
 21
12.938178905
  0
LINE
  5
771
100
AcDbEntity
  8
CURVE
100
AcDbLine
 62
250
  6
CONTINUOUS
 10
-77.4221178964
 20
12.938178905
 11
-77.4046121344
 21
12.938178905
  0
LINE
  5
772
100
AcDbEntity
  8
CURVE
100
AcDbLine
 62
250
  6
CONTINUOUS
 10
-74.8257329216
 20
13.079816905
 11
-73.5257329216
 21
13.079816905
  0
LINE
  5
773
100
AcDbEntity
  8
CURVE
100
AcDbLine
 62
250
  6
CONTINUOUS
 10
-56.3971614709
 20
13.1941027078
 11
-56.2114471962
 21
13.1941027078
  0
LINE
  5
774
100
AcDbEntity
  8
CURVE
100
AcDbLine
 62
250
  6
CONTINUOUS
 10
-77.3804320105
 20
13.3726740155
 11
-77.3709578476
 21
13.3726740155
  0
LINE
  5
775
100
AcDbEntity
  8
CURVE
100
AcDbLine
 62
250
  6
CONTINUOUS
 10
-57.3257329216
 20
10.4083885106
 11
-56.0257329216
 21
10.0369594964
  0
LWPOLYLINE
  5
776
100
AcDbEntity
  8
CURVE
100
AcDbPolyline
 62
250
  6
CONTINUOUS
 90
17
 70
0
 10
-77.4192034059
 20
17.6029026605
 10
-77.4185927306
 20
17.6027123418
 10
-77.4179820279
 20
17.6021080422
 10
-77.417371466
 20
17.6010397469
 10
-77.4167612132
 20
17.5994574409
 10
-77.4161514376
 20
17.597311109
 10
-77.4155423073
 20
17.5945507363
 10
-77.4149339906
 20
17.5911263079
 10
-77.4143266555
 20
17.5869878086
 10
-77.4137204703
 20
17.5820852236
 10
-77.4131156032
 20
17.5763685378
 10
-77.4125122222
 20
17.5697877362
 10
-77.4119104957
 20
17.5622928038
 10
-77.4114437508
 20
17.5557983858
 10
-77.4109788444
 20
17.5486992344
 10
-77.410516512
 20
17.5409741054
 10
-77.4100574891
 20
17.5326017547
  0
LINE
  5
777
100
AcDbEntity
  8
IMPORT_IGES
100
AcDbLine
 62
7
  6
CONTINUOUS
 10
-62.0757329216
 20
12.4555311907
 11
-62.5297329216
 21
12.779816905
  0
LINE
  5
778
100
AcDbEntity
  8
CURVE
100
AcDbLine
 62
250
  6
CONTINUOUS
 10
-57.1400186276
 20
6.1679123792
 11
-57.3257329216
 21
6.3536259565
  0
LINE
  5
779
100
AcDbEntity
  8
RACCORDO
100
AcDbLine
 62
250
  6
CONTINUOUS
 10
-75.9757329216
 20
25.2798930574
 11
-75.9670053891
 21
25.2711655249
  0
LINE
  5
77A
100
AcDbEntity
  8
ASSI
100
AcDbLine
 62
7
  6
CONTINUOUS
 10
-66.5757329216
 20
16.129816905
 11
-66.0757329216
 21
15.629816905
  0
LINE
  5
77B
100
AcDbEntity
  8
CURVE
100
AcDbLine
 62
250
  6
CONTINUOUS
 10
-57.3257329216
 20
7.2821975622
 11
-57.1400186276
 21
7.0964839849
  0
LINE
  5
77C
100
AcDbEntity
  8
ASSI
100
AcDbLine
 62
7
  6
CONTINUOUS
 10
-61.5757329216
 20
11.629816905
 11
-62.0757329216
 21
12.129816905
  0
LINE
  5
77D
100
AcDbEntity
  8
RACCORDO
100
AcDbLine
 62
250
  6
CONTINUOUS
 10
-75.475809074
 20
25.779816905
 11
-75.4670815416
 21
25.7710893725
  0
LINE
  5
77E
100
AcDbEntity
  8
DRAFT
100
AcDbLine
 62
7
  6
CONTINUOUS
 10
-74.7837272422
 20
25.1878112256
 11
-74.7757329216
 21
25.179816905
  0
LINE
  5
77F
100
AcDbEntity
  8
CURVE
100
AcDbLine
 62
250
  6
CONTINUOUS
 10
-56.2114471962
 20
6.6321975622
 11
-56.0257329216
 21
6.4464839849
  0
LINE
  5
780
100
AcDbEntity
  8
CURVE
100
AcDbLine
 62
250
  6
CONTINUOUS
 10
-58.3209064327
 20
8.309816905
 11
-58.5809064327
 21
8.7601501149
  0
LINE
  5
781
100
AcDbEntity
  8
ASSI
100
AcDbLine
 62
7
  6
CONTINUOUS
 10
-69.0424961407
 20
26.5358874066
 11
-69.3227025184
 21
27.079816905
  0
LINE
  5
782
100
AcDbEntity
  8
CURVE
100
AcDbLine
 62
250
  6
CONTINUOUS
 10
-56.6351079216
 20
2.095441905
 11
-56.7163579216
 21
2.257941905
  0
LINE
  5
783
100
AcDbEntity
  8
CURVE
100
AcDbLine
 62
250
  6
CONTINUOUS
 10
-59.497161459
 20
9.7698169068
 11
-59.2828757575
 21
9.2698168975
  0
LINE
  5
784
100
AcDbEntity
  8
CURVE
100
AcDbLine
 62
250
  6
CONTINUOUS
 10
-59.7114472052
 20
8.6983883154
 11
-59.497161459
 21
8.1269596887
  0
LINE
  5
785
100
AcDbEntity
  8
CURVE
100
AcDbLine
 62
250
  6
CONTINUOUS
 10
-56.1069829216
 20
2.014191905
 11
-56.1476079216
 21
2.136066905
  0
LINE
  5
786
100
AcDbEntity
  8
CURVE
100
AcDbLine
 62
250
  6
CONTINUOUS
 10
-57.3257329216
 20
1.932941905
 11
-57.2851079216
 21
1.770441905
  0
LINE
  5
787
100
AcDbEntity
  8
CURVE
100
AcDbLine
 62
250
  6
CONTINUOUS
 10
-56.5944829216
 20
1.932941905
 11
-56.6351079216
 21
2.095441905
  0
LINE
  5
788
100
AcDbEntity
  8
ASSI
100
AcDbLine
 62
7
  6
CONTINUOUS
 10
-62.9257329216
 20
27.2095466347
 11
-62.9623885579
 21
27.379816905
  0
LWPOLYLINE
  5
789
100
AcDbEntity
  8
CURVE
100
AcDbPolyline
 62
250
  6
CONTINUOUS
 90
57
 70
0
 10
-56.5786165895
 20
-2.6632557654
 10
-56.5802919032
 20
-2.6257850161
 10
-56.5826261572
 20
-2.5882367084
 10
-56.5856063701
 20
-2.5506651285
 10
-56.58921956
 20
-2.5131245626
 10
-56.5934527452
 20
-2.475669297
 10
-56.598292944
 20
-2.4383536178
 10
-56.6037271748
 20
-2.4012318114
 10
-56.6097424557
 20
-2.3643581639
 10
-56.6163258052
 20
-2.3277869614
 10
-56.6234642414
 20
-2.2915724903
 10
-56.6283420966
 20
-2.2685258922
 10
-56.633486928
 20
-2.2456191353
 10
-56.6389422212
 20
-2.2228226127
 10
-56.6447514615
 20
-2.2001067178
 10
-56.6509581345
 20
-2.1774418436
 10
-56.6576057255
 20
-2.1547983834
 10
-56.6647377201
 20
-2.1321467303
 10
-56.6723976038
 20
-2.1094572775
 10
-56.6806288618
 20
-2.0867004183
 10
-56.6894749798
 20
-2.0638465457
 10
-56.6989794432
 20
-2.040866053
 10
-56.7091857375
 20
-2.0177293334
 10
-56.720137348
 20
-1.9944067799
 10
-56.7259260364
 20
-1.9826296864
 10
-56.7319129898
 20
-1.9708232252
 10
-56.7380978746
 20
-1.9590122709
 10
-56.7444803574
 20
-1.9472216976
 10
-56.7510601046
 20
-1.9354763799
 10
-56.7578367825
 20
-1.9238011921
 10
-56.7648100577
 20
-1.9122210086
 10
-56.7719795965
 20
-1.9007607039
 10
-56.7793450654
 20
-1.8894451522
 10
-56.7869061308
 20
-1.878299228
 10
-56.7946624592
 20
-1.8673478057
 10
-56.802613717
 20
-1.8566157596
 10
-56.8107595706
 20
-1.8461279642
 10
-56.8190996865
 20
-1.8359092939
 10
-56.8276337311
 20
-1.8259846229
 10
-56.8363613708
 20
-1.8163788258
 10
-56.8452822722
 20
-1.8071167769
 10
-56.8543961015
 20
-1.7982233506
 10
-56.8637025252
 20
-1.7897234213
 10
-56.8732012099
 20
-1.7816418633
 10
-56.8828918218
 20
-1.7740035511
 10
-56.8927740275
 20
-1.7668333591
 10
-56.9028474934
 20
-1.7601561616
 10
-56.9131118859
 20
-1.753996833
 10
-56.9235668714
 20
-1.7483802478
 10
-56.9342121165
 20
-1.7433312802
 10
-56.9450472875
 20
-1.7388748048
 10
-56.9560720508
 20
-1.7350356958
 10
-56.9672860729
 20
-1.7318388278
 10
-56.9786890203
 20
-1.729309075
 10
-56.9902805593
 20
-1.7274713118
 10
-57.0020603564
 20
-1.7263504127
 10
-57.0140280781
 20
-1.725971252
  0
LWPOLYLINE
  5
78A
100
AcDbEntity
  8
CURVE
100
AcDbPolyline
 62
250
  6
CONTINUOUS
 90
62
 70
0
 10
-56.1757329231
 20
-8.8825846691
 10
-56.1777669305
 20
-8.7723786882
 10
-56.1838499707
 20
-8.6621100369
 10
-56.1939535709
 20
-8.5519515336
 10
-56.2080492585
 20
-8.4420759971
 10
-56.2261085604
 20
-8.332656246
 10
-56.248103004
 20
-8.2238650989
 10
-56.2740041165
 20
-8.1158753744
 10
-56.303783425
 20
-8.0088598912
 10
-56.3374124568
 20
-7.9029914679
 10
-56.374862739
 20
-7.7984429232
 10
-56.4161057989
 20
-7.6953870757
 10
-56.4594649337
 20
-7.5975087858
 10
-56.5062529849
 20
-7.5012808543
 10
-56.5563936506
 20
-7.4068027566
 10
-56.6098106291
 20
-7.314173968
 10
-56.6664276183
 20
-7.2234939638
 10
-56.7261683166
 20
-7.1348622196
 10
-56.7889564219
 20
-7.0483782106
 10
-56.8547156325
 20
-6.9641414122
 10
-56.9233696465
 20
-6.8822512998
 10
-56.994842162
 20
-6.8028073487
 10
-57.0690568772
 20
-6.7259090343
 10
-57.145958433
 20
-6.6516287556
 10
-57.2254223701
 20
-6.5800765402
 10
-57.3073434153
 20
-6.5113335964
 10
-57.3916162952
 20
-6.4454811325
 10
-57.4781357366
 20
-6.3826003564
 10
-57.5667964662
 20
-6.3227724766
 10
-57.6574932106
 20
-6.2660787011
 10
-57.7501206966
 20
-6.2126002382
 10
-57.8445736509
 20
-6.162418296
 10
-57.9407468002
 20
-6.1156140827
 10
-58.0385348712
 20
-6.0722688065
 10
-58.1414122907
 20
-6.0310920133
 10
-58.2457570452
 20
-5.9937334287
 10
-58.3514166683
 20
-5.960212805
 10
-58.4582386933
 20
-5.9305498943
 10
-58.5660706535
 20
-5.9047644488
 10
-58.6747600822
 20
-5.8828762208
 10
-58.784154513
 20
-5.8649049625
 10
-58.894101479
 20
-5.850870426
 10
-59.0044485136
 20
-5.8407923636
 10
-59.1150431503
 20
-5.8346905275
 10
-59.2257329224
 20
-5.8325846698
 10
-59.3332861685
 20
-5.8343816142
 10
-59.4406629917
 20
-5.8399611002
 10
-59.5477411482
 20
-5.8493107249
 10
-59.6543983943
 20
-5.8624180859
 10
-59.7605124861
 20
-5.8792707802
 10
-59.86596118
 20
-5.8998564052
 10
-59.9706222322
 20
-5.9241625583
 10
-60.0743733988
 20
-5.9521768366
 10
-60.1770924362
 20
-5.9838868374
 10
-60.2873309809
 20
-6.0224815095
 10
-60.396029232
 20
-6.0653179968
 10
-60.5030083814
 20
-6.1122939503
 10
-60.6080896208
 20
-6.163307021
 10
-60.7110941419
 20
-6.2182548601
 10
-60.8118431366
 20
-6.2770351184
 10
-60.9101577967
 20
-6.3395454471
 10
-61.0058593139
 20
-6.4056834973
  0
LINE
  5
78B
100
AcDbEntity
  8
CURVE
100
AcDbLine
 62
250
  6
CONTINUOUS
 10
-57.3769379216
 20
-3.888070095
 11
-57.3769379216
 21
-4.238130095
  0
LINE
  5
78C
100
AcDbEntity
  8
CURVE
100
AcDbLine
 62
250
  6
CONTINUOUS
 10
-57.3257329216
 20
7.6536259565
 11
-57.3257329216
 21
7.2821975622
  0
LINE
  5
78D
100
AcDbEntity
  8
CURVE
100
AcDbLine
 62
250
  6
CONTINUOUS
 10
-57.3257329216
 20
4.6821975622
 11
-57.3257329216
 21
4.1250555906
  0
LINE
  5
78E
100
AcDbEntity
  8
CURVE
100
AcDbLine
 62
250
  6
CONTINUOUS
 10
-57.3257329216
 20
2.054816905
 11
-57.3257329216
 21
1.932941905
  0
LINE
  5
78F
100
AcDbEntity
  8
CURVE
100
AcDbLine
 62
250
  6
CONTINUOUS
 10
-57.3257329216
 20
6.3536259565
 11
-57.3257329216
 21
6.4464839849
  0
LINE
  5
790
100
AcDbEntity
  8
CURVE
100
AcDbLine
 62
250
  6
CONTINUOUS
 10
-57.3257329216
 20
11.429816905
 11
-57.3257329216
 21
11.5226743135
  0
LINE
  5
791
100
AcDbEntity
  8
CURVE
100
AcDbLine
 62
250
  6
CONTINUOUS
 10
-57.3257329216
 20
13.1941027078
 11
-57.3257329216
 21
13.8441027078
  0
LINE
  5
792
100
AcDbEntity
  8
CURVE
100
AcDbLine
 62
250
  6
CONTINUOUS
 10
-57.3257329216
 20
17.4655312571
 11
-57.3257329216
 21
17.5583883557
  0
LINE
  5
793
100
AcDbEntity
  8
CURVE
100
AcDbLine
 62
250
  6
CONTINUOUS
 10
-57.3257329216
 20
18.2083883557
 11
-57.3257329216
 21
18.8583883557
  0
LINE
  5
794
100
AcDbEntity
  8
CURVE
100
AcDbLine
 62
250
  6
CONTINUOUS
 10
-57.3257329216
 20
19.229816905
 11
-57.3257329216
 21
19.879816905
  0
LINE
  5
795
100
AcDbEntity
  8
CURVE
100
AcDbLine
 62
250
  6
CONTINUOUS
 10
-57.0471614903
 20
12.1726743135
 11
-57.0471614903
 21
12.8226743135
  0
LINE
  5
796
100
AcDbEntity
  8
CURVE
100
AcDbLine
 62
250
  6
CONTINUOUS
 10
-57.0140279216
 20
-1.510210095
 11
-57.0140279216
 21
-3.948117095
  0
LINE
  5
797
100
AcDbEntity
  8
CURVE
100
AcDbLine
 62
250
  6
CONTINUOUS
 10
-56.8614471962
 20
15.7941027078
 11
-56.8614471962
 21
15.2369598064
  0
LINE
  5
798
100
AcDbEntity
  8
0
100
AcDbLine
 62
7
  6
CONTINUOUS
 10
-56.7797329216
 20
23.619816905
 11
-56.7797329216
 21
23.2450646099
  0
LINE
  5
799
100
AcDbEntity
  8
0
100
AcDbLine
 62
7
  6
CONTINUOUS
 10
-56.7797329216
 20
-13.860183095
 11
-56.7797329216
 21
-13.4854307999
  0
LINE
  5
79A
100
AcDbEntity
  8
0
100
AcDbLine
 62
250
  6
CONTINUOUS
 10
-56.7697329216
 20
23.419816905
 11
-56.7697329216
 21
23.229816905
  0
LINE
  5
79B
100
AcDbEntity
  8
0
100
AcDbLine
 62
250
  6
CONTINUOUS
 10
-56.7697329216
 20
-13.660183095
 11
-56.7697329216
 21
-13.470183095
  0
LINE
  5
79C
100
AcDbEntity
  8
RACCORDO
100
AcDbLine
 62
7
  6
CONTINUOUS
 10
-56.6844604541
 20
25.2711655249
 11
-56.6844604541
 21
23.521877771
  0
LINE
  5
79D
100
AcDbEntity
  8
RACCORDO
100
AcDbLine
 62
7
  6
CONTINUOUS
 10
-56.6844604541
 20
-15.511531715
 11
-56.6844604541
 21
-13.762243961
  0
LINE
  5
79E
100
AcDbEntity
  8
RACCORDO
100
AcDbLine
 62
7
  6
CONTINUOUS
 10
-56.6757329216
 20
-15.5202592475
 11
-56.6757329216
 21
-13.7521810769
  0
LINE
  5
79F
100
AcDbEntity
  8
RACCORDO
100
AcDbLine
 62
7
  6
CONTINUOUS
 10
-56.6757329216
 20
23.5118148868
 11
-56.6757329216
 21
25.2798930574
  0
LINE
  5
7A0
100
AcDbEntity
  8
CURVE
100
AcDbLine
 62
250
  6
CONTINUOUS
 10
-56.6194099216
 20
-2.038399095
 11
-56.6194099216
 21
-2.137773095
  0
LINE
  5
7A1
100
AcDbEntity
  8
CURVE
100
AcDbLine
 62
250
  6
CONTINUOUS
 10
-56.5944829216
 20
1.973566905
 11
-56.5944829216
 21
1.932941905
  0
LINE
  5
7A2
100
AcDbEntity
  8
CURVE
100
AcDbLine
 62
250
  6
CONTINUOUS
 10
-56.5828757455
 20
5.7036259565
 11
-56.5828757455
 21
5.0536259565
  0
LINE
  5
7A3
100
AcDbEntity
  8
CURVE
100
AcDbLine
 62
250
  6
CONTINUOUS
 10
-56.5828757455
 20
7.2821975622
 11
-56.5828757455
 21
7.6536259565
  0
LINE
  5
7A4
100
AcDbEntity
  8
0
100
AcDbLine
 62
7
  6
CONTINUOUS
 10
-56.5797329216
 20
23.229816905
 11
-56.5797329216
 21
23.0050646099
  0
LINE
  5
7A5
100
AcDbEntity
  8
0
100
AcDbLine
 62
7
  6
CONTINUOUS
 10
-56.5797329216
 20
-13.470183095
 11
-56.5797329216
 21
-13.2454307999
  0
LINE
  5
7A6
100
AcDbEntity
  8
CURVE
100
AcDbLine
 62
250
  6
CONTINUOUS
 10
-56.3971614709
 20
4.6821975622
 11
-56.3971614709
 21
4.1250555906
  0
LINE
  5
7A7
100
AcDbEntity
  8
CURVE
100
AcDbLine
 62
250
  6
CONTINUOUS
 10
-56.1069829216
 20
1.932941905
 11
-56.1069829216
 21
2.014191905
  0
LINE
  5
7A8
100
AcDbEntity
  8
CURVE
100
AcDbLine
 62
250
  6
CONTINUOUS
 10
-56.0257329216
 20
17.5583883557
 11
-56.0257329216
 21
17.4655312571
  0
LINE
  5
7A9
100
AcDbEntity
  8
CURVE
100
AcDbLine
 62
250
  6
CONTINUOUS
 10
-56.0257329216
 20
11.5226743135
 11
-56.0257329216
 21
11.429816905
  0
LINE
  5
7AA
100
AcDbEntity
  8
CURVE
100
AcDbLine
 62
250
  6
CONTINUOUS
 10
-56.0257329216
 20
7.6536259565
 11
-56.0257329216
 21
7.0964839849
  0
LINE
  5
7AB
100
AcDbEntity
  8
CURVE
100
AcDbLine
 62
250
  6
CONTINUOUS
 10
-56.0257329216
 20
6.4464839849
 11
-56.0257329216
 21
6.3536259565
  0
LINE
  5
7AC
100
AcDbEntity
  8
CURVE
100
AcDbLine
 62
250
  6
CONTINUOUS
 10
-56.0257329216
 20
13.379816905
 11
-56.0257329216
 21
13.6583885106
  0
LINE
  5
7AD
100
AcDbEntity
  8
CURVE
100
AcDbLine
 62
250
  6
CONTINUOUS
 10
-56.0257329216
 20
18.3941025528
 11
-56.0257329216
 21
18.672674081
  0
LINE
  5
7AE
100
AcDbEntity
  8
CURVE
100
AcDbLine
 62
250
  6
CONTINUOUS
 10
-56.0257329216
 20
19.4155311796
 11
-56.0257329216
 21
19.6941026109
  0
LINE
  5
7AF
100
AcDbEntity
  8
CURVE
100
AcDbLine
 62
250
  6
CONTINUOUS
 10
-56.7444879216
 20
-3.236259095
 11
-56.7439299216
 21
-2.663256095
  0
LINE
  5
7B0
100
AcDbEntity
  8
CURVE
100
AcDbLine
 62
250
  6
CONTINUOUS
 10
-56.5264359216
 20
-2.663256095
 11
-56.5269939216
 21
-3.236259095
  0
LINE
  5
7B1
100
AcDbEntity
  8
CURVE
100
AcDbLine
 62
250
  6
CONTINUOUS
 10
-56.1476079216
 20
1.770441905
 11
-56.1069829216
 21
1.932941905
  0
LINE
  5
7B2
100
AcDbEntity
  8
CURVE
100
AcDbLine
 62
250
  6
CONTINUOUS
 10
-57.2851079216
 20
2.176691905
 11
-57.3257329216
 21
2.054816905
  0
LINE
  5
7B3
100
AcDbEntity
  8
CURVE
100
AcDbLine
 62
250
  6
CONTINUOUS
 10
-56.5538579216
 20
2.095441905
 11
-56.5944829216
 21
1.973566905
  0
LINE
  5
7B4
100
AcDbEntity
  8
CURVE
100
AcDbLine
 62
250
  6
CONTINUOUS
 10
-56.1882329216
 20
1.648566905
 11
-56.1476079216
 21
1.770441905
  0
LINE
  5
7B5
100
AcDbEntity
  8
CURVE
100
AcDbLine
 62
250
  6
CONTINUOUS
 10
-57.2444829216
 20
2.257941905
 11
-57.2851079216
 21
2.176691905
  0
LINE
  5
7B6
100
AcDbEntity
  8
CURVE
100
AcDbLine
 62
250
  6
CONTINUOUS
 10
-56.5132329216
 20
2.176691905
 11
-56.5538579216
 21
2.095441905
  0
LINE
  5
7B7
100
AcDbEntity
  8
CURVE
100
AcDbLine
 62
250
  6
CONTINUOUS
 10
-56.2288579216
 20
1.567316905
 11
-56.1882329216
 21
1.648566905
  0
LWPOLYLINE
  5
7B8
100
AcDbEntity
  8
CURVE
100
AcDbPolyline
 62
250
  6
CONTINUOUS
 90
31
 70
0
 10
-61.7149136888
 20
-7.119638108
 10
-61.747667696
 20
-7.166710961
 10
-61.7795431849
 20
-7.2143774808
 10
-61.8105258583
 20
-7.2626357776
 10
-61.8406014188
 20
-7.3114839615
 10
-61.8697555691
 20
-7.3609201427
 10
-61.8979740118
 20
-7.4109424315
 10
-61.9252424496
 20
-7.461548938
 10
-61.9515465852
 20
-7.5127377723
 10
-61.9797388858
 20
-7.5705249379
 10
-62.0067048817
 20
-7.6289959489
 10
-62.0324362823
 20
-7.6881122085
 10
-62.0569247965
 20
-7.7478351199
 10
-62.0801621337
 20
-7.8081260864
 10
-62.1021400028
 20
-7.8689465112
 10
-62.1228501131
 20
-7.9302577975
 10
-62.1422841737
 20
-7.9920213485
 10
-62.1604338937
 20
-8.0541985676
 10
-62.1772909823
 20
-8.1167508578
 10
-62.1928471486
 20
-8.1796396225
 10
-62.2070941018
 20
-8.2428262648
 10
-62.220023551
 20
-8.306272188
 10
-62.2316272053
 20
-8.3699387954
 10
-62.2418967739
 20
-8.43378749
 10
-62.2508239659
 20
-8.4977796752
 10
-62.2584004904
 20
-8.5618767543
 10
-62.2646180567
 20
-8.6260401303
 10
-62.2694683738
 20
-8.6902312066
 10
-62.2729431509
 20
-8.7544113863
 10
-62.2750340971
 20
-8.8185420727
 10
-62.2757329216
 20
-8.8825846691
  0
LINE
  5
7B9
100
AcDbEntity
  8
CURVE
100
AcDbLine
 62
7
  6
CONTINUOUS
 10
-63.2057329216
 20
-4.671492811
 11
-62.1867209216
 21
-3.652480811
  0
LINE
  5
7BA
100
AcDbEntity
  8
CURVE
100
AcDbLine
 62
7
  6
CONTINUOUS
 10
-63.2057329216
 20
-4.881503525
 11
-62.1867209216
 21
-3.862491525
  0
LINE
  5
7BB
100
AcDbEntity
  8
CURVE
100
AcDbLine
 62
7
  6
CONTINUOUS
 10
-63.0267637776
 20
-4.912545095
 11
-62.1867209216
 21
-4.072502239
  0
LINE
  5
7BC
100
AcDbEntity
  8
CURVE
100
AcDbLine
 62
7
  6
CONTINUOUS
 10
-62.8167530636
 20
-4.912545095
 11
-62.1867209216
 21
-4.282512953
  0
LINE
  5
7BD
100
AcDbEntity
  8
CURVE
100
AcDbLine
 62
7
  6
CONTINUOUS
 10
-62.6067423496
 20
-4.912545095
 11
-62.1867209216
 21
-4.492523667
  0
LINE
  5
7BE
100
AcDbEntity
  8
CURVE
100
AcDbLine
 62
7
  6
CONTINUOUS
 10
-62.3967316356
 20
-4.912545095
 11
-62.1867209216
 21
-4.702534381
  0
LINE
  5
7BF
100
AcDbEntity
  8
CURVE
100
AcDbLine
 62
250
  6
CONTINUOUS
 10
-74.6400186276
 20
-10.2844688979
 11
-74.4543043336
 21
-10.1916117993
  0
LINE
  5
7C0
100
AcDbEntity
  8
CURVE
100
AcDbLine
 62
250
  6
CONTINUOUS
 10
-60.5757329216
 20
13.879816905
 11
-58.6757329216
 21
13.879816905
  0
LINE
  5
7C1
100
AcDbEntity
  8
CURVE
100
AcDbLine
 62
250
  6
CONTINUOUS
 10
-77.3709578476
 20
14.3226740155
 11
-77.3804320105
 21
14.3226740155
  0
LINE
  5
7C2
100
AcDbEntity
  8
CURVE
100
AcDbLine
 62
250
  6
CONTINUOUS
 10
-77.4277882794
 20
14.445123905
 11
-77.4221178964
 21
14.445123905
  0
LINE
  5
7C3
100
AcDbEntity
  8
CURVE
100
AcDbLine
 62
250
  6
CONTINUOUS
 10
-77.4495468243
 20
14.554706905
 11
-77.4438769125
 21
14.554706905
  0
LINE
  5
7C4
100
AcDbEntity
  8
CURVE
100
AcDbLine
 62
250
  6
CONTINUOUS
 10
-77.4046121344
 20
14.566939905
 11
-77.3989422574
 21
14.566939905
  0
LINE
  5
7C5
100
AcDbEntity
  8
CURVE
100
AcDbLine
 62
250
  6
CONTINUOUS
 10
-69.7885269216
 20
14.809406905
 11
-70.5590529216
 21
14.809406905
  0
LINE
  5
7C6
100
AcDbEntity
  8
CURVE
100
AcDbLine
 62
250
  6
CONTINUOUS
 10
-74.0924369216
 20
14.809406905
 11
-74.8629629216
 21
14.809406905
  0
LINE
  5
7C7
100
AcDbEntity
  8
CURVE
100
AcDbLine
 62
250
  6
CONTINUOUS
 10
-71.9432449216
 20
15.319406905
 11
-72.7082449216
 21
15.319406905
  0
LINE
  5
7C8
100
AcDbEntity
  8
CURVE
100
AcDbLine
 62
250
  6
CONTINUOUS
 10
-77.385169092
 20
15.4083882365
 11
-77.3520095197
 21
15.4083882365
  0
LINE
  5
7C9
100
AcDbEntity
  8
IMPORT_IGES
100
AcDbLine
 62
7
  6
CONTINUOUS
 10
-62.5297329216
 20
15.479816905
 11
-65.5297329216
 21
15.479816905
  0
LINE
  5
7CA
100
AcDbEntity
  8
IMPORT_IGES
100
AcDbLine
 62
7
  6
CONTINUOUS
 10
-66.0776936454
 20
15.6222750428
 11
-65.5297329216
 21
15.479816905
  0
LINE
  5
7CB
100
AcDbEntity
  8
CURVE
100
AcDbLine
 62
250
  6
CONTINUOUS
 10
-57.0471614903
 20
12.8226743135
 11
-56.0257329216
 21
12.5441027078
  0
LINE
  5
7CC
100
AcDbEntity
  8
CURVE
100
AcDbLine
 62
250
  6
CONTINUOUS
 10
-56.9543043336
 20
11.1512452993
 11
-57.1400186276
 21
11.2441027078
  0
LINE
  5
7CD
100
AcDbEntity
  8
CURVE
100
AcDbLine
 62
250
  6
CONTINUOUS
 10
-56.3971614709
 20
11.8012452993
 11
-56.2114471962
 21
11.7083885106
  0
LWPOLYLINE
  5
7CE
100
AcDbEntity
  8
RACCORDO
100
AcDbPolyline
 62
7
  6
CONTINUOUS
 90
11
 70
0
 10
-69.5628755365
 20
26.8168816445
 10
-69.5622289771
 20
26.8159414737
 10
-69.5616114807
 20
26.8136334206
 10
-69.5610230473
 20
26.8099574851
 10
-69.5604628649
 20
26.8048000067
 10
-69.5599317455
 20
26.7982746459
 10
-69.5594321253
 20
26.7907223844
 10
-69.5589657766
 20
26.7822419858
 10
-69.5585309271
 20
26.7727346864
 10
-69.5581246957
 20
26.7622451776
 10
-69.557743506
 20
26.7506982664
  0
LINE
  5
7CF
100
AcDbEntity
  8
CURVE
100
AcDbLine
 62
250
  6
CONTINUOUS
 10
-56.9233519545
 20
9.6655311021
 11
-56.8304948171
 21
9.4488646421
  0
LINE
  5
7D0
100
AcDbEntity
  8
CURVE
100
AcDbLine
 62
250
  6
CONTINUOUS
 10
-57.0162091111
 20
9.2012452993
 11
-56.9233519545
 21
8.9536259565
  0
LINE
  5
7D1
100
AcDbEntity
  8
ASSI
100
AcDbLine
 62
7
  6
CONTINUOUS
 10
-55.1479875974
 20
5.5483512815
 11
-55.1669430299
 21
6.0794243286
  0
LWPOLYLINE
  5
7D2
100
AcDbEntity
  8
ASSI
100
AcDbPolyline
 62
7
  6
CONTINUOUS
 90
13
 70
0
 10
-55.1757329216
 20
20.999476071
 10
-55.1789251708
 20
21.1114739544
 10
-55.188223188
 20
21.2224211284
 10
-55.2036269731
 20
21.3323175932
 10
-55.2252220116
 20
21.4414904661
 10
-55.2529228181
 20
21.5496126298
 10
-55.2864729365
 20
21.6557027314
 10
-55.3259226145
 20
21.759743315
 10
-55.3712216044
 20
21.8617518365
 10
-55.4219627076
 20
21.9607993116
 10
-55.4780101912
 20
22.0565760789
 10
-55.539499788
 20
22.1493917997
 10
-55.6064314982
 20
22.2392464741
  0
LINE
  5
7D3
100
AcDbEntity
  8
ASSI
100
AcDbLine
 62
7
  6
CONTINUOUS
 10
-55.1478962145
 20
5.5459644581
 11
-55.1479538083
 21
5.5496819674
  0
LINE
  5
7D4
100
AcDbEntity
  8
ASSI
100
AcDbLine
 62
7
  6
CONTINUOUS
 10
-55.3126426199
 20
-11.4352935184
 11
-55.3126426199
 21
21.1949273283
  0
LINE
  5
7D5
100
AcDbEntity
  8
ASSI
100
AcDbLine
 62
7
  6
CONTINUOUS
 10
-55.1757329216
 20
20.999476071
 11
-55.1757329216
 21
6.129816905
  0
LINE
  5
7D6
100
AcDbEntity
  8
ASSI
100
AcDbLine
 62
7
  6
CONTINUOUS
 10
-55.1757329216
 20
3.629816905
 11
-55.1757329216
 21
-11.2398422611
  0
LINE
  5
7D7
100
AcDbEntity
  8
DRAFT
100
AcDbLine
 62
7
  6
CONTINUOUS
 10
-55.1757329216
 20
-17.019954243
 11
-55.1757329216
 21
-8.33763816
  0
LINE
  5
7D8
100
AcDbEntity
  8
DRAFT
100
AcDbLine
 62
7
  6
CONTINUOUS
 10
-55.1757329216
 20
-4.1027280301
 11
-55.1757329216
 21
3.56236184
  0
LINE
  5
7D9
100
AcDbEntity
  8
DRAFT
100
AcDbLine
 62
7
  6
CONTINUOUS
 10
-55.1757329216
 20
6.1972719699
 11
-55.1757329216
 21
13.86236184
  0
LINE
  5
7DA
100
AcDbEntity
  8
DRAFT
100
AcDbLine
 62
7
  6
CONTINUOUS
 10
-55.1757329216
 20
18.0972719699
 11
-55.1757329216
 21
26.7795880529
  0
LINE
  5
7DB
100
AcDbEntity
  8
ASSI
100
AcDbLine
 62
250
  6
CONTINUOUS
 10
-55.1479875974
 20
5.5483512815
 11
-55.1478962145
 21
5.5459644581
  0
LINE
  5
7DC
100
AcDbEntity
  8
ASSI
100
AcDbLine
 62
250
  6
CONTINUOUS
 10
-55.1478962145
 20
4.2136693518
 11
-55.1479875974
 21
4.2132308756
  0
LINE
  5
7DD
100
AcDbEntity
  8
ASSI
100
AcDbLine
 62
7
  6
CONTINUOUS
 10
-55.1478962145
 20
5.5459644581
 11
-55.1478962145
 21
4.2136693518
  0
LINE
  5
7DE
100
AcDbEntity
  8
ASSI
100
AcDbLine
 62
7
  6
CONTINUOUS
 10
-55.1479450987
 20
4.2101947963
 11
-55.1478962145
 21
4.2136693518
  0
LWPOLYLINE
  5
7DF
100
AcDbEntity
  8
ASSI
100
AcDbPolyline
 62
7
  6
CONTINUOUS
 90
13
 70
0
 10
-55.1757329216
 20
-11.2398422611
 10
-55.1789251708
 20
-11.3518401444
 10
-55.188223188
 20
-11.4627873185
 10
-55.2036269731
 20
-11.5726837832
 10
-55.2252220116
 20
-11.6818566562
 10
-55.2529228181
 20
-11.7899788199
 10
-55.2864729365
 20
-11.8960689215
 10
-55.3259226145
 20
-12.0001095051
 10
-55.3712216044
 20
-12.1021180266
 10
-55.4219627076
 20
-12.2011655017
 10
-55.4780101912
 20
-12.2969422689
 10
-55.539499788
 20
-12.3897579898
 10
-55.6064314982
 20
-12.4796126642
  0
LINE
  5
7E0
100
AcDbEntity
  8
ASSI
100
AcDbLine
 62
7
  6
CONTINUOUS
 10
-55.1669430299
 20
3.6802094814
 11
-55.1479875974
 21
4.2132308756
  0
LINE
  5
7E1
100
AcDbEntity
  8
CURVE
100
AcDbLine
 62
250
  6
CONTINUOUS
 10
-56.1294079216
 20
-0.320053095
 11
-61.1066939216
 21
-5.051739095
  0
LINE
  5
7E2
100
AcDbEntity
  8
CURVE
100
AcDbLine
 62
250
  6
CONTINUOUS
 10
-73.7114471962
 20
-10.7487543908
 11
-73.8971614709
 21
-10.8416117993
  0
LINE
  5
7E3
100
AcDbEntity
  8
ASSI
100
AcDbLine
 62
250
  6
CONTINUOUS
 10
-77.4757329216
 20
-11.2398422611
 11
-77.3388232233
 21
-11.1922089862
  0
LINE
  5
7E4
100
AcDbEntity
  8
IMPORT_IGES
100
AcDbLine
 62
7
  6
CONTINUOUS
 10
-65.5297329216
 20
17.779816905
 11
-66.0757329216
 21
17.6378685136
  0
LINE
  5
7E5
100
AcDbEntity
  8
CURVE
100
AcDbLine
 62
250
  6
CONTINUOUS
 10
-77.4192034059
 20
15.5602218395
 11
-77.449594164
 21
15.5602218395
  0
LINE
  5
7E6
100
AcDbEntity
  8
ASSI
100
AcDbLine
 62
7
  6
CONTINUOUS
 10
-66.0757329216
 20
15.629816905
 11
-62.0757329216
 21
15.629816905
  0
LINE
  5
7E7
100
AcDbEntity
  8
CURVE
100
AcDbLine
 62
250
  6
CONTINUOUS
 10
-77.449594164
 20
15.739250141
 11
-77.4192034059
 21
15.739250141
  0
LINE
  5
7E8
100
AcDbEntity
  8
ASSI
100
AcDbLine
 62
7
  6
CONTINUOUS
 10
-77.0388117998
 20
16.029816905
 11
-76.1257329216
 21
16.029816905
  0
LINE
  5
7E9
100
AcDbEntity
  8
ASSI
100
AcDbLine
 62
7
  6
CONTINUOUS
 10
-66.5757329216
 20
16.129816905
 11
-61.5757329216
 21
16.129816905
  0
LINE
  5
7EA
100
AcDbEntity
  8
ASSI
100
AcDbLine
 62
7
  6
CONTINUOUS
 10
-61.5757329216
 20
16.629816905
 11
-66.5757329216
 21
16.629816905
  0
LINE
  5
7EB
100
AcDbEntity
  8
CURVE
100
AcDbLine
 62
250
  6
CONTINUOUS
 10
-77.3733263873
 20
16.7202932033
 11
-77.3804320105
 21
16.7202932033
  0
LINE
  5
7EC
100
AcDbEntity
  8
ASSI
100
AcDbLine
 62
7
  6
CONTINUOUS
 10
-77.0388117998
 20
16.729816905
 11
-76.1257329216
 21
16.729816905
  0
LINE
  5
7ED
100
AcDbEntity
  8
CURVE
100
AcDbLine
 62
250
  6
CONTINUOUS
 10
-77.3543780607
 20
16.765531126
 11
-77.3662207651
 21
16.765531126
  0
LINE
  5
7EE
100
AcDbEntity
  8
ASSI
100
AcDbLine
 62
7
  6
CONTINUOUS
 10
-62.0757329216
 20
17.129816905
 11
-66.0757329216
 21
17.129816905
  0
LINE
  5
7EF
100
AcDbEntity
  8
CURVE
100
AcDbLine
 62
250
  6
CONTINUOUS
 10
-56.3971614709
 20
17.1869598064
 11
-56.9543043336
 21
17.1869598064
  0
LINE
  5
7F0
100
AcDbEntity
  8
ASSI
100
AcDbLine
 62
250
  6
CONTINUOUS
 10
-77.4757329216
 20
20.999476071
 11
-77.3360924022
 21
20.9508914752
  0
LINE
  5
7F1
100
AcDbEntity
  8
CURVE
100
AcDbLine
 62
250
  6
CONTINUOUS
 10
-57.1400186276
 20
11.2441027078
 11
-57.3257329216
 21
11.429816905
  0
LINE
  5
7F2
100
AcDbEntity
  8
ASSI
100
AcDbLine
 62
7
  6
CONTINUOUS
 10
-66.5757329216
 20
21.129816905
 11
-66.0757329216
 21
20.629816905
  0
LINE
  5
7F3
100
AcDbEntity
  8
ASSI
100
AcDbLine
 62
7
  6
CONTINUOUS
 10
-61.5757329216
 20
16.629816905
 11
-62.0757329216
 21
17.129816905
  0
LINE
  5
7F4
100
AcDbEntity
  8
CURVE
100
AcDbLine
 62
250
  6
CONTINUOUS
 10
-56.2114471962
 20
11.7083885106
 11
-56.0257329216
 21
11.5226743135
  0
LWPOLYLINE
  5
7F5
100
AcDbEntity
  8
CURVE
100
AcDbPolyline
 62
250
  6
CONTINUOUS
 90
78
 70
0
 10
-60.3012060665
 20
-7.8012283962
 10
-60.346345347
 20
-7.848352117
 10
-60.3895187884
 20
-7.8974619419
 10
-60.4306403089
 20
-7.9484463829
 10
-60.4696238269
 20
-8.0011939521
 10
-60.5063832605
 20
-8.0555931618
 10
-60.540832528
 20
-8.111532524
 10
-60.5728855478
 20
-8.1689005507
 10
-60.602456238
 20
-8.2275857543
 10
-60.629458517
 20
-8.2874766466
 10
-60.6522383434
 20
-8.3442633701
 10
-60.6726967321
 20
-8.401905982
 10
-60.6908165234
 20
-8.4603105306
 10
-60.7065805576
 20
-8.5193830643
 10
-60.7199716751
 20
-8.5790296318
 10
-60.730972716
 20
-8.6391562813
 10
-60.7395665209
 20
-8.6996690613
 10
-60.74573593
 20
-8.7604740204
 10
-60.7494637835
 20
-8.8214772068
 10
-60.750732922
 20
-8.8825846691
 10
-60.7495390207
 20
-8.9435241329
 10
-60.7459009689
 20
-9.0043753294
 10
-60.7398361309
 20
-9.0650397268
 10
-60.7313618711
 20
-9.1254187933
 10
-60.7204955536
 20
-9.1854139971
 10
-60.7072545429
 20
-9.2449268064
 10
-60.6916562033
 20
-9.3038586895
 10
-60.673717899
 20
-9.3621111146
 10
-60.6534569943
 20
-9.41958555
 10
-60.6308908536
 20
-9.4761834638
 10
-60.6041504821
 20
-9.5358118357
 10
-60.574849419
 20
-9.5942222352
 10
-60.5430594277
 20
-9.6513185991
 10
-60.5088522717
 20
-9.707004864
 10
-60.4722997144
 20
-9.7611849665
 10
-60.4334735191
 20
-9.8137628433
 10
-60.3924454493
 20
-9.8646424311
 10
-60.3492872683
 20
-9.9137276666
 10
-60.3040707397
 20
-9.9609224864
 10
-60.2568717344
 20
-10.0061349232
 10
-60.2077825536
 20
-10.0492893928
 10
-60.1568996062
 20
-10.0903144072
 10
-60.104319301
 20
-10.1291384783
 10
-60.0501380468
 20
-10.165690118
 10
-59.9944522525
 20
-10.1998978381
 10
-59.9373583269
 20
-10.2316901506
 10
-59.8789526788
 20
-10.2609955674
 10
-59.8193317171
 20
-10.2877426003
 10
-59.7627431505
 20
-10.3103170489
 10
-59.7052793949
 20
-10.3305873906
 10
-59.6470377032
 20
-10.3485351453
 10
-59.5881153288
 20
-10.364141833
 10
-59.5286095248
 20
-10.3773889736
 10
-59.4686175444
 20
-10.3882580872
 10
-59.4082366407
 20
-10.3967306935
 10
-59.347564067
 20
-10.4027883125
 10
-59.2866970765
 20
-10.4064124643
 10
-59.2257329224
 20
-10.4075846687
 10
-59.1647688488
 20
-10.4062938043
 10
-59.1039020642
 20
-10.402558184
 10
-59.043229768
 20
-10.3964034794
 10
-58.9828491599
 20
-10.3878553622
 10
-58.9228574391
 20
-10.3769395038
 10
-58.8633518052
 20
-10.3636815759
 10
-58.8044294576
 20
-10.34810725
 10
-58.7461875958
 20
-10.3302421978
 10
-58.6887234194
 20
-10.3101120907
 10
-58.6321341277
 20
-10.2877426003
 10
-58.5784211579
 20
-10.2640458474
 10
-58.5256846012
 20
-10.2383040448
 10
-58.4739948918
 20
-10.2105353148
 10
-58.4234224635
 20
-10.1807577793
 10
-58.3740377505
 20
-10.1489895604
 10
-58.3259111868
 20
-10.1152487801
 10
-58.2791132063
 20
-10.0795535606
 10
-58.2337142432
 20
-10.0419220237
 10
-58.1897847314
 20
-10.0023722917
 10
-58.147395105
 20
-9.9609224864
  0
LWPOLYLINE
  5
7F6
100
AcDbEntity
  8
CURVE
100
AcDbPolyline
 62
250
  6
CONTINUOUS
 90
36
 70
0
 10
-56.8608453315
 20
-3.923725986
 10
-56.8477014898
 20
-3.9102910089
 10
-56.8349591516
 20
-3.8964800038
 10
-56.822612619
 20
-3.8823073821
 10
-56.8106561938
 20
-3.8677875553
 10
-56.7990841781
 20
-3.8529349348
 10
-56.7878908738
 20
-3.837763932
 10
-56.7770705828
 20
-3.8222889584
 10
-56.766617607
 20
-3.8065244255
 10
-56.7565262484
 20
-3.7904847446
 10
-56.7467908089
 20
-3.7741843272
 10
-56.7374055905
 20
-3.7576375847
 10
-56.728364895
 20
-3.7408589286
 10
-56.7196630245
 20
-3.7238627703
 10
-56.7112942809
 20
-3.7066635213
 10
-56.703252966
 20
-3.6892755929
 10
-56.6955333819
 20
-3.6717133966
 10
-56.6881298305
 20
-3.6539913439
 10
-56.6810366137
 20
-3.6361238462
 10
-56.6742480335
 20
-3.6181253149
 10
-56.6677583917
 20
-3.6000101614
 10
-56.6615619904
 20
-3.5817927972
 10
-56.6556531315
 20
-3.5634876338
 10
-56.6500261168
 20
-3.5451090825
 10
-56.6446752484
 20
-3.5266715549
 10
-56.6395948282
 20
-3.5081894623
 10
-56.6347791581
 20
-3.4896772161
 10
-56.63022254
 20
-3.4711492279
 10
-56.625919276
 20
-3.452619909
 10
-56.6200740019
 20
-3.4255933204
 10
-56.6146945098
 20
-3.3985835514
 10
-56.6097189937
 20
-3.3715795553
 10
-56.6050856477
 20
-3.3445702854
 10
-56.6007326658
 20
-3.317544695
 10
-56.596598242
 20
-3.2904917373
 10
-56.5887378454
 20
-3.2362595331
  0
LINE
  5
7F7
100
AcDbEntity
  8
ASSI
100
AcDbLine
 62
7
  6
CONTINUOUS
 10
-63.8257329216
 20
-11.720183095
 11
-63.6944999263
 21
-11.5889500997
  0
LINE
  5
7F8
100
AcDbEntity
  8
ASSI
100
AcDbLine
 62
7
  6
CONTINUOUS
 10
-64.3257329216
 20
-12.370183095
 11
-64.3347557556
 21
-12.379205929
  0
LINE
  5
7F9
100
AcDbEntity
  8
ASSI
100
AcDbLine
 62
250
  6
CONTINUOUS
 10
-77.045034345
 20
-12.4796126642
 11
-76.9203605309
 21
-12.4395317404
  0
LINE
  5
7FA
100
AcDbEntity
  8
CURVE
100
AcDbLine
 62
250
  6
CONTINUOUS
 10
-73.8971614709
 20
-11.770183095
 11
-74.8257329216
 21
-12.0487547007
  0
LWPOLYLINE
  5
7FB
100
AcDbEntity
  8
CURVE
100
AcDbPolyline
 62
250
  6
CONTINUOUS
 90
56
 70
0
 10
-59.8243388069
 20
-6.9389083937
 10
-59.7597034978
 20
-6.9202071428
 10
-59.6944126349
 20
-6.9036605585
 10
-59.6285461209
 20
-6.8892815632
 10
-59.5621838587
 20
-6.877083079
 10
-59.495405751
 20
-6.8670780283
 10
-59.4282917007
 20
-6.8592793334
 10
-59.3609216106
 20
-6.8536999167
 10
-59.2933753836
 20
-6.8503527003
 10
-59.2257329224
 20
-6.8492506066
 10
-59.1580408609
 20
-6.8504036306
 10
-59.0904090898
 20
-6.8538056183
 10
-59.0229142465
 20
-6.8594453042
 10
-58.9556329686
 20
-6.8673114228
 10
-58.8886418934
 20
-6.8773927087
 10
-58.8220176586
 20
-6.8896778963
 10
-58.7558369015
 20
-6.9041557203
 10
-58.6901762597
 20
-6.9208149152
 10
-58.6251123706
 20
-6.9396442154
 10
-58.5607218718
 20
-6.9606323555
 10
-58.4970814007
 20
-6.9837680702
 10
-58.4342675948
 20
-7.0090400937
 10
-58.369089331
 20
-7.0379461764
 10
-58.3049835926
 20
-7.0691554324
 10
-58.2420210045
 20
-7.1026140367
 10
-58.1802721911
 20
-7.1382681643
 10
-58.1198077773
 20
-7.1760639903
 10
-58.0606983876
 20
-7.2159476895
 10
-58.0030146467
 20
-7.2578654371
 10
-57.9468271792
 20
-7.3017634081
 10
-57.8922066099
 20
-7.3475877773
 10
-57.8392235633
 20
-7.39528472
 10
-57.7879486642
 20
-7.4448004109
 10
-57.7384637273
 20
-7.4960634178
 10
-57.6908074617
 20
-7.5490239798
 10
-57.645030825
 20
-7.603615779
 10
-57.6011847749
 20
-7.6597724974
 10
-57.559320269
 20
-7.7174278172
 10
-57.5194882651
 20
-7.7765154204
 10
-57.4817397207
 20
-7.836968989
 10
-57.4461255936
 20
-7.8987222051
 10
-57.4126968414
 20
-7.9617087508
 10
-57.3815044219
 20
-8.0258623081
 10
-57.3525992925
 20
-8.0911165591
 10
-57.3273020545
 20
-8.1540553444
 10
-57.3041290464
 20
-8.2178386598
 10
-57.2830946648
 20
-8.2823777039
 10
-57.2642133064
 20
-8.3475836755
 10
-57.2474993676
 20
-8.413367773
 10
-57.232967245
 20
-8.4796411952
 10
-57.2206313353
 20
-8.5463151406
 10
-57.210506035
 20
-8.613300808
 10
-57.2026057408
 20
-8.6805093959
 10
-57.1969448491
 20
-8.7478521029
 10
-57.1935377566
 20
-8.8152401278
 10
-57.1923988598
 20
-8.8825846691
  0
LINE
  5
7FC
100
AcDbEntity
  8
IMPORT_IGES
100
AcDbLine
 62
7
  6
CONTINUOUS
 10
-62.0757329216
 20
17.279816905
 11
-66.0757329216
 21
17.279816905
  0
LINE
  5
7FD
100
AcDbEntity
  8
CURVE
100
AcDbLine
 62
250
  6
CONTINUOUS
 10
-77.4192034059
 20
17.6029026605
 11
-77.449594164
 21
17.6029026605
  0
LINE
  5
7FE
100
AcDbEntity
  8
IMPORT_IGES
100
AcDbLine
 62
7
  6
CONTINUOUS
 10
-62.5297329216
 20
17.779816905
 11
-65.5297329216
 21
17.779816905
  0
LINE
  5
7FF
100
AcDbEntity
  8
CURVE
100
AcDbLine
 62
250
  6
CONTINUOUS
 10
-77.449594164
 20
17.7819292841
 11
-77.4192034059
 21
17.7819292841
  0
LINE
  5
800
100
AcDbEntity
  8
CURVE
100
AcDbLine
 62
250
  6
CONTINUOUS
 10
-56.9543043336
 20
17.8369598064
 11
-56.3971614709
 21
17.8369598064
  0
LINE
  5
801
100
AcDbEntity
  8
CURVE
100
AcDbLine
 62
250
  6
CONTINUOUS
 10
-58.9471614768
 20
17.929816905
 11
-59.4900185873
 21
17.929816905
  0
LINE
  5
802
100
AcDbEntity
  8
CURVE
100
AcDbLine
 62
250
  6
CONTINUOUS
 10
-77.3520095197
 20
17.9417216453
 11
-77.3685893058
 21
17.9417216453
  0
LINE
  5
803
100
AcDbEntity
  8
CURVE
100
AcDbLine
 62
250
  6
CONTINUOUS
 10
-56.3971614709
 20
18.2083883557
 11
-56.2114471962
 21
18.2083883557
  0
LINE
  5
804
100
AcDbEntity
  8
CURVE
100
AcDbLine
 62
250
  6
CONTINUOUS
 10
-77.398896872
 20
18.294378144
 11
-77.4495940176
 21
18.294378144
  0
LINE
  5
805
100
AcDbEntity
  8
CURVE
100
AcDbLine
 62
250
  6
CONTINUOUS
 10
-77.4468955488
 20
18.4735171919
 11
-77.4241742132
 21
18.4735171919
  0
LINE
  5
806
100
AcDbEntity
  8
CURVE
100
AcDbLine
 62
250
  6
CONTINUOUS
 10
-77.4214757444
 20
18.4735171919
 11
-77.398896872
 21
18.4735171919
  0
LINE
  5
807
100
AcDbEntity
  8
CURVE
100
AcDbLine
 62
250
  6
CONTINUOUS
 10
-60.5757329216
 20
18.879816905
 11
-58.6757329216
 21
18.879816905
  0
LINE
  5
808
100
AcDbEntity
  8
ASSI
100
AcDbLine
 62
250
  6
CONTINUOUS
 10
-77.045034345
 20
22.2392464741
 11
-76.9030681705
 21
22.1935994588
  0
LINE
  5
809
100
AcDbEntity
  8
CURVE
100
AcDbLine
 62
250
  6
CONTINUOUS
 10
-56.0257329216
 20
13.6583885106
 11
-56.3043043723
 21
13.8441027078
  0
LINE
  5
80A
100
AcDbEntity
  8
CURVE
100
AcDbLine
 62
250
  6
CONTINUOUS
 10
-57.3257329216
 20
13.8441027078
 11
-56.3971614709
 21
13.1941027078
  0
LINE
  5
80B
100
AcDbEntity
  8
IMPORT_IGES
100
AcDbLine
 62
7
  6
CONTINUOUS
 10
-62.0757329216
 20
17.4555311907
 11
-62.5297329216
 21
17.779816905
  0
LINE
  5
80C
100
AcDbEntity
  8
ASSI
100
AcDbLine
 62
7
  6
CONTINUOUS
 10
-64.3347557556
 20
22.138839739
 11
-64.3257329216
 21
22.129816905
  0
LINE
  5
80D
100
AcDbEntity
  8
CURVE
100
AcDbLine
 62
250
  6
CONTINUOUS
 10
-59.4900185873
 20
17.929816905
 11
-59.7614471992
 21
18.2012454602
  0
LINE
  5
80E
100
AcDbEntity
  8
0
100
AcDbLine
 62
7
  6
CONTINUOUS
 10
-63.0955744606
 20
-17.6249986536
 11
-63.0257329216
 21
-17.520183095
  0
LINE
  5
80F
100
AcDbEntity
  8
ASSI
100
AcDbLine
 62
250
  6
CONTINUOUS
 10
-76.1257329216
 20
19.0723451156
 11
-76.1858638027
 21
19.0723451156
  0
LINE
  5
810
100
AcDbEntity
  8
CURVE
100
AcDbLine
 62
250
  6
CONTINUOUS
 10
-69.7885269216
 20
19.144406905
 11
-70.5590529216
 21
19.144406905
  0
LINE
  5
811
100
AcDbEntity
  8
CURVE
100
AcDbLine
 62
250
  6
CONTINUOUS
 10
-74.0924369216
 20
19.144406905
 11
-74.8629629216
 21
19.144406905
  0
LINE
  5
812
100
AcDbEntity
  8
CURVE
100
AcDbLine
 62
250
  6
CONTINUOUS
 10
-56.3971614709
 20
19.229816905
 11
-56.2114471962
 21
19.229816905
  0
LINE
  5
813
100
AcDbEntity
  8
ASSI
100
AcDbLine
 62
250
  6
CONTINUOUS
 10
-76.1257329216
 20
19.8718577772
 11
-76.1838207499
 21
19.8718577772
  0
LINE
  5
814
100
AcDbEntity
  8
ASSI
100
AcDbLine
 62
7
  6
CONTINUOUS
 10
-76.1257329216
 20
19.879816905
 11
-76.1837826144
 21
19.879816905
  0
LINE
  5
815
100
AcDbEntity
  8
IMPORT_IGES
100
AcDbLine
 62
7
  6
CONTINUOUS
 10
-62.5297329216
 20
20.479816905
 11
-65.5297329216
 21
20.479816905
  0
LINE
  5
816
100
AcDbEntity
  8
ASSI
100
AcDbLine
 62
7
  6
CONTINUOUS
 10
-66.0757329216
 20
20.629816905
 11
-62.0757329216
 21
20.629816905
  0
LINE
  5
817
100
AcDbEntity
  8
IMPORT_IGES
100
AcDbLine
 62
7
  6
CONTINUOUS
 10
-66.0776936454
 20
20.6222750428
 11
-65.5297329216
 21
20.479816905
  0
LINE
  5
818
100
AcDbEntity
  8
CURVE
100
AcDbLine
 62
250
  6
CONTINUOUS
 10
-56.9543043336
 20
17.1869598064
 11
-57.1400186276
 21
17.279816905
  0
LINE
  5
819
100
AcDbEntity
  8
ASSI
100
AcDbLine
 62
7
  6
CONTINUOUS
 10
-64.3606430515
 20
23.1647270348
 11
-64.3257329216
 21
23.129816905
  0
LINE
  5
81A
100
AcDbEntity
  8
CURVE
100
AcDbLine
 62
250
  6
CONTINUOUS
 10
-57.1400186276
 20
17.279816905
 11
-57.3257329216
 21
17.4655312571
  0
LWPOLYLINE
  5
81B
100
AcDbEntity
  8
RACCORDO
100
AcDbPolyline
 62
7
  6
CONTINUOUS
 90
11
 70
0
 10
-63.0885903067
 20
26.2427521655
 10
-63.0892368661
 20
26.2436923362
 10
-63.0898543625
 20
26.2460003893
 10
-63.0904427959
 20
26.2496763248
 10
-63.0910029783
 20
26.2548338032
 10
-63.0915340977
 20
26.261359164
 10
-63.0920337179
 20
26.2689114255
 10
-63.0925000666
 20
26.2773918242
 10
-63.092934916
 20
26.2868991235
 10
-63.0933411475
 20
26.2973886323
 10
-63.0937223372
 20
26.3089355435
  0
LINE
  5
81C
100
AcDbEntity
  8
0
100
AcDbLine
 62
7
  6
CONTINUOUS
 10
-63.0257329216
 20
27.279816905
 11
-63.0955744606
 21
27.3846324635
  0
LINE
  5
81D
100
AcDbEntity
  8
ASSI
100
AcDbLine
 62
7
  6
CONTINUOUS
 10
-55.4267276997
 20
-11.849249808
 11
-55.4458499561
 21
-11.9017496584
  0
LINE
  5
81E
100
AcDbEntity
  8
ASSI
100
AcDbLine
 62
7
  6
CONTINUOUS
 10
-55.4458499561
 20
-11.9017496584
 11
-55.4664465977
 21
-11.9537362625
  0
LINE
  5
81F
100
AcDbEntity
  8
ASSI
100
AcDbLine
 62
7
  6
CONTINUOUS
 10
-55.4664465977
 20
-11.9537362625
 11
-55.4884685425
 21
-12.005086122
  0
LWPOLYLINE
  5
820
100
AcDbEntity
  8
ASSI
100
AcDbPolyline
 62
7
  6
CONTINUOUS
 90
10
 70
0
 10
-55.4884685425
 20
-12.005086122
 10
-55.5119188885
 20
-12.0557969671
 10
-55.5367945376
 20
-12.1058710675
 10
-55.5630371144
 20
-12.1551917332
 10
-55.5906524803
 20
-12.2037606077
 10
-55.6196347738
 20
-12.2515760475
 10
-55.649908035
 20
-12.2985164326
 10
-55.6814469441
 20
-12.3445412231
 10
-55.7142768209
 20
-12.3896909588
 10
-55.7483976655
 20
-12.43396564
  0
LWPOLYLINE
  5
821
100
AcDbEntity
  8
CURVE
100
AcDbPolyline
 62
250
  6
CONTINUOUS
 90
35
 70
0
 10
-58.147395105
 20
-9.9609224864
 10
-58.1232490837
 20
-9.935708088
 10
-58.0996679014
 20
-9.9098666348
 10
-58.0766611549
 20
-9.8834199733
 10
-58.0542384411
 20
-9.85638995
 10
-58.032409357
 20
-9.8287984113
 10
-58.0111834995
 20
-9.8006672039
 10
-57.9905704655
 20
-9.7720181742
 10
-57.9705798519
 20
-9.7428731688
 10
-57.9512212555
 20
-9.713254034
 10
-57.9325042734
 20
-9.6831826165
 10
-57.9144385023
 20
-9.6526807626
 10
-57.8970335393
 20
-9.6217703191
 10
-57.8802989812
 20
-9.5904731322
 10
-57.864244425
 20
-9.5588110486
 10
-57.8488794674
 20
-9.5268059147
 10
-57.8342137056
 20
-9.494479577
 10
-57.8202567363
 20
-9.4618538821
 10
-57.8070181564
 20
-9.4289506764
 10
-57.7945075629
 20
-9.3957918065
 10
-57.7827345528
 20
-9.3623991188
 10
-57.7717087227
 20
-9.3287944599
 10
-57.7614396698
 20
-9.2949996762
 10
-57.7519369909
 20
-9.2610366143
 10
-57.7432102829
 20
-9.2269271206
 10
-57.7352691427
 20
-9.1926930418
 10
-57.7281231673
 20
-9.1583562241
 10
-57.7217819535
 20
-9.1239385143
 10
-57.7162550982
 20
-9.0894617587
 10
-57.7115521984
 20
-9.0549478039
 10
-57.7076828509
 20
-9.0204184964
 10
-57.7046566527
 20
-8.9858956826
 10
-57.7024832007
 20
-8.9514012091
 10
-57.7011720917
 20
-8.9169569225
 10
-57.7007329227
 20
-8.8825846691
  0
LINE
  5
822
100
AcDbEntity
  8
ASSI
100
AcDbLine
 62
7
  6
CONTINUOUS
 10
-63.8257329216
 20
23.2190908011
 11
-64.0225824145
 21
23.179816905
  0
LINE
  5
823
100
AcDbEntity
  8
ASSI
100
AcDbLine
 62
7
  6
CONTINUOUS
 10
-77.0388117998
 20
21.029816905
 11
-76.1257329216
 21
21.029816905
  0
LINE
  5
824
100
AcDbEntity
  8
ASSI
100
AcDbLine
 62
250
  6
CONTINUOUS
 10
-77.3257329216
 20
21.0648462022
 11
-77.2739045298
 21
21.0648462022
  0
LINE
  5
825
100
AcDbEntity
  8
ASSI
100
AcDbLine
 62
7
  6
CONTINUOUS
 10
-66.5757329216
 20
21.129816905
 11
-61.5757329216
 21
21.129816905
  0
LINE
  5
826
100
AcDbEntity
  8
ASSI
100
AcDbLine
 62
7
  6
CONTINUOUS
 10
-63.8257329216
 20
21.479816905
 11
-68.8257329216
 21
21.479816905
  0
LINE
  5
827
100
AcDbEntity
  8
IMPORT_IGES
100
AcDbLine
 62
7
  6
CONTINUOUS
 10
-63.8257329216
 20
21.629816905
 11
-68.8257329216
 21
21.629816905
  0
LINE
  5
828
100
AcDbEntity
  8
IMPORT_IGES
100
AcDbLine
 62
7
  6
CONTINUOUS
 10
-68.8257329216
 20
21.8267761672
 11
-63.8257329216
 21
21.8267761672
  0
LINE
  5
829
100
AcDbEntity
  8
IMPORT_IGES
100
AcDbLine
 62
7
  6
CONTINUOUS
 10
-68.8257329216
 20
21.9764439417
 11
-63.8257329216
 21
21.9764439417
  0
LINE
  5
82A
100
AcDbEntity
  8
ASSI
100
AcDbLine
 62
7
  6
CONTINUOUS
 10
-68.3257329216
 20
22.129816905
 11
-64.3257329216
 21
22.129816905
  0
LINE
  5
82B
100
AcDbEntity
  8
ASSI
100
AcDbLine
 62
7
  6
CONTINUOUS
 10
-68.3167100876
 20
22.138839739
 11
-64.3347557556
 21
22.138839739
  0
LINE
  5
82C
100
AcDbEntity
  8
ASSI
100
AcDbLine
 62
7
  6
CONTINUOUS
 10
-64.8230527288
 20
22.179816905
 11
-67.8284131144
 21
22.179816905
  0
LINE
  5
82D
100
AcDbEntity
  8
ASSI
100
AcDbLine
 62
7
  6
CONTINUOUS
 10
-63.8257329216
 20
22.379816905
 11
-68.8257329216
 21
22.379816905
  0
LINE
  5
82E
100
AcDbEntity
  8
ASSI
100
AcDbLine
 62
7
  6
CONTINUOUS
 10
-68.6288834287
 20
23.179816905
 11
-68.8257329216
 21
23.2190908011
  0
LINE
  5
82F
100
AcDbEntity
  8
CURVE
100
AcDbLine
 62
250
  6
CONTINUOUS
 10
-56.3971614709
 20
17.8369598064
 11
-56.2114471962
 21
17.7441025528
  0
LINE
  5
830
100
AcDbEntity
  8
CURVE
100
AcDbLine
 62
250
  6
CONTINUOUS
 10
-56.0257329216
 20
18.672674081
 11
-56.3043043723
 21
18.8583883557
  0
LINE
  5
831
100
AcDbEntity
  8
CURVE
100
AcDbLine
 62
250
  6
CONTINUOUS
 10
-57.3257329216
 20
18.8583883557
 11
-56.3971614709
 21
18.2083883557
  0
LINE
  5
832
100
AcDbEntity
  8
CURVE
100
AcDbLine
 62
250
  6
CONTINUOUS
 10
-57.3257329216
 20
19.879816905
 11
-56.3971614709
 21
19.229816905
  0
LINE
  5
833
100
AcDbEntity
  8
CURVE
100
AcDbLine
 62
250
  6
CONTINUOUS
 10
-56.2114471962
 20
17.7441025528
 11
-56.0257329216
 21
17.5583883557
  0
LINE
  5
834
100
AcDbEntity
  8
ASSI
100
AcDbLine
 62
7
  6
CONTINUOUS
 10
-55.4884703156
 20
21.7647239114
 11
-55.4664489535
 21
21.7133759356
  0
LINE
  5
835
100
AcDbEntity
  8
ASSI
100
AcDbLine
 62
7
  6
CONTINUOUS
 10
-55.4664489535
 20
21.7133759356
 11
-55.445852855
 21
21.6613913351
  0
LINE
  5
836
100
AcDbEntity
  8
ASSI
100
AcDbLine
 62
7
  6
CONTINUOUS
 10
-55.445852855
 20
21.6613913351
 11
-55.4267307815
 21
21.6088924625
  0
LINE
  5
837
100
AcDbEntity
  8
ASSI
100
AcDbLine
 62
7
  6
CONTINUOUS
 10
-57.5797338191
 20
-14.445431877
 11
-55.4980585359
 21
-11.9474215371
  0
LINE
  5
838
100
AcDbEntity
  8
ASSI
100
AcDbLine
 62
7
  6
CONTINUOUS
 10
-62.9257329216
 20
-18.5503628353
 11
-62.9623885579
 21
-18.5870184717
  0
LINE
  5
839
100
AcDbEntity
  8
ASSI
100
AcDbLine
 62
7
  6
CONTINUOUS
 10
-68.2284283457
 20
23.179816905
 11
-68.2196794794
 21
23.1815624115
  0
LINE
  5
83A
100
AcDbEntity
  8
ASSI
100
AcDbLine
 62
7
  6
CONTINUOUS
 10
-68.6288834287
 20
23.179816905
 11
-68.8257329216
 21
23.1405430089
  0
LINE
  5
83B
100
AcDbEntity
  8
ASSI
100
AcDbLine
 62
7
  6
CONTINUOUS
 10
-74.3525278408
 20
23.1280713985
 11
-74.8616313065
 21
23.0949067751
  0
LINE
  5
83C
100
AcDbEntity
  8
ASSI
100
AcDbLine
 62
7
  6
CONTINUOUS
 10
-76.0841593634
 20
23.1280713985
 11
-74.3525278408
 21
23.129816905
  0
LINE
  5
83D
100
AcDbEntity
  8
ASSI
100
AcDbLine
 62
7
  6
CONTINUOUS
 10
-74.3525278408
 20
23.129816905
 11
-70.4921753213
 21
23.1314902632
  0
LINE
  5
83E
100
AcDbEntity
  8
ASSI
100
AcDbLine
 62
7
  6
CONTINUOUS
 10
-63.8257329216
 20
23.079816905
 11
-68.8257329216
 21
23.079816905
  0
LINE
  5
83F
100
AcDbEntity
  8
ASSI
100
AcDbLine
 62
7
  6
CONTINUOUS
 10
-75.7046079342
 20
23.0929072067
 11
-70.6388118002
 21
23.0929072067
  0
LINE
  5
840
100
AcDbEntity
  8
ASSI
100
AcDbLine
 62
7
  6
CONTINUOUS
 10
-76.1567701686
 20
23.0949067751
 11
-75.7046079342
 21
23.0949067751
  0
LINE
  5
841
100
AcDbEntity
  8
ASSI
100
AcDbLine
 62
7
  6
CONTINUOUS
 10
-63.8257329216
 20
23.129816905
 11
-64.3257329216
 21
23.129816905
  0
LINE
  5
842
100
AcDbEntity
  8
ASSI
100
AcDbLine
 62
7
  6
CONTINUOUS
 10
-68.3257329216
 20
23.129816905
 11
-68.8257329216
 21
23.129816905
  0
LINE
  5
843
100
AcDbEntity
  8
ASSI
100
AcDbLine
 62
7
  6
CONTINUOUS
 10
-68.7045172104
 20
23.1647270348
 11
-68.2908227917
 21
23.1647270348
  0
LINE
  5
844
100
AcDbEntity
  8
ASSI
100
AcDbLine
 62
7
  6
CONTINUOUS
 10
-64.3606430515
 20
23.1647270348
 11
-63.9469486328
 21
23.1647270348
  0
LINE
  5
845
100
AcDbEntity
  8
ASSI
100
AcDbLine
 62
7
  6
CONTINUOUS
 10
-64.0225824145
 20
23.179816905
 11
-64.4230374975
 21
23.179816905
  0
LINE
  5
846
100
AcDbEntity
  8
ASSI
100
AcDbLine
 62
7
  6
CONTINUOUS
 10
-68.2284283457
 20
23.179816905
 11
-68.6288834287
 21
23.179816905
  0
LINE
  5
847
100
AcDbEntity
  8
ASSI
100
AcDbLine
 62
7
  6
CONTINUOUS
 10
-64.4317863638
 20
23.1815624115
 11
-68.2196794794
 21
23.1815624115
  0
LINE
  5
848
100
AcDbEntity
  8
0
100
AcDbLine
 62
7
  6
CONTINUOUS
 10
-56.7586931675
 20
23.219816905
 11
-56.5797329216
 21
23.219816905
  0
LINE
  5
849
100
AcDbEntity
  8
0
100
AcDbLine
 62
250
  6
CONTINUOUS
 10
-56.7697329216
 20
23.229816905
 11
-56.5797329216
 21
23.229816905
  0
LINE
  5
84A
100
AcDbEntity
  8
ASSI
100
AcDbLine
 62
7
  6
CONTINUOUS
 10
-68.8257329216
 20
23.4006234763
 11
-63.8257329216
 21
23.4006234763
  0
LINE
  5
84B
100
AcDbEntity
  8
0
100
AcDbLine
 62
7
  6
CONTINUOUS
 10
-56.7697329216
 20
23.419816905
 11
-56.7797329216
 21
23.419816905
  0
LINE
  5
84C
100
AcDbEntity
  8
0
100
AcDbLine
 62
250
  6
CONTINUOUS
 10
-56.9336931675
 20
23.429816905
 11
-56.7797329216
 21
23.429816905
  0
LINE
  5
84D
100
AcDbEntity
  8
0
100
AcDbLine
 62
7
  6
CONTINUOUS
 10
-57.0920265008
 20
23.619816905
 11
-56.7797329216
 21
23.619816905
  0
LINE
  5
84E
100
AcDbEntity
  8
ASSI
100
AcDbLine
 62
7
  6
CONTINUOUS
 10
-64.4317863638
 20
23.1815624115
 11
-64.4230374975
 21
23.179816905
  0
LINE
  5
84F
100
AcDbEntity
  8
ASSI
100
AcDbLine
 62
7
  6
CONTINUOUS
 10
-63.8257329216
 20
23.1405430089
 11
-64.0225824145
 21
23.179816905
  0
LINE
  5
850
100
AcDbEntity
  8
CURVE
100
AcDbLine
 62
250
  6
CONTINUOUS
 10
-56.0257329216
 20
19.6941026109
 11
-56.3043043723
 21
19.879816905
  0
LINE
  5
851
100
AcDbEntity
  8
ASSI
100
AcDbLine
 62
7
  6
CONTINUOUS
 10
-62.9257329216
 20
28.3099966453
 11
-62.9623885579
 21
28.3466522816
  0
LINE
  5
852
100
AcDbEntity
  8
ASSI
100
AcDbLine
 62
7
  6
CONTINUOUS
 10
-57.5797338191
 20
24.2050656869
 11
-55.4980585359
 21
21.707055347
  0
LWPOLYLINE
  5
853
100
AcDbEntity
  8
ASSI
100
AcDbPolyline
 62
7
  6
CONTINUOUS
 90
10
 70
0
 10
-55.7483976655
 20
22.1935994499
 10
-55.7142759938
 20
22.1493235212
 10
-55.6814456279
 20
22.1041730498
 10
-55.6499065676
 20
22.0581480358
 10
-55.6196336024
 20
22.0112080583
 10
-55.5906519428
 20
21.9633935382
 10
-55.5630372212
 20
21.9148257372
 10
-55.5367952062
 20
21.8655061907
 10
-55.5119201291
 20
21.8154333634
 10
-55.4884703156
 20
21.7647239114
  0
LINE
  5
854
100
AcDbEntity
  8
ASSI
100
AcDbLine
 62
7
  6
CONTINUOUS
 10
-62.9257329216
 20
26.079816905
 11
-63.708139886
 21
26.0069797617
  0
LINE
  5
855
100
AcDbEntity
  8
ASSI
100
AcDbLine
 62
7
  6
CONTINUOUS
 10
-75.0254891512
 20
24.279816905
 11
-70.3257329216
 21
24.279816905
  0
LINE
  5
856
100
AcDbEntity
  8
ASSI
100
AcDbLine
 62
7
  6
CONTINUOUS
 10
-58.1942874416
 20
24.4929072067
 11
-70.0388346464
 21
24.4929072067
  0
LINE
  5
857
100
AcDbEntity
  8
ASSI
100
AcDbLine
 62
250
  6
CONTINUOUS
 10
-57.8757329216
 20
24.9950783539
 11
-58.1025116522
 21
24.9950783539
  0
LINE
  5
858
100
AcDbEntity
  8
ASSI
100
AcDbLine
 62
250
  6
CONTINUOUS
 10
-74.548954191
 20
24.9950783539
 11
-74.7757329216
 21
24.9950783539
  0
LINE
  5
859
100
AcDbEntity
  8
DRAFT
100
AcDbLine
 62
7
  6
CONTINUOUS
 10
-74.7757329216
 20
25.179816905
 11
-74.3564724915
 21
25.179816905
  0
LINE
  5
85A
100
AcDbEntity
  8
DRAFT
100
AcDbLine
 62
7
  6
CONTINUOUS
 10
-58.2949933517
 20
25.179816905
 11
-57.8757329216
 21
25.179816905
  0
LINE
  5
85B
100
AcDbEntity
  8
DRAFT
100
AcDbLine
 62
7
  6
CONTINUOUS
 10
-74.7837272422
 20
25.1878112256
 11
-74.3481430962
 21
25.1878112256
  0
LINE
  5
85C
100
AcDbEntity
  8
DRAFT
100
AcDbLine
 62
7
  6
CONTINUOUS
 10
-58.303322747
 20
25.1878112256
 11
-57.867738601
 21
25.1878112256
  0
LINE
  5
85D
100
AcDbEntity
  8
DRAFT
100
AcDbLine
 62
7
  6
CONTINUOUS
 10
-74.7931879865
 20
25.729816905
 11
-73.7600955717
 21
25.729816905
  0
LINE
  5
85E
100
AcDbEntity
  8
DRAFT
100
AcDbLine
 62
7
  6
CONTINUOUS
 10
-58.8913702715
 20
25.729816905
 11
-57.8582778567
 21
25.729816905
  0
LINE
  5
85F
100
AcDbEntity
  8
RACCORDO
100
AcDbLine
 62
7
  6
CONTINUOUS
 10
-75.4670815416
 20
25.7710893725
 11
-73.7143851935
 21
25.7710893725
  0
LINE
  5
860
100
AcDbEntity
  8
RACCORDO
100
AcDbLine
 62
7
  6
CONTINUOUS
 10
-58.9370806497
 20
25.7710893725
 11
-57.1843843016
 21
25.7710893725
  0
LINE
  5
861
100
AcDbEntity
  8
RACCORDO
100
AcDbLine
 62
7
  6
CONTINUOUS
 10
-57.1756567692
 20
25.779816905
 11
-58.9467466288
 21
25.779816905
  0
LINE
  5
862
100
AcDbEntity
  8
RACCORDO
100
AcDbLine
 62
7
  6
CONTINUOUS
 10
-73.7047192143
 20
25.779816905
 11
-75.475809074
 21
25.779816905
  0
LINE
  5
863
100
AcDbEntity
  8
ASSI
100
AcDbLine
 62
7
  6
CONTINUOUS
 10
-68.9433259572
 20
26.0069797617
 11
-69.7257329216
 21
26.079816905
  0
LWPOLYLINE
  5
864
100
AcDbEntity
  8
ASSI
100
AcDbPolyline
 62
7
  6
CONTINUOUS
 90
10
 70
0
 10
-62.0981902518
 20
-18.4535427525
 10
-62.1539619987
 20
-18.487908672
 10
-62.2113399563
 20
-18.5183713416
 10
-62.2703241247
 20
-18.5449307612
 10
-62.3311768786
 20
-18.5676660397
 10
-62.3936358433
 20
-18.5864980681
 10
-62.4569138945
 20
-18.6011895205
 10
-62.5207486576
 20
-18.6116612881
 10
-62.5854025072
 20
-18.6179924796
 10
-62.6508754434
 20
-18.620183095
  0
LWPOLYLINE
  5
865
100
AcDbEntity
  8
RACCORDO
100
AcDbPolyline
 62
250
  6
CONTINUOUS
 90
9
 70
0
 10
-63.2444800659
 20
-17.1278848447
 10
-63.235096615
 20
-17.1233819669
 10
-63.215517893
 20
-17.1111848384
 10
-63.1982660814
 20
-17.0973527449
 10
-63.1836180881
 20
-17.0821108239
 10
-63.1718148475
 20
-17.0657099169
 10
-63.1630524692
 20
-17.048421219
 10
-63.1574776382
 20
-17.0305323912
 10
-63.1551835122
 20
-17.0123403826
  0
LINE
  5
866
100
AcDbEntity
  8
ASSI
100
AcDbLine
 62
7
  6
CONTINUOUS
 10
-73.2326744645
 20
26.0069797617
 11
-68.9433259572
 21
26.0069797617
  0
LINE
  5
867
100
AcDbEntity
  8
ASSI
100
AcDbLine
 62
7
  6
CONTINUOUS
 10
-63.708139886
 20
26.0069797617
 11
-61.5347909325
 21
26.0069797617
  0
LINE
  5
868
100
AcDbEntity
  8
ASSI
100
AcDbLine
 62
7
  6
CONTINUOUS
 10
-59.4176731538
 20
26.0099966453
 11
-61.5257329216
 21
26.0099966453
  0
LINE
  5
869
100
AcDbEntity
  8
ASSI
100
AcDbLine
 62
7
  6
CONTINUOUS
 10
-73.25965275
 20
26.079816905
 11
-69.7257329216
 21
26.079816905
  0
LINE
  5
86A
100
AcDbEntity
  8
ASSI
100
AcDbLine
 62
7
  6
CONTINUOUS
 10
-62.9257329216
 20
26.079816905
 11
-59.3918130932
 21
26.079816905
  0
LINE
  5
86B
100
AcDbEntity
  8
ASSI
100
AcDbLine
 62
7
  6
CONTINUOUS
 10
-69.0424961407
 20
26.5358874066
 11
-63.6089697025
 21
26.5358874066
  0
LINE
  5
86C
100
AcDbEntity
  8
RACCORDO
100
AcDbLine
 62
250
  6
CONTINUOUS
 10
-63.1551835122
 20
26.7719741925
 11
-63.2444800659
 21
26.7719741925
  0
LINE
  5
86D
100
AcDbEntity
  8
RACCORDO
100
AcDbLine
 62
250
  6
CONTINUOUS
 10
-69.4069857773
 20
26.7719741925
 11
-69.496282331
 21
26.7719741925
  0
LINE
  5
86E
100
AcDbEntity
  8
ASSI
100
AcDbLine
 62
7
  6
CONTINUOUS
 10
-63.2444800659
 20
27.079816905
 11
-69.4069857773
 21
27.079816905
  0
LINE
  5
86F
100
AcDbEntity
  8
0
100
AcDbLine
 62
7
  6
CONTINUOUS
 10
-55.6753523219
 20
27.279816905
 11
-60.781220944
 21
27.279816905
  0
LINE
  5
870
100
AcDbEntity
  8
0
100
AcDbLine
 62
7
  6
CONTINUOUS
 10
-62.9408606445
 20
27.279816905
 11
-63.0257329216
 21
27.279816905
  0
LINE
  5
871
100
AcDbEntity
  8
0
100
AcDbLine
 62
7
  6
CONTINUOUS
 10
-69.6257329216
 20
27.279816905
 11
-69.7106051987
 21
27.279816905
  0
LINE
  5
872
100
AcDbEntity
  8
0
100
AcDbLine
 62
7
  6
CONTINUOUS
 10
-71.8702448992
 20
27.279816905
 11
-76.9761135213
 21
27.279816905
  0
LINE
  5
873
100
AcDbEntity
  8
ASSI
100
AcDbLine
 62
7
  6
CONTINUOUS
 10
-69.6890772852
 20
27.379816905
 11
-69.5558913826
 21
27.379816905
  0
LINE
  5
874
100
AcDbEntity
  8
ASSI
100
AcDbLine
 62
7
  6
CONTINUOUS
 10
-63.0955744606
 20
27.379816905
 11
-62.9623885579
 21
27.379816905
  0
LWPOLYLINE
  5
875
100
AcDbEntity
  8
ASSI
100
AcDbPolyline
 62
7
  6
CONTINUOUS
 90
10
 70
0
 10
-62.0981902518
 20
28.2131765624
 10
-62.1539619987
 20
28.247542482
 10
-62.2113399563
 20
28.2780051515
 10
-62.2703241247
 20
28.3045645712
 10
-62.3311768786
 20
28.3272998496
 10
-62.3936358433
 20
28.3461318781
 10
-62.4569138945
 20
28.3608233304
 10
-62.5207486576
 20
28.371295098
 10
-62.5854025072
 20
28.3776262895
 10
-62.6508754434
 20
28.379816905
  0
LWPOLYLINE
  5
876
100
AcDbEntity
  8
ASSI
100
AcDbPolyline
 62
7
  6
CONTINUOUS
 90
10
 70
0
 10
-70.0005903998
 20
28.379816905
 10
-70.066063336
 20
28.3776262895
 10
-70.1307171856
 20
28.371295098
 10
-70.1945519487
 20
28.3608233304
 10
-70.2578299999
 20
28.3461318781
 10
-70.3202889646
 20
28.3272998496
 10
-70.3811417185
 20
28.3045645712
 10
-70.4401258869
 20
28.2780051515
 10
-70.4975038445
 20
28.247542482
 10
-70.5532755914
 20
28.2131765624
  0
LINE
  5
877
100
AcDbEntity
  8
RACCORDO
100
AcDbLine
 62
250
  6
CONTINUOUS
 10
-63.0955744606
 20
28.054816905
 11
-63.1103856575
 21
28.054816905
  0
LINE
  5
878
100
AcDbEntity
  8
RACCORDO
100
AcDbLine
 62
250
  6
CONTINUOUS
 10
-69.5410801857
 20
28.054816905
 11
-69.5558913826
 21
28.054816905
  0
LINE
  5
879
100
AcDbEntity
  8
RACCORDO
100
AcDbLine
 62
7
  6
CONTINUOUS
 10
-69.3432476316
 20
28.254816905
 11
-63.3082182116
 21
28.254816905
  0
LINE
  5
87A
100
AcDbEntity
  8
ASSI
100
AcDbLine
 62
7
  6
CONTINUOUS
 10
-69.9795239966
 20
28.3099966453
 11
-69.7257329216
 21
28.3099966453
  0
LINE
  5
87B
100
AcDbEntity
  8
ASSI
100
AcDbLine
 62
7
  6
CONTINUOUS
 10
-62.9257329216
 20
28.3099966453
 11
-62.6719418466
 21
28.3099966453
  0
LINE
  5
87C
100
AcDbEntity
  8
ASSI
100
AcDbLine
 62
7
  6
CONTINUOUS
 10
-69.6890772852
 20
28.3466522816
 11
-62.9623885579
 21
28.3466522816
  0
LINE
  5
87D
100
AcDbEntity
  8
ASSI
100
AcDbLine
 62
7
  6
CONTINUOUS
 10
-70.0005903998
 20
28.379816905
 11
-62.6508754434
 21
28.379816905
  0
LWPOLYLINE
  5
87E
100
AcDbEntity
  8
ASSI
100
AcDbPolyline
 62
7
  6
CONTINUOUS
 90
10
 70
0
 10
-62.6719418466
 20
28.3099966453
 10
-62.6063805072
 20
28.3077999864
 10
-62.5416415156
 20
28.3014519472
 10
-62.4777248717
 20
28.2909525276
 10
-62.4143671838
 20
28.2762222001
 10
-62.3518318438
 20
28.2573404921
 10
-62.2909090265
 20
28.2345459866
 10
-62.2318621235
 20
28.2079182109
 10
-62.1744277433
 20
28.1773776377
 10
-62.1186058859
 20
28.1429242668
  0
ARC
  5
87F
100
AcDbEntity
  8
0
100
AcDbCircle
 62
7
  6
CONTINUOUS
 10
-75.5257329216
 20
-12.320183095
 40
1.4
100
AcDbArc
 50
180.0
 51
270.0
  0
ARC
  5
880
100
AcDbEntity
  8
CURVE
100
AcDbCircle
 62
250
  6
CONTINUOUS
 10
-69.0757329216
 20
-10.4719730548
 40
0.75
100
AcDbArc
 50
180.0
 51
360.0
  0
ARC
  5
881
100
AcDbEntity
  8
CURVE
100
AcDbCircle
 62
250
  6
CONTINUOUS
 10
-67.5757329216
 20
-10.4719730548
 40
0.75
100
AcDbArc
 50
0.0
 51
180.0
  0
ARC
  5
882
100
AcDbEntity
  8
ASSI
100
AcDbCircle
 62
7
  6
CONTINUOUS
 10
-71.2757329216
 20
-18.220183095
 40
0.5
100
AcDbArc
 50
350.803718421
 51
119.112422776
  0
ARC
  5
883
100
AcDbEntity
  8
RACCORDO
100
AcDbCircle
 62
7
  6
CONTINUOUS
 10
-69.4757329216
 20
-16.770183095
 40
0.3
100
AcDbArc
 50
106.8864186508
 51
146.5620940008
  0
ARC
  5
884
100
AcDbEntity
  8
RACCORDO
100
AcDbCircle
 62
7
  6
CONTINUOUS
 10
-69.4757329216
 20
-16.770183095
 40
0.3
100
AcDbArc
 50
213.4347943313
 51
253.1135813492
  0
ARC
  5
885
100
AcDbEntity
  8
RACCORDO
100
AcDbCircle
 62
250
  6
CONTINUOUS
 10
-69.4757329216
 20
-16.770183095
 40
0.1
100
AcDbArc
 50
143.2816890224
 51
216.7183109776
  0
ARC
  5
886
100
AcDbEntity
  8
ASSI
100
AcDbCircle
 62
7
  6
CONTINUOUS
 10
-77.5757329216
 20
4.879816905
 40
28.0
100
AcDbArc
 50
38.3146467789
 51
54.0372348486
  0
ARC
  5
887
100
AcDbEntity
  8
ASSI
100
AcDbCircle
 62
7
  6
CONTINUOUS
 10
-77.5757329216
 20
4.879816905
 40
28.0
100
AcDbArc
 50
55.8789063483
 51
56.4427876864
  0
ARC
  5
888
100
AcDbEntity
  8
ASSI
100
AcDbCircle
 62
7
  6
CONTINUOUS
 10
-77.5757329216
 20
4.879816905
 40
28.0
100
AcDbArc
 50
303.5572123136
 51
304.1210936517
  0
ARC
  5
889
100
AcDbEntity
  8
ASSI
100
AcDbCircle
 62
7
  6
CONTINUOUS
 10
-77.5757329216
 20
4.879816905
 40
28.0
100
AcDbArc
 50
305.9627651514
 51
321.6853532211
  0
ARC
  5
88A
100
AcDbEntity
  8
ASSI
100
AcDbCircle
 62
7
  6
CONTINUOUS
 10
-77.5757329216
 20
4.879816905
 40
27.9301797403
100
AcDbArc
 50
55.7977423189
 51
56.3980257285
  0
ARC
  5
88B
100
AcDbEntity
  8
ASSI
100
AcDbCircle
 62
7
  6
CONTINUOUS
 10
-77.5757329216
 20
4.879816905
 40
27.9301797403
100
AcDbArc
 50
49.3792497998
 51
54.118398878
  0
ARC
  5
88C
100
AcDbEntity
  8
ASSI
100
AcDbCircle
 62
7
  6
CONTINUOUS
 10
-77.5757329216
 20
4.879816905
 40
27.9301797403
100
AcDbArc
 50
305.881601122
 51
310.6207502002
  0
ARC
  5
88D
100
AcDbEntity
  8
ASSI
100
AcDbCircle
 62
7
  6
CONTINUOUS
 10
-77.5757329216
 20
4.879816905
 40
27.9301797403
100
AcDbArc
 50
303.6019742715
 51
304.2022576811
  0
ARC
  5
88E
100
AcDbEntity
  8
ASSI
100
AcDbCircle
 62
7
  6
CONTINUOUS
 10
-77.5757329216
 20
4.879816905
 40
27.8603594806
100
AcDbArc
 50
42.2727971559
 51
49.3261342155
  0
ARC
  5
88F
100
AcDbEntity
  8
ASSI
100
AcDbCircle
 62
7
  6
CONTINUOUS
 10
-77.5757329216
 20
4.879816905
 40
27.8603594806
100
AcDbArc
 50
38.4219992771
 51
41.0930926737
  0
ARC
  5
890
100
AcDbEntity
  8
ASSI
100
AcDbCircle
 62
7
  6
CONTINUOUS
 10
-77.5757329216
 20
4.879816905
 40
27.8603594806
100
AcDbArc
 50
318.9069073263
 51
321.5780007229
  0
ARC
  5
891
100
AcDbEntity
  8
ASSI
100
AcDbCircle
 62
7
  6
CONTINUOUS
 10
-77.5757329216
 20
4.879816905
 40
27.8603594806
100
AcDbArc
 50
310.6738657845
 51
317.7272028441
  0
ARC
  5
892
100
AcDbEntity
  8
CURVE
100
AcDbCircle
 62
250
  6
CONTINUOUS
 10
-72.3257449216
 20
19.399406905
 40
2.5500000352
100
AcDbArc
 50
354.2608296022
 51
185.7391703978
  0
ARC
  5
893
100
AcDbEntity
  8
CURVE
100
AcDbCircle
 62
250
  6
CONTINUOUS
 10
-72.3257449216
 20
15.064406905
 40
2.5500000352
100
AcDbArc
 50
354.2608296022
 51
185.7391703978
  0
ARC
  5
894
100
AcDbEntity
  8
CURVE
100
AcDbCircle
 62
250
  6
CONTINUOUS
 10
-72.3257449216
 20
15.064406905
 40
1.7850001745
100
AcDbArc
 50
351.7867901066
 51
77.626372977
  0
ARC
  5
895
100
AcDbEntity
  8
CURVE
100
AcDbCircle
 62
250
  6
CONTINUOUS
 10
-72.3257449216
 20
19.399406905
 40
1.7850001745
100
AcDbArc
 50
351.7867901066
 51
188.2132098934
  0
ARC
  5
896
100
AcDbEntity
  8
CURVE
100
AcDbCircle
 62
250
  6
CONTINUOUS
 10
-72.3257449216
 20
15.064406905
 40
1.7849997292
100
AcDbArc
 50
102.373627023
 51
188.2132098934
  0
ARC
  5
897
100
AcDbEntity
  8
ASSI
100
AcDbCircle
 62
7
  6
CONTINUOUS
 10
-76.6157329216
 20
21.0648462022
 40
0.71
100
AcDbArc
 50
170.3742664211
 51
180.0
  0
ARC
  5
898
100
AcDbEntity
  8
ASSI
100
AcDbCircle
 62
7
  6
CONTINUOUS
 10
-71.2757329216
 20
27.979816905
 40
0.5
100
AcDbArc
 50
240.887577224
 51
9.1962815791
  0
ARC
  5
899
100
AcDbEntity
  8
RACCORDO
100
AcDbCircle
 62
7
  6
CONTINUOUS
 10
-69.4757329216
 20
26.529816905
 40
0.3
100
AcDbArc
 50
106.8864186508
 51
146.5620940008
  0
ARC
  5
89A
100
AcDbEntity
  8
RACCORDO
100
AcDbCircle
 62
7
  6
CONTINUOUS
 10
-69.4757329216
 20
26.529816905
 40
0.3
100
AcDbArc
 50
213.4347943313
 51
253.1135813492
  0
ARC
  5
89B
100
AcDbEntity
  8
RACCORDO
100
AcDbCircle
 62
250
  6
CONTINUOUS
 10
-69.4757329216
 20
26.529816905
 40
0.1
100
AcDbArc
 50
143.2816890224
 51
216.7183109776
  0
CIRCLE
  5
89C
100
AcDbEntity
  8
CURVE
100
AcDbCircle
 62
250
  6
CONTINUOUS
 10
-59.2257319216
 20
-8.882584095
 40
0.508333
  0
ARC
  5
89D
100
AcDbEntity
  8
ASSI
100
AcDbCircle
 62
7
  6
CONTINUOUS
 10
-61.3757329216
 20
-18.220183095
 40
0.5
100
AcDbArc
 50
60.887577224
 51
189.196281579
  0
CIRCLE
  5
89E
100
AcDbEntity
  8
CURVE
100
AcDbCircle
 62
250
  6
CONTINUOUS
 10
-60.2551049216
 20
-3.684883095
 40
0.317592
  0
ARC
  5
89F
100
AcDbEntity
  8
RACCORDO
100
AcDbCircle
 62
7
  6
CONTINUOUS
 10
-63.1757329216
 20
-16.770183095
 40
0.3
100
AcDbArc
 50
286.8864186508
 51
326.5620940008
  0
ARC
  5
8A0
100
AcDbEntity
  8
RACCORDO
100
AcDbCircle
 62
7
  6
CONTINUOUS
 10
-63.1757329216
 20
-16.770183095
 40
0.3
100
AcDbArc
 50
33.4347943313
 51
73.1135813492
  0
CIRCLE
  5
8A1
100
AcDbEntity
  8
CURVE
100
AcDbCircle
 62
250
  6
CONTINUOUS
 10
-56.9095509216
 20
-4.110096095
 40
0.192582
  0
ARC
  5
8A2
100
AcDbEntity
  8
0
100
AcDbCircle
 62
7
  6
CONTINUOUS
 10
-56.7697329216
 20
-13.470183095
 40
0.19
100
AcDbArc
 50
270.0
 51
360.0
  0
CIRCLE
  5
8A3
100
AcDbEntity
  8
CURVE
100
AcDbCircle
 62
250
  6
CONTINUOUS
 10
-60.2551049216
 20
-3.684883095
 40
0.14051
  0
ARC
  5
8A4
100
AcDbEntity
  8
RACCORDO
100
AcDbCircle
 62
250
  6
CONTINUOUS
 10
-63.1757329216
 20
-16.770183095
 40
0.1
100
AcDbArc
 50
323.2816890224
 51
36.7183109776
  0
ARC
  5
8A5
100
AcDbEntity
  8
ASSI
100
AcDbCircle
 62
7
  6
CONTINUOUS
 10
-55.0757329216
 20
4.879816905
 40
28.0
100
AcDbArc
 50
123.5572123136
 51
124.1210936517
  0
ARC
  5
8A6
100
AcDbEntity
  8
ASSI
100
AcDbCircle
 62
7
  6
CONTINUOUS
 10
-55.0757329216
 20
4.879816905
 40
28.0
100
AcDbArc
 50
125.9627651514
 51
141.6853532211
  0
ARC
  5
8A7
100
AcDbEntity
  8
ASSI
100
AcDbCircle
 62
7
  6
CONTINUOUS
 10
-55.0757329216
 20
4.879816905
 40
28.0
100
AcDbArc
 50
221.2739184047
 51
234.0372348486
  0
ARC
  5
8A8
100
AcDbEntity
  8
ASSI
100
AcDbCircle
 62
7
  6
CONTINUOUS
 10
-55.0757329216
 20
4.879816905
 40
28.0
100
AcDbArc
 50
218.3146467789
 51
218.8603328395
  0
ARC
  5
8A9
100
AcDbEntity
  8
ASSI
100
AcDbCircle
 62
7
  6
CONTINUOUS
 10
-55.0757329216
 20
4.879816905
 40
28.0
100
AcDbArc
 50
235.8789063483
 51
236.4427876864
  0
ARC
  5
8AA
100
AcDbEntity
  8
ASSI
100
AcDbCircle
 62
7
  6
CONTINUOUS
 10
-55.0757329216
 20
4.879816905
 40
27.9301797403
100
AcDbArc
 50
125.881601122
 51
130.6207502002
  0
ARC
  5
8AB
100
AcDbEntity
  8
ASSI
100
AcDbCircle
 62
7
  6
CONTINUOUS
 10
-55.0757329216
 20
4.879816905
 40
27.9301797403
100
AcDbArc
 50
123.6019742715
 51
124.2022576811
  0
ARC
  5
8AC
100
AcDbEntity
  8
ASSI
100
AcDbCircle
 62
7
  6
CONTINUOUS
 10
-55.0757329216
 20
4.879816905
 40
27.9301797403
100
AcDbArc
 50
235.7977423189
 51
236.3980257285
  0
ARC
  5
8AD
100
AcDbEntity
  8
ASSI
100
AcDbCircle
 62
7
  6
CONTINUOUS
 10
-55.0757329216
 20
4.879816905
 40
27.9301797403
100
AcDbArc
 50
229.3792497998
 51
234.118398878
  0
ARC
  5
8AE
100
AcDbEntity
  8
ASSI
100
AcDbCircle
 62
7
  6
CONTINUOUS
 10
-55.0757329216
 20
4.879816905
 40
27.8603594806
100
AcDbArc
 50
139.1713136528
 51
141.5780007229
  0
ARC
  5
8AF
100
AcDbEntity
  8
ASSI
100
AcDbCircle
 62
7
  6
CONTINUOUS
 10
-55.0757329216
 20
4.879816905
 40
27.8271948572
100
AcDbArc
 50
135.8004284034
 51
139.0218980554
  0
ARC
  5
8B0
100
AcDbEntity
  8
ASSI
100
AcDbCircle
 62
7
  6
CONTINUOUS
 10
-55.0757329216
 20
4.879816905
 40
27.8271948572
100
AcDbArc
 50
221.8708553617
 51
224.1995715966
  0
ARC
  5
8B1
100
AcDbEntity
  8
ASSI
100
AcDbCircle
 62
7
  6
CONTINUOUS
 10
-61.3757329216
 20
27.979816905
 40
0.5
100
AcDbArc
 50
170.803718421
 51
299.112422776
  0
ARC
  5
8B2
100
AcDbEntity
  8
RACCORDO
100
AcDbCircle
 62
7
  6
CONTINUOUS
 10
-63.1757329216
 20
26.529816905
 40
0.3
100
AcDbArc
 50
286.8864186508
 51
326.5620940008
  0
ARC
  5
8B3
100
AcDbEntity
  8
RACCORDO
100
AcDbCircle
 62
7
  6
CONTINUOUS
 10
-63.1757329216
 20
26.529816905
 40
0.3
100
AcDbArc
 50
33.4347943313
 51
73.1135813492
  0
ARC
  5
8B4
100
AcDbEntity
  8
0
100
AcDbCircle
 62
7
  6
CONTINUOUS
 10
-56.7697329216
 20
23.229816905
 40
0.19
100
AcDbArc
 50
0.0
 51
90.0
  0
ARC
  5
8B5
100
AcDbEntity
  8
RACCORDO
100
AcDbCircle
 62
250
  6
CONTINUOUS
 10
-63.1757329216
 20
26.529816905
 40
0.1
100
AcDbArc
 50
323.2816890224
 51
36.7183109776
  0
ELLIPSE
  5
8B6
100
AcDbEntity
  8
0
100
AcDbEllipse
 62
7
  6
CONTINUOUS
 10
-55.6758090856
 20
26.779130732
 30
0.0
 11
0.1582391023
 21
0.4751033573
 31
0.0
 40
0.9984778551
 41
-1.2488325878
 42
0.3210503505
  0
ELLIPSE
  5
8B7
100
AcDbEntity
  8
0
100
AcDbEllipse
 62
7
  6
CONTINUOUS
 10
-55.6758090856
 20
-17.019496922
 30
0.0
 11
-0.1582391023
 21
0.4751033573
 31
0.0
 40
0.9984778551
 41
2.8205423031
 42
4.3904252414
  0
ELLIPSE
  5
8B8
100
AcDbEntity
  8
0
100
AcDbEllipse
 62
7
  6
CONTINUOUS
 10
-76.9756567576
 20
26.779130732
 30
0.0
 11
-0.1582391023
 21
0.4751033573
 31
0.0
 40
0.9984778551
 41
-0.3210503505
 42
1.2488325878
  0
ELLIPSE
  5
8B9
100
AcDbEntity
  8
0
100
AcDbEllipse
 62
7
  6
CONTINUOUS
 10
-76.9756567576
 20
-17.019496922
 30
0.0
 11
0.1582391023
 21
0.4751033573
 31
0.0
 40
0.9984778551
 41
1.8927600658
 42
3.4626430041
  0
ELLIPSE
  5
8BA
100
AcDbEntity
  8
RACCORDO
100
AcDbEllipse
 62
7
  6
CONTINUOUS
 10
-63.2956963694
 20
-18.295183095
 30
0.0
 11
0.2001219089
 21
0.0
 31
0.0
 40
0.999390827
 41
-1.5707963268
 42
0.0
  0
ELLIPSE
  5
8BB
100
AcDbEntity
  8
RACCORDO
100
AcDbEllipse
 62
7
  6
CONTINUOUS
 10
-69.3557694738
 20
-18.295183095
 30
0.0
 11
0.2001219089
 21
0.0
 31
0.0
 40
0.999390827
 41
3.1415926536
 42
4.577803198
  0
ELLIPSE
  5
8BC
100
AcDbEntity
  8
RACCORDO
100
AcDbEllipse
 62
7
  6
CONTINUOUS
 10
-63.2956963694
 20
28.054816905
 30
0.0
 11
0.2001219089
 21
-0.0
 31
0.0
 40
0.999390827
 41
0.0
 42
1.4362105444
  0
ELLIPSE
  5
8BD
100
AcDbEntity
  8
RACCORDO
100
AcDbEllipse
 62
7
  6
CONTINUOUS
 10
-69.3557694738
 20
28.054816905
 30
0.0
 11
0.2001219089
 21
-0.0
 31
0.0
 40
0.999390827
 41
1.5707963268
 42
3.1415926536
  0
ELLIPSE
  5
8BE
100
AcDbEntity
  8
RACCORDO
100
AcDbEllipse
 62
7
  6
CONTINUOUS
 10
-75.4756567576
 20
-15.520106931
 30
0.0
 11
0.3536610946
 21
0.3536610946
 31
0.0
 40
0.9996954599
 41
-3.9268385237
 42
-2.3563467834
  0
ELLIPSE
  5
8BF
100
AcDbEntity
  8
RACCORDO
100
AcDbEllipse
 62
7
  6
CONTINUOUS
 10
-57.1758090856
 20
-15.520106931
 30
0.0
 11
0.3536610946
 21
-0.3536610946
 31
0.0
 40
0.9996954599
 41
-0.7852458701
 42
0.7852458701
  0
ELLIPSE
  5
8C0
100
AcDbEntity
  8
RACCORDO
100
AcDbEllipse
 62
7
  6
CONTINUOUS
 10
-57.1758090856
 20
25.2797407409
 30
0.0
 11
0.3536610946
 21
0.3536610946
 31
0.0
 40
0.9996954599
 41
-0.7852458701
 42
0.7852458701
  0
ELLIPSE
  5
8C1
100
AcDbEntity
  8
RACCORDO
100
AcDbEllipse
 62
7
  6
CONTINUOUS
 10
-75.4756567576
 20
25.2797407409
 30
0.0
 11
0.3536610946
 21
-0.3536610946
 31
0.0
 40
0.9996954599
 41
2.3563467834
 42
3.9268385237
  0
ELLIPSE
  5
8C2
100
AcDbEntity
  8
RACCORDO
100
AcDbEllipse
 62
7
  6
CONTINUOUS
 10
-75.4669292251
 20
25.2710132085
 30
0.0
 11
0.3536610946
 21
-0.3536610946
 31
0.0
 40
0.9996954599
 41
2.3563467834
 42
3.9268385237
  0
ELLIPSE
  5
8C3
100
AcDbEntity
  8
RACCORDO
100
AcDbEllipse
 62
7
  6
CONTINUOUS
 10
-57.1845366181
 20
25.2710132085
 30
0.0
 11
-0.3536610946
 21
-0.3536610946
 31
0.0
 40
0.9996954599
 41
2.3563467834
 42
3.9268385237
  0
ELLIPSE
  5
8C4
100
AcDbEntity
  8
RACCORDO
100
AcDbEllipse
 62
7
  6
CONTINUOUS
 10
-57.1845366181
 20
-15.5113793985
 30
0.0
 11
-0.3536610946
 21
0.3536610946
 31
0.0
 40
0.9996954599
 41
2.3563467834
 42
3.9268385237
  0
ELLIPSE
  5
8C5
100
AcDbEntity
  8
RACCORDO
100
AcDbEllipse
 62
7
  6
CONTINUOUS
 10
-75.4669292251
 20
-15.5113793985
 30
0.0
 11
0.3536610946
 21
0.3536610946
 31
0.0
 40
0.9996954599
 41
2.3563467834
 42
3.9268385237
  0
ELLIPSE
  5
8C6
100
AcDbEntity
  8
ASSI
100
AcDbEllipse
 62
7
  6
CONTINUOUS
 10
-77.4807044539
 20
5.629816905
 30
0.0
 11
-0.0
 21
0.5
 31
0.0
 40
0.0174550649
 41
-0.0
 42
0.4528247396
  0
ELLIPSE
  5
8C7
100
AcDbEntity
  8
ASSI
100
AcDbEllipse
 62
7
  6
CONTINUOUS
 10
-77.4807044539
 20
4.129816905
 30
0.0
 11
0.0
 21
0.5
 31
0.0
 40
0.0174550649
 41
-3.5944173932
 42
-3.1415926536
  0
ELLIPSE
  5
8C8
100
AcDbEntity
  8
ASSI
100
AcDbEllipse
 62
7
  6
CONTINUOUS
 10
-55.1707613893
 20
5.629816905
 30
0.0
 11
0.0
 21
0.5
 31
0.0
 40
0.0174550649
 41
-0.4528247396
 42
-0.0
  0
ELLIPSE
  5
8C9
100
AcDbEntity
  8
ASSI
100
AcDbEllipse
 62
7
  6
CONTINUOUS
 10
-55.1707613893
 20
4.129816905
 30
0.0
 11
-0.0
 21
0.5
 31
0.0
 40
0.0174550649
 41
-3.1415926536
 42
-2.688767914
  0
ELLIPSE
  5
8CA
100
AcDbEntity
  8
ASSI
100
AcDbEllipse
 62
7
  6
CONTINUOUS
 10
-55.0757329216
 20
4.3998559561
 30
0.0
 11
0.0
 21
27.4969443471
 31
0.0
 40
0.9998476487
 41
-3.9535521451
 42
-3.8629791428
  0
ELLIPSE
  5
8CB
100
AcDbEntity
  8
ASSI
100
AcDbEllipse
 62
7
  6
CONTINUOUS
 10
-55.0757329216
 20
5.3597778539
 30
0.0
 11
-0.0
 21
27.4969443471
 31
0.0
 40
0.9998476487
 41
0.7213864892
 42
0.8119594915
  0
ELLIPSE
  5
8CC
100
AcDbEntity
  8
ASSI
100
AcDbEllipse
 62
7
  6
CONTINUOUS
 10
-70.6388346468
 20
23.3929186302
 30
0.0
 11
-0.2121481893
 21
0.2121481893
 31
0.0
 40
0.9999238505
 41
-3.9269527408
 42
-2.3562325664
  0
ELLIPSE
  5
8CD
100
AcDbEntity
  8
ASSI
100
AcDbEllipse
 62
7
  6
CONTINUOUS
 10
-70.0388117998
 20
24.1928957831
 30
0.0
 11
0.2121481893
 21
-0.2121481893
 31
0.0
 40
0.9999238505
 41
2.3562325664
 42
3.9269527408
  0
ELLIPSE
  5
8CE
100
AcDbEntity
  8
ASSI
100
AcDbEllipse
 62
7
  6
CONTINUOUS
 10
-58.194315977
 20
23.6928767439
 30
0.0
 11
0.3393400724
 21
0.7245051754
 31
0.0
 40
0.9999535705
 41
-0.4380111911
 42
0.4380111911
  0
ELLIPSE
  5
8CF
100
AcDbEntity
  8
ASSI
100
AcDbEllipse
 62
7
  6
CONTINUOUS
 10
-56.1126730826
 20
21.1949052707
 30
0.0
 11
0.7522496598
 21
0.2723519406
 31
0.0
 40
0.9999569323
 41
-0.3473553524
 42
0.3473553524
  0
ELLIPSE
  5
8D0
100
AcDbEntity
  8
ASSI
100
AcDbEllipse
 62
7
  6
CONTINUOUS
 10
-56.1126730826
 20
-11.4352714607
 30
0.0
 11
-0.7522496598
 21
0.2723519406
 31
0.0
 40
0.9999569323
 41
2.7942373012
 42
3.488948006
  0
ELLIPSE
  5
8D1
100
AcDbEntity
  8
ASSI
100
AcDbEllipse
 62
7
  6
CONTINUOUS
 10
-58.194315977
 20
-13.933242934
 30
0.0
 11
0.3393400724
 21
-0.7245051754
 31
0.0
 40
0.9999535705
 41
-0.4380111911
 42
0.4380111911
  0
ELLIPSE
  5
8D2
100
AcDbEntity
  8
ASSI
100
AcDbEllipse
 62
7
  6
CONTINUOUS
 10
-70.0388117998
 20
-14.4332619732
 30
0.0
 11
-0.2121481893
 21
-0.2121481893
 31
0.0
 40
0.9999238505
 41
-0.7853600872
 42
0.7853600872
  0
ELLIPSE
  5
8D3
100
AcDbEntity
  8
ASSI
100
AcDbEllipse
 62
7
  6
CONTINUOUS
 10
-75.7045753285
 20
-12.533242934
 30
0.0
 11
0.3775048314
 21
0.7053742298
 31
0.0
 40
0.9999510178
 41
2.65021617
 42
3.6329691372
  0
ELLIPSE
  5
8D4
100
AcDbEntity
  8
ASSI
100
AcDbEllipse
 62
7
  6
CONTINUOUS
 10
-76.5387927606
 20
-11.2819167859
 30
0.0
 11
-0.7657054495
 21
-0.2318369558
 31
0.0
 40
0.9999584327
 41
-0.293989773
 42
0.293989773
  0
ELLIPSE
  5
8D5
100
AcDbEntity
  8
ASSI
100
AcDbEllipse
 62
7
  6
CONTINUOUS
 10
-77.0388117998
 20
1.429816905
 30
0.0
 11
0.3000114235
 21
0.0
 31
0.0
 40
0.9999619231
 41
1.5707963268
 42
3.1415926536
  0
ELLIPSE
  5
8D6
100
AcDbEntity
  8
ASSI
100
AcDbEllipse
 62
7
  6
CONTINUOUS
 10
-77.0388117998
 20
6.329816905
 30
0.0
 11
-0.3000114235
 21
0.0
 31
0.0
 40
0.9999619231
 41
0.0
 42
1.5707963268
  0
ELLIPSE
  5
8D7
100
AcDbEntity
  8
ASSI
100
AcDbEllipse
 62
7
  6
CONTINUOUS
 10
-77.0388117998
 20
6.429816905
 30
0.0
 11
0.3000114235
 21
0.0
 31
0.0
 40
0.9999619231
 41
1.5707963268
 42
3.1415926536
  0
ELLIPSE
  5
8D8
100
AcDbEntity
  8
ASSI
100
AcDbEllipse
 62
7
  6
CONTINUOUS
 10
-77.0388117998
 20
11.329816905
 30
0.0
 11
-0.3000114235
 21
0.0
 31
0.0
 40
0.9999619231
 41
0.0
 42
1.5707963268
  0
ELLIPSE
  5
8D9
100
AcDbEntity
  8
ASSI
100
AcDbEllipse
 62
7
  6
CONTINUOUS
 10
-77.0388117998
 20
11.429816905
 30
0.0
 11
0.3000114235
 21
0.0
 31
0.0
 40
0.9999619231
 41
1.5707963268
 42
3.1415926536
  0
ELLIPSE
  5
8DA
100
AcDbEntity
  8
ASSI
100
AcDbEllipse
 62
7
  6
CONTINUOUS
 10
-77.0388117998
 20
16.329816905
 30
0.0
 11
-0.3000114235
 21
0.0
 31
0.0
 40
0.9999619231
 41
0.0
 42
1.5707963268
  0
ELLIPSE
  5
8DB
100
AcDbEntity
  8
ASSI
100
AcDbEllipse
 62
7
  6
CONTINUOUS
 10
-77.0388117998
 20
16.429816905
 30
0.0
 11
0.3000114235
 21
0.0
 31
0.0
 40
0.9999619231
 41
1.5707963268
 42
3.1415926536
  0
ELLIPSE
  5
8DC
100
AcDbEntity
  8
ASSI
100
AcDbEllipse
 62
7
  6
CONTINUOUS
 10
-77.0388117998
 20
21.329816905
 30
0.0
 11
-0.3000114235
 21
0.0
 31
0.0
 40
0.9999619231
 41
0.3709044765
 42
1.5707963268
  0
ELLIPSE
  5
8DD
100
AcDbEntity
  8
ASSI
100
AcDbEllipse
 62
7
  6
CONTINUOUS
 10
-76.5387927606
 20
21.0415505959
 30
0.0
 11
-0.7657054495
 21
0.2318369558
 31
0.0
 40
0.9999584327
 41
-0.293989773
 42
0.0676751291
  0
ELLIPSE
  5
8DE
100
AcDbEntity
  8
ASSI
100
AcDbEllipse
 62
7
  6
CONTINUOUS
 10
-75.7045753285
 20
22.2928767439
 30
0.0
 11
-0.3775048314
 21
0.7053742298
 31
0.0
 40
0.9999510178
 41
-0.4913764836
 42
0.4913764836
  0
ELLIPSE
  5
8DF
100
AcDbEntity
  8
ASSI
100
AcDbEllipse
 62
7
  6
CONTINUOUS
 10
-64.7435325295
 20
-12.820183095
 30
0.0
 11
-0.2856392311
 21
0.2806972637
 31
0.0
 40
0.9976641103
 41
-1.8395455771
 42
-0.7929549894
  0
ELLIPSE
  5
8E0
100
AcDbEntity
  8
ASSI
100
AcDbEllipse
 62
7
  6
CONTINUOUS
 10
-67.9079333137
 20
-12.820183095
 30
0.0
 11
0.2856392311
 21
0.2806972637
 31
0.0
 40
0.9976641103
 41
0.7929549894
 42
1.8395455771
  0
ELLIPSE
  5
8E1
100
AcDbEntity
  8
ASSI
100
AcDbEllipse
 62
7
  6
CONTINUOUS
 10
-67.8293484572
 20
22.579816905
 30
0.0
 11
-0.2856392311
 21
0.2806972637
 31
0.0
 40
0.9976641103
 41
1.3020470765
 42
2.3486376642
  0
ELLIPSE
  5
8E2
100
AcDbEntity
  8
ASSI
100
AcDbEllipse
 62
7
  6
CONTINUOUS
 10
-64.8221173859
 20
22.579816905
 30
0.0
 11
0.2856392311
 21
0.2806972637
 31
0.0
 40
0.9976641103
 41
-2.3486376642
 42
-1.3020470765
  0
ELLIPSE
  5
8E3
100
AcDbEntity
  8
ASSI
100
AcDbEllipse
 62
7
  6
CONTINUOUS
 10
-76.1671855436
 20
18.879816905
 30
0.0
 11
-0.0
 21
2.15
 31
0.0
 40
0.0087268678
 41
0.3047617277
 42
3.1415926536
  0
ELLIPSE
  5
8E4
100
AcDbEntity
  8
ASSI
100
AcDbEllipse
 62
7
  6
CONTINUOUS
 10
-76.1671855436
 20
13.879816905
 30
0.0
 11
0.0
 21
2.15
 31
0.0
 40
0.0087268678
 41
-0.0
 42
3.1415926536
  0
ELLIPSE
  5
8E5
100
AcDbEntity
  8
ASSI
100
AcDbEllipse
 62
7
  6
CONTINUOUS
 10
-76.1671855436
 20
8.879816905
 30
0.0
 11
0.0
 21
2.15
 31
0.0
 40
0.0087268678
 41
-0.0
 42
3.1415926536
  0
ELLIPSE
  5
8E6
100
AcDbEntity
  8
ASSI
100
AcDbEllipse
 62
7
  6
CONTINUOUS
 10
-76.1671855436
 20
3.879816905
 30
0.0
 11
0.0
 21
2.15
 31
0.0
 40
0.0087268678
 41
-0.0
 42
3.1415926536
  0
ELLIPSE
  5
8E7
100
AcDbEntity
  8
ASSI
100
AcDbEllipse
 62
7
  6
CONTINUOUS
 10
-77.5333322628
 20
18.879816905
 30
0.0
 11
1.4334257026
 21
2.149974807
 31
0.0
 40
0.0072610228
 41
0.1795312496
 42
0.3096027404
  0
ENDSEC
  0
SECTION
  2
OBJECTS
  0
DICTIONARY
  5
C
100
AcDbDictionary
280
0
281
1
  3
ACAD_GROUP
350
D
  3
ACAD_MLINESTYLE
350
17
  3
ACAD_LAYOUT
350
1A
  3
ACAD_PLOTSETTINGS
350
19
  3
ACAD_PLOTSTYLENAME
350
E
  0
DICTIONARY
  5
D
102
{ACAD_REACTORS
330
C
102
}
100
AcDbDictionary
280
0
281
1
  0
ACDBDICTIONARYWDFLT
  5
E
102
{ACAD_REACTORS
330
C
102
}
100
AcDbDictionary
281
1
  3
Normal
350
F
100
AcDbDictionaryWithDefault
340
F
  0
DICTIONARY
  5
17
102
{ACAD_REACTORS
330
C
102
}
100
AcDbDictionary
280
0
281
1
  3
Standard
350
18
  0
DICTIONARY
  5
19
102
{ACAD_REACTORS
330
C
102
}
100
AcDbDictionary
281
1
  0
DICTIONARY
  5
1A
102
{ACAD_REACTORS
330
C
102
}
100
AcDbDictionary
281
1
  3
Model
350
8E8
  3
Layout1
350
8E9
  0
ACDBPLACEHOLDER
  5
F
102
{ACAD_REACTORS
330
E
102
}
  0
MLINESTYLE
  5
18
102
{ACAD_REACTORS
330
17
102
}
100
AcDbMlineStyle
  2
STANDARD
 70
0
  3

 62
256
 51
90.0
 52
90.0
 71
2
 49
0.5
 62
256
  6
BYLAYER
 49
-0.5
 62
256
  6
BYLAYER
  0
LAYOUT
  5
8E8
102
{ACAD_REACTORS
330
1A
102
}
100
AcDbPlotSettings
  1

  2
none_device
  4
ISO_A4_(297.00_x_210.00_MM)
  6

 40
0.0
 41
0.0
 42
0.0
 43
0.0
 44
297.0
 45
210.0
 46
0.0
 47
0.0
 48
0.0
 49
0.0
140
0.0
141
0.0
142
1.0
143
1.0
 70
1024
 72
1
 73
0
 74
0
  7

 75
0
147
1.0
148
0.0
149
0.0
100
AcDbLayout
  1
Model
 70
0
 71
0
 10
0.0
 20
0.0
 11
297.0
 21
210.0
 12
0.0
 22
0.0
 32
0.0
 14
0.0
 24
0.0
 34
0.0
 15
0.0
 25
0.0
 35
0.0
146
0.0
 13
0.0
 23
0.0
 33
0.0
 16
1.0
 26
0.0
 36
0.0
 17
0.0
 27
1.0
 37
0.0
 76
0
330
2CC
345
0
346
0
  0
LAYOUT
  5
8E9
102
{ACAD_REACTORS
330
1A
102
}
100
AcDbPlotSettings
  1

  2
none_device
  4
ISO_A4_(297.00_x_210.00_MM)
  6

 40
0.0
 41
0.0
 42
0.0
 43
0.0
 44
297.0
 45
210.0
 46
0.0
 47
0.0
 48
0.0
 49
0.0
140
0.0
141
0.0
142
1.0
143
1.0
 70
0
 72
1
 73
0
 74
0
  7

 75
0
147
1.0
148
0.0
149
0.0
100
AcDbLayout
  1
Layout1
 70
0
 71
1
 10
0.0
 20
0.0
 11
297.0
 21
210.0
 12
0.0
 22
0.0
 32
0.0
 14
0.0
 24
0.0
 34
0.0
 15
0.0
 25
0.0
 35
0.0
146
0.0
 13
0.0
 23
0.0
 33
0.0
 16
1.0
 26
0.0
 36
0.0
 17
0.0
 27
1.0
 37
0.0
 76
0
330
2CD
345
0
346
0
  0
ENDSEC
  0
EOF
