  0
SECTION
  2
HEADER
  9
$ACADVER
  1
AC1024
  9
$DWGCODEPAGE
  3
ANSI_1252
  9
$EXTMAX
 10
297.0
 20
210.0
 30
0.0
  9
$EXTMIN
 10
0.0
 20
0.0
 30
0.0
  9
$LIMMIN
 10
0.0
 20
0.0
  9
$LIMMAX
 10
297.0
 20
210.0
  9
$VIEWCTR
 10
148.5
 20
105.0
  9
$VIEWSIZE
 40
210.0
  9
$CLAYER
  8
0
  9
$LTSCALE
 40
16.335
  9
$CELTYPE
  6
BYLAYER
  9
$DIMSCALE
 40
1.0
  9
$DIMASZ
 40
3.0
  9
$DIMEXO
 40
0.5
  9
$DIMDLI
 40
11.286
  9
$DIMEXE
 40
1.5
  9
$DIMCEN
 40
2.673
  9
$DIMLFAC
 40
1.0
  9
$DIMBLK
  1
_FILLED
  9
$DIMALT
 70
0
  9
$DIMALTF
 40
0.0393700787
  9
$DIMTXT
 40
3.0
  9
$DIMTOL
 70
1
  9
$DIMLIM
 70
0
  9
$DIMTFAC
 40
1.0
  9
$DIMTP
 40
0.01
  9
$DIMTM
 40
0.01
  9
$DIMGAP
 40
0.625
  9
$DIMDSEP
 70
44
  9
$AUNITS
 70
0
  9
$PDMODE
 70
3
  9
$PDSIZE
 40
3.0
  9
$HANDSEED
  5
8B6
  9
$TILEMODE
 70
1
  9
$MEASUREMENT
 70
1
  9
$INSUNITS
 70
4
  0
ENDSEC
  0
SECTION
  2
CLASSES
  0
CLASS
  1
ACDBDICTIONARYWDFLT
  2
AcDbDictionaryWithDefault
  3
AutoCAD 2000
 90
0
 91
1
280
0
281
0
  0
CLASS
  1
ACDBPLACEHOLDER
  2
AcDbPlaceHolder
  3
AutoCAD 2000
 90
0
 91
1
280
0
281
0
  0
CLASS
  1
LAYOUT
  2
AcDbLayout
  3
AutoCAD 2000
 90
0
 91
0
280
0
281
0
  0
ENDSEC
  0
SECTION
  2
TABLES
  0
TABLE
  2
VPORT
  5
8
100
AcDbSymbolTable
 70
2
  0
VPORT
  5
1F4
100
AcDbSymbolTableRecord
100
AcDbViewportTableRecord
  2
*ACTIVE
 70
0
 10
0.0
 20
0.0
 11
1.0
 21
1.0
 12
148.5
 22
105.0
 13
0.0
 23
0.0
 14
1.0
 24
1.0
 15
0.0
 25
0.0
 16
0.0
 26
0.0
 36
1.0
 17
0.0
 27
0.0
 37
0.0
 40
210.0
 41
1.4142857143
 42
50.0
 43
0.0
 44
0.0
 50
0.0
 51
0.0
 71
0
 72
100
 73
1
 74
1
 75
0
 76
0
 77
0
 78
0
  0
ENDTAB
  0
TABLE
  2
LTYPE
  5
5
100
AcDbSymbolTable
 70
6
  0
LTYPE
  5
14
100
AcDbSymbolTableRecord
100
AcDbLinetypeTableRecord
  2
BYBLOCK
 70
0
  3

 72
65
 73
0
 40
0.0
  0
LTYPE
  5
15
100
AcDbSymbolTableRecord
100
AcDbLinetypeTableRecord
  2
BYLAYER
 70
0
  3

 72
65
 73
0
 40
0.0
  0
LTYPE
  5
16
100
AcDbSymbolTableRecord
100
AcDbLinetypeTableRecord
  2
CONTINUOUS
 70
64
  3
Solid line
 72
65
 73
0
 40
0.0
  0
LTYPE
  5
1F5
100
AcDbSymbolTableRecord
100
AcDbLinetypeTableRecord
  2
CENTER
 70
64
  3
____ _ ____ _ ____ _ ____ _ ____ _ ____ _ ____
 72
65
 73
4
 40
0.6
 49
0.375
 74
0
 49
-0.075
 74
0
 49
0.075
 74
0
 49
-0.075
 74
0
  0
LTYPE
  5
1F6
100
AcDbSymbolTableRecord
100
AcDbLinetypeTableRecord
  2
HIDDEN
 70
64
  3
- - - - - - - - - - - - - - - - - - - -
 72
65
 73
2
 40
0.2
 49
0.1
 74
0
 49
-0.1
 74
0
  0
LTYPE
  5
1F7
100
AcDbSymbolTableRecord
100
AcDbLinetypeTableRecord
  2
PHANTOM
 70
64
  3
_____ _ _ _____ _ _ _____ _ _ _____
 72
65
 73
6
 40
0.8
 49
0.45
 74
0
 49
-0.05
 74
0
 49
0.1
 74
0
 49
-0.05
 74
0
 49
0.1
 74
0
 49
-0.05
 74
0
  0
LTYPE
  5
1F8
100
AcDbSymbolTableRecord
100
AcDbLinetypeTableRecord
  2
DOT
 70
64
  3
. . . . . . . . . . . . . . . . . . . .
 72
65
 73
2
 40
0.2
 49
0.1
 74
0
 49
-0.1
 74
0
  0
LTYPE
  5
1F9
100
AcDbSymbolTableRecord
100
AcDbLinetypeTableRecord
  2
DASHED
 70
64
  3
- - - - - - - - - - - - - - - - - - - -
 72
65
 73
2
 40
0.2
 49
0.1
 74
0
 49
-0.1
 74
0
  0
ENDTAB
  0
TABLE
  2
LAYER
  5
2
100
AcDbSymbolTable
 70
36
  0
LAYER
  5
10
100
AcDbSymbolTableRecord
100
AcDbLayerTableRecord
  2
0
 70
0
 62
7
  6
CONTINUOUS
370
-3
390
F
  0
LAYER
  5
1FA
100
AcDbSymbolTableRecord
100
AcDbLayerTableRecord
  2
DEFAULT_1
 70
0
 62
7
  6
CENTER
370
-3
390
F
  0
LAYER
  5
1FB
100
AcDbSymbolTableRecord
100
AcDbLayerTableRecord
  2
DEFAULT_2
 70
0
 62
7
  6
HIDDEN
370
-3
390
F
  0
LAYER
  5
1FC
100
AcDbSymbolTableRecord
100
AcDbLayerTableRecord
  2
DEFAULT_3
 70
0
 62
7
  6
PHANTOM
370
-3
390
F
  0
LAYER
  5
1FD
100
AcDbSymbolTableRecord
100
AcDbLayerTableRecord
  2
0603_C_REF_90000
 70
0
 62
7
  6
CONTINUOUS
370
-3
390
F
  0
LAYER
  5
1FE
100
AcDbSymbolTableRecord
100
AcDbLayerTableRecord
  2
0603_C_REF_90000_1
 70
0
 62
7
  6
CONTINUOUS
370
-3
390
F
  0
LAYER
  5
1FF
100
AcDbSymbolTableRecord
100
AcDbLayerTableRecord
  2
0603_C_REF_90000_2
 70
0
 62
7
  6
CONTINUOUS
370
-3
390
F
  0
LAYER
  5
200
100
AcDbSymbolTableRecord
100
AcDbLayerTableRecord
  2
0603_C_WAVE_90000
 70
0
 62
7
  6
CONTINUOUS
370
-3
390
F
  0
LAYER
  5
201
100
AcDbSymbolTableRecord
100
AcDbLayerTableRecord
  2
0603_C_WAVE_90000_1
 70
0
 62
7
  6
CONTINUOUS
370
-3
390
F
  0
LAYER
  5
202
100
AcDbSymbolTableRecord
100
AcDbLayerTableRecord
  2
0603_C_WAVE_90000_2
 70
0
 62
7
  6
CONTINUOUS
370
-3
390
F
  0
LAYER
  5
203
100
AcDbSymbolTableRecord
100
AcDbLayerTableRecord
  2
0603_C_WAVE_90000_3
 70
0
 62
7
  6
CONTINUOUS
370
-3
390
F
  0
LAYER
  5
204
100
AcDbSymbolTableRecord
100
AcDbLayerTableRecord
  2
0603_PTC_REF_80000
 70
0
 62
7
  6
CONTINUOUS
370
-3
390
F
  0
LAYER
  5
205
100
AcDbSymbolTableRecord
100
AcDbLayerTableRecord
  2
0603_R_REF_55000
 70
0
 62
7
  6
CONTINUOUS
370
-3
390
F
  0
LAYER
  5
206
100
AcDbSymbolTableRecord
100
AcDbLayerTableRecord
  2
0603_R_REF_55000_1
 70
0
 62
7
  6
CONTINUOUS
370
-3
390
F
  0
LAYER
  5
207
100
AcDbSymbolTableRecord
100
AcDbLayerTableRecord
  2
0603_R_REF_55000_10
 70
0
 62
7
  6
CONTINUOUS
370
-3
390
F
  0
LAYER
  5
208
100
AcDbSymbolTableRecord
100
AcDbLayerTableRecord
  2
0603_R_REF_55000_11
 70
0
 62
7
  6
CONTINUOUS
370
-3
390
F
  0
LAYER
  5
209
100
AcDbSymbolTableRecord
100
AcDbLayerTableRecord
  2
0603_R_REF_55000_12
 70
0
 62
7
  6
CONTINUOUS
370
-3
390
F
  0
LAYER
  5
20A
100
AcDbSymbolTableRecord
100
AcDbLayerTableRecord
  2
0603_R_REF_55000_13
 70
0
 62
7
  6
CONTINUOUS
370
-3
390
F
  0
LAYER
  5
20B
100
AcDbSymbolTableRecord
100
AcDbLayerTableRecord
  2
0603_R_REF_55000_14
 70
0
 62
7
  6
CONTINUOUS
370
-3
390
F
  0
LAYER
  5
20C
100
AcDbSymbolTableRecord
100
AcDbLayerTableRecord
  2
0603_R_REF_55000_15
 70
0
 62
7
  6
CONTINUOUS
370
-3
390
F
  0
LAYER
  5
20D
100
AcDbSymbolTableRecord
100
AcDbLayerTableRecord
  2
0603_R_REF_55000_16
 70
0
 62
7
  6
CONTINUOUS
370
-3
390
F
  0
LAYER
  5
20E
100
AcDbSymbolTableRecord
100
AcDbLayerTableRecord
  2
0603_R_REF_55000_17
 70
0
 62
7
  6
CONTINUOUS
370
-3
390
F
  0
LAYER
  5
20F
100
AcDbSymbolTableRecord
100
AcDbLayerTableRecord
  2
0603_R_REF_55000_2
 70
0
 62
7
  6
CONTINUOUS
370
-3
390
F
  0
LAYER
  5
210
100
AcDbSymbolTableRecord
100
AcDbLayerTableRecord
  2
0603_R_REF_55000_3
 70
0
 62
7
  6
CONTINUOUS
370
-3
390
F
  0
LAYER
  5
211
100
AcDbSymbolTableRecord
100
AcDbLayerTableRecord
  2
0603_R_REF_55000_4
 70
0
 62
7
  6
CONTINUOUS
370
-3
390
F
  0
LAYER
  5
212
100
AcDbSymbolTableRecord
100
AcDbLayerTableRecord
  2
0603_R_REF_55000_5
 70
0
 62
7
  6
CONTINUOUS
370
-3
390
F
  0
LAYER
  5
213
100
AcDbSymbolTableRecord
100
AcDbLayerTableRecord
  2
0603_R_REF_55000_6
 70
0
 62
7
  6
CONTINUOUS
370
-3
390
F
  0
LAYER
  5
214
100
AcDbSymbolTableRecord
100
AcDbLayerTableRecord
  2
0603_R_REF_55000_7
 70
0
 62
7
  6
CONTINUOUS
370
-3
390
F
  0
LAYER
  5
215
100
AcDbSymbolTableRecord
100
AcDbLayerTableRecord
  2
0603_R_REF_55000_8
 70
0
 62
7
  6
CONTINUOUS
370
-3
390
F
  0
LAYER
  5
216
100
AcDbSymbolTableRecord
100
AcDbLayerTableRecord
  2
0603_R_REF_55000_9
 70
0
 62
7
  6
CONTINUOUS
370
-3
390
F
  0
LAYER
  5
217
100
AcDbSymbolTableRecord
100
AcDbLayerTableRecord
  2
0603_R_WAVE_55000
 70
0
 62
7
  6
CONTINUOUS
370
-3
390
F
  0
LAYER
  5
218
100
AcDbSymbolTableRecord
100
AcDbLayerTableRecord
  2
0603_R_WAVE_55000_1
 70
0
 62
7
  6
CONTINUOUS
370
-3
390
F
  0
LAYER
  5
219
100
AcDbSymbolTableRecord
100
AcDbLayerTableRecord
  2
0603_R_WAVE_55000_2
 70
0
 62
7
  6
CONTINUOUS
370
-3
390
F
  0
LAYER
  5
21A
100
AcDbSymbolTableRecord
100
AcDbLayerTableRecord
  2
0603_R_WAVE_55000_3
 70
0
 62
7
  6
CONTINUOUS
370
-3
390
F
  0
LAYER
  5
21B
100
AcDbSymbolTableRecord
100
AcDbLayerTableRecord
  2
0603_R_WAVE_55000_4
 70
0
 62
7
  6
CONTINUOUS
370
-3
390
F
  0
LAYER
  5
21C
100
AcDbSymbolTableRecord
100
AcDbLayerTableRecord
  2
0603_R_WAVE_55000_5
 70
0
 62
7
  6
CONTINUOUS
370
-3
390
F
  0
LAYER
  5
21D
100
AcDbSymbolTableRecord
100
AcDbLayerTableRecord
  2
0603_R_WAVE_55000_6
 70
0
 62
7
  6
CONTINUOUS
370
-3
390
F
  0
LAYER
  5
21E
100
AcDbSymbolTableRecord
100
AcDbLayerTableRecord
  2
0603_R_WAVE_55000_7
 70
0
 62
7
  6
CONTINUOUS
370
-3
390
F
  0
LAYER
  5
21F
100
AcDbSymbolTableRecord
100
AcDbLayerTableRecord
  2
0603_R_WAVE_55000_8
 70
0
 62
7
  6
CONTINUOUS
370
-3
390
F
  0
LAYER
  5
220
100
AcDbSymbolTableRecord
100
AcDbLayerTableRecord
  2
0603_R_WAVE_55000_9
 70
0
 62
7
  6
CONTINUOUS
370
-3
390
F
  0
LAYER
  5
221
100
AcDbSymbolTableRecord
100
AcDbLayerTableRecord
  2
06___PRT_ALL_SURFS
 70
0
 62
7
  6
CONTINUOUS
370
-3
390
F
  0
LAYER
  5
222
100
AcDbSymbolTableRecord
100
AcDbLayerTableRecord
  2
06___PRT_ALL_SURFS_1
 70
0
 62
7
  6
CONTINUOUS
370
-3
390
F
  0
LAYER
  5
223
100
AcDbSymbolTableRecord
100
AcDbLayerTableRecord
  2
06___PRT_ALL_SURFS_10
 70
0
 62
7
  6
CONTINUOUS
370
-3
390
F
  0
LAYER
  5
224
100
AcDbSymbolTableRecord
100
AcDbLayerTableRecord
  2
06___PRT_ALL_SURFS_11
 70
0
 62
7
  6
CONTINUOUS
370
-3
390
F
  0
LAYER
  5
225
100
AcDbSymbolTableRecord
100
AcDbLayerTableRecord
  2
06___PRT_ALL_SURFS_12
 70
0
 62
7
  6
CONTINUOUS
370
-3
390
F
  0
LAYER
  5
226
100
AcDbSymbolTableRecord
100
AcDbLayerTableRecord
  2
06___PRT_ALL_SURFS_13
 70
0
 62
7
  6
CONTINUOUS
370
-3
390
F
  0
LAYER
  5
227
100
AcDbSymbolTableRecord
100
AcDbLayerTableRecord
  2
06___PRT_ALL_SURFS_14
 70
0
 62
7
  6
CONTINUOUS
370
-3
390
F
  0
LAYER
  5
228
100
AcDbSymbolTableRecord
100
AcDbLayerTableRecord
  2
06___PRT_ALL_SURFS_17
 70
0
 62
7
  6
CONTINUOUS
370
-3
390
F
  0
LAYER
  5
229
100
AcDbSymbolTableRecord
100
AcDbLayerTableRecord
  2
06___PRT_ALL_SURFS_18
 70
0
 62
7
  6
CONTINUOUS
370
-3
390
F
  0
LAYER
  5
22A
100
AcDbSymbolTableRecord
100
AcDbLayerTableRecord
  2
06___PRT_ALL_SURFS_19
 70
0
 62
7
  6
CONTINUOUS
370
-3
390
F
  0
LAYER
  5
22B
100
AcDbSymbolTableRecord
100
AcDbLayerTableRecord
  2
06___PRT_ALL_SURFS_2
 70
0
 62
7
  6
CONTINUOUS
370
-3
390
F
  0
LAYER
  5
22C
100
AcDbSymbolTableRecord
100
AcDbLayerTableRecord
  2
06___PRT_ALL_SURFS_23
 70
0
 62
7
  6
CONTINUOUS
370
-3
390
F
  0
LAYER
  5
22D
100
AcDbSymbolTableRecord
100
AcDbLayerTableRecord
  2
06___PRT_ALL_SURFS_5
 70
0
 62
7
  6
CONTINUOUS
370
-3
390
F
  0
LAYER
  5
22E
100
AcDbSymbolTableRecord
100
AcDbLayerTableRecord
  2
06___PRT_ALL_SURFS_6
 70
0
 62
7
  6
CONTINUOUS
370
-3
390
F
  0
LAYER
  5
22F
100
AcDbSymbolTableRecord
100
AcDbLayerTableRecord
  2
0805_C_WAVE_145000
 70
0
 62
7
  6
CONTINUOUS
370
-3
390
F
  0
LAYER
  5
230
100
AcDbSymbolTableRecord
100
AcDbLayerTableRecord
  2
0805_C_WAVE_145000_1
 70
0
 62
7
  6
CONTINUOUS
370
-3
390
F
  0
LAYER
  5
231
100
AcDbSymbolTableRecord
100
AcDbLayerTableRecord
  2
0805_R_REF_60000
 70
0
 62
7
  6
CONTINUOUS
370
-3
390
F
  0
LAYER
  5
232
100
AcDbSymbolTableRecord
100
AcDbLayerTableRecord
  2
0805_R_WAVE_60000
 70
0
 62
7
  6
CONTINUOUS
370
-3
390
F
  0
LAYER
  5
233
100
AcDbSymbolTableRecord
100
AcDbLayerTableRecord
  2
0805_R_WAVE_60000_1
 70
0
 62
7
  6
CONTINUOUS
370
-3
390
F
  0
LAYER
  5
234
100
AcDbSymbolTableRecord
100
AcDbLayerTableRecord
  2
0805_R_WAVE_60000_10
 70
0
 62
7
  6
CONTINUOUS
370
-3
390
F
  0
LAYER
  5
235
100
AcDbSymbolTableRecord
100
AcDbLayerTableRecord
  2
0805_R_WAVE_60000_2
 70
0
 62
7
  6
CONTINUOUS
370
-3
390
F
  0
LAYER
  5
236
100
AcDbSymbolTableRecord
100
AcDbLayerTableRecord
  2
0805_R_WAVE_60000_3
 70
0
 62
7
  6
CONTINUOUS
370
-3
390
F
  0
LAYER
  5
237
100
AcDbSymbolTableRecord
100
AcDbLayerTableRecord
  2
0805_R_WAVE_60000_4
 70
0
 62
7
  6
CONTINUOUS
370
-3
390
F
  0
LAYER
  5
238
100
AcDbSymbolTableRecord
100
AcDbLayerTableRecord
  2
0805_R_WAVE_60000_5
 70
0
 62
7
  6
CONTINUOUS
370
-3
390
F
  0
LAYER
  5
239
100
AcDbSymbolTableRecord
100
AcDbLayerTableRecord
  2
0805_R_WAVE_60000_6
 70
0
 62
7
  6
CONTINUOUS
370
-3
390
F
  0
LAYER
  5
23A
100
AcDbSymbolTableRecord
100
AcDbLayerTableRecord
  2
0805_R_WAVE_60000_7
 70
0
 62
7
  6
CONTINUOUS
370
-3
390
F
  0
LAYER
  5
23B
100
AcDbSymbolTableRecord
100
AcDbLayerTableRecord
  2
0805_R_WAVE_60000_8
 70
0
 62
7
  6
CONTINUOUS
370
-3
390
F
  0
LAYER
  5
23C
100
AcDbSymbolTableRecord
100
AcDbLayerTableRecord
  2
0805_R_WAVE_60000_9
 70
0
 62
7
  6
CONTINUOUS
370
-3
390
F
  0
LAYER
  5
23D
100
AcDbSymbolTableRecord
100
AcDbLayerTableRecord
  2
1206_C_REF_180000
 70
0
 62
7
  6
CONTINUOUS
370
-3
390
F
  0
LAYER
  5
23E
100
AcDbSymbolTableRecord
100
AcDbLayerTableRecord
  2
1206_C_WAVE_180000
 70
0
 62
7
  6
CONTINUOUS
370
-3
390
F
  0
LAYER
  5
23F
100
AcDbSymbolTableRecord
100
AcDbLayerTableRecord
  2
1206_R_REF_65000
 70
0
 62
7
  6
CONTINUOUS
370
-3
390
F
  0
LAYER
  5
240
100
AcDbSymbolTableRecord
100
AcDbLayerTableRecord
  2
1206_R_REF_65000_1
 70
0
 62
7
  6
CONTINUOUS
370
-3
390
F
  0
LAYER
  5
241
100
AcDbSymbolTableRecord
100
AcDbLayerTableRecord
  2
1206_R_WAVE_65000
 70
0
 62
7
  6
CONTINUOUS
370
-3
390
F
  0
LAYER
  5
242
100
AcDbSymbolTableRecord
100
AcDbLayerTableRecord
  2
1206_R_WAVE_65000_1
 70
0
 62
7
  6
CONTINUOUS
370
-3
390
F
  0
LAYER
  5
243
100
AcDbSymbolTableRecord
100
AcDbLayerTableRecord
  2
1206_R_WAVE_65000_2
 70
0
 62
7
  6
CONTINUOUS
370
-3
390
F
  0
LAYER
  5
244
100
AcDbSymbolTableRecord
100
AcDbLayerTableRecord
  2
2512_R_H1_REF_100000
 70
0
 62
7
  6
CONTINUOUS
370
-3
390
F
  0
LAYER
  5
245
100
AcDbSymbolTableRecord
100
AcDbLayerTableRecord
  2
43001106A0
 70
0
 62
7
  6
CONTINUOUS
370
-3
390
F
  0
LAYER
  5
246
100
AcDbSymbolTableRecord
100
AcDbLayerTableRecord
  2
43001108A0
 70
0
 62
7
  6
CONTINUOUS
370
-3
390
F
  0
LAYER
  5
247
100
AcDbSymbolTableRecord
100
AcDbLayerTableRecord
  2
43001108B0
 70
0
 62
7
  6
CONTINUOUS
370
-3
390
F
  0
LAYER
  5
248
100
AcDbSymbolTableRecord
100
AcDbLayerTableRecord
  2
ASSI
 70
0
 62
7
  6
CONTINUOUS
370
-3
390
F
  0
LAYER
  5
249
100
AcDbSymbolTableRecord
100
AcDbLayerTableRecord
  2
CAP-E-SMD-6_6-6_3-8_0_810000
 70
0
 62
7
  6
CONTINUOUS
370
-3
390
F
  0
LAYER
  5
24A
100
AcDbSymbolTableRecord
100
AcDbLayerTableRecord
  2
CAPC320X160X135L50N_180000
 70
0
 62
7
  6
CONTINUOUS
370
-3
390
F
  0
LAYER
  5
24B
100
AcDbSymbolTableRecord
100
AcDbLayerTableRecord
  2
CAPC320X160X135L50N_180000_1
 70
0
 62
7
  6
CONTINUOUS
370
-3
390
F
  0
LAYER
  5
24C
100
AcDbSymbolTableRecord
100
AcDbLayerTableRecord
  2
CC-20MILS-VIMAR_1000
 70
0
 62
7
  6
CONTINUOUS
370
-3
390
F
  0
LAYER
  5
24D
100
AcDbSymbolTableRecord
100
AcDbLayerTableRecord
  2
CC-20MILS-VIMAR_1000_1
 70
0
 62
7
  6
CONTINUOUS
370
-3
390
F
  0
LAYER
  5
24E
100
AcDbSymbolTableRecord
100
AcDbLayerTableRecord
  2
CN1-REF_SQUAREHOLE12_SPEA-VIMAR
 70
0
 62
7
  6
CONTINUOUS
370
-3
390
F
  0
LAYER
  5
24F
100
AcDbSymbolTableRecord
100
AcDbLayerTableRecord
  2
COLOR19
 70
0
 62
7
  6
CONTINUOUS
370
-3
390
F
  0
LAYER
  5
250
100
AcDbSymbolTableRecord
100
AcDbLayerTableRecord
  2
COLOR2
 70
0
 62
7
  6
CONTINUOUS
370
-3
390
F
  0
LAYER
  5
251
100
AcDbSymbolTableRecord
100
AcDbLayerTableRecord
  2
COLOR25
 70
0
 62
7
  6
CONTINUOUS
370
-3
390
F
  0
LAYER
  5
252
100
AcDbSymbolTableRecord
100
AcDbLayerTableRecord
  2
COLOR26
 70
0
 62
7
  6
CONTINUOUS
370
-3
390
F
  0
LAYER
  5
253
100
AcDbSymbolTableRecord
100
AcDbLayerTableRecord
  2
COLOR27
 70
0
 62
7
  6
CONTINUOUS
370
-3
390
F
  0
LAYER
  5
254
100
AcDbSymbolTableRecord
100
AcDbLayerTableRecord
  2
COLOR29
 70
0
 62
7
  6
CONTINUOUS
370
-3
390
F
  0
LAYER
  5
255
100
AcDbSymbolTableRecord
100
AcDbLayerTableRecord
  2
COLOR31
 70
0
 62
7
  6
CONTINUOUS
370
-3
390
F
  0
LAYER
  5
256
100
AcDbSymbolTableRecord
100
AcDbLayerTableRecord
  2
COLOR32
 70
0
 62
7
  6
CONTINUOUS
370
-3
390
F
  0
LAYER
  5
257
100
AcDbSymbolTableRecord
100
AcDbLayerTableRecord
  2
COLOR33
 70
0
 62
7
  6
CONTINUOUS
370
-3
390
F
  0
LAYER
  5
258
100
AcDbSymbolTableRecord
100
AcDbLayerTableRecord
  2
COLOR34
 70
0
 62
7
  6
CONTINUOUS
370
-3
390
F
  0
LAYER
  5
259
100
AcDbSymbolTableRecord
100
AcDbLayerTableRecord
  2
COLOR35
 70
0
 62
7
  6
CONTINUOUS
370
-3
390
F
  0
LAYER
  5
25A
100
AcDbSymbolTableRecord
100
AcDbLayerTableRecord
  2
COLOR36
 70
0
 62
7
  6
CONTINUOUS
370
-3
390
F
  0
LAYER
  5
25B
100
AcDbSymbolTableRecord
100
AcDbLayerTableRecord
  2
COLOR37
 70
0
 62
7
  6
CONTINUOUS
370
-3
390
F
  0
LAYER
  5
25C
100
AcDbSymbolTableRecord
100
AcDbLayerTableRecord
  2
COLOR38
 70
0
 62
7
  6
CONTINUOUS
370
-3
390
F
  0
LAYER
  5
25D
100
AcDbSymbolTableRecord
100
AcDbLayerTableRecord
  2
COLOR39
 70
0
 62
7
  6
CONTINUOUS
370
-3
390
F
  0
LAYER
  5
25E
100
AcDbSymbolTableRecord
100
AcDbLayerTableRecord
  2
COLOR40
 70
0
 62
7
  6
CONTINUOUS
370
-3
390
F
  0
LAYER
  5
25F
100
AcDbSymbolTableRecord
100
AcDbLayerTableRecord
  2
COLOR45
 70
0
 62
7
  6
CONTINUOUS
370
-3
390
F
  0
LAYER
  5
260
100
AcDbSymbolTableRecord
100
AcDbLayerTableRecord
  2
COLOR53
 70
0
 62
7
  6
CONTINUOUS
370
-3
390
F
  0
LAYER
  5
261
100
AcDbSymbolTableRecord
100
AcDbLayerTableRecord
  2
COLOR54
 70
0
 62
7
  6
CONTINUOUS
370
-3
390
F
  0
LAYER
  5
262
100
AcDbSymbolTableRecord
100
AcDbLayerTableRecord
  2
COLOR55
 70
0
 62
7
  6
CONTINUOUS
370
-3
390
F
  0
LAYER
  5
263
100
AcDbSymbolTableRecord
100
AcDbLayerTableRecord
  2
COLOR56
 70
0
 62
7
  6
CONTINUOUS
370
-3
390
F
  0
LAYER
  5
264
100
AcDbSymbolTableRecord
100
AcDbLayerTableRecord
  2
COLOR57
 70
0
 62
7
  6
CONTINUOUS
370
-3
390
F
  0
LAYER
  5
265
100
AcDbSymbolTableRecord
100
AcDbLayerTableRecord
  2
COLOR58
 70
0
 62
7
  6
CONTINUOUS
370
-3
390
F
  0
LAYER
  5
266
100
AcDbSymbolTableRecord
100
AcDbLayerTableRecord
  2
COLOR59
 70
0
 62
7
  6
CONTINUOUS
370
-3
390
F
  0
LAYER
  5
267
100
AcDbSymbolTableRecord
100
AcDbLayerTableRecord
  2
COLOR7
 70
0
 62
7
  6
CONTINUOUS
370
-3
390
F
  0
LAYER
  5
268
100
AcDbSymbolTableRecord
100
AcDbLayerTableRecord
  2
COORDINATE
 70
0
 62
7
  6
CONTINUOUS
370
-3
390
F
  0
LAYER
  5
269
100
AcDbSymbolTableRecord
100
AcDbLayerTableRecord
  2
COORD_ORIGINE
 70
0
 62
7
  6
CONTINUOUS
370
-3
390
F
  0
LAYER
  5
26A
100
AcDbSymbolTableRecord
100
AcDbLayerTableRecord
  2
COPY
 70
0
 62
7
  6
CONTINUOUS
370
-3
390
F
  0
LAYER
  5
26B
100
AcDbSymbolTableRecord
100
AcDbLayerTableRecord
  2
COPY_PUBLISH
 70
0
 62
7
  6
CONTINUOUS
370
-3
390
F
  0
LAYER
  5
26C
100
AcDbSymbolTableRecord
100
AcDbLayerTableRecord
  2
COSMETICI
 70
0
 62
7
  6
CONTINUOUS
370
-3
390
F
  0
LAYER
  5
26D
100
AcDbSymbolTableRecord
100
AcDbLayerTableRecord
  2
CURVE
 70
0
 62
7
  6
CONTINUOUS
370
-3
390
F
  0
LAYER
  5
26E
100
AcDbSymbolTableRecord
100
AcDbLayerTableRecord
  2
DRAFT
 70
0
 62
7
  6
CONTINUOUS
370
-3
390
F
  0
LAYER
  5
26F
100
AcDbSymbolTableRecord
100
AcDbLayerTableRecord
  2
GEOMETRIA_SOLIDA
 70
0
 62
7
  6
CONTINUOUS
370
-3
390
F
  0
LAYER
  5
270
100
AcDbSymbolTableRecord
100
AcDbLayerTableRecord
  2
GEOMETRIA_SOLIDA_1
 70
0
 62
7
  6
CONTINUOUS
370
-3
390
F
  0
LAYER
  5
271
100
AcDbSymbolTableRecord
100
AcDbLayerTableRecord
  2
GEOMETRIA_SOLIDA_10
 70
0
 62
7
  6
CONTINUOUS
370
-3
390
F
  0
LAYER
  5
272
100
AcDbSymbolTableRecord
100
AcDbLayerTableRecord
  2
GEOMETRIA_SOLIDA_2
 70
0
 62
7
  6
CONTINUOUS
370
-3
390
F
  0
LAYER
  5
273
100
AcDbSymbolTableRecord
100
AcDbLayerTableRecord
  2
GEOMETRIA_SOLIDA_3
 70
0
 62
7
  6
CONTINUOUS
370
-3
390
F
  0
LAYER
  5
274
100
AcDbSymbolTableRecord
100
AcDbLayerTableRecord
  2
GEOMETRIA_SOLIDA_4
 70
0
 62
7
  6
CONTINUOUS
370
-3
390
F
  0
LAYER
  5
275
100
AcDbSymbolTableRecord
100
AcDbLayerTableRecord
  2
GEOMETRIA_SOLIDA_5
 70
0
 62
7
  6
CONTINUOUS
370
-3
390
F
  0
LAYER
  5
276
100
AcDbSymbolTableRecord
100
AcDbLayerTableRecord
  2
GEOMETRIA_SOLIDA_6
 70
0
 62
7
  6
CONTINUOUS
370
-3
390
F
  0
LAYER
  5
277
100
AcDbSymbolTableRecord
100
AcDbLayerTableRecord
  2
GEOMETRIA_SOLIDA_7
 70
0
 62
7
  6
CONTINUOUS
370
-3
390
F
  0
LAYER
  5
278
100
AcDbSymbolTableRecord
100
AcDbLayerTableRecord
  2
GEOMETRIA_SOLIDA_8
 70
0
 62
7
  6
CONTINUOUS
370
-3
390
F
  0
LAYER
  5
279
100
AcDbSymbolTableRecord
100
AcDbLayerTableRecord
  2
GEOMETRIA_SOLIDA_9
 70
0
 62
7
  6
CONTINUOUS
370
-3
390
F
  0
LAYER
  5
27A
100
AcDbSymbolTableRecord
100
AcDbLayerTableRecord
  2
IGES
 70
0
 62
7
  6
CONTINUOUS
370
-3
390
F
  0
LAYER
  5
27B
100
AcDbSymbolTableRecord
100
AcDbLayerTableRecord
  2
IMPORT_IGES
 70
0
 62
7
  6
CONTINUOUS
370
-3
390
F
  0
LAYER
  5
27C
100
AcDbSymbolTableRecord
100
AcDbLayerTableRecord
  2
INTFCLR_2
 70
0
 62
7
  6
CONTINUOUS
370
-3
390
F
  0
LAYER
  5
27D
100
AcDbSymbolTableRecord
100
AcDbLayerTableRecord
  2
INTF_1
 70
0
 62
7
  6
CONTINUOUS
370
-3
390
F
  0
LAYER
  5
27E
100
AcDbSymbolTableRecord
100
AcDbLayerTableRecord
  2
INTF_11
 70
0
 62
7
  6
CONTINUOUS
370
-3
390
F
  0
LAYER
  5
27F
100
AcDbSymbolTableRecord
100
AcDbLayerTableRecord
  2
INTF_12
 70
0
 62
7
  6
CONTINUOUS
370
-3
390
F
  0
LAYER
  5
280
100
AcDbSymbolTableRecord
100
AcDbLayerTableRecord
  2
INTF_14
 70
0
 62
7
  6
CONTINUOUS
370
-3
390
F
  0
LAYER
  5
281
100
AcDbSymbolTableRecord
100
AcDbLayerTableRecord
  2
INTF_2
 70
0
 62
7
  6
CONTINUOUS
370
-3
390
F
  0
LAYER
  5
282
100
AcDbSymbolTableRecord
100
AcDbLayerTableRecord
  2
INTF_22
 70
0
 62
7
  6
CONTINUOUS
370
-3
390
F
  0
LAYER
  5
283
100
AcDbSymbolTableRecord
100
AcDbLayerTableRecord
  2
INTF_3
 70
0
 62
7
  6
CONTINUOUS
370
-3
390
F
  0
LAYER
  5
284
100
AcDbSymbolTableRecord
100
AcDbLayerTableRecord
  2
INTF_4
 70
0
 62
7
  6
CONTINUOUS
370
-3
390
F
  0
LAYER
  5
285
100
AcDbSymbolTableRecord
100
AcDbLayerTableRecord
  2
INTF_5
 70
0
 62
7
  6
CONTINUOUS
370
-3
390
F
  0
LAYER
  5
286
100
AcDbSymbolTableRecord
100
AcDbLayerTableRecord
  2
INTF_BLANK
 70
0
 62
7
  6
CONTINUOUS
370
-3
390
F
  0
LAYER
  5
287
100
AcDbSymbolTableRecord
100
AcDbLayerTableRecord
  2
INTF_CYAN
 70
0
 62
7
  6
CONTINUOUS
370
-3
390
F
  0
LAYER
  5
288
100
AcDbSymbolTableRecord
100
AcDbLayerTableRecord
  2
INTF_YELLOW
 70
0
 62
7
  6
CONTINUOUS
370
-3
390
F
  0
LAYER
  5
289
100
AcDbSymbolTableRecord
100
AcDbLayerTableRecord
  2
LED_0805_120000
 70
0
 62
7
  6
CONTINUOUS
370
-3
390
F
  0
LAYER
  5
28A
100
AcDbSymbolTableRecord
100
AcDbLayerTableRecord
  2
MINIMELF_R_REF_140000
 70
0
 62
7
  6
CONTINUOUS
370
-3
390
F
  0
LAYER
  5
28B
100
AcDbSymbolTableRecord
100
AcDbLayerTableRecord
  2
MINIMELF_R_REF_140000_1
 70
0
 62
7
  6
CONTINUOUS
370
-3
390
F
  0
LAYER
  5
28C
100
AcDbSymbolTableRecord
100
AcDbLayerTableRecord
  2
MINIMELF_R_REF_140000_2
 70
0
 62
7
  6
CONTINUOUS
370
-3
390
F
  0
LAYER
  5
28D
100
AcDbSymbolTableRecord
100
AcDbLayerTableRecord
  2
NOTE
 70
0
 62
7
  6
CONTINUOUS
370
-3
390
F
  0
LAYER
  5
28E
100
AcDbSymbolTableRecord
100
AcDbLayerTableRecord
  2
PIANI
 70
0
 62
7
  6
CONTINUOUS
370
-3
390
F
  0
LAYER
  5
28F
100
AcDbSymbolTableRecord
100
AcDbLayerTableRecord
  2
PIANI_ORIGINE
 70
0
 62
7
  6
CONTINUOUS
370
-3
390
F
  0
LAYER
  5
290
100
AcDbSymbolTableRecord
100
AcDbLayerTableRecord
  2
PIANI_RIFERIMENTO
 70
0
 62
7
  6
CONTINUOUS
370
-3
390
F
  0
LAYER
  5
291
100
AcDbSymbolTableRecord
100
AcDbLayerTableRecord
  2
PIANI_SFORMO
 70
0
 62
7
  6
CONTINUOUS
370
-3
390
F
  0
LAYER
  5
292
100
AcDbSymbolTableRecord
100
AcDbLayerTableRecord
  2
PUNTI
 70
0
 62
7
  6
CONTINUOUS
370
-3
390
F
  0
LAYER
  5
293
100
AcDbSymbolTableRecord
100
AcDbLayerTableRecord
  2
P_2P_DIP_SWITCH_7_5X7_1_H_3_5MM
 70
0
 62
7
  6
CONTINUOUS
370
-3
390
F
  0
LAYER
  5
294
100
AcDbSymbolTableRecord
100
AcDbLayerTableRecord
  2
RACCORDO
 70
0
 62
7
  6
CONTINUOUS
370
-3
390
F
  0
LAYER
  5
295
100
AcDbSymbolTableRecord
100
AcDbLayerTableRecord
  2
RGB__255__255__255__
 70
0
 62
7
  6
CONTINUOUS
370
-3
390
F
  0
LAYER
  5
296
100
AcDbSymbolTableRecord
100
AcDbLayerTableRecord
  2
SIMBOLI
 70
0
 62
7
  6
CONTINUOUS
370
-3
390
F
  0
LAYER
  5
297
100
AcDbSymbolTableRecord
100
AcDbLayerTableRecord
  2
SMUSSO
 70
0
 62
7
  6
CONTINUOUS
370
-3
390
F
  0
LAYER
  5
298
100
AcDbSymbolTableRecord
100
AcDbLayerTableRecord
  2
SOD80_SOD-213AA_MINIMELF_REF_16
 70
0
 62
7
  6
CONTINUOUS
370
-3
390
F
  0
LAYER
  5
299
100
AcDbSymbolTableRecord
100
AcDbLayerTableRecord
  2
SOD80_SOD-213AA_MINIMELF_WAVE_1
 70
0
 62
7
  6
CONTINUOUS
370
-3
390
F
  0
LAYER
  5
29A
100
AcDbSymbolTableRecord
100
AcDbLayerTableRecord
  2
SOT323_H1_1_REF_110000
 70
0
 62
7
  6
CONTINUOUS
370
-3
390
F
  0
LAYER
  5
29B
100
AcDbSymbolTableRecord
100
AcDbLayerTableRecord
  2
SOT323_H1_1_REF_110000_1
 70
0
 62
7
  6
CONTINUOUS
370
-3
390
F
  0
LAYER
  5
29C
100
AcDbSymbolTableRecord
100
AcDbLayerTableRecord
  2
SOT323_H1_1_REF_110000_2
 70
0
 62
7
  6
CONTINUOUS
370
-3
390
F
  0
LAYER
  5
29D
100
AcDbSymbolTableRecord
100
AcDbLayerTableRecord
  2
SOT323_H1_1_REF_110000_3
 70
0
 62
7
  6
CONTINUOUS
370
-3
390
F
  0
LAYER
  5
29E
100
AcDbSymbolTableRecord
100
AcDbLayerTableRecord
  2
SOT323_H1_1_REF_110000_4
 70
0
 62
7
  6
CONTINUOUS
370
-3
390
F
  0
LAYER
  5
29F
100
AcDbSymbolTableRecord
100
AcDbLayerTableRecord
  2
SOT89_WAVE_H1_6_160000
 70
0
 62
7
  6
CONTINUOUS
370
-3
390
F
  0
LAYER
  5
2A0
100
AcDbSymbolTableRecord
100
AcDbLayerTableRecord
  2
SUB_SMA_143000
 70
0
 62
7
  6
CONTINUOUS
370
-3
390
F
  0
LAYER
  5
2A1
100
AcDbSymbolTableRecord
100
AcDbLayerTableRecord
  2
SUB_SMA_143000_1
 70
0
 62
7
  6
CONTINUOUS
370
-3
390
F
  0
LAYER
  5
2A2
100
AcDbSymbolTableRecord
100
AcDbLayerTableRecord
  2
SUB_SMA_143000_2
 70
0
 62
7
  6
CONTINUOUS
370
-3
390
F
  0
LAYER
  5
2A3
100
AcDbSymbolTableRecord
100
AcDbLayerTableRecord
  2
SUB_SMA_143000_3
 70
0
 62
7
  6
CONTINUOUS
370
-3
390
F
  0
LAYER
  5
2A4
100
AcDbSymbolTableRecord
100
AcDbLayerTableRecord
  2
SUPERFICI
 70
0
 62
7
  6
CONTINUOUS
370
-3
390
F
  0
LAYER
  5
2A5
100
AcDbSymbolTableRecord
100
AcDbLayerTableRecord
  2
SWITCH_SKRP_250000
 70
0
 62
7
  6
CONTINUOUS
370
-3
390
F
  0
LAYER
  5
2A6
100
AcDbSymbolTableRecord
100
AcDbLayerTableRecord
  2
SWITCH_SKRP_250000_1
 70
0
 62
7
  6
CONTINUOUS
370
-3
390
F
  0
LAYER
  5
2A7
100
AcDbSymbolTableRecord
100
AcDbLayerTableRecord
  2
T7YA_635000
 70
0
 62
7
  6
CONTINUOUS
370
-3
390
F
  0
LAYER
  5
2A8
100
AcDbSymbolTableRecord
100
AcDbLayerTableRecord
  2
TO92-H8_0-P2_54_800000
 70
0
 62
7
  6
CONTINUOUS
370
-3
390
F
  0
LAYER
  5
2A9
100
AcDbSymbolTableRecord
100
AcDbLayerTableRecord
  2
TP-RND-1_5_1000
 70
0
 62
7
  6
CONTINUOUS
370
-3
390
F
  0
LAYER
  5
2AA
100
AcDbSymbolTableRecord
100
AcDbLayerTableRecord
  2
TP-RND-1_5_1000_1
 70
0
 62
7
  6
CONTINUOUS
370
-3
390
F
  0
LAYER
  5
2AB
100
AcDbSymbolTableRecord
100
AcDbLayerTableRecord
  2
TP-RND-1_5_1000_2
 70
0
 62
7
  6
CONTINUOUS
370
-3
390
F
  0
LAYER
  5
2AC
100
AcDbSymbolTableRecord
100
AcDbLayerTableRecord
  2
TP-RND-1_5_1000_3
 70
0
 62
7
  6
CONTINUOUS
370
-3
390
F
  0
LAYER
  5
2AD
100
AcDbSymbolTableRecord
100
AcDbLayerTableRecord
  2
TP-RND-1_5_1000_4
 70
0
 62
7
  6
CONTINUOUS
370
-3
390
F
  0
LAYER
  5
2AE
100
AcDbSymbolTableRecord
100
AcDbLayerTableRecord
  2
TRASH
 70
0
 62
7
  6
CONTINUOUS
370
-3
390
F
  0
LAYER
  5
2AF
100
AcDbSymbolTableRecord
100
AcDbLayerTableRecord
  2
TSSOP16-5_0-6_4-1_1-REF_110000
 70
0
 62
7
  6
CONTINUOUS
370
-3
390
F
  0
LAYER
  5
2B0
100
AcDbSymbolTableRecord
100
AcDbLayerTableRecord
  2
VAR_S07_D9_S3_6_H11_1100000
 70
0
 62
7
  6
CONTINUOUS
370
-3
390
F
  0
LAYER
  5
2B1
100
AcDbSymbolTableRecord
100
AcDbLayerTableRecord
  2
VAR_S07_D9_S3_6_H11_1100000_1
 70
0
 62
7
  6
CONTINUOUS
370
-3
390
F
  0
LAYER
  5
2B2
100
AcDbSymbolTableRecord
100
AcDbLayerTableRecord
  2
VG_CAP-E-SMD-4_3-4_3-6_3_630000
 70
0
 62
7
  6
CONTINUOUS
370
-3
390
F
  0
LAYER
  5
2B3
100
AcDbSymbolTableRecord
100
AcDbLayerTableRecord
  2
VG_CN-THT-DINKLE-EK500VH-R1-P4-
 70
0
 62
7
  6
CONTINUOUS
370
-3
390
F
  0
LAYER
  5
2B4
100
AcDbSymbolTableRecord
100
AcDbLayerTableRecord
  2
VG_FUSE_13X3_H10_1300000
 70
0
 62
7
  6
CONTINUOUS
370
-3
390
F
  0
LAYER
  5
2B5
100
AcDbSymbolTableRecord
100
AcDbLayerTableRecord
  2
VG_SOP4_240000
 70
0
 62
7
  6
CONTINUOUS
370
-3
390
F
  0
LAYER
  5
2B6
100
AcDbSymbolTableRecord
100
AcDbLayerTableRecord
  2
VG_SOT23_H1_1_REF_110000
 70
0
 62
7
  6
CONTINUOUS
370
-3
390
F
  0
LAYER
  5
2B7
100
AcDbSymbolTableRecord
100
AcDbLayerTableRecord
  2
VG_SOT23_H1_1_WAVE_110000
 70
0
 62
7
  6
CONTINUOUS
370
-3
390
F
  0
LAYER
  5
2B8
100
AcDbSymbolTableRecord
100
AcDbLayerTableRecord
  2
VG_SOT23_H1_1_WAVE_110000_1
 70
0
 62
7
  6
CONTINUOUS
370
-3
390
F
  0
LAYER
  5
2B9
100
AcDbSymbolTableRecord
100
AcDbLayerTableRecord
  2
VG_SOT23_H1_2_REF_120000
 70
0
 62
7
  6
CONTINUOUS
370
-3
390
F
  0
LAYER
  5
2BA
100
AcDbSymbolTableRecord
100
AcDbLayerTableRecord
  2
VG_SOT23_H1_2_WAVE_120000
 70
0
 62
7
  6
CONTINUOUS
370
-3
390
F
  0
LAYER
  5
2BB
100
AcDbSymbolTableRecord
100
AcDbLayerTableRecord
  2
VG_SOT23_H1_2_WAVE_120000_1
 70
0
 62
7
  6
CONTINUOUS
370
-3
390
F
  0
LAYER
  5
2BC
100
AcDbSymbolTableRecord
100
AcDbLayerTableRecord
  2
VG_SOT23_H1_2_WAVE_120000_2
 70
0
 62
7
  6
CONTINUOUS
370
-3
390
F
  0
LAYER
  5
2BD
100
AcDbSymbolTableRecord
100
AcDbLayerTableRecord
  2
VG_TO220AB_1525000
 70
0
 62
7
  6
CONTINUOUS
370
-3
390
F
  0
LAYER
  5
2BE
100
AcDbSymbolTableRecord
100
AcDbLayerTableRecord
  2
VG_TO220F_H16_1600000
 70
0
 62
7
  6
CONTINUOUS
370
-3
390
F
  0
LAYER
  5
2BF
100
AcDbSymbolTableRecord
100
AcDbLayerTableRecord
  2
VG_TO220F_H16_1600000_1
 70
0
 62
7
  6
CONTINUOUS
370
-3
390
F
  0
LAYER
  5
2C0
100
AcDbSymbolTableRecord
100
AcDbLayerTableRecord
  2
VG_TO220F_H16_1600000_2
 70
0
 62
7
  6
CONTINUOUS
370
-3
390
F
  0
LAYER
  5
2C1
100
AcDbSymbolTableRecord
100
AcDbLayerTableRecord
  2
VG_TR-THT-H-7_0-7_0-5_8-CT6_580
 70
0
 62
7
  6
CONTINUOUS
370
-3
390
F
  0
LAYER
  5
2C2
100
AcDbSymbolTableRecord
100
AcDbLayerTableRecord
  2
XSEC_DATUMS
 70
0
 62
7
  6
CONTINUOUS
370
-3
390
F
  0
LAYER
  5
2C3
100
AcDbSymbolTableRecord
100
AcDbLayerTableRecord
  2
_WHITE_HOLE
 70
0
 62
7
  6
CONTINUOUS
370
-3
390
F
  0
LAYER
  5
2C4
100
AcDbSymbolTableRecord
100
AcDbLayerTableRecord
  2
___SHELL
 70
0
 62
7
  6
CONTINUOUS
370
-3
390
F
  0
ENDTAB
  0
TABLE
  2
STYLE
  5
3
100
AcDbSymbolTable
 70
1
  0
STYLE
  5
11
100
AcDbSymbolTableRecord
100
AcDbTextStyleTableRecord
  2
STANDARD
 70
0
 40
0.0
 41
0.8
 50
0.0
 71
0
 42
0.2
  3
txt
  4

  0
STYLE
  5
2C5
100
AcDbSymbolTableRecord
100
AcDbTextStyleTableRecord
  2
TEXTSTYLE_1
 70
0
 40
0.0
 41
0.8
 50
0.0
 71
0
 42
0.2
  3
gdt
  4

  0
ENDTAB
  0
TABLE
  2
VIEW
  5
6
100
AcDbSymbolTable
 70
0
  0
ENDTAB
  0
TABLE
  2
UCS
  5
7
100
AcDbSymbolTable
 70
0
  0
ENDTAB
  0
TABLE
  2
APPID
  5
9
100
AcDbSymbolTable
 70
1
  0
APPID
  5
2C6
100
AcDbSymbolTableRecord
100
AcDbRegAppTableRecord
  2
ACAD
 70
0
  0
ENDTAB
  0
TABLE
  2
BLOCK_RECORD
  5
1
100
AcDbSymbolTable
 70
0
  0
BLOCK_RECORD
  5
2C7
100
AcDbSymbolTableRecord
100
AcDbBlockTableRecord
  2
*Model_Space
  0
BLOCK_RECORD
  5
2C8
100
AcDbSymbolTableRecord
100
AcDbBlockTableRecord
  2
*Paper_Space
  0
BLOCK_RECORD
  5
2C9
100
AcDbSymbolTableRecord
100
AcDbBlockTableRecord
  2
_FILLED
  0
ENDTAB
  0
TABLE
  2
DIMSTYLE
  5
A
100
AcDbSymbolTable
 70
1
100
AcDbDimStyleTable
 71
0
  0
DIMSTYLE
105
2CA
100
AcDbSymbolTableRecord
100
AcDbDimStyleTableRecord
  2
STANDARD
 70
0
  3

  4

 40
1.0
 41
3.0
 42
0.5
 43
0.38
 44
1.5
 45
0.0
 46
0.0
 47
0.01
 48
0.01
140
3.0
141
0.09
142
0.0
143
25.4
144
1.0
145
0.0
146
1.0
147
0.625
 71
1
 72
0
 73
0
 74
0
 75
0
 76
0
 77
1
 78
8
 79
2
170
0
171
1
172
0
173
0
174
0
175
0
176
0
177
0
178
0
270
2
179
2
271
2
272
2
273
2
274
2
275
0
280
0
281
0
282
0
283
1
284
8
285
0
286
0
287
3
288
0
340
11
278
44
341
2C9
342
2C9
343
2C9
344
2C9
  0
ENDTAB
  0
ENDSEC
  0
SECTION
  2
BLOCKS
  0
BLOCK
  5
20
100
AcDbEntity
  8
0
100
AcDbBlockBegin
  2
*Model_Space
 70
0
 10
0.0
 20
0.0
 30
0.0
  3
*Model_Space
  1

  0
ENDBLK
  5
21
100
AcDbEntity
  8
0
100
AcDbBlockEnd
  0
BLOCK
  5
1C
100
AcDbEntity
  8
0
100
AcDbBlockBegin
  2
*Paper_Space
 70
0
 10
0.0
 20
0.0
 30
0.0
  3
*Paper_Space
  1

  0
ENDBLK
  5
1D
100
AcDbEntity
  8
0
100
AcDbBlockEnd
  0
BLOCK
  5
2CB
100
AcDbEntity
  8
0
100
AcDbBlockBegin
  2
_FILLED
 70
64
 10
0.0
 20
0.0
  3
_FILLED
  1

  0
SOLID
  5
2CC
100
AcDbEntity
  8
0
  6
BYBLOCK
 62
0
100
AcDbTrace
 10
0.0
 20
0.0
 11
-1.0
 21
0.3166666667
 12
-1.0
 22
-0.3166666667
 13
-1.0
 23
-0.3166666667
  0
ENDBLK
  5
2CD
100
AcDbEntity
  8
0
  6
BYBLOCK
 62
0
100
AcDbBlockEnd
  0
ENDSEC
  0
SECTION
  2
ENTITIES
  0
LWPOLYLINE
  5
2CE
100
AcDbEntity
  8
ASSI
100
AcDbPolyline
 62
7
  6
CONTINUOUS
 90
10
 70
0
 10
3.653791075
 20
-23.4301797403
 10
3.7193524144
 20
-23.4279830815
 10
3.784091406
 20
-23.4216350423
 10
3.8480080499
 20
-23.4111356227
 10
3.9113657378
 20
-23.3964052951
 10
3.9739010778
 20
-23.3775235872
 10
4.0348238951
 20
-23.3547290816
 10
4.0938707981
 20
-23.328101306
 10
4.1513051783
 20
-23.2975607327
 10
4.2071270357
 20
-23.2631073618
  0
LINE
  5
2CF
100
AcDbEntity
  8
ASSI
100
AcDbLine
 62
7
  6
CONTINUOUS
 10
-3.6748574782
 20
-23.5
 11
3.6748574782
 21
-23.5
  0
LINE
  5
2D0
100
AcDbEntity
  8
ASSI
100
AcDbLine
 62
7
  6
CONTINUOUS
 10
-3.3633443637
 20
-23.4668353766
 11
3.3633443637
 21
-23.4668353766
  0
LINE
  5
2D1
100
AcDbEntity
  8
ASSI
100
AcDbLine
 62
7
  6
CONTINUOUS
 10
-3.653791075
 20
-23.4301797403
 11
-3.4
 21
-23.4301797403
  0
LINE
  5
2D2
100
AcDbEntity
  8
ASSI
100
AcDbLine
 62
7
  6
CONTINUOUS
 10
3.4
 20
-23.4301797403
 11
3.653791075
 21
-23.4301797403
  0
LINE
  5
2D3
100
AcDbEntity
  8
RACCORDO
100
AcDbLine
 62
7
  6
CONTINUOUS
 10
-3.01751471
 20
-23.375
 11
3.01751471
 21
-23.375
  0
LINE
  5
2D4
100
AcDbEntity
  8
RACCORDO
100
AcDbLine
 62
250
  6
CONTINUOUS
 10
-3.230158461
 20
-23.175
 11
-3.2153472641
 21
-23.175
  0
LINE
  5
2D5
100
AcDbEntity
  8
RACCORDO
100
AcDbLine
 62
250
  6
CONTINUOUS
 10
3.2153472641
 20
-23.175
 11
3.230158461
 21
-23.175
  0
LINE
  5
2D6
100
AcDbEntity
  8
ASSI
100
AcDbLine
 62
7
  6
CONTINUOUS
 10
-3.3633443637
 20
-22.5
 11
-3.230158461
 21
-22.5
  0
LINE
  5
2D7
100
AcDbEntity
  8
ASSI
100
AcDbLine
 62
7
  6
CONTINUOUS
 10
3.230158461
 20
-22.5
 11
3.3633443637
 21
-22.5
  0
LINE
  5
2D8
100
AcDbEntity
  8
0
100
AcDbLine
 62
7
  6
CONTINUOUS
 10
-10.6503805997
 20
-22.4
 11
-5.5445119776
 21
-22.4
  0
LINE
  5
2D9
100
AcDbEntity
  8
0
100
AcDbLine
 62
7
  6
CONTINUOUS
 10
-3.3848722771
 20
-22.4
 11
-3.3
 21
-22.4
  0
LINE
  5
2DA
100
AcDbEntity
  8
0
100
AcDbLine
 62
7
  6
CONTINUOUS
 10
3.3
 20
-22.4
 11
3.3848722771
 21
-22.4
  0
LINE
  5
2DB
100
AcDbEntity
  8
0
100
AcDbLine
 62
7
  6
CONTINUOUS
 10
5.5445119776
 20
-22.4
 11
10.6503805997
 21
-22.4
  0
LWPOLYLINE
  5
2DC
100
AcDbEntity
  8
ASSI
100
AcDbPolyline
 62
7
  6
CONTINUOUS
 90
10
 70
0
 10
-3.6748574782
 20
-23.5
 10
-3.7403304144
 20
-23.4978093846
 10
-3.804984264
 20
-23.4914781931
 10
-3.8688190271
 20
-23.4810064255
 10
-3.9320970783
 20
-23.4663149731
 10
-3.994556043
 20
-23.4474829446
 10
-4.0554087969
 20
-23.4247476662
 10
-4.1143929653
 20
-23.3981882466
 10
-4.1717709229
 20
-23.367725577
 10
-4.2275426698
 20
-23.3333596575
  0
LWPOLYLINE
  5
2DD
100
AcDbEntity
  8
ASSI
100
AcDbPolyline
 62
7
  6
CONTINUOUS
 90
10
 70
0
 10
-4.2071270357
 20
23.2631073618
 10
-4.1513051783
 20
23.2975607327
 10
-4.0938707981
 20
23.328101306
 10
-4.0348238951
 20
23.3547290816
 10
-3.9739010778
 20
23.3775235872
 10
-3.9113657378
 20
23.3964052951
 10
-3.8480080499
 20
23.4111356227
 10
-3.784091406
 20
23.4216350423
 10
-3.7193524144
 20
23.4279830815
 10
-3.653791075
 20
23.4301797403
  0
LWPOLYLINE
  5
2DE
100
AcDbEntity
  8
RACCORDO
100
AcDbPolyline
 62
250
  6
CONTINUOUS
 90
9
 70
0
 10
-3.0812528557
 20
22.0077017497
 10
-3.0906363066
 20
22.0031988718
 10
-3.1102150286
 20
21.9910017434
 10
-3.1274668402
 20
21.9771696498
 10
-3.1421148335
 20
21.9619277289
 10
-3.1539180741
 20
21.9455268219
 10
-3.1626804524
 20
21.928238124
 10
-3.1682552834
 20
21.9103492962
 10
-3.1705494094
 20
21.8921572875
  0
LINE
  5
2DF
100
AcDbEntity
  8
ASSI
100
AcDbLine
 62
7
  6
CONTINUOUS
 10
-9.7584264418
 20
18.2482544935
 11
-9.831037247
 21
18.2150898701
  0
LINE
  5
2E0
100
AcDbEntity
  8
ASSI
100
AcDbLine
 62
7
  6
CONTINUOUS
 10
-3.4
 20
-21.2
 11
-2.6175930356
 21
-21.1271628567
  0
LINE
  5
2E1
100
AcDbEntity
  8
ASSI
100
AcDbLine
 62
7
  6
CONTINUOUS
 10
-3.0812528557
 20
-22.2
 11
3.0812528557
 21
-22.2
  0
LINE
  5
2E2
100
AcDbEntity
  8
RACCORDO
100
AcDbLine
 62
250
  6
CONTINUOUS
 10
-3.0812528557
 20
-21.8921572875
 11
-3.1705494094
 21
-21.8921572875
  0
LINE
  5
2E3
100
AcDbEntity
  8
RACCORDO
100
AcDbLine
 62
250
  6
CONTINUOUS
 10
3.0812528557
 20
-21.8921572875
 11
3.1705494094
 21
-21.8921572875
  0
LINE
  5
2E4
100
AcDbEntity
  8
ASSI
100
AcDbLine
 62
7
  6
CONTINUOUS
 10
-2.7167632191
 20
-21.6560705017
 11
2.7167632191
 21
-21.6560705017
  0
LINE
  5
2E5
100
AcDbEntity
  8
ASSI
100
AcDbLine
 62
7
  6
CONTINUOUS
 10
-6.9339198284
 20
-21.2
 11
-3.4
 21
-21.2
  0
LINE
  5
2E6
100
AcDbEntity
  8
ASSI
100
AcDbLine
 62
7
  6
CONTINUOUS
 10
3.4
 20
-21.2
 11
6.9339198284
 21
-21.2
  0
LINE
  5
2E7
100
AcDbEntity
  8
ASSI
100
AcDbLine
 62
7
  6
CONTINUOUS
 10
6.9080597678
 20
-21.1301797403
 11
4.8
 21
-21.1301797403
  0
LINE
  5
2E8
100
AcDbEntity
  8
ASSI
100
AcDbLine
 62
7
  6
CONTINUOUS
 10
-6.9069415429
 20
-21.1271628567
 11
-2.6175930356
 21
-21.1271628567
  0
LINE
  5
2E9
100
AcDbEntity
  8
ASSI
100
AcDbLine
 62
7
  6
CONTINUOUS
 10
2.6175930356
 20
-21.1271628567
 11
4.7909419891
 21
-21.1271628567
  0
LINE
  5
2EA
100
AcDbEntity
  8
RACCORDO
100
AcDbLine
 62
7
  6
CONTINUOUS
 10
-9.1500761524
 20
-20.9
 11
-7.3789862928
 21
-20.9
  0
LINE
  5
2EB
100
AcDbEntity
  8
RACCORDO
100
AcDbLine
 62
7
  6
CONTINUOUS
 10
7.3789862928
 20
-20.9
 11
9.1500761524
 21
-20.9
  0
LINE
  5
2EC
100
AcDbEntity
  8
RACCORDO
100
AcDbLine
 62
7
  6
CONTINUOUS
 10
-9.14134862
 20
-20.8912724675
 11
-7.3886522719
 21
-20.8912724675
  0
LINE
  5
2ED
100
AcDbEntity
  8
RACCORDO
100
AcDbLine
 62
7
  6
CONTINUOUS
 10
7.3886522719
 20
-20.8912724675
 11
9.14134862
 21
-20.8912724675
  0
LINE
  5
2EE
100
AcDbEntity
  8
DRAFT
100
AcDbLine
 62
7
  6
CONTINUOUS
 10
8.4674550649
 20
-20.85
 11
7.4343626501
 21
-20.85
  0
LINE
  5
2EF
100
AcDbEntity
  8
DRAFT
100
AcDbLine
 62
7
  6
CONTINUOUS
 10
-7.4343626501
 20
-20.85
 11
-8.4674550649
 21
-20.85
  0
LINE
  5
2F0
100
AcDbEntity
  8
ASSI
100
AcDbLine
 62
7
  6
CONTINUOUS
 10
2.6175930356
 20
-21.1271628567
 11
3.4
 21
-21.2
  0
LWPOLYLINE
  5
2F1
100
AcDbEntity
  8
RACCORDO
100
AcDbPolyline
 62
250
  6
CONTINUOUS
 90
9
 70
0
 10
-3.0812528557
 20
-22.007701738
 10
-3.0906373671
 20
-22.0031982907
 10
-3.1102159713
 20
-21.9910010771
 10
-3.1274675599
 20
-21.9771689939
 10
-3.1421152958
 20
-21.9619271758
 10
-3.1539183305
 20
-21.9455264018
 10
-3.1626805705
 20
-21.9282378342
 10
-3.1682553155
 20
-21.9103491489
 10
-3.1705494094
 20
-21.8921572875
  0
LWPOLYLINE
  5
2F2
100
AcDbEntity
  8
ASSI
100
AcDbPolyline
 62
7
  6
CONTINUOUS
 90
10
 70
0
 10
-4.2071270357
 20
-23.2631073618
 10
-4.1513051783
 20
-23.2975607327
 10
-4.0938707981
 20
-23.328101306
 10
-4.0348238951
 20
-23.3547290816
 10
-3.9739010778
 20
-23.3775235872
 10
-3.9113657378
 20
-23.3964052951
 10
-3.8480080499
 20
-23.4111356227
 10
-3.784091406
 20
-23.4216350423
 10
-3.7193524144
 20
-23.4279830815
 10
-3.653791075
 20
-23.4301797403
  0
LWPOLYLINE
  5
2F3
100
AcDbEntity
  8
ASSI
100
AcDbPolyline
 62
7
  6
CONTINUOUS
 90
13
 70
0
 10
-10.7193014234
 20
17.3594295692
 10
-10.7862331336
 20
17.2695748947
 10
-10.8477227304
 20
17.1767591739
 10
-10.903770214
 20
17.0809824067
 10
-10.9545113172
 20
16.9819349315
 10
-10.9998103071
 20
16.87992641
 10
-11.0392599851
 20
16.7758858265
 10
-11.0728101035
 20
16.6697957248
 10
-11.10051091
 20
16.5616735612
 10
-11.1221059485
 20
16.4525006882
 10
-11.1375097336
 20
16.3426042235
 10
-11.1468077508
 20
16.2316570494
 10
-11.15
 20
16.119659166
  0
LINE
  5
2F4
100
AcDbEntity
  8
ASSI
100
AcDbLine
 62
7
  6
CONTINUOUS
 10
-3.4
 20
23.4301797403
 11
-3.3633443637
 21
23.4668353766
  0
LINE
  5
2F5
100
AcDbEntity
  8
DRAFT
100
AcDbLine
 62
7
  6
CONTINUOUS
 10
8.4579943206
 20
-20.3079943206
 11
8.0224101746
 21
-20.3079943206
  0
LINE
  5
2F6
100
AcDbEntity
  8
DRAFT
100
AcDbLine
 62
7
  6
CONTINUOUS
 10
-8.0224101746
 20
-20.3079943206
 11
-8.4579943206
 21
-20.3079943206
  0
LINE
  5
2F7
100
AcDbEntity
  8
DRAFT
100
AcDbLine
 62
7
  6
CONTINUOUS
 10
-8.45
 20
-20.3
 11
-8.0307395699
 21
-20.3
  0
LINE
  5
2F8
100
AcDbEntity
  8
DRAFT
100
AcDbLine
 62
7
  6
CONTINUOUS
 10
8.0307395699
 20
-20.3
 11
8.45
 21
-20.3
  0
LINE
  5
2F9
100
AcDbEntity
  8
ASSI
100
AcDbLine
 62
250
  6
CONTINUOUS
 10
-8.45
 20
-20.1152614489
 11
-8.2232212694
 21
-20.1152614489
  0
LINE
  5
2FA
100
AcDbEntity
  8
ASSI
100
AcDbLine
 62
250
  6
CONTINUOUS
 10
8.2232212694
 20
-20.1152614489
 11
8.45
 21
-20.1152614489
  0
LINE
  5
2FB
100
AcDbEntity
  8
ASSI
100
AcDbLine
 62
7
  6
CONTINUOUS
 10
-3.7131017248
 20
-19.6130903017
 11
8.13144548
 21
-19.6130903017
  0
LINE
  5
2FC
100
AcDbEntity
  8
ASSI
100
AcDbLine
 62
7
  6
CONTINUOUS
 10
-8.6997562296
 20
-19.4
 11
-4.0
 21
-19.4
  0
LINE
  5
2FD
100
AcDbEntity
  8
ASSI
100
AcDbLine
 62
7
  6
CONTINUOUS
 10
-3.4
 20
-23.4301797403
 11
-3.3633443637
 21
-23.4668353766
  0
LINE
  5
2FE
100
AcDbEntity
  8
ASSI
100
AcDbLine
 62
7
  6
CONTINUOUS
 10
-10.5968357089
 20
-17.2884790584
 11
-10.6114561022
 21
-17.2695078619
  0
LWPOLYLINE
  5
2FF
100
AcDbEntity
  8
ASSI
100
AcDbPolyline
 62
7
  6
CONTINUOUS
 90
13
 70
0
 10
-10.7193014234
 20
-17.3594295692
 10
-10.7862331336
 20
-17.2695748947
 10
-10.8477227304
 20
-17.1767591739
 10
-10.903770214
 20
-17.0809824067
 10
-10.9545113172
 20
-16.9819349315
 10
-10.9998103071
 20
-16.87992641
 10
-11.0392599851
 20
-16.7758858265
 10
-11.0728101035
 20
-16.6697957248
 10
-11.10051091
 20
-16.5616735612
 10
-11.1221059485
 20
-16.4525006882
 10
-11.1375097336
 20
-16.3426042235
 10
-11.1468077508
 20
-16.2316570494
 10
-11.15
 20
-16.119659166
  0
LINE
  5
300
100
AcDbEntity
  8
ASSI
100
AcDbLine
 62
7
  6
CONTINUOUS
 10
-10.8787356532
 20
16.6054953972
 11
-10.0444899025
 21
17.8568640232
  0
LINE
  5
301
100
AcDbEntity
  8
CURVE
100
AcDbLine
 62
7
  6
CONTINUOUS
 10
-11.1187286143
 20
15.3507008463
 11
-11.1015465314
 21
15.3678829292
  0
LINE
  5
302
100
AcDbEntity
  8
CURVE
100
AcDbLine
 62
7
  6
CONTINUOUS
 10
-11.121970642
 20
15.1374481046
 11
-11.1179966192
 21
15.1414221275
  0
LINE
  5
303
100
AcDbEntity
  8
CURVE
100
AcDbLine
 62
7
  6
CONTINUOUS
 10
-11.1020062581
 20
15.1574124885
 11
-11.0981488438
 21
15.1612699029
  0
LINE
  5
304
100
AcDbEntity
  8
CURVE
100
AcDbLine
 62
7
  6
CONTINUOUS
 10
-11.1233320723
 20
14.9260759603
 11
-11.1203513478
 21
14.9290566848
  0
LINE
  5
305
100
AcDbEntity
  8
CURVE
100
AcDbLine
 62
7
  6
CONTINUOUS
 10
-11.0995018872
 20
14.9499061454
 11
-11.0965935651
 21
14.9528144675
  0
LINE
  5
306
100
AcDbEntity
  8
CURVE
100
AcDbLine
 62
7
  6
CONTINUOUS
 10
-11.1238278918
 20
14.7155694268
 11
-11.1211085983
 21
14.7182887204
  0
LINE
  5
307
100
AcDbEntity
  8
CURVE
100
AcDbLine
 62
7
  6
CONTINUOUS
 10
-11.0985808941
 20
14.7408164245
 11
-11.0958893783
 21
14.7435079403
  0
LINE
  5
308
100
AcDbEntity
  8
CURVE
100
AcDbLine
 62
7
  6
CONTINUOUS
 10
-11.123861096
 20
14.5055255086
 11
-11.1211626272
 21
14.5082239774
  0
LINE
  5
309
100
AcDbEntity
  8
CURVE
100
AcDbLine
 62
7
  6
CONTINUOUS
 10
-11.0984412916
 20
14.530945313
 11
-11.0957428229
 21
14.5336437818
  0
LINE
  5
30A
100
AcDbEntity
  8
CURVE
100
AcDbLine
 62
7
  6
CONTINUOUS
 10
-11.123861096
 20
14.2955147946
 11
-11.1211626272
 21
14.2982132634
  0
LINE
  5
30B
100
AcDbEntity
  8
CURVE
100
AcDbLine
 62
7
  6
CONTINUOUS
 10
-11.0984412916
 20
14.320934599
 11
-11.0957428229
 21
14.3236330678
  0
LINE
  5
30C
100
AcDbEntity
  8
CURVE
100
AcDbLine
 62
7
  6
CONTINUOUS
 10
-11.123861096
 20
14.0855040806
 11
-11.1211626272
 21
14.0882025494
  0
LINE
  5
30D
100
AcDbEntity
  8
CURVE
100
AcDbLine
 62
7
  6
CONTINUOUS
 10
-11.0984412916
 20
14.110923885
 11
-11.0957428229
 21
14.1136223537
  0
LINE
  5
30E
100
AcDbEntity
  8
CURVE
100
AcDbLine
 62
7
  6
CONTINUOUS
 10
-11.123861096
 20
13.8754933666
 11
-11.1211626272
 21
13.8781918354
  0
LINE
  5
30F
100
AcDbEntity
  8
CURVE
100
AcDbLine
 62
7
  6
CONTINUOUS
 10
-11.0984412916
 20
13.9009131709
 11
-11.0957428229
 21
13.9036116397
  0
LINE
  5
310
100
AcDbEntity
  8
CURVE
100
AcDbLine
 62
7
  6
CONTINUOUS
 10
-11.123861096
 20
13.6654826526
 11
-11.1211626272
 21
13.6681811214
  0
LINE
  5
311
100
AcDbEntity
  8
CURVE
100
AcDbLine
 62
7
  6
CONTINUOUS
 10
-11.0984412916
 20
13.6909024569
 11
-11.0957428229
 21
13.6936009257
  0
LINE
  5
312
100
AcDbEntity
  8
CURVE
100
AcDbLine
 62
7
  6
CONTINUOUS
 10
-11.123861096
 20
13.4554719386
 11
-11.0731639504
 21
13.5061690842
  0
LWPOLYLINE
  5
313
100
AcDbEntity
  8
CURVE
100
AcDbPolyline
 62
250
  6
CONTINUOUS
 90
16
 70
0
 10
-11.1096606822
 20
15.4979581495
 10
-11.1101073291
 20
15.4977365064
 10
-11.1105548303
 20
15.497051103
 10
-11.111002715
 20
15.4958712284
 10
-11.1114505124
 20
15.4941661716
 10
-11.1118977518
 20
15.4919052216
 10
-11.1123439623
 20
15.4890576676
 10
-11.1127886732
 20
15.4855927984
 10
-11.1132314137
 20
15.4814799032
 10
-11.113671713
 20
15.476688271
 10
-11.1141091003
 20
15.4711871907
 10
-11.1145431049
 20
15.4649459515
 10
-11.114973256
 20
15.4579338424
 10
-11.1153990828
 20
15.4501201524
 10
-11.1157899178
 20
15.4421293139
 10
-11.1165569829
 20
15.4239876396
  0
LINE
  5
314
100
AcDbEntity
  8
ASSI
100
AcDbLine
 62
7
  6
CONTINUOUS
 10
4.7909419891
 20
21.1271628567
 11
4.8
 21
21.1301797403
  0
LINE
  5
315
100
AcDbEntity
  8
ASSI
100
AcDbLine
 62
7
  6
CONTINUOUS
 10
2.3123309216
 20
-18.3
 11
2.5
 21
-18.2625577096
  0
LINE
  5
316
100
AcDbEntity
  8
ASSI
100
AcDbLine
 62
7
  6
CONTINUOUS
 10
1.9812802806
 20
-18.3
 11
1.9725314142
 21
-18.3017455065
  0
LINE
  5
317
100
AcDbEntity
  8
ASSI
100
AcDbLine
 62
7
  6
CONTINUOUS
 10
-2.6312329953
 20
-18.3636248878
 11
-2.3123309216
 21
-18.3
  0
LINE
  5
318
100
AcDbEntity
  8
0
100
AcDbLine
 62
7
  6
CONTINUOUS
 10
9.546
 20
-18.74
 11
9.2337064208
 21
-18.74
  0
LINE
  5
319
100
AcDbEntity
  8
ASSI
100
AcDbLine
 62
7
  6
CONTINUOUS
 10
-4.0130903017
 20
-18.6
 11
-9.2
 21
-18.6
  0
LINE
  5
31A
100
AcDbEntity
  8
0
100
AcDbLine
 62
250
  6
CONTINUOUS
 10
9.546
 20
-18.55
 11
9.3920397541
 21
-18.55
  0
LINE
  5
31B
100
AcDbEntity
  8
0
100
AcDbLine
 62
7
  6
CONTINUOUS
 10
9.546
 20
-18.54
 11
9.556
 21
-18.54
  0
LINE
  5
31C
100
AcDbEntity
  8
ASSI
100
AcDbLine
 62
7
  6
CONTINUOUS
 10
2.6312329953
 20
-18.3636248878
 11
-2.6312329953
 21
-18.3636248878
  0
LINE
  5
31D
100
AcDbEntity
  8
0
100
AcDbLine
 62
250
  6
CONTINUOUS
 10
9.556
 20
-18.35
 11
9.746
 21
-18.35
  0
LINE
  5
31E
100
AcDbEntity
  8
0
100
AcDbLine
 62
7
  6
CONTINUOUS
 10
9.5670397541
 20
-18.34
 11
9.746
 21
-18.34
  0
LINE
  5
31F
100
AcDbEntity
  8
ASSI
100
AcDbLine
 62
7
  6
CONTINUOUS
 10
1.9725314142
 20
-18.3017455065
 11
-1.9725314142
 21
-18.3017455065
  0
LINE
  5
320
100
AcDbEntity
  8
ASSI
100
AcDbLine
 62
7
  6
CONTINUOUS
 10
-2.3123309216
 20
-18.3
 11
-1.9812802806
 21
-18.3
  0
LINE
  5
321
100
AcDbEntity
  8
ASSI
100
AcDbLine
 62
7
  6
CONTINUOUS
 10
1.9812802806
 20
-18.3
 11
2.3123309216
 21
-18.3
  0
LINE
  5
322
100
AcDbEntity
  8
ASSI
100
AcDbLine
 62
7
  6
CONTINUOUS
 10
-9.3788750126
 20
-18.2130903017
 11
-4.0130903017
 21
-18.2130903017
  0
LINE
  5
323
100
AcDbEntity
  8
ASSI
100
AcDbLine
 62
7
  6
CONTINUOUS
 10
-9.4200195315
 20
-18.2
 11
4.99
 21
-18.2
  0
LINE
  5
324
100
AcDbEntity
  8
ASSI
100
AcDbLine
 62
7
  6
CONTINUOUS
 10
-9.4200195315
 20
-17.5
 11
4.99
 21
-17.5
  0
LINE
  5
325
100
AcDbEntity
  8
ASSI
100
AcDbLine
 62
7
  6
CONTINUOUS
 10
1.5812650492
 20
-17.3
 11
-1.5812650492
 21
-17.3
  0
LINE
  5
326
100
AcDbEntity
  8
ASSI
100
AcDbLine
 62
7
  6
CONTINUOUS
 10
-1.990977166
 20
-17.259022834
 11
1.990977166
 21
-17.259022834
  0
LINE
  5
327
100
AcDbEntity
  8
ASSI
100
AcDbLine
 62
7
  6
CONTINUOUS
 10
-2.0
 20
-17.25
 11
2.0
 21
-17.25
  0
LINE
  5
328
100
AcDbEntity
  8
0
100
AcDbLine
 62
250
  6
CONTINUOUS
 10
-10.6
 20
-17.2
 11
-10.4823992513
 21
-17.2
  0
LINE
  5
329
100
AcDbEntity
  8
ASSI
100
AcDbLine
 62
7
  6
CONTINUOUS
 10
-2.5
 20
-18.2625577096
 11
-2.3123309216
 21
-18.3
  0
LINE
  5
32A
100
AcDbEntity
  8
ASSI
100
AcDbLine
 62
7
  6
CONTINUOUS
 10
-1.9725314142
 20
-18.3017455065
 11
-1.9812802806
 21
-18.3
  0
LINE
  5
32B
100
AcDbEntity
  8
ASSI
100
AcDbLine
 62
7
  6
CONTINUOUS
 10
2.3123309216
 20
-18.3
 11
2.6312329953
 21
-18.3636248878
  0
LINE
  5
32C
100
AcDbEntity
  8
CURVE
100
AcDbLine
 62
250
  6
CONTINUOUS
 10
-8.5
 20
-16.9285716057
 11
-7.2
 21
-17.2071425915
  0
LINE
  5
32D
100
AcDbEntity
  8
CURVE
100
AcDbLine
 62
250
  6
CONTINUOUS
 10
-8.5
 20
-16.3714283943
 11
-7.5714285493
 21
-16.65
  0
LINE
  5
32E
100
AcDbEntity
  8
ASSI
100
AcDbLine
 62
7
  6
CONTINUOUS
 10
4.7909419891
 20
-21.1271628567
 11
4.8
 21
-21.1301797403
  0
LINE
  5
32F
100
AcDbEntity
  8
CURVE
100
AcDbLine
 62
250
  6
CONTINUOUS
 10
-8.128571412
 20
-15.7214287043
 11
-8.314285706
 21
-15.6285712957
  0
LWPOLYLINE
  5
330
100
AcDbEntity
  8
ASSI
100
AcDbPolyline
 62
7
  6
CONTINUOUS
 90
13
 70
0
 10
-10.6114561022
 20
-17.2695078619
 10
-10.6442859807
 20
-17.2243581236
 10
-10.6758248916
 20
-17.17833333
 10
-10.7060981549
 20
-17.131392941
 10
-10.7350804507
 20
-17.0835774966
 10
-10.7626958185
 20
-17.0350086177
 10
-10.7889383969
 20
-16.9856879474
 10
-10.8138140473
 20
-16.9356138424
 10
-10.837264394
 20
-16.8849029934
 10
-10.859286339
 20
-16.8335531309
 10
-10.8798829803
 20
-16.7815665243
 10
-10.8990052359
 20
-16.7290666728
 10
-10.9166493752
 20
-16.6760526429
  0
LINE
  5
331
100
AcDbEntity
  8
ASSI
100
AcDbLine
 62
7
  6
CONTINUOUS
 10
-10.8787356532
 20
-16.6054953972
 11
-10.0444899025
 21
-17.8568640232
  0
LWPOLYLINE
  5
332
100
AcDbEntity
  8
ASSI
100
AcDbPolyline
 62
7
  6
CONTINUOUS
 90
14
 70
0
 10
-10.9166467015
 20
16.6760607888
 10
-10.8990021235
 20
16.7290756051
 10
-10.879880049
 20
16.7815744765
 10
-10.8592839501
 20
16.8335590743
 10
-10.8372625882
 20
16.8849070465
 10
-10.8138127755
 20
16.9356164941
 10
-10.7889376999
 20
16.985689316
 10
-10.7626956868
 20
17.0350088571
 10
-10.7350809674
 20
17.0835766527
 10
-10.7060993105
 20
17.1313911674
 10
-10.6758263478
 20
17.1783311401
 10
-10.6442872897
 20
17.2243561504
 10
-10.6114569258
 20
17.2695066187
 10
-10.5773352561
 20
17.3137825449
  0
LINE
  5
333
100
AcDbEntity
  8
CURVE
100
AcDbLine
 62
7
  6
CONTINUOUS
 10
-11.1238612424
 20
12.8254396501
 11
-11.0863027661
 21
12.8629981264
  0
LINE
  5
334
100
AcDbEntity
  8
CURVE
100
AcDbLine
 62
7
  6
CONTINUOUS
 10
-11.0844653363
 20
12.6548248422
 11
-11.0781872005
 21
12.661102978
  0
LINE
  5
335
100
AcDbEntity
  8
CURVE
100
AcDbLine
 62
7
  6
CONTINUOUS
 10
-11.07857662
 20
12.4507028445
 11
-11.0749067065
 21
12.454372758
  0
LINE
  5
336
100
AcDbEntity
  8
CURVE
100
AcDbLine
 62
7
  6
CONTINUOUS
 10
-11.076165551
 20
12.2431031995
 11
-11.0731748161
 21
12.2460939343
  0
LINE
  5
337
100
AcDbEntity
  8
CURVE
100
AcDbLine
 62
7
  6
CONTINUOUS
 10
-11.0750354737
 20
12.0342225628
 11
-11.0723007857
 21
12.0369572508
  0
LINE
  5
338
100
AcDbEntity
  8
CURVE
100
AcDbLine
 62
7
  6
CONTINUOUS
 10
-11.0746737688
 20
11.8245735537
 11
-11.0719845407
 21
11.8272627817
  0
LINE
  5
339
100
AcDbEntity
  8
CURVE
100
AcDbLine
 62
7
  6
CONTINUOUS
 10
-11.0748375257
 20
11.6143990828
 11
-11.0720941942
 21
11.6171424143
  0
LINE
  5
33A
100
AcDbEntity
  8
CURVE
100
AcDbLine
 62
7
  6
CONTINUOUS
 10
-11.07568814
 20
11.4035377545
 11
-11.0727151507
 21
11.4065107437
  0
LINE
  5
33B
100
AcDbEntity
  8
CURVE
100
AcDbLine
 62
7
  6
CONTINUOUS
 10
-11.0777765363
 20
11.1914386441
 11
-11.0741020894
 21
11.195113091
  0
LINE
  5
33C
100
AcDbEntity
  8
CURVE
100
AcDbLine
 62
7
  6
CONTINUOUS
 10
-11.0826083398
 20
10.9765961267
 11
-11.0768450921
 21
10.9823593743
  0
LINE
  5
33D
100
AcDbEntity
  8
CURVE
100
AcDbLine
 62
7
  6
CONTINUOUS
 10
-11.1238612424
 20
10.72533251
 11
-11.0830509271
 21
10.7661428253
  0
LINE
  5
33E
100
AcDbEntity
  8
IMPORT_IGES
100
AcDbLine
 62
7
  6
CONTINUOUS
 10
2.5
 20
-16.8466270367
 11
-2.5
 21
-16.8466270367
  0
LINE
  5
33F
100
AcDbEntity
  8
IMPORT_IGES
100
AcDbLine
 62
7
  6
CONTINUOUS
 10
2.5
 20
-16.7966270367
 11
-2.5
 21
-16.7966270367
  0
LINE
  5
340
100
AcDbEntity
  8
IMPORT_IGES
100
AcDbLine
 62
7
  6
CONTINUOUS
 10
-2.5
 20
-16.6469592621
 11
2.5
 21
-16.6469592621
  0
LINE
  5
341
100
AcDbEntity
  8
ASSI
100
AcDbLine
 62
7
  6
CONTINUOUS
 10
-2.5
 20
-16.6
 11
2.5
 21
-16.6
  0
LINE
  5
342
100
AcDbEntity
  8
ASSI
100
AcDbLine
 62
7
  6
CONTINUOUS
 10
-2.6312329953
 20
-16.4687670047
 11
2.6312329953
 21
-16.4687670047
  0
LINE
  5
343
100
AcDbEntity
  8
CURVE
100
AcDbLine
 62
250
  6
CONTINUOUS
 10
-7.5714285493
 20
-15.7214287043
 11
-8.128571412
 21
-15.7214287043
  0
LINE
  5
344
100
AcDbEntity
  8
CURVE
100
AcDbLine
 62
250
  6
CONTINUOUS
 10
-11.0262765981
 20
-15.5
 11
-11.0489647265
 21
-15.5
  0
LINE
  5
345
100
AcDbEntity
  8
CURVE
100
AcDbLine
 62
250
  6
CONTINUOUS
 10
-7.5714285493
 20
-15.0714287043
 11
-7.3857142746
 21
-15.1642858028
  0
LINE
  5
346
100
AcDbEntity
  8
CURVE
100
AcDbLine
 62
250
  6
CONTINUOUS
 10
-8.314285706
 20
-15.6285712957
 11
-8.5
 21
-15.4428570986
  0
LINE
  5
347
100
AcDbEntity
  8
CURVE
100
AcDbLine
 62
250
  6
CONTINUOUS
 10
-8.5
 20
-14.5142858028
 11
-8.314285706
 21
-14.7
  0
LINE
  5
348
100
AcDbEntity
  8
CURVE
100
AcDbLine
 62
250
  6
CONTINUOUS
 10
-7.3857142746
 20
-15.1642858028
 11
-7.2
 21
-15.35
  0
LWPOLYLINE
  5
349
100
AcDbEntity
  8
ASSI
100
AcDbPolyline
 62
7
  6
CONTINUOUS
 90
3
 70
0
 10
-10.9823374134
 20
16.4046736282
 10
-10.9722469846
 20
16.4596227396
 10
-10.9606173965
 20
16.5143126742
  0
LINE
  5
34A
100
AcDbEntity
  8
ASSI
100
AcDbLine
 62
7
  6
CONTINUOUS
 10
-10.9606173965
 20
16.5143126742
 11
-10.9474754375
 21
16.5686157012
  0
LWPOLYLINE
  5
34B
100
AcDbEntity
  8
ASSI
100
AcDbPolyline
 62
7
  6
CONTINUOUS
 90
3
 70
0
 10
-10.9474754375
 20
16.5686157012
 10
-10.932817255
 20
16.6225316989
 10
-10.9166467015
 20
16.6760607888
  0
LINE
  5
34C
100
AcDbEntity
  8
0
100
AcDbLine
 62
7
  6
CONTINUOUS
 10
-3.3
 20
22.4
 11
-3.230158461
 21
22.5048155586
  0
LINE
  5
34D
100
AcDbEntity
  8
CURVE
100
AcDbLine
 62
7
  6
CONTINUOUS
 10
-11.1238139027
 20
9.4653155656
 11
-11.1181439909
 21
9.4709854774
  0
LINE
  5
34E
100
AcDbEntity
  8
CURVE
100
AcDbLine
 62
7
  6
CONTINUOUS
 10
-11.1020553578
 20
9.4870741105
 11
-11.0963849748
 21
9.4927444935
  0
LINE
  5
34F
100
AcDbEntity
  8
CURVE
100
AcDbLine
 62
7
  6
CONTINUOUS
 10
-11.0788792128
 20
9.5102502555
 11
-11.0732093358
 21
9.5159201325
  0
LINE
  5
350
100
AcDbEntity
  8
CURVE
100
AcDbLine
 62
7
  6
CONTINUOUS
 10
-11.1238139027
 20
9.2553048516
 11
-11.1181439909
 21
9.2609747634
  0
LINE
  5
351
100
AcDbEntity
  8
CURVE
100
AcDbLine
 62
7
  6
CONTINUOUS
 10
-11.1020553578
 20
9.2770633965
 11
-11.0963849748
 21
9.2827337795
  0
LINE
  5
352
100
AcDbEntity
  8
CURVE
100
AcDbLine
 62
7
  6
CONTINUOUS
 10
-11.0788792128
 20
9.3002395415
 11
-11.0732093358
 21
9.3059094185
  0
LINE
  5
353
100
AcDbEntity
  8
ASSI
100
AcDbLine
 62
7
  6
CONTINUOUS
 10
-1.9650898701
 20
18.2849101299
 11
-2.0
 21
18.25
  0
LINE
  5
354
100
AcDbEntity
  8
CURVE
100
AcDbLine
 62
7
  6
CONTINUOUS
 10
-11.1238139027
 20
9.0452941376
 11
-11.1181439909
 21
9.0509640494
  0
LINE
  5
355
100
AcDbEntity
  8
CURVE
100
AcDbLine
 62
7
  6
CONTINUOUS
 10
-11.1020553578
 20
9.0670526825
 11
-11.0963849748
 21
9.0727230655
  0
LINE
  5
356
100
AcDbEntity
  8
CURVE
100
AcDbLine
 62
7
  6
CONTINUOUS
 10
-11.0788792128
 20
9.0902288275
 11
-11.0732093358
 21
9.0958987044
  0
LINE
  5
357
100
AcDbEntity
  8
CURVE
100
AcDbLine
 62
7
  6
CONTINUOUS
 10
-11.1238139027
 20
8.8352834236
 11
-11.1181439909
 21
8.8409533354
  0
LINE
  5
358
100
AcDbEntity
  8
CURVE
100
AcDbLine
 62
7
  6
CONTINUOUS
 10
-11.1020553578
 20
8.8570419685
 11
-11.0963849748
 21
8.8627123515
  0
LINE
  5
359
100
AcDbEntity
  8
CURVE
100
AcDbLine
 62
7
  6
CONTINUOUS
 10
-11.0788792128
 20
8.8802181135
 11
-11.0732093358
 21
8.8858879904
  0
LINE
  5
35A
100
AcDbEntity
  8
CURVE
100
AcDbLine
 62
7
  6
CONTINUOUS
 10
-11.1238139027
 20
8.6252727096
 11
-11.1181439909
 21
8.6309426214
  0
LINE
  5
35B
100
AcDbEntity
  8
CURVE
100
AcDbLine
 62
7
  6
CONTINUOUS
 10
-11.1020553578
 20
8.6470312545
 11
-11.0963849748
 21
8.6527016374
  0
LINE
  5
35C
100
AcDbEntity
  8
CURVE
100
AcDbLine
 62
7
  6
CONTINUOUS
 10
-11.0788792128
 20
8.6702073995
 11
-11.0732093358
 21
8.6758772764
  0
LINE
  5
35D
100
AcDbEntity
  8
CURVE
100
AcDbLine
 62
7
  6
CONTINUOUS
 10
-11.1238139027
 20
8.4152619955
 11
-11.1181439909
 21
8.4209319074
  0
LINE
  5
35E
100
AcDbEntity
  8
CURVE
100
AcDbLine
 62
7
  6
CONTINUOUS
 10
-11.1020553578
 20
8.4370205405
 11
-11.0963849748
 21
8.4426909234
  0
LINE
  5
35F
100
AcDbEntity
  8
CURVE
100
AcDbLine
 62
7
  6
CONTINUOUS
 10
-11.0788792128
 20
8.4601966855
 11
-11.0732093358
 21
8.4658665624
  0
LINE
  5
360
100
AcDbEntity
  8
CURVE
100
AcDbLine
 62
7
  6
CONTINUOUS
 10
-11.1238139027
 20
8.2052512815
 11
-11.1181439909
 21
8.2109211934
  0
LINE
  5
361
100
AcDbEntity
  8
CURVE
100
AcDbLine
 62
7
  6
CONTINUOUS
 10
-11.1020553578
 20
8.2270098264
 11
-11.0963849748
 21
8.2326802094
  0
LINE
  5
362
100
AcDbEntity
  8
CURVE
100
AcDbLine
 62
7
  6
CONTINUOUS
 10
-11.0788792128
 20
8.2501859715
 11
-11.0732093358
 21
8.2558558484
  0
LWPOLYLINE
  5
363
100
AcDbEntity
  8
CURVE
100
AcDbPolyline
 62
250
  6
CONTINUOUS
 90
17
 70
0
 10
-11.0934704843
 20
10.6804049345
 10
-11.0926419359
 20
10.6807364723
 10
-11.0918131455
 20
10.681798186
 10
-11.0909845848
 20
10.6836907256
 10
-11.0901567253
 20
10.6865147414
 10
-11.0893300385
 20
10.6903708835
 10
-11.0885049961
 20
10.6953598022
 10
-11.0876820695
 20
10.7015821475
 10
-11.0868617303
 20
10.7091385697
 10
-11.08604445
 20
10.7181297189
 10
-11.0852307003
 20
10.7286562454
 10
-11.0845590527
 20
10.7386184115
 10
-11.0838916649
 20
10.7497361475
 10
-11.0832300443
 20
10.7620397747
 10
-11.0825756982
 20
10.7755596148
 10
-11.0819301337
 20
10.7903259892
 10
-11.080671379
 20
10.8237196271
  0
LINE
  5
364
100
AcDbEntity
  8
CURVE
100
AcDbLine
 62
250
  6
CONTINUOUS
 10
-7.2
 20
-16.0928574085
 11
-8.5
 21
-16.3714283943
  0
LINE
  5
365
100
AcDbEntity
  8
CURVE
100
AcDbLine
 62
250
  6
CONTINUOUS
 10
-8.128571412
 20
-15.0714287043
 11
-7.5714285493
 21
-15.0714287043
  0
LINE
  5
366
100
AcDbEntity
  8
CURVE
100
AcDbLine
 62
250
  6
CONTINUOUS
 10
-8.314285706
 20
-14.7
 11
-7.9428571373
 21
-14.7
  0
LINE
  5
367
100
AcDbEntity
  8
CURVE
100
AcDbLine
 62
250
  6
CONTINUOUS
 10
-7.7571428239
 20
-14.1428570986
 11
-7.2
 21
-14.1428570986
  0
LINE
  5
368
100
AcDbEntity
  8
CURVE
100
AcDbLine
 62
250
  6
CONTINUOUS
 10
-7.2
 20
-13.7714287043
 11
-8.5
 21
-13.7714287043
  0
LINE
  5
369
100
AcDbEntity
  8
CURVE
100
AcDbLine
 62
250
  6
CONTINUOUS
 10
-7.5714285493
 20
-13.4
 11
-7.2
 21
-13.7714287043
  0
LINE
  5
36A
100
AcDbEntity
  8
CURVE
100
AcDbLine
 62
250
  6
CONTINUOUS
 10
-8.5
 20
-11.9142857254
 11
-8.314285706
 21
-12.1
  0
LWPOLYLINE
  5
36B
100
AcDbEntity
  8
RACCORDO
100
AcDbPolyline
 62
7
  6
CONTINUOUS
 90
11
 70
0
 10
-3.2371426149
 20
-21.3629352605
 10
-3.2364960555
 20
-21.3638754312
 10
-3.2358785591
 20
-21.3661834843
 10
-3.2352901257
 20
-21.3698594198
 10
-3.2347299433
 20
-21.3750168983
 10
-3.2341988239
 20
-21.381542259
 10
-3.2336992037
 20
-21.3890945205
 10
-3.233232855
 20
-21.3975749192
 10
-3.2327980056
 20
-21.4070822186
 10
-3.2323917741
 20
-21.4175717273
 10
-3.2320105844
 20
-21.4291186386
  0
LINE
  5
36C
100
AcDbEntity
  8
0
100
AcDbLine
 62
7
  6
CONTINUOUS
 10
-3.230158461
 20
-22.5048155586
 11
-3.3
 21
-22.4
  0
LINE
  5
36D
100
AcDbEntity
  8
ASSI
100
AcDbLine
 62
7
  6
CONTINUOUS
 10
-10.9166493752
 20
-16.6760526429
 11
-10.9328191289
 21
-16.6225253681
  0
LWPOLYLINE
  5
36E
100
AcDbEntity
  8
ASSI
100
AcDbPolyline
 62
7
  6
CONTINUOUS
 90
3
 70
0
 10
-10.9328191289
 20
-16.6225253681
 10
-10.9474766073
 20
-16.5686111478
 10
-10.9606181122
 20
-16.5143095342
  0
LWPOLYLINE
  5
36F
100
AcDbEntity
  8
ASSI
100
AcDbPolyline
 62
7
  6
CONTINUOUS
 90
5
 70
0
 10
-10.9606181122
 20
-16.5143095342
 10
-10.9722473418
 20
-16.4596209751
 10
-10.9823375005
 20
-16.4046731133
 10
-10.9908850226
 20
-16.3494611372
 10
-10.9915746446
 20
-16.3440028391
  0
LINE
  5
370
100
AcDbEntity
  8
CURVE
100
AcDbLine
 62
250
  6
CONTINUOUS
 10
-11.0891072781
 20
-14.290021
 11
-11.1239355973
 21
-13.72041
  0
LWPOLYLINE
  5
371
100
AcDbEntity
  8
ASSI
100
AcDbPolyline
 62
7
  6
CONTINUOUS
 90
4
 70
0
 10
-10.944687122
 20
16.2474889072
 10
-10.9469525469
 20
16.2168463586
 10
-10.9482990123
 20
16.1817040964
 10
-10.9483456746
 20
16.1514445121
  0
LINE
  5
372
100
AcDbEntity
  8
ASSI
100
AcDbLine
 62
7
  6
CONTINUOUS
 10
-11.0033469558
 20
16.2383989645
 11
-10.9978936442
 21
16.2939880025
  0
LINE
  5
373
100
AcDbEntity
  8
ASSI
100
AcDbLine
 62
7
  6
CONTINUOUS
 10
-10.9978936442
 20
16.2939880025
 11
-10.9920932155
 21
16.3398982636
  0
LWPOLYLINE
  5
374
100
AcDbEntity
  8
ASSI
100
AcDbPolyline
 62
250
  6
CONTINUOUS
 90
4
 70
0
 10
-10.6585359545
 20
11.85
 10
-10.6570164693
 20
11.8553504582
 10
-10.6555214331
 20
11.8713400687
 10
-10.6540508461
 20
11.8978370917
  0
LWPOLYLINE
  5
375
100
AcDbEntity
  8
ASSI
100
AcDbPolyline
 62
250
  6
CONTINUOUS
 90
4
 70
0
 10
-10.6585359545
 20
6.85
 10
-10.6570164708
 20
6.8553504461
 10
-10.655521434
 20
6.8713400553
 10
-10.6540508441
 20
6.8978371398
  0
LINE
  5
376
100
AcDbEntity
  8
ASSI
100
AcDbLine
 62
7
  6
CONTINUOUS
 10
-1.990977166
 20
17.259022834
 11
-2.0
 21
17.25
  0
LINE
  5
377
100
AcDbEntity
  8
CURVE
100
AcDbLine
 62
7
  6
CONTINUOUS
 10
-11.1238139027
 20
7.9952405675
 11
-11.0732093358
 21
8.0458451344
  0
LINE
  5
378
100
AcDbEntity
  8
CURVE
100
AcDbLine
 62
7
  6
CONTINUOUS
 10
-11.1238139027
 20
7.7852298535
 11
-11.0732093358
 21
7.8358344204
  0
LINE
  5
379
100
AcDbEntity
  8
CURVE
100
AcDbLine
 62
7
  6
CONTINUOUS
 10
-11.1238137631
 20
7.1551978511
 11
-11.1226040186
 21
7.1564075956
  0
LINE
  5
37A
100
AcDbEntity
  8
CURVE
100
AcDbLine
 62
7
  6
CONTINUOUS
 10
-11.1238137631
 20
6.9451871371
 11
-11.1127845988
 21
6.9562163014
  0
LINE
  5
37B
100
AcDbEntity
  8
CURVE
100
AcDbLine
 62
7
  6
CONTINUOUS
 10
-11.1216329922
 20
6.7373571939
 11
-11.102965179
 21
6.7560250072
  0
LINE
  5
37C
100
AcDbEntity
  8
CURVE
100
AcDbLine
 62
7
  6
CONTINUOUS
 10
-11.11116944
 20
6.5378100322
 11
-11.0931457592
 21
6.555833713
  0
LINE
  5
37D
100
AcDbEntity
  8
CURVE
100
AcDbLine
 62
7
  6
CONTINUOUS
 10
-11.1007058878
 20
6.3382628704
 11
-11.0833263393
 21
6.3556424188
  0
LINE
  5
37E
100
AcDbEntity
  8
CURVE
100
AcDbLine
 62
7
  6
CONTINUOUS
 10
-11.0902423355
 20
6.1387157086
 11
-11.0735069195
 21
6.1554511246
  0
LINE
  5
37F
100
AcDbEntity
  8
CURVE
100
AcDbLine
 62
7
  6
CONTINUOUS
 10
-11.0799421468
 20
5.9390051834
 11
-11.0732091788
 21
5.9457381513
  0
LINE
  5
380
100
AcDbEntity
  8
ASSI
100
AcDbLine
 62
250
  6
CONTINUOUS
 10
10.5773352489
 20
17.3137825538
 11
10.7193014234
 21
17.3594295692
  0
LINE
  5
381
100
AcDbEntity
  8
CURVE
100
AcDbLine
 62
250
  6
CONTINUOUS
 10
-11.0262765981
 20
-13.4571429014
 11
-11.0489647265
 21
-13.4571429014
  0
LINE
  5
382
100
AcDbEntity
  8
CURVE
100
AcDbLine
 62
250
  6
CONTINUOUS
 10
-11.1239386335
 20
-12.890935
 11
-11.0733373821
 21
-12.890935
  0
LINE
  5
383
100
AcDbEntity
  8
CURVE
100
AcDbLine
 62
250
  6
CONTINUOUS
 10
-11.0262765981
 20
-12.8071429014
 11
-11.0489647265
 21
-12.8071429014
  0
LINE
  5
384
100
AcDbEntity
  8
CURVE
100
AcDbLine
 62
250
  6
CONTINUOUS
 10
-11.0733373821
 20
-12.285664
 11
-11.1239386335
 21
-12.285664
  0
LINE
  5
385
100
AcDbEntity
  8
CURVE
100
AcDbLine
 62
250
  6
CONTINUOUS
 10
-8.314285706
 20
-12.1
 11
-7.9428571373
 21
-12.1
  0
LINE
  5
386
100
AcDbEntity
  8
CURVE
100
AcDbLine
 62
250
  6
CONTINUOUS
 10
4.139012
 20
-12.092362
 11
3.12
 21
-12.092362
  0
LINE
  5
387
100
AcDbEntity
  8
ASSI
100
AcDbLine
 62
250
  6
CONTINUOUS
 10
10.5773352489
 20
-17.3137825538
 11
10.7193014234
 21
-17.3594295692
  0
LINE
  5
388
100
AcDbEntity
  8
ASSI
100
AcDbLine
 62
7
  6
CONTINUOUS
 10
-2.0
 20
-17.25
 11
-1.990977166
 21
-17.259022834
  0
LINE
  5
389
100
AcDbEntity
  8
ASSI
100
AcDbLine
 62
7
  6
CONTINUOUS
 10
-2.5
 20
-16.6
 11
-2.6312329953
 21
-16.4687670047
  0
LINE
  5
38A
100
AcDbEntity
  8
CURVE
100
AcDbLine
 62
250
  6
CONTINUOUS
 10
-7.5714285493
 20
-10.8
 11
-7.2
 21
-11.171428588
  0
LINE
  5
38B
100
AcDbEntity
  8
CURVE
100
AcDbLine
 62
250
  6
CONTINUOUS
 10
-11.1063770672
 20
-11.250162
 11
-11.0733373821
 21
-11.380779
  0
LINE
  5
38C
100
AcDbEntity
  8
CURVE
100
AcDbLine
 62
250
  6
CONTINUOUS
 10
-11.0733373821
 20
-11.959827
 11
-11.1239355973
 21
-11.698005
  0
LINE
  5
38D
100
AcDbEntity
  8
CURVE
100
AcDbLine
 62
250
  6
CONTINUOUS
 10
-11.0357507621
 20
6.3071428895
 11
-11.045224926
 21
6.4428571105
  0
LINE
  5
38E
100
AcDbEntity
  8
CURVE
100
AcDbLine
 62
250
  6
CONTINUOUS
 10
-11.0333822208
 20
9.428571558
 11
-11.0594361704
 21
9.835714221
  0
LINE
  5
38F
100
AcDbEntity
  8
CURVE
100
AcDbLine
 62
250
  6
CONTINUOUS
 10
-11.1100324928
 20
-7.733126
 11
-11.0912548535
 21
-8.0345
  0
LINE
  5
390
100
AcDbEntity
  8
CURVE
100
AcDbLine
 62
250
  6
CONTINUOUS
 10
-11.0262765981
 20
-14.5714285493
 11
-11.0489647265
 21
-14.2
  0
LINE
  5
391
100
AcDbEntity
  8
CURVE
100
AcDbLine
 62
250
  6
CONTINUOUS
 10
-11.0834385877
 20
-8.158312
 11
-11.0733373821
 21
-8.325329
  0
LINE
  5
392
100
AcDbEntity
  8
CURVE
100
AcDbLine
 62
250
  6
CONTINUOUS
 10
-11.0733373821
 20
-8.924033
 11
-11.1239355973
 21
-8.014517
  0
LINE
  5
393
100
AcDbEntity
  8
CURVE
100
AcDbLine
 62
250
  6
CONTINUOUS
 10
-11.1239355973
 20
-13.115552
 11
-11.0733373821
 21
-14.047617
  0
LINE
  5
394
100
AcDbEntity
  8
CURVE
100
AcDbLine
 62
250
  6
CONTINUOUS
 10
-11.0799421468
 20
5.942284
 11
-11.1238137631
 21
6.778946
  0
LWPOLYLINE
  5
395
100
AcDbEntity
  8
CURVE
100
AcDbPolyline
 62
250
  6
CONTINUOUS
 90
14
 70
0
 10
-11.1042330027
 20
15.447780415
 10
-11.1046351039
 20
15.4557651247
 10
-11.1050414223
 20
15.4629764975
 10
-11.1054515085
 20
15.4694379487
 10
-11.1058649127
 20
15.4751728938
 10
-11.1062811855
 20
15.480204748
 10
-11.1066998772
 20
15.4845569266
 10
-11.1071205382
 20
15.4882528451
 10
-11.1075427189
 20
15.4913159186
 10
-11.1079659697
 20
15.4937695626
 10
-11.1083898411
 20
15.4956371924
 10
-11.1088138833
 20
15.4969422232
 10
-11.1092376469
 20
15.4977080705
 10
-11.1096606822
 20
15.4979581495
  0
LINE
  5
396
100
AcDbEntity
  8
CURVE
100
AcDbLine
 62
250
  6
CONTINUOUS
 10
-11.1238137631
 20
7.181071
 11
-11.0732091788
 21
6.149381
  0
LWPOLYLINE
  5
397
100
AcDbEntity
  8
CURVE
100
AcDbPolyline
 62
250
  6
CONTINUOUS
 90
14
 70
0
 10
-11.0825776094
 20
12.802875467
 10
-11.0832325025
 20
12.8166972414
 10
-11.0838948822
 20
12.8293071204
 10
-11.0845631982
 20
12.8407378074
 10
-11.0852359007
 20
12.8510220058
 10
-11.0861392148
 20
12.8630356097
 10
-11.0870469451
 20
12.8731825981
 10
-11.0879584459
 20
12.8815839959
 10
-11.0888730719
 20
12.8883608282
 10
-11.0897901774
 20
12.8936341198
 10
-11.0907091169
 20
12.8975248957
 10
-11.091629245
 20
12.9001541809
 10
-11.0925499159
 20
12.9016430004
 10
-11.0934704843
 20
12.9021123791
  0
LINE
  5
398
100
AcDbEntity
  8
CURVE
100
AcDbLine
 62
250
  6
CONTINUOUS
 10
-11.0958433172
 20
-10.494355
 11
-11.1239355973
 21
-9.889084
  0
LWPOLYLINE
  5
399
100
AcDbEntity
  8
CURVE
100
AcDbPolyline
 62
250
  6
CONTINUOUS
 90
25
 70
0
 10
-11.1040796515
 20
-4.454711032
 10
-11.1045455223
 20
-4.4447010075
 10
-11.1050139216
 20
-4.4356765436
 10
-11.1054873803
 20
-4.4275703245
 10
-11.1059653585
 20
-4.4203834633
 10
-11.1064473165
 20
-4.414117073
 10
-11.1070000723
 20
-4.4081016624
 10
-11.107556547
 20
-4.4032564582
 10
-11.1081160028
 20
-4.3995576434
 10
-11.1086777018
 20
-4.396981401
 10
-11.1092409062
 20
-4.3955039141
 10
-11.1098048781
 20
-4.3951013658
 10
-11.1103688798
 20
-4.3957499389
 10
-11.1108618746
 20
-4.3971675124
 10
-11.1113538262
 20
-4.3993940001
 10
-11.1118442337
 20
-4.4024516258
 10
-11.1123325962
 20
-4.4063626134
 10
-11.1128184128
 20
-4.4111491869
 10
-11.1133011826
 20
-4.4168335701
 10
-11.1137804047
 20
-4.4234379869
 10
-11.1142555782
 20
-4.4309846614
 10
-11.1147265388
 20
-4.4394976407
 10
-11.1151922019
 20
-4.4489664454
 10
-11.1156518269
 20
-4.4593808677
 10
-11.1165499998
 20
-4.4830057337
  0
LINE
  5
39A
100
AcDbEntity
  8
CURVE
100
AcDbLine
 62
250
  6
CONTINUOUS
 10
-11.0843245675
 20
12.6527848497
 11
-11.0834193924
 21
12.6340135065
  0
LINE
  5
39B
100
AcDbEntity
  8
CURVE
100
AcDbLine
 62
250
  6
CONTINUOUS
 10
-11.1062393363
 20
-9.735548
 11
-11.0733373821
 21
-10.455216
  0
LINE
  5
39C
100
AcDbEntity
  8
CURVE
100
AcDbLine
 62
250
  6
CONTINUOUS
 10
-11.1034443013
 20
15.4294306611
 11
-11.1042330027
 21
15.447780415
  0
LINE
  5
39D
100
AcDbEntity
  8
CURVE
100
AcDbLine
 62
250
  6
CONTINUOUS
 10
-11.1059082561
 20
-4.9915493253
 11
-11.1055098361
 21
-5.0009508776
  0
LINE
  5
39E
100
AcDbEntity
  8
CURVE
100
AcDbLine
 62
250
  6
CONTINUOUS
 10
-11.0834193924
 20
12.6340135065
 11
-11.0825362815
 21
12.6123983469
  0
LINE
  5
39F
100
AcDbEntity
  8
CURVE
100
AcDbLine
 62
250
  6
CONTINUOUS
 10
-11.081296483
 20
12.7714654189
 11
-11.0825776094
 21
12.802875467
  0
LINE
  5
3A0
100
AcDbEntity
  8
CURVE
100
AcDbLine
 62
250
  6
CONTINUOUS
 10
-11.103167528
 20
-4.4774810278
 11
-11.1040796515
 21
-4.454711032
  0
LINE
  5
3A1
100
AcDbEntity
  8
CURVE
100
AcDbLine
 62
250
  6
CONTINUOUS
 10
-11.1050695455
 20
15.268259791
 11
-11.1043560176
 21
15.2498858556
  0
LINE
  5
3A2
100
AcDbEntity
  8
ASSI
100
AcDbLine
 62
7
  6
CONTINUOUS
 10
-11.1587898917
 20
-1.1996074236
 11
-11.1777453242
 21
-0.6685343766
  0
LINE
  5
3A3
100
AcDbEntity
  8
CURVE
100
AcDbLine
 62
250
  6
CONTINUOUS
 10
-11.0499620074
 20
4.0
 11
-11.0546990889
 21
4.1357142918
  0
LINE
  5
3A4
100
AcDbEntity
  8
CURVE
100
AcDbLine
 62
250
  6
CONTINUOUS
 10
-11.0357507621
 20
4.95
 11
-11.0310136801
 21
4.8142857224
  0
LINE
  5
3A5
100
AcDbEntity
  8
CURVE
100
AcDbLine
 62
250
  6
CONTINUOUS
 10
-11.0302241663
 20
11.192857337
 11
-11.0318031937
 21
11.2380952597
  0
LINE
  5
3A6
100
AcDbEntity
  8
CURVE
100
AcDbLine
 62
250
  6
CONTINUOUS
 10
-11.0294346527
 20
11.3738094807
 11
-11.0278556254
 21
11.328571558
  0
LINE
  5
3A7
100
AcDbEntity
  8
CURVE
100
AcDbLine
 62
250
  6
CONTINUOUS
 10
-11.0499620074
 20
14.585714674
 11
-11.0546990889
 21
14.721428442
  0
LINE
  5
3A8
100
AcDbEntity
  8
CURVE
100
AcDbLine
 62
250
  6
CONTINUOUS
 10
-11.0357507621
 20
15.535714674
 11
-11.0310136801
 21
15.4
  0
LINE
  5
3A9
100
AcDbEntity
  8
CURVE
100
AcDbLine
 62
250
  6
CONTINUOUS
 10
-11.1055098361
 20
-5.0009508776
 11
-11.1051220077
 21
-5.0117938863
  0
LINE
  5
3AA
100
AcDbEntity
  8
CURVE
100
AcDbLine
 62
250
  6
CONTINUOUS
 10
-11.1026793133
 20
15.4079180694
 11
-11.1034443013
 21
15.4294306611
  0
LINE
  5
3AB
100
AcDbEntity
  8
CURVE
100
AcDbLine
 62
250
  6
CONTINUOUS
 10
-11.0825362815
 20
12.6123983469
 11
-11.081681119
 21
12.5877694179
  0
LINE
  5
3AC
100
AcDbEntity
  8
CURVE
100
AcDbLine
 62
250
  6
CONTINUOUS
 10
-11.0800639031
 20
12.7348153492
 11
-11.081296483
 21
12.7714654189
  0
LINE
  5
3AD
100
AcDbEntity
  8
CURVE
100
AcDbLine
 62
250
  6
CONTINUOUS
 10
-11.1022886488
 20
-4.5037706572
 11
-11.103167528
 21
-4.4774810278
  0
LINE
  5
3AE
100
AcDbEntity
  8
CURVE
100
AcDbLine
 62
250
  6
CONTINUOUS
 10
-11.1043560176
 20
15.2498858556
 11
-11.1036686884
 21
15.2285904206
  0
LINE
  5
3AF
100
AcDbEntity
  8
CURVE
100
AcDbLine
 62
250
  6
CONTINUOUS
 10
-11.1051220077
 20
-5.0117938863
 11
-11.1047470727
 21
-5.0240410547
  0
LINE
  5
3B0
100
AcDbEntity
  8
CURVE
100
AcDbLine
 62
250
  6
CONTINUOUS
 10
-11.1019415167
 20
15.383356639
 11
-11.1026793133
 21
15.4079180694
  0
LINE
  5
3B1
100
AcDbEntity
  8
CURVE
100
AcDbLine
 62
250
  6
CONTINUOUS
 10
-11.081681119
 20
12.5877694179
 11
-11.0808597889
 21
12.5599567664
  0
LINE
  5
3B2
100
AcDbEntity
  8
CURVE
100
AcDbLine
 62
250
  6
CONTINUOUS
 10
-11.101448603
 20
-4.5336173522
 11
-11.1022886488
 21
-4.5037706572
  0
LINE
  5
3B3
100
AcDbEntity
  8
CURVE
100
AcDbLine
 62
250
  6
CONTINUOUS
 10
-11.0788922704
 20
12.6926636314
 11
-11.0800639031
 21
12.7348153492
  0
LINE
  5
3B4
100
AcDbEntity
  8
CURVE
100
AcDbLine
 62
250
  6
CONTINUOUS
 10
-11.0594361704
 20
13.364285326
 11
-11.0523305472
 21
13.092856884
  0
LINE
  5
3B5
100
AcDbEntity
  8
CURVE
100
AcDbLine
 62
250
  6
CONTINUOUS
 10
-11.1036686884
 20
15.2285904206
 11
-11.1030121756
 21
15.2043585148
  0
LINE
  5
3B6
100
AcDbEntity
  8
CURVE
100
AcDbLine
 62
250
  6
CONTINUOUS
 10
-11.0262765981
 20
13.092856884
 11
-11.0499620074
 21
14.042856884
  0
LINE
  5
3B7
100
AcDbEntity
  8
CURVE
100
AcDbLine
 62
250
  6
CONTINUOUS
 10
-11.1047470727
 20
-5.0240410547
 11
-11.1042138805
 21
-5.04496302
  0
LINE
  5
3B8
100
AcDbEntity
  8
CURVE
100
AcDbLine
 62
250
  6
CONTINUOUS
 10
-11.1008957709
 20
15.3411107445
 11
-11.1019415167
 21
15.383356639
  0
LINE
  5
3B9
100
AcDbEntity
  8
CURVE
100
AcDbLine
 62
250
  6
CONTINUOUS
 10
-11.0808597889
 20
12.5599567664
 11
-11.079704101
 21
12.5118965374
  0
LINE
  5
3BA
100
AcDbEntity
  8
CURVE
100
AcDbLine
 62
250
  6
CONTINUOUS
 10
-11.1002810647
 20
-4.5849692718
 11
-11.101448603
 21
-4.5336173522
  0
LINE
  5
3BB
100
AcDbEntity
  8
CURVE
100
AcDbLine
 62
250
  6
CONTINUOUS
 10
-11.1030121756
 20
15.2043585148
 11
-11.1020965989
 21
15.1626580256
  0
LINE
  5
3BC
100
AcDbEntity
  8
CURVE
100
AcDbLine
 62
250
  6
CONTINUOUS
 10
-11.0772755029
 20
12.61853434
 11
-11.0788922704
 21
12.6926636314
  0
LINE
  5
3BD
100
AcDbEntity
  8
ASSI
100
AcDbLine
 62
7
  6
CONTINUOUS
 10
-10.9505007266
 20
1.2671375469
 11
-10.9491010867
 21
1.1960432516
  0
LINE
  5
3BE
100
AcDbEntity
  8
ASSI
100
AcDbLine
 62
7
  6
CONTINUOUS
 10
-10.9505007266
 20
6.2671375469
 11
-10.9491010867
 21
6.1960432516
  0
LINE
  5
3BF
100
AcDbEntity
  8
ASSI
100
AcDbLine
 62
7
  6
CONTINUOUS
 10
-10.9505007266
 20
11.2671375469
 11
-10.9491010867
 21
11.1960432516
  0
LINE
  5
3C0
100
AcDbEntity
  8
CURVE
100
AcDbLine
 62
250
  6
CONTINUOUS
 10
-11.1042138805
 20
-5.04496302
 11
-11.1035695678
 21
-5.0774254292
  0
LINE
  5
3C1
100
AcDbEntity
  8
CURVE
100
AcDbLine
 62
250
  6
CONTINUOUS
 10
-11.0457235655
 20
-11.4142858028
 11
-11.0489647265
 21
-11.2285712957
  0
LINE
  5
3C2
100
AcDbEntity
  8
CURVE
100
AcDbLine
 62
250
  6
CONTINUOUS
 10
-11.0457235655
 20
-10.3309522629
 11
-11.0489647265
 21
-10.1452380657
  0
LINE
  5
3C3
100
AcDbEntity
  8
CURVE
100
AcDbLine
 62
250
  6
CONTINUOUS
 10
-11.0295177595
 20
-9.6809522629
 11
-11.0262765981
 21
-9.86666646
  0
LINE
  5
3C4
100
AcDbEntity
  8
CURVE
100
AcDbLine
 62
250
  6
CONTINUOUS
 10
-11.0392412435
 20
-6.5238096714
 11
-11.0360000818
 21
-6.7095238686
  0
LINE
  5
3C5
100
AcDbEntity
  8
CURVE
100
AcDbLine
 62
250
  6
CONTINUOUS
 10
-11.0457235655
 20
-6.1523806572
 11
-11.0489647265
 21
-5.96666646
  0
LINE
  5
3C6
100
AcDbEntity
  8
CURVE
100
AcDbLine
 62
250
  6
CONTINUOUS
 10
-11.0295177595
 20
-5.5023806572
 11
-11.0262765981
 21
-5.6880954742
  0
LINE
  5
3C7
100
AcDbEntity
  8
CURVE
100
AcDbLine
 62
250
  6
CONTINUOUS
 10
-11.0546990889
 20
4.1357142918
 11
-11.0594361704
 21
4.4071428612
  0
LINE
  5
3C8
100
AcDbEntity
  8
CURVE
100
AcDbLine
 62
250
  6
CONTINUOUS
 10
-11.0594361704
 20
5.7642856658
 11
-11.0546990889
 21
5.4928571105
  0
LINE
  5
3C9
100
AcDbEntity
  8
CURVE
100
AcDbLine
 62
250
  6
CONTINUOUS
 10
-11.0310136801
 20
4.8142857224
 11
-11.0262765981
 21
4.5428571671
  0
LINE
  5
3CA
100
AcDbEntity
  8
CURVE
100
AcDbLine
 62
250
  6
CONTINUOUS
 10
-11.0499620074
 20
6.985714221
 11
-11.0594361704
 21
7.5285713315
  0
LINE
  5
3CB
100
AcDbEntity
  8
CURVE
100
AcDbLine
 62
250
  6
CONTINUOUS
 10
-11.0262765981
 20
5.7642856658
 11
-11.0357507621
 21
6.3071428895
  0
LINE
  5
3CC
100
AcDbEntity
  8
CURVE
100
AcDbLine
 62
250
  6
CONTINUOUS
 10
-11.0262765981
 20
8.75
 11
-11.0286451391
 21
8.885714221
  0
LINE
  5
3CD
100
AcDbEntity
  8
CURVE
100
AcDbLine
 62
250
  6
CONTINUOUS
 10
-11.0499620074
 20
12.007143116
 11
-11.0594361704
 21
12.55
  0
LINE
  5
3CE
100
AcDbEntity
  8
CURVE
100
AcDbLine
 62
250
  6
CONTINUOUS
 10
-11.0546990889
 20
14.721428442
 11
-11.0594361704
 21
14.992856884
  0
LINE
  5
3CF
100
AcDbEntity
  8
CURVE
100
AcDbLine
 62
250
  6
CONTINUOUS
 10
-11.0310136801
 20
15.4
 11
-11.0262765981
 21
15.128571558
  0
LINE
  5
3D0
100
AcDbEntity
  8
CURVE
100
AcDbLine
 62
250
  6
CONTINUOUS
 10
-11.099639132
 20
15.2754466638
 11
-11.1008957709
 21
15.3411107445
  0
LINE
  5
3D1
100
AcDbEntity
  8
CURVE
100
AcDbLine
 62
250
  6
CONTINUOUS
 10
-11.079704101
 20
12.5118965374
 11
-11.0783335602
 21
12.4359442096
  0
LINE
  5
3D2
100
AcDbEntity
  8
ASSI
100
AcDbLine
 62
7
  6
CONTINUOUS
 10
-11.1777791133
 20
-0.6698650624
 11
-11.1778367071
 21
-0.6661475531
  0
LINE
  5
3D3
100
AcDbEntity
  8
CURVE
100
AcDbLine
 62
250
  6
CONTINUOUS
 10
-11.0985704244
 20
-4.685470439
 11
-11.1002810647
 21
-4.5849692718
  0
LINE
  5
3D4
100
AcDbEntity
  8
CURVE
100
AcDbLine
 62
250
  6
CONTINUOUS
 10
-11.0758588263
 20
12.5316703851
 11
-11.0772755029
 21
12.61853434
  0
LINE
  5
3D5
100
AcDbEntity
  8
ASSI
100
AcDbLine
 62
7
  6
CONTINUOUS
 10
-10.9491010867
 20
1.1960432516
 11
-10.9474742789
 21
1.0946800748
  0
LINE
  5
3D6
100
AcDbEntity
  8
ASSI
100
AcDbLine
 62
7
  6
CONTINUOUS
 10
-10.9491010867
 20
6.1960432516
 11
-10.9474742789
 21
6.0946800748
  0
LINE
  5
3D7
100
AcDbEntity
  8
ASSI
100
AcDbLine
 62
7
  6
CONTINUOUS
 10
-10.9491010867
 20
11.1960432516
 11
-10.9474742789
 21
11.0946800748
  0
LWPOLYLINE
  5
3D8
100
AcDbEntity
  8
ASSI
100
AcDbPolyline
 62
250
  6
CONTINUOUS
 90
10
 70
0
 10
-10.6459190192
 20
0.7357507149
 10
-10.6471505549
 20
0.8199155765
 10
-10.6484443494
 20
0.8953097947
 10
-10.6497828725
 20
0.9615713764
 10
-10.6511670325
 20
1.0183402648
 10
-10.6525959211
 20
1.0652838999
 10
-10.6540492831
 20
1.1021293927
 10
-10.6555203668
 20
1.1286449494
 10
-10.6570159239
 20
1.1446457809
 10
-10.6585359545
 20
1.15
  0
LWPOLYLINE
  5
3D9
100
AcDbEntity
  8
ASSI
100
AcDbPolyline
 62
250
  6
CONTINUOUS
 90
10
 70
0
 10
-10.6459190192
 20
5.7357507149
 10
-10.6471505549
 20
5.8199155765
 10
-10.6484443494
 20
5.8953097947
 10
-10.6497828725
 20
5.9615713764
 10
-10.6511670325
 20
6.0183402648
 10
-10.6525959211
 20
6.0652838999
 10
-10.6540492831
 20
6.1021293927
 10
-10.6555203668
 20
6.1286449494
 10
-10.6570159239
 20
6.1446457809
 10
-10.6585359545
 20
6.15
  0
LWPOLYLINE
  5
3DA
100
AcDbEntity
  8
ASSI
100
AcDbPolyline
 62
250
  6
CONTINUOUS
 90
10
 70
0
 10
-10.6459190192
 20
10.7357507149
 10
-10.6471505549
 20
10.8199155765
 10
-10.6484443494
 20
10.8953097947
 10
-10.6497828725
 20
10.9615713764
 10
-10.6511670325
 20
11.0183402648
 10
-10.6525959211
 20
11.0652838999
 10
-10.6540492831
 20
11.1021293927
 10
-10.6555203668
 20
11.1286449494
 10
-10.6570159239
 20
11.1446457809
 10
-10.6585359545
 20
11.15
  0
LWPOLYLINE
  5
3DB
100
AcDbEntity
  8
ASSI
100
AcDbPolyline
 62
250
  6
CONTINUOUS
 90
10
 70
0
 10
-10.645919053
 20
15.7357531939
 10
-10.647150589
 20
15.8199177241
 10
-10.6484443829
 20
15.8953115874
 10
-10.6497829029
 20
15.9615727399
 10
-10.6511673737
 20
16.0183410949
 10
-10.6525965705
 20
16.0652842494
 10
-10.6540492869
 20
16.1021294744
 10
-10.6555184539
 20
16.128644946
 10
-10.6570111405
 20
16.14464577
 10
-10.6585273466
 20
16.15
  0
LINE
  5
3DC
100
AcDbEntity
  8
CURVE
100
AcDbLine
 62
250
  6
CONTINUOUS
 10
-11.1020965989
 20
15.1626580256
 11
-11.1010018535
 21
15.0962254819
  0
LINE
  5
3DD
100
AcDbEntity
  8
ASSI
100
AcDbLine
 62
7
  6
CONTINUOUS
 10
-10.948343973
 20
16.1515620594
 11
-10.9467829568
 21
16.0447384153
  0
LINE
  5
3DE
100
AcDbEntity
  8
CURVE
100
AcDbLine
 62
250
  6
CONTINUOUS
 10
-11.1035695678
 20
-5.0774254292
 11
-11.1028918796
 21
-5.1249061628
  0
LINE
  5
3DF
100
AcDbEntity
  8
ASSI
100
AcDbLine
 62
7
  6
CONTINUOUS
 10
-10.9474742789
 20
1.0946800748
 11
-10.9458695659
 21
0.9720278506
  0
LINE
  5
3E0
100
AcDbEntity
  8
ASSI
100
AcDbLine
 62
7
  6
CONTINUOUS
 10
-10.9474742789
 20
6.0946800748
 11
-10.9458695659
 21
5.9720278506
  0
LINE
  5
3E1
100
AcDbEntity
  8
ASSI
100
AcDbLine
 62
7
  6
CONTINUOUS
 10
-10.9474742789
 20
11.0946800748
 11
-10.9458695659
 21
10.9720278506
  0
LINE
  5
3E2
100
AcDbEntity
  8
CURVE
100
AcDbLine
 62
250
  6
CONTINUOUS
 10
-11.0783335602
 20
12.4359442096
 11
-11.0771709814
 21
12.3484270117
  0
LINE
  5
3E3
100
AcDbEntity
  8
CURVE
100
AcDbLine
 62
250
  6
CONTINUOUS
 10
-11.098329561
 20
15.1793707017
 11
-11.099639132
 21
15.2754466638
  0
LINE
  5
3E4
100
AcDbEntity
  8
CURVE
100
AcDbLine
 62
250
  6
CONTINUOUS
 10
-11.0975662572
 20
-4.7579238083
 11
-11.0985704244
 21
-4.685470439
  0
LINE
  5
3E5
100
AcDbEntity
  8
ASSI
100
AcDbLine
 62
7
  6
CONTINUOUS
 10
-10.9467829568
 20
16.0447384153
 11
-10.9451940405
 21
15.9129750843
  0
LINE
  5
3E6
100
AcDbEntity
  8
ASSI
100
AcDbLine
 62
250
  6
CONTINUOUS
 10
-10.6436445193
 20
0.5428954306
 11
-10.6459190192
 21
0.7357507149
  0
LINE
  5
3E7
100
AcDbEntity
  8
ASSI
100
AcDbLine
 62
250
  6
CONTINUOUS
 10
-10.6436445193
 20
5.5428954306
 11
-10.6459190192
 21
5.7357507149
  0
LINE
  5
3E8
100
AcDbEntity
  8
ASSI
100
AcDbLine
 62
250
  6
CONTINUOUS
 10
-10.6436445193
 20
10.5428954306
 11
-10.6459190192
 21
10.7357507149
  0
LINE
  5
3E9
100
AcDbEntity
  8
ASSI
100
AcDbLine
 62
250
  6
CONTINUOUS
 10
-10.6436445534
 20
15.5428988504
 11
-10.645919053
 21
15.7357531939
  0
LINE
  5
3EA
100
AcDbEntity
  8
CURVE
100
AcDbLine
 62
250
  6
CONTINUOUS
 10
-11.045224926
 20
8.614285779
 11
-11.0475934657
 21
8.8404762983
  0
LINE
  5
3EB
100
AcDbEntity
  8
CURVE
100
AcDbLine
 62
250
  6
CONTINUOUS
 10
-11.1010018535
 20
15.0962254819
 11
-11.1000532445
 21
15.0152179707
  0
LINE
  5
3EC
100
AcDbEntity
  8
CURVE
100
AcDbLine
 62
250
  6
CONTINUOUS
 10
-11.0743280431
 20
12.399765916
 11
-11.0758588263
 21
12.5316703851
  0
LINE
  5
3ED
100
AcDbEntity
  8
ASSI
100
AcDbLine
 62
7
  6
CONTINUOUS
 10
-10.9458695659
 20
0.9720278506
 11
-10.9443133873
 21
0.8281378977
  0
LINE
  5
3EE
100
AcDbEntity
  8
ASSI
100
AcDbLine
 62
7
  6
CONTINUOUS
 10
-10.9458695659
 20
5.9720278506
 11
-10.9443133873
 21
5.8281378977
  0
LINE
  5
3EF
100
AcDbEntity
  8
ASSI
100
AcDbLine
 62
7
  6
CONTINUOUS
 10
-10.9458695659
 20
10.9720278506
 11
-10.9443133873
 21
10.8281378977
  0
LINE
  5
3F0
100
AcDbEntity
  8
ASSI
100
AcDbLine
 62
7
  6
CONTINUOUS
 10
-10.9451940405
 20
15.9129750843
 11
-10.9436725851
 21
15.7600111579
  0
LINE
  5
3F1
100
AcDbEntity
  8
CURVE
100
AcDbLine
 62
250
  6
CONTINUOUS
 10
-11.0771709814
 20
12.3484270117
 11
-11.0762309044
 21
12.2521588517
  0
LINE
  5
3F2
100
AcDbEntity
  8
ASSI
100
AcDbLine
 62
250
  6
CONTINUOUS
 10
-10.6416645212
 20
0.3204393538
 11
-10.6436445193
 21
0.5428954306
  0
LINE
  5
3F3
100
AcDbEntity
  8
ASSI
100
AcDbLine
 62
250
  6
CONTINUOUS
 10
-10.6416645212
 20
5.3204393538
 11
-10.6436445193
 21
5.5428954306
  0
LINE
  5
3F4
100
AcDbEntity
  8
ASSI
100
AcDbLine
 62
250
  6
CONTINUOUS
 10
-10.6416645212
 20
10.3204393538
 11
-10.6436445193
 21
10.5428954306
  0
LINE
  5
3F5
100
AcDbEntity
  8
ASSI
100
AcDbLine
 62
250
  6
CONTINUOUS
 10
-10.6416645381
 20
15.3204412778
 11
-10.6436445534
 21
15.5428988504
  0
LINE
  5
3F6
100
AcDbEntity
  8
ASSI
100
AcDbLine
 62
7
  6
CONTINUOUS
 10
-10.9443133873
 20
0.8281378977
 11
-10.9426439115
 21
0.6378256367
  0
LINE
  5
3F7
100
AcDbEntity
  8
ASSI
100
AcDbLine
 62
7
  6
CONTINUOUS
 10
-10.9443133873
 20
5.8281378977
 11
-10.9426439115
 21
5.6378256367
  0
LINE
  5
3F8
100
AcDbEntity
  8
ASSI
100
AcDbLine
 62
7
  6
CONTINUOUS
 10
-10.9443133873
 20
10.8281378977
 11
-10.9426439115
 21
10.6378256367
  0
LINE
  5
3F9
100
AcDbEntity
  8
CURVE
100
AcDbLine
 62
250
  6
CONTINUOUS
 10
-11.1028918796
 20
-5.1249061628
 11
-11.1021833944
 21
-5.2010435365
  0
LINE
  5
3FA
100
AcDbEntity
  8
ASSI
100
AcDbLine
 62
7
  6
CONTINUOUS
 10
-10.9436725851
 20
15.7600111579
 11
-10.9420518613
 21
15.559488492
  0
LINE
  5
3FB
100
AcDbEntity
  8
CURVE
100
AcDbLine
 62
250
  6
CONTINUOUS
 10
-11.1000532445
 20
15.0152179707
 11
-11.0993318673
 21
14.9264759167
  0
LINE
  5
3FC
100
AcDbEntity
  8
CURVE
100
AcDbLine
 62
250
  6
CONTINUOUS
 10
-11.0970021131
 20
15.025338405
 11
-11.098329561
 21
15.1793707017
  0
LINE
  5
3FD
100
AcDbEntity
  8
CURVE
100
AcDbLine
 62
250
  6
CONTINUOUS
 10
-11.0973360782
 20
-4.7856463238
 11
-11.0975662572
 21
-4.7579238083
  0
LINE
  5
3FE
100
AcDbEntity
  8
ASSI
100
AcDbLine
 62
7
  6
CONTINUOUS
 10
-10.9426439115
 20
0.6378256367
 11
-10.94111911
 21
0.4206222486
  0
LINE
  5
3FF
100
AcDbEntity
  8
ASSI
100
AcDbLine
 62
7
  6
CONTINUOUS
 10
-10.9426439115
 20
5.6378256367
 11
-10.94111911
 21
5.4206222486
  0
LINE
  5
400
100
AcDbEntity
  8
ASSI
100
AcDbLine
 62
7
  6
CONTINUOUS
 10
-10.9426439115
 20
10.6378256367
 11
-10.94111911
 21
10.4206222486
  0
LINE
  5
401
100
AcDbEntity
  8
ASSI
100
AcDbLine
 62
250
  6
CONTINUOUS
 10
-10.640005827
 20
0.0725938599
 11
-10.6416645212
 21
0.3204393538
  0
LINE
  5
402
100
AcDbEntity
  8
ASSI
100
AcDbLine
 62
250
  6
CONTINUOUS
 10
-10.640005827
 20
5.0725938599
 11
-10.6416645212
 21
5.3204393538
  0
LINE
  5
403
100
AcDbEntity
  8
ASSI
100
AcDbLine
 62
250
  6
CONTINUOUS
 10
-10.640005827
 20
10.0725938599
 11
-10.6416645212
 21
10.3204393538
  0
LINE
  5
404
100
AcDbEntity
  8
ASSI
100
AcDbLine
 62
250
  6
CONTINUOUS
 10
-10.6400058155
 20
15.0725918442
 11
-10.6416645381
 21
15.3204412778
  0
LINE
  5
405
100
AcDbEntity
  8
CURVE
100
AcDbLine
 62
250
  6
CONTINUOUS
 10
-11.0762309044
 20
12.2521588517
 11
-11.0755167269
 21
12.1479688776
  0
LINE
  5
406
100
AcDbEntity
  8
ASSI
100
AcDbLine
 62
7
  6
CONTINUOUS
 10
-10.9420518613
 20
15.559488492
 11
-10.9405976234
 21
15.3325759824
  0
LINE
  5
407
100
AcDbEntity
  8
CURVE
100
AcDbLine
 62
250
  6
CONTINUOUS
 10
-11.0728111614
 20
12.1789248491
 11
-11.0743280431
 21
12.399765916
  0
LINE
  5
408
100
AcDbEntity
  8
ASSI
100
AcDbLine
 62
7
  6
CONTINUOUS
 10
-10.94111911
 20
0.4206222486
 11
-10.9397920586
 21
0.1780875577
  0
LINE
  5
409
100
AcDbEntity
  8
ASSI
100
AcDbLine
 62
7
  6
CONTINUOUS
 10
-10.94111911
 20
5.4206222486
 11
-10.9397920586
 21
5.1780875577
  0
LINE
  5
40A
100
AcDbEntity
  8
ASSI
100
AcDbLine
 62
7
  6
CONTINUOUS
 10
-10.94111911
 20
10.4206222486
 11
-10.9397920586
 21
10.1780875577
  0
LINE
  5
40B
100
AcDbEntity
  8
ASSI
100
AcDbLine
 62
7
  6
CONTINUOUS
 10
-10.9405976234
 20
15.3325759824
 11
-10.9393495853
 21
15.0811043249
  0
LINE
  5
40C
100
AcDbEntity
  8
ASSI
100
AcDbLine
 62
250
  6
CONTINUOUS
 10
-10.6387053736
 20
-0.1961757274
 11
-10.640005827
 21
0.0725938599
  0
LINE
  5
40D
100
AcDbEntity
  8
ASSI
100
AcDbLine
 62
250
  6
CONTINUOUS
 10
-10.6387053736
 20
4.8038242726
 11
-10.640005827
 21
5.0725938599
  0
LINE
  5
40E
100
AcDbEntity
  8
ASSI
100
AcDbLine
 62
250
  6
CONTINUOUS
 10
-10.6387053736
 20
9.8038242726
 11
-10.640005827
 21
10.0725938599
  0
LINE
  5
40F
100
AcDbEntity
  8
ASSI
100
AcDbLine
 62
250
  6
CONTINUOUS
 10
-10.638705365
 20
14.8038225125
 11
-10.6400058155
 21
15.0725918442
  0
LINE
  5
410
100
AcDbEntity
  8
CURVE
100
AcDbLine
 62
250
  6
CONTINUOUS
 10
-11.0993318673
 20
14.9264759167
 11
-11.0988189127
 21
14.8281161618
  0
LINE
  5
411
100
AcDbEntity
  8
CURVE
100
AcDbLine
 62
250
  6
CONTINUOUS
 10
-11.1021833944
 20
-5.2010435365
 11
-11.1016910498
 21
-5.2932634599
  0
LINE
  5
412
100
AcDbEntity
  8
ASSI
100
AcDbLine
 62
7
  6
CONTINUOUS
 10
-10.9397920586
 20
0.1780875577
 11
-10.9386931655
 21
-0.087424266
  0
LINE
  5
413
100
AcDbEntity
  8
ASSI
100
AcDbLine
 62
7
  6
CONTINUOUS
 10
-10.9397920586
 20
5.1780875577
 11
-10.9386931655
 21
4.912575734
  0
LINE
  5
414
100
AcDbEntity
  8
ASSI
100
AcDbLine
 62
7
  6
CONTINUOUS
 10
-10.9397920586
 20
10.1780875577
 11
-10.9386931655
 21
9.912575734
  0
LINE
  5
415
100
AcDbEntity
  8
CURVE
100
AcDbLine
 62
250
  6
CONTINUOUS
 10
-11.0972551675
 20
-4.80544429
 11
-11.0973360782
 21
-4.7856463238
  0
LINE
  5
416
100
AcDbEntity
  8
CURVE
100
AcDbLine
 62
250
  6
CONTINUOUS
 10
-11.0755167269
 20
12.1479688776
 11
-11.0749383976
 21
12.0049977246
  0
LINE
  5
417
100
AcDbEntity
  8
ASSI
100
AcDbLine
 62
7
  6
CONTINUOUS
 10
-10.9393495853
 20
15.0811043249
 11
-10.9382462277
 21
14.7722386076
  0
LINE
  5
418
100
AcDbEntity
  8
ASSI
100
AcDbLine
 62
250
  6
CONTINUOUS
 10
-10.6377894311
 20
-0.4807427344
 11
-10.6387053736
 21
-0.1961757274
  0
LINE
  5
419
100
AcDbEntity
  8
ASSI
100
AcDbLine
 62
250
  6
CONTINUOUS
 10
-10.6377894311
 20
4.5192572656
 11
-10.6387053736
 21
4.8038242726
  0
LINE
  5
41A
100
AcDbEntity
  8
ASSI
100
AcDbLine
 62
250
  6
CONTINUOUS
 10
-10.6377894311
 20
9.5192572656
 11
-10.6387053736
 21
9.8038242726
  0
LINE
  5
41B
100
AcDbEntity
  8
ASSI
100
AcDbLine
 62
250
  6
CONTINUOUS
 10
-10.6377894265
 20
14.5192542695
 11
-10.638705365
 21
14.8038225125
  0
LINE
  5
41C
100
AcDbEntity
  8
ASSI
100
AcDbLine
 62
7
  6
CONTINUOUS
 10
-10.9386931655
 20
-0.087424266
 11
-10.937866895
 21
-0.3726305109
  0
LINE
  5
41D
100
AcDbEntity
  8
ASSI
100
AcDbLine
 62
7
  6
CONTINUOUS
 10
-10.9386931655
 20
4.912575734
 11
-10.9377837508
 21
4.5905704465
  0
LINE
  5
41E
100
AcDbEntity
  8
ASSI
100
AcDbLine
 62
7
  6
CONTINUOUS
 10
-10.9386931655
 20
9.912575734
 11
-10.9377837508
 21
9.5905704465
  0
LINE
  5
41F
100
AcDbEntity
  8
CURVE
100
AcDbLine
 62
250
  6
CONTINUOUS
 10
-11.0958835115
 20
14.7443310237
 11
-11.0970021131
 21
15.025338405
  0
LINE
  5
420
100
AcDbEntity
  8
ASSI
100
AcDbLine
 62
7
  6
CONTINUOUS
 10
-10.9382462277
 20
14.7722386076
 11
-10.9375650526
 21
14.4790197502
  0
LINE
  5
421
100
AcDbEntity
  8
CURVE
100
AcDbLine
 62
250
  6
CONTINUOUS
 10
-11.0988189127
 20
14.8281161618
 11
-11.098488664
 21
14.6953241816
  0
LINE
  5
422
100
AcDbEntity
  8
ASSI
100
AcDbLine
 62
250
  6
CONTINUOUS
 10
-10.6372718589
 20
-0.7756430429
 11
-10.6377894311
 21
-0.4807427344
  0
LINE
  5
423
100
AcDbEntity
  8
ASSI
100
AcDbLine
 62
250
  6
CONTINUOUS
 10
-10.6372718589
 20
4.2243569571
 11
-10.6377894311
 21
4.5192572656
  0
LINE
  5
424
100
AcDbEntity
  8
ASSI
100
AcDbLine
 62
250
  6
CONTINUOUS
 10
-10.6372718589
 20
9.2243569571
 11
-10.6377894311
 21
9.5192572656
  0
LINE
  5
425
100
AcDbEntity
  8
ASSI
100
AcDbLine
 62
250
  6
CONTINUOUS
 10
-10.6372718538
 20
14.2243520019
 11
-10.6377894265
 21
14.5192542695
  0
LINE
  5
426
100
AcDbEntity
  8
CURVE
100
AcDbLine
 62
250
  6
CONTINUOUS
 10
-11.1153156878
 20
-5.7788012718
 11
-11.115732083
 21
-5.585665753
  0
LINE
  5
427
100
AcDbEntity
  8
CURVE
100
AcDbLine
 62
250
  6
CONTINUOUS
 10
-11.072010307
 20
11.8820881872
 11
-11.0728111614
 21
12.1789248491
  0
LINE
  5
428
100
AcDbEntity
  8
ASSI
100
AcDbLine
 62
7
  6
CONTINUOUS
 10
-10.937866895
 20
-0.3726305109
 11
-10.9373467547
 21
-0.6721043975
  0
LINE
  5
429
100
AcDbEntity
  8
CURVE
100
AcDbLine
 62
250
  6
CONTINUOUS
 10
-11.1016910498
 20
-5.2932634599
 11
-11.1014466655
 21
-5.4017019004
  0
LINE
  5
42A
100
AcDbEntity
  8
ASSI
100
AcDbLine
 62
7
  6
CONTINUOUS
 10
-10.9377837508
 20
4.5905704465
 11
-10.9373050929
 21
4.289823211
  0
LINE
  5
42B
100
AcDbEntity
  8
ASSI
100
AcDbLine
 62
7
  6
CONTINUOUS
 10
-10.9377837508
 20
9.5905704465
 11
-10.9373050929
 21
9.289823211
  0
LINE
  5
42C
100
AcDbEntity
  8
CURVE
100
AcDbLine
 62
250
  6
CONTINUOUS
 10
-11.0749383976
 20
12.0049977246
 11
-11.0746691367
 21
11.8295255031
  0
LINE
  5
42D
100
AcDbEntity
  8
ASSI
100
AcDbLine
 62
7
  6
CONTINUOUS
 10
-10.9375650526
 20
14.4790197502
 11
-10.9372092393
 21
14.1752029393
  0
LINE
  5
42E
100
AcDbEntity
  8
ASSI
100
AcDbLine
 62
7
  6
CONTINUOUS
 10
-10.9373467547
 20
-0.6721043975
 11
-10.9371528517
 21
-0.9782673428
  0
LINE
  5
42F
100
AcDbEntity
  8
ASSI
100
AcDbLine
 62
7
  6
CONTINUOUS
 10
-11.1778367071
 20
0.6661475531
 11
-11.1778367071
 21
-0.6661475531
  0
LINE
  5
430
100
AcDbEntity
  8
ASSI
100
AcDbLine
 62
250
  6
CONTINUOUS
 10
-11.1777453242
 20
0.6665860294
 11
-11.1778367071
 21
0.6661475531
  0
LINE
  5
431
100
AcDbEntity
  8
ASSI
100
AcDbLine
 62
250
  6
CONTINUOUS
 10
-11.1778367071
 20
-0.6661475531
 11
-11.1777453242
 21
-0.6685343766
  0
LINE
  5
432
100
AcDbEntity
  8
DRAFT
100
AcDbLine
 62
7
  6
CONTINUOUS
 10
-11.15
 20
21.8997711479
 11
-11.15
 21
13.2174550649
  0
LINE
  5
433
100
AcDbEntity
  8
DRAFT
100
AcDbLine
 62
7
  6
CONTINUOUS
 10
-11.15
 20
8.9825449351
 11
-11.15
 21
1.3174550649
  0
LINE
  5
434
100
AcDbEntity
  8
DRAFT
100
AcDbLine
 62
7
  6
CONTINUOUS
 10
-11.15
 20
-1.3174550649
 11
-11.15
 21
-8.9825449351
  0
LINE
  5
435
100
AcDbEntity
  8
DRAFT
100
AcDbLine
 62
7
  6
CONTINUOUS
 10
-11.15
 20
-13.2174550649
 11
-11.15
 21
-21.8997711479
  0
LINE
  5
436
100
AcDbEntity
  8
ASSI
100
AcDbLine
 62
7
  6
CONTINUOUS
 10
-11.15
 20
-16.119659166
 11
-11.15
 21
-1.25
  0
LINE
  5
437
100
AcDbEntity
  8
ASSI
100
AcDbLine
 62
7
  6
CONTINUOUS
 10
-11.15
 20
1.25
 11
-11.15
 21
16.119659166
  0
LINE
  5
438
100
AcDbEntity
  8
CURVE
100
AcDbLine
 62
250
  6
CONTINUOUS
 10
-11.1239386335
 20
-12.285664
 11
-11.1239386335
 21
-12.890935
  0
LINE
  5
439
100
AcDbEntity
  8
CURVE
100
AcDbLine
 62
250
  6
CONTINUOUS
 10
-11.1239355973
 20
-15.50026
 11
-11.1239355973
 21
-14.842748
  0
LINE
  5
43A
100
AcDbEntity
  8
CURVE
100
AcDbLine
 62
250
  6
CONTINUOUS
 10
-11.1239355973
 20
-13.72041
 11
-11.1239355973
 21
-13.115552
  0
LINE
  5
43B
100
AcDbEntity
  8
CURVE
100
AcDbLine
 62
250
  6
CONTINUOUS
 10
-11.1239355973
 20
-11.698005
 11
-11.1239355973
 21
-11.093234
  0
LINE
  5
43C
100
AcDbEntity
  8
CURVE
100
AcDbLine
 62
250
  6
CONTINUOUS
 10
-11.1239355973
 20
-9.889084
 11
-11.1239355973
 21
-9.290227
  0
LINE
  5
43D
100
AcDbEntity
  8
CURVE
100
AcDbLine
 62
250
  6
CONTINUOUS
 10
-11.1239355973
 20
-8.014517
 11
-11.1239355973
 21
-7.42899
  0
LINE
  5
43E
100
AcDbEntity
  8
CURVE
100
AcDbLine
 62
250
  6
CONTINUOUS
 10
-11.1238612424
 20
10.6804049345
 11
-11.1238612424
 21
10.859433236
  0
LINE
  5
43F
100
AcDbEntity
  8
CURVE
100
AcDbLine
 62
250
  6
CONTINUOUS
 10
-11.1238612424
 20
12.7230857555
 11
-11.1238612424
 21
12.9021123791
  0
LINE
  5
440
100
AcDbEntity
  8
CURVE
100
AcDbLine
 62
250
  6
CONTINUOUS
 10
-11.1238139027
 20
-0.775599
 11
-11.1238139027
 21
-0.365364
  0
LINE
  5
441
100
AcDbEntity
  8
CURVE
100
AcDbLine
 62
250
  6
CONTINUOUS
 10
-11.1238139027
 20
1.169952
 11
-11.1238139027
 21
1.535513
  0
LINE
  5
442
100
AcDbEntity
  8
CURVE
100
AcDbLine
 62
250
  6
CONTINUOUS
 10
-11.1238139027
 20
2.343691
 11
-11.1238139027
 21
4.346096
  0
LINE
  5
443
100
AcDbEntity
  8
CURVE
100
AcDbLine
 62
250
  6
CONTINUOUS
 10
-11.1238137631
 20
4.687221
 11
-11.1238137631
 21
5.105512
  0
LINE
  5
444
100
AcDbEntity
  8
CURVE
100
AcDbLine
 62
250
  6
CONTINUOUS
 10
-11.1238137631
 20
6.778946
 11
-11.1238137631
 21
7.181071
  0
LINE
  5
445
100
AcDbEntity
  8
CURVE
100
AcDbLine
 62
250
  6
CONTINUOUS
 10
-11.1238139027
 20
7.672513
 11
-11.1238139027
 21
9.67489
  0
LINE
  5
446
100
AcDbEntity
  8
CURVE
100
AcDbLine
 62
250
  6
CONTINUOUS
 10
-11.1181439909
 20
9.67489
 11
-11.1181439909
 21
8.058362
  0
LINE
  5
447
100
AcDbEntity
  8
CURVE
100
AcDbLine
 62
250
  6
CONTINUOUS
 10
-11.1181439909
 20
4.346096
 11
-11.1181439909
 21
2.729569
  0
LINE
  5
448
100
AcDbEntity
  8
CURVE
100
AcDbLine
 62
250
  6
CONTINUOUS
 10
-11.113820205
 20
-0.401901
 11
-11.113820205
 21
-0.410067
  0
LINE
  5
449
100
AcDbEntity
  8
CURVE
100
AcDbLine
 62
250
  6
CONTINUOUS
 10
-11.1020553578
 20
2.729569
 11
-11.1020553578
 21
4.236429
  0
LINE
  5
44A
100
AcDbEntity
  8
CURVE
100
AcDbLine
 62
250
  6
CONTINUOUS
 10
-11.1020553578
 20
8.058362
 11
-11.1020553578
 21
9.565307
  0
LINE
  5
44B
100
AcDbEntity
  8
CURVE
100
AcDbLine
 62
250
  6
CONTINUOUS
 10
-11.1014466655
 20
-5.4017019004
 11
-11.10142549
 21
-5.7788012718
  0
LINE
  5
44C
100
AcDbEntity
  8
CURVE
100
AcDbLine
 62
250
  6
CONTINUOUS
 10
-11.0984412916
 20
13.593700287
 11
-11.098488664
 21
14.6953241816
  0
LINE
  5
44D
100
AcDbEntity
  8
CURVE
100
AcDbLine
 62
250
  6
CONTINUOUS
 10
-11.0963849748
 20
9.565307
 11
-11.0963849748
 21
8.058362
  0
LINE
  5
44E
100
AcDbEntity
  8
CURVE
100
AcDbLine
 62
250
  6
CONTINUOUS
 10
-11.0963849748
 20
4.236429
 11
-11.0963849748
 21
2.729569
  0
LINE
  5
44F
100
AcDbEntity
  8
CURVE
100
AcDbLine
 62
250
  6
CONTINUOUS
 10
-11.0958835115
 20
14.7443310237
 11
-11.0957428229
 21
13.593700287
  0
LINE
  5
450
100
AcDbEntity
  8
CURVE
100
AcDbLine
 62
250
  6
CONTINUOUS
 10
-11.0912548535
 20
-8.0345
 11
-11.0912548535
 21
-7.454996
  0
LINE
  5
451
100
AcDbEntity
  8
CURVE
100
AcDbLine
 62
250
  6
CONTINUOUS
 10
-11.0834385877
 20
-7.334033
 11
-11.0834385877
 21
-8.158312
  0
LINE
  5
452
100
AcDbEntity
  8
CURVE
100
AcDbLine
 62
250
  6
CONTINUOUS
 10
-11.0827770154
 20
1.161843
 11
-11.0827770154
 21
1.169952
  0
LINE
  5
453
100
AcDbEntity
  8
CURVE
100
AcDbLine
 62
250
  6
CONTINUOUS
 10
-11.0799421468
 20
5.934146
 11
-11.0799421468
 21
5.942284
  0
LINE
  5
454
100
AcDbEntity
  8
CURVE
100
AcDbLine
 62
250
  6
CONTINUOUS
 10
-11.0788792128
 20
2.729569
 11
-11.0788792128
 21
4.358275
  0
LINE
  5
455
100
AcDbEntity
  8
CURVE
100
AcDbLine
 62
250
  6
CONTINUOUS
 10
-11.0788792128
 20
8.058362
 11
-11.0788792128
 21
9.687123
  0
LINE
  5
456
100
AcDbEntity
  8
CURVE
100
AcDbLine
 62
250
  6
CONTINUOUS
 10
-11.0733373821
 20
-6.539304
 11
-11.0733373821
 21
-7.177235
  0
LINE
  5
457
100
AcDbEntity
  8
CURVE
100
AcDbLine
 62
250
  6
CONTINUOUS
 10
-11.0733373821
 20
-8.325329
 11
-11.0733373821
 21
-8.924033
  0
LINE
  5
458
100
AcDbEntity
  8
CURVE
100
AcDbLine
 62
250
  6
CONTINUOUS
 10
-11.0733373821
 20
-9.019077
 11
-11.0733373821
 21
-9.611193
  0
LINE
  5
459
100
AcDbEntity
  8
CURVE
100
AcDbLine
 62
250
  6
CONTINUOUS
 10
-11.0733373821
 20
-10.455216
 11
-11.0733373821
 21
-10.540105
  0
LINE
  5
45A
100
AcDbEntity
  8
CURVE
100
AcDbLine
 62
250
  6
CONTINUOUS
 10
-11.0733373821
 20
-11.380779
 11
-11.0733373821
 21
-11.959827
  0
LINE
  5
45B
100
AcDbEntity
  8
CURVE
100
AcDbLine
 62
250
  6
CONTINUOUS
 10
-11.0733373821
 20
-14.047617
 11
-11.0733373821
 21
-14.581013
  0
LINE
  5
45C
100
AcDbEntity
  8
CURVE
100
AcDbLine
 62
250
  6
CONTINUOUS
 10
-11.0733373821
 20
-12.890935
 11
-11.0733373821
 21
-12.285664
  0
LINE
  5
45D
100
AcDbEntity
  8
CURVE
100
AcDbLine
 62
250
  6
CONTINUOUS
 10
-11.073337376
 20
-6.3615673444
 11
-11.073337376
 21
-5.7587313832
  0
LINE
  5
45E
100
AcDbEntity
  8
CURVE
100
AcDbLine
 62
250
  6
CONTINUOUS
 10
-11.073337376
 20
-4.8318417383
 11
-11.073337376
 21
-4.2496410148
  0
LINE
  5
45F
100
AcDbEntity
  8
CURVE
100
AcDbLine
 62
250
  6
CONTINUOUS
 10
-11.0732093358
 20
9.687123
 11
-11.0732093358
 21
7.672513
  0
LINE
  5
460
100
AcDbEntity
  8
CURVE
100
AcDbLine
 62
250
  6
CONTINUOUS
 10
-11.0732093358
 20
4.358275
 11
-11.0732093358
 21
2.343691
  0
LINE
  5
461
100
AcDbEntity
  8
CURVE
100
AcDbLine
 62
250
  6
CONTINUOUS
 10
-11.0732093358
 20
1.535513
 11
-11.0732093358
 21
1.113099
  0
LINE
  5
462
100
AcDbEntity
  8
CURVE
100
AcDbLine
 62
250
  6
CONTINUOUS
 10
-11.0732093358
 20
-0.410067
 11
-11.0732093358
 21
-0.775599
  0
LINE
  5
463
100
AcDbEntity
  8
CURVE
100
AcDbLine
 62
250
  6
CONTINUOUS
 10
-11.0732091788
 20
6.149381
 11
-11.0732091788
 21
5.710747
  0
LINE
  5
464
100
AcDbEntity
  8
CURVE
100
AcDbLine
 62
250
  6
CONTINUOUS
 10
-11.0731639504
 20
13.593700287
 11
-11.0731639504
 21
13.414561239
  0
LINE
  5
465
100
AcDbEntity
  8
CURVE
100
AcDbLine
 62
250
  6
CONTINUOUS
 10
-11.0594361704
 20
13.771428442
 11
-11.0594361704
 21
13.364285326
  0
LINE
  5
466
100
AcDbEntity
  8
CURVE
100
AcDbLine
 62
250
  6
CONTINUOUS
 10
-11.0594361704
 20
8.614285779
 11
-11.0594361704
 21
8.071428442
  0
LINE
  5
467
100
AcDbEntity
  8
CURVE
100
AcDbLine
 62
250
  6
CONTINUOUS
 10
-11.0594361704
 20
6.1714286685
 11
-11.0594361704
 21
5.7642856658
  0
LINE
  5
468
100
AcDbEntity
  8
CURVE
100
AcDbLine
 62
250
  6
CONTINUOUS
 10
-11.0594361704
 20
4.4071428612
 11
-11.0594361704
 21
4.5428571671
  0
LINE
  5
469
100
AcDbEntity
  8
CURVE
100
AcDbLine
 62
250
  6
CONTINUOUS
 10
-11.0594361704
 20
14.992856884
 11
-11.0594361704
 21
15.128571558
  0
LINE
  5
46A
100
AcDbEntity
  8
CURVE
100
AcDbLine
 62
250
  6
CONTINUOUS
 10
-11.0489647265
 20
-15.5
 11
-11.0489647265
 21
-14.9428571373
  0
LINE
  5
46B
100
AcDbEntity
  8
CURVE
100
AcDbLine
 62
250
  6
CONTINUOUS
 10
-11.0489647265
 20
-11.2285712957
 11
-11.0489647265
 21
-10.8571429014
  0
LINE
  5
46C
100
AcDbEntity
  8
CURVE
100
AcDbLine
 62
250
  6
CONTINUOUS
 10
-11.0489647265
 20
-10.1452380657
 11
-11.0489647265
 21
-9.86666646
  0
LINE
  5
46D
100
AcDbEntity
  8
CURVE
100
AcDbLine
 62
250
  6
CONTINUOUS
 10
-11.0489647265
 20
-8.2880954742
 11
-11.0489647265
 21
-7.5452380657
  0
LINE
  5
46E
100
AcDbEntity
  8
CURVE
100
AcDbLine
 62
250
  6
CONTINUOUS
 10
-11.0489647265
 20
-7.1738096714
 11
-11.0489647265
 21
-6.7095238686
  0
LINE
  5
46F
100
AcDbEntity
  8
CURVE
100
AcDbLine
 62
250
  6
CONTINUOUS
 10
-11.0489647265
 20
-5.96666646
 11
-11.0489647265
 21
-5.6880954742
  0
LINE
  5
470
100
AcDbEntity
  8
CURVE
100
AcDbLine
 62
250
  6
CONTINUOUS
 10
-11.045224926
 20
8.614285779
 11
-11.045224926
 21
8.342857337
  0
LINE
  5
471
100
AcDbEntity
  8
CURVE
100
AcDbLine
 62
250
  6
CONTINUOUS
 10
-11.0404878435
 20
5.7642856658
 11
-11.0404878435
 21
6.3523810387
  0
LINE
  5
472
100
AcDbEntity
  8
CURVE
100
AcDbLine
 62
250
  6
CONTINUOUS
 10
-11.0392412435
 20
-14.9428571373
 11
-11.0392412435
 21
-15.5
  0
LINE
  5
473
100
AcDbEntity
  8
CURVE
100
AcDbLine
 62
250
  6
CONTINUOUS
 10
-11.0360000818
 20
-6.7095238686
 11
-11.0360000818
 21
-7.1738096714
  0
LINE
  5
474
100
AcDbEntity
  8
CURVE
100
AcDbLine
 62
250
  6
CONTINUOUS
 10
-11.0333822208
 20
10.378571558
 11
-11.0333822208
 21
9.428571558
  0
LINE
  5
475
100
AcDbEntity
  8
CURVE
100
AcDbLine
 62
250
  6
CONTINUOUS
 10
-11.0327589208
 20
-14.4476190329
 11
-11.0327589208
 21
-13.9523809671
  0
LINE
  5
476
100
AcDbEntity
  8
CURVE
100
AcDbLine
 62
250
  6
CONTINUOUS
 10
-11.0318031937
 20
11.2380952597
 11
-11.0318031937
 21
11.328571558
  0
LINE
  5
477
100
AcDbEntity
  8
CURVE
100
AcDbLine
 62
250
  6
CONTINUOUS
 10
-11.0278556254
 20
11.328571558
 11
-11.0278556254
 21
11.2380952597
  0
LINE
  5
478
100
AcDbEntity
  8
CURVE
100
AcDbLine
 62
250
  6
CONTINUOUS
 10
-11.0262765981
 20
15.128571558
 11
-11.0262765981
 21
14.992856884
  0
LINE
  5
479
100
AcDbEntity
  8
CURVE
100
AcDbLine
 62
250
  6
CONTINUOUS
 10
-11.0262765981
 20
14.042856884
 11
-11.0262765981
 21
13.092856884
  0
LINE
  5
47A
100
AcDbEntity
  8
CURVE
100
AcDbLine
 62
250
  6
CONTINUOUS
 10
-11.0262765981
 20
4.5428571671
 11
-11.0262765981
 21
4.4071428612
  0
LINE
  5
47B
100
AcDbEntity
  8
CURVE
100
AcDbLine
 62
250
  6
CONTINUOUS
 10
-11.0262765981
 20
-5.6880954742
 11
-11.0262765981
 21
-5.96666646
  0
LINE
  5
47C
100
AcDbEntity
  8
CURVE
100
AcDbLine
 62
250
  6
CONTINUOUS
 10
-11.0262765981
 20
-9.86666646
 11
-11.0262765981
 21
-10.1452380657
  0
LINE
  5
47D
100
AcDbEntity
  8
CURVE
100
AcDbLine
 62
250
  6
CONTINUOUS
 10
-11.0262765981
 20
-10.8571429014
 11
-11.0262765981
 21
-11.2285712957
  0
LINE
  5
47E
100
AcDbEntity
  8
CURVE
100
AcDbLine
 62
250
  6
CONTINUOUS
 10
-11.0262765981
 20
-5.1309522629
 11
-11.0262765981
 21
-4.6666670799
  0
LINE
  5
47F
100
AcDbEntity
  8
CURVE
100
AcDbLine
 62
250
  6
CONTINUOUS
 10
-11.0262765981
 20
8.071428442
 11
-11.0262765981
 21
8.75
  0
LINE
  5
480
100
AcDbEntity
  8
ASSI
100
AcDbLine
 62
7
  6
CONTINUOUS
 10
-11.0130903017
 20
11.55
 11
-11.0130903017
 21
11.45
  0
LINE
  5
481
100
AcDbEntity
  8
ASSI
100
AcDbLine
 62
7
  6
CONTINUOUS
 10
-11.0130903017
 20
6.55
 11
-11.0130903017
 21
6.45
  0
LINE
  5
482
100
AcDbEntity
  8
ASSI
100
AcDbLine
 62
7
  6
CONTINUOUS
 10
-11.0130903017
 20
1.55
 11
-11.0130903017
 21
1.45
  0
LINE
  5
483
100
AcDbEntity
  8
ASSI
100
AcDbLine
 62
7
  6
CONTINUOUS
 10
-11.0130903017
 20
-3.45
 11
-11.0130903017
 21
-16.1617521373
  0
LINE
  5
484
100
AcDbEntity
  8
ASSI
100
AcDbLine
 62
7
  6
CONTINUOUS
 10
-11.0103594806
 20
-3.4120826638
 11
-11.0103594806
 21
1.4120826638
  0
LINE
  5
485
100
AcDbEntity
  8
ASSI
100
AcDbLine
 62
7
  6
CONTINUOUS
 10
-11.0103594806
 20
1.5879173362
 11
-11.0103594806
 21
6.4120826638
  0
LINE
  5
486
100
AcDbEntity
  8
ASSI
100
AcDbLine
 62
7
  6
CONTINUOUS
 10
-11.0103594806
 20
6.5879173362
 11
-11.0103594806
 21
11.4120826638
  0
LINE
  5
487
100
AcDbEntity
  8
ASSI
100
AcDbLine
 62
7
  6
CONTINUOUS
 10
-11.0103594806
 20
11.5879173362
 11
-11.0103594806
 21
16.0710745702
  0
LINE
  5
488
100
AcDbEntity
  8
ASSI
100
AcDbLine
 62
7
  6
CONTINUOUS
 10
-11.0
 20
16.1850292972
 11
-11.0
 21
11.636772105
  0
LINE
  5
489
100
AcDbEntity
  8
ASSI
100
AcDbLine
 62
7
  6
CONTINUOUS
 10
-11.0
 20
11.363227895
 11
-11.0
 21
6.636772105
  0
LINE
  5
48A
100
AcDbEntity
  8
ASSI
100
AcDbLine
 62
7
  6
CONTINUOUS
 10
-11.0
 20
6.363227895
 11
-11.0
 21
1.636772105
  0
LINE
  5
48B
100
AcDbEntity
  8
ASSI
100
AcDbLine
 62
7
  6
CONTINUOUS
 10
-11.0
 20
1.363227895
 11
-11.0
 21
-3.363227895
  0
LINE
  5
48C
100
AcDbEntity
  8
ASSI
100
AcDbLine
 62
7
  6
CONTINUOUS
 10
-10.9373050929
 20
4.289823211
 11
-10.9371523524
 21
3.9833963177
  0
LINE
  5
48D
100
AcDbEntity
  8
ASSI
100
AcDbLine
 62
7
  6
CONTINUOUS
 10
-10.9373050929
 20
9.289823211
 11
-10.9371523524
 21
8.9833963177
  0
LINE
  5
48E
100
AcDbEntity
  8
ASSI
100
AcDbLine
 62
250
  6
CONTINUOUS
 10
-10.6371692127
 20
13.9248059537
 11
-10.6372718538
 21
14.2243520019
  0
LINE
  5
48F
100
AcDbEntity
  8
ASSI
100
AcDbLine
 62
250
  6
CONTINUOUS
 10
-10.6371692198
 20
8.9248019577
 11
-10.6372718589
 21
9.2243569571
  0
LINE
  5
490
100
AcDbEntity
  8
ASSI
100
AcDbLine
 62
250
  6
CONTINUOUS
 10
-10.6371692198
 20
3.9248019577
 11
-10.6372718589
 21
4.2243569571
  0
LINE
  5
491
100
AcDbEntity
  8
ASSI
100
AcDbLine
 62
250
  6
CONTINUOUS
 10
-10.6371692198
 20
-1.0751980423
 11
-10.6372718589
 21
-0.7756430429
  0
LINE
  5
492
100
AcDbEntity
  8
ASSI
100
AcDbLine
 62
7
  6
CONTINUOUS
 10
-10.6
 20
-17.023598877
 11
-10.6
 21
-17.2
  0
LINE
  5
493
100
AcDbEntity
  8
CURVE
100
AcDbLine
 62
250
  6
CONTINUOUS
 10
-11.1245194193
 20
-5.5040094671
 11
-11.1233444407
 21
-6.3615673444
  0
LINE
  5
494
100
AcDbEntity
  8
ASSI
100
AcDbLine
 62
7
  6
CONTINUOUS
 10
-10.9372092393
 20
14.1752029393
 11
-10.937183705
 21
13.8687261959
  0
LINE
  5
495
100
AcDbEntity
  8
CURVE
100
AcDbLine
 62
250
  6
CONTINUOUS
 10
-11.115732083
 20
-5.585665753
 11
-11.1157665007
 21
-5.4125208421
  0
LINE
  5
496
100
AcDbEntity
  8
ASSI
100
AcDbLine
 62
7
  6
CONTINUOUS
 10
-10.9371528517
 20
-0.9782673428
 11
-10.9372984282
 21
-1.2830286641
  0
LINE
  5
497
100
AcDbEntity
  8
CURVE
100
AcDbLine
 62
250
  6
CONTINUOUS
 10
-11.0746691367
 20
11.8295255031
 11
-11.0747208849
 21
11.6701944798
  0
LINE
  5
498
100
AcDbEntity
  8
ASSI
100
AcDbLine
 62
7
  6
CONTINUOUS
 10
-10.9371523524
 20
8.9833963177
 11
-10.9373841085
 21
8.6419488626
  0
LINE
  5
499
100
AcDbEntity
  8
ASSI
100
AcDbLine
 62
7
  6
CONTINUOUS
 10
-10.9371523524
 20
3.9833963177
 11
-10.9373841085
 21
3.6419488626
  0
LINE
  5
49A
100
AcDbEntity
  8
ASSI
100
AcDbLine
 62
250
  6
CONTINUOUS
 10
-10.6374799234
 20
13.6268493254
 11
-10.6371692127
 21
13.9248059537
  0
LINE
  5
49B
100
AcDbEntity
  8
ASSI
100
AcDbLine
 62
250
  6
CONTINUOUS
 10
-10.6374799304
 20
8.6268428474
 11
-10.6371692198
 21
8.9248019577
  0
LINE
  5
49C
100
AcDbEntity
  8
ASSI
100
AcDbLine
 62
250
  6
CONTINUOUS
 10
-10.6374799304
 20
3.6268428474
 11
-10.6371692198
 21
3.9248019577
  0
LINE
  5
49D
100
AcDbEntity
  8
ASSI
100
AcDbLine
 62
250
  6
CONTINUOUS
 10
-10.6374799304
 20
-1.3731571526
 11
-10.6371692198
 21
-1.0751980423
  0
LINE
  5
49E
100
AcDbEntity
  8
ASSI
100
AcDbLine
 62
7
  6
CONTINUOUS
 10
-10.937183705
 20
13.8687261959
 11
-10.9374887939
 21
13.5676749736
  0
LINE
  5
49F
100
AcDbEntity
  8
CURVE
100
AcDbLine
 62
250
  6
CONTINUOUS
 10
-11.1211626272
 20
13.593700287
 11
-11.1210162783
 21
14.7736967779
  0
LINE
  5
4A0
100
AcDbEntity
  8
ASSI
100
AcDbLine
 62
7
  6
CONTINUOUS
 10
-10.9372984282
 20
-1.2830286641
 11
-10.9377571462
 21
-1.5784318513
  0
LINE
  5
4A1
100
AcDbEntity
  8
ASSI
100
AcDbLine
 62
7
  6
CONTINUOUS
 10
-10.9373841085
 20
8.6419488626
 11
-10.9379199485
 21
8.3500445158
  0
LINE
  5
4A2
100
AcDbEntity
  8
ASSI
100
AcDbLine
 62
7
  6
CONTINUOUS
 10
-10.9373841085
 20
3.6419488626
 11
-10.9379199485
 21
3.3500445158
  0
LINE
  5
4A3
100
AcDbEntity
  8
CURVE
100
AcDbLine
 62
250
  6
CONTINUOUS
 10
-11.0723097158
 20
11.5112229348
 11
-11.072010307
 21
11.8820881872
  0
LINE
  5
4A4
100
AcDbEntity
  8
ASSI
100
AcDbLine
 62
7
  6
CONTINUOUS
 10
-10.9374887939
 20
13.5676749736
 11
-10.9381966638
 21
13.2449814187
  0
LINE
  5
4A5
100
AcDbEntity
  8
ASSI
100
AcDbLine
 62
250
  6
CONTINUOUS
 10
-10.6381991051
 20
13.3363843803
 11
-10.6374799234
 21
13.6268493254
  0
LINE
  5
4A6
100
AcDbEntity
  8
ASSI
100
AcDbLine
 62
250
  6
CONTINUOUS
 10
-10.63819911
 20
8.3363828404
 11
-10.6374799304
 21
8.6268428474
  0
LINE
  5
4A7
100
AcDbEntity
  8
ASSI
100
AcDbLine
 62
250
  6
CONTINUOUS
 10
-10.63819911
 20
3.3363828404
 11
-10.6374799304
 21
3.6268428474
  0
LINE
  5
4A8
100
AcDbEntity
  8
ASSI
100
AcDbLine
 62
250
  6
CONTINUOUS
 10
-10.63819911
 20
-1.6636171596
 11
-10.6374799304
 21
-1.3731571526
  0
LINE
  5
4A9
100
AcDbEntity
  8
ASSI
100
AcDbLine
 62
7
  6
CONTINUOUS
 10
-10.9377571462
 20
-1.5784318513
 11
-10.9385076691
 21
-1.8572749035
  0
LINE
  5
4AA
100
AcDbEntity
  8
CURVE
100
AcDbLine
 62
250
  6
CONTINUOUS
 10
-11.0931387242
 20
-5.7587313832
 11
-11.0930066974
 21
-5.3599882891
  0
LINE
  5
4AB
100
AcDbEntity
  8
ASSI
100
AcDbLine
 62
7
  6
CONTINUOUS
 10
-10.9379199485
 20
8.3500445158
 11
-10.9387329867
 21
8.0762660157
  0
LINE
  5
4AC
100
AcDbEntity
  8
CURVE
100
AcDbLine
 62
250
  6
CONTINUOUS
 10
-11.0747208849
 20
11.6701944798
 11
-11.0751210412
 21
11.5132817107
  0
LINE
  5
4AD
100
AcDbEntity
  8
CURVE
100
AcDbLine
 62
250
  6
CONTINUOUS
 10
-11.1157665007
 20
-5.4125208421
 11
-11.1154823688
 21
-5.2604130948
  0
LINE
  5
4AE
100
AcDbEntity
  8
CURVE
100
AcDbLine
 62
250
  6
CONTINUOUS
 10
-11.1233294532
 20
14.9299197028
 11
-11.123861096
 21
13.414561239
  0
LINE
  5
4AF
100
AcDbEntity
  8
ASSI
100
AcDbLine
 62
7
  6
CONTINUOUS
 10
-10.9381966638
 20
13.2449814187
 11
-10.9390986693
 21
12.9791905805
  0
LINE
  5
4B0
100
AcDbEntity
  8
ASSI
100
AcDbLine
 62
7
  6
CONTINUOUS
 10
-10.9379199485
 20
3.3500445158
 11
-10.9394972546
 21
2.885197443
  0
LINE
  5
4B1
100
AcDbEntity
  8
ASSI
100
AcDbLine
 62
7
  6
CONTINUOUS
 10
-10.9385076691
 20
-1.8572749035
 11
-10.9394972546
 21
-2.114802557
  0
LINE
  5
4B2
100
AcDbEntity
  8
CURVE
100
AcDbLine
 62
250
  6
CONTINUOUS
 10
-11.1210162783
 20
14.7736967779
 11
-11.1206456025
 21
14.8792212724
  0
LINE
  5
4B3
100
AcDbEntity
  8
CURVE
100
AcDbLine
 62
250
  6
CONTINUOUS
 10
-11.1233495898
 20
-4.9656445225
 11
-11.1245194193
 21
-5.5040094671
  0
LINE
  5
4B4
100
AcDbEntity
  8
ASSI
100
AcDbLine
 62
250
  6
CONTINUOUS
 10
-10.6393131781
 20
13.0590633098
 11
-10.6381991051
 21
13.3363843803
  0
LINE
  5
4B5
100
AcDbEntity
  8
ASSI
100
AcDbLine
 62
250
  6
CONTINUOUS
 10
-10.6393131867
 20
8.0590618699
 11
-10.63819911
 21
8.3363828404
  0
LINE
  5
4B6
100
AcDbEntity
  8
ASSI
100
AcDbLine
 62
250
  6
CONTINUOUS
 10
-10.6393131867
 20
3.0590618699
 11
-10.63819911
 21
3.3363828404
  0
LINE
  5
4B7
100
AcDbEntity
  8
ASSI
100
AcDbLine
 62
250
  6
CONTINUOUS
 10
-10.6393131867
 20
-1.9409381301
 11
-10.63819911
 21
-1.6636171596
  0
LINE
  5
4B8
100
AcDbEntity
  8
ASSI
100
AcDbLine
 62
7
  6
CONTINUOUS
 10
-10.9387329867
 20
8.0762660157
 11
-10.939779782
 21
7.8243333751
  0
LINE
  5
4B9
100
AcDbEntity
  8
ASSI
100
AcDbLine
 62
7
  6
CONTINUOUS
 10
-10.9390986693
 20
12.9791905805
 11
-10.9402257178
 21
12.7357653139
  0
LINE
  5
4BA
100
AcDbEntity
  8
ASSI
100
AcDbLine
 62
7
  6
CONTINUOUS
 10
-10.9394972546
 20
2.885197443
 11
-10.9406952192
 21
2.6504110412
  0
LINE
  5
4BB
100
AcDbEntity
  8
ASSI
100
AcDbLine
 62
7
  6
CONTINUOUS
 10
-10.9394972546
 20
-2.114802557
 11
-10.9406952192
 21
-2.3495889588
  0
LINE
  5
4BC
100
AcDbEntity
  8
CURVE
100
AcDbLine
 62
250
  6
CONTINUOUS
 10
-11.0751210412
 20
11.5132817107
 11
-11.0756818247
 21
11.4024703518
  0
LINE
  5
4BD
100
AcDbEntity
  8
ASSI
100
AcDbLine
 62
7
  6
CONTINUOUS
 10
-10.939779782
 20
7.8243333751
 11
-10.9410211867
 21
7.5953565996
  0
LINE
  5
4BE
100
AcDbEntity
  8
ASSI
100
AcDbLine
 62
250
  6
CONTINUOUS
 10
-10.6407934317
 20
12.8001533238
 11
-10.6393131781
 21
13.0590633098
  0
LINE
  5
4BF
100
AcDbEntity
  8
ASSI
100
AcDbLine
 62
250
  6
CONTINUOUS
 10
-10.640793427
 20
7.8001537949
 11
-10.6393131867
 21
8.0590618699
  0
LINE
  5
4C0
100
AcDbEntity
  8
ASSI
100
AcDbLine
 62
250
  6
CONTINUOUS
 10
-10.640793427
 20
2.8001537949
 11
-10.6393131867
 21
3.0590618699
  0
LINE
  5
4C1
100
AcDbEntity
  8
ASSI
100
AcDbLine
 62
250
  6
CONTINUOUS
 10
-10.640793427
 20
-2.1998462051
 11
-10.6393131867
 21
-1.9409381301
  0
LINE
  5
4C2
100
AcDbEntity
  8
ASSI
100
AcDbLine
 62
7
  6
CONTINUOUS
 10
-10.9402257178
 20
12.7357653139
 11
-10.9415299655
 21
12.5155490976
  0
LINE
  5
4C3
100
AcDbEntity
  8
ASSI
100
AcDbLine
 62
7
  6
CONTINUOUS
 10
-10.9406952192
 20
2.6504110412
 11
-10.9420621687
 21
2.439001379
  0
LINE
  5
4C4
100
AcDbEntity
  8
ASSI
100
AcDbLine
 62
7
  6
CONTINUOUS
 10
-10.9406952192
 20
-2.3495889588
 11
-10.9420621687
 21
-2.560998621
  0
LINE
  5
4C5
100
AcDbEntity
  8
CURVE
100
AcDbLine
 62
250
  6
CONTINUOUS
 10
-11.0736627676
 20
11.2454920761
 11
-11.0723097158
 21
11.5112229348
  0
LINE
  5
4C6
100
AcDbEntity
  8
ASSI
100
AcDbLine
 62
7
  6
CONTINUOUS
 10
-10.9410211867
 20
7.5953565996
 11
-10.9424286138
 21
7.3898247794
  0
LINE
  5
4C7
100
AcDbEntity
  8
CURVE
100
AcDbLine
 62
250
  6
CONTINUOUS
 10
-11.1154823688
 20
-5.2604130948
 11
-11.1149733737
 21
-5.1744750961
  0
LINE
  5
4C8
100
AcDbEntity
  8
CURVE
100
AcDbLine
 62
250
  6
CONTINUOUS
 10
-11.0930066974
 20
-5.3599882891
 11
-11.0925900028
 21
-5.2891910409
  0
LINE
  5
4C9
100
AcDbEntity
  8
CURVE
100
AcDbLine
 62
250
  6
CONTINUOUS
 10
-11.1206456025
 20
14.8792212724
 11
-11.1199295594
 21
14.9880550221
  0
LINE
  5
4CA
100
AcDbEntity
  8
ASSI
100
AcDbLine
 62
7
  6
CONTINUOUS
 10
-10.9415299655
 20
12.5155490976
 11
-10.9429932351
 21
12.318836986
  0
LINE
  5
4CB
100
AcDbEntity
  8
ASSI
100
AcDbLine
 62
250
  6
CONTINUOUS
 10
-10.6426188429
 20
12.5645133228
 11
-10.6407934317
 21
12.8001533238
  0
LINE
  5
4CC
100
AcDbEntity
  8
ASSI
100
AcDbLine
 62
250
  6
CONTINUOUS
 10
-10.6426188118
 20
7.5645168339
 11
-10.640793427
 21
7.8001537949
  0
LINE
  5
4CD
100
AcDbEntity
  8
ASSI
100
AcDbLine
 62
250
  6
CONTINUOUS
 10
-10.6426188118
 20
2.5645168339
 11
-10.640793427
 21
2.8001537949
  0
LINE
  5
4CE
100
AcDbEntity
  8
ASSI
100
AcDbLine
 62
250
  6
CONTINUOUS
 10
-10.6426188118
 20
-2.4354831661
 11
-10.640793427
 21
-2.1998462051
  0
LINE
  5
4CF
100
AcDbEntity
  8
CURVE
100
AcDbLine
 62
250
  6
CONTINUOUS
 10
-11.1221576882
 20
15.1172643541
 11
-11.1233294532
 21
14.9299197028
  0
LINE
  5
4D0
100
AcDbEntity
  8
CURVE
100
AcDbLine
 62
250
  6
CONTINUOUS
 10
-11.1223396048
 20
-4.8058835713
 11
-11.1233495898
 21
-4.9656445225
  0
LINE
  5
4D1
100
AcDbEntity
  8
CURVE
100
AcDbLine
 62
250
  6
CONTINUOUS
 10
-11.0756818247
 20
11.4024703518
 11
-11.0764200165
 21
11.3075876694
  0
LINE
  5
4D2
100
AcDbEntity
  8
ASSI
100
AcDbLine
 62
7
  6
CONTINUOUS
 10
-10.9420621687
 20
2.439001379
 11
-10.9435734387
 21
2.2511243149
  0
LINE
  5
4D3
100
AcDbEntity
  8
ASSI
100
AcDbLine
 62
7
  6
CONTINUOUS
 10
-10.9420621687
 20
-2.560998621
 11
-10.9435734387
 21
-2.7488756851
  0
LINE
  5
4D4
100
AcDbEntity
  8
ASSI
100
AcDbLine
 62
7
  6
CONTINUOUS
 10
-10.9424286138
 20
7.3898247794
 11
-10.9439687821
 21
7.2078308046
  0
LINE
  5
4D5
100
AcDbEntity
  8
ASSI
100
AcDbLine
 62
7
  6
CONTINUOUS
 10
-10.9429932351
 20
12.318836986
 11
-10.9445749929
 21
12.1456478376
  0
LINE
  5
4D6
100
AcDbEntity
  8
ASSI
100
AcDbLine
 62
7
  6
CONTINUOUS
 10
-10.9435734387
 20
2.2511243149
 11
-10.9451970244
 21
2.0867043261
  0
LINE
  5
4D7
100
AcDbEntity
  8
ASSI
100
AcDbLine
 62
7
  6
CONTINUOUS
 10
-10.9435734387
 20
-2.7488756851
 11
-10.9451970244
 21
-2.9132956739
  0
LINE
  5
4D8
100
AcDbEntity
  8
CURVE
100
AcDbLine
 62
250
  6
CONTINUOUS
 10
-11.0963677045
 20
-4.7422609611
 11
-11.0969561761
 21
-4.80544429
  0
LINE
  5
4D9
100
AcDbEntity
  8
ASSI
100
AcDbLine
 62
7
  6
CONTINUOUS
 10
-10.9439687821
 20
7.2078308046
 11
-10.945619433
 21
7.0492272174
  0
LINE
  5
4DA
100
AcDbEntity
  8
CURVE
100
AcDbLine
 62
250
  6
CONTINUOUS
 10
-11.1199295594
 20
14.9880550221
 11
-11.1191346166
 21
15.0652140108
  0
LINE
  5
4DB
100
AcDbEntity
  8
CURVE
100
AcDbLine
 62
250
  6
CONTINUOUS
 10
-11.0764200165
 20
11.3075876694
 11
-11.0773447217
 21
11.2226782422
  0
LINE
  5
4DC
100
AcDbEntity
  8
CURVE
100
AcDbLine
 62
250
  6
CONTINUOUS
 10
-11.0753989101
 20
11.0743302803
 11
-11.0736627676
 21
11.2454920761
  0
LINE
  5
4DD
100
AcDbEntity
  8
ASSI
100
AcDbLine
 62
7
  6
CONTINUOUS
 10
-10.9445749929
 20
12.1456478376
 11
-10.9462627443
 21
11.9957215718
  0
LINE
  5
4DE
100
AcDbEntity
  8
CURVE
100
AcDbLine
 62
250
  6
CONTINUOUS
 10
-11.1210603068
 20
15.2181192991
 11
-11.1221576882
 21
15.1172643541
  0
LINE
  5
4DF
100
AcDbEntity
  8
CURVE
100
AcDbLine
 62
250
  6
CONTINUOUS
 10
-11.1149733737
 20
-5.1744750961
 11
-11.1142627878
 21
-5.1060299072
  0
LINE
  5
4E0
100
AcDbEntity
  8
CURVE
100
AcDbLine
 62
250
  6
CONTINUOUS
 10
-11.0925900028
 20
-5.2891910409
 11
-11.0919971852
 21
-5.233203964
  0
LINE
  5
4E1
100
AcDbEntity
  8
ASSI
100
AcDbLine
 62
7
  6
CONTINUOUS
 10
-10.9451970244
 20
2.0867043261
 11
-10.9469152217
 21
1.9454309557
  0
LINE
  5
4E2
100
AcDbEntity
  8
ASSI
100
AcDbLine
 62
7
  6
CONTINUOUS
 10
-10.9451970244
 20
-2.9132956739
 11
-10.9469152217
 21
-3.0545690443
  0
LINE
  5
4E3
100
AcDbEntity
  8
CURVE
100
AcDbLine
 62
250
  6
CONTINUOUS
 10
-11.1210371713
 20
-4.6922853923
 11
-11.1223396048
 21
-4.8058835713
  0
LWPOLYLINE
  5
4E4
100
AcDbEntity
  8
ASSI
100
AcDbPolyline
 62
7
  6
CONTINUOUS
 90
4
 70
0
 10
-11.0103594806
 20
16.0710745702
 10
-11.0095771965
 20
16.126966005
 10
-11.0072396882
 20
16.1827408031
 10
-11.0033469558
 20
16.2383989645
  0
LINE
  5
4E5
100
AcDbEntity
  8
ASSI
100
AcDbLine
 62
7
  6
CONTINUOUS
 10
-11.1778367071
 20
0.6661475531
 11
-11.1777878229
 21
0.6696221087
  0
LINE
  5
4E6
100
AcDbEntity
  8
ASSI
100
AcDbLine
 62
7
  6
CONTINUOUS
 10
-10.945619433
 20
7.0492272174
 11
-10.9473542396
 21
6.9137396631
  0
LINE
  5
4E7
100
AcDbEntity
  8
ASSI
100
AcDbLine
 62
7
  6
CONTINUOUS
 10
-10.9462627443
 20
11.9957215718
 11
-10.9480186558
 21
11.8689854505
  0
LINE
  5
4E8
100
AcDbEntity
  8
ASSI
100
AcDbLine
 62
7
  6
CONTINUOUS
 10
-10.9469152217
 20
1.9454309557
 11
-10.9484653277
 21
1.8409947756
  0
LINE
  5
4E9
100
AcDbEntity
  8
ASSI
100
AcDbLine
 62
7
  6
CONTINUOUS
 10
-10.9469152217
 20
-3.0545690443
 11
-10.9484653277
 21
-3.1590052244
  0
LINE
  5
4EA
100
AcDbEntity
  8
CURVE
100
AcDbLine
 62
250
  6
CONTINUOUS
 10
-11.1191346166
 20
15.0652140108
 11
-11.1181332027
 21
15.1343097855
  0
LINE
  5
4EB
100
AcDbEntity
  8
CURVE
100
AcDbLine
 62
250
  6
CONTINUOUS
 10
-11.0773447217
 20
11.2226782422
 11
-11.07847345
 21
11.1457243957
  0
LINE
  5
4EC
100
AcDbEntity
  8
CURVE
100
AcDbLine
 62
250
  6
CONTINUOUS
 10
-11.095571929
 20
-4.6862439096
 11
-11.0963677045
 21
-4.7422609611
  0
LINE
  5
4ED
100
AcDbEntity
  8
CURVE
100
AcDbLine
 62
250
  6
CONTINUOUS
 10
-11.0767588512
 20
10.984439863
 11
-11.0753989101
 21
11.0743302803
  0
LINE
  5
4EE
100
AcDbEntity
  8
CURVE
100
AcDbLine
 62
250
  6
CONTINUOUS
 10
-11.1199682461
 20
15.2898581124
 11
-11.1210603068
 21
15.2181192991
  0
LINE
  5
4EF
100
AcDbEntity
  8
ASSI
100
AcDbLine
 62
7
  6
CONTINUOUS
 10
-10.9473542396
 20
6.9137396631
 11
-10.9489139755
 21
6.8145032249
  0
LINE
  5
4F0
100
AcDbEntity
  8
CURVE
100
AcDbLine
 62
250
  6
CONTINUOUS
 10
-11.0919971852
 20
-5.233203964
 11
-11.0914123446
 21
-5.1949986857
  0
LINE
  5
4F1
100
AcDbEntity
  8
CURVE
100
AcDbLine
 62
250
  6
CONTINUOUS
 10
-11.0594361704
 20
15.128571558
 11
-11.0546990889
 21
15.4
  0
LINE
  5
4F2
100
AcDbEntity
  8
CURVE
100
AcDbLine
 62
250
  6
CONTINUOUS
 10
-11.0546990889
 20
14.042856884
 11
-11.0594361704
 21
13.771428442
  0
LINE
  5
4F3
100
AcDbEntity
  8
CURVE
100
AcDbLine
 62
250
  6
CONTINUOUS
 10
-11.0262765981
 20
14.992856884
 11
-11.0310136801
 21
14.721428442
  0
LINE
  5
4F4
100
AcDbEntity
  8
CURVE
100
AcDbLine
 62
250
  6
CONTINUOUS
 10
-11.0404878435
 20
8.885714221
 11
-11.045224926
 21
8.614285779
  0
LINE
  5
4F5
100
AcDbEntity
  8
CURVE
100
AcDbLine
 62
250
  6
CONTINUOUS
 10
-11.0546990889
 20
6.4428571105
 11
-11.0594361704
 21
6.1714286685
  0
LINE
  5
4F6
100
AcDbEntity
  8
CURVE
100
AcDbLine
 62
250
  6
CONTINUOUS
 10
-11.045224926
 20
5.4928571105
 11
-11.0404878435
 21
5.7642856658
  0
LINE
  5
4F7
100
AcDbEntity
  8
CURVE
100
AcDbLine
 62
250
  6
CONTINUOUS
 10
-11.0594361704
 20
4.5428571671
 11
-11.0546990889
 21
4.8142857224
  0
LINE
  5
4F8
100
AcDbEntity
  8
CURVE
100
AcDbLine
 62
250
  6
CONTINUOUS
 10
-11.0262765981
 20
4.4071428612
 11
-11.0310136801
 21
4.1357142918
  0
LINE
  5
4F9
100
AcDbEntity
  8
CURVE
100
AcDbLine
 62
250
  6
CONTINUOUS
 10
-11.0489647265
 20
-5.6880954742
 11
-11.0457235655
 21
-5.5023806572
  0
LINE
  5
4FA
100
AcDbEntity
  8
CURVE
100
AcDbLine
 62
250
  6
CONTINUOUS
 10
-11.0489647265
 20
-6.7095238686
 11
-11.0457235655
 21
-6.5238096714
  0
LINE
  5
4FB
100
AcDbEntity
  8
CURVE
100
AcDbLine
 62
250
  6
CONTINUOUS
 10
-11.0262765981
 20
-5.96666646
 11
-11.0295177595
 21
-6.1523806572
  0
LINE
  5
4FC
100
AcDbEntity
  8
CURVE
100
AcDbLine
 62
250
  6
CONTINUOUS
 10
-11.0489647265
 20
-9.86666646
 11
-11.0457235655
 21
-9.6809522629
  0
LINE
  5
4FD
100
AcDbEntity
  8
CURVE
100
AcDbLine
 62
250
  6
CONTINUOUS
 10
-11.0262765981
 20
-10.1452380657
 11
-11.0295177595
 21
-10.3309522629
  0
LINE
  5
4FE
100
AcDbEntity
  8
CURVE
100
AcDbLine
 62
250
  6
CONTINUOUS
 10
-11.0262765981
 20
-11.2285712957
 11
-11.0295177595
 21
-11.4142858028
  0
LINE
  5
4FF
100
AcDbEntity
  8
CURVE
100
AcDbLine
 62
250
  6
CONTINUOUS
 10
-11.1142627878
 20
-5.1060299072
 11
-11.1136064173
 21
-5.0634221249
  0
LINE
  5
500
100
AcDbEntity
  8
CURVE
100
AcDbLine
 62
250
  6
CONTINUOUS
 10
-11.1197638598
 20
-4.6129553813
 11
-11.1210371713
 21
-4.6922853923
  0
LINE
  5
501
100
AcDbEntity
  8
ASSI
100
AcDbLine
 62
7
  6
CONTINUOUS
 10
-10.9480186558
 20
11.8689854505
 11
-10.9495887387
 21
11.7775711868
  0
LINE
  5
502
100
AcDbEntity
  8
ASSI
100
AcDbLine
 62
7
  6
CONTINUOUS
 10
-10.9484653277
 20
1.8409947756
 11
-10.9500384631
 21
1.7547974339
  0
LINE
  5
503
100
AcDbEntity
  8
ASSI
100
AcDbLine
 62
7
  6
CONTINUOUS
 10
-10.9484653277
 20
-3.1590052244
 11
-10.9500384631
 21
-3.2452025661
  0
LINE
  5
504
100
AcDbEntity
  8
CURVE
100
AcDbLine
 62
250
  6
CONTINUOUS
 10
-11.1181332027
 20
15.1343097855
 11
-11.117265671
 21
15.1794849539
  0
LINE
  5
505
100
AcDbEntity
  8
CURVE
100
AcDbLine
 62
250
  6
CONTINUOUS
 10
-11.0546990889
 20
8.8404762983
 11
-11.0594361704
 21
8.614285779
  0
LINE
  5
506
100
AcDbEntity
  8
CURVE
100
AcDbLine
 62
250
  6
CONTINUOUS
 10
-11.1190347443
 20
15.337472614
 11
-11.1199682461
 21
15.2898581124
  0
LINE
  5
507
100
AcDbEntity
  8
CURVE
100
AcDbLine
 62
250
  6
CONTINUOUS
 10
-11.07847345
 20
11.1457243957
 11
-11.0797755146
 21
11.0779872757
  0
LINE
  5
508
100
AcDbEntity
  8
CURVE
100
AcDbLine
 62
250
  6
CONTINUOUS
 10
-11.0946874192
 20
-4.6406624655
 11
-11.095571929
 21
-4.6862439096
  0
LINE
  5
509
100
AcDbEntity
  8
CURVE
100
AcDbLine
 62
250
  6
CONTINUOUS
 10
-11.1186387078
 20
-4.557884408
 11
-11.1197638598
 21
-4.6129553813
  0
LINE
  5
50A
100
AcDbEntity
  8
ASSI
100
AcDbLine
 62
7
  6
CONTINUOUS
 10
-10.9495887387
 20
11.7775711868
 11
-10.9505005193
 21
11.7328627086
  0
LINE
  5
50B
100
AcDbEntity
  8
ASSI
100
AcDbLine
 62
7
  6
CONTINUOUS
 10
-10.9489139755
 20
6.8145032249
 11
-10.9505005175
 21
6.7328627108
  0
LINE
  5
50C
100
AcDbEntity
  8
ASSI
100
AcDbLine
 62
7
  6
CONTINUOUS
 10
-10.9500384631
 20
1.7547974339
 11
-10.9505005175
 21
1.7328627108
  0
LINE
  5
50D
100
AcDbEntity
  8
ASSI
100
AcDbLine
 62
7
  6
CONTINUOUS
 10
-10.9500384631
 20
-3.2452025661
 11
-10.9505005175
 21
-3.2671372892
  0
LINE
  5
50E
100
AcDbEntity
  8
CURVE
100
AcDbLine
 62
250
  6
CONTINUOUS
 10
-11.0783255707
 20
10.9067994613
 11
-11.0767588512
 21
10.984439863
  0
LINE
  5
50F
100
AcDbEntity
  8
CURVE
100
AcDbLine
 62
250
  6
CONTINUOUS
 10
-11.0914123446
 20
-5.1949986857
 11
-11.0907268609
 21
-5.1610711835
  0
LINE
  5
510
100
AcDbEntity
  8
CURVE
100
AcDbLine
 62
250
  6
CONTINUOUS
 10
-11.1136064173
 20
-5.0634221249
 11
-11.1129958937
 21
-5.0341869293
  0
LINE
  5
511
100
AcDbEntity
  8
CURVE
100
AcDbLine
 62
250
  6
CONTINUOUS
 10
-11.0797755146
 20
11.0779872757
 11
-11.080946134
 21
11.0296380291
  0
LINE
  5
512
100
AcDbEntity
  8
CURVE
100
AcDbLine
 62
250
  6
CONTINUOUS
 10
-11.0360000818
 20
-6.8952380657
 11
-11.0262765981
 21
-6.5238096714
  0
LINE
  5
513
100
AcDbEntity
  8
CURVE
100
AcDbLine
 62
250
  6
CONTINUOUS
 10
-11.1180171681
 20
15.3789944264
 11
-11.1190347443
 21
15.337472614
  0
LINE
  5
514
100
AcDbEntity
  8
CURVE
100
AcDbLine
 62
250
  6
CONTINUOUS
 10
-11.0938515019
 20
-4.6068506288
 11
-11.0946874192
 21
-4.6406624655
  0
LINE
  5
515
100
AcDbEntity
  8
CURVE
100
AcDbLine
 62
250
  6
CONTINUOUS
 10
-11.117265671
 20
15.1794849539
 11
-11.1163100659
 21
15.2183128621
  0
LINE
  5
516
100
AcDbEntity
  8
CURVE
100
AcDbLine
 62
250
  6
CONTINUOUS
 10
-11.1238139027
 20
-0.365364
 11
-11.0827770154
 21
1.161843
  0
LINE
  5
517
100
AcDbEntity
  8
CURVE
100
AcDbLine
 62
250
  6
CONTINUOUS
 10
-11.0732093358
 20
1.113099
 11
-11.113820205
 21
-0.401901
  0
LINE
  5
518
100
AcDbEntity
  8
CURVE
100
AcDbLine
 62
250
  6
CONTINUOUS
 10
-11.0794658386
 20
10.8624632604
 11
-11.0783255707
 21
10.9067994613
  0
LINE
  5
519
100
AcDbEntity
  8
CURVE
100
AcDbLine
 62
250
  6
CONTINUOUS
 10
-11.0907268609
 20
-5.1610711835
 11
-11.090100439
 21
-5.1364611359
  0
LINE
  5
51A
100
AcDbEntity
  8
CURVE
100
AcDbLine
 62
250
  6
CONTINUOUS
 10
-11.1174151321
 20
-4.5102905766
 11
-11.1186387078
 21
-4.557884408
  0
LINE
  5
51B
100
AcDbEntity
  8
CURVE
100
AcDbLine
 62
250
  6
CONTINUOUS
 10
-11.1129958937
 20
-5.0341869293
 11
-11.1124956412
 21
-5.0153160589
  0
LINE
  5
51C
100
AcDbEntity
  8
CURVE
100
AcDbLine
 62
250
  6
CONTINUOUS
 10
-11.080946134
 20
11.0296380291
 11
-11.0818048497
 21
10.9999442615
  0
LINE
  5
51D
100
AcDbEntity
  8
CURVE
100
AcDbLine
 62
250
  6
CONTINUOUS
 10
-11.1173008784
 20
15.4029493319
 11
-11.1180171681
 21
15.3789944264
  0
LINE
  5
51E
100
AcDbEntity
  8
CURVE
100
AcDbLine
 62
250
  6
CONTINUOUS
 10
-11.0929670338
 20
-4.5773616341
 11
-11.0938515019
 21
-4.6068506288
  0
LINE
  5
51F
100
AcDbEntity
  8
CURVE
100
AcDbLine
 62
250
  6
CONTINUOUS
 10
-11.1163100659
 20
15.2183128621
 11
-11.1156315482
 21
15.2403559578
  0
LINE
  5
520
100
AcDbEntity
  8
CURVE
100
AcDbLine
 62
250
  6
CONTINUOUS
 10
-11.090100439
 20
-5.1364611359
 11
-11.0895834903
 21
-5.1196133502
  0
LINE
  5
521
100
AcDbEntity
  8
CURVE
100
AcDbLine
 62
250
  6
CONTINUOUS
 10
-11.080671379
 20
10.8237196271
 11
-11.0794658386
 21
10.8624632604
  0
LINE
  5
522
100
AcDbEntity
  8
CURVE
100
AcDbLine
 62
250
  6
CONTINUOUS
 10
-11.1124956412
 20
-5.0153160589
 11
-11.1121454246
 21
-5.0042441876
  0
LINE
  5
523
100
AcDbEntity
  8
CURVE
100
AcDbLine
 62
250
  6
CONTINUOUS
 10
-11.1165499998
 20
-4.4830057337
 11
-11.1174151321
 21
-4.5102905766
  0
LINE
  5
524
100
AcDbEntity
  8
CURVE
100
AcDbLine
 62
250
  6
CONTINUOUS
 10
-11.0546990889
 20
15.4
 11
-11.0499620074
 21
15.535714674
  0
LINE
  5
525
100
AcDbEntity
  8
CURVE
100
AcDbLine
 62
250
  6
CONTINUOUS
 10
-11.0310136801
 20
14.721428442
 11
-11.0357507621
 21
14.585714674
  0
LINE
  5
526
100
AcDbEntity
  8
CURVE
100
AcDbLine
 62
250
  6
CONTINUOUS
 10
-11.0318031937
 20
11.328571558
 11
-11.0302241663
 21
11.3738094807
  0
LINE
  5
527
100
AcDbEntity
  8
CURVE
100
AcDbLine
 62
250
  6
CONTINUOUS
 10
-11.0278556254
 20
11.2380952597
 11
-11.0294346527
 21
11.192857337
  0
LINE
  5
528
100
AcDbEntity
  8
CURVE
100
AcDbLine
 62
250
  6
CONTINUOUS
 10
-11.0546990889
 20
4.8142857224
 11
-11.0499620074
 21
4.95
  0
LINE
  5
529
100
AcDbEntity
  8
CURVE
100
AcDbLine
 62
250
  6
CONTINUOUS
 10
-11.0310136801
 20
4.1357142918
 11
-11.0357507621
 21
4.0
  0
LINE
  5
52A
100
AcDbEntity
  8
CURVE
100
AcDbLine
 62
250
  6
CONTINUOUS
 10
-11.0489647265
 20
-9.3095238686
 11
-11.0262765981
 21
-8.6595238686
  0
LINE
  5
52B
100
AcDbEntity
  8
CURVE
100
AcDbLine
 62
250
  6
CONTINUOUS
 10
-11.0489647265
 20
-13.4571429014
 11
-11.0262765981
 21
-12.8071429014
  0
LINE
  5
52C
100
AcDbEntity
  8
CURVE
100
AcDbLine
 62
250
  6
CONTINUOUS
 10
-11.0818048497
 20
10.9999442615
 11
-11.0826950252
 21
10.9735121057
  0
LINE
  5
52D
100
AcDbEntity
  8
ASSI
100
AcDbLine
 62
7
  6
CONTINUOUS
 10
-11.1777453242
 20
0.6665860294
 11
-11.1587898917
 21
1.1996074236
  0
LINE
  5
52E
100
AcDbEntity
  8
CURVE
100
AcDbLine
 62
250
  6
CONTINUOUS
 10
-11.0895834903
 20
-5.1196133502
 11
-11.0892279156
 21
-5.1096123767
  0
LINE
  5
52F
100
AcDbEntity
  8
CURVE
100
AcDbLine
 62
250
  6
CONTINUOUS
 10
-11.1165569829
 20
15.4239876396
 11
-11.1173008784
 21
15.4029493319
  0
LINE
  5
530
100
AcDbEntity
  8
CURVE
100
AcDbLine
 62
250
  6
CONTINUOUS
 10
-11.0920401197
 20
-4.5511585907
 11
-11.0929670338
 21
-4.5773616341
  0
LINE
  5
531
100
AcDbEntity
  8
CURVE
100
AcDbLine
 62
250
  6
CONTINUOUS
 10
-11.1121454246
 20
-5.0042441876
 11
-11.1117839867
 21
-4.9944126945
  0
LWPOLYLINE
  5
532
100
AcDbEntity
  8
CURVE
100
AcDbPolyline
 62
250
  6
CONTINUOUS
 90
24
 70
0
 10
-11.1156315482
 20
15.2403559578
 10
-11.114925607
 20
15.2594167221
 10
-11.1145641941
 20
15.2678759939
 10
-11.1141981353
 20
15.2756463996
 10
-11.1137546533
 20
15.2840682402
 10
-11.1133062303
 20
15.2915476369
 10
-11.1128535297
 20
15.2981026426
 10
-11.1123972151
 20
15.3037513104
 10
-11.1119379501
 20
15.3085116933
 10
-11.1114776127
 20
15.3123866173
 10
-11.1110153064
 20
15.3153798224
 10
-11.1105513364
 20
15.3174750371
 10
-11.1100860081
 20
15.3186559898
 10
-11.1096196269
 20
15.318906409
 10
-11.1091541628
 20
15.3182152345
 10
-11.1086887922
 20
15.3165750499
 10
-11.1082243515
 20
15.3139772767
 10
-11.1077616769
 20
15.3104133364
 10
-11.1073016046
 20
15.3058746505
 10
-11.1068449707
 20
15.3003526405
 10
-11.1063926117
 20
15.2938387281
 10
-11.1059453637
 20
15.2863243346
 10
-11.1055040628
 20
15.2778008818
 10
-11.1050695455
 20
15.268259791
  0
LWPOLYLINE
  5
533
100
AcDbEntity
  8
ASSI
100
AcDbPolyline
 62
250
  6
CONTINUOUS
 90
9
 70
0
 10
-10.6540508461
 20
11.8978370917
 10
-10.6525979748
 20
11.9346565588
 10
-10.6511695525
 20
11.9815671715
 10
-10.6497857794
 20
12.0382981634
 10
-10.6484475489
 20
12.104518599
 10
-10.6471539674
 20
12.1798693662
 10
-10.6459225541
 20
12.2639907619
 10
-10.6447541995
 20
12.3564456053
 10
-10.6426188429
 20
12.5645133228
  0
LWPOLYLINE
  5
534
100
AcDbEntity
  8
ASSI
100
AcDbPolyline
 62
250
  6
CONTINUOUS
 90
9
 70
0
 10
-10.6540508441
 20
6.8978371398
 10
-10.6525979664
 20
6.9346568188
 10
-10.6511695357
 20
6.9815678226
 10
-10.6497857557
 20
7.0382992647
 10
-10.6484475217
 20
7.1045200894
 10
-10.6471539385
 20
7.1798712137
 10
-10.6459225242
 20
7.2639929856
 10
-10.6447541673
 20
7.3564484105
 10
-10.6426188118
 20
7.5645168339
  0
LWPOLYLINE
  5
535
100
AcDbEntity
  8
ASSI
100
AcDbPolyline
 62
250
  6
CONTINUOUS
 90
9
 70
0
 10
-10.6540508441
 20
1.8978371398
 10
-10.6525979664
 20
1.9346568188
 10
-10.6511695357
 20
1.9815678226
 10
-10.6497857557
 20
2.0382992647
 10
-10.6484475217
 20
2.1045200894
 10
-10.6471539385
 20
2.1798712137
 10
-10.6459225242
 20
2.2639929856
 10
-10.6447541673
 20
2.3564484105
 10
-10.6426188118
 20
2.5645168339
  0
LWPOLYLINE
  5
536
100
AcDbEntity
  8
ASSI
100
AcDbPolyline
 62
250
  6
CONTINUOUS
 90
9
 70
0
 10
-10.6540508441
 20
-3.1021628602
 10
-10.6525979664
 20
-3.0653431812
 10
-10.6511695357
 20
-3.0184321774
 10
-10.6497857557
 20
-2.9617007353
 10
-10.6484475217
 20
-2.8954799106
 10
-10.6471539385
 20
-2.8201287863
 10
-10.6459225242
 20
-2.7360070144
 10
-10.6447541673
 20
-2.6435515895
 10
-10.6426188118
 20
-2.4354831661
  0
LINE
  5
537
100
AcDbEntity
  8
CURVE
100
AcDbLine
 62
250
  6
CONTINUOUS
 10
-11.0826950252
 20
10.9735121057
 11
-11.0836115218
 21
10.950386394
  0
LINE
  5
538
100
AcDbEntity
  8
CURVE
100
AcDbLine
 62
250
  6
CONTINUOUS
 10
-11.0913262172
 20
-4.5335219273
 11
-11.0920401197
 21
-4.5511585907
  0
LINE
  5
539
100
AcDbEntity
  8
CURVE
100
AcDbLine
 62
250
  6
CONTINUOUS
 10
-11.0892279156
 20
-5.1096123767
 11
-11.0888646482
 21
-5.1006216805
  0
LWPOLYLINE
  5
53A
100
AcDbEntity
  8
CURVE
100
AcDbPolyline
 62
250
  6
CONTINUOUS
 90
13
 70
0
 10
-11.1117839867
 20
-4.9944126945
 10
-11.1114131709
 20
-4.9858502177
 10
-11.1112248224
 20
-4.9820538098
 10
-11.1110348207
 20
-4.9785853953
 10
-11.1108433962
 20
-4.9754485539
 10
-11.1106507794
 20
-4.9726468654
 10
-11.1104572006
 20
-4.9701839095
 10
-11.1102628904
 20
-4.968063266
 10
-11.1100680791
 20
-4.9662885147
 10
-11.1098729971
 20
-4.9648632352
 10
-11.1096778749
 20
-4.9637910075
 10
-11.109482943
 20
-4.9630754112
 10
-11.1092884317
 20
-4.9627200261
  0
LINE
  5
53B
100
AcDbEntity
  8
CURVE
100
AcDbLine
 62
250
  6
CONTINUOUS
 10
-11.0906008018
 20
-4.5175209873
 11
-11.0913262172
 21
-4.5335219273
  0
LINE
  5
53C
100
AcDbEntity
  8
CURVE
100
AcDbLine
 62
250
  6
CONTINUOUS
 10
-11.0733373821
 20
-10.540105
 11
-11.1063770672
 21
-11.250162
  0
LINE
  5
53D
100
AcDbEntity
  8
CURVE
100
AcDbLine
 62
250
  6
CONTINUOUS
 10
-11.1239355973
 20
-11.093234
 11
-11.0958433172
 21
-10.494355
  0
LINE
  5
53E
100
AcDbEntity
  8
CURVE
100
AcDbLine
 62
250
  6
CONTINUOUS
 10
-11.0888646482
 20
-5.1006216805
 11
-11.087996719
 21
-5.0821496629
  0
LWPOLYLINE
  5
53F
100
AcDbEntity
  8
CURVE
100
AcDbPolyline
 62
250
  6
CONTINUOUS
 90
17
 70
0
 10
-11.0836115218
 20
10.950386394
 10
-11.0845498541
 20
10.9304657437
 10
-11.0850260685
 20
10.9216324943
 10
-11.0855062647
 20
10.9135126319
 10
-11.085989905
 20
10.9060776585
 10
-11.0864764518
 20
10.8992990766
 10
-11.0871019191
 20
10.8915457689
 10
-11.0877308074
 20
10.8847684891
 10
-11.0883626665
 20
10.8789171704
 10
-11.0889970464
 20
10.8739417463
 10
-11.0896334971
 20
10.8697921503
 10
-11.0902715685
 20
10.8664183158
 10
-11.0909108105
 20
10.8637701763
 10
-11.0915507732
 20
10.8617976651
 10
-11.0921910064
 20
10.8604507157
 10
-11.0928310601
 20
10.8596792615
 10
-11.0934704843
 20
10.859433236
  0
LINE
  5
540
100
AcDbEntity
  8
CURVE
100
AcDbLine
 62
250
  6
CONTINUOUS
 10
-11.0732091788
 20
5.710747
 11
-11.1238137631
 21
4.687221
  0
LINE
  5
541
100
AcDbEntity
  8
CURVE
100
AcDbLine
 62
250
  6
CONTINUOUS
 10
-11.089866081
 20
-4.5030172293
 11
-11.0906008018
 21
-4.5175209873
  0
LINE
  5
542
100
AcDbEntity
  8
CURVE
100
AcDbLine
 62
250
  6
CONTINUOUS
 10
-11.1238137631
 20
5.105512
 11
-11.0799421468
 21
5.934146
  0
LINE
  5
543
100
AcDbEntity
  8
CURVE
100
AcDbLine
 62
250
  6
CONTINUOUS
 10
-11.087996719
 20
-5.0821496629
 11
-11.085925928
 21
-5.0423250787
  0
LINE
  5
544
100
AcDbEntity
  8
CURVE
100
AcDbLine
 62
250
  6
CONTINUOUS
 10
-11.0733373821
 20
-14.581013
 11
-11.1239355973
 21
-15.50026
  0
LINE
  5
545
100
AcDbEntity
  8
CURVE
100
AcDbLine
 62
250
  6
CONTINUOUS
 10
-11.1239355973
 20
-7.42899
 11
-11.0733373821
 21
-6.539304
  0
LINE
  5
546
100
AcDbEntity
  8
CURVE
100
AcDbLine
 62
250
  6
CONTINUOUS
 10
-11.0890614331
 20
-4.4887601707
 11
-11.089866081
 21
-4.5030172293
  0
LINE
  5
547
100
AcDbEntity
  8
CURVE
100
AcDbLine
 62
250
  6
CONTINUOUS
 10
-11.085925928
 20
-5.0423250787
 11
-11.083134201
 21
-4.9943638394
  0
LINE
  5
548
100
AcDbEntity
  8
CURVE
100
AcDbLine
 62
250
  6
CONTINUOUS
 10
-11.083134201
 20
-4.9943638394
 11
-11.073337376
 21
-4.8318417383
  0
LINE
  5
549
100
AcDbEntity
  8
CURVE
100
AcDbLine
 62
250
  6
CONTINUOUS
 10
-11.0733373821
 20
-7.177235
 11
-11.0834385877
 21
-7.334033
  0
LWPOLYLINE
  5
54A
100
AcDbEntity
  8
CURVE
100
AcDbPolyline
 62
250
  6
CONTINUOUS
 90
3
 70
0
 10
-11.073337376
 20
-4.2496410148
 10
-11.0801851383
 20
-4.3530226239
 10
-11.0890614331
 20
-4.4887601707
  0
LINE
  5
54B
100
AcDbEntity
  8
CURVE
100
AcDbLine
 62
250
  6
CONTINUOUS
 10
-11.0912548535
 20
-7.454996
 11
-11.1100324928
 21
-7.733126
  0
LWPOLYLINE
  5
54C
100
AcDbEntity
  8
ASSI
100
AcDbPolyline
 62
250
  6
CONTINUOUS
 90
4
 70
0
 10
-10.6585359545
 20
1.85
 10
-10.6570164708
 20
1.8553504461
 10
-10.655521434
 20
1.8713400553
 10
-10.6540508441
 20
1.8978371398
  0
LINE
  5
54D
100
AcDbEntity
  8
CURVE
100
AcDbLine
 62
7
  6
CONTINUOUS
 10
-11.0914110059
 20
5.7175256102
 11
-11.0732091788
 21
5.7357274373
  0
LINE
  5
54E
100
AcDbEntity
  8
CURVE
100
AcDbLine
 62
7
  6
CONTINUOUS
 10
-11.1031515145
 20
5.4957743876
 11
-11.0828331629
 21
5.5160927392
  0
LINE
  5
54F
100
AcDbEntity
  8
CURVE
100
AcDbLine
 62
7
  6
CONTINUOUS
 10
-11.114892023
 20
5.2740231651
 11
-11.0937564551
 21
5.295158733
  0
LINE
  5
550
100
AcDbEntity
  8
CURVE
100
AcDbLine
 62
7
  6
CONTINUOUS
 10
-11.1238137631
 20
5.0550907109
 11
-11.1046797472
 21
5.0742247268
  0
LINE
  5
551
100
AcDbEntity
  8
CURVE
100
AcDbLine
 62
7
  6
CONTINUOUS
 10
-11.1238137631
 20
4.8450799969
 11
-11.1156030394
 21
4.8532907206
  0
LINE
  5
552
100
AcDbEntity
  8
CURVE
100
AcDbLine
 62
7
  6
CONTINUOUS
 10
-11.1238139027
 20
4.2150477153
 11
-11.1181439909
 21
4.2207176271
  0
LINE
  5
553
100
AcDbEntity
  8
CURVE
100
AcDbLine
 62
7
  6
CONTINUOUS
 10
-11.0788792128
 20
4.2599824052
 11
-11.0732093358
 21
4.2656522822
  0
LINE
  5
554
100
AcDbEntity
  8
CURVE
100
AcDbLine
 62
7
  6
CONTINUOUS
 10
-11.1238139027
 20
4.0050370013
 11
-11.1181439909
 21
4.0107069131
  0
LINE
  5
555
100
AcDbEntity
  8
CURVE
100
AcDbLine
 62
7
  6
CONTINUOUS
 10
-11.1020553578
 20
4.0267955462
 11
-11.0963849748
 21
4.0324659292
  0
LINE
  5
556
100
AcDbEntity
  8
CURVE
100
AcDbLine
 62
7
  6
CONTINUOUS
 10
-11.0788792128
 20
4.0499716912
 11
-11.0732093358
 21
4.0556415681
  0
LINE
  5
557
100
AcDbEntity
  8
CURVE
100
AcDbLine
 62
7
  6
CONTINUOUS
 10
-11.1238139027
 20
3.7950262873
 11
-11.1181439909
 21
3.8006961991
  0
LINE
  5
558
100
AcDbEntity
  8
CURVE
100
AcDbLine
 62
7
  6
CONTINUOUS
 10
-11.1020553578
 20
3.8167848322
 11
-11.0963849748
 21
3.8224552152
  0
LINE
  5
559
100
AcDbEntity
  8
CURVE
100
AcDbLine
 62
7
  6
CONTINUOUS
 10
-11.0788792128
 20
3.8399609772
 11
-11.0732093358
 21
3.8456308541
  0
LINE
  5
55A
100
AcDbEntity
  8
CURVE
100
AcDbLine
 62
7
  6
CONTINUOUS
 10
-11.1238139027
 20
3.5850155733
 11
-11.1181439909
 21
3.5906854851
  0
LINE
  5
55B
100
AcDbEntity
  8
CURVE
100
AcDbLine
 62
7
  6
CONTINUOUS
 10
-11.1020553578
 20
3.6067741182
 11
-11.0963849748
 21
3.6124445011
  0
LINE
  5
55C
100
AcDbEntity
  8
CURVE
100
AcDbLine
 62
7
  6
CONTINUOUS
 10
-11.0788792128
 20
3.6299502632
 11
-11.0732093358
 21
3.6356201401
  0
LINE
  5
55D
100
AcDbEntity
  8
CURVE
100
AcDbLine
 62
7
  6
CONTINUOUS
 10
-11.1238139027
 20
3.3750048592
 11
-11.1181439909
 21
3.3806747711
  0
LINE
  5
55E
100
AcDbEntity
  8
CURVE
100
AcDbLine
 62
7
  6
CONTINUOUS
 10
-11.1020553578
 20
3.3967634042
 11
-11.0963849748
 21
3.4024337871
  0
LINE
  5
55F
100
AcDbEntity
  8
CURVE
100
AcDbLine
 62
7
  6
CONTINUOUS
 10
-11.0788792128
 20
3.4199395492
 11
-11.0732093358
 21
3.4256094261
  0
LINE
  5
560
100
AcDbEntity
  8
IMPORT_IGES
100
AcDbLine
 62
7
  6
CONTINUOUS
 10
4.006
 20
15.75
 11
3.796
 21
15.6
  0
LINE
  5
561
100
AcDbEntity
  8
CURVE
100
AcDbLine
 62
250
  6
CONTINUOUS
 10
-7.2
 20
8.2130903017
 11
-7.9428571373
 21
7.8416617137
  0
LINE
  5
562
100
AcDbEntity
  8
ASSI
100
AcDbLine
 62
250
  6
CONTINUOUS
 10
11.0130903017
 20
16.0720258912
 11
11.15
 21
16.119659166
  0
LINE
  5
563
100
AcDbEntity
  8
CURVE
100
AcDbLine
 62
250
  6
CONTINUOUS
 10
-7.7571428239
 20
-11.5428571761
 11
-7.2
 21
-11.5428571761
  0
LINE
  5
564
100
AcDbEntity
  8
CURVE
100
AcDbLine
 62
250
  6
CONTINUOUS
 10
8.948795
 20
-11.417947
 11
8.576331
 21
-11.417947
  0
LINE
  5
565
100
AcDbEntity
  8
CURVE
100
AcDbLine
 62
250
  6
CONTINUOUS
 10
-11.0295177595
 20
-11.4142858028
 11
-11.0457235655
 21
-11.4142858028
  0
LINE
  5
566
100
AcDbEntity
  8
CURVE
100
AcDbLine
 62
250
  6
CONTINUOUS
 10
-7.2
 20
-11.171428588
 11
-8.5
 21
-11.171428588
  0
LINE
  5
567
100
AcDbEntity
  8
CURVE
100
AcDbLine
 62
250
  6
CONTINUOUS
 10
8.576331
 20
-11.067887
 11
8.948795
 21
-11.067887
  0
LINE
  5
568
100
AcDbEntity
  8
CURVE
100
AcDbLine
 62
250
  6
CONTINUOUS
 10
8.483915
 20
-10.61141
 11
8.268279
 21
-10.61141
  0
LINE
  5
569
100
AcDbEntity
  8
CURVE
100
AcDbLine
 62
250
  6
CONTINUOUS
 10
9.798739
 20
-10.416076
 11
9.581245
 21
-10.416076
  0
LINE
  5
56A
100
AcDbEntity
  8
CURVE
100
AcDbLine
 62
250
  6
CONTINUOUS
 10
-11.0295177595
 20
-10.3309522629
 11
-11.0457235655
 21
-10.3309522629
  0
LINE
  5
56B
100
AcDbEntity
  8
CURVE
100
AcDbLine
 62
250
  6
CONTINUOUS
 10
6.387628
 20
-10.880593
 11
9.284153
 21
-11.149839
  0
LINE
  5
56C
100
AcDbEntity
  8
ASSI
100
AcDbLine
 62
250
  6
CONTINUOUS
 10
11.0130903017
 20
-16.0720258912
 11
11.15
 21
-16.119659166
  0
LWPOLYLINE
  5
56D
100
AcDbEntity
  8
CURVE
100
AcDbPolyline
 62
250
  6
CONTINUOUS
 90
4
 70
0
 10
-8.1577694789
 20
-7.8701137048
 10
-8.1153719803
 20
-7.9061886331
 10
-8.0940583315
 20
-7.9248563148
 10
-8.0743577881
 20
-7.9425469652
  0
LWPOLYLINE
  5
56E
100
AcDbEntity
  8
CURVE
100
AcDbPolyline
 62
250
  6
CONTINUOUS
 90
18
 70
0
 10
-8.0743577881
 20
-7.9425469652
 10
-8.0644706061
 20
-7.9510719663
 10
-8.0545529458
 20
-7.9590355532
 10
-8.0446004038
 20
-7.9661768269
 10
-8.0392496701
 20
-7.9696290978
 10
-8.0338858042
 20
-7.9730527055
 10
-8.0285069608
 20
-7.976730199
 10
-8.024461889
 20
-7.9798249027
 10
-8.0204065758
 20
-7.9833405514
 10
-8.0163402427
 20
-7.9873963456
 10
-8.0122621111
 20
-7.9921114857
 10
-8.0102824371
 20
-7.9946189573
 10
-8.008287532
 20
-7.9970460127
 10
-8.0062651094
 20
-7.999129975
 10
-8.0047228427
 20
-8.0003097755
 10
-8.0031530026
 20
-8.0010380136
 10
-8.0015504058
 20
-8.0012038727
 10
-7.9999098687
 20
-8.0006965358
  0
LWPOLYLINE
  5
56F
100
AcDbEntity
  8
CURVE
100
AcDbPolyline
 62
250
  6
CONTINUOUS
 90
34
 70
0
 10
-7.8421047044
 20
-8.1298937753
 10
-7.8044533973
 20
-8.1627032805
 10
-7.7670153045
 20
-8.1960931726
 10
-7.725080549
 20
-8.2338541878
 10
-7.6834040935
 20
-8.271787441
 10
-7.6223155109
 20
-8.3284050835
 10
-7.5618535456
 20
-8.3857488342
 10
-7.5020824165
 20
-8.4438054291
 10
-7.4560008594
 20
-8.489575482
 10
-7.4104345184
 20
-8.5358508527
 10
-7.3654395298
 20
-8.5827115083
 10
-7.3210720297
 20
-8.6302374158
 10
-7.2883060368
 20
-8.6663107825
 10
-7.2560348926
 20
-8.702831549
 10
-7.2243700708
 20
-8.7398291982
 10
-7.1934230451
 20
-8.7773332133
 10
-7.1633052893
 20
-8.8153730771
 10
-7.1459010845
 20
-8.8381908585
 10
-7.1288861719
 20
-8.8612827903
 10
-7.1123195104
 20
-8.8847245122
 10
-7.0962600588
 20
-8.9085916636
 10
-7.0807667759
 20
-8.9329598839
 10
-7.0658986206
 20
-8.9579048127
 10
-7.0517145518
 20
-8.9835020893
 10
-7.0450162877
 20
-8.9963638987
 10
-7.0385974847
 20
-9.009395204
 10
-7.0325575138
 20
-9.0225890603
 10
-7.0269957457
 20
-9.035938523
 10
-7.0220115516
 20
-9.0494366474
 10
-7.0177043024
 20
-9.0630764887
 10
-7.014173369
 20
-9.0768511022
 10
-7.0115181224
 20
-9.0907535431
 10
-7.0098379335
 20
-9.1047768668
 10
-7.0092321733
 20
-9.1189141285
  0
LWPOLYLINE
  5
570
100
AcDbEntity
  8
CURVE
100
AcDbPolyline
 62
250
  6
CONTINUOUS
 90
4
 70
0
 10
-7.9255048432
 20
-8.0574561024
 10
-7.9058057487
 20
-8.0751530396
 10
-7.8844941378
 20
-8.0938238674
 10
-7.8421047044
 20
-8.1298937753
  0
LWPOLYLINE
  5
571
100
AcDbEntity
  8
CURVE
100
AcDbPolyline
 62
250
  6
CONTINUOUS
 90
15
 70
0
 10
-8.0006876944
 20
-8.0000105585
 10
-7.9996706669
 20
-8.0009300569
 10
-7.9981945488
 20
-8.0011688521
 10
-7.9964424381
 20
-8.000991231
 10
-7.9945974329
 20
-8.0006614806
 10
-7.98981757
 20
-8.0001671627
 10
-7.9855254856
 20
-8.0002748648
 10
-7.981510331
 20
-8.0007179437
 10
-7.9775612578
 20
-8.0012297562
 10
-7.9687780902
 20
-8.0018146631
 10
-7.9596048957
 20
-8.0018584178
 10
-7.9503096754
 20
-8.0017194499
 10
-7.931814403
 20
-8.0017828208
 10
-7.9135731922
 20
-8.0021346265
 10
-7.8641937309
 20
-8.0026686954
  0
LWPOLYLINE
  5
572
100
AcDbEntity
  8
CURVE
100
AcDbPolyline
 62
250
  6
CONTINUOUS
 90
34
 70
0
 10
-8.9906792363
 20
-6.8810856955
 10
-8.9900734749
 20
-6.8952230261
 10
-8.9883932824
 20
-6.9092464193
 10
-8.9857380293
 20
-6.9231489301
 10
-8.9822070862
 20
-6.9369236131
 10
-8.9778998235
 20
-6.9505635231
 10
-8.9729156117
 20
-6.964061715
 10
-8.9673538214
 20
-6.9774112435
 10
-8.961313823
 20
-6.9906051635
 10
-8.954894987
 20
-7.0036365296
 10
-8.9481966839
 20
-7.0164983967
 10
-8.9340125064
 20
-7.042095797
 10
-8.9191442172
 20
-7.0670408333
 10
-8.9036507776
 20
-7.0914091453
 10
-8.8875911487
 20
-7.1152763726
 10
-8.8710242918
 20
-7.1387181547
 10
-8.8540091683
 20
-7.1618101313
 10
-8.8366047392
 20
-7.1846279419
 10
-8.8064864154
 20
-7.2226680236
 10
-8.7755387795
 20
-7.2601722113
 10
-8.7438733041
 20
-7.2971699929
 10
-8.7116014615
 20
-7.3336908559
 10
-8.6788347243
 20
-7.3697642881
 10
-8.6344657431
 20
-7.4172906723
 10
-8.5894691893
 20
-7.4641517013
 10
-8.5439012123
 20
-7.5104272999
 10
-8.4978179613
 20
-7.5561973926
 10
-8.4380436392
 20
-7.6142546421
 10
-8.3775782234
 20
-7.6715989143
 10
-8.3164857721
 20
-7.7282172124
 10
-8.2748056712
 20
-7.7661516183
 10
-8.2328674309
 20
-7.8039127522
 10
-8.1954256568
 20
-7.8373023656
 10
-8.1577694789
 20
-7.8701137048
  0
LINE
  5
573
100
AcDbEntity
  8
ASSI
100
AcDbLine
 62
7
  6
CONTINUOUS
 10
-9.8
 20
-3.15
 11
-9.8
 21
1.15
  0
LINE
  5
574
100
AcDbEntity
  8
ASSI
100
AcDbLine
 62
7
  6
CONTINUOUS
 10
-9.8
 20
1.85
 11
-9.8
 21
6.15
  0
LINE
  5
575
100
AcDbEntity
  8
ASSI
100
AcDbLine
 62
7
  6
CONTINUOUS
 10
-9.8
 20
6.85
 11
-9.8
 21
11.15
  0
LINE
  5
576
100
AcDbEntity
  8
ASSI
100
AcDbLine
 62
7
  6
CONTINUOUS
 10
-9.8
 20
11.85
 11
-9.8
 21
16.15
  0
LINE
  5
577
100
AcDbEntity
  8
RACCORDO
100
AcDbLine
 62
7
  6
CONTINUOUS
 10
-9.65
 20
20.4000761524
 11
-9.65
 21
18.6319979818
  0
LINE
  5
578
100
AcDbEntity
  8
RACCORDO
100
AcDbLine
 62
7
  6
CONTINUOUS
 10
-9.65
 20
-18.6319979818
 11
-9.65
 21
-20.4000761524
  0
LINE
  5
579
100
AcDbEntity
  8
RACCORDO
100
AcDbLine
 62
7
  6
CONTINUOUS
 10
-9.6412724675
 20
20.39134862
 11
-9.6412724675
 21
18.642060866
  0
LINE
  5
57A
100
AcDbEntity
  8
RACCORDO
100
AcDbLine
 62
7
  6
CONTINUOUS
 10
-9.6412724675
 20
-20.39134862
 11
-9.6412724675
 21
-18.642060866
  0
LINE
  5
57B
100
AcDbEntity
  8
0
100
AcDbLine
 62
250
  6
CONTINUOUS
 10
-9.2
 20
-18.6
 11
-9.2
 21
-18.2130903017
  0
LINE
  5
57C
100
AcDbEntity
  8
CURVE
100
AcDbLine
 62
250
  6
CONTINUOUS
 10
-8.5
 20
4.8083283674
 11
-8.5
 21
4.251185466
  0
LINE
  5
57D
100
AcDbEntity
  8
CURVE
100
AcDbLine
 62
250
  6
CONTINUOUS
 10
-8.5
 20
-3.0845290411
 11
-8.5
 21
-3.5488142241
  0
LINE
  5
57E
100
AcDbEntity
  8
CURVE
100
AcDbLine
 62
250
  6
CONTINUOUS
 10
-8.5
 20
-11.5428571761
 11
-8.5
 21
-11.9142857254
  0
LINE
  5
57F
100
AcDbEntity
  8
CURVE
100
AcDbLine
 62
250
  6
CONTINUOUS
 10
-8.5
 20
-14.1428570986
 11
-8.5
 21
-14.5142858028
  0
LINE
  5
580
100
AcDbEntity
  8
CURVE
100
AcDbLine
 62
250
  6
CONTINUOUS
 10
-8.5
 20
-15.4428570986
 11
-8.5
 21
-15.35
  0
LINE
  5
581
100
AcDbEntity
  8
CURVE
100
AcDbLine
 62
250
  6
CONTINUOUS
 10
-8.5
 20
5.5202332031
 11
-8.5
 21
5.984518851
  0
LINE
  5
582
100
AcDbEntity
  8
RACCORDO
100
AcDbLine
 62
7
  6
CONTINUOUS
 10
-8.4674550649
 20
-20.85
 11
-8.4674550649
 21
-19.8794603859
  0
LINE
  5
583
100
AcDbEntity
  8
RACCORDO
100
AcDbLine
 62
7
  6
CONTINUOUS
 10
-8.4674550649
 20
19.8794603859
 11
-8.4674550649
 21
20.85
  0
LINE
  5
584
100
AcDbEntity
  8
RACCORDO
100
AcDbLine
 62
7
  6
CONTINUOUS
 10
-8.45
 20
20.3
 11
-8.45
 21
19.8972655375
  0
LINE
  5
585
100
AcDbEntity
  8
RACCORDO
100
AcDbLine
 62
7
  6
CONTINUOUS
 10
-8.45
 20
-20.3
 11
-8.45
 21
-19.8972655375
  0
LINE
  5
586
100
AcDbEntity
  8
CURVE
100
AcDbLine
 62
250
  6
CONTINUOUS
 10
-11.0489647265
 20
-14.2
 11
-11.0262765981
 21
-13.8285714507
  0
LINE
  5
587
100
AcDbEntity
  8
CURVE
100
AcDbLine
 62
250
  6
CONTINUOUS
 10
-11.1239355973
 20
-14.842748
 11
-11.0891072781
 21
-14.290021
  0
LINE
  5
588
100
AcDbEntity
  8
CURVE
100
AcDbLine
 62
250
  6
CONTINUOUS
 10
-11.1239355973
 20
-9.290227
 11
-11.0733373821
 21
-9.019077
  0
LWPOLYLINE
  5
589
100
AcDbEntity
  8
ASSI
100
AcDbPolyline
 62
250
  6
CONTINUOUS
 90
4
 70
0
 10
-10.6585359545
 20
-3.15
 10
-10.6570164708
 20
-3.1446495539
 10
-10.655521434
 20
-3.1286599447
 10
-10.6540508441
 20
-3.1021628602
  0
LINE
  5
58A
100
AcDbEntity
  8
CURVE
100
AcDbLine
 62
7
  6
CONTINUOUS
 10
-11.1238139027
 20
3.1649941452
 11
-11.1181439909
 21
3.1706640571
  0
LINE
  5
58B
100
AcDbEntity
  8
CURVE
100
AcDbLine
 62
7
  6
CONTINUOUS
 10
-11.1020553578
 20
3.1867526901
 11
-11.0963849748
 21
3.1924230731
  0
LINE
  5
58C
100
AcDbEntity
  8
CURVE
100
AcDbLine
 62
7
  6
CONTINUOUS
 10
-11.0788792128
 20
3.2099288352
 11
-11.0732093358
 21
3.2155987121
  0
LINE
  5
58D
100
AcDbEntity
  8
CURVE
100
AcDbLine
 62
7
  6
CONTINUOUS
 10
-11.1238139027
 20
2.9549834312
 11
-11.1181439909
 21
2.9606533431
  0
LINE
  5
58E
100
AcDbEntity
  8
CURVE
100
AcDbLine
 62
7
  6
CONTINUOUS
 10
-11.1020553578
 20
2.9767419761
 11
-11.0963849748
 21
2.9824123591
  0
LINE
  5
58F
100
AcDbEntity
  8
CURVE
100
AcDbLine
 62
7
  6
CONTINUOUS
 10
-11.0788792128
 20
2.9999181212
 11
-11.0732093358
 21
3.0055879981
  0
LINE
  5
590
100
AcDbEntity
  8
CURVE
100
AcDbLine
 62
7
  6
CONTINUOUS
 10
-11.1238139027
 20
2.7449727172
 11
-11.1181439909
 21
2.750642629
  0
LINE
  5
591
100
AcDbEntity
  8
CURVE
100
AcDbLine
 62
7
  6
CONTINUOUS
 10
-11.1020553578
 20
2.7667312621
 11
-11.0963849748
 21
2.7724016451
  0
LINE
  5
592
100
AcDbEntity
  8
CURVE
100
AcDbLine
 62
7
  6
CONTINUOUS
 10
-11.0788792128
 20
2.7899074071
 11
-11.0732093358
 21
2.7955772841
  0
LINE
  5
593
100
AcDbEntity
  8
CURVE
100
AcDbLine
 62
7
  6
CONTINUOUS
 10
-11.1238139027
 20
2.5349620032
 11
-11.0732093358
 21
2.5855665701
  0
LINE
  5
594
100
AcDbEntity
  8
CURVE
100
AcDbLine
 62
7
  6
CONTINUOUS
 10
-11.1050741919
 20
2.343691
 11
-11.0732093358
 21
2.375555856
  0
LINE
  5
595
100
AcDbEntity
  8
CURVE
100
AcDbLine
 62
250
  6
CONTINUOUS
 10
-7.2
 20
5.5202332031
 11
-7.3857142746
 21
5.3345190059
  0
LINE
  5
596
100
AcDbEntity
  8
CURVE
100
AcDbLine
 62
7
  6
CONTINUOUS
 10
-11.1238139027
 20
1.4849084331
 11
-11.0732093358
 21
1.535513
  0
LINE
  5
597
100
AcDbEntity
  8
CURVE
100
AcDbLine
 62
7
  6
CONTINUOUS
 10
-11.1238139027
 20
1.2748977191
 11
-11.0732093358
 21
1.325502286
  0
LINE
  5
598
100
AcDbEntity
  8
CURVE
100
AcDbLine
 62
7
  6
CONTINUOUS
 10
-11.0843210823
 20
1.1043798255
 11
-11.0732093358
 21
1.115491572
  0
LINE
  5
599
100
AcDbEntity
  8
ASSI
100
AcDbLine
 62
7
  6
CONTINUOUS
 10
-0.25
 20
11.75
 11
0.25
 21
12.25
  0
LINE
  5
59A
100
AcDbEntity
  8
CURVE
100
AcDbLine
 62
7
  6
CONTINUOUS
 10
-11.0901200053
 20
0.8885701885
 11
-11.0789280115
 21
0.8997621823
  0
LINE
  5
59B
100
AcDbEntity
  8
CURVE
100
AcDbLine
 62
250
  6
CONTINUOUS
 10
-7.2
 20
6.7273759496
 11
-8.5
 21
6.3559474003
  0
LINE
  5
59C
100
AcDbEntity
  8
CURVE
100
AcDbLine
 62
250
  6
CONTINUOUS
 10
9.311705
 20
-8.931124
 11
5.949484
 21
-9.225174
  0
LINE
  5
59D
100
AcDbEntity
  8
CURVE
100
AcDbLine
 62
250
  6
CONTINUOUS
 10
-0.5
 20
-10.1017899598
 11
-3.5
 21
-10.1017899598
  0
LINE
  5
59E
100
AcDbEntity
  8
CURVE
100
AcDbLine
 62
250
  6
CONTINUOUS
 10
9.581803
 20
-9.843073
 11
9.799297
 21
-9.843073
  0
LINE
  5
59F
100
AcDbEntity
  8
CURVE
100
AcDbLine
 62
250
  6
CONTINUOUS
 10
8.268279
 20
-9.78807
 11
8.483915
 21
-9.78807
  0
LINE
  5
5A0
100
AcDbEntity
  8
CURVE
100
AcDbLine
 62
250
  6
CONTINUOUS
 10
-11.0457235655
 20
-9.6809522629
 11
-11.0295177595
 21
-9.6809522629
  0
LINE
  5
5A1
100
AcDbEntity
  8
CURVE
100
AcDbLine
 62
250
  6
CONTINUOUS
 10
0.5928571284
 20
-9.4446469869
 11
-0.5
 21
-9.4446469869
  0
LINE
  5
5A2
100
AcDbEntity
  8
CURVE
100
AcDbLine
 62
250
  6
CONTINUOUS
 10
5.949484
 20
-9.399503
 11
5.753036
 21
-9.399503
  0
LINE
  5
5A3
100
AcDbEntity
  8
CURVE
100
AcDbLine
 62
250
  6
CONTINUOUS
 10
9.706323
 20
-9.31759
 11
9.311705
 21
-9.31759
  0
LINE
  5
5A4
100
AcDbEntity
  8
CURVE
100
AcDbLine
 62
250
  6
CONTINUOUS
 10
-11.0262765981
 20
-9.3095238686
 11
-11.0489647265
 21
-9.3095238686
  0
LINE
  5
5A5
100
AcDbEntity
  8
CURVE
100
AcDbLine
 62
250
  6
CONTINUOUS
 10
5.753036
 20
-9.281883
 11
5.949484
 21
-9.281883
  0
LINE
  5
5A6
100
AcDbEntity
  8
CURVE
100
AcDbLine
 62
250
  6
CONTINUOUS
 10
9.311705
 20
-9.218216
 11
9.706323
 21
-9.218216
  0
LINE
  5
5A7
100
AcDbEntity
  8
CURVE
100
AcDbLine
 62
250
  6
CONTINUOUS
 10
0.7142857432
 20
-8.8779804553
 11
-0.5
 21
-8.8779804553
  0
LINE
  5
5A8
100
AcDbEntity
  8
CURVE
100
AcDbLine
 62
250
  6
CONTINUOUS
 10
-11.0262765981
 20
-8.6595238686
 11
-11.0489647265
 21
-8.6595238686
  0
LWPOLYLINE
  5
5A9
100
AcDbEntity
  8
CURVE
100
AcDbPolyline
 62
250
  6
CONTINUOUS
 90
54
 70
0
 10
-9.1187289271
 20
-8.9906877887
 10
-9.1394762032
 20
-8.9902435877
 10
-9.1600218554
 20
-8.9888247647
 10
-9.1803642854
 20
-8.9864580931
 10
-9.2005018949
 20
-8.9831703461
 10
-9.2204330856
 20
-8.978988297
 10
-9.2401562593
 20
-8.973938719
 10
-9.2596698177
 20
-8.9680483854
 10
-9.2789721624
 20
-8.9613440695
 10
-9.2980616952
 20
-8.9538525445
 10
-9.3169368178
 20
-8.9456005837
 10
-9.335595932
 20
-8.9366149603
 10
-9.3540374393
 20
-8.9269224476
 10
-9.3722597416
 20
-8.9165498189
 10
-9.3902612405
 20
-8.9055238474
 10
-9.4080403378
 20
-8.8938713063
 10
-9.4255954351
 20
-8.8816189691
 10
-9.4429249343
 20
-8.8687936088
 10
-9.4600272369
 20
-8.8554219988
 10
-9.4769007448
 20
-8.8415309123
 10
-9.4935438596
 20
-8.8271471226
 10
-9.509954983
 20
-8.812297403
 10
-9.5261325168
 20
-8.7970085266
 10
-9.5420748626
 20
-8.7813072668
 10
-9.5577804222
 20
-8.7652203969
 10
-9.5732475973
 20
-8.74877469
 10
-9.5884747896
 20
-8.7319969195
 10
-9.6034604008
 20
-8.7149138586
 10
-9.6182028327
 20
-8.6975522806
 10
-9.6327004868
 20
-8.6799389587
 10
-9.6469517651
 20
-8.6621006662
 10
-9.6609550691
 20
-8.6440641763
 10
-9.6747088006
 20
-8.6258562624
 10
-9.6882113612
 20
-8.6075036976
 10
-9.7014611528
 20
-8.5890332553
 10
-9.714456577
 20
-8.5704717087
 10
-9.7271960355
 20
-8.551845831
 10
-9.7396779301
 20
-8.5331823955
 10
-9.7519006624
 20
-8.5145081755
 10
-9.7638626342
 20
-8.4958499443
 10
-9.7856674103
 20
-8.460839369
 10
-9.8065771081
 20
-8.4259373848
 10
-9.8266257029
 20
-8.3911011555
 10
-9.8458471699
 20
-8.3562878453
 10
-9.8642754846
 20
-8.3214546182
 10
-9.8819446221
 20
-8.2865586382
 10
-9.8988885579
 20
-8.2515570694
 10
-9.9151412673
 20
-8.2164070757
 10
-9.9307367256
 20
-8.1810658213
 10
-9.945708908
 20
-8.1454904702
 10
-9.96009179
 20
-8.1096381863
 10
-9.9739193468
 20
-8.0734661338
 10
-9.9872255537
 20
-8.0369314767
 10
-10.0000443861
 20
-7.999991379
  0
LWPOLYLINE
  5
5AA
100
AcDbEntity
  8
RACCORDO
100
AcDbPolyline
 62
7
  6
CONTINUOUS
 90
11
 70
0
 10
3.2371426149
 20
-21.9370647395
 10
3.2364960555
 20
-21.9361245688
 10
3.2358785591
 20
-21.9338165157
 10
3.2352901257
 20
-21.9301405802
 10
3.2347299433
 20
-21.9249831017
 10
3.2341988239
 20
-21.918457741
 10
3.2336992037
 20
-21.9109054795
 10
3.233232855
 20
-21.9024250808
 10
3.2327980056
 20
-21.8929177814
 10
3.2323917741
 20
-21.8824282727
 10
3.2320105844
 20
-21.8708813614
  0
LWPOLYLINE
  5
5AB
100
AcDbEntity
  8
CURVE
100
AcDbPolyline
 62
250
  6
CONTINUOUS
 90
18
 70
0
 10
-7.9993118654
 20
-8.0000071245
 10
-7.9987838823
 20
-8.0016337045
 10
-7.9989369028
 20
-8.0032275046
 10
-7.9996588238
 20
-8.0047928439
 10
-8.0008375421
 20
-8.0063340415
 10
-8.0029259819
 20
-8.0083588828
 10
-8.0053614857
 20
-8.0103587216
 10
-8.0078783277
 20
-8.0123437957
 10
-8.0126119598
 20
-8.0164332425
 10
-8.0166771259
 20
-8.0205051171
 10
-8.0201946527
 20
-8.0245612249
 10
-8.0232853668
 20
-8.0286033717
 10
-8.0269512247
 20
-8.0339743043
 10
-8.0303595118
 20
-8.0393279071
 10
-8.0337966321
 20
-8.0446684601
 10
-8.0409202992
 20
-8.0546097957
 10
-8.0488772059
 20
-8.064522834
 10
-8.0574028888
 20
-8.0744098157
  0
LINE
  5
5AC
100
AcDbEntity
  8
DRAFT
100
AcDbLine
 62
7
  6
CONTINUOUS
 10
-8.4579943206
 20
20.3079943206
 11
-8.4674550649
 21
20.85
  0
LWPOLYLINE
  5
5AD
100
AcDbEntity
  8
CURVE
100
AcDbPolyline
 62
250
  6
CONTINUOUS
 90
8
 70
0
 10
-8.0
 20
-9.9998946037
 10
-8.0010392627
 20
-9.6878631868
 10
-8.0019465856
 20
-9.3679472463
 10
-8.0027641424
 20
-9.0010963338
 10
-8.0032307628
 20
-8.6340593366
 10
-8.0032508562
 20
-8.4650800834
 10
-8.0030852765
 20
-8.3135851416
 10
-8.0026073454
 20
-8.1357956708
  0
LINE
  5
5AE
100
AcDbEntity
  8
CURVE
100
AcDbLine
 62
250
  6
CONTINUOUS
 10
-8.128571412
 20
6.9749950599
 11
-8.128571412
 21
6.4797569167
  0
LINE
  5
5AF
100
AcDbEntity
  8
CURVE
100
AcDbLine
 62
250
  6
CONTINUOUS
 10
-8.128571412
 20
-2.0940522898
 11
-8.128571412
 21
-2.5892903555
  0
LINE
  5
5B0
100
AcDbEntity
  8
CURVE
100
AcDbLine
 62
250
  6
CONTINUOUS
 10
-8.0357142746
 20
-12.4714285493
 11
-8.0357142746
 21
-13.0285714507
  0
LINE
  5
5B1
100
AcDbEntity
  8
CURVE
100
AcDbLine
 62
250
  6
CONTINUOUS
 10
-7.7571428239
 20
-14.5142858028
 11
-7.7571428239
 21
-14.1428570986
  0
LINE
  5
5B2
100
AcDbEntity
  8
CURVE
100
AcDbLine
 62
250
  6
CONTINUOUS
 10
-7.7571428239
 20
-11.9142857254
 11
-7.7571428239
 21
-11.5428571761
  0
LINE
  5
5B3
100
AcDbEntity
  8
CURVE
100
AcDbLine
 62
250
  6
CONTINUOUS
 10
-7.7571428239
 20
4.4368999731
 11
-7.7571428239
 21
4.8083283674
  0
LINE
  5
5B4
100
AcDbEntity
  8
CURVE
100
AcDbLine
 62
250
  6
CONTINUOUS
 10
-7.2
 20
5.984518851
 11
-7.2
 21
5.5202332031
  0
LINE
  5
5B5
100
AcDbEntity
  8
CURVE
100
AcDbLine
 62
250
  6
CONTINUOUS
 10
-7.2
 20
4.8083283674
 11
-7.2
 21
4.251185466
  0
LINE
  5
5B6
100
AcDbEntity
  8
CURVE
100
AcDbLine
 62
250
  6
CONTINUOUS
 10
-7.2
 20
-0.8559574354
 11
-7.2
 21
-1.5988142241
  0
LINE
  5
5B7
100
AcDbEntity
  8
CURVE
100
AcDbLine
 62
250
  6
CONTINUOUS
 10
-7.2
 20
-11.5428571761
 11
-7.2
 21
-12.1
  0
LINE
  5
5B8
100
AcDbEntity
  8
CURVE
100
AcDbLine
 62
250
  6
CONTINUOUS
 10
-7.2
 20
-14.1428570986
 11
-7.2
 21
-14.7
  0
LINE
  5
5B9
100
AcDbEntity
  8
CURVE
100
AcDbLine
 62
250
  6
CONTINUOUS
 10
-7.2
 20
-15.35
 11
-7.2
 21
-15.4428570986
  0
LWPOLYLINE
  5
5BA
100
AcDbEntity
  8
CURVE
100
AcDbPolyline
 62
250
  6
CONTINUOUS
 90
7
 70
0
 10
-7.9972576854
 20
-7.8642025902
 10
-7.9968027498
 20
-7.6863972607
 10
-7.9966524274
 20
-7.5348886325
 10
-7.9966871348
 20
-7.3658945803
 10
-7.9971805327
 20
-6.9988264028
 10
-7.9980207307
 20
-6.6319451266
 10
-8.0
 20
-5.9999466909
  0
LWPOLYLINE
  5
5BB
100
AcDbEntity
  8
CURVE
100
AcDbPolyline
 62
250
  6
CONTINUOUS
 90
15
 70
0
 10
-8.0026073454
 20
-8.1357956708
 10
-8.0020665133
 20
-8.086422636
 10
-8.0017115604
 20
-8.0681848952
 10
-8.001644767
 20
-8.0496903463
 10
-8.0017819114
 20
-8.0403940069
 10
-8.001735931
 20
-8.0312210212
 10
-8.001148037
 20
-8.0224422939
 10
-8.0006344956
 20
-8.0184972531
 10
-8.0001895328
 20
-8.0144854242
 10
-8.0000798735
 20
-8.0101936892
 10
-8.0005722425
 20
-8.0054089303
 10
-8.0009012105
 20
-8.0035608784
 10
-8.0010775613
 20
-8.0018067583
 10
-8.0008365178
 20
-8.0003316684
 10
-7.9999133027
 20
-7.9993207068
  0
LINE
  5
5BC
100
AcDbEntity
  8
DRAFT
100
AcDbLine
 62
7
  6
CONTINUOUS
 10
-8.4674550649
 20
-20.85
 11
-8.4579943206
 21
-20.3079943206
  0
LWPOLYLINE
  5
5BD
100
AcDbEntity
  8
CURVE
100
AcDbPolyline
 62
250
  6
CONTINUOUS
 90
54
 70
0
 10
-7.0092321733
 20
-9.1189141285
 10
-7.0096764803
 20
-9.1396564411
 10
-7.0110955897
 20
-9.160196905
 10
-7.0134627169
 20
-9.1805339322
 10
-7.0167510775
 20
-9.2006659347
 10
-7.0209338873
 20
-9.2205913245
 10
-7.0259843616
 20
-9.2403085137
 10
-7.0318757163
 20
-9.2598159143
 10
-7.0385811668
 20
-9.2791119383
 10
-7.0460739287
 20
-9.2981949979
 10
-7.0543272177
 20
-9.3170635049
 10
-7.0633142493
 20
-9.3357158714
 10
-7.0730082392
 20
-9.3541505096
 10
-7.0833824029
 20
-9.3723658313
 10
-7.0944099561
 20
-9.3903602487
 10
-7.1060641143
 20
-9.4081321737
 10
-7.1183180931
 20
-9.4256800185
 10
-7.1311451081
 20
-9.443002195
 10
-7.1445183749
 20
-9.4600971153
 10
-7.1584111092
 20
-9.4769631913
 10
-7.1727965265
 20
-9.4935988353
 10
-7.1876478424
 20
-9.5100024591
 10
-7.2029382725
 20
-9.5261724748
 10
-7.2186410324
 20
-9.5421072944
 10
-7.2347293377
 20
-9.55780533
 10
-7.2511764041
 20
-9.5732649937
 10
-7.267955447
 20
-9.5884846973
 10
-7.2850396821
 20
-9.6034628531
 10
-7.302402325
 20
-9.6181978729
 10
-7.3200165913
 20
-9.6326881689
 10
-7.3378556965
 20
-9.6469321531
 10
-7.3558928564
 20
-9.6609282374
 10
-7.3741012864
 20
-9.6746748341
 10
-7.3924542022
 20
-9.6881703549
 10
-7.4109248194
 20
-9.7014132121
 10
-7.4294863536
 20
-9.7144018177
 10
-7.4481120203
 20
-9.7271345836
 10
-7.4667750352
 20
-9.7396099219
 10
-7.4854486138
 20
-9.7518262447
 10
-7.5041059718
 20
-9.7637819639
 10
-7.5391225308
 20
-9.785580475
 10
-7.5740296465
 20
-9.8064840709
 10
-7.6088702351
 20
-9.8265267372
 10
-7.6436872131
 20
-9.8457424595
 10
-7.6785234967
 20
-9.8641652235
 10
-7.7134220022
 20
-9.8818290148
 10
-7.7484256462
 20
-9.898767819
 10
-7.7835773448
 20
-9.9150156218
 10
-7.8189200144
 20
-9.9306064087
 10
-7.8544965714
 20
-9.9455741656
 10
-7.8903499321
 20
-9.9599528778
 10
-7.9265230129
 20
-9.9737765312
 10
-7.9630587301
 20
-9.9870791113
 10
-8.0
 20
-9.9998946037
  0
LINE
  5
5BE
100
AcDbEntity
  8
ASSI
100
AcDbLine
 62
7
  6
CONTINUOUS
 10
-3.4
 20
22.3297297297
 11
-3.3633443637
 21
22.5
  0
LINE
  5
5BF
100
AcDbEntity
  8
CURVE
100
AcDbLine
 62
250
  6
CONTINUOUS
 10
-11.0733373821
 20
-9.611193
 11
-11.1062393363
 21
-9.735548
  0
LINE
  5
5C0
100
AcDbEntity
  8
ASSI
100
AcDbLine
 62
7
  6
CONTINUOUS
 10
2.7167632191
 20
21.6560705017
 11
2.9969695968
 21
22.2
  0
LINE
  5
5C1
100
AcDbEntity
  8
DRAFT
100
AcDbLine
 62
7
  6
CONTINUOUS
 10
8.4579943206
 20
20.3079943206
 11
8.45
 21
20.3
  0
LINE
  5
5C2
100
AcDbEntity
  8
CURVE
100
AcDbLine
 62
7
  6
CONTINUOUS
 10
-11.0959189283
 20
0.6727605515
 11
-11.0847125886
 21
0.6839668912
  0
LINE
  5
5C3
100
AcDbEntity
  8
RACCORDO
100
AcDbLine
 62
250
  6
CONTINUOUS
 10
9.1500761524
 20
20.9
 11
9.14134862
 21
20.8912724675
  0
LINE
  5
5C4
100
AcDbEntity
  8
CURVE
100
AcDbLine
 62
7
  6
CONTINUOUS
 10
-11.1017178512
 20
0.4569509145
 11
-11.0904971657
 21
0.4681716001
  0
LINE
  5
5C5
100
AcDbEntity
  8
ASSI
100
AcDbLine
 62
7
  6
CONTINUOUS
 10
4.75
 20
16.25
 11
4.25
 21
15.75
  0
LINE
  5
5C6
100
AcDbEntity
  8
CURVE
100
AcDbLine
 62
7
  6
CONTINUOUS
 10
-11.1075167742
 20
0.2411412776
 11
-11.0962817428
 21
0.2523763089
  0
LINE
  5
5C7
100
AcDbEntity
  8
CURVE
100
AcDbLine
 62
7
  6
CONTINUOUS
 10
-11.1133156972
 20
0.0253316406
 11
-11.1020663199
 21
0.0365810178
  0
LINE
  5
5C8
100
AcDbEntity
  8
CURVE
100
AcDbLine
 62
7
  6
CONTINUOUS
 10
-11.1191146202
 20
-0.1904779964
 11
-11.1078508971
 21
-0.1792142733
  0
LINE
  5
5C9
100
AcDbEntity
  8
RACCORDO
100
AcDbLine
 62
250
  6
CONTINUOUS
 10
9.65
 20
20.4000761524
 11
9.6412724675
 21
20.39134862
  0
LINE
  5
5CA
100
AcDbEntity
  8
CURVE
100
AcDbLine
 62
7
  6
CONTINUOUS
 10
-11.1238139027
 20
-0.405187993
 11
-11.1136354742
 21
-0.3950095644
  0
LINE
  5
5CB
100
AcDbEntity
  8
CURVE
100
AcDbLine
 62
7
  6
CONTINUOUS
 10
-11.1238139027
 20
-0.615198707
 11
-11.0732093358
 21
-0.5645941401
  0
LINE
  5
5CC
100
AcDbEntity
  8
CURVE
100
AcDbLine
 62
7
  6
CONTINUOUS
 10
-11.0742034817
 20
-0.775599
 11
-11.0732093358
 21
-0.7746048541
  0
LINE
  5
5CD
100
AcDbEntity
  8
CURVE
100
AcDbLine
 62
250
  6
CONTINUOUS
 10
10.3
 20
10.2142858028
 11
9.0
 21
9.8428570986
  0
LWPOLYLINE
  5
5CE
100
AcDbEntity
  8
CURVE
100
AcDbPolyline
 62
250
  6
CONTINUOUS
 90
34
 70
0
 10
-6.8810942443
 20
-7.0093294539
 10
-6.8952314375
 20
-7.0099352133
 10
-6.9092546928
 20
-7.0116154002
 10
-6.9231570651
 20
-7.0142706442
 10
-6.9369316096
 20
-7.0178015748
 10
-6.9505713809
 20
-7.0221088215
 10
-6.9640694341
 20
-7.0270930138
 10
-6.977418824
 20
-7.0326547813
 10
-6.9906126056
 20
-7.0386947534
 10
-7.0036438338
 20
-7.0451135596
 10
-7.0165055634
 20
-7.0518118296
 10
-7.0421026084
 20
-7.0659958843
 10
-7.0670472976
 20
-7.0808640327
 10
-7.0914152713
 20
-7.0963573144
 10
-7.1152821703
 20
-7.1124167685
 10
-7.1387236348
 20
-7.1289834345
 10
-7.1618153055
 20
-7.1459983519
 10
-7.1846328229
 20
-7.16340256
 10
-7.2226722545
 20
-7.1935203282
 10
-7.2601758343
 20
-7.2244673584
 10
-7.2971730478
 20
-7.2561321777
 10
-7.3336933807
 20
-7.2884033128
 10
-7.3697663186
 20
-7.3211692909
 10
-7.4172917282
 20
-7.3655368228
 10
-7.4641518937
 20
-7.4105318267
 10
-7.5104267785
 20
-7.4560981571
 10
-7.5561963463
 20
-7.5021796683
 10
-7.6142524618
 20
-7.561950819
 10
-7.6715958076
 20
-7.6224127703
 10
-7.7282132019
 20
-7.6835013379
 10
-7.7661464804
 20
-7.7251778809
 10
-7.8039074076
 20
-7.7671125466
 10
-7.8372972077
 20
-7.8045504849
 10
-7.8701071812
 20
-7.8422019456
  0
LWPOLYLINE
  5
5CF
100
AcDbEntity
  8
CURVE
100
AcDbPolyline
 62
250
  6
CONTINUOUS
 90
7
 70
0
 10
-10.0000443861
 20
-7.999991379
 10
-9.3680235268
 20
-7.9980455402
 10
-9.001133649
 20
-7.9972247511
 10
-8.6340618308
 20
-7.9967507745
 10
-8.4650688544
 20
-7.9967250098
 10
-8.3135637854
 20
-7.996883351
 10
-8.1357674009
 20
-7.9973464944
  0
LINE
  5
5D0
100
AcDbEntity
  8
CURVE
100
AcDbLine
 62
250
  6
CONTINUOUS
 10
-0.5
 20
-8.3517899598
 11
0.7142857432
 21
-8.3517899598
  0
LINE
  5
5D1
100
AcDbEntity
  8
CURVE
100
AcDbLine
 62
250
  6
CONTINUOUS
 10
-11.0262765981
 20
-7.91666646
 11
-11.0489647265
 21
-7.91666646
  0
LINE
  5
5D2
100
AcDbEntity
  8
CURVE
100
AcDbLine
 62
250
  6
CONTINUOUS
 10
3.12
 20
-7.907638
 11
4.139012
 21
-7.907638
  0
LINE
  5
5D3
100
AcDbEntity
  8
CURVE
100
AcDbLine
 62
250
  6
CONTINUOUS
 10
0.5928571284
 20
-7.8660755004
 11
-0.5
 21
-7.8660755004
  0
LINE
  5
5D4
100
AcDbEntity
  8
CURVE
100
AcDbLine
 62
250
  6
CONTINUOUS
 10
0.7142857432
 20
-7.2994089688
 11
-0.5
 21
-7.2994089688
  0
LINE
  5
5D5
100
AcDbEntity
  8
CURVE
100
AcDbLine
 62
250
  6
CONTINUOUS
 10
-11.0262765981
 20
-7.1738096714
 11
-11.0489647265
 21
-7.1738096714
  0
LINE
  5
5D6
100
AcDbEntity
  8
CURVE
100
AcDbLine
 62
250
  6
CONTINUOUS
 10
-0.5
 20
-6.7732184733
 11
0.7142857432
 21
-6.7732184733
  0
LWPOLYLINE
  5
5D7
100
AcDbEntity
  8
CURVE
100
AcDbPolyline
 62
250
  6
CONTINUOUS
 90
7
 70
0
 10
-7.8641937309
 20
-8.0026686954
 10
-7.6863883769
 20
-8.0031314576
 10
-7.5348797283
 20
-8.0032884548
 10
-7.3658856532
 20
-8.0032611974
 10
-6.998817426
 20
-8.0027839914
 10
-6.6319361001
 20
-8.0019599852
 10
-5.9999375788
 20
-8.0000086211
  0
LWPOLYLINE
  5
5D8
100
AcDbEntity
  8
CURVE
100
AcDbPolyline
 62
250
  6
CONTINUOUS
 90
15
 70
0
 10
-8.1357674009
 20
-7.9973464944
 10
-8.0863952258
 20
-7.9978822208
 10
-8.0681596129
 20
-7.9982354201
 10
-8.0496650033
 20
-7.998297735
 10
-8.0403681343
 20
-7.9981568427
 10
-8.0311956373
 20
-7.9981998373
 10
-8.0224206636
 20
-7.9987876846
 10
-8.0184795639
 20
-7.9993023653
 10
-8.0144711082
 20
-7.9997476957
 10
-8.0101804555
 20
-7.9998551315
 10
-8.005392765
 20
-7.9993561283
 10
-8.0035444702
 20
-7.9990239352
 10
-8.0017907136
 20
-7.9988446228
 10
-8.0003177577
 20
-7.9990838122
 10
-7.9993118654
 20
-8.0000071245
  0
LINE
  5
5D9
100
AcDbEntity
  8
CURVE
100
AcDbLine
 62
250
  6
CONTINUOUS
 10
-7.7571428239
 20
-4.2916710127
 11
-7.2
 21
-4.6631006468
  0
LINE
  5
5DA
100
AcDbEntity
  8
DRAFT
100
AcDbLine
 62
7
  6
CONTINUOUS
 10
8.4579943206
 20
-20.3079943206
 11
8.45
 21
-20.3
  0
LINE
  5
5DB
100
AcDbEntity
  8
RACCORDO
100
AcDbLine
 62
250
  6
CONTINUOUS
 10
9.1500761524
 20
-20.9
 11
9.14134862
 21
-20.8912724675
  0
LINE
  5
5DC
100
AcDbEntity
  8
RACCORDO
100
AcDbLine
 62
250
  6
CONTINUOUS
 10
9.65
 20
-20.4000761524
 11
9.6412724675
 21
-20.39134862
  0
LINE
  5
5DD
100
AcDbEntity
  8
ASSI
100
AcDbLine
 62
7
  6
CONTINUOUS
 10
2.7167632191
 20
-21.6560705017
 11
2.9969695968
 21
-22.2
  0
LWPOLYLINE
  5
5DE
100
AcDbEntity
  8
CURVE
100
AcDbPolyline
 62
250
  6
CONTINUOUS
 90
54
 70
0
 10
-5.9999375788
 20
-8.0000086211
 10
-6.0127529066
 20
-7.9630696492
 10
-6.0260555397
 20
-7.9265360936
 10
-6.0398794601
 20
-7.890365105
 10
-6.0542586499
 20
-7.8545138339
 10
-6.069227091
 20
-7.8189394311
 10
-6.0848187653
 20
-7.7835990473
 10
-6.1010676548
 20
-7.7484498332
 10
-6.1180077414
 20
-7.7134489395
 10
-6.1356730073
 20
-7.6785535168
 10
-6.1540974342
 20
-7.6437207159
 10
-6.1733150042
 20
-7.6089076873
 10
-6.1933596992
 20
-7.5740715819
 10
-6.2142655012
 20
-7.5391695503
 10
-6.2360663922
 20
-7.5041587432
 10
-6.2480256534
 20
-7.4855013182
 10
-6.2602456534
 20
-7.4668278548
 10
-6.2727247957
 20
-7.4481651278
 10
-6.2854614838
 20
-7.4295399118
 10
-6.298454121
 20
-7.4109789817
 10
-6.3117011109
 20
-7.3925091123
 10
-6.3252008569
 20
-7.3741570784
 10
-6.3389517625
 20
-7.3559496547
 10
-6.3529522311
 20
-7.3379136161
 10
-6.3672006662
 20
-7.3200757373
 10
-6.3816954712
 20
-7.3024627931
 10
-6.3964350497
 20
-7.2851015584
 10
-6.4114178049
 20
-7.2680188078
 10
-6.4266421405
 20
-7.2512413163
 10
-6.4421064599
 20
-7.2347958585
 10
-6.4578091665
 20
-7.2187092092
 10
-6.4737486638
 20
-7.2030081434
 10
-6.4899233552
 20
-7.1877194356
 10
-6.5063316442
 20
-7.1728698608
 10
-6.5229719343
 20
-7.1584861938
 10
-6.5398426289
 20
-7.1445952092
 10
-6.5569421314
 20
-7.1312236819
 10
-6.5742688454
 20
-7.1183983867
 10
-6.5918211743
 20
-7.1061460984
 10
-6.6095975215
 20
-7.0944935917
 10
-6.6275962905
 20
-7.0834676415
 10
-6.6458158848
 20
-7.0730950225
 10
-6.6642547077
 20
-7.0634025095
 10
-6.6829111629
 20
-7.0544168774
 10
-6.7017836537
 20
-7.0461649008
 10
-6.7208705835
 20
-7.0386733547
 10
-6.7401703559
 20
-7.0319690137
 10
-6.7596813743
 20
-7.0260786526
 10
-6.7794020422
 20
-7.0210290464
 10
-6.799330763
 20
-7.0168469697
 10
-6.8194659401
 20
-7.0135591973
 10
-6.8398059771
 20
-7.011192504
 10
-6.8603492773
 20
-7.0097736646
 10
-6.8810942443
 20
-7.0093294539
  0
LINE
  5
5DF
100
AcDbEntity
  8
ASSI
100
AcDbLine
 62
7
  6
CONTINUOUS
 10
-3.4
 20
-22.3297297297
 11
-3.3633443637
 21
-22.5
  0
LWPOLYLINE
  5
5E0
100
AcDbEntity
  8
RACCORDO
100
AcDbPolyline
 62
7
  6
CONTINUOUS
 90
13
 70
0
 10
-3.2153472641
 20
-23.175
 10
-3.2131150485
 20
-23.2023154886
 10
-3.2073236856
 20
-23.2285494758
 10
-3.1982225069
 20
-23.2533879651
 10
-3.1861669605
 20
-23.2765578149
 10
-3.1714546095
 20
-23.2978303483
 10
-3.1542040554
 20
-23.3169684264
 10
-3.1345623134
 20
-23.3338308467
 10
-3.1129854998
 20
-23.3481301358
 10
-3.0900559384
 20
-23.3594581838
 10
-3.0662655766
 20
-23.3676758504
 10
-3.0419540136
 20
-23.3728513467
 10
-3.01751471
 20
-23.375
  0
LINE
  5
5E1
100
AcDbEntity
  8
ASSI
100
AcDbLine
 62
250
  6
CONTINUOUS
 10
-5.7
 20
-18.6
 11
-5.7
 21
-18.2130903017
  0
LWPOLYLINE
  5
5E2
100
AcDbEntity
  8
RACCORDO
100
AcDbPolyline
 62
7
  6
CONTINUOUS
 90
13
 70
0
 10
-3.2153472641
 20
23.175
 10
-3.2131100496
 20
23.2020514775
 10
-3.2073396162
 20
23.2283050682
 10
-3.1982549228
 20
23.2533142892
 10
-3.1861617001
 20
23.276613212
 10
-3.1713514059
 20
23.2979354703
 10
-3.1540080817
 20
23.3171599961
 10
-3.1344555831
 20
23.3339738559
 10
-3.1130141512
 20
23.3481421414
 10
-3.0897708658
 20
23.3595767451
 10
-3.0649733181
 20
23.3680348828
 10
-3.039098628
 20
23.3732357558
 10
-3.0125761674
 20
23.375
  0
LINE
  5
5E3
100
AcDbEntity
  8
IMPORT_IGES
100
AcDbLine
 62
7
  6
CONTINUOUS
 10
4.006
 20
10.75
 11
3.796
 21
10.6
  0
LINE
  5
5E4
100
AcDbEntity
  8
CURVE
100
AcDbLine
 62
250
  6
CONTINUOUS
 10
9.185714294
 20
11.1428570986
 11
9.371428588
 21
11.2357143521
  0
LINE
  5
5E5
100
AcDbEntity
  8
CURVE
100
AcDbLine
 62
250
  6
CONTINUOUS
 10
-7.2
 20
2.0226141702
 11
-8.5
 21
1.3726141702
  0
LINE
  5
5E6
100
AcDbEntity
  8
CURVE
100
AcDbLine
 62
250
  6
CONTINUOUS
 10
10.1142857254
 20
10.6785714507
 11
9.9285714507
 21
10.5857143521
  0
LINE
  5
5E7
100
AcDbEntity
  8
CURVE
100
AcDbLine
 62
250
  6
CONTINUOUS
 10
-11.0457235655
 20
-6.5238096714
 11
-11.0392412435
 21
-6.5238096714
  0
LINE
  5
5E8
100
AcDbEntity
  8
CURVE
100
AcDbLine
 62
250
  6
CONTINUOUS
 10
-11.1233444407
 20
-6.3615673444
 11
-11.073337376
 21
-6.3615673444
  0
LINE
  5
5E9
100
AcDbEntity
  8
CURVE
100
AcDbLine
 62
250
  6
CONTINUOUS
 10
-11.0295177595
 20
-6.1523806572
 11
-11.0457235655
 21
-6.1523806572
  0
LINE
  5
5EA
100
AcDbEntity
  8
CURVE
100
AcDbLine
 62
250
  6
CONTINUOUS
 10
-11.10142549
 20
-5.7788012718
 11
-11.1153156878
 21
-5.7788012718
  0
LINE
  5
5EB
100
AcDbEntity
  8
CURVE
100
AcDbLine
 62
250
  6
CONTINUOUS
 10
-11.073337376
 20
-5.7587313832
 11
-11.0931387242
 21
-5.7587313832
  0
LINE
  5
5EC
100
AcDbEntity
  8
CURVE
100
AcDbLine
 62
250
  6
CONTINUOUS
 10
-11.0457235655
 20
-5.5023806572
 11
-11.0295177595
 21
-5.5023806572
  0
LINE
  5
5ED
100
AcDbEntity
  8
CURVE
100
AcDbLine
 62
250
  6
CONTINUOUS
 10
-11.0489647265
 20
-5.1309522629
 11
-11.0262765981
 21
-5.1309522629
  0
LINE
  5
5EE
100
AcDbEntity
  8
RACCORDO
100
AcDbLine
 62
7
  6
CONTINUOUS
 10
-3.2320105844
 20
-21.4291186386
 11
-3.2313419064
 21
-21.4548888189
  0
LINE
  5
5EF
100
AcDbEntity
  8
RACCORDO
100
AcDbLine
 62
7
  6
CONTINUOUS
 10
-3.2313419064
 20
-21.4548888189
 11
-3.2308227979
 21
-21.4835710344
  0
LINE
  5
5F0
100
AcDbEntity
  8
RACCORDO
100
AcDbLine
 62
7
  6
CONTINUOUS
 10
-3.2308227979
 20
-21.4835710344
 11
-3.2304595672
 21
-21.5140702787
  0
LWPOLYLINE
  5
5F1
100
AcDbEntity
  8
RACCORDO
100
AcDbPolyline
 62
7
  6
CONTINUOUS
 90
3
 70
0
 10
-3.2304595672
 20
-21.5140702787
 10
-3.2301861319
 20
-21.5605968482
 10
-3.230156515
 20
-21.5755190836
  0
LINE
  5
5F2
100
AcDbEntity
  8
ASSI
100
AcDbLine
 62
7
  6
CONTINUOUS
 10
-4.7
 20
-18.6
 11
-4.7
 21
-18.2130903017
  0
LINE
  5
5F3
100
AcDbEntity
  8
ASSI
100
AcDbLine
 62
7
  6
CONTINUOUS
 10
-4.0130903017
 20
19.3131017248
 11
-4.0130903017
 21
18.5130788786
  0
LINE
  5
5F4
100
AcDbEntity
  8
ASSI
100
AcDbLine
 62
7
  6
CONTINUOUS
 10
-4.0130903017
 20
-19.3131017248
 11
-4.0130903017
 21
-18.2130903017
  0
LINE
  5
5F5
100
AcDbEntity
  8
CURVE
100
AcDbLine
 62
250
  6
CONTINUOUS
 10
-3.5
 20
-10.1017899598
 11
-3.5
 21
-15.3517899598
  0
LINE
  5
5F6
100
AcDbEntity
  8
ASSI
100
AcDbLine
 62
7
  6
CONTINUOUS
 10
-3.4
 20
23.4301797403
 11
-3.4
 21
21.2
  0
LINE
  5
5F7
100
AcDbEntity
  8
ASSI
100
AcDbLine
 62
7
  6
CONTINUOUS
 10
-3.4
 20
-23.4301797403
 11
-3.4
 21
-21.2
  0
LINE
  5
5F8
100
AcDbEntity
  8
ASSI
100
AcDbLine
 62
7
  6
CONTINUOUS
 10
-3.3633443637
 20
-22.5
 11
-3.3633443637
 21
-23.4668353766
  0
LINE
  5
5F9
100
AcDbEntity
  8
ASSI
100
AcDbLine
 62
7
  6
CONTINUOUS
 10
-3.3633443637
 20
22.5
 11
-3.3633443637
 21
23.4668353766
  0
LINE
  5
5FA
100
AcDbEntity
  8
ASSI
100
AcDbLine
 62
7
  6
CONTINUOUS
 10
-3.3
 20
-22.4
 11
-3.3
 21
-21.9098076211
  0
LINE
  5
5FB
100
AcDbEntity
  8
RACCORDO
100
AcDbLine
 62
7
  6
CONTINUOUS
 10
-3.3
 20
-21.3901923789
 11
-3.3
 21
-21.190690632
  0
LINE
  5
5FC
100
AcDbEntity
  8
RACCORDO
100
AcDbLine
 62
7
  6
CONTINUOUS
 10
-3.3
 20
21.190690632
 11
-3.3
 21
21.3901923789
  0
LINE
  5
5FD
100
AcDbEntity
  8
ASSI
100
AcDbLine
 62
7
  6
CONTINUOUS
 10
-3.3
 20
21.9098076211
 11
-3.3
 21
22.4
  0
LINE
  5
5FE
100
AcDbEntity
  8
RACCORDO
100
AcDbLine
 62
7
  6
CONTINUOUS
 10
-3.2301555185
 20
21.5762436163
 11
-3.2303233043
 21
21.5320892811
  0
LINE
  5
5FF
100
AcDbEntity
  8
RACCORDO
100
AcDbLine
 62
7
  6
CONTINUOUS
 10
-3.2303233043
 20
21.5320892811
 11
-3.2305891369
 21
21.501287084
  0
LINE
  5
600
100
AcDbEntity
  8
RACCORDO
100
AcDbLine
 62
7
  6
CONTINUOUS
 10
-3.2305891369
 20
21.501287084
 11
-3.2310132639
 21
21.471717005
  0
LWPOLYLINE
  5
601
100
AcDbEntity
  8
RACCORDO
100
AcDbPolyline
 62
7
  6
CONTINUOUS
 90
13
 70
0
 10
-3.2310132639
 20
21.471717005
 10
-3.2315881071
 20
21.444395305
 10
-3.2319318638
 20
21.4317239433
 10
-3.2323069457
 20
21.419974904
 10
-3.23271029
 20
21.4092061023
 10
-3.2331449594
 20
21.3993596229
 10
-3.2336144326
 20
21.3905359827
 10
-3.2341208504
 20
21.3826331147
 10
-3.234662072
 20
21.3757530858
 10
-3.2352351536
 20
21.3703026142
 10
-3.235839114
 20
21.3664172724
 10
-3.2364749344
 20
21.3639614879
 10
-3.2371426149
 20
21.3629352605
  0
LINE
  5
602
100
AcDbEntity
  8
ASSI
100
AcDbLine
 62
250
  6
CONTINUOUS
 10
3.6748574782
 20
23.5
 11
3.653791075
 21
23.4301797403
  0
LINE
  5
603
100
AcDbEntity
  8
ASSI
100
AcDbLine
 62
7
  6
CONTINUOUS
 10
-0.25
 20
6.75
 11
0.25
 21
7.25
  0
LINE
  5
604
100
AcDbEntity
  8
ASSI
100
AcDbLine
 62
7
  6
CONTINUOUS
 10
4.75
 20
11.25
 11
4.25
 21
10.75
  0
LINE
  5
605
100
AcDbEntity
  8
CURVE
100
AcDbLine
 62
250
  6
CONTINUOUS
 10
7.65
 20
13.3214285553
 11
7.3785714447
 21
13.05
  0
LINE
  5
606
100
AcDbEntity
  8
CURVE
100
AcDbLine
 62
250
  6
CONTINUOUS
 10
7.65
 20
9.0
 11
5.75
 21
8.05
  0
LINE
  5
607
100
AcDbEntity
  8
CURVE
100
AcDbLine
 62
250
  6
CONTINUOUS
 10
-0.2571428463
 20
-4.9517899598
 11
0.2285714358
 21
-4.9517899598
  0
LINE
  5
608
100
AcDbEntity
  8
CURVE
100
AcDbLine
 62
250
  6
CONTINUOUS
 10
-11.0969561761
 20
-4.80544429
 11
-11.0972551675
 21
-4.80544429
  0
LINE
  5
609
100
AcDbEntity
  8
CURVE
100
AcDbLine
 62
250
  6
CONTINUOUS
 10
-7.7571428239
 20
-4.2916710127
 11
-8.5
 21
-4.2916710127
  0
LINE
  5
60A
100
AcDbEntity
  8
CURVE
100
AcDbLine
 62
250
  6
CONTINUOUS
 10
0.35
 20
-4.1017899598
 11
-0.2571428463
 21
-4.1017899598
  0
LINE
  5
60B
100
AcDbEntity
  8
CURVE
100
AcDbLine
 62
250
  6
CONTINUOUS
 10
-1.0
 20
-4.1017899598
 11
-3.0
 21
-4.1017899598
  0
LINE
  5
60C
100
AcDbEntity
  8
ASSI
100
AcDbLine
 62
7
  6
CONTINUOUS
 10
4.75
 20
-3.5
 11
-0.25
 21
-3.5
  0
LINE
  5
60D
100
AcDbEntity
  8
CURVE
100
AcDbLine
 62
250
  6
CONTINUOUS
 10
-8.5
 20
-1.9702432383
 11
-7.2
 21
-2.3416710127
  0
LINE
  5
60E
100
AcDbEntity
  8
CURVE
100
AcDbLine
 62
250
  6
CONTINUOUS
 10
0.8357142568
 20
-4.3446471135
 11
0.35
 21
-4.1017899598
  0
LINE
  5
60F
100
AcDbEntity
  8
CURVE
100
AcDbLine
 62
250
  6
CONTINUOUS
 10
-0.5
 20
-4.7089328314
 11
-0.2571428463
 21
-4.9517899598
  0
LINE
  5
610
100
AcDbEntity
  8
ASSI
100
AcDbLine
 62
250
  6
CONTINUOUS
 10
3.6748574782
 20
-23.5
 11
3.653791075
 21
-23.4301797403
  0
LINE
  5
611
100
AcDbEntity
  8
RACCORDO
100
AcDbLine
 62
250
  6
CONTINUOUS
 10
-3.2153472641
 20
23.175
 11
-3.1705494094
 21
21.8921572875
  0
LINE
  5
612
100
AcDbEntity
  8
RACCORDO
100
AcDbLine
 62
250
  6
CONTINUOUS
 10
-3.01751471
 20
23.375
 11
-2.9765077582
 21
22.2007145431
  0
LINE
  5
613
100
AcDbEntity
  8
ASSI
100
AcDbLine
 62
7
  6
CONTINUOUS
 10
-1.990977166
 20
-17.259022834
 11
-1.9830904059
 21
-17.5
  0
LINE
  5
614
100
AcDbEntity
  8
RACCORDO
100
AcDbLine
 62
7
  6
CONTINUOUS
 10
-3.2320105844
 20
21.8708813614
 11
-3.2313419064
 21
21.8451111811
  0
LINE
  5
615
100
AcDbEntity
  8
RACCORDO
100
AcDbLine
 62
7
  6
CONTINUOUS
 10
-3.2313419064
 20
21.8451111811
 11
-3.2308227979
 21
21.8164289656
  0
LINE
  5
616
100
AcDbEntity
  8
RACCORDO
100
AcDbLine
 62
7
  6
CONTINUOUS
 10
-3.2308227979
 20
21.8164289656
 11
-3.2304595672
 21
21.7859297213
  0
LINE
  5
617
100
AcDbEntity
  8
RACCORDO
100
AcDbLine
 62
7
  6
CONTINUOUS
 10
-3.2304595672
 20
21.7859297213
 11
-3.2301861319
 21
21.7394031518
  0
LINE
  5
618
100
AcDbEntity
  8
RACCORDO
100
AcDbLine
 62
7
  6
CONTINUOUS
 10
-3.230158461
 20
-23.175
 11
-3.230158461
 21
-22.5048155586
  0
LINE
  5
619
100
AcDbEntity
  8
RACCORDO
100
AcDbLine
 62
7
  6
CONTINUOUS
 10
-3.230158461
 20
22.5048155586
 11
-3.230158461
 21
23.175
  0
LINE
  5
61A
100
AcDbEntity
  8
RACCORDO
100
AcDbLine
 62
250
  6
CONTINUOUS
 10
-3.1705494094
 20
21.8921572875
 11
-3.1705494094
 21
21.1786396002
  0
LINE
  5
61B
100
AcDbEntity
  8
RACCORDO
100
AcDbLine
 62
250
  6
CONTINUOUS
 10
-3.1705494094
 20
-21.1786396002
 11
-3.1705494094
 21
-21.8921572875
  0
LINE
  5
61C
100
AcDbEntity
  8
ASSI
100
AcDbLine
 62
7
  6
CONTINUOUS
 10
-3.0812528557
 20
22.2
 11
-3.0812528557
 21
21.1703266555
  0
LINE
  5
61D
100
AcDbEntity
  8
ASSI
100
AcDbLine
 62
7
  6
CONTINUOUS
 10
-3.0812528557
 20
-22.2
 11
-3.0812528557
 21
-21.1703266555
  0
LINE
  5
61E
100
AcDbEntity
  8
CURVE
100
AcDbLine
 62
250
  6
CONTINUOUS
 10
-3.0
 20
-4.1017899598
 11
-3.0
 21
-10.1017899598
  0
LINE
  5
61F
100
AcDbEntity
  8
CURVE
100
AcDbLine
 62
250
  6
CONTINUOUS
 10
-2.9
 20
-4.1017899598
 11
-2.9
 21
-10.1017899598
  0
LINE
  5
620
100
AcDbEntity
  8
CURVE
100
AcDbLine
 62
250
  6
CONTINUOUS
 10
-2.8
 20
-4.1017899598
 11
-2.8
 21
-10.1017899598
  0
LINE
  5
621
100
AcDbEntity
  8
CURVE
100
AcDbLine
 62
250
  6
CONTINUOUS
 10
-2.7
 20
-4.1017899598
 11
-2.7
 21
-10.1017899598
  0
LINE
  5
622
100
AcDbEntity
  8
ASSI
100
AcDbLine
 62
7
  6
CONTINUOUS
 10
-2.6312329953
 20
-18.3636248878
 11
-2.6312329953
 21
-16.4687670047
  0
LINE
  5
623
100
AcDbEntity
  8
CURVE
100
AcDbLine
 62
250
  6
CONTINUOUS
 10
-2.6
 20
-4.1017899598
 11
-2.6
 21
-10.1017899598
  0
LINE
  5
624
100
AcDbEntity
  8
CURVE
100
AcDbLine
 62
250
  6
CONTINUOUS
 10
-2.5
 20
-4.1017899598
 11
-2.5
 21
-10.1017899598
  0
LINE
  5
625
100
AcDbEntity
  8
ASSI
100
AcDbLine
 62
7
  6
CONTINUOUS
 10
-2.5
 20
-18.2625577096
 11
-2.5
 21
-18.2
  0
LINE
  5
626
100
AcDbEntity
  8
ASSI
100
AcDbLine
 62
7
  6
CONTINUOUS
 10
-2.5
 20
-17.5
 11
-2.5
 21
-16.6
  0
LINE
  5
627
100
AcDbEntity
  8
ASSI
100
AcDbLine
 62
7
  6
CONTINUOUS
 10
-2.5
 20
16.6
 11
-2.5
 21
18.5208065713
  0
LINE
  5
628
100
AcDbEntity
  8
CURVE
100
AcDbLine
 62
250
  6
CONTINUOUS
 10
-2.4
 20
-4.1017899598
 11
-2.4
 21
-10.1017899598
  0
LINE
  5
629
100
AcDbEntity
  8
CURVE
100
AcDbLine
 62
250
  6
CONTINUOUS
 10
-2.3
 20
-4.1017899598
 11
-2.3
 21
-10.1017899598
  0
LINE
  5
62A
100
AcDbEntity
  8
CURVE
100
AcDbLine
 62
250
  6
CONTINUOUS
 10
-2.2
 20
-4.1017899598
 11
-2.2
 21
-10.1017899598
  0
LINE
  5
62B
100
AcDbEntity
  8
CURVE
100
AcDbLine
 62
250
  6
CONTINUOUS
 10
-2.1
 20
-4.1017899598
 11
-2.1
 21
-10.1017899598
  0
LINE
  5
62C
100
AcDbEntity
  8
0
100
AcDbLine
 62
7
  6
CONTINUOUS
 10
-2.1
 20
18.2
 11
-2.1
 21
18.25
  0
LINE
  5
62D
100
AcDbEntity
  8
CURVE
100
AcDbLine
 62
250
  6
CONTINUOUS
 10
-2.0
 20
-4.1017899598
 11
-2.0
 21
-10.1017899598
  0
LINE
  5
62E
100
AcDbEntity
  8
ASSI
100
AcDbLine
 62
7
  6
CONTINUOUS
 10
-2.0
 20
-17.5
 11
-2.0
 21
-17.25
  0
LINE
  5
62F
100
AcDbEntity
  8
ASSI
100
AcDbLine
 62
7
  6
CONTINUOUS
 10
-2.0
 20
17.25
 11
-2.0
 21
17.5
  0
LINE
  5
630
100
AcDbEntity
  8
ASSI
100
AcDbLine
 62
7
  6
CONTINUOUS
 10
-2.0
 20
18.2
 11
-2.0
 21
18.25
  0
LINE
  5
631
100
AcDbEntity
  8
ASSI
100
AcDbLine
 62
7
  6
CONTINUOUS
 10
-1.9812802806
 20
-18.3
 11
-1.9812802806
 21
-18.2
  0
LINE
  5
632
100
AcDbEntity
  8
ASSI
100
AcDbLine
 62
7
  6
CONTINUOUS
 10
-1.9725314142
 20
-18.3017455065
 11
-1.9725314142
 21
-18.2
  0
LINE
  5
633
100
AcDbEntity
  8
ASSI
100
AcDbLine
 62
7
  6
CONTINUOUS
 10
-1.9650898701
 20
18.2849101299
 11
-1.9650898701
 21
18.2
  0
LINE
  5
634
100
AcDbEntity
  8
ASSI
100
AcDbLine
 62
7
  6
CONTINUOUS
 10
-1.9026954241
 20
18.3
 11
-1.9026954241
 21
18.2
  0
LINE
  5
635
100
AcDbEntity
  8
CURVE
100
AcDbLine
 62
250
  6
CONTINUOUS
 10
-1.9
 20
-4.1017899598
 11
-1.9
 21
-10.1017899598
  0
LINE
  5
636
100
AcDbEntity
  8
ASSI
100
AcDbLine
 62
7
  6
CONTINUOUS
 10
-1.8939465578
 20
18.2
 11
-1.8939465578
 21
18.3017455065
  0
LINE
  5
637
100
AcDbEntity
  8
CURVE
100
AcDbLine
 62
250
  6
CONTINUOUS
 10
-1.8
 20
-4.1017899598
 11
-1.8
 21
-10.1017899598
  0
LINE
  5
638
100
AcDbEntity
  8
CURVE
100
AcDbLine
 62
250
  6
CONTINUOUS
 10
-1.7
 20
-4.1017899598
 11
-1.7
 21
-10.1017899598
  0
LINE
  5
639
100
AcDbEntity
  8
CURVE
100
AcDbLine
 62
250
  6
CONTINUOUS
 10
-1.6
 20
-4.1017899598
 11
-1.6
 21
-10.1017899598
  0
LINE
  5
63A
100
AcDbEntity
  8
RACCORDO
100
AcDbLine
 62
7
  6
CONTINUOUS
 10
-3.2301861319
 20
21.7394031518
 11
-3.2301555185
 21
21.5762436163
  0
LINE
  5
63B
100
AcDbEntity
  8
RACCORDO
100
AcDbLine
 62
7
  6
CONTINUOUS
 10
-3.230156515
 20
-21.5755190836
 11
-3.2302392996
 21
-21.7527159386
  0
LINE
  5
63C
100
AcDbEntity
  8
RACCORDO
100
AcDbLine
 62
7
  6
CONTINUOUS
 10
-3.2302392996
 20
-21.7527159386
 11
-3.2304371978
 21
-21.7834465185
  0
LINE
  5
63D
100
AcDbEntity
  8
RACCORDO
100
AcDbLine
 62
7
  6
CONTINUOUS
 10
-3.2304371978
 20
-21.7834465185
 11
-3.2307821776
 21
-21.8136326566
  0
LINE
  5
63E
100
AcDbEntity
  8
RACCORDO
100
AcDbLine
 62
7
  6
CONTINUOUS
 10
-3.2307821776
 20
-21.8136326566
 11
-3.231281385
 21
-21.8422852739
  0
LWPOLYLINE
  5
63F
100
AcDbEntity
  8
RACCORDO
100
AcDbPolyline
 62
7
  6
CONTINUOUS
 90
12
 70
0
 10
-3.231281385
 20
-21.8422852739
 10
-3.2319318638
 20
-21.8682760567
 10
-3.2323069457
 20
-21.880025096
 10
-3.23271029
 20
-21.8907938977
 10
-3.2331449594
 20
-21.9006403771
 10
-3.2336144326
 20
-21.9094640173
 10
-3.2341208504
 20
-21.9173668853
 10
-3.234662072
 20
-21.9242469142
 10
-3.2352351536
 20
-21.9296973858
 10
-3.235839114
 20
-21.9335827276
 10
-3.2364749344
 20
-21.9360385121
 10
-3.2371426149
 20
-21.9370647395
  0
LINE
  5
640
100
AcDbEntity
  8
ASSI
100
AcDbLine
 62
7
  6
CONTINUOUS
 10
-1.9830904059
 20
17.5
 11
-1.990977166
 21
17.259022834
  0
LINE
  5
641
100
AcDbEntity
  8
RACCORDO
100
AcDbLine
 62
250
  6
CONTINUOUS
 10
-3.1705494094
 20
-21.8921572875
 11
-3.2153472641
 21
-23.175
  0
LINE
  5
642
100
AcDbEntity
  8
RACCORDO
100
AcDbLine
 62
250
  6
CONTINUOUS
 10
-2.9765077582
 20
-22.2007145431
 11
-3.01751471
 21
-23.375
  0
LINE
  5
643
100
AcDbEntity
  8
ASSI
100
AcDbLine
 62
250
  6
CONTINUOUS
 10
4.2275426698
 20
23.3333596575
 11
4.2071270357
 21
23.2631073618
  0
LINE
  5
644
100
AcDbEntity
  8
IMPORT_IGES
100
AcDbLine
 62
7
  6
CONTINUOUS
 10
4.006
 20
5.75
 11
3.796
 21
5.6
  0
LINE
  5
645
100
AcDbEntity
  8
IMPORT_IGES
100
AcDbLine
 62
7
  6
CONTINUOUS
 10
0.796
 20
-2.1
 11
0.25
 21
-2.2419483914
  0
LINE
  5
646
100
AcDbEntity
  8
ASSI
100
AcDbLine
 62
7
  6
CONTINUOUS
 10
-10.7130788782
 20
-3.15
 11
-9.8
 21
-3.15
  0
LINE
  5
647
100
AcDbEntity
  8
CURVE
100
AcDbLine
 62
250
  6
CONTINUOUS
 10
-7.2
 20
-3.0845290411
 11
-8.5
 21
-3.0845290411
  0
LINE
  5
648
100
AcDbEntity
  8
ASSI
100
AcDbLine
 62
7
  6
CONTINUOUS
 10
4.25
 20
-3.0
 11
0.25
 21
-3.0
  0
LINE
  5
649
100
AcDbEntity
  8
IMPORT_IGES
100
AcDbLine
 62
7
  6
CONTINUOUS
 10
4.25
 20
-2.6
 11
0.25
 21
-2.6
  0
LINE
  5
64A
100
AcDbEntity
  8
IMPORT_IGES
100
AcDbLine
 62
7
  6
CONTINUOUS
 10
3.796
 20
-2.1
 11
0.796
 21
-2.1
  0
LINE
  5
64B
100
AcDbEntity
  8
CURVE
100
AcDbLine
 62
250
  6
CONTINUOUS
 10
5.209722
 20
-7.624378
 11
10.22
 21
-12.56101
  0
LINE
  5
64C
100
AcDbEntity
  8
CURVE
100
AcDbLine
 62
250
  6
CONTINUOUS
 10
1.2
 20
-4.7089328314
 11
0.8357142568
 21
-4.3446471135
  0
LINE
  5
64D
100
AcDbEntity
  8
CURVE
100
AcDbLine
 62
250
  6
CONTINUOUS
 10
-8.314285706
 20
5.3345190059
 11
-8.5
 21
5.5202332031
  0
LINE
  5
64E
100
AcDbEntity
  8
ASSI
100
AcDbLine
 62
250
  6
CONTINUOUS
 10
4.2275426698
 20
-23.3333596575
 11
4.2071270357
 21
-23.2631073618
  0
LINE
  5
64F
100
AcDbEntity
  8
CURVE
100
AcDbLine
 62
250
  6
CONTINUOUS
 10
-1.5
 20
-4.1017899598
 11
-1.5
 21
-10.1017899598
  0
LINE
  5
650
100
AcDbEntity
  8
CURVE
100
AcDbLine
 62
250
  6
CONTINUOUS
 10
-1.4
 20
-4.1017899598
 11
-1.4
 21
-10.1017899598
  0
LINE
  5
651
100
AcDbEntity
  8
CURVE
100
AcDbLine
 62
250
  6
CONTINUOUS
 10
-1.3
 20
-4.1017899598
 11
-1.3
 21
-10.1017899598
  0
LINE
  5
652
100
AcDbEntity
  8
CURVE
100
AcDbLine
 62
250
  6
CONTINUOUS
 10
-1.2
 20
-4.1017899598
 11
-1.2
 21
-10.1017899598
  0
LINE
  5
653
100
AcDbEntity
  8
CURVE
100
AcDbLine
 62
250
  6
CONTINUOUS
 10
-1.1
 20
-4.1017899598
 11
-1.1
 21
-10.1017899598
  0
LINE
  5
654
100
AcDbEntity
  8
CURVE
100
AcDbLine
 62
250
  6
CONTINUOUS
 10
-1.0
 20
-10.1017899598
 11
-1.0
 21
-4.1017899598
  0
LINE
  5
655
100
AcDbEntity
  8
CURVE
100
AcDbLine
 62
250
  6
CONTINUOUS
 10
-0.5
 20
-4.3446471135
 11
-0.5
 21
-4.7089328314
  0
LINE
  5
656
100
AcDbEntity
  8
CURVE
100
AcDbLine
 62
250
  6
CONTINUOUS
 10
-0.5
 20
-15.3517899598
 11
-0.5
 21
-10.1017899598
  0
LINE
  5
657
100
AcDbEntity
  8
ASSI
100
AcDbLine
 62
7
  6
CONTINUOUS
 10
-0.25
 20
-3.5
 11
-0.25
 21
1.5
  0
LINE
  5
658
100
AcDbEntity
  8
ASSI
100
AcDbLine
 62
7
  6
CONTINUOUS
 10
-0.25
 20
1.75
 11
-0.25
 21
6.25
  0
LINE
  5
659
100
AcDbEntity
  8
ASSI
100
AcDbLine
 62
7
  6
CONTINUOUS
 10
-0.25
 20
6.75
 11
-0.25
 21
11.25
  0
LINE
  5
65A
100
AcDbEntity
  8
ASSI
100
AcDbLine
 62
7
  6
CONTINUOUS
 10
-0.25
 20
11.75
 11
-0.25
 21
16.25
  0
LINE
  5
65B
100
AcDbEntity
  8
ASSI
100
AcDbLine
 62
7
  6
CONTINUOUS
 10
2.7167632191
 20
21.6560705017
 11
2.6175930356
 21
21.1271628567
  0
LINE
  5
65C
100
AcDbEntity
  8
ASSI
100
AcDbLine
 62
7
  6
CONTINUOUS
 10
6.9080597678
 20
21.1301797403
 11
6.9339198284
 21
21.2
  0
LWPOLYLINE
  5
65D
100
AcDbEntity
  8
CURVE
100
AcDbPolyline
 62
250
  6
CONTINUOUS
 90
4
 70
0
 10
-7.8701071812
 20
-7.8422019456
 10
-7.9061783655
 20
-7.884591989
 10
-7.9248488097
 20
-7.9059029905
 10
-7.9425447461
 20
-7.9256009644
  0
LWPOLYLINE
  5
65E
100
AcDbEntity
  8
CURVE
100
AcDbPolyline
 62
250
  6
CONTINUOUS
 90
18
 70
0
 10
-7.9425447461
 20
-7.9256009644
 10
-7.9510709955
 20
-7.9354862575
 10
-7.9590330386
 20
-7.9454010031
 10
-7.9661685801
 20
-7.9553491371
 10
-7.9696154915
 20
-7.9606962076
 10
-7.9730337694
 20
-7.9660563267
 10
-7.9767075256
 20
-7.971431822
 10
-7.9798014112
 20
-7.9754749344
 10
-7.9833186756
 20
-7.9795289871
 10
-7.9873791784
 20
-7.983594962
 10
-7.9921027793
 20
-7.9876738412
 10
-7.9946141424
 20
-7.9896530793
 10
-7.9970448849
 20
-7.9916473525
 10
-7.999131309
 20
-7.9936684489
 10
-8.0003115376
 20
-7.9952089652
 10
-8.0010385097
 20
-7.9967761735
 10
-8.0012009778
 20
-7.9983750469
 10
-8.0006876944
 20
-8.0000105585
  0
LWPOLYLINE
  5
65F
100
AcDbEntity
  8
CURVE
100
AcDbPolyline
 62
250
  6
CONTINUOUS
 90
34
 70
0
 10
-8.1298325718
 20
-8.1578155881
 10
-8.1626357952
 20
-8.1954660751
 10
-8.1960221093
 20
-8.2329049615
 10
-8.2337788762
 20
-8.2748401142
 10
-8.2717072931
 20
-8.3165161477
 10
-8.3283187822
 20
-8.3776045965
 10
-8.3856570437
 20
-8.4380666028
 10
-8.4437084047
 20
-8.497837778
 10
-8.4894743219
 20
-8.543919286
 10
-8.5357454863
 20
-8.5894855527
 10
-8.5826018875
 20
-8.6344805171
 10
-8.6301235152
 20
-8.6788481182
 10
-8.6661932083
 20
-8.7116138932
 10
-8.7027102664
 20
-8.7438849326
 10
-8.7397041497
 20
-8.7755497533
 10
-8.7772043186
 20
-8.8064968724
 10
-8.8152402333
 20
-8.8366148072
 10
-8.8380547941
 20
-8.8540185399
 10
-8.8611434594
 20
-8.8710330699
 10
-8.8845818809
 20
-8.8875994774
 10
-8.9084457107
 20
-8.9036588425
 10
-8.9328106005
 20
-8.9191522453
 10
-8.9577522022
 20
-8.9340207659
 10
-8.9833461677
 20
-8.9482054844
 10
-8.9962050425
 20
-8.9549035081
 10
-9.0092333924
 20
-8.9613221684
 10
-9.022424281
 20
-8.9673620772
 10
-9.035770772
 20
-8.9729238463
 10
-9.0492659288
 20
-8.9779080875
 10
-9.0629028152
 20
-8.9822154126
 10
-9.0766744946
 20
-8.9857464335
 10
-9.0905740307
 20
-8.9884017619
 10
-9.104594487
 20
-8.9900820097
 10
-9.1187289271
 20
-8.9906877887
  0
LWPOLYLINE
  5
660
100
AcDbEntity
  8
CURVE
100
AcDbPolyline
 62
250
  6
CONTINUOUS
 90
4
 70
0
 10
-8.0574028888
 20
-8.0744098157
 10
-8.0751027298
 20
-8.0941145726
 10
-8.09377325
 20
-8.1154292278
 10
-8.1298325718
 20
-8.1578155881
  0
LWPOLYLINE
  5
661
100
AcDbEntity
  8
CURVE
100
AcDbPolyline
 62
250
  6
CONTINUOUS
 90
15
 70
0
 10
-7.9999098687
 20
-8.0006965358
 10
-7.9989903971
 20
-7.9996795104
 10
-7.9987516615
 20
-7.9982033924
 10
-7.9989293623
 20
-7.996451281
 10
-7.9992591995
 20
-7.9946062751
 10
-7.9997537379
 20
-7.9898264026
 10
-7.9996462224
 20
-7.9855343178
 10
-7.9992033109
 20
-7.9815191684
 10
-7.9986916614
 20
-7.9775701023
 10
-7.9981071285
 20
-7.9687869396
 10
-7.9980637769
 20
-7.959613745
 10
-7.9982031574
 20
-7.9503185236
 10
-7.9981406
 20
-7.9318232505
 10
-7.9977895902
 20
-7.9135820453
 10
-7.9972576854
 20
-7.8642025902
  0
LINE
  5
662
100
AcDbEntity
  8
ASSI
100
AcDbLine
 62
7
  6
CONTINUOUS
 10
-0.25
 20
1.75
 11
0.25
 21
2.25
  0
LINE
  5
663
100
AcDbEntity
  8
CURVE
100
AcDbLine
 62
250
  6
CONTINUOUS
 10
9.0
 20
10.9571429014
 11
9.185714294
 21
11.1428570986
  0
LINE
  5
664
100
AcDbEntity
  8
ASSI
100
AcDbLine
 62
7
  6
CONTINUOUS
 10
4.75
 20
6.25
 11
4.25
 21
5.75
  0
LINE
  5
665
100
AcDbEntity
  8
CURVE
100
AcDbLine
 62
250
  6
CONTINUOUS
 10
10.1142857254
 20
11.6071429014
 11
10.3
 21
11.7928571761
  0
LINE
  5
666
100
AcDbEntity
  8
CURVE
100
AcDbLine
 62
250
  6
CONTINUOUS
 10
10.3
 20
10.8642856479
 11
10.1142857254
 21
10.6785714507
  0
LINE
  5
667
100
AcDbEntity
  8
CURVE
100
AcDbLine
 62
250
  6
CONTINUOUS
 10
-7.2
 20
-3.9202426184
 11
-7.7571428239
 21
-4.2916710127
  0
LINE
  5
668
100
AcDbEntity
  8
CURVE
100
AcDbLine
 62
250
  6
CONTINUOUS
 10
9.185714294
 20
5.9738096714
 11
9.371428588
 21
6.06666646
  0
LINE
  5
669
100
AcDbEntity
  8
CURVE
100
AcDbLine
 62
250
  6
CONTINUOUS
 10
10.1142857254
 20
5.5095238686
 11
9.9285714507
 21
5.41666646
  0
LINE
  5
66A
100
AcDbEntity
  8
ASSI
100
AcDbLine
 62
7
  6
CONTINUOUS
 10
-11.15
 20
-1.25
 11
-11.1549715323
 21
-1.25
  0
LINE
  5
66B
100
AcDbEntity
  8
ASSI
100
AcDbLine
 62
7
  6
CONTINUOUS
 10
11.15
 20
-1.25
 11
11.1549715323
 21
-1.25
  0
LINE
  5
66C
100
AcDbEntity
  8
CURVE
100
AcDbLine
 62
250
  6
CONTINUOUS
 10
-8.5
 20
-1.2273858298
 11
-7.2
 21
-1.2273858298
  0
LINE
  5
66D
100
AcDbEntity
  8
ASSI
100
AcDbLine
 62
7
  6
CONTINUOUS
 10
-9.8
 20
-1.2216700135
 11
-9.8601019621
 21
-1.2216700135
  0
LINE
  5
66E
100
AcDbEntity
  8
CURVE
100
AcDbLine
 62
250
  6
CONTINUOUS
 10
7.65
 20
-1.0
 11
5.75
 21
-1.0
  0
LINE
  5
66F
100
AcDbEntity
  8
CURVE
100
AcDbLine
 62
250
  6
CONTINUOUS
 10
-11.0732093358
 20
-0.775599
 11
-11.1238139027
 21
-0.775599
  0
LINE
  5
670
100
AcDbEntity
  8
ASSI
100
AcDbLine
 62
7
  6
CONTINUOUS
 10
-9.8600741062
 20
-0.75
 11
-9.8
 21
-0.75
  0
LINE
  5
671
100
AcDbEntity
  8
CURVE
100
AcDbLine
 62
250
  6
CONTINUOUS
 10
-11.113820205
 20
-0.410067
 11
-11.0732093358
 21
-0.410067
  0
LINE
  5
672
100
AcDbEntity
  8
CURVE
100
AcDbLine
 62
250
  6
CONTINUOUS
 10
-8.5
 20
-0.2678619612
 11
-7.2
 21
-0.2678619612
  0
LINE
  5
673
100
AcDbEntity
  8
ASSI
100
AcDbLine
 62
7
  6
CONTINUOUS
 10
6.9080597678
 20
-21.1301797403
 11
6.9339198284
 21
-21.2
  0
LINE
  5
674
100
AcDbEntity
  8
ASSI
100
AcDbLine
 62
7
  6
CONTINUOUS
 10
2.7167632191
 20
-21.6560705017
 11
2.6175930356
 21
-21.1271628567
  0
LINE
  5
675
100
AcDbEntity
  8
ASSI
100
AcDbLine
 62
7
  6
CONTINUOUS
 10
0.25
 20
-3.0
 11
0.25
 21
1.0
  0
LINE
  5
676
100
AcDbEntity
  8
ASSI
100
AcDbLine
 62
7
  6
CONTINUOUS
 10
0.25
 20
2.25
 11
0.25
 21
5.75
  0
LINE
  5
677
100
AcDbEntity
  8
ASSI
100
AcDbLine
 62
7
  6
CONTINUOUS
 10
0.25
 20
7.25
 11
0.25
 21
10.75
  0
LINE
  5
678
100
AcDbEntity
  8
ASSI
100
AcDbLine
 62
7
  6
CONTINUOUS
 10
0.25
 20
12.25
 11
0.25
 21
15.75
  0
LINE
  5
679
100
AcDbEntity
  8
CURVE
100
AcDbLine
 62
250
  6
CONTINUOUS
 10
0.4714286149
 20
-4.7089328314
 11
0.4714286149
 21
-4.1827423423
  0
LINE
  5
67A
100
AcDbEntity
  8
CURVE
100
AcDbLine
 62
250
  6
CONTINUOUS
 10
0.7142857432
 20
-6.7732184733
 11
0.7142857432
 21
-7.7446469869
  0
LINE
  5
67B
100
AcDbEntity
  8
CURVE
100
AcDbLine
 62
250
  6
CONTINUOUS
 10
0.7142857432
 20
-8.3517899598
 11
0.7142857432
 21
-9.3232184733
  0
LINE
  5
67C
100
AcDbEntity
  8
IMPORT_IGES
100
AcDbLine
 62
7
  6
CONTINUOUS
 10
0.796
 20
15.6
 11
0.796
 21
12.9
  0
LINE
  5
67D
100
AcDbEntity
  8
IMPORT_IGES
100
AcDbLine
 62
7
  6
CONTINUOUS
 10
0.796
 20
10.6
 11
0.796
 21
7.9
  0
LINE
  5
67E
100
AcDbEntity
  8
IMPORT_IGES
100
AcDbLine
 62
7
  6
CONTINUOUS
 10
0.796
 20
5.6
 11
0.796
 21
2.9
  0
LINE
  5
67F
100
AcDbEntity
  8
IMPORT_IGES
100
AcDbLine
 62
7
  6
CONTINUOUS
 10
0.796
 20
0.6
 11
0.796
 21
-2.1
  0
LINE
  5
680
100
AcDbEntity
  8
ASSI
100
AcDbLine
 62
7
  6
CONTINUOUS
 10
1.8939465578
 20
18.2
 11
1.8939465578
 21
18.3017455065
  0
LINE
  5
681
100
AcDbEntity
  8
ASSI
100
AcDbLine
 62
7
  6
CONTINUOUS
 10
1.9026954241
 20
18.3
 11
1.9026954241
 21
18.2
  0
LINE
  5
682
100
AcDbEntity
  8
ASSI
100
AcDbLine
 62
7
  6
CONTINUOUS
 10
1.9650898701
 20
18.2849101299
 11
1.9650898701
 21
18.2
  0
LINE
  5
683
100
AcDbEntity
  8
ASSI
100
AcDbLine
 62
7
  6
CONTINUOUS
 10
-2.7167632191
 20
-21.6560705017
 11
-2.6175930356
 21
-21.1271628567
  0
LINE
  5
684
100
AcDbEntity
  8
ASSI
100
AcDbLine
 62
7
  6
CONTINUOUS
 10
-6.9069415429
 20
-21.1271628567
 11
-6.9339198284
 21
-21.2
  0
LINE
  5
685
100
AcDbEntity
  8
CURVE
100
AcDbLine
 62
250
  6
CONTINUOUS
 10
9.185714294
 20
7.0880954742
 11
9.0
 21
6.9023806572
  0
LINE
  5
686
100
AcDbEntity
  8
IMPORT_IGES
100
AcDbLine
 62
7
  6
CONTINUOUS
 10
4.25
 20
0.9242857143
 11
3.796
 21
0.6
  0
LWPOLYLINE
  5
687
100
AcDbEntity
  8
CURVE
100
AcDbPolyline
 62
250
  6
CONTINUOUS
 90
15
 70
0
 10
-11.1092884317
 20
-4.9627200261
 10
-11.1090414818
 20
-4.9626240272
 10
-11.1087940813
 20
-4.9627858047
 10
-11.1085464671
 20
-4.9632257158
 10
-11.1082988763
 20
-4.9639641177
 10
-11.1080515458
 20
-4.9650213675
 10
-11.1078047128
 20
-4.9664178224
 10
-11.1075586141
 20
-4.9681738395
 10
-11.107313487
 20
-4.9703097761
 10
-11.1070695683
 20
-4.9728459892
 10
-11.1068270951
 20
-4.9758028361
 10
-11.1065863044
 20
-4.9792006738
 10
-11.1063474332
 20
-4.9830598595
 10
-11.1061107186
 20
-4.9874007505
 10
-11.1059082561
 20
-4.9915493253
  0
LINE
  5
688
100
AcDbEntity
  8
CURVE
100
AcDbLine
 62
250
  6
CONTINUOUS
 10
9.284375
 20
1.5
 11
9.1625
 21
1.459375
  0
LINE
  5
689
100
AcDbEntity
  8
CURVE
100
AcDbLine
 62
250
  6
CONTINUOUS
 10
-7.2
 20
-2.3416710127
 11
-8.5
 21
-2.7131006468
  0
LINE
  5
68A
100
AcDbEntity
  8
IMPORT_IGES
100
AcDbLine
 62
7
  6
CONTINUOUS
 10
3.796
 20
0.6
 11
0.796
 21
0.6
  0
LINE
  5
68B
100
AcDbEntity
  8
ASSI
100
AcDbLine
 62
7
  6
CONTINUOUS
 10
-9.8523334421
 20
0.75
 11
-9.8
 21
0.75
  0
LINE
  5
68C
100
AcDbEntity
  8
ASSI
100
AcDbLine
 62
7
  6
CONTINUOUS
 10
0.25
 20
1.0
 11
4.25
 21
1.0
  0
LINE
  5
68D
100
AcDbEntity
  8
ASSI
100
AcDbLine
 62
7
  6
CONTINUOUS
 10
-10.7130788782
 20
1.15
 11
-9.8
 21
1.15
  0
LINE
  5
68E
100
AcDbEntity
  8
CURVE
100
AcDbLine
 62
250
  6
CONTINUOUS
 10
-11.0827770154
 20
1.169952
 11
-11.1238139027
 21
1.169952
  0
LINE
  5
68F
100
AcDbEntity
  8
ASSI
100
AcDbLine
 62
7
  6
CONTINUOUS
 10
-11.15
 20
1.25
 11
-11.1549715323
 21
1.25
  0
LINE
  5
690
100
AcDbEntity
  8
ASSI
100
AcDbLine
 62
7
  6
CONTINUOUS
 10
11.15
 20
1.25
 11
11.1549715323
 21
1.25
  0
LINE
  5
691
100
AcDbEntity
  8
CURVE
100
AcDbLine
 62
250
  6
CONTINUOUS
 10
-8.5
 20
1.3726141702
 11
-7.2
 21
1.3726141702
  0
LINE
  5
692
100
AcDbEntity
  8
CURVE
100
AcDbLine
 62
250
  6
CONTINUOUS
 10
9.975
 20
1.378125
 11
9.934375
 21
1.378125
  0
LINE
  5
693
100
AcDbEntity
  8
CURVE
100
AcDbLine
 62
250
  6
CONTINUOUS
 10
9.40625
 20
1.5
 11
9.284375
 21
1.5
  0
LINE
  5
694
100
AcDbEntity
  8
ASSI
100
AcDbLine
 62
7
  6
CONTINUOUS
 10
-0.25
 20
1.5
 11
4.75
 21
1.5
  0
LINE
  5
695
100
AcDbEntity
  8
CURVE
100
AcDbLine
 62
250
  6
CONTINUOUS
 10
-11.1238139027
 20
1.535513
 11
-11.0732093358
 21
1.535513
  0
LINE
  5
696
100
AcDbEntity
  8
ASSI
100
AcDbLine
 62
7
  6
CONTINUOUS
 10
4.75
 20
1.75
 11
-0.25
 21
1.75
  0
LINE
  5
697
100
AcDbEntity
  8
ASSI
100
AcDbLine
 62
7
  6
CONTINUOUS
 10
-10.7130788782
 20
1.85
 11
-9.8
 21
1.85
  0
LINE
  5
698
100
AcDbEntity
  8
IMPORT_IGES
100
AcDbLine
 62
7
  6
CONTINUOUS
 10
0.25
 20
0.7419483914
 11
0.796
 21
0.6
  0
LINE
  5
699
100
AcDbEntity
  8
IMPORT_IGES
100
AcDbLine
 62
7
  6
CONTINUOUS
 10
4.25
 20
-2.4242857143
 11
3.796
 21
-2.1
  0
LINE
  5
69A
100
AcDbEntity
  8
ASSI
100
AcDbLine
 62
7
  6
CONTINUOUS
 10
-0.25
 20
1.5
 11
0.25
 21
1.0
  0
LINE
  5
69B
100
AcDbEntity
  8
ASSI
100
AcDbLine
 62
7
  6
CONTINUOUS
 10
4.75
 20
-3.5
 11
4.25
 21
-3.0
  0
LINE
  5
69C
100
AcDbEntity
  8
ASSI
100
AcDbLine
 62
7
  6
CONTINUOUS
 10
-6.9069415429
 20
21.1271628567
 11
-6.9339198284
 21
21.2
  0
LINE
  5
69D
100
AcDbEntity
  8
ASSI
100
AcDbLine
 62
7
  6
CONTINUOUS
 10
-2.7167632191
 20
21.6560705017
 11
-2.6175930356
 21
21.1271628567
  0
LINE
  5
69E
100
AcDbEntity
  8
ASSI
100
AcDbLine
 62
7
  6
CONTINUOUS
 10
4.7909419891
 20
-21.1271628567
 11
4.7115928089
 21
-19.6130903017
  0
LINE
  5
69F
100
AcDbEntity
  8
RACCORDO
100
AcDbLine
 62
250
  6
CONTINUOUS
 10
3.01751471
 20
-23.375
 11
2.9765077582
 21
-22.2007145431
  0
LINE
  5
6A0
100
AcDbEntity
  8
RACCORDO
100
AcDbLine
 62
250
  6
CONTINUOUS
 10
3.2153472641
 20
-23.175
 11
3.1705494094
 21
-21.8921572875
  0
LINE
  5
6A1
100
AcDbEntity
  8
ASSI
100
AcDbLine
 62
7
  6
CONTINUOUS
 10
1.9830904059
 20
17.5
 11
1.990977166
 21
17.259022834
  0
LINE
  5
6A2
100
AcDbEntity
  8
RACCORDO
100
AcDbLine
 62
7
  6
CONTINUOUS
 10
3.2320105844
 20
-21.8708813614
 11
3.2313419064
 21
-21.8451111811
  0
LINE
  5
6A3
100
AcDbEntity
  8
RACCORDO
100
AcDbLine
 62
7
  6
CONTINUOUS
 10
3.2313419064
 20
-21.8451111811
 11
3.2308227979
 21
-21.8164289656
  0
LINE
  5
6A4
100
AcDbEntity
  8
RACCORDO
100
AcDbLine
 62
7
  6
CONTINUOUS
 10
3.2313419064
 20
21.4548888189
 11
3.2308227979
 21
21.4835710344
  0
LINE
  5
6A5
100
AcDbEntity
  8
RACCORDO
100
AcDbLine
 62
7
  6
CONTINUOUS
 10
3.2308227979
 20
-21.8164289656
 11
3.2304595672
 21
-21.7859297213
  0
LINE
  5
6A6
100
AcDbEntity
  8
RACCORDO
100
AcDbLine
 62
7
  6
CONTINUOUS
 10
3.2308227979
 20
21.4835710344
 11
3.2304595672
 21
21.5140702787
  0
LINE
  5
6A7
100
AcDbEntity
  8
RACCORDO
100
AcDbLine
 62
7
  6
CONTINUOUS
 10
3.2304595672
 20
-21.7859297213
 11
3.2301861319
 21
-21.7394031518
  0
LINE
  5
6A8
100
AcDbEntity
  8
RACCORDO
100
AcDbLine
 62
7
  6
CONTINUOUS
 10
3.2304595672
 20
21.5140702787
 11
3.2301861319
 21
21.5605968482
  0
LINE
  5
6A9
100
AcDbEntity
  8
ASSI
100
AcDbLine
 62
7
  6
CONTINUOUS
 10
1.9725314142
 20
-18.3017455065
 11
1.9725314142
 21
-18.2
  0
LINE
  5
6AA
100
AcDbEntity
  8
ASSI
100
AcDbLine
 62
7
  6
CONTINUOUS
 10
1.9812802806
 20
-18.3
 11
1.9812802806
 21
-18.2
  0
LINE
  5
6AB
100
AcDbEntity
  8
ASSI
100
AcDbLine
 62
7
  6
CONTINUOUS
 10
2.0
 20
-17.5
 11
2.0
 21
-17.25
  0
LINE
  5
6AC
100
AcDbEntity
  8
ASSI
100
AcDbLine
 62
7
  6
CONTINUOUS
 10
2.0
 20
17.25
 11
2.0
 21
17.5
  0
LINE
  5
6AD
100
AcDbEntity
  8
ASSI
100
AcDbLine
 62
7
  6
CONTINUOUS
 10
2.0
 20
18.2
 11
2.0
 21
18.25
  0
LINE
  5
6AE
100
AcDbEntity
  8
0
100
AcDbLine
 62
7
  6
CONTINUOUS
 10
2.1
 20
18.2
 11
2.1
 21
18.25
  0
LINE
  5
6AF
100
AcDbEntity
  8
ASSI
100
AcDbLine
 62
7
  6
CONTINUOUS
 10
2.5
 20
18.5208065713
 11
2.5
 21
16.6
  0
LINE
  5
6B0
100
AcDbEntity
  8
ASSI
100
AcDbLine
 62
7
  6
CONTINUOUS
 10
2.5
 20
-16.6
 11
2.5
 21
-17.5
  0
LINE
  5
6B1
100
AcDbEntity
  8
ASSI
100
AcDbLine
 62
7
  6
CONTINUOUS
 10
2.5
 20
-18.2
 11
2.5
 21
-18.2625577096
  0
LINE
  5
6B2
100
AcDbEntity
  8
ASSI
100
AcDbLine
 62
7
  6
CONTINUOUS
 10
2.6312329953
 20
-16.4687670047
 11
2.6312329953
 21
-18.3636248878
  0
LINE
  5
6B3
100
AcDbEntity
  8
ASSI
100
AcDbLine
 62
7
  6
CONTINUOUS
 10
3.0812528557
 20
22.2
 11
3.0812528557
 21
21.1703266555
  0
LINE
  5
6B4
100
AcDbEntity
  8
ASSI
100
AcDbLine
 62
7
  6
CONTINUOUS
 10
3.0812528557
 20
-22.2
 11
3.0812528557
 21
-21.1703266555
  0
LINE
  5
6B5
100
AcDbEntity
  8
CURVE
100
AcDbLine
 62
250
  6
CONTINUOUS
 10
3.12
 20
-12.092362
 11
3.12
 21
-7.907638
  0
LINE
  5
6B6
100
AcDbEntity
  8
RACCORDO
100
AcDbLine
 62
250
  6
CONTINUOUS
 10
3.1705494094
 20
21.8921572875
 11
3.1705494094
 21
21.1786396002
  0
LINE
  5
6B7
100
AcDbEntity
  8
RACCORDO
100
AcDbLine
 62
250
  6
CONTINUOUS
 10
3.1705494094
 20
-21.8921572875
 11
3.1705494094
 21
-21.1786396002
  0
LINE
  5
6B8
100
AcDbEntity
  8
RACCORDO
100
AcDbLine
 62
7
  6
CONTINUOUS
 10
3.230158461
 20
-23.175
 11
3.230158461
 21
-22.5048155586
  0
LINE
  5
6B9
100
AcDbEntity
  8
RACCORDO
100
AcDbLine
 62
7
  6
CONTINUOUS
 10
3.230158461
 20
22.5048155586
 11
3.230158461
 21
23.175
  0
LINE
  5
6BA
100
AcDbEntity
  8
ASSI
100
AcDbLine
 62
7
  6
CONTINUOUS
 10
3.3
 20
-22.4
 11
3.3
 21
-21.9098076211
  0
LINE
  5
6BB
100
AcDbEntity
  8
RACCORDO
100
AcDbLine
 62
7
  6
CONTINUOUS
 10
3.3
 20
-21.3901923789
 11
3.3
 21
-21.190690632
  0
LINE
  5
6BC
100
AcDbEntity
  8
RACCORDO
100
AcDbLine
 62
7
  6
CONTINUOUS
 10
3.3
 20
21.190690632
 11
3.3
 21
21.3901923789
  0
LINE
  5
6BD
100
AcDbEntity
  8
ASSI
100
AcDbLine
 62
7
  6
CONTINUOUS
 10
3.3
 20
21.9098076211
 11
3.3
 21
22.4
  0
LINE
  5
6BE
100
AcDbEntity
  8
ASSI
100
AcDbLine
 62
7
  6
CONTINUOUS
 10
3.3633443637
 20
23.4668353766
 11
3.3633443637
 21
22.5
  0
LINE
  5
6BF
100
AcDbEntity
  8
ASSI
100
AcDbLine
 62
7
  6
CONTINUOUS
 10
3.3633443637
 20
-23.4668353766
 11
3.3633443637
 21
-22.5
  0
LINE
  5
6C0
100
AcDbEntity
  8
ASSI
100
AcDbLine
 62
7
  6
CONTINUOUS
 10
3.4
 20
-21.2
 11
3.4
 21
-23.4301797403
  0
LINE
  5
6C1
100
AcDbEntity
  8
ASSI
100
AcDbLine
 62
7
  6
CONTINUOUS
 10
3.4
 20
21.2
 11
3.4
 21
23.4301797403
  0
LINE
  5
6C2
100
AcDbEntity
  8
RACCORDO
100
AcDbLine
 62
7
  6
CONTINUOUS
 10
3.2301861319
 20
21.5605968482
 11
3.2302392996
 21
21.7527159386
  0
LINE
  5
6C3
100
AcDbEntity
  8
RACCORDO
100
AcDbLine
 62
7
  6
CONTINUOUS
 10
3.2301861319
 20
-21.7394031518
 11
3.2302392996
 21
-21.5472840614
  0
LINE
  5
6C4
100
AcDbEntity
  8
RACCORDO
100
AcDbLine
 62
7
  6
CONTINUOUS
 10
3.2302392996
 20
21.7527159386
 11
3.2304371978
 21
21.7834465185
  0
LINE
  5
6C5
100
AcDbEntity
  8
RACCORDO
100
AcDbLine
 62
7
  6
CONTINUOUS
 10
3.2302392996
 20
-21.5472840614
 11
3.2304371978
 21
-21.5165534815
  0
LINE
  5
6C6
100
AcDbEntity
  8
RACCORDO
100
AcDbLine
 62
7
  6
CONTINUOUS
 10
3.2304371978
 20
21.7834465185
 11
3.2307821776
 21
21.8136326566
  0
LINE
  5
6C7
100
AcDbEntity
  8
RACCORDO
100
AcDbLine
 62
7
  6
CONTINUOUS
 10
3.2304371978
 20
-21.5165534815
 11
3.2307821776
 21
-21.4863673434
  0
LINE
  5
6C8
100
AcDbEntity
  8
RACCORDO
100
AcDbLine
 62
7
  6
CONTINUOUS
 10
3.2307821776
 20
21.8136326566
 11
3.231281385
 21
21.8422852739
  0
LINE
  5
6C9
100
AcDbEntity
  8
RACCORDO
100
AcDbLine
 62
7
  6
CONTINUOUS
 10
3.2307821776
 20
-21.4863673434
 11
3.231281385
 21
-21.4577147261
  0
LWPOLYLINE
  5
6CA
100
AcDbEntity
  8
RACCORDO
100
AcDbPolyline
 62
7
  6
CONTINUOUS
 90
12
 70
0
 10
3.231281385
 20
21.8422852739
 10
3.2319318638
 20
21.8682760567
 10
3.2323069457
 20
21.880025096
 10
3.23271029
 20
21.8907938977
 10
3.2331449594
 20
21.9006403771
 10
3.2336144326
 20
21.9094640173
 10
3.2341208504
 20
21.9173668853
 10
3.234662072
 20
21.9242469142
 10
3.2352351536
 20
21.9296973858
 10
3.235839114
 20
21.9335827276
 10
3.2364749344
 20
21.9360385121
 10
3.2371426149
 20
21.9370647395
  0
LINE
  5
6CB
100
AcDbEntity
  8
ASSI
100
AcDbLine
 62
7
  6
CONTINUOUS
 10
1.990977166
 20
-17.259022834
 11
1.9830904059
 21
-17.5
  0
LINE
  5
6CC
100
AcDbEntity
  8
RACCORDO
100
AcDbLine
 62
250
  6
CONTINUOUS
 10
3.01751471
 20
23.375
 11
2.9765077582
 21
22.2007145431
  0
LINE
  5
6CD
100
AcDbEntity
  8
RACCORDO
100
AcDbLine
 62
250
  6
CONTINUOUS
 10
3.2153472641
 20
23.175
 11
3.1705494094
 21
21.8921572875
  0
LINE
  5
6CE
100
AcDbEntity
  8
ASSI
100
AcDbLine
 62
7
  6
CONTINUOUS
 10
4.7909419891
 20
21.1271628567
 11
4.7115928089
 21
19.6130903017
  0
LINE
  5
6CF
100
AcDbEntity
  8
ASSI
100
AcDbLine
 62
250
  6
CONTINUOUS
 10
-4.2071270357
 20
-23.2631073618
 11
-4.2275426698
 21
-23.3333596575
  0
LINE
  5
6D0
100
AcDbEntity
  8
ASSI
100
AcDbLine
 62
250
  6
CONTINUOUS
 10
-3.653791075
 20
-23.4301797403
 11
-3.6748574782
 21
-23.5
  0
LINE
  5
6D1
100
AcDbEntity
  8
CURVE
100
AcDbLine
 62
250
  6
CONTINUOUS
 10
9.4952381045
 20
8.88333323
 11
9.3095238104
 21
8.6357141972
  0
LINE
  5
6D2
100
AcDbEntity
  8
CURVE
100
AcDbLine
 62
250
  6
CONTINUOUS
 10
7.0428571641
 20
4.3899999925
 11
6.6142857164
 21
3.8185714105
  0
LINE
  5
6D3
100
AcDbEntity
  8
CURVE
100
AcDbLine
 62
250
  6
CONTINUOUS
 10
9.5571428627
 20
6.4380954742
 11
9.7428571761
 21
6.6238096714
  0
LINE
  5
6D4
100
AcDbEntity
  8
CURVE
100
AcDbLine
 62
250
  6
CONTINUOUS
 10
9.0
 20
5.7880954742
 11
9.185714294
 21
5.9738096714
  0
LINE
  5
6D5
100
AcDbEntity
  8
ASSI
100
AcDbLine
 62
7
  6
CONTINUOUS
 10
4.75
 20
1.5
 11
4.25
 21
1.0
  0
LINE
  5
6D6
100
AcDbEntity
  8
ASSI
100
AcDbLine
 62
7
  6
CONTINUOUS
 10
-0.25
 20
-3.5
 11
0.25
 21
-3.0
  0
LINE
  5
6D7
100
AcDbEntity
  8
CURVE
100
AcDbLine
 62
250
  6
CONTINUOUS
 10
-0.2571428463
 20
-4.1017899598
 11
-0.5
 21
-4.3446471135
  0
LINE
  5
6D8
100
AcDbEntity
  8
CURVE
100
AcDbLine
 62
250
  6
CONTINUOUS
 10
-7.9428571373
 20
-12.1
 11
-7.7571428239
 21
-11.9142857254
  0
LINE
  5
6D9
100
AcDbEntity
  8
CURVE
100
AcDbLine
 62
250
  6
CONTINUOUS
 10
10.3
 20
5.6952380657
 11
10.1142857254
 21
5.5095238686
  0
LINE
  5
6DA
100
AcDbEntity
  8
CURVE
100
AcDbLine
 62
250
  6
CONTINUOUS
 10
0.2285714358
 20
-4.9517899598
 11
0.4714286149
 21
-4.7089328314
  0
LINE
  5
6DB
100
AcDbEntity
  8
CURVE
100
AcDbLine
 62
250
  6
CONTINUOUS
 10
9.934375
 20
1.378125
 11
9.853125
 21
1.3375
  0
LWPOLYLINE
  5
6DC
100
AcDbEntity
  8
CURVE
100
AcDbPolyline
 62
250
  6
CONTINUOUS
 90
54
 70
0
 10
-8.0
 20
-5.9999466909
 10
-8.0369389033
 20
-6.0127619871
 10
-8.0734723824
 20
-6.0260645694
 10
-8.1096432913
 20
-6.0398884197
 10
-8.145494484
 20
-6.0542675199
 10
-8.1810688145
 20
-6.0692358521
 10
-8.2164091367
 20
-6.0848273981
 10
-8.2515583046
 20
-6.1010761398
 10
-8.2865591723
 20
-6.1180160591
 10
-8.3214545937
 20
-6.135681138
 10
-8.3562874228
 20
-6.1541053584
 10
-8.3911005136
 20
-6.1733227023
 10
-8.4259367201
 20
-6.1933671515
 10
-8.4608388962
 20
-6.2142726879
 10
-8.495849896
 20
-6.2360732936
 10
-8.514507195
 20
-6.2480322339
 10
-8.5331805458
 20
-6.2602519011
 10
-8.551843173
 20
-6.2727306993
 10
-8.5704683012
 20
-6.2854670326
 10
-8.5890291552
 20
-6.2984593051
 10
-8.6074989596
 20
-6.3117059208
 10
-8.6258509391
 20
-6.325205284
 10
-8.6440583184
 20
-6.3389557987
 10
-8.6620943222
 20
-6.352955869
 10
-8.6799321752
 20
-6.367203899
 10
-8.6975451019
 20
-6.3816982928
 10
-8.7149063273
 20
-6.3964374545
 10
-8.7319890758
 20
-6.4114197883
 10
-8.7487665722
 20
-6.4266436982
 10
-8.7652120411
 20
-6.4421075884
 10
-8.7812987073
 20
-6.4578098629
 10
-8.7969997955
 20
-6.4737489258
 10
-8.8122885302
 20
-6.4899231813
 10
-8.8271381363
 20
-6.5063310334
 10
-8.8415218383
 20
-6.5229708863
 10
-8.8554128609
 20
-6.5398411441
 10
-8.8687844289
 20
-6.5569402109
 10
-8.8816097669
 20
-6.5742664907
 10
-8.8938620996
 20
-6.5918183877
 10
-8.9055146516
 20
-6.609594306
 10
-8.9165406477
 20
-6.6275926497
 10
-8.9269133126
 20
-6.6458118228
 10
-8.9366058709
 20
-6.6642502296
 10
-8.9455915472
 20
-6.6829062741
 10
-8.9538435664
 20
-6.7017783604
 10
-8.961335153
 20
-6.7208648925
 10
-8.9680395318
 20
-6.7401642748
 10
-8.9739299274
 20
-6.7596749111
 10
-8.9789795645
 20
-6.7793952056
 10
-8.9831616677
 20
-6.7993235625
 10
-8.9864494619
 20
-6.8194583859
 10
-8.9888161716
 20
-6.8397980797
 10
-8.9902350215
 20
-6.8603410482
 10
-8.9906792363
 20
-6.8810856955
  0
LINE
  5
6DD
100
AcDbEntity
  8
IMPORT_IGES
100
AcDbLine
 62
7
  6
CONTINUOUS
 10
0.796
 20
2.9
 11
0.25
 21
2.7580516086
  0
LINE
  5
6DE
100
AcDbEntity
  8
CURVE
100
AcDbLine
 62
250
  6
CONTINUOUS
 10
-8.5
 20
2.0226141702
 11
-7.2
 21
2.0226141702
  0
LINE
  5
6DF
100
AcDbEntity
  8
ASSI
100
AcDbLine
 62
7
  6
CONTINUOUS
 10
4.25
 20
2.25
 11
0.25
 21
2.25
  0
LINE
  5
6E0
100
AcDbEntity
  8
CURVE
100
AcDbLine
 62
250
  6
CONTINUOUS
 10
-11.0732093358
 20
2.343691
 11
-11.1238139027
 21
2.343691
  0
LINE
  5
6E1
100
AcDbEntity
  8
IMPORT_IGES
100
AcDbLine
 62
7
  6
CONTINUOUS
 10
4.25
 20
2.4
 11
0.25
 21
2.4
  0
LINE
  5
6E2
100
AcDbEntity
  8
CURVE
100
AcDbLine
 62
250
  6
CONTINUOUS
 10
-8.5
 20
2.6107096445
 11
-7.2
 21
2.6107096445
  0
LINE
  5
6E3
100
AcDbEntity
  8
CURVE
100
AcDbLine
 62
250
  6
CONTINUOUS
 10
-11.0963849748
 20
2.729569
 11
-11.0788792128
 21
2.729569
  0
LINE
  5
6E4
100
AcDbEntity
  8
CURVE
100
AcDbLine
 62
250
  6
CONTINUOUS
 10
-11.1181439909
 20
2.729569
 11
-11.1020553578
 21
2.729569
  0
LINE
  5
6E5
100
AcDbEntity
  8
IMPORT_IGES
100
AcDbLine
 62
7
  6
CONTINUOUS
 10
3.796
 20
2.9
 11
0.796
 21
2.9
  0
LINE
  5
6E6
100
AcDbEntity
  8
CURVE
100
AcDbLine
 62
250
  6
CONTINUOUS
 10
7.4848264889
 20
3.43
 11
8.0048264889
 21
3.43
  0
LINE
  5
6E7
100
AcDbEntity
  8
CURVE
100
AcDbLine
 62
250
  6
CONTINUOUS
 10
-7.9428571373
 20
7.8416617137
 11
-7.2
 21
7.4702331256
  0
LINE
  5
6E8
100
AcDbEntity
  8
ASSI
100
AcDbLine
 62
250
  6
CONTINUOUS
 10
-3.653791075
 20
23.4301797403
 11
-3.6748574782
 21
23.5
  0
LINE
  5
6E9
100
AcDbEntity
  8
ASSI
100
AcDbLine
 62
250
  6
CONTINUOUS
 10
-4.2071270357
 20
23.2631073618
 11
-4.2275426698
 21
23.3333596575
  0
LWPOLYLINE
  5
6EA
100
AcDbEntity
  8
RACCORDO
100
AcDbPolyline
 62
7
  6
CONTINUOUS
 90
13
 70
0
 10
3.2153472641
 20
23.175
 10
3.2131150485
 20
23.2023154886
 10
3.2073236856
 20
23.2285494758
 10
3.1982225069
 20
23.2533879651
 10
3.1861669605
 20
23.2765578149
 10
3.1714546095
 20
23.2978303483
 10
3.1542040554
 20
23.3169684264
 10
3.1345623134
 20
23.3338308467
 10
3.1129854998
 20
23.3481301358
 10
3.0900559384
 20
23.3594581838
 10
3.0662655766
 20
23.3676758504
 10
3.0419540136
 20
23.3728513467
 10
3.01751471
 20
23.375
  0
LINE
  5
6EB
100
AcDbEntity
  8
RACCORDO
100
AcDbLine
 62
7
  6
CONTINUOUS
 10
3.2320105844
 20
21.4291186386
 11
3.2313419064
 21
21.4548888189
  0
LINE
  5
6EC
100
AcDbEntity
  8
IMPORT_IGES
100
AcDbLine
 62
7
  6
CONTINUOUS
 10
3.796
 20
-2.1
 11
3.796
 21
0.6
  0
LINE
  5
6ED
100
AcDbEntity
  8
IMPORT_IGES
100
AcDbLine
 62
7
  6
CONTINUOUS
 10
3.796
 20
2.9
 11
3.796
 21
5.6
  0
LINE
  5
6EE
100
AcDbEntity
  8
IMPORT_IGES
100
AcDbLine
 62
7
  6
CONTINUOUS
 10
3.796
 20
7.9
 11
3.796
 21
10.6
  0
LINE
  5
6EF
100
AcDbEntity
  8
IMPORT_IGES
100
AcDbLine
 62
7
  6
CONTINUOUS
 10
3.796
 20
12.9
 11
3.796
 21
15.6
  0
LINE
  5
6F0
100
AcDbEntity
  8
CURVE
100
AcDbLine
 62
250
  6
CONTINUOUS
 10
4.139012
 20
-7.907638
 11
4.139012
 21
-12.092362
  0
LINE
  5
6F1
100
AcDbEntity
  8
ASSI
100
AcDbLine
 62
7
  6
CONTINUOUS
 10
4.25
 20
15.75
 11
4.25
 21
12.25
  0
LINE
  5
6F2
100
AcDbEntity
  8
ASSI
100
AcDbLine
 62
7
  6
CONTINUOUS
 10
4.25
 20
10.75
 11
4.25
 21
7.25
  0
LINE
  5
6F3
100
AcDbEntity
  8
ASSI
100
AcDbLine
 62
7
  6
CONTINUOUS
 10
4.25
 20
5.75
 11
4.25
 21
2.25
  0
LINE
  5
6F4
100
AcDbEntity
  8
ASSI
100
AcDbLine
 62
7
  6
CONTINUOUS
 10
4.25
 20
1.0
 11
4.25
 21
-3.0
  0
LINE
  5
6F5
100
AcDbEntity
  8
ASSI
100
AcDbLine
 62
7
  6
CONTINUOUS
 10
4.75
 20
16.25
 11
4.75
 21
11.75
  0
LINE
  5
6F6
100
AcDbEntity
  8
ASSI
100
AcDbLine
 62
7
  6
CONTINUOUS
 10
4.75
 20
11.25
 11
4.75
 21
6.75
  0
LINE
  5
6F7
100
AcDbEntity
  8
ASSI
100
AcDbLine
 62
7
  6
CONTINUOUS
 10
4.75
 20
6.25
 11
4.75
 21
1.75
  0
LINE
  5
6F8
100
AcDbEntity
  8
ASSI
100
AcDbLine
 62
7
  6
CONTINUOUS
 10
4.75
 20
1.5
 11
4.75
 21
-3.5
  0
LINE
  5
6F9
100
AcDbEntity
  8
ASSI
100
AcDbLine
 62
7
  6
CONTINUOUS
 10
4.8
 20
21.1301797403
 11
4.8
 21
19.6130903017
  0
LINE
  5
6FA
100
AcDbEntity
  8
ASSI
100
AcDbLine
 62
7
  6
CONTINUOUS
 10
4.8
 20
-19.6130903017
 11
4.8
 21
-21.1301797403
  0
LWPOLYLINE
  5
6FB
100
AcDbEntity
  8
RACCORDO
100
AcDbPolyline
 62
7
  6
CONTINUOUS
 90
12
 70
0
 10
3.231281385
 20
-21.4577147261
 10
3.2319318638
 20
-21.4317239433
 10
3.2323069457
 20
-21.419974904
 10
3.23271029
 20
-21.4092061023
 10
3.2331449594
 20
-21.3993596229
 10
3.2336144326
 20
-21.3905359827
 10
3.2341208504
 20
-21.3826331147
 10
3.234662072
 20
-21.3757530858
 10
3.2352351536
 20
-21.3703026142
 10
3.235839114
 20
-21.3664172724
 10
3.2364749344
 20
-21.3639614879
 10
3.2371426149
 20
-21.3629352605
  0
LWPOLYLINE
  5
6FC
100
AcDbEntity
  8
RACCORDO
100
AcDbPolyline
 62
7
  6
CONTINUOUS
 90
13
 70
0
 10
3.2153472641
 20
-23.175
 10
3.2131100496
 20
-23.2020514775
 10
3.2073396162
 20
-23.2283050682
 10
3.1982549228
 20
-23.2533142892
 10
3.1861617001
 20
-23.276613212
 10
3.1713514059
 20
-23.2979354703
 10
3.1540080817
 20
-23.3171599961
 10
3.1344555831
 20
-23.3339738559
 10
3.1130141512
 20
-23.3481421414
 10
3.0897708658
 20
-23.3595767451
 10
3.0649733181
 20
-23.3680348828
 10
3.039098628
 20
-23.3732357558
 10
3.0125761674
 20
-23.375
  0
LINE
  5
6FD
100
AcDbEntity
  8
CURVE
100
AcDbLine
 62
250
  6
CONTINUOUS
 10
7.7448264889
 20
3.88033321
 11
7.4848264889
 21
3.43
  0
LINE
  5
6FE
100
AcDbEntity
  8
CURVE
100
AcDbLine
 62
250
  6
CONTINUOUS
 10
-7.9428571373
 20
-14.7
 11
-7.7571428239
 21
-14.5142858028
  0
LINE
  5
6FF
100
AcDbEntity
  8
CURVE
100
AcDbLine
 62
250
  6
CONTINUOUS
 10
-8.5
 20
-15.35
 11
-8.314285706
 21
-15.1642858028
  0
LWPOLYLINE
  5
700
100
AcDbEntity
  8
CURVE
100
AcDbPolyline
 62
250
  6
CONTINUOUS
 90
18
 70
0
 10
-7.9999133027
 20
-7.9993207068
 10
-7.9982792672
 20
-7.9988049532
 10
-7.9966812321
 20
-7.9989658441
 10
-7.9951143324
 20
-7.9996919865
 10
-7.9935737032
 20
-8.0008719874
 10
-7.9915519876
 20
-8.0029587928
 10
-7.9895567946
 20
-8.0053903828
 10
-7.9875765924
 20
-8.0079027149
 10
-7.9834959627
 20
-8.0126280936
 10
-7.9794290102
 20
-8.0166894597
 10
-7.9753746167
 20
-8.0202068377
 10
-7.9713316638
 20
-8.0233002519
 10
-7.9659569237
 20
-8.0269727541
 10
-7.9605978836
 20
-8.0303894214
 10
-7.9552518929
 20
-8.033834756
 10
-7.945304881
 20
-8.0409684444
 10
-7.9353904163
 20
-8.0489297813
 10
-7.9255048432
 20
-8.0574561024
  0
LINE
  5
701
100
AcDbEntity
  8
CURVE
100
AcDbLine
 62
250
  6
CONTINUOUS
 10
-11.0357507621
 20
4.0
 11
-11.0499620074
 21
4.0
  0
LINE
  5
702
100
AcDbEntity
  8
CURVE
100
AcDbLine
 62
250
  6
CONTINUOUS
 10
-11.1020553578
 20
4.236429
 11
-11.0963849748
 21
4.236429
  0
LINE
  5
703
100
AcDbEntity
  8
CURVE
100
AcDbLine
 62
250
  6
CONTINUOUS
 10
-11.1238139027
 20
4.346096
 11
-11.1181439909
 21
4.346096
  0
LINE
  5
704
100
AcDbEntity
  8
CURVE
100
AcDbLine
 62
250
  6
CONTINUOUS
 10
-11.0788792128
 20
4.358275
 11
-11.0732093358
 21
4.358275
  0
LINE
  5
705
100
AcDbEntity
  8
CURVE
100
AcDbLine
 62
250
  6
CONTINUOUS
 10
10.3
 20
4.3952380657
 11
9.0
 21
4.3952380657
  0
LINE
  5
706
100
AcDbEntity
  8
CURVE
100
AcDbLine
 62
250
  6
CONTINUOUS
 10
-8.5
 20
4.8083283674
 11
-7.2
 21
4.8083283674
  0
LINE
  5
707
100
AcDbEntity
  8
CURVE
100
AcDbLine
 62
250
  6
CONTINUOUS
 10
-11.0499620074
 20
4.95
 11
-11.0357507621
 21
4.95
  0
LINE
  5
708
100
AcDbEntity
  8
CURVE
100
AcDbLine
 62
250
  6
CONTINUOUS
 10
9.0
 20
5.0452380657
 11
10.3
 21
5.0452380657
  0
LINE
  5
709
100
AcDbEntity
  8
CURVE
100
AcDbLine
 62
250
  6
CONTINUOUS
 10
-7.3857142746
 20
5.3345190059
 11
-8.314285706
 21
5.3345190059
  0
LINE
  5
70A
100
AcDbEntity
  8
CURVE
100
AcDbLine
 62
250
  6
CONTINUOUS
 10
9.9285714507
 20
5.41666646
 11
9.371428588
 21
5.41666646
  0
LINE
  5
70B
100
AcDbEntity
  8
CURVE
100
AcDbLine
 62
250
  6
CONTINUOUS
 10
-8.5
 20
7.0988045763
 11
-7.2
 21
6.7273759496
  0
LINE
  5
70C
100
AcDbEntity
  8
CURVE
100
AcDbLine
 62
250
  6
CONTINUOUS
 10
9.528125
 20
1.459375
 11
9.40625
 21
1.5
  0
LINE
  5
70D
100
AcDbEntity
  8
CURVE
100
AcDbLine
 62
250
  6
CONTINUOUS
 10
10.096875
 20
1.3375
 11
9.975
 21
1.378125
  0
LINE
  5
70E
100
AcDbEntity
  8
IMPORT_IGES
100
AcDbLine
 62
7
  6
CONTINUOUS
 10
4.25
 20
2.5757142857
 11
3.796
 21
2.9
  0
LINE
  5
70F
100
AcDbEntity
  8
ASSI
100
AcDbLine
 62
7
  6
CONTINUOUS
 10
-0.25
 20
6.25
 11
0.25
 21
5.75
  0
LINE
  5
710
100
AcDbEntity
  8
ASSI
100
AcDbLine
 62
7
  6
CONTINUOUS
 10
4.75
 20
1.75
 11
4.25
 21
2.25
  0
LINE
  5
711
100
AcDbEntity
  8
CURVE
100
AcDbLine
 62
250
  6
CONTINUOUS
 10
5.75
 20
-1.0
 11
5.75
 21
-1.6785714447
  0
LINE
  5
712
100
AcDbEntity
  8
CURVE
100
AcDbLine
 62
250
  6
CONTINUOUS
 10
5.753036
 20
-9.399503
 11
5.753036
 21
-9.281883
  0
LINE
  5
713
100
AcDbEntity
  8
CURVE
100
AcDbLine
 62
250
  6
CONTINUOUS
 10
5.949484
 20
-9.225174
 11
5.949484
 21
-10.571041
  0
LINE
  5
714
100
AcDbEntity
  8
CURVE
100
AcDbLine
 62
250
  6
CONTINUOUS
 10
6.5642857224
 20
13.3214285553
 11
6.5642857224
 21
14.0
  0
LINE
  5
715
100
AcDbEntity
  8
CURVE
100
AcDbLine
 62
250
  6
CONTINUOUS
 10
9.1625
 20
1.459375
 11
9.08125
 21
1.378125
  0
LINE
  5
716
100
AcDbEntity
  8
CURVE
100
AcDbLine
 62
250
  6
CONTINUOUS
 10
-7.2
 20
-15.4428570986
 11
-7.3857142746
 21
-15.6285712957
  0
LINE
  5
717
100
AcDbEntity
  8
CURVE
100
AcDbLine
 62
250
  6
CONTINUOUS
 10
0.7142857432
 20
-7.7446469869
 11
0.5928571284
 21
-7.8660755004
  0
LINE
  5
718
100
AcDbEntity
  8
CURVE
100
AcDbLine
 62
250
  6
CONTINUOUS
 10
9.853125
 20
1.3375
 11
9.8125
 21
1.296875
  0
LINE
  5
719
100
AcDbEntity
  8
CURVE
100
AcDbLine
 62
250
  6
CONTINUOUS
 10
0.7142857432
 20
-9.3232184733
 11
0.5928571284
 21
-9.4446469869
  0
LINE
  5
71A
100
AcDbEntity
  8
CURVE
100
AcDbLine
 62
250
  6
CONTINUOUS
 10
-11.0546990889
 20
5.4928571105
 11
-11.045224926
 21
5.4928571105
  0
LINE
  5
71B
100
AcDbEntity
  8
IMPORT_IGES
100
AcDbLine
 62
7
  6
CONTINUOUS
 10
3.796
 20
5.6
 11
0.796
 21
5.6
  0
LINE
  5
71C
100
AcDbEntity
  8
ASSI
100
AcDbLine
 62
7
  6
CONTINUOUS
 10
0.25
 20
5.75
 11
4.25
 21
5.75
  0
LINE
  5
71D
100
AcDbEntity
  8
CURVE
100
AcDbLine
 62
250
  6
CONTINUOUS
 10
-8.5
 20
5.984518851
 11
-7.2
 21
5.984518851
  0
LINE
  5
71E
100
AcDbEntity
  8
CURVE
100
AcDbLine
 62
250
  6
CONTINUOUS
 10
9.371428588
 20
6.06666646
 11
9.9285714507
 21
6.06666646
  0
LINE
  5
71F
100
AcDbEntity
  8
ASSI
100
AcDbLine
 62
7
  6
CONTINUOUS
 10
-10.7130788782
 20
6.15
 11
-9.8
 21
6.15
  0
LINE
  5
720
100
AcDbEntity
  8
ASSI
100
AcDbLine
 62
7
  6
CONTINUOUS
 10
-0.25
 20
6.25
 11
4.75
 21
6.25
  0
LINE
  5
721
100
AcDbEntity
  8
CURVE
100
AcDbLine
 62
250
  6
CONTINUOUS
 10
9.185714294
 20
6.4380954742
 11
9.5571428627
 21
6.4380954742
  0
LINE
  5
722
100
AcDbEntity
  8
CURVE
100
AcDbLine
 62
250
  6
CONTINUOUS
 10
-11.045224926
 20
6.4428571105
 11
-11.0546990889
 21
6.4428571105
  0
LINE
  5
723
100
AcDbEntity
  8
ASSI
100
AcDbLine
 62
7
  6
CONTINUOUS
 10
4.75
 20
6.75
 11
-0.25
 21
6.75
  0
LINE
  5
724
100
AcDbEntity
  8
ASSI
100
AcDbLine
 62
7
  6
CONTINUOUS
 10
-10.7130788782
 20
6.85
 11
-9.8
 21
6.85
  0
LINE
  5
725
100
AcDbEntity
  8
CURVE
100
AcDbLine
 62
250
  6
CONTINUOUS
 10
9.65
 20
7.0880954742
 11
9.185714294
 21
7.0880954742
  0
LINE
  5
726
100
AcDbEntity
  8
IMPORT_IGES
100
AcDbLine
 62
7
  6
CONTINUOUS
 10
0.2480392762
 20
5.7424581379
 11
0.796
 21
5.6
  0
LINE
  5
727
100
AcDbEntity
  8
CURVE
100
AcDbLine
 62
250
  6
CONTINUOUS
 10
6.03
 20
4.570166605
 11
8.0048264889
 21
3.43
  0
LINE
  5
728
100
AcDbEntity
  8
CURVE
100
AcDbLine
 62
250
  6
CONTINUOUS
 10
9.121875
 20
0.76875
 11
9.203125
 21
0.6875
  0
LWPOLYLINE
  5
729
100
AcDbEntity
  8
RACCORDO
100
AcDbPolyline
 62
250
  6
CONTINUOUS
 90
9
 70
0
 10
3.1705494094
 20
21.8921572875
 10
3.1682552834
 20
21.9103492962
 10
3.1626804524
 20
21.928238124
 10
3.1539180741
 20
21.9455268219
 10
3.1421148335
 20
21.9619277289
 10
3.1274668403
 20
21.9771696498
 10
3.1102150287
 20
21.9910017433
 10
3.0906363067
 20
22.0031988718
 10
3.0812528557
 20
22.0077017497
  0
LINE
  5
72A
100
AcDbEntity
  8
DRAFT
100
AcDbLine
 62
7
  6
CONTINUOUS
 10
8.4579943206
 20
-20.3079943206
 11
8.4674550649
 21
-20.85
  0
LINE
  5
72B
100
AcDbEntity
  8
CURVE
100
AcDbLine
 62
250
  6
CONTINUOUS
 10
7.65
 20
14.0
 11
7.65
 21
13.3214285553
  0
LINE
  5
72C
100
AcDbEntity
  8
CURVE
100
AcDbLine
 62
250
  6
CONTINUOUS
 10
8.268279
 20
-10.61141
 11
8.268279
 21
-9.78807
  0
LINE
  5
72D
100
AcDbEntity
  8
RACCORDO
100
AcDbLine
 62
7
  6
CONTINUOUS
 10
8.45
 20
20.3
 11
8.45
 21
19.8972655375
  0
LINE
  5
72E
100
AcDbEntity
  8
RACCORDO
100
AcDbLine
 62
7
  6
CONTINUOUS
 10
8.45
 20
-20.3
 11
8.45
 21
-19.8972655375
  0
LINE
  5
72F
100
AcDbEntity
  8
RACCORDO
100
AcDbLine
 62
7
  6
CONTINUOUS
 10
8.4674550649
 20
20.85
 11
8.4674550649
 21
19.8794603859
  0
LINE
  5
730
100
AcDbEntity
  8
RACCORDO
100
AcDbLine
 62
7
  6
CONTINUOUS
 10
8.4674550649
 20
-19.8794603859
 11
8.4674550649
 21
-20.85
  0
LINE
  5
731
100
AcDbEntity
  8
CURVE
100
AcDbLine
 62
250
  6
CONTINUOUS
 10
8.483915
 20
-9.78807
 11
8.483915
 21
-10.61141
  0
LINE
  5
732
100
AcDbEntity
  8
CURVE
100
AcDbLine
 62
250
  6
CONTINUOUS
 10
8.576331
 20
-11.417947
 11
8.576331
 21
-11.067887
  0
LINE
  5
733
100
AcDbEntity
  8
DRAFT
100
AcDbLine
 62
7
  6
CONTINUOUS
 10
8.4674550649
 20
20.85
 11
8.4579943206
 21
20.3079943206
  0
LINE
  5
734
100
AcDbEntity
  8
ASSI
100
AcDbLine
 62
7
  6
CONTINUOUS
 10
3.4
 20
-22.3297297297
 11
3.3633443637
 21
-22.5
  0
LINE
  5
735
100
AcDbEntity
  8
CURVE
100
AcDbLine
 62
250
  6
CONTINUOUS
 10
9.040625
 20
1.296875
 11
9.0
 21
1.175
  0
LINE
  5
736
100
AcDbEntity
  8
CURVE
100
AcDbLine
 62
250
  6
CONTINUOUS
 10
9.771875
 20
1.215625
 11
9.73125
 21
1.09375
  0
LINE
  5
737
100
AcDbEntity
  8
CURVE
100
AcDbLine
 62
250
  6
CONTINUOUS
 10
9.08125
 20
1.378125
 11
9.040625
 21
1.296875
  0
LINE
  5
738
100
AcDbEntity
  8
CURVE
100
AcDbLine
 62
250
  6
CONTINUOUS
 10
9.8125
 20
1.296875
 11
9.771875
 21
1.215625
  0
LINE
  5
739
100
AcDbEntity
  8
CURVE
100
AcDbLine
 62
250
  6
CONTINUOUS
 10
10.096875
 20
0.6875
 11
10.1375
 21
0.76875
  0
LINE
  5
73A
100
AcDbEntity
  8
ASSI
100
AcDbLine
 62
7
  6
CONTINUOUS
 10
-2.7167632191
 20
-21.6560705017
 11
-2.9969695968
 21
-22.2
  0
LINE
  5
73B
100
AcDbEntity
  8
RACCORDO
100
AcDbLine
 62
250
  6
CONTINUOUS
 10
-9.65
 20
-20.4000761524
 11
-9.6412724675
 21
-20.39134862
  0
LINE
  5
73C
100
AcDbEntity
  8
CURVE
100
AcDbLine
 62
7
  6
CONTINUOUS
 10
3.12
 20
-8.0711168637
 11
3.2834788637
 21
-7.907638
  0
LINE
  5
73D
100
AcDbEntity
  8
CURVE
100
AcDbLine
 62
7
  6
CONTINUOUS
 10
3.12
 20
-8.2811275777
 11
3.4934895777
 21
-7.907638
  0
LINE
  5
73E
100
AcDbEntity
  8
CURVE
100
AcDbLine
 62
7
  6
CONTINUOUS
 10
3.12
 20
-8.4911382917
 11
3.7035002917
 21
-7.907638
  0
LINE
  5
73F
100
AcDbEntity
  8
RACCORDO
100
AcDbLine
 62
250
  6
CONTINUOUS
 10
-9.1500761524
 20
-20.9
 11
-9.14134862
 21
-20.8912724675
  0
LINE
  5
740
100
AcDbEntity
  8
CURVE
100
AcDbLine
 62
7
  6
CONTINUOUS
 10
3.12
 20
-8.7011490057
 11
3.9135110057
 21
-7.907638
  0
LINE
  5
741
100
AcDbEntity
  8
DRAFT
100
AcDbLine
 62
7
  6
CONTINUOUS
 10
-8.4579943206
 20
-20.3079943206
 11
-8.45
 21
-20.3
  0
LINE
  5
742
100
AcDbEntity
  8
CURVE
100
AcDbLine
 62
7
  6
CONTINUOUS
 10
3.12
 20
-8.9111597198
 11
4.1235217198
 21
-7.907638
  0
LINE
  5
743
100
AcDbEntity
  8
CURVE
100
AcDbLine
 62
7
  6
CONTINUOUS
 10
3.12
 20
-9.1211704338
 11
4.139012
 21
-8.1021584338
  0
LINE
  5
744
100
AcDbEntity
  8
CURVE
100
AcDbLine
 62
7
  6
CONTINUOUS
 10
3.12
 20
-9.3311811478
 11
4.139012
 21
-8.3121691478
  0
LINE
  5
745
100
AcDbEntity
  8
IMPORT_IGES
100
AcDbLine
 62
7
  6
CONTINUOUS
 10
0.796
 20
7.9
 11
0.25
 21
7.7580516086
  0
LINE
  5
746
100
AcDbEntity
  8
ASSI
100
AcDbLine
 62
7
  6
CONTINUOUS
 10
4.25
 20
7.25
 11
0.25
 21
7.25
  0
LINE
  5
747
100
AcDbEntity
  8
IMPORT_IGES
100
AcDbLine
 62
7
  6
CONTINUOUS
 10
4.25
 20
7.4
 11
0.25
 21
7.4
  0
LINE
  5
748
100
AcDbEntity
  8
CURVE
100
AcDbLine
 62
250
  6
CONTINUOUS
 10
-7.2
 20
7.4702331256
 11
-8.5
 21
7.4702331256
  0
LINE
  5
749
100
AcDbEntity
  8
CURVE
100
AcDbLine
 62
250
  6
CONTINUOUS
 10
-11.0594361704
 20
7.5285713315
 11
-11.0262765981
 21
7.5285713315
  0
LINE
  5
74A
100
AcDbEntity
  8
CURVE
100
AcDbLine
 62
250
  6
CONTINUOUS
 10
-11.0732093358
 20
7.672513
 11
-11.1238139027
 21
7.672513
  0
LINE
  5
74B
100
AcDbEntity
  8
IMPORT_IGES
100
AcDbLine
 62
7
  6
CONTINUOUS
 10
3.796
 20
7.9
 11
0.796
 21
7.9
  0
LINE
  5
74C
100
AcDbEntity
  8
CURVE
100
AcDbLine
 62
250
  6
CONTINUOUS
 10
5.75
 20
8.05
 11
7.65
 21
8.05
  0
LINE
  5
74D
100
AcDbEntity
  8
CURVE
100
AcDbLine
 62
250
  6
CONTINUOUS
 10
-11.1181439909
 20
8.058362
 11
-11.1020553578
 21
8.058362
  0
LINE
  5
74E
100
AcDbEntity
  8
CURVE
100
AcDbLine
 62
250
  6
CONTINUOUS
 10
-11.0963849748
 20
8.058362
 11
-11.0788792128
 21
8.058362
  0
LINE
  5
74F
100
AcDbEntity
  8
CURVE
100
AcDbLine
 62
250
  6
CONTINUOUS
 10
-8.5
 20
8.2130903017
 11
-7.2
 21
8.2130903017
  0
LINE
  5
750
100
AcDbEntity
  8
CURVE
100
AcDbLine
 62
250
  6
CONTINUOUS
 10
-11.0475934657
 20
8.8404762983
 11
-11.0546990889
 21
8.8404762983
  0
LINE
  5
751
100
AcDbEntity
  8
CURVE
100
AcDbLine
 62
250
  6
CONTINUOUS
 10
-11.0286451391
 20
8.885714221
 11
-11.0404878435
 21
8.885714221
  0
LWPOLYLINE
  5
752
100
AcDbEntity
  8
CURVE
100
AcDbPolyline
 62
250
  6
CONTINUOUS
 90
17
 70
0
 10
-11.0934704843
 20
12.7230857555
 10
-11.092859809
 20
12.7228954368
 10
-11.0922491063
 20
12.7222911373
 10
-11.0916385445
 20
12.721222842
 10
-11.0910282916
 20
12.7196405359
 10
-11.090418516
 20
12.717494204
 10
-11.0898093857
 20
12.7147338314
 10
-11.089201069
 20
12.7113094029
 10
-11.0885937339
 20
12.7071709037
 10
-11.0879875487
 20
12.7022683186
 10
-11.0873826816
 20
12.6965516328
 10
-11.0867793007
 20
12.6899708312
 10
-11.0861775741
 20
12.6824758988
 10
-11.0857108292
 20
12.6759814809
 10
-11.0852459228
 20
12.6688823295
 10
-11.0847835904
 20
12.6611572004
 10
-11.0843245675
 20
12.6527848497
  0
LINE
  5
753
100
AcDbEntity
  8
CURVE
100
AcDbLine
 62
250
  6
CONTINUOUS
 10
9.9285714507
 20
3.46666646
 11
9.0
 21
4.0238096714
  0
LINE
  5
754
100
AcDbEntity
  8
IMPORT_IGES
100
AcDbLine
 62
7
  6
CONTINUOUS
 10
4.25
 20
7.5757142857
 11
3.796
 21
7.9
  0
LINE
  5
755
100
AcDbEntity
  8
RACCORDO
100
AcDbLine
 62
250
  6
CONTINUOUS
 10
-9.65
 20
20.4000761524
 11
-9.6412724675
 21
20.39134862
  0
LINE
  5
756
100
AcDbEntity
  8
CURVE
100
AcDbLine
 62
250
  6
CONTINUOUS
 10
9.609375
 20
1.378125
 11
9.528125
 21
1.459375
  0
LINE
  5
757
100
AcDbEntity
  8
ASSI
100
AcDbLine
 62
7
  6
CONTINUOUS
 10
-0.25
 20
11.25
 11
0.25
 21
10.75
  0
LINE
  5
758
100
AcDbEntity
  8
CURVE
100
AcDbLine
 62
250
  6
CONTINUOUS
 10
10.178125
 20
1.25625
 11
10.096875
 21
1.3375
  0
LINE
  5
759
100
AcDbEntity
  8
ASSI
100
AcDbLine
 62
7
  6
CONTINUOUS
 10
4.75
 20
6.75
 11
4.25
 21
7.25
  0
LINE
  5
75A
100
AcDbEntity
  8
RACCORDO
100
AcDbLine
 62
250
  6
CONTINUOUS
 10
-9.1500761524
 20
20.9
 11
-9.14134862
 21
20.8912724675
  0
LINE
  5
75B
100
AcDbEntity
  8
DRAFT
100
AcDbLine
 62
7
  6
CONTINUOUS
 10
-8.4579943206
 20
20.3079943206
 11
-8.45
 21
20.3
  0
LINE
  5
75C
100
AcDbEntity
  8
CURVE
100
AcDbLine
 62
250
  6
CONTINUOUS
 10
9.040625
 20
0.890625
 11
9.121875
 21
0.76875
  0
LINE
  5
75D
100
AcDbEntity
  8
CURVE
100
AcDbLine
 62
250
  6
CONTINUOUS
 10
8.0048264889
 20
3.43
 11
7.7448264889
 21
3.88033321
  0
LINE
  5
75E
100
AcDbEntity
  8
ASSI
100
AcDbLine
 62
7
  6
CONTINUOUS
 10
-2.7167632191
 20
21.6560705017
 11
-2.9969695968
 21
22.2
  0
LINE
  5
75F
100
AcDbEntity
  8
CURVE
100
AcDbLine
 62
250
  6
CONTINUOUS
 10
6.8285714626
 20
4.8900000019
 11
7.0428571641
 21
4.3899999925
  0
LINE
  5
760
100
AcDbEntity
  8
CURVE
100
AcDbLine
 62
250
  6
CONTINUOUS
 10
6.6142857164
 20
3.8185714105
 11
6.8285714626
 21
3.2471427837
  0
LINE
  5
761
100
AcDbEntity
  8
ASSI
100
AcDbLine
 62
7
  6
CONTINUOUS
 10
3.4
 20
22.3297297297
 11
3.3633443637
 21
22.5
  0
LWPOLYLINE
  5
762
100
AcDbEntity
  8
CURVE
100
AcDbPolyline
 62
250
  6
CONTINUOUS
 90
57
 70
0
 10
9.7471163321
 20
-9.8430726704
 10
9.7454410184
 20
-9.8056019211
 10
9.7431067644
 20
-9.7680536133
 10
9.7401265515
 20
-9.7304820334
 10
9.7365133616
 20
-9.6929414676
 10
9.7322801764
 20
-9.655486202
 10
9.7274399776
 20
-9.6181705228
 10
9.7220057468
 20
-9.5810487164
 10
9.7159904659
 20
-9.5441750688
 10
9.7094071164
 20
-9.5076038664
 10
9.7022686802
 20
-9.4713893953
 10
9.697390825
 20
-9.4483427971
 10
9.6922459936
 20
-9.4254360402
 10
9.6867907004
 20
-9.4026395177
 10
9.6809814601
 20
-9.3799236227
 10
9.6747747871
 20
-9.3572587486
 10
9.6681271961
 20
-9.3346152884
 10
9.6609952015
 20
-9.3119636353
 10
9.6533353178
 20
-9.2892741825
 10
9.6451040598
 20
-9.2665173232
 10
9.6362579418
 20
-9.2436634507
 10
9.6267534784
 20
-9.220682958
 10
9.6165471841
 20
-9.1975462383
 10
9.6055955736
 20
-9.1742236849
 10
9.5998068852
 20
-9.1624465914
 10
9.5938199318
 20
-9.1506401302
 10
9.5876350469
 20
-9.1388291758
 10
9.5812525641
 20
-9.1270386026
 10
9.574672817
 20
-9.1152932849
 10
9.5678961391
 20
-9.1036180971
 10
9.5609228639
 20
-9.0920379136
 10
9.5537533251
 20
-9.0805776088
 10
9.5463878562
 20
-9.0692620572
 10
9.5388267908
 20
-9.058116133
 10
9.5310704624
 20
-9.0471647107
 10
9.5231192046
 20
-9.0364326646
 10
9.514973351
 20
-9.0259448692
 10
9.5066332351
 20
-9.0157261988
 10
9.4980991905
 20
-9.0058015279
 10
9.4893715507
 20
-8.9961957308
 10
9.4804506494
 20
-8.9869336819
 10
9.4713368201
 20
-8.9780402556
 10
9.4620303964
 20
-8.9695403262
 10
9.4525317117
 20
-8.9614587683
 10
9.4428410998
 20
-8.9538204561
 10
9.4329588941
 20
-8.946650264
 10
9.4228854282
 20
-8.9399730665
 10
9.4126210357
 20
-8.933813738
 10
9.4021660502
 20
-8.9281971527
 10
9.3915208051
 20
-8.9231481852
 10
9.3806856341
 20
-8.9186917098
 10
9.3696608708
 20
-8.9148526008
 10
9.3584468487
 20
-8.9116557327
 10
9.3470439013
 20
-8.9091259799
 10
9.3354523623
 20
-8.9072882168
 10
9.3236725652
 20
-8.9061673176
 10
9.3117048435
 20
-8.905788157
  0
LINE
  5
763
100
AcDbEntity
  8
CURVE
100
AcDbLine
 62
250
  6
CONTINUOUS
 10
8.948795
 20
-11.067887
 11
8.948795
 21
-11.417947
  0
LINE
  5
764
100
AcDbEntity
  8
CURVE
100
AcDbLine
 62
250
  6
CONTINUOUS
 10
9.0
 20
6.9023806572
 11
9.0
 21
6.6238096714
  0
LINE
  5
765
100
AcDbEntity
  8
CURVE
100
AcDbLine
 62
250
  6
CONTINUOUS
 10
9.0
 20
4.0238096714
 11
9.0
 21
3.46666646
  0
LINE
  5
766
100
AcDbEntity
  8
CURVE
100
AcDbLine
 62
250
  6
CONTINUOUS
 10
9.0
 20
1.175
 11
9.0
 21
1.053125
  0
LINE
  5
767
100
AcDbEntity
  8
CURVE
100
AcDbLine
 62
250
  6
CONTINUOUS
 10
9.0
 20
5.6952380657
 11
9.0
 21
5.7880954742
  0
LINE
  5
768
100
AcDbEntity
  8
CURVE
100
AcDbLine
 62
250
  6
CONTINUOUS
 10
9.0
 20
10.8642856479
 11
9.0
 21
10.9571429014
  0
LINE
  5
769
100
AcDbEntity
  8
CURVE
100
AcDbLine
 62
250
  6
CONTINUOUS
 10
9.0
 20
11.6071429014
 11
9.0
 21
12.2571428239
  0
LINE
  5
76A
100
AcDbEntity
  8
CURVE
100
AcDbLine
 62
250
  6
CONTINUOUS
 10
9.311705
 20
-8.690027
 11
9.311705
 21
-11.127934
  0
LINE
  5
76B
100
AcDbEntity
  8
0
100
AcDbLine
 62
7
  6
CONTINUOUS
 10
9.546
 20
18.74
 11
9.546
 21
18.3652477049
  0
LINE
  5
76C
100
AcDbEntity
  8
0
100
AcDbLine
 62
7
  6
CONTINUOUS
 10
9.546
 20
-18.74
 11
9.546
 21
-18.3652477049
  0
LINE
  5
76D
100
AcDbEntity
  8
0
100
AcDbLine
 62
250
  6
CONTINUOUS
 10
9.556
 20
18.54
 11
9.556
 21
18.35
  0
LINE
  5
76E
100
AcDbEntity
  8
0
100
AcDbLine
 62
250
  6
CONTINUOUS
 10
9.556
 20
-18.54
 11
9.556
 21
-18.35
  0
LINE
  5
76F
100
AcDbEntity
  8
RACCORDO
100
AcDbLine
 62
7
  6
CONTINUOUS
 10
9.6412724675
 20
20.39134862
 11
9.6412724675
 21
18.642060866
  0
LINE
  5
770
100
AcDbEntity
  8
RACCORDO
100
AcDbLine
 62
7
  6
CONTINUOUS
 10
9.6412724675
 20
-20.39134862
 11
9.6412724675
 21
-18.642060866
  0
LINE
  5
771
100
AcDbEntity
  8
RACCORDO
100
AcDbLine
 62
7
  6
CONTINUOUS
 10
9.65
 20
-20.4000761524
 11
9.65
 21
-18.6319979818
  0
LINE
  5
772
100
AcDbEntity
  8
RACCORDO
100
AcDbLine
 62
7
  6
CONTINUOUS
 10
9.65
 20
18.6319979818
 11
9.65
 21
20.4000761524
  0
LINE
  5
773
100
AcDbEntity
  8
CURVE
100
AcDbLine
 62
250
  6
CONTINUOUS
 10
9.706323
 20
-9.218216
 11
9.706323
 21
-9.31759
  0
LINE
  5
774
100
AcDbEntity
  8
CURVE
100
AcDbLine
 62
250
  6
CONTINUOUS
 10
9.73125
 20
1.09375
 11
9.73125
 21
1.053125
  0
LINE
  5
775
100
AcDbEntity
  8
CURVE
100
AcDbLine
 62
250
  6
CONTINUOUS
 10
9.7428571761
 20
5.0452380657
 11
9.7428571761
 21
4.3952380657
  0
LINE
  5
776
100
AcDbEntity
  8
CURVE
100
AcDbLine
 62
250
  6
CONTINUOUS
 10
9.7428571761
 20
6.6238096714
 11
9.7428571761
 21
7.0261903286
  0
LINE
  5
777
100
AcDbEntity
  8
0
100
AcDbLine
 62
7
  6
CONTINUOUS
 10
9.746
 20
18.35
 11
9.746
 21
18.1252477049
  0
LINE
  5
778
100
AcDbEntity
  8
0
100
AcDbLine
 62
7
  6
CONTINUOUS
 10
9.746
 20
-18.35
 11
9.746
 21
-18.1252477049
  0
LINE
  5
779
100
AcDbEntity
  8
CURVE
100
AcDbLine
 62
250
  6
CONTINUOUS
 10
9.9285714507
 20
4.0238096714
 11
9.9285714507
 21
3.46666646
  0
LINE
  5
77A
100
AcDbEntity
  8
CURVE
100
AcDbLine
 62
250
  6
CONTINUOUS
 10
10.21875
 20
1.053125
 11
10.21875
 21
1.134375
  0
LINE
  5
77B
100
AcDbEntity
  8
CURVE
100
AcDbLine
 62
250
  6
CONTINUOUS
 10
10.3
 20
10.9571429014
 11
10.3
 21
10.8642856479
  0
LINE
  5
77C
100
AcDbEntity
  8
CURVE
100
AcDbLine
 62
250
  6
CONTINUOUS
 10
10.3
 20
5.7880954742
 11
10.3
 21
5.6952380657
  0
LINE
  5
77D
100
AcDbEntity
  8
CURVE
100
AcDbLine
 62
250
  6
CONTINUOUS
 10
10.3
 20
11.7928571761
 11
10.3
 21
12.0714285493
  0
LINE
  5
77E
100
AcDbEntity
  8
CURVE
100
AcDbLine
 62
250
  6
CONTINUOUS
 10
9.581245
 20
-10.416076
 11
9.581803
 21
-9.843073
  0
LINE
  5
77F
100
AcDbEntity
  8
CURVE
100
AcDbLine
 62
250
  6
CONTINUOUS
 10
9.799297
 20
-9.843073
 11
9.798739
 21
-10.416076
  0
LINE
  5
780
100
AcDbEntity
  8
CURVE
100
AcDbLine
 62
250
  6
CONTINUOUS
 10
10.178125
 20
0.890625
 11
10.21875
 21
1.053125
  0
LINE
  5
781
100
AcDbEntity
  8
CURVE
100
AcDbLine
 62
250
  6
CONTINUOUS
 10
10.1375
 20
0.76875
 11
10.178125
 21
0.890625
  0
LINE
  5
782
100
AcDbEntity
  8
CURVE
100
AcDbLine
 62
7
  6
CONTINUOUS
 10
3.12
 20
-9.5411918618
 11
4.139012
 21
-8.5221798618
  0
LINE
  5
783
100
AcDbEntity
  8
CURVE
100
AcDbLine
 62
7
  6
CONTINUOUS
 10
3.12
 20
-9.7512025758
 11
4.139012
 21
-8.7321905758
  0
LINE
  5
784
100
AcDbEntity
  8
CURVE
100
AcDbLine
 62
7
  6
CONTINUOUS
 10
3.12
 20
-9.9612132898
 11
4.139012
 21
-8.9422012898
  0
LINE
  5
785
100
AcDbEntity
  8
CURVE
100
AcDbLine
 62
7
  6
CONTINUOUS
 10
3.12
 20
-10.1712240038
 11
4.139012
 21
-9.1522120038
  0
LINE
  5
786
100
AcDbEntity
  8
CURVE
100
AcDbLine
 62
7
  6
CONTINUOUS
 10
3.12
 20
-10.3812347178
 11
4.139012
 21
-9.3622227178
  0
LINE
  5
787
100
AcDbEntity
  8
CURVE
100
AcDbLine
 62
7
  6
CONTINUOUS
 10
3.12
 20
-10.5912454319
 11
4.139012
 21
-9.5722334319
  0
LINE
  5
788
100
AcDbEntity
  8
CURVE
100
AcDbLine
 62
7
  6
CONTINUOUS
 10
3.12
 20
-10.8012561459
 11
4.139012
 21
-9.7822441459
  0
LINE
  5
789
100
AcDbEntity
  8
CURVE
100
AcDbLine
 62
7
  6
CONTINUOUS
 10
3.12
 20
-11.0112668599
 11
4.139012
 21
-9.9922548599
  0
LINE
  5
78A
100
AcDbEntity
  8
CURVE
100
AcDbLine
 62
7
  6
CONTINUOUS
 10
3.12
 20
-11.2212775739
 11
4.139012
 21
-10.2022655739
  0
LINE
  5
78B
100
AcDbEntity
  8
CURVE
100
AcDbLine
 62
7
  6
CONTINUOUS
 10
3.12
 20
-11.4312882879
 11
4.139012
 21
-10.4122762879
  0
LINE
  5
78C
100
AcDbEntity
  8
CURVE
100
AcDbLine
 62
7
  6
CONTINUOUS
 10
3.12
 20
-11.6412990019
 11
4.139012
 21
-10.6222870019
  0
LINE
  5
78D
100
AcDbEntity
  8
CURVE
100
AcDbLine
 62
7
  6
CONTINUOUS
 10
3.12
 20
-11.8513097159
 11
4.139012
 21
-10.8322977159
  0
LINE
  5
78E
100
AcDbEntity
  8
CURVE
100
AcDbLine
 62
250
  6
CONTINUOUS
 10
-8.314285706
 20
-15.1642858028
 11
-8.128571412
 21
-15.0714287043
  0
LINE
  5
78F
100
AcDbEntity
  8
CURVE
100
AcDbLine
 62
250
  6
CONTINUOUS
 10
5.75
 20
9.0
 11
7.65
 21
9.0
  0
LINE
  5
790
100
AcDbEntity
  8
CURVE
100
AcDbLine
 62
250
  6
CONTINUOUS
 10
-11.1020553578
 20
9.565307
 11
-11.0963849748
 21
9.565307
  0
LINE
  5
791
100
AcDbEntity
  8
CURVE
100
AcDbLine
 62
250
  6
CONTINUOUS
 10
-11.1238139027
 20
9.67489
 11
-11.1181439909
 21
9.67489
  0
LINE
  5
792
100
AcDbEntity
  8
CURVE
100
AcDbLine
 62
250
  6
CONTINUOUS
 10
-11.0788792128
 20
9.687123
 11
-11.0732093358
 21
9.687123
  0
LINE
  5
793
100
AcDbEntity
  8
CURVE
100
AcDbLine
 62
250
  6
CONTINUOUS
 10
-11.0262765981
 20
10.0619047403
 11
-11.0428563842
 21
10.0619047403
  0
LINE
  5
794
100
AcDbEntity
  8
CURVE
100
AcDbLine
 62
250
  6
CONTINUOUS
 10
9.9285714507
 20
10.5857143521
 11
9.371428588
 21
10.5857143521
  0
LINE
  5
795
100
AcDbEntity
  8
IMPORT_IGES
100
AcDbLine
 62
7
  6
CONTINUOUS
 10
3.796
 20
10.6
 11
0.796
 21
10.6
  0
LINE
  5
796
100
AcDbEntity
  8
IMPORT_IGES
100
AcDbLine
 62
7
  6
CONTINUOUS
 10
0.2480392762
 20
10.7424581379
 11
0.796
 21
10.6
  0
LINE
  5
797
100
AcDbEntity
  8
CURVE
100
AcDbLine
 62
250
  6
CONTINUOUS
 10
9.371428588
 20
5.41666646
 11
9.185714294
 21
5.5095238686
  0
LINE
  5
798
100
AcDbEntity
  8
CURVE
100
AcDbLine
 62
250
  6
CONTINUOUS
 10
9.9285714507
 20
6.06666646
 11
10.1142857254
 21
5.9738096714
  0
LINE
  5
799
100
AcDbEntity
  8
CURVE
100
AcDbLine
 62
250
  6
CONTINUOUS
 10
9.185714294
 20
5.5095238686
 11
9.0
 21
5.6952380657
  0
LWPOLYLINE
  5
79A
100
AcDbEntity
  8
RACCORDO
100
AcDbPolyline
 62
7
  6
CONTINUOUS
 90
11
 70
0
 10
-3.2371426149
 20
21.9370647395
 10
-3.2364960555
 20
21.9361245688
 10
-3.2358785591
 20
21.9338165157
 10
-3.2352901257
 20
21.9301405802
 10
-3.2347299433
 20
21.9249831017
 10
-3.2341988239
 20
21.918457741
 10
-3.2336992037
 20
21.9109054795
 10
-3.233232855
 20
21.9024250808
 10
-3.2327980056
 20
21.8929177814
 10
-3.2323917741
 20
21.8824282727
 10
-3.2320105844
 20
21.8708813614
  0
LINE
  5
79B
100
AcDbEntity
  8
CURVE
100
AcDbLine
 62
250
  6
CONTINUOUS
 10
9.690625
 20
1.215625
 11
9.609375
 21
1.378125
  0
LINE
  5
79C
100
AcDbEntity
  8
CURVE
100
AcDbLine
 62
250
  6
CONTINUOUS
 10
10.21875
 20
1.134375
 11
10.178125
 21
1.25625
  0
LINE
  5
79D
100
AcDbEntity
  8
CURVE
100
AcDbLine
 62
250
  6
CONTINUOUS
 10
9.0
 20
1.053125
 11
9.040625
 21
0.890625
  0
LINE
  5
79E
100
AcDbEntity
  8
CURVE
100
AcDbLine
 62
250
  6
CONTINUOUS
 10
9.73125
 20
1.053125
 11
9.690625
 21
1.215625
  0
LINE
  5
79F
100
AcDbEntity
  8
ASSI
100
AcDbLine
 62
7
  6
CONTINUOUS
 10
11.1777453242
 20
0.6685343766
 11
11.1587898917
 21
1.1996074236
  0
LWPOLYLINE
  5
7A0
100
AcDbEntity
  8
ASSI
100
AcDbPolyline
 62
7
  6
CONTINUOUS
 90
13
 70
0
 10
11.15
 20
16.119659166
 10
11.1468077508
 20
16.2316570494
 10
11.1375097336
 20
16.3426042235
 10
11.1221059485
 20
16.4525006882
 10
11.10051091
 20
16.5616735612
 10
11.0728101035
 20
16.6697957248
 10
11.0392599851
 20
16.7758858265
 10
10.9998103071
 20
16.87992641
 10
10.9545113172
 20
16.9819349315
 10
10.903770214
 20
17.0809824067
 10
10.8477227304
 20
17.1767591739
 10
10.7862331336
 20
17.2695748947
 10
10.7193014234
 20
17.3594295692
  0
LINE
  5
7A1
100
AcDbEntity
  8
ASSI
100
AcDbLine
 62
7
  6
CONTINUOUS
 10
11.1778367071
 20
0.6661475531
 11
11.1777791133
 21
0.6698650624
  0
LINE
  5
7A2
100
AcDbEntity
  8
ASSI
100
AcDbLine
 62
7
  6
CONTINUOUS
 10
11.0130903017
 20
-16.3151104233
 11
11.0130903017
 21
16.3151104233
  0
LINE
  5
7A3
100
AcDbEntity
  8
ASSI
100
AcDbLine
 62
7
  6
CONTINUOUS
 10
11.15
 20
16.119659166
 11
11.15
 21
1.25
  0
LINE
  5
7A4
100
AcDbEntity
  8
ASSI
100
AcDbLine
 62
7
  6
CONTINUOUS
 10
11.15
 20
-1.25
 11
11.15
 21
-16.119659166
  0
LINE
  5
7A5
100
AcDbEntity
  8
DRAFT
100
AcDbLine
 62
7
  6
CONTINUOUS
 10
11.15
 20
-21.8997711479
 11
11.15
 21
-13.2174550649
  0
LINE
  5
7A6
100
AcDbEntity
  8
DRAFT
100
AcDbLine
 62
7
  6
CONTINUOUS
 10
11.15
 20
-8.9825449351
 11
11.15
 21
-1.3174550649
  0
LINE
  5
7A7
100
AcDbEntity
  8
DRAFT
100
AcDbLine
 62
7
  6
CONTINUOUS
 10
11.15
 20
1.3174550649
 11
11.15
 21
8.9825449351
  0
LINE
  5
7A8
100
AcDbEntity
  8
DRAFT
100
AcDbLine
 62
7
  6
CONTINUOUS
 10
11.15
 20
13.2174550649
 11
11.15
 21
21.8997711479
  0
LINE
  5
7A9
100
AcDbEntity
  8
ASSI
100
AcDbLine
 62
250
  6
CONTINUOUS
 10
11.1777453242
 20
0.6685343766
 11
11.1778367071
 21
0.6661475531
  0
LINE
  5
7AA
100
AcDbEntity
  8
ASSI
100
AcDbLine
 62
250
  6
CONTINUOUS
 10
11.1778367071
 20
-0.6661475531
 11
11.1777453242
 21
-0.6665860294
  0
LINE
  5
7AB
100
AcDbEntity
  8
ASSI
100
AcDbLine
 62
7
  6
CONTINUOUS
 10
11.1778367071
 20
0.6661475531
 11
11.1778367071
 21
-0.6661475531
  0
LINE
  5
7AC
100
AcDbEntity
  8
ASSI
100
AcDbLine
 62
7
  6
CONTINUOUS
 10
11.1777878229
 20
-0.6696221087
 11
11.1778367071
 21
-0.6661475531
  0
LWPOLYLINE
  5
7AD
100
AcDbEntity
  8
ASSI
100
AcDbPolyline
 62
7
  6
CONTINUOUS
 90
13
 70
0
 10
11.15
 20
-16.119659166
 10
11.1468077508
 20
-16.2316570494
 10
11.1375097336
 20
-16.3426042235
 10
11.1221059485
 20
-16.4525006882
 10
11.10051091
 20
-16.5616735612
 10
11.0728101035
 20
-16.6697957248
 10
11.0392599851
 20
-16.7758858265
 10
10.9998103071
 20
-16.87992641
 10
10.9545113172
 20
-16.9819349315
 10
10.903770214
 20
-17.0809824067
 10
10.8477227304
 20
-17.1767591739
 10
10.7862331336
 20
-17.2695748947
 10
10.7193014234
 20
-17.3594295692
  0
LINE
  5
7AE
100
AcDbEntity
  8
ASSI
100
AcDbLine
 62
7
  6
CONTINUOUS
 10
11.1587898917
 20
-1.1996074236
 11
11.1777453242
 21
-0.6665860294
  0
LINE
  5
7AF
100
AcDbEntity
  8
CURVE
100
AcDbLine
 62
7
  6
CONTINUOUS
 10
3.12
 20
-12.0613204299
 11
4.139012
 21
-11.0423084299
  0
LINE
  5
7B0
100
AcDbEntity
  8
CURVE
100
AcDbLine
 62
7
  6
CONTINUOUS
 10
3.298969144
 20
-12.092362
 11
4.139012
 21
-11.252319144
  0
LINE
  5
7B1
100
AcDbEntity
  8
CURVE
100
AcDbLine
 62
7
  6
CONTINUOUS
 10
3.508979858
 20
-12.092362
 11
4.139012
 21
-11.462329858
  0
LINE
  5
7B2
100
AcDbEntity
  8
CURVE
100
AcDbLine
 62
7
  6
CONTINUOUS
 10
3.718990572
 20
-12.092362
 11
4.139012
 21
-11.672340572
  0
LINE
  5
7B3
100
AcDbEntity
  8
CURVE
100
AcDbLine
 62
7
  6
CONTINUOUS
 10
3.929001286
 20
-12.092362
 11
4.139012
 21
-11.882351286
  0
LINE
  5
7B4
100
AcDbEntity
  8
CURVE
100
AcDbLine
 62
250
  6
CONTINUOUS
 10
-7.3857142746
 20
-15.6285712957
 11
-7.5714285493
 21
-15.7214287043
  0
LINE
  5
7B5
100
AcDbEntity
  8
ASSI
100
AcDbLine
 62
250
  6
CONTINUOUS
 10
-11.15
 20
-16.119659166
 11
-11.0130903017
 21
-16.0720258912
  0
LINE
  5
7B6
100
AcDbEntity
  8
IMPORT_IGES
100
AcDbLine
 62
7
  6
CONTINUOUS
 10
0.796
 20
12.9
 11
0.25
 21
12.7580516086
  0
LINE
  5
7B7
100
AcDbEntity
  8
CURVE
100
AcDbLine
 62
250
  6
CONTINUOUS
 10
-11.0934704843
 20
10.6804049345
 11
-11.1238612424
 21
10.6804049345
  0
LINE
  5
7B8
100
AcDbEntity
  8
ASSI
100
AcDbLine
 62
7
  6
CONTINUOUS
 10
0.25
 20
10.75
 11
4.25
 21
10.75
  0
LINE
  5
7B9
100
AcDbEntity
  8
CURVE
100
AcDbLine
 62
250
  6
CONTINUOUS
 10
-11.1238612424
 20
10.859433236
 11
-11.0934704843
 21
10.859433236
  0
LINE
  5
7BA
100
AcDbEntity
  8
ASSI
100
AcDbLine
 62
7
  6
CONTINUOUS
 10
-10.7130788782
 20
11.15
 11
-9.8
 21
11.15
  0
LINE
  5
7BB
100
AcDbEntity
  8
CURVE
100
AcDbLine
 62
250
  6
CONTINUOUS
 10
-11.0294346527
 20
11.192857337
 11
-11.0302241663
 21
11.192857337
  0
LINE
  5
7BC
100
AcDbEntity
  8
CURVE
100
AcDbLine
 62
250
  6
CONTINUOUS
 10
9.371428588
 20
11.2357143521
 11
9.9285714507
 21
11.2357143521
  0
LINE
  5
7BD
100
AcDbEntity
  8
ASSI
100
AcDbLine
 62
7
  6
CONTINUOUS
 10
-0.25
 20
11.25
 11
4.75
 21
11.25
  0
LINE
  5
7BE
100
AcDbEntity
  8
CURVE
100
AcDbLine
 62
250
  6
CONTINUOUS
 10
-11.0302241663
 20
11.3738094807
 11
-11.0294346527
 21
11.3738094807
  0
LINE
  5
7BF
100
AcDbEntity
  8
CURVE
100
AcDbLine
 62
250
  6
CONTINUOUS
 10
9.9285714507
 20
11.6071429014
 11
10.1142857254
 21
11.6071429014
  0
LINE
  5
7C0
100
AcDbEntity
  8
ASSI
100
AcDbLine
 62
7
  6
CONTINUOUS
 10
4.75
 20
11.75
 11
-0.25
 21
11.75
  0
LINE
  5
7C1
100
AcDbEntity
  8
ASSI
100
AcDbLine
 62
7
  6
CONTINUOUS
 10
-10.7130788782
 20
11.85
 11
-9.8
 21
11.85
  0
LINE
  5
7C2
100
AcDbEntity
  8
ASSI
100
AcDbLine
 62
7
  6
CONTINUOUS
 10
4.25
 20
12.25
 11
0.25
 21
12.25
  0
LINE
  5
7C3
100
AcDbEntity
  8
CURVE
100
AcDbLine
 62
250
  6
CONTINUOUS
 10
9.0
 20
9.8428570986
 11
10.3
 21
9.4714287043
  0
LINE
  5
7C4
100
AcDbEntity
  8
ASSI
100
AcDbLine
 62
250
  6
CONTINUOUS
 10
-11.15
 20
16.119659166
 11
-11.0103594806
 21
16.0710745702
  0
LINE
  5
7C5
100
AcDbEntity
  8
CURVE
100
AcDbLine
 62
250
  6
CONTINUOUS
 10
10.0214285493
 20
6.9023806572
 11
9.65
 21
7.0880954742
  0
LINE
  5
7C6
100
AcDbEntity
  8
CURVE
100
AcDbLine
 62
250
  6
CONTINUOUS
 10
9.0
 20
6.6238096714
 11
9.185714294
 21
6.4380954742
  0
LINE
  5
7C7
100
AcDbEntity
  8
ASSI
100
AcDbLine
 62
7
  6
CONTINUOUS
 10
-0.25
 20
16.25
 11
0.25
 21
15.75
  0
LINE
  5
7C8
100
AcDbEntity
  8
CURVE
100
AcDbLine
 62
250
  6
CONTINUOUS
 10
10.1142857254
 20
5.9738096714
 11
10.3
 21
5.7880954742
  0
LINE
  5
7C9
100
AcDbEntity
  8
ASSI
100
AcDbLine
 62
7
  6
CONTINUOUS
 10
4.75
 20
11.75
 11
4.25
 21
12.25
  0
LINE
  5
7CA
100
AcDbEntity
  8
CURVE
100
AcDbLine
 62
250
  6
CONTINUOUS
 10
10.3
 20
6.6238096714
 11
10.0214285493
 21
6.9023806572
  0
LINE
  5
7CB
100
AcDbEntity
  8
CURVE
100
AcDbLine
 62
250
  6
CONTINUOUS
 10
9.4023809671
 20
9.1
 11
9.4952381045
 21
8.88333323
  0
LINE
  5
7CC
100
AcDbEntity
  8
CURVE
100
AcDbLine
 62
250
  6
CONTINUOUS
 10
9.3095238104
 20
8.6357141972
 11
9.4023809671
 21
8.3880951643
  0
LINE
  5
7CD
100
AcDbEntity
  8
ASSI
100
AcDbLine
 62
7
  6
CONTINUOUS
 10
2.5
 20
-16.6
 11
2.6312329953
 21
-16.4687670047
  0
LINE
  5
7CE
100
AcDbEntity
  8
ASSI
100
AcDbLine
 62
7
  6
CONTINUOUS
 10
2.0
 20
-17.25
 11
1.990977166
 21
-17.259022834
  0
LINE
  5
7CF
100
AcDbEntity
  8
CURVE
100
AcDbLine
 62
250
  6
CONTINUOUS
 10
10.196325
 20
-7.49987
 11
5.219039
 21
-12.231556
  0
LINE
  5
7D0
100
AcDbEntity
  8
ASSI
100
AcDbLine
 62
250
  6
CONTINUOUS
 10
-10.7193014234
 20
-17.3594295692
 11
-10.5946276093
 21
-17.3193486453
  0
LINE
  5
7D1
100
AcDbEntity
  8
CURVE
100
AcDbLine
 62
250
  6
CONTINUOUS
 10
-7.5714285493
 20
-16.65
 11
-8.5
 21
-16.9285716057
  0
LINE
  5
7D2
100
AcDbEntity
  8
IMPORT_IGES
100
AcDbLine
 62
7
  6
CONTINUOUS
 10
4.25
 20
12.4
 11
0.25
 21
12.4
  0
LINE
  5
7D3
100
AcDbEntity
  8
CURVE
100
AcDbLine
 62
250
  6
CONTINUOUS
 10
-11.0594361704
 20
12.55
 11
-11.0262765981
 21
12.55
  0
LINE
  5
7D4
100
AcDbEntity
  8
CURVE
100
AcDbLine
 62
250
  6
CONTINUOUS
 10
10.3
 20
12.628571412
 11
9.0
 21
12.628571412
  0
LINE
  5
7D5
100
AcDbEntity
  8
CURVE
100
AcDbLine
 62
250
  6
CONTINUOUS
 10
-11.0934704843
 20
12.7230857555
 11
-11.1238612424
 21
12.7230857555
  0
LINE
  5
7D6
100
AcDbEntity
  8
IMPORT_IGES
100
AcDbLine
 62
7
  6
CONTINUOUS
 10
3.796
 20
12.9
 11
0.796
 21
12.9
  0
LINE
  5
7D7
100
AcDbEntity
  8
CURVE
100
AcDbLine
 62
250
  6
CONTINUOUS
 10
-11.1238612424
 20
12.9021123791
 11
-11.0934704843
 21
12.9021123791
  0
LINE
  5
7D8
100
AcDbEntity
  8
CURVE
100
AcDbLine
 62
250
  6
CONTINUOUS
 10
7.3785714447
 20
13.05
 11
6.8357143342
 21
13.05
  0
LINE
  5
7D9
100
AcDbEntity
  8
CURVE
100
AcDbLine
 62
250
  6
CONTINUOUS
 10
-11.0731639504
 20
13.414561239
 11
-11.123861096
 21
13.414561239
  0
LINE
  5
7DA
100
AcDbEntity
  8
CURVE
100
AcDbLine
 62
250
  6
CONTINUOUS
 10
-11.1211626272
 20
13.593700287
 11
-11.0984412916
 21
13.593700287
  0
LINE
  5
7DB
100
AcDbEntity
  8
CURVE
100
AcDbLine
 62
250
  6
CONTINUOUS
 10
-11.0957428229
 20
13.593700287
 11
-11.0731639504
 21
13.593700287
  0
LINE
  5
7DC
100
AcDbEntity
  8
CURVE
100
AcDbLine
 62
250
  6
CONTINUOUS
 10
5.75
 20
14.0
 11
7.65
 21
14.0
  0
LINE
  5
7DD
100
AcDbEntity
  8
CURVE
100
AcDbLine
 62
250
  6
CONTINUOUS
 10
-11.0499620074
 20
14.042856884
 11
-11.0546990889
 21
14.042856884
  0
LINE
  5
7DE
100
AcDbEntity
  8
ASSI
100
AcDbLine
 62
250
  6
CONTINUOUS
 10
-10.7193014234
 20
17.3594295692
 11
-10.5773352489
 21
17.3137825538
  0
LINE
  5
7DF
100
AcDbEntity
  8
CURVE
100
AcDbLine
 62
250
  6
CONTINUOUS
 10
9.371428588
 20
10.5857143521
 11
9.185714294
 21
10.6785714507
  0
LINE
  5
7E0
100
AcDbEntity
  8
IMPORT_IGES
100
AcDbLine
 62
7
  6
CONTINUOUS
 10
4.25
 20
12.5757142857
 11
3.796
 21
12.9
  0
LINE
  5
7E1
100
AcDbEntity
  8
ASSI
100
AcDbLine
 62
7
  6
CONTINUOUS
 10
1.990977166
 20
17.259022834
 11
2.0
 21
17.25
  0
LINE
  5
7E2
100
AcDbEntity
  8
CURVE
100
AcDbLine
 62
250
  6
CONTINUOUS
 10
9.185714294
 20
10.6785714507
 11
9.0
 21
10.8642856479
  0
LINE
  5
7E3
100
AcDbEntity
  8
CURVE
100
AcDbLine
 62
250
  6
CONTINUOUS
 10
6.8357143342
 20
13.05
 11
6.5642857224
 21
13.3214285553
  0
LINE
  5
7E4
100
AcDbEntity
  8
0
100
AcDbLine
 62
7
  6
CONTINUOUS
 10
3.230158461
 20
-22.5048155586
 11
3.3
 21
-22.4
  0
LWPOLYLINE
  5
7E5
100
AcDbEntity
  8
CURVE
100
AcDbPolyline
 62
250
  6
CONTINUOUS
 90
36
 70
0
 10
9.4648875901
 20
-11.103542891
 10
9.4780314318
 20
-11.0901079138
 10
9.49077377
 20
-11.0762969087
 10
9.5031203026
 20
-11.062124287
 10
9.5150767278
 20
-11.0476044602
 10
9.5266487435
 20
-11.0327518397
 10
9.5378420478
 20
-11.017580837
 10
9.5486623388
 20
-11.0021058634
 10
9.5591153146
 20
-10.9863413305
 10
9.5692066732
 20
-10.9703016496
 10
9.5789421127
 20
-10.9540012322
 10
9.5883273311
 20
-10.9374544897
 10
9.5973680266
 20
-10.9206758336
 10
9.6060698971
 20
-10.9036796753
 10
9.6144386407
 20
-10.8864804262
 10
9.6224799556
 20
-10.8690924979
 10
9.6301995396
 20
-10.8515303016
 10
9.6376030911
 20
-10.8338082489
 10
9.6446963079
 20
-10.8159407511
 10
9.6514848881
 20
-10.7979422198
 10
9.6579745299
 20
-10.7798270664
 10
9.6641709312
 20
-10.7616097022
 10
9.6700797901
 20
-10.7433045388
 10
9.6757068048
 20
-10.7249259875
 10
9.6810576732
 20
-10.7064884599
 10
9.6861380934
 20
-10.6880063672
 10
9.6909537635
 20
-10.6694941211
 10
9.6955103815
 20
-10.6509661329
 10
9.6998136456
 20
-10.632436814
 10
9.7056589197
 20
-10.6054102254
 10
9.7110384118
 20
-10.5784004564
 10
9.7160139279
 20
-10.5513964603
 10
9.7206472739
 20
-10.5243871904
 10
9.7250002558
 20
-10.4973615999
 10
9.7291346796
 20
-10.4703086422
 10
9.7369950762
 20
-10.4160764381
  0
LINE
  5
7E6
100
AcDbEntity
  8
ASSI
100
AcDbLine
 62
250
  6
CONTINUOUS
 10
-9.8
 20
14.1925282107
 11
-9.8601308811
 21
14.1925282107
  0
LINE
  5
7E7
100
AcDbEntity
  8
CURVE
100
AcDbLine
 62
250
  6
CONTINUOUS
 10
-11.0357507621
 20
14.585714674
 11
-11.0499620074
 21
14.585714674
  0
LINE
  5
7E8
100
AcDbEntity
  8
ASSI
100
AcDbLine
 62
250
  6
CONTINUOUS
 10
-9.8
 20
14.9920408723
 11
-9.8580878283
 21
14.9920408723
  0
LINE
  5
7E9
100
AcDbEntity
  8
ASSI
100
AcDbLine
 62
7
  6
CONTINUOUS
 10
-9.8
 20
15.0
 11
-9.8580496928
 21
15.0
  0
LINE
  5
7EA
100
AcDbEntity
  8
CURVE
100
AcDbLine
 62
250
  6
CONTINUOUS
 10
-11.0499620074
 20
15.535714674
 11
-11.0357507621
 21
15.535714674
  0
LINE
  5
7EB
100
AcDbEntity
  8
IMPORT_IGES
100
AcDbLine
 62
7
  6
CONTINUOUS
 10
3.796
 20
15.6
 11
0.796
 21
15.6
  0
LINE
  5
7EC
100
AcDbEntity
  8
ASSI
100
AcDbLine
 62
7
  6
CONTINUOUS
 10
0.25
 20
15.75
 11
4.25
 21
15.75
  0
LINE
  5
7ED
100
AcDbEntity
  8
IMPORT_IGES
100
AcDbLine
 62
7
  6
CONTINUOUS
 10
0.2480392762
 20
15.7424581379
 11
0.796
 21
15.6
  0
LINE
  5
7EE
100
AcDbEntity
  8
CURVE
100
AcDbLine
 62
250
  6
CONTINUOUS
 10
9.9285714507
 20
11.2357143521
 11
10.1142857254
 21
11.1428570986
  0
LINE
  5
7EF
100
AcDbEntity
  8
CURVE
100
AcDbLine
 62
250
  6
CONTINUOUS
 10
10.3
 20
12.0714285493
 11
10.0214285493
 21
12.2571428239
  0
LINE
  5
7F0
100
AcDbEntity
  8
CURVE
100
AcDbLine
 62
250
  6
CONTINUOUS
 10
9.0
 20
12.2571428239
 11
9.9285714507
 21
11.6071429014
  0
LINE
  5
7F1
100
AcDbEntity
  8
ASSI
100
AcDbLine
 62
7
  6
CONTINUOUS
 10
1.9650898701
 20
18.2849101299
 11
2.0
 21
18.25
  0
LINE
  5
7F2
100
AcDbEntity
  8
CURVE
100
AcDbLine
 62
250
  6
CONTINUOUS
 10
10.1142857254
 20
11.1428570986
 11
10.3
 21
10.9571429014
  0
LWPOLYLINE
  5
7F3
100
AcDbEntity
  8
RACCORDO
100
AcDbPolyline
 62
7
  6
CONTINUOUS
 90
11
 70
0
 10
3.2371426149
 20
21.3629352605
 10
3.2364960555
 20
21.3638754312
 10
3.2358785591
 20
21.3661834843
 10
3.2352901257
 20
21.3698594198
 10
3.2347299433
 20
21.3750168983
 10
3.2341988239
 20
21.381542259
 10
3.2336992037
 20
21.3890945205
 10
3.233232855
 20
21.3975749192
 10
3.2327980056
 20
21.4070822186
 10
3.2323917741
 20
21.4175717273
 10
3.2320105844
 20
21.4291186386
  0
LINE
  5
7F4
100
AcDbEntity
  8
0
100
AcDbLine
 62
7
  6
CONTINUOUS
 10
3.3
 20
22.4
 11
3.230158461
 21
22.5048155586
  0
LINE
  5
7F5
100
AcDbEntity
  8
ASSI
100
AcDbLine
 62
7
  6
CONTINUOUS
 10
10.8990052219
 20
-16.729066713
 11
10.8798829655
 21
-16.7815665633
  0
LINE
  5
7F6
100
AcDbEntity
  8
ASSI
100
AcDbLine
 62
7
  6
CONTINUOUS
 10
10.8798829655
 20
-16.7815665633
 11
10.8592863239
 21
-16.8335531675
  0
LINE
  5
7F7
100
AcDbEntity
  8
ASSI
100
AcDbLine
 62
7
  6
CONTINUOUS
 10
10.8592863239
 20
-16.8335531675
 11
10.8372643791
 21
-16.8849030269
  0
LWPOLYLINE
  5
7F8
100
AcDbEntity
  8
ASSI
100
AcDbPolyline
 62
7
  6
CONTINUOUS
 90
10
 70
0
 10
10.8372643791
 20
-16.8849030269
 10
10.8138140331
 20
-16.9356138721
 10
10.788938384
 20
-16.9856879725
 10
10.7626958072
 20
-17.0350086382
 10
10.7350804413
 20
-17.0835775126
 10
10.7060981478
 20
-17.1313929524
 10
10.6758248866
 20
-17.1783333376
 10
10.6442859775
 20
-17.224358128
 10
10.6114561007
 20
-17.2695078638
 10
10.5773352561
 20
-17.3137825449
  0
LINE
  5
7F9
100
AcDbEntity
  8
ASSI
100
AcDbLine
 62
7
  6
CONTINUOUS
 10
2.5
 20
18.3392738961
 11
2.3031505071
 21
18.3
  0
LINE
  5
7FA
100
AcDbEntity
  8
ASSI
100
AcDbLine
 62
7
  6
CONTINUOUS
 10
-10.7130788782
 20
16.15
 11
-9.8
 21
16.15
  0
LINE
  5
7FB
100
AcDbEntity
  8
ASSI
100
AcDbLine
 62
250
  6
CONTINUOUS
 10
-11.0
 20
16.1850292972
 11
-10.9481716082
 21
16.1850292972
  0
LINE
  5
7FC
100
AcDbEntity
  8
ASSI
100
AcDbLine
 62
7
  6
CONTINUOUS
 10
-0.25
 20
16.25
 11
4.75
 21
16.25
  0
LINE
  5
7FD
100
AcDbEntity
  8
ASSI
100
AcDbLine
 62
7
  6
CONTINUOUS
 10
2.5
 20
16.6
 11
-2.5
 21
16.6
  0
LINE
  5
7FE
100
AcDbEntity
  8
IMPORT_IGES
100
AcDbLine
 62
7
  6
CONTINUOUS
 10
2.5
 20
16.75
 11
-2.5
 21
16.75
  0
LINE
  5
7FF
100
AcDbEntity
  8
IMPORT_IGES
100
AcDbLine
 62
7
  6
CONTINUOUS
 10
-2.5
 20
16.9469592622
 11
2.5
 21
16.9469592622
  0
LINE
  5
800
100
AcDbEntity
  8
IMPORT_IGES
100
AcDbLine
 62
7
  6
CONTINUOUS
 10
-2.5
 20
17.0966270367
 11
2.5
 21
17.0966270367
  0
LINE
  5
801
100
AcDbEntity
  8
ASSI
100
AcDbLine
 62
7
  6
CONTINUOUS
 10
-2.0
 20
17.25
 11
2.0
 21
17.25
  0
LINE
  5
802
100
AcDbEntity
  8
ASSI
100
AcDbLine
 62
7
  6
CONTINUOUS
 10
-1.990977166
 20
17.259022834
 11
1.990977166
 21
17.259022834
  0
LINE
  5
803
100
AcDbEntity
  8
ASSI
100
AcDbLine
 62
7
  6
CONTINUOUS
 10
1.5026801928
 20
17.3
 11
-1.5026801928
 21
17.3
  0
LINE
  5
804
100
AcDbEntity
  8
ASSI
100
AcDbLine
 62
7
  6
CONTINUOUS
 10
2.5
 20
17.5
 11
-2.5
 21
17.5
  0
LINE
  5
805
100
AcDbEntity
  8
ASSI
100
AcDbLine
 62
7
  6
CONTINUOUS
 10
-2.3031505071
 20
18.3
 11
-2.5
 21
18.3392738961
  0
LINE
  5
806
100
AcDbEntity
  8
CURVE
100
AcDbLine
 62
250
  6
CONTINUOUS
 10
9.9285714507
 20
13.0
 11
10.3
 21
12.628571412
  0
LINE
  5
807
100
AcDbEntity
  8
ASSI
100
AcDbLine
 62
7
  6
CONTINUOUS
 10
10.837262606
 20
16.8849070064
 11
10.8592839681
 21
16.8335590307
  0
LINE
  5
808
100
AcDbEntity
  8
ASSI
100
AcDbLine
 62
7
  6
CONTINUOUS
 10
10.8592839681
 20
16.8335590307
 11
10.8798800666
 21
16.7815744302
  0
LINE
  5
809
100
AcDbEntity
  8
ASSI
100
AcDbLine
 62
7
  6
CONTINUOUS
 10
10.8798800666
 20
16.7815744302
 11
10.8990021401
 21
16.7290755575
  0
LINE
  5
80A
100
AcDbEntity
  8
ASSI
100
AcDbLine
 62
7
  6
CONTINUOUS
 10
8.7459991025
 20
-19.325248782
 11
10.8276743857
 21
-16.8272384421
  0
LINE
  5
80B
100
AcDbEntity
  8
ASSI
100
AcDbLine
 62
7
  6
CONTINUOUS
 10
3.4
 20
-23.4301797403
 11
3.3633443637
 21
-23.4668353766
  0
LINE
  5
80C
100
AcDbEntity
  8
ASSI
100
AcDbLine
 62
7
  6
CONTINUOUS
 10
-1.9026954241
 20
18.3
 11
-1.8939465578
 21
18.3017455065
  0
LINE
  5
80D
100
AcDbEntity
  8
ASSI
100
AcDbLine
 62
7
  6
CONTINUOUS
 10
-2.3031505071
 20
18.3
 11
-2.5
 21
18.2607261039
  0
LINE
  5
80E
100
AcDbEntity
  8
ASSI
100
AcDbLine
 62
7
  6
CONTINUOUS
 10
-8.0267949192
 20
18.2482544935
 11
-8.5358983849
 21
18.2150898701
  0
LINE
  5
80F
100
AcDbEntity
  8
ASSI
100
AcDbLine
 62
7
  6
CONTINUOUS
 10
-9.7584264418
 20
18.2482544935
 11
-8.0267949192
 21
18.25
  0
LINE
  5
810
100
AcDbEntity
  8
ASSI
100
AcDbLine
 62
7
  6
CONTINUOUS
 10
-8.0267949192
 20
18.25
 11
-4.1664423997
 21
18.2516733582
  0
LINE
  5
811
100
AcDbEntity
  8
ASSI
100
AcDbLine
 62
7
  6
CONTINUOUS
 10
2.5
 20
18.2
 11
-2.5
 21
18.2
  0
LINE
  5
812
100
AcDbEntity
  8
ASSI
100
AcDbLine
 62
7
  6
CONTINUOUS
 10
-9.3788750126
 20
18.2130903017
 11
-4.3130788786
 21
18.2130903017
  0
LINE
  5
813
100
AcDbEntity
  8
ASSI
100
AcDbLine
 62
7
  6
CONTINUOUS
 10
-9.831037247
 20
18.2150898701
 11
-9.3788750126
 21
18.2150898701
  0
LINE
  5
814
100
AcDbEntity
  8
ASSI
100
AcDbLine
 62
7
  6
CONTINUOUS
 10
2.5
 20
18.25
 11
2.0
 21
18.25
  0
LINE
  5
815
100
AcDbEntity
  8
ASSI
100
AcDbLine
 62
7
  6
CONTINUOUS
 10
-2.0
 20
18.25
 11
-2.5
 21
18.25
  0
LINE
  5
816
100
AcDbEntity
  8
ASSI
100
AcDbLine
 62
7
  6
CONTINUOUS
 10
-2.3787842888
 20
18.2849101299
 11
-1.9650898701
 21
18.2849101299
  0
LINE
  5
817
100
AcDbEntity
  8
ASSI
100
AcDbLine
 62
7
  6
CONTINUOUS
 10
1.9650898701
 20
18.2849101299
 11
2.3787842888
 21
18.2849101299
  0
LINE
  5
818
100
AcDbEntity
  8
ASSI
100
AcDbLine
 62
7
  6
CONTINUOUS
 10
2.3031505071
 20
18.3
 11
1.9026954241
 21
18.3
  0
LINE
  5
819
100
AcDbEntity
  8
ASSI
100
AcDbLine
 62
7
  6
CONTINUOUS
 10
-1.9026954241
 20
18.3
 11
-2.3031505071
 21
18.3
  0
LINE
  5
81A
100
AcDbEntity
  8
ASSI
100
AcDbLine
 62
7
  6
CONTINUOUS
 10
1.8939465578
 20
18.3017455065
 11
-1.8939465578
 21
18.3017455065
  0
LINE
  5
81B
100
AcDbEntity
  8
0
100
AcDbLine
 62
7
  6
CONTINUOUS
 10
9.5670397541
 20
18.34
 11
9.746
 21
18.34
  0
LINE
  5
81C
100
AcDbEntity
  8
0
100
AcDbLine
 62
250
  6
CONTINUOUS
 10
9.556
 20
18.35
 11
9.746
 21
18.35
  0
LINE
  5
81D
100
AcDbEntity
  8
ASSI
100
AcDbLine
 62
7
  6
CONTINUOUS
 10
-2.5
 20
18.5208065713
 11
2.5
 21
18.5208065713
  0
LINE
  5
81E
100
AcDbEntity
  8
0
100
AcDbLine
 62
7
  6
CONTINUOUS
 10
9.556
 20
18.54
 11
9.546
 21
18.54
  0
LINE
  5
81F
100
AcDbEntity
  8
0
100
AcDbLine
 62
250
  6
CONTINUOUS
 10
9.3920397541
 20
18.55
 11
9.546
 21
18.55
  0
LINE
  5
820
100
AcDbEntity
  8
0
100
AcDbLine
 62
7
  6
CONTINUOUS
 10
9.2337064208
 20
18.74
 11
9.546
 21
18.74
  0
LINE
  5
821
100
AcDbEntity
  8
ASSI
100
AcDbLine
 62
7
  6
CONTINUOUS
 10
1.8939465578
 20
18.3017455065
 11
1.9026954241
 21
18.3
  0
LINE
  5
822
100
AcDbEntity
  8
ASSI
100
AcDbLine
 62
7
  6
CONTINUOUS
 10
2.5
 20
18.2607261039
 11
2.3031505071
 21
18.3
  0
LINE
  5
823
100
AcDbEntity
  8
ASSI
100
AcDbLine
 62
7
  6
CONTINUOUS
 10
3.4
 20
23.4301797403
 11
3.3633443637
 21
23.4668353766
  0
LINE
  5
824
100
AcDbEntity
  8
ASSI
100
AcDbLine
 62
7
  6
CONTINUOUS
 10
8.7459991025
 20
19.325248782
 11
10.8276743857
 21
16.8272384421
  0
LWPOLYLINE
  5
825
100
AcDbEntity
  8
ASSI
100
AcDbPolyline
 62
7
  6
CONTINUOUS
 90
10
 70
0
 10
10.5773352561
 20
17.3137825449
 10
10.6114569278
 20
17.2695066163
 10
10.6442872937
 20
17.2243561449
 10
10.675826354
 20
17.1783311308
 10
10.7060993192
 20
17.1313911534
 10
10.7350809788
 20
17.0835766332
 10
10.7626957004
 20
17.0350088323
 10
10.7889377154
 20
16.9856892858
 10
10.8138127925
 20
16.9356164585
 10
10.837262606
 20
16.8849070064
  0
LINE
  5
826
100
AcDbEntity
  8
ASSI
100
AcDbLine
 62
7
  6
CONTINUOUS
 10
2.6175930356
 20
21.1271628567
 11
3.4
 21
21.2
  0
LINE
  5
827
100
AcDbEntity
  8
ASSI
100
AcDbLine
 62
7
  6
CONTINUOUS
 10
-8.6997562296
 20
19.4
 11
-4.0
 21
19.4
  0
LINE
  5
828
100
AcDbEntity
  8
ASSI
100
AcDbLine
 62
7
  6
CONTINUOUS
 10
8.13144548
 20
19.6130903017
 11
-3.7131017248
 21
19.6130903017
  0
LINE
  5
829
100
AcDbEntity
  8
ASSI
100
AcDbLine
 62
250
  6
CONTINUOUS
 10
8.45
 20
20.1152614489
 11
8.2232212694
 21
20.1152614489
  0
LINE
  5
82A
100
AcDbEntity
  8
ASSI
100
AcDbLine
 62
250
  6
CONTINUOUS
 10
-8.2232212694
 20
20.1152614489
 11
-8.45
 21
20.1152614489
  0
LINE
  5
82B
100
AcDbEntity
  8
DRAFT
100
AcDbLine
 62
7
  6
CONTINUOUS
 10
-8.45
 20
20.3
 11
-8.0307395699
 21
20.3
  0
LINE
  5
82C
100
AcDbEntity
  8
DRAFT
100
AcDbLine
 62
7
  6
CONTINUOUS
 10
8.0307395699
 20
20.3
 11
8.45
 21
20.3
  0
LINE
  5
82D
100
AcDbEntity
  8
DRAFT
100
AcDbLine
 62
7
  6
CONTINUOUS
 10
-8.4579943206
 20
20.3079943206
 11
-8.0224101746
 21
20.3079943206
  0
LINE
  5
82E
100
AcDbEntity
  8
DRAFT
100
AcDbLine
 62
7
  6
CONTINUOUS
 10
8.0224101746
 20
20.3079943206
 11
8.4579943206
 21
20.3079943206
  0
LINE
  5
82F
100
AcDbEntity
  8
DRAFT
100
AcDbLine
 62
7
  6
CONTINUOUS
 10
-8.4674550649
 20
20.85
 11
-7.4343626501
 21
20.85
  0
LINE
  5
830
100
AcDbEntity
  8
DRAFT
100
AcDbLine
 62
7
  6
CONTINUOUS
 10
7.4343626501
 20
20.85
 11
8.4674550649
 21
20.85
  0
LINE
  5
831
100
AcDbEntity
  8
RACCORDO
100
AcDbLine
 62
7
  6
CONTINUOUS
 10
-9.14134862
 20
20.8912724675
 11
-7.3886522719
 21
20.8912724675
  0
LINE
  5
832
100
AcDbEntity
  8
RACCORDO
100
AcDbLine
 62
7
  6
CONTINUOUS
 10
7.3886522719
 20
20.8912724675
 11
9.14134862
 21
20.8912724675
  0
LINE
  5
833
100
AcDbEntity
  8
RACCORDO
100
AcDbLine
 62
7
  6
CONTINUOUS
 10
9.1500761524
 20
20.9
 11
7.3789862928
 21
20.9
  0
LINE
  5
834
100
AcDbEntity
  8
RACCORDO
100
AcDbLine
 62
7
  6
CONTINUOUS
 10
-7.3789862928
 20
20.9
 11
-9.1500761524
 21
20.9
  0
LINE
  5
835
100
AcDbEntity
  8
ASSI
100
AcDbLine
 62
7
  6
CONTINUOUS
 10
-2.6175930356
 20
21.1271628567
 11
-3.4
 21
21.2
  0
LWPOLYLINE
  5
836
100
AcDbEntity
  8
ASSI
100
AcDbPolyline
 62
7
  6
CONTINUOUS
 90
10
 70
0
 10
4.2275426698
 20
-23.3333596575
 10
4.1717709229
 20
-23.367725577
 10
4.1143929653
 20
-23.3981882466
 10
4.0554087969
 20
-23.4247476662
 10
3.994556043
 20
-23.4474829446
 10
3.9320970783
 20
-23.4663149731
 10
3.8688190271
 20
-23.4810064255
 10
3.804984264
 20
-23.4914781931
 10
3.7403304144
 20
-23.4978093846
 10
3.6748574782
 20
-23.5
  0
LWPOLYLINE
  5
837
100
AcDbEntity
  8
RACCORDO
100
AcDbPolyline
 62
250
  6
CONTINUOUS
 90
9
 70
0
 10
3.0812528557
 20
-22.0077017497
 10
3.0906363066
 20
-22.0031988718
 10
3.1102150286
 20
-21.9910017434
 10
3.1274668402
 20
-21.9771696498
 10
3.1421148335
 20
-21.9619277289
 10
3.1539180741
 20
-21.9455268219
 10
3.1626804524
 20
-21.928238124
 10
3.1682552834
 20
-21.9103492962
 10
3.1705494094
 20
-21.8921572875
  0
LINE
  5
838
100
AcDbEntity
  8
ASSI
100
AcDbLine
 62
7
  6
CONTINUOUS
 10
-6.9069415429
 20
21.1271628567
 11
-2.6175930356
 21
21.1271628567
  0
LINE
  5
839
100
AcDbEntity
  8
ASSI
100
AcDbLine
 62
7
  6
CONTINUOUS
 10
2.6175930356
 20
21.1271628567
 11
4.7909419891
 21
21.1271628567
  0
LINE
  5
83A
100
AcDbEntity
  8
ASSI
100
AcDbLine
 62
7
  6
CONTINUOUS
 10
6.9080597678
 20
21.1301797403
 11
4.8
 21
21.1301797403
  0
LINE
  5
83B
100
AcDbEntity
  8
ASSI
100
AcDbLine
 62
7
  6
CONTINUOUS
 10
-6.9339198284
 20
21.2
 11
-3.4
 21
21.2
  0
LINE
  5
83C
100
AcDbEntity
  8
ASSI
100
AcDbLine
 62
7
  6
CONTINUOUS
 10
3.4
 20
21.2
 11
6.9339198284
 21
21.2
  0
LINE
  5
83D
100
AcDbEntity
  8
ASSI
100
AcDbLine
 62
7
  6
CONTINUOUS
 10
-2.7167632191
 20
21.6560705017
 11
2.7167632191
 21
21.6560705017
  0
LINE
  5
83E
100
AcDbEntity
  8
RACCORDO
100
AcDbLine
 62
250
  6
CONTINUOUS
 10
3.1705494094
 20
21.8921572875
 11
3.0812528557
 21
21.8921572875
  0
LINE
  5
83F
100
AcDbEntity
  8
RACCORDO
100
AcDbLine
 62
250
  6
CONTINUOUS
 10
-3.0812528557
 20
21.8921572875
 11
-3.1705494094
 21
21.8921572875
  0
LINE
  5
840
100
AcDbEntity
  8
ASSI
100
AcDbLine
 62
7
  6
CONTINUOUS
 10
3.0812528557
 20
22.2
 11
-3.0812528557
 21
22.2
  0
LINE
  5
841
100
AcDbEntity
  8
0
100
AcDbLine
 62
7
  6
CONTINUOUS
 10
10.6503805997
 20
22.4
 11
5.5445119776
 21
22.4
  0
LINE
  5
842
100
AcDbEntity
  8
0
100
AcDbLine
 62
7
  6
CONTINUOUS
 10
3.3848722771
 20
22.4
 11
3.3
 21
22.4
  0
LINE
  5
843
100
AcDbEntity
  8
0
100
AcDbLine
 62
7
  6
CONTINUOUS
 10
-3.3
 20
22.4
 11
-3.3848722771
 21
22.4
  0
LINE
  5
844
100
AcDbEntity
  8
0
100
AcDbLine
 62
7
  6
CONTINUOUS
 10
-5.5445119776
 20
22.4
 11
-10.6503805997
 21
22.4
  0
LINE
  5
845
100
AcDbEntity
  8
ASSI
100
AcDbLine
 62
7
  6
CONTINUOUS
 10
-3.3633443637
 20
22.5
 11
-3.230158461
 21
22.5
  0
LINE
  5
846
100
AcDbEntity
  8
ASSI
100
AcDbLine
 62
7
  6
CONTINUOUS
 10
3.230158461
 20
22.5
 11
3.3633443637
 21
22.5
  0
LWPOLYLINE
  5
847
100
AcDbEntity
  8
ASSI
100
AcDbPolyline
 62
7
  6
CONTINUOUS
 90
10
 70
0
 10
4.2275426698
 20
23.3333596575
 10
4.1717709229
 20
23.367725577
 10
4.1143929653
 20
23.3981882466
 10
4.0554087969
 20
23.4247476662
 10
3.994556043
 20
23.4474829446
 10
3.9320970783
 20
23.4663149731
 10
3.8688190271
 20
23.4810064255
 10
3.804984264
 20
23.4914781931
 10
3.7403304144
 20
23.4978093846
 10
3.6748574782
 20
23.5
  0
LWPOLYLINE
  5
848
100
AcDbEntity
  8
ASSI
100
AcDbPolyline
 62
7
  6
CONTINUOUS
 90
10
 70
0
 10
-3.6748574782
 20
23.5
 10
-3.7403304144
 20
23.4978093846
 10
-3.804984264
 20
23.4914781931
 10
-3.8688190271
 20
23.4810064255
 10
-3.9320970783
 20
23.4663149731
 10
-3.994556043
 20
23.4474829446
 10
-4.0554087969
 20
23.4247476662
 10
-4.1143929653
 20
23.3981882466
 10
-4.1717709229
 20
23.367725577
 10
-4.2275426698
 20
23.3333596575
  0
LINE
  5
849
100
AcDbEntity
  8
RACCORDO
100
AcDbLine
 62
250
  6
CONTINUOUS
 10
3.230158461
 20
23.175
 11
3.2153472641
 21
23.175
  0
LINE
  5
84A
100
AcDbEntity
  8
RACCORDO
100
AcDbLine
 62
250
  6
CONTINUOUS
 10
-3.2153472641
 20
23.175
 11
-3.230158461
 21
23.175
  0
LINE
  5
84B
100
AcDbEntity
  8
RACCORDO
100
AcDbLine
 62
7
  6
CONTINUOUS
 10
-3.01751471
 20
23.375
 11
3.01751471
 21
23.375
  0
LINE
  5
84C
100
AcDbEntity
  8
ASSI
100
AcDbLine
 62
7
  6
CONTINUOUS
 10
-3.653791075
 20
23.4301797403
 11
-3.4
 21
23.4301797403
  0
LINE
  5
84D
100
AcDbEntity
  8
ASSI
100
AcDbLine
 62
7
  6
CONTINUOUS
 10
3.4
 20
23.4301797403
 11
3.653791075
 21
23.4301797403
  0
LINE
  5
84E
100
AcDbEntity
  8
ASSI
100
AcDbLine
 62
7
  6
CONTINUOUS
 10
-3.3633443637
 20
23.4668353766
 11
3.3633443637
 21
23.4668353766
  0
LINE
  5
84F
100
AcDbEntity
  8
ASSI
100
AcDbLine
 62
7
  6
CONTINUOUS
 10
-3.6748574782
 20
23.5
 11
3.6748574782
 21
23.5
  0
LWPOLYLINE
  5
850
100
AcDbEntity
  8
ASSI
100
AcDbPolyline
 62
7
  6
CONTINUOUS
 90
10
 70
0
 10
3.653791075
 20
23.4301797403
 10
3.7193524144
 20
23.4279830815
 10
3.784091406
 20
23.4216350423
 10
3.8480080499
 20
23.4111356227
 10
3.9113657378
 20
23.3964052951
 10
3.9739010778
 20
23.3775235872
 10
4.0348238951
 20
23.3547290816
 10
4.0938707981
 20
23.328101306
 10
4.1513051783
 20
23.2975607327
 10
4.2071270357
 20
23.2631073618
  0
ARC
  5
851
100
AcDbEntity
  8
0
100
AcDbCircle
 62
7
  6
CONTINUOUS
 10
-9.2
 20
-17.2
 40
1.4
100
AcDbArc
 50
180.0
 51
270.0
  0
ARC
  5
852
100
AcDbEntity
  8
CURVE
100
AcDbCircle
 62
250
  6
CONTINUOUS
 10
-2.75
 20
-15.3517899598
 40
0.75
100
AcDbArc
 50
180.0
 51
360.0
  0
ARC
  5
853
100
AcDbEntity
  8
CURVE
100
AcDbCircle
 62
250
  6
CONTINUOUS
 10
-1.25
 20
-15.3517899598
 40
0.75
100
AcDbArc
 50
0.0
 51
180.0
  0
ARC
  5
854
100
AcDbEntity
  8
ASSI
100
AcDbCircle
 62
7
  6
CONTINUOUS
 10
-4.95
 20
-23.1
 40
0.5
100
AcDbArc
 50
350.803718421
 51
119.112422776
  0
ARC
  5
855
100
AcDbEntity
  8
RACCORDO
100
AcDbCircle
 62
7
  6
CONTINUOUS
 10
-3.15
 20
-21.65
 40
0.3
100
AcDbArc
 50
106.8864186508
 51
146.5620940008
  0
ARC
  5
856
100
AcDbEntity
  8
RACCORDO
100
AcDbCircle
 62
7
  6
CONTINUOUS
 10
-3.15
 20
-21.65
 40
0.3
100
AcDbArc
 50
213.4347943313
 51
253.1135813492
  0
ARC
  5
857
100
AcDbEntity
  8
RACCORDO
100
AcDbCircle
 62
250
  6
CONTINUOUS
 10
-3.15
 20
-21.65
 40
0.1
100
AcDbArc
 50
143.2816890224
 51
216.7183109776
  0
ARC
  5
858
100
AcDbEntity
  8
ASSI
100
AcDbCircle
 62
7
  6
CONTINUOUS
 10
-11.25
 20
0.0
 40
28.0
100
AcDbArc
 50
38.3146467789
 51
54.0372348486
  0
ARC
  5
859
100
AcDbEntity
  8
ASSI
100
AcDbCircle
 62
7
  6
CONTINUOUS
 10
-11.25
 20
0.0
 40
28.0
100
AcDbArc
 50
55.8789063483
 51
56.4427876864
  0
ARC
  5
85A
100
AcDbEntity
  8
ASSI
100
AcDbCircle
 62
7
  6
CONTINUOUS
 10
-11.25
 20
0.0
 40
28.0
100
AcDbArc
 50
303.5572123136
 51
304.1210936517
  0
ARC
  5
85B
100
AcDbEntity
  8
ASSI
100
AcDbCircle
 62
7
  6
CONTINUOUS
 10
-11.25
 20
0.0
 40
28.0
100
AcDbArc
 50
305.9627651514
 51
321.6853532211
  0
ARC
  5
85C
100
AcDbEntity
  8
ASSI
100
AcDbCircle
 62
7
  6
CONTINUOUS
 10
-11.25
 20
0.0
 40
27.9301797403
100
AcDbArc
 50
55.7977423189
 51
56.3980257285
  0
ARC
  5
85D
100
AcDbEntity
  8
ASSI
100
AcDbCircle
 62
7
  6
CONTINUOUS
 10
-11.25
 20
0.0
 40
27.9301797403
100
AcDbArc
 50
49.3792497998
 51
54.118398878
  0
ARC
  5
85E
100
AcDbEntity
  8
ASSI
100
AcDbCircle
 62
7
  6
CONTINUOUS
 10
-11.25
 20
0.0
 40
27.9301797403
100
AcDbArc
 50
305.881601122
 51
310.6207502002
  0
ARC
  5
85F
100
AcDbEntity
  8
ASSI
100
AcDbCircle
 62
7
  6
CONTINUOUS
 10
-11.25
 20
0.0
 40
27.9301797403
100
AcDbArc
 50
303.6019742715
 51
304.2022576811
  0
ARC
  5
860
100
AcDbEntity
  8
ASSI
100
AcDbCircle
 62
7
  6
CONTINUOUS
 10
-11.25
 20
0.0
 40
27.8603594806
100
AcDbArc
 50
42.2727971559
 51
49.3261342155
  0
ARC
  5
861
100
AcDbEntity
  8
ASSI
100
AcDbCircle
 62
7
  6
CONTINUOUS
 10
-11.25
 20
0.0
 40
27.8603594806
100
AcDbArc
 50
38.4219992771
 51
41.0930926737
  0
ARC
  5
862
100
AcDbEntity
  8
ASSI
100
AcDbCircle
 62
7
  6
CONTINUOUS
 10
-11.25
 20
0.0
 40
27.8603594806
100
AcDbArc
 50
318.9069073263
 51
321.5780007229
  0
ARC
  5
863
100
AcDbEntity
  8
ASSI
100
AcDbCircle
 62
7
  6
CONTINUOUS
 10
-11.25
 20
0.0
 40
27.8603594806
100
AcDbArc
 50
310.6738657845
 51
317.7272028441
  0
ARC
  5
864
100
AcDbEntity
  8
ASSI
100
AcDbCircle
 62
7
  6
CONTINUOUS
 10
-10.29
 20
16.1850292972
 40
0.71
100
AcDbArc
 50
170.3742664211
 51
180.0
  0
ARC
  5
865
100
AcDbEntity
  8
ASSI
100
AcDbCircle
 62
7
  6
CONTINUOUS
 10
-4.95
 20
23.1
 40
0.5
100
AcDbArc
 50
240.887577224
 51
9.1962815791
  0
ARC
  5
866
100
AcDbEntity
  8
RACCORDO
100
AcDbCircle
 62
7
  6
CONTINUOUS
 10
-3.15
 20
21.65
 40
0.3
100
AcDbArc
 50
106.8864186508
 51
146.5620940008
  0
ARC
  5
867
100
AcDbEntity
  8
RACCORDO
100
AcDbCircle
 62
7
  6
CONTINUOUS
 10
-3.15
 20
21.65
 40
0.3
100
AcDbArc
 50
213.4347943313
 51
253.1135813492
  0
ARC
  5
868
100
AcDbEntity
  8
RACCORDO
100
AcDbCircle
 62
250
  6
CONTINUOUS
 10
-3.15
 20
21.65
 40
0.1
100
AcDbArc
 50
143.2816890224
 51
216.7183109776
  0
ARC
  5
869
100
AcDbEntity
  8
ASSI
100
AcDbCircle
 62
7
  6
CONTINUOUS
 10
4.95
 20
-23.1
 40
0.5
100
AcDbArc
 50
60.887577224
 51
189.196281579
  0
CIRCLE
  5
86A
100
AcDbEntity
  8
CURVE
100
AcDbCircle
 62
250
  6
CONTINUOUS
 10
6.070628
 20
-10.8647
 40
0.317592
  0
ARC
  5
86B
100
AcDbEntity
  8
RACCORDO
100
AcDbCircle
 62
7
  6
CONTINUOUS
 10
3.15
 20
-21.65
 40
0.3
100
AcDbArc
 50
286.8864186508
 51
326.5620940008
  0
ARC
  5
86C
100
AcDbEntity
  8
RACCORDO
100
AcDbCircle
 62
7
  6
CONTINUOUS
 10
3.15
 20
-21.65
 40
0.3
100
AcDbArc
 50
33.4347943313
 51
73.1135813492
  0
CIRCLE
  5
86D
100
AcDbEntity
  8
CURVE
100
AcDbCircle
 62
250
  6
CONTINUOUS
 10
9.416182
 20
-11.289913
 40
0.192582
  0
ARC
  5
86E
100
AcDbEntity
  8
0
100
AcDbCircle
 62
7
  6
CONTINUOUS
 10
9.556
 20
-18.35
 40
0.19
100
AcDbArc
 50
270.0
 51
360.0
  0
CIRCLE
  5
86F
100
AcDbEntity
  8
CURVE
100
AcDbCircle
 62
250
  6
CONTINUOUS
 10
6.070628
 20
-10.8647
 40
0.14051
  0
ARC
  5
870
100
AcDbEntity
  8
RACCORDO
100
AcDbCircle
 62
250
  6
CONTINUOUS
 10
3.15
 20
-21.65
 40
0.1
100
AcDbArc
 50
323.2816890224
 51
36.7183109776
  0
ARC
  5
871
100
AcDbEntity
  8
ASSI
100
AcDbCircle
 62
7
  6
CONTINUOUS
 10
11.25
 20
0.0
 40
28.0
100
AcDbArc
 50
123.5572123136
 51
124.1210936517
  0
ARC
  5
872
100
AcDbEntity
  8
ASSI
100
AcDbCircle
 62
7
  6
CONTINUOUS
 10
11.25
 20
0.0
 40
28.0
100
AcDbArc
 50
125.9627651514
 51
141.6853532211
  0
ARC
  5
873
100
AcDbEntity
  8
ASSI
100
AcDbCircle
 62
7
  6
CONTINUOUS
 10
11.25
 20
0.0
 40
28.0
100
AcDbArc
 50
221.2739184047
 51
234.0372348486
  0
ARC
  5
874
100
AcDbEntity
  8
ASSI
100
AcDbCircle
 62
7
  6
CONTINUOUS
 10
11.25
 20
0.0
 40
28.0
100
AcDbArc
 50
218.3146467789
 51
218.8603328395
  0
ARC
  5
875
100
AcDbEntity
  8
ASSI
100
AcDbCircle
 62
7
  6
CONTINUOUS
 10
11.25
 20
0.0
 40
28.0
100
AcDbArc
 50
235.8789063483
 51
236.4427876864
  0
ARC
  5
876
100
AcDbEntity
  8
ASSI
100
AcDbCircle
 62
7
  6
CONTINUOUS
 10
11.25
 20
0.0
 40
27.9301797403
100
AcDbArc
 50
125.881601122
 51
130.6207502002
  0
ARC
  5
877
100
AcDbEntity
  8
ASSI
100
AcDbCircle
 62
7
  6
CONTINUOUS
 10
11.25
 20
0.0
 40
27.9301797403
100
AcDbArc
 50
123.6019742715
 51
124.2022576811
  0
ARC
  5
878
100
AcDbEntity
  8
ASSI
100
AcDbCircle
 62
7
  6
CONTINUOUS
 10
11.25
 20
0.0
 40
27.9301797403
100
AcDbArc
 50
235.7977423189
 51
236.3980257285
  0
ARC
  5
879
100
AcDbEntity
  8
ASSI
100
AcDbCircle
 62
7
  6
CONTINUOUS
 10
11.25
 20
0.0
 40
27.9301797403
100
AcDbArc
 50
229.3792497998
 51
234.118398878
  0
ARC
  5
87A
100
AcDbEntity
  8
ASSI
100
AcDbCircle
 62
7
  6
CONTINUOUS
 10
11.25
 20
0.0
 40
27.8603594806
100
AcDbArc
 50
139.1713136528
 51
141.5780007229
  0
ARC
  5
87B
100
AcDbEntity
  8
ASSI
100
AcDbCircle
 62
7
  6
CONTINUOUS
 10
11.25
 20
0.0
 40
27.8271948572
100
AcDbArc
 50
135.8004284034
 51
139.0218980554
  0
ARC
  5
87C
100
AcDbEntity
  8
ASSI
100
AcDbCircle
 62
7
  6
CONTINUOUS
 10
11.25
 20
0.0
 40
27.8271948572
100
AcDbArc
 50
221.8708553617
 51
224.1995715966
  0
ARC
  5
87D
100
AcDbEntity
  8
ASSI
100
AcDbCircle
 62
7
  6
CONTINUOUS
 10
4.95
 20
23.1
 40
0.5
100
AcDbArc
 50
170.8037184209
 51
299.112422776
  0
ARC
  5
87E
100
AcDbEntity
  8
RACCORDO
100
AcDbCircle
 62
7
  6
CONTINUOUS
 10
3.15
 20
21.65
 40
0.3
100
AcDbArc
 50
286.8864186508
 51
326.5620940008
  0
ARC
  5
87F
100
AcDbEntity
  8
RACCORDO
100
AcDbCircle
 62
7
  6
CONTINUOUS
 10
3.15
 20
21.65
 40
0.3
100
AcDbArc
 50
33.4347943313
 51
73.1135813492
  0
ARC
  5
880
100
AcDbEntity
  8
0
100
AcDbCircle
 62
7
  6
CONTINUOUS
 10
9.556
 20
18.35
 40
0.19
100
AcDbArc
 50
0.0
 51
90.0
  0
ARC
  5
881
100
AcDbEntity
  8
RACCORDO
100
AcDbCircle
 62
250
  6
CONTINUOUS
 10
3.15
 20
21.65
 40
0.1
100
AcDbArc
 50
323.2816890224
 51
36.7183109776
  0
ELLIPSE
  5
882
100
AcDbEntity
  8
0
100
AcDbEllipse
 62
7
  6
CONTINUOUS
 10
10.649923836
 20
21.899313827
 30
0.0
 11
0.1582391023
 21
0.4751033573
 31
0.0
 40
0.9984778551
 41
-1.2488325878
 42
0.3210503505
  0
ELLIPSE
  5
883
100
AcDbEntity
  8
0
100
AcDbEllipse
 62
7
  6
CONTINUOUS
 10
10.649923836
 20
-21.899313827
 30
0.0
 11
-0.1582391023
 21
0.4751033573
 31
0.0
 40
0.9984778551
 41
2.8205423031
 42
4.3904252414
  0
ELLIPSE
  5
884
100
AcDbEntity
  8
0
100
AcDbEllipse
 62
7
  6
CONTINUOUS
 10
-10.649923836
 20
21.899313827
 30
0.0
 11
-0.1582391023
 21
0.4751033573
 31
0.0
 40
0.9984778551
 41
-0.3210503505
 42
1.2488325878
  0
ELLIPSE
  5
885
100
AcDbEntity
  8
0
100
AcDbEllipse
 62
7
  6
CONTINUOUS
 10
-10.649923836
 20
-21.899313827
 30
0.0
 11
0.1582391023
 21
0.4751033573
 31
0.0
 40
0.9984778551
 41
1.8927600658
 42
3.4626430041
  0
ELLIPSE
  5
886
100
AcDbEntity
  8
RACCORDO
100
AcDbEllipse
 62
7
  6
CONTINUOUS
 10
3.0300365522
 20
-23.175
 30
0.0
 11
0.2001219089
 21
0.0
 31
0.0
 40
0.999390827
 41
-1.5707963268
 42
0.0
  0
ELLIPSE
  5
887
100
AcDbEntity
  8
RACCORDO
100
AcDbEllipse
 62
7
  6
CONTINUOUS
 10
-3.0300365522
 20
-23.175
 30
0.0
 11
0.2001219089
 21
-0.0
 31
0.0
 40
0.999390827
 41
3.1415926536
 42
4.577803198
  0
ELLIPSE
  5
888
100
AcDbEntity
  8
RACCORDO
100
AcDbEllipse
 62
7
  6
CONTINUOUS
 10
3.0300365522
 20
23.175
 30
0.0
 11
0.2001219089
 21
-0.0
 31
0.0
 40
0.999390827
 41
0.0
 42
1.4362105444
  0
ELLIPSE
  5
889
100
AcDbEntity
  8
RACCORDO
100
AcDbEllipse
 62
7
  6
CONTINUOUS
 10
-3.0300365522
 20
23.175
 30
0.0
 11
0.2001219089
 21
0.0
 31
0.0
 40
0.999390827
 41
1.5707963268
 42
3.1415926536
  0
ELLIPSE
  5
88A
100
AcDbEntity
  8
RACCORDO
100
AcDbEllipse
 62
7
  6
CONTINUOUS
 10
-9.149923836
 20
-20.399923836
 30
0.0
 11
0.3536610946
 21
0.3536610946
 31
0.0
 40
0.9996954599
 41
-3.9268385237
 42
-2.3563467834
  0
ELLIPSE
  5
88B
100
AcDbEntity
  8
RACCORDO
100
AcDbEllipse
 62
7
  6
CONTINUOUS
 10
9.149923836
 20
-20.399923836
 30
0.0
 11
0.3536610946
 21
-0.3536610946
 31
0.0
 40
0.9996954599
 41
-0.7852458701
 42
0.7852458701
  0
ELLIPSE
  5
88C
100
AcDbEntity
  8
RACCORDO
100
AcDbEllipse
 62
7
  6
CONTINUOUS
 10
9.149923836
 20
20.399923836
 30
0.0
 11
0.3536610946
 21
0.3536610946
 31
0.0
 40
0.9996954599
 41
-0.7852458701
 42
0.7852458701
  0
ELLIPSE
  5
88D
100
AcDbEntity
  8
RACCORDO
100
AcDbEllipse
 62
7
  6
CONTINUOUS
 10
-9.149923836
 20
20.399923836
 30
0.0
 11
0.3536610946
 21
-0.3536610946
 31
0.0
 40
0.9996954599
 41
2.3563467834
 42
3.9268385237
  0
ELLIPSE
  5
88E
100
AcDbEntity
  8
RACCORDO
100
AcDbEllipse
 62
7
  6
CONTINUOUS
 10
-9.1411963035
 20
20.3911963035
 30
0.0
 11
0.3536610946
 21
-0.3536610946
 31
0.0
 40
0.9996954599
 41
2.3563467834
 42
3.9268385237
  0
ELLIPSE
  5
88F
100
AcDbEntity
  8
RACCORDO
100
AcDbEllipse
 62
7
  6
CONTINUOUS
 10
9.1411963035
 20
20.3911963035
 30
0.0
 11
-0.3536610946
 21
-0.3536610946
 31
0.0
 40
0.9996954599
 41
2.3563467834
 42
3.9268385237
  0
ELLIPSE
  5
890
100
AcDbEntity
  8
RACCORDO
100
AcDbEllipse
 62
7
  6
CONTINUOUS
 10
9.1411963035
 20
-20.3911963035
 30
0.0
 11
-0.3536610946
 21
0.3536610946
 31
0.0
 40
0.9996954599
 41
2.3563467834
 42
3.9268385237
  0
ELLIPSE
  5
891
100
AcDbEntity
  8
RACCORDO
100
AcDbEllipse
 62
7
  6
CONTINUOUS
 10
-9.1411963035
 20
-20.3911963035
 30
0.0
 11
0.3536610946
 21
0.3536610946
 31
0.0
 40
0.9996954599
 41
2.3563467834
 42
3.9268385237
  0
ELLIPSE
  5
892
100
AcDbEntity
  8
ASSI
100
AcDbEllipse
 62
7
  6
CONTINUOUS
 10
-11.1549715323
 20
0.75
 30
0.0
 11
-0.0
 21
0.5
 31
0.0
 40
0.0174550649
 41
0.0
 42
0.4528247396
  0
ELLIPSE
  5
893
100
AcDbEntity
  8
ASSI
100
AcDbEllipse
 62
7
  6
CONTINUOUS
 10
-11.1549715323
 20
-0.75
 30
0.0
 11
-0.0
 21
0.5
 31
0.0
 40
0.0174550649
 41
-3.5944173932
 42
-3.1415926536
  0
ELLIPSE
  5
894
100
AcDbEntity
  8
ASSI
100
AcDbEllipse
 62
7
  6
CONTINUOUS
 10
11.1549715323
 20
0.75
 30
0.0
 11
-0.0
 21
0.5
 31
0.0
 40
0.0174550649
 41
-0.4528247396
 42
0.0
  0
ELLIPSE
  5
895
100
AcDbEntity
  8
ASSI
100
AcDbEllipse
 62
7
  6
CONTINUOUS
 10
11.1549715323
 20
-0.75
 30
0.0
 11
-0.0
 21
0.5
 31
0.0
 40
0.0174550649
 41
-3.1415926536
 42
-2.688767914
  0
ELLIPSE
  5
896
100
AcDbEntity
  8
ASSI
100
AcDbEllipse
 62
7
  6
CONTINUOUS
 10
11.25
 20
-0.4799609489
 30
0.0
 11
0.0
 21
27.4969443471
 31
0.0
 40
0.9998476487
 41
-3.9535521451
 42
-3.8629791428
  0
ELLIPSE
  5
897
100
AcDbEntity
  8
ASSI
100
AcDbEllipse
 62
7
  6
CONTINUOUS
 10
11.25
 20
0.4799609489
 30
0.0
 11
-0.0
 21
27.4969443471
 31
0.0
 40
0.9998476487
 41
0.7213864892
 42
0.8119594915
  0
ELLIPSE
  5
898
100
AcDbEntity
  8
ASSI
100
AcDbEllipse
 62
7
  6
CONTINUOUS
 10
-4.3131017252
 20
18.5131017252
 30
0.0
 11
0.2121481893
 21
-0.2121481893
 31
0.0
 40
0.9999238505
 41
-0.7853600872
 42
0.7853600872
  0
ELLIPSE
  5
899
100
AcDbEntity
  8
ASSI
100
AcDbEllipse
 62
7
  6
CONTINUOUS
 10
-3.7130788782
 20
19.3130788782
 30
0.0
 11
0.2121481893
 21
-0.2121481893
 31
0.0
 40
0.9999238505
 41
2.3562325664
 42
3.9269527408
  0
ELLIPSE
  5
89A
100
AcDbEntity
  8
ASSI
100
AcDbEllipse
 62
7
  6
CONTINUOUS
 10
8.1314169446
 20
18.813059839
 30
0.0
 11
0.3393400724
 21
0.7245051754
 31
0.0
 40
0.9999535705
 41
-0.4380111911
 42
0.4380111911
  0
ELLIPSE
  5
89B
100
AcDbEntity
  8
ASSI
100
AcDbEllipse
 62
7
  6
CONTINUOUS
 10
10.213059839
 20
16.3150883657
 30
0.0
 11
0.7522496598
 21
0.2723519406
 31
0.0
 40
0.9999569323
 41
-0.3473553524
 42
0.3473553524
  0
ELLIPSE
  5
89C
100
AcDbEntity
  8
ASSI
100
AcDbEllipse
 62
7
  6
CONTINUOUS
 10
10.213059839
 20
-16.3150883657
 30
0.0
 11
-0.7522496598
 21
0.2723519406
 31
0.0
 40
0.9999569323
 41
2.7942373012
 42
3.488948006
  0
ELLIPSE
  5
89D
100
AcDbEntity
  8
ASSI
100
AcDbEllipse
 62
7
  6
CONTINUOUS
 10
8.1314169446
 20
-18.813059839
 30
0.0
 11
0.3393400724
 21
-0.7245051754
 31
0.0
 40
0.9999535705
 41
-0.4380111911
 42
0.4380111911
  0
ELLIPSE
  5
89E
100
AcDbEntity
  8
ASSI
100
AcDbEllipse
 62
7
  6
CONTINUOUS
 10
-3.7130788782
 20
-19.3130788782
 30
0.0
 11
-0.2121481893
 21
-0.2121481893
 31
0.0
 40
0.9999238505
 41
-0.7853600872
 42
0.7853600872
  0
ELLIPSE
  5
89F
100
AcDbEntity
  8
ASSI
100
AcDbEllipse
 62
7
  6
CONTINUOUS
 10
-9.3788424069
 20
-17.413059839
 30
0.0
 11
0.3775048314
 21
0.7053742298
 31
0.0
 40
0.9999510178
 41
2.65021617
 42
3.6329691372
  0
ELLIPSE
  5
8A0
100
AcDbEntity
  8
ASSI
100
AcDbEllipse
 62
7
  6
CONTINUOUS
 10
-10.213059839
 20
-16.1617336909
 30
0.0
 11
-0.7657054495
 21
-0.2318369558
 31
0.0
 40
0.9999584327
 41
-0.293989773
 42
0.293989773
  0
ELLIPSE
  5
8A1
100
AcDbEntity
  8
ASSI
100
AcDbEllipse
 62
7
  6
CONTINUOUS
 10
-10.7130788782
 20
-3.45
 30
0.0
 11
0.3000114235
 21
0.0
 31
0.0
 40
0.9999619231
 41
1.5707963268
 42
3.1415926536
  0
ELLIPSE
  5
8A2
100
AcDbEntity
  8
ASSI
100
AcDbEllipse
 62
7
  6
CONTINUOUS
 10
-10.7130788782
 20
1.45
 30
0.0
 11
-0.3000114235
 21
0.0
 31
0.0
 40
0.9999619231
 41
0.0
 42
1.5707963268
  0
ELLIPSE
  5
8A3
100
AcDbEntity
  8
ASSI
100
AcDbEllipse
 62
7
  6
CONTINUOUS
 10
-10.7130788782
 20
1.55
 30
0.0
 11
0.3000114235
 21
0.0
 31
0.0
 40
0.9999619231
 41
1.5707963268
 42
3.1415926536
  0
ELLIPSE
  5
8A4
100
AcDbEntity
  8
ASSI
100
AcDbEllipse
 62
7
  6
CONTINUOUS
 10
-10.7130788782
 20
6.45
 30
0.0
 11
-0.3000114235
 21
0.0
 31
0.0
 40
0.9999619231
 41
0.0
 42
1.5707963268
  0
ELLIPSE
  5
8A5
100
AcDbEntity
  8
ASSI
100
AcDbEllipse
 62
7
  6
CONTINUOUS
 10
-10.7130788782
 20
6.55
 30
0.0
 11
0.3000114235
 21
0.0
 31
0.0
 40
0.9999619231
 41
1.5707963268
 42
3.1415926536
  0
ELLIPSE
  5
8A6
100
AcDbEntity
  8
ASSI
100
AcDbEllipse
 62
7
  6
CONTINUOUS
 10
-10.7130788782
 20
11.45
 30
0.0
 11
-0.3000114235
 21
0.0
 31
0.0
 40
0.9999619231
 41
0.0
 42
1.5707963268
  0
ELLIPSE
  5
8A7
100
AcDbEntity
  8
ASSI
100
AcDbEllipse
 62
7
  6
CONTINUOUS
 10
-10.7130788782
 20
11.55
 30
0.0
 11
0.3000114235
 21
0.0
 31
0.0
 40
0.9999619231
 41
1.5707963268
 42
3.1415926536
  0
ELLIPSE
  5
8A8
100
AcDbEntity
  8
ASSI
100
AcDbEllipse
 62
7
  6
CONTINUOUS
 10
-10.7130788782
 20
16.45
 30
0.0
 11
-0.3000114235
 21
0.0
 31
0.0
 40
0.9999619231
 41
0.3709044765
 42
1.5707963268
  0
ELLIPSE
  5
8A9
100
AcDbEntity
  8
ASSI
100
AcDbEllipse
 62
7
  6
CONTINUOUS
 10
-10.213059839
 20
16.1617336909
 30
0.0
 11
-0.7657054495
 21
0.2318369558
 31
0.0
 40
0.9999584327
 41
-0.293989773
 42
0.0676751291
  0
ELLIPSE
  5
8AA
100
AcDbEntity
  8
ASSI
100
AcDbEllipse
 62
7
  6
CONTINUOUS
 10
-9.3788424069
 20
17.413059839
 30
0.0
 11
-0.3775048314
 21
0.7053742298
 31
0.0
 40
0.9999510178
 41
-0.4913764836
 42
0.4913764836
  0
ELLIPSE
  5
8AB
100
AcDbEntity
  8
ASSI
100
AcDbEllipse
 62
7
  6
CONTINUOUS
 10
1.5822003921
 20
-17.7
 30
0.0
 11
-0.2856392311
 21
0.2806972637
 31
0.0
 40
0.9976641103
 41
-1.8395455771
 42
-0.7929549894
  0
ELLIPSE
  5
8AC
100
AcDbEntity
  8
ASSI
100
AcDbEllipse
 62
7
  6
CONTINUOUS
 10
-1.5822003921
 20
-17.7
 30
0.0
 11
0.2856392311
 21
0.2806972637
 31
0.0
 40
0.9976641103
 41
0.7929549894
 42
1.8395455771
  0
ELLIPSE
  5
8AD
100
AcDbEntity
  8
ASSI
100
AcDbEllipse
 62
7
  6
CONTINUOUS
 10
-1.5036155356
 20
17.7
 30
0.0
 11
-0.2856392311
 21
0.2806972637
 31
0.0
 40
0.9976641103
 41
1.3020470765
 42
2.3486376642
  0
ELLIPSE
  5
8AE
100
AcDbEntity
  8
ASSI
100
AcDbEllipse
 62
7
  6
CONTINUOUS
 10
1.5036155356
 20
17.7
 30
0.0
 11
0.2856392311
 21
0.2806972637
 31
0.0
 40
0.9976641103
 41
-2.3486376642
 42
-1.3020470765
  0
ELLIPSE
  5
8AF
100
AcDbEntity
  8
ASSI
100
AcDbEllipse
 62
7
  6
CONTINUOUS
 10
-9.841452622
 20
14.0
 30
0.0
 11
0.0
 21
2.15
 31
0.0
 40
0.0087268678
 41
0.3047617277
 42
3.1415926536
  0
ELLIPSE
  5
8B0
100
AcDbEntity
  8
ASSI
100
AcDbEllipse
 62
7
  6
CONTINUOUS
 10
-9.841452622
 20
9.0
 30
0.0
 11
-0.0
 21
2.15
 31
0.0
 40
0.0087268678
 41
0.0
 42
3.1415926536
  0
ELLIPSE
  5
8B1
100
AcDbEntity
  8
ASSI
100
AcDbEllipse
 62
7
  6
CONTINUOUS
 10
-9.841452622
 20
4.0
 30
0.0
 11
-0.0
 21
2.15
 31
0.0
 40
0.0087268678
 41
0.0
 42
3.1415926536
  0
ELLIPSE
  5
8B2
100
AcDbEntity
  8
ASSI
100
AcDbEllipse
 62
7
  6
CONTINUOUS
 10
-9.841452622
 20
-1.0
 30
0.0
 11
-0.0
 21
2.15
 31
0.0
 40
0.0087268678
 41
0.0
 42
3.1415926536
  0
ELLIPSE
  5
8B3
100
AcDbEntity
  8
ASSI
100
AcDbEllipse
 62
7
  6
CONTINUOUS
 10
-11.2075993412
 20
14.0
 30
0.0
 11
1.4334257026
 21
2.149974807
 31
0.0
 40
0.0072610228
 41
0.1795312496
 42
0.3096027404
  0
ENDSEC
  0
SECTION
  2
OBJECTS
  0
DICTIONARY
  5
C
100
AcDbDictionary
280
0
281
1
  3
ACAD_GROUP
350
D
  3
ACAD_MLINESTYLE
350
17
  3
ACAD_LAYOUT
350
1A
  3
ACAD_PLOTSETTINGS
350
19
  3
ACAD_PLOTSTYLENAME
350
E
  0
DICTIONARY
  5
D
102
{ACAD_REACTORS
330
C
102
}
100
AcDbDictionary
280
0
281
1
  0
ACDBDICTIONARYWDFLT
  5
E
102
{ACAD_REACTORS
330
C
102
}
100
AcDbDictionary
281
1
  3
Normal
350
F
100
AcDbDictionaryWithDefault
340
F
  0
DICTIONARY
  5
17
102
{ACAD_REACTORS
330
C
102
}
100
AcDbDictionary
280
0
281
1
  3
Standard
350
18
  0
DICTIONARY
  5
19
102
{ACAD_REACTORS
330
C
102
}
100
AcDbDictionary
281
1
  0
DICTIONARY
  5
1A
102
{ACAD_REACTORS
330
C
102
}
100
AcDbDictionary
281
1
  3
Model
350
8B4
  3
Layout1
350
8B5
  0
ACDBPLACEHOLDER
  5
F
102
{ACAD_REACTORS
330
E
102
}
  0
MLINESTYLE
  5
18
102
{ACAD_REACTORS
330
17
102
}
100
AcDbMlineStyle
  2
STANDARD
 70
0
  3

 62
256
 51
90.0
 52
90.0
 71
2
 49
0.5
 62
256
  6
BYLAYER
 49
-0.5
 62
256
  6
BYLAYER
  0
LAYOUT
  5
8B4
102
{ACAD_REACTORS
330
1A
102
}
100
AcDbPlotSettings
  1

  2
none_device
  4
ISO_A4_(297.00_x_210.00_MM)
  6

 40
0.0
 41
0.0
 42
0.0
 43
0.0
 44
297.0
 45
210.0
 46
0.0
 47
0.0
 48
0.0
 49
0.0
140
0.0
141
0.0
142
1.0
143
1.0
 70
1024
 72
1
 73
0
 74
0
  7

 75
0
147
1.0
148
0.0
149
0.0
100
AcDbLayout
  1
Model
 70
0
 71
0
 10
0.0
 20
0.0
 11
297.0
 21
210.0
 12
0.0
 22
0.0
 32
0.0
 14
0.0
 24
0.0
 34
0.0
 15
0.0
 25
0.0
 35
0.0
146
0.0
 13
0.0
 23
0.0
 33
0.0
 16
1.0
 26
0.0
 36
0.0
 17
0.0
 27
1.0
 37
0.0
 76
0
330
2C7
345
0
346
0
  0
LAYOUT
  5
8B5
102
{ACAD_REACTORS
330
1A
102
}
100
AcDbPlotSettings
  1

  2
none_device
  4
ISO_A4_(297.00_x_210.00_MM)
  6

 40
0.0
 41
0.0
 42
0.0
 43
0.0
 44
297.0
 45
210.0
 46
0.0
 47
0.0
 48
0.0
 49
0.0
140
0.0
141
0.0
142
1.0
143
1.0
 70
0
 72
1
 73
0
 74
0
  7

 75
0
147
1.0
148
0.0
149
0.0
100
AcDbLayout
  1
Layout1
 70
0
 71
1
 10
0.0
 20
0.0
 11
297.0
 21
210.0
 12
0.0
 22
0.0
 32
0.0
 14
0.0
 24
0.0
 34
0.0
 15
0.0
 25
0.0
 35
0.0
146
0.0
 13
0.0
 23
0.0
 33
0.0
 16
1.0
 26
0.0
 36
0.0
 17
0.0
 27
1.0
 37
0.0
 76
0
330
2C8
345
0
346
0
  0
ENDSEC
  0
EOF
