  0
SECTION
  2
HEADER
  9
$ACADVER
  1
AC1024
  9
$DWGCODEPAGE
  3
ANSI_1252
  9
$EXTMAX
 10
297.0
 20
210.0
 30
0.0
  9
$EXTMIN
 10
0.0
 20
0.0
 30
0.0
  9
$LIMMIN
 10
0.0
 20
0.0
  9
$LIMMAX
 10
297.0
 20
210.0
  9
$VIEWCTR
 10
148.5
 20
105.0
  9
$VIEWSIZE
 40
210.0
  9
$CLAYER
  8
0
  9
$LTSCALE
 40
16.335
  9
$CELTYPE
  6
BYLAYER
  9
$DIMSCALE
 40
1.0
  9
$DIMASZ
 40
3.0
  9
$DIMEXO
 40
0.5
  9
$DIMDLI
 40
11.286
  9
$DIMEXE
 40
1.5
  9
$DIMCEN
 40
2.673
  9
$DIMLFAC
 40
1.0
  9
$DIMBLK
  1
_FILLED
  9
$DIMALT
 70
0
  9
$DIMALTF
 40
0.0393700787
  9
$DIMTXT
 40
3.0
  9
$DIMTOL
 70
1
  9
$DIMLIM
 70
0
  9
$DIMTFAC
 40
1.0
  9
$DIMTP
 40
0.01
  9
$DIMTM
 40
0.01
  9
$DIMGAP
 40
0.625
  9
$DIMDSEP
 70
44
  9
$AUNITS
 70
0
  9
$PDMODE
 70
3
  9
$PDSIZE
 40
3.0
  9
$HANDSEED
  5
868
  9
$TILEMODE
 70
1
  9
$MEASUREMENT
 70
1
  9
$INSUNITS
 70
4
  0
ENDSEC
  0
SECTION
  2
CLASSES
  0
CLASS
  1
ACDBDICTIONARYWDFLT
  2
AcDbDictionaryWithDefault
  3
AutoCAD 2000
 90
0
 91
1
280
0
281
0
  0
CLASS
  1
ACDBPLACEHOLDER
  2
AcDbPlaceHolder
  3
AutoCAD 2000
 90
0
 91
1
280
0
281
0
  0
CLASS
  1
LAYOUT
  2
AcDbLayout
  3
AutoCAD 2000
 90
0
 91
0
280
0
281
0
  0
ENDSEC
  0
SECTION
  2
TABLES
  0
TABLE
  2
VPORT
  5
8
100
AcDbSymbolTable
 70
2
  0
VPORT
  5
1F4
100
AcDbSymbolTableRecord
100
AcDbViewportTableRecord
  2
*ACTIVE
 70
0
 10
0.0
 20
0.0
 11
1.0
 21
1.0
 12
148.5
 22
105.0
 13
0.0
 23
0.0
 14
1.0
 24
1.0
 15
0.0
 25
0.0
 16
0.0
 26
0.0
 36
1.0
 17
0.0
 27
0.0
 37
0.0
 40
210.0
 41
1.4142857143
 42
50.0
 43
0.0
 44
0.0
 50
0.0
 51
0.0
 71
0
 72
100
 73
1
 74
1
 75
0
 76
0
 77
0
 78
0
  0
ENDTAB
  0
TABLE
  2
LTYPE
  5
5
100
AcDbSymbolTable
 70
6
  0
LTYPE
  5
14
100
AcDbSymbolTableRecord
100
AcDbLinetypeTableRecord
  2
BYBLOCK
 70
0
  3

 72
65
 73
0
 40
0.0
  0
LTYPE
  5
15
100
AcDbSymbolTableRecord
100
AcDbLinetypeTableRecord
  2
BYLAYER
 70
0
  3

 72
65
 73
0
 40
0.0
  0
LTYPE
  5
16
100
AcDbSymbolTableRecord
100
AcDbLinetypeTableRecord
  2
CONTINUOUS
 70
64
  3
Solid line
 72
65
 73
0
 40
0.0
  0
LTYPE
  5
1F5
100
AcDbSymbolTableRecord
100
AcDbLinetypeTableRecord
  2
CENTER
 70
64
  3
____ _ ____ _ ____ _ ____ _ ____ _ ____ _ ____
 72
65
 73
4
 40
0.6
 49
0.375
 74
0
 49
-0.075
 74
0
 49
0.075
 74
0
 49
-0.075
 74
0
  0
LTYPE
  5
1F6
100
AcDbSymbolTableRecord
100
AcDbLinetypeTableRecord
  2
HIDDEN
 70
64
  3
- - - - - - - - - - - - - - - - - - - -
 72
65
 73
2
 40
0.2
 49
0.1
 74
0
 49
-0.1
 74
0
  0
LTYPE
  5
1F7
100
AcDbSymbolTableRecord
100
AcDbLinetypeTableRecord
  2
PHANTOM
 70
64
  3
_____ _ _ _____ _ _ _____ _ _ _____
 72
65
 73
6
 40
0.8
 49
0.45
 74
0
 49
-0.05
 74
0
 49
0.1
 74
0
 49
-0.05
 74
0
 49
0.1
 74
0
 49
-0.05
 74
0
  0
LTYPE
  5
1F8
100
AcDbSymbolTableRecord
100
AcDbLinetypeTableRecord
  2
DOT
 70
64
  3
. . . . . . . . . . . . . . . . . . . .
 72
65
 73
2
 40
0.2
 49
0.1
 74
0
 49
-0.1
 74
0
  0
LTYPE
  5
1F9
100
AcDbSymbolTableRecord
100
AcDbLinetypeTableRecord
  2
DASHED
 70
64
  3
- - - - - - - - - - - - - - - - - - - -
 72
65
 73
2
 40
0.2
 49
0.1
 74
0
 49
-0.1
 74
0
  0
ENDTAB
  0
TABLE
  2
LAYER
  5
2
100
AcDbSymbolTable
 70
36
  0
LAYER
  5
10
100
AcDbSymbolTableRecord
100
AcDbLayerTableRecord
  2
0
 70
0
 62
7
  6
CONTINUOUS
370
-3
390
F
  0
LAYER
  5
1FA
100
AcDbSymbolTableRecord
100
AcDbLayerTableRecord
  2
DEFAULT_1
 70
0
 62
7
  6
CENTER
370
-3
390
F
  0
LAYER
  5
1FB
100
AcDbSymbolTableRecord
100
AcDbLayerTableRecord
  2
DEFAULT_2
 70
0
 62
7
  6
HIDDEN
370
-3
390
F
  0
LAYER
  5
1FC
100
AcDbSymbolTableRecord
100
AcDbLayerTableRecord
  2
DEFAULT_3
 70
0
 62
7
  6
PHANTOM
370
-3
390
F
  0
LAYER
  5
1FD
100
AcDbSymbolTableRecord
100
AcDbLayerTableRecord
  2
200A_170000
 70
0
 62
7
  6
CONTINUOUS
370
-3
390
F
  0
LAYER
  5
1FE
100
AcDbSymbolTableRecord
100
AcDbLayerTableRecord
  2
200A_170000_1
 70
0
 62
7
  6
CONTINUOUS
370
-3
390
F
  0
LAYER
  5
1FF
100
AcDbSymbolTableRecord
100
AcDbLayerTableRecord
  2
200A_170000_2
 70
0
 62
7
  6
CONTINUOUS
370
-3
390
F
  0
LAYER
  5
200
100
AcDbSymbolTableRecord
100
AcDbLayerTableRecord
  2
2125-CC-RF-VIMAR_65000
 70
0
 62
7
  6
CONTINUOUS
370
-3
390
F
  0
LAYER
  5
201
100
AcDbSymbolTableRecord
100
AcDbLayerTableRecord
  2
2125-CC-RF-VIMAR_65000_1
 70
0
 62
7
  6
CONTINUOUS
370
-3
390
F
  0
LAYER
  5
202
100
AcDbSymbolTableRecord
100
AcDbLayerTableRecord
  2
2125-CC-RF-VIMAR_65000_2
 70
0
 62
7
  6
CONTINUOUS
370
-3
390
F
  0
LAYER
  5
203
100
AcDbSymbolTableRecord
100
AcDbLayerTableRecord
  2
2125-DL-RF-FINE_VIMAR_110000
 70
0
 62
7
  6
CONTINUOUS
370
-3
390
F
  0
LAYER
  5
204
100
AcDbSymbolTableRecord
100
AcDbLayerTableRecord
  2
2125-R1-RF-VIMAR_60000
 70
0
 62
7
  6
CONTINUOUS
370
-3
390
F
  0
LAYER
  5
205
100
AcDbSymbolTableRecord
100
AcDbLayerTableRecord
  2
2125-R1-RF-VIMAR_60000_1
 70
0
 62
7
  6
CONTINUOUS
370
-3
390
F
  0
LAYER
  5
206
100
AcDbSymbolTableRecord
100
AcDbLayerTableRecord
  2
2125-R1-RF-VIMAR_60000_10
 70
0
 62
7
  6
CONTINUOUS
370
-3
390
F
  0
LAYER
  5
207
100
AcDbSymbolTableRecord
100
AcDbLayerTableRecord
  2
2125-R1-RF-VIMAR_60000_2
 70
0
 62
7
  6
CONTINUOUS
370
-3
390
F
  0
LAYER
  5
208
100
AcDbSymbolTableRecord
100
AcDbLayerTableRecord
  2
2125-R1-RF-VIMAR_60000_3
 70
0
 62
7
  6
CONTINUOUS
370
-3
390
F
  0
LAYER
  5
209
100
AcDbSymbolTableRecord
100
AcDbLayerTableRecord
  2
2125-R1-RF-VIMAR_60000_4
 70
0
 62
7
  6
CONTINUOUS
370
-3
390
F
  0
LAYER
  5
20A
100
AcDbSymbolTableRecord
100
AcDbLayerTableRecord
  2
2125-R1-RF-VIMAR_60000_5
 70
0
 62
7
  6
CONTINUOUS
370
-3
390
F
  0
LAYER
  5
20B
100
AcDbSymbolTableRecord
100
AcDbLayerTableRecord
  2
2125-R1-RF-VIMAR_60000_6
 70
0
 62
7
  6
CONTINUOUS
370
-3
390
F
  0
LAYER
  5
20C
100
AcDbSymbolTableRecord
100
AcDbLayerTableRecord
  2
2125-R1-RF-VIMAR_60000_7
 70
0
 62
7
  6
CONTINUOUS
370
-3
390
F
  0
LAYER
  5
20D
100
AcDbSymbolTableRecord
100
AcDbLayerTableRecord
  2
2125-R1-RF-VIMAR_60000_8
 70
0
 62
7
  6
CONTINUOUS
370
-3
390
F
  0
LAYER
  5
20E
100
AcDbSymbolTableRecord
100
AcDbLayerTableRecord
  2
2125-R1-RF-VIMAR_60000_9
 70
0
 62
7
  6
CONTINUOUS
370
-3
390
F
  0
LAYER
  5
20F
100
AcDbSymbolTableRecord
100
AcDbLayerTableRecord
  2
3216-CF-RF-1-VIMAR_180000
 70
0
 62
7
  6
CONTINUOUS
370
-3
390
F
  0
LAYER
  5
210
100
AcDbSymbolTableRecord
100
AcDbLayerTableRecord
  2
3216-CF-RF-VIMAR_100000
 70
0
 62
7
  6
CONTINUOUS
370
-3
390
F
  0
LAYER
  5
211
100
AcDbSymbolTableRecord
100
AcDbLayerTableRecord
  2
3216-CF-RF-VIMAR_100000_1
 70
0
 62
7
  6
CONTINUOUS
370
-3
390
F
  0
LAYER
  5
212
100
AcDbSymbolTableRecord
100
AcDbLayerTableRecord
  2
3216-CF-RF-VIMAR_100000_2
 70
0
 62
7
  6
CONTINUOUS
370
-3
390
F
  0
LAYER
  5
213
100
AcDbSymbolTableRecord
100
AcDbLayerTableRecord
  2
3216-R1-RF-VIMAR_60000
 70
0
 62
7
  6
CONTINUOUS
370
-3
390
F
  0
LAYER
  5
214
100
AcDbSymbolTableRecord
100
AcDbLayerTableRecord
  2
3216-R1-RF-VIMAR_60000_1
 70
0
 62
7
  6
CONTINUOUS
370
-3
390
F
  0
LAYER
  5
215
100
AcDbSymbolTableRecord
100
AcDbLayerTableRecord
  2
3216-R1-RF-VIMAR_60000_2
 70
0
 62
7
  6
CONTINUOUS
370
-3
390
F
  0
LAYER
  5
216
100
AcDbSymbolTableRecord
100
AcDbLayerTableRecord
  2
3216-R1-RF-VIMAR_60000_3
 70
0
 62
7
  6
CONTINUOUS
370
-3
390
F
  0
LAYER
  5
217
100
AcDbSymbolTableRecord
100
AcDbLayerTableRecord
  2
3216-R1-RF-VIMAR_60000_4
 70
0
 62
7
  6
CONTINUOUS
370
-3
390
F
  0
LAYER
  5
218
100
AcDbSymbolTableRecord
100
AcDbLayerTableRecord
  2
3216-R1-RF-VIMAR_60000_5
 70
0
 62
7
  6
CONTINUOUS
370
-3
390
F
  0
LAYER
  5
219
100
AcDbSymbolTableRecord
100
AcDbLayerTableRecord
  2
3216-R1-RF-VIMAR_60000_6
 70
0
 62
7
  6
CONTINUOUS
370
-3
390
F
  0
LAYER
  5
21A
100
AcDbSymbolTableRecord
100
AcDbLayerTableRecord
  2
3216-R1-RF-VIMAR_60000_7
 70
0
 62
7
  6
CONTINUOUS
370
-3
390
F
  0
LAYER
  5
21B
100
AcDbSymbolTableRecord
100
AcDbLayerTableRecord
  2
3216-R1-RF-VIMAR_60000_8
 70
0
 62
7
  6
CONTINUOUS
370
-3
390
F
  0
LAYER
  5
21C
100
AcDbSymbolTableRecord
100
AcDbLayerTableRecord
  2
43000632A0
 70
0
 62
7
  6
CONTINUOUS
370
-3
390
F
  0
LAYER
  5
21D
100
AcDbSymbolTableRecord
100
AcDbLayerTableRecord
  2
43000633A0
 70
0
 62
7
  6
CONTINUOUS
370
-3
390
F
  0
LAYER
  5
21E
100
AcDbSymbolTableRecord
100
AcDbLayerTableRecord
  2
ASSI
 70
0
 62
7
  6
CONTINUOUS
370
-3
390
F
  0
LAYER
  5
21F
100
AcDbSymbolTableRecord
100
AcDbLayerTableRecord
  2
AX-F150-1_1300000
 70
0
 62
7
  6
CONTINUOUS
370
-3
390
F
  0
LAYER
  5
220
100
AcDbSymbolTableRecord
100
AcDbLayerTableRecord
  2
AX-F150-H10MM-1_1300000
 70
0
 62
7
  6
CONTINUOUS
370
-3
390
F
  0
LAYER
  5
221
100
AcDbSymbolTableRecord
100
AcDbLayerTableRecord
  2
CAPC1608N_80000
 70
0
 62
7
  6
CONTINUOUS
370
-3
390
F
  0
LAYER
  5
222
100
AcDbSymbolTableRecord
100
AcDbLayerTableRecord
  2
CAPC1608N_80000_1
 70
0
 62
7
  6
CONTINUOUS
370
-3
390
F
  0
LAYER
  5
223
100
AcDbSymbolTableRecord
100
AcDbLayerTableRecord
  2
CAPC1608N_80000_2
 70
0
 62
7
  6
CONTINUOUS
370
-3
390
F
  0
LAYER
  5
224
100
AcDbSymbolTableRecord
100
AcDbLayerTableRecord
  2
CAPC1608N_80000_3
 70
0
 62
7
  6
CONTINUOUS
370
-3
390
F
  0
LAYER
  5
225
100
AcDbSymbolTableRecord
100
AcDbLayerTableRecord
  2
CAPC1608N_80000_4
 70
0
 62
7
  6
CONTINUOUS
370
-3
390
F
  0
LAYER
  5
226
100
AcDbSymbolTableRecord
100
AcDbLayerTableRecord
  2
CAPC1608N_80000_5
 70
0
 62
7
  6
CONTINUOUS
370
-3
390
F
  0
LAYER
  5
227
100
AcDbSymbolTableRecord
100
AcDbLayerTableRecord
  2
CC-20MILS-VIMAR_1000
 70
0
 62
7
  6
CONTINUOUS
370
-3
390
F
  0
LAYER
  5
228
100
AcDbSymbolTableRecord
100
AcDbLayerTableRecord
  2
CC-20MILS-VIMAR_1000_1
 70
0
 62
7
  6
CONTINUOUS
370
-3
390
F
  0
LAYER
  5
229
100
AcDbSymbolTableRecord
100
AcDbLayerTableRecord
  2
CN-MKDSN2-VIMAR_1500000
 70
0
 62
7
  6
CONTINUOUS
370
-3
390
F
  0
LAYER
  5
22A
100
AcDbSymbolTableRecord
100
AcDbLayerTableRecord
  2
CN-MKDSN2-VIMAR_1500000_1
 70
0
 62
7
  6
CONTINUOUS
370
-3
390
F
  0
LAYER
  5
22B
100
AcDbSymbolTableRecord
100
AcDbLayerTableRecord
  2
CN1-REF_SQUAREHOLE12_SPEA-VIMAR
 70
0
 62
7
  6
CONTINUOUS
370
-3
390
F
  0
LAYER
  5
22C
100
AcDbSymbolTableRecord
100
AcDbLayerTableRecord
  2
CN1-TP15_SMD-VIMAR_5000
 70
0
 62
7
  6
CONTINUOUS
370
-3
390
F
  0
LAYER
  5
22D
100
AcDbSymbolTableRecord
100
AcDbLayerTableRecord
  2
CN1-TP15_SMD-VIMAR_5000_1
 70
0
 62
7
  6
CONTINUOUS
370
-3
390
F
  0
LAYER
  5
22E
100
AcDbSymbolTableRecord
100
AcDbLayerTableRecord
  2
CN1-TP15_SMD-VIMAR_5000_2
 70
0
 62
7
  6
CONTINUOUS
370
-3
390
F
  0
LAYER
  5
22F
100
AcDbSymbolTableRecord
100
AcDbLayerTableRecord
  2
CN1-TP15_SMD-VIMAR_5000_3
 70
0
 62
7
  6
CONTINUOUS
370
-3
390
F
  0
LAYER
  5
230
100
AcDbSymbolTableRecord
100
AcDbLayerTableRecord
  2
CN1-TP15_SMD-VIMAR_5000_4
 70
0
 62
7
  6
CONTINUOUS
370
-3
390
F
  0
LAYER
  5
231
100
AcDbSymbolTableRecord
100
AcDbLayerTableRecord
  2
COLOR10
 70
0
 62
7
  6
CONTINUOUS
370
-3
390
F
  0
LAYER
  5
232
100
AcDbSymbolTableRecord
100
AcDbLayerTableRecord
  2
COLOR12
 70
0
 62
7
  6
CONTINUOUS
370
-3
390
F
  0
LAYER
  5
233
100
AcDbSymbolTableRecord
100
AcDbLayerTableRecord
  2
COLOR13
 70
0
 62
7
  6
CONTINUOUS
370
-3
390
F
  0
LAYER
  5
234
100
AcDbSymbolTableRecord
100
AcDbLayerTableRecord
  2
COLOR15
 70
0
 62
7
  6
CONTINUOUS
370
-3
390
F
  0
LAYER
  5
235
100
AcDbSymbolTableRecord
100
AcDbLayerTableRecord
  2
COLOR17
 70
0
 62
7
  6
CONTINUOUS
370
-3
390
F
  0
LAYER
  5
236
100
AcDbSymbolTableRecord
100
AcDbLayerTableRecord
  2
COLOR19
 70
0
 62
7
  6
CONTINUOUS
370
-3
390
F
  0
LAYER
  5
237
100
AcDbSymbolTableRecord
100
AcDbLayerTableRecord
  2
COLOR21
 70
0
 62
7
  6
CONTINUOUS
370
-3
390
F
  0
LAYER
  5
238
100
AcDbSymbolTableRecord
100
AcDbLayerTableRecord
  2
COLOR23
 70
0
 62
7
  6
CONTINUOUS
370
-3
390
F
  0
LAYER
  5
239
100
AcDbSymbolTableRecord
100
AcDbLayerTableRecord
  2
COLOR25
 70
0
 62
7
  6
CONTINUOUS
370
-3
390
F
  0
LAYER
  5
23A
100
AcDbSymbolTableRecord
100
AcDbLayerTableRecord
  2
COLOR27
 70
0
 62
7
  6
CONTINUOUS
370
-3
390
F
  0
LAYER
  5
23B
100
AcDbSymbolTableRecord
100
AcDbLayerTableRecord
  2
COLOR29
 70
0
 62
7
  6
CONTINUOUS
370
-3
390
F
  0
LAYER
  5
23C
100
AcDbSymbolTableRecord
100
AcDbLayerTableRecord
  2
COLOR3
 70
0
 62
7
  6
CONTINUOUS
370
-3
390
F
  0
LAYER
  5
23D
100
AcDbSymbolTableRecord
100
AcDbLayerTableRecord
  2
COLOR31
 70
0
 62
7
  6
CONTINUOUS
370
-3
390
F
  0
LAYER
  5
23E
100
AcDbSymbolTableRecord
100
AcDbLayerTableRecord
  2
COLOR33
 70
0
 62
7
  6
CONTINUOUS
370
-3
390
F
  0
LAYER
  5
23F
100
AcDbSymbolTableRecord
100
AcDbLayerTableRecord
  2
COLOR35
 70
0
 62
7
  6
CONTINUOUS
370
-3
390
F
  0
LAYER
  5
240
100
AcDbSymbolTableRecord
100
AcDbLayerTableRecord
  2
COLOR37
 70
0
 62
7
  6
CONTINUOUS
370
-3
390
F
  0
LAYER
  5
241
100
AcDbSymbolTableRecord
100
AcDbLayerTableRecord
  2
COLOR39
 70
0
 62
7
  6
CONTINUOUS
370
-3
390
F
  0
LAYER
  5
242
100
AcDbSymbolTableRecord
100
AcDbLayerTableRecord
  2
COLOR41
 70
0
 62
7
  6
CONTINUOUS
370
-3
390
F
  0
LAYER
  5
243
100
AcDbSymbolTableRecord
100
AcDbLayerTableRecord
  2
COLOR43
 70
0
 62
7
  6
CONTINUOUS
370
-3
390
F
  0
LAYER
  5
244
100
AcDbSymbolTableRecord
100
AcDbLayerTableRecord
  2
COLOR45
 70
0
 62
7
  6
CONTINUOUS
370
-3
390
F
  0
LAYER
  5
245
100
AcDbSymbolTableRecord
100
AcDbLayerTableRecord
  2
COLOR48
 70
0
 62
7
  6
CONTINUOUS
370
-3
390
F
  0
LAYER
  5
246
100
AcDbSymbolTableRecord
100
AcDbLayerTableRecord
  2
COLOR49
 70
0
 62
7
  6
CONTINUOUS
370
-3
390
F
  0
LAYER
  5
247
100
AcDbSymbolTableRecord
100
AcDbLayerTableRecord
  2
COLOR5
 70
0
 62
7
  6
CONTINUOUS
370
-3
390
F
  0
LAYER
  5
248
100
AcDbSymbolTableRecord
100
AcDbLayerTableRecord
  2
COLOR52
 70
0
 62
7
  6
CONTINUOUS
370
-3
390
F
  0
LAYER
  5
249
100
AcDbSymbolTableRecord
100
AcDbLayerTableRecord
  2
COLOR54
 70
0
 62
7
  6
CONTINUOUS
370
-3
390
F
  0
LAYER
  5
24A
100
AcDbSymbolTableRecord
100
AcDbLayerTableRecord
  2
COLOR56
 70
0
 62
7
  6
CONTINUOUS
370
-3
390
F
  0
LAYER
  5
24B
100
AcDbSymbolTableRecord
100
AcDbLayerTableRecord
  2
COLOR58
 70
0
 62
7
  6
CONTINUOUS
370
-3
390
F
  0
LAYER
  5
24C
100
AcDbSymbolTableRecord
100
AcDbLayerTableRecord
  2
COLOR6
 70
0
 62
7
  6
CONTINUOUS
370
-3
390
F
  0
LAYER
  5
24D
100
AcDbSymbolTableRecord
100
AcDbLayerTableRecord
  2
COLOR60
 70
0
 62
7
  6
CONTINUOUS
370
-3
390
F
  0
LAYER
  5
24E
100
AcDbSymbolTableRecord
100
AcDbLayerTableRecord
  2
COLOR62
 70
0
 62
7
  6
CONTINUOUS
370
-3
390
F
  0
LAYER
  5
24F
100
AcDbSymbolTableRecord
100
AcDbLayerTableRecord
  2
COLOR64
 70
0
 62
7
  6
CONTINUOUS
370
-3
390
F
  0
LAYER
  5
250
100
AcDbSymbolTableRecord
100
AcDbLayerTableRecord
  2
COLOR66
 70
0
 62
7
  6
CONTINUOUS
370
-3
390
F
  0
LAYER
  5
251
100
AcDbSymbolTableRecord
100
AcDbLayerTableRecord
  2
COLOR67
 70
0
 62
7
  6
CONTINUOUS
370
-3
390
F
  0
LAYER
  5
252
100
AcDbSymbolTableRecord
100
AcDbLayerTableRecord
  2
COLOR69
 70
0
 62
7
  6
CONTINUOUS
370
-3
390
F
  0
LAYER
  5
253
100
AcDbSymbolTableRecord
100
AcDbLayerTableRecord
  2
COLOR71
 70
0
 62
7
  6
CONTINUOUS
370
-3
390
F
  0
LAYER
  5
254
100
AcDbSymbolTableRecord
100
AcDbLayerTableRecord
  2
COLOR73
 70
0
 62
7
  6
CONTINUOUS
370
-3
390
F
  0
LAYER
  5
255
100
AcDbSymbolTableRecord
100
AcDbLayerTableRecord
  2
COLOR75
 70
0
 62
7
  6
CONTINUOUS
370
-3
390
F
  0
LAYER
  5
256
100
AcDbSymbolTableRecord
100
AcDbLayerTableRecord
  2
COLOR77
 70
0
 62
7
  6
CONTINUOUS
370
-3
390
F
  0
LAYER
  5
257
100
AcDbSymbolTableRecord
100
AcDbLayerTableRecord
  2
COLOR79
 70
0
 62
7
  6
CONTINUOUS
370
-3
390
F
  0
LAYER
  5
258
100
AcDbSymbolTableRecord
100
AcDbLayerTableRecord
  2
COLOR8
 70
0
 62
7
  6
CONTINUOUS
370
-3
390
F
  0
LAYER
  5
259
100
AcDbSymbolTableRecord
100
AcDbLayerTableRecord
  2
COLOR81
 70
0
 62
7
  6
CONTINUOUS
370
-3
390
F
  0
LAYER
  5
25A
100
AcDbSymbolTableRecord
100
AcDbLayerTableRecord
  2
COORDINATE
 70
0
 62
7
  6
CONTINUOUS
370
-3
390
F
  0
LAYER
  5
25B
100
AcDbSymbolTableRecord
100
AcDbLayerTableRecord
  2
COORD_ORIGINE
 70
0
 62
7
  6
CONTINUOUS
370
-3
390
F
  0
LAYER
  5
25C
100
AcDbSymbolTableRecord
100
AcDbLayerTableRecord
  2
COPY
 70
0
 62
7
  6
CONTINUOUS
370
-3
390
F
  0
LAYER
  5
25D
100
AcDbSymbolTableRecord
100
AcDbLayerTableRecord
  2
COPY_PUBLISH
 70
0
 62
7
  6
CONTINUOUS
370
-3
390
F
  0
LAYER
  5
25E
100
AcDbSymbolTableRecord
100
AcDbLayerTableRecord
  2
COSMETICI
 70
0
 62
7
  6
CONTINUOUS
370
-3
390
F
  0
LAYER
  5
25F
100
AcDbSymbolTableRecord
100
AcDbLayerTableRecord
  2
CP-CE10-RF-VIMAR_630000
 70
0
 62
7
  6
CONTINUOUS
370
-3
390
F
  0
LAYER
  5
260
100
AcDbSymbolTableRecord
100
AcDbLayerTableRecord
  2
CP-CE6-RF_820000
 70
0
 62
7
  6
CONTINUOUS
370
-3
390
F
  0
LAYER
  5
261
100
AcDbSymbolTableRecord
100
AcDbLayerTableRecord
  2
CURVE
 70
0
 62
7
  6
CONTINUOUS
370
-3
390
F
  0
LAYER
  5
262
100
AcDbSymbolTableRecord
100
AcDbLayerTableRecord
  2
DIOMELF3515N_160000
 70
0
 62
7
  6
CONTINUOUS
370
-3
390
F
  0
LAYER
  5
263
100
AcDbSymbolTableRecord
100
AcDbLayerTableRecord
  2
DRAFT
 70
0
 62
7
  6
CONTINUOUS
370
-3
390
F
  0
LAYER
  5
264
100
AcDbSymbolTableRecord
100
AcDbLayerTableRecord
  2
I3-TO-H12-VIMAR_1080000
 70
0
 62
7
  6
CONTINUOUS
370
-3
390
F
  0
LAYER
  5
265
100
AcDbSymbolTableRecord
100
AcDbLayerTableRecord
  2
I3-TO-H2-VIMAR_1130000
 70
0
 62
7
  6
CONTINUOUS
370
-3
390
F
  0
LAYER
  5
266
100
AcDbSymbolTableRecord
100
AcDbLayerTableRecord
  2
I3-TO-H2-VIMAR_1130000_1
 70
0
 62
7
  6
CONTINUOUS
370
-3
390
F
  0
LAYER
  5
267
100
AcDbSymbolTableRecord
100
AcDbLayerTableRecord
  2
I3-TO-H2-VIMAR_1130000_2
 70
0
 62
7
  6
CONTINUOUS
370
-3
390
F
  0
LAYER
  5
268
100
AcDbSymbolTableRecord
100
AcDbLayerTableRecord
  2
IGES
 70
0
 62
7
  6
CONTINUOUS
370
-3
390
F
  0
LAYER
  5
269
100
AcDbSymbolTableRecord
100
AcDbLayerTableRecord
  2
IMPORT_IGES
 70
0
 62
7
  6
CONTINUOUS
370
-3
390
F
  0
LAYER
  5
26A
100
AcDbSymbolTableRecord
100
AcDbLayerTableRecord
  2
INTFCLR_2
 70
0
 62
7
  6
CONTINUOUS
370
-3
390
F
  0
LAYER
  5
26B
100
AcDbSymbolTableRecord
100
AcDbLayerTableRecord
  2
INTFCLR_3
 70
0
 62
7
  6
CONTINUOUS
370
-3
390
F
  0
LAYER
  5
26C
100
AcDbSymbolTableRecord
100
AcDbLayerTableRecord
  2
INTFCLR_4
 70
0
 62
7
  6
CONTINUOUS
370
-3
390
F
  0
LAYER
  5
26D
100
AcDbSymbolTableRecord
100
AcDbLayerTableRecord
  2
INTF_1
 70
0
 62
7
  6
CONTINUOUS
370
-3
390
F
  0
LAYER
  5
26E
100
AcDbSymbolTableRecord
100
AcDbLayerTableRecord
  2
INTF_11
 70
0
 62
7
  6
CONTINUOUS
370
-3
390
F
  0
LAYER
  5
26F
100
AcDbSymbolTableRecord
100
AcDbLayerTableRecord
  2
INTF_12
 70
0
 62
7
  6
CONTINUOUS
370
-3
390
F
  0
LAYER
  5
270
100
AcDbSymbolTableRecord
100
AcDbLayerTableRecord
  2
INTF_5
 70
0
 62
7
  6
CONTINUOUS
370
-3
390
F
  0
LAYER
  5
271
100
AcDbSymbolTableRecord
100
AcDbLayerTableRecord
  2
INTF_BLUE
 70
0
 62
7
  6
CONTINUOUS
370
-3
390
F
  0
LAYER
  5
272
100
AcDbSymbolTableRecord
100
AcDbLayerTableRecord
  2
INTF_CYAN
 70
0
 62
7
  6
CONTINUOUS
370
-3
390
F
  0
LAYER
  5
273
100
AcDbSymbolTableRecord
100
AcDbLayerTableRecord
  2
INTF_GREEN
 70
0
 62
7
  6
CONTINUOUS
370
-3
390
F
  0
LAYER
  5
274
100
AcDbSymbolTableRecord
100
AcDbLayerTableRecord
  2
LAYER_802
 70
0
 62
7
  6
CONTINUOUS
370
-3
390
F
  0
LAYER
  5
275
100
AcDbSymbolTableRecord
100
AcDbLayerTableRecord
  2
MM3-MPAK-RF-VIMAR_120000
 70
0
 62
7
  6
CONTINUOUS
370
-3
390
F
  0
LAYER
  5
276
100
AcDbSymbolTableRecord
100
AcDbLayerTableRecord
  2
MM3-MPAK-RF-VIMAR_120000_1
 70
0
 62
7
  6
CONTINUOUS
370
-3
390
F
  0
LAYER
  5
277
100
AcDbSymbolTableRecord
100
AcDbLayerTableRecord
  2
MM3-MPAK-RF-VIMAR_120000_10
 70
0
 62
7
  6
CONTINUOUS
370
-3
390
F
  0
LAYER
  5
278
100
AcDbSymbolTableRecord
100
AcDbLayerTableRecord
  2
MM3-MPAK-RF-VIMAR_120000_11
 70
0
 62
7
  6
CONTINUOUS
370
-3
390
F
  0
LAYER
  5
279
100
AcDbSymbolTableRecord
100
AcDbLayerTableRecord
  2
MM3-MPAK-RF-VIMAR_120000_2
 70
0
 62
7
  6
CONTINUOUS
370
-3
390
F
  0
LAYER
  5
27A
100
AcDbSymbolTableRecord
100
AcDbLayerTableRecord
  2
MM3-MPAK-RF-VIMAR_120000_3
 70
0
 62
7
  6
CONTINUOUS
370
-3
390
F
  0
LAYER
  5
27B
100
AcDbSymbolTableRecord
100
AcDbLayerTableRecord
  2
MM3-MPAK-RF-VIMAR_120000_4
 70
0
 62
7
  6
CONTINUOUS
370
-3
390
F
  0
LAYER
  5
27C
100
AcDbSymbolTableRecord
100
AcDbLayerTableRecord
  2
MM3-MPAK-RF-VIMAR_120000_5
 70
0
 62
7
  6
CONTINUOUS
370
-3
390
F
  0
LAYER
  5
27D
100
AcDbSymbolTableRecord
100
AcDbLayerTableRecord
  2
MM3-MPAK-RF-VIMAR_120000_6
 70
0
 62
7
  6
CONTINUOUS
370
-3
390
F
  0
LAYER
  5
27E
100
AcDbSymbolTableRecord
100
AcDbLayerTableRecord
  2
MM3-MPAK-RF-VIMAR_120000_7
 70
0
 62
7
  6
CONTINUOUS
370
-3
390
F
  0
LAYER
  5
27F
100
AcDbSymbolTableRecord
100
AcDbLayerTableRecord
  2
MM3-MPAK-RF-VIMAR_120000_8
 70
0
 62
7
  6
CONTINUOUS
370
-3
390
F
  0
LAYER
  5
280
100
AcDbSymbolTableRecord
100
AcDbLayerTableRecord
  2
MM3-MPAK-RF-VIMAR_120000_9
 70
0
 62
7
  6
CONTINUOUS
370
-3
390
F
  0
LAYER
  5
281
100
AcDbSymbolTableRecord
100
AcDbLayerTableRecord
  2
MM3-SOT-89-RF-VIMAR_150000
 70
0
 62
7
  6
CONTINUOUS
370
-3
390
F
  0
LAYER
  5
282
100
AcDbSymbolTableRecord
100
AcDbLayerTableRecord
  2
NONE
 70
0
 62
7
  6
CONTINUOUS
370
-3
390
F
  0
LAYER
  5
283
100
AcDbSymbolTableRecord
100
AcDbLayerTableRecord
  2
NOTE
 70
0
 62
7
  6
CONTINUOUS
370
-3
390
F
  0
LAYER
  5
284
100
AcDbSymbolTableRecord
100
AcDbLayerTableRecord
  2
PIANI
 70
0
 62
7
  6
CONTINUOUS
370
-3
390
F
  0
LAYER
  5
285
100
AcDbSymbolTableRecord
100
AcDbLayerTableRecord
  2
PIANI_ORIGINE
 70
0
 62
7
  6
CONTINUOUS
370
-3
390
F
  0
LAYER
  5
286
100
AcDbSymbolTableRecord
100
AcDbLayerTableRecord
  2
PIANI_RIFERIMENTO
 70
0
 62
7
  6
CONTINUOUS
370
-3
390
F
  0
LAYER
  5
287
100
AcDbSymbolTableRecord
100
AcDbLayerTableRecord
  2
PIANI_SFORMO
 70
0
 62
7
  6
CONTINUOUS
370
-3
390
F
  0
LAYER
  5
288
100
AcDbSymbolTableRecord
100
AcDbLayerTableRecord
  2
PUNTI
 70
0
 62
7
  6
CONTINUOUS
370
-3
390
F
  0
LAYER
  5
289
100
AcDbSymbolTableRecord
100
AcDbLayerTableRecord
  2
RACCORDO
 70
0
 62
7
  6
CONTINUOUS
370
-3
390
F
  0
LAYER
  5
28A
100
AcDbSymbolTableRecord
100
AcDbLayerTableRecord
  2
RD-ZNR50-1-VIMAR_1150000
 70
0
 62
7
  6
CONTINUOUS
370
-3
390
F
  0
LAYER
  5
28B
100
AcDbSymbolTableRecord
100
AcDbLayerTableRecord
  2
RD-ZNR50-1-VIMAR_1150000_1
 70
0
 62
7
  6
CONTINUOUS
370
-3
390
F
  0
LAYER
  5
28C
100
AcDbSymbolTableRecord
100
AcDbLayerTableRecord
  2
RESC1608N_45000
 70
0
 62
7
  6
CONTINUOUS
370
-3
390
F
  0
LAYER
  5
28D
100
AcDbSymbolTableRecord
100
AcDbLayerTableRecord
  2
RESC1608N_45000_1
 70
0
 62
7
  6
CONTINUOUS
370
-3
390
F
  0
LAYER
  5
28E
100
AcDbSymbolTableRecord
100
AcDbLayerTableRecord
  2
RESC1608N_45000_10
 70
0
 62
7
  6
CONTINUOUS
370
-3
390
F
  0
LAYER
  5
28F
100
AcDbSymbolTableRecord
100
AcDbLayerTableRecord
  2
RESC1608N_45000_11
 70
0
 62
7
  6
CONTINUOUS
370
-3
390
F
  0
LAYER
  5
290
100
AcDbSymbolTableRecord
100
AcDbLayerTableRecord
  2
RESC1608N_45000_12
 70
0
 62
7
  6
CONTINUOUS
370
-3
390
F
  0
LAYER
  5
291
100
AcDbSymbolTableRecord
100
AcDbLayerTableRecord
  2
RESC1608N_45000_13
 70
0
 62
7
  6
CONTINUOUS
370
-3
390
F
  0
LAYER
  5
292
100
AcDbSymbolTableRecord
100
AcDbLayerTableRecord
  2
RESC1608N_45000_14
 70
0
 62
7
  6
CONTINUOUS
370
-3
390
F
  0
LAYER
  5
293
100
AcDbSymbolTableRecord
100
AcDbLayerTableRecord
  2
RESC1608N_45000_15
 70
0
 62
7
  6
CONTINUOUS
370
-3
390
F
  0
LAYER
  5
294
100
AcDbSymbolTableRecord
100
AcDbLayerTableRecord
  2
RESC1608N_45000_16
 70
0
 62
7
  6
CONTINUOUS
370
-3
390
F
  0
LAYER
  5
295
100
AcDbSymbolTableRecord
100
AcDbLayerTableRecord
  2
RESC1608N_45000_17
 70
0
 62
7
  6
CONTINUOUS
370
-3
390
F
  0
LAYER
  5
296
100
AcDbSymbolTableRecord
100
AcDbLayerTableRecord
  2
RESC1608N_45000_18
 70
0
 62
7
  6
CONTINUOUS
370
-3
390
F
  0
LAYER
  5
297
100
AcDbSymbolTableRecord
100
AcDbLayerTableRecord
  2
RESC1608N_45000_19
 70
0
 62
7
  6
CONTINUOUS
370
-3
390
F
  0
LAYER
  5
298
100
AcDbSymbolTableRecord
100
AcDbLayerTableRecord
  2
RESC1608N_45000_2
 70
0
 62
7
  6
CONTINUOUS
370
-3
390
F
  0
LAYER
  5
299
100
AcDbSymbolTableRecord
100
AcDbLayerTableRecord
  2
RESC1608N_45000_20
 70
0
 62
7
  6
CONTINUOUS
370
-3
390
F
  0
LAYER
  5
29A
100
AcDbSymbolTableRecord
100
AcDbLayerTableRecord
  2
RESC1608N_45000_21
 70
0
 62
7
  6
CONTINUOUS
370
-3
390
F
  0
LAYER
  5
29B
100
AcDbSymbolTableRecord
100
AcDbLayerTableRecord
  2
RESC1608N_45000_22
 70
0
 62
7
  6
CONTINUOUS
370
-3
390
F
  0
LAYER
  5
29C
100
AcDbSymbolTableRecord
100
AcDbLayerTableRecord
  2
RESC1608N_45000_23
 70
0
 62
7
  6
CONTINUOUS
370
-3
390
F
  0
LAYER
  5
29D
100
AcDbSymbolTableRecord
100
AcDbLayerTableRecord
  2
RESC1608N_45000_24
 70
0
 62
7
  6
CONTINUOUS
370
-3
390
F
  0
LAYER
  5
29E
100
AcDbSymbolTableRecord
100
AcDbLayerTableRecord
  2
RESC1608N_45000_3
 70
0
 62
7
  6
CONTINUOUS
370
-3
390
F
  0
LAYER
  5
29F
100
AcDbSymbolTableRecord
100
AcDbLayerTableRecord
  2
RESC1608N_45000_4
 70
0
 62
7
  6
CONTINUOUS
370
-3
390
F
  0
LAYER
  5
2A0
100
AcDbSymbolTableRecord
100
AcDbLayerTableRecord
  2
RESC1608N_45000_5
 70
0
 62
7
  6
CONTINUOUS
370
-3
390
F
  0
LAYER
  5
2A1
100
AcDbSymbolTableRecord
100
AcDbLayerTableRecord
  2
RESC1608N_45000_6
 70
0
 62
7
  6
CONTINUOUS
370
-3
390
F
  0
LAYER
  5
2A2
100
AcDbSymbolTableRecord
100
AcDbLayerTableRecord
  2
RESC1608N_45000_7
 70
0
 62
7
  6
CONTINUOUS
370
-3
390
F
  0
LAYER
  5
2A3
100
AcDbSymbolTableRecord
100
AcDbLayerTableRecord
  2
RESC1608N_45000_8
 70
0
 62
7
  6
CONTINUOUS
370
-3
390
F
  0
LAYER
  5
2A4
100
AcDbSymbolTableRecord
100
AcDbLayerTableRecord
  2
RESC1608N_45000_9
 70
0
 62
7
  6
CONTINUOUS
370
-3
390
F
  0
LAYER
  5
2A5
100
AcDbSymbolTableRecord
100
AcDbLayerTableRecord
  2
S-PB_SKRP_VIMAR_250000
 70
0
 62
7
  6
CONTINUOUS
370
-3
390
F
  0
LAYER
  5
2A6
100
AcDbSymbolTableRecord
100
AcDbLayerTableRecord
  2
S-PB_SKRP_VIMAR_250000_1
 70
0
 62
7
  6
CONTINUOUS
370
-3
390
F
  0
LAYER
  5
2A7
100
AcDbSymbolTableRecord
100
AcDbLayerTableRecord
  2
SDA02H1SBD_450000
 70
0
 62
7
  6
CONTINUOUS
370
-3
390
F
  0
LAYER
  5
2A8
100
AcDbSymbolTableRecord
100
AcDbLayerTableRecord
  2
SHUNT-SMD-2-VIMAR_70000
 70
0
 62
7
  6
CONTINUOUS
370
-3
390
F
  0
LAYER
  5
2A9
100
AcDbSymbolTableRecord
100
AcDbLayerTableRecord
  2
SIMBOLI
 70
0
 62
7
  6
CONTINUOUS
370
-3
390
F
  0
LAYER
  5
2AA
100
AcDbSymbolTableRecord
100
AcDbLayerTableRecord
  2
SMUSSO
 70
0
 62
7
  6
CONTINUOUS
370
-3
390
F
  0
LAYER
  5
2AB
100
AcDbSymbolTableRecord
100
AcDbLayerTableRecord
  2
SNAPLINE
 70
0
 62
7
  6
CONTINUOUS
370
-3
390
F
  0
LAYER
  5
2AC
100
AcDbSymbolTableRecord
100
AcDbLayerTableRecord
  2
SUPERFICI
 70
0
 62
7
  6
CONTINUOUS
370
-3
390
F
  0
LAYER
  5
2AD
100
AcDbSymbolTableRecord
100
AcDbLayerTableRecord
  2
TRASH
 70
0
 62
7
  6
CONTINUOUS
370
-3
390
F
  0
LAYER
  5
2AE
100
AcDbSymbolTableRecord
100
AcDbLayerTableRecord
  2
TR_T7YA_625000
 70
0
 62
7
  6
CONTINUOUS
370
-3
390
F
  0
LAYER
  5
2AF
100
AcDbSymbolTableRecord
100
AcDbLayerTableRecord
  2
TSSOP16-RF-VIMAR_150000
 70
0
 62
7
  6
CONTINUOUS
370
-3
390
F
  0
LAYER
  5
2B0
100
AcDbSymbolTableRecord
100
AcDbLayerTableRecord
  2
XSEC_DATUMS
 70
0
 62
7
  6
CONTINUOUS
370
-3
390
F
  0
LAYER
  5
2B1
100
AcDbSymbolTableRecord
100
AcDbLayerTableRecord
  2
_1018
 70
0
 62
7
  6
CONTINUOUS
370
-3
390
F
  0
LAYER
  5
2B2
100
AcDbSymbolTableRecord
100
AcDbLayerTableRecord
  2
_1039
 70
0
 62
7
  6
CONTINUOUS
370
-3
390
F
  0
LAYER
  5
2B3
100
AcDbSymbolTableRecord
100
AcDbLayerTableRecord
  2
_10508
 70
0
 62
7
  6
CONTINUOUS
370
-3
390
F
  0
LAYER
  5
2B4
100
AcDbSymbolTableRecord
100
AcDbLayerTableRecord
  2
_1051
 70
0
 62
7
  6
CONTINUOUS
370
-3
390
F
  0
LAYER
  5
2B5
100
AcDbSymbolTableRecord
100
AcDbLayerTableRecord
  2
_10585
 70
0
 62
7
  6
CONTINUOUS
370
-3
390
F
  0
LAYER
  5
2B6
100
AcDbSymbolTableRecord
100
AcDbLayerTableRecord
  2
_1103
 70
0
 62
7
  6
CONTINUOUS
370
-3
390
F
  0
LAYER
  5
2B7
100
AcDbSymbolTableRecord
100
AcDbLayerTableRecord
  2
_1174
 70
0
 62
7
  6
CONTINUOUS
370
-3
390
F
  0
LAYER
  5
2B8
100
AcDbSymbolTableRecord
100
AcDbLayerTableRecord
  2
_1205
 70
0
 62
7
  6
CONTINUOUS
370
-3
390
F
  0
LAYER
  5
2B9
100
AcDbSymbolTableRecord
100
AcDbLayerTableRecord
  2
_1229
 70
0
 62
7
  6
CONTINUOUS
370
-3
390
F
  0
LAYER
  5
2BA
100
AcDbSymbolTableRecord
100
AcDbLayerTableRecord
  2
_1279
 70
0
 62
7
  6
CONTINUOUS
370
-3
390
F
  0
LAYER
  5
2BB
100
AcDbSymbolTableRecord
100
AcDbLayerTableRecord
  2
_1308
 70
0
 62
7
  6
CONTINUOUS
370
-3
390
F
  0
LAYER
  5
2BC
100
AcDbSymbolTableRecord
100
AcDbLayerTableRecord
  2
_1339
 70
0
 62
7
  6
CONTINUOUS
370
-3
390
F
  0
LAYER
  5
2BD
100
AcDbSymbolTableRecord
100
AcDbLayerTableRecord
  2
_1387
 70
0
 62
7
  6
CONTINUOUS
370
-3
390
F
  0
LAYER
  5
2BE
100
AcDbSymbolTableRecord
100
AcDbLayerTableRecord
  2
_1408
 70
0
 62
7
  6
CONTINUOUS
370
-3
390
F
  0
LAYER
  5
2BF
100
AcDbSymbolTableRecord
100
AcDbLayerTableRecord
  2
_1423
 70
0
 62
7
  6
CONTINUOUS
370
-3
390
F
  0
LAYER
  5
2C0
100
AcDbSymbolTableRecord
100
AcDbLayerTableRecord
  2
_1449
 70
0
 62
7
  6
CONTINUOUS
370
-3
390
F
  0
LAYER
  5
2C1
100
AcDbSymbolTableRecord
100
AcDbLayerTableRecord
  2
_1478
 70
0
 62
7
  6
CONTINUOUS
370
-3
390
F
  0
LAYER
  5
2C2
100
AcDbSymbolTableRecord
100
AcDbLayerTableRecord
  2
_1566
 70
0
 62
7
  6
CONTINUOUS
370
-3
390
F
  0
LAYER
  5
2C3
100
AcDbSymbolTableRecord
100
AcDbLayerTableRecord
  2
_1598
 70
0
 62
7
  6
CONTINUOUS
370
-3
390
F
  0
LAYER
  5
2C4
100
AcDbSymbolTableRecord
100
AcDbLayerTableRecord
  2
_1632
 70
0
 62
7
  6
CONTINUOUS
370
-3
390
F
  0
LAYER
  5
2C5
100
AcDbSymbolTableRecord
100
AcDbLayerTableRecord
  2
_1646
 70
0
 62
7
  6
CONTINUOUS
370
-3
390
F
  0
LAYER
  5
2C6
100
AcDbSymbolTableRecord
100
AcDbLayerTableRecord
  2
_1731
 70
0
 62
7
  6
CONTINUOUS
370
-3
390
F
  0
LAYER
  5
2C7
100
AcDbSymbolTableRecord
100
AcDbLayerTableRecord
  2
_1737
 70
0
 62
7
  6
CONTINUOUS
370
-3
390
F
  0
LAYER
  5
2C8
100
AcDbSymbolTableRecord
100
AcDbLayerTableRecord
  2
_1758
 70
0
 62
7
  6
CONTINUOUS
370
-3
390
F
  0
LAYER
  5
2C9
100
AcDbSymbolTableRecord
100
AcDbLayerTableRecord
  2
_1768
 70
0
 62
7
  6
CONTINUOUS
370
-3
390
F
  0
LAYER
  5
2CA
100
AcDbSymbolTableRecord
100
AcDbLayerTableRecord
  2
_1797
 70
0
 62
7
  6
CONTINUOUS
370
-3
390
F
  0
LAYER
  5
2CB
100
AcDbSymbolTableRecord
100
AcDbLayerTableRecord
  2
_1819
 70
0
 62
7
  6
CONTINUOUS
370
-3
390
F
  0
LAYER
  5
2CC
100
AcDbSymbolTableRecord
100
AcDbLayerTableRecord
  2
_1854
 70
0
 62
7
  6
CONTINUOUS
370
-3
390
F
  0
LAYER
  5
2CD
100
AcDbSymbolTableRecord
100
AcDbLayerTableRecord
  2
_1879
 70
0
 62
7
  6
CONTINUOUS
370
-3
390
F
  0
LAYER
  5
2CE
100
AcDbSymbolTableRecord
100
AcDbLayerTableRecord
  2
_1909
 70
0
 62
7
  6
CONTINUOUS
370
-3
390
F
  0
LAYER
  5
2CF
100
AcDbSymbolTableRecord
100
AcDbLayerTableRecord
  2
_1969
 70
0
 62
7
  6
CONTINUOUS
370
-3
390
F
  0
LAYER
  5
2D0
100
AcDbSymbolTableRecord
100
AcDbLayerTableRecord
  2
_2000
 70
0
 62
7
  6
CONTINUOUS
370
-3
390
F
  0
LAYER
  5
2D1
100
AcDbSymbolTableRecord
100
AcDbLayerTableRecord
  2
_2029
 70
0
 62
7
  6
CONTINUOUS
370
-3
390
F
  0
LAYER
  5
2D2
100
AcDbSymbolTableRecord
100
AcDbLayerTableRecord
  2
_2050
 70
0
 62
7
  6
CONTINUOUS
370
-3
390
F
  0
LAYER
  5
2D3
100
AcDbSymbolTableRecord
100
AcDbLayerTableRecord
  2
_2109
 70
0
 62
7
  6
CONTINUOUS
370
-3
390
F
  0
LAYER
  5
2D4
100
AcDbSymbolTableRecord
100
AcDbLayerTableRecord
  2
_2138
 70
0
 62
7
  6
CONTINUOUS
370
-3
390
F
  0
LAYER
  5
2D5
100
AcDbSymbolTableRecord
100
AcDbLayerTableRecord
  2
_2215
 70
0
 62
7
  6
CONTINUOUS
370
-3
390
F
  0
LAYER
  5
2D6
100
AcDbSymbolTableRecord
100
AcDbLayerTableRecord
  2
_2810
 70
0
 62
7
  6
CONTINUOUS
370
-3
390
F
  0
LAYER
  5
2D7
100
AcDbSymbolTableRecord
100
AcDbLayerTableRecord
  2
_2832
 70
0
 62
7
  6
CONTINUOUS
370
-3
390
F
  0
LAYER
  5
2D8
100
AcDbSymbolTableRecord
100
AcDbLayerTableRecord
  2
_2871
 70
0
 62
7
  6
CONTINUOUS
370
-3
390
F
  0
LAYER
  5
2D9
100
AcDbSymbolTableRecord
100
AcDbLayerTableRecord
  2
_2901
 70
0
 62
7
  6
CONTINUOUS
370
-3
390
F
  0
LAYER
  5
2DA
100
AcDbSymbolTableRecord
100
AcDbLayerTableRecord
  2
_2933
 70
0
 62
7
  6
CONTINUOUS
370
-3
390
F
  0
LAYER
  5
2DB
100
AcDbSymbolTableRecord
100
AcDbLayerTableRecord
  2
_2956
 70
0
 62
7
  6
CONTINUOUS
370
-3
390
F
  0
LAYER
  5
2DC
100
AcDbSymbolTableRecord
100
AcDbLayerTableRecord
  2
_2984
 70
0
 62
7
  6
CONTINUOUS
370
-3
390
F
  0
LAYER
  5
2DD
100
AcDbSymbolTableRecord
100
AcDbLayerTableRecord
  2
_3014
 70
0
 62
7
  6
CONTINUOUS
370
-3
390
F
  0
LAYER
  5
2DE
100
AcDbSymbolTableRecord
100
AcDbLayerTableRecord
  2
_3046
 70
0
 62
7
  6
CONTINUOUS
370
-3
390
F
  0
LAYER
  5
2DF
100
AcDbSymbolTableRecord
100
AcDbLayerTableRecord
  2
_3071
 70
0
 62
7
  6
CONTINUOUS
370
-3
390
F
  0
LAYER
  5
2E0
100
AcDbSymbolTableRecord
100
AcDbLayerTableRecord
  2
_3094
 70
0
 62
7
  6
CONTINUOUS
370
-3
390
F
  0
LAYER
  5
2E1
100
AcDbSymbolTableRecord
100
AcDbLayerTableRecord
  2
_3129
 70
0
 62
7
  6
CONTINUOUS
370
-3
390
F
  0
LAYER
  5
2E2
100
AcDbSymbolTableRecord
100
AcDbLayerTableRecord
  2
_3158
 70
0
 62
7
  6
CONTINUOUS
370
-3
390
F
  0
LAYER
  5
2E3
100
AcDbSymbolTableRecord
100
AcDbLayerTableRecord
  2
_3185
 70
0
 62
7
  6
CONTINUOUS
370
-3
390
F
  0
LAYER
  5
2E4
100
AcDbSymbolTableRecord
100
AcDbLayerTableRecord
  2
_3211
 70
0
 62
7
  6
CONTINUOUS
370
-3
390
F
  0
LAYER
  5
2E5
100
AcDbSymbolTableRecord
100
AcDbLayerTableRecord
  2
_3239
 70
0
 62
7
  6
CONTINUOUS
370
-3
390
F
  0
LAYER
  5
2E6
100
AcDbSymbolTableRecord
100
AcDbLayerTableRecord
  2
_3262
 70
0
 62
7
  6
CONTINUOUS
370
-3
390
F
  0
LAYER
  5
2E7
100
AcDbSymbolTableRecord
100
AcDbLayerTableRecord
  2
_3331
 70
0
 62
7
  6
CONTINUOUS
370
-3
390
F
  0
LAYER
  5
2E8
100
AcDbSymbolTableRecord
100
AcDbLayerTableRecord
  2
_3359
 70
0
 62
7
  6
CONTINUOUS
370
-3
390
F
  0
LAYER
  5
2E9
100
AcDbSymbolTableRecord
100
AcDbLayerTableRecord
  2
_3394
 70
0
 62
7
  6
CONTINUOUS
370
-3
390
F
  0
LAYER
  5
2EA
100
AcDbSymbolTableRecord
100
AcDbLayerTableRecord
  2
_3423
 70
0
 62
7
  6
CONTINUOUS
370
-3
390
F
  0
LAYER
  5
2EB
100
AcDbSymbolTableRecord
100
AcDbLayerTableRecord
  2
_3455
 70
0
 62
7
  6
CONTINUOUS
370
-3
390
F
  0
LAYER
  5
2EC
100
AcDbSymbolTableRecord
100
AcDbLayerTableRecord
  2
_3476
 70
0
 62
7
  6
CONTINUOUS
370
-3
390
F
  0
LAYER
  5
2ED
100
AcDbSymbolTableRecord
100
AcDbLayerTableRecord
  2
_3498
 70
0
 62
7
  6
CONTINUOUS
370
-3
390
F
  0
LAYER
  5
2EE
100
AcDbSymbolTableRecord
100
AcDbLayerTableRecord
  2
_3528
 70
0
 62
7
  6
CONTINUOUS
370
-3
390
F
  0
LAYER
  5
2EF
100
AcDbSymbolTableRecord
100
AcDbLayerTableRecord
  2
_3544
 70
0
 62
7
  6
CONTINUOUS
370
-3
390
F
  0
LAYER
  5
2F0
100
AcDbSymbolTableRecord
100
AcDbLayerTableRecord
  2
_3583
 70
0
 62
7
  6
CONTINUOUS
370
-3
390
F
  0
LAYER
  5
2F1
100
AcDbSymbolTableRecord
100
AcDbLayerTableRecord
  2
_3635
 70
0
 62
7
  6
CONTINUOUS
370
-3
390
F
  0
LAYER
  5
2F2
100
AcDbSymbolTableRecord
100
AcDbLayerTableRecord
  2
_3656
 70
0
 62
7
  6
CONTINUOUS
370
-3
390
F
  0
LAYER
  5
2F3
100
AcDbSymbolTableRecord
100
AcDbLayerTableRecord
  2
_3667
 70
0
 62
7
  6
CONTINUOUS
370
-3
390
F
  0
LAYER
  5
2F4
100
AcDbSymbolTableRecord
100
AcDbLayerTableRecord
  2
_3692
 70
0
 62
7
  6
CONTINUOUS
370
-3
390
F
  0
LAYER
  5
2F5
100
AcDbSymbolTableRecord
100
AcDbLayerTableRecord
  2
_3764
 70
0
 62
7
  6
CONTINUOUS
370
-3
390
F
  0
LAYER
  5
2F6
100
AcDbSymbolTableRecord
100
AcDbLayerTableRecord
  2
_3775
 70
0
 62
7
  6
CONTINUOUS
370
-3
390
F
  0
LAYER
  5
2F7
100
AcDbSymbolTableRecord
100
AcDbLayerTableRecord
  2
_3800
 70
0
 62
7
  6
CONTINUOUS
370
-3
390
F
  0
LAYER
  5
2F8
100
AcDbSymbolTableRecord
100
AcDbLayerTableRecord
  2
_3807
 70
0
 62
7
  6
CONTINUOUS
370
-3
390
F
  0
LAYER
  5
2F9
100
AcDbSymbolTableRecord
100
AcDbLayerTableRecord
  2
_3831
 70
0
 62
7
  6
CONTINUOUS
370
-3
390
F
  0
LAYER
  5
2FA
100
AcDbSymbolTableRecord
100
AcDbLayerTableRecord
  2
_3858
 70
0
 62
7
  6
CONTINUOUS
370
-3
390
F
  0
LAYER
  5
2FB
100
AcDbSymbolTableRecord
100
AcDbLayerTableRecord
  2
_6908
 70
0
 62
7
  6
CONTINUOUS
370
-3
390
F
  0
LAYER
  5
2FC
100
AcDbSymbolTableRecord
100
AcDbLayerTableRecord
  2
_7982
 70
0
 62
7
  6
CONTINUOUS
370
-3
390
F
  0
LAYER
  5
2FD
100
AcDbSymbolTableRecord
100
AcDbLayerTableRecord
  2
_8048
 70
0
 62
7
  6
CONTINUOUS
370
-3
390
F
  0
LAYER
  5
2FE
100
AcDbSymbolTableRecord
100
AcDbLayerTableRecord
  2
_8132
 70
0
 62
7
  6
CONTINUOUS
370
-3
390
F
  0
LAYER
  5
2FF
100
AcDbSymbolTableRecord
100
AcDbLayerTableRecord
  2
_817
 70
0
 62
7
  6
CONTINUOUS
370
-3
390
F
  0
LAYER
  5
300
100
AcDbSymbolTableRecord
100
AcDbLayerTableRecord
  2
_8191
 70
0
 62
7
  6
CONTINUOUS
370
-3
390
F
  0
LAYER
  5
301
100
AcDbSymbolTableRecord
100
AcDbLayerTableRecord
  2
_8232
 70
0
 62
7
  6
CONTINUOUS
370
-3
390
F
  0
LAYER
  5
302
100
AcDbSymbolTableRecord
100
AcDbLayerTableRecord
  2
_8352
 70
0
 62
7
  6
CONTINUOUS
370
-3
390
F
  0
LAYER
  5
303
100
AcDbSymbolTableRecord
100
AcDbLayerTableRecord
  2
_8414
 70
0
 62
7
  6
CONTINUOUS
370
-3
390
F
  0
LAYER
  5
304
100
AcDbSymbolTableRecord
100
AcDbLayerTableRecord
  2
_848
 70
0
 62
7
  6
CONTINUOUS
370
-3
390
F
  0
LAYER
  5
305
100
AcDbSymbolTableRecord
100
AcDbLayerTableRecord
  2
_8658
 70
0
 62
7
  6
CONTINUOUS
370
-3
390
F
  0
LAYER
  5
306
100
AcDbSymbolTableRecord
100
AcDbLayerTableRecord
  2
_883
 70
0
 62
7
  6
CONTINUOUS
370
-3
390
F
  0
LAYER
  5
307
100
AcDbSymbolTableRecord
100
AcDbLayerTableRecord
  2
_947
 70
0
 62
7
  6
CONTINUOUS
370
-3
390
F
  0
LAYER
  5
308
100
AcDbSymbolTableRecord
100
AcDbLayerTableRecord
  2
_974
 70
0
 62
7
  6
CONTINUOUS
370
-3
390
F
  0
LAYER
  5
309
100
AcDbSymbolTableRecord
100
AcDbLayerTableRecord
  2
_998
 70
0
 62
7
  6
CONTINUOUS
370
-3
390
F
  0
LAYER
  5
30A
100
AcDbSymbolTableRecord
100
AcDbLayerTableRecord
  2
___SHELL
 70
0
 62
7
  6
CONTINUOUS
370
-3
390
F
  0
ENDTAB
  0
TABLE
  2
STYLE
  5
3
100
AcDbSymbolTable
 70
1
  0
STYLE
  5
11
100
AcDbSymbolTableRecord
100
AcDbTextStyleTableRecord
  2
STANDARD
 70
0
 40
0.0
 41
0.8
 50
0.0
 71
0
 42
0.2
  3
txt
  4

  0
STYLE
  5
30B
100
AcDbSymbolTableRecord
100
AcDbTextStyleTableRecord
  2
TEXTSTYLE_1
 70
0
 40
0.0
 41
0.8
 50
0.0
 71
0
 42
0.2
  3
gdt
  4

  0
ENDTAB
  0
TABLE
  2
VIEW
  5
6
100
AcDbSymbolTable
 70
0
  0
ENDTAB
  0
TABLE
  2
UCS
  5
7
100
AcDbSymbolTable
 70
0
  0
ENDTAB
  0
TABLE
  2
APPID
  5
9
100
AcDbSymbolTable
 70
1
  0
APPID
  5
30C
100
AcDbSymbolTableRecord
100
AcDbRegAppTableRecord
  2
ACAD
 70
0
  0
ENDTAB
  0
TABLE
  2
BLOCK_RECORD
  5
1
100
AcDbSymbolTable
 70
0
  0
BLOCK_RECORD
  5
30D
100
AcDbSymbolTableRecord
100
AcDbBlockTableRecord
  2
*Model_Space
  0
BLOCK_RECORD
  5
30E
100
AcDbSymbolTableRecord
100
AcDbBlockTableRecord
  2
*Paper_Space
  0
BLOCK_RECORD
  5
30F
100
AcDbSymbolTableRecord
100
AcDbBlockTableRecord
  2
_FILLED
  0
ENDTAB
  0
TABLE
  2
DIMSTYLE
  5
A
100
AcDbSymbolTable
 70
1
100
AcDbDimStyleTable
 71
0
  0
DIMSTYLE
105
310
100
AcDbSymbolTableRecord
100
AcDbDimStyleTableRecord
  2
STANDARD
 70
0
  3

  4

 40
1.0
 41
3.0
 42
0.5
 43
0.38
 44
1.5
 45
0.0
 46
0.0
 47
0.01
 48
0.01
140
3.0
141
0.09
142
0.0
143
25.4
144
1.0
145
0.0
146
1.0
147
0.625
 71
1
 72
0
 73
0
 74
0
 75
0
 76
0
 77
1
 78
8
 79
2
170
0
171
1
172
0
173
0
174
0
175
0
176
0
177
0
178
0
270
2
179
2
271
2
272
2
273
2
274
2
275
0
280
0
281
0
282
0
283
1
284
8
285
0
286
0
287
3
288
0
340
11
278
44
341
30F
342
30F
343
30F
344
30F
  0
ENDTAB
  0
ENDSEC
  0
SECTION
  2
BLOCKS
  0
BLOCK
  5
20
100
AcDbEntity
  8
0
100
AcDbBlockBegin
  2
*Model_Space
 70
0
 10
0.0
 20
0.0
 30
0.0
  3
*Model_Space
  1

  0
ENDBLK
  5
21
100
AcDbEntity
  8
0
100
AcDbBlockEnd
  0
BLOCK
  5
1C
100
AcDbEntity
  8
0
100
AcDbBlockBegin
  2
*Paper_Space
 70
0
 10
0.0
 20
0.0
 30
0.0
  3
*Paper_Space
  1

  0
ENDBLK
  5
1D
100
AcDbEntity
  8
0
100
AcDbBlockEnd
  0
BLOCK
  5
311
100
AcDbEntity
  8
0
100
AcDbBlockBegin
  2
_FILLED
 70
64
 10
0.0
 20
0.0
  3
_FILLED
  1

  0
SOLID
  5
312
100
AcDbEntity
  8
0
  6
BYBLOCK
 62
0
100
AcDbTrace
 10
0.0
 20
0.0
 11
-1.0
 21
0.3166666667
 12
-1.0
 22
-0.3166666667
 13
-1.0
 23
-0.3166666667
  0
ENDBLK
  5
313
100
AcDbEntity
  8
0
  6
BYBLOCK
 62
0
100
AcDbBlockEnd
  0
ENDSEC
  0
SECTION
  2
ENTITIES
  0
LWPOLYLINE
  5
314
100
AcDbEntity
  8
ASSI
100
AcDbPolyline
 62
7
  6
CONTINUOUS
 90
10
 70
0
 10
3.6748574782
 20
-23.5
 10
3.7403304144
 20
-23.4978093846
 10
3.804984264
 20
-23.4914781931
 10
3.8688190271
 20
-23.4810064255
 10
3.9320970783
 20
-23.4663149731
 10
3.994556043
 20
-23.4474829446
 10
4.0554087969
 20
-23.4247476662
 10
4.1143929653
 20
-23.3981882466
 10
4.1717709229
 20
-23.367725577
 10
4.2275426698
 20
-23.3333596575
  0
LINE
  5
315
100
AcDbEntity
  8
ASSI
100
AcDbLine
 62
7
  6
CONTINUOUS
 10
3.6748574782
 20
-23.5
 11
-3.6748574782
 21
-23.5
  0
LINE
  5
316
100
AcDbEntity
  8
ASSI
100
AcDbLine
 62
7
  6
CONTINUOUS
 10
3.3633443637
 20
-23.4668353766
 11
-3.3633443637
 21
-23.4668353766
  0
LINE
  5
317
100
AcDbEntity
  8
ASSI
100
AcDbLine
 62
7
  6
CONTINUOUS
 10
3.653791075
 20
-23.4301797403
 11
3.4
 21
-23.4301797403
  0
LINE
  5
318
100
AcDbEntity
  8
ASSI
100
AcDbLine
 62
7
  6
CONTINUOUS
 10
-3.4
 20
-23.4301797403
 11
-3.653791075
 21
-23.4301797403
  0
LINE
  5
319
100
AcDbEntity
  8
RACCORDO
100
AcDbLine
 62
7
  6
CONTINUOUS
 10
3.01751471
 20
-23.375
 11
-3.01751471
 21
-23.375
  0
LINE
  5
31A
100
AcDbEntity
  8
RACCORDO
100
AcDbLine
 62
250
  6
CONTINUOUS
 10
-3.230158461
 20
-23.175
 11
-3.2153472641
 21
-23.175
  0
LINE
  5
31B
100
AcDbEntity
  8
RACCORDO
100
AcDbLine
 62
250
  6
CONTINUOUS
 10
3.2153472641
 20
-23.175
 11
3.230158461
 21
-23.175
  0
LINE
  5
31C
100
AcDbEntity
  8
ASSI
100
AcDbLine
 62
7
  6
CONTINUOUS
 10
3.3633443637
 20
-22.5
 11
3.230158461
 21
-22.5
  0
LINE
  5
31D
100
AcDbEntity
  8
ASSI
100
AcDbLine
 62
7
  6
CONTINUOUS
 10
-3.230158461
 20
-22.5
 11
-3.3633443637
 21
-22.5
  0
LINE
  5
31E
100
AcDbEntity
  8
0
100
AcDbLine
 62
7
  6
CONTINUOUS
 10
-10.6503805997
 20
-22.4
 11
-5.5445119776
 21
-22.4
  0
LINE
  5
31F
100
AcDbEntity
  8
0
100
AcDbLine
 62
7
  6
CONTINUOUS
 10
-3.3848722771
 20
-22.4
 11
-3.3
 21
-22.4
  0
LINE
  5
320
100
AcDbEntity
  8
0
100
AcDbLine
 62
7
  6
CONTINUOUS
 10
3.3
 20
-22.4
 11
3.3848722771
 21
-22.4
  0
LINE
  5
321
100
AcDbEntity
  8
0
100
AcDbLine
 62
7
  6
CONTINUOUS
 10
5.5445119776
 20
-22.4
 11
10.6503805997
 21
-22.4
  0
LWPOLYLINE
  5
322
100
AcDbEntity
  8
ASSI
100
AcDbPolyline
 62
7
  6
CONTINUOUS
 90
10
 70
0
 10
-3.653791075
 20
-23.4301797403
 10
-3.7193524144
 20
-23.4279830815
 10
-3.784091406
 20
-23.4216350423
 10
-3.8480080499
 20
-23.4111356227
 10
-3.9113657378
 20
-23.3964052951
 10
-3.9739010778
 20
-23.3775235872
 10
-4.0348238951
 20
-23.3547290816
 10
-4.0938707981
 20
-23.328101306
 10
-4.1513051783
 20
-23.2975607327
 10
-4.2071270357
 20
-23.2631073618
  0
LWPOLYLINE
  5
323
100
AcDbEntity
  8
ASSI
100
AcDbPolyline
 62
7
  6
CONTINUOUS
 90
10
 70
0
 10
-4.2275426698
 20
23.3333596575
 10
-4.1717709229
 20
23.367725577
 10
-4.1143929653
 20
23.3981882466
 10
-4.0554087969
 20
23.4247476662
 10
-3.994556043
 20
23.4474829446
 10
-3.9320970783
 20
23.4663149731
 10
-3.8688190271
 20
23.4810064255
 10
-3.804984264
 20
23.4914781931
 10
-3.7403304144
 20
23.4978093846
 10
-3.6748574782
 20
23.5
  0
LWPOLYLINE
  5
324
100
AcDbEntity
  8
RACCORDO
100
AcDbPolyline
 62
250
  6
CONTINUOUS
 90
9
 70
0
 10
-3.0812528557
 20
22.0077017497
 10
-3.0906363066
 20
22.0031988718
 10
-3.1102150286
 20
21.9910017434
 10
-3.1274668402
 20
21.9771696498
 10
-3.1421148335
 20
21.9619277289
 10
-3.1539180741
 20
21.9455268219
 10
-3.1626804524
 20
21.928238124
 10
-3.1682552834
 20
21.9103492962
 10
-3.1705494094
 20
21.8921572875
  0
LINE
  5
325
100
AcDbEntity
  8
0
100
AcDbLine
 62
7
  6
CONTINUOUS
 10
-2.6175930356
 20
-21.1271628567
 11
-3.4
 21
-21.2
  0
LINE
  5
326
100
AcDbEntity
  8
ASSI
100
AcDbLine
 62
7
  6
CONTINUOUS
 10
2.9969695968
 20
-22.2
 11
-2.9969695968
 21
-22.2
  0
LINE
  5
327
100
AcDbEntity
  8
0
100
AcDbLine
 62
7
  6
CONTINUOUS
 10
-2.9969695968
 20
-22.2
 11
-3.0812528557
 21
-22.2
  0
LINE
  5
328
100
AcDbEntity
  8
0
100
AcDbLine
 62
7
  6
CONTINUOUS
 10
2.9969695968
 20
-22.2
 11
3.0812528557
 21
-22.2
  0
LINE
  5
329
100
AcDbEntity
  8
RACCORDO
100
AcDbLine
 62
250
  6
CONTINUOUS
 10
-3.1705494094
 20
-21.8921572875
 11
-3.0812528557
 21
-21.8921572875
  0
LINE
  5
32A
100
AcDbEntity
  8
RACCORDO
100
AcDbLine
 62
250
  6
CONTINUOUS
 10
3.0812528557
 20
-21.8921572875
 11
3.1705494094
 21
-21.8921572875
  0
LINE
  5
32B
100
AcDbEntity
  8
ASSI
100
AcDbLine
 62
7
  6
CONTINUOUS
 10
2.7167632191
 20
-21.6560705017
 11
-2.7167632191
 21
-21.6560705017
  0
LINE
  5
32C
100
AcDbEntity
  8
ASSI
100
AcDbLine
 62
7
  6
CONTINUOUS
 10
6.9339198284
 20
-21.2
 11
3.4
 21
-21.2
  0
LINE
  5
32D
100
AcDbEntity
  8
ASSI
100
AcDbLine
 62
7
  6
CONTINUOUS
 10
-3.4
 20
-21.2
 11
-6.9339198284
 21
-21.2
  0
LINE
  5
32E
100
AcDbEntity
  8
DRAFT
100
AcDbLine
 62
7
  6
CONTINUOUS
 10
-6.9080597678
 20
-21.1301797403
 11
-4.8
 21
-21.1301797403
  0
LINE
  5
32F
100
AcDbEntity
  8
ASSI
100
AcDbLine
 62
7
  6
CONTINUOUS
 10
6.9069415429
 20
-21.1271628567
 11
2.6175930356
 21
-21.1271628567
  0
LINE
  5
330
100
AcDbEntity
  8
DRAFT
100
AcDbLine
 62
7
  6
CONTINUOUS
 10
-2.6175930356
 20
-21.1271628567
 11
-4.7909419891
 21
-21.1271628567
  0
LINE
  5
331
100
AcDbEntity
  8
RACCORDO
100
AcDbLine
 62
7
  6
CONTINUOUS
 10
-9.1500761524
 20
-20.9
 11
-7.3789862928
 21
-20.9
  0
LINE
  5
332
100
AcDbEntity
  8
RACCORDO
100
AcDbLine
 62
7
  6
CONTINUOUS
 10
7.3789862928
 20
-20.9
 11
9.1500761524
 21
-20.9
  0
LINE
  5
333
100
AcDbEntity
  8
RACCORDO
100
AcDbLine
 62
7
  6
CONTINUOUS
 10
9.14134862
 20
-20.8912724675
 11
7.3886522719
 21
-20.8912724675
  0
LINE
  5
334
100
AcDbEntity
  8
RACCORDO
100
AcDbLine
 62
7
  6
CONTINUOUS
 10
-7.3886522719
 20
-20.8912724675
 11
-9.14134862
 21
-20.8912724675
  0
LINE
  5
335
100
AcDbEntity
  8
DRAFT
100
AcDbLine
 62
7
  6
CONTINUOUS
 10
8.4674550649
 20
-20.85
 11
7.4343626501
 21
-20.85
  0
LINE
  5
336
100
AcDbEntity
  8
DRAFT
100
AcDbLine
 62
7
  6
CONTINUOUS
 10
-7.4343626501
 20
-20.85
 11
-8.4674550649
 21
-20.85
  0
LINE
  5
337
100
AcDbEntity
  8
0
100
AcDbLine
 62
7
  6
CONTINUOUS
 10
2.6175930356
 20
-21.1271628567
 11
3.4
 21
-21.2
  0
LWPOLYLINE
  5
338
100
AcDbEntity
  8
ASSI
100
AcDbPolyline
 62
7
  6
CONTINUOUS
 90
10
 70
0
 10
-4.2275426698
 20
-23.3333596575
 10
-4.1717709229
 20
-23.367725577
 10
-4.1143929653
 20
-23.3981882466
 10
-4.0554087969
 20
-23.4247476662
 10
-3.994556043
 20
-23.4474829446
 10
-3.9320970783
 20
-23.4663149731
 10
-3.8688190271
 20
-23.4810064255
 10
-3.804984264
 20
-23.4914781931
 10
-3.7403304144
 20
-23.4978093846
 10
-3.6748574782
 20
-23.5
  0
LINE
  5
339
100
AcDbEntity
  8
RACCORDO
100
AcDbLine
 62
7
  6
CONTINUOUS
 10
-8.7459991025
 20
19.325248782
 11
-10.8276743857
 21
16.8272384421
  0
LINE
  5
33A
100
AcDbEntity
  8
ASSI
100
AcDbLine
 62
7
  6
CONTINUOUS
 10
-8.7459991025
 20
19.325248782
 11
-10.8276743857
 21
16.8272384421
  0
LINE
  5
33B
100
AcDbEntity
  8
ASSI
100
AcDbLine
 62
7
  6
CONTINUOUS
 10
-3.4
 20
23.4301797403
 11
-3.3633443637
 21
23.4668353766
  0
LINE
  5
33C
100
AcDbEntity
  8
DRAFT
100
AcDbLine
 62
7
  6
CONTINUOUS
 10
8.4579943206
 20
-20.3079943206
 11
8.0224101746
 21
-20.3079943206
  0
LINE
  5
33D
100
AcDbEntity
  8
DRAFT
100
AcDbLine
 62
7
  6
CONTINUOUS
 10
-8.0224101746
 20
-20.3079943206
 11
-8.4579943206
 21
-20.3079943206
  0
LINE
  5
33E
100
AcDbEntity
  8
DRAFT
100
AcDbLine
 62
7
  6
CONTINUOUS
 10
8.45
 20
-20.3
 11
8.0307395699
 21
-20.3
  0
LINE
  5
33F
100
AcDbEntity
  8
DRAFT
100
AcDbLine
 62
7
  6
CONTINUOUS
 10
-8.0307395699
 20
-20.3
 11
-8.45
 21
-20.3
  0
LINE
  5
340
100
AcDbEntity
  8
RACCORDO
100
AcDbLine
 62
250
  6
CONTINUOUS
 10
-8.45
 20
-20.1152614489
 11
-8.2232212694
 21
-20.1152614489
  0
LINE
  5
341
100
AcDbEntity
  8
ASSI
100
AcDbLine
 62
250
  6
CONTINUOUS
 10
-8.45
 20
-20.1152614489
 11
-8.2232212694
 21
-20.1152614489
  0
LINE
  5
342
100
AcDbEntity
  8
RACCORDO
100
AcDbLine
 62
250
  6
CONTINUOUS
 10
8.2232212694
 20
-20.1152614489
 11
8.45
 21
-20.1152614489
  0
LINE
  5
343
100
AcDbEntity
  8
ASSI
100
AcDbLine
 62
250
  6
CONTINUOUS
 10
8.2232212694
 20
-20.1152614489
 11
8.45
 21
-20.1152614489
  0
LINE
  5
344
100
AcDbEntity
  8
RACCORDO
100
AcDbLine
 62
7
  6
CONTINUOUS
 10
-8.13144548
 20
-19.6130903017
 11
3.7131017248
 21
-19.6130903017
  0
LINE
  5
345
100
AcDbEntity
  8
ASSI
100
AcDbLine
 62
7
  6
CONTINUOUS
 10
-8.13144548
 20
-19.6130903017
 11
3.7131017248
 21
-19.6130903017
  0
LINE
  5
346
100
AcDbEntity
  8
0
100
AcDbLine
 62
7
  6
CONTINUOUS
 10
8.6997562296
 20
-19.4
 11
4.0
 21
-19.4
  0
LINE
  5
347
100
AcDbEntity
  8
ASSI
100
AcDbLine
 62
7
  6
CONTINUOUS
 10
-3.4
 20
-23.4301797403
 11
-3.3633443637
 21
-23.4668353766
  0
LINE
  5
348
100
AcDbEntity
  8
RACCORDO
100
AcDbLine
 62
7
  6
CONTINUOUS
 10
-8.7459991025
 20
-19.325248782
 11
-10.8276743857
 21
-16.8272384421
  0
LINE
  5
349
100
AcDbEntity
  8
ASSI
100
AcDbLine
 62
7
  6
CONTINUOUS
 10
-8.7459991025
 20
-19.325248782
 11
-10.8276743857
 21
-16.8272384421
  0
LWPOLYLINE
  5
34A
100
AcDbEntity
  8
0
100
AcDbPolyline
 62
7
  6
CONTINUOUS
 90
10
 70
0
 10
-10.5773352561
 20
-17.3137825449
 10
-10.6114569278
 20
-17.2695066163
 10
-10.6442872937
 20
-17.2243561449
 10
-10.675826354
 20
-17.1783311308
 10
-10.7060993192
 20
-17.1313911534
 10
-10.7350809788
 20
-17.0835766332
 10
-10.7626957004
 20
-17.0350088323
 10
-10.7889377154
 20
-16.9856892858
 10
-10.8138127925
 20
-16.9356164585
 10
-10.837262606
 20
-16.8849070064
  0
LWPOLYLINE
  5
34B
100
AcDbEntity
  8
CURVE
100
AcDbPolyline
 62
250
  6
CONTINUOUS
 90
36
 70
0
 10
-9.3448875901
 20
15.103542891
 10
-9.3580314318
 20
15.0901079138
 10
-9.37077377
 20
15.0762969087
 10
-9.3831203026
 20
15.062124287
 10
-9.3950767278
 20
15.0476044602
 10
-9.4066487435
 20
15.0327518397
 10
-9.4178420478
 20
15.017580837
 10
-9.4286623388
 20
15.0021058634
 10
-9.4391153146
 20
14.9863413305
 10
-9.4492066732
 20
14.9703016496
 10
-9.4589421127
 20
14.9540012322
 10
-9.4683273311
 20
14.9374544897
 10
-9.4773680266
 20
14.9206758336
 10
-9.4860698971
 20
14.9036796753
 10
-9.4944386407
 20
14.8864804262
 10
-9.5024799556
 20
14.8690924979
 10
-9.5101995396
 20
14.8515303016
 10
-9.5176030911
 20
14.8338082489
 10
-9.5246963079
 20
14.8159407511
 10
-9.5314848881
 20
14.7979422198
 10
-9.5379745299
 20
14.7798270664
 10
-9.5441709312
 20
14.7616097022
 10
-9.5500797901
 20
14.7433045388
 10
-9.5557068048
 20
14.7249259875
 10
-9.5610576732
 20
14.7064884599
 10
-9.5661380934
 20
14.6880063672
 10
-9.5709537635
 20
14.6694941211
 10
-9.5755103815
 20
14.6509661329
 10
-9.5798136456
 20
14.632436814
 10
-9.5856589197
 20
14.6054102254
 10
-9.5910384118
 20
14.5784004564
 10
-9.5960139279
 20
14.5513964603
 10
-9.6006472739
 20
14.5243871904
 10
-9.6050002558
 20
14.4973615999
 10
-9.6091346796
 20
14.4703086422
 10
-9.6169950762
 20
14.4160764381
  0
LINE
  5
34C
100
AcDbEntity
  8
0
100
AcDbLine
 62
7
  6
CONTINUOUS
 10
2.3031505071
 20
-18.3
 11
2.5
 21
-18.2607261039
  0
LINE
  5
34D
100
AcDbEntity
  8
ASSI
100
AcDbLine
 62
7
  6
CONTINUOUS
 10
2.3031505071
 20
-18.3
 11
2.5
 21
-18.2607261039
  0
LINE
  5
34E
100
AcDbEntity
  8
0
100
AcDbLine
 62
7
  6
CONTINUOUS
 10
-2.5
 20
-18.3392738961
 11
-2.3031505071
 21
-18.3
  0
LINE
  5
34F
100
AcDbEntity
  8
ASSI
100
AcDbLine
 62
7
  6
CONTINUOUS
 10
-2.5
 20
-18.3392738961
 11
-2.3031505071
 21
-18.3
  0
LINE
  5
350
100
AcDbEntity
  8
DRAFT
100
AcDbLine
 62
7
  6
CONTINUOUS
 10
8.0267949192
 20
-18.2482544935
 11
8.5358983849
 21
-18.2150898701
  0
LINE
  5
351
100
AcDbEntity
  8
DRAFT
100
AcDbLine
 62
7
  6
CONTINUOUS
 10
9.7584264418
 20
-18.2482544935
 11
8.0267949192
 21
-18.25
  0
LINE
  5
352
100
AcDbEntity
  8
DRAFT
100
AcDbLine
 62
7
  6
CONTINUOUS
 10
8.0267949192
 20
-18.25
 11
4.1664423997
 21
-18.2516733582
  0
LINE
  5
353
100
AcDbEntity
  8
0
100
AcDbLine
 62
7
  6
CONTINUOUS
 10
2.6815326753
 20
-18.5208065713
 11
-2.6815326753
 21
-18.5208065713
  0
LINE
  5
354
100
AcDbEntity
  8
ASSI
100
AcDbLine
 62
7
  6
CONTINUOUS
 10
2.6815326753
 20
-18.5208065713
 11
-2.6815326753
 21
-18.5208065713
  0
LINE
  5
355
100
AcDbEntity
  8
0
100
AcDbLine
 62
7
  6
CONTINUOUS
 10
-2.3031505071
 20
-18.3
 11
2.3031505071
 21
-18.3
  0
LINE
  5
356
100
AcDbEntity
  8
ASSI
100
AcDbLine
 62
7
  6
CONTINUOUS
 10
-2.3031505071
 20
-18.3
 11
2.3031505071
 21
-18.3
  0
LINE
  5
357
100
AcDbEntity
  8
DRAFT
100
AcDbLine
 62
7
  6
CONTINUOUS
 10
2.3787842888
 20
-18.2849101299
 11
1.9650898701
 21
-18.2849101299
  0
LINE
  5
358
100
AcDbEntity
  8
DRAFT
100
AcDbLine
 62
7
  6
CONTINUOUS
 10
-1.9650898701
 20
-18.2849101299
 11
-2.3787842888
 21
-18.2849101299
  0
LINE
  5
359
100
AcDbEntity
  8
DRAFT
100
AcDbLine
 62
7
  6
CONTINUOUS
 10
-2.5
 20
-18.25
 11
-2.0
 21
-18.25
  0
LINE
  5
35A
100
AcDbEntity
  8
DRAFT
100
AcDbLine
 62
7
  6
CONTINUOUS
 10
2.0
 20
-18.25
 11
2.5
 21
-18.25
  0
LINE
  5
35B
100
AcDbEntity
  8
DRAFT
100
AcDbLine
 62
7
  6
CONTINUOUS
 10
9.831037247
 20
-18.2150898701
 11
9.3788750126
 21
-18.2150898701
  0
LINE
  5
35C
100
AcDbEntity
  8
RACCORDO
100
AcDbLine
 62
7
  6
CONTINUOUS
 10
9.3788750126
 20
-18.2130903017
 11
4.3130788786
 21
-18.2130903017
  0
LINE
  5
35D
100
AcDbEntity
  8
ASSI
100
AcDbLine
 62
7
  6
CONTINUOUS
 10
9.3788750126
 20
-18.2130903017
 11
4.3130788786
 21
-18.2130903017
  0
LINE
  5
35E
100
AcDbEntity
  8
ASSI
100
AcDbLine
 62
7
  6
CONTINUOUS
 10
-2.5
 20
-18.2
 11
2.5
 21
-18.2
  0
LINE
  5
35F
100
AcDbEntity
  8
ASSI
100
AcDbLine
 62
7
  6
CONTINUOUS
 10
-2.5
 20
-17.5
 11
2.5
 21
-17.5
  0
LINE
  5
360
100
AcDbEntity
  8
RACCORDO
100
AcDbLine
 62
7
  6
CONTINUOUS
 10
-1.5026801928
 20
-17.3
 11
1.5026801928
 21
-17.3
  0
LINE
  5
361
100
AcDbEntity
  8
ASSI
100
AcDbLine
 62
7
  6
CONTINUOUS
 10
-1.5026801928
 20
-17.3
 11
1.5026801928
 21
-17.3
  0
LINE
  5
362
100
AcDbEntity
  8
0
100
AcDbLine
 62
7
  6
CONTINUOUS
 10
-2.5
 20
-18.2607261039
 11
-2.3031505071
 21
-18.3
  0
LINE
  5
363
100
AcDbEntity
  8
ASSI
100
AcDbLine
 62
7
  6
CONTINUOUS
 10
-2.5
 20
-18.2607261039
 11
-2.3031505071
 21
-18.3
  0
LINE
  5
364
100
AcDbEntity
  8
0
100
AcDbLine
 62
7
  6
CONTINUOUS
 10
2.3031505071
 20
-18.3
 11
2.5
 21
-18.3392738961
  0
LINE
  5
365
100
AcDbEntity
  8
ASSI
100
AcDbLine
 62
7
  6
CONTINUOUS
 10
2.3031505071
 20
-18.3
 11
2.5
 21
-18.3392738961
  0
LINE
  5
366
100
AcDbEntity
  8
0
100
AcDbLine
 62
7
  6
CONTINUOUS
 10
-10.8990052219
 20
16.729066713
 11
-10.8798829655
 21
16.7815665633
  0
LINE
  5
367
100
AcDbEntity
  8
0
100
AcDbLine
 62
7
  6
CONTINUOUS
 10
-10.8798829655
 20
16.7815665633
 11
-10.8592863239
 21
16.8335531675
  0
LINE
  5
368
100
AcDbEntity
  8
0
100
AcDbLine
 62
7
  6
CONTINUOUS
 10
-10.8592863239
 20
16.8335531675
 11
-10.8372643791
 21
16.8849030269
  0
LWPOLYLINE
  5
369
100
AcDbEntity
  8
0
100
AcDbPolyline
 62
7
  6
CONTINUOUS
 90
10
 70
0
 10
-10.8372643791
 20
16.8849030269
 10
-10.8138140331
 20
16.9356138721
 10
-10.788938384
 20
16.9856879725
 10
-10.7626958072
 20
17.0350086382
 10
-10.7350804413
 20
17.0835775126
 10
-10.7060981478
 20
17.1313929524
 10
-10.6758248866
 20
17.1783333376
 10
-10.6442859775
 20
17.224358128
 10
-10.6114561007
 20
17.2695078638
 10
-10.5773352561
 20
17.3137825449
  0
LINE
  5
36A
100
AcDbEntity
  8
IMPORT_IGES
100
AcDbLine
 62
7
  6
CONTINUOUS
 10
-2.6605865973
 20
-16.75
 11
2.0
 21
-16.75
  0
LINE
  5
36B
100
AcDbEntity
  8
0
100
AcDbLine
 62
7
  6
CONTINUOUS
 10
-2.6605865973
 20
-16.6
 11
2.6605865973
 21
-16.6
  0
LINE
  5
36C
100
AcDbEntity
  8
ASSI
100
AcDbLine
 62
7
  6
CONTINUOUS
 10
-2.6605865973
 20
-16.6
 11
2.6605865973
 21
-16.6
  0
LINE
  5
36D
100
AcDbEntity
  8
0
100
AcDbLine
 62
7
  6
CONTINUOUS
 10
-2.6815326753
 20
-16.5790539221
 11
2.6815326753
 21
-16.5790539221
  0
LINE
  5
36E
100
AcDbEntity
  8
ASSI
100
AcDbLine
 62
7
  6
CONTINUOUS
 10
-2.6815326753
 20
-16.5790539221
 11
2.6815326753
 21
-16.5790539221
  0
LINE
  5
36F
100
AcDbEntity
  8
SMUSSO
100
AcDbLine
 62
7
  6
CONTINUOUS
 10
0.25
 20
-16.25
 11
-4.75
 21
-16.25
  0
LINE
  5
370
100
AcDbEntity
  8
ASSI
100
AcDbLine
 62
7
  6
CONTINUOUS
 10
0.25
 20
-16.25
 11
-4.75
 21
-16.25
  0
LINE
  5
371
100
AcDbEntity
  8
ASSI
100
AcDbLine
 62
250
  6
CONTINUOUS
 10
11.0
 20
-16.1850292972
 11
10.9481716082
 21
-16.1850292972
  0
LINE
  5
372
100
AcDbEntity
  8
RACCORDO
100
AcDbLine
 62
7
  6
CONTINUOUS
 10
10.7130788782
 20
-16.15
 11
9.8
 21
-16.15
  0
LINE
  5
373
100
AcDbEntity
  8
ASSI
100
AcDbLine
 62
7
  6
CONTINUOUS
 10
10.7130788782
 20
-16.15
 11
9.8
 21
-16.15
  0
LINE
  5
374
100
AcDbEntity
  8
SMUSSO
100
AcDbLine
 62
7
  6
CONTINUOUS
 10
-0.25
 20
-15.75
 11
-4.25
 21
-15.75
  0
LINE
  5
375
100
AcDbEntity
  8
ASSI
100
AcDbLine
 62
7
  6
CONTINUOUS
 10
-0.25
 20
-15.75
 11
-4.25
 21
-15.75
  0
LINE
  5
376
100
AcDbEntity
  8
0
100
AcDbLine
 62
7
  6
CONTINUOUS
 10
-2.5
 20
-17.0776691233
 11
-2.6605865973
 21
-16.9973819397
  0
LINE
  5
377
100
AcDbEntity
  8
ASSI
100
AcDbLine
 62
7
  6
CONTINUOUS
 10
-2.5
 20
-17.0776691233
 11
-2.6605865973
 21
-16.9973819397
  0
LINE
  5
378
100
AcDbEntity
  8
CURVE
100
AcDbLine
 62
250
  6
CONTINUOUS
 10
-10.3
 20
-12.814285706
 11
-10.0214285493
 21
-13.0
  0
LINE
  5
379
100
AcDbEntity
  8
CURVE
100
AcDbLine
 62
250
  6
CONTINUOUS
 10
-9.0
 20
-13.0
 11
-9.9285714507
 21
-12.35
  0
LINE
  5
37A
100
AcDbEntity
  8
0
100
AcDbLine
 62
7
  6
CONTINUOUS
 10
-10.837262606
 20
-16.8849070064
 11
-10.8592839681
 21
-16.8335590307
  0
LINE
  5
37B
100
AcDbEntity
  8
0
100
AcDbLine
 62
7
  6
CONTINUOUS
 10
-10.8592839681
 20
-16.8335590307
 11
-10.8798800666
 21
-16.7815744302
  0
LINE
  5
37C
100
AcDbEntity
  8
0
100
AcDbLine
 62
7
  6
CONTINUOUS
 10
-10.8798800666
 20
-16.7815744302
 11
-10.8990021401
 21
-16.7290755575
  0
LINE
  5
37D
100
AcDbEntity
  8
0
100
AcDbLine
 62
7
  6
CONTINUOUS
 10
-3.230158461
 20
22.5048155586
 11
-3.3
 21
22.4
  0
LINE
  5
37E
100
AcDbEntity
  8
DRAFT
100
AcDbLine
 62
7
  6
CONTINUOUS
 10
-1.9812802806
 20
18.2687197194
 11
-2.0
 21
18.25
  0
LINE
  5
37F
100
AcDbEntity
  8
CURVE
100
AcDbLine
 62
250
  6
CONTINUOUS
 10
-10.076325
 20
11.49987
 11
-5.099039
 21
16.231556
  0
LINE
  5
380
100
AcDbEntity
  8
IMPORT_IGES
100
AcDbLine
 62
7
  6
CONTINUOUS
 10
-0.25
 20
-15.35
 11
-4.25
 21
-15.35
  0
LINE
  5
381
100
AcDbEntity
  8
RACCORDO
100
AcDbLine
 62
7
  6
CONTINUOUS
 10
9.8
 20
-15.0
 11
9.8580496928
 21
-15.0
  0
LINE
  5
382
100
AcDbEntity
  8
RACCORDO
100
AcDbLine
 62
250
  6
CONTINUOUS
 10
9.8
 20
-14.9920408723
 11
9.8580878283
 21
-14.9920408723
  0
LINE
  5
383
100
AcDbEntity
  8
RACCORDO
100
AcDbLine
 62
250
  6
CONTINUOUS
 10
9.8
 20
-14.1925282107
 11
9.8601308811
 21
-14.1925282107
  0
LINE
  5
384
100
AcDbEntity
  8
CURVE
100
AcDbLine
 62
250
  6
CONTINUOUS
 10
-5.75
 20
-14.0
 11
-7.65
 21
-14.0
  0
LINE
  5
385
100
AcDbEntity
  8
CURVE
100
AcDbLine
 62
250
  6
CONTINUOUS
 10
-9.9285714507
 20
-11.05
 11
-10.1142857254
 21
-10.9571429014
  0
LINE
  5
386
100
AcDbEntity
  8
CURVE
100
AcDbLine
 62
250
  6
CONTINUOUS
 10
-10.1142857254
 20
-10.9571429014
 11
-10.3
 21
-10.7714285493
  0
LINE
  5
387
100
AcDbEntity
  8
CURVE
100
AcDbLine
 62
250
  6
CONTINUOUS
 10
-9.0
 20
-11.5142856479
 11
-9.092857147
 21
-11.4214285493
  0
LINE
  5
388
100
AcDbEntity
  8
DRAFT
100
AcDbLine
 62
7
  6
CONTINUOUS
 10
-1.9650898701
 20
-18.2849101299
 11
-2.0
 21
-18.25
  0
LINE
  5
389
100
AcDbEntity
  8
CURVE
100
AcDbLine
 62
250
  6
CONTINUOUS
 10
-6.8357143342
 20
-13.05
 11
-6.5642857224
 21
-13.3214285553
  0
LINE
  5
38A
100
AcDbEntity
  8
CURVE
100
AcDbLine
 62
250
  6
CONTINUOUS
 10
-9.185714294
 20
-10.4928570986
 11
-9.0
 21
-10.6785714507
  0
LWPOLYLINE
  5
38B
100
AcDbEntity
  8
RACCORDO
100
AcDbPolyline
 62
7
  6
CONTINUOUS
 90
11
 70
0
 10
-3.2371426149
 20
-21.3629352605
 10
-3.2364960555
 20
-21.3638754312
 10
-3.2358785591
 20
-21.3661834843
 10
-3.2352901257
 20
-21.3698594198
 10
-3.2347299433
 20
-21.3750168983
 10
-3.2341988239
 20
-21.381542259
 10
-3.2336992037
 20
-21.3890945205
 10
-3.233232855
 20
-21.3975749192
 10
-3.2327980056
 20
-21.4070822186
 10
-3.2323917741
 20
-21.4175717273
 10
-3.2320105844
 20
-21.4291186386
  0
LINE
  5
38C
100
AcDbEntity
  8
0
100
AcDbLine
 62
7
  6
CONTINUOUS
 10
-3.3
 20
-22.4
 11
-3.230158461
 21
-22.5048155586
  0
LINE
  5
38D
100
AcDbEntity
  8
CURVE
100
AcDbLine
 62
250
  6
CONTINUOUS
 10
-9.7428571761
 20
-11.6071429014
 11
-9.8357142746
 21
-11.4523809671
  0
LWPOLYLINE
  5
38E
100
AcDbEntity
  8
CURVE
100
AcDbPolyline
 62
250
  6
CONTINUOUS
 90
35
 70
0
 10
-7.5783378166
 20
9.8407393914
 10
-7.6024838379
 20
9.815524993
 10
-7.6260650202
 20
9.7896835398
 10
-7.6490717667
 20
9.7632368782
 10
-7.6714944805
 20
9.7362068549
 10
-7.6933235646
 20
9.7086153163
 10
-7.7145494221
 20
9.6804841089
 10
-7.7351624561
 20
9.6518350792
 10
-7.7551530697
 20
9.6226900737
 10
-7.7745116661
 20
9.593070939
 10
-7.7932286482
 20
9.5629995214
 10
-7.8112944193
 20
9.5324976676
 10
-7.8286993823
 20
9.501587224
 10
-7.8454339404
 20
9.4702900372
 10
-7.8614884966
 20
9.4386279535
 10
-7.8768534541
 20
9.4066228196
 10
-7.891519216
 20
9.374296482
 10
-7.9054761853
 20
9.3416707871
 10
-7.9187147652
 20
9.3087675814
 10
-7.9312253586
 20
9.2756087115
 10
-7.9429983688
 20
9.2422160238
 10
-7.9540241989
 20
9.2086113648
 10
-7.9642932518
 20
9.1748165812
 10
-7.9737959307
 20
9.1408535193
 10
-7.9825226387
 20
9.1067440256
 10
-7.9904637789
 20
9.0725099467
 10
-7.9976097543
 20
9.0381731291
 10
-8.0039509681
 20
9.0037554192
 10
-8.0094778234
 20
8.9692786637
 10
-8.0141807232
 20
8.9347647089
 10
-8.0180500707
 20
8.9002354013
 10
-8.0210762689
 20
8.8657125876
 10
-8.0232497209
 20
8.8312181141
 10
-8.0245608299
 20
8.7967738274
 10
-8.0249999989
 20
8.762401574
  0
LINE
  5
38F
100
AcDbEntity
  8
0
100
AcDbLine
 62
7
  6
CONTINUOUS
 10
-2.5
 20
16.6
 11
-2.6312329953
 21
16.4687670047
  0
LINE
  5
390
100
AcDbEntity
  8
ASSI
100
AcDbLine
 62
7
  6
CONTINUOUS
 10
-2.5
 20
16.6
 11
-2.6312329953
 21
16.4687670047
  0
LINE
  5
391
100
AcDbEntity
  8
0
100
AcDbLine
 62
250
  6
CONTINUOUS
 10
10.7193014234
 20
17.3594295692
 11
10.5994935323
 21
17.3209148961
  0
LINE
  5
392
100
AcDbEntity
  8
CURVE
100
AcDbLine
 62
250
  6
CONTINUOUS
 10
-7.3785714447
 20
-13.05
 11
-6.8357143342
 21
-13.05
  0
LINE
  5
393
100
AcDbEntity
  8
IMPORT_IGES
100
AcDbLine
 62
7
  6
CONTINUOUS
 10
-4.25
 20
-12.75
 11
-0.25
 21
-12.75
  0
LINE
  5
394
100
AcDbEntity
  8
CURVE
100
AcDbLine
 62
250
  6
CONTINUOUS
 10
3.302794
 20
-12.57459
 11
4.07332
 21
-12.57459
  0
LINE
  5
395
100
AcDbEntity
  8
CURVE
100
AcDbLine
 62
250
  6
CONTINUOUS
 10
7.606704
 20
-12.57459
 11
8.37723
 21
-12.57459
  0
LINE
  5
396
100
AcDbEntity
  8
CURVE
100
AcDbLine
 62
250
  6
CONTINUOUS
 10
-9.9285714507
 20
-12.35
 11
-10.1142857254
 21
-12.35
  0
LINE
  5
397
100
AcDbEntity
  8
SMUSSO
100
AcDbLine
 62
7
  6
CONTINUOUS
 10
-4.25
 20
-12.25
 11
-0.25
 21
-12.25
  0
LINE
  5
398
100
AcDbEntity
  8
ASSI
100
AcDbLine
 62
7
  6
CONTINUOUS
 10
-4.25
 20
-12.25
 11
-0.25
 21
-12.25
  0
LINE
  5
399
100
AcDbEntity
  8
0
100
AcDbLine
 62
250
  6
CONTINUOUS
 10
10.7193014234
 20
-17.3594295692
 11
10.5773352489
 21
-17.3137825538
  0
LINE
  5
39A
100
AcDbEntity
  8
CURVE
100
AcDbLine
 62
250
  6
CONTINUOUS
 10
-9.371428588
 20
-10.4
 11
-9.185714294
 21
-10.4928570986
  0
LINE
  5
39B
100
AcDbEntity
  8
0
100
AcDbLine
 62
7
  6
CONTINUOUS
 10
-2.6605865973
 20
-16.6
 11
-2.6815326753
 21
-16.5790539221
  0
LINE
  5
39C
100
AcDbEntity
  8
ASSI
100
AcDbLine
 62
7
  6
CONTINUOUS
 10
-2.6605865973
 20
-16.6
 11
-2.6815326753
 21
-16.5790539221
  0
LINE
  5
39D
100
AcDbEntity
  8
CURVE
100
AcDbLine
 62
250
  6
CONTINUOUS
 10
-9.4023809671
 20
-8.9142858028
 11
-9.4952381045
 21
-8.6976190329
  0
LINE
  5
39E
100
AcDbEntity
  8
RACCORDO
100
AcDbLine
 62
7
  6
CONTINUOUS
 10
-11.1777453242
 20
-0.6666963383
 11
-11.177796324
 21
-0.6661475599
  0
LWPOLYLINE
  5
39F
100
AcDbEntity
  8
ASSI
100
AcDbPolyline
 62
7
  6
CONTINUOUS
 90
13
 70
0
 10
-11.15
 20
-16.119659166
 10
-11.1468077508
 20
-16.2316570494
 10
-11.1375097336
 20
-16.3426042235
 10
-11.1221059485
 20
-16.4525006882
 10
-11.10051091
 20
-16.5616735612
 10
-11.0728101035
 20
-16.6697957248
 10
-11.0392599851
 20
-16.7758858265
 10
-10.9998103071
 20
-16.87992641
 10
-10.9545113172
 20
-16.9819349315
 10
-10.903770214
 20
-17.0809824067
 10
-10.8477227304
 20
-17.1767591739
 10
-10.7862331336
 20
-17.2695748947
 10
-10.7193014234
 20
-17.3594295692
  0
LINE
  5
3A0
100
AcDbEntity
  8
RACCORDO
100
AcDbLine
 62
7
  6
CONTINUOUS
 10
-11.1778367071
 20
-0.6661475531
 11
-11.1778367071
 21
0.6661475531
  0
LINE
  5
3A1
100
AcDbEntity
  8
RACCORDO
100
AcDbLine
 62
250
  6
CONTINUOUS
 10
-11.1777453242
 20
-0.6666963383
 11
-11.1778367071
 21
-0.6661475531
  0
LINE
  5
3A2
100
AcDbEntity
  8
RACCORDO
100
AcDbLine
 62
250
  6
CONTINUOUS
 10
-11.1778367071
 20
0.6661475531
 11
-11.1777453242
 21
0.6666963383
  0
LINE
  5
3A3
100
AcDbEntity
  8
DRAFT
100
AcDbLine
 62
7
  6
CONTINUOUS
 10
-11.15
 20
-21.8997711479
 11
-11.15
 21
-0.75
  0
LINE
  5
3A4
100
AcDbEntity
  8
DRAFT
100
AcDbLine
 62
7
  6
CONTINUOUS
 10
-11.15
 20
0.75
 11
-11.15
 21
21.8997711479
  0
LINE
  5
3A5
100
AcDbEntity
  8
RACCORDO
100
AcDbLine
 62
7
  6
CONTINUOUS
 10
-11.0130903017
 20
16.3151104233
 11
-11.0130903017
 21
-16.3151104233
  0
LINE
  5
3A6
100
AcDbEntity
  8
ASSI
100
AcDbLine
 62
7
  6
CONTINUOUS
 10
-11.0130903017
 20
16.3151104233
 11
-11.0130903017
 21
-16.3151104233
  0
LINE
  5
3A7
100
AcDbEntity
  8
CURVE
100
AcDbLine
 62
250
  6
CONTINUOUS
 10
-10.3
 20
-11.6071429014
 11
-10.3
 21
-11.9785714507
  0
LINE
  5
3A8
100
AcDbEntity
  8
CURVE
100
AcDbLine
 62
250
  6
CONTINUOUS
 10
-10.3
 20
-12.5357142746
 11
-10.3
 21
-12.814285706
  0
LINE
  5
3A9
100
AcDbEntity
  8
CURVE
100
AcDbLine
 62
250
  6
CONTINUOUS
 10
-10.3
 20
-10.7714285493
 11
-10.3
 21
-10.6785714507
  0
LINE
  5
3AA
100
AcDbEntity
  8
CURVE
100
AcDbLine
 62
250
  6
CONTINUOUS
 10
-10.3
 20
-5.8809522629
 11
-10.3
 21
-5.3238096714
  0
LINE
  5
3AB
100
AcDbEntity
  8
CURVE
100
AcDbLine
 62
250
  6
CONTINUOUS
 10
-10.3
 20
-4.6738096714
 11
-10.3
 21
-4.5809522629
  0
LINE
  5
3AC
100
AcDbEntity
  8
CURVE
100
AcDbLine
 62
250
  6
CONTINUOUS
 10
-10.21875
 20
-0.053125
 11
-10.21875
 21
-0.134375
  0
LWPOLYLINE
  5
3AD
100
AcDbEntity
  8
ASSI
100
AcDbPolyline
 62
7
  6
CONTINUOUS
 90
13
 70
0
 10
-11.15
 20
16.119659166
 10
-11.1468077508
 20
16.2316570494
 10
-11.1375097336
 20
16.3426042235
 10
-11.1221059485
 20
16.4525006882
 10
-11.10051091
 20
16.5616735612
 10
-11.0728101035
 20
16.6697957248
 10
-11.0392599851
 20
16.7758858265
 10
-10.9998103071
 20
16.87992641
 10
-10.9545113172
 20
16.9819349315
 10
-10.903770214
 20
17.0809824067
 10
-10.8477227304
 20
17.1767591739
 10
-10.7862331336
 20
17.2695748947
 10
-10.7193014234
 20
17.3594295692
  0
LINE
  5
3AE
100
AcDbEntity
  8
RACCORDO
100
AcDbLine
 62
7
  6
CONTINUOUS
 10
-11.177796324
 20
0.6661475599
 11
-11.1777453242
 21
0.6666963383
  0
LINE
  5
3AF
100
AcDbEntity
  8
RACCORDO
100
AcDbLine
 62
7
  6
CONTINUOUS
 10
-11.15
 20
0.75
 11
-11.1777453242
 21
0.6666963383
  0
LINE
  5
3B0
100
AcDbEntity
  8
0
100
AcDbLine
 62
250
  6
CONTINUOUS
 10
11.15
 20
16.119659166
 11
11.0130903017
 21
16.0720258912
  0
LINE
  5
3B1
100
AcDbEntity
  8
CURVE
100
AcDbLine
 62
250
  6
CONTINUOUS
 10
3.6187839808
 20
12.0390564451
 11
4.5473554315
 21
12.3176274309
  0
LINE
  5
3B2
100
AcDbEntity
  8
RACCORDO
100
AcDbLine
 62
7
  6
CONTINUOUS
 10
10.7130788782
 20
-11.85
 11
9.8
 21
-11.85
  0
LINE
  5
3B3
100
AcDbEntity
  8
ASSI
100
AcDbLine
 62
7
  6
CONTINUOUS
 10
10.7130788782
 20
-11.85
 11
9.8
 21
-11.85
  0
LINE
  5
3B4
100
AcDbEntity
  8
SMUSSO
100
AcDbLine
 62
7
  6
CONTINUOUS
 10
-4.75
 20
-11.75
 11
0.25
 21
-11.75
  0
LINE
  5
3B5
100
AcDbEntity
  8
ASSI
100
AcDbLine
 62
7
  6
CONTINUOUS
 10
-4.75
 20
-11.75
 11
0.25
 21
-11.75
  0
LINE
  5
3B6
100
AcDbEntity
  8
CURVE
100
AcDbLine
 62
250
  6
CONTINUOUS
 10
-9.8357142746
 20
-11.4523809671
 11
-10.1142857254
 21
-11.4523809671
  0
LINE
  5
3B7
100
AcDbEntity
  8
CURVE
100
AcDbLine
 62
250
  6
CONTINUOUS
 10
-9.092857147
 20
-11.4214285493
 11
-9.5571428627
 21
-11.4214285493
  0
LINE
  5
3B8
100
AcDbEntity
  8
SMUSSO
100
AcDbLine
 62
7
  6
CONTINUOUS
 10
0.25
 20
-11.25
 11
-4.75
 21
-11.25
  0
LINE
  5
3B9
100
AcDbEntity
  8
ASSI
100
AcDbLine
 62
7
  6
CONTINUOUS
 10
0.25
 20
-11.25
 11
-4.75
 21
-11.25
  0
LINE
  5
3BA
100
AcDbEntity
  8
RACCORDO
100
AcDbLine
 62
7
  6
CONTINUOUS
 10
10.7130788782
 20
-11.15
 11
9.8
 21
-11.15
  0
LINE
  5
3BB
100
AcDbEntity
  8
ASSI
100
AcDbLine
 62
7
  6
CONTINUOUS
 10
10.7130788782
 20
-11.15
 11
9.8
 21
-11.15
  0
LINE
  5
3BC
100
AcDbEntity
  8
CURVE
100
AcDbLine
 62
250
  6
CONTINUOUS
 10
-9.371428588
 20
-11.05
 11
-9.9285714507
 21
-11.05
  0
LINE
  5
3BD
100
AcDbEntity
  8
SMUSSO
100
AcDbLine
 62
7
  6
CONTINUOUS
 10
-0.25
 20
-10.75
 11
-4.25
 21
-10.75
  0
LINE
  5
3BE
100
AcDbEntity
  8
ASSI
100
AcDbLine
 62
7
  6
CONTINUOUS
 10
-0.25
 20
-10.75
 11
-4.25
 21
-10.75
  0
LINE
  5
3BF
100
AcDbEntity
  8
CURVE
100
AcDbLine
 62
250
  6
CONTINUOUS
 10
-9.9285714507
 20
-10.4
 11
-9.371428588
 21
-10.4
  0
LINE
  5
3C0
100
AcDbEntity
  8
IMPORT_IGES
100
AcDbLine
 62
7
  6
CONTINUOUS
 10
-0.25
 20
-10.35
 11
-4.25
 21
-10.35
  0
LINE
  5
3C1
100
AcDbEntity
  8
CURVE
100
AcDbLine
 62
250
  6
CONTINUOUS
 10
-9.0
 20
-9.6571429014
 11
-10.3
 21
-9.2857141972
  0
LINE
  5
3C2
100
AcDbEntity
  8
0
100
AcDbLine
 62
250
  6
CONTINUOUS
 10
11.15
 20
-16.119659166
 11
11.0103594806
 21
-16.0710745702
  0
LINE
  5
3C3
100
AcDbEntity
  8
SMUSSO
100
AcDbLine
 62
7
  6
CONTINUOUS
 10
-4.75
 20
-11.75
 11
-4.25
 21
-12.25
  0
LINE
  5
3C4
100
AcDbEntity
  8
ASSI
100
AcDbLine
 62
7
  6
CONTINUOUS
 10
-4.75
 20
-11.75
 11
-4.25
 21
-12.25
  0
LINE
  5
3C5
100
AcDbEntity
  8
SMUSSO
100
AcDbLine
 62
7
  6
CONTINUOUS
 10
0.25
 20
-16.25
 11
-0.25
 21
-15.75
  0
LINE
  5
3C6
100
AcDbEntity
  8
ASSI
100
AcDbLine
 62
7
  6
CONTINUOUS
 10
0.25
 20
-16.25
 11
-0.25
 21
-15.75
  0
LINE
  5
3C7
100
AcDbEntity
  8
0
100
AcDbLine
 62
7
  6
CONTINUOUS
 10
2.5
 20
-18.3392738961
 11
2.6815326753
 21
-18.5208065713
  0
LINE
  5
3C8
100
AcDbEntity
  8
ASSI
100
AcDbLine
 62
7
  6
CONTINUOUS
 10
2.5
 20
-18.3392738961
 11
2.6815326753
 21
-18.5208065713
  0
LINE
  5
3C9
100
AcDbEntity
  8
CURVE
100
AcDbLine
 62
250
  6
CONTINUOUS
 10
-10.1142857254
 20
-4.8595238686
 11
-10.3
 21
-4.6738096714
  0
LINE
  5
3CA
100
AcDbEntity
  8
CURVE
100
AcDbLine
 62
250
  6
CONTINUOUS
 10
-9.0
 20
-5.5095238686
 11
-9.185714294
 21
-5.3238096714
  0
LINE
  5
3CB
100
AcDbEntity
  8
CURVE
100
AcDbLine
 62
250
  6
CONTINUOUS
 10
-9.3095238104
 20
-8.45
 11
-9.4023809671
 21
-8.2023809671
  0
LINE
  5
3CC
100
AcDbEntity
  8
RACCORDO
100
AcDbLine
 62
7
  6
CONTINUOUS
 10
-11.15
 20
-0.75
 11
-11.1777453242
 21
-0.6666963383
  0
LWPOLYLINE
  5
3CD
100
AcDbEntity
  8
CURVE
100
AcDbPolyline
 62
250
  6
CONTINUOUS
 90
57
 70
0
 10
-9.6271163321
 20
13.8430726704
 10
-9.6254410184
 20
13.8056019211
 10
-9.6231067644
 20
13.7680536133
 10
-9.6201265515
 20
13.7304820334
 10
-9.6165133616
 20
13.6929414676
 10
-9.6122801764
 20
13.655486202
 10
-9.6074399776
 20
13.6181705228
 10
-9.6020057468
 20
13.5810487164
 10
-9.5959904659
 20
13.5441750688
 10
-9.5894071164
 20
13.5076038664
 10
-9.5822686802
 20
13.4713893953
 10
-9.577390825
 20
13.4483427971
 10
-9.5722459936
 20
13.4254360402
 10
-9.5667907004
 20
13.4026395177
 10
-9.5609814601
 20
13.3799236227
 10
-9.5547747871
 20
13.3572587486
 10
-9.5481271961
 20
13.3346152884
 10
-9.5409952015
 20
13.3119636353
 10
-9.5333353178
 20
13.2892741825
 10
-9.5251040598
 20
13.2665173232
 10
-9.5162579418
 20
13.2436634507
 10
-9.5067534784
 20
13.220682958
 10
-9.4965471841
 20
13.1975462383
 10
-9.4855955736
 20
13.1742236849
 10
-9.4798068852
 20
13.1624465914
 10
-9.4738199318
 20
13.1506401302
 10
-9.4676350469
 20
13.1388291758
 10
-9.4612525641
 20
13.1270386026
 10
-9.454672817
 20
13.1152932849
 10
-9.4478961391
 20
13.1036180971
 10
-9.4409228639
 20
13.0920379136
 10
-9.4337533251
 20
13.0805776088
 10
-9.4263878562
 20
13.0692620572
 10
-9.4188267908
 20
13.058116133
 10
-9.4110704624
 20
13.0471647107
 10
-9.4031192046
 20
13.0364326646
 10
-9.394973351
 20
13.0259448692
 10
-9.3866332351
 20
13.0157261988
 10
-9.3780991905
 20
13.0058015279
 10
-9.3693715507
 20
12.9961957308
 10
-9.3604506494
 20
12.9869336819
 10
-9.3513368201
 20
12.9780402556
 10
-9.3420303964
 20
12.9695403262
 10
-9.3325317117
 20
12.9614587683
 10
-9.3228410998
 20
12.9538204561
 10
-9.3129588941
 20
12.946650264
 10
-9.3028854282
 20
12.9399730665
 10
-9.2926210357
 20
12.933813738
 10
-9.2821660502
 20
12.9281971527
 10
-9.2715208051
 20
12.9231481852
 10
-9.2606856341
 20
12.9186917098
 10
-9.2496608708
 20
12.9148526008
 10
-9.2384468487
 20
12.9116557327
 10
-9.2270439013
 20
12.9091259799
 10
-9.2154523623
 20
12.9072882168
 10
-9.2036725652
 20
12.9061673176
 10
-9.1917048435
 20
12.905788157
  0
LWPOLYLINE
  5
3CE
100
AcDbEntity
  8
CURVE
100
AcDbPolyline
 62
250
  6
CONTINUOUS
 90
62
 70
0
 10
-9.5499999985
 20
8.762401574
 10
-9.5479659911
 20
8.6521955932
 10
-9.5418829509
 20
8.5419269418
 10
-9.5317793506
 20
8.4317684386
 10
-9.5176836631
 20
8.3218929021
 10
-9.4996243612
 20
8.212473151
 10
-9.4776299176
 20
8.1036820038
 10
-9.4517288051
 20
7.9956922794
 10
-9.4219494966
 20
7.8886767962
 10
-9.3883204648
 20
7.7828083729
 10
-9.3508701826
 20
7.6782598282
 10
-9.3096271227
 20
7.5752039806
 10
-9.2662679879
 20
7.4773256907
 10
-9.2194799367
 20
7.3810977593
 10
-9.169339271
 20
7.2866196615
 10
-9.1159222925
 20
7.1939908729
 10
-9.0593053033
 20
7.1033108688
 10
-8.999564605
 20
7.0146791246
 10
-8.9367764997
 20
6.9281951156
 10
-8.8710172891
 20
6.8439583172
 10
-8.8023632751
 20
6.7620682047
 10
-8.7308907596
 20
6.6826242537
 10
-8.6566760444
 20
6.6057259393
 10
-8.5797744886
 20
6.5314456605
 10
-8.5003105515
 20
6.4598934452
 10
-8.4183895063
 20
6.3911505014
 10
-8.3341166264
 20
6.3252980374
 10
-8.247597185
 20
6.2624172614
 10
-8.1589364554
 20
6.2025893816
 10
-8.068239711
 20
6.1458956061
 10
-7.975612225
 20
6.0924171431
 10
-7.8811592707
 20
6.0422352009
 10
-7.7849861214
 20
5.9954309877
 10
-7.6871980504
 20
5.9520857115
 10
-7.5843206309
 20
5.9109089183
 10
-7.4799758763
 20
5.8735503337
 10
-7.3743162533
 20
5.84002971
 10
-7.2674942283
 20
5.8103667993
 10
-7.1596622681
 20
5.7845813538
 10
-7.0509728393
 20
5.7626931258
 10
-6.9415784086
 20
5.7447218675
 10
-6.8316314426
 20
5.730687331
 10
-6.721284408
 20
5.7206092686
 10
-6.6106897713
 20
5.7145074324
 10
-6.4999999992
 20
5.7124015748
 10
-6.3924467531
 20
5.7141985192
 10
-6.2850699299
 20
5.7197780051
 10
-6.1779917734
 20
5.7291276299
 10
-6.0713345273
 20
5.7422349908
 10
-5.9652204355
 20
5.7590876852
 10
-5.8597717416
 20
5.7796733102
 10
-5.7551106894
 20
5.8039794632
 10
-5.6513595228
 20
5.8319937415
 10
-5.5486404854
 20
5.8637037424
 10
-5.4384019407
 20
5.9022984145
 10
-5.3297036896
 20
5.9451349018
 10
-5.2227245402
 20
5.9921108552
 10
-5.1176433008
 20
6.043123926
 10
-5.0146387797
 20
6.098071765
 10
-4.9138897849
 20
6.1568520234
 10
-4.8155751249
 20
6.2193623521
 10
-4.7198736077
 20
6.2855004023
  0
LINE
  5
3CF
100
AcDbEntity
  8
CURVE
100
AcDbLine
 62
250
  6
CONTINUOUS
 10
-9.9285714507
 20
-2.9095238686
 11
-9.9285714507
 21
-2.3523806572
  0
LINE
  5
3D0
100
AcDbEntity
  8
CURVE
100
AcDbLine
 62
250
  6
CONTINUOUS
 10
-9.7428571761
 20
-5.5095238686
 11
-9.7428571761
 21
-5.8809522629
  0
LINE
  5
3D1
100
AcDbEntity
  8
CURVE
100
AcDbLine
 62
250
  6
CONTINUOUS
 10
-9.7428571761
 20
-11.6071429014
 11
-9.7428571761
 21
-11.7928571761
  0
LINE
  5
3D2
100
AcDbEntity
  8
CURVE
100
AcDbLine
 62
250
  6
CONTINUOUS
 10
-9.7428571761
 20
-3.9309522629
 11
-9.7428571761
 21
-3.2809522629
  0
LINE
  5
3D3
100
AcDbEntity
  8
CURVE
100
AcDbLine
 62
250
  6
CONTINUOUS
 10
-9.73125
 20
-0.09375
 11
-9.73125
 21
-0.053125
  0
LINE
  5
3D4
100
AcDbEntity
  8
RACCORDO
100
AcDbLine
 62
7
  6
CONTINUOUS
 10
-9.65
 20
20.4000761524
 11
-9.65
 21
18.6319979818
  0
LINE
  5
3D5
100
AcDbEntity
  8
RACCORDO
100
AcDbLine
 62
7
  6
CONTINUOUS
 10
-9.65
 20
-18.6319979818
 11
-9.65
 21
-20.4000761524
  0
LINE
  5
3D6
100
AcDbEntity
  8
RACCORDO
100
AcDbLine
 62
7
  6
CONTINUOUS
 10
-9.6412724675
 20
20.39134862
 11
-9.6412724675
 21
18.642060866
  0
LINE
  5
3D7
100
AcDbEntity
  8
RACCORDO
100
AcDbLine
 62
7
  6
CONTINUOUS
 10
-9.6412724675
 20
-20.39134862
 11
-9.6412724675
 21
-18.642060866
  0
LINE
  5
3D8
100
AcDbEntity
  8
CURVE
100
AcDbLine
 62
250
  6
CONTINUOUS
 10
-9.586323
 20
13.218216
 11
-9.586323
 21
13.31759
  0
LINE
  5
3D9
100
AcDbEntity
  8
CURVE
100
AcDbLine
 62
250
  6
CONTINUOUS
 10
-9.191705
 20
12.690027
 11
-9.191705
 21
15.127934
  0
LINE
  5
3DA
100
AcDbEntity
  8
CURVE
100
AcDbLine
 62
250
  6
CONTINUOUS
 10
-9.0
 20
-4.5809522629
 11
-9.0
 21
-4.6738096714
  0
LINE
  5
3DB
100
AcDbEntity
  8
CURVE
100
AcDbLine
 62
250
  6
CONTINUOUS
 10
-9.0
 20
-10.6785714507
 11
-9.0
 21
-10.7714285493
  0
LINE
  5
3DC
100
AcDbEntity
  8
CURVE
100
AcDbLine
 62
250
  6
CONTINUOUS
 10
-9.0
 20
-12.35
 11
-9.0
 21
-13.0
  0
LINE
  5
3DD
100
AcDbEntity
  8
CURVE
100
AcDbLine
 62
250
  6
CONTINUOUS
 10
-9.0
 20
-11.9785714507
 11
-9.0
 21
-11.5142856479
  0
LINE
  5
3DE
100
AcDbEntity
  8
CURVE
100
AcDbLine
 62
250
  6
CONTINUOUS
 10
-9.0
 20
-5.8809522629
 11
-9.0
 21
-5.5095238686
  0
LINE
  5
3DF
100
AcDbEntity
  8
CURVE
100
AcDbLine
 62
250
  6
CONTINUOUS
 10
-9.0
 20
-2.9095238686
 11
-9.0
 21
-2.3523806572
  0
LINE
  5
3E0
100
AcDbEntity
  8
CURVE
100
AcDbLine
 62
250
  6
CONTINUOUS
 10
-9.0
 20
-0.175
 11
-9.0
 21
-0.053125
  0
LINE
  5
3E1
100
AcDbEntity
  8
CURVE
100
AcDbLine
 62
250
  6
CONTINUOUS
 10
-8.828795
 20
15.067887
 11
-8.828795
 21
15.417947
  0
LINE
  5
3E2
100
AcDbEntity
  8
RACCORDO
100
AcDbLine
 62
7
  6
CONTINUOUS
 10
-8.4674550649
 20
-20.85
 11
-8.4674550649
 21
-19.8794603859
  0
LINE
  5
3E3
100
AcDbEntity
  8
RACCORDO
100
AcDbLine
 62
7
  6
CONTINUOUS
 10
-8.4674550649
 20
19.8794603859
 11
-8.4674550649
 21
20.85
  0
LINE
  5
3E4
100
AcDbEntity
  8
CURVE
100
AcDbLine
 62
250
  6
CONTINUOUS
 10
-8.456331
 20
15.417947
 11
-8.456331
 21
15.067887
  0
LINE
  5
3E5
100
AcDbEntity
  8
RACCORDO
100
AcDbLine
 62
7
  6
CONTINUOUS
 10
-8.45
 20
20.3
 11
-8.45
 21
19.8972655375
  0
LINE
  5
3E6
100
AcDbEntity
  8
RACCORDO
100
AcDbLine
 62
7
  6
CONTINUOUS
 10
-8.45
 20
-20.3
 11
-8.45
 21
-19.8972655375
  0
LINE
  5
3E7
100
AcDbEntity
  8
CURVE
100
AcDbLine
 62
250
  6
CONTINUOUS
 10
-9.679297
 20
13.843073
 11
-9.678739
 21
14.416076
  0
LINE
  5
3E8
100
AcDbEntity
  8
CURVE
100
AcDbLine
 62
250
  6
CONTINUOUS
 10
-9.461245
 20
14.416076
 11
-9.461803
 21
13.843073
  0
LINE
  5
3E9
100
AcDbEntity
  8
CURVE
100
AcDbLine
 62
250
  6
CONTINUOUS
 10
-10.178125
 20
0.109375
 11
-10.21875
 21
-0.053125
  0
LINE
  5
3EA
100
AcDbEntity
  8
CURVE
100
AcDbLine
 62
250
  6
CONTINUOUS
 10
-10.1375
 20
0.23125
 11
-10.178125
 21
0.109375
  0
LINE
  5
3EB
100
AcDbEntity
  8
CURVE
100
AcDbLine
 62
250
  6
CONTINUOUS
 10
-9.771875
 20
-0.215625
 11
-9.73125
 21
-0.09375
  0
LINE
  5
3EC
100
AcDbEntity
  8
CURVE
100
AcDbLine
 62
250
  6
CONTINUOUS
 10
-9.040625
 20
-0.296875
 11
-9.0
 21
-0.175
  0
LINE
  5
3ED
100
AcDbEntity
  8
CURVE
100
AcDbLine
 62
250
  6
CONTINUOUS
 10
-10.096875
 20
0.3125
 11
-10.1375
 21
0.23125
  0
LINE
  5
3EE
100
AcDbEntity
  8
CURVE
100
AcDbLine
 62
250
  6
CONTINUOUS
 10
-9.8125
 20
-0.296875
 11
-9.771875
 21
-0.215625
  0
LWPOLYLINE
  5
3EF
100
AcDbEntity
  8
CURVE
100
AcDbPolyline
 62
250
  6
CONTINUOUS
 90
78
 70
0
 10
-5.4245268551
 20
7.6810453012
 10
-5.3793875746
 20
7.728169022
 10
-5.3362141332
 20
7.7772788468
 10
-5.2950926127
 20
7.8282632878
 10
-5.2561090947
 20
7.8810108571
 10
-5.2193496611
 20
7.9354100668
 10
-5.1849003936
 20
7.9913494289
 10
-5.1528473738
 20
8.0487174557
 10
-5.1232766836
 20
8.1074026592
 10
-5.0962744046
 20
8.1672935516
 10
-5.0734945782
 20
8.2240802751
 10
-5.0530361895
 20
8.2817228869
 10
-5.0349163982
 20
8.3401274355
 10
-5.019152364
 20
8.3991999693
 10
-5.0057612465
 20
8.4588465367
 10
-4.9947602056
 20
8.5189731863
 10
-4.9861664007
 20
8.5794859663
 10
-4.9799969916
 20
8.6402909253
 10
-4.976269138
 20
8.7012941118
 10
-4.9749999996
 20
8.762401574
 10
-4.9761939009
 20
8.8233410379
 10
-4.9798319527
 20
8.8841922344
 10
-4.9858967907
 20
8.9448566318
 10
-4.9943710505
 20
9.0052356982
 10
-5.005237368
 20
9.065230902
 10
-5.0184783787
 20
9.1247437114
 10
-5.0340767183
 20
9.1836755945
 10
-5.0520150226
 20
9.2419280196
 10
-5.0722759273
 20
9.2994024549
 10
-5.094842068
 20
9.3560003687
 10
-5.1215824395
 20
9.4156287407
 10
-5.1508835026
 20
9.4740391402
 10
-5.1826734939
 20
9.5311355041
 10
-5.2168806499
 20
9.5868217689
 10
-5.2534332072
 20
9.6410018714
 10
-5.2922594025
 20
9.6935797483
 10
-5.3332874723
 20
9.7444593361
 10
-5.3764456533
 20
9.7935445716
 10
-5.4216621819
 20
9.8407393914
 10
-5.4688611872
 20
9.8859518281
 10
-5.517950368
 20
9.9291062977
 10
-5.5688333154
 20
9.9701313122
 10
-5.6214136206
 20
10.0089553833
 10
-5.6755948748
 20
10.0455070229
 10
-5.7312806691
 20
10.0797147431
 10
-5.7883745947
 20
10.1115070556
 10
-5.8467802428
 20
10.1408124724
 10
-5.9064012045
 20
10.1675595053
 10
-5.9629897711
 20
10.1901339539
 10
-6.0204535267
 20
10.2104042955
 10
-6.0786952184
 20
10.2283520503
 10
-6.1376175928
 20
10.243958738
 10
-6.1971233968
 20
10.2572058786
 10
-6.2571153772
 20
10.2680749921
 10
-6.3174962809
 20
10.2765475984
 10
-6.3781688546
 20
10.2826052175
 10
-6.4390358451
 20
10.2862293693
 10
-6.4999999992
 20
10.2874015737
 10
-6.5609640728
 20
10.2861107092
 10
-6.6218308574
 20
10.282375089
 10
-6.6825031536
 20
10.2762203844
 10
-6.7428837617
 20
10.2676722672
 10
-6.8028754825
 20
10.2567564088
 10
-6.8623811164
 20
10.2434984809
 10
-6.921303464
 20
10.227924155
 10
-6.9795453257
 20
10.2100591027
 10
-7.0370095022
 20
10.1899289956
 10
-7.0935987939
 20
10.1675595053
 10
-7.1473117637
 20
10.1438627523
 10
-7.2000483204
 20
10.1181209498
 10
-7.2517380298
 20
10.0903522197
 10
-7.3023104581
 20
10.0605746843
 10
-7.3516951711
 20
10.0288064653
 10
-7.3998217348
 20
9.9950656851
 10
-7.4466197153
 20
9.9593704655
 10
-7.4920186784
 20
9.9217389287
 10
-7.5359481902
 20
9.8821891966
 10
-7.5783378166
 20
9.8407393914
  0
LINE
  5
3F0
100
AcDbEntity
  8
CURVE
100
AcDbLine
 62
250
  6
CONTINUOUS
 10
7.6187839808
 20
11.9461990366
 11
8.5473554315
 21
12.2247706423
  0
LINE
  5
3F1
100
AcDbEntity
  8
CURVE
100
AcDbLine
 62
250
  6
CONTINUOUS
 10
-5.75
 20
-9.0
 11
-7.65
 21
-9.0
  0
LINE
  5
3F2
100
AcDbEntity
  8
CURVE
100
AcDbLine
 62
250
  6
CONTINUOUS
 10
5.457512
 20
-8.74959
 11
6.222512
 21
-8.74959
  0
LINE
  5
3F3
100
AcDbEntity
  8
CURVE
100
AcDbLine
 62
250
  6
CONTINUOUS
 10
-9.9285714507
 20
-4.9523806572
 11
-10.1142857254
 21
-4.8595238686
  0
LINE
  5
3F4
100
AcDbEntity
  8
CURVE
100
AcDbLine
 62
250
  6
CONTINUOUS
 10
-9.185714294
 20
-4.3952380657
 11
-9.0
 21
-4.5809522629
  0
LWPOLYLINE
  5
3F5
100
AcDbEntity
  8
RACCORDO
100
AcDbPolyline
 62
7
  6
CONTINUOUS
 90
11
 70
0
 10
3.2371426149
 20
-21.9370647395
 10
3.2364960555
 20
-21.9361245688
 10
3.2358785591
 20
-21.9338165157
 10
3.2352901257
 20
-21.9301405802
 10
3.2347299433
 20
-21.9249831017
 10
3.2341988239
 20
-21.918457741
 10
3.2336992037
 20
-21.9109054795
 10
3.233232855
 20
-21.9024250808
 10
3.2327980056
 20
-21.8929177814
 10
3.2323917741
 20
-21.8824282727
 10
3.2320105844
 20
-21.8708813614
  0
LINE
  5
3F6
100
AcDbEntity
  8
CURVE
100
AcDbLine
 62
250
  6
CONTINUOUS
 10
-8.0048264889
 20
-3.43
 11
-7.7448264889
 21
-3.88033321
  0
LINE
  5
3F7
100
AcDbEntity
  8
CURVE
100
AcDbLine
 62
250
  6
CONTINUOUS
 10
-9.690625
 20
-0.215625
 11
-9.609375
 21
-0.378125
  0
LINE
  5
3F8
100
AcDbEntity
  8
CURVE
100
AcDbLine
 62
250
  6
CONTINUOUS
 10
-10.21875
 20
-0.134375
 11
-10.178125
 21
-0.25625
  0
LINE
  5
3F9
100
AcDbEntity
  8
CURVE
100
AcDbLine
 62
250
  6
CONTINUOUS
 10
-9.73125
 20
-0.053125
 11
-9.690625
 21
-0.215625
  0
LINE
  5
3FA
100
AcDbEntity
  8
CURVE
100
AcDbLine
 62
250
  6
CONTINUOUS
 10
-9.0
 20
-0.053125
 11
-9.040625
 21
0.109375
  0
LINE
  5
3FB
100
AcDbEntity
  8
DRAFT
100
AcDbLine
 62
7
  6
CONTINUOUS
 10
-8.4579943206
 20
20.3079943206
 11
-8.4674550649
 21
20.85
  0
LWPOLYLINE
  5
3FC
100
AcDbEntity
  8
CURVE
100
AcDbPolyline
 62
250
  6
CONTINUOUS
 90
42
 70
0
 10
-8.0249999989
 20
8.762401574
 10
-8.0244053182
 20
8.7207091448
 10
-8.0226265185
 20
8.6789631753
 10
-8.0196714635
 20
8.6372003244
 10
-8.0155480168
 20
8.5954572509
 10
-8.0102640422
 20
8.5537706138
 10
-8.0038274031
 20
8.512177072
 10
-7.9962459634
 20
8.4707132844
 10
-7.9875275867
 20
8.4294159098
 10
-7.9776801365
 20
8.3883216071
 10
-7.9667114767
 20
8.3474670352
 10
-7.9546294707
 20
8.306888853
 10
-7.9414419824
 20
8.2666237195
 10
-7.9271568753
 20
8.2267082934
 10
-7.911782013
 20
8.1871792336
 10
-7.8953252594
 20
8.1480731992
 10
-7.8777944779
 20
8.1094268488
 10
-7.8591975323
 20
8.0712768416
 10
-7.8395422862
 20
8.0336598362
 10
-7.8188366032
 20
7.9966124916
 10
-7.7970883471
 20
7.9601714667
 10
-7.7743053815
 20
7.9243734205
 10
-7.7499476385
 20
7.8884638478
 10
-7.7245482948
 20
7.8532878151
 10
-7.6981397075
 20
7.8188680427
 10
-7.6707542337
 20
7.7852272512
 10
-7.6424242304
 20
7.752388161
 10
-7.6131820547
 20
7.7203734927
 10
-7.5830600637
 20
7.6892059668
 10
-7.5520906145
 20
7.6589083038
 10
-7.5203060641
 20
7.6295032241
 10
-7.4877387696
 20
7.6010134483
 10
-7.454421088
 20
7.5734616969
 10
-7.4203853765
 20
7.5468706903
 10
-7.385663992
 20
7.5212631492
 10
-7.3502892917
 20
7.4966617939
 10
-7.3142936327
 20
7.4730893449
 10
-7.277709372
 20
7.4505685229
 10
-7.2405688666
 20
7.4291220483
 10
-7.2029044737
 20
7.4087726415
 10
-7.1647485503
 20
7.3895430231
 10
-7.1261334535
 20
7.3714559136
  0
LINE
  5
3FD
100
AcDbEntity
  8
CURVE
100
AcDbLine
 62
250
  6
CONTINUOUS
 10
-8.363915
 20
13.78807
 11
-8.363915
 21
14.61141
  0
LINE
  5
3FE
100
AcDbEntity
  8
CURVE
100
AcDbLine
 62
250
  6
CONTINUOUS
 10
-8.148279
 20
14.61141
 11
-8.148279
 21
13.78807
  0
LINE
  5
3FF
100
AcDbEntity
  8
CURVE
100
AcDbLine
 62
250
  6
CONTINUOUS
 10
-7.65
 20
-14.0
 11
-7.65
 21
-13.3214285553
  0
LINE
  5
400
100
AcDbEntity
  8
DRAFT
100
AcDbLine
 62
7
  6
CONTINUOUS
 10
-8.4674550649
 20
-20.85
 11
-8.4579943206
 21
-20.3079943206
  0
LINE
  5
401
100
AcDbEntity
  8
ASSI
100
AcDbLine
 62
7
  6
CONTINUOUS
 10
-3.4
 20
22.3297297297
 11
-3.3633443637
 21
22.5
  0
LINE
  5
402
100
AcDbEntity
  8
CURVE
100
AcDbLine
 62
250
  6
CONTINUOUS
 10
-9.08125
 20
-0.378125
 11
-9.040625
 21
-0.296875
  0
LINE
  5
403
100
AcDbEntity
  8
ASSI
100
AcDbLine
 62
7
  6
CONTINUOUS
 10
2.7167632191
 20
21.6560705017
 11
2.9969695968
 21
22.2
  0
LWPOLYLINE
  5
404
100
AcDbEntity
  8
CURVE
100
AcDbPolyline
 62
250
  6
CONTINUOUS
 90
31
 70
0
 10
-4.0108192328
 20
6.9994550129
 10
-3.9780652256
 20
7.046527866
 10
-3.9461897367
 20
7.0941943858
 10
-3.9152070633
 20
7.1424526826
 10
-3.8851315028
 20
7.1913008664
 10
-3.8559773525
 20
7.2407370477
 10
-3.8277589098
 20
7.2907593364
 10
-3.800490472
 20
7.3413658429
 10
-3.7741863364
 20
7.3925546773
 10
-3.7459940358
 20
7.4503418429
 10
-3.7190280399
 20
7.5088128538
 10
-3.6932966393
 20
7.5679291134
 10
-3.6688081251
 20
7.6276520248
 10
-3.6455707879
 20
7.6879429913
 10
-3.6235929188
 20
7.7487634161
 10
-3.6028828085
 20
7.8100747024
 10
-3.5834487479
 20
7.8718382535
 10
-3.5652990279
 20
7.9340154725
 10
-3.5484419393
 20
7.9965677628
 10
-3.532885773
 20
8.0594565275
 10
-3.5186388198
 20
8.1226431698
 10
-3.5057093706
 20
8.186089093
 10
-3.4941057163
 20
8.2497557003
 10
-3.4838361477
 20
8.313604395
 10
-3.4749089557
 20
8.3775965802
 10
-3.4673324312
 20
8.4416936592
 10
-3.4611148649
 20
8.5058570352
 10
-3.4562645478
 20
8.5700481115
 10
-3.4527897707
 20
8.6342282913
 10
-3.4506988245
 20
8.6983589777
 10
-3.45
 20
8.762401574
  0
LINE
  5
405
100
AcDbEntity
  8
DRAFT
100
AcDbLine
 62
7
  6
CONTINUOUS
 10
8.4579943206
 20
20.3079943206
 11
8.45
 21
20.3
  0
LINE
  5
406
100
AcDbEntity
  8
RACCORDO
100
AcDbLine
 62
250
  6
CONTINUOUS
 10
9.1500761524
 20
20.9
 11
9.14134862
 21
20.8912724675
  0
LINE
  5
407
100
AcDbEntity
  8
CURVE
100
AcDbLine
 62
250
  6
CONTINUOUS
 10
-2.2142857432
 20
9.3232184733
 11
-2.0928571284
 21
9.4446469869
  0
LINE
  5
408
100
AcDbEntity
  8
RACCORDO
100
AcDbLine
 62
250
  6
CONTINUOUS
 10
9.65
 20
20.4000761524
 11
9.6412724675
 21
20.39134862
  0
LINE
  5
409
100
AcDbEntity
  8
CURVE
100
AcDbLine
 62
250
  6
CONTINUOUS
 10
-2.2142857432
 20
7.7446469869
 11
-2.0928571284
 21
7.8660755004
  0
LINE
  5
40A
100
AcDbEntity
  8
CURVE
100
AcDbLine
 62
250
  6
CONTINUOUS
 10
-9.853125
 20
-0.3375
 11
-9.8125
 21
-0.296875
  0
LINE
  5
40B
100
AcDbEntity
  8
CURVE
100
AcDbLine
 62
250
  6
CONTINUOUS
 10
3.4330697062
 20
11.0176274309
 11
3.6187839808
 21
11.1104848395
  0
LINE
  5
40C
100
AcDbEntity
  8
CURVE
100
AcDbLine
 62
250
  6
CONTINUOUS
 10
4.3616411375
 20
10.553341938
 11
4.1759268435
 21
10.4604848395
  0
LINE
  5
40D
100
AcDbEntity
  8
CURVE
100
AcDbLine
 62
250
  6
CONTINUOUS
 10
3.4330697062
 20
9.9961990366
 11
3.6187839808
 21
10.0890561352
  0
LWPOLYLINE
  5
40E
100
AcDbEntity
  8
CURVE
100
AcDbPolyline
 62
250
  6
CONTINUOUS
 90
56
 70
0
 10
-5.9013941147
 20
6.8187252987
 10
-5.9660294238
 20
6.8000240478
 10
-6.0313202867
 20
6.7834774635
 10
-6.0971868007
 20
6.7690984681
 10
-6.1635490629
 20
6.7568999839
 10
-6.2303271706
 20
6.7468949333
 10
-6.2974412209
 20
6.7390962384
 10
-6.364811311
 20
6.7335168216
 10
-6.432357538
 20
6.7301696052
 10
-6.4999999992
 20
6.7290675115
 10
-6.5676920607
 20
6.7302205356
 10
-6.6353238318
 20
6.7336225233
 10
-6.7028186751
 20
6.7392622092
 10
-6.770099953
 20
6.7471283278
 10
-6.8370910282
 20
6.7572096136
 10
-6.903715263
 20
6.7694948013
 10
-6.9698960201
 20
6.7839726253
 10
-7.0355566619
 20
6.8006318201
 10
-7.100620551
 20
6.8194611204
 10
-7.1650110498
 20
6.8404492605
 10
-7.2286515209
 20
6.8635849751
 10
-7.2914653268
 20
6.8888569987
 10
-7.3566435906
 20
6.9177630814
 10
-7.420749329
 20
6.9489723374
 10
-7.4837119171
 20
6.9824309417
 10
-7.5454607305
 20
7.0180850693
 10
-7.6059251443
 20
7.0558808952
 10
-7.665034534
 20
7.0957645945
 10
-7.7227182749
 20
7.1376823421
 10
-7.7789057424
 20
7.181580313
 10
-7.8335263117
 20
7.2274046823
 10
-7.8865093583
 20
7.2751016249
 10
-7.9377842574
 20
7.3246173159
 10
-7.9872691943
 20
7.3758803227
 10
-8.0349254599
 20
7.4288408847
 10
-8.0807020966
 20
7.4834326839
 10
-8.1245481467
 20
7.5395894024
 10
-8.1664126526
 20
7.5972447222
 10
-8.2062446565
 20
7.6563323254
 10
-8.2439932009
 20
7.716785894
 10
-8.279607328
 20
7.7785391101
 10
-8.3130360802
 20
7.8415256558
 10
-8.3442284997
 20
7.9056792131
 10
-8.3731336291
 20
7.970933464
 10
-8.3984308671
 20
8.0338722493
 10
-8.4216038752
 20
8.0976555647
 10
-8.4426382567
 20
8.1621946089
 10
-8.4615196152
 20
8.2274005804
 10
-8.478233554
 20
8.293184678
 10
-8.4927656766
 20
8.3594581001
 10
-8.5051015863
 20
8.4261320456
 10
-8.5152268866
 20
8.493117713
 10
-8.5231271808
 20
8.5603263008
 10
-8.5287880725
 20
8.6276690079
 10
-8.532195165
 20
8.6950570328
 10
-8.5333340618
 20
8.762401574
  0
LINE
  5
40F
100
AcDbEntity
  8
CURVE
100
AcDbLine
 62
250
  6
CONTINUOUS
 10
3.302794
 20
-8.23959
 11
4.07332
 21
-8.23959
  0
LINE
  5
410
100
AcDbEntity
  8
CURVE
100
AcDbLine
 62
250
  6
CONTINUOUS
 10
7.606704
 20
-8.23959
 11
8.37723
 21
-8.23959
  0
LINE
  5
411
100
AcDbEntity
  8
CURVE
100
AcDbLine
 62
250
  6
CONTINUOUS
 10
-5.75
 20
-8.05
 11
-7.65
 21
-8.05
  0
LINE
  5
412
100
AcDbEntity
  8
IMPORT_IGES
100
AcDbLine
 62
7
  6
CONTINUOUS
 10
-4.25
 20
-7.75
 11
-0.25
 21
-7.75
  0
LINE
  5
413
100
AcDbEntity
  8
SMUSSO
100
AcDbLine
 62
7
  6
CONTINUOUS
 10
-4.25
 20
-7.25
 11
-0.25
 21
-7.25
  0
LINE
  5
414
100
AcDbEntity
  8
ASSI
100
AcDbLine
 62
7
  6
CONTINUOUS
 10
-4.25
 20
-7.25
 11
-0.25
 21
-7.25
  0
LINE
  5
415
100
AcDbEntity
  8
RACCORDO
100
AcDbLine
 62
7
  6
CONTINUOUS
 10
10.7130788782
 20
-6.85
 11
9.8
 21
-6.85
  0
LINE
  5
416
100
AcDbEntity
  8
ASSI
100
AcDbLine
 62
7
  6
CONTINUOUS
 10
10.7130788782
 20
-6.85
 11
9.8
 21
-6.85
  0
LINE
  5
417
100
AcDbEntity
  8
SMUSSO
100
AcDbLine
 62
7
  6
CONTINUOUS
 10
-4.75
 20
-6.75
 11
0.25
 21
-6.75
  0
LINE
  5
418
100
AcDbEntity
  8
ASSI
100
AcDbLine
 62
7
  6
CONTINUOUS
 10
-4.75
 20
-6.75
 11
0.25
 21
-6.75
  0
LINE
  5
419
100
AcDbEntity
  8
CURVE
100
AcDbLine
 62
250
  6
CONTINUOUS
 10
-9.371428588
 20
-4.3023806572
 11
-9.185714294
 21
-4.3952380657
  0
LINE
  5
41A
100
AcDbEntity
  8
CURVE
100
AcDbLine
 62
250
  6
CONTINUOUS
 10
-6.03
 20
-4.570166605
 11
-8.0048264889
 21
-3.43
  0
LINE
  5
41B
100
AcDbEntity
  8
CURVE
100
AcDbLine
 62
250
  6
CONTINUOUS
 10
-9.9285714507
 20
-2.3523806572
 11
-9.0
 21
-2.9095238686
  0
LINE
  5
41C
100
AcDbEntity
  8
DRAFT
100
AcDbLine
 62
7
  6
CONTINUOUS
 10
8.4579943206
 20
-20.3079943206
 11
8.45
 21
-20.3
  0
LINE
  5
41D
100
AcDbEntity
  8
RACCORDO
100
AcDbLine
 62
250
  6
CONTINUOUS
 10
9.1500761524
 20
-20.9
 11
9.14134862
 21
-20.8912724675
  0
LINE
  5
41E
100
AcDbEntity
  8
SMUSSO
100
AcDbLine
 62
7
  6
CONTINUOUS
 10
-4.75
 20
-6.75
 11
-4.25
 21
-7.25
  0
LINE
  5
41F
100
AcDbEntity
  8
ASSI
100
AcDbLine
 62
7
  6
CONTINUOUS
 10
-4.75
 20
-6.75
 11
-4.25
 21
-7.25
  0
LINE
  5
420
100
AcDbEntity
  8
SMUSSO
100
AcDbLine
 62
7
  6
CONTINUOUS
 10
0.25
 20
-11.25
 11
-0.25
 21
-10.75
  0
LINE
  5
421
100
AcDbEntity
  8
ASSI
100
AcDbLine
 62
7
  6
CONTINUOUS
 10
0.25
 20
-11.25
 11
-0.25
 21
-10.75
  0
LINE
  5
422
100
AcDbEntity
  8
RACCORDO
100
AcDbLine
 62
250
  6
CONTINUOUS
 10
9.65
 20
-20.4000761524
 11
9.6412724675
 21
-20.39134862
  0
LINE
  5
423
100
AcDbEntity
  8
CURVE
100
AcDbLine
 62
250
  6
CONTINUOUS
 10
-10.178125
 20
-0.25625
 11
-10.096875
 21
-0.3375
  0
LINE
  5
424
100
AcDbEntity
  8
CURVE
100
AcDbLine
 62
250
  6
CONTINUOUS
 10
-9.609375
 20
-0.378125
 11
-9.528125
 21
-0.459375
  0
LINE
  5
425
100
AcDbEntity
  8
CURVE
100
AcDbLine
 62
250
  6
CONTINUOUS
 10
-9.040625
 20
0.109375
 11
-9.121875
 21
0.23125
  0
LINE
  5
426
100
AcDbEntity
  8
ASSI
100
AcDbLine
 62
7
  6
CONTINUOUS
 10
2.7167632191
 20
-21.6560705017
 11
2.9969695968
 21
-22.2
  0
LINE
  5
427
100
AcDbEntity
  8
CURVE
100
AcDbLine
 62
250
  6
CONTINUOUS
 10
-6.8285714626
 20
-4.8900000019
 11
-7.0428571641
 21
-4.3899999925
  0
LINE
  5
428
100
AcDbEntity
  8
CURVE
100
AcDbLine
 62
250
  6
CONTINUOUS
 10
-6.6142857164
 20
-3.8185714105
 11
-6.8285714626
 21
-3.2471427837
  0
LINE
  5
429
100
AcDbEntity
  8
ASSI
100
AcDbLine
 62
7
  6
CONTINUOUS
 10
-3.4
 20
-22.3297297297
 11
-3.3633443637
 21
-22.5
  0
LWPOLYLINE
  5
42A
100
AcDbEntity
  8
RACCORDO
100
AcDbPolyline
 62
7
  6
CONTINUOUS
 90
13
 70
0
 10
-3.2153472641
 20
-23.175
 10
-3.2131150485
 20
-23.2023154886
 10
-3.2073236856
 20
-23.2285494758
 10
-3.1982225069
 20
-23.2533879651
 10
-3.1861669605
 20
-23.2765578149
 10
-3.1714546095
 20
-23.2978303483
 10
-3.1542040554
 20
-23.3169684264
 10
-3.1345623134
 20
-23.3338308467
 10
-3.1129854998
 20
-23.3481301358
 10
-3.0900559384
 20
-23.3594581838
 10
-3.0662655766
 20
-23.3676758504
 10
-3.0419540136
 20
-23.3728513467
 10
-3.01751471
 20
-23.375
  0
LINE
  5
42B
100
AcDbEntity
  8
CURVE
100
AcDbLine
 62
250
  6
CONTINUOUS
 10
-6.5642857224
 20
-13.3214285553
 11
-6.5642857224
 21
-14.0
  0
LINE
  5
42C
100
AcDbEntity
  8
CURVE
100
AcDbLine
 62
250
  6
CONTINUOUS
 10
-5.829484
 20
13.225174
 11
-5.829484
 21
14.571041
  0
LINE
  5
42D
100
AcDbEntity
  8
CURVE
100
AcDbLine
 62
250
  6
CONTINUOUS
 10
-5.75
 20
1.0
 11
-5.75
 21
1.6785714447
  0
LINE
  5
42E
100
AcDbEntity
  8
CURVE
100
AcDbLine
 62
250
  6
CONTINUOUS
 10
-5.633036
 20
13.399503
 11
-5.633036
 21
13.281883
  0
LWPOLYLINE
  5
42F
100
AcDbEntity
  8
RACCORDO
100
AcDbPolyline
 62
7
  6
CONTINUOUS
 90
13
 70
0
 10
-3.2153472641
 20
23.175
 10
-3.2131100496
 20
23.2020514775
 10
-3.2073396162
 20
23.2283050682
 10
-3.1982549228
 20
23.2533142892
 10
-3.1861617001
 20
23.276613212
 10
-3.1713514059
 20
23.2979354703
 10
-3.1540080817
 20
23.3171599961
 10
-3.1344555831
 20
23.3339738559
 10
-3.1130141512
 20
23.3481421414
 10
-3.0897708658
 20
23.3595767451
 10
-3.0649733181
 20
23.3680348828
 10
-3.039098628
 20
23.3732357558
 10
-3.0125761674
 20
23.375
  0
LINE
  5
430
100
AcDbEntity
  8
CURVE
100
AcDbLine
 62
250
  6
CONTINUOUS
 10
-9.1625
 20
-0.459375
 11
-9.08125
 21
-0.378125
  0
LINE
  5
431
100
AcDbEntity
  8
CURVE
100
AcDbLine
 62
250
  6
CONTINUOUS
 10
3.2473554315
 20
10.8319132338
 11
3.4330697062
 21
11.0176274309
  0
LINE
  5
432
100
AcDbEntity
  8
CURVE
100
AcDbLine
 62
250
  6
CONTINUOUS
 10
4.3616411375
 20
9.5319132338
 11
4.1759268435
 21
9.4390561352
  0
LINE
  5
433
100
AcDbEntity
  8
CURVE
100
AcDbLine
 62
250
  6
CONTINUOUS
 10
7.4330697062
 20
10.9247706423
 11
7.6187839808
 21
11.0176274309
  0
LINE
  5
434
100
AcDbEntity
  8
CURVE
100
AcDbLine
 62
250
  6
CONTINUOUS
 10
8.3616411375
 20
10.4604848395
 11
8.1759268435
 21
10.3676277409
  0
LINE
  5
435
100
AcDbEntity
  8
CURVE
100
AcDbLine
 62
250
  6
CONTINUOUS
 10
7.4330697062
 20
9.903341938
 11
7.6187839808
 21
9.9961990366
  0
LINE
  5
436
100
AcDbEntity
  8
SMUSSO
100
AcDbLine
 62
7
  6
CONTINUOUS
 10
0.25
 20
-6.25
 11
-4.75
 21
-6.25
  0
LINE
  5
437
100
AcDbEntity
  8
ASSI
100
AcDbLine
 62
7
  6
CONTINUOUS
 10
0.25
 20
-6.25
 11
-4.75
 21
-6.25
  0
LINE
  5
438
100
AcDbEntity
  8
RACCORDO
100
AcDbLine
 62
7
  6
CONTINUOUS
 10
10.7130788782
 20
-6.15
 11
9.8
 21
-6.15
  0
LINE
  5
439
100
AcDbEntity
  8
ASSI
100
AcDbLine
 62
7
  6
CONTINUOUS
 10
10.7130788782
 20
-6.15
 11
9.8
 21
-6.15
  0
LINE
  5
43A
100
AcDbEntity
  8
CURVE
100
AcDbLine
 62
250
  6
CONTINUOUS
 10
-9.7428571761
 20
-5.8809522629
 11
-10.3
 21
-5.8809522629
  0
LINE
  5
43B
100
AcDbEntity
  8
SMUSSO
100
AcDbLine
 62
7
  6
CONTINUOUS
 10
-0.25
 20
-5.75
 11
-4.25
 21
-5.75
  0
LINE
  5
43C
100
AcDbEntity
  8
ASSI
100
AcDbLine
 62
7
  6
CONTINUOUS
 10
-0.25
 20
-5.75
 11
-4.25
 21
-5.75
  0
LINE
  5
43D
100
AcDbEntity
  8
IMPORT_IGES
100
AcDbLine
 62
7
  6
CONTINUOUS
 10
-0.25
 20
-5.35
 11
-4.25
 21
-5.35
  0
LINE
  5
43E
100
AcDbEntity
  8
CURVE
100
AcDbLine
 62
250
  6
CONTINUOUS
 10
-9.185714294
 20
-5.3238096714
 11
-9.5571428627
 21
-5.3238096714
  0
LINE
  5
43F
100
AcDbEntity
  8
CURVE
100
AcDbLine
 62
250
  6
CONTINUOUS
 10
-9.121875
 20
0.23125
 11
-9.203125
 21
0.3125
  0
LWPOLYLINE
  5
440
100
AcDbEntity
  8
RACCORDO
100
AcDbPolyline
 62
250
  6
CONTINUOUS
 90
9
 70
0
 10
-3.1705494094
 20
-21.8921572875
 10
-3.1682552834
 20
-21.9103492962
 10
-3.1626804524
 20
-21.928238124
 10
-3.1539180741
 20
-21.9455268219
 10
-3.1421148335
 20
-21.9619277289
 10
-3.1274668403
 20
-21.9771696498
 10
-3.1102150287
 20
-21.9910017433
 10
-3.0906363067
 20
-22.0031988718
 10
-3.0812528557
 20
-22.0077017497
  0
LINE
  5
441
100
AcDbEntity
  8
DRAFT
100
AcDbLine
 62
7
  6
CONTINUOUS
 10
-4.7909419891
 20
21.1271628567
 11
-4.7115928089
 21
19.6130903017
  0
LINE
  5
442
100
AcDbEntity
  8
RACCORDO
100
AcDbLine
 62
7
  6
CONTINUOUS
 10
-3.2320105844
 20
-21.4291186386
 11
-3.2313419064
 21
-21.4548888189
  0
LINE
  5
443
100
AcDbEntity
  8
RACCORDO
100
AcDbLine
 62
7
  6
CONTINUOUS
 10
-3.2313419064
 20
-21.4548888189
 11
-3.2308227979
 21
-21.4835710344
  0
LINE
  5
444
100
AcDbEntity
  8
RACCORDO
100
AcDbLine
 62
7
  6
CONTINUOUS
 10
-3.2308227979
 20
-21.4835710344
 11
-3.2304595672
 21
-21.5140702787
  0
LWPOLYLINE
  5
445
100
AcDbEntity
  8
RACCORDO
100
AcDbPolyline
 62
7
  6
CONTINUOUS
 90
3
 70
0
 10
-3.2304595672
 20
-21.5140702787
 10
-3.2301861319
 20
-21.5605968482
 10
-3.230156515
 20
-21.5755190836
  0
LINE
  5
446
100
AcDbEntity
  8
DRAFT
100
AcDbLine
 62
7
  6
CONTINUOUS
 10
-4.8
 20
-21.1301797403
 11
-4.8
 21
-19.6130903017
  0
LINE
  5
447
100
AcDbEntity
  8
DRAFT
100
AcDbLine
 62
7
  6
CONTINUOUS
 10
-4.8
 20
19.6130903017
 11
-4.8
 21
21.1301797403
  0
LINE
  5
448
100
AcDbEntity
  8
SMUSSO
100
AcDbLine
 62
7
  6
CONTINUOUS
 10
-4.75
 20
-16.25
 11
-4.75
 21
-11.75
  0
LINE
  5
449
100
AcDbEntity
  8
ASSI
100
AcDbLine
 62
7
  6
CONTINUOUS
 10
-4.75
 20
-16.25
 11
-4.75
 21
-11.75
  0
LINE
  5
44A
100
AcDbEntity
  8
SMUSSO
100
AcDbLine
 62
7
  6
CONTINUOUS
 10
-4.75
 20
-11.25
 11
-4.75
 21
-6.75
  0
LINE
  5
44B
100
AcDbEntity
  8
ASSI
100
AcDbLine
 62
7
  6
CONTINUOUS
 10
-4.75
 20
-11.25
 11
-4.75
 21
-6.75
  0
LINE
  5
44C
100
AcDbEntity
  8
SMUSSO
100
AcDbLine
 62
7
  6
CONTINUOUS
 10
-4.75
 20
-6.25
 11
-4.75
 21
-1.75
  0
LINE
  5
44D
100
AcDbEntity
  8
ASSI
100
AcDbLine
 62
7
  6
CONTINUOUS
 10
-4.75
 20
-6.25
 11
-4.75
 21
-1.75
  0
LINE
  5
44E
100
AcDbEntity
  8
SMUSSO
100
AcDbLine
 62
7
  6
CONTINUOUS
 10
-4.75
 20
-1.5
 11
-4.75
 21
3.5
  0
LINE
  5
44F
100
AcDbEntity
  8
ASSI
100
AcDbLine
 62
7
  6
CONTINUOUS
 10
-4.75
 20
-1.5
 11
-4.75
 21
3.5
  0
LINE
  5
450
100
AcDbEntity
  8
SMUSSO
100
AcDbLine
 62
7
  6
CONTINUOUS
 10
-4.25
 20
-15.75
 11
-4.25
 21
-12.25
  0
LINE
  5
451
100
AcDbEntity
  8
ASSI
100
AcDbLine
 62
7
  6
CONTINUOUS
 10
-4.25
 20
-15.75
 11
-4.25
 21
-12.25
  0
LINE
  5
452
100
AcDbEntity
  8
SMUSSO
100
AcDbLine
 62
7
  6
CONTINUOUS
 10
-4.25
 20
-10.75
 11
-4.25
 21
-7.25
  0
LINE
  5
453
100
AcDbEntity
  8
ASSI
100
AcDbLine
 62
7
  6
CONTINUOUS
 10
-4.25
 20
-10.75
 11
-4.25
 21
-7.25
  0
LINE
  5
454
100
AcDbEntity
  8
SMUSSO
100
AcDbLine
 62
7
  6
CONTINUOUS
 10
-4.25
 20
-5.75
 11
-4.25
 21
-2.25
  0
LINE
  5
455
100
AcDbEntity
  8
ASSI
100
AcDbLine
 62
7
  6
CONTINUOUS
 10
-4.25
 20
-5.75
 11
-4.25
 21
-2.25
  0
LINE
  5
456
100
AcDbEntity
  8
SMUSSO
100
AcDbLine
 62
7
  6
CONTINUOUS
 10
-4.25
 20
-1.0
 11
-4.25
 21
3.0
  0
LINE
  5
457
100
AcDbEntity
  8
ASSI
100
AcDbLine
 62
7
  6
CONTINUOUS
 10
-4.25
 20
-1.0
 11
-4.25
 21
3.0
  0
LINE
  5
458
100
AcDbEntity
  8
CURVE
100
AcDbLine
 62
250
  6
CONTINUOUS
 10
-4.019012
 20
11.907638
 11
-4.019012
 21
16.092362
  0
LINE
  5
459
100
AcDbEntity
  8
IMPORT_IGES
100
AcDbLine
 62
7
  6
CONTINUOUS
 10
-3.7
 20
-15.35
 11
-3.7
 21
-12.75
  0
LINE
  5
45A
100
AcDbEntity
  8
IMPORT_IGES
100
AcDbLine
 62
7
  6
CONTINUOUS
 10
-3.7
 20
-10.35
 11
-3.7
 21
-7.75
  0
LINE
  5
45B
100
AcDbEntity
  8
IMPORT_IGES
100
AcDbLine
 62
7
  6
CONTINUOUS
 10
-3.7
 20
-5.35
 11
-3.7
 21
-2.75
  0
LINE
  5
45C
100
AcDbEntity
  8
IMPORT_IGES
100
AcDbLine
 62
7
  6
CONTINUOUS
 10
-3.7
 20
-0.35
 11
-3.7
 21
2.25
  0
LINE
  5
45D
100
AcDbEntity
  8
CURVE
100
AcDbLine
 62
250
  6
CONTINUOUS
 10
-3.45
 20
5.7124015748
 11
-3.45
 21
6.7290675115
  0
LINE
  5
45E
100
AcDbEntity
  8
ASSI
100
AcDbLine
 62
7
  6
CONTINUOUS
 10
-3.4
 20
-21.2
 11
-3.4
 21
-23.4301797403
  0
LINE
  5
45F
100
AcDbEntity
  8
ASSI
100
AcDbLine
 62
7
  6
CONTINUOUS
 10
-3.4
 20
21.2
 11
-3.4
 21
23.4301797403
  0
LINE
  5
460
100
AcDbEntity
  8
ASSI
100
AcDbLine
 62
7
  6
CONTINUOUS
 10
-3.3633443637
 20
23.4668353766
 11
-3.3633443637
 21
22.5
  0
LINE
  5
461
100
AcDbEntity
  8
ASSI
100
AcDbLine
 62
7
  6
CONTINUOUS
 10
-3.3633443637
 20
-23.4668353766
 11
-3.3633443637
 21
-22.5
  0
LINE
  5
462
100
AcDbEntity
  8
ASSI
100
AcDbLine
 62
7
  6
CONTINUOUS
 10
-3.3
 20
22.4
 11
-3.3
 21
21.9098076211
  0
LINE
  5
463
100
AcDbEntity
  8
RACCORDO
100
AcDbLine
 62
7
  6
CONTINUOUS
 10
-3.3
 20
21.3901923789
 11
-3.3
 21
21.190690632
  0
LINE
  5
464
100
AcDbEntity
  8
RACCORDO
100
AcDbLine
 62
7
  6
CONTINUOUS
 10
-3.3
 20
-21.190690632
 11
-3.3
 21
-21.3901923789
  0
LINE
  5
465
100
AcDbEntity
  8
ASSI
100
AcDbLine
 62
7
  6
CONTINUOUS
 10
-3.3
 20
-21.9098076211
 11
-3.3
 21
-22.4
  0
LINE
  5
466
100
AcDbEntity
  8
RACCORDO
100
AcDbLine
 62
7
  6
CONTINUOUS
 10
-3.2301555185
 20
21.5762436163
 11
-3.2303233043
 21
21.5320892811
  0
LINE
  5
467
100
AcDbEntity
  8
RACCORDO
100
AcDbLine
 62
7
  6
CONTINUOUS
 10
-3.2303233043
 20
21.5320892811
 11
-3.2305891369
 21
21.501287084
  0
LWPOLYLINE
  5
468
100
AcDbEntity
  8
CURVE
100
AcDbPolyline
 62
250
  6
CONTINUOUS
 90
32
 70
0
 10
-4.4666670313
 20
8.762401574
 10
-4.4671650531
 20
8.7164596381
 10
-4.4686680503
 20
8.6705414717
 10
-4.4711894204
 20
8.6246604297
 10
-4.4747425608
 20
8.5788298671
 10
-4.4793408689
 20
8.5330631389
 10
-4.4849977422
 20
8.4873735999
 10
-4.4917265783
 20
8.4417746051
 10
-4.4995407745
 20
8.3962795095
 10
-4.5083529427
 20
8.351365565
 10
-4.5182277237
 20
8.3065952322
 10
-4.5291512273
 20
8.261997244
 10
-4.5411095632
 20
8.2176003329
 10
-4.5540888414
 20
8.1734332315
 10
-4.5680751717
 20
8.1295246725
 10
-4.5830546638
 20
8.0859033886
 10
-4.5990134276
 20
8.0425981124
 10
-4.615937573
 20
7.9996375766
 10
-4.6338132097
 20
7.9570505138
 10
-4.6526264476
 20
7.9148656567
 10
-4.6723633966
 20
7.8731117379
 10
-4.6930101664
 20
7.83181749
 10
-4.7145528669
 20
7.7910116458
 10
-4.7369776079
 20
7.7507229379
 10
-4.7602704992
 20
7.7109800989
 10
-4.7844176507
 20
7.6718118615
 10
-4.8094051722
 20
7.6332469583
 10
-4.8352191735
 20
7.595314122
 10
-4.8618457645
 20
7.5580420852
 10
-4.8892710549
 20
7.5214595806
 10
-4.9174811547
 20
7.4855953408
 10
-4.9464621736
 20
7.4504780986
  0
LINE
  5
469
100
AcDbEntity
  8
RACCORDO
100
AcDbLine
 62
7
  6
CONTINUOUS
 10
-3.2305891369
 20
21.501287084
 11
-3.2310132639
 21
21.471717005
  0
LWPOLYLINE
  5
46A
100
AcDbEntity
  8
RACCORDO
100
AcDbPolyline
 62
7
  6
CONTINUOUS
 90
13
 70
0
 10
-3.2310132639
 20
21.471717005
 10
-3.2315881071
 20
21.444395305
 10
-3.2319318638
 20
21.4317239433
 10
-3.2323069457
 20
21.419974904
 10
-3.23271029
 20
21.4092061023
 10
-3.2331449594
 20
21.3993596229
 10
-3.2336144326
 20
21.3905359827
 10
-3.2341208504
 20
21.3826331147
 10
-3.234662072
 20
21.3757530858
 10
-3.2352351536
 20
21.3703026142
 10
-3.235839114
 20
21.3664172724
 10
-3.2364749344
 20
21.3639614879
 10
-3.2371426149
 20
21.3629352605
  0
LINE
  5
46B
100
AcDbEntity
  8
DRAFT
100
AcDbLine
 62
7
  6
CONTINUOUS
 10
-4.7909419891
 20
-21.1271628567
 11
-4.7115928089
 21
-19.6130903017
  0
LINE
  5
46C
100
AcDbEntity
  8
ASSI
100
AcDbLine
 62
250
  6
CONTINUOUS
 10
3.653791075
 20
23.4301797403
 11
3.6748574782
 21
23.5
  0
LINE
  5
46D
100
AcDbEntity
  8
CURVE
100
AcDbLine
 62
250
  6
CONTINUOUS
 10
-7.7448264889
 20
-3.88033321
 11
-7.4848264889
 21
-3.43
  0
LINE
  5
46E
100
AcDbEntity
  8
CURVE
100
AcDbLine
 62
250
  6
CONTINUOUS
 10
-1.7285714358
 20
4.9517899598
 11
-1.9714286149
 21
4.7089328314
  0
LINE
  5
46F
100
AcDbEntity
  8
CURVE
100
AcDbLine
 62
250
  6
CONTINUOUS
 10
3.2473554315
 20
9.8104848395
 11
3.4330697062
 21
9.9961990366
  0
LINE
  5
470
100
AcDbEntity
  8
CURVE
100
AcDbLine
 62
250
  6
CONTINUOUS
 10
4.5473554315
 20
10.7390564451
 11
4.3616411375
 21
10.553341938
  0
LINE
  5
471
100
AcDbEntity
  8
CURVE
100
AcDbLine
 62
250
  6
CONTINUOUS
 10
-10.3
 20
-4.5809522629
 11
-10.1142857254
 21
-4.3952380657
  0
LINE
  5
472
100
AcDbEntity
  8
CURVE
100
AcDbLine
 62
250
  6
CONTINUOUS
 10
-1.2428571537
 20
4.1017899598
 11
-1.0
 21
4.3446471135
  0
LINE
  5
473
100
AcDbEntity
  8
CURVE
100
AcDbLine
 62
250
  6
CONTINUOUS
 10
4.5473554315
 20
9.7176277409
 11
4.3616411375
 21
9.5319132338
  0
LINE
  5
474
100
AcDbEntity
  8
CURVE
100
AcDbLine
 62
250
  6
CONTINUOUS
 10
3.4330697062
 20
7.0247704873
 11
3.6187839808
 21
7.1176275859
  0
LINE
  5
475
100
AcDbEntity
  8
CURVE
100
AcDbLine
 62
250
  6
CONTINUOUS
 10
8.3616411375
 20
9.4390561352
 11
8.1759268435
 21
9.3461990366
  0
LINE
  5
476
100
AcDbEntity
  8
CURVE
100
AcDbLine
 62
250
  6
CONTINUOUS
 10
-9.934375
 20
-0.378125
 11
-9.853125
 21
-0.3375
  0
LINE
  5
477
100
AcDbEntity
  8
CURVE
100
AcDbLine
 62
250
  6
CONTINUOUS
 10
4.3616411375
 20
6.560484762
 11
4.1759268435
 21
6.4676275859
  0
LINE
  5
478
100
AcDbEntity
  8
CURVE
100
AcDbLine
 62
250
  6
CONTINUOUS
 10
-9.371428588
 20
-4.9523806572
 11
-9.9285714507
 21
-4.9523806572
  0
LINE
  5
479
100
AcDbEntity
  8
CURVE
100
AcDbLine
 62
250
  6
CONTINUOUS
 10
-9.9285714507
 20
-4.3023806572
 11
-9.371428588
 21
-4.3023806572
  0
LINE
  5
47A
100
AcDbEntity
  8
CURVE
100
AcDbLine
 62
250
  6
CONTINUOUS
 10
-9.0
 20
-3.9309522629
 11
-10.3
 21
-3.9309522629
  0
LINE
  5
47B
100
AcDbEntity
  8
CURVE
100
AcDbLine
 62
250
  6
CONTINUOUS
 10
-7.4848264889
 20
-3.43
 11
-8.0048264889
 21
-3.43
  0
LINE
  5
47C
100
AcDbEntity
  8
CURVE
100
AcDbLine
 62
250
  6
CONTINUOUS
 10
-10.3
 20
-3.2809522629
 11
-9.0
 21
-3.2809522629
  0
LINE
  5
47D
100
AcDbEntity
  8
CURVE
100
AcDbLine
 62
250
  6
CONTINUOUS
 10
-10.096875
 20
-0.3375
 11
-9.975
 21
-0.378125
  0
LINE
  5
47E
100
AcDbEntity
  8
CURVE
100
AcDbLine
 62
250
  6
CONTINUOUS
 10
-9.528125
 20
-0.459375
 11
-9.40625
 21
-0.5
  0
LINE
  5
47F
100
AcDbEntity
  8
SMUSSO
100
AcDbLine
 62
7
  6
CONTINUOUS
 10
-4.75
 20
-1.75
 11
-4.25
 21
-2.25
  0
LINE
  5
480
100
AcDbEntity
  8
ASSI
100
AcDbLine
 62
7
  6
CONTINUOUS
 10
-4.75
 20
-1.75
 11
-4.25
 21
-2.25
  0
LINE
  5
481
100
AcDbEntity
  8
SMUSSO
100
AcDbLine
 62
7
  6
CONTINUOUS
 10
0.25
 20
-6.25
 11
-0.25
 21
-5.75
  0
LINE
  5
482
100
AcDbEntity
  8
ASSI
100
AcDbLine
 62
7
  6
CONTINUOUS
 10
0.25
 20
-6.25
 11
-0.25
 21
-5.75
  0
LINE
  5
483
100
AcDbEntity
  8
ASSI
100
AcDbLine
 62
250
  6
CONTINUOUS
 10
3.653791075
 20
-23.4301797403
 11
3.6748574782
 21
-23.5
  0
LINE
  5
484
100
AcDbEntity
  8
RACCORDO
100
AcDbLine
 62
250
  6
CONTINUOUS
 10
-3.2153472641
 20
23.175
 11
-3.1705494094
 21
21.8921572875
  0
LINE
  5
485
100
AcDbEntity
  8
RACCORDO
100
AcDbLine
 62
250
  6
CONTINUOUS
 10
-3.01751471
 20
23.375
 11
-2.9765077582
 21
22.2007145431
  0
LINE
  5
486
100
AcDbEntity
  8
RACCORDO
100
AcDbLine
 62
7
  6
CONTINUOUS
 10
-3.2320105844
 20
21.8708813614
 11
-3.2313419064
 21
21.8451111811
  0
LINE
  5
487
100
AcDbEntity
  8
RACCORDO
100
AcDbLine
 62
7
  6
CONTINUOUS
 10
-3.2313419064
 20
21.8451111811
 11
-3.2308227979
 21
21.8164289656
  0
LINE
  5
488
100
AcDbEntity
  8
RACCORDO
100
AcDbLine
 62
7
  6
CONTINUOUS
 10
-3.2308227979
 20
21.8164289656
 11
-3.2304595672
 21
21.7859297213
  0
LINE
  5
489
100
AcDbEntity
  8
RACCORDO
100
AcDbLine
 62
7
  6
CONTINUOUS
 10
-3.2304595672
 20
21.7859297213
 11
-3.2301861319
 21
21.7394031518
  0
LINE
  5
48A
100
AcDbEntity
  8
RACCORDO
100
AcDbLine
 62
7
  6
CONTINUOUS
 10
-3.230158461
 20
23.175
 11
-3.230158461
 21
22.5048155586
  0
LINE
  5
48B
100
AcDbEntity
  8
RACCORDO
100
AcDbLine
 62
7
  6
CONTINUOUS
 10
-3.230158461
 20
-22.5048155586
 11
-3.230158461
 21
-23.175
  0
LINE
  5
48C
100
AcDbEntity
  8
RACCORDO
100
AcDbLine
 62
250
  6
CONTINUOUS
 10
-3.1705494094
 20
21.8921572875
 11
-3.1705494094
 21
21.1786396002
  0
LINE
  5
48D
100
AcDbEntity
  8
RACCORDO
100
AcDbLine
 62
250
  6
CONTINUOUS
 10
-3.1705494094
 20
-21.8921572875
 11
-3.1705494094
 21
-21.1786396002
  0
LINE
  5
48E
100
AcDbEntity
  8
0
100
AcDbLine
 62
7
  6
CONTINUOUS
 10
-3.0812528557
 20
22.2
 11
-3.0812528557
 21
21.1703266555
  0
LINE
  5
48F
100
AcDbEntity
  8
0
100
AcDbLine
 62
7
  6
CONTINUOUS
 10
-3.0812528557
 20
-22.2
 11
-3.0812528557
 21
-21.1703266555
  0
LINE
  5
490
100
AcDbEntity
  8
CURVE
100
AcDbLine
 62
250
  6
CONTINUOUS
 10
-3.0
 20
16.092362
 11
-3.0
 21
11.907638
  0
LINE
  5
491
100
AcDbEntity
  8
0
100
AcDbLine
 62
7
  6
CONTINUOUS
 10
-2.6815326753
 20
-18.5208065713
 11
-2.6815326753
 21
-16.5790539221
  0
LINE
  5
492
100
AcDbEntity
  8
ASSI
100
AcDbLine
 62
7
  6
CONTINUOUS
 10
-2.6815326753
 20
-18.5208065713
 11
-2.6815326753
 21
-16.5790539221
  0
LINE
  5
493
100
AcDbEntity
  8
0
100
AcDbLine
 62
7
  6
CONTINUOUS
 10
-2.6605865973
 20
-16.9973819397
 11
-2.6605865973
 21
-16.6
  0
LINE
  5
494
100
AcDbEntity
  8
ASSI
100
AcDbLine
 62
7
  6
CONTINUOUS
 10
-2.6605865973
 20
-16.9973819397
 11
-2.6605865973
 21
-16.6
  0
LINE
  5
495
100
AcDbEntity
  8
0
100
AcDbLine
 62
7
  6
CONTINUOUS
 10
-2.6312329953
 20
16.4687670047
 11
-2.6312329953
 21
18.3636248878
  0
LINE
  5
496
100
AcDbEntity
  8
ASSI
100
AcDbLine
 62
7
  6
CONTINUOUS
 10
-2.6312329953
 20
16.4687670047
 11
-2.6312329953
 21
18.3636248878
  0
LINE
  5
497
100
AcDbEntity
  8
0
100
AcDbLine
 62
7
  6
CONTINUOUS
 10
-2.5
 20
-18.3392738961
 11
-2.5
 21
-17.0776691233
  0
LINE
  5
498
100
AcDbEntity
  8
ASSI
100
AcDbLine
 62
7
  6
CONTINUOUS
 10
-2.5
 20
-18.3392738961
 11
-2.5
 21
-17.0776691233
  0
LINE
  5
499
100
AcDbEntity
  8
0
100
AcDbLine
 62
7
  6
CONTINUOUS
 10
-2.5
 20
16.6
 11
-2.5
 21
18.2625577096
  0
LINE
  5
49A
100
AcDbEntity
  8
ASSI
100
AcDbLine
 62
7
  6
CONTINUOUS
 10
-2.5
 20
16.6
 11
-2.5
 21
18.2625577096
  0
LINE
  5
49B
100
AcDbEntity
  8
CURVE
100
AcDbLine
 62
250
  6
CONTINUOUS
 10
-2.2142857432
 20
6.7732184733
 11
-2.2142857432
 21
7.7446469869
  0
LINE
  5
49C
100
AcDbEntity
  8
CURVE
100
AcDbLine
 62
250
  6
CONTINUOUS
 10
-2.2142857432
 20
8.3517899598
 11
-2.2142857432
 21
9.3232184733
  0
LINE
  5
49D
100
AcDbEntity
  8
0
100
AcDbLine
 62
7
  6
CONTINUOUS
 10
-2.1
 20
-18.2
 11
-2.1
 21
-18.25
  0
LINE
  5
49E
100
AcDbEntity
  8
0
100
AcDbLine
 62
7
  6
CONTINUOUS
 10
-2.1
 20
18.2
 11
-2.1
 21
18.25
  0
LINE
  5
49F
100
AcDbEntity
  8
DRAFT
100
AcDbLine
 62
7
  6
CONTINUOUS
 10
-2.0
 20
18.25
 11
-2.0
 21
18.2
  0
LINE
  5
4A0
100
AcDbEntity
  8
DRAFT
100
AcDbLine
 62
7
  6
CONTINUOUS
 10
-2.0
 20
-18.2
 11
-2.0
 21
-18.25
  0
LINE
  5
4A1
100
AcDbEntity
  8
0
100
AcDbLine
 62
7
  6
CONTINUOUS
 10
-1.9812802806
 20
18.3
 11
-1.9812802806
 21
18.2
  0
LINE
  5
4A2
100
AcDbEntity
  8
ASSI
100
AcDbLine
 62
7
  6
CONTINUOUS
 10
-1.9812802806
 20
18.3
 11
-1.9812802806
 21
18.2
  0
LINE
  5
4A3
100
AcDbEntity
  8
CURVE
100
AcDbLine
 62
250
  6
CONTINUOUS
 10
-1.9714286149
 20
4.7089328314
 11
-1.9714286149
 21
4.1827423423
  0
LINE
  5
4A4
100
AcDbEntity
  8
DRAFT
100
AcDbLine
 62
7
  6
CONTINUOUS
 10
-1.9650898701
 20
-18.2849101299
 11
-1.9650898701
 21
-18.2
  0
LINE
  5
4A5
100
AcDbEntity
  8
0
100
AcDbLine
 62
7
  6
CONTINUOUS
 10
-1.9026954241
 20
-18.2
 11
-1.9026954241
 21
-18.3
  0
LINE
  5
4A6
100
AcDbEntity
  8
ASSI
100
AcDbLine
 62
7
  6
CONTINUOUS
 10
-1.9026954241
 20
-18.2
 11
-1.9026954241
 21
-18.3
  0
LINE
  5
4A7
100
AcDbEntity
  8
RACCORDO
100
AcDbLine
 62
7
  6
CONTINUOUS
 10
-3.2301861319
 20
21.7394031518
 11
-3.2301555185
 21
21.5762436163
  0
LINE
  5
4A8
100
AcDbEntity
  8
RACCORDO
100
AcDbLine
 62
7
  6
CONTINUOUS
 10
-3.230156515
 20
-21.5755190836
 11
-3.2302392996
 21
-21.7527159386
  0
LINE
  5
4A9
100
AcDbEntity
  8
RACCORDO
100
AcDbLine
 62
7
  6
CONTINUOUS
 10
-3.2302392996
 20
-21.7527159386
 11
-3.2304371978
 21
-21.7834465185
  0
LINE
  5
4AA
100
AcDbEntity
  8
RACCORDO
100
AcDbLine
 62
7
  6
CONTINUOUS
 10
-3.2304371978
 20
-21.7834465185
 11
-3.2307821776
 21
-21.8136326566
  0
LINE
  5
4AB
100
AcDbEntity
  8
RACCORDO
100
AcDbLine
 62
7
  6
CONTINUOUS
 10
-3.2307821776
 20
-21.8136326566
 11
-3.231281385
 21
-21.8422852739
  0
LWPOLYLINE
  5
4AC
100
AcDbEntity
  8
RACCORDO
100
AcDbPolyline
 62
7
  6
CONTINUOUS
 90
12
 70
0
 10
-3.231281385
 20
-21.8422852739
 10
-3.2319318638
 20
-21.8682760567
 10
-3.2323069457
 20
-21.880025096
 10
-3.23271029
 20
-21.8907938977
 10
-3.2331449594
 20
-21.9006403771
 10
-3.2336144326
 20
-21.9094640173
 10
-3.2341208504
 20
-21.9173668853
 10
-3.234662072
 20
-21.9242469142
 10
-3.2352351536
 20
-21.9296973858
 10
-3.235839114
 20
-21.9335827276
 10
-3.2364749344
 20
-21.9360385121
 10
-3.2371426149
 20
-21.9370647395
  0
LINE
  5
4AD
100
AcDbEntity
  8
RACCORDO
100
AcDbLine
 62
250
  6
CONTINUOUS
 10
-3.2153472641
 20
-23.175
 11
-3.1705494094
 21
-21.8921572875
  0
LINE
  5
4AE
100
AcDbEntity
  8
RACCORDO
100
AcDbLine
 62
250
  6
CONTINUOUS
 10
-3.01751471
 20
-23.375
 11
-2.9765077582
 21
-22.2007145431
  0
LINE
  5
4AF
100
AcDbEntity
  8
ASSI
100
AcDbLine
 62
250
  6
CONTINUOUS
 10
4.2071270357
 20
23.2631073618
 11
4.2275426698
 21
23.3333596575
  0
LINE
  5
4B0
100
AcDbEntity
  8
CURVE
100
AcDbLine
 62
250
  6
CONTINUOUS
 10
-7.0428571641
 20
-4.3899999925
 11
-6.6142857164
 21
-3.8185714105
  0
LINE
  5
4B1
100
AcDbEntity
  8
CURVE
100
AcDbLine
 62
250
  6
CONTINUOUS
 10
-9.4952381045
 20
-8.6976190329
 11
-9.3095238104
 21
-8.45
  0
LINE
  5
4B2
100
AcDbEntity
  8
CURVE
100
AcDbLine
 62
250
  6
CONTINUOUS
 10
-9.0
 20
-4.6738096714
 11
-9.185714294
 21
-4.8595238686
  0
LINE
  5
4B3
100
AcDbEntity
  8
CURVE
100
AcDbLine
 62
250
  6
CONTINUOUS
 10
-9.5571428627
 20
-5.3238096714
 11
-9.7428571761
 21
-5.5095238686
  0
LINE
  5
4B4
100
AcDbEntity
  8
CURVE
100
AcDbLine
 62
250
  6
CONTINUOUS
 10
3.2473554315
 20
6.8390561352
 11
3.4330697062
 21
7.0247704873
  0
LINE
  5
4B5
100
AcDbEntity
  8
CURVE
100
AcDbLine
 62
250
  6
CONTINUOUS
 10
7.2473554315
 20
10.7390564451
 11
7.4330697062
 21
10.9247706423
  0
LINE
  5
4B6
100
AcDbEntity
  8
SMUSSO
100
AcDbLine
 62
7
  6
CONTINUOUS
 10
0.25
 20
3.5
 11
-0.25
 21
3.0
  0
LINE
  5
4B7
100
AcDbEntity
  8
ASSI
100
AcDbLine
 62
7
  6
CONTINUOUS
 10
0.25
 20
3.5
 11
-0.25
 21
3.0
  0
LINE
  5
4B8
100
AcDbEntity
  8
SMUSSO
100
AcDbLine
 62
7
  6
CONTINUOUS
 10
-4.75
 20
-1.5
 11
-4.25
 21
-1.0
  0
LINE
  5
4B9
100
AcDbEntity
  8
ASSI
100
AcDbLine
 62
7
  6
CONTINUOUS
 10
-4.75
 20
-1.5
 11
-4.25
 21
-1.0
  0
LINE
  5
4BA
100
AcDbEntity
  8
CURVE
100
AcDbLine
 62
250
  6
CONTINUOUS
 10
7.2473554315
 20
9.7176277409
 11
7.4330697062
 21
9.903341938
  0
LINE
  5
4BB
100
AcDbEntity
  8
CURVE
100
AcDbLine
 62
250
  6
CONTINUOUS
 10
4.5473554315
 20
6.7461990366
 11
4.3616411375
 21
6.560484762
  0
LINE
  5
4BC
100
AcDbEntity
  8
CURVE
100
AcDbLine
 62
250
  6
CONTINUOUS
 10
7.4330697062
 20
8.9438180695
 11
7.2473554315
 21
8.7890561352
  0
LINE
  5
4BD
100
AcDbEntity
  8
CURVE
100
AcDbLine
 62
250
  6
CONTINUOUS
 10
7.4330697062
 20
7.0247704873
 11
7.6187839808
 21
7.1176275859
  0
LINE
  5
4BE
100
AcDbEntity
  8
CURVE
100
AcDbLine
 62
250
  6
CONTINUOUS
 10
8.3616411375
 20
6.560484762
 11
8.1759268435
 21
6.4676275859
  0
LINE
  5
4BF
100
AcDbEntity
  8
CURVE
100
AcDbLine
 62
250
  6
CONTINUOUS
 10
-9.284375
 20
-0.5
 11
-9.1625
 21
-0.459375
  0
LINE
  5
4C0
100
AcDbEntity
  8
IMPORT_IGES
100
AcDbLine
 62
7
  6
CONTINUOUS
 10
-4.25
 20
-2.75
 11
-0.25
 21
-2.75
  0
LINE
  5
4C1
100
AcDbEntity
  8
SMUSSO
100
AcDbLine
 62
7
  6
CONTINUOUS
 10
-4.25
 20
-2.25
 11
-0.25
 21
-2.25
  0
LINE
  5
4C2
100
AcDbEntity
  8
ASSI
100
AcDbLine
 62
7
  6
CONTINUOUS
 10
-4.25
 20
-2.25
 11
-0.25
 21
-2.25
  0
LINE
  5
4C3
100
AcDbEntity
  8
RACCORDO
100
AcDbLine
 62
7
  6
CONTINUOUS
 10
10.7130788782
 20
-1.85
 11
9.8
 21
-1.85
  0
LINE
  5
4C4
100
AcDbEntity
  8
ASSI
100
AcDbLine
 62
7
  6
CONTINUOUS
 10
10.7130788782
 20
-1.85
 11
9.8
 21
-1.85
  0
LINE
  5
4C5
100
AcDbEntity
  8
SMUSSO
100
AcDbLine
 62
7
  6
CONTINUOUS
 10
-4.75
 20
-1.75
 11
0.25
 21
-1.75
  0
LINE
  5
4C6
100
AcDbEntity
  8
ASSI
100
AcDbLine
 62
7
  6
CONTINUOUS
 10
-4.75
 20
-1.75
 11
0.25
 21
-1.75
  0
LINE
  5
4C7
100
AcDbEntity
  8
ASSI
100
AcDbLine
 62
250
  6
CONTINUOUS
 10
4.2071270357
 20
-23.2631073618
 11
4.2275426698
 21
-23.3333596575
  0
LINE
  5
4C8
100
AcDbEntity
  8
CURVE
100
AcDbLine
 62
250
  6
CONTINUOUS
 10
-1.0
 20
15.3517899598
 11
-1.0
 21
10.1017899598
  0
LINE
  5
4C9
100
AcDbEntity
  8
CURVE
100
AcDbLine
 62
250
  6
CONTINUOUS
 10
-1.0
 20
4.3446471135
 11
-1.0
 21
4.7089328314
  0
LINE
  5
4CA
100
AcDbEntity
  8
IMPORT_IGES
100
AcDbLine
 62
7
  6
CONTINUOUS
 10
-0.9
 20
2.25
 11
-0.9
 21
-0.35
  0
LINE
  5
4CB
100
AcDbEntity
  8
IMPORT_IGES
100
AcDbLine
 62
7
  6
CONTINUOUS
 10
-0.9
 20
-2.75
 11
-0.9
 21
-5.35
  0
LINE
  5
4CC
100
AcDbEntity
  8
IMPORT_IGES
100
AcDbLine
 62
7
  6
CONTINUOUS
 10
-0.9
 20
-7.75
 11
-0.9
 21
-10.35
  0
LINE
  5
4CD
100
AcDbEntity
  8
IMPORT_IGES
100
AcDbLine
 62
7
  6
CONTINUOUS
 10
-0.9
 20
-12.75
 11
-0.9
 21
-15.35
  0
LINE
  5
4CE
100
AcDbEntity
  8
CURVE
100
AcDbLine
 62
250
  6
CONTINUOUS
 10
-0.5
 20
10.1017899598
 11
-0.5
 21
4.1017899598
  0
LINE
  5
4CF
100
AcDbEntity
  8
CURVE
100
AcDbLine
 62
250
  6
CONTINUOUS
 10
-0.4
 20
4.1017899598
 11
-0.4
 21
10.1017899598
  0
LINE
  5
4D0
100
AcDbEntity
  8
CURVE
100
AcDbLine
 62
250
  6
CONTINUOUS
 10
-0.3
 20
4.1017899598
 11
-0.3
 21
10.1017899598
  0
LINE
  5
4D1
100
AcDbEntity
  8
SMUSSO
100
AcDbLine
 62
7
  6
CONTINUOUS
 10
-0.25
 20
3.0
 11
-0.25
 21
-1.0
  0
LINE
  5
4D2
100
AcDbEntity
  8
ASSI
100
AcDbLine
 62
7
  6
CONTINUOUS
 10
-0.25
 20
3.0
 11
-0.25
 21
-1.0
  0
LINE
  5
4D3
100
AcDbEntity
  8
SMUSSO
100
AcDbLine
 62
7
  6
CONTINUOUS
 10
-0.25
 20
-2.25
 11
-0.25
 21
-5.75
  0
LINE
  5
4D4
100
AcDbEntity
  8
ASSI
100
AcDbLine
 62
7
  6
CONTINUOUS
 10
-0.25
 20
-2.25
 11
-0.25
 21
-5.75
  0
LINE
  5
4D5
100
AcDbEntity
  8
SMUSSO
100
AcDbLine
 62
7
  6
CONTINUOUS
 10
-0.25
 20
-7.25
 11
-0.25
 21
-10.75
  0
LINE
  5
4D6
100
AcDbEntity
  8
ASSI
100
AcDbLine
 62
7
  6
CONTINUOUS
 10
-0.25
 20
-7.25
 11
-0.25
 21
-10.75
  0
LINE
  5
4D7
100
AcDbEntity
  8
SMUSSO
100
AcDbLine
 62
7
  6
CONTINUOUS
 10
-0.25
 20
-12.25
 11
-0.25
 21
-15.75
  0
LINE
  5
4D8
100
AcDbEntity
  8
ASSI
100
AcDbLine
 62
7
  6
CONTINUOUS
 10
-0.25
 20
-12.25
 11
-0.25
 21
-15.75
  0
LINE
  5
4D9
100
AcDbEntity
  8
CURVE
100
AcDbLine
 62
250
  6
CONTINUOUS
 10
-0.2
 20
4.1017899598
 11
-0.2
 21
10.1017899598
  0
LINE
  5
4DA
100
AcDbEntity
  8
CURVE
100
AcDbLine
 62
250
  6
CONTINUOUS
 10
-0.1
 20
4.1017899598
 11
-0.1
 21
10.1017899598
  0
LINE
  5
4DB
100
AcDbEntity
  8
CURVE
100
AcDbLine
 62
250
  6
CONTINUOUS
 10
-0.0
 20
4.1017899598
 11
-0.0
 21
10.1017899598
  0
LINE
  5
4DC
100
AcDbEntity
  8
CURVE
100
AcDbLine
 62
250
  6
CONTINUOUS
 10
0.1
 20
4.1017899598
 11
0.1
 21
10.1017899598
  0
LINE
  5
4DD
100
AcDbEntity
  8
CURVE
100
AcDbLine
 62
250
  6
CONTINUOUS
 10
0.2
 20
4.1017899598
 11
0.2
 21
10.1017899598
  0
LINE
  5
4DE
100
AcDbEntity
  8
ASSI
100
AcDbLine
 62
7
  6
CONTINUOUS
 10
2.7167632191
 20
21.6560705017
 11
2.6175930356
 21
21.1271628567
  0
LINE
  5
4DF
100
AcDbEntity
  8
ASSI
100
AcDbLine
 62
7
  6
CONTINUOUS
 10
6.9069415429
 20
21.1271628567
 11
6.9339198284
 21
21.2
  0
LINE
  5
4E0
100
AcDbEntity
  8
CURVE
100
AcDbLine
 62
250
  6
CONTINUOUS
 10
8.5473554315
 20
10.6461990366
 11
8.3616411375
 21
10.4604848395
  0
LINE
  5
4E1
100
AcDbEntity
  8
CURVE
100
AcDbLine
 62
250
  6
CONTINUOUS
 10
8.5473554315
 20
9.6247703324
 11
8.3616411375
 21
9.4390561352
  0
LINE
  5
4E2
100
AcDbEntity
  8
CURVE
100
AcDbLine
 62
250
  6
CONTINUOUS
 10
7.9902125689
 20
8.9747703324
 11
7.8044982555
 21
8.7890561352
  0
LINE
  5
4E3
100
AcDbEntity
  8
CURVE
100
AcDbLine
 62
250
  6
CONTINUOUS
 10
-10.1142857254
 20
-4.3952380657
 11
-9.9285714507
 21
-4.3023806572
  0
LINE
  5
4E4
100
AcDbEntity
  8
SMUSSO
100
AcDbLine
 62
7
  6
CONTINUOUS
 10
0.25
 20
-1.5
 11
-4.75
 21
-1.5
  0
LINE
  5
4E5
100
AcDbEntity
  8
ASSI
100
AcDbLine
 62
7
  6
CONTINUOUS
 10
0.25
 20
-1.5
 11
-4.75
 21
-1.5
  0
LINE
  5
4E6
100
AcDbEntity
  8
RACCORDO
100
AcDbLine
 62
7
  6
CONTINUOUS
 10
10.7130788782
 20
-1.15
 11
9.8
 21
-1.15
  0
LINE
  5
4E7
100
AcDbEntity
  8
ASSI
100
AcDbLine
 62
7
  6
CONTINUOUS
 10
10.7130788782
 20
-1.15
 11
9.8
 21
-1.15
  0
LINE
  5
4E8
100
AcDbEntity
  8
SMUSSO
100
AcDbLine
 62
7
  6
CONTINUOUS
 10
-0.25
 20
-1.0
 11
-4.25
 21
-1.0
  0
LINE
  5
4E9
100
AcDbEntity
  8
ASSI
100
AcDbLine
 62
7
  6
CONTINUOUS
 10
-0.25
 20
-1.0
 11
-4.25
 21
-1.0
  0
LINE
  5
4EA
100
AcDbEntity
  8
DRAFT
100
AcDbLine
 62
7
  6
CONTINUOUS
 10
9.8523334421
 20
-0.75
 11
9.8
 21
-0.75
  0
LINE
  5
4EB
100
AcDbEntity
  8
CURVE
100
AcDbLine
 62
250
  6
CONTINUOUS
 10
-9.40625
 20
-0.5
 11
-9.284375
 21
-0.5
  0
LINE
  5
4EC
100
AcDbEntity
  8
CURVE
100
AcDbLine
 62
250
  6
CONTINUOUS
 10
-9.975
 20
-0.378125
 11
-9.934375
 21
-0.378125
  0
LINE
  5
4ED
100
AcDbEntity
  8
IMPORT_IGES
100
AcDbLine
 62
7
  6
CONTINUOUS
 10
-0.25
 20
-0.35
 11
-4.25
 21
-0.35
  0
LINE
  5
4EE
100
AcDbEntity
  8
SMUSSO
100
AcDbLine
 62
7
  6
CONTINUOUS
 10
-4.75
 20
3.5
 11
-4.25
 21
3.0
  0
LINE
  5
4EF
100
AcDbEntity
  8
ASSI
100
AcDbLine
 62
7
  6
CONTINUOUS
 10
-4.75
 20
3.5
 11
-4.25
 21
3.0
  0
LINE
  5
4F0
100
AcDbEntity
  8
SMUSSO
100
AcDbLine
 62
7
  6
CONTINUOUS
 10
0.25
 20
-1.5
 11
-0.25
 21
-1.0
  0
LINE
  5
4F1
100
AcDbEntity
  8
ASSI
100
AcDbLine
 62
7
  6
CONTINUOUS
 10
0.25
 20
-1.5
 11
-0.25
 21
-1.0
  0
LINE
  5
4F2
100
AcDbEntity
  8
ASSI
100
AcDbLine
 62
7
  6
CONTINUOUS
 10
6.9069415429
 20
-21.1271628567
 11
6.9339198284
 21
-21.2
  0
LINE
  5
4F3
100
AcDbEntity
  8
ASSI
100
AcDbLine
 62
7
  6
CONTINUOUS
 10
2.7167632191
 20
-21.6560705017
 11
2.6175930356
 21
-21.1271628567
  0
LINE
  5
4F4
100
AcDbEntity
  8
SMUSSO
100
AcDbLine
 62
7
  6
CONTINUOUS
 10
0.25
 20
3.5
 11
0.25
 21
-1.5
  0
LINE
  5
4F5
100
AcDbEntity
  8
ASSI
100
AcDbLine
 62
7
  6
CONTINUOUS
 10
0.25
 20
3.5
 11
0.25
 21
-1.5
  0
LINE
  5
4F6
100
AcDbEntity
  8
SMUSSO
100
AcDbLine
 62
7
  6
CONTINUOUS
 10
0.25
 20
-1.75
 11
0.25
 21
-6.25
  0
LINE
  5
4F7
100
AcDbEntity
  8
ASSI
100
AcDbLine
 62
7
  6
CONTINUOUS
 10
0.25
 20
-1.75
 11
0.25
 21
-6.25
  0
LINE
  5
4F8
100
AcDbEntity
  8
SMUSSO
100
AcDbLine
 62
7
  6
CONTINUOUS
 10
0.25
 20
-6.75
 11
0.25
 21
-11.25
  0
LINE
  5
4F9
100
AcDbEntity
  8
ASSI
100
AcDbLine
 62
7
  6
CONTINUOUS
 10
0.25
 20
-6.75
 11
0.25
 21
-11.25
  0
LINE
  5
4FA
100
AcDbEntity
  8
SMUSSO
100
AcDbLine
 62
7
  6
CONTINUOUS
 10
0.25
 20
-11.75
 11
0.25
 21
-16.25
  0
LINE
  5
4FB
100
AcDbEntity
  8
ASSI
100
AcDbLine
 62
7
  6
CONTINUOUS
 10
0.25
 20
-11.75
 11
0.25
 21
-16.25
  0
LINE
  5
4FC
100
AcDbEntity
  8
CURVE
100
AcDbLine
 62
250
  6
CONTINUOUS
 10
0.3
 20
4.1017899598
 11
0.3
 21
10.1017899598
  0
LINE
  5
4FD
100
AcDbEntity
  8
CURVE
100
AcDbLine
 62
250
  6
CONTINUOUS
 10
0.4
 20
4.1017899598
 11
0.4
 21
10.1017899598
  0
LINE
  5
4FE
100
AcDbEntity
  8
CURVE
100
AcDbLine
 62
250
  6
CONTINUOUS
 10
0.5
 20
4.1017899598
 11
0.5
 21
10.1017899598
  0
LINE
  5
4FF
100
AcDbEntity
  8
CURVE
100
AcDbLine
 62
250
  6
CONTINUOUS
 10
0.6
 20
4.1017899598
 11
0.6
 21
10.1017899598
  0
LINE
  5
500
100
AcDbEntity
  8
CURVE
100
AcDbLine
 62
250
  6
CONTINUOUS
 10
0.7
 20
4.1017899598
 11
0.7
 21
10.1017899598
  0
LINE
  5
501
100
AcDbEntity
  8
CURVE
100
AcDbLine
 62
250
  6
CONTINUOUS
 10
0.8
 20
4.1017899598
 11
0.8
 21
10.1017899598
  0
LINE
  5
502
100
AcDbEntity
  8
CURVE
100
AcDbLine
 62
250
  6
CONTINUOUS
 10
0.9
 20
4.1017899598
 11
0.9
 21
10.1017899598
  0
LINE
  5
503
100
AcDbEntity
  8
CURVE
100
AcDbLine
 62
250
  6
CONTINUOUS
 10
1.0
 20
4.1017899598
 11
1.0
 21
10.1017899598
  0
LINE
  5
504
100
AcDbEntity
  8
CURVE
100
AcDbLine
 62
250
  6
CONTINUOUS
 10
1.1
 20
4.1017899598
 11
1.1
 21
10.1017899598
  0
LINE
  5
505
100
AcDbEntity
  8
CURVE
100
AcDbLine
 62
250
  6
CONTINUOUS
 10
1.2
 20
4.1017899598
 11
1.2
 21
10.1017899598
  0
LINE
  5
506
100
AcDbEntity
  8
CURVE
100
AcDbLine
 62
250
  6
CONTINUOUS
 10
1.3
 20
4.1017899598
 11
1.3
 21
10.1017899598
  0
LINE
  5
507
100
AcDbEntity
  8
CURVE
100
AcDbLine
 62
250
  6
CONTINUOUS
 10
1.4
 20
4.1017899598
 11
1.4
 21
10.1017899598
  0
LINE
  5
508
100
AcDbEntity
  8
CURVE
100
AcDbLine
 62
250
  6
CONTINUOUS
 10
1.5
 20
4.1017899598
 11
1.5
 21
10.1017899598
  0
LINE
  5
509
100
AcDbEntity
  8
0
100
AcDbLine
 62
7
  6
CONTINUOUS
 10
1.9026954241
 20
-18.2
 11
1.9026954241
 21
-18.3
  0
LINE
  5
50A
100
AcDbEntity
  8
ASSI
100
AcDbLine
 62
7
  6
CONTINUOUS
 10
1.9026954241
 20
-18.2
 11
1.9026954241
 21
-18.3
  0
LINE
  5
50B
100
AcDbEntity
  8
DRAFT
100
AcDbLine
 62
7
  6
CONTINUOUS
 10
1.9650898701
 20
-18.2849101299
 11
1.9650898701
 21
-18.2
  0
LINE
  5
50C
100
AcDbEntity
  8
ASSI
100
AcDbLine
 62
7
  6
CONTINUOUS
 10
-2.7167632191
 20
-21.6560705017
 11
-2.6175930356
 21
-21.1271628567
  0
LINE
  5
50D
100
AcDbEntity
  8
0
100
AcDbLine
 62
7
  6
CONTINUOUS
 10
-6.9080597678
 20
-21.1301797403
 11
-6.9339198284
 21
-21.2
  0
LINE
  5
50E
100
AcDbEntity
  8
CURVE
100
AcDbLine
 62
250
  6
CONTINUOUS
 10
-10.3
 20
-10.6785714507
 11
-10.1142857254
 21
-10.4928570986
  0
LINE
  5
50F
100
AcDbEntity
  8
CURVE
100
AcDbLine
 62
250
  6
CONTINUOUS
 10
7.2473554315
 20
6.8390561352
 11
7.4330697062
 21
7.0247704873
  0
LINE
  5
510
100
AcDbEntity
  8
SMUSSO
100
AcDbLine
 62
7
  6
CONTINUOUS
 10
-4.75
 20
-6.25
 11
-4.25
 21
-5.75
  0
LINE
  5
511
100
AcDbEntity
  8
ASSI
100
AcDbLine
 62
7
  6
CONTINUOUS
 10
-4.75
 20
-6.25
 11
-4.25
 21
-5.75
  0
LINE
  5
512
100
AcDbEntity
  8
CURVE
100
AcDbLine
 62
250
  6
CONTINUOUS
 10
-9.0
 20
-10.7714285493
 11
-9.185714294
 21
-10.9571429014
  0
LINE
  5
513
100
AcDbEntity
  8
CURVE
100
AcDbLine
 62
250
  6
CONTINUOUS
 10
8.5473554315
 20
6.7461990366
 11
8.3616411375
 21
6.560484762
  0
LINE
  5
514
100
AcDbEntity
  8
CURVE
100
AcDbLine
 62
250
  6
CONTINUOUS
 10
-9.5571428627
 20
-11.4214285493
 11
-9.7428571761
 21
-11.6071429014
  0
LINE
  5
515
100
AcDbEntity
  8
CURVE
100
AcDbLine
 62
250
  6
CONTINUOUS
 10
6.7197404105
 20
4.7485281374
 11
6.9318724448
 21
4.9606601718
  0
LINE
  5
516
100
AcDbEntity
  8
SMUSSO
100
AcDbLine
 62
7
  6
CONTINUOUS
 10
0.25
 20
-1.75
 11
-0.25
 21
-2.25
  0
LINE
  5
517
100
AcDbEntity
  8
ASSI
100
AcDbLine
 62
7
  6
CONTINUOUS
 10
0.25
 20
-1.75
 11
-0.25
 21
-2.25
  0
LINE
  5
518
100
AcDbEntity
  8
CURVE
100
AcDbLine
 62
250
  6
CONTINUOUS
 10
-10.1142857254
 20
-12.35
 11
-10.3
 21
-12.5357142746
  0
LINE
  5
519
100
AcDbEntity
  8
CURVE
100
AcDbLine
 62
250
  6
CONTINUOUS
 10
-9.185714294
 20
-4.8595238686
 11
-9.371428588
 21
-4.9523806572
  0
LINE
  5
51A
100
AcDbEntity
  8
DRAFT
100
AcDbLine
 62
7
  6
CONTINUOUS
 10
9.8600741062
 20
0.75
 11
9.8
 21
0.75
  0
LINE
  5
51B
100
AcDbEntity
  8
CURVE
100
AcDbLine
 62
250
  6
CONTINUOUS
 10
-7.65
 20
1.0
 11
-5.75
 21
1.0
  0
LINE
  5
51C
100
AcDbEntity
  8
DRAFT
100
AcDbLine
 62
7
  6
CONTINUOUS
 10
9.8
 20
1.2216700135
 11
9.8601019621
 21
1.2216700135
  0
LINE
  5
51D
100
AcDbEntity
  8
CURVE
100
AcDbLine
 62
250
  6
CONTINUOUS
 10
-2.7
 20
4.7089328314
 11
-2.3357142568
 21
4.3446471135
  0
LINE
  5
51E
100
AcDbEntity
  8
0
100
AcDbLine
 62
7
  6
CONTINUOUS
 10
-6.9080597678
 20
21.1301797403
 11
-6.9339198284
 21
21.2
  0
LINE
  5
51F
100
AcDbEntity
  8
ASSI
100
AcDbLine
 62
7
  6
CONTINUOUS
 10
-2.7167632191
 20
21.6560705017
 11
-2.6175930356
 21
21.1271628567
  0
LINE
  5
520
100
AcDbEntity
  8
RACCORDO
100
AcDbLine
 62
250
  6
CONTINUOUS
 10
3.01751471
 20
-23.375
 11
2.9765077582
 21
-22.2007145431
  0
LINE
  5
521
100
AcDbEntity
  8
RACCORDO
100
AcDbLine
 62
250
  6
CONTINUOUS
 10
3.2153472641
 20
-23.175
 11
3.1705494094
 21
-21.8921572875
  0
LINE
  5
522
100
AcDbEntity
  8
RACCORDO
100
AcDbLine
 62
7
  6
CONTINUOUS
 10
3.2320105844
 20
-21.8708813614
 11
3.2313419064
 21
-21.8451111811
  0
LINE
  5
523
100
AcDbEntity
  8
RACCORDO
100
AcDbLine
 62
7
  6
CONTINUOUS
 10
3.2313419064
 20
-21.8451111811
 11
3.2308227979
 21
-21.8164289656
  0
LINE
  5
524
100
AcDbEntity
  8
RACCORDO
100
AcDbLine
 62
7
  6
CONTINUOUS
 10
3.2313419064
 20
21.4548888189
 11
3.2308227979
 21
21.4835710344
  0
LINE
  5
525
100
AcDbEntity
  8
RACCORDO
100
AcDbLine
 62
7
  6
CONTINUOUS
 10
3.2308227979
 20
-21.8164289656
 11
3.2304595672
 21
-21.7859297213
  0
LINE
  5
526
100
AcDbEntity
  8
RACCORDO
100
AcDbLine
 62
7
  6
CONTINUOUS
 10
3.2308227979
 20
21.4835710344
 11
3.2304595672
 21
21.5140702787
  0
LINE
  5
527
100
AcDbEntity
  8
RACCORDO
100
AcDbLine
 62
7
  6
CONTINUOUS
 10
3.2304595672
 20
-21.7859297213
 11
3.2301861319
 21
-21.7394031518
  0
LINE
  5
528
100
AcDbEntity
  8
RACCORDO
100
AcDbLine
 62
7
  6
CONTINUOUS
 10
3.2304595672
 20
21.5140702787
 11
3.2301861319
 21
21.5605968482
  0
LINE
  5
529
100
AcDbEntity
  8
0
100
AcDbLine
 62
7
  6
CONTINUOUS
 10
1.9812802806
 20
18.3
 11
1.9812802806
 21
18.2
  0
LINE
  5
52A
100
AcDbEntity
  8
ASSI
100
AcDbLine
 62
7
  6
CONTINUOUS
 10
1.9812802806
 20
18.3
 11
1.9812802806
 21
18.2
  0
LINE
  5
52B
100
AcDbEntity
  8
DRAFT
100
AcDbLine
 62
7
  6
CONTINUOUS
 10
2.0
 20
18.25
 11
2.0
 21
18.2
  0
LINE
  5
52C
100
AcDbEntity
  8
DRAFT
100
AcDbLine
 62
7
  6
CONTINUOUS
 10
2.0
 20
-18.2
 11
2.0
 21
-18.25
  0
LINE
  5
52D
100
AcDbEntity
  8
IMPORT_IGES
100
AcDbLine
 62
7
  6
CONTINUOUS
 10
2.0
 20
-16.75
 11
2.0
 21
-16.6
  0
LINE
  5
52E
100
AcDbEntity
  8
CURVE
100
AcDbLine
 62
250
  6
CONTINUOUS
 10
2.0
 20
10.1017899598
 11
2.0
 21
15.3517899598
  0
LINE
  5
52F
100
AcDbEntity
  8
0
100
AcDbLine
 62
7
  6
CONTINUOUS
 10
2.1
 20
-18.2
 11
2.1
 21
-18.25
  0
LINE
  5
530
100
AcDbEntity
  8
0
100
AcDbLine
 62
7
  6
CONTINUOUS
 10
2.1
 20
18.2
 11
2.1
 21
18.25
  0
LINE
  5
531
100
AcDbEntity
  8
0
100
AcDbLine
 62
7
  6
CONTINUOUS
 10
2.5
 20
18.2625577096
 11
2.5
 21
16.6
  0
LINE
  5
532
100
AcDbEntity
  8
ASSI
100
AcDbLine
 62
7
  6
CONTINUOUS
 10
2.5
 20
18.2625577096
 11
2.5
 21
16.6
  0
LINE
  5
533
100
AcDbEntity
  8
0
100
AcDbLine
 62
7
  6
CONTINUOUS
 10
2.5
 20
-18.3392738961
 11
2.5
 21
-17.0776691233
  0
LINE
  5
534
100
AcDbEntity
  8
ASSI
100
AcDbLine
 62
7
  6
CONTINUOUS
 10
2.5
 20
-18.3392738961
 11
2.5
 21
-17.0776691233
  0
LINE
  5
535
100
AcDbEntity
  8
0
100
AcDbLine
 62
7
  6
CONTINUOUS
 10
2.6312329953
 20
18.3636248878
 11
2.6312329953
 21
16.4687670047
  0
LINE
  5
536
100
AcDbEntity
  8
ASSI
100
AcDbLine
 62
7
  6
CONTINUOUS
 10
2.6312329953
 20
18.3636248878
 11
2.6312329953
 21
16.4687670047
  0
LINE
  5
537
100
AcDbEntity
  8
0
100
AcDbLine
 62
7
  6
CONTINUOUS
 10
2.6605865973
 20
-16.6
 11
2.6605865973
 21
-16.9973819397
  0
LINE
  5
538
100
AcDbEntity
  8
ASSI
100
AcDbLine
 62
7
  6
CONTINUOUS
 10
2.6605865973
 20
-16.6
 11
2.6605865973
 21
-16.9973819397
  0
LINE
  5
539
100
AcDbEntity
  8
0
100
AcDbLine
 62
7
  6
CONTINUOUS
 10
2.6815326753
 20
-16.5790539221
 11
2.6815326753
 21
-18.5208065713
  0
LINE
  5
53A
100
AcDbEntity
  8
ASSI
100
AcDbLine
 62
7
  6
CONTINUOUS
 10
2.6815326753
 20
-16.5790539221
 11
2.6815326753
 21
-18.5208065713
  0
LINE
  5
53B
100
AcDbEntity
  8
0
100
AcDbLine
 62
7
  6
CONTINUOUS
 10
3.0812528557
 20
22.2
 11
3.0812528557
 21
21.1703266555
  0
LINE
  5
53C
100
AcDbEntity
  8
0
100
AcDbLine
 62
7
  6
CONTINUOUS
 10
3.0812528557
 20
-22.2
 11
3.0812528557
 21
-21.1703266555
  0
LINE
  5
53D
100
AcDbEntity
  8
RACCORDO
100
AcDbLine
 62
250
  6
CONTINUOUS
 10
3.1705494094
 20
-21.8921572875
 11
3.1705494094
 21
-21.1786396002
  0
LINE
  5
53E
100
AcDbEntity
  8
RACCORDO
100
AcDbLine
 62
250
  6
CONTINUOUS
 10
3.1705494094
 20
21.1786396002
 11
3.1705494094
 21
21.8921572875
  0
LINE
  5
53F
100
AcDbEntity
  8
RACCORDO
100
AcDbLine
 62
7
  6
CONTINUOUS
 10
3.230158461
 20
23.175
 11
3.230158461
 21
22.5048155586
  0
LINE
  5
540
100
AcDbEntity
  8
RACCORDO
100
AcDbLine
 62
7
  6
CONTINUOUS
 10
3.230158461
 20
-22.5048155586
 11
3.230158461
 21
-23.175
  0
LINE
  5
541
100
AcDbEntity
  8
CURVE
100
AcDbLine
 62
250
  6
CONTINUOUS
 10
3.2473554315
 20
6.7461990366
 11
3.2473554315
 21
6.8390561352
  0
LINE
  5
542
100
AcDbEntity
  8
CURVE
100
AcDbLine
 62
250
  6
CONTINUOUS
 10
3.2473554315
 20
9.7176277409
 11
3.2473554315
 21
9.8104848395
  0
LINE
  5
543
100
AcDbEntity
  8
CURVE
100
AcDbLine
 62
250
  6
CONTINUOUS
 10
3.2473554315
 20
10.7390564451
 11
3.2473554315
 21
10.8319132338
  0
LINE
  5
544
100
AcDbEntity
  8
CURVE
100
AcDbLine
 62
250
  6
CONTINUOUS
 10
3.2473554315
 20
15.1033416281
 11
3.2473554315
 21
15.6604848395
  0
LINE
  5
545
100
AcDbEntity
  8
ASSI
100
AcDbLine
 62
7
  6
CONTINUOUS
 10
3.3
 20
22.4
 11
3.3
 21
21.9098076211
  0
LINE
  5
546
100
AcDbEntity
  8
RACCORDO
100
AcDbLine
 62
7
  6
CONTINUOUS
 10
3.3
 20
21.3901923789
 11
3.3
 21
21.190690632
  0
LINE
  5
547
100
AcDbEntity
  8
RACCORDO
100
AcDbLine
 62
7
  6
CONTINUOUS
 10
3.3
 20
-21.190690632
 11
3.3
 21
-21.3901923789
  0
LINE
  5
548
100
AcDbEntity
  8
ASSI
100
AcDbLine
 62
7
  6
CONTINUOUS
 10
3.3
 20
-21.9098076211
 11
3.3
 21
-22.4
  0
LINE
  5
549
100
AcDbEntity
  8
ASSI
100
AcDbLine
 62
7
  6
CONTINUOUS
 10
3.3633443637
 20
-22.5
 11
3.3633443637
 21
-23.4668353766
  0
LINE
  5
54A
100
AcDbEntity
  8
ASSI
100
AcDbLine
 62
7
  6
CONTINUOUS
 10
3.3633443637
 20
22.5
 11
3.3633443637
 21
23.4668353766
  0
LINE
  5
54B
100
AcDbEntity
  8
ASSI
100
AcDbLine
 62
7
  6
CONTINUOUS
 10
3.4
 20
23.4301797403
 11
3.4
 21
21.2
  0
LINE
  5
54C
100
AcDbEntity
  8
ASSI
100
AcDbLine
 62
7
  6
CONTINUOUS
 10
3.4
 20
-23.4301797403
 11
3.4
 21
-21.2
  0
LINE
  5
54D
100
AcDbEntity
  8
RACCORDO
100
AcDbLine
 62
7
  6
CONTINUOUS
 10
3.2301861319
 20
21.5605968482
 11
3.2302392996
 21
21.7527159386
  0
LINE
  5
54E
100
AcDbEntity
  8
RACCORDO
100
AcDbLine
 62
7
  6
CONTINUOUS
 10
3.2301861319
 20
-21.7394031518
 11
3.2302392996
 21
-21.5472840614
  0
LINE
  5
54F
100
AcDbEntity
  8
RACCORDO
100
AcDbLine
 62
7
  6
CONTINUOUS
 10
3.2302392996
 20
21.7527159386
 11
3.2304371978
 21
21.7834465185
  0
LINE
  5
550
100
AcDbEntity
  8
RACCORDO
100
AcDbLine
 62
7
  6
CONTINUOUS
 10
3.2302392996
 20
-21.5472840614
 11
3.2304371978
 21
-21.5165534815
  0
LINE
  5
551
100
AcDbEntity
  8
RACCORDO
100
AcDbLine
 62
7
  6
CONTINUOUS
 10
3.2304371978
 20
21.7834465185
 11
3.2307821776
 21
21.8136326566
  0
LINE
  5
552
100
AcDbEntity
  8
RACCORDO
100
AcDbLine
 62
7
  6
CONTINUOUS
 10
3.2304371978
 20
-21.5165534815
 11
3.2307821776
 21
-21.4863673434
  0
LINE
  5
553
100
AcDbEntity
  8
RACCORDO
100
AcDbLine
 62
7
  6
CONTINUOUS
 10
3.2307821776
 20
21.8136326566
 11
3.231281385
 21
21.8422852739
  0
LINE
  5
554
100
AcDbEntity
  8
RACCORDO
100
AcDbLine
 62
7
  6
CONTINUOUS
 10
3.2307821776
 20
-21.4863673434
 11
3.231281385
 21
-21.4577147261
  0
LWPOLYLINE
  5
555
100
AcDbEntity
  8
RACCORDO
100
AcDbPolyline
 62
7
  6
CONTINUOUS
 90
12
 70
0
 10
3.231281385
 20
21.8422852739
 10
3.2319318638
 20
21.8682760567
 10
3.2323069457
 20
21.880025096
 10
3.23271029
 20
21.8907938977
 10
3.2331449594
 20
21.9006403771
 10
3.2336144326
 20
21.9094640173
 10
3.2341208504
 20
21.9173668853
 10
3.234662072
 20
21.9242469142
 10
3.2352351536
 20
21.9296973858
 10
3.235839114
 20
21.9335827276
 10
3.2364749344
 20
21.9360385121
 10
3.2371426149
 20
21.9370647395
  0
LINE
  5
556
100
AcDbEntity
  8
RACCORDO
100
AcDbLine
 62
250
  6
CONTINUOUS
 10
2.9765077582
 20
22.2007145431
 11
3.01751471
 21
23.375
  0
LINE
  5
557
100
AcDbEntity
  8
RACCORDO
100
AcDbLine
 62
250
  6
CONTINUOUS
 10
3.1705494094
 20
21.8921572875
 11
3.2153472641
 21
23.175
  0
LINE
  5
558
100
AcDbEntity
  8
ASSI
100
AcDbLine
 62
250
  6
CONTINUOUS
 10
-4.2275426698
 20
-23.3333596575
 11
-4.2071270357
 21
-23.2631073618
  0
LINE
  5
559
100
AcDbEntity
  8
ASSI
100
AcDbLine
 62
250
  6
CONTINUOUS
 10
-3.6748574782
 20
-23.5
 11
-3.653791075
 21
-23.4301797403
  0
LINE
  5
55A
100
AcDbEntity
  8
CURVE
100
AcDbLine
 62
250
  6
CONTINUOUS
 10
-10.1142857254
 20
-11.4523809671
 11
-10.3
 21
-11.6071429014
  0
LINE
  5
55B
100
AcDbEntity
  8
IMPORT_IGES
100
AcDbLine
 62
7
  6
CONTINUOUS
 10
-4.25
 20
2.25
 11
-0.25
 21
2.25
  0
LINE
  5
55C
100
AcDbEntity
  8
SMUSSO
100
AcDbLine
 62
7
  6
CONTINUOUS
 10
-4.25
 20
3.0
 11
-0.25
 21
3.0
  0
LINE
  5
55D
100
AcDbEntity
  8
ASSI
100
AcDbLine
 62
7
  6
CONTINUOUS
 10
-4.25
 20
3.0
 11
-0.25
 21
3.0
  0
LINE
  5
55E
100
AcDbEntity
  8
RACCORDO
100
AcDbLine
 62
7
  6
CONTINUOUS
 10
10.7130788782
 20
3.15
 11
9.8
 21
3.15
  0
LINE
  5
55F
100
AcDbEntity
  8
ASSI
100
AcDbLine
 62
7
  6
CONTINUOUS
 10
10.7130788782
 20
3.15
 11
9.8
 21
3.15
  0
LINE
  5
560
100
AcDbEntity
  8
SMUSSO
100
AcDbLine
 62
7
  6
CONTINUOUS
 10
-4.75
 20
3.5
 11
0.25
 21
3.5
  0
LINE
  5
561
100
AcDbEntity
  8
ASSI
100
AcDbLine
 62
7
  6
CONTINUOUS
 10
-4.75
 20
3.5
 11
0.25
 21
3.5
  0
LINE
  5
562
100
AcDbEntity
  8
CURVE
100
AcDbLine
 62
250
  6
CONTINUOUS
 10
4.9546971341
 20
3.5
 11
4.3712122731
 21
3.5
  0
LINE
  5
563
100
AcDbEntity
  8
CURVE
100
AcDbLine
 62
250
  6
CONTINUOUS
 10
-2.3357142568
 20
4.3446471135
 11
-1.85
 21
4.1017899598
  0
LINE
  5
564
100
AcDbEntity
  8
CURVE
100
AcDbLine
 62
250
  6
CONTINUOUS
 10
-1.0
 20
4.7089328314
 11
-1.2428571537
 21
4.9517899598
  0
LINE
  5
565
100
AcDbEntity
  8
ASSI
100
AcDbLine
 62
250
  6
CONTINUOUS
 10
-3.6748574782
 20
23.5
 11
-3.653791075
 21
23.4301797403
  0
LINE
  5
566
100
AcDbEntity
  8
ASSI
100
AcDbLine
 62
250
  6
CONTINUOUS
 10
-4.2275426698
 20
23.3333596575
 11
-4.2071270357
 21
23.2631073618
  0
LWPOLYLINE
  5
567
100
AcDbEntity
  8
RACCORDO
100
AcDbPolyline
 62
7
  6
CONTINUOUS
 90
13
 70
0
 10
3.2153472641
 20
23.175
 10
3.2131150485
 20
23.2023154886
 10
3.2073236856
 20
23.2285494758
 10
3.1982225069
 20
23.2533879651
 10
3.1861669605
 20
23.2765578149
 10
3.1714546095
 20
23.2978303483
 10
3.1542040554
 20
23.3169684264
 10
3.1345623134
 20
23.3338308467
 10
3.1129854998
 20
23.3481301358
 10
3.0900559384
 20
23.3594581838
 10
3.0662655766
 20
23.3676758504
 10
3.0419540136
 20
23.3728513467
 10
3.01751471
 20
23.375
  0
LINE
  5
568
100
AcDbEntity
  8
RACCORDO
100
AcDbLine
 62
7
  6
CONTINUOUS
 10
3.2320105844
 20
21.4291186386
 11
3.2313419064
 21
21.4548888189
  0
LINE
  5
569
100
AcDbEntity
  8
CURVE
100
AcDbLine
 62
250
  6
CONTINUOUS
 10
3.8044982555
 20
15.4747706423
 11
3.8044982555
 21
15.1033416281
  0
LINE
  5
56A
100
AcDbEntity
  8
RACCORDO
100
AcDbLine
 62
7
  6
CONTINUOUS
 10
4.0130903017
 20
19.3131017248
 11
4.0130903017
 21
18.2130903017
  0
LINE
  5
56B
100
AcDbEntity
  8
ASSI
100
AcDbLine
 62
7
  6
CONTINUOUS
 10
4.0130903017
 20
19.3131017248
 11
4.0130903017
 21
18.2130903017
  0
LINE
  5
56C
100
AcDbEntity
  8
RACCORDO
100
AcDbLine
 62
7
  6
CONTINUOUS
 10
4.0130903017
 20
-19.3131017248
 11
4.0130903017
 21
-18.5130788786
  0
LINE
  5
56D
100
AcDbEntity
  8
ASSI
100
AcDbLine
 62
7
  6
CONTINUOUS
 10
4.0130903017
 20
-19.3131017248
 11
4.0130903017
 21
-18.5130788786
  0
LINE
  5
56E
100
AcDbEntity
  8
CURVE
100
AcDbLine
 62
250
  6
CONTINUOUS
 10
4.0830697062
 20
7.4890561352
 11
4.0830697062
 21
8.0461990366
  0
LINE
  5
56F
100
AcDbEntity
  8
CURVE
100
AcDbLine
 62
250
  6
CONTINUOUS
 10
4.2687840002
 20
9.0676277409
 11
4.2687840002
 21
8.4176277409
  0
LINE
  5
570
100
AcDbEntity
  8
CURVE
100
AcDbLine
 62
250
  6
CONTINUOUS
 10
4.2687840002
 20
6.0961990366
 11
4.2687840002
 21
5.4461990366
  0
LINE
  5
571
100
AcDbEntity
  8
CURVE
100
AcDbLine
 62
250
  6
CONTINUOUS
 10
4.3712122731
 20
3.5
 11
4.3712122731
 21
4.3
  0
LINE
  5
572
100
AcDbEntity
  8
CURVE
100
AcDbLine
 62
250
  6
CONTINUOUS
 10
4.5473554315
 20
10.8319132338
 11
4.5473554315
 21
10.7390564451
  0
LINE
  5
573
100
AcDbEntity
  8
CURVE
100
AcDbLine
 62
250
  6
CONTINUOUS
 10
4.5473554315
 20
9.8104848395
 11
4.5473554315
 21
9.7176277409
  0
LINE
  5
574
100
AcDbEntity
  8
CURVE
100
AcDbLine
 62
250
  6
CONTINUOUS
 10
4.5473554315
 20
6.8390561352
 11
4.5473554315
 21
6.7461990366
  0
LINE
  5
575
100
AcDbEntity
  8
CURVE
100
AcDbLine
 62
250
  6
CONTINUOUS
 10
4.5473554315
 20
14.2676274309
 11
4.5473554315
 21
14.7319132338
  0
LINE
  5
576
100
AcDbEntity
  8
CURVE
100
AcDbLine
 62
250
  6
CONTINUOUS
 10
4.5473554315
 20
15.1033416281
 11
4.5473554315
 21
15.6604848395
  0
LINE
  5
577
100
AcDbEntity
  8
ASSI
100
AcDbLine
 62
7
  6
CONTINUOUS
 10
4.7
 20
18.7
 11
4.7
 21
18.3
  0
LWPOLYLINE
  5
578
100
AcDbEntity
  8
RACCORDO
100
AcDbPolyline
 62
7
  6
CONTINUOUS
 90
12
 70
0
 10
3.231281385
 20
-21.4577147261
 10
3.2319318638
 20
-21.4317239433
 10
3.2323069457
 20
-21.419974904
 10
3.23271029
 20
-21.4092061023
 10
3.2331449594
 20
-21.3993596229
 10
3.2336144326
 20
-21.3905359827
 10
3.2341208504
 20
-21.3826331147
 10
3.234662072
 20
-21.3757530858
 10
3.2352351536
 20
-21.3703026142
 10
3.235839114
 20
-21.3664172724
 10
3.2364749344
 20
-21.3639614879
 10
3.2371426149
 20
-21.3629352605
  0
LWPOLYLINE
  5
579
100
AcDbEntity
  8
RACCORDO
100
AcDbPolyline
 62
7
  6
CONTINUOUS
 90
13
 70
0
 10
3.2153472641
 20
-23.175
 10
3.2131100496
 20
-23.2020514775
 10
3.2073396162
 20
-23.2283050682
 10
3.1982549228
 20
-23.2533142892
 10
3.1861617001
 20
-23.276613212
 10
3.1713514059
 20
-23.2979354703
 10
3.1540080817
 20
-23.3171599961
 10
3.1344555831
 20
-23.3339738559
 10
3.1130141512
 20
-23.3481421414
 10
3.0897708658
 20
-23.3595767451
 10
3.0649733181
 20
-23.3680348828
 10
3.039098628
 20
-23.3732357558
 10
3.0125761674
 20
-23.375
  0
LINE
  5
57A
100
AcDbEntity
  8
CURVE
100
AcDbLine
 62
250
  6
CONTINUOUS
 10
-7.65
 20
-13.3214285553
 11
-7.3785714447
 21
-13.05
  0
LINE
  5
57B
100
AcDbEntity
  8
SMUSSO
100
AcDbLine
 62
7
  6
CONTINUOUS
 10
-4.75
 20
-11.25
 11
-4.25
 21
-10.75
  0
LINE
  5
57C
100
AcDbEntity
  8
ASSI
100
AcDbLine
 62
7
  6
CONTINUOUS
 10
-4.75
 20
-11.25
 11
-4.25
 21
-10.75
  0
LINE
  5
57D
100
AcDbEntity
  8
SMUSSO
100
AcDbLine
 62
7
  6
CONTINUOUS
 10
0.25
 20
-6.75
 11
-0.25
 21
-7.25
  0
LINE
  5
57E
100
AcDbEntity
  8
ASSI
100
AcDbLine
 62
7
  6
CONTINUOUS
 10
0.25
 20
-6.75
 11
-0.25
 21
-7.25
  0
LINE
  5
57F
100
AcDbEntity
  8
CURVE
100
AcDbLine
 62
250
  6
CONTINUOUS
 10
-7.65
 20
-9.0
 11
-5.75
 21
-8.05
  0
LINE
  5
580
100
AcDbEntity
  8
CURVE
100
AcDbLine
 62
250
  6
CONTINUOUS
 10
-10.1142857254
 20
-10.4928570986
 11
-9.9285714507
 21
-10.4
  0
LINE
  5
581
100
AcDbEntity
  8
CURVE
100
AcDbLine
 62
250
  6
CONTINUOUS
 10
7.0712122731
 20
3.9
 11
7.3712122731
 21
3.9
  0
LINE
  5
582
100
AcDbEntity
  8
CURVE
100
AcDbLine
 62
250
  6
CONTINUOUS
 10
-1.85
 20
4.1017899598
 11
-1.2428571537
 21
4.1017899598
  0
LINE
  5
583
100
AcDbEntity
  8
CURVE
100
AcDbLine
 62
250
  6
CONTINUOUS
 10
-0.5
 20
4.1017899598
 11
1.5
 21
4.1017899598
  0
LINE
  5
584
100
AcDbEntity
  8
CURVE
100
AcDbLine
 62
250
  6
CONTINUOUS
 10
4.3712122731
 20
4.3
 11
4.9546971341
 21
4.3
  0
LINE
  5
585
100
AcDbEntity
  8
CURVE
100
AcDbLine
 62
250
  6
CONTINUOUS
 10
-1.2428571537
 20
4.9517899598
 11
-1.7285714358
 21
4.9517899598
  0
LINE
  5
586
100
AcDbEntity
  8
CURVE
100
AcDbLine
 62
250
  6
CONTINUOUS
 10
-7.1272849049
 20
7.3719747235
 11
-5.9013941147
 21
6.8187252987
  0
LINE
  5
587
100
AcDbEntity
  8
CURVE
100
AcDbLine
 62
250
  6
CONTINUOUS
 10
-4.7198736077
 20
6.2855004023
 11
-3.45
 21
5.7124015748
  0
LINE
  5
588
100
AcDbEntity
  8
CURVE
100
AcDbLine
 62
250
  6
CONTINUOUS
 10
-4.9464807807
 20
7.4505645669
 11
-5.4245268551
 21
7.6810453012
  0
LINE
  5
589
100
AcDbEntity
  8
CURVE
100
AcDbLine
 62
250
  6
CONTINUOUS
 10
-3.45
 20
6.7290675115
 11
-4.0108192328
 21
6.9994550129
  0
LINE
  5
58A
100
AcDbEntity
  8
CURVE
100
AcDbLine
 62
250
  6
CONTINUOUS
 10
-5.089722
 20
11.624378
 11
-10.1
 21
16.56101
  0
LINE
  5
58B
100
AcDbEntity
  8
CURVE
100
AcDbLine
 62
250
  6
CONTINUOUS
 10
5.457512
 20
-8.74959
 11
5.457512
 21
-10.238126
  0
LINE
  5
58C
100
AcDbEntity
  8
ASSI
100
AcDbLine
 62
250
  6
CONTINUOUS
 10
5.7
 20
18.7
 11
5.7
 21
18.3
  0
LINE
  5
58D
100
AcDbEntity
  8
CURVE
100
AcDbLine
 62
250
  6
CONTINUOUS
 10
5.8712122731
 20
2.7
 11
5.8712122731
 21
2.4
  0
LINE
  5
58E
100
AcDbEntity
  8
CURVE
100
AcDbLine
 62
250
  6
CONTINUOUS
 10
5.8712122731
 20
5.1
 11
5.8712122731
 21
5.4
  0
LINE
  5
58F
100
AcDbEntity
  8
CURVE
100
AcDbLine
 62
250
  6
CONTINUOUS
 10
6.222512
 20
-8.74959
 11
6.222512
 21
-10.238126
  0
LINE
  5
590
100
AcDbEntity
  8
CURVE
100
AcDbLine
 62
250
  6
CONTINUOUS
 10
-9.185714294
 20
-10.9571429014
 11
-9.371428588
 21
-11.05
  0
LINE
  5
591
100
AcDbEntity
  8
CURVE
100
AcDbLine
 62
250
  6
CONTINUOUS
 10
-10.3
 20
-10.0285712957
 11
-9.0
 21
-9.6571429014
  0
LINE
  5
592
100
AcDbEntity
  8
CURVE
100
AcDbLine
 62
250
  6
CONTINUOUS
 10
8.5473554315
 20
5.8795323829
 11
7.8973554315
 21
5.8795323829
  0
LINE
  5
593
100
AcDbEntity
  8
CURVE
100
AcDbLine
 62
250
  6
CONTINUOUS
 10
4.5473554315
 20
5.8795323829
 11
3.8973554315
 21
5.8795323829
  0
LINE
  5
594
100
AcDbEntity
  8
CURVE
100
AcDbLine
 62
250
  6
CONTINUOUS
 10
8.1759268435
 20
6.4676275859
 11
7.6187839808
 21
6.4676275859
  0
LINE
  5
595
100
AcDbEntity
  8
CURVE
100
AcDbLine
 62
250
  6
CONTINUOUS
 10
4.1759268435
 20
6.4676275859
 11
3.6187839808
 21
6.4676275859
  0
LINE
  5
596
100
AcDbEntity
  8
CURVE
100
AcDbLine
 62
250
  6
CONTINUOUS
 10
-1.0
 20
6.7732184733
 11
-2.2142857432
 21
6.7732184733
  0
LINE
  5
597
100
AcDbEntity
  8
CURVE
100
AcDbLine
 62
250
  6
CONTINUOUS
 10
3.6187839808
 20
7.1176275859
 11
4.1759268435
 21
7.1176275859
  0
LINE
  5
598
100
AcDbEntity
  8
CURVE
100
AcDbLine
 62
250
  6
CONTINUOUS
 10
7.6187839808
 20
7.1176275859
 11
8.1759268435
 21
7.1176275859
  0
LINE
  5
599
100
AcDbEntity
  8
CURVE
100
AcDbLine
 62
250
  6
CONTINUOUS
 10
4.2687840002
 20
5.4461990366
 11
3.2473554315
 21
5.724770468
  0
LINE
  5
59A
100
AcDbEntity
  8
CURVE
100
AcDbLine
 62
250
  6
CONTINUOUS
 10
6.7197404105
 20
3.0514718626
 11
6.9318724448
 21
2.8393398282
  0
LINE
  5
59B
100
AcDbEntity
  8
CURVE
100
AcDbLine
 62
250
  6
CONTINUOUS
 10
3.4330697062
 20
6.560484762
 11
3.2473554315
 21
6.7461990366
  0
LINE
  5
59C
100
AcDbEntity
  8
DRAFT
100
AcDbLine
 62
7
  6
CONTINUOUS
 10
8.4579943206
 20
-20.3079943206
 11
8.4674550649
 21
-20.85
  0
LINE
  5
59D
100
AcDbEntity
  8
CURVE
100
AcDbLine
 62
250
  6
CONTINUOUS
 10
7.2473554315
 20
8.7890561352
 11
7.2473554315
 21
8.4176277409
  0
LINE
  5
59E
100
AcDbEntity
  8
CURVE
100
AcDbLine
 62
250
  6
CONTINUOUS
 10
7.2473554315
 20
6.7461990366
 11
7.2473554315
 21
6.8390561352
  0
LINE
  5
59F
100
AcDbEntity
  8
CURVE
100
AcDbLine
 62
250
  6
CONTINUOUS
 10
7.2473554315
 20
9.6247703324
 11
7.2473554315
 21
9.7176277409
  0
LINE
  5
5A0
100
AcDbEntity
  8
CURVE
100
AcDbLine
 62
250
  6
CONTINUOUS
 10
7.2473554315
 20
10.6461990366
 11
7.2473554315
 21
10.7390564451
  0
LINE
  5
5A1
100
AcDbEntity
  8
CURVE
100
AcDbLine
 62
250
  6
CONTINUOUS
 10
7.2473554315
 20
14.1747706423
 11
7.2473554315
 21
14.9176274309
  0
LINE
  5
5A2
100
AcDbEntity
  8
CURVE
100
AcDbLine
 62
250
  6
CONTINUOUS
 10
7.2473554315
 20
15.2890564451
 11
7.2473554315
 21
15.8461990366
  0
LINE
  5
5A3
100
AcDbEntity
  8
CURVE
100
AcDbLine
 62
250
  6
CONTINUOUS
 10
7.8044982555
 20
15.6604848395
 11
7.8044982555
 21
15.2890564451
  0
LINE
  5
5A4
100
AcDbEntity
  8
CURVE
100
AcDbLine
 62
250
  6
CONTINUOUS
 10
7.8044982555
 20
8.7890561352
 11
7.8044982555
 21
8.603341938
  0
LINE
  5
5A5
100
AcDbEntity
  8
CURVE
100
AcDbLine
 62
250
  6
CONTINUOUS
 10
8.0830697062
 20
7.4890561352
 11
8.0830697062
 21
8.0461990366
  0
LINE
  5
5A6
100
AcDbEntity
  8
CURVE
100
AcDbLine
 62
250
  6
CONTINUOUS
 10
8.2687840002
 20
6.0961990366
 11
8.2687840002
 21
5.4461990366
  0
LINE
  5
5A7
100
AcDbEntity
  8
RACCORDO
100
AcDbLine
 62
7
  6
CONTINUOUS
 10
8.45
 20
20.3
 11
8.45
 21
19.8972655375
  0
LINE
  5
5A8
100
AcDbEntity
  8
RACCORDO
100
AcDbLine
 62
7
  6
CONTINUOUS
 10
8.45
 20
-20.3
 11
8.45
 21
-19.8972655375
  0
LINE
  5
5A9
100
AcDbEntity
  8
RACCORDO
100
AcDbLine
 62
7
  6
CONTINUOUS
 10
8.4674550649
 20
20.85
 11
8.4674550649
 21
19.8794603859
  0
LINE
  5
5AA
100
AcDbEntity
  8
RACCORDO
100
AcDbLine
 62
7
  6
CONTINUOUS
 10
8.4674550649
 20
-19.8794603859
 11
8.4674550649
 21
-20.85
  0
LINE
  5
5AB
100
AcDbEntity
  8
CURVE
100
AcDbLine
 62
250
  6
CONTINUOUS
 10
8.5473554315
 20
10.7390564451
 11
8.5473554315
 21
10.6461990366
  0
LINE
  5
5AC
100
AcDbEntity
  8
CURVE
100
AcDbLine
 62
250
  6
CONTINUOUS
 10
8.5473554315
 20
9.7176277409
 11
8.5473554315
 21
9.6247703324
  0
LINE
  5
5AD
100
AcDbEntity
  8
CURVE
100
AcDbLine
 62
250
  6
CONTINUOUS
 10
8.5473554315
 20
6.8390561352
 11
8.5473554315
 21
6.7461990366
  0
LINE
  5
5AE
100
AcDbEntity
  8
CURVE
100
AcDbLine
 62
250
  6
CONTINUOUS
 10
8.5473554315
 20
8.4176277409
 11
8.5473554315
 21
8.8819132338
  0
LINE
  5
5AF
100
AcDbEntity
  8
CURVE
100
AcDbLine
 62
250
  6
CONTINUOUS
 10
8.5473554315
 20
15.2890564451
 11
8.5473554315
 21
15.8461990366
  0
LINE
  5
5B0
100
AcDbEntity
  8
DRAFT
100
AcDbLine
 62
7
  6
CONTINUOUS
 10
8.4674550649
 20
20.85
 11
8.4579943206
 21
20.3079943206
  0
LINE
  5
5B1
100
AcDbEntity
  8
ASSI
100
AcDbLine
 62
7
  6
CONTINUOUS
 10
3.4
 20
-22.3297297297
 11
3.3633443637
 21
-22.5
  0
LINE
  5
5B2
100
AcDbEntity
  8
ASSI
100
AcDbLine
 62
7
  6
CONTINUOUS
 10
-2.7167632191
 20
-21.6560705017
 11
-2.9969695968
 21
-22.2
  0
LINE
  5
5B3
100
AcDbEntity
  8
RACCORDO
100
AcDbLine
 62
250
  6
CONTINUOUS
 10
-9.65
 20
-20.4000761524
 11
-9.6412724675
 21
-20.39134862
  0
LINE
  5
5B4
100
AcDbEntity
  8
SMUSSO
100
AcDbLine
 62
7
  6
CONTINUOUS
 10
-4.75
 20
-16.25
 11
-4.25
 21
-15.75
  0
LINE
  5
5B5
100
AcDbEntity
  8
ASSI
100
AcDbLine
 62
7
  6
CONTINUOUS
 10
-4.75
 20
-16.25
 11
-4.25
 21
-15.75
  0
LINE
  5
5B6
100
AcDbEntity
  8
RACCORDO
100
AcDbLine
 62
250
  6
CONTINUOUS
 10
-9.1500761524
 20
-20.9
 11
-9.14134862
 21
-20.8912724675
  0
LINE
  5
5B7
100
AcDbEntity
  8
DRAFT
100
AcDbLine
 62
7
  6
CONTINUOUS
 10
-8.4579943206
 20
-20.3079943206
 11
-8.45
 21
-20.3
  0
LINE
  5
5B8
100
AcDbEntity
  8
SMUSSO
100
AcDbLine
 62
7
  6
CONTINUOUS
 10
0.25
 20
-11.75
 11
-0.25
 21
-12.25
  0
LINE
  5
5B9
100
AcDbEntity
  8
ASSI
100
AcDbLine
 62
7
  6
CONTINUOUS
 10
0.25
 20
-11.75
 11
-0.25
 21
-12.25
  0
LINE
  5
5BA
100
AcDbEntity
  8
CURVE
100
AcDbLine
 62
250
  6
CONTINUOUS
 10
-2.2142857432
 20
7.2994089688
 11
-1.0
 21
7.2994089688
  0
LINE
  5
5BB
100
AcDbEntity
  8
CURVE
100
AcDbLine
 62
250
  6
CONTINUOUS
 10
-2.0928571284
 20
7.8660755004
 11
-1.0
 21
7.8660755004
  0
LINE
  5
5BC
100
AcDbEntity
  8
CURVE
100
AcDbLine
 62
250
  6
CONTINUOUS
 10
-1.0
 20
8.3517899598
 11
-2.2142857432
 21
8.3517899598
  0
LINE
  5
5BD
100
AcDbEntity
  8
CURVE
100
AcDbLine
 62
250
  6
CONTINUOUS
 10
-3.45
 20
8.762401574
 11
-4.4666670313
 21
8.762401574
  0
LINE
  5
5BE
100
AcDbEntity
  8
CURVE
100
AcDbLine
 62
250
  6
CONTINUOUS
 10
-8.5333340618
 20
8.762401574
 11
-9.5499999985
 21
8.762401574
  0
LINE
  5
5BF
100
AcDbEntity
  8
CURVE
100
AcDbLine
 62
250
  6
CONTINUOUS
 10
4.5473554315
 20
8.8509609709
 11
3.8973554315
 21
8.8509609709
  0
LINE
  5
5C0
100
AcDbEntity
  8
CURVE
100
AcDbLine
 62
250
  6
CONTINUOUS
 10
-2.2142857432
 20
8.8779804553
 11
-1.0
 21
8.8779804553
  0
LINE
  5
5C1
100
AcDbEntity
  8
CURVE
100
AcDbLine
 62
250
  6
CONTINUOUS
 10
8.2687840002
 20
5.4461990366
 11
7.2473554315
 21
5.724770468
  0
LINE
  5
5C2
100
AcDbEntity
  8
CURVE
100
AcDbLine
 62
250
  6
CONTINUOUS
 10
3.6187839808
 20
6.4676275859
 11
3.4330697062
 21
6.560484762
  0
LINE
  5
5C3
100
AcDbEntity
  8
CURVE
100
AcDbLine
 62
250
  6
CONTINUOUS
 10
4.1759268435
 20
7.1176275859
 11
4.3616411375
 21
7.0247704873
  0
LINE
  5
5C4
100
AcDbEntity
  8
RACCORDO
100
AcDbLine
 62
250
  6
CONTINUOUS
 10
-9.65
 20
20.4000761524
 11
-9.6412724675
 21
20.39134862
  0
LINE
  5
5C5
100
AcDbEntity
  8
CURVE
100
AcDbLine
 62
250
  6
CONTINUOUS
 10
4.3616411375
 20
7.0247704873
 11
4.5473554315
 21
6.8390561352
  0
LINE
  5
5C6
100
AcDbEntity
  8
RACCORDO
100
AcDbLine
 62
250
  6
CONTINUOUS
 10
-9.1500761524
 20
20.9
 11
-9.14134862
 21
20.8912724675
  0
LINE
  5
5C7
100
AcDbEntity
  8
DRAFT
100
AcDbLine
 62
7
  6
CONTINUOUS
 10
-8.4579943206
 20
20.3079943206
 11
-8.45
 21
20.3
  0
LINE
  5
5C8
100
AcDbEntity
  8
ASSI
100
AcDbLine
 62
7
  6
CONTINUOUS
 10
-2.7167632191
 20
21.6560705017
 11
-2.9969695968
 21
22.2
  0
LINE
  5
5C9
100
AcDbEntity
  8
ASSI
100
AcDbLine
 62
7
  6
CONTINUOUS
 10
3.4
 20
22.3297297297
 11
3.3633443637
 21
22.5
  0
LWPOLYLINE
  5
5CA
100
AcDbEntity
  8
RACCORDO
100
AcDbPolyline
 62
250
  6
CONTINUOUS
 90
10
 70
0
 10
10.645919053
 20
-15.7357531939
 10
10.647150589
 20
-15.8199177241
 10
10.6484443829
 20
-15.8953115874
 10
10.6497829029
 20
-15.9615727399
 10
10.6511673737
 20
-16.0183410949
 10
10.6525965705
 20
-16.0652842494
 10
10.6540492869
 20
-16.1021294744
 10
10.6555184539
 20
-16.128644946
 10
10.6570111405
 20
-16.14464577
 10
10.6585273466
 20
-16.15
  0
LWPOLYLINE
  5
5CB
100
AcDbEntity
  8
ASSI
100
AcDbPolyline
 62
250
  6
CONTINUOUS
 90
10
 70
0
 10
10.645919053
 20
-15.7357531939
 10
10.647150589
 20
-15.8199177241
 10
10.6484443829
 20
-15.8953115874
 10
10.6497829029
 20
-15.9615727399
 10
10.6511673737
 20
-16.0183410949
 10
10.6525965705
 20
-16.0652842494
 10
10.6540492869
 20
-16.1021294744
 10
10.6555184539
 20
-16.128644946
 10
10.6570111405
 20
-16.14464577
 10
10.6585273466
 20
-16.15
  0
LWPOLYLINE
  5
5CC
100
AcDbEntity
  8
RACCORDO
100
AcDbPolyline
 62
250
  6
CONTINUOUS
 90
10
 70
0
 10
10.6459190192
 20
-10.7357507149
 10
10.6471505549
 20
-10.8199155765
 10
10.6484443494
 20
-10.8953097947
 10
10.6497828725
 20
-10.9615713764
 10
10.6511670325
 20
-11.0183402648
 10
10.6525959211
 20
-11.0652838999
 10
10.6540492831
 20
-11.1021293927
 10
10.6555203668
 20
-11.1286449494
 10
10.6570159239
 20
-11.1446457809
 10
10.6585359545
 20
-11.15
  0
LWPOLYLINE
  5
5CD
100
AcDbEntity
  8
ASSI
100
AcDbPolyline
 62
250
  6
CONTINUOUS
 90
10
 70
0
 10
10.6459190192
 20
-10.7357507149
 10
10.6471505549
 20
-10.8199155765
 10
10.6484443494
 20
-10.8953097947
 10
10.6497828725
 20
-10.9615713764
 10
10.6511670325
 20
-11.0183402648
 10
10.6525959211
 20
-11.0652838999
 10
10.6540492831
 20
-11.1021293927
 10
10.6555203668
 20
-11.1286449494
 10
10.6570159239
 20
-11.1446457809
 10
10.6585359545
 20
-11.15
  0
LWPOLYLINE
  5
5CE
100
AcDbEntity
  8
RACCORDO
100
AcDbPolyline
 62
250
  6
CONTINUOUS
 90
10
 70
0
 10
10.6459190192
 20
-5.7357507149
 10
10.6471505549
 20
-5.8199155765
 10
10.6484443494
 20
-5.8953097947
 10
10.6497828725
 20
-5.9615713764
 10
10.6511670325
 20
-6.0183402648
 10
10.6525959211
 20
-6.0652838999
 10
10.6540492831
 20
-6.1021293927
 10
10.6555203668
 20
-6.1286449494
 10
10.6570159239
 20
-6.1446457809
 10
10.6585359545
 20
-6.15
  0
LWPOLYLINE
  5
5CF
100
AcDbEntity
  8
ASSI
100
AcDbPolyline
 62
250
  6
CONTINUOUS
 90
10
 70
0
 10
10.6459190192
 20
-5.7357507149
 10
10.6471505549
 20
-5.8199155765
 10
10.6484443494
 20
-5.8953097947
 10
10.6497828725
 20
-5.9615713764
 10
10.6511670325
 20
-6.0183402648
 10
10.6525959211
 20
-6.0652838999
 10
10.6540492831
 20
-6.1021293927
 10
10.6555203668
 20
-6.1286449494
 10
10.6570159239
 20
-6.1446457809
 10
10.6585359545
 20
-6.15
  0
LWPOLYLINE
  5
5D0
100
AcDbEntity
  8
RACCORDO
100
AcDbPolyline
 62
250
  6
CONTINUOUS
 90
10
 70
0
 10
10.6459190192
 20
-0.7357507149
 10
10.6471505549
 20
-0.8199155765
 10
10.6484443494
 20
-0.8953097947
 10
10.6497828725
 20
-0.9615713764
 10
10.6511670325
 20
-1.0183402648
 10
10.6525959211
 20
-1.0652838999
 10
10.6540492831
 20
-1.1021293927
 10
10.6555203668
 20
-1.1286449494
 10
10.6570159239
 20
-1.1446457809
 10
10.6585359545
 20
-1.15
  0
LWPOLYLINE
  5
5D1
100
AcDbEntity
  8
ASSI
100
AcDbPolyline
 62
250
  6
CONTINUOUS
 90
10
 70
0
 10
10.6459190192
 20
-0.7357507149
 10
10.6471505549
 20
-0.8199155765
 10
10.6484443494
 20
-0.8953097947
 10
10.6497828725
 20
-0.9615713764
 10
10.6511670325
 20
-1.0183402648
 10
10.6525959211
 20
-1.0652838999
 10
10.6540492831
 20
-1.1021293927
 10
10.6555203668
 20
-1.1286449494
 10
10.6570159239
 20
-1.1446457809
 10
10.6585359545
 20
-1.15
  0
LINE
  5
5D2
100
AcDbEntity
  8
RACCORDO
100
AcDbLine
 62
250
  6
CONTINUOUS
 10
10.6436445534
 20
-15.5428988504
 11
10.645919053
 21
-15.7357531939
  0
LINE
  5
5D3
100
AcDbEntity
  8
ASSI
100
AcDbLine
 62
250
  6
CONTINUOUS
 10
10.6436445534
 20
-15.5428988504
 11
10.645919053
 21
-15.7357531939
  0
LINE
  5
5D4
100
AcDbEntity
  8
RACCORDO
100
AcDbLine
 62
250
  6
CONTINUOUS
 10
10.6436445193
 20
-10.5428954306
 11
10.6459190192
 21
-10.7357507149
  0
LINE
  5
5D5
100
AcDbEntity
  8
ASSI
100
AcDbLine
 62
250
  6
CONTINUOUS
 10
10.6436445193
 20
-10.5428954306
 11
10.6459190192
 21
-10.7357507149
  0
LINE
  5
5D6
100
AcDbEntity
  8
RACCORDO
100
AcDbLine
 62
250
  6
CONTINUOUS
 10
10.6436445193
 20
-5.5428954306
 11
10.6459190192
 21
-5.7357507149
  0
LINE
  5
5D7
100
AcDbEntity
  8
ASSI
100
AcDbLine
 62
250
  6
CONTINUOUS
 10
10.6436445193
 20
-5.5428954306
 11
10.6459190192
 21
-5.7357507149
  0
LINE
  5
5D8
100
AcDbEntity
  8
RACCORDO
100
AcDbLine
 62
250
  6
CONTINUOUS
 10
10.6436445193
 20
-0.5428954306
 11
10.6459190192
 21
-0.7357507149
  0
LINE
  5
5D9
100
AcDbEntity
  8
ASSI
100
AcDbLine
 62
250
  6
CONTINUOUS
 10
10.6436445193
 20
-0.5428954306
 11
10.6459190192
 21
-0.7357507149
  0
LINE
  5
5DA
100
AcDbEntity
  8
RACCORDO
100
AcDbLine
 62
250
  6
CONTINUOUS
 10
10.6416645381
 20
-15.3204412778
 11
10.6436445534
 21
-15.5428988504
  0
LINE
  5
5DB
100
AcDbEntity
  8
ASSI
100
AcDbLine
 62
250
  6
CONTINUOUS
 10
10.6416645381
 20
-15.3204412778
 11
10.6436445534
 21
-15.5428988504
  0
LINE
  5
5DC
100
AcDbEntity
  8
RACCORDO
100
AcDbLine
 62
250
  6
CONTINUOUS
 10
10.6416645212
 20
-10.3204393538
 11
10.6436445193
 21
-10.5428954306
  0
LINE
  5
5DD
100
AcDbEntity
  8
ASSI
100
AcDbLine
 62
250
  6
CONTINUOUS
 10
10.6416645212
 20
-10.3204393538
 11
10.6436445193
 21
-10.5428954306
  0
LINE
  5
5DE
100
AcDbEntity
  8
RACCORDO
100
AcDbLine
 62
250
  6
CONTINUOUS
 10
10.6416645212
 20
-5.3204393538
 11
10.6436445193
 21
-5.5428954306
  0
LINE
  5
5DF
100
AcDbEntity
  8
ASSI
100
AcDbLine
 62
250
  6
CONTINUOUS
 10
10.6416645212
 20
-5.3204393538
 11
10.6436445193
 21
-5.5428954306
  0
LINE
  5
5E0
100
AcDbEntity
  8
RACCORDO
100
AcDbLine
 62
250
  6
CONTINUOUS
 10
10.6416645212
 20
-0.3204393538
 11
10.6436445193
 21
-0.5428954306
  0
LINE
  5
5E1
100
AcDbEntity
  8
ASSI
100
AcDbLine
 62
250
  6
CONTINUOUS
 10
10.6416645212
 20
-0.3204393538
 11
10.6436445193
 21
-0.5428954306
  0
LINE
  5
5E2
100
AcDbEntity
  8
RACCORDO
100
AcDbLine
 62
250
  6
CONTINUOUS
 10
10.6400058155
 20
-15.0725918442
 11
10.6416645381
 21
-15.3204412778
  0
LINE
  5
5E3
100
AcDbEntity
  8
ASSI
100
AcDbLine
 62
250
  6
CONTINUOUS
 10
10.6400058155
 20
-15.0725918442
 11
10.6416645381
 21
-15.3204412778
  0
LINE
  5
5E4
100
AcDbEntity
  8
RACCORDO
100
AcDbLine
 62
250
  6
CONTINUOUS
 10
10.640005827
 20
-10.0725938599
 11
10.6416645212
 21
-10.3204393538
  0
LINE
  5
5E5
100
AcDbEntity
  8
ASSI
100
AcDbLine
 62
250
  6
CONTINUOUS
 10
10.640005827
 20
-10.0725938599
 11
10.6416645212
 21
-10.3204393538
  0
LINE
  5
5E6
100
AcDbEntity
  8
RACCORDO
100
AcDbLine
 62
250
  6
CONTINUOUS
 10
10.640005827
 20
-5.0725938599
 11
10.6416645212
 21
-5.3204393538
  0
LINE
  5
5E7
100
AcDbEntity
  8
ASSI
100
AcDbLine
 62
250
  6
CONTINUOUS
 10
10.640005827
 20
-5.0725938599
 11
10.6416645212
 21
-5.3204393538
  0
LINE
  5
5E8
100
AcDbEntity
  8
RACCORDO
100
AcDbLine
 62
250
  6
CONTINUOUS
 10
10.640005827
 20
-0.0725938599
 11
10.6416645212
 21
-0.3204393538
  0
LINE
  5
5E9
100
AcDbEntity
  8
ASSI
100
AcDbLine
 62
250
  6
CONTINUOUS
 10
10.640005827
 20
-0.0725938599
 11
10.6416645212
 21
-0.3204393538
  0
LINE
  5
5EA
100
AcDbEntity
  8
RACCORDO
100
AcDbLine
 62
250
  6
CONTINUOUS
 10
10.638705365
 20
-14.8038225125
 11
10.6400058155
 21
-15.0725918442
  0
LINE
  5
5EB
100
AcDbEntity
  8
ASSI
100
AcDbLine
 62
250
  6
CONTINUOUS
 10
10.638705365
 20
-14.8038225125
 11
10.6400058155
 21
-15.0725918442
  0
LINE
  5
5EC
100
AcDbEntity
  8
RACCORDO
100
AcDbLine
 62
250
  6
CONTINUOUS
 10
10.6387053736
 20
-9.8038242726
 11
10.640005827
 21
-10.0725938599
  0
LINE
  5
5ED
100
AcDbEntity
  8
ASSI
100
AcDbLine
 62
250
  6
CONTINUOUS
 10
10.6387053736
 20
-9.8038242726
 11
10.640005827
 21
-10.0725938599
  0
LINE
  5
5EE
100
AcDbEntity
  8
RACCORDO
100
AcDbLine
 62
250
  6
CONTINUOUS
 10
10.6387053736
 20
-4.8038242726
 11
10.640005827
 21
-5.0725938599
  0
LINE
  5
5EF
100
AcDbEntity
  8
ASSI
100
AcDbLine
 62
250
  6
CONTINUOUS
 10
10.6387053736
 20
-4.8038242726
 11
10.640005827
 21
-5.0725938599
  0
LINE
  5
5F0
100
AcDbEntity
  8
RACCORDO
100
AcDbLine
 62
250
  6
CONTINUOUS
 10
10.6387053736
 20
0.1961757274
 11
10.640005827
 21
-0.0725938599
  0
LINE
  5
5F1
100
AcDbEntity
  8
ASSI
100
AcDbLine
 62
250
  6
CONTINUOUS
 10
10.6387053736
 20
0.1961757274
 11
10.640005827
 21
-0.0725938599
  0
LINE
  5
5F2
100
AcDbEntity
  8
RACCORDO
100
AcDbLine
 62
250
  6
CONTINUOUS
 10
10.6377894265
 20
-14.5192542695
 11
10.638705365
 21
-14.8038225125
  0
LINE
  5
5F3
100
AcDbEntity
  8
ASSI
100
AcDbLine
 62
250
  6
CONTINUOUS
 10
10.6377894265
 20
-14.5192542695
 11
10.638705365
 21
-14.8038225125
  0
LINE
  5
5F4
100
AcDbEntity
  8
RACCORDO
100
AcDbLine
 62
250
  6
CONTINUOUS
 10
10.6377894311
 20
-9.5192572656
 11
10.6387053736
 21
-9.8038242726
  0
LINE
  5
5F5
100
AcDbEntity
  8
ASSI
100
AcDbLine
 62
250
  6
CONTINUOUS
 10
10.6377894311
 20
-9.5192572656
 11
10.6387053736
 21
-9.8038242726
  0
LINE
  5
5F6
100
AcDbEntity
  8
RACCORDO
100
AcDbLine
 62
250
  6
CONTINUOUS
 10
10.6377894311
 20
-4.5192572656
 11
10.6387053736
 21
-4.8038242726
  0
LINE
  5
5F7
100
AcDbEntity
  8
ASSI
100
AcDbLine
 62
250
  6
CONTINUOUS
 10
10.6377894311
 20
-4.5192572656
 11
10.6387053736
 21
-4.8038242726
  0
LINE
  5
5F8
100
AcDbEntity
  8
RACCORDO
100
AcDbLine
 62
250
  6
CONTINUOUS
 10
10.6377894311
 20
0.4807427344
 11
10.6387053736
 21
0.1961757274
  0
LINE
  5
5F9
100
AcDbEntity
  8
ASSI
100
AcDbLine
 62
250
  6
CONTINUOUS
 10
10.6377894311
 20
0.4807427344
 11
10.6387053736
 21
0.1961757274
  0
LINE
  5
5FA
100
AcDbEntity
  8
RACCORDO
100
AcDbLine
 62
250
  6
CONTINUOUS
 10
10.6372718538
 20
-14.2243520019
 11
10.6377894265
 21
-14.5192542695
  0
LINE
  5
5FB
100
AcDbEntity
  8
ASSI
100
AcDbLine
 62
250
  6
CONTINUOUS
 10
10.6372718538
 20
-14.2243520019
 11
10.6377894265
 21
-14.5192542695
  0
LINE
  5
5FC
100
AcDbEntity
  8
RACCORDO
100
AcDbLine
 62
250
  6
CONTINUOUS
 10
10.6372718589
 20
-9.2243569571
 11
10.6377894311
 21
-9.5192572656
  0
LINE
  5
5FD
100
AcDbEntity
  8
ASSI
100
AcDbLine
 62
250
  6
CONTINUOUS
 10
10.6372718589
 20
-9.2243569571
 11
10.6377894311
 21
-9.5192572656
  0
LINE
  5
5FE
100
AcDbEntity
  8
RACCORDO
100
AcDbLine
 62
250
  6
CONTINUOUS
 10
10.6372718589
 20
-4.2243569571
 11
10.6377894311
 21
-4.5192572656
  0
LINE
  5
5FF
100
AcDbEntity
  8
ASSI
100
AcDbLine
 62
250
  6
CONTINUOUS
 10
10.6372718589
 20
-4.2243569571
 11
10.6377894311
 21
-4.5192572656
  0
LINE
  5
600
100
AcDbEntity
  8
RACCORDO
100
AcDbLine
 62
250
  6
CONTINUOUS
 10
10.6372718589
 20
0.7756430429
 11
10.6377894311
 21
0.4807427344
  0
LINE
  5
601
100
AcDbEntity
  8
ASSI
100
AcDbLine
 62
250
  6
CONTINUOUS
 10
10.6372718589
 20
0.7756430429
 11
10.6377894311
 21
0.4807427344
  0
LINE
  5
602
100
AcDbEntity
  8
0
100
AcDbLine
 62
250
  6
CONTINUOUS
 10
9.2
 20
18.7
 11
9.2
 21
18.3
  0
LINE
  5
603
100
AcDbEntity
  8
RACCORDO
100
AcDbLine
 62
7
  6
CONTINUOUS
 10
9.6412724675
 20
20.39134862
 11
9.6412724675
 21
18.642060866
  0
LINE
  5
604
100
AcDbEntity
  8
RACCORDO
100
AcDbLine
 62
7
  6
CONTINUOUS
 10
9.6412724675
 20
-20.39134862
 11
9.6412724675
 21
-18.642060866
  0
LINE
  5
605
100
AcDbEntity
  8
RACCORDO
100
AcDbLine
 62
7
  6
CONTINUOUS
 10
9.65
 20
-20.4000761524
 11
9.65
 21
-18.6319979818
  0
LINE
  5
606
100
AcDbEntity
  8
RACCORDO
100
AcDbLine
 62
7
  6
CONTINUOUS
 10
9.65
 20
18.6319979818
 11
9.65
 21
20.4000761524
  0
LINE
  5
607
100
AcDbEntity
  8
ASSI
100
AcDbLine
 62
7
  6
CONTINUOUS
 10
9.8
 20
3.15
 11
9.8
 21
-1.15
  0
LINE
  5
608
100
AcDbEntity
  8
ASSI
100
AcDbLine
 62
7
  6
CONTINUOUS
 10
9.8
 20
-1.85
 11
9.8
 21
-6.15
  0
LINE
  5
609
100
AcDbEntity
  8
ASSI
100
AcDbLine
 62
7
  6
CONTINUOUS
 10
9.8
 20
-6.85
 11
9.8
 21
-11.15
  0
LINE
  5
60A
100
AcDbEntity
  8
ASSI
100
AcDbLine
 62
7
  6
CONTINUOUS
 10
9.8
 20
-11.85
 11
9.8
 21
-16.15
  0
LINE
  5
60B
100
AcDbEntity
  8
ASSI
100
AcDbLine
 62
7
  6
CONTINUOUS
 10
10.6
 20
17.023598877
 11
10.6
 21
17.3
  0
LINE
  5
60C
100
AcDbEntity
  8
RACCORDO
100
AcDbLine
 62
250
  6
CONTINUOUS
 10
10.6371692198
 20
1.0751980423
 11
10.6372718589
 21
0.7756430429
  0
LINE
  5
60D
100
AcDbEntity
  8
ASSI
100
AcDbLine
 62
250
  6
CONTINUOUS
 10
10.6371692198
 20
1.0751980423
 11
10.6372718589
 21
0.7756430429
  0
LINE
  5
60E
100
AcDbEntity
  8
RACCORDO
100
AcDbLine
 62
250
  6
CONTINUOUS
 10
10.6371692198
 20
-8.9248019577
 11
10.6372718589
 21
-9.2243569571
  0
LINE
  5
60F
100
AcDbEntity
  8
ASSI
100
AcDbLine
 62
250
  6
CONTINUOUS
 10
10.6371692198
 20
-8.9248019577
 11
10.6372718589
 21
-9.2243569571
  0
LINE
  5
610
100
AcDbEntity
  8
RACCORDO
100
AcDbLine
 62
250
  6
CONTINUOUS
 10
10.6371692127
 20
-13.9248059537
 11
10.6372718538
 21
-14.2243520019
  0
LINE
  5
611
100
AcDbEntity
  8
ASSI
100
AcDbLine
 62
250
  6
CONTINUOUS
 10
10.6371692127
 20
-13.9248059537
 11
10.6372718538
 21
-14.2243520019
  0
LWPOLYLINE
  5
612
100
AcDbEntity
  8
RACCORDO
100
AcDbPolyline
 62
250
  6
CONTINUOUS
 90
3
 70
0
 10
10.637272292
 20
-3.7752332117
 10
10.6371692198
 20
-3.9248019577
 10
10.6372718589
 20
-4.2243569571
  0
LWPOLYLINE
  5
613
100
AcDbEntity
  8
ASSI
100
AcDbPolyline
 62
250
  6
CONTINUOUS
 90
3
 70
0
 10
10.637272292
 20
-3.7752332117
 10
10.6371692198
 20
-3.9248019577
 10
10.6372718589
 20
-4.2243569571
  0
LINE
  5
614
100
AcDbEntity
  8
RACCORDO
100
AcDbLine
 62
250
  6
CONTINUOUS
 10
10.6374799304
 20
1.3731571526
 11
10.6371692198
 21
1.0751980423
  0
LINE
  5
615
100
AcDbEntity
  8
ASSI
100
AcDbLine
 62
250
  6
CONTINUOUS
 10
10.6374799304
 20
1.3731571526
 11
10.6371692198
 21
1.0751980423
  0
LINE
  5
616
100
AcDbEntity
  8
RACCORDO
100
AcDbLine
 62
250
  6
CONTINUOUS
 10
10.63819911
 20
1.6636171596
 11
10.6374799304
 21
1.3731571526
  0
LINE
  5
617
100
AcDbEntity
  8
ASSI
100
AcDbLine
 62
250
  6
CONTINUOUS
 10
10.63819911
 20
1.6636171596
 11
10.6374799304
 21
1.3731571526
  0
LINE
  5
618
100
AcDbEntity
  8
RACCORDO
100
AcDbLine
 62
250
  6
CONTINUOUS
 10
10.6393131867
 20
1.9409381301
 11
10.63819911
 21
1.6636171596
  0
LINE
  5
619
100
AcDbEntity
  8
ASSI
100
AcDbLine
 62
250
  6
CONTINUOUS
 10
10.6393131867
 20
1.9409381301
 11
10.63819911
 21
1.6636171596
  0
LINE
  5
61A
100
AcDbEntity
  8
RACCORDO
100
AcDbLine
 62
250
  6
CONTINUOUS
 10
10.640793427
 20
2.1998462051
 11
10.6393131867
 21
1.9409381301
  0
LINE
  5
61B
100
AcDbEntity
  8
ASSI
100
AcDbLine
 62
250
  6
CONTINUOUS
 10
10.640793427
 20
2.1998462051
 11
10.6393131867
 21
1.9409381301
  0
LINE
  5
61C
100
AcDbEntity
  8
RACCORDO
100
AcDbLine
 62
250
  6
CONTINUOUS
 10
10.6426188118
 20
2.4354831661
 11
10.640793427
 21
2.1998462051
  0
LINE
  5
61D
100
AcDbEntity
  8
ASSI
100
AcDbLine
 62
250
  6
CONTINUOUS
 10
10.6426188118
 20
2.4354831661
 11
10.640793427
 21
2.1998462051
  0
LWPOLYLINE
  5
61E
100
AcDbEntity
  8
RACCORDO
100
AcDbPolyline
 62
250
  6
CONTINUOUS
 90
9
 70
0
 10
10.6540508441
 20
3.1021628602
 10
10.6525979664
 20
3.0653431812
 10
10.6511695357
 20
3.0184321774
 10
10.6497857557
 20
2.9617007353
 10
10.6484475217
 20
2.8954799106
 10
10.6471539385
 20
2.8201287863
 10
10.6459225242
 20
2.7360070144
 10
10.6447541673
 20
2.6435515895
 10
10.6426188118
 20
2.4354831661
  0
LWPOLYLINE
  5
61F
100
AcDbEntity
  8
ASSI
100
AcDbPolyline
 62
250
  6
CONTINUOUS
 90
9
 70
0
 10
10.6540508441
 20
3.1021628602
 10
10.6525979664
 20
3.0653431812
 10
10.6511695357
 20
3.0184321774
 10
10.6497857557
 20
2.9617007353
 10
10.6484475217
 20
2.8954799106
 10
10.6471539385
 20
2.8201287863
 10
10.6459225242
 20
2.7360070144
 10
10.6447541673
 20
2.6435515895
 10
10.6426188118
 20
2.4354831661
  0
LWPOLYLINE
  5
620
100
AcDbEntity
  8
RACCORDO
100
AcDbPolyline
 62
250
  6
CONTINUOUS
 90
4
 70
0
 10
10.6585359545
 20
3.15
 10
10.6570164708
 20
3.1446495539
 10
10.655521434
 20
3.1286599447
 10
10.6540508441
 20
3.1021628602
  0
LWPOLYLINE
  5
621
100
AcDbEntity
  8
ASSI
100
AcDbPolyline
 62
250
  6
CONTINUOUS
 90
4
 70
0
 10
10.6585359545
 20
3.15
 10
10.6570164708
 20
3.1446495539
 10
10.655521434
 20
3.1286599447
 10
10.6540508441
 20
3.1021628602
  0
LINE
  5
622
100
AcDbEntity
  8
CURVE
100
AcDbLine
 62
250
  6
CONTINUOUS
 10
7.2473554315
 20
11.3890564451
 11
8.5473554315
 21
11.6676274309
  0
LINE
  5
623
100
AcDbEntity
  8
CURVE
100
AcDbLine
 62
250
  6
CONTINUOUS
 10
3.2473554315
 20
11.4819132338
 11
4.5473554315
 21
11.7604848395
  0
LINE
  5
624
100
AcDbEntity
  8
CURVE
100
AcDbLine
 62
250
  6
CONTINUOUS
 10
7.7116411569
 20
8.9438180695
 11
7.4330697062
 21
8.9438180695
  0
LINE
  5
625
100
AcDbEntity
  8
CURVE
100
AcDbLine
 62
250
  6
CONTINUOUS
 10
8.4544982845
 20
8.9747703324
 11
7.9902125689
 21
8.9747703324
  0
LINE
  5
626
100
AcDbEntity
  8
CURVE
100
AcDbLine
 62
250
  6
CONTINUOUS
 10
8.1759268435
 20
9.3461990366
 11
7.6187839808
 21
9.3461990366
  0
LINE
  5
627
100
AcDbEntity
  8
CURVE
100
AcDbLine
 62
250
  6
CONTINUOUS
 10
4.1759268435
 20
9.4390561352
 11
3.6187839808
 21
9.4390561352
  0
LINE
  5
628
100
AcDbEntity
  8
CURVE
100
AcDbLine
 62
250
  6
CONTINUOUS
 10
-2.0928571284
 20
9.4446469869
 11
-1.0
 21
9.4446469869
  0
LINE
  5
629
100
AcDbEntity
  8
CURVE
100
AcDbLine
 62
250
  6
CONTINUOUS
 10
7.6187839808
 20
9.9961990366
 11
8.1759268435
 21
9.9961990366
  0
LINE
  5
62A
100
AcDbEntity
  8
CURVE
100
AcDbLine
 62
250
  6
CONTINUOUS
 10
3.6187839808
 20
10.0890561352
 11
4.1759268435
 21
10.0890561352
  0
LINE
  5
62B
100
AcDbEntity
  8
CURVE
100
AcDbLine
 62
250
  6
CONTINUOUS
 10
-1.0
 20
10.1017899598
 11
2.0
 21
10.1017899598
  0
LINE
  5
62C
100
AcDbEntity
  8
CURVE
100
AcDbLine
 62
250
  6
CONTINUOUS
 10
8.1759268435
 20
10.3676277409
 11
7.6187839808
 21
10.3676277409
  0
LINE
  5
62D
100
AcDbEntity
  8
CURVE
100
AcDbLine
 62
250
  6
CONTINUOUS
 10
4.1759268435
 20
10.4604848395
 11
3.6187839808
 21
10.4604848395
  0
LINE
  5
62E
100
AcDbEntity
  8
CURVE
100
AcDbLine
 62
250
  6
CONTINUOUS
 10
4.2687840002
 20
8.4176277409
 11
3.2473554315
 21
8.6961990366
  0
LINE
  5
62F
100
AcDbEntity
  8
CURVE
100
AcDbLine
 62
250
  6
CONTINUOUS
 10
7.6187839808
 20
6.4676275859
 11
7.4330697062
 21
6.560484762
  0
LINE
  5
630
100
AcDbEntity
  8
CURVE
100
AcDbLine
 62
250
  6
CONTINUOUS
 10
8.1759268435
 20
7.1176275859
 11
8.3616411375
 21
7.0247704873
  0
LINE
  5
631
100
AcDbEntity
  8
CURVE
100
AcDbLine
 62
250
  6
CONTINUOUS
 10
3.6187839808
 20
9.4390561352
 11
3.4330697062
 21
9.5319132338
  0
LINE
  5
632
100
AcDbEntity
  8
CURVE
100
AcDbLine
 62
250
  6
CONTINUOUS
 10
3.4330697062
 20
9.5319132338
 11
3.2473554315
 21
9.7176277409
  0
LINE
  5
633
100
AcDbEntity
  8
CURVE
100
AcDbLine
 62
250
  6
CONTINUOUS
 10
3.4330697062
 20
10.553341938
 11
3.2473554315
 21
10.7390564451
  0
LINE
  5
634
100
AcDbEntity
  8
CURVE
100
AcDbLine
 62
250
  6
CONTINUOUS
 10
7.4330697062
 20
6.560484762
 11
7.2473554315
 21
6.7461990366
  0
LINE
  5
635
100
AcDbEntity
  8
CURVE
100
AcDbLine
 62
250
  6
CONTINUOUS
 10
4.3616411375
 20
9.9961990366
 11
4.5473554315
 21
9.8104848395
  0
LWPOLYLINE
  5
636
100
AcDbEntity
  8
RACCORDO
100
AcDbPolyline
 62
7
  6
CONTINUOUS
 90
11
 70
0
 10
-3.2371426149
 20
21.9370647395
 10
-3.2364960555
 20
21.9361245688
 10
-3.2358785591
 20
21.9338165157
 10
-3.2352901257
 20
21.9301405802
 10
-3.2347299433
 20
21.9249831017
 10
-3.2341988239
 20
21.918457741
 10
-3.2336992037
 20
21.9109054795
 10
-3.233232855
 20
21.9024250808
 10
-3.2327980056
 20
21.8929177814
 10
-3.2323917741
 20
21.8824282727
 10
-3.2320105844
 20
21.8708813614
  0
LINE
  5
637
100
AcDbEntity
  8
RACCORDO
100
AcDbLine
 62
7
  6
CONTINUOUS
 10
11.1777453242
 20
0.6666963383
 11
11.1777963279
 21
0.6661475599
  0
LINE
  5
638
100
AcDbEntity
  8
ASSI
100
AcDbLine
 62
7
  6
CONTINUOUS
 10
10.9505007266
 20
-11.2671375469
 11
10.9491010867
 21
-11.1960432517
  0
LINE
  5
639
100
AcDbEntity
  8
ASSI
100
AcDbLine
 62
7
  6
CONTINUOUS
 10
10.9505007266
 20
-6.2671375469
 11
10.9491010867
 21
-6.1960432517
  0
LINE
  5
63A
100
AcDbEntity
  8
ASSI
100
AcDbLine
 62
7
  6
CONTINUOUS
 10
10.9505007266
 20
-1.2671375469
 11
10.9491010867
 21
-1.1960432517
  0
LINE
  5
63B
100
AcDbEntity
  8
RACCORDO
100
AcDbLine
 62
7
  6
CONTINUOUS
 10
10.9505012062
 20
-11.2671381382
 11
10.9488741344
 21
-11.1831787817
  0
LINE
  5
63C
100
AcDbEntity
  8
RACCORDO
100
AcDbLine
 62
7
  6
CONTINUOUS
 10
10.9505012062
 20
-6.2671381382
 11
10.9488741344
 21
-6.1831787817
  0
LINE
  5
63D
100
AcDbEntity
  8
RACCORDO
100
AcDbLine
 62
7
  6
CONTINUOUS
 10
10.9505012062
 20
-1.2671381382
 11
10.9488741344
 21
-1.1831787817
  0
LINE
  5
63E
100
AcDbEntity
  8
ASSI
100
AcDbLine
 62
7
  6
CONTINUOUS
 10
10.9491010867
 20
-11.1960432517
 11
10.9474742789
 21
-11.0946800749
  0
LINE
  5
63F
100
AcDbEntity
  8
ASSI
100
AcDbLine
 62
7
  6
CONTINUOUS
 10
10.9491010867
 20
-6.1960432517
 11
10.9474742789
 21
-6.0946800749
  0
LINE
  5
640
100
AcDbEntity
  8
ASSI
100
AcDbLine
 62
7
  6
CONTINUOUS
 10
10.9491010867
 20
-1.1960432517
 11
10.9474742789
 21
-1.0946800749
  0
LINE
  5
641
100
AcDbEntity
  8
RACCORDO
100
AcDbLine
 62
7
  6
CONTINUOUS
 10
10.9488741344
 20
-11.1831787817
 11
10.9473053453
 21
-11.0828725919
  0
LINE
  5
642
100
AcDbEntity
  8
RACCORDO
100
AcDbLine
 62
7
  6
CONTINUOUS
 10
10.9488741344
 20
-6.1831787817
 11
10.9473053453
 21
-6.0828725919
  0
LINE
  5
643
100
AcDbEntity
  8
RACCORDO
100
AcDbLine
 62
7
  6
CONTINUOUS
 10
10.9488741344
 20
-1.1831787817
 11
10.9473053453
 21
-1.0828725919
  0
LINE
  5
644
100
AcDbEntity
  8
ASSI
100
AcDbLine
 62
7
  6
CONTINUOUS
 10
10.948343973
 20
-16.1515620594
 11
10.9467829568
 21
-16.0447384154
  0
LINE
  5
645
100
AcDbEntity
  8
RACCORDO
100
AcDbLine
 62
7
  6
CONTINUOUS
 10
10.9483439729
 20
-16.1515620548
 11
10.94663986
 21
-16.0338581914
  0
LINE
  5
646
100
AcDbEntity
  8
ASSI
100
AcDbLine
 62
7
  6
CONTINUOUS
 10
10.9474742789
 20
-11.0946800749
 11
10.9458695659
 21
-10.9720278507
  0
LINE
  5
647
100
AcDbEntity
  8
ASSI
100
AcDbLine
 62
7
  6
CONTINUOUS
 10
10.9474742789
 20
-6.0946800749
 11
10.9458695659
 21
-5.9720278507
  0
LINE
  5
648
100
AcDbEntity
  8
ASSI
100
AcDbLine
 62
7
  6
CONTINUOUS
 10
10.9474742789
 20
-1.0946800749
 11
10.9458695659
 21
-0.9720278507
  0
LINE
  5
649
100
AcDbEntity
  8
RACCORDO
100
AcDbLine
 62
7
  6
CONTINUOUS
 10
10.9473053453
 20
-11.0828725919
 11
10.9455431852
 21
-10.9440986159
  0
LINE
  5
64A
100
AcDbEntity
  8
RACCORDO
100
AcDbLine
 62
7
  6
CONTINUOUS
 10
10.9473053453
 20
-6.0828725919
 11
10.9455431852
 21
-5.9440986159
  0
LINE
  5
64B
100
AcDbEntity
  8
RACCORDO
100
AcDbLine
 62
7
  6
CONTINUOUS
 10
10.9473053453
 20
-1.0828725919
 11
10.9455431852
 21
-0.9440986159
  0
LINE
  5
64C
100
AcDbEntity
  8
ASSI
100
AcDbLine
 62
7
  6
CONTINUOUS
 10
10.9467829568
 20
-16.0447384154
 11
10.9451940405
 21
-15.9129750845
  0
LINE
  5
64D
100
AcDbEntity
  8
RACCORDO
100
AcDbLine
 62
7
  6
CONTINUOUS
 10
10.94663986
 20
-16.0338581914
 11
10.9448975216
 21
-15.8854649046
  0
LINE
  5
64E
100
AcDbEntity
  8
ASSI
100
AcDbLine
 62
7
  6
CONTINUOUS
 10
10.9458695659
 20
-10.9720278507
 11
10.9443133873
 21
-10.828137898
  0
LINE
  5
64F
100
AcDbEntity
  8
ASSI
100
AcDbLine
 62
7
  6
CONTINUOUS
 10
10.9458695659
 20
-5.9720278507
 11
10.9443133873
 21
-5.828137898
  0
LINE
  5
650
100
AcDbEntity
  8
ASSI
100
AcDbLine
 62
7
  6
CONTINUOUS
 10
10.9458695659
 20
-0.9720278507
 11
10.9443133873
 21
-0.828137898
  0
LINE
  5
651
100
AcDbEntity
  8
RACCORDO
100
AcDbLine
 62
7
  6
CONTINUOUS
 10
10.9455431852
 20
-10.9440986159
 11
10.943852135
 21
-10.779685549
  0
LINE
  5
652
100
AcDbEntity
  8
RACCORDO
100
AcDbLine
 62
7
  6
CONTINUOUS
 10
10.9455431852
 20
-5.9440986159
 11
10.943852135
 21
-5.779685549
  0
LINE
  5
653
100
AcDbEntity
  8
RACCORDO
100
AcDbLine
 62
7
  6
CONTINUOUS
 10
10.9455431852
 20
-0.9440986159
 11
10.943852135
 21
-0.779685549
  0
LINE
  5
654
100
AcDbEntity
  8
ASSI
100
AcDbLine
 62
7
  6
CONTINUOUS
 10
10.9451940405
 20
-15.9129750845
 11
10.9436725851
 21
-15.7600111582
  0
LINE
  5
655
100
AcDbEntity
  8
RACCORDO
100
AcDbLine
 62
7
  6
CONTINUOUS
 10
10.9448975216
 20
-15.8854649046
 11
10.9432470027
 21
-15.7114598844
  0
LINE
  5
656
100
AcDbEntity
  8
ASSI
100
AcDbLine
 62
7
  6
CONTINUOUS
 10
10.9443133873
 20
-10.828137898
 11
10.9426439115
 21
-10.6378256371
  0
LINE
  5
657
100
AcDbEntity
  8
ASSI
100
AcDbLine
 62
7
  6
CONTINUOUS
 10
10.9443133873
 20
-5.828137898
 11
10.9426439115
 21
-5.6378256371
  0
LINE
  5
658
100
AcDbEntity
  8
ASSI
100
AcDbLine
 62
7
  6
CONTINUOUS
 10
10.9443133873
 20
-0.828137898
 11
10.9426439115
 21
-0.6378256371
  0
LINE
  5
659
100
AcDbEntity
  8
RACCORDO
100
AcDbLine
 62
7
  6
CONTINUOUS
 10
10.943852135
 20
-10.779685549
 11
10.9422748032
 21
-10.5897639268
  0
LINE
  5
65A
100
AcDbEntity
  8
RACCORDO
100
AcDbLine
 62
7
  6
CONTINUOUS
 10
10.943852135
 20
-5.779685549
 11
10.9422748032
 21
-5.5897639268
  0
LINE
  5
65B
100
AcDbEntity
  8
RACCORDO
100
AcDbLine
 62
7
  6
CONTINUOUS
 10
10.943852135
 20
-0.779685549
 11
10.9422748032
 21
-0.5897639268
  0
LINE
  5
65C
100
AcDbEntity
  8
ASSI
100
AcDbLine
 62
7
  6
CONTINUOUS
 10
10.9436725851
 20
-15.7600111582
 11
10.9420518613
 21
-15.5594884926
  0
LINE
  5
65D
100
AcDbEntity
  8
RACCORDO
100
AcDbLine
 62
7
  6
CONTINUOUS
 10
10.9432470027
 20
-15.7114598844
 11
10.9417174933
 21
-15.5121206429
  0
LINE
  5
65E
100
AcDbEntity
  8
ASSI
100
AcDbLine
 62
7
  6
CONTINUOUS
 10
10.9426439115
 20
-10.6378256371
 11
10.94111911
 21
-10.4206222492
  0
LINE
  5
65F
100
AcDbEntity
  8
ASSI
100
AcDbLine
 62
7
  6
CONTINUOUS
 10
10.9426439115
 20
-5.6378256371
 11
10.94111911
 21
-5.4206222492
  0
LINE
  5
660
100
AcDbEntity
  8
ASSI
100
AcDbLine
 62
7
  6
CONTINUOUS
 10
10.9426439115
 20
-0.6378256371
 11
10.94111911
 21
-0.4206222492
  0
LINE
  5
661
100
AcDbEntity
  8
RACCORDO
100
AcDbLine
 62
7
  6
CONTINUOUS
 10
10.9422748032
 20
-10.5897639268
 11
10.9408429026
 21
-10.3750454914
  0
LINE
  5
662
100
AcDbEntity
  8
RACCORDO
100
AcDbLine
 62
7
  6
CONTINUOUS
 10
10.9422748032
 20
-5.5897639268
 11
10.9408429026
 21
-5.3750454914
  0
LINE
  5
663
100
AcDbEntity
  8
RACCORDO
100
AcDbLine
 62
7
  6
CONTINUOUS
 10
10.9422748032
 20
-0.5897639268
 11
10.9408429026
 21
-0.3750454914
  0
LINE
  5
664
100
AcDbEntity
  8
ASSI
100
AcDbLine
 62
7
  6
CONTINUOUS
 10
10.9420518613
 20
-15.5594884926
 11
10.9405976234
 21
-15.3325759832
  0
LINE
  5
665
100
AcDbEntity
  8
RACCORDO
100
AcDbLine
 62
7
  6
CONTINUOUS
 10
10.9417174933
 20
-15.5121206429
 11
10.9403542513
 21
-15.2884349116
  0
LINE
  5
666
100
AcDbEntity
  8
ASSI
100
AcDbLine
 62
7
  6
CONTINUOUS
 10
10.94111911
 20
-10.4206222492
 11
10.9397920586
 21
-10.1780875587
  0
LINE
  5
667
100
AcDbEntity
  8
ASSI
100
AcDbLine
 62
7
  6
CONTINUOUS
 10
10.94111911
 20
-5.4206222492
 11
10.9397920586
 21
-5.1780875587
  0
LINE
  5
668
100
AcDbEntity
  8
ASSI
100
AcDbLine
 62
7
  6
CONTINUOUS
 10
10.94111911
 20
-0.4206222492
 11
10.9397920586
 21
-0.1780875587
  0
LINE
  5
669
100
AcDbEntity
  8
RACCORDO
100
AcDbLine
 62
7
  6
CONTINUOUS
 10
10.9403542513
 20
-15.2884349116
 11
10.9397434551
 21
-15.1679311038
  0
LINE
  5
66A
100
AcDbEntity
  8
RACCORDO
100
AcDbLine
 62
7
  6
CONTINUOUS
 10
10.9408429026
 20
-10.3750454914
 11
10.9397432444
 21
-10.167886844
  0
LINE
  5
66B
100
AcDbEntity
  8
RACCORDO
100
AcDbLine
 62
7
  6
CONTINUOUS
 10
10.9408429026
 20
-5.3750454914
 11
10.9397432444
 21
-5.167886844
  0
LINE
  5
66C
100
AcDbEntity
  8
RACCORDO
100
AcDbLine
 62
7
  6
CONTINUOUS
 10
10.9408429026
 20
-0.3750454914
 11
10.9395982431
 21
-0.1369002675
  0
LINE
  5
66D
100
AcDbEntity
  8
ASSI
100
AcDbLine
 62
7
  6
CONTINUOUS
 10
10.9405976234
 20
-15.3325759832
 11
10.9393495853
 21
-15.0811043259
  0
LINE
  5
66E
100
AcDbEntity
  8
RACCORDO
100
AcDbLine
 62
7
  6
CONTINUOUS
 10
10.9397434551
 20
-15.1679311038
 11
10.9386875617
 21
-14.9109686385
  0
LINE
  5
66F
100
AcDbEntity
  8
ASSI
100
AcDbLine
 62
7
  6
CONTINUOUS
 10
10.9397920586
 20
-10.1780875587
 11
10.9386931655
 21
-9.9125757351
  0
LINE
  5
670
100
AcDbEntity
  8
RACCORDO
100
AcDbLine
 62
7
  6
CONTINUOUS
 10
10.9397432444
 20
-10.167886844
 11
10.938687385
 21
-9.9109178897
  0
LINE
  5
671
100
AcDbEntity
  8
ASSI
100
AcDbLine
 62
7
  6
CONTINUOUS
 10
10.9397920586
 20
-5.1780875587
 11
10.9386931655
 21
-4.9125757351
  0
LINE
  5
672
100
AcDbEntity
  8
RACCORDO
100
AcDbLine
 62
7
  6
CONTINUOUS
 10
10.9397432444
 20
-5.167886844
 11
10.938687385
 21
-4.9109178897
  0
LINE
  5
673
100
AcDbEntity
  8
ASSI
100
AcDbLine
 62
7
  6
CONTINUOUS
 10
10.9397920586
 20
-0.1780875587
 11
10.9386931655
 21
0.0874242649
  0
LINE
  5
674
100
AcDbEntity
  8
RACCORDO
100
AcDbLine
 62
7
  6
CONTINUOUS
 10
10.9395982431
 20
-0.1369002675
 11
10.9385731954
 21
0.122597734
  0
LINE
  5
675
100
AcDbEntity
  8
RACCORDO
100
AcDbLine
 62
7
  6
CONTINUOUS
 10
10.9386875617
 20
-14.9109686385
 11
10.9384632154
 21
-14.8436484898
  0
LINE
  5
676
100
AcDbEntity
  8
ASSI
100
AcDbLine
 62
7
  6
CONTINUOUS
 10
10.9393495853
 20
-15.0811043259
 11
10.9384612272
 21
-14.8430240914
  0
LINE
  5
677
100
AcDbEntity
  8
RACCORDO
100
AcDbLine
 62
7
  6
CONTINUOUS
 10
10.938687385
 20
-9.9109178897
 11
10.9384630496
 21
-9.8435964378
  0
LINE
  5
678
100
AcDbEntity
  8
ASSI
100
AcDbLine
 62
7
  6
CONTINUOUS
 10
10.9386931655
 20
-9.9125757351
 11
10.9384610537
 21
-9.8429695874
  0
LINE
  5
679
100
AcDbEntity
  8
RACCORDO
100
AcDbLine
 62
7
  6
CONTINUOUS
 10
10.938687385
 20
-4.9109178897
 11
10.9384630496
 21
-4.8435964378
  0
LINE
  5
67A
100
AcDbEntity
  8
ASSI
100
AcDbLine
 62
7
  6
CONTINUOUS
 10
10.9386931655
 20
-4.9125757351
 11
10.9384610537
 21
-4.8429695874
  0
LINE
  5
67B
100
AcDbEntity
  8
RACCORDO
100
AcDbLine
 62
7
  6
CONTINUOUS
 10
10.9384632154
 20
-14.8436484898
 11
10.9380617429
 21
-14.7056502926
  0
LINE
  5
67C
100
AcDbEntity
  8
RACCORDO
100
AcDbLine
 62
7
  6
CONTINUOUS
 10
10.9384630496
 20
-9.8435964378
 11
10.9380615998
 21
-9.7055961474
  0
LINE
  5
67D
100
AcDbEntity
  8
RACCORDO
100
AcDbLine
 62
7
  6
CONTINUOUS
 10
10.9384630496
 20
-4.8435964378
 11
10.9380615998
 21
-4.7055961474
  0
LINE
  5
67E
100
AcDbEntity
  8
ASSI
100
AcDbLine
 62
7
  6
CONTINUOUS
 10
10.9384612272
 20
-14.8430240914
 11
10.9379550674
 21
-14.6640067909
  0
LINE
  5
67F
100
AcDbEntity
  8
ASSI
100
AcDbLine
 62
7
  6
CONTINUOUS
 10
10.9384610537
 20
-9.8429695874
 11
10.9379549258
 21
-9.6639496529
  0
LINE
  5
680
100
AcDbEntity
  8
ASSI
100
AcDbLine
 62
7
  6
CONTINUOUS
 10
10.9384610537
 20
-4.8429695874
 11
10.9379549258
 21
-4.6639496529
  0
LINE
  5
681
100
AcDbEntity
  8
RACCORDO
100
AcDbLine
 62
7
  6
CONTINUOUS
 10
10.9380617429
 20
-14.7056502926
 11
10.9375870375
 21
-14.4914986285
  0
LINE
  5
682
100
AcDbEntity
  8
RACCORDO
100
AcDbLine
 62
7
  6
CONTINUOUS
 10
10.9380615998
 20
-9.7055961474
 11
10.9375869379
 21
-9.4914428853
  0
LINE
  5
683
100
AcDbEntity
  8
RACCORDO
100
AcDbLine
 62
7
  6
CONTINUOUS
 10
10.9380615998
 20
-4.7055961474
 11
10.9375869379
 21
-4.4914428854
  0
LINE
  5
684
100
AcDbEntity
  8
RACCORDO
100
AcDbLine
 62
7
  6
CONTINUOUS
 10
10.9385731954
 20
0.122597734
 11
10.9375246043
 21
0.5449201649
  0
LINE
  5
685
100
AcDbEntity
  8
ASSI
100
AcDbLine
 62
7
  6
CONTINUOUS
 10
10.9379550674
 20
-14.6640067909
 11
10.9374454466
 21
-14.403755463
  0
LINE
  5
686
100
AcDbEntity
  8
ASSI
100
AcDbLine
 62
7
  6
CONTINUOUS
 10
10.9379549258
 20
-9.6639496529
 11
10.9374453623
 21
-9.4036970437
  0
LINE
  5
687
100
AcDbEntity
  8
ASSI
100
AcDbLine
 62
7
  6
CONTINUOUS
 10
10.9379549258
 20
-4.6639496529
 11
10.9374453623
 21
-4.4036970437
  0
LINE
  5
688
100
AcDbEntity
  8
ASSI
100
AcDbLine
 62
7
  6
CONTINUOUS
 10
10.9386931655
 20
0.0874242649
 11
10.9373934702
 21
0.6341434262
  0
LINE
  5
689
100
AcDbEntity
  8
RACCORDO
100
AcDbLine
 62
7
  6
CONTINUOUS
 10
10.9375870375
 20
-14.4914986285
 11
10.9373246809
 21
-14.3083052931
  0
LINE
  5
68A
100
AcDbEntity
  8
RACCORDO
100
AcDbLine
 62
7
  6
CONTINUOUS
 10
10.9375869379
 20
-9.4914428853
 11
10.9373246201
 21
-9.3082495896
  0
LINE
  5
68B
100
AcDbEntity
  8
RACCORDO
100
AcDbLine
 62
7
  6
CONTINUOUS
 10
10.9375869379
 20
-4.4914428854
 11
10.9373246201
 21
-4.3082495896
  0
LINE
  5
68C
100
AcDbEntity
  8
ASSI
100
AcDbLine
 62
7
  6
CONTINUOUS
 10
10.9374454466
 20
-14.403755463
 11
10.9372683947
 21
-14.2517258387
  0
LINE
  5
68D
100
AcDbEntity
  8
ASSI
100
AcDbLine
 62
7
  6
CONTINUOUS
 10
10.9374453623
 20
-9.4036970437
 11
10.9372683425
 21
-9.2516678698
  0
LINE
  5
68E
100
AcDbEntity
  8
ASSI
100
AcDbLine
 62
7
  6
CONTINUOUS
 10
10.9374453623
 20
-4.4036970437
 11
10.9372683425
 21
-4.2516678698
  0
LINE
  5
68F
100
AcDbEntity
  8
RACCORDO
100
AcDbLine
 62
7
  6
CONTINUOUS
 10
10.9373246809
 20
-14.3083052931
 11
10.9372241616
 21
-14.1971158519
  0
LINE
  5
690
100
AcDbEntity
  8
RACCORDO
100
AcDbLine
 62
7
  6
CONTINUOUS
 10
10.9373246201
 20
-9.3082495896
 11
10.937224122
 21
-9.1970607184
  0
LINE
  5
691
100
AcDbEntity
  8
RACCORDO
100
AcDbLine
 62
7
  6
CONTINUOUS
 10
10.9373246201
 20
-4.3082495896
 11
10.937224122
 21
-4.1970607184
  0
LINE
  5
692
100
AcDbEntity
  8
ASSI
100
AcDbLine
 62
7
  6
CONTINUOUS
 10
10.9372683947
 20
-14.2517258387
 11
10.9371588661
 21
-14.0601474237
  0
LINE
  5
693
100
AcDbEntity
  8
ASSI
100
AcDbLine
 62
7
  6
CONTINUOUS
 10
10.9372683425
 20
-9.2516678698
 11
10.9371588533
 21
-9.0600910834
  0
LINE
  5
694
100
AcDbEntity
  8
ASSI
100
AcDbLine
 62
7
  6
CONTINUOUS
 10
10.9372683425
 20
-4.2516678698
 11
10.9371588533
 21
-4.0600910834
  0
LINE
  5
695
100
AcDbEntity
  8
ASSI
100
AcDbLine
 62
7
  6
CONTINUOUS
 10
10.9373934702
 20
0.6341434262
 11
10.9371528517
 21
0.9782673416
  0
LINE
  5
696
100
AcDbEntity
  8
RACCORDO
100
AcDbLine
 62
7
  6
CONTINUOUS
 10
10.9372241616
 20
-14.1971158519
 11
10.9371521539
 21
-14.0109429781
  0
LINE
  5
697
100
AcDbEntity
  8
RACCORDO
100
AcDbLine
 62
7
  6
CONTINUOUS
 10
10.937224122
 20
-9.1970607184
 11
10.9371521515
 21
-9.010889604
  0
LINE
  5
698
100
AcDbEntity
  8
RACCORDO
100
AcDbLine
 62
7
  6
CONTINUOUS
 10
10.937224122
 20
-4.1970607184
 11
10.9371521515
 21
-4.010889604
  0
LINE
  5
699
100
AcDbEntity
  8
RACCORDO
100
AcDbLine
 62
7
  6
CONTINUOUS
 10
10.9375246043
 20
0.5449201649
 11
10.9371531035
 21
1.0263364329
  0
LINE
  5
69A
100
AcDbEntity
  8
ASSI
100
AcDbLine
 62
7
  6
CONTINUOUS
 10
11.0
 20
-16.1850292972
 11
11.0
 21
-11.636772105
  0
LINE
  5
69B
100
AcDbEntity
  8
ASSI
100
AcDbLine
 62
7
  6
CONTINUOUS
 10
11.0
 20
-11.363227895
 11
11.0
 21
-6.636772105
  0
LINE
  5
69C
100
AcDbEntity
  8
ASSI
100
AcDbLine
 62
7
  6
CONTINUOUS
 10
11.0
 20
-6.363227895
 11
11.0
 21
-1.636772105
  0
LINE
  5
69D
100
AcDbEntity
  8
ASSI
100
AcDbLine
 62
7
  6
CONTINUOUS
 10
11.0
 20
-1.363227895
 11
11.0
 21
3.363227895
  0
LINE
  5
69E
100
AcDbEntity
  8
0
100
AcDbLine
 62
7
  6
CONTINUOUS
 10
11.0103594806
 20
3.4120826638
 11
11.0103594806
 21
-1.4120826638
  0
LINE
  5
69F
100
AcDbEntity
  8
0
100
AcDbLine
 62
7
  6
CONTINUOUS
 10
11.0103594806
 20
-1.5879173362
 11
11.0103594806
 21
-6.4120826638
  0
LINE
  5
6A0
100
AcDbEntity
  8
0
100
AcDbLine
 62
7
  6
CONTINUOUS
 10
11.0103594806
 20
-6.5879173362
 11
11.0103594806
 21
-11.4120826638
  0
LINE
  5
6A1
100
AcDbEntity
  8
0
100
AcDbLine
 62
7
  6
CONTINUOUS
 10
11.0103594806
 20
-11.5879173362
 11
11.0103594806
 21
-16.0710745702
  0
LINE
  5
6A2
100
AcDbEntity
  8
RACCORDO
100
AcDbLine
 62
7
  6
CONTINUOUS
 10
11.0130903017
 20
-11.55
 11
11.0130903017
 21
-11.45
  0
LINE
  5
6A3
100
AcDbEntity
  8
ASSI
100
AcDbLine
 62
7
  6
CONTINUOUS
 10
11.0130903017
 20
-11.55
 11
11.0130903017
 21
-11.45
  0
LINE
  5
6A4
100
AcDbEntity
  8
RACCORDO
100
AcDbLine
 62
7
  6
CONTINUOUS
 10
11.0130903017
 20
-6.55
 11
11.0130903017
 21
-6.45
  0
LINE
  5
6A5
100
AcDbEntity
  8
ASSI
100
AcDbLine
 62
7
  6
CONTINUOUS
 10
11.0130903017
 20
-6.55
 11
11.0130903017
 21
-6.45
  0
LINE
  5
6A6
100
AcDbEntity
  8
RACCORDO
100
AcDbLine
 62
7
  6
CONTINUOUS
 10
11.0130903017
 20
-1.55
 11
11.0130903017
 21
-1.45
  0
LINE
  5
6A7
100
AcDbEntity
  8
ASSI
100
AcDbLine
 62
7
  6
CONTINUOUS
 10
11.0130903017
 20
-1.55
 11
11.0130903017
 21
-1.45
  0
LINE
  5
6A8
100
AcDbEntity
  8
RACCORDO
100
AcDbLine
 62
7
  6
CONTINUOUS
 10
11.0130903017
 20
3.45
 11
11.0130903017
 21
16.1617521373
  0
LINE
  5
6A9
100
AcDbEntity
  8
ASSI
100
AcDbLine
 62
7
  6
CONTINUOUS
 10
11.0130903017
 20
3.45
 11
11.0130903017
 21
16.1617521373
  0
LINE
  5
6AA
100
AcDbEntity
  8
DRAFT
100
AcDbLine
 62
7
  6
CONTINUOUS
 10
11.15
 20
-21.8997711479
 11
11.15
 21
-0.75
  0
LINE
  5
6AB
100
AcDbEntity
  8
DRAFT
100
AcDbLine
 62
7
  6
CONTINUOUS
 10
11.15
 20
0.75
 11
11.15
 21
21.8997711479
  0
LINE
  5
6AC
100
AcDbEntity
  8
RACCORDO
100
AcDbLine
 62
250
  6
CONTINUOUS
 10
11.1777453242
 20
-0.6666963383
 11
11.1778367071
 21
-0.6661475531
  0
LINE
  5
6AD
100
AcDbEntity
  8
RACCORDO
100
AcDbLine
 62
250
  6
CONTINUOUS
 10
11.1778367071
 20
0.6661475531
 11
11.1777453242
 21
0.6666963383
  0
LINE
  5
6AE
100
AcDbEntity
  8
RACCORDO
100
AcDbLine
 62
7
  6
CONTINUOUS
 10
11.1778367071
 20
-0.6661475531
 11
11.1778367071
 21
0.6661475531
  0
LINE
  5
6AF
100
AcDbEntity
  8
ASSI
100
AcDbLine
 62
7
  6
CONTINUOUS
 10
10.9371588533
 20
-4.0600910834
 11
10.9371837311
 21
-3.8686724834
  0
LINE
  5
6B0
100
AcDbEntity
  8
ASSI
100
AcDbLine
 62
7
  6
CONTINUOUS
 10
10.9371588533
 20
-9.0600910834
 11
10.9371837311
 21
-8.8686724834
  0
LINE
  5
6B1
100
AcDbEntity
  8
ASSI
100
AcDbLine
 62
7
  6
CONTINUOUS
 10
10.9371588661
 20
-14.0601474237
 11
10.937183705
 21
-13.868726197
  0
LINE
  5
6B2
100
AcDbEntity
  8
RACCORDO
100
AcDbLine
 62
7
  6
CONTINUOUS
 10
10.9371521515
 20
-4.010889604
 11
10.9372082729
 21
-3.8252670015
  0
LINE
  5
6B3
100
AcDbEntity
  8
RACCORDO
100
AcDbLine
 62
7
  6
CONTINUOUS
 10
10.9371521515
 20
-9.010889604
 11
10.9372082729
 21
-8.8252670015
  0
LINE
  5
6B4
100
AcDbEntity
  8
RACCORDO
100
AcDbLine
 62
7
  6
CONTINUOUS
 10
10.9371521539
 20
-14.0109429781
 11
10.9372082402
 21
-13.8253177634
  0
LINE
  5
6B5
100
AcDbEntity
  8
ASSI
100
AcDbLine
 62
7
  6
CONTINUOUS
 10
10.9371528517
 20
0.9782673416
 11
10.9373389428
 21
1.3206209472
  0
LINE
  5
6B6
100
AcDbEntity
  8
ASSI
100
AcDbLine
 62
7
  6
CONTINUOUS
 10
10.9371837311
 20
-3.8686724834
 11
10.9372984282
 21
-3.7169713369
  0
LINE
  5
6B7
100
AcDbEntity
  8
ASSI
100
AcDbLine
 62
7
  6
CONTINUOUS
 10
10.9371837311
 20
-8.8686724834
 11
10.9372984282
 21
-8.7169713369
  0
LINE
  5
6B8
100
AcDbEntity
  8
RACCORDO
100
AcDbLine
 62
7
  6
CONTINUOUS
 10
10.9372082729
 20
-8.8252670015
 11
10.9373005199
 21
-8.7149177165
  0
LINE
  5
6B9
100
AcDbEntity
  8
ASSI
100
AcDbLine
 62
7
  6
CONTINUOUS
 10
10.937183705
 20
-13.868726197
 11
10.9372983764
 21
-13.7170223808
  0
LINE
  5
6BA
100
AcDbEntity
  8
RACCORDO
100
AcDbLine
 62
7
  6
CONTINUOUS
 10
10.9372082402
 20
-13.8253177634
 11
10.93730047
 21
-13.7149665843
  0
LINE
  5
6BB
100
AcDbEntity
  8
RACCORDO
100
AcDbLine
 62
250
  6
CONTINUOUS
 10
10.6374799304
 20
-8.6268428474
 11
10.6371692198
 21
-8.9248019577
  0
LINE
  5
6BC
100
AcDbEntity
  8
ASSI
100
AcDbLine
 62
250
  6
CONTINUOUS
 10
10.6374799304
 20
-8.6268428474
 11
10.6371692198
 21
-8.9248019577
  0
LINE
  5
6BD
100
AcDbEntity
  8
RACCORDO
100
AcDbLine
 62
250
  6
CONTINUOUS
 10
10.6374799234
 20
-13.6268493254
 11
10.6371692127
 21
-13.9248059537
  0
LINE
  5
6BE
100
AcDbEntity
  8
ASSI
100
AcDbLine
 62
250
  6
CONTINUOUS
 10
10.6374799234
 20
-13.6268493254
 11
10.6371692127
 21
-13.9248059537
  0
LINE
  5
6BF
100
AcDbEntity
  8
RACCORDO
100
AcDbLine
 62
7
  6
CONTINUOUS
 10
10.9371531035
 20
1.0263364329
 11
10.9375432303
 21
1.4660512752
  0
LINE
  5
6C0
100
AcDbEntity
  8
RACCORDO
100
AcDbLine
 62
7
  6
CONTINUOUS
 10
10.9372082729
 20
-3.8252670015
 11
10.9374855401
 21
-3.5697810512
  0
LINE
  5
6C1
100
AcDbEntity
  8
RACCORDO
100
AcDbLine
 62
7
  6
CONTINUOUS
 10
10.9373005199
 20
-8.7149177165
 11
10.9374855401
 21
-8.5697810512
  0
LINE
  5
6C2
100
AcDbEntity
  8
RACCORDO
100
AcDbLine
 62
7
  6
CONTINUOUS
 10
10.93730047
 20
-13.7149665843
 11
10.9374854692
 21
-13.5698271103
  0
LINE
  5
6C3
100
AcDbEntity
  8
ASSI
100
AcDbLine
 62
7
  6
CONTINUOUS
 10
10.9372984282
 20
-3.7169713369
 11
10.9375485884
 21
-3.5307704913
  0
LINE
  5
6C4
100
AcDbEntity
  8
ASSI
100
AcDbLine
 62
7
  6
CONTINUOUS
 10
10.9372984282
 20
-8.7169713369
 11
10.9375485884
 21
-8.5307704913
  0
LINE
  5
6C5
100
AcDbEntity
  8
ASSI
100
AcDbLine
 62
7
  6
CONTINUOUS
 10
10.9372983764
 20
-13.7170223808
 11
10.9375485085
 21
-13.5308177015
  0
LINE
  5
6C6
100
AcDbEntity
  8
RACCORDO
100
AcDbLine
 62
250
  6
CONTINUOUS
 10
10.6377905004
 20
-3.4803178775
 11
10.637272292
 21
-3.7752332117
  0
LINE
  5
6C7
100
AcDbEntity
  8
ASSI
100
AcDbLine
 62
250
  6
CONTINUOUS
 10
10.6377905004
 20
-3.4803178775
 11
10.637272292
 21
-3.7752332117
  0
LINE
  5
6C8
100
AcDbEntity
  8
RACCORDO
100
AcDbLine
 62
7
  6
CONTINUOUS
 10
10.9374855401
 20
-3.5697810512
 11
10.9379005127
 21
-3.3581239224
  0
LINE
  5
6C9
100
AcDbEntity
  8
RACCORDO
100
AcDbLine
 62
7
  6
CONTINUOUS
 10
10.9374855401
 20
-8.5697810512
 11
10.9379005127
 21
-8.3581239224
  0
LINE
  5
6CA
100
AcDbEntity
  8
RACCORDO
100
AcDbLine
 62
7
  6
CONTINUOUS
 10
10.9374854692
 20
-13.5698271103
 11
10.9379004136
 21
-13.3581653943
  0
LINE
  5
6CB
100
AcDbEntity
  8
ASSI
100
AcDbLine
 62
7
  6
CONTINUOUS
 10
10.9373389428
 20
1.3206209472
 11
10.9381004281
 21
1.7203324083
  0
LINE
  5
6CC
100
AcDbEntity
  8
ASSI
100
AcDbLine
 62
7
  6
CONTINUOUS
 10
10.9375485884
 20
-3.5307704913
 11
10.9380080659
 21
-3.3147096885
  0
LINE
  5
6CD
100
AcDbEntity
  8
ASSI
100
AcDbLine
 62
7
  6
CONTINUOUS
 10
10.9375485884
 20
-8.5307704913
 11
10.9380080659
 21
-8.3147096885
  0
LINE
  5
6CE
100
AcDbEntity
  8
ASSI
100
AcDbLine
 62
7
  6
CONTINUOUS
 10
10.9375485085
 20
-13.5308177015
 11
10.9380079576
 21
-13.3147519001
  0
LINE
  5
6CF
100
AcDbEntity
  8
RACCORDO
100
AcDbLine
 62
250
  6
CONTINUOUS
 10
10.63819911
 20
-8.3363828404
 11
10.6374799304
 21
-8.6268428474
  0
LINE
  5
6D0
100
AcDbEntity
  8
ASSI
100
AcDbLine
 62
250
  6
CONTINUOUS
 10
10.63819911
 20
-8.3363828404
 11
10.6374799304
 21
-8.6268428474
  0
LINE
  5
6D1
100
AcDbEntity
  8
RACCORDO
100
AcDbLine
 62
250
  6
CONTINUOUS
 10
10.6381991051
 20
-13.3363843803
 11
10.6374799234
 21
-13.6268493254
  0
LINE
  5
6D2
100
AcDbEntity
  8
ASSI
100
AcDbLine
 62
250
  6
CONTINUOUS
 10
10.6381991051
 20
-13.3363843803
 11
10.6374799234
 21
-13.6268493254
  0
LINE
  5
6D3
100
AcDbEntity
  8
RACCORDO
100
AcDbLine
 62
7
  6
CONTINUOUS
 10
10.9375432303
 20
1.4660512752
 11
10.9383618144
 21
1.8109906027
  0
LINE
  5
6D4
100
AcDbEntity
  8
RACCORDO
100
AcDbLine
 62
7
  6
CONTINUOUS
 10
10.9379005127
 20
-8.3581239224
 11
10.9382623542
 21
-8.2222261076
  0
LINE
  5
6D5
100
AcDbEntity
  8
RACCORDO
100
AcDbLine
 62
7
  6
CONTINUOUS
 10
10.9379004136
 20
-13.3581653943
 11
10.9382622419
 21
-13.2222644327
  0
LINE
  5
6D6
100
AcDbEntity
  8
ASSI
100
AcDbLine
 62
7
  6
CONTINUOUS
 10
10.9380080659
 20
-8.3147096885
 11
10.9384004866
 21
-8.1764659955
  0
LINE
  5
6D7
100
AcDbEntity
  8
ASSI
100
AcDbLine
 62
7
  6
CONTINUOUS
 10
10.9380079576
 20
-13.3147519001
 11
10.9384003659
 21
-13.1765048419
  0
LINE
  5
6D8
100
AcDbEntity
  8
RACCORDO
100
AcDbLine
 62
7
  6
CONTINUOUS
 10
10.9379005127
 20
-3.3581239224
 11
10.9386804332
 21
-3.0912635171
  0
LINE
  5
6D9
100
AcDbEntity
  8
RACCORDO
100
AcDbLine
 62
250
  6
CONTINUOUS
 10
10.6387071286
 20
-3.1957425413
 11
10.6377905004
 21
-3.4803178775
  0
LINE
  5
6DA
100
AcDbEntity
  8
ASSI
100
AcDbLine
 62
250
  6
CONTINUOUS
 10
10.6387071286
 20
-3.1957425413
 11
10.6377905004
 21
-3.4803178775
  0
LINE
  5
6DB
100
AcDbEntity
  8
ASSI
100
AcDbLine
 62
7
  6
CONTINUOUS
 10
10.9380080659
 20
-3.3147096885
 11
10.9388512169
 21
-3.0435491381
  0
LINE
  5
6DC
100
AcDbEntity
  8
RACCORDO
100
AcDbLine
 62
7
  6
CONTINUOUS
 10
10.9382623542
 20
-8.2222261076
 11
10.9387935709
 21
-8.059329275
  0
LINE
  5
6DD
100
AcDbEntity
  8
RACCORDO
100
AcDbLine
 62
7
  6
CONTINUOUS
 10
10.9382622419
 20
-13.2222644327
 11
10.9387934459
 21
-13.0593638284
  0
LINE
  5
6DE
100
AcDbEntity
  8
ASSI
100
AcDbLine
 62
7
  6
CONTINUOUS
 10
10.9381004281
 20
1.7203324083
 11
10.9394972546
 21
2.1148025565
  0
LINE
  5
6DF
100
AcDbEntity
  8
ASSI
100
AcDbLine
 62
7
  6
CONTINUOUS
 10
10.9384004866
 20
-8.1764659955
 11
10.9393609442
 21
-7.9161625162
  0
LINE
  5
6E0
100
AcDbEntity
  8
ASSI
100
AcDbLine
 62
7
  6
CONTINUOUS
 10
10.9384003659
 20
-13.1765048419
 11
10.939360803
 21
-12.9161951866
  0
LINE
  5
6E1
100
AcDbEntity
  8
RACCORDO
100
AcDbLine
 62
250
  6
CONTINUOUS
 10
10.6393131867
 20
-8.0590618699
 11
10.63819911
 21
-8.3363828404
  0
LINE
  5
6E2
100
AcDbEntity
  8
ASSI
100
AcDbLine
 62
250
  6
CONTINUOUS
 10
10.6393131867
 20
-8.0590618699
 11
10.63819911
 21
-8.3363828404
  0
LINE
  5
6E3
100
AcDbEntity
  8
RACCORDO
100
AcDbLine
 62
250
  6
CONTINUOUS
 10
10.6393131781
 20
-13.0590633098
 11
10.6381991051
 21
-13.3363843803
  0
LINE
  5
6E4
100
AcDbEntity
  8
ASSI
100
AcDbLine
 62
250
  6
CONTINUOUS
 10
10.6393131781
 20
-13.0590633098
 11
10.6381991051
 21
-13.3363843803
  0
LINE
  5
6E5
100
AcDbEntity
  8
RACCORDO
100
AcDbLine
 62
7
  6
CONTINUOUS
 10
10.9386804332
 20
-3.0912635171
 11
10.9396814894
 21
-2.8450377648
  0
LINE
  5
6E6
100
AcDbEntity
  8
RACCORDO
100
AcDbLine
 62
7
  6
CONTINUOUS
 10
10.9383618144
 20
1.8109906027
 11
10.939963533
 21
2.2131608887
  0
LINE
  5
6E7
100
AcDbEntity
  8
ASSI
100
AcDbLine
 62
7
  6
CONTINUOUS
 10
10.9388512169
 20
-3.0435491381
 11
10.9399256793
 21
-2.7944409867
  0
LINE
  5
6E8
100
AcDbEntity
  8
RACCORDO
100
AcDbLine
 62
7
  6
CONTINUOUS
 10
10.9387935709
 20
-8.059329275
 11
10.9398211084
 21
-7.8157675089
  0
LINE
  5
6E9
100
AcDbEntity
  8
RACCORDO
100
AcDbLine
 62
7
  6
CONTINUOUS
 10
10.9387934459
 20
-13.0593638284
 11
10.9398209672
 21
-12.8157966339
  0
LINE
  5
6EA
100
AcDbEntity
  8
RACCORDO
100
AcDbLine
 62
250
  6
CONTINUOUS
 10
10.6400082841
 20
-2.9269801435
 11
10.6387071286
 21
-3.1957425413
  0
LINE
  5
6EB
100
AcDbEntity
  8
ASSI
100
AcDbLine
 62
250
  6
CONTINUOUS
 10
10.6400082841
 20
-2.9269801435
 11
10.6387071286
 21
-3.1957425413
  0
LINE
  5
6EC
100
AcDbEntity
  8
ASSI
100
AcDbLine
 62
7
  6
CONTINUOUS
 10
10.9393609442
 20
-7.9161625162
 11
10.9405362031
 21
-7.6784881031
  0
LINE
  5
6ED
100
AcDbEntity
  8
ASSI
100
AcDbLine
 62
7
  6
CONTINUOUS
 10
10.939360803
 20
-12.9161951866
 11
10.9405360509
 21
-12.6785153882
  0
LINE
  5
6EE
100
AcDbEntity
  8
ASSI
100
AcDbLine
 62
7
  6
CONTINUOUS
 10
10.9394972546
 20
2.1148025565
 11
10.9406952191
 21
2.3495889584
  0
LINE
  5
6EF
100
AcDbEntity
  8
RACCORDO
100
AcDbLine
 62
7
  6
CONTINUOUS
 10
10.9396814894
 20
-2.8450377648
 11
10.9410297381
 21
-2.593955589
  0
LINE
  5
6F0
100
AcDbEntity
  8
RACCORDO
100
AcDbLine
 62
250
  6
CONTINUOUS
 10
10.640793427
 20
-7.8001537949
 11
10.6393131867
 21
-8.0590618699
  0
LINE
  5
6F1
100
AcDbEntity
  8
ASSI
100
AcDbLine
 62
250
  6
CONTINUOUS
 10
10.640793427
 20
-7.8001537949
 11
10.6393131867
 21
-8.0590618699
  0
LINE
  5
6F2
100
AcDbEntity
  8
RACCORDO
100
AcDbLine
 62
250
  6
CONTINUOUS
 10
10.6407934317
 20
-12.8001533238
 11
10.6393131781
 21
-13.0590633098
  0
LINE
  5
6F3
100
AcDbEntity
  8
ASSI
100
AcDbLine
 62
250
  6
CONTINUOUS
 10
10.6407934317
 20
-12.8001533238
 11
10.6393131781
 21
-13.0590633098
  0
LINE
  5
6F4
100
AcDbEntity
  8
ASSI
100
AcDbLine
 62
7
  6
CONTINUOUS
 10
10.9399256793
 20
-2.7944409867
 11
10.9411881835
 21
-2.5683785729
  0
LINE
  5
6F5
100
AcDbEntity
  8
RACCORDO
100
AcDbLine
 62
7
  6
CONTINUOUS
 10
10.9398211084
 20
-7.8157675089
 11
10.9411919262
 21
-7.5677830189
  0
LINE
  5
6F6
100
AcDbEntity
  8
RACCORDO
100
AcDbLine
 62
7
  6
CONTINUOUS
 10
10.9398209672
 20
-12.8157966339
 11
10.9411917764
 21
-12.567806839
  0
LINE
  5
6F7
100
AcDbEntity
  8
RACCORDO
100
AcDbLine
 62
7
  6
CONTINUOUS
 10
10.939963533
 20
2.2131608887
 11
10.9413566083
 21
2.458041549
  0
LINE
  5
6F8
100
AcDbEntity
  8
ASSI
100
AcDbLine
 62
7
  6
CONTINUOUS
 10
10.9405362031
 20
-7.6784881031
 11
10.9418823636
 21
-7.4641421596
  0
LINE
  5
6F9
100
AcDbEntity
  8
ASSI
100
AcDbLine
 62
7
  6
CONTINUOUS
 10
10.9405360509
 20
-12.6785153882
 11
10.9418822043
 21
-12.46416475
  0
LINE
  5
6FA
100
AcDbEntity
  8
ASSI
100
AcDbLine
 62
7
  6
CONTINUOUS
 10
10.9406952191
 20
2.3495889584
 11
10.9420621687
 21
2.5609986206
  0
LINE
  5
6FB
100
AcDbEntity
  8
RACCORDO
100
AcDbLine
 62
250
  6
CONTINUOUS
 10
10.6416676091
 20
-2.6791651496
 11
10.6400082841
 21
-2.9269801435
  0
LINE
  5
6FC
100
AcDbEntity
  8
ASSI
100
AcDbLine
 62
250
  6
CONTINUOUS
 10
10.6416676091
 20
-2.6791651496
 11
10.6400082841
 21
-2.9269801435
  0
LINE
  5
6FD
100
AcDbEntity
  8
RACCORDO
100
AcDbLine
 62
7
  6
CONTINUOUS
 10
10.9410297381
 20
-2.593955589
 11
10.9423945257
 21
-2.394289289
  0
LINE
  5
6FE
100
AcDbEntity
  8
RACCORDO
100
AcDbLine
 62
7
  6
CONTINUOUS
 10
10.9411919262
 20
-7.5677830189
 11
10.9425750264
 21
-7.3708915187
  0
LINE
  5
6FF
100
AcDbEntity
  8
RACCORDO
100
AcDbLine
 62
7
  6
CONTINUOUS
 10
10.9411917764
 20
-12.567806839
 11
10.9425748724
 21
-12.370911237
  0
LINE
  5
700
100
AcDbEntity
  8
ASSI
100
AcDbLine
 62
7
  6
CONTINUOUS
 10
10.9411881835
 20
-2.5683785729
 11
10.942615011
 21
-2.3657876045
  0
LINE
  5
701
100
AcDbEntity
  8
RACCORDO
100
AcDbLine
 62
7
  6
CONTINUOUS
 10
10.9413566083
 20
2.458041549
 11
10.9427573659
 21
2.6521597847
  0
LINE
  5
702
100
AcDbEntity
  8
RACCORDO
100
AcDbLine
 62
250
  6
CONTINUOUS
 10
10.6426188118
 20
-7.5645168339
 11
10.640793427
 21
-7.8001537949
  0
LINE
  5
703
100
AcDbEntity
  8
ASSI
100
AcDbLine
 62
250
  6
CONTINUOUS
 10
10.6426188118
 20
-7.5645168339
 11
10.640793427
 21
-7.8001537949
  0
LINE
  5
704
100
AcDbEntity
  8
RACCORDO
100
AcDbLine
 62
250
  6
CONTINUOUS
 10
10.6426188429
 20
-12.5645133228
 11
10.6407934317
 21
-12.8001533238
  0
LINE
  5
705
100
AcDbEntity
  8
ASSI
100
AcDbLine
 62
250
  6
CONTINUOUS
 10
10.6426188429
 20
-12.5645133228
 11
10.6407934317
 21
-12.8001533238
  0
LINE
  5
706
100
AcDbEntity
  8
ASSI
100
AcDbLine
 62
7
  6
CONTINUOUS
 10
10.9418823636
 20
-7.4641421596
 11
10.9433784143
 21
-7.2733200889
  0
LINE
  5
707
100
AcDbEntity
  8
ASSI
100
AcDbLine
 62
7
  6
CONTINUOUS
 10
10.9418822043
 20
-12.46416475
 11
10.9433782541
 21
-12.27333855
  0
LINE
  5
708
100
AcDbEntity
  8
ASSI
100
AcDbLine
 62
7
  6
CONTINUOUS
 10
10.9420621687
 20
2.5609986206
 11
10.9435734387
 21
2.7488756849
  0
LINE
  5
709
100
AcDbEntity
  8
RACCORDO
100
AcDbLine
 62
7
  6
CONTINUOUS
 10
10.9423945257
 20
-2.394289289
 11
10.9438850062
 21
-2.2168185327
  0
LINE
  5
70A
100
AcDbEntity
  8
RACCORDO
100
AcDbLine
 62
7
  6
CONTINUOUS
 10
10.9425750264
 20
-7.3708915187
 11
10.9440786514
 21
-7.1961923602
  0
LINE
  5
70B
100
AcDbEntity
  8
RACCORDO
100
AcDbLine
 62
7
  6
CONTINUOUS
 10
10.9425748724
 20
-12.370911237
 11
10.9440784985
 21
-12.1962084345
  0
LINE
  5
70C
100
AcDbEntity
  8
RACCORDO
100
AcDbLine
 62
250
  6
CONTINUOUS
 10
10.6436479793
 20
-2.4567682598
 11
10.6416676091
 21
-2.6791651496
  0
LINE
  5
70D
100
AcDbEntity
  8
ASSI
100
AcDbLine
 62
250
  6
CONTINUOUS
 10
10.6436479793
 20
-2.4567682598
 11
10.6416676091
 21
-2.6791651496
  0
LINE
  5
70E
100
AcDbEntity
  8
RACCORDO
100
AcDbLine
 62
7
  6
CONTINUOUS
 10
10.9427573659
 20
2.6521597847
 11
10.9442739923
 21
2.8240911377
  0
LINE
  5
70F
100
AcDbEntity
  8
ASSI
100
AcDbLine
 62
7
  6
CONTINUOUS
 10
10.942615011
 20
-2.3657876045
 11
10.9441691185
 21
-2.1867341385
  0
LINE
  5
710
100
AcDbEntity
  8
ASSI
100
AcDbLine
 62
7
  6
CONTINUOUS
 10
10.9433784143
 20
-7.2733200889
 11
10.9449880872
 21
-7.1059850991
  0
LINE
  5
711
100
AcDbEntity
  8
ASSI
100
AcDbLine
 62
7
  6
CONTINUOUS
 10
10.9433782541
 20
-12.27333855
 11
10.9449879291
 21
-12.1059998832
  0
LINE
  5
712
100
AcDbEntity
  8
ASSI
100
AcDbLine
 62
7
  6
CONTINUOUS
 10
10.9435734387
 20
2.7488756849
 11
10.9451970244
 21
2.9132956737
  0
LINE
  5
713
100
AcDbEntity
  8
RACCORDO
100
AcDbLine
 62
7
  6
CONTINUOUS
 10
10.9438850062
 20
-2.2168185327
 11
10.9454798847
 21
-2.0613925232
  0
LINE
  5
714
100
AcDbEntity
  8
RACCORDO
100
AcDbLine
 62
7
  6
CONTINUOUS
 10
10.9440786514
 20
-7.1961923602
 11
10.945686003
 21
-7.0434966304
  0
LINE
  5
715
100
AcDbEntity
  8
RACCORDO
100
AcDbLine
 62
7
  6
CONTINUOUS
 10
10.9440784985
 20
-12.1962084345
 11
10.9456858536
 21
-12.0435094374
  0
LINE
  5
716
100
AcDbEntity
  8
ASSI
100
AcDbLine
 62
7
  6
CONTINUOUS
 10
10.9441691185
 20
-2.1867341385
 11
10.9458327346
 21
-2.0310277224
  0
LINE
  5
717
100
AcDbEntity
  8
RACCORDO
100
AcDbLine
 62
7
  6
CONTINUOUS
 10
10.9442739923
 20
2.8240911377
 11
10.9458933558
 21
2.9740596628
  0
LINE
  5
718
100
AcDbEntity
  8
ASSI
100
AcDbLine
 62
7
  6
CONTINUOUS
 10
10.9449880872
 20
-7.1059850991
 11
10.9466969796
 21
-6.9618256262
  0
LINE
  5
719
100
AcDbEntity
  8
ASSI
100
AcDbLine
 62
7
  6
CONTINUOUS
 10
10.9449879291
 20
-12.1059998832
 11
10.946696829
 21
-11.9618370902
  0
LINE
  5
71A
100
AcDbEntity
  8
ASSI
100
AcDbLine
 62
7
  6
CONTINUOUS
 10
10.9451970244
 20
2.9132956737
 11
10.9469152217
 21
3.0545690442
  0
LINE
  5
71B
100
AcDbEntity
  8
RACCORDO
100
AcDbLine
 62
7
  6
CONTINUOUS
 10
10.9454798847
 20
-2.0613925232
 11
10.9471576649
 21
-1.927718052
  0
LWPOLYLINE
  5
71C
100
AcDbEntity
  8
0
100
AcDbPolyline
 62
7
  6
CONTINUOUS
 90
4
 70
0
 10
11.0103594806
 20
-16.0710745702
 10
11.0095771965
 20
-16.126966005
 10
11.0072396882
 20
-16.1827408031
 10
11.0033469558
 20
-16.2383989645
  0
LINE
  5
71D
100
AcDbEntity
  8
RACCORDO
100
AcDbLine
 62
7
  6
CONTINUOUS
 10
10.945686003
 20
-7.0434966304
 11
10.9473711836
 21
-6.9125507428
  0
LINE
  5
71E
100
AcDbEntity
  8
RACCORDO
100
AcDbLine
 62
7
  6
CONTINUOUS
 10
10.9456858536
 20
-12.0435094374
 11
10.9473710436
 21
-11.912560561
  0
LINE
  5
71F
100
AcDbEntity
  8
RACCORDO
100
AcDbLine
 62
7
  6
CONTINUOUS
 10
10.9458933558
 20
2.9740596628
 11
10.9475854756
 21
3.102268651
  0
LINE
  5
720
100
AcDbEntity
  8
ASSI
100
AcDbLine
 62
7
  6
CONTINUOUS
 10
10.9458327346
 20
-2.0310277224
 11
10.9475749713
 21
-1.898448441
  0
LINE
  5
721
100
AcDbEntity
  8
ASSI
100
AcDbLine
 62
7
  6
CONTINUOUS
 10
10.9466969796
 20
-6.9618256262
 11
10.9482417557
 21
-6.854799212
  0
LINE
  5
722
100
AcDbEntity
  8
ASSI
100
AcDbLine
 62
7
  6
CONTINUOUS
 10
10.946696829
 20
-11.9618370902
 11
10.9482416157
 21
-11.854807986
  0
LINE
  5
723
100
AcDbEntity
  8
ASSI
100
AcDbLine
 62
7
  6
CONTINUOUS
 10
10.9469152217
 20
3.0545690442
 11
10.9484653277
 21
3.1590052243
  0
LINE
  5
724
100
AcDbEntity
  8
RACCORDO
100
AcDbLine
 62
7
  6
CONTINUOUS
 10
10.9471576649
 20
-1.927718052
 11
10.9486671815
 21
-1.8288785968
  0
LINE
  5
725
100
AcDbEntity
  8
RACCORDO
100
AcDbLine
 62
7
  6
CONTINUOUS
 10
10.9473711836
 20
-6.9125507428
 11
10.9488850739
 21
-6.8161621087
  0
LINE
  5
726
100
AcDbEntity
  8
RACCORDO
100
AcDbLine
 62
7
  6
CONTINUOUS
 10
10.9473710436
 20
-11.912560561
 11
10.948884945
 21
-11.8161695257
  0
LINE
  5
727
100
AcDbEntity
  8
RACCORDO
100
AcDbLine
 62
7
  6
CONTINUOUS
 10
10.9475854756
 20
3.102268651
 11
10.9491033025
 21
3.1962046788
  0
LINE
  5
728
100
AcDbEntity
  8
ASSI
100
AcDbLine
 62
7
  6
CONTINUOUS
 10
10.9475749713
 20
-1.898448441
 11
10.9491387991
 21
-1.8018181662
  0
LINE
  5
729
100
AcDbEntity
  8
ASSI
100
AcDbLine
 62
7
  6
CONTINUOUS
 10
10.9482417557
 20
-6.854799212
 11
10.9498137879
 21
-6.7659963643
  0
LINE
  5
72A
100
AcDbEntity
  8
ASSI
100
AcDbLine
 62
7
  6
CONTINUOUS
 10
10.9482416157
 20
-11.854807986
 11
10.9498136621
 21
-11.7660027312
  0
LINE
  5
72B
100
AcDbEntity
  8
ASSI
100
AcDbLine
 62
7
  6
CONTINUOUS
 10
10.9484653277
 20
3.1590052243
 11
10.9500384631
 21
3.2452025661
  0
LINE
  5
72C
100
AcDbEntity
  8
RACCORDO
100
AcDbLine
 62
7
  6
CONTINUOUS
 10
10.9486671815
 20
-1.8288785968
 11
10.9501944217
 21
-1.7472289844
  0
LINE
  5
72D
100
AcDbEntity
  8
RACCORDO
100
AcDbLine
 62
7
  6
CONTINUOUS
 10
10.9491033025
 20
3.1962046788
 11
10.9505011364
 21
3.2671380522
  0
LINE
  5
72E
100
AcDbEntity
  8
RACCORDO
100
AcDbLine
 62
7
  6
CONTINUOUS
 10
10.9501944217
 20
-1.7472289844
 11
10.9505011364
 21
-1.7328619478
  0
LINE
  5
72F
100
AcDbEntity
  8
RACCORDO
100
AcDbLine
 62
7
  6
CONTINUOUS
 10
10.9488850739
 20
-6.8161621087
 11
10.9505011364
 21
-6.7328619478
  0
LINE
  5
730
100
AcDbEntity
  8
RACCORDO
100
AcDbLine
 62
7
  6
CONTINUOUS
 10
10.948884945
 20
-11.8161695257
 11
10.9505011367
 21
-11.7328619474
  0
LINE
  5
731
100
AcDbEntity
  8
ASSI
100
AcDbLine
 62
7
  6
CONTINUOUS
 10
10.9500384631
 20
3.2452025661
 11
10.9505005175
 21
3.2671372892
  0
LINE
  5
732
100
AcDbEntity
  8
ASSI
100
AcDbLine
 62
7
  6
CONTINUOUS
 10
10.9491387991
 20
-1.8018181662
 11
10.9505005175
 21
-1.7328627108
  0
LINE
  5
733
100
AcDbEntity
  8
ASSI
100
AcDbLine
 62
7
  6
CONTINUOUS
 10
10.9498137879
 20
-6.7659963643
 11
10.9505005175
 21
-6.7328627108
  0
LINE
  5
734
100
AcDbEntity
  8
ASSI
100
AcDbLine
 62
7
  6
CONTINUOUS
 10
10.9498136621
 20
-11.7660027312
 11
10.9505005193
 21
-11.7328627086
  0
LWPOLYLINE
  5
735
100
AcDbEntity
  8
RACCORDO
100
AcDbPolyline
 62
250
  6
CONTINUOUS
 90
8
 70
0
 10
10.6540508441
 20
-1.8978371398
 10
10.6525979664
 20
-1.9346568188
 10
10.6511695357
 20
-1.9815678226
 10
10.6497857557
 20
-2.0382992647
 10
10.6484475217
 20
-2.1045200894
 10
10.6471539385
 20
-2.1798712137
 10
10.6459225242
 20
-2.2639929856
 10
10.6436479793
 20
-2.4567682598
  0
LWPOLYLINE
  5
736
100
AcDbEntity
  8
ASSI
100
AcDbPolyline
 62
250
  6
CONTINUOUS
 90
8
 70
0
 10
10.6540508441
 20
-1.8978371398
 10
10.6525979664
 20
-1.9346568188
 10
10.6511695357
 20
-1.9815678226
 10
10.6497857557
 20
-2.0382992647
 10
10.6484475217
 20
-2.1045200894
 10
10.6471539385
 20
-2.1798712137
 10
10.6459225242
 20
-2.2639929856
 10
10.6436479793
 20
-2.4567682598
  0
LWPOLYLINE
  5
737
100
AcDbEntity
  8
RACCORDO
100
AcDbPolyline
 62
250
  6
CONTINUOUS
 90
9
 70
0
 10
10.6540508441
 20
-6.8978371398
 10
10.6525979664
 20
-6.9346568188
 10
10.6511695357
 20
-6.9815678226
 10
10.6497857557
 20
-7.0382992647
 10
10.6484475217
 20
-7.1045200894
 10
10.6471539385
 20
-7.1798712137
 10
10.6459225242
 20
-7.2639929856
 10
10.6447541673
 20
-7.3564484105
 10
10.6426188118
 20
-7.5645168339
  0
LWPOLYLINE
  5
738
100
AcDbEntity
  8
ASSI
100
AcDbPolyline
 62
250
  6
CONTINUOUS
 90
9
 70
0
 10
10.6540508441
 20
-6.8978371398
 10
10.6525979664
 20
-6.9346568188
 10
10.6511695357
 20
-6.9815678226
 10
10.6497857557
 20
-7.0382992647
 10
10.6484475217
 20
-7.1045200894
 10
10.6471539385
 20
-7.1798712137
 10
10.6459225242
 20
-7.2639929856
 10
10.6447541673
 20
-7.3564484105
 10
10.6426188118
 20
-7.5645168339
  0
LWPOLYLINE
  5
739
100
AcDbEntity
  8
RACCORDO
100
AcDbPolyline
 62
250
  6
CONTINUOUS
 90
9
 70
0
 10
10.6540508461
 20
-11.8978370917
 10
10.6525979748
 20
-11.9346565588
 10
10.6511695525
 20
-11.9815671715
 10
10.6497857794
 20
-12.0382981634
 10
10.6484475489
 20
-12.104518599
 10
10.6471539674
 20
-12.1798693662
 10
10.6459225541
 20
-12.2639907619
 10
10.6447541995
 20
-12.3564456053
 10
10.6426188429
 20
-12.5645133228
  0
LWPOLYLINE
  5
73A
100
AcDbEntity
  8
ASSI
100
AcDbPolyline
 62
250
  6
CONTINUOUS
 90
9
 70
0
 10
10.6540508461
 20
-11.8978370917
 10
10.6525979748
 20
-11.9346565588
 10
10.6511695525
 20
-11.9815671715
 10
10.6497857794
 20
-12.0382981634
 10
10.6484475489
 20
-12.104518599
 10
10.6471539674
 20
-12.1798693662
 10
10.6459225541
 20
-12.2639907619
 10
10.6447541995
 20
-12.3564456053
 10
10.6426188429
 20
-12.5645133228
  0
LWPOLYLINE
  5
73B
100
AcDbEntity
  8
RACCORDO
100
AcDbPolyline
 62
7
  6
CONTINUOUS
 90
4
 70
0
 10
10.944687122
 20
-16.2474889072
 10
10.9469525469
 20
-16.2168463586
 10
10.9482990123
 20
-16.1817040964
 10
10.9483456745
 20
-16.1514445074
  0
LWPOLYLINE
  5
73C
100
AcDbEntity
  8
ASSI
100
AcDbPolyline
 62
7
  6
CONTINUOUS
 90
4
 70
0
 10
10.944687122
 20
-16.2474889072
 10
10.9469525469
 20
-16.2168463586
 10
10.9482990123
 20
-16.1817040964
 10
10.9483456746
 20
-16.1514445121
  0
LINE
  5
73D
100
AcDbEntity
  8
RACCORDO
100
AcDbLine
 62
7
  6
CONTINUOUS
 10
11.1777963279
 20
-0.6661475599
 11
11.1777453242
 21
-0.6666963383
  0
LWPOLYLINE
  5
73E
100
AcDbEntity
  8
RACCORDO
100
AcDbPolyline
 62
250
  6
CONTINUOUS
 90
4
 70
0
 10
10.6585359545
 20
-1.85
 10
10.6570164708
 20
-1.8553504461
 10
10.655521434
 20
-1.8713400553
 10
10.6540508441
 20
-1.8978371398
  0
LWPOLYLINE
  5
73F
100
AcDbEntity
  8
ASSI
100
AcDbPolyline
 62
250
  6
CONTINUOUS
 90
4
 70
0
 10
10.6585359545
 20
-1.85
 10
10.6570164708
 20
-1.8553504461
 10
10.655521434
 20
-1.8713400553
 10
10.6540508441
 20
-1.8978371398
  0
LWPOLYLINE
  5
740
100
AcDbEntity
  8
RACCORDO
100
AcDbPolyline
 62
250
  6
CONTINUOUS
 90
4
 70
0
 10
10.6585359545
 20
-6.85
 10
10.6570164708
 20
-6.8553504461
 10
10.655521434
 20
-6.8713400553
 10
10.6540508441
 20
-6.8978371398
  0
LWPOLYLINE
  5
741
100
AcDbEntity
  8
ASSI
100
AcDbPolyline
 62
250
  6
CONTINUOUS
 90
4
 70
0
 10
10.6585359545
 20
-6.85
 10
10.6570164708
 20
-6.8553504461
 10
10.655521434
 20
-6.8713400553
 10
10.6540508441
 20
-6.8978371398
  0
LINE
  5
742
100
AcDbEntity
  8
RACCORDO
100
AcDbLine
 62
7
  6
CONTINUOUS
 10
11.1777453242
 20
-0.6666963383
 11
11.15
 21
-0.75
  0
LINE
  5
743
100
AcDbEntity
  8
0
100
AcDbLine
 62
7
  6
CONTINUOUS
 10
-2.6815326753
 20
-18.5208065713
 11
-2.5
 21
-18.3392738961
  0
LINE
  5
744
100
AcDbEntity
  8
ASSI
100
AcDbLine
 62
7
  6
CONTINUOUS
 10
-2.6815326753
 20
-18.5208065713
 11
-2.5
 21
-18.3392738961
  0
LINE
  5
745
100
AcDbEntity
  8
0
100
AcDbLine
 62
250
  6
CONTINUOUS
 10
-11.0130903017
 20
-16.0720258912
 11
-11.15
 21
-16.119659166
  0
LINE
  5
746
100
AcDbEntity
  8
CURVE
100
AcDbLine
 62
250
  6
CONTINUOUS
 10
7.6187839808
 20
11.0176274309
 11
8.1759268435
 21
11.0176274309
  0
LINE
  5
747
100
AcDbEntity
  8
CURVE
100
AcDbLine
 62
250
  6
CONTINUOUS
 10
3.6187839808
 20
11.1104848395
 11
4.1759268435
 21
11.1104848395
  0
LINE
  5
748
100
AcDbEntity
  8
CURVE
100
AcDbLine
 62
250
  6
CONTINUOUS
 10
-3.0
 20
11.907638
 11
-4.019012
 21
11.907638
  0
LINE
  5
749
100
AcDbEntity
  8
0
100
AcDbLine
 62
250
  6
CONTINUOUS
 10
-11.0130903017
 20
16.0720258912
 11
-11.15
 21
16.119659166
  0
LINE
  5
74A
100
AcDbEntity
  8
CURVE
100
AcDbLine
 62
250
  6
CONTINUOUS
 10
4.1759268435
 20
10.0890561352
 11
4.3616411375
 21
9.9961990366
  0
LINE
  5
74B
100
AcDbEntity
  8
CURVE
100
AcDbLine
 62
250
  6
CONTINUOUS
 10
3.6187839808
 20
10.4604848395
 11
3.4330697062
 21
10.553341938
  0
LINE
  5
74C
100
AcDbEntity
  8
CURVE
100
AcDbLine
 62
250
  6
CONTINUOUS
 10
7.6187839808
 20
9.3461990366
 11
7.4330697062
 21
9.4390561352
  0
LINE
  5
74D
100
AcDbEntity
  8
CURVE
100
AcDbLine
 62
250
  6
CONTINUOUS
 10
4.1759268435
 20
11.1104848395
 11
4.3616411375
 21
11.0176274309
  0
LINE
  5
74E
100
AcDbEntity
  8
CURVE
100
AcDbLine
 62
250
  6
CONTINUOUS
 10
4.3616411375
 20
11.0176274309
 11
4.5473554315
 21
10.8319132338
  0
LINE
  5
74F
100
AcDbEntity
  8
CURVE
100
AcDbLine
 62
250
  6
CONTINUOUS
 10
8.3616411375
 20
7.0247704873
 11
8.5473554315
 21
6.8390561352
  0
LINE
  5
750
100
AcDbEntity
  8
CURVE
100
AcDbLine
 62
250
  6
CONTINUOUS
 10
7.4330697062
 20
9.4390561352
 11
7.2473554315
 21
9.6247703324
  0
LINE
  5
751
100
AcDbEntity
  8
CURVE
100
AcDbLine
 62
250
  6
CONTINUOUS
 10
8.5473554315
 20
8.8819132338
 11
8.4544982845
 21
8.9747703324
  0
LINE
  5
752
100
AcDbEntity
  8
CURVE
100
AcDbLine
 62
250
  6
CONTINUOUS
 10
7.8044982555
 20
8.7890561352
 11
7.7116411569
 21
8.9438180695
  0
LINE
  5
753
100
AcDbEntity
  8
RACCORDO
100
AcDbLine
 62
7
  6
CONTINUOUS
 10
11.1777453242
 20
0.6666963383
 11
11.15
 21
0.75
  0
LINE
  5
754
100
AcDbEntity
  8
0
100
AcDbLine
 62
7
  6
CONTINUOUS
 10
11.0033469558
 20
-16.2383989645
 11
10.9978936442
 21
-16.2939880025
  0
LINE
  5
755
100
AcDbEntity
  8
0
100
AcDbLine
 62
7
  6
CONTINUOUS
 10
10.9978936442
 20
-16.2939880025
 11
10.9920932155
 21
-16.3398982636
  0
LWPOLYLINE
  5
756
100
AcDbEntity
  8
0
100
AcDbPolyline
 62
7
  6
CONTINUOUS
 90
3
 70
0
 10
10.9823374134
 20
-16.4046736282
 10
10.9722469846
 20
-16.4596227396
 10
10.9606173965
 20
-16.5143126742
  0
LWPOLYLINE
  5
757
100
AcDbEntity
  8
RACCORDO
100
AcDbPolyline
 62
250
  6
CONTINUOUS
 90
4
 70
0
 10
10.6585359545
 20
-11.85
 10
10.6570164693
 20
-11.8553504582
 10
10.6555214331
 20
-11.8713400687
 10
10.6540508461
 20
-11.8978370917
  0
LWPOLYLINE
  5
758
100
AcDbEntity
  8
ASSI
100
AcDbPolyline
 62
250
  6
CONTINUOUS
 90
4
 70
0
 10
10.6585359545
 20
-11.85
 10
10.6570164693
 20
-11.8553504582
 10
10.6555214331
 20
-11.8713400687
 10
10.6540508461
 20
-11.8978370917
  0
LINE
  5
759
100
AcDbEntity
  8
0
100
AcDbLine
 62
7
  6
CONTINUOUS
 10
2.6605865973
 20
-16.6
 11
2.6815326753
 21
-16.5790539221
  0
LINE
  5
75A
100
AcDbEntity
  8
ASSI
100
AcDbLine
 62
7
  6
CONTINUOUS
 10
2.6605865973
 20
-16.6
 11
2.6815326753
 21
-16.5790539221
  0
LINE
  5
75B
100
AcDbEntity
  8
0
100
AcDbLine
 62
250
  6
CONTINUOUS
 10
-10.5773352489
 20
-17.3137825538
 11
-10.7193014234
 21
-17.3594295692
  0
LINE
  5
75C
100
AcDbEntity
  8
CURVE
100
AcDbLine
 62
250
  6
CONTINUOUS
 10
-9.191705
 20
12.931124
 11
-5.829484
 21
13.225174
  0
LINE
  5
75D
100
AcDbEntity
  8
CURVE
100
AcDbLine
 62
250
  6
CONTINUOUS
 10
-9.191705
 20
13.218216
 11
-9.586323
 21
13.218216
  0
LINE
  5
75E
100
AcDbEntity
  8
CURVE
100
AcDbLine
 62
250
  6
CONTINUOUS
 10
-5.633036
 20
13.281883
 11
-5.829484
 21
13.281883
  0
LINE
  5
75F
100
AcDbEntity
  8
CURVE
100
AcDbLine
 62
250
  6
CONTINUOUS
 10
-9.586323
 20
13.31759
 11
-9.191705
 21
13.31759
  0
LINE
  5
760
100
AcDbEntity
  8
CURVE
100
AcDbLine
 62
250
  6
CONTINUOUS
 10
-5.829484
 20
13.399503
 11
-5.633036
 21
13.399503
  0
LINE
  5
761
100
AcDbEntity
  8
CURVE
100
AcDbLine
 62
250
  6
CONTINUOUS
 10
-8.148279
 20
13.78807
 11
-8.363915
 21
13.78807
  0
LINE
  5
762
100
AcDbEntity
  8
CURVE
100
AcDbLine
 62
250
  6
CONTINUOUS
 10
-9.461803
 20
13.843073
 11
-9.679297
 21
13.843073
  0
LINE
  5
763
100
AcDbEntity
  8
CURVE
100
AcDbLine
 62
250
  6
CONTINUOUS
 10
4.5473554315
 20
12.3176274309
 11
3.2473554315
 21
12.5961990366
  0
LINE
  5
764
100
AcDbEntity
  8
CURVE
100
AcDbLine
 62
250
  6
CONTINUOUS
 10
8.5473554315
 20
12.2247706423
 11
7.2473554315
 21
12.5033416281
  0
LINE
  5
765
100
AcDbEntity
  8
CURVE
100
AcDbLine
 62
250
  6
CONTINUOUS
 10
4.5473554315
 20
11.7604848395
 11
3.6187839808
 21
12.0390564451
  0
LINE
  5
766
100
AcDbEntity
  8
CURVE
100
AcDbLine
 62
250
  6
CONTINUOUS
 10
8.5473554315
 20
11.6676274309
 11
7.6187839808
 21
11.9461990366
  0
LINE
  5
767
100
AcDbEntity
  8
0
100
AcDbLine
 62
250
  6
CONTINUOUS
 10
-10.5773352489
 20
17.3137825538
 11
-10.7193014234
 21
17.3594295692
  0
LINE
  5
768
100
AcDbEntity
  8
CURVE
100
AcDbLine
 62
250
  6
CONTINUOUS
 10
8.1759268435
 20
9.9961990366
 11
8.3616411375
 21
9.903341938
  0
LINE
  5
769
100
AcDbEntity
  8
CURVE
100
AcDbLine
 62
250
  6
CONTINUOUS
 10
7.6187839808
 20
10.3676277409
 11
7.4330697062
 21
10.4604848395
  0
LINE
  5
76A
100
AcDbEntity
  8
CURVE
100
AcDbLine
 62
250
  6
CONTINUOUS
 10
8.1759268435
 20
11.0176274309
 11
8.3616411375
 21
10.9247706423
  0
LINE
  5
76B
100
AcDbEntity
  8
CURVE
100
AcDbLine
 62
250
  6
CONTINUOUS
 10
7.4330697062
 20
10.4604848395
 11
7.2473554315
 21
10.6461990366
  0
LINE
  5
76C
100
AcDbEntity
  8
CURVE
100
AcDbLine
 62
250
  6
CONTINUOUS
 10
8.3616411375
 20
9.903341938
 11
8.5473554315
 21
9.7176277409
  0
LINE
  5
76D
100
AcDbEntity
  8
0
100
AcDbLine
 62
7
  6
CONTINUOUS
 10
2.5
 20
16.6
 11
2.6312329953
 21
16.4687670047
  0
LINE
  5
76E
100
AcDbEntity
  8
ASSI
100
AcDbLine
 62
7
  6
CONTINUOUS
 10
2.5
 20
16.6
 11
2.6312329953
 21
16.4687670047
  0
LINE
  5
76F
100
AcDbEntity
  8
CURVE
100
AcDbLine
 62
250
  6
CONTINUOUS
 10
8.3616411375
 20
10.9247706423
 11
8.5473554315
 21
10.7390564451
  0
LINE
  5
770
100
AcDbEntity
  8
0
100
AcDbLine
 62
7
  6
CONTINUOUS
 10
10.9606173965
 20
-16.5143126742
 11
10.9474754375
 21
-16.5686157012
  0
LWPOLYLINE
  5
771
100
AcDbEntity
  8
0
100
AcDbPolyline
 62
7
  6
CONTINUOUS
 90
3
 70
0
 10
10.9474754375
 20
-16.5686157012
 10
10.932817255
 20
-16.6225316989
 10
10.9166467015
 20
-16.6760607888
  0
LWPOLYLINE
  5
772
100
AcDbEntity
  8
0
100
AcDbPolyline
 62
7
  6
CONTINUOUS
 90
14
 70
0
 10
10.9166467015
 20
-16.6760607888
 10
10.8990021235
 20
-16.7290756051
 10
10.879880049
 20
-16.7815744765
 10
10.8592839501
 20
-16.8335590743
 10
10.8372625882
 20
-16.8849070465
 10
10.8138127755
 20
-16.9356164941
 10
10.7889376999
 20
-16.985689316
 10
10.7626956868
 20
-17.0350088571
 10
10.7350809674
 20
-17.0835766527
 10
10.7060993105
 20
-17.1313911674
 10
10.6758263478
 20
-17.1783311401
 10
10.6442872897
 20
-17.2243561504
 10
10.6114569258
 20
-17.2695066187
 10
10.5773352561
 20
-17.3137825449
  0
LINE
  5
773
100
AcDbEntity
  8
0
100
AcDbLine
 62
7
  6
CONTINUOUS
 10
3.3
 20
-22.4
 11
3.230158461
 21
-22.5048155586
  0
LINE
  5
774
100
AcDbEntity
  8
DRAFT
100
AcDbLine
 62
7
  6
CONTINUOUS
 10
1.9650898701
 20
-18.2849101299
 11
2.0
 21
-18.25
  0
LINE
  5
775
100
AcDbEntity
  8
CURVE
100
AcDbLine
 62
250
  6
CONTINUOUS
 10
3.2473554315
 20
14.2676274309
 11
4.5473554315
 21
14.2676274309
  0
LINE
  5
776
100
AcDbEntity
  8
CURVE
100
AcDbLine
 62
250
  6
CONTINUOUS
 10
-9.678739
 20
14.416076
 11
-9.461245
 21
14.416076
  0
LINE
  5
777
100
AcDbEntity
  8
CURVE
100
AcDbLine
 62
250
  6
CONTINUOUS
 10
8.5473554315
 20
14.5461990366
 11
7.2473554315
 21
14.5461990366
  0
LINE
  5
778
100
AcDbEntity
  8
CURVE
100
AcDbLine
 62
250
  6
CONTINUOUS
 10
-8.363915
 20
14.61141
 11
-8.148279
 21
14.61141
  0
LINE
  5
779
100
AcDbEntity
  8
CURVE
100
AcDbLine
 62
250
  6
CONTINUOUS
 10
-8.456331
 20
15.067887
 11
-8.828795
 21
15.067887
  0
LINE
  5
77A
100
AcDbEntity
  8
CURVE
100
AcDbLine
 62
250
  6
CONTINUOUS
 10
4.5473554315
 20
15.1033416281
 11
3.2473554315
 21
15.1033416281
  0
LINE
  5
77B
100
AcDbEntity
  8
CURVE
100
AcDbLine
 62
250
  6
CONTINUOUS
 10
8.5473554315
 20
15.2890564451
 11
7.2473554315
 21
15.2890564451
  0
LINE
  5
77C
100
AcDbEntity
  8
CURVE
100
AcDbLine
 62
250
  6
CONTINUOUS
 10
-8.828795
 20
15.417947
 11
-8.456331
 21
15.417947
  0
LINE
  5
77D
100
AcDbEntity
  8
CURVE
100
AcDbLine
 62
250
  6
CONTINUOUS
 10
-6.267628
 20
14.880593
 11
-9.164153
 21
15.149839
  0
LINE
  5
77E
100
AcDbEntity
  8
DRAFT
100
AcDbLine
 62
7
  6
CONTINUOUS
 10
1.9812802806
 20
18.2687197194
 11
2.0
 21
18.25
  0
LWPOLYLINE
  5
77F
100
AcDbEntity
  8
RACCORDO
100
AcDbPolyline
 62
7
  6
CONTINUOUS
 90
11
 70
0
 10
3.2371426149
 20
21.3629352605
 10
3.2364960555
 20
21.3638754312
 10
3.2358785591
 20
21.3661834843
 10
3.2352901257
 20
21.3698594198
 10
3.2347299433
 20
21.3750168983
 10
3.2341988239
 20
21.381542259
 10
3.2336992037
 20
21.3890945205
 10
3.233232855
 20
21.3975749192
 10
3.2327980056
 20
21.4070822186
 10
3.2323917741
 20
21.4175717273
 10
3.2320105844
 20
21.4291186386
  0
LINE
  5
780
100
AcDbEntity
  8
0
100
AcDbLine
 62
7
  6
CONTINUOUS
 10
3.230158461
 20
22.5048155586
 11
3.3
 21
22.4
  0
LINE
  5
781
100
AcDbEntity
  8
0
100
AcDbLine
 62
7
  6
CONTINUOUS
 10
10.9166493752
 20
16.6760526429
 11
10.9328191289
 21
16.6225253681
  0
LWPOLYLINE
  5
782
100
AcDbEntity
  8
0
100
AcDbPolyline
 62
7
  6
CONTINUOUS
 90
3
 70
0
 10
10.9328191289
 20
16.6225253681
 10
10.9474766073
 20
16.5686111478
 10
10.9606181122
 20
16.5143095342
  0
LWPOLYLINE
  5
783
100
AcDbEntity
  8
0
100
AcDbPolyline
 62
7
  6
CONTINUOUS
 90
5
 70
0
 10
10.9606181122
 20
16.5143095342
 10
10.9722473418
 20
16.4596209751
 10
10.9823375005
 20
16.4046731133
 10
10.9908850226
 20
16.3494611372
 10
10.9915746446
 20
16.3440028391
  0
LINE
  5
784
100
AcDbEntity
  8
0
100
AcDbLine
 62
7
  6
CONTINUOUS
 10
2.6605865973
 20
-16.9973819397
 11
2.5
 21
-17.0776691233
  0
LINE
  5
785
100
AcDbEntity
  8
ASSI
100
AcDbLine
 62
7
  6
CONTINUOUS
 10
2.6605865973
 20
-16.9973819397
 11
2.5
 21
-17.0776691233
  0
LINE
  5
786
100
AcDbEntity
  8
0
100
AcDbLine
 62
7
  6
CONTINUOUS
 10
2.6312329953
 20
18.3636248878
 11
2.3123309216
 21
18.3
  0
LINE
  5
787
100
AcDbEntity
  8
ASSI
100
AcDbLine
 62
7
  6
CONTINUOUS
 10
2.6312329953
 20
18.3636248878
 11
2.3123309216
 21
18.3
  0
LINE
  5
788
100
AcDbEntity
  8
CURVE
100
AcDbLine
 62
250
  6
CONTINUOUS
 10
-4.019012
 20
16.092362
 11
-3.0
 21
16.092362
  0
LINE
  5
789
100
AcDbEntity
  8
0
100
AcDbLine
 62
7
  6
CONTINUOUS
 10
2.6312329953
 20
16.4687670047
 11
-2.6312329953
 21
16.4687670047
  0
LINE
  5
78A
100
AcDbEntity
  8
ASSI
100
AcDbLine
 62
7
  6
CONTINUOUS
 10
2.6312329953
 20
16.4687670047
 11
-2.6312329953
 21
16.4687670047
  0
LINE
  5
78B
100
AcDbEntity
  8
0
100
AcDbLine
 62
7
  6
CONTINUOUS
 10
2.5
 20
16.6
 11
-2.5
 21
16.6
  0
LINE
  5
78C
100
AcDbEntity
  8
ASSI
100
AcDbLine
 62
7
  6
CONTINUOUS
 10
2.5
 20
16.6
 11
-2.5
 21
16.6
  0
LINE
  5
78D
100
AcDbEntity
  8
IMPORT_IGES
100
AcDbLine
 62
7
  6
CONTINUOUS
 10
2.5
 20
16.9
 11
-2.5
 21
16.9
  0
LINE
  5
78E
100
AcDbEntity
  8
0
100
AcDbLine
 62
250
  6
CONTINUOUS
 10
10.6
 20
17.3
 11
10.4157325846
 21
17.3
  0
LINE
  5
78F
100
AcDbEntity
  8
RACCORDO
100
AcDbLine
 62
7
  6
CONTINUOUS
 10
-1.5812650492
 20
17.3
 11
1.5812650492
 21
17.3
  0
LINE
  5
790
100
AcDbEntity
  8
ASSI
100
AcDbLine
 62
7
  6
CONTINUOUS
 10
-1.5812650492
 20
17.3
 11
1.5812650492
 21
17.3
  0
LINE
  5
791
100
AcDbEntity
  8
ASSI
100
AcDbLine
 62
7
  6
CONTINUOUS
 10
2.5
 20
17.5
 11
-2.5
 21
17.5
  0
LINE
  5
792
100
AcDbEntity
  8
0
100
AcDbLine
 62
7
  6
CONTINUOUS
 10
-2.3123309216
 20
18.3
 11
-2.6312329953
 21
18.3636248878
  0
LINE
  5
793
100
AcDbEntity
  8
ASSI
100
AcDbLine
 62
7
  6
CONTINUOUS
 10
-2.3123309216
 20
18.3
 11
-2.6312329953
 21
18.3636248878
  0
LINE
  5
794
100
AcDbEntity
  8
RACCORDO
100
AcDbLine
 62
7
  6
CONTINUOUS
 10
10.8787356532
 20
-16.6054953972
 11
10.0444899025
 21
-17.8568640232
  0
LINE
  5
795
100
AcDbEntity
  8
ASSI
100
AcDbLine
 62
7
  6
CONTINUOUS
 10
10.8787356532
 20
-16.6054953972
 11
10.0444899025
 21
-17.8568640232
  0
LWPOLYLINE
  5
796
100
AcDbEntity
  8
ASSI
100
AcDbPolyline
 62
7
  6
CONTINUOUS
 90
13
 70
0
 10
10.7193014234
 20
-17.3594295692
 10
10.7862331336
 20
-17.2695748947
 10
10.8477227304
 20
-17.1767591739
 10
10.903770214
 20
-17.0809824067
 10
10.9545113172
 20
-16.9819349315
 10
10.9998103071
 20
-16.87992641
 10
11.0392599851
 20
-16.7758858265
 10
11.0728101035
 20
-16.6697957248
 10
11.10051091
 20
-16.5616735612
 10
11.1221059485
 20
-16.4525006882
 10
11.1375097336
 20
-16.3426042235
 10
11.1468077508
 20
-16.2316570494
 10
11.15
 20
-16.119659166
  0
LINE
  5
797
100
AcDbEntity
  8
ASSI
100
AcDbLine
 62
7
  6
CONTINUOUS
 10
3.4
 20
-23.4301797403
 11
3.3633443637
 21
-23.4668353766
  0
LINE
  5
798
100
AcDbEntity
  8
DRAFT
100
AcDbLine
 62
7
  6
CONTINUOUS
 10
-4.7909419891
 20
-21.1271628567
 11
-4.8
 21
-21.1301797403
  0
LINE
  5
799
100
AcDbEntity
  8
0
100
AcDbLine
 62
7
  6
CONTINUOUS
 10
-2.3123309216
 20
18.3
 11
-2.5
 21
18.2625577096
  0
LINE
  5
79A
100
AcDbEntity
  8
ASSI
100
AcDbLine
 62
7
  6
CONTINUOUS
 10
-2.3123309216
 20
18.3
 11
-2.5
 21
18.2625577096
  0
LINE
  5
79B
100
AcDbEntity
  8
ASSI
100
AcDbLine
 62
7
  6
CONTINUOUS
 10
2.5
 20
18.2
 11
-2.5
 21
18.2
  0
LINE
  5
79C
100
AcDbEntity
  8
RACCORDO
100
AcDbLine
 62
7
  6
CONTINUOUS
 10
9.3788750126
 20
18.2130903017
 11
4.0130903017
 21
18.2130903017
  0
LINE
  5
79D
100
AcDbEntity
  8
ASSI
100
AcDbLine
 62
7
  6
CONTINUOUS
 10
9.3788750126
 20
18.2130903017
 11
4.0130903017
 21
18.2130903017
  0
LINE
  5
79E
100
AcDbEntity
  8
DRAFT
100
AcDbLine
 62
7
  6
CONTINUOUS
 10
9.3788750126
 20
18.2150898701
 11
9.6013954048
 21
18.2150898701
  0
LINE
  5
79F
100
AcDbEntity
  8
DRAFT
100
AcDbLine
 62
7
  6
CONTINUOUS
 10
-2.5
 20
18.25
 11
-2.0
 21
18.25
  0
LINE
  5
7A0
100
AcDbEntity
  8
DRAFT
100
AcDbLine
 62
7
  6
CONTINUOUS
 10
2.0
 20
18.25
 11
2.5
 21
18.25
  0
LINE
  5
7A1
100
AcDbEntity
  8
DRAFT
100
AcDbLine
 62
7
  6
CONTINUOUS
 10
2.3879647033
 20
18.2849101299
 11
1.9812802806
 21
18.2849101299
  0
LINE
  5
7A2
100
AcDbEntity
  8
DRAFT
100
AcDbLine
 62
7
  6
CONTINUOUS
 10
-1.9812802806
 20
18.2849101299
 11
-2.3879647033
 21
18.2849101299
  0
LINE
  5
7A3
100
AcDbEntity
  8
0
100
AcDbLine
 62
7
  6
CONTINUOUS
 10
2.3123309216
 20
18.3
 11
-2.3123309216
 21
18.3
  0
LINE
  5
7A4
100
AcDbEntity
  8
ASSI
100
AcDbLine
 62
7
  6
CONTINUOUS
 10
2.3123309216
 20
18.3
 11
-2.3123309216
 21
18.3
  0
LINE
  5
7A5
100
AcDbEntity
  8
ASSI
100
AcDbLine
 62
7
  6
CONTINUOUS
 10
4.0130903017
 20
18.3
 11
9.2
 21
18.3
  0
LINE
  5
7A6
100
AcDbEntity
  8
0
100
AcDbLine
 62
7
  6
CONTINUOUS
 10
-2.6312329953
 20
18.3636248878
 11
2.6312329953
 21
18.3636248878
  0
LINE
  5
7A7
100
AcDbEntity
  8
ASSI
100
AcDbLine
 62
7
  6
CONTINUOUS
 10
-2.6312329953
 20
18.3636248878
 11
2.6312329953
 21
18.3636248878
  0
LINE
  5
7A8
100
AcDbEntity
  8
ASSI
100
AcDbLine
 62
7
  6
CONTINUOUS
 10
4.0130903017
 20
18.7
 11
9.2
 21
18.7
  0
LINE
  5
7A9
100
AcDbEntity
  8
DRAFT
100
AcDbLine
 62
7
  6
CONTINUOUS
 10
8.0267949192
 20
18.25
 11
4.0131070552
 21
18.2517398249
  0
LINE
  5
7AA
100
AcDbEntity
  8
DRAFT
100
AcDbLine
 62
7
  6
CONTINUOUS
 10
9.5146548827
 20
18.2485002183
 11
8.0267949192
 21
18.25
  0
LINE
  5
7AB
100
AcDbEntity
  8
DRAFT
100
AcDbLine
 62
7
  6
CONTINUOUS
 10
8.0267949192
 20
18.2482544935
 11
8.5358983849
 21
18.2150898701
  0
LINE
  5
7AC
100
AcDbEntity
  8
0
100
AcDbLine
 62
7
  6
CONTINUOUS
 10
2.5
 20
18.2625577096
 11
2.3123309216
 21
18.3
  0
LINE
  5
7AD
100
AcDbEntity
  8
ASSI
100
AcDbLine
 62
7
  6
CONTINUOUS
 10
2.5
 20
18.2625577096
 11
2.3123309216
 21
18.3
  0
LINE
  5
7AE
100
AcDbEntity
  8
DRAFT
100
AcDbLine
 62
7
  6
CONTINUOUS
 10
-4.7909419891
 20
21.1271628567
 11
-4.8
 21
21.1301797403
  0
LINE
  5
7AF
100
AcDbEntity
  8
ASSI
100
AcDbLine
 62
7
  6
CONTINUOUS
 10
3.4
 20
23.4301797403
 11
3.3633443637
 21
23.4668353766
  0
LINE
  5
7B0
100
AcDbEntity
  8
0
100
AcDbLine
 62
7
  6
CONTINUOUS
 10
10.6
 20
17.2843731232
 11
10.6114561022
 21
17.2695078619
  0
LWPOLYLINE
  5
7B1
100
AcDbEntity
  8
ASSI
100
AcDbPolyline
 62
7
  6
CONTINUOUS
 90
13
 70
0
 10
10.7193014234
 20
17.3594295692
 10
10.7862331336
 20
17.2695748947
 10
10.8477227304
 20
17.1767591739
 10
10.903770214
 20
17.0809824067
 10
10.9545113172
 20
16.9819349315
 10
10.9998103071
 20
16.87992641
 10
11.0392599851
 20
16.7758858265
 10
11.0728101035
 20
16.6697957248
 10
11.10051091
 20
16.5616735612
 10
11.1221059485
 20
16.4525006882
 10
11.1375097336
 20
16.3426042235
 10
11.1468077508
 20
16.2316570494
 10
11.15
 20
16.119659166
  0
LWPOLYLINE
  5
7B2
100
AcDbEntity
  8
0
100
AcDbPolyline
 62
7
  6
CONTINUOUS
 90
13
 70
0
 10
10.6114561022
 20
17.2695078619
 10
10.6442859807
 20
17.2243581236
 10
10.6758248916
 20
17.17833333
 10
10.7060981549
 20
17.131392941
 10
10.7350804507
 20
17.0835774966
 10
10.7626958185
 20
17.0350086177
 10
10.7889383969
 20
16.9856879474
 10
10.8138140473
 20
16.9356138424
 10
10.837264394
 20
16.8849029934
 10
10.859286339
 20
16.8335531309
 10
10.8798829803
 20
16.7815665243
 10
10.8990052359
 20
16.7290666728
 10
10.9166493752
 20
16.6760526429
  0
LINE
  5
7B3
100
AcDbEntity
  8
RACCORDO
100
AcDbLine
 62
7
  6
CONTINUOUS
 10
10.8787356532
 20
16.6054953972
 11
10.0444899025
 21
17.8568640232
  0
LINE
  5
7B4
100
AcDbEntity
  8
ASSI
100
AcDbLine
 62
7
  6
CONTINUOUS
 10
10.8787356532
 20
16.6054953972
 11
10.0444899025
 21
17.8568640232
  0
LINE
  5
7B5
100
AcDbEntity
  8
DRAFT
100
AcDbLine
 62
7
  6
CONTINUOUS
 10
9.7584264418
 20
-18.2482544935
 11
9.831037247
 21
-18.2150898701
  0
LINE
  5
7B6
100
AcDbEntity
  8
0
100
AcDbLine
 62
7
  6
CONTINUOUS
 10
3.4
 20
21.2
 11
2.6175930356
 21
21.1271628567
  0
LINE
  5
7B7
100
AcDbEntity
  8
0
100
AcDbLine
 62
7
  6
CONTINUOUS
 10
8.6997562296
 20
19.4
 11
4.0
 21
19.4
  0
LINE
  5
7B8
100
AcDbEntity
  8
RACCORDO
100
AcDbLine
 62
7
  6
CONTINUOUS
 10
3.7131017248
 20
19.6130903017
 11
-8.13144548
 21
19.6130903017
  0
LINE
  5
7B9
100
AcDbEntity
  8
ASSI
100
AcDbLine
 62
7
  6
CONTINUOUS
 10
3.7131017248
 20
19.6130903017
 11
-8.13144548
 21
19.6130903017
  0
LINE
  5
7BA
100
AcDbEntity
  8
RACCORDO
100
AcDbLine
 62
250
  6
CONTINUOUS
 10
8.45
 20
20.1152614489
 11
8.2232212694
 21
20.1152614489
  0
LINE
  5
7BB
100
AcDbEntity
  8
ASSI
100
AcDbLine
 62
250
  6
CONTINUOUS
 10
8.45
 20
20.1152614489
 11
8.2232212694
 21
20.1152614489
  0
LINE
  5
7BC
100
AcDbEntity
  8
RACCORDO
100
AcDbLine
 62
250
  6
CONTINUOUS
 10
-8.2232212694
 20
20.1152614489
 11
-8.45
 21
20.1152614489
  0
LINE
  5
7BD
100
AcDbEntity
  8
ASSI
100
AcDbLine
 62
250
  6
CONTINUOUS
 10
-8.2232212694
 20
20.1152614489
 11
-8.45
 21
20.1152614489
  0
LINE
  5
7BE
100
AcDbEntity
  8
DRAFT
100
AcDbLine
 62
7
  6
CONTINUOUS
 10
8.45
 20
20.3
 11
8.0307395699
 21
20.3
  0
LINE
  5
7BF
100
AcDbEntity
  8
DRAFT
100
AcDbLine
 62
7
  6
CONTINUOUS
 10
-8.0307395699
 20
20.3
 11
-8.45
 21
20.3
  0
LINE
  5
7C0
100
AcDbEntity
  8
DRAFT
100
AcDbLine
 62
7
  6
CONTINUOUS
 10
-8.4579943206
 20
20.3079943206
 11
-8.0224101746
 21
20.3079943206
  0
LINE
  5
7C1
100
AcDbEntity
  8
DRAFT
100
AcDbLine
 62
7
  6
CONTINUOUS
 10
8.0224101746
 20
20.3079943206
 11
8.4579943206
 21
20.3079943206
  0
LINE
  5
7C2
100
AcDbEntity
  8
DRAFT
100
AcDbLine
 62
7
  6
CONTINUOUS
 10
-8.4674550649
 20
20.85
 11
-7.4343626501
 21
20.85
  0
LINE
  5
7C3
100
AcDbEntity
  8
DRAFT
100
AcDbLine
 62
7
  6
CONTINUOUS
 10
7.4343626501
 20
20.85
 11
8.4674550649
 21
20.85
  0
LINE
  5
7C4
100
AcDbEntity
  8
RACCORDO
100
AcDbLine
 62
7
  6
CONTINUOUS
 10
9.14134862
 20
20.8912724675
 11
7.3886522719
 21
20.8912724675
  0
LINE
  5
7C5
100
AcDbEntity
  8
RACCORDO
100
AcDbLine
 62
7
  6
CONTINUOUS
 10
-7.3886522719
 20
20.8912724675
 11
-9.14134862
 21
20.8912724675
  0
LINE
  5
7C6
100
AcDbEntity
  8
RACCORDO
100
AcDbLine
 62
7
  6
CONTINUOUS
 10
9.1500761524
 20
20.9
 11
7.3789862928
 21
20.9
  0
LINE
  5
7C7
100
AcDbEntity
  8
RACCORDO
100
AcDbLine
 62
7
  6
CONTINUOUS
 10
-7.3789862928
 20
20.9
 11
-9.1500761524
 21
20.9
  0
LINE
  5
7C8
100
AcDbEntity
  8
0
100
AcDbLine
 62
7
  6
CONTINUOUS
 10
-2.6175930356
 20
21.1271628567
 11
-3.4
 21
21.2
  0
LWPOLYLINE
  5
7C9
100
AcDbEntity
  8
ASSI
100
AcDbPolyline
 62
7
  6
CONTINUOUS
 90
10
 70
0
 10
4.2071270357
 20
-23.2631073618
 10
4.1513051783
 20
-23.2975607327
 10
4.0938707981
 20
-23.328101306
 10
4.0348238951
 20
-23.3547290816
 10
3.9739010778
 20
-23.3775235872
 10
3.9113657378
 20
-23.3964052951
 10
3.8480080499
 20
-23.4111356227
 10
3.784091406
 20
-23.4216350423
 10
3.7193524144
 20
-23.4279830815
 10
3.653791075
 20
-23.4301797403
  0
LWPOLYLINE
  5
7CA
100
AcDbEntity
  8
RACCORDO
100
AcDbPolyline
 62
250
  6
CONTINUOUS
 90
9
 70
0
 10
3.0812528557
 20
-22.0077017497
 10
3.0906363066
 20
-22.0031988718
 10
3.1102150286
 20
-21.9910017434
 10
3.1274668402
 20
-21.9771696498
 10
3.1421148335
 20
-21.9619277289
 10
3.1539180741
 20
-21.9455268219
 10
3.1626804524
 20
-21.928238124
 10
3.1682552834
 20
-21.9103492962
 10
3.1705494094
 20
-21.8921572875
  0
LINE
  5
7CB
100
AcDbEntity
  8
ASSI
100
AcDbLine
 62
7
  6
CONTINUOUS
 10
6.9069415429
 20
21.1271628567
 11
2.6175930356
 21
21.1271628567
  0
LINE
  5
7CC
100
AcDbEntity
  8
DRAFT
100
AcDbLine
 62
7
  6
CONTINUOUS
 10
-2.6175930356
 20
21.1271628567
 11
-4.7909419891
 21
21.1271628567
  0
LINE
  5
7CD
100
AcDbEntity
  8
DRAFT
100
AcDbLine
 62
7
  6
CONTINUOUS
 10
-6.9080597678
 20
21.1301797403
 11
-4.8
 21
21.1301797403
  0
LINE
  5
7CE
100
AcDbEntity
  8
ASSI
100
AcDbLine
 62
7
  6
CONTINUOUS
 10
6.9339198284
 20
21.2
 11
3.4
 21
21.2
  0
LINE
  5
7CF
100
AcDbEntity
  8
ASSI
100
AcDbLine
 62
7
  6
CONTINUOUS
 10
-3.4
 20
21.2
 11
-6.9339198284
 21
21.2
  0
LINE
  5
7D0
100
AcDbEntity
  8
ASSI
100
AcDbLine
 62
7
  6
CONTINUOUS
 10
2.7167632191
 20
21.6560705017
 11
-2.7167632191
 21
21.6560705017
  0
LINE
  5
7D1
100
AcDbEntity
  8
RACCORDO
100
AcDbLine
 62
250
  6
CONTINUOUS
 10
3.0812528557
 20
21.8921572875
 11
3.1705494094
 21
21.8921572875
  0
LINE
  5
7D2
100
AcDbEntity
  8
RACCORDO
100
AcDbLine
 62
250
  6
CONTINUOUS
 10
-3.0812528557
 20
21.8921572875
 11
-3.1705494094
 21
21.8921572875
  0
LINE
  5
7D3
100
AcDbEntity
  8
ASSI
100
AcDbLine
 62
7
  6
CONTINUOUS
 10
2.9969695968
 20
22.2
 11
-2.9969695968
 21
22.2
  0
LINE
  5
7D4
100
AcDbEntity
  8
0
100
AcDbLine
 62
7
  6
CONTINUOUS
 10
2.9969695968
 20
22.2
 11
3.0812528557
 21
22.2
  0
LINE
  5
7D5
100
AcDbEntity
  8
0
100
AcDbLine
 62
7
  6
CONTINUOUS
 10
-2.9969695968
 20
22.2
 11
-3.0812528557
 21
22.2
  0
LINE
  5
7D6
100
AcDbEntity
  8
0
100
AcDbLine
 62
7
  6
CONTINUOUS
 10
10.6503805997
 20
22.4
 11
5.5445119776
 21
22.4
  0
LINE
  5
7D7
100
AcDbEntity
  8
0
100
AcDbLine
 62
7
  6
CONTINUOUS
 10
3.3848722771
 20
22.4
 11
3.3
 21
22.4
  0
LINE
  5
7D8
100
AcDbEntity
  8
0
100
AcDbLine
 62
7
  6
CONTINUOUS
 10
-3.3
 20
22.4
 11
-3.3848722771
 21
22.4
  0
LINE
  5
7D9
100
AcDbEntity
  8
0
100
AcDbLine
 62
7
  6
CONTINUOUS
 10
-5.5445119776
 20
22.4
 11
-10.6503805997
 21
22.4
  0
LINE
  5
7DA
100
AcDbEntity
  8
ASSI
100
AcDbLine
 62
7
  6
CONTINUOUS
 10
3.3633443637
 20
22.5
 11
3.230158461
 21
22.5
  0
LINE
  5
7DB
100
AcDbEntity
  8
ASSI
100
AcDbLine
 62
7
  6
CONTINUOUS
 10
-3.230158461
 20
22.5
 11
-3.3633443637
 21
22.5
  0
LWPOLYLINE
  5
7DC
100
AcDbEntity
  8
RACCORDO
100
AcDbPolyline
 62
250
  6
CONTINUOUS
 90
9
 70
0
 10
3.0812528557
 20
22.007701738
 10
3.0906373671
 20
22.0031982907
 10
3.1102159713
 20
21.9910010771
 10
3.1274675599
 20
21.9771689939
 10
3.1421152958
 20
21.9619271758
 10
3.1539183305
 20
21.9455264018
 10
3.1626805705
 20
21.9282378342
 10
3.1682553155
 20
21.9103491489
 10
3.1705494094
 20
21.8921572875
  0
LWPOLYLINE
  5
7DD
100
AcDbEntity
  8
ASSI
100
AcDbPolyline
 62
7
  6
CONTINUOUS
 90
10
 70
0
 10
4.2071270357
 20
23.2631073618
 10
4.1513051783
 20
23.2975607327
 10
4.0938707981
 20
23.328101306
 10
4.0348238951
 20
23.3547290816
 10
3.9739010778
 20
23.3775235872
 10
3.9113657378
 20
23.3964052951
 10
3.8480080499
 20
23.4111356227
 10
3.784091406
 20
23.4216350423
 10
3.7193524144
 20
23.4279830815
 10
3.653791075
 20
23.4301797403
  0
LWPOLYLINE
  5
7DE
100
AcDbEntity
  8
ASSI
100
AcDbPolyline
 62
7
  6
CONTINUOUS
 90
10
 70
0
 10
-3.653791075
 20
23.4301797403
 10
-3.7193524144
 20
23.4279830815
 10
-3.784091406
 20
23.4216350423
 10
-3.8480080499
 20
23.4111356227
 10
-3.9113657378
 20
23.3964052951
 10
-3.9739010778
 20
23.3775235872
 10
-4.0348238951
 20
23.3547290816
 10
-4.0938707981
 20
23.328101306
 10
-4.1513051783
 20
23.2975607327
 10
-4.2071270357
 20
23.2631073618
  0
LINE
  5
7DF
100
AcDbEntity
  8
RACCORDO
100
AcDbLine
 62
250
  6
CONTINUOUS
 10
3.230158461
 20
23.175
 11
3.2153472641
 21
23.175
  0
LINE
  5
7E0
100
AcDbEntity
  8
RACCORDO
100
AcDbLine
 62
250
  6
CONTINUOUS
 10
-3.2153472641
 20
23.175
 11
-3.230158461
 21
23.175
  0
LINE
  5
7E1
100
AcDbEntity
  8
RACCORDO
100
AcDbLine
 62
7
  6
CONTINUOUS
 10
3.01751471
 20
23.375
 11
-3.01751471
 21
23.375
  0
LINE
  5
7E2
100
AcDbEntity
  8
ASSI
100
AcDbLine
 62
7
  6
CONTINUOUS
 10
3.653791075
 20
23.4301797403
 11
3.4
 21
23.4301797403
  0
LINE
  5
7E3
100
AcDbEntity
  8
ASSI
100
AcDbLine
 62
7
  6
CONTINUOUS
 10
-3.4
 20
23.4301797403
 11
-3.653791075
 21
23.4301797403
  0
LINE
  5
7E4
100
AcDbEntity
  8
ASSI
100
AcDbLine
 62
7
  6
CONTINUOUS
 10
3.3633443637
 20
23.4668353766
 11
-3.3633443637
 21
23.4668353766
  0
LINE
  5
7E5
100
AcDbEntity
  8
ASSI
100
AcDbLine
 62
7
  6
CONTINUOUS
 10
3.6748574782
 20
23.5
 11
-3.6748574782
 21
23.5
  0
LWPOLYLINE
  5
7E6
100
AcDbEntity
  8
ASSI
100
AcDbPolyline
 62
7
  6
CONTINUOUS
 90
10
 70
0
 10
3.6748574782
 20
23.5
 10
3.7403304144
 20
23.4978093846
 10
3.804984264
 20
23.4914781931
 10
3.8688190271
 20
23.4810064255
 10
3.9320970783
 20
23.4663149731
 10
3.994556043
 20
23.4474829446
 10
4.0554087969
 20
23.4247476662
 10
4.1143929653
 20
23.3981882466
 10
4.1717709229
 20
23.367725577
 10
4.2275426698
 20
23.3333596575
  0
ARC
  5
7E7
100
AcDbEntity
  8
ASSI
100
AcDbCircle
 62
7
  6
CONTINUOUS
 10
-4.95
 20
-23.1
 40
0.5
100
AcDbArc
 50
350.803718421
 51
119.112422776
  0
ARC
  5
7E8
100
AcDbEntity
  8
RACCORDO
100
AcDbCircle
 62
7
  6
CONTINUOUS
 10
-3.15
 20
-21.65
 40
0.3
100
AcDbArc
 50
106.8864186508
 51
146.5620940008
  0
ARC
  5
7E9
100
AcDbEntity
  8
RACCORDO
100
AcDbCircle
 62
7
  6
CONTINUOUS
 10
-3.15
 20
-21.65
 40
0.3
100
AcDbArc
 50
213.4347943313
 51
253.1135813492
  0
ARC
  5
7EA
100
AcDbEntity
  8
RACCORDO
100
AcDbCircle
 62
250
  6
CONTINUOUS
 10
-3.15
 20
-21.65
 40
0.1
100
AcDbArc
 50
143.2816890224
 51
216.7183109776
  0
ARC
  5
7EB
100
AcDbEntity
  8
ASSI
100
AcDbCircle
 62
7
  6
CONTINUOUS
 10
-11.25
 20
0.0
 40
28.0
100
AcDbArc
 50
41.6922053702
 51
54.0372348486
  0
ARC
  5
7EC
100
AcDbEntity
  8
ASSI
100
AcDbCircle
 62
7
  6
CONTINUOUS
 10
-11.25
 20
0.0
 40
28.0
100
AcDbArc
 50
38.3146467789
 51
38.7639700855
  0
ARC
  5
7ED
100
AcDbEntity
  8
ASSI
100
AcDbCircle
 62
7
  6
CONTINUOUS
 10
-11.25
 20
0.0
 40
28.0
100
AcDbArc
 50
55.8789063483
 51
56.4427876864
  0
ARC
  5
7EE
100
AcDbEntity
  8
ASSI
100
AcDbCircle
 62
7
  6
CONTINUOUS
 10
-11.25
 20
0.0
 40
28.0
100
AcDbArc
 50
303.5572123136
 51
304.1210936517
  0
ARC
  5
7EF
100
AcDbEntity
  8
ASSI
100
AcDbCircle
 62
7
  6
CONTINUOUS
 10
-11.25
 20
0.0
 40
28.0
100
AcDbArc
 50
305.9627651514
 51
321.6853532211
  0
ARC
  5
7F0
100
AcDbEntity
  8
ASSI
100
AcDbCircle
 62
7
  6
CONTINUOUS
 10
-11.25
 20
0.0
 40
27.9301797403
100
AcDbArc
 50
305.881601122
 51
310.6207502002
  0
ARC
  5
7F1
100
AcDbEntity
  8
ASSI
100
AcDbCircle
 62
7
  6
CONTINUOUS
 10
-11.25
 20
0.0
 40
27.9301797403
100
AcDbArc
 50
303.6019742715
 51
304.2022576811
  0
ARC
  5
7F2
100
AcDbEntity
  8
ASSI
100
AcDbCircle
 62
7
  6
CONTINUOUS
 10
-11.25
 20
0.0
 40
27.9301797403
100
AcDbArc
 50
55.7977423189
 51
56.3980257285
  0
ARC
  5
7F3
100
AcDbEntity
  8
ASSI
100
AcDbCircle
 62
7
  6
CONTINUOUS
 10
-11.25
 20
0.0
 40
27.9301797403
100
AcDbArc
 50
49.3792497998
 51
54.118398878
  0
ARC
  5
7F4
100
AcDbEntity
  8
DRAFT
100
AcDbCircle
 62
7
  6
CONTINUOUS
 10
-11.25
 20
0.0
 40
27.8603594806
100
AcDbArc
 50
319.1713136528
 51
321.5780007229
  0
ARC
  5
7F5
100
AcDbEntity
  8
DRAFT
100
AcDbCircle
 62
7
  6
CONTINUOUS
 10
-11.25
 20
0.0
 40
27.8271948572
100
AcDbArc
 50
315.8004284034
 51
319.0218980554
  0
ARC
  5
7F6
100
AcDbEntity
  8
DRAFT
100
AcDbCircle
 62
7
  6
CONTINUOUS
 10
-11.25
 20
0.0
 40
27.8271948572
100
AcDbArc
 50
42.1934466493
 51
44.1995715966
  0
ARC
  5
7F7
100
AcDbEntity
  8
CURVE
100
AcDbCircle
 62
250
  6
CONTINUOUS
 10
-0.25
 20
15.3517899598
 40
0.75
100
AcDbArc
 50
180.0
 51
360.0
  0
CIRCLE
  5
7F8
100
AcDbEntity
  8
CURVE
100
AcDbCircle
 62
250
  6
CONTINUOUS
 10
-6.500001
 20
8.762401
 40
0.508333
  0
ARC
  5
7F9
100
AcDbEntity
  8
ASSI
100
AcDbCircle
 62
7
  6
CONTINUOUS
 10
-4.95
 20
23.1
 40
0.5
100
AcDbArc
 50
240.887577224
 51
9.1962815791
  0
CIRCLE
  5
7FA
100
AcDbEntity
  8
CURVE
100
AcDbCircle
 62
250
  6
CONTINUOUS
 10
-5.950628
 20
14.8647
 40
0.317592
  0
ARC
  5
7FB
100
AcDbEntity
  8
RACCORDO
100
AcDbCircle
 62
7
  6
CONTINUOUS
 10
-3.15
 20
21.65
 40
0.3
100
AcDbArc
 50
106.8864186508
 51
146.5620940008
  0
ARC
  5
7FC
100
AcDbEntity
  8
RACCORDO
100
AcDbCircle
 62
7
  6
CONTINUOUS
 10
-3.15
 20
21.65
 40
0.3
100
AcDbArc
 50
213.4347943313
 51
253.1135813492
  0
CIRCLE
  5
7FD
100
AcDbEntity
  8
CURVE
100
AcDbCircle
 62
250
  6
CONTINUOUS
 10
-9.296182
 20
15.289913
 40
0.192582
  0
CIRCLE
  5
7FE
100
AcDbEntity
  8
CURVE
100
AcDbCircle
 62
250
  6
CONTINUOUS
 10
-5.950628
 20
14.8647
 40
0.14051
  0
ARC
  5
7FF
100
AcDbEntity
  8
RACCORDO
100
AcDbCircle
 62
250
  6
CONTINUOUS
 10
-3.15
 20
21.65
 40
0.1
100
AcDbArc
 50
143.2816890224
 51
216.7183109776
  0
ARC
  5
800
100
AcDbEntity
  8
CURVE
100
AcDbCircle
 62
250
  6
CONTINUOUS
 10
5.840012
 20
-8.49459
 40
2.5500000352
100
AcDbArc
 50
174.2608296022
 51
5.7391703978
  0
ARC
  5
801
100
AcDbEntity
  8
CURVE
100
AcDbCircle
 62
250
  6
CONTINUOUS
 10
5.840012
 20
-12.82959
 40
2.5500000352
100
AcDbArc
 50
174.2608296022
 51
5.7391703978
  0
ARC
  5
802
100
AcDbEntity
  8
CURVE
100
AcDbCircle
 62
250
  6
CONTINUOUS
 10
5.840012
 20
-8.49459
 40
1.7850001745
100
AcDbArc
 50
171.7867901066
 51
257.626372977
  0
ARC
  5
803
100
AcDbEntity
  8
CURVE
100
AcDbCircle
 62
250
  6
CONTINUOUS
 10
5.840012
 20
-12.82959
 40
1.7850001745
100
AcDbArc
 50
171.7867901066
 51
8.2132098934
  0
ARC
  5
804
100
AcDbEntity
  8
CURVE
100
AcDbCircle
 62
250
  6
CONTINUOUS
 10
5.840012
 20
-8.49459
 40
1.7849997292
100
AcDbArc
 50
282.373627023
 51
8.2132098934
  0
ARC
  5
805
100
AcDbEntity
  8
ASSI
100
AcDbCircle
 62
7
  6
CONTINUOUS
 10
10.29
 20
-16.1850292972
 40
0.71
100
AcDbArc
 50
350.3742664211
 51
360.0
  0
ARC
  5
806
100
AcDbEntity
  8
ASSI
100
AcDbCircle
 62
7
  6
CONTINUOUS
 10
4.95
 20
-23.1
 40
0.5
100
AcDbArc
 50
60.887577224
 51
189.196281579
  0
ARC
  5
807
100
AcDbEntity
  8
RACCORDO
100
AcDbCircle
 62
7
  6
CONTINUOUS
 10
3.15
 20
-21.65
 40
0.3
100
AcDbArc
 50
286.8864186508
 51
326.5620940008
  0
ARC
  5
808
100
AcDbEntity
  8
RACCORDO
100
AcDbCircle
 62
7
  6
CONTINUOUS
 10
3.15
 20
-21.65
 40
0.3
100
AcDbArc
 50
33.4347943313
 51
73.1135813492
  0
ARC
  5
809
100
AcDbEntity
  8
RACCORDO
100
AcDbCircle
 62
250
  6
CONTINUOUS
 10
3.15
 20
-21.65
 40
0.1
100
AcDbArc
 50
323.2816890224
 51
36.7183109776
  0
ARC
  5
80A
100
AcDbEntity
  8
ASSI
100
AcDbCircle
 62
7
  6
CONTINUOUS
 10
11.25
 20
0.0
 40
28.0
100
AcDbArc
 50
123.5572123136
 51
124.1210936517
  0
ARC
  5
80B
100
AcDbEntity
  8
ASSI
100
AcDbCircle
 62
7
  6
CONTINUOUS
 10
11.25
 20
0.0
 40
28.0
100
AcDbArc
 50
125.9627651514
 51
141.6853532211
  0
ARC
  5
80C
100
AcDbEntity
  8
ASSI
100
AcDbCircle
 62
7
  6
CONTINUOUS
 10
11.25
 20
0.0
 40
28.0
100
AcDbArc
 50
218.3146467789
 51
234.0372348486
  0
ARC
  5
80D
100
AcDbEntity
  8
ASSI
100
AcDbCircle
 62
7
  6
CONTINUOUS
 10
11.25
 20
0.0
 40
28.0
100
AcDbArc
 50
235.8789063483
 51
236.4427876864
  0
ARC
  5
80E
100
AcDbEntity
  8
ASSI
100
AcDbCircle
 62
7
  6
CONTINUOUS
 10
11.25
 20
0.0
 40
27.9301797403
100
AcDbArc
 50
235.7977423189
 51
236.3980257285
  0
ARC
  5
80F
100
AcDbEntity
  8
ASSI
100
AcDbCircle
 62
7
  6
CONTINUOUS
 10
11.25
 20
0.0
 40
27.9301797403
100
AcDbArc
 50
229.3792497998
 51
234.118398878
  0
ARC
  5
810
100
AcDbEntity
  8
ASSI
100
AcDbCircle
 62
7
  6
CONTINUOUS
 10
11.25
 20
0.0
 40
27.9301797403
100
AcDbArc
 50
125.881601122
 51
130.6207502002
  0
ARC
  5
811
100
AcDbEntity
  8
ASSI
100
AcDbCircle
 62
7
  6
CONTINUOUS
 10
11.25
 20
0.0
 40
27.9301797403
100
AcDbArc
 50
123.6019742715
 51
124.2022576811
  0
ARC
  5
812
100
AcDbEntity
  8
0
100
AcDbCircle
 62
7
  6
CONTINUOUS
 10
11.25
 20
0.0
 40
27.8603594806
100
AcDbArc
 50
218.4219992771
 51
229.3261342155
  0
ARC
  5
813
100
AcDbEntity
  8
0
100
AcDbCircle
 62
7
  6
CONTINUOUS
 10
11.25
 20
0.0
 40
27.8603594806
100
AcDbArc
 50
130.6738657845
 51
141.5780007229
  0
ARC
  5
814
100
AcDbEntity
  8
0
100
AcDbCircle
 62
7
  6
CONTINUOUS
 10
9.2
 20
17.3
 40
1.4
100
AcDbArc
 50
0.0
 51
90.0
  0
ARC
  5
815
100
AcDbEntity
  8
0
100
AcDbCircle
 62
7
  6
CONTINUOUS
 10
9.2
 20
17.3
 40
1.0
100
AcDbArc
 50
49.349648178
 51
90.0
  0
ARC
  5
816
100
AcDbEntity
  8
CURVE
100
AcDbCircle
 62
250
  6
CONTINUOUS
 10
5.8712122731
 20
3.9
 40
1.0
100
AcDbArc
 50
203.5781784782
 51
156.4218215218
  0
ARC
  5
817
100
AcDbEntity
  8
CURVE
100
AcDbCircle
 62
250
  6
CONTINUOUS
 10
1.25
 20
15.3517899598
 40
0.75
100
AcDbArc
 50
0.0
 51
180.0
  0
ARC
  5
818
100
AcDbEntity
  8
ASSI
100
AcDbCircle
 62
7
  6
CONTINUOUS
 10
4.95
 20
23.1
 40
0.5
100
AcDbArc
 50
170.8037184209
 51
299.112422776
  0
ARC
  5
819
100
AcDbEntity
  8
RACCORDO
100
AcDbCircle
 62
7
  6
CONTINUOUS
 10
3.15
 20
21.65
 40
0.3
100
AcDbArc
 50
286.8864186508
 51
326.5620940008
  0
ARC
  5
81A
100
AcDbEntity
  8
RACCORDO
100
AcDbCircle
 62
7
  6
CONTINUOUS
 10
3.15
 20
21.65
 40
0.3
100
AcDbArc
 50
33.4347943313
 51
73.1135813492
  0
ARC
  5
81B
100
AcDbEntity
  8
RACCORDO
100
AcDbCircle
 62
250
  6
CONTINUOUS
 10
3.15
 20
21.65
 40
0.1
100
AcDbArc
 50
323.2816890224
 51
36.7183109776
  0
ELLIPSE
  5
81C
100
AcDbEntity
  8
0
100
AcDbEllipse
 62
7
  6
CONTINUOUS
 10
-10.649923836
 20
-21.899313827
 30
0.0
 11
-0.1582391023
 21
-0.4751033573
 31
0.0
 40
0.9984778551
 41
-1.2488325878
 42
0.3210503505
  0
ELLIPSE
  5
81D
100
AcDbEntity
  8
0
100
AcDbEllipse
 62
7
  6
CONTINUOUS
 10
-10.649923836
 20
21.899313827
 30
0.0
 11
0.1582391023
 21
-0.4751033573
 31
0.0
 40
0.9984778551
 41
2.8205423031
 42
4.3904252414
  0
ELLIPSE
  5
81E
100
AcDbEntity
  8
0
100
AcDbEllipse
 62
7
  6
CONTINUOUS
 10
10.649923836
 20
-21.899313827
 30
0.0
 11
0.1582391023
 21
-0.4751033573
 31
0.0
 40
0.9984778551
 41
-0.3210503505
 42
1.2488325878
  0
ELLIPSE
  5
81F
100
AcDbEntity
  8
0
100
AcDbEllipse
 62
7
  6
CONTINUOUS
 10
10.649923836
 20
21.899313827
 30
0.0
 11
-0.1582391023
 21
-0.4751033573
 31
0.0
 40
0.9984778551
 41
1.8927600658
 42
3.4626430041
  0
ELLIPSE
  5
820
100
AcDbEntity
  8
RACCORDO
100
AcDbEllipse
 62
7
  6
CONTINUOUS
 10
-3.0300365522
 20
23.175
 30
0.0
 11
0.2001219089
 21
-0.0
 31
0.0
 40
0.999390827
 41
1.5707963268
 42
3.1415926536
  0
ELLIPSE
  5
821
100
AcDbEntity
  8
RACCORDO
100
AcDbEllipse
 62
7
  6
CONTINUOUS
 10
3.0300365522
 20
23.175
 30
0.0
 11
0.2001219089
 21
0.0
 31
0.0
 40
0.999390827
 41
-0.0
 42
1.4362105444
  0
ELLIPSE
  5
822
100
AcDbEntity
  8
RACCORDO
100
AcDbEllipse
 62
7
  6
CONTINUOUS
 10
-3.0300365522
 20
-23.175
 30
0.0
 11
0.2001219089
 21
-0.0
 31
0.0
 40
0.999390827
 41
-3.1415926536
 42
-1.7053821092
  0
ELLIPSE
  5
823
100
AcDbEntity
  8
RACCORDO
100
AcDbEllipse
 62
7
  6
CONTINUOUS
 10
3.0300365522
 20
-23.175
 30
0.0
 11
0.2001219089
 21
0.0
 31
0.0
 40
0.999390827
 41
-1.5707963268
 42
-0.0
  0
ELLIPSE
  5
824
100
AcDbEntity
  8
RACCORDO
100
AcDbEllipse
 62
7
  6
CONTINUOUS
 10
9.149923836
 20
20.399923836
 30
0.0
 11
0.3536610946
 21
0.3536610946
 31
0.0
 40
0.9996954599
 41
-0.7852458701
 42
0.7852458701
  0
ELLIPSE
  5
825
100
AcDbEntity
  8
RACCORDO
100
AcDbEllipse
 62
7
  6
CONTINUOUS
 10
-9.149923836
 20
20.399923836
 30
0.0
 11
0.3536610946
 21
-0.3536610946
 31
0.0
 40
0.9996954599
 41
2.3563467834
 42
3.9268385237
  0
ELLIPSE
  5
826
100
AcDbEntity
  8
RACCORDO
100
AcDbEllipse
 62
7
  6
CONTINUOUS
 10
-9.149923836
 20
-20.399923836
 30
0.0
 11
0.3536610946
 21
0.3536610946
 31
0.0
 40
0.9996954599
 41
-3.9268385237
 42
-2.3563467834
  0
ELLIPSE
  5
827
100
AcDbEntity
  8
RACCORDO
100
AcDbEllipse
 62
7
  6
CONTINUOUS
 10
9.149923836
 20
-20.399923836
 30
0.0
 11
0.3536610946
 21
-0.3536610946
 31
0.0
 40
0.9996954599
 41
-0.7852458701
 42
0.7852458701
  0
ELLIPSE
  5
828
100
AcDbEntity
  8
RACCORDO
100
AcDbEllipse
 62
7
  6
CONTINUOUS
 10
9.1411963035
 20
-20.3911963035
 30
0.0
 11
-0.3536610946
 21
0.3536610946
 31
0.0
 40
0.9996954599
 41
2.3563467834
 42
3.9268385237
  0
ELLIPSE
  5
829
100
AcDbEntity
  8
RACCORDO
100
AcDbEllipse
 62
7
  6
CONTINUOUS
 10
-9.1411963035
 20
-20.3911963035
 30
0.0
 11
0.3536610946
 21
0.3536610946
 31
0.0
 40
0.9996954599
 41
2.3563467834
 42
3.9268385237
  0
ELLIPSE
  5
82A
100
AcDbEntity
  8
RACCORDO
100
AcDbEllipse
 62
7
  6
CONTINUOUS
 10
-9.1411963035
 20
20.3911963035
 30
0.0
 11
0.3536610946
 21
-0.3536610946
 31
0.0
 40
0.9996954599
 41
2.3563467834
 42
3.9268385237
  0
ELLIPSE
  5
82B
100
AcDbEntity
  8
RACCORDO
100
AcDbEllipse
 62
7
  6
CONTINUOUS
 10
9.1411963035
 20
20.3911963035
 30
0.0
 11
-0.3536610946
 21
-0.3536610946
 31
0.0
 40
0.9996954599
 41
2.3563467834
 42
3.9268385237
  0
ELLIPSE
  5
82C
100
AcDbEntity
  8
0
100
AcDbEllipse
 62
7
  6
CONTINUOUS
 10
-11.25
 20
0.4799609489
 30
0.0
 11
0.0
 21
27.4969443471
 31
0.0
 40
0.9998476487
 41
-0.8119594915
 42
-0.7213864892
  0
ELLIPSE
  5
82D
100
AcDbEntity
  8
0
100
AcDbEllipse
 62
7
  6
CONTINUOUS
 10
-11.25
 20
-0.4799609489
 30
0.0
 11
-0.0
 21
27.4969443471
 31
0.0
 40
0.9998476487
 41
-2.4202061644
 42
-2.3296331621
  0
ELLIPSE
  5
82E
100
AcDbEntity
  8
RACCORDO
100
AcDbEllipse
 62
7
  6
CONTINUOUS
 10
3.7130788782
 20
-19.3130788782
 30
0.0
 11
-0.2121481893
 21
0.2121481893
 31
0.0
 40
0.9999238505
 41
2.3562325664
 42
3.9269527408
  0
ELLIPSE
  5
82F
100
AcDbEntity
  8
RACCORDO
100
AcDbEllipse
 62
7
  6
CONTINUOUS
 10
-8.1314169446
 20
-18.813059839
 30
0.0
 11
-0.3393400724
 21
-0.7245051754
 31
0.0
 40
0.9999535705
 41
-0.4380111911
 42
0.4380111911
  0
ELLIPSE
  5
830
100
AcDbEntity
  8
RACCORDO
100
AcDbEllipse
 62
7
  6
CONTINUOUS
 10
-10.213059839
 20
-16.3150883657
 30
0.0
 11
-0.7522496598
 21
-0.2723519406
 31
0.0
 40
0.9999569323
 41
-0.3473553524
 42
0.3473553524
  0
ELLIPSE
  5
831
100
AcDbEntity
  8
RACCORDO
100
AcDbEllipse
 62
7
  6
CONTINUOUS
 10
-10.213059839
 20
16.3150883657
 30
0.0
 11
0.7522496598
 21
-0.2723519406
 31
0.0
 40
0.9999569323
 41
2.7942373012
 42
3.488948006
  0
ELLIPSE
  5
832
100
AcDbEntity
  8
RACCORDO
100
AcDbEllipse
 62
7
  6
CONTINUOUS
 10
-8.1314169446
 20
18.813059839
 30
0.0
 11
-0.3393400724
 21
0.7245051754
 31
0.0
 40
0.9999535705
 41
-0.4380111911
 42
0.4380111911
  0
ELLIPSE
  5
833
100
AcDbEntity
  8
RACCORDO
100
AcDbEllipse
 62
7
  6
CONTINUOUS
 10
3.7130788782
 20
19.3130788782
 30
0.0
 11
0.2121481893
 21
0.2121481893
 31
0.0
 40
0.9999238505
 41
-0.7853600872
 42
0.7853600872
  0
ELLIPSE
  5
834
100
AcDbEntity
  8
RACCORDO
100
AcDbEllipse
 62
7
  6
CONTINUOUS
 10
9.3788424069
 20
17.413059839
 30
0.0
 11
-0.3775048314
 21
-0.7053742298
 31
0.0
 40
0.9999510178
 41
2.65021617
 42
3.6329691372
  0
ELLIPSE
  5
835
100
AcDbEntity
  8
RACCORDO
100
AcDbEllipse
 62
7
  6
CONTINUOUS
 10
10.213059839
 20
16.1617336909
 30
0.0
 11
0.7657054495
 21
0.2318369558
 31
0.0
 40
0.9999584327
 41
-0.293989773
 42
0.293989773
  0
ELLIPSE
  5
836
100
AcDbEntity
  8
RACCORDO
100
AcDbEllipse
 62
7
  6
CONTINUOUS
 10
10.7130788782
 20
3.45
 30
0.0
 11
-0.3000114235
 21
-0.0
 31
0.0
 40
0.9999619231
 41
1.5707963268
 42
3.1415926536
  0
ELLIPSE
  5
837
100
AcDbEntity
  8
RACCORDO
100
AcDbEllipse
 62
7
  6
CONTINUOUS
 10
10.7130788782
 20
-1.45
 30
0.0
 11
0.3000114235
 21
0.0
 31
0.0
 40
0.9999619231
 41
0.0
 42
1.5707963268
  0
ELLIPSE
  5
838
100
AcDbEntity
  8
RACCORDO
100
AcDbEllipse
 62
7
  6
CONTINUOUS
 10
10.7130788782
 20
-1.55
 30
0.0
 11
-0.3000114235
 21
-0.0
 31
0.0
 40
0.9999619231
 41
1.5707963268
 42
3.1415926536
  0
ELLIPSE
  5
839
100
AcDbEntity
  8
RACCORDO
100
AcDbEllipse
 62
7
  6
CONTINUOUS
 10
10.7130788782
 20
-6.45
 30
0.0
 11
0.3000114235
 21
0.0
 31
0.0
 40
0.9999619231
 41
0.0
 42
1.5707963268
  0
ELLIPSE
  5
83A
100
AcDbEntity
  8
RACCORDO
100
AcDbEllipse
 62
7
  6
CONTINUOUS
 10
10.7130788782
 20
-6.55
 30
0.0
 11
-0.3000114235
 21
-0.0
 31
0.0
 40
0.9999619231
 41
1.5707963268
 42
3.1415926536
  0
ELLIPSE
  5
83B
100
AcDbEntity
  8
RACCORDO
100
AcDbEllipse
 62
7
  6
CONTINUOUS
 10
10.7130788782
 20
-11.45
 30
0.0
 11
0.3000114235
 21
0.0
 31
0.0
 40
0.9999619231
 41
0.0
 42
1.5707963268
  0
ELLIPSE
  5
83C
100
AcDbEntity
  8
RACCORDO
100
AcDbEllipse
 62
7
  6
CONTINUOUS
 10
10.7130788782
 20
-11.55
 30
0.0
 11
-0.3000114235
 21
-0.0
 31
0.0
 40
0.9999619231
 41
1.5707963268
 42
3.1415926536
  0
ELLIPSE
  5
83D
100
AcDbEntity
  8
RACCORDO
100
AcDbEllipse
 62
7
  6
CONTINUOUS
 10
10.7130788782
 20
-16.45
 30
0.0
 11
0.3000114235
 21
0.0
 31
0.0
 40
0.9999619231
 41
0.3709044765
 42
1.5707963268
  0
ELLIPSE
  5
83E
100
AcDbEntity
  8
RACCORDO
100
AcDbEllipse
 62
7
  6
CONTINUOUS
 10
10.213059839
 20
-16.1617336909
 30
0.0
 11
0.7657054495
 21
-0.2318369558
 31
0.0
 40
0.9999584327
 41
-0.293989773
 42
0.0676751291
  0
ELLIPSE
  5
83F
100
AcDbEntity
  8
RACCORDO
100
AcDbEllipse
 62
7
  6
CONTINUOUS
 10
9.3788424069
 20
-17.413059839
 30
0.0
 11
0.3775048314
 21
-0.7053742298
 31
0.0
 40
0.9999510178
 41
-0.4913764836
 42
0.4913764836
  0
ELLIPSE
  5
840
100
AcDbEntity
  8
RACCORDO
100
AcDbEllipse
 62
7
  6
CONTINUOUS
 10
4.3131017252
 20
-18.5131017252
 30
0.0
 11
0.2121481893
 21
-0.2121481893
 31
0.0
 40
0.9999238505
 41
2.3562325664
 42
3.9269527408
  0
ELLIPSE
  5
841
100
AcDbEntity
  8
DRAFT
100
AcDbEllipse
 62
7
  6
CONTINUOUS
 10
9.841452622
 20
-14.0
 30
0.0
 11
-0.0
 21
2.15
 31
0.0
 40
0.0087268678
 41
3.4463543813
 42
6.2831853072
  0
ELLIPSE
  5
842
100
AcDbEntity
  8
DRAFT
100
AcDbEllipse
 62
7
  6
CONTINUOUS
 10
9.841452622
 20
-9.0
 30
0.0
 11
-0.0
 21
2.15
 31
0.0
 40
0.0087268678
 41
3.1415926536
 42
6.2831853072
  0
ELLIPSE
  5
843
100
AcDbEntity
  8
DRAFT
100
AcDbEllipse
 62
7
  6
CONTINUOUS
 10
9.841452622
 20
-4.0
 30
0.0
 11
0.0
 21
2.15
 31
0.0
 40
0.0087268678
 41
3.1415926536
 42
6.2831853072
  0
ELLIPSE
  5
844
100
AcDbEntity
  8
DRAFT
100
AcDbEllipse
 62
7
  6
CONTINUOUS
 10
9.841452622
 20
1.0
 30
0.0
 11
-0.0
 21
2.15
 31
0.0
 40
0.0087268678
 41
3.1415926536
 42
6.2831853072
  0
ELLIPSE
  5
845
100
AcDbEntity
  8
DRAFT
100
AcDbEllipse
 62
7
  6
CONTINUOUS
 10
11.2075993412
 20
-14.0
 30
0.0
 11
1.4334257026
 21
2.149974807
 31
0.0
 40
0.0072610228
 41
-2.962061404
 42
-2.8319899132
  0
ELLIPSE
  5
846
100
AcDbEntity
  8
RACCORDO
100
AcDbEllipse
 62
7
  6
CONTINUOUS
 10
1.5812650492
 20
17.7
 30
0.0
 11
-0.4000152314
 21
-0.0
 31
0.0
 40
0.9999619231
 41
1.5707963268
 42
2.6178226392
  0
ELLIPSE
  5
847
100
AcDbEntity
  8
RACCORDO
100
AcDbEllipse
 62
7
  6
CONTINUOUS
 10
-1.5812650492
 20
17.7
 30
0.0
 11
-0.4000152314
 21
-0.0
 31
0.0
 40
0.9999619231
 41
0.5237700144
 42
1.5707963268
  0
ELLIPSE
  5
848
100
AcDbEntity
  8
RACCORDO
100
AcDbEllipse
 62
7
  6
CONTINUOUS
 10
-1.5026801928
 20
-17.7
 30
0.0
 11
0.4000152314
 21
0.0
 31
0.0
 40
0.9999619231
 41
1.5707963268
 42
2.6178226392
  0
ELLIPSE
  5
849
100
AcDbEntity
  8
RACCORDO
100
AcDbEllipse
 62
7
  6
CONTINUOUS
 10
1.5026801928
 20
-17.7
 30
0.0
 11
0.4000152314
 21
0.0
 31
0.0
 40
0.9999619231
 41
0.5237700144
 42
1.5707963268
  0
ELLIPSE
  5
84A
100
AcDbEntity
  8
ASSI
100
AcDbEllipse
 62
7
  6
CONTINUOUS
 10
3.7130788782
 20
-19.3130788782
 30
0.0
 11
-0.2121481893
 21
0.2121481893
 31
0.0
 40
0.9999238505
 41
2.3562325664
 42
3.9269527408
  0
ELLIPSE
  5
84B
100
AcDbEntity
  8
ASSI
100
AcDbEllipse
 62
7
  6
CONTINUOUS
 10
-8.1314169446
 20
-18.813059839
 30
0.0
 11
-0.3393400724
 21
-0.7245051754
 31
0.0
 40
0.9999535705
 41
-0.4380111911
 42
0.4380111911
  0
ELLIPSE
  5
84C
100
AcDbEntity
  8
ASSI
100
AcDbEllipse
 62
7
  6
CONTINUOUS
 10
-10.213059839
 20
-16.3150883657
 30
0.0
 11
-0.7522496598
 21
-0.2723519406
 31
0.0
 40
0.9999569323
 41
-0.3473553524
 42
0.3473553524
  0
ELLIPSE
  5
84D
100
AcDbEntity
  8
ASSI
100
AcDbEllipse
 62
7
  6
CONTINUOUS
 10
-10.213059839
 20
16.3150883657
 30
0.0
 11
0.7522496598
 21
-0.2723519406
 31
0.0
 40
0.9999569323
 41
2.7942373012
 42
3.488948006
  0
ELLIPSE
  5
84E
100
AcDbEntity
  8
ASSI
100
AcDbEllipse
 62
7
  6
CONTINUOUS
 10
-8.1314169446
 20
18.813059839
 30
0.0
 11
-0.3393400724
 21
0.7245051754
 31
0.0
 40
0.9999535705
 41
-0.4380111911
 42
0.4380111911
  0
ELLIPSE
  5
84F
100
AcDbEntity
  8
ASSI
100
AcDbEllipse
 62
7
  6
CONTINUOUS
 10
3.7130788782
 20
19.3130788782
 30
0.0
 11
0.2121481893
 21
0.2121481893
 31
0.0
 40
0.9999238505
 41
-0.7853600872
 42
0.7853600872
  0
ELLIPSE
  5
850
100
AcDbEntity
  8
ASSI
100
AcDbEllipse
 62
7
  6
CONTINUOUS
 10
9.3788424069
 20
17.413059839
 30
0.0
 11
-0.3775048314
 21
-0.7053742298
 31
0.0
 40
0.9999510178
 41
2.65021617
 42
3.6329691372
  0
ELLIPSE
  5
851
100
AcDbEntity
  8
ASSI
100
AcDbEllipse
 62
7
  6
CONTINUOUS
 10
10.213059839
 20
16.1617336909
 30
0.0
 11
0.7657054495
 21
0.2318369558
 31
0.0
 40
0.9999584327
 41
-0.293989773
 42
0.293989773
  0
ELLIPSE
  5
852
100
AcDbEntity
  8
ASSI
100
AcDbEllipse
 62
7
  6
CONTINUOUS
 10
10.7130788782
 20
3.45
 30
0.0
 11
-0.3000114235
 21
-0.0
 31
0.0
 40
0.9999619231
 41
1.5707963268
 42
3.1415926536
  0
ELLIPSE
  5
853
100
AcDbEntity
  8
ASSI
100
AcDbEllipse
 62
7
  6
CONTINUOUS
 10
10.7130788782
 20
-1.45
 30
0.0
 11
0.3000114235
 21
0.0
 31
0.0
 40
0.9999619231
 41
0.0
 42
1.5707963268
  0
ELLIPSE
  5
854
100
AcDbEntity
  8
ASSI
100
AcDbEllipse
 62
7
  6
CONTINUOUS
 10
10.7130788782
 20
-1.55
 30
0.0
 11
-0.3000114235
 21
-0.0
 31
0.0
 40
0.9999619231
 41
1.5707963268
 42
3.1415926536
  0
ELLIPSE
  5
855
100
AcDbEntity
  8
ASSI
100
AcDbEllipse
 62
7
  6
CONTINUOUS
 10
10.7130788782
 20
-6.45
 30
0.0
 11
0.3000114235
 21
0.0
 31
0.0
 40
0.9999619231
 41
0.0
 42
1.5707963268
  0
ELLIPSE
  5
856
100
AcDbEntity
  8
ASSI
100
AcDbEllipse
 62
7
  6
CONTINUOUS
 10
10.7130788782
 20
-6.55
 30
0.0
 11
-0.3000114235
 21
-0.0
 31
0.0
 40
0.9999619231
 41
1.5707963268
 42
3.1415926536
  0
ELLIPSE
  5
857
100
AcDbEntity
  8
ASSI
100
AcDbEllipse
 62
7
  6
CONTINUOUS
 10
10.7130788782
 20
-11.45
 30
0.0
 11
0.3000114235
 21
0.0
 31
0.0
 40
0.9999619231
 41
0.0
 42
1.5707963268
  0
ELLIPSE
  5
858
100
AcDbEntity
  8
ASSI
100
AcDbEllipse
 62
7
  6
CONTINUOUS
 10
10.7130788782
 20
-11.55
 30
0.0
 11
-0.3000114235
 21
-0.0
 31
0.0
 40
0.9999619231
 41
1.5707963268
 42
3.1415926536
  0
ELLIPSE
  5
859
100
AcDbEntity
  8
ASSI
100
AcDbEllipse
 62
7
  6
CONTINUOUS
 10
10.7130788782
 20
-16.45
 30
0.0
 11
0.3000114235
 21
0.0
 31
0.0
 40
0.9999619231
 41
0.3709044765
 42
1.5707963268
  0
ELLIPSE
  5
85A
100
AcDbEntity
  8
ASSI
100
AcDbEllipse
 62
7
  6
CONTINUOUS
 10
10.213059839
 20
-16.1617336909
 30
0.0
 11
0.7657054495
 21
-0.2318369558
 31
0.0
 40
0.9999584327
 41
-0.293989773
 42
0.0676751291
  0
ELLIPSE
  5
85B
100
AcDbEntity
  8
ASSI
100
AcDbEllipse
 62
7
  6
CONTINUOUS
 10
9.3788424069
 20
-17.413059839
 30
0.0
 11
0.3775048314
 21
-0.7053742298
 31
0.0
 40
0.9999510178
 41
-0.4913764836
 42
0.4913764836
  0
ELLIPSE
  5
85C
100
AcDbEntity
  8
ASSI
100
AcDbEllipse
 62
7
  6
CONTINUOUS
 10
1.5812650492
 20
17.7
 30
0.0
 11
-0.4000152314
 21
-0.0
 31
0.0
 40
0.9999619231
 41
1.5707963268
 42
2.6178226392
  0
ELLIPSE
  5
85D
100
AcDbEntity
  8
ASSI
100
AcDbEllipse
 62
7
  6
CONTINUOUS
 10
-1.5812650492
 20
17.7
 30
0.0
 11
-0.4000152314
 21
-0.0
 31
0.0
 40
0.9999619231
 41
0.5237700144
 42
1.5707963268
  0
ELLIPSE
  5
85E
100
AcDbEntity
  8
ASSI
100
AcDbEllipse
 62
7
  6
CONTINUOUS
 10
-1.5026801928
 20
-17.7
 30
0.0
 11
0.4000152314
 21
0.0
 31
0.0
 40
0.9999619231
 41
1.5707963268
 42
2.6178226392
  0
ELLIPSE
  5
85F
100
AcDbEntity
  8
ASSI
100
AcDbEllipse
 62
7
  6
CONTINUOUS
 10
1.5026801928
 20
-17.7
 30
0.0
 11
0.4000152314
 21
0.0
 31
0.0
 40
0.9999619231
 41
0.5237700144
 42
1.5707963268
  0
ELLIPSE
  5
860
100
AcDbEntity
  8
ASSI
100
AcDbEllipse
 62
7
  6
CONTINUOUS
 10
11.2075993412
 20
-14.0
 30
0.0
 11
1.4334257026
 21
2.149974807
 31
0.0
 40
0.0072610228
 41
-2.962061404
 42
-2.8319899132
  0
ELLIPSE
  5
861
100
AcDbEntity
  8
ASSI
100
AcDbEllipse
 62
7
  6
CONTINUOUS
 10
9.841452622
 20
1.0
 30
0.0
 11
-0.0
 21
2.15
 31
0.0
 40
0.0087268678
 41
3.1415926536
 42
6.2831853072
  0
ELLIPSE
  5
862
100
AcDbEntity
  8
ASSI
100
AcDbEllipse
 62
7
  6
CONTINUOUS
 10
9.841452622
 20
-4.0
 30
0.0
 11
0.0
 21
2.15
 31
0.0
 40
0.0087268678
 41
3.1415926536
 42
6.2831853072
  0
ELLIPSE
  5
863
100
AcDbEntity
  8
ASSI
100
AcDbEllipse
 62
7
  6
CONTINUOUS
 10
9.841452622
 20
-9.0
 30
0.0
 11
-0.0
 21
2.15
 31
0.0
 40
0.0087268678
 41
3.1415926536
 42
6.2831853072
  0
ELLIPSE
  5
864
100
AcDbEntity
  8
ASSI
100
AcDbEllipse
 62
7
  6
CONTINUOUS
 10
9.841452622
 20
-14.0
 30
0.0
 11
-0.0
 21
2.15
 31
0.0
 40
0.0087268678
 41
3.4463543813
 42
6.2831853072
  0
ELLIPSE
  5
865
100
AcDbEntity
  8
ASSI
100
AcDbEllipse
 62
7
  6
CONTINUOUS
 10
4.3131017252
 20
-18.5131017252
 30
0.0
 11
0.2121481893
 21
-0.2121481893
 31
0.0
 40
0.9999238505
 41
2.3562325664
 42
3.9269527408
  0
ENDSEC
  0
SECTION
  2
OBJECTS
  0
DICTIONARY
  5
C
100
AcDbDictionary
280
0
281
1
  3
ACAD_GROUP
350
D
  3
ACAD_MLINESTYLE
350
17
  3
ACAD_LAYOUT
350
1A
  3
ACAD_PLOTSETTINGS
350
19
  3
ACAD_PLOTSTYLENAME
350
E
  0
DICTIONARY
  5
D
102
{ACAD_REACTORS
330
C
102
}
100
AcDbDictionary
280
0
281
1
  0
ACDBDICTIONARYWDFLT
  5
E
102
{ACAD_REACTORS
330
C
102
}
100
AcDbDictionary
281
1
  3
Normal
350
F
100
AcDbDictionaryWithDefault
340
F
  0
DICTIONARY
  5
17
102
{ACAD_REACTORS
330
C
102
}
100
AcDbDictionary
280
0
281
1
  3
Standard
350
18
  0
DICTIONARY
  5
19
102
{ACAD_REACTORS
330
C
102
}
100
AcDbDictionary
281
1
  0
DICTIONARY
  5
1A
102
{ACAD_REACTORS
330
C
102
}
100
AcDbDictionary
281
1
  3
Model
350
866
  3
Layout1
350
867
  0
ACDBPLACEHOLDER
  5
F
102
{ACAD_REACTORS
330
E
102
}
  0
MLINESTYLE
  5
18
102
{ACAD_REACTORS
330
17
102
}
100
AcDbMlineStyle
  2
STANDARD
 70
0
  3

 62
256
 51
90.0
 52
90.0
 71
2
 49
0.5
 62
256
  6
BYLAYER
 49
-0.5
 62
256
  6
BYLAYER
  0
LAYOUT
  5
866
102
{ACAD_REACTORS
330
1A
102
}
100
AcDbPlotSettings
  1

  2
none_device
  4
ISO_A4_(297.00_x_210.00_MM)
  6

 40
0.0
 41
0.0
 42
0.0
 43
0.0
 44
297.0
 45
210.0
 46
0.0
 47
0.0
 48
0.0
 49
0.0
140
0.0
141
0.0
142
1.0
143
1.0
 70
1024
 72
1
 73
0
 74
0
  7

 75
0
147
1.0
148
0.0
149
0.0
100
AcDbLayout
  1
Model
 70
0
 71
0
 10
0.0
 20
0.0
 11
297.0
 21
210.0
 12
0.0
 22
0.0
 32
0.0
 14
0.0
 24
0.0
 34
0.0
 15
0.0
 25
0.0
 35
0.0
146
0.0
 13
0.0
 23
0.0
 33
0.0
 16
1.0
 26
0.0
 36
0.0
 17
0.0
 27
1.0
 37
0.0
 76
0
330
30D
345
0
346
0
  0
LAYOUT
  5
867
102
{ACAD_REACTORS
330
1A
102
}
100
AcDbPlotSettings
  1

  2
none_device
  4
ISO_A4_(297.00_x_210.00_MM)
  6

 40
0.0
 41
0.0
 42
0.0
 43
0.0
 44
297.0
 45
210.0
 46
0.0
 47
0.0
 48
0.0
 49
0.0
140
0.0
141
0.0
142
1.0
143
1.0
 70
0
 72
1
 73
0
 74
0
  7

 75
0
147
1.0
148
0.0
149
0.0
100
AcDbLayout
  1
Layout1
 70
0
 71
1
 10
0.0
 20
0.0
 11
297.0
 21
210.0
 12
0.0
 22
0.0
 32
0.0
 14
0.0
 24
0.0
 34
0.0
 15
0.0
 25
0.0
 35
0.0
146
0.0
 13
0.0
 23
0.0
 33
0.0
 16
1.0
 26
0.0
 36
0.0
 17
0.0
 27
1.0
 37
0.0
 76
0
330
30E
345
0
346
0
  0
ENDSEC
  0
EOF
