  0
SECTION
  2
HEADER
  9
$ACADVER
  1
AC1024
  9
$DWGCODEPAGE
  3
ANSI_1252
  9
$EXTMAX
 10
297.0
 20
210.0
 30
0.0
  9
$EXTMIN
 10
0.0
 20
0.0
 30
0.0
  9
$LIMMIN
 10
0.0
 20
0.0
  9
$LIMMAX
 10
297.0
 20
210.0
  9
$VIEWCTR
 10
148.5
 20
105.0
  9
$VIEWSIZE
 40
210.0
  9
$CLAYER
  8
0
  9
$LTSCALE
 40
16.335
  9
$CELTYPE
  6
BYLAYER
  9
$DIMSCALE
 40
1.0
  9
$DIMASZ
 40
3.0
  9
$DIMEXO
 40
0.5
  9
$DIMDLI
 40
11.286
  9
$DIMEXE
 40
1.5
  9
$DIMCEN
 40
2.673
  9
$DIMLFAC
 40
1.0
  9
$DIMBLK
  1
_FILLED
  9
$DIMALT
 70
0
  9
$DIMALTF
 40
0.0393700787
  9
$DIMTXT
 40
3.0
  9
$DIMTOL
 70
1
  9
$DIMLIM
 70
0
  9
$DIMTFAC
 40
1.0
  9
$DIMTP
 40
0.01
  9
$DIMTM
 40
0.01
  9
$DIMGAP
 40
0.625
  9
$DIMDSEP
 70
44
  9
$AUNITS
 70
0
  9
$PDMODE
 70
3
  9
$PDSIZE
 40
3.0
  9
$HANDSEED
  5
956
  9
$TILEMODE
 70
1
  9
$MEASUREMENT
 70
1
  9
$INSUNITS
 70
4
  0
ENDSEC
  0
SECTION
  2
CLASSES
  0
CLASS
  1
ACDBDICTIONARYWDFLT
  2
AcDbDictionaryWithDefault
  3
AutoCAD 2000
 90
0
 91
1
280
0
281
0
  0
CLASS
  1
ACDBPLACEHOLDER
  2
AcDbPlaceHolder
  3
AutoCAD 2000
 90
0
 91
1
280
0
281
0
  0
CLASS
  1
LAYOUT
  2
AcDbLayout
  3
AutoCAD 2000
 90
0
 91
0
280
0
281
0
  0
ENDSEC
  0
SECTION
  2
TABLES
  0
TABLE
  2
VPORT
  5
8
100
AcDbSymbolTable
 70
2
  0
VPORT
  5
1F4
100
AcDbSymbolTableRecord
100
AcDbViewportTableRecord
  2
*ACTIVE
 70
0
 10
0.0
 20
0.0
 11
1.0
 21
1.0
 12
148.5
 22
105.0
 13
0.0
 23
0.0
 14
1.0
 24
1.0
 15
0.0
 25
0.0
 16
0.0
 26
0.0
 36
1.0
 17
0.0
 27
0.0
 37
0.0
 40
210.0
 41
1.4142857143
 42
50.0
 43
0.0
 44
0.0
 50
0.0
 51
0.0
 71
0
 72
100
 73
1
 74
1
 75
0
 76
0
 77
0
 78
0
  0
ENDTAB
  0
TABLE
  2
LTYPE
  5
5
100
AcDbSymbolTable
 70
6
  0
LTYPE
  5
14
100
AcDbSymbolTableRecord
100
AcDbLinetypeTableRecord
  2
BYBLOCK
 70
0
  3

 72
65
 73
0
 40
0.0
  0
LTYPE
  5
15
100
AcDbSymbolTableRecord
100
AcDbLinetypeTableRecord
  2
BYLAYER
 70
0
  3

 72
65
 73
0
 40
0.0
  0
LTYPE
  5
16
100
AcDbSymbolTableRecord
100
AcDbLinetypeTableRecord
  2
CONTINUOUS
 70
64
  3
Solid line
 72
65
 73
0
 40
0.0
  0
LTYPE
  5
1F5
100
AcDbSymbolTableRecord
100
AcDbLinetypeTableRecord
  2
CENTER
 70
64
  3
____ _ ____ _ ____ _ ____ _ ____ _ ____ _ ____
 72
65
 73
4
 40
0.6
 49
0.375
 74
0
 49
-0.075
 74
0
 49
0.075
 74
0
 49
-0.075
 74
0
  0
LTYPE
  5
1F6
100
AcDbSymbolTableRecord
100
AcDbLinetypeTableRecord
  2
HIDDEN
 70
64
  3
- - - - - - - - - - - - - - - - - - - -
 72
65
 73
2
 40
0.2
 49
0.1
 74
0
 49
-0.1
 74
0
  0
LTYPE
  5
1F7
100
AcDbSymbolTableRecord
100
AcDbLinetypeTableRecord
  2
PHANTOM
 70
64
  3
_____ _ _ _____ _ _ _____ _ _ _____
 72
65
 73
6
 40
0.8
 49
0.45
 74
0
 49
-0.05
 74
0
 49
0.1
 74
0
 49
-0.05
 74
0
 49
0.1
 74
0
 49
-0.05
 74
0
  0
LTYPE
  5
1F8
100
AcDbSymbolTableRecord
100
AcDbLinetypeTableRecord
  2
DOT
 70
64
  3
. . . . . . . . . . . . . . . . . . . .
 72
65
 73
2
 40
0.2
 49
0.1
 74
0
 49
-0.1
 74
0
  0
LTYPE
  5
1F9
100
AcDbSymbolTableRecord
100
AcDbLinetypeTableRecord
  2
DASHED
 70
64
  3
- - - - - - - - - - - - - - - - - - - -
 72
65
 73
2
 40
0.2
 49
0.1
 74
0
 49
-0.1
 74
0
  0
ENDTAB
  0
TABLE
  2
LAYER
  5
2
100
AcDbSymbolTable
 70
36
  0
LAYER
  5
10
100
AcDbSymbolTableRecord
100
AcDbLayerTableRecord
  2
0
 70
0
 62
7
  6
CONTINUOUS
370
-3
390
F
  0
LAYER
  5
1FA
100
AcDbSymbolTableRecord
100
AcDbLayerTableRecord
  2
DEFAULT_1
 70
0
 62
7
  6
CENTER
370
-3
390
F
  0
LAYER
  5
1FB
100
AcDbSymbolTableRecord
100
AcDbLayerTableRecord
  2
DEFAULT_2
 70
0
 62
7
  6
HIDDEN
370
-3
390
F
  0
LAYER
  5
1FC
100
AcDbSymbolTableRecord
100
AcDbLayerTableRecord
  2
DEFAULT_3
 70
0
 62
7
  6
PHANTOM
370
-3
390
F
  0
LAYER
  5
1FD
100
AcDbSymbolTableRecord
100
AcDbLayerTableRecord
  2
0402_C_REF_70000
 70
0
 62
7
  6
CONTINUOUS
370
-3
390
F
  0
LAYER
  5
1FE
100
AcDbSymbolTableRecord
100
AcDbLayerTableRecord
  2
0402_C_REF_70000_1
 70
0
 62
7
  6
CONTINUOUS
370
-3
390
F
  0
LAYER
  5
1FF
100
AcDbSymbolTableRecord
100
AcDbLayerTableRecord
  2
0402_C_REF_70000_10
 70
0
 62
7
  6
CONTINUOUS
370
-3
390
F
  0
LAYER
  5
200
100
AcDbSymbolTableRecord
100
AcDbLayerTableRecord
  2
0402_C_REF_70000_11
 70
0
 62
7
  6
CONTINUOUS
370
-3
390
F
  0
LAYER
  5
201
100
AcDbSymbolTableRecord
100
AcDbLayerTableRecord
  2
0402_C_REF_70000_12
 70
0
 62
7
  6
CONTINUOUS
370
-3
390
F
  0
LAYER
  5
202
100
AcDbSymbolTableRecord
100
AcDbLayerTableRecord
  2
0402_C_REF_70000_13
 70
0
 62
7
  6
CONTINUOUS
370
-3
390
F
  0
LAYER
  5
203
100
AcDbSymbolTableRecord
100
AcDbLayerTableRecord
  2
0402_C_REF_70000_14
 70
0
 62
7
  6
CONTINUOUS
370
-3
390
F
  0
LAYER
  5
204
100
AcDbSymbolTableRecord
100
AcDbLayerTableRecord
  2
0402_C_REF_70000_15
 70
0
 62
7
  6
CONTINUOUS
370
-3
390
F
  0
LAYER
  5
205
100
AcDbSymbolTableRecord
100
AcDbLayerTableRecord
  2
0402_C_REF_70000_16
 70
0
 62
7
  6
CONTINUOUS
370
-3
390
F
  0
LAYER
  5
206
100
AcDbSymbolTableRecord
100
AcDbLayerTableRecord
  2
0402_C_REF_70000_17
 70
0
 62
7
  6
CONTINUOUS
370
-3
390
F
  0
LAYER
  5
207
100
AcDbSymbolTableRecord
100
AcDbLayerTableRecord
  2
0402_C_REF_70000_18
 70
0
 62
7
  6
CONTINUOUS
370
-3
390
F
  0
LAYER
  5
208
100
AcDbSymbolTableRecord
100
AcDbLayerTableRecord
  2
0402_C_REF_70000_19
 70
0
 62
7
  6
CONTINUOUS
370
-3
390
F
  0
LAYER
  5
209
100
AcDbSymbolTableRecord
100
AcDbLayerTableRecord
  2
0402_C_REF_70000_2
 70
0
 62
7
  6
CONTINUOUS
370
-3
390
F
  0
LAYER
  5
20A
100
AcDbSymbolTableRecord
100
AcDbLayerTableRecord
  2
0402_C_REF_70000_20
 70
0
 62
7
  6
CONTINUOUS
370
-3
390
F
  0
LAYER
  5
20B
100
AcDbSymbolTableRecord
100
AcDbLayerTableRecord
  2
0402_C_REF_70000_21
 70
0
 62
7
  6
CONTINUOUS
370
-3
390
F
  0
LAYER
  5
20C
100
AcDbSymbolTableRecord
100
AcDbLayerTableRecord
  2
0402_C_REF_70000_22
 70
0
 62
7
  6
CONTINUOUS
370
-3
390
F
  0
LAYER
  5
20D
100
AcDbSymbolTableRecord
100
AcDbLayerTableRecord
  2
0402_C_REF_70000_23
 70
0
 62
7
  6
CONTINUOUS
370
-3
390
F
  0
LAYER
  5
20E
100
AcDbSymbolTableRecord
100
AcDbLayerTableRecord
  2
0402_C_REF_70000_24
 70
0
 62
7
  6
CONTINUOUS
370
-3
390
F
  0
LAYER
  5
20F
100
AcDbSymbolTableRecord
100
AcDbLayerTableRecord
  2
0402_C_REF_70000_25
 70
0
 62
7
  6
CONTINUOUS
370
-3
390
F
  0
LAYER
  5
210
100
AcDbSymbolTableRecord
100
AcDbLayerTableRecord
  2
0402_C_REF_70000_26
 70
0
 62
7
  6
CONTINUOUS
370
-3
390
F
  0
LAYER
  5
211
100
AcDbSymbolTableRecord
100
AcDbLayerTableRecord
  2
0402_C_REF_70000_27
 70
0
 62
7
  6
CONTINUOUS
370
-3
390
F
  0
LAYER
  5
212
100
AcDbSymbolTableRecord
100
AcDbLayerTableRecord
  2
0402_C_REF_70000_28
 70
0
 62
7
  6
CONTINUOUS
370
-3
390
F
  0
LAYER
  5
213
100
AcDbSymbolTableRecord
100
AcDbLayerTableRecord
  2
0402_C_REF_70000_29
 70
0
 62
7
  6
CONTINUOUS
370
-3
390
F
  0
LAYER
  5
214
100
AcDbSymbolTableRecord
100
AcDbLayerTableRecord
  2
0402_C_REF_70000_3
 70
0
 62
7
  6
CONTINUOUS
370
-3
390
F
  0
LAYER
  5
215
100
AcDbSymbolTableRecord
100
AcDbLayerTableRecord
  2
0402_C_REF_70000_30
 70
0
 62
7
  6
CONTINUOUS
370
-3
390
F
  0
LAYER
  5
216
100
AcDbSymbolTableRecord
100
AcDbLayerTableRecord
  2
0402_C_REF_70000_31
 70
0
 62
7
  6
CONTINUOUS
370
-3
390
F
  0
LAYER
  5
217
100
AcDbSymbolTableRecord
100
AcDbLayerTableRecord
  2
0402_C_REF_70000_32
 70
0
 62
7
  6
CONTINUOUS
370
-3
390
F
  0
LAYER
  5
218
100
AcDbSymbolTableRecord
100
AcDbLayerTableRecord
  2
0402_C_REF_70000_33
 70
0
 62
7
  6
CONTINUOUS
370
-3
390
F
  0
LAYER
  5
219
100
AcDbSymbolTableRecord
100
AcDbLayerTableRecord
  2
0402_C_REF_70000_34
 70
0
 62
7
  6
CONTINUOUS
370
-3
390
F
  0
LAYER
  5
21A
100
AcDbSymbolTableRecord
100
AcDbLayerTableRecord
  2
0402_C_REF_70000_35
 70
0
 62
7
  6
CONTINUOUS
370
-3
390
F
  0
LAYER
  5
21B
100
AcDbSymbolTableRecord
100
AcDbLayerTableRecord
  2
0402_C_REF_70000_36
 70
0
 62
7
  6
CONTINUOUS
370
-3
390
F
  0
LAYER
  5
21C
100
AcDbSymbolTableRecord
100
AcDbLayerTableRecord
  2
0402_C_REF_70000_4
 70
0
 62
7
  6
CONTINUOUS
370
-3
390
F
  0
LAYER
  5
21D
100
AcDbSymbolTableRecord
100
AcDbLayerTableRecord
  2
0402_C_REF_70000_5
 70
0
 62
7
  6
CONTINUOUS
370
-3
390
F
  0
LAYER
  5
21E
100
AcDbSymbolTableRecord
100
AcDbLayerTableRecord
  2
0402_C_REF_70000_6
 70
0
 62
7
  6
CONTINUOUS
370
-3
390
F
  0
LAYER
  5
21F
100
AcDbSymbolTableRecord
100
AcDbLayerTableRecord
  2
0402_C_REF_70000_7
 70
0
 62
7
  6
CONTINUOUS
370
-3
390
F
  0
LAYER
  5
220
100
AcDbSymbolTableRecord
100
AcDbLayerTableRecord
  2
0402_C_REF_70000_8
 70
0
 62
7
  6
CONTINUOUS
370
-3
390
F
  0
LAYER
  5
221
100
AcDbSymbolTableRecord
100
AcDbLayerTableRecord
  2
0402_C_REF_70000_9
 70
0
 62
7
  6
CONTINUOUS
370
-3
390
F
  0
LAYER
  5
222
100
AcDbSymbolTableRecord
100
AcDbLayerTableRecord
  2
0402_R_REF_30000
 70
0
 62
7
  6
CONTINUOUS
370
-3
390
F
  0
LAYER
  5
223
100
AcDbSymbolTableRecord
100
AcDbLayerTableRecord
  2
0402_R_REF_30000_1
 70
0
 62
7
  6
CONTINUOUS
370
-3
390
F
  0
LAYER
  5
224
100
AcDbSymbolTableRecord
100
AcDbLayerTableRecord
  2
0402_R_REF_30000_10
 70
0
 62
7
  6
CONTINUOUS
370
-3
390
F
  0
LAYER
  5
225
100
AcDbSymbolTableRecord
100
AcDbLayerTableRecord
  2
0402_R_REF_30000_11
 70
0
 62
7
  6
CONTINUOUS
370
-3
390
F
  0
LAYER
  5
226
100
AcDbSymbolTableRecord
100
AcDbLayerTableRecord
  2
0402_R_REF_30000_12
 70
0
 62
7
  6
CONTINUOUS
370
-3
390
F
  0
LAYER
  5
227
100
AcDbSymbolTableRecord
100
AcDbLayerTableRecord
  2
0402_R_REF_30000_13
 70
0
 62
7
  6
CONTINUOUS
370
-3
390
F
  0
LAYER
  5
228
100
AcDbSymbolTableRecord
100
AcDbLayerTableRecord
  2
0402_R_REF_30000_14
 70
0
 62
7
  6
CONTINUOUS
370
-3
390
F
  0
LAYER
  5
229
100
AcDbSymbolTableRecord
100
AcDbLayerTableRecord
  2
0402_R_REF_30000_15
 70
0
 62
7
  6
CONTINUOUS
370
-3
390
F
  0
LAYER
  5
22A
100
AcDbSymbolTableRecord
100
AcDbLayerTableRecord
  2
0402_R_REF_30000_16
 70
0
 62
7
  6
CONTINUOUS
370
-3
390
F
  0
LAYER
  5
22B
100
AcDbSymbolTableRecord
100
AcDbLayerTableRecord
  2
0402_R_REF_30000_17
 70
0
 62
7
  6
CONTINUOUS
370
-3
390
F
  0
LAYER
  5
22C
100
AcDbSymbolTableRecord
100
AcDbLayerTableRecord
  2
0402_R_REF_30000_18
 70
0
 62
7
  6
CONTINUOUS
370
-3
390
F
  0
LAYER
  5
22D
100
AcDbSymbolTableRecord
100
AcDbLayerTableRecord
  2
0402_R_REF_30000_19
 70
0
 62
7
  6
CONTINUOUS
370
-3
390
F
  0
LAYER
  5
22E
100
AcDbSymbolTableRecord
100
AcDbLayerTableRecord
  2
0402_R_REF_30000_2
 70
0
 62
7
  6
CONTINUOUS
370
-3
390
F
  0
LAYER
  5
22F
100
AcDbSymbolTableRecord
100
AcDbLayerTableRecord
  2
0402_R_REF_30000_20
 70
0
 62
7
  6
CONTINUOUS
370
-3
390
F
  0
LAYER
  5
230
100
AcDbSymbolTableRecord
100
AcDbLayerTableRecord
  2
0402_R_REF_30000_21
 70
0
 62
7
  6
CONTINUOUS
370
-3
390
F
  0
LAYER
  5
231
100
AcDbSymbolTableRecord
100
AcDbLayerTableRecord
  2
0402_R_REF_30000_22
 70
0
 62
7
  6
CONTINUOUS
370
-3
390
F
  0
LAYER
  5
232
100
AcDbSymbolTableRecord
100
AcDbLayerTableRecord
  2
0402_R_REF_30000_23
 70
0
 62
7
  6
CONTINUOUS
370
-3
390
F
  0
LAYER
  5
233
100
AcDbSymbolTableRecord
100
AcDbLayerTableRecord
  2
0402_R_REF_30000_24
 70
0
 62
7
  6
CONTINUOUS
370
-3
390
F
  0
LAYER
  5
234
100
AcDbSymbolTableRecord
100
AcDbLayerTableRecord
  2
0402_R_REF_30000_25
 70
0
 62
7
  6
CONTINUOUS
370
-3
390
F
  0
LAYER
  5
235
100
AcDbSymbolTableRecord
100
AcDbLayerTableRecord
  2
0402_R_REF_30000_26
 70
0
 62
7
  6
CONTINUOUS
370
-3
390
F
  0
LAYER
  5
236
100
AcDbSymbolTableRecord
100
AcDbLayerTableRecord
  2
0402_R_REF_30000_27
 70
0
 62
7
  6
CONTINUOUS
370
-3
390
F
  0
LAYER
  5
237
100
AcDbSymbolTableRecord
100
AcDbLayerTableRecord
  2
0402_R_REF_30000_28
 70
0
 62
7
  6
CONTINUOUS
370
-3
390
F
  0
LAYER
  5
238
100
AcDbSymbolTableRecord
100
AcDbLayerTableRecord
  2
0402_R_REF_30000_29
 70
0
 62
7
  6
CONTINUOUS
370
-3
390
F
  0
LAYER
  5
239
100
AcDbSymbolTableRecord
100
AcDbLayerTableRecord
  2
0402_R_REF_30000_3
 70
0
 62
7
  6
CONTINUOUS
370
-3
390
F
  0
LAYER
  5
23A
100
AcDbSymbolTableRecord
100
AcDbLayerTableRecord
  2
0402_R_REF_30000_30
 70
0
 62
7
  6
CONTINUOUS
370
-3
390
F
  0
LAYER
  5
23B
100
AcDbSymbolTableRecord
100
AcDbLayerTableRecord
  2
0402_R_REF_30000_31
 70
0
 62
7
  6
CONTINUOUS
370
-3
390
F
  0
LAYER
  5
23C
100
AcDbSymbolTableRecord
100
AcDbLayerTableRecord
  2
0402_R_REF_30000_4
 70
0
 62
7
  6
CONTINUOUS
370
-3
390
F
  0
LAYER
  5
23D
100
AcDbSymbolTableRecord
100
AcDbLayerTableRecord
  2
0402_R_REF_30000_5
 70
0
 62
7
  6
CONTINUOUS
370
-3
390
F
  0
LAYER
  5
23E
100
AcDbSymbolTableRecord
100
AcDbLayerTableRecord
  2
0402_R_REF_30000_6
 70
0
 62
7
  6
CONTINUOUS
370
-3
390
F
  0
LAYER
  5
23F
100
AcDbSymbolTableRecord
100
AcDbLayerTableRecord
  2
0402_R_REF_30000_7
 70
0
 62
7
  6
CONTINUOUS
370
-3
390
F
  0
LAYER
  5
240
100
AcDbSymbolTableRecord
100
AcDbLayerTableRecord
  2
0402_R_REF_30000_8
 70
0
 62
7
  6
CONTINUOUS
370
-3
390
F
  0
LAYER
  5
241
100
AcDbSymbolTableRecord
100
AcDbLayerTableRecord
  2
0402_R_REF_30000_9
 70
0
 62
7
  6
CONTINUOUS
370
-3
390
F
  0
LAYER
  5
242
100
AcDbSymbolTableRecord
100
AcDbLayerTableRecord
  2
0603_C_REF_90000
 70
0
 62
7
  6
CONTINUOUS
370
-3
390
F
  0
LAYER
  5
243
100
AcDbSymbolTableRecord
100
AcDbLayerTableRecord
  2
0603_C_REF_90000_1
 70
0
 62
7
  6
CONTINUOUS
370
-3
390
F
  0
LAYER
  5
244
100
AcDbSymbolTableRecord
100
AcDbLayerTableRecord
  2
0603_C_REF_90000_2
 70
0
 62
7
  6
CONTINUOUS
370
-3
390
F
  0
LAYER
  5
245
100
AcDbSymbolTableRecord
100
AcDbLayerTableRecord
  2
0603_C_REF_90000_3
 70
0
 62
7
  6
CONTINUOUS
370
-3
390
F
  0
LAYER
  5
246
100
AcDbSymbolTableRecord
100
AcDbLayerTableRecord
  2
0603_C_REF_90000_4
 70
0
 62
7
  6
CONTINUOUS
370
-3
390
F
  0
LAYER
  5
247
100
AcDbSymbolTableRecord
100
AcDbLayerTableRecord
  2
0603_C_REF_90000_5
 70
0
 62
7
  6
CONTINUOUS
370
-3
390
F
  0
LAYER
  5
248
100
AcDbSymbolTableRecord
100
AcDbLayerTableRecord
  2
0603_C_REF_90000_6
 70
0
 62
7
  6
CONTINUOUS
370
-3
390
F
  0
LAYER
  5
249
100
AcDbSymbolTableRecord
100
AcDbLayerTableRecord
  2
0603_C_REF_90000_7
 70
0
 62
7
  6
CONTINUOUS
370
-3
390
F
  0
LAYER
  5
24A
100
AcDbSymbolTableRecord
100
AcDbLayerTableRecord
  2
0603_C_REF_90000_8
 70
0
 62
7
  6
CONTINUOUS
370
-3
390
F
  0
LAYER
  5
24B
100
AcDbSymbolTableRecord
100
AcDbLayerTableRecord
  2
0603_C_REF_90000_9
 70
0
 62
7
  6
CONTINUOUS
370
-3
390
F
  0
LAYER
  5
24C
100
AcDbSymbolTableRecord
100
AcDbLayerTableRecord
  2
0603_R_REF_55000
 70
0
 62
7
  6
CONTINUOUS
370
-3
390
F
  0
LAYER
  5
24D
100
AcDbSymbolTableRecord
100
AcDbLayerTableRecord
  2
0603_R_REF_55000_1
 70
0
 62
7
  6
CONTINUOUS
370
-3
390
F
  0
LAYER
  5
24E
100
AcDbSymbolTableRecord
100
AcDbLayerTableRecord
  2
0603_R_REF_55000_2
 70
0
 62
7
  6
CONTINUOUS
370
-3
390
F
  0
LAYER
  5
24F
100
AcDbSymbolTableRecord
100
AcDbLayerTableRecord
  2
0603_R_REF_55000_3
 70
0
 62
7
  6
CONTINUOUS
370
-3
390
F
  0
LAYER
  5
250
100
AcDbSymbolTableRecord
100
AcDbLayerTableRecord
  2
0603_R_REF_55000_4
 70
0
 62
7
  6
CONTINUOUS
370
-3
390
F
  0
LAYER
  5
251
100
AcDbSymbolTableRecord
100
AcDbLayerTableRecord
  2
0603_R_REF_55000_5
 70
0
 62
7
  6
CONTINUOUS
370
-3
390
F
  0
LAYER
  5
252
100
AcDbSymbolTableRecord
100
AcDbLayerTableRecord
  2
06___PRT_ALL_SURFS
 70
0
 62
7
  6
CONTINUOUS
370
-3
390
F
  0
LAYER
  5
253
100
AcDbSymbolTableRecord
100
AcDbLayerTableRecord
  2
06___PRT_ALL_SURFS_1
 70
0
 62
7
  6
CONTINUOUS
370
-3
390
F
  0
LAYER
  5
254
100
AcDbSymbolTableRecord
100
AcDbLayerTableRecord
  2
06___PRT_ALL_SURFS_13
 70
0
 62
7
  6
CONTINUOUS
370
-3
390
F
  0
LAYER
  5
255
100
AcDbSymbolTableRecord
100
AcDbLayerTableRecord
  2
06___PRT_ALL_SURFS_15
 70
0
 62
7
  6
CONTINUOUS
370
-3
390
F
  0
LAYER
  5
256
100
AcDbSymbolTableRecord
100
AcDbLayerTableRecord
  2
06___PRT_ALL_SURFS_16
 70
0
 62
7
  6
CONTINUOUS
370
-3
390
F
  0
LAYER
  5
257
100
AcDbSymbolTableRecord
100
AcDbLayerTableRecord
  2
06___PRT_ALL_SURFS_2
 70
0
 62
7
  6
CONTINUOUS
370
-3
390
F
  0
LAYER
  5
258
100
AcDbSymbolTableRecord
100
AcDbLayerTableRecord
  2
06___PRT_ALL_SURFS_20
 70
0
 62
7
  6
CONTINUOUS
370
-3
390
F
  0
LAYER
  5
259
100
AcDbSymbolTableRecord
100
AcDbLayerTableRecord
  2
06___PRT_ALL_SURFS_22
 70
0
 62
7
  6
CONTINUOUS
370
-3
390
F
  0
LAYER
  5
25A
100
AcDbSymbolTableRecord
100
AcDbLayerTableRecord
  2
06___PRT_ALL_SURFS_23
 70
0
 62
7
  6
CONTINUOUS
370
-3
390
F
  0
LAYER
  5
25B
100
AcDbSymbolTableRecord
100
AcDbLayerTableRecord
  2
06___PRT_ALL_SURFS_24
 70
0
 62
7
  6
CONTINUOUS
370
-3
390
F
  0
LAYER
  5
25C
100
AcDbSymbolTableRecord
100
AcDbLayerTableRecord
  2
06___PRT_ALL_SURFS_26
 70
0
 62
7
  6
CONTINUOUS
370
-3
390
F
  0
LAYER
  5
25D
100
AcDbSymbolTableRecord
100
AcDbLayerTableRecord
  2
06___PRT_ALL_SURFS_27
 70
0
 62
7
  6
CONTINUOUS
370
-3
390
F
  0
LAYER
  5
25E
100
AcDbSymbolTableRecord
100
AcDbLayerTableRecord
  2
06___PRT_ALL_SURFS_28
 70
0
 62
7
  6
CONTINUOUS
370
-3
390
F
  0
LAYER
  5
25F
100
AcDbSymbolTableRecord
100
AcDbLayerTableRecord
  2
06___PRT_ALL_SURFS_29
 70
0
 62
7
  6
CONTINUOUS
370
-3
390
F
  0
LAYER
  5
260
100
AcDbSymbolTableRecord
100
AcDbLayerTableRecord
  2
06___PRT_ALL_SURFS_3
 70
0
 62
7
  6
CONTINUOUS
370
-3
390
F
  0
LAYER
  5
261
100
AcDbSymbolTableRecord
100
AcDbLayerTableRecord
  2
06___PRT_ALL_SURFS_30
 70
0
 62
7
  6
CONTINUOUS
370
-3
390
F
  0
LAYER
  5
262
100
AcDbSymbolTableRecord
100
AcDbLayerTableRecord
  2
06___PRT_ALL_SURFS_31
 70
0
 62
7
  6
CONTINUOUS
370
-3
390
F
  0
LAYER
  5
263
100
AcDbSymbolTableRecord
100
AcDbLayerTableRecord
  2
06___PRT_ALL_SURFS_32
 70
0
 62
7
  6
CONTINUOUS
370
-3
390
F
  0
LAYER
  5
264
100
AcDbSymbolTableRecord
100
AcDbLayerTableRecord
  2
06___PRT_ALL_SURFS_34
 70
0
 62
7
  6
CONTINUOUS
370
-3
390
F
  0
LAYER
  5
265
100
AcDbSymbolTableRecord
100
AcDbLayerTableRecord
  2
06___PRT_ALL_SURFS_37
 70
0
 62
7
  6
CONTINUOUS
370
-3
390
F
  0
LAYER
  5
266
100
AcDbSymbolTableRecord
100
AcDbLayerTableRecord
  2
06___PRT_ALL_SURFS_4
 70
0
 62
7
  6
CONTINUOUS
370
-3
390
F
  0
LAYER
  5
267
100
AcDbSymbolTableRecord
100
AcDbLayerTableRecord
  2
06___PRT_ALL_SURFS_5
 70
0
 62
7
  6
CONTINUOUS
370
-3
390
F
  0
LAYER
  5
268
100
AcDbSymbolTableRecord
100
AcDbLayerTableRecord
  2
06___PRT_ALL_SURFS_6
 70
0
 62
7
  6
CONTINUOUS
370
-3
390
F
  0
LAYER
  5
269
100
AcDbSymbolTableRecord
100
AcDbLayerTableRecord
  2
06___PRT_ALL_SURFS_7
 70
0
 62
7
  6
CONTINUOUS
370
-3
390
F
  0
LAYER
  5
26A
100
AcDbSymbolTableRecord
100
AcDbLayerTableRecord
  2
06___PRT_ALL_SURFS_8
 70
0
 62
7
  6
CONTINUOUS
370
-3
390
F
  0
LAYER
  5
26B
100
AcDbSymbolTableRecord
100
AcDbLayerTableRecord
  2
06___PRT_ALL_SURFS_9
 70
0
 62
7
  6
CONTINUOUS
370
-3
390
F
  0
LAYER
  5
26C
100
AcDbSymbolTableRecord
100
AcDbLayerTableRecord
  2
0805_C_REF_145000
 70
0
 62
7
  6
CONTINUOUS
370
-3
390
F
  0
LAYER
  5
26D
100
AcDbSymbolTableRecord
100
AcDbLayerTableRecord
  2
1206_C_REF_180000
 70
0
 62
7
  6
CONTINUOUS
370
-3
390
F
  0
LAYER
  5
26E
100
AcDbSymbolTableRecord
100
AcDbLayerTableRecord
  2
43001034A0
 70
0
 62
7
  6
CONTINUOUS
370
-3
390
F
  0
LAYER
  5
26F
100
AcDbSymbolTableRecord
100
AcDbLayerTableRecord
  2
43001034B0
 70
0
 62
7
  6
CONTINUOUS
370
-3
390
F
  0
LAYER
  5
270
100
AcDbSymbolTableRecord
100
AcDbLayerTableRecord
  2
43001034B0_1
 70
0
 62
7
  6
CONTINUOUS
370
-3
390
F
  0
LAYER
  5
271
100
AcDbSymbolTableRecord
100
AcDbLayerTableRecord
  2
43001034C0
 70
0
 62
7
  6
CONTINUOUS
370
-3
390
F
  0
LAYER
  5
272
100
AcDbSymbolTableRecord
100
AcDbLayerTableRecord
  2
43001035A0
 70
0
 62
7
  6
CONTINUOUS
370
-3
390
F
  0
LAYER
  5
273
100
AcDbSymbolTableRecord
100
AcDbLayerTableRecord
  2
43001035B0
 70
0
 62
7
  6
CONTINUOUS
370
-3
390
F
  0
LAYER
  5
274
100
AcDbSymbolTableRecord
100
AcDbLayerTableRecord
  2
43901034A0
 70
0
 62
7
  6
CONTINUOUS
370
-3
390
F
  0
LAYER
  5
275
100
AcDbSymbolTableRecord
100
AcDbLayerTableRecord
  2
43901034B0
 70
0
 62
7
  6
CONTINUOUS
370
-3
390
F
  0
LAYER
  5
276
100
AcDbSymbolTableRecord
100
AcDbLayerTableRecord
  2
43901034C0
 70
0
 62
7
  6
CONTINUOUS
370
-3
390
F
  0
LAYER
  5
277
100
AcDbSymbolTableRecord
100
AcDbLayerTableRecord
  2
43901035A0
 70
0
 62
7
  6
CONTINUOUS
370
-3
390
F
  0
LAYER
  5
278
100
AcDbSymbolTableRecord
100
AcDbLayerTableRecord
  2
43901035B0
 70
0
 62
7
  6
CONTINUOUS
370
-3
390
F
  0
LAYER
  5
279
100
AcDbSymbolTableRecord
100
AcDbLayerTableRecord
  2
43901035C0
 70
0
 62
7
  6
CONTINUOUS
370
-3
390
F
  0
LAYER
  5
27A
100
AcDbSymbolTableRecord
100
AcDbLayerTableRecord
  2
ASSI
 70
0
 62
7
  6
CONTINUOUS
370
-3
390
F
  0
LAYER
  5
27B
100
AcDbSymbolTableRecord
100
AcDbLayerTableRecord
  2
CAP-E-SMD-6_6-6_3-5_4_570000
 70
0
 62
7
  6
CONTINUOUS
370
-3
390
F
  0
LAYER
  5
27C
100
AcDbSymbolTableRecord
100
AcDbLayerTableRecord
  2
CAP-E-SMD-8_3-8_3-10_5_1050000
 70
0
 62
7
  6
CONTINUOUS
370
-3
390
F
  0
LAYER
  5
27D
100
AcDbSymbolTableRecord
100
AcDbLayerTableRecord
  2
CAP-E-SMD-8_3-8_3-10_5_105000_1
 70
0
 62
7
  6
CONTINUOUS
370
-3
390
F
  0
LAYER
  5
27E
100
AcDbSymbolTableRecord
100
AcDbLayerTableRecord
  2
CC-20MILS-VIMAR_1000
 70
0
 62
7
  6
CONTINUOUS
370
-3
390
F
  0
LAYER
  5
27F
100
AcDbSymbolTableRecord
100
AcDbLayerTableRecord
  2
COLOR124
 70
0
 62
7
  6
CONTINUOUS
370
-3
390
F
  0
LAYER
  5
280
100
AcDbSymbolTableRecord
100
AcDbLayerTableRecord
  2
COLOR2
 70
0
 62
7
  6
CONTINUOUS
370
-3
390
F
  0
LAYER
  5
281
100
AcDbSymbolTableRecord
100
AcDbLayerTableRecord
  2
COLOR5
 70
0
 62
7
  6
CONTINUOUS
370
-3
390
F
  0
LAYER
  5
282
100
AcDbSymbolTableRecord
100
AcDbLayerTableRecord
  2
COLOR6
 70
0
 62
7
  6
CONTINUOUS
370
-3
390
F
  0
LAYER
  5
283
100
AcDbSymbolTableRecord
100
AcDbLayerTableRecord
  2
COLOR7
 70
0
 62
7
  6
CONTINUOUS
370
-3
390
F
  0
LAYER
  5
284
100
AcDbSymbolTableRecord
100
AcDbLayerTableRecord
  2
COORDINATE
 70
0
 62
7
  6
CONTINUOUS
370
-3
390
F
  0
LAYER
  5
285
100
AcDbSymbolTableRecord
100
AcDbLayerTableRecord
  2
COORD_ORIGINE
 70
0
 62
7
  6
CONTINUOUS
370
-3
390
F
  0
LAYER
  5
286
100
AcDbSymbolTableRecord
100
AcDbLayerTableRecord
  2
COPY_PUBLISH
 70
0
 62
7
  6
CONTINUOUS
370
-3
390
F
  0
LAYER
  5
287
100
AcDbSymbolTableRecord
100
AcDbLayerTableRecord
  2
COSMETIC
 70
0
 62
7
  6
CONTINUOUS
370
-3
390
F
  0
LAYER
  5
288
100
AcDbSymbolTableRecord
100
AcDbLayerTableRecord
  2
COSMETICI
 70
0
 62
7
  6
CONTINUOUS
370
-3
390
F
  0
LAYER
  5
289
100
AcDbSymbolTableRecord
100
AcDbLayerTableRecord
  2
CR_MR2P5_MSB_SW_PTH_1000000
 70
0
 62
7
  6
CONTINUOUS
370
-3
390
F
  0
LAYER
  5
28A
100
AcDbSymbolTableRecord
100
AcDbLayerTableRecord
  2
CURVE
 70
0
 62
7
  6
CONTINUOUS
370
-3
390
F
  0
LAYER
  5
28B
100
AcDbSymbolTableRecord
100
AcDbLayerTableRecord
  2
DATAMATRIX_RESIST_1000
 70
0
 62
7
  6
CONTINUOUS
370
-3
390
F
  0
LAYER
  5
28C
100
AcDbSymbolTableRecord
100
AcDbLayerTableRecord
  2
DL_RGB_1_6-1_6-0_5MM_50000
 70
0
 62
7
  6
CONTINUOUS
370
-3
390
F
  0
LAYER
  5
28D
100
AcDbSymbolTableRecord
100
AcDbLayerTableRecord
  2
DRAFT
 70
0
 62
7
  6
CONTINUOUS
370
-3
390
F
  0
LAYER
  5
28E
100
AcDbSymbolTableRecord
100
AcDbLayerTableRecord
  2
FIDUCIAL_1_2_MM_RUOTATO_45_1000
 70
0
 62
7
  6
CONTINUOUS
370
-3
390
F
  0
LAYER
  5
28F
100
AcDbSymbolTableRecord
100
AcDbLayerTableRecord
  2
FIDUCIAL_1_2_MM_RUOTATO_45_10_1
 70
0
 62
7
  6
CONTINUOUS
370
-3
390
F
  0
LAYER
  5
290
100
AcDbSymbolTableRecord
100
AcDbLayerTableRecord
  2
FIDUCIAL_1_2_MM_RUOTATO_45_10_2
 70
0
 62
7
  6
CONTINUOUS
370
-3
390
F
  0
LAYER
  5
291
100
AcDbSymbolTableRecord
100
AcDbLayerTableRecord
  2
GEOMETRIA_SOLIDA
 70
0
 62
7
  6
CONTINUOUS
370
-3
390
F
  0
LAYER
  5
292
100
AcDbSymbolTableRecord
100
AcDbLayerTableRecord
  2
GEOMETRIA_SOLIDA_1
 70
0
 62
7
  6
CONTINUOUS
370
-3
390
F
  0
LAYER
  5
293
100
AcDbSymbolTableRecord
100
AcDbLayerTableRecord
  2
GEOMETRIA_SOLIDA_10
 70
0
 62
7
  6
CONTINUOUS
370
-3
390
F
  0
LAYER
  5
294
100
AcDbSymbolTableRecord
100
AcDbLayerTableRecord
  2
GEOMETRIA_SOLIDA_2
 70
0
 62
7
  6
CONTINUOUS
370
-3
390
F
  0
LAYER
  5
295
100
AcDbSymbolTableRecord
100
AcDbLayerTableRecord
  2
GEOMETRIA_SOLIDA_3
 70
0
 62
7
  6
CONTINUOUS
370
-3
390
F
  0
LAYER
  5
296
100
AcDbSymbolTableRecord
100
AcDbLayerTableRecord
  2
GEOMETRIA_SOLIDA_4
 70
0
 62
7
  6
CONTINUOUS
370
-3
390
F
  0
LAYER
  5
297
100
AcDbSymbolTableRecord
100
AcDbLayerTableRecord
  2
GEOMETRIA_SOLIDA_5
 70
0
 62
7
  6
CONTINUOUS
370
-3
390
F
  0
LAYER
  5
298
100
AcDbSymbolTableRecord
100
AcDbLayerTableRecord
  2
GEOMETRIA_SOLIDA_6
 70
0
 62
7
  6
CONTINUOUS
370
-3
390
F
  0
LAYER
  5
299
100
AcDbSymbolTableRecord
100
AcDbLayerTableRecord
  2
GEOMETRIA_SOLIDA_7
 70
0
 62
7
  6
CONTINUOUS
370
-3
390
F
  0
LAYER
  5
29A
100
AcDbSymbolTableRecord
100
AcDbLayerTableRecord
  2
GEOMETRIA_SOLIDA_8
 70
0
 62
7
  6
CONTINUOUS
370
-3
390
F
  0
LAYER
  5
29B
100
AcDbSymbolTableRecord
100
AcDbLayerTableRecord
  2
GEOMETRIA_SOLIDA_9
 70
0
 62
7
  6
CONTINUOUS
370
-3
390
F
  0
LAYER
  5
29C
100
AcDbSymbolTableRecord
100
AcDbLayerTableRecord
  2
IMPORT_IGES
 70
0
 62
7
  6
CONTINUOUS
370
-3
390
F
  0
LAYER
  5
29D
100
AcDbSymbolTableRecord
100
AcDbLayerTableRecord
  2
IMPORT_IGES_3
 70
0
 62
7
  6
CONTINUOUS
370
-3
390
F
  0
LAYER
  5
29E
100
AcDbSymbolTableRecord
100
AcDbLayerTableRecord
  2
IMPORT_IGES_5
 70
0
 62
7
  6
CONTINUOUS
370
-3
390
F
  0
LAYER
  5
29F
100
AcDbSymbolTableRecord
100
AcDbLayerTableRecord
  2
IMPORT_IGES_7
 70
0
 62
7
  6
CONTINUOUS
370
-3
390
F
  0
LAYER
  5
2A0
100
AcDbSymbolTableRecord
100
AcDbLayerTableRecord
  2
IMPORT_IGES_8
 70
0
 62
7
  6
CONTINUOUS
370
-3
390
F
  0
LAYER
  5
2A1
100
AcDbSymbolTableRecord
100
AcDbLayerTableRecord
  2
INTF_1
 70
0
 62
7
  6
CONTINUOUS
370
-3
390
F
  0
LAYER
  5
2A2
100
AcDbSymbolTableRecord
100
AcDbLayerTableRecord
  2
INTF_11
 70
0
 62
7
  6
CONTINUOUS
370
-3
390
F
  0
LAYER
  5
2A3
100
AcDbSymbolTableRecord
100
AcDbLayerTableRecord
  2
INTF_2
 70
0
 62
7
  6
CONTINUOUS
370
-3
390
F
  0
LAYER
  5
2A4
100
AcDbSymbolTableRecord
100
AcDbLayerTableRecord
  2
INTF_BLUE
 70
0
 62
7
  6
CONTINUOUS
370
-3
390
F
  0
LAYER
  5
2A5
100
AcDbSymbolTableRecord
100
AcDbLayerTableRecord
  2
INTF_GREEN
 70
0
 62
7
  6
CONTINUOUS
370
-3
390
F
  0
LAYER
  5
2A6
100
AcDbSymbolTableRecord
100
AcDbLayerTableRecord
  2
LOGO_RESIST-RESTYLING_10000
 70
0
 62
7
  6
CONTINUOUS
370
-3
390
F
  0
LAYER
  5
2A7
100
AcDbSymbolTableRecord
100
AcDbLayerTableRecord
  2
MINIMELF_R_REF_140000
 70
0
 62
7
  6
CONTINUOUS
370
-3
390
F
  0
LAYER
  5
2A8
100
AcDbSymbolTableRecord
100
AcDbLayerTableRecord
  2
MINIMELF_R_REF_140000_1
 70
0
 62
7
  6
CONTINUOUS
370
-3
390
F
  0
LAYER
  5
2A9
100
AcDbSymbolTableRecord
100
AcDbLayerTableRecord
  2
NOTE
 70
0
 62
7
  6
CONTINUOUS
370
-3
390
F
  0
LAYER
  5
2AA
100
AcDbSymbolTableRecord
100
AcDbLayerTableRecord
  2
PIANI
 70
0
 62
7
  6
CONTINUOUS
370
-3
390
F
  0
LAYER
  5
2AB
100
AcDbSymbolTableRecord
100
AcDbLayerTableRecord
  2
PIANI_ORIGINE
 70
0
 62
7
  6
CONTINUOUS
370
-3
390
F
  0
LAYER
  5
2AC
100
AcDbSymbolTableRecord
100
AcDbLayerTableRecord
  2
PIANI_RIFERIMENTO
 70
0
 62
7
  6
CONTINUOUS
370
-3
390
F
  0
LAYER
  5
2AD
100
AcDbSymbolTableRecord
100
AcDbLayerTableRecord
  2
PUNTI
 70
0
 62
7
  6
CONTINUOUS
370
-3
390
F
  0
LAYER
  5
2AE
100
AcDbSymbolTableRecord
100
AcDbLayerTableRecord
  2
RACCORDO
 70
0
 62
7
  6
CONTINUOUS
370
-3
390
F
  0
LAYER
  5
2AF
100
AcDbSymbolTableRecord
100
AcDbLayerTableRecord
  2
SC88-6_REF_H1_1_110000
 70
0
 62
7
  6
CONTINUOUS
370
-3
390
F
  0
LAYER
  5
2B0
100
AcDbSymbolTableRecord
100
AcDbLayerTableRecord
  2
SC88-6_REF_H1_1_110000_1
 70
0
 62
7
  6
CONTINUOUS
370
-3
390
F
  0
LAYER
  5
2B1
100
AcDbSymbolTableRecord
100
AcDbLayerTableRecord
  2
SIMBOLI
 70
0
 62
7
  6
CONTINUOUS
370
-3
390
F
  0
LAYER
  5
2B2
100
AcDbSymbolTableRecord
100
AcDbLayerTableRecord
  2
SMUSSO
 70
0
 62
7
  6
CONTINUOUS
370
-3
390
F
  0
LAYER
  5
2B3
100
AcDbSymbolTableRecord
100
AcDbLayerTableRecord
  2
SOD123_REF_140000
 70
0
 62
7
  6
CONTINUOUS
370
-3
390
F
  0
LAYER
  5
2B4
100
AcDbSymbolTableRecord
100
AcDbLayerTableRecord
  2
SOD523F_70000
 70
0
 62
7
  6
CONTINUOUS
370
-3
390
F
  0
LAYER
  5
2B5
100
AcDbSymbolTableRecord
100
AcDbLayerTableRecord
  2
SOT23-5_REF_H1_5_150000
 70
0
 62
7
  6
CONTINUOUS
370
-3
390
F
  0
LAYER
  5
2B6
100
AcDbSymbolTableRecord
100
AcDbLayerTableRecord
  2
SOT23-5_REF_H1_5_150000_1
 70
0
 62
7
  6
CONTINUOUS
370
-3
390
F
  0
LAYER
  5
2B7
100
AcDbSymbolTableRecord
100
AcDbLayerTableRecord
  2
SOT23-5_REF_H1_5_150000_2
 70
0
 62
7
  6
CONTINUOUS
370
-3
390
F
  0
LAYER
  5
2B8
100
AcDbSymbolTableRecord
100
AcDbLayerTableRecord
  2
SOT89_REF_H1_6_160000
 70
0
 62
7
  6
CONTINUOUS
370
-3
390
F
  0
LAYER
  5
2B9
100
AcDbSymbolTableRecord
100
AcDbLayerTableRecord
  2
SUB_SMA_143000
 70
0
 62
7
  6
CONTINUOUS
370
-3
390
F
  0
LAYER
  5
2BA
100
AcDbSymbolTableRecord
100
AcDbLayerTableRecord
  2
SUB_SMA_143000_1
 70
0
 62
7
  6
CONTINUOUS
370
-3
390
F
  0
LAYER
  5
2BB
100
AcDbSymbolTableRecord
100
AcDbLayerTableRecord
  2
SUB_SMA_143000_2
 70
0
 62
7
  6
CONTINUOUS
370
-3
390
F
  0
LAYER
  5
2BC
100
AcDbSymbolTableRecord
100
AcDbLayerTableRecord
  2
SUB_SMA_143000_3
 70
0
 62
7
  6
CONTINUOUS
370
-3
390
F
  0
LAYER
  5
2BD
100
AcDbSymbolTableRecord
100
AcDbLayerTableRecord
  2
SUPERFICI
 70
0
 62
7
  6
CONTINUOUS
370
-3
390
F
  0
LAYER
  5
2BE
100
AcDbSymbolTableRecord
100
AcDbLayerTableRecord
  2
SYMBOL_DATA_10000
 70
0
 62
7
  6
CONTINUOUS
370
-3
390
F
  0
LAYER
  5
2BF
100
AcDbSymbolTableRecord
100
AcDbLayerTableRecord
  2
SYMBOL_DATA_10000_1
 70
0
 62
7
  6
CONTINUOUS
370
-3
390
F
  0
LAYER
  5
2C0
100
AcDbSymbolTableRecord
100
AcDbLayerTableRecord
  2
SYMBOL_NO-PB_10000
 70
0
 62
7
  6
CONTINUOUS
370
-3
390
F
  0
LAYER
  5
2C1
100
AcDbSymbolTableRecord
100
AcDbLayerTableRecord
  2
TP_PROGRAMMAZIONE_SWD_D1_5_1000
 70
0
 62
7
  6
CONTINUOUS
370
-3
390
F
  0
LAYER
  5
2C2
100
AcDbSymbolTableRecord
100
AcDbLayerTableRecord
  2
TRASH
 70
0
 62
7
  6
CONTINUOUS
370
-3
390
F
  0
LAYER
  5
2C3
100
AcDbSymbolTableRecord
100
AcDbLayerTableRecord
  2
VG_ANTENNA_WE_7488960245_85000
 70
0
 62
7
  6
CONTINUOUS
370
-3
390
F
  0
LAYER
  5
2C4
100
AcDbSymbolTableRecord
100
AcDbLayerTableRecord
  2
VG_CN-M-THT-P5_0-R1-P2-SET-H14_
 70
0
 62
7
  6
CONTINUOUS
370
-3
390
F
  0
LAYER
  5
2C5
100
AcDbSymbolTableRecord
100
AcDbLayerTableRecord
  2
VG_CN-M-THT-P5_0-R1-P3-SET-H14_
 70
0
 62
7
  6
CONTINUOUS
370
-3
390
F
  0
LAYER
  5
2C6
100
AcDbSymbolTableRecord
100
AcDbLayerTableRecord
  2
VG_CN-MEZZANINE-F-SMT-P0_8-R2-P
 70
0
 62
7
  6
CONTINUOUS
370
-3
390
F
  0
LAYER
  5
2C7
100
AcDbSymbolTableRecord
100
AcDbLayerTableRecord
  2
VG_CN-MEZZANINE-M-SMT-P0_8-R2-P
 70
0
 62
7
  6
CONTINUOUS
370
-3
390
F
  0
LAYER
  5
2C8
100
AcDbSymbolTableRecord
100
AcDbLayerTableRecord
  2
VG_CN-THT-CII5-R1-P2-SET_100000
 70
0
 62
7
  6
CONTINUOUS
370
-3
390
F
  0
LAYER
  5
2C9
100
AcDbSymbolTableRecord
100
AcDbLayerTableRecord
  2
VG_DO-214AC-NP_230000
 70
0
 62
7
  6
CONTINUOUS
370
-3
390
F
  0
LAYER
  5
2CA
100
AcDbSymbolTableRecord
100
AcDbLayerTableRecord
  2
VG_IND-CHIP-0402-POL-1_0-REF_10
 70
0
 62
7
  6
CONTINUOUS
370
-3
390
F
  0
LAYER
  5
2CB
100
AcDbSymbolTableRecord
100
AcDbLayerTableRecord
  2
VG_IND-SMT-4_0-4_0-2_5-1_55-3_6
 70
0
 62
7
  6
CONTINUOUS
370
-3
390
F
  0
LAYER
  5
2CC
100
AcDbSymbolTableRecord
100
AcDbLayerTableRecord
  2
VG_IND-SMT-8_0-8_0-6_5-4_0-6_3-
 70
0
 62
7
  6
CONTINUOUS
370
-3
390
F
  0
LAYER
  5
2CD
100
AcDbSymbolTableRecord
100
AcDbLayerTableRecord
  2
VG_MCM_LT103SPI_250000
 70
0
 62
7
  6
CONTINUOUS
370
-3
390
F
  0
LAYER
  5
2CE
100
AcDbSymbolTableRecord
100
AcDbLayerTableRecord
  2
VG_PB-2-3_9-2_9-2_0-SMT_200000
 70
0
 62
7
  6
CONTINUOUS
370
-3
390
F
  0
LAYER
  5
2CF
100
AcDbSymbolTableRecord
100
AcDbLayerTableRecord
  2
VG_PHOTOTRANSISTOR-0805-1_0-2PI
 70
0
 62
7
  6
CONTINUOUS
370
-3
390
F
  0
LAYER
  5
2D0
100
AcDbSymbolTableRecord
100
AcDbLayerTableRecord
  2
VG_PTC-6_5-10_0-5_0-5_0-0-0_6_1
 70
0
 62
7
  6
CONTINUOUS
370
-3
390
F
  0
LAYER
  5
2D1
100
AcDbSymbolTableRecord
100
AcDbLayerTableRecord
  2
VG_QCS5F_40000
 70
0
 62
7
  6
CONTINUOUS
370
-3
390
F
  0
LAYER
  5
2D2
100
AcDbSymbolTableRecord
100
AcDbLayerTableRecord
  2
VG_QFN73-7_0-7_0-7_0-7_0-0_85-0
 70
0
 62
7
  6
CONTINUOUS
370
-3
390
F
  0
LAYER
  5
2D3
100
AcDbSymbolTableRecord
100
AcDbLayerTableRecord
  2
VG_SOP4-4_6-10_0-4_5-2_54-REF_4
 70
0
 62
7
  6
CONTINUOUS
370
-3
390
F
  0
LAYER
  5
2D4
100
AcDbSymbolTableRecord
100
AcDbLayerTableRecord
  2
VG_SOT23-5-H1_1-REF_150000
 70
0
 62
7
  6
CONTINUOUS
370
-3
390
F
  0
LAYER
  5
2D5
100
AcDbSymbolTableRecord
100
AcDbLayerTableRecord
  2
VG_SOT23_H1_1_REF_110000
 70
0
 62
7
  6
CONTINUOUS
370
-3
390
F
  0
LAYER
  5
2D6
100
AcDbSymbolTableRecord
100
AcDbLayerTableRecord
  2
VG_SOT23_H1_1_REF_110000_1
 70
0
 62
7
  6
CONTINUOUS
370
-3
390
F
  0
LAYER
  5
2D7
100
AcDbSymbolTableRecord
100
AcDbLayerTableRecord
  2
VG_SOT23_H1_1_REF_110000_2
 70
0
 62
7
  6
CONTINUOUS
370
-3
390
F
  0
LAYER
  5
2D8
100
AcDbSymbolTableRecord
100
AcDbLayerTableRecord
  2
VG_SOT23_H1_2_REF_120000
 70
0
 62
7
  6
CONTINUOUS
370
-3
390
F
  0
LAYER
  5
2D9
100
AcDbSymbolTableRecord
100
AcDbLayerTableRecord
  2
VG_VAR_S05_D7_S4_3_H8_5_850000
 70
0
 62
7
  6
CONTINUOUS
370
-3
390
F
  0
LAYER
  5
2DA
100
AcDbSymbolTableRecord
100
AcDbLayerTableRecord
  2
VG_X-SMT-2-3_2-1_5-1_0_100000
 70
0
 62
7
  6
CONTINUOUS
370
-3
390
F
  0
LAYER
  5
2DB
100
AcDbSymbolTableRecord
100
AcDbLayerTableRecord
  2
VG_X-SMT-2-5_0-3_2-1_5_150000
 70
0
 62
7
  6
CONTINUOUS
370
-3
390
F
  0
LAYER
  5
2DC
100
AcDbSymbolTableRecord
100
AcDbLayerTableRecord
  2
XSEC_DATUMS
 70
0
 62
7
  6
CONTINUOUS
370
-3
390
F
  0
LAYER
  5
2DD
100
AcDbSymbolTableRecord
100
AcDbLayerTableRecord
  2
___SHELL
 70
0
 62
7
  6
CONTINUOUS
370
-3
390
F
  0
ENDTAB
  0
TABLE
  2
STYLE
  5
3
100
AcDbSymbolTable
 70
1
  0
STYLE
  5
11
100
AcDbSymbolTableRecord
100
AcDbTextStyleTableRecord
  2
STANDARD
 70
0
 40
0.0
 41
0.8
 50
0.0
 71
0
 42
0.2
  3
txt
  4

  0
STYLE
  5
2DE
100
AcDbSymbolTableRecord
100
AcDbTextStyleTableRecord
  2
TEXTSTYLE_1
 70
0
 40
0.0
 41
0.8
 50
0.0
 71
0
 42
0.2
  3
gdt
  4

  0
ENDTAB
  0
TABLE
  2
VIEW
  5
6
100
AcDbSymbolTable
 70
0
  0
ENDTAB
  0
TABLE
  2
UCS
  5
7
100
AcDbSymbolTable
 70
0
  0
ENDTAB
  0
TABLE
  2
APPID
  5
9
100
AcDbSymbolTable
 70
1
  0
APPID
  5
2DF
100
AcDbSymbolTableRecord
100
AcDbRegAppTableRecord
  2
ACAD
 70
0
  0
ENDTAB
  0
TABLE
  2
BLOCK_RECORD
  5
1
100
AcDbSymbolTable
 70
0
  0
BLOCK_RECORD
  5
2E0
100
AcDbSymbolTableRecord
100
AcDbBlockTableRecord
  2
*Model_Space
  0
BLOCK_RECORD
  5
2E1
100
AcDbSymbolTableRecord
100
AcDbBlockTableRecord
  2
*Paper_Space
  0
BLOCK_RECORD
  5
2E2
100
AcDbSymbolTableRecord
100
AcDbBlockTableRecord
  2
_FILLED
  0
ENDTAB
  0
TABLE
  2
DIMSTYLE
  5
A
100
AcDbSymbolTable
 70
1
100
AcDbDimStyleTable
 71
0
  0
DIMSTYLE
105
2E3
100
AcDbSymbolTableRecord
100
AcDbDimStyleTableRecord
  2
STANDARD
 70
0
  3

  4

 40
1.0
 41
3.0
 42
0.5
 43
0.38
 44
1.5
 45
0.0
 46
0.0
 47
0.01
 48
0.01
140
3.0
141
0.09
142
0.0
143
25.4
144
1.0
145
0.0
146
1.0
147
0.625
 71
1
 72
0
 73
0
 74
0
 75
0
 76
0
 77
1
 78
8
 79
2
170
0
171
1
172
0
173
0
174
0
175
0
176
0
177
0
178
0
270
2
179
2
271
2
272
2
273
2
274
2
275
0
280
0
281
0
282
0
283
1
284
8
285
0
286
0
287
3
288
0
340
11
278
44
341
2E2
342
2E2
343
2E2
344
2E2
  0
ENDTAB
  0
ENDSEC
  0
SECTION
  2
BLOCKS
  0
BLOCK
  5
20
100
AcDbEntity
  8
0
100
AcDbBlockBegin
  2
*Model_Space
 70
0
 10
0.0
 20
0.0
 30
0.0
  3
*Model_Space
  1

  0
ENDBLK
  5
21
100
AcDbEntity
  8
0
100
AcDbBlockEnd
  0
BLOCK
  5
1C
100
AcDbEntity
  8
0
100
AcDbBlockBegin
  2
*Paper_Space
 70
0
 10
0.0
 20
0.0
 30
0.0
  3
*Paper_Space
  1

  0
ENDBLK
  5
1D
100
AcDbEntity
  8
0
100
AcDbBlockEnd
  0
BLOCK
  5
2E4
100
AcDbEntity
  8
0
100
AcDbBlockBegin
  2
_FILLED
 70
64
 10
0.0
 20
0.0
  3
_FILLED
  1

  0
SOLID
  5
2E5
100
AcDbEntity
  8
0
  6
BYBLOCK
 62
0
100
AcDbTrace
 10
0.0
 20
0.0
 11
-1.0
 21
0.3166666667
 12
-1.0
 22
-0.3166666667
 13
-1.0
 23
-0.3166666667
  0
ENDBLK
  5
2E6
100
AcDbEntity
  8
0
  6
BYBLOCK
 62
0
100
AcDbBlockEnd
  0
ENDSEC
  0
SECTION
  2
ENTITIES
  0
LINE
  5
2E7
100
AcDbEntity
  8
ASSI
100
AcDbLine
 62
7
  6
CONTINUOUS
 10
144.531823223
 20
81.5174550649
 11
144.7900847053
 21
81.5174550649
  0
LINE
  5
2E8
100
AcDbEntity
  8
ASSI
100
AcDbLine
 62
7
  6
CONTINUOUS
 10
152.2099152947
 20
81.5174550649
 11
152.468176777
 21
81.5174550649
  0
LINE
  5
2E9
100
AcDbEntity
  8
ASSI
100
AcDbLine
 62
7
  6
CONTINUOUS
 10
144.7905598344
 20
81.5446751943
 11
152.2094401656
 21
81.5446751943
  0
LINE
  5
2EA
100
AcDbEntity
  8
ASSI
100
AcDbLine
 62
7
  6
CONTINUOUS
 10
144.5473154455
 20
81.5698202597
 11
152.4526845545
 21
81.5698202597
  0
LINE
  5
2EB
100
AcDbEntity
  8
ASSI
100
AcDbLine
 62
7
  6
CONTINUOUS
 10
159.1329255348
 20
82.6
 11
154.05
 21
82.6
  0
LINE
  5
2EC
100
AcDbEntity
  8
ASSI
100
AcDbLine
 62
7
  6
CONTINUOUS
 10
142.95
 20
82.6
 11
137.8670744652
 21
82.6
  0
LINE
  5
2ED
100
AcDbEntity
  8
ASSI
100
AcDbLine
 62
7
  6
CONTINUOUS
 10
151.6
 20
82.8
 11
145.4
 21
82.8
  0
LINE
  5
2EE
100
AcDbEntity
  8
ASSI
100
AcDbLine
 62
7
  6
CONTINUOUS
 10
151.1768152463
 20
83.4551724138
 11
145.8231847537
 21
83.4551724138
  0
LINE
  5
2EF
100
AcDbEntity
  8
ASSI
100
AcDbLine
 62
7
  6
CONTINUOUS
 10
141.5660801716
 20
83.8
 11
145.4
 21
83.8
  0
LINE
  5
2F0
100
AcDbEntity
  8
ASSI
100
AcDbLine
 62
7
  6
CONTINUOUS
 10
151.6
 20
83.8
 11
155.4339198284
 21
83.8
  0
LINE
  5
2F1
100
AcDbEntity
  8
ASSI
100
AcDbLine
 62
7
  6
CONTINUOUS
 10
144.5955798639
 20
83.8771865438
 11
145.8975972311
 21
83.8771865438
  0
LINE
  5
2F2
100
AcDbEntity
  8
ASSI
100
AcDbLine
 62
7
  6
CONTINUOUS
 10
151.1024027689
 20
83.8771865438
 11
152.4044201361
 21
83.8771865438
  0
LINE
  5
2F3
100
AcDbEntity
  8
ASSI
100
AcDbLine
 62
7
  6
CONTINUOUS
 10
141.1083896045
 20
124.741424784
 11
140.9597494579
 21
124.5927846374
  0
LINE
  5
2F4
100
AcDbEntity
  8
ASSI
100
AcDbLine
 62
7
  6
CONTINUOUS
 10
144.5955798639
 20
126.1228134562
 11
144.7499995638
 21
126.2
  0
LINE
  5
2F5
100
AcDbEntity
  8
ASSI
100
AcDbLine
 62
7
  6
CONTINUOUS
 10
152.9067501922
 20
128.157626077
 11
152.894403357
 21
128.1518356242
  0
LINE
  5
2F6
100
AcDbEntity
  8
ASSI
100
AcDbLine
 62
7
  6
CONTINUOUS
 10
152.9190754389
 20
128.163308785
 11
152.9067501922
 21
128.157626077
  0
LWPOLYLINE
  5
2F7
100
AcDbEntity
  8
ASSI
100
AcDbPolyline
 62
7
  6
CONTINUOUS
 90
3
 70
0
 10
152.9375263939
 20
128.1716278385
 10
152.9313810715
 20
128.1688821023
 10
152.9190754389
 20
128.163308785
  0
LINE
  5
2F8
100
AcDbEntity
  8
ASSI
100
AcDbLine
 62
7
  6
CONTINUOUS
 10
145.8975972311
 20
83.8771865438
 11
145.4
 21
83.8279281039
  0
LWPOLYLINE
  5
2F9
100
AcDbEntity
  8
ASSI
100
AcDbPolyline
 62
7
  6
CONTINUOUS
 90
43
 70
0
 10
154.7824116283
 20
84.9506692427
 10
154.7973596263
 20
84.951055303
 10
154.812144537
 20
84.9521642647
 10
154.8267663603
 20
84.9539939356
 10
154.8412705171
 20
84.9565548045
 10
154.8556115866
 20
84.9598274167
 10
154.8696533057
 20
84.9637627189
 10
154.8833858803
 20
84.9683577809
 10
154.8968191046
 20
84.9735976854
 10
154.9098460982
 20
84.9794141647
 10
154.9224537661
 20
84.9857940885
 10
154.9346552032
 20
84.992723965
 10
154.9463828145
 20
85.0001344098
 10
154.9576249027
 20
85.0080020531
 10
154.9683931651
 20
85.0163146093
 10
154.9786550972
 20
85.0250186675
 10
154.9884034995
 20
85.0340822084
 10
154.9976455716
 20
85.043490953
 10
155.0063704084
 20
85.0532158775
 10
155.0145755718
 20
85.0632175155
 10
155.0222634999
 20
85.0734743866
 10
155.0294306025
 20
85.0839787478
 10
155.0360770635
 20
85.0946844011
 10
155.0422026989
 20
85.1055547942
 10
155.0478033669
 20
85.1165860556
 10
155.0528769725
 20
85.1277275289
 10
155.0574256106
 20
85.1389156288
 10
155.0614514239
 20
85.1501134848
 10
155.0649419252
 20
85.161266998
 10
155.0679096017
 20
85.1722790563
 10
155.0703940576
 20
85.1830417394
 10
155.0723712998
 20
85.1934958468
 10
155.0738653214
 20
85.2035268875
 10
155.074987706
 20
85.2129629948
 10
155.0757203051
 20
85.2217393231
 10
155.0760812671
 20
85.2297714958
 10
155.0762366213
 20
85.2369090419
 10
155.0761944175
 20
85.2431014249
 10
155.0759466059
 20
85.2483162574
 10
155.0756350667
 20
85.2524864979
 10
155.0753070933
 20
85.255589749
 10
155.0749153922
 20
85.257623245
 10
155.0744599635
 20
85.258575216
  0
LINE
  5
2FA
100
AcDbEntity
  8
ASSI
100
AcDbLine
 62
250
  6
CONTINUOUS
 10
148.5
 20
85.2617270928
 11
154.3364876862
 21
85.3654134929
  0
LINE
  5
2FB
100
AcDbEntity
  8
ASSI
100
AcDbLine
 62
250
  6
CONTINUOUS
 10
148.5
 20
85.4814010658
 11
154.3274579565
 21
85.5849270509
  0
LINE
  5
2FC
100
AcDbEntity
  8
ASSI
100
AcDbLine
 62
7
  6
CONTINUOUS
 10
152.0
 20
85.1610927272
 11
154.5
 21
85.2047303896
  0
LINE
  5
2FD
100
AcDbEntity
  8
ASSI
100
AcDbLine
 62
7
  6
CONTINUOUS
 10
148.5
 20
85.1427844609
 11
151.1597899075
 21
85.1892254182
  0
LINE
  5
2FE
100
AcDbEntity
  8
ASSI
100
AcDbLine
 62
7
  6
CONTINUOUS
 10
158.1325449351
 20
84.1524077793
 11
155.9416531799
 21
84.1524077793
  0
LINE
  5
2FF
100
AcDbEntity
  8
ASSI
100
AcDbLine
 62
7
  6
CONTINUOUS
 10
141.0583468201
 20
84.1524077793
 11
138.8674550649
 21
84.1524077793
  0
LINE
  5
300
100
AcDbEntity
  8
ASSI
100
AcDbLine
 62
7
  6
CONTINUOUS
 10
155.8830351795
 20
84.4551724138
 11
141.1169648205
 21
84.4551724138
  0
LINE
  5
301
100
AcDbEntity
  8
ASSI
100
AcDbLine
 62
7
  6
CONTINUOUS
 10
139.0053500779
 20
84.5664292356
 11
140.8219742232
 21
84.5664292356
  0
LINE
  5
302
100
AcDbEntity
  8
ASSI
100
AcDbLine
 62
7
  6
CONTINUOUS
 10
156.1780257768
 20
84.5664292356
 11
157.9946499221
 21
84.5664292356
  0
LINE
  5
303
100
AcDbEntity
  8
ASSI
100
AcDbLine
 62
250
  6
CONTINUOUS
 10
155.8830351795
 20
84.7586513684
 11
141.1169648205
 21
84.7586513684
  0
LINE
  5
304
100
AcDbEntity
  8
ASSI
100
AcDbLine
 62
7
  6
CONTINUOUS
 10
142.2175883717
 20
84.9506692427
 11
154.7824116283
 21
84.9506692427
  0
LINE
  5
305
100
AcDbEntity
  8
ASSI
100
AcDbLine
 62
7
  6
CONTINUOUS
 10
144.851981019
 20
85.0634925008
 11
152.148018981
 21
85.0634925008
  0
LINE
  5
306
100
AcDbEntity
  8
ASSI
100
AcDbLine
 62
250
  6
CONTINUOUS
 10
155.8916103955
 20
85.258575216
 11
155.0744599635
 21
85.258575216
  0
LINE
  5
307
100
AcDbEntity
  8
ASSI
100
AcDbLine
 62
250
  6
CONTINUOUS
 10
141.9255400365
 20
85.258575216
 11
141.1083896045
 21
85.258575216
  0
LINE
  5
308
100
AcDbEntity
  8
ASSI
100
AcDbLine
 62
250
  6
CONTINUOUS
 10
140.9597494579
 20
85.4072153626
 11
142.0741801866
 21
85.4072153626
  0
LINE
  5
309
100
AcDbEntity
  8
ASSI
100
AcDbLine
 62
250
  6
CONTINUOUS
 10
154.9258198134
 20
85.4072153626
 11
156.0402505421
 21
85.4072153626
  0
LINE
  5
30A
100
AcDbEntity
  8
ASSI
100
AcDbLine
 62
7
  6
CONTINUOUS
 10
157.4400965822
 20
85.6
 11
154.5
 21
85.6
  0
LINE
  5
30B
100
AcDbEntity
  8
ASSI
100
AcDbLine
 62
7
  6
CONTINUOUS
 10
142.5
 20
85.6
 11
139.5599034178
 21
85.6
  0
LINE
  5
30C
100
AcDbEntity
  8
ASSI
100
AcDbLine
 62
7
  6
CONTINUOUS
 10
154.3256735332
 20
85.6871565952
 11
142.6743264668
 21
85.6871565952
  0
LINE
  5
30D
100
AcDbEntity
  8
ASSI
100
AcDbLine
 62
7
  6
CONTINUOUS
 10
157.0061691767
 20
85.8391161775
 11
142.35
 21
85.8391161775
  0
LINE
  5
30E
100
AcDbEntity
  8
0
100
AcDbLine
 62
7
  6
CONTINUOUS
 10
156.4079983912
 20
85.9287749089
 11
146.5
 21
85.9287749089
  0
LINE
  5
30F
100
AcDbEntity
  8
ASSI
100
AcDbLine
 62
7
  6
CONTINUOUS
 10
140.8
 20
85.9307482893
 11
142.2583678882
 21
85.9307482893
  0
LINE
  5
310
100
AcDbEntity
  8
ASSI
100
AcDbLine
 62
7
  6
CONTINUOUS
 10
142.5
 20
85.2047303896
 11
145.0
 21
85.1610927272
  0
LINE
  5
311
100
AcDbEntity
  8
ASSI
100
AcDbLine
 62
7
  6
CONTINUOUS
 10
145.8402100925
 20
85.1892254182
 11
148.5
 21
85.1427844609
  0
LINE
  5
312
100
AcDbEntity
  8
ASSI
100
AcDbLine
 62
250
  6
CONTINUOUS
 10
142.6635123138
 20
85.3654134929
 11
148.5
 21
85.2617270928
  0
LINE
  5
313
100
AcDbEntity
  8
ASSI
100
AcDbLine
 62
250
  6
CONTINUOUS
 10
142.6725420435
 20
85.5849270509
 11
148.5
 21
85.4814010658
  0
LINE
  5
314
100
AcDbEntity
  8
ASSI
100
AcDbLine
 62
7
  6
CONTINUOUS
 10
151.6
 20
83.8279281039
 11
151.1024027689
 21
83.8771865438
  0
LINE
  5
315
100
AcDbEntity
  8
ASSI
100
AcDbLine
 62
7
  6
CONTINUOUS
 10
152.9375263939
 20
81.8283721615
 11
152.9252307515
 21
81.8338909159
  0
LINE
  5
316
100
AcDbEntity
  8
ASSI
100
AcDbLine
 62
7
  6
CONTINUOUS
 10
152.9252307515
 20
81.8338909159
 11
152.9129153067
 21
81.83951893
  0
LWPOLYLINE
  5
317
100
AcDbEntity
  8
ASSI
100
AcDbPolyline
 62
7
  6
CONTINUOUS
 90
3
 70
0
 10
152.9129153067
 20
81.83951893
 10
152.9005795965
 20
81.845255784
 10
152.894403357
 20
81.8481643758
  0
LINE
  5
318
100
AcDbEntity
  8
ASSI
100
AcDbLine
 62
7
  6
CONTINUOUS
 10
144.5955798639
 20
83.8771865438
 11
144.7499995638
 21
83.8
  0
LINE
  5
319
100
AcDbEntity
  8
ASSI
100
AcDbLine
 62
7
  6
CONTINUOUS
 10
140.7790539221
 20
85.9412205306
 11
140.8
 21
85.9307482893
  0
LINE
  5
31A
100
AcDbEntity
  8
ASSI
100
AcDbLine
 62
7
  6
CONTINUOUS
 10
141.1083896045
 20
85.258575216
 11
140.9597494579
 21
85.4072153626
  0
LWPOLYLINE
  5
31B
100
AcDbEntity
  8
ASSI
100
AcDbPolyline
 62
7
  6
CONTINUOUS
 90
10
 70
0
 10
137.7806985766
 20
122.3594295692
 10
137.7137668664
 20
122.2695748947
 10
137.6522772696
 20
122.1767591739
 10
137.596229786
 20
122.0809824067
 10
137.5454886828
 20
121.9819349315
 10
137.5001896929
 20
121.87992641
 10
137.4607400149
 20
121.7758858265
 10
137.4271898965
 20
121.6697957248
 10
137.39948909
 20
121.5616735612
 10
137.3778940515
 20
121.4525006882
  0
LINE
  5
31C
100
AcDbEntity
  8
ASSI
100
AcDbLine
 62
7
  6
CONTINUOUS
 10
152.894403357
 20
128.1518356242
 11
152.8820344703
 21
128.1459378433
  0
LINE
  5
31D
100
AcDbEntity
  8
ASSI
100
AcDbLine
 62
7
  6
CONTINUOUS
 10
151.9087734253
 20
124.810110861
 11
152.0
 21
124.8389072728
  0
LWPOLYLINE
  5
31E
100
AcDbEntity
  8
ASSI
100
AcDbPolyline
 62
7
  6
CONTINUOUS
 90
6
 70
0
 10
140.1764851557
 20
85.9396274619
 10
140.1795308854
 20
85.9401377033
 10
140.1877071981
 20
85.9406481889
 10
140.2010140939
 20
85.9411589186
 10
140.2192495435
 20
85.9416711654
 10
140.242615576
 20
85.9421836564
  0
LINE
  5
31F
100
AcDbEntity
  8
ASSI
100
AcDbLine
 62
7
  6
CONTINUOUS
 10
140.242615576
 20
85.9421836564
 11
140.3067596818
 21
85.9431966414
  0
LWPOLYLINE
  5
320
100
AcDbEntity
  8
SUPERFICI
100
AcDbPolyline
 62
250
  6
CONTINUOUS
 90
31
 70
0
 10
156.3254487874
 20
86.128067282
 10
156.3516191369
 20
86.1284130517
 10
156.3777720746
 20
86.1294435476
 10
156.4038896825
 20
86.1311581043
 10
156.4299542361
 20
86.1335556057
 10
156.4559477021
 20
86.1366344406
 10
156.4818517558
 20
86.1403924588
 10
156.5076484795
 20
86.1448270538
 10
156.5333203695
 20
86.1499352099
 10
156.5588498365
 20
86.1557134275
 10
156.5842193891
 20
86.1621577476
 10
156.6094116454
 20
86.1692637548
 10
156.634409345
 20
86.1770265804
 10
156.6591953607
 20
86.1854409058
 10
156.6837527105
 20
86.1945009659
 10
156.7080645689
 20
86.2042005532
 10
156.7321142786
 20
86.214533022
 10
156.7558853621
 20
86.2254912931
 10
156.7793615326
 20
86.2370678585
 10
156.8025267055
 20
86.2492547863
 10
156.8253650092
 20
86.2620437269
 10
156.847860796
 20
86.2754259179
 10
156.869998653
 20
86.2893921906
 10
156.8917634125
 20
86.3039329759
 10
156.9131401623
 20
86.3190383112
 10
156.9341144332
 20
86.3346979826
 10
156.9546716707
 20
86.3509011346
 10
156.9747972813
 20
86.3676362315
 10
156.9944773444
 20
86.3848916182
 10
157.0136985855
 20
86.4026555741
 10
157.0324478728
 20
86.4209158918
  0
LINE
  5
321
100
AcDbEntity
  8
ASSI
100
AcDbLine
 62
7
  6
CONTINUOUS
 10
140.3067596818
 20
85.9431966414
 11
140.3940524987
 21
85.9441940548
  0
LINE
  5
322
100
AcDbEntity
  8
ASSI
100
AcDbLine
 62
7
  6
CONTINUOUS
 10
140.4
 20
85.9412205306
 11
140.7790539221
 21
85.9412205306
  0
LINE
  5
323
100
AcDbEntity
  8
0
100
AcDbLine
 62
250
  6
CONTINUOUS
 10
156.3254487874
 20
86.128067282
 11
141.0
 21
86.128067282
  0
LINE
  5
324
100
AcDbEntity
  8
0
100
AcDbLine
 62
7
  6
CONTINUOUS
 10
140.5
 20
86.1739757758
 11
141.0
 21
86.1739757758
  0
LINE
  5
325
100
AcDbEntity
  8
0
100
AcDbLine
 62
250
  6
CONTINUOUS
 10
156.3267078253
 20
87.1279149772
 11
140.5
 21
87.1279149772
  0
LINE
  5
326
100
AcDbEntity
  8
SUPERFICI
100
AcDbLine
 62
250
  6
CONTINUOUS
 10
156.6365552047
 20
87.8531718701
 11
157.6364028998
 21
87.8531718701
  0
LINE
  5
327
100
AcDbEntity
  8
ASSI
100
AcDbLine
 62
7
  6
CONTINUOUS
 10
152.0
 20
85.1610927272
 11
151.9087734253
 21
85.189889139
  0
LINE
  5
328
100
AcDbEntity
  8
ASSI
100
AcDbLine
 62
7
  6
CONTINUOUS
 10
152.894403357
 20
81.8481643758
 11
152.8820344703
 21
81.8540621567
  0
LINE
  5
329
100
AcDbEntity
  8
ASSI
100
AcDbLine
 62
7
  6
CONTINUOUS
 10
142.2583678882
 20
85.9307482893
 11
142.35
 21
85.8391161775
  0
LWPOLYLINE
  5
32A
100
AcDbEntity
  8
ASSI
100
AcDbPolyline
 62
250
  6
CONTINUOUS
 90
13
 70
0
 10
138.4715599303
 20
87.8638314409
 10
138.4048958035
 20
87.9514507843
 10
138.3431507949
 20
88.0426110302
 10
138.2865128769
 20
88.1370364794
 10
138.2352928366
 20
88.2341608213
 10
138.1894777686
 20
88.3339555565
 10
138.1488868957
 20
88.4370026243
 10
138.1137929221
 20
88.5430355113
 10
138.0844521753
 20
88.6517807993
 10
138.0609408527
 20
88.7638831784
 10
138.0436182226
 20
88.8793608347
 10
138.0329483402
 20
88.9975572172
 10
138.0293066586
 20
89.1180864792
  0
LWPOLYLINE
  5
32B
100
AcDbEntity
  8
ASSI
100
AcDbPolyline
 62
250
  6
CONTINUOUS
 90
13
 70
0
 10
139.2502809898
 20
88.4909589602
 10
139.2168025772
 20
88.5350054415
 10
139.1859591496
 20
88.5805388205
 10
139.1577507071
 20
88.6275590973
 10
139.1321354122
 20
88.6760634305
 10
139.1091551024
 20
88.7260546615
 10
139.08893529
 20
88.777541314
 10
139.0713949801
 20
88.8305186609
 10
139.0566151677
 20
88.8849914292
 10
139.0449643492
 20
88.9409823247
 10
139.0365653568
 20
88.9984989158
 10
139.0312953583
 20
89.057533634
 10
139.0291543538
 20
89.1180864792
  0
LWPOLYLINE
  5
32C
100
AcDbEntity
  8
ASSI
100
AcDbPolyline
 62
7
  6
CONTINUOUS
 90
10
 70
0
 10
137.7806985766
 20
87.6405704308
 10
137.7137668664
 20
87.7304251053
 10
137.6522772696
 20
87.8232408261
 10
137.596229786
 20
87.9190175933
 10
137.5454886828
 20
88.0180650685
 10
137.5001896929
 20
88.12007359
 10
137.4607400149
 20
88.2241141735
 10
137.4271898965
 20
88.3302042752
 10
137.39948909
 20
88.4383264388
 10
137.3778940515
 20
88.5474993118
  0
LINE
  5
32D
100
AcDbEntity
  8
ASSI
100
AcDbLine
 62
7
  6
CONTINUOUS
 10
156.0658752601
 20
125.7702959239
 11
155.8855725326
 21
125.6901924515
  0
LINE
  5
32E
100
AcDbEntity
  8
ASSI
100
AcDbLine
 62
250
  6
CONTINUOUS
 10
138.0293066586
 20
89.1180864792
 11
139.0291543538
 21
89.1180864792
  0
LINE
  5
32F
100
AcDbEntity
  8
ASSI
100
AcDbLine
 62
7
  6
CONTINUOUS
 10
156.0658752601
 20
84.2297040761
 11
155.8855725326
 21
84.3098075485
  0
LWPOLYLINE
  5
330
100
AcDbEntity
  8
ASSI
100
AcDbPolyline
 62
7
  6
CONTINUOUS
 90
4
 70
0
 10
137.3778940515
 20
121.4525006882
 10
137.3624902664
 20
121.3426042235
 10
137.3531922492
 20
121.2316570494
 10
137.35
 20
121.119659166
  0
LINE
  5
331
100
AcDbEntity
  8
ASSI
100
AcDbLine
 62
7
  6
CONTINUOUS
 10
140.9341247399
 20
125.7702959239
 11
140.8219742232
 21
125.4335707644
  0
LINE
  5
332
100
AcDbEntity
  8
ASSI
100
AcDbLine
 62
7
  6
CONTINUOUS
 10
154.3256735332
 20
124.3128434048
 11
154.5
 21
124.4
  0
LINE
  5
333
100
AcDbEntity
  8
CURVE
100
AcDbLine
 62
250
  6
CONTINUOUS
 10
159.411156761
 20
89.99959
 11
159.4246063423
 21
89.99959
  0
LINE
  5
334
100
AcDbEntity
  8
CURVE
100
AcDbLine
 62
250
  6
CONTINUOUS
 10
159.3360317325
 20
89.99959
 11
159.3494813217
 21
89.99959
  0
LINE
  5
335
100
AcDbEntity
  8
CURVE
100
AcDbLine
 62
250
  6
CONTINUOUS
 10
159.5318042749
 20
89.9999997854
 11
159.5223286688
 21
89.9999997854
  0
LINE
  5
336
100
AcDbEntity
  8
CURVE
100
AcDbLine
 62
250
  6
CONTINUOUS
 10
159.3736424751
 20
90.50959
 11
159.3869955997
 21
90.50959
  0
LINE
  5
337
100
AcDbEntity
  8
CURVE
100
AcDbLine
 62
250
  6
CONTINUOUS
 10
159.291485434
 20
90.60714252
 11
159.2750278017
 21
90.60714252
  0
LINE
  5
338
100
AcDbEntity
  8
CURVE
100
AcDbLine
 62
250
  6
CONTINUOUS
 10
159.5223286688
 20
90.9499997854
 11
159.5318042749
 21
90.9499997854
  0
LINE
  5
339
100
AcDbEntity
  8
CURVE
100
AcDbLine
 62
250
  6
CONTINUOUS
 10
159.2729705976
 20
91.0785716534
 11
159.3017714547
 21
91.0785716534
  0
LINE
  5
33A
100
AcDbEntity
  8
0
100
AcDbLine
 62
250
  6
CONTINUOUS
 10
157.2499980534
 20
86.3566240955
 11
157.0415753908
 21
86.4300434098
  0
LINE
  5
33B
100
AcDbEntity
  8
ASSI
100
AcDbLine
 62
7
  6
CONTINUOUS
 10
154.5
 20
85.6
 11
154.3256735332
 21
85.6871565952
  0
LINE
  5
33C
100
AcDbEntity
  8
ASSI
100
AcDbLine
 62
7
  6
CONTINUOUS
 10
140.8219742232
 20
84.5664292356
 11
140.9341247399
 21
84.2297040761
  0
LWPOLYLINE
  5
33D
100
AcDbEntity
  8
ASSI
100
AcDbPolyline
 62
7
  6
CONTINUOUS
 90
4
 70
0
 10
137.3778940515
 20
88.5474993118
 10
137.3624902664
 20
88.6573957765
 10
137.3531922492
 20
88.7683429506
 10
137.35
 20
88.880340834
  0
LINE
  5
33E
100
AcDbEntity
  8
ASSI
100
AcDbLine
 62
250
  6
CONTINUOUS
 10
142.6726497308
 20
116.9725888089
 11
143.25
 21
117.5499390781
  0
LINE
  5
33F
100
AcDbEntity
  8
CURVE
100
AcDbLine
 62
250
  6
CONTINUOUS
 10
140.3357142568
 20
113.8857144594
 11
140.4571428716
 21
114.0071429729
  0
LINE
  5
340
100
AcDbEntity
  8
ASSI
100
AcDbLine
 62
250
  6
CONTINUOUS
 10
143.0725888089
 20
116.5726497308
 11
143.6499390781
 21
117.15
  0
LINE
  5
341
100
AcDbEntity
  8
ASSI
100
AcDbLine
 62
7
  6
CONTINUOUS
 10
157.4400965822
 20
124.4
 11
156.8236532862
 21
124.0604486876
  0
LWPOLYLINE
  5
342
100
AcDbEntity
  8
ASSI
100
AcDbPolyline
 62
7
  6
CONTINUOUS
 90
7
 70
0
 10
157.6585094436
 20
120.8243350378
 10
157.6761659334
 20
120.8307612795
 10
157.6943829784
 20
120.8360964366
 10
157.7130958844
 20
120.8402960852
 10
157.732235831
 20
120.8433194736
 10
157.7517300465
 20
120.8451298973
 10
157.7715020147
 20
120.8456950693
  0
LINE
  5
343
100
AcDbEntity
  8
ASSI
100
AcDbLine
 62
250
  6
CONTINUOUS
 10
158.9706933414
 20
120.8819135208
 11
159.65
 21
121.119659166
  0
LINE
  5
344
100
AcDbEntity
  8
ASSI
100
AcDbLine
 62
250
  6
CONTINUOUS
 10
158.5284400693
 20
122.1361685588
 11
159.2193014234
 21
122.3594295692
  0
LINE
  5
345
100
AcDbEntity
  8
CURVE
100
AcDbLine
 62
250
  6
CONTINUOUS
 10
159.291485434
 20
91.7857141733
 11
159.2750278017
 21
91.7857141733
  0
LINE
  5
346
100
AcDbEntity
  8
CURVE
100
AcDbLine
 62
250
  6
CONTINUOUS
 10
159.5539633687
 20
91.906299713
 11
159.5765491205
 21
91.906299713
  0
LINE
  5
347
100
AcDbEntity
  8
CURVE
100
AcDbLine
 62
250
  6
CONTINUOUS
 10
159.5792484114
 20
91.906299713
 11
159.6019766697
 21
91.906299713
  0
LINE
  5
348
100
AcDbEntity
  8
CURVE
100
AcDbLine
 62
250
  6
CONTINUOUS
 10
159.6046759607
 20
92.085438761
 11
159.5539633687
 21
92.085438761
  0
LINE
  5
349
100
AcDbEntity
  8
CURVE
100
AcDbLine
 62
250
  6
CONTINUOUS
 10
159.536542078
 20
92.4428571224
 11
159.5294353724
 21
92.4428571224
  0
LINE
  5
34A
100
AcDbEntity
  8
CURVE
100
AcDbLine
 62
250
  6
CONTINUOUS
 10
159.5742760896
 20
92.5978876209
 11
159.6046761071
 21
92.5978876209
  0
LINE
  5
34B
100
AcDbEntity
  8
CURVE
100
AcDbLine
 62
250
  6
CONTINUOUS
 10
159.6046761071
 20
92.7769142445
 11
159.5742760896
 21
92.7769142445
  0
LINE
  5
34C
100
AcDbEntity
  8
CURVE
100
AcDbLine
 62
250
  6
CONTINUOUS
 10
159.5033774546
 20
92.9857142329
 11
159.536542078
 21
92.9857142329
  0
LINE
  5
34D
100
AcDbEntity
  8
CURVE
100
AcDbLine
 62
250
  6
CONTINUOUS
 10
159.2811994142
 20
93.6321427822
 11
159.2935426388
 21
93.6321427822
  0
LINE
  5
34E
100
AcDbEntity
  8
ASSI
100
AcDbLine
 62
250
  6
CONTINUOUS
 10
158.7478589977
 20
87.7926144944
 11
159.2193014234
 21
87.6405704308
  0
LINE
  5
34F
100
AcDbEntity
  8
ASSI
100
AcDbLine
 62
250
  6
CONTINUOUS
 10
159.1940301785
 20
89.0395316591
 11
159.65
 21
88.880340834
  0
LINE
  5
350
100
AcDbEntity
  8
0
100
AcDbLine
 62
250
  6
CONTINUOUS
 10
157.8356952729
 20
87.7706222663
 11
157.6364028998
 21
87.8531750448
  0
LINE
  5
351
100
AcDbEntity
  8
ASSI
100
AcDbLine
 62
7
  6
CONTINUOUS
 10
157.0061691767
 20
85.8391161775
 11
157.4400965822
 21
85.6
  0
LINE
  5
352
100
AcDbEntity
  8
ASSI
100
AcDbLine
 62
7
  6
CONTINUOUS
 10
137.35
 20
88.880340834
 11
137.35
 21
121.119659166
  0
LINE
  5
353
100
AcDbEntity
  8
ASSI
100
AcDbLine
 62
7
  6
CONTINUOUS
 10
137.3674550649
 20
126.8997711479
 11
137.3674550649
 21
121.3780249856
  0
LINE
  5
354
100
AcDbEntity
  8
ASSI
100
AcDbLine
 62
7
  6
CONTINUOUS
 10
137.3674550649
 20
88.6219750144
 11
137.3674550649
 21
83.1002288521
  0
LINE
  5
355
100
AcDbEntity
  8
ASSI
100
AcDbLine
 62
250
  6
CONTINUOUS
 10
138.0293066586
 20
89.1180864792
 11
138.0293066586
 21
120.8819135208
  0
LINE
  5
356
100
AcDbEntity
  8
ASSI
100
AcDbLine
 62
7
  6
CONTINUOUS
 10
138.8674550649
 20
125.8475922207
 11
138.8674550649
 21
123.6520190774
  0
LINE
  5
357
100
AcDbEntity
  8
ASSI
100
AcDbLine
 62
7
  6
CONTINUOUS
 10
138.8674550649
 20
86.3479809226
 11
138.8674550649
 21
84.1524077793
  0
LINE
  5
358
100
AcDbEntity
  8
ASSI
100
AcDbLine
 62
7
  6
CONTINUOUS
 10
139.0053500779
 20
125.4335707644
 11
139.0053500779
 21
123.8053332354
  0
LINE
  5
359
100
AcDbEntity
  8
ASSI
100
AcDbLine
 62
7
  6
CONTINUOUS
 10
139.0053500779
 20
86.1946667646
 11
139.0053500779
 21
84.5664292356
  0
LINE
  5
35A
100
AcDbEntity
  8
ASSI
100
AcDbLine
 62
250
  6
CONTINUOUS
 10
139.0291543538
 20
89.1180864792
 11
139.0291543538
 21
120.8819135208
  0
LWPOLYLINE
  5
35B
100
AcDbEntity
  8
ASSI
100
AcDbPolyline
 62
250
  6
CONTINUOUS
 90
13
 70
0
 10
138.0293066586
 20
120.8819135208
 10
138.0323430572
 20
120.9919717379
 10
138.0414318856
 20
121.1017014577
 10
138.0565464717
 20
121.2107700423
 10
138.0775734838
 20
121.3185413505
 10
138.1044848679
 20
121.4250014522
 10
138.137504842
 20
121.5307174382
 10
138.1766785737
 20
121.6353107324
 10
138.2220341356
 20
121.7384076298
 10
138.2740353697
 20
121.8404628443
 10
138.332973565
 20
121.941265329
 10
138.398798283
 20
122.0400125637
 10
138.4715599303
 20
122.1361685591
  0
LWPOLYLINE
  5
35C
100
AcDbEntity
  8
ASSI
100
AcDbPolyline
 62
250
  6
CONTINUOUS
 90
13
 70
0
 10
139.0291543538
 20
120.8819135208
 10
139.0307072253
 20
120.9372188561
 10
139.0352449422
 20
120.9920290704
 10
139.0427675045
 20
121.0463441637
 10
139.0532405795
 20
121.1001880802
 10
139.0666984999
 20
121.1535368756
 10
139.0832442631
 20
121.2063187172
 10
139.1028117777
 20
121.258580736
 10
139.1254671351
 20
121.3102758011
 10
139.1515116077
 20
121.3611906865
 10
139.1810456198
 20
121.4112543172
 10
139.2139687472
 20
121.4605377682
 10
139.2502809898
 20
121.5090410398
  0
LINE
  5
35D
100
AcDbEntity
  8
CURVE
100
AcDbLine
 62
250
  6
CONTINUOUS
 10
140.3357142568
 20
112.3071427703
 11
140.4571428716
 21
112.4285714865
  0
LINE
  5
35E
100
AcDbEntity
  8
ASSI
100
AcDbLine
 62
250
  6
CONTINUOUS
 10
149.8500609219
 20
120.45
 11
150.4274111911
 21
121.0273502692
  0
LINE
  5
35F
100
AcDbEntity
  8
ASSI
100
AcDbLine
 62
250
  6
CONTINUOUS
 10
154.7824116283
 20
125.0493307573
 11
154.5
 21
124.7669191291
  0
LINE
  5
360
100
AcDbEntity
  8
CURVE
100
AcDbLine
 62
250
  6
CONTINUOUS
 10
140.8214285642
 20
110.85
 11
140.5785713851
 21
110.6071428716
  0
LINE
  5
361
100
AcDbEntity
  8
ASSI
100
AcDbLine
 62
250
  6
CONTINUOUS
 10
150.25
 20
120.0500609219
 11
150.8273502692
 21
120.6274111911
  0
LINE
  5
362
100
AcDbEntity
  8
ASSI
100
AcDbLine
 62
7
  6
CONTINUOUS
 10
154.3364876862
 20
124.6345865071
 11
154.5
 21
124.7952696104
  0
LWPOLYLINE
  5
363
100
AcDbEntity
  8
ASSI
100
AcDbPolyline
 62
7
  6
CONTINUOUS
 90
13
 70
0
 10
157.658453932
 20
120.8243025591
 10
157.631052733
 20
120.8116151559
 10
157.6054864893
 20
120.7966497125
 10
157.5817552008
 20
120.7794062291
 10
157.5596619022
 20
120.7596705777
 10
157.5394035588
 20
120.7376568862
 10
157.5215710665
 20
120.7140075383
 10
157.5062375824
 20
120.6886784996
 10
157.4933299495
 20
120.6617138044
 10
157.4832195923
 20
120.633887939
 10
157.4760303191
 20
120.6054590655
 10
157.4716383218
 20
120.5761690218
 10
157.4700436002
 20
120.5460178078
  0
LINE
  5
364
100
AcDbEntity
  8
CURVE
100
AcDbLine
 62
250
  6
CONTINUOUS
 10
154.6
 20
116.9880952835
 11
156.3
 21
117.4738093376
  0
LINE
  5
365
100
AcDbEntity
  8
CURVE
100
AcDbLine
 62
250
  6
CONTINUOUS
 10
159.5318042749
 20
94.0714284539
 11
159.5223286688
 21
94.0714284539
  0
LINE
  5
366
100
AcDbEntity
  8
CURVE
100
AcDbLine
 62
250
  6
CONTINUOUS
 10
159.4246063423
 20
94.33459
 11
159.411156761
 21
94.33459
  0
LINE
  5
367
100
AcDbEntity
  8
CURVE
100
AcDbLine
 62
250
  6
CONTINUOUS
 10
159.3494813138
 20
94.33459
 11
159.3360317325
 21
94.33459
  0
LINE
  5
368
100
AcDbEntity
  8
CURVE
100
AcDbLine
 62
250
  6
CONTINUOUS
 10
159.2935426388
 20
94.4571427822
 11
159.2811994142
 21
94.4571427822
  0
LINE
  5
369
100
AcDbEntity
  8
CURVE
100
AcDbLine
 62
250
  6
CONTINUOUS
 10
159.5742760896
 20
94.640566764
 11
159.6046761071
 21
94.640566764
  0
LINE
  5
36A
100
AcDbEntity
  8
CURVE
100
AcDbLine
 62
250
  6
CONTINUOUS
 10
159.6046761071
 20
94.8195950655
 11
159.5742760896
 21
94.8195950655
  0
LINE
  5
36B
100
AcDbEntity
  8
CURVE
100
AcDbLine
 62
250
  6
CONTINUOUS
 10
159.2853138222
 20
94.9285711288
 11
159.2750278017
 21
94.9285711288
  0
LINE
  5
36C
100
AcDbEntity
  8
CURVE
100
AcDbLine
 62
250
  6
CONTINUOUS
 10
159.2976570468
 20
94.96785748
 11
159.291485434
 21
94.96785748
  0
LINE
  5
36D
100
AcDbEntity
  8
CURVE
100
AcDbLine
 62
250
  6
CONTINUOUS
 10
159.5223286688
 20
95.0214284539
 11
159.5318042749
 21
95.0214284539
  0
LINE
  5
36E
100
AcDbEntity
  8
CURVE
100
AcDbLine
 62
250
  6
CONTINUOUS
 10
159.5128530617
 20
95.5642855644
 11
159.5270664719
 21
95.5642855644
  0
LINE
  5
36F
100
AcDbEntity
  8
ASSI
100
AcDbLine
 62
7
  6
CONTINUOUS
 10
154.5
 20
85.2047303896
 11
154.3364876862
 21
85.3654134929
  0
LINE
  5
370
100
AcDbEntity
  8
ASSI
100
AcDbLine
 62
250
  6
CONTINUOUS
 10
154.5
 20
85.2330808709
 11
154.7824116283
 21
84.9506692427
  0
LINE
  5
371
100
AcDbEntity
  8
ASSI
100
AcDbLine
 62
7
  6
CONTINUOUS
 10
140.4
 20
102.6020738904
 11
140.3860359481
 21
103.4090858474
  0
LINE
  5
372
100
AcDbEntity
  8
ASSI
100
AcDbLine
 62
7
  6
CONTINUOUS
 10
140.3915337947
 20
86.1077327391
 11
140.3940524987
 21
85.9441940548
  0
LINE
  5
373
100
AcDbEntity
  8
ASSI
100
AcDbLine
 62
7
  6
CONTINUOUS
 10
140.3887681729
 20
86.3857413536
 11
140.3915337947
 21
86.1077327391
  0
LINE
  5
374
100
AcDbEntity
  8
ASSI
100
AcDbLine
 62
7
  6
CONTINUOUS
 10
140.3864775409
 20
86.8435431632
 11
140.3887681729
 21
86.3857413536
  0
LINE
  5
375
100
AcDbEntity
  8
CURVE
100
AcDbLine
 62
250
  6
CONTINUOUS
 10
139.2
 20
115.5
 11
139.2
 21
107.5
  0
LINE
  5
376
100
AcDbEntity
  8
CURVE
100
AcDbLine
 62
250
  6
CONTINUOUS
 10
139.7
 20
115.5
 11
139.7
 21
121.5
  0
LINE
  5
377
100
AcDbEntity
  8
CURVE
100
AcDbLine
 62
250
  6
CONTINUOUS
 10
139.95
 20
115.5
 11
139.95
 21
121.5
  0
LINE
  5
378
100
AcDbEntity
  8
CURVE
100
AcDbLine
 62
250
  6
CONTINUOUS
 10
140.2
 20
115.5
 11
140.2
 21
121.5
  0
LINE
  5
379
100
AcDbEntity
  8
CURVE
100
AcDbLine
 62
250
  6
CONTINUOUS
 10
140.3357142568
 20
111.3357142568
 11
140.3357142568
 21
112.3071427703
  0
LINE
  5
37A
100
AcDbEntity
  8
CURVE
100
AcDbLine
 62
250
  6
CONTINUOUS
 10
140.3357142568
 20
112.9142857432
 11
140.3357142568
 21
113.8857144594
  0
LINE
  5
37B
100
AcDbEntity
  8
ASSI
100
AcDbLine
 62
7
  6
CONTINUOUS
 10
140.3864775409
 20
86.8435431632
 11
140.3860359481
 21
103.4090858474
  0
LINE
  5
37C
100
AcDbEntity
  8
ASSI
100
AcDbLine
 62
7
  6
CONTINUOUS
 10
140.4
 20
102.6020738904
 11
140.4
 21
85.9412205306
  0
LINE
  5
37D
100
AcDbEntity
  8
CURVE
100
AcDbLine
 62
250
  6
CONTINUOUS
 10
140.45
 20
115.5
 11
140.45
 21
121.5
  0
LINE
  5
37E
100
AcDbEntity
  8
0
100
AcDbLine
 62
7
  6
CONTINUOUS
 10
140.5
 20
86.1739757758
 11
140.5
 21
102.15
  0
LINE
  5
37F
100
AcDbEntity
  8
CURVE
100
AcDbLine
 62
250
  6
CONTINUOUS
 10
140.5785713851
 20
110.6071428716
 11
140.5785713851
 21
110.0809523825
  0
LINE
  5
380
100
AcDbEntity
  8
CURVE
100
AcDbLine
 62
250
  6
CONTINUOUS
 10
140.7
 20
115.5
 11
140.7
 21
121.5
  0
LINE
  5
381
100
AcDbEntity
  8
ASSI
100
AcDbLine
 62
7
  6
CONTINUOUS
 10
140.7790539221
 20
102.6020738904
 11
140.7790539221
 21
102.15
  0
LINE
  5
382
100
AcDbEntity
  8
ASSI
100
AcDbLine
 62
7
  6
CONTINUOUS
 10
140.7790539221
 20
86.1739757758
 11
140.7790539221
 21
85.9412205306
  0
LINE
  5
383
100
AcDbEntity
  8
ASSI
100
AcDbLine
 62
7
  6
CONTINUOUS
 10
140.7912724675
 20
102.15
 11
140.7912724675
 21
102.3959955457
  0
LINE
  5
384
100
AcDbEntity
  8
ASSI
100
AcDbLine
 62
7
  6
CONTINUOUS
 10
140.8
 20
86.1739757758
 11
140.8
 21
85.9307482893
  0
LINE
  5
385
100
AcDbEntity
  8
ASSI
100
AcDbLine
 62
7
  6
CONTINUOUS
 10
140.8219742232
 20
84.5664292356
 11
140.8219742232
 21
85.6
  0
LINE
  5
386
100
AcDbEntity
  8
ASSI
100
AcDbLine
 62
7
  6
CONTINUOUS
 10
140.8219742232
 20
124.4
 11
140.8219742232
 21
125.4335707644
  0
LINE
  5
387
100
AcDbEntity
  8
CURVE
100
AcDbLine
 62
250
  6
CONTINUOUS
 10
140.95
 20
115.5
 11
140.95
 21
121.5
  0
LINE
  5
388
100
AcDbEntity
  8
0
100
AcDbLine
 62
7
  6
CONTINUOUS
 10
141.0
 20
86.1739757758
 11
141.0
 21
86.128067282
  0
LINE
  5
389
100
AcDbEntity
  8
ASSI
100
AcDbLine
 62
250
  6
CONTINUOUS
 10
154.7880445822
 20
124.4550550942
 11
154.9258198029
 21
124.5928303149
  0
LINE
  5
38A
100
AcDbEntity
  8
ASSI
100
AcDbLine
 62
7
  6
CONTINUOUS
 10
155.0744599635
 20
124.741424784
 11
154.9258198134
 21
124.5927846374
  0
LINE
  5
38B
100
AcDbEntity
  8
ASSI
100
AcDbLine
 62
250
  6
CONTINUOUS
 10
142.6726497308
 20
111.9725888089
 11
143.25
 21
112.5499390781
  0
LINE
  5
38C
100
AcDbEntity
  8
CURVE
100
AcDbLine
 62
250
  6
CONTINUOUS
 10
141.3071428463
 20
110.0
 11
141.55
 21
110.2428571537
  0
LINE
  5
38D
100
AcDbEntity
  8
ASSI
100
AcDbLine
 62
250
  6
CONTINUOUS
 10
143.0725888089
 20
111.5726497308
 11
143.6499390781
 21
112.15
  0
LINE
  5
38E
100
AcDbEntity
  8
CURVE
100
AcDbLine
 62
250
  6
CONTINUOUS
 10
159.554008768
 20
95.812877
 11
159.5596803724
 21
95.812877
  0
LINE
  5
38F
100
AcDbEntity
  8
CURVE
100
AcDbLine
 62
250
  6
CONTINUOUS
 10
159.5989571137
 20
95.82511
 11
159.604628753
 21
95.82511
  0
LINE
  5
390
100
AcDbEntity
  8
CURVE
100
AcDbLine
 62
250
  6
CONTINUOUS
 10
159.5771914681
 20
95.934693
 11
159.5828635787
 21
95.934693
  0
LINE
  5
391
100
AcDbEntity
  8
CURVE
100
AcDbLine
 62
250
  6
CONTINUOUS
 10
159.5270664719
 20
96.5142855644
 11
159.5128530617
 21
96.5142855644
  0
LINE
  5
392
100
AcDbEntity
  8
CURVE
100
AcDbLine
 62
250
  6
CONTINUOUS
 10
159.5596803724
 20
97.441638
 11
159.5771914681
 21
97.441638
  0
LINE
  5
393
100
AcDbEntity
  8
CURVE
100
AcDbLine
 62
250
  6
CONTINUOUS
 10
159.5828635787
 20
97.441638
 11
159.5989571137
 21
97.441638
  0
LINE
  5
394
100
AcDbEntity
  8
ASSI
100
AcDbLine
 62
250
  6
CONTINUOUS
 10
154.9258198029
 20
85.4071696851
 11
154.7880445822
 21
85.5449449058
  0
LINE
  5
395
100
AcDbEntity
  8
ASSI
100
AcDbLine
 62
7
  6
CONTINUOUS
 10
154.9258198134
 20
85.4072153626
 11
155.0744599635
 21
85.258575216
  0
LINE
  5
396
100
AcDbEntity
  8
ASSI
100
AcDbLine
 62
7
  6
CONTINUOUS
 10
142.080202161
 20
124.5249396588
 11
142.081459358
 21
124.4936163564
  0
LINE
  5
397
100
AcDbEntity
  8
ASSI
100
AcDbLine
 62
7
  6
CONTINUOUS
 10
142.081459358
 20
124.4936163564
 11
142.0826688672
 21
124.456771356
  0
LWPOLYLINE
  5
398
100
AcDbEntity
  8
ASSI
100
AcDbPolyline
 62
7
  6
CONTINUOUS
 90
3
 70
0
 10
142.0826688672
 20
124.456771356
 10
142.0838251082
 20
124.4145748399
 10
142.0841768066
 20
124.4
  0
LINE
  5
399
100
AcDbEntity
  8
ASSI
100
AcDbLine
 62
7
  6
CONTINUOUS
 10
141.1144274674
 20
125.6901924515
 11
141.1169648205
 21
125.5448275862
  0
LINE
  5
39A
100
AcDbEntity
  8
IMPORT_IGES
100
AcDbLine
 62
7
  6
CONTINUOUS
 10
141.08
 20
102.15
 11
141.08
 21
102.3959955457
  0
LINE
  5
39B
100
AcDbEntity
  8
ASSI
100
AcDbLine
 62
7
  6
CONTINUOUS
 10
141.1169648205
 20
125.5448275862
 11
141.1169648205
 21
125.2413486316
  0
LINE
  5
39C
100
AcDbEntity
  8
ASSI
100
AcDbLine
 62
7
  6
CONTINUOUS
 10
141.1169648205
 20
84.7586513684
 11
141.1169648205
 21
84.4551724138
  0
LINE
  5
39D
100
AcDbEntity
  8
CURVE
100
AcDbLine
 62
250
  6
CONTINUOUS
 10
141.2
 20
115.5
 11
141.2
 21
121.5
  0
LINE
  5
39E
100
AcDbEntity
  8
CURVE
100
AcDbLine
 62
250
  6
CONTINUOUS
 10
141.45
 20
115.5
 11
141.45
 21
121.5
  0
LINE
  5
39F
100
AcDbEntity
  8
CURVE
100
AcDbLine
 62
250
  6
CONTINUOUS
 10
141.55
 20
110.2428571537
 11
141.55
 21
110.6071428716
  0
LINE
  5
3A0
100
AcDbEntity
  8
CURVE
100
AcDbLine
 62
250
  6
CONTINUOUS
 10
141.7
 20
115.5
 11
141.7
 21
121.5
  0
LINE
  5
3A1
100
AcDbEntity
  8
IMPORT_IGES
100
AcDbLine
 62
7
  6
CONTINUOUS
 10
142.124
 20
102.15
 11
142.124
 21
102.3959955457
  0
LINE
  5
3A2
100
AcDbEntity
  8
IMPORT_IGES
100
AcDbLine
 62
7
  6
CONTINUOUS
 10
142.1530388805
 20
102.15
 11
142.1530388805
 21
102.3959955457
  0
LINE
  5
3A3
100
AcDbEntity
  8
CURVE
100
AcDbLine
 62
250
  6
CONTINUOUS
 10
142.2
 20
115.5
 11
142.2
 21
107.5
  0
LINE
  5
3A4
100
AcDbEntity
  8
ASSI
100
AcDbLine
 62
7
  6
CONTINUOUS
 10
142.2119554178
 20
124.4550550942
 11
142.2119554178
 21
124.4
  0
LINE
  5
3A5
100
AcDbEntity
  8
ASSI
100
AcDbLine
 62
7
  6
CONTINUOUS
 10
142.2119554178
 20
85.5449449058
 11
142.2119554178
 21
85.6
  0
LINE
  5
3A6
100
AcDbEntity
  8
ASSI
100
AcDbLine
 62
7
  6
CONTINUOUS
 10
142.2583678882
 20
85.9307482893
 11
142.2583678882
 21
86.1120530907
  0
LINE
  5
3A7
100
AcDbEntity
  8
ASSI
100
AcDbLine
 62
7
  6
CONTINUOUS
 10
142.35
 20
85.8391161775
 11
142.35
 21
86.1120530907
  0
LINE
  5
3A8
100
AcDbEntity
  8
ASSI
100
AcDbLine
 62
7
  6
CONTINUOUS
 10
142.5
 20
85.2047303896
 11
142.5
 21
85.6
  0
LINE
  5
3A9
100
AcDbEntity
  8
ASSI
100
AcDbLine
 62
7
  6
CONTINUOUS
 10
142.5
 20
124.4
 11
142.5
 21
124.7952696104
  0
LINE
  5
3AA
100
AcDbEntity
  8
ASSI
100
AcDbLine
 62
7
  6
CONTINUOUS
 10
142.5420057142
 20
102.15
 11
142.5420057142
 21
102.3
  0
LINE
  5
3AB
100
AcDbEntity
  8
ASSI
100
AcDbLine
 62
7
  6
CONTINUOUS
 10
142.6726497308
 20
106.9725888089
 11
142.6726497308
 21
110.6274111911
  0
LINE
  5
3AC
100
AcDbEntity
  8
ASSI
100
AcDbLine
 62
7
  6
CONTINUOUS
 10
142.6726497308
 20
111.9725888089
 11
142.6726497308
 21
115.6274111911
  0
LINE
  5
3AD
100
AcDbEntity
  8
ASSI
100
AcDbLine
 62
7
  6
CONTINUOUS
 10
142.6726497308
 20
116.9725888089
 11
142.6726497308
 21
120.6274111911
  0
LINE
  5
3AE
100
AcDbEntity
  8
ASSI
100
AcDbLine
 62
7
  6
CONTINUOUS
 10
141.1144274674
 20
84.3098075485
 11
141.1169648205
 21
84.4551724138
  0
LINE
  5
3AF
100
AcDbEntity
  8
ASSI
100
AcDbLine
 62
7
  6
CONTINUOUS
 10
142.0841768066
 20
85.6
 11
142.0832546523
 21
85.5636941913
  0
LINE
  5
3B0
100
AcDbEntity
  8
ASSI
100
AcDbLine
 62
7
  6
CONTINUOUS
 10
142.0832546523
 20
85.5636941913
 11
142.0820704552
 21
85.524123031
  0
LWPOLYLINE
  5
3B1
100
AcDbEntity
  8
ASSI
100
AcDbPolyline
 62
7
  6
CONTINUOUS
 90
12
 70
0
 10
142.0820704552
 20
85.524123031
 10
142.0808356338
 20
85.4900041902
 10
142.080202161
 20
85.4750603396
 10
142.0795588941
 20
85.4615587289
 10
142.0789058784
 20
85.4494927193
 10
142.0782461278
 20
85.4389180587
 10
142.0775796103
 20
85.4298433384
 10
142.0769063577
 20
85.422259967
 10
142.0762294792
 20
85.4161979186
 10
142.0755500111
 20
85.4116671845
 10
142.0748669171
 20
85.4086577733
 10
142.0741801971
 20
85.4071696851
  0
LINE
  5
3B2
100
AcDbEntity
  8
ASSI
100
AcDbLine
 62
7
  6
CONTINUOUS
 10
151.5118365096
 20
127.2
 11
151.1768152463
 21
126.5448275862
  0
LINE
  5
3B3
100
AcDbEntity
  8
ASSI
100
AcDbLine
 62
7
  6
CONTINUOUS
 10
156.8236532862
 20
124.0604486876
 11
156.8235519244
 21
124.0603344597
  0
LINE
  5
3B4
100
AcDbEntity
  8
ASSI
100
AcDbLine
 62
250
  6
CONTINUOUS
 10
149.8500609219
 20
115.45
 11
150.4274111911
 21
116.0273502692
  0
LINE
  5
3B5
100
AcDbEntity
  8
ASSI
100
AcDbLine
 62
250
  6
CONTINUOUS
 10
150.25
 20
115.0500609219
 11
150.8273502692
 21
115.6274111911
  0
LINE
  5
3B6
100
AcDbEntity
  8
ASSI
100
AcDbLine
 62
250
  6
CONTINUOUS
 10
158.5284400692
 20
122.1361685587
 11
157.7497190102
 21
121.5090410398
  0
LINE
  5
3B7
100
AcDbEntity
  8
CURVE
100
AcDbLine
 62
250
  6
CONTINUOUS
 10
154.8428571284
 20
116.3809523106
 11
155.0857142568
 21
116.5023804188
  0
LINE
  5
3B8
100
AcDbEntity
  8
CURVE
100
AcDbLine
 62
250
  6
CONTINUOUS
 10
156.0571428463
 20
115.7738093376
 11
155.8142856926
 21
115.6523804188
  0
LINE
  5
3B9
100
AcDbEntity
  8
CURVE
100
AcDbLine
 62
250
  6
CONTINUOUS
 10
151.6
 20
113.275000006
 11
153.5
 21
114.225000006
  0
LINE
  5
3BA
100
AcDbEntity
  8
ASSI
100
AcDbLine
 62
7
  6
CONTINUOUS
 10
158.9706933414
 20
116.7495920486
 11
159.0716692421
 21
116.8000761539
  0
LWPOLYLINE
  5
3BB
100
AcDbEntity
  8
ASSI
100
AcDbPolyline
 62
7
  6
CONTINUOUS
 90
7
 70
0
 10
157.6429293531
 20
115.8175770965
 10
157.6639535866
 20
115.8263498966
 10
157.6852686915
 20
115.8334869908
 10
157.7067887929
 20
115.8389883793
 10
157.7284201261
 20
115.8428540619
 10
157.7500611358
 20
115.8450840387
 10
157.7716026623
 20
115.8456783096
  0
LINE
  5
3BC
100
AcDbEntity
  8
CURVE
100
AcDbLine
 62
250
  6
CONTINUOUS
 10
159.604628753
 20
97.827487
 11
159.554008768
 21
97.827487
  0
LINE
  5
3BD
100
AcDbEntity
  8
CURVE
100
AcDbLine
 62
250
  6
CONTINUOUS
 10
159.291485434
 20
97.9535713911
 11
159.2750278017
 21
97.9535713911
  0
LINE
  5
3BE
100
AcDbEntity
  8
CURVE
100
AcDbLine
 62
250
  6
CONTINUOUS
 10
159.2118778703
 20
98.15
 11
159.2303927068
 21
98.15
  0
LINE
  5
3BF
100
AcDbEntity
  8
CURVE
100
AcDbLine
 62
250
  6
CONTINUOUS
 10
159.2894282309
 20
98.4250001311
 11
159.2729705976
 21
98.4250001311
  0
LINE
  5
3C0
100
AcDbEntity
  8
CURVE
100
AcDbLine
 62
250
  6
CONTINUOUS
 10
159.2118778703
 20
98.6999998689
 11
159.2324499116
 21
98.6999998689
  0
LINE
  5
3C1
100
AcDbEntity
  8
CURVE
100
AcDbLine
 62
250
  6
CONTINUOUS
 10
159.2750278017
 20
99.1321430445
 11
159.2811994142
 21
99.1321430445
  0
LINE
  5
3C2
100
AcDbEntity
  8
CURVE
100
AcDbLine
 62
250
  6
CONTINUOUS
 10
159.2324499116
 20
99.2107141733
 11
159.2118778703
 21
99.2107141733
  0
LWPOLYLINE
  5
3C3
100
AcDbEntity
  8
CURVE
100
AcDbPolyline
 62
250
  6
CONTINUOUS
 90
16
 70
0
 10
159.5742760896
 20
92.7769142445
 10
159.5735731622
 20
92.7772016078
 10
159.5728833261
 20
92.7780699224
 10
159.5722070129
 20
92.779528525
 10
159.5715446538
 20
92.7815867527
 10
159.5708963925
 20
92.7842557272
 10
159.5702612219
 20
92.7875537104
 10
159.5696378473
 20
92.7915007493
 10
159.5690249738
 20
92.7961168907
 10
159.5684214963
 20
92.8014238627
 10
159.5678270682
 20
92.8074501188
 10
159.5672415324
 20
92.8142257936
 10
159.5666647322
 20
92.8217810215
 10
159.5660964594
 20
92.8301509089
 10
159.565536302
 20
92.8393904473
 10
159.5649837969
 20
92.8495596003
  0
LINE
  5
3C4
100
AcDbEntity
  8
SUPERFICI
100
AcDbLine
 62
250
  6
CONTINUOUS
 10
156.3437005118
 20
87.1461667016
 11
157.0504640385
 21
86.4394031748
  0
LINE
  5
3C5
100
AcDbEntity
  8
ASSI
100
AcDbLine
 62
7
  6
CONTINUOUS
 10
151.1768152463
 20
83.4551724138
 11
151.5118365096
 21
82.8
  0
LWPOLYLINE
  5
3C6
100
AcDbEntity
  8
ASSI
100
AcDbPolyline
 62
7
  6
CONTINUOUS
 90
19
 70
0
 10
143.2410003815
 20
107.5409394596
 10
143.2424530951
 20
107.5075963246
 10
143.2466864189
 20
107.4741156092
 10
143.2538428207
 20
107.4406474149
 10
143.2641533959
 20
107.4071431325
 10
143.2776573515
 20
107.3740459716
 10
143.294055597
 20
107.3422393387
 10
143.3132330112
 20
107.3120298481
 10
143.3351661739
 20
107.2835026488
 10
143.35948366
 20
107.2571260961
 10
143.3860272441
 20
107.2330537689
 10
143.4146383102
 20
107.2114255286
 10
143.4448367162
 20
107.1925774094
 10
143.4765502578
 20
107.1765157162
 10
143.5094548159
 20
107.1633454726
 10
143.542613968
 20
107.1533364768
 10
143.5755692504
 20
107.1464250228
 10
143.6083921599
 20
107.1423660596
 10
143.6409394596
 20
107.1410003815
  0
LWPOLYLINE
  5
3C7
100
AcDbEntity
  8
ASSI
100
AcDbPolyline
 62
7
  6
CONTINUOUS
 90
19
 70
0
 10
143.2410003815
 20
112.5409394596
 10
143.2424530951
 20
112.5075963246
 10
143.2466864189
 20
112.4741156092
 10
143.2538428207
 20
112.4406474149
 10
143.2641533959
 20
112.4071431325
 10
143.2776573515
 20
112.3740459716
 10
143.294055597
 20
112.3422393387
 10
143.3132330112
 20
112.3120298481
 10
143.3351661739
 20
112.2835026488
 10
143.35948366
 20
112.2571260961
 10
143.3860272441
 20
112.2330537689
 10
143.4146383102
 20
112.2114255286
 10
143.4448367162
 20
112.1925774094
 10
143.4765502578
 20
112.1765157162
 10
143.5094548159
 20
112.1633454726
 10
143.542613968
 20
112.1533364768
 10
143.5755692504
 20
112.1464250228
 10
143.6083921599
 20
112.1423660596
 10
143.6409394596
 20
112.1410003815
  0
LWPOLYLINE
  5
3C8
100
AcDbEntity
  8
ASSI
100
AcDbPolyline
 62
7
  6
CONTINUOUS
 90
19
 70
0
 10
143.2410003815
 20
117.5409394596
 10
143.2424530951
 20
117.5075963246
 10
143.2466864189
 20
117.4741156092
 10
143.2538428207
 20
117.4406474149
 10
143.2641533959
 20
117.4071431325
 10
143.2776573515
 20
117.3740459716
 10
143.294055597
 20
117.3422393387
 10
143.3132330112
 20
117.3120298481
 10
143.3351661739
 20
117.2835026488
 10
143.35948366
 20
117.2571260961
 10
143.3860272441
 20
117.2330537689
 10
143.4146383102
 20
117.2114255286
 10
143.4448367162
 20
117.1925774094
 10
143.4765502578
 20
117.1765157162
 10
143.5094548159
 20
117.1633454726
 10
143.542613968
 20
117.1533364768
 10
143.5755692504
 20
117.1464250228
 10
143.6083921599
 20
117.1423660596
 10
143.6409394596
 20
117.1410003815
  0
LINE
  5
3C9
100
AcDbEntity
  8
ASSI
100
AcDbLine
 62
7
  6
CONTINUOUS
 10
144.5982752774
 20
83.8
 11
144.5955798639
 21
83.8771865438
  0
LINE
  5
3CA
100
AcDbEntity
  8
ASSI
100
AcDbLine
 62
7
  6
CONTINUOUS
 10
142.6725420435
 20
124.4150729491
 11
142.6743264668
 21
124.3128434048
  0
LINE
  5
3CB
100
AcDbEntity
  8
ASSI
100
AcDbLine
 62
7
  6
CONTINUOUS
 10
143.5142153889
 20
102.7534884982
 11
143.520325725
 21
102.4003593119
  0
LINE
  5
3CC
100
AcDbEntity
  8
ASSI
100
AcDbLine
 62
7
  6
CONTINUOUS
 10
143.042034672
 20
103.4090858474
 11
143.042034672
 21
106.007965328
  0
LINE
  5
3CD
100
AcDbEntity
  8
ASSI
100
AcDbLine
 62
7
  6
CONTINUOUS
 10
143.2410003815
 20
107.5409394596
 11
143.2410003815
 21
110.0590605404
  0
LINE
  5
3CE
100
AcDbEntity
  8
ASSI
100
AcDbLine
 62
7
  6
CONTINUOUS
 10
143.2410003815
 20
112.5409394596
 11
143.2410003815
 21
115.0590605404
  0
LINE
  5
3CF
100
AcDbEntity
  8
ASSI
100
AcDbLine
 62
7
  6
CONTINUOUS
 10
143.2410003815
 20
117.5409394596
 11
143.2410003815
 21
120.0590605404
  0
LINE
  5
3D0
100
AcDbEntity
  8
ASSI
100
AcDbLine
 62
7
  6
CONTINUOUS
 10
143.25
 20
107.5499390781
 11
143.25
 21
110.0500609219
  0
LINE
  5
3D1
100
AcDbEntity
  8
ASSI
100
AcDbLine
 62
7
  6
CONTINUOUS
 10
143.25
 20
112.5499390781
 11
143.25
 21
115.0500609219
  0
LINE
  5
3D2
100
AcDbEntity
  8
ASSI
100
AcDbLine
 62
7
  6
CONTINUOUS
 10
143.25
 20
117.5499390781
 11
143.25
 21
120.0500609219
  0
LINE
  5
3D3
100
AcDbEntity
  8
ASSI
100
AcDbLine
 62
7
  6
CONTINUOUS
 10
143.5142153889
 20
102.7534884982
 11
143.5142153889
 21
105.5357846111
  0
LINE
  5
3D4
100
AcDbEntity
  8
ASSI
100
AcDbLine
 62
7
  6
CONTINUOUS
 10
143.5203263896
 20
105.5296736104
 11
143.5203263896
 21
103.8436376623
  0
LINE
  5
3D5
100
AcDbEntity
  8
ASSI
100
AcDbLine
 62
7
  6
CONTINUOUS
 10
143.55
 20
103.8139640519
 11
143.55
 21
102.3855233043
  0
LINE
  5
3D6
100
AcDbEntity
  8
0
100
AcDbLine
 62
7
  6
CONTINUOUS
 10
143.65
 20
104.65
 11
143.65
 21
102.95
  0
LINE
  5
3D7
100
AcDbEntity
  8
SMUSSO
100
AcDbLine
 62
7
  6
CONTINUOUS
 10
143.65
 20
102.15
 11
143.65
 21
102.95
  0
LINE
  5
3D8
100
AcDbEntity
  8
IMPORT_IGES
100
AcDbLine
 62
7
  6
CONTINUOUS
 10
144.324
 20
107.4
 11
144.324
 21
110.2
  0
LINE
  5
3D9
100
AcDbEntity
  8
IMPORT_IGES
100
AcDbLine
 62
7
  6
CONTINUOUS
 10
144.324
 20
112.4
 11
144.324
 21
115.2
  0
LINE
  5
3DA
100
AcDbEntity
  8
IMPORT_IGES
100
AcDbLine
 62
7
  6
CONTINUOUS
 10
144.324
 20
117.4
 11
144.324
 21
120.2
  0
LINE
  5
3DB
100
AcDbEntity
  8
ASSI
100
AcDbLine
 62
7
  6
CONTINUOUS
 10
142.6725420435
 20
85.5849270509
 11
142.6743264668
 21
85.6871565952
  0
LINE
  5
3DC
100
AcDbEntity
  8
ASSI
100
AcDbLine
 62
7
  6
CONTINUOUS
 10
144.5982752774
 20
126.2
 11
144.5955798639
 21
126.1228134562
  0
LINE
  5
3DD
100
AcDbEntity
  8
ASSI
100
AcDbLine
 62
250
  6
CONTINUOUS
 10
142.6726497308
 20
106.9725888089
 11
143.25
 21
107.5499390781
  0
LINE
  5
3DE
100
AcDbEntity
  8
ASSI
100
AcDbLine
 62
250
  6
CONTINUOUS
 10
143.0725888089
 20
106.5726497308
 11
143.6499390781
 21
107.15
  0
LWPOLYLINE
  5
3DF
100
AcDbEntity
  8
ASSI
100
AcDbPolyline
 62
7
  6
CONTINUOUS
 90
5
 70
0
 10
157.9708456462
 20
103.4839865919
 10
158.0420847906
 20
103.5007658264
 10
158.1133631875
 20
103.5164908466
 10
158.1843051837
 20
103.5311616524
 10
158.2545955207
 20
103.5445953677
  0
LINE
  5
3E0
100
AcDbEntity
  8
CURVE
100
AcDbLine
 62
250
  6
CONTINUOUS
 10
159.220106687
 20
99.6821429133
 11
159.2324499116
 21
99.6821429133
  0
LINE
  5
3E1
100
AcDbEntity
  8
CURVE
100
AcDbLine
 62
250
  6
CONTINUOUS
 10
159.4405392208
 20
100.5000000008
 11
159.4230841684
 21
100.5000000008
  0
LINE
  5
3E2
100
AcDbEntity
  8
CURVE
100
AcDbLine
 62
250
  6
CONTINUOUS
 10
159.3532639025
 20
100.5000000008
 11
159.3358088313
 21
100.5000000008
  0
LINE
  5
3E3
100
AcDbEntity
  8
CURVE
100
AcDbLine
 62
250
  6
CONTINUOUS
 10
159.2324499116
 20
100.5071429133
 11
159.220106687
 21
100.5071429133
  0
LINE
  5
3E4
100
AcDbEntity
  8
CURVE
100
AcDbLine
 62
250
  6
CONTINUOUS
 10
159.220106687
 20
100.9785714567
 11
159.2324499116
 21
100.9785714567
  0
LINE
  5
3E5
100
AcDbEntity
  8
CURVE
100
AcDbLine
 62
250
  6
CONTINUOUS
 10
159.554008768
 20
101.141725
 11
159.5596803724
 21
101.141725
  0
LINE
  5
3E6
100
AcDbEntity
  8
CURVE
100
AcDbLine
 62
250
  6
CONTINUOUS
 10
159.5989571137
 20
101.153904
 11
159.604628753
 21
101.153904
  0
LINE
  5
3E7
100
AcDbEntity
  8
CURVE
100
AcDbLine
 62
250
  6
CONTINUOUS
 10
159.2873710261
 20
101.2535713911
 11
159.2729705976
 21
101.2535713911
  0
LINE
  5
3E8
100
AcDbEntity
  8
CURVE
100
AcDbLine
 62
250
  6
CONTINUOUS
 10
159.5771914681
 20
101.263571
 11
159.5828635787
 21
101.263571
  0
LINE
  5
3E9
100
AcDbEntity
  8
ASSI
100
AcDbLine
 62
7
  6
CONTINUOUS
 10
142.35
 20
102.3959955457
 11
142.5420057142
 21
102.3
  0
LINE
  5
3EA
100
AcDbEntity
  8
ASSI
100
AcDbLine
 62
7
  6
CONTINUOUS
 10
143.520325725
 20
102.4003593119
 11
143.55
 21
102.3855233043
  0
LINE
  5
3EB
100
AcDbEntity
  8
ASSI
100
AcDbLine
 62
7
  6
CONTINUOUS
 10
143.5203263896
 20
103.8436376623
 11
143.55
 21
103.8139640519
  0
LINE
  5
3EC
100
AcDbEntity
  8
ASSI
100
AcDbLine
 62
7
  6
CONTINUOUS
 10
143.5142153889
 20
102.7534884982
 11
143.042034672
 21
103.4090858474
  0
LINE
  5
3ED
100
AcDbEntity
  8
ASSI
100
AcDbLine
 62
7
  6
CONTINUOUS
 10
143.3120036477
 20
127.5952898872
 11
143.3133353029
 21
127.5816517102
  0
LINE
  5
3EE
100
AcDbEntity
  8
ASSI
100
AcDbLine
 62
7
  6
CONTINUOUS
 10
143.3107653898
 20
127.6088707709
 11
143.3120036477
 21
127.5952898872
  0
LINE
  5
3EF
100
AcDbEntity
  8
ASSI
100
AcDbLine
 62
7
  6
CONTINUOUS
 10
143.3096210787
 20
127.6223946545
 11
143.3107653898
 21
127.6088707709
  0
LWPOLYLINE
  5
3F0
100
AcDbEntity
  8
ASSI
100
AcDbPolyline
 62
7
  6
CONTINUOUS
 90
3
 70
0
 10
143.3080847846
 20
127.6425759377
 10
143.3085729345
 20
127.6358628338
 10
143.3096210787
 20
127.6223946545
  0
LINE
  5
3F1
100
AcDbEntity
  8
ASSI
100
AcDbLine
 62
7
  6
CONTINUOUS
 10
144.7900847053
 20
128.4825449351
 11
144.7905598344
 21
128.4553248057
  0
LINE
  5
3F2
100
AcDbEntity
  8
ASSI
100
AcDbLine
 62
7
  6
CONTINUOUS
 10
144.8535027678
 20
124.8493265651
 11
144.851981019
 21
124.9365074992
  0
LINE
  5
3F3
100
AcDbEntity
  8
ASSI
100
AcDbLine
 62
250
  6
CONTINUOUS
 10
145.0912265747
 20
124.810110861
 11
145.0911109495
 21
124.9365074992
  0
LINE
  5
3F4
100
AcDbEntity
  8
ASSI
100
AcDbLine
 62
250
  6
CONTINUOUS
 10
145.8402100925
 20
124.8107745818
 11
145.8400950744
 21
124.9365074992
  0
LINE
  5
3F5
100
AcDbEntity
  8
ASSI
100
AcDbLine
 62
7
  6
CONTINUOUS
 10
145.0
 20
124.9365074992
 11
145.0
 21
124.8389072728
  0
LINE
  5
3F6
100
AcDbEntity
  8
ASSI
100
AcDbLine
 62
7
  6
CONTINUOUS
 10
145.0
 20
85.1610927272
 11
145.0
 21
85.0634925008
  0
LINE
  5
3F7
100
AcDbEntity
  8
ASSI
100
AcDbLine
 62
7
  6
CONTINUOUS
 10
145.4
 20
127.2
 11
145.4
 21
126.1720718961
  0
LINE
  5
3F8
100
AcDbEntity
  8
ASSI
100
AcDbLine
 62
7
  6
CONTINUOUS
 10
145.4
 20
83.8279281039
 11
145.4
 21
82.8
  0
LINE
  5
3F9
100
AcDbEntity
  8
0
100
AcDbLine
 62
7
  6
CONTINUOUS
 10
146.5
 20
85.9287749089
 11
146.5
 21
86.1120530907
  0
LINE
  5
3FA
100
AcDbEntity
  8
ASSI
100
AcDbLine
 62
250
  6
CONTINUOUS
 10
145.0911109495
 20
85.0634925008
 11
145.0912265747
 21
85.189889139
  0
LINE
  5
3FB
100
AcDbEntity
  8
ASSI
100
AcDbLine
 62
250
  6
CONTINUOUS
 10
145.8400950744
 20
85.0634925008
 11
145.8402100925
 21
85.1892254182
  0
LINE
  5
3FC
100
AcDbEntity
  8
ASSI
100
AcDbLine
 62
7
  6
CONTINUOUS
 10
144.8535027678
 20
85.1506734349
 11
144.851981019
 21
85.0634925008
  0
LINE
  5
3FD
100
AcDbEntity
  8
ASSI
100
AcDbLine
 62
7
  6
CONTINUOUS
 10
144.7900847053
 20
81.5174550649
 11
144.7905598344
 21
81.5446751943
  0
LINE
  5
3FE
100
AcDbEntity
  8
ASSI
100
AcDbLine
 62
7
  6
CONTINUOUS
 10
143.3080847846
 20
82.3574240623
 11
143.3090850324
 21
82.3708642623
  0
LINE
  5
3FF
100
AcDbEntity
  8
ASSI
100
AcDbLine
 62
7
  6
CONTINUOUS
 10
143.3090850324
 20
82.3708642623
 11
143.3101812596
 21
82.3843602991
  0
LINE
  5
400
100
AcDbEntity
  8
ASSI
100
AcDbLine
 62
7
  6
CONTINUOUS
 10
143.3101812596
 20
82.3843602991
 11
143.311372914
 21
82.397912465
  0
LWPOLYLINE
  5
401
100
AcDbEntity
  8
ASSI
100
AcDbPolyline
 62
7
  6
CONTINUOUS
 90
3
 70
0
 10
143.311372914
 20
82.397912465
 10
143.312657777
 20
82.4115220561
 10
143.3133353029
 20
82.4183482898
  0
LINE
  5
402
100
AcDbEntity
  8
ASSI
100
AcDbLine
 62
7
  6
CONTINUOUS
 10
152.468176777
 20
128.4825449351
 11
152.4526845545
 21
128.4301797403
  0
LINE
  5
403
100
AcDbEntity
  8
ASSI
100
AcDbLine
 62
7
  6
CONTINUOUS
 10
139.0053500779
 20
84.5664292356
 11
138.8674550649
 21
84.1524077793
  0
LWPOLYLINE
  5
404
100
AcDbEntity
  8
ASSI
100
AcDbPolyline
 62
7
  6
CONTINUOUS
 90
43
 70
0
 10
155.0744599635
 20
124.741424784
 10
155.0749153922
 20
124.742376755
 10
155.0753070933
 20
124.744410251
 10
155.0756350667
 20
124.7475135021
 10
155.0759466059
 20
124.7516837426
 10
155.0761944175
 20
124.7568985751
 10
155.0762366213
 20
124.7630909581
 10
155.0760812671
 20
124.7702285042
 10
155.0757203051
 20
124.7782606769
 10
155.074987706
 20
124.7870370052
 10
155.0738653214
 20
124.7964731125
 10
155.0723712998
 20
124.8065041532
 10
155.0703940576
 20
124.8169582606
 10
155.0679096017
 20
124.8277209437
 10
155.0649419252
 20
124.838733002
 10
155.0614514239
 20
124.8498865152
 10
155.0574256106
 20
124.8610843712
 10
155.0528769725
 20
124.8722724711
 10
155.0478033669
 20
124.8834139444
 10
155.0422026989
 20
124.8944452058
 10
155.0360770635
 20
124.9053155989
 10
155.0294306025
 20
124.9160212522
 10
155.0222634999
 20
124.9265256134
 10
155.0145755718
 20
124.9367824845
 10
155.0063704084
 20
124.9467841225
 10
154.9976455716
 20
124.956509047
 10
154.9884034995
 20
124.9659177916
 10
154.9786550972
 20
124.9749813325
 10
154.9683931651
 20
124.9836853907
 10
154.9576249027
 20
124.9919979469
 10
154.9463828145
 20
124.9998655902
 10
154.9346552032
 20
125.007276035
 10
154.9224537661
 20
125.0142059115
 10
154.9098460982
 20
125.0205858353
 10
154.8968191046
 20
125.0264023146
 10
154.8833858803
 20
125.0316422191
 10
154.8696533057
 20
125.0362372811
 10
154.8556115866
 20
125.0401725833
 10
154.8412705171
 20
125.0434451955
 10
154.8267663603
 20
125.0460060644
 10
154.812144537
 20
125.0478357353
 10
154.7973596263
 20
125.048944697
 10
154.7824116283
 20
125.0493307573
  0
LINE
  5
405
100
AcDbEntity
  8
CURVE
100
AcDbLine
 62
250
  6
CONTINUOUS
 10
155.6523809403
 20
118.7285713196
 11
155.895238094
 21
119.0523804188
  0
LINE
  5
406
100
AcDbEntity
  8
CURVE
100
AcDbLine
 62
250
  6
CONTINUOUS
 10
154.6
 20
116.1380952835
 11
154.8428571284
 21
116.3809523106
  0
LINE
  5
407
100
AcDbEntity
  8
ASSI
100
AcDbLine
 62
250
  6
CONTINUOUS
 10
149.8500609219
 20
110.45
 11
150.4274111911
 21
111.0273502692
  0
LINE
  5
408
100
AcDbEntity
  8
ASSI
100
AcDbLine
 62
250
  6
CONTINUOUS
 10
150.25
 20
110.0500609219
 11
150.8273502692
 21
110.6274111911
  0
LINE
  5
409
100
AcDbEntity
  8
CURVE
100
AcDbLine
 62
250
  6
CONTINUOUS
 10
156.3
 20
116.0166663647
 11
156.0571428463
 21
115.7738093376
  0
LINE
  5
40A
100
AcDbEntity
  8
CURVE
100
AcDbLine
 62
250
  6
CONTINUOUS
 10
154.8428571284
 20
113.8309523106
 11
154.6
 21
113.5880948782
  0
LINE
  5
40B
100
AcDbEntity
  8
CURVE
100
AcDbLine
 62
250
  6
CONTINUOUS
 10
154.8428571284
 20
111.1595235944
 11
155.0857142568
 21
111.2809521079
  0
LWPOLYLINE
  5
40C
100
AcDbEntity
  8
ASSI
100
AcDbPolyline
 62
7
  6
CONTINUOUS
 90
7
 70
0
 10
157.6429293531
 20
110.8175770965
 10
157.6639535866
 20
110.8263498966
 10
157.6852686915
 20
110.8334869908
 10
157.7067887929
 20
110.8389883793
 10
157.7284201261
 20
110.8428540619
 10
157.7500611358
 20
110.8450840387
 10
157.7716026623
 20
110.8456783096
  0
LWPOLYLINE
  5
40D
100
AcDbEntity
  8
ASSI
100
AcDbPolyline
 62
7
  6
CONTINUOUS
 90
16
 70
0
 10
158.2545955207
 20
103.5445953677
 10
158.4566247309
 20
103.5802980298
 10
158.5195551979
 20
103.59124169
 10
158.5794848536
 20
103.6019856423
 10
158.6359852918
 20
103.6126199511
 10
158.6888814744
 20
103.6230545519
 10
158.7380308838
 20
103.6333251293
 10
158.7832989901
 20
103.6435896228
 10
158.8242198891
 20
103.6536900928
 10
158.8602618759
 20
103.6631884051
 10
158.8913197121
 20
103.6721726106
 10
158.9173041765
 20
103.6805546585
 10
158.9379996493
 20
103.6876322624
 10
158.9534831523
 20
103.6931713268
 10
158.9639724512
 20
103.6974059471
 10
158.9696406424
 20
103.7003361234
  0
LINE
  5
40E
100
AcDbEntity
  8
CURVE
100
AcDbLine
 62
250
  6
CONTINUOUS
 10
159.2324499116
 20
101.8035714567
 11
159.220106687
 21
101.8035714567
  0
LINE
  5
40F
100
AcDbEntity
  8
0
100
AcDbLine
 62
7
  6
CONTINUOUS
 10
143.65
 20
102.15
 11
140.5
 21
102.15
  0
LINE
  5
410
100
AcDbEntity
  8
0
100
AcDbLine
 62
7
  6
CONTINUOUS
 10
155.15
 20
102.15
 11
157.8356952729
 21
102.15
  0
LINE
  5
411
100
AcDbEntity
  8
CURVE
100
AcDbLine
 62
250
  6
CONTINUOUS
 10
159.536542078
 20
102.2607144833
 11
159.5138504936
 21
102.2607144833
  0
LINE
  5
412
100
AcDbEntity
  8
CURVE
100
AcDbLine
 62
250
  6
CONTINUOUS
 10
159.2976570468
 20
102.275
 11
159.2935426388
 21
102.275
  0
LINE
  5
413
100
AcDbEntity
  8
ASSI
100
AcDbLine
 62
7
  6
CONTINUOUS
 10
142.5420057142
 20
102.3
 11
143.65
 21
102.3
  0
LINE
  5
414
100
AcDbEntity
  8
ASSI
100
AcDbLine
 62
7
  6
CONTINUOUS
 10
155.15
 20
102.3
 11
157.8715332096
 21
102.3
  0
LINE
  5
415
100
AcDbEntity
  8
ASSI
100
AcDbLine
 62
7
  6
CONTINUOUS
 10
143.55
 20
102.3855233043
 11
143.65
 21
102.3855233043
  0
LINE
  5
416
100
AcDbEntity
  8
ASSI
100
AcDbLine
 62
7
  6
CONTINUOUS
 10
155.15
 20
102.3855233043
 11
155.25
 21
102.3855233043
  0
LINE
  5
417
100
AcDbEntity
  8
ASSI
100
AcDbLine
 62
7
  6
CONTINUOUS
 10
142.35
 20
102.3959955457
 11
140.7912724675
 21
102.3959955457
  0
LINE
  5
418
100
AcDbEntity
  8
ASSI
100
AcDbLine
 62
7
  6
CONTINUOUS
 10
156.4254750544
 20
102.4003593119
 11
155.279674275
 21
102.4003593119
  0
LINE
  5
419
100
AcDbEntity
  8
ASSI
100
AcDbLine
 62
7
  6
CONTINUOUS
 10
143.520325725
 20
102.4003593119
 11
140.7825442704
 21
102.4003593119
  0
LINE
  5
41A
100
AcDbEntity
  8
SMUSSO
100
AcDbLine
 62
7
  6
CONTINUOUS
 10
155.15
 20
102.45
 11
143.65
 21
102.45
  0
LINE
  5
41B
100
AcDbEntity
  8
CURVE
100
AcDbLine
 62
250
  6
CONTINUOUS
 10
159.4919069839
 20
102.4619049072
 11
159.4983902934
 21
102.4619049072
  0
LINE
  5
41C
100
AcDbEntity
  8
CURVE
100
AcDbLine
 62
250
  6
CONTINUOUS
 10
159.2262782989
 20
102.5499999836
 11
159.2118778703
 21
102.5499999836
  0
LINE
  5
41D
100
AcDbEntity
  8
ASSI
100
AcDbLine
 62
7
  6
CONTINUOUS
 10
140.7790539221
 20
102.6020738904
 11
140.4
 21
102.6020738904
  0
LINE
  5
41E
100
AcDbEntity
  8
CURVE
100
AcDbLine
 62
250
  6
CONTINUOUS
 10
159.5268171138
 20
102.6321428776
 11
159.5333004232
 21
102.6321428776
  0
LINE
  5
41F
100
AcDbEntity
  8
CURVE
100
AcDbLine
 62
250
  6
CONTINUOUS
 10
159.5596803724
 20
102.770431
 11
159.5771914681
 21
102.770431
  0
LINE
  5
420
100
AcDbEntity
  8
CURVE
100
AcDbLine
 62
250
  6
CONTINUOUS
 10
159.5828635787
 20
102.770431
 11
159.5989571137
 21
102.770431
  0
LINE
  5
421
100
AcDbEntity
  8
SMUSSO
100
AcDbLine
 62
7
  6
CONTINUOUS
 10
155.15
 20
102.95
 11
143.65
 21
102.95
  0
LINE
  5
422
100
AcDbEntity
  8
CURVE
100
AcDbLine
 62
250
  6
CONTINUOUS
 10
159.5016319481
 20
103.1119049072
 11
159.4789403637
 21
103.1119049072
  0
LINE
  5
423
100
AcDbEntity
  8
CURVE
100
AcDbLine
 62
250
  6
CONTINUOUS
 10
159.604628753
 20
103.156309
 11
159.554008768
 21
103.156309
  0
LINE
  5
424
100
AcDbEntity
  8
CURVE
100
AcDbLine
 62
250
  6
CONTINUOUS
 10
159.536542078
 20
103.2821428776
 11
159.5138504936
 21
103.2821428776
  0
LINE
  5
425
100
AcDbEntity
  8
ASSI
100
AcDbLine
 62
7
  6
CONTINUOUS
 10
143.5290539221
 20
105.5209460779
 11
143.042034672
 21
106.007965328
  0
LINE
  5
426
100
AcDbEntity
  8
CURVE
100
AcDbLine
 62
250
  6
CONTINUOUS
 10
139.85
 20
110.6071428716
 11
140.2142857432
 21
110.2428571537
  0
LWPOLYLINE
  5
427
100
AcDbEntity
  8
ASSI
100
AcDbPolyline
 62
7
  6
CONTINUOUS
 90
10
 70
0
 10
154.9258198029
 20
85.4071696851
 10
154.9251330829
 20
85.4086577733
 10
154.9244499889
 20
85.4116671845
 10
154.9237705208
 20
85.4161979186
 10
154.9230936423
 20
85.422259967
 10
154.9224203897
 20
85.4298433384
 10
154.9217538722
 20
85.4389180587
 10
154.9210941216
 20
85.4494927193
 10
154.9204411059
 20
85.4615587289
 10
154.919797839
 20
85.4750603396
  0
LINE
  5
428
100
AcDbEntity
  8
ASSI
100
AcDbLine
 62
7
  6
CONTINUOUS
 10
138.8674550649
 20
125.8475922207
 11
139.0053500779
 21
125.4335707644
  0
LINE
  5
429
100
AcDbEntity
  8
ASSI
100
AcDbLine
 62
7
  6
CONTINUOUS
 10
152.468176777
 20
81.5174550649
 11
152.4526845545
 21
81.5698202597
  0
LINE
  5
42A
100
AcDbEntity
  8
IMPORT_IGES
100
AcDbLine
 62
7
  6
CONTINUOUS
 10
147.224
 20
120.2
 11
147.224
 21
117.4
  0
LINE
  5
42B
100
AcDbEntity
  8
IMPORT_IGES
100
AcDbLine
 62
7
  6
CONTINUOUS
 10
147.224
 20
115.2
 11
147.224
 21
112.4
  0
LINE
  5
42C
100
AcDbEntity
  8
IMPORT_IGES
100
AcDbLine
 62
7
  6
CONTINUOUS
 10
147.224
 20
110.2
 11
147.224
 21
107.4
  0
LINE
  5
42D
100
AcDbEntity
  8
ASSI
100
AcDbLine
 62
7
  6
CONTINUOUS
 10
148.5
 20
85.1427844609
 11
148.5
 21
85.4814010658
  0
LINE
  5
42E
100
AcDbEntity
  8
ASSI
100
AcDbLine
 62
7
  6
CONTINUOUS
 10
148.5
 20
124.5185989342
 11
148.5
 21
124.8572155391
  0
LINE
  5
42F
100
AcDbEntity
  8
ASSI
100
AcDbLine
 62
7
  6
CONTINUOUS
 10
151.1024027689
 20
126.1228134562
 11
151.1768152463
 21
126.5448275862
  0
LINE
  5
430
100
AcDbEntity
  8
ASSI
100
AcDbLine
 62
7
  6
CONTINUOUS
 10
156.8128964221
 20
124.0350923052
 11
156.796022017
 21
123.9953337775
  0
LINE
  5
431
100
AcDbEntity
  8
ASSI
100
AcDbLine
 62
7
  6
CONTINUOUS
 10
156.7278960213
 20
123.8339975423
 11
156.4222735658
 21
123.1187404019
  0
LINE
  5
432
100
AcDbEntity
  8
ASSI
100
AcDbLine
 62
7
  6
CONTINUOUS
 10
156.4222735658
 20
123.1187404019
 11
156.3969510198
 21
123.0604867646
  0
LWPOLYLINE
  5
433
100
AcDbEntity
  8
ASSI
100
AcDbPolyline
 62
7
  6
CONTINUOUS
 90
3
 70
0
 10
156.8235519244
 20
124.0603344597
 10
156.821901815
 20
124.0566728706
 10
156.8128964221
 20
124.0350923052
  0
LINE
  5
434
100
AcDbEntity
  8
ASSI
100
AcDbLine
 62
7
  6
CONTINUOUS
 10
157.9929160262
 20
116.7571355367
 11
158.0358566434
 21
116.8000761539
  0
LINE
  5
435
100
AcDbEntity
  8
CURVE
100
AcDbLine
 62
250
  6
CONTINUOUS
 10
151.6
 20
108.9535714507
 11
151.8714285553
 21
109.225000006
  0
LINE
  5
436
100
AcDbEntity
  8
CURVE
100
AcDbLine
 62
250
  6
CONTINUOUS
 10
154.6
 20
110.9166665673
 11
154.8428571284
 21
111.1595235944
  0
LINE
  5
437
100
AcDbEntity
  8
CURVE
100
AcDbLine
 62
250
  6
CONTINUOUS
 10
156.0571428463
 20
110.5523808241
 11
155.8142856926
 21
110.4309521079
  0
LINE
  5
438
100
AcDbEntity
  8
CURVE
100
AcDbLine
 62
250
  6
CONTINUOUS
 10
154.8428571284
 20
109.8238093376
 11
155.0857142568
 21
109.9452378511
  0
LINE
  5
439
100
AcDbEntity
  8
ASSI
100
AcDbLine
 62
7
  6
CONTINUOUS
 10
158.9706933414
 20
111.7495920486
 11
159.0716692421
 21
111.8000761539
  0
LINE
  5
43A
100
AcDbEntity
  8
CURVE
100
AcDbLine
 62
250
  6
CONTINUOUS
 10
156.0571428463
 20
109.216666466
 11
155.8142856926
 21
109.0952379525
  0
LINE
  5
43B
100
AcDbEntity
  8
ASSI
100
AcDbLine
 62
7
  6
CONTINUOUS
 10
155.15
 20
105.5209460779
 11
155.0450136038
 21
105.5
  0
LINE
  5
43C
100
AcDbEntity
  8
ASSI
100
AcDbLine
 62
250
  6
CONTINUOUS
 10
157.7716026623
 20
106.7543216904
 11
157.6917064336
 21
106.7410174856
  0
LINE
  5
43D
100
AcDbEntity
  8
ASSI
100
AcDbLine
 62
7
  6
CONTINUOUS
 10
157.4081348995
 20
103.4090858474
 11
155.757965328
 21
103.4090858474
  0
LINE
  5
43E
100
AcDbEntity
  8
ASSI
100
AcDbLine
 62
7
  6
CONTINUOUS
 10
143.042034672
 20
103.4090858474
 11
140.3860359481
 21
103.4090858474
  0
LINE
  5
43F
100
AcDbEntity
  8
CURVE
100
AcDbLine
 62
250
  6
CONTINUOUS
 10
159.5170921486
 20
103.6535715818
 11
159.5333004232
 21
103.6535715818
  0
LINE
  5
440
100
AcDbEntity
  8
ASSI
100
AcDbLine
 62
7
  6
CONTINUOUS
 10
143.55
 20
103.8139640519
 11
143.65
 21
103.8139640519
  0
LINE
  5
441
100
AcDbEntity
  8
ASSI
100
AcDbLine
 62
7
  6
CONTINUOUS
 10
155.15
 20
103.8139640519
 11
155.25
 21
103.8139640519
  0
LINE
  5
442
100
AcDbEntity
  8
RACCORDO
100
AcDbLine
 62
7
  6
CONTINUOUS
 10
143.65
 20
103.85
 11
143.5203263896
 21
103.85
  0
LINE
  5
443
100
AcDbEntity
  8
RACCORDO
100
AcDbLine
 62
7
  6
CONTINUOUS
 10
155.15
 20
103.85
 11
155.25
 21
103.85
  0
LINE
  5
444
100
AcDbEntity
  8
CURVE
100
AcDbLine
 62
250
  6
CONTINUOUS
 10
159.554008768
 20
103.964487
 11
159.604628753
 21
103.964487
  0
LINE
  5
445
100
AcDbEntity
  8
CURVE
100
AcDbLine
 62
250
  6
CONTINUOUS
 10
159.0944302208
 20
104.05
 11
159.0873235133
 21
104.05
  0
LINE
  5
446
100
AcDbEntity
  8
CURVE
100
AcDbLine
 62
250
  6
CONTINUOUS
 10
159.061265596
 20
104.05
 11
159.0683723011
 21
104.05
  0
LINE
  5
447
100
AcDbEntity
  8
CURVE
100
AcDbLine
 62
250
  6
CONTINUOUS
 10
159.5333004232
 20
104.3035715818
 11
159.5170921486
 21
104.3035715818
  0
LINE
  5
448
100
AcDbEntity
  8
CURVE
100
AcDbLine
 62
250
  6
CONTINUOUS
 10
159.604628753
 20
104.330048
 11
159.5635793626
 21
104.330048
  0
LINE
  5
449
100
AcDbEntity
  8
0
100
AcDbLine
 62
250
  6
CONTINUOUS
 10
143.65
 20
104.65
 11
155.15
 21
104.65
  0
LINE
  5
44A
100
AcDbEntity
  8
CURVE
100
AcDbLine
 62
250
  6
CONTINUOUS
 10
159.5203338037
 20
104.6749999762
 11
159.5170921486
 21
104.6749999762
  0
LINE
  5
44B
100
AcDbEntity
  8
CURVE
100
AcDbLine
 62
250
  6
CONTINUOUS
 10
159.4821820188
 20
104.7523810387
 11
159.4983902934
 21
104.7523810387
  0
LINE
  5
44C
100
AcDbEntity
  8
ASSI
100
AcDbLine
 62
7
  6
CONTINUOUS
 10
143.65
 20
105.5209460779
 11
143.7549863962
 21
105.5
  0
LINE
  5
44D
100
AcDbEntity
  8
CURVE
100
AcDbLine
 62
250
  6
CONTINUOUS
 10
141.55
 20
110.6071428716
 11
141.3071428463
 21
110.85
  0
LINE
  5
44E
100
AcDbEntity
  8
ASSI
100
AcDbLine
 62
250
  6
CONTINUOUS
 10
143.25
 20
110.0500609219
 11
142.6726497308
 21
110.6274111911
  0
LINE
  5
44F
100
AcDbEntity
  8
ASSI
100
AcDbLine
 62
7
  6
CONTINUOUS
 10
140.1781015689
 20
124.0566659804
 11
140.1764480756
 21
124.0603344597
  0
LINE
  5
450
100
AcDbEntity
  8
ASSI
100
AcDbLine
 62
7
  6
CONTINUOUS
 10
140.6030489802
 20
123.0604867646
 11
140.5519979137
 21
123.1785818542
  0
LWPOLYLINE
  5
451
100
AcDbEntity
  8
ASSI
100
AcDbPolyline
 62
7
  6
CONTINUOUS
 90
3
 70
0
 10
140.2040352077
 20
123.9951990338
 10
140.187125514
 20
124.0350403542
 10
140.1781015689
 20
124.0566659804
  0
LINE
  5
452
100
AcDbEntity
  8
ASSI
100
AcDbLine
 62
7
  6
CONTINUOUS
 10
140.5519979137
 20
123.1785818542
 11
140.2149538278
 21
123.9691818835
  0
LINE
  5
453
100
AcDbEntity
  8
ASSI
100
AcDbLine
 62
7
  6
CONTINUOUS
 10
140.2149538278
 20
123.9691818835
 11
140.2040352077
 21
123.9951990338
  0
LINE
  5
454
100
AcDbEntity
  8
0
100
AcDbLine
 62
250
  6
CONTINUOUS
 10
156.3254487874
 20
86.128067282
 11
156.4079983912
 21
85.9287749089
  0
LINE
  5
455
100
AcDbEntity
  8
ASSI
100
AcDbLine
 62
7
  6
CONTINUOUS
 10
151.1024027689
 20
83.8771865438
 11
151.1768152463
 21
83.4551724138
  0
LWPOLYLINE
  5
456
100
AcDbEntity
  8
ASSI
100
AcDbPolyline
 62
7
  6
CONTINUOUS
 90
19
 70
0
 10
150.2589996185
 20
110.0590605404
 10
150.2575563583
 20
110.0922813138
 10
150.2533556744
 20
110.1256320035
 10
150.2462579388
 20
110.1589645353
 10
150.2360385928
 20
110.1923212486
 10
150.2226580139
 20
110.2252717219
 10
150.2064017022
 20
110.2569619262
 10
150.1873950086
 20
110.2870757623
 10
150.1656451349
 20
110.3155415067
 10
150.1414525596
 20
110.3419423691
 10
150.1149130962
 20
110.3661545376
 10
150.0862176787
 20
110.3879775149
 10
150.0559209887
 20
110.4069940221
 10
150.0241359144
 20
110.4231751754
 10
149.9911546987
 20
110.4364433633
 10
149.9578896736
 20
110.4465348627
 10
149.9247919152
 20
110.4535117778
 10
149.8918004771
 20
110.4576143731
 10
149.8590605404
 20
110.4589996185
  0
LINE
  5
457
100
AcDbEntity
  8
IMPORT_IGES
100
AcDbLine
 62
7
  6
CONTINUOUS
 10
149.424
 20
120.2
 11
149.424
 21
117.4
  0
LINE
  5
458
100
AcDbEntity
  8
IMPORT_IGES
100
AcDbLine
 62
7
  6
CONTINUOUS
 10
149.424
 20
115.2
 11
149.424
 21
112.4
  0
LINE
  5
459
100
AcDbEntity
  8
IMPORT_IGES
100
AcDbLine
 62
7
  6
CONTINUOUS
 10
149.424
 20
110.2
 11
149.424
 21
107.4
  0
LINE
  5
45A
100
AcDbEntity
  8
IMPORT_IGES
100
AcDbLine
 62
7
  6
CONTINUOUS
 10
149.824
 20
107.15
 11
149.824
 21
110.45
  0
LINE
  5
45B
100
AcDbEntity
  8
IMPORT_IGES
100
AcDbLine
 62
7
  6
CONTINUOUS
 10
149.824
 20
112.15
 11
149.824
 21
115.45
  0
LINE
  5
45C
100
AcDbEntity
  8
IMPORT_IGES
100
AcDbLine
 62
7
  6
CONTINUOUS
 10
149.824
 20
117.15
 11
149.824
 21
120.45
  0
LINE
  5
45D
100
AcDbEntity
  8
ASSI
100
AcDbLine
 62
7
  6
CONTINUOUS
 10
150.25
 20
120.0500609219
 11
150.25
 21
117.5499390781
  0
LINE
  5
45E
100
AcDbEntity
  8
ASSI
100
AcDbLine
 62
7
  6
CONTINUOUS
 10
150.25
 20
115.0500609219
 11
150.25
 21
112.5499390781
  0
LINE
  5
45F
100
AcDbEntity
  8
ASSI
100
AcDbLine
 62
7
  6
CONTINUOUS
 10
150.25
 20
110.0500609219
 11
150.25
 21
107.5499390781
  0
LINE
  5
460
100
AcDbEntity
  8
ASSI
100
AcDbLine
 62
7
  6
CONTINUOUS
 10
150.2589996185
 20
120.0590605404
 11
150.2589996185
 21
117.5409394596
  0
LINE
  5
461
100
AcDbEntity
  8
ASSI
100
AcDbLine
 62
7
  6
CONTINUOUS
 10
150.2589996185
 20
115.0590605404
 11
150.2589996185
 21
112.5409394596
  0
LINE
  5
462
100
AcDbEntity
  8
ASSI
100
AcDbLine
 62
7
  6
CONTINUOUS
 10
150.2589996185
 20
110.0590605404
 11
150.2589996185
 21
107.5409394596
  0
LINE
  5
463
100
AcDbEntity
  8
ASSI
100
AcDbLine
 62
7
  6
CONTINUOUS
 10
145.8975972311
 20
83.8771865438
 11
145.8231847537
 21
83.4551724138
  0
LINE
  5
464
100
AcDbEntity
  8
ASSI
100
AcDbLine
 62
7
  6
CONTINUOUS
 10
156.7437773775
 20
123.8716877838
 11
156.7278960213
 21
123.8339975423
  0
LWPOLYLINE
  5
465
100
AcDbEntity
  8
ASSI
100
AcDbPolyline
 62
7
  6
CONTINUOUS
 90
3
 70
0
 10
156.796022017
 20
123.9953337775
 10
156.772707178
 20
123.9399127794
 10
156.7437773775
 20
123.8716877838
  0
LINE
  5
466
100
AcDbEntity
  8
CURVE
100
AcDbLine
 62
250
  6
CONTINUOUS
 10
154.6
 20
109.5809522092
 11
154.8428571284
 21
109.8238093376
  0
LINE
  5
467
100
AcDbEntity
  8
CURVE
100
AcDbLine
 62
250
  6
CONTINUOUS
 10
156.3
 20
110.7952378511
 11
156.0571428463
 21
110.5523808241
  0
LINE
  5
468
100
AcDbEntity
  8
ASSI
100
AcDbLine
 62
7
  6
CONTINUOUS
 10
157.9929160262
 20
111.7571355367
 11
158.0358566434
 21
111.8000761539
  0
LWPOLYLINE
  5
469
100
AcDbEntity
  8
CURVE
100
AcDbPolyline
 62
250
  6
CONTINUOUS
 90
14
 70
0
 10
159.4091370882
 20
112.5
 10
159.408702648
 20
112.4996410914
 10
159.4082689955
 20
112.4985673687
 10
159.4078353234
 20
112.4967833369
 10
159.4074008241
 20
112.4942935007
 10
159.4069648227
 20
112.4910996807
 10
159.4065271746
 20
112.4871929603
 10
159.4060878678
 20
112.4825617385
 10
159.4056468905
 20
112.4771944145
 10
159.4052043943
 20
112.4710821243
 10
159.4047611862
 20
112.4642269517
 10
159.4043182371
 20
112.4566337177
 10
159.4038765175
 20
112.4483072429
 10
159.4030002228
 20
112.4294813359
  0
LWPOLYLINE
  5
46A
100
AcDbEntity
  8
CURVE
100
AcDbPolyline
 62
250
  6
CONTINUOUS
 90
15
 70
0
 10
159.3527798755
 20
112.5
 10
159.3523249016
 20
112.4996316349
 10
159.3518713105
 20
112.4985305946
 10
159.3514182637
 20
112.4967029614
 10
159.350964923
 20
112.4941548177
 10
159.3505105886
 20
112.4908894491
 10
159.3500551146
 20
112.4868989535
 10
159.3495984939
 20
112.4821726321
 10
159.3491407192
 20
112.4766997859
 10
159.3486819513
 20
112.4704724691
 10
159.3482230233
 20
112.4634937484
 10
159.3477649364
 20
112.4557694433
 10
159.3473086916
 20
112.4473053736
 10
159.3468552308
 20
112.4381082058
 10
159.3459594193
 20
112.417555639
  0
LINE
  5
46B
100
AcDbEntity
  8
ASSI
100
AcDbLine
 62
250
  6
CONTINUOUS
 10
157.4700436002
 20
107.0539821922
 11
157.3914319313
 21
107.0408918905
  0
LWPOLYLINE
  5
46C
100
AcDbEntity
  8
ASSI
100
AcDbPolyline
 62
7
  6
CONTINUOUS
 90
19
 70
0
 10
149.8590605404
 20
107.1410003815
 10
149.8922813138
 20
107.1424436417
 10
149.9256320035
 20
107.1466443256
 10
149.9589645353
 20
107.1537420612
 10
149.9923212486
 20
107.1639614072
 10
150.0252717219
 20
107.1773419861
 10
150.0569619262
 20
107.1935982978
 10
150.0870757623
 20
107.2126049914
 10
150.1155415067
 20
107.2343548651
 10
150.1419423691
 20
107.2585474404
 10
150.1661545376
 20
107.2850869038
 10
150.1879775149
 20
107.3137823213
 10
150.2069940221
 20
107.3440790113
 10
150.2231751754
 20
107.3758640856
 10
150.2364433633
 20
107.4088453013
 10
150.2465348627
 20
107.4421103264
 10
150.2535117778
 20
107.4752080848
 10
150.2576143731
 20
107.5081995229
 10
150.2589996185
 20
107.5409394596
  0
LINE
  5
46D
100
AcDbEntity
  8
CURVE
100
AcDbLine
 62
250
  6
CONTINUOUS
 10
159.5333004232
 20
105.3249999762
 11
159.5300587685
 21
105.3249999762
  0
LINE
  5
46E
100
AcDbEntity
  8
CURVE
100
AcDbLine
 62
250
  6
CONTINUOUS
 10
159.5016319481
 20
105.4023808837
 11
159.4789403637
 21
105.4023808837
  0
LINE
  5
46F
100
AcDbEntity
  8
RACCORDO
100
AcDbLine
 62
7
  6
CONTINUOUS
 10
143.65
 20
105.45
 11
143.5203263896
 21
105.45
  0
LINE
  5
470
100
AcDbEntity
  8
0
100
AcDbLine
 62
7
  6
CONTINUOUS
 10
143.65
 20
105.45
 11
155.15
 21
105.45
  0
LINE
  5
471
100
AcDbEntity
  8
RACCORDO
100
AcDbLine
 62
7
  6
CONTINUOUS
 10
155.15
 20
105.45
 11
155.2796736104
 21
105.45
  0
LINE
  5
472
100
AcDbEntity
  8
ASSI
100
AcDbLine
 62
7
  6
CONTINUOUS
 10
143.7549863962
 20
105.5
 11
155.0450136038
 21
105.5
  0
LINE
  5
473
100
AcDbEntity
  8
ASSI
100
AcDbLine
 62
7
  6
CONTINUOUS
 10
155.2709460779
 20
105.5209460779
 11
155.15
 21
105.5209460779
  0
LINE
  5
474
100
AcDbEntity
  8
ASSI
100
AcDbLine
 62
7
  6
CONTINUOUS
 10
143.65
 20
105.5209460779
 11
143.5290539221
 21
105.5209460779
  0
LINE
  5
475
100
AcDbEntity
  8
ASSI
100
AcDbLine
 62
7
  6
CONTINUOUS
 10
143.5142153889
 20
105.5357846111
 11
155.2857846111
 21
105.5357846111
  0
LINE
  5
476
100
AcDbEntity
  8
CURVE
100
AcDbLine
 62
250
  6
CONTINUOUS
 10
159.536542078
 20
105.6964286804
 11
159.5138504936
 21
105.6964286804
  0
LINE
  5
477
100
AcDbEntity
  8
CURVE
100
AcDbLine
 62
250
  6
CONTINUOUS
 10
159.554008768
 20
105.910067
 11
159.5946320104
 21
105.910067
  0
LINE
  5
478
100
AcDbEntity
  8
CURVE
100
AcDbLine
 62
250
  6
CONTINUOUS
 10
159.1275948402
 20
105.95
 11
159.108643628
 21
105.95
  0
LINE
  5
479
100
AcDbEntity
  8
CURVE
100
AcDbLine
 62
250
  6
CONTINUOUS
 10
159.0683723011
 20
105.95
 11
159.061265596
 21
105.95
  0
LINE
  5
47A
100
AcDbEntity
  8
ASSI
100
AcDbLine
 62
7
  6
CONTINUOUS
 10
143.042034672
 20
106.007965328
 11
155.757965328
 21
106.007965328
  0
LINE
  5
47B
100
AcDbEntity
  8
CURVE
100
AcDbLine
 62
250
  6
CONTINUOUS
 10
159.604628753
 20
106.275599
 11
159.554008768
 21
106.275599
  0
LINE
  5
47C
100
AcDbEntity
  8
CURVE
100
AcDbLine
 62
250
  6
CONTINUOUS
 10
159.536542078
 20
106.3464286804
 11
159.5138504936
 21
106.3464286804
  0
LINE
  5
47D
100
AcDbEntity
  8
CURVE
100
AcDbLine
 62
250
  6
CONTINUOUS
 10
159.3672112915
 20
106.5000109646
 11
159.3358088313
 21
106.5000109646
  0
LINE
  5
47E
100
AcDbEntity
  8
ASSI
100
AcDbLine
 62
7
  6
CONTINUOUS
 10
150.4274111911
 20
106.5726497308
 11
143.0725888089
 21
106.5726497308
  0
LINE
  5
47F
100
AcDbEntity
  8
ASSI
100
AcDbLine
 62
7
  6
CONTINUOUS
 10
157.9708456462
 20
106.7410174856
 11
157.6917064336
 21
106.7410174856
  0
LINE
  5
480
100
AcDbEntity
  8
ASSI
100
AcDbLine
 62
250
  6
CONTINUOUS
 10
158.0358566434
 20
106.8000761539
 11
159.0716692421
 21
106.8000761539
  0
LINE
  5
481
100
AcDbEntity
  8
CURVE
100
AcDbLine
 62
250
  6
CONTINUOUS
 10
159.4919069839
 20
106.8880952358
 11
159.4983902934
 21
106.8880952358
  0
LINE
  5
482
100
AcDbEntity
  8
CURVE
100
AcDbLine
 62
250
  6
CONTINUOUS
 10
159.3576282106
 20
107.125008861
 11
159.3670646182
 21
107.125008861
  0
LINE
  5
483
100
AcDbEntity
  8
CURVE
100
AcDbLine
 62
250
  6
CONTINUOUS
 10
159.3358088313
 20
107.125008861
 11
159.3467188317
 21
107.125008861
  0
LINE
  5
484
100
AcDbEntity
  8
ASSI
100
AcDbLine
 62
7
  6
CONTINUOUS
 10
149.8590605404
 20
107.1410003815
 11
143.6409394596
 21
107.1410003815
  0
LINE
  5
485
100
AcDbEntity
  8
ASSI
100
AcDbLine
 62
7
  6
CONTINUOUS
 10
149.8500609219
 20
107.15
 11
143.6499390781
 21
107.15
  0
LWPOLYLINE
  5
486
100
AcDbEntity
  8
ASSI
100
AcDbPolyline
 62
7
  6
CONTINUOUS
 90
7
 70
0
 10
157.7716026623
 20
106.7543216904
 10
157.750059362
 20
106.7549163524
 10
157.7284172353
 20
106.7571465639
 10
157.7067854955
 20
106.7610123247
 10
157.6852657323
 20
106.7665136349
 10
157.6639517268
 20
106.7736504945
 10
157.6429293531
 20
106.7824229035
  0
LINE
  5
487
100
AcDbEntity
  8
CURVE
100
AcDbLine
 62
250
  6
CONTINUOUS
 10
140.2142857432
 20
110.2428571537
 11
140.7
 21
110.0
  0
LINE
  5
488
100
AcDbEntity
  8
ASSI
100
AcDbLine
 62
7
  6
CONTINUOUS
 10
157.6926261659
 20
102.3894467092
 11
157.8715332096
 21
102.3
  0
LINE
  5
489
100
AcDbEntity
  8
ASSI
100
AcDbLine
 62
250
  6
CONTINUOUS
 10
143.6499390781
 20
110.45
 11
143.0725888089
 21
111.0273502692
  0
LINE
  5
48A
100
AcDbEntity
  8
0
100
AcDbLine
 62
250
  6
CONTINUOUS
 10
157.0415753908
 20
86.4300434098
 11
157.1149974766
 21
86.2216235187
  0
LINE
  5
48B
100
AcDbEntity
  8
ASSI
100
AcDbLine
 62
7
  6
CONTINUOUS
 10
145.8975972311
 20
126.1228134562
 11
145.8231847537
 21
126.5448275862
  0
LINE
  5
48C
100
AcDbEntity
  8
ASSI
100
AcDbLine
 62
7
  6
CONTINUOUS
 10
153.6879963523
 20
82.4047101128
 11
153.6866646971
 21
82.4183482898
  0
LINE
  5
48D
100
AcDbEntity
  8
ASSI
100
AcDbLine
 62
7
  6
CONTINUOUS
 10
153.6892346102
 20
82.3911292291
 11
153.6879963523
 21
82.4047101128
  0
LINE
  5
48E
100
AcDbEntity
  8
ASSI
100
AcDbLine
 62
7
  6
CONTINUOUS
 10
153.6903789213
 20
82.3776053455
 11
153.6892346102
 21
82.3911292291
  0
LWPOLYLINE
  5
48F
100
AcDbEntity
  8
ASSI
100
AcDbPolyline
 62
7
  6
CONTINUOUS
 90
3
 70
0
 10
153.6919152154
 20
82.3574240623
 10
153.6914270655
 20
82.3641371662
 10
153.6903789213
 20
82.3776053455
  0
LWPOLYLINE
  5
490
100
AcDbEntity
  8
ASSI
100
AcDbPolyline
 62
7
  6
CONTINUOUS
 90
19
 70
0
 10
150.2589996185
 20
115.0590605404
 10
150.2575563583
 20
115.0922813138
 10
150.2533556744
 20
115.1256320035
 10
150.2462579388
 20
115.1589645353
 10
150.2360385928
 20
115.1923212486
 10
150.2226580139
 20
115.2252717219
 10
150.2064017022
 20
115.2569619262
 10
150.1873950086
 20
115.2870757623
 10
150.1656451349
 20
115.3155415067
 10
150.1414525596
 20
115.3419423691
 10
150.1149130962
 20
115.3661545376
 10
150.0862176787
 20
115.3879775149
 10
150.0559209887
 20
115.4069940221
 10
150.0241359144
 20
115.4231751754
 10
149.9911546987
 20
115.4364433633
 10
149.9578896736
 20
115.4465348627
 10
149.9247919152
 20
115.4535117778
 10
149.8918004771
 20
115.4576143731
 10
149.8590605404
 20
115.4589996185
  0
LWPOLYLINE
  5
491
100
AcDbEntity
  8
ASSI
100
AcDbPolyline
 62
7
  6
CONTINUOUS
 90
19
 70
0
 10
150.2589996185
 20
120.0590605404
 10
150.2575563583
 20
120.0922813138
 10
150.2533556744
 20
120.1256320035
 10
150.2462579388
 20
120.1589645353
 10
150.2360385928
 20
120.1923212486
 10
150.2226580139
 20
120.2252717219
 10
150.2064017022
 20
120.2569619262
 10
150.1873950086
 20
120.2870757623
 10
150.1656451349
 20
120.3155415067
 10
150.1414525596
 20
120.3419423691
 10
150.1149130962
 20
120.3661545376
 10
150.0862176787
 20
120.3879775149
 10
150.0559209887
 20
120.4069940221
 10
150.0241359144
 20
120.4231751754
 10
149.9911546987
 20
120.4364433633
 10
149.9578896736
 20
120.4465348627
 10
149.9247919152
 20
120.4535117778
 10
149.8918004771
 20
120.4576143731
 10
149.8590605404
 20
120.4589996185
  0
LINE
  5
492
100
AcDbEntity
  8
ASSI
100
AcDbLine
 62
7
  6
CONTINUOUS
 10
152.2099152947
 20
81.5174550649
 11
152.2094401656
 21
81.5446751943
  0
LINE
  5
493
100
AcDbEntity
  8
ASSI
100
AcDbLine
 62
7
  6
CONTINUOUS
 10
152.148018981
 20
85.0634925008
 11
152.1464972322
 21
85.1506734349
  0
LINE
  5
494
100
AcDbEntity
  8
ASSI
100
AcDbLine
 62
250
  6
CONTINUOUS
 10
151.1597899075
 20
85.1892254182
 11
151.1599049256
 21
85.0634925008
  0
LINE
  5
495
100
AcDbEntity
  8
ASSI
100
AcDbLine
 62
250
  6
CONTINUOUS
 10
151.9087734253
 20
85.189889139
 11
151.9088890505
 21
85.0634925008
  0
LINE
  5
496
100
AcDbEntity
  8
ASSI
100
AcDbLine
 62
7
  6
CONTINUOUS
 10
150.8273502692
 20
120.6274111911
 11
150.8273502692
 21
116.9725888089
  0
LINE
  5
497
100
AcDbEntity
  8
ASSI
100
AcDbLine
 62
7
  6
CONTINUOUS
 10
150.8273502692
 20
115.6274111911
 11
150.8273502692
 21
111.9725888089
  0
LINE
  5
498
100
AcDbEntity
  8
ASSI
100
AcDbLine
 62
7
  6
CONTINUOUS
 10
150.8273502692
 20
110.6274111911
 11
150.8273502692
 21
106.9725888089
  0
LINE
  5
499
100
AcDbEntity
  8
ASSI
100
AcDbLine
 62
7
  6
CONTINUOUS
 10
151.6
 20
127.2
 11
151.6
 21
126.1720718961
  0
LINE
  5
49A
100
AcDbEntity
  8
ASSI
100
AcDbLine
 62
7
  6
CONTINUOUS
 10
151.6
 20
83.8279281039
 11
151.6
 21
82.8
  0
LINE
  5
49B
100
AcDbEntity
  8
CURVE
100
AcDbLine
 62
250
  6
CONTINUOUS
 10
151.6
 20
108.275000006
 11
151.6
 21
108.9535714507
  0
LINE
  5
49C
100
AcDbEntity
  8
ASSI
100
AcDbLine
 62
7
  6
CONTINUOUS
 10
152.0
 20
124.9365074992
 11
152.0
 21
124.8389072728
  0
LINE
  5
49D
100
AcDbEntity
  8
ASSI
100
AcDbLine
 62
7
  6
CONTINUOUS
 10
152.0
 20
85.1610927272
 11
152.0
 21
85.0634925008
  0
LINE
  5
49E
100
AcDbEntity
  8
ASSI
100
AcDbLine
 62
250
  6
CONTINUOUS
 10
151.1599049256
 20
124.9365074992
 11
151.1597899075
 21
124.8107745818
  0
LINE
  5
49F
100
AcDbEntity
  8
ASSI
100
AcDbLine
 62
250
  6
CONTINUOUS
 10
151.9088890505
 20
124.9365074992
 11
151.9087734253
 21
124.810110861
  0
LINE
  5
4A0
100
AcDbEntity
  8
ASSI
100
AcDbLine
 62
7
  6
CONTINUOUS
 10
152.2099152947
 20
128.4825449351
 11
152.2094401656
 21
128.4553248057
  0
LINE
  5
4A1
100
AcDbEntity
  8
ASSI
100
AcDbLine
 62
7
  6
CONTINUOUS
 10
152.148018981
 20
124.9365074992
 11
152.1464972322
 21
124.8493265651
  0
LINE
  5
4A2
100
AcDbEntity
  8
ASSI
100
AcDbLine
 62
7
  6
CONTINUOUS
 10
153.6919152154
 20
127.6425759377
 11
153.6909149676
 21
127.6291357377
  0
LINE
  5
4A3
100
AcDbEntity
  8
ASSI
100
AcDbLine
 62
7
  6
CONTINUOUS
 10
153.6909149676
 20
127.6291357377
 11
153.6898187404
 21
127.6156397009
  0
LINE
  5
4A4
100
AcDbEntity
  8
ASSI
100
AcDbLine
 62
7
  6
CONTINUOUS
 10
153.6898187404
 20
127.6156397009
 11
153.688627086
 21
127.602087535
  0
LWPOLYLINE
  5
4A5
100
AcDbEntity
  8
ASSI
100
AcDbPolyline
 62
7
  6
CONTINUOUS
 90
3
 70
0
 10
153.688627086
 20
127.602087535
 10
153.687342223
 20
127.5884779439
 10
153.6866646971
 20
127.5816517102
  0
LINE
  5
4A6
100
AcDbEntity
  8
ASSI
100
AcDbLine
 62
7
  6
CONTINUOUS
 10
144.531823223
 20
81.5174550649
 11
144.5473154455
 21
81.5698202597
  0
LINE
  5
4A7
100
AcDbEntity
  8
ASSI
100
AcDbLine
 62
7
  6
CONTINUOUS
 10
158.1325449351
 20
125.8475922207
 11
157.9946499221
 21
125.4335707644
  0
LWPOLYLINE
  5
4A8
100
AcDbEntity
  8
ASSI
100
AcDbPolyline
 62
7
  6
CONTINUOUS
 90
43
 70
0
 10
141.9255400365
 20
85.258575216
 10
141.9250846078
 20
85.257623245
 10
141.9246929067
 20
85.255589749
 10
141.9243649333
 20
85.2524864979
 10
141.9240533941
 20
85.2483162574
 10
141.9238055825
 20
85.2431014249
 10
141.9237633787
 20
85.2369090419
 10
141.9239187329
 20
85.2297714958
 10
141.9242796949
 20
85.2217393231
 10
141.925012294
 20
85.2129629948
 10
141.9261346786
 20
85.2035268875
 10
141.9276287002
 20
85.1934958468
 10
141.9296059424
 20
85.1830417394
 10
141.9320903983
 20
85.1722790563
 10
141.9350580748
 20
85.161266998
 10
141.9385485761
 20
85.1501134848
 10
141.9425743894
 20
85.1389156288
 10
141.9471230275
 20
85.1277275289
 10
141.9521966331
 20
85.1165860556
 10
141.9577973011
 20
85.1055547942
 10
141.9639229365
 20
85.0946844011
 10
141.9705693975
 20
85.0839787478
 10
141.9777365001
 20
85.0734743866
 10
141.9854244282
 20
85.0632175155
 10
141.9936295916
 20
85.0532158775
 10
142.0023544284
 20
85.043490953
 10
142.0115965005
 20
85.0340822084
 10
142.0213449028
 20
85.0250186675
 10
142.0316068349
 20
85.0163146093
 10
142.0423750973
 20
85.0080020531
 10
142.0536171855
 20
85.0001344098
 10
142.0653447968
 20
84.992723965
 10
142.0775462339
 20
84.9857940885
 10
142.0901539018
 20
84.9794141647
 10
142.1031808954
 20
84.9735976854
 10
142.1166141197
 20
84.9683577809
 10
142.1303466943
 20
84.9637627189
 10
142.1443884134
 20
84.9598274167
 10
142.1587294829
 20
84.9565548045
 10
142.1732336397
 20
84.9539939356
 10
142.187855463
 20
84.9521642647
 10
142.2026403737
 20
84.951055303
 10
142.2175883717
 20
84.9506692427
  0
LINE
  5
4A9
100
AcDbEntity
  8
CURVE
100
AcDbLine
 62
250
  6
CONTINUOUS
 10
156.3
 20
109.4595235944
 11
156.0571428463
 21
109.216666466
  0
LINE
  5
4AA
100
AcDbEntity
  8
ASSI
100
AcDbLine
 62
7
  6
CONTINUOUS
 10
158.9706933414
 20
106.7495920486
 11
159.0716692421
 21
106.8000761539
  0
LINE
  5
4AB
100
AcDbEntity
  8
CURVE
100
AcDbLine
 62
250
  6
CONTINUOUS
 10
159.536542078
 20
107.2750001311
 11
159.5138504936
 21
107.2750001311
  0
LINE
  5
4AC
100
AcDbEntity
  8
IMPORT_IGES
100
AcDbLine
 62
7
  6
CONTINUOUS
 10
149.424
 20
107.4
 11
144.324
 21
107.4
  0
LINE
  5
4AD
100
AcDbEntity
  8
CURVE
100
AcDbLine
 62
250
  6
CONTINUOUS
 10
159.5016319481
 20
107.5380952358
 11
159.4789403637
 21
107.5380952358
  0
LINE
  5
4AE
100
AcDbEntity
  8
CURVE
100
AcDbLine
 62
250
  6
CONTINUOUS
 10
159.5203338037
 20
107.6464286804
 11
159.5170921486
 21
107.6464286804
  0
LINE
  5
4AF
100
AcDbEntity
  8
CURVE
100
AcDbLine
 62
250
  6
CONTINUOUS
 10
153.5
 20
108.275000006
 11
151.6
 21
108.275000006
  0
LINE
  5
4B0
100
AcDbEntity
  8
CURVE
100
AcDbLine
 62
250
  6
CONTINUOUS
 10
159.5333004232
 20
108.2964286804
 11
159.5300587685
 21
108.2964286804
  0
LINE
  5
4B1
100
AcDbEntity
  8
CURVE
100
AcDbLine
 62
250
  6
CONTINUOUS
 10
154.6
 20
108.609523645
 11
156.3
 21
108.609523645
  0
LINE
  5
4B2
100
AcDbEntity
  8
CURVE
100
AcDbLine
 62
250
  6
CONTINUOUS
 10
159.4405392209
 20
108.625004
 11
159.4223724431
 21
108.625004
  0
LINE
  5
4B3
100
AcDbEntity
  8
CURVE
100
AcDbLine
 62
250
  6
CONTINUOUS
 10
159.4108242071
 20
108.625004
 11
159.3925375654
 21
108.625004
  0
LINE
  5
4B4
100
AcDbEntity
  8
CURVE
100
AcDbLine
 62
250
  6
CONTINUOUS
 10
159.3670646182
 20
108.6250038121
 11
159.3576282106
 21
108.6250038121
  0
LINE
  5
4B5
100
AcDbEntity
  8
CURVE
100
AcDbLine
 62
250
  6
CONTINUOUS
 10
159.3467188317
 20
108.6250038121
 11
159.3358088313
 21
108.6250038121
  0
LINE
  5
4B6
100
AcDbEntity
  8
CURVE
100
AcDbLine
 62
250
  6
CONTINUOUS
 10
155.8142856926
 20
109.0952379525
 11
155.0857142568
 21
109.0952379525
  0
LINE
  5
4B7
100
AcDbEntity
  8
ASSI
100
AcDbLine
 62
7
  6
CONTINUOUS
 10
158.9706933414
 20
103.7005607713
 11
159.1940301785
 21
103.5889008572
  0
LINE
  5
4B8
100
AcDbEntity
  8
ASSI
100
AcDbLine
 62
250
  6
CONTINUOUS
 10
149.8500609219
 20
107.15
 11
150.4274111911
 21
106.5726497308
  0
LINE
  5
4B9
100
AcDbEntity
  8
ASSI
100
AcDbLine
 62
250
  6
CONTINUOUS
 10
150.25
 20
107.5499390781
 11
150.8273502692
 21
106.9725888089
  0
LINE
  5
4BA
100
AcDbEntity
  8
ASSI
100
AcDbLine
 62
250
  6
CONTINUOUS
 10
143.25
 20
115.0500609219
 11
142.6726497308
 21
115.6274111911
  0
LINE
  5
4BB
100
AcDbEntity
  8
ASSI
100
AcDbLine
 62
250
  6
CONTINUOUS
 10
143.6499390781
 20
115.45
 11
143.0725888089
 21
116.0273502692
  0
LWPOLYLINE
  5
4BC
100
AcDbEntity
  8
ASSI
100
AcDbPolyline
 62
7
  6
CONTINUOUS
 90
10
 70
0
 10
142.0741801971
 20
124.5928303149
 10
142.0748669171
 20
124.5913422266
 10
142.0755500112
 20
124.5883328153
 10
142.0762294793
 20
124.583802081
 10
142.0769063578
 20
124.5777400324
 10
142.0775796103
 20
124.5701566608
 10
142.0782461278
 20
124.5610819402
 10
142.0789058785
 20
124.5505072794
 10
142.0795588942
 20
124.5384412697
 10
142.080202161
 20
124.5249396588
  0
LINE
  5
4BD
100
AcDbEntity
  8
ASSI
100
AcDbLine
 62
7
  6
CONTINUOUS
 10
157.9946499221
 20
84.5664292356
 11
158.1325449351
 21
84.1524077793
  0
LINE
  5
4BE
100
AcDbEntity
  8
ASSI
100
AcDbLine
 62
7
  6
CONTINUOUS
 10
144.531823223
 20
128.4825449351
 11
144.5473154455
 21
128.4301797403
  0
LINE
  5
4BF
100
AcDbEntity
  8
ASSI
100
AcDbLine
 62
7
  6
CONTINUOUS
 10
154.919797839
 20
85.4750603396
 11
154.9185406421
 21
85.5063836419
  0
LINE
  5
4C0
100
AcDbEntity
  8
ASSI
100
AcDbLine
 62
7
  6
CONTINUOUS
 10
152.4017247226
 20
126.2
 11
152.4044201361
 21
126.1228134562
  0
LINE
  5
4C1
100
AcDbEntity
  8
ASSI
100
AcDbLine
 62
7
  6
CONTINUOUS
 10
154.9185406421
 20
85.5063836419
 11
154.9173311328
 21
85.5432286424
  0
LWPOLYLINE
  5
4C2
100
AcDbEntity
  8
ASSI
100
AcDbPolyline
 62
7
  6
CONTINUOUS
 90
3
 70
0
 10
154.9173311328
 20
85.5432286424
 10
154.9161748918
 20
85.585425159
 10
154.9158231934
 20
85.6
  0
LINE
  5
4C3
100
AcDbEntity
  8
ASSI
100
AcDbLine
 62
7
  6
CONTINUOUS
 10
154.3274579565
 20
85.5849270509
 11
154.3256735332
 21
85.6871565952
  0
LINE
  5
4C4
100
AcDbEntity
  8
CURVE
100
AcDbLine
 62
250
  6
CONTINUOUS
 10
152.6857142776
 20
108.9535714507
 11
152.6857142776
 21
108.275000006
  0
LINE
  5
4C5
100
AcDbEntity
  8
CURVE
100
AcDbLine
 62
250
  6
CONTINUOUS
 10
153.5
 20
118.4107142985
 11
153.5
 21
119.0892857432
  0
LINE
  5
4C6
100
AcDbEntity
  8
ASSI
100
AcDbLine
 62
7
  6
CONTINUOUS
 10
154.5
 20
85.2047303896
 11
154.5
 21
85.6
  0
LINE
  5
4C7
100
AcDbEntity
  8
ASSI
100
AcDbLine
 62
7
  6
CONTINUOUS
 10
154.5
 20
124.4
 11
154.5
 21
124.7952696104
  0
LINE
  5
4C8
100
AcDbEntity
  8
ASSI
100
AcDbLine
 62
7
  6
CONTINUOUS
 10
154.3274579565
 20
124.4150729491
 11
154.3256735332
 21
124.3128434048
  0
LINE
  5
4C9
100
AcDbEntity
  8
ASSI
100
AcDbLine
 62
7
  6
CONTINUOUS
 10
154.9158231934
 20
124.4
 11
154.9167453477
 21
124.4363058074
  0
LINE
  5
4CA
100
AcDbEntity
  8
ASSI
100
AcDbLine
 62
7
  6
CONTINUOUS
 10
154.9167453477
 20
124.4363058074
 11
154.9179295447
 21
124.4758769673
  0
LINE
  5
4CB
100
AcDbEntity
  8
ASSI
100
AcDbLine
 62
7
  6
CONTINUOUS
 10
152.4017247226
 20
83.8
 11
152.4044201361
 21
83.8771865438
  0
LWPOLYLINE
  5
4CC
100
AcDbEntity
  8
ASSI
100
AcDbPolyline
 62
7
  6
CONTINUOUS
 90
12
 70
0
 10
154.9179295447
 20
124.4758769673
 10
154.9191643661
 20
124.5099958082
 10
154.919797839
 20
124.5249396588
 10
154.9204411058
 20
124.5384412697
 10
154.9210941215
 20
124.5505072794
 10
154.9217538722
 20
124.5610819402
 10
154.9224203897
 20
124.5701566608
 10
154.9230936422
 20
124.5777400324
 10
154.9237705207
 20
124.583802081
 10
154.9244499888
 20
124.5883328153
 10
154.9251330829
 20
124.5913422266
 10
154.9258198029
 20
124.5928303149
  0
LINE
  5
4CD
100
AcDbEntity
  8
ASSI
100
AcDbLine
 62
7
  6
CONTINUOUS
 10
155.2709460779
 20
105.5209460779
 11
155.757965328
 21
106.007965328
  0
LINE
  5
4CE
100
AcDbEntity
  8
ASSI
100
AcDbLine
 62
7
  6
CONTINUOUS
 10
157.9929160262
 20
106.7571355367
 11
158.0358566434
 21
106.8000761539
  0
LINE
  5
4CF
100
AcDbEntity
  8
ASSI
100
AcDbLine
 62
7
  6
CONTINUOUS
 10
155.25
 20
103.8139640519
 11
155.2796736104
 21
103.8436376623
  0
LWPOLYLINE
  5
4D0
100
AcDbEntity
  8
CURVE
100
AcDbPolyline
 62
250
  6
CONTINUOUS
 90
14
 70
0
 10
159.3670646182
 20
107.125008861
 10
159.3672362314
 20
107.1251714887
 10
159.3674065422
 20
107.1256565371
 10
159.3675759855
 20
107.1264597533
 10
159.3677449963
 20
107.1275768848
 10
159.3679140096
 20
107.129003679
 10
159.3680833781
 20
107.1307374889
 10
159.3682531242
 20
107.1327820898
 10
159.3684231883
 20
107.1351428625
 10
159.3685935104
 20
107.137825188
 10
159.3687640308
 20
107.1408344471
 10
159.3689346308
 20
107.1441743951
 10
159.3691049569
 20
107.147842285
 10
159.369443138
 20
107.1561443999
  0
LINE
  5
4D1
100
AcDbEntity
  8
ASSI
100
AcDbLine
 62
7
  6
CONTINUOUS
 10
155.279674275
 20
102.4003593119
 11
155.25
 21
102.3855233043
  0
LINE
  5
4D2
100
AcDbEntity
  8
ASSI
100
AcDbLine
 62
250
  6
CONTINUOUS
 10
157.7716026623
 20
111.7543216904
 11
157.6917064336
 21
111.7410174856
  0
LINE
  5
4D3
100
AcDbEntity
  8
ASSI
100
AcDbLine
 62
250
  6
CONTINUOUS
 10
157.4700436002
 20
112.0539821922
 11
157.3914319313
 21
112.0408918905
  0
LWPOLYLINE
  5
4D4
100
AcDbEntity
  8
ASSI
100
AcDbPolyline
 62
7
  6
CONTINUOUS
 90
19
 70
0
 10
143.6409394596
 20
110.4589996185
 10
143.6077186862
 20
110.4575563583
 10
143.5743679965
 20
110.4533556744
 10
143.5410354647
 20
110.4462579388
 10
143.5076787514
 20
110.4360385928
 10
143.4747282781
 20
110.4226580139
 10
143.4430380738
 20
110.4064017022
 10
143.4129242377
 20
110.3873950086
 10
143.3844584933
 20
110.3656451349
 10
143.3580576309
 20
110.3414525596
 10
143.3338454624
 20
110.3149130962
 10
143.3120224851
 20
110.2862176787
 10
143.2930059779
 20
110.2559209887
 10
143.2768248246
 20
110.2241359144
 10
143.2635566367
 20
110.1911546987
 10
143.2534651373
 20
110.1578896736
 10
143.2464882222
 20
110.1247919152
 10
143.2423856269
 20
110.0918004771
 10
143.2410003815
 20
110.0590605404
  0
LINE
  5
4D5
100
AcDbEntity
  8
CURVE
100
AcDbLine
 62
250
  6
CONTINUOUS
 10
151.8714285553
 20
109.225000006
 11
152.4142856658
 21
109.225000006
  0
LINE
  5
4D6
100
AcDbEntity
  8
CURVE
100
AcDbLine
 62
250
  6
CONTINUOUS
 10
159.3925375654
 20
109.250002
 11
159.4405392209
 21
109.250002
  0
LINE
  5
4D7
100
AcDbEntity
  8
CURVE
100
AcDbLine
 62
250
  6
CONTINUOUS
 10
159.3358088313
 20
109.2500019129
 11
159.3672112915
 21
109.2500019129
  0
LINE
  5
4D8
100
AcDbEntity
  8
CURVE
100
AcDbLine
 62
250
  6
CONTINUOUS
 10
159.5780619259
 20
109.30544429
 11
159.5777628434
 21
109.30544429
  0
LINE
  5
4D9
100
AcDbEntity
  8
CURVE
100
AcDbLine
 62
250
  6
CONTINUOUS
 10
159.3729007556
 20
109.7499912036
 11
159.3838101706
 21
109.7499912036
  0
LINE
  5
4DA
100
AcDbEntity
  8
CURVE
100
AcDbLine
 62
250
  6
CONTINUOUS
 10
159.3358088313
 20
109.7499912036
 11
159.3467182463
 21
109.7499912036
  0
LINE
  5
4DB
100
AcDbEntity
  8
CURVE
100
AcDbLine
 62
250
  6
CONTINUOUS
 10
159.4091370882
 20
109.7499912036
 11
159.4405389752
 21
109.7499912036
  0
LINE
  5
4DC
100
AcDbEntity
  8
CURVE
100
AcDbLine
 62
250
  6
CONTINUOUS
 10
155.0857142568
 20
109.9452378511
 11
155.8142856926
 21
109.9452378511
  0
LINE
  5
4DD
100
AcDbEntity
  8
CURVE
100
AcDbLine
 62
250
  6
CONTINUOUS
 10
140.7
 20
110.0
 11
141.3071428463
 21
110.0
  0
LINE
  5
4DE
100
AcDbEntity
  8
IMPORT_IGES
100
AcDbLine
 62
7
  6
CONTINUOUS
 10
144.324
 20
110.2
 11
149.424
 21
110.2
  0
LINE
  5
4DF
100
AcDbEntity
  8
CURVE
100
AcDbLine
 62
250
  6
CONTINUOUS
 10
159.5739442284
 20
110.2587313832
 11
159.5541368471
 21
110.2587313832
  0
LINE
  5
4E0
100
AcDbEntity
  8
CURVE
100
AcDbLine
 62
250
  6
CONTINUOUS
 10
159.5961279489
 20
110.2788012718
 11
159.582233519
 21
110.2788012718
  0
LINE
  5
4E1
100
AcDbEntity
  8
CURVE
100
AcDbLine
 62
250
  6
CONTINUOUS
 10
159.4405389752
 20
110.3749981263
 11
159.4092837392
 21
110.3749981263
  0
LINE
  5
4E2
100
AcDbEntity
  8
CURVE
100
AcDbLine
 62
250
  6
CONTINUOUS
 10
155.8142856926
 20
110.4309521079
 11
155.0857142568
 21
110.4309521079
  0
LINE
  5
4E3
100
AcDbEntity
  8
ASSI
100
AcDbLine
 62
7
  6
CONTINUOUS
 10
143.6499390781
 20
110.45
 11
149.8500609219
 21
110.45
  0
LINE
  5
4E4
100
AcDbEntity
  8
ASSI
100
AcDbLine
 62
7
  6
CONTINUOUS
 10
143.6409394596
 20
110.4589996185
 11
149.8590605404
 21
110.4589996185
  0
LINE
  5
4E5
100
AcDbEntity
  8
ASSI
100
AcDbLine
 62
250
  6
CONTINUOUS
 10
158.0358566434
 20
110.7999238461
 11
159.0716692421
 21
110.7999238461
  0
LINE
  5
4E6
100
AcDbEntity
  8
CURVE
100
AcDbLine
 62
250
  6
CONTINUOUS
 10
141.3071428463
 20
110.85
 11
140.8214285642
 21
110.85
  0
LINE
  5
4E7
100
AcDbEntity
  8
ASSI
100
AcDbLine
 62
7
  6
CONTINUOUS
 10
157.9708456462
 20
110.8589825144
 11
157.6917064336
 21
110.8589825144
  0
LINE
  5
4E8
100
AcDbEntity
  8
CURVE
100
AcDbLine
 62
250
  6
CONTINUOUS
 10
159.5541368471
 20
110.8615673444
 11
159.604159148
 21
110.8615673444
  0
LINE
  5
4E9
100
AcDbEntity
  8
ASSI
100
AcDbLine
 62
7
  6
CONTINUOUS
 10
143.0725888089
 20
111.0273502692
 11
150.4274111911
 21
111.0273502692
  0
LINE
  5
4EA
100
AcDbEntity
  8
CURVE
100
AcDbLine
 62
250
  6
CONTINUOUS
 10
152.4142856658
 20
109.225000006
 11
152.6857142776
 21
108.9535714507
  0
LINE
  5
4EB
100
AcDbEntity
  8
ASSI
100
AcDbLine
 62
250
  6
CONTINUOUS
 10
149.8500609219
 20
112.15
 11
150.4274111911
 21
111.5726497308
  0
LINE
  5
4EC
100
AcDbEntity
  8
ASSI
100
AcDbLine
 62
7
  6
CONTINUOUS
 10
155.8855725326
 20
84.3098075485
 11
155.8830351795
 21
84.4551724138
  0
LINE
  5
4ED
100
AcDbEntity
  8
CURVE
100
AcDbLine
 62
250
  6
CONTINUOUS
 10
154.6
 20
113.5880948782
 11
154.6
 21
113.2238093376
  0
LINE
  5
4EE
100
AcDbEntity
  8
CURVE
100
AcDbLine
 62
250
  6
CONTINUOUS
 10
154.6
 20
109.4595235944
 11
154.6
 21
109.5809522092
  0
LINE
  5
4EF
100
AcDbEntity
  8
CURVE
100
AcDbLine
 62
250
  6
CONTINUOUS
 10
154.6
 20
110.7952378511
 11
154.6
 21
110.9166665673
  0
LINE
  5
4F0
100
AcDbEntity
  8
CURVE
100
AcDbLine
 62
250
  6
CONTINUOUS
 10
154.6
 20
116.0166663647
 11
154.6
 21
116.1380952835
  0
LINE
  5
4F1
100
AcDbEntity
  8
ASSI
100
AcDbLine
 62
7
  6
CONTINUOUS
 10
154.7880445822
 20
124.4550550942
 11
154.7880445822
 21
124.4
  0
LINE
  5
4F2
100
AcDbEntity
  8
ASSI
100
AcDbLine
 62
7
  6
CONTINUOUS
 10
154.7880445822
 20
85.5449449058
 11
154.7880445822
 21
85.6
  0
LINE
  5
4F3
100
AcDbEntity
  8
0
100
AcDbLine
 62
7
  6
CONTINUOUS
 10
155.15
 20
104.65
 11
155.15
 21
102.95
  0
LINE
  5
4F4
100
AcDbEntity
  8
SMUSSO
100
AcDbLine
 62
7
  6
CONTINUOUS
 10
155.15
 20
102.95
 11
155.15
 21
102.15
  0
LINE
  5
4F5
100
AcDbEntity
  8
ASSI
100
AcDbLine
 62
7
  6
CONTINUOUS
 10
155.25
 20
102.3855233043
 11
155.25
 21
103.8139640519
  0
LINE
  5
4F6
100
AcDbEntity
  8
ASSI
100
AcDbLine
 62
7
  6
CONTINUOUS
 10
155.2796736104
 20
105.5296736104
 11
155.2796736104
 21
103.8436376623
  0
LINE
  5
4F7
100
AcDbEntity
  8
ASSI
100
AcDbLine
 62
7
  6
CONTINUOUS
 10
155.2857846111
 20
105.5357846111
 11
155.2857846111
 21
102.7534884982
  0
LINE
  5
4F8
100
AcDbEntity
  8
CURVE
100
AcDbLine
 62
250
  6
CONTINUOUS
 10
155.6928571284
 20
111.7666663647
 11
155.6928571284
 21
112.4952378511
  0
LINE
  5
4F9
100
AcDbEntity
  8
ASSI
100
AcDbLine
 62
7
  6
CONTINUOUS
 10
155.757965328
 20
106.007965328
 11
155.757965328
 21
103.4090858474
  0
LINE
  5
4FA
100
AcDbEntity
  8
ASSI
100
AcDbLine
 62
7
  6
CONTINUOUS
 10
155.8830351795
 20
84.4551724138
 11
155.8830351795
 21
84.7586513684
  0
LINE
  5
4FB
100
AcDbEntity
  8
ASSI
100
AcDbLine
 62
7
  6
CONTINUOUS
 10
155.8830351795
 20
125.2413486316
 11
155.8830351795
 21
125.5448275862
  0
LINE
  5
4FC
100
AcDbEntity
  8
CURVE
100
AcDbLine
 62
250
  6
CONTINUOUS
 10
155.9357142821
 20
115.1666663647
 11
155.9357142821
 21
114.3166663647
  0
LINE
  5
4FD
100
AcDbEntity
  8
ASSI
100
AcDbLine
 62
7
  6
CONTINUOUS
 10
156.1780257768
 20
125.4335707644
 11
156.1780257768
 21
124.4
  0
LINE
  5
4FE
100
AcDbEntity
  8
ASSI
100
AcDbLine
 62
7
  6
CONTINUOUS
 10
156.1780257768
 20
85.6
 11
156.1780257768
 21
84.5664292356
  0
LINE
  5
4FF
100
AcDbEntity
  8
CURVE
100
AcDbLine
 62
250
  6
CONTINUOUS
 10
156.3
 20
116.1380952835
 11
156.3
 21
116.0166663647
  0
LINE
  5
500
100
AcDbEntity
  8
CURVE
100
AcDbLine
 62
250
  6
CONTINUOUS
 10
156.3
 20
113.8309523106
 11
156.3
 21
112.9809523106
  0
LINE
  5
501
100
AcDbEntity
  8
CURVE
100
AcDbLine
 62
250
  6
CONTINUOUS
 10
156.3
 20
110.9166665673
 11
156.3
 21
110.7952378511
  0
LINE
  5
502
100
AcDbEntity
  8
CURVE
100
AcDbLine
 62
250
  6
CONTINUOUS
 10
156.3
 20
109.5809522092
 11
156.3
 21
109.4595235944
  0
LINE
  5
503
100
AcDbEntity
  8
SUPERFICI
100
AcDbLine
 62
250
  6
CONTINUOUS
 10
156.3254487874
 20
87.1279149772
 11
156.3254487874
 21
86.128067282
  0
LINE
  5
504
100
AcDbEntity
  8
ASSI
100
AcDbLine
 62
7
  6
CONTINUOUS
 10
155.279674275
 20
102.4003593119
 11
155.2857846111
 21
102.7534884982
  0
LINE
  5
505
100
AcDbEntity
  8
ASSI
100
AcDbLine
 62
7
  6
CONTINUOUS
 10
155.8855725326
 20
125.6901924515
 11
155.8830351795
 21
125.5448275862
  0
LINE
  5
506
100
AcDbEntity
  8
ASSI
100
AcDbLine
 62
7
  6
CONTINUOUS
 10
145.8231847537
 20
83.4551724138
 11
145.4881634904
 21
82.8
  0
LWPOLYLINE
  5
507
100
AcDbEntity
  8
CURVE
100
AcDbPolyline
 62
250
  6
CONTINUOUS
 90
13
 70
0
 10
159.5900988563
 20
109.4627200261
 10
159.5902963368
 20
109.4630800569
 10
159.5904925863
 20
109.463800843
 10
159.5906876789
 20
109.4648759983
 10
159.5908816885
 20
109.4662991368
 10
159.5910746891
 20
109.4680638726
 10
159.5912667546
 20
109.4701638198
 10
159.5914579111
 20
109.4725930931
 10
159.5916479918
 20
109.4753478116
 10
159.5918367823
 20
109.478424595
 10
159.592024068
 20
109.4818200631
 10
159.5922096342
 20
109.4855308356
 10
159.5925747539
 20
109.4938848015
  0
LINE
  5
508
100
AcDbEntity
  8
ASSI
100
AcDbLine
 62
7
  6
CONTINUOUS
 10
155.757965328
 20
103.4090858474
 11
155.2857846111
 21
102.7534884982
  0
LINE
  5
509
100
AcDbEntity
  8
ASSI
100
AcDbLine
 62
250
  6
CONTINUOUS
 10
156.4254750544
 20
102.4003593119
 11
157.4081348995
 21
103.4090858474
  0
LINE
  5
50A
100
AcDbEntity
  8
CURVE
100
AcDbLine
 62
7
  6
CONTINUOUS
 10
159.554008768
 20
106.2105738315
 11
159.604628753
 21
106.2611938165
  0
LINE
  5
50B
100
AcDbEntity
  8
CURVE
100
AcDbLine
 62
7
  6
CONTINUOUS
 10
159.554008768
 20
106.0005631175
 11
159.604628753
 21
106.0511831025
  0
LINE
  5
50C
100
AcDbEntity
  8
CURVE
100
AcDbLine
 62
7
  6
CONTINUOUS
 10
159.5926833272
 20
105.8292269627
 11
159.6039605527
 21
105.8405041882
  0
LINE
  5
50D
100
AcDbEntity
  8
CURVE
100
AcDbLine
 62
7
  6
CONTINUOUS
 10
159.5868969391
 20
105.6134298605
 11
159.5981598142
 21
105.6246927356
  0
LINE
  5
50E
100
AcDbEntity
  8
CURVE
100
AcDbLine
 62
7
  6
CONTINUOUS
 10
159.581110551
 20
105.3976327584
 11
159.5923590756
 21
105.408881283
  0
LINE
  5
50F
100
AcDbEntity
  8
CURVE
100
AcDbLine
 62
7
  6
CONTINUOUS
 10
159.5753241629
 20
105.1818356563
 11
159.586558337
 21
105.1930698304
  0
LINE
  5
510
100
AcDbEntity
  8
CURVE
100
AcDbLine
 62
7
  6
CONTINUOUS
 10
159.5695377747
 20
104.9660385542
 11
159.5807575984
 21
104.9772583778
  0
LINE
  5
511
100
AcDbEntity
  8
ASSI
100
AcDbLine
 62
250
  6
CONTINUOUS
 10
138.4715599308
 20
87.8638314413
 11
139.2502809898
 21
88.4909589602
  0
LWPOLYLINE
  5
512
100
AcDbEntity
  8
ASSI
100
AcDbPolyline
 62
7
  6
CONTINUOUS
 90
19
 70
0
 10
149.8590605404
 20
112.1410003815
 10
149.8922813138
 20
112.1424436417
 10
149.9256320035
 20
112.1466443256
 10
149.9589645353
 20
112.1537420612
 10
149.9923212486
 20
112.1639614072
 10
150.0252717219
 20
112.1773419861
 10
150.0569619262
 20
112.1935982978
 10
150.0870757623
 20
112.2126049914
 10
150.1155415067
 20
112.2343548651
 10
150.1419423691
 20
112.2585474404
 10
150.1661545376
 20
112.2850869038
 10
150.1879775149
 20
112.3137823213
 10
150.2069940221
 20
112.3440790113
 10
150.2231751754
 20
112.3758640856
 10
150.2364433633
 20
112.4088453013
 10
150.2465348627
 20
112.4421103264
 10
150.2535117778
 20
112.4752080848
 10
150.2576143731
 20
112.5081995229
 10
150.2589996185
 20
112.5409394596
  0
LINE
  5
513
100
AcDbEntity
  8
CURVE
100
AcDbLine
 62
250
  6
CONTINUOUS
 10
155.0857142568
 20
111.2809521079
 11
155.8142856926
 21
111.2809521079
  0
LINE
  5
514
100
AcDbEntity
  8
CURVE
100
AcDbLine
 62
250
  6
CONTINUOUS
 10
141.55
 20
111.3357142568
 11
140.3357142568
 21
111.3357142568
  0
LINE
  5
515
100
AcDbEntity
  8
ASSI
100
AcDbLine
 62
7
  6
CONTINUOUS
 10
150.4274111911
 20
111.5726497308
 11
143.0725888089
 21
111.5726497308
  0
LINE
  5
516
100
AcDbEntity
  8
ASSI
100
AcDbLine
 62
7
  6
CONTINUOUS
 10
157.9708456462
 20
111.7410174856
 11
157.6917064336
 21
111.7410174856
  0
LINE
  5
517
100
AcDbEntity
  8
ASSI
100
AcDbLine
 62
250
  6
CONTINUOUS
 10
158.0358566434
 20
111.8000761539
 11
159.0716692421
 21
111.8000761539
  0
LINE
  5
518
100
AcDbEntity
  8
CURVE
100
AcDbLine
 62
250
  6
CONTINUOUS
 10
140.3357142568
 20
111.8619047523
 11
141.55
 21
111.8619047523
  0
LINE
  5
519
100
AcDbEntity
  8
CURVE
100
AcDbLine
 62
250
  6
CONTINUOUS
 10
159.3527798755
 20
111.8749930774
 11
159.3668391711
 21
111.8749930774
  0
LINE
  5
51A
100
AcDbEntity
  8
CURVE
100
AcDbLine
 62
250
  6
CONTINUOUS
 10
159.4092837392
 20
111.8749930774
 11
159.4405389752
 21
111.8749930774
  0
LINE
  5
51B
100
AcDbEntity
  8
ASSI
100
AcDbLine
 62
7
  6
CONTINUOUS
 10
149.8590605404
 20
112.1410003815
 11
143.6409394596
 21
112.1410003815
  0
LINE
  5
51C
100
AcDbEntity
  8
ASSI
100
AcDbLine
 62
7
  6
CONTINUOUS
 10
149.8500609219
 20
112.15
 11
143.6499390781
 21
112.15
  0
LINE
  5
51D
100
AcDbEntity
  8
IMPORT_IGES
100
AcDbLine
 62
7
  6
CONTINUOUS
 10
149.424
 20
112.4
 11
144.324
 21
112.4
  0
LINE
  5
51E
100
AcDbEntity
  8
CURVE
100
AcDbLine
 62
250
  6
CONTINUOUS
 10
140.4571428716
 20
112.4285714865
 11
141.55
 21
112.4285714865
  0
LINE
  5
51F
100
AcDbEntity
  8
CURVE
100
AcDbLine
 62
250
  6
CONTINUOUS
 10
159.3668391711
 20
112.5
 11
159.3527798755
 21
112.5
  0
LINE
  5
520
100
AcDbEntity
  8
CURVE
100
AcDbLine
 62
250
  6
CONTINUOUS
 10
159.4405389752
 20
112.5
 11
159.4091370882
 21
112.5
  0
LINE
  5
521
100
AcDbEntity
  8
CURVE
100
AcDbLine
 62
250
  6
CONTINUOUS
 10
141.55
 20
112.9142857432
 11
140.3357142568
 21
112.9142857432
  0
LWPOLYLINE
  5
522
100
AcDbEntity
  8
ASSI
100
AcDbPolyline
 62
7
  6
CONTINUOUS
 90
7
 70
0
 10
157.7716026623
 20
111.7543216904
 10
157.750059362
 20
111.7549163524
 10
157.7284172353
 20
111.7571465639
 10
157.7067854955
 20
111.7610123247
 10
157.6852657323
 20
111.7665136349
 10
157.6639517268
 20
111.7736504945
 10
157.6429293531
 20
111.7824229035
  0
LINE
  5
523
100
AcDbEntity
  8
ASSI
100
AcDbLine
 62
250
  6
CONTINUOUS
 10
157.3914319313
 20
110.5591081095
 11
157.4700436002
 21
110.5460178078
  0
LINE
  5
524
100
AcDbEntity
  8
ASSI
100
AcDbLine
 62
250
  6
CONTINUOUS
 10
157.7716026623
 20
110.8456783096
 11
157.6917064336
 21
110.8589825144
  0
LINE
  5
525
100
AcDbEntity
  8
CURVE
100
AcDbLine
 62
250
  6
CONTINUOUS
 10
155.0857142568
 20
109.0952379525
 11
154.8428571284
 21
109.216666466
  0
LINE
  5
526
100
AcDbEntity
  8
CURVE
100
AcDbLine
 62
250
  6
CONTINUOUS
 10
155.8142856926
 20
109.9452378511
 11
156.0571428463
 21
109.8238093376
  0
LINE
  5
527
100
AcDbEntity
  8
CURVE
100
AcDbLine
 62
250
  6
CONTINUOUS
 10
155.0857142568
 20
110.4309521079
 11
154.8428571284
 21
110.5523808241
  0
LINE
  5
528
100
AcDbEntity
  8
ASSI
100
AcDbLine
 62
250
  6
CONTINUOUS
 10
138.4715599308
 20
122.1361685587
 11
139.2502809898
 21
121.5090410398
  0
LINE
  5
529
100
AcDbEntity
  8
ASSI
100
AcDbLine
 62
250
  6
CONTINUOUS
 10
150.25
 20
112.5499390781
 11
150.8273502692
 21
111.9725888089
  0
LINE
  5
52A
100
AcDbEntity
  8
CURVE
100
AcDbLine
 62
250
  6
CONTINUOUS
 10
155.0857142568
 20
108.1238093376
 11
154.6
 21
108.609523645
  0
LINE
  5
52B
100
AcDbEntity
  8
ASSI
100
AcDbLine
 62
250
  6
CONTINUOUS
 10
143.25
 20
120.0500609219
 11
142.6726497308
 21
120.6274111911
  0
LINE
  5
52C
100
AcDbEntity
  8
CURVE
100
AcDbLine
 62
250
  6
CONTINUOUS
 10
154.8428571284
 20
109.216666466
 11
154.6
 21
109.4595235944
  0
LINE
  5
52D
100
AcDbEntity
  8
ASSI
100
AcDbLine
 62
250
  6
CONTINUOUS
 10
143.6499390781
 20
120.45
 11
143.0725888089
 21
121.0273502692
  0
LINE
  5
52E
100
AcDbEntity
  8
ASSI
100
AcDbLine
 62
7
  6
CONTINUOUS
 10
140.1764480756
 20
124.0603344597
 11
140.1763467138
 21
124.0604486876
  0
LINE
  5
52F
100
AcDbEntity
  8
ASSI
100
AcDbLine
 62
7
  6
CONTINUOUS
 10
145.4881634904
 20
127.2
 11
145.8231847537
 21
126.5448275862
  0
LINE
  5
530
100
AcDbEntity
  8
0
100
AcDbLine
 62
250
  6
CONTINUOUS
 10
156.6365552047
 20
102.15
 11
156.6365552047
 21
87.8531718701
  0
LINE
  5
531
100
AcDbEntity
  8
ASSI
100
AcDbLine
 62
7
  6
CONTINUOUS
 10
157.3914319313
 20
120.5591081095
 11
157.3914319313
 21
117.0408918905
  0
LINE
  5
532
100
AcDbEntity
  8
ASSI
100
AcDbLine
 62
7
  6
CONTINUOUS
 10
157.3914319313
 20
115.5591081095
 11
157.3914319313
 21
112.0408918905
  0
LINE
  5
533
100
AcDbEntity
  8
ASSI
100
AcDbLine
 62
7
  6
CONTINUOUS
 10
157.3914319313
 20
110.5591081095
 11
157.3914319313
 21
107.0408918905
  0
LINE
  5
534
100
AcDbEntity
  8
ASSI
100
AcDbLine
 62
7
  6
CONTINUOUS
 10
157.4700436002
 20
120.5460178078
 11
157.4700436002
 21
117.0539821922
  0
LINE
  5
535
100
AcDbEntity
  8
ASSI
100
AcDbLine
 62
7
  6
CONTINUOUS
 10
157.4700436002
 20
115.5460178078
 11
157.4700436002
 21
112.0539821922
  0
LINE
  5
536
100
AcDbEntity
  8
ASSI
100
AcDbLine
 62
7
  6
CONTINUOUS
 10
157.4700436002
 20
110.5460178078
 11
157.4700436002
 21
107.0539821922
  0
LINE
  5
537
100
AcDbEntity
  8
0
100
AcDbLine
 62
250
  6
CONTINUOUS
 10
157.6364028998
 20
102.15
 11
157.6364028998
 21
87.8531750448
  0
LINE
  5
538
100
AcDbEntity
  8
0
100
AcDbLine
 62
7
  6
CONTINUOUS
 10
157.8356952729
 20
102.15
 11
157.8356952729
 21
87.7706222663
  0
LINE
  5
539
100
AcDbEntity
  8
ASSI
100
AcDbLine
 62
7
  6
CONTINUOUS
 10
157.8940302011
 20
102.3224944216
 11
157.8940302011
 21
86.7991839069
  0
LINE
  5
53A
100
AcDbEntity
  8
ASSI
100
AcDbLine
 62
250
  6
CONTINUOUS
 10
157.9708456462
 20
120.8819135208
 11
157.9708456462
 21
120.8589825144
  0
LINE
  5
53B
100
AcDbEntity
  8
ASSI
100
AcDbLine
 62
250
  6
CONTINUOUS
 10
157.9708456462
 20
116.7410174856
 11
157.9708456462
 21
115.8589825144
  0
LINE
  5
53C
100
AcDbEntity
  8
ASSI
100
AcDbLine
 62
250
  6
CONTINUOUS
 10
157.9708456462
 20
111.7410174856
 11
157.9708456462
 21
110.8589825144
  0
LINE
  5
53D
100
AcDbEntity
  8
ASSI
100
AcDbLine
 62
250
  6
CONTINUOUS
 10
157.9708456462
 20
106.7410174856
 11
157.9708456462
 21
103.4839865919
  0
LINE
  5
53E
100
AcDbEntity
  8
ASSI
100
AcDbLine
 62
7
  6
CONTINUOUS
 10
157.9946499221
 20
125.4335707644
 11
157.9946499221
 21
123.8053332354
  0
LINE
  5
53F
100
AcDbEntity
  8
ASSI
100
AcDbLine
 62
7
  6
CONTINUOUS
 10
157.9946499221
 20
86.1946667646
 11
157.9946499221
 21
84.5664292356
  0
LINE
  5
540
100
AcDbEntity
  8
IMPORT_IGES
100
AcDbLine
 62
7
  6
CONTINUOUS
 10
158.0
 20
106.7642195105
 11
158.0
 21
110.8357804895
  0
LINE
  5
541
100
AcDbEntity
  8
IMPORT_IGES
100
AcDbLine
 62
7
  6
CONTINUOUS
 10
158.0
 20
111.7642195105
 11
158.0
 21
115.8357804895
  0
LINE
  5
542
100
AcDbEntity
  8
IMPORT_IGES
100
AcDbLine
 62
7
  6
CONTINUOUS
 10
158.0
 20
116.7642195105
 11
158.0
 21
120.8160358302
  0
LINE
  5
543
100
AcDbEntity
  8
ASSI
100
AcDbLine
 62
7
  6
CONTINUOUS
 10
158.1325449351
 20
125.8475922207
 11
158.1325449351
 21
123.6520190774
  0
LINE
  5
544
100
AcDbEntity
  8
ASSI
100
AcDbLine
 62
7
  6
CONTINUOUS
 10
158.1325449351
 20
86.3479809226
 11
158.1325449351
 21
84.1524077793
  0
LINE
  5
545
100
AcDbEntity
  8
CURVE
100
AcDbLine
 62
250
  6
CONTINUOUS
 10
159.5541368532
 20
113.519077
 11
159.6047504846
 21
113.790227
  0
LINE
  5
546
100
AcDbEntity
  8
CURVE
100
AcDbLine
 62
250
  6
CONTINUOUS
 10
159.3851976582
 20
118.274826
 11
159.4438854441
 21
118.568876
  0
LINE
  5
547
100
AcDbEntity
  8
CURVE
100
AcDbLine
 62
250
  6
CONTINUOUS
 10
159.587048832
 20
114.235548
 11
159.5541368532
 21
114.111193
  0
LINE
  5
548
100
AcDbEntity
  8
ASSI
100
AcDbLine
 62
250
  6
CONTINUOUS
 10
157.6926261659
 20
102.3894467092
 11
158.9696406424
 21
103.7003361234
  0
LINE
  5
549
100
AcDbEntity
  8
CURVE
100
AcDbLine
 62
7
  6
CONTINUOUS
 10
159.5637513866
 20
104.750241452
 11
159.5749568598
 21
104.7614469252
  0
LINE
  5
54A
100
AcDbEntity
  8
CURVE
100
AcDbLine
 62
7
  6
CONTINUOUS
 10
159.5579649985
 20
104.5344443499
 11
159.5691561212
 21
104.5456354726
  0
LINE
  5
54B
100
AcDbEntity
  8
CURVE
100
AcDbLine
 62
7
  6
CONTINUOUS
 10
159.554008768
 20
104.3204774054
 11
159.5635793626
 21
104.330048
  0
LINE
  5
54C
100
AcDbEntity
  8
CURVE
100
AcDbLine
 62
7
  6
CONTINUOUS
 10
159.554008768
 20
104.1104666913
 11
159.604628753
 21
104.1610866764
  0
LINE
  5
54D
100
AcDbEntity
  8
CURVE
100
AcDbLine
 62
7
  6
CONTINUOUS
 10
159.554008768
 20
103.0604131213
 11
159.604628753
 21
103.1110331063
  0
LINE
  5
54E
100
AcDbEntity
  8
ASSI
100
AcDbLine
 62
7
  6
CONTINUOUS
 10
141.9255400365
 20
85.258575216
 11
142.0741801866
 21
85.4072153626
  0
LINE
  5
54F
100
AcDbEntity
  8
ASSI
100
AcDbLine
 62
250
  6
CONTINUOUS
 10
142.2119554178
 20
85.5449449058
 11
142.0741801971
 21
85.4071696851
  0
LINE
  5
550
100
AcDbEntity
  8
CURVE
100
AcDbLine
 62
7
  6
CONTINUOUS
 10
159.554008768
 20
102.8504024073
 11
159.604628753
 21
102.9010223923
  0
LINE
  5
551
100
AcDbEntity
  8
CURVE
100
AcDbLine
 62
7
  6
CONTINUOUS
 10
159.5989571137
 20
102.6853400389
 11
159.604628753
 21
102.6910116783
  0
LINE
  5
552
100
AcDbEntity
  8
CURVE
100
AcDbLine
 62
7
  6
CONTINUOUS
 10
159.5771914681
 20
102.6635743934
 11
159.5828635787
 21
102.669246504
  0
LINE
  5
553
100
AcDbEntity
  8
CURVE
100
AcDbLine
 62
7
  6
CONTINUOUS
 10
159.554008768
 20
102.6403916933
 11
159.5596803724
 21
102.6460632977
  0
LINE
  5
554
100
AcDbEntity
  8
CURVE
100
AcDbLine
 62
7
  6
CONTINUOUS
 10
159.5989571137
 20
102.4753293249
 11
159.604628753
 21
102.4810009643
  0
LINE
  5
555
100
AcDbEntity
  8
CURVE
100
AcDbLine
 62
7
  6
CONTINUOUS
 10
159.5771914681
 20
102.4535636794
 11
159.5828635787
 21
102.45923579
  0
LINE
  5
556
100
AcDbEntity
  8
CURVE
100
AcDbLine
 62
7
  6
CONTINUOUS
 10
159.554008768
 20
102.4303809792
 11
159.5596803724
 21
102.4360525837
  0
LINE
  5
557
100
AcDbEntity
  8
ASSI
100
AcDbLine
 62
250
  6
CONTINUOUS
 10
142.2175883717
 20
84.9506692427
 11
142.5
 21
85.2330808709
  0
LINE
  5
558
100
AcDbEntity
  8
CURVE
100
AcDbLine
 62
7
  6
CONTINUOUS
 10
159.5989571137
 20
102.2653186109
 11
159.604628753
 21
102.2709902503
  0
LINE
  5
559
100
AcDbEntity
  8
CURVE
100
AcDbLine
 62
7
  6
CONTINUOUS
 10
159.5771914681
 20
102.2435529653
 11
159.5828635787
 21
102.249225076
  0
LINE
  5
55A
100
AcDbEntity
  8
CURVE
100
AcDbLine
 62
7
  6
CONTINUOUS
 10
159.554008768
 20
102.2203702652
 11
159.5596803724
 21
102.2260418697
  0
LINE
  5
55B
100
AcDbEntity
  8
ASSI
100
AcDbLine
 62
7
  6
CONTINUOUS
 10
157.8940302011
 20
102.3224944216
 11
157.8715332096
 21
102.3
  0
LINE
  5
55C
100
AcDbEntity
  8
ASSI
100
AcDbLine
 62
7
  6
CONTINUOUS
 10
142.6635123138
 20
85.3654134929
 11
142.5
 21
85.2047303896
  0
LINE
  5
55D
100
AcDbEntity
  8
ASSI
100
AcDbLine
 62
7
  6
CONTINUOUS
 10
157.8940302011
 20
102.3224944216
 11
159.1940301785
 21
103.5889008572
  0
LINE
  5
55E
100
AcDbEntity
  8
CURVE
100
AcDbLine
 62
250
  6
CONTINUOUS
 10
159.4789403637
 20
113.0976190478
 11
159.4919069839
 21
113.0976190478
  0
LINE
  5
55F
100
AcDbEntity
  8
CURVE
100
AcDbLine
 62
250
  6
CONTINUOUS
 10
153.5
 20
113.275000006
 11
151.6
 21
113.275000006
  0
LINE
  5
560
100
AcDbEntity
  8
CURVE
100
AcDbLine
 62
250
  6
CONTINUOUS
 10
140.3357142568
 20
113.4404760361
 11
141.55
 21
113.4404760361
  0
LINE
  5
561
100
AcDbEntity
  8
CURVE
100
AcDbLine
 62
250
  6
CONTINUOUS
 10
155.0857142568
 20
113.8309523106
 11
154.8428571284
 21
113.8309523106
  0
LINE
  5
562
100
AcDbEntity
  8
CURVE
100
AcDbLine
 62
250
  6
CONTINUOUS
 10
140.4571428716
 20
114.0071429729
 11
141.55
 21
114.0071429729
  0
LINE
  5
563
100
AcDbEntity
  8
CURVE
100
AcDbLine
 62
250
  6
CONTINUOUS
 10
153.5
 20
114.225000006
 11
151.6
 21
114.225000006
  0
LINE
  5
564
100
AcDbEntity
  8
CURVE
100
AcDbLine
 62
250
  6
CONTINUOUS
 10
159.4789403637
 20
114.3047616392
 11
159.5016319481
 21
114.3047616392
  0
LINE
  5
565
100
AcDbEntity
  8
CURVE
100
AcDbLine
 62
250
  6
CONTINUOUS
 10
156.3
 20
114.8833333015
 11
155.45
 21
114.8833333015
  0
LINE
  5
566
100
AcDbEntity
  8
CURVE
100
AcDbLine
 62
250
  6
CONTINUOUS
 10
155.8142856926
 20
111.2809521079
 11
156.0571428463
 21
111.1595235944
  0
LINE
  5
567
100
AcDbEntity
  8
ASSI
100
AcDbLine
 62
7
  6
CONTINUOUS
 10
158.9706933414
 20
110.8504079514
 11
159.0716692421
 21
110.7999238461
  0
LINE
  5
568
100
AcDbEntity
  8
ASSI
100
AcDbLine
 62
7
  6
CONTINUOUS
 10
142.5
 20
124.7952696104
 11
142.6635123138
 21
124.6345865071
  0
LINE
  5
569
100
AcDbEntity
  8
CURVE
100
AcDbLine
 62
250
  6
CONTINUOUS
 10
154.8428571284
 20
110.5523808241
 11
154.6
 21
110.7952378511
  0
LINE
  5
56A
100
AcDbEntity
  8
CURVE
100
AcDbLine
 62
250
  6
CONTINUOUS
 10
156.0571428463
 20
109.8238093376
 11
156.3
 21
109.5809522092
  0
LINE
  5
56B
100
AcDbEntity
  8
ASSI
100
AcDbLine
 62
7
  6
CONTINUOUS
 10
142.0741801866
 20
124.5927846374
 11
141.9255400365
 21
124.741424784
  0
LINE
  5
56C
100
AcDbEntity
  8
ASSI
100
AcDbLine
 62
250
  6
CONTINUOUS
 10
142.0741801971
 20
124.5928303149
 11
142.2119554178
 21
124.4550550942
  0
LINE
  5
56D
100
AcDbEntity
  8
ASSI
100
AcDbLine
 62
250
  6
CONTINUOUS
 10
149.8500609219
 20
117.15
 11
150.4274111911
 21
116.5726497308
  0
LINE
  5
56E
100
AcDbEntity
  8
CURVE
100
AcDbLine
 62
250
  6
CONTINUOUS
 10
156.0571428463
 20
111.1595235944
 11
156.3
 21
110.9166665673
  0
LINE
  5
56F
100
AcDbEntity
  8
ASSI
100
AcDbLine
 62
250
  6
CONTINUOUS
 10
142.5
 20
124.7669191291
 11
142.2175883717
 21
125.0493307573
  0
LINE
  5
570
100
AcDbEntity
  8
CURVE
100
AcDbLine
 62
250
  6
CONTINUOUS
 10
159.5223286688
 20
89.9999997854
 11
159.5128530617
 21
90.1357140064
  0
LINE
  5
571
100
AcDbEntity
  8
CURVE
100
AcDbLine
 62
250
  6
CONTINUOUS
 10
159.5223286688
 20
94.0714284539
 11
159.5128530617
 21
94.2071426749
  0
LINE
  5
572
100
AcDbEntity
  8
CURVE
100
AcDbLine
 62
250
  6
CONTINUOUS
 10
159.3017714547
 20
101.45
 11
159.2791422099
 21
101.8035714567
  0
LINE
  5
573
100
AcDbEntity
  8
CURVE
100
AcDbLine
 62
250
  6
CONTINUOUS
 10
159.2406787274
 20
102.7464285679
 11
159.2180494826
 21
103.1
  0
LINE
  5
574
100
AcDbEntity
  8
CURVE
100
AcDbLine
 62
250
  6
CONTINUOUS
 10
159.5720597837
 20
112.5345
 11
159.5908431442
 21
112.233126
  0
LINE
  5
575
100
AcDbEntity
  8
CURVE
100
AcDbLine
 62
250
  6
CONTINUOUS
 10
159.3017714547
 20
92.2178569555
 11
159.2729705976
 21
92.6892860889
  0
LINE
  5
576
100
AcDbEntity
  8
CURVE
100
AcDbLine
 62
250
  6
CONTINUOUS
 10
159.5033774546
 20
92.0357140064
 11
159.536542078
 21
91.4928571224
  0
LINE
  5
577
100
AcDbEntity
  8
CURVE
100
AcDbLine
 62
250
  6
CONTINUOUS
 10
159.2406787274
 20
97.2071429133
 11
159.2118778703
 21
97.67857126
  0
LINE
  5
578
100
AcDbEntity
  8
CURVE
100
AcDbLine
 62
250
  6
CONTINUOUS
 10
159.3017714547
 20
99.5642858267
 11
159.2729705976
 21
100.03571437
  0
LINE
  5
579
100
AcDbEntity
  8
CURVE
100
AcDbLine
 62
250
  6
CONTINUOUS
 10
159.5016319481
 20
103.8547620058
 11
159.4789403637
 21
104.2261904001
  0
LINE
  5
57A
100
AcDbEntity
  8
CURVE
100
AcDbLine
 62
250
  6
CONTINUOUS
 10
159.5016319481
 20
106.1452381372
 11
159.4789403637
 21
106.5166666865
  0
LINE
  5
57B
100
AcDbEntity
  8
CURVE
100
AcDbLine
 62
250
  6
CONTINUOUS
 10
159.5016319481
 20
115.0476190478
 11
159.4789403637
 21
115.419047752
  0
LINE
  5
57C
100
AcDbEntity
  8
CURVE
100
AcDbLine
 62
250
  6
CONTINUOUS
 10
159.536542078
 20
116.8642856479
 11
159.5138504936
 21
117.2357142746
  0
LINE
  5
57D
100
AcDbEntity
  8
CURVE
100
AcDbLine
 62
250
  6
CONTINUOUS
 10
159.5541368532
 20
112.825329
 11
159.5642411365
 21
112.658312
  0
LWPOLYLINE
  5
57E
100
AcDbEntity
  8
CURVE
100
AcDbPolyline
 62
250
  6
CONTINUOUS
 90
19
 70
0
 10
159.395537156
 20
102.4251794748
 10
159.3947581157
 20
102.4385376546
 10
159.3939854622
 20
102.4505483268
 10
159.3932179569
 20
102.4612578529
 10
159.3922001702
 20
102.4735719077
 10
159.3911845173
 20
102.4836364926
 10
159.390166182
 20
102.4914328654
 10
159.3891413891
 20
102.4969336062
 10
159.3881105269
 20
102.5000765842
 10
159.3870750246
 20
102.5007909907
 10
159.3860365575
 20
102.4990406339
 10
159.3849977846
 20
102.4949277901
 10
159.3839616108
 20
102.4885893524
 10
159.3829306975
 20
102.4801645744
 10
159.3819067311
 20
102.4698021514
 10
159.3808911542
 20
102.4576531393
 10
159.3798849437
 20
102.4438617646
 10
159.3788872135
 20
102.4285449355
 10
159.3778966117
 20
102.4118127306
  0
LINE
  5
57F
100
AcDbEntity
  8
CURVE
100
AcDbLine
 62
250
  6
CONTINUOUS
 10
159.6047504846
 20
112.514517
 11
159.5541368532
 21
113.424033
  0
LINE
  5
580
100
AcDbEntity
  8
CURVE
100
AcDbLine
 62
250
  6
CONTINUOUS
 10
159.5541368532
 20
118.547617
 11
159.6047504846
 21
117.615552
  0
LWPOLYLINE
  5
581
100
AcDbEntity
  8
CURVE
100
AcDbPolyline
 62
250
  6
CONTINUOUS
 90
13
 70
0
 10
159.3723103839
 20
112.4473046273
 10
159.3718541397
 20
112.4557687663
 10
159.3713960529
 20
112.4634931453
 10
159.3709371246
 20
112.4704719438
 10
159.3704783558
 20
112.4766993414
 10
159.3700205794
 20
112.4821722701
 10
159.3695639563
 20
112.4868986728
 10
159.3691084794
 20
112.4908892448
 10
159.3686541415
 20
112.4941546816
 10
159.368200797
 20
112.4967028818
 10
159.367747746
 20
112.4985305579
 10
159.3672941502
 20
112.4996316254
 10
159.3668391711
 20
112.5
  0
LWPOLYLINE
  5
582
100
AcDbEntity
  8
CURVE
100
AcDbPolyline
 62
250
  6
CONTINUOUS
 90
13
 70
0
 10
159.4038764513
 20
109.8016850437
 10
159.4043181719
 20
109.7933584698
 10
159.4047611226
 20
109.7857651297
 10
159.405204333
 20
109.7789098452
 10
159.4056468325
 20
109.7727974383
 10
159.4060878143
 20
109.7674299945
 10
159.4065271265
 20
109.7627986545
 10
159.4069647809
 20
109.7588918224
 10
159.4074007894
 20
109.7556979027
 10
159.4078352964
 20
109.7532079835
 10
159.4082689768
 20
109.7514238888
 10
159.4087026382
 20
109.7503501262
 10
159.4091370882
 20
109.7499912036
  0
LINE
  5
583
100
AcDbEntity
  8
CURVE
100
AcDbLine
 62
250
  6
CONTINUOUS
 10
159.6046286134
 20
98.721054
 11
159.5607436302
 21
99.557716
  0
LWPOLYLINE
  5
584
100
AcDbEntity
  8
CURVE
100
AcDbPolyline
 62
250
  6
CONTINUOUS
 90
12
 70
0
 10
159.3689357233
 20
108.6058158613
 10
159.3687650752
 20
108.6091588075
 10
159.3685944948
 20
108.6121710349
 10
159.3684241013
 20
108.6148562481
 10
159.3682539551
 20
108.6172197718
 10
159.3680841169
 20
108.6192669305
 10
159.3679146474
 20
108.621003049
 10
159.3677455243
 20
108.6224318473
 10
159.3675763952
 20
108.6235506264
 10
159.3674068246
 20
108.6243550827
 10
159.3672363774
 20
108.6248409125
 10
159.3670646182
 20
108.6250038121
  0
LWPOLYLINE
  5
585
100
AcDbEntity
  8
CURVE
100
AcDbPolyline
 62
250
  6
CONTINUOUS
 90
13
 70
0
 10
159.5849893097
 20
90.0533659152
 10
159.5853541617
 20
90.0460112811
 10
159.5857237105
 20
90.0392704874
 10
159.5860976516
 20
90.0331320246
 10
159.5864756804
 20
90.0275843832
 10
159.5869536158
 20
90.0214627755
 10
159.5874375563
 20
90.0162216777
 10
159.5879275954
 20
90.0118364249
 10
159.5884238268
 20
90.0082823525
 10
159.5889263234
 20
90.0055372532
 10
159.589435075
 20
90.0035887496
 10
159.5899500509
 20
90.002426922
 10
159.5904712203
 20
90.0020418505
  0
LINE
  5
586
100
AcDbEntity
  8
CURVE
100
AcDbLine
 62
250
  6
CONTINUOUS
 10
159.397119259
 20
102.3942318622
 11
159.395537156
 21
102.4251794748
  0
LINE
  5
587
100
AcDbEntity
  8
CURVE
100
AcDbLine
 62
250
  6
CONTINUOUS
 10
159.5540086109
 20
99.350619
 11
159.6046286134
 21
98.318929
  0
LWPOLYLINE
  5
588
100
AcDbEntity
  8
CURVE
100
AcDbPolyline
 62
250
  6
CONTINUOUS
 90
15
 70
0
 10
159.5866259974
 20
109.4934737798
 10
159.5868466598
 20
109.4888403793
 10
159.5870717598
 20
109.4846092969
 10
159.587300517
 20
109.4807793372
 10
159.5875321505
 20
109.477349305
 10
159.5877658798
 20
109.4743180053
 10
159.5880009604
 20
109.4716812741
 10
159.5882367936
 20
109.4694230734
 10
159.5884728167
 20
109.4675243966
 10
159.5887084671
 20
109.465966237
 10
159.5889431823
 20
109.464729588
 10
159.5892346511
 20
109.4636071994
 10
159.5895241637
 20
109.4629218749
 10
159.5898121041
 20
109.4626380166
 10
159.5900988563
 20
109.4627200261
  0
LWPOLYLINE
  5
589
100
AcDbEntity
  8
CURVE
100
AcDbPolyline
 62
250
  6
CONTINUOUS
 90
14
 70
0
 10
159.5633224664
 20
92.6982680337
 10
159.5639984549
 20
92.6839020306
 10
159.5646736278
 20
92.6710147024
 10
159.5653485296
 20
92.659486532
 10
159.5660237051
 20
92.649198002
 10
159.5669250993
 20
92.6372269801
 10
159.5678279979
 20
92.6271155582
 10
159.5687324502
 20
92.6187320061
 10
159.5696389602
 20
92.6119463596
 10
159.5705498494
 20
92.6066357181
 10
159.571467894
 20
92.6026789468
 10
159.5723952541
 20
92.5999611003
 10
159.5733316259
 20
92.5983919911
 10
159.5742760896
 20
92.5978876209
  0
LINE
  5
58A
100
AcDbEntity
  8
CURVE
100
AcDbLine
 62
250
  6
CONTINUOUS
 10
159.6047504846
 20
114.389084
 11
159.5766496454
 21
114.994355
  0
LINE
  5
58B
100
AcDbEntity
  8
CURVE
100
AcDbLine
 62
250
  6
CONTINUOUS
 10
159.5856506909
 20
108.9388788644
 11
159.5848883513
 21
108.9547092323
  0
LINE
  5
58C
100
AcDbEntity
  8
CURVE
100
AcDbLine
 62
250
  6
CONTINUOUS
 10
159.5541368532
 20
114.955216
 11
159.587048832
 21
114.235548
  0
LINE
  5
58D
100
AcDbEntity
  8
CURVE
100
AcDbLine
 62
250
  6
CONTINUOUS
 10
159.3732138157
 20
112.4281871158
 11
159.3723103839
 21
112.4473046273
  0
LINE
  5
58E
100
AcDbEntity
  8
CURVE
100
AcDbLine
 62
250
  6
CONTINUOUS
 10
159.3724719301
 20
109.1983092471
 11
159.373348228
 21
109.1794834948
  0
LINE
  5
58F
100
AcDbEntity
  8
CURVE
100
AcDbLine
 62
250
  6
CONTINUOUS
 10
159.4030001553
 20
109.8205111387
 11
159.4038764513
 21
109.8016850437
  0
LINE
  5
590
100
AcDbEntity
  8
CURVE
100
AcDbLine
 62
250
  6
CONTINUOUS
 10
159.5649837969
 20
92.8495596003
 11
159.5640072391
 21
92.8703975586
  0
LINE
  5
591
100
AcDbEntity
  8
CURVE
100
AcDbLine
 62
250
  6
CONTINUOUS
 10
159.4003912599
 20
103.3605227141
 11
159.4033077982
 21
103.2978982902
  0
LINE
  5
592
100
AcDbEntity
  8
CURVE
100
AcDbLine
 62
250
  6
CONTINUOUS
 10
159.3688745511
 20
111.8551331641
 11
159.3692345079
 21
111.8473152189
  0
LINE
  5
593
100
AcDbEntity
  8
CURVE
100
AcDbLine
 62
250
  6
CONTINUOUS
 10
159.3692757535
 20
108.5981505368
 11
159.3689357233
 21
108.6058158613
  0
LINE
  5
594
100
AcDbEntity
  8
CURVE
100
AcDbLine
 62
250
  6
CONTINUOUS
 10
159.4074137134
 20
110.3941636665
 11
159.4070737478
 21
110.4018229635
  0
LINE
  5
595
100
AcDbEntity
  8
CURVE
100
AcDbLine
 62
250
  6
CONTINUOUS
 10
159.3987394381
 20
102.3572558011
 11
159.397119259
 21
102.3942318622
  0
LINE
  5
596
100
AcDbEntity
  8
CURVE
100
AcDbLine
 62
250
  6
CONTINUOUS
 10
159.5842748796
 20
90.069960118
 11
159.5849893097
 21
90.0533659152
  0
LWPOLYLINE
  5
597
100
AcDbEntity
  8
CURVE
100
AcDbPolyline
 62
250
  6
CONTINUOUS
 90
9
 70
0
 10
159.4453485654
 20
118.575023953
 10
159.44514971
 20
118.579963708
 10
159.4449765863
 20
118.5836490788
 10
159.4448009868
 20
118.5868107938
 10
159.4446228997
 20
118.5894330619
 10
159.4444423133
 20
118.591500092
 10
159.4442592159
 20
118.592996093
 10
159.4440735958
 20
118.5939052737
 10
159.4438854414
 20
118.594211843
  0
LINE
  5
598
100
AcDbEntity
  8
CURVE
100
AcDbLine
 62
250
  6
CONTINUOUS
 10
159.5848883513
 20
108.9547092323
 11
159.5841784208
 21
108.972043226
  0
LINE
  5
599
100
AcDbEntity
  8
CURVE
100
AcDbLine
 62
250
  6
CONTINUOUS
 10
159.3741007147
 20
112.406220999
 11
159.3732138157
 21
112.4281871158
  0
LINE
  5
59A
100
AcDbEntity
  8
CURVE
100
AcDbLine
 62
250
  6
CONTINUOUS
 10
159.5862001401
 20
109.5039285305
 11
159.5866259974
 21
109.4934737798
  0
LINE
  5
59B
100
AcDbEntity
  8
CURVE
100
AcDbLine
 62
250
  6
CONTINUOUS
 10
159.3358088313
 20
103.5
 11
159.357611185
 21
102.9362962353
  0
LINE
  5
59C
100
AcDbEntity
  8
CURVE
100
AcDbLine
 62
250
  6
CONTINUOUS
 10
159.5860135812
 20
90.2286396087
 11
159.5853139059
 21
90.2460425249
  0
LINE
  5
59D
100
AcDbEntity
  8
CURVE
100
AcDbLine
 62
250
  6
CONTINUOUS
 10
159.373348228
 20
109.1794834948
 11
159.3742105227
 21
109.1578275643
  0
LINE
  5
59E
100
AcDbEntity
  8
CURVE
100
AcDbLine
 62
250
  6
CONTINUOUS
 10
159.4021378601
 20
109.8421675048
 11
159.4030001553
 21
109.8205111387
  0
LINE
  5
59F
100
AcDbEntity
  8
CURVE
100
AcDbLine
 62
250
  6
CONTINUOUS
 10
159.5619717271
 20
92.7318376827
 11
159.5633224664
 21
92.6982680337
  0
LINE
  5
5A0
100
AcDbEntity
  8
CURVE
100
AcDbLine
 62
250
  6
CONTINUOUS
 10
159.5640072391
 20
92.8703975586
 11
159.5631602145
 21
92.8918807712
  0
LINE
  5
5A1
100
AcDbEntity
  8
CURVE
100
AcDbLine
 62
250
  6
CONTINUOUS
 10
159.4033077982
 20
103.2978982902
 11
159.4062652794
 21
103.2228049273
  0
LINE
  5
5A2
100
AcDbEntity
  8
CURVE
100
AcDbLine
 62
250
  6
CONTINUOUS
 10
159.3692345079
 20
111.8473152189
 11
159.369586976
 21
111.8382385576
  0
LINE
  5
5A3
100
AcDbEntity
  8
CURVE
100
AcDbLine
 62
250
  6
CONTINUOUS
 10
159.4004032602
 20
102.3137163298
 11
159.3987394381
 21
102.3572558011
  0
LINE
  5
5A4
100
AcDbEntity
  8
CURVE
100
AcDbLine
 62
250
  6
CONTINUOUS
 10
159.3697093176
 20
101.5636291216
 11
159.3615006661
 21
101.7903623781
  0
LINE
  5
5A5
100
AcDbEntity
  8
CURVE
100
AcDbLine
 62
250
  6
CONTINUOUS
 10
159.3454374898
 20
102.2340457986
 11
159.3358088313
 21
102.500000718
  0
LINE
  5
5A6
100
AcDbEntity
  8
CURVE
100
AcDbLine
 62
250
  6
CONTINUOUS
 10
159.4070737478
 20
110.4018229635
 11
159.4067381771
 21
110.410759024
  0
LINE
  5
5A7
100
AcDbEntity
  8
CURVE
100
AcDbLine
 62
250
  6
CONTINUOUS
 10
159.3696113544
 20
108.5892086108
 11
159.3692757535
 21
108.5981505368
  0
LINE
  5
5A8
100
AcDbEntity
  8
CURVE
100
AcDbLine
 62
250
  6
CONTINUOUS
 10
159.3795595513
 20
99.104813648
 11
159.3778988677
 21
99.1500202936
  0
LINE
  5
5A9
100
AcDbEntity
  8
CURVE
100
AcDbLine
 62
250
  6
CONTINUOUS
 10
159.2770850059
 20
93.7500002623
 11
159.2811994142
 21
93.6321427822
  0
LINE
  5
5AA
100
AcDbEntity
  8
CURVE
100
AcDbLine
 62
250
  6
CONTINUOUS
 10
159.2976570468
 20
94.3392860889
 11
159.2935426388
 21
94.4571427822
  0
LINE
  5
5AB
100
AcDbEntity
  8
CURVE
100
AcDbLine
 62
250
  6
CONTINUOUS
 10
159.2159922786
 20
99.8
 11
159.220106687
 21
99.6821429133
  0
LINE
  5
5AC
100
AcDbEntity
  8
CURVE
100
AcDbLine
 62
250
  6
CONTINUOUS
 10
159.2365643195
 20
100.38928563
 11
159.2324499116
 21
100.5071429133
  0
LINE
  5
5AD
100
AcDbEntity
  8
CURVE
100
AcDbLine
 62
250
  6
CONTINUOUS
 10
159.2159922786
 20
101.0964285433
 11
159.220106687
 21
100.9785714567
  0
LINE
  5
5AE
100
AcDbEntity
  8
CURVE
100
AcDbLine
 62
250
  6
CONTINUOUS
 10
159.2365643195
 20
101.6857142717
 11
159.2324499116
 21
101.8035714567
  0
LINE
  5
5AF
100
AcDbEntity
  8
CURVE
100
AcDbLine
 62
250
  6
CONTINUOUS
 10
159.5081152582
 20
95.699999842
 11
159.5128530617
 21
95.5642855644
  0
LINE
  5
5B0
100
AcDbEntity
  8
CURVE
100
AcDbLine
 62
250
  6
CONTINUOUS
 10
159.5318042749
 20
96.3785712726
 11
159.5270664719
 21
96.5142855644
  0
LINE
  5
5B1
100
AcDbEntity
  8
CURVE
100
AcDbLine
 62
250
  6
CONTINUOUS
 10
159.536542078
 20
117.6071428239
 11
159.5235754584
 21
117.978571412
  0
LINE
  5
5B2
100
AcDbEntity
  8
CURVE
100
AcDbLine
 62
250
  6
CONTINUOUS
 10
159.5835820296
 20
90.0890821732
 11
159.5842748796
 21
90.069960118
  0
LINE
  5
5B3
100
AcDbEntity
  8
CURVE
100
AcDbLine
 62
250
  6
CONTINUOUS
 10
159.3778966117
 20
102.4118127306
 11
159.4000532415
 21
101.8365501126
  0
LINE
  5
5B4
100
AcDbEntity
  8
CURVE
100
AcDbLine
 62
250
  6
CONTINUOUS
 10
159.5841784208
 20
108.972043226
 11
159.5835189318
 21
108.9905846597
  0
LINE
  5
5B5
100
AcDbEntity
  8
CURVE
100
AcDbLine
 62
250
  6
CONTINUOUS
 10
159.3749663604
 20
112.3814842859
 11
159.3741007147
 21
112.406220999
  0
LINE
  5
5B6
100
AcDbEntity
  8
CURVE
100
AcDbLine
 62
250
  6
CONTINUOUS
 10
159.3742105227
 20
109.1578275643
 11
159.3750540778
 21
109.1334142498
  0
LINE
  5
5B7
100
AcDbEntity
  8
CURVE
100
AcDbLine
 62
250
  6
CONTINUOUS
 10
159.4012943008
 20
109.8665813966
 11
159.4021378601
 21
109.8421675048
  0
LINE
  5
5B8
100
AcDbEntity
  8
CURVE
100
AcDbLine
 62
250
  6
CONTINUOUS
 10
159.4062652794
 20
103.2228049273
 11
159.4092658568
 21
103.1343247062
  0
LINE
  5
5B9
100
AcDbEntity
  8
CURVE
100
AcDbLine
 62
250
  6
CONTINUOUS
 10
159.5857955922
 20
109.515864187
 11
159.5862001401
 21
109.5039285305
  0
LINE
  5
5BA
100
AcDbEntity
  8
CURVE
100
AcDbLine
 62
250
  6
CONTINUOUS
 10
159.5853139059
 20
90.2460425249
 11
159.5846485503
 21
90.2658190627
  0
LINE
  5
5BB
100
AcDbEntity
  8
CURVE
100
AcDbLine
 62
250
  6
CONTINUOUS
 10
159.5631602145
 20
92.8918807712
 11
159.5623380442
 21
92.9163797255
  0
LINE
  5
5BC
100
AcDbEntity
  8
CURVE
100
AcDbLine
 62
250
  6
CONTINUOUS
 10
159.369586976
 20
111.8382385576
 11
159.3699291287
 21
111.827936335
  0
LINE
  5
5BD
100
AcDbEntity
  8
CURVE
100
AcDbLine
 62
250
  6
CONTINUOUS
 10
159.5606463691
 20
92.7722975308
 11
159.5619717271
 21
92.7318376827
  0
LINE
  5
5BE
100
AcDbEntity
  8
CURVE
100
AcDbLine
 62
250
  6
CONTINUOUS
 10
159.369939611
 20
108.5790156703
 11
159.3696113544
 21
108.5892086108
  0
LINE
  5
5BF
100
AcDbEntity
  8
CURVE
100
AcDbLine
 62
250
  6
CONTINUOUS
 10
159.4067381771
 20
110.410759024
 11
159.406409925
 21
110.4209463827
  0
LINE
  5
5C0
100
AcDbEntity
  8
CURVE
100
AcDbLine
 62
250
  6
CONTINUOUS
 10
159.4029956839
 20
102.2343626474
 11
159.4004032602
 21
102.3137163298
  0
LINE
  5
5C1
100
AcDbEntity
  8
CURVE
100
AcDbLine
 62
250
  6
CONTINUOUS
 10
159.4457360807
 20
118.5631858491
 11
159.4453485654
 21
118.575023953
  0
LINE
  5
5C2
100
AcDbEntity
  8
CURVE
100
AcDbLine
 62
250
  6
CONTINUOUS
 10
159.5829115775
 20
90.1107007833
 11
159.5835820296
 21
90.0890821732
  0
LINE
  5
5C3
100
AcDbEntity
  8
CURVE
100
AcDbLine
 62
250
  6
CONTINUOUS
 10
159.3778988677
 20
99.1500202936
 11
159.3762372798
 21
99.2038698531
  0
LINE
  5
5C4
100
AcDbEntity
  8
CURVE
100
AcDbLine
 62
250
  6
CONTINUOUS
 10
159.5835189318
 20
108.9905846597
 11
159.582620194
 21
109.0201161814
  0
LWPOLYLINE
  5
5C5
100
AcDbEntity
  8
ASSI
100
AcDbPolyline
 62
7
  6
CONTINUOUS
 90
3
 70
0
 10
159.65
 20
121.119659166
 10
159.6468077508
 20
121.2316570494
 10
159.6375097336
 20
121.3426042235
  0
LINE
  5
5C6
100
AcDbEntity
  8
CURVE
100
AcDbLine
 62
250
  6
CONTINUOUS
 10
159.4000532415
 20
101.8365501126
 11
159.4016628085
 21
101.7827758518
  0
LINE
  5
5C7
100
AcDbEntity
  8
CURVE
100
AcDbLine
 62
250
  6
CONTINUOUS
 10
159.3762186537
 20
112.3392692466
 11
159.3749663604
 21
112.3814842859
  0
LINE
  5
5C8
100
AcDbEntity
  8
CURVE
100
AcDbLine
 62
250
  6
CONTINUOUS
 10
159.3750540778
 20
109.1334142498
 11
159.3762781419
 21
109.0916837176
  0
LINE
  5
5C9
100
AcDbEntity
  8
CURVE
100
AcDbLine
 62
250
  6
CONTINUOUS
 10
159.4000702275
 20
109.9083129919
 11
159.4012943008
 21
109.8665813966
  0
LINE
  5
5CA
100
AcDbEntity
  8
CURVE
100
AcDbLine
 62
250
  6
CONTINUOUS
 10
159.5623380442
 20
92.9163797255
 11
159.5615461175
 21
92.9440801553
  0
LINE
  5
5CB
100
AcDbEntity
  8
CURVE
100
AcDbLine
 62
250
  6
CONTINUOUS
 10
159.4092658568
 20
103.1343247062
 11
159.4138227182
 21
102.9756348084
  0
LINE
  5
5CC
100
AcDbEntity
  8
CURVE
100
AcDbLine
 62
250
  6
CONTINUOUS
 10
159.2736563323
 20
96.8928572178
 11
159.2990285161
 21
95.9499997377
  0
LINE
  5
5CD
100
AcDbEntity
  8
CURVE
100
AcDbLine
 62
250
  6
CONTINUOUS
 10
159.2955998419
 20
103.1
 11
159.3017714547
 21
102.8642857037
  0
LINE
  5
5CE
100
AcDbEntity
  8
CURVE
100
AcDbLine
 62
250
  6
CONTINUOUS
 10
159.5016319481
 20
112.7261906534
 11
159.4919069839
 21
113.0976190478
  0
LINE
  5
5CF
100
AcDbEntity
  8
CURVE
100
AcDbLine
 62
250
  6
CONTINUOUS
 10
159.4057163872
 20
102.1353517044
 11
159.4029956839
 21
102.2343626474
  0
LINE
  5
5D0
100
AcDbEntity
  8
CURVE
100
AcDbLine
 62
250
  6
CONTINUOUS
 10
159.3699291287
 20
111.827936335
 11
159.3704200866
 21
111.8101793478
  0
LINE
  5
5D1
100
AcDbEntity
  8
CURVE
100
AcDbLine
 62
250
  6
CONTINUOUS
 10
159.585229456
 20
109.5362778478
 11
159.5857955922
 21
109.515864187
  0
LINE
  5
5D2
100
AcDbEntity
  8
CURVE
100
AcDbLine
 62
250
  6
CONTINUOUS
 10
159.5846485503
 20
90.2658190627
 11
159.583726994
 21
90.2994323734
  0
LINE
  5
5D3
100
AcDbEntity
  8
CURVE
100
AcDbLine
 62
250
  6
CONTINUOUS
 10
159.3704152436
 20
108.561349737
 11
159.369939611
 21
108.5790156703
  0
LINE
  5
5D4
100
AcDbEntity
  8
CURVE
100
AcDbLine
 62
250
  6
CONTINUOUS
 10
159.406409925
 20
110.4209463827
 11
159.4059342665
 21
110.438604101
  0
LINE
  5
5D5
100
AcDbEntity
  8
CURVE
100
AcDbLine
 62
250
  6
CONTINUOUS
 10
159.2935426388
 20
102.275
 11
159.2729705976
 21
103.1
  0
LINE
  5
5D6
100
AcDbEntity
  8
CURVE
100
AcDbLine
 62
250
  6
CONTINUOUS
 10
159.4461097791
 20
118.5489282646
 11
159.4457360807
 21
118.5631858491
  0
LINE
  5
5D7
100
AcDbEntity
  8
CURVE
100
AcDbLine
 62
250
  6
CONTINUOUS
 10
159.5593768872
 20
92.8201134678
 11
159.5606463691
 21
92.7722975308
  0
LINE
  5
5D8
100
AcDbEntity
  8
CURVE
100
AcDbLine
 62
250
  6
CONTINUOUS
 10
159.5819515037
 20
90.1477036666
 11
159.5829115775
 21
90.1107007833
  0
LINE
  5
5D9
100
AcDbEntity
  8
CURVE
100
AcDbLine
 62
250
  6
CONTINUOUS
 10
159.3762372798
 20
99.2038698531
 11
159.3737559748
 21
99.3017729876
  0
LINE
  5
5DA
100
AcDbEntity
  8
CURVE
100
AcDbLine
 62
250
  6
CONTINUOUS
 10
159.582620194
 20
109.0201161814
 11
159.5815809047
 21
109.0617110987
  0
LINE
  5
5DB
100
AcDbEntity
  8
CURVE
100
AcDbLine
 62
250
  6
CONTINUOUS
 10
159.377409666
 20
112.2908442936
 11
159.3762186537
 21
112.3392692466
  0
LINE
  5
5DC
100
AcDbEntity
  8
CURVE
100
AcDbLine
 62
250
  6
CONTINUOUS
 10
159.4016628085
 20
101.7827758518
 11
159.4036840665
 21
101.6997492153
  0
LINE
  5
5DD
100
AcDbEntity
  8
CURVE
100
AcDbLine
 62
250
  6
CONTINUOUS
 10
159.5615461175
 20
92.9440801553
 11
159.5604294328
 21
92.9917358685
  0
LINE
  5
5DE
100
AcDbEntity
  8
CURVE
100
AcDbLine
 62
250
  6
CONTINUOUS
 10
159.3762781419
 20
109.0916837176
 11
159.3778238514
 21
109.0262289718
  0
LINE
  5
5DF
100
AcDbEntity
  8
CURVE
100
AcDbLine
 62
250
  6
CONTINUOUS
 10
159.398524509
 20
109.9737692322
 11
159.4000702275
 21
109.9083129919
  0
LINE
  5
5E0
100
AcDbEntity
  8
CURVE
100
AcDbLine
 62
250
  6
CONTINUOUS
 10
159.4138227182
 20
102.9756348084
 11
159.4197636607
 21
102.7204599695
  0
LINE
  5
5E1
100
AcDbEntity
  8
CURVE
100
AcDbLine
 62
250
  6
CONTINUOUS
 10
159.5847106796
 20
109.5596116305
 11
159.585229456
 21
109.5362778478
  0
LINE
  5
5E2
100
AcDbEntity
  8
CURVE
100
AcDbLine
 62
250
  6
CONTINUOUS
 10
159.4096784767
 20
101.9590606346
 11
159.4057163872
 21
102.1353517044
  0
LINE
  5
5E3
100
AcDbEntity
  8
CURVE
100
AcDbLine
 62
250
  6
CONTINUOUS
 10
159.3704200866
 20
111.8101793478
 11
159.3709291211
 21
111.7872296991
  0
LINE
  5
5E4
100
AcDbEntity
  8
CURVE
100
AcDbLine
 62
250
  6
CONTINUOUS
 10
159.583726994
 20
90.2994323734
 11
159.5828880299
 21
90.3380888527
  0
LINE
  5
5E5
100
AcDbEntity
  8
CURVE
100
AcDbLine
 62
250
  6
CONTINUOUS
 10
159.5581933707
 20
92.8753309357
 11
159.5593768872
 21
92.8201134678
  0
LINE
  5
5E6
100
AcDbEntity
  8
CURVE
100
AcDbLine
 62
250
  6
CONTINUOUS
 10
159.3709145247
 20
108.5383548139
 11
159.3704152436
 21
108.561349737
  0
LINE
  5
5E7
100
AcDbEntity
  8
CURVE
100
AcDbLine
 62
250
  6
CONTINUOUS
 10
159.4059342665
 20
110.438604101
 11
159.4054349277
 21
110.4615897616
  0
LINE
  5
5E8
100
AcDbEntity
  8
CURVE
100
AcDbLine
 62
250
  6
CONTINUOUS
 10
159.4467132047
 20
118.5197352041
 11
159.4461097791
 21
118.5489282646
  0
LINE
  5
5E9
100
AcDbEntity
  8
CURVE
100
AcDbLine
 62
250
  6
CONTINUOUS
 10
159.5807766066
 20
90.2051305888
 11
159.5819515037
 21
90.1477036666
  0
LINE
  5
5EA
100
AcDbEntity
  8
CURVE
100
AcDbLine
 62
250
  6
CONTINUOUS
 10
159.3788861766
 20
112.2164733062
 11
159.377409666
 21
112.2908442936
  0
LINE
  5
5EB
100
AcDbEntity
  8
CURVE
100
AcDbLine
 62
250
  6
CONTINUOUS
 10
159.3737559748
 20
99.3017729876
 11
159.3705655948
 21
99.4626112458
  0
LINE
  5
5EC
100
AcDbEntity
  8
CURVE
100
AcDbLine
 62
250
  6
CONTINUOUS
 10
159.4597397923
 20
114.93899
 11
159.3722850645
 21
119.875622
  0
LINE
  5
5ED
100
AcDbEntity
  8
CURVE
100
AcDbLine
 62
250
  6
CONTINUOUS
 10
159.2935426388
 20
90.4892858267
 11
159.291485434
 21
90.60714252
  0
LINE
  5
5EE
100
AcDbEntity
  8
CURVE
100
AcDbLine
 62
250
  6
CONTINUOUS
 10
159.0565277924
 20
104.3214285836
 11
159.061265596
 21
104.05
  0
LINE
  5
5EF
100
AcDbEntity
  8
CURVE
100
AcDbLine
 62
250
  6
CONTINUOUS
 10
159.0873235133
 20
104.05
 11
159.0825857102
 21
104.3214285836
  0
LINE
  5
5F0
100
AcDbEntity
  8
CURVE
100
AcDbLine
 62
250
  6
CONTINUOUS
 10
159.2729705976
 20
93.9857144356
 11
159.2770850059
 21
93.7500002623
  0
LINE
  5
5F1
100
AcDbEntity
  8
CURVE
100
AcDbLine
 62
250
  6
CONTINUOUS
 10
159.0731101041
 20
105.6785714447
 11
159.0683723011
 21
105.95
  0
LINE
  5
5F2
100
AcDbEntity
  8
CURVE
100
AcDbLine
 62
250
  6
CONTINUOUS
 10
159.2750278017
 20
94.9285711288
 11
159.2729705976
 21
95.0464286089
  0
LINE
  5
5F3
100
AcDbEntity
  8
CURVE
100
AcDbLine
 62
250
  6
CONTINUOUS
 10
159.3017714547
 20
94.1035711288
 11
159.2976570468
 21
94.3392860889
  0
LINE
  5
5F4
100
AcDbEntity
  8
CURVE
100
AcDbLine
 62
250
  6
CONTINUOUS
 10
159.2118778703
 20
100.03571437
 11
159.2159922786
 21
99.8
  0
LINE
  5
5F5
100
AcDbEntity
  8
CURVE
100
AcDbLine
 62
250
  6
CONTINUOUS
 10
159.2118778703
 20
101.3321429133
 11
159.2159922786
 21
101.0964285433
  0
LINE
  5
5F6
100
AcDbEntity
  8
CURVE
100
AcDbLine
 62
250
  6
CONTINUOUS
 10
159.2406787274
 20
100.1535714567
 11
159.2365643195
 21
100.38928563
  0
LINE
  5
5F7
100
AcDbEntity
  8
CURVE
100
AcDbLine
 62
250
  6
CONTINUOUS
 10
159.2935426388
 20
97.8357143044
 11
159.291485434
 21
97.9535713911
  0
LINE
  5
5F8
100
AcDbEntity
  8
CURVE
100
AcDbLine
 62
250
  6
CONTINUOUS
 10
159.2406787274
 20
101.45
 11
159.2365643195
 21
101.6857142717
  0
LINE
  5
5F9
100
AcDbEntity
  8
CURVE
100
AcDbLine
 62
250
  6
CONTINUOUS
 10
159.5128530617
 20
90.1357140064
 11
159.5033774546
 21
90.6785713434
  0
LINE
  5
5FA
100
AcDbEntity
  8
CURVE
100
AcDbLine
 62
250
  6
CONTINUOUS
 10
159.5318042749
 20
90.9499997854
 11
159.536542078
 21
90.6785713434
  0
LINE
  5
5FB
100
AcDbEntity
  8
CURVE
100
AcDbLine
 62
250
  6
CONTINUOUS
 10
159.5128530617
 20
94.2071426749
 11
159.5033774546
 21
94.7499998987
  0
LINE
  5
5FC
100
AcDbEntity
  8
CURVE
100
AcDbLine
 62
250
  6
CONTINUOUS
 10
159.536542078
 20
92.9857142329
 11
159.5270664719
 21
93.5285713434
  0
LINE
  5
5FD
100
AcDbEntity
  8
CURVE
100
AcDbLine
 62
250
  6
CONTINUOUS
 10
159.5033774546
 20
95.9714283973
 11
159.5081152582
 21
95.699999842
  0
LINE
  5
5FE
100
AcDbEntity
  8
CURVE
100
AcDbLine
 62
250
  6
CONTINUOUS
 10
159.4036840665
 20
101.6997492153
 11
159.4061743478
 21
101.5706427354
  0
LINE
  5
5FF
100
AcDbEntity
  8
CURVE
100
AcDbLine
 62
250
  6
CONTINUOUS
 10
159.5318042749
 20
95.0214284539
 11
159.536542078
 21
94.7499998987
  0
LINE
  5
600
100
AcDbEntity
  8
CURVE
100
AcDbLine
 62
250
  6
CONTINUOUS
 10
159.536542078
 20
96.1071427032
 11
159.5318042749
 21
96.3785712726
  0
LINE
  5
601
100
AcDbEntity
  8
CURVE
100
AcDbLine
 62
250
  6
CONTINUOUS
 10
159.4886653285
 20
102.6476191044
 11
159.4919069839
 21
102.4619049072
  0
LINE
  5
602
100
AcDbEntity
  8
CURVE
100
AcDbLine
 62
250
  6
CONTINUOUS
 10
159.4789403637
 20
104.9380952358
 11
159.4821820188
 21
104.7523810387
  0
LINE
  5
603
100
AcDbEntity
  8
CURVE
100
AcDbLine
 62
250
  6
CONTINUOUS
 10
159.5235754584
 20
102.8178570747
 11
159.5268171138
 21
102.6321428776
  0
LINE
  5
604
100
AcDbEntity
  8
CURVE
100
AcDbLine
 62
250
  6
CONTINUOUS
 10
159.5138504936
 20
103.839285779
 11
159.5170921486
 21
103.6535715818
  0
LINE
  5
605
100
AcDbEntity
  8
CURVE
100
AcDbLine
 62
250
  6
CONTINUOUS
 10
159.5170921486
 20
104.6749999762
 11
159.5138504936
 21
104.8607144833
  0
LINE
  5
606
100
AcDbEntity
  8
CURVE
100
AcDbLine
 62
250
  6
CONTINUOUS
 10
159.536542078
 20
104.1178573847
 11
159.5333004232
 21
104.3035715818
  0
LINE
  5
607
100
AcDbEntity
  8
CURVE
100
AcDbLine
 62
250
  6
CONTINUOUS
 10
159.4886653285
 20
107.0738095105
 11
159.4919069839
 21
106.8880952358
  0
LINE
  5
608
100
AcDbEntity
  8
CURVE
100
AcDbLine
 62
250
  6
CONTINUOUS
 10
159.536542078
 20
105.139285779
 11
159.5333004232
 21
105.3249999762
  0
LINE
  5
609
100
AcDbEntity
  8
CURVE
100
AcDbLine
 62
250
  6
CONTINUOUS
 10
159.5170921486
 20
107.6464286804
 11
159.5138504936
 21
107.8321429551
  0
LINE
  5
60A
100
AcDbEntity
  8
CURVE
100
AcDbLine
 62
250
  6
CONTINUOUS
 10
159.536542078
 20
108.1107143864
 11
159.5333004232
 21
108.2964286804
  0
LINE
  5
60B
100
AcDbEntity
  8
CURVE
100
AcDbLine
 62
250
  6
CONTINUOUS
 10
159.5138504936
 20
115.6571429014
 11
159.5170921486
 21
115.4714287043
  0
LINE
  5
60C
100
AcDbEntity
  8
CURVE
100
AcDbLine
 62
250
  6
CONTINUOUS
 10
159.5815809047
 20
109.0617110987
 11
159.5802004562
 21
109.1332742367
  0
LINE
  5
60D
100
AcDbEntity
  8
CURVE
100
AcDbLine
 62
250
  6
CONTINUOUS
 10
159.3778238514
 20
109.0262289718
 11
159.3792435944
 21
108.9494936612
  0
LINE
  5
60E
100
AcDbEntity
  8
CURVE
100
AcDbLine
 62
250
  6
CONTINUOUS
 10
159.3971047635
 20
110.050505861
 11
159.398524509
 21
109.9737692322
  0
LINE
  5
60F
100
AcDbEntity
  8
CURVE
100
AcDbLine
 62
250
  6
CONTINUOUS
 10
159.4197636607
 20
102.7204599695
 11
159.4264762435
 21
102.3489302944
  0
LINE
  5
610
100
AcDbEntity
  8
CURVE
100
AcDbLine
 62
250
  6
CONTINUOUS
 10
159.5604294328
 20
92.9917358685
 11
159.5591027871
 21
93.0662098043
  0
LINE
  5
611
100
AcDbEntity
  8
CURVE
100
AcDbLine
 62
250
  6
CONTINUOUS
 10
159.5840907939
 20
109.5953549617
 11
159.5847106796
 21
109.5596116305
  0
LINE
  5
612
100
AcDbEntity
  8
CURVE
100
AcDbLine
 62
250
  6
CONTINUOUS
 10
159.4142403724
 20
101.696921087
 11
159.4096784767
 21
101.9590606346
  0
LINE
  5
613
100
AcDbEntity
  8
CURVE
100
AcDbLine
 62
250
  6
CONTINUOUS
 10
159.3709291211
 20
111.7872296991
 11
159.3714946242
 21
111.7542032563
  0
LINE
  5
614
100
AcDbEntity
  8
CURVE
100
AcDbLine
 62
250
  6
CONTINUOUS
 10
159.5567926407
 20
92.9589277279
 11
159.5581933707
 21
92.8753309357
  0
LINE
  5
615
100
AcDbEntity
  8
CURVE
100
AcDbLine
 62
250
  6
CONTINUOUS
 10
159.5828880299
 20
90.3380888527
 11
159.5818980574
 21
90.3975425808
  0
LINE
  5
616
100
AcDbEntity
  8
CURVE
100
AcDbLine
 62
250
  6
CONTINUOUS
 10
159.3714751898
 20
108.5049725496
 11
159.3709145247
 21
108.5383548139
  0
LINE
  5
617
100
AcDbEntity
  8
CURVE
100
AcDbLine
 62
250
  6
CONTINUOUS
 10
159.4054349277
 20
110.4615897616
 11
159.4048741297
 21
110.4949624411
  0
LINE
  5
618
100
AcDbEntity
  8
CURVE
100
AcDbLine
 62
250
  6
CONTINUOUS
 10
159.4405389765
 20
106.494302
 11
159.4165941359
 21
108.237419
  0
LINE
  5
619
100
AcDbEntity
  8
CURVE
100
AcDbLine
 62
250
  6
CONTINUOUS
 10
159.4223724431
 20
108.625004
 11
159.4405389765
 21
107.302519
  0
LINE
  5
61A
100
AcDbEntity
  8
CURVE
100
AcDbLine
 62
250
  6
CONTINUOUS
 10
159.3804828355
 20
112.110585282
 11
159.3788861766
 21
112.2164733062
  0
LINE
  5
61B
100
AcDbEntity
  8
CURVE
100
AcDbLine
 62
250
  6
CONTINUOUS
 10
159.5795171032
 20
90.2888210777
 11
159.5807766066
 21
90.2051305888
  0
LINE
  5
61C
100
AcDbEntity
  8
CURVE
100
AcDbLine
 62
250
  6
CONTINUOUS
 10
159.4476983469
 20
118.4540843615
 11
159.4467132047
 21
118.5197352041
  0
LINE
  5
61D
100
AcDbEntity
  8
CURVE
100
AcDbLine
 62
250
  6
CONTINUOUS
 10
159.3705655948
 20
99.4626112458
 11
159.367102303
 21
99.6991891143
  0
LINE
  5
61E
100
AcDbEntity
  8
CURVE
100
AcDbLine
 62
250
  6
CONTINUOUS
 10
159.4061743478
 20
101.5706427354
 11
159.4090430194
 21
101.3744142403
  0
LINE
  5
61F
100
AcDbEntity
  8
CURVE
100
AcDbLine
 62
250
  6
CONTINUOUS
 10
159.5802004562
 20
109.1332742367
 11
159.5785137519
 21
109.2461997518
  0
LINE
  5
620
100
AcDbEntity
  8
CURVE
100
AcDbLine
 62
250
  6
CONTINUOUS
 10
159.3792435944
 20
108.9494936612
 11
159.3810311388
 21
108.8181241456
  0
LINE
  5
621
100
AcDbEntity
  8
CURVE
100
AcDbLine
 62
250
  6
CONTINUOUS
 10
159.3953172232
 20
110.1818767449
 11
159.3971047635
 21
110.050505861
  0
LINE
  5
622
100
AcDbEntity
  8
CURVE
100
AcDbLine
 62
250
  6
CONTINUOUS
 10
159.4264762435
 20
102.3489302944
 11
159.4328922259
 21
101.8666446239
  0
LINE
  5
623
100
AcDbEntity
  8
CURVE
100
AcDbLine
 62
250
  6
CONTINUOUS
 10
159.5591027871
 20
93.0662098043
 11
159.5577310969
 21
93.1730440735
  0
LINE
  5
624
100
AcDbEntity
  8
CURVE
100
AcDbLine
 62
250
  6
CONTINUOUS
 10
159.291485434
 20
94.96785748
 11
159.2894282309
 21
95.1642860889
  0
LINE
  5
625
100
AcDbEntity
  8
CURVE
100
AcDbLine
 62
250
  6
CONTINUOUS
 10
159.3714946242
 20
111.7542032563
 11
159.3720982657
 21
111.7052985012
  0
LINE
  5
626
100
AcDbEntity
  8
CURVE
100
AcDbLine
 62
250
  6
CONTINUOUS
 10
159.5834430556
 20
109.647705321
 11
159.5840907939
 21
109.5953549617
  0
LINE
  5
627
100
AcDbEntity
  8
CURVE
100
AcDbLine
 62
250
  6
CONTINUOUS
 10
159.4188557877
 20
101.3261989654
 11
159.4142403724
 21
101.696921087
  0
LINE
  5
628
100
AcDbEntity
  8
CURVE
100
AcDbLine
 62
250
  6
CONTINUOUS
 10
159.5818980574
 20
90.3975425808
 11
159.5808646346
 21
90.4840878156
  0
LINE
  5
629
100
AcDbEntity
  8
CURVE
100
AcDbLine
 62
250
  6
CONTINUOUS
 10
159.4048741297
 20
110.4949624411
 11
159.4042688828
 21
110.5451980945
  0
LINE
  5
62A
100
AcDbEntity
  8
CURVE
100
AcDbLine
 62
250
  6
CONTINUOUS
 10
159.3720801661
 20
108.4547333712
 11
159.3714751898
 21
108.5049725496
  0
LINE
  5
62B
100
AcDbEntity
  8
CURVE
100
AcDbLine
 62
250
  6
CONTINUOUS
 10
159.5551966545
 20
93.0930399263
 11
159.5567926407
 21
92.9589277279
  0
LINE
  5
62C
100
AcDbEntity
  8
CURVE
100
AcDbLine
 62
250
  6
CONTINUOUS
 10
159.2935426388
 20
91.55
 11
159.291485434
 21
91.7857141733
  0
LINE
  5
62D
100
AcDbEntity
  8
CURVE
100
AcDbLine
 62
250
  6
CONTINUOUS
 10
159.2811994142
 20
99.1321430445
 11
159.2832566182
 21
98.8964284778
  0
LINE
  5
62E
100
AcDbEntity
  8
CURVE
100
AcDbLine
 62
250
  6
CONTINUOUS
 10
159.5785137519
 20
109.2461997518
 11
159.578215186
 21
109.2754207985
  0
LINE
  5
62F
100
AcDbEntity
  8
CURVE
100
AcDbLine
 62
250
  6
CONTINUOUS
 10
159.3821961762
 20
111.9469430007
 11
159.3804828355
 21
112.110585282
  0
LINE
  5
630
100
AcDbEntity
  8
CURVE
100
AcDbLine
 62
250
  6
CONTINUOUS
 10
159.4090430194
 20
101.3744142403
 11
159.412025173
 21
101.0790791826
  0
LINE
  5
631
100
AcDbEntity
  8
CURVE
100
AcDbLine
 62
250
  6
CONTINUOUS
 10
159.367102303
 20
99.6991891143
 11
159.3640935289
 21
100.0029255012
  0
LINE
  5
632
100
AcDbEntity
  8
CURVE
100
AcDbLine
 62
250
  6
CONTINUOUS
 10
159.578178513
 20
90.4229262632
 11
159.5795171032
 21
90.2888210777
  0
LINE
  5
633
100
AcDbEntity
  8
CURVE
100
AcDbLine
 62
250
  6
CONTINUOUS
 10
159.4492518044
 20
118.2966857681
 11
159.4476983469
 21
118.4540843615
  0
LINE
  5
634
100
AcDbEntity
  8
CURVE
100
AcDbLine
 62
250
  6
CONTINUOUS
 10
159.4328922259
 20
101.8666446239
 11
159.4378805168
 21
101.297346114
  0
LINE
  5
635
100
AcDbEntity
  8
CURVE
100
AcDbLine
 62
250
  6
CONTINUOUS
 10
159.3810311388
 20
108.8181241456
 11
159.3827398534
 21
108.6221626192
  0
LINE
  5
636
100
AcDbEntity
  8
CURVE
100
AcDbLine
 62
250
  6
CONTINUOUS
 10
159.3936085155
 20
110.3778396886
 11
159.3953172232
 21
110.1818767449
  0
LINE
  5
637
100
AcDbEntity
  8
CURVE
100
AcDbLine
 62
250
  6
CONTINUOUS
 10
159.3720982657
 20
111.7052985012
 11
159.3726242847
 21
111.6380141765
  0
LINE
  5
638
100
AcDbEntity
  8
CURVE
100
AcDbLine
 62
250
  6
CONTINUOUS
 10
159.5577310969
 20
93.1730440735
 11
159.5563809527
 21
93.3409014024
  0
LINE
  5
639
100
AcDbEntity
  8
CURVE
100
AcDbLine
 62
250
  6
CONTINUOUS
 10
159.5827685944
 20
109.7355310273
 11
159.5834430556
 21
109.647705321
  0
LINE
  5
63A
100
AcDbEntity
  8
CURVE
100
AcDbLine
 62
250
  6
CONTINUOUS
 10
159.4220243631
 20
100.9063643789
 11
159.4188557877
 21
101.3261989654
  0
LINE
  5
63B
100
AcDbEntity
  8
CURVE
100
AcDbLine
 62
250
  6
CONTINUOUS
 10
159.5808646346
 20
90.4840878156
 11
159.5798147969
 21
90.6295162183
  0
LINE
  5
63C
100
AcDbEntity
  8
CURVE
100
AcDbLine
 62
250
  6
CONTINUOUS
 10
159.3726685586
 20
108.3734499287
 11
159.3720801661
 21
108.4547333712
  0
LINE
  5
63D
100
AcDbEntity
  8
CURVE
100
AcDbLine
 62
250
  6
CONTINUOUS
 10
159.4042688828
 20
110.5451980945
 11
159.4036800576
 21
110.6264996687
  0
LINE
  5
63E
100
AcDbEntity
  8
CURVE
100
AcDbLine
 62
250
  6
CONTINUOUS
 10
159.553634817
 20
93.3160071995
 11
159.5551966545
 21
93.0930399263
  0
LINE
  5
63F
100
AcDbEntity
  8
CURVE
100
AcDbLine
 62
250
  6
CONTINUOUS
 10
159.3835067946
 20
111.7215775435
 11
159.3821961762
 21
111.9469430007
  0
LINE
  5
640
100
AcDbEntity
  8
CURVE
100
AcDbLine
 62
250
  6
CONTINUOUS
 10
159.412025173
 20
101.0790791826
 11
159.4140263853
 21
100.7127215957
  0
LINE
  5
641
100
AcDbEntity
  8
CURVE
100
AcDbLine
 62
250
  6
CONTINUOUS
 10
159.4508310808
 20
117.9914486874
 11
159.4492518044
 21
118.2966857681
  0
LINE
  5
642
100
AcDbEntity
  8
CURVE
100
AcDbLine
 62
250
  6
CONTINUOUS
 10
159.5769287001
 20
90.6610628271
 11
159.578178513
 21
90.4229262632
  0
LINE
  5
643
100
AcDbEntity
  8
CURVE
100
AcDbLine
 62
250
  6
CONTINUOUS
 10
159.3640935289
 20
100.0029255012
 11
159.3622385211
 21
100.3596106877
  0
LINE
  5
644
100
AcDbEntity
  8
CURVE
100
AcDbLine
 62
250
  6
CONTINUOUS
 10
159.578215186
 20
109.2754207985
 11
159.5780619259
 21
109.30544429
  0
LINE
  5
645
100
AcDbEntity
  8
CURVE
100
AcDbLine
 62
250
  6
CONTINUOUS
 10
159.3827398534
 20
108.6221626192
 11
159.3837093913
 21
108.3891203413
  0
LINE
  5
646
100
AcDbEntity
  8
CURVE
100
AcDbLine
 62
250
  6
CONTINUOUS
 10
159.3926389858
 20
110.6108830864
 11
159.3936085155
 21
110.3778396886
  0
LINE
  5
647
100
AcDbEntity
  8
CURVE
100
AcDbLine
 62
250
  6
CONTINUOUS
 10
159.4378805168
 20
101.297346114
 11
159.4403696266
 21
100.698042479
  0
LINE
  5
648
100
AcDbEntity
  8
CURVE
100
AcDbLine
 62
250
  6
CONTINUOUS
 10
159.3726242847
 20
111.6380141765
 11
159.3728894375
 21
111.5602135476
  0
LINE
  5
649
100
AcDbEntity
  8
CURVE
100
AcDbLine
 62
250
  6
CONTINUOUS
 10
159.5563809527
 20
93.3409014024
 11
159.5555123383
 21
93.6179389301
  0
LINE
  5
64A
100
AcDbEntity
  8
CURVE
100
AcDbLine
 62
250
  6
CONTINUOUS
 10
159.582258848
 20
109.8983345526
 11
159.5827685944
 21
109.7355310273
  0
LINE
  5
64B
100
AcDbEntity
  8
CURVE
100
AcDbLine
 62
250
  6
CONTINUOUS
 10
159.5798147969
 20
90.6295162183
 11
159.5792540357
 21
90.8570372337
  0
LWPOLYLINE
  5
64C
100
AcDbEntity
  8
CURVE
100
AcDbPolyline
 62
250
  6
CONTINUOUS
 90
3
 70
0
 10
159.4230841684
 20
100.5000000008
 10
159.4230680624
 20
100.5487712955
 10
159.4220243631
 20
100.9063643789
  0
LINE
  5
64D
100
AcDbEntity
  8
CURVE
100
AcDbLine
 62
250
  6
CONTINUOUS
 10
159.372901341
 20
108.2777358716
 11
159.3726685586
 21
108.3734499287
  0
LINE
  5
64E
100
AcDbEntity
  8
CURVE
100
AcDbLine
 62
250
  6
CONTINUOUS
 10
159.4036800576
 20
110.6264996687
 11
159.4034470164
 21
110.7222686322
  0
LINE
  5
64F
100
AcDbEntity
  8
CURVE
100
AcDbLine
 62
250
  6
CONTINUOUS
 10
159.4403696266
 20
100.698042479
 11
159.4405392208
 21
100.5000000008
  0
LINE
  5
650
100
AcDbEntity
  8
CURVE
100
AcDbLine
 62
250
  6
CONTINUOUS
 10
159.5527557641
 20
93.736586604
 11
159.553634817
 21
93.3160071995
  0
LINE
  5
651
100
AcDbEntity
  8
ASSI
100
AcDbLine
 62
250
  6
CONTINUOUS
 10
158.9706933414
 20
120.8819135208
 11
158.9706933414
 21
120.8504079514
  0
LINE
  5
652
100
AcDbEntity
  8
ASSI
100
AcDbLine
 62
250
  6
CONTINUOUS
 10
158.9706933414
 20
116.7495920486
 11
158.9706933414
 21
115.8504079514
  0
LINE
  5
653
100
AcDbEntity
  8
ASSI
100
AcDbLine
 62
250
  6
CONTINUOUS
 10
158.9706933414
 20
111.7495920486
 11
158.9706933414
 21
110.8504079514
  0
LINE
  5
654
100
AcDbEntity
  8
ASSI
100
AcDbLine
 62
250
  6
CONTINUOUS
 10
158.9706933414
 20
106.7495920486
 11
158.9706933414
 21
103.7005607713
  0
LINE
  5
655
100
AcDbEntity
  8
CURVE
100
AcDbLine
 62
250
  6
CONTINUOUS
 10
159.0565277924
 20
105.6785714447
 11
159.0565277924
 21
104.3214285836
  0
LINE
  5
656
100
AcDbEntity
  8
CURVE
100
AcDbLine
 62
250
  6
CONTINUOUS
 10
159.0731101041
 20
104.3214285836
 11
159.0731101041
 21
105.6785714447
  0
LINE
  5
657
100
AcDbEntity
  8
CURVE
100
AcDbLine
 62
250
  6
CONTINUOUS
 10
159.0825857102
 20
104.3214285836
 11
159.0825857102
 21
105.95
  0
LINE
  5
658
100
AcDbEntity
  8
CURVE
100
AcDbLine
 62
250
  6
CONTINUOUS
 10
159.0991680219
 20
105.95
 11
159.0991680219
 21
104.3214285836
  0
LINE
  5
659
100
AcDbEntity
  8
CURVE
100
AcDbLine
 62
250
  6
CONTINUOUS
 10
159.1181192341
 20
105.95
 11
159.1181192341
 21
104.05
  0
LINE
  5
65A
100
AcDbEntity
  8
ASSI
100
AcDbLine
 62
7
  6
CONTINUOUS
 10
159.1940301785
 20
103.5889008572
 11
159.1940301785
 21
89.0395316591
  0
LINE
  5
65B
100
AcDbEntity
  8
CURVE
100
AcDbLine
 62
250
  6
CONTINUOUS
 10
159.2118778703
 20
101.45
 11
159.2118778703
 21
101.3321429133
  0
LINE
  5
65C
100
AcDbEntity
  8
CURVE
100
AcDbLine
 62
250
  6
CONTINUOUS
 10
159.2118778703
 20
100.1535714567
 11
159.2118778703
 21
100.03571437
  0
LINE
  5
65D
100
AcDbEntity
  8
CURVE
100
AcDbLine
 62
250
  6
CONTINUOUS
 10
159.2180494826
 20
103.1
 11
159.2180494826
 21
102.275
  0
LINE
  5
65E
100
AcDbEntity
  8
CURVE
100
AcDbLine
 62
250
  6
CONTINUOUS
 10
159.220106687
 20
96.8928572178
 11
159.220106687
 21
97.5214286089
  0
LINE
  5
65F
100
AcDbEntity
  8
CURVE
100
AcDbLine
 62
250
  6
CONTINUOUS
 10
159.2324499116
 20
98.2678570867
 11
159.2324499116
 21
99.2107141733
  0
LINE
  5
660
100
AcDbEntity
  8
CURVE
100
AcDbLine
 62
250
  6
CONTINUOUS
 10
159.2386637802
 20
94.35
 11
159.2386637802
 21
94.5
  0
LINE
  5
661
100
AcDbEntity
  8
CURVE
100
AcDbLine
 62
250
  6
CONTINUOUS
 10
159.2406787274
 20
100.03571437
 11
159.2406787274
 21
100.1535714567
  0
LINE
  5
662
100
AcDbEntity
  8
CURVE
100
AcDbLine
 62
250
  6
CONTINUOUS
 10
159.2406787274
 20
101.3321429133
 11
159.2406787274
 21
101.45
  0
LINE
  5
663
100
AcDbEntity
  8
CURVE
100
AcDbLine
 62
250
  6
CONTINUOUS
 10
159.2729705976
 20
103.1
 11
159.2729705976
 21
102.275
  0
LINE
  5
664
100
AcDbEntity
  8
CURVE
100
AcDbLine
 62
250
  6
CONTINUOUS
 10
159.2729705976
 20
97.8357143044
 11
159.2729705976
 21
97.3642855644
  0
LINE
  5
665
100
AcDbEntity
  8
CURVE
100
AcDbLine
 62
250
  6
CONTINUOUS
 10
159.2729705976
 20
94.1035711288
 11
159.2729705976
 21
93.9857144356
  0
LINE
  5
666
100
AcDbEntity
  8
CURVE
100
AcDbLine
 62
250
  6
CONTINUOUS
 10
159.2729705976
 20
91.55
 11
159.2729705976
 21
91.0785716534
  0
LINE
  5
667
100
AcDbEntity
  8
CURVE
100
AcDbLine
 62
250
  6
CONTINUOUS
 10
159.2729705976
 20
90.4892858267
 11
159.2729705976
 21
90.01785748
  0
LINE
  5
668
100
AcDbEntity
  8
CURVE
100
AcDbLine
 62
250
  6
CONTINUOUS
 10
159.2729705976
 20
95.0464286089
 11
159.2729705976
 21
95.6357144356
  0
LINE
  5
669
100
AcDbEntity
  8
CURVE
100
AcDbLine
 62
250
  6
CONTINUOUS
 10
159.2729705976
 20
98.4250001311
 11
159.2729705976
 21
98.8964284778
  0
LINE
  5
66A
100
AcDbEntity
  8
CURVE
100
AcDbLine
 62
250
  6
CONTINUOUS
 10
159.2791422099
 20
101.8035714567
 11
159.2791422099
 21
100.9785714567
  0
LINE
  5
66B
100
AcDbEntity
  8
CURVE
100
AcDbLine
 62
250
  6
CONTINUOUS
 10
159.2832566182
 20
98.8964284778
 11
159.2832566182
 21
98.4250001311
  0
LINE
  5
66C
100
AcDbEntity
  8
CURVE
100
AcDbLine
 62
250
  6
CONTINUOUS
 10
159.2894282309
 20
95.4000002623
 11
159.2894282309
 21
95.1642860889
  0
LINE
  5
66D
100
AcDbEntity
  8
CURVE
100
AcDbLine
 62
250
  6
CONTINUOUS
 10
159.2935426388
 20
99.1321430445
 11
159.2935426388
 21
98.5428572178
  0
LINE
  5
66E
100
AcDbEntity
  8
CURVE
100
AcDbLine
 62
250
  6
CONTINUOUS
 10
159.2935426388
 20
90.01785748
 11
159.2935426388
 21
90.4892858267
  0
LINE
  5
66F
100
AcDbEntity
  8
CURVE
100
AcDbLine
 62
250
  6
CONTINUOUS
 10
159.2935426388
 20
91.0785716534
 11
159.2935426388
 21
91.55
  0
LINE
  5
670
100
AcDbEntity
  8
CURVE
100
AcDbLine
 62
250
  6
CONTINUOUS
 10
159.2935426388
 20
97.3642855644
 11
159.2935426388
 21
97.8357143044
  0
LINE
  5
671
100
AcDbEntity
  8
CURVE
100
AcDbLine
 62
250
  6
CONTINUOUS
 10
159.3017714547
 20
102.8642857037
 11
159.3017714547
 21
102.5107142717
  0
LINE
  5
672
100
AcDbEntity
  8
CURVE
100
AcDbLine
 62
250
  6
CONTINUOUS
 10
159.3017714547
 20
95.6357144356
 11
159.3017714547
 21
95.1642860889
  0
LINE
  5
673
100
AcDbEntity
  8
CURVE
100
AcDbLine
 62
250
  6
CONTINUOUS
 10
159.3017714547
 20
93.9857144356
 11
159.3017714547
 21
94.1035711288
  0
LINE
  5
674
100
AcDbEntity
  8
CURVE
100
AcDbLine
 62
250
  6
CONTINUOUS
 10
159.3358088313
 20
119.592362
 11
159.3358088313
 21
115.407638
  0
LINE
  5
675
100
AcDbEntity
  8
CURVE
100
AcDbLine
 62
250
  6
CONTINUOUS
 10
159.3358088313
 20
102.500000718
 11
159.3358088313
 21
103.5
  0
LINE
  5
676
100
AcDbEntity
  8
CURVE
100
AcDbLine
 62
250
  6
CONTINUOUS
 10
159.3358088313
 20
106.5000109646
 11
159.3358088313
 21
107.125008861
  0
LINE
  5
677
100
AcDbEntity
  8
CURVE
100
AcDbLine
 62
250
  6
CONTINUOUS
 10
159.3358088313
 20
108.6250038121
 11
159.3358088313
 21
109.2500019129
  0
LINE
  5
678
100
AcDbEntity
  8
CURVE
100
AcDbLine
 62
250
  6
CONTINUOUS
 10
159.3467188317
 20
107.125008861
 11
159.3467188317
 21
108.6250038121
  0
LINE
  5
679
100
AcDbEntity
  8
CURVE
100
AcDbLine
 62
250
  6
CONTINUOUS
 10
159.3535957519
 20
115.407638
 11
159.3535957519
 21
119.592362
  0
LINE
  5
67A
100
AcDbEntity
  8
CURVE
100
AcDbLine
 62
250
  6
CONTINUOUS
 10
159.3576282106
 20
108.6250038121
 11
159.3576282106
 21
107.125008861
  0
LINE
  5
67B
100
AcDbEntity
  8
CURVE
100
AcDbLine
 62
250
  6
CONTINUOUS
 10
159.3728894375
 20
111.5602135476
 11
159.3729007556
 21
109.7499912036
  0
LINE
  5
67C
100
AcDbEntity
  8
CURVE
100
AcDbLine
 62
250
  6
CONTINUOUS
 10
159.3736424751
 20
91.998126
 11
159.3736424751
 21
90.50959
  0
LINE
  5
67D
100
AcDbEntity
  8
CURVE
100
AcDbLine
 62
250
  6
CONTINUOUS
 10
159.3817686456
 20
118.218117
 11
159.3817686456
 21
118.100497
  0
LINE
  5
67E
100
AcDbEntity
  8
CURVE
100
AcDbLine
 62
250
  6
CONTINUOUS
 10
159.3838101706
 20
109.7499912036
 11
159.3835067946
 21
111.7215775435
  0
LINE
  5
67F
100
AcDbEntity
  8
CURVE
100
AcDbLine
 62
250
  6
CONTINUOUS
 10
159.3851976582
 20
116.928959
 11
159.3851976582
 21
118.274826
  0
LINE
  5
680
100
AcDbEntity
  8
CURVE
100
AcDbLine
 62
250
  6
CONTINUOUS
 10
159.3869955997
 20
90.50959
 11
159.3869955997
 21
91.9981264558
  0
LINE
  5
681
100
AcDbEntity
  8
CURVE
100
AcDbLine
 62
250
  6
CONTINUOUS
 10
159.3925375654
 20
108.625004
 11
159.3925375654
 21
109.250002
  0
LINE
  5
682
100
AcDbEntity
  8
CURVE
100
AcDbLine
 62
250
  6
CONTINUOUS
 10
159.3925376701
 20
106.497748
 11
159.3925376701
 21
107.302606
  0
LINE
  5
683
100
AcDbEntity
  8
CURVE
100
AcDbLine
 62
250
  6
CONTINUOUS
 10
159.4256723755
 20
117.71193
 11
159.4256723755
 21
116.88859
  0
LINE
  5
684
100
AcDbEntity
  8
CURVE
100
AcDbLine
 62
250
  6
CONTINUOUS
 10
159.4294363159
 20
116.88859
 11
159.4294363159
 21
117.71193
  0
LINE
  5
685
100
AcDbEntity
  8
CURVE
100
AcDbLine
 62
250
  6
CONTINUOUS
 10
159.4310494432
 20
116.432113
 11
159.4310494432
 21
116.082053
  0
LINE
  5
686
100
AcDbEntity
  8
CURVE
100
AcDbLine
 62
250
  6
CONTINUOUS
 10
159.4375508265
 20
116.082053
 11
159.4375508265
 21
116.432113
  0
LINE
  5
687
100
AcDbEntity
  8
CURVE
100
AcDbLine
 62
250
  6
CONTINUOUS
 10
159.4405389765
 20
107.302519
 11
159.4405389765
 21
106.494302
  0
LINE
  5
688
100
AcDbEntity
  8
CURVE
100
AcDbLine
 62
250
  6
CONTINUOUS
 10
159.4405389752
 20
109.7499912036
 11
159.4405389752
 21
110.3749981263
  0
LINE
  5
689
100
AcDbEntity
  8
CURVE
100
AcDbLine
 62
250
  6
CONTINUOUS
 10
159.4405389752
 20
111.8749930774
 11
159.4405389752
 21
112.5
  0
LINE
  5
68A
100
AcDbEntity
  8
CURVE
100
AcDbLine
 62
250
  6
CONTINUOUS
 10
159.4405392209
 20
109.250002
 11
159.4405392209
 21
108.625004
  0
LINE
  5
68B
100
AcDbEntity
  8
CURVE
100
AcDbLine
 62
250
  6
CONTINUOUS
 10
159.4438854441
 20
116.372066
 11
159.4438854441
 21
118.809973
  0
LINE
  5
68C
100
AcDbEntity
  8
CURVE
100
AcDbLine
 62
250
  6
CONTINUOUS
 10
159.4486000222
 20
117.656927
 11
159.4485902823
 21
117.083924
  0
LINE
  5
68D
100
AcDbEntity
  8
CURVE
100
AcDbLine
 62
250
  6
CONTINUOUS
 10
159.4507735269
 20
118.18241
 11
159.4507735269
 21
118.281784
  0
LINE
  5
68E
100
AcDbEntity
  8
CURVE
100
AcDbLine
 62
250
  6
CONTINUOUS
 10
159.4523866542
 20
117.083924
 11
159.4508310808
 21
117.9914486874
  0
LINE
  5
68F
100
AcDbEntity
  8
CURVE
100
AcDbLine
 62
250
  6
CONTINUOUS
 10
159.4789403637
 20
105.4023808837
 11
159.4789403637
 21
104.9380952358
  0
LINE
  5
690
100
AcDbEntity
  8
CURVE
100
AcDbLine
 62
250
  6
CONTINUOUS
 10
159.4789403637
 20
113.8404764563
 11
159.4789403637
 21
114.3047616392
  0
LINE
  5
691
100
AcDbEntity
  8
CURVE
100
AcDbLine
 62
250
  6
CONTINUOUS
 10
159.4854236738
 20
103.6071429729
 11
159.4854236738
 21
104.1023810387
  0
LINE
  5
692
100
AcDbEntity
  8
CURVE
100
AcDbLine
 62
250
  6
CONTINUOUS
 10
159.4854236738
 20
105.8976191044
 11
159.4854236738
 21
106.3928571701
  0
LINE
  5
693
100
AcDbEntity
  8
CURVE
100
AcDbLine
 62
250
  6
CONTINUOUS
 10
159.4854236738
 20
114.799999705
 11
159.4854236738
 21
115.2952380806
  0
LINE
  5
694
100
AcDbEntity
  8
CURVE
100
AcDbLine
 62
250
  6
CONTINUOUS
 10
159.4886653285
 20
107.5380952358
 11
159.4886653285
 21
107.0738095105
  0
LINE
  5
695
100
AcDbEntity
  8
CURVE
100
AcDbLine
 62
250
  6
CONTINUOUS
 10
159.4886653285
 20
103.1119049072
 11
159.4886653285
 21
102.6476191044
  0
LINE
  5
696
100
AcDbEntity
  8
CURVE
100
AcDbLine
 62
250
  6
CONTINUOUS
 10
159.5016319481
 20
102.6476191044
 11
159.5016319481
 21
103.1119049072
  0
LINE
  5
697
100
AcDbEntity
  8
CURVE
100
AcDbLine
 62
250
  6
CONTINUOUS
 10
159.5016319481
 20
104.9380952358
 11
159.5016319481
 21
105.4023808837
  0
LINE
  5
698
100
AcDbEntity
  8
CURVE
100
AcDbLine
 62
250
  6
CONTINUOUS
 10
159.5016319481
 20
107.0738095105
 11
159.5016319481
 21
107.5380952358
  0
LINE
  5
699
100
AcDbEntity
  8
CURVE
100
AcDbLine
 62
250
  6
CONTINUOUS
 10
159.5016319481
 20
115.7904761463
 11
159.5016319481
 21
116.5333332449
  0
LINE
  5
69A
100
AcDbEntity
  8
CURVE
100
AcDbLine
 62
250
  6
CONTINUOUS
 10
159.5033774546
 20
96.1071427032
 11
159.5033774546
 21
95.9714283973
  0
LINE
  5
69B
100
AcDbEntity
  8
CURVE
100
AcDbLine
 62
250
  6
CONTINUOUS
 10
159.5138504936
 20
116.1214285493
 11
159.5138504936
 21
115.6571429014
  0
LINE
  5
69C
100
AcDbEntity
  8
CURVE
100
AcDbLine
 62
250
  6
CONTINUOUS
 10
159.5138504936
 20
114.9452380657
 11
159.5138504936
 21
114.3880951643
  0
LINE
  5
69D
100
AcDbEntity
  8
CURVE
100
AcDbLine
 62
250
  6
CONTINUOUS
 10
159.5138504936
 20
107.2750001311
 11
159.5138504936
 21
106.7178572297
  0
LINE
  5
69E
100
AcDbEntity
  8
CURVE
100
AcDbLine
 62
250
  6
CONTINUOUS
 10
159.5138504936
 20
104.1178573847
 11
159.5138504936
 21
103.839285779
  0
LINE
  5
69F
100
AcDbEntity
  8
CURVE
100
AcDbLine
 62
250
  6
CONTINUOUS
 10
159.5138504936
 20
102.2607144833
 11
159.5138504936
 21
101.7035712719
  0
LINE
  5
6A0
100
AcDbEntity
  8
CURVE
100
AcDbLine
 62
250
  6
CONTINUOUS
 10
159.5138504936
 20
104.8607144833
 11
159.5138504936
 21
105.2321428776
  0
LINE
  5
6A1
100
AcDbEntity
  8
CURVE
100
AcDbLine
 62
250
  6
CONTINUOUS
 10
159.5138504936
 20
107.8321429551
 11
159.5138504936
 21
108.2035715334
  0
LINE
  5
6A2
100
AcDbEntity
  8
CURVE
100
AcDbLine
 62
250
  6
CONTINUOUS
 10
159.5175908648
 20
90.0904760838
 11
159.5175908648
 21
90.6785713434
  0
LINE
  5
6A3
100
AcDbEntity
  8
CURVE
100
AcDbLine
 62
250
  6
CONTINUOUS
 10
159.5175908648
 20
94.1619045258
 11
159.5175908648
 21
94.7499998987
  0
LINE
  5
6A4
100
AcDbEntity
  8
CURVE
100
AcDbLine
 62
250
  6
CONTINUOUS
 10
159.5203338037
 20
116.616666615
 11
159.5203338037
 21
117.1119047582
  0
LINE
  5
6A5
100
AcDbEntity
  8
CURVE
100
AcDbLine
 62
250
  6
CONTINUOUS
 10
159.5235754584
 20
103.2821428776
 11
159.5235754584
 21
102.8178570747
  0
LINE
  5
6A6
100
AcDbEntity
  8
CURVE
100
AcDbLine
 62
250
  6
CONTINUOUS
 10
159.5268171138
 20
114.9452380657
 11
159.5268171138
 21
114.5738096714
  0
LINE
  5
6A7
100
AcDbEntity
  8
CURVE
100
AcDbLine
 62
250
  6
CONTINUOUS
 10
159.5268171138
 20
107.2750001311
 11
159.5268171138
 21
106.9035715818
  0
LINE
  5
6A8
100
AcDbEntity
  8
CURVE
100
AcDbLine
 62
250
  6
CONTINUOUS
 10
159.5268171138
 20
102.2607144833
 11
159.5268171138
 21
101.8892860889
  0
LINE
  5
6A9
100
AcDbEntity
  8
CURVE
100
AcDbLine
 62
250
  6
CONTINUOUS
 10
159.536542078
 20
94.7499998987
 11
159.536542078
 21
94.3428568959
  0
LINE
  5
6AA
100
AcDbEntity
  8
CURVE
100
AcDbLine
 62
250
  6
CONTINUOUS
 10
159.536542078
 20
90.6785713434
 11
159.536542078
 21
90.2714282274
  0
LINE
  5
6AB
100
AcDbEntity
  8
CURVE
100
AcDbLine
 62
250
  6
CONTINUOUS
 10
159.536542078
 20
91.4928571224
 11
159.536542078
 21
92.4428571224
  0
LINE
  5
6AC
100
AcDbEntity
  8
CURVE
100
AcDbLine
 62
250
  6
CONTINUOUS
 10
159.536542078
 20
95.9714283973
 11
159.536542078
 21
96.1071427032
  0
LINE
  5
6AD
100
AcDbEntity
  8
CURVE
100
AcDbLine
 62
250
  6
CONTINUOUS
 10
159.536542078
 20
101.7035712719
 11
159.536542078
 21
102.2607144833
  0
LINE
  5
6AE
100
AcDbEntity
  8
CURVE
100
AcDbLine
 62
250
  6
CONTINUOUS
 10
159.536542078
 20
102.8178570747
 11
159.536542078
 21
103.2821428776
  0
LINE
  5
6AF
100
AcDbEntity
  8
CURVE
100
AcDbLine
 62
250
  6
CONTINUOUS
 10
159.536542078
 20
103.839285779
 11
159.536542078
 21
104.1178573847
  0
LINE
  5
6B0
100
AcDbEntity
  8
CURVE
100
AcDbLine
 62
250
  6
CONTINUOUS
 10
159.536542078
 20
104.7678573847
 11
159.536542078
 21
105.139285779
  0
LINE
  5
6B1
100
AcDbEntity
  8
CURVE
100
AcDbLine
 62
250
  6
CONTINUOUS
 10
159.536542078
 20
106.7178572297
 11
159.536542078
 21
107.2750001311
  0
LINE
  5
6B2
100
AcDbEntity
  8
CURVE
100
AcDbLine
 62
250
  6
CONTINUOUS
 10
159.536542078
 20
107.7392858177
 11
159.536542078
 21
108.1107143864
  0
LINE
  5
6B3
100
AcDbEntity
  8
CURVE
100
AcDbLine
 62
250
  6
CONTINUOUS
 10
159.536542078
 20
114.3880951643
 11
159.536542078
 21
114.9452380657
  0
LINE
  5
6B4
100
AcDbEntity
  8
CURVE
100
AcDbLine
 62
250
  6
CONTINUOUS
 10
159.536542078
 20
115.6571429014
 11
159.536542078
 21
116.1214285493
  0
LINE
  5
6B5
100
AcDbEntity
  8
CURVE
100
AcDbLine
 62
250
  6
CONTINUOUS
 10
159.5539633687
 20
92.085438761
 11
159.5539633687
 21
91.906299713
  0
LINE
  5
6B6
100
AcDbEntity
  8
CURVE
100
AcDbLine
 62
250
  6
CONTINUOUS
 10
159.554008768
 20
106.275599
 11
159.554008768
 21
105.910067
  0
LINE
  5
6B7
100
AcDbEntity
  8
CURVE
100
AcDbLine
 62
250
  6
CONTINUOUS
 10
159.554008768
 20
104.386901
 11
159.554008768
 21
103.964487
  0
LINE
  5
6B8
100
AcDbEntity
  8
CURVE
100
AcDbLine
 62
250
  6
CONTINUOUS
 10
159.554008768
 20
103.156309
 11
159.554008768
 21
101.141725
  0
LINE
  5
6B9
100
AcDbEntity
  8
CURVE
100
AcDbLine
 62
250
  6
CONTINUOUS
 10
159.5540086109
 20
99.789253
 11
159.5540086109
 21
99.350619
  0
LINE
  5
6BA
100
AcDbEntity
  8
CURVE
100
AcDbLine
 62
250
  6
CONTINUOUS
 10
159.554008768
 20
97.827487
 11
159.554008768
 21
95.812877
  0
LINE
  5
6BB
100
AcDbEntity
  8
CURVE
100
AcDbLine
 62
250
  6
CONTINUOUS
 10
159.5541368532
 20
119.081013
 11
159.5541368532
 21
118.547617
  0
LINE
  5
6BC
100
AcDbEntity
  8
CURVE
100
AcDbLine
 62
250
  6
CONTINUOUS
 10
159.5541368532
 20
116.459827
 11
159.5541368532
 21
115.880779
  0
LINE
  5
6BD
100
AcDbEntity
  8
CURVE
100
AcDbLine
 62
250
  6
CONTINUOUS
 10
159.5541368532
 20
115.040105
 11
159.5541368532
 21
114.955216
  0
LINE
  5
6BE
100
AcDbEntity
  8
CURVE
100
AcDbLine
 62
250
  6
CONTINUOUS
 10
159.5541368532
 20
114.111193
 11
159.5541368532
 21
113.519077
  0
LINE
  5
6BF
100
AcDbEntity
  8
CURVE
100
AcDbLine
 62
250
  6
CONTINUOUS
 10
159.5541368532
 20
113.424033
 11
159.5541368532
 21
112.825329
  0
LINE
  5
6C0
100
AcDbEntity
  8
CURVE
100
AcDbLine
 62
250
  6
CONTINUOUS
 10
159.5541368532
 20
111.677235
 11
159.5541368532
 21
111.039304
  0
LINE
  5
6C1
100
AcDbEntity
  8
CURVE
100
AcDbLine
 62
250
  6
CONTINUOUS
 10
159.5541368471
 20
108.7496410148
 11
159.5541368471
 21
109.3318417383
  0
LINE
  5
6C2
100
AcDbEntity
  8
CURVE
100
AcDbLine
 62
250
  6
CONTINUOUS
 10
159.5541368471
 20
110.2587313832
 11
159.5541368471
 21
110.8615673444
  0
LINE
  5
6C3
100
AcDbEntity
  8
CURVE
100
AcDbLine
 62
250
  6
CONTINUOUS
 10
159.5541368532
 20
116.785664
 11
159.5541368532
 21
117.390935
  0
LINE
  5
6C4
100
AcDbEntity
  8
CURVE
100
AcDbLine
 62
250
  6
CONTINUOUS
 10
159.5596803724
 20
95.812877
 11
159.5596803724
 21
97.441638
  0
LINE
  5
6C5
100
AcDbEntity
  8
CURVE
100
AcDbLine
 62
250
  6
CONTINUOUS
 10
159.5596803724
 20
101.141725
 11
159.5596803724
 21
102.770431
  0
LINE
  5
6C6
100
AcDbEntity
  8
CURVE
100
AcDbLine
 62
250
  6
CONTINUOUS
 10
159.5607436302
 20
99.557716
 11
159.5607436302
 21
99.565854
  0
LINE
  5
6C7
100
AcDbEntity
  8
CURVE
100
AcDbLine
 62
250
  6
CONTINUOUS
 10
159.5635793626
 20
104.330048
 11
159.5635793626
 21
104.338157
  0
LINE
  5
6C8
100
AcDbEntity
  8
CURVE
100
AcDbLine
 62
250
  6
CONTINUOUS
 10
159.5642411365
 20
112.658312
 11
159.5642411365
 21
111.834033
  0
LINE
  5
6C9
100
AcDbEntity
  8
CURVE
100
AcDbLine
 62
250
  6
CONTINUOUS
 10
159.5720597837
 20
111.954996
 11
159.5720597837
 21
112.5345
  0
LINE
  5
6CA
100
AcDbEntity
  8
CURVE
100
AcDbLine
 62
250
  6
CONTINUOUS
 10
159.5765491205
 20
91.906299713
 11
159.5769287001
 21
90.6610628271
  0
LINE
  5
6CB
100
AcDbEntity
  8
CURVE
100
AcDbLine
 62
250
  6
CONTINUOUS
 10
159.5771914681
 20
102.770431
 11
159.5771914681
 21
101.263571
  0
LINE
  5
6CC
100
AcDbEntity
  8
CURVE
100
AcDbLine
 62
250
  6
CONTINUOUS
 10
159.5771914681
 20
97.441638
 11
159.5771914681
 21
95.934693
  0
LINE
  5
6CD
100
AcDbEntity
  8
CURVE
100
AcDbLine
 62
250
  6
CONTINUOUS
 10
159.5792484114
 20
90.8850297775
 11
159.5792484114
 21
91.906299713
  0
LINE
  5
6CE
100
AcDbEntity
  8
CURVE
100
AcDbLine
 62
250
  6
CONTINUOUS
 10
159.582233519
 20
110.2788012718
 11
159.582258848
 21
109.8983345526
  0
LINE
  5
6CF
100
AcDbEntity
  8
CURVE
100
AcDbLine
 62
250
  6
CONTINUOUS
 10
159.5828635787
 20
95.934693
 11
159.5828635787
 21
97.441638
  0
LINE
  5
6D0
100
AcDbEntity
  8
CURVE
100
AcDbLine
 62
250
  6
CONTINUOUS
 10
159.5828635787
 20
101.263571
 11
159.5828635787
 21
102.770431
  0
LINE
  5
6D1
100
AcDbEntity
  8
CURVE
100
AcDbLine
 62
250
  6
CONTINUOUS
 10
159.5946320104
 20
105.910067
 11
159.5946320104
 21
105.901901
  0
LINE
  5
6D2
100
AcDbEntity
  8
CURVE
100
AcDbLine
 62
250
  6
CONTINUOUS
 10
159.5989571137
 20
102.770431
 11
159.5989571137
 21
101.153904
  0
LINE
  5
6D3
100
AcDbEntity
  8
CURVE
100
AcDbLine
 62
250
  6
CONTINUOUS
 10
159.5989571137
 20
97.441638
 11
159.5989571137
 21
95.82511
  0
LINE
  5
6D4
100
AcDbEntity
  8
CURVE
100
AcDbLine
 62
250
  6
CONTINUOUS
 10
159.6046286134
 20
98.318929
 11
159.6046286134
 21
98.721054
  0
LINE
  5
6D5
100
AcDbEntity
  8
CURVE
100
AcDbLine
 62
250
  6
CONTINUOUS
 10
159.6046286134
 20
100.394488
 11
159.6046286134
 21
100.812779
  0
LINE
  5
6D6
100
AcDbEntity
  8
CURVE
100
AcDbLine
 62
250
  6
CONTINUOUS
 10
159.604628753
 20
95.82511
 11
159.604628753
 21
97.827487
  0
LINE
  5
6D7
100
AcDbEntity
  8
CURVE
100
AcDbLine
 62
250
  6
CONTINUOUS
 10
159.604628753
 20
101.153904
 11
159.604628753
 21
103.156309
  0
LINE
  5
6D8
100
AcDbEntity
  8
CURVE
100
AcDbLine
 62
250
  6
CONTINUOUS
 10
159.604628753
 20
103.964487
 11
159.604628753
 21
104.330048
  0
LINE
  5
6D9
100
AcDbEntity
  8
CURVE
100
AcDbLine
 62
250
  6
CONTINUOUS
 10
159.604628753
 20
105.865364
 11
159.604628753
 21
106.275599
  0
LINE
  5
6DA
100
AcDbEntity
  8
CURVE
100
AcDbLine
 62
250
  6
CONTINUOUS
 10
159.6046761071
 20
92.5978876209
 11
159.6046761071
 21
92.7769142445
  0
LINE
  5
6DB
100
AcDbEntity
  8
CURVE
100
AcDbLine
 62
250
  6
CONTINUOUS
 10
159.6046761071
 20
94.640566764
 11
159.6046761071
 21
94.8195950655
  0
LINE
  5
6DC
100
AcDbEntity
  8
CURVE
100
AcDbLine
 62
250
  6
CONTINUOUS
 10
159.6047504846
 20
111.92899
 11
159.6047504846
 21
112.514517
  0
LINE
  5
6DD
100
AcDbEntity
  8
CURVE
100
AcDbLine
 62
250
  6
CONTINUOUS
 10
159.6047504846
 20
113.790227
 11
159.6047504846
 21
114.389084
  0
LINE
  5
6DE
100
AcDbEntity
  8
CURVE
100
AcDbLine
 62
250
  6
CONTINUOUS
 10
159.6047504846
 20
115.593234
 11
159.6047504846
 21
116.198005
  0
LINE
  5
6DF
100
AcDbEntity
  8
CURVE
100
AcDbLine
 62
250
  6
CONTINUOUS
 10
159.6047504846
 20
117.615552
 11
159.6047504846
 21
118.22041
  0
LINE
  5
6E0
100
AcDbEntity
  8
CURVE
100
AcDbLine
 62
250
  6
CONTINUOUS
 10
159.6047504846
 20
119.342748
 11
159.6047504846
 21
120.00026
  0
LINE
  5
6E1
100
AcDbEntity
  8
CURVE
100
AcDbLine
 62
250
  6
CONTINUOUS
 10
159.6047535218
 20
117.390935
 11
159.6047535218
 21
116.785664
  0
LINE
  5
6E2
100
AcDbEntity
  8
ASSI
100
AcDbLine
 62
7
  6
CONTINUOUS
 10
159.6325449351
 20
126.8997711479
 11
159.6325449351
 21
121.3780249856
  0
LINE
  5
6E3
100
AcDbEntity
  8
ASSI
100
AcDbLine
 62
7
  6
CONTINUOUS
 10
159.6325449351
 20
88.6219750144
 11
159.6325449351
 21
83.1002288521
  0
LINE
  5
6E4
100
AcDbEntity
  8
ASSI
100
AcDbLine
 62
7
  6
CONTINUOUS
 10
159.65
 20
121.119659166
 11
159.65
 21
88.880340834
  0
LINE
  5
6E5
100
AcDbEntity
  8
CURVE
100
AcDbLine
 62
250
  6
CONTINUOUS
 10
159.4140263853
 20
100.7127215957
 11
159.4143062597
 21
100.4237322257
  0
LINE
  5
6E6
100
AcDbEntity
  8
CURVE
100
AcDbLine
 62
250
  6
CONTINUOUS
 10
159.3837093913
 20
108.3891203413
 11
159.3837535579
 21
107.3866141243
  0
LINE
  5
6E7
100
AcDbEntity
  8
CURVE
100
AcDbLine
 62
250
  6
CONTINUOUS
 10
159.3622385211
 20
100.3596106877
 11
159.3620655264
 21
100.6645706794
  0
LINE
  5
6E8
100
AcDbEntity
  8
CURVE
100
AcDbLine
 62
250
  6
CONTINUOUS
 10
159.5965048487
 20
109.849276557
 11
159.5961279489
 21
110.2788012718
  0
LINE
  5
6E9
100
AcDbEntity
  8
CURVE
100
AcDbLine
 62
250
  6
CONTINUOUS
 10
159.604159148
 20
110.8615673444
 11
159.6049944232
 21
109.716304534
  0
LINE
  5
6EA
100
AcDbEntity
  8
CURVE
100
AcDbLine
 62
250
  6
CONTINUOUS
 10
159.3926955714
 20
111.6648844914
 11
159.3926389858
 21
110.6108830864
  0
LINE
  5
6EB
100
AcDbEntity
  8
CURVE
100
AcDbLine
 62
250
  6
CONTINUOUS
 10
159.5555123383
 20
93.6179389301
 11
159.5557921608
 21
93.9502599913
  0
LINE
  5
6EC
100
AcDbEntity
  8
CURVE
100
AcDbLine
 62
250
  6
CONTINUOUS
 10
159.3727166503
 20
107.3870036163
 11
159.372901341
 21
108.2777358716
  0
LINE
  5
6ED
100
AcDbEntity
  8
CURVE
100
AcDbLine
 62
250
  6
CONTINUOUS
 10
159.4034470164
 20
110.7222686322
 11
159.4036314977
 21
111.6129513349
  0
LINE
  5
6EE
100
AcDbEntity
  8
CURVE
100
AcDbLine
 62
250
  6
CONTINUOUS
 10
159.3467182463
 20
109.7499912036
 11
159.3468950638
 21
111.6184292501
  0
LINE
  5
6EF
100
AcDbEntity
  8
CURVE
100
AcDbLine
 62
250
  6
CONTINUOUS
 10
159.6019766697
 20
91.906299713
 11
159.6015309299
 21
90.6364743563
  0
LINE
  5
6F0
100
AcDbEntity
  8
CURVE
100
AcDbLine
 62
250
  6
CONTINUOUS
 10
159.604080386
 20
90.5552566021
 11
159.6046759607
 21
92.085438761
  0
LINE
  5
6F1
100
AcDbEntity
  8
CURVE
100
AcDbLine
 62
250
  6
CONTINUOUS
 10
159.3363128125
 20
111.7718217666
 11
159.3358088313
 21
109.7499912036
  0
LINE
  5
6F2
100
AcDbEntity
  8
CURVE
100
AcDbLine
 62
250
  6
CONTINUOUS
 10
159.3358088313
 20
100.5000000008
 11
159.3374708542
 21
101.2380136767
  0
LINE
  5
6F3
100
AcDbEntity
  8
CURVE
100
AcDbLine
 62
250
  6
CONTINUOUS
 10
159.5737477678
 20
109.8447401835
 11
159.5739442284
 21
110.2587313832
  0
LINE
  5
6F4
100
AcDbEntity
  8
CURVE
100
AcDbLine
 62
250
  6
CONTINUOUS
 10
159.5535504508
 20
94.1056978554
 11
159.5527557641
 21
93.736586604
  0
LINE
  5
6F5
100
AcDbEntity
  8
CURVE
100
AcDbLine
 62
250
  6
CONTINUOUS
 10
159.3544852607
 20
101.0118458887
 11
159.3532639025
 21
100.5000000008
  0
LINE
  5
6F6
100
AcDbEntity
  8
CURVE
100
AcDbLine
 62
250
  6
CONTINUOUS
 10
159.3837535579
 20
107.3866141243
 11
159.3828988429
 21
107.1535598123
  0
LINE
  5
6F7
100
AcDbEntity
  8
CURVE
100
AcDbLine
 62
250
  6
CONTINUOUS
 10
159.4143062597
 20
100.4237322257
 11
159.413163244
 21
100.1178124033
  0
LINE
  5
6F8
100
AcDbEntity
  8
CURVE
100
AcDbLine
 62
250
  6
CONTINUOUS
 10
159.5960576408
 20
109.7129253001
 11
159.5965048487
 21
109.849276557
  0
LINE
  5
6F9
100
AcDbEntity
  8
CURVE
100
AcDbLine
 62
250
  6
CONTINUOUS
 10
159.3620655264
 20
100.6645706794
 11
159.3634811298
 21
101.0121496961
  0
LINE
  5
6FA
100
AcDbEntity
  8
CURVE
100
AcDbLine
 62
250
  6
CONTINUOUS
 10
159.6049944232
 20
109.716304534
 11
159.603626265
 21
109.3678501192
  0
LINE
  5
6FB
100
AcDbEntity
  8
CURVE
100
AcDbLine
 62
250
  6
CONTINUOUS
 10
159.3937799973
 20
111.8976649018
 11
159.3926955714
 21
111.6648844914
  0
LINE
  5
6FC
100
AcDbEntity
  8
CURVE
100
AcDbLine
 62
250
  6
CONTINUOUS
 10
159.4495927495
 20
116.6688372016
 11
159.45130891
 21
117.0839235619
  0
LINE
  5
6FD
100
AcDbEntity
  8
CURVE
100
AcDbLine
 62
250
  6
CONTINUOUS
 10
159.5557921608
 20
93.9502599913
 11
159.5568799626
 21
94.1532820084
  0
LINE
  5
6FE
100
AcDbEntity
  8
CURVE
100
AcDbLine
 62
250
  6
CONTINUOUS
 10
159.3376313864
 20
111.971239845
 11
159.3363128125
 21
111.7718217666
  0
LINE
  5
6FF
100
AcDbEntity
  8
CURVE
100
AcDbLine
 62
250
  6
CONTINUOUS
 10
159.6029811907
 20
90.3838551817
 11
159.604080386
 21
90.5552566021
  0
LINE
  5
700
100
AcDbEntity
  8
CURVE
100
AcDbLine
 62
250
  6
CONTINUOUS
 10
159.2729705976
 20
98.8964284778
 11
159.2750278017
 21
99.1321430445
  0
LINE
  5
701
100
AcDbEntity
  8
CURVE
100
AcDbLine
 62
250
  6
CONTINUOUS
 10
159.2750278017
 20
91.7857141733
 11
159.2729705976
 21
91.55
  0
LINE
  5
702
100
AcDbEntity
  8
CURVE
100
AcDbLine
 62
250
  6
CONTINUOUS
 10
159.5733200256
 20
109.7798991578
 11
159.5737477678
 21
109.8447401835
  0
LINE
  5
703
100
AcDbEntity
  8
CURVE
100
AcDbLine
 62
250
  6
CONTINUOUS
 10
159.4036314977
 20
111.6129513349
 11
159.4041756202
 21
111.6950034154
  0
LINE
  5
704
100
AcDbEntity
  8
CURVE
100
AcDbLine
 62
250
  6
CONTINUOUS
 10
159.372172096
 20
107.3049308844
 11
159.3727166503
 21
107.3870036163
  0
LINE
  5
705
100
AcDbEntity
  8
CURVE
100
AcDbLine
 62
250
  6
CONTINUOUS
 10
159.3374708542
 20
101.2380136767
 11
159.3418837729
 21
101.9003328909
  0
LINE
  5
706
100
AcDbEntity
  8
CURVE
100
AcDbLine
 62
250
  6
CONTINUOUS
 10
159.3573745784
 20
101.4359919104
 11
159.3544852607
 21
101.0118458887
  0
LINE
  5
707
100
AcDbEntity
  8
CURVE
100
AcDbLine
 62
250
  6
CONTINUOUS
 10
159.3468950638
 20
111.6184292501
 11
159.3474284203
 21
111.6958857981
  0
LINE
  5
708
100
AcDbEntity
  8
CURVE
100
AcDbLine
 62
250
  6
CONTINUOUS
 10
159.6015309299
 20
90.6364743563
 11
159.6005745335
 21
90.4929311767
  0
LINE
  5
709
100
AcDbEntity
  8
CURVE
100
AcDbLine
 62
250
  6
CONTINUOUS
 10
159.5551078815
 20
94.3290210385
 11
159.5535504508
 21
94.1056978554
  0
LINE
  5
70A
100
AcDbEntity
  8
CURVE
100
AcDbLine
 62
250
  6
CONTINUOUS
 10
159.413163244
 20
100.1178124033
 11
159.4107596373
 21
99.8275413019
  0
LINE
  5
70B
100
AcDbEntity
  8
CURVE
100
AcDbLine
 62
250
  6
CONTINUOUS
 10
159.3828988429
 20
107.1535598123
 11
159.3812862735
 21
106.9552106471
  0
LINE
  5
70C
100
AcDbEntity
  8
CURVE
100
AcDbLine
 62
250
  6
CONTINUOUS
 10
159.603626265
 20
109.3678501192
 11
159.6027147779
 21
109.2625227932
  0
LINE
  5
70D
100
AcDbEntity
  8
CURVE
100
AcDbLine
 62
250
  6
CONTINUOUS
 10
159.3634811298
 20
101.0121496961
 11
159.3659719575
 21
101.2967625997
  0
LINE
  5
70E
100
AcDbEntity
  8
CURVE
100
AcDbLine
 62
250
  6
CONTINUOUS
 10
159.5953688379
 20
109.6305936833
 11
159.5960576408
 21
109.7129253001
  0
LINE
  5
70F
100
AcDbEntity
  8
CURVE
100
AcDbLine
 62
250
  6
CONTINUOUS
 10
159.3953172756
 20
112.0681179573
 11
159.3937799973
 21
111.8976649018
  0
LINE
  5
710
100
AcDbEntity
  8
CURVE
100
AcDbLine
 62
250
  6
CONTINUOUS
 10
159.4481490339
 20
116.5088294046
 11
159.4495927495
 21
116.6688372016
  0
LINE
  5
711
100
AcDbEntity
  8
CURVE
100
AcDbLine
 62
250
  6
CONTINUOUS
 10
159.5777628434
 20
109.30544429
 11
159.5771600753
 21
109.2406877951
  0
LINE
  5
712
100
AcDbEntity
  8
CURVE
100
AcDbLine
 62
250
  6
CONTINUOUS
 10
159.5568799626
 20
94.1532820084
 11
159.5580010948
 21
94.2660259987
  0
LINE
  5
713
100
AcDbEntity
  8
CURVE
100
AcDbLine
 62
250
  6
CONTINUOUS
 10
159.3418837729
 20
101.9003328909
 11
159.3454374898
 21
102.2340457986
  0
LINE
  5
714
100
AcDbEntity
  8
CURVE
100
AcDbLine
 62
250
  6
CONTINUOUS
 10
159.6017864549
 20
90.2750813157
 11
159.6029811907
 21
90.3838551817
  0
LINE
  5
715
100
AcDbEntity
  8
CURVE
100
AcDbLine
 62
250
  6
CONTINUOUS
 10
159.360592105
 20
101.7259047597
 11
159.3573745784
 21
101.4359919104
  0
LINE
  5
716
100
AcDbEntity
  8
CURVE
100
AcDbLine
 62
250
  6
CONTINUOUS
 10
159.3394304156
 20
112.1326249894
 11
159.3376313864
 21
111.971239845
  0
LINE
  5
717
100
AcDbEntity
  8
CURVE
100
AcDbLine
 62
250
  6
CONTINUOUS
 10
159.4041756202
 20
111.6950034154
 11
159.4047711755
 21
111.7477435939
  0
LINE
  5
718
100
AcDbEntity
  8
CURVE
100
AcDbLine
 62
250
  6
CONTINUOUS
 10
159.3715762377
 20
107.2521919304
 11
159.372172096
 21
107.3049308844
  0
LINE
  5
719
100
AcDbEntity
  8
CURVE
100
AcDbLine
 62
250
  6
CONTINUOUS
 10
159.5727423505
 20
109.7286806585
 11
159.5733200256
 21
109.7798991578
  0
LINE
  5
71A
100
AcDbEntity
  8
CURVE
100
AcDbLine
 62
250
  6
CONTINUOUS
 10
159.6005745335
 20
90.4929311767
 11
159.5995897379
 21
90.4075267032
  0
LINE
  5
71B
100
AcDbEntity
  8
CURVE
100
AcDbLine
 62
250
  6
CONTINUOUS
 10
159.3474284203
 20
111.6958857981
 11
159.3480212108
 21
111.7470445759
  0
LINE
  5
71C
100
AcDbEntity
  8
CURVE
100
AcDbLine
 62
250
  6
CONTINUOUS
 10
159.3925376701
 20
107.302606
 11
159.4108242071
 21
108.625004
  0
LINE
  5
71D
100
AcDbEntity
  8
CURVE
100
AcDbLine
 62
250
  6
CONTINUOUS
 10
159.4165941359
 20
108.237419
 11
159.3925376701
 21
106.497748
  0
LINE
  5
71E
100
AcDbEntity
  8
CURVE
100
AcDbLine
 62
250
  6
CONTINUOUS
 10
159.3615006661
 20
101.7903623781
 11
159.360592105
 21
101.7259047597
  0
LINE
  5
71F
100
AcDbEntity
  8
CURVE
100
AcDbLine
 62
250
  6
CONTINUOUS
 10
159.5568466771
 20
94.4717962474
 11
159.5551078815
 21
94.3290210385
  0
LINE
  5
720
100
AcDbEntity
  8
CURVE
100
AcDbLine
 62
250
  6
CONTINUOUS
 10
159.4107596373
 20
99.8275413019
 11
159.4075269537
 21
99.5743644511
  0
LINE
  5
721
100
AcDbEntity
  8
CURVE
100
AcDbLine
 62
250
  6
CONTINUOUS
 10
159.5947824217
 20
109.5853207228
 11
159.5953688379
 21
109.6305936833
  0
LINE
  5
722
100
AcDbEntity
  8
CURVE
100
AcDbLine
 62
250
  6
CONTINUOUS
 10
159.3812862735
 20
106.9552106471
 11
159.3795721089
 21
106.8212688741
  0
LINE
  5
723
100
AcDbEntity
  8
CURVE
100
AcDbLine
 62
250
  6
CONTINUOUS
 10
159.5300587685
 20
108.2964286804
 11
159.5203338037
 21
107.6464286804
  0
LINE
  5
724
100
AcDbEntity
  8
CURVE
100
AcDbLine
 62
250
  6
CONTINUOUS
 10
159.5300587685
 20
105.3249999762
 11
159.5203338037
 21
104.6749999762
  0
LINE
  5
725
100
AcDbEntity
  8
CURVE
100
AcDbLine
 62
250
  6
CONTINUOUS
 10
159.6027147779
 20
109.2625227932
 11
159.6013344049
 21
109.1573555156
  0
LINE
  5
726
100
AcDbEntity
  8
CURVE
100
AcDbLine
 62
250
  6
CONTINUOUS
 10
159.4469973892
 20
116.4228214554
 11
159.4481490339
 21
116.5088294046
  0
LWPOLYLINE
  5
727
100
AcDbEntity
  8
CURVE
100
AcDbPolyline
 62
250
  6
CONTINUOUS
 90
3
 70
0
 10
159.3659719575
 20
101.2967625997
 10
159.3689908971
 20
101.5208873272
 10
159.3697093176
 20
101.5636291216
  0
LINE
  5
728
100
AcDbEntity
  8
CURVE
100
AcDbLine
 62
250
  6
CONTINUOUS
 10
159.3971048391
 20
112.1994890383
 11
159.3953172756
 21
112.0681179573
  0
LINE
  5
729
100
AcDbEntity
  8
CURVE
100
AcDbLine
 62
250
  6
CONTINUOUS
 10
159.5771600753
 20
109.2406877951
 11
159.576484652
 21
109.1924932204
  0
LINE
  5
72A
100
AcDbEntity
  8
CURVE
100
AcDbLine
 62
250
  6
CONTINUOUS
 10
159.5580010948
 20
94.2660259987
 11
159.5594567986
 21
94.3646472766
  0
LINE
  5
72B
100
AcDbEntity
  8
CURVE
100
AcDbLine
 62
250
  6
CONTINUOUS
 10
159.4465592561
 20
116.396457109
 11
159.4469973892
 21
116.4228214554
  0
LINE
  5
72C
100
AcDbEntity
  8
CURVE
100
AcDbLine
 62
250
  6
CONTINUOUS
 10
159.061265596
 20
105.95
 11
159.0565277924
 21
105.6785714447
  0
LINE
  5
72D
100
AcDbEntity
  8
CURVE
100
AcDbLine
 62
250
  6
CONTINUOUS
 10
159.0683723011
 20
104.05
 11
159.0731101041
 21
104.3214285836
  0
LINE
  5
72E
100
AcDbEntity
  8
CURVE
100
AcDbLine
 62
250
  6
CONTINUOUS
 10
159.0991680219
 20
104.3214285836
 11
159.0944302208
 21
104.05
  0
LINE
  5
72F
100
AcDbEntity
  8
CURVE
100
AcDbLine
 62
250
  6
CONTINUOUS
 10
159.2159922786
 20
101.6857142717
 11
159.2118778703
 21
101.45
  0
LINE
  5
730
100
AcDbEntity
  8
CURVE
100
AcDbLine
 62
250
  6
CONTINUOUS
 10
159.2159922786
 20
100.38928563
 11
159.2118778703
 21
100.1535714567
  0
LINE
  5
731
100
AcDbEntity
  8
CURVE
100
AcDbLine
 62
250
  6
CONTINUOUS
 10
159.2365643195
 20
101.0964285433
 11
159.2406787274
 21
101.3321429133
  0
LINE
  5
732
100
AcDbEntity
  8
CURVE
100
AcDbLine
 62
250
  6
CONTINUOUS
 10
159.2365643195
 20
99.8
 11
159.2406787274
 21
100.03571437
  0
LINE
  5
733
100
AcDbEntity
  8
CURVE
100
AcDbLine
 62
250
  6
CONTINUOUS
 10
159.3017714547
 20
102.5107142717
 11
159.2976570468
 21
102.275
  0
LINE
  5
734
100
AcDbEntity
  8
CURVE
100
AcDbLine
 62
250
  6
CONTINUOUS
 10
159.2303927068
 20
98.15
 11
159.2324499116
 21
98.2678570867
  0
LINE
  5
735
100
AcDbEntity
  8
CURVE
100
AcDbLine
 62
250
  6
CONTINUOUS
 10
159.5333004232
 20
115.4714287043
 11
159.536542078
 21
115.6571429014
  0
LINE
  5
736
100
AcDbEntity
  8
CURVE
100
AcDbLine
 62
250
  6
CONTINUOUS
 10
159.2750278017
 20
97.9535713911
 11
159.2729705976
 21
97.8357143044
  0
LINE
  5
737
100
AcDbEntity
  8
CURVE
100
AcDbLine
 62
250
  6
CONTINUOUS
 10
159.5138504936
 20
108.2035715334
 11
159.5154713211
 21
108.2964286804
  0
LINE
  5
738
100
AcDbEntity
  8
CURVE
100
AcDbLine
 62
250
  6
CONTINUOUS
 10
159.2894282309
 20
95.1642860889
 11
159.2853138222
 21
94.9285711288
  0
LINE
  5
739
100
AcDbEntity
  8
CURVE
100
AcDbLine
 62
250
  6
CONTINUOUS
 10
159.2770850059
 20
94.3392860889
 11
159.2729705976
 21
94.1035711288
  0
LINE
  5
73A
100
AcDbEntity
  8
CURVE
100
AcDbLine
 62
250
  6
CONTINUOUS
 10
159.4983902934
 20
106.8880952358
 11
159.5016319481
 21
107.0738095105
  0
LINE
  5
73B
100
AcDbEntity
  8
CURVE
100
AcDbLine
 62
250
  6
CONTINUOUS
 10
159.5349212499
 20
107.6464286804
 11
159.536542078
 21
107.7392858177
  0
LINE
  5
73C
100
AcDbEntity
  8
CURVE
100
AcDbLine
 62
250
  6
CONTINUOUS
 10
159.2976570468
 20
93.7500002623
 11
159.3017714547
 21
93.9857144356
  0
LINE
  5
73D
100
AcDbEntity
  8
CURVE
100
AcDbLine
 62
250
  6
CONTINUOUS
 10
159.4983902934
 20
104.7523810387
 11
159.5016319481
 21
104.9380952358
  0
LINE
  5
73E
100
AcDbEntity
  8
CURVE
100
AcDbLine
 62
250
  6
CONTINUOUS
 10
159.5138504936
 20
105.2321428776
 11
159.5154713211
 21
105.3249999762
  0
LINE
  5
73F
100
AcDbEntity
  8
CURVE
100
AcDbLine
 62
250
  6
CONTINUOUS
 10
159.2750278017
 20
90.60714252
 11
159.2729705976
 21
90.4892858267
  0
LINE
  5
740
100
AcDbEntity
  8
CURVE
100
AcDbLine
 62
250
  6
CONTINUOUS
 10
159.5170921486
 20
104.3035715818
 11
159.5138504936
 21
104.1178573847
  0
LINE
  5
741
100
AcDbEntity
  8
CURVE
100
AcDbLine
 62
250
  6
CONTINUOUS
 10
159.5349212499
 20
104.6749999762
 11
159.536542078
 21
104.7678573847
  0
LINE
  5
742
100
AcDbEntity
  8
CURVE
100
AcDbLine
 62
250
  6
CONTINUOUS
 10
159.4983902934
 20
102.4619049072
 11
159.5016319481
 21
102.6476191044
  0
LINE
  5
743
100
AcDbEntity
  8
CURVE
100
AcDbLine
 62
250
  6
CONTINUOUS
 10
159.5333004232
 20
103.6535715818
 11
159.536542078
 21
103.839285779
  0
LINE
  5
744
100
AcDbEntity
  8
CURVE
100
AcDbLine
 62
250
  6
CONTINUOUS
 10
159.5333004232
 20
102.6321428776
 11
159.536542078
 21
102.8178570747
  0
LINE
  5
745
100
AcDbEntity
  8
CURVE
100
AcDbLine
 62
250
  6
CONTINUOUS
 10
159.5081152582
 20
96.3785712726
 11
159.5033774546
 21
96.1071427032
  0
LINE
  5
746
100
AcDbEntity
  8
CURVE
100
AcDbLine
 62
250
  6
CONTINUOUS
 10
159.5318042749
 20
95.699999842
 11
159.536542078
 21
95.9714283973
  0
LINE
  5
747
100
AcDbEntity
  8
CURVE
100
AcDbLine
 62
250
  6
CONTINUOUS
 10
159.5175908648
 20
94.7499998987
 11
159.5223286688
 21
95.0214284539
  0
LINE
  5
748
100
AcDbEntity
  8
CURVE
100
AcDbLine
 62
250
  6
CONTINUOUS
 10
159.536542078
 20
94.3428568959
 11
159.5318042749
 21
94.0714284539
  0
LINE
  5
749
100
AcDbEntity
  8
CURVE
100
AcDbLine
 62
250
  6
CONTINUOUS
 10
159.5175908648
 20
90.6785713434
 11
159.5223286688
 21
90.9499997854
  0
LINE
  5
74A
100
AcDbEntity
  8
CURVE
100
AcDbLine
 62
250
  6
CONTINUOUS
 10
159.536542078
 20
90.2714282274
 11
159.5318042749
 21
89.9999997854
  0
LINE
  5
74B
100
AcDbEntity
  8
CURVE
100
AcDbLine
 62
250
  6
CONTINUOUS
 10
159.4047711755
 20
111.7477435939
 11
159.405315307
 21
111.7820637262
  0
LINE
  5
74C
100
AcDbEntity
  8
CURVE
100
AcDbLine
 62
250
  6
CONTINUOUS
 10
159.37103195
 20
107.2178802036
 11
159.3715762377
 21
107.2521919304
  0
LINE
  5
74D
100
AcDbEntity
  8
CURVE
100
AcDbLine
 62
250
  6
CONTINUOUS
 10
159.5995897379
 20
90.4075267032
 11
159.5986399826
 21
90.3484193914
  0
LINE
  5
74E
100
AcDbEntity
  8
CURVE
100
AcDbLine
 62
250
  6
CONTINUOUS
 10
159.3410876494
 20
112.236062124
 11
159.3394304156
 21
112.1326249894
  0
LINE
  5
74F
100
AcDbEntity
  8
CURVE
100
AcDbLine
 62
250
  6
CONTINUOUS
 10
159.3480212108
 20
111.7470445759
 11
159.3485687921
 21
111.7809297141
  0
LINE
  5
750
100
AcDbEntity
  8
CURVE
100
AcDbLine
 62
250
  6
CONTINUOUS
 10
159.5720984527
 20
109.6885929009
 11
159.5727423505
 21
109.7286806585
  0
LINE
  5
751
100
AcDbEntity
  8
CURVE
100
AcDbLine
 62
250
  6
CONTINUOUS
 10
159.6005186242
 20
90.1957436903
 11
159.6017864549
 21
90.2750813157
  0
LINE
  5
752
100
AcDbEntity
  8
CURVE
100
AcDbLine
 62
250
  6
CONTINUOUS
 10
159.3724476933
 20
115.268444
 11
159.4593265436
 21
120.00013
  0
LINE
  5
753
100
AcDbEntity
  8
CURVE
100
AcDbLine
 62
250
  6
CONTINUOUS
 10
159.5581265984
 20
94.5463525388
 11
159.5568466771
 21
94.4717962474
  0
LINE
  5
754
100
AcDbEntity
  8
CURVE
100
AcDbLine
 62
250
  6
CONTINUOUS
 10
159.3795721089
 20
106.8212688741
 11
159.3781929688
 21
106.7419618535
  0
LINE
  5
755
100
AcDbEntity
  8
CURVE
100
AcDbLine
 62
250
  6
CONTINUOUS
 10
159.5942293571
 20
109.5535028626
 11
159.5947824217
 21
109.5853207228
  0
LINE
  5
756
100
AcDbEntity
  8
CURVE
100
AcDbLine
 62
250
  6
CONTINUOUS
 10
159.4075269537
 20
99.5743644511
 11
159.4039420011
 21
99.372230611
  0
LINE
  5
757
100
AcDbEntity
  8
CURVE
100
AcDbLine
 62
250
  6
CONTINUOUS
 10
159.6013344049
 20
109.1573555156
 11
159.5999457204
 21
109.0803080806
  0
LINE
  5
758
100
AcDbEntity
  8
CURVE
100
AcDbLine
 62
250
  6
CONTINUOUS
 10
159.576484652
 20
109.1924932204
 11
159.57576566
 21
109.1534994981
  0
LINE
  5
759
100
AcDbEntity
  8
CURVE
100
AcDbLine
 62
250
  6
CONTINUOUS
 10
159.3985245927
 20
112.2762251969
 11
159.3971048391
 21
112.1994890383
  0
LINE
  5
75A
100
AcDbEntity
  8
CURVE
100
AcDbLine
 62
250
  6
CONTINUOUS
 10
159.3017714547
 20
95.1642860889
 11
159.2976570468
 21
94.96785748
  0
LINE
  5
75B
100
AcDbEntity
  8
CURVE
100
AcDbLine
 62
250
  6
CONTINUOUS
 10
159.5594567986
 20
94.3646472766
 11
159.5608143355
 21
94.4326227481
  0
LINE
  5
75C
100
AcDbEntity
  8
CURVE
100
AcDbLine
 62
250
  6
CONTINUOUS
 10
159.405315307
 20
111.7820637262
 11
159.4058049711
 21
111.8059187059
  0
LINE
  5
75D
100
AcDbEntity
  8
CURVE
100
AcDbLine
 62
250
  6
CONTINUOUS
 10
159.3705422139
 20
107.1940339432
 11
159.37103195
 21
107.2178802036
  0
LINE
  5
75E
100
AcDbEntity
  8
CURVE
100
AcDbLine
 62
250
  6
CONTINUOUS
 10
159.5986399826
 20
90.3484193914
 11
159.5978323776
 21
90.3094249347
  0
LINE
  5
75F
100
AcDbEntity
  8
CURVE
100
AcDbLine
 62
250
  6
CONTINUOUS
 10
159.3485687921
 20
111.7809297141
 11
159.349066514
 21
111.8047015954
  0
LINE
  5
760
100
AcDbEntity
  8
CURVE
100
AcDbLine
 62
250
  6
CONTINUOUS
 10
159.5714551805
 20
109.6578188686
 11
159.5720984527
 21
109.6885929009
  0
LINE
  5
761
100
AcDbEntity
  8
CURVE
100
AcDbLine
 62
250
  6
CONTINUOUS
 10
159.342599336
 20
112.3076974167
 11
159.3410876494
 21
112.236062124
  0
LINE
  5
762
100
AcDbEntity
  8
CURVE
100
AcDbLine
 62
250
  6
CONTINUOUS
 10
159.593769041
 20
109.5325758187
 11
159.5942293571
 21
109.5535028626
  0
LINE
  5
763
100
AcDbEntity
  8
CURVE
100
AcDbLine
 62
250
  6
CONTINUOUS
 10
159.5993587263
 20
90.1414684724
 11
159.6005186242
 21
90.1957436903
  0
LINE
  5
764
100
AcDbEntity
  8
CURVE
100
AcDbLine
 62
250
  6
CONTINUOUS
 10
159.5595676538
 20
94.6114576993
 11
159.5581265984
 21
94.5463525388
  0
LINE
  5
765
100
AcDbEntity
  8
CURVE
100
AcDbLine
 62
250
  6
CONTINUOUS
 10
159.3781929688
 20
106.7419618535
 11
159.3766742073
 21
106.6736156033
  0
LINE
  5
766
100
AcDbEntity
  8
CURVE
100
AcDbLine
 62
250
  6
CONTINUOUS
 10
159.57576566
 20
109.1534994981
 11
159.5749454835
 21
109.1179743456
  0
LINE
  5
767
100
AcDbEntity
  8
CURVE
100
AcDbLine
 62
250
  6
CONTINUOUS
 10
159.5999457204
 20
109.0803080806
 11
159.598769438
 21
109.0299167467
  0
LINE
  5
768
100
AcDbEntity
  8
CURVE
100
AcDbLine
 62
250
  6
CONTINUOUS
 10
159.4039420011
 20
99.372230611
 11
159.4009284032
 21
99.2430669636
  0
LWPOLYLINE
  5
769
100
AcDbEntity
  8
ASSI
100
AcDbPolyline
 62
7
  6
CONTINUOUS
 90
13
 70
0
 10
159.1940301785
 20
89.0395316591
 10
159.1913412602
 20
88.9327834072
 10
159.182590395
 20
88.8261017523
 10
159.1677775829
 20
88.7194866942
 10
159.1470327085
 20
88.6126875607
 10
159.1202258873
 20
88.5059550241
 10
159.086967465
 20
88.4000411014
 10
159.0472495943
 20
88.2948497238
 10
159.0010801225
 20
88.19047696
 10
158.9480929382
 20
88.0879630329
 10
158.888166004
 20
87.9876546833
 10
158.8214213573
 20
87.8892051704
 10
158.7478589979
 20
87.7926144942
  0
LINE
  5
76A
100
AcDbEntity
  8
CURVE
100
AcDbLine
 62
250
  6
CONTINUOUS
 10
159.4000703089
 20
112.34168067
 11
159.3985245927
 21
112.2762251969
  0
LINE
  5
76B
100
AcDbEntity
  8
CURVE
100
AcDbLine
 62
250
  6
CONTINUOUS
 10
159.4919069839
 20
113.0976190478
 11
159.5016319481
 21
113.4690474421
  0
LINE
  5
76C
100
AcDbEntity
  8
CURVE
100
AcDbLine
 62
250
  6
CONTINUOUS
 10
159.4789403637
 20
106.8880952358
 11
159.4886653285
 21
107.2595238045
  0
LINE
  5
76D
100
AcDbEntity
  8
CURVE
100
AcDbLine
 62
250
  6
CONTINUOUS
 10
159.4789403637
 20
102.4619049072
 11
159.4886653285
 21
102.8333333015
  0
LINE
  5
76E
100
AcDbEntity
  8
CURVE
100
AcDbLine
 62
250
  6
CONTINUOUS
 10
159.5138504936
 20
102.6321428776
 11
159.5235754584
 21
103.0035712719
  0
LINE
  5
76F
100
AcDbEntity
  8
CURVE
100
AcDbLine
 62
250
  6
CONTINUOUS
 10
159.5946320104
 20
105.901901
 11
159.554008768
 21
104.386901
  0
LINE
  5
770
100
AcDbEntity
  8
CURVE
100
AcDbLine
 62
250
  6
CONTINUOUS
 10
159.5635793626
 20
104.338157
 11
159.604628753
 21
105.865364
  0
LINE
  5
771
100
AcDbEntity
  8
CURVE
100
AcDbLine
 62
250
  6
CONTINUOUS
 10
159.5608143355
 20
94.4326227481
 11
159.5619281884
 21
94.4770729724
  0
LINE
  5
772
100
AcDbEntity
  8
CURVE
100
AcDbLine
 62
250
  6
CONTINUOUS
 10
159.4058049711
 20
111.8059187059
 11
159.4062478128
 21
111.8234364327
  0
LINE
  5
773
100
AcDbEntity
  8
CURVE
100
AcDbLine
 62
250
  6
CONTINUOUS
 10
159.3700993356
 20
107.1765236351
 11
159.3705422139
 21
107.1940339432
  0
LINE
  5
774
100
AcDbEntity
  8
CURVE
100
AcDbLine
 62
250
  6
CONTINUOUS
 10
159.349066514
 20
111.8047015954
 11
159.3495219113
 21
111.8222825
  0
LINE
  5
775
100
AcDbEntity
  8
CURVE
100
AcDbLine
 62
250
  6
CONTINUOUS
 10
159.570868216
 20
109.6350915276
 11
159.5714551805
 21
109.6578188686
  0
LINE
  5
776
100
AcDbEntity
  8
CURVE
100
AcDbLine
 62
250
  6
CONTINUOUS
 10
159.3438112904
 20
112.3540199764
 11
159.342599336
 21
112.3076974167
  0
LINE
  5
777
100
AcDbEntity
  8
CURVE
100
AcDbLine
 62
250
  6
CONTINUOUS
 10
159.5605950018
 20
94.6491503697
 11
159.5595676538
 21
94.6114576993
  0
LINE
  5
778
100
AcDbEntity
  8
CURVE
100
AcDbLine
 62
250
  6
CONTINUOUS
 10
159.5978323776
 20
90.3094249347
 11
159.5969435177
 21
90.2754823232
  0
LWPOLYLINE
  5
779
100
AcDbEntity
  8
ASSI
100
AcDbPolyline
 62
7
  6
CONTINUOUS
 90
3
 70
0
 10
159.65
 20
88.880340834
 10
159.6468077508
 20
88.7683429506
 10
159.6375097336
 20
88.6573957765
  0
LINE
  5
77A
100
AcDbEntity
  8
CURVE
100
AcDbLine
 62
250
  6
CONTINUOUS
 10
159.357611185
 20
102.9362962353
 11
159.3619640741
 21
103.0993596591
  0
LINE
  5
77B
100
AcDbEntity
  8
CURVE
100
AcDbLine
 62
250
  6
CONTINUOUS
 10
159.5932754222
 20
109.5142310825
 11
159.593769041
 21
109.5325758187
  0
LINE
  5
77C
100
AcDbEntity
  8
CURVE
100
AcDbLine
 62
250
  6
CONTINUOUS
 10
159.5984126562
 20
90.106457967
 11
159.5993587263
 21
90.1414684724
  0
LINE
  5
77D
100
AcDbEntity
  8
CURVE
100
AcDbLine
 62
250
  6
CONTINUOUS
 10
159.3766742073
 20
106.6736156033
 11
159.3754679637
 21
106.6298313685
  0
LINE
  5
77E
100
AcDbEntity
  8
CURVE
100
AcDbLine
 62
250
  6
CONTINUOUS
 10
159.598769438
 20
109.0299167467
 11
159.5979336855
 21
109.0004645434
  0
LINE
  5
77F
100
AcDbEntity
  8
CURVE
100
AcDbLine
 62
250
  6
CONTINUOUS
 10
159.5749454835
 20
109.1179743456
 11
159.574024194
 21
109.0852994858
  0
LINE
  5
780
100
AcDbEntity
  8
CURVE
100
AcDbLine
 62
250
  6
CONTINUOUS
 10
159.4009284032
 20
99.2430669636
 11
159.3990094601
 21
99.176391692
  0
LINE
  5
781
100
AcDbEntity
  8
CURVE
100
AcDbLine
 62
250
  6
CONTINUOUS
 10
159.4062478128
 20
111.8234364327
 11
159.4065718176
 21
111.8342582878
  0
LINE
  5
782
100
AcDbEntity
  8
CURVE
100
AcDbLine
 62
250
  6
CONTINUOUS
 10
159.3697753223
 20
107.1657069999
 11
159.3700993356
 21
107.1765236351
  0
LINE
  5
783
100
AcDbEntity
  8
CURVE
100
AcDbLine
 62
250
  6
CONTINUOUS
 10
159.4012943749
 20
112.3834116451
 11
159.4000703089
 21
112.34168067
  0
LINE
  5
784
100
AcDbEntity
  8
CURVE
100
AcDbLine
 62
250
  6
CONTINUOUS
 10
159.3495219113
 20
111.8222825
 11
159.3498583612
 21
111.8332034085
  0
LINE
  5
785
100
AcDbEntity
  8
CURVE
100
AcDbLine
 62
250
  6
CONTINUOUS
 10
159.5703839196
 20
109.6194268389
 11
159.570868216
 21
109.6350915276
  0
LINE
  5
786
100
AcDbEntity
  8
CURVE
100
AcDbLine
 62
250
  6
CONTINUOUS
 10
159.3619640741
 20
103.0993596591
 11
159.3648629324
 21
103.1909707369
  0
LINE
  5
787
100
AcDbEntity
  8
CURVE
100
AcDbLine
 62
250
  6
CONTINUOUS
 10
159.5619281884
 20
94.4770729724
 11
159.5631035423
 21
94.5154101256
  0
LINE
  5
788
100
AcDbEntity
  8
CURVE
100
AcDbLine
 62
250
  6
CONTINUOUS
 10
159.5929305241
 20
109.5034601247
 11
159.5932754222
 21
109.5142310825
  0
LINE
  5
789
100
AcDbEntity
  8
CURVE
100
AcDbLine
 62
250
  6
CONTINUOUS
 10
159.3754679637
 20
106.6298313685
 11
159.3746349121
 21
106.6040515974
  0
LINE
  5
78A
100
AcDbEntity
  8
CURVE
100
AcDbLine
 62
250
  6
CONTINUOUS
 10
159.5616567722
 20
94.6820356994
 11
159.5605950018
 21
94.6491503697
  0
LINE
  5
78B
100
AcDbEntity
  8
CURVE
100
AcDbLine
 62
250
  6
CONTINUOUS
 10
159.3450826666
 20
112.3941969586
 11
159.3438112904
 21
112.3540199764
  0
LINE
  5
78C
100
AcDbEntity
  8
CURVE
100
AcDbLine
 62
250
  6
CONTINUOUS
 10
159.5969435177
 20
90.2754823232
 11
159.5962554235
 21
90.2542709581
  0
LINE
  5
78D
100
AcDbEntity
  8
CURVE
100
AcDbLine
 62
250
  6
CONTINUOUS
 10
159.597749407
 20
90.0860960366
 11
159.5984126562
 21
90.106457967
  0
LINE
  5
78E
100
AcDbEntity
  8
CURVE
100
AcDbLine
 62
250
  6
CONTINUOUS
 10
159.4789403637
 20
118.7619046956
 11
159.5016319481
 21
119.4119047731
  0
LINE
  5
78F
100
AcDbEntity
  8
CURVE
100
AcDbLine
 62
250
  6
CONTINUOUS
 10
159.5235754584
 20
117.978571412
 11
159.536542078
 21
118.35
  0
LINE
  5
790
100
AcDbEntity
  8
CURVE
100
AcDbLine
 62
250
  6
CONTINUOUS
 10
159.220106687
 20
101.8035714567
 11
159.2159922786
 21
101.6857142717
  0
LINE
  5
791
100
AcDbEntity
  8
CURVE
100
AcDbLine
 62
250
  6
CONTINUOUS
 10
159.2324499116
 20
100.9785714567
 11
159.2365643195
 21
101.0964285433
  0
LINE
  5
792
100
AcDbEntity
  8
CURVE
100
AcDbLine
 62
250
  6
CONTINUOUS
 10
159.220106687
 20
100.5071429133
 11
159.2159922786
 21
100.38928563
  0
LINE
  5
793
100
AcDbEntity
  8
CURVE
100
AcDbLine
 62
250
  6
CONTINUOUS
 10
159.2324499116
 20
99.6821429133
 11
159.2365643195
 21
99.8
  0
LINE
  5
794
100
AcDbEntity
  8
CURVE
100
AcDbLine
 62
250
  6
CONTINUOUS
 10
159.5138504936
 20
105.6964286804
 11
159.536542078
 21
106.3464286804
  0
LINE
  5
795
100
AcDbEntity
  8
CURVE
100
AcDbLine
 62
250
  6
CONTINUOUS
 10
159.2935426388
 20
98.5428572178
 11
159.2894282309
 21
98.4250001311
  0
LINE
  5
796
100
AcDbEntity
  8
CURVE
100
AcDbLine
 62
250
  6
CONTINUOUS
 10
159.2811994142
 20
94.4571427822
 11
159.2770850059
 21
94.3392860889
  0
LINE
  5
797
100
AcDbEntity
  8
CURVE
100
AcDbLine
 62
250
  6
CONTINUOUS
 10
159.2935426388
 20
93.6321427822
 11
159.2976570468
 21
93.7500002623
  0
LINE
  5
798
100
AcDbEntity
  8
CURVE
100
AcDbLine
 62
250
  6
CONTINUOUS
 10
159.5128530617
 20
96.5142855644
 11
159.5081152582
 21
96.3785712726
  0
LINE
  5
799
100
AcDbEntity
  8
CURVE
100
AcDbLine
 62
250
  6
CONTINUOUS
 10
159.5270664719
 20
95.5642855644
 11
159.5318042749
 21
95.699999842
  0
LINE
  5
79A
100
AcDbEntity
  8
CURVE
100
AcDbLine
 62
250
  6
CONTINUOUS
 10
159.5979336855
 20
109.0004645434
 11
159.597067773
 21
108.9746822233
  0
LINE
  5
79B
100
AcDbEntity
  8
CURVE
100
AcDbLine
 62
250
  6
CONTINUOUS
 10
159.574024194
 20
109.0852994858
 11
159.5731832889
 21
109.0602290064
  0
LINE
  5
79C
100
AcDbEntity
  8
CURVE
100
AcDbLine
 62
250
  6
CONTINUOUS
 10
159.4021379297
 20
112.4078252029
 11
159.4012943749
 21
112.3834116451
  0
LINE
  5
79D
100
AcDbEntity
  8
CURVE
100
AcDbLine
 62
250
  6
CONTINUOUS
 10
159.3990094601
 20
99.176391692
 11
159.3972377777
 21
99.1247638178
  0
LINE
  5
79E
100
AcDbEntity
  8
CURVE
100
AcDbLine
 62
250
  6
CONTINUOUS
 10
159.4065718176
 20
111.8342582878
 11
159.406904016
 21
111.8438263767
  0
LINE
  5
79F
100
AcDbEntity
  8
CURVE
100
AcDbLine
 62
250
  6
CONTINUOUS
 10
159.369443138
 20
107.1561443999
 11
159.3697753223
 21
107.1657069999
  0
LINE
  5
7A0
100
AcDbEntity
  8
CURVE
100
AcDbLine
 62
250
  6
CONTINUOUS
 10
159.5700393175
 20
109.6097639224
 11
159.5703839196
 21
109.6194268389
  0
LINE
  5
7A1
100
AcDbEntity
  8
CURVE
100
AcDbLine
 62
250
  6
CONTINUOUS
 10
159.3498583612
 20
111.8332034085
 11
159.3502059847
 21
111.8429013983
  0
LINE
  5
7A2
100
AcDbEntity
  8
CURVE
100
AcDbLine
 62
250
  6
CONTINUOUS
 10
159.3648629324
 20
103.1909707369
 11
159.3677438111
 21
103.2697405983
  0
LINE
  5
7A3
100
AcDbEntity
  8
CURVE
100
AcDbLine
 62
250
  6
CONTINUOUS
 10
159.5631035423
 20
94.5154101256
 11
159.56391279
 21
94.537461026
  0
LINE
  5
7A4
100
AcDbEntity
  8
CURVE
100
AcDbLine
 62
250
  6
CONTINUOUS
 10
159.3746349121
 20
106.6040515974
 11
159.3737815078
 21
106.5810102216
  0
LINE
  5
7A5
100
AcDbEntity
  8
CURVE
100
AcDbLine
 62
250
  6
CONTINUOUS
 10
159.5925747539
 20
109.4938848015
 11
159.5929305241
 21
109.5034601247
  0
LINE
  5
7A6
100
AcDbEntity
  8
CURVE
100
AcDbLine
 62
250
  6
CONTINUOUS
 10
159.3459594193
 20
112.417555639
 11
159.3450826666
 21
112.3941969586
  0
LINE
  5
7A7
100
AcDbEntity
  8
CURVE
100
AcDbLine
 62
250
  6
CONTINUOUS
 10
159.5970621533
 20
90.0681816458
 11
159.597749407
 21
90.0860960366
  0
LINE
  5
7A8
100
AcDbEntity
  8
CURVE
100
AcDbLine
 62
250
  6
CONTINUOUS
 10
159.5731832889
 20
109.0602290064
 11
159.5723074642
 21
109.0377107109
  0
LINE
  5
7A9
100
AcDbEntity
  8
CURVE
100
AcDbLine
 62
250
  6
CONTINUOUS
 10
159.4030002228
 20
112.4294813359
 11
159.4021379297
 21
112.4078252029
  0
LWPOLYLINE
  5
7AA
100
AcDbEntity
  8
CURVE
100
AcDbPolyline
 62
250
  6
CONTINUOUS
 90
25
 70
0
 10
159.5962554235
 20
90.2542709581
 10
159.5954742973
 20
90.2344146971
 10
159.5950677451
 20
90.2255896905
 10
159.5946518094
 20
90.217517895
 10
159.594227447
 20
90.2102126569
 10
159.5937956149
 20
90.2036873226
 10
159.5933572651
 20
90.1979556099
 10
159.5929133302
 20
90.1930327217
 10
159.592464738
 20
90.1889342328
 10
159.5920124162
 20
90.1856757176
 10
159.5915572927
 20
90.1832727507
 10
159.5911002952
 20
90.1817409065
 10
159.5906423515
 20
90.1810957597
 10
159.5902415995
 20
90.1812693245
 10
159.589841428
 20
90.1821348599
 10
159.5894424317
 20
90.1836935345
 10
159.5890452054
 20
90.1859465169
 10
159.5886503796
 20
90.1888939406
 10
159.5882587289
 20
90.1925317985
 10
159.5878710637
 20
90.1968550483
 10
159.5874881945
 20
90.2018586477
 10
159.5871108174
 20
90.207538553
 10
159.5867391724
 20
90.2138947152
 10
159.5863733851
 20
90.2209280839
 10
159.5860135812
 20
90.2286396087
  0
LINE
  5
7AB
100
AcDbEntity
  8
CURVE
100
AcDbLine
 62
250
  6
CONTINUOUS
 10
159.5696768582
 20
109.6008015059
 11
159.5700393175
 21
109.6097639224
  0
LWPOLYLINE
  5
7AC
100
AcDbEntity
  8
CURVE
100
AcDbPolyline
 62
250
  6
CONTINUOUS
 90
14
 70
0
 10
159.406904016
 20
111.8438263767
 10
159.4072422424
 20
111.852134288
 10
159.407412606
 20
111.8558051371
 10
159.4075832549
 20
111.8591480545
 10
159.4077538365
 20
111.8621602641
 10
159.4079242317
 20
111.8648454689
 10
159.4080943799
 20
111.8672089915
 10
159.4082642204
 20
111.8692561545
 10
159.4084336926
 20
111.8709922807
 10
159.4086028186
 20
111.8724210879
 10
159.4087719509
 20
111.8735398761
 10
159.4089415249
 20
111.8743443402
 10
159.4091119759
 20
111.8748301756
 10
159.4092837392
 20
111.8749930774
  0
LWPOLYLINE
  5
7AD
100
AcDbEntity
  8
CURVE
100
AcDbPolyline
 62
250
  6
CONTINUOUS
 90
26
 70
0
 10
159.597067773
 20
108.9746822233
 10
159.5961858708
 20
108.9528856614
 10
159.5957459209
 20
108.9435308995
 10
159.5953101686
 20
108.9352083146
 10
159.5948785865
 20
108.9278591247
 10
159.5944505178
 20
108.921410158
 10
159.5940256629
 20
108.915792643
 10
159.5936051526
 20
108.9109554081
 10
159.5931904753
 20
108.906851682
 10
159.5927022101
 20
108.9028312726
 10
159.5922243743
 20
108.8997290527
 10
159.5917568547
 20
108.8974743104
 10
159.591299538
 20
108.8959963336
 10
159.5908523109
 20
108.8952244102
 10
159.5904150407
 20
108.8950958523
 10
159.589987516
 20
108.8955800672
 10
159.5895695058
 20
108.8966544862
 10
159.5891607791
 20
108.8982965407
 10
159.5887611049
 20
108.900483662
 10
159.5882740024
 20
108.9039480025
 10
159.5878009036
 20
108.908174591
 10
159.5873420286
 20
108.9131092722
 10
159.5868975974
 20
108.9186978908
 10
159.5864677383
 20
108.9248875154
 10
159.5860522128
 20
108.9316301104
 10
159.5856506909
 20
108.9388788644
  0
LWPOLYLINE
  5
7AE
100
AcDbEntity
  8
CURVE
100
AcDbPolyline
 62
250
  6
CONTINUOUS
 90
20
 70
0
 10
159.3972377777
 20
99.1247638178
 10
159.3954556931
 20
99.0819203406
 10
159.3945729833
 20
99.0639555687
 10
159.3937020772
 20
99.0483677312
 10
159.3928410368
 20
99.0350762328
 10
159.391986365
 20
99.0239687577
 10
159.3911354327
 20
99.0149556444
 10
159.3902890823
 20
99.0080378485
 10
159.3894490239
 20
99.0032389797
 10
159.3886163502
 20
99.0005721758
 10
159.3877896846
 20
99.0000086857
 10
159.3869670331
 20
99.0015092864
 10
159.3861465471
 20
99.0050374932
 10
159.3853269603
 20
99.0105677763
 10
159.3845071517
 20
99.0180773441
 10
159.3835218197
 20
99.0296805128
 10
159.3825344739
 20
99.0441283798
 10
159.3815450341
 20
99.0614482928
 10
159.3805534199
 20
99.0816675996
 10
159.3795595513
 20
99.104813648
  0
LWPOLYLINE
  5
7AF
100
AcDbEntity
  8
CURVE
100
AcDbPolyline
 62
250
  6
CONTINUOUS
 90
14
 70
0
 10
159.3502059847
 20
111.8429013983
 10
159.3505626733
 20
111.8513603516
 10
159.3507434389
 20
111.8551124764
 10
159.3509252882
 20
111.8585393706
 10
159.351107876
 20
111.8616372257
 10
159.3512910682
 20
111.8644079859
 10
159.3514747835
 20
111.8668550336
 10
159.3516589405
 20
111.8689817511
 10
159.3518434581
 20
111.870791521
 10
159.352028345
 20
111.8722860339
 10
159.3522139706
 20
111.8734602138
 10
159.3524007945
 20
111.8743072928
 10
159.3525892763
 20
111.8748205033
 10
159.3527798755
 20
111.8749930774
  0
LWPOLYLINE
  5
7B0
100
AcDbEntity
  8
CURVE
100
AcDbPolyline
 62
250
  6
CONTINUOUS
 90
18
 70
0
 10
159.56391279
 20
94.537461026
 10
159.5647397609
 20
94.5568908271
 10
159.5652648593
 20
94.5677859359
 10
159.5657965641
 20
94.5777740468
 10
159.5663353728
 20
94.5868992995
 10
159.5668817828
 20
94.5952058338
 10
159.5674362932
 20
94.6027346418
 10
159.5679994095
 20
94.6095141251
 10
159.5685716386
 20
94.6155695378
 10
159.5691534878
 20
94.6209261339
 10
159.5697456231
 20
94.6256071949
 10
159.5703493466
 20
94.6296281135
 10
159.5709661196
 20
94.6330023099
 10
159.5715974034
 20
94.6357432042
 10
159.5722443344
 20
94.6378630386
 10
159.5729067504
 20
94.6393693424
 10
159.5735841645
 20
94.6402684671
 10
159.5742760896
 20
94.640566764
  0
LWPOLYLINE
  5
7B1
100
AcDbEntity
  8
CURVE
100
AcDbPolyline
 62
250
  6
CONTINUOUS
 90
15
 70
0
 10
159.3737815078
 20
106.5810102216
 10
159.3729115605
 20
106.5607587206
 10
159.3724719858
 20
106.551704728
 10
159.3720302634
 20
106.5433782023
 10
159.3715873103
 20
106.5357848991
 10
159.371144097
 20
106.5289296406
 10
159.3707015941
 20
106.5228172489
 10
159.3702606082
 20
106.5174498105
 10
159.3698212914
 20
106.5128184679
 10
159.3693836318
 20
106.5089116278
 10
159.3689476177
 20
106.505717697
 10
159.3685131046
 20
106.503227766
 10
159.3680794176
 20
106.5014436605
 10
159.3676457491
 20
106.5003698902
 10
159.3672112915
 20
106.5000109646
  0
LWPOLYLINE
  5
7B2
100
AcDbEntity
  8
CURVE
100
AcDbPolyline
 62
250
  6
CONTINUOUS
 90
22
 70
0
 10
159.3677438111
 20
103.2697405983
 10
159.370603437
 20
103.3363161555
 10
159.3720273465
 20
103.3652114991
 10
159.3734485091
 20
103.3912741714
 10
159.3748678165
 20
103.4145758865
 10
159.3765695107
 20
103.4389701552
 10
159.3782696723
 20
103.459470039
 10
159.3799681564
 20
103.4760536627
 10
159.3816648183
 20
103.4886991514
 10
159.383359513
 20
103.4973846302
 10
159.3847703498
 20
103.5015751517
 10
159.3861808262
 20
103.5029482878
 10
159.3875920485
 20
103.5014518508
 10
159.38900482
 20
103.4970506985
 10
159.3904187318
 20
103.4897778691
 10
159.3918330723
 20
103.4796834461
 10
159.3932476334
 20
103.4668081286
 10
159.3946642229
 20
103.4511550777
 10
159.3960851521
 20
103.4327180699
 10
159.3975125163
 20
103.4114864981
 10
159.3989475471
 20
103.3874322212
 10
159.4003912599
 20
103.3605227141
  0
LINE
  5
7B3
100
AcDbEntity
  8
CURVE
100
AcDbLine
 62
250
  6
CONTINUOUS
 10
159.5871866048
 20
115.750162
 11
159.5541368532
 21
115.040105
  0
LINE
  5
7B4
100
AcDbEntity
  8
CURVE
100
AcDbLine
 62
250
  6
CONTINUOUS
 10
159.5766496454
 20
114.994355
 11
159.6047504846
 21
115.593234
  0
LINE
  5
7B5
100
AcDbEntity
  8
CURVE
100
AcDbLine
 62
250
  6
CONTINUOUS
 10
159.5723074642
 20
109.0377107109
 11
159.5713872014
 21
109.0171662176
  0
LINE
  5
7B6
100
AcDbEntity
  8
CURVE
100
AcDbLine
 62
250
  6
CONTINUOUS
 10
159.5688254113
 20
109.5826518511
 11
159.5696768582
 21
109.6008015059
  0
LINE
  5
7B7
100
AcDbEntity
  8
CURVE
100
AcDbLine
 62
250
  6
CONTINUOUS
 10
159.6046286134
 20
100.812779
 11
159.5540086109
 21
99.789253
  0
LINE
  5
7B8
100
AcDbEntity
  8
CURVE
100
AcDbLine
 62
250
  6
CONTINUOUS
 10
159.5713872014
 20
109.0171662176
 11
159.5707432306
 21
109.0043867972
  0
LINE
  5
7B9
100
AcDbEntity
  8
CURVE
100
AcDbLine
 62
250
  6
CONTINUOUS
 10
159.5607436302
 20
99.565854
 11
159.6046286134
 21
100.394488
  0
LINE
  5
7BA
100
AcDbEntity
  8
CURVE
100
AcDbLine
 62
250
  6
CONTINUOUS
 10
159.5667897357
 20
109.5433240843
 11
159.5688254113
 21
109.5826518511
  0
LINE
  5
7BB
100
AcDbEntity
  8
CURVE
100
AcDbLine
 62
250
  6
CONTINUOUS
 10
159.6047504846
 20
120.00026
 11
159.5541368532
 21
119.081013
  0
LINE
  5
7BC
100
AcDbEntity
  8
CURVE
100
AcDbLine
 62
250
  6
CONTINUOUS
 10
159.5541368532
 20
111.039304
 11
159.6047504846
 21
111.92899
  0
LINE
  5
7BD
100
AcDbEntity
  8
CURVE
100
AcDbLine
 62
250
  6
CONTINUOUS
 10
159.5707432306
 20
109.0043867972
 11
159.5699313237
 21
108.9898319025
  0
LINE
  5
7BE
100
AcDbEntity
  8
CURVE
100
AcDbLine
 62
250
  6
CONTINUOUS
 10
159.564683284
 20
109.5065772336
 11
159.5667897357
 21
109.5433240843
  0
LINE
  5
7BF
100
AcDbEntity
  8
CURVE
100
AcDbLine
 62
250
  6
CONTINUOUS
 10
159.5138504936
 20
116.4928570986
 11
159.536542078
 21
116.8642856479
  0
LINE
  5
7C0
100
AcDbEntity
  8
CURVE
100
AcDbLine
 62
250
  6
CONTINUOUS
 10
159.4789403637
 20
114.6761906534
 11
159.5016319481
 21
115.0476190478
  0
LINE
  5
7C1
100
AcDbEntity
  8
CURVE
100
AcDbLine
 62
250
  6
CONTINUOUS
 10
159.4789403637
 20
105.773809588
 11
159.5016319481
 21
106.1452381372
  0
LINE
  5
7C2
100
AcDbEntity
  8
CURVE
100
AcDbLine
 62
250
  6
CONTINUOUS
 10
159.4789403637
 20
103.4833333015
 11
159.5016319481
 21
103.8547620058
  0
LINE
  5
7C3
100
AcDbEntity
  8
CURVE
100
AcDbLine
 62
250
  6
CONTINUOUS
 10
159.2729705976
 20
100.03571437
 11
159.3017714547
 21
100.5071429133
  0
LINE
  5
7C4
100
AcDbEntity
  8
CURVE
100
AcDbLine
 62
250
  6
CONTINUOUS
 10
159.2118778703
 20
96.7357141733
 11
159.2406787274
 21
97.2071429133
  0
LINE
  5
7C5
100
AcDbEntity
  8
CURVE
100
AcDbLine
 62
250
  6
CONTINUOUS
 10
159.2729705976
 20
92.6892860889
 11
159.3017714547
 21
93.1607144356
  0
LINE
  5
7C6
100
AcDbEntity
  8
CURVE
100
AcDbLine
 62
250
  6
CONTINUOUS
 10
159.5541368471
 20
109.3318417383
 11
159.564683284
 21
109.5065772336
  0
LINE
  5
7C7
100
AcDbEntity
  8
CURVE
100
AcDbLine
 62
250
  6
CONTINUOUS
 10
159.569911554
 20
118.790021
 11
159.6047504846
 21
119.342748
  0
LINE
  5
7C8
100
AcDbEntity
  8
CURVE
100
AcDbLine
 62
250
  6
CONTINUOUS
 10
159.5699313237
 20
108.9898319025
 11
159.5687683852
 21
108.9710218827
  0
LINE
  5
7C9
100
AcDbEntity
  8
CURVE
100
AcDbLine
 62
250
  6
CONTINUOUS
 10
159.5642411365
 20
111.834033
 11
159.5541368532
 21
111.677235
  0
LINE
  5
7CA
100
AcDbEntity
  8
CURVE
100
AcDbLine
 62
250
  6
CONTINUOUS
 10
159.5687683852
 20
108.9710218827
 11
159.5541368471
 21
108.7496410148
  0
LINE
  5
7CB
100
AcDbEntity
  8
CURVE
100
AcDbLine
 62
250
  6
CONTINUOUS
 10
159.5908431442
 20
112.233126
 11
159.5720597837
 21
111.954996
  0
LINE
  5
7CC
100
AcDbEntity
  8
CURVE
100
AcDbLine
 62
7
  6
CONTINUOUS
 10
159.5989571137
 20
102.0553078969
 11
159.604628753
 21
102.0609795362
  0
LINE
  5
7CD
100
AcDbEntity
  8
CURVE
100
AcDbLine
 62
7
  6
CONTINUOUS
 10
159.5771914681
 20
102.0335422513
 11
159.5828635787
 21
102.039214362
  0
LINE
  5
7CE
100
AcDbEntity
  8
CURVE
100
AcDbLine
 62
7
  6
CONTINUOUS
 10
159.554008768
 20
102.0103595512
 11
159.5596803724
 21
102.0160311556
  0
LINE
  5
7CF
100
AcDbEntity
  8
CURVE
100
AcDbLine
 62
7
  6
CONTINUOUS
 10
159.5989571137
 20
101.8452971829
 11
159.604628753
 21
101.8509688222
  0
LINE
  5
7D0
100
AcDbEntity
  8
CURVE
100
AcDbLine
 62
7
  6
CONTINUOUS
 10
159.5771914681
 20
101.8235315373
 11
159.5828635787
 21
101.8292036479
  0
LINE
  5
7D1
100
AcDbEntity
  8
CURVE
100
AcDbLine
 62
7
  6
CONTINUOUS
 10
159.554008768
 20
101.8003488372
 11
159.5596803724
 21
101.8060204416
  0
LINE
  5
7D2
100
AcDbEntity
  8
CURVE
100
AcDbLine
 62
7
  6
CONTINUOUS
 10
159.5989571137
 20
101.6352864689
 11
159.604628753
 21
101.6409581082
  0
LINE
  5
7D3
100
AcDbEntity
  8
CURVE
100
AcDbLine
 62
7
  6
CONTINUOUS
 10
159.5771914681
 20
101.6135208233
 11
159.5828635787
 21
101.6191929339
  0
LINE
  5
7D4
100
AcDbEntity
  8
CURVE
100
AcDbLine
 62
7
  6
CONTINUOUS
 10
159.554008768
 20
101.5903381232
 11
159.5596803724
 21
101.5960097276
  0
LINE
  5
7D5
100
AcDbEntity
  8
CURVE
100
AcDbLine
 62
7
  6
CONTINUOUS
 10
159.5989571137
 20
101.4252757549
 11
159.604628753
 21
101.4309473942
  0
LINE
  5
7D6
100
AcDbEntity
  8
CURVE
100
AcDbLine
 62
7
  6
CONTINUOUS
 10
159.5771914681
 20
101.4035101093
 11
159.5828635787
 21
101.4091822199
  0
LINE
  5
7D7
100
AcDbEntity
  8
CURVE
100
AcDbLine
 62
7
  6
CONTINUOUS
 10
159.554008768
 20
101.3803274092
 11
159.5596803724
 21
101.3859990136
  0
LINE
  5
7D8
100
AcDbEntity
  8
CURVE
100
AcDbLine
 62
7
  6
CONTINUOUS
 10
159.5989571137
 20
101.2152650409
 11
159.604628753
 21
101.2209366802
  0
LINE
  5
7D9
100
AcDbEntity
  8
CURVE
100
AcDbLine
 62
7
  6
CONTINUOUS
 10
159.554008768
 20
101.1703166952
 11
159.5596803724
 21
101.1759882996
  0
LINE
  5
7DA
100
AcDbEntity
  8
CURVE
100
AcDbLine
 62
7
  6
CONTINUOUS
 10
159.6040113389
 20
100.8002978381
 11
159.6046286134
 21
100.8009151125
  0
LINE
  5
7DB
100
AcDbEntity
  8
CURVE
100
AcDbLine
 62
7
  6
CONTINUOUS
 10
159.5930845455
 20
100.5793603306
 11
159.6046286134
 21
100.5909043985
  0
LINE
  5
7DC
100
AcDbEntity
  8
CURVE
100
AcDbLine
 62
7
  6
CONTINUOUS
 10
159.582157752
 20
100.3584228232
 11
159.6038683877
 21
100.3801334589
  0
LINE
  5
7DD
100
AcDbEntity
  8
CURVE
100
AcDbLine
 62
7
  6
CONTINUOUS
 10
159.5712309586
 20
100.1374853157
 11
159.5921241021
 21
100.1583784592
  0
LINE
  5
7DE
100
AcDbEntity
  8
CURVE
100
AcDbLine
 62
7
  6
CONTINUOUS
 10
159.5603041652
 20
99.9165478083
 11
159.5803798164
 21
99.9366234595
  0
LINE
  5
7DF
100
AcDbEntity
  8
CURVE
100
AcDbLine
 62
7
  6
CONTINUOUS
 10
159.5540086109
 20
99.70024154
 11
159.5686355307
 21
99.7148684598
  0
LINE
  5
7E0
100
AcDbEntity
  8
CURVE
100
AcDbLine
 62
7
  6
CONTINUOUS
 10
159.5540086109
 20
99.490230826
 11
159.5637713159
 21
99.499993531
  0
LINE
  5
7E1
100
AcDbEntity
  8
ASSI
100
AcDbLine
 62
250
  6
CONTINUOUS
 10
137.35
 20
88.880340834
 11
138.0293066586
 21
89.1180864792
  0
LINE
  5
7E2
100
AcDbEntity
  8
ASSI
100
AcDbLine
 62
250
  6
CONTINUOUS
 10
157.7716026623
 20
116.7543216904
 11
157.6917064336
 21
116.7410174856
  0
LINE
  5
7E3
100
AcDbEntity
  8
ASSI
100
AcDbLine
 62
250
  6
CONTINUOUS
 10
157.4700436002
 20
117.0539821922
 11
157.3914319313
 21
117.0408918905
  0
LWPOLYLINE
  5
7E4
100
AcDbEntity
  8
ASSI
100
AcDbPolyline
 62
7
  6
CONTINUOUS
 90
19
 70
0
 10
143.6409394596
 20
115.4589996185
 10
143.6077186862
 20
115.4575563583
 10
143.5743679965
 20
115.4533556744
 10
143.5410354647
 20
115.4462579388
 10
143.5076787514
 20
115.4360385928
 10
143.4747282781
 20
115.4226580139
 10
143.4430380738
 20
115.4064017022
 10
143.4129242377
 20
115.3873950086
 10
143.3844584933
 20
115.3656451349
 10
143.3580576309
 20
115.3414525596
 10
143.3338454624
 20
115.3149130962
 10
143.3120224851
 20
115.2862176787
 10
143.2930059779
 20
115.2559209887
 10
143.2768248246
 20
115.2241359144
 10
143.2635566367
 20
115.1911546987
 10
143.2534651373
 20
115.1578896736
 10
143.2464882222
 20
115.1247919152
 10
143.2423856269
 20
115.0918004771
 10
143.2410003815
 20
115.0590605404
  0
LINE
  5
7E5
100
AcDbEntity
  8
CURVE
100
AcDbLine
 62
250
  6
CONTINUOUS
 10
159.536542078
 20
114.9452380657
 11
159.5138504936
 21
114.9452380657
  0
LINE
  5
7E6
100
AcDbEntity
  8
IMPORT_IGES
100
AcDbLine
 62
7
  6
CONTINUOUS
 10
144.324
 20
115.2
 11
149.424
 21
115.2
  0
LINE
  5
7E7
100
AcDbEntity
  8
CURVE
100
AcDbLine
 62
250
  6
CONTINUOUS
 10
159.3358088313
 20
115.407638
 11
159.3535957519
 21
115.407638
  0
LINE
  5
7E8
100
AcDbEntity
  8
ASSI
100
AcDbLine
 62
7
  6
CONTINUOUS
 10
143.6499390781
 20
115.45
 11
149.8500609219
 21
115.45
  0
LINE
  5
7E9
100
AcDbEntity
  8
ASSI
100
AcDbLine
 62
7
  6
CONTINUOUS
 10
143.6409394596
 20
115.4589996185
 11
149.8590605404
 21
115.4589996185
  0
LINE
  5
7EA
100
AcDbEntity
  8
CURVE
100
AcDbLine
 62
250
  6
CONTINUOUS
 10
159.5170921486
 20
115.4714287043
 11
159.5333004232
 21
115.4714287043
  0
LINE
  5
7EB
100
AcDbEntity
  8
CURVE
100
AcDbLine
 62
250
  6
CONTINUOUS
 10
139.2
 20
115.5
 11
142.2
 21
115.5
  0
LINE
  5
7EC
100
AcDbEntity
  8
CURVE
100
AcDbLine
 62
250
  6
CONTINUOUS
 10
155.8142856926
 20
115.6523804188
 11
155.0857142568
 21
115.6523804188
  0
LINE
  5
7ED
100
AcDbEntity
  8
ASSI
100
AcDbLine
 62
250
  6
CONTINUOUS
 10
158.0358566434
 20
115.7999238461
 11
159.0716692421
 21
115.7999238461
  0
LINE
  5
7EE
100
AcDbEntity
  8
ASSI
100
AcDbLine
 62
7
  6
CONTINUOUS
 10
157.9708456462
 20
115.8589825144
 11
157.6917064336
 21
115.8589825144
  0
LINE
  5
7EF
100
AcDbEntity
  8
ASSI
100
AcDbLine
 62
7
  6
CONTINUOUS
 10
143.0725888089
 20
116.0273502692
 11
150.4274111911
 21
116.0273502692
  0
LINE
  5
7F0
100
AcDbEntity
  8
CURVE
100
AcDbLine
 62
250
  6
CONTINUOUS
 10
159.4310494432
 20
116.082053
 11
159.4375508265
 21
116.082053
  0
LINE
  5
7F1
100
AcDbEntity
  8
CURVE
100
AcDbLine
 62
250
  6
CONTINUOUS
 10
159.536542078
 20
116.1214285493
 11
159.5138504936
 21
116.1214285493
  0
LINE
  5
7F2
100
AcDbEntity
  8
CURVE
100
AcDbLine
 62
250
  6
CONTINUOUS
 10
159.5016319481
 20
116.1619048506
 11
159.4789403637
 21
116.1619048506
  0
LINE
  5
7F3
100
AcDbEntity
  8
CURVE
100
AcDbLine
 62
250
  6
CONTINUOUS
 10
159.4375508265
 20
116.432113
 11
159.4310494432
 21
116.432113
  0
LINE
  5
7F4
100
AcDbEntity
  8
CURVE
100
AcDbLine
 62
250
  6
CONTINUOUS
 10
155.0857142568
 20
116.5023804188
 11
155.8142856926
 21
116.5023804188
  0
LINE
  5
7F5
100
AcDbEntity
  8
ASSI
100
AcDbLine
 62
7
  6
CONTINUOUS
 10
150.4274111911
 20
116.5726497308
 11
143.0725888089
 21
116.5726497308
  0
LINE
  5
7F6
100
AcDbEntity
  8
ASSI
100
AcDbLine
 62
7
  6
CONTINUOUS
 10
157.9708456462
 20
116.7410174856
 11
157.6917064336
 21
116.7410174856
  0
LINE
  5
7F7
100
AcDbEntity
  8
CURVE
100
AcDbLine
 62
250
  6
CONTINUOUS
 10
159.6047535218
 20
116.785664
 11
159.5541368532
 21
116.785664
  0
LINE
  5
7F8
100
AcDbEntity
  8
ASSI
100
AcDbLine
 62
250
  6
CONTINUOUS
 10
158.0358566434
 20
116.8000761539
 11
159.0716692421
 21
116.8000761539
  0
LINE
  5
7F9
100
AcDbEntity
  8
CURVE
100
AcDbLine
 62
250
  6
CONTINUOUS
 10
155.9357142821
 20
114.3166663647
 11
154.6
 21
114.6809523106
  0
LINE
  5
7FA
100
AcDbEntity
  8
ASSI
100
AcDbLine
 62
250
  6
CONTINUOUS
 10
137.35
 20
121.119659166
 11
138.0293066586
 21
120.8819135208
  0
LINE
  5
7FB
100
AcDbEntity
  8
CURVE
100
AcDbLine
 62
250
  6
CONTINUOUS
 10
154.6
 20
113.2238093376
 11
154.9642857432
 21
112.9809523106
  0
LINE
  5
7FC
100
AcDbEntity
  8
CURVE
100
AcDbLine
 62
250
  6
CONTINUOUS
 10
156.3
 20
112.9809523106
 11
155.0857142568
 21
113.8309523106
  0
LWPOLYLINE
  5
7FD
100
AcDbEntity
  8
CURVE
100
AcDbPolyline
 62
250
  6
CONTINUOUS
 90
13
 70
0
 10
159.3672112915
 20
109.2500019129
 10
159.3676457407
 20
109.2496430007
 10
159.3680794016
 20
109.2485692689
 10
159.3685130815
 20
109.2467852244
 10
159.368947588
 20
109.2442953741
 10
159.3693835962
 20
109.2411015411
 10
159.3698212504
 20
109.2371948112
 10
159.3702605626
 20
109.2325635865
 10
159.3707015448
 20
109.2271962688
 10
159.371144045
 20
109.2210839967
 10
159.3715872565
 20
109.2142288549
 10
159.3720302084
 20
109.2066356645
 10
159.3724719301
 20
109.1983092471
  0
LWPOLYLINE
  5
7FE
100
AcDbEntity
  8
CURVE
100
AcDbPolyline
 62
250
  6
CONTINUOUS
 90
12
 70
0
 10
159.4092837392
 20
110.3749981263
 10
159.4091121238
 20
110.3751607554
 10
159.4089418112
 20
110.3756458074
 10
159.4087723662
 20
110.3764490289
 10
159.4086033539
 20
110.3775661667
 10
159.4084343391
 20
110.3789929675
 10
159.4082649694
 20
110.3807267835
 10
159.4080952222
 20
110.3827713886
 10
159.4079251572
 20
110.3851321626
 10
159.4077548344
 20
110.3878144847
 10
159.4075843136
 20
110.3908237346
 10
159.4074137134
 20
110.3941636665
  0
LINE
  5
7FF
100
AcDbEntity
  8
ASSI
100
AcDbLine
 62
250
  6
CONTINUOUS
 10
150.25
 20
117.5499390781
 11
150.8273502692
 21
116.9725888089
  0
LINE
  5
800
100
AcDbEntity
  8
ASSI
100
AcDbLine
 62
7
  6
CONTINUOUS
 10
157.9929160262
 20
110.8428644633
 11
158.0358566434
 21
110.7999238461
  0
LINE
  5
801
100
AcDbEntity
  8
CURVE
100
AcDbLine
 62
250
  6
CONTINUOUS
 10
159.6047504846
 20
118.22041
 11
159.569911554
 21
118.790021
  0
LWPOLYLINE
  5
802
100
AcDbEntity
  8
ASSI
100
AcDbPolyline
 62
7
  6
CONTINUOUS
 90
11
 70
0
 10
159.6375097336
 20
88.6573957765
 10
159.6221059485
 20
88.5474993118
 10
159.60051091
 20
88.4383264388
 10
159.5728101035
 20
88.3302042752
 10
159.5392599851
 20
88.2241141735
 10
159.4998103071
 20
88.12007359
 10
159.4545113172
 20
88.0180650685
 10
159.403770214
 20
87.9190175933
 10
159.3477227304
 20
87.8232408261
 10
159.2862331336
 20
87.7304251053
 10
159.2193014234
 20
87.6405704308
  0
LINE
  5
803
100
AcDbEntity
  8
ASSI
100
AcDbLine
 62
7
  6
CONTINUOUS
 10
156.1780257768
 20
84.5664292356
 11
156.0658752601
 21
84.2297040761
  0
LINE
  5
804
100
AcDbEntity
  8
CURVE
100
AcDbLine
 62
7
  6
CONTINUOUS
 10
159.5573011905
 20
99.2835126916
 11
159.5742378973
 21
99.3004493984
  0
LINE
  5
805
100
AcDbEntity
  8
CURVE
100
AcDbLine
 62
7
  6
CONTINUOUS
 10
159.5671234622
 20
99.0833242493
 11
159.5847044787
 21
99.1009052657
  0
LINE
  5
806
100
AcDbEntity
  8
CURVE
100
AcDbLine
 62
7
  6
CONTINUOUS
 10
159.5769457338
 20
98.8831358069
 11
159.59517106
 21
98.9013611331
  0
LINE
  5
807
100
AcDbEntity
  8
CURVE
100
AcDbLine
 62
7
  6
CONTINUOUS
 10
159.5867680055
 20
98.6829473646
 11
159.6046286134
 21
98.7008079724
  0
LINE
  5
808
100
AcDbEntity
  8
CURVE
100
AcDbLine
 62
7
  6
CONTINUOUS
 10
159.5965902772
 20
98.4827589222
 11
159.6046286134
 21
98.4907972584
  0
LINE
  5
809
100
AcDbEntity
  8
CURVE
100
AcDbLine
 62
7
  6
CONTINUOUS
 10
159.554008768
 20
97.810145271
 11
159.571350497
 21
97.827487
  0
LINE
  5
80A
100
AcDbEntity
  8
CURVE
100
AcDbLine
 62
7
  6
CONTINUOUS
 10
159.554008768
 20
97.600134557
 11
159.604628753
 21
97.650754542
  0
LINE
  5
80B
100
AcDbEntity
  8
CURVE
100
AcDbLine
 62
7
  6
CONTINUOUS
 10
159.5989571137
 20
97.4350721886
 11
159.604628753
 21
97.440743828
  0
LINE
  5
80C
100
AcDbEntity
  8
CURVE
100
AcDbLine
 62
7
  6
CONTINUOUS
 10
159.5771914681
 20
97.4133065431
 11
159.5828635787
 21
97.4189786537
  0
LINE
  5
80D
100
AcDbEntity
  8
CURVE
100
AcDbLine
 62
7
  6
CONTINUOUS
 10
159.554008768
 20
97.3901238429
 11
159.5596803724
 21
97.3957954474
  0
LINE
  5
80E
100
AcDbEntity
  8
CURVE
100
AcDbLine
 62
7
  6
CONTINUOUS
 10
159.5989571137
 20
97.2250614746
 11
159.604628753
 21
97.230733114
  0
LINE
  5
80F
100
AcDbEntity
  8
CURVE
100
AcDbLine
 62
7
  6
CONTINUOUS
 10
159.5771914681
 20
97.203295829
 11
159.5828635787
 21
97.2089679397
  0
LINE
  5
810
100
AcDbEntity
  8
CURVE
100
AcDbLine
 62
7
  6
CONTINUOUS
 10
159.554008768
 20
97.1801131289
 11
159.5596803724
 21
97.1857847334
  0
LINE
  5
811
100
AcDbEntity
  8
CURVE
100
AcDbLine
 62
7
  6
CONTINUOUS
 10
159.5989571137
 20
97.0150507606
 11
159.604628753
 21
97.0207223999
  0
LINE
  5
812
100
AcDbEntity
  8
CURVE
100
AcDbLine
 62
7
  6
CONTINUOUS
 10
159.5771914681
 20
96.993285115
 11
159.5828635787
 21
96.9989572257
  0
LINE
  5
813
100
AcDbEntity
  8
CURVE
100
AcDbLine
 62
7
  6
CONTINUOUS
 10
159.554008768
 20
96.9701024149
 11
159.5596803724
 21
96.9757740193
  0
LINE
  5
814
100
AcDbEntity
  8
CURVE
100
AcDbLine
 62
7
  6
CONTINUOUS
 10
159.5989571137
 20
96.8050400466
 11
159.604628753
 21
96.8107116859
  0
LINE
  5
815
100
AcDbEntity
  8
CURVE
100
AcDbLine
 62
7
  6
CONTINUOUS
 10
159.5771914681
 20
96.783274401
 11
159.5828635787
 21
96.7889465116
  0
LINE
  5
816
100
AcDbEntity
  8
CURVE
100
AcDbLine
 62
7
  6
CONTINUOUS
 10
159.554008768
 20
96.7600917009
 11
159.5596803724
 21
96.7657633053
  0
LINE
  5
817
100
AcDbEntity
  8
ASSI
100
AcDbLine
 62
7
  6
CONTINUOUS
 10
139.5599034178
 20
85.6
 11
140.1764851557
 21
85.9396274619
  0
LINE
  5
818
100
AcDbEntity
  8
ASSI
100
AcDbLine
 62
250
  6
CONTINUOUS
 10
137.7806985766
 20
87.6405704308
 11
138.4715599307
 21
87.8638314412
  0
LWPOLYLINE
  5
819
100
AcDbEntity
  8
ASSI
100
AcDbPolyline
 62
7
  6
CONTINUOUS
 90
19
 70
0
 10
149.8590605404
 20
117.1410003815
 10
149.8922813138
 20
117.1424436417
 10
149.9256320035
 20
117.1466443256
 10
149.9589645353
 20
117.1537420612
 10
149.9923212486
 20
117.1639614072
 10
150.0252717219
 20
117.1773419861
 10
150.0569619262
 20
117.1935982978
 10
150.0870757623
 20
117.2126049914
 10
150.1155415067
 20
117.2343548651
 10
150.1419423691
 20
117.2585474404
 10
150.1661545376
 20
117.2850869038
 10
150.1879775149
 20
117.3137823213
 10
150.2069940221
 20
117.3440790113
 10
150.2231751754
 20
117.3758640856
 10
150.2364433633
 20
117.4088453013
 10
150.2465348627
 20
117.4421103264
 10
150.2535117778
 20
117.4752080848
 10
150.2576143731
 20
117.5081995229
 10
150.2589996185
 20
117.5409394596
  0
LINE
  5
81A
100
AcDbEntity
  8
CURVE
100
AcDbLine
 62
250
  6
CONTINUOUS
 10
159.4256723755
 20
116.88859
 11
159.4294363159
 21
116.88859
  0
LINE
  5
81B
100
AcDbEntity
  8
CURVE
100
AcDbLine
 62
250
  6
CONTINUOUS
 10
159.4485902823
 20
117.083924
 11
159.4523866542
 21
117.083924
  0
LINE
  5
81C
100
AcDbEntity
  8
CURVE
100
AcDbLine
 62
250
  6
CONTINUOUS
 10
159.5016319481
 20
117.1214287192
 11
159.4789403637
 21
117.1214287192
  0
LINE
  5
81D
100
AcDbEntity
  8
ASSI
100
AcDbLine
 62
7
  6
CONTINUOUS
 10
149.8590605404
 20
117.1410003815
 11
143.6409394596
 21
117.1410003815
  0
LINE
  5
81E
100
AcDbEntity
  8
ASSI
100
AcDbLine
 62
7
  6
CONTINUOUS
 10
149.8500609219
 20
117.15
 11
143.6499390781
 21
117.15
  0
LINE
  5
81F
100
AcDbEntity
  8
CURVE
100
AcDbLine
 62
250
  6
CONTINUOUS
 10
159.5541368532
 20
117.390935
 11
159.6047535218
 21
117.390935
  0
LINE
  5
820
100
AcDbEntity
  8
IMPORT_IGES
100
AcDbLine
 62
7
  6
CONTINUOUS
 10
149.424
 20
117.4
 11
144.324
 21
117.4
  0
LINE
  5
821
100
AcDbEntity
  8
CURVE
100
AcDbLine
 62
250
  6
CONTINUOUS
 10
159.5138504936
 20
117.6071428239
 11
159.536542078
 21
117.6071428239
  0
LINE
  5
822
100
AcDbEntity
  8
CURVE
100
AcDbLine
 62
250
  6
CONTINUOUS
 10
159.4523963941
 20
117.656927
 11
159.4486000222
 21
117.656927
  0
LINE
  5
823
100
AcDbEntity
  8
CURVE
100
AcDbLine
 62
250
  6
CONTINUOUS
 10
159.4294363159
 20
117.71193
 11
159.4256723755
 21
117.71193
  0
LINE
  5
824
100
AcDbEntity
  8
CURVE
100
AcDbLine
 62
250
  6
CONTINUOUS
 10
159.3817686456
 20
118.100497
 11
159.3851976582
 21
118.100497
  0
LINE
  5
825
100
AcDbEntity
  8
CURVE
100
AcDbLine
 62
250
  6
CONTINUOUS
 10
159.4438854441
 20
118.18241
 11
159.4507735269
 21
118.18241
  0
LINE
  5
826
100
AcDbEntity
  8
CURVE
100
AcDbLine
 62
250
  6
CONTINUOUS
 10
159.3851976582
 20
118.218117
 11
159.3817686456
 21
118.218117
  0
LINE
  5
827
100
AcDbEntity
  8
CURVE
100
AcDbLine
 62
250
  6
CONTINUOUS
 10
159.4507735269
 20
118.281784
 11
159.4438854441
 21
118.281784
  0
LINE
  5
828
100
AcDbEntity
  8
CURVE
100
AcDbLine
 62
250
  6
CONTINUOUS
 10
159.536542078
 20
118.35
 11
159.5138504936
 21
118.35
  0
LINE
  5
829
100
AcDbEntity
  8
CURVE
100
AcDbLine
 62
250
  6
CONTINUOUS
 10
151.6
 20
118.4107142985
 11
153.5
 21
118.4107142985
  0
LINE
  5
82A
100
AcDbEntity
  8
CURVE
100
AcDbLine
 62
250
  6
CONTINUOUS
 10
159.5016319481
 20
118.7619046956
 11
159.4789403637
 21
118.7619046956
  0
LWPOLYLINE
  5
82B
100
AcDbEntity
  8
ASSI
100
AcDbPolyline
 62
7
  6
CONTINUOUS
 90
7
 70
0
 10
157.7716026623
 20
116.7543216904
 10
157.750059362
 20
116.7549163524
 10
157.7284172353
 20
116.7571465639
 10
157.7067854955
 20
116.7610123247
 10
157.6852657323
 20
116.7665136349
 10
157.6639517268
 20
116.7736504945
 10
157.6429293531
 20
116.7824229035
  0
LINE
  5
82C
100
AcDbEntity
  8
ASSI
100
AcDbLine
 62
250
  6
CONTINUOUS
 10
157.3914319313
 20
115.5591081095
 11
157.4700436002
 21
115.5460178078
  0
LINE
  5
82D
100
AcDbEntity
  8
ASSI
100
AcDbLine
 62
250
  6
CONTINUOUS
 10
157.7716026623
 20
115.8456783096
 11
157.6917064336
 21
115.8589825144
  0
LINE
  5
82E
100
AcDbEntity
  8
ASSI
100
AcDbLine
 62
250
  6
CONTINUOUS
 10
137.7806985766
 20
122.3594295692
 11
138.4715599307
 21
122.1361685588
  0
LINE
  5
82F
100
AcDbEntity
  8
CURVE
100
AcDbLine
 62
250
  6
CONTINUOUS
 10
155.0857142568
 20
115.6523804188
 11
154.8428571284
 21
115.7738093376
  0
LINE
  5
830
100
AcDbEntity
  8
CURVE
100
AcDbLine
 62
250
  6
CONTINUOUS
 10
155.8142856926
 20
116.5023804188
 11
156.0571428463
 21
116.3809523106
  0
LINE
  5
831
100
AcDbEntity
  8
ASSI
100
AcDbLine
 62
7
  6
CONTINUOUS
 10
140.1763467138
 20
124.0604486876
 11
139.5599034178
 21
124.4
  0
LWPOLYLINE
  5
832
100
AcDbEntity
  8
CURVE
100
AcDbPolyline
 62
250
  6
CONTINUOUS
 90
12
 70
0
 10
159.3668391711
 20
111.8749930774
 10
159.367029637
 20
111.8748207395
 10
159.3672179934
 20
111.8743082105
 10
159.3674046995
 20
111.8734622171
 10
159.3675902147
 20
111.872289486
 10
159.3677749983
 20
111.8707967441
 10
159.3679594195
 20
111.868989028
 10
159.3681434872
 20
111.8668646147
 10
159.3683271206
 20
111.8644200908
 10
159.3685102385
 20
111.8616520433
 10
159.36869276
 20
111.858557059
 10
159.3688745511
 20
111.8551331641
  0
LINE
  5
833
100
AcDbEntity
  8
CURVE
100
AcDbLine
 62
250
  6
CONTINUOUS
 10
154.8428571284
 20
115.7738093376
 11
154.6
 21
116.0166663647
  0
LINE
  5
834
100
AcDbEntity
  8
CURVE
100
AcDbLine
 62
250
  6
CONTINUOUS
 10
156.0571428463
 20
116.3809523106
 11
156.3
 21
116.1380952835
  0
LINE
  5
835
100
AcDbEntity
  8
CURVE
100
AcDbLine
 62
250
  6
CONTINUOUS
 10
155.7738095045
 20
118.4452382565
 11
155.6523809403
 21
118.7285713196
  0
LINE
  5
836
100
AcDbEntity
  8
CURVE
100
AcDbLine
 62
250
  6
CONTINUOUS
 10
155.895238094
 20
119.0523804188
 11
155.7738095045
 21
119.3761903286
  0
LINE
  5
837
100
AcDbEntity
  8
ASSI
100
AcDbLine
 62
7
  6
CONTINUOUS
 10
156.0658752601
 20
125.7702959239
 11
156.1780257768
 21
125.4335707644
  0
LINE
  5
838
100
AcDbEntity
  8
CURVE
100
AcDbLine
 62
250
  6
CONTINUOUS
 10
159.5541368532
 20
115.880779
 11
159.5871866048
 21
115.750162
  0
LINE
  5
839
100
AcDbEntity
  8
CURVE
100
AcDbLine
 62
250
  6
CONTINUOUS
 10
159.6047504846
 20
116.198005
 11
159.5541368532
 21
116.459827
  0
LINE
  5
83A
100
AcDbEntity
  8
CURVE
100
AcDbLine
 62
250
  6
CONTINUOUS
 10
159.4434045221
 20
116.350161
 11
159.3928454902
 21
116.619407
  0
LWPOLYLINE
  5
83B
100
AcDbEntity
  8
ASSI
100
AcDbPolyline
 62
7
  6
CONTINUOUS
 90
11
 70
0
 10
159.6375097336
 20
121.3426042235
 10
159.6221059485
 20
121.4525006882
 10
159.60051091
 20
121.5616735612
 10
159.5728101035
 20
121.6697957248
 10
159.5392599851
 20
121.7758858265
 10
159.4998103071
 20
121.87992641
 10
159.4545113172
 20
121.9819349315
 10
159.403770214
 20
122.0809824067
 10
159.3477227304
 20
122.1767591739
 10
159.2862331336
 20
122.2695748947
 10
159.2193014234
 20
122.3594295692
  0
LINE
  5
83C
100
AcDbEntity
  8
CURVE
100
AcDbLine
 62
7
  6
CONTINUOUS
 10
159.5989571137
 20
96.5950293326
 11
159.604628753
 21
96.6007009719
  0
LINE
  5
83D
100
AcDbEntity
  8
CURVE
100
AcDbLine
 62
7
  6
CONTINUOUS
 10
159.5771914681
 20
96.573263687
 11
159.5828635787
 21
96.5789357976
  0
LINE
  5
83E
100
AcDbEntity
  8
CURVE
100
AcDbLine
 62
7
  6
CONTINUOUS
 10
159.554008768
 20
96.5500809869
 11
159.5596803724
 21
96.5557525913
  0
LINE
  5
83F
100
AcDbEntity
  8
CURVE
100
AcDbLine
 62
7
  6
CONTINUOUS
 10
159.5989571137
 20
96.3850186186
 11
159.604628753
 21
96.3906902579
  0
LINE
  5
840
100
AcDbEntity
  8
CURVE
100
AcDbLine
 62
7
  6
CONTINUOUS
 10
159.5771914681
 20
96.363252973
 11
159.5828635787
 21
96.3689250836
  0
LINE
  5
841
100
AcDbEntity
  8
CURVE
100
AcDbLine
 62
7
  6
CONTINUOUS
 10
159.554008768
 20
96.3400702729
 11
159.5596803724
 21
96.3457418773
  0
LINE
  5
842
100
AcDbEntity
  8
CURVE
100
AcDbLine
 62
7
  6
CONTINUOUS
 10
159.5989571137
 20
96.1750079046
 11
159.604628753
 21
96.1806795439
  0
LINE
  5
843
100
AcDbEntity
  8
CURVE
100
AcDbLine
 62
7
  6
CONTINUOUS
 10
159.5771914681
 20
96.153242259
 11
159.5828635787
 21
96.1589143696
  0
LINE
  5
844
100
AcDbEntity
  8
CURVE
100
AcDbLine
 62
7
  6
CONTINUOUS
 10
159.554008768
 20
96.1300595589
 11
159.5596803724
 21
96.1357311633
  0
LINE
  5
845
100
AcDbEntity
  8
CURVE
100
AcDbLine
 62
7
  6
CONTINUOUS
 10
159.5989571137
 20
95.9649971905
 11
159.604628753
 21
95.9706688299
  0
LINE
  5
846
100
AcDbEntity
  8
CURVE
100
AcDbLine
 62
7
  6
CONTINUOUS
 10
159.5771914681
 20
95.943231545
 11
159.5828635787
 21
95.9489036556
  0
LINE
  5
847
100
AcDbEntity
  8
CURVE
100
AcDbLine
 62
7
  6
CONTINUOUS
 10
159.554008768
 20
95.9200488449
 11
159.5596803724
 21
95.9257204493
  0
LINE
  5
848
100
AcDbEntity
  8
CURVE
100
AcDbLine
 62
7
  6
CONTINUOUS
 10
159.5611888014
 20
94.6671645942
 11
159.6046761071
 21
94.7106518999
  0
LINE
  5
849
100
AcDbEntity
  8
CURVE
100
AcDbLine
 62
7
  6
CONTINUOUS
 10
159.5565906811
 20
94.4525557599
 11
159.561424985
 21
94.4573900638
  0
LINE
  5
84A
100
AcDbEntity
  8
CURVE
100
AcDbLine
 62
7
  6
CONTINUOUS
 10
159.5543699461
 20
94.2403243109
 11
159.5577395128
 21
94.2436938776
  0
LINE
  5
84B
100
AcDbEntity
  8
CURVE
100
AcDbLine
 62
7
  6
CONTINUOUS
 10
159.5532401204
 20
94.0291837712
 11
159.556130679
 21
94.0320743297
  0
LINE
  5
84C
100
AcDbEntity
  8
ASSI
100
AcDbLine
 62
7
  6
CONTINUOUS
 10
142.6743264668
 20
85.6871565952
 11
142.5
 21
85.6
  0
LWPOLYLINE
  5
84D
100
AcDbEntity
  8
CURVE
100
AcDbPolyline
 62
250
  6
CONTINUOUS
 90
16
 70
0
 10
159.5742760896
 20
94.8195950655
 10
159.5733292122
 20
94.8191428341
 10
159.5723902998
 20
94.8177170333
 10
159.5714603397
 20
94.8152140034
 10
159.5705396571
 20
94.8115259834
 10
159.5696259292
 20
94.8065288072
 10
159.568716171
 20
94.8000942076
 10
159.567807921
 20
94.792091088
 10
159.5669008097
 20
94.7823770359
 10
159.5659949911
 20
94.7708068091
 10
159.5653164825
 20
94.7608123885
 10
159.5646383395
 20
94.7495633134
 10
159.5639601142
 20
94.7369307262
 10
159.5632813583
 20
94.7227857691
 10
159.5627380141
 20
94.710299467
 10
159.5616567722
 20
94.6820356994
  0
LWPOLYLINE
  5
84E
100
AcDbEntity
  8
ASSI
100
AcDbPolyline
 62
7
  6
CONTINUOUS
 90
19
 70
0
 10
143.6409394596
 20
120.4589996185
 10
143.6077186862
 20
120.4575563583
 10
143.5743679965
 20
120.4533556744
 10
143.5410354647
 20
120.4462579388
 10
143.5076787514
 20
120.4360385928
 10
143.4747282781
 20
120.4226580139
 10
143.4430380738
 20
120.4064017022
 10
143.4129242377
 20
120.3873950086
 10
143.3844584933
 20
120.3656451349
 10
143.3580576309
 20
120.3414525596
 10
143.3338454624
 20
120.3149130962
 10
143.3120224851
 20
120.2862176787
 10
143.2930059779
 20
120.2559209887
 10
143.2768248246
 20
120.2241359144
 10
143.2635566367
 20
120.1911546987
 10
143.2534651373
 20
120.1578896736
 10
143.2464882222
 20
120.1247919152
 10
143.2423856269
 20
120.0918004771
 10
143.2410003815
 20
120.0590605404
  0
LINE
  5
84F
100
AcDbEntity
  8
CURVE
100
AcDbLine
 62
250
  6
CONTINUOUS
 10
159.5016319481
 20
119.4119047731
 11
159.4789403637
 21
119.4119047731
  0
LINE
  5
850
100
AcDbEntity
  8
CURVE
100
AcDbLine
 62
250
  6
CONTINUOUS
 10
159.3535957519
 20
119.592362
 11
159.3358088313
 21
119.592362
  0
LINE
  5
851
100
AcDbEntity
  8
CURVE
100
AcDbLine
 62
250
  6
CONTINUOUS
 10
159.5016319481
 20
119.9999999955
 11
159.4789403637
 21
119.9999999955
  0
LINE
  5
852
100
AcDbEntity
  8
IMPORT_IGES
100
AcDbLine
 62
7
  6
CONTINUOUS
 10
144.324
 20
120.2
 11
149.424
 21
120.2
  0
LINE
  5
853
100
AcDbEntity
  8
ASSI
100
AcDbLine
 62
7
  6
CONTINUOUS
 10
143.6499390781
 20
120.45
 11
149.8500609219
 21
120.45
  0
LINE
  5
854
100
AcDbEntity
  8
ASSI
100
AcDbLine
 62
7
  6
CONTINUOUS
 10
143.6409394596
 20
120.4589996185
 11
149.8590605404
 21
120.4589996185
  0
LINE
  5
855
100
AcDbEntity
  8
CURVE
100
AcDbLine
 62
250
  6
CONTINUOUS
 10
156.3
 20
117.4738093376
 11
154.6
 21
117.9595233917
  0
LINE
  5
856
100
AcDbEntity
  8
ASSI
100
AcDbLine
 62
7
  6
CONTINUOUS
 10
158.9706933414
 20
115.8504079514
 11
159.0716692421
 21
115.7999238461
  0
LINE
  5
857
100
AcDbEntity
  8
ASSI
100
AcDbLine
 62
7
  6
CONTINUOUS
 10
142.5
 20
124.4
 11
142.6743264668
 21
124.3128434048
  0
LINE
  5
858
100
AcDbEntity
  8
ASSI
100
AcDbLine
 62
7
  6
CONTINUOUS
 10
157.9929160262
 20
115.8428644633
 11
158.0358566434
 21
115.7999238461
  0
LINE
  5
859
100
AcDbEntity
  8
CURVE
100
AcDbLine
 62
7
  6
CONTINUOUS
 10
159.5528163414
 20
93.8187492782
 11
159.5555172277
 21
93.8214501644
  0
LINE
  5
85A
100
AcDbEntity
  8
CURVE
100
AcDbLine
 62
7
  6
CONTINUOUS
 10
159.5528359896
 20
93.6087582123
 11
159.5555268901
 21
93.6114491128
  0
LINE
  5
85B
100
AcDbEntity
  8
CURVE
100
AcDbLine
 62
7
  6
CONTINUOUS
 10
159.5532903442
 20
93.3992018529
 11
159.5560823538
 21
93.4019938626
  0
LINE
  5
85C
100
AcDbEntity
  8
CURVE
100
AcDbLine
 62
7
  6
CONTINUOUS
 10
159.5543997105
 20
93.1903005053
 11
159.5575232888
 21
93.1934240836
  0
LINE
  5
85D
100
AcDbEntity
  8
CURVE
100
AcDbLine
 62
7
  6
CONTINUOUS
 10
159.5564859741
 20
92.9823760548
 11
159.5605510871
 21
92.9864411678
  0
LINE
  5
85E
100
AcDbEntity
  8
CURVE
100
AcDbLine
 62
7
  6
CONTINUOUS
 10
159.5605370163
 20
92.776416383
 11
159.5705113665
 21
92.7863907332
  0
LINE
  5
85F
100
AcDbEntity
  8
CURVE
100
AcDbLine
 62
7
  6
CONTINUOUS
 10
159.5920189682
 20
92.5978876209
 11
159.6046761071
 21
92.6105447598
  0
LINE
  5
860
100
AcDbEntity
  8
CURVE
100
AcDbLine
 62
7
  6
CONTINUOUS
 10
159.5539633687
 20
91.9297998793
 11
159.6046759607
 21
91.9805124713
  0
LINE
  5
861
100
AcDbEntity
  8
CURVE
100
AcDbLine
 62
7
  6
CONTINUOUS
 10
159.6019766697
 20
91.7678024663
 11
159.6046759607
 21
91.7705017573
  0
LINE
  5
862
100
AcDbEntity
  8
CURVE
100
AcDbLine
 62
7
  6
CONTINUOUS
 10
159.5765491205
 20
91.7423749171
 11
159.5792484114
 21
91.7450742081
  0
LINE
  5
863
100
AcDbEntity
  8
CURVE
100
AcDbLine
 62
7
  6
CONTINUOUS
 10
159.6019766697
 20
91.5577917523
 11
159.6046759607
 21
91.5604910433
  0
LINE
  5
864
100
AcDbEntity
  8
CURVE
100
AcDbLine
 62
7
  6
CONTINUOUS
 10
159.5765491205
 20
91.5323642031
 11
159.5792484114
 21
91.535063494
  0
LINE
  5
865
100
AcDbEntity
  8
CURVE
100
AcDbLine
 62
7
  6
CONTINUOUS
 10
159.6019766697
 20
91.3477810383
 11
159.6046759607
 21
91.3504803293
  0
LINE
  5
866
100
AcDbEntity
  8
CURVE
100
AcDbLine
 62
7
  6
CONTINUOUS
 10
159.5765491205
 20
91.3223534891
 11
159.5792484114
 21
91.32505278
  0
LINE
  5
867
100
AcDbEntity
  8
ASSI
100
AcDbLine
 62
7
  6
CONTINUOUS
 10
140.9341247399
 20
84.2297040761
 11
141.1144274674
 21
84.3098075485
  0
LINE
  5
868
100
AcDbEntity
  8
ASSI
100
AcDbLine
 62
250
  6
CONTINUOUS
 10
159.0716692421
 20
120.7999238461
 11
158.0202496411
 21
120.7999238461
  0
LINE
  5
869
100
AcDbEntity
  8
ASSI
100
AcDbLine
 62
7
  6
CONTINUOUS
 10
157.9708456462
 20
120.8589825144
 11
157.6917064336
 21
120.8589825144
  0
LINE
  5
86A
100
AcDbEntity
  8
ASSI
100
AcDbLine
 62
250
  6
CONTINUOUS
 10
158.9706933414
 20
120.8819135208
 11
157.9708456462
 21
120.8819135208
  0
LINE
  5
86B
100
AcDbEntity
  8
ASSI
100
AcDbLine
 62
250
  6
CONTINUOUS
 10
138.0293066586
 20
120.8819135208
 11
139.0291543538
 21
120.8819135208
  0
LINE
  5
86C
100
AcDbEntity
  8
ASSI
100
AcDbLine
 62
7
  6
CONTINUOUS
 10
143.0725888089
 20
121.0273502692
 11
150.4274111911
 21
121.0273502692
  0
LINE
  5
86D
100
AcDbEntity
  8
CURVE
100
AcDbLine
 62
250
  6
CONTINUOUS
 10
139.7
 20
121.5
 11
141.7
 21
121.5
  0
LINE
  5
86E
100
AcDbEntity
  8
ASSI
100
AcDbLine
 62
7
  6
CONTINUOUS
 10
157.7715020147
 20
120.8456950693
 11
157.8719428776
 21
120.8451383823
  0
LINE
  5
86F
100
AcDbEntity
  8
ASSI
100
AcDbLine
 62
7
  6
CONTINUOUS
 10
157.8719428776
 20
120.8451383823
 11
157.9106284947
 21
120.8447479755
  0
LWPOLYLINE
  5
870
100
AcDbEntity
  8
ASSI
100
AcDbPolyline
 62
7
  6
CONTINUOUS
 90
6
 70
0
 10
157.9106284947
 20
120.8447479755
 10
157.9399660617
 20
120.8442917228
 10
157.9505810078
 20
120.844049908
 10
157.9581390348
 20
120.8438053038
 10
157.9628173233
 20
120.8435547422
 10
157.9646158731
 20
120.8432982231
  0
LINE
  5
871
100
AcDbEntity
  8
ASSI
100
AcDbLine
 62
250
  6
CONTINUOUS
 10
157.3914319313
 20
120.5591081095
 11
157.4700436002
 21
120.5460178078
  0
LINE
  5
872
100
AcDbEntity
  8
ASSI
100
AcDbLine
 62
250
  6
CONTINUOUS
 10
157.7715020147
 20
120.8456950693
 11
157.6917064336
 21
120.8589825144
  0
LINE
  5
873
100
AcDbEntity
  8
ASSI
100
AcDbLine
 62
7
  6
CONTINUOUS
 10
140.9341247399
 20
125.7702959239
 11
141.1144274674
 21
125.6901924515
  0
LWPOLYLINE
  5
874
100
AcDbEntity
  8
ASSI
100
AcDbPolyline
 62
250
  6
CONTINUOUS
 90
13
 70
0
 10
157.7497190102
 20
121.5090410398
 10
157.7831845322
 20
121.4650154089
 10
157.8140189795
 20
121.4194979791
 10
157.8422223521
 20
121.3724887503
 10
157.8678375891
 20
121.3239899527
 10
157.8908217513
 20
121.2739993561
 10
157.9110460215
 20
121.2225102707
 10
157.9285908172
 20
121.1695271548
 10
157.9433757207
 20
121.1150455499
 10
157.9550306623
 20
121.0590453907
 10
157.9634322855
 20
121.0015199885
 10
157.9687039468
 20
120.9424760318
 10
157.9708456462
 20
120.8819135208
  0
LWPOLYLINE
  5
875
100
AcDbEntity
  8
ASSI
100
AcDbPolyline
 62
7
  6
CONTINUOUS
 90
10
 70
0
 10
158.0202496411
 20
120.7999238461
 10
158.0215352044
 20
120.7976060595
 10
158.0232869583
 20
120.791850635
 10
158.0255049028
 20
120.7823789896
 10
158.0284032917
 20
120.769006895
 10
158.0317678712
 20
120.751411276
 10
158.0349558805
 20
120.7288973672
 10
158.0377530659
 20
120.7008139779
 10
158.0403736811
 20
120.6667936435
 10
158.0428177261
 20
120.6263594757
  0
LWPOLYLINE
  5
876
100
AcDbEntity
  8
SUPERFICI
100
AcDbPolyline
 62
250
  6
CONTINUOUS
 90
34
 70
0
 10
156.3267078253
 20
87.1279149772
 10
156.3509008207
 20
87.1530696323
 10
156.3727777534
 20
87.176566911
 10
156.3923386234
 20
87.1984068131
 10
156.4089624842
 20
87.2179237986
 10
156.4232702822
 20
87.2357834077
 10
156.4371248573
 20
87.2539822606
 10
156.4511548453
 20
87.2731969703
 10
156.4647316103
 20
87.2927509238
 10
156.4778320838
 20
87.3126109036
 10
156.4904554409
 20
87.3327774083
 10
156.5026025064
 20
87.3532499392
 10
156.5142526871
 20
87.3739937828
 10
156.5254051477
 20
87.3950094104
 10
156.5360607234
 20
87.4162963506
 10
156.5462013263
 20
87.437818475
 10
156.5558260821
 20
87.4595761851
 10
156.5649358651
 20
87.4815690793
 10
156.5735152103
 20
87.5037598245
 10
156.5815632165
 20
87.526148758
 10
156.5890807848
 20
87.5487355425
 10
156.5960551546
 20
87.5714818336
 10
156.6024854002
 20
87.5943878862
 10
156.6083724472
 20
87.6174534454
 10
156.6137063112
 20
87.6406394013
 10
156.618486057
 20
87.6639459841
 10
156.6227126199
 20
87.6873729637
 10
156.6263788212
 20
87.7108805397
 10
156.6294837081
 20
87.7344690397
 10
156.6320282334
 20
87.7581381361
 10
156.6340080777
 20
87.7818470457
 10
156.6354218011
 20
87.805582174
 10
156.6362708434
 20
87.8293571155
 10
156.6365552047
 20
87.8531718701
  0
LWPOLYLINE
  5
877
100
AcDbEntity
  8
SUPERFICI
100
AcDbPolyline
 62
250
  6
CONTINUOUS
 90
34
 70
0
 10
157.0507029091
 20
86.4391709277
 10
157.0839494162
 20
86.4732222811
 10
157.1163765373
 20
86.5080552927
 10
157.1479658956
 20
86.5436502552
 10
157.1786996561
 20
86.57998711
 10
157.2085603275
 20
86.6170452196
 10
157.2375307914
 20
86.6548033642
 10
157.2655945985
 20
86.6932401012
 10
157.2927359056
 20
86.7323337273
 10
157.3189392955
 20
86.7720620371
 10
157.3441899073
 20
86.8124024866
 10
157.3684734779
 20
86.853332275
 10
157.3917762959
 20
86.8948282912
 10
157.4140851785
 20
86.9368670635
 10
157.4353874797
 20
86.9794247645
 10
157.4556711329
 20
87.022477291
 10
157.4749246535
 20
87.066000268
 10
157.4931371381
 20
87.1099690486
 10
157.5102982684
 20
87.1543587224
 10
157.5263983262
 20
87.1991441515
 10
157.541428197
 20
87.2442999792
 10
157.5553793697
 20
87.2898006307
 10
157.5682439379
 20
87.3356203161
 10
157.5800146261
 20
87.3817331159
 10
157.5906847876
 20
87.4281129925
 10
157.6002483852
 20
87.4747337375
 10
157.6086999863
 20
87.5215689019
 10
157.6160347907
 20
87.5685918821
 10
157.6222486513
 20
87.6157761006
 10
157.6273380422
 20
87.6630947918
 10
157.6313000691
 20
87.7105209312
 10
157.6341325028
 20
87.7580275862
 10
157.635833762
 20
87.805587934
 10
157.6364029001
 20
87.8531750448
  0
LINE
  5
878
100
AcDbEntity
  8
CURVE
100
AcDbLine
 62
7
  6
CONTINUOUS
 10
159.6019766697
 20
91.1377703243
 11
159.6046759607
 21
91.1404696153
  0
LINE
  5
879
100
AcDbEntity
  8
CURVE
100
AcDbLine
 62
7
  6
CONTINUOUS
 10
159.5765491205
 20
91.1123427751
 11
159.5792484114
 21
91.115042066
  0
LINE
  5
87A
100
AcDbEntity
  8
CURVE
100
AcDbLine
 62
7
  6
CONTINUOUS
 10
159.6019766697
 20
90.9277596103
 11
159.6046759607
 21
90.9304589013
  0
LINE
  5
87B
100
AcDbEntity
  8
CURVE
100
AcDbLine
 62
7
  6
CONTINUOUS
 10
159.5765533445
 20
90.9023362851
 11
159.5792484114
 21
90.905031352
  0
LINE
  5
87C
100
AcDbEntity
  8
CURVE
100
AcDbLine
 62
7
  6
CONTINUOUS
 10
159.6018045364
 20
90.7175767629
 11
159.6045698475
 21
90.7203420741
  0
LINE
  5
87D
100
AcDbEntity
  8
CURVE
100
AcDbLine
 62
7
  6
CONTINUOUS
 10
159.5768423931
 20
90.6926146197
 11
159.5795499436
 21
90.6953221702
  0
LINE
  5
87E
100
AcDbEntity
  8
CURVE
100
AcDbLine
 62
7
  6
CONTINUOUS
 10
159.6006902426
 20
90.5064517551
 11
159.6038540896
 21
90.5096156021
  0
LINE
  5
87F
100
AcDbEntity
  8
CURVE
100
AcDbLine
 62
7
  6
CONTINUOUS
 10
159.5777567297
 20
90.4835182423
 11
159.5808472612
 21
90.4866087737
  0
LINE
  5
880
100
AcDbEntity
  8
CURVE
100
AcDbLine
 62
7
  6
CONTINUOUS
 10
159.5974236744
 20
90.2931744729
 11
159.6020713427
 21
90.2978221412
  0
LINE
  5
881
100
AcDbEntity
  8
CURVE
100
AcDbLine
 62
7
  6
CONTINUOUS
 10
159.5797030855
 20
90.2754538841
 11
159.5842442581
 21
90.2799950567
  0
LINE
  5
882
100
AcDbEntity
  8
CURVE
100
AcDbLine
 62
7
  6
CONTINUOUS
 10
159.5842943569
 20
90.0700344414
 11
159.5976301869
 21
90.0833702714
  0
LINE
  5
883
100
AcDbEntity
  8
ASSI
100
AcDbLine
 62
7
  6
CONTINUOUS
 10
155.8916103955
 20
85.258575216
 11
156.0402505421
 21
85.4072153626
  0
LINE
  5
884
100
AcDbEntity
  8
0
100
AcDbLine
 62
7
  6
CONTINUOUS
 10
157.2499980534
 20
86.3566240955
 11
157.1149974766
 21
86.2216235187
  0
LWPOLYLINE
  5
885
100
AcDbEntity
  8
CURVE
100
AcDbPolyline
 62
250
  6
CONTINUOUS
 90
15
 70
0
 10
159.5904712203
 20
90.0020418505
 10
159.5909952683
 20
90.0023585263
 10
159.5915131654
 20
90.0033186933
 10
159.5920248483
 20
90.0049375605
 10
159.5925302538
 20
90.0072303371
 10
159.593029361
 20
90.0102142042
 10
159.5935223194
 20
90.0139142302
 10
159.5940093207
 20
90.0183574556
 10
159.5944905568
 20
90.0235709205
 10
159.5948714477
 20
90.028314198
 10
159.5952484147
 20
90.0335801506
 10
159.5956211006
 20
90.0393811943
 10
159.5959891483
 20
90.045729745
 10
159.5963522009
 20
90.0526382187
 10
159.5970621533
 20
90.0681816458
  0
LINE
  5
886
100
AcDbEntity
  8
ASSI
100
AcDbLine
 62
7
  6
CONTINUOUS
 10
144.105596643
 20
81.8481643758
 11
144.1179655297
 21
81.8540621567
  0
LINE
  5
887
100
AcDbEntity
  8
ASSI
100
AcDbLine
 62
7
  6
CONTINUOUS
 10
144.0932498078
 20
81.842373923
 11
144.105596643
 21
81.8481643758
  0
LINE
  5
888
100
AcDbEntity
  8
ASSI
100
AcDbLine
 62
7
  6
CONTINUOUS
 10
144.0809245611
 20
81.836691215
 11
144.0932498078
 21
81.842373923
  0
LWPOLYLINE
  5
889
100
AcDbEntity
  8
ASSI
100
AcDbPolyline
 62
7
  6
CONTINUOUS
 90
3
 70
0
 10
144.0624736061
 20
81.8283721615
 10
144.0686189285
 20
81.8311178977
 10
144.0809245611
 20
81.836691215
  0
LINE
  5
88A
100
AcDbEntity
  8
ASSI
100
AcDbLine
 62
7
  6
CONTINUOUS
 10
145.0912265747
 20
85.189889139
 11
145.0
 21
85.1610927272
  0
LINE
  5
88B
100
AcDbEntity
  8
ASSI
100
AcDbLine
 62
250
  6
CONTINUOUS
 10
148.5
 20
124.5185989342
 11
142.6725420435
 21
124.4150729491
  0
LINE
  5
88C
100
AcDbEntity
  8
ASSI
100
AcDbLine
 62
250
  6
CONTINUOUS
 10
140.6030489802
 20
123.0604867646
 11
156.3969510198
 21
123.0604867646
  0
LINE
  5
88D
100
AcDbEntity
  8
ASSI
100
AcDbLine
 62
250
  6
CONTINUOUS
 10
140.1763467138
 20
124.0604486876
 11
156.8236532862
 21
124.0604486876
  0
LINE
  5
88E
100
AcDbEntity
  8
ASSI
100
AcDbLine
 62
7
  6
CONTINUOUS
 10
154.3256735332
 20
124.3128434048
 11
142.6743264668
 21
124.3128434048
  0
LINE
  5
88F
100
AcDbEntity
  8
ASSI
100
AcDbLine
 62
7
  6
CONTINUOUS
 10
139.5599034178
 20
124.4
 11
142.5
 21
124.4
  0
LINE
  5
890
100
AcDbEntity
  8
ASSI
100
AcDbLine
 62
7
  6
CONTINUOUS
 10
154.5
 20
124.4
 11
157.4400965822
 21
124.4
  0
LINE
  5
891
100
AcDbEntity
  8
ASSI
100
AcDbLine
 62
250
  6
CONTINUOUS
 10
154.3274579565
 20
124.4150729491
 11
148.5
 21
124.5185989342
  0
LINE
  5
892
100
AcDbEntity
  8
ASSI
100
AcDbLine
 62
7
  6
CONTINUOUS
 10
145.0
 20
124.8389072728
 11
145.0912265747
 21
124.810110861
  0
LINE
  5
893
100
AcDbEntity
  8
ASSI
100
AcDbLine
 62
7
  6
CONTINUOUS
 10
144.0624736061
 20
128.1716278385
 11
144.0747692485
 21
128.1661090841
  0
LINE
  5
894
100
AcDbEntity
  8
ASSI
100
AcDbLine
 62
7
  6
CONTINUOUS
 10
144.0747692485
 20
128.1661090841
 11
144.0870846933
 21
128.16048107
  0
LINE
  5
895
100
AcDbEntity
  8
ASSI
100
AcDbLine
 62
7
  6
CONTINUOUS
 10
144.0870846933
 20
128.16048107
 11
144.0994204035
 21
128.154744216
  0
LWPOLYLINE
  5
896
100
AcDbEntity
  8
ASSI
100
AcDbPolyline
 62
7
  6
CONTINUOUS
 90
3
 70
0
 10
144.0994204035
 20
128.154744216
 10
144.1117783535
 20
128.1489001663
 10
144.1179655297
 20
128.1459378433
  0
LINE
  5
897
100
AcDbEntity
  8
ASSI
100
AcDbLine
 62
7
  6
CONTINUOUS
 10
158.9706933414
 20
120.8504079514
 11
159.0716692421
 21
120.7999238461
  0
LWPOLYLINE
  5
898
100
AcDbEntity
  8
ASSI
100
AcDbPolyline
 62
7
  6
CONTINUOUS
 90
7
 70
0
 10
157.9646158731
 20
120.8432982231
 10
157.9740750459
 20
120.8361209368
 10
157.9834594674
 20
120.8289229399
 10
157.9927691377
 20
120.8217042324
 10
158.0020040568
 20
120.8144648143
 10
158.0111642246
 20
120.8072046855
 10
158.0202496411
 20
120.7999238461
  0
LINE
  5
899
100
AcDbEntity
  8
ASSI
100
AcDbLine
 62
7
  6
CONTINUOUS
 10
155.8916103955
 20
124.741424784
 11
156.0402505421
 21
124.5927846374
  0
LWPOLYLINE
  5
89A
100
AcDbEntity
  8
ASSI
100
AcDbPolyline
 62
250
  6
CONTINUOUS
 90
13
 70
0
 10
158.5284400697
 20
122.1361685591
 10
158.5950757167
 20
122.0485888669
 10
158.6568032625
 20
121.95746099
 10
158.7134332446
 20
121.8630592169
 10
158.7646541589
 20
121.7659467349
 10
158.8104760437
 20
121.6661527912
 10
158.8510757275
 20
121.5631005452
 10
158.8861794721
 20
121.4570564187
 10
158.915530026
 20
121.3482934112
 10
158.9390491689
 20
121.2361722518
 10
158.9563772547
 20
121.1206767652
 10
158.9670505078
 20
121.0024618452
 10
158.9706933414
 20
120.8819135208
  0
LINE
  5
89B
100
AcDbEntity
  8
ASSI
100
AcDbLine
 62
7
  6
CONTINUOUS
 10
152.4044201361
 20
83.8771865438
 11
152.2500004362
 21
83.8
  0
LINE
  5
89C
100
AcDbEntity
  8
ASSI
100
AcDbLine
 62
7
  6
CONTINUOUS
 10
151.1024027689
 20
126.1228134562
 11
151.6
 21
126.1720718961
  0
LWPOLYLINE
  5
89D
100
AcDbEntity
  8
ASSI
100
AcDbPolyline
 62
7
  6
CONTINUOUS
 90
43
 70
0
 10
142.2175883717
 20
125.0493307573
 10
142.2026403737
 20
125.048944697
 10
142.187855463
 20
125.0478357353
 10
142.1732336397
 20
125.0460060644
 10
142.1587294829
 20
125.0434451955
 10
142.1443884134
 20
125.0401725833
 10
142.1303466943
 20
125.0362372811
 10
142.1166141197
 20
125.0316422191
 10
142.1031808954
 20
125.0264023146
 10
142.0901539018
 20
125.0205858353
 10
142.0775462339
 20
125.0142059115
 10
142.0653447968
 20
125.007276035
 10
142.0536171855
 20
124.9998655902
 10
142.0423750973
 20
124.9919979469
 10
142.0316068349
 20
124.9836853907
 10
142.0213449028
 20
124.9749813325
 10
142.0115965005
 20
124.9659177916
 10
142.0023544284
 20
124.956509047
 10
141.9936295916
 20
124.9467841225
 10
141.9854244282
 20
124.9367824845
 10
141.9777365001
 20
124.9265256134
 10
141.9705693975
 20
124.9160212522
 10
141.9639229365
 20
124.9053155989
 10
141.9577973011
 20
124.8944452058
 10
141.9521966331
 20
124.8834139444
 10
141.9471230275
 20
124.8722724711
 10
141.9425743894
 20
124.8610843712
 10
141.9385485761
 20
124.8498865152
 10
141.9350580748
 20
124.838733002
 10
141.9320903983
 20
124.8277209437
 10
141.9296059424
 20
124.8169582606
 10
141.9276287002
 20
124.8065041532
 10
141.9261346786
 20
124.7964731125
 10
141.925012294
 20
124.7870370052
 10
141.9242796949
 20
124.7782606769
 10
141.9239187329
 20
124.7702285042
 10
141.9237633787
 20
124.7630909581
 10
141.9238055825
 20
124.7568985751
 10
141.9240533941
 20
124.7516837426
 10
141.9243649333
 20
124.7475135021
 10
141.9246929067
 20
124.744410251
 10
141.9250846078
 20
124.742376755
 10
141.9255400365
 20
124.741424784
  0
LINE
  5
89E
100
AcDbEntity
  8
ASSI
100
AcDbLine
 62
250
  6
CONTINUOUS
 10
148.5
 20
124.7382729072
 11
142.6635123138
 21
124.6345865071
  0
LINE
  5
89F
100
AcDbEntity
  8
ASSI
100
AcDbLine
 62
7
  6
CONTINUOUS
 10
145.8402100925
 20
124.8107745818
 11
148.5
 21
124.8572155391
  0
LINE
  5
8A0
100
AcDbEntity
  8
ASSI
100
AcDbLine
 62
7
  6
CONTINUOUS
 10
145.0
 20
124.8389072728
 11
142.5
 21
124.7952696104
  0
LINE
  5
8A1
100
AcDbEntity
  8
ASSI
100
AcDbLine
 62
250
  6
CONTINUOUS
 10
140.9597494579
 20
124.5927846374
 11
142.0741801866
 21
124.5927846374
  0
LINE
  5
8A2
100
AcDbEntity
  8
ASSI
100
AcDbLine
 62
250
  6
CONTINUOUS
 10
154.9258198134
 20
124.5927846374
 11
156.0402505421
 21
124.5927846374
  0
LINE
  5
8A3
100
AcDbEntity
  8
ASSI
100
AcDbLine
 62
250
  6
CONTINUOUS
 10
141.1083896045
 20
124.741424784
 11
141.9255400365
 21
124.741424784
  0
LINE
  5
8A4
100
AcDbEntity
  8
ASSI
100
AcDbLine
 62
250
  6
CONTINUOUS
 10
155.0744599635
 20
124.741424784
 11
155.8916103955
 21
124.741424784
  0
LINE
  5
8A5
100
AcDbEntity
  8
ASSI
100
AcDbLine
 62
7
  6
CONTINUOUS
 10
144.851981019
 20
124.9365074992
 11
152.148018981
 21
124.9365074992
  0
LINE
  5
8A6
100
AcDbEntity
  8
ASSI
100
AcDbLine
 62
7
  6
CONTINUOUS
 10
154.7824116283
 20
125.0493307573
 11
142.2175883717
 21
125.0493307573
  0
LINE
  5
8A7
100
AcDbEntity
  8
ASSI
100
AcDbLine
 62
250
  6
CONTINUOUS
 10
141.1169648205
 20
125.2413486316
 11
155.8830351795
 21
125.2413486316
  0
LINE
  5
8A8
100
AcDbEntity
  8
ASSI
100
AcDbLine
 62
7
  6
CONTINUOUS
 10
157.9946499221
 20
125.4335707644
 11
156.1780257768
 21
125.4335707644
  0
LINE
  5
8A9
100
AcDbEntity
  8
ASSI
100
AcDbLine
 62
7
  6
CONTINUOUS
 10
140.8219742232
 20
125.4335707644
 11
139.0053500779
 21
125.4335707644
  0
LINE
  5
8AA
100
AcDbEntity
  8
ASSI
100
AcDbLine
 62
7
  6
CONTINUOUS
 10
155.8830351795
 20
125.5448275862
 11
141.1169648205
 21
125.5448275862
  0
LINE
  5
8AB
100
AcDbEntity
  8
ASSI
100
AcDbLine
 62
7
  6
CONTINUOUS
 10
158.1325449351
 20
125.8475922207
 11
155.9416531799
 21
125.8475922207
  0
LINE
  5
8AC
100
AcDbEntity
  8
ASSI
100
AcDbLine
 62
7
  6
CONTINUOUS
 10
141.0583468201
 20
125.8475922207
 11
138.8674550649
 21
125.8475922207
  0
LINE
  5
8AD
100
AcDbEntity
  8
ASSI
100
AcDbLine
 62
7
  6
CONTINUOUS
 10
144.5955798639
 20
126.1228134562
 11
145.8975972311
 21
126.1228134562
  0
LINE
  5
8AE
100
AcDbEntity
  8
ASSI
100
AcDbLine
 62
7
  6
CONTINUOUS
 10
151.1024027689
 20
126.1228134562
 11
152.4044201361
 21
126.1228134562
  0
LINE
  5
8AF
100
AcDbEntity
  8
ASSI
100
AcDbLine
 62
7
  6
CONTINUOUS
 10
141.5660801716
 20
126.2
 11
145.4
 21
126.2
  0
LINE
  5
8B0
100
AcDbEntity
  8
ASSI
100
AcDbLine
 62
7
  6
CONTINUOUS
 10
151.6
 20
126.2
 11
155.4339198284
 21
126.2
  0
LINE
  5
8B1
100
AcDbEntity
  8
ASSI
100
AcDbLine
 62
7
  6
CONTINUOUS
 10
148.5
 20
124.8572155391
 11
151.1597899075
 21
124.8107745818
  0
LINE
  5
8B2
100
AcDbEntity
  8
ASSI
100
AcDbLine
 62
7
  6
CONTINUOUS
 10
154.5
 20
124.7952696104
 11
152.0
 21
124.8389072728
  0
LINE
  5
8B3
100
AcDbEntity
  8
ASSI
100
AcDbLine
 62
250
  6
CONTINUOUS
 10
154.3364876862
 20
124.6345865071
 11
148.5
 21
124.7382729072
  0
LINE
  5
8B4
100
AcDbEntity
  8
ASSI
100
AcDbLine
 62
7
  6
CONTINUOUS
 10
145.4
 20
126.1720718961
 11
145.8975972311
 21
126.1228134562
  0
LINE
  5
8B5
100
AcDbEntity
  8
ASSI
100
AcDbLine
 62
7
  6
CONTINUOUS
 10
152.4044201361
 20
126.1228134562
 11
152.2500004362
 21
126.2
  0
LINE
  5
8B6
100
AcDbEntity
  8
ASSI
100
AcDbLine
 62
7
  6
CONTINUOUS
 10
151.1768152463
 20
126.5448275862
 11
145.8231847537
 21
126.5448275862
  0
LINE
  5
8B7
100
AcDbEntity
  8
ASSI
100
AcDbLine
 62
7
  6
CONTINUOUS
 10
145.4
 20
127.2
 11
151.6
 21
127.2
  0
LINE
  5
8B8
100
AcDbEntity
  8
ASSI
100
AcDbLine
 62
7
  6
CONTINUOUS
 10
159.1329255348
 20
127.4
 11
154.05
 21
127.4
  0
LINE
  5
8B9
100
AcDbEntity
  8
ASSI
100
AcDbLine
 62
7
  6
CONTINUOUS
 10
142.95
 20
127.4
 11
137.8670744652
 21
127.4
  0
LINE
  5
8BA
100
AcDbEntity
  8
ASSI
100
AcDbLine
 62
7
  6
CONTINUOUS
 10
152.4526845545
 20
128.4301797403
 11
144.5473154455
 21
128.4301797403
  0
LINE
  5
8BB
100
AcDbEntity
  8
ASSI
100
AcDbLine
 62
7
  6
CONTINUOUS
 10
152.2094401656
 20
128.4553248057
 11
144.7905598344
 21
128.4553248057
  0
LINE
  5
8BC
100
AcDbEntity
  8
ASSI
100
AcDbLine
 62
7
  6
CONTINUOUS
 10
152.468176777
 20
128.4825449351
 11
152.2099152947
 21
128.4825449351
  0
LINE
  5
8BD
100
AcDbEntity
  8
ASSI
100
AcDbLine
 62
7
  6
CONTINUOUS
 10
144.7900847053
 20
128.4825449351
 11
144.531823223
 21
128.4825449351
  0
ARC
  5
8BE
100
AcDbEntity
  8
ASSI
100
AcDbCircle
 62
7
  6
CONTINUOUS
 10
143.55
 20
81.9
 40
0.5698202597
100
AcDbArc
 50
355.37590331
 51
114.5402378869
  0
ARC
  5
8BF
100
AcDbEntity
  8
ASSI
100
AcDbCircle
 62
7
  6
CONTINUOUS
 10
143.55
 20
81.9
 40
0.5174550649
100
AcDbArc
 50
352.0433802355
 51
117.8727609614
  0
ARC
  5
8C0
100
AcDbEntity
  8
ASSI
100
AcDbCircle
 62
7
  6
CONTINUOUS
 10
137.25
 20
105.0
 40
28.0
100
AcDbArc
 50
48.1210511006
 51
53.1301023542
  0
ARC
  5
8C1
100
AcDbEntity
  8
ASSI
100
AcDbCircle
 62
7
  6
CONTINUOUS
 10
137.25
 20
105.0
 40
28.0
100
AcDbArc
 50
306.8698976458
 51
311.8789488994
  0
ARC
  5
8C2
100
AcDbEntity
  8
ASSI
100
AcDbCircle
 62
7
  6
CONTINUOUS
 10
137.25
 20
105.0
 40
28.0
100
AcDbArc
 50
316.1432957985
 51
321.6853532211
  0
ARC
  5
8C3
100
AcDbEntity
  8
ASSI
100
AcDbCircle
 62
7
  6
CONTINUOUS
 10
137.25
 20
105.0
 40
28.0
100
AcDbArc
 50
38.3146467789
 51
43.8567042015
  0
ARC
  5
8C4
100
AcDbEntity
  8
ASSI
100
AcDbCircle
 62
7
  6
CONTINUOUS
 10
137.25
 20
105.0
 40
27.9825449351
100
AcDbArc
 50
55.9014328348
 51
57.0542062484
  0
ARC
  5
8C5
100
AcDbEntity
  8
ASSI
100
AcDbCircle
 62
7
  6
CONTINUOUS
 10
137.25
 20
105.0
 40
27.9825449351
100
AcDbArc
 50
53.3572029245
 51
54.0147083622
  0
ARC
  5
8C6
100
AcDbEntity
  8
ASSI
100
AcDbCircle
 62
7
  6
CONTINUOUS
 10
137.25
 20
105.0
 40
27.9825449351
100
AcDbArc
 50
305.9852916378
 51
306.6427970755
  0
ARC
  5
8C7
100
AcDbEntity
  8
ASSI
100
AcDbCircle
 62
7
  6
CONTINUOUS
 10
137.25
 20
105.0
 40
27.9825449351
100
AcDbArc
 50
302.9457937516
 51
304.0985671652
  0
ARC
  5
8C8
100
AcDbEntity
  8
ASSI
100
AcDbCircle
 62
7
  6
CONTINUOUS
 10
137.25
 20
105.0
 40
27.9301797403
100
AcDbArc
 50
302.9775446409
 51
304.0338474253
  0
ARC
  5
8C9
100
AcDbEntity
  8
ASSI
100
AcDbCircle
 62
7
  6
CONTINUOUS
 10
137.25
 20
105.0
 40
27.9301797403
100
AcDbArc
 50
306.0500113777
 51
310.6207502002
  0
ARC
  5
8CA
100
AcDbEntity
  8
ASSI
100
AcDbCircle
 62
7
  6
CONTINUOUS
 10
137.25
 20
105.0
 40
27.9301797403
100
AcDbArc
 50
55.9661525747
 51
57.0224553591
  0
ARC
  5
8CB
100
AcDbEntity
  8
ASSI
100
AcDbCircle
 62
7
  6
CONTINUOUS
 10
137.25
 20
105.0
 40
27.9301797403
100
AcDbArc
 50
49.3792497998
 51
53.9499886223
  0
ARC
  5
8CC
100
AcDbEntity
  8
ASSI
100
AcDbCircle
 62
7
  6
CONTINUOUS
 10
137.25
 20
105.0
 40
27.521731221
100
AcDbArc
 50
315.8763427868
 51
318.5989767607
  0
ARC
  5
8CD
100
AcDbEntity
  8
ASSI
100
AcDbCircle
 62
250
  6
CONTINUOUS
 10
137.25
 20
105.0
 40
27.3206933414
100
AcDbArc
 50
38.8455399423
 51
44.2389203381
  0
ARC
  5
8CE
100
AcDbEntity
  8
ASSI
100
AcDbCircle
 62
250
  6
CONTINUOUS
 10
137.25
 20
105.0
 40
26.3208456461
100
AcDbArc
 50
38.8455399423
 51
43.3274276137
  0
ARC
  5
8CF
100
AcDbEntity
  8
CURVE
100
AcDbCircle
 62
250
  6
CONTINUOUS
 10
141.45
 20
107.5
 40
0.75
100
AcDbArc
 50
0.0
 51
180.0
  0
ARC
  5
8D0
100
AcDbEntity
  8
CURVE
100
AcDbCircle
 62
250
  6
CONTINUOUS
 10
139.95
 20
107.5
 40
0.75
100
AcDbArc
 50
180.0
 51
360.0
  0
ARC
  5
8D1
100
AcDbEntity
  8
ASSI
100
AcDbCircle
 62
7
  6
CONTINUOUS
 10
143.55
 20
128.1
 40
0.5698202597
100
AcDbArc
 50
245.4597621131
 51
4.62409669
  0
ARC
  5
8D2
100
AcDbEntity
  8
ASSI
100
AcDbCircle
 62
7
  6
CONTINUOUS
 10
143.55
 20
128.1
 40
0.5174550649
100
AcDbArc
 50
242.1272390386
 51
7.9566197645
  0
ARC
  5
8D3
100
AcDbEntity
  8
ASSI
100
AcDbCircle
 62
7
  6
CONTINUOUS
 10
153.45
 20
81.9
 40
0.5698202597
100
AcDbArc
 50
65.4597621131
 51
184.62409669
  0
ARC
  5
8D4
100
AcDbEntity
  8
ASSI
100
AcDbCircle
 62
7
  6
CONTINUOUS
 10
153.45
 20
81.9
 40
0.5174550649
100
AcDbArc
 50
62.1272390386
 51
187.9566197645
  0
ARC
  5
8D5
100
AcDbEntity
  8
ASSI
100
AcDbCircle
 62
7
  6
CONTINUOUS
 10
159.75
 20
105.0
 40
28.0
100
AcDbArc
 50
228.1210511006
 51
233.1301023542
  0
ARC
  5
8D6
100
AcDbEntity
  8
ASSI
100
AcDbCircle
 62
7
  6
CONTINUOUS
 10
159.75
 20
105.0
 40
28.0
100
AcDbArc
 50
126.8698976458
 51
131.8789488994
  0
ARC
  5
8D7
100
AcDbEntity
  8
ASSI
100
AcDbCircle
 62
7
  6
CONTINUOUS
 10
159.75
 20
105.0
 40
28.0
100
AcDbArc
 50
136.1432957985
 51
141.6853532211
  0
ARC
  5
8D8
100
AcDbEntity
  8
ASSI
100
AcDbCircle
 62
7
  6
CONTINUOUS
 10
159.75
 20
105.0
 40
28.0
100
AcDbArc
 50
218.3146467789
 51
223.8567042015
  0
ARC
  5
8D9
100
AcDbEntity
  8
ASSI
100
AcDbCircle
 62
7
  6
CONTINUOUS
 10
159.75
 20
105.0
 40
27.9825449351
100
AcDbArc
 50
125.9852916378
 51
126.6427970755
  0
ARC
  5
8DA
100
AcDbEntity
  8
ASSI
100
AcDbCircle
 62
7
  6
CONTINUOUS
 10
159.75
 20
105.0
 40
27.9825449351
100
AcDbArc
 50
122.9457937516
 51
124.0985671652
  0
ARC
  5
8DB
100
AcDbEntity
  8
ASSI
100
AcDbCircle
 62
7
  6
CONTINUOUS
 10
159.75
 20
105.0
 40
27.9825449351
100
AcDbArc
 50
235.9014328348
 51
237.0542062484
  0
ARC
  5
8DC
100
AcDbEntity
  8
ASSI
100
AcDbCircle
 62
7
  6
CONTINUOUS
 10
159.75
 20
105.0
 40
27.9825449351
100
AcDbArc
 50
233.3572029245
 51
234.0147083622
  0
ARC
  5
8DD
100
AcDbEntity
  8
ASSI
100
AcDbCircle
 62
7
  6
CONTINUOUS
 10
159.75
 20
105.0
 40
27.9301797403
100
AcDbArc
 50
229.3792497998
 51
233.9499886223
  0
ARC
  5
8DE
100
AcDbEntity
  8
ASSI
100
AcDbCircle
 62
7
  6
CONTINUOUS
 10
159.75
 20
105.0
 40
27.9301797403
100
AcDbArc
 50
235.9661525747
 51
237.0224553591
  0
ARC
  5
8DF
100
AcDbEntity
  8
ASSI
100
AcDbCircle
 62
7
  6
CONTINUOUS
 10
159.75
 20
105.0
 40
27.9301797403
100
AcDbArc
 50
126.0500113777
 51
130.6207502002
  0
ARC
  5
8E0
100
AcDbEntity
  8
ASSI
100
AcDbCircle
 62
7
  6
CONTINUOUS
 10
159.75
 20
105.0
 40
27.9301797403
100
AcDbArc
 50
122.9775446409
 51
124.0338474253
  0
ARC
  5
8E1
100
AcDbEntity
  8
ASSI
100
AcDbCircle
 62
250
  6
CONTINUOUS
 10
159.75
 20
105.0
 40
27.3206933414
100
AcDbArc
 50
218.8455399423
 51
224.2390318014
  0
ARC
  5
8E2
100
AcDbEntity
  8
ASSI
100
AcDbCircle
 62
250
  6
CONTINUOUS
 10
159.75
 20
105.0
 40
27.3206933414
100
AcDbArc
 50
135.7610796619
 51
141.1544600577
  0
ARC
  5
8E3
100
AcDbEntity
  8
ASSI
100
AcDbCircle
 62
250
  6
CONTINUOUS
 10
159.75
 20
105.0
 40
26.3208456461
100
AcDbArc
 50
218.8455399423
 51
222.6345082831
  0
ARC
  5
8E4
100
AcDbEntity
  8
ASSI
100
AcDbCircle
 62
250
  6
CONTINUOUS
 10
159.75
 20
105.0
 40
26.3208456461
100
AcDbArc
 50
136.6725723864
 51
141.1544600577
  0
ARC
  5
8E5
100
AcDbEntity
  8
ASSI
100
AcDbCircle
 62
7
  6
CONTINUOUS
 10
153.45
 20
128.1
 40
0.5698202597
100
AcDbArc
 50
175.37590331
 51
294.540237887
  0
ARC
  5
8E6
100
AcDbEntity
  8
ASSI
100
AcDbCircle
 62
7
  6
CONTINUOUS
 10
153.45
 20
128.1
 40
0.5174550649
100
AcDbArc
 50
172.0433802355
 51
297.8727609614
  0
ELLIPSE
  5
8E7
100
AcDbEntity
  8
0
100
AcDbEllipse
 62
7
  6
CONTINUOUS
 10
156.4078722081
 20
86.928927237
 30
0.0
 11
-0.3827517265
 21
0.924044409
 31
0.0
 40
0.9998215708
 41
-3.5342286494
 42
-2.7489566578
  0
ELLIPSE
  5
8E8
100
AcDbEntity
  8
0
100
AcDbEllipse
 62
7
  6
CONTINUOUS
 10
155.8353906168
 20
87.7708746325
 30
0.0
 11
-1.8480888181
 21
0.7655034529
 31
0.0
 40
0.9998215708
 41
2.7489566578
 42
3.5342286494
  0
ELLIPSE
  5
8E9
100
AcDbEntity
  8
ASSI
100
AcDbEllipse
 62
7
  6
CONTINUOUS
 10
159.75
 20
91.7157778401
 30
0.0
 11
-0.0
 21
39.8850755219
 31
0.0
 40
0.942904759
 41
0.4601406933
 42
0.4630908144
  0
ELLIPSE
  5
8EA
100
AcDbEntity
  8
ASSI
100
AcDbEllipse
 62
7
  6
CONTINUOUS
 10
137.25
 20
91.7157778401
 30
0.0
 11
0.0
 21
39.8850755219
 31
0.0
 40
0.942904759
 41
-0.4630908144
 42
-0.4601406933
  0
ELLIPSE
  5
8EB
100
AcDbEntity
  8
ASSI
100
AcDbEllipse
 62
7
  6
CONTINUOUS
 10
137.25
 20
118.2842221599
 30
0.0
 11
-0.0
 21
39.8850755219
 31
0.0
 40
0.942904759
 41
-2.6814519603
 42
-2.6785018392
  0
ELLIPSE
  5
8EC
100
AcDbEntity
  8
ASSI
100
AcDbEllipse
 62
7
  6
CONTINUOUS
 10
159.75
 20
118.2842221599
 30
0.0
 11
-0.0
 21
39.8850755219
 31
0.0
 40
0.942904759
 41
-3.604683468
 42
-3.6017333469
  0
ELLIPSE
  5
8ED
100
AcDbEntity
  8
ASSI
100
AcDbEllipse
 62
7
  6
CONTINUOUS
 10
137.867531229
 20
126.899313827
 30
0.0
 11
-0.1582391023
 21
0.4751033573
 31
0.0
 40
0.9984778551
 41
-0.3210503505
 42
1.2488325878
  0
ELLIPSE
  5
8EE
100
AcDbEntity
  8
ASSI
100
AcDbEllipse
 62
7
  6
CONTINUOUS
 10
137.867531229
 20
83.100686173
 30
0.0
 11
0.1582391023
 21
0.4751033573
 31
0.0
 40
0.9984778551
 41
-4.3904252414
 42
-2.8205423031
  0
ELLIPSE
  5
8EF
100
AcDbEntity
  8
ASSI
100
AcDbEllipse
 62
7
  6
CONTINUOUS
 10
159.132468771
 20
83.100686173
 30
0.0
 11
0.1582391023
 21
-0.4751033573
 31
0.0
 40
0.9984778551
 41
-0.3210503505
 42
1.2488325878
  0
ELLIPSE
  5
8F0
100
AcDbEntity
  8
ASSI
100
AcDbEllipse
 62
7
  6
CONTINUOUS
 10
159.132468771
 20
126.899313827
 30
0.0
 11
0.1582391023
 21
0.4751033573
 31
0.0
 40
0.9984778551
 41
-1.2488325878
 42
0.3210503505
  0
ELLIPSE
  5
8F1
100
AcDbEntity
  8
ASSI
100
AcDbEllipse
 62
7
  6
CONTINUOUS
 10
156.0399459092
 20
86.4070630578
 30
0.0
 11
-0.0
 21
1.0
 31
0.0
 40
0.0174550649
 41
-3.1241393611
 42
-2.5102050304
  0
ELLIPSE
  5
8F2
100
AcDbEntity
  8
ASSI
100
AcDbEllipse
 62
7
  6
CONTINUOUS
 10
140.9600540908
 20
86.4070630578
 30
0.0
 11
0.0
 21
1.0
 31
0.0
 40
0.0174550649
 41
-3.7729802768
 42
-3.1590459461
  0
ELLIPSE
  5
8F3
100
AcDbEntity
  8
ASSI
100
AcDbEllipse
 62
7
  6
CONTINUOUS
 10
156.0399459092
 20
123.5929369422
 30
0.0
 11
-0.0
 21
1.0
 31
0.0
 40
0.0174550649
 41
-0.6313876232
 42
-0.0174532925
  0
ELLIPSE
  5
8F4
100
AcDbEntity
  8
ASSI
100
AcDbEllipse
 62
7
  6
CONTINUOUS
 10
140.9600540908
 20
123.5929369422
 30
0.0
 11
0.0
 21
1.0
 31
0.0
 40
0.0174550649
 41
0.0174532925
 42
0.6313876232
  0
ELLIPSE
  5
8F5
100
AcDbEntity
  8
ASSI
100
AcDbEllipse
 62
7
  6
CONTINUOUS
 10
159.75
 20
91.9094742528
 30
0.0
 11
0.0
 21
39.3035137298
 31
0.0
 40
0.942904759
 41
0.5286512174
 42
0.5325375281
  0
ELLIPSE
  5
8F6
100
AcDbEntity
  8
ASSI
100
AcDbEllipse
 62
7
  6
CONTINUOUS
 10
137.25
 20
91.9094742528
 30
0.0
 11
0.0
 21
39.3035137298
 31
0.0
 40
0.942904759
 41
-0.5325375281
 42
-0.5286512174
  0
ELLIPSE
  5
8F7
100
AcDbEntity
  8
ASSI
100
AcDbEllipse
 62
7
  6
CONTINUOUS
 10
142.5120011162
 20
124.4549637043
 30
0.0
 11
0.2121966568
 21
-0.2121966568
 31
0.0
 40
0.9996954599
 41
8.6792465356
 42
10.2100238309
  0
ELLIPSE
  5
8F8
100
AcDbEntity
  8
ASSI
100
AcDbEllipse
 62
7
  6
CONTINUOUS
 10
154.4879988838
 20
124.4549637043
 30
0.0
 11
0.2121966568
 21
0.2121966568
 31
0.0
 40
0.9996954599
 41
-0.7852458701
 42
0.7491369571
  0
ELLIPSE
  5
8F9
100
AcDbEntity
  8
ASSI
100
AcDbEllipse
 62
7
  6
CONTINUOUS
 10
154.4879988838
 20
85.5450362957
 30
0.0
 11
-0.2121966568
 21
0.2121966568
 31
0.0
 40
0.9996954599
 41
8.6792465356
 42
10.2100238309
  0
ELLIPSE
  5
8FA
100
AcDbEntity
  8
ASSI
100
AcDbEllipse
 62
7
  6
CONTINUOUS
 10
137.25
 20
104.5201136677
 30
0.0
 11
0.0
 21
27.4926695633
 31
0.0
 40
0.9998476487
 41
-2.424408657
 42
-2.3966343579
  0
ELLIPSE
  5
8FB
100
AcDbEntity
  8
ASSI
100
AcDbEllipse
 62
7
  6
CONTINUOUS
 10
159.75
 20
104.5201136677
 30
0.0
 11
0.0
 21
27.4926695633
 31
0.0
 40
0.9998476487
 41
-3.8865509493
 42
-3.8587766502
  0
ELLIPSE
  5
8FC
100
AcDbEntity
  8
ASSI
100
AcDbEllipse
 62
7
  6
CONTINUOUS
 10
142.5120011162
 20
85.5450362957
 30
0.0
 11
-0.2121966568
 21
-0.2121966568
 31
0.0
 40
0.9996954599
 41
-0.7852458701
 42
0.7491369571
  0
ELLIPSE
  5
8FD
100
AcDbEntity
  8
ASSI
100
AcDbEllipse
 62
7
  6
CONTINUOUS
 10
159.75
 20
105.4798863323
 30
0.0
 11
-0.0
 21
27.4926695633
 31
0.0
 40
0.9998476487
 41
0.7171839966
 42
0.7449582957
  0
ELLIPSE
  5
8FE
100
AcDbEntity
  8
ASSI
100
AcDbEllipse
 62
7
  6
CONTINUOUS
 10
137.25
 20
105.4798863323
 30
0.0
 11
-0.0
 21
27.4926695633
 31
0.0
 40
0.9998476487
 41
-0.7449582957
 42
-0.7171839966
  0
ELLIPSE
  5
8FF
100
AcDbEntity
  8
ASSI
100
AcDbEllipse
 62
7
  6
CONTINUOUS
 10
141.108237288
 20
84.7586513684
 30
0.0
 11
-0.0
 21
0.5
 31
0.0
 40
0.0174550649
 41
-1.5707963268
 42
-0.0174532925
  0
ELLIPSE
  5
900
100
AcDbEntity
  8
ASSI
100
AcDbEllipse
 62
7
  6
CONTINUOUS
 10
155.891762712
 20
84.7586513684
 30
0.0
 11
-0.0
 21
0.5
 31
0.0
 40
0.0174550649
 41
0.0174532925
 42
1.5707963268
  0
ELLIPSE
  5
901
100
AcDbEntity
  8
ASSI
100
AcDbEllipse
 62
7
  6
CONTINUOUS
 10
155.891762712
 20
125.2413486316
 30
0.0
 11
-0.0
 21
0.5
 31
0.0
 40
0.0174550649
 41
-4.7123889804
 42
-3.1590459461
  0
ELLIPSE
  5
902
100
AcDbEntity
  8
ASSI
100
AcDbEllipse
 62
7
  6
CONTINUOUS
 10
141.108237288
 20
125.2413486316
 30
0.0
 11
-0.0
 21
0.5
 31
0.0
 40
0.0174550649
 41
-3.1241393611
 42
-1.5707963268
  0
ELLIPSE
  5
903
100
AcDbEntity
  8
ASSI
100
AcDbEllipse
 62
7
  6
CONTINUOUS
 10
159.75
 20
118.0905257472
 30
0.0
 11
0.0
 21
39.3035137298
 31
0.0
 40
0.942904759
 41
-3.6741301817
 42
-3.670243871
  0
ELLIPSE
  5
904
100
AcDbEntity
  8
ASSI
100
AcDbEllipse
 62
7
  6
CONTINUOUS
 10
137.25
 20
118.0905257472
 30
0.0
 11
0.0
 21
39.3035137298
 31
0.0
 40
0.942904759
 41
-2.6129414362
 42
-2.6090551255
  0
ELLIPSE
  5
905
100
AcDbEntity
  8
ASSI
100
AcDbEllipse
 62
7
  6
CONTINUOUS
 10
151.6464211145
 20
85.150670777
 30
0.0
 11
0.5000761408
 21
-0.0
 31
0.0
 40
0.0174497492
 41
0.0003045865
 42
0.7851867025
  0
ELLIPSE
  5
906
100
AcDbEntity
  8
ASSI
100
AcDbEllipse
 62
7
  6
CONTINUOUS
 10
145.3535788855
 20
85.150670777
 30
0.0
 11
0.5000761408
 21
0.0
 31
0.0
 40
0.0174497492
 41
2.356405951
 42
3.1412880671
  0
ELLIPSE
  5
907
100
AcDbEntity
  8
ASSI
100
AcDbEllipse
 62
7
  6
CONTINUOUS
 10
145.3535788855
 20
124.849329223
 30
0.0
 11
0.5000761408
 21
0.0
 31
0.0
 40
0.0174497492
 41
-3.1412880671
 42
-2.356405951
  0
ELLIPSE
  5
908
100
AcDbEntity
  8
ASSI
100
AcDbEllipse
 62
7
  6
CONTINUOUS
 10
151.6464211145
 20
124.849329223
 30
0.0
 11
0.5000761408
 21
-0.0
 31
0.0
 40
0.0174497492
 41
-0.7851867025
 42
-0.0003045865
  0
ELLIPSE
  5
909
100
AcDbEntity
  8
ASSI
100
AcDbEllipse
 62
7
  6
CONTINUOUS
 10
158.0357043327
 20
118.8
 30
0.0
 11
0.0
 21
2.0
 31
0.0
 40
0.0087268678
 41
3.1503192998
 42
5.8634080364
  0
ELLIPSE
  5
90A
100
AcDbEntity
  8
ASSI
100
AcDbEllipse
 62
7
  6
CONTINUOUS
 10
158.0357043327
 20
113.8
 30
0.0
 11
-0.0
 21
2.0
 31
0.0
 40
0.0087268678
 41
3.1503192998
 42
6.2744586609
  0
ELLIPSE
  5
90B
100
AcDbEntity
  8
ASSI
100
AcDbEllipse
 62
7
  6
CONTINUOUS
 10
158.0357043327
 20
108.8
 30
0.0
 11
0.0
 21
2.0
 31
0.0
 40
0.0087268678
 41
3.1503192998
 42
6.2744586609
  0
ELLIPSE
  5
90C
100
AcDbEntity
  8
ASSI
100
AcDbEllipse
 62
7
  6
CONTINUOUS
 10
157.770455304
 20
107.0541192108
 30
0.0
 11
0.2963426463
 21
0.0493465499
 31
0.0
 40
0.9985916141
 41
2.9768162897
 42
4.1091986797
  0
ELLIPSE
  5
90D
100
AcDbEntity
  8
ASSI
100
AcDbEllipse
 62
7
  6
CONTINUOUS
 10
157.770455304
 20
110.5458807892
 30
0.0
 11
-0.2963426463
 21
0.0493465499
 31
0.0
 40
0.9985916141
 41
-0.9676060261
 42
0.1647763639
  0
ELLIPSE
  5
90E
100
AcDbEntity
  8
ASSI
100
AcDbEllipse
 62
7
  6
CONTINUOUS
 10
157.770455304
 20
112.0541192108
 30
0.0
 11
0.2963426463
 21
0.0493465499
 31
0.0
 40
0.9985916141
 41
2.9768162897
 42
4.1091986797
  0
ELLIPSE
  5
90F
100
AcDbEntity
  8
ASSI
100
AcDbEllipse
 62
7
  6
CONTINUOUS
 10
157.770455304
 20
115.5458807892
 30
0.0
 11
-0.2963426463
 21
0.0493465499
 31
0.0
 40
0.9985916141
 41
-0.9676060261
 42
0.1647763639
  0
ELLIPSE
  5
910
100
AcDbEntity
  8
ASSI
100
AcDbEllipse
 62
7
  6
CONTINUOUS
 10
157.770455304
 20
117.0541192108
 30
0.0
 11
0.2963426463
 21
0.0493465499
 31
0.0
 40
0.9985916141
 41
2.9768162897
 42
4.1091986797
  0
ELLIPSE
  5
911
100
AcDbEntity
  8
ASSI
100
AcDbEllipse
 62
7
  6
CONTINUOUS
 10
157.6429293531
 20
115.8428378089
 30
0.0
 11
0.35
 21
0.0
 31
0.0
 40
0.0087268678
 41
0.0087266463
 42
1.1943284267
  0
ELLIPSE
  5
912
100
AcDbEntity
  8
ASSI
100
AcDbEllipse
 62
7
  6
CONTINUOUS
 10
157.6429293531
 20
116.7571621911
 30
0.0
 11
0.35
 21
0.0
 31
0.0
 40
0.0087268678
 41
-1.1943284267
 42
-0.0087266463
  0
ELLIPSE
  5
913
100
AcDbEntity
  8
ASSI
100
AcDbEllipse
 62
7
  6
CONTINUOUS
 10
157.6429293531
 20
106.7571621911
 30
0.0
 11
0.35
 21
-0.0
 31
0.0
 40
0.0087268678
 41
-1.1943284267
 42
-0.0087266463
  0
ELLIPSE
  5
914
100
AcDbEntity
  8
ASSI
100
AcDbEllipse
 62
7
  6
CONTINUOUS
 10
157.6429293531
 20
110.8428378089
 30
0.0
 11
0.35
 21
0.0
 31
0.0
 40
0.0087268678
 41
0.0087266463
 42
1.1943284267
  0
ELLIPSE
  5
915
100
AcDbEntity
  8
ASSI
100
AcDbEllipse
 62
7
  6
CONTINUOUS
 10
157.6429293531
 20
111.7571621911
 30
0.0
 11
0.35
 21
0.0
 31
0.0
 40
0.0087268678
 41
-1.1943284267
 42
-0.0087266463
  0
ELLIPSE
  5
916
100
AcDbEntity
  8
ASSI
100
AcDbEllipse
 62
7
  6
CONTINUOUS
 10
143.6500609312
 20
107.5500609312
 30
0.0
 11
0.2829288757
 21
0.2829288757
 31
0.0
 40
0.9996954599
 41
2.3563467834
 42
3.9268385237
  0
ELLIPSE
  5
917
100
AcDbEntity
  8
ASSI
100
AcDbEllipse
 62
7
  6
CONTINUOUS
 10
143.6500609312
 20
112.5500609312
 30
0.0
 11
0.2829288757
 21
0.2829288757
 31
0.0
 40
0.9996954599
 41
2.3563467834
 42
3.9268385237
  0
ELLIPSE
  5
918
100
AcDbEntity
  8
ASSI
100
AcDbEllipse
 62
7
  6
CONTINUOUS
 10
143.6500609312
 20
117.5500609312
 30
0.0
 11
0.2829288757
 21
0.2829288757
 31
0.0
 40
0.9996954599
 41
2.3563467834
 42
3.9268385237
  0
ELLIPSE
  5
919
100
AcDbEntity
  8
ASSI
100
AcDbEllipse
 62
7
  6
CONTINUOUS
 10
143.6500609312
 20
120.0499390688
 30
0.0
 11
0.2829288757
 21
-0.2829288757
 31
0.0
 40
0.9996954599
 41
2.3563467834
 42
3.9268385237
  0
ELLIPSE
  5
91A
100
AcDbEntity
  8
ASSI
100
AcDbEllipse
 62
7
  6
CONTINUOUS
 10
143.6500609312
 20
115.0499390688
 30
0.0
 11
0.2829288757
 21
-0.2829288757
 31
0.0
 40
0.9996954599
 41
2.3563467834
 42
3.9268385237
  0
ELLIPSE
  5
91B
100
AcDbEntity
  8
ASSI
100
AcDbEllipse
 62
7
  6
CONTINUOUS
 10
143.6500609312
 20
110.0499390688
 30
0.0
 11
0.2829288757
 21
-0.2829288757
 31
0.0
 40
0.9996954599
 41
2.3563467834
 42
3.9268385237
  0
ELLIPSE
  5
91C
100
AcDbEntity
  8
ASSI
100
AcDbEllipse
 62
7
  6
CONTINUOUS
 10
149.8499390688
 20
115.0499390688
 30
0.0
 11
-0.2829288757
 21
-0.2829288757
 31
0.0
 40
0.9996954599
 41
2.3563467834
 42
3.9268385237
  0
ELLIPSE
  5
91D
100
AcDbEntity
  8
ASSI
100
AcDbEllipse
 62
7
  6
CONTINUOUS
 10
149.8499390688
 20
110.0499390688
 30
0.0
 11
-0.2829288757
 21
-0.2829288757
 31
0.0
 40
0.9996954599
 41
2.3563467834
 42
3.9268385237
  0
ELLIPSE
  5
91E
100
AcDbEntity
  8
ASSI
100
AcDbEllipse
 62
7
  6
CONTINUOUS
 10
149.8499390688
 20
107.5500609312
 30
0.0
 11
-0.2829288757
 21
0.2829288757
 31
0.0
 40
0.9996954599
 41
2.3563467834
 42
3.9268385237
  0
ELLIPSE
  5
91F
100
AcDbEntity
  8
ASSI
100
AcDbEllipse
 62
7
  6
CONTINUOUS
 10
149.8499390688
 20
112.5500609312
 30
0.0
 11
-0.2829288757
 21
0.2829288757
 31
0.0
 40
0.9996954599
 41
2.3563467834
 42
3.9268385237
  0
ELLIPSE
  5
920
100
AcDbEntity
  8
ASSI
100
AcDbEllipse
 62
7
  6
CONTINUOUS
 10
149.8499390688
 20
117.5500609312
 30
0.0
 11
-0.2829288757
 21
0.2829288757
 31
0.0
 40
0.9996954599
 41
2.3563467834
 42
3.9268385237
  0
ELLIPSE
  5
921
100
AcDbEntity
  8
ASSI
100
AcDbEllipse
 62
7
  6
CONTINUOUS
 10
149.8499390688
 20
120.0499390688
 30
0.0
 11
-0.2829288757
 21
-0.2829288757
 31
0.0
 40
0.9996954599
 41
2.3563467834
 42
3.9268385237
  0
ELLIPSE
  5
922
100
AcDbEntity
  8
ASSI
100
AcDbEllipse
 62
7
  6
CONTINUOUS
 10
157.6918436351
 20
107.0410289092
 30
0.0
 11
0.2963426463
 21
0.0493465499
 31
0.0
 40
0.9985916141
 41
2.9768162897
 42
4.5471559049
  0
ELLIPSE
  5
923
100
AcDbEntity
  8
ASSI
100
AcDbEllipse
 62
7
  6
CONTINUOUS
 10
157.6918436351
 20
110.5589710908
 30
0.0
 11
0.2963426463
 21
-0.0493465499
 31
0.0
 40
0.9985916141
 41
1.7360294022
 42
3.3063690174
  0
ELLIPSE
  5
924
100
AcDbEntity
  8
ASSI
100
AcDbEllipse
 62
7
  6
CONTINUOUS
 10
157.6918436351
 20
112.0410289092
 30
0.0
 11
0.2963426463
 21
0.0493465499
 31
0.0
 40
0.9985916141
 41
2.9768162897
 42
4.5471559049
  0
ELLIPSE
  5
925
100
AcDbEntity
  8
ASSI
100
AcDbEllipse
 62
7
  6
CONTINUOUS
 10
158.6643499043
 20
105.9658505534
 30
0.0
 11
2.169434222
 21
2.2269820812
 31
0.0
 40
0.5789639069
 41
-2.6280623391
 42
-2.3854132583
  0
ELLIPSE
  5
926
100
AcDbEntity
  8
ASSI
100
AcDbEllipse
 62
7
  6
CONTINUOUS
 10
157.6918436351
 20
115.5589710908
 30
0.0
 11
0.2963426463
 21
-0.0493465499
 31
0.0
 40
0.9985916141
 41
1.7360294022
 42
3.3063690174
  0
ELLIPSE
  5
927
100
AcDbEntity
  8
ASSI
100
AcDbEllipse
 62
7
  6
CONTINUOUS
 10
157.6918436351
 20
117.0410289092
 30
0.0
 11
0.2963426463
 21
0.0493465499
 31
0.0
 40
0.9985916141
 41
2.9768162897
 42
4.5471559049
  0
ELLIPSE
  5
928
100
AcDbEntity
  8
ASSI
100
AcDbEllipse
 62
7
  6
CONTINUOUS
 10
157.6918436351
 20
120.5589710908
 30
0.0
 11
0.2963426463
 21
-0.0493465499
 31
0.0
 40
0.9985916141
 41
1.7360294022
 42
3.3063690174
  0
ELLIPSE
  5
929
100
AcDbEntity
  8
ASSI
100
AcDbEllipse
 62
7
  6
CONTINUOUS
 10
155.1692600496
 20
102.3780476139
 30
0.0
 11
2.5236577153
 21
0.0111068698
 31
0.0
 40
0.0076677168
 41
0.0151681583
 42
1.0497305266
  0
ELLIPSE
  5
92A
100
AcDbEntity
  8
ASSI
100
AcDbEllipse
 62
7
  6
CONTINUOUS
 10
150.2940981651
 20
115.4940981651
 30
0.0
 11
0.421572804
 21
0.421572804
 31
0.0
 40
0.7745966692
 41
-0.6590580358
 42
0.6590580358
  0
ELLIPSE
  5
92B
100
AcDbEntity
  8
ASSI
100
AcDbEllipse
 62
7
  6
CONTINUOUS
 10
150.2940981651
 20
110.4940981651
 30
0.0
 11
0.421572804
 21
0.421572804
 31
0.0
 40
0.7745966692
 41
-0.6590580358
 42
0.6590580358
  0
ELLIPSE
  5
92C
100
AcDbEntity
  8
ASSI
100
AcDbEllipse
 62
7
  6
CONTINUOUS
 10
150.2940981651
 20
107.1059018349
 30
0.0
 11
0.421572804
 21
-0.421572804
 31
0.0
 40
0.7745966692
 41
-0.6590580358
 42
0.6590580358
  0
ELLIPSE
  5
92D
100
AcDbEntity
  8
ASSI
100
AcDbEllipse
 62
7
  6
CONTINUOUS
 10
150.2940981651
 20
112.1059018349
 30
0.0
 11
0.421572804
 21
-0.421572804
 31
0.0
 40
0.7745966692
 41
-0.6590580358
 42
0.6590580358
  0
ELLIPSE
  5
92E
100
AcDbEntity
  8
ASSI
100
AcDbEllipse
 62
7
  6
CONTINUOUS
 10
150.2940981651
 20
117.1059018349
 30
0.0
 11
0.421572804
 21
-0.421572804
 31
0.0
 40
0.7745966692
 41
-0.6590580358
 42
0.6590580358
  0
ELLIPSE
  5
92F
100
AcDbEntity
  8
ASSI
100
AcDbEllipse
 62
7
  6
CONTINUOUS
 10
150.2940981651
 20
120.4940981651
 30
0.0
 11
0.421572804
 21
0.421572804
 31
0.0
 40
0.7745966692
 41
-0.6590580358
 42
0.6590580358
  0
ELLIPSE
  5
930
100
AcDbEntity
  8
ASSI
100
AcDbEllipse
 62
7
  6
CONTINUOUS
 10
143.2059018349
 20
120.4940981651
 30
0.0
 11
0.421572804
 21
-0.421572804
 31
0.0
 40
0.7745966692
 41
2.4825346178
 42
3.8006506894
  0
ELLIPSE
  5
931
100
AcDbEntity
  8
ASSI
100
AcDbEllipse
 62
7
  6
CONTINUOUS
 10
143.2059018349
 20
117.1059018349
 30
0.0
 11
0.421572804
 21
0.421572804
 31
0.0
 40
0.7745966692
 41
-3.8006506894
 42
-2.4825346178
  0
ELLIPSE
  5
932
100
AcDbEntity
  8
ASSI
100
AcDbEllipse
 62
7
  6
CONTINUOUS
 10
143.2059018349
 20
115.4940981651
 30
0.0
 11
0.421572804
 21
-0.421572804
 31
0.0
 40
0.7745966692
 41
2.4825346178
 42
3.8006506894
  0
ELLIPSE
  5
933
100
AcDbEntity
  8
ASSI
100
AcDbEllipse
 62
7
  6
CONTINUOUS
 10
143.2059018349
 20
110.4940981651
 30
0.0
 11
0.421572804
 21
-0.421572804
 31
0.0
 40
0.7745966692
 41
2.4825346178
 42
3.8006506894
  0
ELLIPSE
  5
934
100
AcDbEntity
  8
ASSI
100
AcDbEllipse
 62
7
  6
CONTINUOUS
 10
143.2059018349
 20
112.1059018349
 30
0.0
 11
0.421572804
 21
0.421572804
 31
0.0
 40
0.7745966692
 41
-3.8006506894
 42
-2.4825346178
  0
ELLIPSE
  5
935
100
AcDbEntity
  8
ASSI
100
AcDbEllipse
 62
7
  6
CONTINUOUS
 10
143.2059018349
 20
107.1059018349
 30
0.0
 11
0.421572804
 21
0.421572804
 31
0.0
 40
0.7745966692
 41
-3.8006506894
 42
-2.4825346178
  0
ELLIPSE
  5
936
100
AcDbEntity
  8
ASSI
100
AcDbEllipse
 62
7
  6
CONTINUOUS
 10
157.9708456462
 20
120.8502556466
 30
0.0
 11
1.0
 21
0.0
 31
0.0
 40
0.0087268678
 41
0.0174532925
 42
1.5707963268
  0
ELLIPSE
  5
937
100
AcDbEntity
  8
ASSI
100
AcDbEllipse
 62
7
  6
CONTINUOUS
 10
157.9708456462
 20
115.8502556466
 30
0.0
 11
1.0
 21
0.0
 31
0.0
 40
0.0087268678
 41
0.0174532925
 42
1.5707963268
  0
ELLIPSE
  5
938
100
AcDbEntity
  8
ASSI
100
AcDbEllipse
 62
7
  6
CONTINUOUS
 10
157.9708456462
 20
111.7497443534
 30
0.0
 11
1.0
 21
0.0
 31
0.0
 40
0.0087268678
 41
-1.5707963268
 42
-0.0174532925
  0
ELLIPSE
  5
939
100
AcDbEntity
  8
ASSI
100
AcDbEllipse
 62
7
  6
CONTINUOUS
 10
157.9708456462
 20
110.8502556466
 30
0.0
 11
1.0
 21
0.0
 31
0.0
 40
0.0087268678
 41
0.0174532925
 42
1.5707963268
  0
ELLIPSE
  5
93A
100
AcDbEntity
  8
ASSI
100
AcDbEllipse
 62
7
  6
CONTINUOUS
 10
157.9708456462
 20
106.7497443534
 30
0.0
 11
1.0
 21
0.0
 31
0.0
 40
0.0087268678
 41
-1.5707963268
 42
-0.0174532925
  0
ELLIPSE
  5
93B
100
AcDbEntity
  8
ASSI
100
AcDbEllipse
 62
7
  6
CONTINUOUS
 10
137.7161446038
 20
105.0
 30
0.0
 11
27.1756190507
 21
-0.0
 31
0.0
 40
0.9998528757
 41
-0.7340020818
 42
-0.6857907762
  0
ELLIPSE
  5
93C
100
AcDbEntity
  8
ASSI
100
AcDbEllipse
 62
7
  6
CONTINUOUS
 10
157.9708456462
 20
116.7497443534
 30
0.0
 11
1.0
 21
0.0
 31
0.0
 40
0.0087268678
 41
-1.5707963268
 42
-0.0174532925
  0
ELLIPSE
  5
93D
100
AcDbEntity
  8
ASSI
100
AcDbEllipse
 62
7
  6
CONTINUOUS
 10
145.840186136
 20
124.8238734426
 30
0.0
 11
0.7499883001
 21
0.0130986611
 31
0.0
 40
0.0174606526
 41
-3.0895137685
 42
-1.5710693374
  0
ELLIPSE
  5
93E
100
AcDbEntity
  8
ASSI
100
AcDbEllipse
 62
7
  6
CONTINUOUS
 10
151.159813864
 20
124.8238734426
 30
0.0
 11
0.7499883001
 21
-0.0130986611
 31
0.0
 40
0.0174606526
 41
-1.5705233162
 42
-0.052078885
  0
ELLIPSE
  5
93F
100
AcDbEntity
  8
ASSI
100
AcDbEllipse
 62
7
  6
CONTINUOUS
 10
151.159813864
 20
85.1761265574
 30
0.0
 11
0.7499883001
 21
0.0130986611
 31
0.0
 40
0.0174606526
 41
0.052078885
 42
1.5705233162
  0
ELLIPSE
  5
940
100
AcDbEntity
  8
ASSI
100
AcDbEllipse
 62
7
  6
CONTINUOUS
 10
145.840186136
 20
85.1761265574
 30
0.0
 11
0.7499883001
 21
-0.0130986611
 31
0.0
 40
0.0174606526
 41
1.5710693374
 42
3.0895137685
  0
ELLIPSE
  5
941
100
AcDbEntity
  8
ASSI
100
AcDbEllipse
 62
7
  6
CONTINUOUS
 10
159.0713645976
 20
118.8
 30
0.0
 11
0.0
 21
2.0
 31
0.0
 40
0.0174550649
 41
-3.1328660073
 42
-0.0087266463
  0
ELLIPSE
  5
942
100
AcDbEntity
  8
ASSI
100
AcDbEllipse
 62
7
  6
CONTINUOUS
 10
159.0713645976
 20
108.8
 30
0.0
 11
-0.0
 21
2.0
 31
0.0
 40
0.0174550649
 41
-3.1328660073
 42
-0.0087266463
  0
ELLIPSE
  5
943
100
AcDbEntity
  8
ASSI
100
AcDbEllipse
 62
7
  6
CONTINUOUS
 10
159.0713645976
 20
113.8
 30
0.0
 11
0.0
 21
2.0
 31
0.0
 40
0.0174550649
 41
-3.1328660073
 42
-0.0087266463
  0
ELLIPSE
  5
944
100
AcDbEntity
  8
ASSI
100
AcDbEllipse
 62
7
  6
CONTINUOUS
 10
154.336712033
 20
86.1154215373
 30
0.0
 11
-0.0000000721
 21
0.7501183043
 31
0.0
 40
0.0174496548
 41
-3.9268385735
 42
-3.1587387044
  0
ELLIPSE
  5
945
100
AcDbEntity
  8
ASSI
100
AcDbEllipse
 62
7
  6
CONTINUOUS
 10
154.336712033
 20
123.8845784627
 30
0.0
 11
0.0000000721
 21
0.7501183043
 31
0.0
 40
0.0174496548
 41
0.0171460509
 42
0.7852459199
  0
ELLIPSE
  5
946
100
AcDbEntity
  8
ASSI
100
AcDbEllipse
 62
7
  6
CONTINUOUS
 10
142.663287967
 20
86.1154215373
 30
0.0
 11
0.0000000721
 21
0.7501183043
 31
0.0
 40
0.0174496548
 41
-3.1244466027
 42
-2.3563467337
  0
ELLIPSE
  5
947
100
AcDbEntity
  8
ASSI
100
AcDbEllipse
 62
7
  6
CONTINUOUS
 10
142.663287967
 20
123.8845784627
 30
0.0
 11
-0.0000000721
 21
0.7501183043
 31
0.0
 40
0.0174496548
 41
-0.7852459199
 42
-0.0171460509
  0
ELLIPSE
  5
948
100
AcDbEntity
  8
ASSI
100
AcDbEllipse
 62
7
  6
CONTINUOUS
 10
157.9708456462
 20
102.700370388
 30
0.0
 11
0.999914308
 21
1.0001428095
 31
0.0
 40
0.0130892216
 41
0.0043618277
 42
0.0360052954
  0
ELLIPSE
  5
949
100
AcDbEntity
  8
CURVE
100
AcDbEllipse
 62
250
  6
CONTINUOUS
 10
159.2473913127
 20
94.5
 30
0.0
 11
-0.0
 21
0.5
 31
0.0
 40
0.0174550649
 41
-2.0943951024
 42
1.5707963268
  0
ELLIPSE
  5
94A
100
AcDbEntity
  8
CURVE
100
AcDbEllipse
 62
250
  6
CONTINUOUS
 10
159.2255719244
 20
94.5
 30
0.0
 11
-0.0
 21
0.7500319173
 31
0.0
 40
0.0174550649
 41
-1.5707963268
 42
2.3561944902
  0
ELLIPSE
  5
94B
100
AcDbEntity
  8
CURVE
100
AcDbEllipse
 62
250
  6
CONTINUOUS
 10
159.3803190374
 20
90.25459
 30
0.0
 11
0.0
 21
1.7850001745
 31
0.0
 40
0.0174550649
 41
-1.7141438816
 42
-0.2159604772
  0
ELLIPSE
  5
94C
100
AcDbEntity
  8
CURVE
100
AcDbEllipse
 62
250
  6
CONTINUOUS
 10
159.3803190374
 20
90.25459
 30
0.0
 11
-0.0
 21
1.7849997292
 31
0.0
 40
0.0174550649
 41
0.215960532
 42
1.7141439176
  0
ELLIPSE
  5
94D
100
AcDbEntity
  8
CURVE
100
AcDbEllipse
 62
250
  6
CONTINUOUS
 10
159.3803190374
 20
90.25459
 30
0.0
 11
-0.0
 21
2.5500000352
 31
0.0
 40
0.0174550649
 41
-1.6709637466
 42
1.6709637466
  0
ELLIPSE
  5
94E
100
AcDbEntity
  8
CURVE
100
AcDbEllipse
 62
250
  6
CONTINUOUS
 10
159.3803190374
 20
94.58959
 30
0.0
 11
-0.0
 21
1.7850001745
 31
0.0
 40
0.0174550649
 41
-1.7141438816
 42
1.7141438816
  0
ELLIPSE
  5
94F
100
AcDbEntity
  8
CURVE
100
AcDbEllipse
 62
250
  6
CONTINUOUS
 10
159.3803190374
 20
94.58959
 30
0.0
 11
-0.0
 21
2.5500000352
 31
0.0
 40
0.0174550649
 41
-1.6709637466
 42
1.6709637466
  0
ELLIPSE
  5
950
100
AcDbEntity
  8
CURVE
100
AcDbEllipse
 62
250
  6
CONTINUOUS
 10
159.3881739213
 20
100.500006
 30
0.0
 11
-0.0
 21
0.499999
 31
0.0
 40
0.0174550649
 41
0.0
 42
6.2831853072
  0
ELLIPSE
  5
951
100
AcDbEntity
  8
CURVE
100
AcDbEllipse
 62
250
  6
CONTINUOUS
 10
159.3873122346
 20
116.6353
 30
0.0
 11
-0.0
 21
0.14051
 31
0.0
 40
0.0174550649
 41
-4.7123889804
 42
-1.5707963268
  0
ELLIPSE
  5
952
100
AcDbEntity
  8
CURVE
100
AcDbEllipse
 62
250
  6
CONTINUOUS
 10
159.4457090969
 20
116.210087
 30
0.0
 11
-0.0
 21
0.192582
 31
0.0
 40
0.0174550649
 41
0.0
 42
6.2831853072
  0
ELLIPSE
  5
953
100
AcDbEntity
  8
CURVE
100
AcDbEllipse
 62
250
  6
CONTINUOUS
 10
159.3873122346
 20
116.6353
 30
0.0
 11
0.0
 21
0.317592
 31
0.0
 40
0.0174550649
 41
0.0
 42
6.2831853072
  0
ENDSEC
  0
SECTION
  2
OBJECTS
  0
DICTIONARY
  5
C
100
AcDbDictionary
280
0
281
1
  3
ACAD_GROUP
350
D
  3
ACAD_MLINESTYLE
350
17
  3
ACAD_LAYOUT
350
1A
  3
ACAD_PLOTSETTINGS
350
19
  3
ACAD_PLOTSTYLENAME
350
E
  0
DICTIONARY
  5
D
102
{ACAD_REACTORS
330
C
102
}
100
AcDbDictionary
280
0
281
1
  0
ACDBDICTIONARYWDFLT
  5
E
102
{ACAD_REACTORS
330
C
102
}
100
AcDbDictionary
281
1
  3
Normal
350
F
100
AcDbDictionaryWithDefault
340
F
  0
DICTIONARY
  5
17
102
{ACAD_REACTORS
330
C
102
}
100
AcDbDictionary
280
0
281
1
  3
Standard
350
18
  0
DICTIONARY
  5
19
102
{ACAD_REACTORS
330
C
102
}
100
AcDbDictionary
281
1
  0
DICTIONARY
  5
1A
102
{ACAD_REACTORS
330
C
102
}
100
AcDbDictionary
281
1
  3
Model
350
954
  3
Layout1
350
955
  0
ACDBPLACEHOLDER
  5
F
102
{ACAD_REACTORS
330
E
102
}
  0
MLINESTYLE
  5
18
102
{ACAD_REACTORS
330
17
102
}
100
AcDbMlineStyle
  2
STANDARD
 70
0
  3

 62
256
 51
90.0
 52
90.0
 71
2
 49
0.5
 62
256
  6
BYLAYER
 49
-0.5
 62
256
  6
BYLAYER
  0
LAYOUT
  5
954
102
{ACAD_REACTORS
330
1A
102
}
100
AcDbPlotSettings
  1

  2
none_device
  4
ISO_A4_(297.00_x_210.00_MM)
  6

 40
0.0
 41
0.0
 42
0.0
 43
0.0
 44
297.0
 45
210.0
 46
0.0
 47
0.0
 48
0.0
 49
0.0
140
0.0
141
0.0
142
1.0
143
1.0
 70
1024
 72
1
 73
0
 74
0
  7

 75
0
147
1.0
148
0.0
149
0.0
100
AcDbLayout
  1
Model
 70
0
 71
0
 10
0.0
 20
0.0
 11
297.0
 21
210.0
 12
0.0
 22
0.0
 32
0.0
 14
0.0
 24
0.0
 34
0.0
 15
0.0
 25
0.0
 35
0.0
146
0.0
 13
0.0
 23
0.0
 33
0.0
 16
1.0
 26
0.0
 36
0.0
 17
0.0
 27
1.0
 37
0.0
 76
0
330
2E0
345
0
346
0
  0
LAYOUT
  5
955
102
{ACAD_REACTORS
330
1A
102
}
100
AcDbPlotSettings
  1

  2
none_device
  4
ISO_A4_(297.00_x_210.00_MM)
  6

 40
0.0
 41
0.0
 42
0.0
 43
0.0
 44
297.0
 45
210.0
 46
0.0
 47
0.0
 48
0.0
 49
0.0
140
0.0
141
0.0
142
1.0
143
1.0
 70
0
 72
1
 73
0
 74
0
  7

 75
0
147
1.0
148
0.0
149
0.0
100
AcDbLayout
  1
Layout1
 70
0
 71
1
 10
0.0
 20
0.0
 11
297.0
 21
210.0
 12
0.0
 22
0.0
 32
0.0
 14
0.0
 24
0.0
 34
0.0
 15
0.0
 25
0.0
 35
0.0
146
0.0
 13
0.0
 23
0.0
 33
0.0
 16
1.0
 26
0.0
 36
0.0
 17
0.0
 27
1.0
 37
0.0
 76
0
330
2E1
345
0
346
0
  0
ENDSEC
  0
EOF
