  0
SECTION
  2
HEADER
  9
$ACADVER
  1
AC1024
  9
$DWGCODEPAGE
  3
ANSI_1252
  9
$EXTMAX
 10
297.0
 20
210.0
 30
0.0
  9
$EXTMIN
 10
0.0
 20
0.0
 30
0.0
  9
$LIMMIN
 10
0.0
 20
0.0
  9
$LIMMAX
 10
297.0
 20
210.0
  9
$VIEWCTR
 10
148.5
 20
105.0
  9
$VIEWSIZE
 40
210.0
  9
$CLAYER
  8
0
  9
$LTSCALE
 40
16.335
  9
$CELTYPE
  6
BYLAYER
  9
$DIMSCALE
 40
1.0
  9
$DIMASZ
 40
3.0
  9
$DIMEXO
 40
0.5
  9
$DIMDLI
 40
11.286
  9
$DIMEXE
 40
1.5
  9
$DIMCEN
 40
2.673
  9
$DIMLFAC
 40
1.0
  9
$DIMBLK
  1
_FILLED
  9
$DIMALT
 70
0
  9
$DIMALTF
 40
0.0393700787
  9
$DIMTXT
 40
3.0
  9
$DIMTOL
 70
1
  9
$DIMLIM
 70
0
  9
$DIMTFAC
 40
1.0
  9
$DIMTP
 40
0.01
  9
$DIMTM
 40
0.01
  9
$DIMGAP
 40
0.625
  9
$DIMDSEP
 70
44
  9
$AUNITS
 70
0
  9
$PDMODE
 70
3
  9
$PDSIZE
 40
3.0
  9
$HANDSEED
  5
76B
  9
$TILEMODE
 70
1
  9
$MEASUREMENT
 70
1
  9
$INSUNITS
 70
4
  0
ENDSEC
  0
SECTION
  2
CLASSES
  0
CLASS
  1
ACDBDICTIONARYWDFLT
  2
AcDbDictionaryWithDefault
  3
AutoCAD 2000
 90
0
 91
1
280
0
281
0
  0
CLASS
  1
ACDBPLACEHOLDER
  2
AcDbPlaceHolder
  3
AutoCAD 2000
 90
0
 91
1
280
0
281
0
  0
CLASS
  1
LAYOUT
  2
AcDbLayout
  3
AutoCAD 2000
 90
0
 91
0
280
0
281
0
  0
ENDSEC
  0
SECTION
  2
TABLES
  0
TABLE
  2
VPORT
  5
8
100
AcDbSymbolTable
 70
2
  0
VPORT
  5
1F4
100
AcDbSymbolTableRecord
100
AcDbViewportTableRecord
  2
*ACTIVE
 70
0
 10
0.0
 20
0.0
 11
1.0
 21
1.0
 12
148.5
 22
105.0
 13
0.0
 23
0.0
 14
1.0
 24
1.0
 15
0.0
 25
0.0
 16
0.0
 26
0.0
 36
1.0
 17
0.0
 27
0.0
 37
0.0
 40
210.0
 41
1.4142857143
 42
50.0
 43
0.0
 44
0.0
 50
0.0
 51
0.0
 71
0
 72
100
 73
1
 74
1
 75
0
 76
0
 77
0
 78
0
  0
ENDTAB
  0
TABLE
  2
LTYPE
  5
5
100
AcDbSymbolTable
 70
6
  0
LTYPE
  5
14
100
AcDbSymbolTableRecord
100
AcDbLinetypeTableRecord
  2
BYBLOCK
 70
0
  3

 72
65
 73
0
 40
0.0
  0
LTYPE
  5
15
100
AcDbSymbolTableRecord
100
AcDbLinetypeTableRecord
  2
BYLAYER
 70
0
  3

 72
65
 73
0
 40
0.0
  0
LTYPE
  5
16
100
AcDbSymbolTableRecord
100
AcDbLinetypeTableRecord
  2
CONTINUOUS
 70
64
  3
Solid line
 72
65
 73
0
 40
0.0
  0
LTYPE
  5
1F5
100
AcDbSymbolTableRecord
100
AcDbLinetypeTableRecord
  2
CENTER
 70
64
  3
____ _ ____ _ ____ _ ____ _ ____ _ ____ _ ____
 72
65
 73
4
 40
0.6
 49
0.375
 74
0
 49
-0.075
 74
0
 49
0.075
 74
0
 49
-0.075
 74
0
  0
LTYPE
  5
1F6
100
AcDbSymbolTableRecord
100
AcDbLinetypeTableRecord
  2
HIDDEN
 70
64
  3
- - - - - - - - - - - - - - - - - - - -
 72
65
 73
2
 40
0.2
 49
0.1
 74
0
 49
-0.1
 74
0
  0
LTYPE
  5
1F7
100
AcDbSymbolTableRecord
100
AcDbLinetypeTableRecord
  2
PHANTOM
 70
64
  3
_____ _ _ _____ _ _ _____ _ _ _____
 72
65
 73
6
 40
0.8
 49
0.45
 74
0
 49
-0.05
 74
0
 49
0.1
 74
0
 49
-0.05
 74
0
 49
0.1
 74
0
 49
-0.05
 74
0
  0
LTYPE
  5
1F8
100
AcDbSymbolTableRecord
100
AcDbLinetypeTableRecord
  2
DOT
 70
64
  3
. . . . . . . . . . . . . . . . . . . .
 72
65
 73
2
 40
0.2
 49
0.1
 74
0
 49
-0.1
 74
0
  0
LTYPE
  5
1F9
100
AcDbSymbolTableRecord
100
AcDbLinetypeTableRecord
  2
DASHED
 70
64
  3
- - - - - - - - - - - - - - - - - - - -
 72
65
 73
2
 40
0.2
 49
0.1
 74
0
 49
-0.1
 74
0
  0
ENDTAB
  0
TABLE
  2
LAYER
  5
2
100
AcDbSymbolTable
 70
36
  0
LAYER
  5
10
100
AcDbSymbolTableRecord
100
AcDbLayerTableRecord
  2
0
 70
0
 62
7
  6
CONTINUOUS
370
-3
390
F
  0
LAYER
  5
1FA
100
AcDbSymbolTableRecord
100
AcDbLayerTableRecord
  2
DEFAULT_1
 70
0
 62
7
  6
CENTER
370
-3
390
F
  0
LAYER
  5
1FB
100
AcDbSymbolTableRecord
100
AcDbLayerTableRecord
  2
DEFAULT_2
 70
0
 62
7
  6
HIDDEN
370
-3
390
F
  0
LAYER
  5
1FC
100
AcDbSymbolTableRecord
100
AcDbLayerTableRecord
  2
DEFAULT_3
 70
0
 62
7
  6
PHANTOM
370
-3
390
F
  0
LAYER
  5
1FD
100
AcDbSymbolTableRecord
100
AcDbLayerTableRecord
  2
ASSI
 70
0
 62
7
  6
CONTINUOUS
370
-3
390
F
  0
LAYER
  5
1FE
100
AcDbSymbolTableRecord
100
AcDbLayerTableRecord
  2
COORDINATE
 70
0
 62
7
  6
CONTINUOUS
370
-3
390
F
  0
LAYER
  5
1FF
100
AcDbSymbolTableRecord
100
AcDbLayerTableRecord
  2
COORD_ORIGINE
 70
0
 62
7
  6
CONTINUOUS
370
-3
390
F
  0
LAYER
  5
200
100
AcDbSymbolTableRecord
100
AcDbLayerTableRecord
  2
COPY-PUBBLISH
 70
0
 62
7
  6
CONTINUOUS
370
-3
390
F
  0
LAYER
  5
201
100
AcDbSymbolTableRecord
100
AcDbLayerTableRecord
  2
COSMETICHE
 70
0
 62
7
  6
CONTINUOUS
370
-3
390
F
  0
LAYER
  5
202
100
AcDbSymbolTableRecord
100
AcDbLayerTableRecord
  2
COSMETICI
 70
0
 62
7
  6
CONTINUOUS
370
-3
390
F
  0
LAYER
  5
203
100
AcDbSymbolTableRecord
100
AcDbLayerTableRecord
  2
CURVE
 70
0
 62
7
  6
CONTINUOUS
370
-3
390
F
  0
LAYER
  5
204
100
AcDbSymbolTableRecord
100
AcDbLayerTableRecord
  2
CURVE1
 70
0
 62
7
  6
CONTINUOUS
370
-3
390
F
  0
LAYER
  5
205
100
AcDbSymbolTableRecord
100
AcDbLayerTableRecord
  2
C_COMP
 70
0
 62
7
  6
CONTINUOUS
370
-3
390
F
  0
LAYER
  5
206
100
AcDbSymbolTableRecord
100
AcDbLayerTableRecord
  2
DRAFT
 70
0
 62
7
  6
CONTINUOUS
370
-3
390
F
  0
LAYER
  5
207
100
AcDbSymbolTableRecord
100
AcDbLayerTableRecord
  2
IGES
 70
0
 62
7
  6
CONTINUOUS
370
-3
390
F
  0
LAYER
  5
208
100
AcDbSymbolTableRecord
100
AcDbLayerTableRecord
  2
IMPORT
 70
0
 62
7
  6
CONTINUOUS
370
-3
390
F
  0
LAYER
  5
209
100
AcDbSymbolTableRecord
100
AcDbLayerTableRecord
  2
IMPORT_FEATURES
 70
0
 62
7
  6
CONTINUOUS
370
-3
390
F
  0
LAYER
  5
20A
100
AcDbSymbolTableRecord
100
AcDbLayerTableRecord
  2
INTF_1
 70
0
 62
7
  6
CONTINUOUS
370
-3
390
F
  0
LAYER
  5
20B
100
AcDbSymbolTableRecord
100
AcDbLayerTableRecord
  2
INTF_2
 70
0
 62
7
  6
CONTINUOUS
370
-3
390
F
  0
LAYER
  5
20C
100
AcDbSymbolTableRecord
100
AcDbLayerTableRecord
  2
INTF_6
 70
0
 62
7
  6
CONTINUOUS
370
-3
390
F
  0
LAYER
  5
20D
100
AcDbSymbolTableRecord
100
AcDbLayerTableRecord
  2
NOTE
 70
0
 62
7
  6
CONTINUOUS
370
-3
390
F
  0
LAYER
  5
20E
100
AcDbSymbolTableRecord
100
AcDbLayerTableRecord
  2
PIANI
 70
0
 62
7
  6
CONTINUOUS
370
-3
390
F
  0
LAYER
  5
20F
100
AcDbSymbolTableRecord
100
AcDbLayerTableRecord
  2
PIANI_ORIGINE
 70
0
 62
7
  6
CONTINUOUS
370
-3
390
F
  0
LAYER
  5
210
100
AcDbSymbolTableRecord
100
AcDbLayerTableRecord
  2
PUNTI
 70
0
 62
7
  6
CONTINUOUS
370
-3
390
F
  0
LAYER
  5
211
100
AcDbSymbolTableRecord
100
AcDbLayerTableRecord
  2
RACCORDO
 70
0
 62
7
  6
CONTINUOUS
370
-3
390
F
  0
LAYER
  5
212
100
AcDbSymbolTableRecord
100
AcDbLayerTableRecord
  2
RGB____0____0____0__
 70
0
 62
7
  6
CONTINUOUS
370
-3
390
F
  0
LAYER
  5
213
100
AcDbSymbolTableRecord
100
AcDbLayerTableRecord
  2
SMUSSO
 70
0
 62
7
  6
CONTINUOUS
370
-3
390
F
  0
LAYER
  5
214
100
AcDbSymbolTableRecord
100
AcDbLayerTableRecord
  2
SNAPLINE
 70
0
 62
7
  6
CONTINUOUS
370
-3
390
F
  0
LAYER
  5
215
100
AcDbSymbolTableRecord
100
AcDbLayerTableRecord
  2
SUPERFICI
 70
0
 62
7
  6
CONTINUOUS
370
-3
390
F
  0
LAYER
  5
216
100
AcDbSymbolTableRecord
100
AcDbLayerTableRecord
  2
TRASH
 70
0
 62
7
  6
CONTINUOUS
370
-3
390
F
  0
LAYER
  5
217
100
AcDbSymbolTableRecord
100
AcDbLayerTableRecord
  2
XSEC_DATUMS
 70
0
 62
7
  6
CONTINUOUS
370
-3
390
F
  0
ENDTAB
  0
TABLE
  2
STYLE
  5
3
100
AcDbSymbolTable
 70
1
  0
STYLE
  5
11
100
AcDbSymbolTableRecord
100
AcDbTextStyleTableRecord
  2
STANDARD
 70
0
 40
0.0
 41
0.8
 50
0.0
 71
0
 42
0.2
  3
txt
  4

  0
STYLE
  5
218
100
AcDbSymbolTableRecord
100
AcDbTextStyleTableRecord
  2
TEXTSTYLE_1
 70
0
 40
0.0
 41
0.8
 50
0.0
 71
0
 42
0.2
  3
gdt
  4

  0
ENDTAB
  0
TABLE
  2
VIEW
  5
6
100
AcDbSymbolTable
 70
0
  0
ENDTAB
  0
TABLE
  2
UCS
  5
7
100
AcDbSymbolTable
 70
0
  0
ENDTAB
  0
TABLE
  2
APPID
  5
9
100
AcDbSymbolTable
 70
1
  0
APPID
  5
219
100
AcDbSymbolTableRecord
100
AcDbRegAppTableRecord
  2
ACAD
 70
0
  0
ENDTAB
  0
TABLE
  2
BLOCK_RECORD
  5
1
100
AcDbSymbolTable
 70
0
  0
BLOCK_RECORD
  5
21A
100
AcDbSymbolTableRecord
100
AcDbBlockTableRecord
  2
*Model_Space
  0
BLOCK_RECORD
  5
21B
100
AcDbSymbolTableRecord
100
AcDbBlockTableRecord
  2
*Paper_Space
  0
BLOCK_RECORD
  5
21C
100
AcDbSymbolTableRecord
100
AcDbBlockTableRecord
  2
_FILLED
  0
ENDTAB
  0
TABLE
  2
DIMSTYLE
  5
A
100
AcDbSymbolTable
 70
1
100
AcDbDimStyleTable
 71
0
  0
DIMSTYLE
105
21D
100
AcDbSymbolTableRecord
100
AcDbDimStyleTableRecord
  2
STANDARD
 70
0
  3

  4

 40
1.0
 41
3.0
 42
0.5
 43
0.38
 44
1.5
 45
0.0
 46
0.0
 47
0.01
 48
0.01
140
3.0
141
0.09
142
0.0
143
25.4
144
1.0
145
0.0
146
1.0
147
0.625
 71
1
 72
0
 73
0
 74
0
 75
0
 76
0
 77
1
 78
8
 79
2
170
0
171
1
172
0
173
0
174
0
175
0
176
0
177
0
178
0
270
2
179
2
271
2
272
2
273
2
274
2
275
0
280
0
281
0
282
0
283
1
284
8
285
0
286
0
287
3
288
0
340
11
278
44
341
21C
342
21C
343
21C
344
21C
  0
ENDTAB
  0
ENDSEC
  0
SECTION
  2
BLOCKS
  0
BLOCK
  5
20
100
AcDbEntity
  8
0
100
AcDbBlockBegin
  2
*Model_Space
 70
0
 10
0.0
 20
0.0
 30
0.0
  3
*Model_Space
  1

  0
ENDBLK
  5
21
100
AcDbEntity
  8
0
100
AcDbBlockEnd
  0
BLOCK
  5
1C
100
AcDbEntity
  8
0
100
AcDbBlockBegin
  2
*Paper_Space
 70
0
 10
0.0
 20
0.0
 30
0.0
  3
*Paper_Space
  1

  0
ENDBLK
  5
1D
100
AcDbEntity
  8
0
100
AcDbBlockEnd
  0
BLOCK
  5
21E
100
AcDbEntity
  8
0
100
AcDbBlockBegin
  2
_FILLED
 70
64
 10
0.0
 20
0.0
  3
_FILLED
  1

  0
SOLID
  5
21F
100
AcDbEntity
  8
0
  6
BYBLOCK
 62
0
100
AcDbTrace
 10
0.0
 20
0.0
 11
-1.0
 21
0.3166666667
 12
-1.0
 22
-0.3166666667
 13
-1.0
 23
-0.3166666667
  0
ENDBLK
  5
220
100
AcDbEntity
  8
0
  6
BYBLOCK
 62
0
100
AcDbBlockEnd
  0
ENDSEC
  0
SECTION
  2
ENTITIES
  0
LWPOLYLINE
  5
221
100
AcDbEntity
  8
RACCORDO
100
AcDbPolyline
 62
7
  6
CONTINUOUS
 90
14
 70
0
 10
-10.001744595
 20
18.2308351884
 10
-9.9820927558
 20
18.250514782
 10
-9.9608739219
 20
18.2669614162
 10
-9.9380880934
 20
18.2801750908
 10
-9.9132797744
 20
18.2902744312
 10
-9.8869044608
 20
18.2971408122
 10
-9.8603286402
 20
18.3004183577
 10
-9.833526166
 20
18.2999191158
 10
-9.806523185
 20
18.2958310384
 10
-9.7807646242
 20
18.288362105
 10
-9.7563208271
 20
18.2773254792
 10
-9.7331214504
 20
18.2629079975
 10
-9.7124003905
 20
18.245878149
 10
-9.6947885528
 20
18.2266516427
  0
LINE
  5
222
100
AcDbEntity
  8
DRAFT
100
AcDbLine
 62
7
  6
CONTINUOUS
 10
-7.2084845302
 20
19.1872686779
 11
-7.3830351795
 21
19.1
  0
LINE
  5
223
100
AcDbEntity
  8
RACCORDO
100
AcDbLine
 62
7
  6
CONTINUOUS
 10
-6.8830351795
 20
19.0301850577
 11
-6.7171511361
 21
19.1131207627
  0
LINE
  5
224
100
AcDbEntity
  8
DRAFT
100
AcDbLine
 62
7
  6
CONTINUOUS
 10
-3.0
 20
-23.5
 11
-2.7812783412
 21
-23.4563623377
  0
LINE
  5
225
100
AcDbEntity
  8
0
100
AcDbLine
 62
7
  6
CONTINUOUS
 10
-3.434596365
 20
-21.2139629885
 11
-3.1501460935
 21
-21.1998476487
  0
LINE
  5
226
100
AcDbEntity
  8
0
100
AcDbLine
 62
7
  6
CONTINUOUS
 10
-3.1
 20
-22.2
 11
-3.0104834329
 21
-22.1955695989
  0
LINE
  5
227
100
AcDbEntity
  8
0
100
AcDbLine
 62
7
  6
CONTINUOUS
 10
-2.700388948
 20
-21.1802222394
 11
-3.0969217322
 21
-21.1998476487
  0
LINE
  5
228
100
AcDbEntity
  8
DRAFT
100
AcDbLine
 62
7
  6
CONTINUOUS
 10
-3.9733373476
 20
-23.5
 11
-3.0
 21
-23.5
  0
LINE
  5
229
100
AcDbEntity
  8
DRAFT
100
AcDbLine
 62
7
  6
CONTINUOUS
 10
3.0
 20
-23.5
 11
3.9733373476
 21
-23.5
  0
LINE
  5
22A
100
AcDbEntity
  8
DRAFT
100
AcDbLine
 62
7
  6
CONTINUOUS
 10
-2.7812783412
 20
-23.4563623377
 11
2.7812783412
 21
-23.4563623377
  0
LINE
  5
22B
100
AcDbEntity
  8
DRAFT
100
AcDbLine
 62
7
  6
CONTINUOUS
 10
-3.9526845545
 20
-23.4301797403
 11
3.9526845545
 21
-23.4301797403
  0
LINE
  5
22C
100
AcDbEntity
  8
DRAFT
100
AcDbLine
 62
7
  6
CONTINUOUS
 10
-10.6503805997
 20
-22.4
 11
-5.55
 21
-22.4
  0
LINE
  5
22D
100
AcDbEntity
  8
DRAFT
100
AcDbLine
 62
7
  6
CONTINUOUS
 10
5.55
 20
-22.4
 11
10.6503805997
 21
-22.4
  0
LINE
  5
22E
100
AcDbEntity
  8
DRAFT
100
AcDbLine
 62
7
  6
CONTINUOUS
 10
-3.3821231691
 20
-22.2
 11
-3.1
 21
-22.2
  0
LINE
  5
22F
100
AcDbEntity
  8
DRAFT
100
AcDbLine
 62
7
  6
CONTINUOUS
 10
3.1
 20
-22.2
 11
3.3821231691
 21
-22.2
  0
LINE
  5
230
100
AcDbEntity
  8
0
100
AcDbLine
 62
7
  6
CONTINUOUS
 10
3.1
 20
-22.2
 11
-3.1
 21
-22.2
  0
LINE
  5
231
100
AcDbEntity
  8
DRAFT
100
AcDbLine
 62
7
  6
CONTINUOUS
 10
3.0104834329
 20
-22.1955695989
 11
-3.0104834329
 21
-22.1955695989
  0
LINE
  5
232
100
AcDbEntity
  8
DRAFT
100
AcDbLine
 62
7
  6
CONTINUOUS
 10
6.9176282065
 20
-21.2139629885
 11
3.434596365
 21
-21.2139629885
  0
LINE
  5
233
100
AcDbEntity
  8
DRAFT
100
AcDbLine
 62
7
  6
CONTINUOUS
 10
-3.434596365
 20
-21.2139629885
 11
-6.9176282065
 21
-21.2139629885
  0
LINE
  5
234
100
AcDbEntity
  8
0
100
AcDbLine
 62
7
  6
CONTINUOUS
 10
-3.1501460935
 20
-21.1998476487
 11
-3.0969217322
 21
-21.1998476487
  0
LINE
  5
235
100
AcDbEntity
  8
0
100
AcDbLine
 62
7
  6
CONTINUOUS
 10
3.0969217322
 20
-21.1998476487
 11
3.1501460935
 21
-21.1998476487
  0
LINE
  5
236
100
AcDbEntity
  8
DRAFT
100
AcDbLine
 62
7
  6
CONTINUOUS
 10
6.8532553098
 20
-21.1802222394
 11
2.700388948
 21
-21.1802222394
  0
LINE
  5
237
100
AcDbEntity
  8
DRAFT
100
AcDbLine
 62
7
  6
CONTINUOUS
 10
-2.700388948
 20
-21.1802222394
 11
-6.8532553098
 21
-21.1802222394
  0
LINE
  5
238
100
AcDbEntity
  8
DRAFT
100
AcDbLine
 62
7
  6
CONTINUOUS
 10
-9.65
 20
-20.9
 11
-7.3830351795
 21
-20.9
  0
LINE
  5
239
100
AcDbEntity
  8
DRAFT
100
AcDbLine
 62
7
  6
CONTINUOUS
 10
7.3830351795
 20
-20.9
 11
9.65
 21
-20.9
  0
LINE
  5
23A
100
AcDbEntity
  8
DRAFT
100
AcDbLine
 62
7
  6
CONTINUOUS
 10
9.5103594806
 20
-20.7603594806
 11
7.3830351795
 21
-20.7603594806
  0
LINE
  5
23B
100
AcDbEntity
  8
DRAFT
100
AcDbLine
 62
7
  6
CONTINUOUS
 10
-7.3830351795
 20
-20.7603594806
 11
-9.5103594806
 21
-20.7603594806
  0
LINE
  5
23C
100
AcDbEntity
  8
DRAFT
100
AcDbLine
 62
7
  6
CONTINUOUS
 10
-7.2084845302
 20
-19.9483339502
 11
7.2084845302
 21
-19.9483339502
  0
LINE
  5
23D
100
AcDbEntity
  8
0
100
AcDbLine
 62
7
  6
CONTINUOUS
 10
3.0104834329
 20
-22.1955695989
 11
3.1
 21
-22.2
  0
LINE
  5
23E
100
AcDbEntity
  8
0
100
AcDbLine
 62
7
  6
CONTINUOUS
 10
3.0969217322
 20
-21.1998476487
 11
2.700388948
 21
-21.1802222394
  0
LINE
  5
23F
100
AcDbEntity
  8
0
100
AcDbLine
 62
7
  6
CONTINUOUS
 10
3.1501460935
 20
-21.1998476487
 11
3.434596365
 21
-21.2139629885
  0
LINE
  5
240
100
AcDbEntity
  8
DRAFT
100
AcDbLine
 62
7
  6
CONTINUOUS
 10
3.0
 20
-23.5
 11
2.7812783412
 21
-23.4563623377
  0
LINE
  5
241
100
AcDbEntity
  8
DRAFT
100
AcDbLine
 62
7
  6
CONTINUOUS
 10
-7.2084845302
 20
-19.1872686779
 11
-7.3830351795
 21
-19.1
  0
LINE
  5
242
100
AcDbEntity
  8
RACCORDO
100
AcDbLine
 62
7
  6
CONTINUOUS
 10
-6.7171511361
 20
-19.1131207627
 11
-6.8830351795
 21
-19.0301850577
  0
LWPOLYLINE
  5
243
100
AcDbEntity
  8
RACCORDO
100
AcDbPolyline
 62
7
  6
CONTINUOUS
 90
13
 70
0
 10
-10.0317940571
 20
-18.150052343
 10
-10.0121658824
 20
-18.169815643
 10
-9.9909605232
 20
-18.1863405777
 10
-9.9681779795
 20
-18.1996271471
 10
-9.9433614952
 20
-18.2097948571
 10
-9.9169678264
 20
-18.2167242019
 10
-9.8903672408
 20
-18.2200566637
 10
-9.8635333038
 20
-18.2196038355
 10
-9.83649245
 20
-18.2155541244
 10
-9.8106942517
 20
-18.2081142336
 10
-9.7862089093
 20
-18.1970964203
 10
-9.7629662223
 20
-18.1826884274
 10
-9.7558605884
 20
-18.17686038
  0
LINE
  5
244
100
AcDbEntity
  8
RACCORDO
100
AcDbLine
 62
250
  6
CONTINUOUS
 10
-10.0317940571
 20
18.150052343
 11
-10.0017445951
 21
18.2308351883
  0
LWPOLYLINE
  5
245
100
AcDbEntity
  8
RACCORDO
100
AcDbPolyline
 62
7
  6
CONTINUOUS
 90
10
 70
0
 10
-10.8397900577
 20
17.1575153665
 10
-10.8827057516
 20
17.0979107429
 10
-10.9208715303
 20
17.0357660586
 10
-10.9542873938
 20
16.9710813134
 10
-10.9831397996
 20
16.9033172947
 10
-11.0072422902
 20
16.8330132153
 10
-11.0260354928
 20
16.7617867126
 10
-11.0393329498
 20
16.6901769994
 10
-11.0473211189
 20
16.617644863
 10
-11.05
 20
16.5441903035
  0
LWPOLYLINE
  5
246
100
AcDbEntity
  8
RACCORDO
100
AcDbPolyline
 62
250
  6
CONTINUOUS
 90
10
 70
0
 10
-8.8088455072
 20
17.595770226
 10
-8.7991818323
 20
17.6074647525
 10
-8.7895075515
 20
17.6189781472
 10
-8.7798244955
 20
17.6303102711
 10
-8.7701363247
 20
17.6414608742
 10
-8.7604430452
 20
17.6524300173
 10
-8.7507409974
 20
17.6632178944
 10
-8.7410301754
 20
17.6738243531
 10
-8.7313142381
 20
17.684249072
 10
-8.7215950184
 20
17.6944918587
  0
LINE
  5
247
100
AcDbEntity
  8
0
100
AcDbLine
 62
7
  6
CONTINUOUS
 10
-4.7418348059
 20
16.3061066621
 11
-4.7417244673
 21
16.3061954867
  0
LWPOLYLINE
  5
248
100
AcDbEntity
  8
RACCORDO
100
AcDbPolyline
 62
7
  6
CONTINUOUS
 90
3
 70
0
 10
-8.1132383042
 20
16.017399765
 10
-8.1559793496
 20
15.9845534046
 10
-8.2
 20
15.95
  0
LINE
  5
249
100
AcDbEntity
  8
0
100
AcDbLine
 62
7
  6
CONTINUOUS
 10
-4.7521561457
 20
16.2976203127
 11
-4.7315390756
 21
16.3127127179
  0
LWPOLYLINE
  5
24A
100
AcDbEntity
  8
RACCORDO
100
AcDbPolyline
 62
250
  6
CONTINUOUS
 90
7
 70
0
 10
-8.7215950184
 20
17.6944918587
 10
-8.7197405509
 20
17.6955416972
 10
-8.7161441119
 20
17.6966194455
 10
-8.7108055028
 20
17.6977131215
 10
-8.7037245247
 20
17.6988061915
 10
-8.6949010502
 20
17.6998775696
 10
-8.6843351158
 20
17.7009016182
  0
LINE
  5
24B
100
AcDbEntity
  8
DRAFT
100
AcDbLine
 62
7
  6
CONTINUOUS
 10
7.2352506643
 20
20.833660631
 11
7.3830351795
 21
20.9
  0
LINE
  5
24C
100
AcDbEntity
  8
RACCORDO
100
AcDbLine
 62
250
  6
CONTINUOUS
 10
-7.6920633968
 20
16.7000316804
 11
-7.6885688683
 21
16.701053923
  0
LWPOLYLINE
  5
24D
100
AcDbEntity
  8
RACCORDO
100
AcDbPolyline
 62
7
  6
CONTINUOUS
 90
13
 70
0
 10
7.7899400578
 20
-16.25
 10
7.8047478179
 20
-16.2482258989
 10
7.8219421053
 20
-16.2435234411
 10
7.8415418971
 20
-16.2358926268
 10
7.8635491556
 20
-16.2252175819
 10
7.8879456155
 20
-16.2116141805
 10
7.9146907852
 20
-16.1954300445
 10
7.9436978756
 20
-16.176641953
 10
7.974905668
 20
-16.155273127
 10
8.0082893934
 20
-16.1317408522
 10
8.0436622769
 20
-16.1060341997
 10
8.0809306672
 20
-16.0781640983
 10
8.1613910389
 20
-16.0174337902
  0
LINE
  5
24E
100
AcDbEntity
  8
RACCORDO
100
AcDbLine
 62
250
  6
CONTINUOUS
 10
0.4440110586
 20
-17.7388628367
 11
0.4178531736
 21
-17.7402704637
  0
LINE
  5
24F
100
AcDbEntity
  8
RACCORDO
100
AcDbLine
 62
250
  6
CONTINUOUS
 10
0.4178531736
 20
-17.7402704637
 11
0.3878030709
 21
-17.7416625275
  0
LWPOLYLINE
  5
250
100
AcDbEntity
  8
RACCORDO
100
AcDbPolyline
 62
250
  6
CONTINUOUS
 90
19
 70
0
 10
1.3002188883
 20
-17.6955285698
 10
1.3873628849
 20
-17.6917113144
 10
1.4738437916
 20
-17.6803151347
 10
1.5590035639
 20
-17.661426746
 10
1.6421942103
 20
-17.6351898723
 10
1.7227827224
 20
-17.6018041534
 10
1.8001558917
 20
-17.5615236256
 10
1.8737249758
 20
-17.5146547885
 10
1.9429301782
 20
-17.4615542733
 10
2.0072449074
 20
-17.4026261286
 10
2.0661797843
 20
-17.3383187462
 10
2.119286366
 20
-17.2691214494
 10
2.1661605576
 20
-17.1955607692
 10
2.2064456873
 20
-17.1181964384
 10
2.2398352204
 20
-17.0376171321
 10
2.2660750915
 20
-16.9544359888
 10
2.2849656382
 20
-16.8692859444
 10
2.2963631198
 20
-16.7828149166
 10
2.3001808114
 20
-16.6956808747
  0
LINE
  5
251
100
AcDbEntity
  8
RACCORDO
100
AcDbLine
 62
250
  6
CONTINUOUS
 10
0.3878030709
 20
-17.7416625275
 11
0.3536489273
 21
-17.7430447515
  0
LWPOLYLINE
  5
252
100
AcDbEntity
  8
RACCORDO
100
AcDbPolyline
 62
250
  6
CONTINUOUS
 90
16
 70
0
 10
8.9205677229
 20
-16.6078419577
 10
8.9566578223
 20
-16.6065164855
 10
8.9922288453
 20
-16.6026770416
 10
9.027280792
 20
-16.596323626
 10
9.0619986948
 20
-16.5873978064
 10
9.0961975212
 20
-16.5759580151
 10
9.1293221735
 20
-16.5621795498
 10
9.1613477991
 20
-16.5460242103
 10
9.1922992507
 20
-16.5275301969
 10
9.2216959885
 20
-16.5069874079
 10
9.2495156237
 20
-16.484357373
 10
9.2757805453
 20
-16.4596785626
 10
9.3000773797
 20
-16.4333562862
 10
9.3222683358
 20
-16.405525647
 10
9.3424912048
 20
-16.3760515419
 10
9.3607459866
 20
-16.3449339707
  0
LWPOLYLINE
  5
253
100
AcDbEntity
  8
RACCORDO
100
AcDbPolyline
 62
250
  6
CONTINUOUS
 90
16
 70
0
 10
8.9205677229
 20
-17.6076896529
 10
9.0280526686
 20
-17.6038117293
 10
9.1350184236
 20
-17.5922363223
 10
9.2409138817
 20
-17.5730156255
 10
9.3452037055
 20
-17.546238054
 10
9.4473371834
 20
-17.5120360278
 10
9.5467536694
 20
-17.4705932736
 10
9.6429304666
 20
-17.4221290605
 10
9.7353826124
 20
-17.3668892229
 10
9.8236333318
 20
-17.3051585974
 10
9.9072409885
 20
-17.2372438384
 10
9.9857596911
 20
-17.1635048146
 10
10.0587500065
 20
-17.0843621003
 10
10.1258338021
 20
-17.0002453913
 10
10.1866873399
 20
-16.9115820151
 10
10.2410072676
 20
-16.8188341385
  0
LINE
  5
254
100
AcDbEntity
  8
RACCORDO
100
AcDbLine
 62
250
  6
CONTINUOUS
 10
0.3536489273
 20
-17.7430447515
 11
0.2942813972
 21
-17.7451048248
  0
LWPOLYLINE
  5
255
100
AcDbEntity
  8
RACCORDO
100
AcDbPolyline
 62
250
  6
CONTINUOUS
 90
19
 70
0
 10
7.3609117354
 20
-18.8603786685
 10
7.5687231554
 20
-18.8541955185
 10
7.7761117145
 20
-18.8356478778
 10
7.9823387295
 20
-18.8047454546
 10
8.1867131143
 20
-18.7615305803
 10
8.3884452861
 20
-18.7061078689
 10
8.5866578323
 20
-18.638673327
 10
8.7806345937
 20
-18.5594391891
 10
8.9696667129
 20
-18.4686629931
 10
9.1529258244
 20
-18.3667252433
 10
9.3297153254
 20
-18.2540170283
 10
9.499441514
 20
-18.1309207382
 10
9.6614792706
 20
-17.9978905843
 10
9.8152360437
 20
-17.8554184815
 10
9.9601763828
 20
-17.7040064704
 10
10.0958032773
 20
-17.5441732264
 10
10.2216340619
 20
-17.3764807452
 10
10.3372070203
 20
-17.2015369336
 10
10.4421045148
 20
-17.0199676925
  0
LINE
  5
256
100
AcDbEntity
  8
RACCORDO
100
AcDbLine
 62
250
  6
CONTINUOUS
 10
7.2374558033
 20
-16.7312680257
 11
7.0221953702
 21
-16.7379163976
  0
LINE
  5
257
100
AcDbEntity
  8
RACCORDO
100
AcDbLine
 62
250
  6
CONTINUOUS
 10
0.2942813972
 20
-17.7451048248
 11
0.224965661
 21
-17.7471374306
  0
LWPOLYLINE
  5
258
100
AcDbEntity
  8
RACCORDO
100
AcDbPolyline
 62
250
  6
CONTINUOUS
 90
13
 70
0
 10
7.3609117354
 20
-18.3504563439
 10
7.5143042499
 20
-18.3465008424
 10
7.666631925
 20
-18.3347910583
 10
7.8178947607
 20
-18.3153269918
 10
7.9684670883
 20
-18.2880490371
 10
8.1179745764
 20
-18.2530167999
 10
8.2652942314
 20
-18.2104090972
 10
8.4104716935
 20
-18.1601387102
 10
8.5534613224
 20
-18.1022928576
 10
8.6930032036
 20
-18.037312013
 10
8.8286773655
 20
-17.9653430007
 10
8.9609037797
 20
-17.8862389964
 10
9.0896824462
 20
-17.8
  0
LWPOLYLINE
  5
259
100
AcDbEntity
  8
RACCORDO
100
AcDbPolyline
 62
7
  6
CONTINUOUS
 90
19
 70
0
 10
9.1128811811
 20
-17.8000031111
 10
9.1859110985
 20
-17.7982777335
 10
9.2610945037
 20
-17.7928387915
 10
9.3382168802
 20
-17.7833583427
 10
9.4170411885
 20
-17.769510406
 10
9.4972674371
 20
-17.7509770428
 10
9.5785327039
 20
-17.7274584842
 10
9.660592403
 20
-17.698623299
 10
9.7429192491
 20
-17.6642339772
 10
9.8246971606
 20
-17.6242338457
 10
9.9055486056
 20
-17.5784347337
 10
9.9849240102
 20
-17.526751218
 10
10.0618021055
 20
-17.4694982093
 10
10.1357079102
 20
-17.4067584273
 10
10.2062169391
 20
-17.3386003124
 10
10.2725122408
 20
-17.2655471898
 10
10.3341046352
 20
-17.1879718431
 10
10.3907537349
 20
-17.1060140868
 10
10.4421045148
 20
-17.0199676925
  0
LINE
  5
25A
100
AcDbEntity
  8
RACCORDO
100
AcDbLine
 62
250
  6
CONTINUOUS
 10
0.224965661
 20
-17.7471374306
 11
0.1176048456
 21
-17.749762018
  0
LINE
  5
25B
100
AcDbEntity
  8
RACCORDO
100
AcDbLine
 62
250
  6
CONTINUOUS
 10
7.0221953702
 20
-16.7379163976
 11
6.772689624
 21
-16.7438277394
  0
LINE
  5
25C
100
AcDbEntity
  8
RACCORDO
100
AcDbLine
 62
250
  6
CONTINUOUS
 10
8.0663533899
 20
-17.7311097571
 11
7.7710892615
 21
-17.7377590008
  0
LINE
  5
25D
100
AcDbEntity
  8
RACCORDO
100
AcDbLine
 62
250
  6
CONTINUOUS
 10
0.1176048456
 20
-17.749762018
 11
-0.0383472626
 21
-17.7528260516
  0
LINE
  5
25E
100
AcDbEntity
  8
RACCORDO
100
AcDbLine
 62
250
  6
CONTINUOUS
 10
-6.297029697
 20
-18.3
 11
-6.097060158
 21
-18.2965095187
  0
LINE
  5
25F
100
AcDbEntity
  8
RACCORDO
100
AcDbLine
 62
250
  6
CONTINUOUS
 10
7.7483679195
 20
-16.6164907008
 11
8.2482724594
 21
-16.6078419577
  0
LINE
  5
260
100
AcDbEntity
  8
RACCORDO
100
AcDbLine
 62
250
  6
CONTINUOUS
 10
6.772689624
 20
-16.7438277394
 11
6.4932030179
 21
-16.7489266523
  0
LINE
  5
261
100
AcDbEntity
  8
RACCORDO
100
AcDbLine
 62
250
  6
CONTINUOUS
 10
7.7710892615
 20
-17.7377590008
 11
7.4296941146
 21
-17.7436712732
  0
LINE
  5
262
100
AcDbEntity
  8
RACCORDO
100
AcDbLine
 62
250
  6
CONTINUOUS
 10
-0.0383472626
 20
-17.7528260516
 11
-0.2555408061
 21
-17.7561256529
  0
LINE
  5
263
100
AcDbEntity
  8
RACCORDO
100
AcDbLine
 62
250
  6
CONTINUOUS
 10
6.4932030179
 20
-16.7489266523
 11
6.1884188053
 21
-16.7531102562
  0
LINE
  5
264
100
AcDbEntity
  8
RACCORDO
100
AcDbLine
 62
250
  6
CONTINUOUS
 10
7.4296941146
 20
-17.7436712732
 11
7.0465038171
 21
-17.7487711244
  0
LINE
  5
265
100
AcDbEntity
  8
RACCORDO
100
AcDbLine
 62
250
  6
CONTINUOUS
 10
-0.2555408061
 20
-17.7561256529
 11
-0.5076727221
 21
-17.7589939622
  0
LINE
  5
266
100
AcDbEntity
  8
RACCORDO
100
AcDbLine
 62
250
  6
CONTINUOUS
 10
7.0465038171
 20
-17.7487711244
 11
6.6284756009
 21
-17.752955661
  0
LINE
  5
267
100
AcDbEntity
  8
RACCORDO
100
AcDbLine
 62
250
  6
CONTINUOUS
 10
6.1884188053
 20
-16.7531102562
 11
5.8635150437
 21
-16.7563059588
  0
LINE
  5
268
100
AcDbEntity
  8
RACCORDO
100
AcDbLine
 62
250
  6
CONTINUOUS
 10
-0.5076727221
 20
-17.7589939622
 11
-0.79331698
 21
-17.761345103
  0
LINE
  5
269
100
AcDbEntity
  8
RACCORDO
100
AcDbLine
 62
250
  6
CONTINUOUS
 10
6.6284756009
 20
-17.752955661
 11
6.1838553838
 21
-17.7561522128
  0
LINE
  5
26A
100
AcDbEntity
  8
RACCORDO
100
AcDbLine
 62
250
  6
CONTINUOUS
 10
5.8635150437
 20
-16.7563059588
 11
5.523996427
 21
-16.7584734214
  0
LINE
  5
26B
100
AcDbEntity
  8
RACCORDO
100
AcDbLine
 62
250
  6
CONTINUOUS
 10
-0.79331698
 20
-17.761345103
 11
-1.1531353083
 21
-17.7632892029
  0
LINE
  5
26C
100
AcDbEntity
  8
RACCORDO
100
AcDbLine
 62
250
  6
CONTINUOUS
 10
6.1838553838
 20
-17.7561522128
 11
5.7182590398
 21
-17.7583203984
  0
LWPOLYLINE
  5
26D
100
AcDbEntity
  8
RACCORDO
100
AcDbPolyline
 62
250
  6
CONTINUOUS
 90
13
 70
0
 10
-7.5893541222
 20
-18.8528476001
 10
-7.5484911636
 20
-18.8527246755
 10
-7.5080230849
 20
-18.84705071
 10
-7.4687007585
 20
-18.8359309822
 10
-7.4312537981
 20
-18.8195718154
 10
-7.3963770202
 20
-18.7982767487
 10
-7.3647175527
 20
-18.7724409056
 10
-7.3368628271
 20
-18.7425436622
 10
-7.3133296789
 20
-18.7091397526
 10
-7.2945547583
 20
-18.6728489758
 10
-7.280886428
 20
-18.6343446957
 10
-7.2725782995
 20
-18.5943413473
 10
-7.2697845277
 20
-18.5535811801
  0
LINE
  5
26E
100
AcDbEntity
  8
RACCORDO
100
AcDbLine
 62
250
  6
CONTINUOUS
 10
5.523996427
 20
-16.7584734214
 11
5.1756073881
 21
-16.7595630413
  0
LINE
  5
26F
100
AcDbEntity
  8
RACCORDO
100
AcDbLine
 62
250
  6
CONTINUOUS
 10
-1.1531353083
 20
-17.7632892029
 11
-1.5458122501
 21
-17.764421534
  0
LINE
  5
270
100
AcDbEntity
  8
RACCORDO
100
AcDbLine
 62
250
  6
CONTINUOUS
 10
5.7182590398
 20
-17.7583203984
 11
5.2404394067
 21
-17.7594105556
  0
LINE
  5
271
100
AcDbEntity
  8
DRAFT
100
AcDbLine
 62
7
  6
CONTINUOUS
 10
-2.6296736104
 20
-19.5
 11
2.6296736104
 21
-19.5
  0
LINE
  5
272
100
AcDbEntity
  8
0
100
AcDbLine
 62
7
  6
CONTINUOUS
 10
-2.6299709938
 20
-19.4829629131
 11
2.6299709938
 21
-19.4829629131
  0
LINE
  5
273
100
AcDbEntity
  8
DRAFT
100
AcDbLine
 62
7
  6
CONTINUOUS
 10
-7.2084845302
 20
-19.1872686779
 11
-2.6351323559
 21
-19.1872686779
  0
LINE
  5
274
100
AcDbEntity
  8
DRAFT
100
AcDbLine
 62
7
  6
CONTINUOUS
 10
2.6351323559
 20
-19.1872686779
 11
7.2084845302
 21
-19.1872686779
  0
LINE
  5
275
100
AcDbEntity
  8
DRAFT
100
AcDbLine
 62
7
  6
CONTINUOUS
 10
6.0817405883
 20
-19.1741670785
 11
3.7447441394
 21
-19.1741670785
  0
LINE
  5
276
100
AcDbEntity
  8
DRAFT
100
AcDbLine
 62
7
  6
CONTINUOUS
 10
-3.7447441394
 20
-19.1741670785
 11
-6.0817405883
 21
-19.1741670785
  0
LINE
  5
277
100
AcDbEntity
  8
0
100
AcDbLine
 62
7
  6
CONTINUOUS
 10
-3.7432113602
 20
-19.1684466686
 11
-2.6354608953
 21
-19.1684466686
  0
LINE
  5
278
100
AcDbEntity
  8
0
100
AcDbLine
 62
7
  6
CONTINUOUS
 10
2.6354608953
 20
-19.1684466686
 11
3.7432113602
 21
-19.1684466686
  0
LINE
  5
279
100
AcDbEntity
  8
RACCORDO
100
AcDbLine
 62
7
  6
CONTINUOUS
 10
-4.0560295388
 20
-19.1527014887
 11
-3.7389924519
 21
-19.1527014887
  0
LINE
  5
27A
100
AcDbEntity
  8
RACCORDO
100
AcDbLine
 62
7
  6
CONTINUOUS
 10
3.7389924519
 20
-19.1527014887
 11
4.0560295388
 21
-19.1527014887
  0
LINE
  5
27B
100
AcDbEntity
  8
DRAFT
100
AcDbLine
 62
7
  6
CONTINUOUS
 10
-6.0823605712
 20
-19.138648283
 11
-4.5352269068
 21
-19.138648283
  0
LINE
  5
27C
100
AcDbEntity
  8
DRAFT
100
AcDbLine
 62
7
  6
CONTINUOUS
 10
4.5352269068
 20
-19.138648283
 11
6.0823605712
 21
-19.138648283
  0
LINE
  5
27D
100
AcDbEntity
  8
RACCORDO
100
AcDbLine
 62
7
  6
CONTINUOUS
 10
6.0824911037
 20
-19.1311700795
 11
4.4481349352
 21
-19.1311700795
  0
LINE
  5
27E
100
AcDbEntity
  8
RACCORDO
100
AcDbLine
 62
7
  6
CONTINUOUS
 10
-4.4481349352
 20
-19.1311700795
 11
-6.0824911037
 21
-19.1311700795
  0
LINE
  5
27F
100
AcDbEntity
  8
RACCORDO
100
AcDbLine
 62
7
  6
CONTINUOUS
 10
4.0497820624
 20
-19.1293855894
 11
3.7327449755
 21
-19.1293855894
  0
LINE
  5
280
100
AcDbEntity
  8
RACCORDO
100
AcDbLine
 62
7
  6
CONTINUOUS
 10
-3.7327449755
 20
-19.1293855894
 11
-4.0497820624
 21
-19.1293855894
  0
LINE
  5
281
100
AcDbEntity
  8
RACCORDO
100
AcDbLine
 62
7
  6
CONTINUOUS
 10
6.5171815971
 20
-19.1148356752
 11
6.2828066874
 21
-19.1148356752
  0
LINE
  5
282
100
AcDbEntity
  8
RACCORDO
100
AcDbLine
 62
7
  6
CONTINUOUS
 10
-6.2828066874
 20
-19.1148356752
 11
-6.5171815971
 21
-19.1148356752
  0
LINE
  5
283
100
AcDbEntity
  8
DRAFT
100
AcDbLine
 62
7
  6
CONTINUOUS
 10
-7.3830351795
 20
-19.0301850577
 11
-6.8830351795
 21
-19.0301850577
  0
LINE
  5
284
100
AcDbEntity
  8
DRAFT
100
AcDbLine
 62
7
  6
CONTINUOUS
 10
6.8830351795
 20
-19.0301850577
 11
7.3830351795
 21
-19.0301850577
  0
LINE
  5
285
100
AcDbEntity
  8
0
100
AcDbLine
 62
7
  6
CONTINUOUS
 10
-3.6980762114
 20
-19.0
 11
3.6980762114
 21
-19.0
  0
LINE
  5
286
100
AcDbEntity
  8
DRAFT
100
AcDbLine
 62
7
  6
CONTINUOUS
 10
7.4883145215
 20
-18.9877814546
 11
2.5
 21
-18.9877814546
  0
LINE
  5
287
100
AcDbEntity
  8
RACCORDO
100
AcDbLine
 62
7
  6
CONTINUOUS
 10
-5.4939254605
 20
-18.9877814546
 11
-2.5
 21
-18.9877814546
  0
LINE
  5
288
100
AcDbEntity
  8
RACCORDO
100
AcDbLine
 62
7
  6
CONTINUOUS
 10
-1.4669721784
 20
-18.9185155063
 11
1.4669721784
 21
-18.9185155063
  0
LINE
  5
289
100
AcDbEntity
  8
RACCORDO
100
AcDbLine
 62
250
  6
CONTINUOUS
 10
-5.4302289188
 20
-18.8603786685
 11
7.3609117354
 21
-18.8603786685
  0
LINE
  5
28A
100
AcDbEntity
  8
RACCORDO
100
AcDbLine
 62
250
  6
CONTINUOUS
 10
7.3609117354
 20
-18.3504563439
 11
-5.7284168375
 21
-18.3504563439
  0
LINE
  5
28B
100
AcDbEntity
  8
RACCORDO
100
AcDbLine
 62
250
  6
CONTINUOUS
 10
-7.5715717394
 20
-18.3429975542
 11
-7.2715831625
 21
-18.3429975542
  0
LINE
  5
28C
100
AcDbEntity
  8
RACCORDO
100
AcDbLine
 62
250
  6
CONTINUOUS
 10
-6.297029697
 20
-18.3
 11
-6.7171511361
 21
-18.3
  0
LINE
  5
28D
100
AcDbEntity
  8
DRAFT
100
AcDbLine
 62
7
  6
CONTINUOUS
 10
-7.2
 20
-18.0
 11
-5.8
 21
-18.0
  0
LINE
  5
28E
100
AcDbEntity
  8
RACCORDO
100
AcDbLine
 62
7
  6
CONTINUOUS
 10
-7.5715717394
 20
-17.9258216238
 11
-5.4284282606
 21
-17.9258216238
  0
LINE
  5
28F
100
AcDbEntity
  8
RACCORDO
100
AcDbLine
 62
7
  6
CONTINUOUS
 10
-9.1128811806
 20
-17.8000031106
 11
9.0896824462
 21
-17.8
  0
LINE
  5
290
100
AcDbEntity
  8
RACCORDO
100
AcDbLine
 62
250
  6
CONTINUOUS
 10
-1.5458122501
 20
-17.764421534
 11
-9.0776633073
 21
-17.7647852373
  0
LINE
  5
291
100
AcDbEntity
  8
RACCORDO
100
AcDbLine
 62
250
  6
CONTINUOUS
 10
0.6397166933
 20
-17.6076896529
 11
1.2563027746
 21
-17.6076896529
  0
LINE
  5
292
100
AcDbEntity
  8
RACCORDO
100
AcDbLine
 62
250
  6
CONTINUOUS
 10
8.7438532326
 20
-17.6076896529
 11
8.9205677229
 21
-17.6076896529
  0
LINE
  5
293
100
AcDbEntity
  8
RACCORDO
100
AcDbLine
 62
250
  6
CONTINUOUS
 10
0.6397166933
 20
-16.6078419577
 11
1.7518835479
 21
-16.6078419577
  0
LINE
  5
294
100
AcDbEntity
  8
RACCORDO
100
AcDbLine
 62
250
  6
CONTINUOUS
 10
8.2482724594
 20
-16.6078419577
 11
8.9205677229
 21
-16.6078419577
  0
LINE
  5
295
100
AcDbEntity
  8
RACCORDO
100
AcDbLine
 62
250
  6
CONTINUOUS
 10
2.2519393415
 20
-16.5991905864
 11
1.7519583799
 21
-16.5991905864
  0
LINE
  5
296
100
AcDbEntity
  8
RACCORDO
100
AcDbLine
 62
250
  6
CONTINUOUS
 10
7.7482166658
 20
-16.5991905864
 11
8.2481976273
 21
-16.5991905864
  0
LINE
  5
297
100
AcDbEntity
  8
RACCORDO
100
AcDbLine
 62
7
  6
CONTINUOUS
 10
2.2102159494
 20
-16.25
 11
7.7899400578
 21
-16.25
  0
LINE
  5
298
100
AcDbEntity
  8
RACCORDO
100
AcDbLine
 62
250
  6
CONTINUOUS
 10
0.1397928475
 20
-16.1079181119
 11
-0.8600548477
 21
-16.1079181084
  0
LINE
  5
299
100
AcDbEntity
  8
RACCORDO
100
AcDbLine
 62
250
  6
CONTINUOUS
 10
1.7519583799
 20
-15.95
 11
8.2481976273
 21
-15.95
  0
LINE
  5
29A
100
AcDbEntity
  8
RACCORDO
100
AcDbLine
 62
7
  6
CONTINUOUS
 10
9.0896824462
 20
-17.8
 11
9.1128811811
 21
-17.8000031111
  0
LINE
  5
29B
100
AcDbEntity
  8
RACCORDO
100
AcDbLine
 62
250
  6
CONTINUOUS
 10
5.2404394067
 20
-17.7594105556
 11
4.7595793774
 21
-17.7594103986
  0
LINE
  5
29C
100
AcDbEntity
  8
RACCORDO
100
AcDbLine
 62
250
  6
CONTINUOUS
 10
5.1756073881
 20
-16.7595630413
 11
4.8242464818
 21
-16.7595625899
  0
LINE
  5
29D
100
AcDbEntity
  8
RACCORDO
100
AcDbLine
 62
250
  6
CONTINUOUS
 10
-1.9827021297
 20
-16.7649375463
 11
-9.0776633073
 21
-16.7649375421
  0
LINE
  5
29E
100
AcDbEntity
  8
RACCORDO
100
AcDbLine
 62
250
  6
CONTINUOUS
 10
4.7595793774
 20
-17.7594103986
 11
4.2817502178
 21
-17.7583199026
  0
LINE
  5
29F
100
AcDbEntity
  8
RACCORDO
100
AcDbLine
 62
250
  6
CONTINUOUS
 10
4.8242464818
 20
-16.7595625899
 11
4.4758625988
 21
-16.7584720714
  0
LINE
  5
2A0
100
AcDbEntity
  8
RACCORDO
100
AcDbLine
 62
250
  6
CONTINUOUS
 10
4.2817502178
 20
-17.7583199026
 11
3.8161366418
 21
-17.7561512597
  0
LINE
  5
2A1
100
AcDbEntity
  8
RACCORDO
100
AcDbLine
 62
250
  6
CONTINUOUS
 10
4.4758625988
 20
-16.7584720714
 11
4.1363540819
 21
-16.7563037256
  0
LINE
  5
2A2
100
AcDbEntity
  8
RACCORDO
100
AcDbLine
 62
250
  6
CONTINUOUS
 10
3.8161366418
 20
-17.7561512597
 11
3.3715023648
 21
-17.7529541634
  0
LINE
  5
2A3
100
AcDbEntity
  8
RACCORDO
100
AcDbLine
 62
250
  6
CONTINUOUS
 10
3.3715023648
 20
-17.7529541634
 11
2.9534664961
 21
-17.7487690065
  0
LINE
  5
2A4
100
AcDbEntity
  8
RACCORDO
100
AcDbLine
 62
250
  6
CONTINUOUS
 10
4.1363540819
 20
-16.7563037256
 11
3.8114654373
 21
-16.7531071756
  0
LWPOLYLINE
  5
2A5
100
AcDbEntity
  8
RACCORDO
100
AcDbPolyline
 62
250
  6
CONTINUOUS
 90
46
 70
0
 10
-9.0776633073
 20
-16.7649375421
 10
-9.0896315143
 20
-16.7647943336
 10
-9.1015827395
 20
-16.7643653412
 10
-9.1135169829
 20
-16.7636505649
 10
-9.125442557
 20
-16.7626492039
 10
-9.1373511492
 20
-16.761362059
 10
-9.1492178224
 20
-16.7597915327
 10
-9.1610415088
 20
-16.7579369932
 10
-9.1728232761
 20
-16.7557990723
 10
-9.1845413904
 20
-16.753382068
 10
-9.1961943317
 20
-16.7506858623
 10
-9.2077836199
 20
-16.7477105734
 10
-9.2192920811
 20
-16.7444608534
 10
-9.230720213
 20
-16.7409362262
 10
-9.2420675178
 20
-16.7371371681
 10
-9.2533153279
 20
-16.7330697605
 10
-9.2644642508
 20
-16.7287332127
 10
-9.2755136788
 20
-16.7241283154
 10
-9.2864431215
 20
-16.7192635219
 10
-9.2972519128
 20
-16.7141384995
 10
-9.3079407186
 20
-16.7087535808
 10
-9.3184910462
 20
-16.7031182168
 10
-9.3289021717
 20
-16.6972323154
 10
-9.3391748188
 20
-16.6910959687
 10
-9.349292666
 20
-16.684718903
 10
-9.3592559437
 20
-16.6781004656
 10
-9.3690644215
 20
-16.6712413094
 10
-9.3787010864
 20
-16.6641531191
 10
-9.3881660192
 20
-16.6568351109
 10
-9.3974591392
 20
-16.6492880688
 10
-9.406563192
 20
-16.6415260298
 10
-9.4154773976
 20
-16.6335489057
 10
-9.4242025361
 20
-16.6253567849
 10
-9.4327236921
 20
-16.6169639691
 10
-9.4410402648
 20
-16.6083704327
 10
-9.4491528552
 20
-16.5995762014
 10
-9.4570483514
 20
-16.5905956535
 10
-9.4647266579
 20
-16.5814282135
 10
-9.4721878702
 20
-16.5720744569
 10
-9.4794191626
 20
-16.5625504884
 10
-9.4864203852
 20
-16.5528555607
 10
-9.493191688
 20
-16.5429904211
 10
-9.4997206955
 20
-16.532973416
 10
-9.5060032826
 20
-16.5228106611
 10
-9.5120435744
 20
-16.5124960408
 10
-9.517841571
 20
-16.5020295551
  0
LWPOLYLINE
  5
2A6
100
AcDbEntity
  8
RACCORDO
100
AcDbPolyline
 62
250
  6
CONTINUOUS
 90
46
 70
0
 10
-9.0776633073
 20
-17.7647852373
 10
-9.1135316889
 20
-17.7643490271
 10
-9.1493888678
 20
-17.7630547484
 10
-9.1852143028
 20
-17.7609024688
 10
-9.2209914124
 20
-17.7578923686
 10
-9.2566956611
 20
-17.7540256904
 10
-9.2922946735
 20
-17.7493056879
 10
-9.3277657249
 20
-17.743735646
 10
-9.3630908815
 20
-17.7373186541
 10
-9.3982452268
 20
-17.730059596
 10
-9.4332045061
 20
-17.7219641804
 10
-9.4679531059
 20
-17.7130367274
 10
-9.5024791801
 20
-17.7032805161
 10
-9.5367647197
 20
-17.6927005024
 10
-9.5707883034
 20
-17.6813031627
 10
-9.6045329628
 20
-17.6690940085
 10
-9.637981647
 20
-17.6560788405
 10
-9.6711127208
 20
-17.6422657057
 10
-9.7039026548
 20
-17.6276643231
 10
-9.7363314539
 20
-17.6122837565
 10
-9.7683818791
 20
-17.5961323444
 10
-9.8000350072
 20
-17.5792197546
 10
-9.8312712577
 20
-17.561556687
 10
-9.8620743971
 20
-17.543152562
 10
-9.8924307401
 20
-17.5240155307
 10
-9.922324167
 20
-17.5041554672
 10
-9.9517360678
 20
-17.4835844434
 10
-9.9806492544
 20
-17.462314266
 10
-10.0090483313
 20
-17.440355986
 10
-10.0369156296
 20
-17.4177229866
 10
-10.0642312292
 20
-17.3944314705
 10
-10.0909784551
 20
-17.3704959977
 10
-10.1171433403
 20
-17.3459294164
 10
-10.1427107737
 20
-17.3207462123
 10
-10.1676654612
 20
-17.2949618336
 10
-10.1919941502
 20
-17.2685903672
 10
-10.2156851768
 20
-17.2416446281
 10
-10.2387257069
 20
-17.2141391526
 10
-10.2611017962
 20
-17.1860905252
 10
-10.282800518
 20
-17.1575149651
 10
-10.303809908
 20
-17.1284282081
 10
-10.3241174892
 20
-17.0988475088
 10
-10.3437103169
 20
-17.0687919124
 10
-10.3625769159
 20
-17.038279434
 10
-10.3807071231
 20
-17.0073269357
 10
-10.3980907374
 20
-16.9759522173
  0
LINE
  5
2A7
100
AcDbEntity
  8
RACCORDO
100
AcDbLine
 62
250
  6
CONTINUOUS
 10
2.9534664961
 20
-17.7487690065
 11
2.5702749499
 21
-17.7436684767
  0
LINE
  5
2A8
100
AcDbEntity
  8
RACCORDO
100
AcDbLine
 62
250
  6
CONTINUOUS
 10
3.8114654373
 20
-16.7531071756
 11
3.5067009785
 21
-16.7489227686
  0
LINE
  5
2A9
100
AcDbEntity
  8
RACCORDO
100
AcDbLine
 62
250
  6
CONTINUOUS
 10
2.2517543684
 20
-16.6164901026
 11
1.7518835488
 21
-16.6078416688
  0
LINE
  5
2AA
100
AcDbEntity
  8
RACCORDO
100
AcDbLine
 62
250
  6
CONTINUOUS
 10
2.5702749499
 20
-17.7436684767
 11
2.228887485
 21
-17.7377555234
  0
LINE
  5
2AB
100
AcDbEntity
  8
RACCORDO
100
AcDbLine
 62
250
  6
CONTINUOUS
 10
3.5067009785
 20
-16.7489227686
 11
3.2272376874
 21
-16.7438230975
  0
LWPOLYLINE
  5
2AC
100
AcDbEntity
  8
RACCORDO
100
AcDbPolyline
 62
250
  6
CONTINUOUS
 90
11
 70
0
 10
2.228887485
 20
-17.7377555234
 10
1.933639732
 20
-17.7311056085
 10
1.8057043582
 20
-17.7275525193
 10
1.6907585629
 20
-17.7238474473
 10
1.5901709812
 20
-17.7200329164
 10
1.5040528752
 20
-17.7161010111
 10
1.4322929828
 20
-17.712059647
 10
1.375926153
 20
-17.7079750937
 10
1.3352973355
 20
-17.7038694415
 10
1.3100615806
 20
-17.6997206002
 10
1.3002188883
 20
-17.6955285698
  0
LINE
  5
2AD
100
AcDbEntity
  8
RACCORDO
100
AcDbLine
 62
250
  6
CONTINUOUS
 10
3.2272376874
 20
-16.7438230975
 11
2.9777600945
 21
-16.7379111019
  0
LWPOLYLINE
  5
2AE
100
AcDbEntity
  8
RACCORDO
100
AcDbPolyline
 62
250
  6
CONTINUOUS
 90
11
 70
0
 10
2.9777600945
 20
-16.7379111019
 10
2.7625315729
 20
-16.7312621756
 10
2.6690002096
 20
-16.7277094798
 10
2.5853546578
 20
-16.7240047628
 10
2.5118673456
 20
-16.7201906212
 10
2.4487903015
 20
-16.7162596368
 10
2.3965392693
 20
-16.7122192278
 10
2.3554877097
 20
-16.7081342445
 10
2.3257523975
 20
-16.7040263038
 10
2.3073193483
 20
-16.6998737888
 10
2.3001792829
 20
-16.6956766996
  0
LWPOLYLINE
  5
2AF
100
AcDbEntity
  8
RACCORDO
100
AcDbPolyline
 62
250
  6
CONTINUOUS
 90
22
 70
0
 10
0.5169219681
 20
-17.7305563955
 10
0.4048681858
 20
-17.7263245082
 10
0.2934408702
 20
-17.7137326832
 10
0.1832628539
 20
-17.6928512529
 10
0.0749499948
 20
-17.6637968883
 10
-0.0308922729
 20
-17.6267319404
 10
-0.1336723228
 20
-17.5818635315
 10
-0.2328156532
 20
-17.5294423997
 10
-0.3277680423
 20
-17.4697615232
 10
-0.4179986609
 20
-17.4031544866
 10
-0.5030031239
 20
-17.3299935725
 10
-0.5823062591
 20
-17.2506876988
 10
-0.6554647228
 20
-17.1656801747
 10
-0.722069542
 20
-17.0754461727
 10
-0.7817484111
 20
-16.9804900431
 10
-0.8341677309
 20
-16.881342529
 10
-0.8790344398
 20
-16.7785578697
 10
-0.9160977368
 20
-16.6727105542
 10
-0.9451504575
 20
-16.564392072
 10
-0.9660301412
 20
-16.4542078304
 10
-0.9786199814
 20
-16.3427737843
 10
-0.9828495291
 20
-16.2307128304
  0
LWPOLYLINE
  5
2B0
100
AcDbEntity
  8
RACCORDO
100
AcDbPolyline
 62
250
  6
CONTINUOUS
 90
19
 70
0
 10
8.699937119
 20
-17.6955285698
 10
8.6127921369
 20
-17.691711228
 10
8.5263104021
 20
-17.6803148147
 10
8.4411499733
 20
-17.6614260839
 10
8.3579588538
 20
-17.6351888008
 10
8.2773700493
 20
-17.6018026445
 10
8.1999967531
 20
-17.5615216842
 10
8.1264277
 20
-17.5146524558
 10
8.0572226685
 20
-17.4615516214
 10
7.9929082153
 20
-17.4026232443
 10
7.9339736999
 20
-17.3383157399
 10
7.8808675389
 20
-17.2691184475
 10
7.833993786
 20
-17.1955578884
 10
7.7937090905
 20
-17.1181938026
 10
7.7603199617
 20
-17.0376148659
 10
7.7340804317
 20
-16.9544341831
 10
7.7151901445
 20
-16.869284672
 10
7.7037928291
 20
-16.7828142502
 10
7.6999751959
 20
-16.6956808747
  0
LWPOLYLINE
  5
2B1
100
AcDbEntity
  8
RACCORDO
100
AcDbPolyline
 62
250
  6
CONTINUOUS
 90
19
 70
0
 10
8.7438532326
 20
-17.6076896529
 10
8.6531969914
 20
-17.6027241373
 10
8.5634508732
 20
-17.5895361202
 10
8.4753548999
 20
-17.5682732315
 10
8.3894084163
 20
-17.5390562167
 10
8.3065423279
 20
-17.5022138915
 10
8.2280273708
 20
-17.4584791179
 10
8.1545526451
 20
-17.4085357803
 10
8.0863831399
 20
-17.352872009
 10
8.0239600022
 20
-17.2921706002
 10
7.9676315607
 20
-17.2271353245
 10
7.9175650098
 20
-17.1583506474
 10
7.873844775
 20
-17.0863236506
 10
7.8366271085
 20
-17.0117196625
 10
7.8059579449
 20
-16.9350972713
 10
7.7817755509
 20
-16.8567398883
 10
7.7641066606
 20
-16.7771020324
 10
7.7529862372
 20
-16.696838287
 10
7.7483676416
 20
-16.6164907056
  0
LWPOLYLINE
  5
2B2
100
AcDbEntity
  8
RACCORDO
100
AcDbPolyline
 62
250
  6
CONTINUOUS
 90
13
 70
0
 10
-5.4302289188
 20
-18.8603786685
 10
-5.4693815118
 20
-18.8578070523
 10
-5.5078643227
 20
-18.850148121
 10
-5.5450190273
 20
-18.8375328956
 10
-5.5802100213
 20
-18.8201771844
 10
-5.6128352939
 20
-18.7983778909
 10
-5.6423367257
 20
-18.772507935
 10
-5.6682096367
 20
-18.743009873
 10
-5.6900114201
 20
-18.7103883274
 10
-5.7073691137
 20
-18.6752013536
 10
-5.7199857799
 20
-18.6380508937
 10
-5.7276455859
 20
-18.5995724796
 10
-5.7302174957
 20
-18.5604243599
  0
LWPOLYLINE
  5
2B3
100
AcDbEntity
  8
RACCORDO
100
AcDbPolyline
 62
250
  6
CONTINUOUS
 90
13
 70
0
 10
-7.5715717394
 20
-18.3429975431
 10
-7.7065587002
 20
-18.3304102467
 10
-7.8404738872
 20
-18.3117701056
 10
-7.9733173003
 20
-18.2870771199
 10
-8.1053773068
 20
-18.2562738475
 10
-8.2363655394
 20
-18.2194177305
 10
-8.3654168965
 20
-18.1766810948
 10
-8.4925258999
 20
-18.1280145321
 10
-8.6176980277
 20
-18.0734674507
 10
-8.740084613
 20
-18.0133604017
 10
-8.8594027666
 20
-17.9478002354
 10
-8.9759353777
 20
-17.8766801015
 10
-9.0896824462
 20
-17.8
  0
LWPOLYLINE
  5
2B4
100
AcDbEntity
  8
RACCORDO
100
AcDbPolyline
 62
250
  6
CONTINUOUS
 90
19
 70
0
 10
-7.5893541497
 20
-18.8529061162
 10
-7.7841440116
 20
-18.8346785154
 10
-7.9778315418
 20
-18.8055559575
 10
-8.1698047549
 20
-18.7655922145
 10
-8.3594901534
 20
-18.7148648565
 10
-8.5462434844
 20
-18.6535034644
 10
-8.7293583822
 20
-18.5817098351
 10
-8.9082510396
 20
-18.4996925109
 10
-9.0823468104
 20
-18.407694205
 10
-9.2509859278
 20
-18.3060532527
 10
-9.413604824
 20
-18.1951142869
 10
-9.5697224561
 20
-18.0752107456
 10
-9.7188412492
 20
-17.9467266534
 10
-9.8604825133
 20
-17.8100784702
 10
-9.9942091274
 20
-17.665692249
 10
-10.1196183066
 20
-17.51400222
 10
-10.2363168597
 20
-17.3554779052
 10
-10.3439265982
 20
-17.1906264466
 10
-10.4421045152
 20
-17.0199676929
  0
LWPOLYLINE
  5
2B5
100
AcDbEntity
  8
RACCORDO
100
AcDbPolyline
 62
250
  6
CONTINUOUS
 90
19
 70
0
 10
8.7438532326
 20
-17.6076896529
 10
8.6981375077
 20
-17.6019466194
 10
8.6535873793
 20
-17.5879766065
 10
8.6102028473
 20
-17.5659399807
 10
8.5675701968
 20
-17.5359733565
 10
8.5261031428
 20
-17.4984143772
 10
8.4870428298
 20
-17.453995754
 10
8.4506142327
 20
-17.4034081742
 10
8.4165923766
 20
-17.3471486558
 10
8.3855434816
 20
-17.2859001035
 10
8.3575805173
 20
-17.2203716052
 10
8.3325905141
 20
-17.1511521774
 10
8.3108007829
 20
-17.0787470996
 10
8.2922667339
 20
-17.0038254838
 10
8.276932957
 20
-16.926946236
 10
8.264860533
 20
-16.8483855239
 10
8.2560698222
 20
-16.7685958678
 10
8.2505404643
 20
-16.688234286
 10
8.2482724594
 20
-16.6078419577
  0
LINE
  5
2B6
100
AcDbEntity
  8
DRAFT
100
AcDbLine
 62
7
  6
CONTINUOUS
 10
7.3830351795
 20
-20.9
 11
7.2352506643
 21
-20.833660631
  0
LINE
  5
2B7
100
AcDbEntity
  8
RACCORDO
100
AcDbLine
 62
7
  6
CONTINUOUS
 10
-7.2
 20
-18.0
 11
-7.2715831625
 21
-17.9284168375
  0
LWPOLYLINE
  5
2B8
100
AcDbEntity
  8
RACCORDO
100
AcDbPolyline
 62
7
  6
CONTINUOUS
 90
10
 70
0
 10
-10.8696946922
 20
-17.1673849704
 10
-10.9125635292
 20
-17.1078013977
 10
-10.9506875837
 20
-17.0456811432
 10
-10.9840668556
 20
-16.9810242071
 10
-11.0128875837
 20
-16.9132918787
 10
-11.0369635292
 20
-16.8430228686
 10
-11.0557359763
 20
-16.7718333084
 10
-11.0690186861
 20
-16.7002619089
 10
-11.0769978975
 20
-16.6277699594
 10
-11.0796736104
 20
-16.5543574599
  0
LWPOLYLINE
  5
2B9
100
AcDbEntity
  8
RACCORDO
100
AcDbPolyline
 62
250
  6
CONTINUOUS
 90
10
 70
0
 10
-7.5077381197
 20
-18.9877284951
 10
-7.516812584
 20
-18.973352196
 10
-7.525887007
 20
-18.9588248405
 10
-7.5349603648
 20
-18.9441464721
 10
-7.544030399
 20
-18.9293171816
 10
-7.553097322
 20
-18.9143370025
 10
-7.5621638141
 20
-18.8992058301
 10
-7.5712300838
 20
-18.8839235971
 10
-7.580293871
 20
-18.8684903556
 10
-7.5893541497
 20
-18.8529061162
  0
LWPOLYLINE
  5
2BA
100
AcDbEntity
  8
RACCORDO
100
AcDbPolyline
 62
7
  6
CONTINUOUS
 90
16
 70
0
 10
-10.4421045152
 20
-17.0199676929
 10
-10.3798545209
 20
-17.1227036
 10
-10.3101321531
 20
-17.2194126534
 10
-10.2335710906
 20
-17.3096151013
 10
-10.1505536392
 20
-17.3931386791
 10
-10.0619878662
 20
-17.4693484989
 10
-9.9694887274
 20
-17.5373593464
 10
-9.8739359135
 20
-17.5971278238
 10
-9.7760684235
 20
-17.6487474451
 10
-9.6775005194
 20
-17.6920186025
 10
-9.5792259915
 20
-17.7272387416
 10
-9.4817177135
 20
-17.7549259702
 10
-9.3858031647
 20
-17.7755080156
 10
-9.2920975432
 20
-17.7895075817
 10
-9.2009935239
 20
-17.7974867581
 10
-9.1128811806
 20
-17.8000031106
  0
LWPOLYLINE
  5
2BB
100
AcDbEntity
  8
RACCORDO
100
AcDbPolyline
 62
250
  6
CONTINUOUS
 90
28
 70
0
 10
-10.3980907373
 20
-16.9759522172
 10
-10.4279185247
 20
-16.9193229664
 10
-10.4567051996
 20
-16.8621587097
 10
-10.4844411934
 20
-16.8044785902
 10
-10.5111148533
 20
-16.7463073575
 10
-10.5367199536
 20
-16.6876591407
 10
-10.5612546996
 20
-16.6285370063
 10
-10.5847136387
 20
-16.5689509797
 10
-10.6070841237
 20
-16.508929928
 10
-10.6283538282
 20
-16.4485052914
 10
-10.6485158315
 20
-16.3876958814
 10
-10.6675626685
 20
-16.3265233227
 10
-10.6854832496
 20
-16.2650239831
 10
-10.7022706812
 20
-16.2032244921
 10
-10.717921731
 20
-16.141139923
 10
-10.7324321616
 20
-16.0787896829
 10
-10.7457974374
 20
-16.0161959638
 10
-10.7580139458
 20
-15.953378618
 10
-10.7690790471
 20
-15.8903535628
 10
-10.7789892303
 20
-15.8271425745
 10
-10.7877415929
 20
-15.7637661566
 10
-10.7953343082
 20
-15.7002382881
 10
-10.8017645579
 20
-15.6365820577
 10
-10.8070303251
 20
-15.5728168482
 10
-10.8111304646
 20
-15.5089510377
 10
-10.8140629498
 20
-15.4450016111
 10
-10.8158256601
 20
-15.3809942181
 10
-10.8164171854
 20
-15.3169502523
  0
LWPOLYLINE
  5
2BC
100
AcDbEntity
  8
RACCORDO
100
AcDbPolyline
 62
250
  6
CONTINUOUS
 90
28
 70
0
 10
-9.517841571
 20
-16.5020295551
 10
-9.539156636
 20
-16.4615550337
 10
-9.5597147175
 20
-16.4207257552
 10
-9.5795158155
 20
-16.3795417195
 10
-9.5985646112
 20
-16.3379929859
 10
-9.6168564233
 20
-16.2960894951
 10
-9.6343772084
 20
-16.2538610694
 10
-9.651129045
 20
-16.2113007304
 10
-9.6671098546
 20
-16.1684154565
 10
-9.6822993585
 20
-16.1252560041
 10
-9.6966963888
 20
-16.0818208676
 10
-9.7103021134
 20
-16.0381115527
 10
-9.7230997564
 20
-15.9941833329
 10
-9.7350869862
 20
-15.9500398741
 10
-9.7462661344
 20
-15.9056775104
 10
-9.7566274199
 20
-15.8611405186
 10
-9.7661699444
 20
-15.8164297944
 10
-9.7748946062
 20
-15.771544442
 10
-9.7827943193
 20
-15.7265260503
 10
-9.7898684817
 20
-15.6813750833
 10
-9.7961176955
 20
-15.636091077
 10
-9.8015366808
 20
-15.5907142282
 10
-9.8061250017
 20
-15.5452443647
 10
-9.8098830942
 20
-15.4996816587
 10
-9.8128069864
 20
-15.4540668231
 10
-9.8148953546
 20
-15.408413429
 10
-9.8161495225
 20
-15.3627079054
 10
-9.8165694902
 20
-15.3169502523
  0
LINE
  5
2BD
100
AcDbEntity
  8
RACCORDO
100
AcDbLine
 62
250
  6
CONTINUOUS
 10
-10.0017445951
 20
-18.2308351883
 11
-10.0317940571
 21
-18.150052343
  0
LWPOLYLINE
  5
2BE
100
AcDbEntity
  8
RACCORDO
100
AcDbPolyline
 62
7
  6
CONTINUOUS
 90
10
 70
0
 10
-11.05
 20
-16.5441903035
 10
-11.0473211189
 20
-16.617644863
 10
-11.0393329498
 20
-16.6901769994
 10
-11.0260354928
 20
-16.7617867126
 10
-11.0072422902
 20
-16.8330132153
 10
-10.9831397996
 20
-16.9033172947
 10
-10.9542873938
 20
-16.9710813134
 10
-10.9208715303
 20
-17.0357660586
 10
-10.8827057516
 20
-17.0979107429
 10
-10.8397900577
 20
-17.1575153665
  0
LWPOLYLINE
  5
2BF
100
AcDbEntity
  8
RACCORDO
100
AcDbPolyline
 62
7
  6
CONTINUOUS
 90
10
 70
0
 10
-11.0796736104
 20
16.5543574599
 10
-11.0769978975
 20
16.6277699594
 10
-11.0690186861
 20
16.7002619089
 10
-11.0557359763
 20
16.7718333084
 10
-11.0369635292
 20
16.8430228686
 10
-11.0128875837
 20
16.9132918787
 10
-10.9840668556
 20
16.9810242071
 10
-10.9506875837
 20
17.0456811432
 10
-10.9125635292
 20
17.1078013977
 10
-10.8696946922
 20
17.1673849704
  0
LWPOLYLINE
  5
2C0
100
AcDbEntity
  8
RACCORDO
100
AcDbPolyline
 62
250
  6
CONTINUOUS
 90
7
 70
0
 10
-9.5453021388
 20
15.9067539923
 10
-9.5800613023
 20
15.7848825014
 10
-9.6085282516
 20
15.6619663186
 10
-9.6307029866
 20
15.5380054438
 10
-9.6465855073
 20
15.4129998771
 10
-9.6561758137
 20
15.2869496185
 10
-9.6594739059
 20
15.159854668
  0
LWPOLYLINE
  5
2C1
100
AcDbEntity
  8
RACCORDO
100
AcDbPolyline
 62
250
  6
CONTINUOUS
 90
7
 70
0
 10
-10.4994109373
 20
16.2054147
 10
-10.5480157272
 20
16.0352078789
 10
-10.5879503777
 20
15.8627737364
 10
-10.6191146959
 20
15.6885536157
 10
-10.6414309441
 20
15.5129932514
 10
-10.6548440262
 20
15.3365416275
 10
-10.6593216164
 20
15.1596498284
  0
LWPOLYLINE
  5
2C2
100
AcDbEntity
  8
RACCORDO
100
AcDbPolyline
 62
250
  6
CONTINUOUS
 90
6
 70
0
 10
-7.7
 20
16.6948842697
 10
-7.6996828097
 20
16.6959185782
 10
-7.6987311068
 20
16.6969504735
 10
-7.6971442639
 20
16.6979799557
 10
-7.6949218031
 20
16.6990070246
 10
-7.6920633968
 20
16.7000316804
  0
LWPOLYLINE
  5
2C3
100
AcDbEntity
  8
RACCORDO
100
AcDbPolyline
 62
7
  6
CONTINUOUS
 90
22
 70
0
 10
-9.6594739059
 20
12.5373006973
 10
-9.7540522356
 20
12.4049534247
 10
-9.8429684825
 20
12.2618926182
 10
-9.9256857783
 20
12.1081182779
 10
-10.0038177722
 20
11.9413656326
 10
-10.0751800819
 20
11.7638994535
 10
-10.1343520906
 20
11.5825140541
 10
-10.1811091977
 20
11.3975158169
 10
-10.2171925367
 20
11.2085983594
 10
-10.2409445282
 20
11.0216368487
 10
-10.2522511344
 20
10.8398936728
 10
-10.252251144
 20
10.6601064436
 10
-10.2409445294
 20
10.4783631643
 10
-10.2171924458
 20
10.291401326
 10
-10.1811089803
 20
10.1024834375
 10
-10.1343518233
 20
9.9174850289
 10
-10.0751799456
 20
9.7360999956
 10
-10.0038178664
 20
9.5586344421
 10
-9.9256860282
 20
9.3918822118
 10
-9.8429687422
 20
9.238107919
 10
-9.7540524126
 20
9.0950469493
 10
-9.6594739059
 20
8.9626993027
  0
LINE
  5
2C4
100
AcDbEntity
  8
0
100
AcDbLine
 62
7
  6
CONTINUOUS
 10
-5.4228919423
 20
16.3125312831
 11
-5.4731563952
 21
16.25
  0
LWPOLYLINE
  5
2C5
100
AcDbEntity
  8
RACCORDO
100
AcDbPolyline
 62
250
  6
CONTINUOUS
 90
6
 70
0
 10
-0.5517713814
 20
17.6955734444
 10
-0.5485491977
 20
17.6988546503
 10
-0.5454298114
 20
17.7020633356
 10
-0.542328048
 20
17.7052029908
 10
-0.5391919414
 20
17.7082736748
 10
-0.5330433203
 20
17.7142112666
  0
LWPOLYLINE
  5
2C6
100
AcDbEntity
  8
RACCORDO
100
AcDbPolyline
 62
250
  6
CONTINUOUS
 90
9
 70
0
 10
-10.7677528908
 20
6.2810624561
 10
-10.7646303338
 20
6.2842213141
 10
-10.7614150848
 20
6.2875450896
 10
-10.758108882
 20
6.29099553
 10
-10.7547064895
 20
6.2944802551
 10
-10.7512068265
 20
6.297935117
 10
-10.7476109738
 20
6.3014242637
 10
-10.743916938
 20
6.3050477592
 10
-10.7401250984
 20
6.3088553001
  0
LINE
  5
2C7
100
AcDbEntity
  8
RACCORDO
100
AcDbLine
 62
250
  6
CONTINUOUS
 10
-10.7401250984
 20
6.3088553001
 11
-10.7322437381
 21
6.3168244029
  0
LWPOLYLINE
  5
2C8
100
AcDbEntity
  8
RACCORDO
100
AcDbPolyline
 62
250
  6
CONTINUOUS
 90
5
 70
0
 10
-0.5272905861
 20
17.7198859157
 10
-0.5245537114
 20
17.7226280982
 10
-0.52191448
 20
17.7253091406
 10
-0.5193705678
 20
17.7279278989
 10
-0.5169219748
 20
17.7304843732
  0
LINE
  5
2C9
100
AcDbEntity
  8
RACCORDO
100
AcDbLine
 62
250
  6
CONTINUOUS
 10
-0.6397166926
 20
17.6076896529
 11
-0.5621398909
 21
17.6852912135
  0
LINE
  5
2CA
100
AcDbEntity
  8
RACCORDO
100
AcDbLine
 62
250
  6
CONTINUOUS
 10
-10.7322437381
 20
6.3168244029
 11
-10.659321601
 21
6.3897166767
  0
LINE
  5
2CB
100
AcDbEntity
  8
RACCORDO
100
AcDbLine
 62
250
  6
CONTINUOUS
 10
-0.5621398909
 20
17.6852912135
 11
-0.5517713814
 21
17.6955734444
  0
LINE
  5
2CC
100
AcDbEntity
  8
RACCORDO
100
AcDbLine
 62
250
  6
CONTINUOUS
 10
-0.5330433203
 20
17.7142112666
 11
-0.5272905861
 21
17.7198859157
  0
LWPOLYLINE
  5
2CD
100
AcDbEntity
  8
RACCORDO
100
AcDbPolyline
 62
250
  6
CONTINUOUS
 90
5
 70
0
 10
-10.7821163213
 20
6.2669219748
 10
-10.779403249
 20
6.2695444823
 10
-10.7766096732
 20
6.272271276
 10
-10.7737355937
 20
6.2751023561
 10
-10.7677528908
 20
6.2810624561
  0
LWPOLYLINE
  5
2CE
100
AcDbEntity
  8
0
100
AcDbPolyline
 62
7
  6
CONTINUOUS
 90
4
 70
0
 10
-4.8075282753
 20
16.25
 10
-4.8056473886
 20
16.2517547463
 10
-4.7659269912
 20
16.2862977316
 10
-4.7418348059
 20
16.3061066621
  0
LINE
  5
2CF
100
AcDbEntity
  8
0
100
AcDbLine
 62
7
  6
CONTINUOUS
 10
-4.807350531
 20
16.25
 11
-4.7418348059
 21
16.3061066621
  0
LWPOLYLINE
  5
2D0
100
AcDbEntity
  8
0
100
AcDbPolyline
 62
7
  6
CONTINUOUS
 90
8
 70
0
 10
-8.1610832831
 20
11.9827433043
 10
-8.1585366535
 20
11.9846055877
 10
-8.154011223
 20
11.9877883442
 10
-8.1495859481
 20
11.990830897
 10
-8.145246718
 20
11.9937239264
 10
-8.141000896
 20
11.9964555272
 10
-8.1369981629
 20
11.9989928388
 10
-8.1332325183
 20
12.0013260218
  0
LWPOLYLINE
  5
2D1
100
AcDbEntity
  8
RACCORDO
100
AcDbPolyline
 62
250
  6
CONTINUOUS
 90
12
 70
0
 10
-0.5169219748
 20
17.7304843732
 10
-0.5156364963
 20
17.7313169404
 10
-0.5132354464
 20
17.7321334602
 10
-0.5097188251
 20
17.7329339324
 10
-0.5050486433
 20
17.7337168667
 10
-0.4992628902
 20
17.7344837535
 10
-0.492475533
 20
17.7352390641
 10
-0.4847148431
 20
17.735982836
 10
-0.4759525492
 20
17.7367150317
 10
-0.4662178046
 20
17.7374400097
 10
-0.4555180758
 20
17.7381582937
 10
-0.4438458964
 20
17.73886936
  0
LWPOLYLINE
  5
2D2
100
AcDbEntity
  8
0
100
AcDbPolyline
 62
7
  6
CONTINUOUS
 90
3
 70
0
 10
-8.1332325183
 20
12.0013260218
 10
-8.1265620057
 20
12.0053180036
 10
-8.1238195193
 20
12.0069334791
  0
LWPOLYLINE
  5
2D3
100
AcDbEntity
  8
0
100
AcDbPolyline
 62
7
  6
CONTINUOUS
 90
5
 70
0
 10
-8.1238195193
 20
12.0069334791
 10
-8.1196044117
 20
12.0093472318
 10
-8.1182917777
 20
12.010106276
 10
-8.1174790325
 20
12.0105670836
 10
-8.1171651759
 20
12.0107280415
  0
LINE
  5
2D4
100
AcDbEntity
  8
DRAFT
100
AcDbLine
 62
7
  6
CONTINUOUS
 10
6.9176282065
 20
21.2139629885
 11
6.8532553098
 21
21.1802222394
  0
LINE
  5
2D5
100
AcDbEntity
  8
RACCORDO
100
AcDbLine
 62
250
  6
CONTINUOUS
 10
11.05
 20
16.5441903035
 11
11.0796736104
 21
16.5543574599
  0
LINE
  5
2D6
100
AcDbEntity
  8
RACCORDO
100
AcDbLine
 62
250
  6
CONTINUOUS
 10
10.8397900577
 20
17.1575153665
 11
10.8696946922
 21
17.1673849704
  0
LWPOLYLINE
  5
2D7
100
AcDbEntity
  8
0
100
AcDbPolyline
 62
7
  6
CONTINUOUS
 90
16
 70
0
 10
-1.5917202296
 20
12.0602126012
 10
-1.7322562219
 20
12.0156058782
 10
-1.9097288637
 20
11.9609273896
 10
-2.0824179256
 20
11.909419314
 10
-2.2496225417
 20
11.8612818487
 10
-2.4120435779
 20
11.8163147965
 10
-2.5717836307
 20
11.7739175649
 10
-2.7290670535
 20
11.7339679601
 10
-2.883669493
 20
11.696588176
 10
-3.0370204863
 20
11.6615442019
 10
-3.1892566894
 20
11.62875301
 10
-3.3402414462
 20
11.598297628
 10
-3.4909943262
 20
11.5701931287
 10
-3.6418551858
 20
11.5444445364
 10
-3.7924841685
 20
11.5210468269
 10
-3.9428812744
 20
11.5
  0
LINE
  5
2D8
100
AcDbEntity
  8
0
100
AcDbLine
 62
7
  6
CONTINUOUS
 10
6.6785859073
 20
-12.403207634
 11
7.9627755018
 21
-12.0451206601
  0
LINE
  5
2D9
100
AcDbEntity
  8
0
100
AcDbLine
 62
250
  6
CONTINUOUS
 10
7.9493456969
 20
-11.9969580155
 11
6.75
 21
-12.3313868826
  0
LWPOLYLINE
  5
2DA
100
AcDbEntity
  8
0
100
AcDbPolyline
 62
7
  6
CONTINUOUS
 90
16
 70
0
 10
-2.9734574435
 20
-11.9747474939
 10
-2.9383934976
 20
-11.9731038476
 10
-2.9054414278
 20
-11.9686258171
 10
-2.874601234
 20
-11.9613134024
 10
-2.8457767776
 20
-11.95101436
 10
-2.8190641973
 20
-11.9378809335
 10
-2.7947519089
 20
-11.9223698524
 10
-2.7729747306
 20
-11.9046597986
 10
-2.7535978443
 20
-11.8845720902
 10
-2.736505211
 20
-11.8620274125
 10
-2.721554175
 20
-11.8368702738
 10
-2.7088873922
 20
-11.8092561657
 10
-2.6988167904
 20
-11.7795722477
 10
-2.6914463458
 20
-11.7479475732
 10
-2.6866720823
 20
-11.7142530889
 10
-2.684494
 20
-11.6784887947
  0
LWPOLYLINE
  5
2DB
100
AcDbEntity
  8
0
100
AcDbPolyline
 62
7
  6
CONTINUOUS
 90
16
 70
0
 10
-3.1844562246
 20
-14.9102745793
 10
-3.1249482515
 20
-14.9088680946
 10
-3.0687554066
 20
-14.9032677362
 10
-3.0158776897
 20
-14.8934735041
 10
-2.9660470491
 20
-14.8792067499
 10
-2.9195315365
 20
-14.860746122
 10
-2.8771353079
 20
-14.8389275652
 10
-2.8391726362
 20
-14.8141391743
 10
-2.8053292483
 20
-14.7859928545
 10
-2.7754664809
 20
-14.7541602657
 10
-2.74935706
 20
-14.7183429324
 10
-2.7272282594
 20
-14.6788393301
 10
-2.7096232374
 20
-14.6362165449
 10
-2.6967230465
 20
-14.5906636057
 10
-2.688346634
 20
-14.5419914835
 10
-2.684494
 20
-14.4902001785
  0
LINE
  5
2DC
100
AcDbEntity
  8
RACCORDO
100
AcDbLine
 62
250
  6
CONTINUOUS
 10
-10.8164171854
 20
-15.3169502523
 11
-9.8165694902
 21
-15.3169502523
  0
LINE
  5
2DD
100
AcDbEntity
  8
0
100
AcDbLine
 62
7
  6
CONTINUOUS
 10
-3.684419
 20
-15.243636
 11
-3.536778
 21
-15.243636
  0
LINE
  5
2DE
100
AcDbEntity
  8
RACCORDO
100
AcDbLine
 62
250
  6
CONTINUOUS
 10
9.6594739059
 20
-15.159854668
 11
10.659321601
 21
-15.159854668
  0
LINE
  5
2DF
100
AcDbEntity
  8
0
100
AcDbLine
 62
7
  6
CONTINUOUS
 10
-3.536778
 20
-15.098759
 11
-3.684419
 21
-15.098759
  0
LINE
  5
2E0
100
AcDbEntity
  8
0
100
AcDbLine
 62
7
  6
CONTINUOUS
 10
-3.568833
 20
-14.220025
 11
-2.800079
 21
-14.220025
  0
LINE
  5
2E1
100
AcDbEntity
  8
0
100
AcDbLine
 62
7
  6
CONTINUOUS
 10
-2.684494
 20
-14.084939
 11
-3.684419
 21
-14.084939
  0
LINE
  5
2E2
100
AcDbEntity
  8
0
100
AcDbLine
 62
7
  6
CONTINUOUS
 10
-3.684419
 20
-13.866321
 11
-2.684494
 21
-13.866321
  0
LINE
  5
2E3
100
AcDbEntity
  8
DRAFT
100
AcDbLine
 62
7
  6
CONTINUOUS
 10
7.25
 20
-13.75
 11
2.75
 21
-13.75
  0
LINE
  5
2E4
100
AcDbEntity
  8
RACCORDO
100
AcDbLine
 62
250
  6
CONTINUOUS
 10
2.75
 20
-13.7376900647
 11
7.25
 21
-13.7376900647
  0
LINE
  5
2E5
100
AcDbEntity
  8
0
100
AcDbLine
 62
7
  6
CONTINUOUS
 10
-2.684494
 20
-13.735419
 11
-3.496714
 21
-13.735419
  0
LINE
  5
2E6
100
AcDbEntity
  8
RACCORDO
100
AcDbLine
 62
250
  6
CONTINUOUS
 10
2.75
 20
-13.4377357561
 11
7.25
 21
-13.4377357561
  0
LINE
  5
2E7
100
AcDbEntity
  8
0
100
AcDbLine
 62
7
  6
CONTINUOUS
 10
-3.684419
 20
-13.203441
 11
-2.872272
 21
-13.203441
  0
LINE
  5
2E8
100
AcDbEntity
  8
RACCORDO
100
AcDbLine
 62
250
  6
CONTINUOUS
 10
7.25
 20
-13.1622642439
 11
2.75
 21
-13.1622642439
  0
LINE
  5
2E9
100
AcDbEntity
  8
0
100
AcDbLine
 62
7
  6
CONTINUOUS
 10
-2.684494
 20
-13.072539
 11
-3.684419
 21
-13.072539
  0
LINE
  5
2EA
100
AcDbEntity
  8
0
100
AcDbLine
 62
7
  6
CONTINUOUS
 10
-3.684419
 20
-12.895687
 11
-3.564649
 21
-12.895687
  0
LINE
  5
2EB
100
AcDbEntity
  8
0
100
AcDbLine
 62
7
  6
CONTINUOUS
 10
-2.804264
 20
-12.885977
 11
-2.684494
 21
-12.885977
  0
LINE
  5
2EC
100
AcDbEntity
  8
RACCORDO
100
AcDbLine
 62
250
  6
CONTINUOUS
 10
7.25
 20
-12.8623099353
 11
2.75
 21
-12.8623099353
  0
LINE
  5
2ED
100
AcDbEntity
  8
DRAFT
100
AcDbLine
 62
7
  6
CONTINUOUS
 10
2.75
 20
-12.85
 11
7.25
 21
-12.85
  0
LINE
  5
2EE
100
AcDbEntity
  8
0
100
AcDbLine
 62
7
  6
CONTINUOUS
 10
-3.230446
 20
-12.840026
 11
-3.110676
 21
-12.840026
  0
LINE
  5
2EF
100
AcDbEntity
  8
0
100
AcDbLine
 62
7
  6
CONTINUOUS
 10
-3.564649
 20
-12.292653
 11
-3.230446
 21
-12.292653
  0
LINE
  5
2F0
100
AcDbEntity
  8
0
100
AcDbLine
 62
7
  6
CONTINUOUS
 10
-3.110676
 20
-12.292653
 11
-2.804264
 21
-12.292653
  0
LINE
  5
2F1
100
AcDbEntity
  8
0
100
AcDbLine
 62
7
  6
CONTINUOUS
 10
-2.684494
 20
-12.157567
 11
-3.684419
 21
-12.157567
  0
LWPOLYLINE
  5
2F2
100
AcDbEntity
  8
0
100
AcDbPolyline
 62
7
  6
CONTINUOUS
 90
16
 70
0
 10
-2.9520994068
 20
-11.8355497302
 10
-2.9948277234
 20
-11.8355493474
 10
-3.0149887431
 20
-11.8335341928
 10
-3.0339405028
 20
-11.8295316987
 10
-3.0517699643
 20
-11.8235268762
 10
-3.0683901656
 20
-11.8155347141
 10
-3.0835402208
 20
-11.8056001788
 10
-3.0972248391
 20
-11.7937070791
 10
-3.1094393111
 20
-11.7798716062
 10
-3.1199086231
 20
-11.7641872992
 10
-3.1284926261
 20
-11.7464369394
 10
-3.1353314691
 20
-11.7268377457
 10
-3.1405705846
 20
-11.7061349139
 10
-3.1442584504
 20
-11.684576843
 10
-3.1463465889
 20
-11.661915134
 10
-3.146835
 20
-11.6381497871
  0
LWPOLYLINE
  5
2F3
100
AcDbEntity
  8
0
100
AcDbPolyline
 62
7
  6
CONTINUOUS
 90
16
 70
0
 10
-3.1844562246
 20
-14.7712935167
 10
-3.2299828651
 20
-14.7703609829
 10
-3.2732291045
 20
-14.7666488646
 10
-3.3141949426
 20
-14.7601571616
 10
-3.353164607
 20
-14.7509985469
 10
-3.3898538703
 20
-14.7390603477
 10
-3.4234100496
 20
-14.7240045449
 10
-3.4537355536
 20
-14.7054302368
 10
-3.4809279737
 20
-14.6837383253
 10
-3.504427401
 20
-14.6597934967
 10
-3.5239700993
 20
-14.6338255564
 10
-3.5398198049
 20
-14.6056046991
 10
-3.5522078178
 20
-14.5753061957
 10
-3.5612112379
 20
-14.5429884697
 10
-3.5667529653
 20
-14.5085930975
 10
-3.568833
 20
-14.4721200792
  0
LINE
  5
2F4
100
AcDbEntity
  8
RACCORDO
100
AcDbLine
 62
250
  6
CONTINUOUS
 10
10.8696946922
 20
-17.1673849704
 11
10.8397900577
 21
-17.1575153665
  0
LINE
  5
2F5
100
AcDbEntity
  8
RACCORDO
100
AcDbLine
 62
250
  6
CONTINUOUS
 10
11.0796736104
 20
-16.5543574599
 11
11.05
 21
-16.5441903035
  0
LINE
  5
2F6
100
AcDbEntity
  8
DRAFT
100
AcDbLine
 62
7
  6
CONTINUOUS
 10
6.9176282065
 20
-21.2139629885
 11
6.8532553098
 21
-21.1802222394
  0
LWPOLYLINE
  5
2F7
100
AcDbEntity
  8
RACCORDO
100
AcDbPolyline
 62
7
  6
CONTINUOUS
 90
11
 70
0
 10
1.9564937303
 20
-16.1060341997
 10
1.9918666139
 20
-16.1317408522
 10
2.0252503392
 20
-16.155273127
 10
2.0564581316
 20
-16.176641953
 10
2.0854652221
 20
-16.1954300445
 10
2.1122103918
 20
-16.2116141805
 10
2.1366068516
 20
-16.2252175819
 10
2.1586141102
 20
-16.2358926268
 10
2.178213902
 20
-16.2435234411
 10
2.1954081894
 20
-16.2482258989
 10
2.2102159494
 20
-16.25
  0
LINE
  5
2F8
100
AcDbEntity
  8
RACCORDO
100
AcDbLine
 62
7
  6
CONTINUOUS
 10
2.5
 20
-18.9685808831
 11
2.4673008778
 21
-18.935881761
  0
LINE
  5
2F9
100
AcDbEntity
  8
RACCORDO
100
AcDbLine
 62
250
  6
CONTINUOUS
 10
-7.2035355246
 20
-18.6929124475
 11
-7.2182698897
 21
-18.6629964856
  0
LINE
  5
2FA
100
AcDbEntity
  8
RACCORDO
100
AcDbLine
 62
250
  6
CONTINUOUS
 10
-7.2182698897
 20
-18.6629964856
 11
-7.2329971892
 21
-18.6324851865
  0
LINE
  5
2FB
100
AcDbEntity
  8
RACCORDO
100
AcDbLine
 62
250
  6
CONTINUOUS
 10
-7.2329971892
 20
-18.6324851865
 11
-7.2477174231
 21
-18.6013767302
  0
LWPOLYLINE
  5
2FC
100
AcDbEntity
  8
RACCORDO
100
AcDbPolyline
 62
250
  6
CONTINUOUS
 90
3
 70
0
 10
-7.2477174231
 20
-18.6013767302
 10
-7.2624305916
 20
-18.5696638362
 10
-7.2697845263
 20
-18.5535811801
  0
LWPOLYLINE
  5
2FD
100
AcDbEntity
  8
RACCORDO
100
AcDbPolyline
 62
250
  6
CONTINUOUS
 90
22
 70
0
 10
-10.7821154901
 20
6.2669219756
 10
-10.7777765032
 20
6.1548783481
 10
-10.765088679
 20
6.0434746514
 10
-10.7441241638
 20
5.9333320252
 10
-10.7150014814
 20
5.8250652139
 10
-10.6778842318
 20
5.719276678
 10
-10.6329795676
 20
5.6165534447
 10
-10.5805385974
 20
5.5174678551
 10
-10.5208543624
 20
5.4225718334
 10
-10.4542586004
 20
5.3323918398
 10
-10.3811227032
 20
5.2474303806
 10
-10.3018544917
 20
5.1681608475
 10
-10.2168938814
 20
5.0950232518
 10
-10.1267141794
 20
5.028425502
 10
-10.0318178478
 20
4.9687390941
 10
-9.9327313335
 20
4.9162958908
 10
-9.8300065265
 20
4.8713890517
 10
-9.7242157665
 20
4.8342697827
 10
-9.6159461518
 20
4.8051453293
 10
-9.5058001967
 20
4.7841793968
 10
-9.3943926715
 20
4.7714906248
 10
-9.2823447777
 20
4.7671512632
  0
LWPOLYLINE
  5
2FE
100
AcDbEntity
  8
RACCORDO
100
AcDbPolyline
 62
250
  6
CONTINUOUS
 90
22
 70
0
 10
-9.6594739059
 20
6.3897166767
 10
-9.6580270434
 20
6.3520885554
 10
-9.653861527
 20
6.3150564183
 10
-9.6469773566
 20
6.2786202653
 10
-9.6373064499
 20
6.242576541
 10
-9.6249168893
 20
6.2071288008
 10
-9.6100129212
 20
6.172887711
 10
-9.5925514019
 20
6.1398789327
 10
-9.5725754751
 20
6.108076805
 10
-9.5504188195
 20
6.0780150116
 10
-9.5260443994
 20
6.0497238588
 10
-9.4994892504
 20
6.0231730404
 10
-9.4711981587
 20
5.9988053214
 10
-9.4411428128
 20
5.9766585935
 10
-9.4093515242
 20
5.9566949649
 10
-9.3763540126
 20
5.9392435247
 10
-9.3421249113
 20
5.9243456793
 10
-9.3066895869
 20
5.9119600224
 10
-9.2706538593
 20
5.9022914237
 10
-9.2342196683
 20
5.8954081733
 10
-9.1971850741
 20
5.8912419812
 10
-9.1595500767
 20
5.8897928475
  0
LWPOLYLINE
  5
2FF
100
AcDbEntity
  8
RACCORDO
100
AcDbPolyline
 62
250
  6
CONTINUOUS
 90
22
 70
0
 10
-10.659321601
 20
6.3897166767
 10
-10.6551117699
 20
6.2777198652
 10
-10.6425478822
 20
6.1663287397
 10
-10.6216955413
 20
6.0561659132
 10
-10.5926649697
 20
5.9478418409
 10
-10.555614869
 20
5.8419692934
 10
-10.5107559083
 20
5.7391584425
 10
-10.4583410216
 20
5.6399888784
 10
-10.3986609993
 20
5.5450106148
 10
-10.3320509291
 20
5.4547574609
 10
-10.2588843581
 20
5.3697351185
 10
-10.1795697523
 20
5.2904177657
 10
-10.0945497138
 20
5.2172480659
 10
-10.0042979363
 20
5.1506342602
 10
-9.9093204669
 20
5.0909503326
 10
-9.8101525007
 20
5.0385321368
 10
-9.707347356
 20
4.9936714786
 10
-9.6014817005
 20
4.9566193123
 10
-9.4931572389
 20
4.9275840965
 10
-9.3829834715
 20
4.9067257335
 10
-9.2715735018
 20
4.8941569851
 10
-9.1595500767
 20
4.8899451523
  0
LWPOLYLINE
  5
300
100
AcDbEntity
  8
RACCORDO
100
AcDbPolyline
 62
250
  6
CONTINUOUS
 90
6
 70
0
 10
-8.2019039505
 20
16.6585622962
 10
-8.2001704657
 20
16.6052350628
 10
-8.2001091477
 20
16.6026265136
 10
-8.2000614422
 20
16.6000163101
 10
-8.200027349
 20
16.5974044524
 10
-8.2000068683
 20
16.5947909404
  0
LWPOLYLINE
  5
301
100
AcDbEntity
  8
RACCORDO
100
AcDbPolyline
 62
250
  6
CONTINUOUS
 90
3
 70
0
 10
-7.5893557947
 20
-18.852873227
 10
-7.5894396792
 20
-18.849151657
 10
-7.5893155753
 20
-18.8400137029
  0
LINE
  5
302
100
AcDbEntity
  8
RACCORDO
100
AcDbLine
 62
250
  6
CONTINUOUS
 10
-9.8160095035
 20
2.8008163237
 11
-9.8179060815
 21
3.1141166931
  0
LWPOLYLINE
  5
303
100
AcDbEntity
  8
RACCORDO
100
AcDbPolyline
 62
250
  6
CONTINUOUS
 90
5
 70
0
 10
-9.8179060815
 20
3.1141166931
 10
-9.8185360501
 20
3.2735087649
 10
-9.8183797786
 20
3.4357585141
 10
-9.8177242803
 20
3.6003510643
 10
-9.8165695552
 20
3.7672864157
  0
LINE
  5
304
100
AcDbEntity
  8
0
100
AcDbLine
 62
7
  6
CONTINUOUS
 10
-11.15
 20
-21.8997711479
 11
-11.15
 21
21.8997711479
  0
LINE
  5
305
100
AcDbEntity
  8
RACCORDO
100
AcDbLine
 62
7
  6
CONTINUOUS
 10
-11.0796736104
 20
16.5543574599
 11
-11.0796736104
 21
-16.5543574599
  0
LINE
  5
306
100
AcDbEntity
  8
RACCORDO
100
AcDbLine
 62
7
  6
CONTINUOUS
 10
-11.05
 20
-16.5441903035
 11
-11.05
 21
16.5441903035
  0
LINE
  5
307
100
AcDbEntity
  8
RACCORDO
100
AcDbLine
 62
7
  6
CONTINUOUS
 10
-11.0
 20
15.500533067
 11
-11.0
 21
-15.500533067
  0
LINE
  5
308
100
AcDbEntity
  8
RACCORDO
100
AcDbLine
 62
250
  6
CONTINUOUS
 10
-10.659321601
 20
6.3897166767
 11
-10.659321601
 21
15.159649807
  0
LINE
  5
309
100
AcDbEntity
  8
RACCORDO
100
AcDbLine
 62
250
  6
CONTINUOUS
 10
-9.6594739059
 20
15.159854668
 11
-9.6594739059
 21
12.5372983794
  0
LINE
  5
30A
100
AcDbEntity
  8
RACCORDO
100
AcDbLine
 62
250
  6
CONTINUOUS
 10
-9.6594739059
 20
8.9627016206
 11
-9.6594739059
 21
6.3897166767
  0
LINE
  5
30B
100
AcDbEntity
  8
RACCORDO
100
AcDbLine
 62
7
  6
CONTINUOUS
 10
-9.65
 20
20.9
 11
-9.65
 21
18.2605978956
  0
LINE
  5
30C
100
AcDbEntity
  8
RACCORDO
100
AcDbLine
 62
7
  6
CONTINUOUS
 10
-9.65
 20
-18.2613774849
 11
-9.65
 21
-20.9
  0
LINE
  5
30D
100
AcDbEntity
  8
DRAFT
100
AcDbLine
 62
7
  6
CONTINUOUS
 10
-9.5103594806
 20
20.7603594806
 11
-9.5103594806
 21
18.3646046264
  0
LINE
  5
30E
100
AcDbEntity
  8
DRAFT
100
AcDbLine
 62
7
  6
CONTINUOUS
 10
-9.5103594806
 20
-18.364261819
 11
-9.5103594806
 21
-20.7603594806
  0
LINE
  5
30F
100
AcDbEntity
  8
RACCORDO
100
AcDbLine
 62
7
  6
CONTINUOUS
 10
-9.5
 20
2.7
 11
-9.5
 21
-9.7
  0
LINE
  5
310
100
AcDbEntity
  8
RACCORDO
100
AcDbLine
 62
250
  6
CONTINUOUS
 10
-9.1595500767
 20
5.8897928475
 11
-9.1595500767
 21
4.8899451523
  0
LINE
  5
311
100
AcDbEntity
  8
RACCORDO
100
AcDbLine
 62
250
  6
CONTINUOUS
 10
-9.0776633073
 20
-17.7647850836
 11
-9.0776633073
 21
-16.7649375421
  0
LINE
  5
312
100
AcDbEntity
  8
0
100
AcDbLine
 62
7
  6
CONTINUOUS
 10
-8.8
 20
11.5598789349
 11
-8.8
 21
9.9401210651
  0
LINE
  5
313
100
AcDbEntity
  8
0
100
AcDbLine
 62
7
  6
CONTINUOUS
 10
-8.65
 20
11.7980853263
 11
-8.65
 21
10.4166114973
  0
LINE
  5
314
100
AcDbEntity
  8
RACCORDO
100
AcDbLine
 62
7
  6
CONTINUOUS
 10
-8.65
 20
10.0
 11
-8.65
 21
10.4166114973
  0
LINE
  5
315
100
AcDbEntity
  8
RACCORDO
100
AcDbLine
 62
250
  6
CONTINUOUS
 10
-8.5911231504
 20
16.6078419577
 11
-8.591123166
 21
17.5666316165
  0
LINE
  5
316
100
AcDbEntity
  8
0
100
AcDbLine
 62
250
  6
CONTINUOUS
 10
-8.45
 20
12.022801792
 11
-8.45
 21
10.4166114973
  0
LINE
  5
317
100
AcDbEntity
  8
RACCORDO
100
AcDbLine
 62
250
  6
CONTINUOUS
 10
-8.2000068683
 20
16.5947909404
 11
-8.2
 21
15.95
  0
LINE
  5
318
100
AcDbEntity
  8
0
100
AcDbLine
 62
250
  6
CONTINUOUS
 10
-8.2
 20
10.0
 11
-8.2
 21
9.2815221434
  0
LINE
  5
319
100
AcDbEntity
  8
0
100
AcDbLine
 62
7
  6
CONTINUOUS
 10
-8.1999851216
 20
11.9947290652
 11
-8.1999854341
 21
11.999186601
  0
LINE
  5
31A
100
AcDbEntity
  8
0
100
AcDbLine
 62
7
  6
CONTINUOUS
 10
-8.0
 20
-18.964182451
 11
-8.0
 21
-18.9509188399
  0
LINE
  5
31B
100
AcDbEntity
  8
0
100
AcDbLine
 62
7
  6
CONTINUOUS
 10
-8.0
 20
18.9509188399
 11
-8.0
 21
18.964182451
  0
LINE
  5
31C
100
AcDbEntity
  8
RACCORDO
100
AcDbLine
 62
7
  6
CONTINUOUS
 10
-7.7
 20
16.6948841898
 11
-7.7
 21
16.25
  0
LINE
  5
31D
100
AcDbEntity
  8
0
100
AcDbLine
 62
7
  6
CONTINUOUS
 10
-7.6
 20
16.25
 11
-7.6
 21
16.2956020697
  0
LINE
  5
31E
100
AcDbEntity
  8
RACCORDO
100
AcDbLine
 62
250
  6
CONTINUOUS
 10
-7.5715717394
 20
-18.3429975431
 11
-7.5715717394
 21
-17.9258216238
  0
LINE
  5
31F
100
AcDbEntity
  8
RACCORDO
100
AcDbLine
 62
250
  6
CONTINUOUS
 10
-10.8164171854
 20
-15.3169502523
 11
-10.8164137177
 21
3.8110809752
  0
LINE
  5
320
100
AcDbEntity
  8
RACCORDO
100
AcDbLine
 62
250
  6
CONTINUOUS
 10
-9.8165694902
 20
-15.3169502523
 11
-9.8167392729
 21
2.3353074304
  0
LINE
  5
321
100
AcDbEntity
  8
RACCORDO
100
AcDbLine
 62
250
  6
CONTINUOUS
 10
-10.8164137177
 20
3.8110809752
 11
-10.8157967504
 21
4.3260216519
  0
LINE
  5
322
100
AcDbEntity
  8
RACCORDO
100
AcDbLine
 62
250
  6
CONTINUOUS
 10
-9.8167392729
 20
2.3353074304
 11
-9.8160095035
 21
2.8008163237
  0
LINE
  5
323
100
AcDbEntity
  8
RACCORDO
100
AcDbLine
 62
250
  6
CONTINUOUS
 10
-10.8157967504
 20
4.3260216519
 11
-10.8144117596
 21
4.7106858755
  0
LINE
  5
324
100
AcDbEntity
  8
RACCORDO
100
AcDbLine
 62
250
  6
CONTINUOUS
 10
-10.8144117596
 20
4.7106858755
 11
-10.8122600813
 21
5.054956003
  0
LINE
  5
325
100
AcDbEntity
  8
RACCORDO
100
AcDbLine
 62
250
  6
CONTINUOUS
 10
-10.8122600813
 20
5.054956003
 11
-10.8093831677
 21
5.3610013253
  0
LINE
  5
326
100
AcDbEntity
  8
RACCORDO
100
AcDbLine
 62
250
  6
CONTINUOUS
 10
-10.8093831677
 20
5.3610013253
 11
-10.8064418492
 21
5.588450462
  0
LWPOLYLINE
  5
327
100
AcDbEntity
  8
RACCORDO
100
AcDbPolyline
 62
250
  6
CONTINUOUS
 90
65
 70
0
 10
-9.8165701422
 20
3.7672864157
 10
-9.81624267
 20
3.7891895297
 10
-9.8153761319
 20
3.8108699981
 10
-9.8139705279
 20
3.8323180699
 10
-9.8119999636
 20
3.8534647175
 10
-9.8094903333
 20
3.8743614896
 10
-9.8065193206
 20
3.8951792789
 10
-9.803115434
 20
3.9159151465
 10
-9.799250165
 20
3.9365542761
 10
-9.7949156703
 20
3.9572471903
 10
-9.7901134287
 20
3.9779937997
 10
-9.7848419614
 20
3.9987725168
 10
-9.7790889899
 20
4.0196976907
 10
-9.7728628636
 20
4.0407629556
 10
-9.766155233
 20
4.0619462699
 10
-9.7589287705
 20
4.083333562
 10
-9.7511605416
 20
4.1049618502
 10
-9.7428734808
 20
4.1267553825
 10
-9.7340990642
 20
4.1486289456
 10
-9.7247991622
 20
4.1706198135
 10
-9.7150119042
 20
4.1926487615
 10
-9.7048831545
 20
4.2144638952
 10
-9.6943999746
 20
4.2360446457
 10
-9.6835753029
 20
4.2573836262
 10
-9.6725938187
 20
4.278264694
 10
-9.6614681933
 20
4.2986507768
 10
-9.6501857554
 20
4.3185704796
 10
-9.6388931705
 20
4.3379201021
 10
-9.6276163096
 20
4.356664377
 10
-9.6163293017
 20
4.374844481
 10
-9.6051011985
 20
4.3924766508
 10
-9.5939386362
 20
4.4095621082
 10
-9.5828349787
 20
4.4261076554
 10
-9.5718393691
 20
4.4421371702
 10
-9.5609570851
 20
4.4576540679
 10
-9.5501828491
 20
4.472664395
 10
-9.5395499716
 20
4.4871943922
 10
-9.5290635509
 20
4.5012464829
 10
-9.5187184888
 20
4.5148280605
 10
-9.5085328015
 20
4.5279703755
 10
-9.4985087386
 20
4.5406772105
 10
-9.4886440504
 20
4.5529532586
 10
-9.4789500049
 20
4.5648279835
 10
-9.4694276617
 20
4.576304484
 10
-9.4600759611
 20
4.5873861892
 10
-9.450902992
 20
4.5980996627
 10
-9.4419047238
 20
4.608452159
 10
-9.433085187
 20
4.6184402485
 10
-9.4244645627
 20
4.6280723103
 10
-9.4160392274
 20
4.6373557012
 10
-9.4078128046
 20
4.646286936
 10
-9.3998163462
 20
4.6548588534
 10
-9.3920517493
 20
4.6630753468
 10
-9.3845171168
 20
4.6709398029
 10
-9.3772378085
 20
4.6784466759
 10
-9.3702170149
 20
4.6856002506
 10
-9.3634515454
 20
4.6924068108
 10
-9.3569571886
 20
4.6988659291
 10
-9.3507493457
 20
4.7049679092
 10
-9.3448126154
 20
4.7107367742
 10
-9.339116582
 20
4.7162177515
 10
-9.3336498864
 20
4.7214184603
 10
-9.3284238876
 20
4.7263322491
 10
-9.3234422468
 20
4.7309745845
 10
-9.3186971591
 20
4.7353484901
  0
LINE
  5
328
100
AcDbEntity
  8
RACCORDO
100
AcDbLine
 62
250
  6
CONTINUOUS
 10
-10.8064418492
 20
5.588450462
 11
-10.8031122362
 21
5.7847090645
  0
LINE
  5
329
100
AcDbEntity
  8
RACCORDO
100
AcDbLine
 62
250
  6
CONTINUOUS
 10
-10.8031122362
 20
5.7847090645
 11
-10.8000681507
 21
5.9245329599
  0
LINE
  5
32A
100
AcDbEntity
  8
RACCORDO
100
AcDbLine
 62
250
  6
CONTINUOUS
 10
-10.8000681507
 20
5.9245329599
 11
-10.7975085738
 21
6.0192635812
  0
LINE
  5
32B
100
AcDbEntity
  8
RACCORDO
100
AcDbLine
 62
250
  6
CONTINUOUS
 10
-10.7975085738
 20
6.0192635812
 11
-10.7955541788
 21
6.0796377112
  0
LINE
  5
32C
100
AcDbEntity
  8
RACCORDO
100
AcDbLine
 62
250
  6
CONTINUOUS
 10
-10.7955541788
 20
6.0796377112
 11
-10.7942285938
 21
6.1151962547
  0
LINE
  5
32D
100
AcDbEntity
  8
RACCORDO
100
AcDbLine
 62
250
  6
CONTINUOUS
 10
-10.7942285938
 20
6.1151962547
 11
-10.7928775108
 21
6.1472463767
  0
LWPOLYLINE
  5
32E
100
AcDbEntity
  8
RACCORDO
100
AcDbPolyline
 62
250
  6
CONTINUOUS
 90
15
 70
0
 10
-10.7928775108
 20
6.1472463767
 10
-10.7914971751
 20
6.1758251112
 10
-10.7907977474
 20
6.1887380893
 10
-10.7900924037
 20
6.2007071508
 10
-10.7893812751
 20
6.211739394
 10
-10.7886659185
 20
6.2217984371
 10
-10.7879456837
 20
6.2308987769
 10
-10.787221221
 20
6.2390259166
 10
-10.7864960385
 20
6.2460999839
 10
-10.7857720657
 20
6.2520702121
 10
-10.7850473731
 20
6.2569873679
 10
-10.7843196804
 20
6.2609238793
 10
-10.7835882274
 20
6.2639038889
 10
-10.7828537744
 20
6.2659032541
 10
-10.7821163213
 20
6.2669219748
  0
LWPOLYLINE
  5
32F
100
AcDbEntity
  8
0
100
AcDbPolyline
 62
7
  6
CONTINUOUS
 90
19
 70
0
 10
-8.65
 20
10.4166114973
 10
-8.6491935677
 20
10.4221523609
 10
-8.6468065106
 20
10.4270487499
 10
-8.6428958887
 20
10.4313006644
 10
-8.6375368823
 20
10.434912603
 10
-8.6308027286
 20
10.4378800671
 10
-8.6227463912
 20
10.4401895602
 10
-8.6134493421
 20
10.4418370386
 10
-8.6029954451
 20
10.442826546
 10
-8.5914211365
 20
10.4431567174
 10
-8.5788115714
 20
10.4428266566
 10
-8.5652588971
 20
10.4418372597
 10
-8.5507924814
 20
10.4401898503
 10
-8.5355028158
 20
10.4378803612
 10
-8.51949909
 20
10.4349128596
 10
-8.5028324667
 20
10.43130087
 10
-8.4855982418
 20
10.4270489005
 10
-8.4679424284
 20
10.4221524429
 10
-8.45
 20
10.4166114973
  0
LWPOLYLINE
  5
330
100
AcDbEntity
  8
RACCORDO
100
AcDbPolyline
 62
250
  6
CONTINUOUS
 90
4
 70
0
 10
0.9828495497
 20
16.23071277
 10
0.9833639697
 20
16.2314630961
 10
0.9842235964
 20
16.2325451104
 10
0.9854098388
 20
16.2339588132
  0
LINE
  5
331
100
AcDbEntity
  8
RACCORDO
100
AcDbLine
 62
250
  6
CONTINUOUS
 10
0.9854098388
 20
16.2339588132
 11
0.9886791412
 21
16.2377955509
  0
LINE
  5
332
100
AcDbEntity
  8
RACCORDO
100
AcDbLine
 62
250
  6
CONTINUOUS
 10
0.9886791412
 20
16.2377955509
 11
0.9957017318
 21
16.2459092613
  0
LWPOLYLINE
  5
333
100
AcDbEntity
  8
RACCORDO
100
AcDbPolyline
 62
250
  6
CONTINUOUS
 90
67
 70
0
 10
0.9957017318
 20
16.2459092613
 10
1.0017617577
 20
16.2528057671
 10
1.0052030991
 20
16.2566875241
 10
1.0089347179
 20
16.2608465231
 10
1.0129587538
 20
16.265274647
 10
1.0172746791
 20
16.269980013
 10
1.0219050888
 20
16.2749743456
 10
1.0268560208
 20
16.2802581907
 10
1.0321303478
 20
16.2858310026
 10
1.0377528451
 20
16.2917028686
 10
1.0437381844
 20
16.2978797491
 10
1.0500867844
 20
16.3043556837
 10
1.0568049131
 20
16.311122879
 10
1.0639024178
 20
16.3181869107
 10
1.0713830999
 20
16.3255422032
 10
1.0792425425
 20
16.3331642353
 10
1.0874862756
 20
16.3410561834
 10
1.096118595
 20
16.3492148711
 10
1.1051301876
 20
16.3576062483
 10
1.1145209858
 20
16.3662298852
 10
1.1242964948
 20
16.3750862116
 10
1.1344534235
 20
16.3841424668
 10
1.1449846623
 20
16.3933920137
 10
1.1559000223
 20
16.4028414894
 10
1.1672225547
 20
16.4124780441
 10
1.1789524796
 20
16.4223002441
 10
1.191094865
 20
16.4323095231
 10
1.2036839177
 20
16.4424973326
 10
1.2167240466
 20
16.452865376
 10
1.2302192863
 20
16.4634119499
 10
1.2442076035
 20
16.4741233961
 10
1.2586993754
 20
16.4850064836
 10
1.2736952494
 20
16.4960544434
 10
1.2892217074
 20
16.5072333111
 10
1.3052887777
 20
16.5185509913
 10
1.3218971086
 20
16.5299995794
 10
1.3390601736
 20
16.541521397
 10
1.3567859026
 20
16.5531238195
 10
1.3750742047
 20
16.5647994715
 10
1.393925893
 20
16.5764685494
 10
1.413367717
 20
16.588149534
 10
1.4333766322
 20
16.5998239445
 10
1.4538736427
 20
16.6113565348
 10
1.4748711537
 20
16.6227553392
 10
1.4963478106
 20
16.6340123234
 10
1.5181635266
 20
16.6449681384
 10
1.5403146914
 20
16.6556164986
 10
1.5627812364
 20
16.6659636895
 10
1.5853865572
 20
16.6758692186
 10
1.6080930018
 20
16.6853133203
 10
1.6309023823
 20
16.6943157601
 10
1.6536889463
 20
16.7027953424
 10
1.6764061234
 20
16.710730049
 10
1.6990618363
 20
16.7181418981
 10
1.7216095284
 20
16.7250157483
 10
1.7440114598
 20
16.7313526268
 10
1.7662706309
 20
16.7371515064
 10
1.7884027559
 20
16.7423941636
 10
1.8103789919
 20
16.7470621903
 10
1.8321993323
 20
16.7511739945
 10
1.8539251264
 20
16.7547665769
 10
1.8755361968
 20
16.7578728132
 10
1.8970291148
 20
16.7604598276
 10
1.9184924798
 20
16.7624659933
 10
1.9399492761
 20
16.7638707682
 10
1.9613561836
 20
16.7646946944
 10
1.9827032387
 20
16.764937772
  0
LWPOLYLINE
  5
334
100
AcDbEntity
  8
RACCORDO
100
AcDbPolyline
 62
250
  6
CONTINUOUS
 90
3
 70
0
 10
-9.2823447529
 20
4.7671504597
 10
-9.2797222565
 20
4.7698635204
 10
-9.2769954712
 20
4.7726570874
  0
LINE
  5
335
100
AcDbEntity
  8
RACCORDO
100
AcDbLine
 62
250
  6
CONTINUOUS
 10
0.96063887
 20
16.2084428643
 11
0.9665764618
 21
16.2145914855
  0
LWPOLYLINE
  5
336
100
AcDbEntity
  8
RACCORDO
100
AcDbPolyline
 62
250
  6
CONTINUOUS
 90
6
 70
0
 10
0.9665764618
 20
16.2145914855
 10
0.9722511114
 20
16.2203442203
 10
0.9749932922
 20
16.2230810935
 10
0.9776743306
 20
16.2257203211
 10
0.9802930831
 20
16.2282642278
 10
0.9828495497
 20
16.2307128136
  0
LWPOLYLINE
  5
337
100
AcDbEntity
  8
RACCORDO
100
AcDbPolyline
 62
250
  6
CONTINUOUS
 90
12
 70
0
 10
-9.2769954712
 20
4.7726570874
 10
-9.2712364922
 20
4.778482258
 10
-9.2682042986
 20
4.7815138614
 10
-9.26504544
 20
4.784636419
 10
-9.2617216644
 20
4.7878516679
 10
-9.2582712238
 20
4.7911578709
 10
-9.2547864986
 20
4.7945602635
 10
-9.2513316367
 20
4.7980599264
 10
-9.2478424901
 20
4.801655779
 10
-9.2442189947
 20
4.8053498148
 10
-9.2404114539
 20
4.8091416543
 10
-9.2324423512
 20
4.8170230144
  0
LWPOLYLINE
  5
338
100
AcDbEntity
  8
RACCORDO
100
AcDbPolyline
 62
250
  6
CONTINUOUS
 90
6
 70
0
 10
0.937656409
 20
16.185494915
 10
0.9479386397
 20
16.1958634244
 10
0.9512198455
 20
16.1990856079
 10
0.9544285308
 20
16.2022049941
 10
0.957568186
 20
16.2053067575
 10
0.96063887
 20
16.2084428643
  0
LINE
  5
339
100
AcDbEntity
  8
RACCORDO
100
AcDbLine
 62
7
  6
CONTINUOUS
 10
5.8
 20
18.0
 11
5.7284168375
 21
17.9284168375
  0
LINE
  5
33A
100
AcDbEntity
  8
DRAFT
100
AcDbLine
 62
7
  6
CONTINUOUS
 10
9.65
 20
20.9
 11
9.5103594806
 21
20.7603594806
  0
LINE
  5
33B
100
AcDbEntity
  8
RACCORDO
100
AcDbLine
 62
250
  6
CONTINUOUS
 10
-9.2324423512
 20
4.8170230144
 11
-9.1595500767
 21
4.8899451523
  0
LINE
  5
33C
100
AcDbEntity
  8
RACCORDO
100
AcDbLine
 62
250
  6
CONTINUOUS
 10
0.8600548477
 20
16.1079181127
 11
0.937656409
 21
16.185494915
  0
LWPOLYLINE
  5
33D
100
AcDbEntity
  8
RACCORDO
100
AcDbPolyline
 62
250
  6
CONTINUOUS
 90
3
 70
0
 10
-9.3186971591
 20
4.7353484901
 10
-9.3099671336
 20
4.7432695184
 10
-9.3060119069
 20
4.7468142354
  0
LWPOLYLINE
  5
33E
100
AcDbEntity
  8
RACCORDO
100
AcDbPolyline
 62
250
  6
CONTINUOUS
 90
3
 70
0
 10
-9.3060119069
 20
4.7468142354
 10
-9.2989349258
 20
4.7530637419
 10
-9.2958241655
 20
4.7557676262
  0
LWPOLYLINE
  5
33F
100
AcDbEntity
  8
RACCORDO
100
AcDbPolyline
 62
250
  6
CONTINUOUS
 90
3
 70
0
 10
-9.2958241655
 20
4.7557676262
 10
-9.290518156
 20
4.7603190592
 10
-9.2866056067
 20
4.7637121613
  0
LWPOLYLINE
  5
340
100
AcDbEntity
  8
RACCORDO
100
AcDbPolyline
 62
250
  6
CONTINUOUS
 90
5
 70
0
 10
-9.2866056067
 20
4.7637121613
 10
-9.2851101089
 20
4.7649906672
 10
-9.2838946776
 20
4.7659925078
 10
-9.282972872
 20
4.7667131131
 10
-9.2823446919
 20
4.7671504597
  0
LINE
  5
341
100
AcDbEntity
  8
RACCORDO
100
AcDbLine
 62
250
  6
CONTINUOUS
 10
10.3980900503
 20
16.9759532708
 11
9.517841571
 21
16.5020295551
  0
LWPOLYLINE
  5
342
100
AcDbEntity
  8
RACCORDO
100
AcDbPolyline
 62
7
  6
CONTINUOUS
 90
10
 70
0
 10
-1.55
 20
10.4166114973
 10
-1.7067211963
 20
10.3667438457
 10
-1.8600837634
 20
10.3191800531
 10
-2.0100877012
 20
10.2739201196
 10
-2.1562808188
 20
10.2310903264
 10
-2.2991153071
 20
10.1905643923
 10
-2.4399477388
 20
10.1519634731
 10
-2.5792303046
 20
10.1151612874
 10
-2.7165108138
 20
10.0802841166
 10
-2.8517892662
 20
10.0473319608
  0
LWPOLYLINE
  5
343
100
AcDbEntity
  8
0
100
AcDbPolyline
 62
7
  6
CONTINUOUS
 90
16
 70
0
 10
-2.9734574435
 20
-8.4918662108
 10
-2.9383934976
 20
-8.4902225646
 10
-2.9054414278
 20
-8.4857445341
 10
-2.874601234
 20
-8.4784321193
 10
-2.8457767776
 20
-8.468133077
 10
-2.8190641973
 20
-8.4549996504
 10
-2.7947519089
 20
-8.4394885694
 10
-2.7729747306
 20
-8.4217785155
 10
-2.7535978443
 20
-8.4016908072
 10
-2.736505211
 20
-8.3791461294
 10
-2.721554175
 20
-8.3539889907
 10
-2.7088873922
 20
-8.3263748826
 10
-2.6988167904
 20
-8.2966909647
 10
-2.6914463458
 20
-8.2650662901
 10
-2.6866720823
 20
-8.2313718058
 10
-2.684494
 20
-8.1956075116
  0
LWPOLYLINE
  5
344
100
AcDbEntity
  8
RACCORDO
100
AcDbPolyline
 62
7
  6
CONTINUOUS
 90
10
 70
0
 10
3.3084889983
 20
-10.0
 10
3.2527054835
 20
-10.0005406376
 10
3.1981626674
 20
-10.0022532066
 10
3.1448605498
 20
-10.005137707
 10
3.0927736956
 20
-10.009183891
 10
3.0419275399
 20
-10.0144020063
 10
2.9923983886
 20
-10.0208227966
 10
2.9442116768
 20
-10.0284565097
 10
2.8973419694
 20
-10.0372928978
 10
2.8517892662
 20
-10.0473319608
  0
LINE
  5
345
100
AcDbEntity
  8
0
100
AcDbLine
 62
7
  6
CONTINUOUS
 10
6.0571187256
 20
-11.5
 11
5.6688458423
 21
-11.5
  0
LINE
  5
346
100
AcDbEntity
  8
0
100
AcDbLine
 62
7
  6
CONTINUOUS
 10
4.3311541577
 20
-11.5
 11
3.9428812744
 21
-11.5
  0
LINE
  5
347
100
AcDbEntity
  8
0
100
AcDbLine
 62
7
  6
CONTINUOUS
 10
-3.684419
 20
-11.363785
 11
-3.262422
 21
-11.363785
  0
LINE
  5
348
100
AcDbEntity
  8
0
100
AcDbLine
 62
7
  6
CONTINUOUS
 10
-3.146835
 20
-11.363785
 11
-2.800079
 21
-11.363785
  0
LINE
  5
349
100
AcDbEntity
  8
0
100
AcDbLine
 62
7
  6
CONTINUOUS
 10
-2.684494
 20
-11.228698
 11
-3.684419
 21
-11.228698
  0
LINE
  5
34A
100
AcDbEntity
  8
0
100
AcDbLine
 62
7
  6
CONTINUOUS
 10
-3.684419
 20
-10.600637
 11
-3.536778
 21
-10.600637
  0
LINE
  5
34B
100
AcDbEntity
  8
0
100
AcDbLine
 62
7
  6
CONTINUOUS
 10
-3.536778
 20
-10.455839
 11
-3.684419
 21
-10.455839
  0
LINE
  5
34C
100
AcDbEntity
  8
0
100
AcDbLine
 62
7
  6
CONTINUOUS
 10
-2.804264
 20
-10.315147
 11
-2.684494
 21
-10.315147
  0
LINE
  5
34D
100
AcDbEntity
  8
RACCORDO
100
AcDbLine
 62
250
  6
CONTINUOUS
 10
8.65
 20
-10.0473319608
 11
7.1482107338
 21
-10.0473319608
  0
LINE
  5
34E
100
AcDbEntity
  8
RACCORDO
100
AcDbLine
 62
250
  6
CONTINUOUS
 10
1.35
 20
-10.0473319608
 11
2.8517892662
 21
-10.0473319608
  0
LINE
  5
34F
100
AcDbEntity
  8
RACCORDO
100
AcDbLine
 62
7
  6
CONTINUOUS
 10
-9.2
 20
-10.0
 11
-4.8
 21
-10.0
  0
LINE
  5
350
100
AcDbEntity
  8
RACCORDO
100
AcDbLine
 62
7
  6
CONTINUOUS
 10
8.65
 20
-10.0
 11
5.6688458423
 21
-10.0
  0
LINE
  5
351
100
AcDbEntity
  8
RACCORDO
100
AcDbLine
 62
7
  6
CONTINUOUS
 10
4.3311541577
 20
-10.0
 11
3.3084889983
 21
-10.0
  0
LINE
  5
352
100
AcDbEntity
  8
RACCORDO
100
AcDbLine
 62
7
  6
CONTINUOUS
 10
1.35
 20
-10.0
 11
3.1685457686
 21
-10.0
  0
LINE
  5
353
100
AcDbEntity
  8
0
100
AcDbLine
 62
7
  6
CONTINUOUS
 10
-3.684419
 20
-9.976759
 11
-2.804264
 21
-9.976759
  0
LINE
  5
354
100
AcDbEntity
  8
0
100
AcDbLine
 62
7
  6
CONTINUOUS
 10
-2.804264
 20
-9.841673
 11
-3.684419
 21
-9.841673
  0
LINE
  5
355
100
AcDbEntity
  8
0
100
AcDbLine
 62
7
  6
CONTINUOUS
 10
-2.684494
 20
-9.503285
 11
-2.804264
 21
-9.503285
  0
LINE
  5
356
100
AcDbEntity
  8
DRAFT
100
AcDbLine
 62
7
  6
CONTINUOUS
 10
7.25
 20
-8.65
 11
2.75
 21
-8.65
  0
LINE
  5
357
100
AcDbEntity
  8
RACCORDO
100
AcDbLine
 62
250
  6
CONTINUOUS
 10
2.75
 20
-8.6376900647
 11
7.25
 21
-8.6376900647
  0
LINE
  5
358
100
AcDbEntity
  8
RACCORDO
100
AcDbLine
 62
250
  6
CONTINUOUS
 10
2.75
 20
-8.3377357561
 11
7.25
 21
-8.3377357561
  0
LINE
  5
359
100
AcDbEntity
  8
RACCORDO
100
AcDbLine
 62
250
  6
CONTINUOUS
 10
7.25
 20
-8.0622642439
 11
2.75
 21
-8.0622642439
  0
LINE
  5
35A
100
AcDbEntity
  8
0
100
AcDbLine
 62
7
  6
CONTINUOUS
 10
-3.684419
 20
-7.880903
 11
-3.262422
 21
-7.880903
  0
LINE
  5
35B
100
AcDbEntity
  8
0
100
AcDbLine
 62
7
  6
CONTINUOUS
 10
-3.146835
 20
-7.880903
 11
-2.800079
 21
-7.880903
  0
LINE
  5
35C
100
AcDbEntity
  8
RACCORDO
100
AcDbLine
 62
250
  6
CONTINUOUS
 10
7.25
 20
-7.7623099353
 11
2.75
 21
-7.7623099353
  0
LINE
  5
35D
100
AcDbEntity
  8
DRAFT
100
AcDbLine
 62
7
  6
CONTINUOUS
 10
2.75
 20
-7.75
 11
7.25
 21
-7.75
  0
LINE
  5
35E
100
AcDbEntity
  8
0
100
AcDbLine
 62
7
  6
CONTINUOUS
 10
-2.684494
 20
-7.745817
 11
-3.684419
 21
-7.745817
  0
LWPOLYLINE
  5
35F
100
AcDbEntity
  8
0
100
AcDbPolyline
 62
7
  6
CONTINUOUS
 90
16
 70
0
 10
-2.9520994068
 20
-8.3526684471
 10
-2.9948277234
 20
-8.3526680643
 10
-3.0149887431
 20
-8.3506529098
 10
-3.0339405028
 20
-8.3466504156
 10
-3.0517699643
 20
-8.3406455931
 10
-3.0683901656
 20
-8.332653431
 10
-3.0835402208
 20
-8.3227188957
 10
-3.0972248391
 20
-8.310825796
 10
-3.1094393111
 20
-8.2969903231
 10
-3.1199086231
 20
-8.2813060162
 10
-3.1284926261
 20
-8.2635556564
 10
-3.1353314691
 20
-8.2439564626
 10
-3.1405705846
 20
-8.2232536309
 10
-3.1442584504
 20
-8.2016955599
 10
-3.1463465889
 20
-8.1790338509
 10
-3.146835
 20
-8.1552685041
  0
LWPOLYLINE
  5
360
100
AcDbEntity
  8
0
100
AcDbPolyline
 62
7
  6
CONTINUOUS
 90
16
 70
0
 10
6.0571187256
 20
-11.5
 10
6.2076049022
 20
-11.521061077
 10
6.3583112719
 20
-11.5444726573
 10
6.5092378346
 20
-11.5702347409
 10
6.6600450844
 20
-11.5983530202
 10
6.8110725273
 20
-11.6288218029
 10
6.9633386808
 20
-11.6616240111
 10
7.116706944
 20
-11.6966765468
 10
7.2713139179
 20
-11.7340625081
 10
7.4285879232
 20
-11.7740141117
 10
7.5883049282
 20
-11.8164092031
 10
7.7506889645
 20
-11.8613699368
 10
7.9178404482
 20
-11.9094949933
 10
8.090459518
 20
-11.9609839327
 10
8.2678460353
 20
-12.0156371949
 10
8.4082799917
 20
-12.0602124102
  0
LWPOLYLINE
  5
361
100
AcDbEntity
  8
RACCORDO
100
AcDbPolyline
 62
7
  6
CONTINUOUS
 90
10
 70
0
 10
7.1482107338
 20
-10.0473319608
 10
7.1026580306
 20
-10.0372928978
 10
7.0557883232
 20
-10.0284565097
 10
7.0076016114
 20
-10.0208227966
 10
6.9580724601
 20
-10.0144020063
 10
6.9072263044
 20
-10.009183891
 10
6.8551394502
 20
-10.005137707
 10
6.8018373326
 20
-10.0022532066
 10
6.7472945165
 20
-10.0005406376
 10
6.6915110017
 20
-10.0
  0
LWPOLYLINE
  5
362
100
AcDbEntity
  8
RACCORDO
100
AcDbPolyline
 62
7
  6
CONTINUOUS
 90
10
 70
0
 10
7.1482107338
 20
-10.0473319608
 10
7.2834993209
 20
-10.0802867889
 10
7.420787152
 20
-10.115165932
 10
7.560074227
 20
-10.15196939
 10
7.700907983
 20
-10.1905708391
 10
7.8437409829
 20
-10.2310966031
 10
7.9899309156
 20
-10.2739256537
 10
8.1399303442
 20
-10.3191843149
 10
8.2932867057
 20
-10.3667462628
 10
8.45
 20
-10.4166114973
  0
LINE
  5
363
100
AcDbEntity
  8
0
100
AcDbLine
 62
7
  6
CONTINUOUS
 10
2.0372244982
 20
-12.0451206601
 11
3.3214140927
 21
-12.403207634
  0
LINE
  5
364
100
AcDbEntity
  8
0
100
AcDbLine
 62
250
  6
CONTINUOUS
 10
3.25
 20
-12.3313868826
 11
2.0506543031
 21
-11.9969580155
  0
LINE
  5
365
100
AcDbEntity
  8
0
100
AcDbLine
 62
7
  6
CONTINUOUS
 10
-3.684419
 20
-8.713688
 11
-3.393323
 21
-8.818141
  0
LINE
  5
366
100
AcDbEntity
  8
0
100
AcDbLine
 62
7
  6
CONTINUOUS
 10
-3.273554
 20
-8.859906
 11
-2.829524
 21
-9.021459
  0
LINE
  5
367
100
AcDbEntity
  8
0
100
AcDbLine
 62
7
  6
CONTINUOUS
 10
-2.684494
 20
-8.950464
 11
-3.684419
 21
-8.574416
  0
LINE
  5
368
100
AcDbEntity
  8
RACCORDO
100
AcDbLine
 62
250
  6
CONTINUOUS
 10
9.3607459866
 20
-16.3449339707
 11
10.2409766881
 21
-16.8188481155
  0
LWPOLYLINE
  5
369
100
AcDbEntity
  8
0
100
AcDbPolyline
 62
7
  6
CONTINUOUS
 90
3
 70
0
 10
3.2272551505
 20
-16.3070314949
 10
3.1806524636
 20
-16.2718140312
 10
3.1558732239
 20
-16.25
  0
LWPOLYLINE
  5
36A
100
AcDbEntity
  8
RACCORDO
100
AcDbPolyline
 62
7
  6
CONTINUOUS
 90
5
 70
0
 10
1.7519583799
 20
-15.95
 10
1.7960056917
 20
-15.9845735834
 10
1.8387649683
 20
-16.0174337902
 10
1.8799502663
 20
-16.0485806205
 10
1.9564937303
 20
-16.1060341997
  0
LINE
  5
36B
100
AcDbEntity
  8
0
100
AcDbLine
 62
250
  6
CONTINUOUS
 10
5.2135926316
 20
-16.3127462877
 11
5.135533374
 21
-16.25
  0
LWPOLYLINE
  5
36C
100
AcDbEntity
  8
RACCORDO
100
AcDbPolyline
 62
7
  6
CONTINUOUS
 90
13
 70
0
 10
9.7544171312
 20
-18.1756764551
 10
9.7629662223
 20
-18.1826884274
 10
9.7862089093
 20
-18.1970964203
 10
9.8106942517
 20
-18.2081142336
 10
9.83649245
 20
-18.2155541244
 10
9.8635333038
 20
-18.2196038355
 10
9.8903672408
 20
-18.2200566637
 10
9.9169678264
 20
-18.2167242019
 10
9.9433614952
 20
-18.2097948571
 10
9.9681779795
 20
-18.1996271471
 10
9.9909605232
 20
-18.1863405777
 10
10.0121658824
 20
-18.169815643
 10
10.0317940571
 20
-18.150052343
  0
LINE
  5
36D
100
AcDbEntity
  8
0
100
AcDbLine
 62
250
  6
CONTINUOUS
 10
2.7906208482
 20
-16.3027920643
 11
2.7275094007
 21
-16.25
  0
LINE
  5
36E
100
AcDbEntity
  8
DRAFT
100
AcDbLine
 62
7
  6
CONTINUOUS
 10
2.3001808114
 20
-16.2894765244
 11
2.269861224
 21
-16.2591569371
  0
LINE
  5
36F
100
AcDbEntity
  8
RACCORDO
100
AcDbLine
 62
250
  6
CONTINUOUS
 10
7.3609117354
 20
-18.8603786685
 11
7.4883145215
 21
-18.9877814546
  0
LINE
  5
370
100
AcDbEntity
  8
DRAFT
100
AcDbLine
 62
7
  6
CONTINUOUS
 10
9.5103594806
 20
-20.7603594806
 11
9.65
 21
-20.9
  0
LWPOLYLINE
  5
371
100
AcDbEntity
  8
RACCORDO
100
AcDbPolyline
 62
250
  6
CONTINUOUS
 90
6
 70
0
 10
-7.2697845263
 20
-18.5535811801
 10
-7.269976966
 20
-18.5519225623
 10
-7.270163073
 20
-18.5481513864
 10
-7.2703428474
 20
-18.5422676526
 10
-7.2705180465
 20
-18.5341647786
 10
-7.270686913
 20
-18.5239493465
  0
LINE
  5
372
100
AcDbEntity
  8
RACCORDO
100
AcDbLine
 62
7
  6
CONTINUOUS
 10
-7.7081182472
 20
16.7193879604
 11
-7.7033695539
 21
16.6742155015
  0
LWPOLYLINE
  5
373
100
AcDbEntity
  8
0
100
AcDbPolyline
 62
7
  6
CONTINUOUS
 90
16
 70
0
 10
-3.684419
 20
-14.4901969782
 10
-3.6805661212
 20
-14.5419897055
 10
-3.6721895252
 20
-14.5906628945
 10
-3.6592892118
 20
-14.6362165449
 10
-3.641684149
 20
-14.6788395672
 10
-3.6195553688
 20
-14.7183430509
 10
-3.5934459683
 20
-14.7541602657
 10
-3.5635832009
 20
-14.7859928545
 10
-3.5297398131
 20
-14.8141391743
 10
-3.4917771414
 20
-14.8389275652
 10
-3.4493809127
 20
-14.860746122
 10
-3.4028654002
 20
-14.8792067499
 10
-3.3530347595
 20
-14.8934735041
 10
-3.3001570427
 20
-14.9032677362
 10
-3.2439641977
 20
-14.9088680946
 10
-3.1844562246
 20
-14.9102745793
  0
LWPOLYLINE
  5
374
100
AcDbEntity
  8
0
100
AcDbPolyline
 62
7
  6
CONTINUOUS
 90
16
 70
0
 10
-3.262422
 20
-11.67848094
 10
-3.260243423
 20
-11.7142487251
 10
-3.2554687886
 20
-11.7479458277
 10
-3.2480980966
 20
-11.7795722477
 10
-3.2380274124
 20
-11.8092567475
 10
-3.2253606708
 20
-11.8368705647
 10
-3.2104096761
 20
-11.8620274125
 10
-3.1933170428
 20
-11.8845720902
 10
-3.1739401564
 20
-11.9046597986
 10
-3.1521629781
 20
-11.9223698524
 10
-3.1278506897
 20
-11.9378809335
 10
-3.1011381094
 20
-11.95101436
 10
-3.0723136531
 20
-11.9613134024
 10
-3.0414734593
 20
-11.9686258171
 10
-3.0085213894
 20
-11.9731038476
 10
-2.9734574435
 20
-11.9747474939
  0
LWPOLYLINE
  5
375
100
AcDbEntity
  8
0
100
AcDbPolyline
 62
7
  6
CONTINUOUS
 90
16
 70
0
 10
-3.262422
 20
-8.1955996569
 10
-3.260243423
 20
-8.2313674421
 10
-3.2554687886
 20
-8.2650645446
 10
-3.2480980966
 20
-8.2966909647
 10
-3.2380274124
 20
-8.3263754644
 10
-3.2253606708
 20
-8.3539892816
 10
-3.2104096761
 20
-8.3791461294
 10
-3.1933170428
 20
-8.4016908072
 10
-3.1739401564
 20
-8.4217785155
 10
-3.1521629781
 20
-8.4394885694
 10
-3.1278506897
 20
-8.4549996504
 10
-3.1011381094
 20
-8.468133077
 10
-3.0723136531
 20
-8.4784321193
 10
-3.0414734593
 20
-8.4857445341
 10
-3.0085213894
 20
-8.4902225646
 10
-2.9734574435
 20
-8.4918662108
  0
LINE
  5
376
100
AcDbEntity
  8
RACCORDO
100
AcDbLine
 62
7
  6
CONTINUOUS
 10
-7.7033695539
 20
16.6742155015
 11
-7.7004907921
 21
16.6235021732
  0
LINE
  5
377
100
AcDbEntity
  8
DRAFT
100
AcDbLine
 62
7
  6
CONTINUOUS
 10
-3.434596365
 20
-21.2139629885
 11
-3.3821231691
 21
-22.2
  0
LINE
  5
378
100
AcDbEntity
  8
RACCORDO
100
AcDbLine
 62
250
  6
CONTINUOUS
 10
-7.6924682889
 20
16.788108106
 11
-7.688547627
 21
16.7010539231
  0
LINE
  5
379
100
AcDbEntity
  8
RACCORDO
100
AcDbLine
 62
250
  6
CONTINUOUS
 10
-7.7039089777
 20
16.7832210188
 11
-7.6999985838
 21
16.6948839762
  0
LINE
  5
37A
100
AcDbEntity
  8
DRAFT
100
AcDbLine
 62
7
  6
CONTINUOUS
 10
-7.2352506643
 20
20.833660631
 11
-7.2084845302
 21
19.9483339502
  0
LWPOLYLINE
  5
37B
100
AcDbEntity
  8
RACCORDO
100
AcDbPolyline
 62
7
  6
CONTINUOUS
 90
6
 70
0
 10
-7.7004907921
 20
16.6235021732
 10
-7.7003410751
 20
16.6182915543
 10
-7.7002184454
 20
16.6130765685
 10
-7.7001229636
 20
16.607857356
 10
-7.7000546893
 20
16.6026340582
 10
-7.700013682
 20
16.5974068168
  0
LINE
  5
37C
100
AcDbEntity
  8
RACCORDO
100
AcDbLine
 62
250
  6
CONTINUOUS
 10
-6.719522293
 20
-18.0
 11
-6.7189442311
 21
-18.0324925101
  0
LINE
  5
37D
100
AcDbEntity
  8
RACCORDO
100
AcDbLine
 62
250
  6
CONTINUOUS
 10
-6.2828066874
 20
-19.1148356752
 11
-6.297029697
 21
-18.3
  0
LINE
  5
37E
100
AcDbEntity
  8
DRAFT
100
AcDbLine
 62
7
  6
CONTINUOUS
 10
-6.0817405883
 20
-19.1741670785
 11
-6.0823605712
 21
-19.138648283
  0
LINE
  5
37F
100
AcDbEntity
  8
RACCORDO
100
AcDbLine
 62
7
  6
CONTINUOUS
 10
-6.0824911037
 20
-19.1311700795
 11
-6.1022357509
 21
-18.0
  0
LINE
  5
380
100
AcDbEntity
  8
RACCORDO
100
AcDbLine
 62
250
  6
CONTINUOUS
 10
-6.297029697
 20
-18.3
 11
-6.3005222727
 21
-18.0
  0
LINE
  5
381
100
AcDbEntity
  8
RACCORDO
100
AcDbLine
 62
250
  6
CONTINUOUS
 10
-6.7189442311
 20
-18.0324925101
 11
-6.7180894321
 21
-18.0998749202
  0
LINE
  5
382
100
AcDbEntity
  8
RACCORDO
100
AcDbLine
 62
250
  6
CONTINUOUS
 10
-7.270686913
 20
-18.5239493465
 11
-7.2709894804
 21
-18.4980825071
  0
LINE
  5
383
100
AcDbEntity
  8
RACCORDO
100
AcDbLine
 62
7
  6
CONTINUOUS
 10
-5.8
 20
-18.2877814546
 11
-5.7964643385
 21
-18.6929281366
  0
LINE
  5
384
100
AcDbEntity
  8
RACCORDO
100
AcDbLine
 62
250
  6
CONTINUOUS
 10
-6.7180894321
 20
-18.0998749202
 11
-6.7173068848
 21
-18.2162232084
  0
LINE
  5
385
100
AcDbEntity
  8
RACCORDO
100
AcDbLine
 62
250
  6
CONTINUOUS
 10
-7.2709894804
 20
-18.4980825071
 11
-7.271428346
 21
-18.4275910996
  0
LINE
  5
386
100
AcDbEntity
  8
RACCORDO
100
AcDbLine
 62
250
  6
CONTINUOUS
 10
-6.5181197681
 20
-18.0
 11
-6.5173372745
 21
-18.1752415115
  0
LINE
  5
387
100
AcDbEntity
  8
RACCORDO
100
AcDbLine
 62
250
  6
CONTINUOUS
 10
-7.271428346
 20
-18.4275910996
 11
-7.2715831625
 21
-18.3429975542
  0
LINE
  5
388
100
AcDbEntity
  8
0
100
AcDbLine
 62
7
  6
CONTINUOUS
 10
-7.55
 20
12.1602201213
 11
-7.55
 21
12.4730606666
  0
LINE
  5
389
100
AcDbEntity
  8
DRAFT
100
AcDbLine
 62
7
  6
CONTINUOUS
 10
-7.3830351795
 20
20.9
 11
-7.3830351795
 21
19.0301850577
  0
LINE
  5
38A
100
AcDbEntity
  8
DRAFT
100
AcDbLine
 62
7
  6
CONTINUOUS
 10
-7.3830351795
 20
-19.0301850577
 11
-7.3830351795
 21
-20.9
  0
LINE
  5
38B
100
AcDbEntity
  8
RACCORDO
100
AcDbLine
 62
250
  6
CONTINUOUS
 10
-7.3609117354
 20
18.3504563439
 11
-7.3609117346
 21
18.8603786685
  0
LINE
  5
38C
100
AcDbEntity
  8
RACCORDO
100
AcDbLine
 62
7
  6
CONTINUOUS
 10
-7.2715831625
 20
-18.3429975542
 11
-7.2715831625
 21
-17.9284168375
  0
LINE
  5
38D
100
AcDbEntity
  8
RACCORDO
100
AcDbLine
 62
250
  6
CONTINUOUS
 10
-7.25
 20
7.75
 11
-7.25
 21
8.0622642439
  0
LINE
  5
38E
100
AcDbEntity
  8
RACCORDO
100
AcDbLine
 62
250
  6
CONTINUOUS
 10
-7.25
 20
8.3377357561
 11
-7.25
 21
8.65
  0
LINE
  5
38F
100
AcDbEntity
  8
RACCORDO
100
AcDbLine
 62
250
  6
CONTINUOUS
 10
-7.25
 20
12.85
 11
-7.25
 21
13.1622642439
  0
LINE
  5
390
100
AcDbEntity
  8
RACCORDO
100
AcDbLine
 62
250
  6
CONTINUOUS
 10
-7.25
 20
13.4377357561
 11
-7.25
 21
13.75
  0
LINE
  5
391
100
AcDbEntity
  8
DRAFT
100
AcDbLine
 62
7
  6
CONTINUOUS
 10
-7.2084845302
 20
19.9483339502
 11
-7.2084845302
 21
19.1872686779
  0
LINE
  5
392
100
AcDbEntity
  8
DRAFT
100
AcDbLine
 62
7
  6
CONTINUOUS
 10
-7.2084845302
 20
-19.1872686779
 11
-7.2084845302
 21
-19.9483339502
  0
LINE
  5
393
100
AcDbEntity
  8
DRAFT
100
AcDbLine
 62
7
  6
CONTINUOUS
 10
-7.2
 20
-18.2877814546
 11
-7.2
 21
-18.0
  0
LINE
  5
394
100
AcDbEntity
  8
RACCORDO
100
AcDbLine
 62
7
  6
CONTINUOUS
 10
-6.8830351795
 20
19.0301850577
 11
-6.8830351795
 21
18.9877814546
  0
LINE
  5
395
100
AcDbEntity
  8
RACCORDO
100
AcDbLine
 62
7
  6
CONTINUOUS
 10
-6.8830351795
 20
-18.0
 11
-6.8830351795
 21
-19.0301850577
  0
LINE
  5
396
100
AcDbEntity
  8
0
100
AcDbLine
 62
7
  6
CONTINUOUS
 10
-6.75
 20
12.3832943312
 11
-6.75
 21
11.6165008265
  0
LINE
  5
397
100
AcDbEntity
  8
0
100
AcDbLine
 62
7
  6
CONTINUOUS
 10
-6.75
 20
10.0
 11
-6.75
 21
9.0744716288
  0
LINE
  5
398
100
AcDbEntity
  8
RACCORDO
100
AcDbLine
 62
250
  6
CONTINUOUS
 10
-6.7171511361
 20
19.1131207627
 11
-6.7171511361
 21
18.9877814546
  0
LINE
  5
399
100
AcDbEntity
  8
RACCORDO
100
AcDbLine
 62
250
  6
CONTINUOUS
 10
-6.7173068848
 20
-18.2162232084
 11
-6.7171511361
 21
-19.1131207627
  0
LINE
  5
39A
100
AcDbEntity
  8
RACCORDO
100
AcDbLine
 62
250
  6
CONTINUOUS
 10
-6.5171815971
 20
19.1148356752
 11
-6.5171815971
 21
18.9877814546
  0
LINE
  5
39B
100
AcDbEntity
  8
RACCORDO
100
AcDbLine
 62
250
  6
CONTINUOUS
 10
-6.5173372745
 20
-18.1752415115
 11
-6.5171815971
 21
-19.1148356752
  0
LINE
  5
39C
100
AcDbEntity
  8
0
100
AcDbLine
 62
7
  6
CONTINUOUS
 10
-6.381939
 20
12.2679179173
 11
-6.381939
 21
11.5485057413
  0
LINE
  5
39D
100
AcDbEntity
  8
0
100
AcDbLine
 62
7
  6
CONTINUOUS
 10
-6.381939
 20
10.0
 11
-6.381939
 21
9.2320820827
  0
LINE
  5
39E
100
AcDbEntity
  8
DRAFT
100
AcDbLine
 62
7
  6
CONTINUOUS
 10
-5.8
 20
-18.0
 11
-5.8
 21
-18.2877814546
  0
LINE
  5
39F
100
AcDbEntity
  8
RACCORDO
100
AcDbLine
 62
7
  6
CONTINUOUS
 10
-5.7284168375
 20
-17.9284168375
 11
-5.7284168375
 21
-18.3504563439
  0
LINE
  5
3A0
100
AcDbEntity
  8
RACCORDO
100
AcDbLine
 62
7
  6
CONTINUOUS
 10
-4.5
 20
-9.7
 11
-4.5
 21
2.7
  0
LINE
  5
3A1
100
AcDbEntity
  8
ASSI
100
AcDbLine
 62
7
  6
CONTINUOUS
 10
-4.225046
 20
-5.407643
 11
-4.225041
 21
-5.869462
  0
LINE
  5
3A2
100
AcDbEntity
  8
ASSI
100
AcDbLine
 62
7
  6
CONTINUOUS
 10
-4.225051
 20
-2.229031
 11
-4.225046
 21
-2.639047
  0
LINE
  5
3A3
100
AcDbEntity
  8
ASSI
100
AcDbLine
 62
7
  6
CONTINUOUS
 10
-4.225051
 20
-0.748019
 11
-4.225046
 21
-1.158024
  0
LINE
  5
3A4
100
AcDbEntity
  8
ASSI
100
AcDbLine
 62
7
  6
CONTINUOUS
 10
-4.225051
 20
0.049641
 11
-4.225051
 21
-0.360374
  0
LINE
  5
3A5
100
AcDbEntity
  8
ASSI
100
AcDbLine
 62
7
  6
CONTINUOUS
 10
-4.225051
 20
-1.545674
 11
-4.225051
 21
-1.955689
  0
LINE
  5
3A6
100
AcDbEntity
  8
ASSI
100
AcDbLine
 62
7
  6
CONTINUOUS
 10
-4.225046
 20
-4.228837
 11
-4.225046
 21
-4.638858
  0
LINE
  5
3A7
100
AcDbEntity
  8
ASSI
100
AcDbLine
 62
7
  6
CONTINUOUS
 10
-4.225056
 20
0.869662
 11
-4.225051
 21
0.459646
  0
LINE
  5
3A8
100
AcDbEntity
  8
ASSI
100
AcDbLine
 62
7
  6
CONTINUOUS
 10
-4.225056
 20
2.211248
 11
-4.225051
 21
1.801218
  0
LINE
  5
3A9
100
AcDbEntity
  8
ASSI
100
AcDbLine
 62
7
  6
CONTINUOUS
 10
-4.225046
 20
-3.545475
 11
-4.225051
 21
-3.955495
  0
LINE
  5
3AA
100
AcDbEntity
  8
ASSI
100
AcDbLine
 62
7
  6
CONTINUOUS
 10
-3.821883
 20
-2.768489
 11
-3.821883
 21
-3.416038
  0
LINE
  5
3AB
100
AcDbEntity
  8
0
100
AcDbLine
 62
7
  6
CONTINUOUS
 10
-3.684419
 20
-7.745817
 11
-3.684419
 21
-7.880903
  0
LINE
  5
3AC
100
AcDbEntity
  8
0
100
AcDbLine
 62
7
  6
CONTINUOUS
 10
-3.684419
 20
-8.574416
 11
-3.684419
 21
-8.713688
  0
LINE
  5
3AD
100
AcDbEntity
  8
0
100
AcDbLine
 62
7
  6
CONTINUOUS
 10
-3.684419
 20
-9.318142
 11
-3.684419
 21
-9.465704
  0
LINE
  5
3AE
100
AcDbEntity
  8
0
100
AcDbLine
 62
7
  6
CONTINUOUS
 10
-3.684419
 20
-9.841673
 11
-3.684419
 21
-9.976759
  0
LINE
  5
3AF
100
AcDbEntity
  8
0
100
AcDbLine
 62
7
  6
CONTINUOUS
 10
-3.684419
 20
-10.455839
 11
-3.684419
 21
-10.600637
  0
LINE
  5
3B0
100
AcDbEntity
  8
0
100
AcDbLine
 62
7
  6
CONTINUOUS
 10
-3.684419
 20
-11.228698
 11
-3.684419
 21
-11.363785
  0
LINE
  5
3B1
100
AcDbEntity
  8
0
100
AcDbLine
 62
7
  6
CONTINUOUS
 10
-3.684419
 20
-12.157567
 11
-3.684419
 21
-12.895687
  0
LINE
  5
3B2
100
AcDbEntity
  8
0
100
AcDbLine
 62
7
  6
CONTINUOUS
 10
-3.684419
 20
-13.072539
 11
-3.684419
 21
-13.203441
  0
LINE
  5
3B3
100
AcDbEntity
  8
0
100
AcDbLine
 62
7
  6
CONTINUOUS
 10
-3.684419
 20
-13.714576
 11
-3.684419
 21
-13.866321
  0
LINE
  5
3B4
100
AcDbEntity
  8
0
100
AcDbLine
 62
7
  6
CONTINUOUS
 10
-3.684419
 20
-14.084939
 11
-3.684419
 21
-14.4901969782
  0
LINE
  5
3B5
100
AcDbEntity
  8
0
100
AcDbLine
 62
7
  6
CONTINUOUS
 10
-3.684419
 20
-15.098759
 11
-3.684419
 21
-15.243636
  0
LINE
  5
3B6
100
AcDbEntity
  8
0
100
AcDbLine
 62
7
  6
CONTINUOUS
 10
-3.618061
 20
12.2679179173
 11
-3.618061
 21
11.5485056746
  0
LINE
  5
3B7
100
AcDbEntity
  8
0
100
AcDbLine
 62
7
  6
CONTINUOUS
 10
-3.618061
 20
10.0
 11
-3.618061
 21
9.2320820827
  0
LINE
  5
3B8
100
AcDbEntity
  8
0
100
AcDbLine
 62
7
  6
CONTINUOUS
 10
-3.568833
 20
-14.4721200792
 11
-3.568833
 21
-14.220025
  0
LINE
  5
3B9
100
AcDbEntity
  8
0
100
AcDbLine
 62
7
  6
CONTINUOUS
 10
-3.564649
 20
-12.895687
 11
-3.564649
 21
-12.292653
  0
LINE
  5
3BA
100
AcDbEntity
  8
0
100
AcDbLine
 62
7
  6
CONTINUOUS
 10
-3.536778
 20
-15.243636
 11
-3.536778
 21
-15.098759
  0
LINE
  5
3BB
100
AcDbEntity
  8
0
100
AcDbLine
 62
7
  6
CONTINUOUS
 10
-3.536778
 20
-10.600637
 11
-3.536778
 21
-10.455839
  0
LINE
  5
3BC
100
AcDbEntity
  8
RACCORDO
100
AcDbLine
 62
250
  6
CONTINUOUS
 10
-5.4284282606
 20
-17.9258216238
 11
-5.4287710478
 21
-18.6473558524
  0
LINE
  5
3BD
100
AcDbEntity
  8
RACCORDO
100
AcDbLine
 62
250
  6
CONTINUOUS
 10
-5.7284168375
 20
-18.3504563439
 11
-5.7286577946
 21
-18.4544623171
  0
LINE
  5
3BE
100
AcDbEntity
  8
RACCORDO
100
AcDbLine
 62
250
  6
CONTINUOUS
 10
-5.4287710478
 20
-18.6473558524
 11
-5.4294951136
 21
-18.8136870823
  0
LINE
  5
3BF
100
AcDbEntity
  8
RACCORDO
100
AcDbLine
 62
250
  6
CONTINUOUS
 10
-5.7286577946
 20
-18.4544623171
 11
-5.7290114775
 21
-18.50523841
  0
LINE
  5
3C0
100
AcDbEntity
  8
RACCORDO
100
AcDbLine
 62
7
  6
CONTINUOUS
 10
-7.2
 20
-18.2877814546
 11
-7.2035355246
 21
-18.6929124475
  0
LWPOLYLINE
  5
3C1
100
AcDbEntity
  8
RACCORDO
100
AcDbPolyline
 62
250
  6
CONTINUOUS
 90
4
 70
0
 10
-5.4294951136
 20
-18.8136870823
 10
-5.4298503947
 20
-18.8476572663
 10
-5.4300365276
 20
-18.8567289348
 10
-5.4302289188
 20
-18.8603786685
  0
LWPOLYLINE
  5
3C2
100
AcDbEntity
  8
RACCORDO
100
AcDbPolyline
 62
250
  6
CONTINUOUS
 90
7
 70
0
 10
-5.7290114775
 20
-18.50523841
 10
-5.7293145359
 20
-18.5310247986
 10
-5.7294836857
 20
-18.5411999104
 10
-5.7296590929
 20
-18.5492596477
 10
-5.7298389698
 20
-18.555096593
 10
-5.7300251041
 20
-18.5588181637
 10
-5.7302174957
 20
-18.5604243599
  0
LINE
  5
3C3
100
AcDbEntity
  8
RACCORDO
100
AcDbLine
 62
250
  6
CONTINUOUS
 10
-6.2850244271
 20
18.9877814546
 11
-6.2828066874
 21
19.1148356752
  0
LINE
  5
3C4
100
AcDbEntity
  8
DRAFT
100
AcDbLine
 62
7
  6
CONTINUOUS
 10
-6.0823605712
 20
19.138648283
 11
-6.0817405883
 21
19.1741670785
  0
LINE
  5
3C5
100
AcDbEntity
  8
RACCORDO
100
AcDbLine
 62
7
  6
CONTINUOUS
 10
-6.0849939615
 20
18.9877814546
 11
-6.0824911037
 21
19.1311700795
  0
LINE
  5
3C6
100
AcDbEntity
  8
RACCORDO
100
AcDbLine
 62
250
  6
CONTINUOUS
 10
-7.5893155753
 20
-18.8400137029
 11
-7.5884656663
 21
-18.8059514457
  0
LINE
  5
3C7
100
AcDbEntity
  8
DRAFT
100
AcDbLine
 62
7
  6
CONTINUOUS
 10
-7.2352506643
 20
-20.833660631
 11
-7.2084845302
 21
-19.9483339502
  0
LINE
  5
3C8
100
AcDbEntity
  8
RACCORDO
100
AcDbLine
 62
250
  6
CONTINUOUS
 10
-7.5884656663
 20
-18.8059514457
 11
-7.5857457247
 21
-18.7185352484
  0
LINE
  5
3C9
100
AcDbEntity
  8
RACCORDO
100
AcDbLine
 62
250
  6
CONTINUOUS
 10
-7.5857457247
 20
-18.7185352484
 11
-7.5796899502
 21
-18.548101122
  0
LINE
  5
3CA
100
AcDbEntity
  8
RACCORDO
100
AcDbLine
 62
250
  6
CONTINUOUS
 10
-7.5796899502
 20
-18.548101122
 11
-7.5715717394
 21
-18.3429975542
  0
LINE
  5
3CB
100
AcDbEntity
  8
DRAFT
100
AcDbLine
 62
7
  6
CONTINUOUS
 10
-3.434596365
 20
21.2139629885
 11
-3.3821231691
 21
22.2
  0
LWPOLYLINE
  5
3CC
100
AcDbEntity
  8
RACCORDO
100
AcDbPolyline
 62
7
  6
CONTINUOUS
 90
19
 70
0
 10
-7.2035355246
 20
-18.6929124475
 10
-7.2055527851
 20
-18.7218602309
 10
-7.209856926
 20
-18.7495891096
 10
-7.2164479475
 20
-18.7760990835
 10
-7.2255127919
 20
-18.8014904175
 10
-7.2368645169
 20
-18.8256628468
 10
-7.2499422947
 20
-18.8483155765
 10
-7.2646736083
 20
-18.8693809001
 10
-7.2811309749
 20
-18.8889265241
 10
-7.2989711176
 20
-18.9068547736
 10
-7.3181257678
 20
-18.9231835905
 10
-7.3386631941
 20
-18.9378950329
 10
-7.360444926
 20
-18.9508375996
 10
-7.3837674238
 20
-18.962083572
 10
-7.4083342271
 20
-18.9715606686
 10
-7.4331174843
 20
-18.9789005439
 10
-7.4577745781
 20
-18.983980416
 10
-7.4826481258
 20
-18.9869230667
 10
-7.5077381273
 20
-18.9877284961
  0
LINE
  5
3CD
100
AcDbEntity
  8
RACCORDO
100
AcDbLine
 62
250
  6
CONTINUOUS
 10
-2.2952243081
 20
16.6967562441
 11
-2.2974388471
 21
16.6706510495
  0
LINE
  5
3CE
100
AcDbEntity
  8
0
100
AcDbLine
 62
250
  6
CONTINUOUS
 10
-2.0506543031
 20
11.9969580155
 11
-2.0372244982
 21
12.0451206601
  0
LINE
  5
3CF
100
AcDbEntity
  8
DRAFT
100
AcDbLine
 62
7
  6
CONTINUOUS
 10
3.0104834329
 20
22.1955695989
 11
2.700388948
 21
21.1802222394
  0
LINE
  5
3D0
100
AcDbEntity
  8
RACCORDO
100
AcDbLine
 62
250
  6
CONTINUOUS
 10
5.4302289188
 20
18.8603786685
 11
5.4939254605
 21
18.9877814546
  0
LWPOLYLINE
  5
3D1
100
AcDbEntity
  8
RACCORDO
100
AcDbPolyline
 62
7
  6
CONTINUOUS
 90
19
 70
0
 10
-0.1397928475
 20
9.2712201356
 10
-0.0626740081
 20
9.4141826109
 10
0.0067133817
 20
9.5639129212
 10
0.0681974975
 20
9.7204110663
 10
0.1227798754
 20
9.8855809663
 10
0.1695478042
 20
10.0575187011
 10
0.2057716115
 20
10.2305125113
 10
0.2309571673
 20
10.4030150248
 10
0.2462345032
 20
10.5765736136
 10
0.2513909468
 20
10.7501186342
 10
0.2462263564
 20
10.9236407459
 10
0.2309407632
 20
11.0971492894
 10
0.2057512374
 20
11.2696026434
 10
0.1695316252
 20
11.4425536261
 10
0.1227726069
 20
11.6144494192
 10
0.0681971258
 20
11.7795899471
 10
0.0067154339
 20
11.9360751847
 10
-0.0626718134
 20
12.0858051571
 10
-0.1397928475
 20
12.2287798644
  0
LINE
  5
3D2
100
AcDbEntity
  8
RACCORDO
100
AcDbLine
 62
250
  6
CONTINUOUS
 10
9.0776633073
 20
17.7647852373
 11
9.1128811806
 21
17.8000031106
  0
LINE
  5
3D3
100
AcDbEntity
  8
RACCORDO
100
AcDbLine
 62
250
  6
CONTINUOUS
 10
-2.4826211107
 20
4.767150432
 11
-2.3598263904
 21
4.8899451523
  0
LINE
  5
3D4
100
AcDbEntity
  8
RACCORDO
100
AcDbLine
 62
250
  6
CONTINUOUS
 10
10.4421045152
 20
17.0199676929
 11
10.3980907545
 21
16.9759521855
  0
LINE
  5
3D5
100
AcDbEntity
  8
RACCORDO
100
AcDbLine
 62
7
  6
CONTINUOUS
 10
0.982849568
 20
6.732849568
 11
0.8600548477
 21
6.6100548477
  0
LINE
  5
3D6
100
AcDbEntity
  8
RACCORDO
100
AcDbLine
 62
7
  6
CONTINUOUS
 10
0.3954586904
 20
6.1455153802
 11
-0.086156759
 21
5.6635474084
  0
LINE
  5
3D7
100
AcDbEntity
  8
RACCORDO
100
AcDbLine
 62
7
  6
CONTINUOUS
 10
1.1717231017
 20
6.9217906915
 11
1.8212527152
 21
7.5712527152
  0
LWPOLYLINE
  5
3D8
100
AcDbEntity
  8
RACCORDO
100
AcDbPolyline
 62
7
  6
CONTINUOUS
 90
3
 70
0
 10
1.8212527152
 20
7.5712527152
 10
1.8754867228
 20
7.6252463253
 10
1.9826972631
 20
7.7326972631
  0
LINE
  5
3D9
100
AcDbEntity
  8
RACCORDO
100
AcDbLine
 62
7
  6
CONTINUOUS
 10
0.5872435232
 20
6.337059719
 11
0.3954586904
 21
6.1455153802
  0
LINE
  5
3DA
100
AcDbEntity
  8
RACCORDO
100
AcDbLine
 62
7
  6
CONTINUOUS
 10
-0.086156759
 20
5.6635474084
 11
-0.1397928475
 21
5.6102071525
  0
LWPOLYLINE
  5
3DB
100
AcDbEntity
  8
RACCORDO
100
AcDbPolyline
 62
7
  6
CONTINUOUS
 90
3
 70
0
 10
1.0672124286
 20
6.8173367858
 10
1.1337064924
 20
6.8834520254
 10
1.1717231017
 20
6.9217906915
  0
LWPOLYLINE
  5
3DC
100
AcDbEntity
  8
RACCORDO
100
AcDbPolyline
 62
7
  6
CONTINUOUS
 90
3
 70
0
 10
0.7094523903
 20
6.4591979232
 10
0.6711137242
 20
6.421181314
 10
0.5872435232
 20
6.337059719
  0
LWPOLYLINE
  5
3DD
100
AcDbEntity
  8
RACCORDO
100
AcDbPolyline
 62
7
  6
CONTINUOUS
 90
7
 70
0
 10
0.8600548477
 20
6.6100548477
 10
0.8539239004
 20
6.6050404327
 10
0.8425223386
 20
6.5934164752
 10
0.8258501622
 20
6.5758501622
 10
0.8033442033
 20
6.5530606892
 10
0.7755676299
 20
6.5256919871
 10
0.7094523903
 20
6.4591979232
  0
LWPOLYLINE
  5
3DE
100
AcDbEntity
  8
RACCORDO
100
AcDbPolyline
 62
250
  6
CONTINUOUS
 90
31
 70
0
 10
9.9377357561
 20
-3.7876900647
 10
9.9519759533
 20
-3.7873475135
 10
9.9664492887
 20
-3.7863038359
 10
9.9811191067
 20
-3.7845229345
 10
9.9959742051
 20
-3.7819642943
 10
10.010940676
 20
-3.7785976773
 10
10.0258852074
 20
-3.774418278
 10
10.0407604618
 20
-3.7694107828
 10
10.0555167838
 20
-3.7635625635
 10
10.0700223287
 20
-3.7569032878
 10
10.0842306405
 20
-3.7494387987
 10
10.0980940051
 20
-3.7411781799
 10
10.1114909464
 20
-3.7321858477
 10
10.1243705844
 20
-3.7224980562
 10
10.1367094046
 20
-3.7121346758
 10
10.1484411995
 20
-3.701156489
 10
10.1595262342
 20
-3.6896126869
 10
10.1699507181
 20
-3.6775302497
 10
10.179694487
 20
-3.664943091
 10
10.1887328349
 20
-3.6518940725
 10
10.1970483441
 20
-3.6384200781
 10
10.2046318972
 20
-3.6245450863
 10
10.211465495
 20
-3.6103089072
 10
10.2175330153
 20
-3.5957527416
 10
10.2228263114
 20
-3.5809011029
 10
10.2273312293
 20
-3.5657952072
 10
10.2310358195
 20
-3.5504768898
 10
10.2339331759
 20
-3.5349708365
 10
10.2360136335
 20
-3.5193135546
 10
10.237267865
 20
-3.5035539969
 10
10.2376900647
 20
-3.4877357561
  0
LINE
  5
3DF
100
AcDbEntity
  8
ASSI
100
AcDbLine
 62
7
  6
CONTINUOUS
 10
-3.053097
 20
-4.633205
 11
-2.554219
 21
-4.6332
  0
LINE
  5
3E0
100
AcDbEntity
  8
ASSI
100
AcDbLine
 62
7
  6
CONTINUOUS
 10
-2.174954
 20
-4.228837
 11
-4.225046
 21
-4.228837
  0
LINE
  5
3E1
100
AcDbEntity
  8
RACCORDO
100
AcDbLine
 62
7
  6
CONTINUOUS
 10
9.6594739059
 20
-3.8
 11
0.1397928475
 21
-3.8
  0
LINE
  5
3E2
100
AcDbEntity
  8
RACCORDO
100
AcDbLine
 62
250
  6
CONTINUOUS
 10
0.0622642439
 20
-3.7876900647
 11
9.9377357561
 21
-3.7876900647
  0
LINE
  5
3E3
100
AcDbEntity
  8
ASSI
100
AcDbLine
 62
7
  6
CONTINUOUS
 10
-4.225046
 20
-4.638858
 11
-3.432362
 21
-4.638904
  0
LWPOLYLINE
  5
3E4
100
AcDbEntity
  8
RACCORDO
100
AcDbPolyline
 62
7
  6
CONTINUOUS
 90
16
 70
0
 10
0.0498836149
 20
-3.8000706936
 10
0.0188824436
 20
-3.798531719
 10
-0.0119425451
 20
-3.7937938649
 10
-0.0422535374
 20
-3.7858646562
 10
-0.0717472804
 20
-3.7747763127
 10
-0.1000458614
 20
-3.7606136307
 10
-0.1267179895
 20
-3.7435483085
 10
-0.151451377
 20
-3.7237736108
 10
-0.1739781294
 20
-3.7014932677
 10
-0.1939921105
 20
-3.6769855121
 10
-0.211292877
 20
-3.6505010425
 10
-0.2256748937
 20
-3.622364836
 10
-0.2369280809
 20
-3.593032775
 10
-0.244968345
 20
-3.5628958806
 10
-0.2497879799
 20
-3.5322514563
 10
-0.2513909492
 20
-3.5014366406
  0
LINE
  5
3E5
100
AcDbEntity
  8
ASSI
100
AcDbLine
 62
7
  6
CONTINUOUS
 10
-4.225046
 20
-2.639047
 11
-3.821883
 21
-2.768489
  0
LINE
  5
3E6
100
AcDbEntity
  8
ASSI
100
AcDbLine
 62
7
  6
CONTINUOUS
 10
-3.432368
 20
-2.893554
 11
-2.813452
 21
-3.092256
  0
LINE
  5
3E7
100
AcDbEntity
  8
RACCORDO
100
AcDbLine
 62
250
  6
CONTINUOUS
 10
9.1128811811
 20
-17.8000031111
 11
8.9205677229
 21
-17.6076896529
  0
LINE
  5
3E8
100
AcDbEntity
  8
RACCORDO
100
AcDbLine
 62
250
  6
CONTINUOUS
 10
10.2410072676
 20
-16.8188341385
 11
10.4421045148
 21
-17.0199676925
  0
LINE
  5
3E9
100
AcDbEntity
  8
RACCORDO
100
AcDbLine
 62
250
  6
CONTINUOUS
 10
1.3002188883
 20
-17.6955285698
 11
1.2563027746
 21
-17.6076896529
  0
LINE
  5
3EA
100
AcDbEntity
  8
RACCORDO
100
AcDbLine
 62
250
  6
CONTINUOUS
 10
2.3001792772
 20
-16.6956778061
 11
2.2519393415
 21
-16.5991905864
  0
LINE
  5
3EB
100
AcDbEntity
  8
DRAFT
100
AcDbLine
 62
7
  6
CONTINUOUS
 10
2.700388948
 20
-21.1802222394
 11
3.0104834329
 21
-22.1955695989
  0
LINE
  5
3EC
100
AcDbEntity
  8
0
100
AcDbLine
 62
250
  6
CONTINUOUS
 10
-7.9493456969
 20
11.9969580155
 11
-7.9627755018
 21
12.0451206601
  0
LWPOLYLINE
  5
3ED
100
AcDbEntity
  8
RACCORDO
100
AcDbPolyline
 62
250
  6
CONTINUOUS
 90
22
 70
0
 10
0.1397928475
 20
-16.1079181119
 10
0.141241981
 20
-16.1455531096
 10
0.145408173
 20
-16.1825877045
 10
0.1522914236
 20
-16.2190218966
 10
0.1619600227
 20
-16.255057626
 10
0.1743456803
 20
-16.2904929527
 10
0.1892435264
 20
-16.3247220559
 10
0.2066949673
 20
-16.3577195689
 10
0.2266585966
 20
-16.3895108584
 10
0.248805325
 20
-16.4195662049
 10
0.2731730441
 20
-16.4478572968
 10
0.2997238623
 20
-16.4744124457
 10
0.3280150149
 20
-16.4987868659
 10
0.3580768082
 20
-16.5209435218
 10
0.389878936
 20
-16.5409194491
 10
0.4228877147
 20
-16.5583809691
 10
0.4571288054
 20
-16.5732849379
 10
0.4925765471
 20
-16.5856744995
 10
0.5286202734
 20
-16.595345407
 10
0.5650564288
 20
-16.6022295781
 10
0.6020885688
 20
-16.606395095
 10
0.6397166933
 20
-16.6078419577
  0
LWPOLYLINE
  5
3EE
100
AcDbEntity
  8
RACCORDO
100
AcDbPolyline
 62
250
  6
CONTINUOUS
 90
22
 70
0
 10
-0.1397928475
 20
16.1079181127
 10
-0.141241981
 20
16.1455531103
 10
-0.145408173
 20
16.1825877052
 10
-0.1522914236
 20
16.2190218972
 10
-0.1619600227
 20
16.2550576266
 10
-0.1743456803
 20
16.2904929531
 10
-0.1892435263
 20
16.3247220564
 10
-0.2066949672
 20
16.3577195692
 10
-0.2266585965
 20
16.3895108588
 10
-0.2488053248
 20
16.4195662052
 10
-0.2731730439
 20
16.4478572971
 10
-0.299723862
 20
16.4744124459
 10
-0.3280150146
 20
16.4987868661
 10
-0.3580768079
 20
16.520943522
 10
-0.3898789357
 20
16.5409194492
 10
-0.4228877144
 20
16.5583809692
 10
-0.457128805
 20
16.573284938
 10
-0.4925765467
 20
16.5856744996
 10
-0.5286202729
 20
16.595345407
 10
-0.5650564282
 20
16.6022295781
 10
-0.6020885681
 20
16.606395095
 10
-0.6397166926
 20
16.6078419577
  0
LWPOLYLINE
  5
3EF
100
AcDbEntity
  8
RACCORDO
100
AcDbPolyline
 62
250
  6
CONTINUOUS
 90
22
 70
0
 10
-0.8600548477
 20
-16.1079181119
 10
-0.8558430149
 20
-16.219941534
 10
-0.8432742668
 20
-16.3313515019
 10
-0.8224159042
 20
-16.4415252688
 10
-0.7933806885
 20
-16.5498497317
 10
-0.7563285218
 20
-16.6557153896
 10
-0.7114678629
 20
-16.7585205366
 10
-0.6590496667
 20
-16.8576885043
 10
-0.5993657385
 20
-16.9526659751
 10
-0.5327519321
 20
-17.042917754
 10
-0.4595822316
 20
-17.1279377939
 10
-0.3802648778
 20
-17.2072524012
 10
-0.2952425344
 20
-17.2804189734
 10
-0.2049893796
 20
-17.3470290448
 10
-0.1100111149
 20
-17.4067090682
 10
-0.0108415496
 20
-17.459123956
 10
0.0919693029
 20
-17.5039829178
 10
0.1978418523
 20
-17.5410330195
 10
0.3061659262
 20
-17.5700635919
 10
0.4163287541
 20
-17.5909159333
 10
0.5277198808
 20
-17.6034798215
 10
0.6397166933
 20
-17.6076896529
  0
LWPOLYLINE
  5
3F0
100
AcDbEntity
  8
RACCORDO
100
AcDbPolyline
 62
250
  6
CONTINUOUS
 90
31
 70
0
 10
-0.2376900647
 20
-3.4877357561
 10
-0.2373475135
 20
-3.5019759533
 10
-0.2363038359
 20
-3.5164492887
 10
-0.2345229345
 20
-3.5311191067
 10
-0.2319642943
 20
-3.5459742051
 10
-0.2285976773
 20
-3.560940676
 10
-0.224418278
 20
-3.5758852074
 10
-0.2194107828
 20
-3.5907604618
 10
-0.2135625635
 20
-3.6055167838
 10
-0.2069032878
 20
-3.6200223287
 10
-0.1994387987
 20
-3.6342306405
 10
-0.1911781799
 20
-3.6480940051
 10
-0.1821858477
 20
-3.6614909464
 10
-0.1724980562
 20
-3.6743705844
 10
-0.1621346758
 20
-3.6867094046
 10
-0.151156489
 20
-3.6984411995
 10
-0.1396126869
 20
-3.7095262342
 10
-0.1275302497
 20
-3.7199507181
 10
-0.114943091
 20
-3.729694487
 10
-0.1018940725
 20
-3.7387328349
 10
-0.0884200781
 20
-3.7470483441
 10
-0.0745450863
 20
-3.7546318972
 10
-0.0603089072
 20
-3.761465495
 10
-0.0457527416
 20
-3.7675330153
 10
-0.0309011029
 20
-3.7728263114
 10
-0.0157952072
 20
-3.7773312293
 10
-0.0004768898
 20
-3.7810358195
 10
0.0150291635
 20
-3.7839331759
 10
0.0306864454
 20
-3.7860136335
 10
0.0464460031
 20
-3.787267865
 10
0.0622642439
 20
-3.7876900647
  0
LINE
  5
3F1
100
AcDbEntity
  8
DRAFT
100
AcDbLine
 62
7
  6
CONTINUOUS
 10
-2.6351323559
 20
-19.1872686779
 11
-2.6296736104
 21
-19.5
  0
LINE
  5
3F2
100
AcDbEntity
  8
0
100
AcDbLine
 62
7
  6
CONTINUOUS
 10
-2.6384011428
 20
-19.0
 11
-2.6351323559
 21
-19.1872686779
  0
LINE
  5
3F3
100
AcDbEntity
  8
0
100
AcDbLine
 62
7
  6
CONTINUOUS
 10
-3.0969217322
 20
21.1998476487
 11
-3.1
 21
22.2
  0
LINE
  5
3F4
100
AcDbEntity
  8
RACCORDO
100
AcDbLine
 62
250
  6
CONTINUOUS
 10
-2.4671035348
 20
-19.0
 11
-2.4673008778
 21
-18.935881761
  0
LINE
  5
3F5
100
AcDbEntity
  8
RACCORDO
100
AcDbLine
 62
250
  6
CONTINUOUS
 10
-1.4667213855
 20
-19.0
 11
-1.4669721784
 21
-18.9185155063
  0
LINE
  5
3F6
100
AcDbEntity
  8
ASSI
100
AcDbLine
 62
7
  6
CONTINUOUS
 10
-3.432368
 20
-3.290967
 11
-3.432368
 21
-2.893554
  0
LINE
  5
3F7
100
AcDbEntity
  8
ASSI
100
AcDbLine
 62
7
  6
CONTINUOUS
 10
-3.432362
 20
-4.638904
 11
-3.432368
 21
-4.996757
  0
LINE
  5
3F8
100
AcDbEntity
  8
0
100
AcDbLine
 62
7
  6
CONTINUOUS
 10
-3.393323
 20
-8.818141
 11
-3.393323
 21
-9.219216
  0
LINE
  5
3F9
100
AcDbEntity
  8
0
100
AcDbLine
 62
7
  6
CONTINUOUS
 10
-3.273554
 20
-9.170424
 11
-3.273554
 21
-8.859906
  0
LINE
  5
3FA
100
AcDbEntity
  8
0
100
AcDbLine
 62
7
  6
CONTINUOUS
 10
-3.262422
 20
-7.880903
 11
-3.262422
 21
-8.1955996569
  0
LINE
  5
3FB
100
AcDbEntity
  8
0
100
AcDbLine
 62
7
  6
CONTINUOUS
 10
-3.262422
 20
-11.363785
 11
-3.262422
 21
-11.67848094
  0
LINE
  5
3FC
100
AcDbEntity
  8
0
100
AcDbLine
 62
7
  6
CONTINUOUS
 10
-3.25
 20
12.3832943312
 11
-3.25
 21
11.6165003775
  0
LINE
  5
3FD
100
AcDbEntity
  8
0
100
AcDbLine
 62
7
  6
CONTINUOUS
 10
-3.25
 20
10.0
 11
-3.25
 21
9.0744716288
  0
LINE
  5
3FE
100
AcDbEntity
  8
0
100
AcDbLine
 62
7
  6
CONTINUOUS
 10
-3.230446
 20
-12.292653
 11
-3.230446
 21
-12.840026
  0
LINE
  5
3FF
100
AcDbEntity
  8
0
100
AcDbLine
 62
7
  6
CONTINUOUS
 10
-3.146835
 20
-11.6381497871
 11
-3.146835
 21
-11.363785
  0
LINE
  5
400
100
AcDbEntity
  8
0
100
AcDbLine
 62
7
  6
CONTINUOUS
 10
-3.146835
 20
-8.1552685041
 11
-3.146835
 21
-7.880903
  0
LINE
  5
401
100
AcDbEntity
  8
0
100
AcDbLine
 62
7
  6
CONTINUOUS
 10
-3.110676
 20
-12.840026
 11
-3.110676
 21
-12.292653
  0
LINE
  5
402
100
AcDbEntity
  8
ASSI
100
AcDbLine
 62
7
  6
CONTINUOUS
 10
-3.053097
 20
-5.1320493813
 11
-3.053097
 21
-4.633205
  0
LINE
  5
403
100
AcDbEntity
  8
0
100
AcDbLine
 62
7
  6
CONTINUOUS
 10
-2.804264
 20
-9.503285
 11
-2.804264
 21
-9.841673
  0
LINE
  5
404
100
AcDbEntity
  8
0
100
AcDbLine
 62
7
  6
CONTINUOUS
 10
-2.804264
 20
-9.976759
 11
-2.804264
 21
-10.315147
  0
LINE
  5
405
100
AcDbEntity
  8
0
100
AcDbLine
 62
7
  6
CONTINUOUS
 10
-2.804264
 20
-12.292653
 11
-2.804264
 21
-12.885977
  0
LINE
  5
406
100
AcDbEntity
  8
0
100
AcDbLine
 62
7
  6
CONTINUOUS
 10
-2.800079
 20
-7.880903
 11
-2.800079
 21
-8.1552588821
  0
LINE
  5
407
100
AcDbEntity
  8
0
100
AcDbLine
 62
7
  6
CONTINUOUS
 10
-2.800079
 20
-11.363785
 11
-2.800079
 21
-11.6381401651
  0
LINE
  5
408
100
AcDbEntity
  8
0
100
AcDbLine
 62
7
  6
CONTINUOUS
 10
-2.800079
 20
-14.220025
 11
-2.800079
 21
-14.4721172922
  0
LINE
  5
409
100
AcDbEntity
  8
RACCORDO
100
AcDbLine
 62
250
  6
CONTINUOUS
 10
-2.75
 20
7.75
 11
-2.75
 21
8.0622642439
  0
LINE
  5
40A
100
AcDbEntity
  8
RACCORDO
100
AcDbLine
 62
250
  6
CONTINUOUS
 10
-2.75
 20
8.3377357561
 11
-2.75
 21
8.65
  0
LINE
  5
40B
100
AcDbEntity
  8
RACCORDO
100
AcDbLine
 62
250
  6
CONTINUOUS
 10
-2.75
 20
12.85
 11
-2.75
 21
13.1622642439
  0
LINE
  5
40C
100
AcDbEntity
  8
RACCORDO
100
AcDbLine
 62
250
  6
CONTINUOUS
 10
-2.75
 20
13.4377357561
 11
-2.75
 21
13.75
  0
LINE
  5
40D
100
AcDbEntity
  8
0
100
AcDbLine
 62
7
  6
CONTINUOUS
 10
-2.684494
 20
-14.4902001785
 11
-2.684494
 21
-14.084939
  0
LINE
  5
40E
100
AcDbEntity
  8
0
100
AcDbLine
 62
7
  6
CONTINUOUS
 10
-2.684494
 20
-13.866321
 11
-2.684494
 21
-13.735419
  0
LINE
  5
40F
100
AcDbEntity
  8
0
100
AcDbLine
 62
7
  6
CONTINUOUS
 10
-2.684494
 20
-13.232732
 11
-2.684494
 21
-13.072539
  0
LINE
  5
410
100
AcDbEntity
  8
0
100
AcDbLine
 62
7
  6
CONTINUOUS
 10
-2.684494
 20
-12.885977
 11
-2.684494
 21
-12.157567
  0
LINE
  5
411
100
AcDbEntity
  8
0
100
AcDbLine
 62
7
  6
CONTINUOUS
 10
-2.684494
 20
-11.6784887947
 11
-2.684494
 21
-11.228698
  0
LINE
  5
412
100
AcDbEntity
  8
0
100
AcDbLine
 62
7
  6
CONTINUOUS
 10
-2.684494
 20
-10.315147
 11
-2.684494
 21
-9.503285
  0
LINE
  5
413
100
AcDbEntity
  8
0
100
AcDbLine
 62
7
  6
CONTINUOUS
 10
-2.684494
 20
-9.103631
 11
-2.684494
 21
-8.950464
  0
LINE
  5
414
100
AcDbEntity
  8
0
100
AcDbLine
 62
7
  6
CONTINUOUS
 10
-2.684494
 20
-8.1956075116
 11
-2.684494
 21
-7.745817
  0
LINE
  5
415
100
AcDbEntity
  8
ASSI
100
AcDbLine
 62
7
  6
CONTINUOUS
 10
-2.554219
 20
-4.6332
 11
-2.554219
 21
-5.1320406187
  0
LINE
  5
416
100
AcDbEntity
  8
RACCORDO
100
AcDbLine
 62
7
  6
CONTINUOUS
 10
-2.5
 20
19.0
 11
-2.5
 21
18.9685808831
  0
LINE
  5
417
100
AcDbEntity
  8
RACCORDO
100
AcDbLine
 62
7
  6
CONTINUOUS
 10
-2.5
 20
-18.9685808831
 11
-2.5
 21
-19.0
  0
LINE
  5
418
100
AcDbEntity
  8
RACCORDO
100
AcDbLine
 62
250
  6
CONTINUOUS
 10
-2.4826211107
 20
3.7673027369
 11
-2.4826211107
 21
4.767150432
  0
LINE
  5
419
100
AcDbEntity
  8
0
100
AcDbLine
 62
7
  6
CONTINUOUS
 10
-2.45
 20
12.1602201213
 11
-2.45
 21
12.4730606666
  0
LINE
  5
41A
100
AcDbEntity
  8
RACCORDO
100
AcDbLine
 62
250
  6
CONTINUOUS
 10
-2.3598263904
 20
5.8897928475
 11
-2.359826392
 21
4.8899451523
  0
LINE
  5
41B
100
AcDbEntity
  8
RACCORDO
100
AcDbLine
 62
7
  6
CONTINUOUS
 10
-2.3
 20
16.6951141676
 11
-2.3
 21
16.25
  0
LINE
  5
41C
100
AcDbEntity
  8
ASSI
100
AcDbLine
 62
7
  6
CONTINUOUS
 10
-2.174959
 20
-1.955689
 11
-2.174959
 21
-1.335856
  0
LINE
  5
41D
100
AcDbEntity
  8
ASSI
100
AcDbLine
 62
7
  6
CONTINUOUS
 10
-2.174959
 20
-0.570192
 11
-2.174959
 21
0.049641
  0
LINE
  5
41E
100
AcDbEntity
  8
ASSI
100
AcDbLine
 62
7
  6
CONTINUOUS
 10
-2.174959
 20
0.459641
 11
-2.174959
 21
0.869657
  0
LINE
  5
41F
100
AcDbEntity
  8
ASSI
100
AcDbLine
 62
7
  6
CONTINUOUS
 10
-2.174959
 20
1.142998
 11
-2.174959
 21
1.553019
  0
LINE
  5
420
100
AcDbEntity
  8
ASSI
100
AcDbLine
 62
7
  6
CONTINUOUS
 10
-2.174959
 20
2.459442
 11
-2.174959
 21
2.869462
  0
LINE
  5
421
100
AcDbEntity
  8
ASSI
100
AcDbLine
 62
7
  6
CONTINUOUS
 10
-2.174954
 20
-5.188968164
 11
-2.174954
 21
-4.228837
  0
LINE
  5
422
100
AcDbEntity
  8
ASSI
100
AcDbLine
 62
7
  6
CONTINUOUS
 10
-2.174954
 20
-3.297276
 11
-2.174954
 21
-2.88724
  0
LINE
  5
423
100
AcDbEntity
  8
RACCORDO
100
AcDbLine
 62
250
  6
CONTINUOUS
 10
-1.9826972631
 20
-17.7647851006
 11
-1.9826972631
 21
3.2673788893
  0
LINE
  5
424
100
AcDbEntity
  8
RACCORDO
100
AcDbLine
 62
250
  6
CONTINUOUS
 10
-1.8
 20
16.5991144253
 11
-1.8
 21
15.95
  0
LINE
  5
425
100
AcDbEntity
  8
0
100
AcDbLine
 62
250
  6
CONTINUOUS
 10
-1.55
 20
12.022801792
 11
-1.55
 21
10.4166114973
  0
LINE
  5
426
100
AcDbEntity
  8
0
100
AcDbLine
 62
7
  6
CONTINUOUS
 10
-1.35
 20
11.7980853263
 11
-1.35
 21
10.4166114973
  0
LINE
  5
427
100
AcDbEntity
  8
RACCORDO
100
AcDbLine
 62
7
  6
CONTINUOUS
 10
-1.35
 20
10.0
 11
-1.35
 21
10.4166114973
  0
LINE
  5
428
100
AcDbEntity
  8
RACCORDO
100
AcDbLine
 62
250
  6
CONTINUOUS
 10
-1.3
 20
17.6949649775
 11
-1.3
 21
17.6076896529
  0
LINE
  5
429
100
AcDbEntity
  8
RACCORDO
100
AcDbLine
 62
250
  6
CONTINUOUS
 10
-0.982849568
 20
3.2673788893
 11
-0.9828495498
 21
-16.2307128137
  0
LINE
  5
42A
100
AcDbEntity
  8
RACCORDO
100
AcDbLine
 62
250
  6
CONTINUOUS
 10
-0.8600548477
 20
-16.1079181119
 11
-0.8600548477
 21
3.3901736096
  0
LINE
  5
42B
100
AcDbEntity
  8
RACCORDO
100
AcDbLine
 62
250
  6
CONTINUOUS
 10
-0.6397166926
 20
16.6078419577
 11
-0.6397166926
 21
17.6076896529
  0
LINE
  5
42C
100
AcDbEntity
  8
RACCORDO
100
AcDbLine
 62
7
  6
CONTINUOUS
 10
-0.2513909492
 20
1.9014366406
 11
-0.2513909492
 21
-3.5014366406
  0
LINE
  5
42D
100
AcDbEntity
  8
RACCORDO
100
AcDbLine
 62
250
  6
CONTINUOUS
 10
-0.2376900647
 20
1.8877357561
 11
-0.2376900647
 21
-3.4877357561
  0
LINE
  5
42E
100
AcDbEntity
  8
RACCORDO
100
AcDbLine
 62
250
  6
CONTINUOUS
 10
-0.1397928475
 20
5.6102071525
 11
-0.1397928475
 21
9.2712104204
  0
LINE
  5
42F
100
AcDbEntity
  8
RACCORDO
100
AcDbLine
 62
250
  6
CONTINUOUS
 10
-0.1397928475
 20
12.2287895796
 11
-0.1397928475
 21
16.1079181127
  0
LINE
  5
430
100
AcDbEntity
  8
RACCORDO
100
AcDbLine
 62
250
  6
CONTINUOUS
 10
0.0622642439
 20
-3.7876900647
 11
0.0622642439
 21
2.1876900647
  0
LINE
  5
431
100
AcDbEntity
  8
RACCORDO
100
AcDbLine
 62
250
  6
CONTINUOUS
 10
0.1397928475
 20
3.3901736096
 11
0.1397928475
 21
2.2
  0
LINE
  5
432
100
AcDbEntity
  8
RACCORDO
100
AcDbLine
 62
250
  6
CONTINUOUS
 10
0.1397928475
 20
-3.8
 11
0.1397928475
 21
-9.2712104204
  0
LINE
  5
433
100
AcDbEntity
  8
RACCORDO
100
AcDbLine
 62
250
  6
CONTINUOUS
 10
0.1397928475
 20
-12.2287895796
 11
0.1397928475
 21
-16.1079181119
  0
LINE
  5
434
100
AcDbEntity
  8
RACCORDO
100
AcDbLine
 62
250
  6
CONTINUOUS
 10
0.3377357561
 20
-3.2122642439
 11
0.3377357561
 21
1.6122642439
  0
LINE
  5
435
100
AcDbEntity
  8
0
100
AcDbLine
 62
7
  6
CONTINUOUS
 10
-3.0969217322
 20
-21.1998476487
 11
-3.1
 21
-22.2
  0
LINE
  5
436
100
AcDbEntity
  8
RACCORDO
100
AcDbLine
 62
250
  6
CONTINUOUS
 10
-2.4673008778
 20
18.935881761
 11
-2.4671035348
 21
19.0
  0
LINE
  5
437
100
AcDbEntity
  8
RACCORDO
100
AcDbLine
 62
250
  6
CONTINUOUS
 10
-1.4669721784
 20
18.9185155063
 11
-1.4667213855
 21
19.0
  0
LINE
  5
438
100
AcDbEntity
  8
RACCORDO
100
AcDbLine
 62
7
  6
CONTINUOUS
 10
-2.2999618373
 20
16.6078507865
 11
-2.2999957533
 21
16.6020287622
  0
LINE
  5
439
100
AcDbEntity
  8
RACCORDO
100
AcDbLine
 62
250
  6
CONTINUOUS
 10
-1.7999238476
 20
16.6078419577
 11
-1.8
 21
16.5991144253
  0
LWPOLYLINE
  5
43A
100
AcDbEntity
  8
RACCORDO
100
AcDbPolyline
 62
7
  6
CONTINUOUS
 90
3
 70
0
 10
-2.2998476952
 20
16.6165668319
 10
-2.2998941525
 20
16.6136637814
 10
-2.2999618373
 20
16.6078507865
  0
LINE
  5
43B
100
AcDbEntity
  8
DRAFT
100
AcDbLine
 62
7
  6
CONTINUOUS
 10
-2.6296736104
 20
19.5
 11
-2.6351323559
 21
19.1872686779
  0
LINE
  5
43C
100
AcDbEntity
  8
0
100
AcDbLine
 62
7
  6
CONTINUOUS
 10
-2.6384011428
 20
19.0
 11
-2.6351323559
 21
19.1872686779
  0
LWPOLYLINE
  5
43D
100
AcDbEntity
  8
0
100
AcDbPolyline
 62
7
  6
CONTINUOUS
 90
15
 70
0
 10
-2.800079
 20
-8.1552588821
 10
-2.8005760181
 20
-8.1790905819
 10
-2.8026727193
 20
-8.2017985397
 10
-2.8063691035
 20
-8.2233827553
 10
-2.8116176256
 20
-8.2440851933
 10
-2.8184658308
 20
-8.2636638892
 10
-2.8270563542
 20
-8.2813929494
 10
-2.837528114
 20
-8.2970605787
 10
-2.8497421921
 20
-8.3108785723
 10
-2.8634244698
 20
-8.322756423
 10
-2.8785704133
 20
-8.332678911
 10
-2.8951845564
 20
-8.340661256
 10
-2.9130063826
 20
-8.3466586101
 10
-2.9319490531
 20
-8.350656024
 10
-2.9520994068
 20
-8.3526684471
  0
LWPOLYLINE
  5
43E
100
AcDbEntity
  8
0
100
AcDbPolyline
 62
7
  6
CONTINUOUS
 90
15
 70
0
 10
-2.800079
 20
-11.6381401651
 10
-2.8005760181
 20
-11.661971865
 10
-2.8026727193
 20
-11.6846798227
 10
-2.8063691035
 20
-11.7062640383
 10
-2.8116176256
 20
-11.7269664763
 10
-2.8184658308
 20
-11.7465451722
 10
-2.8270563542
 20
-11.7642742325
 10
-2.837528114
 20
-11.7799418618
 10
-2.8497421921
 20
-11.7937598554
 10
-2.8634244698
 20
-11.8056377061
 10
-2.8785704133
 20
-11.815560194
 10
-2.8951845564
 20
-11.823542539
 10
-2.9130063826
 20
-11.8295398932
 10
-2.9319490531
 20
-11.8335373071
 10
-2.9520994068
 20
-11.8355497302
  0
LINE
  5
43F
100
AcDbEntity
  8
RACCORDO
100
AcDbLine
 62
7
  6
CONTINUOUS
 10
-2.2974388471
 20
16.6706510495
 11
-2.2998476952
 21
16.6165668319
  0
LWPOLYLINE
  5
440
100
AcDbEntity
  8
RACCORDO
100
AcDbPolyline
 62
7
  6
CONTINUOUS
 90
16
 70
0
 10
-0.2513909492
 20
1.9014366406
 10
-0.2497834679
 20
1.9322937659
 10
-0.2449564237
 20
1.9629518627
 10
-0.2369145035
 20
1.993074661
 10
-0.2256801685
 20
2.0223532061
 10
-0.2113418768
 20
2.0504166884
 10
-0.1940885359
 20
2.0768536987
 10
-0.1741070958
 20
2.1013512587
 10
-0.1516016755
 20
2.123639753
 10
-0.1268798504
 20
2.1434322595
 10
-0.1002079763
 20
2.1605214819
 10
-0.07189589
 20
2.1747113569
 10
-0.0423783119
 20
2.1858249994
 10
-0.0120348407
 20
2.1937747848
 10
0.018832094
 20
2.1985266451
 10
0.0498836149
 20
2.2000706936
  0
LWPOLYLINE
  5
441
100
AcDbEntity
  8
0
100
AcDbPolyline
 62
7
  6
CONTINUOUS
 90
16
 70
0
 10
-2.800079
 20
-14.4721172922
 10
-2.8021620924
 20
-14.5086223564
 10
-2.8077129392
 20
-14.5430455714
 10
-2.8167315404
 20
-14.575386937
 10
-2.8291412471
 20
-14.6057053225
 10
-2.8450187082
 20
-14.6339418586
 10
-2.8645938704
 20
-14.6599199377
 10
-2.8881306034
 20
-14.683868823
 10
-2.9153650376
 20
-14.7055592512
 10
-2.9457355104
 20
-14.7241268253
 10
-2.9793598232
 20
-14.73916971
 10
-3.0161201746
 20
-14.7510897406
 10
-3.0551014971
 20
-14.7602280257
 10
-3.0959987684
 20
-14.7666982682
 10
-3.1391170109
 20
-14.7703867652
 10
-3.1844562246
 20
-14.7712935167
  0
LINE
  5
442
100
AcDbEntity
  8
DRAFT
100
AcDbLine
 62
7
  6
CONTINUOUS
 10
3.6980762114
 20
19.0
 11
3.7447441394
 21
19.1741670785
  0
LINE
  5
443
100
AcDbEntity
  8
RACCORDO
100
AcDbLine
 62
250
  6
CONTINUOUS
 10
4.0617812262
 20
19.1741670785
 11
4.0560295388
 21
19.1527014887
  0
LINE
  5
444
100
AcDbEntity
  8
RACCORDO
100
AcDbLine
 62
7
  6
CONTINUOUS
 10
4.5352269068
 20
19.138648283
 11
4.5447441394
 21
19.1741670785
  0
LINE
  5
445
100
AcDbEntity
  8
DRAFT
100
AcDbLine
 62
7
  6
CONTINUOUS
 10
3.9733373476
 20
23.5
 11
3.9526845545
 21
23.4301797403
  0
LINE
  5
446
100
AcDbEntity
  8
RACCORDO
100
AcDbLine
 62
250
  6
CONTINUOUS
 10
5.7302174957
 20
18.5604243599
 11
5.7964643385
 21
18.6929281366
  0
LINE
  5
447
100
AcDbEntity
  8
RACCORDO
100
AcDbLine
 62
250
  6
CONTINUOUS
 10
1.3002188883
 20
6.6978937646
 11
1.2563027746
 21
6.6100548477
  0
LINE
  5
448
100
AcDbEntity
  8
RACCORDO
100
AcDbLine
 62
250
  6
CONTINUOUS
 10
2.3001800469
 20
5.6980445404
 11
2.2519393415
 21
5.6015557812
  0
LWPOLYLINE
  5
449
100
AcDbEntity
  8
RACCORDO
100
AcDbPolyline
 62
7
  6
CONTINUOUS
 90
15
 70
0
 10
9.6942642835
 20
18.2260690693
 10
9.6942943716
 20
18.2261121546
 10
9.7124003905
 20
18.245878149
 10
9.7331214504
 20
18.2629079975
 10
9.7563208271
 20
18.2773254792
 10
9.7807646242
 20
18.288362105
 10
9.806523185
 20
18.2958310384
 10
9.833526166
 20
18.2999191158
 10
9.8603286402
 20
18.3004183577
 10
9.8869044608
 20
18.2971408122
 10
9.9132797744
 20
18.2902744312
 10
9.9380880934
 20
18.2801750908
 10
9.9608739219
 20
18.2669614162
 10
9.9820927558
 20
18.250514782
 10
10.001744595
 20
18.2308351884
  0
LWPOLYLINE
  5
44A
100
AcDbEntity
  8
RACCORDO
100
AcDbPolyline
 62
7
  6
CONTINUOUS
 90
6
 70
0
 10
0.982849568
 20
6.732849568
 10
0.987863983
 20
6.7389805152
 10
0.9994879404
 20
6.750382077
 10
1.0170542535
 20
6.7670542535
 10
1.0398437264
 20
6.7895602123
 10
1.0672124286
 20
6.8173367858
  0
LINE
  5
44B
100
AcDbEntity
  8
RACCORDO
100
AcDbLine
 62
250
  6
CONTINUOUS
 10
10.8164171854
 20
15.3169502523
 11
11.0
 21
15.500533067
  0
LINE
  5
44C
100
AcDbEntity
  8
RACCORDO
100
AcDbLine
 62
250
  6
CONTINUOUS
 10
-0.982849568
 20
3.2673788893
 11
-0.8600548477
 21
3.3901736096
  0
LINE
  5
44D
100
AcDbEntity
  8
DRAFT
100
AcDbLine
 62
7
  6
CONTINUOUS
 10
2.3001808114
 20
4.7894765244
 11
2.269861224
 21
4.7591569371
  0
LWPOLYLINE
  5
44E
100
AcDbEntity
  8
RACCORDO
100
AcDbPolyline
 62
7
  6
CONTINUOUS
 90
3
 70
0
 10
1.8387649683
 20
4.5174337902
 10
1.7960056917
 20
4.4845735834
 10
1.7519583799
 20
4.45
  0
LINE
  5
44F
100
AcDbEntity
  8
ASSI
100
AcDbLine
 62
7
  6
CONTINUOUS
 10
-2.174959
 20
2.869462
 11
-4.225056
 21
2.211248
  0
LINE
  5
450
100
AcDbEntity
  8
ASSI
100
AcDbLine
 62
7
  6
CONTINUOUS
 10
-3.586558
 20
2.006228
 11
-2.174959
 21
2.459442
  0
LINE
  5
451
100
AcDbEntity
  8
ASSI
100
AcDbLine
 62
7
  6
CONTINUOUS
 10
-2.873153
 20
-0.360374
 11
-4.225051
 21
-0.748019
  0
LINE
  5
452
100
AcDbEntity
  8
ASSI
100
AcDbLine
 62
7
  6
CONTINUOUS
 10
-3.510052
 20
-0.953024
 11
-2.174959
 21
-0.570192
  0
LINE
  5
453
100
AcDbEntity
  8
0
100
AcDbLine
 62
250
  6
CONTINUOUS
 10
2.0506543031
 20
0.4969580155
 11
3.25
 21
0.8313868826
  0
LINE
  5
454
100
AcDbEntity
  8
0
100
AcDbLine
 62
7
  6
CONTINUOUS
 10
2.0372244982
 20
0.5451206601
 11
3.2363665626
 21
0.8794927458
  0
LWPOLYLINE
  5
455
100
AcDbEntity
  8
RACCORDO
100
AcDbPolyline
 62
7
  6
CONTINUOUS
 90
10
 70
0
 10
6.6915110017
 20
-1.5
 10
6.7472945165
 20
-1.4994593624
 10
6.8018373326
 20
-1.4977467934
 10
6.8551394502
 20
-1.494862293
 10
6.9072263044
 20
-1.490816109
 10
6.9580724601
 20
-1.4855979937
 10
7.0076016114
 20
-1.4791772034
 10
7.0557883232
 20
-1.4715434903
 10
7.1026580306
 20
-1.4627071022
 10
7.1482107338
 20
-1.4526680392
  0
LINE
  5
456
100
AcDbEntity
  8
RACCORDO
100
AcDbLine
 62
250
  6
CONTINUOUS
 10
-0.2376900647
 20
-3.4877357561
 11
10.2376900647
 21
-3.4877357561
  0
LINE
  5
457
100
AcDbEntity
  8
RACCORDO
100
AcDbLine
 62
250
  6
CONTINUOUS
 10
9.6622642439
 20
-3.2122642439
 11
0.3377357561
 21
-3.2122642439
  0
LINE
  5
458
100
AcDbEntity
  8
RACCORDO
100
AcDbLine
 62
250
  6
CONTINUOUS
 10
9.3623099353
 20
-2.9123099353
 11
0.6376900647
 21
-2.9123099353
  0
LINE
  5
459
100
AcDbEntity
  8
DRAFT
100
AcDbLine
 62
7
  6
CONTINUOUS
 10
0.65
 20
-2.9
 11
9.35
 21
-2.9
  0
LINE
  5
45A
100
AcDbEntity
  8
ASSI
100
AcDbLine
 62
7
  6
CONTINUOUS
 10
-4.225051
 20
-1.955689
 11
-2.174959
 21
-1.955689
  0
LINE
  5
45B
100
AcDbEntity
  8
ASSI
100
AcDbLine
 62
7
  6
CONTINUOUS
 10
-2.873153
 20
-1.545669
 11
-4.225051
 21
-1.545674
  0
LINE
  5
45C
100
AcDbEntity
  8
RACCORDO
100
AcDbLine
 62
7
  6
CONTINUOUS
 10
8.65
 20
-1.5
 11
6.8314542314
 21
-1.5
  0
LINE
  5
45D
100
AcDbEntity
  8
RACCORDO
100
AcDbLine
 62
7
  6
CONTINUOUS
 10
1.35
 20
-1.5
 11
4.3524620873
 21
-1.5
  0
LINE
  5
45E
100
AcDbEntity
  8
RACCORDO
100
AcDbLine
 62
7
  6
CONTINUOUS
 10
5.6475379127
 20
-1.5
 11
6.6915110017
 21
-1.5
  0
LINE
  5
45F
100
AcDbEntity
  8
RACCORDO
100
AcDbLine
 62
250
  6
CONTINUOUS
 10
8.65
 20
-1.4526680392
 11
7.1482107338
 21
-1.4526680392
  0
LINE
  5
460
100
AcDbEntity
  8
RACCORDO
100
AcDbLine
 62
250
  6
CONTINUOUS
 10
1.35
 20
-1.4526680392
 11
2.8517892662
 21
-1.4526680392
  0
LINE
  5
461
100
AcDbEntity
  8
ASSI
100
AcDbLine
 62
7
  6
CONTINUOUS
 10
-4.225051
 20
-0.360374
 11
-2.873153
 21
-0.360374
  0
LINE
  5
462
100
AcDbEntity
  8
0
100
AcDbLine
 62
7
  6
CONTINUOUS
 10
3.9428812744
 20
0.0
 11
4.304943568
 21
0.0
  0
LINE
  5
463
100
AcDbEntity
  8
0
100
AcDbLine
 62
7
  6
CONTINUOUS
 10
5.695056432
 20
0.0
 11
6.0571187256
 21
0.0
  0
LINE
  5
464
100
AcDbEntity
  8
ASSI
100
AcDbLine
 62
7
  6
CONTINUOUS
 10
-2.174959
 20
0.049641
 11
-4.225051
 21
0.049641
  0
LINE
  5
465
100
AcDbEntity
  8
ASSI
100
AcDbLine
 62
7
  6
CONTINUOUS
 10
-4.225051
 20
0.459646
 11
-2.174959
 21
0.459641
  0
LWPOLYLINE
  5
466
100
AcDbEntity
  8
RACCORDO
100
AcDbPolyline
 62
7
  6
CONTINUOUS
 90
10
 70
0
 10
2.8517892662
 20
-1.4526680392
 10
2.8973419694
 20
-1.4627071022
 10
2.9442116768
 20
-1.4715434903
 10
2.9923983886
 20
-1.4791772034
 10
3.0419275399
 20
-1.4855979937
 10
3.0927736956
 20
-1.490816109
 10
3.1448605498
 20
-1.494862293
 10
3.1981626674
 20
-1.4977467934
 10
3.2527054835
 20
-1.4994593624
 10
3.3084889983
 20
-1.5
  0
LWPOLYLINE
  5
467
100
AcDbEntity
  8
RACCORDO
100
AcDbPolyline
 62
7
  6
CONTINUOUS
 90
10
 70
0
 10
2.8517892662
 20
-1.4526680392
 10
2.7165006791
 20
-1.4197132111
 10
2.579212848
 20
-1.384834068
 10
2.439925773
 20
-1.34803061
 10
2.299092017
 20
-1.3094291609
 10
2.1562590171
 20
-1.2689033969
 10
2.0100690844
 20
-1.2260743463
 10
1.8600696558
 20
-1.1808156851
 10
1.7067132943
 20
-1.1332537372
 10
1.55
 20
-1.0833885027
  0
LINE
  5
468
100
AcDbEntity
  8
ASSI
100
AcDbLine
 62
7
  6
CONTINUOUS
 10
-4.225046
 20
-1.158024
 11
-2.873153
 21
-1.545669
  0
LINE
  5
469
100
AcDbEntity
  8
ASSI
100
AcDbLine
 62
7
  6
CONTINUOUS
 10
-2.174959
 20
-1.335856
 11
-3.510052
 21
-0.953024
  0
LINE
  5
46A
100
AcDbEntity
  8
ASSI
100
AcDbLine
 62
7
  6
CONTINUOUS
 10
-2.174954
 20
-2.88724
 11
-4.225051
 21
-2.229031
  0
LINE
  5
46B
100
AcDbEntity
  8
ASSI
100
AcDbLine
 62
7
  6
CONTINUOUS
 10
-4.225051
 20
1.801218
 11
-2.174959
 21
1.142998
  0
LINE
  5
46C
100
AcDbEntity
  8
RACCORDO
100
AcDbLine
 62
250
  6
CONTINUOUS
 10
10.659321601
 20
-15.159649807
 11
11.0
 21
-15.500533067
  0
LINE
  5
46D
100
AcDbEntity
  8
DRAFT
100
AcDbLine
 62
7
  6
CONTINUOUS
 10
3.9733373476
 20
-23.5
 11
3.9526845545
 21
-23.4301797403
  0
LINE
  5
46E
100
AcDbEntity
  8
DRAFT
100
AcDbLine
 62
7
  6
CONTINUOUS
 10
3.6980762114
 20
-19.0
 11
3.7447441394
 21
-19.1741670785
  0
LINE
  5
46F
100
AcDbEntity
  8
RACCORDO
100
AcDbLine
 62
250
  6
CONTINUOUS
 10
4.0560295388
 20
-19.1527014887
 11
4.0617812262
 21
-19.1741670785
  0
LINE
  5
470
100
AcDbEntity
  8
RACCORDO
100
AcDbLine
 62
7
  6
CONTINUOUS
 10
4.5447441394
 20
-19.1741670785
 11
4.5352269068
 21
-19.138648283
  0
LWPOLYLINE
  5
471
100
AcDbEntity
  8
0
100
AcDbPolyline
 62
7
  6
CONTINUOUS
 90
19
 70
0
 10
1.35
 20
-10.4166114973
 10
1.3508064528
 20
-10.4221524429
 10
1.3531935845
 20
-10.4270489005
 10
1.3571043534
 20
-10.43130087
 10
1.3624636662
 20
-10.4349128596
 10
1.3691982619
 20
-10.4378803612
 10
1.3772548823
 20
-10.4401898503
 10
1.386551578
 20
-10.4418372597
 10
1.3970046436
 20
-10.4428266566
 10
1.408578424
 20
-10.4431567174
 10
1.421188534
 20
-10.442826546
 10
1.4347424078
 20
-10.4418370386
 10
1.4492097012
 20
-10.4401895602
 10
1.4644992788
 20
-10.4378800671
 10
1.4805023901
 20
-10.434912603
 10
1.4971684175
 20
-10.4313006644
 10
1.5144022838
 20
-10.4270487499
 10
1.5320577992
 20
-10.4221523609
 10
1.55
 20
-10.4166114973
  0
LWPOLYLINE
  5
472
100
AcDbEntity
  8
0
100
AcDbPolyline
 62
7
  6
CONTINUOUS
 90
19
 70
0
 10
-1.35
 20
10.4166114973
 10
-1.3508064528
 20
10.4221524429
 10
-1.3531935845
 20
10.4270489005
 10
-1.3571043534
 20
10.43130087
 10
-1.3624636662
 20
10.4349128596
 10
-1.3691982619
 20
10.4378803612
 10
-1.3772548823
 20
10.4401898503
 10
-1.386551578
 20
10.4418372597
 10
-1.3970046436
 20
10.4428266566
 10
-1.408578424
 20
10.4431567174
 10
-1.421188534
 20
10.442826546
 10
-1.4347424078
 20
10.4418370386
 10
-1.4492097012
 20
10.4401895602
 10
-1.4644992788
 20
10.4378800671
 10
-1.4805023901
 20
10.434912603
 10
-1.4971684175
 20
10.4313006644
 10
-1.5144022838
 20
10.4270487499
 10
-1.5320577992
 20
10.4221523609
 10
-1.55
 20
10.4166114973
  0
LINE
  5
473
100
AcDbEntity
  8
DRAFT
100
AcDbLine
 62
7
  6
CONTINUOUS
 10
3.434596365
 20
21.2139629885
 11
3.3821231691
 21
22.2
  0
LWPOLYLINE
  5
474
100
AcDbEntity
  8
RACCORDO
100
AcDbPolyline
 62
250
  6
CONTINUOUS
 90
16
 70
0
 10
2.7450904663
 20
5.7330018728
 10
2.7397380453
 20
5.8368829939
 10
2.7254044746
 20
5.9396398191
 10
2.7022448851
 20
6.0401602215
 10
2.6705099308
 20
6.1373562784
 10
2.6305430761
 20
6.2301760463
 10
2.5827768783
 20
6.3176149458
 10
2.5277283063
 20
6.3987266341
 10
2.4659931455
 20
6.4726332473
 10
2.3982395495
 20
6.5385349012
 10
2.325200809
 20
6.5957183488
 10
2.2476674152
 20
6.643564699
 10
2.1664785044
 20
6.6815561155
 10
2.0825127765
 20
6.7092814208
 10
1.9966789843
 20
6.7264405467
 10
1.9099060986
 20
6.7328477816
  0
LWPOLYLINE
  5
475
100
AcDbEntity
  8
RACCORDO
100
AcDbPolyline
 62
250
  6
CONTINUOUS
 90
19
 70
0
 10
2.3001808114
 20
5.6980460695
 10
2.2963631198
 20
5.7851801114
 10
2.2849656382
 20
5.8716511392
 10
2.2660750915
 20
5.9568011836
 10
2.2398352204
 20
6.0399823269
 10
2.2064456873
 20
6.1205616332
 10
2.1661605576
 20
6.197925964
 10
2.1192863661
 20
6.2714866441
 10
2.0661797844
 20
6.340683941
 10
2.0072449074
 20
6.4049913234
 10
1.9429301782
 20
6.4639194681
 10
1.8737249758
 20
6.5170199833
 10
1.8001558917
 20
6.5638888204
 10
1.7227827224
 20
6.6041693482
 10
1.6421942103
 20
6.6375550671
 10
1.5590035639
 20
6.6637919408
 10
1.4738437916
 20
6.6826803295
 10
1.3873628849
 20
6.6940765091
 10
1.3002188883
 20
6.6978937646
  0
LWPOLYLINE
  5
476
100
AcDbEntity
  8
RACCORDO
100
AcDbPolyline
 62
250
  6
CONTINUOUS
 90
22
 70
0
 10
0.8600548477
 20
16.1079181127
 10
0.8558430149
 20
16.2199415347
 10
0.8432742668
 20
16.3313515026
 10
0.8224159042
 20
16.4415252695
 10
0.7933806885
 20
16.5498497323
 10
0.7563285218
 20
16.6557153902
 10
0.7114678629
 20
16.758520537
 10
0.6590496667
 20
16.8576885047
 10
0.5993657386
 20
16.9526659754
 10
0.5327519322
 20
17.0429177543
 10
0.4595822317
 20
17.1279377941
 10
0.380264878
 20
17.2072524014
 10
0.2952425346
 20
17.2804189736
 10
0.2049893799
 20
17.347029045
 10
0.1100111152
 20
17.4067090683
 10
0.0108415499
 20
17.4591239561
 10
-0.0919693025
 20
17.5039829179
 10
-0.1978418518
 20
17.5410330195
 10
-0.3061659256
 20
17.5700635919
 10
-0.4163287535
 20
17.5909159333
 10
-0.5277198801
 20
17.6034798215
 10
-0.6397166926
 20
17.6076896529
  0
LINE
  5
477
100
AcDbEntity
  8
0
100
AcDbLine
 62
7
  6
CONTINUOUS
 10
2.6384011428
 20
19.0
 11
2.6351323559
 21
19.1872686779
  0
LINE
  5
478
100
AcDbEntity
  8
DRAFT
100
AcDbLine
 62
7
  6
CONTINUOUS
 10
2.6351323559
 20
19.1872686779
 11
2.6296736104
 21
19.5
  0
LINE
  5
479
100
AcDbEntity
  8
RACCORDO
100
AcDbLine
 62
250
  6
CONTINUOUS
 10
2.2517883657
 20
5.6188559004
 11
2.2518777124
 21
5.6125812429
  0
LINE
  5
47A
100
AcDbEntity
  8
RACCORDO
100
AcDbLine
 62
250
  6
CONTINUOUS
 10
1.7518835479
 20
5.6102071525
 11
1.7519583799
 21
5.6015557812
  0
LINE
  5
47B
100
AcDbEntity
  8
RACCORDO
100
AcDbLine
 62
250
  6
CONTINUOUS
 10
2.2518777124
 20
5.6125812429
 11
2.2519251072
 21
5.606814448
  0
LINE
  5
47C
100
AcDbEntity
  8
0
100
AcDbLine
 62
7
  6
CONTINUOUS
 10
3.0969217322
 20
-21.1998476487
 11
3.1
 21
-22.2
  0
LINE
  5
47D
100
AcDbEntity
  8
RACCORDO
100
AcDbLine
 62
250
  6
CONTINUOUS
 10
2.2519251072
 20
5.606814448
 11
2.2519393415
 21
5.6015557812
  0
LINE
  5
47E
100
AcDbEntity
  8
RACCORDO
100
AcDbLine
 62
250
  6
CONTINUOUS
 10
0.6376900647
 20
-2.9123099353
 11
0.6376900647
 21
1.3123099353
  0
LINE
  5
47F
100
AcDbEntity
  8
RACCORDO
100
AcDbLine
 62
250
  6
CONTINUOUS
 10
0.6397166933
 20
-16.6078419577
 11
0.6397166933
 21
-17.6076896529
  0
LINE
  5
480
100
AcDbEntity
  8
DRAFT
100
AcDbLine
 62
7
  6
CONTINUOUS
 10
0.65
 20
1.3
 11
0.65
 21
-2.9
  0
LINE
  5
481
100
AcDbEntity
  8
RACCORDO
100
AcDbLine
 62
250
  6
CONTINUOUS
 10
0.8600548477
 20
16.1079181127
 11
0.8600548477
 21
6.6100548477
  0
LINE
  5
482
100
AcDbEntity
  8
RACCORDO
100
AcDbLine
 62
250
  6
CONTINUOUS
 10
0.982849568
 20
6.732849568
 11
0.9828495497
 21
16.2307128136
  0
LINE
  5
483
100
AcDbEntity
  8
0
100
AcDbLine
 62
7
  6
CONTINUOUS
 10
1.35
 20
0.2480853263
 11
1.35
 21
-1.0833885027
  0
LINE
  5
484
100
AcDbEntity
  8
0
100
AcDbLine
 62
7
  6
CONTINUOUS
 10
1.35
 20
-11.7980853263
 11
1.35
 21
-10.4166114973
  0
LINE
  5
485
100
AcDbEntity
  8
RACCORDO
100
AcDbLine
 62
7
  6
CONTINUOUS
 10
1.35
 20
-10.4166114973
 11
1.35
 21
-10.0
  0
LINE
  5
486
100
AcDbEntity
  8
RACCORDO
100
AcDbLine
 62
7
  6
CONTINUOUS
 10
1.35
 20
-1.5
 11
1.35
 21
-1.0833885027
  0
LINE
  5
487
100
AcDbEntity
  8
0
100
AcDbLine
 62
250
  6
CONTINUOUS
 10
1.55
 20
0.472801792
 11
1.55
 21
-1.0833885027
  0
LINE
  5
488
100
AcDbEntity
  8
0
100
AcDbLine
 62
250
  6
CONTINUOUS
 10
1.55
 20
-12.022801792
 11
1.55
 21
-10.4166114973
  0
LINE
  5
489
100
AcDbEntity
  8
RACCORDO
100
AcDbLine
 62
250
  6
CONTINUOUS
 10
1.7519583799
 20
5.6015557812
 11
1.7519583799
 21
4.45
  0
LINE
  5
48A
100
AcDbEntity
  8
RACCORDO
100
AcDbLine
 62
250
  6
CONTINUOUS
 10
1.7519583799
 20
-15.95
 11
1.7519583799
 21
-16.5991905864
  0
LINE
  5
48B
100
AcDbEntity
  8
RACCORDO
100
AcDbLine
 62
250
  6
CONTINUOUS
 10
1.9826972631
 20
17.7647852276
 11
1.9826972631
 21
7.7326972631
  0
LINE
  5
48C
100
AcDbEntity
  8
RACCORDO
100
AcDbLine
 62
7
  6
CONTINUOUS
 10
2.2519393415
 20
5.6015557812
 11
2.2519393415
 21
4.75
  0
LINE
  5
48D
100
AcDbEntity
  8
RACCORDO
100
AcDbLine
 62
7
  6
CONTINUOUS
 10
2.2519393415
 20
-16.25
 11
2.2519393415
 21
-16.5991905864
  0
LINE
  5
48E
100
AcDbEntity
  8
DRAFT
100
AcDbLine
 62
7
  6
CONTINUOUS
 10
2.269861224
 20
4.7591569371
 11
2.269861224
 21
4.75
  0
LINE
  5
48F
100
AcDbEntity
  8
DRAFT
100
AcDbLine
 62
7
  6
CONTINUOUS
 10
2.269861224
 20
-16.25
 11
2.269861224
 21
-16.2591569371
  0
LINE
  5
490
100
AcDbEntity
  8
RACCORDO
100
AcDbLine
 62
250
  6
CONTINUOUS
 10
2.3001800469
 20
5.6980445404
 11
2.3001808114
 21
4.7894765244
  0
LINE
  5
491
100
AcDbEntity
  8
RACCORDO
100
AcDbLine
 62
250
  6
CONTINUOUS
 10
2.3001792772
 20
-16.6956778061
 11
2.3001808114
 21
-16.2894765244
  0
LINE
  5
492
100
AcDbEntity
  8
0
100
AcDbLine
 62
7
  6
CONTINUOUS
 10
2.45
 20
-12.1602201213
 11
2.45
 21
-12.4730606666
  0
LINE
  5
493
100
AcDbEntity
  8
0
100
AcDbLine
 62
7
  6
CONTINUOUS
 10
2.45
 20
0.6602201213
 11
2.45
 21
0.9230606666
  0
LINE
  5
494
100
AcDbEntity
  8
RACCORDO
100
AcDbLine
 62
7
  6
CONTINUOUS
 10
2.5
 20
-19.0
 11
2.5
 21
-18.9685808831
  0
LINE
  5
495
100
AcDbEntity
  8
RACCORDO
100
AcDbLine
 62
250
  6
CONTINUOUS
 10
2.75
 20
-13.75
 11
2.75
 21
-13.4377357561
  0
LINE
  5
496
100
AcDbEntity
  8
RACCORDO
100
AcDbLine
 62
250
  6
CONTINUOUS
 10
2.75
 20
-13.1622642439
 11
2.75
 21
-12.85
  0
LINE
  5
497
100
AcDbEntity
  8
RACCORDO
100
AcDbLine
 62
250
  6
CONTINUOUS
 10
2.75
 20
-8.65
 11
2.75
 21
-8.3377357561
  0
LINE
  5
498
100
AcDbEntity
  8
RACCORDO
100
AcDbLine
 62
250
  6
CONTINUOUS
 10
2.75
 20
-8.0622642439
 11
2.75
 21
-7.75
  0
LINE
  5
499
100
AcDbEntity
  8
0
100
AcDbLine
 62
7
  6
CONTINUOUS
 10
3.25
 20
0.8755283712
 11
3.25
 21
0.1165008265
  0
LINE
  5
49A
100
AcDbEntity
  8
0
100
AcDbLine
 62
7
  6
CONTINUOUS
 10
3.25
 20
-1.5
 11
3.25
 21
-2.4755283712
  0
LINE
  5
49B
100
AcDbEntity
  8
0
100
AcDbLine
 62
7
  6
CONTINUOUS
 10
3.25
 20
-12.3832943312
 11
3.25
 21
-11.6165003775
  0
LINE
  5
49C
100
AcDbEntity
  8
0
100
AcDbLine
 62
7
  6
CONTINUOUS
 10
3.25
 20
-10.0
 11
3.25
 21
-9.0744716288
  0
LINE
  5
49D
100
AcDbEntity
  8
0
100
AcDbLine
 62
7
  6
CONTINUOUS
 10
3.618061
 20
0.7179179173
 11
3.618061
 21
0.0485057413
  0
LINE
  5
49E
100
AcDbEntity
  8
0
100
AcDbLine
 62
7
  6
CONTINUOUS
 10
3.618061
 20
-1.5
 11
3.618061
 21
-2.3179179173
  0
LINE
  5
49F
100
AcDbEntity
  8
0
100
AcDbLine
 62
7
  6
CONTINUOUS
 10
3.618061
 20
-12.2679179173
 11
3.618061
 21
-11.5485056746
  0
LINE
  5
4A0
100
AcDbEntity
  8
0
100
AcDbLine
 62
7
  6
CONTINUOUS
 10
3.618061
 20
-10.0
 11
3.618061
 21
-9.2320820827
  0
LINE
  5
4A1
100
AcDbEntity
  8
0
100
AcDbLine
 62
7
  6
CONTINUOUS
 10
3.843839
 20
9.339807
 11
3.843839
 21
9.096358
  0
LINE
  5
4A2
100
AcDbEntity
  8
0
100
AcDbLine
 62
7
  6
CONTINUOUS
 10
4.328762
 20
9.96049
 11
4.328762
 21
9.717042
  0
LINE
  5
4A3
100
AcDbEntity
  8
RACCORDO
100
AcDbLine
 62
250
  6
CONTINUOUS
 10
1.5329739584
 20
19.0
 11
1.5327231656
 21
18.9185155063
  0
LINE
  5
4A4
100
AcDbEntity
  8
RACCORDO
100
AcDbLine
 62
250
  6
CONTINUOUS
 10
1.4669721784
 20
-18.9185155063
 11
1.4667213855
 21
-19.0
  0
LINE
  5
4A5
100
AcDbEntity
  8
RACCORDO
100
AcDbLine
 62
7
  6
CONTINUOUS
 10
2.5324442407
 20
19.0
 11
2.5322478033
 21
18.9361760154
  0
LINE
  5
4A6
100
AcDbEntity
  8
RACCORDO
100
AcDbLine
 62
250
  6
CONTINUOUS
 10
2.4673008778
 20
-18.935881761
 11
2.4671035164
 21
-19.0
  0
LINE
  5
4A7
100
AcDbEntity
  8
0
100
AcDbLine
 62
7
  6
CONTINUOUS
 10
3.0969217322
 20
21.1998476487
 11
3.1
 21
22.2
  0
LINE
  5
4A8
100
AcDbEntity
  8
RACCORDO
100
AcDbLine
 62
250
  6
CONTINUOUS
 10
2.2519393415
 20
-16.5991905864
 11
2.2519222967
 21
-16.6049536527
  0
LINE
  5
4A9
100
AcDbEntity
  8
RACCORDO
100
AcDbLine
 62
250
  6
CONTINUOUS
 10
1.7519583799
 20
-16.5991905864
 11
1.7518835479
 21
-16.6078419577
  0
LINE
  5
4AA
100
AcDbEntity
  8
RACCORDO
100
AcDbLine
 62
250
  6
CONTINUOUS
 10
2.2519222967
 20
-16.6049536527
 11
2.2518719933
 21
-16.6107204232
  0
LINE
  5
4AB
100
AcDbEntity
  8
RACCORDO
100
AcDbLine
 62
250
  6
CONTINUOUS
 10
2.2518719933
 20
-16.6107204232
 11
2.2517883657
 21
-16.6164907056
  0
LINE
  5
4AC
100
AcDbEntity
  8
0
100
AcDbLine
 62
7
  6
CONTINUOUS
 10
2.6384011428
 20
-19.0
 11
2.6351323559
 21
-19.1872686779
  0
LINE
  5
4AD
100
AcDbEntity
  8
DRAFT
100
AcDbLine
 62
7
  6
CONTINUOUS
 10
2.6296736104
 20
-19.5
 11
2.6351323559
 21
-19.1872686779
  0
LWPOLYLINE
  5
4AE
100
AcDbEntity
  8
RACCORDO
100
AcDbPolyline
 62
250
  6
CONTINUOUS
 90
19
 70
0
 10
1.7518835479
 20
-16.6078419577
 10
1.7496154802
 20
-16.6882342766
 10
1.7440860931
 20
-16.7685958548
 10
1.7352953865
 20
-16.8483855132
 10
1.7232230307
 20
-16.9269462397
 10
1.7078893554
 20
-17.0038255064
 10
1.6893553495
 20
-17.0787471263
 10
1.6675655276
 20
-17.1511521773
 10
1.6425753751
 20
-17.2203715692
 10
1.6146123377
 20
-17.285900056
 10
1.5835635033
 20
-17.3471486274
 10
1.5495417841
 20
-17.4034081781
 10
1.5131133624
 20
-17.4539957958
 10
1.4740533241
 20
-17.4984144725
 10
1.4325865833
 20
-17.535973492
 10
1.3899540654
 20
-17.5659401042
 10
1.3465694122
 20
-17.5879766808
 10
1.302018982
 20
-17.6019466444
 10
1.2563027746
 20
-17.6076896529
  0
LINE
  5
4AF
100
AcDbEntity
  8
DRAFT
100
AcDbLine
 62
7
  6
CONTINUOUS
 10
3.434596365
 20
-21.2139629885
 11
3.3821231691
 21
-22.2
  0
LWPOLYLINE
  5
4B0
100
AcDbEntity
  8
RACCORDO
100
AcDbPolyline
 62
250
  6
CONTINUOUS
 90
19
 70
0
 10
2.2517883657
 20
-16.6164907056
 10
2.2471697704
 20
-16.6968382848
 10
2.2360493473
 20
-16.7771020298
 10
2.2183804569
 20
-16.8567398869
 10
2.1941980606
 20
-16.9350972755
 10
2.163528893
 20
-17.0117196734
 10
2.1263112251
 20
-17.0863236616
 10
2.0825909993
 20
-17.1583506445
 10
2.0325244648
 20
-17.227135304
 10
1.9761960325
 20
-17.2921705744
 10
1.9137728943
 20
-17.3528719877
 10
1.845603376
 20
-17.408535771
 10
1.772128603
 20
-17.4584791361
 10
1.6936135125
 20
-17.5022139645
 10
1.6107472453
 20
-17.5390563324
 10
1.5248006676
 20
-17.5682733359
 10
1.4367047392
 20
-17.5895361772
 10
1.3469587676
 20
-17.6027241506
 10
1.2563027746
 20
-17.6076896529
  0
LWPOLYLINE
  5
4B1
100
AcDbEntity
  8
0
100
AcDbPolyline
 62
7
  6
CONTINUOUS
 90
19
 70
0
 10
1.35
 20
-1.0833885027
 10
1.3508064323
 20
-1.0778476391
 10
1.3531934894
 20
-1.0729512501
 10
1.3571041113
 20
-1.0686993356
 10
1.3624631177
 20
-1.065087397
 10
1.3691972714
 20
-1.0621199329
 10
1.3772536088
 20
-1.0598104398
 10
1.3865506579
 20
-1.0581629614
 10
1.3970045549
 20
-1.057173454
 10
1.4085788635
 20
-1.0568432826
 10
1.4211884286
 20
-1.0571733434
 10
1.4347411029
 20
-1.0581627403
 10
1.4492075186
 20
-1.0598101497
 10
1.4644971842
 20
-1.0621196388
 10
1.48050091
 20
-1.0650871404
 10
1.4971675333
 20
-1.06869913
 10
1.5144017582
 20
-1.0729510995
 10
1.5320575716
 20
-1.0778475571
 10
1.55
 20
-1.0833885027
  0
LINE
  5
4B2
100
AcDbEntity
  8
RACCORDO
100
AcDbLine
 62
7
  6
CONTINUOUS
 10
-4.5352269068
 20
-19.138648283
 11
-4.5447441394
 21
-19.1741670785
  0
LINE
  5
4B3
100
AcDbEntity
  8
RACCORDO
100
AcDbLine
 62
250
  6
CONTINUOUS
 10
-4.0560295388
 20
-19.1527014887
 11
-4.0617812262
 21
-19.1741670785
  0
LINE
  5
4B4
100
AcDbEntity
  8
DRAFT
100
AcDbLine
 62
7
  6
CONTINUOUS
 10
-3.7447441394
 20
-19.1741670785
 11
-3.6980762114
 21
-19.0
  0
LINE
  5
4B5
100
AcDbEntity
  8
DRAFT
100
AcDbLine
 62
7
  6
CONTINUOUS
 10
-3.9733373476
 20
-23.5
 11
-3.9526845545
 21
-23.4301797403
  0
LINE
  5
4B6
100
AcDbEntity
  8
DRAFT
100
AcDbLine
 62
7
  6
CONTINUOUS
 10
-2.700388948
 20
-21.1802222394
 11
-3.0104834329
 21
-22.1955695989
  0
LINE
  5
4B7
100
AcDbEntity
  8
RACCORDO
100
AcDbLine
 62
250
  6
CONTINUOUS
 10
-5.7302174957
 20
-18.5604243599
 11
-5.7964643385
 21
-18.6929281366
  0
LINE
  5
4B8
100
AcDbEntity
  8
RACCORDO
100
AcDbLine
 62
250
  6
CONTINUOUS
 10
-5.4302289188
 20
-18.8603786685
 11
-5.4939254605
 21
-18.9877814546
  0
LWPOLYLINE
  5
4B9
100
AcDbEntity
  8
RACCORDO
100
AcDbPolyline
 62
7
  6
CONTINUOUS
 90
19
 70
0
 10
0.1397928475
 20
-9.2712201356
 10
0.0628122187
 20
-9.4139030627
 10
-0.006473674
 20
-9.5633569583
 10
-0.0678932048
 20
-9.7195818222
 10
-0.122447428
 20
-9.8844909521
 10
-0.1692215839
 20
-10.0561710503
 10
-0.2054827346
 20
-10.2288822245
 10
-0.2307233688
 20
-10.4011093088
 10
-0.2460851299
 20
-10.5743674691
 10
-0.2513898683
 20
-10.7474623099
 10
-0.2465352612
 20
-10.9200231793
 10
-0.231629672
 20
-11.0924207294
 10
-0.2066368768
 20
-11.2645725207
 10
-0.1702439377
 20
-11.4387983916
 10
-0.1231097389
 20
-11.6127785038
 10
-0.0682407867
 20
-11.7794709027
 10
-0.0066509328
 20
-11.9365282699
 10
0.0627516585
 20
-12.0862979238
 10
0.1397928475
 20
-12.2287798644
  0
LWPOLYLINE
  5
4BA
100
AcDbEntity
  8
RACCORDO
100
AcDbPolyline
 62
7
  6
CONTINUOUS
 90
15
 70
0
 10
-9.6942642835
 20
-18.2260690693
 10
-9.6942943716
 20
-18.2261121546
 10
-9.7124003905
 20
-18.245878149
 10
-9.7331214504
 20
-18.2629079975
 10
-9.7563208271
 20
-18.2773254792
 10
-9.7807646242
 20
-18.288362105
 10
-9.806523185
 20
-18.2958310384
 10
-9.833526166
 20
-18.2999191158
 10
-9.8603286402
 20
-18.3004183577
 10
-9.8869044608
 20
-18.2971408122
 10
-9.9132797744
 20
-18.2902744312
 10
-9.9380880934
 20
-18.2801750908
 10
-9.9608739219
 20
-18.2669614162
 10
-9.9820927558
 20
-18.250514782
 10
-10.001744595
 20
-18.2308351884
  0
LINE
  5
4BB
100
AcDbEntity
  8
RACCORDO
100
AcDbLine
 62
250
  6
CONTINUOUS
 10
9.2823447508
 20
6.732849538
 11
9.2797124261
 21
6.7301294554
  0
LINE
  5
4BC
100
AcDbEntity
  8
RACCORDO
100
AcDbLine
 62
250
  6
CONTINUOUS
 10
9.2797124261
 20
6.7301294554
 11
9.2741247798
 21
6.7244326771
  0
LWPOLYLINE
  5
4BD
100
AcDbEntity
  8
RACCORDO
100
AcDbPolyline
 62
250
  6
CONTINUOUS
 90
9
 70
0
 10
10.767664866
 20
5.2188549052
 10
10.7645127297
 20
5.2156690635
 10
10.7612667063
 20
5.2123114545
 10
10.7579285969
 20
5.2088233962
 10
10.7544972535
 20
5.2053060558
 10
10.7509728611
 20
5.2018273903
 10
10.7473552346
 20
5.1983194428
 10
10.7436426714
 20
5.1946795097
 10
10.7398356729
 20
5.190856654
  0
LINE
  5
4BE
100
AcDbEntity
  8
RACCORDO
100
AcDbLine
 62
250
  6
CONTINUOUS
 10
10.7398356729
 20
5.190856654
 11
10.731933659
 21
5.182865093
  0
LWPOLYLINE
  5
4BF
100
AcDbEntity
  8
RACCORDO
100
AcDbPolyline
 62
250
  6
CONTINUOUS
 90
11
 70
0
 10
9.2741247798
 20
6.7244326771
 10
9.26812166
 20
6.7183981138
 10
9.2649358176
 20
6.715245977
 10
9.2615782086
 20
6.7119999537
 10
9.25809015
 20
6.7086618441
 10
9.2545728095
 20
6.7052305006
 10
9.251094144
 20
6.7017061082
 10
9.2475861966
 20
6.6980884818
 10
9.2439462636
 20
6.6943759187
 10
9.240123408
 20
6.6905689203
 10
9.2321318471
 20
6.6826669064
  0
LINE
  5
4C0
100
AcDbEntity
  8
RACCORDO
100
AcDbLine
 62
250
  6
CONTINUOUS
 10
-0.2376900647
 20
-3.4877357561
 11
-0.2513909492
 21
-3.5014366406
  0
LINE
  5
4C1
100
AcDbEntity
  8
RACCORDO
100
AcDbLine
 62
7
  6
CONTINUOUS
 10
0.65
 20
-2.9
 11
0.6376900647
 21
-2.9123099353
  0
LINE
  5
4C2
100
AcDbEntity
  8
RACCORDO
100
AcDbLine
 62
250
  6
CONTINUOUS
 10
0.0622642439
 20
-3.7876900647
 11
0.0498836149
 21
-3.8000706936
  0
LINE
  5
4C3
100
AcDbEntity
  8
RACCORDO
100
AcDbLine
 62
250
  6
CONTINUOUS
 10
-10.8164171854
 20
-15.3169502523
 11
-11.0
 21
-15.500533067
  0
LINE
  5
4C4
100
AcDbEntity
  8
RACCORDO
100
AcDbLine
 62
250
  6
CONTINUOUS
 10
9.2321318471
 20
6.6826669064
 11
9.159550075
 21
6.6100548477
  0
LWPOLYLINE
  5
4C5
100
AcDbEntity
  8
RACCORDO
100
AcDbPolyline
 62
7
  6
CONTINUOUS
 90
3
 70
0
 10
0.4882017987
 20
-3.0617649856
 10
0.4242344177
 20
-3.1257321218
 10
0.3593112357
 20
-3.1909115243
  0
LINE
  5
4C6
100
AcDbEntity
  8
RACCORDO
100
AcDbLine
 62
250
  6
CONTINUOUS
 10
10.731933659
 20
5.182865093
 11
10.659321601
 21
5.1102833217
  0
LINE
  5
4C7
100
AcDbEntity
  8
RACCORDO
100
AcDbLine
 62
7
  6
CONTINUOUS
 10
0.5086575183
 20
-3.0414414805
 11
0.4882017987
 21
-3.0617649856
  0
LINE
  5
4C8
100
AcDbEntity
  8
RACCORDO
100
AcDbLine
 62
250
  6
CONTINUOUS
 10
10.7736994318
 20
5.2248580269
 11
10.767664866
 21
5.2188549052
  0
LWPOLYLINE
  5
4C9
100
AcDbEntity
  8
RACCORDO
100
AcDbPolyline
 62
7
  6
CONTINUOUS
 90
3
 70
0
 10
0.5648068762
 20
-2.9853449791
 10
0.5469600571
 20
-3.0030104805
 10
0.5086575183
 20
-3.0414414805
  0
LINE
  5
4CA
100
AcDbEntity
  8
RACCORDO
100
AcDbLine
 62
7
  6
CONTINUOUS
 10
0.3593112357
 20
-3.1909115243
 11
0.3377357561
 21
-3.2122642439
  0
LWPOLYLINE
  5
4CB
100
AcDbEntity
  8
RACCORDO
100
AcDbPolyline
 62
250
  6
CONTINUOUS
 90
3
 70
0
 10
10.7821163213
 20
5.2330780252
 10
10.7793962262
 20
5.2304456886
 10
10.7736994318
 20
5.2248580269
  0
LWPOLYLINE
  5
4CC
100
AcDbEntity
  8
RACCORDO
100
AcDbPolyline
 62
250
  6
CONTINUOUS
 90
3
 70
0
 10
9.3216498976
 20
6.7673133252
 10
9.312531045
 20
6.7589866952
 10
9.3083612583
 20
6.75524131
  0
LWPOLYLINE
  5
4CD
100
AcDbEntity
  8
RACCORDO
100
AcDbPolyline
 62
250
  6
CONTINUOUS
 90
3
 70
0
 10
9.3083612583
 20
6.75524131
 10
9.3008427234
 20
6.7485854556
 10
9.2975077664
 20
6.7456661117
  0
LINE
  5
4CE
100
AcDbEntity
  8
RACCORDO
100
AcDbLine
 62
250
  6
CONTINUOUS
 10
9.2975077664
 20
6.7456661117
 11
9.2893218096
 21
6.738596714
  0
LWPOLYLINE
  5
4CF
100
AcDbEntity
  8
RACCORDO
100
AcDbPolyline
 62
250
  6
CONTINUOUS
 90
5
 70
0
 10
9.2893218096
 20
6.738596714
 10
9.2854892593
 20
6.7353476545
 10
9.2840971244
 20
6.7341858731
 10
9.2830489316
 20
6.7333492912
 10
9.2823446809
 20
6.732849538
  0
LWPOLYLINE
  5
4D0
100
AcDbEntity
  8
RACCORDO
100
AcDbPolyline
 62
7
  6
CONTINUOUS
 90
7
 70
0
 10
0.6376900647
 20
-2.9123099353
 10
0.6344658535
 20
-2.9147618686
 10
0.6287622211
 20
-2.9206211423
 10
0.6205791673
 20
-2.9294208327
 10
0.6095902908
 20
-2.9406359833
 10
0.5961219931
 20
-2.9538440553
 10
0.5648068762
 20
-2.9853449791
  0
LINE
  5
4D1
100
AcDbEntity
  8
ASSI
100
AcDbLine
 62
7
  6
CONTINUOUS
 10
-3.432368
 20
-4.996757
 11
-4.225046
 21
-5.407643
  0
LINE
  5
4D2
100
AcDbEntity
  8
ASSI
100
AcDbLine
 62
7
  6
CONTINUOUS
 10
-4.225041
 20
-5.869462
 11
-3.3830587682
 21
-5.4330213615
  0
LINE
  5
4D3
100
AcDbEntity
  8
ASSI
100
AcDbLine
 62
7
  6
CONTINUOUS
 10
-2.813452
 20
-3.092256
 11
-3.432368
 21
-3.290967
  0
LINE
  5
4D4
100
AcDbEntity
  8
ASSI
100
AcDbLine
 62
7
  6
CONTINUOUS
 10
-3.821883
 20
-3.416038
 11
-4.225046
 21
-3.545475
  0
LINE
  5
4D5
100
AcDbEntity
  8
ASSI
100
AcDbLine
 62
7
  6
CONTINUOUS
 10
-4.225051
 20
-3.955495
 11
-2.174954
 21
-3.297276
  0
LWPOLYLINE
  5
4D6
100
AcDbEntity
  8
RACCORDO
100
AcDbPolyline
 62
7
  6
CONTINUOUS
 90
10
 70
0
 10
8.45
 20
-1.0833885027
 10
8.2932788037
 20
-1.1332561543
 10
8.1399162366
 20
-1.1808199469
 10
7.9899122988
 20
-1.2260798804
 10
7.8437191812
 20
-1.2689096736
 10
7.7008846929
 20
-1.3094356077
 10
7.5600522612
 20
-1.3480365269
 10
7.4207696954
 20
-1.3848387126
 10
7.2834891862
 20
-1.4197158834
 10
7.1482107338
 20
-1.4526680392
  0
LWPOLYLINE
  5
4D7
100
AcDbEntity
  8
0
100
AcDbPolyline
 62
7
  6
CONTINUOUS
 90
16
 70
0
 10
8.3659079749
 20
0.5467636127
 10
8.2677437781
 20
0.5156058782
 10
8.0902711363
 20
0.4609273896
 10
7.9175820744
 20
0.409419314
 10
7.7503774583
 20
0.3612818487
 10
7.5879564221
 20
0.3163147965
 10
7.4282163693
 20
0.2739175649
 10
7.2709329465
 20
0.2339679601
 10
7.116330507
 20
0.196588176
 10
6.9629795137
 20
0.1615442019
 10
6.8107433106
 20
0.12875301
 10
6.6597585538
 20
0.098297628
 10
6.5090056738
 20
0.0701931287
 10
6.3581448142
 20
0.0444445364
 10
6.2075158315
 20
0.0210468269
 10
6.0571187256
 20
0.0
  0
LWPOLYLINE
  5
4D8
100
AcDbEntity
  8
RACCORDO
100
AcDbPolyline
 62
7
  6
CONTINUOUS
 90
13
 70
0
 10
2.2102159494
 20
4.75
 10
2.1954081894
 20
4.7482258989
 10
2.178213902
 20
4.7435234411
 10
2.1586141102
 20
4.7358926268
 10
2.1366068516
 20
4.7252175819
 10
2.1122103918
 20
4.7116141805
 10
2.0854652221
 20
4.6954300445
 10
2.0564581316
 20
4.676641953
 10
2.0252503392
 20
4.655273127
 10
1.9918666139
 20
4.6317408522
 10
1.9564937303
 20
4.6060341997
 10
1.91922534
 20
4.5781640983
 10
1.8387649683
 20
4.5174337902
  0
LWPOLYLINE
  5
4D9
100
AcDbEntity
  8
RACCORDO
100
AcDbPolyline
 62
250
  6
CONTINUOUS
 90
31
 70
0
 10
0.0622642439
 20
2.1876900647
 10
0.0480240467
 20
2.1873475135
 10
0.0335507113
 20
2.1863038359
 10
0.0188808933
 20
2.1845229345
 10
0.0040257949
 20
2.1819642943
 10
-0.010940676
 20
2.1785976773
 10
-0.0258852074
 20
2.174418278
 10
-0.0407604618
 20
2.1694107828
 10
-0.0555167838
 20
2.1635625635
 10
-0.0700223287
 20
2.1569032878
 10
-0.0842306405
 20
2.1494387987
 10
-0.0980940051
 20
2.1411781799
 10
-0.1114909464
 20
2.1321858477
 10
-0.1243705844
 20
2.1224980562
 10
-0.1367094046
 20
2.1121346758
 10
-0.1484411995
 20
2.101156489
 10
-0.1595262342
 20
2.0896126869
 10
-0.1699507181
 20
2.0775302497
 10
-0.179694487
 20
2.064943091
 10
-0.1887328349
 20
2.0518940725
 10
-0.1970483441
 20
2.0384200781
 10
-0.2046318972
 20
2.0245450863
 10
-0.211465495
 20
2.0103089072
 10
-0.2175330154
 20
1.9957527416
 10
-0.2228263114
 20
1.9809011029
 10
-0.2273312293
 20
1.9657952072
 10
-0.2310358195
 20
1.9504768898
 10
-0.2339331759
 20
1.9349708365
 10
-0.2360136335
 20
1.9193135546
 10
-0.237267865
 20
1.9035539969
 10
-0.2376900647
 20
1.8877357561
  0
LINE
  5
4DA
100
AcDbEntity
  8
RACCORDO
100
AcDbLine
 62
7
  6
CONTINUOUS
 10
-10.7786406624
 20
3.7684924105
 11
-10.7174842034
 21
3.7690226547
  0
LINE
  5
4DB
100
AcDbEntity
  8
RACCORDO
100
AcDbLine
 62
7
  6
CONTINUOUS
 10
-10.7174842034
 20
3.7690226547
 11
-10.5174728768
 21
3.7694491434
  0
LINE
  5
4DC
100
AcDbEntity
  8
ASSI
100
AcDbLine
 62
7
  6
CONTINUOUS
 10
-2.174959
 20
0.869657
 11
-4.225056
 21
0.869662
  0
LINE
  5
4DD
100
AcDbEntity
  8
DRAFT
100
AcDbLine
 62
7
  6
CONTINUOUS
 10
9.35
 20
1.3
 11
0.65
 21
1.3
  0
LINE
  5
4DE
100
AcDbEntity
  8
RACCORDO
100
AcDbLine
 62
250
  6
CONTINUOUS
 10
0.6376900647
 20
1.3123099353
 11
9.3623099353
 21
1.3123099353
  0
LINE
  5
4DF
100
AcDbEntity
  8
RACCORDO
100
AcDbLine
 62
250
  6
CONTINUOUS
 10
0.3377357561
 20
1.6122642439
 11
9.6622642439
 21
1.6122642439
  0
LINE
  5
4E0
100
AcDbEntity
  8
RACCORDO
100
AcDbLine
 62
250
  6
CONTINUOUS
 10
-0.2376900647
 20
1.8877357561
 11
10.2376900647
 21
1.8877357561
  0
LINE
  5
4E1
100
AcDbEntity
  8
RACCORDO
100
AcDbLine
 62
250
  6
CONTINUOUS
 10
9.9377357561
 20
2.1876900647
 11
0.0622642439
 21
2.1876900647
  0
LINE
  5
4E2
100
AcDbEntity
  8
RACCORDO
100
AcDbLine
 62
7
  6
CONTINUOUS
 10
0.1397928475
 20
2.2
 11
9.6594739059
 21
2.2
  0
LINE
  5
4E3
100
AcDbEntity
  8
RACCORDO
100
AcDbLine
 62
7
  6
CONTINUOUS
 10
-4.8
 20
3.0
 11
-9.2
 21
3.0
  0
LINE
  5
4E4
100
AcDbEntity
  8
RACCORDO
100
AcDbLine
 62
250
  6
CONTINUOUS
 10
-1.9826972631
 20
3.2673788893
 11
-0.982849568
 21
3.2673788893
  0
LINE
  5
4E5
100
AcDbEntity
  8
RACCORDO
100
AcDbLine
 62
250
  6
CONTINUOUS
 10
0.1397928475
 20
3.3901736096
 11
-0.8600548477
 21
3.3901736096
  0
LINE
  5
4E6
100
AcDbEntity
  8
RACCORDO
100
AcDbLine
 62
250
  6
CONTINUOUS
 10
-9.8165695552
 20
3.7672864157
 11
-2.4826211107
 21
3.7673027369
  0
LINE
  5
4E7
100
AcDbEntity
  8
RACCORDO
100
AcDbLine
 62
250
  6
CONTINUOUS
 10
8.2481976273
 20
4.45
 11
1.7519583799
 21
4.45
  0
LINE
  5
4E8
100
AcDbEntity
  8
RACCORDO
100
AcDbLine
 62
7
  6
CONTINUOUS
 10
-10.5174728768
 20
3.7694491434
 11
-10.1549289928
 21
3.7687884473
  0
LINE
  5
4E9
100
AcDbEntity
  8
RACCORDO
100
AcDbLine
 62
7
  6
CONTINUOUS
 10
-10.1549289928
 20
3.7687884473
 11
-9.8165694902
 21
3.7673027369
  0
LWPOLYLINE
  5
4EA
100
AcDbEntity
  8
RACCORDO
100
AcDbPolyline
 62
250
  6
CONTINUOUS
 90
22
 70
0
 10
-2.4826211107
 20
3.7673027369
 10
-2.4449987296
 20
3.7658560563
 10
-2.4079727055
 20
3.7616918181
 10
-2.3715430385
 20
3.7548100223
 10
-2.3355063945
 20
3.7451423677
 10
-2.3000661076
 20
3.7327571554
 10
-2.2658321798
 20
3.7178592895
 10
-2.2328313251
 20
3.7004073464
 10
-2.2010368296
 20
3.6804427496
 10
-2.1709785534
 20
3.6582946736
 10
-2.1426848237
 20
3.6339252231
 10
-2.1161273134
 20
3.6073722934
 10
-2.0917509013
 20
3.5790787445
 10
-2.0695926284
 20
3.5490142614
 10
-2.0496154538
 20
3.5172091591
 10
-2.0321531334
 20
3.4841972428
 10
-2.0172488227
 20
3.4499516836
 10
-2.0048593662
 20
3.4144993105
 10
-1.9951890531
 20
3.3784544153
 10
-1.9883059798
 20
3.3420217621
 10
-1.9841420498
 20
3.3049965867
 10
-1.9826972631
 20
3.2673788893
  0
LWPOLYLINE
  5
4EB
100
AcDbEntity
  8
RACCORDO
100
AcDbPolyline
 62
7
  6
CONTINUOUS
 90
16
 70
0
 10
9.9508028408
 20
2.2007571494
 10
9.983847997
 20
2.1991463271
 10
10.0163811128
 20
2.1939892783
 10
10.0480235916
 20
2.1853921153
 10
10.0784834887
 20
2.1734765214
 10
10.1073470214
 20
2.1584344857
 10
10.1341172475
 20
2.1405910941
 10
10.1584660541
 20
2.1203228426
 10
10.1802942513
 20
2.0978790693
 10
10.1995079556
 20
2.0734463126
 10
10.2159987196
 20
2.047236185
 10
10.2295781959
 20
2.0196413301
 10
10.2400980475
 20
1.9911246866
 10
10.2475386235
 20
1.9620682025
 10
10.2519559031
 20
1.9327447896
 10
10.2534122812
 20
1.9034579727
  0
LWPOLYLINE
  5
4EC
100
AcDbEntity
  8
0
100
AcDbPolyline
 62
7
  6
CONTINUOUS
 90
16
 70
0
 10
3.9428812744
 20
0.0
 10
3.7923950978
 20
0.021061077
 10
3.6416887281
 20
0.0444726573
 10
3.4907621654
 20
0.0702347409
 10
3.3399549156
 20
0.0983530202
 10
3.1889274727
 20
0.1288218029
 10
3.0366613192
 20
0.1616240111
 10
2.883293056
 20
0.1966765468
 10
2.7286860821
 20
0.2340625081
 10
2.5714120768
 20
0.2740141117
 10
2.4116950718
 20
0.3164092031
 10
2.2493110355
 20
0.3613699368
 10
2.0821595518
 20
0.4094949933
 10
1.909540482
 20
0.4609839327
 10
1.7321539647
 20
0.5156371949
 10
1.634091579
 20
0.5467632279
  0
LINE
  5
4ED
100
AcDbEntity
  8
0
100
AcDbLine
 62
250
  6
CONTINUOUS
 10
6.75
 20
0.8313868826
 11
7.9493456969
 21
0.4969580155
  0
LINE
  5
4EE
100
AcDbEntity
  8
0
100
AcDbLine
 62
7
  6
CONTINUOUS
 10
6.7636334374
 20
0.8794927458
 11
7.9627755018
 21
0.5451206601
  0
LINE
  5
4EF
100
AcDbEntity
  8
ASSI
100
AcDbLine
 62
7
  6
CONTINUOUS
 10
-2.174959
 20
1.553019
 11
-3.586558
 21
2.006228
  0
LINE
  5
4F0
100
AcDbEntity
  8
RACCORDO
100
AcDbLine
 62
250
  6
CONTINUOUS
 10
-0.2376900647
 20
1.8877357561
 11
-0.2513909492
 21
1.9014366406
  0
LINE
  5
4F1
100
AcDbEntity
  8
RACCORDO
100
AcDbLine
 62
7
  6
CONTINUOUS
 10
0.65
 20
1.3
 11
0.6376900647
 21
1.3123099353
  0
LINE
  5
4F2
100
AcDbEntity
  8
RACCORDO
100
AcDbLine
 62
250
  6
CONTINUOUS
 10
0.0622642439
 20
2.1876900647
 11
0.0498836149
 21
2.2000706936
  0
LINE
  5
4F3
100
AcDbEntity
  8
RACCORDO
100
AcDbLine
 62
250
  6
CONTINUOUS
 10
9.9377357561
 20
-3.7876900647
 11
9.9508028408
 21
-3.8007571494
  0
LINE
  5
4F4
100
AcDbEntity
  8
RACCORDO
100
AcDbLine
 62
7
  6
CONTINUOUS
 10
9.35
 20
-2.9
 11
9.3623099353
 21
-2.9123099353
  0
LINE
  5
4F5
100
AcDbEntity
  8
RACCORDO
100
AcDbLine
 62
250
  6
CONTINUOUS
 10
-10.4994109391
 20
16.2054147018
 11
-10.7004988902
 21
16.4065314852
  0
LINE
  5
4F6
100
AcDbEntity
  8
RACCORDO
100
AcDbLine
 62
250
  6
CONTINUOUS
 10
-10.659321601
 20
15.159649807
 11
-11.0
 21
15.500533067
  0
LINE
  5
4F7
100
AcDbEntity
  8
RACCORDO
100
AcDbLine
 62
7
  6
CONTINUOUS
 10
0.4882350144
 20
1.4617982013
 11
0.3590884757
 21
1.5906887643
  0
LINE
  5
4F8
100
AcDbEntity
  8
RACCORDO
100
AcDbLine
 62
7
  6
CONTINUOUS
 10
9.5117649856
 20
-3.0617982013
 11
9.6409115243
 21
-3.1906887643
  0
LINE
  5
4F9
100
AcDbEntity
  8
RACCORDO
100
AcDbLine
 62
7
  6
CONTINUOUS
 10
0.5085585195
 20
1.4413424817
 11
0.4882350144
 21
1.4617982013
  0
LINE
  5
4FA
100
AcDbEntity
  8
RACCORDO
100
AcDbLine
 62
7
  6
CONTINUOUS
 10
9.4914414805
 20
-3.0413424817
 11
9.5117649856
 21
-3.0617982013
  0
LWPOLYLINE
  5
4FB
100
AcDbEntity
  8
RACCORDO
100
AcDbPolyline
 62
7
  6
CONTINUOUS
 90
3
 70
0
 10
0.5646550209
 20
1.3851931238
 10
0.5469895195
 20
1.4030399429
 10
0.5085585195
 20
1.4413424817
  0
LINE
  5
4FC
100
AcDbEntity
  8
RACCORDO
100
AcDbLine
 62
7
  6
CONTINUOUS
 10
0.3590884757
 20
1.5906887643
 11
0.3377357561
 21
1.6122642439
  0
LWPOLYLINE
  5
4FD
100
AcDbEntity
  8
RACCORDO
100
AcDbPolyline
 62
7
  6
CONTINUOUS
 90
7
 70
0
 10
0.6376900647
 20
1.3123099353
 10
0.6352381314
 20
1.3155341465
 10
0.6293788577
 20
1.3212377789
 10
0.6205791673
 20
1.3294208327
 10
0.6093640167
 20
1.3404097092
 10
0.5961559447
 20
1.3538780069
 10
0.5646550209
 20
1.3851931238
  0
LINE
  5
4FE
100
AcDbEntity
  8
DRAFT
100
AcDbLine
 62
7
  6
CONTINUOUS
 10
-3.0104834329
 20
22.1955695989
 11
-2.700388948
 21
21.1802222394
  0
LINE
  5
4FF
100
AcDbEntity
  8
DRAFT
100
AcDbLine
 62
7
  6
CONTINUOUS
 10
-3.9733373476
 20
23.5
 11
-3.9526845545
 21
23.4301797403
  0
LINE
  5
500
100
AcDbEntity
  8
0
100
AcDbLine
 62
250
  6
CONTINUOUS
 10
2.0506543031
 20
0.4969580155
 11
2.0372244982
 21
0.5451206601
  0
LINE
  5
501
100
AcDbEntity
  8
0
100
AcDbLine
 62
250
  6
CONTINUOUS
 10
7.9493456969
 20
-11.9969580155
 11
7.9627755018
 21
-12.0451206601
  0
LINE
  5
502
100
AcDbEntity
  8
RACCORDO
100
AcDbLine
 62
7
  6
CONTINUOUS
 10
-4.5447441394
 20
19.1741670785
 11
-4.5352269068
 21
19.138648283
  0
LINE
  5
503
100
AcDbEntity
  8
RACCORDO
100
AcDbLine
 62
250
  6
CONTINUOUS
 10
-4.0617812262
 20
19.1741670785
 11
-4.0560295388
 21
19.1527014887
  0
LINE
  5
504
100
AcDbEntity
  8
DRAFT
100
AcDbLine
 62
7
  6
CONTINUOUS
 10
-3.6980762114
 20
19.0
 11
-3.7447441394
 21
19.1741670785
  0
LINE
  5
505
100
AcDbEntity
  8
DRAFT
100
AcDbLine
 62
7
  6
CONTINUOUS
 10
7.2352506643
 20
-20.833660631
 11
7.2084845302
 21
-19.9483339502
  0
LWPOLYLINE
  5
506
100
AcDbEntity
  8
RACCORDO
100
AcDbPolyline
 62
250
  6
CONTINUOUS
 90
3
 70
0
 10
7.5893557947
 20
18.852873227
 10
7.5894396792
 20
18.849151657
 10
7.5893155753
 20
18.8400137029
  0
LINE
  5
507
100
AcDbEntity
  8
DRAFT
100
AcDbLine
 62
7
  6
CONTINUOUS
 10
6.0817405883
 20
19.1741670785
 11
6.0823605712
 21
19.138648283
  0
LINE
  5
508
100
AcDbEntity
  8
RACCORDO
100
AcDbLine
 62
7
  6
CONTINUOUS
 10
6.1022357509
 20
18.0
 11
6.0824911037
 21
19.1311700795
  0
LINE
  5
509
100
AcDbEntity
  8
RACCORDO
100
AcDbLine
 62
250
  6
CONTINUOUS
 10
6.2828066874
 20
19.1148356752
 11
6.297029697
 21
18.3
  0
LINE
  5
50A
100
AcDbEntity
  8
RACCORDO
100
AcDbLine
 62
250
  6
CONTINUOUS
 10
6.719522293
 20
18.0
 11
6.7189442311
 21
18.0324925101
  0
LINE
  5
50B
100
AcDbEntity
  8
RACCORDO
100
AcDbLine
 62
250
  6
CONTINUOUS
 10
7.2705180465
 20
18.5341647786
 11
7.2708441747
 21
18.5119411034
  0
LINE
  5
50C
100
AcDbEntity
  8
RACCORDO
100
AcDbLine
 62
250
  6
CONTINUOUS
 10
7.7483676416
 20
-16.6164907056
 11
7.7482840139
 21
-16.610720423
  0
LINE
  5
50D
100
AcDbEntity
  8
RACCORDO
100
AcDbLine
 62
250
  6
CONTINUOUS
 10
6.297029697
 20
18.3
 11
6.3005222727
 21
18.0
  0
LINE
  5
50E
100
AcDbEntity
  8
RACCORDO
100
AcDbLine
 62
250
  6
CONTINUOUS
 10
6.7189442311
 20
18.0324925101
 11
6.7180894321
 21
18.0998749202
  0
LINE
  5
50F
100
AcDbEntity
  8
RACCORDO
100
AcDbLine
 62
7
  6
CONTINUOUS
 10
5.7964643385
 20
18.6929281366
 11
5.8
 21
18.2877814546
  0
LINE
  5
510
100
AcDbEntity
  8
RACCORDO
100
AcDbLine
 62
250
  6
CONTINUOUS
 10
8.2482724594
 20
-16.6078419577
 11
8.2481976273
 21
-16.5991905864
  0
LINE
  5
511
100
AcDbEntity
  8
RACCORDO
100
AcDbLine
 62
250
  6
CONTINUOUS
 10
7.7482840139
 20
-16.610720423
 11
7.7482337106
 21
-16.6049536525
  0
LINE
  5
512
100
AcDbEntity
  8
RACCORDO
100
AcDbLine
 62
250
  6
CONTINUOUS
 10
7.2708441747
 20
18.5119411034
 11
7.2712410595
 21
18.4654792539
  0
LINE
  5
513
100
AcDbEntity
  8
RACCORDO
100
AcDbLine
 62
250
  6
CONTINUOUS
 10
6.7180894321
 20
18.0998749202
 11
6.7173068848
 21
18.2162232084
  0
LINE
  5
514
100
AcDbEntity
  8
RACCORDO
100
AcDbLine
 62
250
  6
CONTINUOUS
 10
6.5181197681
 20
18.0
 11
6.5173372745
 21
18.1752415115
  0
LWPOLYLINE
  5
515
100
AcDbEntity
  8
RACCORDO
100
AcDbPolyline
 62
250
  6
CONTINUOUS
 90
3
 70
0
 10
7.2712410595
 20
18.4654792539
 10
7.2715724939
 20
18.3651195341
 10
7.2715831625
 20
18.3429975542
  0
LINE
  5
516
100
AcDbEntity
  8
RACCORDO
100
AcDbLine
 62
250
  6
CONTINUOUS
 10
7.7482337106
 20
-16.6049536525
 11
7.7482166658
 21
-16.5991905864
  0
LINE
  5
517
100
AcDbEntity
  8
0
100
AcDbLine
 62
7
  6
CONTINUOUS
 10
4.813466
 20
10.577725
 11
4.813466
 21
10.337726
  0
LINE
  5
518
100
AcDbEntity
  8
0
100
AcDbLine
 62
7
  6
CONTINUOUS
 10
5.182989
 20
9.096358
 11
5.182989
 21
7.883502
  0
LINE
  5
519
100
AcDbEntity
  8
0
100
AcDbLine
 62
7
  6
CONTINUOUS
 10
5.422987
 20
7.883502
 11
5.422987
 21
9.096358
  0
LINE
  5
51A
100
AcDbEntity
  8
RACCORDO
100
AcDbLine
 62
7
  6
CONTINUOUS
 10
5.7284168375
 20
17.9284168375
 11
5.7284168375
 21
18.3504563439
  0
LINE
  5
51B
100
AcDbEntity
  8
DRAFT
100
AcDbLine
 62
7
  6
CONTINUOUS
 10
5.8
 20
18.0
 11
5.8
 21
18.2877814546
  0
LINE
  5
51C
100
AcDbEntity
  8
0
100
AcDbLine
 62
7
  6
CONTINUOUS
 10
5.808535
 20
10.337726
 11
5.808535
 21
10.577725
  0
LINE
  5
51D
100
AcDbEntity
  8
0
100
AcDbLine
 62
7
  6
CONTINUOUS
 10
6.293457
 20
9.717042
 11
6.293457
 21
9.96049
  0
LINE
  5
51E
100
AcDbEntity
  8
0
100
AcDbLine
 62
7
  6
CONTINUOUS
 10
6.381939
 20
0.7179179173
 11
6.381939
 21
0.0485056746
  0
LINE
  5
51F
100
AcDbEntity
  8
0
100
AcDbLine
 62
7
  6
CONTINUOUS
 10
6.381939
 20
-1.5
 11
6.381939
 21
-2.3179179173
  0
LINE
  5
520
100
AcDbEntity
  8
0
100
AcDbLine
 62
7
  6
CONTINUOUS
 10
6.381939
 20
-12.2679179173
 11
6.381939
 21
-11.5485057413
  0
LINE
  5
521
100
AcDbEntity
  8
0
100
AcDbLine
 62
7
  6
CONTINUOUS
 10
6.381939
 20
-10.0
 11
6.381939
 21
-9.2320820827
  0
LINE
  5
522
100
AcDbEntity
  8
RACCORDO
100
AcDbLine
 62
250
  6
CONTINUOUS
 10
6.5171815971
 20
-19.1148356752
 11
6.5171815971
 21
-18.9877814546
  0
LINE
  5
523
100
AcDbEntity
  8
RACCORDO
100
AcDbLine
 62
250
  6
CONTINUOUS
 10
6.5173372745
 20
18.1752415115
 11
6.5171815971
 21
19.1148356752
  0
LINE
  5
524
100
AcDbEntity
  8
RACCORDO
100
AcDbLine
 62
250
  6
CONTINUOUS
 10
6.7171511361
 20
-19.1131207627
 11
6.7171511361
 21
-18.9877814546
  0
LINE
  5
525
100
AcDbEntity
  8
RACCORDO
100
AcDbLine
 62
250
  6
CONTINUOUS
 10
6.7173068848
 20
18.2162232084
 11
6.7171511361
 21
19.1131207627
  0
LINE
  5
526
100
AcDbEntity
  8
0
100
AcDbLine
 62
7
  6
CONTINUOUS
 10
6.75
 20
0.8755283712
 11
6.75
 21
0.1165003775
  0
LINE
  5
527
100
AcDbEntity
  8
0
100
AcDbLine
 62
7
  6
CONTINUOUS
 10
6.75
 20
-1.5
 11
6.75
 21
-2.4755283712
  0
LINE
  5
528
100
AcDbEntity
  8
0
100
AcDbLine
 62
7
  6
CONTINUOUS
 10
6.75
 20
-12.3832943312
 11
6.75
 21
-11.6165008265
  0
LINE
  5
529
100
AcDbEntity
  8
0
100
AcDbLine
 62
7
  6
CONTINUOUS
 10
6.75
 20
-10.0
 11
6.75
 21
-9.0744716288
  0
LINE
  5
52A
100
AcDbEntity
  8
0
100
AcDbLine
 62
7
  6
CONTINUOUS
 10
6.778161
 20
9.096358
 11
6.778161
 21
9.339807
  0
LINE
  5
52B
100
AcDbEntity
  8
RACCORDO
100
AcDbLine
 62
7
  6
CONTINUOUS
 10
6.8830351795
 20
-19.0301850577
 11
6.8830351795
 21
-18.9877814546
  0
LINE
  5
52C
100
AcDbEntity
  8
RACCORDO
100
AcDbLine
 62
7
  6
CONTINUOUS
 10
6.8830351795
 20
18.0
 11
6.8830351795
 21
19.0301850577
  0
LINE
  5
52D
100
AcDbEntity
  8
DRAFT
100
AcDbLine
 62
7
  6
CONTINUOUS
 10
7.2
 20
18.2877814546
 11
7.2
 21
18.0
  0
LINE
  5
52E
100
AcDbEntity
  8
DRAFT
100
AcDbLine
 62
7
  6
CONTINUOUS
 10
7.2084845302
 20
-19.9483339502
 11
7.2084845302
 21
-19.1872686779
  0
LINE
  5
52F
100
AcDbEntity
  8
DRAFT
100
AcDbLine
 62
7
  6
CONTINUOUS
 10
7.2084845302
 20
19.1872686779
 11
7.2084845302
 21
19.9483339502
  0
LINE
  5
530
100
AcDbEntity
  8
RACCORDO
100
AcDbLine
 62
250
  6
CONTINUOUS
 10
7.25
 20
-13.75
 11
7.25
 21
-13.4377357561
  0
LINE
  5
531
100
AcDbEntity
  8
RACCORDO
100
AcDbLine
 62
250
  6
CONTINUOUS
 10
7.25
 20
-13.1622642439
 11
7.25
 21
-12.85
  0
LINE
  5
532
100
AcDbEntity
  8
RACCORDO
100
AcDbLine
 62
250
  6
CONTINUOUS
 10
7.25
 20
-8.65
 11
7.25
 21
-8.3377357561
  0
LINE
  5
533
100
AcDbEntity
  8
RACCORDO
100
AcDbLine
 62
250
  6
CONTINUOUS
 10
7.25
 20
-8.0622642439
 11
7.25
 21
-7.75
  0
LINE
  5
534
100
AcDbEntity
  8
RACCORDO
100
AcDbLine
 62
7
  6
CONTINUOUS
 10
7.2715831625
 20
18.3429975542
 11
7.2715831625
 21
17.9284168375
  0
LINE
  5
535
100
AcDbEntity
  8
RACCORDO
100
AcDbLine
 62
250
  6
CONTINUOUS
 10
7.3609117354
 20
-18.3504563439
 11
7.3609117347
 21
-18.8603786685
  0
LINE
  5
536
100
AcDbEntity
  8
DRAFT
100
AcDbLine
 62
7
  6
CONTINUOUS
 10
7.3830351795
 20
-20.9
 11
7.3830351795
 21
-19.0301850577
  0
LINE
  5
537
100
AcDbEntity
  8
DRAFT
100
AcDbLine
 62
7
  6
CONTINUOUS
 10
7.3830351795
 20
19.0301850577
 11
7.3830351795
 21
20.9
  0
LINE
  5
538
100
AcDbEntity
  8
0
100
AcDbLine
 62
7
  6
CONTINUOUS
 10
7.55
 20
-12.1602201213
 11
7.55
 21
-12.4730606666
  0
LINE
  5
539
100
AcDbEntity
  8
0
100
AcDbLine
 62
7
  6
CONTINUOUS
 10
7.55
 20
0.6602201213
 11
7.55
 21
0.9230606666
  0
LINE
  5
53A
100
AcDbEntity
  8
RACCORDO
100
AcDbLine
 62
250
  6
CONTINUOUS
 10
7.5715717394
 20
18.3429975431
 11
7.5715717394
 21
17.9258216238
  0
LINE
  5
53B
100
AcDbEntity
  8
ASSI
100
AcDbLine
 62
7
  6
CONTINUOUS
 10
7.6
 20
4.7955889632
 11
7.6
 21
4.75
  0
LINE
  5
53C
100
AcDbEntity
  8
0
100
AcDbLine
 62
7
  6
CONTINUOUS
 10
7.6
 20
-16.25
 11
7.6
 21
-16.2955889632
  0
LINE
  5
53D
100
AcDbEntity
  8
RACCORDO
100
AcDbLine
 62
250
  6
CONTINUOUS
 10
7.6999767556
 20
-16.695677755
 11
7.6999751959
 21
-16.2894765244
  0
LINE
  5
53E
100
AcDbEntity
  8
RACCORDO
100
AcDbLine
 62
250
  6
CONTINUOUS
 10
7.6999759551
 20
5.6980445509
 11
7.6999751959
 21
4.7894765244
  0
LINE
  5
53F
100
AcDbEntity
  8
DRAFT
100
AcDbLine
 62
7
  6
CONTINUOUS
 10
7.7302935336
 20
4.7591581867
 11
7.7302935336
 21
4.75
  0
LINE
  5
540
100
AcDbEntity
  8
DRAFT
100
AcDbLine
 62
7
  6
CONTINUOUS
 10
7.7302935336
 20
-16.25
 11
7.7302935336
 21
-16.2591581867
  0
LINE
  5
541
100
AcDbEntity
  8
RACCORDO
100
AcDbLine
 62
7
  6
CONTINUOUS
 10
7.7482166658
 20
5.6015557812
 11
7.7482166658
 21
4.75
  0
LINE
  5
542
100
AcDbEntity
  8
RACCORDO
100
AcDbLine
 62
7
  6
CONTINUOUS
 10
7.7482166658
 20
-16.5991905864
 11
7.7482166658
 21
-16.25
  0
LINE
  5
543
100
AcDbEntity
  8
0
100
AcDbLine
 62
7
  6
CONTINUOUS
 10
8.0
 20
18.964182451
 11
8.0
 21
18.9509188399
  0
LINE
  5
544
100
AcDbEntity
  8
0
100
AcDbLine
 62
7
  6
CONTINUOUS
 10
8.0
 20
-18.9509188399
 11
8.0
 21
-18.964182451
  0
LINE
  5
545
100
AcDbEntity
  8
0
100
AcDbLine
 62
7
  6
CONTINUOUS
 10
8.1999851216
 20
-11.9947290652
 11
8.1999854341
 21
-11.999186601
  0
LINE
  5
546
100
AcDbEntity
  8
0
100
AcDbLine
 62
250
  6
CONTINUOUS
 10
8.2
 20
-10.0
 11
8.2
 21
-9.2815221434
  0
LINE
  5
547
100
AcDbEntity
  8
RACCORDO
100
AcDbLine
 62
250
  6
CONTINUOUS
 10
8.2481976273
 20
5.6015557812
 11
8.2481976273
 21
4.45
  0
LINE
  5
548
100
AcDbEntity
  8
RACCORDO
100
AcDbLine
 62
250
  6
CONTINUOUS
 10
8.2481976273
 20
-16.5991905864
 11
8.2481976273
 21
-15.95
  0
LINE
  5
549
100
AcDbEntity
  8
0
100
AcDbLine
 62
250
  6
CONTINUOUS
 10
8.45
 20
0.472801792
 11
8.45
 21
-1.0833885027
  0
LINE
  5
54A
100
AcDbEntity
  8
0
100
AcDbLine
 62
250
  6
CONTINUOUS
 10
8.45
 20
-12.022801792
 11
8.45
 21
-10.4166114973
  0
LINE
  5
54B
100
AcDbEntity
  8
0
100
AcDbLine
 62
7
  6
CONTINUOUS
 10
8.65
 20
0.2480853263
 11
8.65
 21
-1.0833885027
  0
LINE
  5
54C
100
AcDbEntity
  8
0
100
AcDbLine
 62
7
  6
CONTINUOUS
 10
8.65
 20
-11.7980853263
 11
8.65
 21
-10.4166114973
  0
LINE
  5
54D
100
AcDbEntity
  8
RACCORDO
100
AcDbLine
 62
7
  6
CONTINUOUS
 10
8.65
 20
-10.4166114973
 11
8.65
 21
-10.0
  0
LINE
  5
54E
100
AcDbEntity
  8
RACCORDO
100
AcDbLine
 62
7
  6
CONTINUOUS
 10
8.65
 20
-1.5
 11
8.65
 21
-1.0833885027
  0
LINE
  5
54F
100
AcDbEntity
  8
RACCORDO
100
AcDbLine
 62
250
  6
CONTINUOUS
 10
5.4284282606
 20
17.9258216238
 11
5.4287710478
 21
18.6473558524
  0
LINE
  5
550
100
AcDbEntity
  8
RACCORDO
100
AcDbLine
 62
250
  6
CONTINUOUS
 10
7.7482307245
 20
5.6067812438
 11
7.7482166658
 21
5.6015557812
  0
LINE
  5
551
100
AcDbEntity
  8
RACCORDO
100
AcDbLine
 62
250
  6
CONTINUOUS
 10
5.7284168375
 20
18.3504563439
 11
5.7286577946
 21
18.4544623171
  0
LINE
  5
552
100
AcDbEntity
  8
RACCORDO
100
AcDbLine
 62
250
  6
CONTINUOUS
 10
5.4287710478
 20
18.6473558524
 11
5.4294951136
 21
18.8136870823
  0
LINE
  5
553
100
AcDbEntity
  8
RACCORDO
100
AcDbLine
 62
250
  6
CONTINUOUS
 10
5.7286577946
 20
18.4544623171
 11
5.7290114775
 21
18.50523841
  0
LINE
  5
554
100
AcDbEntity
  8
RACCORDO
100
AcDbLine
 62
7
  6
CONTINUOUS
 10
7.2035355246
 20
18.6929124475
 11
7.2
 21
18.2877814546
  0
LINE
  5
555
100
AcDbEntity
  8
RACCORDO
100
AcDbLine
 62
250
  6
CONTINUOUS
 10
8.2482724594
 20
5.6102071525
 11
8.2481976273
 21
5.6015557812
  0
LINE
  5
556
100
AcDbEntity
  8
RACCORDO
100
AcDbLine
 62
250
  6
CONTINUOUS
 10
7.7482779278
 20
5.6125480403
 11
7.7482307245
 21
5.6067812438
  0
LWPOLYLINE
  5
557
100
AcDbEntity
  8
RACCORDO
100
AcDbPolyline
 62
250
  6
CONTINUOUS
 90
4
 70
0
 10
5.4294951136
 20
18.8136870823
 10
5.4298503947
 20
18.8476572663
 10
5.4300365276
 20
18.8567289348
 10
5.4302289188
 20
18.8603786685
  0
LWPOLYLINE
  5
558
100
AcDbEntity
  8
RACCORDO
100
AcDbPolyline
 62
250
  6
CONTINUOUS
 90
7
 70
0
 10
5.7290114775
 20
18.50523841
 10
5.7293145359
 20
18.5310247986
 10
5.7294836857
 20
18.5411999104
 10
5.7296590929
 20
18.5492596477
 10
5.7298389698
 20
18.555096593
 10
5.7300251041
 20
18.5588181637
 10
5.7302174957
 20
18.5604243599
  0
LINE
  5
559
100
AcDbEntity
  8
RACCORDO
100
AcDbLine
 62
250
  6
CONTINUOUS
 10
7.7483676416
 20
5.6188559004
 11
7.7482779278
 21
5.6125480403
  0
LINE
  5
55A
100
AcDbEntity
  8
DRAFT
100
AcDbLine
 62
7
  6
CONTINUOUS
 10
6.0823605712
 20
-19.138648283
 11
6.0817405883
 21
-19.1741670785
  0
LINE
  5
55B
100
AcDbEntity
  8
RACCORDO
100
AcDbLine
 62
7
  6
CONTINUOUS
 10
6.0824911037
 20
-19.1311700795
 11
6.0849939615
 21
-18.9877814546
  0
LINE
  5
55C
100
AcDbEntity
  8
RACCORDO
100
AcDbLine
 62
250
  6
CONTINUOUS
 10
6.2850244271
 20
-18.9877814546
 11
6.2828066874
 21
-19.1148356752
  0
LINE
  5
55D
100
AcDbEntity
  8
RACCORDO
100
AcDbLine
 62
250
  6
CONTINUOUS
 10
7.5893155753
 20
18.8400137029
 11
7.5884656663
 21
18.8059514457
  0
LINE
  5
55E
100
AcDbEntity
  8
DRAFT
100
AcDbLine
 62
7
  6
CONTINUOUS
 10
7.2352506643
 20
20.833660631
 11
7.2084845302
 21
19.9483339502
  0
LINE
  5
55F
100
AcDbEntity
  8
RACCORDO
100
AcDbLine
 62
250
  6
CONTINUOUS
 10
7.5884656663
 20
18.8059514457
 11
7.5857457247
 21
18.7185352484
  0
LINE
  5
560
100
AcDbEntity
  8
RACCORDO
100
AcDbLine
 62
250
  6
CONTINUOUS
 10
7.5857457247
 20
18.7185352484
 11
7.5796899502
 21
18.548101122
  0
LINE
  5
561
100
AcDbEntity
  8
RACCORDO
100
AcDbLine
 62
250
  6
CONTINUOUS
 10
7.5796899502
 20
18.548101122
 11
7.5715717394
 21
18.3429975542
  0
LWPOLYLINE
  5
562
100
AcDbEntity
  8
RACCORDO
100
AcDbPolyline
 62
250
  6
CONTINUOUS
 90
19
 70
0
 10
7.6999751959
 20
5.6980460695
 10
7.7037928682
 20
5.7851798915
 10
7.715190295
 20
5.8716507192
 10
7.7340807559
 20
5.9568005873
 10
7.7603205142
 20
6.0399815781
 10
7.7937099134
 20
6.1205607617
 10
7.8339948993
 20
6.1979250111
 10
7.8808689455
 20
6.2714856507
 10
7.9339753876
 20
6.3406829457
 10
7.9929101445
 20
6.4049903681
 10
8.0572247818
 20
6.4639185894
 10
8.1264299271
 20
6.5170192101
 10
8.1999990006
 20
6.5638881766
 10
8.2773722116
 20
6.6041688477
 10
8.3579608203
 20
6.6375547115
 10
8.4411516235
 20
6.663791721
 10
8.5263116136
 20
6.6826802233
 10
8.6127927951
 20
6.6940764805
 10
8.6999371189
 20
6.6978937646
  0
LWPOLYLINE
  5
563
100
AcDbEntity
  8
RACCORDO
100
AcDbPolyline
 62
250
  6
CONTINUOUS
 90
16
 70
0
 10
7.2550473527
 20
5.7330018722
 10
7.2603972129
 20
5.8368844342
 10
7.2747286717
 20
5.9396428719
 10
7.2978866517
 20
6.040164963
 10
7.3296205421
 20
6.1373626904
 10
7.3695869106
 20
6.2301840188
 10
7.4173532207
 20
6.3176242814
 10
7.4724025126
 20
6.3987370542
 10
7.534138999
 20
6.4726443997
 10
7.601894513
 20
6.5385463696
 10
7.6749357402
 20
6.5957296626
 10
7.7524721553
 20
6.6435753457
 10
7.8336645782
 20
6.6815655527
 10
7.9176342572
 20
6.7092890896
 10
8.0034723797
 20
6.7264458854
 10
8.0902499086
 20
6.7328502398
  0
LWPOLYLINE
  5
564
100
AcDbEntity
  8
RACCORDO
100
AcDbPolyline
 62
7
  6
CONTINUOUS
 90
19
 70
0
 10
7.2035355246
 20
18.6929124475
 10
7.2055527851
 20
18.7218602309
 10
7.209856926
 20
18.7495891096
 10
7.2164479475
 20
18.7760990835
 10
7.2255127919
 20
18.8014904175
 10
7.2368645169
 20
18.8256628468
 10
7.2499422947
 20
18.8483155765
 10
7.2646736083
 20
18.8693809001
 10
7.2811309749
 20
18.8889265241
 10
7.2989711176
 20
18.9068547736
 10
7.3181257678
 20
18.9231835905
 10
7.3386631941
 20
18.9378950329
 10
7.360444926
 20
18.9508375996
 10
7.3837674238
 20
18.962083572
 10
7.4083342271
 20
18.9715606686
 10
7.4331174843
 20
18.9789005439
 10
7.4577745781
 20
18.983980416
 10
7.4826481258
 20
18.9869230667
 10
7.5077381273
 20
18.9877284961
  0
LINE
  5
565
100
AcDbEntity
  8
0
100
AcDbLine
 62
250
  6
CONTINUOUS
 10
2.0506543031
 20
-11.9969580155
 11
2.0372244982
 21
-12.0451206601
  0
LINE
  5
566
100
AcDbEntity
  8
0
100
AcDbLine
 62
250
  6
CONTINUOUS
 10
7.9493456969
 20
0.4969580155
 11
7.9627755018
 21
0.5451206601
  0
LWPOLYLINE
  5
567
100
AcDbEntity
  8
RACCORDO
100
AcDbPolyline
 62
250
  6
CONTINUOUS
 90
4
 70
0
 10
-0.9828495498
 20
-16.2307127706
 10
-0.9833636632
 20
-16.2314600355
 10
-0.9842225991
 20
-16.2325377143
 10
-0.9854077051
 20
-16.2339458071
  0
LINE
  5
568
100
AcDbEntity
  8
RACCORDO
100
AcDbLine
 62
250
  6
CONTINUOUS
 10
-10.4421045152
 20
-17.0199676929
 11
-10.3980907374
 21
-16.9759522173
  0
LINE
  5
569
100
AcDbEntity
  8
RACCORDO
100
AcDbLine
 62
250
  6
CONTINUOUS
 10
9.9508028408
 20
2.2007571494
 11
9.9377357561
 21
2.1876900647
  0
LINE
  5
56A
100
AcDbEntity
  8
RACCORDO
100
AcDbLine
 62
7
  6
CONTINUOUS
 10
9.35
 20
1.3
 11
9.3623099353
 21
1.3123099353
  0
LINE
  5
56B
100
AcDbEntity
  8
RACCORDO
100
AcDbLine
 62
250
  6
CONTINUOUS
 10
10.2534122812
 20
1.9034579727
 11
10.2376900647
 21
1.8877357561
  0
LINE
  5
56C
100
AcDbEntity
  8
RACCORDO
100
AcDbLine
 62
250
  6
CONTINUOUS
 10
-9.0776633073
 20
-17.7647852373
 11
-9.1128811806
 21
-17.8000031106
  0
LINE
  5
56D
100
AcDbEntity
  8
DRAFT
100
AcDbLine
 62
7
  6
CONTINUOUS
 10
-9.5103594806
 20
-20.7603594806
 11
-9.65
 21
-20.9
  0
LINE
  5
56E
100
AcDbEntity
  8
RACCORDO
100
AcDbLine
 62
7
  6
CONTINUOUS
 10
-5.8
 20
-18.0
 11
-5.7284168375
 21
-17.9284168375
  0
LWPOLYLINE
  5
56F
100
AcDbEntity
  8
RACCORDO
100
AcDbPolyline
 62
7
  6
CONTINUOUS
 90
3
 70
0
 10
9.5117982013
 20
1.4617649856
 10
9.5757655823
 20
1.5257321218
 10
9.6406887643
 20
1.5909115243
  0
LINE
  5
570
100
AcDbEntity
  8
RACCORDO
100
AcDbLine
 62
7
  6
CONTINUOUS
 10
9.4913424817
 20
1.4414414805
 11
9.5117982013
 21
1.4617649856
  0
LWPOLYLINE
  5
571
100
AcDbEntity
  8
RACCORDO
100
AcDbPolyline
 62
7
  6
CONTINUOUS
 90
3
 70
0
 10
9.4351931238
 20
1.3853449791
 10
9.4530399429
 20
1.4030104805
 10
9.4913424817
 20
1.4414414805
  0
LINE
  5
572
100
AcDbEntity
  8
RACCORDO
100
AcDbLine
 62
7
  6
CONTINUOUS
 10
9.6406887643
 20
1.5909115243
 11
9.6622642439
 21
1.6122642439
  0
LWPOLYLINE
  5
573
100
AcDbEntity
  8
RACCORDO
100
AcDbPolyline
 62
7
  6
CONTINUOUS
 90
7
 70
0
 10
9.3623099353
 20
1.3123099353
 10
9.3655341465
 20
1.3147618686
 10
9.3712377789
 20
1.3206211423
 10
9.3794208327
 20
1.3294208327
 10
9.3904097092
 20
1.3406359833
 10
9.4038780069
 20
1.3538440553
 10
9.4351931238
 20
1.3853449791
  0
LINE
  5
574
100
AcDbEntity
  8
0
100
AcDbLine
 62
7
  6
CONTINUOUS
 10
-3.684419
 20
-9.465704
 11
-2.684494
 21
-9.103631
  0
LINE
  5
575
100
AcDbEntity
  8
0
100
AcDbLine
 62
7
  6
CONTINUOUS
 10
-3.393323
 20
-9.219216
 11
-3.684419
 21
-9.318142
  0
LINE
  5
576
100
AcDbEntity
  8
0
100
AcDbLine
 62
7
  6
CONTINUOUS
 10
-2.829524
 20
-9.021459
 11
-3.273554
 21
-9.170424
  0
LWPOLYLINE
  5
577
100
AcDbEntity
  8
0
100
AcDbPolyline
 62
250
  6
CONTINUOUS
 90
11
 70
0
 10
3.4249080279
 20
6.99395701
 10
2.9653254589
 20
6.89435542
 10
2.8221038313
 20
6.8641349978
 10
2.684051102
 20
6.8360609578
 10
2.5522629762
 20
6.8107382292
 10
2.4265620483
 20
6.788407325
 10
2.3071257238
 20
6.7694262974
 10
2.1955819241
 20
6.7542981447
 10
2.0924732896
 20
6.7431603339
 10
1.9972571799
 20
6.7359921919
 10
1.909933595
 20
6.7328498883
  0
LWPOLYLINE
  5
578
100
AcDbEntity
  8
0
100
AcDbPolyline
 62
250
  6
CONTINUOUS
 90
7
 70
0
 10
4.3551938011
 20
7.1627402535
 10
4.2061144619
 20
7.1419245889
 10
4.0546478069
 20
7.1177360376
 10
3.9007938359
 20
7.0904585144
 10
3.7431529535
 20
7.0600691385
 10
3.5831247552
 20
7.0273932099
 10
3.4249080279
 20
6.99395701
  0
LWPOLYLINE
  5
579
100
AcDbEntity
  8
RACCORDO
100
AcDbPolyline
 62
250
  6
CONTINUOUS
 90
19
 70
0
 10
8.7438532326
 20
6.6100548477
 10
8.6981673674
 20
6.6043186538
 10
8.653633996
 20
6.5903616661
 10
8.6102531185
 20
6.5683370362
 10
8.5676080745
 20
6.5383714192
 10
8.5261155244
 20
6.5007974653
 10
8.4870254492
 20
6.4563547412
 10
8.4505599011
 20
6.4057337189
 10
8.4164968279
 20
6.3494321927
 10
8.3854200547
 20
6.288152997
 10
8.357449439
 20
6.222631915
 10
8.3324651233
 20
6.1534432485
 10
8.3106913594
 20
6.0810459465
 10
8.2921898021
 20
6.0060618176
 10
8.2768987966
 20
5.9290870385
 10
8.2648576308
 20
5.8504794635
 10
8.2560794006
 20
5.7707241354
 10
8.2505510102
 20
5.6904530612
 10
8.2482724594
 20
5.6102071525
  0
LWPOLYLINE
  5
57A
100
AcDbEntity
  8
RACCORDO
100
AcDbPolyline
 62
250
  6
CONTINUOUS
 90
5
 70
0
 10
10.8164372737
 20
7.7326972896
 10
10.8112123536
 20
7.7321665715
 10
10.7985942586
 20
7.7317047673
 10
10.7786743672
 20
7.7313134347
 10
10.7515982457
 20
7.7309998413
  0
LWPOLYLINE
  5
57B
100
AcDbEntity
  8
RACCORDO
100
AcDbPolyline
 62
7
  6
CONTINUOUS
 90
4
 70
0
 10
-10.816444483
 20
3.7673026979
 10
-10.8112131217
 20
3.7677479329
 10
-10.7985806086
 20
3.7681454029
 10
-10.7786406624
 20
3.7684924105
  0
LWPOLYLINE
  5
57C
100
AcDbEntity
  8
RACCORDO
100
AcDbPolyline
 62
250
  6
CONTINUOUS
 90
19
 70
0
 10
8.7438532326
 20
6.6100548477
 10
8.6532593486
 20
6.6050955863
 10
8.5635480243
 20
6.5919201393
 10
8.475459386
 20
6.5706687807
 10
8.3894875542
 20
6.5414524716
 10
8.3065732636
 20
6.5045946708
 10
8.2280094466
 20
6.4608335464
 10
8.1544836679
 20
6.4108502714
 10
8.0862664784
 20
6.3551345446
 10
8.0238240741
 20
6.2943935997
 10
7.9675184156
 20
6.2293603832
 10
7.917488955
 20
6.1606043635
 10
7.8737875109
 20
6.088587991
 10
7.8365583373
 20
6.0139336152
 10
7.8058769712
 20
5.9372336453
 10
7.7817064772
 20
5.8588421218
 10
7.764066762
 20
5.779241852
 10
7.7529732072
 20
5.6990658278
 10
7.7483676416
 20
5.6188559004
  0
LWPOLYLINE
  5
57D
100
AcDbEntity
  8
RACCORDO
100
AcDbPolyline
 62
250
  6
CONTINUOUS
 90
11
 70
0
 10
2.6130574441
 20
5.7276558254
 10
2.5552615147
 20
5.7248899875
 10
2.5031012345
 20
5.7220545439
 10
2.4567102419
 20
5.7191572242
 10
2.4162262847
 20
5.7162212164
 10
2.3817217018
 20
5.7132466619
 10
2.3532438334
 20
5.7102334193
 10
2.3308433778
 20
5.7072042536
 10
2.3145373077
 20
5.704166753
 10
2.3043208012
 20
5.7011133293
 10
2.3001800483
 20
5.6980439824
  0
LWPOLYLINE
  5
57E
100
AcDbEntity
  8
RACCORDO
100
AcDbPolyline
 62
250
  6
CONTINUOUS
 90
10
 70
0
 10
1.6498217937
 20
6.7247395653
 10
1.5784167099
 20
6.7219034605
 10
1.5147337398
 20
6.7190049854
 10
1.4592262457
 20
6.7160679103
 10
1.4119917967
 20
6.7130923301
 10
1.3729328235
 20
6.71007815
 10
1.3422099807
 20
6.7070488548
 10
1.3198768196
 20
6.7040122731
 10
1.3058797888
 20
6.7009605763
 10
1.3002188883
 20
6.6978937646
  0
LINE
  5
57F
100
AcDbEntity
  8
RACCORDO
100
AcDbLine
 62
250
  6
CONTINUOUS
 10
2.7450876946
 20
5.7330018728
 11
2.6130574441
 21
5.7276558254
  0
LWPOLYLINE
  5
580
100
AcDbEntity
  8
RACCORDO
100
AcDbPolyline
 62
250
  6
CONTINUOUS
 90
3
 70
0
 10
1.9099163663
 20
6.7328498881
 10
1.8154960616
 20
6.7302088174
 10
1.6498217937
 20
6.7247395653
  0
LINE
  5
581
100
AcDbEntity
  8
RACCORDO
100
AcDbLine
 62
250
  6
CONTINUOUS
 10
2.2517700203
 20
5.6188555807
 11
1.7518835479
 21
5.6102071525
  0
LINE
  5
582
100
AcDbEntity
  8
RACCORDO
100
AcDbLine
 62
250
  6
CONTINUOUS
 10
10.7515982457
 20
7.7309998413
 11
10.6296829999
 21
7.7304375922
  0
LINE
  5
583
100
AcDbEntity
  8
RACCORDO
100
AcDbLine
 62
7
  6
CONTINUOUS
 10
7.7899400578
 20
4.75
 11
2.2102159494
 21
4.75
  0
LINE
  5
584
100
AcDbEntity
  8
RACCORDO
100
AcDbLine
 62
250
  6
CONTINUOUS
 10
-9.2823447529
 20
4.7671504597
 11
-2.4826211107
 21
4.767150432
  0
LINE
  5
585
100
AcDbEntity
  8
RACCORDO
100
AcDbLine
 62
250
  6
CONTINUOUS
 10
-9.1595500767
 20
4.8899451523
 11
-2.3598263904
 21
4.8899451523
  0
LINE
  5
586
100
AcDbEntity
  8
RACCORDO
100
AcDbLine
 62
250
  6
CONTINUOUS
 10
9.6594739059
 20
5.1102833217
 11
10.659321601
 21
5.1102833191
  0
LINE
  5
587
100
AcDbEntity
  8
RACCORDO
100
AcDbLine
 62
250
  6
CONTINUOUS
 10
8.2481976273
 20
5.6015557812
 11
7.7482166658
 21
5.6015557812
  0
LINE
  5
588
100
AcDbEntity
  8
RACCORDO
100
AcDbLine
 62
250
  6
CONTINUOUS
 10
2.2519393415
 20
5.6015557812
 11
1.7519583799
 21
5.6015557812
  0
LINE
  5
589
100
AcDbEntity
  8
RACCORDO
100
AcDbLine
 62
250
  6
CONTINUOUS
 10
9.159550075
 20
5.6102071525
 11
8.2482724594
 21
5.6102071525
  0
LINE
  5
58A
100
AcDbEntity
  8
RACCORDO
100
AcDbLine
 62
250
  6
CONTINUOUS
 10
1.7518835479
 20
5.6102071525
 11
-0.1397928475
 21
5.6102071525
  0
LINE
  5
58B
100
AcDbEntity
  8
RACCORDO
100
AcDbLine
 62
250
  6
CONTINUOUS
 10
-9.1595500767
 20
5.8897928475
 11
-2.3598263904
 21
5.8897928475
  0
LINE
  5
58C
100
AcDbEntity
  8
RACCORDO
100
AcDbLine
 62
250
  6
CONTINUOUS
 10
-9.6594739059
 20
6.3897166767
 11
-10.659321601
 21
6.3897166792
  0
LINE
  5
58D
100
AcDbEntity
  8
RACCORDO
100
AcDbLine
 62
250
  6
CONTINUOUS
 10
9.159550075
 20
6.6100548477
 11
8.7438532326
 21
6.6100548477
  0
LINE
  5
58E
100
AcDbEntity
  8
RACCORDO
100
AcDbLine
 62
250
  6
CONTINUOUS
 10
1.2563027746
 20
6.6100548477
 11
0.8600548477
 21
6.6100548477
  0
LINE
  5
58F
100
AcDbEntity
  8
RACCORDO
100
AcDbLine
 62
250
  6
CONTINUOUS
 10
1.9099163663
 20
6.7328498881
 11
0.982849568
 21
6.732849568
  0
LINE
  5
590
100
AcDbEntity
  8
RACCORDO
100
AcDbLine
 62
250
  6
CONTINUOUS
 10
9.2823447508
 20
6.732849538
 11
8.0902158168
 21
6.7328506312
  0
LINE
  5
591
100
AcDbEntity
  8
0
100
AcDbLine
 62
7
  6
CONTINUOUS
 10
6.183136427
 20
7.1326972631
 11
5.8553593717
 21
7.1326975412
  0
LINE
  5
592
100
AcDbEntity
  8
0
100
AcDbLine
 62
250
  6
CONTINUOUS
 10
7.0057760939
 20
7.7326972631
 11
9.8165694144
 21
7.7327060702
  0
LINE
  5
593
100
AcDbEntity
  8
0
100
AcDbLine
 62
250
  6
CONTINUOUS
 10
1.9826972631
 20
7.7326972631
 11
3.6001979061
 21
7.7326972631
  0
LINE
  5
594
100
AcDbEntity
  8
0
100
AcDbLine
 62
250
  6
CONTINUOUS
 10
3.9329127837
 20
7.7326972631
 11
6.6730612163
 21
7.7326972631
  0
LINE
  5
595
100
AcDbEntity
  8
DRAFT
100
AcDbLine
 62
7
  6
CONTINUOUS
 10
-2.75
 20
7.75
 11
-7.25
 21
7.75
  0
LINE
  5
596
100
AcDbEntity
  8
RACCORDO
100
AcDbLine
 62
250
  6
CONTINUOUS
 10
-7.25
 20
7.7623099353
 11
-2.75
 21
7.7623099353
  0
LINE
  5
597
100
AcDbEntity
  8
0
100
AcDbLine
 62
7
  6
CONTINUOUS
 10
5.182989
 20
7.883502
 11
5.422987
 21
7.883502
  0
LINE
  5
598
100
AcDbEntity
  8
RACCORDO
100
AcDbLine
 62
250
  6
CONTINUOUS
 10
-7.25
 20
8.0622642439
 11
-2.75
 21
8.0622642439
  0
LINE
  5
599
100
AcDbEntity
  8
RACCORDO
100
AcDbLine
 62
250
  6
CONTINUOUS
 10
-2.75
 20
8.3377357561
 11
-7.25
 21
8.3377357561
  0
LINE
  5
59A
100
AcDbEntity
  8
RACCORDO
100
AcDbLine
 62
250
  6
CONTINUOUS
 10
-2.75
 20
8.6376900647
 11
-7.25
 21
8.6376900647
  0
LINE
  5
59B
100
AcDbEntity
  8
DRAFT
100
AcDbLine
 62
7
  6
CONTINUOUS
 10
-7.25
 20
8.65
 11
-2.75
 21
8.65
  0
LINE
  5
59C
100
AcDbEntity
  8
RACCORDO
100
AcDbLine
 62
250
  6
CONTINUOUS
 10
10.6296829999
 20
7.7304375922
 11
10.3847162802
 21
7.7304374755
  0
LINE
  5
59D
100
AcDbEntity
  8
RACCORDO
100
AcDbLine
 62
250
  6
CONTINUOUS
 10
10.3847162802
 20
7.7304374755
 11
10.0726473215
 21
7.7313157227
  0
LINE
  5
59E
100
AcDbEntity
  8
RACCORDO
100
AcDbLine
 62
250
  6
CONTINUOUS
 10
10.0726473215
 20
7.7313157227
 11
9.816569412
 21
7.7326972631
  0
LINE
  5
59F
100
AcDbEntity
  8
RACCORDO
100
AcDbLine
 62
250
  6
CONTINUOUS
 10
8.2482724594
 20
5.6102071525
 11
7.7483866058
 21
5.6188555694
  0
LWPOLYLINE
  5
5A0
100
AcDbEntity
  8
0
100
AcDbPolyline
 62
7
  6
CONTINUOUS
 90
12
 70
0
 10
4.8123860526
 20
7.1173177277
 10
4.9068193486
 20
7.1156706221
 10
5.0012635171
 20
7.1150209655
 10
5.0957294362
 20
7.1157002942
 10
5.1902062278
 20
7.117377072
 10
5.2848344316
 20
7.1195488218
 10
5.3796870058
 20
7.1223914308
 10
5.4746909922
 20
7.1257290119
 10
5.5697680555
 20
7.1285314273
 10
5.664892084
 20
7.1304552976
 10
5.7600891894
 20
7.1318440023
 10
5.8553593717
 20
7.1326975412
  0
LWPOLYLINE
  5
5A1
100
AcDbEntity
  8
RACCORDO
100
AcDbPolyline
 62
250
  6
CONTINUOUS
 90
25
 70
0
 10
-2.3598263904
 20
4.8899451523
 10
-2.2622763553
 20
4.8867909643
 10
-2.1649242445
 20
4.8772725275
 10
-2.0681878145
 20
4.8613876873
 10
-1.9723839091
 20
4.8391345917
 10
-1.8780395651
 20
4.8105805831
 10
-1.7858699012
 20
4.7759292557
 10
-1.6963976883
 20
4.7354135174
 10
-1.6098582929
 20
4.6891774398
 10
-1.5265096669
 20
4.6373667846
 10
-1.446671386
 20
4.5801686284
 10
-1.3707319
 20
4.5178493071
 10
-1.2990386234
 20
4.4506907286
 10
-1.231899685
 20
4.3789818279
 10
-1.1696020302
 20
4.3030296173
 10
-1.1124253628
 20
4.2231790849
 10
-1.060636109
 20
4.1398185509
 10
-1.0144214937
 20
4.0532674985
 10
-0.9739262311
 20
3.9637808486
 10
-0.9392888011
 20
3.8715748667
 10
-0.9107517272
 20
3.7771902482
 10
-0.8885303153
 20
3.6813976933
 10
-0.8726842308
 20
3.5847449855
 10
-0.8631965447
 20
3.4875313064
 10
-0.8600548477
 20
3.3901736096
  0
LWPOLYLINE
  5
5A2
100
AcDbEntity
  8
RACCORDO
100
AcDbPolyline
 62
250
  6
CONTINUOUS
 90
25
 70
0
 10
-2.3598263904
 20
5.8897928475
 10
-2.1962598407
 20
5.8844546592
 10
-2.0343814699
 20
5.8685822828
 10
-1.874191278
 20
5.8421757181
 10
-1.7148396849
 20
5.805001706
 10
-1.5571762708
 20
5.7572935057
 10
-1.4037497759
 20
5.6997508947
 10
-1.2548571547
 20
5.632301704
 10
-1.1102014528
 20
5.5550181026
 10
-0.9714405472
 20
5.4688163757
 10
-0.8385718159
 20
5.3735541629
 10
-0.711597881
 20
5.2693738245
 10
-0.5921844855
 20
5.1576187278
 10
-0.4804337453
 20
5.0381789654
 10
-0.3762435446
 20
4.9111644446
 10
-0.2809732792
 20
4.7782482537
 10
-0.1947689745
 20
4.6394350399
 10
-0.1174846052
 20
4.494720156
 10
-0.0500414911
 20
4.3457627483
 10
0.0074871627
 20
4.192229569
 10
0.0551745613
 20
4.0344538659
 10
0.0923189995
 20
3.8750945293
 10
0.1186865758
 20
3.7150378562
 10
0.1345111918
 20
3.5533975496
 10
0.1397928475
 20
3.3901736096
  0
LWPOLYLINE
  5
5A3
100
AcDbEntity
  8
0
100
AcDbPolyline
 62
250
  6
CONTINUOUS
 90
11
 70
0
 10
8.0901585919
 20
6.7328506331
 10
8.0104953085
 20
6.7355734224
 10
7.9240828904
 20
6.7416848058
 10
7.8309213377
 20
6.7511573334
 10
7.7306281179
 20
6.7640185101
 10
7.6235857634
 20
6.7801820749
 10
7.5109418715
 20
6.7992985386
 10
7.392877729
 20
6.8211092537
 10
7.2692120489
 20
6.8454560209
 10
7.140548568
 20
6.8719458338
 10
7.0062925519
 20
6.9004650177
  0
LWPOLYLINE
  5
5A4
100
AcDbEntity
  8
0
100
AcDbPolyline
 62
7
  6
CONTINUOUS
 90
4
 70
0
 10
4.4328566808
 20
7.1284671876
 10
4.527996907
 20
7.1249628582
 10
4.6229748318
 20
7.1219638457
 10
4.8123860526
 20
7.1173177277
  0
LWPOLYLINE
  5
5A5
100
AcDbEntity
  8
RACCORDO
100
AcDbPolyline
 62
250
  6
CONTINUOUS
 90
22
 70
0
 10
-2.4826211107
 20
4.767150432
 10
-2.3706496281
 20
4.7629424999
 10
-2.259273077
 20
4.7503827256
 10
-2.1491140843
 20
4.7295343493
 10
-2.0407793188
 20
4.7005039852
 10
-1.9348866208
 20
4.6634487517
 10
-1.832059004
 20
4.6185828662
 10
-1.7328807032
 20
4.5661625654
 10
-1.6378966723
 20
4.506477296
 10
-1.5476382572
 20
4.4398609071
 10
-1.4626103719
 20
4.3666861159
 10
-1.3832884001
 20
4.2873621654
 10
-1.3101157288
 20
4.2023324526
 10
-1.2435015872
 20
4.1120723666
 10
-1.1838186835
 20
4.0170868346
 10
-1.1314008608
 20
3.9179072246
 10
-1.0865370484
 20
3.815077222
 10
-1.0494841606
 20
3.7091822785
 10
-1.0204573227
 20
3.6008494635
 10
-0.9996129344
 20
3.4906981777
 10
-0.987056254
 20
3.3793338116
 10
-0.982849568
 20
3.2673788893
  0
LWPOLYLINE
  5
5A6
100
AcDbEntity
  8
RACCORDO
100
AcDbPolyline
 62
250
  6
CONTINUOUS
 90
19
 70
0
 10
1.2563027746
 20
6.6100548477
 10
1.3470336169
 20
6.6050818285
 10
1.4368307816
 20
6.5918769584
 10
1.5249537818
 20
6.5705941251
 10
1.6108970614
 20
6.5413628821
 10
1.6937388242
 20
6.5045165182
 10
1.7722300648
 20
6.4607817112
 10
1.8456877177
 20
6.4108380132
 10
1.9138409491
 20
6.3551764735
 10
1.9762498782
 20
6.2944786877
 10
2.0325670067
 20
6.2294469358
 10
2.0826240559
 20
6.1606661681
 10
2.1263352004
 20
6.0886453765
 10
2.1635435875
 20
6.0140520849
 10
2.1942050327
 20
5.9374427374
 10
2.2183828524
 20
5.8590960305
 10
2.2360498487
 20
5.779464469
 10
2.2471697458
 20
5.6992037997
 10
2.2517883657
 20
5.6188559004
  0
LWPOLYLINE
  5
5A7
100
AcDbEntity
  8
RACCORDO
100
AcDbPolyline
 62
250
  6
CONTINUOUS
 90
46
 70
0
 10
7.2550683127
 20
5.7330018728
 10
7.1906704938
 20
5.7395798441
 10
7.1206863008
 20
5.7540536781
 10
7.0449596617
 20
5.7764233747
 10
6.9629883799
 20
5.8072599915
 10
6.8749916863
 20
5.8459924711
 10
6.7820886597
 20
5.8909076402
 10
6.6846809787
 20
5.9422767594
 10
6.582593131
 20
5.9998285682
 10
6.4763006131
 20
6.061036112
 10
6.3654532382
 20
6.1265936493
 10
6.2507506543
 20
6.1958069215
 10
6.1344621028
 20
6.2640661989
 10
6.0169273169
 20
6.3314563663
 10
5.8985192019
 20
6.3978925389
 10
5.7818118861
 20
6.4585103325
 10
5.667968486
 20
6.5124070413
 10
5.5566047829
 20
6.560485371
 10
5.4480222335
 20
6.6005890547
 10
5.3431452742
 20
6.6319847819
 10
5.2415561441
 20
6.6554058631
 10
5.1414610333
 20
6.6708959627
 10
5.0435804379
 20
6.6784637765
 10
4.9474846683
 20
6.6781006087
 10
4.8496082617
 20
6.6698240362
 10
4.7495021932
 20
6.6536297228
 10
4.6479081151
 20
6.6295220048
 10
4.5430943761
 20
6.5975314674
 10
4.4345937043
 20
6.5568979732
 10
4.3233814931
 20
6.5083816596
 10
4.2099648466
 20
6.454293525
 10
4.094066115
 20
6.3938246003
 10
3.9767128971
 20
6.3277838545
 10
3.8603172329
 20
6.260909193
 10
3.7452965715
 20
6.1933299525
 10
3.6319136624
 20
6.1249167963
 10
3.5221244064
 20
6.060019619
 10
3.4165221472
 20
5.9992274078
 10
3.3148971905
 20
5.9419511755
 10
3.2178050248
 20
5.8907738555
 10
3.1250731579
 20
5.8459620212
 10
3.0371270402
 20
5.8072490992
 10
2.9551801419
 20
5.776418302
 10
2.8794800695
 20
5.7540640341
 10
2.8095001362
 20
5.739591891
 10
2.7450876946
 20
5.7330018728
  0
LWPOLYLINE
  5
5A8
100
AcDbEntity
  8
RACCORDO
100
AcDbPolyline
 62
250
  6
CONTINUOUS
 90
19
 70
0
 10
1.2563027746
 20
6.6100548477
 10
1.30205514
 20
6.6043036539
 10
1.3466306185
 20
6.5903163432
 10
1.3900292104
 20
6.5682595484
 10
1.4326607968
 20
6.5382787332
 10
1.4741154964
 20
6.5007159227
 10
1.5131636655
 20
6.4562974667
 10
1.5495839048
 20
6.4057096768
 10
1.5835976135
 20
6.3494525302
 10
1.6146393455
 20
6.2882077237
 10
1.642596571
 20
6.2226828504
 10
1.6675818199
 20
6.153467421
 10
1.6893672353
 20
6.0810686348
 10
1.7078970119
 20
6.0061577982
 10
1.7232269551
 20
5.9292916527
 10
1.7352966243
 20
5.8507416415
 10
1.7440858728
 20
5.7709582854
 10
1.7496148473
 20
5.6905997833
 10
1.7518835479
 20
5.6102071525
  0
LWPOLYLINE
  5
5A9
100
AcDbEntity
  8
0
100
AcDbPolyline
 62
250
  6
CONTINUOUS
 90
3
 70
0
 10
6.1417806597
 20
7.0824358834
 10
5.99812618
 20
7.1086693138
 10
5.855349348
 20
7.1326975412
  0
LWPOLYLINE
  5
5AA
100
AcDbEntity
  8
0
100
AcDbPolyline
 62
250
  6
CONTINUOUS
 90
4
 70
0
 10
6.5803349918
 20
6.9928381936
 10
6.4328850656
 20
7.0241655206
 10
6.2863127872
 20
7.054265949
 10
6.1417806597
 20
7.0824358834
  0
LINE
  5
5AB
100
AcDbEntity
  8
0
100
AcDbLine
 62
250
  6
CONTINUOUS
 10
7.0062925519
 20
6.9004650177
 11
6.5803349918
 21
6.9928381936
  0
LWPOLYLINE
  5
5AC
100
AcDbEntity
  8
RACCORDO
100
AcDbPolyline
 62
7
  6
CONTINUOUS
 90
10
 70
0
 10
-7.1482107338
 20
10.0473319608
 10
-7.1026580306
 20
10.0372928978
 10
-7.0557883232
 20
10.0284565097
 10
-7.0076016114
 20
10.0208227966
 10
-6.9580724601
 20
10.0144020063
 10
-6.9072263044
 20
10.009183891
 10
-6.8551394502
 20
10.005137707
 10
-6.8018373326
 20
10.0022532066
 10
-6.7472945165
 20
10.0005406376
 10
-6.6915110017
 20
10.0
  0
LWPOLYLINE
  5
5AD
100
AcDbEntity
  8
RACCORDO
100
AcDbPolyline
 62
7
  6
CONTINUOUS
 90
10
 70
0
 10
-7.1482107338
 20
10.0473319608
 10
-7.2834993209
 20
10.0802867889
 10
-7.420787152
 20
10.115165932
 10
-7.560074227
 20
10.15196939
 10
-7.700907983
 20
10.1905708391
 10
-7.8437409829
 20
10.2310966031
 10
-7.9899309156
 20
10.2739256537
 10
-8.1399303442
 20
10.3191843149
 10
-8.2932867057
 20
10.3667462628
 10
-8.45
 20
10.4166114973
  0
LWPOLYLINE
  5
5AE
100
AcDbEntity
  8
RACCORDO
100
AcDbPolyline
 62
7
  6
CONTINUOUS
 90
11
 70
0
 10
8.0435986005
 20
4.6060830698
 10
8.0082666109
 20
4.6317572151
 10
7.9749047674
 20
4.6552745856
 10
7.9437100772
 20
4.6766358283
 10
7.914703546
 20
4.6954220138
 10
7.8879394957
 20
4.7116129457
 10
7.8635175374
 20
4.7252288203
 10
7.8414998876
 20
4.7359112971
 10
7.8219075634
 20
4.7435409292
 10
7.804728408
 20
4.7482371635
 10
7.7899400578
 20
4.75
  0
LWPOLYLINE
  5
5AF
100
AcDbEntity
  8
RACCORDO
100
AcDbPolyline
 62
7
  6
CONTINUOUS
 90
5
 70
0
 10
8.2481976273
 20
4.45
 10
8.2040729714
 20
4.4846310129
 10
8.1612669891
 20
4.5175267683
 10
8.120065619
 20
4.5486872662
 10
8.0435986005
 20
4.6060830698
  0
LWPOLYLINE
  5
5B0
100
AcDbEntity
  8
RACCORDO
100
AcDbPolyline
 62
7
  6
CONTINUOUS
 90
13
 70
0
 10
-9.7544171312
 20
18.1756764551
 10
-9.7629662223
 20
18.1826884274
 10
-9.7862089093
 20
18.1970964203
 10
-9.8106942517
 20
18.2081142336
 10
-9.83649245
 20
18.2155541244
 10
-9.8635333038
 20
18.2196038355
 10
-9.8903672408
 20
18.2200566637
 10
-9.9169678264
 20
18.2167242019
 10
-9.9433614952
 20
18.2097948571
 10
-9.9681779795
 20
18.1996271471
 10
-9.9909605232
 20
18.1863405777
 10
-10.0121658824
 20
18.169815643
 10
-10.0317940571
 20
18.150052343
  0
LINE
  5
5B1
100
AcDbEntity
  8
RACCORDO
100
AcDbLine
 62
250
  6
CONTINUOUS
 10
10.2376900647
 20
-3.4877357561
 11
10.2534122812
 21
-3.5034579727
  0
LINE
  5
5B2
100
AcDbEntity
  8
RACCORDO
100
AcDbLine
 62
250
  6
CONTINUOUS
 10
-8.7834334975
 20
17.8
 11
-8.6843351158
 21
17.7009016182
  0
LINE
  5
5B3
100
AcDbEntity
  8
DRAFT
100
AcDbLine
 62
7
  6
CONTINUOUS
 10
-9.5103594806
 20
20.7603594806
 11
-9.65
 21
20.9
  0
LINE
  5
5B4
100
AcDbEntity
  8
RACCORDO
100
AcDbLine
 62
250
  6
CONTINUOUS
 10
-7.3609117354
 20
18.8603786685
 11
-7.4883145215
 21
18.9877814546
  0
LWPOLYLINE
  5
5B5
100
AcDbEntity
  8
RACCORDO
100
AcDbPolyline
 62
7
  6
CONTINUOUS
 90
3
 70
0
 10
9.4353449791
 20
-2.9851931238
 10
9.4530104805
 20
-3.0030399429
 10
9.4914414805
 20
-3.0413424817
  0
LINE
  5
5B6
100
AcDbEntity
  8
RACCORDO
100
AcDbLine
 62
7
  6
CONTINUOUS
 10
9.6409115243
 20
-3.1906887643
 11
9.6622642439
 21
-3.2122642439
  0
LWPOLYLINE
  5
5B7
100
AcDbEntity
  8
RACCORDO
100
AcDbPolyline
 62
7
  6
CONTINUOUS
 90
7
 70
0
 10
9.3623099353
 20
-2.9123099353
 10
9.3647618686
 20
-2.9155341465
 10
9.3706211423
 20
-2.9212377789
 10
9.3794208327
 20
-2.9294208327
 10
9.3906359833
 20
-2.9404097092
 10
9.4038440553
 20
-2.9538780069
 10
9.4353449791
 20
-2.9851931238
  0
LWPOLYLINE
  5
5B8
100
AcDbEntity
  8
0
100
AcDbPolyline
 62
7
  6
CONTINUOUS
 90
19
 70
0
 10
8.65
 20
-1.0833885027
 10
8.6491935472
 20
-1.0778475571
 10
8.6468064155
 20
-1.0729510995
 10
8.6428956466
 20
-1.06869913
 10
8.6375363338
 20
-1.0650871404
 10
8.6308017381
 20
-1.0621196388
 10
8.6227451177
 20
-1.0598101497
 10
8.613448422
 20
-1.0581627403
 10
8.6029953564
 20
-1.0571733434
 10
8.591421576
 20
-1.0568432826
 10
8.578811466
 20
-1.057173454
 10
8.5652575922
 20
-1.0581629614
 10
8.5507902988
 20
-1.0598104398
 10
8.5355007212
 20
-1.0621199329
 10
8.5194976099
 20
-1.065087397
 10
8.5028315825
 20
-1.0686993356
 10
8.4855977162
 20
-1.0729512501
 10
8.4679422008
 20
-1.0778476391
 10
8.45
 20
-1.0833885027
  0
LWPOLYLINE
  5
5B9
100
AcDbEntity
  8
RACCORDO
100
AcDbPolyline
 62
250
  6
CONTINUOUS
 90
22
 70
0
 10
10.7821154867
 20
5.2330780243
 10
10.7777761787
 20
5.34512237
 10
10.765087976
 20
5.4565265888
 10
10.7441230721
 20
5.5666695349
 10
10.7150000529
 20
5.6749364478
 10
10.6778825558
 20
5.780724892
 10
10.6329777219
 20
5.8834479044
 10
10.5805366709
 20
5.9825331589
 10
10.5208524726
 20
6.0774287559
 10
10.4542568425
 20
6.1676083104
 10
10.3811211737
 20
6.2525693266
 10
10.3018532888
 20
6.331838436
 10
10.2168930565
 20
6.4049757011
 10
10.1267137789
 20
6.471573216
 10
10.0318179017
 20
6.5312594847
 10
9.9327317898
 20
6.5837026817
 10
9.830007319
 20
6.6286096402
 10
9.7242168126
 20
6.6657291195
 10
9.6159472695
 20
6.6948538436
 10
9.5058011564
 20
6.715820071
 10
9.3943932608
 20
6.7285091296
 10
9.2823447777
 20
6.7328487333
  0
LWPOLYLINE
  5
5BA
100
AcDbEntity
  8
RACCORDO
100
AcDbPolyline
 62
250
  6
CONTINUOUS
 90
22
 70
0
 10
9.6594739059
 20
5.1102833217
 10
9.6580270434
 20
5.1479114429
 10
9.653861527
 20
5.18494358
 10
9.6469773566
 20
5.221379733
 10
9.63730645
 20
5.2574234575
 10
9.6249168893
 20
5.2928711978
 10
9.6100129212
 20
5.3271122876
 10
9.5925514018
 20
5.3601210661
 10
9.572575475
 20
5.3919231941
 10
9.5504188193
 20
5.4219849876
 10
9.526044399
 20
5.4502761405
 10
9.4994892499
 20
5.4768269591
 10
9.471198158
 20
5.5011946783
 10
9.4411428121
 20
5.5233414062
 10
9.4093515233
 20
5.5433050349
 10
9.3763540116
 20
5.5607564751
 10
9.3421249102
 20
5.5756543205
 10
9.3066895858
 20
5.5880399775
 10
9.2706538581
 20
5.5977085762
 10
9.2342196671
 20
5.6045918267
 10
9.1971850727
 20
5.6087580188
 10
9.159550075
 20
5.6102071525
  0
LWPOLYLINE
  5
5BB
100
AcDbEntity
  8
RACCORDO
100
AcDbPolyline
 62
250
  6
CONTINUOUS
 90
22
 70
0
 10
10.659321601
 20
5.1102833217
 10
10.6551117699
 20
5.2222801333
 10
10.6425478822
 20
5.3336712589
 10
10.6216955413
 20
5.4438340855
 10
10.5926649697
 20
5.5521581579
 10
10.555614869
 20
5.6580307055
 10
10.5107559083
 20
5.7608415564
 10
10.4583410216
 20
5.8600111206
 10
10.3986609992
 20
5.9549893844
 10
10.332050929
 20
6.0452425383
 10
10.258884358
 20
6.1302648808
 10
10.179569752
 20
6.2095822337
 10
10.0945497136
 20
6.2827519336
 10
10.0042979359
 20
6.3493657393
 10
9.9093204665
 20
6.4090496671
 10
9.8101525002
 20
6.4614678629
 10
9.7073473555
 20
6.5063285212
 10
9.6014817
 20
6.5433806875
 10
9.4931572382
 20
6.5724159033
 10
9.3829834706
 20
6.5932742664
 10
9.2715735006
 20
6.6058430149
 10
9.159550075
 20
6.6100548477
  0
LWPOLYLINE
  5
5BC
100
AcDbEntity
  8
RACCORDO
100
AcDbPolyline
 62
7
  6
CONTINUOUS
 90
10
 70
0
 10
11.05
 20
16.5441903035
 10
11.0473211189
 20
16.617644863
 10
11.0393329498
 20
16.6901769994
 10
11.0260354928
 20
16.7617867126
 10
11.0072422902
 20
16.8330132153
 10
10.9831397996
 20
16.9033172947
 10
10.9542873938
 20
16.9710813134
 10
10.9208715303
 20
17.0357660586
 10
10.8827057516
 20
17.0979107429
 10
10.8397900577
 20
17.1575153665
  0
LWPOLYLINE
  5
5BD
100
AcDbEntity
  8
RACCORDO
100
AcDbPolyline
 62
250
  6
CONTINUOUS
 90
31
 70
0
 10
10.2376900647
 20
1.8877357561
 10
10.2373837796
 20
1.9011964947
 10
10.2364422051
 20
1.9149770202
 10
10.2348193654
 20
1.9290448207
 10
10.2324641407
 20
1.9433933885
 10
10.2293349508
 20
1.9579498771
 10
10.2254152298
 20
1.9725781849
 10
10.2206777659
 20
1.9872307605
 10
10.2150976213
 20
2.0018571811
 10
10.2086923074
 20
2.0163200067
 10
10.2014560959
 20
2.0305686044
 10
10.1933863374
 20
2.0445507598
 10
10.1845361197
 20
2.0581368965
 10
10.1749220827
 20
2.0712806106
 10
10.1645629729
 20
2.083936904
 10
10.15354352
 20
2.095995732
 10
10.1419131544
 20
2.107410184
 10
10.1296956349
 20
2.1181637199
 10
10.1169544752
 20
2.1282081745
 10
10.1037455091
 20
2.1375118341
 10
10.0900994883
 20
2.1460648149
 10
10.0760454695
 20
2.1538571336
 10
10.0616270922
 20
2.160871087
 10
10.0468874479
 20
2.1670920141
 10
10.031853103
 20
2.1725131835
 10
10.0165671383
 20
2.1771218333
 10
10.0010740886
 20
2.1809072574
 10
9.985401646
 20
2.1838640218
 10
9.9695884873
 20
2.1859843138
 10
9.9536848612
 20
2.1872608843
 10
9.9377357561
 20
2.1876900647
  0
LINE
  5
5BE
100
AcDbEntity
  8
0
100
AcDbLine
 62
7
  6
CONTINUOUS
 10
8.8
 20
-11.5598789349
 11
8.8
 21
-9.9401210651
  0
LINE
  5
5BF
100
AcDbEntity
  8
RACCORDO
100
AcDbLine
 62
7
  6
CONTINUOUS
 10
8.8
 20
-1.6098789349
 11
8.8
 21
0.0098789349
  0
LINE
  5
5C0
100
AcDbEntity
  8
RACCORDO
100
AcDbLine
 62
250
  6
CONTINUOUS
 10
8.9205677229
 20
-16.6078419577
 11
8.9205677205
 21
-17.6076896529
  0
LINE
  5
5C1
100
AcDbEntity
  8
RACCORDO
100
AcDbLine
 62
250
  6
CONTINUOUS
 10
9.0776633073
 20
17.7647850839
 11
9.0776633073
 21
16.7649375421
  0
LINE
  5
5C2
100
AcDbEntity
  8
RACCORDO
100
AcDbLine
 62
250
  6
CONTINUOUS
 10
9.159550075
 20
5.6102071525
 11
9.159550075
 21
6.6100548477
  0
LINE
  5
5C3
100
AcDbEntity
  8
DRAFT
100
AcDbLine
 62
7
  6
CONTINUOUS
 10
9.35
 20
-2.9
 11
9.35
 21
1.3
  0
LINE
  5
5C4
100
AcDbEntity
  8
RACCORDO
100
AcDbLine
 62
250
  6
CONTINUOUS
 10
9.3623099353
 20
1.3123099353
 11
9.3623099353
 21
-2.9123099353
  0
LINE
  5
5C5
100
AcDbEntity
  8
DRAFT
100
AcDbLine
 62
7
  6
CONTINUOUS
 10
9.5103594806
 20
-20.7603594806
 11
9.5103594806
 21
-18.3646046264
  0
LINE
  5
5C6
100
AcDbEntity
  8
DRAFT
100
AcDbLine
 62
7
  6
CONTINUOUS
 10
9.5103594806
 20
18.364261819
 11
9.5103594806
 21
20.7603594806
  0
LINE
  5
5C7
100
AcDbEntity
  8
RACCORDO
100
AcDbLine
 62
7
  6
CONTINUOUS
 10
9.65
 20
-20.9
 11
9.65
 21
-18.2605978956
  0
LINE
  5
5C8
100
AcDbEntity
  8
RACCORDO
100
AcDbLine
 62
7
  6
CONTINUOUS
 10
9.65
 20
18.2613774849
 11
9.65
 21
20.9
  0
LINE
  5
5C9
100
AcDbEntity
  8
RACCORDO
100
AcDbLine
 62
250
  6
CONTINUOUS
 10
9.6594739059
 20
-15.159854668
 11
9.6594739059
 21
-12.5372983794
  0
LINE
  5
5CA
100
AcDbEntity
  8
RACCORDO
100
AcDbLine
 62
250
  6
CONTINUOUS
 10
9.6594739059
 20
-8.9627016206
 11
9.6594739059
 21
-3.8
  0
LINE
  5
5CB
100
AcDbEntity
  8
RACCORDO
100
AcDbLine
 62
250
  6
CONTINUOUS
 10
9.6594739059
 20
2.2
 11
9.6594739059
 21
5.1102833217
  0
LINE
  5
5CC
100
AcDbEntity
  8
RACCORDO
100
AcDbLine
 62
250
  6
CONTINUOUS
 10
9.6622642439
 20
1.6122642439
 11
9.6622642439
 21
-3.2122642439
  0
LINE
  5
5CD
100
AcDbEntity
  8
RACCORDO
100
AcDbLine
 62
250
  6
CONTINUOUS
 10
9.9377357561
 20
-3.7876900647
 11
9.9377357561
 21
2.1876900647
  0
LINE
  5
5CE
100
AcDbEntity
  8
RACCORDO
100
AcDbLine
 62
250
  6
CONTINUOUS
 10
10.2376900647
 20
-3.4877357561
 11
10.2376900647
 21
1.8877357561
  0
LINE
  5
5CF
100
AcDbEntity
  8
RACCORDO
100
AcDbLine
 62
7
  6
CONTINUOUS
 10
10.2534122812
 20
-3.5034579727
 11
10.2534122812
 21
1.9034579727
  0
LINE
  5
5D0
100
AcDbEntity
  8
RACCORDO
100
AcDbLine
 62
250
  6
CONTINUOUS
 10
10.659321601
 20
5.1102833217
 11
10.659321601
 21
-15.159649807
  0
LINE
  5
5D1
100
AcDbEntity
  8
RACCORDO
100
AcDbLine
 62
7
  6
CONTINUOUS
 10
11.0
 20
-15.500533067
 11
11.0
 21
15.500533067
  0
LINE
  5
5D2
100
AcDbEntity
  8
RACCORDO
100
AcDbLine
 62
7
  6
CONTINUOUS
 10
11.05
 20
-16.5441903035
 11
11.05
 21
16.5441903035
  0
LINE
  5
5D3
100
AcDbEntity
  8
RACCORDO
100
AcDbLine
 62
7
  6
CONTINUOUS
 10
11.0796736104
 20
-16.5543574599
 11
11.0796736104
 21
16.5543574599
  0
LINE
  5
5D4
100
AcDbEntity
  8
0
100
AcDbLine
 62
7
  6
CONTINUOUS
 10
11.15
 20
21.8997711479
 11
11.15
 21
-21.8997711479
  0
LINE
  5
5D5
100
AcDbEntity
  8
RACCORDO
100
AcDbLine
 62
250
  6
CONTINUOUS
 10
9.8165694902
 20
15.3169502523
 11
9.816597438
 21
7.8059328384
  0
LINE
  5
5D6
100
AcDbEntity
  8
RACCORDO
100
AcDbLine
 62
250
  6
CONTINUOUS
 10
10.8164171854
 20
15.3169502523
 11
10.8163866002
 21
7.5980539106
  0
LINE
  5
5D7
100
AcDbEntity
  8
RACCORDO
100
AcDbLine
 62
250
  6
CONTINUOUS
 10
9.816597438
 20
7.8059328384
 11
9.8165694144
 21
7.7327060702
  0
LINE
  5
5D8
100
AcDbEntity
  8
RACCORDO
100
AcDbLine
 62
250
  6
CONTINUOUS
 10
10.8163866002
 20
7.5980539106
 11
10.8157468248
 21
7.1519544931
  0
LINE
  5
5D9
100
AcDbEntity
  8
RACCORDO
100
AcDbLine
 62
250
  6
CONTINUOUS
 10
10.8157468248
 20
7.1519544931
 11
10.8144745564
 21
6.8011223944
  0
LINE
  5
5DA
100
AcDbEntity
  8
RACCORDO
100
AcDbLine
 62
250
  6
CONTINUOUS
 10
10.8144745564
 20
6.8011223944
 11
10.8126199691
 21
6.4926189605
  0
LINE
  5
5DB
100
AcDbEntity
  8
RACCORDO
100
AcDbLine
 62
250
  6
CONTINUOUS
 10
10.8126199691
 20
6.4926189605
 11
10.8101731458
 21
6.2127050102
  0
LINE
  5
5DC
100
AcDbEntity
  8
RACCORDO
100
AcDbLine
 62
250
  6
CONTINUOUS
 10
10.8101731458
 20
6.2127050102
 11
10.8072274554
 21
5.966639984
  0
LWPOLYLINE
  5
5DD
100
AcDbEntity
  8
RACCORDO
100
AcDbPolyline
 62
250
  6
CONTINUOUS
 90
62
 70
0
 10
9.8165697859
 20
7.7327060702
 10
9.8161911036
 20
7.7100734032
 10
9.8152390445
 20
7.6876598486
 10
9.8137136084
 20
7.6654762077
 10
9.8115898467
 20
7.6435988668
 10
9.8088927081
 20
7.6219708863
 10
9.8056970387
 20
7.6004034579
 10
9.8020316145
 20
7.5788987529
 10
9.7978676595
 20
7.5574748383
 10
9.7931936916
 20
7.535969853
 10
9.7880109326
 20
7.5143833561
 10
9.7823181606
 20
7.4927410498
 10
9.7761002277
 20
7.4709249192
 10
9.7693630141
 20
7.4489378116
 10
9.7621006396
 20
7.4268104205
 10
9.7542803155
 20
7.4044718735
 10
9.7458677335
 20
7.3818708268
 10
9.7368972019
 20
7.3591039054
 10
9.7274388572
 20
7.3363224295
 10
9.7174563776
 20
7.3135018661
 10
9.706986085
 20
7.2907111611
 10
9.6962070808
 20
7.2682299469
 10
9.6851124014
 20
7.2460857726
 10
9.6737090104
 20
7.2242768463
 10
9.6621969007
 20
7.2030199029
 10
9.6506002248
 20
7.1823642698
 10
9.6388948301
 20
7.1622634126
 10
9.6272082513
 20
7.1427769053
 10
9.615563443
 20
7.1239309481
 10
9.6039374505
 20
7.1056909645
 10
9.5923889448
 20
7.0880226631
 10
9.5809229107
 20
7.0709215181
 10
9.5695343633
 20
7.0543831177
 10
9.5582670195
 20
7.0383755545
 10
9.5471238993
 20
7.0228929436
 10
9.5361019826
 20
7.0079317331
 10
9.5252359258
 20
6.9934657246
 10
9.5145280059
 20
6.9794891935
 10
9.5039759459
 20
6.9659982159
 10
9.4936075718
 20
6.952971246
 10
9.4834268188
 20
6.9404057272
 10
9.4734297516
 20
6.9282943922
 10
9.4636323899
 20
6.9166110308
 10
9.4540379737
 20
6.9053541988
 10
9.4446432629
 20
6.8945169935
 10
9.4354545572
 20
6.8840687334
 10
9.4264702761
 20
6.8740051306
 10
9.4176920001
 20
6.8643256749
 10
9.4091307695
 20
6.8550093179
 10
9.4007774617
 20
6.8460439501
 10
9.3926411994
 20
6.8374400984
 10
9.3847603907
 20
6.829210591
 10
9.3771346178
 20
6.8213480865
 10
9.3697642986
 20
6.8138533849
 10
9.3626890949
 20
6.8067463774
 10
9.3559180808
 20
6.8000251069
 10
9.3494421822
 20
6.7936768005
 10
9.3432738391
 20
6.7877006979
 10
9.3374252084
 20
6.7821006178
 10
9.3318841333
 20
6.7768543993
 10
9.3266265825
 20
6.7719260479
 10
9.3216498976
 20
6.7673133252
  0
LINE
  5
5DE
100
AcDbEntity
  8
RACCORDO
100
AcDbLine
 62
250
  6
CONTINUOUS
 10
10.8072274554
 20
5.966639984
 11
10.8038588097
 21
5.7550699388
  0
LINE
  5
5DF
100
AcDbEntity
  8
RACCORDO
100
AcDbLine
 62
250
  6
CONTINUOUS
 10
10.8038588097
 20
5.7550699388
 11
10.8007592113
 21
5.604562263
  0
LINE
  5
5E0
100
AcDbEntity
  8
RACCORDO
100
AcDbLine
 62
250
  6
CONTINUOUS
 10
10.8007592113
 20
5.604562263
 11
10.7981044641
 21
5.501237837
  0
LINE
  5
5E1
100
AcDbEntity
  8
RACCORDO
100
AcDbLine
 62
250
  6
CONTINUOUS
 10
10.7981044641
 20
5.501237837
 11
10.7960569212
 21
5.4350758123
  0
LWPOLYLINE
  5
5E2
100
AcDbEntity
  8
RACCORDO
100
AcDbPolyline
 62
7
  6
CONTINUOUS
 90
10
 70
0
 10
11.0796736104
 20
-16.5543574599
 10
11.0769978975
 20
-16.6277699594
 10
11.0690186861
 20
-16.7002619089
 10
11.0557359763
 20
-16.7718333084
 10
11.0369635292
 20
-16.8430228686
 10
11.0128875837
 20
-16.9132918787
 10
10.9840668556
 20
-16.9810242071
 10
10.9506875837
 20
-17.0456811432
 10
10.9125635292
 20
-17.1078013977
 10
10.8696946922
 20
-17.1673849704
  0
LINE
  5
5E3
100
AcDbEntity
  8
RACCORDO
100
AcDbLine
 62
250
  6
CONTINUOUS
 10
10.7960569212
 20
5.4350758123
 11
10.7946839898
 21
5.3966160068
  0
LINE
  5
5E4
100
AcDbEntity
  8
RACCORDO
100
AcDbLine
 62
250
  6
CONTINUOUS
 10
10.7946839898
 20
5.3966160068
 11
10.7933071562
 21
5.3625649606
  0
LINE
  5
5E5
100
AcDbEntity
  8
RACCORDO
100
AcDbLine
 62
250
  6
CONTINUOUS
 10
10.7933071562
 20
5.3625649606
 11
10.7919192723
 21
5.3325337812
  0
LWPOLYLINE
  5
5E6
100
AcDbEntity
  8
RACCORDO
100
AcDbPolyline
 62
7
  6
CONTINUOUS
 90
16
 70
0
 10
10.2534122812
 20
-3.5034579727
 10
10.2519559031
 20
-3.5327447896
 10
10.2475386235
 20
-3.5620682025
 10
10.2400980475
 20
-3.5911246866
 10
10.2295781959
 20
-3.6196413301
 10
10.2159987196
 20
-3.647236185
 10
10.1995079556
 20
-3.6734463126
 10
10.1802942513
 20
-3.6978790693
 10
10.1584660541
 20
-3.7203228426
 10
10.1341172475
 20
-3.7405910941
 10
10.1073470214
 20
-3.7584344857
 10
10.0784834887
 20
-3.7734765214
 10
10.0480235916
 20
-3.7853921153
 10
10.0163811128
 20
-3.7939892783
 10
9.983847997
 20
-3.7991463271
 10
9.9508028408
 20
-3.8007571494
  0
LWPOLYLINE
  5
5E7
100
AcDbEntity
  8
RACCORDO
100
AcDbPolyline
 62
250
  6
CONTINUOUS
 90
13
 70
0
 10
10.7919192723
 20
5.3325337812
 10
10.7905088918
 20
5.3062850881
 10
10.7897939416
 20
5.2945466557
 10
10.7890702824
 20
5.2837723495
 10
10.7883375745
 20
5.2739487306
 10
10.7875961575
 20
5.265089238
 10
10.7868447278
 20
5.2572628357
 10
10.7860831083
 20
5.2504576686
 10
10.785311476
 20
5.2446855919
 10
10.7845290585
 20
5.2400511361
 10
10.7837355981
 20
5.2365891449
 10
10.7829313523
 20
5.2342647746
 10
10.7821163213
 20
5.2330780252
  0
LWPOLYLINE
  5
5E8
100
AcDbEntity
  8
0
100
AcDbPolyline
 62
7
  6
CONTINUOUS
 90
19
 70
0
 10
8.65
 20
-10.4166114973
 10
8.6491935677
 20
-10.4221523609
 10
8.6468065106
 20
-10.4270487499
 10
8.6428958887
 20
-10.4313006644
 10
8.6375368823
 20
-10.434912603
 10
8.6308027286
 20
-10.4378800671
 10
8.6227463912
 20
-10.4401895602
 10
8.6134493421
 20
-10.4418370386
 10
8.6029954451
 20
-10.442826546
 10
8.5914211365
 20
-10.4431567174
 10
8.5788115714
 20
-10.4428266566
 10
8.5652588971
 20
-10.4418372597
 10
8.5507924814
 20
-10.4401898503
 10
8.5355028158
 20
-10.4378803612
 10
8.51949909
 20
-10.4349128596
 10
8.5028324667
 20
-10.43130087
 10
8.4855982418
 20
-10.4270489005
 10
8.4679424284
 20
-10.4221524429
 10
8.45
 20
-10.4166114973
  0
LINE
  5
5E9
100
AcDbEntity
  8
RACCORDO
100
AcDbLine
 62
250
  6
CONTINUOUS
 10
-0.9854077051
 20
-16.2339458071
 11
-0.9886731678
 21
-16.2377670421
  0
LINE
  5
5EA
100
AcDbEntity
  8
RACCORDO
100
AcDbLine
 62
250
  6
CONTINUOUS
 10
-0.9886731678
 20
-16.2377670421
 11
-0.9956852834
 21
-16.2458524898
  0
LWPOLYLINE
  5
5EB
100
AcDbEntity
  8
RACCORDO
100
AcDbPolyline
 62
250
  6
CONTINUOUS
 90
67
 70
0
 10
-0.9956852834
 20
-16.2458524898
 10
-1.0017345605
 20
-16.2527276589
 10
-1.0051692386
 20
-16.2565980165
 10
-1.0088934255
 20
-16.2607449085
 10
-1.0129092454
 20
-16.2651600124
 10
-1.0172161527
 20
-16.2698516507
 10
-1.0218368924
 20
-16.274831974
 10
-1.0267775292
 20
-16.2801016075
 10
-1.032040937
 20
-16.2856599259
 10
-1.0376520541
 20
-16.2915172031
 10
-1.0436257009
 20
-16.297679454
 10
-1.0499622343
 20
-16.3041406638
 10
-1.0566677656
 20
-16.310893062
 10
-1.0637522752
 20
-16.3179424042
 10
-1.071219471
 20
-16.325282935
 10
-1.0790643427
 20
-16.3328896174
 10
-1.0872924104
 20
-16.3407657143
 10
-1.0959078726
 20
-16.348907963
 10
-1.1049005319
 20
-16.3572815378
 10
-1.1142699592
 20
-16.365885827
 10
-1.124021729
 20
-16.3747214424
 10
-1.1341522102
 20
-16.3837553943
 10
-1.1446536472
 20
-16.3929805575
 10
-1.1555361699
 20
-16.4024040573
 10
-1.1668240355
 20
-16.4120142796
 10
-1.1785171191
 20
-16.4218094396
 10
-1.1906207655
 20
-16.4317913222
 10
-1.203171626
 20
-16.4419536668
 10
-1.2161741953
 20
-16.4522980695
 10
-1.2296327542
 20
-16.4628229343
 10
-1.2435883467
 20
-16.4735172132
 10
-1.2580528256
 20
-16.4843885409
 10
-1.2730261518
 20
-16.4954292828
 10
-1.2885348196
 20
-16.5066054862
 10
-1.3045908048
 20
-16.5179262331
 10
-1.3211935465
 20
-16.5293824417
 10
-1.3383514516
 20
-16.5409129133
 10
-1.3560698339
 20
-16.5525233575
 10
-1.3743511407
 20
-16.5642080647
 10
-1.3931986651
 20
-16.5758887078
 10
-1.4126331084
 20
-16.5875806293
 10
-1.4326375423
 20
-16.5992684867
 10
-1.4531548534
 20
-16.6108279249
 10
-1.4742079274
 20
-16.622272882
 10
-1.4957673267
 20
-16.63358942
 10
-1.5176876267
 20
-16.6446113702
 10
-1.5399697649
 20
-16.6553338879
 10
-1.5625902873
 20
-16.6657618177
 10
-1.5853542428
 20
-16.6757435254
 10
-1.6082231193
 20
-16.6852578564
 10
-1.6311989823
 20
-16.6943259652
 10
-1.6541381764
 20
-16.7028596813
 10
-1.6769881815
 20
-16.710833699
 10
-1.6997613875
 20
-16.7182733239
 10
-1.7224085037
 20
-16.7251663023
 10
-1.7448873138
 20
-16.7315137403
 10
-1.7672042342
 20
-16.7373145316
 10
-1.7893843045
 20
-16.7425531038
 10
-1.8114100156
 20
-16.7472104451
 10
-1.8332697485
 20
-16.7513055672
 10
-1.8549996919
 20
-16.7548799322
 10
-1.8765820263
 20
-16.7579671914
 10
-1.8980104561
 20
-16.7605336934
 10
-1.9193402529
 20
-16.7625199472
 10
-1.9405831817
 20
-16.7639061223
 10
-1.9617070448
 20
-16.7647120491
 10
-1.9827021297
 20
-16.7649377277
  0
LINE
  5
5EC
100
AcDbEntity
  8
RACCORDO
100
AcDbLine
 62
250
  6
CONTINUOUS
 10
-0.9606626659
 20
-16.2084672521
 11
-0.9665879481
 21
-16.2145980754
  0
LWPOLYLINE
  5
5ED
100
AcDbEntity
  8
RACCORDO
100
AcDbPolyline
 62
250
  6
CONTINUOUS
 90
6
 70
0
 10
-0.9665879481
 20
-16.2145980754
 10
-0.9722532136
 20
-16.2203468351
 10
-0.9749925186
 20
-16.2230832147
 10
-0.9776723667
 20
-16.2257214744
 10
-0.9802913771
 20
-16.228264674
 10
-0.9828495498
 20
-16.2307128137
  0
LWPOLYLINE
  5
5EE
100
AcDbEntity
  8
RACCORDO
100
AcDbPolyline
 62
250
  6
CONTINUOUS
 90
6
 70
0
 10
-0.9377222708
 20
-16.1855611684
 10
-0.9479883655
 20
-16.1959119596
 10
-0.9512633407
 20
-16.1991292908
 10
-0.9544654378
 20
-16.2022440956
 10
-0.957598557
 20
-16.2053400125
 10
-0.9606626659
 20
-16.2084672521
  0
LINE
  5
5EF
100
AcDbEntity
  8
RACCORDO
100
AcDbLine
 62
7
  6
CONTINUOUS
 10
-2.5
 20
-18.9685808831
 11
-2.4673008778
 21
-18.935881761
  0
LINE
  5
5F0
100
AcDbEntity
  8
RACCORDO
100
AcDbLine
 62
250
  6
CONTINUOUS
 10
-0.8600548477
 20
-16.1079181119
 11
-0.9377222708
 21
-16.1855611684
  0
LINE
  5
5F1
100
AcDbEntity
  8
0
100
AcDbLine
 62
7
  6
CONTINUOUS
 10
-2.872272
 20
-13.203441
 11
-3.684419
 21
-13.714576
  0
LINE
  5
5F2
100
AcDbEntity
  8
0
100
AcDbLine
 62
7
  6
CONTINUOUS
 10
-3.496714
 20
-13.735419
 11
-2.684494
 21
-13.232732
  0
LINE
  5
5F3
100
AcDbEntity
  8
RACCORDO
100
AcDbLine
 62
250
  6
CONTINUOUS
 10
-10.3980900501
 20
-16.9759532708
 11
-9.517841571
 21
-16.5020295551
  0
LINE
  5
5F4
100
AcDbEntity
  8
RACCORDO
100
AcDbLine
 62
250
  6
CONTINUOUS
 10
-11.05
 20
-16.5441903035
 11
-11.0796736104
 21
-16.5543574599
  0
LWPOLYLINE
  5
5F5
100
AcDbEntity
  8
RACCORDO
100
AcDbPolyline
 62
7
  6
CONTINUOUS
 90
10
 70
0
 10
1.55
 20
-10.4166114973
 10
1.7067211963
 20
-10.3667438457
 10
1.8600837634
 20
-10.3191800531
 10
2.0100877012
 20
-10.2739201196
 10
2.1562808188
 20
-10.2310903264
 10
2.2991153071
 20
-10.1905643923
 10
2.4399477388
 20
-10.1519634731
 10
2.5792303046
 20
-10.1151612874
 10
2.7165108138
 20
-10.0802841166
 10
2.8517892662
 20
-10.0473319608
  0
LWPOLYLINE
  5
5F6
100
AcDbEntity
  8
0
100
AcDbPolyline
 62
7
  6
CONTINUOUS
 90
16
 70
0
 10
1.5917202296
 20
-12.0602126012
 10
1.7322562219
 20
-12.0156058782
 10
1.9097288637
 20
-11.9609273896
 10
2.0824179256
 20
-11.909419314
 10
2.2496225417
 20
-11.8612818487
 10
2.4120435779
 20
-11.8163147965
 10
2.5717836307
 20
-11.7739175649
 10
2.7290670535
 20
-11.7339679601
 10
2.883669493
 20
-11.696588176
 10
3.0370204863
 20
-11.6615442019
 10
3.1892566894
 20
-11.62875301
 10
3.3402414462
 20
-11.598297628
 10
3.4909943262
 20
-11.5701931287
 10
3.6418551858
 20
-11.5444445364
 10
3.7924841685
 20
-11.5210468269
 10
3.9428812744
 20
-11.5
  0
LWPOLYLINE
  5
5F7
100
AcDbEntity
  8
RACCORDO
100
AcDbPolyline
 62
7
  6
CONTINUOUS
 90
10
 70
0
 10
-3.3084889983
 20
10.0
 10
-3.2527054835
 20
10.0005406376
 10
-3.1981626674
 20
10.0022532066
 10
-3.1448605498
 20
10.005137707
 10
-3.0927736956
 20
10.009183891
 10
-3.0419275399
 20
10.0144020063
 10
-2.9923983886
 20
10.0208227966
 10
-2.9442116768
 20
10.0284565097
 10
-2.8973419694
 20
10.0372928978
 10
-2.8517892662
 20
10.0473319608
  0
LINE
  5
5F8
100
AcDbEntity
  8
0
100
AcDbLine
 62
7
  6
CONTINUOUS
 10
3.843839
 20
9.096358
 11
5.182989
 21
9.096358
  0
LINE
  5
5F9
100
AcDbEntity
  8
0
100
AcDbLine
 62
7
  6
CONTINUOUS
 10
5.422987
 20
9.096358
 11
6.778161
 21
9.096358
  0
LINE
  5
5FA
100
AcDbEntity
  8
0
100
AcDbLine
 62
7
  6
CONTINUOUS
 10
6.778161
 20
9.339807
 11
3.843839
 21
9.339807
  0
LINE
  5
5FB
100
AcDbEntity
  8
0
100
AcDbLine
 62
7
  6
CONTINUOUS
 10
4.328762
 20
9.717042
 11
6.293457
 21
9.717042
  0
LINE
  5
5FC
100
AcDbEntity
  8
0
100
AcDbLine
 62
7
  6
CONTINUOUS
 10
6.293457
 20
9.96049
 11
4.328762
 21
9.96049
  0
LINE
  5
5FD
100
AcDbEntity
  8
RACCORDO
100
AcDbLine
 62
7
  6
CONTINUOUS
 10
-8.65
 20
10.0
 11
-5.6688458423
 21
10.0
  0
LINE
  5
5FE
100
AcDbEntity
  8
RACCORDO
100
AcDbLine
 62
7
  6
CONTINUOUS
 10
-4.3311541577
 20
10.0
 11
-3.3084889983
 21
10.0
  0
LINE
  5
5FF
100
AcDbEntity
  8
RACCORDO
100
AcDbLine
 62
7
  6
CONTINUOUS
 10
-1.35
 20
10.0
 11
-3.1685457686
 21
10.0
  0
LINE
  5
600
100
AcDbEntity
  8
RACCORDO
100
AcDbLine
 62
250
  6
CONTINUOUS
 10
-8.65
 20
10.0473319608
 11
-7.1482107338
 21
10.0473319608
  0
LINE
  5
601
100
AcDbEntity
  8
RACCORDO
100
AcDbLine
 62
250
  6
CONTINUOUS
 10
-1.35
 20
10.0473319608
 11
-2.8517892662
 21
10.0473319608
  0
LINE
  5
602
100
AcDbEntity
  8
0
100
AcDbLine
 62
7
  6
CONTINUOUS
 10
4.813466
 20
10.337726
 11
5.808535
 21
10.337726
  0
LINE
  5
603
100
AcDbEntity
  8
0
100
AcDbLine
 62
7
  6
CONTINUOUS
 10
5.808535
 20
10.577725
 11
4.813466
 21
10.577725
  0
LINE
  5
604
100
AcDbEntity
  8
0
100
AcDbLine
 62
7
  6
CONTINUOUS
 10
-6.0571187256
 20
11.5
 11
-5.6688458423
 21
11.5
  0
LINE
  5
605
100
AcDbEntity
  8
0
100
AcDbLine
 62
7
  6
CONTINUOUS
 10
-4.3311541577
 20
11.5
 11
-3.9428812744
 21
11.5
  0
LWPOLYLINE
  5
606
100
AcDbEntity
  8
0
100
AcDbPolyline
 62
7
  6
CONTINUOUS
 90
16
 70
0
 10
-6.0571187256
 20
11.5
 10
-6.2076049022
 20
11.521061077
 10
-6.3583112719
 20
11.5444726573
 10
-6.5092378346
 20
11.5702347409
 10
-6.6600450844
 20
11.5983530202
 10
-6.8110725273
 20
11.6288218029
 10
-6.9633386808
 20
11.6616240111
 10
-7.116706944
 20
11.6966765468
 10
-7.2713139179
 20
11.7340625081
 10
-7.4285879232
 20
11.7740141117
 10
-7.5883049282
 20
11.8164092031
 10
-7.7506889645
 20
11.8613699368
 10
-7.9178404482
 20
11.9094949933
 10
-8.090459518
 20
11.9609839327
 10
-8.2678460353
 20
12.0156371949
 10
-8.4082799917
 20
12.0602124102
  0
LINE
  5
607
100
AcDbEntity
  8
0
100
AcDbLine
 62
250
  6
CONTINUOUS
 10
-3.25
 20
12.3313868826
 11
-2.0506543031
 21
11.9969580155
  0
LINE
  5
608
100
AcDbEntity
  8
0
100
AcDbLine
 62
7
  6
CONTINUOUS
 10
-2.0372244982
 20
12.0451206601
 11
-3.3214140927
 21
12.403207634
  0
LINE
  5
609
100
AcDbEntity
  8
RACCORDO
100
AcDbLine
 62
250
  6
CONTINUOUS
 10
-9.5453021388
 20
15.9067539923
 11
-10.4994008063
 21
16.2054356382
  0
LINE
  5
60A
100
AcDbEntity
  8
RACCORDO
100
AcDbLine
 62
250
  6
CONTINUOUS
 10
-11.0796736104
 20
16.5543574599
 11
-11.05
 21
16.5441903035
  0
LWPOLYLINE
  5
60B
100
AcDbEntity
  8
RACCORDO
100
AcDbPolyline
 62
250
  6
CONTINUOUS
 90
60
 70
0
 10
-8.591123166
 20
17.5666316165
 10
-8.5867830194
 20
17.5645183361
 10
-8.5823456536
 20
17.5622709678
 10
-8.5778110687
 20
17.5598836027
 10
-8.5731807407
 20
17.5573513635
 10
-8.5684531934
 20
17.5546668193
 10
-8.5636239992
 20
17.5518196783
 10
-8.5586902787
 20
17.5488014886
 10
-8.5536549113
 20
17.5456066004
 10
-8.548522107
 20
17.5422284209
 10
-8.5432911771
 20
17.538659232
 10
-8.5379628103
 20
17.5348917664
 10
-8.532543283
 20
17.5309200428
 10
-8.5270327425
 20
17.5267367031
 10
-8.5214310414
 20
17.522333517
 10
-8.5157440141
 20
17.5177031713
 10
-8.5099738909
 20
17.512840019
 10
-8.5041184414
 20
17.5077335946
 10
-8.4981768089
 20
17.5023687528
 10
-8.4921552635
 20
17.4967437303
 10
-8.486047535
 20
17.4908428187
 10
-8.4798339565
 20
17.4846272254
 10
-8.4735144429
 20
17.478087661
 10
-8.4670890793
 20
17.4712108458
 10
-8.4605384533
 20
17.4639470649
 10
-8.4538604108
 20
17.4562823328
 10
-8.4470571059
 20
17.4482018029
 10
-8.4401155892
 20
17.4396486707
 10
-8.4330332513
 20
17.4306057819
 10
-8.4258127016
 20
17.4210546565
 10
-8.4184488188
 20
17.4109301277
 10
-8.410938159
 20
17.400211442
 10
-8.4032841662
 20
17.3888764035
 10
-8.3954920509
 20
17.3768507193
 10
-8.3875563796
 20
17.3641083362
 10
-8.3794825857
 20
17.3506248607
 10
-8.3712921806
 20
17.3363213795
 10
-8.3629758399
 20
17.3211625716
 10
-8.354542888
 20
17.3051269266
 10
-8.3460428094
 20
17.2881508359
 10
-8.33747455
 20
17.2702180467
 10
-8.3288391638
 20
17.2512878563
 10
-8.3201892982
 20
17.2312540605
 10
-8.3115188132
 20
17.2100978455
 10
-8.3028338488
 20
17.1877788167
 10
-8.2942054714
 20
17.1641488933
 10
-8.2856215593
 20
17.1391873356
 10
-8.2770942342
 20
17.1128552551
 10
-8.268730927
 20
17.0849659839
 10
-8.2605109598
 20
17.055490153
 10
-8.2524550104
 20
17.0244039384
 10
-8.2447325441
 20
16.9915199675
 10
-8.237318975
 20
16.9568194097
 10
-8.2302388888
 20
16.9202933013
 10
-8.2237355077
 20
16.8817672775
 10
-8.2177812787
 20
16.8412552456
 10
-8.2124037547
 20
16.7987701948
 10
-8.2079288164
 20
16.7541451576
 10
-8.2044650906
 20
16.7073624576
 10
-8.2019039505
 20
16.6585622962
  0
LWPOLYLINE
  5
60C
100
AcDbEntity
  8
RACCORDO
100
AcDbPolyline
 62
250
  6
CONTINUOUS
 90
12
 70
0
 10
8.699937119
 20
6.6978937646
 10
8.69428208
 20
6.7009586076
 10
8.6803021887
 20
6.7040083386
 10
8.657997445
 20
6.7070429576
 10
8.6273221575
 20
6.7100699808
 10
8.5883220177
 20
6.7130818921
 10
8.5411340995
 20
6.7160561428
 10
8.485660449
 20
6.7189931815
 10
8.4219990203
 20
6.7218925597
 10
8.3505807491
 20
6.7247303831
 10
8.2715492808
 20
6.7274986872
 10
8.0902158168
 20
6.7328506312
  0
LWPOLYLINE
  5
60D
100
AcDbEntity
  8
RACCORDO
100
AcDbPolyline
 62
7
  6
CONTINUOUS
 90
11
 70
0
 10
-2.0045739039
 20
16.1060637217
 10
-2.0399151292
 20
16.1317458045
 10
-2.0732776008
 20
16.1552642422
 10
-2.1044694857
 20
16.1766237306
 10
-2.1334722481
 20
16.195408273
 10
-2.1602297831
 20
16.2115980803
 10
-2.1846453153
 20
16.2252129415
 10
-2.2066638297
 20
16.2358962271
 10
-2.2262646865
 20
16.2435290604
 10
-2.2434557653
 20
16.248230318
 10
-2.2582575695
 20
16.25
  0
LWPOLYLINE
  5
60E
100
AcDbEntity
  8
RACCORDO
100
AcDbPolyline
 62
250
  6
CONTINUOUS
 90
12
 70
0
 10
7.6999759537
 20
5.6980439968
 10
7.6958399899
 20
5.7011112747
 10
7.6856364831
 20
5.7041626534
 10
7.6693516918
 20
5.7071981329
 10
7.6469835435
 20
5.7102249875
 10
7.618547565
 20
5.713235943
 10
7.584082395
 20
5.7162091767
 10
7.5436245616
 20
5.7191452256
 10
7.4972444749
 20
5.7220435526
 10
7.4450761068
 20
5.7248807243
 10
7.3872490218
 20
5.7276489292
 10
7.2550683127
 20
5.7330018728
  0
LWPOLYLINE
  5
60F
100
AcDbEntity
  8
0
100
AcDbPolyline
 62
7
  6
CONTINUOUS
 90
3
 70
0
 10
-3.2272523018
 20
16.3070293422
 10
-3.1806524636
 20
16.2718140312
 10
-3.1558732239
 20
16.25
  0
LWPOLYLINE
  5
610
100
AcDbEntity
  8
RACCORDO
100
AcDbPolyline
 62
7
  6
CONTINUOUS
 90
5
 70
0
 10
-1.8
 20
15.95
 10
-1.8441007285
 20
15.9846131288
 10
-1.8868916009
 20
16.0174973931
 10
-1.928086713
 20
16.0486527928
 10
-2.0045739039
 20
16.1060637217
  0
LINE
  5
611
100
AcDbEntity
  8
0
100
AcDbLine
 62
250
  6
CONTINUOUS
 10
-5.2135922524
 20
16.3127459828
 11
-5.135533374
 21
16.25
  0
LINE
  5
612
100
AcDbEntity
  8
0
100
AcDbLine
 62
250
  6
CONTINUOUS
 10
-2.7906261273
 20
16.3027964803
 11
-2.7275094007
 21
16.25
  0
LINE
  5
613
100
AcDbEntity
  8
DRAFT
100
AcDbLine
 62
7
  6
CONTINUOUS
 10
7.6999751959
 20
4.7894765244
 11
7.7302935336
 21
4.7591581867
  0
LINE
  5
614
100
AcDbEntity
  8
RACCORDO
100
AcDbLine
 62
7
  6
CONTINUOUS
 10
-2.5
 20
18.9685808831
 11
-2.4673008778
 21
18.935881761
  0
LINE
  5
615
100
AcDbEntity
  8
RACCORDO
100
AcDbLine
 62
250
  6
CONTINUOUS
 10
7.7482166658
 20
5.6015557812
 11
7.6999759551
 21
5.6980445509
  0
LINE
  5
616
100
AcDbEntity
  8
RACCORDO
100
AcDbLine
 62
250
  6
CONTINUOUS
 10
8.7438532326
 20
6.6100548477
 11
8.699937119
 21
6.6978937646
  0
LWPOLYLINE
  5
617
100
AcDbEntity
  8
RACCORDO
100
AcDbPolyline
 62
250
  6
CONTINUOUS
 90
5
 70
0
 10
7.2697845263
 20
18.5535811801
 10
7.269976966
 20
18.5519225623
 10
7.270163073
 20
18.5481513864
 10
7.2703428474
 20
18.5422676526
 10
7.2705180465
 20
18.5341647786
  0
LINE
  5
618
100
AcDbEntity
  8
RACCORDO
100
AcDbLine
 62
250
  6
CONTINUOUS
 10
10.0317940571
 20
-18.150052343
 11
10.0017445951
 21
-18.2308351883
  0
LINE
  5
619
100
AcDbEntity
  8
RACCORDO
100
AcDbLine
 62
250
  6
CONTINUOUS
 10
7.7482166658
 20
-16.5991905864
 11
7.6999767556
 21
-16.695677755
  0
LINE
  5
61A
100
AcDbEntity
  8
RACCORDO
100
AcDbLine
 62
250
  6
CONTINUOUS
 10
8.7438532326
 20
-17.6076896529
 11
8.699937119
 21
-17.6955285698
  0
LWPOLYLINE
  5
61B
100
AcDbEntity
  8
RACCORDO
100
AcDbPolyline
 62
250
  6
CONTINUOUS
 90
10
 70
0
 10
9.3607459866
 20
-16.3449339707
 10
9.4226332999
 20
-16.221881684
 10
9.4774261052
 20
-16.0963669802
 10
9.5251244026
 20
-15.9683898593
 10
9.5658339556
 20
-15.8375414957
 10
9.5994490007
 20
-15.704230715
 10
9.6256522473
 20
-15.5696839942
 10
9.644337932
 20
-15.4343101589
 10
9.6556118181
 20
-15.2977003835
 10
9.6594739059
 20
-15.159854668
  0
LWPOLYLINE
  5
61C
100
AcDbEntity
  8
RACCORDO
100
AcDbPolyline
 62
250
  6
CONTINUOUS
 90
10
 70
0
 10
10.2410072654
 20
-16.8188341362
 10
10.3273897701
 20
-16.6472885831
 10
10.4042294543
 20
-16.4712670776
 10
10.4712957476
 20
-16.2912999624
 10
10.5283877555
 20
-16.1079281633
 10
10.5753340639
 20
-15.9217051479
 10
10.6119938649
 20
-15.7331954164
 10
10.6382581582
 20
-15.5429678862
 10
10.6540494506
 20
-15.3515940251
 10
10.6593216167
 20
-15.1596498287
  0
LWPOLYLINE
  5
61D
100
AcDbEntity
  8
RACCORDO
100
AcDbPolyline
 62
7
  6
CONTINUOUS
 90
22
 70
0
 10
9.6594739059
 20
-12.5373006973
 10
9.7539787557
 20
-12.4050857946
 10
9.8428487223
 20
-12.2621156718
 10
9.9255469233
 20
-12.1083903291
 10
10.0036949099
 20
-11.941635049
 10
10.0750965148
 20
-11.7641245489
 10
10.1343028449
 20
-11.5826829812
 10
10.1810817319
 20
-11.397605665
 10
10.2171830029
 20
-11.2085972812
 10
10.2409482827
 20
-11.0215960239
 10
10.2522652925
 20
-10.8399252582
 10
10.2522720342
 20
-10.660261619
 10
10.2409638398
 20
-10.4785732058
 10
10.2171976178
 20
-10.291525594
 10
10.1810903504
 20
-10.1024532082
 10
10.1343058777
 20
-9.9173274214
 10
10.0750962769
 20
-9.7358681258
 10
10.0036919817
 20
-9.5583554293
 10
9.925542512
 20
-9.3916010291
 10
9.842844347
 20
-9.2378754907
 10
9.7539758435
 20
-9.0949082486
 10
9.6594739059
 20
-8.9626993027
  0
LINE
  5
61E
100
AcDbEntity
  8
0
100
AcDbLine
 62
7
  6
CONTINUOUS
 10
5.4228914649
 20
-16.312531877
 11
5.4731563952
 21
-16.25
  0
LWPOLYLINE
  5
61F
100
AcDbEntity
  8
RACCORDO
100
AcDbPolyline
 62
250
  6
CONTINUOUS
 90
6
 70
0
 10
0.5517228461
 20
-17.6956231703
 10
0.5485055148
 20
-17.6988981455
 10
0.54539071
 20
-17.7021002426
 10
0.542294793
 20
-17.7052333618
 10
0.5391675535
 20
-17.7082974707
 10
0.5330367304
 20
-17.7142227528
  0
LWPOLYLINE
  5
620
100
AcDbEntity
  8
RACCORDO
100
AcDbPolyline
 62
250
  6
CONTINUOUS
 90
5
 70
0
 10
0.5272879714
 20
-17.7198880179
 10
0.5245515903
 20
-17.7226273246
 10
0.5219133268
 20
-17.7253071767
 10
0.5193701216
 20
-17.7279261929
 10
0.5169219748
 20
-17.7304843732
  0
LINE
  5
621
100
AcDbEntity
  8
RACCORDO
100
AcDbLine
 62
250
  6
CONTINUOUS
 10
0.6397166933
 20
-17.6076896529
 11
0.5517228461
 21
-17.6956231703
  0
LINE
  5
622
100
AcDbEntity
  8
RACCORDO
100
AcDbLine
 62
250
  6
CONTINUOUS
 10
0.5330367304
 20
-17.7142227528
 11
0.5272879714
 21
-17.7198880179
  0
LWPOLYLINE
  5
623
100
AcDbEntity
  8
0
100
AcDbPolyline
 62
7
  6
CONTINUOUS
 90
4
 70
0
 10
4.8075282753
 20
-16.25
 10
4.8056473886
 20
-16.2517547463
 10
4.7659269912
 20
-16.2862977316
 10
4.7418348059
 20
-16.3061066621
  0
LINE
  5
624
100
AcDbEntity
  8
0
100
AcDbLine
 62
7
  6
CONTINUOUS
 10
4.807350531
 20
-16.25
 11
4.7418348059
 21
-16.3061066621
  0
LINE
  5
625
100
AcDbEntity
  8
0
100
AcDbLine
 62
7
  6
CONTINUOUS
 10
4.7418348059
 20
-16.3061066621
 11
4.7417244673
 21
-16.3061954867
  0
LINE
  5
626
100
AcDbEntity
  8
0
100
AcDbLine
 62
7
  6
CONTINUOUS
 10
4.7521561457
 20
-16.2976203127
 11
4.7315385378
 21
-16.3127131116
  0
LWPOLYLINE
  5
627
100
AcDbEntity
  8
0
100
AcDbPolyline
 62
7
  6
CONTINUOUS
 90
8
 70
0
 10
8.1610832831
 20
-11.9827433043
 10
8.1585366535
 20
-11.9846055877
 10
8.154011223
 20
-11.9877883442
 10
8.1495859481
 20
-11.990830897
 10
8.145246718
 20
-11.9937239264
 10
8.141000896
 20
-11.9964555272
 10
8.1369981629
 20
-11.9989928388
 10
8.1332325183
 20
-12.0013260218
  0
LWPOLYLINE
  5
628
100
AcDbEntity
  8
RACCORDO
100
AcDbPolyline
 62
250
  6
CONTINUOUS
 90
12
 70
0
 10
0.5169219748
 20
-17.7304843732
 10
0.5156397001
 20
-17.7313165717
 10
0.5132442873
 20
-17.7321326746
 10
0.5097357363
 20
-17.7329326819
 10
0.505076106
 20
-17.7337151005
 10
0.4993033374
 20
-17.7344814234
 10
0.4925312545
 20
-17.7352361298
 10
0.4847881289
 20
-17.7359792567
 10
0.4760456889
 20
-17.7367107671
 10
0.4663329432
 20
-17.737435029
 10
0.4556571538
 20
-17.7381525571
 10
0.4440110586
 20
-17.7388628367
  0
LWPOLYLINE
  5
629
100
AcDbEntity
  8
0
100
AcDbPolyline
 62
7
  6
CONTINUOUS
 90
3
 70
0
 10
8.1332325183
 20
-12.0013260218
 10
8.1265620057
 20
-12.0053180036
 10
8.1238195193
 20
-12.0069334791
  0
LWPOLYLINE
  5
62A
100
AcDbEntity
  8
0
100
AcDbPolyline
 62
7
  6
CONTINUOUS
 90
5
 70
0
 10
8.1238195193
 20
-12.0069334791
 10
8.1196044117
 20
-12.0093472318
 10
8.1182917777
 20
-12.010106276
 10
8.1174790325
 20
-12.0105670836
 10
8.1171651759
 20
-12.0107280415
  0
LINE
  5
62B
100
AcDbEntity
  8
DRAFT
100
AcDbLine
 62
7
  6
CONTINUOUS
 10
-6.9176282065
 20
-21.2139629885
 11
-6.8532553098
 21
-21.1802222394
  0
LINE
  5
62C
100
AcDbEntity
  8
DRAFT
100
AcDbLine
 62
7
  6
CONTINUOUS
 10
-7.2352506643
 20
-20.833660631
 11
-7.3830351795
 21
-20.9
  0
LINE
  5
62D
100
AcDbEntity
  8
RACCORDO
100
AcDbLine
 62
250
  6
CONTINUOUS
 10
-10.8397900577
 20
-17.1575153665
 11
-10.8696946922
 21
-17.1673849704
  0
LINE
  5
62E
100
AcDbEntity
  8
0
100
AcDbLine
 62
250
  6
CONTINUOUS
 10
-7.9493456969
 20
11.9969580155
 11
-6.75
 21
12.3313868826
  0
LINE
  5
62F
100
AcDbEntity
  8
0
100
AcDbLine
 62
7
  6
CONTINUOUS
 10
-7.9627755018
 20
12.0451206601
 11
-6.6785859073
 21
12.403207634
  0
LINE
  5
630
100
AcDbEntity
  8
DRAFT
100
AcDbLine
 62
7
  6
CONTINUOUS
 10
-2.75
 20
12.85
 11
-7.25
 21
12.85
  0
LINE
  5
631
100
AcDbEntity
  8
RACCORDO
100
AcDbLine
 62
250
  6
CONTINUOUS
 10
-7.25
 20
12.8623099353
 11
-2.75
 21
12.8623099353
  0
LINE
  5
632
100
AcDbEntity
  8
RACCORDO
100
AcDbLine
 62
250
  6
CONTINUOUS
 10
-7.25
 20
13.1622642439
 11
-2.75
 21
13.1622642439
  0
LINE
  5
633
100
AcDbEntity
  8
RACCORDO
100
AcDbLine
 62
250
  6
CONTINUOUS
 10
-2.75
 20
13.4377357561
 11
-7.25
 21
13.4377357561
  0
LINE
  5
634
100
AcDbEntity
  8
RACCORDO
100
AcDbLine
 62
250
  6
CONTINUOUS
 10
-2.75
 20
13.7376900647
 11
-7.25
 21
13.7376900647
  0
LINE
  5
635
100
AcDbEntity
  8
DRAFT
100
AcDbLine
 62
7
  6
CONTINUOUS
 10
-7.25
 20
13.75
 11
-2.75
 21
13.75
  0
LINE
  5
636
100
AcDbEntity
  8
RACCORDO
100
AcDbLine
 62
250
  6
CONTINUOUS
 10
-9.6594739059
 20
15.159854668
 11
-10.659321601
 21
15.159854668
  0
LINE
  5
637
100
AcDbEntity
  8
RACCORDO
100
AcDbLine
 62
250
  6
CONTINUOUS
 10
10.8164171854
 20
15.3169502523
 11
9.8165694902
 21
15.3169502523
  0
LINE
  5
638
100
AcDbEntity
  8
RACCORDO
100
AcDbLine
 62
250
  6
CONTINUOUS
 10
-1.8
 20
15.95
 11
-8.2
 21
15.95
  0
LINE
  5
639
100
AcDbEntity
  8
RACCORDO
100
AcDbLine
 62
250
  6
CONTINUOUS
 10
-0.1397928475
 20
16.1079181127
 11
0.8600548477
 21
16.1079181091
  0
LINE
  5
63A
100
AcDbEntity
  8
RACCORDO
100
AcDbLine
 62
7
  6
CONTINUOUS
 10
-2.2582575695
 20
16.25
 11
-7.7417424305
 21
16.25
  0
LINE
  5
63B
100
AcDbEntity
  8
RACCORDO
100
AcDbLine
 62
250
  6
CONTINUOUS
 10
-7.7
 20
16.5921757741
 11
-8.2
 21
16.5921757741
  0
LINE
  5
63C
100
AcDbEntity
  8
RACCORDO
100
AcDbLine
 62
250
  6
CONTINUOUS
 10
-1.8
 20
16.5991144253
 11
-2.3
 21
16.5991144253
  0
LINE
  5
63D
100
AcDbEntity
  8
RACCORDO
100
AcDbLine
 62
250
  6
CONTINUOUS
 10
-0.6397166926
 20
16.6078419577
 11
-1.7999238476
 21
16.6078419577
  0
LINE
  5
63E
100
AcDbEntity
  8
RACCORDO
100
AcDbLine
 62
250
  6
CONTINUOUS
 10
-8.200245396
 20
16.6078419577
 11
-8.5911231504
 21
16.6078419577
  0
LINE
  5
63F
100
AcDbEntity
  8
RACCORDO
100
AcDbLine
 62
250
  6
CONTINUOUS
 10
-5.0467614437
 20
16.7596896741
 11
-4.7041729319
 21
16.7593111399
  0
LINE
  5
640
100
AcDbEntity
  8
RACCORDO
100
AcDbLine
 62
250
  6
CONTINUOUS
 10
-4.7041729319
 20
16.7593111399
 11
-4.3663561309
 21
16.7578973081
  0
LINE
  5
641
100
AcDbEntity
  8
RACCORDO
100
AcDbLine
 62
250
  6
CONTINUOUS
 10
-4.3663561309
 20
16.7578973081
 11
-4.0387594039
 21
16.7554661299
  0
LINE
  5
642
100
AcDbEntity
  8
RACCORDO
100
AcDbLine
 62
250
  6
CONTINUOUS
 10
-4.0387594039
 20
16.7554661299
 11
-3.7266657007
 21
16.752069198
  0
LINE
  5
643
100
AcDbEntity
  8
RACCORDO
100
AcDbLine
 62
250
  6
CONTINUOUS
 10
-3.7266657007
 20
16.752069198
 11
-3.4351122907
 21
16.7477473569
  0
LINE
  5
644
100
AcDbEntity
  8
RACCORDO
100
AcDbLine
 62
250
  6
CONTINUOUS
 10
-1.7999238476
 20
16.6078419577
 11
-2.2998478309
 21
16.6165668343
  0
LINE
  5
645
100
AcDbEntity
  8
RACCORDO
100
AcDbLine
 62
250
  6
CONTINUOUS
 10
-3.4351122907
 20
16.7477473569
 11
-3.1688144264
 21
16.742572654
  0
LINE
  5
646
100
AcDbEntity
  8
RACCORDO
100
AcDbLine
 62
250
  6
CONTINUOUS
 10
-3.1688144264
 20
16.742572654
 11
-2.9320301291
 21
16.7366441699
  0
LWPOLYLINE
  5
647
100
AcDbEntity
  8
RACCORDO
100
AcDbPolyline
 62
250
  6
CONTINUOUS
 90
11
 70
0
 10
-2.9320301291
 20
16.7366441699
 10
-2.7286150634
 20
16.7300339623
 10
-2.6405385275
 20
16.7265189883
 10
-2.5619937387
 20
16.7228641046
 10
-2.4932207172
 20
16.7191091749
 10
-2.4344411833
 20
16.7152469434
 10
-2.3860354394
 20
16.7112846659
 10
-2.3483428046
 20
16.7072839737
 10
-2.3214568248
 20
16.7032654104
 10
-2.3053496349
 20
16.6992084323
 10
-2.3000000059
 20
16.6951130395
  0
LWPOLYLINE
  5
648
100
AcDbEntity
  8
RACCORDO
100
AcDbPolyline
 62
250
  6
CONTINUOUS
 90
10
 70
0
 10
-8.4821502946
 20
17.5751256266
 10
-8.493848258
 20
17.5770677375
 10
-8.5056893303
 20
17.5782885171
 10
-8.5176560745
 20
17.5787861676
 10
-8.5297308685
 20
17.578559956
 10
-8.5418959314
 20
17.5776102155
 10
-8.5541333494
 20
17.5759383446
 10
-8.5664251024
 20
17.5735468051
 10
-8.5787530902
 20
17.5704391187
 10
-8.5910991596
 20
17.5666198618
  0
LWPOLYLINE
  5
649
100
AcDbEntity
  8
RACCORDO
100
AcDbPolyline
 62
250
  6
CONTINUOUS
 90
59
 70
0
 10
-8.4821503031
 20
17.5751255878
 10
-8.4735160839
 20
17.5730899932
 10
-8.4646722327
 20
17.5709205782
 10
-8.455620954
 20
17.56861131
 10
-8.4463667736
 20
17.5661565956
 10
-8.436910028
 20
17.5635496349
 10
-8.427246928
 20
17.5607822125
 10
-8.4173787374
 20
17.5578471021
 10
-8.4073102169
 20
17.5547379678
 10
-8.3970431689
 20
17.5514475163
 10
-8.3865803832
 20
17.547968404
 10
-8.3759263212
 20
17.5442936767
 10
-8.3650856194
 20
17.5404164482
 10
-8.3540634679
 20
17.5363297412
 10
-8.3428632463
 20
17.532025766
 10
-8.3314872542
 20
17.527496233
 10
-8.3199458867
 20
17.5227357571
 10
-8.3082388339
 20
17.5177344649
 10
-8.2963530637
 20
17.5124764457
 10
-8.284309105
 20
17.5069598628
 10
-8.2720987304
 20
17.5011697725
 10
-8.2596677113
 20
17.4950673239
 10
-8.2470274749
 20
17.4886428462
 10
-8.2341837024
 20
17.481883521
 10
-8.2210769834
 20
17.4747401335
 10
-8.207718998
 20
17.4671981401
 10
-8.1941218731
 20
17.4592427984
 10
-8.180231346
 20
17.4508181726
 10
-8.1660638229
 20
17.4419063824
 10
-8.1516355314
 20
17.4324887806
 10
-8.1368975642
 20
17.4225013647
 10
-8.1218721268
 20
17.411922487
 10
-8.1065813684
 20
17.4007295423
 10
-8.0909834322
 20
17.3888496306
 10
-8.0751061294
 20
17.3762556408
 10
-8.0589815132
 20
17.3629225069
 10
-8.0425828553
 20
17.3487728257
 10
-8.0259411434
 20
17.3337701548
 10
-8.0091049901
 20
17.3178919381
 10
-7.9920832908
 20
17.3010758479
 10
-7.9749368146
 20
17.283304114
 10
-7.9577045753
 20
17.2645351496
 10
-7.9403752989
 20
17.2446645423
 10
-7.9230224796
 20
17.2236714078
 10
-7.9057041264
 20
17.2015142517
 10
-7.8884068015
 20
17.17804746
 10
-7.8712240009
 20
17.1532474195
 10
-7.8542397336
 20
17.1270737385
 10
-7.8374579272
 20
17.0993432019
 10
-7.8209961786
 20
17.0700228599
 10
-7.8049792486
 20
17.0390864011
 10
-7.7894630748
 20
17.0063502776
 10
-7.7746037039
 20
16.9717904395
 10
-7.7605666302
 20
16.93539498
 10
-7.7474705522
 20
16.896995421
 10
-7.7355199229
 20
16.8566012791
 10
-7.7249226564
 20
16.8142193219
 10
-7.7158617467
 20
16.7696838992
 10
-7.7081182472
 20
16.7193879604
  0
LINE
  5
64A
100
AcDbEntity
  8
RACCORDO
100
AcDbLine
 62
250
  6
CONTINUOUS
 10
-10.8696946922
 20
17.1673849704
 11
-10.8397900577
 21
17.1575153665
  0
LINE
  5
64B
100
AcDbEntity
  8
DRAFT
100
AcDbLine
 62
7
  6
CONTINUOUS
 10
-7.3830351795
 20
20.9
 11
-7.2352506643
 21
20.833660631
  0
LINE
  5
64C
100
AcDbEntity
  8
DRAFT
100
AcDbLine
 62
7
  6
CONTINUOUS
 10
-6.9176282065
 20
21.2139629885
 11
-6.8532553098
 21
21.1802222394
  0
LWPOLYLINE
  5
64D
100
AcDbEntity
  8
RACCORDO
100
AcDbPolyline
 62
250
  6
CONTINUOUS
 90
10
 70
0
 10
7.5077381197
 20
18.9877284951
 10
7.516812584
 20
18.973352196
 10
7.525887007
 20
18.9588248405
 10
7.5349603648
 20
18.9441464721
 10
7.544030399
 20
18.9293171816
 10
7.553097322
 20
18.9143370025
 10
7.5621638141
 20
18.8992058301
 10
7.5712300838
 20
18.8839235971
 10
7.580293871
 20
18.8684903556
 10
7.5893541497
 20
18.8529061162
  0
LWPOLYLINE
  5
64E
100
AcDbEntity
  8
RACCORDO
100
AcDbPolyline
 62
250
  6
CONTINUOUS
 90
28
 70
0
 10
9.517841571
 20
16.5020295551
 10
9.539177899
 20
16.4615137485
 10
9.5597557018
 20
16.4206424697
 10
9.5795749794
 20
16.3794157187
 10
9.5986415606
 20
16.3378202102
 10
9.6169496166
 20
16.2958692295
 10
9.6344816605
 20
16.2536026322
 10
9.6512380775
 20
16.2110166148
 10
9.6672184824
 20
16.1681149808
 10
9.6824042325
 20
16.1249489963
 10
9.6967932263
 20
16.0815213611
 10
9.7103875653
 20
16.0378293755
 10
9.7231749118
 20
15.9939162063
 10
9.735154433
 20
15.9497822155
 10
9.7463269618
 20
15.9054270413
 10
9.7566826584
 20
15.8608927648
 10
9.7662210487
 20
15.8161778469
 10
9.7749426069
 20
15.7712838268
 10
9.7828389157
 20
15.7262574037
 10
9.7899090399
 20
15.6810981167
 10
9.7961539148
 20
15.6358064268
 10
9.8015679278
 20
15.5904304163
 10
9.8061500673
 20
15.5449694287
 10
9.8099013451
 20
15.4994241205
 10
9.812819184
 20
15.4538445436
 10
9.8149027249
 20
15.4082473819
 10
9.816152827
 20
15.3626159515
 10
9.8165694902
 20
15.3169502523
  0
LINE
  5
64F
100
AcDbEntity
  8
RACCORDO
100
AcDbLine
 62
250
  6
CONTINUOUS
 10
7.2035355246
 20
18.6929124475
 11
7.2182698897
 21
18.6629964856
  0
LINE
  5
650
100
AcDbEntity
  8
RACCORDO
100
AcDbLine
 62
250
  6
CONTINUOUS
 10
7.2182698897
 20
18.6629964856
 11
7.2329971892
 21
18.6324851865
  0
LINE
  5
651
100
AcDbEntity
  8
RACCORDO
100
AcDbLine
 62
250
  6
CONTINUOUS
 10
7.2329971892
 20
18.6324851865
 11
7.2477174231
 21
18.6013767302
  0
LWPOLYLINE
  5
652
100
AcDbEntity
  8
RACCORDO
100
AcDbPolyline
 62
250
  6
CONTINUOUS
 90
3
 70
0
 10
7.2477174231
 20
18.6013767302
 10
7.2624305916
 20
18.5696638362
 10
7.2697845263
 20
18.5535811801
  0
LINE
  5
653
100
AcDbEntity
  8
RACCORDO
100
AcDbLine
 62
250
  6
CONTINUOUS
 10
10.0017445951
 20
18.2308351883
 11
10.0317940571
 21
18.150052343
  0
LWPOLYLINE
  5
654
100
AcDbEntity
  8
RACCORDO
100
AcDbPolyline
 62
7
  6
CONTINUOUS
 90
10
 70
0
 10
10.8397900577
 20
-17.1575153665
 10
10.8827057516
 20
-17.0979107429
 10
10.9208715303
 20
-17.0357660586
 10
10.9542873938
 20
-16.9710813134
 10
10.9831397996
 20
-16.9033172947
 10
11.0072422902
 20
-16.8330132153
 10
11.0260354928
 20
-16.7617867126
 10
11.0393329498
 20
-16.6901769994
 10
11.0473211189
 20
-16.617644863
 10
11.05
 20
-16.5441903035
  0
LWPOLYLINE
  5
655
100
AcDbEntity
  8
RACCORDO
100
AcDbPolyline
 62
7
  6
CONTINUOUS
 90
14
 70
0
 10
10.001744595
 20
-18.2308351884
 10
9.9820927558
 20
-18.250514782
 10
9.9608739219
 20
-18.2669614162
 10
9.9380880934
 20
-18.2801750908
 10
9.9132797744
 20
-18.2902744312
 10
9.8869044608
 20
-18.2971408122
 10
9.8603286402
 20
-18.3004183577
 10
9.833526166
 20
-18.2999191158
 10
9.806523185
 20
-18.2958310384
 10
9.7807646242
 20
-18.288362105
 10
9.7563208271
 20
-18.2773254792
 10
9.7331214504
 20
-18.2629079975
 10
9.7124003905
 20
-18.245878149
 10
9.6947885528
 20
-18.2266516427
  0
LINE
  5
656
100
AcDbEntity
  8
DRAFT
100
AcDbLine
 62
7
  6
CONTINUOUS
 10
7.6999751959
 20
-16.2894765244
 11
7.7302935336
 21
-16.2591581867
  0
LWPOLYLINE
  5
657
100
AcDbEntity
  8
RACCORDO
100
AcDbPolyline
 62
7
  6
CONTINUOUS
 90
3
 70
0
 10
8.1613910389
 20
-16.0174337902
 10
8.2041503155
 20
-15.9845735834
 10
8.2481976273
 20
-15.95
  0
LWPOLYLINE
  5
658
100
AcDbEntity
  8
RACCORDO
100
AcDbPolyline
 62
250
  6
CONTINUOUS
 90
10
 70
0
 10
7.6999767497
 20
-16.6956766301
 10
7.6928266055
 20
-16.6998769905
 10
7.6743703133
 20
-16.7040319154
 10
7.6446056071
 20
-16.7081414047
 10
7.603528679
 20
-16.7122267981
 10
7.5512615716
 20
-16.716266756
 10
7.4881705103
 20
-16.7201972595
 10
7.4146658537
 20
-16.7240111609
 10
7.3310035111
 20
-16.727715608
 10
7.2374558033
 20
-16.7312680257
  0
LINE
  5
659
100
AcDbEntity
  8
RACCORDO
100
AcDbLine
 62
7
  6
CONTINUOUS
 10
6.8830351795
 20
-19.0301850577
 11
6.7171511361
 21
-19.1131207627
  0
LINE
  5
65A
100
AcDbEntity
  8
DRAFT
100
AcDbLine
 62
7
  6
CONTINUOUS
 10
7.2084845302
 20
-19.1872686779
 11
7.3830351795
 21
-19.1
  0
LWPOLYLINE
  5
65B
100
AcDbEntity
  8
RACCORDO
100
AcDbPolyline
 62
250
  6
CONTINUOUS
 90
10
 70
0
 10
8.699937119
 20
-17.6955285698
 10
8.6900676881
 20
-17.6997234815
 10
8.6648073164
 20
-17.7038743959
 10
8.6241560036
 20
-17.7079813131
 10
8.5677687491
 20
-17.7120660523
 10
8.4959905537
 20
-17.7161067944
 10
8.4098564198
 20
-17.7200380816
 10
8.3092554252
 20
-17.7238522705
 10
8.1942984921
 20
-17.7275570046
 10
8.0663533899
 20
-17.7311097571
  0
LWPOLYLINE
  5
65C
100
AcDbEntity
  8
RACCORDO
100
AcDbPolyline
 62
7
  6
CONTINUOUS
 90
19
 70
0
 10
-9.1320994718
 20
17.7693765976
 10
-9.2365238863
 20
17.7480565284
 10
-9.3422067014
 20
17.7205541104
 10
-9.4487266624
 20
17.6865432857
 10
-9.5558442227
 20
17.6456305823
 10
-9.6628159887
 20
17.5976011086
 10
-9.7684527499
 20
17.5425512409
 10
-9.8722477517
 20
17.4803717264
 10
-9.9736269617
 20
17.4110119834
 10
-10.0713980459
 20
17.3349466089
 10
-10.1650299156
 20
17.2523468434
 10
-10.2540653679
 20
17.1633570933
 10
-10.3375899436
 20
17.0686715141
 10
-10.4151845235
 20
16.9686532532
 10
-10.486505676
 20
16.8636231606
 10
-10.5509452237
 20
16.7543920539
 10
-10.6081822818
 20
16.6415583033
 10
-10.6580952998
 20
16.525446626
 10
-10.7004988902
 20
16.4065314852
  0
LINE
  5
65D
100
AcDbEntity
  8
RACCORDO
100
AcDbLine
 62
250
  6
CONTINUOUS
 10
-7.6885688683
 20
16.701053923
 11
-7.667478658
 21
16.7051380423
  0
LWPOLYLINE
  5
65E
100
AcDbEntity
  8
RACCORDO
100
AcDbPolyline
 62
7
  6
CONTINUOUS
 90
7
 70
0
 10
-9.1320976067
 20
17.7693776289
 10
-9.0748777637
 20
17.7786806918
 10
-9.0173015839
 20
17.786304021
 10
-8.9593690674
 20
17.7922476164
 10
-8.9010802142
 20
17.7965114781
 10
-8.8424350242
 20
17.7990956059
 10
-8.7834334975
 20
17.8
  0
LWPOLYLINE
  5
65F
100
AcDbEntity
  8
RACCORDO
100
AcDbPolyline
 62
250
  6
CONTINUOUS
 90
19
 70
0
 10
-8.8088455072
 20
17.595770226
 10
-8.936156274
 20
17.5776496598
 10
-9.0620568187
 20
17.5513807271
 10
-9.1860258633
 20
17.517068714
 10
-9.3075568742
 20
17.4748495759
 10
-9.4261384418
 20
17.424896526
 10
-9.5412582708
 20
17.367423855
 10
-9.6524324542
 20
17.3026751837
 10
-9.7592098772
 20
17.2309154037
 10
-9.8611530833
 20
17.1524389366
 10
-9.957841035
 20
17.067569664
 10
-10.0488727201
 20
16.976659401
 10
-10.1338724663
 20
16.8800829967
 10
-10.2124883079
 20
16.7782396856
 10
-10.2843945287
 20
16.6715507817
 10
-10.3492938743
 20
16.5604565324
 10
-10.4069173873
 20
16.4454160014
 10
-10.4570257462
 20
16.3269053183
 10
-10.4994109391
 20
16.2054147018
  0
LWPOLYLINE
  5
660
100
AcDbEntity
  8
RACCORDO
100
AcDbPolyline
 62
250
  6
CONTINUOUS
 90
9
 70
0
 10
-8.6843351158
 20
17.7009016182
 10
-8.6550909817
 20
17.7049881518
 10
-8.6114944843
 20
17.709006092
 10
-8.5535456233
 20
17.7129554387
 10
-8.4808701028
 20
17.7168532522
 10
-8.3938422187
 20
17.7206824722
 10
-8.2935848594
 20
17.7243919183
 10
-8.1799784969
 20
17.7279778856
 10
-8.0531426591
 20
17.7314440789
  0
LWPOLYLINE
  5
661
100
AcDbEntity
  8
RACCORDO
100
AcDbPolyline
 62
250
  6
CONTINUOUS
 90
8
 70
0
 10
-7.667478658
 20
16.7051380423
 10
-7.6356554877
 20
16.7091543781
 10
-7.5931897212
 20
16.7131029303
 10
-7.5401858707
 20
16.7170010549
 10
-7.4768405662
 20
16.7208313959
 10
-7.4034936269
 20
16.724541886
 10
-7.3205100488
 20
16.7281285092
 10
-7.2281899151
 20
16.7315952815
  0
LWPOLYLINE
  5
662
100
AcDbEntity
  8
RACCORDO
100
AcDbPolyline
 62
250
  6
CONTINUOUS
 90
19
 70
0
 10
-1.3
 20
17.6076896529
 10
-1.345916902
 20
17.6019910599
 10
-1.3907299813
 20
17.5881106818
 10
-1.434439238
 20
17.5661686804
 10
-1.4774874533
 20
17.5362435468
 10
-1.519431846
 20
17.4986459243
 10
-1.5589440719
 20
17.454156461
 10
-1.5957764597
 20
17.4034991214
 10
-1.6301766808
 20
17.3471540982
 10
-1.6615594053
 20
17.2858183795
 10
-1.6898077932
 20
17.2202122185
 10
-1.7150386845
 20
17.1509260806
 10
-1.7370172689
 20
17.0784656828
 10
-1.7556725677
 20
17.0034935071
 10
-1.7710755596
 20
16.926580347
 10
-1.783204371
 20
16.848031284
 10
-1.7920517105
 20
16.7683106702
 10
-1.7976248693
 20
16.6880675239
 10
-1.7999238476
 20
16.6078419577
  0
LWPOLYLINE
  5
663
100
AcDbEntity
  8
RACCORDO
100
AcDbPolyline
 62
7
  6
CONTINUOUS
 90
13
 70
0
 10
-7.7417424305
 20
16.25
 10
-7.7565745147
 20
16.2482138164
 10
-7.7737908152
 20
16.243502047
 10
-7.7934070938
 20
16.2358646918
 10
-7.8154182527
 20
16.22518651
 10
-7.8398064003
 20
16.2115827424
 10
-7.8665423079
 20
16.1953991117
 10
-7.8955438884
 20
16.1766128059
 10
-7.9267465676
 20
16.1552466371
 10
-7.9601280879
 20
16.1317147643
 10
-7.9955067451
 20
16.106002354
 10
-8.0327851239
 20
16.0781242397
 10
-8.1132383042
 20
16.017399765
  0
LWPOLYLINE
  5
664
100
AcDbEntity
  8
RACCORDO
100
AcDbPolyline
 62
250
  6
CONTINUOUS
 90
10
 70
0
 10
-8.8088455087
 20
17.5957702398
 10
-8.772516735
 20
17.5987927915
 10
-8.7360889708
 20
17.6004879337
 10
-8.6996106834
 20
17.6008527576
 10
-8.6631397618
 20
17.5998859006
 10
-8.6267154005
 20
17.5975888987
 10
-8.5903582228
 20
17.5939627844
 10
-8.554107754
 20
17.5890078878
 10
-8.5180221686
 20
17.5827272479
 10
-8.4821503031
 20
17.5751255878
  0
LWPOLYLINE
  5
665
100
AcDbEntity
  8
RACCORDO
100
AcDbPolyline
 62
250
  6
CONTINUOUS
 90
10
 70
0
 10
-8.8088427724
 20
17.5957452284
 10
-8.7845827694
 20
17.5972427445
 10
-8.76025945
 20
17.597568974
 10
-8.7359081492
 20
17.5967134299
 10
-8.711568847
 20
17.5946627408
 10
-8.6872735454
 20
17.5914122386
 10
-8.6630462119
 20
17.586974411
 10
-8.6389191125
 20
17.5813595779
 10
-8.6149327343
 20
17.5745674819
 10
-8.5911231652
 20
17.5666047239
  0
LWPOLYLINE
  5
666
100
AcDbEntity
  8
RACCORDO
100
AcDbPolyline
 62
250
  6
CONTINUOUS
 90
18
 70
0
 10
-1.3
 20
17.6076896529
 10
-1.3906498595
 20
17.6027717457
 10
-1.480531837
 20
17.5896778536
 10
-1.5689069712
 20
17.5685151685
 10
-1.6553205249
 20
17.5393465854
 10
-1.7387741816
 20
17.5024729244
 10
-1.8178363692
 20
17.4586723494
 10
-1.8917773295
 20
17.4086591274
 10
-1.9603709358
 20
17.3529056169
 10
-2.0231552297
 20
17.2921133733
 10
-2.0797789322
 20
17.2269999086
 10
-2.1300860222
 20
17.158150595
 10
-2.1739966271
 20
17.0860744835
 10
-2.2113613529
 20
17.011434793
 10
-2.2421365535
 20
16.9347988281
 10
-2.2663851551
 20
16.8564677712
 10
-2.2840888797
 20
16.7769035654
 10
-2.2952243081
 20
16.6967562441
  0
LINE
  5
667
100
AcDbEntity
  8
RACCORDO
100
AcDbLine
 62
250
  6
CONTINUOUS
 10
-0.4438458964
 20
17.73886936
 11
-0.4176274689
 21
17.7402785428
  0
LINE
  5
668
100
AcDbEntity
  8
RACCORDO
100
AcDbLine
 62
250
  6
CONTINUOUS
 10
-0.4176274689
 20
17.7402785428
 11
-0.3875069647
 21
17.7416721081
  0
LWPOLYLINE
  5
669
100
AcDbEntity
  8
RACCORDO
100
AcDbPolyline
 62
250
  6
CONTINUOUS
 90
19
 70
0
 10
-1.3
 20
17.6949649775
 10
-1.3871557428
 20
17.6911602552
 10
-1.4736481777
 20
17.6797750444
 10
-1.5588190451
 20
17.6608959935
 10
-1.6420201433
 20
17.6346667834
 10
-1.7226182617
 20
17.6012870344
 10
-1.8
 20
17.5610107863
 10
-1.8735764363
 20
17.5141445659
 10
-1.9427876097
 20
17.4610450532
 10
-2.0071067812
 20
17.4021163678
 10
-2.0660444431
 20
17.3378069924
 10
-2.1191520443
 20
17.2686063603
 10
-2.1660254038
 20
17.19504113
 10
-2.206307787
 20
17.1176711773
 10
-2.2396926208
 20
17.0370853344
 10
-2.2659258263
 20
16.9538969081
 10
-2.284807753
 20
16.8687390126
 10
-2.2961946981
 20
16.7822597509
 10
-2.3
 20
16.6951172824
  0
LINE
  5
66A
100
AcDbEntity
  8
RACCORDO
100
AcDbLine
 62
250
  6
CONTINUOUS
 10
-0.3875069647
 20
17.7416721081
 11
-0.3532768118
 21
17.7430556813
  0
LWPOLYLINE
  5
66B
100
AcDbEntity
  8
RACCORDO
100
AcDbPolyline
 62
250
  6
CONTINUOUS
 90
19
 70
0
 10
-8.5911231504
 20
16.6078419577
 10
-8.6619051925
 20
16.6052895589
 10
-8.7316954944
 20
16.5979028054
 10
-8.8004940561
 20
16.5856816971
 10
-8.8686452433
 20
16.568518399
 10
-8.9358046903
 20
16.5465207461
 10
-9.0009393001
 20
16.5200122439
 10
-9.0640070216
 20
16.4889243749
 10
-9.1250499059
 20
16.4533256566
 10
-9.1831610096
 20
16.4137451464
 10
-9.2382937567
 20
16.3701244361
 10
-9.2904947232
 20
16.322521934
 10
-9.3389966933
 20
16.2716419223
 10
-9.3837473732
 20
16.2174298553
 10
-9.4247990567
 20
16.1599402787
 10
-9.4615414084
 20
16.1000411122
 10
-9.4937709835
 20
16.0380216622
 10
-9.521691227
 20
15.9735926222
 10
-9.5453021388
 20
15.9067539923
  0
LINE
  5
66C
100
AcDbEntity
  8
RACCORDO
100
AcDbLine
 62
250
  6
CONTINUOUS
 10
-0.3532768118
 20
17.7430556813
 11
-0.2937883411
 21
17.7451173374
  0
LINE
  5
66D
100
AcDbEntity
  8
RACCORDO
100
AcDbLine
 62
250
  6
CONTINUOUS
 10
-7.7004907093
 20
16.6235021758
 11
-8.200245396
 21
16.6078419577
  0
LWPOLYLINE
  5
66E
100
AcDbEntity
  8
RACCORDO
100
AcDbPolyline
 62
250
  6
CONTINUOUS
 90
22
 70
0
 10
-7.3609117354
 20
18.8603786685
 10
-7.5705145579
 20
18.8540884431
 10
-7.7796799359
 20
18.8352195913
 10
-7.9876499
 20
18.8037828023
 10
-8.1937155178
 20
18.7598224888
 10
-8.3970665625
 20
18.703447591
 10
-8.5968026761
 20
18.6348617829
 10
-8.7921894232
 20
18.5542855224
 10
-8.9825007347
 20
18.4619858882
 10
-9.1668886811
 20
18.3583569845
 10
-9.3446391032
 20
18.243804875
 10
-9.5151467358
 20
18.1187246546
 10
-9.6777774506
 20
17.9835825716
 10
-9.8319275242
 20
17.8388852504
 10
-9.9770490608
 20
17.6851523663
 10
-10.1126353103
 20
17.5229197201
 10
-10.2382090357
 20
17.3527471546
 10
-10.3532847354
 20
17.1752807328
 10
-10.4574045016
 20
16.9912323096
 10
-10.5501864775
 20
16.8013009659
 10
-10.6313135944
 20
16.6061623654
 10
-10.7004988902
 20
16.4065314852
  0
LINE
  5
66F
100
AcDbEntity
  8
RACCORDO
100
AcDbLine
 62
250
  6
CONTINUOUS
 10
-7.2281899151
 20
16.7315952815
 11
-7.0169243945
 21
16.7380480167
  0
LINE
  5
670
100
AcDbEntity
  8
RACCORDO
100
AcDbLine
 62
250
  6
CONTINUOUS
 10
-0.2937883411
 20
17.7451173374
 11
-0.2243453204
 21
17.7471510694
  0
LWPOLYLINE
  5
671
100
AcDbEntity
  8
RACCORDO
100
AcDbPolyline
 62
250
  6
CONTINUOUS
 90
13
 70
0
 10
-7.3609117354
 20
18.3504563439
 10
-7.5186280818
 20
18.3462826487
 10
-7.6752167901
 20
18.3339050201
 10
-7.8306778604
 20
18.3133234582
 10
-7.9854402343
 20
18.2844652739
 10
-8.1390749701
 20
18.2474031562
 10
-8.290295243
 20
18.202355172
 10
-8.4391255151
 20
18.1492244762
 10
-8.5855413244
 20
18.0881079139
 10
-8.7281824593
 20
18.0195140877
 10
-8.8665955161
 20
17.9436125319
 10
-9.0012338986
 20
17.8602337123
 10
-9.1320976067
 20
17.7693776289
  0
LINE
  5
672
100
AcDbEntity
  8
RACCORDO
100
AcDbLine
 62
250
  6
CONTINUOUS
 10
-0.2243453204
 20
17.7471510694
 11
-0.1167831753
 21
17.7497770954
  0
LINE
  5
673
100
AcDbEntity
  8
RACCORDO
100
AcDbLine
 62
250
  6
CONTINUOUS
 10
-7.0169243945
 20
16.7380480167
 11
-6.7730575706
 21
16.743823647
  0
LINE
  5
674
100
AcDbEntity
  8
RACCORDO
100
AcDbLine
 62
250
  6
CONTINUOUS
 10
-8.0531426591
 20
17.7314440789
 11
-7.7640630371
 21
17.7378957156
  0
LINE
  5
675
100
AcDbEntity
  8
RACCORDO
100
AcDbLine
 62
250
  6
CONTINUOUS
 10
-0.1167831753
 20
17.7497770954
 11
0.0395499797
 21
17.7528440253
  0
LINE
  5
676
100
AcDbEntity
  8
RACCORDO
100
AcDbLine
 62
250
  6
CONTINUOUS
 10
6.297029697
 20
18.3
 11
6.097060158
 21
18.2965095187
  0
LINE
  5
677
100
AcDbEntity
  8
RACCORDO
100
AcDbLine
 62
250
  6
CONTINUOUS
 10
-6.7730575706
 20
16.743823647
 11
-6.5006191408
 21
16.7488089166
  0
LINE
  5
678
100
AcDbEntity
  8
RACCORDO
100
AcDbLine
 62
250
  6
CONTINUOUS
 10
-7.7640630371
 20
17.7378957156
 11
-7.4298007398
 21
17.7436703869
  0
LINE
  5
679
100
AcDbEntity
  8
RACCORDO
100
AcDbLine
 62
250
  6
CONTINUOUS
 10
0.0395499797
 20
17.7528440253
 11
0.2573146541
 21
17.7561461334
  0
LINE
  5
67A
100
AcDbEntity
  8
RACCORDO
100
AcDbLine
 62
250
  6
CONTINUOUS
 10
-6.5006191408
 20
16.7488089166
 11
-6.203971765
 21
16.7529203695
  0
LINE
  5
67B
100
AcDbEntity
  8
RACCORDO
100
AcDbLine
 62
250
  6
CONTINUOUS
 10
-7.4298007398
 20
17.7436703869
 11
-7.0562234839
 21
17.7486550463
  0
LINE
  5
67C
100
AcDbEntity
  8
RACCORDO
100
AcDbLine
 62
250
  6
CONTINUOUS
 10
0.2573146541
 20
17.7561461334
 11
0.509639266
 21
17.7590104257
  0
LINE
  5
67D
100
AcDbEntity
  8
RACCORDO
100
AcDbLine
 62
250
  6
CONTINUOUS
 10
-7.0562234839
 20
17.7486550463
 11
-6.650345861
 21
17.752766238
  0
LINE
  5
67E
100
AcDbEntity
  8
RACCORDO
100
AcDbLine
 62
250
  6
CONTINUOUS
 10
-6.203971765
 20
16.7529203695
 11
-5.8878965983
 21
16.7561086845
  0
LINE
  5
67F
100
AcDbEntity
  8
RACCORDO
100
AcDbLine
 62
250
  6
CONTINUOUS
 10
0.509639266
 20
17.7590104257
 11
0.7952162672
 21
17.7613556143
  0
LINE
  5
680
100
AcDbEntity
  8
RACCORDO
100
AcDbLine
 62
250
  6
CONTINUOUS
 10
-6.650345861
 20
17.752766238
 11
-6.2170429477
 21
17.7559546449
  0
LINE
  5
681
100
AcDbEntity
  8
RACCORDO
100
AcDbLine
 62
250
  6
CONTINUOUS
 10
-5.8878965983
 20
16.7561086845
 11
-5.5575037355
 21
16.7583085822
  0
LINE
  5
682
100
AcDbEntity
  8
RACCORDO
100
AcDbLine
 62
250
  6
CONTINUOUS
 10
0.7952162672
 20
17.7613556143
 11
1.1532552755
 21
17.7632877241
  0
LINE
  5
683
100
AcDbEntity
  8
RACCORDO
100
AcDbLine
 62
250
  6
CONTINUOUS
 10
-6.2170429477
 20
17.7559546449
 11
-5.7640256187
 21
17.7581549846
  0
LWPOLYLINE
  5
684
100
AcDbEntity
  8
RACCORDO
100
AcDbPolyline
 62
250
  6
CONTINUOUS
 90
13
 70
0
 10
7.5893541222
 20
18.8528476001
 10
7.5484911636
 20
18.8527246755
 10
7.5080230849
 20
18.84705071
 10
7.4687007585
 20
18.8359309822
 10
7.4312537981
 20
18.8195718154
 10
7.3963770202
 20
18.7982767487
 10
7.3647175527
 20
18.7724409056
 10
7.3368628271
 20
18.7425436622
 10
7.3133296789
 20
18.7091397526
 10
7.2945547583
 20
18.6728489758
 10
7.280886428
 20
18.6343446957
 10
7.2725782995
 20
18.5943413473
 10
7.2697845277
 20
18.5535811801
  0
LWPOLYLINE
  5
685
100
AcDbEntity
  8
RACCORDO
100
AcDbPolyline
 62
250
  6
CONTINUOUS
 90
3
 70
0
 10
-5.5575037355
 20
16.7583085822
 10
-5.2181186411
 20
16.7594876985
 10
-5.0467614437
 20
16.7596896741
  0
LINE
  5
686
100
AcDbEntity
  8
RACCORDO
100
AcDbLine
 62
250
  6
CONTINUOUS
 10
1.1532552755
 20
17.7632877241
 11
1.5438864049
 21
17.764416838
  0
LINE
  5
687
100
AcDbEntity
  8
RACCORDO
100
AcDbLine
 62
250
  6
CONTINUOUS
 10
-5.7640256187
 20
17.7581549846
 11
-5.2996376793
 21
17.7593348171
  0
LINE
  5
688
100
AcDbEntity
  8
RACCORDO
100
AcDbLine
 62
250
  6
CONTINUOUS
 10
-0.6397166926
 20
17.6076896529
 11
-1.3
 21
17.6076896529
  0
LINE
  5
689
100
AcDbEntity
  8
RACCORDO
100
AcDbLine
 62
250
  6
CONTINUOUS
 10
1.5438864049
 20
17.764416838
 11
9.0776633073
 21
17.7647852373
  0
LINE
  5
68A
100
AcDbEntity
  8
RACCORDO
100
AcDbLine
 62
7
  6
CONTINUOUS
 10
-8.7834334975
 20
17.8
 11
9.1128811806
 21
17.8000031106
  0
LINE
  5
68B
100
AcDbEntity
  8
RACCORDO
100
AcDbLine
 62
7
  6
CONTINUOUS
 10
7.5715717394
 20
17.9258216238
 11
5.4284282606
 21
17.9258216238
  0
LINE
  5
68C
100
AcDbEntity
  8
DRAFT
100
AcDbLine
 62
7
  6
CONTINUOUS
 10
7.2
 20
18.0
 11
5.8
 21
18.0
  0
LINE
  5
68D
100
AcDbEntity
  8
RACCORDO
100
AcDbLine
 62
250
  6
CONTINUOUS
 10
6.297029697
 20
18.3
 11
6.7171511361
 21
18.3
  0
LINE
  5
68E
100
AcDbEntity
  8
RACCORDO
100
AcDbLine
 62
250
  6
CONTINUOUS
 10
7.5715717394
 20
18.3429975542
 11
7.2715831625
 21
18.3429975542
  0
LINE
  5
68F
100
AcDbEntity
  8
RACCORDO
100
AcDbLine
 62
250
  6
CONTINUOUS
 10
5.7284168375
 20
18.3504563439
 11
-7.3609117354
 21
18.3504563439
  0
LINE
  5
690
100
AcDbEntity
  8
RACCORDO
100
AcDbLine
 62
250
  6
CONTINUOUS
 10
5.4302289188
 20
18.8603786685
 11
-7.3609117354
 21
18.8603786685
  0
LINE
  5
691
100
AcDbEntity
  8
RACCORDO
100
AcDbLine
 62
7
  6
CONTINUOUS
 10
-1.4669721784
 20
18.9185155063
 11
1.5327231656
 21
18.9185155063
  0
LINE
  5
692
100
AcDbEntity
  8
DRAFT
100
AcDbLine
 62
7
  6
CONTINUOUS
 10
-7.4883145215
 20
18.9877814546
 11
-2.5
 21
18.9877814546
  0
LINE
  5
693
100
AcDbEntity
  8
RACCORDO
100
AcDbLine
 62
7
  6
CONTINUOUS
 10
5.4939254605
 20
18.9877814546
 11
2.5322478033
 21
18.9877814546
  0
LINE
  5
694
100
AcDbEntity
  8
0
100
AcDbLine
 62
7
  6
CONTINUOUS
 10
-3.6980762114
 20
19.0
 11
3.6980762114
 21
19.0
  0
LINE
  5
695
100
AcDbEntity
  8
DRAFT
100
AcDbLine
 62
7
  6
CONTINUOUS
 10
7.3830351795
 20
19.0301850577
 11
6.8830351795
 21
19.0301850577
  0
LINE
  5
696
100
AcDbEntity
  8
DRAFT
100
AcDbLine
 62
7
  6
CONTINUOUS
 10
-6.8830351795
 20
19.0301850577
 11
-7.3830351795
 21
19.0301850577
  0
LINE
  5
697
100
AcDbEntity
  8
RACCORDO
100
AcDbLine
 62
7
  6
CONTINUOUS
 10
6.5171815971
 20
19.1148356752
 11
6.2828066874
 21
19.1148356752
  0
LINE
  5
698
100
AcDbEntity
  8
RACCORDO
100
AcDbLine
 62
7
  6
CONTINUOUS
 10
-6.2828066874
 20
19.1148356752
 11
-6.5171815971
 21
19.1148356752
  0
LINE
  5
699
100
AcDbEntity
  8
RACCORDO
100
AcDbLine
 62
7
  6
CONTINUOUS
 10
4.0497820624
 20
19.1293855894
 11
3.7327449755
 21
19.1293855894
  0
LINE
  5
69A
100
AcDbEntity
  8
RACCORDO
100
AcDbLine
 62
7
  6
CONTINUOUS
 10
-3.7327449755
 20
19.1293855894
 11
-4.0497820624
 21
19.1293855894
  0
LINE
  5
69B
100
AcDbEntity
  8
RACCORDO
100
AcDbLine
 62
7
  6
CONTINUOUS
 10
-6.0824911037
 20
19.1311700795
 11
-4.4481349352
 21
19.1311700795
  0
LINE
  5
69C
100
AcDbEntity
  8
RACCORDO
100
AcDbLine
 62
7
  6
CONTINUOUS
 10
4.4481349352
 20
19.1311700795
 11
6.0824911037
 21
19.1311700795
  0
LINE
  5
69D
100
AcDbEntity
  8
DRAFT
100
AcDbLine
 62
7
  6
CONTINUOUS
 10
6.0823605712
 20
19.138648283
 11
4.5352269068
 21
19.138648283
  0
LINE
  5
69E
100
AcDbEntity
  8
DRAFT
100
AcDbLine
 62
7
  6
CONTINUOUS
 10
-4.5352269068
 20
19.138648283
 11
-6.0823605712
 21
19.138648283
  0
LINE
  5
69F
100
AcDbEntity
  8
RACCORDO
100
AcDbLine
 62
7
  6
CONTINUOUS
 10
-4.0560295388
 20
19.1527014887
 11
-3.7389924519
 21
19.1527014887
  0
LINE
  5
6A0
100
AcDbEntity
  8
RACCORDO
100
AcDbLine
 62
7
  6
CONTINUOUS
 10
3.7389924519
 20
19.1527014887
 11
4.0560295388
 21
19.1527014887
  0
LINE
  5
6A1
100
AcDbEntity
  8
0
100
AcDbLine
 62
7
  6
CONTINUOUS
 10
-3.7432113602
 20
19.1684466686
 11
-2.6354608953
 21
19.1684466686
  0
LINE
  5
6A2
100
AcDbEntity
  8
0
100
AcDbLine
 62
7
  6
CONTINUOUS
 10
2.6354608953
 20
19.1684466686
 11
3.7432113602
 21
19.1684466686
  0
LINE
  5
6A3
100
AcDbEntity
  8
DRAFT
100
AcDbLine
 62
7
  6
CONTINUOUS
 10
-6.0817405883
 20
19.1741670785
 11
-3.7447441394
 21
19.1741670785
  0
LINE
  5
6A4
100
AcDbEntity
  8
DRAFT
100
AcDbLine
 62
7
  6
CONTINUOUS
 10
3.7447441394
 20
19.1741670785
 11
6.0817405883
 21
19.1741670785
  0
LINE
  5
6A5
100
AcDbEntity
  8
DRAFT
100
AcDbLine
 62
7
  6
CONTINUOUS
 10
-7.2084845302
 20
19.1872686779
 11
-2.6351323559
 21
19.1872686779
  0
LINE
  5
6A6
100
AcDbEntity
  8
DRAFT
100
AcDbLine
 62
7
  6
CONTINUOUS
 10
2.6351323559
 20
19.1872686779
 11
7.2084845302
 21
19.1872686779
  0
LINE
  5
6A7
100
AcDbEntity
  8
0
100
AcDbLine
 62
7
  6
CONTINUOUS
 10
-2.6299709938
 20
19.4829629131
 11
2.6299709938
 21
19.4829629131
  0
LINE
  5
6A8
100
AcDbEntity
  8
DRAFT
100
AcDbLine
 62
7
  6
CONTINUOUS
 10
2.6296736104
 20
19.5
 11
-2.6296736104
 21
19.5
  0
LINE
  5
6A9
100
AcDbEntity
  8
DRAFT
100
AcDbLine
 62
7
  6
CONTINUOUS
 10
7.2084845302
 20
19.9483339502
 11
-7.2084845302
 21
19.9483339502
  0
LINE
  5
6AA
100
AcDbEntity
  8
DRAFT
100
AcDbLine
 62
7
  6
CONTINUOUS
 10
9.5103594806
 20
20.7603594806
 11
7.3830351795
 21
20.7603594806
  0
LINE
  5
6AB
100
AcDbEntity
  8
DRAFT
100
AcDbLine
 62
7
  6
CONTINUOUS
 10
-7.3830351795
 20
20.7603594806
 11
-9.5103594806
 21
20.7603594806
  0
LINE
  5
6AC
100
AcDbEntity
  8
RACCORDO
100
AcDbLine
 62
250
  6
CONTINUOUS
 10
-5.2996376793
 20
17.7593348171
 11
-4.8294610475
 21
17.7594799131
  0
LINE
  5
6AD
100
AcDbEntity
  8
RACCORDO
100
AcDbLine
 62
250
  6
CONTINUOUS
 10
1.9827032387
 20
16.7649375442
 11
9.0776633073
 21
16.7649375421
  0
LINE
  5
6AE
100
AcDbEntity
  8
RACCORDO
100
AcDbLine
 62
250
  6
CONTINUOUS
 10
-4.8294610475
 20
17.7594799131
 11
-4.3620295464
 21
17.758579703
  0
LINE
  5
6AF
100
AcDbEntity
  8
RACCORDO
100
AcDbLine
 62
250
  6
CONTINUOUS
 10
-4.3620295464
 20
17.758579703
 11
-3.9057879162
 21
17.756658163
  0
LINE
  5
6B0
100
AcDbEntity
  8
RACCORDO
100
AcDbLine
 62
250
  6
CONTINUOUS
 10
-3.9057879162
 20
17.756658163
 11
-3.4662237973
 21
17.7537382763
  0
LINE
  5
6B1
100
AcDbEntity
  8
RACCORDO
100
AcDbLine
 62
250
  6
CONTINUOUS
 10
-3.4662237973
 20
17.7537382763
 11
-3.0514855963
 21
17.7498655356
  0
LWPOLYLINE
  5
6B2
100
AcDbEntity
  8
RACCORDO
100
AcDbPolyline
 62
250
  6
CONTINUOUS
 90
46
 70
0
 10
9.0776633073
 20
16.7649375421
 10
9.0896312479
 20
16.7647942035
 10
9.1015810819
 20
16.7643653111
 10
9.1135128092
 20
16.7636508648
 10
9.1254342027
 20
16.7626500978
 10
9.1373374896
 20
16.7613637769
 10
9.1491993513
 20
16.7597942031
 10
9.1610191047
 20
16.7579407902
 10
9.1727974329
 20
16.7558041243
 10
9.1845130671
 20
16.7533882643
 10
9.1961652622
 20
16.750692852
 10
9.2077547632
 20
16.7477182455
 10
9.2192625359
 20
16.7444695784
 10
9.2306884319
 20
16.7409464689
 10
9.2420325996
 20
16.7371492988
 10
9.2532764495
 20
16.7330843467
 10
9.2644198472
 20
16.7287512284
 10
9.2754629272
 20
16.7241503282
 10
9.2863875037
 20
16.7192890773
 10
9.2971937502
 20
16.7141668848
 10
9.3078814931
 20
16.7087843415
 10
9.3184320255
 20
16.7031506521
 10
9.328845384
 20
16.6972651431
 10
9.339121532
 20
16.6911284879
 10
9.3492416527
 20
16.6847519113
 10
9.3592052093
 20
16.6781350623
 10
9.3690127385
 20
16.671278292
 10
9.3786470339
 20
16.6641938789
 10
9.3881074606
 20
16.6568816887
 10
9.3973946535
 20
16.6493418557
 10
9.4064933101
 20
16.6415870619
 10
9.415402809
 20
16.6336173765
 10
9.4241237716
 20
16.6254327302
 10
9.4326427601
 20
16.6170455978
 10
9.4409595725
 20
16.6084557874
 10
9.4490744108
 20
16.5996634909
 10
9.4569744429
 20
16.5906817579
 10
9.4646602014
 20
16.58150924
 10
9.4721311536
 20
16.5721472856
 10
9.479372869
 20
16.5626129903
 10
9.4863856765
 20
16.5529043746
 10
9.4931692473
 20
16.5430234181
 10
9.4997081638
 20
16.5329931544
 10
9.5059972871
 20
16.5228212617
 10
9.5120417561
 20
16.5125000619
 10
9.517841571
 20
16.5020295551
  0
LWPOLYLINE
  5
6B3
100
AcDbEntity
  8
RACCORDO
100
AcDbPolyline
 62
250
  6
CONTINUOUS
 90
46
 70
0
 10
9.0776633073
 20
17.7647852373
 10
9.1135309359
 20
17.7643490452
 10
9.1493839356
 20
17.7630549855
 10
9.1852017813
 20
17.7609033715
 10
9.2209663221
 20
17.7578947821
 10
9.2566546673
 20
17.7540306265
 10
9.2922392595
 20
17.7493137102
 10
9.327698488
 20
17.7437470288
 10
9.3630133142
 20
17.7373337036
 10
9.3981602492
 20
17.7300782034
 10
9.4331173655
 20
17.7219854579
 10
9.4678666274
 20
17.7130600481
 10
9.5023905636
 20
17.7033067023
 10
9.5366693904
 20
17.6927311696
 10
9.5706836244
 20
17.6813396223
 10
9.6044163597
 20
17.6691377754
 10
9.6378483098
 20
17.6561325611
 10
9.6709603198
 20
17.6423313866
 10
9.7037358031
 20
17.6277410149
 10
9.7361569905
 20
17.6123690596
 10
9.7682041367
 20
17.596224583
 10
9.799857943
 20
17.5793170867
 10
9.8311011327
 20
17.5616555759
 10
9.861914802
 20
17.5432505113
 10
9.8922777406
 20
17.5241145472
 10
9.9221720053
 20
17.5042591887
 10
9.9515812166
 20
17.4836955153
 10
9.9804871466
 20
17.4624365201
 10
10.0088724338
 20
17.4404953639
 10
10.0367220235
 20
17.4178840831
 10
10.0640215965
 20
17.394614563
 10
10.0907544927
 20
17.3707012522
 10
10.1169066993
 20
17.3461569394
 10
10.1424679519
 20
17.3209911195
 10
10.1674233512
 20
17.2952179951
 10
10.1917584314
 20
17.2688520286
 10
10.2154634088
 20
17.2419029708
 10
10.2385266543
 20
17.2143825838
 10
10.2609316215
 20
17.186309112
 10
10.2826616198
 20
17.1577024679
 10
10.3037064725
 20
17.128575061
 10
10.3240509438
 20
17.0989469607
 10
10.3436727627
 20
17.0688510519
 10
10.3625581769
 20
17.0383105658
 10
10.3807007009
 20
17.0073382071
 10
10.3980907545
 20
16.9759521855
  0
LINE
  5
6B4
100
AcDbEntity
  8
RACCORDO
100
AcDbLine
 62
250
  6
CONTINUOUS
 10
-3.0514855963
 20
17.7498655356
 11
-2.6689195062
 21
17.745117211
  0
LINE
  5
6B5
100
AcDbEntity
  8
RACCORDO
100
AcDbLine
 62
250
  6
CONTINUOUS
 10
-2.6689195062
 20
17.745117211
 11
-2.3231282058
 21
17.7395501251
  0
LWPOLYLINE
  5
6B6
100
AcDbEntity
  8
RACCORDO
100
AcDbPolyline
 62
250
  6
CONTINUOUS
 90
12
 70
0
 10
-2.3231282058
 20
17.7395501251
 10
-2.0206593584
 20
17.733257998
 10
-1.8873764881
 20
17.7298819771
 10
-1.7668474009
 20
17.7263659914
 10
-1.6588835747
 20
17.7227100261
 10
-1.5647121201
 20
17.7189540135
 10
-1.484437534
 20
17.7150902209
 10
-1.4179553196
 20
17.7111263809
 10
-1.3661790969
 20
17.7071256235
 10
-1.3294134061
 20
17.7031089922
 10
-1.3073537071
 20
17.6990554435
 10
-1.3
 20
17.6949649775
  0
LWPOLYLINE
  5
6B7
100
AcDbEntity
  8
RACCORDO
100
AcDbPolyline
 62
250
  6
CONTINUOUS
 90
18
 70
0
 10
-8.7215950462
 20
17.6944931442
 10
-8.6331800671
 20
17.6924918853
 10
-8.5452876865
 20
17.6826881314
 10
-8.4586053302
 20
17.6651585601
 10
-8.3738109603
 20
17.6400402739
 10
-8.2915677724
 20
17.6075297286
 10
-8.2125190089
 20
17.5678811964
 10
-8.1372829278
 20
17.5214047774
 10
-8.0664479672
 20
17.4684639738
 10
-8.0005681432
 20
17.4094728477
 10
-7.9401587166
 20
17.3448927817
 10
-7.885692163
 20
17.275228871
 10
-7.8375944774
 20
17.2010259725
 10
-7.7962418425
 20
17.1228644436
 10
-7.7619576866
 20
17.0413556032
 10
-7.7350101537
 20
16.9571369499
 10
-7.7156100065
 20
16.8708671767
 10
-7.7039089777
 20
16.7832210188
  0
LWPOLYLINE
  5
6B8
100
AcDbEntity
  8
RACCORDO
100
AcDbPolyline
 62
250
  6
CONTINUOUS
 90
22
 70
0
 10
-0.5169219682
 20
17.7305556031
 10
-0.4048682349
 20
17.7263236754
 10
-0.293440966
 20
17.7137318154
 10
-0.1832629941
 20
17.6928503565
 10
-0.0749501773
 20
17.6637959707
 10
0.030892051
 20
17.6267310099
 10
0.1336720662
 20
17.581862596
 10
0.2328153678
 20
17.5294414673
 10
0.3277677334
 20
17.4697606024
 10
0.4179983343
 20
17.4031535859
 10
0.503002786
 20
17.3299927
 10
0.5823059164
 20
17.2506868632
 10
0.6554643813
 20
17.1656793848
 10
0.7220692084
 20
17.0754454371
 10
0.7817480921
 20
16.9804893706
 10
0.8341674336
 20
16.8813419287
 10
0.8790341713
 20
16.7785573506
 10
0.9160975049
 20
16.6727101245
 10
0.9451502707
 20
16.5643917397
 10
0.9660300082
 20
16.4542076026
 10
0.9786199108
 20
16.3427736675
 10
0.9828495295
 20
16.2307128304
  0
LWPOLYLINE
  5
6B9
100
AcDbEntity
  8
RACCORDO
100
AcDbPolyline
 62
250
  6
CONTINUOUS
 90
18
 70
0
 10
-8.6843351153
 20
17.7008873749
 10
-8.5976356328
 20
17.6969532166
 10
-8.5115944429
 20
17.6854548457
 10
-8.4268650593
 20
17.6664795963
 10
-8.344091032
 20
17.6401715924
 10
-8.2639010596
 20
17.6067306527
 10
-8.1869042134
 20
17.566410773
 10
-8.1136853123
 20
17.5195181974
 10
-8.0448004799
 20
17.4664090918
 10
-7.9807729214
 20
17.4074868388
 10
-7.922088949
 20
17.3431989742
 10
-7.8691942884
 20
17.2740337872
 10
-7.8224906937
 20
17.2005166123
 10
-7.7823328953
 20
17.1232058389
 10
-7.7490259062
 20
17.0426886698
 10
-7.7228227048
 20
16.959576662
 10
-7.703922314
 20
16.8745010809
 10
-7.6924682889
 20
16.788108106
  0
LWPOLYLINE
  5
6BA
100
AcDbEntity
  8
RACCORDO
100
AcDbPolyline
 62
250
  6
CONTINUOUS
 90
13
 70
0
 10
5.4302289188
 20
18.8603786685
 10
5.4693815118
 20
18.8578070523
 10
5.5078643227
 20
18.850148121
 10
5.5450190273
 20
18.8375328956
 10
5.5802100213
 20
18.8201771844
 10
5.6128352939
 20
18.7983778909
 10
5.6423367257
 20
18.772507935
 10
5.6682096367
 20
18.743009873
 10
5.6900114201
 20
18.7103883274
 10
5.7073691137
 20
18.6752013536
 10
5.7199857799
 20
18.6380508937
 10
5.7276455859
 20
18.5995724796
 10
5.7302174957
 20
18.5604243599
  0
LWPOLYLINE
  5
6BB
100
AcDbEntity
  8
RACCORDO
100
AcDbPolyline
 62
250
  6
CONTINUOUS
 90
13
 70
0
 10
7.5715717394
 20
18.3429975431
 10
7.7065587002
 20
18.3304102467
 10
7.8404738872
 20
18.3117701056
 10
7.9733173003
 20
18.2870771199
 10
8.1053773068
 20
18.2562738475
 10
8.2363655394
 20
18.2194177305
 10
8.3654168965
 20
18.1766810948
 10
8.4925258999
 20
18.1280145321
 10
8.6176980277
 20
18.0734674507
 10
8.740084613
 20
18.0133604017
 10
8.8594027666
 20
17.9478002354
 10
8.9759353777
 20
17.8766801015
 10
9.0896824462
 20
17.8
  0
LWPOLYLINE
  5
6BC
100
AcDbEntity
  8
RACCORDO
100
AcDbPolyline
 62
250
  6
CONTINUOUS
 90
19
 70
0
 10
7.5893541497
 20
18.8529061162
 10
7.7841440116
 20
18.8346785154
 10
7.9778315418
 20
18.8055559575
 10
8.1698047549
 20
18.7655922145
 10
8.3594901534
 20
18.7148648565
 10
8.5462434844
 20
18.6535034644
 10
8.7293583822
 20
18.5817098351
 10
8.9082510396
 20
18.4996925109
 10
9.0823468104
 20
18.407694205
 10
9.2509859278
 20
18.3060532527
 10
9.413604824
 20
18.1951142869
 10
9.5697224561
 20
18.0752107456
 10
9.7188412492
 20
17.9467266534
 10
9.8604825133
 20
17.8100784702
 10
9.9942091274
 20
17.665692249
 10
10.1196183066
 20
17.51400222
 10
10.2363168597
 20
17.3554779052
 10
10.3439265982
 20
17.1906264466
 10
10.4421045152
 20
17.0199676929
  0
LINE
  5
6BD
100
AcDbEntity
  8
RACCORDO
100
AcDbLine
 62
7
  6
CONTINUOUS
 10
6.7171511361
 20
19.1131207627
 11
6.8830351795
 21
19.0301850577
  0
LINE
  5
6BE
100
AcDbEntity
  8
DRAFT
100
AcDbLine
 62
7
  6
CONTINUOUS
 10
7.2084845302
 20
19.1872686779
 11
7.3830351795
 21
19.1
  0
LINE
  5
6BF
100
AcDbEntity
  8
RACCORDO
100
AcDbLine
 62
7
  6
CONTINUOUS
 10
7.2
 20
18.0
 11
7.2715831625
 21
17.9284168375
  0
LWPOLYLINE
  5
6C0
100
AcDbEntity
  8
RACCORDO
100
AcDbPolyline
 62
7
  6
CONTINUOUS
 90
13
 70
0
 10
10.0317940571
 20
18.150052343
 10
10.0121658824
 20
18.169815643
 10
9.9909605232
 20
18.1863405777
 10
9.9681779795
 20
18.1996271471
 10
9.9433614952
 20
18.2097948571
 10
9.9169678264
 20
18.2167242019
 10
9.8903672408
 20
18.2200566637
 10
9.8635333038
 20
18.2196038355
 10
9.83649245
 20
18.2155541244
 10
9.8106942517
 20
18.2081142336
 10
9.7862089093
 20
18.1970964203
 10
9.7629662223
 20
18.1826884274
 10
9.7558605884
 20
18.17686038
  0
LWPOLYLINE
  5
6C1
100
AcDbEntity
  8
RACCORDO
100
AcDbPolyline
 62
7
  6
CONTINUOUS
 90
10
 70
0
 10
10.8696946922
 20
17.1673849704
 10
10.9125635292
 20
17.1078013977
 10
10.9506875837
 20
17.0456811432
 10
10.9840668556
 20
16.9810242071
 10
11.0128875837
 20
16.9132918787
 10
11.0369635292
 20
16.8430228686
 10
11.0557359763
 20
16.7718333084
 10
11.0690186861
 20
16.7002619089
 10
11.0769978975
 20
16.6277699594
 10
11.0796736104
 20
16.5543574599
  0
LWPOLYLINE
  5
6C2
100
AcDbEntity
  8
RACCORDO
100
AcDbPolyline
 62
7
  6
CONTINUOUS
 90
16
 70
0
 10
10.4421045152
 20
17.0199676929
 10
10.3798529051
 20
17.1227060543
 10
10.3101314046
 20
17.2194136203
 10
10.2335745806
 20
17.3096113042
 10
10.1505682429
 20
17.3931250795
 10
10.0620187277
 20
17.4693239372
 10
9.9695320715
 20
17.5373299408
 10
9.8739820768
 20
17.5971012881
 10
9.776111237
 20
17.6487268166
 10
9.6775380988
 20
17.6920036646
 10
9.5792574204
 20
17.727228682
 10
9.481741201
 20
17.7549201384
 10
9.3858191784
 20
17.7755051135
 10
9.2921074436
 20
17.7895064141
 10
9.2009980597
 20
17.7974864959
 10
9.1128811806
 20
17.8000031106
  0
LWPOLYLINE
  5
6C3
100
AcDbEntity
  8
RACCORDO
100
AcDbPolyline
 62
250
  6
CONTINUOUS
 90
28
 70
0
 10
10.3980907544
 20
16.9759521854
 10
10.4279482629
 20
16.9192652317
 10
10.4567625586
 20
16.8620421605
 10
10.4845240418
 20
16.8043021725
 10
10.5112230258
 20
16.7460656159
 10
10.536851097
 20
16.6873510667
 10
10.5614009382
 20
16.6281752438
 10
10.5848660441
 20
16.5685531579
 10
10.6072364437
 20
16.5085094459
 10
10.6285006259
 20
16.4480756542
 10
10.6486505984
 20
16.3872765217
 10
10.6676816767
 20
16.3261283222
 10
10.6855884237
 20
16.2646502732
 10
10.7023650383
 20
16.2028640571
 10
10.7180066499
 20
16.1407894989
 10
10.7325094718
 20
16.0784430794
 10
10.7458693082
 20
16.0158435317
 10
10.7580813851
 20
15.953013983
 10
10.7691414981
 20
15.8899775834
 10
10.7790463571
 20
15.8267549324
 10
10.7877928852
 20
15.7633677393
 10
10.795378095
 20
15.6998409466
 10
10.8017998771
 20
15.6361970425
 10
10.807056777
 20
15.5724561351
 10
10.8111475841
 20
15.5086396597
 10
10.8140714788
 20
15.4447689855
 10
10.8158280267
 20
15.3808654073
 10
10.8164171854
 20
15.3169502523
  0
LINE
  5
6C4
100
AcDbEntity
  8
DRAFT
100
AcDbLine
 62
7
  6
CONTINUOUS
 10
3.0
 20
23.5
 11
2.7812783412
 21
23.4563623377
  0
LINE
  5
6C5
100
AcDbEntity
  8
0
100
AcDbLine
 62
7
  6
CONTINUOUS
 10
3.434596365
 20
21.2139629885
 11
3.1501460935
 21
21.1998476487
  0
LINE
  5
6C6
100
AcDbEntity
  8
0
100
AcDbLine
 62
7
  6
CONTINUOUS
 10
2.700388948
 20
21.1802222394
 11
3.0969217322
 21
21.1998476487
  0
LINE
  5
6C7
100
AcDbEntity
  8
0
100
AcDbLine
 62
7
  6
CONTINUOUS
 10
3.0104834329
 20
22.1955695989
 11
3.1
 21
22.2
  0
LINE
  5
6C8
100
AcDbEntity
  8
DRAFT
100
AcDbLine
 62
7
  6
CONTINUOUS
 10
9.65
 20
20.9
 11
7.3830351795
 21
20.9
  0
LINE
  5
6C9
100
AcDbEntity
  8
DRAFT
100
AcDbLine
 62
7
  6
CONTINUOUS
 10
-7.3830351795
 20
20.9
 11
-9.65
 21
20.9
  0
LINE
  5
6CA
100
AcDbEntity
  8
DRAFT
100
AcDbLine
 62
7
  6
CONTINUOUS
 10
-6.8532553098
 20
21.1802222394
 11
-2.700388948
 21
21.1802222394
  0
LINE
  5
6CB
100
AcDbEntity
  8
DRAFT
100
AcDbLine
 62
7
  6
CONTINUOUS
 10
2.700388948
 20
21.1802222394
 11
6.8532553098
 21
21.1802222394
  0
LINE
  5
6CC
100
AcDbEntity
  8
0
100
AcDbLine
 62
7
  6
CONTINUOUS
 10
-3.1501460935
 20
21.1998476487
 11
-3.0969217322
 21
21.1998476487
  0
LINE
  5
6CD
100
AcDbEntity
  8
0
100
AcDbLine
 62
7
  6
CONTINUOUS
 10
3.0969217322
 20
21.1998476487
 11
3.1501460935
 21
21.1998476487
  0
LINE
  5
6CE
100
AcDbEntity
  8
DRAFT
100
AcDbLine
 62
7
  6
CONTINUOUS
 10
-6.9176282065
 20
21.2139629885
 11
-3.434596365
 21
21.2139629885
  0
LINE
  5
6CF
100
AcDbEntity
  8
DRAFT
100
AcDbLine
 62
7
  6
CONTINUOUS
 10
3.434596365
 20
21.2139629885
 11
6.9176282065
 21
21.2139629885
  0
LINE
  5
6D0
100
AcDbEntity
  8
DRAFT
100
AcDbLine
 62
7
  6
CONTINUOUS
 10
3.0104834329
 20
22.1955695989
 11
-3.0104834329
 21
22.1955695989
  0
LINE
  5
6D1
100
AcDbEntity
  8
DRAFT
100
AcDbLine
 62
7
  6
CONTINUOUS
 10
-3.3821231691
 20
22.2
 11
-3.1
 21
22.2
  0
LINE
  5
6D2
100
AcDbEntity
  8
DRAFT
100
AcDbLine
 62
7
  6
CONTINUOUS
 10
3.1
 20
22.2
 11
3.3821231691
 21
22.2
  0
LINE
  5
6D3
100
AcDbEntity
  8
0
100
AcDbLine
 62
7
  6
CONTINUOUS
 10
3.1
 20
22.2
 11
-3.1
 21
22.2
  0
LINE
  5
6D4
100
AcDbEntity
  8
DRAFT
100
AcDbLine
 62
7
  6
CONTINUOUS
 10
10.6503805997
 20
22.4
 11
5.55
 21
22.4
  0
LINE
  5
6D5
100
AcDbEntity
  8
DRAFT
100
AcDbLine
 62
7
  6
CONTINUOUS
 10
-5.55
 20
22.4
 11
-10.6503805997
 21
22.4
  0
LINE
  5
6D6
100
AcDbEntity
  8
DRAFT
100
AcDbLine
 62
7
  6
CONTINUOUS
 10
3.9526845545
 20
23.4301797403
 11
-3.9526845545
 21
23.4301797403
  0
LINE
  5
6D7
100
AcDbEntity
  8
DRAFT
100
AcDbLine
 62
7
  6
CONTINUOUS
 10
-2.7812783412
 20
23.4563623377
 11
2.7812783412
 21
23.4563623377
  0
LINE
  5
6D8
100
AcDbEntity
  8
DRAFT
100
AcDbLine
 62
7
  6
CONTINUOUS
 10
3.9733373476
 20
23.5
 11
3.0
 21
23.5
  0
LINE
  5
6D9
100
AcDbEntity
  8
DRAFT
100
AcDbLine
 62
7
  6
CONTINUOUS
 10
-3.0
 20
23.5
 11
-3.9733373476
 21
23.5
  0
LINE
  5
6DA
100
AcDbEntity
  8
0
100
AcDbLine
 62
7
  6
CONTINUOUS
 10
-3.1501460935
 20
21.1998476487
 11
-3.434596365
 21
21.2139629885
  0
LINE
  5
6DB
100
AcDbEntity
  8
0
100
AcDbLine
 62
7
  6
CONTINUOUS
 10
-3.0969217322
 20
21.1998476487
 11
-2.700388948
 21
21.1802222394
  0
LINE
  5
6DC
100
AcDbEntity
  8
0
100
AcDbLine
 62
7
  6
CONTINUOUS
 10
-3.1
 20
22.2
 11
-3.0104834329
 21
22.1955695989
  0
LINE
  5
6DD
100
AcDbEntity
  8
DRAFT
100
AcDbLine
 62
7
  6
CONTINUOUS
 10
-3.0
 20
23.5
 11
-2.7812783412
 21
23.4563623377
  0
CIRCLE
  5
6DE
100
AcDbEntity
  8
ASSI
100
AcDbCircle
 62
7
  6
CONTINUOUS
 10
-7.0
 20
-13.0
 40
2.5
  0
ARC
  5
6DF
100
AcDbEntity
  8
ASSI
100
AcDbCircle
 62
7
  6
CONTINUOUS
 10
-2.803659
 20
-5.188954
 40
0.6287074522
100
AcDbArc
 50
202.8428566081
 51
359.9987091929
  0
ARC
  5
6E0
100
AcDbEntity
  8
DRAFT
100
AcDbCircle
 62
7
  6
CONTINUOUS
 10
-4.95
 20
-23.1
 40
0.5
100
AcDbArc
 50
350.803718421
 51
119.112422776
  0
ARC
  5
6E1
100
AcDbEntity
  8
RACCORDO
100
AcDbCircle
 62
7
  6
CONTINUOUS
 10
-9.2
 20
-9.7
 40
0.3
100
AcDbArc
 50
180.0
 51
270.0
  0
ARC
  5
6E2
100
AcDbEntity
  8
RACCORDO
100
AcDbCircle
 62
7
  6
CONTINUOUS
 10
-4.8
 20
-9.7
 40
0.3
100
AcDbArc
 50
270.0
 51
360.0
  0
ARC
  5
6E3
100
AcDbEntity
  8
ASSI
100
AcDbCircle
 62
7
  6
CONTINUOUS
 10
-2.803659
 20
-5.132045
 40
0.249439
100
AcDbArc
 50
180.0010063792
 51
0.0010063711
  0
ARC
  5
6E4
100
AcDbEntity
  8
DRAFT
100
AcDbCircle
 62
7
  6
CONTINUOUS
 10
-11.25
 20
0.0
 40
28.0
100
AcDbArc
 50
302.9352304972
 51
304.1210936517
  0
ARC
  5
6E5
100
AcDbEntity
  8
DRAFT
100
AcDbCircle
 62
7
  6
CONTINUOUS
 10
-11.25
 20
0.0
 40
28.0
100
AcDbArc
 50
55.8789063483
 51
57.0647695028
  0
ARC
  5
6E6
100
AcDbEntity
  8
DRAFT
100
AcDbCircle
 62
7
  6
CONTINUOUS
 10
-11.25
 20
0.0
 40
28.0
100
AcDbArc
 50
305.9627651514
 51
311.7180504312
  0
ARC
  5
6E7
100
AcDbEntity
  8
RACCORDO
100
AcDbCircle
 62
7
  6
CONTINUOUS
 10
-11.25
 20
0.0
 40
28.0
100
AcDbArc
 50
319.3753165416
 51
322.1844925241
  0
ARC
  5
6E8
100
AcDbEntity
  8
DRAFT
100
AcDbCircle
 62
7
  6
CONTINUOUS
 10
-11.25
 20
0.0
 40
28.0
100
AcDbArc
 50
48.2819495688
 51
54.0372348486
  0
ARC
  5
6E9
100
AcDbEntity
  8
RACCORDO
100
AcDbCircle
 62
7
  6
CONTINUOUS
 10
-11.25
 20
0.0
 40
28.0
100
AcDbArc
 50
37.8155074759
 51
40.6246834584
  0
ARC
  5
6EA
100
AcDbEntity
  8
RACCORDO
100
AcDbCircle
 62
7
  6
CONTINUOUS
 10
-11.25
 20
0.0
 40
27.9703263896
100
AcDbArc
 50
37.8370945959
 51
40.4590073875
  0
ARC
  5
6EB
100
AcDbEntity
  8
RACCORDO
100
AcDbCircle
 62
7
  6
CONTINUOUS
 10
-11.25
 20
0.0
 40
27.9703263896
100
AcDbArc
 50
319.5409926125
 51
322.1629054041
  0
ARC
  5
6EC
100
AcDbEntity
  8
DRAFT
100
AcDbCircle
 62
7
  6
CONTINUOUS
 10
-11.25
 20
0.0
 40
27.9301797403
100
AcDbArc
 50
305.881601122
 51
310.5767344533
  0
ARC
  5
6ED
100
AcDbEntity
  8
DRAFT
100
AcDbCircle
 62
7
  6
CONTINUOUS
 10
-11.25
 20
0.0
 40
27.9301797403
100
AcDbArc
 50
302.9775446409
 51
304.2022576811
  0
ARC
  5
6EE
100
AcDbEntity
  8
DRAFT
100
AcDbCircle
 62
7
  6
CONTINUOUS
 10
-11.25
 20
0.0
 40
27.9301797403
100
AcDbArc
 50
55.7977423189
 51
57.0224553591
  0
ARC
  5
6EF
100
AcDbEntity
  8
DRAFT
100
AcDbCircle
 62
7
  6
CONTINUOUS
 10
-11.25
 20
0.0
 40
27.9301797403
100
AcDbArc
 50
49.4232655467
 51
54.118398878
  0
ARC
  5
6F0
100
AcDbEntity
  8
RACCORDO
100
AcDbCircle
 62
7
  6
CONTINUOUS
 10
-7.25
 20
10.75
 40
3.0
100
AcDbArc
 50
90.0
 51
143.4327331931
  0
ARC
  5
6F1
100
AcDbEntity
  8
RACCORDO
100
AcDbCircle
 62
7
  6
CONTINUOUS
 10
-7.25
 20
10.75
 40
3.0
100
AcDbArc
 50
216.5672668069
 51
270.0
  0
ARC
  5
6F2
100
AcDbEntity
  8
RACCORDO
100
AcDbCircle
 62
250
  6
CONTINUOUS
 10
-7.25
 20
10.75
 40
2.9876900644
100
AcDbArc
 50
90.0
 51
270.0
  0
ARC
  5
6F3
100
AcDbEntity
  8
RACCORDO
100
AcDbCircle
 62
250
  6
CONTINUOUS
 10
-7.25
 20
10.75
 40
2.6877350466
100
AcDbArc
 50
90.0
 51
270.0
  0
ARC
  5
6F4
100
AcDbEntity
  8
RACCORDO
100
AcDbCircle
 62
250
  6
CONTINUOUS
 10
-7.25
 20
10.75
 40
2.4122627391
100
AcDbArc
 50
90.0
 51
270.0
  0
ARC
  5
6F5
100
AcDbEntity
  8
RACCORDO
100
AcDbCircle
 62
250
  6
CONTINUOUS
 10
-7.25
 20
10.75
 40
2.1123099349
100
AcDbArc
 50
90.0
 51
270.0
  0
ARC
  5
6F6
100
AcDbEntity
  8
DRAFT
100
AcDbCircle
 62
7
  6
CONTINUOUS
 10
-7.25
 20
10.75
 40
2.1
100
AcDbArc
 50
90.0
 51
270.0
  0
CIRCLE
  5
6F7
100
AcDbEntity
  8
DRAFT
100
AcDbCircle
 62
7
  6
CONTINUOUS
 10
-7.25
 20
10.75
 40
1.7761825974
  0
CIRCLE
  5
6F8
100
AcDbEntity
  8
DRAFT
100
AcDbCircle
 62
7
  6
CONTINUOUS
 10
-7.25
 20
10.75
 40
1.75
  0
ARC
  5
6F9
100
AcDbEntity
  8
RACCORDO
100
AcDbCircle
 62
7
  6
CONTINUOUS
 10
-9.2
 20
2.7
 40
0.3
100
AcDbArc
 50
90.0
 51
180.0
  0
ARC
  5
6FA
100
AcDbEntity
  8
0
100
AcDbCircle
 62
250
  6
CONTINUOUS
 10
-8.3656696482
 20
13.49
 40
1.55
100
AcDbArc
 50
279.9356439085
 51
285.580743549
  0
ARC
  5
6FB
100
AcDbEntity
  8
0
100
AcDbCircle
 62
7
  6
CONTINUOUS
 10
-8.3656696482
 20
13.49
 40
1.5
100
AcDbArc
 50
275.911325517
 51
285.580743549
  0
ARC
  5
6FC
100
AcDbEntity
  8
RACCORDO
100
AcDbCircle
 62
7
  6
CONTINUOUS
 10
-2.75
 20
10.75
 40
3.0
100
AcDbArc
 50
29.5333353565
 51
90.0
  0
ARC
  5
6FD
100
AcDbEntity
  8
RACCORDO
100
AcDbCircle
 62
7
  6
CONTINUOUS
 10
-2.75
 20
10.75
 40
3.0
100
AcDbArc
 50
270.0
 51
330.4666646435
  0
ARC
  5
6FE
100
AcDbEntity
  8
RACCORDO
100
AcDbCircle
 62
250
  6
CONTINUOUS
 10
-2.75
 20
10.75
 40
2.9876900644
100
AcDbArc
 50
270.0
 51
90.0
  0
ARC
  5
6FF
100
AcDbEntity
  8
RACCORDO
100
AcDbCircle
 62
250
  6
CONTINUOUS
 10
-2.75
 20
10.75
 40
2.687735046
100
AcDbArc
 50
270.0
 51
90.0
  0
ARC
  5
700
100
AcDbEntity
  8
RACCORDO
100
AcDbCircle
 62
250
  6
CONTINUOUS
 10
-2.75
 20
10.75
 40
2.4122627391
100
AcDbArc
 50
270.0
 51
90.0
  0
ARC
  5
701
100
AcDbEntity
  8
RACCORDO
100
AcDbCircle
 62
250
  6
CONTINUOUS
 10
-2.75
 20
10.75
 40
2.1123099349
100
AcDbArc
 50
270.0
 51
90.0
  0
ARC
  5
702
100
AcDbEntity
  8
DRAFT
100
AcDbCircle
 62
7
  6
CONTINUOUS
 10
-2.75
 20
10.75
 40
2.1
100
AcDbArc
 50
270.0
 51
90.0
  0
CIRCLE
  5
703
100
AcDbEntity
  8
DRAFT
100
AcDbCircle
 62
7
  6
CONTINUOUS
 10
-2.75
 20
10.75
 40
1.7761825974
  0
CIRCLE
  5
704
100
AcDbEntity
  8
DRAFT
100
AcDbCircle
 62
7
  6
CONTINUOUS
 10
-2.75
 20
10.75
 40
1.75
  0
ARC
  5
705
100
AcDbEntity
  8
RACCORDO
100
AcDbCircle
 62
7
  6
CONTINUOUS
 10
-4.8
 20
2.7
 40
0.3
100
AcDbArc
 50
0.0
 51
90.0
  0
ARC
  5
706
100
AcDbEntity
  8
0
100
AcDbCircle
 62
7
  6
CONTINUOUS
 10
-3.7021749414
 20
15.0978250586
 40
1.6021749414
100
AcDbArc
 50
46.0112727751
 51
48.6960155862
  0
ARC
  5
707
100
AcDbEntity
  8
0
100
AcDbCircle
 62
7
  6
CONTINUOUS
 10
-3.7021749414
 20
15.0978250586
 40
1.6021749414
100
AcDbArc
 50
130.6527140293
 51
133.994270706
  0
ARC
  5
708
100
AcDbEntity
  8
0
100
AcDbCircle
 62
250
  6
CONTINUOUS
 10
-1.6343303518
 20
13.49
 40
1.55
100
AcDbArc
 50
254.419256451
 51
260.0636398161
  0
ARC
  5
709
100
AcDbEntity
  8
0
100
AcDbCircle
 62
7
  6
CONTINUOUS
 10
-1.6343303518
 20
13.49
 40
1.5
100
AcDbArc
 50
254.419256451
 51
264.0885930677
  0
ARC
  5
70A
100
AcDbEntity
  8
DRAFT
100
AcDbCircle
 62
7
  6
CONTINUOUS
 10
-4.95
 20
23.1
 40
0.5
100
AcDbArc
 50
240.887577224
 51
9.1962815791
  0
ARC
  5
70B
100
AcDbEntity
  8
0
100
AcDbCircle
 62
7
  6
CONTINUOUS
 10
3.7021749414
 20
-15.0978250586
 40
1.6021749414
100
AcDbArc
 50
226.0112727751
 51
228.6962135774
  0
ARC
  5
70C
100
AcDbEntity
  8
0
100
AcDbCircle
 62
7
  6
CONTINUOUS
 10
3.7021749414
 20
-15.0978250586
 40
1.6021749414
100
AcDbArc
 50
310.6526952433
 51
313.994270706
  0
ARC
  5
70D
100
AcDbEntity
  8
0
100
AcDbCircle
 62
250
  6
CONTINUOUS
 10
1.6343303518
 20
-13.49
 40
1.55
100
AcDbArc
 50
74.419256451
 51
80.0636398161
  0
ARC
  5
70E
100
AcDbEntity
  8
0
100
AcDbCircle
 62
7
  6
CONTINUOUS
 10
1.6343303518
 20
-13.49
 40
1.5
100
AcDbArc
 50
74.419256451
 51
84.0885930677
  0
ARC
  5
70F
100
AcDbEntity
  8
DRAFT
100
AcDbCircle
 62
7
  6
CONTINUOUS
 10
4.95
 20
-23.1
 40
0.5
100
AcDbArc
 50
60.887577224
 51
189.196281579
  0
ARC
  5
710
100
AcDbEntity
  8
RACCORDO
100
AcDbCircle
 62
7
  6
CONTINUOUS
 10
2.75
 20
-10.75
 40
3.0
100
AcDbArc
 50
90.0
 51
150.4666646435
  0
ARC
  5
711
100
AcDbEntity
  8
RACCORDO
100
AcDbCircle
 62
7
  6
CONTINUOUS
 10
2.75
 20
-10.75
 40
3.0
100
AcDbArc
 50
209.5333353565
 51
270.0
  0
ARC
  5
712
100
AcDbEntity
  8
RACCORDO
100
AcDbCircle
 62
250
  6
CONTINUOUS
 10
2.75
 20
-10.75
 40
2.9876900644
100
AcDbArc
 50
90.0
 51
270.0
  0
ARC
  5
713
100
AcDbEntity
  8
RACCORDO
100
AcDbCircle
 62
250
  6
CONTINUOUS
 10
2.75
 20
-10.75
 40
2.687735046
100
AcDbArc
 50
90.0
 51
270.0
  0
ARC
  5
714
100
AcDbEntity
  8
RACCORDO
100
AcDbCircle
 62
250
  6
CONTINUOUS
 10
2.75
 20
-10.75
 40
2.4122627391
100
AcDbArc
 50
90.0
 51
270.0
  0
ARC
  5
715
100
AcDbEntity
  8
RACCORDO
100
AcDbCircle
 62
250
  6
CONTINUOUS
 10
2.75
 20
-10.75
 40
2.1123099349
100
AcDbArc
 50
90.0
 51
270.0
  0
ARC
  5
716
100
AcDbEntity
  8
DRAFT
100
AcDbCircle
 62
7
  6
CONTINUOUS
 10
2.75
 20
-10.75
 40
2.1
100
AcDbArc
 50
90.0
 51
270.0
  0
CIRCLE
  5
717
100
AcDbEntity
  8
DRAFT
100
AcDbCircle
 62
7
  6
CONTINUOUS
 10
2.75
 20
-10.75
 40
1.7761825974
  0
CIRCLE
  5
718
100
AcDbEntity
  8
DRAFT
100
AcDbCircle
 62
7
  6
CONTINUOUS
 10
2.75
 20
-0.8
 40
1.7761825974
  0
CIRCLE
  5
719
100
AcDbEntity
  8
DRAFT
100
AcDbCircle
 62
7
  6
CONTINUOUS
 10
2.75
 20
-0.8
 40
1.75
  0
CIRCLE
  5
71A
100
AcDbEntity
  8
DRAFT
100
AcDbCircle
 62
7
  6
CONTINUOUS
 10
2.75
 20
-10.75
 40
1.75
  0
ARC
  5
71B
100
AcDbEntity
  8
0
100
AcDbCircle
 62
250
  6
CONTINUOUS
 10
8.3656696482
 20
-13.49
 40
1.55
100
AcDbArc
 50
99.9356439085
 51
105.580743549
  0
ARC
  5
71C
100
AcDbEntity
  8
0
100
AcDbCircle
 62
7
  6
CONTINUOUS
 10
8.3656696482
 20
-13.49
 40
1.5
100
AcDbArc
 50
95.911325517
 51
105.580743549
  0
ARC
  5
71D
100
AcDbEntity
  8
RACCORDO
100
AcDbCircle
 62
7
  6
CONTINUOUS
 10
7.25
 20
-10.75
 40
3.0
100
AcDbArc
 50
36.5672668069
 51
90.0
  0
ARC
  5
71E
100
AcDbEntity
  8
RACCORDO
100
AcDbCircle
 62
7
  6
CONTINUOUS
 10
7.25
 20
-10.75
 40
3.0
100
AcDbArc
 50
270.0
 51
323.4327331931
  0
ARC
  5
71F
100
AcDbEntity
  8
RACCORDO
100
AcDbCircle
 62
250
  6
CONTINUOUS
 10
7.25
 20
-10.75
 40
2.9876900644
100
AcDbArc
 50
270.0
 51
90.0
  0
ARC
  5
720
100
AcDbEntity
  8
RACCORDO
100
AcDbCircle
 62
250
  6
CONTINUOUS
 10
7.25
 20
-10.75
 40
2.6877350466
100
AcDbArc
 50
270.0
 51
90.0
  0
ARC
  5
721
100
AcDbEntity
  8
RACCORDO
100
AcDbCircle
 62
250
  6
CONTINUOUS
 10
7.25
 20
-10.75
 40
2.4122627391
100
AcDbArc
 50
270.0
 51
90.0
  0
ARC
  5
722
100
AcDbEntity
  8
RACCORDO
100
AcDbCircle
 62
250
  6
CONTINUOUS
 10
7.25
 20
-10.75
 40
2.1123099349
100
AcDbArc
 50
270.0
 51
90.0
  0
ARC
  5
723
100
AcDbEntity
  8
DRAFT
100
AcDbCircle
 62
7
  6
CONTINUOUS
 10
7.25
 20
-10.75
 40
2.1
100
AcDbArc
 50
270.0
 51
90.0
  0
CIRCLE
  5
724
100
AcDbEntity
  8
DRAFT
100
AcDbCircle
 62
7
  6
CONTINUOUS
 10
7.25
 20
-10.75
 40
1.7761825974
  0
CIRCLE
  5
725
100
AcDbEntity
  8
DRAFT
100
AcDbCircle
 62
7
  6
CONTINUOUS
 10
7.25
 20
-0.8
 40
1.7761825974
  0
CIRCLE
  5
726
100
AcDbEntity
  8
DRAFT
100
AcDbCircle
 62
7
  6
CONTINUOUS
 10
7.25
 20
-0.8
 40
1.75
  0
CIRCLE
  5
727
100
AcDbEntity
  8
DRAFT
100
AcDbCircle
 62
7
  6
CONTINUOUS
 10
7.25
 20
-10.75
 40
1.75
  0
ARC
  5
728
100
AcDbEntity
  8
DRAFT
100
AcDbCircle
 62
7
  6
CONTINUOUS
 10
11.25
 20
0.0
 40
28.0
100
AcDbArc
 50
235.8789063483
 51
237.0647695028
  0
ARC
  5
729
100
AcDbEntity
  8
DRAFT
100
AcDbCircle
 62
7
  6
CONTINUOUS
 10
11.25
 20
0.0
 40
28.0
100
AcDbArc
 50
122.9352304972
 51
124.1210936517
  0
ARC
  5
72A
100
AcDbEntity
  8
DRAFT
100
AcDbCircle
 62
7
  6
CONTINUOUS
 10
11.25
 20
0.0
 40
28.0
100
AcDbArc
 50
228.2819495688
 51
234.0372348486
  0
ARC
  5
72B
100
AcDbEntity
  8
RACCORDO
100
AcDbCircle
 62
7
  6
CONTINUOUS
 10
11.25
 20
0.0
 40
28.0
100
AcDbArc
 50
217.8155074759
 51
220.6246834584
  0
ARC
  5
72C
100
AcDbEntity
  8
DRAFT
100
AcDbCircle
 62
7
  6
CONTINUOUS
 10
11.25
 20
0.0
 40
28.0
100
AcDbArc
 50
125.9627651514
 51
131.7180504312
  0
ARC
  5
72D
100
AcDbEntity
  8
RACCORDO
100
AcDbCircle
 62
7
  6
CONTINUOUS
 10
11.25
 20
0.0
 40
28.0
100
AcDbArc
 50
139.3753165416
 51
142.1844925241
  0
ARC
  5
72E
100
AcDbEntity
  8
RACCORDO
100
AcDbCircle
 62
7
  6
CONTINUOUS
 10
11.25
 20
0.0
 40
27.9703263896
100
AcDbArc
 50
139.5409926125
 51
142.1629054041
  0
ARC
  5
72F
100
AcDbEntity
  8
RACCORDO
100
AcDbCircle
 62
7
  6
CONTINUOUS
 10
11.25
 20
0.0
 40
27.9703263896
100
AcDbArc
 50
217.8370945959
 51
220.4590073875
  0
ARC
  5
730
100
AcDbEntity
  8
DRAFT
100
AcDbCircle
 62
7
  6
CONTINUOUS
 10
11.25
 20
0.0
 40
27.9301797403
100
AcDbArc
 50
235.7977423189
 51
237.0224553591
  0
ARC
  5
731
100
AcDbEntity
  8
DRAFT
100
AcDbCircle
 62
7
  6
CONTINUOUS
 10
11.25
 20
0.0
 40
27.9301797403
100
AcDbArc
 50
122.9775446409
 51
124.2022576811
  0
ARC
  5
732
100
AcDbEntity
  8
DRAFT
100
AcDbCircle
 62
7
  6
CONTINUOUS
 10
11.25
 20
0.0
 40
27.9301797403
100
AcDbArc
 50
229.4232655467
 51
234.118398878
  0
ARC
  5
733
100
AcDbEntity
  8
DRAFT
100
AcDbCircle
 62
7
  6
CONTINUOUS
 10
11.25
 20
0.0
 40
27.9301797403
100
AcDbArc
 50
125.881601122
 51
130.5767344533
  0
ARC
  5
734
100
AcDbEntity
  8
0
100
AcDbCircle
 62
7
  6
CONTINUOUS
 10
5.302987
 20
9.203387
 40
2.249982
100
AcDbArc
 50
293.0279830175
 51
247.2489612855
  0
CIRCLE
  5
735
100
AcDbEntity
  8
0
100
AcDbCircle
 62
7
  6
CONTINUOUS
 10
5.302987
 20
9.203387
 40
2.009983
  0
ARC
  5
736
100
AcDbEntity
  8
0
100
AcDbCircle
 62
250
  6
CONTINUOUS
 10
8.3656696482
 20
1.99
 40
1.55
100
AcDbArc
 50
254.419256451
 51
260.0636398161
  0
ARC
  5
737
100
AcDbEntity
  8
0
100
AcDbCircle
 62
250
  6
CONTINUOUS
 10
1.6343303518
 20
1.99
 40
1.55
100
AcDbArc
 50
279.9362468591
 51
285.580743549
  0
ARC
  5
738
100
AcDbEntity
  8
0
100
AcDbCircle
 62
7
  6
CONTINUOUS
 10
1.6343303518
 20
1.99
 40
1.5
100
AcDbArc
 50
275.9116409052
 51
285.580743549
  0
ARC
  5
739
100
AcDbEntity
  8
0
100
AcDbCircle
 62
7
  6
CONTINUOUS
 10
8.3656696482
 20
1.99
 40
1.5
100
AcDbArc
 50
254.419256451
 51
264.0882921246
  0
ARC
  5
73A
100
AcDbEntity
  8
RACCORDO
100
AcDbCircle
 62
7
  6
CONTINUOUS
 10
7.9396986568
 20
4.8426423819
 40
1.2
100
AcDbArc
 50
181.692097879
 51
184.4270547856
  0
ARC
  5
73B
100
AcDbEntity
  8
DRAFT
100
AcDbCircle
 62
7
  6
CONTINUOUS
 10
4.95
 20
23.1
 40
0.5
100
AcDbArc
 50
170.8037184209
 51
299.112422776
  0
ELLIPSE
  5
73C
100
AcDbEntity
  8
0
100
AcDbEllipse
 62
7
  6
CONTINUOUS
 10
10.649923836
 20
21.899313827
 30
0.0
 11
0.1582391023
 21
0.4751033573
 31
0.0
 40
0.9984778551
 41
-1.2488325878
 42
0.3210503505
  0
ELLIPSE
  5
73D
100
AcDbEntity
  8
0
100
AcDbEllipse
 62
7
  6
CONTINUOUS
 10
10.649923836
 20
-21.899313827
 30
0.0
 11
-0.1582391023
 21
0.4751033573
 31
0.0
 40
0.9984778551
 41
2.8205423031
 42
4.3904252414
  0
ELLIPSE
  5
73E
100
AcDbEntity
  8
0
100
AcDbEllipse
 62
7
  6
CONTINUOUS
 10
-10.649923836
 20
21.899313827
 30
0.0
 11
-0.1582391023
 21
0.4751033573
 31
0.0
 40
0.9984778551
 41
-0.3210503505
 42
1.2488325878
  0
ELLIPSE
  5
73F
100
AcDbEntity
  8
0
100
AcDbEllipse
 62
7
  6
CONTINUOUS
 10
-10.649923836
 20
-21.899313827
 30
0.0
 11
0.1582391023
 21
0.4751033573
 31
0.0
 40
0.9984778551
 41
1.8927600658
 42
3.4626430041
  0
ELLIPSE
  5
740
100
AcDbEntity
  8
RACCORDO
100
AcDbEllipse
 62
7
  6
CONTINUOUS
 10
-4.0163144843
 20
19.13389241
 30
0.0
 11
0.5175585989
 21
0.0002914525
 31
0.0
 40
0.0086896184
 41
-2.5577377762
 42
-1.6355106969
  0
ELLIPSE
  5
741
100
AcDbEntity
  8
RACCORDO
100
AcDbEllipse
 62
7
  6
CONTINUOUS
 10
4.0163144843
 20
19.13389241
 30
0.0
 11
0.5175585989
 21
-0.0002914525
 31
0.0
 40
0.0086896184
 41
-1.5060819567
 42
-0.5838548774
  0
ELLIPSE
  5
742
100
AcDbEntity
  8
RACCORDO
100
AcDbEllipse
 62
7
  6
CONTINUOUS
 10
-4.0163144843
 20
-19.13389241
 30
0.0
 11
0.5175585989
 21
-0.0002914525
 31
0.0
 40
0.0086896184
 41
1.6355106969
 42
2.5577377762
  0
ELLIPSE
  5
743
100
AcDbEntity
  8
RACCORDO
100
AcDbEllipse
 62
7
  6
CONTINUOUS
 10
4.0163144843
 20
-19.13389241
 30
0.0
 11
0.5175585989
 21
0.0002914525
 31
0.0
 40
0.0086896184
 41
0.5838548774
 42
1.5060819567
  0
ELLIPSE
  5
744
100
AcDbEntity
  8
DRAFT
100
AcDbEllipse
 62
7
  6
CONTINUOUS
 10
11.25
 20
-0.8237678827
 30
0.0
 11
-0.0
 21
27.2472552106
 31
0.0
 40
0.9995428766
 41
-3.8876333195
 42
-3.8686988029
  0
ELLIPSE
  5
745
100
AcDbEntity
  8
DRAFT
100
AcDbEllipse
 62
7
  6
CONTINUOUS
 10
-11.25
 20
-0.8237678827
 30
0.0
 11
0.0
 21
27.2472552106
 31
0.0
 40
0.9995428766
 41
-2.4144865043
 42
-2.3955519876
  0
ELLIPSE
  5
746
100
AcDbEntity
  8
DRAFT
100
AcDbEllipse
 62
7
  6
CONTINUOUS
 10
11.25
 20
0.8237678827
 30
0.0
 11
-0.0
 21
27.2472552106
 31
0.0
 40
0.9995428766
 41
0.7271061493
 42
0.746040666
  0
ELLIPSE
  5
747
100
AcDbEntity
  8
DRAFT
100
AcDbEllipse
 62
7
  6
CONTINUOUS
 10
-11.25
 20
0.8237678827
 30
0.0
 11
0.0
 21
27.2472552106
 31
0.0
 40
0.9995428766
 41
-0.746040666
 42
-0.7271061493
  0
ELLIPSE
  5
748
100
AcDbEntity
  8
RACCORDO
100
AcDbEllipse
 62
7
  6
CONTINUOUS
 10
-4.020141102
 20
19.1481735416
 30
0.0
 11
0.5177207784
 21
-0.0003139015
 31
0.0
 40
0.0087248833
 41
1.6401773169
 42
3.1439361455
  0
ELLIPSE
  5
749
100
AcDbEntity
  8
RACCORDO
100
AcDbEllipse
 62
7
  6
CONTINUOUS
 10
4.020141102
 20
19.1481735416
 30
0.0
 11
0.5177207784
 21
0.0003139015
 31
0.0
 40
0.0087248833
 41
-0.0023434919
 42
1.5014153367
  0
ELLIPSE
  5
74A
100
AcDbEntity
  8
RACCORDO
100
AcDbEllipse
 62
7
  6
CONTINUOUS
 10
-4.020141102
 20
-19.1481735416
 30
0.0
 11
0.5177207784
 21
0.0003139015
 31
0.0
 40
0.0087248833
 41
3.1392491617
 42
4.6430079903
  0
ELLIPSE
  5
74B
100
AcDbEntity
  8
RACCORDO
100
AcDbEllipse
 62
7
  6
CONTINUOUS
 10
4.020141102
 20
-19.1481735416
 30
0.0
 11
0.5177207784
 21
-0.0003139015
 31
0.0
 40
0.0087248833
 41
-1.5014153367
 42
0.0023434919
  0
ELLIPSE
  5
74C
100
AcDbEntity
  8
RACCORDO
100
AcDbEllipse
 62
7
  6
CONTINUOUS
 10
6.5171815971
 20
-19.1130903017
 30
0.0
 11
0.2
 21
0.0
 31
0.0
 40
0.0087268678
 41
-1.5707963268
 42
-0.0174532925
  0
ELLIPSE
  5
74D
100
AcDbEntity
  8
RACCORDO
100
AcDbEllipse
 62
7
  6
CONTINUOUS
 10
-6.282837153
 20
19.1130903017
 30
0.0
 11
0.2000304679
 21
0.0000002658
 31
0.0
 40
0.0087255384
 41
-0.0001523164
 42
1.5706440104
  0
ELLIPSE
  5
74E
100
AcDbEntity
  8
RACCORDO
100
AcDbEllipse
 62
7
  6
CONTINUOUS
 10
6.282837153
 20
-19.1130903017
 30
0.0
 11
0.2000304679
 21
0.0000002658
 31
0.0
 40
0.0087255384
 41
3.1414403372
 42
4.7122366639
  0
ELLIPSE
  5
74F
100
AcDbEntity
  8
RACCORDO
100
AcDbEllipse
 62
7
  6
CONTINUOUS
 10
-6.5171815971
 20
19.1130903017
 30
0.0
 11
0.2
 21
-0.0
 31
0.0
 40
0.0087268678
 41
1.5707963268
 42
3.1241393611
  0
ELLIPSE
  5
750
100
AcDbEntity
  8
RACCORDO
100
AcDbEllipse
 62
7
  6
CONTINUOUS
 10
6.5171815971
 20
19.1130903017
 30
0.0
 11
0.2
 21
0.0
 31
0.0
 40
0.0087268678
 41
0.0174532925
 42
1.5707963268
  0
ELLIPSE
  5
751
100
AcDbEntity
  8
RACCORDO
100
AcDbEllipse
 62
7
  6
CONTINUOUS
 10
6.282837153
 20
19.1130903017
 30
0.0
 11
0.2000304679
 21
-0.0000002658
 31
0.0
 40
0.0087255384
 41
1.5709486432
 42
3.14174497
  0
ELLIPSE
  5
752
100
AcDbEntity
  8
RACCORDO
100
AcDbEllipse
 62
7
  6
CONTINUOUS
 10
-6.5171815971
 20
-19.1130903017
 30
0.0
 11
0.2
 21
0.0
 31
0.0
 40
0.0087268678
 41
-3.1241393611
 42
-1.5707963268
  0
ELLIPSE
  5
753
100
AcDbEntity
  8
RACCORDO
100
AcDbEllipse
 62
7
  6
CONTINUOUS
 10
-6.282837153
 20
-19.1130903017
 30
0.0
 11
0.2000304679
 21
-0.0000002658
 31
0.0
 40
0.0087255384
 41
-1.5706440104
 42
0.0001523164
  0
ELLIPSE
  5
754
100
AcDbEntity
  8
0
100
AcDbEllipse
 62
7
  6
CONTINUOUS
 10
7.4994668518
 20
-15.4994668518
 30
0.0
 11
2.4756276621
 21
-2.4756276621
 31
0.0
 40
0.9996954599
 41
-0.6420709866
 42
0.7852458701
  0
ELLIPSE
  5
755
100
AcDbEntity
  8
0
100
AcDbEllipse
 62
7
  6
CONTINUOUS
 10
7.4994668518
 20
15.4994668518
 30
0.0
 11
2.4756276621
 21
2.4756276621
 31
0.0
 40
0.9996954599
 41
-0.7852458701
 42
0.6420709866
  0
ELLIPSE
  5
756
100
AcDbEntity
  8
0
100
AcDbEllipse
 62
7
  6
CONTINUOUS
 10
-7.4994668518
 20
15.4994668518
 30
0.0
 11
2.4756276621
 21
-2.4756276621
 31
0.0
 40
0.9996954599
 41
2.499521667
 42
3.9268385237
  0
ELLIPSE
  5
757
100
AcDbEntity
  8
0
100
AcDbEllipse
 62
7
  6
CONTINUOUS
 10
-7.4994668518
 20
-15.4994668518
 30
0.0
 11
2.4756276621
 21
2.4756276621
 31
0.0
 40
0.9996954599
 41
-3.9268385237
 42
-2.499521667
  0
ELLIPSE
  5
758
100
AcDbEntity
  8
0
100
AcDbEllipse
 62
7
  6
CONTINUOUS
 10
7.547302097
 20
-15.547302097
 30
0.0
 11
3.2569378291
 21
1.3158882989
 31
0.0
 40
0.9760361762
 41
-1.9632669686
 42
-1.8167502721
  0
ELLIPSE
  5
759
100
AcDbEntity
  8
RACCORDO
100
AcDbEllipse
 62
7
  6
CONTINUOUS
 10
7.547302097
 20
15.547302097
 30
0.0
 11
3.2569378291
 21
-1.3158882989
 31
0.0
 40
0.9760361762
 41
1.8167502721
 42
1.9577184429
  0
ELLIPSE
  5
75A
100
AcDbEntity
  8
0
100
AcDbEllipse
 62
7
  6
CONTINUOUS
 10
-7.547302097
 20
15.547302097
 30
0.0
 11
3.2569378291
 21
1.3158882989
 31
0.0
 40
0.9760361762
 41
1.178325685
 42
1.3248423815
  0
ELLIPSE
  5
75B
100
AcDbEntity
  8
RACCORDO
100
AcDbEllipse
 62
7
  6
CONTINUOUS
 10
-7.547302097
 20
-15.547302097
 30
0.0
 11
3.2569378291
 21
-1.3158882989
 31
0.0
 40
0.9760361762
 41
-1.3248423815
 42
-1.1838742107
  0
ELLIPSE
  5
75C
100
AcDbEntity
  8
DRAFT
100
AcDbEllipse
 62
7
  6
CONTINUOUS
 10
-5.0
 20
16.2892709051
 30
0.0
 11
2.7
 21
-0.0
 31
0.0
 40
0.0087268678
 41
6.2831853072
 42
9.4247779608
  0
ELLIPSE
  5
75D
100
AcDbEntity
  8
DRAFT
100
AcDbEllipse
 62
7
  6
CONTINUOUS
 10
5.0000780036
 20
4.7892709051
 30
0.0
 11
2.7
 21
0.0
 31
0.0
 40
0.0087268678
 41
0.0087266463
 42
3.1328660073
  0
ELLIPSE
  5
75E
100
AcDbEntity
  8
DRAFT
100
AcDbEllipse
 62
7
  6
CONTINUOUS
 10
5.0000780036
 20
-16.2892709051
 30
0.0
 11
2.7
 21
-0.0
 31
0.0
 40
0.0087268678
 41
3.1503192998
 42
6.2744586609
  0
ELLIPSE
  5
75F
100
AcDbEntity
  8
RACCORDO
100
AcDbEllipse
 62
7
  6
CONTINUOUS
 10
5.4964533069
 20
18.6928832239
 30
0.0
 11
0.2925751936
 21
-0.0677165747
 31
0.0
 40
0.9810065236
 41
0.2318466496
 42
1.8024906773
  0
ELLIPSE
  5
760
100
AcDbEntity
  8
RACCORDO
100
AcDbEllipse
 62
7
  6
CONTINUOUS
 10
-5.4964533069
 20
-18.6928832239
 30
0.0
 11
0.2925751936
 21
-0.0677165747
 31
0.0
 40
0.9810065236
 41
-2.909746004
 42
-1.3391019763
  0
ELLIPSE
  5
761
100
AcDbEntity
  8
RACCORDO
100
AcDbEllipse
 62
7
  6
CONTINUOUS
 10
-1.467452248
 20
18.9361854591
 30
0.0
 11
1.0000047088
 21
-0.0000084854
 31
0.0
 40
0.0176698676
 41
-3.1239243248
 42
-1.5703161095
  0
ELLIPSE
  5
762
100
AcDbEntity
  8
RACCORDO
100
AcDbEllipse
 62
7
  6
CONTINUOUS
 10
-1.467452248
 20
-18.9361854591
 30
0.0
 11
1.0000047088
 21
0.0000084854
 31
0.0
 40
0.0176698676
 41
1.5703161095
 42
3.1239243248
  0
ELLIPSE
  5
763
100
AcDbEntity
  8
RACCORDO
100
AcDbEllipse
 62
7
  6
CONTINUOUS
 10
1.467452248
 20
-18.9361854591
 30
0.0
 11
1.0000047088
 21
-0.0000084854
 31
0.0
 40
0.0176698676
 41
0.0176683288
 42
1.5712765441
  0
ELLIPSE
  5
764
100
AcDbEntity
  8
RACCORDO
100
AcDbEllipse
 62
7
  6
CONTINUOUS
 10
9.6594739059
 20
-3.8174550649
 30
0.0
 11
1.0
 21
-0.0
 31
0.0
 40
0.0174550649
 41
1.2751805882
 42
1.5707963268
  0
ELLIPSE
  5
765
100
AcDbEntity
  8
RACCORDO
100
AcDbEllipse
 62
7
  6
CONTINUOUS
 10
9.6594739059
 20
2.2174550649
 30
0.0
 11
1.0
 21
-0.0
 31
0.0
 40
0.0174550649
 41
-1.5707963268
 42
-1.2751805882
  0
ELLIPSE
  5
766
100
AcDbEntity
  8
RACCORDO
100
AcDbEllipse
 62
7
  6
CONTINUOUS
 10
0.1397928475
 20
-3.8174550649
 30
0.0
 11
1.0
 21
0.0
 31
0.0
 40
0.0174550649
 41
1.5707963268
 42
1.6608271349
  0
ELLIPSE
  5
767
100
AcDbEntity
  8
RACCORDO
100
AcDbEllipse
 62
7
  6
CONTINUOUS
 10
0.1397928475
 20
2.2174550649
 30
0.0
 11
1.0
 21
0.0
 31
0.0
 40
0.0174550649
 41
-1.6608271349
 42
-1.5707963268
  0
ELLIPSE
  5
768
100
AcDbEntity
  8
RACCORDO
100
AcDbEllipse
 62
7
  6
CONTINUOUS
 10
1.5322430959
 20
18.9361854591
 30
0.0
 11
1.0000047088
 21
-0.0000084854
 31
0.0
 40
0.0176698676
 41
-1.5703161095
 42
-0.0000539658
  0
ENDSEC
  0
SECTION
  2
OBJECTS
  0
DICTIONARY
  5
C
100
AcDbDictionary
280
0
281
1
  3
ACAD_GROUP
350
D
  3
ACAD_MLINESTYLE
350
17
  3
ACAD_LAYOUT
350
1A
  3
ACAD_PLOTSETTINGS
350
19
  3
ACAD_PLOTSTYLENAME
350
E
  0
DICTIONARY
  5
D
102
{ACAD_REACTORS
330
C
102
}
100
AcDbDictionary
280
0
281
1
  0
ACDBDICTIONARYWDFLT
  5
E
102
{ACAD_REACTORS
330
C
102
}
100
AcDbDictionary
281
1
  3
Normal
350
F
100
AcDbDictionaryWithDefault
340
F
  0
DICTIONARY
  5
17
102
{ACAD_REACTORS
330
C
102
}
100
AcDbDictionary
280
0
281
1
  3
Standard
350
18
  0
DICTIONARY
  5
19
102
{ACAD_REACTORS
330
C
102
}
100
AcDbDictionary
281
1
  0
DICTIONARY
  5
1A
102
{ACAD_REACTORS
330
C
102
}
100
AcDbDictionary
281
1
  3
Model
350
769
  3
Layout1
350
76A
  0
ACDBPLACEHOLDER
  5
F
102
{ACAD_REACTORS
330
E
102
}
  0
MLINESTYLE
  5
18
102
{ACAD_REACTORS
330
17
102
}
100
AcDbMlineStyle
  2
STANDARD
 70
0
  3

 62
256
 51
90.0
 52
90.0
 71
2
 49
0.5
 62
256
  6
BYLAYER
 49
-0.5
 62
256
  6
BYLAYER
  0
LAYOUT
  5
769
102
{ACAD_REACTORS
330
1A
102
}
100
AcDbPlotSettings
  1

  2
none_device
  4
ISO_A4_(297.00_x_210.00_MM)
  6

 40
0.0
 41
0.0
 42
0.0
 43
0.0
 44
297.0
 45
210.0
 46
0.0
 47
0.0
 48
0.0
 49
0.0
140
0.0
141
0.0
142
1.0
143
1.0
 70
1024
 72
1
 73
0
 74
0
  7

 75
0
147
1.0
148
0.0
149
0.0
100
AcDbLayout
  1
Model
 70
0
 71
0
 10
0.0
 20
0.0
 11
297.0
 21
210.0
 12
0.0
 22
0.0
 32
0.0
 14
0.0
 24
0.0
 34
0.0
 15
0.0
 25
0.0
 35
0.0
146
0.0
 13
0.0
 23
0.0
 33
0.0
 16
1.0
 26
0.0
 36
0.0
 17
0.0
 27
1.0
 37
0.0
 76
0
330
21A
345
0
346
0
  0
LAYOUT
  5
76A
102
{ACAD_REACTORS
330
1A
102
}
100
AcDbPlotSettings
  1

  2
none_device
  4
ISO_A4_(297.00_x_210.00_MM)
  6

 40
0.0
 41
0.0
 42
0.0
 43
0.0
 44
297.0
 45
210.0
 46
0.0
 47
0.0
 48
0.0
 49
0.0
140
0.0
141
0.0
142
1.0
143
1.0
 70
0
 72
1
 73
0
 74
0
  7

 75
0
147
1.0
148
0.0
149
0.0
100
AcDbLayout
  1
Layout1
 70
0
 71
1
 10
0.0
 20
0.0
 11
297.0
 21
210.0
 12
0.0
 22
0.0
 32
0.0
 14
0.0
 24
0.0
 34
0.0
 15
0.0
 25
0.0
 35
0.0
146
0.0
 13
0.0
 23
0.0
 33
0.0
 16
1.0
 26
0.0
 36
0.0
 17
0.0
 27
1.0
 37
0.0
 76
0
330
21B
345
0
346
0
  0
ENDSEC
  0
EOF
