  0
SECTION
  2
HEADER
  9
$ACADVER
  1
AC1024
  9
$DWGCODEPAGE
  3
ANSI_1252
  9
$EXTMAX
 10
297.0
 20
210.0
 30
0.0
  9
$EXTMIN
 10
0.0
 20
0.0
 30
0.0
  9
$LIMMIN
 10
0.0
 20
0.0
  9
$LIMMAX
 10
297.0
 20
210.0
  9
$VIEWCTR
 10
148.5
 20
105.0
  9
$VIEWSIZE
 40
210.0
  9
$CLAYER
  8
0
  9
$LTSCALE
 40
16.335
  9
$CELTYPE
  6
BYLAYER
  9
$DIMSCALE
 40
1.0
  9
$DIMASZ
 40
3.0
  9
$DIMEXO
 40
0.5
  9
$DIMDLI
 40
11.286
  9
$DIMEXE
 40
1.5
  9
$DIMCEN
 40
2.673
  9
$DIMLFAC
 40
1.0
  9
$DIMBLK
  1
_FILLED
  9
$DIMALT
 70
0
  9
$DIMALTF
 40
0.0393700787
  9
$DIMTXT
 40
3.0
  9
$DIMTOL
 70
1
  9
$DIMLIM
 70
0
  9
$DIMTFAC
 40
1.0
  9
$DIMTP
 40
0.01
  9
$DIMTM
 40
0.01
  9
$DIMGAP
 40
0.625
  9
$DIMDSEP
 70
44
  9
$AUNITS
 70
0
  9
$PDMODE
 70
3
  9
$PDSIZE
 40
3.0
  9
$HANDSEED
  5
798
  9
$TILEMODE
 70
1
  9
$MEASUREMENT
 70
1
  9
$INSUNITS
 70
4
  0
ENDSEC
  0
SECTION
  2
CLASSES
  0
CLASS
  1
ACDBDICTIONARYWDFLT
  2
AcDbDictionaryWithDefault
  3
AutoCAD 2000
 90
0
 91
1
280
0
281
0
  0
CLASS
  1
ACDBPLACEHOLDER
  2
AcDbPlaceHolder
  3
AutoCAD 2000
 90
0
 91
1
280
0
281
0
  0
CLASS
  1
LAYOUT
  2
AcDbLayout
  3
AutoCAD 2000
 90
0
 91
0
280
0
281
0
  0
ENDSEC
  0
SECTION
  2
TABLES
  0
TABLE
  2
VPORT
  5
8
100
AcDbSymbolTable
 70
2
  0
VPORT
  5
1F4
100
AcDbSymbolTableRecord
100
AcDbViewportTableRecord
  2
*ACTIVE
 70
0
 10
0.0
 20
0.0
 11
1.0
 21
1.0
 12
148.5
 22
105.0
 13
0.0
 23
0.0
 14
1.0
 24
1.0
 15
0.0
 25
0.0
 16
0.0
 26
0.0
 36
1.0
 17
0.0
 27
0.0
 37
0.0
 40
210.0
 41
1.4142857143
 42
50.0
 43
0.0
 44
0.0
 50
0.0
 51
0.0
 71
0
 72
100
 73
1
 74
1
 75
0
 76
0
 77
0
 78
0
  0
ENDTAB
  0
TABLE
  2
LTYPE
  5
5
100
AcDbSymbolTable
 70
6
  0
LTYPE
  5
14
100
AcDbSymbolTableRecord
100
AcDbLinetypeTableRecord
  2
BYBLOCK
 70
0
  3

 72
65
 73
0
 40
0.0
  0
LTYPE
  5
15
100
AcDbSymbolTableRecord
100
AcDbLinetypeTableRecord
  2
BYLAYER
 70
0
  3

 72
65
 73
0
 40
0.0
  0
LTYPE
  5
16
100
AcDbSymbolTableRecord
100
AcDbLinetypeTableRecord
  2
CONTINUOUS
 70
64
  3
Solid line
 72
65
 73
0
 40
0.0
  0
LTYPE
  5
1F5
100
AcDbSymbolTableRecord
100
AcDbLinetypeTableRecord
  2
CENTER
 70
64
  3
____ _ ____ _ ____ _ ____ _ ____ _ ____ _ ____
 72
65
 73
4
 40
0.6
 49
0.375
 74
0
 49
-0.075
 74
0
 49
0.075
 74
0
 49
-0.075
 74
0
  0
LTYPE
  5
1F6
100
AcDbSymbolTableRecord
100
AcDbLinetypeTableRecord
  2
HIDDEN
 70
64
  3
- - - - - - - - - - - - - - - - - - - -
 72
65
 73
2
 40
0.2
 49
0.1
 74
0
 49
-0.1
 74
0
  0
LTYPE
  5
1F7
100
AcDbSymbolTableRecord
100
AcDbLinetypeTableRecord
  2
PHANTOM
 70
64
  3
_____ _ _ _____ _ _ _____ _ _ _____
 72
65
 73
6
 40
0.8
 49
0.45
 74
0
 49
-0.05
 74
0
 49
0.1
 74
0
 49
-0.05
 74
0
 49
0.1
 74
0
 49
-0.05
 74
0
  0
LTYPE
  5
1F8
100
AcDbSymbolTableRecord
100
AcDbLinetypeTableRecord
  2
DOT
 70
64
  3
. . . . . . . . . . . . . . . . . . . .
 72
65
 73
2
 40
0.2
 49
0.1
 74
0
 49
-0.1
 74
0
  0
LTYPE
  5
1F9
100
AcDbSymbolTableRecord
100
AcDbLinetypeTableRecord
  2
DASHED
 70
64
  3
- - - - - - - - - - - - - - - - - - - -
 72
65
 73
2
 40
0.2
 49
0.1
 74
0
 49
-0.1
 74
0
  0
ENDTAB
  0
TABLE
  2
LAYER
  5
2
100
AcDbSymbolTable
 70
36
  0
LAYER
  5
10
100
AcDbSymbolTableRecord
100
AcDbLayerTableRecord
  2
0
 70
0
 62
7
  6
CONTINUOUS
370
-3
390
F
  0
LAYER
  5
1FA
100
AcDbSymbolTableRecord
100
AcDbLayerTableRecord
  2
DEFAULT_1
 70
0
 62
7
  6
CENTER
370
-3
390
F
  0
LAYER
  5
1FB
100
AcDbSymbolTableRecord
100
AcDbLayerTableRecord
  2
DEFAULT_2
 70
0
 62
7
  6
HIDDEN
370
-3
390
F
  0
LAYER
  5
1FC
100
AcDbSymbolTableRecord
100
AcDbLayerTableRecord
  2
DEFAULT_3
 70
0
 62
7
  6
PHANTOM
370
-3
390
F
  0
LAYER
  5
1FD
100
AcDbSymbolTableRecord
100
AcDbLayerTableRecord
  2
ASSI
 70
0
 62
7
  6
CONTINUOUS
370
-3
390
F
  0
LAYER
  5
1FE
100
AcDbSymbolTableRecord
100
AcDbLayerTableRecord
  2
COORDINATE
 70
0
 62
7
  6
CONTINUOUS
370
-3
390
F
  0
LAYER
  5
1FF
100
AcDbSymbolTableRecord
100
AcDbLayerTableRecord
  2
COORD_ORIGINE
 70
0
 62
7
  6
CONTINUOUS
370
-3
390
F
  0
LAYER
  5
200
100
AcDbSymbolTableRecord
100
AcDbLayerTableRecord
  2
COSMETICHE
 70
0
 62
7
  6
CONTINUOUS
370
-3
390
F
  0
LAYER
  5
201
100
AcDbSymbolTableRecord
100
AcDbLayerTableRecord
  2
CURVE
 70
0
 62
7
  6
CONTINUOUS
370
-3
390
F
  0
LAYER
  5
202
100
AcDbSymbolTableRecord
100
AcDbLayerTableRecord
  2
DRAFT
 70
0
 62
7
  6
CONTINUOUS
370
-3
390
F
  0
LAYER
  5
203
100
AcDbSymbolTableRecord
100
AcDbLayerTableRecord
  2
IMPORT_IGES
 70
0
 62
7
  6
CONTINUOUS
370
-3
390
F
  0
LAYER
  5
204
100
AcDbSymbolTableRecord
100
AcDbLayerTableRecord
  2
INTF_1
 70
0
 62
7
  6
CONTINUOUS
370
-3
390
F
  0
LAYER
  5
205
100
AcDbSymbolTableRecord
100
AcDbLayerTableRecord
  2
INTF_11
 70
0
 62
7
  6
CONTINUOUS
370
-3
390
F
  0
LAYER
  5
206
100
AcDbSymbolTableRecord
100
AcDbLayerTableRecord
  2
INTF_12
 70
0
 62
7
  6
CONTINUOUS
370
-3
390
F
  0
LAYER
  5
207
100
AcDbSymbolTableRecord
100
AcDbLayerTableRecord
  2
INTF_2
 70
0
 62
7
  6
CONTINUOUS
370
-3
390
F
  0
LAYER
  5
208
100
AcDbSymbolTableRecord
100
AcDbLayerTableRecord
  2
INTF_7
 70
0
 62
7
  6
CONTINUOUS
370
-3
390
F
  0
LAYER
  5
209
100
AcDbSymbolTableRecord
100
AcDbLayerTableRecord
  2
INTF_9
 70
0
 62
7
  6
CONTINUOUS
370
-3
390
F
  0
LAYER
  5
20A
100
AcDbSymbolTableRecord
100
AcDbLayerTableRecord
  2
NOTE
 70
0
 62
7
  6
CONTINUOUS
370
-3
390
F
  0
LAYER
  5
20B
100
AcDbSymbolTableRecord
100
AcDbLayerTableRecord
  2
PIANI
 70
0
 62
7
  6
CONTINUOUS
370
-3
390
F
  0
LAYER
  5
20C
100
AcDbSymbolTableRecord
100
AcDbLayerTableRecord
  2
PIANI_ORIGINE
 70
0
 62
7
  6
CONTINUOUS
370
-3
390
F
  0
LAYER
  5
20D
100
AcDbSymbolTableRecord
100
AcDbLayerTableRecord
  2
PIANI_SFORMI
 70
0
 62
7
  6
CONTINUOUS
370
-3
390
F
  0
LAYER
  5
20E
100
AcDbSymbolTableRecord
100
AcDbLayerTableRecord
  2
PUNTI
 70
0
 62
7
  6
CONTINUOUS
370
-3
390
F
  0
LAYER
  5
20F
100
AcDbSymbolTableRecord
100
AcDbLayerTableRecord
  2
RACCORDO
 70
0
 62
7
  6
CONTINUOUS
370
-3
390
F
  0
LAYER
  5
210
100
AcDbSymbolTableRecord
100
AcDbLayerTableRecord
  2
RGB__255__255__255__
 70
0
 62
7
  6
CONTINUOUS
370
-3
390
F
  0
LAYER
  5
211
100
AcDbSymbolTableRecord
100
AcDbLayerTableRecord
  2
RGB____0____0____0__
 70
0
 62
7
  6
CONTINUOUS
370
-3
390
F
  0
LAYER
  5
212
100
AcDbSymbolTableRecord
100
AcDbLayerTableRecord
  2
SMUSSO
 70
0
 62
7
  6
CONTINUOUS
370
-3
390
F
  0
LAYER
  5
213
100
AcDbSymbolTableRecord
100
AcDbLayerTableRecord
  2
SNAPLINE
 70
0
 62
7
  6
CONTINUOUS
370
-3
390
F
  0
LAYER
  5
214
100
AcDbSymbolTableRecord
100
AcDbLayerTableRecord
  2
SUPERFICI
 70
0
 62
7
  6
CONTINUOUS
370
-3
390
F
  0
LAYER
  5
215
100
AcDbSymbolTableRecord
100
AcDbLayerTableRecord
  2
TRASH
 70
0
 62
7
  6
CONTINUOUS
370
-3
390
F
  0
LAYER
  5
216
100
AcDbSymbolTableRecord
100
AcDbLayerTableRecord
  2
XSEC_DATUMS
 70
0
 62
7
  6
CONTINUOUS
370
-3
390
F
  0
ENDTAB
  0
TABLE
  2
STYLE
  5
3
100
AcDbSymbolTable
 70
1
  0
STYLE
  5
11
100
AcDbSymbolTableRecord
100
AcDbTextStyleTableRecord
  2
STANDARD
 70
0
 40
0.0
 41
0.8
 50
0.0
 71
0
 42
0.2
  3
txt
  4

  0
STYLE
  5
217
100
AcDbSymbolTableRecord
100
AcDbTextStyleTableRecord
  2
TEXTSTYLE_1
 70
0
 40
0.0
 41
0.8
 50
0.0
 71
0
 42
0.2
  3
gdt
  4

  0
ENDTAB
  0
TABLE
  2
VIEW
  5
6
100
AcDbSymbolTable
 70
0
  0
ENDTAB
  0
TABLE
  2
UCS
  5
7
100
AcDbSymbolTable
 70
0
  0
ENDTAB
  0
TABLE
  2
APPID
  5
9
100
AcDbSymbolTable
 70
1
  0
APPID
  5
218
100
AcDbSymbolTableRecord
100
AcDbRegAppTableRecord
  2
ACAD
 70
0
  0
ENDTAB
  0
TABLE
  2
BLOCK_RECORD
  5
1
100
AcDbSymbolTable
 70
0
  0
BLOCK_RECORD
  5
219
100
AcDbSymbolTableRecord
100
AcDbBlockTableRecord
  2
*Model_Space
  0
BLOCK_RECORD
  5
21A
100
AcDbSymbolTableRecord
100
AcDbBlockTableRecord
  2
*Paper_Space
  0
BLOCK_RECORD
  5
21B
100
AcDbSymbolTableRecord
100
AcDbBlockTableRecord
  2
_FILLED
  0
ENDTAB
  0
TABLE
  2
DIMSTYLE
  5
A
100
AcDbSymbolTable
 70
1
100
AcDbDimStyleTable
 71
0
  0
DIMSTYLE
105
21C
100
AcDbSymbolTableRecord
100
AcDbDimStyleTableRecord
  2
STANDARD
 70
0
  3

  4

 40
1.0
 41
3.0
 42
0.5
 43
0.38
 44
1.5
 45
0.0
 46
0.0
 47
0.01
 48
0.01
140
3.0
141
0.09
142
0.0
143
25.4
144
1.0
145
0.0
146
1.0
147
0.625
 71
1
 72
0
 73
0
 74
0
 75
0
 76
0
 77
1
 78
8
 79
2
170
0
171
1
172
0
173
0
174
0
175
0
176
0
177
0
178
0
270
2
179
2
271
2
272
2
273
2
274
2
275
0
280
0
281
0
282
0
283
1
284
8
285
0
286
0
287
3
288
0
340
11
278
44
341
21B
342
21B
343
21B
344
21B
  0
ENDTAB
  0
ENDSEC
  0
SECTION
  2
BLOCKS
  0
BLOCK
  5
20
100
AcDbEntity
  8
0
100
AcDbBlockBegin
  2
*Model_Space
 70
0
 10
0.0
 20
0.0
 30
0.0
  3
*Model_Space
  1

  0
ENDBLK
  5
21
100
AcDbEntity
  8
0
100
AcDbBlockEnd
  0
BLOCK
  5
1C
100
AcDbEntity
  8
0
100
AcDbBlockBegin
  2
*Paper_Space
 70
0
 10
0.0
 20
0.0
 30
0.0
  3
*Paper_Space
  1

  0
ENDBLK
  5
1D
100
AcDbEntity
  8
0
100
AcDbBlockEnd
  0
BLOCK
  5
21D
100
AcDbEntity
  8
0
100
AcDbBlockBegin
  2
_FILLED
 70
64
 10
0.0
 20
0.0
  3
_FILLED
  1

  0
SOLID
  5
21E
100
AcDbEntity
  8
0
  6
BYBLOCK
 62
0
100
AcDbTrace
 10
0.0
 20
0.0
 11
-1.0
 21
0.3166666667
 12
-1.0
 22
-0.3166666667
 13
-1.0
 23
-0.3166666667
  0
ENDBLK
  5
21F
100
AcDbEntity
  8
0
  6
BYBLOCK
 62
0
100
AcDbBlockEnd
  0
ENDSEC
  0
SECTION
  2
ENTITIES
  0
LINE
  5
220
100
AcDbEntity
  8
RACCORDO
100
AcDbLine
 62
7
  6
CONTINUOUS
 10
-45.5699252464
 20
-29.9779065766
 11
-44.6504037329
 21
-29.7315215296
  0
LINE
  5
221
100
AcDbEntity
  8
RACCORDO
100
AcDbLine
 62
250
  6
CONTINUOUS
 10
-44.5087315286
 20
-29.5400625338
 11
-44.4792353906
 21
-29.5321590674
  0
LWPOLYLINE
  5
222
100
AcDbEntity
  8
TRASH
100
AcDbPolyline
 62
7
  6
CONTINUOUS
 90
10
 70
0
 10
-44.0521106997
 20
-30.0399011516
 10
-43.9865493753
 20
-30.0377044962
 10
-43.9218103912
 20
-30.0313564585
 10
-43.8578937474
 20
-30.0208570384
 10
-43.7945360474
 20
-30.006126707
 10
-43.7320006878
 20
-29.9872449931
 10
-43.6710778581
 20
-29.9644504841
 10
-43.6120309551
 20
-29.9378227089
 10
-43.554596582
 20
-29.9072821386
 10
-43.498774739
 20
-29.8728287731
  0
LINE
  5
223
100
AcDbEntity
  8
TRASH
100
AcDbLine
 62
7
  6
CONTINUOUS
 10
-51.3807592528
 20
-30.1097214113
 11
-44.0310442965
 21
-30.1097214113
  0
LINE
  5
224
100
AcDbEntity
  8
TRASH
100
AcDbLine
 62
7
  6
CONTINUOUS
 10
-51.0692461383
 20
-30.0765567879
 11
-44.342557411
 21
-30.0765567879
  0
LINE
  5
225
100
AcDbEntity
  8
TRASH
100
AcDbLine
 62
7
  6
CONTINUOUS
 10
-51.3596928496
 20
-30.0399011516
 11
-51.1059017747
 21
-30.0399011516
  0
LINE
  5
226
100
AcDbEntity
  8
TRASH
100
AcDbLine
 62
7
  6
CONTINUOUS
 10
-44.3059017747
 20
-30.0399011516
 11
-44.0521106997
 21
-30.0399011516
  0
LINE
  5
227
100
AcDbEntity
  8
RACCORDO
100
AcDbLine
 62
7
  6
CONTINUOUS
 10
-49.7901144939
 20
-29.9847214113
 11
-45.6216890554
 21
-29.9847214113
  0
LINE
  5
228
100
AcDbEntity
  8
TRASH
100
AcDbLine
 62
7
  6
CONTINUOUS
 10
-51.0692461383
 20
-29.1097214113
 11
-50.9325681587
 21
-29.1097214113
  0
LINE
  5
229
100
AcDbEntity
  8
TRASH
100
AcDbLine
 62
7
  6
CONTINUOUS
 10
-44.4792353906
 20
-29.1097214113
 11
-44.342557411
 21
-29.1097214113
  0
LINE
  5
22A
100
AcDbEntity
  8
TRASH
100
AcDbLine
 62
7
  6
CONTINUOUS
 10
-58.3562823744
 20
-29.0097214113
 11
-53.2504043976
 21
-29.0097214113
  0
LINE
  5
22B
100
AcDbEntity
  8
TRASH
100
AcDbLine
 62
7
  6
CONTINUOUS
 10
-51.0907740517
 20
-29.0097214113
 11
-51.0059017747
 21
-29.0097214113
  0
LINE
  5
22C
100
AcDbEntity
  8
TRASH
100
AcDbLine
 62
7
  6
CONTINUOUS
 10
-44.4059017747
 20
-29.0097214113
 11
-44.3210294976
 21
-29.0097214113
  0
LINE
  5
22D
100
AcDbEntity
  8
TRASH
100
AcDbLine
 62
7
  6
CONTINUOUS
 10
-42.1613991518
 20
-29.0097214113
 11
-37.0555211749
 21
-29.0097214113
  0
LWPOLYLINE
  5
22E
100
AcDbEntity
  8
TRASH
100
AcDbPolyline
 62
7
  6
CONTINUOUS
 90
10
 70
0
 10
-51.3807592528
 20
-30.1097214113
 10
-51.4462321742
 20
-30.1075307993
 10
-51.5108860163
 20
-30.1011996093
 10
-51.5747207793
 20
-30.0907278412
 10
-51.6379988426
 20
-30.0760363849
 10
-51.7004578267
 20
-30.0572043506
 10
-51.7613105928
 20
-30.0344690688
 10
-51.8202947613
 20
-30.0079096496
 10
-51.8776727119
 20
-29.9774469829
 10
-51.9334444444
 20
-29.9430810688
  0
LINE
  5
22F
100
AcDbEntity
  8
RACCORDO
100
AcDbLine
 62
7
  6
CONTINUOUS
 10
-50.7613998164
 20
-29.7315215296
 11
-49.8418783029
 21
-29.9779065766
  0
LINE
  5
230
100
AcDbEntity
  8
RACCORDO
100
AcDbLine
 62
250
  6
CONTINUOUS
 10
-50.9325681587
 20
-29.5321590674
 11
-50.9030720208
 21
-29.5400625338
  0
LINE
  5
231
100
AcDbEntity
  8
RACCORDO
100
AcDbLine
 62
7
  6
CONTINUOUS
 10
-54.5583629557
 20
14.6589918695
 11
-54.4943729423
 21
14.7138697112
  0
LINE
  5
232
100
AcDbEntity
  8
RACCORDO
100
AcDbLine
 62
7
  6
CONTINUOUS
 10
-54.4943729423
 20
14.7138697112
 11
-54.4081450823
 21
14.7868180413
  0
LWPOLYLINE
  5
233
100
AcDbEntity
  8
RACCORDO
100
AcDbPolyline
 62
250
  6
CONTINUOUS
 90
19
 70
0
 10
-54.7805923951
 20
14.4641738124
 10
-54.7613927893
 20
14.4800475692
 10
-54.7419621626
 20
14.4945651793
 10
-54.7224034384
 20
14.5077689441
 10
-54.702829214
 20
14.5196965517
 10
-54.6833116232
 20
14.5304113842
 10
-54.6638782126
 20
14.5399940464
 10
-54.6445966938
 20
14.5484974928
 10
-54.6255348769
 20
14.5559741174
 10
-54.6067053098
 20
14.5624947885
 10
-54.5881603928
 20
14.5681108576
 10
-54.5699455354
 20
14.5728752889
 10
-54.5520516043
 20
14.5768516759
 10
-54.5345162891
 20
14.5800877468
 10
-54.5173698408
 20
14.5826320886
 10
-54.5005836937
 20
14.5845383336
 10
-54.4841630847
 20
14.5858498479
 10
-54.4681481756
 20
14.5866060693
 10
-54.4525574482
 20
14.5868485023
  0
LWPOLYLINE
  5
234
100
AcDbEntity
  8
RACCORDO
100
AcDbPolyline
 62
250
  6
CONTINUOUS
 90
7
 70
0
 10
-56.1441636477
 20
12.8190401004
 10
-56.159204189
 20
12.8090880215
 10
-56.1712063518
 20
12.8009245768
 10
-56.1803893385
 20
12.7944978192
 10
-56.1868262165
 20
12.7897769195
 10
-56.1904439184
 20
12.7867370693
 10
-56.1912424442
 20
12.7853427278
  0
LWPOLYLINE
  5
235
100
AcDbEntity
  8
RACCORDO
100
AcDbPolyline
 62
250
  6
CONTINUOUS
 90
3
 70
0
 10
-56.0805925515
 20
12.8599561144
 10
-56.104884697
 20
12.8444807224
 10
-56.1441636477
 20
12.8190401004
  0
LINE
  5
236
100
AcDbEntity
  8
RACCORDO
100
AcDbLine
 62
250
  6
CONTINUOUS
 10
-56.0225212986
 20
12.8963758034
 11
-56.0805925515
 21
12.8599561144
  0
LWPOLYLINE
  5
237
100
AcDbEntity
  8
TRASH
100
AcDbPolyline
 62
7
  6
CONTINUOUS
 90
10
 70
0
 10
-51.9130288104
 20
16.6533859505
 10
-51.8572069673
 20
16.687839316
 10
-51.7997725943
 20
16.7183798863
 10
-51.7407256912
 20
16.7450076615
 10
-51.6798028616
 20
16.7678021705
 10
-51.6172675019
 20
16.7866838844
 10
-51.5539098019
 20
16.8014142159
 10
-51.4899931581
 20
16.8119136359
 10
-51.4252541741
 20
16.8182616736
 10
-51.3596928496
 20
16.820458329
  0
LINE
  5
238
100
AcDbEntity
  8
RACCORDO
100
AcDbLine
 62
250
  6
CONTINUOUS
 10
-55.9520317084
 20
12.9399032245
 11
-56.0225212986
 21
12.8963758034
  0
LINE
  5
239
100
AcDbEntity
  8
RACCORDO
100
AcDbLine
 62
250
  6
CONTINUOUS
 10
-55.8691584568
 20
12.9902613676
 11
-55.9520317084
 21
12.9399032245
  0
LINE
  5
23A
100
AcDbEntity
  8
RACCORDO
100
AcDbLine
 62
7
  6
CONTINUOUS
 10
-51.0690562399
 20
-27.8062913249
 11
-51.0045543037
 21
-27.8002866023
  0
LINE
  5
23B
100
AcDbEntity
  8
RACCORDO
100
AcDbLine
 62
7
  6
CONTINUOUS
 10
-50.8059017747
 20
-27.7817933074
 11
-50.3613665001
 21
-27.740409883
  0
LWPOLYLINE
  5
23C
100
AcDbEntity
  8
RACCORDO
100
AcDbPolyline
 62
250
  6
CONTINUOUS
 90
10
 70
0
 10
-40.9839005634
 20
-27.740409883
 10
-40.9440434233
 20
-27.7388135619
 10
-40.9045734691
 20
-27.7340679407
 10
-40.8656644708
 20
-27.7262170716
 10
-40.8274339585
 20
-27.715282264
 10
-40.7901174897
 20
-27.7013123141
 10
-40.7540684409
 20
-27.6844360383
 10
-40.7195251933
 20
-27.6647778873
 10
-40.6866156729
 20
-27.642410295
 10
-40.6555262254
 20
-27.6174398091
  0
LINE
  5
23D
100
AcDbEntity
  8
TRASH
100
AcDbLine
 62
7
  6
CONTINUOUS
 10
-44.6059017747
 20
-28.8097214113
 11
-50.8059017747
 21
-28.8097214113
  0
LINE
  5
23E
100
AcDbEntity
  8
TRASH
100
AcDbLine
 62
7
  6
CONTINUOUS
 10
-50.8697107736
 20
-28.5847214113
 11
-50.8059017747
 21
-28.5847214113
  0
LINE
  5
23F
100
AcDbEntity
  8
TRASH
100
AcDbLine
 62
7
  6
CONTINUOUS
 10
-44.6059017747
 20
-28.5847214113
 11
-44.5420927757
 21
-28.5847214113
  0
LINE
  5
240
100
AcDbEntity
  8
TRASH
100
AcDbLine
 62
7
  6
CONTINUOUS
 10
-50.4226649937
 20
-28.265791913
 11
-44.9891385556
 21
-28.265791913
  0
LINE
  5
241
100
AcDbEntity
  8
RACCORDO
100
AcDbLine
 62
250
  6
CONTINUOUS
 10
-41.003658467
 20
-28.0062608639
 11
-44.3059017747
 21
-28.0062608639
  0
LINE
  5
242
100
AcDbEntity
  8
RACCORDO
100
AcDbLine
 62
250
  6
CONTINUOUS
 10
-51.1059017747
 20
-28.0062608639
 11
-54.4081450823
 21
-28.0062608639
  0
LINE
  5
243
100
AcDbEntity
  8
RACCORDO
100
AcDbLine
 62
250
  6
CONTINUOUS
 10
-40.9592461012
 20
-27.8062913249
 11
-44.3427473094
 21
-27.8062913249
  0
LINE
  5
244
100
AcDbEntity
  8
RACCORDO
100
AcDbLine
 62
250
  6
CONTINUOUS
 10
-51.0690562399
 20
-27.8062913249
 11
-54.4525574482
 21
-27.8062913249
  0
LINE
  5
245
100
AcDbEntity
  8
TRASH
100
AcDbLine
 62
7
  6
CONTINUOUS
 10
-51.0045543037
 20
-27.8002866023
 11
-50.8059017747
 21
-27.8002866023
  0
LINE
  5
246
100
AcDbEntity
  8
TRASH
100
AcDbLine
 62
7
  6
CONTINUOUS
 10
-44.6059017747
 20
-27.8002866023
 11
-44.4072492456
 21
-27.8002866023
  0
LINE
  5
247
100
AcDbEntity
  8
RACCORDO
100
AcDbLine
 62
250
  6
CONTINUOUS
 10
-40.9839004759
 20
-27.740409883
 11
-45.0504370493
 21
-27.740409883
  0
LINE
  5
248
100
AcDbEntity
  8
RACCORDO
100
AcDbLine
 62
250
  6
CONTINUOUS
 10
-50.3613665001
 20
-27.740409883
 11
-54.4279030734
 21
-27.740409883
  0
LINE
  5
249
100
AcDbEntity
  8
RACCORDO
100
AcDbLine
 62
250
  6
CONTINUOUS
 10
-40.9840753267
 20
-27.594039426
 11
-45.1150921469
 21
-27.594039426
  0
LINE
  5
24A
100
AcDbEntity
  8
RACCORDO
100
AcDbLine
 62
250
  6
CONTINUOUS
 10
-50.2967114024
 20
-27.594039426
 11
-54.4276613018
 21
-27.594039426
  0
LINE
  5
24B
100
AcDbEntity
  8
DRAFT
100
AcDbLine
 62
7
  6
CONTINUOUS
 10
-57.3559017747
 20
-27.5097214113
 11
-55.0848912166
 21
-27.5097214113
  0
LINE
  5
24C
100
AcDbEntity
  8
DRAFT
100
AcDbLine
 62
7
  6
CONTINUOUS
 10
-40.3269123327
 20
-27.5097214113
 11
-38.0559017747
 21
-27.5097214113
  0
LWPOLYLINE
  5
24D
100
AcDbEntity
  8
RACCORDO
100
AcDbPolyline
 62
250
  6
CONTINUOUS
 90
19
 70
0
 10
-54.4525574482
 20
-27.8062913249
 10
-54.4681481678
 20
-27.8060488922
 10
-54.4841630673
 20
-27.8052926715
 10
-54.5005836652
 20
-27.8039811589
 10
-54.5173697984
 20
-27.8020749167
 10
-54.5345162313
 20
-27.799530579
 10
-54.5520515331
 20
-27.796294513
 10
-54.5699454572
 20
-27.7923181303
 10
-54.5881603096
 20
-27.7875537036
 10
-54.6067052151
 20
-27.7819376418
 10
-54.6255347574
 20
-27.775416984
 10
-54.6445965437
 20
-27.7679403778
 10
-54.6638780396
 20
-27.7594369497
 10
-54.6833114324
 20
-27.7498543061
 10
-54.7028290126
 20
-27.7391394908
 10
-54.7224032515
 20
-27.7272118865
 10
-54.741962019
 20
-27.7140081038
 10
-54.761392709
 20
-27.6994904549
 10
-54.7805923951
 20
-27.683616635
  0
LWPOLYLINE
  5
24E
100
AcDbEntity
  8
RACCORDO
100
AcDbPolyline
 62
250
  6
CONTINUOUS
 90
10
 70
0
 10
-54.4279029859
 20
-27.740409883
 10
-54.4676666409
 20
-27.7388218646
 10
-54.5071783973
 20
-27.7340769407
 10
-54.5461879523
 20
-27.7262051698
 10
-54.5844481843
 20
-27.7152564187
 10
-54.6217167187
 20
-27.7013000466
 10
-54.6577574634
 20
-27.6844244657
 10
-54.6923421038
 20
-27.6647365811
 10
-54.72525155
 20
-27.6423611135
 10
-54.7562773239
 20
-27.6174398091
  0
LINE
  5
24F
100
AcDbEntity
  8
RACCORDO
100
AcDbLine
 62
7
  6
CONTINUOUS
 10
-45.0504370493
 20
-27.740409883
 11
-44.6059017747
 21
-27.7817933074
  0
LINE
  5
250
100
AcDbEntity
  8
RACCORDO
100
AcDbLine
 62
7
  6
CONTINUOUS
 10
-44.4072492456
 20
-27.8002866023
 11
-44.3427473094
 21
-27.8062913249
  0
LINE
  5
251
100
AcDbEntity
  8
RACCORDO
100
AcDbLine
 62
250
  6
CONTINUOUS
 10
-55.9520317068
 20
-26.1593460459
 11
-55.8691584568
 21
-26.2097041901
  0
LWPOLYLINE
  5
252
100
AcDbEntity
  8
TRASH
100
AcDbPolyline
 62
7
  6
CONTINUOUS
 90
10
 70
0
 10
-51.9130288104
 20
-29.8728287731
 10
-51.8572069673
 20
-29.9072821386
 10
-51.7997725943
 20
-29.9378227089
 10
-51.7407256912
 20
-29.9644504841
 10
-51.6798028616
 20
-29.9872449931
 10
-51.6172675019
 20
-30.006126707
 10
-51.5539098019
 20
-30.0208570384
 10
-51.4899931581
 20
-30.0313564585
 10
-51.4252541741
 20
-30.0377044962
 10
-51.3596928496
 20
-30.0399011516
  0
LINE
  5
253
100
AcDbEntity
  8
RACCORDO
100
AcDbLine
 62
250
  6
CONTINUOUS
 10
-56.0225212916
 20
-26.115818623
 11
-55.9520317068
 21
-26.1593460459
  0
LWPOLYLINE
  5
254
100
AcDbEntity
  8
RACCORDO
100
AcDbPolyline
 62
250
  6
CONTINUOUS
 90
3
 70
0
 10
-56.1048846911
 20
-26.063923543
 10
-56.0805925394
 20
-26.0793989331
 10
-56.0225212916
 20
-26.115818623
  0
LINE
  5
255
100
AcDbEntity
  8
RACCORDO
100
AcDbLine
 62
7
  6
CONTINUOUS
 10
-54.4081450823
 20
-28.0062608639
 11
-54.4944535963
 21
-27.9332437335
  0
LINE
  5
256
100
AcDbEntity
  8
RACCORDO
100
AcDbLine
 62
7
  6
CONTINUOUS
 10
-54.4944535963
 20
-27.9332437335
 11
-54.5585592944
 21
-27.8782653619
  0
LWPOLYLINE
  5
257
100
AcDbEntity
  8
TRASH
100
AcDbPolyline
 62
7
  6
CONTINUOUS
 90
10
 70
0
 10
-58.4252031981
 20
10.7497081579
 10
-58.5135407916
 20
10.6286066648
 10
-58.5919583361
 20
10.5027653367
 10
-58.6604558316
 20
10.3721841735
 10
-58.7193006117
 20
10.2360936532
 10
-58.7682253428
 20
10.0952632978
 10
-58.8064280246
 20
9.9520016737
 10
-58.8336413239
 20
9.8070783028
 10
-58.8501325739
 20
9.6597236632
 10
-58.8559017747
 20
9.5099377547
  0
LWPOLYLINE
  5
258
100
AcDbEntity
  8
RACCORDO
100
AcDbPolyline
 62
250
  6
CONTINUOUS
 90
10
 70
0
 10
-56.4395080779
 20
12.7613232571
 10
-56.4642368794
 20
12.7343686751
 10
-56.4857907049
 20
12.7106118781
 10
-56.504251167
 20
12.6900073327
 10
-56.5195879705
 20
12.6726082822
 10
-56.531849529
 20
12.6583776949
 10
-56.5412326716
 20
12.6471318073
 10
-56.5478057527
 20
12.6388115896
 10
-56.5515090976
 20
12.6334831551
 10
-56.5523450874
 20
12.6311481593
  0
LINE
  5
259
100
AcDbEntity
  8
RACCORDO
100
AcDbLine
 62
250
  6
CONTINUOUS
 10
-56.380374056
 20
12.8248760126
 11
-56.4395080779
 21
12.7613232571
  0
LINE
  5
25A
100
AcDbEntity
  8
RACCORDO
100
AcDbLine
 62
250
  6
CONTINUOUS
 10
-56.3086197156
 20
12.9007386327
 11
-56.380374056
 21
12.8248760126
  0
LINE
  5
25B
100
AcDbEntity
  8
RACCORDO
100
AcDbLine
 62
250
  6
CONTINUOUS
 10
-56.2241801427
 20
12.9886787937
 11
-56.3086197156
 21
12.9007386327
  0
LINE
  5
25C
100
AcDbEntity
  8
TRASH
100
AcDbLine
 62
7
  6
CONTINUOUS
 10
-51.1059017747
 20
16.820458329
 11
-51.0692461383
 21
16.8571139653
  0
LWPOLYLINE
  5
25D
100
AcDbEntity
  8
RACCORDO
100
AcDbPolyline
 62
250
  6
CONTINUOUS
 90
7
 70
0
 10
-54.7562763728
 20
14.3979953045
 10
-54.9934464747
 20
14.1841068225
 10
-55.233921349
 20
13.9620482274
 10
-55.4774735618
 20
13.7316475045
 10
-55.7238664361
 20
13.4927329078
 10
-55.9728538672
 20
13.2451333476
 10
-56.2241801427
 20
12.9886787937
  0
LWPOLYLINE
  5
25E
100
AcDbEntity
  8
RACCORDO
100
AcDbPolyline
 62
250
  6
CONTINUOUS
 90
7
 70
0
 10
-54.4276649573
 20
14.3745966034
 10
-54.661031894
 20
14.1647737951
 10
-54.8971516227
 20
13.9465910944
 10
-55.1360241433
 20
13.7200485013
 10
-55.3776494559
 20
13.4851460158
 10
-55.6220275604
 20
13.2418836379
 10
-55.8691584568
 20
12.9902613676
  0
LINE
  5
25F
100
AcDbEntity
  8
RACCORDO
100
AcDbLine
 62
7
  6
CONTINUOUS
 10
-54.7805923949
 20
14.4641738119
 11
-54.6897935717
 21
14.5444829389
  0
LINE
  5
260
100
AcDbEntity
  8
RACCORDO
100
AcDbLine
 62
7
  6
CONTINUOUS
 10
-54.6897935717
 20
14.5444829389
 11
-54.623562373
 21
14.6024718732
  0
LINE
  5
261
100
AcDbEntity
  8
RACCORDO
100
AcDbLine
 62
7
  6
CONTINUOUS
 10
-54.623562373
 20
14.6024718732
 11
-54.5583629557
 21
14.6589918695
  0
LWPOLYLINE
  5
262
100
AcDbEntity
  8
SMUSSO
100
AcDbPolyline
 62
7
  6
CONTINUOUS
 90
13
 70
0
 10
-44.5981891586
 20
-25.8116261591
 10
-44.5754105685
 20
-25.8102668977
 10
-44.5546202048
 20
-25.8088999468
 10
-44.5358182266
 20
-25.8075275769
 10
-44.5190126989
 20
-25.8061513748
 10
-44.5041955568
 20
-25.8047697538
 10
-44.4913427642
 20
-25.8033802238
 10
-44.480428809
 20
-25.8019819612
 10
-44.4714792032
 20
-25.8005757896
 10
-44.4645464469
 20
-25.7991616892
 10
-44.45964804
 20
-25.7977396536
 10
-44.4567664826
 20
-25.7963096893
 10
-44.4559017747
 20
-25.7948717962
  0
LINE
  5
263
100
AcDbEntity
  8
SMUSSO
100
AcDbLine
 62
7
  6
CONTINUOUS
 10
-44.6498096277
 20
-25.8143251243
 11
-44.5981891586
 21
-25.8116261591
  0
LWPOLYLINE
  5
264
100
AcDbEntity
  8
RACCORDO
100
AcDbPolyline
 62
250
  6
CONTINUOUS
 90
10
 70
0
 10
-39.3501252675
 20
-25.7023599521
 10
-39.304717923
 20
-25.7002982352
 10
-39.2598688198
 20
-25.6941435963
 10
-39.2158756783
 20
-25.6839840533
 10
-39.1726659269
 20
-25.6697835587
 10
-39.1308681164
 20
-25.6516964951
 10
-39.0915002121
 20
-25.6302498588
 10
-39.0546774846
 20
-25.6056993737
 10
-39.0199874374
 20
-25.5778325233
 10
-38.9873781158
 20
-25.5464395309
  0
LWPOLYLINE
  5
265
100
AcDbEntity
  8
RACCORDO
100
AcDbPolyline
 62
250
  6
CONTINUOUS
 90
10
 70
0
 10
-39.2205611051
 20
-26.0047855504
 10
-39.175788275
 20
-26.0027712803
 10
-39.131375195
 20
-25.9967563014
 10
-39.0876787248
 20
-25.986788944
 10
-39.045049966
 20
-25.9729492959
 10
-39.0038314411
 20
-25.9553485589
 10
-38.9643543414
 20
-25.9341281551
 10
-38.9269358659
 20
-25.9094585906
 10
-38.8918766724
 20
-25.8815380857
 10
-38.8594584619
 20
-25.8505909819
  0
LINE
  5
266
100
AcDbEntity
  8
SMUSSO
100
AcDbLine
 62
7
  6
CONTINUOUS
 10
-44.7088985016
 20
-25.8169683085
 11
-44.6498096277
 21
-25.8143251243
  0
LINE
  5
267
100
AcDbEntity
  8
SMUSSO
100
AcDbLine
 62
7
  6
CONTINUOUS
 10
-44.7752804738
 20
-25.8195478768
 11
-44.7088985016
 21
-25.8169683085
  0
LINE
  5
268
100
AcDbEntity
  8
SMUSSO
100
AcDbLine
 62
7
  6
CONTINUOUS
 10
-44.8884230993
 20
-25.823300499
 11
-44.7752804738
 21
-25.8195478768
  0
LINE
  5
269
100
AcDbEntity
  8
SMUSSO
100
AcDbLine
 62
7
  6
CONTINUOUS
 10
-45.0181162063
 20
-25.826915831
 11
-44.8884230993
 21
-25.823300499
  0
LINE
  5
26A
100
AcDbEntity
  8
SMUSSO
100
AcDbLine
 62
7
  6
CONTINUOUS
 10
-45.2133471562
 20
-25.8314276506
 11
-45.0181162063
 21
-25.826915831
  0
LINE
  5
26B
100
AcDbEntity
  8
SMUSSO
100
AcDbLine
 62
7
  6
CONTINUOUS
 10
-45.492974231
 20
-25.8365701791
 11
-45.2133471562
 21
-25.8314276506
  0
LINE
  5
26C
100
AcDbEntity
  8
SMUSSO
100
AcDbLine
 62
7
  6
CONTINUOUS
 10
-45.9401170799
 20
-25.8426481631
 11
-45.492974231
 21
-25.8365701791
  0
LINE
  5
26D
100
AcDbEntity
  8
SMUSSO
100
AcDbLine
 62
7
  6
CONTINUOUS
 10
-46.5164616041
 20
-25.8478161292
 11
-45.9401170799
 21
-25.8426481631
  0
LINE
  5
26E
100
AcDbEntity
  8
SMUSSO
100
AcDbLine
 62
7
  6
CONTINUOUS
 10
-47.3009828987
 20
-25.8513094162
 11
-46.5164616041
 21
-25.8478161292
  0
LINE
  5
26F
100
AcDbEntity
  8
DRAFT
100
AcDbLine
 62
7
  6
CONTINUOUS
 10
-57.2197522682
 20
-27.1009407329
 11
-55.5374209474
 21
-27.1009407329
  0
LINE
  5
270
100
AcDbEntity
  8
DRAFT
100
AcDbLine
 62
7
  6
CONTINUOUS
 10
-39.8743826019
 20
-27.1009407329
 11
-38.1920512811
 21
-27.1009407329
  0
LINE
  5
271
100
AcDbEntity
  8
RACCORDO
100
AcDbLine
 62
250
  6
CONTINUOUS
 10
-39.5426450926
 20
-26.2097041901
 11
-55.8691584568
 21
-26.2097041901
  0
LINE
  5
272
100
AcDbEntity
  8
RACCORDO
100
AcDbLine
 62
250
  6
CONTINUOUS
 10
-39.2205611051
 20
-26.0047855504
 11
-56.1912424442
 21
-26.0047855504
  0
LINE
  5
273
100
AcDbEntity
  8
RACCORDO
100
AcDbLine
 62
250
  6
CONTINUOUS
 10
-56.0616782451
 20
-25.7023599521
 11
-50.9559017747
 21
-25.7023599521
  0
LINE
  5
274
100
AcDbEntity
  8
RACCORDO
100
AcDbLine
 62
250
  6
CONTINUOUS
 10
-44.4559017747
 20
-25.7023599521
 11
-39.3501253043
 21
-25.7023599521
  0
LINE
  5
275
100
AcDbEntity
  8
SMUSSO
100
AcDbLine
 62
7
  6
CONTINUOUS
 10
-48.1108206506
 20
-25.8513094162
 11
-47.3009828987
 21
-25.8513094162
  0
LINE
  5
276
100
AcDbEntity
  8
SMUSSO
100
AcDbLine
 62
7
  6
CONTINUOUS
 10
-48.8953419452
 20
-25.8478161292
 11
-48.1108206506
 21
-25.8513094162
  0
LINE
  5
277
100
AcDbEntity
  8
SMUSSO
100
AcDbLine
 62
7
  6
CONTINUOUS
 10
-49.4716864694
 20
-25.8426481631
 11
-48.8953419452
 21
-25.8478161292
  0
LINE
  5
278
100
AcDbEntity
  8
SMUSSO
100
AcDbLine
 62
7
  6
CONTINUOUS
 10
-49.9188293183
 20
-25.8365701791
 11
-49.4716864694
 21
-25.8426481631
  0
LINE
  5
279
100
AcDbEntity
  8
SMUSSO
100
AcDbLine
 62
7
  6
CONTINUOUS
 10
-50.1984563931
 20
-25.8314276506
 11
-49.9188293183
 21
-25.8365701791
  0
LINE
  5
27A
100
AcDbEntity
  8
SMUSSO
100
AcDbLine
 62
7
  6
CONTINUOUS
 10
-50.393687343
 20
-25.826915831
 11
-50.1984563931
 21
-25.8314276506
  0
LINE
  5
27B
100
AcDbEntity
  8
SMUSSO
100
AcDbLine
 62
7
  6
CONTINUOUS
 10
-50.52338045
 20
-25.823300499
 11
-50.393687343
 21
-25.826915831
  0
LINE
  5
27C
100
AcDbEntity
  8
SMUSSO
100
AcDbLine
 62
7
  6
CONTINUOUS
 10
-50.6365230755
 20
-25.8195478768
 11
-50.52338045
 21
-25.823300499
  0
LINE
  5
27D
100
AcDbEntity
  8
SMUSSO
100
AcDbLine
 62
7
  6
CONTINUOUS
 10
-50.7029050477
 20
-25.8169683085
 11
-50.6365230755
 21
-25.8195478768
  0
LWPOLYLINE
  5
27E
100
AcDbEntity
  8
RACCORDO
100
AcDbPolyline
 62
250
  6
CONTINUOUS
 90
10
 70
0
 10
-56.1912424442
 20
-26.0047866258
 10
-56.2360150446
 20
-26.0027721739
 10
-56.2804278766
 20
-25.9967569324
 10
-56.3241240747
 20
-25.9867892351
 10
-56.3667525316
 20
-25.9729491742
 10
-56.4079707197
 20
-25.9553479575
 10
-56.4474474431
 20
-25.9341270141
 10
-56.4848654988
 20
-25.9094568584
 10
-56.5199242258
 20
-25.8815357197
 10
-56.5523419205
 20
-25.8505879499
  0
LWPOLYLINE
  5
27F
100
AcDbEntity
  8
RACCORDO
100
AcDbPolyline
 62
250
  6
CONTINUOUS
 90
10
 70
0
 10
-56.0616782819
 20
-25.7023599521
 10
-56.1070856263
 20
-25.7002982352
 10
-56.1519347295
 20
-25.6941435963
 10
-56.195927871
 20
-25.6839840533
 10
-56.2391376224
 20
-25.6697835587
 10
-56.2809354329
 20
-25.6516964951
 10
-56.3203033372
 20
-25.6302498588
 10
-56.3571260648
 20
-25.6056993737
 10
-56.3918161119
 20
-25.5778325233
 10
-56.4244254335
 20
-25.5464395309
  0
LINE
  5
280
100
AcDbEntity
  8
SMUSSO
100
AcDbLine
 62
7
  6
CONTINUOUS
 10
-50.7619939216
 20
-25.8143251243
 11
-50.7029050477
 21
-25.8169683085
  0
LINE
  5
281
100
AcDbEntity
  8
RACCORDO
100
AcDbLine
 62
7
  6
CONTINUOUS
 10
-54.5585592944
 20
-27.8782653619
 11
-54.6238295868
 21
-27.8216818459
  0
LINE
  5
282
100
AcDbEntity
  8
RACCORDO
100
AcDbLine
 62
7
  6
CONTINUOUS
 10
-54.6238295868
 20
-27.8216818459
 11
-54.6900359774
 21
-27.7637125445
  0
LINE
  5
283
100
AcDbEntity
  8
RACCORDO
100
AcDbLine
 62
7
  6
CONTINUOUS
 10
-54.6900359774
 20
-27.7637125445
 11
-54.7805923949
 21
-27.6836166345
  0
LINE
  5
284
100
AcDbEntity
  8
TRASH
100
AcDbLine
 62
7
  6
CONTINUOUS
 10
-51.1059017747
 20
-30.0399011516
 11
-51.0692461383
 21
-30.0765567879
  0
LWPOLYLINE
  5
285
100
AcDbEntity
  8
RACCORDO
100
AcDbPolyline
 62
250
  6
CONTINUOUS
 90
7
 70
0
 10
-55.8691584568
 20
-26.2097041901
 10
-55.6218217542
 20
-26.4615240107
 10
-55.3773199224
 20
-26.7049049188
 10
-55.1356529612
 20
-26.9398469143
 10
-54.8968208707
 20
-27.1663499974
 10
-54.6608236509
 20
-27.3844141679
 10
-54.4276613018
 20
-27.594039426
  0
LWPOLYLINE
  5
286
100
AcDbEntity
  8
RACCORDO
100
AcDbPolyline
 62
250
  6
CONTINUOUS
 90
7
 70
0
 10
-56.2241801427
 20
-26.2081216163
 10
-55.9726491118
 20
-26.4647822765
 10
-55.7235346427
 20
-26.7125013881
 10
-55.4770957508
 20
-26.9514521106
 10
-55.233581622
 20
-27.1818086042
 10
-54.9932317989
 20
-27.4037456155
 10
-54.7562763732
 20
-27.6174380801
  0
LINE
  5
287
100
AcDbEntity
  8
RACCORDO
100
AcDbLine
 62
250
  6
CONTINUOUS
 10
-56.3086197634
 20
-26.1201814083
 11
-56.2241801427
 21
-26.2081216163
  0
LINE
  5
288
100
AcDbEntity
  8
RACCORDO
100
AcDbLine
 62
250
  6
CONTINUOUS
 10
-56.3803740826
 20
-26.044318809
 11
-56.3086197634
 21
-26.1201814083
  0
LWPOLYLINE
  5
289
100
AcDbEntity
  8
TRASH
100
AcDbPolyline
 62
7
  6
CONTINUOUS
 90
10
 70
0
 10
-58.4252031981
 20
-23.9691509804
 10
-58.5135407916
 20
-23.8480494874
 10
-58.5919583361
 20
-23.7222081592
 10
-58.6604558316
 20
-23.5916269961
 10
-58.7193006117
 20
-23.4555364758
 10
-58.7682253428
 20
-23.3147061204
 10
-58.8064280246
 20
-23.1714444963
 10
-58.8336413239
 20
-23.0265211254
 10
-58.8501325739
 20
-22.8791664858
 10
-58.8559017747
 20
-22.7293805773
  0
LWPOLYLINE
  5
28A
100
AcDbEntity
  8
RACCORDO
100
AcDbPolyline
 62
250
  6
CONTINUOUS
 90
13
 70
0
 10
-57.9369329145
 20
10.5922125338
 10
-58.0047817549
 20
10.5024145038
 10
-58.0674625472
 20
10.4089559391
 10
-58.1247791793
 20
10.3121342634
 10
-58.1765505939
 20
10.2122616001
 10
-58.2226179985
 20
10.1096511783
 10
-58.2628429231
 20
10.0046152266
 10
-58.2970978412
 20
9.8974882954
 10
-58.3252756804
 20
9.7886071358
 10
-58.3472912711
 20
9.6782952567
 10
-58.3630726197
 20
9.566893961
 10
-58.3725650086
 20
9.4547622433
 10
-58.3757351727
 20
9.3422548209
  0
LWPOLYLINE
  5
28B
100
AcDbEntity
  8
RACCORDO
100
AcDbPolyline
 62
250
  6
CONTINUOUS
 90
13
 70
0
 10
-57.5467096313
 20
10.2797231055
 10
-57.5976481201
 20
10.2123107923
 10
-57.6445102908
 20
10.142474744
 10
-57.6872961434
 20
10.0702149606
 10
-57.7261466584
 20
9.9952414469
 10
-57.7609208554
 20
9.9178441982
 10
-57.7911957927
 20
9.8388931992
 10
-57.8168935918
 20
9.7583837635
 10
-57.8380921312
 20
9.6763205777
 10
-57.8546021048
 20
9.5935876861
 10
-57.8663604107
 20
9.5104797702
 10
-57.8734301508
 20
9.4267021484
 10
-57.8758113251
 20
9.3422548209
  0
LWPOLYLINE
  5
28C
100
AcDbEntity
  8
RACCORDO
100
AcDbPolyline
 62
7
  6
CONTINUOUS
 90
5
 70
0
 10
-44.3427473094
 20
14.5868485023
 10
-44.3377509145
 20
14.5892789954
 10
-44.3330109323
 20
14.594737542
 10
-44.3285273627
 20
14.6032241421
 10
-44.324238842
 20
14.6149720266
  0
LWPOLYLINE
  5
28D
100
AcDbEntity
  8
SMUSSO
100
AcDbPolyline
 62
7
  6
CONTINUOUS
 90
13
 70
0
 10
-45.0783862059
 20
-25.3091207616
 10
-45.0589551316
 20
-25.3079712837
 10
-45.0412046215
 20
-25.3068152422
 10
-45.0251314139
 20
-25.3056545549
 10
-45.0107525637
 20
-25.304490564
 10
-44.9980500842
 20
-25.3033219273
 10
-44.9869862696
 20
-25.302146536
 10
-44.9775729441
 20
-25.3009636939
 10
-44.9698334685
 20
-25.2997740973
 10
-44.9637735424
 20
-25.2985777264
 10
-44.9594146026
 20
-25.2973745747
 10
-44.9567834635
 20
-25.2961646488
 10
-44.9559017747
 20
-25.2949479487
  0
LINE
  5
28E
100
AcDbEntity
  8
SMUSSO
100
AcDbLine
 62
7
  6
CONTINUOUS
 10
-45.1223420479
 20
-25.3114029942
 11
-45.0783862059
 21
-25.3091207616
  0
LINE
  5
28F
100
AcDbEntity
  8
SMUSSO
100
AcDbLine
 62
7
  6
CONTINUOUS
 10
-45.1726427979
 20
-25.3136378264
 11
-45.1223420479
 21
-25.3114029942
  0
LINE
  5
290
100
AcDbEntity
  8
SMUSSO
100
AcDbLine
 62
7
  6
CONTINUOUS
 10
-45.2290458515
 20
-25.3158186437
 11
-45.1726427979
 21
-25.3136378264
  0
LINE
  5
291
100
AcDbEntity
  8
SMUSSO
100
AcDbLine
 62
7
  6
CONTINUOUS
 10
-45.3250947377
 20
-25.3189907872
 11
-45.2290458515
 21
-25.3158186437
  0
LINE
  5
292
100
AcDbEntity
  8
SMUSSO
100
AcDbLine
 62
7
  6
CONTINUOUS
 10
-45.4350777373
 20
-25.3220464303
 11
-45.3250947377
 21
-25.3189907872
  0
LINE
  5
293
100
AcDbEntity
  8
SMUSSO
100
AcDbLine
 62
7
  6
CONTINUOUS
 10
-45.6004870076
 20
-25.3258591598
 11
-45.4350777373
 21
-25.3220464303
  0
LINE
  5
294
100
AcDbEntity
  8
SMUSSO
100
AcDbLine
 62
7
  6
CONTINUOUS
 10
-45.8371295532
 20
-25.3302040315
 11
-45.6004870076
 21
-25.3258591598
  0
LINE
  5
295
100
AcDbEntity
  8
SMUSSO
100
AcDbLine
 62
7
  6
CONTINUOUS
 10
-46.2151682939
 20
-25.335338105
 11
-45.8371295532
 21
-25.3302040315
  0
LINE
  5
296
100
AcDbEntity
  8
SMUSSO
100
AcDbLine
 62
7
  6
CONTINUOUS
 10
-46.7019825955
 20
-25.3397024947
 11
-46.2151682939
 21
-25.335338105
  0
LINE
  5
297
100
AcDbEntity
  8
SMUSSO
100
AcDbLine
 62
7
  6
CONTINUOUS
 10
-47.3642087806
 20
-25.3426520872
 11
-46.7019825955
 21
-25.3397024947
  0
LINE
  5
298
100
AcDbEntity
  8
RACCORDO
100
AcDbLine
 62
250
  6
CONTINUOUS
 10
-56.0616791452
 20
-25.2024361045
 11
-50.4646279779
 21
-25.2024361045
  0
LINE
  5
299
100
AcDbEntity
  8
RACCORDO
100
AcDbLine
 62
250
  6
CONTINUOUS
 10
-44.9471755714
 20
-25.2024361045
 11
-39.3501244286
 21
-25.2024361045
  0
LINE
  5
29A
100
AcDbEntity
  8
ASSI
100
AcDbLine
 62
7
  6
CONTINUOUS
 10
-50.4559017747
 20
-24.5097214113
 11
-44.9559017747
 21
-24.5097214113
  0
LINE
  5
29B
100
AcDbEntity
  8
SMUSSO
100
AcDbLine
 62
7
  6
CONTINUOUS
 10
-48.0475947687
 20
-25.3426520872
 11
-47.3642087806
 21
-25.3426520872
  0
LINE
  5
29C
100
AcDbEntity
  8
SMUSSO
100
AcDbLine
 62
7
  6
CONTINUOUS
 10
-48.7098209539
 20
-25.3397024947
 11
-48.0475947687
 21
-25.3426520872
  0
LINE
  5
29D
100
AcDbEntity
  8
SMUSSO
100
AcDbLine
 62
7
  6
CONTINUOUS
 10
-49.1966352554
 20
-25.335338105
 11
-48.7098209539
 21
-25.3397024947
  0
LINE
  5
29E
100
AcDbEntity
  8
SMUSSO
100
AcDbLine
 62
7
  6
CONTINUOUS
 10
-49.5746739962
 20
-25.3302040315
 11
-49.1966352554
 21
-25.335338105
  0
LINE
  5
29F
100
AcDbEntity
  8
SMUSSO
100
AcDbLine
 62
7
  6
CONTINUOUS
 10
-49.8113165417
 20
-25.3258591598
 11
-49.5746739962
 21
-25.3302040315
  0
LINE
  5
2A0
100
AcDbEntity
  8
SMUSSO
100
AcDbLine
 62
7
  6
CONTINUOUS
 10
-49.976725812
 20
-25.3220464303
 11
-49.8113165417
 21
-25.3258591598
  0
LINE
  5
2A1
100
AcDbEntity
  8
SMUSSO
100
AcDbLine
 62
7
  6
CONTINUOUS
 10
-50.0867088116
 20
-25.3189907872
 11
-49.976725812
 21
-25.3220464303
  0
LINE
  5
2A2
100
AcDbEntity
  8
SMUSSO
100
AcDbLine
 62
7
  6
CONTINUOUS
 10
-50.1827576978
 20
-25.3158186437
 11
-50.0867088116
 21
-25.3189907872
  0
LINE
  5
2A3
100
AcDbEntity
  8
SMUSSO
100
AcDbLine
 62
7
  6
CONTINUOUS
 10
-50.2391607514
 20
-25.3136378264
 11
-50.1827576978
 21
-25.3158186437
  0
LINE
  5
2A4
100
AcDbEntity
  8
SMUSSO
100
AcDbLine
 62
7
  6
CONTINUOUS
 10
-50.2894615015
 20
-25.3114029942
 11
-50.2391607514
 21
-25.3136378264
  0
LWPOLYLINE
  5
2A5
100
AcDbEntity
  8
RACCORDO
100
AcDbPolyline
 62
250
  6
CONTINUOUS
 90
10
 70
0
 10
-40.9839005634
 20
14.3745966034
 10
-40.9415007581
 20
14.3970219895
 10
-40.8986949691
 20
14.4144460778
 10
-40.8564812377
 20
14.426812006
 10
-40.8162698259
 20
14.4344622224
 10
-40.778542713
 20
14.4373594707
 10
-40.7428932091
 20
14.4349118013
 10
-40.7097742206
 20
14.4270958611
 10
-40.6804152771
 20
14.414613062
 10
-40.6555262254
 20
14.3979969865
  0
LINE
  5
2A6
100
AcDbEntity
  8
RACCORDO
100
AcDbLine
 62
250
  6
CONTINUOUS
 10
-37.5359922242
 20
-22.5616976435
 11
-37.0360683766
 21
-22.5616976435
  0
LINE
  5
2A7
100
AcDbEntity
  8
RACCORDO
100
AcDbLine
 62
250
  6
CONTINUOUS
 10
-57.8758113251
 20
-22.5616976435
 11
-58.3757351727
 21
-22.5616976415
  0
LWPOLYLINE
  5
2A8
100
AcDbEntity
  8
RACCORDO
100
AcDbPolyline
 62
250
  6
CONTINUOUS
 90
10
 70
0
 10
-40.9839005634
 20
-27.594039426
 10
-40.9415007642
 20
-27.6164648173
 10
-40.8986949797
 20
-27.6338889096
 10
-40.8564812514
 20
-27.6462548406
 10
-40.816269841
 20
-27.6539050584
 10
-40.778542728
 20
-27.6568023067
 10
-40.7428932226
 20
-27.6543546359
 10
-40.7097742311
 20
-27.6465386931
 10
-40.6804152831
 20
-27.6340558899
 10
-40.6555262254
 20
-27.6174398091
  0
LWPOLYLINE
  5
2A9
100
AcDbEntity
  8
RACCORDO
100
AcDbPolyline
 62
250
  6
CONTINUOUS
 90
8
 70
0
 10
-56.1912424442
 20
-26.0047855504
 10
-56.1904439171
 20
-26.0061798919
 10
-56.1868262151
 20
-26.009219742
 10
-56.1803893381
 20
-26.0139406418
 10
-56.1712063552
 20
-26.0203673998
 10
-56.1592041973
 20
-26.0285308452
 10
-56.1441636575
 20
-26.0384829244
 10
-56.1048846911
 20
-26.063923543
  0
LINE
  5
2AA
100
AcDbEntity
  8
0
100
AcDbLine
 62
7
  6
CONTINUOUS
 10
-50.9325681587
 20
15.9003349252
 11
-51.0059017747
 21
15.7902785887
  0
LWPOLYLINE
  5
2AB
100
AcDbEntity
  8
RACCORDO
100
AcDbPolyline
 62
250
  6
CONTINUOUS
 90
10
 70
0
 10
-39.5426450926
 20
12.9902613676
 10
-39.4952596621
 20
13.010830611
 10
-39.4485008088
 20
13.0264528363
 10
-39.4029868241
 20
13.0369214709
 10
-39.359319539
 20
13.0420980882
 10
-39.3180763652
 20
13.041914238
 10
-39.2798026606
 20
13.0363723513
 10
-39.2450045178
 20
13.0255457083
 10
-39.2141420722
 20
13.0095774696
 10
-39.1876234175
 20
12.988678783
  0
LINE
  5
2AC
100
AcDbEntity
  8
0
100
AcDbLine
 62
7
  6
CONTINUOUS
 10
-44.7941303423
 20
-20.0608326719
 11
-45.7877602799
 21
-20.3270750112
  0
LINE
  5
2AD
100
AcDbEntity
  8
ASSI
100
AcDbLine
 62
7
  6
CONTINUOUS
 10
-44.8260254851
 20
-20.0577524072
 11
-44.8595479346
 21
-20.0642323125
  0
LWPOLYLINE
  5
2AE
100
AcDbEntity
  8
ASSI
100
AcDbPolyline
 62
7
  6
CONTINUOUS
 90
5
 70
0
 10
-44.733787847
 20
-20.0400792555
 10
-44.7528207322
 20
-20.043532235
 10
-44.7715517987
 20
-20.0470468833
 10
-44.7899887784
 20
-20.0506020016
 10
-44.8260254851
 20
-20.0577524072
  0
LWPOLYLINE
  5
2AF
100
AcDbEntity
  8
ASSI
100
AcDbPolyline
 62
7
  6
CONTINUOUS
 90
18
 70
0
 10
-44.8595479346
 20
-20.0642323125
 10
-44.8913680308
 20
-20.0698152455
 10
-44.9215633247
 20
-20.0744801295
 10
-44.9503525074
 20
-20.0782363812
 10
-44.9776737275
 20
-20.0810435388
 10
-45.0031774449
 20
-20.0828227068
 10
-45.0269082944
 20
-20.0835765128
 10
-45.0489544377
 20
-20.0833395067
 10
-45.0690102288
 20
-20.0821154279
 10
-45.0870716465
 20
-20.0799429185
 10
-45.1032248679
 20
-20.0769151567
 10
-45.1172605147
 20
-20.0731516012
 10
-45.1290971428
 20
-20.0687218991
 10
-45.1388191429
 20
-20.0637705181
 10
-45.1464078124
 20
-20.05853413
 10
-45.1518156851
 20
-20.0531562958
 10
-45.1549967224
 20
-20.0477009123
 10
-45.1557971884
 20
-20.0445791912
  0
LINE
  5
2B0
100
AcDbEntity
  8
RACCORDO
100
AcDbLine
 62
250
  6
CONTINUOUS
 10
-47.6653200486
 20
-20.6213673219
 11
-47.4196157572
 21
-20.6165290364
  0
LINE
  5
2B1
100
AcDbEntity
  8
RACCORDO
100
AcDbLine
 62
250
  6
CONTINUOUS
 10
-52.1653200486
 20
-20.6213673219
 11
-51.9196155276
 21
-20.6165290319
  0
LINE
  5
2B2
100
AcDbEntity
  8
RACCORDO
100
AcDbLine
 62
250
  6
CONTINUOUS
 10
-42.4602274589
 20
-20.7097214113
 11
-42.9864862203
 21
-20.7097214113
  0
LINE
  5
2B3
100
AcDbEntity
  8
RACCORDO
100
AcDbLine
 62
250
  6
CONTINUOUS
 10
-52.425317329
 20
-20.7097214113
 11
-52.9515760904
 21
-20.7097214113
  0
LINE
  5
2B4
100
AcDbEntity
  8
RACCORDO
100
AcDbLine
 62
250
  6
CONTINUOUS
 10
-47.7464835007
 20
-20.6213673218
 11
-47.992189846
 21
-20.6165289959
  0
LINE
  5
2B5
100
AcDbEntity
  8
RACCORDO
100
AcDbLine
 62
250
  6
CONTINUOUS
 10
-43.2464835008
 20
-20.6213673217
 11
-43.4921908981
 21
-20.6165289752
  0
LINE
  5
2B6
100
AcDbEntity
  8
ASSI
100
AcDbLine
 62
7
  6
CONTINUOUS
 10
-50.5530997057
 20
-20.0640690037
 11
-50.5692737266
 21
-20.0610080156
  0
LINE
  5
2B7
100
AcDbEntity
  8
ASSI
100
AcDbLine
 62
7
  6
CONTINUOUS
 10
-50.6210779385
 20
-20.0507534011
 11
-50.6578085537
 21
-20.0437543538
  0
LINE
  5
2B8
100
AcDbEntity
  8
ASSI
100
AcDbLine
 62
7
  6
CONTINUOUS
 10
-50.5692737266
 20
-20.0610080156
 11
-50.6210779385
 21
-20.0507534011
  0
LINE
  5
2B9
100
AcDbEntity
  8
0
100
AcDbLine
 62
7
  6
CONTINUOUS
 10
-49.6240432694
 20
-20.3270750112
 11
-50.617673207
 21
-20.0608326719
  0
LWPOLYLINE
  5
2BA
100
AcDbEntity
  8
RACCORDO
100
AcDbPolyline
 62
250
  6
CONTINUOUS
 90
10
 70
0
 10
-39.5426450925
 20
-26.20970361
 10
-39.4952595886
 20
-26.2302729999
 10
-39.4485006479
 20
-26.2458954014
 10
-39.4029865568
 20
-26.2563642399
 10
-39.3593191414
 20
-26.2615410853
 10
-39.3180758092
 20
-26.2613574836
 10
-39.2798019145
 20
-26.2558158608
 10
-39.2450035474
 20
-26.244989492
 10
-39.2141408412
 20
-26.2290215316
 10
-39.1876218887
 20
-26.2081231208
  0
LINE
  5
2BB
100
AcDbEntity
  8
0
100
AcDbLine
 62
7
  6
CONTINUOUS
 10
-51.0059017747
 20
-29.0097214113
 11
-50.9325681587
 21
-29.1197777478
  0
LWPOLYLINE
  5
2BC
100
AcDbEntity
  8
RACCORDO
100
AcDbPolyline
 62
250
  6
CONTINUOUS
 90
11
 70
0
 10
-56.5523450874
 20
-25.8505909819
 10
-56.5515090949
 20
-25.8529259805
 10
-56.5478057493
 20
-25.8582544158
 10
-56.5412326693
 20
-25.8665746322
 10
-56.5318495327
 20
-25.8778205137
 10
-56.5195879823
 20
-25.8920510927
 10
-56.5042511799
 20
-25.9094501421
 10
-56.485790702
 20
-25.9300547034
 10
-56.4642368537
 20
-25.9538115235
 10
-56.4395080439
 20
-25.9807661139
 10
-56.3803740826
 20
-26.044318809
  0
LINE
  5
2BD
100
AcDbEntity
  8
0
100
AcDbLine
 62
7
  6
CONTINUOUS
 10
-54.8564386022
 20
8.543855343
 11
-55.0869470758
 21
8.0657517336
  0
LINE
  5
2BE
100
AcDbEntity
  8
0
100
AcDbLine
 62
7
  6
CONTINUOUS
 10
-54.1349692862
 20
10.0402785887
 11
-54.4053567876
 21
9.4794593559
  0
LWPOLYLINE
  5
2BF
100
AcDbEntity
  8
ASSI
100
AcDbPolyline
 62
7
  6
CONTINUOUS
 90
6
 70
0
 10
-50.2664143304
 20
6.807311221
 10
-50.2730774224
 20
6.8037291661
 10
-50.281360128
 20
6.8006426826
 10
-50.2912872624
 20
6.7980354036
 10
-50.3029459853
 20
6.7958723796
 10
-50.3162905124
 20
6.794137558
  0
LWPOLYLINE
  5
2C0
100
AcDbEntity
  8
RACCORDO
100
AcDbPolyline
 62
250
  6
CONTINUOUS
 90
3
 70
0
 10
-37.4748706352
 20
10.5922125335
 10
-37.0676586111
 20
10.7236566388
 10
-36.9866003512
 20
10.7497081579
  0
LWPOLYLINE
  5
2C1
100
AcDbEntity
  8
ASSI
100
AcDbPolyline
 62
250
  6
CONTINUOUS
 90
3
 70
0
 10
-50.0963102881
 20
-20.0097214113
 10
-50.0974757855
 20
-20.0099182931
 10
-50.1029437157
 20
-20.0105280298
  0
LINE
  5
2C2
100
AcDbEntity
  8
ASSI
100
AcDbLine
 62
250
  6
CONTINUOUS
 10
-50.1029437157
 20
-20.0105280298
 11
-50.1474878957
 21
-20.0150527164
  0
LINE
  5
2C3
100
AcDbEntity
  8
ASSI
100
AcDbLine
 62
250
  6
CONTINUOUS
 10
-50.1474878957
 20
-20.0150527164
 11
-50.2664143304
 21
-20.0267540436
  0
LINE
  5
2C4
100
AcDbEntity
  8
ASSI
100
AcDbLine
 62
250
  6
CONTINUOUS
 10
-50.5857780643
 20
-20.0577524072
 11
-50.617673207
 21
-20.0608326719
  0
LWPOLYLINE
  5
2C5
100
AcDbEntity
  8
ASSI
100
AcDbPolyline
 62
7
  6
CONTINUOUS
 90
7
 70
0
 10
-45.0955130369
 20
-20.0135803805
 10
-45.0806800416
 20
-20.012253498
 10
-45.0643173515
 20
-20.0112746821
 10
-45.0464848088
 20
-20.0105871986
 10
-45.0275708
 20
-20.0101426381
 10
-45.0077366772
 20
-20.0098830424
 10
-44.9868987124
 20
-20.009756105
  0
LINE
  5
2C6
100
AcDbEntity
  8
0
100
AcDbLine
 62
7
  6
CONTINUOUS
 10
-50.4091815778
 20
-20.0097214113
 11
-49.4559017747
 21
-20.0097214113
  0
LINE
  5
2C7
100
AcDbEntity
  8
0
100
AcDbLine
 62
7
  6
CONTINUOUS
 10
-45.9559017747
 20
-20.0097214113
 11
-45.0026219715
 21
-20.0097214113
  0
LINE
  5
2C8
100
AcDbEntity
  8
ASSI
100
AcDbLine
 62
7
  6
CONTINUOUS
 10
-44.9868987124
 20
-20.009756105
 11
-44.4559017747
 21
-20.0097214113
  0
LINE
  5
2C9
100
AcDbEntity
  8
0
100
AcDbLine
 62
250
  6
CONTINUOUS
 10
-51.0684669438
 20
-19.9597214113
 11
-49.4559017747
 21
-19.9597214113
  0
LINE
  5
2CA
100
AcDbEntity
  8
0
100
AcDbLine
 62
250
  6
CONTINUOUS
 10
-45.9559017747
 20
-19.9597214113
 11
-44.3433366055
 21
-19.9597214113
  0
LINE
  5
2CB
100
AcDbEntity
  8
0
100
AcDbLine
 62
7
  6
CONTINUOUS
 10
-51.6944138875
 20
-18.8097214113
 11
-51.2059017747
 21
-18.8097214113
  0
LINE
  5
2CC
100
AcDbEntity
  8
0
100
AcDbLine
 62
7
  6
CONTINUOUS
 10
-44.2059017747
 20
-18.8097214113
 11
-43.7173896618
 21
-18.8097214113
  0
LINE
  5
2CD
100
AcDbEntity
  8
RACCORDO
100
AcDbLine
 62
250
  6
CONTINUOUS
 10
-42.4602274589
 20
-18.6097214113
 11
-42.9864862203
 21
-18.6097214113
  0
LINE
  5
2CE
100
AcDbEntity
  8
RACCORDO
100
AcDbLine
 62
250
  6
CONTINUOUS
 10
-43.2279805365
 20
-18.6097214113
 11
-43.7059017747
 21
-18.6097214113
  0
LINE
  5
2CF
100
AcDbEntity
  8
RACCORDO
100
AcDbLine
 62
250
  6
CONTINUOUS
 10
-47.2059017747
 20
-18.6097214113
 11
-47.6838230115
 21
-18.6097214115
  0
LINE
  5
2D0
100
AcDbEntity
  8
RACCORDO
100
AcDbLine
 62
250
  6
CONTINUOUS
 10
-47.7279805365
 20
-18.6097214113
 11
-48.2059017747
 21
-18.6097214113
  0
LINE
  5
2D1
100
AcDbEntity
  8
RACCORDO
100
AcDbLine
 62
250
  6
CONTINUOUS
 10
-51.7059017747
 20
-18.6097214113
 11
-52.1838230121
 21
-18.6097214115
  0
LINE
  5
2D2
100
AcDbEntity
  8
RACCORDO
100
AcDbLine
 62
250
  6
CONTINUOUS
 10
-52.425317329
 20
-18.6097214113
 11
-52.9515760904
 21
-18.6097214113
  0
LWPOLYLINE
  5
2D3
100
AcDbEntity
  8
ASSI
100
AcDbPolyline
 62
7
  6
CONTINUOUS
 90
6
 70
0
 10
-50.9559017747
 20
-20.0097214113
 10
-50.4176524265
 20
-20.0097871933
 10
-50.3905131486
 20
-20.0100408144
 10
-50.3653770461
 20
-20.0105845761
 10
-50.3420517505
 20
-20.011560262
 10
-50.3208883905
 20
-20.0131204237
  0
LINE
  5
2D4
100
AcDbEntity
  8
ASSI
100
AcDbLine
 62
250
  6
CONTINUOUS
 10
-44.8260254851
 20
-20.0577524072
 11
-44.7941303423
 21
-20.0608326719
  0
LWPOLYLINE
  5
2D5
100
AcDbEntity
  8
ASSI
100
AcDbPolyline
 62
7
  6
CONTINUOUS
 90
5
 70
0
 10
-50.3208883905
 20
-20.0131204237
 10
-50.3027028281
 20
-20.0153499667
 10
-50.2877183791
 20
-20.0183053933
 10
-50.2756379547
 20
-20.0220876202
 10
-50.2664143304
 20
-20.0267540436
  0
LWPOLYLINE
  5
2D6
100
AcDbEntity
  8
ASSI
100
AcDbPolyline
 62
250
  6
CONTINUOUS
 90
5
 70
0
 10
-45.3154932612
 20
-20.0097214113
 10
-45.3143277638
 20
-20.0099182931
 10
-45.3088598337
 20
-20.0105280298
 10
-45.2988378706
 20
-20.0115742021
 10
-45.1453892189
 20
-20.0267540436
  0
LINE
  5
2D7
100
AcDbEntity
  8
RACCORDO
100
AcDbLine
 62
250
  6
CONTINUOUS
 10
-37.4748706352
 20
-23.8116553561
 11
-36.9866003512
 21
-23.9691509804
  0
LWPOLYLINE
  5
2D8
100
AcDbEntity
  8
ASSI
100
AcDbPolyline
 62
7
  6
CONTINUOUS
 90
7
 70
0
 10
-50.2664143304
 20
-20.0267540436
 10
-50.2631945692
 20
-20.0290933601
 10
-50.2605752737
 20
-20.0315412473
 10
-50.2585464454
 20
-20.0340908289
 10
-50.2570980264
 20
-20.0367345337
 10
-50.2562198809
 20
-20.0394641179
 10
-50.2559017747
 20
-20.0422706886
  0
LWPOLYLINE
  5
2D9
100
AcDbEntity
  8
SMUSSO
100
AcDbPolyline
 62
7
  6
CONTINUOUS
 90
14
 70
0
 10
-50.4559017747
 20
-25.2949479487
 10
-50.4550200858
 20
-25.2961646488
 10
-50.4523889467
 20
-25.2973745747
 10
-50.4480300069
 20
-25.2985777264
 10
-50.4419700808
 20
-25.2997740973
 10
-50.4342306053
 20
-25.3009636939
 10
-50.4248172797
 20
-25.302146536
 10
-50.4137534652
 20
-25.3033219273
 10
-50.4010509856
 20
-25.304490564
 10
-50.3866721354
 20
-25.3056545549
 10
-50.3705989279
 20
-25.3068152422
 10
-50.3528484177
 20
-25.3079712837
 10
-50.3334173434
 20
-25.3091207616
 10
-50.2894615015
 20
-25.3114029942
  0
LWPOLYLINE
  5
2DA
100
AcDbEntity
  8
SMUSSO
100
AcDbPolyline
 62
7
  6
CONTINUOUS
 90
14
 70
0
 10
-50.9559017747
 20
-25.7948717962
 10
-50.9550370667
 20
-25.7963096893
 10
-50.9521555093
 20
-25.7977396536
 10
-50.9472571024
 20
-25.7991616892
 10
-50.9403243461
 20
-25.8005757896
 10
-50.9313747403
 20
-25.8019819612
 10
-50.9204607851
 20
-25.8033802238
 10
-50.9076079925
 20
-25.8047697538
 10
-50.8927908504
 20
-25.8061513748
 10
-50.8759853228
 20
-25.8075275769
 10
-50.8571833446
 20
-25.8088999468
 10
-50.8363929808
 20
-25.8102668977
 10
-50.8136143907
 20
-25.8116261591
 10
-50.7619939216
 20
-25.8143251243
  0
LWPOLYLINE
  5
2DB
100
AcDbEntity
  8
RACCORDO
100
AcDbPolyline
 62
250
  6
CONTINUOUS
 90
13
 70
0
 10
-58.3757351727
 20
-22.5616976435
 10
-58.3725652162
 20
-22.674201398
 10
-58.3630731566
 20
-22.7863320456
 10
-58.3472918241
 20
-22.8977348428
 10
-58.3252749859
 20
-23.0080529946
 10
-58.2970944839
 20
-23.1169427347
 10
-58.2628374088
 20
-23.2240737572
 10
-58.2226133474
 20
-23.329105192
 10
-58.1765492146
 20
-23.4317072755
 10
-58.1247807385
 20
-23.5315742721
 10
-58.0674650582
 20
-23.6283947777
 10
-58.0047838642
 20
-23.7218543637
 10
-57.9369329145
 20
-23.8116553564
  0
LWPOLYLINE
  5
2DC
100
AcDbEntity
  8
RACCORDO
100
AcDbPolyline
 62
250
  6
CONTINUOUS
 90
13
 70
0
 10
-57.8758113251
 20
-22.5616976435
 10
-57.8734344229
 20
-22.6461580478
 10
-57.8663606655
 20
-22.7299622598
 10
-57.8545900529
 20
-22.8131102793
 10
-57.8380513363
 20
-22.8959166104
 10
-57.8168157645
 20
-22.9780667492
 10
-57.7910970844
 20
-23.058617184
 10
-57.7608316409
 20
-23.1375227836
 10
-57.7260830891
 20
-23.2148286792
 10
-57.687256141
 20
-23.2897267532
 10
-57.6444857007
 20
-23.3619476331
 10
-57.5976368641
 20
-23.4317606914
 10
-57.5467096313
 20
-23.499165928
  0
LINE
  5
2DD
100
AcDbEntity
  8
TRASH
100
AcDbLine
 62
7
  6
CONTINUOUS
 10
-58.8559017747
 20
15.2900497366
 11
-58.8559017747
 21
-28.5094925592
  0
LINE
  5
2DE
100
AcDbEntity
  8
RACCORDO
100
AcDbLine
 62
250
  6
CONTINUOUS
 10
-58.3757351727
 20
9.3422548209
 11
-58.3757351727
 21
-22.5616976435
  0
LINE
  5
2DF
100
AcDbEntity
  8
0
100
AcDbLine
 62
7
  6
CONTINUOUS
 10
-54.777354227
 20
6.3641509328
 11
-54.2246270733
 21
7.588884474
  0
LINE
  5
2E0
100
AcDbEntity
  8
0
100
AcDbLine
 62
7
  6
CONTINUOUS
 10
-53.6914021769
 20
8.770404981
 11
-53.1183033495
 21
10.0402785887
  0
LINE
  5
2E1
100
AcDbEntity
  8
RACCORDO
100
AcDbLine
 62
250
  6
CONTINUOUS
 10
-47.8819734023
 20
9.651964438
 11
-48.2463063909
 21
9.2722148401
  0
LINE
  5
2E2
100
AcDbEntity
  8
RACCORDO
100
AcDbLine
 62
7
  6
CONTINUOUS
 10
-44.9471755714
 20
11.9829932819
 11
-44.9559017747
 21
11.9742657495
  0
LINE
  5
2E3
100
AcDbEntity
  8
SMUSSO
100
AcDbLine
 62
250
  6
CONTINUOUS
 10
-44.4559017747
 20
12.5754289736
 11
-44.9559017747
 21
12.0755051261
  0
LINE
  5
2E4
100
AcDbEntity
  8
RACCORDO
100
AcDbLine
 62
250
  6
CONTINUOUS
 10
-37.0360683766
 20
9.3422548209
 11
-36.7154892904
 21
9.4544017041
  0
LINE
  5
2E5
100
AcDbEntity
  8
RACCORDO
100
AcDbLine
 62
250
  6
CONTINUOUS
 10
-36.7154892904
 20
9.4544017041
 11
-36.5559017747
 21
9.5099377547
  0
LINE
  5
2E6
100
AcDbEntity
  8
RACCORDO
100
AcDbLine
 62
250
  6
CONTINUOUS
 10
-37.0360683766
 20
-22.5616976435
 11
-36.5559017747
 21
-22.7293805773
  0
LINE
  5
2E7
100
AcDbEntity
  8
SMUSSO
100
AcDbLine
 62
250
  6
CONTINUOUS
 10
-44.4559017747
 20
-25.7948717962
 11
-44.9559017747
 21
-25.2949479487
  0
LINE
  5
2E8
100
AcDbEntity
  8
RACCORDO
100
AcDbLine
 62
7
  6
CONTINUOUS
 10
-44.9471755714
 20
-25.2024361045
 11
-44.9559017747
 21
-25.1937085721
  0
LINE
  5
2E9
100
AcDbEntity
  8
RACCORDO
100
AcDbLine
 62
250
  6
CONTINUOUS
 10
-47.8819734022
 20
-22.8714072608
 11
-48.2463063908
 21
-22.4916576626
  0
LINE
  5
2EA
100
AcDbEntity
  8
RACCORDO
100
AcDbLine
 62
250
  6
CONTINUOUS
 10
-57.8758113251
 20
9.3422548209
 11
-57.8758113251
 21
-22.5616976435
  0
LINE
  5
2EB
100
AcDbEntity
  8
TRASH
100
AcDbLine
 62
7
  6
CONTINUOUS
 10
-57.7059017747
 20
1.3902785887
 11
-57.7059017747
 21
-14.6097214113
  0
LINE
  5
2EC
100
AcDbEntity
  8
RACCORDO
100
AcDbLine
 62
7
  6
CONTINUOUS
 10
-57.3559017747
 20
-27.5097214113
 11
-57.3559017747
 21
-25.2417867547
  0
LINE
  5
2ED
100
AcDbEntity
  8
RACCORDO
100
AcDbLine
 62
7
  6
CONTINUOUS
 10
-57.3559017747
 20
12.0223439321
 11
-57.3559017747
 21
14.2902785887
  0
LINE
  5
2EE
100
AcDbEntity
  8
DRAFT
100
AcDbLine
 62
7
  6
CONTINUOUS
 10
-57.2197522682
 20
13.8814979103
 11
-57.2197522682
 21
12.1720037281
  0
LINE
  5
2EF
100
AcDbEntity
  8
DRAFT
100
AcDbLine
 62
7
  6
CONTINUOUS
 10
-57.2197522682
 20
-25.3914465506
 11
-57.2197522682
 21
-27.1009407329
  0
LINE
  5
2F0
100
AcDbEntity
  8
0
100
AcDbLine
 62
7
  6
CONTINUOUS
 10
-56.1683033487
 20
10.0402785887
 11
-56.1683033487
 21
9.0236115574
  0
LINE
  5
2F1
100
AcDbEntity
  8
0
100
AcDbLine
 62
7
  6
CONTINUOUS
 10
-56.1683033487
 20
4.956944527
 11
-56.1683033487
 21
3.9402785902
  0
LWPOLYLINE
  5
2F2
100
AcDbEntity
  8
0
100
AcDbPolyline
 62
7
  6
CONTINUOUS
 90
28
 70
0
 10
-56.0116067385
 20
-0.2850296516
 10
-56.0095966584
 20
-0.229457189
 10
-56.0027661379
 20
-0.1774060273
 10
-55.9911151768
 20
-0.1288761664
 10
-55.9743687399
 20
-0.083599967
 10
-55.9528018624
 20
-0.0418450684
 10
-55.9272396505
 20
-0.0044143891
 10
-55.8979316719
 20
0.0283860485
 10
-55.8646283588
 20
0.0568622668
 10
-55.8274061143
 20
0.081129414
 10
-55.7858940415
 20
0.1015011693
 10
-55.7404630372
 20
0.1176638535
 10
-55.6923021953
 20
0.128791577
 10
-55.6401474965
 20
0.1348017186
 10
-55.58526296
 20
0.1357768994
 10
-55.532629737
 20
0.1311390928
 10
-55.4832290914
 20
0.1202676955
 10
-55.4360797592
 20
0.1037833109
 10
-55.3932191003
 20
0.0829697226
 10
-55.3554985597
 20
0.0584198608
 10
-55.3220666922
 20
0.0295407954
 10
-55.2924065224
 20
-0.0041624804
 10
-55.2659461366
 20
-0.0431703302
 10
-55.2432574484
 20
-0.0870023904
 10
-55.2255392231
 20
-0.1347125764
 10
-55.213191049
 20
-0.185985527
 10
-55.2058133378
 20
-0.2411366034
 10
-55.2034060894
 20
-0.3001658058
  0
LWPOLYLINE
  5
2F3
100
AcDbEntity
  8
0
100
AcDbPolyline
 62
7
  6
CONTINUOUS
 90
7
 70
0
 10
-44.4661329828
 20
3.9472655049
 10
-44.6156306384
 20
3.9012059783
 10
-44.7883197002
 20
3.8496979027
 10
-44.9555243164
 20
3.8015604374
 10
-45.1179453525
 20
3.7565933852
 10
-45.2776854054
 20
3.7141961536
 10
-45.4349688282
 20
3.6742465488
  0
LINE
  5
2F4
100
AcDbEntity
  8
0
100
AcDbLine
 62
7
  6
CONTINUOUS
 10
-49.9768347212
 20
-16.8936893714
 11
-49.8523793964
 21
-16.8635985579
  0
LINE
  5
2F5
100
AcDbEntity
  8
0
100
AcDbLine
 62
7
  6
CONTINUOUS
 10
-45.559418188
 20
-16.8635983345
 11
-45.4345878567
 21
-16.8937839194
  0
LWPOLYLINE
  5
2F6
100
AcDbEntity
  8
0
100
AcDbPolyline
 62
7
  6
CONTINUOUS
 90
7
 70
0
 10
-45.4345878567
 20
-16.8937839194
 10
-45.2773138514
 20
-16.933735523
 10
-45.1175968465
 20
-16.9761306144
 10
-44.9552128102
 20
-17.0210913481
 10
-44.7880613265
 20
-17.0692164045
 10
-44.6154422566
 20
-17.120705344
 10
-44.4661339018
 20
-17.1667076489
  0
LWPOLYLINE
  5
2F7
100
AcDbEntity
  8
0
100
AcDbPolyline
 62
7
  6
CONTINUOUS
 90
16
 70
0
 10
-55.1074212289
 20
-0.3178265619
 10
-55.1099574312
 20
-0.2500245207
 10
-55.1168760613
 20
-0.1860308721
 10
-55.1281771195
 20
-0.1258456162
 10
-55.1439458528
 20
-0.0691520375
 10
-55.164097014
 20
-0.0162668514
 10
-55.1883748619
 20
0.0318597959
 10
-55.2165227335
 20
0.074791467
 10
-55.2487972917
 20
0.1129645994
 10
-55.285712784
 20
0.1467383591
 10
-55.3275596142
 20
0.1765960518
 10
-55.3740473785
 20
0.2020543719
 10
-55.4248191122
 20
0.2220225684
 10
-55.4797558271
 20
0.2361370578
 10
-55.5389765113
 20
0.2447614237
 10
-55.6024811649
 20
0.2478956661
  0
LINE
  5
2F8
100
AcDbEntity
  8
0
100
AcDbLine
 62
7
  6
CONTINUOUS
 10
-56.1075968065
 20
-1.36331895
 11
-56.1075968065
 21
-1.4744389232
  0
LINE
  5
2F9
100
AcDbEntity
  8
0
100
AcDbLine
 62
7
  6
CONTINUOUS
 10
-56.1075968065
 20
-2.6311887629
 11
-56.1075968065
 21
-2.7423097777
  0
LINE
  5
2FA
100
AcDbEntity
  8
0
100
AcDbLine
 62
7
  6
CONTINUOUS
 10
-56.1075915989
 20
-0.2774360576
 11
-56.1075915989
 21
-1.0452472439
  0
LINE
  5
2FB
100
AcDbEntity
  8
0
100
AcDbLine
 62
7
  6
CONTINUOUS
 10
-56.1059127747
 20
-3.3664224113
 11
-56.1059127747
 21
-4.6092774113
  0
LINE
  5
2FC
100
AcDbEntity
  8
0
100
AcDbLine
 62
7
  6
CONTINUOUS
 10
-56.1059127747
 20
-6.6739504113
 11
-56.1059127747
 21
-7.9168224113
  0
LINE
  5
2FD
100
AcDbEntity
  8
0
100
AcDbLine
 62
7
  6
CONTINUOUS
 10
-56.1059127747
 20
-8.4184494113
 11
-56.1059127747
 21
-8.6453494113
  0
LINE
  5
2FE
100
AcDbEntity
  8
0
100
AcDbLine
 62
7
  6
CONTINUOUS
 10
-56.1059127747
 20
-9.5983044113
 11
-56.1059127747
 21
-9.8529324113
  0
LINE
  5
2FF
100
AcDbEntity
  8
0
100
AcDbLine
 62
7
  6
CONTINUOUS
 10
-56.1059067747
 20
-4.9143094113
 11
-56.1059067747
 21
-5.1639044113
  0
LINE
  5
300
100
AcDbEntity
  8
0
100
AcDbLine
 62
7
  6
CONTINUOUS
 10
-56.1059067747
 20
-6.2025884113
 11
-56.1059067747
 21
-6.4622174113
  0
LINE
  5
301
100
AcDbEntity
  8
RACCORDO
100
AcDbLine
 62
250
  6
CONTINUOUS
 10
-56.0616782819
 20
-25.2024361045
 11
-56.0616782819
 21
-25.7023599521
  0
LINE
  5
302
100
AcDbEntity
  8
RACCORDO
100
AcDbLine
 62
250
  6
CONTINUOUS
 10
-56.0616782819
 20
11.9829932819
 11
-56.0616782819
 21
12.4829171295
  0
LINE
  5
303
100
AcDbEntity
  8
0
100
AcDbLine
 62
7
  6
CONTINUOUS
 10
-56.0116067385
 20
-0.9340574899
 11
-56.0116067385
 21
-0.2850296516
  0
LINE
  5
304
100
AcDbEntity
  8
0
100
AcDbLine
 62
7
  6
CONTINUOUS
 10
-55.9042337747
 20
-7.6773124113
 11
-55.9042337747
 21
-6.6739504113
  0
LINE
  5
305
100
AcDbEntity
  8
0
100
AcDbLine
 62
7
  6
CONTINUOUS
 10
-55.9042337747
 20
-4.3697844113
 11
-55.9042337747
 21
-3.3664224113
  0
LINE
  5
306
100
AcDbEntity
  8
0
100
AcDbLine
 62
7
  6
CONTINUOUS
 10
-55.3319587747
 20
-3.4344394113
 11
-55.3319587747
 21
-4.3697844113
  0
LINE
  5
307
100
AcDbEntity
  8
0
100
AcDbLine
 62
7
  6
CONTINUOUS
 10
-55.3319587747
 20
-6.7420184113
 11
-55.3319587747
 21
-7.6773124113
  0
LINE
  5
308
100
AcDbEntity
  8
0
100
AcDbLine
 62
7
  6
CONTINUOUS
 10
-55.2034060894
 20
-0.3001658058
 11
-55.2034060894
 21
-0.9340574899
  0
LINE
  5
309
100
AcDbEntity
  8
0
100
AcDbLine
 62
7
  6
CONTINUOUS
 10
-55.1302617747
 20
-7.6773124113
 11
-55.1302617747
 21
-6.7420184113
  0
LINE
  5
30A
100
AcDbEntity
  8
0
100
AcDbLine
 62
7
  6
CONTINUOUS
 10
-55.1302617747
 20
-4.3697844113
 11
-55.1302617747
 21
-3.4344394113
  0
LINE
  5
30B
100
AcDbEntity
  8
0
100
AcDbLine
 62
7
  6
CONTINUOUS
 10
-55.1074212289
 20
-0.9340574899
 11
-55.1074212289
 21
-0.3178265619
  0
LINE
  5
30C
100
AcDbEntity
  8
0
100
AcDbLine
 62
7
  6
CONTINUOUS
 10
-54.5075807747
 20
-3.3588294113
 11
-54.5075807747
 21
-4.3697844113
  0
LINE
  5
30D
100
AcDbEntity
  8
0
100
AcDbLine
 62
7
  6
CONTINUOUS
 10
-54.5075807747
 20
-6.6663904113
 11
-54.5075807747
 21
-7.6773124113
  0
LINE
  5
30E
100
AcDbEntity
  8
RACCORDO
100
AcDbLine
 62
250
  6
CONTINUOUS
 10
-54.4525574482
 20
-27.8062913249
 11
-54.4525574482
 21
-27.968838452
  0
LINE
  5
30F
100
AcDbEntity
  8
RACCORDO
100
AcDbLine
 62
250
  6
CONTINUOUS
 10
-54.4525574482
 20
14.5868485023
 11
-54.4525574482
 21
14.7493956294
  0
LINE
  5
310
100
AcDbEntity
  8
RACCORDO
100
AcDbLine
 62
250
  6
CONTINUOUS
 10
-54.4279029859
 20
14.5209670604
 11
-54.4279029859
 21
14.3745966034
  0
LINE
  5
311
100
AcDbEntity
  8
RACCORDO
100
AcDbLine
 62
250
  6
CONTINUOUS
 10
-54.4279029859
 20
-27.740409883
 11
-54.4279029859
 21
-27.594039426
  0
LWPOLYLINE
  5
312
100
AcDbEntity
  8
0
100
AcDbPolyline
 62
7
  6
CONTINUOUS
 90
19
 70
0
 10
-54.3573106362
 20
-2.0654165428
 10
-54.3593011155
 20
-2.1239675906
 10
-54.3653678076
 20
-2.1795197636
 10
-54.3755107127
 20
-2.232073062
 10
-54.3895579014
 20
-2.2816045916
 10
-54.4076813029
 20
-2.3281372466
 10
-54.4303967049
 20
-2.3717397087
 10
-54.4579406105
 20
-2.4125529668
 10
-54.4900765166
 20
-2.4504360321
 10
-54.5266107011
 20
-2.4850346199
 10
-54.567707425
 20
-2.5164818722
 10
-54.6132024273
 20
-2.544644647
 10
-54.6624092036
 20
-2.5687692335
 10
-54.7153815203
 20
-2.5884569359
 10
-54.772065611
 20
-2.6041064499
 10
-54.8316136721
 20
-2.616160152
 10
-54.8937431022
 20
-2.6247655009
 10
-54.9587365027
 20
-2.6297750379
 10
-55.0265938735
 20
-2.6311887629
  0
LINE
  5
313
100
AcDbEntity
  8
TRASH
100
AcDbLine
 62
7
  6
CONTINUOUS
 10
-51.1059017747
 20
15.7200083184
 11
-51.0692461383
 21
15.8902785887
  0
LINE
  5
314
100
AcDbEntity
  8
TRASH
100
AcDbLine
 62
7
  6
CONTINUOUS
 10
-44.9891385556
 20
15.0463490904
 11
-44.7089321779
 21
15.5902785887
  0
LINE
  5
315
100
AcDbEntity
  8
0
100
AcDbLine
 62
7
  6
CONTINUOUS
 10
-42.2672314874
 20
8.0576620266
 11
-42.3524018408
 21
7.9768321372
  0
LINE
  5
316
100
AcDbEntity
  8
RACCORDO
100
AcDbLine
 62
250
  6
CONTINUOUS
 10
-39.3501252675
 20
11.9829932819
 11
-38.9873781158
 21
12.3269967083
  0
LINE
  5
317
100
AcDbEntity
  8
RACCORDO
100
AcDbLine
 62
250
  6
CONTINUOUS
 10
-37.865093918
 20
10.2797231055
 11
-37.4748706352
 21
10.5922125335
  0
LINE
  5
318
100
AcDbEntity
  8
TRASH
100
AcDbLine
 62
7
  6
CONTINUOUS
 10
-57.7059017747
 20
-14.6097214113
 11
-41.2059017747
 21
-14.6097214113
  0
LINE
  5
319
100
AcDbEntity
  8
0
100
AcDbLine
 62
7
  6
CONTINUOUS
 10
-50.7059017747
 20
-13.4197214113
 11
-49.7059017747
 21
-13.4197214113
  0
LINE
  5
31A
100
AcDbEntity
  8
RACCORDO
100
AcDbLine
 62
250
  6
CONTINUOUS
 10
-37.865093918
 20
-23.499165928
 11
-37.4748706358
 21
-23.8116553568
  0
LINE
  5
31B
100
AcDbEntity
  8
RACCORDO
100
AcDbLine
 62
250
  6
CONTINUOUS
 10
-39.3501252675
 20
-25.2024361045
 11
-38.9873781158
 21
-25.5464395309
  0
LINE
  5
31C
100
AcDbEntity
  8
TRASH
100
AcDbLine
 62
7
  6
CONTINUOUS
 10
-44.9891385556
 20
-28.265791913
 11
-44.7089321779
 21
-28.8097214113
  0
LINE
  5
31D
100
AcDbEntity
  8
TRASH
100
AcDbLine
 62
7
  6
CONTINUOUS
 10
-51.1059017747
 20
-28.939451141
 11
-51.0692461383
 21
-29.1097214113
  0
LINE
  5
31E
100
AcDbEntity
  8
0
100
AcDbLine
 62
7
  6
CONTINUOUS
 10
-54.3059017747
 20
-9.8529324113
 11
-54.3059017747
 21
-9.6260504113
  0
LINE
  5
31F
100
AcDbEntity
  8
0
100
AcDbLine
 62
7
  6
CONTINUOUS
 10
-54.3059017747
 20
-8.6806374113
 11
-54.3059017747
 21
-8.4184494113
  0
LINE
  5
320
100
AcDbEntity
  8
0
100
AcDbLine
 62
7
  6
CONTINUOUS
 10
-54.3059017747
 20
-7.9168224113
 11
-54.3059017747
 21
-6.6663904113
  0
LINE
  5
321
100
AcDbEntity
  8
0
100
AcDbLine
 62
7
  6
CONTINUOUS
 10
-54.3059017747
 20
-4.6092774113
 11
-54.3059017747
 21
-3.3588294113
  0
LINE
  5
322
100
AcDbEntity
  8
0
100
AcDbLine
 62
7
  6
CONTINUOUS
 10
-54.3058967747
 20
-5.8269254113
 11
-54.3058967747
 21
-5.5546694113
  0
LINE
  5
323
100
AcDbEntity
  8
0
100
AcDbLine
 62
7
  6
CONTINUOUS
 10
-54.3042880098
 20
-1.0452472439
 11
-54.3042880098
 21
-0.9340574899
  0
LINE
  5
324
100
AcDbEntity
  8
0
100
AcDbLine
 62
7
  6
CONTINUOUS
 10
-53.2058497747
 20
-3.8896594113
 11
-53.2058497747
 21
-4.0404924113
  0
LINE
  5
325
100
AcDbEntity
  8
RACCORDO
100
AcDbLine
 62
250
  6
CONTINUOUS
 10
-52.9515760904
 20
7.4902785887
 11
-52.9515760904
 21
5.3902785887
  0
LINE
  5
326
100
AcDbEntity
  8
RACCORDO
100
AcDbLine
 62
250
  6
CONTINUOUS
 10
-52.9515760904
 20
-18.6097214113
 11
-52.9515760904
 21
-20.7097214113
  0
LINE
  5
327
100
AcDbEntity
  8
RACCORDO
100
AcDbLine
 62
250
  6
CONTINUOUS
 10
-52.7016141667
 20
7.4902785887
 11
-52.7016141667
 21
5.3902785887
  0
LINE
  5
328
100
AcDbEntity
  8
RACCORDO
100
AcDbLine
 62
250
  6
CONTINUOUS
 10
-52.7016141667
 20
-18.6097214113
 11
-52.7016141667
 21
-20.7097214113
  0
LINE
  5
329
100
AcDbEntity
  8
0
100
AcDbLine
 62
7
  6
CONTINUOUS
 10
-52.7784907503
 20
-6.9838271681
 11
-52.7596367498
 21
-6.7952861631
  0
LINE
  5
32A
100
AcDbEntity
  8
0
100
AcDbLine
 62
7
  6
CONTINUOUS
 10
-52.8224837401
 20
-5.808588221
 11
-52.7889647367
 21
-5.6242372027
  0
LINE
  5
32B
100
AcDbEntity
  8
RACCORDO
100
AcDbLine
 62
250
  6
CONTINUOUS
 10
-48.4359017747
 20
6.2575155804
 11
-47.9921880209
 21
7.3970862093
  0
LINE
  5
32C
100
AcDbEntity
  8
RACCORDO
100
AcDbLine
 62
250
  6
CONTINUOUS
 10
-47.1654971585
 20
3.6083423374
 11
-47.529830147
 21
3.2285927394
  0
LINE
  5
32D
100
AcDbEntity
  8
0
100
AcDbLine
 62
7
  6
CONTINUOUS
 10
-50.5569656222
 20
-2.3572214113
 11
-50.5144124358
 21
-2.3155544267
  0
LINE
  5
32E
100
AcDbEntity
  8
0
100
AcDbLine
 62
7
  6
CONTINUOUS
 10
-50.535689029
 20
-2.1905544267
 11
-50.6207954018
 21
-2.2530544267
  0
LINE
  5
32F
100
AcDbEntity
  8
0
100
AcDbLine
 62
7
  6
CONTINUOUS
 10
-50.5144124358
 20
-2.3155544267
 11
-50.4718592494
 21
-2.2947214113
  0
LINE
  5
330
100
AcDbEntity
  8
0
100
AcDbLine
 62
7
  6
CONTINUOUS
 10
-50.0463272958
 20
-2.1072214113
 11
-50.1314336984
 21
-2.1488883959
  0
LWPOLYLINE
  5
331
100
AcDbEntity
  8
0
100
AcDbPolyline
 62
7
  6
CONTINUOUS
 90
13
 70
0
 10
-39.2575683467
 20
3.6142870502
 10
-39.2198492098
 20
3.6324284872
 10
-39.1843767896
 20
3.6517866064
 10
-39.151151086
 20
3.672361408
 10
-39.1200633097
 20
3.6942403972
 10
-39.09122225
 20
3.7173360688
 10
-39.064954275
 20
3.7413859065
 10
-39.0413362244
 20
3.7664726998
 10
-39.0202912583
 20
3.7925136592
 10
-39.0019152256
 20
3.818997901
 10
-38.9862400759
 20
3.8457551303
 10
-38.9732338594
 20
3.8729556418
 10
-38.9628965763
 20
3.9005994356
  0
LINE
  5
332
100
AcDbEntity
  8
0
100
AcDbLine
 62
7
  6
CONTINUOUS
 10
-49.7059017747
 20
-0.8155544267
 11
-50.7059017747
 21
-1.1488883959
  0
LINE
  5
333
100
AcDbEntity
  8
0
100
AcDbLine
 62
7
  6
CONTINUOUS
 10
-50.6207954018
 20
-1.2322214113
 11
-50.0463272958
 21
-1.0447214113
  0
LINE
  5
334
100
AcDbEntity
  8
0
100
AcDbLine
 62
7
  6
CONTINUOUS
 10
-49.961220923
 20
-1.0238883959
 11
-49.7059017747
 21
-0.9405544267
  0
LINE
  5
335
100
AcDbEntity
  8
0
100
AcDbLine
 62
7
  6
CONTINUOUS
 10
-50.4718592494
 20
-2.1697214113
 11
-50.535689029
 21
-2.1905544267
  0
LINE
  5
336
100
AcDbEntity
  8
0
100
AcDbLine
 62
7
  6
CONTINUOUS
 10
-49.7059017747
 20
-13.2947214113
 11
-50.4931358426
 21
-13.2947214113
  0
LINE
  5
337
100
AcDbEntity
  8
0
100
AcDbLine
 62
7
  6
CONTINUOUS
 10
-50.4931358426
 20
-12.5447214113
 11
-49.7059017747
 21
-12.5447214113
  0
LINE
  5
338
100
AcDbEntity
  8
0
100
AcDbLine
 62
7
  6
CONTINUOUS
 10
-49.7059017747
 20
-12.4197214113
 11
-50.7059017747
 21
-12.4197214113
  0
LINE
  5
339
100
AcDbEntity
  8
0
100
AcDbLine
 62
7
  6
CONTINUOUS
 10
-43.0855061441
 20
-11.6658262725
 11
-42.9074706762
 21
-11.6658262725
  0
LINE
  5
33A
100
AcDbEntity
  8
0
100
AcDbLine
 62
7
  6
CONTINUOUS
 10
-50.0463272958
 20
-12.0238880382
 11
-50.6207954018
 21
-11.8363880382
  0
LINE
  5
33B
100
AcDbEntity
  8
0
100
AcDbLine
 62
7
  6
CONTINUOUS
 10
-49.7059017747
 20
-12.1280547844
 11
-49.961220923
 21
-12.0447214113
  0
LINE
  5
33C
100
AcDbEntity
  8
0
100
AcDbLine
 62
7
  6
CONTINUOUS
 10
-50.7059017747
 20
-11.9197214113
 11
-49.7059017747
 21
-12.2530547844
  0
LINE
  5
33D
100
AcDbEntity
  8
0
100
AcDbLine
 62
7
  6
CONTINUOUS
 10
-50.7059017747
 20
-12.6072214113
 11
-49.8122847556
 21
-12.9197214113
  0
LINE
  5
33E
100
AcDbEntity
  8
0
100
AcDbLine
 62
7
  6
CONTINUOUS
 10
-49.7059017747
 20
-12.8363880978
 11
-50.4931358426
 21
-12.5447214113
  0
LINE
  5
33F
100
AcDbEntity
  8
RACCORDO
100
AcDbLine
 62
250
  6
CONTINUOUS
 10
-47.1654971585
 20
-16.82778516
 11
-47.5298301471
 21
-16.4480355618
  0
LINE
  5
340
100
AcDbEntity
  8
RACCORDO
100
AcDbLine
 62
250
  6
CONTINUOUS
 10
-48.4359017747
 20
-19.476958403
 11
-47.9921880209
 21
-20.6165290319
  0
LINE
  5
341
100
AcDbEntity
  8
0
100
AcDbLine
 62
7
  6
CONTINUOUS
 10
-52.0683197266
 20
-7.9537659884
 11
-52.053654776
 21
-8.129737395
  0
LINE
  5
342
100
AcDbEntity
  8
RACCORDO
100
AcDbLine
 62
250
  6
CONTINUOUS
 10
-52.1653200486
 20
-20.6213673219
 11
-52.1702064121
 21
-20.3486945394
  0
LINE
  5
343
100
AcDbEntity
  8
RACCORDO
100
AcDbLine
 62
250
  6
CONTINUOUS
 10
-52.1702064121
 20
-20.3486945394
 11
-52.1741097431
 21
-20.0838533783
  0
LINE
  5
344
100
AcDbEntity
  8
RACCORDO
100
AcDbLine
 62
250
  6
CONTINUOUS
 10
-51.9196155284
 20
-20.6165290319
 11
-51.9240497037
 21
-20.2948919615
  0
LINE
  5
345
100
AcDbEntity
  8
RACCORDO
100
AcDbLine
 62
250
  6
CONTINUOUS
 10
-52.1741097431
 20
-20.0838533783
 11
-52.1777345369
 21
-19.7756846671
  0
LINE
  5
346
100
AcDbEntity
  8
RACCORDO
100
AcDbLine
 62
250
  6
CONTINUOUS
 10
-51.9240497037
 20
-20.2948919615
 11
-51.9278098264
 21
-19.9632251588
  0
LINE
  5
347
100
AcDbEntity
  8
RACCORDO
100
AcDbLine
 62
250
  6
CONTINUOUS
 10
-52.1777345369
 20
-19.7756846671
 11
-52.1803037847
 21
-19.4923841236
  0
LINE
  5
348
100
AcDbEntity
  8
RACCORDO
100
AcDbLine
 62
250
  6
CONTINUOUS
 10
-51.9278098264
 20
-19.9632251588
 11
-51.9307371561
 21
-19.6361894913
  0
LINE
  5
349
100
AcDbEntity
  8
RACCORDO
100
AcDbLine
 62
250
  6
CONTINUOUS
 10
-52.1803037847
 20
-19.4923841236
 11
-52.182375821
 21
-19.1714679972
  0
LINE
  5
34A
100
AcDbEntity
  8
RACCORDO
100
AcDbLine
 62
250
  6
CONTINUOUS
 10
-51.9307371561
 20
-19.6361894913
 11
-51.9332089329
 21
-19.2540681922
  0
LINE
  5
34B
100
AcDbEntity
  8
RACCORDO
100
AcDbLine
 62
250
  6
CONTINUOUS
 10
-52.182375821
 20
-19.1714679972
 11
-52.1834212639
 21
-18.9034464865
  0
LINE
  5
34C
100
AcDbEntity
  8
RACCORDO
100
AcDbLine
 62
250
  6
CONTINUOUS
 10
-51.9332089329
 20
-19.2540681922
 11
-51.9345319195
 21
-18.9027714564
  0
LINE
  5
34D
100
AcDbEntity
  8
RACCORDO
100
AcDbLine
 62
250
  6
CONTINUOUS
 10
-52.1834212639
 20
-18.9034464865
 11
-52.1838230129
 21
-18.6097214113
  0
LINE
  5
34E
100
AcDbEntity
  8
RACCORDO
100
AcDbLine
 62
250
  6
CONTINUOUS
 10
-51.9345319195
 20
-18.9027714564
 11
-51.9348878444
 21
-18.6097214113
  0
LINE
  5
34F
100
AcDbEntity
  8
RACCORDO
100
AcDbLine
 62
250
  6
CONTINUOUS
 10
-52.6752792528
 20
7.4902785887
 11
-52.6752792528
 21
5.3902785887
  0
LINE
  5
350
100
AcDbEntity
  8
RACCORDO
100
AcDbLine
 62
250
  6
CONTINUOUS
 10
-52.6752792528
 20
-18.6097214113
 11
-52.6752792528
 21
-20.7097214113
  0
LINE
  5
351
100
AcDbEntity
  8
RACCORDO
100
AcDbLine
 62
250
  6
CONTINUOUS
 10
-52.425317329
 20
7.4902785887
 11
-52.425317329
 21
5.3902785887
  0
LINE
  5
352
100
AcDbEntity
  8
RACCORDO
100
AcDbLine
 62
250
  6
CONTINUOUS
 10
-52.425317329
 20
-18.6097214113
 11
-52.425317329
 21
-20.7097214113
  0
LINE
  5
353
100
AcDbEntity
  8
0
100
AcDbLine
 62
7
  6
CONTINUOUS
 10
-52.2338167747
 20
-3.6864544113
 11
-52.2338167747
 21
-3.8896594113
  0
LINE
  5
354
100
AcDbEntity
  8
0
100
AcDbLine
 62
7
  6
CONTINUOUS
 10
-52.2338167747
 20
-4.0740114113
 11
-52.2338167747
 21
-4.5444144113
  0
LINE
  5
355
100
AcDbEntity
  8
0
100
AcDbLine
 62
7
  6
CONTINUOUS
 10
-52.0641297747
 20
-4.7255254113
 11
-52.0641297747
 21
-4.0740114113
  0
LINE
  5
356
100
AcDbEntity
  8
0
100
AcDbLine
 62
7
  6
CONTINUOUS
 10
-52.0641297747
 20
-3.8896594113
 11
-52.0641297747
 21
-3.6864544113
  0
LINE
  5
357
100
AcDbEntity
  8
0
100
AcDbLine
 62
7
  6
CONTINUOUS
 10
-51.8818737747
 20
-6.0264574113
 11
-51.8818737747
 21
-6.7629131324
  0
LINE
  5
358
100
AcDbEntity
  8
0
100
AcDbLine
 62
7
  6
CONTINUOUS
 10
-51.7059017747
 20
-7.0194405113
 11
-51.7059017747
 21
-6.0264574113
  0
LINE
  5
359
100
AcDbEntity
  8
0
100
AcDbLine
 62
7
  6
CONTINUOUS
 10
-51.7059017747
 20
-4.0740114113
 11
-51.7059017747
 21
-3.8896594113
  0
LINE
  5
35A
100
AcDbEntity
  8
0
100
AcDbLine
 62
7
  6
CONTINUOUS
 10
-51.2059017747
 20
-19.8330732406
 11
-51.2059017747
 21
-18.8097214113
  0
LINE
  5
35B
100
AcDbEntity
  8
0
100
AcDbLine
 62
7
  6
CONTINUOUS
 10
-51.2059017747
 20
5.5902785887
 11
-51.2059017747
 21
6.613630418
  0
LINE
  5
35C
100
AcDbEntity
  8
TRASH
100
AcDbLine
 62
7
  6
CONTINUOUS
 10
-51.1059017747
 20
16.820458329
 11
-51.1059017747
 21
15.7200083184
  0
LINE
  5
35D
100
AcDbEntity
  8
RACCORDO
100
AcDbLine
 62
7
  6
CONTINUOUS
 10
-51.1059017747
 20
15.7200083184
 11
-51.1059017747
 21
14.786818025
  0
LINE
  5
35E
100
AcDbEntity
  8
TRASH
100
AcDbLine
 62
7
  6
CONTINUOUS
 10
-51.1059017747
 20
-30.0399011516
 11
-51.1059017747
 21
-28.939451141
  0
LINE
  5
35F
100
AcDbEntity
  8
RACCORDO
100
AcDbLine
 62
7
  6
CONTINUOUS
 10
-51.1059017747
 20
-28.939451141
 11
-51.1059017747
 21
-28.0062608475
  0
LINE
  5
360
100
AcDbEntity
  8
TRASH
100
AcDbLine
 62
7
  6
CONTINUOUS
 10
-51.0692461383
 20
-29.1097214113
 11
-51.0692461383
 21
-30.0765567879
  0
LINE
  5
361
100
AcDbEntity
  8
TRASH
100
AcDbLine
 62
7
  6
CONTINUOUS
 10
-51.0692461383
 20
15.8902785887
 11
-51.0692461383
 21
16.8571139653
  0
LINE
  5
362
100
AcDbEntity
  8
ASSI
100
AcDbLine
 62
7
  6
CONTINUOUS
 10
-51.0059017747
 20
-29.0097214113
 11
-51.0059017747
 21
-28.5195290324
  0
LINE
  5
363
100
AcDbEntity
  8
DRAFT
100
AcDbLine
 62
7
  6
CONTINUOUS
 10
-51.0059017747
 20
-27.9999137902
 11
-51.0059017747
 21
-27.8002866023
  0
LINE
  5
364
100
AcDbEntity
  8
DRAFT
100
AcDbLine
 62
7
  6
CONTINUOUS
 10
-51.0059017747
 20
14.5808437797
 11
-51.0059017747
 21
14.7804709676
  0
LINE
  5
365
100
AcDbEntity
  8
ASSI
100
AcDbLine
 62
7
  6
CONTINUOUS
 10
-51.0059017747
 20
15.3000862098
 11
-51.0059017747
 21
15.7902785887
  0
LINE
  5
366
100
AcDbEntity
  8
RACCORDO
100
AcDbLine
 62
7
  6
CONTINUOUS
 10
-50.9559017747
 20
-25.7023599521
 11
-50.9559017747
 21
-25.7948717962
  0
LINE
  5
367
100
AcDbEntity
  8
RACCORDO
100
AcDbLine
 62
7
  6
CONTINUOUS
 10
-50.9559017747
 20
12.4829171295
 11
-50.9559017747
 21
12.5754289736
  0
LINE
  5
368
100
AcDbEntity
  8
RACCORDO
100
AcDbLine
 62
250
  6
CONTINUOUS
 10
-51.9348878444
 20
5.3902785887
 11
-51.9345297271
 21
5.6842394937
  0
LINE
  5
369
100
AcDbEntity
  8
RACCORDO
100
AcDbLine
 62
250
  6
CONTINUOUS
 10
-52.1838230129
 20
5.3902785887
 11
-52.183418786
 21
5.6849165705
  0
LINE
  5
36A
100
AcDbEntity
  8
RACCORDO
100
AcDbLine
 62
250
  6
CONTINUOUS
 10
-51.9345297271
 20
5.6842394937
 11
-51.9332008398
 21
6.0362112109
  0
LINE
  5
36B
100
AcDbEntity
  8
RACCORDO
100
AcDbLine
 62
250
  6
CONTINUOUS
 10
-52.183418786
 20
5.6849165705
 11
-52.1819120419
 21
6.0376267835
  0
LINE
  5
36C
100
AcDbEntity
  8
RACCORDO
100
AcDbLine
 62
250
  6
CONTINUOUS
 10
-51.9332008398
 20
6.0362112109
 11
-51.930723445
 21
6.4185010185
  0
LINE
  5
36D
100
AcDbEntity
  8
RACCORDO
100
AcDbLine
 62
250
  6
CONTINUOUS
 10
-52.1819120419
 20
6.0376267835
 11
-52.179681314
 21
6.3488492772
  0
LINE
  5
36E
100
AcDbEntity
  8
RACCORDO
100
AcDbLine
 62
250
  6
CONTINUOUS
 10
-51.930723445
 20
6.4185010185
 11
-51.9271804224
 21
6.804656687
  0
LINE
  5
36F
100
AcDbEntity
  8
RACCORDO
100
AcDbLine
 62
250
  6
CONTINUOUS
 10
-52.179681314
 20
6.3488492772
 11
-52.176312136
 21
6.6867841043
  0
LWPOLYLINE
  5
370
100
AcDbEntity
  8
0
100
AcDbPolyline
 62
7
  6
CONTINUOUS
 90
10
 70
0
 10
-52.5774456413
 20
-5.4136014454
 10
-52.5774873268
 20
-5.4168464991
 10
-52.5775794948
 20
-5.4201077075
 10
-52.5777221451
 20
-5.4233850705
 10
-52.5779213196
 20
-5.4266798149
 10
-52.5781709764
 20
-5.4299907139
 10
-52.5784529907
 20
-5.4333140875
 10
-52.578761321
 20
-5.436648709
 10
-52.5791020087
 20
-5.4399958051
 10
-52.579475054
 20
-5.4433553758
  0
LINE
  5
371
100
AcDbEntity
  8
RACCORDO
100
AcDbLine
 62
250
  6
CONTINUOUS
 10
-51.9271804224
 20
6.804656687
 11
-51.9227724822
 21
7.1741043763
  0
LINE
  5
372
100
AcDbEntity
  8
RACCORDO
100
AcDbLine
 62
250
  6
CONTINUOUS
 10
-52.176312136
 20
6.6867841043
 11
-52.1725588309
 21
6.976004737
  0
LINE
  5
373
100
AcDbEntity
  8
RACCORDO
100
AcDbLine
 62
250
  6
CONTINUOUS
 10
-51.9227724822
 20
7.1741043763
 11
-51.9196155284
 21
7.3970862093
  0
LINE
  5
374
100
AcDbEntity
  8
RACCORDO
100
AcDbLine
 62
250
  6
CONTINUOUS
 10
-52.1725588309
 20
6.976004737
 11
-52.1677811597
 21
7.2711564516
  0
LINE
  5
375
100
AcDbEntity
  8
RACCORDO
100
AcDbLine
 62
250
  6
CONTINUOUS
 10
-52.1677811597
 20
7.2711564516
 11
-52.1653200486
 21
7.4019244993
  0
LWPOLYLINE
  5
376
100
AcDbEntity
  8
RACCORDO
100
AcDbPolyline
 62
250
  6
CONTINUOUS
 90
46
 70
0
 10
-51.9196155284
 20
7.3970862093
 10
-51.9167914538
 20
7.4963175214
 10
-51.9088218048
 20
7.6003090948
 10
-51.8949873639
 20
7.7087112463
 10
-51.8745929718
 20
7.8211001433
 10
-51.8468968044
 20
7.9369750493
 10
-51.8110883775
 20
8.0557197595
 10
-51.7663973807
 20
8.1767267595
 10
-51.7121761665
 20
8.2990232025
 10
-51.647894039
 20
8.421298481
 10
-51.5727434331
 20
8.5429606528
 10
-51.4865637706
 20
8.6624172685
 10
-51.3902743568
 20
8.776950011
 10
-51.2837209629
 20
8.8856287942
 10
-51.1672491844
 20
8.9871796607
 10
-51.0433657637
 20
9.0790942329
 10
-50.913452904
 20
9.1604411733
 10
-50.7776134908
 20
9.2312353334
 10
-50.6368746664
 20
9.2909481688
 10
-50.4920862521
 20
9.3392280587
 10
-50.3440150151
 20
9.3758739742
 10
-50.1936142709
 20
9.4007185809
 10
-50.0416699183
 20
9.4136141843
 10
-49.8890925446
 20
9.4143757214
 10
-49.7370350235
 20
9.4029875256
 10
-49.5863942224
 20
9.3796223061
 10
-49.4379723199
 20
9.3444297524
 10
-49.2927667114
 20
9.2975941478
 10
-49.1516757976
 20
9.2393828702
 10
-49.0154074058
 20
9.1700906712
 10
-48.8846534339
 20
9.0900280453
 10
-48.7594192399
 20
8.9990173009
 10
-48.6412958454
 20
8.8979949156
 10
-48.5329567117
 20
8.789455589
 10
-48.4347887137
 20
8.6745929624
 10
-48.3467214078
 20
8.5543600196
 10
-48.2698618314
 20
8.4316699376
 10
-48.204088014
 20
8.3081878383
 10
-48.1485740379
 20
8.1844959894
 10
-48.1028308381
 20
8.0620178236
 10
-48.0661858896
 20
7.9417029104
 10
-48.0378713635
 20
7.82424018
 10
-48.0170967632
 20
7.710532895
 10
-48.003070655
 20
7.6011985978
 10
-47.9950251925
 20
7.4965950696
 10
-47.9921880209
 20
7.3970862093
  0
LWPOLYLINE
  5
377
100
AcDbEntity
  8
RACCORDO
100
AcDbPolyline
 62
250
  6
CONTINUOUS
 90
46
 70
0
 10
-52.1653200486
 20
7.4019244993
 10
-52.1617949785
 20
7.5136061487
 10
-52.150613607
 20
7.6294274363
 10
-52.1317759342
 20
7.7493883619
 10
-52.1060356003
 20
7.8742607837
 10
-52.0726389651
 20
8.0032728436
 10
-52.0293251077
 20
8.1341089674
 10
-51.9758512176
 20
8.267174219
 10
-51.9124601052
 20
8.4020635346
 10
-51.8376192817
 20
8.5352461484
 10
-51.7505045284
 20
8.6672351274
 10
-51.651940064
 20
8.7975174046
 10
-51.5428660555
 20
8.9210230125
 10
-51.4223382993
 20
9.0374639551
 10
-51.291300999
 20
9.1471282285
 10
-51.1535269322
 20
9.2458098534
 10
-51.0093958355
 20
9.3324951964
 10
-50.8585279723
 20
9.408197891
 10
-50.7035569108
 20
9.4717528581
 10
-50.5444925146
 20
9.5229498824
 10
-50.3813249202
 20
9.5619991793
 10
-50.2166581053
 20
9.5883663159
 10
-50.0503995485
 20
9.6018806744
 10
-49.8826417713
 20
9.6027128725
 10
-49.7162663151
 20
9.5908403307
 10
-49.5513551907
 20
9.5660756598
 10
-49.3878263874
 20
9.5286062491
 10
-49.2283154145
 20
9.4789716868
 10
-49.072923081
 20
9.4170628658
 10
-48.9215485779
 20
9.3429888933
 10
-48.7765249882
 20
9.2576166795
 10
-48.6372736239
 20
9.1598788516
 10
-48.5043731729
 20
9.0508427823
 10
-48.3818927821
 20
8.9345775002
 10
-48.2707824068
 20
8.8106767849
 10
-48.1700920917
 20
8.6795468567
 10
-48.0810411176
 20
8.5464754044
 10
-48.0045262788
 20
8.4119866202
 10
-47.939650781
 20
8.2755563118
 10
-47.8849435227
 20
8.1408995926
 10
-47.8406847776
 20
8.0083552175
 10
-47.8065942721
 20
7.8775844315
 10
-47.7803600839
 20
7.751286082
 10
-47.7612115722
 20
7.6303597847
 10
-47.7499193778
 20
7.5139059237
 10
-47.7464835007
 20
7.4019244993
  0
LWPOLYLINE
  5
378
100
AcDbEntity
  8
RACCORDO
100
AcDbPolyline
 62
250
  6
CONTINUOUS
 90
43
 70
0
 10
-51.9348878444
 20
-18.6097214113
 10
-51.9292257974
 20
-18.4601277654
 10
-51.9123157806
 20
-18.3116774131
 10
-51.8843194564
 20
-18.1652090966
 10
-51.845466539
 20
-18.0215625838
 10
-51.7960366634
 20
-17.8815118371
 10
-51.7363418128
 20
-17.7457661239
 10
-51.6667670742
 20
-17.6150730075
 10
-51.5877441527
 20
-17.4901339368
 10
-51.4997039854
 20
-17.3715532069
 10
-51.4031724446
 20
-17.2599831397
 10
-51.2987016665
 20
-17.156010904
 10
-51.1867927666
 20
-17.0601107654
 10
-51.0680541848
 20
-16.9728027132
 10
-50.9431588102
 20
-16.894580199
 10
-50.8127311011
 20
-16.8258409903
 10
-50.6774714229
 20
-16.7669726212
 10
-50.5381413248
 20
-16.7183243164
 10
-50.3954885294
 20
-16.6801750013
 10
-50.2502676675
 20
-16.6527506455
 10
-50.1033184462
 20
-16.6362335925
 10
-49.9555411538
 20
-16.6307353828
 10
-49.8077594071
 20
-16.6362879438
 10
-49.6608000083
 20
-16.6528614939
 10
-49.5155681345
 20
-16.6803453335
 10
-49.3729019623
 20
-16.7185585522
 10
-49.2335589382
 20
-16.7672756068
 10
-49.0982974798
 20
-16.8262134746
 10
-48.9678801358
 20
-16.8950205955
 10
-48.8430055783
 20
-16.973308365
 10
-48.7243030087
 20
-17.0606733005
 10
-48.6124441986
 20
-17.1566187601
 10
-48.5080346963
 20
-17.2606230038
 10
-48.4115757617
 20
-17.3722066716
 10
-48.3236179987
 20
-17.4907776655
 10
-48.2446812086
 20
-17.6156844743
 10
-48.1751897074
 20
-17.7463271039
 10
-48.1155726423
 20
-17.8820030289
 10
-48.0662115056
 20
-18.0219660861
 10
-48.0274131686
 20
-18.1655170233
 10
-47.9994559283
 20
-18.31188661
 10
-47.9825697292
 20
-18.4602337386
 10
-47.976915705
 20
-18.6097214113
  0
LWPOLYLINE
  5
379
100
AcDbEntity
  8
RACCORDO
100
AcDbPolyline
 62
250
  6
CONTINUOUS
 90
43
 70
0
 10
-52.1838230129
 20
-18.6097214113
 10
-52.1772117061
 20
-18.4407456945
 10
-52.1583945784
 20
-18.2746252617
 10
-52.1273716295
 20
-18.1113601127
 10
-52.0837765064
 20
-17.9500165807
 10
-52.0279755621
 20
-17.7915283327
 10
-51.9610678569
 20
-17.6386963693
 10
-51.8829055055
 20
-17.4917223023
 10
-51.793636393
 20
-17.3504045201
 10
-51.6948032348
 20
-17.2169391887
 10
-51.5862891475
 20
-17.091455281
 10
-51.4682110145
 20
-16.9738238242
 10
-51.3424622011
 20
-16.8658540661
 10
-51.2089239057
 20
-16.7676698261
 10
-51.0677149299
 20
-16.6791472849
 10
-50.9210850432
 20
-16.6017242326
 10
-50.7689250416
 20
-16.5355595429
 10
-50.6113441291
 20
-16.480494342
 10
-50.4509196866
 20
-16.4374897985
 10
-50.2875610272
 20
-16.4067492865
 10
-50.1213588378
 20
-16.3880694318
 10
-49.95516256
 20
-16.3818012799
 10
-49.7889725224
 20
-16.3881802698
 10
-49.6227883964
 20
-16.4069709626
 10
-49.4594586379
 20
-16.4378180869
 10
-49.2990740614
 20
-16.4809249477
 10
-49.1415438523
 20
-16.5360882399
 10
-48.9894440234
 20
-16.6023427772
 10
-48.8428830653
 20
-16.6798490309
 10
-48.7017524873
 20
-16.7684465298
 10
-48.5683028301
 20
-16.8666886736
 10
-48.4426551149
 20
-16.9746992502
 10
-48.3246883206
 20
-17.0923544718
 10
-48.2162899238
 20
-17.2178363751
 10
-48.1175802275
 20
-17.3512693319
 10
-48.0284389287
 20
-17.4925289704
 10
-47.9503925951
 20
-17.6394242127
 10
-47.883586433
 20
-17.792152099
 10
-47.827875236
 20
-17.950515589
 10
-47.7843499529
 20
-18.1117324851
 10
-47.7533742335
 20
-18.2748753878
 10
-47.734584428
 20
-18.4408716966
 10
-47.7279805365
 20
-18.6097214113
  0
LWPOLYLINE
  5
37A
100
AcDbEntity
  8
ASSI
100
AcDbPolyline
 62
7
  6
CONTINUOUS
 90
7
 70
0
 10
-50.2559017747
 20
6.822827866
 10
-50.2562196992
 20
6.8200215899
 10
-50.2570977391
 20
6.817292159
 10
-50.2585461234
 20
6.8146484832
 10
-50.2605749863
 20
6.8120988242
 10
-50.2631943874
 20
6.8096507716
 10
-50.2664143304
 20
6.807311221
  0
LINE
  5
37B
100
AcDbEntity
  8
0
100
AcDbLine
 62
7
  6
CONTINUOUS
 10
-50.6846251815
 20
-2.3363883959
 11
-50.7059017747
 21
-2.4405544267
  0
LINE
  5
37C
100
AcDbEntity
  8
0
100
AcDbLine
 62
7
  6
CONTINUOUS
 10
-50.2590932577
 20
-2.3155544267
 11
-50.2803698509
 21
-2.4197214113
  0
LINE
  5
37D
100
AcDbEntity
  8
0
100
AcDbLine
 62
7
  6
CONTINUOUS
 10
-50.1527102916
 20
-2.4197214113
 11
-50.1314336984
 21
-2.3363883959
  0
LINE
  5
37E
100
AcDbEntity
  8
0
100
AcDbLine
 62
7
  6
CONTINUOUS
 10
-50.1739868849
 20
-2.6280544267
 11
-50.1527102916
 21
-2.5447214113
  0
LINE
  5
37F
100
AcDbEntity
  8
TRASH
100
AcDbLine
 62
250
  6
CONTINUOUS
 10
-44.0310442965
 20
16.8902785887
 11
-44.0521106997
 21
16.820458329
  0
LINE
  5
380
100
AcDbEntity
  8
0
100
AcDbLine
 62
7
  6
CONTINUOUS
 10
-50.5782422154
 20
-2.4197214113
 11
-50.5569656222
 21
-2.3572214113
  0
LINE
  5
381
100
AcDbEntity
  8
0
100
AcDbLine
 62
7
  6
CONTINUOUS
 10
-50.2803698509
 20
-2.5447214113
 11
-50.3016464441
 21
-2.6072214113
  0
LINE
  5
382
100
AcDbEntity
  8
0
100
AcDbLine
 62
7
  6
CONTINUOUS
 10
-50.2165400713
 20
-2.2322214113
 11
-50.2590932577
 21
-2.3155544267
  0
LINE
  5
383
100
AcDbEntity
  8
0
100
AcDbLine
 62
7
  6
CONTINUOUS
 10
-50.2165400713
 20
-2.7113883959
 11
-50.1739868849
 21
-2.6280544267
  0
LINE
  5
384
100
AcDbEntity
  8
0
100
AcDbLine
 62
7
  6
CONTINUOUS
 10
-49.7910081549
 20
-2.7947214113
 11
-49.7271783697
 21
-2.6905544267
  0
LINE
  5
385
100
AcDbEntity
  8
0
100
AcDbLine
 62
7
  6
CONTINUOUS
 10
-50.1314336984
 20
-2.3363883959
 11
-50.088880512
 21
-2.2738883959
  0
LINE
  5
386
100
AcDbEntity
  8
0
100
AcDbLine
 62
7
  6
CONTINUOUS
 10
-50.3016464441
 20
-2.6072214113
 11
-50.3441996305
 21
-2.6697214113
  0
LINE
  5
387
100
AcDbEntity
  8
0
100
AcDbLine
 62
7
  6
CONTINUOUS
 10
-50.6207954018
 20
-2.2530544267
 11
-50.6846251815
 21
-2.3363883959
  0
LINE
  5
388
100
AcDbEntity
  8
0
100
AcDbLine
 62
7
  6
CONTINUOUS
 10
-50.1314336984
 20
-2.1488883959
 11
-50.2165400713
 21
-2.2322214113
  0
LINE
  5
389
100
AcDbEntity
  8
0
100
AcDbLine
 62
7
  6
CONTINUOUS
 10
-50.3016464441
 20
-2.7947214113
 11
-50.2165400713
 21
-2.7113883959
  0
LINE
  5
38A
100
AcDbEntity
  8
0
100
AcDbLine
 62
7
  6
CONTINUOUS
 10
-49.854837942
 20
-2.6697214113
 11
-49.9186677365
 21
-2.7322214113
  0
LINE
  5
38B
100
AcDbEntity
  8
0
100
AcDbLine
 62
7
  6
CONTINUOUS
 10
-50.088880512
 20
-2.2738883959
 11
-50.0250507026
 21
-2.2322214113
  0
LINE
  5
38C
100
AcDbEntity
  8
0
100
AcDbLine
 62
7
  6
CONTINUOUS
 10
-49.854837942
 20
-3.4613883959
 11
-50.7059017747
 21
-3.9822214113
  0
LINE
  5
38D
100
AcDbEntity
  8
0
100
AcDbLine
 62
7
  6
CONTINUOUS
 10
-50.5782422154
 20
-4.0447214113
 11
-49.7059017747
 21
-3.5238883959
  0
LINE
  5
38E
100
AcDbEntity
  8
0
100
AcDbLine
 62
7
  6
CONTINUOUS
 10
-49.8973911433
 20
-2.8572214113
 11
-49.7910081549
 21
-2.7947214113
  0
LINE
  5
38F
100
AcDbEntity
  8
0
100
AcDbLine
 62
7
  6
CONTINUOUS
 10
-50.3441996305
 20
-2.6697214113
 11
-50.4080294101
 21
-2.6905544267
  0
LINE
  5
390
100
AcDbEntity
  8
0
100
AcDbLine
 62
7
  6
CONTINUOUS
 10
-49.9186677365
 20
-2.7322214113
 11
-49.9824975162
 21
-2.7530544267
  0
LWPOLYLINE
  5
391
100
AcDbEntity
  8
0
100
AcDbPolyline
 62
7
  6
CONTINUOUS
 90
10
 70
0
 10
-43.0885757535
 20
-9.6859489943
 10
-43.1296912252
 20
-9.6931671899
 10
-43.1679151224
 20
-9.7023846532
 10
-43.2032474449
 20
-9.7136013842
 10
-43.2353925705
 20
-9.726839599
 10
-43.2646461216
 20
-9.7420770815
 10
-43.2918949648
 20
-9.7592471828
 10
-43.3174347223
 20
-9.7783276867
 10
-43.340969772
 20
-9.7993408094
 10
-43.3625001139
 20
-9.822286551
  0
LWPOLYLINE
  5
392
100
AcDbEntity
  8
0
100
AcDbPolyline
 62
7
  6
CONTINUOUS
 90
10
 70
0
 10
-42.4429413556
 20
-9.65934613
 10
-42.4930507657
 20
-9.6616858926
 10
-42.5400784033
 20
-9.6670831625
 10
-42.5840242685
 20
-9.6755379398
 10
-42.6245220319
 20
-9.6870940318
 10
-42.661938023
 20
-9.7017076313
 10
-42.6973712293
 20
-9.7192473157
 10
-42.7311879802
 20
-9.7396692777
 10
-42.7630219464
 20
-9.7630173246
 10
-42.7928731279
 20
-9.7892914566
  0
LWPOLYLINE
  5
393
100
AcDbEntity
  8
0
100
AcDbPolyline
 62
7
  6
CONTINUOUS
 90
10
 70
0
 10
-42.657811734
 20
-10.649796244
 10
-42.5628160007
 20
-10.6467090138
 10
-42.4765334129
 20
-10.640077666
 10
-42.3989639705
 20
-10.6299022007
 10
-42.330760531
 20
-10.6157983704
 10
-42.271270237
 20
-10.5981504225
 10
-42.2185345159
 20
-10.5781110998
 10
-42.1719005103
 20
-10.5560646497
 10
-42.1320210777
 20
-10.5316268246
 10
-42.098896218
 20
-10.5047976247
  0
LINE
  5
394
100
AcDbEntity
  8
0
100
AcDbLine
 62
7
  6
CONTINUOUS
 10
-43.9686717747
 20
-11.3743114113
 11
-44.7391977747
 21
-11.3743114113
  0
LINE
  5
395
100
AcDbEntity
  8
0
100
AcDbLine
 62
7
  6
CONTINUOUS
 10
-48.2725817747
 20
-11.3743114113
 11
-49.0431077747
 21
-11.3743114113
  0
LINE
  5
396
100
AcDbEntity
  8
0
100
AcDbLine
 62
7
  6
CONTINUOUS
 10
-43.129503402
 20
-11.2974770333
 11
-41.9559017747
 21
-11.2974770333
  0
LINE
  5
397
100
AcDbEntity
  8
0
100
AcDbLine
 62
7
  6
CONTINUOUS
 10
-50.7059017747
 20
-11.2530546652
 11
-49.7059017747
 21
-11.2530546652
  0
LINE
  5
398
100
AcDbEntity
  8
0
100
AcDbLine
 62
7
  6
CONTINUOUS
 10
-49.8335613488
 20
-11.1280546652
 11
-50.5782422154
 21
-11.1280546652
  0
LINE
  5
399
100
AcDbEntity
  8
0
100
AcDbLine
 62
7
  6
CONTINUOUS
 10
-41.9559017747
 20
-11.113302436
 11
-43.4620409935
 21
-11.113302436
  0
LINE
  5
39A
100
AcDbEntity
  8
0
100
AcDbLine
 62
7
  6
CONTINUOUS
 10
-50.3654762237
 20
-10.5447214113
 11
-50.0463272958
 21
-10.5447214113
  0
LINE
  5
39B
100
AcDbEntity
  8
0
100
AcDbLine
 62
7
  6
CONTINUOUS
 10
-50.0463272958
 20
-10.4197214113
 11
-50.3654762237
 21
-10.4197214113
  0
LINE
  5
39C
100
AcDbEntity
  8
0
100
AcDbLine
 62
7
  6
CONTINUOUS
 10
-50.7059017747
 20
-10.2530546652
 11
-49.7059017747
 21
-10.2530546652
  0
LINE
  5
39D
100
AcDbEntity
  8
0
100
AcDbLine
 62
7
  6
CONTINUOUS
 10
-49.8335613488
 20
-10.1280546652
 11
-50.1739868849
 21
-10.1280546652
  0
LINE
  5
39E
100
AcDbEntity
  8
0
100
AcDbLine
 62
7
  6
CONTINUOUS
 10
-50.3016464441
 20
-10.1280546652
 11
-50.5782422154
 21
-10.1280546652
  0
LINE
  5
39F
100
AcDbEntity
  8
0
100
AcDbLine
 62
7
  6
CONTINUOUS
 10
-56.1059127747
 20
-9.8529324113
 11
-54.3059017747
 21
-9.8529324113
  0
LWPOLYLINE
  5
3A0
100
AcDbEntity
  8
0
100
AcDbPolyline
 62
7
  6
CONTINUOUS
 90
10
 70
0
 10
-42.7294352083
 20
-10.4666448201
 10
-42.7817905768
 20
-10.4654174121
 10
-42.8305706538
 20
-10.4629947095
 10
-42.8757754393
 20
-10.4593767122
 10
-42.9172390108
 20
-10.45448365
 10
-42.9551272907
 20
-10.4483952931
 10
-42.9899380471
 20
-10.441350953
 10
-43.0218372025
 20
-10.4334304002
 10
-43.0506588343
 20
-10.4245538642
 10
-43.0764029425
 20
-10.414721345
  0
LWPOLYLINE
  5
3A1
100
AcDbEntity
  8
0
100
AcDbPolyline
 62
7
  6
CONTINUOUS
 90
10
 70
0
 10
-42.4419181376
 20
-10.4379954304
 10
-42.4760837387
 20
-10.4364187955
 10
-42.5080585794
 20
-10.4327847517
 10
-42.5378426597
 20
-10.4270932987
 10
-42.5652158637
 20
-10.4192870954
 10
-42.5903983072
 20
-10.409423483
 10
-42.614050338
 20
-10.3976744854
 10
-42.6363920718
 20
-10.3840974439
 10
-42.6572033928
 20
-10.3686350172
 10
-42.676484301
 20
-10.3512872053
  0
LINE
  5
3A2
100
AcDbEntity
  8
0
100
AcDbLine
 62
7
  6
CONTINUOUS
 10
-49.9399443298
 20
-10.4405546652
 11
-50.0463272958
 21
-10.4197214113
  0
LINE
  5
3A3
100
AcDbEntity
  8
0
100
AcDbLine
 62
7
  6
CONTINUOUS
 10
-50.0463272958
 20
-10.5447214113
 11
-49.961220923
 21
-10.5655546652
  0
LINE
  5
3A4
100
AcDbEntity
  8
0
100
AcDbLine
 62
7
  6
CONTINUOUS
 10
-49.854837942
 20
-10.4822214113
 11
-49.9399443298
 21
-10.4405546652
  0
LINE
  5
3A5
100
AcDbEntity
  8
0
100
AcDbLine
 62
7
  6
CONTINUOUS
 10
-49.961220923
 20
-10.5655546652
 11
-49.8973911433
 21
-10.6072214113
  0
LINE
  5
3A6
100
AcDbEntity
  8
0
100
AcDbLine
 62
7
  6
CONTINUOUS
 10
-49.7697315617
 20
-10.5655546652
 11
-49.854837942
 21
-10.4822214113
  0
LWPOLYLINE
  5
3A7
100
AcDbEntity
  8
0
100
AcDbPolyline
 62
7
  6
CONTINUOUS
 90
8
 70
0
 10
-53.113170409
 20
-6.8230339598
 10
-53.0795368324
 20
-6.8594498968
 10
-53.0408376017
 20
-6.8913766887
 10
-52.9972286477
 20
-6.918847149
 10
-52.9491458933
 20
-6.9418305044
 10
-52.8967346461
 20
-6.9603164972
 10
-52.8398495984
 20
-6.974315385
 10
-52.7784907503
 20
-6.9838271681
  0
LWPOLYLINE
  5
3A8
100
AcDbEntity
  8
0
100
AcDbPolyline
 62
7
  6
CONTINUOUS
 90
4
 70
0
 10
-52.0443898092
 20
-6.6186243232
 10
-52.1069225844
 20
-6.5471876954
 10
-52.1386492654
 20
-6.5100055969
 10
-52.1705768069
 20
-6.4716896119
  0
LWPOLYLINE
  5
3A9
100
AcDbEntity
  8
0
100
AcDbPolyline
 62
7
  6
CONTINUOUS
 90
33
 70
0
 10
-52.1705768069
 20
-6.4716896119
 10
-52.2198492182
 20
-6.4131026614
 10
-52.2689346803
 20
-6.3573888861
 10
-52.3178331931
 20
-6.3045482859
 10
-52.3662161961
 20
-6.2538982516
 10
-52.4144122498
 20
-6.2061213924
 10
-52.4634070362
 20
-6.163265536
 10
-52.5136800268
 20
-6.1254420961
 10
-52.5647517501
 20
-6.0925396589
 10
-52.6161694741
 20
-6.0662718113
 10
-52.667968917
 20
-6.0472246873
 10
-52.7201143606
 20
-6.0348121529
 10
-52.7720459174
 20
-6.0289893929
 10
-52.8242333289
 20
-6.0300168681
 10
-52.8762068536
 20
-6.0376341176
 10
-52.9259973798
 20
-6.0510149437
 10
-52.9737056494
 20
-6.0702685189
 10
-53.0192309204
 20
-6.0952856707
 10
-53.0603018556
 20
-6.1249126843
 10
-53.09630178
 20
-6.1588295604
 10
-53.1278473685
 20
-6.1973562984
 10
-53.1545173091
 20
-6.2402991808
 10
-53.1762920052
 20
-6.2881409472
 10
-53.1931910534
 20
-6.340398858
 10
-53.2048519309
 20
-6.3954309777
 10
-53.2110926968
 20
-6.4543061392
 10
-53.212095292
 20
-6.5159555095
 10
-53.2080430163
 20
-6.5755306546
 10
-53.1989379635
 20
-6.632166394
 10
-53.1847780396
 20
-6.6867279082
 10
-53.1657402628
 20
-6.7369623048
 10
-53.1418942624
 20
-6.7821616911
 10
-53.113170409
 20
-6.8230339598
  0
LWPOLYLINE
  5
3AA
100
AcDbEntity
  8
0
100
AcDbPolyline
 62
7
  6
CONTINUOUS
 90
16
 70
0
 10
-52.2595773076
 20
-6.6342080125
 10
-52.2233977431
 20
-6.6787369921
 10
-52.1871546375
 20
-6.7210606409
 10
-52.1508479909
 20
-6.7611789591
 10
-52.1145432078
 20
-6.7992677924
 10
-52.0781748836
 20
-6.835151295
 10
-52.0415468044
 20
-6.8683019292
 10
-52.0045745399
 20
-6.898737126
 10
-51.9673425204
 20
-6.9264394544
 10
-51.9299078225
 20
-6.9508290837
 10
-51.8921137598
 20
-6.9719719964
 10
-51.8541170188
 20
-6.98980221
 10
-51.8164447362
 20
-7.0035419461
 10
-51.779272624
 20
-7.0129319453
 10
-51.7424249702
 20
-7.018231467
 10
-51.7059017747
 20
-7.0194405113
  0
LINE
  5
3AB
100
AcDbEntity
  8
0
100
AcDbLine
 62
7
  6
CONTINUOUS
 10
-49.8973911433
 20
-10.6072214113
 11
-49.854837942
 21
-10.6697214113
  0
LWPOLYLINE
  5
3AC
100
AcDbEntity
  8
0
100
AcDbPolyline
 62
7
  6
CONTINUOUS
 90
9
 70
0
 10
-53.1556291368
 20
-5.590621626
 10
-53.1303599355
 20
-5.6298979006
 10
-53.1003275627
 20
-5.6658974849
 10
-53.0653779385
 20
-5.6988855273
 10
-53.025665143
 20
-5.7285968794
 10
-52.9814893118
 20
-5.7544781627
 10
-52.9329504902
 20
-5.7763449176
 10
-52.8799486329
 20
-5.7943816037
 10
-52.8224837401
 20
-5.808588221
  0
LWPOLYLINE
  5
3AD
100
AcDbEntity
  8
0
100
AcDbPolyline
 62
7
  6
CONTINUOUS
 90
29
 70
0
 10
-52.5202614403
 20
-5.1248980451
 10
-52.5420131396
 20
-5.0839430955
 10
-52.566389873
 20
-5.0474865455
 10
-52.5933916404
 20
-5.0155283951
 10
-52.6232168669
 20
-4.9880452113
 10
-52.6556671274
 20
-4.965060427
 10
-52.6901471473
 20
-4.9466443413
 10
-52.7268159043
 20
-4.9327722622
 10
-52.7655144207
 20
-4.9234688818
 10
-52.8051704881
 20
-4.9188785746
 10
-52.8460309339
 20
-4.9189710646
 10
-52.8878489307
 20
-4.9237766279
 10
-52.9288117881
 20
-4.9335304677
 10
-52.9688696
 20
-4.9484004264
 10
-53.0080722724
 20
-4.9682186617
 10
-53.0447568329
 20
-4.9927168495
 10
-53.0787887279
 20
-5.0219626582
 10
-53.1103025111
 20
-5.0558884194
 10
-53.13803887
 20
-5.0940228043
 10
-53.1620134086
 20
-5.1366598386
 10
-53.1822105231
 20
-5.1835054964
 10
-53.1973240894
 20
-5.2332063712
 10
-53.2070054535
 20
-5.2868238373
 10
-53.2116032694
 20
-5.3432965203
 10
-53.2108573753
 20
-5.3980868904
 10
-53.2044335029
 20
-5.450294586
 10
-53.1926659206
 20
-5.5008199687
 10
-53.1762972711
 20
-5.5478265944
 10
-53.1556291368
 20
-5.590621626
  0
LINE
  5
3AE
100
AcDbEntity
  8
0
100
AcDbLine
 62
7
  6
CONTINUOUS
 10
-49.7271783697
 20
-10.6488881574
 11
-49.7697315617
 21
-10.5655546652
  0
LINE
  5
3AF
100
AcDbEntity
  8
TRASH
100
AcDbLine
 62
250
  6
CONTINUOUS
 10
-44.0310442965
 20
-30.1097214113
 11
-44.0521106997
 21
-30.0399011516
  0
LWPOLYLINE
  5
3B0
100
AcDbEntity
  8
0
100
AcDbPolyline
 62
7
  6
CONTINUOUS
 90
26
 70
0
 10
-52.4181677589
 20
-5.4638464133
 10
-52.4296378379
 20
-5.4184113297
 10
-52.4364610105
 20
-5.3745665505
 10
-52.4386372766
 20
-5.3323120757
 10
-52.4361225294
 20
-5.2912923345
 10
-52.4289608758
 20
-5.2518628976
 10
-52.4172846359
 20
-5.2150904776
 10
-52.4007919506
 20
-5.1810402003
 10
-52.3797846791
 20
-5.1496469399
 10
-52.3553007195
 20
-5.1217820312
 10
-52.3274676059
 20
-5.0973898453
 10
-52.2961578042
 20
-5.076526011
 10
-52.2620266106
 20
-5.06022875
 10
-52.2244681184
 20
-5.0487384632
 10
-52.1840882343
 20
-5.0418147497
 10
-52.1433599746
 20
-5.0397746273
 10
-52.1021676127
 20
-5.0427275493
 10
-52.0606268751
 20
-5.0505640624
 10
-52.021557958
 20
-5.0632728248
 10
-51.9854825643
 20
-5.0813242977
 10
-51.951878991
 20
-5.1042480199
 10
-51.9220023251
 20
-5.1306212649
 10
-51.8958934872
 20
-5.1604895449
 10
-51.8735115567
 20
-5.1938073478
 10
-51.8559888586
 20
-5.2290154112
 10
-51.8438062262
 20
-5.2664153625
  0
LWPOLYLINE
  5
3B1
100
AcDbEntity
  8
0
100
AcDbPolyline
 62
7
  6
CONTINUOUS
 90
15
 70
0
 10
-51.8438062262
 20
-5.2664153625
 10
-51.8364828263
 20
-5.3057055743
 10
-51.8337084842
 20
-5.3444219022
 10
-51.835437257
 20
-5.3823538516
 10
-51.8417150877
 20
-5.4197119172
 10
-51.8523696296
 20
-5.4546634385
 10
-51.8674392436
 20
-5.4867734574
 10
-51.8868855689
 20
-5.516476932
 10
-51.9104211771
 20
-5.5432460761
 10
-51.9382414852
 20
-5.5668343372
 10
-51.9701510761
 20
-5.5874882678
 10
-52.0052762703
 20
-5.60541974
 10
-52.0433258412
 20
-5.6206993777
 10
-52.0845910154
 20
-5.6332565569
 10
-52.1290717929
 20
-5.6430912777
  0
LINE
  5
3B2
100
AcDbEntity
  8
0
100
AcDbLine
 62
7
  6
CONTINUOUS
 10
-52.1290717929
 20
-5.6430912777
 11
-52.1039327747
 21
-5.8274424113
  0
LINE
  5
3B3
100
AcDbEntity
  8
ASSI
100
AcDbLine
 62
7
  6
CONTINUOUS
 10
-50.2560063609
 20
6.8251363686
 11
-50.2559017747
 21
6.822827866
  0
LINE
  5
3B4
100
AcDbEntity
  8
RACCORDO
100
AcDbLine
 62
7
  6
CONTINUOUS
 10
-50.8697107736
 20
15.3652785887
 11
-50.9030720208
 21
16.3206197112
  0
LWPOLYLINE
  5
3B5
100
AcDbEntity
  8
RACCORDO
100
AcDbPolyline
 62
7
  6
CONTINUOUS
 90
13
 70
0
 10
-51.1059017747
 20
14.7868180086
 10
-51.1055556694
 20
14.7604906591
 10
-51.1046337825
 20
14.7353631997
 10
-51.103136114
 20
14.7114356304
 10
-51.1010175716
 20
14.6883317943
 10
-51.0983232475
 20
14.6664278484
 10
-51.0951884193
 20
14.6468522632
 10
-51.0915968154
 20
14.6297479646
 10
-51.0875647074
 20
14.6149720266
 10
-51.0832761866
 20
14.6032241421
 10
-51.0787926171
 20
14.594737542
 10
-51.0740526348
 20
14.5892789954
 10
-51.0690562399
 20
14.5868485023
  0
LINE
  5
3B6
100
AcDbEntity
  8
ASSI
100
AcDbLine
 62
7
  6
CONTINUOUS
 10
-50.9360602357
 20
-28.5488141665
 11
-50.9360602357
 21
-27.9706286561
  0
LINE
  5
3B7
100
AcDbEntity
  8
ASSI
100
AcDbLine
 62
7
  6
CONTINUOUS
 10
-50.9360602357
 20
14.7511858335
 11
-50.9360602357
 21
15.3293713439
  0
LINE
  5
3B8
100
AcDbEntity
  8
RACCORDO
100
AcDbLine
 62
7
  6
CONTINUOUS
 10
-50.9325681587
 20
16.3127162448
 11
-50.9325681587
 21
15.9003349252
  0
LINE
  5
3B9
100
AcDbEntity
  8
RACCORDO
100
AcDbLine
 62
7
  6
CONTINUOUS
 10
-50.9325681587
 20
-29.5321590674
 11
-50.9325681587
 21
-29.1197777478
  0
LINE
  5
3BA
100
AcDbEntity
  8
DRAFT
100
AcDbLine
 62
7
  6
CONTINUOUS
 10
-50.8697107736
 20
15.3652785887
 11
-50.8697107736
 21
14.5808437797
  0
LINE
  5
3BB
100
AcDbEntity
  8
DRAFT
100
AcDbLine
 62
7
  6
CONTINUOUS
 10
-50.8697107736
 20
-27.8002866023
 11
-50.8697107736
 21
-28.5847214113
  0
LINE
  5
3BC
100
AcDbEntity
  8
TRASH
100
AcDbLine
 62
7
  6
CONTINUOUS
 10
-50.8059017747
 20
15.5902785887
 11
-50.8059017747
 21
14.5623504848
  0
LINE
  5
3BD
100
AcDbEntity
  8
TRASH
100
AcDbLine
 62
7
  6
CONTINUOUS
 10
-50.8059017747
 20
-28.8097214113
 11
-50.8059017747
 21
-27.7817933074
  0
LINE
  5
3BE
100
AcDbEntity
  8
0
100
AcDbLine
 62
7
  6
CONTINUOUS
 10
-50.7059017747
 20
-1.1488883959
 11
-50.7059017747
 21
-1.3155544267
  0
LINE
  5
3BF
100
AcDbEntity
  8
0
100
AcDbLine
 62
7
  6
CONTINUOUS
 10
-50.7059017747
 20
-1.8155544267
 11
-50.7059017747
 21
-1.9405544267
  0
LINE
  5
3C0
100
AcDbEntity
  8
0
100
AcDbLine
 62
7
  6
CONTINUOUS
 10
-50.7059017747
 20
-2.4405544267
 11
-50.7059017747
 21
-2.5447214113
  0
LINE
  5
3C1
100
AcDbEntity
  8
0
100
AcDbLine
 62
7
  6
CONTINUOUS
 10
-50.7059017747
 20
-3.0447214113
 11
-50.7059017747
 21
-3.1697214113
  0
LINE
  5
3C2
100
AcDbEntity
  8
0
100
AcDbLine
 62
7
  6
CONTINUOUS
 10
-50.7059017747
 20
-3.3363883959
 11
-50.7059017747
 21
-3.4613883959
  0
LINE
  5
3C3
100
AcDbEntity
  8
0
100
AcDbLine
 62
7
  6
CONTINUOUS
 10
-50.7059017747
 20
-3.9822214113
 11
-50.7059017747
 21
-4.1697214113
  0
LINE
  5
3C4
100
AcDbEntity
  8
0
100
AcDbLine
 62
7
  6
CONTINUOUS
 10
-50.7059017747
 20
-4.3363883959
 11
-50.7059017747
 21
-4.4613883959
  0
LINE
  5
3C5
100
AcDbEntity
  8
0
100
AcDbLine
 62
7
  6
CONTINUOUS
 10
-50.7059017747
 20
-4.9613883959
 11
-50.7059017747
 21
-5.0863883959
  0
LINE
  5
3C6
100
AcDbEntity
  8
0
100
AcDbLine
 62
7
  6
CONTINUOUS
 10
-50.7059017747
 20
-5.2530544267
 11
-50.7059017747
 21
-6.0447214113
  0
LINE
  5
3C7
100
AcDbEntity
  8
0
100
AcDbLine
 62
7
  6
CONTINUOUS
 10
-50.7059017747
 20
-7.211387919
 11
-50.7059017747
 21
-7.336387919
  0
LINE
  5
3C8
100
AcDbEntity
  8
0
100
AcDbLine
 62
7
  6
CONTINUOUS
 10
-50.7059017747
 20
-7.8572214113
 11
-50.7059017747
 21
-8.0447214113
  0
LINE
  5
3C9
100
AcDbEntity
  8
0
100
AcDbLine
 62
7
  6
CONTINUOUS
 10
-50.7059017747
 20
-8.211387919
 11
-50.7059017747
 21
-8.336387919
  0
LINE
  5
3CA
100
AcDbEntity
  8
0
100
AcDbLine
 62
7
  6
CONTINUOUS
 10
-50.7059017747
 20
-9.5030546652
 11
-50.7059017747
 21
-10.2530546652
  0
LINE
  5
3CB
100
AcDbEntity
  8
0
100
AcDbLine
 62
7
  6
CONTINUOUS
 10
-50.7059017747
 20
-10.7530546652
 11
-50.7059017747
 21
-11.2530546652
  0
LINE
  5
3CC
100
AcDbEntity
  8
0
100
AcDbLine
 62
7
  6
CONTINUOUS
 10
-50.7059017747
 20
-11.7530547844
 11
-50.7059017747
 21
-11.9197214113
  0
LINE
  5
3CD
100
AcDbEntity
  8
0
100
AcDbLine
 62
7
  6
CONTINUOUS
 10
-50.7059017747
 20
-12.4197214113
 11
-50.7059017747
 21
-12.6072214113
  0
LINE
  5
3CE
100
AcDbEntity
  8
0
100
AcDbLine
 62
7
  6
CONTINUOUS
 10
-50.7059017747
 20
-13.2322214113
 11
-50.7059017747
 21
-13.4197214113
  0
LINE
  5
3CF
100
AcDbEntity
  8
0
100
AcDbLine
 62
7
  6
CONTINUOUS
 10
-50.5995188086
 20
-6.0447214113
 11
-50.5995188086
 21
-5.711387919
  0
LINE
  5
3D0
100
AcDbEntity
  8
0
100
AcDbLine
 62
7
  6
CONTINUOUS
 10
-50.5995188086
 20
-5.586387919
 11
-50.5995188086
 21
-5.2530544267
  0
LINE
  5
3D1
100
AcDbEntity
  8
0
100
AcDbLine
 62
7
  6
CONTINUOUS
 10
-50.5782422154
 20
-11.1280546652
 11
-50.5782422154
 21
-10.7530546652
  0
LINE
  5
3D2
100
AcDbEntity
  8
0
100
AcDbLine
 62
7
  6
CONTINUOUS
 10
-50.5782422154
 20
-10.1280546652
 11
-50.5782422154
 21
-9.5030546652
  0
LINE
  5
3D3
100
AcDbEntity
  8
0
100
AcDbLine
 62
7
  6
CONTINUOUS
 10
-50.5782422154
 20
-2.5447214113
 11
-50.5782422154
 21
-2.4197214113
  0
LINE
  5
3D4
100
AcDbEntity
  8
0
100
AcDbLine
 62
7
  6
CONTINUOUS
 10
-50.4718592494
 20
-2.2947214113
 11
-50.4718592494
 21
-2.1697214113
  0
LINE
  5
3D5
100
AcDbEntity
  8
SMUSSO
100
AcDbLine
 62
7
  6
CONTINUOUS
 10
-50.4559017747
 20
-24.5097214113
 11
-50.4559017747
 21
-25.2949479487
  0
LINE
  5
3D6
100
AcDbEntity
  8
SMUSSO
100
AcDbLine
 62
7
  6
CONTINUOUS
 10
-50.4559017747
 20
11.2902785887
 11
-50.4559017747
 21
12.0755051261
  0
LINE
  5
3D7
100
AcDbEntity
  8
ASSI
100
AcDbLine
 62
250
  6
CONTINUOUS
 10
-50.4467032046
 20
-20.0097214113
 11
-50.4467032046
 21
-20.0798418542
  0
LINE
  5
3D8
100
AcDbEntity
  8
ASSI
100
AcDbLine
 62
250
  6
CONTINUOUS
 10
-50.4467032046
 20
6.7902785887
 11
-50.4467032046
 21
6.8603088461
  0
LINE
  5
3D9
100
AcDbEntity
  8
0
100
AcDbLine
 62
7
  6
CONTINUOUS
 10
-50.3016464441
 20
-9.5863881574
 11
-50.3016464441
 21
-10.1280546652
  0
LINE
  5
3DA
100
AcDbEntity
  8
0
100
AcDbLine
 62
7
  6
CONTINUOUS
 10
-50.2803698509
 20
-2.4197214113
 11
-50.2803698509
 21
-2.5447214113
  0
LINE
  5
3DB
100
AcDbEntity
  8
0
100
AcDbLine
 62
7
  6
CONTINUOUS
 10
-50.2559017747
 20
7.1132873975
 11
-50.2559017747
 21
6.9383262124
  0
LINE
  5
3DC
100
AcDbEntity
  8
0
100
AcDbLine
 62
7
  6
CONTINUOUS
 10
-50.2559017747
 20
-20.157769035
 11
-50.2559017747
 21
-20.3327302201
  0
LINE
  5
3DD
100
AcDbEntity
  8
0
100
AcDbLine
 62
7
  6
CONTINUOUS
 10
-50.1739868849
 20
-10.1280546652
 11
-50.1739868849
 21
-9.5863881574
  0
LINE
  5
3DE
100
AcDbEntity
  8
0
100
AcDbLine
 62
7
  6
CONTINUOUS
 10
-50.1527102916
 20
-2.5447214113
 11
-50.1527102916
 21
-2.4197214113
  0
LINE
  5
3DF
100
AcDbEntity
  8
0
100
AcDbLine
 62
7
  6
CONTINUOUS
 10
-50.0463272958
 20
-1.0447214113
 11
-50.0463272958
 21
-1.4197214113
  0
LINE
  5
3E0
100
AcDbEntity
  8
0
100
AcDbLine
 62
7
  6
CONTINUOUS
 10
-50.0463272958
 20
-11.6488880382
 11
-50.0463272958
 21
-12.0238880382
  0
LINE
  5
3E1
100
AcDbEntity
  8
0
100
AcDbLine
 62
7
  6
CONTINUOUS
 10
-49.9824975162
 20
-2.7530544267
 11
-49.9824975162
 21
-2.8780544267
  0
LINE
  5
3E2
100
AcDbEntity
  8
0
100
AcDbLine
 62
7
  6
CONTINUOUS
 10
-49.961220923
 20
-12.0447214113
 11
-49.961220923
 21
-11.6280547844
  0
LINE
  5
3E3
100
AcDbEntity
  8
0
100
AcDbLine
 62
7
  6
CONTINUOUS
 10
-49.961220923
 20
-1.4405544267
 11
-49.961220923
 21
-1.0238883959
  0
LINE
  5
3E4
100
AcDbEntity
  8
0
100
AcDbLine
 62
7
  6
CONTINUOUS
 10
-49.8335613488
 20
-2.4197214113
 11
-49.8335613488
 21
-2.5863883959
  0
LINE
  5
3E5
100
AcDbEntity
  8
0
100
AcDbLine
 62
7
  6
CONTINUOUS
 10
-49.8335613488
 20
-4.6697214113
 11
-49.8335613488
 21
-4.7530544267
  0
LINE
  5
3E6
100
AcDbEntity
  8
0
100
AcDbLine
 62
7
  6
CONTINUOUS
 10
-49.8335613488
 20
-9.5030546652
 11
-49.8335613488
 21
-10.1280546652
  0
LINE
  5
3E7
100
AcDbEntity
  8
0
100
AcDbLine
 62
7
  6
CONTINUOUS
 10
-49.8335613488
 20
-10.7530546652
 11
-49.8335613488
 21
-11.1280546652
  0
LINE
  5
3E8
100
AcDbEntity
  8
0
100
AcDbLine
 62
7
  6
CONTINUOUS
 10
-49.7059017747
 20
-13.4197214113
 11
-49.7059017747
 21
-13.2947214113
  0
LINE
  5
3E9
100
AcDbEntity
  8
0
100
AcDbLine
 62
7
  6
CONTINUOUS
 10
-49.7059017747
 20
-13.0030547546
 11
-49.7059017747
 21
-12.8363880978
  0
LINE
  5
3EA
100
AcDbEntity
  8
0
100
AcDbLine
 62
7
  6
CONTINUOUS
 10
-49.7059017747
 20
-12.5447214113
 11
-49.7059017747
 21
-12.4197214113
  0
LINE
  5
3EB
100
AcDbEntity
  8
0
100
AcDbLine
 62
7
  6
CONTINUOUS
 10
-49.7059017747
 20
-12.2530547844
 11
-49.7059017747
 21
-12.1280547844
  0
LINE
  5
3EC
100
AcDbEntity
  8
0
100
AcDbLine
 62
7
  6
CONTINUOUS
 10
-49.7059017747
 20
-11.5447214113
 11
-49.7059017747
 21
-11.4197214113
  0
LINE
  5
3ED
100
AcDbEntity
  8
0
100
AcDbLine
 62
7
  6
CONTINUOUS
 10
-49.7059017747
 20
-11.2530546652
 11
-49.7059017747
 21
-10.7530546652
  0
LINE
  5
3EE
100
AcDbEntity
  8
0
100
AcDbLine
 62
7
  6
CONTINUOUS
 10
-49.7059017747
 20
-10.2530546652
 11
-49.7059017747
 21
-9.5030546652
  0
LINE
  5
3EF
100
AcDbEntity
  8
0
100
AcDbLine
 62
7
  6
CONTINUOUS
 10
-49.7059017747
 20
-8.336387919
 11
-49.7059017747
 21
-8.211387919
  0
LINE
  5
3F0
100
AcDbEntity
  8
0
100
AcDbLine
 62
7
  6
CONTINUOUS
 10
-49.7059017747
 20
-8.0447214113
 11
-49.7059017747
 21
-7.9197214113
  0
LINE
  5
3F1
100
AcDbEntity
  8
0
100
AcDbLine
 62
7
  6
CONTINUOUS
 10
-49.7059017747
 20
-7.398887919
 11
-49.7059017747
 21
-7.211387919
  0
LINE
  5
3F2
100
AcDbEntity
  8
0
100
AcDbLine
 62
7
  6
CONTINUOUS
 10
-49.7059017747
 20
-5.711387919
 11
-49.7059017747
 21
-5.586387919
  0
LINE
  5
3F3
100
AcDbEntity
  8
0
100
AcDbLine
 62
7
  6
CONTINUOUS
 10
-49.7059017747
 20
-4.7530544267
 11
-49.7059017747
 21
-4.6697214113
  0
LINE
  5
3F4
100
AcDbEntity
  8
0
100
AcDbLine
 62
7
  6
CONTINUOUS
 10
-49.7059017747
 20
-4.1697214113
 11
-49.7059017747
 21
-4.0447214113
  0
LINE
  5
3F5
100
AcDbEntity
  8
0
100
AcDbLine
 62
7
  6
CONTINUOUS
 10
-49.7059017747
 20
-3.5238883959
 11
-49.7059017747
 21
-3.3363883959
  0
LINE
  5
3F6
100
AcDbEntity
  8
0
100
AcDbLine
 62
7
  6
CONTINUOUS
 10
-49.7059017747
 20
-3.1697214113
 11
-49.7059017747
 21
-3.0447214113
  0
LINE
  5
3F7
100
AcDbEntity
  8
0
100
AcDbLine
 62
7
  6
CONTINUOUS
 10
-49.7059017747
 20
-2.5863883959
 11
-49.7059017747
 21
-2.4197214113
  0
LINE
  5
3F8
100
AcDbEntity
  8
0
100
AcDbLine
 62
7
  6
CONTINUOUS
 10
-49.7059017747
 20
-1.9405544267
 11
-49.7059017747
 21
-1.8155544267
  0
LINE
  5
3F9
100
AcDbEntity
  8
0
100
AcDbLine
 62
7
  6
CONTINUOUS
 10
-49.7059017747
 20
-1.6488883959
 11
-49.7059017747
 21
-1.5238883959
  0
LINE
  5
3FA
100
AcDbEntity
  8
0
100
AcDbLine
 62
7
  6
CONTINUOUS
 10
-49.7059017747
 20
-0.9405544267
 11
-49.7059017747
 21
-0.8155544267
  0
LINE
  5
3FB
100
AcDbEntity
  8
0
100
AcDbLine
 62
7
  6
CONTINUOUS
 10
-49.4559017747
 20
-16.9332394403
 11
-49.4559017747
 21
-20.2862759725
  0
LINE
  5
3FC
100
AcDbEntity
  8
0
100
AcDbLine
 62
7
  6
CONTINUOUS
 10
-49.4559017747
 20
3.7137966177
 11
-49.4559017747
 21
7.0668331499
  0
LINE
  5
3FD
100
AcDbEntity
  8
RACCORDO
100
AcDbLine
 62
7
  6
CONTINUOUS
 10
-50.9030720208
 20
-29.5400625338
 11
-50.8697107736
 21
-28.5847214113
  0
LINE
  5
3FE
100
AcDbEntity
  8
0
100
AcDbLine
 62
7
  6
CONTINUOUS
 10
-49.7271783697
 20
-2.6905544267
 11
-49.7059017747
 21
-2.5863883959
  0
LINE
  5
3FF
100
AcDbEntity
  8
0
100
AcDbLine
 62
7
  6
CONTINUOUS
 10
-49.7271783697
 20
-4.8572214113
 11
-49.7059017747
 21
-4.7530544267
  0
LINE
  5
400
100
AcDbEntity
  8
0
100
AcDbLine
 62
7
  6
CONTINUOUS
 10
-50.6846251815
 20
-10.6488881574
 11
-50.7059017747
 21
-10.7530546652
  0
LINE
  5
401
100
AcDbEntity
  8
0
100
AcDbLine
 62
7
  6
CONTINUOUS
 10
-49.8335613488
 20
-4.7530544267
 11
-49.854837942
 21
-4.8363883959
  0
LINE
  5
402
100
AcDbEntity
  8
0
100
AcDbLine
 62
7
  6
CONTINUOUS
 10
-49.8335613488
 20
-2.5863883959
 11
-49.854837942
 21
-2.6697214113
  0
LINE
  5
403
100
AcDbEntity
  8
0
100
AcDbLine
 62
7
  6
CONTINUOUS
 10
-50.5782422154
 20
-10.7530546652
 11
-50.5569656222
 21
-10.6697214113
  0
LWPOLYLINE
  5
404
100
AcDbEntity
  8
RACCORDO
100
AcDbPolyline
 62
7
  6
CONTINUOUS
 90
9
 70
0
 10
-44.324238842
 20
14.6149720266
 10
-44.3202067339
 20
14.6297479646
 10
-44.31661513
 20
14.6468522632
 10
-44.3134803018
 20
14.6664278484
 10
-44.3107859777
 20
14.6883317943
 10
-44.3086674353
 20
14.7114356304
 10
-44.3071697668
 20
14.7353631997
 10
-44.30624788
 20
14.7604906591
 10
-44.3059017747
 20
14.7868180086
  0
LINE
  5
405
100
AcDbEntity
  8
TRASH
100
AcDbLine
 62
250
  6
CONTINUOUS
 10
-43.4783591049
 20
16.7236382462
 11
-43.498774739
 21
16.6533859505
  0
LINE
  5
406
100
AcDbEntity
  8
DRAFT
100
AcDbLine
 62
7
  6
CONTINUOUS
 10
-57.3559017747
 20
-27.5097214113
 11
-57.2197522682
 21
-27.1009407329
  0
LINE
  5
407
100
AcDbEntity
  8
0
100
AcDbLine
 62
7
  6
CONTINUOUS
 10
-49.7697315617
 20
-4.9405544267
 11
-49.7271783697
 21
-4.8572214113
  0
LINE
  5
408
100
AcDbEntity
  8
0
100
AcDbLine
 62
7
  6
CONTINUOUS
 10
-49.854837942
 20
-4.8363883959
 11
-49.8973911433
 21
-4.8988883959
  0
LINE
  5
409
100
AcDbEntity
  8
0
100
AcDbLine
 62
7
  6
CONTINUOUS
 10
-41.2616687747
 20
4.5530895887
 11
-41.4184647747
 21
4.3933795887
  0
LINE
  5
40A
100
AcDbEntity
  8
0
100
AcDbLine
 62
7
  6
CONTINUOUS
 10
-41.5671734551
 20
4.2418930763
 11
-42.6361926925
 21
3.1529850164
  0
LINE
  5
40B
100
AcDbEntity
  8
0
100
AcDbLine
 62
7
  6
CONTINUOUS
 10
-37.8065186079
 20
8.07253864
 11
-39.2074084073
 21
6.6455821048
  0
LINE
  5
40C
100
AcDbEntity
  8
0
100
AcDbLine
 62
7
  6
CONTINUOUS
 10
-39.3390885006
 20
6.5114399959
 11
-40.0830519945
 21
5.7536341966
  0
LINE
  5
40D
100
AcDbEntity
  8
0
100
AcDbLine
 62
7
  6
CONTINUOUS
 10
-40.1635607747
 20
5.6716265887
 11
-41.1033039799
 21
4.7143814144
  0
LINE
  5
40E
100
AcDbEntity
  8
0
100
AcDbLine
 62
7
  6
CONTINUOUS
 10
-41.0829557747
 20
4.5708675887
 11
-40.7381587747
 21
4.9217295887
  0
LINE
  5
40F
100
AcDbEntity
  8
0
100
AcDbLine
 62
7
  6
CONTINUOUS
 10
-40.6198447747
 20
5.0421365887
 11
-40.0837887747
 21
5.5876225887
  0
LINE
  5
410
100
AcDbEntity
  8
0
100
AcDbLine
 62
7
  6
CONTINUOUS
 10
-42.6361926925
 20
2.9902785905
 11
-41.383489814
 21
4.2650532359
  0
LINE
  5
411
100
AcDbEntity
  8
0
100
AcDbLine
 62
7
  6
CONTINUOUS
 10
-39.1942672537
 20
6.4928289868
 11
-37.7227752364
 21
7.9902462029
  0
LINE
  5
412
100
AcDbEntity
  8
0
100
AcDbLine
 62
7
  6
CONTINUOUS
 10
-40.0033157747
 20
5.6695225887
 11
-39.3259707747
 21
6.3588065887
  0
LINE
  5
413
100
AcDbEntity
  8
0
100
AcDbLine
 62
7
  6
CONTINUOUS
 10
-49.854837942
 20
-5.0238883959
 11
-49.7697315617
 21
-4.9405544267
  0
LINE
  5
414
100
AcDbEntity
  8
0
100
AcDbLine
 62
7
  6
CONTINUOUS
 10
-55.7504357747
 20
-9.6260504113
 11
-54.3059017747
 21
-8.6806374113
  0
LINE
  5
415
100
AcDbEntity
  8
0
100
AcDbLine
 62
7
  6
CONTINUOUS
 10
-54.6462257747
 20
-8.6453494113
 11
-56.1059127747
 21
-9.5983044113
  0
LINE
  5
416
100
AcDbEntity
  8
0
100
AcDbLine
 62
7
  6
CONTINUOUS
 10
-49.8973911433
 20
-4.8988883959
 11
-49.961220923
 21
-4.9405544267
  0
LINE
  5
417
100
AcDbEntity
  8
0
100
AcDbLine
 62
7
  6
CONTINUOUS
 10
-49.9399443298
 20
-5.0655544267
 11
-49.854837942
 21
-5.0238883959
  0
LINE
  5
418
100
AcDbEntity
  8
0
100
AcDbLine
 62
7
  6
CONTINUOUS
 10
-56.1059067747
 20
-6.4622174113
 11
-54.3058967747
 21
-5.8269254113
  0
LINE
  5
419
100
AcDbEntity
  8
0
100
AcDbLine
 62
7
  6
CONTINUOUS
 10
-54.5453897747
 20
-5.6857379113
 11
-56.1059067747
 21
-6.2025884113
  0
LWPOLYLINE
  5
41A
100
AcDbEntity
  8
0
100
AcDbPolyline
 62
7
  6
CONTINUOUS
 90
10
 70
0
 10
-42.1206357433
 20
-3.3943395878
 10
-42.145961925
 20
-3.4016047916
 10
-42.1717834645
 20
-3.4092352303
 10
-42.1981003618
 20
-3.4172309039
 10
-42.2249201109
 20
-3.4255825482
 10
-42.2522352177
 20
-3.4342994275
 10
-42.2800232008
 20
-3.4434093338
 10
-42.3082765661
 20
-3.4529215312
 10
-42.3370028076
 20
-3.4628267557
 10
-42.3662019252
 20
-3.4731250073
  0
LINE
  5
41B
100
AcDbEntity
  8
0
100
AcDbLine
 62
7
  6
CONTINUOUS
 10
-50.4505825966
 20
-10.5655546652
 11
-50.3654762237
 21
-10.5447214113
  0
LINE
  5
41C
100
AcDbEntity
  8
0
100
AcDbLine
 62
7
  6
CONTINUOUS
 10
-50.3654762237
 20
-10.4197214113
 11
-50.4718592494
 21
-10.4405546652
  0
LWPOLYLINE
  5
41D
100
AcDbEntity
  8
0
100
AcDbPolyline
 62
7
  6
CONTINUOUS
 90
37
 70
0
 10
-52.4459252077
 20
-9.3217356113
 10
-52.3727166306
 20
-9.3208447442
 10
-52.3021667036
 20
-9.3172216272
 10
-52.2342754266
 20
-9.3108662603
 10
-52.1688099139
 20
-9.3019623934
 10
-52.1060030512
 20
-9.2903262767
 10
-52.0465534959
 20
-9.27540666
 10
-51.9902523829
 20
-9.2571190824
 10
-51.9373085772
 20
-9.235548005
 10
-51.8890473319
 20
-9.210395561
 10
-51.8457379502
 20
-9.1812897773
 10
-51.8071111288
 20
-9.148602627
 10
-51.7736842105
 20
-9.1131521626
 10
-51.7457218317
 20
-9.0752044226
 10
-51.722959356
 20
-9.0344933686
 10
-51.705120217
 20
-8.9910389375
 10
-51.6921380728
 20
-8.9441572621
 10
-51.6840792653
 20
-8.8945322098
 10
-51.6808662536
 20
-8.8442353193
 10
-51.6823170808
 20
-8.7928218698
 10
-51.6886137036
 20
-8.7407365823
 10
-51.7002244517
 20
-8.6913851579
 10
-51.7173106524
 20
-8.6457814644
 10
-51.7397109784
 20
-8.6029116342
 10
-51.7674097768
 20
-8.5631397654
 10
-51.800570063
 20
-8.5264855336
 10
-51.8390288218
 20
-8.4929292633
 10
-51.8822813545
 20
-8.4627760261
 10
-51.9305488253
 20
-8.4360417081
 10
-51.9836100701
 20
-8.4127104232
 10
-52.0402968983
 20
-8.393039584
 10
-52.100522408
 20
-8.3773700548
 10
-52.164373501
 20
-8.3653609713
 10
-52.2309426915
 20
-8.3562471541
 10
-52.2999274842
 20
-8.3497735434
 10
-52.3716303743
 20
-8.3461951988
 10
-52.4460513618
 20
-8.3455121206
  0
LWPOLYLINE
  5
41E
100
AcDbEntity
  8
0
100
AcDbPolyline
 62
7
  6
CONTINUOUS
 90
37
 70
0
 10
-52.4460513618
 20
-8.3455121206
 10
-52.5205574545
 20
-8.345707888
 10
-52.5922867197
 20
-8.3490286911
 10
-52.6612391574
 20
-8.3554745297
 10
-52.727676039
 20
-8.3649311381
 10
-52.7913360931
 20
-8.3775127821
 10
-52.8514355061
 20
-8.3935622593
 10
-52.9081169823
 20
-8.4131957844
 10
-52.9612378173
 20
-8.4362971426
 10
-53.0095860852
 20
-8.4628604874
 10
-53.0530049949
 20
-8.4932419057
 10
-53.0916513375
 20
-8.5270853105
 10
-53.1247835591
 20
-8.5633165945
 10
-53.1519386492
 20
-8.6015005688
 10
-53.1735796184
 20
-8.6420724222
 10
-53.1903539448
 20
-8.6852636142
 10
-53.202450978
 20
-8.7318345074
 10
-53.2096813684
 20
-8.7810247391
 10
-53.2121245457
 20
-8.8307846798
 10
-53.209956936
 20
-8.8815271784
 10
-53.2030021131
 20
-8.932839386
 10
-53.1908102288
 20
-8.9814331261
 10
-53.1732252577
 20
-9.0263189402
 10
-53.1504032251
 20
-9.0684862868
 10
-53.1223623584
 20
-9.1076153656
 10
-53.0889345659
 20
-9.1437072875
 10
-53.0502879393
 20
-9.1767609416
 10
-53.0069449802
 20
-9.2064531938
 10
-52.9586985944
 20
-9.2327607735
 10
-52.9057558763
 20
-9.2557069514
 10
-52.8492606099
 20
-9.2750384057
 10
-52.7892995329
 20
-9.2904068325
 10
-52.7257859077
 20
-9.3021605359
 10
-52.6596033054
 20
-9.3110911063
 10
-52.5910462499
 20
-9.3174624075
 10
-52.5198202173
 20
-9.3210105758
 10
-52.4459252077
 20
-9.3217356113
  0
LINE
  5
41F
100
AcDbEntity
  8
0
100
AcDbLine
 62
7
  6
CONTINUOUS
 10
-54.3059017747
 20
-9.6260504113
 11
-55.7504357747
 21
-9.6260504113
  0
LINE
  5
420
100
AcDbEntity
  8
0
100
AcDbLine
 62
7
  6
CONTINUOUS
 10
-50.1739868849
 20
-9.5863881574
 11
-50.3016464441
 21
-9.5863881574
  0
LINE
  5
421
100
AcDbEntity
  8
0
100
AcDbLine
 62
7
  6
CONTINUOUS
 10
-49.7059017747
 20
-9.5030546652
 11
-49.8335613488
 21
-9.5030546652
  0
LINE
  5
422
100
AcDbEntity
  8
0
100
AcDbLine
 62
7
  6
CONTINUOUS
 10
-50.5782422154
 20
-9.5030546652
 11
-50.7059017747
 21
-9.5030546652
  0
LINE
  5
423
100
AcDbEntity
  8
ASSI
100
AcDbLine
 62
7
  6
CONTINUOUS
 10
-40.2309427747
 20
-8.9793784113
 11
-38.1808457747
 21
-8.9793834113
  0
LINE
  5
424
100
AcDbEntity
  8
0
100
AcDbLine
 62
7
  6
CONTINUOUS
 10
-56.1059127747
 20
-8.6453494113
 11
-54.6462257747
 21
-8.6453494113
  0
LINE
  5
425
100
AcDbEntity
  8
ASSI
100
AcDbLine
 62
7
  6
CONTINUOUS
 10
-38.1808507747
 20
-8.5693674113
 11
-40.2309427747
 21
-8.5693624113
  0
LINE
  5
426
100
AcDbEntity
  8
0
100
AcDbLine
 62
7
  6
CONTINUOUS
 10
-54.3059017747
 20
-8.4184494113
 11
-56.1059127747
 21
-8.4184494113
  0
LINE
  5
427
100
AcDbEntity
  8
0
100
AcDbLine
 62
7
  6
CONTINUOUS
 10
-50.7059017747
 20
-8.336387919
 11
-49.7059017747
 21
-8.336387919
  0
LINE
  5
428
100
AcDbEntity
  8
0
100
AcDbLine
 62
7
  6
CONTINUOUS
 10
-49.7059017747
 20
-8.211387919
 11
-50.7059017747
 21
-8.211387919
  0
LINE
  5
429
100
AcDbEntity
  8
ASSI
100
AcDbLine
 62
7
  6
CONTINUOUS
 10
-40.2309427747
 20
-8.1593624113
 11
-38.1808507747
 21
-8.1593624113
  0
LWPOLYLINE
  5
42A
100
AcDbEntity
  8
0
100
AcDbPolyline
 62
7
  6
CONTINUOUS
 90
37
 70
0
 10
-52.4458683128
 20
-8.5340531949
 10
-52.3901469596
 20
-8.5343520084
 10
-52.3361347557
 20
-8.535979133
 10
-52.2838317009
 20
-8.5389345689
 10
-52.2331639351
 20
-8.5429515688
 10
-52.1842053186
 20
-8.5482968799
 10
-52.1371774317
 20
-8.5557707439
 10
-52.0916738578
 20
-8.5652907325
 10
-52.0481010136
 20
-8.576939274
 10
-52.0078997289
 20
-8.5917638951
 10
-51.9711946643
 20
-8.6103850032
 10
-51.9378611593
 20
-8.6321821908
 10
-51.9089660624
 20
-8.6563417619
 10
-51.8848395553
 20
-8.6830422358
 10
-51.8651514563
 20
-8.7121050932
 10
-51.8499780686
 20
-8.7421810798
 10
-51.8393782391
 20
-8.7731540663
 10
-51.8332931209
 20
-8.8051401819
 10
-51.8316224771
 20
-8.8371385605
 10
-51.8343066989
 20
-8.8692000436
 10
-51.8414053951
 20
-8.9012737897
 10
-51.8529971544
 20
-8.9322064071
 10
-51.8691992248
 20
-8.9621224945
 10
-51.8898943584
 20
-8.9908974533
 10
-51.9148094004
 20
-9.0170040955
 10
-51.944265745
 20
-9.0400161664
 10
-51.9779419979
 20
-9.0603599207
 10
-52.0146008221
 20
-9.0777869349
 10
-52.054159649
 20
-9.0919185151
 10
-52.0967010471
 20
-9.1031333553
 10
-52.1412353847
 20
-9.1123191136
 10
-52.1875406514
 20
-9.1195273669
 10
-52.2358388577
 20
-9.1247065384
 10
-52.2858064032
 20
-9.1285895558
 10
-52.3373354212
 20
-9.1314207283
 10
-52.3905337783
 20
-9.1329557468
 10
-52.4454014747
 20
-9.1331946113
  0
LWPOLYLINE
  5
42B
100
AcDbEntity
  8
0
100
AcDbPolyline
 62
7
  6
CONTINUOUS
 90
37
 70
0
 10
-52.4454014747
 20
-9.1331946113
 10
-52.4992135504
 20
-9.1328282734
 10
-52.5513628634
 20
-9.1311646966
 10
-52.6018494135
 20
-9.128203881
 10
-52.6506652602
 20
-9.1240566905
 10
-52.6978183442
 20
-9.1186122611
 10
-52.7433324866
 20
-9.1115380011
 10
-52.787643637
 20
-9.1030867854
 10
-52.8303158458
 20
-9.0930057391
 10
-52.8700650856
 20
-9.0802036457
 10
-52.9067962263
 20
-9.0643429805
 10
-52.940604398
 20
-9.0457612682
 10
-52.9704909632
 20
-9.0243798657
 10
-52.9963588241
 20
-8.999848432
 10
-53.0183050787
 20
-8.9725173081
 10
-53.0356223833
 20
-8.9433588749
 10
-53.0480400551
 20
-8.9122089902
 10
-53.055828777
 20
-8.879231796
 10
-53.0590932539
 20
-8.8458920991
 10
-53.0579300947
 20
-8.8121214553
 10
-53.0522426904
 20
-8.7779883086
 10
-53.0418459191
 20
-8.7451627981
 10
-53.0265515921
 20
-8.7137373992
 10
-53.0065478981
 20
-8.6836196364
 10
-52.9822142806
 20
-8.6562022223
 10
-52.9533710232
 20
-8.6317818841
 10
-52.9201978423
 20
-8.6100618946
 10
-52.8836133314
 20
-8.5915447844
 10
-52.8434254512
 20
-8.5767596812
 10
-52.7998262409
 20
-8.5651774574
 10
-52.7543104117
 20
-8.5557132608
 10
-52.7073053691
 20
-8.5482715391
 10
-52.6583837077
 20
-8.5429478446
 10
-52.6077579219
 20
-8.5389439824
 10
-52.5554988433
 20
-8.5359938876
 10
-52.5015356402
 20
-8.5343636251
 10
-52.4458683128
 20
-8.5340531949
  0
LWPOLYLINE
  5
42C
100
AcDbEntity
  8
0
100
AcDbPolyline
 62
7
  6
CONTINUOUS
 90
10
 70
0
 10
-42.4316862254
 20
-9.8476134206
 10
-42.3929762433
 20
-9.8492765247
 10
-42.3570311468
 20
-9.8529436382
 10
-42.3238509357
 20
-9.8586147612
 10
-42.2936917297
 20
-9.8664075917
 10
-42.2662974093
 20
-9.8762044317
 10
-42.2408996157
 20
-9.8876521865
 10
-42.2172422296
 20
-9.9006331581
 10
-42.1955813704
 20
-9.9152650445
 10
-42.1759170382
 20
-9.9315478458
  0
LWPOLYLINE
  5
42D
100
AcDbEntity
  8
0
100
AcDbPolyline
 62
7
  6
CONTINUOUS
 90
28
 70
0
 10
-52.7100085351
 20
-7.9683874987
 10
-52.756698774
 20
-7.965167555
 10
-52.8003688376
 20
-7.9580400176
 10
-52.8410187259
 20
-7.9470048864
 10
-52.8787593825
 20
-7.9318218886
 10
-52.9134798639
 20
-7.912731297
 10
-52.9448473391
 20
-7.8904539298
 10
-52.9729939809
 20
-7.8646331667
 10
-52.9977876165
 20
-7.8356256279
 10
-53.0184988963
 20
-7.8052219925
 10
-53.0349819926
 20
-7.7735619219
 10
-53.0473827333
 20
-7.7405057547
 10
-53.0554092524
 20
-7.7074251854
 10
-53.0588898652
 20
-7.6745946119
 10
-53.0579962564
 20
-7.6417396363
 10
-53.0529516157
 20
-7.60940876
 10
-53.0436746992
 20
-7.5773014437
 10
-53.0302467506
 20
-7.5457182266
 10
-53.0131346907
 20
-7.5161092277
 10
-52.9923071439
 20
-7.4885491064
 10
-52.9677954858
 20
-7.4629632033
 10
-52.9401607635
 20
-7.4405776595
 10
-52.9093926635
 20
-7.4217365894
 10
-52.8755014993
 20
-7.4060958786
 10
-52.8390792594
 20
-7.3938493255
 10
-52.8003232732
 20
-7.3850615297
 10
-52.7590362113
 20
-7.3796678916
 10
-52.7152180736
 20
-7.3776684113
  0
LWPOLYLINE
  5
42E
100
AcDbEntity
  8
0
100
AcDbPolyline
 62
7
  6
CONTINUOUS
 90
10
 70
0
 10
-43.0764029425
 20
-10.414721345
 10
-43.1045058868
 20
-10.4021253534
 10
-43.1306159316
 20
-10.3888583606
 10
-43.1547330767
 20
-10.3749203666
 10
-43.1767080982
 20
-10.3603024425
 10
-43.19669022
 20
-10.3450135171
 10
-43.2151271141
 20
-10.329080377
 10
-43.2321680045
 20
-10.3125119508
 10
-43.2476636671
 20
-10.2952993099
 10
-43.2616141019
 20
-10.2774424541
  0
LWPOLYLINE
  5
42F
100
AcDbEntity
  8
0
100
AcDbPolyline
 62
7
  6
CONTINUOUS
 90
10
 70
0
 10
-43.4620409935
 20
-11.231992733
 10
-43.4418716642
 20
-11.2425915879
 10
-43.4211865889
 20
-11.2550093011
 10
-43.3999857676
 20
-11.2692458726
 10
-43.3782871653
 20
-11.2851970353
 10
-43.356072817
 20
-11.3029670563
 10
-43.3332888276
 20
-11.3228687374
 10
-43.3099172323
 20
-11.3450063459
 10
-43.285975996
 20
-11.3692756145
 10
-43.2614651186
 20
-11.3956765432
  0
LWPOLYLINE
  5
430
100
AcDbEntity
  8
0
100
AcDbPolyline
 62
7
  6
CONTINUOUS
 90
6
 70
0
 10
-51.8818737747
 20
-6.7629131324
 10
-51.9160104932
 20
-6.73935732
 10
-51.9493940569
 20
-6.7132453509
 10
-51.9820244659
 20
-6.6845772251
 10
-52.0135837149
 20
-6.6528788525
 10
-52.0443898092
 20
-6.6186243232
  0
LINE
  5
431
100
AcDbEntity
  8
DRAFT
100
AcDbLine
 62
7
  6
CONTINUOUS
 10
-57.3559017747
 20
14.2902785887
 11
-57.2197522682
 21
13.8814979103
  0
LINE
  5
432
100
AcDbEntity
  8
TRASH
100
AcDbLine
 62
250
  6
CONTINUOUS
 10
-43.4783591049
 20
-29.9430810688
 11
-43.498774739
 21
-29.8728287731
  0
LWPOLYLINE
  5
433
100
AcDbEntity
  8
0
100
AcDbPolyline
 62
7
  6
CONTINUOUS
 90
25
 70
0
 10
-54.2246270733
 20
7.588884474
 10
-54.1839150514
 20
7.4343360324
 10
-54.1554382403
 20
7.2788014605
 10
-54.1391966401
 20
7.1222807583
 10
-54.1352784463
 20
6.9635618136
 10
-54.1435954634
 20
6.8038567386
 10
-54.163883104
 20
6.6468018699
 10
-54.1962302493
 20
6.4929966682
 10
-54.2405480181
 20
6.341841673
 10
-54.2963051795
 20
6.1951748388
 10
-54.3637740009
 20
6.0527852787
 10
-54.4426822149
 20
5.9148838797
 10
-54.5316817888
 20
5.7839412583
 10
-54.6311822924
 20
5.6598451662
 10
-54.7407741559
 20
5.5427078517
 10
-54.8578806363
 20
5.4353366763
 10
-54.982213115
 20
5.3382845796
 10
-55.1140602107
 20
5.2509986219
 10
-55.2517110366
 20
5.1746273457
 10
-55.3956237862
 20
5.1092188042
 10
-55.5453402662
 20
5.0547249442
 10
-55.6977750091
 20
5.0121501483
 10
-55.8518995259
 20
4.9818292105
 10
-56.0087423058
 20
4.9634273367
 10
-56.1683033487
 20
4.956944527
  0
LINE
  5
434
100
AcDbEntity
  8
0
100
AcDbLine
 62
7
  6
CONTINUOUS
 10
-49.854837942
 20
-10.6697214113
 11
-49.8335613488
 21
-10.7530546652
  0
LINE
  5
435
100
AcDbEntity
  8
0
100
AcDbLine
 62
7
  6
CONTINUOUS
 10
-50.7059017747
 20
-2.5447214113
 11
-50.6846251815
 21
-2.6280544267
  0
LINE
  5
436
100
AcDbEntity
  8
0
100
AcDbLine
 62
7
  6
CONTINUOUS
 10
-49.854837942
 20
-4.5863883959
 11
-49.8335613488
 21
-4.6697214113
  0
LINE
  5
437
100
AcDbEntity
  8
0
100
AcDbLine
 62
7
  6
CONTINUOUS
 10
-49.7059017747
 20
-10.7530546652
 11
-49.7271783697
 21
-10.6488881574
  0
LINE
  5
438
100
AcDbEntity
  8
0
100
AcDbLine
 62
7
  6
CONTINUOUS
 10
-49.7059017747
 20
-4.6697214113
 11
-49.7271783697
 21
-4.5655544267
  0
LINE
  5
439
100
AcDbEntity
  8
ASSI
100
AcDbLine
 62
7
  6
CONTINUOUS
 10
-50.2664143305
 20
6.807311221
 11
-50.2699130977
 21
6.8422084091
  0
LWPOLYLINE
  5
43A
100
AcDbEntity
  8
RACCORDO
100
AcDbPolyline
 62
250
  6
CONTINUOUS
 90
10
 70
0
 10
-47.6653200486
 20
-20.6213673219
 10
-47.6690288416
 20
-20.4182682524
 10
-47.672331729
 20
-20.2100903992
 10
-47.675228711
 20
-19.9968337622
 10
-47.6777295495
 20
-19.7785323439
 10
-47.6798244825
 20
-19.5551521419
 10
-47.6814842239
 20
-19.3265911484
 10
-47.6826990118
 20
-19.0928153608
 10
-47.6834786081
 20
-18.8538587818
 10
-47.6838230129
 20
-18.6097214113
  0
LWPOLYLINE
  5
43B
100
AcDbEntity
  8
RACCORDO
100
AcDbPolyline
 62
250
  6
CONTINUOUS
 90
10
 70
0
 10
-47.7464835007
 20
7.4019244993
 10
-47.7427747078
 20
7.1988254298
 10
-47.7394718203
 20
6.9906475766
 10
-47.7365748383
 20
6.7773909396
 10
-47.7340739998
 20
6.5590895213
 10
-47.7319790668
 20
6.3357093193
 10
-47.7303193254
 20
6.1071483258
 10
-47.7291045375
 20
5.8733725382
 10
-47.7283249412
 20
5.6344159592
 10
-47.7279805365
 20
5.3902785887
  0
LINE
  5
43C
100
AcDbEntity
  8
RACCORDO
100
AcDbLine
 62
250
  6
CONTINUOUS
 10
-47.9921880209
 20
7.3970862093
 11
-47.9866835999
 21
6.9881991144
  0
LINE
  5
43D
100
AcDbEntity
  8
RACCORDO
100
AcDbLine
 62
250
  6
CONTINUOUS
 10
-47.4196155284
 20
-20.6165290319
 11
-47.4251199494
 21
-20.2076419369
  0
LINE
  5
43E
100
AcDbEntity
  8
RACCORDO
100
AcDbLine
 62
250
  6
CONTINUOUS
 10
-47.9866835999
 20
6.9881991144
 11
-47.9822269317
 21
6.5562918645
  0
LINE
  5
43F
100
AcDbEntity
  8
RACCORDO
100
AcDbLine
 62
250
  6
CONTINUOUS
 10
-47.4251199494
 20
-20.2076419369
 11
-47.4295766176
 21
-19.775734687
  0
LINE
  5
440
100
AcDbEntity
  8
RACCORDO
100
AcDbLine
 62
250
  6
CONTINUOUS
 10
-47.9822269317
 20
6.5562918645
 11
-47.9789740492
 21
6.1055504032
  0
LWPOLYLINE
  5
441
100
AcDbEntity
  8
RACCORDO
100
AcDbPolyline
 62
250
  6
CONTINUOUS
 90
5
 70
0
 10
-47.4295766176
 20
-19.775734687
 10
-47.4328295002
 20
-19.3249932258
 10
-47.433949418
 20
-19.0901918097
 10
-47.4346519069
 20
-18.851313187
 10
-47.4348878444
 20
-18.6097214113
  0
LWPOLYLINE
  5
442
100
AcDbEntity
  8
RACCORDO
100
AcDbPolyline
 62
250
  6
CONTINUOUS
 90
3
 70
0
 10
-47.9789740492
 20
6.1055504032
 10
-47.9771516424
 20
5.6318703645
 10
-47.976915705
 20
5.3902785887
  0
LINE
  5
443
100
AcDbEntity
  8
0
100
AcDbLine
 62
7
  6
CONTINUOUS
 10
-49.0878407747
 20
6.908618964
 11
-49.0878407747
 21
3.8710808269
  0
LINE
  5
444
100
AcDbEntity
  8
0
100
AcDbLine
 62
7
  6
CONTINUOUS
 10
-49.0878407747
 20
-20.1280617866
 11
-49.0878407747
 21
-17.0905236495
  0
LWPOLYLINE
  5
445
100
AcDbEntity
  8
RACCORDO
100
AcDbPolyline
 62
250
  6
CONTINUOUS
 90
3
 70
0
 10
-47.976915705
 20
-18.6097214113
 10
-47.9771548035
 20
-18.8532473838
 10
-47.9778664152
 20
-19.0935107552
  0
LWPOLYLINE
  5
446
100
AcDbEntity
  8
RACCORDO
100
AcDbPolyline
 62
250
  6
CONTINUOUS
 90
10
 70
0
 10
-47.7279805365
 20
-18.6097214113
 10
-47.7283356343
 20
-18.8558231876
 10
-47.7291240988
 20
-19.0961556973
 10
-47.7303459298
 20
-19.3307189407
 10
-47.7320120205
 20
-19.5593490836
 10
-47.7341114778
 20
-19.78220996
 10
-47.7366116224
 20
-19.9997930718
 10
-47.7395015612
 20
-20.2122622531
 10
-47.7427921873
 20
-20.4194536698
 10
-47.7464835007
 20
-20.6213673219
  0
LWPOLYLINE
  5
447
100
AcDbEntity
  8
RACCORDO
100
AcDbPolyline
 62
250
  6
CONTINUOUS
 90
10
 70
0
 10
-47.6838230129
 20
5.3902785887
 10
-47.683467915
 20
5.636380365
 10
-47.6826794506
 20
5.8767128748
 10
-47.6814576195
 20
6.1112761181
 10
-47.6797915288
 20
6.339906261
 10
-47.6776920716
 20
6.5627671374
 10
-47.675191927
 20
6.7803502493
 10
-47.6723019882
 20
6.9928194305
 10
-47.6690113621
 20
7.2000108472
 10
-47.6653200486
 20
7.4019244993
  0
LINE
  5
448
100
AcDbEntity
  8
RACCORDO
100
AcDbLine
 62
250
  6
CONTINUOUS
 10
-47.9778664152
 20
-19.0935107552
 11
-47.980479566
 21
-19.5577074929
  0
LINE
  5
449
100
AcDbEntity
  8
RACCORDO
100
AcDbLine
 62
250
  6
CONTINUOUS
 10
-47.4339371342
 20
5.8740679326
 11
-47.4313239833
 21
6.3382646703
  0
LINE
  5
44A
100
AcDbEntity
  8
RACCORDO
100
AcDbLine
 62
250
  6
CONTINUOUS
 10
-47.980479566
 20
-19.5577074929
 11
-47.9843366264
 21
-19.9967096907
  0
LINE
  5
44B
100
AcDbEntity
  8
RACCORDO
100
AcDbLine
 62
250
  6
CONTINUOUS
 10
-47.4313239833
 20
6.3382646703
 11
-47.4274669229
 21
6.7772668681
  0
LWPOLYLINE
  5
44C
100
AcDbEntity
  8
RACCORDO
100
AcDbPolyline
 62
250
  6
CONTINUOUS
 90
3
 70
0
 10
-47.9843366264
 20
-19.9967096907
 10
-47.9893388829
 20
-20.4166548801
 10
-47.9921880209
 20
-20.6165290319
  0
LWPOLYLINE
  5
44D
100
AcDbEntity
  8
RACCORDO
100
AcDbPolyline
 62
250
  6
CONTINUOUS
 90
3
 70
0
 10
-47.4274669229
 20
6.7772668681
 10
-47.4224646664
 20
7.1972120576
 10
-47.4196155284
 20
7.3970862093
  0
LWPOLYLINE
  5
44E
100
AcDbEntity
  8
RACCORDO
100
AcDbPolyline
 62
250
  6
CONTINUOUS
 90
46
 70
0
 10
-47.4196155284
 20
7.3970862093
 10
-47.4167782825
 20
7.4965966157
 10
-47.4087326371
 20
7.6012012407
 10
-47.3947062921
 20
7.7105361868
 10
-47.3739314949
 20
7.8242435017
 10
-47.3456168605
 20
7.9417058396
 10
-47.3089718012
 20
8.0620204754
 10
-47.2632283904
 20
8.1844986934
 10
-47.2077141408
 20
8.3081906845
 10
-47.1419400412
 20
8.4316728563
 10
-47.0650802115
 20
8.5543628832
 10
-46.9770126674
 20
8.6745957055
 10
-46.878844444
 20
8.7894581777
 10
-46.7705050987
 20
8.8979973248
 10
-46.6523815144
 20
8.9990195037
 10
-46.5271471527
 20
9.0900300237
 10
-46.3963930381
 20
9.1700924092
 10
-46.2601245287
 20
9.2393843531
 10
-46.1190335164
 20
9.2975953665
 10
-45.9738278267
 20
9.3444307029
 10
-45.8254058633
 20
9.3796229841
 10
-45.6747650225
 20
9.4029879276
 10
-45.5227074831
 20
9.4143758443
 10
-45.3701301125
 20
9.4136140265
 10
-45.2181857845
 20
9.4007181451
 10
-45.0677850867
 20
9.3758732644
 10
-44.9197139173
 20
9.3392270793
 10
-44.774925591
 20
9.2909469245
 10
-44.6341868724
 20
9.2312338289
 10
-44.4983475841
 20
9.1604394187
 10
-44.3684348732
 20
9.0790922446
 10
-44.2445516241
 20
8.987177457
 10
-44.1280800379
 20
8.8856263945
 10
-44.0215268565
 20
8.7769474425
 10
-43.9252376669
 20
8.6624145548
 10
-43.8390582403
 20
8.5429578274
 10
-43.763907886
 20
8.4212956127
 10
-43.699626042
 20
8.2990204292
 10
-43.6454051017
 20
8.1767241551
 10
-43.6007143098
 20
8.0557172216
 10
-43.564905981
 20
7.9369722249
 10
-43.5372099079
 20
7.8210969028
 10
-43.5168157018
 20
7.7087080118
 10
-43.5029814912
 20
7.6003064899
 10
-43.4950120217
 20
7.4963159938
 10
-43.4921880209
 20
7.3970862093
  0
LWPOLYLINE
  5
44F
100
AcDbEntity
  8
RACCORDO
100
AcDbPolyline
 62
250
  6
CONTINUOUS
 90
46
 70
0
 10
-47.9921880209
 20
-20.6165290319
 10
-47.9950252669
 20
-20.7160394383
 10
-48.0030709122
 20
-20.8206440632
 10
-48.0170972572
 20
-20.9299790094
 10
-48.0378720544
 20
-21.0436863243
 10
-48.0661866889
 20
-21.1611486622
 10
-48.1028317481
 20
-21.281463298
 10
-48.1485751589
 20
-21.403941516
 10
-48.2040894085
 20
-21.5276335071
 10
-48.2698635081
 20
-21.6511156789
 10
-48.3467233378
 20
-21.7738057058
 10
-48.434790882
 20
-21.8940385281
 10
-48.5329591053
 20
-22.0089010002
 10
-48.6412984506
 20
-22.1174401473
 10
-48.7594220349
 20
-22.2184623263
 10
-48.8846563966
 20
-22.3094728463
 10
-49.0154105112
 20
-22.3895352318
 10
-49.1516790206
 20
-22.4588271757
 10
-49.292770033
 20
-22.5170381891
 10
-49.4379757226
 20
-22.5638735254
 10
-49.586397686
 20
-22.5990658067
 10
-49.7370385269
 20
-22.6224307502
 10
-49.8890960662
 20
-22.6338186669
 10
-50.0416734369
 20
-22.6330568491
 10
-50.1936177648
 20
-22.6201609677
 10
-50.3440184626
 20
-22.595316087
 10
-50.4920896321
 20
-22.5586699018
 10
-50.6368779584
 20
-22.5103897471
 10
-50.777616677
 20
-22.4506766515
 10
-50.9134559652
 20
-22.3798822413
 10
-51.0433686762
 20
-22.2985350672
 10
-51.1672519252
 20
-22.2066202796
 10
-51.2837235114
 20
-22.105069217
 10
-51.3902766928
 20
-21.9963902651
 10
-51.4865658825
 20
-21.8818573774
 10
-51.5727453091
 20
-21.76240065
 10
-51.6478956633
 20
-21.6407384353
 10
-51.7121775073
 20
-21.5184632518
 10
-51.7663984476
 20
-21.3961669777
 10
-51.8110892395
 20
-21.2751600442
 10
-51.8468975683
 20
-21.1564150475
 10
-51.8745936414
 20
-21.0405397254
 10
-51.8949878475
 20
-20.9281508344
 10
-51.9088220581
 20
-20.8197493124
 10
-51.9167915276
 20
-20.7157588164
 10
-51.9196155284
 20
-20.6165290319
  0
LWPOLYLINE
  5
450
100
AcDbEntity
  8
RACCORDO
100
AcDbPolyline
 62
250
  6
CONTINUOUS
 90
46
 70
0
 10
-47.6653200486
 20
7.4019244993
 10
-47.6618842641
 20
7.5139059414
 10
-47.65059212
 20
7.630359811
 10
-47.6314436164
 20
7.7512861081
 10
-47.6052093675
 20
7.8775844417
 10
-47.5711187592
 20
8.0083552028
 10
-47.5268599484
 20
8.1408995641
 10
-47.4721527057
 20
8.2755562935
 10
-47.4072772606
 20
8.4119866231
 10
-47.3307624589
 20
8.5464754211
 10
-47.2417114824
 20
8.6795468696
 10
-47.1410211494
 20
8.8106767865
 10
-47.0299107607
 20
8.9345774939
 10
-46.9074303696
 20
9.0508427767
 10
-46.7745299229
 20
9.1598788499
 10
-46.635278562
 20
9.2576166809
 10
-46.4902549726
 20
9.3429888948
 10
-46.3388804689
 20
9.4170628665
 10
-46.1834881348
 20
9.4789716868
 10
-46.0239771619
 20
9.5286062489
 10
-45.8604483586
 20
9.5660756597
 10
-45.6955372342
 20
9.5908403306
 10
-45.529161778
 20
9.6027128723
 10
-45.3614040008
 20
9.6018806742
 10
-45.1951454441
 20
9.5883663158
 10
-45.0304786289
 20
9.5619991796
 10
-44.8673110343
 20
9.5229498833
 10
-44.7082466382
 20
9.4717528589
 10
-44.5532755779
 20
9.4081978902
 10
-44.4024077162
 20
9.3324951934
 10
-44.2582766193
 20
9.24580985
 10
-44.1205025473
 20
9.1471282299
 10
-43.9894652401
 20
9.0374639632
 10
-43.8689374835
 20
8.9210230224
 10
-43.7598634922
 20
8.7975174042
 10
-43.6612990515
 20
8.6672351119
 10
-43.5741843029
 20
8.5352461271
 10
-43.4993434361
 20
8.4020635292
 10
-43.4359522614
 20
8.267174239
 10
-43.3824783516
 20
8.1341089998
 10
-43.3391645675
 20
8.0032728608
 10
-43.3057680483
 20
7.8742607728
 10
-43.280027783
 20
7.749388333
 10
-43.2611901016
 20
7.629427407
 10
-43.2500086741
 20
7.5136061291
 10
-43.2464835007
 20
7.4019244993
  0
LWPOLYLINE
  5
451
100
AcDbEntity
  8
RACCORDO
100
AcDbPolyline
 62
250
  6
CONTINUOUS
 90
43
 70
0
 10
-47.976915705
 20
5.3902785887
 10
-47.9825697172
 20
5.2407910754
 10
-47.9994558875
 20
5.0924440565
 10
-48.0274130931
 20
4.9460745292
 10
-48.0662114062
 20
4.8025235831
 10
-48.1155725375
 20
4.6625604712
 10
-48.1751895995
 20
4.5268845038
 10
-48.2446810848
 20
4.3962418648
 10
-48.3236178529
 20
4.2713350556
 10
-48.411575595
 20
4.152764057
 10
-48.5080345148
 20
4.0411803761
 10
-48.6124440052
 20
3.9371761163
 10
-48.7243028044
 20
3.8412306403
 10
-48.8430053627
 20
3.753865689
 10
-48.9678799095
 20
3.6755779033
 10
-49.0982972442
 20
3.6067707653
 10
-49.2335586948
 20
3.5478328796
 10
-49.3729017127
 20
3.4991158066
 10
-49.51556788
 20
3.460902569
 10
-49.6607997504
 20
3.4334187103
 10
-49.8077591471
 20
3.4168451407
 10
-49.9555408933
 20
3.4112925603
 10
-50.1033181867
 20
3.4167907505
 10
-50.2502674105
 20
3.4333077843
 10
-50.3954882763
 20
3.4607321211
 10
-50.538141077
 20
3.4988814175
 10
-50.6774711818
 20
3.5475297042
 10
-50.8127308681
 20
3.6063980557
 10
-50.9431585867
 20
3.6751372478
 10
-51.068053972
 20
3.753359746
 10
-51.1867925653
 20
3.8406677829
 10
-51.2987014766
 20
3.936567906
 10
-51.4031722671
 20
4.0405401268
 10
-51.4997038227
 20
4.1521101815
 10
-51.5877440099
 20
4.2706909061
 10
-51.6667669521
 20
4.3956299751
 10
-51.7363417064
 20
4.5263230822
 10
-51.7960365614
 20
4.6620687566
 10
-51.8454664435
 20
4.8021194541
 10
-51.8843193843
 20
4.9457659607
 10
-51.9123157417
 20
5.0922343348
 10
-51.929225786
 20
5.2406847917
 10
-51.9348878444
 20
5.3902785887
  0
LWPOLYLINE
  5
452
100
AcDbEntity
  8
RACCORDO
100
AcDbPolyline
 62
250
  6
CONTINUOUS
 90
43
 70
0
 10
-47.7279805365
 20
5.3902785887
 10
-47.7345844372
 20
5.2214288763
 10
-47.7533742477
 20
5.0554325687
 10
-47.784349968
 20
4.892289666
 10
-47.827875245
 20
4.7310727678
 10
-47.8835864318
 20
4.5727092745
 10
-47.9503925874
 20
4.4199813864
 10
-48.0284389224
 20
4.2730861453
 10
-48.1175802263
 20
4.1318265095
 10
-48.2162899263
 20
3.9983935546
 10
-48.3246883229
 20
3.8729116508
 10
-48.4426551156
 20
3.7552564278
 10
-48.5683028295
 20
3.6472458503
 10
-48.7017524867
 20
3.5490037065
 10
-48.8428830651
 20
3.4604062082
 10
-48.9894440236
 20
3.3828999549
 10
-49.1415438525
 20
3.3166454175
 10
-49.2990740614
 20
3.2614821251
 10
-49.4594586379
 20
3.2183752643
 10
-49.6227883964
 20
3.18752814
 10
-49.7889725224
 20
3.1687374472
 10
-49.95516256
 20
3.1623584573
 10
-50.1213588378
 20
3.1686266092
 10
-50.2875610272
 20
3.1873064639
 10
-50.4509196866
 20
3.2180469759
 10
-50.6113441292
 20
3.2610515194
 10
-50.7689250417
 20
3.3161167202
 10
-50.9210850432
 20
3.3822814099
 10
-51.0677149298
 20
3.4597044625
 10
-51.2089239054
 20
3.5482270039
 10
-51.3424622007
 20
3.646411244
 10
-51.4682110151
 20
3.7543810014
 10
-51.5862891492
 20
3.8720124573
 10
-51.6948032365
 20
3.9974963648
 10
-51.793636392
 20
4.1309616975
 10
-51.8829055007
 20
4.2722794817
 10
-51.9610678511
 20
4.4192535495
 10
-52.0279755613
 20
4.5720855115
 10
-52.0837765131
 20
4.7305737571
 10
-52.1273716408
 20
4.8919172875
 10
-52.158394589
 20
5.0551824365
 10
-52.177211713
 20
5.2213028702
 10
-52.1838230129
 20
5.3902785887
  0
LINE
  5
453
100
AcDbEntity
  8
ASSI
100
AcDbLine
 62
7
  6
CONTINUOUS
 10
-50.2664143304
 20
-20.0267540436
 11
-50.2699275158
 21
-20.0618649586
  0
LINE
  5
454
100
AcDbEntity
  8
ASSI
100
AcDbLine
 62
7
  6
CONTINUOUS
 10
-50.2559017747
 20
-20.0422706886
 11
-50.2559734986
 21
-20.0428706979
  0
LINE
  5
455
100
AcDbEntity
  8
RACCORDO
100
AcDbLine
 62
7
  6
CONTINUOUS
 10
-45.1150921469
 20
14.3745966034
 11
-44.9891385556
 21
15.0463490904
  0
LWPOLYLINE
  5
456
100
AcDbEntity
  8
ASSI
100
AcDbPolyline
 62
7
  6
CONTINUOUS
 90
29
 70
0
 10
-45.1558300507
 20
6.8234278753
 10
-45.1547174609
 20
6.8277836179
 10
-45.1522120453
 20
6.8326412735
 10
-45.1484060088
 20
6.8373051343
 10
-45.1431352537
 20
6.8416588611
 10
-45.1365589285
 20
6.8456450935
 10
-45.1291704835
 20
6.8492799858
 10
-45.1209780505
 20
6.8525061963
 10
-45.1119256791
 20
6.8552807713
 10
-45.1024170999
 20
6.8576742321
 10
-45.0924865992
 20
6.8596653155
 10
-45.0820403278
 20
6.861230849
 10
-45.0713061082
 20
6.8624596362
 10
-45.0603072422
 20
6.8633547789
 10
-45.0489715321
 20
6.8638984064
 10
-45.0374021501
 20
6.8641567888
 10
-45.0256205292
 20
6.8641387468
 10
-45.0135683478
 20
6.863832936
 10
-45.0012439516
 20
6.8632771088
 10
-44.9886655993
 20
6.8624809734
 10
-44.9757890025
 20
6.8614357402
 10
-44.9625296359
 20
6.8601496948
 10
-44.9488456224
 20
6.8586225626
 10
-44.9347614449
 20
6.8568548576
 10
-44.9202968108
 20
6.8548551798
 10
-44.9054160984
 20
6.8526206744
 10
-44.8901367849
 20
6.8501574079
 10
-44.874557466
 20
6.8474890421
 10
-44.8587038436
 20
6.8446261811
  0
LINE
  5
457
100
AcDbEntity
  8
RACCORDO
100
AcDbLine
 62
250
  6
CONTINUOUS
 10
-40.6555269682
 20
14.3979958705
 11
-40.6312111543
 21
14.4641738122
  0
LINE
  5
458
100
AcDbEntity
  8
RACCORDO
100
AcDbLine
 62
250
  6
CONTINUOUS
 10
-40.983900471
 20
14.5209670604
 11
-40.9592461012
 21
14.5868485023
  0
LINE
  5
459
100
AcDbEntity
  8
RACCORDO
100
AcDbLine
 62
250
  6
CONTINUOUS
 10
-43.9359017747
 20
6.2575155805
 11
-43.4921880209
 21
7.3970862093
  0
LINE
  5
45A
100
AcDbEntity
  8
RACCORDO
100
AcDbLine
 62
250
  6
CONTINUOUS
 10
-56.4244255215
 20
-25.5464394381
 11
-56.5523450874
 21
-25.8505909819
  0
LINE
  5
45B
100
AcDbEntity
  8
RACCORDO
100
AcDbLine
 62
250
  6
CONTINUOUS
 10
-56.0616782451
 20
-25.7023599521
 11
-56.1912424442
 21
-26.0047855504
  0
LINE
  5
45C
100
AcDbEntity
  8
RACCORDO
100
AcDbLine
 62
250
  6
CONTINUOUS
 10
-39.3501253051
 20
12.4829171295
 11
-39.2205611051
 21
12.7853427278
  0
LINE
  5
45D
100
AcDbEntity
  8
0
100
AcDbLine
 62
7
  6
CONTINUOUS
 10
-50.642071995
 20
-10.5655546652
 11
-50.6846251815
 21
-10.6488881574
  0
LINE
  5
45E
100
AcDbEntity
  8
0
100
AcDbLine
 62
7
  6
CONTINUOUS
 10
-50.5569656222
 20
-10.6697214113
 11
-50.5144124358
 21
-10.6072214113
  0
LINE
  5
45F
100
AcDbEntity
  8
0
100
AcDbLine
 62
7
  6
CONTINUOUS
 10
-49.854837942
 20
-7.336387919
 11
-50.7059017747
 21
-7.8572214113
  0
LINE
  5
460
100
AcDbEntity
  8
0
100
AcDbLine
 62
7
  6
CONTINUOUS
 10
-50.5782422154
 20
-7.9197214113
 11
-49.7059017747
 21
-7.398887919
  0
LINE
  5
461
100
AcDbEntity
  8
0
100
AcDbLine
 62
7
  6
CONTINUOUS
 10
-43.4559017747
 20
-4.0778315331
 11
-41.9559017747
 21
-3.4966583515
  0
LINE
  5
462
100
AcDbEntity
  8
0
100
AcDbLine
 62
7
  6
CONTINUOUS
 10
-42.3662019252
 20
-3.4731250073
 11
-43.4559017747
 21
-3.862961557
  0
LWPOLYLINE
  5
463
100
AcDbEntity
  8
0
100
AcDbPolyline
 62
7
  6
CONTINUOUS
 90
21
 70
0
 10
-52.5933526038
 20
-8.1472520005
 10
-52.5347045883
 20
-8.1335482201
 10
-52.4806178224
 20
-8.1145939104
 10
-52.4319846647
 20
-8.0903941917
 10
-52.3879127566
 20
-8.0609439438
 10
-52.3483912113
 20
-8.0268315059
 10
-52.3130622375
 20
-7.9874996542
 10
-52.2822836265
 20
-7.9435056126
 10
-52.257117866
 20
-7.8971093919
 10
-52.2377052261
 20
-7.8481938082
 10
-52.2239054365
 20
-7.7968760454
 10
-52.2163601748
 20
-7.7457676656
 10
-52.2153536158
 20
-7.6953778236
 10
-52.2206015846
 20
-7.6451973646
 10
-52.2318932337
 20
-7.5963103858
 10
-52.24966687
 20
-7.5481745633
 10
-52.2734841867
 20
-7.501332221
 10
-52.3018194156
 20
-7.4584944278
 10
-52.3341639674
 20
-7.4205648732
 10
-52.3710264314
 20
-7.3866398677
 10
-52.4124068077
 20
-7.3567194113
  0
LWPOLYLINE
  5
464
100
AcDbEntity
  8
0
100
AcDbPolyline
 62
7
  6
CONTINUOUS
 90
34
 70
0
 10
-52.053654776
 20
-8.129737395
 10
-51.9982733252
 20
-8.1188176899
 10
-51.9472578636
 20
-8.1039335748
 10
-51.9006083913
 20
-8.0850850496
 10
-51.8583067302
 20
-8.0622600237
 10
-51.8203710585
 20
-8.0354705879
 10
-51.7868559102
 20
-8.0047530136
 10
-51.7576804602
 20
-7.9701679094
 10
-51.7329255336
 20
-7.9316546668
 10
-51.7128881409
 20
-7.8890677319
 10
-51.6974237897
 20
-7.8416072368
 10
-51.6866769723
 20
-7.7900730494
 10
-51.681378176
 20
-7.7367192192
 10
-51.6815595151
 20
-7.6809884881
 10
-51.6871888753
 20
-7.6234381142
 10
-51.6989004012
 20
-7.5679939218
 10
-51.7169616955
 20
-7.5154935511
 10
-51.7411051556
 20
-7.4650993618
 10
-51.7711621182
 20
-7.4182242577
 10
-51.8070955898
 20
-7.37511497
 10
-51.8489425639
 20
-7.3355247674
 10
-51.8966453577
 20
-7.3001263601
 10
-51.9505905397
 20
-7.2690193652
 10
-52.0103915415
 20
-7.2421041654
 10
-52.0748309752
 20
-7.2197546194
 10
-52.1442940371
 20
-7.2024435786
 10
-52.2183955308
 20
-7.1896981916
 10
-52.2947624798
 20
-7.1804737616
 10
-52.3741688052
 20
-7.1746146038
 10
-52.4558405858
 20
-7.1722764031
 10
-52.5350830817
 20
-7.1728815179
 10
-52.6107026437
 20
-7.1757810892
 10
-52.683892921
 20
-7.181623976
 10
-52.7535401207
 20
-7.1917791135
  0
LWPOLYLINE
  5
465
100
AcDbEntity
  8
0
100
AcDbPolyline
 62
7
  6
CONTINUOUS
 90
10
 70
0
 10
-42.3488076209
 20
-6.3309014107
 10
-42.3048301
 20
-6.3246248872
 10
-42.2636381704
 20
-6.315848513
 10
-42.225231832
 20
-6.3045722883
 10
-42.1899317415
 20
-6.2908185081
 10
-42.1574172421
 20
-6.2745648772
 10
-42.1267263643
 20
-6.2557445106
 10
-42.0975384514
 20
-6.2343351132
 10
-42.0701741601
 20
-6.21035898
 10
-42.0446334903
 20
-6.183816111
  0
LWPOLYLINE
  5
466
100
AcDbEntity
  8
0
100
AcDbPolyline
 62
7
  6
CONTINUOUS
 90
10
 70
0
 10
-43.0456016689
 20
-6.5304237868
 10
-43.08555999
 20
-6.5323749153
 10
-43.1235320725
 20
-6.5372537448
 10
-43.1595179163
 20
-6.5450602754
 10
-43.1931987979
 20
-6.5556872727
 10
-43.2248934408
 20
-6.5692419711
 10
-43.2555580156
 20
-6.586046073
 10
-43.2855112458
 20
-6.6062068127
 10
-43.3144344079
 20
-6.6296169559
 10
-43.3423275018
 20
-6.6562765028
  0
LINE
  5
467
100
AcDbEntity
  8
0
100
AcDbLine
 62
7
  6
CONTINUOUS
 10
-52.4124068077
 20
-7.3567194113
 11
-52.4041528526
 21
-7.3563673935
  0
LWPOLYLINE
  5
468
100
AcDbEntity
  8
0
100
AcDbPolyline
 62
7
  6
CONTINUOUS
 90
7
 70
0
 10
-52.4041528526
 20
-7.3563673935
 10
-52.3959354085
 20
-7.3560649829
 10
-52.3918402674
 20
-7.3559318572
 10
-52.3877571311
 20
-7.355824735
 10
-52.3836868849
 20
-7.3557478016
 10
-52.3796286436
 20
-7.3556968717
 10
-52.3755824071
 20
-7.3556719453
  0
LINE
  5
469
100
AcDbEntity
  8
0
100
AcDbLine
 62
7
  6
CONTINUOUS
 10
-50.7059017747
 20
-8.0447214113
 11
-49.7059017747
 21
-8.0447214113
  0
LINE
  5
46A
100
AcDbEntity
  8
0
100
AcDbLine
 62
7
  6
CONTINUOUS
 10
-49.7059017747
 20
-7.9197214113
 11
-50.5782422154
 21
-7.9197214113
  0
LINE
  5
46B
100
AcDbEntity
  8
0
100
AcDbLine
 62
7
  6
CONTINUOUS
 10
-56.1059127747
 20
-7.9168224113
 11
-54.3059017747
 21
-7.9168224113
  0
LINE
  5
46C
100
AcDbEntity
  8
ASSI
100
AcDbLine
 62
7
  6
CONTINUOUS
 10
-38.1808507747
 20
-7.7493474113
 11
-39.5327487747
 21
-7.7493474113
  0
LINE
  5
46D
100
AcDbEntity
  8
0
100
AcDbLine
 62
7
  6
CONTINUOUS
 10
-54.5075807747
 20
-7.6773124113
 11
-55.1302617747
 21
-7.6773124113
  0
LINE
  5
46E
100
AcDbEntity
  8
0
100
AcDbLine
 62
7
  6
CONTINUOUS
 10
-55.3319587747
 20
-7.6773124113
 11
-55.9042337747
 21
-7.6773124113
  0
LINE
  5
46F
100
AcDbEntity
  8
0
100
AcDbLine
 62
7
  6
CONTINUOUS
 10
-46.1233897747
 20
-7.5493114113
 11
-46.8883897747
 21
-7.5493114113
  0
LINE
  5
470
100
AcDbEntity
  8
0
100
AcDbLine
 62
7
  6
CONTINUOUS
 10
-50.7059017747
 20
-7.336387919
 11
-49.854837942
 21
-7.336387919
  0
LINE
  5
471
100
AcDbEntity
  8
0
100
AcDbLine
 62
7
  6
CONTINUOUS
 10
-49.7059017747
 20
-7.211387919
 11
-50.7059017747
 21
-7.211387919
  0
LINE
  5
472
100
AcDbEntity
  8
0
100
AcDbLine
 62
7
  6
CONTINUOUS
 10
-43.9686717747
 20
-7.0393114113
 11
-44.7391982149
 21
-7.0393114113
  0
LINE
  5
473
100
AcDbEntity
  8
0
100
AcDbLine
 62
7
  6
CONTINUOUS
 10
-48.2725817747
 20
-7.0393114113
 11
-49.0431077747
 21
-7.0393114113
  0
LINE
  5
474
100
AcDbEntity
  8
0
100
AcDbLine
 62
7
  6
CONTINUOUS
 10
-55.1302617747
 20
-6.7420184113
 11
-55.3319587747
 21
-6.7420184113
  0
LINE
  5
475
100
AcDbEntity
  8
0
100
AcDbLine
 62
7
  6
CONTINUOUS
 10
-55.9042337747
 20
-6.6739504113
 11
-56.1059127747
 21
-6.6739504113
  0
LINE
  5
476
100
AcDbEntity
  8
0
100
AcDbLine
 62
7
  6
CONTINUOUS
 10
-54.3059017747
 20
-6.6663904113
 11
-54.5075807747
 21
-6.6663904113
  0
LINE
  5
477
100
AcDbEntity
  8
ASSI
100
AcDbLine
 62
7
  6
CONTINUOUS
 10
-39.5327487747
 20
-6.5640524113
 11
-38.1808507747
 21
-6.5640474113
  0
LINE
  5
478
100
AcDbEntity
  8
0
100
AcDbLine
 62
7
  6
CONTINUOUS
 10
-41.9559017747
 20
-6.5283774401
 11
-42.132914058
 21
-6.5283774401
  0
LWPOLYLINE
  5
479
100
AcDbEntity
  8
0
100
AcDbPolyline
 62
7
  6
CONTINUOUS
 90
10
 70
0
 10
-43.0496944516
 20
-6.7197144295
 10
-43.0288313297
 20
-6.7202995468
 10
-43.0070308874
 20
-6.7229943362
 10
-42.9842931247
 20
-6.7277987978
 10
-42.9606373441
 20
-6.7345376072
 10
-42.9360442431
 20
-6.7433860887
 10
-42.9104559141
 20
-6.7548702156
 10
-42.8838530547
 20
-6.7691653121
 10
-42.8562549674
 20
-6.786096054
 10
-42.8276616521
 20
-6.8056624413
  0
LWPOLYLINE
  5
47A
100
AcDbEntity
  8
0
100
AcDbPolyline
 62
7
  6
CONTINUOUS
 90
28
 70
0
 10
-52.7152180736
 20
-7.3776684113
 10
-52.6704069274
 20
-7.3796157394
 10
-52.6283266582
 20
-7.3851936071
 10
-52.5889772661
 20
-7.3944020143
 10
-52.5520471803
 20
-7.4075122451
 10
-52.5178479716
 20
-7.4242530153
 10
-52.4873143514
 20
-7.4438104731
 10
-52.4607524524
 20
-7.4661033236
 10
-52.4378561421
 20
-7.4912128616
 10
-52.4186417337
 20
-7.518569119
 10
-52.4030536756
 20
-7.5482635012
 10
-52.3911475195
 20
-7.5802046027
 10
-52.3831062342
 20
-7.6135482391
 10
-52.3789490209
 20
-7.6488048043
 10
-52.3786566785
 20
-7.6854639043
 10
-52.3823545718
 20
-7.7211501726
 10
-52.3901220256
 20
-7.7554428519
 10
-52.4018797153
 20
-7.7887626994
 10
-52.4175150314
 20
-7.8199966195
 10
-52.437204339
 20
-7.8491000534
 10
-52.4607712731
 20
-7.87611756
 10
-52.4875741302
 20
-7.9000697203
 10
-52.5175861838
 20
-7.9209657677
 10
-52.5508341604
 20
-7.9387964689
 10
-52.5867565362
 20
-7.9525547045
 10
-52.6251661366
 20
-7.9619047681
 10
-52.6662501363
 20
-7.9671823662
 10
-52.7100085351
 20
-7.9683874987
  0
LWPOLYLINE
  5
47B
100
AcDbEntity
  8
0
100
AcDbPolyline
 62
7
  6
CONTINUOUS
 90
28
 70
0
 10
-52.3755824071
 20
-7.3556719453
 10
-52.3163038914
 20
-7.3582712624
 10
-52.2596169468
 20
-7.3635294548
 10
-52.2055215733
 20
-7.3714465225
 10
-52.1538360156
 20
-7.3819864864
 10
-52.104742029
 20
-7.3951853256
 10
-52.0587848792
 20
-7.4111509778
 10
-52.0156439772
 20
-7.4297964328
 10
-51.975639912
 20
-7.4512087009
 10
-51.9402797158
 20
-7.4757567502
 10
-51.9099200417
 20
-7.5039903299
 10
-51.8842042366
 20
-7.5353596907
 10
-51.8635693729
 20
-7.568584553
 10
-51.8483769975
 20
-7.6040531233
 10
-51.8382655635
 20
-7.641377195
 10
-51.832587502
 20
-7.6781118686
 10
-51.8313243189
 20
-7.7140510827
 10
-51.8344945084
 20
-7.7494008988
 10
-51.8415059838
 20
-7.782334601
 10
-51.8521949563
 20
-7.8124012042
 10
-51.8667252148
 20
-7.8400516936
 10
-51.8849960398
 20
-7.8648123086
 10
-51.9071461441
 20
-7.8864501337
 10
-51.9330368149
 20
-7.9051980844
 10
-51.9621511943
 20
-7.9212811466
 10
-51.9943169964
 20
-7.9347743157
 10
-52.0297065072
 20
-7.9456025963
 10
-52.0683197266
 20
-7.9537659884
  0
LWPOLYLINE
  5
47C
100
AcDbEntity
  8
0
100
AcDbPolyline
 62
7
  6
CONTINUOUS
 90
10
 70
0
 10
-43.0087667136
 20
-7.2957717444
 10
-43.0422172028
 20
-7.2941841093
 10
-43.0732649372
 20
-7.2906819236
 10
-43.1019099167
 20
-7.2852651872
 10
-43.1279130957
 20
-7.2778457401
 10
-43.1515135199
 20
-7.2685117423
 10
-43.1734283264
 20
-7.2575276745
 10
-43.1938965609
 20
-7.2449816968
 10
-43.2126791777
 20
-7.230785649
 10
-43.2297761767
 20
-7.2149395312
  0
LWPOLYLINE
  5
47D
100
AcDbEntity
  8
0
100
AcDbPolyline
 62
7
  6
CONTINUOUS
 90
26
 70
0
 10
-52.7596367498
 20
-6.7952861631
 10
-52.8034361324
 20
-6.7917818878
 10
-52.8439470657
 20
-6.7846858078
 10
-52.8811695498
 20
-6.7739979231
 10
-52.9152117092
 20
-6.7596116961
 10
-52.9459654193
 20
-6.7416336643
 10
-52.9731063068
 20
-6.7203834407
 10
-52.9965618716
 20
-6.695907416
 10
-53.0164046139
 20
-6.6681591994
 10
-53.0325276609
 20
-6.6373192313
 10
-53.0450199949
 20
-6.6026716118
 10
-53.0537926337
 20
-6.5649322408
 10
-53.0584717572
 20
-6.5264292583
 10
-53.0590100132
 20
-6.4869402753
 10
-53.0554547541
 20
-6.4466876809
 10
-53.0475742164
 20
-6.4086667814
 10
-53.0350758572
 20
-6.3734279801
 10
-53.0182522194
 20
-6.3404208738
 10
-52.9977491684
 20
-6.3109895594
 10
-52.9732994455
 20
-6.2853852871
 10
-52.9451703093
 20
-6.2633568066
 10
-52.9148094011
 20
-6.2454944644
 10
-52.8822569132
 20
-6.2316850622
 10
-52.8474726532
 20
-6.2220417983
 10
-52.8117836852
 20
-6.2174946149
 10
-52.7753896068
 20
-6.2184568259
  0
LWPOLYLINE
  5
47E
100
AcDbEntity
  8
0
100
AcDbPolyline
 62
7
  6
CONTINUOUS
 90
15
 70
0
 10
-52.7753896068
 20
-6.2184568259
 10
-52.7380908204
 20
-6.2245151173
 10
-52.7006155969
 20
-6.2353594898
 10
-52.662994022
 20
-6.2512938206
 10
-52.62519601
 20
-6.2720142325
 10
-52.5878595745
 20
-6.2962990942
 10
-52.5513327006
 20
-6.3241357307
 10
-52.5152674032
 20
-6.3555368171
 10
-52.4792577398
 20
-6.3893187476
 10
-52.4433157622
 20
-6.4252882032
 10
-52.4074294186
 20
-6.4636385029
 10
-52.3711566111
 20
-6.5037659985
 10
-52.3343499738
 20
-6.545469474
 10
-52.2971568726
 20
-6.5889501453
 10
-52.2595773076
 20
-6.6342080125
  0
LWPOLYLINE
  5
47F
100
AcDbEntity
  8
0
100
AcDbPolyline
 62
7
  6
CONTINUOUS
 90
28
 70
0
 10
-52.7889647367
 20
-5.6242372027
 10
-52.8279003872
 20
-5.6169318212
 10
-52.8641124525
 20
-5.6071398965
 10
-52.8976009327
 20
-5.5948614285
 10
-52.9285204986
 20
-5.5801266304
 10
-52.9567164794
 20
-5.5629052889
 10
-52.9817248628
 20
-5.5431067651
 10
-53.0035097556
 20
-5.5206337538
 10
-53.022107051
 20
-5.4955835601
 10
-53.0371604162
 20
-5.4681574597
 10
-53.0486378065
 20
-5.4378434715
 10
-53.0565712665
 20
-5.4051535765
 10
-53.060700597
 20
-5.3718249936
 10
-53.0609564625
 20
-5.3375397141
 10
-53.0574081984
 20
-5.3026157467
 10
-53.0500036121
 20
-5.2697443365
 10
-53.0383415286
 20
-5.239460435
 10
-53.022823123
 20
-5.2112290908
 10
-53.0045997279
 20
-5.1861366944
 10
-52.9837528307
 20
-5.1643949902
 10
-52.9602009441
 20
-5.1457922338
 10
-52.9348509385
 20
-5.1307795821
 10
-52.9074069058
 20
-5.1196375522
 10
-52.8781647542
 20
-5.112085627
 10
-52.8489190787
 20
-5.1077334124
 10
-52.819820027
 20
-5.1064545054
 10
-52.7907174516
 20
-5.1083753091
 10
-52.7629555049
 20
-5.113484638
  0
LWPOLYLINE
  5
480
100
AcDbEntity
  8
0
100
AcDbPolyline
 62
7
  6
CONTINUOUS
 90
13
 70
0
 10
-52.7629555049
 20
-5.113484638
 10
-52.7368423265
 20
-5.1217156541
 10
-52.7120697768
 20
-5.1331351955
 10
-52.6890575899
 20
-5.1479325913
 10
-52.6678210727
 20
-5.1663321271
 10
-52.6483449182
 20
-5.1881095172
 10
-52.6310029397
 20
-5.2127812348
 10
-52.615737177
 20
-5.240446249
 10
-52.6026055903
 20
-5.2710055906
 10
-52.592155874
 20
-5.3036788245
 10
-52.5845705927
 20
-5.3382058058
 10
-52.5796671818
 20
-5.3748466794
 10
-52.5774456413
 20
-5.4136014454
  0
LINE
  5
481
100
AcDbEntity
  8
ASSI
100
AcDbLine
 62
7
  6
CONTINUOUS
 10
-40.2309427747
 20
-9.6627404113
 11
-38.8193437747
 21
-10.1159494113
  0
LINE
  5
482
100
AcDbEntity
  8
ASSI
100
AcDbLine
 62
7
  6
CONTINUOUS
 10
-38.1808507747
 20
-9.9109394113
 11
-40.2309427747
 21
-9.2527194113
  0
LINE
  5
483
100
AcDbEntity
  8
0
100
AcDbLine
 62
7
  6
CONTINUOUS
 10
-56.1059067747
 20
-5.1639044113
 11
-54.5453897747
 21
-5.6857379113
  0
LINE
  5
484
100
AcDbEntity
  8
0
100
AcDbLine
 62
7
  6
CONTINUOUS
 10
-54.3058967747
 20
-5.5546694113
 11
-56.1059067747
 21
-4.9143094113
  0
LWPOLYLINE
  5
485
100
AcDbEntity
  8
0
100
AcDbPolyline
 62
7
  6
CONTINUOUS
 90
10
 70
0
 10
-43.011836323
 20
-8.9686912562
 10
-43.0420470815
 20
-8.9578218836
 10
-43.0726721555
 20
-8.947418528
 10
-43.1037115452
 20
-8.9374811893
 10
-43.1351770422
 20
-8.9280018815
 10
-43.1670568549
 20
-8.9189885906
 10
-43.1993156077
 20
-8.9104652745
 10
-43.2319415087
 20
-8.9024399191
 10
-43.2649463498
 20
-8.8949045384
 10
-43.2983301311
 20
-8.8878591324
  0
LINE
  5
486
100
AcDbEntity
  8
0
100
AcDbLine
 62
7
  6
CONTINUOUS
 10
-41.9559017747
 20
-9.3554579283
 11
-42.4101991831
 21
-9.190723982
  0
LINE
  5
487
100
AcDbEntity
  8
0
100
AcDbLine
 62
7
  6
CONTINUOUS
 10
-42.5718635647
 20
-9.1334252025
 11
-43.011836323
 21
-8.9686912562
  0
LINE
  5
488
100
AcDbEntity
  8
0
100
AcDbLine
 62
7
  6
CONTINUOUS
 10
-43.4559017747
 20
-8.9901782538
 11
-41.9559017747
 21
-9.5662355686
  0
LWPOLYLINE
  5
489
100
AcDbEntity
  8
0
100
AcDbPolyline
 62
7
  6
CONTINUOUS
 90
10
 70
0
 10
-42.1799808941
 20
-9.7207376073
 10
-42.2067562773
 20
-9.7080342652
 10
-42.234078227
 20
-9.6967953336
 10
-42.2619467433
 20
-9.6870208124
 10
-42.2902764331
 20
-9.6787025599
 10
-42.3191526895
 20
-9.6718487178
 10
-42.3488316919
 20
-9.6664837113
 10
-42.3793988337
 20
-9.662615682
 10
-42.4107687216
 20
-9.6602364883
 10
-42.4429413556
 20
-9.65934613
  0
LINE
  5
48A
100
AcDbEntity
  8
0
100
AcDbLine
 62
7
  6
CONTINUOUS
 10
-52.2338167747
 20
-4.5444144113
 11
-52.9086037747
 21
-4.0740114113
  0
LINE
  5
48B
100
AcDbEntity
  8
0
100
AcDbLine
 62
7
  6
CONTINUOUS
 10
-53.2058497747
 20
-4.0404924113
 11
-52.2338167747
 21
-4.7255254113
  0
LWPOLYLINE
  5
48C
100
AcDbEntity
  8
0
100
AcDbPolyline
 62
7
  6
CONTINUOUS
 90
10
 70
0
 10
-43.2901882625
 20
-10.4892086776
 10
-43.2513814539
 20
-10.5190022881
 10
-43.2052286724
 20
-10.5461209809
 10
-43.1517299182
 20
-10.5705647559
 10
-43.0915763108
 20
-10.5927505721
 10
-43.0240767305
 20
-10.6122614705
 10
-42.9471578186
 20
-10.6278465746
 10
-42.8601284554
 20
-10.6390889254
 10
-42.7636797605
 20
-10.6464054819
 10
-42.657811734
 20
-10.649796244
  0
LINE
  5
48D
100
AcDbEntity
  8
0
100
AcDbLine
 62
7
  6
CONTINUOUS
 10
-49.7697315617
 20
-4.4822214113
 11
-49.854837942
 21
-4.3988883959
  0
LWPOLYLINE
  5
48E
100
AcDbEntity
  8
0
100
AcDbPolyline
 62
7
  6
CONTINUOUS
 90
10
 70
0
 10
-43.2614651186
 20
-11.3956765432
 10
-43.2398655185
 20
-11.4205601731
 10
-43.2187763377
 20
-11.4466703057
 10
-43.1981975761
 20
-11.474006941
 10
-43.1781269251
 20
-11.5024944138
 10
-43.1585666934
 20
-11.5322083892
 10
-43.1395238068
 20
-11.5633758633
 10
-43.1210005741
 20
-11.5960725011
 10
-43.1029946865
 20
-11.6302226375
 10
-43.0855061441
 20
-11.6658262725
  0
LINE
  5
48F
100
AcDbEntity
  8
0
100
AcDbLine
 62
7
  6
CONTINUOUS
 10
-49.8973911433
 20
-4.5238883959
 11
-49.854837942
 21
-4.5863883959
  0
LINE
  5
490
100
AcDbEntity
  8
0
100
AcDbLine
 62
7
  6
CONTINUOUS
 10
-50.5144124358
 20
-2.6697214113
 11
-50.5569656222
 21
-2.6072214113
  0
LINE
  5
491
100
AcDbEntity
  8
0
100
AcDbLine
 62
7
  6
CONTINUOUS
 10
-49.7271783697
 20
-4.5655544267
 11
-49.7697315617
 21
-4.4822214113
  0
LINE
  5
492
100
AcDbEntity
  8
0
100
AcDbLine
 62
7
  6
CONTINUOUS
 10
-50.6846251815
 20
-2.6280544267
 11
-50.642071995
 21
-2.7113883959
  0
LINE
  5
493
100
AcDbEntity
  8
0
100
AcDbLine
 62
7
  6
CONTINUOUS
 10
-49.7271783697
 20
-2.3155544267
 11
-49.7697315617
 21
-2.2322214113
  0
LINE
  5
494
100
AcDbEntity
  8
RACCORDO
100
AcDbLine
 62
250
  6
CONTINUOUS
 10
-56.1912424442
 20
12.7853427278
 11
-56.0616782443
 21
12.4829171295
  0
LINE
  5
495
100
AcDbEntity
  8
RACCORDO
100
AcDbLine
 62
250
  6
CONTINUOUS
 10
-39.2205611051
 20
-26.0047855504
 11
-39.3501253043
 21
-25.7023599521
  0
LINE
  5
496
100
AcDbEntity
  8
RACCORDO
100
AcDbLine
 62
250
  6
CONTINUOUS
 10
-56.5523450874
 20
12.6311481593
 11
-56.4244255234
 21
12.3269966135
  0
LINE
  5
497
100
AcDbEntity
  8
RACCORDO
100
AcDbLine
 62
250
  6
CONTINUOUS
 10
-43.9359017747
 20
-19.4769584031
 11
-43.4921880209
 21
-20.6165290319
  0
LINE
  5
498
100
AcDbEntity
  8
RACCORDO
100
AcDbLine
 62
250
  6
CONTINUOUS
 10
-40.9592461012
 20
-27.8062913249
 11
-40.9839004759
 21
-27.740409883
  0
LINE
  5
499
100
AcDbEntity
  8
RACCORDO
100
AcDbLine
 62
250
  6
CONTINUOUS
 10
-40.6312111541
 20
-27.6836166353
 11
-40.6555269439
 21
-27.6174387111
  0
LINE
  5
49A
100
AcDbEntity
  8
0
100
AcDbLine
 62
7
  6
CONTINUOUS
 10
-50.5569656222
 20
-2.6072214113
 11
-50.5782422154
 21
-2.5447214113
  0
LINE
  5
49B
100
AcDbEntity
  8
0
100
AcDbLine
 62
7
  6
CONTINUOUS
 10
-49.854837942
 20
-2.3363883959
 11
-49.8335613488
 21
-2.4197214113
  0
LINE
  5
49C
100
AcDbEntity
  8
0
100
AcDbLine
 62
7
  6
CONTINUOUS
 10
-49.7059017747
 20
-2.4197214113
 11
-49.7271783697
 21
-2.3155544267
  0
LINE
  5
49D
100
AcDbEntity
  8
RACCORDO
100
AcDbLine
 62
7
  6
CONTINUOUS
 10
-44.9891385556
 20
-28.265791913
 11
-45.1150921469
 21
-27.594039426
  0
LINE
  5
49E
100
AcDbEntity
  8
ASSI
100
AcDbLine
 62
7
  6
CONTINUOUS
 10
-45.1453892189
 20
-20.0267540436
 11
-45.1418904516
 21
-20.0616512317
  0
LINE
  5
49F
100
AcDbEntity
  8
ASSI
100
AcDbLine
 62
7
  6
CONTINUOUS
 10
-45.1557971884
 20
-20.0445791912
 11
-45.1559017747
 21
-20.0422706886
  0
LINE
  5
4A0
100
AcDbEntity
  8
0
100
AcDbLine
 62
7
  6
CONTINUOUS
 10
-46.8883897747
 20
-7.5493114113
 11
-46.8883897747
 21
-9.0378478828
  0
LINE
  5
4A1
100
AcDbEntity
  8
0
100
AcDbLine
 62
7
  6
CONTINUOUS
 10
-46.3239627747
 20
6.908618964
 11
-46.3239627747
 21
3.8710808269
  0
LINE
  5
4A2
100
AcDbEntity
  8
0
100
AcDbLine
 62
7
  6
CONTINUOUS
 10
-46.3239627747
 20
-20.1280617866
 11
-46.3239627747
 21
-17.0905236495
  0
LINE
  5
4A3
100
AcDbEntity
  8
0
100
AcDbLine
 62
7
  6
CONTINUOUS
 10
-46.1233897747
 20
-9.0378474113
 11
-46.1233897747
 21
-7.5493114113
  0
LINE
  5
4A4
100
AcDbEntity
  8
0
100
AcDbLine
 62
7
  6
CONTINUOUS
 10
-45.9559017747
 20
-16.9332394403
 11
-45.9559017747
 21
-20.2862759725
  0
LINE
  5
4A5
100
AcDbEntity
  8
0
100
AcDbLine
 62
7
  6
CONTINUOUS
 10
-45.9559017747
 20
3.7137966177
 11
-45.9559017747
 21
7.0668331499
  0
LWPOLYLINE
  5
4A6
100
AcDbEntity
  8
RACCORDO
100
AcDbPolyline
 62
250
  6
CONTINUOUS
 90
3
 70
0
 10
-47.4348878444
 20
5.3902785887
 10
-47.4346487458
 20
5.6338045612
 10
-47.4339371342
 20
5.8740679326
  0
LWPOLYLINE
  5
4A7
100
AcDbEntity
  8
RACCORDO
100
AcDbPolyline
 62
250
  6
CONTINUOUS
 90
46
 70
0
 10
-47.7464835007
 20
-20.6213673219
 10
-47.7499192853
 20
-20.733348764
 10
-47.7612114293
 20
-20.8498026336
 10
-47.780359933
 20
-20.9707289307
 10
-47.8065941818
 20
-21.0970272643
 10
-47.8406847902
 20
-21.2277980254
 10
-47.8849436009
 20
-21.3603423866
 10
-47.9396508436
 20
-21.4949991161
 10
-48.0045262887
 20
-21.6314294457
 10
-48.0810410904
 20
-21.7659182437
 10
-48.1700920669
 20
-21.8989896922
 10
-48.2707824
 20
-22.0301196091
 10
-48.3818927886
 20
-22.1540203165
 10
-48.5043731797
 20
-22.2702855993
 10
-48.6372736264
 20
-22.3793216725
 10
-48.7765249873
 20
-22.4770595034
 10
-48.9215485768
 20
-22.5624317174
 10
-49.0729230805
 20
-22.636505689
 10
-49.2283154145
 20
-22.6984145093
 10
-49.3878263875
 20
-22.7480490715
 10
-49.5513551908
 20
-22.7855184823
 10
-49.7162663151
 20
-22.8102831532
 10
-49.8826417713
 20
-22.8221556949
 10
-50.0503995485
 20
-22.8213234968
 10
-50.2166581053
 20
-22.8078091384
 10
-50.3813249204
 20
-22.7814420022
 10
-50.544492515
 20
-22.7423927059
 10
-50.7035569111
 20
-22.6911956815
 10
-50.8585279714
 20
-22.6276407127
 10
-51.0093958331
 20
-22.551938016
 10
-51.15352693
 20
-22.4652526726
 10
-51.291301002
 20
-22.3665710525
 10
-51.4223383092
 20
-22.2569067858
 10
-51.5428660658
 20
-22.140465845
 10
-51.6519400571
 20
-22.0169602268
 10
-51.7505044979
 20
-21.8866779345
 10
-51.8376192465
 20
-21.7546889497
 10
-51.9124601132
 20
-21.6215063518
 10
-51.9758512879
 20
-21.4866170615
 10
-52.0293251978
 20
-21.3535518224
 10
-52.0726389818
 20
-21.2227156833
 10
-52.1060355011
 20
-21.0937035954
 10
-52.1317757663
 20
-20.9688311556
 10
-52.1506134478
 20
-20.8488702296
 10
-52.1617948752
 20
-20.7330489517
 10
-52.1653200486
 20
-20.6213673219
  0
LWPOLYLINE
  5
4A8
100
AcDbEntity
  8
RACCORDO
100
AcDbPolyline
 62
250
  6
CONTINUOUS
 90
43
 70
0
 10
-47.4348878444
 20
-18.6097214113
 10
-47.4292338321
 20
-18.460233898
 10
-47.4123476619
 20
-18.3118868791
 10
-47.3843904562
 20
-18.1655173518
 10
-47.3455921431
 20
-18.0219664057
 10
-47.2962310118
 20
-17.8820032938
 10
-47.2366139498
 20
-17.7463273263
 10
-47.1671224645
 20
-17.6156846874
 10
-47.0881856965
 20
-17.4907778781
 10
-47.0002279543
 20
-17.3722068796
 10
-46.9037690346
 20
-17.2606231987
 10
-46.7993595441
 20
-17.1566189389
 10
-46.6875007449
 20
-17.0606734629
 10
-46.5687981866
 20
-16.9733085116
 10
-46.4439236398
 20
-16.8950207259
 10
-46.3135063052
 20
-16.8262135879
 10
-46.1782448545
 20
-16.7672757022
 10
-46.0389018366
 20
-16.7185586292
 10
-45.8962356693
 20
-16.6803453916
 10
-45.751003799
 20
-16.6528615328
 10
-45.6040444023
 20
-16.6362879633
 10
-45.456262656
 20
-16.6307353829
 10
-45.3084853627
 20
-16.6362335731
 10
-45.1615361389
 20
-16.6527506069
 10
-45.016315273
 20
-16.6801749437
 10
-44.8736624723
 20
-16.7183242401
 10
-44.7343323675
 20
-16.7669725268
 10
-44.5990726813
 20
-16.8258408783
 10
-44.4686449626
 20
-16.8945800704
 10
-44.3437495773
 20
-16.9728025686
 10
-44.2250109841
 20
-17.0601106055
 10
-44.1131020728
 20
-17.1560107286
 10
-44.0086312822
 20
-17.2599829493
 10
-43.9120997266
 20
-17.3715530041
 10
-43.8240595394
 20
-17.4901337287
 10
-43.7450365972
 20
-17.6150727977
 10
-43.6754618429
 20
-17.7457659048
 10
-43.615766988
 20
-17.8815115792
 10
-43.5663371059
 20
-18.0215622767
 10
-43.527484165
 20
-18.1652087833
 10
-43.4994878076
 20
-18.3116771573
 10
-43.4825777633
 20
-18.4601276143
 10
-43.476915705
 20
-18.6097214113
  0
LWPOLYLINE
  5
4A9
100
AcDbEntity
  8
RACCORDO
100
AcDbPolyline
 62
250
  6
CONTINUOUS
 90
43
 70
0
 10
-47.6838230129
 20
-18.6097214113
 10
-47.6772191121
 20
-18.4408716989
 10
-47.6584293016
 20
-18.2748753913
 10
-47.6274535813
 20
-18.1117324885
 10
-47.5839283043
 20
-17.9505155904
 10
-47.5282171176
 20
-17.792152097
 10
-47.461410962
 20
-17.639424209
 10
-47.3833646269
 20
-17.4925289679
 10
-47.294223323
 20
-17.3512693321
 10
-47.1955136231
 20
-17.2178363772
 10
-47.0871152264
 20
-17.0923544733
 10
-46.9691484338
 20
-16.9746992504
 10
-46.8435007199
 20
-16.8666886728
 10
-46.7100510627
 20
-16.7684465291
 10
-46.5689204842
 20
-16.6798490308
 10
-46.4223595258
 20
-16.6023427774
 10
-46.2702596968
 20
-16.5360882401
 10
-46.1127294879
 20
-16.4809249477
 10
-45.9523449114
 20
-16.4378180869
 10
-45.7890151529
 20
-16.4069709626
 10
-45.6228310269
 20
-16.3881802698
 10
-45.4566409893
 20
-16.3818012799
 10
-45.2904447115
 20
-16.3880694318
 10
-45.1242425221
 20
-16.4067492865
 10
-44.9608838627
 20
-16.4374897985
 10
-44.8004594202
 20
-16.480494342
 10
-44.6428785076
 20
-16.5355595428
 10
-44.4907185061
 20
-16.6017242325
 10
-44.3440886195
 20
-16.6791472851
 10
-44.202879644
 20
-16.7676698265
 10
-44.0693413486
 20
-16.8658540665
 10
-43.9435925343
 20
-16.973823824
 10
-43.8255144002
 20
-17.0914552799
 10
-43.7170003129
 20
-17.2169391874
 10
-43.6181671573
 20
-17.3504045201
 10
-43.5288980486
 20
-17.4917223042
 10
-43.4507356982
 20
-17.6386963721
 10
-43.383827988
 20
-17.7915283341
 10
-43.3280270362
 20
-17.9500165797
 10
-43.2844319085
 20
-18.1113601101
 10
-43.2534089603
 20
-18.2746252591
 10
-43.2345918363
 20
-18.4407456928
 10
-43.2279805365
 20
-18.6097214113
  0
LINE
  5
4AA
100
AcDbEntity
  8
ASSI
100
AcDbLine
 62
7
  6
CONTINUOUS
 10
-45.1453892189
 20
6.807311221
 11
-45.1418760335
 21
6.842422136
  0
LINE
  5
4AB
100
AcDbEntity
  8
ASSI
100
AcDbLine
 62
7
  6
CONTINUOUS
 10
-45.1559017747
 20
6.822827866
 11
-45.1558300507
 21
6.8234278753
  0
LINE
  5
4AC
100
AcDbEntity
  8
RACCORDO
100
AcDbLine
 62
7
  6
CONTINUOUS
 10
-50.2967114024
 20
-27.594039426
 11
-50.4226649937
 21
-28.265791913
  0
LWPOLYLINE
  5
4AD
100
AcDbEntity
  8
ASSI
100
AcDbPolyline
 62
7
  6
CONTINUOUS
 90
29
 70
0
 10
-50.2559734986
 20
-20.0428706979
 10
-50.2570860884
 20
-20.0472264405
 10
-50.2595915041
 20
-20.052084096
 10
-50.2633975405
 20
-20.0567479569
 10
-50.2686682957
 20
-20.0611016836
 10
-50.2752446209
 20
-20.065087916
 10
-50.2826330658
 20
-20.0687228084
 10
-50.2908254989
 20
-20.0719490188
 10
-50.2998778702
 20
-20.0747235939
 10
-50.3093864494
 20
-20.0771170547
 10
-50.3193169501
 20
-20.0791081381
 10
-50.3297632216
 20
-20.0806736716
 10
-50.3404974411
 20
-20.0819024588
 10
-50.3514963071
 20
-20.0827976015
 10
-50.3628320173
 20
-20.083341229
 10
-50.3744013993
 20
-20.0835996114
 10
-50.3861830201
 20
-20.0835815694
 10
-50.3982352015
 20
-20.0832757586
 10
-50.4105595977
 20
-20.0827199314
 10
-50.42313795
 20
-20.081923796
 10
-50.4360145468
 20
-20.0808785627
 10
-50.4492739134
 20
-20.0795925174
 10
-50.462957927
 20
-20.0780653852
 10
-50.4770421044
 20
-20.0762976802
 10
-50.4915067385
 20
-20.0742980024
 10
-50.5063874509
 20
-20.0720634969
 10
-50.5216667644
 20
-20.0696002305
 10
-50.5372460833
 20
-20.0669318647
 10
-50.5530997057
 20
-20.0640690037
  0
LINE
  5
4AE
100
AcDbEntity
  8
RACCORDO
100
AcDbLine
 62
250
  6
CONTINUOUS
 10
-54.7562763732
 20
-27.6174380801
 11
-54.7805923949
 21
-27.6836166345
  0
LINE
  5
4AF
100
AcDbEntity
  8
RACCORDO
100
AcDbLine
 62
250
  6
CONTINUOUS
 10
-54.4279030734
 20
-27.740409883
 11
-54.4525574482
 21
-27.8062913249
  0
LINE
  5
4B0
100
AcDbEntity
  8
RACCORDO
100
AcDbLine
 62
250
  6
CONTINUOUS
 10
-51.4759017746
 20
-19.4769584031
 11
-51.9196155284
 21
-20.6165290319
  0
LINE
  5
4B1
100
AcDbEntity
  8
RACCORDO
100
AcDbLine
 62
250
  6
CONTINUOUS
 10
-38.9873780259
 20
12.3269966135
 11
-38.8594584619
 21
12.6311481593
  0
LINE
  5
4B2
100
AcDbEntity
  8
0
100
AcDbLine
 62
7
  6
CONTINUOUS
 10
-50.5569656222
 20
-10.4822214113
 11
-50.642071995
 21
-10.5655546652
  0
LWPOLYLINE
  5
4B3
100
AcDbEntity
  8
0
100
AcDbPolyline
 62
7
  6
CONTINUOUS
 90
10
 70
0
 10
-43.2725168398
 20
-4.3145507945
 10
-43.2927651089
 20
-4.3284144921
 10
-43.3117751416
 20
-4.3429272347
 10
-43.3295469379
 20
-4.3580890222
 10
-43.3459864515
 20
-4.3738249304
 10
-43.3611877286
 20
-4.3902098835
 10
-43.3754329085
 20
-4.4074686547
 10
-43.3888160377
 20
-4.4256761681
 10
-43.4012430698
 20
-4.4447574995
 10
-43.4127140047
 20
-4.4647126488
  0
LINE
  5
4B4
100
AcDbEntity
  8
0
100
AcDbLine
 62
7
  6
CONTINUOUS
 10
-50.5144124358
 20
-10.6072214113
 11
-50.4505825966
 21
-10.5655546652
  0
LWPOLYLINE
  5
4B5
100
AcDbEntity
  8
0
100
AcDbPolyline
 62
7
  6
CONTINUOUS
 90
10
 70
0
 10
-43.1876562188
 20
-4.463816255
 10
-43.1630128492
 20
-4.4477433196
 10
-43.1313844178
 20
-4.4330888572
 10
-43.0927709249
 20
-4.4198528678
 10
-43.047866215
 20
-4.4077990918
 10
-42.9959764435
 20
-4.3971637887
 10
-42.9350200759
 20
-4.388655737
 10
-42.8643032675
 20
-4.3825111961
 10
-42.7845198631
 20
-4.3784939065
 10
-42.6956698625
 20
-4.3766038681
  0
LWPOLYLINE
  5
4B6
100
AcDbEntity
  8
0
100
AcDbPolyline
 62
7
  6
CONTINUOUS
 90
10
 70
0
 10
-42.2035141575
 20
-4.8902464192
 10
-42.2281941115
 20
-4.9062115933
 10
-42.2598529196
 20
-4.9207387194
 10
-42.2984905817
 20
-4.9338277974
 10
-42.343410899
 20
-4.9456998784
 10
-42.3953100704
 20
-4.9561339114
 10
-42.4562766928
 20
-4.9644667437
 10
-42.527006965
 20
-4.9704773247
 10
-42.6068046883
 20
-4.9743867051
 10
-42.6956698625
 20
-4.9761948849
  0
LINE
  5
4B7
100
AcDbEntity
  8
ASSI
100
AcDbLine
 62
7
  6
CONTINUOUS
 10
-38.1808607747
 20
-2.2402594113
 11
-39.0228430064
 21
-2.6767000498
  0
LINE
  5
4B8
100
AcDbEntity
  8
ASSI
100
AcDbLine
 62
7
  6
CONTINUOUS
 10
-38.9735337747
 20
-3.1129644113
 11
-38.1808557747
 21
-2.7020784113
  0
LINE
  5
4B9
100
AcDbEntity
  8
ASSI
100
AcDbLine
 62
7
  6
CONTINUOUS
 10
-38.1808507747
 20
-4.1542264113
 11
-40.2309477747
 21
-4.8124454113
  0
LINE
  5
4BA
100
AcDbEntity
  8
ASSI
100
AcDbLine
 62
7
  6
CONTINUOUS
 10
-38.5840187747
 20
-4.6936834113
 11
-38.1808557747
 21
-4.5642464113
  0
LINE
  5
4BB
100
AcDbEntity
  8
ASSI
100
AcDbLine
 62
7
  6
CONTINUOUS
 10
-39.5924497747
 20
-5.0174654113
 11
-38.9735337747
 21
-4.8187544113
  0
LWPOLYLINE
  5
4BC
100
AcDbEntity
  8
0
100
AcDbPolyline
 62
7
  6
CONTINUOUS
 90
10
 70
0
 10
-43.0496944488
 20
-4.2210786713
 10
-43.0801629597
 20
-4.2295175846
 10
-43.1091405584
 20
-4.2384665352
 10
-43.136627245
 20
-4.2479255231
 10
-43.1625386258
 20
-4.2579256388
 10
-43.1869590944
 20
-4.2684357917
 10
-43.210141832
 20
-4.2793627109
 10
-43.2321712323
 20
-4.2906753059
 10
-43.2529629016
 20
-4.3024046671
 10
-43.2725168398
 20
-4.3145507945
  0
LWPOLYLINE
  5
4BD
100
AcDbEntity
  8
0
100
AcDbPolyline
 62
7
  6
CONTINUOUS
 90
29
 70
0
 10
-52.7535401207
 20
-7.1917791135
 10
-52.8197881763
 20
-7.2064516893
 10
-52.8824931543
 20
-7.2254365158
 10
-52.9401094611
 20
-7.2494869658
 10
-52.9922173366
 20
-7.2791708458
 10
-53.039236541
 20
-7.3139203495
 10
-53.0808807606
 20
-7.3527854302
 10
-53.1172739975
 20
-7.3958805806
 10
-53.1482922497
 20
-7.4430913081
 10
-53.1732771977
 20
-7.4931240888
 10
-53.192062907
 20
-7.546504571
 10
-53.2048153121
 20
-7.6027071064
 10
-53.2113738977
 20
-7.6588612264
 10
-53.2115480719
 20
-7.7148993096
 10
-53.2055284267
 20
-7.7708889773
 10
-53.1937262224
 20
-7.8241626244
 10
-53.1761799023
 20
-7.8740131402
 10
-53.152851023
 20
-7.9211476354
 10
-53.1240355154
 20
-7.965019837
 10
-53.0895463213
 20
-8.0060302913
 10
-53.0495704987
 20
-8.0437784519
 10
-53.0049651523
 20
-8.0765164067
 10
-52.9555690059
 20
-8.1039997566
 10
-52.9015433356
 20
-8.1264729007
 10
-52.8442290745
 20
-8.1429211237
 10
-52.7823453166
 20
-8.1529492902
 10
-52.7171729679
 20
-8.1569525356
 10
-52.6538956791
 20
-8.1551015512
 10
-52.5933526038
 20
-8.1472520005
  0
LINE
  5
4BE
100
AcDbEntity
  8
0
100
AcDbLine
 62
7
  6
CONTINUOUS
 10
-50.0463272958
 20
-5.0863883959
 11
-49.9399443298
 21
-5.0655544267
  0
LWPOLYLINE
  5
4BF
100
AcDbEntity
  8
0
100
AcDbPolyline
 62
7
  6
CONTINUOUS
 90
30
 70
0
 10
-52.1039327747
 20
-5.8274424113
 10
-52.048863415
 20
-5.8183092768
 10
-51.9966023808
 20
-5.8040650895
 10
-51.9471496719
 20
-5.7847098496
 10
-51.8998218212
 20
-5.7597883519
 10
-51.8553022958
 20
-5.7297558015
 10
-51.8156414977
 20
-5.6959778139
 10
-51.7815056108
 20
-5.6589360089
 10
-51.7522284512
 20
-5.6181487667
 10
-51.727861869
 20
-5.5735368425
 10
-51.7082205643
 20
-5.5245410118
 10
-51.6934898371
 20
-5.4717204991
 10
-51.6842774362
 20
-5.4166737337
 10
-51.6807214932
 20
-5.3585070167
 10
-51.6826838766
 20
-5.2981140468
 10
-51.6903579414
 20
-5.2397743504
 10
-51.7039957995
 20
-5.1844000294
 10
-51.723345339
 20
-5.1310789819
 10
-51.7478435801
 20
-5.0813544273
 10
-51.7780676656
 20
-5.0352148068
 10
-51.8134404526
 20
-4.9926716792
 10
-51.8516675328
 20
-4.9553029413
 10
-51.8923114311
 20
-4.9235363972
 10
-51.9358096226
 20
-4.8969442427
 10
-51.9811801246
 20
-4.8758209617
 10
-52.0289508744
 20
-4.860478276
 10
-52.0785939347
 20
-4.8506044637
 10
-52.1275435103
 20
-4.8455588434
 10
-52.1757006253
 20
-4.8453342367
 10
-52.2231642556
 20
-4.8499378219
  0
LWPOLYLINE
  5
4C0
100
AcDbEntity
  8
0
100
AcDbPolyline
 62
7
  6
CONTINUOUS
 90
10
 70
0
 10
-42.4644283979
 20
-5.3363583351
 10
-42.5140617816
 20
-5.3387056986
 10
-42.560716221
 20
-5.3442277241
 10
-42.6043917161
 20
-5.3529244116
 10
-42.6447097929
 20
-5.3647993571
 10
-42.6820489255
 20
-5.3798489645
 10
-42.7175445358
 20
-5.3980624462
 10
-42.7515750977
 20
-5.419436206
 10
-42.7837621372
 20
-5.4439738399
 10
-42.8141056545
 20
-5.471675348
  0
LWPOLYLINE
  5
4C1
100
AcDbEntity
  8
0
100
AcDbPolyline
 62
7
  6
CONTINUOUS
 90
10
 70
0
 10
-42.6956698625
 20
-5.16548517
 10
-42.5928490085
 20
-5.1623797286
 10
-42.4993032347
 20
-5.1556544188
 10
-42.4150325409
 20
-5.1453092405
 10
-42.3407271101
 20
-5.1309634914
 10
-42.2756967594
 20
-5.1129978738
 10
-42.2178709403
 20
-5.0925544951
 10
-42.1665594699
 20
-5.0700140576
 10
-42.1224525311
 20
-5.044995859
 10
-42.085550124
 20
-5.0174998992
  0
LINE
  5
4C2
100
AcDbEntity
  8
ASSI
100
AcDbLine
 62
7
  6
CONTINUOUS
 10
-38.1808507747
 20
-6.1540324113
 11
-40.2309427747
 21
-6.1540324113
  0
LINE
  5
4C3
100
AcDbEntity
  8
0
100
AcDbLine
 62
7
  6
CONTINUOUS
 10
-50.7059017747
 20
-6.0447214113
 11
-50.5995188086
 21
-6.0447214113
  0
LINE
  5
4C4
100
AcDbEntity
  8
0
100
AcDbLine
 62
7
  6
CONTINUOUS
 10
-51.7059017747
 20
-6.0264574113
 11
-51.8818737747
 21
-6.0264574113
  0
LINE
  5
4C5
100
AcDbEntity
  8
0
100
AcDbLine
 62
7
  6
CONTINUOUS
 10
-50.5995188086
 20
-5.711387919
 11
-49.7059017747
 21
-5.711387919
  0
LINE
  5
4C6
100
AcDbEntity
  8
0
100
AcDbLine
 62
7
  6
CONTINUOUS
 10
-49.7059017747
 20
-5.586387919
 11
-50.5995188086
 21
-5.586387919
  0
LINE
  5
4C7
100
AcDbEntity
  8
0
100
AcDbLine
 62
7
  6
CONTINUOUS
 10
-43.2594488292
 20
-5.4069583679
 11
-43.4354379504
 21
-5.4069583679
  0
LINE
  5
4C8
100
AcDbEntity
  8
0
100
AcDbLine
 62
7
  6
CONTINUOUS
 10
-50.5995188086
 20
-5.2530544267
 11
-50.7059017747
 21
-5.2530544267
  0
LINE
  5
4C9
100
AcDbEntity
  8
0
100
AcDbLine
 62
7
  6
CONTINUOUS
 10
-50.7059017747
 20
-5.0863883959
 11
-50.0463272958
 21
-5.0863883959
  0
LINE
  5
4CA
100
AcDbEntity
  8
0
100
AcDbLine
 62
7
  6
CONTINUOUS
 10
-50.0463272958
 20
-4.9613883959
 11
-50.7059017747
 21
-4.9613883959
  0
LINE
  5
4CB
100
AcDbEntity
  8
0
100
AcDbLine
 62
7
  6
CONTINUOUS
 10
-52.2338167747
 20
-4.7255254113
 11
-52.0641297747
 21
-4.7255254113
  0
LWPOLYLINE
  5
4CC
100
AcDbEntity
  8
0
100
AcDbPolyline
 62
7
  6
CONTINUOUS
 90
10
 70
0
 10
-42.6956698625
 20
-4.9761948849
 10
-42.7842296657
 20
-4.9742263182
 10
-42.8642506094
 20
-4.9699197555
 10
-42.9357326935
 20
-4.9632751967
 10
-42.9980599743
 20
-4.9540546379
 10
-43.0518483955
 20
-4.942496083
 10
-43.0989457889
 20
-4.9293135438
 10
-43.1399680982
 20
-4.9147450241
 10
-43.1742993796
 20
-4.8985525201
 10
-43.2019396331
 20
-4.8807360318
  0
LWPOLYLINE
  5
4CD
100
AcDbEntity
  8
0
100
AcDbPolyline
 62
7
  6
CONTINUOUS
 90
10
 70
0
 10
-42.4480573117
 20
-5.5317883755
 10
-42.4084619899
 20
-5.5335569572
 10
-42.3715657948
 20
-5.5375105624
 10
-42.3373687266
 20
-5.5436491908
 10
-42.3061327716
 20
-5.5520745577
 10
-42.2775959434
 20
-5.562684948
 10
-42.2509722825
 20
-5.5751752165
 10
-42.2259998022
 20
-5.589443648
 10
-42.2029404891
 20
-5.6055919578
 10
-42.1817943431
 20
-5.6236201457
  0
LINE
  5
4CE
100
AcDbEntity
  8
0
100
AcDbLine
 62
7
  6
CONTINUOUS
 10
-52.579475054
 20
-5.4433553758
 11
-52.4181677589
 21
-5.4638464133
  0
LINE
  5
4CF
100
AcDbEntity
  8
0
100
AcDbLine
 62
7
  6
CONTINUOUS
 10
-43.4354379504
 20
-6.1528656746
 11
-42.6649740814
 21
-6.2981591488
  0
LINE
  5
4D0
100
AcDbEntity
  8
0
100
AcDbLine
 62
7
  6
CONTINUOUS
 10
-49.9399443298
 20
-4.3572214113
 11
-50.0463272958
 21
-4.3363883959
  0
LINE
  5
4D1
100
AcDbEntity
  8
0
100
AcDbLine
 62
7
  6
CONTINUOUS
 10
-42.8563110261
 20
-6.0863583351
 11
-43.2594488292
 21
-6.0055262114
  0
LINE
  5
4D2
100
AcDbEntity
  8
0
100
AcDbLine
 62
7
  6
CONTINUOUS
 10
-50.0463272958
 20
-4.4613883959
 11
-49.961220923
 21
-4.4822214113
  0
LINE
  5
4D3
100
AcDbEntity
  8
ASSI
100
AcDbLine
 62
7
  6
CONTINUOUS
 10
-40.2309427747
 20
-6.7738654113
 11
-38.8958497747
 21
-7.1566974113
  0
LWPOLYLINE
  5
4D4
100
AcDbEntity
  8
0
100
AcDbPolyline
 62
7
  6
CONTINUOUS
 90
10
 70
0
 10
-42.0841149205
 20
-7.4991718479
 10
-42.069855955
 20
-7.50417136
 10
-42.0556132428
 20
-7.5084878833
 10
-42.0413867837
 20
-7.5121214178
 10
-42.0271938953
 20
-7.5150619213
 10
-42.0130172602
 20
-7.517319436
 10
-41.9988049257
 20
-7.5189240882
 10
-41.9845395746
 20
-7.5198859199
 10
-41.9702385243
 20
-7.5201948891
 10
-41.9559017747
 20
-7.5198509957
  0
LWPOLYLINE
  5
4D5
100
AcDbEntity
  8
0
100
AcDbPolyline
 62
7
  6
CONTINUOUS
 90
10
 70
0
 10
-42.8685108804
 20
-6.5670747741
 10
-42.8881638106
 20
-6.5592638398
 10
-42.9078040935
 20
-6.5524005595
 10
-42.9274317291
 20
-6.5464849333
 10
-42.9470219131
 20
-6.5415342992
 10
-42.9665994499
 20
-6.5375313191
 10
-42.9862387525
 20
-6.5344239793
 10
-43.0059646254
 20
-6.5321949416
 10
-43.0257522642
 20
-6.5308615441
 10
-43.0456016689
 20
-6.5304237868
  0
LINE
  5
4D6
100
AcDbEntity
  8
0
100
AcDbLine
 62
7
  6
CONTINUOUS
 10
-49.854837942
 20
-4.3988883959
 11
-49.9399443298
 21
-4.3572214113
  0
LINE
  5
4D7
100
AcDbEntity
  8
0
100
AcDbLine
 62
7
  6
CONTINUOUS
 10
-49.961220923
 20
-4.4822214113
 11
-49.8973911433
 21
-4.5238883959
  0
LWPOLYLINE
  5
4D8
100
AcDbEntity
  8
0
100
AcDbPolyline
 62
7
  6
CONTINUOUS
 90
10
 70
0
 10
-42.1759170382
 20
-9.9315478458
 10
-42.1553052244
 20
-9.9517192522
 10
-42.1373464385
 20
-9.9722580402
 10
-42.1220406807
 20
-9.9931642096
 10
-42.1095422209
 20
-10.0142249926
 10
-42.0996967891
 20
-10.0356531571
 10
-42.0920415752
 20
-10.0580870068
 10
-42.0864223091
 20
-10.0817393097
 10
-42.0829932608
 20
-10.1063972979
 10
-42.0817544303
 20
-10.1320609714
  0
LINE
  5
4D9
100
AcDbEntity
  8
0
100
AcDbLine
 62
7
  6
CONTINUOUS
 10
-50.642071995
 20
-2.7113883959
 11
-50.5569656222
 21
-2.7947214113
  0
LINE
  5
4DA
100
AcDbEntity
  8
0
100
AcDbLine
 62
7
  6
CONTINUOUS
 10
-49.7697315617
 20
-2.2322214113
 11
-49.854837942
 21
-2.1488883959
  0
LWPOLYLINE
  5
4DB
100
AcDbEntity
  8
0
100
AcDbPolyline
 62
7
  6
CONTINUOUS
 90
10
 70
0
 10
-42.676484301
 20
-10.3512872053
 10
-42.6956616047
 20
-10.3307554669
 10
-42.7124707491
 20
-10.3096214805
 10
-42.726911734
 20
-10.2878852462
 10
-42.7388940458
 20
-10.26575407
 10
-42.7485081982
 20
-10.2430206458
 10
-42.7560257321
 20
-10.219063055
 10
-42.7615371611
 20
-10.1936739912
 10
-42.7649519716
 20
-10.1670607607
 10
-42.7662701636
 20
-10.1392233635
  0
LWPOLYLINE
  5
4DC
100
AcDbEntity
  8
0
100
AcDbPolyline
 62
7
  6
CONTINUOUS
 90
10
 70
0
 10
-43.2616141019
 20
-10.2774424541
 10
-43.2717715683
 20
-10.2626594177
 10
-43.2807459796
 20
-10.2473720993
 10
-43.2885373356
 20
-10.231580499
 10
-43.2951394452
 20
-10.2154101258
 10
-43.3005584995
 20
-10.1987354707
 10
-43.3048130727
 20
-10.1811800065
 10
-43.3079093561
 20
-10.1626182243
 10
-43.3098411583
 20
-10.1431756329
 10
-43.3106084793
 20
-10.1228522326
  0
LINE
  5
4DD
100
AcDbEntity
  8
0
100
AcDbLine
 62
7
  6
CONTINUOUS
 10
-49.8973911433
 20
-2.2738883959
 11
-49.854837942
 21
-2.3363883959
  0
LWPOLYLINE
  5
4DE
100
AcDbEntity
  8
0
100
AcDbPolyline
 62
7
  6
CONTINUOUS
 90
10
 70
0
 10
-43.0022484129
 20
-11.4722194985
 10
-43.0170529156
 20
-11.447787707
 10
-43.031683856
 20
-11.4246361232
 10
-43.0461412339
 20
-11.4027647471
 10
-43.0604153194
 20
-11.3822085348
 10
-43.0745158425
 20
-11.3629325303
 10
-43.0884719933
 20
-11.3448318647
 10
-43.1022935019
 20
-11.3278715819
 10
-43.1159706381
 20
-11.3120866381
 10
-43.129503402
 20
-11.2974770333
  0
LINE
  5
4DF
100
AcDbEntity
  8
RACCORDO
100
AcDbLine
 62
250
  6
CONTINUOUS
 10
-38.8594584619
 20
-25.8505909819
 11
-38.9873780278
 21
-25.5464394381
  0
LINE
  5
4E0
100
AcDbEntity
  8
RACCORDO
100
AcDbLine
 62
250
  6
CONTINUOUS
 10
-51.4759017746
 20
6.2575155805
 11
-51.9196155284
 21
7.3970862093
  0
LINE
  5
4E1
100
AcDbEntity
  8
RACCORDO
100
AcDbLine
 62
250
  6
CONTINUOUS
 10
-54.4525574482
 20
14.5868485023
 11
-54.4279030784
 21
14.5209670604
  0
LINE
  5
4E2
100
AcDbEntity
  8
RACCORDO
100
AcDbLine
 62
250
  6
CONTINUOUS
 10
-54.7805923949
 20
14.4641738119
 11
-54.7562763728
 21
14.3979953045
  0
LINE
  5
4E3
100
AcDbEntity
  8
RACCORDO
100
AcDbLine
 62
7
  6
CONTINUOUS
 10
-50.4226649937
 20
15.0463490904
 11
-50.2967114024
 21
14.3745966034
  0
LINE
  5
4E4
100
AcDbEntity
  8
RACCORDO
100
AcDbLine
 62
7
  6
CONTINUOUS
 10
-44.5087315286
 20
-29.5400625338
 11
-44.5420927757
 21
-28.5847214113
  0
LWPOLYLINE
  5
4E5
100
AcDbEntity
  8
RACCORDO
100
AcDbPolyline
 62
7
  6
CONTINUOUS
 90
13
 70
0
 10
-44.3059017747
 20
-28.0062608312
 10
-44.30624788
 20
-27.9799334816
 10
-44.3071697668
 20
-27.9548060222
 10
-44.3086674353
 20
-27.930878453
 10
-44.3107859777
 20
-27.9077746169
 10
-44.3134803018
 20
-27.885870671
 10
-44.31661513
 20
-27.8662950858
 10
-44.3202067339
 20
-27.8491907872
 10
-44.324238842
 20
-27.8344148492
 10
-44.3285273627
 20
-27.8226669647
 10
-44.3330109323
 20
-27.8141803646
 10
-44.3377509145
 20
-27.808721818
 10
-44.3427473094
 20
-27.8062913249
  0
LINE
  5
4E6
100
AcDbEntity
  8
0
100
AcDbLine
 62
7
  6
CONTINUOUS
 10
-45.1559017747
 20
-20.3327302201
 11
-45.1559017747
 21
-20.157769035
  0
LINE
  5
4E7
100
AcDbEntity
  8
0
100
AcDbLine
 62
7
  6
CONTINUOUS
 10
-45.1559017747
 20
6.9383262124
 11
-45.1559017747
 21
7.1132873975
  0
LINE
  5
4E8
100
AcDbEntity
  8
ASSI
100
AcDbLine
 62
250
  6
CONTINUOUS
 10
-44.9651003447
 20
-20.0097214113
 11
-44.9651003447
 21
-20.0797516687
  0
LINE
  5
4E9
100
AcDbEntity
  8
ASSI
100
AcDbLine
 62
250
  6
CONTINUOUS
 10
-44.9651003447
 20
6.7902785887
 11
-44.9651003447
 21
6.8603990316
  0
LINE
  5
4EA
100
AcDbEntity
  8
SMUSSO
100
AcDbLine
 62
7
  6
CONTINUOUS
 10
-44.9559017747
 20
-24.5097214113
 11
-44.9559017747
 21
-25.2949479487
  0
LINE
  5
4EB
100
AcDbEntity
  8
SMUSSO
100
AcDbLine
 62
7
  6
CONTINUOUS
 10
-44.9559017747
 20
11.2902785887
 11
-44.9559017747
 21
12.0755051261
  0
LINE
  5
4EC
100
AcDbEntity
  8
TRASH
100
AcDbLine
 62
7
  6
CONTINUOUS
 10
-44.6059017747
 20
15.5902785887
 11
-44.6059017747
 21
14.5623504848
  0
LINE
  5
4ED
100
AcDbEntity
  8
TRASH
100
AcDbLine
 62
7
  6
CONTINUOUS
 10
-44.6059017747
 20
-28.8097214113
 11
-44.6059017747
 21
-27.7817933074
  0
LINE
  5
4EE
100
AcDbEntity
  8
DRAFT
100
AcDbLine
 62
7
  6
CONTINUOUS
 10
-44.5420927757
 20
15.3652785887
 11
-44.5420927757
 21
14.5808437797
  0
LINE
  5
4EF
100
AcDbEntity
  8
DRAFT
100
AcDbLine
 62
7
  6
CONTINUOUS
 10
-44.5420927757
 20
-27.8002866023
 11
-44.5420927757
 21
-28.5847214113
  0
LINE
  5
4F0
100
AcDbEntity
  8
RACCORDO
100
AcDbLine
 62
7
  6
CONTINUOUS
 10
-44.4792353906
 20
16.3127162448
 11
-44.4792353906
 21
15.9003349252
  0
LINE
  5
4F1
100
AcDbEntity
  8
RACCORDO
100
AcDbLine
 62
7
  6
CONTINUOUS
 10
-44.4792353906
 20
-29.5321590674
 11
-44.4792353906
 21
-29.1197777478
  0
LINE
  5
4F2
100
AcDbEntity
  8
ASSI
100
AcDbLine
 62
7
  6
CONTINUOUS
 10
-44.4757433136
 20
-28.5488141665
 11
-44.4757433136
 21
-27.9706286561
  0
LINE
  5
4F3
100
AcDbEntity
  8
ASSI
100
AcDbLine
 62
7
  6
CONTINUOUS
 10
-44.4757433136
 20
14.7511858335
 11
-44.4757433136
 21
15.3293713439
  0
LINE
  5
4F4
100
AcDbEntity
  8
RACCORDO
100
AcDbLine
 62
7
  6
CONTINUOUS
 10
-44.4559017747
 20
-25.7023599521
 11
-44.4559017747
 21
-25.7948717962
  0
LINE
  5
4F5
100
AcDbEntity
  8
RACCORDO
100
AcDbLine
 62
7
  6
CONTINUOUS
 10
-44.4559017747
 20
12.4829171295
 11
-44.4559017747
 21
12.5754289736
  0
LINE
  5
4F6
100
AcDbEntity
  8
ASSI
100
AcDbLine
 62
7
  6
CONTINUOUS
 10
-44.4059017747
 20
-29.0097214113
 11
-44.4059017747
 21
-28.5195290324
  0
LINE
  5
4F7
100
AcDbEntity
  8
DRAFT
100
AcDbLine
 62
7
  6
CONTINUOUS
 10
-44.4059017747
 20
-27.9999137902
 11
-44.4059017747
 21
-27.8002866023
  0
LINE
  5
4F8
100
AcDbEntity
  8
DRAFT
100
AcDbLine
 62
7
  6
CONTINUOUS
 10
-44.4059017747
 20
14.5808437797
 11
-44.4059017747
 21
14.7804709676
  0
LINE
  5
4F9
100
AcDbEntity
  8
ASSI
100
AcDbLine
 62
7
  6
CONTINUOUS
 10
-44.4059017747
 20
15.3000862098
 11
-44.4059017747
 21
15.7902785887
  0
LINE
  5
4FA
100
AcDbEntity
  8
TRASH
100
AcDbLine
 62
7
  6
CONTINUOUS
 10
-44.342557411
 20
16.8571139653
 11
-44.342557411
 21
15.8902785887
  0
LINE
  5
4FB
100
AcDbEntity
  8
TRASH
100
AcDbLine
 62
7
  6
CONTINUOUS
 10
-44.342557411
 20
-30.0765567879
 11
-44.342557411
 21
-29.1097214113
  0
LINE
  5
4FC
100
AcDbEntity
  8
RACCORDO
100
AcDbLine
 62
7
  6
CONTINUOUS
 10
-44.3059017747
 20
-28.0062608475
 11
-44.3059017747
 21
-28.939451141
  0
LINE
  5
4FD
100
AcDbEntity
  8
TRASH
100
AcDbLine
 62
7
  6
CONTINUOUS
 10
-44.3059017747
 20
-28.939451141
 11
-44.3059017747
 21
-30.0399011516
  0
LINE
  5
4FE
100
AcDbEntity
  8
RACCORDO
100
AcDbLine
 62
7
  6
CONTINUOUS
 10
-44.3059017747
 20
14.786818025
 11
-44.3059017747
 21
15.7200083184
  0
LINE
  5
4FF
100
AcDbEntity
  8
TRASH
100
AcDbLine
 62
7
  6
CONTINUOUS
 10
-44.3059017747
 20
15.7200083184
 11
-44.3059017747
 21
16.820458329
  0
LINE
  5
500
100
AcDbEntity
  8
0
100
AcDbLine
 62
7
  6
CONTINUOUS
 10
-44.2059017747
 20
6.613630418
 11
-44.2059017747
 21
5.5902785887
  0
LINE
  5
501
100
AcDbEntity
  8
0
100
AcDbLine
 62
7
  6
CONTINUOUS
 10
-44.2059017747
 20
-18.8097214113
 11
-44.2059017747
 21
-19.8330732406
  0
LINE
  5
502
100
AcDbEntity
  8
RACCORDO
100
AcDbLine
 62
7
  6
CONTINUOUS
 10
-44.5420927757
 20
15.3652785887
 11
-44.5087315286
 21
16.3206197112
  0
LWPOLYLINE
  5
503
100
AcDbEntity
  8
0
100
AcDbPolyline
 62
7
  6
CONTINUOUS
 90
10
 70
0
 10
-42.839939943
 20
-2.186972179
 10
-42.8439555418
 20
-2.2026271799
 10
-42.8474661232
 20
-2.2179442388
 10
-42.8504716872
 20
-2.2329233556
 10
-42.8529552797
 20
-2.2475573867
 10
-42.8549338548
 20
-2.2618534757
 10
-42.8564582743
 20
-2.2758330538
 10
-42.8575454924
 20
-2.2895032646
 10
-42.8581785551
 20
-2.3028569644
 10
-42.8583574622
 20
-2.3158941532
  0
LWPOLYLINE
  5
504
100
AcDbEntity
  8
0
100
AcDbPolyline
 62
7
  6
CONTINUOUS
 90
9
 70
0
 10
-42.7304583817
 20
-1.8892233635
 10
-42.7326078813
 20
-1.8971409005
 10
-42.7352738027
 20
-1.9060065288
 10
-42.738456146
 20
-1.9158202487
 10
-42.7421390517
 20
-1.9265740782
 10
-42.7463383792
 20
-1.9382759992
 10
-42.7511017068
 20
-1.950949957
 10
-42.7564448938
 20
-1.9646039332
 10
-42.7623520809
 20
-1.9792299462
  0
LWPOLYLINE
  5
505
100
AcDbEntity
  8
RACCORDO
100
AcDbPolyline
 62
7
  6
CONTINUOUS
 90
9
 70
0
 10
-51.0875647074
 20
-27.8344148492
 10
-51.0915968154
 20
-27.8491907872
 10
-51.0951884193
 20
-27.8662950858
 10
-51.0983232475
 20
-27.885870671
 10
-51.1010175716
 20
-27.9077746169
 10
-51.103136114
 20
-27.930878453
 10
-51.1046337825
 20
-27.9548060222
 10
-51.1055556694
 20
-27.9799334816
 10
-51.1059017747
 20
-28.0062608312
  0
LINE
  5
506
100
AcDbEntity
  8
TRASH
100
AcDbLine
 62
250
  6
CONTINUOUS
 10
-51.9130288104
 20
-29.8728287731
 11
-51.9334444444
 21
-29.9430810688
  0
LINE
  5
507
100
AcDbEntity
  8
TRASH
100
AcDbLine
 62
250
  6
CONTINUOUS
 10
-51.3596928496
 20
-30.0399011516
 11
-51.3807592528
 21
-30.1097214113
  0
LINE
  5
508
100
AcDbEntity
  8
DRAFT
100
AcDbLine
 62
7
  6
CONTINUOUS
 10
-38.1920512811
 20
13.8814979103
 11
-38.0559017747
 21
14.2902785887
  0
LWPOLYLINE
  5
509
100
AcDbEntity
  8
0
100
AcDbPolyline
 62
7
  6
CONTINUOUS
 90
10
 70
0
 10
-42.7623520809
 20
-1.9792299462
 10
-42.7799980223
 20
-2.0215671104
 10
-42.7903687283
 20
-2.04698963
 10
-42.799935386
 20
-2.0710955549
 10
-42.8087168981
 20
-2.0939260122
 10
-42.8166943619
 20
-2.1154398746
 10
-42.8238110691
 20
-2.1355137607
 10
-42.8300481169
 20
-2.1541065432
 10
-42.8354244082
 20
-2.1712593493
 10
-42.839939943
 20
-2.186972179
  0
LWPOLYLINE
  5
50A
100
AcDbEntity
  8
0
100
AcDbPolyline
 62
7
  6
CONTINUOUS
 90
10
 70
0
 10
-42.6103198651
 20
-2.1319124171
 10
-42.5981884956
 20
-2.1044484179
 10
-42.5872214907
 20
-2.0789776187
 10
-42.5774188504
 20
-2.0555000194
 10
-42.5688302462
 20
-2.0340768952
 10
-42.5614060066
 20
-2.0146469709
 10
-42.5549971174
 20
-1.9970264213
 10
-42.5495539071
 20
-1.9811539711
 10
-42.5451260472
 20
-1.9670908955
 10
-42.5417135377
 20
-1.9548371945
  0
LWPOLYLINE
  5
50B
100
AcDbEntity
  8
0
100
AcDbPolyline
 62
7
  6
CONTINUOUS
 90
10
 70
0
 10
-43.4127140047
 20
-4.4647126488
 10
-43.4225420688
 20
-4.4840965028
 10
-43.4313200977
 20
-4.5044431062
 10
-43.4390480913
 20
-4.525752459
 10
-43.4457750986
 20
-4.5479292759
 10
-43.4514520707
 20
-4.5710688422
 10
-43.4559318609
 20
-4.595457014
 10
-43.4591654203
 20
-4.6211890767
 10
-43.4612017978
 20
-4.648169745
 10
-43.4620409935
 20
-4.6763990189
  0
LWPOLYLINE
  5
50C
100
AcDbEntity
  8
0
100
AcDbPolyline
 62
7
  6
CONTINUOUS
 90
10
 70
0
 10
-39.1154711401
 20
3.9005870965
 10
-39.125427197
 20
3.8837782428
 10
-39.1369172944
 20
3.8675412222
 10
-39.1499414321
 20
3.8518760347
 10
-39.1646012539
 20
3.8367513891
 10
-39.1807951161
 20
3.8221985765
 10
-39.1982180881
 20
3.8083114712
 10
-39.2167685267
 20
3.7951213644
 10
-39.2365480751
 20
3.7825969649
 10
-39.2575567334
 20
3.7707382725
  0
LWPOLYLINE
  5
50D
100
AcDbEntity
  8
0
100
AcDbPolyline
 62
7
  6
CONTINUOUS
 90
10
 70
0
 10
-43.3423275018
 20
-6.6562765028
 10
-43.3656576338
 20
-6.6826364373
 10
-43.3865926667
 20
-6.7116297992
 10
-43.4051326004
 20
-6.7432565885
 10
-43.4214268471
 20
-6.7771574242
 10
-43.4353259946
 20
-6.8136916873
 10
-43.4463818067
 20
-6.8539375204
 10
-43.4544448711
 20
-6.8982543045
 10
-43.4596646
 20
-6.9462826586
 10
-43.4620409935
 20
-6.9980225827
  0
LWPOLYLINE
  5
50E
100
AcDbEntity
  8
0
100
AcDbPolyline
 62
7
  6
CONTINUOUS
 90
10
 70
0
 10
-42.8141056545
 20
-5.471675348
 10
-42.8429725604
 20
-5.5031598551
 10
-42.8683274115
 20
-5.5357222563
 10
-42.8901702076
 20
-5.5693625517
 10
-42.9083909144
 20
-5.6037439317
 10
-42.9230995662
 20
-5.6392032059
 10
-42.9346262665
 20
-5.6767508027
 10
-42.9430810495
 20
-5.7167235317
 10
-42.948353881
 20
-5.7587845834
 10
-42.9504447608
 20
-5.8029339577
  0
LWPOLYLINE
  5
50F
100
AcDbEntity
  8
0
100
AcDbPolyline
 62
7
  6
CONTINUOUS
 90
10
 70
0
 10
-42.152354796
 20
-6.0382683847
 10
-42.1668515658
 20
-6.0533621811
 10
-42.1835264791
 20
-6.0675147171
 10
-42.2023795359
 20
-6.0807259927
 10
-42.223264817
 20
-6.0930963452
 10
-42.2463282416
 20
-6.1045254373
 10
-42.2720075672
 20
-6.1147122575
 10
-42.3004487129
 20
-6.1235564685
 10
-42.3315057595
 20
-6.1311584076
 10
-42.3651787071
 20
-6.1375180746
  0
LWPOLYLINE
  5
510
100
AcDbEntity
  8
0
100
AcDbPolyline
 62
7
  6
CONTINUOUS
 90
10
 70
0
 10
-43.2338690256
 20
-6.7985002289
 10
-43.2160696581
 20
-6.7816569395
 10
-43.1977428178
 20
-6.7668975823
 10
-43.1788885048
 20
-6.7542221573
 10
-43.1596915801
 20
-6.7437128033
 10
-43.1399671826
 20
-6.7352873816
 10
-43.1191607294
 20
-6.728699475
 10
-43.0970873592
 20
-6.7238669447
 10
-43.0739319333
 20
-6.7208719295
 10
-43.0496944516
 20
-6.7197144295
  0
LWPOLYLINE
  5
511
100
AcDbEntity
  8
0
100
AcDbPolyline
 62
7
  6
CONTINUOUS
 90
10
 70
0
 10
-42.6964441401
 20
-5.6210619324
 10
-42.6769832891
 20
-5.6034669644
 10
-42.6556878494
 20
-5.5877243728
 10
-42.6325578211
 20
-5.5738341573
 10
-42.6078596476
 20
-5.5617075919
 10
-42.5813268855
 20
-5.5514334028
 10
-42.5521602039
 20
-5.5432777687
 10
-42.5200931593
 20
-5.5373294159
 10
-42.4853921952
 20
-5.5334996182
 10
-42.4480573117
 20
-5.5317883755
  0
LWPOLYLINE
  5
512
100
AcDbEntity
  8
0
100
AcDbPolyline
 62
7
  6
CONTINUOUS
 90
10
 70
0
 10
-42.085550124
 20
-5.0174998992
 10
-42.0533022372
 20
-4.9892390068
 10
-42.0248576975
 20
-4.9589175023
 10
-42.0002165049
 20
-4.9265353857
 10
-41.9794496843
 20
-4.8925582427
 10
-41.9624862108
 20
-4.8565204875
 10
-41.9491130097
 20
-4.8170253632
 10
-41.9392590562
 20
-4.7736072842
 10
-41.9329953751
 20
-4.7267318361
 10
-41.9303219664
 20
-4.6763990189
  0
LINE
  5
513
100
AcDbEntity
  8
0
100
AcDbLine
 62
7
  6
CONTINUOUS
 10
-50.4718592494
 20
-10.4405546652
 11
-50.5569656222
 21
-10.4822214113
  0
LINE
  5
514
100
AcDbEntity
  8
0
100
AcDbLine
 62
7
  6
CONTINUOUS
 10
-41.9559017747
 20
-8.16241565
 11
-43.4559017747
 21
-8.7763310934
  0
LWPOLYLINE
  5
515
100
AcDbEntity
  8
0
100
AcDbPolyline
 62
7
  6
CONTINUOUS
 90
10
 70
0
 10
-43.2983301311
 20
-8.8878591324
 10
-43.2699132741
 20
-8.8796909972
 10
-43.2399713145
 20
-8.8705899957
 10
-43.2085042523
 20
-8.860556128
 10
-43.1755267172
 20
-8.849564052
 10
-43.1410240795
 20
-8.8376391098
 10
-43.1049524495
 20
-8.8248573269
 10
-43.0672971973
 20
-8.8112440453
 10
-43.0280729528
 20
-8.796773923
 10
-42.5718635647
 20
-8.6248985792
  0
LINE
  5
516
100
AcDbEntity
  8
ASSI
100
AcDbLine
 62
7
  6
CONTINUOUS
 10
-38.8958497747
 20
-7.1566974113
 11
-40.2309427747
 21
-7.5395294113
  0
LINE
  5
517
100
AcDbEntity
  8
ASSI
100
AcDbLine
 62
7
  6
CONTINUOUS
 10
-39.5327487747
 20
-7.7493474113
 11
-38.1808507747
 21
-7.3617024113
  0
LINE
  5
518
100
AcDbEntity
  8
0
100
AcDbLine
 62
7
  6
CONTINUOUS
 10
-49.961220923
 20
-4.9405544267
 11
-50.0463272958
 21
-4.9613883959
  0
LWPOLYLINE
  5
519
100
AcDbEntity
  8
0
100
AcDbPolyline
 62
7
  6
CONTINUOUS
 90
11
 70
0
 10
-52.2231642556
 20
-4.8499378219
 10
-52.2676655345
 20
-4.8587504529
 10
-52.3084527427
 20
-4.8714784971
 10
-52.3462775995
 20
-4.8884155871
 10
-52.3811263964
 20
-4.9098234735
 10
-52.4132698623
 20
-4.9360776649
 10
-52.4424372683
 20
-4.9668026527
 10
-52.4678027187
 20
-5.0011336622
 10
-52.4890909149
 20
-5.0387824349
 10
-52.5065771554
 20
-5.0800372292
 10
-52.5202614403
 20
-5.1248980451
  0
LWPOLYLINE
  5
51A
100
AcDbEntity
  8
0
100
AcDbPolyline
 62
7
  6
CONTINUOUS
 90
10
 70
0
 10
-42.6956698625
 20
-4.187313583
 10
-42.7469400175
 20
-4.1878613688
 10
-42.7951298271
 20
-4.1892405931
 10
-42.8402392912
 20
-4.1914512562
 10
-42.8821393125
 20
-4.1945339791
 10
-42.9209589885
 20
-4.1984481406
 10
-42.9570856109
 20
-4.203071877
 10
-42.9906482771
 20
-4.208364567
 10
-43.0215178897
 20
-4.2143668318
 10
-43.0496944488
 20
-4.2210786713
  0
LINE
  5
51B
100
AcDbEntity
  8
0
100
AcDbLine
 62
7
  6
CONTINUOUS
 10
-56.1059127747
 20
-4.6092774113
 11
-54.3059017747
 21
-4.6092774113
  0
LINE
  5
51C
100
AcDbEntity
  8
0
100
AcDbLine
 62
7
  6
CONTINUOUS
 10
-50.7059017747
 20
-4.4613883959
 11
-50.0463272958
 21
-4.4613883959
  0
LINE
  5
51D
100
AcDbEntity
  8
0
100
AcDbLine
 62
7
  6
CONTINUOUS
 10
-54.5075807747
 20
-4.3697844113
 11
-55.1302617747
 21
-4.3697844113
  0
LINE
  5
51E
100
AcDbEntity
  8
0
100
AcDbLine
 62
7
  6
CONTINUOUS
 10
-55.3319587747
 20
-4.3697844113
 11
-55.9042337747
 21
-4.3697844113
  0
LINE
  5
51F
100
AcDbEntity
  8
0
100
AcDbLine
 62
7
  6
CONTINUOUS
 10
-50.0463272958
 20
-4.3363883959
 11
-50.7059017747
 21
-4.3363883959
  0
LINE
  5
520
100
AcDbEntity
  8
0
100
AcDbLine
 62
7
  6
CONTINUOUS
 10
-50.7059017747
 20
-4.1697214113
 11
-49.7059017747
 21
-4.1697214113
  0
LINE
  5
521
100
AcDbEntity
  8
0
100
AcDbLine
 62
7
  6
CONTINUOUS
 10
-52.9086037747
 20
-4.0740114113
 11
-52.2338167747
 21
-4.0740114113
  0
LINE
  5
522
100
AcDbEntity
  8
0
100
AcDbLine
 62
7
  6
CONTINUOUS
 10
-52.0641297747
 20
-4.0740114113
 11
-51.7059017747
 21
-4.0740114113
  0
LINE
  5
523
100
AcDbEntity
  8
0
100
AcDbLine
 62
7
  6
CONTINUOUS
 10
-49.7059017747
 20
-4.0447214113
 11
-50.5782422154
 21
-4.0447214113
  0
LINE
  5
524
100
AcDbEntity
  8
0
100
AcDbLine
 62
7
  6
CONTINUOUS
 10
-51.7059017747
 20
-3.8896594113
 11
-52.0641297747
 21
-3.8896594113
  0
LINE
  5
525
100
AcDbEntity
  8
0
100
AcDbLine
 62
7
  6
CONTINUOUS
 10
-52.2338167747
 20
-3.8896594113
 11
-53.2058497747
 21
-3.8896594113
  0
LINE
  5
526
100
AcDbEntity
  8
ASSI
100
AcDbLine
 62
7
  6
CONTINUOUS
 10
-40.2309477747
 20
-3.8808844113
 11
-38.1808557747
 21
-3.8808844113
  0
LINE
  5
527
100
AcDbEntity
  8
0
100
AcDbLine
 62
7
  6
CONTINUOUS
 10
-52.0641297747
 20
-3.6864544113
 11
-52.2338167747
 21
-3.6864544113
  0
LINE
  5
528
100
AcDbEntity
  8
ASSI
100
AcDbLine
 62
7
  6
CONTINUOUS
 10
-39.3528047747
 20
-3.4765164113
 11
-39.8516827747
 21
-3.4765214113
  0
LINE
  5
529
100
AcDbEntity
  8
0
100
AcDbLine
 62
7
  6
CONTINUOUS
 10
-50.7059017747
 20
-3.4613883959
 11
-49.854837942
 21
-3.4613883959
  0
LINE
  5
52A
100
AcDbEntity
  8
0
100
AcDbLine
 62
7
  6
CONTINUOUS
 10
-55.1302617747
 20
-3.4344394113
 11
-55.3319587747
 21
-3.4344394113
  0
LINE
  5
52B
100
AcDbEntity
  8
0
100
AcDbLine
 62
7
  6
CONTINUOUS
 10
-55.9042337747
 20
-3.3664224113
 11
-56.1059127747
 21
-3.3664224113
  0
LINE
  5
52C
100
AcDbEntity
  8
0
100
AcDbLine
 62
7
  6
CONTINUOUS
 10
-54.3059017747
 20
-3.3588294113
 11
-54.5075807747
 21
-3.3588294113
  0
LINE
  5
52D
100
AcDbEntity
  8
0
100
AcDbLine
 62
7
  6
CONTINUOUS
 10
-49.7059017747
 20
-3.3363883959
 11
-50.7059017747
 21
-3.3363883959
  0
LINE
  5
52E
100
AcDbEntity
  8
0
100
AcDbLine
 62
7
  6
CONTINUOUS
 10
-50.7059017747
 20
-3.1697214113
 11
-49.7059017747
 21
-3.1697214113
  0
LINE
  5
52F
100
AcDbEntity
  8
0
100
AcDbLine
 62
7
  6
CONTINUOUS
 10
-49.7059017747
 20
-3.0447214113
 11
-50.7059017747
 21
-3.0447214113
  0
LINE
  5
530
100
AcDbEntity
  8
ASSI
100
AcDbLine
 62
7
  6
CONTINUOUS
 10
-38.1808557747
 20
-3.4708634113
 11
-38.9735397747
 21
-3.4708174113
  0
LWPOLYLINE
  5
531
100
AcDbEntity
  8
0
100
AcDbPolyline
 62
7
  6
CONTINUOUS
 90
10
 70
0
 10
-42.6956698625
 20
-4.3766038681
 10
-42.6071786421
 20
-4.378492752
 10
-42.5276767583
 20
-4.3825026199
 10
-42.4571642112
 20
-4.3886334716
 10
-42.3963198025
 20
-4.3971217553
 10
-42.3444647305
 20
-4.4077310229
 10
-42.2995625901
 20
-4.4197519306
 10
-42.2609345795
 20
-4.4329480302
 10
-42.2292595006
 20
-4.4475557698
 10
-42.2045373532
 20
-4.4635751495
  0
LINE
  5
532
100
AcDbEntity
  8
0
100
AcDbLine
 62
7
  6
CONTINUOUS
 10
-50.5569656222
 20
-2.7947214113
 11
-50.4718592494
 21
-2.8155544267
  0
LINE
  5
533
100
AcDbEntity
  8
ASSI
100
AcDbLine
 62
7
  6
CONTINUOUS
 10
-38.1808557747
 20
-6.9516974113
 11
-39.5327487747
 21
-6.5640524113
  0
LWPOLYLINE
  5
534
100
AcDbEntity
  8
0
100
AcDbPolyline
 62
7
  6
CONTINUOUS
 90
10
 70
0
 10
-43.123364268
 20
-5.1112558969
 10
-43.0893386892
 20
-5.122044308
 10
-43.0520660277
 20
-5.1316912845
 10
-43.0115462835
 20
-5.1401968266
 10
-42.967948687
 20
-5.1476266667
 10
-42.9211040077
 20
-5.1539150723
 10
-42.8705045547
 20
-5.1588648453
 10
-42.8159810977
 20
-5.1624102529
 10
-42.7577028669
 20
-5.1646170278
 10
-42.6956698625
 20
-5.16548517
  0
LINE
  5
535
100
AcDbEntity
  8
ASSI
100
AcDbLine
 62
7
  6
CONTINUOUS
 10
-40.2309477747
 20
-5.2224814113
 11
-38.1808507747
 21
-5.8806904113
  0
LINE
  5
536
100
AcDbEntity
  8
0
100
AcDbLine
 62
7
  6
CONTINUOUS
 10
-50.4505825966
 20
-2.6905544267
 11
-50.5144124358
 21
-2.6697214113
  0
LINE
  5
537
100
AcDbEntity
  8
0
100
AcDbLine
 62
7
  6
CONTINUOUS
 10
-49.854837942
 20
-2.1488883959
 11
-49.9399443298
 21
-2.1072214113
  0
LWPOLYLINE
  5
538
100
AcDbEntity
  8
0
100
AcDbPolyline
 62
7
  6
CONTINUOUS
 90
10
 70
0
 10
-42.132914058
 20
-7.2640526558
 10
-42.1443292858
 20
-7.2567442303
 10
-42.1556649411
 20
-7.2491067288
 10
-42.1669210241
 20
-7.2411401511
 10
-42.1781111755
 20
-7.232839713
 10
-42.1892217546
 20
-7.2242101988
 10
-42.2002118385
 20
-7.2152659617
 10
-42.2110677864
 20
-7.2060117859
 10
-42.2218032391
 20
-7.1964428871
 10
-42.2324181966
 20
-7.1865592653
  0
LINE
  5
539
100
AcDbEntity
  8
0
100
AcDbLine
 62
7
  6
CONTINUOUS
 10
-49.961220923
 20
-2.2322214113
 11
-49.8973911433
 21
-2.2738883959
  0
LWPOLYLINE
  5
53A
100
AcDbEntity
  8
0
100
AcDbPolyline
 62
7
  6
CONTINUOUS
 90
10
 70
0
 10
-42.6424638658
 20
-6.125239637
 10
-42.6557617564
 20
-6.1165212382
 10
-42.6686376883
 20
-6.1069039156
 10
-42.6810916615
 20
-6.0963876691
 10
-42.6931202382
 20
-6.0850318317
 10
-42.7047268563
 20
-6.0727770706
 10
-42.7159218293
 20
-6.0594453866
 10
-42.7267085953
 20
-6.0449774468
 10
-42.7370837162
 20
-6.0294325842
 10
-42.7470471921
 20
-6.0128107987
  0
LWPOLYLINE
  5
53B
100
AcDbEntity
  8
0
100
AcDbPolyline
 62
7
  6
CONTINUOUS
 90
9
 70
0
 10
-42.8276616521
 20
-6.8056624413
 10
-42.8031636651
 20
-6.8244771698
 10
-42.776082874
 20
-6.8475728017
 10
-42.7464192787
 20
-6.874949337
 10
-42.7143079608
 20
-6.9063433953
 10
-42.6796138387
 20
-6.9420183571
 10
-42.6419316682
 20
-6.9827643632
 10
-42.6011263677
 20
-7.028844794
 10
-42.5573330187
 20
-7.0799962693
  0
LWPOLYLINE
  5
53C
100
AcDbEntity
  8
0
100
AcDbPolyline
 62
7
  6
CONTINUOUS
 90
10
 70
0
 10
-42.2833233206
 20
-7.3776270415
 10
-42.2599377114
 20
-7.3966262581
 10
-42.2368635414
 20
-7.4142151593
 10
-42.2141008107
 20
-7.430393745
 10
-42.1916476574
 20
-7.4451130075
 10
-42.1695059434
 20
-7.4584219545
 10
-42.1476812541
 20
-7.4704676098
 10
-42.1261754515
 20
-7.481298981
 10
-42.1049866736
 20
-7.4908670604
 10
-42.0841149205
 20
-7.4991718479
  0
LWPOLYLINE
  5
53D
100
AcDbEntity
  8
0
100
AcDbPolyline
 62
7
  6
CONTINUOUS
 90
10
 70
0
 10
-42.6852095921
 20
-6.6897878949
 10
-42.7077562266
 20
-6.6702791518
 10
-42.7297539317
 20
-6.6522846101
 10
-42.7512027075
 20
-6.6358042698
 10
-42.7720972566
 20
-6.620899082
 10
-42.7924428764
 20
-6.6075080956
 10
-42.8122554594
 20
-6.5954484569
 10
-42.8315403031
 20
-6.5846592149
 10
-42.8502921101
 20
-6.5752013206
 10
-42.8685108804
 20
-6.5670747741
  0
LWPOLYLINE
  5
53E
100
AcDbEntity
  8
0
100
AcDbPolyline
 62
7
  6
CONTINUOUS
 90
8
 70
0
 10
-42.2324181966
 20
-7.1865592653
 10
-42.2443026294
 20
-7.1748216364
 10
-42.2584634882
 20
-7.1601062458
 10
-42.2749007731
 20
-7.1424130934
 10
-42.2936067774
 20
-7.1217490263
 10
-42.3145892078
 20
-7.0981071974
 10
-42.337871184
 20
-7.071467066
 10
-42.3634604127
 20
-7.0418217852
  0
LWPOLYLINE
  5
53F
100
AcDbEntity
  8
0
100
AcDbPolyline
 62
7
  6
CONTINUOUS
 90
10
 70
0
 10
-43.3507668155
 20
-7.3389666224
 10
-43.3272939871
 20
-7.3639911309
 10
-43.3010264068
 20
-7.3869013377
 10
-43.2719640744
 20
-7.4076972428
 10
-43.2405030241
 20
-7.426490326
 10
-43.2062472218
 20
-7.4431691075
 10
-43.168008565
 20
-7.4573991483
 10
-43.1253910194
 20
-7.4690689686
 10
-43.0787906193
 20
-7.4782900482
 10
-43.0282073646
 20
-7.4850623871
  0
LWPOLYLINE
  5
540
100
AcDbEntity
  8
0
100
AcDbPolyline
 62
7
  6
CONTINUOUS
 90
10
 70
0
 10
-43.2297761767
 20
-7.2149395312
 10
-43.2458220419
 20
-7.1975432998
 10
-43.2601033189
 20
-7.1787615511
 10
-43.2726200075
 20
-7.1585942851
 10
-43.2834120515
 20
-7.1372777681
 10
-43.2924395072
 20
-7.1145757339
 10
-43.2995825436
 20
-7.0897793833
 10
-43.304801217
 20
-7.0626524498
 10
-43.3081354711
 20
-7.0334311999
 10
-43.3095853059
 20
-7.0021156336
  0
LWPOLYLINE
  5
541
100
AcDbEntity
  8
0
100
AcDbPolyline
 62
7
  6
CONTINUOUS
 90
10
 70
0
 10
-42.5573330187
 20
-7.0799962693
 10
-42.4807300586
 20
-7.1721870791
 10
-42.4520819916
 20
-7.2058115271
 10
-42.4246074202
 20
-7.237092133
 10
-42.3983463472
 20
-7.2659521577
 10
-42.3732587697
 20
-7.2924683403
 10
-42.3492246792
 20
-7.3168708982
 10
-42.3262040728
 20
-7.3392365706
 10
-42.3042369532
 20
-7.3594886184
 10
-42.2833233206
 20
-7.3776270415
  0
LWPOLYLINE
  5
542
100
AcDbEntity
  8
0
100
AcDbPolyline
 62
7
  6
CONTINUOUS
 90
10
 70
0
 10
-41.9950093622
 20
-9.8876551339
 10
-42.0093611314
 20
-9.8654163802
 10
-42.0251475111
 20
-9.8441431854
 10
-42.0423685012
 20
-9.8238355495
 10
-42.0608700414
 20
-9.8045500971
 10
-42.0808061922
 20
-9.7862302037
 10
-42.1026391346
 20
-9.7687059954
 10
-42.1265229293
 20
-9.7519208476
 10
-42.1523035158
 20
-9.7359313849
 10
-42.1799808941
 20
-9.7207376073
  0
LWPOLYLINE
  5
543
100
AcDbEntity
  8
0
100
AcDbPolyline
 62
7
  6
CONTINUOUS
 90
10
 70
0
 10
-42.8800521246
 20
-10.3040632121
 10
-42.8689864772
 20
-10.3243137711
 10
-42.8565880649
 20
-10.3439906644
 10
-42.8428568876
 20
-10.3630938923
 10
-42.8279057805
 20
-10.3815872126
 10
-42.8116219085
 20
-10.3995068673
 10
-42.7936667658
 20
-10.4169615828
 10
-42.7739275173
 20
-10.4339876011
 10
-42.7525169981
 20
-10.4505486802
 10
-42.7294352083
 20
-10.4666448201
  0
LWPOLYLINE
  5
544
100
AcDbEntity
  8
0
100
AcDbPolyline
 62
7
  6
CONTINUOUS
 90
10
 70
0
 10
-42.9074706762
 20
-11.6658262725
 10
-42.9143151694
 20
-11.6473972041
 10
-42.922062685
 20
-11.6282121799
 10
-42.9307132232
 20
-11.6082711999
 10
-42.940242025
 20
-11.5875939213
 10
-42.9506738493
 20
-11.5661606869
 10
-42.9620829727
 20
-11.5439125246
 10
-42.9744941538
 20
-11.5208297771
 10
-42.9878826338
 20
-11.4969321018
 10
-43.0022484129
 20
-11.4722194985
  0
LINE
  5
545
100
AcDbEntity
  8
DRAFT
100
AcDbLine
 62
7
  6
CONTINUOUS
 10
-38.0559017747
 20
-27.5097214113
 11
-38.1920512811
 21
-27.1009407329
  0
LINE
  5
546
100
AcDbEntity
  8
TRASH
100
AcDbLine
 62
250
  6
CONTINUOUS
 10
-51.3596928496
 20
16.820458329
 11
-51.3807592528
 21
16.8902785887
  0
LINE
  5
547
100
AcDbEntity
  8
TRASH
100
AcDbLine
 62
250
  6
CONTINUOUS
 10
-51.9130288104
 20
16.6533859505
 11
-51.9334444444
 21
16.7236382462
  0
LINE
  5
548
100
AcDbEntity
  8
0
100
AcDbLine
 62
7
  6
CONTINUOUS
 10
-42.3651787071
 20
-6.1375180746
 11
-42.3488076209
 21
-6.3309014107
  0
LINE
  5
549
100
AcDbEntity
  8
0
100
AcDbLine
 62
7
  6
CONTINUOUS
 10
-43.0742510586
 20
-9.8691004182
 11
-43.0885757535
 21
-9.6859489943
  0
LWPOLYLINE
  5
54A
100
AcDbEntity
  8
0
100
AcDbPolyline
 62
7
  6
CONTINUOUS
 90
10
 70
0
 10
-43.4620409935
 20
-10.1115971471
 10
-43.4591362832
 20
-10.1661104126
 10
-43.4522640383
 20
-10.2171106176
 10
-43.4414242585
 20
-10.2645977623
 10
-43.4267235769
 20
-10.3080732424
 10
-43.4080553605
 20
-10.3480356621
 10
-43.3850997107
 20
-10.3859808342
 10
-43.3577499947
 20
-10.4224073629
 10
-43.3261128453
 20
-10.4568166441
 10
-43.2901882625
 20
-10.4892086776
  0
LWPOLYLINE
  5
54B
100
AcDbEntity
  8
0
100
AcDbPolyline
 62
7
  6
CONTINUOUS
 90
10
 70
0
 10
-42.8583574622
 20
-2.3158941532
 10
-42.8562844787
 20
-2.3565196388
 10
-42.8513509934
 20
-2.3946449614
 10
-42.8435570062
 20
-2.4302701211
 10
-42.8329450433
 20
-2.4630682879
 10
-42.8194725786
 20
-2.4933662917
 10
-42.8030120336
 20
-2.522144622
 10
-42.783520882
 20
-2.5497301087
 10
-42.76104165
 20
-2.5757959219
 10
-42.7355743377
 20
-2.6003420616
  0
LWPOLYLINE
  5
54C
100
AcDbEntity
  8
0
100
AcDbPolyline
 62
7
  6
CONTINUOUS
 90
10
 70
0
 10
-43.4620409935
 20
-6.9980225827
 10
-43.4597950758
 20
-7.0495321954
 10
-43.4548991105
 20
-7.09737332
 10
-43.4473530974
 20
-7.1415459565
 10
-43.4369962664
 20
-7.1817011011
 10
-43.4239893877
 20
-7.2181877577
 10
-43.4088147722
 20
-7.252052937
 10
-43.3916331901
 20
-7.2836456427
 10
-43.3722838712
 20
-7.3126168712
 10
-43.3507668155
 20
-7.3389666224
  0
LWPOLYLINE
  5
54D
100
AcDbEntity
  8
0
100
AcDbPolyline
 62
7
  6
CONTINUOUS
 90
10
 70
0
 10
-43.4620409935
 20
-4.6763990189
 10
-43.4604070278
 20
-4.7153328305
 10
-43.4566645572
 20
-4.751921587
 10
-43.4508135816
 20
-4.7861652884
 10
-43.4427684527
 20
-4.8178441063
 10
-43.432614819
 20
-4.8471778692
 10
-43.4206096249
 20
-4.8748260619
 10
-43.4068385188
 20
-4.9010085129
 10
-43.3912158523
 20
-4.9255053938
 10
-43.3737416256
 20
-4.9483167047
  0
LWPOLYLINE
  5
54E
100
AcDbEntity
  8
0
100
AcDbPolyline
 62
7
  6
CONTINUOUS
 90
10
 70
0
 10
-42.9504447608
 20
-5.8029339577
 10
-42.9494488455
 20
-5.8343452562
 10
-42.9461967003
 20
-5.8656651247
 10
-42.9406883253
 20
-5.8968935632
 10
-42.9330698768
 20
-5.9278818987
 10
-42.9231951983
 20
-5.9587788043
 10
-42.910625821
 20
-5.9900302988
 10
-42.8952155883
 20
-6.0217850553
 10
-42.8771106567
 20
-6.0538944007
 10
-42.8563110261
 20
-6.0863583351
  0
LWPOLYLINE
  5
54F
100
AcDbEntity
  8
0
100
AcDbPolyline
 62
7
  6
CONTINUOUS
 90
10
 70
0
 10
-42.9289576738
 20
-10.1023884083
 10
-42.9283294882
 20
-10.1258737969
 10
-42.9265138699
 20
-10.1490496414
 10
-42.9235108188
 20
-10.1719159418
 10
-42.9193390129
 20
-10.1944189983
 10
-42.9139797742
 20
-10.2166125109
 10
-42.9073770694
 20
-10.2386575786
 10
-42.8995122206
 20
-10.2606079012
 10
-42.8904039057
 20
-10.2824097791
 10
-42.8800521246
 20
-10.3040632121
  0
LWPOLYLINE
  5
550
100
AcDbEntity
  8
0
100
AcDbPolyline
 62
7
  6
CONTINUOUS
 90
10
 70
0
 10
-42.5278663068
 20
-1.8370404507
 10
-42.5283122253
 20
-1.8176891698
 10
-42.5294342242
 20
-1.799026325
 10
-42.5312323035
 20
-1.7810519163
 10
-42.5337333556
 20
-1.7638041361
 10
-42.5369104881
 20
-1.747244792
 10
-42.5406830237
 20
-1.7312593065
 10
-42.5450240701
 20
-1.7158094871
 10
-42.5499605196
 20
-1.7009335263
 10
-42.5554923723
 20
-1.686631424
  0
LINE
  5
551
100
AcDbEntity
  8
RACCORDO
100
AcDbLine
 62
250
  6
CONTINUOUS
 10
-43.2464835007
 20
7.4019244993
 11
-43.2415971372
 21
7.1292517168
  0
LINE
  5
552
100
AcDbEntity
  8
RACCORDO
100
AcDbLine
 62
250
  6
CONTINUOUS
 10
-43.2415971372
 20
7.1292517168
 11
-43.2376938062
 21
6.8644105557
  0
LINE
  5
553
100
AcDbEntity
  8
RACCORDO
100
AcDbLine
 62
250
  6
CONTINUOUS
 10
-43.4921880209
 20
7.3970862093
 11
-43.4877538456
 21
7.0754491389
  0
LINE
  5
554
100
AcDbEntity
  8
RACCORDO
100
AcDbLine
 62
250
  6
CONTINUOUS
 10
-43.2376938062
 20
6.8644105557
 11
-43.2340690124
 21
6.5562418445
  0
LINE
  5
555
100
AcDbEntity
  8
RACCORDO
100
AcDbLine
 62
250
  6
CONTINUOUS
 10
-43.4877538456
 20
7.0754491389
 11
-43.4839937229
 21
6.7437823362
  0
LINE
  5
556
100
AcDbEntity
  8
RACCORDO
100
AcDbLine
 62
250
  6
CONTINUOUS
 10
-43.2340690124
 20
6.5562418445
 11
-43.2314997646
 21
6.272941301
  0
LINE
  5
557
100
AcDbEntity
  8
RACCORDO
100
AcDbLine
 62
250
  6
CONTINUOUS
 10
-43.4839937229
 20
6.7437823362
 11
-43.4810663933
 21
6.4167466687
  0
LINE
  5
558
100
AcDbEntity
  8
RACCORDO
100
AcDbLine
 62
250
  6
CONTINUOUS
 10
-43.4810663933
 20
6.4167466687
 11
-43.4785946164
 21
6.0346253696
  0
LINE
  5
559
100
AcDbEntity
  8
RACCORDO
100
AcDbLine
 62
250
  6
CONTINUOUS
 10
-43.2314997646
 20
6.272941301
 11
-43.2294277284
 21
5.9520251746
  0
LINE
  5
55A
100
AcDbEntity
  8
RACCORDO
100
AcDbLine
 62
250
  6
CONTINUOUS
 10
-43.2294277284
 20
5.9520251746
 11
-43.2283822854
 21
5.6840036639
  0
LINE
  5
55B
100
AcDbEntity
  8
RACCORDO
100
AcDbLine
 62
250
  6
CONTINUOUS
 10
-43.4785946164
 20
6.0346253696
 11
-43.4772716298
 21
5.6833286338
  0
LINE
  5
55C
100
AcDbEntity
  8
RACCORDO
100
AcDbLine
 62
250
  6
CONTINUOUS
 10
-43.2283822854
 20
5.6840036639
 11
-43.2279805365
 21
5.3902785887
  0
LINE
  5
55D
100
AcDbEntity
  8
RACCORDO
100
AcDbLine
 62
250
  6
CONTINUOUS
 10
-43.4772716298
 20
5.6833286338
 11
-43.476915705
 21
5.3902785887
  0
LINE
  5
55E
100
AcDbEntity
  8
0
100
AcDbLine
 62
7
  6
CONTINUOUS
 10
-43.4620409935
 20
-11.113302436
 11
-43.4620409935
 21
-11.231992733
  0
LINE
  5
55F
100
AcDbEntity
  8
0
100
AcDbLine
 62
7
  6
CONTINUOUS
 10
-43.4559017747
 20
-2.705730703
 11
-43.4559017747
 21
-2.9083225991
  0
LINE
  5
560
100
AcDbEntity
  8
0
100
AcDbLine
 62
7
  6
CONTINUOUS
 10
-43.4559017747
 20
-3.862961557
 11
-43.4559017747
 21
-4.0778315331
  0
LINE
  5
561
100
AcDbEntity
  8
0
100
AcDbLine
 62
7
  6
CONTINUOUS
 10
-43.4559017747
 20
-8.7763310934
 11
-43.4559017747
 21
-8.9901782538
  0
LINE
  5
562
100
AcDbEntity
  8
0
100
AcDbLine
 62
7
  6
CONTINUOUS
 10
-43.4354379504
 20
-5.4069583679
 11
-43.4354379504
 21
-6.1528656746
  0
LINE
  5
563
100
AcDbEntity
  8
0
100
AcDbLine
 62
7
  6
CONTINUOUS
 10
-43.2594488292
 20
-6.0055262114
 11
-43.2594488292
 21
-5.4069583679
  0
LINE
  5
564
100
AcDbEntity
  8
RACCORDO
100
AcDbLine
 62
250
  6
CONTINUOUS
 10
-42.9864862203
 20
-20.7097214113
 11
-42.9864862203
 21
-18.6097214113
  0
LINE
  5
565
100
AcDbEntity
  8
RACCORDO
100
AcDbLine
 62
250
  6
CONTINUOUS
 10
-42.9864862203
 20
5.3902785887
 11
-42.9864862203
 21
7.4902785887
  0
LINE
  5
566
100
AcDbEntity
  8
RACCORDO
100
AcDbLine
 62
250
  6
CONTINUOUS
 10
-42.7365242965
 20
-20.7097214113
 11
-42.7365242965
 21
-18.6097214113
  0
LINE
  5
567
100
AcDbEntity
  8
RACCORDO
100
AcDbLine
 62
250
  6
CONTINUOUS
 10
-42.7365242965
 20
5.3902785887
 11
-42.7365242965
 21
7.4902785887
  0
LINE
  5
568
100
AcDbEntity
  8
RACCORDO
100
AcDbLine
 62
250
  6
CONTINUOUS
 10
-42.7101893827
 20
-20.7097214113
 11
-42.7101893827
 21
-18.6097214113
  0
LINE
  5
569
100
AcDbEntity
  8
RACCORDO
100
AcDbLine
 62
250
  6
CONTINUOUS
 10
-42.7101893827
 20
5.3902785887
 11
-42.7101893827
 21
7.4902785887
  0
LINE
  5
56A
100
AcDbEntity
  8
0
100
AcDbLine
 62
7
  6
CONTINUOUS
 10
-42.6361926925
 20
3.1529850164
 11
-42.6361926925
 21
2.9902785905
  0
LINE
  5
56B
100
AcDbEntity
  8
0
100
AcDbLine
 62
7
  6
CONTINUOUS
 10
-42.5718635647
 20
-8.6248985792
 11
-42.5718635647
 21
-9.1334252025
  0
LINE
  5
56C
100
AcDbEntity
  8
RACCORDO
100
AcDbLine
 62
250
  6
CONTINUOUS
 10
-42.4602274589
 20
-20.7097214113
 11
-42.4602274589
 21
-18.6097214113
  0
LINE
  5
56D
100
AcDbEntity
  8
RACCORDO
100
AcDbLine
 62
250
  6
CONTINUOUS
 10
-42.4602274589
 20
5.3902785887
 11
-42.4602274589
 21
7.4902785887
  0
LINE
  5
56E
100
AcDbEntity
  8
0
100
AcDbLine
 62
7
  6
CONTINUOUS
 10
-42.4101991831
 20
-9.190723982
 11
-42.4101991831
 21
-8.5635071064
  0
LINE
  5
56F
100
AcDbEntity
  8
RACCORDO
100
AcDbLine
 62
250
  6
CONTINUOUS
 10
-43.476915705
 20
-18.6097214113
 11
-43.4772738222
 21
-18.9036823163
  0
LINE
  5
570
100
AcDbEntity
  8
RACCORDO
100
AcDbLine
 62
250
  6
CONTINUOUS
 10
-43.2279805365
 20
-18.6097214113
 11
-43.2283847634
 21
-18.9043593931
  0
LINE
  5
571
100
AcDbEntity
  8
RACCORDO
100
AcDbLine
 62
250
  6
CONTINUOUS
 10
-43.4772738222
 20
-18.9036823163
 11
-43.4786027095
 21
-19.2556540335
  0
LINE
  5
572
100
AcDbEntity
  8
RACCORDO
100
AcDbLine
 62
250
  6
CONTINUOUS
 10
-43.2283847634
 20
-18.9043593931
 11
-43.2298915074
 21
-19.2570696061
  0
LINE
  5
573
100
AcDbEntity
  8
RACCORDO
100
AcDbLine
 62
250
  6
CONTINUOUS
 10
-43.4786027095
 20
-19.2556540335
 11
-43.4810801043
 21
-19.6379438411
  0
LINE
  5
574
100
AcDbEntity
  8
RACCORDO
100
AcDbLine
 62
250
  6
CONTINUOUS
 10
-43.2298915074
 20
-19.2570696061
 11
-43.2321222353
 21
-19.5682920998
  0
LINE
  5
575
100
AcDbEntity
  8
RACCORDO
100
AcDbLine
 62
250
  6
CONTINUOUS
 10
-43.4810801043
 20
-19.6379438411
 11
-43.4846231269
 21
-20.0240995096
  0
LINE
  5
576
100
AcDbEntity
  8
RACCORDO
100
AcDbLine
 62
250
  6
CONTINUOUS
 10
-43.2321222353
 20
-19.5682920998
 11
-43.2354914133
 21
-19.9062269269
  0
LINE
  5
577
100
AcDbEntity
  8
RACCORDO
100
AcDbLine
 62
250
  6
CONTINUOUS
 10
-43.4846231269
 20
-20.0240995096
 11
-43.4890310672
 21
-20.3935471989
  0
LINE
  5
578
100
AcDbEntity
  8
RACCORDO
100
AcDbLine
 62
250
  6
CONTINUOUS
 10
-43.2354914133
 20
-19.9062269269
 11
-43.2392447184
 21
-20.1954475596
  0
LWPOLYLINE
  5
579
100
AcDbEntity
  8
0
100
AcDbPolyline
 62
7
  6
CONTINUOUS
 90
10
 70
0
 10
-42.7212496429
 20
-1.8175997998
 10
-42.7213663811
 20
-1.8257444364
 10
-42.7217066294
 20
-1.8338193737
 10
-42.7222703878
 20
-1.8418246118
 10
-42.7230535179
 20
-1.8497293724
 10
-42.7240601581
 20
-1.8575644338
 10
-42.7253027231
 20
-1.8654221301
 10
-42.7267853512
 20
-1.8733332396
 10
-42.728503904
 20
-1.881266984
 10
-42.7304583817
 20
-1.8892233635
  0
LINE
  5
57A
100
AcDbEntity
  8
RACCORDO
100
AcDbLine
 62
250
  6
CONTINUOUS
 10
-43.4890310672
 20
-20.3935471989
 11
-43.4921880209
 21
-20.6165290319
  0
LINE
  5
57B
100
AcDbEntity
  8
RACCORDO
100
AcDbLine
 62
250
  6
CONTINUOUS
 10
-43.2392447184
 20
-20.1954475596
 11
-43.2440223896
 21
-20.4905992741
  0
LINE
  5
57C
100
AcDbEntity
  8
RACCORDO
100
AcDbLine
 62
250
  6
CONTINUOUS
 10
-43.2440223896
 20
-20.4905992741
 11
-43.2464835007
 21
-20.6213673219
  0
LWPOLYLINE
  5
57D
100
AcDbEntity
  8
0
100
AcDbPolyline
 62
7
  6
CONTINUOUS
 90
10
 70
0
 10
-42.6649740814
 20
-2.3332884575
 10
-42.6645264052
 20
-2.316655416
 10
-42.662731095
 20
-2.2986268243
 10
-42.6595881508
 20
-2.2792026823
 10
-42.6551757323
 20
-2.2584362811
 10
-42.6494156799
 20
-2.2362743297
 10
-42.6420735148
 20
-2.212556955
 10
-42.6330710776
 20
-2.1872308657
 10
-42.6224865277
 20
-2.1603493531
 10
-42.6103198651
 20
-2.1319124171
  0
LWPOLYLINE
  5
57E
100
AcDbEntity
  8
RACCORDO
100
AcDbPolyline
 62
250
  6
CONTINUOUS
 90
46
 70
0
 10
-43.4921880209
 20
-20.6165290319
 10
-43.4950120955
 20
-20.715760344
 10
-43.5029817446
 20
-20.8197519174
 10
-43.5168161854
 20
-20.9281540689
 10
-43.5372105776
 20
-21.0405429659
 10
-43.5649067449
 20
-21.1564178719
 10
-43.6007151718
 20
-21.2751625821
 10
-43.6454061686
 20
-21.3961695821
 10
-43.6996273828
 20
-21.5184660251
 10
-43.7639095103
 20
-21.6407413036
 10
-43.8390601163
 20
-21.7624034753
 10
-43.9252397787
 20
-21.8818600911
 10
-44.0215291925
 20
-21.9963928336
 10
-44.1280825864
 20
-22.1050716167
 10
-44.2445543649
 20
-22.2066224833
 10
-44.3684377856
 20
-22.2985370555
 10
-44.4983506454
 20
-22.3798839959
 10
-44.6341900585
 20
-22.450678156
 10
-44.7749288829
 20
-22.5103909913
 10
-44.9197172972
 20
-22.5586708813
 10
-45.0677885342
 20
-22.5953167968
 10
-45.2181892784
 20
-22.6201614034
 10
-45.370133631
 20
-22.6330570069
 10
-45.5227110047
 20
-22.633818544
 10
-45.6747685258
 20
-22.6224303482
 10
-45.8254093269
 20
-22.5990651287
 10
-45.9738312294
 20
-22.563872575
 10
-46.1190368379
 20
-22.5170369704
 10
-46.2601277518
 20
-22.4588256928
 10
-46.3963961435
 20
-22.3895334938
 10
-46.5271501154
 20
-22.3094708678
 10
-46.6523843095
 20
-22.2184601235
 10
-46.7705077039
 20
-22.1174377382
 10
-46.8788468376
 20
-22.0088984116
 10
-46.9770148357
 20
-21.894035785
 10
-47.0650821415
 20
-21.7738028422
 10
-47.1419417179
 20
-21.6511127602
 10
-47.2077155353
 20
-21.5276306609
 10
-47.2632295115
 20
-21.403938812
 10
-47.3089727112
 20
-21.2814606462
 10
-47.3456176597
 20
-21.161145733
 10
-47.3739321858
 20
-21.0436830026
 10
-47.3947067861
 20
-20.9299757176
 10
-47.4087328943
 20
-20.8206414204
 10
-47.4167783568
 20
-20.7160378922
 10
-47.4196155284
 20
-20.6165290319
  0
LWPOLYLINE
  5
57F
100
AcDbEntity
  8
RACCORDO
100
AcDbPolyline
 62
250
  6
CONTINUOUS
 90
46
 70
0
 10
-43.2464835007
 20
-20.6213673219
 10
-43.2500085708
 20
-20.7330489713
 10
-43.2611899423
 20
-20.8488702588
 10
-43.2800276151
 20
-20.9688311845
 10
-43.305767949
 20
-21.0937036063
 10
-43.3391645842
 20
-21.2227156662
 10
-43.3824784416
 20
-21.35355179
 10
-43.4359523318
 20
-21.4866170416
 10
-43.4993434441
 20
-21.6215063572
 10
-43.5741842676
 20
-21.7546889709
 10
-43.6612990209
 20
-21.88667795
 10
-43.7598634853
 20
-22.0169602272
 10
-43.8689374939
 20
-22.1404658351
 10
-43.98946525
 20
-22.2569067777
 10
-44.1205025503
 20
-22.3665710511
 10
-44.2582766171
 20
-22.465252676
 10
-44.4024077138
 20
-22.551938019
 10
-44.5532755771
 20
-22.6276407135
 10
-44.7082466385
 20
-22.6911956807
 10
-44.8673110347
 20
-22.742392705
 10
-45.0304786291
 20
-22.7814420019
 10
-45.195145444
 20
-22.8078091385
 10
-45.3614040008
 20
-22.8213234969
 10
-45.529161778
 20
-22.8221556951
 10
-45.6955372342
 20
-22.8102831533
 10
-45.8604483586
 20
-22.7855184824
 10
-46.023977162
 20
-22.7480490716
 10
-46.1834881348
 20
-22.6984145094
 10
-46.3388804683
 20
-22.6365056884
 10
-46.4902549714
 20
-22.5624317159
 10
-46.6352785611
 20
-22.477059502
 10
-46.7745299254
 20
-22.3793216741
 10
-46.9074303764
 20
-22.2702856049
 10
-47.0299107672
 20
-22.1540203227
 10
-47.1410211425
 20
-22.0301196075
 10
-47.2417114576
 20
-21.8989896793
 10
-47.3307624317
 20
-21.765918227
 10
-47.4072772706
 20
-21.6314294427
 10
-47.4721527684
 20
-21.4949991344
 10
-47.5268600266
 20
-21.3603424151
 10
-47.5711187717
 20
-21.2277980401
 10
-47.6052092772
 20
-21.0970272541
 10
-47.6314434655
 20
-20.9707289046
 10
-47.6505919772
 20
-20.8498026072
 10
-47.6618841715
 20
-20.7333487463
 10
-47.6653200486
 20
-20.6213673219
  0
LWPOLYLINE
  5
580
100
AcDbEntity
  8
RACCORDO
100
AcDbPolyline
 62
250
  6
CONTINUOUS
 90
43
 70
0
 10
-43.476915705
 20
5.3902785887
 10
-43.4825777519
 20
5.2406849428
 10
-43.4994877688
 20
5.0922345905
 10
-43.5274840929
 20
4.945766274
 10
-43.5663370103
 20
4.8021197612
 10
-43.6157668859
 20
4.6620690145
 10
-43.6754617365
 20
4.5263233013
 10
-43.7450364751
 20
4.3956301849
 10
-43.8240593966
 20
4.2706911143
 10
-43.912099564
 20
4.1521103843
 10
-44.0086311047
 20
4.0405403171
 10
-44.1131018829
 20
3.9365680814
 10
-44.2250107827
 20
3.8406679428
 10
-44.3437493645
 20
3.7533598906
 10
-44.4686447391
 20
3.6751373764
 10
-44.5990724482
 20
3.6063981677
 10
-44.7343321264
 20
3.5475297986
 10
-44.8736622245
 20
3.4988814938
 10
-45.01631502
 20
3.4607321787
 10
-45.1615358819
 20
3.4333078229
 10
-45.3084851032
 20
3.4167907699
 10
-45.4562623955
 20
3.4112925602
 10
-45.6040441423
 20
3.4168451212
 10
-45.751003541
 20
3.4334186714
 10
-45.8962354148
 20
3.4609025109
 10
-46.038901587
 20
3.4991157296
 10
-46.1782446112
 20
3.5478327842
 10
-46.3135060696
 20
3.606770652
 10
-46.4439234135
 20
3.6755777729
 10
-46.568797971
 20
3.7538655424
 10
-46.6875005406
 20
3.8412304779
 10
-46.7993593508
 20
3.9371759376
 10
-46.903768853
 20
4.0411801813
 10
-47.0002277876
 20
4.152763849
 10
-47.0881855507
 20
4.2713348429
 10
-47.1671223407
 20
4.3962416517
 10
-47.2366138419
 20
4.5268842813
 10
-47.296230907
 20
4.6625602063
 10
-47.3455920437
 20
4.8025232635
 10
-47.3843903807
 20
4.9460742007
 10
-47.412347621
 20
5.0924437874
 10
-47.4292338201
 20
5.240790916
 10
-47.4348878444
 20
5.3902785887
  0
LWPOLYLINE
  5
581
100
AcDbEntity
  8
RACCORDO
100
AcDbPolyline
 62
250
  6
CONTINUOUS
 90
43
 70
0
 10
-43.2279805365
 20
5.3902785887
 10
-43.2345918432
 20
5.2213028719
 10
-43.253408971
 20
5.0551824391
 10
-43.2844319198
 20
4.8919172901
 10
-43.328027043
 20
4.7305737581
 10
-43.3838279872
 20
4.5720855101
 10
-43.4507356925
 20
4.4192535467
 10
-43.5288980439
 20
4.2722794797
 10
-43.6181671563
 20
4.1309616975
 10
-43.7170003145
 20
3.9974963662
 10
-43.8255144018
 20
3.8720124584
 10
-43.9435925348
 20
3.7543810016
 10
-44.0693413483
 20
3.6464112435
 10
-44.2028796436
 20
3.5482270036
 10
-44.3440886194
 20
3.4597044624
 10
-44.4907185061
 20
3.38228141
 10
-44.6428785077
 20
3.3161167203
 10
-44.8004594202
 20
3.2610515195
 10
-44.9608838627
 20
3.2180469759
 10
-45.1242425221
 20
3.1873064639
 10
-45.2904447115
 20
3.1686266092
 10
-45.4566409893
 20
3.1623584573
 10
-45.6228310269
 20
3.1687374473
 10
-45.7890151529
 20
3.1875281401
 10
-45.9523449114
 20
3.2183752643
 10
-46.1127294879
 20
3.2614821251
 10
-46.270259697
 20
3.3166454173
 10
-46.4223595259
 20
3.3828999546
 10
-46.568920484
 20
3.4604062083
 10
-46.710051062
 20
3.5490037072
 10
-46.8435007193
 20
3.647245851
 10
-46.9691484344
 20
3.7552564276
 10
-47.0871152287
 20
3.8729116492
 10
-47.1955136256
 20
3.9983935526
 10
-47.2942233219
 20
4.1318265093
 10
-47.3833646206
 20
4.2730861478
 10
-47.4614109542
 20
4.4199813902
 10
-47.5282171164
 20
4.5727092764
 10
-47.5839283134
 20
4.7310727664
 10
-47.6274535964
 20
4.8922896625
 10
-47.6584293158
 20
5.0554325652
 10
-47.6772191213
 20
5.221428874
 10
-47.6838230129
 20
5.3902785887
  0
LWPOLYLINE
  5
582
100
AcDbEntity
  8
0
100
AcDbPolyline
 62
7
  6
CONTINUOUS
 90
10
 70
0
 10
-43.3095853059
 20
-7.0021156336
 10
-43.3082526425
 20
-6.9729446149
 10
-43.3051334145
 20
-6.9455684868
 10
-43.3002276218
 20
-6.9199872492
 10
-43.2935132638
 20
-6.8964117279
 10
-43.2850123412
 20
-6.8746310973
 10
-43.2747908559
 20
-6.8540128798
 10
-43.2628708085
 20
-6.8343462497
 10
-43.2492301984
 20
-6.8158420327
 10
-43.2338690256
 20
-6.7985002289
  0
LWPOLYLINE
  5
583
100
AcDbEntity
  8
0
100
AcDbPolyline
 62
7
  6
CONTINUOUS
 90
10
 70
0
 10
-42.7877571612
 20
-5.8520469929
 10
-42.7861897397
 20
-5.8191396097
 10
-42.7824800369
 20
-5.7882322859
 10
-42.7766280527
 20
-5.7593250215
 10
-42.768636902
 20
-5.7326704368
 10
-42.7585034699
 20
-5.7080159116
 10
-42.746218412
 20
-5.6846035846
 10
-42.7317786138
 20
-5.6621808356
 10
-42.7151871898
 20
-5.6410002848
 10
-42.6964441401
 20
-5.6210619324
  0
LWPOLYLINE
  5
584
100
AcDbEntity
  8
0
100
AcDbPolyline
 62
7
  6
CONTINUOUS
 90
10
 70
0
 10
-43.3106084793
 20
-10.1228522326
 10
-43.3094195143
 20
-10.0984383048
 10
-43.3063848519
 20
-10.0751712589
 10
-43.301504492
 20
-10.053051095
 10
-43.2948592605
 20
-10.0322685333
 10
-43.2863683315
 20
-10.0126328536
 10
-43.2757892274
 20
-9.9935718946
 10
-43.2630411225
 20
-9.9748949359
 10
-43.2482048426
 20
-9.9567926979
 10
-43.2312803876
 20
-9.9392651805
  0
LWPOLYLINE
  5
585
100
AcDbEntity
  8
0
100
AcDbPolyline
 62
7
  6
CONTINUOUS
 90
10
 70
0
 10
-42.7662701636
 20
-10.1392233635
 10
-42.7648781047
 20
-10.1110780265
 10
-42.7613932161
 20
-10.0843397586
 10
-42.7558154979
 20
-10.0590085601
 10
-42.7482253413
 20
-10.0353095323
 10
-42.738542355
 20
-10.0130175737
 10
-42.7265253653
 20
-9.9914573797
 10
-42.7120939808
 20
-9.9704038489
 10
-42.6953285927
 20
-9.9500820826
 10
-42.6762292012
 20
-9.930492081
  0
LWPOLYLINE
  5
586
100
AcDbEntity
  8
0
100
AcDbPolyline
 62
7
  6
CONTINUOUS
 90
10
 70
0
 10
-43.3095853059
 20
-4.6784453656
 10
-43.3081580818
 20
-4.6511696357
 10
-43.3038913661
 20
-4.6248871044
 10
-43.296785159
 20
-4.5995977716
 10
-43.2870936224
 20
-4.5754832183
 10
-43.2745625944
 20
-4.5523618636
 10
-43.2584295887
 20
-4.5296889643
 10
-43.2384404431
 20
-4.5072829392
 10
-43.2148493198
 20
-4.4853253694
 10
-43.1876562188
 20
-4.463816255
  0
LINE
  5
587
100
AcDbEntity
  8
0
100
AcDbLine
 62
7
  6
CONTINUOUS
 10
-41.2540937747
 20
4.6343115887
 11
-41.2616687747
 21
4.5530895887
  0
LINE
  5
588
100
AcDbEntity
  8
0
100
AcDbLine
 62
7
  6
CONTINUOUS
 10
-41.2885200288
 20
4.2650532359
 11
-41.3090341643
 21
4.045051235
  0
LINE
  5
589
100
AcDbEntity
  8
0
100
AcDbLine
 62
7
  6
CONTINUOUS
 10
-41.0686014984
 20
6.6247711048
 11
-41.2421532774
 21
4.7626264505
  0
LINE
  5
58A
100
AcDbEntity
  8
0
100
AcDbLine
 62
7
  6
CONTINUOUS
 10
-43.0282073646
 20
-7.4850623871
 11
-43.0087667136
 21
-7.2957717444
  0
LWPOLYLINE
  5
58B
100
AcDbEntity
  8
ASSI
100
AcDbPolyline
 62
7
  6
CONTINUOUS
 90
7
 70
0
 10
-45.1559017747
 20
-20.0422706886
 10
-45.1555838502
 20
-20.0394644125
 10
-45.1547058102
 20
-20.0367349816
 10
-45.1532574259
 20
-20.0340913058
 10
-45.151228563
 20
-20.0315416468
 10
-45.1486091619
 20
-20.0290935942
 10
-45.1453892189
 20
-20.0267540436
  0
LINE
  5
58C
100
AcDbEntity
  8
0
100
AcDbLine
 62
7
  6
CONTINUOUS
 10
-42.6649740814
 20
-6.2981591488
 11
-42.6424638658
 21
-6.125239637
  0
LWPOLYLINE
  5
58D
100
AcDbEntity
  8
0
100
AcDbPolyline
 62
7
  6
CONTINUOUS
 90
10
 70
0
 10
-42.5417135377
 20
-1.9548371945
 10
-42.5388045948
 20
-1.9430021628
 10
-42.5362380687
 20
-1.93084595
 10
-42.5340139591
 20
-1.9183685561
 10
-42.5321320347
 20
-1.9055595713
 10
-42.5305925269
 20
-1.8924294054
 10
-42.5293961307
 20
-1.8790092875
 10
-42.5285430778
 20
-1.8653096273
 10
-42.5280331365
 20
-1.851320015
 10
-42.5278663068
 20
-1.8370404507
  0
LINE
  5
58E
100
AcDbEntity
  8
RACCORDO
100
AcDbLine
 62
250
  6
CONTINUOUS
 10
-46.9759017746
 20
-19.476958403
 11
-47.4196155284
 21
-20.6165290319
  0
LWPOLYLINE
  5
58F
100
AcDbEntity
  8
0
100
AcDbPolyline
 62
7
  6
CONTINUOUS
 90
10
 70
0
 10
-43.3625001139
 20
-9.822286551
 10
-43.3824737536
 20
-9.8469847081
 10
-43.4002620118
 20
-9.8733358885
 10
-43.4158648886
 20
-9.9013400923
 10
-43.4293397228
 20
-9.9307188623
 10
-43.4406291756
 20
-9.9617506555
 10
-43.4495612306
 20
-9.9952708435
 10
-43.4560785493
 20
-10.0315578833
 10
-43.4602384702
 20
-10.0703333179
 10
-43.4620409935
 20
-10.1115971471
  0
LWPOLYLINE
  5
590
100
AcDbEntity
  8
0
100
AcDbPolyline
 62
7
  6
CONTINUOUS
 90
10
 70
0
 10
-42.0446334903
 20
-6.183816111
 10
-42.021929972
 20
-6.156285401
 10
-42.0016561719
 20
-6.1265907562
 10
-41.9838120901
 20
-6.0947321766
 10
-41.9683032716
 20
-6.0610489303
 10
-41.9552241713
 20
-6.0252017492
 10
-41.9448581542
 20
-5.9861728291
 10
-41.9372996751
 20
-5.9436229019
 10
-41.9324542792
 20
-5.8978912357
 10
-41.9303219664
 20
-5.8489778305
  0
LINE
  5
591
100
AcDbEntity
  8
0
100
AcDbLine
 62
7
  6
CONTINUOUS
 10
-42.4101991831
 20
-8.5635071064
 11
-41.9559017747
 21
-8.388541248
  0
LINE
  5
592
100
AcDbEntity
  8
0
100
AcDbLine
 62
7
  6
CONTINUOUS
 10
-50.4931358426
 20
-13.2947214113
 11
-49.7059017747
 21
-13.0030547546
  0
LINE
  5
593
100
AcDbEntity
  8
0
100
AcDbLine
 62
7
  6
CONTINUOUS
 10
-49.8122847556
 20
-12.9197214113
 11
-50.7059017747
 21
-13.2322214113
  0
LINE
  5
594
100
AcDbEntity
  8
0
100
AcDbLine
 62
7
  6
CONTINUOUS
 10
-49.7059017747
 20
-11.4197214113
 11
-50.7059017747
 21
-11.7530547844
  0
LINE
  5
595
100
AcDbEntity
  8
0
100
AcDbLine
 62
7
  6
CONTINUOUS
 10
-50.6207954018
 20
-11.8363880382
 11
-50.0463272958
 21
-11.6488880382
  0
LINE
  5
596
100
AcDbEntity
  8
0
100
AcDbLine
 62
7
  6
CONTINUOUS
 10
-49.961220923
 20
-11.6280547844
 11
-49.7059017747
 21
-11.5447214113
  0
LINE
  5
597
100
AcDbEntity
  8
0
100
AcDbLine
 62
7
  6
CONTINUOUS
 10
-49.9824975162
 20
-2.8780544267
 11
-49.8973911433
 21
-2.8572214113
  0
LINE
  5
598
100
AcDbEntity
  8
0
100
AcDbLine
 62
7
  6
CONTINUOUS
 10
-50.3867528169
 20
-2.8155544267
 11
-50.3016464441
 21
-2.7947214113
  0
LWPOLYLINE
  5
599
100
AcDbEntity
  8
0
100
AcDbPolyline
 62
7
  6
CONTINUOUS
 90
37
 70
0
 10
-55.0265938735
 20
-2.7423097777
 10
-54.9472177396
 20
-2.7411889835
 10
-54.8714397753
 20
-2.7356499279
 10
-54.7992599807
 20
-2.7256926108
 10
-54.7302552016
 20
-2.7113059687
 10
-54.6648485921
 20
-2.6925010652
 10
-54.6043096146
 20
-2.6693110904
 10
-54.549057992
 20
-2.6416933457
 10
-54.4986740013
 20
-2.6096905296
 10
-54.4531679361
 20
-2.5734639279
 10
-54.4126094086
 20
-2.5332497599
 10
-54.3769288067
 20
-2.4888118061
 10
-54.3459275875
 20
-2.4396026942
 10
-54.3194043562
 20
-2.3851652209
 10
-54.2975605076
 20
-2.3259565895
 10
-54.2808016847
 20
-2.2628010365
 10
-54.2693825175
 20
-2.1945592973
 10
-54.2630483759
 20
-2.1223706366
 10
-54.261441012
 20
-2.0504770851
 10
-54.2644369621
 20
-1.9790806297
 10
-54.2721596899
 20
-1.9079792834
 10
-54.2846213377
 20
-1.840809117
 10
-54.3019443422
 20
-1.7785225188
 10
-54.3240062666
 20
-1.7201671004
 10
-54.350451943
 20
-1.6665217667
 10
-54.3809686283
 20
-1.6180937962
 10
-54.4158690656
 20
-1.5743759104
 10
-54.4557363168
 20
-1.5346251778
 10
-54.5007922973
 20
-1.4984741834
 10
-54.5508150917
 20
-1.4662903422
 10
-54.6057220158
 20
-1.4384329683
 10
-54.6658918432
 20
-1.4150049518
 10
-54.7309458004
 20
-1.3959034026
 10
-54.7996648825
 20
-1.3811789635
 10
-54.8716427546
 20
-1.3708485155
 10
-54.9472857516
 20
-1.3648951777
 10
-55.0265938735
 20
-1.36331895
  0
LINE
  5
59A
100
AcDbEntity
  8
0
100
AcDbLine
 62
7
  6
CONTINUOUS
 10
-50.4718592494
 20
-2.8155544267
 11
-50.3867528169
 21
-2.8155544267
  0
LINE
  5
59B
100
AcDbEntity
  8
0
100
AcDbLine
 62
7
  6
CONTINUOUS
 10
-56.1075968065
 20
-2.7423097777
 11
-55.0265938735
 21
-2.7423097777
  0
LINE
  5
59C
100
AcDbEntity
  8
0
100
AcDbLine
 62
7
  6
CONTINUOUS
 10
-50.4080294101
 20
-2.6905544267
 11
-50.4505825966
 21
-2.6905544267
  0
LINE
  5
59D
100
AcDbEntity
  8
0
100
AcDbLine
 62
7
  6
CONTINUOUS
 10
-55.0265938735
 20
-2.6311887629
 11
-56.1075968065
 21
-2.6311887629
  0
LINE
  5
59E
100
AcDbEntity
  8
0
100
AcDbLine
 62
7
  6
CONTINUOUS
 10
-42.7355743377
 20
-2.6003420616
 11
-42.5258199154
 21
-2.6003420616
  0
LINE
  5
59F
100
AcDbEntity
  8
0
100
AcDbLine
 62
7
  6
CONTINUOUS
 10
-50.0250507026
 20
-2.2322214113
 11
-49.961220923
 21
-2.2322214113
  0
LINE
  5
5A0
100
AcDbEntity
  8
0
100
AcDbLine
 62
7
  6
CONTINUOUS
 10
-49.9399443298
 20
-2.1072214113
 11
-50.0463272958
 21
-2.1072214113
  0
LINE
  5
5A1
100
AcDbEntity
  8
0
100
AcDbLine
 62
7
  6
CONTINUOUS
 10
-50.7059017747
 20
-1.9405544267
 11
-49.7059017747
 21
-1.9405544267
  0
LINE
  5
5A2
100
AcDbEntity
  8
0
100
AcDbLine
 62
7
  6
CONTINUOUS
 10
-49.7059017747
 20
-1.8155544267
 11
-50.7059017747
 21
-1.8155544267
  0
LINE
  5
5A3
100
AcDbEntity
  8
0
100
AcDbLine
 62
7
  6
CONTINUOUS
 10
-42.6445102124
 20
-1.5536160733
 11
-42.8614269822
 21
-1.5536160733
  0
LINE
  5
5A4
100
AcDbEntity
  8
0
100
AcDbLine
 62
7
  6
CONTINUOUS
 10
-56.1075968065
 20
-1.4744389232
 11
-55.0265938735
 21
-1.4744389232
  0
LINE
  5
5A5
100
AcDbEntity
  8
0
100
AcDbLine
 62
7
  6
CONTINUOUS
 10
-55.0265938735
 20
-1.36331895
 11
-56.1075968065
 21
-1.36331895
  0
LWPOLYLINE
  5
5A6
100
AcDbEntity
  8
0
100
AcDbPolyline
 62
7
  6
CONTINUOUS
 90
19
 70
0
 10
-55.0265938735
 20
-1.4744389232
 10
-54.9611253562
 20
-1.4752984524
 10
-54.8982451672
 20
-1.4794466211
 10
-54.8379533065
 20
-1.4868834294
 10
-54.7798862205
 20
-1.4975291274
 10
-54.7244074627
 20
-1.511463465
 10
-54.6726076943
 20
-1.5289256915
 10
-54.6248794965
 20
-1.549693907
 10
-54.5808302881
 20
-1.5739900114
 10
-54.5403729862
 20
-1.6027189536
 10
-54.5033428176
 20
-1.6360279154
 10
-54.4699045555
 20
-1.6737697149
 10
-54.4404654367
 20
-1.7164077556
 10
-54.4148395983
 20
-1.7644878876
 10
-54.3932129032
 20
-1.8174642607
 10
-54.3765501768
 20
-1.8741627275
 10
-54.3651730278
 20
-1.9341919056
 10
-54.3587598476
 20
-1.9979431773
 10
-54.3573106362
 20
-2.0654165428
  0
LWPOLYLINE
  5
5A7
100
AcDbEntity
  8
0
100
AcDbPolyline
 62
7
  6
CONTINUOUS
 90
10
 70
0
 10
-42.2691515432
 20
-4.24200268
 10
-42.3032265708
 20
-4.2312971573
 10
-42.3405152081
 20
-4.2216859271
 10
-42.3810174552
 20
-4.2131689894
 10
-42.4245794929
 20
-4.2056624154
 10
-42.4713551404
 20
-4.1992501339
 10
-42.5218058553
 20
-4.1941839313
 10
-42.576085457
 20
-4.1905477363
 10
-42.634040126
 20
-4.1882576202
 10
-42.6956698625
 20
-4.187313583
  0
LINE
  5
5A8
100
AcDbEntity
  8
ASSI
100
AcDbLine
 62
7
  6
CONTINUOUS
 10
-38.9735337747
 20
-5.2161674113
 11
-39.5924497747
 21
-5.0174654113
  0
LINE
  5
5A9
100
AcDbEntity
  8
ASSI
100
AcDbLine
 62
7
  6
CONTINUOUS
 10
-38.1808557747
 20
-5.4706744113
 11
-38.5840187747
 21
-5.3412324113
  0
LINE
  5
5AA
100
AcDbEntity
  8
0
100
AcDbLine
 62
7
  6
CONTINUOUS
 10
-50.0463272958
 20
-1.4197214113
 11
-50.6207954018
 21
-1.2322214113
  0
LINE
  5
5AB
100
AcDbEntity
  8
0
100
AcDbLine
 62
7
  6
CONTINUOUS
 10
-49.7059017747
 20
-1.5238883959
 11
-49.961220923
 21
-1.4405544267
  0
LINE
  5
5AC
100
AcDbEntity
  8
0
100
AcDbLine
 62
7
  6
CONTINUOUS
 10
-50.7059017747
 20
-1.3155544267
 11
-49.7059017747
 21
-1.6488883959
  0
LWPOLYLINE
  5
5AD
100
AcDbEntity
  8
0
100
AcDbPolyline
 62
7
  6
CONTINUOUS
 90
9
 70
0
 10
-42.3381766536
 20
-3.3239136661
 10
-42.3103347575
 20
-3.3339724321
 10
-42.2826762368
 20
-3.3436834046
 10
-42.2551988785
 20
-3.3530579164
 10
-42.2279048957
 20
-3.3620846346
 10
-42.2008009269
 20
-3.3707295607
 10
-42.1738891851
 20
-3.3789813618
 10
-42.1471674572
 20
-3.3868513709
 10
-42.1206357433
 20
-3.3943395878
  0
LINE
  5
5AE
100
AcDbEntity
  8
0
100
AcDbLine
 62
7
  6
CONTINUOUS
 10
-43.4559017747
 20
-2.9083225991
 11
-42.3381766536
 21
-3.3239136661
  0
LINE
  5
5AF
100
AcDbEntity
  8
0
100
AcDbLine
 62
7
  6
CONTINUOUS
 10
-41.9559017747
 20
-3.2930429245
 11
-43.4559017747
 21
-2.705730703
  0
LWPOLYLINE
  5
5B0
100
AcDbEntity
  8
0
100
AcDbPolyline
 62
7
  6
CONTINUOUS
 90
10
 70
0
 10
-42.1121272864
 20
-5.4546442925
 10
-42.1451981766
 20
-5.4302849969
 10
-42.179574603
 20
-5.4087304579
 10
-42.2152565656
 20
-5.3899806754
 10
-42.25196022
 20
-5.3740365212
 10
-42.2899694107
 20
-5.3608971235
 10
-42.3301356706
 20
-5.3505598676
 10
-42.3727428439
 20
-5.3430238817
 10
-42.4175070863
 20
-5.3382900376
 10
-42.4644283979
 20
-5.3363583351
  0
LWPOLYLINE
  5
5B1
100
AcDbEntity
  8
0
100
AcDbPolyline
 62
7
  6
CONTINUOUS
 90
9
 70
0
 10
-57.1481694896
 20
5.8216372064
 10
-57.0426111328
 20
5.7405016177
 10
-56.931047711
 20
5.6693060526
 10
-56.8130589981
 20
5.6081836656
 10
-56.6890652202
 20
5.5570013021
 10
-56.5622721855
 20
5.5169959173
 10
-56.4337484967
 20
5.4885798295
 10
-56.3024255511
 20
5.4713407204
 10
-56.1683033487
 20
5.4652785899
  0
LWPOLYLINE
  5
5B2
100
AcDbEntity
  8
0
100
AcDbPolyline
 62
7
  6
CONTINUOUS
 90
10
 70
0
 10
-43.2019396331
 20
-4.8807360318
 10
-43.2251667755
 20
-4.8626097292
 10
-43.2454652303
 20
-4.8435767575
 10
-43.2628349975
 20
-4.8236371166
 10
-43.2771266643
 20
-4.8030320605
 10
-43.2884896434
 20
-4.7815203352
 10
-43.2973721733
 20
-4.7583781792
 10
-43.3039236668
 20
-4.7333643387
 10
-43.307994711
 20
-4.7067200675
 10
-43.3095853059
 20
-4.6784453656
  0
LWPOLYLINE
  5
5B3
100
AcDbEntity
  8
0
100
AcDbPolyline
 62
7
  6
CONTINUOUS
 90
10
 70
0
 10
-42.2045373532
 20
-4.4635751495
 10
-42.1769810606
 20
-4.4852883811
 10
-42.1531071139
 20
-4.5073701245
 10
-42.1329155131
 20
-4.5298203797
 10
-42.1166781377
 20
-4.552485874
 10
-42.1041231082
 20
-4.5755198801
 10
-42.0944347865
 20
-4.5993822159
 10
-42.0873412933
 20
-4.6242261539
 10
-42.0831145079
 20
-4.6498984216
 10
-42.0817544303
 20
-4.6763990189
  0
LWPOLYLINE
  5
5B4
100
AcDbEntity
  8
0
100
AcDbPolyline
 62
7
  6
CONTINUOUS
 90
10
 70
0
 10
-42.1817943431
 20
-5.6236201457
 10
-42.160287325
 20
-5.6453931082
 10
-42.1414695143
 20
-5.6678070144
 10
-42.1253409108
 20
-5.6908618641
 10
-42.1120233004
 20
-5.7143233222
 10
-42.1013948974
 20
-5.7384257238
 10
-42.0930903446
 20
-5.7638720749
 10
-42.0869878562
 20
-5.7908967107
 10
-42.0832092182
 20
-5.8192652959
 10
-42.0817544303
 20
-5.8489778305
  0
LWPOLYLINE
  5
5B5
100
AcDbEntity
  8
0
100
AcDbPolyline
 62
7
  6
CONTINUOUS
 90
9
 70
0
 10
-42.4575159357
 20
-6.9312842041
 10
-42.4918289549
 20
-6.8917132887
 10
-42.5244765654
 20
-6.8548235702
 10
-42.5554653986
 20
-6.820615141
 10
-42.5847888232
 20
-6.7890879087
 10
-42.6124269443
 20
-6.7602415957
 10
-42.6383731303
 20
-6.7340761095
 10
-42.662634013
 20
-6.7105915425
 10
-42.6852095921
 20
-6.6897878949
  0
LWPOLYLINE
  5
5B6
100
AcDbEntity
  8
0
100
AcDbPolyline
 62
7
  6
CONTINUOUS
 90
10
 70
0
 10
-43.3737416256
 20
-4.9483167047
 10
-43.3549703153
 20
-4.9699941962
 10
-43.334098105
 20
-4.9907972051
 10
-43.3111249945
 20
-5.0107257315
 10
-43.2862659159
 20
-5.0298048442
 10
-43.2593059371
 20
-5.0480094744
 10
-43.2296002625
 20
-5.0652644154
 10
-43.1969339601
 20
-5.0815445984
 10
-43.161521962
 20
-5.0968750922
 10
-43.123364268
 20
-5.1112558969
  0
LINE
  5
5B7
100
AcDbEntity
  8
0
100
AcDbLine
 62
7
  6
CONTINUOUS
 10
-42.3634604127
 20
-7.0418217852
 11
-42.4575159357
 21
-6.9312842041
  0
LWPOLYLINE
  5
5B8
100
AcDbEntity
  8
0
100
AcDbPolyline
 62
7
  6
CONTINUOUS
 90
10
 70
0
 10
-42.7470471921
 20
-6.0128107987
 10
-42.7553712909
 20
-5.9969076475
 10
-42.7627596845
 20
-5.9805297345
 10
-42.7692123728
 20
-5.9636770597
 10
-42.7747486721
 20
-5.9463697719
 10
-42.7793492662
 20
-5.9285877223
 10
-42.7829562069
 20
-5.9102704643
 10
-42.7855501783
 20
-5.8913978489
 10
-42.7871504964
 20
-5.8719900251
 10
-42.7877571612
 20
-5.8520469929
  0
LINE
  5
5B9
100
AcDbEntity
  8
RACCORDO
100
AcDbLine
 62
250
  6
CONTINUOUS
 10
-46.9759017746
 20
6.2575155804
 11
-47.4196155284
 21
7.3970862093
  0
LWPOLYLINE
  5
5BA
100
AcDbEntity
  8
0
100
AcDbPolyline
 62
7
  6
CONTINUOUS
 90
10
 70
0
 10
-41.9303219664
 20
-5.8489778305
 10
-41.9334122469
 20
-5.7917877068
 10
-41.9407003544
 20
-5.7383265147
 10
-41.9521862889
 20
-5.6885942544
 10
-41.9677637163
 20
-5.6431044062
 10
-41.9875389707
 20
-5.6013434897
 10
-42.0118310546
 20
-5.5617710641
 10
-42.0407463023
 20
-5.5238736493
 10
-42.0741783796
 20
-5.4881647254
 10
-42.1121272864
 20
-5.4546442925
  0
LWPOLYLINE
  5
5BB
100
AcDbEntity
  8
0
100
AcDbPolyline
 62
7
  6
CONTINUOUS
 90
10
 70
0
 10
-41.9303219664
 20
-4.6763990189
 10
-41.9319282432
 20
-4.6370993749
 10
-41.9356409978
 20
-4.6002365495
 10
-41.9414602303
 20
-4.5658105426
 10
-41.9494709461
 20
-4.5340509017
 10
-41.9595881398
 20
-4.5047280794
 10
-41.9715567947
 20
-4.477153433
 10
-41.9852919054
 20
-4.4510974148
 10
-42.0008784773
 20
-4.4267895725
 10
-42.0183165105
 20
-4.404229906
  0
LWPOLYLINE
  5
5BC
100
AcDbEntity
  8
0
100
AcDbPolyline
 62
7
  6
CONTINUOUS
 90
10
 70
0
 10
-41.9303219664
 20
-10.1289912726
 10
-41.9313318358
 20
-10.0979641294
 10
-41.933887354
 20
-10.0681201909
 10
-41.9379885209
 20
-10.039459457
 10
-41.9436369952
 20
-10.0121555284
 10
-41.9508311182
 20
-9.9860348045
 10
-41.959565914
 20
-9.9605764832
 10
-41.969839724
 20
-9.9356069641
 10
-41.9816542067
 20
-9.9112998476
 10
-41.9950093622
 20
-9.8876551339
  0
LINE
  5
5BD
100
AcDbEntity
  8
0
100
AcDbLine
 62
7
  6
CONTINUOUS
 10
-42.1731657747
 20
10.0902785887
 11
-42.1731657747
 21
9.0834895887
  0
LINE
  5
5BE
100
AcDbEntity
  8
0
100
AcDbLine
 62
7
  6
CONTINUOUS
 10
-42.132914058
 20
-6.5283774401
 11
-42.132914058
 21
-7.2640526558
  0
LINE
  5
5BF
100
AcDbEntity
  8
0
100
AcDbLine
 62
7
  6
CONTINUOUS
 10
-41.9559017747
 20
-11.2974770333
 11
-41.9559017747
 21
-11.113302436
  0
LINE
  5
5C0
100
AcDbEntity
  8
0
100
AcDbLine
 62
7
  6
CONTINUOUS
 10
-41.9559017747
 20
-9.5662355686
 11
-41.9559017747
 21
-9.3554579283
  0
LINE
  5
5C1
100
AcDbEntity
  8
0
100
AcDbLine
 62
7
  6
CONTINUOUS
 10
-41.9559017747
 20
-8.388541248
 11
-41.9559017747
 21
-8.16241565
  0
LINE
  5
5C2
100
AcDbEntity
  8
0
100
AcDbLine
 62
7
  6
CONTINUOUS
 10
-41.9559017747
 20
-7.5198509957
 11
-41.9559017747
 21
-6.5283774401
  0
LINE
  5
5C3
100
AcDbEntity
  8
0
100
AcDbLine
 62
7
  6
CONTINUOUS
 10
-41.9559017747
 20
-3.4966583515
 11
-41.9559017747
 21
-3.2930429245
  0
LINE
  5
5C4
100
AcDbEntity
  8
0
100
AcDbLine
 62
7
  6
CONTINUOUS
 10
-41.5671734551
 20
4.7626264505
 11
-41.5671734551
 21
4.2418930763
  0
LINE
  5
5C5
100
AcDbEntity
  8
0
100
AcDbLine
 62
7
  6
CONTINUOUS
 10
-41.4422847747
 20
4.3933795887
 11
-41.4422847747
 21
4.6343115887
  0
LINE
  5
5C6
100
AcDbEntity
  8
TRASH
100
AcDbLine
 62
7
  6
CONTINUOUS
 10
-41.2059017747
 20
-14.6097214113
 11
-41.2059017747
 21
1.3902785887
  0
LINE
  5
5C7
100
AcDbEntity
  8
0
100
AcDbLine
 62
7
  6
CONTINUOUS
 10
-41.0829557747
 20
4.2650655887
 11
-41.0829557747
 21
4.5708675887
  0
LINE
  5
5C8
100
AcDbEntity
  8
RACCORDO
100
AcDbLine
 62
250
  6
CONTINUOUS
 10
-40.9839005634
 20
14.5209670604
 11
-40.9839005634
 21
14.3745966034
  0
LINE
  5
5C9
100
AcDbEntity
  8
RACCORDO
100
AcDbLine
 62
250
  6
CONTINUOUS
 10
-40.9839005634
 20
-27.740409883
 11
-40.9839005634
 21
-27.594039426
  0
LINE
  5
5CA
100
AcDbEntity
  8
RACCORDO
100
AcDbLine
 62
250
  6
CONTINUOUS
 10
-40.9592461012
 20
-27.8062913249
 11
-40.9592461012
 21
-27.968838452
  0
LINE
  5
5CB
100
AcDbEntity
  8
RACCORDO
100
AcDbLine
 62
250
  6
CONTINUOUS
 10
-40.9592461012
 20
14.5868485023
 11
-40.9592461012
 21
14.7493956294
  0
LINE
  5
5CC
100
AcDbEntity
  8
0
100
AcDbLine
 62
7
  6
CONTINUOUS
 10
-40.7381587747
 20
4.9217295887
 11
-40.7381587747
 21
4.7567285887
  0
LINE
  5
5CD
100
AcDbEntity
  8
0
100
AcDbLine
 62
7
  6
CONTINUOUS
 10
-40.5895079176
 20
3.7757450484
 11
-40.5894963043
 21
3.6425545027
  0
LINE
  5
5CE
100
AcDbEntity
  8
0
100
AcDbLine
 62
7
  6
CONTINUOUS
 10
-40.5894963043
 20
3.4972462238
 11
-40.5895079176
 21
3.4249194337
  0
LWPOLYLINE
  5
5CF
100
AcDbEntity
  8
0
100
AcDbPolyline
 62
7
  6
CONTINUOUS
 90
10
 70
0
 10
-42.0817544303
 20
-10.1320609714
 10
-42.082325227
 20
-10.1500401946
 10
-42.0839721061
 20
-10.167710636
 10
-42.0866950674
 20
-10.1850722956
 10
-42.0904602956
 20
-10.2020546492
 10
-42.0953016062
 20
-10.218728221
 10
-42.1013204454
 20
-10.2353045837
 10
-42.1085506287
 20
-10.2518542615
 10
-42.1169583406
 20
-10.2683067303
 10
-42.1265435812
 20
-10.2846619899
  0
LWPOLYLINE
  5
5D0
100
AcDbEntity
  8
0
100
AcDbPolyline
 62
7
  6
CONTINUOUS
 90
10
 70
0
 10
-42.0817544303
 20
-5.8489778305
 10
-42.0828707402
 20
-5.8742725815
 10
-42.0856537887
 20
-5.8983828581
 10
-42.0901035758
 20
-5.9213086604
 10
-42.0961996947
 20
-5.9428915117
 10
-42.1039625521
 20
-5.9632898886
 10
-42.1134533689
 20
-5.9829792214
 10
-42.1246925519
 20
-6.0021179867
 10
-42.1376596943
 20
-6.0205477078
 10
-42.152354796
 20
-6.0382683847
  0
LWPOLYLINE
  5
5D1
100
AcDbEntity
  8
0
100
AcDbPolyline
 62
7
  6
CONTINUOUS
 90
10
 70
0
 10
-42.0817544303
 20
-4.6763990189
 10
-42.0831887119
 20
-4.703670477
 10
-42.0874491439
 20
-4.7299187494
 10
-42.0945357265
 20
-4.7551438361
 10
-42.1041851345
 20
-4.7791517014
 10
-42.1166606931
 20
-4.8021363809
 10
-42.1327523772
 20
-4.8246799818
 10
-42.1527235118
 20
-4.8469765396
 10
-42.1763107719
 20
-4.8688320188
 10
-42.2035141575
 20
-4.8902464192
  0
LINE
  5
5D2
100
AcDbEntity
  8
0
100
AcDbLine
 62
7
  6
CONTINUOUS
 10
-41.1652837747
 20
4.0492135887
 11
-41.1451737747
 21
4.2650655887
  0
LINE
  5
5D3
100
AcDbEntity
  8
0
100
AcDbLine
 62
7
  6
CONTINUOUS
 10
-40.9238042038
 20
6.6405158109
 11
-40.9120312399
 21
6.7668211324
  0
LINE
  5
5D4
100
AcDbEntity
  8
0
100
AcDbLine
 62
7
  6
CONTINUOUS
 10
-41.1033039799
 20
4.7143814144
 11
-40.9380747747
 21
6.4873235887
  0
LWPOLYLINE
  5
5D5
100
AcDbEntity
  8
0
100
AcDbPolyline
 62
7
  6
CONTINUOUS
 90
10
 70
0
 10
-42.1265435812
 20
-10.2846619899
 10
-42.1370631954
 20
-10.3002344843
 10
-42.1485684477
 20
-10.3150395108
 10
-42.161059338
 20
-10.3290770693
 10
-42.1744248628
 20
-10.342306438
 10
-42.1887760257
 20
-10.3547683388
 10
-42.2044458373
 20
-10.3665849375
 10
-42.2215453014
 20
-10.3777969561
 10
-42.2399634143
 20
-10.3883636726
 10
-42.2597001759
 20
-10.3982850871
  0
LWPOLYLINE
  5
5D6
100
AcDbEntity
  8
0
100
AcDbPolyline
 62
7
  6
CONTINUOUS
 90
10
 70
0
 10
-42.7928731279
 20
-9.7892914566
 10
-42.8222372065
 20
-9.8201859406
 10
-42.8479102207
 20
-9.8518209577
 10
-42.8698921707
 20
-9.8841965078
 10
-42.8880094952
 20
-9.9170019465
 10
-42.9024357553
 20
-9.9505479184
 10
-42.9136916349
 20
-9.9857663571
 10
-42.9219506951
 20
-10.0229679072
 10
-42.9270393747
 20
-10.0618419243
 10
-42.9289576738
 20
-10.1023884083
  0
LINE
  5
5D7
100
AcDbEntity
  8
RACCORDO
100
AcDbLine
 62
250
  6
CONTINUOUS
 10
-47.8819734023
 20
-16.448035562
 11
-48.2463063909
 21
-16.8277851599
  0
LWPOLYLINE
  5
5D8
100
AcDbEntity
  8
0
100
AcDbPolyline
 62
7
  6
CONTINUOUS
 90
10
 70
0
 10
-42.098896218
 20
-10.5047976247
 10
-42.0634013967
 20
-10.4710605357
 10
-42.0321953272
 20
-10.4356580153
 10
-42.0052780095
 20
-10.3985900635
 10
-41.9827796631
 20
-10.3603091627
 10
-41.9645700685
 20
-10.3203628305
 10
-41.9502585674
 20
-10.27739362
 10
-41.9397149402
 20
-10.2309490491
 10
-41.9330694066
 20
-10.1814816
 10
-41.9303219664
 20
-10.1289912726
  0
LWPOLYLINE
  5
5D9
100
AcDbEntity
  8
0
100
AcDbPolyline
 62
7
  6
CONTINUOUS
 90
10
 70
0
 10
-43.2312803876
 20
-9.9392651805
 10
-43.2210326375
 20
-9.9302535746
 10
-43.2090459286
 20
-9.9215168785
 10
-43.1953202609
 20
-9.9130550923
 10
-43.1799370071
 20
-9.9048295887
 10
-43.1628147946
 20
-9.8968789949
 10
-43.1437095053
 20
-9.8893191928
 10
-43.1225397665
 20
-9.8821888096
 10
-43.099386951
 20
-9.8754492181
 10
-43.0742510586
 20
-9.8691004182
  0
LWPOLYLINE
  5
5DA
100
AcDbEntity
  8
0
100
AcDbPolyline
 62
7
  6
CONTINUOUS
 90
10
 70
0
 10
-42.6762292012
 20
-9.930492081
 10
-42.6575827895
 20
-9.914333663
 10
-42.6369740854
 20
-9.8998297753
 10
-42.6144030891
 20
-9.8869804178
 10
-42.5900950873
 20
-9.8756750716
 10
-42.5638247933
 20
-9.8660242557
 10
-42.5349163461
 20
-9.858359527
 10
-42.503144459
 20
-9.8527914044
 10
-42.4687344187
 20
-9.8492093689
 10
-42.4316862254
 20
-9.8476134206
  0
LINE
  5
5DB
100
AcDbEntity
  8
RACCORDO
100
AcDbLine
 62
250
  6
CONTINUOUS
 10
-57.5467096313
 20
-23.499165928
 11
-57.9369329141
 21
-23.8116553561
  0
LWPOLYLINE
  5
5DC
100
AcDbEntity
  8
0
100
AcDbPolyline
 62
7
  6
CONTINUOUS
 90
10
 70
0
 10
-42.2597001759
 20
-10.3982850871
 10
-42.2789273861
 20
-10.4065746563
 10
-42.2984000258
 20
-10.4138959542
 10
-42.3181180951
 20
-10.4202489807
 10
-42.3380690902
 20
-10.4256351435
 10
-42.3582655148
 20
-10.430053035
 10
-42.3787448807
 20
-10.4334984317
 10
-42.3995196918
 20
-10.435969926
 10
-42.420577444
 20
-10.4374689255
 10
-42.4419181376
 20
-10.4379954304
  0
LINE
  5
5DD
100
AcDbEntity
  8
ASSI
100
AcDbLine
 62
7
  6
CONTINUOUS
 10
-38.8193437747
 20
-10.1159494113
 11
-40.2309427747
 21
-10.5691634113
  0
LINE
  5
5DE
100
AcDbEntity
  8
ASSI
100
AcDbLine
 62
7
  6
CONTINUOUS
 10
-40.2309427747
 20
-10.9791834113
 11
-38.1808457747
 21
-10.3209694113
  0
LWPOLYLINE
  5
5DF
100
AcDbEntity
  8
0
100
AcDbPolyline
 62
7
  6
CONTINUOUS
 90
16
 70
0
 10
-55.6024811649
 20
0.2478956661
 10
-55.6626834555
 20
0.2460432634
 10
-55.7194084723
 20
0.2394905421
 10
-55.7726562153
 20
0.2282375023
 10
-55.8224818635
 20
0.2123212518
 10
-55.868830238
 20
0.1917046828
 10
-55.9115358013
 20
0.1662764717
 10
-55.9507724399
 20
0.1360995707
 10
-55.9863662674
 20
0.1011110277
 10
-56.0176300878
 20
0.0610106618
 10
-56.0445317571
 20
0.0153241862
 10
-56.0671034193
 20
-0.0354741122
 10
-56.084754311
 20
-0.0902615538
 10
-56.0972875109
 20
-0.1486639119
 10
-56.1048999402
 20
-0.2110554132
 10
-56.1075915989
 20
-0.2774360576
  0
LINE
  5
5E0
100
AcDbEntity
  8
0
100
AcDbLine
 62
7
  6
CONTINUOUS
 10
-56.1075915989
 20
-1.0452472439
 11
-54.3042880098
 21
-1.0452472439
  0
LINE
  5
5E1
100
AcDbEntity
  8
0
100
AcDbLine
 62
7
  6
CONTINUOUS
 10
-54.3042880098
 20
-0.9340574899
 11
-55.1074212289
 21
-0.9340574899
  0
LINE
  5
5E2
100
AcDbEntity
  8
0
100
AcDbLine
 62
7
  6
CONTINUOUS
 10
-55.2034060894
 20
-0.9340574899
 11
-56.0116067385
 21
-0.9340574899
  0
LINE
  5
5E3
100
AcDbEntity
  8
RACCORDO
100
AcDbLine
 62
250
  6
CONTINUOUS
 10
-57.5467096313
 20
10.2797231055
 11
-57.9369329129
 21
10.5922125351
  0
LWPOLYLINE
  5
5E4
100
AcDbEntity
  8
0
100
AcDbPolyline
 62
7
  6
CONTINUOUS
 90
38
 70
0
 10
-55.0869470758
 20
8.0657517336
 10
-55.1865557752
 20
8.1566803856
 10
-55.2920798428
 20
8.2377305622
 10
-55.4035192786
 20
8.3089022633
 10
-55.5219046287
 20
8.3706845961
 10
-55.6462053471
 20
8.4225884535
 10
-55.7733297956
 20
8.4631465144
 10
-55.9031955868
 20
8.4919338219
 10
-56.0358851082
 20
8.509375333
 10
-56.1685538839
 20
8.5152785968
 10
-56.3012758099
 20
8.50946536
 10
-56.4339769901
 20
8.492113876
 10
-56.5635912609
 20
8.4635664543
 10
-56.6899796735
 20
8.42353238
 10
-56.8132811766
 20
8.372302368
 10
-56.9308464528
 20
8.3110908725
 10
-57.0425914715
 20
8.23968946
 10
-57.1486002634
 20
8.1583065641
 10
-57.2464756029
 20
8.0687819392
 10
-57.3360339939
 20
7.9709316891
 10
-57.4174589326
 20
7.8649397101
 10
-57.4889036822
 20
7.7531974454
 10
-57.5501597525
 20
7.6356275201
 10
-57.6014356338
 20
7.512307309
 10
-57.6415100605
 20
7.3858603798
 10
-57.6700757155
 20
7.2561167979
 10
-57.6874399158
 20
7.1232464978
 10
-57.6933033467
 20
6.9903828507
 10
-57.6874704333
 20
6.8575343224
 10
-57.6701367504
 20
6.7246924471
 10
-57.6415897077
 20
6.5949651979
 10
-57.6015408141
 20
6.4685422103
 10
-57.5502785606
 20
6.3452338489
 10
-57.4889558293
 20
6.2275791803
 10
-57.4172534869
 20
6.1155412566
 10
-57.3354906666
 20
6.0091570258
 10
-57.2457776507
 20
5.9110763989
 10
-57.1481694896
 20
5.8216372064
  0
LWPOLYLINE
  5
5E5
100
AcDbEntity
  8
0
100
AcDbPolyline
 62
7
  6
CONTINUOUS
 90
10
 70
0
 10
-42.8614269822
 20
-1.5536160733
 10
-42.848846316
 20
-1.5653593816
 10
-42.8366213111
 20
-1.5776896261
 10
-42.8247519676
 20
-1.5906068069
 10
-42.813232748
 20
-1.6041088402
 10
-42.8020691896
 20
-1.6181978097
 10
-42.791277905
 20
-1.632879967
 10
-42.7808644314
 20
-1.6481573961
 10
-42.7708232314
 20
-1.6640280131
 10
-42.7611543052
 20
-1.680491818
  0
LINE
  5
5E6
100
AcDbEntity
  8
RACCORDO
100
AcDbLine
 62
250
  6
CONTINUOUS
 10
-47.8819734022
 20
3.2285927392
 11
-48.2463063908
 21
3.6083423374
  0
LWPOLYLINE
  5
5E7
100
AcDbEntity
  8
0
100
AcDbPolyline
 62
7
  6
CONTINUOUS
 90
10
 70
0
 10
-42.5258199154
 20
-2.6003420616
 10
-42.5446066139
 20
-2.5804493979
 10
-42.5617134517
 20
-2.5615896028
 10
-42.577140429
 20
-2.5437626762
 10
-42.5908171949
 20
-2.5270203376
 10
-42.6028141001
 20
-2.5113108676
 10
-42.6133421972
 20
-2.4964791081
 10
-42.6224718369
 20
-2.4824733397
 10
-42.6301326684
 20
-2.4693452817
 10
-42.6363246917
 20
-2.4570949341
  0
LWPOLYLINE
  5
5E8
100
AcDbEntity
  8
0
100
AcDbPolyline
 62
7
  6
CONTINUOUS
 90
10
 70
0
 10
-42.0183165105
 20
-4.404229906
 10
-42.0372495724
 20
-4.3825446856
 10
-42.0582481951
 20
-4.3617573166
 10
-42.0813123786
 20
-4.3418677989
 10
-42.1062170383
 20
-4.3228532769
 10
-42.1331872588
 20
-4.3047366062
 10
-42.1628982942
 20
-4.2875863545
 10
-42.195575229
 20
-4.2714253774
 10
-42.2309929787
 20
-4.2562308193
 10
-42.2691515432
 20
-4.24200268
  0
LWPOLYLINE
  5
5E9
100
AcDbEntity
  8
0
100
AcDbPolyline
 62
7
  6
CONTINUOUS
 90
10
 70
0
 10
-42.7611543052
 20
-1.680491818
 10
-42.75225409
 20
-1.6974025013
 10
-42.7445162351
 20
-1.7138866042
 10
-42.7379407403
 20
-1.7299441264
 10
-42.7325886314
 20
-1.7455651151
 10
-42.7283988826
 20
-1.7607595233
 10
-42.725188417
 20
-1.7755572099
 10
-42.7228962091
 20
-1.789968128
 10
-42.7215832843
 20
-1.8039823247
 10
-42.7212496429
 20
-1.8175997998
  0
LWPOLYLINE
  5
5EA
100
AcDbEntity
  8
0
100
AcDbPolyline
 62
7
  6
CONTINUOUS
 90
10
 70
0
 10
-42.6363246917
 20
-2.4570949341
 10
-42.6424685215
 20
-2.4432522212
 10
-42.6478582321
 20
-2.4294577719
 10
-42.6524938233
 20
-2.4157115862
 10
-42.6563566576
 20
-2.4020492029
 10
-42.6594653726
 20
-2.3884350831
 10
-42.6618758812
 20
-2.3747626104
 10
-42.663606821
 20
-2.3609962458
 10
-42.6646395544
 20
-2.3471715282
 10
-42.6649740814
 20
-2.3332884575
  0
LWPOLYLINE
  5
5EB
100
AcDbEntity
  8
0
100
AcDbPolyline
 62
7
  6
CONTINUOUS
 90
10
 70
0
 10
-42.5554923723
 20
-1.686631424
 10
-42.5615322096
 20
-1.6726393858
 10
-42.5685034083
 20
-1.6584565926
 10
-42.5764059684
 20
-1.6440830445
 10
-42.5851980273
 20
-1.6295268833
 10
-42.5949214477
 20
-1.6147799672
 10
-42.6057018175
 20
-1.5998178706
 10
-42.6175809996
 20
-1.5846324519
 10
-42.6305171313
 20
-1.5692318528
 10
-42.6445102124
 20
-1.5536160733
  0
LWPOLYLINE
  5
5EC
100
AcDbEntity
  8
0
100
AcDbPolyline
 62
7
  6
CONTINUOUS
 90
10
 70
0
 10
-40.5492062024
 20
7.1750497449
 10
-40.5492424673
 20
7.1805483616
 10
-40.549351106
 20
7.186045509
 10
-40.5495321184
 20
7.1915411869
 10
-40.5497857273
 20
7.1970384802
 10
-40.55011171
 20
7.2025343041
 10
-40.5505093978
 20
7.2080194044
 10
-40.5509785679
 20
7.2134906964
 10
-40.5515194431
 20
7.2189512647
 10
-40.5521320234
 20
7.2244011096
  0
LINE
  5
5ED
100
AcDbEntity
  8
0
100
AcDbLine
 62
7
  6
CONTINUOUS
 10
-40.4467807747
 20
3.5676105887
 11
-40.4467807747
 21
3.6330405887
  0
LINE
  5
5EE
100
AcDbEntity
  8
ASSI
100
AcDbLine
 62
7
  6
CONTINUOUS
 10
-40.2309477747
 20
-2.9207532473
 11
-40.2309477747
 21
-3.8808844113
  0
LINE
  5
5EF
100
AcDbEntity
  8
ASSI
100
AcDbLine
 62
7
  6
CONTINUOUS
 10
-40.2309477747
 20
-4.8124454113
 11
-40.2309477747
 21
-5.2224814113
  0
LINE
  5
5F0
100
AcDbEntity
  8
ASSI
100
AcDbLine
 62
7
  6
CONTINUOUS
 10
-40.2309427747
 20
-6.1540324113
 11
-40.2309427747
 21
-6.7738654113
  0
LINE
  5
5F1
100
AcDbEntity
  8
ASSI
100
AcDbLine
 62
7
  6
CONTINUOUS
 10
-40.2309427747
 20
-7.5395294113
 11
-40.2309427747
 21
-8.1593624113
  0
LINE
  5
5F2
100
AcDbEntity
  8
ASSI
100
AcDbLine
 62
7
  6
CONTINUOUS
 10
-40.2309427747
 20
-8.5693624113
 11
-40.2309427747
 21
-8.9793784113
  0
LINE
  5
5F3
100
AcDbEntity
  8
ASSI
100
AcDbLine
 62
7
  6
CONTINUOUS
 10
-40.2309427747
 20
-9.2527194113
 11
-40.2309427747
 21
-9.6627404113
  0
LINE
  5
5F4
100
AcDbEntity
  8
ASSI
100
AcDbLine
 62
7
  6
CONTINUOUS
 10
-40.2309427747
 20
-10.5691634113
 11
-40.2309427747
 21
-10.9791834113
  0
LINE
  5
5F5
100
AcDbEntity
  8
0
100
AcDbLine
 62
7
  6
CONTINUOUS
 10
-40.0305717747
 20
3.6330405887
 11
-40.0305717747
 21
3.5676105887
  0
LINE
  5
5F6
100
AcDbEntity
  8
0
100
AcDbLine
 62
7
  6
CONTINUOUS
 10
-39.887892254
 20
3.4249194337
 11
-39.887892254
 21
3.4814296605
  0
LINE
  5
5F7
100
AcDbEntity
  8
0
100
AcDbLine
 62
7
  6
CONTINUOUS
 10
-39.887892254
 20
3.62754724
 11
-39.887892254
 21
3.7757450484
  0
LINE
  5
5F8
100
AcDbEntity
  8
0
100
AcDbLine
 62
7
  6
CONTINUOUS
 10
-39.8640837747
 20
4.7567285887
 11
-39.8640837747
 21
5.0421365887
  0
LINE
  5
5F9
100
AcDbEntity
  8
ASSI
100
AcDbLine
 62
7
  6
CONTINUOUS
 10
-39.8516827747
 20
-3.4765214113
 11
-39.8516827747
 21
-2.9776807926
  0
LINE
  5
5FA
100
AcDbEntity
  8
0
100
AcDbLine
 62
7
  6
CONTINUOUS
 10
-39.5916388998
 20
7.5818034706
 11
-39.5916388998
 21
7.3670934968
  0
LINE
  5
5FB
100
AcDbEntity
  8
0
100
AcDbLine
 62
7
  6
CONTINUOUS
 10
-39.5014138657
 20
3.9005994356
 11
-39.5014138657
 21
3.6835464824
  0
LINE
  5
5FC
100
AcDbEntity
  8
ASSI
100
AcDbLine
 62
7
  6
CONTINUOUS
 10
-39.3528047747
 20
-2.97767203
 11
-39.3528047747
 21
-3.4765164113
  0
LINE
  5
5FD
100
AcDbEntity
  8
RACCORDO
100
AcDbLine
 62
250
  6
CONTINUOUS
 10
-39.3501252675
 20
-25.2024361045
 11
-39.3501252675
 21
-25.7023599521
  0
LINE
  5
5FE
100
AcDbEntity
  8
RACCORDO
100
AcDbLine
 62
250
  6
CONTINUOUS
 10
-39.3501252675
 20
11.9829932819
 11
-39.3501252675
 21
12.4829171295
  0
LINE
  5
5FF
100
AcDbEntity
  8
0
100
AcDbLine
 62
7
  6
CONTINUOUS
 10
-39.3271965005
 20
7.366546221
 11
-39.3271965005
 21
7.5818034706
  0
LINE
  5
600
100
AcDbEntity
  8
0
100
AcDbLine
 62
7
  6
CONTINUOUS
 10
-39.2575683467
 20
3.5199719637
 11
-39.2575683467
 21
3.6142870502
  0
LINE
  5
601
100
AcDbEntity
  8
0
100
AcDbLine
 62
7
  6
CONTINUOUS
 10
-39.2575567334
 20
3.7707382725
 11
-39.2575567334
 21
3.9005870965
  0
LINE
  5
602
100
AcDbEntity
  8
ASSI
100
AcDbLine
 62
7
  6
CONTINUOUS
 10
-38.9735397747
 20
-3.4708174113
 11
-38.9735337747
 21
-3.1129644113
  0
LINE
  5
603
100
AcDbEntity
  8
ASSI
100
AcDbLine
 62
7
  6
CONTINUOUS
 10
-38.9735337747
 20
-4.8187544113
 11
-38.9735337747
 21
-5.2161674113
  0
LINE
  5
604
100
AcDbEntity
  8
0
100
AcDbLine
 62
7
  6
CONTINUOUS
 10
-38.8116422973
 20
3.9005994356
 11
-38.8116422973
 21
4.0433034362
  0
LINE
  5
605
100
AcDbEntity
  8
TRASH
100
AcDbLine
 62
7
  6
CONTINUOUS
 10
-44.3059017747
 20
-28.939451141
 11
-44.342557411
 21
-29.1097214113
  0
LINE
  5
606
100
AcDbEntity
  8
TRASH
100
AcDbLine
 62
7
  6
CONTINUOUS
 10
-50.4226649937
 20
-28.265791913
 11
-50.7028713714
 21
-28.8097214113
  0
LINE
  5
607
100
AcDbEntity
  8
RACCORDO
100
AcDbLine
 62
250
  6
CONTINUOUS
 10
-56.0616782819
 20
-25.2024361045
 11
-56.4244254335
 21
-25.5464395309
  0
LWPOLYLINE
  5
608
100
AcDbEntity
  8
0
100
AcDbPolyline
 62
7
  6
CONTINUOUS
 90
10
 70
0
 10
-39.5014138657
 20
3.6835464824
 10
-39.541797138
 20
3.6745046157
 10
-39.582842773
 20
3.6661979118
 10
-39.6245507706
 20
3.6586263707
 10
-39.6669513574
 20
3.6518302998
 10
-39.7100143068
 20
3.6457693916
 10
-39.7536489392
 20
3.6403227237
 10
-39.7978250279
 20
3.6354499888
 10
-39.8425727995
 20
3.6311914942
 10
-39.887892254
 20
3.62754724
  0
LINE
  5
609
100
AcDbEntity
  8
TRASH
100
AcDbLine
 62
7
  6
CONTINUOUS
 10
-41.2059017747
 20
1.3902785887
 11
-57.7059017747
 21
1.3902785887
  0
LINE
  5
60A
100
AcDbEntity
  8
RACCORDO
100
AcDbLine
 62
250
  6
CONTINUOUS
 10
-56.0616782819
 20
11.9829932819
 11
-56.4244254335
 21
12.3269967083
  0
LINE
  5
60B
100
AcDbEntity
  8
TRASH
100
AcDbLine
 62
7
  6
CONTINUOUS
 10
-50.4226649937
 20
15.0463490904
 11
-50.7028713714
 21
15.5902785887
  0
LINE
  5
60C
100
AcDbEntity
  8
TRASH
100
AcDbLine
 62
7
  6
CONTINUOUS
 10
-44.3059017747
 20
15.7200083184
 11
-44.342557411
 21
15.8902785887
  0
LINE
  5
60D
100
AcDbEntity
  8
0
100
AcDbLine
 62
7
  6
CONTINUOUS
 10
-39.4004153358
 20
7.2244011096
 11
-39.3390885006
 21
6.5114399959
  0
LINE
  5
60E
100
AcDbEntity
  8
0
100
AcDbLine
 62
7
  6
CONTINUOUS
 10
-39.1775237747
 20
4.6331705887
 11
-39.1272907747
 21
4.0492135887
  0
LINE
  5
60F
100
AcDbEntity
  8
0
100
AcDbLine
 62
7
  6
CONTINUOUS
 10
-39.3259707747
 20
6.3588065887
 11
-39.1931617747
 21
4.8149155887
  0
LINE
  5
610
100
AcDbEntity
  8
0
100
AcDbLine
 62
7
  6
CONTINUOUS
 10
-39.0356399928
 20
4.6487487916
 11
-39.1942672537
 21
6.4928289868
  0
LINE
  5
611
100
AcDbEntity
  8
0
100
AcDbLine
 62
7
  6
CONTINUOUS
 10
-38.9835529745
 20
4.0433034362
 11
-39.0200259361
 21
4.4673007071
  0
LINE
  5
612
100
AcDbEntity
  8
0
100
AcDbLine
 62
7
  6
CONTINUOUS
 10
-39.2074084073
 20
6.6455821048
 11
-39.2638714551
 21
7.3018660508
  0
LWPOLYLINE
  5
613
100
AcDbEntity
  8
RACCORDO
100
AcDbPolyline
 62
250
  6
CONTINUOUS
 90
13
 70
0
 10
-37.5359922242
 20
9.3422548209
 10
-37.5383733986
 20
9.4267021484
 10
-37.5454431388
 20
9.5104797701
 10
-37.5572014446
 20
9.5935876861
 10
-37.5737114182
 20
9.6763205777
 10
-37.5949099576
 20
9.7583837635
 10
-37.6206077566
 20
9.8388931992
 10
-37.6508826939
 20
9.9178441982
 10
-37.6856568908
 20
9.995241447
 10
-37.7245074059
 20
10.0702149606
 10
-37.7672932585
 20
10.1424747441
 10
-37.8141554292
 20
10.2123107923
 10
-37.865093918
 20
10.2797231055
  0
LINE
  5
614
100
AcDbEntity
  8
ASSI
100
AcDbLine
 62
7
  6
CONTINUOUS
 10
-38.5840187747
 20
-5.3412324113
 11
-38.5840187747
 21
-4.6936834113
  0
LINE
  5
615
100
AcDbEntity
  8
DRAFT
100
AcDbLine
 62
7
  6
CONTINUOUS
 10
-38.1920512811
 20
-27.1009407329
 11
-38.1920512811
 21
-25.3914465506
  0
LINE
  5
616
100
AcDbEntity
  8
DRAFT
100
AcDbLine
 62
7
  6
CONTINUOUS
 10
-38.1920512811
 20
12.1720037281
 11
-38.1920512811
 21
13.8814979103
  0
LINE
  5
617
100
AcDbEntity
  8
ASSI
100
AcDbLine
 62
7
  6
CONTINUOUS
 10
-38.1808457747
 20
-10.3209694113
 11
-38.1808507747
 21
-9.9109394113
  0
LINE
  5
618
100
AcDbEntity
  8
ASSI
100
AcDbLine
 62
7
  6
CONTINUOUS
 10
-38.1808557747
 20
-4.5642464113
 11
-38.1808507747
 21
-4.1542264113
  0
LINE
  5
619
100
AcDbEntity
  8
ASSI
100
AcDbLine
 62
7
  6
CONTINUOUS
 10
-38.1808457747
 20
-8.9793834113
 11
-38.1808507747
 21
-8.5693674113
  0
LINE
  5
61A
100
AcDbEntity
  8
ASSI
100
AcDbLine
 62
7
  6
CONTINUOUS
 10
-38.1808507747
 20
-7.3617024113
 11
-38.1808557747
 21
-6.9516974113
  0
LINE
  5
61B
100
AcDbEntity
  8
ASSI
100
AcDbLine
 62
7
  6
CONTINUOUS
 10
-38.1808557747
 20
-3.8808844113
 11
-38.1808557747
 21
-3.4708634113
  0
LINE
  5
61C
100
AcDbEntity
  8
ASSI
100
AcDbLine
 62
7
  6
CONTINUOUS
 10
-38.1808507747
 20
-8.1593624113
 11
-38.1808507747
 21
-7.7493474113
  0
LINE
  5
61D
100
AcDbEntity
  8
ASSI
100
AcDbLine
 62
7
  6
CONTINUOUS
 10
-38.1808507747
 20
-6.5640474113
 11
-38.1808507747
 21
-6.1540324113
  0
LINE
  5
61E
100
AcDbEntity
  8
ASSI
100
AcDbLine
 62
7
  6
CONTINUOUS
 10
-38.1808507747
 20
-5.8806904113
 11
-38.1808557747
 21
-5.4706744113
  0
LINE
  5
61F
100
AcDbEntity
  8
ASSI
100
AcDbLine
 62
7
  6
CONTINUOUS
 10
-38.1808557747
 20
-2.7020784113
 11
-38.1808607747
 21
-2.2402594113
  0
LINE
  5
620
100
AcDbEntity
  8
RACCORDO
100
AcDbLine
 62
7
  6
CONTINUOUS
 10
-38.0559017747
 20
14.2902785887
 11
-38.0559017747
 21
12.0223439321
  0
LINE
  5
621
100
AcDbEntity
  8
RACCORDO
100
AcDbLine
 62
7
  6
CONTINUOUS
 10
-38.0559017747
 20
-25.2417867547
 11
-38.0559017747
 21
-27.5097214113
  0
LINE
  5
622
100
AcDbEntity
  8
0
100
AcDbLine
 62
7
  6
CONTINUOUS
 10
-38.0386377747
 20
9.0834895887
 11
-38.0386377747
 21
10.0902785887
  0
LINE
  5
623
100
AcDbEntity
  8
0
100
AcDbLine
 62
7
  6
CONTINUOUS
 10
-37.6357612747
 20
3.0094361496
 11
-37.6357612747
 21
3.1720598309
  0
LINE
  5
624
100
AcDbEntity
  8
RACCORDO
100
AcDbLine
 62
250
  6
CONTINUOUS
 10
-37.5359922242
 20
-22.5616976435
 11
-37.5359922242
 21
9.3422548209
  0
LWPOLYLINE
  5
625
100
AcDbEntity
  8
0
100
AcDbPolyline
 62
7
  6
CONTINUOUS
 90
7
 70
0
 10
-50.9456705665
 20
-17.1667083275
 10
-50.7961729109
 20
-17.1206488009
 10
-50.6234838491
 20
-17.0691407253
 10
-50.4562792329
 20
-17.02100326
 10
-50.2938581968
 20
-16.9760362078
 10
-50.134118144
 20
-16.9336389762
 10
-49.9768347212
 20
-16.8936893714
  0
LINE
  5
626
100
AcDbEntity
  8
0
100
AcDbLine
 62
7
  6
CONTINUOUS
 10
-45.4349688282
 20
3.6742465488
 11
-45.5594241529
 21
3.6441557354
  0
LWPOLYLINE
  5
627
100
AcDbEntity
  8
0
100
AcDbPolyline
 62
7
  6
CONTINUOUS
 90
10
 70
0
 10
-39.887892254
 20
3.4814296605
 10
-39.8512138616
 20
3.4839886308
 10
-39.8148904762
 20
3.4869668891
 10
-39.7789220979
 20
3.4903644355
 10
-39.7432944781
 20
3.494165818
 10
-39.7080218653
 20
3.4983864886
 10
-39.6731470051
 20
3.5030728028
 10
-39.6386841458
 20
3.5082402127
 10
-39.6046190391
 20
3.5138732663
 10
-39.5709516849
 20
3.5199719637
  0
LINE
  5
628
100
AcDbEntity
  8
0
100
AcDbLine
 62
7
  6
CONTINUOUS
 10
-40.5895079176
 20
3.4249194337
 11
-39.887892254
 21
3.4249194337
  0
LINE
  5
629
100
AcDbEntity
  8
0
100
AcDbLine
 62
7
  6
CONTINUOUS
 10
-39.5709516849
 20
3.5199719637
 11
-39.2575683467
 21
3.5199719637
  0
LINE
  5
62A
100
AcDbEntity
  8
0
100
AcDbLine
 62
7
  6
CONTINUOUS
 10
-40.0305717747
 20
3.5676105887
 11
-40.4467807747
 21
3.5676105887
  0
LINE
  5
62B
100
AcDbEntity
  8
0
100
AcDbLine
 62
7
  6
CONTINUOUS
 10
-40.4467807747
 20
3.6330405887
 11
-40.0305717747
 21
3.6330405887
  0
LINE
  5
62C
100
AcDbEntity
  8
0
100
AcDbLine
 62
7
  6
CONTINUOUS
 10
-39.887892254
 20
3.7757450484
 11
-40.5895079176
 21
3.7757450484
  0
LINE
  5
62D
100
AcDbEntity
  8
0
100
AcDbLine
 62
7
  6
CONTINUOUS
 10
-39.2575567334
 20
3.9005870965
 11
-39.1154711401
 21
3.9005870965
  0
LINE
  5
62E
100
AcDbEntity
  8
0
100
AcDbLine
 62
7
  6
CONTINUOUS
 10
-41.1596822861
 20
3.9005994356
 11
-39.5014138657
 21
3.9005994356
  0
LINE
  5
62F
100
AcDbEntity
  8
0
100
AcDbLine
 62
7
  6
CONTINUOUS
 10
-38.9628965763
 20
3.9005994356
 11
-38.8116422973
 21
3.9005994356
  0
LINE
  5
630
100
AcDbEntity
  8
0
100
AcDbLine
 62
7
  6
CONTINUOUS
 10
-49.8523853614
 20
3.644155512
 11
-49.9772156926
 21
3.6743410968
  0
LWPOLYLINE
  5
631
100
AcDbEntity
  8
0
100
AcDbPolyline
 62
7
  6
CONTINUOUS
 90
7
 70
0
 10
-49.9772156926
 20
3.6743410968
 10
-50.1344896979
 20
3.7142927004
 10
-50.2942067028
 20
3.7566877918
 10
-50.4565907391
 20
3.8016485255
 10
-50.6237422229
 20
3.849773582
 10
-50.7963612927
 20
3.9012625214
 10
-50.9456696475
 20
3.9472648263
  0
LWPOLYLINE
  5
632
100
AcDbEntity
  8
0
100
AcDbPolyline
 62
7
  6
CONTINUOUS
 90
10
 70
0
 10
-54.4053567876
 20
9.4794593559
 10
-54.5803792475
 20
9.5947845321
 10
-54.7613428117
 20
9.6971008069
 10
-54.9482474799
 20
9.7864081805
 10
-55.1420612275
 20
9.8630320936
 10
-55.3418160793
 20
9.9266471055
 10
-55.5446081098
 20
9.9762768932
 10
-55.749469344
 20
10.0115960158
 10
-55.957367757
 20
10.0329299143
 10
-56.1683033487
 20
10.0402785887
  0
LWPOLYLINE
  5
633
100
AcDbEntity
  8
TRASH
100
AcDbPolyline
 62
7
  6
CONTINUOUS
 90
10
 70
0
 10
-36.5559017747
 20
9.5099377547
 10
-36.5616709755
 20
9.6597236632
 10
-36.5781622255
 20
9.8070783028
 10
-36.6053755247
 20
9.9520016737
 10
-36.6435782066
 20
10.0952632978
 10
-36.6925029377
 20
10.2360936532
 10
-36.7513477177
 20
10.3721841735
 10
-36.8198452133
 20
10.5027653367
 10
-36.8982627578
 20
10.6286066648
 10
-36.9866003512
 20
10.7497081579
  0
LWPOLYLINE
  5
634
100
AcDbEntity
  8
RACCORDO
100
AcDbPolyline
 62
250
  6
CONTINUOUS
 90
13
 70
0
 10
-37.0360683766
 20
9.3422548209
 10
-37.0392385405
 20
9.4547622408
 10
-37.0487309291
 20
9.5668939567
 10
-37.0645122773
 20
9.6782952514
 10
-37.0865278677
 20
9.7886071305
 10
-37.1147057068
 20
9.8974882908
 10
-37.1489606247
 20
10.0046152224
 10
-37.189185549
 20
10.1096511739
 10
-37.2352529532
 20
10.2122615954
 10
-37.2870243676
 20
10.312134259
 10
-37.344341
 20
10.4089559357
 10
-37.4070217931
 20
10.5024145019
 10
-37.4748706348
 20
10.5922125338
  0
LINE
  5
635
100
AcDbEntity
  8
RACCORDO
100
AcDbLine
 62
250
  6
CONTINUOUS
 10
-37.0360683766
 20
-22.5616976435
 11
-37.0360683766
 21
9.3422548209
  0
LINE
  5
636
100
AcDbEntity
  8
TRASH
100
AcDbLine
 62
7
  6
CONTINUOUS
 10
-36.5559017747
 20
-28.5094925592
 11
-36.5559017747
 21
15.2900497366
  0
LWPOLYLINE
  5
637
100
AcDbEntity
  8
TRASH
100
AcDbPolyline
 62
7
  6
CONTINUOUS
 90
10
 70
0
 10
-36.5559017747
 20
-22.7293805773
 10
-36.5616709755
 20
-22.8791664858
 10
-36.5781622255
 20
-23.0265211254
 10
-36.6053755247
 20
-23.1714444963
 10
-36.6435782066
 20
-23.3147061204
 10
-36.6925029377
 20
-23.4555364758
 10
-36.7513477177
 20
-23.5916269961
 10
-36.8198452133
 20
-23.7222081592
 10
-36.8982627578
 20
-23.8480494874
 10
-36.9866003512
 20
-23.9691509804
  0
LINE
  5
638
100
AcDbEntity
  8
RACCORDO
100
AcDbLine
 62
250
  6
CONTINUOUS
 10
-47.1654971585
 20
-22.4916576626
 11
-47.529830147
 21
-22.8714072606
  0
LINE
  5
639
100
AcDbEntity
  8
RACCORDO
100
AcDbLine
 62
7
  6
CONTINUOUS
 10
-50.4646279779
 20
-25.2024361045
 11
-50.4559017747
 21
-25.1937085721
  0
LINE
  5
63A
100
AcDbEntity
  8
SMUSSO
100
AcDbLine
 62
250
  6
CONTINUOUS
 10
-50.9559017747
 20
-25.7948717962
 11
-50.4559017747
 21
-25.2949479487
  0
LINE
  5
63B
100
AcDbEntity
  8
RACCORDO
100
AcDbLine
 62
250
  6
CONTINUOUS
 10
-58.8559017747
 20
-22.7293805773
 11
-58.3757351727
 21
-22.5616976435
  0
LWPOLYLINE
  5
63C
100
AcDbEntity
  8
0
100
AcDbPolyline
 62
7
  6
CONTINUOUS
 90
13
 70
0
 10
-40.9120312399
 20
6.7668211324
 10
-40.8627674171
 20
6.7760000468
 10
-40.8159589759
 20
6.7904983876
 10
-40.7716059163
 20
6.8103161547
 10
-40.7289998135
 20
6.8358540857
 10
-40.6888490923
 20
6.8667114432
 10
-40.6532790271
 20
6.9016860147
 10
-40.6226682933
 20
6.9411378322
 10
-40.5966382155
 20
6.9847068639
 10
-40.5761780426
 20
7.0301108018
 10
-40.5616175243
 20
7.0765888766
 10
-40.5526269109
 20
7.1249018576
 10
-40.5492062024
 20
7.1750497449
  0
LWPOLYLINE
  5
63D
100
AcDbEntity
  8
0
100
AcDbPolyline
 62
7
  6
CONTINUOUS
 90
31
 70
0
 10
-56.1683033487
 20
3.9402785902
 10
-55.9432439868
 20
3.9489478619
 10
-55.7219176382
 20
3.9733113089
 10
-55.5043243029
 20
4.0133689311
 10
-55.2894429312
 20
4.0693974706
 10
-55.0782945728
 20
4.1411201854
 10
-54.873942377
 20
4.2277068495
 10
-54.6764787887
 20
4.3294727887
 10
-54.4858113629
 20
4.4461026772
 10
-54.3047259145
 20
4.5758203121
 10
-54.1331063871
 20
4.718998153
 10
-53.9710688371
 20
4.8752637403
 10
-53.8217472489
 20
5.0417234928
 10
-53.6855670955
 20
5.218394359
 10
-53.562102904
 20
5.4052593904
 10
-53.4532122393
 20
5.59937416
 10
-53.359125624
 20
5.8007333173
 10
-53.2796125356
 20
6.0093422129
 10
-53.2158389719
 20
6.2222724709
 10
-53.1680469813
 20
6.439742856
 10
-53.1359945153
 20
6.6615346036
 10
-53.1201214259
 20
6.8840630441
 10
-53.1206545459
 20
7.1075193073
 10
-53.1373670424
 20
7.3317122634
 10
-53.1700182687
 20
7.5524838529
 10
-53.2188522865
 20
7.7694311521
 10
-53.2836250342
 20
7.9829570847
 10
-53.3633636802
 20
8.1901123627
 10
-53.4577439474
 20
8.3899138901
 10
-53.567090113
 20
8.5833447628
 10
-53.6914021769
 20
8.770404981
  0
LINE
  5
63E
100
AcDbEntity
  8
0
100
AcDbLine
 62
7
  6
CONTINUOUS
 10
-38.8116422973
 20
4.0433034362
 11
-38.9835529745
 21
4.0433034362
  0
LINE
  5
63F
100
AcDbEntity
  8
0
100
AcDbLine
 62
7
  6
CONTINUOUS
 10
-39.1272907747
 20
4.0492135887
 11
-41.1652837747
 21
4.0492135887
  0
LINE
  5
640
100
AcDbEntity
  8
0
100
AcDbLine
 62
7
  6
CONTINUOUS
 10
-41.383489814
 20
4.2650532359
 11
-41.2885200288
 21
4.2650532359
  0
LINE
  5
641
100
AcDbEntity
  8
0
100
AcDbLine
 62
7
  6
CONTINUOUS
 10
-41.1451737747
 20
4.2650655887
 11
-41.0829557747
 21
4.2650655887
  0
LINE
  5
642
100
AcDbEntity
  8
0
100
AcDbLine
 62
7
  6
CONTINUOUS
 10
-41.4184647747
 20
4.3933795887
 11
-41.4422847747
 21
4.3933795887
  0
LINE
  5
643
100
AcDbEntity
  8
0
100
AcDbLine
 62
7
  6
CONTINUOUS
 10
-41.4422847747
 20
4.6343115887
 11
-41.2540937747
 21
4.6343115887
  0
LINE
  5
644
100
AcDbEntity
  8
0
100
AcDbLine
 62
7
  6
CONTINUOUS
 10
-40.7381587747
 20
4.7567285887
 11
-39.8640837747
 21
4.7567285887
  0
LINE
  5
645
100
AcDbEntity
  8
0
100
AcDbLine
 62
7
  6
CONTINUOUS
 10
-41.2421532774
 20
4.7626264505
 11
-41.5671734551
 21
4.7626264505
  0
LINE
  5
646
100
AcDbEntity
  8
0
100
AcDbLine
 62
7
  6
CONTINUOUS
 10
-39.8640837747
 20
5.0421365887
 11
-40.6198447747
 21
5.0421365887
  0
LINE
  5
647
100
AcDbEntity
  8
RACCORDO
100
AcDbLine
 62
250
  6
CONTINUOUS
 10
-42.4602274589
 20
5.3902785887
 11
-42.9864862203
 21
5.3902785887
  0
LINE
  5
648
100
AcDbEntity
  8
RACCORDO
100
AcDbLine
 62
250
  6
CONTINUOUS
 10
-43.2279805372
 20
5.390278589
 11
-43.7059017747
 21
5.3902785887
  0
LINE
  5
649
100
AcDbEntity
  8
RACCORDO
100
AcDbLine
 62
250
  6
CONTINUOUS
 10
-47.2059017747
 20
5.3902785887
 11
-47.6838230129
 21
5.3902785887
  0
LINE
  5
64A
100
AcDbEntity
  8
RACCORDO
100
AcDbLine
 62
250
  6
CONTINUOUS
 10
-47.7279805378
 20
5.3902785889
 11
-48.2059017747
 21
5.3902785887
  0
LINE
  5
64B
100
AcDbEntity
  8
RACCORDO
100
AcDbLine
 62
250
  6
CONTINUOUS
 10
-51.7059017747
 20
5.3902785887
 11
-52.1838230129
 21
5.3902785887
  0
LINE
  5
64C
100
AcDbEntity
  8
RACCORDO
100
AcDbLine
 62
250
  6
CONTINUOUS
 10
-52.425317329
 20
5.3902785887
 11
-52.9515760904
 21
5.3902785887
  0
LINE
  5
64D
100
AcDbEntity
  8
0
100
AcDbLine
 62
7
  6
CONTINUOUS
 10
-43.7173896618
 20
5.5902785887
 11
-44.2059017747
 21
5.5902785887
  0
LINE
  5
64E
100
AcDbEntity
  8
0
100
AcDbLine
 62
7
  6
CONTINUOUS
 10
-51.2059017747
 20
5.5902785887
 11
-51.6944138875
 21
5.5902785887
  0
LWPOLYLINE
  5
64F
100
AcDbEntity
  8
0
100
AcDbPolyline
 62
7
  6
CONTINUOUS
 90
19
 70
0
 10
-40.5894963043
 20
3.6425545027
 10
-40.6345715229
 20
3.6488428267
 10
-40.6782077844
 20
3.6558164885
 10
-40.7204050886
 20
3.6634754882
 10
-40.7611010008
 20
3.6717259637
 10
-40.8003579557
 20
3.6806617772
 10
-40.8383632581
 20
3.6905645146
 10
-40.875170613
 20
3.701416659
 10
-40.9107263152
 20
3.7132357273
 10
-40.9450565545
 20
3.726355857
 10
-40.9785717374
 20
3.7409027888
 10
-41.0108614572
 20
3.7567507819
 10
-41.0407206846
 20
3.7738567514
 10
-41.0679974969
 20
3.7922887233
 10
-41.0928438167
 20
3.8119786716
 10
-41.1145103817
 20
3.8326794333
 10
-41.1327474379
 20
3.8543086207
 10
-41.1478047394
 20
3.8769486214
 10
-41.1596822861
 20
3.9005994356
  0
LWPOLYLINE
  5
650
100
AcDbEntity
  8
0
100
AcDbPolyline
 62
7
  6
CONTINUOUS
 90
9
 70
0
 10
-41.4356320555
 20
3.6869426768
 10
-41.4074758648
 20
3.6810949872
 10
-41.3794247725
 20
3.6793799149
 10
-41.3514987901
 20
3.682077071
 10
-41.323677906
 20
3.6889068443
 10
-41.2977492361
 20
3.6993814777
 10
-41.2743084858
 20
3.7133383855
 10
-41.2527599497
 20
3.7309401534
 10
-41.2331036279
 20
3.7521867815
  0
LWPOLYLINE
  5
651
100
AcDbEntity
  8
0
100
AcDbPolyline
 62
7
  6
CONTINUOUS
 90
23
 70
0
 10
-41.3090341643
 20
4.045051235
 10
-41.3364568763
 20
4.0539913918
 10
-41.3637483259
 20
4.058882142
 10
-41.3909085133
 20
4.0597234856
 10
-41.418522672
 20
4.056378418
 10
-41.4460055684
 20
4.0489839437
 10
-41.4716015019
 20
4.0379510763
 10
-41.4951913235
 20
4.023026416
 10
-41.5168941822
 20
4.0044633625
 10
-41.5353118236
 20
3.9834331281
 10
-41.550229857
 20
3.9597746036
 10
-41.5618626732
 20
3.9336488982
 10
-41.5694551901
 20
3.9067105522
 10
-41.5727432951
 20
3.8789009433
 10
-41.5719911009
 20
3.8502786939
 10
-41.5672358634
 20
3.8226742111
 10
-41.5582184772
 20
3.7961609388
 10
-41.5451980477
 20
3.7706654333
 10
-41.5289891475
 20
3.7477977698
 10
-41.5093811609
 20
3.7277100739
 10
-41.4865847035
 20
3.7102502202
 10
-41.4620461941
 20
3.6965719075
 10
-41.4356320555
 20
3.6869426768
  0
LINE
  5
652
100
AcDbEntity
  8
RACCORDO
100
AcDbLine
 62
250
  6
CONTINUOUS
 10
-58.8559017747
 20
9.5099377547
 11
-58.536258725
 21
9.3985073928
  0
LINE
  5
653
100
AcDbEntity
  8
RACCORDO
100
AcDbLine
 62
250
  6
CONTINUOUS
 10
-58.536258725
 20
9.3985073928
 11
-58.3757351727
 21
9.3422548209
  0
LWPOLYLINE
  5
654
100
AcDbEntity
  8
ASSI
100
AcDbPolyline
 62
7
  6
CONTINUOUS
 90
7
 70
0
 10
-45.1453892189
 20
6.807311221
 10
-45.1486089801
 20
6.8096505375
 10
-45.1512282756
 20
6.8120984247
 10
-45.153257104
 20
6.8146480063
 10
-45.1547055229
 20
6.8172917111
 10
-45.1555836684
 20
6.8200212953
 10
-45.1559017747
 20
6.822827866
  0
LINE
  5
655
100
AcDbEntity
  8
SMUSSO
100
AcDbLine
 62
250
  6
CONTINUOUS
 10
-50.9559017747
 20
12.5754289736
 11
-50.4559017747
 21
12.0755051261
  0
LINE
  5
656
100
AcDbEntity
  8
RACCORDO
100
AcDbLine
 62
7
  6
CONTINUOUS
 10
-50.4646279779
 20
11.9829932819
 11
-50.4559017747
 21
11.9742657495
  0
LWPOLYLINE
  5
657
100
AcDbEntity
  8
0
100
AcDbPolyline
 62
7
  6
CONTINUOUS
 90
13
 70
0
 10
-41.2331036279
 20
3.7521867815
 10
-41.1998229442
 20
3.7178136972
 10
-41.162164919
 20
3.6859131354
 10
-41.1201295524
 20
3.6564850961
 10
-41.0732134281
 20
3.6295657164
 10
-41.0219199624
 20
3.6051188593
 10
-40.9677594038
 20
3.5830361133
 10
-40.9110911424
 20
3.5633821906
 10
-40.8515557882
 20
3.546092379
 10
-40.7895854195
 20
3.5308641313
 10
-40.7253240623
 20
3.5175965983
 10
-40.6586276906
 20
3.5063906291
 10
-40.5894963043
 20
3.4972462238
  0
LINE
  5
658
100
AcDbEntity
  8
RACCORDO
100
AcDbLine
 62
250
  6
CONTINUOUS
 10
-47.1654971585
 20
9.27221484
 11
-47.5298301471
 21
9.6519644382
  0
LWPOLYLINE
  5
659
100
AcDbEntity
  8
0
100
AcDbPolyline
 62
7
  6
CONTINUOUS
 90
10
 70
0
 10
-39.2638714551
 20
7.3018660508
 10
-39.2656447603
 20
7.311430815
 10
-39.2689653696
 20
7.32066851
 10
-39.2738332828
 20
7.3295791357
 10
-39.2805573018
 20
7.3385192925
 10
-39.2888286248
 20
7.3471323801
 10
-39.2977208466
 20
7.3543485969
 10
-39.3069251657
 20
7.3598113424
 10
-39.3167503837
 20
7.3638772171
 10
-39.3271965005
 20
7.366546221
  0
LWPOLYLINE
  5
65A
100
AcDbEntity
  8
ASSI
100
AcDbPolyline
 62
7
  6
CONTINUOUS
 90
6
 70
0
 10
-45.1453892189
 20
-20.0267540436
 10
-45.138726127
 20
-20.0231719887
 10
-45.1304434213
 20
-20.0200855052
 10
-45.1205162869
 20
-20.0174782261
 10
-45.1088575641
 20
-20.0153152022
 10
-45.0955130369
 20
-20.0135803805
  0
LINE
  5
65B
100
AcDbEntity
  8
RACCORDO
100
AcDbLine
 62
250
  6
CONTINUOUS
 10
-58.4252031981
 20
-23.9691509804
 11
-57.9369329141
 21
-23.8116553561
  0
LINE
  5
65C
100
AcDbEntity
  8
0
100
AcDbLine
 62
7
  6
CONTINUOUS
 10
-49.6240432694
 20
7.1076321886
 11
-50.617673207
 21
6.8413898493
  0
LINE
  5
65D
100
AcDbEntity
  8
ASSI
100
AcDbLine
 62
7
  6
CONTINUOUS
 10
-50.5857780643
 20
6.8383095847
 11
-50.5522556147
 21
6.84478949
  0
LWPOLYLINE
  5
65E
100
AcDbEntity
  8
ASSI
100
AcDbPolyline
 62
7
  6
CONTINUOUS
 90
5
 70
0
 10
-50.6780157023
 20
6.8206364329
 10
-50.6589828171
 20
6.8240894124
 10
-50.6402517506
 20
6.8276040607
 10
-50.621814771
 20
6.831159179
 10
-50.5857780643
 20
6.8383095847
  0
LWPOLYLINE
  5
65F
100
AcDbEntity
  8
ASSI
100
AcDbPolyline
 62
7
  6
CONTINUOUS
 90
18
 70
0
 10
-50.5522556147
 20
6.84478949
 10
-50.5204355185
 20
6.8503724229
 10
-50.4902402246
 20
6.855037307
 10
-50.4614510419
 20
6.8587935586
 10
-50.4341298218
 20
6.8616007163
 10
-50.4086261045
 20
6.8633798842
 10
-50.384895255
 20
6.8641336902
 10
-50.3628491116
 20
6.8638966842
 10
-50.3427933206
 20
6.8626726053
 10
-50.3247319028
 20
6.860500096
 10
-50.3085786814
 20
6.8574723341
 10
-50.2945430346
 20
6.8537087787
 10
-50.2827064065
 20
6.8492790765
 10
-50.2729844064
 20
6.8443276955
 10
-50.2653957369
 20
6.8390913074
 10
-50.2599878642
 20
6.8337134732
 10
-50.2568068269
 20
6.8282580897
 10
-50.2560063609
 20
6.8251363686
  0
LWPOLYLINE
  5
660
100
AcDbEntity
  8
ASSI
100
AcDbPolyline
 62
250
  6
CONTINUOUS
 90
3
 70
0
 10
-45.3154932612
 20
6.7902785887
 10
-45.3143277638
 20
6.7904754705
 10
-45.3088598337
 20
6.7910852072
  0
LINE
  5
661
100
AcDbEntity
  8
ASSI
100
AcDbLine
 62
250
  6
CONTINUOUS
 10
-45.3088598337
 20
6.7910852072
 11
-45.2643156537
 21
6.7956098938
  0
LINE
  5
662
100
AcDbEntity
  8
ASSI
100
AcDbLine
 62
250
  6
CONTINUOUS
 10
-45.2643156537
 20
6.7956098938
 11
-45.1453892189
 21
6.807311221
  0
LINE
  5
663
100
AcDbEntity
  8
ASSI
100
AcDbLine
 62
250
  6
CONTINUOUS
 10
-44.8260254851
 20
6.8383095847
 11
-44.7941303423
 21
6.8413898493
  0
LWPOLYLINE
  5
664
100
AcDbEntity
  8
ASSI
100
AcDbPolyline
 62
7
  6
CONTINUOUS
 90
7
 70
0
 10
-50.3162905124
 20
6.794137558
 10
-50.3311235078
 20
6.7928106754
 10
-50.3474861978
 20
6.7918318595
 10
-50.3653187405
 20
6.791144376
 10
-50.3842327493
 20
6.7906998155
 10
-50.4040668721
 20
6.7904402198
 10
-50.4249048369
 20
6.7903132824
  0
LWPOLYLINE
  5
665
100
AcDbEntity
  8
0
100
AcDbPolyline
 62
7
  6
CONTINUOUS
 90
16
 70
0
 10
-56.1683033487
 20
5.4652785899
 10
-56.0505551623
 20
5.4698621536
 10
-55.9348822973
 20
5.4831013
 10
-55.8212847539
 20
5.5049960292
 10
-55.7091737884
 20
5.5357454004
 10
-55.5991381443
 20
5.5751503544
 10
-55.4929440529
 20
5.6226137129
 10
-55.3905976701
 20
5.6783078198
 10
-55.29209284
 20
5.7420603314
 10
-55.1991773252
 20
5.8127570372
 10
-55.111885608
 20
5.8906334229
 10
-55.0301832061
 20
5.975454003
 10
-54.9557144355
 20
6.0653981107
 10
-54.8890274014
 20
6.1598588571
 10
-54.8295739986
 20
6.2594431312
 10
-54.777354227
 20
6.3641509328
  0
LINE
  5
666
100
AcDbEntity
  8
RACCORDO
100
AcDbLine
 62
250
  6
CONTINUOUS
 10
-43.2464835007
 20
7.4019244993
 11
-43.4921880218
 21
7.3970862093
  0
LINE
  5
667
100
AcDbEntity
  8
RACCORDO
100
AcDbLine
 62
250
  6
CONTINUOUS
 10
-47.7464835007
 20
7.4019244993
 11
-47.9921877921
 21
7.3970862138
  0
LINE
  5
668
100
AcDbEntity
  8
0
100
AcDbLine
 62
250
  6
CONTINUOUS
 10
-44.3433366055
 20
6.7402785887
 11
-45.9559017747
 21
6.7402785887
  0
LINE
  5
669
100
AcDbEntity
  8
0
100
AcDbLine
 62
250
  6
CONTINUOUS
 10
-49.4559017747
 20
6.7402785887
 11
-51.0684669438
 21
6.7402785887
  0
LINE
  5
66A
100
AcDbEntity
  8
0
100
AcDbLine
 62
7
  6
CONTINUOUS
 10
-45.0026219715
 20
6.7902785887
 11
-45.9559017747
 21
6.7902785887
  0
LINE
  5
66B
100
AcDbEntity
  8
0
100
AcDbLine
 62
7
  6
CONTINUOUS
 10
-49.4559017747
 20
6.7902785887
 11
-50.4091815778
 21
6.7902785887
  0
LINE
  5
66C
100
AcDbEntity
  8
ASSI
100
AcDbLine
 62
7
  6
CONTINUOUS
 10
-50.4249048369
 20
6.7903132824
 11
-50.9559017747
 21
6.7902785887
  0
LINE
  5
66D
100
AcDbEntity
  8
0
100
AcDbLine
 62
7
  6
CONTINUOUS
 10
-40.5521320234
 20
7.2244011096
 11
-39.4004153358
 21
7.2244011096
  0
LINE
  5
66E
100
AcDbEntity
  8
0
100
AcDbLine
 62
7
  6
CONTINUOUS
 10
-39.5916388998
 20
7.3670934968
 11
-40.5967502502
 21
7.3670934968
  0
LINE
  5
66F
100
AcDbEntity
  8
RACCORDO
100
AcDbLine
 62
250
  6
CONTINUOUS
 10
-42.4602274589
 20
7.4902785887
 11
-42.9864862203
 21
7.4902785887
  0
LINE
  5
670
100
AcDbEntity
  8
RACCORDO
100
AcDbLine
 62
250
  6
CONTINUOUS
 10
-52.425317329
 20
7.4902785887
 11
-52.9515760904
 21
7.4902785887
  0
LWPOLYLINE
  5
671
100
AcDbEntity
  8
ASSI
100
AcDbPolyline
 62
7
  6
CONTINUOUS
 90
6
 70
0
 10
-44.4559017747
 20
6.7902785887
 10
-44.9941511228
 20
6.7903443707
 10
-45.0212904007
 20
6.7905979919
 10
-45.0464265032
 20
6.7911417536
 10
-45.0697517988
 20
6.7921174394
 10
-45.0909151588
 20
6.7936776011
  0
LINE
  5
672
100
AcDbEntity
  8
RACCORDO
100
AcDbLine
 62
250
  6
CONTINUOUS
 10
-52.1653200485
 20
7.4019244991
 11
-51.9196126513
 21
7.3970861526
  0
LINE
  5
673
100
AcDbEntity
  8
RACCORDO
100
AcDbLine
 62
250
  6
CONTINUOUS
 10
-47.6653200486
 20
7.4019244992
 11
-47.4196137033
 21
7.3970861733
  0
LINE
  5
674
100
AcDbEntity
  8
ASSI
100
AcDbLine
 62
250
  6
CONTINUOUS
 10
-50.5857780643
 20
6.8383095847
 11
-50.617673207
 21
6.8413898493
  0
LWPOLYLINE
  5
675
100
AcDbEntity
  8
ASSI
100
AcDbPolyline
 62
7
  6
CONTINUOUS
 90
5
 70
0
 10
-45.0909151588
 20
6.7936776011
 10
-45.1091007213
 20
6.7959071441
 10
-45.1240851703
 20
6.7988625707
 10
-45.1361655946
 20
6.8026447976
 10
-45.1453892189
 20
6.807311221
  0
LWPOLYLINE
  5
676
100
AcDbEntity
  8
ASSI
100
AcDbPolyline
 62
250
  6
CONTINUOUS
 90
5
 70
0
 10
-50.0963102881
 20
6.7902785887
 10
-50.0974757855
 20
6.7904754705
 10
-50.1029437157
 20
6.7910852072
 10
-50.1129656787
 20
6.7921313795
 10
-50.2664143304
 20
6.807311221
  0
LINE
  5
677
100
AcDbEntity
  8
ASSI
100
AcDbLine
 62
7
  6
CONTINUOUS
 10
-44.8587038436
 20
6.8446261811
 11
-44.8425298227
 21
6.841565193
  0
LINE
  5
678
100
AcDbEntity
  8
ASSI
100
AcDbLine
 62
7
  6
CONTINUOUS
 10
-44.7907256108
 20
6.8313105785
 11
-44.7539949957
 21
6.8243115312
  0
LINE
  5
679
100
AcDbEntity
  8
ASSI
100
AcDbLine
 62
7
  6
CONTINUOUS
 10
-44.8425298227
 20
6.841565193
 11
-44.7907256108
 21
6.8313105785
  0
LINE
  5
67A
100
AcDbEntity
  8
0
100
AcDbLine
 62
7
  6
CONTINUOUS
 10
-44.7941303423
 20
6.8413898493
 11
-45.7877602799
 21
7.1076321886
  0
LWPOLYLINE
  5
67B
100
AcDbEntity
  8
RACCORDO
100
AcDbPolyline
 62
250
  6
CONTINUOUS
 90
3
 70
0
 10
-58.4252031981
 20
10.7497081579
 10
-58.0186280172
 20
10.6186656279
 10
-57.9369329141
 20
10.5922125335
  0
LINE
  5
67C
100
AcDbEntity
  8
0
100
AcDbLine
 62
7
  6
CONTINUOUS
 10
-42.3524018408
 20
7.9768321372
 11
-41.0686014984
 21
6.6247711048
  0
LINE
  5
67D
100
AcDbEntity
  8
0
100
AcDbLine
 62
7
  6
CONTINUOUS
 10
-40.9380747747
 20
6.4873235887
 11
-40.1635607747
 21
5.6716265887
  0
LINE
  5
67E
100
AcDbEntity
  8
0
100
AcDbLine
 62
7
  6
CONTINUOUS
 10
-40.0837887747
 20
5.5876225887
 11
-39.1775237747
 21
4.6331705887
  0
LINE
  5
67F
100
AcDbEntity
  8
0
100
AcDbLine
 62
7
  6
CONTINUOUS
 10
-39.0200259361
 20
4.4673007071
 11
-37.6357612747
 21
3.0094361496
  0
LINE
  5
680
100
AcDbEntity
  8
0
100
AcDbLine
 62
7
  6
CONTINUOUS
 10
-41.3655683435
 20
7.1065161428
 11
-42.2672314874
 21
8.0576620266
  0
LINE
  5
681
100
AcDbEntity
  8
0
100
AcDbLine
 62
7
  6
CONTINUOUS
 10
-37.6357612747
 20
3.1720598309
 11
-39.0356399928
 21
4.6487487916
  0
LINE
  5
682
100
AcDbEntity
  8
0
100
AcDbLine
 62
7
  6
CONTINUOUS
 10
-39.1931617747
 20
4.8149155887
 11
-40.0033157747
 21
5.6695225887
  0
LINE
  5
683
100
AcDbEntity
  8
0
100
AcDbLine
 62
7
  6
CONTINUOUS
 10
-40.0830519945
 20
5.7536341966
 11
-40.9238042038
 21
6.6405158109
  0
LWPOLYLINE
  5
684
100
AcDbEntity
  8
SMUSSO
100
AcDbPolyline
 62
7
  6
CONTINUOUS
 90
14
 70
0
 10
-44.9559017747
 20
12.0755051261
 10
-44.9567834635
 20
12.0767218262
 10
-44.9594146026
 20
12.0779317521
 10
-44.9637735424
 20
12.0791349038
 10
-44.9698334685
 20
12.0803312747
 10
-44.9775729441
 20
12.0815208713
 10
-44.9869862696
 20
12.0827037134
 10
-44.9980500842
 20
12.0838791047
 10
-45.0107525637
 20
12.0850477414
 10
-45.0251314139
 20
12.0862117323
 10
-45.0412046215
 20
12.0873724196
 10
-45.0589551316
 20
12.0885284611
 10
-45.0783862059
 20
12.089677939
 10
-45.1223420479
 20
12.0919601716
  0
LWPOLYLINE
  5
685
100
AcDbEntity
  8
0
100
AcDbPolyline
 62
7
  6
CONTINUOUS
 90
25
 70
0
 10
-40.5967502502
 20
7.3670934968
 10
-40.6222229346
 20
7.4086350455
 10
-40.6515722427
 20
7.4462123915
 10
-40.6847981746
 20
7.4798255349
 10
-40.7225459732
 20
7.5099325085
 10
-40.7641703955
 20
7.5360752795
 10
-40.8077357128
 20
7.5568797496
 10
-40.8531722257
 20
7.5719579735
 10
-40.9005496336
 20
7.5816978965
 10
-40.9481413055
 20
7.5858892558
 10
-40.9960267754
 20
7.5843928181
 10
-41.0441265094
 20
7.5773478168
 10
-41.0904752748
 20
7.5649616897
 10
-41.134994632
 20
7.5469926417
 10
-41.1777630208
 20
7.523682468
 10
-41.2170505274
 20
7.4959639911
 10
-41.2527340784
 20
7.4636662628
 10
-41.2849367473
 20
7.4269602315
 10
-41.3122978416
 20
7.3872915643
 10
-41.3346045975
 20
7.344528795
 10
-41.3520697787
 20
7.2988033898
 10
-41.363970984
 20
7.2519554153
 10
-41.3700674131
 20
7.2045982271
 10
-41.3705998662
 20
7.1561184696
 10
-41.3655683435
 20
7.1065161428
  0
LWPOLYLINE
  5
686
100
AcDbEntity
  8
SMUSSO
100
AcDbPolyline
 62
7
  6
CONTINUOUS
 90
15
 70
0
 10
-44.4559017747
 20
12.5754289736
 10
-44.4567664826
 20
12.5768668667
 10
-44.45964804
 20
12.578296831
 10
-44.4645464469
 20
12.5797188666
 10
-44.4714792032
 20
12.581132967
 10
-44.480428809
 20
12.5825391386
 10
-44.4913427642
 20
12.5839374012
 10
-44.5041955568
 20
12.5853269312
 10
-44.5190126989
 20
12.5867085523
 10
-44.5358182266
 20
12.5880847543
 10
-44.5546202048
 20
12.5894571242
 10
-44.5754105685
 20
12.5908240751
 10
-44.5981891586
 20
12.5921833365
 10
-44.62300528
 20
12.5935366639
 10
-44.6784541283
 20
12.5962127134
  0
LINE
  5
687
100
AcDbEntity
  8
0
100
AcDbLine
 62
7
  6
CONTINUOUS
 10
-44.4792353906
 20
-29.1197777478
 11
-44.4059017747
 21
-29.0097214113
  0
LWPOLYLINE
  5
688
100
AcDbEntity
  8
RACCORDO
100
AcDbPolyline
 62
250
  6
CONTINUOUS
 90
10
 70
0
 10
-54.4279029859
 20
-27.594039426
 10
-54.4713559337
 20
-27.6155697625
 10
-54.5139676035
 20
-27.6331715317
 10
-54.5553583247
 20
-27.6462636171
 10
-54.5953661107
 20
-27.6540962819
 10
-54.6335090995
 20
-27.6566213706
 10
-54.6689444546
 20
-27.6543495911
 10
-54.7012313343
 20
-27.6472589339
 10
-54.7303793657
 20
-27.6349564793
 10
-54.7562773239
 20
-27.6174398091
  0
LWPOLYLINE
  5
689
100
AcDbEntity
  8
RACCORDO
100
AcDbPolyline
 62
250
  6
CONTINUOUS
 90
10
 70
0
 10
-55.8691584568
 20
-26.2097041901
 10
-55.9165438868
 20
-26.2302734328
 10
-55.9633027397
 20
-26.2458956574
 10
-56.0088167239
 20
-26.2563642913
 10
-56.0524840085
 20
-26.2615409081
 10
-56.0937271818
 20
-26.2613570574
 10
-56.1320008858
 20
-26.2558151702
 10
-56.1667990281
 20
-26.2449885268
 10
-56.1976614731
 20
-26.2290202879
 10
-56.2241801274
 20
-26.2081216011
  0
LINE
  5
68A
100
AcDbEntity
  8
0
100
AcDbLine
 62
7
  6
CONTINUOUS
 10
-39.3271965005
 20
7.5818034706
 11
-39.5916388998
 21
7.5818034706
  0
LINE
  5
68B
100
AcDbEntity
  8
0
100
AcDbLine
 62
7
  6
CONTINUOUS
 10
-42.1731657747
 20
9.0834895887
 11
-38.0386377747
 21
9.0834895887
  0
LWPOLYLINE
  5
68C
100
AcDbEntity
  8
0
100
AcDbPolyline
 62
7
  6
CONTINUOUS
 90
10
 70
0
 10
-56.1683033487
 20
9.0236115574
 10
-56.0084435447
 20
9.0172611588
 10
-55.8513697686
 20
8.998899688
 10
-55.6970820206
 20
8.9685271449
 10
-55.5445959864
 20
8.9257807158
 10
-55.3948959803
 20
8.8710232145
 10
-55.2509349446
 20
8.8053430824
 10
-55.1136971934
 20
8.7291031333
 10
-54.9821984126
 20
8.6419405536
 10
-54.8564386022
 20
8.543855343
  0
LWPOLYLINE
  5
68D
100
AcDbEntity
  8
RACCORDO
100
AcDbPolyline
 62
250
  6
CONTINUOUS
 90
10
 70
0
 10
-55.8691584568
 20
12.9902607874
 10
-55.9165439608
 20
13.0108301773
 10
-55.9633029015
 20
13.0264525788
 10
-56.0088169925
 20
13.0369214173
 10
-56.0524844079
 20
13.0420982628
 10
-56.0937277402
 20
13.041914661
 10
-56.1320016348
 20
13.0363730382
 10
-56.1668000019
 20
13.0255466694
 10
-56.1976627081
 20
13.009578709
 10
-56.2241816606
 20
12.9886802982
  0
LWPOLYLINE
  5
68E
100
AcDbEntity
  8
RACCORDO
100
AcDbPolyline
 62
250
  6
CONTINUOUS
 90
10
 70
0
 10
-54.4279029859
 20
14.3745966034
 10
-54.4713559264
 20
14.3961269464
 10
-54.5139675907
 20
14.4137287206
 10
-54.555358308
 20
14.4268208092
 10
-54.5953660921
 20
14.4346534757
 10
-54.6335090809
 20
14.4371785645
 10
-54.6689444381
 20
14.4349067832
 10
-54.7012313215
 20
14.4278161227
 10
-54.7303793585
 20
14.4155136632
 10
-54.7562773239
 20
14.3979969865
  0
LINE
  5
68F
100
AcDbEntity
  8
0
100
AcDbLine
 62
7
  6
CONTINUOUS
 10
-44.4059017747
 20
15.7902785887
 11
-44.4792353906
 21
15.9003349252
  0
LWPOLYLINE
  5
690
100
AcDbEntity
  8
RACCORDO
100
AcDbPolyline
 62
250
  6
CONTINUOUS
 90
11
 70
0
 10
-38.8594584619
 20
12.6311481593
 10
-38.8602944544
 20
12.6334831579
 10
-38.8639978001
 20
12.6388115932
 10
-38.87057088
 20
12.6471318096
 10
-38.8799540166
 20
12.6583776911
 10
-38.892215567
 20
12.6726082701
 10
-38.9075523694
 20
12.6900073195
 10
-38.9260128473
 20
12.7106118809
 10
-38.9475666956
 20
12.7343687009
 10
-38.9722955054
 20
12.7613232913
 10
-39.0314294668
 20
12.8248759864
  0
LINE
  5
691
100
AcDbEntity
  8
RACCORDO
100
AcDbLine
 62
250
  6
CONTINUOUS
 10
-37.5359922242
 20
9.3422548209
 11
-37.0360683766
 21
9.3422548201
  0
LINE
  5
692
100
AcDbEntity
  8
RACCORDO
100
AcDbLine
 62
250
  6
CONTINUOUS
 10
-57.8758113251
 20
9.3422548209
 11
-58.3757351727
 21
9.3422548209
  0
LINE
  5
693
100
AcDbEntity
  8
0
100
AcDbLine
 62
7
  6
CONTINUOUS
 10
-53.1183033495
 20
10.0402785887
 11
-54.1349692862
 21
10.0402785887
  0
LINE
  5
694
100
AcDbEntity
  8
0
100
AcDbLine
 62
7
  6
CONTINUOUS
 10
-38.0386377747
 20
10.0902785887
 11
-42.1731657747
 21
10.0902785887
  0
LINE
  5
695
100
AcDbEntity
  8
0
100
AcDbLine
 62
7
  6
CONTINUOUS
 10
-37.7227752364
 20
7.9902462029
 11
-37.8065186079
 21
8.07253864
  0
LWPOLYLINE
  5
696
100
AcDbEntity
  8
RACCORDO
100
AcDbPolyline
 62
250
  6
CONTINUOUS
 90
8
 70
0
 10
-39.2205611051
 20
12.7853427278
 10
-39.2213596322
 20
12.7867370693
 10
-39.2249773343
 20
12.7897769194
 10
-39.2314142112
 20
12.7944978192
 10
-39.2405971942
 20
12.8009245772
 10
-39.252599352
 20
12.8090880226
 10
-39.2676398918
 20
12.8190401018
 10
-39.3069188582
 20
12.8444807204
  0
LWPOLYLINE
  5
697
100
AcDbEntity
  8
RACCORDO
100
AcDbPolyline
 62
250
  6
CONTINUOUS
 90
13
 70
0
 10
-37.865093918
 20
-23.499165928
 10
-37.8141666853
 20
-23.4317606913
 10
-37.7673178488
 20
-23.361947633
 10
-37.7245474085
 20
-23.2897267532
 10
-37.6857204603
 20
-23.2148286792
 10
-37.6509719085
 20
-23.1375227836
 10
-37.6207064649
 20
-23.058617184
 10
-37.5949877848
 20
-22.9780667492
 10
-37.573752213
 20
-22.8959166105
 10
-37.5572134964
 20
-22.8131102794
 10
-37.5454428838
 20
-22.7299622598
 10
-37.5383691264
 20
-22.6461580478
 10
-37.5359922242
 20
-22.5616976435
  0
LWPOLYLINE
  5
698
100
AcDbEntity
  8
RACCORDO
100
AcDbPolyline
 62
250
  6
CONTINUOUS
 90
13
 70
0
 10
-37.4748706348
 20
-23.8116553564
 10
-37.4070196866
 20
-23.7218543657
 10
-37.3443384934
 20
-23.6283947814
 10
-37.2870228134
 20
-23.5315742768
 10
-37.2352543371
 20
-23.4317072804
 10
-37.1891902038
 20
-23.3291051965
 10
-37.148966142
 20
-23.2240737614
 10
-37.1147090667
 20
-23.1169427392
 10
-37.0865285646
 20
-23.0080529996
 10
-37.0645117261
 20
-22.8977348477
 10
-37.0487303932
 20
-22.7863320495
 10
-37.0392383332
 20
-22.6742014003
 10
-37.0360683766
 20
-22.5616976435
  0
LINE
  5
699
100
AcDbEntity
  8
TRASH
100
AcDbLine
 62
7
  6
CONTINUOUS
 10
-44.3059017747
 20
-30.0399011516
 11
-44.342557411
 21
-30.0765567879
  0
LWPOLYLINE
  5
69A
100
AcDbEntity
  8
RACCORDO
100
AcDbPolyline
 62
7
  6
CONTINUOUS
 90
5
 70
0
 10
-51.0690562399
 20
-27.8062913249
 10
-51.0740526348
 20
-27.808721818
 10
-51.0787926171
 20
-27.8141803646
 10
-51.0832761866
 20
-27.8226669647
 10
-51.0875647074
 20
-27.8344148492
  0
LWPOLYLINE
  5
69B
100
AcDbEntity
  8
SMUSSO
100
AcDbPolyline
 62
7
  6
CONTINUOUS
 90
13
 70
0
 10
-50.3334173434
 20
12.089677939
 10
-50.3528484177
 20
12.0885284611
 10
-50.3705989279
 20
12.0873724196
 10
-50.3866721354
 20
12.0862117323
 10
-50.4010509856
 20
12.0850477414
 10
-50.4137534652
 20
12.0838791047
 10
-50.4248172797
 20
12.0827037134
 10
-50.4342306053
 20
12.0815208713
 10
-50.4419700808
 20
12.0803312747
 10
-50.4480300069
 20
12.0791349038
 10
-50.4523889467
 20
12.0779317521
 10
-50.4550200858
 20
12.0767218262
 10
-50.4559017747
 20
12.0755051261
  0
LINE
  5
69C
100
AcDbEntity
  8
SMUSSO
100
AcDbLine
 62
7
  6
CONTINUOUS
 10
-50.2894615015
 20
12.0919601716
 11
-50.3334173434
 21
12.089677939
  0
LINE
  5
69D
100
AcDbEntity
  8
SMUSSO
100
AcDbLine
 62
7
  6
CONTINUOUS
 10
-50.2391607514
 20
12.0941950039
 11
-50.2894615015
 21
12.0919601716
  0
LINE
  5
69E
100
AcDbEntity
  8
SMUSSO
100
AcDbLine
 62
7
  6
CONTINUOUS
 10
-50.1827576978
 20
12.0963758212
 11
-50.2391607514
 21
12.0941950039
  0
LINE
  5
69F
100
AcDbEntity
  8
SMUSSO
100
AcDbLine
 62
7
  6
CONTINUOUS
 10
-50.6006304612
 20
12.6013713626
 11
-50.6706205217
 21
12.5988230322
  0
LINE
  5
6A0
100
AcDbEntity
  8
SMUSSO
100
AcDbLine
 62
7
  6
CONTINUOUS
 10
-50.0867088116
 20
12.0995479646
 11
-50.1827576978
 21
12.0963758212
  0
LINE
  5
6A1
100
AcDbEntity
  8
SMUSSO
100
AcDbLine
 62
7
  6
CONTINUOUS
 10
-50.4819079976
 20
12.6050802986
 11
-50.6006304612
 21
12.6013713626
  0
LINE
  5
6A2
100
AcDbEntity
  8
SMUSSO
100
AcDbLine
 62
7
  6
CONTINUOUS
 10
-49.976725812
 20
12.1026036078
 11
-50.0867088116
 21
12.0995479646
  0
LINE
  5
6A3
100
AcDbEntity
  8
SMUSSO
100
AcDbLine
 62
7
  6
CONTINUOUS
 10
-50.2992177134
 20
12.60977318
 11
-50.4819079976
 21
12.6050802986
  0
LINE
  5
6A4
100
AcDbEntity
  8
SMUSSO
100
AcDbLine
 62
7
  6
CONTINUOUS
 10
-49.8113165417
 20
12.1064163372
 11
-49.976725812
 21
12.1026036078
  0
LINE
  5
6A5
100
AcDbEntity
  8
SMUSSO
100
AcDbLine
 62
7
  6
CONTINUOUS
 10
-50.035368933
 20
12.6151383362
 11
-50.2992177134
 21
12.60977318
  0
LINE
  5
6A6
100
AcDbEntity
  8
SMUSSO
100
AcDbLine
 62
7
  6
CONTINUOUS
 10
-49.5746739962
 20
12.1107612089
 11
-49.8113165417
 21
12.1064163372
  0
LINE
  5
6A7
100
AcDbEntity
  8
SMUSSO
100
AcDbLine
 62
7
  6
CONTINUOUS
 10
-49.6709334383
 20
12.6207656366
 11
-50.035368933
 21
12.6151383362
  0
LINE
  5
6A8
100
AcDbEntity
  8
SMUSSO
100
AcDbLine
 62
7
  6
CONTINUOUS
 10
-49.1966352554
 20
12.1158952824
 11
-49.5746739962
 21
12.1107612089
  0
LINE
  5
6A9
100
AcDbEntity
  8
SMUSSO
100
AcDbLine
 62
7
  6
CONTINUOUS
 10
-49.117930066
 20
12.6266751271
 11
-49.6709334383
 21
12.6207656366
  0
LINE
  5
6AA
100
AcDbEntity
  8
SMUSSO
100
AcDbLine
 62
7
  6
CONTINUOUS
 10
-48.7098209539
 20
12.1202596721
 11
-49.1966352554
 21
12.1158952824
  0
LINE
  5
6AB
100
AcDbEntity
  8
SMUSSO
100
AcDbLine
 62
7
  6
CONTINUOUS
 10
-48.4301168735
 20
12.6308825772
 11
-49.117930066
 21
12.6266751271
  0
LINE
  5
6AC
100
AcDbEntity
  8
SMUSSO
100
AcDbLine
 62
7
  6
CONTINUOUS
 10
-48.0475947687
 20
12.1232092646
 11
-48.7098209539
 21
12.1202596721
  0
LINE
  5
6AD
100
AcDbEntity
  8
ASSI
100
AcDbLine
 62
7
  6
CONTINUOUS
 10
-44.9559017747
 20
11.2902785887
 11
-50.4559017747
 21
11.2902785887
  0
LINE
  5
6AE
100
AcDbEntity
  8
RACCORDO
100
AcDbLine
 62
250
  6
CONTINUOUS
 10
-39.3501243286
 20
11.9829932819
 11
-44.9471755714
 21
11.9829932819
  0
LINE
  5
6AF
100
AcDbEntity
  8
RACCORDO
100
AcDbLine
 62
250
  6
CONTINUOUS
 10
-50.4646279779
 20
11.9829932819
 11
-56.0616792476
 21
11.9829932819
  0
LINE
  5
6B0
100
AcDbEntity
  8
RACCORDO
100
AcDbLine
 62
250
  6
CONTINUOUS
 10
-39.3501253051
 20
12.4829171295
 11
-44.4559017747
 21
12.4829171295
  0
LINE
  5
6B1
100
AcDbEntity
  8
RACCORDO
100
AcDbLine
 62
250
  6
CONTINUOUS
 10
-50.9559017747
 20
12.4829171295
 11
-56.0616782443
 21
12.4829171295
  0
LINE
  5
6B2
100
AcDbEntity
  8
SMUSSO
100
AcDbLine
 62
7
  6
CONTINUOUS
 10
-47.6249775332
 20
12.6322914109
 11
-48.4301168735
 21
12.6308825772
  0
LINE
  5
6B3
100
AcDbEntity
  8
SMUSSO
100
AcDbLine
 62
7
  6
CONTINUOUS
 10
-47.3642087806
 20
12.1232092646
 11
-48.0475947687
 21
12.1232092646
  0
LINE
  5
6B4
100
AcDbEntity
  8
SMUSSO
100
AcDbLine
 62
7
  6
CONTINUOUS
 10
-46.8247921804
 20
12.6301845291
 11
-47.6249775332
 21
12.6322914109
  0
LINE
  5
6B5
100
AcDbEntity
  8
SMUSSO
100
AcDbLine
 62
7
  6
CONTINUOUS
 10
-46.7019825955
 20
12.1202596721
 11
-47.3642087806
 21
12.1232092646
  0
LINE
  5
6B6
100
AcDbEntity
  8
SMUSSO
100
AcDbLine
 62
7
  6
CONTINUOUS
 10
-46.1498173355
 20
12.625384194
 11
-46.8247921804
 21
12.6301845291
  0
LINE
  5
6B7
100
AcDbEntity
  8
SMUSSO
100
AcDbLine
 62
7
  6
CONTINUOUS
 10
-46.2151682939
 20
12.1158952824
 11
-46.7019825955
 21
12.1202596721
  0
LINE
  5
6B8
100
AcDbEntity
  8
SMUSSO
100
AcDbLine
 62
7
  6
CONTINUOUS
 10
-45.6770246999
 20
12.6198975147
 11
-46.1498173355
 21
12.625384194
  0
LINE
  5
6B9
100
AcDbEntity
  8
SMUSSO
100
AcDbLine
 62
7
  6
CONTINUOUS
 10
-45.8371295532
 20
12.1107612089
 11
-46.2151682939
 21
12.1158952824
  0
LINE
  5
6BA
100
AcDbEntity
  8
SMUSSO
100
AcDbLine
 62
7
  6
CONTINUOUS
 10
-45.3203986409
 20
12.6141079336
 11
-45.6770246999
 21
12.6198975147
  0
LINE
  5
6BB
100
AcDbEntity
  8
SMUSSO
100
AcDbLine
 62
7
  6
CONTINUOUS
 10
-45.6004870076
 20
12.1064163372
 11
-45.8371295532
 21
12.1107612089
  0
LINE
  5
6BC
100
AcDbEntity
  8
SMUSSO
100
AcDbLine
 62
7
  6
CONTINUOUS
 10
-45.1125858359
 20
12.60977318
 11
-45.3203986409
 21
12.6141079336
  0
LINE
  5
6BD
100
AcDbEntity
  8
SMUSSO
100
AcDbLine
 62
7
  6
CONTINUOUS
 10
-45.4350777373
 20
12.1026036078
 11
-45.6004870076
 21
12.1064163372
  0
LINE
  5
6BE
100
AcDbEntity
  8
SMUSSO
100
AcDbLine
 62
7
  6
CONTINUOUS
 10
-44.9298955517
 20
12.6050802986
 11
-45.1125858359
 21
12.60977318
  0
LINE
  5
6BF
100
AcDbEntity
  8
SMUSSO
100
AcDbLine
 62
7
  6
CONTINUOUS
 10
-45.3250947377
 20
12.0995479646
 11
-45.4350777373
 21
12.1026036078
  0
LINE
  5
6C0
100
AcDbEntity
  8
SMUSSO
100
AcDbLine
 62
7
  6
CONTINUOUS
 10
-44.8111730882
 20
12.6013713626
 11
-44.9298955517
 21
12.6050802986
  0
LINE
  5
6C1
100
AcDbEntity
  8
SMUSSO
100
AcDbLine
 62
7
  6
CONTINUOUS
 10
-45.2290458515
 20
12.0963758212
 11
-45.3250947377
 21
12.0995479646
  0
LINE
  5
6C2
100
AcDbEntity
  8
SMUSSO
100
AcDbLine
 62
7
  6
CONTINUOUS
 10
-44.7411830277
 20
12.5988230322
 11
-44.8111730882
 21
12.6013713626
  0
LINE
  5
6C3
100
AcDbEntity
  8
SMUSSO
100
AcDbLine
 62
7
  6
CONTINUOUS
 10
-45.1726427979
 20
12.0941950039
 11
-45.2290458515
 21
12.0963758212
  0
LINE
  5
6C4
100
AcDbEntity
  8
SMUSSO
100
AcDbLine
 62
7
  6
CONTINUOUS
 10
-45.1223420479
 20
12.0919601716
 11
-45.1726427979
 21
12.0941950039
  0
LINE
  5
6C5
100
AcDbEntity
  8
TRASH
100
AcDbLine
 62
7
  6
CONTINUOUS
 10
-44.3059017747
 20
16.820458329
 11
-44.342557411
 21
16.8571139653
  0
LWPOLYLINE
  5
6C6
100
AcDbEntity
  8
RACCORDO
100
AcDbPolyline
 62
250
  6
CONTINUOUS
 90
10
 70
0
 10
-38.9722954714
 20
-25.9807660797
 10
-38.94756667
 20
-25.9538114977
 10
-38.9260128444
 20
-25.9300547006
 10
-38.9075523824
 20
-25.9094501553
 10
-38.8922155788
 20
-25.8920511047
 10
-38.8799540204
 20
-25.8778205175
 10
-38.8705708777
 20
-25.8665746298
 10
-38.8639977966
 20
-25.8582544122
 10
-38.8602944517
 20
-25.8529259777
 10
-38.8594584619
 20
-25.8505909819
  0
LINE
  5
6C7
100
AcDbEntity
  8
RACCORDO
100
AcDbLine
 62
250
  6
CONTINUOUS
 10
-39.0314294933
 20
-26.0443188352
 11
-38.9722954714
 21
-25.9807660797
  0
LINE
  5
6C8
100
AcDbEntity
  8
RACCORDO
100
AcDbLine
 62
250
  6
CONTINUOUS
 10
-39.1031838338
 20
-26.1201814553
 11
-39.0314294933
 21
-26.0443188352
  0
LINE
  5
6C9
100
AcDbEntity
  8
RACCORDO
100
AcDbLine
 62
250
  6
CONTINUOUS
 10
-39.1876234066
 20
-26.2081216163
 11
-39.1031838338
 21
-26.1201814553
  0
LWPOLYLINE
  5
6CA
100
AcDbEntity
  8
RACCORDO
100
AcDbPolyline
 62
250
  6
CONTINUOUS
 90
7
 70
0
 10
-40.6555269439
 20
-27.6174387111
 10
-40.4147646339
 20
-27.4002696085
 10
-40.172197587
 20
-27.1761758547
 10
-39.9280083125
 20
-26.9450347855
 10
-39.6823853657
 20
-26.7067250122
 10
-39.435523432
 20
-26.4611266602
 10
-39.1876234066
 20
-26.2081216163
  0
LWPOLYLINE
  5
6CB
100
AcDbEntity
  8
RACCORDO
100
AcDbPolyline
 62
250
  6
CONTINUOUS
 90
7
 70
0
 10
-40.9840753267
 20
-27.594039426
 10
-40.7472862938
 20
-27.3809102234
 10
-40.5091175251
 20
-27.1607436861
 10
-40.2695690206
 20
-26.9335398141
 10
-40.0286407804
 20
-26.6992986074
 10
-39.7863328044
 20
-26.4580200661
 10
-39.5426450926
 20
-26.2097041901
  0
LINE
  5
6CC
100
AcDbEntity
  8
RACCORDO
100
AcDbLine
 62
7
  6
CONTINUOUS
 10
-40.6312111541
 20
-27.6836166353
 11
-40.7162439847
 21
-27.7588535466
  0
LINE
  5
6CD
100
AcDbEntity
  8
RACCORDO
100
AcDbLine
 62
7
  6
CONTINUOUS
 10
-40.7162439847
 20
-27.7588535466
 11
-40.7990535094
 21
-27.8313289647
  0
LINE
  5
6CE
100
AcDbEntity
  8
RACCORDO
100
AcDbLine
 62
7
  6
CONTINUOUS
 10
-40.7990535094
 20
-27.8313289647
 11
-40.8803198861
 21
-27.9015611621
  0
LINE
  5
6CF
100
AcDbEntity
  8
RACCORDO
100
AcDbLine
 62
7
  6
CONTINUOUS
 10
-40.8803198861
 20
-27.9015611621
 11
-40.9331993045
 21
-27.9467392687
  0
LINE
  5
6D0
100
AcDbEntity
  8
RACCORDO
100
AcDbLine
 62
7
  6
CONTINUOUS
 10
-40.9331993045
 20
-27.9467392687
 11
-41.003658467
 21
-28.0062608639
  0
LWPOLYLINE
  5
6D1
100
AcDbEntity
  8
RACCORDO
100
AcDbPolyline
 62
250
  6
CONTINUOUS
 90
16
 70
0
 10
-40.6312111542
 20
-27.683616635
 10
-40.6522398883
 20
-27.7009206437
 10
-40.6738423199
 20
-27.7168193874
 10
-40.6959171383
 20
-27.7313202705
 10
-40.718391269
 20
-27.7444504387
 10
-40.7411487722
 20
-27.7562138616
 10
-40.7640245745
 20
-27.7666033677
 10
-40.7869320852
 20
-27.775661079
 10
-40.8097870193
 20
-27.7834318749
 10
-40.832426868
 20
-27.7899427554
 10
-40.8547758919
 20
-27.7952577364
 10
-40.8767709392
 20
-27.7994444718
 10
-40.8982729927
 20
-27.8025616485
 10
-40.9192021354
 20
-27.8046867697
 10
-40.9395393916
 20
-27.8059037077
 10
-40.9592461012
 20
-27.8062913249
  0
LWPOLYLINE
  5
6D2
100
AcDbEntity
  8
RACCORDO
100
AcDbPolyline
 62
250
  6
CONTINUOUS
 90
7
 70
0
 10
-39.2676399016
 20
-26.038482923
 10
-39.2525993604
 20
-26.0285308441
 10
-39.2405971975
 20
-26.0203673994
 10
-39.2314142108
 20
-26.0139406418
 10
-39.2249773328
 20
-26.0092197421
 10
-39.2213596309
 20
-26.0061798919
 10
-39.2205611051
 20
-26.0047855504
  0
LWPOLYLINE
  5
6D3
100
AcDbEntity
  8
RACCORDO
100
AcDbPolyline
 62
250
  6
CONTINUOUS
 90
3
 70
0
 10
-39.3312109979
 20
-26.079398937
 10
-39.3069188523
 20
-26.0639235449
 10
-39.2676399016
 20
-26.038482923
  0
LINE
  5
6D4
100
AcDbEntity
  8
RACCORDO
100
AcDbLine
 62
250
  6
CONTINUOUS
 10
-39.3892822507
 20
-26.115818626
 11
-39.3312109979
 21
-26.079398937
  0
LINE
  5
6D5
100
AcDbEntity
  8
RACCORDO
100
AcDbLine
 62
250
  6
CONTINUOUS
 10
-39.4597718409
 20
-26.1593460471
 11
-39.3892822507
 21
-26.115818626
  0
LINE
  5
6D6
100
AcDbEntity
  8
RACCORDO
100
AcDbLine
 62
250
  6
CONTINUOUS
 10
-39.5426450926
 20
-26.2097041901
 11
-39.4597718409
 21
-26.1593460471
  0
LINE
  5
6D7
100
AcDbEntity
  8
RACCORDO
100
AcDbLine
 62
7
  6
CONTINUOUS
 10
-45.0504370493
 20
14.5209670604
 11
-44.6059017747
 21
14.5623504848
  0
LINE
  5
6D8
100
AcDbEntity
  8
RACCORDO
100
AcDbLine
 62
7
  6
CONTINUOUS
 10
-44.4072492456
 20
14.5808437797
 11
-44.3427473094
 21
14.5868485023
  0
LWPOLYLINE
  5
6D9
100
AcDbEntity
  8
SMUSSO
100
AcDbPolyline
 62
7
  6
CONTINUOUS
 90
13
 70
0
 10
-50.8136143907
 20
12.5921833365
 10
-50.8363929808
 20
12.5908240751
 10
-50.8571833446
 20
12.5894571242
 10
-50.8759853228
 20
12.5880847543
 10
-50.8927908504
 20
12.5867085523
 10
-50.9076079925
 20
12.5853269312
 10
-50.9204607851
 20
12.5839374012
 10
-50.9313747403
 20
12.5825391386
 10
-50.9403243461
 20
12.581132967
 10
-50.9472571024
 20
12.5797188666
 10
-50.9521555093
 20
12.578296831
 10
-50.9550370667
 20
12.5768668667
 10
-50.9559017747
 20
12.5754289736
  0
LINE
  5
6DA
100
AcDbEntity
  8
SMUSSO
100
AcDbLine
 62
7
  6
CONTINUOUS
 10
-50.7619939216
 20
12.5948823017
 11
-50.8136143907
 21
12.5921833365
  0
LWPOLYLINE
  5
6DB
100
AcDbEntity
  8
RACCORDO
100
AcDbPolyline
 62
250
  6
CONTINUOUS
 90
10
 70
0
 10
-56.0616782819
 20
12.4829171295
 10
-56.1071292517
 20
12.4808356125
 10
-56.1513775052
 20
12.4747901268
 10
-56.1946051705
 20
12.4649081416
 10
-56.2372218364
 20
12.4510674278
 10
-56.2789944087
 20
12.4331925879
 10
-56.3189240525
 20
12.4116376719
 10
-56.3564914559
 20
12.3867353585
 10
-56.391747638
 20
12.3584699417
 10
-56.4244254335
 20
12.3269967083
  0
LWPOLYLINE
  5
6DC
100
AcDbEntity
  8
RACCORDO
100
AcDbPolyline
 62
250
  6
CONTINUOUS
 90
10
 70
0
 10
-56.1912424442
 20
12.7853427278
 10
-56.2360152744
 20
12.7833284578
 10
-56.2804283543
 20
12.7773134788
 10
-56.3241248245
 20
12.7673461214
 10
-56.3667535833
 20
12.7535064733
 10
-56.4079721082
 20
12.7359057363
 10
-56.4474492079
 20
12.7146853325
 10
-56.4848676834
 20
12.690015768
 10
-56.5199268769
 20
12.6620952631
 10
-56.5523450874
 20
12.6311481593
  0
LWPOLYLINE
  5
6DD
100
AcDbEntity
  8
SMUSSO
100
AcDbPolyline
 62
7
  6
CONTINUOUS
 90
3
 70
0
 10
-50.6706205217
 20
12.5988230322
 10
-50.7029050477
 20
12.5975254859
 10
-50.7619939216
 20
12.5948823017
  0
LINE
  5
6DE
100
AcDbEntity
  8
RACCORDO
100
AcDbLine
 62
250
  6
CONTINUOUS
 10
-56.1912424442
 20
12.7853427278
 11
-39.2205611051
 21
12.7853427278
  0
LINE
  5
6DF
100
AcDbEntity
  8
RACCORDO
100
AcDbLine
 62
250
  6
CONTINUOUS
 10
-55.8691584568
 20
12.9902613676
 11
-39.5426450926
 21
12.9902613676
  0
LINE
  5
6E0
100
AcDbEntity
  8
DRAFT
100
AcDbLine
 62
7
  6
CONTINUOUS
 10
-38.1920512811
 20
13.8814979103
 11
-39.8743826019
 21
13.8814979103
  0
LINE
  5
6E1
100
AcDbEntity
  8
DRAFT
100
AcDbLine
 62
7
  6
CONTINUOUS
 10
-55.5374209474
 20
13.8814979103
 11
-57.2197522682
 21
13.8814979103
  0
LINE
  5
6E2
100
AcDbEntity
  8
DRAFT
100
AcDbLine
 62
7
  6
CONTINUOUS
 10
-38.0559017747
 20
14.2902785887
 11
-40.3269123327
 21
14.2902785887
  0
LINE
  5
6E3
100
AcDbEntity
  8
DRAFT
100
AcDbLine
 62
7
  6
CONTINUOUS
 10
-55.0848912166
 20
14.2902785887
 11
-57.3559017747
 21
14.2902785887
  0
LINE
  5
6E4
100
AcDbEntity
  8
RACCORDO
100
AcDbLine
 62
250
  6
CONTINUOUS
 10
-54.4276649573
 20
14.3745966034
 11
-50.2967114024
 21
14.3745966034
  0
LINE
  5
6E5
100
AcDbEntity
  8
RACCORDO
100
AcDbLine
 62
250
  6
CONTINUOUS
 10
-45.1150921469
 20
14.3745966034
 11
-40.9840785452
 21
14.3745966034
  0
LINE
  5
6E6
100
AcDbEntity
  8
SMUSSO
100
AcDbLine
 62
7
  6
CONTINUOUS
 10
-44.6784541283
 20
12.5962127134
 11
-44.7411830277
 21
12.5988230322
  0
LWPOLYLINE
  5
6E7
100
AcDbEntity
  8
RACCORDO
100
AcDbPolyline
 62
250
  6
CONTINUOUS
 90
10
 70
0
 10
-39.2205611051
 20
12.7853438032
 10
-39.1757885047
 20
12.7833293513
 10
-39.1313756727
 20
12.7773141099
 10
-39.0876794746
 20
12.7673464125
 10
-39.0450510177
 20
12.7535063516
 10
-39.0038328296
 20
12.7359051349
 10
-38.9643561062
 20
12.7146841915
 10
-38.9269380505
 20
12.6900140358
 10
-38.8918793235
 20
12.6620928971
 10
-38.8594616289
 20
12.6311451273
  0
LWPOLYLINE
  5
6E8
100
AcDbEntity
  8
RACCORDO
100
AcDbPolyline
 62
250
  6
CONTINUOUS
 90
10
 70
0
 10
-39.3501252675
 20
12.4829171295
 10
-39.3046742976
 20
12.4808356125
 10
-39.2604260441
 20
12.4747901268
 10
-39.2171983788
 20
12.4649081416
 10
-39.1745817129
 20
12.4510674278
 10
-39.1328091406
 20
12.4331925879
 10
-39.0928794968
 20
12.4116376719
 10
-39.0553120935
 20
12.3867353585
 10
-39.0200559113
 20
12.3584699417
 10
-38.9873781158
 20
12.3269967083
  0
LINE
  5
6E9
100
AcDbEntity
  8
RACCORDO
100
AcDbLine
 62
7
  6
CONTINUOUS
 10
-51.0690562399
 20
14.5868485023
 11
-51.0045543037
 21
14.5808437797
  0
LINE
  5
6EA
100
AcDbEntity
  8
RACCORDO
100
AcDbLine
 62
7
  6
CONTINUOUS
 10
-50.8059017747
 20
14.5623504848
 11
-50.3613665001
 21
14.5209670604
  0
LINE
  5
6EB
100
AcDbEntity
  8
RACCORDO
100
AcDbLine
 62
250
  6
CONTINUOUS
 10
-39.4597718426
 20
12.9399032233
 11
-39.5426450926
 21
12.9902613676
  0
LINE
  5
6EC
100
AcDbEntity
  8
RACCORDO
100
AcDbLine
 62
250
  6
CONTINUOUS
 10
-39.3892822577
 20
12.8963758004
 11
-39.4597718426
 21
12.9399032233
  0
LWPOLYLINE
  5
6ED
100
AcDbEntity
  8
RACCORDO
100
AcDbPolyline
 62
250
  6
CONTINUOUS
 90
3
 70
0
 10
-39.3069188582
 20
12.8444807204
 10
-39.3312110099
 20
12.8599561105
 10
-39.3892822577
 20
12.8963758004
  0
LINE
  5
6EE
100
AcDbEntity
  8
RACCORDO
100
AcDbLine
 62
7
  6
CONTINUOUS
 10
-41.003658467
 20
14.7868180413
 11
-40.9592461012
 21
14.7493956294
  0
LINE
  5
6EF
100
AcDbEntity
  8
RACCORDO
100
AcDbLine
 62
7
  6
CONTINUOUS
 10
-40.9592461012
 20
14.7493956294
 11
-40.8960606188
 21
14.6956116573
  0
LINE
  5
6F0
100
AcDbEntity
  8
RACCORDO
100
AcDbLine
 62
7
  6
CONTINUOUS
 10
-40.8960606188
 20
14.6956116573
 11
-40.831427649
 21
14.639976158
  0
LINE
  5
6F1
100
AcDbEntity
  8
RACCORDO
100
AcDbLine
 62
7
  6
CONTINUOUS
 10
-40.831427649
 20
14.639976158
 11
-40.7658369479
 21
14.5829188026
  0
LINE
  5
6F2
100
AcDbEntity
  8
RACCORDO
100
AcDbLine
 62
7
  6
CONTINUOUS
 10
-40.7658369479
 20
14.5829188026
 11
-40.6767984801
 21
14.5046059476
  0
LINE
  5
6F3
100
AcDbEntity
  8
RACCORDO
100
AcDbLine
 62
7
  6
CONTINUOUS
 10
-40.6767984801
 20
14.5046059476
 11
-40.6312111543
 21
14.4641738122
  0
LWPOLYLINE
  5
6F4
100
AcDbEntity
  8
RACCORDO
100
AcDbPolyline
 62
250
  6
CONTINUOUS
 90
7
 70
0
 10
-39.5426450926
 20
12.9902613676
 10
-39.7865056428
 20
13.2387432705
 10
-40.0289175365
 20
13.4801214281
 10
-40.2698807735
 20
13.7143958401
 10
-40.509395354
 20
13.9415665067
 10
-40.7474612779
 20
14.1616334278
 10
-40.9840785452
 20
14.3745966034
  0
LWPOLYLINE
  5
6F5
100
AcDbEntity
  8
RACCORDO
100
AcDbPolyline
 62
250
  6
CONTINUOUS
 90
7
 70
0
 10
-39.1876234066
 20
12.9886787937
 10
-39.4356954432
 20
13.2418570459
 10
-39.6826640728
 20
13.4875558986
 10
-39.9283256688
 20
13.7258960509
 10
-40.1724829702
 20
13.9569999414
 10
-40.4149449984
 20
14.1809914937
 10
-40.6555269682
 20
14.3979958705
  0
LINE
  5
6F6
100
AcDbEntity
  8
RACCORDO
100
AcDbLine
 62
250
  6
CONTINUOUS
 10
-39.1031837859
 20
12.9007385857
 11
-39.1876234066
 21
12.9886787937
  0
LINE
  5
6F7
100
AcDbEntity
  8
RACCORDO
100
AcDbLine
 62
250
  6
CONTINUOUS
 10
-39.0314294668
 20
12.8248759864
 11
-39.1031837859
 21
12.9007385857
  0
LWPOLYLINE
  5
6F8
100
AcDbEntity
  8
TRASH
100
AcDbPolyline
 62
7
  6
CONTINUOUS
 90
10
 70
0
 10
-43.4783591049
 20
-29.9430810688
 10
-43.5341308375
 20
-29.9774469829
 10
-43.591508788
 20
-30.0079096496
 10
-43.6504929566
 20
-30.0344690688
 10
-43.7113457227
 20
-30.0572043506
 10
-43.7738047068
 20
-30.0760363849
 10
-43.8370827701
 20
-30.0907278412
 10
-43.900917533
 20
-30.1011996093
 10
-43.9655713751
 20
-30.1075307993
 10
-44.0310442965
 20
-30.1097214113
  0
LWPOLYLINE
  5
6F9
100
AcDbEntity
  8
RACCORDO
100
AcDbPolyline
 62
250
  6
CONTINUOUS
 90
10
 70
0
 10
-54.4279029859
 20
14.5209670604
 10
-54.4676666409
 20
14.5193790421
 10
-54.5071783973
 20
14.5146341181
 10
-54.5461879523
 20
14.5067623472
 10
-54.5844481843
 20
14.4958135961
 10
-54.6217167187
 20
14.481857224
 10
-54.6577574634
 20
14.4649816432
 10
-54.6923421038
 20
14.4452937586
 10
-54.72525155
 20
14.4229182909
 10
-54.7562773239
 20
14.3979969865
  0
LINE
  5
6FA
100
AcDbEntity
  8
RACCORDO
100
AcDbLine
 62
250
  6
CONTINUOUS
 10
-54.4279030784
 20
14.5209670604
 11
-50.3613665001
 21
14.5209670604
  0
LINE
  5
6FB
100
AcDbEntity
  8
RACCORDO
100
AcDbLine
 62
250
  6
CONTINUOUS
 10
-45.0504370493
 20
14.5209670604
 11
-40.983900471
 21
14.5209670604
  0
LINE
  5
6FC
100
AcDbEntity
  8
TRASH
100
AcDbLine
 62
7
  6
CONTINUOUS
 10
-51.0045543037
 20
14.5808437797
 11
-50.8059017747
 21
14.5808437797
  0
LINE
  5
6FD
100
AcDbEntity
  8
TRASH
100
AcDbLine
 62
7
  6
CONTINUOUS
 10
-44.6059017747
 20
14.5808437797
 11
-44.4072492456
 21
14.5808437797
  0
LINE
  5
6FE
100
AcDbEntity
  8
RACCORDO
100
AcDbLine
 62
250
  6
CONTINUOUS
 10
-54.4525574482
 20
14.5868485023
 11
-51.0690562399
 21
14.5868485023
  0
LINE
  5
6FF
100
AcDbEntity
  8
RACCORDO
100
AcDbLine
 62
250
  6
CONTINUOUS
 10
-44.3427473094
 20
14.5868485023
 11
-40.9592461012
 21
14.5868485023
  0
LINE
  5
700
100
AcDbEntity
  8
RACCORDO
100
AcDbLine
 62
250
  6
CONTINUOUS
 10
-54.4081450823
 20
14.7868180413
 11
-51.1059017747
 21
14.7868180413
  0
LINE
  5
701
100
AcDbEntity
  8
RACCORDO
100
AcDbLine
 62
250
  6
CONTINUOUS
 10
-44.3059017747
 20
14.7868180413
 11
-41.003658467
 21
14.7868180413
  0
LINE
  5
702
100
AcDbEntity
  8
TRASH
100
AcDbLine
 62
7
  6
CONTINUOUS
 10
-50.4226649937
 20
15.0463490904
 11
-44.9891385556
 21
15.0463490904
  0
LINE
  5
703
100
AcDbEntity
  8
TRASH
100
AcDbLine
 62
7
  6
CONTINUOUS
 10
-50.8697107736
 20
15.3652785887
 11
-50.8059017747
 21
15.3652785887
  0
LINE
  5
704
100
AcDbEntity
  8
TRASH
100
AcDbLine
 62
7
  6
CONTINUOUS
 10
-44.6059017747
 20
15.3652785887
 11
-44.5420927757
 21
15.3652785887
  0
LINE
  5
705
100
AcDbEntity
  8
TRASH
100
AcDbLine
 62
7
  6
CONTINUOUS
 10
-44.6059017747
 20
15.5902785887
 11
-50.8059017747
 21
15.5902785887
  0
LINE
  5
706
100
AcDbEntity
  8
TRASH
100
AcDbLine
 62
7
  6
CONTINUOUS
 10
-37.0555211749
 20
15.7902785887
 11
-42.1613991518
 21
15.7902785887
  0
LINE
  5
707
100
AcDbEntity
  8
TRASH
100
AcDbLine
 62
7
  6
CONTINUOUS
 10
-44.3210294976
 20
15.7902785887
 11
-44.4059017747
 21
15.7902785887
  0
LINE
  5
708
100
AcDbEntity
  8
TRASH
100
AcDbLine
 62
7
  6
CONTINUOUS
 10
-51.0059017747
 20
15.7902785887
 11
-51.0907740517
 21
15.7902785887
  0
LINE
  5
709
100
AcDbEntity
  8
TRASH
100
AcDbLine
 62
7
  6
CONTINUOUS
 10
-53.2504043976
 20
15.7902785887
 11
-58.3562823744
 21
15.7902785887
  0
LINE
  5
70A
100
AcDbEntity
  8
TRASH
100
AcDbLine
 62
7
  6
CONTINUOUS
 10
-51.0692461383
 20
15.8902785887
 11
-50.9325681587
 21
15.8902785887
  0
LINE
  5
70B
100
AcDbEntity
  8
TRASH
100
AcDbLine
 62
7
  6
CONTINUOUS
 10
-44.4792353906
 20
15.8902785887
 11
-44.342557411
 21
15.8902785887
  0
LWPOLYLINE
  5
70C
100
AcDbEntity
  8
RACCORDO
100
AcDbPolyline
 62
250
  6
CONTINUOUS
 90
19
 70
0
 10
-40.9592461012
 20
14.5868485023
 10
-40.9428116824
 20
14.5865790719
 10
-40.9259482956
 20
14.5857398441
 10
-40.9086774438
 20
14.5842864969
 10
-40.8910125094
 20
14.5821728736
 10
-40.8729929282
 20
14.5793549574
 10
-40.8546837076
 20
14.5757951965
 10
-40.8361177598
 20
14.5714527793
 10
-40.8173343095
 20
14.5662882346
 10
-40.7984112241
 20
14.5602751616
 10
-40.7793912911
 20
14.5533802611
 10
-40.7603217795
 20
14.5455722384
 10
-40.7412890852
 20
14.5368390605
 10
-40.7223456818
 20
14.5271586996
 10
-40.7035436725
 20
14.5165099826
 10
-40.6849689621
 20
14.5048943287
 10
-40.6666875821
 20
14.4923075359
 10
-40.6487480848
 20
14.4787356087
 10
-40.6312111542
 20
14.4641738124
  0
LWPOLYLINE
  5
70D
100
AcDbEntity
  8
RACCORDO
100
AcDbPolyline
 62
250
  6
CONTINUOUS
 90
10
 70
0
 10
-40.9839005634
 20
14.5209670604
 10
-40.9440434233
 20
14.5193707393
 10
-40.9045734691
 20
14.5146251181
 10
-40.8656644708
 20
14.506774249
 10
-40.8274339585
 20
14.4958394414
 10
-40.7901174897
 20
14.4818694916
 10
-40.7540684409
 20
14.4649932157
 10
-40.7195251933
 20
14.4453350647
 10
-40.6866156729
 20
14.4229674725
 10
-40.6555262254
 20
14.3979969865
  0
LWPOLYLINE
  5
70E
100
AcDbEntity
  8
TRASH
100
AcDbPolyline
 62
7
  6
CONTINUOUS
 90
10
 70
0
 10
-43.4783591049
 20
16.7236382462
 10
-43.5341308375
 20
16.7580041604
 10
-43.591508788
 20
16.788466827
 10
-43.6504929566
 20
16.8150262462
 10
-43.7113457227
 20
16.837761528
 10
-43.7738047068
 20
16.8565935624
 10
-43.8370827701
 20
16.8712850186
 10
-43.900917533
 20
16.8817567867
 10
-43.9655713751
 20
16.8880879767
 10
-44.0310442965
 20
16.8902785887
  0
LINE
  5
70F
100
AcDbEntity
  8
RACCORDO
100
AcDbLine
 62
250
  6
CONTINUOUS
 10
-50.9030720208
 20
16.3206197112
 11
-50.9325681587
 21
16.3127162448
  0
LINE
  5
710
100
AcDbEntity
  8
RACCORDO
100
AcDbLine
 62
7
  6
CONTINUOUS
 10
-49.8418783029
 20
16.758463754
 11
-50.7613998164
 21
16.512078707
  0
LWPOLYLINE
  5
711
100
AcDbEntity
  8
TRASH
100
AcDbPolyline
 62
7
  6
CONTINUOUS
 90
10
 70
0
 10
-51.3807592528
 20
16.8902785887
 10
-51.4462321742
 20
16.8880879767
 10
-51.5108860163
 20
16.8817567867
 10
-51.5747207793
 20
16.8712850186
 10
-51.6379988426
 20
16.8565935624
 10
-51.7004578267
 20
16.837761528
 10
-51.7613105928
 20
16.8150262462
 10
-51.8202947613
 20
16.788466827
 10
-51.8776727119
 20
16.7580041604
 10
-51.9334444444
 20
16.7236382462
  0
LINE
  5
712
100
AcDbEntity
  8
RACCORDO
100
AcDbLine
 62
7
  6
CONTINUOUS
 10
-49.7901144939
 20
16.7652785887
 11
-45.6216890554
 21
16.7652785887
  0
LINE
  5
713
100
AcDbEntity
  8
TRASH
100
AcDbLine
 62
7
  6
CONTINUOUS
 10
-51.3596928496
 20
16.820458329
 11
-51.1059017747
 21
16.820458329
  0
LINE
  5
714
100
AcDbEntity
  8
TRASH
100
AcDbLine
 62
7
  6
CONTINUOUS
 10
-44.3059017747
 20
16.820458329
 11
-44.0521106997
 21
16.820458329
  0
LINE
  5
715
100
AcDbEntity
  8
TRASH
100
AcDbLine
 62
7
  6
CONTINUOUS
 10
-51.0692461383
 20
16.8571139653
 11
-44.342557411
 21
16.8571139653
  0
LINE
  5
716
100
AcDbEntity
  8
TRASH
100
AcDbLine
 62
7
  6
CONTINUOUS
 10
-51.3807592528
 20
16.8902785887
 11
-44.0310442965
 21
16.8902785887
  0
LWPOLYLINE
  5
717
100
AcDbEntity
  8
TRASH
100
AcDbPolyline
 62
7
  6
CONTINUOUS
 90
10
 70
0
 10
-44.0521106997
 20
16.820458329
 10
-43.9865493753
 20
16.8182616736
 10
-43.9218103912
 20
16.8119136359
 10
-43.8578937474
 20
16.8014142159
 10
-43.7945360474
 20
16.7866838844
 10
-43.7320006878
 20
16.7678021705
 10
-43.6710778581
 20
16.7450076615
 10
-43.6120309551
 20
16.7183798863
 10
-43.554596582
 20
16.687839316
 10
-43.498774739
 20
16.6533859505
  0
LINE
  5
718
100
AcDbEntity
  8
RACCORDO
100
AcDbLine
 62
250
  6
CONTINUOUS
 10
-44.4792353906
 20
16.3127162448
 11
-44.5087315286
 21
16.3206197112
  0
LINE
  5
719
100
AcDbEntity
  8
RACCORDO
100
AcDbLine
 62
7
  6
CONTINUOUS
 10
-44.6504037329
 20
16.512078707
 11
-45.5699252464
 21
16.758463754
  0
ARC
  5
71A
100
AcDbEntity
  8
RACCORDO
100
AcDbCircle
 62
250
  6
CONTINUOUS
 10
-49.9559017747
 20
-18.6097214113
 40
2.9956719828
100
AcDbArc
 50
46.1869385396
 51
180.0
  0
ARC
  5
71B
100
AcDbEntity
  8
RACCORDO
100
AcDbCircle
 62
250
  6
CONTINUOUS
 10
-49.9559017747
 20
-20.7097214113
 40
2.9956719828
100
AcDbArc
 50
180.0
 51
313.8130614604
  0
ARC
  5
71C
100
AcDbEntity
  8
RACCORDO
100
AcDbCircle
 62
250
  6
CONTINUOUS
 10
-49.9559017747
 20
-20.7097214113
 40
2.7457123913
100
AcDbArc
 50
180.0
 51
313.8130614604
  0
ARC
  5
71D
100
AcDbEntity
  8
RACCORDO
100
AcDbCircle
 62
250
  6
CONTINUOUS
 10
-49.9559017747
 20
-18.6097214113
 40
2.7457123913
100
AcDbArc
 50
46.1869385396
 51
180.0
  0
ARC
  5
71E
100
AcDbEntity
  8
RACCORDO
100
AcDbCircle
 62
250
  6
CONTINUOUS
 10
-49.9559017747
 20
-20.7097214113
 40
2.7193774774
100
AcDbArc
 50
180.0
 51
313.8130614604
  0
ARC
  5
71F
100
AcDbEntity
  8
RACCORDO
100
AcDbCircle
 62
250
  6
CONTINUOUS
 10
-49.9559017747
 20
-18.6097214113
 40
2.7193774774
100
AcDbArc
 50
46.1869385396
 51
180.0
  0
ARC
  5
720
100
AcDbEntity
  8
RACCORDO
100
AcDbCircle
 62
250
  6
CONTINUOUS
 10
-49.9559017747
 20
-18.6097214113
 40
2.469413527
100
AcDbArc
 50
46.1869385396
 51
180.0
  0
ARC
  5
721
100
AcDbEntity
  8
RACCORDO
100
AcDbCircle
 62
250
  6
CONTINUOUS
 10
-49.9559017747
 20
-20.7097214113
 40
2.469413527
100
AcDbArc
 50
180.0
 51
313.8130614604
  0
CIRCLE
  5
722
100
AcDbEntity
  8
0
100
AcDbCircle
 62
7
  6
CONTINUOUS
 10
-49.9559017747
 20
-18.6097214113
 40
1.75
  0
ARC
  5
723
100
AcDbEntity
  8
0
100
AcDbCircle
 62
7
  6
CONTINUOUS
 10
-51.0059017747
 20
-21.5097214113
 40
1.5
100
AcDbArc
 50
75.0
 51
90.0
  0
ARC
  5
724
100
AcDbEntity
  8
TRASH
100
AcDbCircle
 62
7
  6
CONTINUOUS
 10
-52.6559017747
 20
-29.7097214113
 40
0.5
100
AcDbArc
 50
350.803718421
 51
119.112422776
  0
ARC
  5
725
100
AcDbEntity
  8
ASSI
100
AcDbCircle
 62
7
  6
CONTINUOUS
 10
-50.8559017747
 20
-28.2597214113
 40
0.3
100
AcDbArc
 50
213.4238947992
 51
254.5025867758
  0
ARC
  5
726
100
AcDbEntity
  8
ASSI
100
AcDbCircle
 62
7
  6
CONTINUOUS
 10
-50.8559017747
 20
-28.2597214113
 40
0.3
100
AcDbArc
 50
105.4974132242
 51
146.5761052008
  0
ARC
  5
727
100
AcDbEntity
  8
RACCORDO
100
AcDbCircle
 62
7
  6
CONTINUOUS
 10
-49.7901144939
 20
-29.7847214113
 40
0.2
100
AcDbArc
 50
255.0
 51
270.0
  0
ARC
  5
728
100
AcDbEntity
  8
TRASH
100
AcDbCircle
 62
7
  6
CONTINUOUS
 10
-58.9559017747
 20
-6.6097214113
 40
28.0
100
AcDbArc
 50
38.3146467789
 51
54.0372348486
  0
ARC
  5
729
100
AcDbEntity
  8
TRASH
100
AcDbCircle
 62
7
  6
CONTINUOUS
 10
-58.9559017747
 20
-6.6097214113
 40
28.0
100
AcDbArc
 50
55.8789063483
 51
56.4427876864
  0
ARC
  5
72A
100
AcDbEntity
  8
TRASH
100
AcDbCircle
 62
7
  6
CONTINUOUS
 10
-58.9559017747
 20
-6.6097214113
 40
28.0
100
AcDbArc
 50
303.5572123136
 51
304.1210936517
  0
ARC
  5
72B
100
AcDbEntity
  8
TRASH
100
AcDbCircle
 62
7
  6
CONTINUOUS
 10
-58.9559017747
 20
-6.6097214113
 40
28.0
100
AcDbArc
 50
305.9627651514
 51
321.6853532211
  0
ARC
  5
72C
100
AcDbEntity
  8
RACCORDO
100
AcDbCircle
 62
7
  6
CONTINUOUS
 10
-58.9559017747
 20
-6.6097214113
 40
27.9301797403
100
AcDbArc
 50
305.881601122
 51
309.9975091513
  0
ARC
  5
72D
100
AcDbEntity
  8
TRASH
100
AcDbCircle
 62
7
  6
CONTINUOUS
 10
-58.9559017747
 20
-6.6097214113
 40
27.9301797403
100
AcDbArc
 50
303.6019742715
 51
304.2022576811
  0
ARC
  5
72E
100
AcDbEntity
  8
TRASH
100
AcDbCircle
 62
7
  6
CONTINUOUS
 10
-58.9559017747
 20
-6.6097214113
 40
27.9301797403
100
AcDbArc
 50
55.7977423189
 51
56.3980257285
  0
ARC
  5
72F
100
AcDbEntity
  8
RACCORDO
100
AcDbCircle
 62
7
  6
CONTINUOUS
 10
-58.9559017747
 20
-6.6097214113
 40
27.9301797403
100
AcDbArc
 50
50.0024908487
 51
54.118398878
  0
ARC
  5
730
100
AcDbEntity
  8
RACCORDO
100
AcDbCircle
 62
250
  6
CONTINUOUS
 10
-58.9559017747
 20
-6.6097214113
 40
27.519833398
100
AcDbArc
 50
38.6876233394
 51
43.4808150287
  0
ARC
  5
731
100
AcDbEntity
  8
RACCORDO
100
AcDbCircle
 62
250
  6
CONTINUOUS
 10
-58.9559017747
 20
-6.6097214113
 40
27.519833398
100
AcDbArc
 50
316.5191849655
 51
321.3123766606
  0
ARC
  5
732
100
AcDbEntity
  8
RACCORDO
100
AcDbCircle
 62
250
  6
CONTINUOUS
 10
-58.9559017747
 20
-6.6097214113
 40
27.0199095505
100
AcDbArc
 50
38.6876233393
 51
43.480813931
  0
ARC
  5
733
100
AcDbEntity
  8
RACCORDO
100
AcDbCircle
 62
250
  6
CONTINUOUS
 10
-58.9559017747
 20
-6.6097214113
 40
27.0199095505
100
AcDbArc
 50
316.5191859231
 51
321.3123766607
  0
ARC
  5
734
100
AcDbEntity
  8
RACCORDO
100
AcDbCircle
 62
250
  6
CONTINUOUS
 10
-49.9559017747
 20
7.4902785887
 40
2.9956719828
100
AcDbArc
 50
46.1869385396
 51
180.0
  0
ARC
  5
735
100
AcDbEntity
  8
RACCORDO
100
AcDbCircle
 62
250
  6
CONTINUOUS
 10
-49.9559017747
 20
5.3902785887
 40
2.9956719828
100
AcDbArc
 50
180.0
 51
313.8130614604
  0
ARC
  5
736
100
AcDbEntity
  8
RACCORDO
100
AcDbCircle
 62
250
  6
CONTINUOUS
 10
-49.9559017747
 20
5.3902785887
 40
2.7457123913
100
AcDbArc
 50
180.0
 51
313.8130614604
  0
ARC
  5
737
100
AcDbEntity
  8
RACCORDO
100
AcDbCircle
 62
250
  6
CONTINUOUS
 10
-49.9559017747
 20
7.4902785887
 40
2.7457123913
100
AcDbArc
 50
46.1869385396
 51
180.0
  0
ARC
  5
738
100
AcDbEntity
  8
RACCORDO
100
AcDbCircle
 62
250
  6
CONTINUOUS
 10
-49.9559017747
 20
5.3902785887
 40
2.7193774774
100
AcDbArc
 50
180.0
 51
313.8130614604
  0
ARC
  5
739
100
AcDbEntity
  8
RACCORDO
100
AcDbCircle
 62
250
  6
CONTINUOUS
 10
-49.9559017747
 20
7.4902785887
 40
2.7193774774
100
AcDbArc
 50
46.1869385396
 51
180.0
  0
ARC
  5
73A
100
AcDbEntity
  8
RACCORDO
100
AcDbCircle
 62
250
  6
CONTINUOUS
 10
-49.9559017747
 20
7.4902785887
 40
2.469413527
100
AcDbArc
 50
46.1869385396
 51
180.0
  0
ARC
  5
73B
100
AcDbEntity
  8
RACCORDO
100
AcDbCircle
 62
250
  6
CONTINUOUS
 10
-49.9559017747
 20
5.3902785887
 40
2.469413527
100
AcDbArc
 50
180.0
 51
313.8130614604
  0
CIRCLE
  5
73C
100
AcDbEntity
  8
0
100
AcDbCircle
 62
7
  6
CONTINUOUS
 10
-49.9559017747
 20
5.3902785887
 40
1.75
  0
ARC
  5
73D
100
AcDbEntity
  8
0
100
AcDbCircle
 62
7
  6
CONTINUOUS
 10
-51.0059017747
 20
8.2902785887
 40
1.5
100
AcDbArc
 50
270.0
 51
285.0
  0
CIRCLE
  5
73E
100
AcDbEntity
  8
0
100
AcDbCircle
 62
7
  6
CONTINUOUS
 10
-56.1683027747
 20
6.9902775887
 40
0.508333
  0
ARC
  5
73F
100
AcDbEntity
  8
TRASH
100
AcDbCircle
 62
7
  6
CONTINUOUS
 10
-52.6559017747
 20
16.4902785887
 40
0.5
100
AcDbArc
 50
240.887577224
 51
9.1962815791
  0
ARC
  5
740
100
AcDbEntity
  8
ASSI
100
AcDbCircle
 62
7
  6
CONTINUOUS
 10
-50.8559017747
 20
15.0402785887
 40
0.3
100
AcDbArc
 50
213.4238947992
 51
254.5025867758
  0
ARC
  5
741
100
AcDbEntity
  8
ASSI
100
AcDbCircle
 62
7
  6
CONTINUOUS
 10
-50.8559017747
 20
15.0402785887
 40
0.3
100
AcDbArc
 50
105.4974132242
 51
146.5761052008
  0
ARC
  5
742
100
AcDbEntity
  8
RACCORDO
100
AcDbCircle
 62
7
  6
CONTINUOUS
 10
-49.7901144939
 20
16.5652785887
 40
0.2
100
AcDbArc
 50
90.0
 51
105.0
  0
ARC
  5
743
100
AcDbEntity
  8
RACCORDO
100
AcDbCircle
 62
250
  6
CONTINUOUS
 10
-45.4559017747
 20
-20.7097214113
 40
2.9956719828
100
AcDbArc
 50
226.1869385396
 51
360.0
  0
ARC
  5
744
100
AcDbEntity
  8
RACCORDO
100
AcDbCircle
 62
250
  6
CONTINUOUS
 10
-45.4559017747
 20
-18.6097214113
 40
2.9956719828
100
AcDbArc
 50
0.0
 51
133.8130614604
  0
ARC
  5
745
100
AcDbEntity
  8
RACCORDO
100
AcDbCircle
 62
250
  6
CONTINUOUS
 10
-45.4559017747
 20
-20.7097214113
 40
2.7457123913
100
AcDbArc
 50
226.1869385396
 51
360.0
  0
ARC
  5
746
100
AcDbEntity
  8
RACCORDO
100
AcDbCircle
 62
250
  6
CONTINUOUS
 10
-45.4559017747
 20
-18.6097214113
 40
2.7457123913
100
AcDbArc
 50
0.0
 51
133.8130614604
  0
ARC
  5
747
100
AcDbEntity
  8
RACCORDO
100
AcDbCircle
 62
250
  6
CONTINUOUS
 10
-45.4559017747
 20
-20.7097214113
 40
2.7193774774
100
AcDbArc
 50
226.1869385396
 51
360.0
  0
ARC
  5
748
100
AcDbEntity
  8
RACCORDO
100
AcDbCircle
 62
250
  6
CONTINUOUS
 10
-45.4559017747
 20
-18.6097214113
 40
2.7193774774
100
AcDbArc
 50
0.0
 51
133.8130614604
  0
ARC
  5
749
100
AcDbEntity
  8
0
100
AcDbCircle
 62
7
  6
CONTINUOUS
 10
-46.5058897747
 20
-7.2943114113
 40
2.5500000352
100
AcDbArc
 50
174.2608296022
 51
5.7391703978
  0
ARC
  5
74A
100
AcDbEntity
  8
0
100
AcDbCircle
 62
7
  6
CONTINUOUS
 10
-46.5058897747
 20
-11.6293114113
 40
2.5500000352
100
AcDbArc
 50
174.2608296022
 51
5.7391703978
  0
ARC
  5
74B
100
AcDbEntity
  8
RACCORDO
100
AcDbCircle
 62
250
  6
CONTINUOUS
 10
-45.4559017747
 20
-20.7097214113
 40
2.469413527
100
AcDbArc
 50
226.1869385396
 51
360.0
  0
ARC
  5
74C
100
AcDbEntity
  8
RACCORDO
100
AcDbCircle
 62
250
  6
CONTINUOUS
 10
-45.4559017747
 20
-18.6097214113
 40
2.469413527
100
AcDbArc
 50
0.0
 51
133.8130614604
  0
ARC
  5
74D
100
AcDbEntity
  8
0
100
AcDbCircle
 62
7
  6
CONTINUOUS
 10
-46.5058897747
 20
-7.2943114113
 40
1.7850001745
100
AcDbArc
 50
171.7867901066
 51
257.6263762198
  0
ARC
  5
74E
100
AcDbEntity
  8
0
100
AcDbCircle
 62
7
  6
CONTINUOUS
 10
-46.5058897747
 20
-11.6293114113
 40
1.7850001745
100
AcDbArc
 50
171.7867901066
 51
8.2132098934
  0
ARC
  5
74F
100
AcDbEntity
  8
0
100
AcDbCircle
 62
7
  6
CONTINUOUS
 10
-46.5058897747
 20
-7.2943114113
 40
1.7849997292
100
AcDbArc
 50
282.373627023
 51
8.2132119123
  0
CIRCLE
  5
750
100
AcDbEntity
  8
0
100
AcDbCircle
 62
7
  6
CONTINUOUS
 10
-45.4559017747
 20
-18.6097214113
 40
1.75
  0
ARC
  5
751
100
AcDbEntity
  8
0
100
AcDbCircle
 62
7
  6
CONTINUOUS
 10
-44.4059017747
 20
-21.5097214113
 40
1.5
100
AcDbArc
 50
90.0
 51
105.0
  0
ARC
  5
752
100
AcDbEntity
  8
RACCORDO
100
AcDbCircle
 62
250
  6
CONTINUOUS
 10
-47.7059017747
 20
-23.0549292912
 40
0.7805753369
100
AcDbArc
 50
46.1869385396
 51
133.8130614604
  0
ARC
  5
753
100
AcDbEntity
  8
RACCORDO
100
AcDbCircle
 62
250
  6
CONTINUOUS
 10
-47.7059017747
 20
-16.2645135314
 40
0.7805753369
100
AcDbArc
 50
226.1869385396
 51
313.8130614604
  0
ARC
  5
754
100
AcDbEntity
  8
RACCORDO
100
AcDbCircle
 62
250
  6
CONTINUOUS
 10
-47.7059017747
 20
-23.0549292912
 40
0.5306225191
100
AcDbArc
 50
46.1869385396
 51
133.8130614604
  0
ARC
  5
755
100
AcDbEntity
  8
RACCORDO
100
AcDbCircle
 62
250
  6
CONTINUOUS
 10
-47.7059017747
 20
-16.2645135314
 40
0.5306225191
100
AcDbArc
 50
226.1869385396
 51
313.8130614604
  0
ARC
  5
756
100
AcDbEntity
  8
RACCORDO
100
AcDbCircle
 62
250
  6
CONTINUOUS
 10
-47.7059017747
 20
-23.0549292912
 40
0.5042876056
100
AcDbArc
 50
46.1869385396
 51
133.8130614604
  0
ARC
  5
757
100
AcDbEntity
  8
RACCORDO
100
AcDbCircle
 62
250
  6
CONTINUOUS
 10
-47.7059017747
 20
-16.2645135314
 40
0.5042876056
100
AcDbArc
 50
226.1869385396
 51
313.8130614604
  0
ARC
  5
758
100
AcDbEntity
  8
TRASH
100
AcDbCircle
 62
7
  6
CONTINUOUS
 10
-42.7559017747
 20
-29.7097214113
 40
0.5
100
AcDbArc
 50
60.887577224
 51
189.196281579
  0
ARC
  5
759
100
AcDbEntity
  8
ASSI
100
AcDbCircle
 62
7
  6
CONTINUOUS
 10
-44.5559017747
 20
-28.2597214113
 40
0.3
100
AcDbArc
 50
33.4238947992
 51
74.5025867758
  0
ARC
  5
75A
100
AcDbEntity
  8
ASSI
100
AcDbCircle
 62
7
  6
CONTINUOUS
 10
-44.5559017747
 20
-28.2597214113
 40
0.3
100
AcDbArc
 50
285.4974132242
 51
326.5761052008
  0
ARC
  5
75B
100
AcDbEntity
  8
RACCORDO
100
AcDbCircle
 62
250
  6
CONTINUOUS
 10
-47.7059017747
 20
-23.0549292912
 40
0.2543230278
100
AcDbArc
 50
46.1869385396
 51
133.8130614604
  0
ARC
  5
75C
100
AcDbEntity
  8
RACCORDO
100
AcDbCircle
 62
250
  6
CONTINUOUS
 10
-47.7059017747
 20
-16.2645135314
 40
0.2543230278
100
AcDbArc
 50
226.1869385396
 51
313.8130614604
  0
ARC
  5
75D
100
AcDbEntity
  8
RACCORDO
100
AcDbCircle
 62
7
  6
CONTINUOUS
 10
-45.6216890554
 20
-29.7847214113
 40
0.2
100
AcDbArc
 50
270.0
 51
285.0
  0
ARC
  5
75E
100
AcDbEntity
  8
RACCORDO
100
AcDbCircle
 62
250
  6
CONTINUOUS
 10
-47.7059017747
 20
3.0450707088
 40
0.7805753369
100
AcDbArc
 50
46.1869385396
 51
133.8130614604
  0
ARC
  5
75F
100
AcDbEntity
  8
RACCORDO
100
AcDbCircle
 62
250
  6
CONTINUOUS
 10
-47.7059017747
 20
3.0450707088
 40
0.5306225191
100
AcDbArc
 50
46.1869385396
 51
133.8130614604
  0
ARC
  5
760
100
AcDbEntity
  8
RACCORDO
100
AcDbCircle
 62
250
  6
CONTINUOUS
 10
-47.7059017747
 20
3.0450707088
 40
0.5042876056
100
AcDbArc
 50
46.1869385396
 51
133.8130614604
  0
ARC
  5
761
100
AcDbEntity
  8
RACCORDO
100
AcDbCircle
 62
250
  6
CONTINUOUS
 10
-47.7059017747
 20
3.0450707088
 40
0.2543230278
100
AcDbArc
 50
46.1869385396
 51
133.8130614604
  0
ARC
  5
762
100
AcDbEntity
  8
RACCORDO
100
AcDbCircle
 62
250
  6
CONTINUOUS
 10
-45.4559017747
 20
5.3902785887
 40
2.9956719828
100
AcDbArc
 50
226.1869385396
 51
360.0
  0
ARC
  5
763
100
AcDbEntity
  8
RACCORDO
100
AcDbCircle
 62
250
  6
CONTINUOUS
 10
-45.4559017747
 20
7.4902785887
 40
2.9956719828
100
AcDbArc
 50
0.0
 51
133.8130614604
  0
ARC
  5
764
100
AcDbEntity
  8
RACCORDO
100
AcDbCircle
 62
250
  6
CONTINUOUS
 10
-45.4559017747
 20
7.4902785887
 40
2.7457123913
100
AcDbArc
 50
0.0
 51
133.8130614604
  0
ARC
  5
765
100
AcDbEntity
  8
RACCORDO
100
AcDbCircle
 62
250
  6
CONTINUOUS
 10
-45.4559017747
 20
5.3902785887
 40
2.7457123913
100
AcDbArc
 50
226.1869385396
 51
360.0
  0
ARC
  5
766
100
AcDbEntity
  8
RACCORDO
100
AcDbCircle
 62
250
  6
CONTINUOUS
 10
-45.4559017747
 20
7.4902785887
 40
2.7193774774
100
AcDbArc
 50
0.0
 51
133.8130614604
  0
ARC
  5
767
100
AcDbEntity
  8
RACCORDO
100
AcDbCircle
 62
250
  6
CONTINUOUS
 10
-45.4559017747
 20
5.3902785887
 40
2.7193774774
100
AcDbArc
 50
226.1869385396
 51
360.0
  0
ARC
  5
768
100
AcDbEntity
  8
RACCORDO
100
AcDbCircle
 62
250
  6
CONTINUOUS
 10
-45.4559017747
 20
5.3902785887
 40
2.469413527
100
AcDbArc
 50
226.1869385396
 51
360.0
  0
ARC
  5
769
100
AcDbEntity
  8
RACCORDO
100
AcDbCircle
 62
250
  6
CONTINUOUS
 10
-45.4559017747
 20
7.4902785887
 40
2.469413527
100
AcDbArc
 50
0.0
 51
133.8130614604
  0
CIRCLE
  5
76A
100
AcDbEntity
  8
0
100
AcDbCircle
 62
7
  6
CONTINUOUS
 10
-45.4559017747
 20
5.3902785887
 40
1.75
  0
ARC
  5
76B
100
AcDbEntity
  8
0
100
AcDbCircle
 62
7
  6
CONTINUOUS
 10
-44.4059017747
 20
8.2902785887
 40
1.5
100
AcDbArc
 50
255.0
 51
270.0
  0
ARC
  5
76C
100
AcDbEntity
  8
RACCORDO
100
AcDbCircle
 62
250
  6
CONTINUOUS
 10
-47.7059017747
 20
9.8354864686
 40
0.7805753369
100
AcDbArc
 50
226.1869385396
 51
313.8130614604
  0
ARC
  5
76D
100
AcDbEntity
  8
RACCORDO
100
AcDbCircle
 62
250
  6
CONTINUOUS
 10
-47.7059017747
 20
9.8354864686
 40
0.5306225191
100
AcDbArc
 50
226.1869385396
 51
313.8130614604
  0
ARC
  5
76E
100
AcDbEntity
  8
RACCORDO
100
AcDbCircle
 62
250
  6
CONTINUOUS
 10
-47.7059017747
 20
9.8354864686
 40
0.5042876056
100
AcDbArc
 50
226.1869385396
 51
313.8130614604
  0
ARC
  5
76F
100
AcDbEntity
  8
TRASH
100
AcDbCircle
 62
7
  6
CONTINUOUS
 10
-42.7559017747
 20
16.4902785887
 40
0.5
100
AcDbArc
 50
170.803718421
 51
299.112422776
  0
ARC
  5
770
100
AcDbEntity
  8
ASSI
100
AcDbCircle
 62
7
  6
CONTINUOUS
 10
-44.5559017747
 20
15.0402785887
 40
0.3
100
AcDbArc
 50
33.4238947992
 51
74.5025867758
  0
ARC
  5
771
100
AcDbEntity
  8
ASSI
100
AcDbCircle
 62
7
  6
CONTINUOUS
 10
-44.5559017747
 20
15.0402785887
 40
0.3
100
AcDbArc
 50
285.4974132242
 51
326.5761052008
  0
ARC
  5
772
100
AcDbEntity
  8
RACCORDO
100
AcDbCircle
 62
250
  6
CONTINUOUS
 10
-47.7059017747
 20
9.8354864686
 40
0.2543230278
100
AcDbArc
 50
226.1869385396
 51
313.8130614604
  0
ARC
  5
773
100
AcDbEntity
  8
RACCORDO
100
AcDbCircle
 62
7
  6
CONTINUOUS
 10
-45.6216890554
 20
16.5652785887
 40
0.2
100
AcDbArc
 50
75.0
 51
90.0
  0
ARC
  5
774
100
AcDbEntity
  8
TRASH
100
AcDbCircle
 62
7
  6
CONTINUOUS
 10
-36.4559017747
 20
-6.6097214113
 40
28.0
100
AcDbArc
 50
123.5572123136
 51
124.1210936517
  0
ARC
  5
775
100
AcDbEntity
  8
TRASH
100
AcDbCircle
 62
7
  6
CONTINUOUS
 10
-36.4559017747
 20
-6.6097214113
 40
28.0
100
AcDbArc
 50
125.9627651514
 51
141.6853532211
  0
ARC
  5
776
100
AcDbEntity
  8
TRASH
100
AcDbCircle
 62
7
  6
CONTINUOUS
 10
-36.4559017747
 20
-6.6097214113
 40
28.0
100
AcDbArc
 50
218.3146467789
 51
234.0372348486
  0
ARC
  5
777
100
AcDbEntity
  8
TRASH
100
AcDbCircle
 62
7
  6
CONTINUOUS
 10
-36.4559017747
 20
-6.6097214113
 40
28.0
100
AcDbArc
 50
235.8789063483
 51
236.4427876864
  0
ARC
  5
778
100
AcDbEntity
  8
TRASH
100
AcDbCircle
 62
7
  6
CONTINUOUS
 10
-36.4559017747
 20
-6.6097214113
 40
27.9301797403
100
AcDbArc
 50
235.7977423189
 51
236.3980257285
  0
ARC
  5
779
100
AcDbEntity
  8
RACCORDO
100
AcDbCircle
 62
7
  6
CONTINUOUS
 10
-36.4559017747
 20
-6.6097214113
 40
27.9301797403
100
AcDbArc
 50
230.0024908487
 51
234.118398878
  0
ARC
  5
77A
100
AcDbEntity
  8
RACCORDO
100
AcDbCircle
 62
7
  6
CONTINUOUS
 10
-36.4559017747
 20
-6.6097214113
 40
27.9301797403
100
AcDbArc
 50
125.881601122
 51
129.9975091513
  0
ARC
  5
77B
100
AcDbEntity
  8
TRASH
100
AcDbCircle
 62
7
  6
CONTINUOUS
 10
-36.4559017747
 20
-6.6097214113
 40
27.9301797403
100
AcDbArc
 50
123.6019742715
 51
124.2022576811
  0
ARC
  5
77C
100
AcDbEntity
  8
RACCORDO
100
AcDbCircle
 62
250
  6
CONTINUOUS
 10
-36.4559017747
 20
-6.6097214113
 40
27.519833398
100
AcDbArc
 50
136.5191849713
 51
141.3123766606
  0
ARC
  5
77D
100
AcDbEntity
  8
RACCORDO
100
AcDbCircle
 62
250
  6
CONTINUOUS
 10
-36.4559017747
 20
-6.6097214113
 40
27.519833398
100
AcDbArc
 50
218.6876233394
 51
223.4808150345
  0
ARC
  5
77E
100
AcDbEntity
  8
RACCORDO
100
AcDbCircle
 62
250
  6
CONTINUOUS
 10
-36.4559017747
 20
-6.6097214113
 40
27.0199095505
100
AcDbArc
 50
136.5191861083
 51
141.3123766607
  0
ARC
  5
77F
100
AcDbEntity
  8
RACCORDO
100
AcDbCircle
 62
250
  6
CONTINUOUS
 10
-36.4559017747
 20
-6.6097214113
 40
27.0199095505
100
AcDbArc
 50
218.6876233393
 51
223.4808140412
  0
ARC
  5
780
100
AcDbEntity
  8
ASSI
100
AcDbCircle
 62
7
  6
CONTINUOUS
 10
-39.6022427747
 20
-2.9207674113
 40
0.6287074522
100
AcDbArc
 50
22.8428566081
 51
179.9987091929
  0
ARC
  5
781
100
AcDbEntity
  8
ASSI
100
AcDbCircle
 62
7
  6
CONTINUOUS
 10
-39.6022427747
 20
-2.9776764113
 40
0.249439
100
AcDbArc
 50
0.0010063792
 51
180.0010063711
  0
CIRCLE
  5
782
100
AcDbEntity
  8
0
100
AcDbCircle
 62
7
  6
CONTINUOUS
 10
-40.9602297747
 20
7.1750495887
 40
0.213759
  0
CIRCLE
  5
783
100
AcDbEntity
  8
0
100
AcDbCircle
 62
7
  6
CONTINUOUS
 10
-40.9602297747
 20
7.1750435887
 40
0.138824
  0
ELLIPSE
  5
784
100
AcDbEntity
  8
TRASH
100
AcDbEllipse
 62
7
  6
CONTINUOUS
 10
-37.0559779387
 20
15.2895924157
 30
0.0
 11
0.1582391023
 21
0.4751033573
 31
0.0
 40
0.9984778551
 41
-1.2488325878
 42
0.3210503505
  0
ELLIPSE
  5
785
100
AcDbEntity
  8
TRASH
100
AcDbEllipse
 62
7
  6
CONTINUOUS
 10
-37.0559779387
 20
-28.5090352383
 30
0.0
 11
-0.1582391023
 21
0.4751033573
 31
0.0
 40
0.9984778551
 41
2.8205423031
 42
4.3904252414
  0
ELLIPSE
  5
786
100
AcDbEntity
  8
TRASH
100
AcDbEllipse
 62
7
  6
CONTINUOUS
 10
-58.3558256106
 20
15.2895924157
 30
0.0
 11
-0.1582391023
 21
0.4751033573
 31
0.0
 40
0.9984778551
 41
-0.3210503505
 42
1.2488325878
  0
ELLIPSE
  5
787
100
AcDbEntity
  8
TRASH
100
AcDbEllipse
 62
7
  6
CONTINUOUS
 10
-58.3558256106
 20
-28.5090352383
 30
0.0
 11
0.1582391023
 21
0.4751033573
 31
0.0
 40
0.9984778551
 41
1.8927600658
 42
3.4626430041
  0
ELLIPSE
  5
788
100
AcDbEntity
  8
RACCORDO
100
AcDbEllipse
 62
7
  6
CONTINUOUS
 10
-50.7324462499
 20
16.3127815557
 30
0.0
 11
0.1933113718
 21
0.051797626
 31
0.0
 40
0.9993471332
 41
1.5707963268
 42
2.8799564896
  0
ELLIPSE
  5
789
100
AcDbEntity
  8
RACCORDO
100
AcDbEllipse
 62
7
  6
CONTINUOUS
 10
-44.6793572995
 20
16.3127815557
 30
0.0
 11
0.1933113718
 21
-0.051797626
 31
0.0
 40
0.9993471332
 41
0.261636164
 42
1.4595400589
  0
ELLIPSE
  5
78A
100
AcDbEntity
  8
RACCORDO
100
AcDbEllipse
 62
7
  6
CONTINUOUS
 10
-44.6793572995
 20
-29.5322243783
 30
0.0
 11
0.1933113718
 21
0.051797626
 31
0.0
 40
0.9993471332
 41
-1.5707963268
 42
-0.261636164
  0
ELLIPSE
  5
78B
100
AcDbEntity
  8
RACCORDO
100
AcDbEllipse
 62
7
  6
CONTINUOUS
 10
-50.7324462499
 20
-29.5322243783
 30
0.0
 11
0.1933113718
 21
-0.051797626
 31
0.0
 40
0.9993471332
 41
-2.8799564896
 42
-1.6820525947
  0
ELLIPSE
  5
78C
100
AcDbEntity
  8
RACCORDO
100
AcDbEllipse
 62
7
  6
CONTINUOUS
 10
-50.7029523715
 20
16.3206844166
 30
0.0
 11
-0.1629685508
 21
0.1205903841
 31
0.0
 40
0.964825254
 41
-0.6545800814
 42
0.6545800814
  0
ELLIPSE
  5
78D
100
AcDbEntity
  8
RACCORDO
100
AcDbEllipse
 62
7
  6
CONTINUOUS
 10
-44.7088511779
 20
16.3206844166
 30
0.0
 11
0.1629685508
 21
0.1205903841
 31
0.0
 40
0.964825254
 41
-0.6545800814
 42
0.6545800814
  0
ELLIPSE
  5
78E
100
AcDbEntity
  8
RACCORDO
100
AcDbEllipse
 62
7
  6
CONTINUOUS
 10
-50.7029523715
 20
-29.5401272392
 30
0.0
 11
0.1629685508
 21
0.1205903841
 31
0.0
 40
0.964825254
 41
-3.796172735
 42
-2.4870125722
  0
ELLIPSE
  5
78F
100
AcDbEntity
  8
RACCORDO
100
AcDbEllipse
 62
7
  6
CONTINUOUS
 10
-44.7088511779
 20
-29.5401272392
 30
0.0
 11
-0.1629685508
 21
0.1205903841
 31
0.0
 40
0.964825254
 41
-3.796172735
 42
-2.4870125722
  0
ELLIPSE
  5
790
100
AcDbEntity
  8
RACCORDO
100
AcDbEllipse
 62
7
  6
CONTINUOUS
 10
-50.3630026632
 20
14.0210432128
 30
0.0
 11
-0.0
 21
0.5
 31
0.0
 40
0.1875
 41
-0.7853981634
 42
-0.0174532925
  0
ELLIPSE
  5
791
100
AcDbEntity
  8
RACCORDO
100
AcDbEllipse
 62
7
  6
CONTINUOUS
 10
-45.0488008862
 20
-27.2404860354
 30
0.0
 11
0.0
 21
0.5
 31
0.0
 40
0.1875
 41
-3.926990817
 42
-3.1590459461
  0
ELLIPSE
  5
792
100
AcDbEntity
  8
RACCORDO
100
AcDbEllipse
 62
7
  6
CONTINUOUS
 10
-50.4559017747
 20
11.9829932819
 30
0.0
 11
0.4999809615
 21
-0.4999809615
 31
0.0
 40
0.0087268678
 41
-3.1328660073
 42
-1.5795229731
  0
ELLIPSE
  5
793
100
AcDbEntity
  8
RACCORDO
100
AcDbEllipse
 62
7
  6
CONTINUOUS
 10
-44.9559017747
 20
11.9829932819
 30
0.0
 11
0.4999809615
 21
0.4999809615
 31
0.0
 40
0.0087268678
 41
4.7211156266
 42
6.2744586609
  0
ELLIPSE
  5
794
100
AcDbEntity
  8
RACCORDO
100
AcDbEllipse
 62
7
  6
CONTINUOUS
 10
-44.9559017747
 20
-25.2024361045
 30
0.0
 11
0.4999809615
 21
-0.4999809615
 31
0.0
 40
0.0087268678
 41
0.0087266463
 42
1.5620696805
  0
ELLIPSE
  5
795
100
AcDbEntity
  8
RACCORDO
100
AcDbEllipse
 62
7
  6
CONTINUOUS
 10
-50.4559017747
 20
-25.2024361045
 30
0.0
 11
0.4999809615
 21
0.4999809615
 31
0.0
 40
0.0087268678
 41
7.8627082802
 42
9.4160513145
  0
ENDSEC
  0
SECTION
  2
OBJECTS
  0
DICTIONARY
  5
C
100
AcDbDictionary
280
0
281
1
  3
ACAD_GROUP
350
D
  3
ACAD_MLINESTYLE
350
17
  3
ACAD_LAYOUT
350
1A
  3
ACAD_PLOTSETTINGS
350
19
  3
ACAD_PLOTSTYLENAME
350
E
  0
DICTIONARY
  5
D
102
{ACAD_REACTORS
330
C
102
}
100
AcDbDictionary
280
0
281
1
  0
ACDBDICTIONARYWDFLT
  5
E
102
{ACAD_REACTORS
330
C
102
}
100
AcDbDictionary
281
1
  3
Normal
350
F
100
AcDbDictionaryWithDefault
340
F
  0
DICTIONARY
  5
17
102
{ACAD_REACTORS
330
C
102
}
100
AcDbDictionary
280
0
281
1
  3
Standard
350
18
  0
DICTIONARY
  5
19
102
{ACAD_REACTORS
330
C
102
}
100
AcDbDictionary
281
1
  0
DICTIONARY
  5
1A
102
{ACAD_REACTORS
330
C
102
}
100
AcDbDictionary
281
1
  3
Model
350
796
  3
Layout1
350
797
  0
ACDBPLACEHOLDER
  5
F
102
{ACAD_REACTORS
330
E
102
}
  0
MLINESTYLE
  5
18
102
{ACAD_REACTORS
330
17
102
}
100
AcDbMlineStyle
  2
STANDARD
 70
0
  3

 62
256
 51
90.0
 52
90.0
 71
2
 49
0.5
 62
256
  6
BYLAYER
 49
-0.5
 62
256
  6
BYLAYER
  0
LAYOUT
  5
796
102
{ACAD_REACTORS
330
1A
102
}
100
AcDbPlotSettings
  1

  2
none_device
  4
ISO_A4_(297.00_x_210.00_MM)
  6

 40
0.0
 41
0.0
 42
0.0
 43
0.0
 44
297.0
 45
210.0
 46
0.0
 47
0.0
 48
0.0
 49
0.0
140
0.0
141
0.0
142
1.0
143
1.0
 70
1024
 72
1
 73
0
 74
0
  7

 75
0
147
1.0
148
0.0
149
0.0
100
AcDbLayout
  1
Model
 70
0
 71
0
 10
0.0
 20
0.0
 11
297.0
 21
210.0
 12
0.0
 22
0.0
 32
0.0
 14
0.0
 24
0.0
 34
0.0
 15
0.0
 25
0.0
 35
0.0
146
0.0
 13
0.0
 23
0.0
 33
0.0
 16
1.0
 26
0.0
 36
0.0
 17
0.0
 27
1.0
 37
0.0
 76
0
330
219
345
0
346
0
  0
LAYOUT
  5
797
102
{ACAD_REACTORS
330
1A
102
}
100
AcDbPlotSettings
  1

  2
none_device
  4
ISO_A4_(297.00_x_210.00_MM)
  6

 40
0.0
 41
0.0
 42
0.0
 43
0.0
 44
297.0
 45
210.0
 46
0.0
 47
0.0
 48
0.0
 49
0.0
140
0.0
141
0.0
142
1.0
143
1.0
 70
0
 72
1
 73
0
 74
0
  7

 75
0
147
1.0
148
0.0
149
0.0
100
AcDbLayout
  1
Layout1
 70
0
 71
1
 10
0.0
 20
0.0
 11
297.0
 21
210.0
 12
0.0
 22
0.0
 32
0.0
 14
0.0
 24
0.0
 34
0.0
 15
0.0
 25
0.0
 35
0.0
146
0.0
 13
0.0
 23
0.0
 33
0.0
 16
1.0
 26
0.0
 36
0.0
 17
0.0
 27
1.0
 37
0.0
 76
0
330
21A
345
0
346
0
  0
ENDSEC
  0
EOF
