  0
SECTION
  2
HEADER
  9
$ACADVER
  1
AC1024
  9
$DWGCODEPAGE
  3
ANSI_1252
  9
$EXTMAX
 10
210.0
 20
297.0
 30
0.0
  9
$EXTMIN
 10
0.0
 20
0.0
 30
0.0
  9
$LIMMIN
 10
0.0
 20
0.0
  9
$LIMMAX
 10
210.0
 20
297.0
  9
$VIEWCTR
 10
105.0
 20
148.5
  9
$VIEWSIZE
 40
297.0
  9
$CLAYER
  8
0
  9
$LTSCALE
 40
19.36
  9
$CELTYPE
  6
BYLAYER
  9
$DIMSCALE
 40
1.0
  9
$DIMASZ
 40
3.0
  9
$DIMEXO
 40
0.5
  9
$DIMDLI
 40
13.376
  9
$DIMEXE
 40
1.5
  9
$DIMCEN
 40
3.168
  9
$DIMLFAC
 40
1.0
  9
$DIMBLK
  1
_FILLED
  9
$DIMALT
 70
0
  9
$DIMALTF
 40
0.0393700787
  9
$DIMTXT
 40
3.0
  9
$DIMTOL
 70
1
  9
$DIMLIM
 70
0
  9
$DIMTFAC
 40
1.0
  9
$DIMTP
 40
0.01
  9
$DIMTM
 40
0.01
  9
$DIMGAP
 40
0.625
  9
$DIMDSEP
 70
44
  9
$AUNITS
 70
0
  9
$PDMODE
 70
3
  9
$PDSIZE
 40
3.0
  9
$HANDSEED
  5
80C
  9
$TILEMODE
 70
1
  9
$MEASUREMENT
 70
1
  9
$INSUNITS
 70
4
  0
ENDSEC
  0
SECTION
  2
CLASSES
  0
CLASS
  1
ACDBDICTIONARYWDFLT
  2
AcDbDictionaryWithDefault
  3
AutoCAD 2000
 90
0
 91
1
280
0
281
0
  0
CLASS
  1
ACDBPLACEHOLDER
  2
AcDbPlaceHolder
  3
AutoCAD 2000
 90
0
 91
1
280
0
281
0
  0
CLASS
  1
LAYOUT
  2
AcDbLayout
  3
AutoCAD 2000
 90
0
 91
0
280
0
281
0
  0
ENDSEC
  0
SECTION
  2
TABLES
  0
TABLE
  2
VPORT
  5
8
100
AcDbSymbolTable
 70
2
  0
VPORT
  5
1F4
100
AcDbSymbolTableRecord
100
AcDbViewportTableRecord
  2
*ACTIVE
 70
0
 10
0.0
 20
0.0
 11
1.0
 21
1.0
 12
105.0
 22
148.5
 13
0.0
 23
0.0
 14
1.0
 24
1.0
 15
0.0
 25
0.0
 16
0.0
 26
0.0
 36
1.0
 17
0.0
 27
0.0
 37
0.0
 40
297.0
 41
0.7070707071
 42
50.0
 43
0.0
 44
0.0
 50
0.0
 51
0.0
 71
0
 72
100
 73
1
 74
1
 75
0
 76
0
 77
0
 78
0
  0
ENDTAB
  0
TABLE
  2
LTYPE
  5
5
100
AcDbSymbolTable
 70
6
  0
LTYPE
  5
14
100
AcDbSymbolTableRecord
100
AcDbLinetypeTableRecord
  2
BYBLOCK
 70
0
  3

 72
65
 73
0
 40
0.0
  0
LTYPE
  5
15
100
AcDbSymbolTableRecord
100
AcDbLinetypeTableRecord
  2
BYLAYER
 70
0
  3

 72
65
 73
0
 40
0.0
  0
LTYPE
  5
16
100
AcDbSymbolTableRecord
100
AcDbLinetypeTableRecord
  2
CONTINUOUS
 70
64
  3
Solid line
 72
65
 73
0
 40
0.0
  0
LTYPE
  5
1F5
100
AcDbSymbolTableRecord
100
AcDbLinetypeTableRecord
  2
CENTER
 70
64
  3
____ _ ____ _ ____ _ ____ _ ____ _ ____ _ ____
 72
65
 73
4
 40
0.6
 49
0.375
 74
0
 49
-0.075
 74
0
 49
0.075
 74
0
 49
-0.075
 74
0
  0
LTYPE
  5
1F6
100
AcDbSymbolTableRecord
100
AcDbLinetypeTableRecord
  2
HIDDEN
 70
64
  3
- - - - - - - - - - - - - - - - - - - -
 72
65
 73
2
 40
0.2
 49
0.1
 74
0
 49
-0.1
 74
0
  0
LTYPE
  5
1F7
100
AcDbSymbolTableRecord
100
AcDbLinetypeTableRecord
  2
PHANTOM
 70
64
  3
_____ _ _ _____ _ _ _____ _ _ _____
 72
65
 73
6
 40
0.8
 49
0.45
 74
0
 49
-0.05
 74
0
 49
0.1
 74
0
 49
-0.05
 74
0
 49
0.1
 74
0
 49
-0.05
 74
0
  0
LTYPE
  5
1F8
100
AcDbSymbolTableRecord
100
AcDbLinetypeTableRecord
  2
DOT
 70
64
  3
. . . . . . . . . . . . . . . . . . . .
 72
65
 73
2
 40
0.2
 49
0.1
 74
0
 49
-0.1
 74
0
  0
LTYPE
  5
1F9
100
AcDbSymbolTableRecord
100
AcDbLinetypeTableRecord
  2
DASHED
 70
64
  3
- - - - - - - - - - - - - - - - - - - -
 72
65
 73
2
 40
0.2
 49
0.1
 74
0
 49
-0.1
 74
0
  0
ENDTAB
  0
TABLE
  2
LAYER
  5
2
100
AcDbSymbolTable
 70
36
  0
LAYER
  5
10
100
AcDbSymbolTableRecord
100
AcDbLayerTableRecord
  2
0
 70
0
 62
7
  6
CONTINUOUS
370
-3
390
F
  0
LAYER
  5
1FA
100
AcDbSymbolTableRecord
100
AcDbLayerTableRecord
  2
DEFAULT_1
 70
0
 62
7
  6
CENTER
370
-3
390
F
  0
LAYER
  5
1FB
100
AcDbSymbolTableRecord
100
AcDbLayerTableRecord
  2
DEFAULT_2
 70
0
 62
7
  6
HIDDEN
370
-3
390
F
  0
LAYER
  5
1FC
100
AcDbSymbolTableRecord
100
AcDbLayerTableRecord
  2
DEFAULT_3
 70
0
 62
7
  6
PHANTOM
370
-3
390
F
  0
LAYER
  5
1FD
100
AcDbSymbolTableRecord
100
AcDbLayerTableRecord
  2
06___PRT_ALL_SURFS_1
 70
0
 62
7
  6
CONTINUOUS
370
-3
390
F
  0
LAYER
  5
1FE
100
AcDbSymbolTableRecord
100
AcDbLayerTableRecord
  2
06___PRT_ALL_SURFS_10
 70
0
 62
7
  6
CONTINUOUS
370
-3
390
F
  0
LAYER
  5
1FF
100
AcDbSymbolTableRecord
100
AcDbLayerTableRecord
  2
06___PRT_ALL_SURFS_15
 70
0
 62
7
  6
CONTINUOUS
370
-3
390
F
  0
LAYER
  5
200
100
AcDbSymbolTableRecord
100
AcDbLayerTableRecord
  2
06___PRT_ALL_SURFS_16
 70
0
 62
7
  6
CONTINUOUS
370
-3
390
F
  0
LAYER
  5
201
100
AcDbSymbolTableRecord
100
AcDbLayerTableRecord
  2
06___PRT_ALL_SURFS_18
 70
0
 62
7
  6
CONTINUOUS
370
-3
390
F
  0
LAYER
  5
202
100
AcDbSymbolTableRecord
100
AcDbLayerTableRecord
  2
06___PRT_ALL_SURFS_2
 70
0
 62
7
  6
CONTINUOUS
370
-3
390
F
  0
LAYER
  5
203
100
AcDbSymbolTableRecord
100
AcDbLayerTableRecord
  2
06___PRT_ALL_SURFS_3
 70
0
 62
7
  6
CONTINUOUS
370
-3
390
F
  0
LAYER
  5
204
100
AcDbSymbolTableRecord
100
AcDbLayerTableRecord
  2
06___PRT_ALL_SURFS_4
 70
0
 62
7
  6
CONTINUOUS
370
-3
390
F
  0
LAYER
  5
205
100
AcDbSymbolTableRecord
100
AcDbLayerTableRecord
  2
06___PRT_ALL_SURFS_6
 70
0
 62
7
  6
CONTINUOUS
370
-3
390
F
  0
LAYER
  5
206
100
AcDbSymbolTableRecord
100
AcDbLayerTableRecord
  2
06___PRT_ALL_SURFS_7
 70
0
 62
7
  6
CONTINUOUS
370
-3
390
F
  0
LAYER
  5
207
100
AcDbSymbolTableRecord
100
AcDbLayerTableRecord
  2
1206_C_WAVE_180000
 70
0
 62
7
  6
CONTINUOUS
370
-3
390
F
  0
LAYER
  5
208
100
AcDbSymbolTableRecord
100
AcDbLayerTableRecord
  2
1206_R_REF_65000
 70
0
 62
7
  6
CONTINUOUS
370
-3
390
F
  0
LAYER
  5
209
100
AcDbSymbolTableRecord
100
AcDbLayerTableRecord
  2
2125-CC-H1_5-RF-VIMAR_150000
 70
0
 62
7
  6
CONTINUOUS
370
-3
390
F
  0
LAYER
  5
20A
100
AcDbSymbolTableRecord
100
AcDbLayerTableRecord
  2
2125-CC-RF-VIMAR_110000
 70
0
 62
7
  6
CONTINUOUS
370
-3
390
F
  0
LAYER
  5
20B
100
AcDbSymbolTableRecord
100
AcDbLayerTableRecord
  2
2125-CC-RF-VIMAR_110000_1
 70
0
 62
7
  6
CONTINUOUS
370
-3
390
F
  0
LAYER
  5
20C
100
AcDbSymbolTableRecord
100
AcDbLayerTableRecord
  2
2125-CC-RF-VIMAR_110000_2
 70
0
 62
7
  6
CONTINUOUS
370
-3
390
F
  0
LAYER
  5
20D
100
AcDbSymbolTableRecord
100
AcDbLayerTableRecord
  2
2125-CC-RF-VIMAR_110000_3
 70
0
 62
7
  6
CONTINUOUS
370
-3
390
F
  0
LAYER
  5
20E
100
AcDbSymbolTableRecord
100
AcDbLayerTableRecord
  2
2125-CC-RF-VIMAR_110000_4
 70
0
 62
7
  6
CONTINUOUS
370
-3
390
F
  0
LAYER
  5
20F
100
AcDbSymbolTableRecord
100
AcDbLayerTableRecord
  2
2125-R1-RF-VIMAR_60000
 70
0
 62
7
  6
CONTINUOUS
370
-3
390
F
  0
LAYER
  5
210
100
AcDbSymbolTableRecord
100
AcDbLayerTableRecord
  2
2125-R1-RF-VIMAR_60000_1
 70
0
 62
7
  6
CONTINUOUS
370
-3
390
F
  0
LAYER
  5
211
100
AcDbSymbolTableRecord
100
AcDbLayerTableRecord
  2
2125-R1-RF-VIMAR_60000_2
 70
0
 62
7
  6
CONTINUOUS
370
-3
390
F
  0
LAYER
  5
212
100
AcDbSymbolTableRecord
100
AcDbLayerTableRecord
  2
2125-R1-RF-VIMAR_60000_3
 70
0
 62
7
  6
CONTINUOUS
370
-3
390
F
  0
LAYER
  5
213
100
AcDbSymbolTableRecord
100
AcDbLayerTableRecord
  2
2125-R1-RF-VIMAR_60000_4
 70
0
 62
7
  6
CONTINUOUS
370
-3
390
F
  0
LAYER
  5
214
100
AcDbSymbolTableRecord
100
AcDbLayerTableRecord
  2
3216-CF-RF-VIMAR_100000
 70
0
 62
7
  6
CONTINUOUS
370
-3
390
F
  0
LAYER
  5
215
100
AcDbSymbolTableRecord
100
AcDbLayerTableRecord
  2
3216-CF-RF-VIMAR_100000_1
 70
0
 62
7
  6
CONTINUOUS
370
-3
390
F
  0
LAYER
  5
216
100
AcDbSymbolTableRecord
100
AcDbLayerTableRecord
  2
3216-CF-RF-VIMAR_100000_2
 70
0
 62
7
  6
CONTINUOUS
370
-3
390
F
  0
LAYER
  5
217
100
AcDbSymbolTableRecord
100
AcDbLayerTableRecord
  2
3216-R1-RF-VIMAR_60000
 70
0
 62
7
  6
CONTINUOUS
370
-3
390
F
  0
LAYER
  5
218
100
AcDbSymbolTableRecord
100
AcDbLayerTableRecord
  2
3216-R1-RF-VIMAR_60000_1
 70
0
 62
7
  6
CONTINUOUS
370
-3
390
F
  0
LAYER
  5
219
100
AcDbSymbolTableRecord
100
AcDbLayerTableRecord
  2
3225-L-RF-VIMAR_220000
 70
0
 62
7
  6
CONTINUOUS
370
-3
390
F
  0
LAYER
  5
21A
100
AcDbSymbolTableRecord
100
AcDbLayerTableRecord
  2
43000679B0
 70
0
 62
7
  6
CONTINUOUS
370
-3
390
F
  0
LAYER
  5
21B
100
AcDbSymbolTableRecord
100
AcDbLayerTableRecord
  2
ASSI
 70
0
 62
7
  6
CONTINUOUS
370
-3
390
F
  0
LAYER
  5
21C
100
AcDbSymbolTableRecord
100
AcDbLayerTableRecord
  2
CN-MSB02001-VIMAR_1000000
 70
0
 62
7
  6
CONTINUOUS
370
-3
390
F
  0
LAYER
  5
21D
100
AcDbSymbolTableRecord
100
AcDbLayerTableRecord
  2
CN1-REF_SQUAREHOLE12_SPEA-VIMAR
 70
0
 62
7
  6
CONTINUOUS
370
-3
390
F
  0
LAYER
  5
21E
100
AcDbSymbolTableRecord
100
AcDbLayerTableRecord
  2
CN1-REF_SQUAREHOLE12_SPEA-VIM_1
 70
0
 62
7
  6
CONTINUOUS
370
-3
390
F
  0
LAYER
  5
21F
100
AcDbSymbolTableRecord
100
AcDbLayerTableRecord
  2
CN1-REF_SQUAREHOLE12_SPEA-VIM_2
 70
0
 62
7
  6
CONTINUOUS
370
-3
390
F
  0
LAYER
  5
220
100
AcDbSymbolTableRecord
100
AcDbLayerTableRecord
  2
CN1-REF_SQUAREHOLE12_SPEA-VIM_3
 70
0
 62
7
  6
CONTINUOUS
370
-3
390
F
  0
LAYER
  5
221
100
AcDbSymbolTableRecord
100
AcDbLayerTableRecord
  2
CN_THT_USB_TYPE-A_4P_RIGHT_ANGL
 70
0
 62
7
  6
CONTINUOUS
370
-3
390
F
  0
LAYER
  5
222
100
AcDbSymbolTableRecord
100
AcDbLayerTableRecord
  2
COLOR16
 70
0
 62
7
  6
CONTINUOUS
370
-3
390
F
  0
LAYER
  5
223
100
AcDbSymbolTableRecord
100
AcDbLayerTableRecord
  2
COLOR6
 70
0
 62
7
  6
CONTINUOUS
370
-3
390
F
  0
LAYER
  5
224
100
AcDbSymbolTableRecord
100
AcDbLayerTableRecord
  2
COORDINATE
 70
0
 62
7
  6
CONTINUOUS
370
-3
390
F
  0
LAYER
  5
225
100
AcDbSymbolTableRecord
100
AcDbLayerTableRecord
  2
COORD_ORIGINE
 70
0
 62
7
  6
CONTINUOUS
370
-3
390
F
  0
LAYER
  5
226
100
AcDbSymbolTableRecord
100
AcDbLayerTableRecord
  2
COPY_PUBLISH
 70
0
 62
7
  6
CONTINUOUS
370
-3
390
F
  0
LAYER
  5
227
100
AcDbSymbolTableRecord
100
AcDbLayerTableRecord
  2
COSMETICI
 70
0
 62
7
  6
CONTINUOUS
370
-3
390
F
  0
LAYER
  5
228
100
AcDbSymbolTableRecord
100
AcDbLayerTableRecord
  2
CP-DO-SUB-SMA-VIMAR_145000
 70
0
 62
7
  6
CONTINUOUS
370
-3
390
F
  0
LAYER
  5
229
100
AcDbSymbolTableRecord
100
AcDbLayerTableRecord
  2
CP-DO-SUB-SMA-VIMAR_145000_1
 70
0
 62
7
  6
CONTINUOUS
370
-3
390
F
  0
LAYER
  5
22A
100
AcDbSymbolTableRecord
100
AcDbLayerTableRecord
  2
CURVE
 70
0
 62
7
  6
CONTINUOUS
370
-3
390
F
  0
LAYER
  5
22B
100
AcDbSymbolTableRecord
100
AcDbLayerTableRecord
  2
DRAFT
 70
0
 62
7
  6
CONTINUOUS
370
-3
390
F
  0
LAYER
  5
22C
100
AcDbSymbolTableRecord
100
AcDbLayerTableRecord
  2
E2_MARK_10000
 70
0
 62
7
  6
CONTINUOUS
370
-3
390
F
  0
LAYER
  5
22D
100
AcDbSymbolTableRecord
100
AcDbLayerTableRecord
  2
ESOP-12B-VIMAR_0
 70
0
 62
7
  6
CONTINUOUS
370
-3
390
F
  0
LAYER
  5
22E
100
AcDbSymbolTableRecord
100
AcDbLayerTableRecord
  2
FUSE-1A-250V_770000
 70
0
 62
7
  6
CONTINUOUS
370
-3
390
F
  0
LAYER
  5
22F
100
AcDbSymbolTableRecord
100
AcDbLayerTableRecord
  2
GEOMETRIA_SOLIDA
 70
0
 62
7
  6
CONTINUOUS
370
-3
390
F
  0
LAYER
  5
230
100
AcDbSymbolTableRecord
100
AcDbLayerTableRecord
  2
GEOMETRIA_SOLIDA_1
 70
0
 62
7
  6
CONTINUOUS
370
-3
390
F
  0
LAYER
  5
231
100
AcDbSymbolTableRecord
100
AcDbLayerTableRecord
  2
GEOMETRIA_SOLIDA_2
 70
0
 62
7
  6
CONTINUOUS
370
-3
390
F
  0
LAYER
  5
232
100
AcDbSymbolTableRecord
100
AcDbLayerTableRecord
  2
IMPORT
 70
0
 62
7
  6
CONTINUOUS
370
-3
390
F
  0
LAYER
  5
233
100
AcDbSymbolTableRecord
100
AcDbLayerTableRecord
  2
IMPORT_IGES
 70
0
 62
7
  6
CONTINUOUS
370
-3
390
F
  0
LAYER
  5
234
100
AcDbSymbolTableRecord
100
AcDbLayerTableRecord
  2
INTF_1
 70
0
 62
7
  6
CONTINUOUS
370
-3
390
F
  0
LAYER
  5
235
100
AcDbSymbolTableRecord
100
AcDbLayerTableRecord
  2
INTF_11
 70
0
 62
7
  6
CONTINUOUS
370
-3
390
F
  0
LAYER
  5
236
100
AcDbSymbolTableRecord
100
AcDbLayerTableRecord
  2
INTF_15
 70
0
 62
7
  6
CONTINUOUS
370
-3
390
F
  0
LAYER
  5
237
100
AcDbSymbolTableRecord
100
AcDbLayerTableRecord
  2
INTF_2
 70
0
 62
7
  6
CONTINUOUS
370
-3
390
F
  0
LAYER
  5
238
100
AcDbSymbolTableRecord
100
AcDbLayerTableRecord
  2
INTF_3
 70
0
 62
7
  6
CONTINUOUS
370
-3
390
F
  0
LAYER
  5
239
100
AcDbSymbolTableRecord
100
AcDbLayerTableRecord
  2
INTF_8
 70
0
 62
7
  6
CONTINUOUS
370
-3
390
F
  0
LAYER
  5
23A
100
AcDbSymbolTableRecord
100
AcDbLayerTableRecord
  2
INTF_BLANK
 70
0
 62
7
  6
CONTINUOUS
370
-3
390
F
  0
LAYER
  5
23B
100
AcDbSymbolTableRecord
100
AcDbLayerTableRecord
  2
LOGO_RESIST-RESTYLING_10000
 70
0
 62
7
  6
CONTINUOUS
370
-3
390
F
  0
LAYER
  5
23C
100
AcDbSymbolTableRecord
100
AcDbLayerTableRecord
  2
MM4-ABS-VIMAR_180000
 70
0
 62
7
  6
CONTINUOUS
370
-3
390
F
  0
LAYER
  5
23D
100
AcDbSymbolTableRecord
100
AcDbLayerTableRecord
  2
NO-PB_MARK_10000
 70
0
 62
7
  6
CONTINUOUS
370
-3
390
F
  0
LAYER
  5
23E
100
AcDbSymbolTableRecord
100
AcDbLayerTableRecord
  2
NOTE
 70
0
 62
7
  6
CONTINUOUS
370
-3
390
F
  0
LAYER
  5
23F
100
AcDbSymbolTableRecord
100
AcDbLayerTableRecord
  2
PIANI
 70
0
 62
7
  6
CONTINUOUS
370
-3
390
F
  0
LAYER
  5
240
100
AcDbSymbolTableRecord
100
AcDbLayerTableRecord
  2
PIANI_ORIGINE
 70
0
 62
7
  6
CONTINUOUS
370
-3
390
F
  0
LAYER
  5
241
100
AcDbSymbolTableRecord
100
AcDbLayerTableRecord
  2
PUNTI
 70
0
 62
7
  6
CONTINUOUS
370
-3
390
F
  0
LAYER
  5
242
100
AcDbSymbolTableRecord
100
AcDbLayerTableRecord
  2
RACCORDO
 70
0
 62
7
  6
CONTINUOUS
370
-3
390
F
  0
LAYER
  5
243
100
AcDbSymbolTableRecord
100
AcDbLayerTableRecord
  2
RD-C100-5-VIMAR_1250000
 70
0
 62
7
  6
CONTINUOUS
370
-3
390
F
  0
LAYER
  5
244
100
AcDbSymbolTableRecord
100
AcDbLayerTableRecord
  2
RD-C50-17-VIMAR_1300000
 70
0
 62
7
  6
CONTINUOUS
370
-3
390
F
  0
LAYER
  5
245
100
AcDbSymbolTableRecord
100
AcDbLayerTableRecord
  2
RD-CE25-1-VIMAR_1100000
 70
0
 62
7
  6
CONTINUOUS
370
-3
390
F
  0
LAYER
  5
246
100
AcDbSymbolTableRecord
100
AcDbLayerTableRecord
  2
RD-CE25-1-VIMAR_1100000_1
 70
0
 62
7
  6
CONTINUOUS
370
-3
390
F
  0
LAYER
  5
247
100
AcDbSymbolTableRecord
100
AcDbLayerTableRecord
  2
RD-CE50-1-VIMAR_1250000
 70
0
 62
7
  6
CONTINUOUS
370
-3
390
F
  0
LAYER
  5
248
100
AcDbSymbolTableRecord
100
AcDbLayerTableRecord
  2
RD-CE50-1-VIMAR_1250000_1
 70
0
 62
7
  6
CONTINUOUS
370
-3
390
F
  0
LAYER
  5
249
100
AcDbSymbolTableRecord
100
AcDbLayerTableRecord
  2
RD-CE50-3-VIMAR_2000000
 70
0
 62
7
  6
CONTINUOUS
370
-3
390
F
  0
LAYER
  5
24A
100
AcDbSymbolTableRecord
100
AcDbLayerTableRecord
  2
RD-CE50-3-VIMAR_2000000_1
 70
0
 62
7
  6
CONTINUOUS
370
-3
390
F
  0
LAYER
  5
24B
100
AcDbSymbolTableRecord
100
AcDbLayerTableRecord
  2
RD_D6H8_5_VIMAR_850000
 70
0
 62
7
  6
CONTINUOUS
370
-3
390
F
  0
LAYER
  5
24C
100
AcDbSymbolTableRecord
100
AcDbLayerTableRecord
  2
RESC1608N_45000
 70
0
 62
7
  6
CONTINUOUS
370
-3
390
F
  0
LAYER
  5
24D
100
AcDbSymbolTableRecord
100
AcDbLayerTableRecord
  2
RUBBERPAD-R-07X22_0
 70
0
 62
7
  6
CONTINUOUS
370
-3
390
F
  0
LAYER
  5
24E
100
AcDbSymbolTableRecord
100
AcDbLayerTableRecord
  2
SIMBOLI
 70
0
 62
7
  6
CONTINUOUS
370
-3
390
F
  0
LAYER
  5
24F
100
AcDbSymbolTableRecord
100
AcDbLayerTableRecord
  2
SMUSSO
 70
0
 62
7
  6
CONTINUOUS
370
-3
390
F
  0
LAYER
  5
250
100
AcDbSymbolTableRecord
100
AcDbLayerTableRecord
  2
SUPERFICI
 70
0
 62
7
  6
CONTINUOUS
370
-3
390
F
  0
LAYER
  5
251
100
AcDbSymbolTableRecord
100
AcDbLayerTableRecord
  2
TRA-RM6S_I_1250000
 70
0
 62
7
  6
CONTINUOUS
370
-3
390
F
  0
LAYER
  5
252
100
AcDbSymbolTableRecord
100
AcDbLayerTableRecord
  2
TRASH
 70
0
 62
7
  6
CONTINUOUS
370
-3
390
F
  0
LAYER
  5
253
100
AcDbSymbolTableRecord
100
AcDbLayerTableRecord
  2
VG_TO220FPAC_2000000
 70
0
 62
7
  6
CONTINUOUS
370
-3
390
F
  0
LAYER
  5
254
100
AcDbSymbolTableRecord
100
AcDbLayerTableRecord
  2
VG_TO220FPAC_A90_1200000
 70
0
 62
7
  6
CONTINUOUS
370
-3
390
F
  0
LAYER
  5
255
100
AcDbSymbolTableRecord
100
AcDbLayerTableRecord
  2
___SHELL
 70
0
 62
7
  6
CONTINUOUS
370
-3
390
F
  0
ENDTAB
  0
TABLE
  2
STYLE
  5
3
100
AcDbSymbolTable
 70
1
  0
STYLE
  5
11
100
AcDbSymbolTableRecord
100
AcDbTextStyleTableRecord
  2
STANDARD
 70
0
 40
0.0
 41
0.8
 50
0.0
 71
0
 42
0.2
  3
txt
  4

  0
STYLE
  5
256
100
AcDbSymbolTableRecord
100
AcDbTextStyleTableRecord
  2
TEXTSTYLE_1
 70
0
 40
0.0
 41
0.8
 50
0.0
 71
0
 42
0.2
  3
gdt
  4

  0
ENDTAB
  0
TABLE
  2
VIEW
  5
6
100
AcDbSymbolTable
 70
0
  0
ENDTAB
  0
TABLE
  2
UCS
  5
7
100
AcDbSymbolTable
 70
0
  0
ENDTAB
  0
TABLE
  2
APPID
  5
9
100
AcDbSymbolTable
 70
1
  0
APPID
  5
257
100
AcDbSymbolTableRecord
100
AcDbRegAppTableRecord
  2
ACAD
 70
0
  0
ENDTAB
  0
TABLE
  2
BLOCK_RECORD
  5
1
100
AcDbSymbolTable
 70
0
  0
BLOCK_RECORD
  5
258
100
AcDbSymbolTableRecord
100
AcDbBlockTableRecord
  2
*Model_Space
  0
BLOCK_RECORD
  5
259
100
AcDbSymbolTableRecord
100
AcDbBlockTableRecord
  2
*Paper_Space
  0
BLOCK_RECORD
  5
25A
100
AcDbSymbolTableRecord
100
AcDbBlockTableRecord
  2
_FILLED
  0
ENDTAB
  0
TABLE
  2
DIMSTYLE
  5
A
100
AcDbSymbolTable
 70
1
100
AcDbDimStyleTable
 71
0
  0
DIMSTYLE
105
25B
100
AcDbSymbolTableRecord
100
AcDbDimStyleTableRecord
  2
STANDARD
 70
0
  3

  4

 40
1.0
 41
3.0
 42
0.5
 43
0.38
 44
1.5
 45
0.0
 46
0.0
 47
0.01
 48
0.01
140
3.0
141
0.09
142
0.0
143
25.4
144
1.0
145
0.0
146
1.0
147
0.625
 71
1.0
 72
0.0
 73
0
 74
0
 75
0
 76
0
 77
1
 78
8
 79
2
170
0
171
1
172
0
173
0
174
0
175
0
176
0
177
0
178
0
270
2
179
2
271
2
272
2
273
2
274
2
275
0
280
0
281
0
282
0
283
1
284
8
285
0
286
0
287
3
288
0
340
11
278
44
341
25A
342
25A
343
25A
344
25A
  0
ENDTAB
  0
ENDSEC
  0
SECTION
  2
BLOCKS
  0
BLOCK
  5
20
100
AcDbEntity
  8
0
100
AcDbBlockBegin
  2
*Model_Space
 70
0
 10
0.0
 20
0.0
 30
0.0
  3
*Model_Space
  1

  0
ENDBLK
  5
21
100
AcDbEntity
  8
0
100
AcDbBlockEnd
  0
BLOCK
  5
1C
100
AcDbEntity
  8
0
100
AcDbBlockBegin
  2
*Paper_Space
 70
0
 10
0.0
 20
0.0
 30
0.0
  3
*Paper_Space
  1

  0
ENDBLK
  5
1D
100
AcDbEntity
  8
0
100
AcDbBlockEnd
  0
BLOCK
  5
25C
100
AcDbEntity
  8
0
100
AcDbBlockBegin
  2
_FILLED
 70
64
 10
0.0
 20
0.0
  3
_FILLED
  1

  0
SOLID
  5
25D
100
AcDbEntity
  8
0
  6
BYBLOCK
 62
0
100
AcDbTrace
 10
0.0
 20
0.0
 11
-1.0
 21
0.3166666667
 12
-1.0
 22
-0.3166666667
 13
-1.0
 23
-0.3166666667
  0
ENDBLK
  5
25E
100
AcDbEntity
  8
0
  6
BYBLOCK
 62
0
100
AcDbBlockEnd
  0
ENDSEC
  0
SECTION
  2
ENTITIES
  0
LINE
  5
25F
100
AcDbEntity
  8
ASSI
100
AcDbLine
 62
7
  6
CONTINUOUS
 10
-3.6748580251
 20
-23.5
 11
3.6748580251
 21
-23.5
  0
LINE
  5
260
100
AcDbEntity
  8
ASSI
100
AcDbLine
 62
7
  6
CONTINUOUS
 10
3.3633443637
 20
-23.4668353766
 11
-3.3633443637
 21
-23.4668353766
  0
LINE
  5
261
100
AcDbEntity
  8
ASSI
100
AcDbLine
 62
7
  6
CONTINUOUS
 10
3.653791075
 20
-23.4301797403
 11
3.4
 21
-23.4301797403
  0
LINE
  5
262
100
AcDbEntity
  8
ASSI
100
AcDbLine
 62
7
  6
CONTINUOUS
 10
-3.4
 20
-23.4301797403
 11
-3.653791075
 21
-23.4301797403
  0
LINE
  5
263
100
AcDbEntity
  8
ASSI
100
AcDbLine
 62
7
  6
CONTINUOUS
 10
-3.230158461
 20
-23.375
 11
3.230158461
 21
-23.375
  0
LINE
  5
264
100
AcDbEntity
  8
ASSI
100
AcDbLine
 62
7
  6
CONTINUOUS
 10
3.3633443637
 20
-22.5
 11
3.230158461
 21
-22.5
  0
LINE
  5
265
100
AcDbEntity
  8
ASSI
100
AcDbLine
 62
7
  6
CONTINUOUS
 10
-3.230158461
 20
-22.5
 11
-3.3633443637
 21
-22.5
  0
LINE
  5
266
100
AcDbEntity
  8
ASSI
100
AcDbLine
 62
7
  6
CONTINUOUS
 10
-10.6503805997
 20
-22.4
 11
-5.5473532533
 21
-22.4
  0
LINE
  5
267
100
AcDbEntity
  8
ASSI
100
AcDbLine
 62
7
  6
CONTINUOUS
 10
-3.3848722771
 20
-22.4
 11
-3.3
 21
-22.4
  0
LINE
  5
268
100
AcDbEntity
  8
ASSI
100
AcDbLine
 62
7
  6
CONTINUOUS
 10
3.3
 20
-22.4
 11
3.3848722771
 21
-22.4
  0
LINE
  5
269
100
AcDbEntity
  8
ASSI
100
AcDbLine
 62
7
  6
CONTINUOUS
 10
5.5473532533
 20
-22.4
 11
10.6503805997
 21
-22.4
  0
LWPOLYLINE
  5
26A
100
AcDbEntity
  8
ASSI
100
AcDbPolyline
 62
7
  6
CONTINUOUS
 90
10
 70
0
 10
-3.6748580251
 20
-23.5
 10
-3.7403295821
 20
-23.4978096549
 10
-3.804982696
 20
-23.4914785729
 10
-3.8688173668
 20
-23.4810067538
 10
-3.9320963945
 20
-23.46631496
 10
-3.9945569791
 20
-23.4474824292
 10
-4.0554107206
 20
-23.4247468744
 10
-4.1143948191
 20
-23.3981875334
 10
-4.1717720746
 20
-23.3677251683
 10
-4.2275424871
 20
-23.3333597793
  0
LWPOLYLINE
  5
26B
100
AcDbEntity
  8
ASSI
100
AcDbPolyline
 62
7
  6
CONTINUOUS
 90
10
 70
0
 10
-3.653791075
 20
-23.4301797403
 10
-3.7193524144
 20
-23.4279830815
 10
-3.784091406
 20
-23.4216350422
 10
-3.8480080499
 20
-23.4111356227
 10
-3.9113657378
 20
-23.3964052951
 10
-3.9739010778
 20
-23.3775235872
 10
-4.0348238951
 20
-23.3547290816
 10
-4.0938707981
 20
-23.328101306
 10
-4.1513051783
 20
-23.2975607327
 10
-4.2071270357
 20
-23.2631073618
  0
LINE
  5
26C
100
AcDbEntity
  8
ASSI
100
AcDbLine
 62
7
  6
CONTINUOUS
 10
-6.8409262158
 20
21.2785408778
 11
-6.7953926254
 21
21.3176784544
  0
LWPOLYLINE
  5
26D
100
AcDbEntity
  8
ASSI
100
AcDbPolyline
 62
7
  6
CONTINUOUS
 90
3
 70
0
 10
-6.7953926254
 20
21.3176784544
 10
-6.7225602955
 20
21.3795939776
 10
-6.7022433077
 20
21.3965394526
  0
LWPOLYLINE
  5
26E
100
AcDbEntity
  8
ASSI
100
AcDbPolyline
 62
7
  6
CONTINUOUS
 90
10
 70
0
 10
-4.2275424324
 20
23.3333598158
 10
-4.1717727948
 20
23.3677249015
 10
-4.1143959467
 20
23.3981870942
 10
-4.055411888
 20
23.4247463939
 10
-3.9945575979
 20
23.4474821133
 10
-3.9320960973
 20
23.4663149397
 10
-3.8688164486
 20
23.4810069354
 10
-3.8049816727
 20
23.4914787877
 10
-3.7403287489
 20
23.4978098092
 10
-3.674857677
 20
23.5
  0
LINE
  5
26F
100
AcDbEntity
  8
ASSI
100
AcDbLine
 62
7
  6
CONTINUOUS
 10
-2.6175930356
 20
-21.1271628567
 11
-3.1
 21
-21.1720718961
  0
LINE
  5
270
100
AcDbEntity
  8
ASSI
100
AcDbLine
 62
7
  6
CONTINUOUS
 10
-3.298652529
 20
-21.190565191
 11
-3.3631544652
 21
-21.1965699136
  0
LINE
  5
271
100
AcDbEntity
  8
ASSI
100
AcDbLine
 62
7
  6
CONTINUOUS
 10
-3.1
 20
-22.2
 11
3.1
 21
-22.2
  0
LINE
  5
272
100
AcDbEntity
  8
ASSI
100
AcDbLine
 62
7
  6
CONTINUOUS
 10
3.163808999
 20
-21.975
 11
3.1
 21
-21.975
  0
LINE
  5
273
100
AcDbEntity
  8
ASSI
100
AcDbLine
 62
7
  6
CONTINUOUS
 10
-3.1
 20
-21.975
 11
-3.163808999
 21
-21.975
  0
LINE
  5
274
100
AcDbEntity
  8
ASSI
100
AcDbLine
 62
7
  6
CONTINUOUS
 10
2.7167632191
 20
-21.6560705017
 11
-2.7167632191
 21
-21.6560705017
  0
LINE
  5
275
100
AcDbEntity
  8
ASSI
100
AcDbLine
 62
250
  6
CONTINUOUS
 10
6.7022433077
 20
-21.3965394526
 11
3.4
 21
-21.3965394526
  0
LINE
  5
276
100
AcDbEntity
  8
ASSI
100
AcDbLine
 62
250
  6
CONTINUOUS
 10
-3.4
 20
-21.3965394526
 11
-6.7022433077
 21
-21.3965394526
  0
LINE
  5
277
100
AcDbEntity
  8
ASSI
100
AcDbLine
 62
250
  6
CONTINUOUS
 10
6.9326502504
 20
-21.1965699136
 11
3.3631544652
 21
-21.1965699136
  0
LINE
  5
278
100
AcDbEntity
  8
ASSI
100
AcDbLine
 62
250
  6
CONTINUOUS
 10
-3.3631544652
 20
-21.1965699136
 11
-6.9326502504
 21
-21.1965699136
  0
LINE
  5
279
100
AcDbEntity
  8
ASSI
100
AcDbLine
 62
7
  6
CONTINUOUS
 10
3.298652529
 20
-21.190565191
 11
3.1
 21
-21.190565191
  0
LINE
  5
27A
100
AcDbEntity
  8
ASSI
100
AcDbLine
 62
7
  6
CONTINUOUS
 10
-3.1
 20
-21.190565191
 11
-3.298652529
 21
-21.190565191
  0
LINE
  5
27B
100
AcDbEntity
  8
ASSI
100
AcDbLine
 62
7
  6
CONTINUOUS
 10
6.9069415429
 20
-21.1271628567
 11
2.6175930356
 21
-21.1271628567
  0
LINE
  5
27C
100
AcDbEntity
  8
ASSI
100
AcDbLine
 62
7
  6
CONTINUOUS
 10
-2.6175930356
 20
-21.1271628567
 11
-6.9069415429
 21
-21.1271628567
  0
LINE
  5
27D
100
AcDbEntity
  8
ASSI
100
AcDbLine
 62
7
  6
CONTINUOUS
 10
-9.65
 20
-20.9
 11
-7.3804017336
 21
-20.9
  0
LINE
  5
27E
100
AcDbEntity
  8
ASSI
100
AcDbLine
 62
7
  6
CONTINUOUS
 10
7.3804017336
 20
-20.9
 11
9.65
 21
-20.9
  0
LINE
  5
27F
100
AcDbEntity
  8
ASSI
100
AcDbLine
 62
7
  6
CONTINUOUS
 10
3.3631544652
 20
-21.1965699136
 11
3.298652529
 21
-21.190565191
  0
LINE
  5
280
100
AcDbEntity
  8
ASSI
100
AcDbLine
 62
7
  6
CONTINUOUS
 10
3.1
 20
-21.1720718961
 11
2.6175930356
 21
-21.1271628567
  0
LINE
  5
281
100
AcDbEntity
  8
ASSI
100
AcDbLine
 62
7
  6
CONTINUOUS
 10
-6.7022433077
 20
-21.3965394526
 11
-6.7225598692
 21
-21.3795943351
  0
LWPOLYLINE
  5
282
100
AcDbEntity
  8
ASSI
100
AcDbPolyline
 62
7
  6
CONTINUOUS
 90
3
 70
0
 10
-6.7225598692
 20
-21.3795943351
 10
-6.8114503158
 20
-21.3039146437
 10
-6.8409248265
 20
-21.2785420776
  0
LINE
  5
283
100
AcDbEntity
  8
ASSI
100
AcDbLine
 62
7
  6
CONTINUOUS
 10
-3.4
 20
23.4301797403
 11
-3.3633443637
 21
23.4668353766
  0
LINE
  5
284
100
AcDbEntity
  8
ASSI
100
AcDbLine
 62
7
  6
CONTINUOUS
 10
-6.9134112664
 20
21.2149015874
 11
-6.8979102978
 21
21.228719206
  0
LINE
  5
285
100
AcDbEntity
  8
ASSI
100
AcDbLine
 62
7
  6
CONTINUOUS
 10
-6.8979102978
 20
21.228719206
 11
-6.8781365695
 21
21.2461628647
  0
LINE
  5
286
100
AcDbEntity
  8
ASSI
100
AcDbLine
 62
7
  6
CONTINUOUS
 10
-6.8781365695
 20
21.2461628647
 11
-6.8409262158
 21
21.2785408778
  0
LWPOLYLINE
  5
287
100
AcDbEntity
  8
ASSI
100
AcDbPolyline
 62
7
  6
CONTINUOUS
 90
19
 70
0
 10
3.3631544652
 20
21.1965699136
 10
3.3664609334
 20
21.1976992592
 10
3.3696847062
 20
21.2002662498
 10
3.3728257835
 20
21.2042708852
 10
3.3759051106
 20
21.2097672282
 10
3.3789017423
 20
21.2167012161
 10
3.3817528428
 20
21.2249106608
 10
3.3844565052
 20
21.2344279607
 10
3.3870146365
 20
21.2452207173
 10
3.3893701215
 20
21.2570295477
 10
3.3915173156
 20
21.2698766054
 10
3.3934618634
 20
21.2837397368
 10
3.3951635838
 20
21.2982930979
 10
3.3966162742
 20
21.3135361116
 10
3.3978261372
 20
21.3294693549
 10
3.3987715986
 20
21.3457687153
 10
3.3994454673
 20
21.3623261552
 10
3.3998549344
 20
21.3792497123
 10
3.4
 20
21.3965393865
  0
LINE
  5
288
100
AcDbEntity
  8
ASSI
100
AcDbLine
 62
7
  6
CONTINUOUS
 10
2.7064339759
 20
-20.11606729
 11
2.624902739
 21
-20.1183638817
  0
LINE
  5
289
100
AcDbEntity
  8
ASSI
100
AcDbLine
 62
7
  6
CONTINUOUS
 10
-1.0935660241
 20
-20.11606729
 11
-1.175097261
 21
-20.1183638817
  0
LINE
  5
28A
100
AcDbEntity
  8
ASSI
100
AcDbLine
 62
7
  6
CONTINUOUS
 10
-4.8935660241
 20
-20.11606729
 11
-4.975097261
 21
-20.1183638817
  0
LINE
  5
28B
100
AcDbEntity
  8
ASSI
100
AcDbLine
 62
7
  6
CONTINUOUS
 10
2.624902739
 20
-20.1183638817
 11
2.5286306996
 21
-20.1204501574
  0
LINE
  5
28C
100
AcDbEntity
  8
ASSI
100
AcDbLine
 62
7
  6
CONTINUOUS
 10
-1.175097261
 20
-20.1183638817
 11
-1.2713693004
 21
-20.1204501574
  0
LINE
  5
28D
100
AcDbEntity
  8
ASSI
100
AcDbLine
 62
7
  6
CONTINUOUS
 10
-4.975097261
 20
-20.1183638817
 11
-5.0713693004
 21
-20.1204501574
  0
LINE
  5
28E
100
AcDbEntity
  8
ASSI
100
AcDbLine
 62
7
  6
CONTINUOUS
 10
2.5286306996
 20
-20.1204501574
 11
2.3586644712
 21
-20.1231359045
  0
LINE
  5
28F
100
AcDbEntity
  8
ASSI
100
AcDbLine
 62
7
  6
CONTINUOUS
 10
-1.2713693004
 20
-20.1204501574
 11
-1.4413355288
 21
-20.1231359045
  0
LINE
  5
290
100
AcDbEntity
  8
ASSI
100
AcDbLine
 62
7
  6
CONTINUOUS
 10
-5.0713693004
 20
-20.1204501574
 11
-5.2413355288
 21
-20.1231359045
  0
LINE
  5
291
100
AcDbEntity
  8
ASSI
100
AcDbLine
 62
7
  6
CONTINUOUS
 10
2.3586644712
 20
-20.1231359045
 11
2.090422856
 21
-20.1258188901
  0
LINE
  5
292
100
AcDbEntity
  8
ASSI
100
AcDbLine
 62
7
  6
CONTINUOUS
 10
-1.4413355288
 20
-20.1231359045
 11
-1.709577144
 21
-20.1258188901
  0
LINE
  5
293
100
AcDbEntity
  8
ASSI
100
AcDbLine
 62
7
  6
CONTINUOUS
 10
-5.2413355288
 20
-20.1231359045
 11
-5.509577144
 21
-20.1258188901
  0
LINE
  5
294
100
AcDbEntity
  8
ASSI
100
AcDbLine
 62
7
  6
CONTINUOUS
 10
2.090422856
 20
-20.1258188901
 11
1.7918092192
 21
-20.1273145622
  0
LINE
  5
295
100
AcDbEntity
  8
ASSI
100
AcDbLine
 62
7
  6
CONTINUOUS
 10
-1.709577144
 20
-20.1258188901
 11
-2.0081907808
 21
-20.1273145622
  0
LINE
  5
296
100
AcDbEntity
  8
ASSI
100
AcDbLine
 62
7
  6
CONTINUOUS
 10
-5.509577144
 20
-20.1258188901
 11
-5.8081907808
 21
-20.1273145622
  0
LINE
  5
297
100
AcDbEntity
  8
ASSI
100
AcDbLine
 62
7
  6
CONTINUOUS
 10
7.9505475557
 20
-20.1601175636
 11
-7.9505475557
 21
-20.1601175636
  0
LINE
  5
298
100
AcDbEntity
  8
ASSI
100
AcDbLine
 62
7
  6
CONTINUOUS
 10
6.45
 20
-19.6738174026
 11
3.0178956303
 21
-19.6738174026
  0
LINE
  5
299
100
AcDbEntity
  8
ASSI
100
AcDbLine
 62
7
  6
CONTINUOUS
 10
0.1821043697
 20
-19.6738174026
 11
-0.7821043697
 21
-19.6738174026
  0
LINE
  5
29A
100
AcDbEntity
  8
ASSI
100
AcDbLine
 62
7
  6
CONTINUOUS
 10
-3.6178956303
 20
-19.6738174026
 11
-4.5821043697
 21
-19.6738174026
  0
LINE
  5
29B
100
AcDbEntity
  8
ASSI
100
AcDbLine
 62
7
  6
CONTINUOUS
 10
-7.4178956303
 20
-19.6738174026
 11
-7.7550288142
 21
-19.6738174026
  0
LINE
  5
29C
100
AcDbEntity
  8
ASSI
100
AcDbLine
 62
7
  6
CONTINUOUS
 10
-5.8081907808
 20
-20.1273145622
 11
-6.1152139841
 21
-20.1274842496
  0
LINE
  5
29D
100
AcDbEntity
  8
ASSI
100
AcDbLine
 62
7
  6
CONTINUOUS
 10
-2.0081907808
 20
-20.1273145622
 11
-2.3152139841
 21
-20.1274842496
  0
LINE
  5
29E
100
AcDbEntity
  8
ASSI
100
AcDbLine
 62
7
  6
CONTINUOUS
 10
1.7918092192
 20
-20.1273145622
 11
1.4847860159
 21
-20.1274842496
  0
LINE
  5
29F
100
AcDbEntity
  8
ASSI
100
AcDbLine
 62
7
  6
CONTINUOUS
 10
-6.1152139841
 20
-20.1274842496
 11
-6.4174555637
 21
-20.1263129343
  0
LINE
  5
2A0
100
AcDbEntity
  8
ASSI
100
AcDbLine
 62
7
  6
CONTINUOUS
 10
-2.3152139841
 20
-20.1274842496
 11
-2.6174555637
 21
-20.1263129343
  0
LINE
  5
2A1
100
AcDbEntity
  8
ASSI
100
AcDbLine
 62
7
  6
CONTINUOUS
 10
1.4847860159
 20
-20.1274842496
 11
1.1825444363
 21
-20.1263129343
  0
LINE
  5
2A2
100
AcDbEntity
  8
ASSI
100
AcDbLine
 62
7
  6
CONTINUOUS
 10
-6.4174555637
 20
-20.1263129343
 11
-6.6956145406
 21
-20.1239076482
  0
LINE
  5
2A3
100
AcDbEntity
  8
ASSI
100
AcDbLine
 62
7
  6
CONTINUOUS
 10
-2.6174555637
 20
-20.1263129343
 11
-2.8956145406
 21
-20.1239076482
  0
LINE
  5
2A4
100
AcDbEntity
  8
ASSI
100
AcDbLine
 62
7
  6
CONTINUOUS
 10
1.1825444363
 20
-20.1263129343
 11
0.9043854594
 21
-20.1239076482
  0
LINE
  5
2A5
100
AcDbEntity
  8
ASSI
100
AcDbLine
 62
7
  6
CONTINUOUS
 10
-6.6956145406
 20
-20.1239076482
 11
-6.8752981574
 21
-20.1214051283
  0
LINE
  5
2A6
100
AcDbEntity
  8
ASSI
100
AcDbLine
 62
7
  6
CONTINUOUS
 10
-2.8956145406
 20
-20.1239076482
 11
-3.0752981574
 21
-20.1214051283
  0
LINE
  5
2A7
100
AcDbEntity
  8
ASSI
100
AcDbLine
 62
7
  6
CONTINUOUS
 10
0.9043854594
 20
-20.1239076482
 11
0.7247018426
 21
-20.1214051283
  0
LINE
  5
2A8
100
AcDbEntity
  8
ASSI
100
AcDbLine
 62
7
  6
CONTINUOUS
 10
-6.8752981574
 20
-20.1214051283
 11
-6.9784933034
 21
-20.1194360247
  0
LINE
  5
2A9
100
AcDbEntity
  8
ASSI
100
AcDbLine
 62
7
  6
CONTINUOUS
 10
-3.0752981574
 20
-20.1214051283
 11
-3.1784933034
 21
-20.1194360247
  0
LINE
  5
2AA
100
AcDbEntity
  8
ASSI
100
AcDbLine
 62
7
  6
CONTINUOUS
 10
0.7247018426
 20
-20.1214051283
 11
0.6215066966
 21
-20.1194360247
  0
LWPOLYLINE
  5
2AB
100
AcDbEntity
  8
ASSI
100
AcDbPolyline
 62
7
  6
CONTINUOUS
 90
11
 70
0
 10
-6.9784933034
 20
-20.1194360247
 10
-7.0675184145
 20
-20.1172423164
 10
-7.1064339759
 20
-20.11606729
 10
-7.1415557771
 20
-20.1148428415
 10
-7.1722622877
 20
-20.1135896762
 10
-7.1984474042
 20
-20.1123064264
 10
-7.22021723
 20
-20.1109944598
 10
-7.237268545
 20
-20.1096785847
 10
-7.249500276
 20
-20.1083670708
 10
-7.2570134963
 20
-20.1070516484
 10
-7.2598082059
 20
-20.1057323176
  0
LWPOLYLINE
  5
2AC
100
AcDbEntity
  8
ASSI
100
AcDbPolyline
 62
7
  6
CONTINUOUS
 90
11
 70
0
 10
-3.1784933034
 20
-20.1194360247
 10
-3.2675184145
 20
-20.1172423164
 10
-3.3064339759
 20
-20.11606729
 10
-3.3415557771
 20
-20.1148428415
 10
-3.3722622877
 20
-20.1135896762
 10
-3.3984474042
 20
-20.1123064264
 10
-3.42021723
 20
-20.1109944598
 10
-3.437268545
 20
-20.1096785847
 10
-3.449500276
 20
-20.1083670708
 10
-3.4570134963
 20
-20.1070516484
 10
-3.4598082059
 20
-20.1057323176
  0
LWPOLYLINE
  5
2AD
100
AcDbEntity
  8
ASSI
100
AcDbPolyline
 62
7
  6
CONTINUOUS
 90
11
 70
0
 10
0.6215066966
 20
-20.1194360247
 10
0.5324815855
 20
-20.1172423164
 10
0.4935660241
 20
-20.11606729
 10
0.4584442229
 20
-20.1148428415
 10
0.4277377123
 20
-20.1135896762
 10
0.4015525958
 20
-20.1123064264
 10
0.37978277
 20
-20.1109944598
 10
0.362731455
 20
-20.1096785847
 10
0.350499724
 20
-20.1083670708
 10
0.3429865037
 20
-20.1070516484
 10
0.3401917941
 20
-20.1057323176
  0
LINE
  5
2AE
100
AcDbEntity
  8
ASSI
100
AcDbLine
 62
7
  6
CONTINUOUS
 10
7.831231143
 20
-19.86275824
 11
6.5169872981
 21
-19.8230246279
  0
LINE
  5
2AF
100
AcDbEntity
  8
ASSI
100
AcDbLine
 62
7
  6
CONTINUOUS
 10
-6.8409248265
 20
-21.2785420776
 11
-6.8781353298
 21
-21.246163972
  0
LINE
  5
2B0
100
AcDbEntity
  8
ASSI
100
AcDbLine
 62
7
  6
CONTINUOUS
 10
-6.8781353298
 20
-21.246163972
 11
-6.8979094183
 21
-21.2287199854
  0
LWPOLYLINE
  5
2B1
100
AcDbEntity
  8
ASSI
100
AcDbPolyline
 62
7
  6
CONTINUOUS
 90
8
 70
0
 10
-6.8979094183
 20
-21.2287199854
 10
-6.9134109897
 20
-21.2149018367
 10
-6.9194372977
 20
-21.2094241067
 10
-6.9243333735
 20
-21.2049169748
 10
-6.9281023894
 20
-21.2013974007
 10
-6.9307454029
 20
-21.1988517846
 10
-6.9322613566
 20
-21.1972515258
 10
-6.9326502504
 20
-21.1965699136
  0
LINE
  5
2B2
100
AcDbEntity
  8
ASSI
100
AcDbLine
 62
7
  6
CONTINUOUS
 10
-3.4
 20
-23.4301797403
 11
-3.3633443637
 21
-23.4668353766
  0
LWPOLYLINE
  5
2B3
100
AcDbEntity
  8
ASSI
100
AcDbPolyline
 62
7
  6
CONTINUOUS
 90
13
 70
0
 10
-10.7193014235
 20
-17.3594295691
 10
-10.7862117682
 20
-17.2696138637
 10
-10.847688546
 20
-17.1768215238
 10
-10.9037317569
 20
-17.0810525492
 10
-10.9544809138
 20
-16.9819924064
 10
-10.9997965039
 20
-16.8799556289
 10
-11.039259988
 20
-16.775885818
 10
-11.0728173935
 20
-16.6697642215
 10
-11.100522693
 20
-16.5616095915
 10
-11.1221192655
 20
-16.4524217852
 10
-11.1375215707
 20
-16.3425340885
 10
-11.1468151488
 20
-16.2316132155
 10
-11.15
 20
-16.1196591663
  0
LWPOLYLINE
  5
2B4
100
AcDbEntity
  8
ASSI
100
AcDbPolyline
 62
7
  6
CONTINUOUS
 90
13
 70
0
 10
-10.0624931267
 20
17.1472402488
 10
-10.13105603
 20
17.056803965
 10
-10.1940620245
 20
16.9632756663
 10
-10.2515111103
 20
16.866655353
 10
-10.3035501602
 20
16.7666167457
 10
-10.3500323013
 20
16.6634861236
 10
-10.3905169153
 20
16.5582423243
 10
-10.4249472291
 20
16.4508653308
 10
-10.4533800157
 20
16.34137516
 10
-10.4755449758
 20
16.2308107004
 10
-10.4913520096
 20
16.1195182482
 10
-10.5008912169
 20
16.0071515072
 10
-10.5041625977
 20
15.8937104774
  0
LINE
  5
2B5
100
AcDbEntity
  8
CURVE
100
AcDbLine
 62
7
  6
CONTINUOUS
 10
-11.0596679264
 20
15.3076563225
 11
-11.0539971429
 21
15.3133271061
  0
LINE
  5
2B6
100
AcDbEntity
  8
CURVE
100
AcDbLine
 62
7
  6
CONTINUOUS
 10
-11.1046091144
 20
15.2627151346
 11
-11.0989383309
 21
15.2683859181
  0
LINE
  5
2B7
100
AcDbEntity
  8
CURVE
100
AcDbLine
 62
7
  6
CONTINUOUS
 10
-11.0828471414
 20
15.2844771076
 11
-11.0771763578
 21
15.2901478911
  0
LINE
  5
2B8
100
AcDbEntity
  8
CURVE
100
AcDbLine
 62
7
  6
CONTINUOUS
 10
-11.0596679264
 20
14.8098531486
 11
-11.0539971429
 21
14.8155239321
  0
LINE
  5
2B9
100
AcDbEntity
  8
CURVE
100
AcDbLine
 62
7
  6
CONTINUOUS
 10
-11.0828471414
 20
14.7866739336
 11
-11.0771763578
 21
14.7923447172
  0
LINE
  5
2BA
100
AcDbEntity
  8
CURVE
100
AcDbLine
 62
7
  6
CONTINUOUS
 10
-11.1046091144
 20
14.7649119606
 11
-11.0989383309
 21
14.7705827441
  0
LINE
  5
2BB
100
AcDbEntity
  8
CURVE
100
AcDbLine
 62
7
  6
CONTINUOUS
 10
-11.0596679264
 20
14.3120499746
 11
-11.0539971429
 21
14.3177207582
  0
LINE
  5
2BC
100
AcDbEntity
  8
CURVE
100
AcDbLine
 62
7
  6
CONTINUOUS
 10
-11.0828471414
 20
14.2888707597
 11
-11.0771763578
 21
14.2945415432
  0
LINE
  5
2BD
100
AcDbEntity
  8
CURVE
100
AcDbLine
 62
7
  6
CONTINUOUS
 10
-11.1046091144
 20
14.2671087867
 11
-11.0989383309
 21
14.2727795702
  0
LINE
  5
2BE
100
AcDbEntity
  8
CURVE
100
AcDbLine
 62
7
  6
CONTINUOUS
 10
-11.1046091144
 20
13.7693056127
 11
-11.0539971429
 21
13.8199175842
  0
LINE
  5
2BF
100
AcDbEntity
  8
ASSI
100
AcDbLine
 62
7
  6
CONTINUOUS
 10
-10.5041625977
 20
14.6585499788
 11
-10.6214314094
 21
14.5999200384
  0
LINE
  5
2C0
100
AcDbEntity
  8
ASSI
100
AcDbLine
 62
250
  6
CONTINUOUS
 10
6.45
 20
-18.5
 11
9.211501009
 21
-18.5
  0
LINE
  5
2C1
100
AcDbEntity
  8
ASSI
100
AcDbLine
 62
7
  6
CONTINUOUS
 10
9.6470456659
 20
-18.0
 11
6.95
 21
-18.0
  0
LINE
  5
2C2
100
AcDbEntity
  8
ASSI
100
AcDbLine
 62
7
  6
CONTINUOUS
 10
2.5529282349
 20
-18.0
 11
0.6470717651
 21
-18.0
  0
LINE
  5
2C3
100
AcDbEntity
  8
ASSI
100
AcDbLine
 62
7
  6
CONTINUOUS
 10
-1.2470717651
 20
-18.0
 11
-3.1529282349
 21
-18.0
  0
LINE
  5
2C4
100
AcDbEntity
  8
ASSI
100
AcDbLine
 62
7
  6
CONTINUOUS
 10
-5.0470717651
 20
-18.0
 11
-6.9529282349
 21
-18.0
  0
LINE
  5
2C5
100
AcDbEntity
  8
ASSI
100
AcDbLine
 62
7
  6
CONTINUOUS
 10
2.5660185366
 20
-17.9869096983
 11
0.6339814634
 21
-17.9869096983
  0
LINE
  5
2C6
100
AcDbEntity
  8
ASSI
100
AcDbLine
 62
7
  6
CONTINUOUS
 10
-1.2339814634
 20
-17.9869096983
 11
-3.1660185366
 21
-17.9869096983
  0
LINE
  5
2C7
100
AcDbEntity
  8
ASSI
100
AcDbLine
 62
7
  6
CONTINUOUS
 10
-5.0339814634
 20
-17.9869096983
 11
-6.9660185366
 21
-17.9869096983
  0
LINE
  5
2C8
100
AcDbEntity
  8
ASSI
100
AcDbLine
 62
7
  6
CONTINUOUS
 10
-6.9660185366
 20
-17.9869096983
 11
-6.9529282349
 21
-18.0
  0
LWPOLYLINE
  5
2C9
100
AcDbEntity
  8
ASSI
100
AcDbPolyline
 62
7
  6
CONTINUOUS
 90
11
 70
0
 10
-10.9361538737
 20
13.5763271382
 10
-10.9374010069
 20
13.5734415861
 10
-10.9386271252
 20
13.5661247605
 10
-10.9398322287
 20
13.5543766616
 10
-10.9410195205
 20
13.5381254616
 10
-10.9421857975
 20
13.5174429883
 10
-10.9433214504
 20
13.4925447244
 10
-10.9444271401
 20
13.4633875365
 10
-10.9455022059
 20
13.430014558
 10
-10.9465350555
 20
13.3927706733
 10
-10.9484759205
 20
13.3064256713
  0
LWPOLYLINE
  5
2CA
100
AcDbEntity
  8
ASSI
100
AcDbPolyline
 62
7
  6
CONTINUOUS
 90
7
 70
0
 10
-6.9326502504
 20
21.1965699136
 10
-6.9322610534
 20
21.1972516316
 10
-6.9307449362
 20
21.1988520829
 10
-6.9281018989
 20
21.2013978693
 10
-6.9243330429
 20
21.2049174116
 10
-6.9194372668
 20
21.2094242375
 10
-6.9134112664
 20
21.2149015874
  0
LINE
  5
2CB
100
AcDbEntity
  8
ASSI
100
AcDbLine
 62
7
  6
CONTINUOUS
 10
-9.5021058917
 20
14.6585499788
 11
-9.5607358321
 21
14.5999200384
  0
LINE
  5
2CC
100
AcDbEntity
  8
CURVE
100
AcDbLine
 62
7
  6
CONTINUOUS
 10
-11.1046091144
 20
12.7736992648
 11
-11.0943084755
 21
12.7839999037
  0
LINE
  5
2CD
100
AcDbEntity
  8
CURVE
100
AcDbLine
 62
7
  6
CONTINUOUS
 10
-11.0888656568
 20
12.2916395484
 11
-11.0710295645
 21
12.3094756407
  0
LINE
  5
2CE
100
AcDbEntity
  8
ASSI
100
AcDbLine
 62
7
  6
CONTINUOUS
 10
-9.5771711926
 20
13.3909532358
 11
-9.7181529861
 21
13.2499714423
  0
LINE
  5
2CF
100
AcDbEntity
  8
CURVE
100
AcDbLine
 62
7
  6
CONTINUOUS
 10
-11.0640593687
 20
11.8186426625
 11
-11.0539971429
 21
11.8287048884
  0
LINE
  5
2D0
100
AcDbEntity
  8
CURVE
100
AcDbLine
 62
7
  6
CONTINUOUS
 10
-11.0843758089
 20
11.3005230485
 11
-11.0640241412
 21
11.3208747162
  0
LINE
  5
2D1
100
AcDbEntity
  8
CURVE
100
AcDbLine
 62
7
  6
CONTINUOUS
 10
-11.1046091144
 20
10.782486569
 11
-11.0899205991
 21
10.7971750842
  0
LINE
  5
2D2
100
AcDbEntity
  8
ASSI
100
AcDbLine
 62
7
  6
CONTINUOUS
 10
-10.651426722
 20
13.6805416038
 11
-10.9361538737
 21
13.5763271382
  0
LINE
  5
2D3
100
AcDbEntity
  8
CURVE
100
AcDbLine
 62
250
  6
CONTINUOUS
 10
-2.01
 20
-16.92816
 11
-8.99
 21
-16.92816
  0
LINE
  5
2D4
100
AcDbEntity
  8
CURVE
100
AcDbLine
 62
250
  6
CONTINUOUS
 10
2.49
 20
-16.55316
 11
-2.01
 21
-16.55316
  0
LINE
  5
2D5
100
AcDbEntity
  8
CURVE
100
AcDbLine
 62
250
  6
CONTINUOUS
 10
4.086567
 20
-16.52316
 11
4.426702
 21
-16.52316
  0
LINE
  5
2D6
100
AcDbEntity
  8
CURVE
100
AcDbLine
 62
250
  6
CONTINUOUS
 10
2.49
 20
-16.36316
 11
-2.01
 21
-16.36316
  0
LINE
  5
2D7
100
AcDbEntity
  8
CURVE
100
AcDbLine
 62
250
  6
CONTINUOUS
 10
2.49
 20
-16.18316
 11
-2.01
 21
-16.18316
  0
LINE
  5
2D8
100
AcDbEntity
  8
CURVE
100
AcDbLine
 62
250
  6
CONTINUOUS
 10
11.1070050257
 20
-16.07041
 11
11.0935574928
 21
-16.07041
  0
LINE
  5
2D9
100
AcDbEntity
  8
CURVE
100
AcDbLine
 62
250
  6
CONTINUOUS
 10
11.0318914391
 20
-16.07041
 11
11.0184439062
 21
-16.07041
  0
LINE
  5
2DA
100
AcDbEntity
  8
CURVE
100
AcDbLine
 62
250
  6
CONTINUOUS
 10
2.49
 20
-15.99316
 11
-2.01
 21
-15.99316
  0
LINE
  5
2DB
100
AcDbEntity
  8
CURVE
100
AcDbLine
 62
250
  6
CONTINUOUS
 10
2.49
 20
-15.80316
 11
-2.01
 21
-15.80316
  0
LINE
  5
2DC
100
AcDbEntity
  8
CURVE
100
AcDbLine
 62
250
  6
CONTINUOUS
 10
4.426702
 20
-15.706017
 11
3.935395
 21
-15.706017
  0
LINE
  5
2DD
100
AcDbEntity
  8
CURVE
100
AcDbLine
 62
250
  6
CONTINUOUS
 10
2.49
 20
-15.61316
 11
-2.01
 21
-15.61316
  0
LINE
  5
2DE
100
AcDbEntity
  8
CURVE
100
AcDbLine
 62
250
  6
CONTINUOUS
 10
11.0694000114
 20
-15.56041
 11
11.0560489205
 21
-15.56041
  0
LINE
  5
2DF
100
AcDbEntity
  8
CURVE
100
AcDbLine
 62
250
  6
CONTINUOUS
 10
6.354138
 20
-15.501731
 11
7.261167
 21
-15.501731
  0
LINE
  5
2E0
100
AcDbEntity
  8
CURVE
100
AcDbLine
 62
250
  6
CONTINUOUS
 10
7.828059
 20
-15.501731
 11
8.735088
 21
-15.501731
  0
LINE
  5
2E1
100
AcDbEntity
  8
CURVE
100
AcDbLine
 62
250
  6
CONTINUOUS
 10
2.49
 20
-15.42316
 11
-2.01
 21
-15.42316
  0
LINE
  5
2E2
100
AcDbEntity
  8
ASSI
100
AcDbLine
 62
7
  6
CONTINUOUS
 10
-10.5041625977
 20
-13.7344425119
 11
-10.9361538737
 21
-13.5763271382
  0
LINE
  5
2E3
100
AcDbEntity
  8
ASSI
100
AcDbLine
 62
7
  6
CONTINUOUS
 10
-9.7181529861
 20
-13.2499714423
 11
-9.5021058917
 21
-13.4660185366
  0
LINE
  5
2E4
100
AcDbEntity
  8
ASSI
100
AcDbLine
 62
7
  6
CONTINUOUS
 10
-3.230158461
 20
22.5048155586
 11
-3.3
 21
22.4
  0
LINE
  5
2E5
100
AcDbEntity
  8
CURVE
100
AcDbLine
 62
7
  6
CONTINUOUS
 10
-11.0828471414
 20
9.8086421941
 11
-11.0771763578
 21
9.8143129776
  0
LINE
  5
2E6
100
AcDbEntity
  8
CURVE
100
AcDbLine
 62
7
  6
CONTINUOUS
 10
-11.1046091144
 20
9.7868802211
 11
-11.0989383309
 21
9.7925510046
  0
LINE
  5
2E7
100
AcDbEntity
  8
CURVE
100
AcDbLine
 62
7
  6
CONTINUOUS
 10
-11.0596679264
 20
9.831821409
 11
-11.0539971429
 21
9.8374921926
  0
LINE
  5
2E8
100
AcDbEntity
  8
CURVE
100
AcDbLine
 62
250
  6
CONTINUOUS
 10
-7.9428571373
 20
12.9428571373
 11
-7.7571428239
 21
13.128571412
  0
LINE
  5
2E9
100
AcDbEntity
  8
CURVE
100
AcDbLine
 62
7
  6
CONTINUOUS
 10
-11.0596679264
 20
9.3340182351
 11
-11.0539971429
 21
9.3396890186
  0
LINE
  5
2EA
100
AcDbEntity
  8
CURVE
100
AcDbLine
 62
7
  6
CONTINUOUS
 10
-11.0828471414
 20
9.3108390201
 11
-11.0771763578
 21
9.3165098037
  0
LINE
  5
2EB
100
AcDbEntity
  8
CURVE
100
AcDbLine
 62
7
  6
CONTINUOUS
 10
-11.1046091144
 20
9.2890770471
 11
-11.0989383309
 21
9.2947478306
  0
LINE
  5
2EC
100
AcDbEntity
  8
CURVE
100
AcDbLine
 62
7
  6
CONTINUOUS
 10
-11.0596679264
 20
8.8362150611
 11
-11.0539971429
 21
8.8418858446
  0
LINE
  5
2ED
100
AcDbEntity
  8
CURVE
100
AcDbLine
 62
7
  6
CONTINUOUS
 10
-11.0828471414
 20
8.8130358462
 11
-11.0771763578
 21
8.8187066297
  0
LINE
  5
2EE
100
AcDbEntity
  8
CURVE
100
AcDbLine
 62
7
  6
CONTINUOUS
 10
-11.1046091144
 20
8.7912738731
 11
-11.0989383309
 21
8.7969446567
  0
LINE
  5
2EF
100
AcDbEntity
  8
CURVE
100
AcDbLine
 62
7
  6
CONTINUOUS
 10
-11.1046091144
 20
8.2934706992
 11
-11.0539971429
 21
8.3440826707
  0
LINE
  5
2F0
100
AcDbEntity
  8
CURVE
100
AcDbLine
 62
250
  6
CONTINUOUS
 10
-7.2
 20
12.5714285493
 11
-8.5
 21
12.2
  0
LINE
  5
2F1
100
AcDbEntity
  8
ASSI
100
AcDbLine
 62
250
  6
CONTINUOUS
 10
10.9361538737
 20
-11.4236728618
 11
9.7181529861
 21
-11.7500285577
  0
LINE
  5
2F2
100
AcDbEntity
  8
CURVE
100
AcDbLine
 62
250
  6
CONTINUOUS
 10
2.49
 20
-15.23316
 11
-2.01
 21
-15.23316
  0
LINE
  5
2F3
100
AcDbEntity
  8
CURVE
100
AcDbLine
 62
250
  6
CONTINUOUS
 10
2.49
 20
-15.05316
 11
-2.01
 21
-15.05316
  0
LINE
  5
2F4
100
AcDbEntity
  8
CURVE
100
AcDbLine
 62
250
  6
CONTINUOUS
 10
-2.01
 20
-14.67816
 11
-8.99
 21
-14.67816
  0
LINE
  5
2F5
100
AcDbEntity
  8
ASSI
100
AcDbLine
 62
7
  6
CONTINUOUS
 10
-6.6
 20
-13.8019237886
 11
6.6
 21
-13.8019237886
  0
LINE
  5
2F6
100
AcDbEntity
  8
ASSI
100
AcDbLine
 62
250
  6
CONTINUOUS
 10
-10.9361538737
 20
-11.4236728618
 11
-9.7181529861
 21
-11.7500285577
  0
LINE
  5
2F7
100
AcDbEntity
  8
ASSI
100
AcDbLine
 62
7
  6
CONTINUOUS
 10
-3.1660185366
 20
-17.9869096983
 11
-3.1529282349
 21
-18.0
  0
LINE
  5
2F8
100
AcDbEntity
  8
ASSI
100
AcDbLine
 62
7
  6
CONTINUOUS
 10
-3.3
 20
-22.4
 11
-3.230158461
 21
-22.5048155586
  0
LINE
  5
2F9
100
AcDbEntity
  8
ASSI
100
AcDbLine
 62
7
  6
CONTINUOUS
 10
-7.2598082059
 20
-20.1057323176
 11
-7.4178956303
 21
-19.6738174026
  0
LINE
  5
2FA
100
AcDbEntity
  8
CURVE
100
AcDbLine
 62
250
  6
CONTINUOUS
 10
-11.0699091301
 20
-14.290021
 11
-11.1047427546
 21
-13.72041
  0
LWPOLYLINE
  5
2FB
100
AcDbEntity
  8
ASSI
100
AcDbPolyline
 62
7
  6
CONTINUOUS
 90
11
 70
0
 10
-10.9361538737
 20
8.5763271382
 10
-10.9374010069
 20
8.5734415861
 10
-10.9386271252
 20
8.5661247605
 10
-10.9398322287
 20
8.5543766616
 10
-10.9410195205
 20
8.5381254616
 10
-10.9421857975
 20
8.5174429883
 10
-10.9433214504
 20
8.4925447244
 10
-10.9444271401
 20
8.4633875365
 10
-10.9455022059
 20
8.430014558
 10
-10.9465350555
 20
8.3927706733
 10
-10.9484759205
 20
8.3064256713
  0
LINE
  5
2FC
100
AcDbEntity
  8
ASSI
100
AcDbLine
 62
7
  6
CONTINUOUS
 10
-9.5021058917
 20
9.6585499788
 11
-9.5607358321
 21
9.5999200384
  0
LINE
  5
2FD
100
AcDbEntity
  8
CURVE
100
AcDbLine
 62
7
  6
CONTINUOUS
 10
-11.1046091144
 20
7.2978643513
 11
-11.0539971429
 21
7.3484763228
  0
LINE
  5
2FE
100
AcDbEntity
  8
ASSI
100
AcDbLine
 62
7
  6
CONTINUOUS
 10
-9.5771711926
 20
8.3909532358
 11
-9.7181529861
 21
8.2499714423
  0
LINE
  5
2FF
100
AcDbEntity
  8
CURVE
100
AcDbLine
 62
7
  6
CONTINUOUS
 10
-11.0672585682
 20
6.8374117235
 11
-11.0560738289
 21
6.8485964628
  0
LINE
  5
300
100
AcDbEntity
  8
CURVE
100
AcDbLine
 62
7
  6
CONTINUOUS
 10
-11.0810064157
 20
6.3258607021
 11
-11.069787721
 21
6.3370793967
  0
LINE
  5
301
100
AcDbEntity
  8
CURVE
100
AcDbLine
 62
250
  6
CONTINUOUS
 10
-8.4380952369
 20
8.4857141972
 11
-8.407142853
 21
8.51666677
  0
LINE
  5
302
100
AcDbEntity
  8
CURVE
100
AcDbLine
 62
7
  6
CONTINUOUS
 10
-11.0947542632
 20
5.8143096806
 11
-11.0835016132
 21
5.8255623306
  0
LINE
  5
303
100
AcDbEntity
  8
ASSI
100
AcDbLine
 62
7
  6
CONTINUOUS
 10
-10.5041625977
 20
9.6585499788
 11
-10.6214314094
 21
9.5999200384
  0
LINE
  5
304
100
AcDbEntity
  8
ASSI
100
AcDbLine
 62
250
  6
CONTINUOUS
 10
10.7193014234
 20
17.3594295692
 11
10.0624931237
 21
17.1472402523
  0
LINE
  5
305
100
AcDbEntity
  8
ASSI
100
AcDbLine
 62
7
  6
CONTINUOUS
 10
10.5041625977
 20
-11.2655574881
 11
9.5021058917
 21
-11.5339814634
  0
LINE
  5
306
100
AcDbEntity
  8
ASSI
100
AcDbLine
 62
7
  6
CONTINUOUS
 10
-6.6
 20
-13.4
 11
6.6
 21
-13.4
  0
LINE
  5
307
100
AcDbEntity
  8
IMPORT_IGES
100
AcDbLine
 62
7
  6
CONTINUOUS
 10
3.35
 20
-13.1671572875
 11
4.25
 21
-13.1671572875
  0
LINE
  5
308
100
AcDbEntity
  8
IMPORT_IGES
100
AcDbLine
 62
7
  6
CONTINUOUS
 10
7.05
 20
-13.15
 11
5.25
 21
-13.15
  0
LINE
  5
309
100
AcDbEntity
  8
CURVE
100
AcDbLine
 62
250
  6
CONTINUOUS
 10
-11.1047457914
 20
-12.890935
 11
-11.054136832
 21
-12.890935
  0
LINE
  5
30A
100
AcDbEntity
  8
IMPORT_IGES
100
AcDbLine
 62
7
  6
CONTINUOUS
 10
4.25
 20
-12.5307611845
 11
3.35
 21
-12.5307611845
  0
LINE
  5
30B
100
AcDbEntity
  8
CURVE
100
AcDbLine
 62
250
  6
CONTINUOUS
 10
-11.054136832
 20
-12.285664
 11
-11.1047457914
 21
-12.285664
  0
LINE
  5
30C
100
AcDbEntity
  8
ASSI
100
AcDbLine
 62
7
  6
CONTINUOUS
 10
-10.5041625977
 20
-11.2655574881
 11
-9.5021058917
 21
-11.5339814634
  0
LINE
  5
30D
100
AcDbEntity
  8
ASSI
100
AcDbLine
 62
250
  6
CONTINUOUS
 10
10.7193014234
 20
-17.3594295691
 11
10.0624931237
 21
-17.1472402523
  0
LINE
  5
30E
100
AcDbEntity
  8
ASSI
100
AcDbLine
 62
7
  6
CONTINUOUS
 10
-9.7181529861
 20
-8.2499714423
 11
-9.5021058917
 21
-8.4660185366
  0
LINE
  5
30F
100
AcDbEntity
  8
ASSI
100
AcDbLine
 62
7
  6
CONTINUOUS
 10
0.6339814634
 20
-17.9869096983
 11
0.6470717651
 21
-18.0
  0
LINE
  5
310
100
AcDbEntity
  8
CURVE
100
AcDbLine
 62
250
  6
CONTINUOUS
 10
-11.0871815499
 20
-11.250162
 11
-11.054136832
 21
-11.380779
  0
LINE
  5
311
100
AcDbEntity
  8
CURVE
100
AcDbLine
 62
250
  6
CONTINUOUS
 10
-11.054136832
 20
-11.959827
 11
-11.1047427546
 21
-11.698005
  0
LINE
  5
312
100
AcDbEntity
  8
CURVE
100
AcDbLine
 62
250
  6
CONTINUOUS
 10
-11.0007516073
 20
10.8071428895
 11
-11.0102257712
 21
10.9428571105
  0
LINE
  5
313
100
AcDbEntity
  8
CURVE
100
AcDbLine
 62
250
  6
CONTINUOUS
 10
-11.0908375324
 20
-7.733126
 11
-11.0720570327
 21
-8.0345
  0
LINE
  5
314
100
AcDbEntity
  8
CURVE
100
AcDbLine
 62
250
  6
CONTINUOUS
 10
-11.0642395763
 20
-8.158312
 11
-11.054136832
 21
-8.325329
  0
LINE
  5
315
100
AcDbEntity
  8
CURVE
100
AcDbLine
 62
250
  6
CONTINUOUS
 10
-11.054136832
 20
-8.924033
 11
-11.1047427546
 21
-8.014517
  0
LINE
  5
316
100
AcDbEntity
  8
CURVE
100
AcDbLine
 62
250
  6
CONTINUOUS
 10
-11.1047427546
 20
-13.115552
 11
-11.054136832
 21
-14.047617
  0
LINE
  5
317
100
AcDbEntity
  8
CURVE
100
AcDbLine
 62
250
  6
CONTINUOUS
 10
-11.0607311779
 20
11.7551819821
 11
-11.1046091144
 21
12.5918298218
  0
LWPOLYLINE
  5
318
100
AcDbEntity
  8
CURVE
100
AcDbPolyline
 62
250
  6
CONTINUOUS
 90
20
 70
0
 10
-11.0498181508
 20
-0.8388200961
 10
-11.0481748427
 20
-0.8715717737
 10
-11.0465231476
 20
-0.9009113461
 10
-11.0448648022
 20
-0.9267442674
 10
-11.0432015432
 20
-0.9489759917
 10
-11.0415351071
 20
-0.967511973
 10
-11.0398672305
 20
-0.9822576654
 10
-11.0381996501
 20
-0.993118523
 10
-11.0365341025
 20
-1.0
 10
-11.0347898417
 20
-1.0028791518
 10
-11.0330513767
 20
-1.0014004165
 10
-11.0313203501
 20
-0.9956946415
 10
-11.0295984046
 20
-0.9858926739
 10
-11.0278871827
 20
-0.9721253611
 10
-11.0261883271
 20
-0.9545235505
 10
-11.0245034803
 20
-0.9332180893
 10
-11.0228342849
 20
-0.908339825
 10
-11.0211823836
 20
-0.8800196046
 10
-11.019549419
 20
-0.8483882757
 10
-11.0163468701
 20
-0.7757156814
  0
LWPOLYLINE
  5
319
100
AcDbEntity
  8
CURVE
100
AcDbPolyline
 62
250
  6
CONTINUOUS
 90
25
 70
0
 10
-11.0851489483
 20
-4.4488851387
 10
-11.0856051122
 20
-4.4396546695
 10
-11.0860647521
 20
-4.4313316319
 10
-11.0865278853
 20
-4.4238997742
 10
-11.0869942465
 20
-4.4173475077
 10
-11.0874635706
 20
-4.4116632441
 10
-11.0879355923
 20
-4.4068353946
 10
-11.0884100464
 20
-4.4028523708
 10
-11.0889550303
 20
-4.3993188248
 10
-11.0895021545
 20
-4.3968554375
 10
-11.0900507271
 20
-4.3954434132
 10
-11.0906000559
 20
-4.3950639564
 10
-11.0911494491
 20
-4.3956982713
 10
-11.0916982146
 20
-4.3973275625
 10
-11.0922320271
 20
-4.399864942
 10
-11.0927639366
 20
-4.4033646499
 10
-11.0932932948
 20
-4.4078609201
 10
-11.0938194533
 20
-4.4133879866
 10
-11.0943417639
 20
-4.4199800835
 10
-11.0948074372
 20
-4.4268399201
 10
-11.0952689115
 20
-4.4345946139
 10
-11.0957256208
 20
-4.4432507812
 10
-11.0961769991
 20
-4.4528150388
 10
-11.0966224806
 20
-4.463294003
 10
-11.0975691904
 20
-4.4892582787
  0
LINE
  5
31A
100
AcDbEntity
  8
CURVE
100
AcDbLine
 62
250
  6
CONTINUOUS
 10
-11.1046091144
 20
12.9939711994
 11
-11.0539971429
 21
11.9622816785
  0
LINE
  5
31B
100
AcDbEntity
  8
CURVE
100
AcDbLine
 62
250
  6
CONTINUOUS
 10
-11.0766461953
 20
-10.494355
 11
-11.1047427546
 21
-9.889084
  0
LINE
  5
31C
100
AcDbEntity
  8
CURVE
100
AcDbLine
 62
250
  6
CONTINUOUS
 10
-11.0870437981
 20
-9.735548
 11
-11.054136832
 21
-10.455216
  0
LWPOLYLINE
  5
31D
100
AcDbEntity
  8
CURVE
100
AcDbPolyline
 62
250
  6
CONTINUOUS
 90
19
 70
0
 10
-11.0277570344
 20
3.3910863805
 10
-11.0287007527
 20
3.4136000891
 10
-11.0296551461
 20
3.4337017164
 10
-11.0306190158
 20
3.4513094192
 10
-11.0315911629
 20
3.4663413543
 10
-11.0325703887
 20
3.4787156784
 10
-11.0335554944
 20
3.4883505481
 10
-11.0345452811
 20
3.4951641203
 10
-11.0355385501
 20
3.4990745517
 10
-11.0365341025
 20
3.4999999989
 10
-11.0375307117
 20
3.4978866813
 10
-11.0385270399
 20
3.4927930685
 10
-11.0395217213
 20
3.4848056929
 10
-11.0405133903
 20
3.4740110865
 10
-11.0415006813
 20
3.4604957817
 10
-11.0424822285
 20
3.4443463107
 10
-11.0434566663
 20
3.4256492056
 10
-11.0444226291
 20
3.4044909989
 10
-11.0463236665
 20
3.3551374091
  0
LINE
  5
31E
100
AcDbEntity
  8
CURVE
100
AcDbLine
 62
250
  6
CONTINUOUS
 10
-11.0530726597
 20
-0.7634586088
 11
-11.0498181508
 21
-0.8388200961
  0
LINE
  5
31F
100
AcDbEntity
  8
CURVE
100
AcDbLine
 62
250
  6
CONTINUOUS
 10
-11.0842520434
 20
-4.4700077281
 11
-11.0851489483
 21
-4.4488851387
  0
LINE
  5
320
100
AcDbEntity
  8
CURVE
100
AcDbLine
 62
250
  6
CONTINUOUS
 10
-11.0457675453
 20
0.1119874432
 11
-11.0477869274
 21
0.1600927538
  0
LINE
  5
321
100
AcDbEntity
  8
CURVE
100
AcDbLine
 62
250
  6
CONTINUOUS
 10
-11.0866170575
 20
-4.9935618375
 11
-11.0862013253
 21
-5.0037565073
  0
LINE
  5
322
100
AcDbEntity
  8
CURVE
100
AcDbLine
 62
250
  6
CONTINUOUS
 10
-11.0059759163
 20
-0.4362962353
 11
-10.9841768832
 21
-1.0
  0
LINE
  5
323
100
AcDbEntity
  8
CURVE
100
AcDbLine
 62
250
  6
CONTINUOUS
 10
-11.0478821583
 20
0.6480360034
 11
-11.0262582534
 21
0.0881872694
  0
LINE
  5
324
100
AcDbEntity
  8
CURVE
100
AcDbLine
 62
250
  6
CONTINUOUS
 10
-10.9841768832
 20
-0.000000718
 11
-10.9938040752
 21
0.2659542014
  0
LINE
  5
325
100
AcDbEntity
  8
CURVE
100
AcDbLine
 62
250
  6
CONTINUOUS
 10
-11.0098659233
 20
0.7096685168
 11
-11.0180722063
 21
0.9363708784
  0
LINE
  5
326
100
AcDbEntity
  8
CURVE
100
AcDbLine
 62
250
  6
CONTINUOUS
 10
-11.0562727815
 20
-0.6755832516
 11
-11.0530726597
 21
-0.7634586088
  0
LINE
  5
327
100
AcDbEntity
  8
CURVE
100
AcDbLine
 62
250
  6
CONTINUOUS
 10
-11.0149628526
 20
8.5
 11
-11.0196999341
 21
8.6357142918
  0
LINE
  5
328
100
AcDbEntity
  8
CURVE
100
AcDbLine
 62
250
  6
CONTINUOUS
 10
-11.0007516073
 20
9.45
 11
-10.9960145253
 21
9.3142857224
  0
LINE
  5
329
100
AcDbEntity
  8
CURVE
100
AcDbLine
 62
250
  6
CONTINUOUS
 10
-11.0477869274
 20
0.1600927538
 11
-11.0497770793
 21
0.2156941868
  0
LINE
  5
32A
100
AcDbEntity
  8
CURVE
100
AcDbLine
 62
250
  6
CONTINUOUS
 10
-11.0833825805
 20
-4.4945932675
 11
-11.0842520434
 21
-4.4700077281
  0
LINE
  5
32B
100
AcDbEntity
  8
CURVE
100
AcDbLine
 62
250
  6
CONTINUOUS
 10
-11.0259064183
 20
3.339150093
 11
-11.0277570344
 21
3.3910863805
  0
LINE
  5
32C
100
AcDbEntity
  8
CURVE
100
AcDbLine
 62
250
  6
CONTINUOUS
 10
-11.0862013253
 20
-5.0037565073
 11
-11.0858155741
 21
-5.0150660392
  0
LWPOLYLINE
  5
32D
100
AcDbEntity
  8
ASSI
100
AcDbPolyline
 62
7
  6
CONTINUOUS
 90
9
 70
0
 10
-10.9455022059
 20
-13.4300145581
 10
-10.9444271401
 20
-13.4633875365
 10
-10.9433214504
 20
-13.4925447245
 10
-10.9421857975
 20
-13.5174429883
 10
-10.9410195205
 20
-13.5381254616
 10
-10.9398322287
 20
-13.5543766616
 10
-10.9386271252
 20
-13.5661247605
 10
-10.9374010069
 20
-13.573441586
 10
-10.9361538737
 20
-13.5763271382
  0
LWPOLYLINE
  5
32E
100
AcDbEntity
  8
ASSI
100
AcDbPolyline
 62
7
  6
CONTINUOUS
 90
9
 70
0
 10
-10.9455022059
 20
-8.4300145581
 10
-10.9444271401
 20
-8.4633875365
 10
-10.9433214504
 20
-8.4925447245
 10
-10.9421857975
 20
-8.5174429883
 10
-10.9410195205
 20
-8.5381254616
 10
-10.9398322287
 20
-8.5543766616
 10
-10.9386271252
 20
-8.5661247605
 10
-10.9374010069
 20
-8.573441586
 10
-10.9361538737
 20
-8.5763271382
  0
LWPOLYLINE
  5
32F
100
AcDbEntity
  8
ASSI
100
AcDbPolyline
 62
7
  6
CONTINUOUS
 90
9
 70
0
 10
-10.9455022059
 20
-3.4300145581
 10
-10.9444271401
 20
-3.4633875365
 10
-10.9433214504
 20
-3.4925447245
 10
-10.9421857975
 20
-3.5174429883
 10
-10.9410195205
 20
-3.5381254616
 10
-10.9398322287
 20
-3.5543766616
 10
-10.9386271252
 20
-3.5661247605
 10
-10.9374010069
 20
-3.573441586
 10
-10.9361538737
 20
-3.5763271382
  0
LWPOLYLINE
  5
330
100
AcDbEntity
  8
ASSI
100
AcDbPolyline
 62
7
  6
CONTINUOUS
 90
9
 70
0
 10
-10.9455022059
 20
1.5699854419
 10
-10.9444271401
 20
1.5366124635
 10
-10.9433214504
 20
1.5074552755
 10
-10.9421857975
 20
1.4825570117
 10
-10.9410195205
 20
1.4618745384
 10
-10.9398322287
 20
1.4456233384
 10
-10.9386271252
 20
1.4338752395
 10
-10.9374010069
 20
1.426558414
 10
-10.9361538737
 20
1.4236728618
  0
LWPOLYLINE
  5
331
100
AcDbEntity
  8
ASSI
100
AcDbPolyline
 62
7
  6
CONTINUOUS
 90
9
 70
0
 10
-10.9455022059
 20
6.5699854419
 10
-10.9444271401
 20
6.5366124635
 10
-10.9433214504
 20
6.5074552755
 10
-10.9421857975
 20
6.4825570117
 10
-10.9410195205
 20
6.4618745384
 10
-10.9398322287
 20
6.4456233384
 10
-10.9386271252
 20
6.4338752395
 10
-10.9374010069
 20
6.426558414
 10
-10.9361538737
 20
6.4236728618
  0
LWPOLYLINE
  5
332
100
AcDbEntity
  8
ASSI
100
AcDbPolyline
 62
7
  6
CONTINUOUS
 90
9
 70
0
 10
-10.9455022059
 20
11.5699854419
 10
-10.9444271401
 20
11.5366124635
 10
-10.9433214504
 20
11.5074552755
 10
-10.9421857975
 20
11.4825570117
 10
-10.9410195205
 20
11.4618745384
 10
-10.9398322287
 20
11.4456233384
 10
-10.9386271252
 20
11.4338752395
 10
-10.9374010069
 20
11.426558414
 10
-10.9361538737
 20
11.4236728618
  0
LINE
  5
333
100
AcDbEntity
  8
CURVE
100
AcDbLine
 62
250
  6
CONTINUOUS
 10
-11.0490619984
 20
0.6839501377
 11
-11.0478821583
 21
0.6480360034
  0
LWPOLYLINE
  5
334
100
AcDbEntity
  8
ASSI
100
AcDbPolyline
 62
7
  6
CONTINUOUS
 90
13
 70
0
 10
-10.5041625977
 20
-15.8937104774
 10
-10.5008912083
 20
-16.0071515679
 10
-10.4913519938
 20
-16.119518351
 10
-10.4755449542
 20
-16.2308108269
 10
-10.4533799904
 20
-16.3413752842
 10
-10.4249472015
 20
-16.4508654342
 10
-10.3905168847
 20
-16.558242411
 10
-10.3500322636
 20
-16.6634862096
 10
-10.3035501145
 20
-16.766616835
 10
-10.2515110637
 20
-16.8666554366
 10
-10.1940619865
 20
-16.9632757311
 10
-10.1310560075
 20
-17.0568040018
 10
-10.0624931267
 20
-17.1472402488
  0
LINE
  5
335
100
AcDbEntity
  8
CURVE
100
AcDbLine
 62
250
  6
CONTINUOUS
 10
-11.0825488136
 20
-4.5225386554
 11
-11.0833825805
 21
-4.4945932675
  0
LINE
  5
336
100
AcDbEntity
  8
CURVE
100
AcDbLine
 62
250
  6
CONTINUOUS
 10
-11.0609405973
 20
-0.5219612631
 11
-11.0562727815
 21
-0.6755832516
  0
LINE
  5
337
100
AcDbEntity
  8
CURVE
100
AcDbLine
 62
250
  6
CONTINUOUS
 10
-11.0497770793
 20
0.2156941868
 11
-11.052689919
 21
0.3121952885
  0
LINE
  5
338
100
AcDbEntity
  8
CURVE
100
AcDbLine
 62
250
  6
CONTINUOUS
 10
-11.0241128883
 20
3.2785475998
 11
-11.0259064183
 21
3.339150093
  0
LINE
  5
339
100
AcDbEntity
  8
CURVE
100
AcDbLine
 62
250
  6
CONTINUOUS
 10
-11.0244370156
 20
11.7571428895
 11
-11.0173313924
 21
11.485714221
  0
LINE
  5
33A
100
AcDbEntity
  8
CURVE
100
AcDbLine
 62
250
  6
CONTINUOUS
 10
-11.0244370156
 20
14.742857337
 11
-11.0173313924
 21
14.471428442
  0
LINE
  5
33B
100
AcDbEntity
  8
CURVE
100
AcDbLine
 62
250
  6
CONTINUOUS
 10
-11.0858155741
 20
-5.0150660392
 11
-11.0852630434
 21
-5.0347566804
  0
LINE
  5
33C
100
AcDbEntity
  8
CURVE
100
AcDbLine
 62
250
  6
CONTINUOUS
 10
-11.050777462
 20
0.7462146991
 11
-11.0490619984
 21
0.6839501377
  0
LINE
  5
33D
100
AcDbEntity
  8
CURVE
100
AcDbLine
 62
250
  6
CONTINUOUS
 10
-10.9912774433
 20
11.485714221
 11
-11.0149628526
 21
12.435714221
  0
LINE
  5
33E
100
AcDbEntity
  8
CURVE
100
AcDbLine
 62
250
  6
CONTINUOUS
 10
-10.9912774433
 20
14.471428442
 11
-11.0149628526
 21
15.421428442
  0
LINE
  5
33F
100
AcDbEntity
  8
ASSI
100
AcDbLine
 62
7
  6
CONTINUOUS
 10
-10.9475265961
 20
-13.3515336255
 11
-10.9455022059
 21
-13.4300145581
  0
LINE
  5
340
100
AcDbEntity
  8
ASSI
100
AcDbLine
 62
7
  6
CONTINUOUS
 10
-10.9475265961
 20
-8.3515336255
 11
-10.9455022059
 21
-8.4300145581
  0
LINE
  5
341
100
AcDbEntity
  8
ASSI
100
AcDbLine
 62
7
  6
CONTINUOUS
 10
-10.9475265961
 20
-3.3515336255
 11
-10.9455022059
 21
-3.4300145581
  0
LINE
  5
342
100
AcDbEntity
  8
ASSI
100
AcDbLine
 62
7
  6
CONTINUOUS
 10
-10.9475265961
 20
1.6484663745
 11
-10.9455022059
 21
1.5699854419
  0
LINE
  5
343
100
AcDbEntity
  8
ASSI
100
AcDbLine
 62
7
  6
CONTINUOUS
 10
-10.9475265961
 20
6.6484663745
 11
-10.9455022059
 21
6.5699854419
  0
LINE
  5
344
100
AcDbEntity
  8
ASSI
100
AcDbLine
 62
7
  6
CONTINUOUS
 10
-10.9475265961
 20
11.6484663745
 11
-10.9455022059
 21
11.5699854419
  0
LINE
  5
345
100
AcDbEntity
  8
CURVE
100
AcDbLine
 62
250
  6
CONTINUOUS
 10
-11.052689919
 20
0.3121952885
 11
-11.0563963848
 21
0.4630197374
  0
LINE
  5
346
100
AcDbEntity
  8
CURVE
100
AcDbLine
 62
250
  6
CONTINUOUS
 10
-11.0215506088
 20
3.172826982
 11
-11.0241128883
 21
3.2785475998
  0
LINE
  5
347
100
AcDbEntity
  8
CURVE
100
AcDbLine
 62
250
  6
CONTINUOUS
 10
-11.0813831489
 20
-4.5705309187
 11
-11.0825488136
 21
-4.5225386554
  0
LINE
  5
348
100
AcDbEntity
  8
CURVE
100
AcDbLine
 62
250
  6
CONTINUOUS
 10
-11.0668443288
 20
-0.2803928287
 11
-11.0609405973
 21
-0.5219612631
  0
LINE
  5
349
100
AcDbEntity
  8
CURVE
100
AcDbLine
 62
250
  6
CONTINUOUS
 10
-11.0852630434
 20
-5.0347566804
 11
-11.084748256
 21
-5.0575189499
  0
LINE
  5
34A
100
AcDbEntity
  8
CURVE
100
AcDbLine
 62
250
  6
CONTINUOUS
 10
-11.052947725
 20
0.8435140606
 11
-11.050777462
 21
0.7462146991
  0
LINE
  5
34B
100
AcDbEntity
  8
ASSI
100
AcDbLine
 62
7
  6
CONTINUOUS
 10
-10.9493687159
 20
-13.2581584657
 11
-10.9475265961
 21
-13.3515336255
  0
LINE
  5
34C
100
AcDbEntity
  8
ASSI
100
AcDbLine
 62
7
  6
CONTINUOUS
 10
-10.9493687159
 20
-8.2581584657
 11
-10.9475265961
 21
-8.3515336255
  0
LINE
  5
34D
100
AcDbEntity
  8
ASSI
100
AcDbLine
 62
7
  6
CONTINUOUS
 10
-10.9493687159
 20
-3.2581584657
 11
-10.9475265961
 21
-3.3515336255
  0
LINE
  5
34E
100
AcDbEntity
  8
ASSI
100
AcDbLine
 62
7
  6
CONTINUOUS
 10
-10.9493687159
 20
1.7418415343
 11
-10.9475265961
 21
1.6484663745
  0
LINE
  5
34F
100
AcDbEntity
  8
ASSI
100
AcDbLine
 62
7
  6
CONTINUOUS
 10
-10.9493687159
 20
6.7418415343
 11
-10.9475265961
 21
6.6484663745
  0
LINE
  5
350
100
AcDbEntity
  8
ASSI
100
AcDbLine
 62
7
  6
CONTINUOUS
 10
-10.9493687159
 20
11.7418415343
 11
-10.9475265961
 21
11.6484663745
  0
LINE
  5
351
100
AcDbEntity
  8
CURVE
100
AcDbLine
 62
250
  6
CONTINUOUS
 10
-11.0563963848
 20
0.4630197374
 11
-11.060654068
 21
0.6822406632
  0
LINE
  5
352
100
AcDbEntity
  8
CURVE
100
AcDbLine
 62
250
  6
CONTINUOUS
 10
-11.0196999341
 20
8.6357142918
 11
-11.0244370156
 21
8.9071428612
  0
LINE
  5
353
100
AcDbEntity
  8
CURVE
100
AcDbLine
 62
250
  6
CONTINUOUS
 10
-11.0244370156
 20
10.2642856658
 11
-11.0196999341
 21
9.9928571105
  0
LINE
  5
354
100
AcDbEntity
  8
CURVE
100
AcDbLine
 62
250
  6
CONTINUOUS
 10
-10.9960145253
 20
9.3142857224
 11
-10.9912774433
 21
9.0428571671
  0
LINE
  5
355
100
AcDbEntity
  8
CURVE
100
AcDbLine
 62
250
  6
CONTINUOUS
 10
-10.9912774433
 20
10.2642856658
 11
-11.0007516073
 21
10.8071428895
  0
LINE
  5
356
100
AcDbEntity
  8
CURVE
100
AcDbLine
 62
250
  6
CONTINUOUS
 10
-11.0244370156
 20
13.25
 11
-11.0196999341
 21
12.978571558
  0
LINE
  5
357
100
AcDbEntity
  8
CURVE
100
AcDbLine
 62
250
  6
CONTINUOUS
 10
-10.9912774433
 20
13.25
 11
-11.0007516073
 21
13.792857337
  0
LINE
  5
358
100
AcDbEntity
  8
CURVE
100
AcDbLine
 62
250
  6
CONTINUOUS
 10
-11.0800972296
 20
-4.639199135
 11
-11.0813831489
 21
-4.5705309187
  0
LINE
  5
359
100
AcDbEntity
  8
CURVE
100
AcDbLine
 62
250
  6
CONTINUOUS
 10
-11.0735533747
 20
0.0721035908
 11
-11.0668443288
 21
-0.2803928287
  0
LINE
  5
35A
100
AcDbEntity
  8
CURVE
100
AcDbLine
 62
250
  6
CONTINUOUS
 10
-11.0184235484
 20
3.0076454033
 11
-11.0215506088
 21
3.172826982
  0
LINE
  5
35B
100
AcDbEntity
  8
CURVE
100
AcDbLine
 62
250
  6
CONTINUOUS
 10
-11.084748256
 20
-5.0575189499
 11
-11.0841330837
 21
-5.0922578737
  0
LINE
  5
35C
100
AcDbEntity
  8
CURVE
100
AcDbLine
 62
250
  6
CONTINUOUS
 10
-11.0559038607
 20
1.0157678543
 11
-11.052947725
 21
0.8435140606
  0
LWPOLYLINE
  5
35D
100
AcDbEntity
  8
CURVE
100
AcDbPolyline
 62
250
  6
CONTINUOUS
 90
6
 70
0
 10
-11.0438022233
 20
1.7232987788
 10
-11.0427043429
 20
1.6464413165
 10
-11.0413883367
 20
1.5845025964
 10
-11.0398874302
 20
1.5383898147
 10
-11.0382587924
 20
1.509859393
 10
-11.036533997
 20
1.499995
  0
LWPOLYLINE
  5
35E
100
AcDbEntity
  8
CURVE
100
AcDbPolyline
 62
250
  6
CONTINUOUS
 90
6
 70
0
 10
-11.0292657723
 20
2.2766892212
 10
-11.0303636527
 20
2.3535466835
 10
-11.0316796589
 20
2.4154854037
 10
-11.0331805654
 20
2.4615981854
 10
-11.0348092031
 20
2.490128607
 10
-11.0365339985
 20
2.499993
  0
LINE
  5
35F
100
AcDbEntity
  8
CURVE
100
AcDbLine
 62
250
  6
CONTINUOUS
 10
-11.060654068
 20
0.6822406632
 11
-11.0650469335
 21
0.9813019837
  0
LINE
  5
360
100
AcDbEntity
  8
ASSI
100
AcDbLine
 62
7
  6
CONTINUOUS
 10
-10.9516936149
 20
-13.0951129947
 11
-10.9493687159
 21
-13.2581584657
  0
LINE
  5
361
100
AcDbEntity
  8
ASSI
100
AcDbLine
 62
7
  6
CONTINUOUS
 10
-10.9516936149
 20
-8.0951129947
 11
-10.9493687159
 21
-8.2581584657
  0
LINE
  5
362
100
AcDbEntity
  8
ASSI
100
AcDbLine
 62
7
  6
CONTINUOUS
 10
-10.9516936149
 20
-3.0951129947
 11
-10.9493687159
 21
-3.2581584657
  0
LINE
  5
363
100
AcDbEntity
  8
ASSI
100
AcDbLine
 62
7
  6
CONTINUOUS
 10
-10.9516936149
 20
1.9048870053
 11
-10.9493687159
 21
1.7418415343
  0
LINE
  5
364
100
AcDbEntity
  8
ASSI
100
AcDbLine
 62
7
  6
CONTINUOUS
 10
-10.9516936149
 20
6.9048870053
 11
-10.9493687159
 21
6.7418415343
  0
LINE
  5
365
100
AcDbEntity
  8
ASSI
100
AcDbLine
 62
7
  6
CONTINUOUS
 10
-10.9516936149
 20
11.9048870053
 11
-10.9493687159
 21
11.7418415343
  0
LINE
  5
366
100
AcDbEntity
  8
CURVE
100
AcDbLine
 62
250
  6
CONTINUOUS
 10
-11.0784635476
 20
-4.7500566584
 11
-11.0800972296
 21
-4.639199135
  0
LINE
  5
367
100
AcDbEntity
  8
CURVE
100
AcDbLine
 62
250
  6
CONTINUOUS
 10
-11.0150875818
 20
2.769608111
 11
-11.0184235484
 21
3.0076454033
  0
LINE
  5
368
100
AcDbEntity
  8
CURVE
100
AcDbLine
 62
250
  6
CONTINUOUS
 10
-11.0803341135
 20
0.5536185041
 11
-11.0735533747
 21
0.0721035908
  0
LINE
  5
369
100
AcDbEntity
  8
CURVE
100
AcDbLine
 62
250
  6
CONTINUOUS
 10
-11.0841330837
 20
-5.0922578737
 11
-11.083479052
 21
-5.1437917853
  0
LINE
  5
36A
100
AcDbEntity
  8
CURVE
100
AcDbLine
 62
250
  6
CONTINUOUS
 10
-11.0591614111
 20
1.2834405127
 11
-11.0559038607
 21
1.0157678543
  0
LINE
  5
36B
100
AcDbEntity
  8
CURVE
100
AcDbLine
 62
250
  6
CONTINUOUS
 10
-11.0782018817
 20
-4.7766624843
 11
-11.0784635476
 21
-4.7500566584
  0
LINE
  5
36C
100
AcDbEntity
  8
CURVE
100
AcDbLine
 62
250
  6
CONTINUOUS
 10
-11.0650469335
 20
0.9813019837
 11
-11.0689099693
 21
1.3649200749
  0
LINE
  5
36D
100
AcDbEntity
  8
CURVE
100
AcDbLine
 62
250
  6
CONTINUOUS
 10
-11.0121224183
 20
2.4511790328
 11
-11.0150875818
 21
2.769608111
  0
LINE
  5
36E
100
AcDbEntity
  8
CURVE
100
AcDbLine
 62
250
  6
CONTINUOUS
 10
-11.0860196569
 20
1.1702604459
 11
-11.0803341135
 21
0.5536185041
  0
LINE
  5
36F
100
AcDbEntity
  8
ASSI
100
AcDbLine
 62
7
  6
CONTINUOUS
 10
-10.953839395
 20
-12.8446317127
 11
-10.9516936149
 21
-13.0951129947
  0
LINE
  5
370
100
AcDbEntity
  8
ASSI
100
AcDbLine
 62
7
  6
CONTINUOUS
 10
-10.953839395
 20
-7.8446317127
 11
-10.9516936149
 21
-8.0951129947
  0
LINE
  5
371
100
AcDbEntity
  8
ASSI
100
AcDbLine
 62
7
  6
CONTINUOUS
 10
-10.953839395
 20
-2.8446317127
 11
-10.9516936149
 21
-3.0951129947
  0
LINE
  5
372
100
AcDbEntity
  8
ASSI
100
AcDbLine
 62
7
  6
CONTINUOUS
 10
-10.953839395
 20
2.1553682873
 11
-10.9516936149
 21
1.9048870053
  0
LINE
  5
373
100
AcDbEntity
  8
ASSI
100
AcDbLine
 62
7
  6
CONTINUOUS
 10
-10.953839395
 20
7.1553682873
 11
-10.9516936149
 21
6.9048870053
  0
LINE
  5
374
100
AcDbEntity
  8
ASSI
100
AcDbLine
 62
7
  6
CONTINUOUS
 10
-10.953839395
 20
12.1553682873
 11
-10.9516936149
 21
11.9048870053
  0
LINE
  5
375
100
AcDbEntity
  8
CURVE
100
AcDbLine
 62
250
  6
CONTINUOUS
 10
-11.083479052
 20
-5.1437917853
 11
-11.0827463445
 21
-5.2387258358
  0
LINE
  5
376
100
AcDbEntity
  8
CURVE
100
AcDbLine
 62
250
  6
CONTINUOUS
 10
-11.0616730136
 20
1.6171065814
 11
-11.0591614111
 21
1.2834405127
  0
LINE
  5
377
100
AcDbEntity
  8
CURVE
100
AcDbLine
 62
250
  6
CONTINUOUS
 10
-11.0450939947
 20
1.9028770186
 11
-11.0438022233
 21
1.7232987788
  0
LINE
  5
378
100
AcDbEntity
  8
CURVE
100
AcDbLine
 62
250
  6
CONTINUOUS
 10
-11.0279740009
 20
2.0971109814
 11
-11.0292657723
 21
2.2766892212
  0
LINE
  5
379
100
AcDbEntity
  8
CURVE
100
AcDbLine
 62
250
  6
CONTINUOUS
 10
-11.0689099693
 20
1.3649200749
 11
-11.0710857664
 21
1.768071128
  0
LINE
  5
37A
100
AcDbEntity
  8
CURVE
100
AcDbLine
 62
250
  6
CONTINUOUS
 10
-11.0780582607
 20
-4.80544429
 11
-11.0782018817
 21
-4.7766624843
  0
LINE
  5
37B
100
AcDbEntity
  8
CURVE
100
AcDbLine
 62
250
  6
CONTINUOUS
 10
-11.0885566183
 20
1.7224931638
 11
-11.0860196569
 21
1.1702604459
  0
LINE
  5
37C
100
AcDbEntity
  8
CURVE
100
AcDbLine
 62
250
  6
CONTINUOUS
 10
-11.0105341715
 20
2.1136812615
 11
-11.0121224183
 21
2.4511790328
  0
LINE
  5
37D
100
AcDbEntity
  8
ASSI
100
AcDbLine
 62
7
  6
CONTINUOUS
 10
-10.9547803715
 20
-12.5701194436
 11
-10.953839395
 21
-12.8446317127
  0
LINE
  5
37E
100
AcDbEntity
  8
ASSI
100
AcDbLine
 62
7
  6
CONTINUOUS
 10
-10.9547803715
 20
-7.5701194436
 11
-10.953839395
 21
-7.8446317127
  0
LINE
  5
37F
100
AcDbEntity
  8
ASSI
100
AcDbLine
 62
7
  6
CONTINUOUS
 10
-10.9547803715
 20
-2.5701194436
 11
-10.953839395
 21
-2.8446317127
  0
LINE
  5
380
100
AcDbEntity
  8
ASSI
100
AcDbLine
 62
7
  6
CONTINUOUS
 10
-10.9547803715
 20
2.4298805564
 11
-10.953839395
 21
2.1553682873
  0
LINE
  5
381
100
AcDbEntity
  8
ASSI
100
AcDbLine
 62
7
  6
CONTINUOUS
 10
-10.9547803715
 20
7.4298805564
 11
-10.953839395
 21
7.1553682873
  0
LINE
  5
382
100
AcDbEntity
  8
ASSI
100
AcDbLine
 62
7
  6
CONTINUOUS
 10
-10.9547803715
 20
12.4298805564
 11
-10.953839395
 21
12.1553682873
  0
LINE
  5
383
100
AcDbEntity
  8
CURVE
100
AcDbLine
 62
250
  6
CONTINUOUS
 10
-11.0827463445
 20
-5.2387258358
 11
-11.0822459047
 21
-5.4070917029
  0
LINE
  5
384
100
AcDbEntity
  8
CURVE
100
AcDbLine
 62
250
  6
CONTINUOUS
 10
-11.0627017556
 20
1.9620270391
 11
-11.0616730136
 21
1.6171065814
  0
LINE
  5
385
100
AcDbEntity
  8
CURVE
100
AcDbLine
 62
250
  6
CONTINUOUS
 10
-11.0888913218
 20
1.9999999993
 11
-11.0885566183
 21
1.7224931638
  0
LINE
  5
386
100
AcDbEntity
  8
CURVE
100
AcDbLine
 62
250
  6
CONTINUOUS
 10
-11.0710857664
 20
1.768071128
 11
-11.0714389279
 21
1.9999999993
  0
LINE
  5
387
100
AcDbEntity
  8
ASSI
100
AcDbLine
 62
7
  6
CONTINUOUS
 10
-11.15
 20
21.8997711479
 11
-11.15
 21
-21.8997711479
  0
LINE
  5
388
100
AcDbEntity
  8
CURVE
100
AcDbLine
 62
250
  6
CONTINUOUS
 10
-11.1047457914
 20
-12.285664
 11
-11.1047457914
 21
-12.890935
  0
LINE
  5
389
100
AcDbEntity
  8
CURVE
100
AcDbLine
 62
250
  6
CONTINUOUS
 10
-11.1047427546
 20
-15.50026
 11
-11.1047427546
 21
-14.842748
  0
LINE
  5
38A
100
AcDbEntity
  8
CURVE
100
AcDbLine
 62
250
  6
CONTINUOUS
 10
-11.1047427546
 20
-13.72041
 11
-11.1047427546
 21
-13.115552
  0
LINE
  5
38B
100
AcDbEntity
  8
CURVE
100
AcDbLine
 62
250
  6
CONTINUOUS
 10
-11.1047427546
 20
-11.698005
 11
-11.1047427546
 21
-11.093234
  0
LINE
  5
38C
100
AcDbEntity
  8
CURVE
100
AcDbLine
 62
250
  6
CONTINUOUS
 10
-11.1047427546
 20
-9.889084
 11
-11.1047427546
 21
-9.290227
  0
LINE
  5
38D
100
AcDbEntity
  8
CURVE
100
AcDbLine
 62
250
  6
CONTINUOUS
 10
-11.1047427546
 20
-8.014517
 11
-11.1047427546
 21
-7.42899
  0
LINE
  5
38E
100
AcDbEntity
  8
CURVE
100
AcDbLine
 62
250
  6
CONTINUOUS
 10
-11.1046091144
 20
5.0373834462
 11
-11.1046091144
 21
5.447615242
  0
LINE
  5
38F
100
AcDbEntity
  8
CURVE
100
AcDbLine
 62
250
  6
CONTINUOUS
 10
-11.1046091144
 20
6.9829064331
 11
-11.1046091144
 21
7.3484763228
  0
LINE
  5
390
100
AcDbEntity
  8
CURVE
100
AcDbLine
 62
250
  6
CONTINUOUS
 10
-11.1046091144
 20
8.1566465043
 11
-11.1046091144
 21
10.1590207562
  0
LINE
  5
391
100
AcDbEntity
  8
CURVE
100
AcDbLine
 62
250
  6
CONTINUOUS
 10
-11.1046091144
 20
10.5001317576
 11
-11.1046091144
 21
10.9184283853
  0
LINE
  5
392
100
AcDbEntity
  8
CURVE
100
AcDbLine
 62
250
  6
CONTINUOUS
 10
-11.1046091144
 20
12.5918298218
 11
-11.1046091144
 21
12.9939711994
  0
LINE
  5
393
100
AcDbEntity
  8
CURVE
100
AcDbLine
 62
250
  6
CONTINUOUS
 10
-11.1046091144
 20
13.485381805
 11
-11.1046091144
 21
15.4877304705
  0
LINE
  5
394
100
AcDbEntity
  8
CURVE
100
AcDbLine
 62
250
  6
CONTINUOUS
 10
-11.0989383309
 20
15.4877304705
 11
-11.0989383309
 21
13.8712348833
  0
LINE
  5
395
100
AcDbEntity
  8
CURVE
100
AcDbLine
 62
250
  6
CONTINUOUS
 10
-11.0989383309
 20
10.1590207562
 11
-11.0989383309
 21
8.5424978768
  0
LINE
  5
396
100
AcDbEntity
  8
CURVE
100
AcDbLine
 62
250
  6
CONTINUOUS
 10
-11.0946141757
 20
5.411072752
 11
-11.0946141757
 21
5.4029277495
  0
LINE
  5
397
100
AcDbEntity
  8
CURVE
100
AcDbLine
 62
250
  6
CONTINUOUS
 10
-11.0828471414
 20
8.5424978768
 11
-11.0828471414
 21
10.0493625825
  0
LINE
  5
398
100
AcDbEntity
  8
CURVE
100
AcDbLine
 62
250
  6
CONTINUOUS
 10
-11.0828471414
 20
13.8712348833
 11
-11.0828471414
 21
15.3781524675
  0
LINE
  5
399
100
AcDbEntity
  8
CURVE
100
AcDbLine
 62
250
  6
CONTINUOUS
 10
-11.0822459047
 20
-5.4070917029
 11
-11.0822292184
 21
-5.7788012718
  0
LINE
  5
39A
100
AcDbEntity
  8
CURVE
100
AcDbLine
 62
250
  6
CONTINUOUS
 10
-11.0771763578
 20
15.3781524675
 11
-11.0771763578
 21
13.8712348833
  0
LINE
  5
39B
100
AcDbEntity
  8
CURVE
100
AcDbLine
 62
250
  6
CONTINUOUS
 10
-11.0771763578
 20
10.0493625825
 11
-11.0771763578
 21
8.5424978768
  0
LINE
  5
39C
100
AcDbEntity
  8
CURVE
100
AcDbLine
 62
250
  6
CONTINUOUS
 10
-11.0720570327
 20
-8.0345
 11
-11.0720570327
 21
-7.454996
  0
LINE
  5
39D
100
AcDbEntity
  8
CURVE
100
AcDbLine
 62
250
  6
CONTINUOUS
 10
-11.0642395763
 20
-7.334033
 11
-11.0642395763
 21
-8.158312
  0
LINE
  5
39E
100
AcDbEntity
  8
CURVE
100
AcDbLine
 62
250
  6
CONTINUOUS
 10
-11.0635665845
 20
6.9747887227
 11
-11.0635665845
 21
6.9829064331
  0
LINE
  5
39F
100
AcDbEntity
  8
CURVE
100
AcDbLine
 62
250
  6
CONTINUOUS
 10
-11.0607311779
 20
11.7470386853
 11
-11.0607311779
 21
11.7551819821
  0
LINE
  5
3A0
100
AcDbEntity
  8
CURVE
100
AcDbLine
 62
250
  6
CONTINUOUS
 10
-11.0596679264
 20
8.5424978768
 11
-11.0596679264
 21
10.171210115
  0
LINE
  5
3A1
100
AcDbEntity
  8
CURVE
100
AcDbLine
 62
250
  6
CONTINUOUS
 10
-11.0596679264
 20
13.8712348833
 11
-11.0596679264
 21
15.5
  0
LINE
  5
3A2
100
AcDbEntity
  8
CURVE
100
AcDbLine
 62
250
  6
CONTINUOUS
 10
-11.054136832
 20
-12.890935
 11
-11.054136832
 21
-12.285664
  0
LINE
  5
3A3
100
AcDbEntity
  8
CURVE
100
AcDbLine
 62
250
  6
CONTINUOUS
 10
-11.0541368258
 20
-6.3615673443
 11
-11.0541368258
 21
-5.7587313832
  0
LINE
  5
3A4
100
AcDbEntity
  8
CURVE
100
AcDbLine
 62
250
  6
CONTINUOUS
 10
-11.0541368258
 20
-4.8318417383
 11
-11.0541368258
 21
-4.2496410148
  0
LINE
  5
3A5
100
AcDbEntity
  8
CURVE
100
AcDbLine
 62
250
  6
CONTINUOUS
 10
-11.054136832
 20
-6.539304
 11
-11.054136832
 21
-7.177235
  0
LINE
  5
3A6
100
AcDbEntity
  8
CURVE
100
AcDbLine
 62
250
  6
CONTINUOUS
 10
-11.054136832
 20
-8.325329
 11
-11.054136832
 21
-8.924033
  0
LINE
  5
3A7
100
AcDbEntity
  8
CURVE
100
AcDbLine
 62
250
  6
CONTINUOUS
 10
-11.054136832
 20
-9.019077
 11
-11.054136832
 21
-9.611193
  0
LINE
  5
3A8
100
AcDbEntity
  8
CURVE
100
AcDbLine
 62
250
  6
CONTINUOUS
 10
-11.054136832
 20
-10.455216
 11
-11.054136832
 21
-10.540105
  0
LINE
  5
3A9
100
AcDbEntity
  8
CURVE
100
AcDbLine
 62
250
  6
CONTINUOUS
 10
-11.054136832
 20
-11.380779
 11
-11.054136832
 21
-11.959827
  0
LINE
  5
3AA
100
AcDbEntity
  8
CURVE
100
AcDbLine
 62
250
  6
CONTINUOUS
 10
-11.054136832
 20
-14.047617
 11
-11.054136832
 21
-14.581013
  0
LINE
  5
3AB
100
AcDbEntity
  8
CURVE
100
AcDbLine
 62
250
  6
CONTINUOUS
 10
-11.0539971429
 20
15.5
 11
-11.0539971429
 21
13.485381805
  0
LINE
  5
3AC
100
AcDbEntity
  8
CURVE
100
AcDbLine
 62
250
  6
CONTINUOUS
 10
-11.0539971429
 20
11.9622816785
 11
-11.0539971429
 21
11.5236489837
  0
LINE
  5
3AD
100
AcDbEntity
  8
CURVE
100
AcDbLine
 62
250
  6
CONTINUOUS
 10
-11.0539971429
 20
10.171210115
 11
-11.0539971429
 21
8.1566465043
  0
LINE
  5
3AE
100
AcDbEntity
  8
CURVE
100
AcDbLine
 62
250
  6
CONTINUOUS
 10
-11.0539971429
 20
7.3484763228
 11
-11.0539971429
 21
6.9260551681
  0
LINE
  5
3AF
100
AcDbEntity
  8
CURVE
100
AcDbLine
 62
250
  6
CONTINUOUS
 10
-11.0539971429
 20
5.4029277495
 11
-11.0539971429
 21
5.0373834462
  0
LINE
  5
3B0
100
AcDbEntity
  8
CURVE
100
AcDbLine
 62
250
  6
CONTINUOUS
 10
-11.0244370156
 20
15.15
 11
-11.0244370156
 21
14.742857337
  0
LINE
  5
3B1
100
AcDbEntity
  8
CURVE
100
AcDbLine
 62
250
  6
CONTINUOUS
 10
-11.0244370156
 20
13.657142663
 11
-11.0244370156
 21
13.25
  0
LINE
  5
3B2
100
AcDbEntity
  8
CURVE
100
AcDbLine
 62
250
  6
CONTINUOUS
 10
-11.0244370156
 20
12.164285779
 11
-11.0244370156
 21
11.7571428895
  0
LINE
  5
3B3
100
AcDbEntity
  8
CURVE
100
AcDbLine
 62
250
  6
CONTINUOUS
 10
-11.0244370156
 20
10.6714286685
 11
-11.0244370156
 21
10.2642856658
  0
LINE
  5
3B4
100
AcDbEntity
  8
CURVE
100
AcDbLine
 62
250
  6
CONTINUOUS
 10
-11.0244370156
 20
8.9071428612
 11
-11.0244370156
 21
9.0428571671
  0
LINE
  5
3B5
100
AcDbEntity
  8
CURVE
100
AcDbLine
 62
250
  6
CONTINUOUS
 10
-11.0054886887
 20
10.2642856658
 11
-11.0054886887
 21
10.8523810387
  0
LINE
  5
3B6
100
AcDbEntity
  8
CURVE
100
AcDbLine
 62
250
  6
CONTINUOUS
 10
-11.0054886887
 20
13.25
 11
-11.0054886887
 21
13.8380952597
  0
LINE
  5
3B7
100
AcDbEntity
  8
CURVE
100
AcDbLine
 62
250
  6
CONTINUOUS
 10
-10.9912774433
 20
15.421428442
 11
-10.9912774433
 21
14.471428442
  0
LINE
  5
3B8
100
AcDbEntity
  8
CURVE
100
AcDbLine
 62
250
  6
CONTINUOUS
 10
-10.9912774433
 20
12.435714221
 11
-10.9912774433
 21
11.485714221
  0
LINE
  5
3B9
100
AcDbEntity
  8
CURVE
100
AcDbLine
 62
250
  6
CONTINUOUS
 10
-10.9912774433
 20
9.0428571671
 11
-10.9912774433
 21
8.9071428612
  0
LINE
  5
3BA
100
AcDbEntity
  8
CURVE
100
AcDbLine
 62
250
  6
CONTINUOUS
 10
-10.9841768832
 20
-1.0
 11
-10.9841768832
 21
-0.000000718
  0
LINE
  5
3BB
100
AcDbEntity
  8
ASSI
100
AcDbLine
 62
7
  6
CONTINUOUS
 10
-10.5041625977
 20
-15.8937104774
 11
-10.5041625977
 21
-13.7344425119
  0
LINE
  5
3BC
100
AcDbEntity
  8
ASSI
100
AcDbLine
 62
7
  6
CONTINUOUS
 10
-10.5041625977
 20
-11.2655574881
 11
-10.5041625977
 21
-8.7344425119
  0
LINE
  5
3BD
100
AcDbEntity
  8
ASSI
100
AcDbLine
 62
7
  6
CONTINUOUS
 10
-10.5041625977
 20
-6.2655574881
 11
-10.5041625977
 21
-3.7344425119
  0
LINE
  5
3BE
100
AcDbEntity
  8
ASSI
100
AcDbLine
 62
7
  6
CONTINUOUS
 10
-10.5041625977
 20
-1.2655574881
 11
-10.5041625977
 21
1.2655574881
  0
LINE
  5
3BF
100
AcDbEntity
  8
ASSI
100
AcDbLine
 62
7
  6
CONTINUOUS
 10
-10.5041625977
 20
3.7344425119
 11
-10.5041625977
 21
5.3414500212
  0
LINE
  5
3C0
100
AcDbEntity
  8
ASSI
100
AcDbLine
 62
7
  6
CONTINUOUS
 10
-10.5041625977
 20
9.6585499788
 11
-10.5041625977
 21
10.3414500212
  0
LINE
  5
3C1
100
AcDbEntity
  8
ASSI
100
AcDbLine
 62
7
  6
CONTINUOUS
 10
-10.5041625977
 20
14.6585499788
 11
-10.5041625977
 21
15.8937104774
  0
LINE
  5
3C2
100
AcDbEntity
  8
CURVE
100
AcDbLine
 62
250
  6
CONTINUOUS
 10
-11.0961215322
 20
-5.7788012718
 11
-11.0965004487
 21
-5.3506756501
  0
LINE
  5
3C3
100
AcDbEntity
  8
CURVE
100
AcDbLine
 62
250
  6
CONTINUOUS
 10
-11.1050832827
 20
-5.266854051
 11
-11.1041515081
 21
-6.3615673443
  0
LINE
  5
3C4
100
AcDbEntity
  8
CURVE
100
AcDbLine
 62
250
  6
CONTINUOUS
 10
-11.0450880262
 20
2.0988224725
 11
-11.0450939947
 21
1.9028770186
  0
LINE
  5
3C5
100
AcDbEntity
  8
CURVE
100
AcDbLine
 62
250
  6
CONTINUOUS
 10
-11.0279799694
 20
1.9011655275
 11
-11.0279740009
 21
2.0971109814
  0
LINE
  5
3C6
100
AcDbEntity
  8
CURVE
100
AcDbLine
 62
250
  6
CONTINUOUS
 10
-11.010588492
 20
1.7615627642
 11
-11.0105341715
 21
2.1136812615
  0
LINE
  5
3C7
100
AcDbEntity
  8
ASSI
100
AcDbLine
 62
7
  6
CONTINUOUS
 10
-10.9544661328
 20
12.7093875278
 11
-10.9547803715
 21
12.4298805564
  0
LINE
  5
3C8
100
AcDbEntity
  8
ASSI
100
AcDbLine
 62
7
  6
CONTINUOUS
 10
-10.9544661328
 20
7.7093875278
 11
-10.9547803715
 21
7.4298805564
  0
LINE
  5
3C9
100
AcDbEntity
  8
ASSI
100
AcDbLine
 62
7
  6
CONTINUOUS
 10
-10.9544661328
 20
2.7093875278
 11
-10.9547803715
 21
2.4298805564
  0
LINE
  5
3CA
100
AcDbEntity
  8
ASSI
100
AcDbLine
 62
7
  6
CONTINUOUS
 10
-10.9544661328
 20
-2.2906124722
 11
-10.9547803715
 21
-2.5701194436
  0
LINE
  5
3CB
100
AcDbEntity
  8
ASSI
100
AcDbLine
 62
7
  6
CONTINUOUS
 10
-10.9544661328
 20
-7.2906124722
 11
-10.9547803715
 21
-7.5701194436
  0
LINE
  5
3CC
100
AcDbEntity
  8
ASSI
100
AcDbLine
 62
7
  6
CONTINUOUS
 10
-10.9544661328
 20
-12.2906124722
 11
-10.9547803715
 21
-12.5701194436
  0
LINE
  5
3CD
100
AcDbEntity
  8
CURVE
100
AcDbLine
 62
250
  6
CONTINUOUS
 10
-11.0620889555
 20
2.2740105132
 11
-11.0627017556
 21
1.9620270391
  0
LINE
  5
3CE
100
AcDbEntity
  8
CURVE
100
AcDbLine
 62
250
  6
CONTINUOUS
 10
-11.0739411903
 20
-5.7587313832
 11
-11.0737702731
 21
-5.3505345776
  0
LINE
  5
3CF
100
AcDbEntity
  8
CURVE
100
AcDbLine
 62
250
  6
CONTINUOUS
 10
-11.0016292959
 20
1.9999999993
 11
-11.0026794483
 21
1.5253490509
  0
LINE
  5
3D0
100
AcDbEntity
  8
CURVE
100
AcDbLine
 62
250
  6
CONTINUOUS
 10
-10.985801454
 20
1.2700528247
 11
-10.9841768832
 21
1.9999999993
  0
LINE
  5
3D1
100
AcDbEntity
  8
CURVE
100
AcDbLine
 62
250
  6
CONTINUOUS
 10
-11.0965004487
 20
-5.3506756501
 11
-11.0960730072
 21
-5.2165436793
  0
LINE
  5
3D2
100
AcDbEntity
  8
CURVE
100
AcDbLine
 62
250
  6
CONTINUOUS
 10
-11.1036187063
 20
-4.8678501192
 11
-11.1050832827
 21
-5.266854051
  0
LINE
  5
3D3
100
AcDbEntity
  8
CURVE
100
AcDbLine
 62
250
  6
CONTINUOUS
 10
-11.0123250094
 20
1.4197204882
 11
-11.010588492
 21
1.7615627642
  0
LINE
  5
3D4
100
AcDbEntity
  8
ASSI
100
AcDbLine
 62
7
  6
CONTINUOUS
 10
-10.9529117505
 20
12.9736991819
 11
-10.9544661328
 21
12.7093875278
  0
LINE
  5
3D5
100
AcDbEntity
  8
ASSI
100
AcDbLine
 62
7
  6
CONTINUOUS
 10
-10.9529117505
 20
7.9736991819
 11
-10.9544661328
 21
7.7093875278
  0
LINE
  5
3D6
100
AcDbEntity
  8
ASSI
100
AcDbLine
 62
7
  6
CONTINUOUS
 10
-10.9529117505
 20
2.9736991819
 11
-10.9544661328
 21
2.7093875278
  0
LINE
  5
3D7
100
AcDbEntity
  8
ASSI
100
AcDbLine
 62
7
  6
CONTINUOUS
 10
-10.9529117505
 20
-2.0263008181
 11
-10.9544661328
 21
-2.2906124722
  0
LINE
  5
3D8
100
AcDbEntity
  8
ASSI
100
AcDbLine
 62
7
  6
CONTINUOUS
 10
-10.9529117505
 20
-7.0263008181
 11
-10.9544661328
 21
-7.2906124722
  0
LINE
  5
3D9
100
AcDbEntity
  8
ASSI
100
AcDbLine
 62
7
  6
CONTINUOUS
 10
-10.9529117505
 20
-12.0263008181
 11
-10.9544661328
 21
-12.2906124722
  0
LINE
  5
3DA
100
AcDbEntity
  8
CURVE
100
AcDbLine
 62
250
  6
CONTINUOUS
 10
-10.9899558518
 20
0.6327056006
 11
-10.985801454
 21
1.2700528247
  0
LINE
  5
3DB
100
AcDbEntity
  8
CURVE
100
AcDbLine
 62
250
  6
CONTINUOUS
 10
-11.0737702731
 20
-5.3505345776
 11
-11.0733183549
 21
-5.2800411646
  0
LINE
  5
3DC
100
AcDbEntity
  8
CURVE
100
AcDbLine
 62
250
  6
CONTINUOUS
 10
-11.0598589767
 20
2.5977551394
 11
-11.0620889555
 21
2.2740105132
  0
LINE
  5
3DD
100
AcDbEntity
  8
CURVE
100
AcDbLine
 62
250
  6
CONTINUOUS
 10
-11.0026794483
 20
1.5253490509
 11
-11.0056687466
 21
1.0716158447
  0
LINE
  5
3DE
100
AcDbEntity
  8
CURVE
100
AcDbLine
 62
250
  6
CONTINUOUS
 10
-11.0960730072
 20
-5.2165436793
 11
-11.0953982483
 21
-5.1338871141
  0
LINE
  5
3DF
100
AcDbEntity
  8
CURVE
100
AcDbLine
 62
250
  6
CONTINUOUS
 10
-11.1026485294
 20
-4.7571931602
 11
-11.1036187063
 21
-4.8678501192
  0
LINE
  5
3E0
100
AcDbEntity
  8
CURVE
100
AcDbLine
 62
250
  6
CONTINUOUS
 10
-11.0148255051
 20
1.1607476511
 11
-11.0123250094
 21
1.4197204882
  0
LINE
  5
3E1
100
AcDbEntity
  8
CURVE
100
AcDbLine
 62
250
  6
CONTINUOUS
 10
-11.0771314814
 20
-4.7385860308
 11
-11.0777592238
 21
-4.80544429
  0
LINE
  5
3E2
100
AcDbEntity
  8
CURVE
100
AcDbLine
 62
250
  6
CONTINUOUS
 10
-10.9938040752
 20
0.2659542014
 11
-10.9899558518
 21
0.6327056006
  0
LINE
  5
3E3
100
AcDbEntity
  8
ASSI
100
AcDbLine
 62
7
  6
CONTINUOUS
 10
-10.9509823349
 20
13.1521463979
 11
-10.9529117505
 21
12.9736991819
  0
LINE
  5
3E4
100
AcDbEntity
  8
ASSI
100
AcDbLine
 62
7
  6
CONTINUOUS
 10
-10.9509823349
 20
8.1521463979
 11
-10.9529117505
 21
7.9736991819
  0
LINE
  5
3E5
100
AcDbEntity
  8
ASSI
100
AcDbLine
 62
7
  6
CONTINUOUS
 10
-10.9509823349
 20
3.1521463979
 11
-10.9529117505
 21
2.9736991819
  0
LINE
  5
3E6
100
AcDbEntity
  8
ASSI
100
AcDbLine
 62
7
  6
CONTINUOUS
 10
-10.9509823349
 20
-1.8478536021
 11
-10.9529117505
 21
-2.0263008181
  0
LINE
  5
3E7
100
AcDbEntity
  8
ASSI
100
AcDbLine
 62
7
  6
CONTINUOUS
 10
-10.9509823349
 20
-6.8478536021
 11
-10.9529117505
 21
-7.0263008181
  0
LINE
  5
3E8
100
AcDbEntity
  8
ASSI
100
AcDbLine
 62
7
  6
CONTINUOUS
 10
-10.9509823349
 20
-11.8478536021
 11
-10.9529117505
 21
-12.0263008181
  0
LINE
  5
3E9
100
AcDbEntity
  8
CURVE
100
AcDbLine
 62
250
  6
CONTINUOUS
 10
-11.0056687466
 20
1.0716158447
 11
-11.008922725
 21
0.7766847355
  0
LINE
  5
3EA
100
AcDbEntity
  8
CURVE
100
AcDbLine
 62
250
  6
CONTINUOUS
 10
-11.0733183549
 20
-5.2800411646
 11
-11.0727741674
 21
-5.231228607
  0
LINE
  5
3EB
100
AcDbEntity
  8
CURVE
100
AcDbLine
 62
250
  6
CONTINUOUS
 10
-11.0569664007
 20
2.850627608
 11
-11.0598589767
 21
2.5977551394
  0
LINE
  5
3EC
100
AcDbEntity
  8
CURVE
100
AcDbLine
 62
250
  6
CONTINUOUS
 10
-11.008922725
 20
0.7766847355
 11
-11.0098656039
 21
0.709583466
  0
LINE
  5
3ED
100
AcDbEntity
  8
CURVE
100
AcDbLine
 62
250
  6
CONTINUOUS
 10
-11.1012231638
 20
-4.6507642192
 11
-11.1026485294
 21
-4.7571931602
  0
LINE
  5
3EE
100
AcDbEntity
  8
CURVE
100
AcDbLine
 62
250
  6
CONTINUOUS
 10
-11.0953982483
 20
-5.1338871141
 11
-11.0946812404
 21
-5.0792184112
  0
LINE
  5
3EF
100
AcDbEntity
  8
CURVE
100
AcDbLine
 62
250
  6
CONTINUOUS
 10
-11.0764289626
 20
-4.6893057711
 11
-11.0771314814
 21
-4.7385860308
  0
LWPOLYLINE
  5
3F0
100
AcDbEntity
  8
CURVE
100
AcDbPolyline
 62
250
  6
CONTINUOUS
 90
3
 70
0
 10
-11.0180722063
 20
0.9363708784
 10
-11.0173726839
 20
0.9779810955
 10
-11.0148255051
 20
1.1607476511
  0
LINE
  5
3F1
100
AcDbEntity
  8
CURVE
100
AcDbLine
 62
250
  6
CONTINUOUS
 10
-11.0196999341
 20
15.421428442
 11
-11.0244370156
 21
15.15
  0
LINE
  5
3F2
100
AcDbEntity
  8
CURVE
100
AcDbLine
 62
250
  6
CONTINUOUS
 10
-11.0196999341
 20
13.928571558
 11
-11.0244370156
 21
13.657142663
  0
LINE
  5
3F3
100
AcDbEntity
  8
CURVE
100
AcDbLine
 62
250
  6
CONTINUOUS
 10
-11.0196999341
 20
12.435714221
 11
-11.0244370156
 21
12.164285779
  0
LINE
  5
3F4
100
AcDbEntity
  8
CURVE
100
AcDbLine
 62
250
  6
CONTINUOUS
 10
-11.0102257712
 20
12.978571558
 11
-11.0054886887
 21
13.25
  0
LINE
  5
3F5
100
AcDbEntity
  8
CURVE
100
AcDbLine
 62
250
  6
CONTINUOUS
 10
-11.0196999341
 20
10.9428571105
 11
-11.0244370156
 21
10.6714286685
  0
LINE
  5
3F6
100
AcDbEntity
  8
CURVE
100
AcDbLine
 62
250
  6
CONTINUOUS
 10
-11.0102257712
 20
9.9928571105
 11
-11.0054886887
 21
10.2642856658
  0
LINE
  5
3F7
100
AcDbEntity
  8
CURVE
100
AcDbLine
 62
250
  6
CONTINUOUS
 10
-11.0244370156
 20
9.0428571671
 11
-11.0196999341
 21
9.3142857224
  0
LINE
  5
3F8
100
AcDbEntity
  8
CURVE
100
AcDbLine
 62
250
  6
CONTINUOUS
 10
-10.9912774433
 20
8.9071428612
 11
-10.9960145253
 21
8.6357142918
  0
LINE
  5
3F9
100
AcDbEntity
  8
CURVE
100
AcDbLine
 62
250
  6
CONTINUOUS
 10
-11.0727741674
 20
-5.231228607
 11
-11.072085382
 21
-5.1880344605
  0
LINE
  5
3FA
100
AcDbEntity
  8
ASSI
100
AcDbLine
 62
7
  6
CONTINUOUS
 10
-10.9484759205
 20
13.3064256713
 11
-10.9509823349
 21
13.1521463979
  0
LINE
  5
3FB
100
AcDbEntity
  8
CURVE
100
AcDbLine
 62
250
  6
CONTINUOUS
 10
-11.053315678
 20
3.076585427
 11
-11.0569664007
 21
2.850627608
  0
LINE
  5
3FC
100
AcDbEntity
  8
ASSI
100
AcDbLine
 62
7
  6
CONTINUOUS
 10
-10.9484759205
 20
8.3064256713
 11
-10.9509823349
 21
8.1521463979
  0
LINE
  5
3FD
100
AcDbEntity
  8
ASSI
100
AcDbLine
 62
7
  6
CONTINUOUS
 10
-10.9484759205
 20
3.3064256713
 11
-10.9509823349
 21
3.1521463979
  0
LINE
  5
3FE
100
AcDbEntity
  8
ASSI
100
AcDbLine
 62
7
  6
CONTINUOUS
 10
-10.9484759205
 20
-1.6935743287
 11
-10.9509823349
 21
-1.8478536021
  0
LINE
  5
3FF
100
AcDbEntity
  8
ASSI
100
AcDbLine
 62
7
  6
CONTINUOUS
 10
-10.9484759205
 20
-6.6935743287
 11
-10.9509823349
 21
-6.8478536021
  0
LINE
  5
400
100
AcDbEntity
  8
ASSI
100
AcDbLine
 62
7
  6
CONTINUOUS
 10
-10.9484759205
 20
-11.6935743287
 11
-10.9509823349
 21
-11.8478536021
  0
LINE
  5
401
100
AcDbEntity
  8
CURVE
100
AcDbLine
 62
250
  6
CONTINUOUS
 10
-11.0946812404
 20
-5.0792184112
 11
-11.0941064981
 21
-5.0477936213
  0
LINE
  5
402
100
AcDbEntity
  8
CURVE
100
AcDbLine
 62
250
  6
CONTINUOUS
 10
-11.0997602226
 20
-4.571893088
 11
-11.1012231638
 21
-4.6507642192
  0
LINE
  5
403
100
AcDbEntity
  8
CURVE
100
AcDbLine
 62
250
  6
CONTINUOUS
 10
-11.075592672
 20
-4.6455225647
 11
-11.0764289626
 21
-4.6893057711
  0
LINE
  5
404
100
AcDbEntity
  8
CURVE
100
AcDbLine
 62
250
  6
CONTINUOUS
 10
-11.050832349
 20
3.1947414104
 11
-11.053315678
 21
3.076585427
  0
LINE
  5
405
100
AcDbEntity
  8
CURVE
100
AcDbLine
 62
250
  6
CONTINUOUS
 10
-11.072085382
 20
-5.1880344605
 11
-11.0714248003
 21
-5.1566449787
  0
LINE
  5
406
100
AcDbEntity
  8
CURVE
100
AcDbLine
 62
250
  6
CONTINUOUS
 10
-11.0941064981
 20
-5.0477936213
 11
-11.0936299011
 21
-5.0272571546
  0
LINE
  5
407
100
AcDbEntity
  8
CURVE
100
AcDbLine
 62
250
  6
CONTINUOUS
 10
-11.0748457949
 20
-4.6142315465
 11
-11.075592672
 21
-4.6455225647
  0
LINE
  5
408
100
AcDbEntity
  8
CURVE
100
AcDbLine
 62
250
  6
CONTINUOUS
 10
-11.0984789085
 20
-4.5193791685
 11
-11.0997602226
 21
-4.571893088
  0
LINE
  5
409
100
AcDbEntity
  8
CURVE
100
AcDbLine
 62
250
  6
CONTINUOUS
 10
-11.1046091144
 20
5.447615242
 11
-11.0635665845
 21
6.9747887227
  0
LINE
  5
40A
100
AcDbEntity
  8
CURVE
100
AcDbLine
 62
250
  6
CONTINUOUS
 10
-11.0539971429
 20
6.9260551681
 11
-11.0946141757
 21
5.411072752
  0
LINE
  5
40B
100
AcDbEntity
  8
CURVE
100
AcDbLine
 62
250
  6
CONTINUOUS
 10
-11.0481744156
 20
3.2969777991
 11
-11.050832349
 21
3.1947414104
  0
LINE
  5
40C
100
AcDbEntity
  8
CURVE
100
AcDbLine
 62
250
  6
CONTINUOUS
 10
-11.0714248003
 20
-5.1566449787
 11
-11.0708534371
 21
-5.1347292253
  0
LWPOLYLINE
  5
40D
100
AcDbEntity
  8
ASSI
100
AcDbPolyline
 62
7
  6
CONTINUOUS
 90
13
 70
0
 10
-11.15
 20
16.1196591676
 10
-11.1468151573
 20
16.2316131562
 10
-11.1375215862
 20
16.342533987
 10
-11.1221192867
 20
16.4524216599
 10
-11.1005227178
 20
16.5616094683
 10
-11.0728174205
 20
16.6697641189
 10
-11.0392600178
 20
16.7758857322
 10
-10.9997965403
 20
16.8799555446
 10
-10.9544809574
 20
16.9819923197
 10
-10.9037318011
 20
17.0810524686
 10
-10.847688582
 20
17.1768214616
 10
-10.7862117894
 20
17.2696138285
 10
-10.7193014234
 20
17.3594295692
  0
LINE
  5
40E
100
AcDbEntity
  8
CURVE
100
AcDbLine
 62
250
  6
CONTINUOUS
 10
-11.0102412867
 20
-0.5963944712
 11
-11.0059759163
 21
-0.4362962353
  0
LINE
  5
40F
100
AcDbEntity
  8
CURVE
100
AcDbLine
 62
250
  6
CONTINUOUS
 10
-11.0740449687
 20
-4.586077503
 11
-11.0748457949
 21
-4.6142315465
  0
LINE
  5
410
100
AcDbEntity
  8
CURVE
100
AcDbLine
 62
250
  6
CONTINUOUS
 10
-11.0936299011
 20
-5.0272571546
 11
-11.0931200158
 21
-5.0093739389
  0
LINE
  5
411
100
AcDbEntity
  8
CURVE
100
AcDbLine
 62
250
  6
CONTINUOUS
 10
-11.0975691904
 20
-4.4892582787
 11
-11.0984789085
 21
-4.5193791685
  0
LINE
  5
412
100
AcDbEntity
  8
CURVE
100
AcDbLine
 62
250
  6
CONTINUOUS
 10
-11.0708534371
 20
-5.1347292253
 11
-11.0704063224
 21
-5.1202412201
  0
LINE
  5
413
100
AcDbEntity
  8
CURVE
100
AcDbLine
 62
250
  6
CONTINUOUS
 10
-11.013239779
 20
-0.6913688203
 11
-11.0102412867
 21
-0.5963944712
  0
LINE
  5
414
100
AcDbEntity
  8
CURVE
100
AcDbLine
 62
250
  6
CONTINUOUS
 10
-11.0463236665
 20
3.3551374091
 11
-11.0481744156
 21
3.2969777991
  0
LINE
  5
415
100
AcDbEntity
  8
CURVE
100
AcDbLine
 62
250
  6
CONTINUOUS
 10
-11.0196999341
 20
9.3142857224
 11
-11.0149628526
 21
9.45
  0
LINE
  5
416
100
AcDbEntity
  8
CURVE
100
AcDbLine
 62
250
  6
CONTINUOUS
 10
-10.9960145253
 20
8.6357142918
 11
-11.0007516073
 21
8.5
  0
LINE
  5
417
100
AcDbEntity
  8
CURVE
100
AcDbLine
 62
250
  6
CONTINUOUS
 10
-11.0931200158
 20
-5.0093739389
 11
-11.0927646482
 21
-4.9989726269
  0
LINE
  5
418
100
AcDbEntity
  8
CURVE
100
AcDbLine
 62
250
  6
CONTINUOUS
 10
-11.0732042665
 20
-4.5608910386
 11
-11.0740449687
 21
-4.586077503
  0
LINE
  5
419
100
AcDbEntity
  8
CURVE
100
AcDbLine
 62
250
  6
CONTINUOUS
 10
-11.0704063224
 20
-5.1202412201
 11
-11.0699478655
 21
-5.1074840337
  0
LINE
  5
41A
100
AcDbEntity
  8
CURVE
100
AcDbLine
 62
250
  6
CONTINUOUS
 10
-11.0163468701
 20
-0.7757156814
 11
-11.013239779
 21
-0.6913688203
  0
LINE
  5
41B
100
AcDbEntity
  8
CURVE
100
AcDbLine
 62
250
  6
CONTINUOUS
 10
-11.0723377616
 20
-4.5385027582
 11
-11.0732042665
 21
-4.5608910386
  0
LWPOLYLINE
  5
41C
100
AcDbEntity
  8
CURVE
100
AcDbPolyline
 62
250
  6
CONTINUOUS
 90
14
 70
0
 10
-11.0927646482
 20
-4.9989726269
 10
-11.09239906
 20
-4.989820743
 10
-11.0922130049
 20
-4.9857221121
 10
-11.0920250807
 20
-4.9819463691
 10
-11.0918355163
 20
-4.9784970241
 10
-11.0916445402
 20
-4.9753775875
 10
-11.0914523812
 20
-4.9725915695
 10
-11.091259268
 20
-4.9701424803
 10
-11.0910654293
 20
-4.9680338302
 10
-11.0908710938
 20
-4.9662691295
 10
-11.0906764902
 20
-4.9648518885
 10
-11.0904818472
 20
-4.9637856174
 10
-11.0902873935
 20
-4.9630738265
 10
-11.0900933579
 20
-4.9627200261
  0
LINE
  5
41D
100
AcDbEntity
  8
CURVE
100
AcDbLine
 62
250
  6
CONTINUOUS
 10
-11.0699478655
 20
-5.1074840337
 11
-11.0696379681
 21
-5.0999676579
  0
LINE
  5
41E
100
AcDbEntity
  8
CURVE
100
AcDbLine
 62
250
  6
CONTINUOUS
 10
-11.0716794158
 20
-4.5234459541
 11
-11.0723377616
 21
-4.5385027582
  0
LINE
  5
41F
100
AcDbEntity
  8
CURVE
100
AcDbLine
 62
250
  6
CONTINUOUS
 10
-11.054136832
 20
-10.540105
 11
-11.0871815499
 21
-11.250162
  0
LINE
  5
420
100
AcDbEntity
  8
CURVE
100
AcDbLine
 62
250
  6
CONTINUOUS
 10
-11.1047427546
 20
-11.093234
 11
-11.0766461953
 21
-10.494355
  0
LINE
  5
421
100
AcDbEntity
  8
CURVE
100
AcDbLine
 62
250
  6
CONTINUOUS
 10
-11.0696379681
 20
-5.0999676579
 11
-11.0687818839
 21
-5.0818000428
  0
LINE
  5
422
100
AcDbEntity
  8
CURVE
100
AcDbLine
 62
250
  6
CONTINUOUS
 10
-11.0539971429
 20
11.5236489837
 11
-11.1046091144
 21
10.5001317576
  0
LINE
  5
423
100
AcDbEntity
  8
CURVE
100
AcDbLine
 62
250
  6
CONTINUOUS
 10
-11.0710204093
 20
-4.5097963799
 11
-11.0716794158
 21
-4.5234459541
  0
LINE
  5
424
100
AcDbEntity
  8
CURVE
100
AcDbLine
 62
250
  6
CONTINUOUS
 10
-11.1046091144
 20
10.9184283853
 11
-11.0607311779
 21
11.7470386853
  0
LINE
  5
425
100
AcDbEntity
  8
CURVE
100
AcDbLine
 62
250
  6
CONTINUOUS
 10
-11.0687818839
 20
-5.0818000428
 11
-11.0666608883
 21
-5.0410013691
  0
LINE
  5
426
100
AcDbEntity
  8
CURVE
100
AcDbLine
 62
250
  6
CONTINUOUS
 10
-11.054136832
 20
-14.581013
 11
-11.1047427546
 21
-15.50026
  0
LINE
  5
427
100
AcDbEntity
  8
CURVE
100
AcDbLine
 62
250
  6
CONTINUOUS
 10
-11.0701869858
 20
-4.4942868847
 11
-11.0710204093
 21
-4.5097963799
  0
LINE
  5
428
100
AcDbEntity
  8
CURVE
100
AcDbLine
 62
250
  6
CONTINUOUS
 10
-11.1047427546
 20
-7.42899
 11
-11.054136832
 21
-6.539304
  0
LWPOLYLINE
  5
429
100
AcDbEntity
  8
CURVE
100
AcDbPolyline
 62
250
  6
CONTINUOUS
 90
21
 70
0
 10
-11.0262582534
 20
0.0881872694
 10
-11.0271644838
 20
0.0728231668
 10
-11.0280772858
 20
0.0586256104
 10
-11.0289963313
 20
0.0456955522
 10
-11.0299212924
 20
0.0341339445
 10
-11.0308518411
 20
0.0240417394
 10
-11.0317876493
 20
0.015519889
 10
-11.032728389
 20
0.0086693454
 10
-11.0336737322
 20
0.0035910607
 10
-11.0346233508
 20
0.0003859872
 10
-11.0355769169
 20
-0.0008449231
 10
-11.0365341025
 20
-0.000000718
 10
-11.0375584611
 20
0.0032705273
 10
-11.0385855588
 20
0.008962247
 10
-11.0396143909
 20
0.0170197969
 10
-11.0406439528
 20
0.0273885326
 10
-11.0416732397
 20
0.0400138096
 10
-11.0427012471
 20
0.0548409836
 10
-11.0437269703
 20
0.0718154101
 10
-11.0447494045
 20
0.0908824448
 10
-11.0457675453
 20
0.1119874432
  0
LINE
  5
42A
100
AcDbEntity
  8
CURVE
100
AcDbLine
 62
250
  6
CONTINUOUS
 10
-11.0666608883
 20
-5.0410013691
 11
-11.0638010035
 21
-4.991955855
  0
LINE
  5
42B
100
AcDbEntity
  8
CURVE
100
AcDbLine
 62
250
  6
CONTINUOUS
 10
-11.0694007454
 20
-4.4810661081
 11
-11.0701869858
 21
-4.4942868847
  0
LINE
  5
42C
100
AcDbEntity
  8
CURVE
100
AcDbLine
 62
250
  6
CONTINUOUS
 10
-11.0638010035
 20
-4.991955855
 11
-11.0541368258
 21
-4.8318417383
  0
LINE
  5
42D
100
AcDbEntity
  8
CURVE
100
AcDbLine
 62
250
  6
CONTINUOUS
 10
-11.054136832
 20
-7.177235
 11
-11.0642395763
 21
-7.334033
  0
LINE
  5
42E
100
AcDbEntity
  8
CURVE
100
AcDbLine
 62
250
  6
CONTINUOUS
 10
-11.0541368258
 20
-4.2496410148
 11
-11.0694007454
 21
-4.4810661081
  0
LINE
  5
42F
100
AcDbEntity
  8
CURVE
100
AcDbLine
 62
250
  6
CONTINUOUS
 10
-11.0720570327
 20
-7.454996
 11
-11.0908375324
 21
-7.733126
  0
LWPOLYLINE
  5
430
100
AcDbEntity
  8
CURVE
100
AcDbPolyline
 62
250
  6
CONTINUOUS
 90
7
 70
0
 10
-11.0365339978
 20
2.499993
 10
-11.0382289228
 20
2.4904705967
 10
-11.0398592887
 20
2.4622660923
 10
-11.0413629952
 20
2.4164537874
 10
-11.0427043429
 20
2.3535466835
 10
-11.0437853226
 20
2.2781412515
 10
-11.0450880262
 20
2.0988224725
  0
LWPOLYLINE
  5
431
100
AcDbEntity
  8
CURVE
100
AcDbPolyline
 62
250
  6
CONTINUOUS
 90
7
 70
0
 10
-11.0365339978
 20
1.499995
 10
-11.0348390727
 20
1.5095174033
 10
-11.0332087069
 20
1.5377219077
 10
-11.0317050003
 20
1.5835342126
 10
-11.0303636527
 20
1.6464413165
 10
-11.0292826729
 20
1.7218467486
 10
-11.0279799694
 20
1.9011655275
  0
LINE
  5
432
100
AcDbEntity
  8
ASSI
100
AcDbLine
 62
7
  6
CONTINUOUS
 10
-7.3142656437
 20
20.1058792234
 11
-7.4145050772
 21
19.6738174026
  0
LWPOLYLINE
  5
433
100
AcDbEntity
  8
ASSI
100
AcDbPolyline
 62
7
  6
CONTINUOUS
 90
11
 70
0
 10
-10.9361538737
 20
3.5763271382
 10
-10.9374010069
 20
3.5734415861
 10
-10.9386271252
 20
3.5661247605
 10
-10.9398322287
 20
3.5543766616
 10
-10.9410195205
 20
3.5381254616
 10
-10.9421857975
 20
3.5174429883
 10
-10.9433214504
 20
3.4925447244
 10
-10.9444271401
 20
3.4633875365
 10
-10.9455022059
 20
3.430014558
 10
-10.9465350555
 20
3.3927706733
 10
-10.9484759205
 20
3.3064256713
  0
LINE
  5
434
100
AcDbEntity
  8
IMPORT_IGES
100
AcDbLine
 62
250
  6
CONTINUOUS
 10
1.3757864376
 20
18.0
 11
1.5561165223
 21
18.1803300847
  0
LINE
  5
435
100
AcDbEntity
  8
CURVE
100
AcDbLine
 62
7
  6
CONTINUOUS
 10
-11.1046091144
 20
5.3066516555
 11
-11.0539971429
 21
5.357263627
  0
LINE
  5
436
100
AcDbEntity
  8
CURVE
100
AcDbLine
 62
250
  6
CONTINUOUS
 10
-7.9428571373
 20
7.4023806572
 11
-7.7571428239
 21
7.5880954742
  0
LINE
  5
437
100
AcDbEntity
  8
CURVE
100
AcDbLine
 62
250
  6
CONTINUOUS
 10
-8.2833333269
 20
8.4238096714
 11
-8.3452380948
 21
8.3928570986
  0
LINE
  5
438
100
AcDbEntity
  8
ASSI
100
AcDbLine
 62
7
  6
CONTINUOUS
 10
-10.651426722
 20
8.6805416038
 11
-10.9361538737
 21
8.5763271382
  0
LINE
  5
439
100
AcDbEntity
  8
ASSI
100
AcDbLine
 62
250
  6
CONTINUOUS
 10
11.15
 20
16.119659166
 11
10.5041625977
 21
15.8937104774
  0
LINE
  5
43A
100
AcDbEntity
  8
ASSI
100
AcDbLine
 62
250
  6
CONTINUOUS
 10
-10.9361538737
 20
-13.5763271382
 11
-9.7181529861
 21
-13.2499714423
  0
LINE
  5
43B
100
AcDbEntity
  8
ASSI
100
AcDbLine
 62
7
  6
CONTINUOUS
 10
-10.5041625977
 20
-13.7344425119
 11
-9.5021058917
 21
-13.4660185366
  0
LINE
  5
43C
100
AcDbEntity
  8
CURVE
100
AcDbLine
 62
250
  6
CONTINUOUS
 10
11.1070050257
 20
-11.73541
 11
11.0935574928
 21
-11.73541
  0
LINE
  5
43D
100
AcDbEntity
  8
CURVE
100
AcDbLine
 62
250
  6
CONTINUOUS
 10
11.0318914391
 20
-11.73541
 11
11.0184439062
 21
-11.73541
  0
LINE
  5
43E
100
AcDbEntity
  8
ASSI
100
AcDbLine
 62
7
  6
CONTINUOUS
 10
6.6
 20
-11.6
 11
-6.6
 21
-11.6
  0
LINE
  5
43F
100
AcDbEntity
  8
ASSI
100
AcDbLine
 62
7
  6
CONTINUOUS
 10
6.6
 20
-11.1980762113
 11
-6.6
 21
-11.1980762113
  0
LINE
  5
440
100
AcDbEntity
  8
ASSI
100
AcDbLine
 62
7
  6
CONTINUOUS
 10
10.5041625977
 20
-13.7344425119
 11
9.5021058917
 21
-13.4660185366
  0
LINE
  5
441
100
AcDbEntity
  8
ASSI
100
AcDbLine
 62
250
  6
CONTINUOUS
 10
10.9361538737
 20
-13.5763271382
 11
9.7181529861
 21
-13.2499714423
  0
LINE
  5
442
100
AcDbEntity
  8
ASSI
100
AcDbLine
 62
250
  6
CONTINUOUS
 10
11.15
 20
-16.119659166
 11
10.5041625977
 21
-15.8937104774
  0
LINE
  5
443
100
AcDbEntity
  8
ASSI
100
AcDbLine
 62
7
  6
CONTINUOUS
 10
-10.5041625977
 20
-8.7344425119
 11
-10.9361538737
 21
-8.5763271382
  0
LWPOLYLINE
  5
444
100
AcDbEntity
  8
ASSI
100
AcDbPolyline
 62
7
  6
CONTINUOUS
 90
13
 70
0
 10
9.6470456659
 20
-18.0
 10
9.6476563593
 20
-18.0003366062
 10
9.6476233665
 20
-18.0013451659
 10
9.6469679523
 20
-18.0030231164
 10
9.6457357238
 20
-18.0053635033
 10
9.6439229252
 20
-18.0083637552
 10
9.6414776552
 20
-18.0120343336
 10
9.6384319119
 20
-18.0163768413
 10
9.6347981374
 20
-18.0213919325
 10
9.6304984665
 20
-18.0271026347
 10
9.6255582181
 20
-18.0335232262
 10
9.6200035648
 20
-18.0406522202
 10
9.6137609703
 20
-18.0484953956
  0
LINE
  5
445
100
AcDbEntity
  8
CURVE
100
AcDbLine
 62
250
  6
CONTINUOUS
 10
-11.0007516073
 20
13.792857337
 11
-11.0102257712
 21
13.928571558
  0
LINE
  5
446
100
AcDbEntity
  8
ASSI
100
AcDbLine
 62
7
  6
CONTINUOUS
 10
-9.65
 20
20.9
 11
-9.65
 21
18.6303800747
  0
LINE
  5
447
100
AcDbEntity
  8
ASSI
100
AcDbLine
 62
7
  6
CONTINUOUS
 10
-9.65
 20
13.3181244284
 11
-9.65
 21
11.6818755717
  0
LINE
  5
448
100
AcDbEntity
  8
ASSI
100
AcDbLine
 62
7
  6
CONTINUOUS
 10
-9.65
 20
8.3181244284
 11
-9.65
 21
6.6818755717
  0
LINE
  5
449
100
AcDbEntity
  8
ASSI
100
AcDbLine
 62
7
  6
CONTINUOUS
 10
-9.65
 20
3.3181244284
 11
-9.65
 21
1.6818755717
  0
LINE
  5
44A
100
AcDbEntity
  8
ASSI
100
AcDbLine
 62
7
  6
CONTINUOUS
 10
-9.65
 20
-1.6818755716
 11
-9.65
 21
-3.3181244283
  0
LINE
  5
44B
100
AcDbEntity
  8
ASSI
100
AcDbLine
 62
7
  6
CONTINUOUS
 10
-9.65
 20
-6.6818755716
 11
-9.65
 21
-8.3181244283
  0
LINE
  5
44C
100
AcDbEntity
  8
ASSI
100
AcDbLine
 62
7
  6
CONTINUOUS
 10
-9.65
 20
-11.6818755716
 11
-9.65
 21
-13.3181244283
  0
LINE
  5
44D
100
AcDbEntity
  8
ASSI
100
AcDbLine
 62
7
  6
CONTINUOUS
 10
-9.65
 20
-18.6303800747
 11
-9.65
 21
-20.9
  0
LINE
  5
44E
100
AcDbEntity
  8
ASSI
100
AcDbLine
 62
7
  6
CONTINUOUS
 10
-9.5151961934
 20
-13.4529282349
 11
-9.5151961934
 21
-11.5470717651
  0
LINE
  5
44F
100
AcDbEntity
  8
ASSI
100
AcDbLine
 62
7
  6
CONTINUOUS
 10
-9.5151961934
 20
-8.4529282349
 11
-9.5151961934
 21
-6.5470717651
  0
LINE
  5
450
100
AcDbEntity
  8
ASSI
100
AcDbLine
 62
7
  6
CONTINUOUS
 10
-9.5151961934
 20
-3.4529282349
 11
-9.5151961934
 21
-1.5470717651
  0
LINE
  5
451
100
AcDbEntity
  8
ASSI
100
AcDbLine
 62
7
  6
CONTINUOUS
 10
-9.5151961934
 20
1.5470717651
 11
-9.5151961934
 21
3.4529282349
  0
LINE
  5
452
100
AcDbEntity
  8
ASSI
100
AcDbLine
 62
7
  6
CONTINUOUS
 10
-9.5151961934
 20
5.3545403229
 11
-9.5151961934
 21
9.6454596771
  0
LINE
  5
453
100
AcDbEntity
  8
ASSI
100
AcDbLine
 62
7
  6
CONTINUOUS
 10
-9.5151961934
 20
10.3545403229
 11
-9.5151961934
 21
14.6454596771
  0
LINE
  5
454
100
AcDbEntity
  8
ASSI
100
AcDbLine
 62
7
  6
CONTINUOUS
 10
-9.5021058917
 20
14.6585499788
 11
-9.5021058917
 21
10.3414500212
  0
LINE
  5
455
100
AcDbEntity
  8
ASSI
100
AcDbLine
 62
7
  6
CONTINUOUS
 10
-9.5021058917
 20
-13.4660185366
 11
-9.5021058917
 21
-11.5339814634
  0
LINE
  5
456
100
AcDbEntity
  8
ASSI
100
AcDbLine
 62
7
  6
CONTINUOUS
 10
-9.5021058917
 20
9.6585499788
 11
-9.5021058917
 21
5.3414500212
  0
LINE
  5
457
100
AcDbEntity
  8
ASSI
100
AcDbLine
 62
7
  6
CONTINUOUS
 10
-9.5021058917
 20
-8.4660185366
 11
-9.5021058917
 21
-6.5339814634
  0
LINE
  5
458
100
AcDbEntity
  8
ASSI
100
AcDbLine
 62
7
  6
CONTINUOUS
 10
-9.5021058917
 20
-3.4660185366
 11
-9.5021058917
 21
-1.5339814634
  0
LINE
  5
459
100
AcDbEntity
  8
ASSI
100
AcDbLine
 62
7
  6
CONTINUOUS
 10
-9.5021058917
 20
1.5339814634
 11
-9.5021058917
 21
3.4660185366
  0
LINE
  5
45A
100
AcDbEntity
  8
CURVE
100
AcDbLine
 62
250
  6
CONTINUOUS
 10
-8.5
 20
13.5
 11
-8.5
 21
13.128571412
  0
LINE
  5
45B
100
AcDbEntity
  8
CURVE
100
AcDbLine
 62
250
  6
CONTINUOUS
 10
-8.5
 20
7.9595238686
 11
-8.5
 21
7.5880954742
  0
LINE
  5
45C
100
AcDbEntity
  8
CURVE
100
AcDbLine
 62
250
  6
CONTINUOUS
 10
-8.4380952369
 20
8.4547619343
 11
-8.4380952369
 21
8.4857141972
  0
LINE
  5
45D
100
AcDbEntity
  8
CURVE
100
AcDbLine
 62
250
  6
CONTINUOUS
 10
-11.1047427546
 20
-14.842748
 11
-11.0699091301
 21
-14.290021
  0
LINE
  5
45E
100
AcDbEntity
  8
CURVE
100
AcDbLine
 62
250
  6
CONTINUOUS
 10
-11.1047427546
 20
-9.290227
 11
-11.054136832
 21
-9.019077
  0
LINE
  5
45F
100
AcDbEntity
  8
ASSI
100
AcDbLine
 62
7
  6
CONTINUOUS
 10
-4.6857343563
 20
20.1058792234
 11
-5.2098076588
 21
18.15
  0
LINE
  5
460
100
AcDbEntity
  8
ASSI
100
AcDbLine
 62
7
  6
CONTINUOUS
 10
-4.5854949228
 20
19.6738174026
 11
-5.0340100222
 21
18.0
  0
LWPOLYLINE
  5
461
100
AcDbEntity
  8
ASSI
100
AcDbPolyline
 62
7
  6
CONTINUOUS
 90
11
 70
0
 10
-10.9361538737
 20
-1.4236728618
 10
-10.9374010069
 20
-1.4265584139
 10
-10.9386271252
 20
-1.4338752395
 10
-10.9398322287
 20
-1.4456233384
 10
-10.9410195205
 20
-1.4618745384
 10
-10.9421857975
 20
-1.4825570117
 10
-10.9433214504
 20
-1.5074552756
 10
-10.9444271401
 20
-1.5366124635
 10
-10.9455022059
 20
-1.569985442
 10
-10.9465350555
 20
-1.6072293267
 10
-10.9484759205
 20
-1.6935743287
  0
LINE
  5
462
100
AcDbEntity
  8
ASSI
100
AcDbLine
 62
7
  6
CONTINUOUS
 10
-9.5021058917
 20
3.4660185366
 11
-9.7181529861
 21
3.2499714423
  0
LINE
  5
463
100
AcDbEntity
  8
ASSI
100
AcDbLine
 62
7
  6
CONTINUOUS
 10
-1.2
 20
10.75
 11
-1.8
 21
10.15
  0
LINE
  5
464
100
AcDbEntity
  8
CURVE
100
AcDbLine
 62
250
  6
CONTINUOUS
 10
-3.6
 20
8.15
 11
-5.5
 21
7.2
  0
LINE
  5
465
100
AcDbEntity
  8
ASSI
100
AcDbLine
 62
250
  6
CONTINUOUS
 10
10.9361538737
 20
-6.4236728618
 11
9.7181529861
 21
-6.7500285577
  0
LINE
  5
466
100
AcDbEntity
  8
ASSI
100
AcDbLine
 62
7
  6
CONTINUOUS
 10
10.5041625977
 20
-6.2655574881
 11
9.5021058917
 21
-6.5339814634
  0
LINE
  5
467
100
AcDbEntity
  8
ASSI
100
AcDbLine
 62
7
  6
CONTINUOUS
 10
-6.6
 20
-8.8019237886
 11
6.6
 21
-8.8019237886
  0
LINE
  5
468
100
AcDbEntity
  8
ASSI
100
AcDbLine
 62
250
  6
CONTINUOUS
 10
-10.9361538737
 20
-6.4236728618
 11
-9.7181529861
 21
-6.7500285577
  0
LINE
  5
469
100
AcDbEntity
  8
ASSI
100
AcDbLine
 62
7
  6
CONTINUOUS
 10
-10.5041625977
 20
-6.2655574881
 11
-9.5021058917
 21
-6.5339814634
  0
LINE
  5
46A
100
AcDbEntity
  8
CURVE
100
AcDbLine
 62
250
  6
CONTINUOUS
 10
3.859809
 20
-16.318874
 11
4.086567
 21
-16.52316
  0
LINE
  5
46B
100
AcDbEntity
  8
CURVE
100
AcDbLine
 62
250
  6
CONTINUOUS
 10
4.653459
 20
-15.910303
 11
4.426702
 21
-15.706017
  0
LINE
  5
46C
100
AcDbEntity
  8
ASSI
100
AcDbLine
 62
7
  6
CONTINUOUS
 10
-9.7181529861
 20
-3.2499714423
 11
-9.5021058917
 21
-3.4660185366
  0
LINE
  5
46D
100
AcDbEntity
  8
ASSI
100
AcDbLine
 62
7
  6
CONTINUOUS
 10
-3.4598082059
 20
-20.1057323176
 11
-3.6178956303
 21
-19.6738174026
  0
LINE
  5
46E
100
AcDbEntity
  8
ASSI
100
AcDbLine
 62
250
  6
CONTINUOUS
 10
-5.3044095569
 20
-18.0
 11
-4.7401917941
 21
-20.1057323176
  0
LINE
  5
46F
100
AcDbEntity
  8
ASSI
100
AcDbLine
 62
7
  6
CONTINUOUS
 10
-5.0339814634
 20
-17.9869096983
 11
-4.5821043697
 21
-19.6738174026
  0
LINE
  5
470
100
AcDbEntity
  8
CURVE
100
AcDbLine
 62
250
  6
CONTINUOUS
 10
-8.2833333269
 20
8.4547619343
 11
-8.2833333269
 21
8.4238096714
  0
LINE
  5
471
100
AcDbEntity
  8
CURVE
100
AcDbLine
 62
250
  6
CONTINUOUS
 10
-8.25
 20
11.5
 11
-8.25
 21
11.25
  0
LINE
  5
472
100
AcDbEntity
  8
CURVE
100
AcDbLine
 62
250
  6
CONTINUOUS
 10
-8.25
 20
10.97
 11
-8.25
 21
10.72
  0
LINE
  5
473
100
AcDbEntity
  8
CURVE
100
AcDbLine
 62
250
  6
CONTINUOUS
 10
-8.25
 20
10.44
 11
-8.25
 21
10.19
  0
LINE
  5
474
100
AcDbEntity
  8
CURVE
100
AcDbLine
 62
250
  6
CONTINUOUS
 10
-8.128571412
 20
6.9071425915
 11
-8.128571412
 21
6.4119045258
  0
LINE
  5
475
100
AcDbEntity
  8
CURVE
100
AcDbLine
 62
250
  6
CONTINUOUS
 10
-8.128571412
 20
0.65
 11
-8.128571412
 21
-0.65
  0
LINE
  5
476
100
AcDbEntity
  8
CURVE
100
AcDbLine
 62
250
  6
CONTINUOUS
 10
-7.7571428239
 20
7.5880954742
 11
-7.7571428239
 21
7.9595238686
  0
LINE
  5
477
100
AcDbEntity
  8
CURVE
100
AcDbLine
 62
250
  6
CONTINUOUS
 10
-7.7571428239
 20
13.128571412
 11
-7.7571428239
 21
13.5
  0
LINE
  5
478
100
AcDbEntity
  8
CURVE
100
AcDbLine
 62
250
  6
CONTINUOUS
 10
-7.5
 20
11.5
 11
-7.5
 21
10.2
  0
LINE
  5
479
100
AcDbEntity
  8
CURVE
100
AcDbLine
 62
250
  6
CONTINUOUS
 10
-7.2
 20
13.5
 11
-7.2
 21
12.9428571373
  0
LINE
  5
47A
100
AcDbEntity
  8
CURVE
100
AcDbLine
 62
250
  6
CONTINUOUS
 10
-7.2
 20
7.9595238686
 11
-7.2
 21
7.4023806572
  0
LINE
  5
47B
100
AcDbEntity
  8
CURVE
100
AcDbLine
 62
250
  6
CONTINUOUS
 10
-7.1071429014
 20
0.2785714507
 11
-7.1071429014
 21
0.4642857254
  0
LINE
  5
47C
100
AcDbEntity
  8
CURVE
100
AcDbLine
 62
250
  6
CONTINUOUS
 10
-6.7357143521
 20
-0.278571412
 11
-6.7357143521
 21
0.2785714507
  0
LINE
  5
47D
100
AcDbEntity
  8
ASSI
100
AcDbLine
 62
7
  6
CONTINUOUS
 10
-3.4
 20
22.3297297297
 11
-3.3633443637
 21
22.5
  0
LINE
  5
47E
100
AcDbEntity
  8
ASSI
100
AcDbLine
 62
7
  6
CONTINUOUS
 10
-3.5142656437
 20
20.1058792234
 11
-3.6145050772
 21
19.6738174026
  0
LINE
  5
47F
100
AcDbEntity
  8
CURVE
100
AcDbLine
 62
250
  6
CONTINUOUS
 10
-11.054136832
 20
-9.611193
 11
-11.0870437981
 21
-9.735548
  0
LWPOLYLINE
  5
480
100
AcDbEntity
  8
ASSI
100
AcDbPolyline
 62
7
  6
CONTINUOUS
 90
11
 70
0
 10
-10.9361538737
 20
-6.4236728618
 10
-10.9374010069
 20
-6.4265584139
 10
-10.9386271252
 20
-6.4338752395
 10
-10.9398322287
 20
-6.4456233384
 10
-10.9410195205
 20
-6.4618745384
 10
-10.9421857975
 20
-6.4825570117
 10
-10.9433214504
 20
-6.5074552756
 10
-10.9444271401
 20
-6.5366124635
 10
-10.9455022059
 20
-6.569985442
 10
-10.9465350555
 20
-6.6072293267
 10
-10.9484759205
 20
-6.6935743287
  0
LINE
  5
481
100
AcDbEntity
  8
ASSI
100
AcDbLine
 62
7
  6
CONTINUOUS
 10
2.7167632191
 20
21.6560705017
 11
2.9969695968
 21
22.2
  0
LINE
  5
482
100
AcDbEntity
  8
IMPORT_IGES
100
AcDbLine
 62
7
  6
CONTINUOUS
 10
2.85
 20
13.75
 11
3.35
 21
14.25
  0
LINE
  5
483
100
AcDbEntity
  8
ASSI
100
AcDbLine
 62
7
  6
CONTINUOUS
 10
3.8
 20
14.25
 11
4.4
 21
14.85
  0
LINE
  5
484
100
AcDbEntity
  8
IMPORT_IGES
100
AcDbLine
 62
7
  6
CONTINUOUS
 10
0.35
 20
10.75
 11
0.85
 21
11.25
  0
LINE
  5
485
100
AcDbEntity
  8
CURVE
100
AcDbLine
 62
250
  6
CONTINUOUS
 10
7.185714294
 20
11.1428570986
 11
7.371428588
 21
11.2357143521
  0
LINE
  5
486
100
AcDbEntity
  8
ASSI
100
AcDbLine
 62
7
  6
CONTINUOUS
 10
-10.5041625977
 20
3.7344425119
 11
-10.9361538737
 21
3.5763271382
  0
LINE
  5
487
100
AcDbEntity
  8
ASSI
100
AcDbLine
 62
7
  6
CONTINUOUS
 10
10.5041625977
 20
11.2655574881
 11
10.9361538737
 21
11.4236728618
  0
LINE
  5
488
100
AcDbEntity
  8
CURVE
100
AcDbLine
 62
250
  6
CONTINUOUS
 10
-7.2
 20
6.6595238686
 11
-8.5
 21
6.2880954742
  0
LINE
  5
489
100
AcDbEntity
  8
RACCORDO
100
AcDbLine
 62
250
  6
CONTINUOUS
 10
7.2551162555
 20
-6.8835982173
 11
5.25
 21
-6.9010012469
  0
LINE
  5
48A
100
AcDbEntity
  8
ASSI
100
AcDbLine
 62
7
  6
CONTINUOUS
 10
-6.6
 20
-8.4
 11
6.6
 21
-8.4
  0
LINE
  5
48B
100
AcDbEntity
  8
CURVE
100
AcDbLine
 62
250
  6
CONTINUOUS
 10
11.0157108124
 20
-8.3
 11
11.1029728445
 21
-8.3
  0
LINE
  5
48C
100
AcDbEntity
  8
IMPORT_IGES
100
AcDbLine
 62
7
  6
CONTINUOUS
 10
7.05
 20
-7.1
 11
5.25
 21
-7.1
  0
LINE
  5
48D
100
AcDbEntity
  8
CURVE
100
AcDbLine
 62
250
  6
CONTINUOUS
 10
11.0811573365
 20
-7.05
 11
11.0375263204
 21
-7.05
  0
LINE
  5
48E
100
AcDbEntity
  8
ASSI
100
AcDbLine
 62
7
  6
CONTINUOUS
 10
-10.5041625977
 20
-3.7344425119
 11
-10.9361538737
 21
-3.5763271382
  0
LINE
  5
48F
100
AcDbEntity
  8
ASSI
100
AcDbLine
 62
7
  6
CONTINUOUS
 10
10.5041625977
 20
-11.2655574881
 11
10.9361538737
 21
-11.4236728618
  0
LINE
  5
490
100
AcDbEntity
  8
ASSI
100
AcDbLine
 62
7
  6
CONTINUOUS
 10
2.7167632191
 20
-21.6560705017
 11
2.9969695968
 21
-22.2
  0
LINE
  5
491
100
AcDbEntity
  8
ASSI
100
AcDbLine
 62
7
  6
CONTINUOUS
 10
-3.4
 20
-22.3297297297
 11
-3.3633443637
 21
-22.5
  0
LINE
  5
492
100
AcDbEntity
  8
ASSI
100
AcDbLine
 62
250
  6
CONTINUOUS
 10
-6.6
 20
-13.8019237886
 11
-6.6
 21
-13.4
  0
LINE
  5
493
100
AcDbEntity
  8
ASSI
100
AcDbLine
 62
250
  6
CONTINUOUS
 10
-6.6
 20
-8.8019237886
 11
-6.6
 21
-8.4
  0
LINE
  5
494
100
AcDbEntity
  8
ASSI
100
AcDbLine
 62
250
  6
CONTINUOUS
 10
-6.6
 20
3.8019237887
 11
-6.6
 21
3.4
  0
LINE
  5
495
100
AcDbEntity
  8
ASSI
100
AcDbLine
 62
250
  6
CONTINUOUS
 10
-6.6
 20
-3.8019237886
 11
-6.6
 21
-3.4
  0
LINE
  5
496
100
AcDbEntity
  8
ASSI
100
AcDbLine
 62
250
  6
CONTINUOUS
 10
-6.6
 20
-1.1980762113
 11
-6.6
 21
-1.6
  0
LINE
  5
497
100
AcDbEntity
  8
ASSI
100
AcDbLine
 62
250
  6
CONTINUOUS
 10
-6.6
 20
1.1980762114
 11
-6.6
 21
1.6
  0
LINE
  5
498
100
AcDbEntity
  8
ASSI
100
AcDbLine
 62
250
  6
CONTINUOUS
 10
-6.6
 20
-6.1980762113
 11
-6.6
 21
-6.6
  0
LINE
  5
499
100
AcDbEntity
  8
ASSI
100
AcDbLine
 62
250
  6
CONTINUOUS
 10
-6.6
 20
-11.1980762113
 11
-6.6
 21
-11.6
  0
LINE
  5
49A
100
AcDbEntity
  8
CURVE
100
AcDbLine
 62
250
  6
CONTINUOUS
 10
-6.0857143521
 20
0.2785714507
 11
-6.0857143521
 21
-0.278571412
  0
LINE
  5
49B
100
AcDbEntity
  8
CURVE
100
AcDbLine
 62
250
  6
CONTINUOUS
 10
-5.5
 20
12.9
 11
-5.5
 21
12.2214285553
  0
LINE
  5
49C
100
AcDbEntity
  8
ASSI
100
AcDbLine
 62
7
  6
CONTINUOUS
 10
-0.8857343563
 20
20.1058792234
 11
-1.3428204736
 21
18.3999999983
  0
LINE
  5
49D
100
AcDbEntity
  8
ASSI
100
AcDbLine
 62
7
  6
CONTINUOUS
 10
-0.7854949228
 20
19.6738174026
 11
-1.2340100222
 21
18.0
  0
LWPOLYLINE
  5
49E
100
AcDbEntity
  8
ASSI
100
AcDbPolyline
 62
7
  6
CONTINUOUS
 90
11
 70
0
 10
-10.9361538737
 20
-11.4236728618
 10
-10.9374010069
 20
-11.4265584139
 10
-10.9386271252
 20
-11.4338752395
 10
-10.9398322287
 20
-11.4456233384
 10
-10.9410195205
 20
-11.4618745384
 10
-10.9421857975
 20
-11.4825570117
 10
-10.9433214504
 20
-11.5074552756
 10
-10.9444271401
 20
-11.5366124635
 10
-10.9455022059
 20
-11.569985442
 10
-10.9465350555
 20
-11.6072293267
 10
-10.9484759205
 20
-11.6935743287
  0
LINE
  5
49F
100
AcDbEntity
  8
CURVE
100
AcDbLine
 62
250
  6
CONTINUOUS
 10
-6.7357143521
 20
0.2785714507
 11
-6.6428570986
 21
0.4642857254
  0
LINE
  5
4A0
100
AcDbEntity
  8
CURVE
100
AcDbLine
 62
250
  6
CONTINUOUS
 10
-6.0857143521
 20
-0.278571412
 11
-6.1785714507
 21
-0.464285706
  0
LINE
  5
4A1
100
AcDbEntity
  8
CURVE
100
AcDbLine
 62
250
  6
CONTINUOUS
 10
-7.5714285493
 20
0.65
 11
-7.7571428239
 21
0.3714285493
  0
LINE
  5
4A2
100
AcDbEntity
  8
CURVE
100
AcDbLine
 62
250
  6
CONTINUOUS
 10
-7.7571428239
 20
-0.65
 11
-7.1071429014
 21
0.2785714507
  0
LINE
  5
4A3
100
AcDbEntity
  8
CURVE
100
AcDbLine
 62
250
  6
CONTINUOUS
 10
-8.5
 20
0.2785714507
 11
-8.128571412
 21
0.65
  0
LINE
  5
4A4
100
AcDbEntity
  8
ASSI
100
AcDbLine
 62
7
  6
CONTINUOUS
 10
-9.5021058917
 20
-1.5339814634
 11
-9.7181529861
 21
-1.7500285577
  0
LINE
  5
4A5
100
AcDbEntity
  8
CURVE
100
AcDbLine
 62
250
  6
CONTINUOUS
 10
-6.6428570986
 20
0.4642857254
 11
-6.4571429014
 21
0.65
  0
LINE
  5
4A6
100
AcDbEntity
  8
CURVE
100
AcDbLine
 62
250
  6
CONTINUOUS
 10
8.1142857254
 20
10.6785714507
 11
7.9285714507
 21
10.5857143521
  0
LINE
  5
4A7
100
AcDbEntity
  8
CURVE
100
AcDbLine
 62
250
  6
CONTINUOUS
 10
8.3
 20
7.6142858028
 11
7.0
 21
7.2428574085
  0
LINE
  5
4A8
100
AcDbEntity
  8
ASSI
100
AcDbLine
 62
250
  6
CONTINUOUS
 10
-10.9361538737
 20
-8.5763271382
 11
-9.7181529861
 21
-8.2499714423
  0
LINE
  5
4A9
100
AcDbEntity
  8
ASSI
100
AcDbLine
 62
7
  6
CONTINUOUS
 10
-10.5041625977
 20
-8.7344425119
 11
-9.5021058917
 21
-8.4660185366
  0
LINE
  5
4AA
100
AcDbEntity
  8
ASSI
100
AcDbLine
 62
7
  6
CONTINUOUS
 10
6.6
 20
-6.6
 11
-6.6
 21
-6.6
  0
LINE
  5
4AB
100
AcDbEntity
  8
CURVE
100
AcDbLine
 62
250
  6
CONTINUOUS
 10
-11.1041515081
 20
-6.3615673443
 11
-11.0541368258
 21
-6.3615673443
  0
LINE
  5
4AC
100
AcDbEntity
  8
ASSI
100
AcDbLine
 62
7
  6
CONTINUOUS
 10
6.6
 20
-6.1980762113
 11
-6.6
 21
-6.1980762113
  0
LINE
  5
4AD
100
AcDbEntity
  8
CURVE
100
AcDbLine
 62
250
  6
CONTINUOUS
 10
-11.0822292184
 20
-5.7788012718
 11
-11.0961215322
 21
-5.7788012718
  0
LINE
  5
4AE
100
AcDbEntity
  8
CURVE
100
AcDbLine
 62
250
  6
CONTINUOUS
 10
-11.0541368258
 20
-5.7587313832
 11
-11.0739411903
 21
-5.7587313832
  0
LINE
  5
4AF
100
AcDbEntity
  8
ASSI
100
AcDbLine
 62
7
  6
CONTINUOUS
 10
10.5041625977
 20
-8.7344425119
 11
9.5021058917
 21
-8.4660185366
  0
LINE
  5
4B0
100
AcDbEntity
  8
ASSI
100
AcDbLine
 62
250
  6
CONTINUOUS
 10
10.9361538737
 20
-8.5763271382
 11
9.7181529861
 21
-8.2499714423
  0
LINE
  5
4B1
100
AcDbEntity
  8
CURVE
100
AcDbLine
 62
250
  6
CONTINUOUS
 10
7.261167
 20
-15.501731
 11
7.374545
 21
-15.603874
  0
LINE
  5
4B2
100
AcDbEntity
  8
CURVE
100
AcDbLine
 62
250
  6
CONTINUOUS
 10
8.735088
 20
-15.501731
 11
8.848467
 21
-15.603874
  0
LINE
  5
4B3
100
AcDbEntity
  8
ASSI
100
AcDbLine
 62
7
  6
CONTINUOUS
 10
-9.7181529861
 20
1.7500285577
 11
-9.5021058917
 21
1.5339814634
  0
LINE
  5
4B4
100
AcDbEntity
  8
CURVE
100
AcDbLine
 62
250
  6
CONTINUOUS
 10
-6.4571429014
 20
-0.65
 11
-6.6428570986
 21
-0.464285706
  0
LINE
  5
4B5
100
AcDbEntity
  8
CURVE
100
AcDbLine
 62
250
  6
CONTINUOUS
 10
-6.6428570986
 20
-0.464285706
 11
-6.7357143521
 21
-0.278571412
  0
LINE
  5
4B6
100
AcDbEntity
  8
CURVE
100
AcDbLine
 62
250
  6
CONTINUOUS
 10
-6.1785714507
 20
0.4642857254
 11
-6.0857143521
 21
0.2785714507
  0
LINE
  5
4B7
100
AcDbEntity
  8
ASSI
100
AcDbLine
 62
7
  6
CONTINUOUS
 10
0.3401917941
 20
-20.1057323176
 11
0.1821043697
 21
-19.6738174026
  0
LINE
  5
4B8
100
AcDbEntity
  8
ASSI
100
AcDbLine
 62
250
  6
CONTINUOUS
 10
-1.5044095569
 20
-18.0
 11
-0.9401917941
 21
-20.1057323176
  0
LINE
  5
4B9
100
AcDbEntity
  8
ASSI
100
AcDbLine
 62
7
  6
CONTINUOUS
 10
-1.2339814634
 20
-17.9869096983
 11
-0.7821043697
 21
-19.6738174026
  0
LINE
  5
4BA
100
AcDbEntity
  8
IMPORT_IGES
100
AcDbLine
 62
7
  6
CONTINUOUS
 10
-4.25
 20
1.6339410909
 11
-4.25
 21
1.6
  0
LINE
  5
4BB
100
AcDbEntity
  8
IMPORT_IGES
100
AcDbLine
 62
7
  6
CONTINUOUS
 10
-4.25
 20
-1.6
 11
-4.25
 21
-2.05
  0
LINE
  5
4BC
100
AcDbEntity
  8
CURVE
100
AcDbLine
 62
250
  6
CONTINUOUS
 10
-4.1357141972
 20
0.2785714507
 11
-4.1357141972
 21
0.4642857254
  0
LINE
  5
4BD
100
AcDbEntity
  8
ASSI
100
AcDbLine
 62
7
  6
CONTINUOUS
 10
-3.4
 20
-21.3965394196
 11
-3.4
 21
-23.4301797403
  0
LINE
  5
4BE
100
AcDbEntity
  8
ASSI
100
AcDbLine
 62
7
  6
CONTINUOUS
 10
-3.4
 20
21.3965394196
 11
-3.4
 21
23.4301797403
  0
LINE
  5
4BF
100
AcDbEntity
  8
ASSI
100
AcDbLine
 62
7
  6
CONTINUOUS
 10
-3.3633443637
 20
23.4668353766
 11
-3.3633443637
 21
22.5
  0
LINE
  5
4C0
100
AcDbEntity
  8
ASSI
100
AcDbLine
 62
7
  6
CONTINUOUS
 10
-3.3633443637
 20
-23.4668353766
 11
-3.3633443637
 21
-22.5
  0
LINE
  5
4C1
100
AcDbEntity
  8
CURVE
100
AcDbLine
 62
250
  6
CONTINUOUS
 10
-3.3309522629
 20
-0.65
 11
-3.3309522629
 21
0.0
  0
LINE
  5
4C2
100
AcDbEntity
  8
ASSI
100
AcDbLine
 62
7
  6
CONTINUOUS
 10
-3.3
 20
22.4
 11
-3.3
 21
21.9098076211
  0
LINE
  5
4C3
100
AcDbEntity
  8
ASSI
100
AcDbLine
 62
7
  6
CONTINUOUS
 10
-3.3
 20
21.3901923789
 11
-3.3
 21
21.190565191
  0
LINE
  5
4C4
100
AcDbEntity
  8
ASSI
100
AcDbLine
 62
7
  6
CONTINUOUS
 10
-3.3
 20
-21.190565191
 11
-3.3
 21
-21.3901923789
  0
LINE
  5
4C5
100
AcDbEntity
  8
ASSI
100
AcDbLine
 62
7
  6
CONTINUOUS
 10
-3.3
 20
-21.9098076211
 11
-3.3
 21
-22.4
  0
LINE
  5
4C6
100
AcDbEntity
  8
ASSI
100
AcDbLine
 62
7
  6
CONTINUOUS
 10
0.2857343563
 20
20.1058792234
 11
0.1854949228
 21
19.6738174026
  0
LINE
  5
4C7
100
AcDbEntity
  8
CURVE
100
AcDbLine
 62
250
  6
CONTINUOUS
 10
-3.7642858028
 20
-0.3714285687
 11
-3.4857141972
 21
0.65
  0
LINE
  5
4C8
100
AcDbEntity
  8
ASSI
100
AcDbLine
 62
250
  6
CONTINUOUS
 10
3.653791075
 20
23.4301797403
 11
3.6748574782
 21
23.5
  0
LINE
  5
4C9
100
AcDbEntity
  8
CURVE
100
AcDbLine
 62
250
  6
CONTINUOUS
 10
-4.6
 20
0.65
 11
-4.7857141972
 21
0.3714285493
  0
LINE
  5
4CA
100
AcDbEntity
  8
CURVE
100
AcDbLine
 62
250
  6
CONTINUOUS
 10
-4.7857141972
 20
-0.65
 11
-4.1357141972
 21
0.2785714507
  0
LINE
  5
4CB
100
AcDbEntity
  8
ASSI
100
AcDbLine
 62
7
  6
CONTINUOUS
 10
-1.2
 20
5.75
 11
-1.8
 21
5.15
  0
LINE
  5
4CC
100
AcDbEntity
  8
IMPORT_IGES
100
AcDbLine
 62
7
  6
CONTINUOUS
 10
3.35
 20
9.25
 11
2.85
 21
8.75
  0
LINE
  5
4CD
100
AcDbEntity
  8
CURVE
100
AcDbLine
 62
250
  6
CONTINUOUS
 10
-6.1785714507
 20
-0.464285706
 11
-6.3642856479
 21
-0.65
  0
LINE
  5
4CE
100
AcDbEntity
  8
ASSI
100
AcDbLine
 62
7
  6
CONTINUOUS
 10
3.8
 20
9.25
 11
4.4
 21
9.85
  0
LINE
  5
4CF
100
AcDbEntity
  8
IMPORT_IGES
100
AcDbLine
 62
7
  6
CONTINUOUS
 10
0.85
 20
6.25
 11
0.35
 21
5.75
  0
LINE
  5
4D0
100
AcDbEntity
  8
CURVE
100
AcDbLine
 62
250
  6
CONTINUOUS
 10
7.185714294
 20
12.2571428239
 11
7.0
 21
12.0714285493
  0
LINE
  5
4D1
100
AcDbEntity
  8
ASSI
100
AcDbLine
 62
250
  6
CONTINUOUS
 10
10.9361538737
 20
-1.4236728618
 11
9.7181529861
 21
-1.7500285577
  0
LINE
  5
4D2
100
AcDbEntity
  8
ASSI
100
AcDbLine
 62
7
  6
CONTINUOUS
 10
10.5041625977
 20
-1.2655574881
 11
9.5021058917
 21
-1.5339814634
  0
LINE
  5
4D3
100
AcDbEntity
  8
CURVE
100
AcDbLine
 62
250
  6
CONTINUOUS
 10
-11.0777592238
 20
-4.80544429
 11
-11.0780582607
 21
-4.80544429
  0
LINE
  5
4D4
100
AcDbEntity
  8
CURVE
100
AcDbLine
 62
250
  6
CONTINUOUS
 10
11.0811573365
 20
-4.55
 11
11.0375263204
 21
-4.55
  0
LINE
  5
4D5
100
AcDbEntity
  8
ASSI
100
AcDbLine
 62
7
  6
CONTINUOUS
 10
-6.6
 20
-3.8019237886
 11
6.6
 21
-3.8019237886
  0
LINE
  5
4D6
100
AcDbEntity
  8
ASSI
100
AcDbLine
 62
7
  6
CONTINUOUS
 10
-6.6
 20
-3.4
 11
6.6
 21
-3.4
  0
LINE
  5
4D7
100
AcDbEntity
  8
CURVE
100
AcDbLine
 62
250
  6
CONTINUOUS
 10
11.0157108124
 20
-3.3
 11
11.1029728445
 21
-3.3
  0
LINE
  5
4D8
100
AcDbEntity
  8
ASSI
100
AcDbLine
 62
250
  6
CONTINUOUS
 10
-10.9361538737
 20
-1.4236728618
 11
-9.7181529861
 21
-1.7500285577
  0
LINE
  5
4D9
100
AcDbEntity
  8
ASSI
100
AcDbLine
 62
7
  6
CONTINUOUS
 10
-10.5041625977
 20
-1.2655574881
 11
-9.5021058917
 21
-1.5339814634
  0
LINE
  5
4DA
100
AcDbEntity
  8
CURVE
100
AcDbLine
 62
250
  6
CONTINUOUS
 10
-7.1071429014
 20
0.4642857254
 11
-7.2928571761
 21
0.65
  0
LINE
  5
4DB
100
AcDbEntity
  8
CURVE
100
AcDbLine
 62
250
  6
CONTINUOUS
 10
-6.3642856479
 20
0.65
 11
-6.1785714507
 21
0.4642857254
  0
LINE
  5
4DC
100
AcDbEntity
  8
ASSI
100
AcDbLine
 62
250
  6
CONTINUOUS
 10
3.653791075
 20
-23.4301797403
 11
3.6748574782
 21
-23.5
  0
LINE
  5
4DD
100
AcDbEntity
  8
ASSI
100
AcDbLine
 62
7
  6
CONTINUOUS
 10
-3.2126980763
 20
23.375
 11
-3.163808999
 21
21.975
  0
LWPOLYLINE
  5
4DE
100
AcDbEntity
  8
ASSI
100
AcDbPolyline
 62
7
  6
CONTINUOUS
 90
19
 70
0
 10
-3.4
 20
21.3965393865
 10
-3.3998549344
 20
21.3792497123
 10
-3.3994454673
 20
21.3623261552
 10
-3.3987715986
 20
21.3457687153
 10
-3.3978261372
 20
21.3294693549
 10
-3.3966162742
 20
21.3135361116
 10
-3.3951635838
 20
21.2982930979
 10
-3.3934618634
 20
21.2837397368
 10
-3.3915173156
 20
21.2698766054
 10
-3.3893701215
 20
21.2570295477
 10
-3.3870146365
 20
21.2452207173
 10
-3.3844565052
 20
21.2344279607
 10
-3.3817528428
 20
21.2249106608
 10
-3.3789017423
 20
21.2167012161
 10
-3.3759051106
 20
21.2097672282
 10
-3.3728257835
 20
21.2042708852
 10
-3.3696847062
 20
21.2002662498
 10
-3.3664609334
 20
21.1976992592
 10
-3.3631544652
 20
21.1965699136
  0
LINE
  5
4DF
100
AcDbEntity
  8
ASSI
100
AcDbLine
 62
7
  6
CONTINUOUS
 10
-3.230158461
 20
23.375
 11
-3.230158461
 21
22.5048155586
  0
LINE
  5
4E0
100
AcDbEntity
  8
ASSI
100
AcDbLine
 62
7
  6
CONTINUOUS
 10
-3.230158461
 20
-21.9390927552
 11
-3.230158461
 21
-21.3609072448
  0
LINE
  5
4E1
100
AcDbEntity
  8
ASSI
100
AcDbLine
 62
7
  6
CONTINUOUS
 10
-3.230158461
 20
21.3609072448
 11
-3.230158461
 21
21.9390927552
  0
LINE
  5
4E2
100
AcDbEntity
  8
ASSI
100
AcDbLine
 62
7
  6
CONTINUOUS
 10
-3.230158461
 20
-22.5048155586
 11
-3.230158461
 21
-23.375
  0
LINE
  5
4E3
100
AcDbEntity
  8
ASSI
100
AcDbLine
 62
7
  6
CONTINUOUS
 10
-3.163808999
 20
-21.975
 11
-3.163808999
 21
-21.190565191
  0
LINE
  5
4E4
100
AcDbEntity
  8
ASSI
100
AcDbLine
 62
7
  6
CONTINUOUS
 10
-3.163808999
 20
21.190565191
 11
-3.163808999
 21
21.975
  0
LINE
  5
4E5
100
AcDbEntity
  8
ASSI
100
AcDbLine
 62
7
  6
CONTINUOUS
 10
-3.1
 20
22.2
 11
-3.1
 21
21.1720718961
  0
LINE
  5
4E6
100
AcDbEntity
  8
ASSI
100
AcDbLine
 62
7
  6
CONTINUOUS
 10
-3.1
 20
-22.2
 11
-3.1
 21
-21.1720718961
  0
LINE
  5
4E7
100
AcDbEntity
  8
CURVE
100
AcDbLine
 62
250
  6
CONTINUOUS
 10
-2.7428574085
 20
-0.278571412
 11
-2.7428574085
 21
0.2785714507
  0
LINE
  5
4E8
100
AcDbEntity
  8
CURVE
100
AcDbLine
 62
250
  6
CONTINUOUS
 10
-2.0928574085
 20
0.2785714507
 11
-2.0928574085
 21
-0.278571412
  0
LINE
  5
4E9
100
AcDbEntity
  8
CURVE
100
AcDbLine
 62
250
  6
CONTINUOUS
 10
-2.01
 20
-14.67816
 11
-2.01
 21
-16.92816
  0
LINE
  5
4EA
100
AcDbEntity
  8
ASSI
100
AcDbLine
 62
7
  6
CONTINUOUS
 10
-1.8
 20
5.15
 11
-1.8
 21
9.85
  0
LINE
  5
4EB
100
AcDbEntity
  8
ASSI
100
AcDbLine
 62
7
  6
CONTINUOUS
 10
-1.8
 20
10.15
 11
-1.8
 21
14.85
  0
LINE
  5
4EC
100
AcDbEntity
  8
ASSI
100
AcDbLine
 62
7
  6
CONTINUOUS
 10
-3.163808999
 20
-21.975
 11
-3.2126980763
 21
-23.375
  0
LINE
  5
4ED
100
AcDbEntity
  8
ASSI
100
AcDbLine
 62
7
  6
CONTINUOUS
 10
2.9142656437
 20
20.1058792234
 11
2.3499999799
 21
18.0
  0
LINE
  5
4EE
100
AcDbEntity
  8
ASSI
100
AcDbLine
 62
7
  6
CONTINUOUS
 10
3.0145050772
 20
19.6738174026
 11
2.5659899778
 21
18.0
  0
LINE
  5
4EF
100
AcDbEntity
  8
ASSI
100
AcDbLine
 62
7
  6
CONTINUOUS
 10
-6.9660185366
 20
-17.9869096983
 11
-7.4178956303
 21
-19.6738174026
  0
LINE
  5
4F0
100
AcDbEntity
  8
ASSI
100
AcDbLine
 62
250
  6
CONTINUOUS
 10
-6.6955904431
 20
-18.0
 11
-7.2598082059
 21
-20.1057323176
  0
LINE
  5
4F1
100
AcDbEntity
  8
ASSI
100
AcDbLine
 62
250
  6
CONTINUOUS
 10
4.2071270357
 20
23.2631073618
 11
4.2275426698
 21
23.3333596575
  0
LINE
  5
4F2
100
AcDbEntity
  8
CURVE
100
AcDbLine
 62
250
  6
CONTINUOUS
 10
-2.7428574085
 20
0.2785714507
 11
-2.65
 21
0.4642857254
  0
LINE
  5
4F3
100
AcDbEntity
  8
CURVE
100
AcDbLine
 62
250
  6
CONTINUOUS
 10
-2.0928574085
 20
-0.278571412
 11
-2.1857141972
 21
-0.464285706
  0
LINE
  5
4F4
100
AcDbEntity
  8
CURVE
100
AcDbLine
 62
250
  6
CONTINUOUS
 10
7.5571428627
 20
11.6071429014
 11
7.7428571761
 21
11.7928571761
  0
LINE
  5
4F5
100
AcDbEntity
  8
CURVE
100
AcDbLine
 62
250
  6
CONTINUOUS
 10
7.0
 20
10.9571429014
 11
7.185714294
 21
11.1428570986
  0
LINE
  5
4F6
100
AcDbEntity
  8
CURVE
100
AcDbLine
 62
250
  6
CONTINUOUS
 10
-2.65
 20
0.4642857254
 11
-2.4642858028
 21
0.65
  0
LINE
  5
4F7
100
AcDbEntity
  8
ASSI
100
AcDbLine
 62
7
  6
CONTINUOUS
 10
-9.5021058917
 20
-6.5339814634
 11
-9.7181529861
 21
-6.7500285577
  0
LINE
  5
4F8
100
AcDbEntity
  8
CURVE
100
AcDbLine
 62
250
  6
CONTINUOUS
 10
8.3
 20
10.8642856479
 11
8.1142857254
 21
10.6785714507
  0
LINE
  5
4F9
100
AcDbEntity
  8
ASSI
100
AcDbLine
 62
7
  6
CONTINUOUS
 10
-10.5041625977
 20
-1.2655574881
 11
-10.9361538737
 21
-1.4236728618
  0
LINE
  5
4FA
100
AcDbEntity
  8
ASSI
100
AcDbLine
 62
7
  6
CONTINUOUS
 10
10.5041625977
 20
6.2655574881
 11
10.9361538737
 21
6.4236728618
  0
LINE
  5
4FB
100
AcDbEntity
  8
IMPORT_IGES
100
AcDbLine
 62
7
  6
CONTINUOUS
 10
4.25
 20
-2.7
 11
3.55
 21
-2.7
  0
LINE
  5
4FC
100
AcDbEntity
  8
CURVE
100
AcDbLine
 62
250
  6
CONTINUOUS
 10
11.0281436922
 20
-2.592362
 11
11.0103594806
 21
-2.592362
  0
LINE
  5
4FD
100
AcDbEntity
  8
IMPORT_IGES
100
AcDbLine
 62
7
  6
CONTINUOUS
 10
-4.25
 20
-2.0499999999
 11
4.25
 21
-2.0499999999
  0
LINE
  5
4FE
100
AcDbEntity
  8
CURVE
100
AcDbLine
 62
250
  6
CONTINUOUS
 10
11.11208598
 20
-1.917947
 11
11.1055855868
 21
-1.917947
  0
LINE
  5
4FF
100
AcDbEntity
  8
ASSI
100
AcDbLine
 62
7
  6
CONTINUOUS
 10
6.6
 20
-1.6
 11
-6.6
 21
-1.6
  0
LINE
  5
500
100
AcDbEntity
  8
CURVE
100
AcDbLine
 62
250
  6
CONTINUOUS
 10
11.1055855868
 20
-1.567887
 11
11.11208598
 21
-1.567887
  0
LINE
  5
501
100
AcDbEntity
  8
ASSI
100
AcDbLine
 62
7
  6
CONTINUOUS
 10
-10.5041625977
 20
1.2655574881
 11
-10.9361538737
 21
1.4236728618
  0
LINE
  5
502
100
AcDbEntity
  8
ASSI
100
AcDbLine
 62
7
  6
CONTINUOUS
 10
10.5041625977
 20
-6.2655574881
 11
10.9361538737
 21
-6.4236728618
  0
LINE
  5
503
100
AcDbEntity
  8
ASSI
100
AcDbLine
 62
7
  6
CONTINUOUS
 10
-9.5607358321
 20
5.4000799616
 11
-9.5021058917
 21
5.3414500212
  0
LINE
  5
504
100
AcDbEntity
  8
CURVE
100
AcDbLine
 62
250
  6
CONTINUOUS
 10
-4.1357141972
 20
0.4642857254
 11
-4.3214287043
 21
0.65
  0
LINE
  5
505
100
AcDbEntity
  8
CURVE
100
AcDbLine
 62
250
  6
CONTINUOUS
 10
-2.4642858028
 20
-0.65
 11
-2.65
 21
-0.464285706
  0
LINE
  5
506
100
AcDbEntity
  8
ASSI
100
AcDbLine
 62
7
  6
CONTINUOUS
 10
-9.5771711926
 20
6.6090467642
 11
-9.7181529861
 21
6.7500285577
  0
LINE
  5
507
100
AcDbEntity
  8
CURVE
100
AcDbLine
 62
250
  6
CONTINUOUS
 10
-2.65
 20
-0.464285706
 11
-2.7428574085
 21
-0.278571412
  0
LINE
  5
508
100
AcDbEntity
  8
CURVE
100
AcDbLine
 62
250
  6
CONTINUOUS
 10
-2.1857141972
 20
0.4642857254
 11
-2.0928574085
 21
0.2785714507
  0
LINE
  5
509
100
AcDbEntity
  8
ASSI
100
AcDbLine
 62
250
  6
CONTINUOUS
 10
4.2071270357
 20
-23.2631073618
 11
4.2275426698
 21
-23.3333596575
  0
LINE
  5
50A
100
AcDbEntity
  8
ASSI
100
AcDbLine
 62
250
  6
CONTINUOUS
 10
2.2955904431
 20
-18.0
 11
2.8598082059
 21
-20.1057323176
  0
LINE
  5
50B
100
AcDbEntity
  8
ASSI
100
AcDbLine
 62
7
  6
CONTINUOUS
 10
-7.4145050772
 20
19.6738174026
 11
-6.9659899778
 21
18.0
  0
LINE
  5
50C
100
AcDbEntity
  8
ASSI
100
AcDbLine
 62
7
  6
CONTINUOUS
 10
-7.3142656437
 20
20.1058792234
 11
-6.7901923412
 21
18.15
  0
LINE
  5
50D
100
AcDbEntity
  8
ASSI
100
AcDbLine
 62
7
  6
CONTINUOUS
 10
2.5660185366
 20
-17.9869096983
 11
3.0178956303
 21
-19.6738174026
  0
LINE
  5
50E
100
AcDbEntity
  8
RACCORDO
100
AcDbLine
 62
7
  6
CONTINUOUS
 10
-1.25
 20
-2.0499999999
 11
-1.25
 21
-3.4
  0
LINE
  5
50F
100
AcDbEntity
  8
ASSI
100
AcDbLine
 62
7
  6
CONTINUOUS
 10
-1.2
 20
5.75
 11
-1.2
 21
9.25
  0
LINE
  5
510
100
AcDbEntity
  8
ASSI
100
AcDbLine
 62
7
  6
CONTINUOUS
 10
-1.2
 20
10.75
 11
-1.2
 21
14.25
  0
LINE
  5
511
100
AcDbEntity
  8
IMPORT_IGES
100
AcDbLine
 62
7
  6
CONTINUOUS
 10
0.05
 20
5.75
 11
0.05
 21
9.25
  0
LINE
  5
512
100
AcDbEntity
  8
IMPORT_IGES
100
AcDbLine
 62
7
  6
CONTINUOUS
 10
0.05
 20
10.75
 11
0.05
 21
14.25
  0
LINE
  5
513
100
AcDbEntity
  8
ASSI
100
AcDbLine
 62
7
  6
CONTINUOUS
 10
2.7167632191
 20
21.6560705017
 11
2.6175930356
 21
21.1271628567
  0
LINE
  5
514
100
AcDbEntity
  8
CURVE
100
AcDbLine
 62
250
  6
CONTINUOUS
 10
-1.35
 20
-0.65
 11
-0.9785716057
 21
0.65
  0
LINE
  5
515
100
AcDbEntity
  8
ASSI
100
AcDbLine
 62
7
  6
CONTINUOUS
 10
6.9069415429
 20
21.1271628567
 11
6.9326502504
 21
21.1965699136
  0
LINE
  5
516
100
AcDbEntity
  8
ASSI
100
AcDbLine
 62
7
  6
CONTINUOUS
 10
7.831231143
 20
19.86275824
 11
7.9505475557
 21
20.1601175636
  0
LINE
  5
517
100
AcDbEntity
  8
ASSI
100
AcDbLine
 62
7
  6
CONTINUOUS
 10
-7.9505475557
 20
-20.1601175636
 11
-7.7550288142
 21
-19.6738174026
  0
LINE
  5
518
100
AcDbEntity
  8
ASSI
100
AcDbLine
 62
7
  6
CONTINUOUS
 10
9.5021058917
 20
11.5339814634
 11
9.7181529861
 21
11.7500285577
  0
LINE
  5
519
100
AcDbEntity
  8
CURVE
100
AcDbLine
 62
250
  6
CONTINUOUS
 10
-2.1857141972
 20
-0.464285706
 11
-2.3714283943
 21
-0.65
  0
LINE
  5
51A
100
AcDbEntity
  8
CURVE
100
AcDbLine
 62
250
  6
CONTINUOUS
 10
7.9285714507
 20
8.45
 11
7.8357142746
 21
8.3571429014
  0
LINE
  5
51B
100
AcDbEntity
  8
CURVE
100
AcDbLine
 62
250
  6
CONTINUOUS
 10
-0.6071425915
 20
-0.2476190329
 11
-0.3904761314
 21
-0.1547618955
  0
LINE
  5
51C
100
AcDbEntity
  8
ASSI
100
AcDbLine
 62
250
  6
CONTINUOUS
 10
-10.9361538737
 20
-3.5763271382
 11
-9.7181529861
 21
-3.2499714423
  0
LINE
  5
51D
100
AcDbEntity
  8
ASSI
100
AcDbLine
 62
7
  6
CONTINUOUS
 10
-10.5041625977
 20
-3.7344425119
 11
-9.5021058917
 21
-3.4660185366
  0
LINE
  5
51E
100
AcDbEntity
  8
ASSI
100
AcDbLine
 62
7
  6
CONTINUOUS
 10
6.6
 20
-1.1980762113
 11
-6.6
 21
-1.1980762113
  0
LINE
  5
51F
100
AcDbEntity
  8
CURVE
100
AcDbLine
 62
250
  6
CONTINUOUS
 10
11.1039727052
 20
-1.11141
 11
11.1002093381
 21
-1.11141
  0
LINE
  5
520
100
AcDbEntity
  8
CURVE
100
AcDbLine
 62
250
  6
CONTINUOUS
 10
11.1269195481
 20
-0.916076
 11
11.1231237544
 21
-0.916076
  0
LINE
  5
521
100
AcDbEntity
  8
CURVE
100
AcDbLine
 62
250
  6
CONTINUOUS
 10
5.7380954742
 20
-0.65
 11
5.6452386856
 21
-0.65
  0
LINE
  5
522
100
AcDbEntity
  8
CURVE
100
AcDbLine
 62
250
  6
CONTINUOUS
 10
2.7047613144
 20
-0.65
 11
2.6119045258
 21
-0.65
  0
LINE
  5
523
100
AcDbEntity
  8
CURVE
100
AcDbLine
 62
250
  6
CONTINUOUS
 10
-2.3714283943
 20
-0.65
 11
-2.4642858028
 21
-0.65
  0
LINE
  5
524
100
AcDbEntity
  8
CURVE
100
AcDbLine
 62
250
  6
CONTINUOUS
 10
-4.1357141972
 20
-0.65
 11
-4.7857141972
 21
-0.65
  0
LINE
  5
525
100
AcDbEntity
  8
CURVE
100
AcDbLine
 62
250
  6
CONTINUOUS
 10
-6.3642856479
 20
-0.65
 11
-6.4571429014
 21
-0.65
  0
LINE
  5
526
100
AcDbEntity
  8
CURVE
100
AcDbLine
 62
250
  6
CONTINUOUS
 10
-7.1071429014
 20
-0.65
 11
-7.7571428239
 21
-0.65
  0
LINE
  5
527
100
AcDbEntity
  8
CURVE
100
AcDbLine
 62
250
  6
CONTINUOUS
 10
1.4047619343
 20
-0.65
 11
1.7761903286
 21
-0.65
  0
LINE
  5
528
100
AcDbEntity
  8
CURVE
100
AcDbLine
 62
250
  6
CONTINUOUS
 10
4.5309522629
 20
-0.65
 11
4.8095238686
 21
-0.65
  0
LINE
  5
529
100
AcDbEntity
  8
CURVE
100
AcDbLine
 62
250
  6
CONTINUOUS
 10
7.4095238686
 20
-0.65
 11
7.9666670799
 21
-0.65
  0
LINE
  5
52A
100
AcDbEntity
  8
CURVE
100
AcDbLine
 62
250
  6
CONTINUOUS
 10
-3.1142858028
 20
-0.3714285687
 11
-3.7642858028
 21
-0.3714285687
  0
LINE
  5
52B
100
AcDbEntity
  8
CURVE
100
AcDbLine
 62
250
  6
CONTINUOUS
 10
11.1231334928
 20
-0.343073
 11
11.1269292865
 21
-0.343073
  0
LINE
  5
52C
100
AcDbEntity
  8
CURVE
100
AcDbLine
 62
250
  6
CONTINUOUS
 10
11.1002093381
 20
-0.28807
 11
11.1039727052
 21
-0.28807
  0
LINE
  5
52D
100
AcDbEntity
  8
CURVE
100
AcDbLine
 62
250
  6
CONTINUOUS
 10
-5.7142858028
 20
-0.1857142746
 11
-5.1571429014
 21
-0.1857142746
  0
LINE
  5
52E
100
AcDbEntity
  8
CURVE
100
AcDbLine
 62
250
  6
CONTINUOUS
 10
4.8095238686
 20
0.0928571761
 11
4.4071432114
 21
0.0928571761
  0
LINE
  5
52F
100
AcDbEntity
  8
CURVE
100
AcDbLine
 62
250
  6
CONTINUOUS
 10
1.7761903286
 20
0.0928571761
 11
1.4047619343
 21
0.0928571761
  0
LINE
  5
530
100
AcDbEntity
  8
CURVE
100
AcDbLine
 62
250
  6
CONTINUOUS
 10
6.3880954742
 20
0.0928571761
 11
7.0380954742
 21
0.0928571761
  0
LINE
  5
531
100
AcDbEntity
  8
CURVE
100
AcDbLine
 62
250
  6
CONTINUOUS
 10
11.0597407854
 20
0.100497
 11
11.056312295
 21
0.100497
  0
LINE
  5
532
100
AcDbEntity
  8
CURVE
100
AcDbLine
 62
250
  6
CONTINUOUS
 10
11.1253066665
 20
0.18241
 11
11.1184196328
 21
0.18241
  0
LINE
  5
533
100
AcDbEntity
  8
CURVE
100
AcDbLine
 62
250
  6
CONTINUOUS
 10
11.056312295
 20
0.218117
 11
11.0597407854
 21
0.218117
  0
LINE
  5
534
100
AcDbEntity
  8
ASSI
100
AcDbLine
 62
7
  6
CONTINUOUS
 10
10.5041625977
 20
-3.7344425119
 11
9.5021058917
 21
-3.4660185366
  0
LINE
  5
535
100
AcDbEntity
  8
ASSI
100
AcDbLine
 62
250
  6
CONTINUOUS
 10
10.9361538737
 20
-3.5763271382
 11
9.7181529861
 21
-3.2499714423
  0
LINE
  5
536
100
AcDbEntity
  8
ASSI
100
AcDbLine
 62
7
  6
CONTINUOUS
 10
-10.6214314094
 20
5.4000799616
 11
-10.5041625977
 21
5.3414500212
  0
LINE
  5
537
100
AcDbEntity
  8
CURVE
100
AcDbLine
 62
250
  6
CONTINUOUS
 10
-0.3904761314
 20
-0.1547618955
 11
-0.1428574085
 21
-0.3404761895
  0
LINE
  5
538
100
AcDbEntity
  8
ASSI
100
AcDbLine
 62
7
  6
CONTINUOUS
 10
9.5021058917
 20
-11.5339814634
 11
9.7181529861
 21
-11.7500285577
  0
LINE
  5
539
100
AcDbEntity
  8
CURVE
100
AcDbLine
 62
250
  6
CONTINUOUS
 10
-2.3714283943
 20
0.65
 11
-2.1857141972
 21
0.4642857254
  0
LINE
  5
53A
100
AcDbEntity
  8
CURVE
100
AcDbLine
 62
250
  6
CONTINUOUS
 10
-8.5
 20
7.5880954742
 11
-8.314285706
 21
7.4023806572
  0
LINE
  5
53B
100
AcDbEntity
  8
CURVE
100
AcDbLine
 62
250
  6
CONTINUOUS
 10
-8.3761904739
 20
8.3928570986
 11
-8.4380952369
 21
8.4547619343
  0
LINE
  5
53C
100
AcDbEntity
  8
CURVE
100
AcDbLine
 62
250
  6
CONTINUOUS
 10
-8.314285706
 20
8.4857141972
 11
-8.2833333269
 21
8.4547619343
  0
LINE
  5
53D
100
AcDbEntity
  8
ASSI
100
AcDbLine
 62
7
  6
CONTINUOUS
 10
7.9505475557
 20
-20.1601175636
 11
7.831231143
 21
-19.86275824
  0
LINE
  5
53E
100
AcDbEntity
  8
ASSI
100
AcDbLine
 62
7
  6
CONTINUOUS
 10
-7.7550288142
 20
19.6738174026
 11
-7.9505475557
 21
20.1601175636
  0
LINE
  5
53F
100
AcDbEntity
  8
ASSI
100
AcDbLine
 62
7
  6
CONTINUOUS
 10
6.9069415429
 20
-21.1271628567
 11
6.9326502504
 21
-21.1965699136
  0
LINE
  5
540
100
AcDbEntity
  8
CURVE
100
AcDbLine
 62
250
  6
CONTINUOUS
 10
-1.7214283943
 20
0.65
 11
-1.35
 21
-0.65
  0
LINE
  5
541
100
AcDbEntity
  8
ASSI
100
AcDbLine
 62
7
  6
CONTINUOUS
 10
-4.5854949228
 20
19.6738174026
 11
-4.6857343563
 21
20.1058792234
  0
LINE
  5
542
100
AcDbEntity
  8
ASSI
100
AcDbLine
 62
7
  6
CONTINUOUS
 10
2.7167632191
 20
-21.6560705017
 11
2.6175930356
 21
-21.1271628567
  0
LINE
  5
543
100
AcDbEntity
  8
IMPORT_IGES
100
AcDbLine
 62
7
  6
CONTINUOUS
 10
0.85
 20
6.25
 11
0.85
 21
8.75
  0
LINE
  5
544
100
AcDbEntity
  8
IMPORT_IGES
100
AcDbLine
 62
7
  6
CONTINUOUS
 10
0.85
 20
11.25
 11
0.85
 21
13.75
  0
LINE
  5
545
100
AcDbEntity
  8
IMPORT_IGES
100
AcDbLine
 62
250
  6
CONTINUOUS
 10
1.0257864376
 20
18.0
 11
1.0257864376
 21
18.3999999983
  0
LINE
  5
546
100
AcDbEntity
  8
CURVE
100
AcDbLine
 62
250
  6
CONTINUOUS
 10
1.4047619343
 20
0.0928571761
 11
1.4047619343
 21
0.65
  0
LINE
  5
547
100
AcDbEntity
  8
CURVE
100
AcDbLine
 62
250
  6
CONTINUOUS
 10
1.9619045258
 20
-0.464285706
 11
1.9619045258
 21
-0.0928571373
  0
LINE
  5
548
100
AcDbEntity
  8
ASSI
100
AcDbLine
 62
7
  6
CONTINUOUS
 10
-2.7167632191
 20
-21.6560705017
 11
-2.6175930356
 21
-21.1271628567
  0
LINE
  5
549
100
AcDbEntity
  8
ASSI
100
AcDbLine
 62
7
  6
CONTINUOUS
 10
-3.1660185366
 20
-17.9869096983
 11
-3.6178956303
 21
-19.6738174026
  0
LINE
  5
54A
100
AcDbEntity
  8
ASSI
100
AcDbLine
 62
250
  6
CONTINUOUS
 10
-2.8955904431
 20
-18.0
 11
-3.4598082059
 21
-20.1057323176
  0
LINE
  5
54B
100
AcDbEntity
  8
ASSI
100
AcDbLine
 62
7
  6
CONTINUOUS
 10
-6.9069415429
 20
-21.1271628567
 11
-6.9326502504
 21
-21.1965699136
  0
LINE
  5
54C
100
AcDbEntity
  8
CURVE
100
AcDbLine
 62
250
  6
CONTINUOUS
 10
2.3333329201
 20
0.2785714507
 11
2.4261909485
 21
0.4642857254
  0
LINE
  5
54D
100
AcDbEntity
  8
CURVE
100
AcDbLine
 62
250
  6
CONTINUOUS
 10
2.4261909485
 20
0.4642857254
 11
2.6119045258
 21
0.65
  0
LINE
  5
54E
100
AcDbEntity
  8
ASSI
100
AcDbLine
 62
7
  6
CONTINUOUS
 10
-9.5021058917
 20
-11.5339814634
 11
-9.7181529861
 21
-11.7500285577
  0
LINE
  5
54F
100
AcDbEntity
  8
CURVE
100
AcDbLine
 62
250
  6
CONTINUOUS
 10
1.7761903286
 20
-0.65
 11
1.9619045258
 21
-0.464285706
  0
LWPOLYLINE
  5
550
100
AcDbEntity
  8
CURVE
100
AcDbPolyline
 62
250
  6
CONTINUOUS
 90
16
 70
0
 10
-11.0900933579
 20
-4.9627200261
 10
-11.089858736
 20
-4.9626288415
 10
-11.0896234369
 20
-4.9627794163
 10
-11.0893877114
 20
-4.9631867502
 10
-11.0891518103
 20
-4.9638658427
 10
-11.0889159846
 20
-4.9648316936
 10
-11.088680485
 20
-4.9660993025
 10
-11.0884455624
 20
-4.967683669
 10
-11.0882114677
 20
-4.9695997929
 10
-11.0879784518
 20
-4.9718626739
 10
-11.0877467654
 20
-4.9744873115
 10
-11.0875166595
 20
-4.9774887054
 10
-11.0872883849
 20
-4.9808818553
 10
-11.0870621925
 20
-4.9846817608
 10
-11.086838333
 20
-4.9889034217
 10
-11.0866170575
 20
-4.9935618375
  0
LINE
  5
551
100
AcDbEntity
  8
CURVE
100
AcDbLine
 62
250
  6
CONTINUOUS
 10
-0.1428574085
 20
-0.3404761895
 11
0.1047619343
 21
-0.2476190329
  0
LINE
  5
552
100
AcDbEntity
  8
ASSI
100
AcDbLine
 62
250
  6
CONTINUOUS
 10
10.9361538737
 20
3.5763271382
 11
9.7181529861
 21
3.2499714423
  0
LINE
  5
553
100
AcDbEntity
  8
ASSI
100
AcDbLine
 62
7
  6
CONTINUOUS
 10
10.5041625977
 20
3.7344425119
 11
9.5021058917
 21
3.4660185366
  0
LINE
  5
554
100
AcDbEntity
  8
CURVE
100
AcDbLine
 62
250
  6
CONTINUOUS
 10
7.4095238686
 20
0.2785714507
 11
7.9666670799
 21
0.2785714507
  0
LINE
  5
555
100
AcDbEntity
  8
CURVE
100
AcDbLine
 62
250
  6
CONTINUOUS
 10
11.1184196328
 20
0.281784
 11
11.1253066665
 21
0.281784
  0
LINE
  5
556
100
AcDbEntity
  8
CURVE
100
AcDbLine
 62
250
  6
CONTINUOUS
 10
-4.3214287043
 20
0.65
 11
-4.6
 21
0.65
  0
LINE
  5
557
100
AcDbEntity
  8
CURVE
100
AcDbLine
 62
250
  6
CONTINUOUS
 10
-7.2928571761
 20
0.65
 11
-7.5714285493
 21
0.65
  0
LINE
  5
558
100
AcDbEntity
  8
CURVE
100
AcDbLine
 62
250
  6
CONTINUOUS
 10
-6.4571429014
 20
0.65
 11
-6.3642856479
 21
0.65
  0
LINE
  5
559
100
AcDbEntity
  8
CURVE
100
AcDbLine
 62
250
  6
CONTINUOUS
 10
-2.4642858028
 20
0.65
 11
-2.3714283943
 21
0.65
  0
LINE
  5
55A
100
AcDbEntity
  8
CURVE
100
AcDbLine
 62
250
  6
CONTINUOUS
 10
1.4047619343
 20
0.65
 11
1.9619045258
 21
0.65
  0
LINE
  5
55B
100
AcDbEntity
  8
CURVE
100
AcDbLine
 62
250
  6
CONTINUOUS
 10
2.6119045258
 20
0.65
 11
2.7047613144
 21
0.65
  0
LINE
  5
55C
100
AcDbEntity
  8
CURVE
100
AcDbLine
 62
250
  6
CONTINUOUS
 10
5.6452386856
 20
0.65
 11
5.7380954742
 21
0.65
  0
LINE
  5
55D
100
AcDbEntity
  8
ASSI
100
AcDbLine
 62
7
  6
CONTINUOUS
 10
-6.6
 20
1.1980762114
 11
6.6
 21
1.1980762114
  0
LINE
  5
55E
100
AcDbEntity
  8
CURVE
100
AcDbLine
 62
250
  6
CONTINUOUS
 10
11.0103594806
 20
1.592362
 11
11.0281436922
 21
1.592362
  0
LINE
  5
55F
100
AcDbEntity
  8
ASSI
100
AcDbLine
 62
7
  6
CONTINUOUS
 10
-6.6
 20
1.6
 11
6.6
 21
1.6
  0
LINE
  5
560
100
AcDbEntity
  8
IMPORT_IGES
100
AcDbLine
 62
7
  6
CONTINUOUS
 10
4.25
 20
1.6339410909
 11
-6.8442895215
 21
1.6339410909
  0
LINE
  5
561
100
AcDbEntity
  8
IMPORT_IGES
100
AcDbLine
 62
7
  6
CONTINUOUS
 10
7.1649536511
 20
1.8
 11
5.25
 21
1.8
  0
LINE
  5
562
100
AcDbEntity
  8
ASSI
100
AcDbLine
 62
250
  6
CONTINUOUS
 10
-10.9361538737
 20
3.5763271382
 11
-9.7181529861
 21
3.2499714423
  0
LINE
  5
563
100
AcDbEntity
  8
ASSI
100
AcDbLine
 62
7
  6
CONTINUOUS
 10
-10.5041625977
 20
3.7344425119
 11
-9.5021058917
 21
3.4660185366
  0
LINE
  5
564
100
AcDbEntity
  8
ASSI
100
AcDbLine
 62
7
  6
CONTINUOUS
 10
-9.5607358321
 20
10.4000799616
 11
-9.5021058917
 21
10.3414500212
  0
LINE
  5
565
100
AcDbEntity
  8
CURVE
100
AcDbLine
 62
250
  6
CONTINUOUS
 10
1.9619045258
 20
-0.0928571373
 11
1.7761903286
 21
0.0928571761
  0
LINE
  5
566
100
AcDbEntity
  8
CURVE
100
AcDbLine
 62
250
  6
CONTINUOUS
 10
-7.5714285493
 20
9.4452380657
 11
-7.2
 21
9.0738096714
  0
LINE
  5
567
100
AcDbEntity
  8
CURVE
100
AcDbLine
 62
250
  6
CONTINUOUS
 10
2.6119045258
 20
-0.65
 11
2.4261909485
 21
-0.464285706
  0
LINE
  5
568
100
AcDbEntity
  8
ASSI
100
AcDbLine
 62
7
  6
CONTINUOUS
 10
-9.5771711926
 20
11.6090467642
 11
-9.7181529861
 21
11.7500285577
  0
LINE
  5
569
100
AcDbEntity
  8
CURVE
100
AcDbLine
 62
250
  6
CONTINUOUS
 10
2.4261909485
 20
-0.464285706
 11
2.3333329201
 21
-0.278571412
  0
LINE
  5
56A
100
AcDbEntity
  8
ASSI
100
AcDbLine
 62
7
  6
CONTINUOUS
 10
-6.9069415429
 20
21.1271628567
 11
-6.9326502504
 21
21.1965699136
  0
LINE
  5
56B
100
AcDbEntity
  8
ASSI
100
AcDbLine
 62
7
  6
CONTINUOUS
 10
-3.6145050772
 20
19.6738174026
 11
-3.1659899778
 21
18.0
  0
LINE
  5
56C
100
AcDbEntity
  8
ASSI
100
AcDbLine
 62
7
  6
CONTINUOUS
 10
-3.5142656437
 20
20.1058792234
 11
-3.0571795264
 21
18.3999999983
  0
LINE
  5
56D
100
AcDbEntity
  8
ASSI
100
AcDbLine
 62
7
  6
CONTINUOUS
 10
-2.7167632191
 20
21.6560705017
 11
-2.6175930356
 21
21.1271628567
  0
LINE
  5
56E
100
AcDbEntity
  8
ASSI
100
AcDbLine
 62
7
  6
CONTINUOUS
 10
3.163808999
 20
-21.975
 11
3.2126980763
 21
-23.375
  0
LWPOLYLINE
  5
56F
100
AcDbEntity
  8
ASSI
100
AcDbPolyline
 62
7
  6
CONTINUOUS
 90
19
 70
0
 10
3.4
 20
-21.3965393865
 10
3.3998549344
 20
-21.3792497123
 10
3.3994454673
 20
-21.3623261552
 10
3.3987715986
 20
-21.3457687152
 10
3.3978261372
 20
-21.3294693548
 10
3.3966162742
 20
-21.3135361116
 10
3.3951635838
 20
-21.2982930979
 10
3.3934618634
 20
-21.2837397368
 10
3.3915173156
 20
-21.2698766054
 10
3.3893701215
 20
-21.2570295477
 10
3.3870146365
 20
-21.2452207173
 10
3.3844565052
 20
-21.2344279606
 10
3.3817528428
 20
-21.2249106608
 10
3.3789017423
 20
-21.2167012161
 10
3.3759051106
 20
-21.2097672282
 10
3.3728257835
 20
-21.2042708852
 10
3.3696847062
 20
-21.2002662498
 10
3.3664609334
 20
-21.1976992592
 10
3.3631544652
 20
-21.1965699136
  0
LINE
  5
570
100
AcDbEntity
  8
CURVE
100
AcDbLine
 62
250
  6
CONTINUOUS
 10
2.3333329201
 20
-0.278571412
 11
2.3333329201
 21
0.2785714507
  0
LINE
  5
571
100
AcDbEntity
  8
CURVE
100
AcDbLine
 62
250
  6
CONTINUOUS
 10
2.49
 20
-15.05316
 11
2.49
 21
-16.55316
  0
LINE
  5
572
100
AcDbEntity
  8
IMPORT_IGES
100
AcDbLine
 62
7
  6
CONTINUOUS
 10
2.8
 20
-6.6
 11
2.8
 21
-8.4
  0
LINE
  5
573
100
AcDbEntity
  8
IMPORT_IGES
100
AcDbLine
 62
7
  6
CONTINUOUS
 10
2.85
 20
13.75
 11
2.85
 21
11.25
  0
LINE
  5
574
100
AcDbEntity
  8
IMPORT_IGES
100
AcDbLine
 62
7
  6
CONTINUOUS
 10
2.85
 20
8.75
 11
2.85
 21
6.25
  0
LINE
  5
575
100
AcDbEntity
  8
CURVE
100
AcDbLine
 62
250
  6
CONTINUOUS
 10
2.9833329201
 20
0.2785714507
 11
2.9833329201
 21
-0.278571412
  0
LINE
  5
576
100
AcDbEntity
  8
ASSI
100
AcDbLine
 62
7
  6
CONTINUOUS
 10
3.1
 20
22.2
 11
3.1
 21
21.1720718961
  0
LINE
  5
577
100
AcDbEntity
  8
ASSI
100
AcDbLine
 62
7
  6
CONTINUOUS
 10
3.1
 20
-22.2
 11
3.1
 21
-21.1720718961
  0
LINE
  5
578
100
AcDbEntity
  8
ASSI
100
AcDbLine
 62
7
  6
CONTINUOUS
 10
3.163808999
 20
-21.975
 11
3.163808999
 21
-21.190565191
  0
LINE
  5
579
100
AcDbEntity
  8
ASSI
100
AcDbLine
 62
7
  6
CONTINUOUS
 10
3.163808999
 20
21.190565191
 11
3.163808999
 21
21.975
  0
LINE
  5
57A
100
AcDbEntity
  8
ASSI
100
AcDbLine
 62
7
  6
CONTINUOUS
 10
3.230158461
 20
23.375
 11
3.230158461
 21
22.5048155586
  0
LINE
  5
57B
100
AcDbEntity
  8
ASSI
100
AcDbLine
 62
7
  6
CONTINUOUS
 10
3.230158461
 20
-21.9390927552
 11
3.230158461
 21
-21.3609072448
  0
LINE
  5
57C
100
AcDbEntity
  8
ASSI
100
AcDbLine
 62
7
  6
CONTINUOUS
 10
3.230158461
 20
21.3609072448
 11
3.230158461
 21
21.9390927552
  0
LINE
  5
57D
100
AcDbEntity
  8
ASSI
100
AcDbLine
 62
7
  6
CONTINUOUS
 10
3.230158461
 20
-22.5048155586
 11
3.230158461
 21
-23.375
  0
LINE
  5
57E
100
AcDbEntity
  8
ASSI
100
AcDbLine
 62
7
  6
CONTINUOUS
 10
3.3
 20
22.4
 11
3.3
 21
21.9098076211
  0
LINE
  5
57F
100
AcDbEntity
  8
ASSI
100
AcDbLine
 62
7
  6
CONTINUOUS
 10
3.3
 20
21.3901923789
 11
3.3
 21
21.190565191
  0
LINE
  5
580
100
AcDbEntity
  8
ASSI
100
AcDbLine
 62
7
  6
CONTINUOUS
 10
3.3
 20
-21.190565191
 11
3.3
 21
-21.3901923789
  0
LINE
  5
581
100
AcDbEntity
  8
ASSI
100
AcDbLine
 62
7
  6
CONTINUOUS
 10
3.3
 20
-21.9098076211
 11
3.3
 21
-22.4
  0
LINE
  5
582
100
AcDbEntity
  8
IMPORT_IGES
100
AcDbLine
 62
7
  6
CONTINUOUS
 10
3.35
 20
-12.5307611845
 11
3.35
 21
-13.4
  0
LINE
  5
583
100
AcDbEntity
  8
ASSI
100
AcDbLine
 62
7
  6
CONTINUOUS
 10
3.3633443637
 20
-22.5
 11
3.3633443637
 21
-23.4668353766
  0
LINE
  5
584
100
AcDbEntity
  8
ASSI
100
AcDbLine
 62
7
  6
CONTINUOUS
 10
3.3633443637
 20
22.5
 11
3.3633443637
 21
23.4668353766
  0
LINE
  5
585
100
AcDbEntity
  8
ASSI
100
AcDbLine
 62
7
  6
CONTINUOUS
 10
3.4
 20
23.4301797403
 11
3.4
 21
21.3965394196
  0
LINE
  5
586
100
AcDbEntity
  8
ASSI
100
AcDbLine
 62
7
  6
CONTINUOUS
 10
3.4
 20
-23.4301797403
 11
3.4
 21
-21.3965394196
  0
LINE
  5
587
100
AcDbEntity
  8
IMPORT_IGES
100
AcDbLine
 62
7
  6
CONTINUOUS
 10
3.55
 20
-2.7
 11
3.55
 21
-3.4
  0
LINE
  5
588
100
AcDbEntity
  8
IMPORT_IGES
100
AcDbLine
 62
7
  6
CONTINUOUS
 10
3.65
 20
14.25
 11
3.65
 21
10.75
  0
LINE
  5
589
100
AcDbEntity
  8
IMPORT_IGES
100
AcDbLine
 62
7
  6
CONTINUOUS
 10
3.65
 20
9.25
 11
3.65
 21
5.75
  0
LINE
  5
58A
100
AcDbEntity
  8
ASSI
100
AcDbLine
 62
7
  6
CONTINUOUS
 10
3.2126980763
 20
23.375
 11
3.163808999
 21
21.975
  0
LINE
  5
58B
100
AcDbEntity
  8
ASSI
100
AcDbLine
 62
250
  6
CONTINUOUS
 10
-4.2275426698
 20
-23.3333596575
 11
-4.2071270357
 21
-23.2631073618
  0
LINE
  5
58C
100
AcDbEntity
  8
ASSI
100
AcDbLine
 62
250
  6
CONTINUOUS
 10
-3.6748574782
 20
-23.5
 11
-3.653791075
 21
-23.4301797403
  0
LINE
  5
58D
100
AcDbEntity
  8
ASSI
100
AcDbLine
 62
7
  6
CONTINUOUS
 10
-4.5821043697
 20
-19.6738174026
 11
-4.7401917941
 21
-20.1057323176
  0
LINE
  5
58E
100
AcDbEntity
  8
CURVE
100
AcDbLine
 62
250
  6
CONTINUOUS
 10
2.9833329201
 20
-0.278571412
 11
2.8904761314
 21
-0.464285706
  0
LINE
  5
58F
100
AcDbEntity
  8
CURVE
100
AcDbLine
 62
250
  6
CONTINUOUS
 10
4.0976193428
 20
0.5261904836
 11
3.3547613144
 21
-0.6190476185
  0
LINE
  5
590
100
AcDbEntity
  8
ASSI
100
AcDbLine
 62
7
  6
CONTINUOUS
 10
9.5021058917
 20
6.5339814634
 11
9.7181529861
 21
6.7500285577
  0
LINE
  5
591
100
AcDbEntity
  8
CURVE
100
AcDbLine
 62
250
  6
CONTINUOUS
 10
2.8904761314
 20
-0.464285706
 11
2.7047613144
 21
-0.65
  0
LINE
  5
592
100
AcDbEntity
  8
CURVE
100
AcDbLine
 62
250
  6
CONTINUOUS
 10
4.8095238686
 20
0.65
 11
4.5309522629
 21
0.3714285493
  0
LINE
  5
593
100
AcDbEntity
  8
CURVE
100
AcDbLine
 62
250
  6
CONTINUOUS
 10
5.4595238686
 20
0.4642857254
 11
5.6452386856
 21
0.65
  0
LINE
  5
594
100
AcDbEntity
  8
ASSI
100
AcDbLine
 62
7
  6
CONTINUOUS
 10
-10.5041625977
 20
-6.2655574881
 11
-10.9361538737
 21
-6.4236728618
  0
LINE
  5
595
100
AcDbEntity
  8
ASSI
100
AcDbLine
 62
7
  6
CONTINUOUS
 10
10.5041625977
 20
1.2655574881
 11
10.9361538737
 21
1.4236728618
  0
LINE
  5
596
100
AcDbEntity
  8
CURVE
100
AcDbLine
 62
250
  6
CONTINUOUS
 10
-11.0714389279
 20
1.9999999993
 11
-11.0888913218
 21
1.9999999993
  0
LINE
  5
597
100
AcDbEntity
  8
CURVE
100
AcDbLine
 62
250
  6
CONTINUOUS
 10
-10.9841768832
 20
1.9999999993
 11
-11.0016292959
 21
1.9999999993
  0
LINE
  5
598
100
AcDbEntity
  8
ASSI
100
AcDbLine
 62
7
  6
CONTINUOUS
 10
6.6
 20
3.4
 11
-6.6
 21
3.4
  0
LINE
  5
599
100
AcDbEntity
  8
ASSI
100
AcDbLine
 62
7
  6
CONTINUOUS
 10
-10.651426722
 20
6.3194583962
 11
-10.9361538737
 21
6.4236728618
  0
LINE
  5
59A
100
AcDbEntity
  8
ASSI
100
AcDbLine
 62
7
  6
CONTINUOUS
 10
10.5041625977
 20
-1.2655574881
 11
10.9361538737
 21
-1.4236728618
  0
LINE
  5
59B
100
AcDbEntity
  8
ASSI
100
AcDbLine
 62
7
  6
CONTINUOUS
 10
9.5021058917
 20
-6.5339814634
 11
9.7181529861
 21
-6.7500285577
  0
LINE
  5
59C
100
AcDbEntity
  8
CURVE
100
AcDbLine
 62
250
  6
CONTINUOUS
 10
2.7047613144
 20
0.65
 11
2.8904761314
 21
0.4642857254
  0
LINE
  5
59D
100
AcDbEntity
  8
CURVE
100
AcDbLine
 62
250
  6
CONTINUOUS
 10
4.3452386856
 20
-0.464285706
 11
4.5309522629
 21
-0.65
  0
LINE
  5
59E
100
AcDbEntity
  8
CURVE
100
AcDbLine
 62
250
  6
CONTINUOUS
 10
-8.5
 20
13.128571412
 11
-8.314285706
 21
12.9428571373
  0
LINE
  5
59F
100
AcDbEntity
  8
CURVE
100
AcDbLine
 62
250
  6
CONTINUOUS
 10
4.9952386856
 20
-0.0928571373
 11
4.8095238686
 21
0.0928571761
  0
LINE
  5
5A0
100
AcDbEntity
  8
CURVE
100
AcDbLine
 62
250
  6
CONTINUOUS
 10
5.6452386856
 20
-0.65
 11
5.4595238686
 21
-0.464285706
  0
LINE
  5
5A1
100
AcDbEntity
  8
CURVE
100
AcDbLine
 62
250
  6
CONTINUOUS
 10
2.8904761314
 20
0.4642857254
 11
2.9833329201
 21
0.2785714507
  0
LINE
  5
5A2
100
AcDbEntity
  8
ASSI
100
AcDbLine
 62
250
  6
CONTINUOUS
 10
-3.6748574782
 20
23.5
 11
-3.653791075
 21
23.4301797403
  0
LINE
  5
5A3
100
AcDbEntity
  8
ASSI
100
AcDbLine
 62
250
  6
CONTINUOUS
 10
-4.2275426698
 20
23.3333596575
 11
-4.2071270357
 21
23.2631073618
  0
LINE
  5
5A4
100
AcDbEntity
  8
ASSI
100
AcDbLine
 62
7
  6
CONTINUOUS
 10
-0.7854949228
 20
19.6738174026
 11
-0.8857343563
 21
20.1058792234
  0
LINE
  5
5A5
100
AcDbEntity
  8
ASSI
100
AcDbLine
 62
7
  6
CONTINUOUS
 10
3.8
 20
14.25
 11
3.8
 21
10.75
  0
LINE
  5
5A6
100
AcDbEntity
  8
ASSI
100
AcDbLine
 62
7
  6
CONTINUOUS
 10
3.8
 20
9.25
 11
3.8
 21
5.75
  0
LINE
  5
5A7
100
AcDbEntity
  8
CURVE
100
AcDbLine
 62
250
  6
CONTINUOUS
 10
3.859809
 20
-15.80816
 11
3.859809
 21
-16.318874
  0
LINE
  5
5A8
100
AcDbEntity
  8
IMPORT_IGES
100
AcDbLine
 62
7
  6
CONTINUOUS
 10
4.25
 20
3.4
 11
4.25
 21
1.6
  0
LINE
  5
5A9
100
AcDbEntity
  8
IMPORT_IGES
100
AcDbLine
 62
7
  6
CONTINUOUS
 10
4.25
 20
-1.6
 11
4.25
 21
-3.4
  0
LINE
  5
5AA
100
AcDbEntity
  8
IMPORT_IGES
100
AcDbLine
 62
7
  6
CONTINUOUS
 10
4.25
 20
-6.6
 11
4.25
 21
-8.4
  0
LINE
  5
5AB
100
AcDbEntity
  8
IMPORT_IGES
100
AcDbLine
 62
7
  6
CONTINUOUS
 10
4.25
 20
-11.6
 11
4.25
 21
-13.4
  0
LINE
  5
5AC
100
AcDbEntity
  8
CURVE
100
AcDbLine
 62
250
  6
CONTINUOUS
 10
4.3452386856
 20
0.0
 11
4.3452386856
 21
-0.464285706
  0
LINE
  5
5AD
100
AcDbEntity
  8
ASSI
100
AcDbLine
 62
7
  6
CONTINUOUS
 10
4.4
 20
14.85
 11
4.4
 21
10.15
  0
LINE
  5
5AE
100
AcDbEntity
  8
ASSI
100
AcDbLine
 62
7
  6
CONTINUOUS
 10
4.4
 20
9.85
 11
4.4
 21
5.15
  0
LINE
  5
5AF
100
AcDbEntity
  8
CURVE
100
AcDbLine
 62
250
  6
CONTINUOUS
 10
4.653459
 20
-16.318874
 11
4.653459
 21
-15.910303
  0
LINE
  5
5B0
100
AcDbEntity
  8
CURVE
100
AcDbLine
 62
250
  6
CONTINUOUS
 10
4.9952386856
 20
-0.464285706
 11
4.9952386856
 21
-0.0928571373
  0
LINE
  5
5B1
100
AcDbEntity
  8
IMPORT_IGES
100
AcDbLine
 62
7
  6
CONTINUOUS
 10
5.25
 20
3.4
 11
5.25
 21
1.6
  0
LINE
  5
5B2
100
AcDbEntity
  8
IMPORT_IGES
100
AcDbLine
 62
7
  6
CONTINUOUS
 10
5.25
 20
-1.6
 11
5.25
 21
-3.4
  0
LINE
  5
5B3
100
AcDbEntity
  8
IMPORT_IGES
100
AcDbLine
 62
7
  6
CONTINUOUS
 10
5.25
 20
-6.6
 11
5.25
 21
-8.4
  0
LINE
  5
5B4
100
AcDbEntity
  8
IMPORT_IGES
100
AcDbLine
 62
7
  6
CONTINUOUS
 10
5.25
 20
-11.6
 11
5.25
 21
-13.4
  0
LINE
  5
5B5
100
AcDbEntity
  8
CURVE
100
AcDbLine
 62
250
  6
CONTINUOUS
 10
5.3666670799
 20
-0.278571412
 11
5.3666670799
 21
0.2785714507
  0
LINE
  5
5B6
100
AcDbEntity
  8
ASSI
100
AcDbLine
 62
7
  6
CONTINUOUS
 10
0.6339814634
 20
-17.9869096983
 11
0.1821043697
 21
-19.6738174026
  0
LINE
  5
5B7
100
AcDbEntity
  8
CURVE
100
AcDbLine
 62
250
  6
CONTINUOUS
 10
4.5309522629
 20
0.3714285493
 11
4.3452386856
 21
0.0
  0
LINE
  5
5B8
100
AcDbEntity
  8
CURVE
100
AcDbLine
 62
250
  6
CONTINUOUS
 10
5.3666670799
 20
0.2785714507
 11
5.4595238686
 21
0.4642857254
  0
LINE
  5
5B9
100
AcDbEntity
  8
CURVE
100
AcDbLine
 62
250
  6
CONTINUOUS
 10
4.8095238686
 20
-0.65
 11
4.9952386856
 21
-0.464285706
  0
LINE
  5
5BA
100
AcDbEntity
  8
CURVE
100
AcDbLine
 62
250
  6
CONTINUOUS
 10
5.9238090515
 20
-0.464285706
 11
5.7380954742
 21
-0.65
  0
LINE
  5
5BB
100
AcDbEntity
  8
ASSI
100
AcDbLine
 62
250
  6
CONTINUOUS
 10
-10.9361538737
 20
1.4236728618
 11
-9.7181529861
 21
1.7500285577
  0
LINE
  5
5BC
100
AcDbEntity
  8
ASSI
100
AcDbLine
 62
7
  6
CONTINUOUS
 10
-10.5041625977
 20
1.2655574881
 11
-9.5021058917
 21
1.5339814634
  0
LINE
  5
5BD
100
AcDbEntity
  8
ASSI
100
AcDbLine
 62
7
  6
CONTINUOUS
 10
6.6
 20
3.8019237887
 11
-6.6
 21
3.8019237887
  0
LINE
  5
5BE
100
AcDbEntity
  8
CURVE
100
AcDbLine
 62
250
  6
CONTINUOUS
 10
11.0961832637
 20
5.0
 11
11.0327571
 21
5.0
  0
LINE
  5
5BF
100
AcDbEntity
  8
CURVE
100
AcDbLine
 62
250
  6
CONTINUOUS
 10
-11.0539971429
 20
5.0373834462
 11
-11.1046091144
 21
5.0373834462
  0
LINE
  5
5C0
100
AcDbEntity
  8
ASSI
100
AcDbLine
 62
7
  6
CONTINUOUS
 10
4.4
 20
5.15
 11
-1.8
 21
5.15
  0
LINE
  5
5C1
100
AcDbEntity
  8
ASSI
100
AcDbLine
 62
7
  6
CONTINUOUS
 10
-10.5041625977
 20
5.3414500212
 11
-9.5021058917
 21
5.3414500212
  0
LINE
  5
5C2
100
AcDbEntity
  8
ASSI
100
AcDbLine
 62
250
  6
CONTINUOUS
 10
-10.6214314094
 20
5.4000799616
 11
-9.5607358321
 21
5.4000799616
  0
LINE
  5
5C3
100
AcDbEntity
  8
CURVE
100
AcDbLine
 62
250
  6
CONTINUOUS
 10
-11.0946141757
 20
5.4029277495
 11
-11.0539971429
 21
5.4029277495
  0
LINE
  5
5C4
100
AcDbEntity
  8
ASSI
100
AcDbLine
 62
7
  6
CONTINUOUS
 10
10.5041625977
 20
1.2655574881
 11
9.5021058917
 21
1.5339814634
  0
LINE
  5
5C5
100
AcDbEntity
  8
ASSI
100
AcDbLine
 62
250
  6
CONTINUOUS
 10
10.9361538737
 20
1.4236728618
 11
9.7181529861
 21
1.7500285577
  0
LINE
  5
5C6
100
AcDbEntity
  8
CURVE
100
AcDbLine
 62
250
  6
CONTINUOUS
 10
-8.5
 20
7.0309522629
 11
-7.2
 21
6.6595238686
  0
LINE
  5
5C7
100
AcDbEntity
  8
CURVE
100
AcDbLine
 62
250
  6
CONTINUOUS
 10
-8.3761904739
 20
8.3928570986
 11
-8.4690476185
 21
8.4238096714
  0
LINE
  5
5C8
100
AcDbEntity
  8
CURVE
100
AcDbLine
 62
250
  6
CONTINUOUS
 10
-8.4690476185
 20
8.4238096714
 11
-8.592857147
 21
8.4857141972
  0
LINE
  5
5C9
100
AcDbEntity
  8
CURVE
100
AcDbLine
 62
250
  6
CONTINUOUS
 10
-8.3761904739
 20
8.51666677
 11
-8.314285706
 21
8.4857141972
  0
LINE
  5
5CA
100
AcDbEntity
  8
ASSI
100
AcDbLine
 62
7
  6
CONTINUOUS
 10
-10.5041625977
 20
10.3414500212
 11
-10.6214314094
 21
10.4000799616
  0
LINE
  5
5CB
100
AcDbEntity
  8
CURVE
100
AcDbLine
 62
250
  6
CONTINUOUS
 10
5.7380954742
 20
0.65
 11
5.9238090515
 21
0.4642857254
  0
LINE
  5
5CC
100
AcDbEntity
  8
CURVE
100
AcDbLine
 62
250
  6
CONTINUOUS
 10
5.4595238686
 20
-0.464285706
 11
5.3666670799
 21
-0.278571412
  0
LINE
  5
5CD
100
AcDbEntity
  8
ASSI
100
AcDbLine
 62
7
  6
CONTINUOUS
 10
0.1854949228
 20
19.6738174026
 11
0.6340100222
 21
18.0
  0
LINE
  5
5CE
100
AcDbEntity
  8
CURVE
100
AcDbLine
 62
250
  6
CONTINUOUS
 10
6.0166670799
 20
0.2785714507
 11
6.0166670799
 21
-0.278571412
  0
LINE
  5
5CF
100
AcDbEntity
  8
CURVE
100
AcDbLine
 62
250
  6
CONTINUOUS
 10
6.354138
 20
-16.52316
 11
6.354138
 21
-15.501731
  0
LINE
  5
5D0
100
AcDbEntity
  8
CURVE
100
AcDbLine
 62
250
  6
CONTINUOUS
 10
6.3880954742
 20
-0.65
 11
6.3880954742
 21
0.65
  0
LINE
  5
5D1
100
AcDbEntity
  8
ASSI
100
AcDbLine
 62
7
  6
CONTINUOUS
 10
6.45
 20
-18.5
 11
6.45
 21
-19.8186608617
  0
LINE
  5
5D2
100
AcDbEntity
  8
ASSI
100
AcDbLine
 62
7
  6
CONTINUOUS
 10
6.45
 20
18.5
 11
6.45
 21
19.8186608617
  0
LINE
  5
5D3
100
AcDbEntity
  8
ASSI
100
AcDbLine
 62
250
  6
CONTINUOUS
 10
6.5169872981
 20
19.8230246279
 11
6.5169872981
 21
18.5
  0
LINE
  5
5D4
100
AcDbEntity
  8
ASSI
100
AcDbLine
 62
250
  6
CONTINUOUS
 10
6.5169872981
 20
-19.8230246279
 11
6.5169872981
 21
-18.5
  0
LINE
  5
5D5
100
AcDbEntity
  8
ASSI
100
AcDbLine
 62
250
  6
CONTINUOUS
 10
6.6
 20
-11.6
 11
6.6
 21
-11.1980762113
  0
LINE
  5
5D6
100
AcDbEntity
  8
ASSI
100
AcDbLine
 62
250
  6
CONTINUOUS
 10
6.6
 20
-6.6
 11
6.6
 21
-6.1980762113
  0
LINE
  5
5D7
100
AcDbEntity
  8
ASSI
100
AcDbLine
 62
250
  6
CONTINUOUS
 10
6.6
 20
1.6
 11
6.6
 21
1.1980762114
  0
LINE
  5
5D8
100
AcDbEntity
  8
ASSI
100
AcDbLine
 62
250
  6
CONTINUOUS
 10
6.6
 20
-1.6
 11
6.6
 21
-1.1980762113
  0
LINE
  5
5D9
100
AcDbEntity
  8
ASSI
100
AcDbLine
 62
250
  6
CONTINUOUS
 10
6.6
 20
-3.4
 11
6.6
 21
-3.8019237886
  0
LINE
  5
5DA
100
AcDbEntity
  8
ASSI
100
AcDbLine
 62
250
  6
CONTINUOUS
 10
6.6
 20
3.4
 11
6.6
 21
3.8019237887
  0
LINE
  5
5DB
100
AcDbEntity
  8
ASSI
100
AcDbLine
 62
250
  6
CONTINUOUS
 10
6.6
 20
-8.4
 11
6.6
 21
-8.8019237886
  0
LINE
  5
5DC
100
AcDbEntity
  8
ASSI
100
AcDbLine
 62
250
  6
CONTINUOUS
 10
6.6
 20
-13.4
 11
6.6
 21
-13.8019237886
  0
LINE
  5
5DD
100
AcDbEntity
  8
CURVE
100
AcDbLine
 62
250
  6
CONTINUOUS
 10
6.845445
 20
-15.501731
 11
6.845445
 21
-16.52316
  0
LINE
  5
5DE
100
AcDbEntity
  8
CURVE
100
AcDbLine
 62
250
  6
CONTINUOUS
 10
7.0
 20
12.0714285493
 11
7.0
 21
11.7928571761
  0
LINE
  5
5DF
100
AcDbEntity
  8
CURVE
100
AcDbLine
 62
250
  6
CONTINUOUS
 10
7.0
 20
10.8642856479
 11
7.0
 21
10.9571429014
  0
LINE
  5
5E0
100
AcDbEntity
  8
CURVE
100
AcDbLine
 62
250
  6
CONTINUOUS
 10
7.0380954742
 20
0.65
 11
7.0380954742
 21
-0.65
  0
LINE
  5
5E1
100
AcDbEntity
  8
IMPORT_IGES
100
AcDbLine
 62
7
  6
CONTINUOUS
 10
7.05
 20
-13.2787430174
 11
7.05
 21
-13.15
  0
LINE
  5
5E2
100
AcDbEntity
  8
IMPORT_IGES
100
AcDbLine
 62
7
  6
CONTINUOUS
 10
7.05
 20
-8.2787430174
 11
7.05
 21
-7.1
  0
LWPOLYLINE
  5
5E3
100
AcDbEntity
  8
ASSI
100
AcDbPolyline
 62
250
  6
CONTINUOUS
 90
22
 70
0
 10
6.5169872981
 20
-18.5
 10
6.5181980894
 20
-18.4626349532
 10
6.5218236922
 20
-18.4254788669
 10
6.5278438306
 20
-18.388739533
 10
6.5362248375
 20
-18.3526224128
 10
6.546919843
 20
-18.3173294878
 10
6.5598690362
 20
-18.2830581304
 10
6.575
 20
-18.25
 10
6.5922281159
 20
-18.218339971
 10
6.6114570374
 20
-18.1882550991
 10
6.6325792284
 20
-18.1599136311
 10
6.6554765651
 20
-18.1334740641
 10
6.6800209963
 20
-18.1090842588
 10
6.7060752596
 20
-18.0868806128
 10
6.7334936491
 20
-18.0669872981
 10
6.7621228298
 20
-18.049515566
 10
6.7918026959
 20
-18.0345631257
 10
6.8223672655
 20
-18.0222135971
 10
6.8536456092
 20
-18.0125360439
 10
6.8854628056
 20
-18.0055845869
 10
6.9176409203
 20
-18.0013981014
 10
6.95
 20
-18.0
  0
LINE
  5
5E4
100
AcDbEntity
  8
ASSI
100
AcDbLine
 62
250
  6
CONTINUOUS
 10
0.9044095569
 20
-18.0
 11
0.3401917941
 21
-20.1057323176
  0
LINE
  5
5E5
100
AcDbEntity
  8
ASSI
100
AcDbLine
 62
7
  6
CONTINUOUS
 10
-0.7821043697
 20
-19.6738174026
 11
-0.9401917941
 21
-20.1057323176
  0
LWPOLYLINE
  5
5E6
100
AcDbEntity
  8
ASSI
100
AcDbPolyline
 62
7
  6
CONTINUOUS
 90
11
 70
0
 10
10.9361538737
 20
11.4236728618
 10
10.9374010069
 20
11.426558414
 10
10.9386271252
 20
11.4338752395
 10
10.9398322287
 20
11.4456233384
 10
10.9410195205
 20
11.4618745384
 10
10.9421857975
 20
11.4825570118
 10
10.9433214504
 20
11.5074552756
 10
10.9444271401
 20
11.5366124636
 10
10.9455022059
 20
11.569985442
 10
10.9465350555
 20
11.6072293267
 10
10.9484759205
 20
11.6935743287
  0
LINE
  5
5E7
100
AcDbEntity
  8
CURVE
100
AcDbLine
 62
250
  6
CONTINUOUS
 10
6.0166670799
 20
-0.278571412
 11
5.9238090515
 21
-0.464285706
  0
LINE
  5
5E8
100
AcDbEntity
  8
CURVE
100
AcDbLine
 62
250
  6
CONTINUOUS
 10
7.9666670799
 20
0.2785714507
 11
7.4095238686
 21
-0.65
  0
LINE
  5
5E9
100
AcDbEntity
  8
ASSI
100
AcDbLine
 62
7
  6
CONTINUOUS
 10
9.5021058917
 20
1.5339814634
 11
9.7181529861
 21
1.7500285577
  0
LINE
  5
5EA
100
AcDbEntity
  8
ASSI
100
AcDbLine
 62
7
  6
CONTINUOUS
 10
-10.5041625977
 20
-11.2655574881
 11
-10.9361538737
 21
-11.4236728618
  0
LINE
  5
5EB
100
AcDbEntity
  8
ASSI
100
AcDbLine
 62
7
  6
CONTINUOUS
 10
10.5041625977
 20
-3.7344425119
 11
10.9361538737
 21
-3.5763271382
  0
LINE
  5
5EC
100
AcDbEntity
  8
ASSI
100
AcDbLine
 62
250
  6
CONTINUOUS
 10
10.9361538737
 20
8.5763271382
 11
9.7181529861
 21
8.2499714423
  0
LINE
  5
5ED
100
AcDbEntity
  8
ASSI
100
AcDbLine
 62
7
  6
CONTINUOUS
 10
10.5041625977
 20
8.7344425119
 11
9.5021058917
 21
8.4660185366
  0
LINE
  5
5EE
100
AcDbEntity
  8
ASSI
100
AcDbLine
 62
7
  6
CONTINUOUS
 10
3.8
 20
5.75
 11
-1.2
 21
5.75
  0
LINE
  5
5EF
100
AcDbEntity
  8
IMPORT_IGES
100
AcDbLine
 62
7
  6
CONTINUOUS
 10
0.85
 20
6.25
 11
2.85
 21
6.25
  0
LINE
  5
5F0
100
AcDbEntity
  8
CURVE
100
AcDbLine
 62
250
  6
CONTINUOUS
 10
-11.0635665845
 20
6.9829064331
 11
-11.1046091144
 21
6.9829064331
  0
LINE
  5
5F1
100
AcDbEntity
  8
ASSI
100
AcDbLine
 62
250
  6
CONTINUOUS
 10
-10.9361538737
 20
8.5763271382
 11
-9.7181529861
 21
8.2499714423
  0
LINE
  5
5F2
100
AcDbEntity
  8
ASSI
100
AcDbLine
 62
7
  6
CONTINUOUS
 10
-10.651426722
 20
11.3194583962
 11
-10.9361538737
 21
11.4236728618
  0
LINE
  5
5F3
100
AcDbEntity
  8
ASSI
100
AcDbLine
 62
7
  6
CONTINUOUS
 10
10.5041625977
 20
3.7344425119
 11
10.9361538737
 21
3.5763271382
  0
LINE
  5
5F4
100
AcDbEntity
  8
ASSI
100
AcDbLine
 62
7
  6
CONTINUOUS
 10
9.5021058917
 20
-1.5339814634
 11
9.7181529861
 21
-1.7500285577
  0
LINE
  5
5F5
100
AcDbEntity
  8
ASSI
100
AcDbLine
 62
7
  6
CONTINUOUS
 10
-1.2
 20
9.25
 11
-1.8
 21
9.85
  0
LINE
  5
5F6
100
AcDbEntity
  8
IMPORT_IGES
100
AcDbLine
 62
7
  6
CONTINUOUS
 10
3.35
 20
5.75
 11
2.85
 21
6.25
  0
LINE
  5
5F7
100
AcDbEntity
  8
ASSI
100
AcDbLine
 62
7
  6
CONTINUOUS
 10
3.8
 20
5.75
 11
4.4
 21
5.15
  0
LINE
  5
5F8
100
AcDbEntity
  8
IMPORT_IGES
100
AcDbLine
 62
7
  6
CONTINUOUS
 10
0.35
 20
9.25
 11
0.85
 21
8.75
  0
LINE
  5
5F9
100
AcDbEntity
  8
CURVE
100
AcDbLine
 62
250
  6
CONTINUOUS
 10
5.9238090515
 20
0.4642857254
 11
6.0166670799
 21
0.2785714507
  0
LINE
  5
5FA
100
AcDbEntity
  8
ASSI
100
AcDbLine
 62
7
  6
CONTINUOUS
 10
0.2857343563
 20
20.1058792234
 11
0.7428204736
 21
18.3999999983
  0
LINE
  5
5FB
100
AcDbEntity
  8
CURVE
100
AcDbLine
 62
250
  6
CONTINUOUS
 10
7.371428588
 20
7.8619048357
 11
7.371428588
 21
7.36666646
  0
LINE
  5
5FC
100
AcDbEntity
  8
CURVE
100
AcDbLine
 62
250
  6
CONTINUOUS
 10
7.374545
 20
-15.603874
 11
7.374545
 21
-16.52316
  0
LINE
  5
5FD
100
AcDbEntity
  8
IMPORT_IGES
100
AcDbLine
 62
7
  6
CONTINUOUS
 10
7.45
 20
2.2055615734
 11
7.45
 21
2.7944384266
  0
LINE
  5
5FE
100
AcDbEntity
  8
CURVE
100
AcDbLine
 62
250
  6
CONTINUOUS
 10
7.7428571761
 20
11.7928571761
 11
7.7428571761
 21
12.1952380657
  0
LINE
  5
5FF
100
AcDbEntity
  8
CURVE
100
AcDbLine
 62
250
  6
CONTINUOUS
 10
7.828059
 20
-16.52316
 11
7.828059
 21
-15.501731
  0
LINE
  5
600
100
AcDbEntity
  8
CURVE
100
AcDbLine
 62
250
  6
CONTINUOUS
 10
7.9285714507
 20
9.1928570986
 11
7.9285714507
 21
8.45
  0
LINE
  5
601
100
AcDbEntity
  8
CURVE
100
AcDbLine
 62
250
  6
CONTINUOUS
 10
8.3
 20
10.9571429014
 11
8.3
 21
10.8642856479
  0
LINE
  5
602
100
AcDbEntity
  8
CURVE
100
AcDbLine
 62
250
  6
CONTINUOUS
 10
8.319367
 20
-15.501731
 11
8.319367
 21
-16.52316
  0
LINE
  5
603
100
AcDbEntity
  8
CURVE
100
AcDbLine
 62
250
  6
CONTINUOUS
 10
8.848467
 20
-15.603874
 11
8.848467
 21
-16.52316
  0
LINE
  5
604
100
AcDbEntity
  8
ASSI
100
AcDbLine
 62
7
  6
CONTINUOUS
 10
3.4
 20
-22.3297297297
 11
3.3633443637
 21
-22.5
  0
LWPOLYLINE
  5
605
100
AcDbEntity
  8
ASSI
100
AcDbPolyline
 62
7
  6
CONTINUOUS
 90
11
 70
0
 10
10.9361538737
 20
6.4236728618
 10
10.9374010069
 20
6.426558414
 10
10.9386271252
 20
6.4338752395
 10
10.9398322287
 20
6.4456233384
 10
10.9410195205
 20
6.4618745384
 10
10.9421857975
 20
6.4825570118
 10
10.9433214504
 20
6.5074552756
 10
10.9444271401
 20
6.5366124636
 10
10.9455022059
 20
6.569985442
 10
10.9465350555
 20
6.6072293267
 10
10.9484759205
 20
6.6935743287
  0
LINE
  5
606
100
AcDbEntity
  8
ASSI
100
AcDbLine
 62
7
  6
CONTINUOUS
 10
-2.7167632191
 20
-21.6560705017
 11
-2.9969695968
 21
-22.2
  0
LINE
  5
607
100
AcDbEntity
  8
CURVE
100
AcDbLine
 62
250
  6
CONTINUOUS
 10
-5.5
 20
7.2
 11
-3.6
 21
7.2
  0
LINE
  5
608
100
AcDbEntity
  8
CURVE
100
AcDbLine
 62
250
  6
CONTINUOUS
 10
-11.1046091144
 20
7.3484763228
 11
-11.0539971429
 21
7.3484763228
  0
LINE
  5
609
100
AcDbEntity
  8
CURVE
100
AcDbLine
 62
250
  6
CONTINUOUS
 10
-8.314285706
 20
7.4023806572
 11
-7.9428571373
 21
7.4023806572
  0
LINE
  5
60A
100
AcDbEntity
  8
CURVE
100
AcDbLine
 62
250
  6
CONTINUOUS
 10
-7.7571428239
 20
7.9595238686
 11
-7.2
 21
7.9595238686
  0
LINE
  5
60B
100
AcDbEntity
  8
CURVE
100
AcDbLine
 62
250
  6
CONTINUOUS
 10
-5.5
 20
8.15
 11
-3.6
 21
8.15
  0
LINE
  5
60C
100
AcDbEntity
  8
CURVE
100
AcDbLine
 62
250
  6
CONTINUOUS
 10
-11.0539971429
 20
8.1566465043
 11
-11.1046091144
 21
8.1566465043
  0
LINE
  5
60D
100
AcDbEntity
  8
CURVE
100
AcDbLine
 62
250
  6
CONTINUOUS
 10
7.8357142746
 20
8.3571429014
 11
7.0
 21
8.3571429014
  0
LINE
  5
60E
100
AcDbEntity
  8
CURVE
100
AcDbLine
 62
250
  6
CONTINUOUS
 10
-8.3452380948
 20
8.3928570986
 11
-8.3761904739
 21
8.3928570986
  0
LINE
  5
60F
100
AcDbEntity
  8
CURVE
100
AcDbLine
 62
250
  6
CONTINUOUS
 10
-11.0007516073
 20
8.5
 11
-11.0149628526
 21
8.5
  0
LINE
  5
610
100
AcDbEntity
  8
CURVE
100
AcDbLine
 62
250
  6
CONTINUOUS
 10
11.0497430049
 20
8.5
 11
11.0759216146
 21
8.5
  0
LINE
  5
611
100
AcDbEntity
  8
CURVE
100
AcDbLine
 62
250
  6
CONTINUOUS
 10
-8.407142853
 20
8.51666677
 11
-8.3761904739
 21
8.51666677
  0
LINE
  5
612
100
AcDbEntity
  8
CURVE
100
AcDbLine
 62
250
  6
CONTINUOUS
 10
-11.0771763578
 20
8.5424978768
 11
-11.0596679264
 21
8.5424978768
  0
LINE
  5
613
100
AcDbEntity
  8
CURVE
100
AcDbLine
 62
250
  6
CONTINUOUS
 10
-11.0989383309
 20
8.5424978768
 11
-11.0828471414
 21
8.5424978768
  0
LINE
  5
614
100
AcDbEntity
  8
IMPORT_IGES
100
AcDbLine
 62
7
  6
CONTINUOUS
 10
2.85
 20
8.75
 11
0.85
 21
8.75
  0
LINE
  5
615
100
AcDbEntity
  8
CURVE
100
AcDbLine
 62
250
  6
CONTINUOUS
 10
7.9285714507
 20
8.7904761314
 11
7.0
 21
8.7904761314
  0
LINE
  5
616
100
AcDbEntity
  8
ASSI
100
AcDbLine
 62
7
  6
CONTINUOUS
 10
10.5041625977
 20
6.2655574881
 11
9.5021058917
 21
6.5339814634
  0
LINE
  5
617
100
AcDbEntity
  8
ASSI
100
AcDbLine
 62
7
  6
CONTINUOUS
 10
-2.7167632191
 20
21.6560705017
 11
-2.9969695968
 21
22.2
  0
LINE
  5
618
100
AcDbEntity
  8
ASSI
100
AcDbLine
 62
7
  6
CONTINUOUS
 10
3.0145050772
 20
19.6738174026
 11
2.9142656437
 21
20.1058792234
  0
LINE
  5
619
100
AcDbEntity
  8
ASSI
100
AcDbLine
 62
7
  6
CONTINUOUS
 10
3.4
 20
22.3297297297
 11
3.3633443637
 21
22.5
  0
LWPOLYLINE
  5
61A
100
AcDbEntity
  8
ASSI
100
AcDbPolyline
 62
7
  6
CONTINUOUS
 90
10
 70
0
 10
10.9465350555
 20
-11.6072293266
 10
10.9455022059
 20
-11.5699854419
 10
10.9444271401
 20
-11.5366124635
 10
10.9433214504
 20
-11.5074552755
 10
10.9421857975
 20
-11.4825570117
 10
10.9410195205
 20
-11.4618745384
 10
10.9398322287
 20
-11.4456233384
 10
10.9386271252
 20
-11.4338752395
 10
10.9374010069
 20
-11.426558414
 10
10.9361538737
 20
-11.4236728618
  0
LINE
  5
61B
100
AcDbEntity
  8
ASSI
100
AcDbLine
 62
7
  6
CONTINUOUS
 10
9.5021058917
 20
13.4660185366
 11
9.5021058917
 21
11.5339814634
  0
LINE
  5
61C
100
AcDbEntity
  8
ASSI
100
AcDbLine
 62
7
  6
CONTINUOUS
 10
9.5021058917
 20
8.4660185366
 11
9.5021058917
 21
6.5339814634
  0
LINE
  5
61D
100
AcDbEntity
  8
ASSI
100
AcDbLine
 62
7
  6
CONTINUOUS
 10
9.5021058917
 20
3.4660185366
 11
9.5021058917
 21
1.5339814634
  0
LINE
  5
61E
100
AcDbEntity
  8
ASSI
100
AcDbLine
 62
7
  6
CONTINUOUS
 10
9.5021058917
 20
-1.5339814634
 11
9.5021058917
 21
-3.4660185366
  0
LINE
  5
61F
100
AcDbEntity
  8
ASSI
100
AcDbLine
 62
7
  6
CONTINUOUS
 10
9.5021058917
 20
-6.5339814634
 11
9.5021058917
 21
-8.4660185366
  0
LINE
  5
620
100
AcDbEntity
  8
ASSI
100
AcDbLine
 62
7
  6
CONTINUOUS
 10
9.5021058917
 20
-11.5339814634
 11
9.5021058917
 21
-13.4660185366
  0
LINE
  5
621
100
AcDbEntity
  8
ASSI
100
AcDbLine
 62
7
  6
CONTINUOUS
 10
9.5151961934
 20
13.4529282349
 11
9.5151961934
 21
11.5470717651
  0
LINE
  5
622
100
AcDbEntity
  8
ASSI
100
AcDbLine
 62
7
  6
CONTINUOUS
 10
9.5151961934
 20
8.4529282349
 11
9.5151961934
 21
6.5470717651
  0
LINE
  5
623
100
AcDbEntity
  8
ASSI
100
AcDbLine
 62
7
  6
CONTINUOUS
 10
9.5151961934
 20
3.4529282349
 11
9.5151961934
 21
1.5470717651
  0
LINE
  5
624
100
AcDbEntity
  8
ASSI
100
AcDbLine
 62
7
  6
CONTINUOUS
 10
9.5151961934
 20
-1.5470717651
 11
9.5151961934
 21
-3.4529282349
  0
LINE
  5
625
100
AcDbEntity
  8
ASSI
100
AcDbLine
 62
7
  6
CONTINUOUS
 10
9.5151961934
 20
-6.5470717651
 11
9.5151961934
 21
-8.4529282349
  0
LINE
  5
626
100
AcDbEntity
  8
ASSI
100
AcDbLine
 62
7
  6
CONTINUOUS
 10
9.5151961934
 20
-11.5470717651
 11
9.5151961934
 21
-13.4529282349
  0
LINE
  5
627
100
AcDbEntity
  8
ASSI
100
AcDbLine
 62
7
  6
CONTINUOUS
 10
9.65
 20
-20.9
 11
9.65
 21
-18.6303800747
  0
LINE
  5
628
100
AcDbEntity
  8
ASSI
100
AcDbLine
 62
7
  6
CONTINUOUS
 10
9.65
 20
-13.3181244283
 11
9.65
 21
-11.6818755716
  0
LINE
  5
629
100
AcDbEntity
  8
ASSI
100
AcDbLine
 62
7
  6
CONTINUOUS
 10
9.65
 20
-8.3181244283
 11
9.65
 21
-6.6818755716
  0
LINE
  5
62A
100
AcDbEntity
  8
ASSI
100
AcDbLine
 62
7
  6
CONTINUOUS
 10
9.65
 20
-3.3181244283
 11
9.65
 21
-1.6818755716
  0
LINE
  5
62B
100
AcDbEntity
  8
ASSI
100
AcDbLine
 62
7
  6
CONTINUOUS
 10
9.65
 20
1.6818755717
 11
9.65
 21
3.3181244284
  0
LINE
  5
62C
100
AcDbEntity
  8
ASSI
100
AcDbLine
 62
7
  6
CONTINUOUS
 10
9.65
 20
6.6818755717
 11
9.65
 21
8.3181244284
  0
LINE
  5
62D
100
AcDbEntity
  8
ASSI
100
AcDbLine
 62
7
  6
CONTINUOUS
 10
9.65
 20
11.6818755717
 11
9.65
 21
13.3181244284
  0
LINE
  5
62E
100
AcDbEntity
  8
ASSI
100
AcDbLine
 62
7
  6
CONTINUOUS
 10
9.65
 20
18.6303800747
 11
9.65
 21
20.9
  0
LINE
  5
62F
100
AcDbEntity
  8
ASSI
100
AcDbLine
 62
7
  6
CONTINUOUS
 10
10.5041625977
 20
15.8937104774
 11
10.5041625977
 21
13.7344425119
  0
LINE
  5
630
100
AcDbEntity
  8
ASSI
100
AcDbLine
 62
7
  6
CONTINUOUS
 10
10.5041625977
 20
11.2655574881
 11
10.5041625977
 21
8.7344425119
  0
LINE
  5
631
100
AcDbEntity
  8
ASSI
100
AcDbLine
 62
7
  6
CONTINUOUS
 10
10.5041625977
 20
6.2655574881
 11
10.5041625977
 21
3.7344425119
  0
LINE
  5
632
100
AcDbEntity
  8
ASSI
100
AcDbLine
 62
7
  6
CONTINUOUS
 10
10.5041625977
 20
1.2655574881
 11
10.5041625977
 21
-1.2655574881
  0
LINE
  5
633
100
AcDbEntity
  8
ASSI
100
AcDbLine
 62
7
  6
CONTINUOUS
 10
10.5041625977
 20
-3.7344425119
 11
10.5041625977
 21
-6.2655574881
  0
LINE
  5
634
100
AcDbEntity
  8
ASSI
100
AcDbLine
 62
7
  6
CONTINUOUS
 10
10.5041625977
 20
-8.7344425119
 11
10.5041625977
 21
-11.2655574881
  0
LINE
  5
635
100
AcDbEntity
  8
ASSI
100
AcDbLine
 62
7
  6
CONTINUOUS
 10
10.5041625977
 20
-13.7344425119
 11
10.5041625977
 21
-15.8937104774
  0
LINE
  5
636
100
AcDbEntity
  8
CURVE
100
AcDbLine
 62
250
  6
CONTINUOUS
 10
11.1266426708
 20
11.3617021143
 11
11.1282788339
 21
11.3936170042
  0
LINE
  5
637
100
AcDbEntity
  8
CURVE
100
AcDbLine
 62
250
  6
CONTINUOUS
 10
11.1021002242
 20
10.723404251
 11
11.0999186732
 21
10.6914893612
  0
LINE
  5
638
100
AcDbEntity
  8
CURVE
100
AcDbLine
 62
250
  6
CONTINUOUS
 10
11.1288242226
 20
11.2021276653
 11
11.126097282
 21
11.1702127755
  0
LINE
  5
639
100
AcDbEntity
  8
CURVE
100
AcDbLine
 62
250
  6
CONTINUOUS
 10
11.0999186732
 20
10.5
 11
11.1026456114
 21
10.5319148926
  0
LWPOLYLINE
  5
63A
100
AcDbEntity
  8
CURVE
100
AcDbPolyline
 62
250
  6
CONTINUOUS
 90
8
 70
0
 10
11.0644701819
 20
7.499913
 10
11.0559958347
 20
7.4523025453
 10
11.0478442727
 20
7.3112846485
 10
11.0403259865
 20
7.0822306376
 10
11.0336194681
 20
6.7677054347
 10
11.0282147468
 20
6.390690641
 10
11.0241909838
 20
5.960704873
 10
11.0217014429
 20
5.4941261548
  0
LWPOLYLINE
  5
63B
100
AcDbEntity
  8
CURVE
100
AcDbPolyline
 62
250
  6
CONTINUOUS
 90
10
 70
0
 10
11.0644701819
 20
2.500087
 10
11.072944529
 20
2.5476974547
 10
11.081096091
 20
2.6887153515
 10
11.0886143772
 20
2.9177693624
 10
11.0953208956
 20
3.2322945653
 10
11.1007256169
 20
3.609309359
 10
11.1047493799
 20
4.039295127
 10
11.1072389208
 20
4.5058738452
 10
11.1080996796
 20
5.0
 10
11.1048076609
 20
5.9526427878
  0
LINE
  5
63C
100
AcDbEntity
  8
ASSI
100
AcDbLine
 62
7
  6
CONTINUOUS
 10
3.0178956303
 20
-19.6738174026
 11
2.8598082059
 21
-20.1057323176
  0
LWPOLYLINE
  5
63D
100
AcDbEntity
  8
ASSI
100
AcDbPolyline
 62
7
  6
CONTINUOUS
 90
11
 70
0
 10
10.9361538737
 20
1.4236728618
 10
10.9374010069
 20
1.426558414
 10
10.9386271252
 20
1.4338752395
 10
10.9398322287
 20
1.4456233384
 10
10.9410195205
 20
1.4618745384
 10
10.9421857975
 20
1.4825570118
 10
10.9433214504
 20
1.5074552756
 10
10.9444271401
 20
1.5366124636
 10
10.9455022059
 20
1.569985442
 10
10.9465350555
 20
1.6072293267
 10
10.9484759205
 20
1.6935743287
  0
LINE
  5
63E
100
AcDbEntity
  8
ASSI
100
AcDbLine
 62
7
  6
CONTINUOUS
 10
-5.0470717651
 20
-18.0
 11
-5.0339814634
 21
-17.9869096983
  0
LINE
  5
63F
100
AcDbEntity
  8
ASSI
100
AcDbLine
 62
7
  6
CONTINUOUS
 10
9.5021058917
 20
-3.4660185366
 11
9.7181529861
 21
-3.2499714423
  0
LINE
  5
640
100
AcDbEntity
  8
ASSI
100
AcDbLine
 62
250
  6
CONTINUOUS
 10
-10.9361538737
 20
6.4236728618
 11
-9.7181529861
 21
6.7500285577
  0
LINE
  5
641
100
AcDbEntity
  8
ASSI
100
AcDbLine
 62
250
  6
CONTINUOUS
 10
10.9361538737
 20
13.5763271382
 11
9.7181529861
 21
13.2499714423
  0
LINE
  5
642
100
AcDbEntity
  8
ASSI
100
AcDbLine
 62
7
  6
CONTINUOUS
 10
10.5041625977
 20
13.7344425119
 11
9.5021058917
 21
13.4660185366
  0
LINE
  5
643
100
AcDbEntity
  8
CURVE
100
AcDbLine
 62
250
  6
CONTINUOUS
 10
-7.2
 20
9.0738096714
 11
-8.5
 21
9.0738096714
  0
LINE
  5
644
100
AcDbEntity
  8
CURVE
100
AcDbLine
 62
250
  6
CONTINUOUS
 10
7.0
 20
9.1928570986
 11
7.9285714507
 21
9.1928570986
  0
LINE
  5
645
100
AcDbEntity
  8
ASSI
100
AcDbLine
 62
7
  6
CONTINUOUS
 10
-1.2
 20
9.25
 11
3.8
 21
9.25
  0
LINE
  5
646
100
AcDbEntity
  8
CURVE
100
AcDbLine
 62
250
  6
CONTINUOUS
 10
-11.0149628526
 20
9.45
 11
-11.0007516073
 21
9.45
  0
LINE
  5
647
100
AcDbEntity
  8
ASSI
100
AcDbLine
 62
250
  6
CONTINUOUS
 10
-10.6214314094
 20
9.5999200384
 11
-9.5607358321
 21
9.5999200384
  0
LINE
  5
648
100
AcDbEntity
  8
ASSI
100
AcDbLine
 62
7
  6
CONTINUOUS
 10
-10.5041625977
 20
9.6585499788
 11
-9.5021058917
 21
9.6585499788
  0
LINE
  5
649
100
AcDbEntity
  8
ASSI
100
AcDbLine
 62
7
  6
CONTINUOUS
 10
-1.8
 20
9.85
 11
4.4
 21
9.85
  0
LINE
  5
64A
100
AcDbEntity
  8
CURVE
100
AcDbLine
 62
250
  6
CONTINUOUS
 10
-11.0196999341
 20
9.9928571105
 11
-11.0102257712
 21
9.9928571105
  0
LINE
  5
64B
100
AcDbEntity
  8
CURVE
100
AcDbLine
 62
250
  6
CONTINUOUS
 10
-11.0828471414
 20
10.0493625825
 11
-11.0771763578
 21
10.0493625825
  0
LINE
  5
64C
100
AcDbEntity
  8
ASSI
100
AcDbLine
 62
7
  6
CONTINUOUS
 10
4.4
 20
10.15
 11
-1.8
 21
10.15
  0
LINE
  5
64D
100
AcDbEntity
  8
CURVE
100
AcDbLine
 62
250
  6
CONTINUOUS
 10
-11.1046091144
 20
10.1590207562
 11
-11.0989383309
 21
10.1590207562
  0
LINE
  5
64E
100
AcDbEntity
  8
CURVE
100
AcDbLine
 62
250
  6
CONTINUOUS
 10
-11.0596679264
 20
10.171210115
 11
-11.0539971429
 21
10.171210115
  0
LINE
  5
64F
100
AcDbEntity
  8
ASSI
100
AcDbLine
 62
7
  6
CONTINUOUS
 10
-10.5041625977
 20
10.3414500212
 11
-9.5021058917
 21
10.3414500212
  0
LINE
  5
650
100
AcDbEntity
  8
ASSI
100
AcDbLine
 62
250
  6
CONTINUOUS
 10
-10.6214314094
 20
10.4000799616
 11
-9.5607358321
 21
10.4000799616
  0
LINE
  5
651
100
AcDbEntity
  8
CURVE
100
AcDbLine
 62
250
  6
CONTINUOUS
 10
11.1162803034
 20
10.5
 11
11.1130079788
 21
10.5
  0
LINE
  5
652
100
AcDbEntity
  8
CURVE
100
AcDbLine
 62
250
  6
CONTINUOUS
 10
11.0977371229
 20
10.5
 11
11.0999186732
 21
10.5
  0
LINE
  5
653
100
AcDbEntity
  8
CURVE
100
AcDbLine
 62
250
  6
CONTINUOUS
 10
7.9285714507
 20
10.5857143521
 11
7.371428588
 21
10.5857143521
  0
LINE
  5
654
100
AcDbEntity
  8
ASSI
100
AcDbLine
 62
250
  6
CONTINUOUS
 10
10.9361538737
 20
6.4236728618
 11
9.7181529861
 21
6.7500285577
  0
LINE
  5
655
100
AcDbEntity
  8
ASSI
100
AcDbLine
 62
250
  6
CONTINUOUS
 10
-10.9361538737
 20
13.5763271382
 11
-9.7181529861
 21
13.2499714423
  0
LINE
  5
656
100
AcDbEntity
  8
CURVE
100
AcDbLine
 62
250
  6
CONTINUOUS
 10
-8.5
 20
12.2
 11
-7.2
 21
11.8285714507
  0
LINE
  5
657
100
AcDbEntity
  8
CURVE
100
AcDbLine
 62
250
  6
CONTINUOUS
 10
7.0
 20
7.9857141972
 11
8.3
 21
7.6142858028
  0
LINE
  5
658
100
AcDbEntity
  8
ASSI
100
AcDbLine
 62
7
  6
CONTINUOUS
 10
9.5021058917
 20
3.4660185366
 11
9.7181529861
 21
3.2499714423
  0
LINE
  5
659
100
AcDbEntity
  8
ASSI
100
AcDbLine
 62
7
  6
CONTINUOUS
 10
-1.2
 20
14.25
 11
-1.8
 21
14.85
  0
LINE
  5
65A
100
AcDbEntity
  8
IMPORT_IGES
100
AcDbLine
 62
7
  6
CONTINUOUS
 10
2.85
 20
11.25
 11
3.35
 21
10.75
  0
LINE
  5
65B
100
AcDbEntity
  8
ASSI
100
AcDbLine
 62
7
  6
CONTINUOUS
 10
3.8
 20
10.75
 11
4.4
 21
10.15
  0
LINE
  5
65C
100
AcDbEntity
  8
IMPORT_IGES
100
AcDbLine
 62
7
  6
CONTINUOUS
 10
0.85
 20
13.75
 11
0.35
 21
14.25
  0
LINE
  5
65D
100
AcDbEntity
  8
CURVE
100
AcDbLine
 62
250
  6
CONTINUOUS
 10
11.0673874525
 20
-1.380593
 11
11.1179387841
 21
-1.649839
  0
LINE
  5
65E
100
AcDbEntity
  8
CURVE
100
AcDbLine
 62
250
  6
CONTINUOUS
 10
11.0950101842
 20
10.5319148926
 11
11.0977371229
 21
10.5
  0
LINE
  5
65F
100
AcDbEntity
  8
CURVE
100
AcDbLine
 62
250
  6
CONTINUOUS
 10
11.126097282
 20
12.0
 11
11.1288242226
 21
11.9680851102
  0
LINE
  5
660
100
AcDbEntity
  8
CURVE
100
AcDbLine
 62
250
  6
CONTINUOUS
 10
11.0977371229
 20
10.6914893612
 11
11.0955555718
 21
10.723404251
  0
LINE
  5
661
100
AcDbEntity
  8
CURVE
100
AcDbLine
 62
250
  6
CONTINUOUS
 10
11.1282788339
 20
11.8085106611
 11
11.1266426708
 21
11.8404255509
  0
LWPOLYLINE
  5
662
100
AcDbEntity
  8
CURVE
100
AcDbPolyline
 62
250
  6
CONTINUOUS
 90
8
 70
0
 10
11.1198126106
 20
0.5768518148
 10
11.1196235108
 20
0.5813082903
 10
11.1194311022
 20
0.5851473992
 10
11.1192353905
 20
0.5883442673
 10
11.1190363816
 20
0.5908740201
 10
11.1188340814
 20
0.5927117832
 10
11.1186284956
 20
0.5938326824
 10
11.11841963
 20
0.594211843
  0
LINE
  5
663
100
AcDbEntity
  8
CURVE
100
AcDbLine
 62
250
  6
CONTINUOUS
 10
11.0928286332
 20
10.5957446806
 11
11.0950101842
 21
10.5319148926
  0
LINE
  5
664
100
AcDbEntity
  8
CURVE
100
AcDbLine
 62
250
  6
CONTINUOUS
 10
11.1201808604
 20
0.566186262
 11
11.1198126106
 21
0.5768518148
  0
LWPOLYLINE
  5
665
100
AcDbEntity
  8
ASSI
100
AcDbPolyline
 62
7
  6
CONTINUOUS
 90
9
 70
0
 10
10.9455022059
 20
-6.5699854419
 10
10.9444271401
 20
-6.5366124635
 10
10.9433214504
 20
-6.5074552755
 10
10.9421857975
 20
-6.4825570117
 10
10.9410195205
 20
-6.4618745384
 10
10.9398322287
 20
-6.4456233384
 10
10.9386271252
 20
-6.4338752395
 10
10.9374010069
 20
-6.426558414
 10
10.9361538737
 20
-6.4236728618
  0
LWPOLYLINE
  5
666
100
AcDbEntity
  8
ASSI
100
AcDbPolyline
 62
7
  6
CONTINUOUS
 90
9
 70
0
 10
10.9455022059
 20
-1.5699854419
 10
10.9444271401
 20
-1.5366124635
 10
10.9433214504
 20
-1.5074552755
 10
10.9421857975
 20
-1.4825570117
 10
10.9410195205
 20
-1.4618745384
 10
10.9398322287
 20
-1.4456233384
 10
10.9386271252
 20
-1.4338752395
 10
10.9374010069
 20
-1.426558414
 10
10.9361538737
 20
-1.4236728618
  0
LWPOLYLINE
  5
667
100
AcDbEntity
  8
ASSI
100
AcDbPolyline
 62
7
  6
CONTINUOUS
 90
9
 70
0
 10
10.9455022059
 20
3.4300145581
 10
10.9444271401
 20
3.4633875365
 10
10.9433214504
 20
3.4925447245
 10
10.9421857975
 20
3.5174429883
 10
10.9410195205
 20
3.5381254616
 10
10.9398322287
 20
3.5543766616
 10
10.9386271252
 20
3.5661247605
 10
10.9374010069
 20
3.573441586
 10
10.9361538737
 20
3.5763271382
  0
LWPOLYLINE
  5
668
100
AcDbEntity
  8
ASSI
100
AcDbPolyline
 62
7
  6
CONTINUOUS
 90
9
 70
0
 10
10.9455022059
 20
8.4300145581
 10
10.9444271401
 20
8.4633875365
 10
10.9433214504
 20
8.4925447245
 10
10.9421857975
 20
8.5174429883
 10
10.9410195205
 20
8.5381254616
 10
10.9398322287
 20
8.5543766616
 10
10.9386271252
 20
8.5661247605
 10
10.9374010069
 20
8.573441586
 10
10.9361538737
 20
8.5763271382
  0
LWPOLYLINE
  5
669
100
AcDbEntity
  8
ASSI
100
AcDbPolyline
 62
7
  6
CONTINUOUS
 90
9
 70
0
 10
10.9455022059
 20
13.4300145581
 10
10.9444271401
 20
13.4633875365
 10
10.9433214504
 20
13.4925447245
 10
10.9421857975
 20
13.5174429883
 10
10.9410195205
 20
13.5381254616
 10
10.9398322287
 20
13.5543766616
 10
10.9386271252
 20
13.5661247605
 10
10.9374010069
 20
13.573441586
 10
10.9361538737
 20
13.5763271382
  0
LWPOLYLINE
  5
66A
100
AcDbEntity
  8
ASSI
100
AcDbPolyline
 62
7
  6
CONTINUOUS
 90
13
 70
0
 10
10.5041625977
 20
15.8937104774
 10
10.5008912169
 20
16.0071515073
 10
10.4913520096
 20
16.1195182483
 10
10.4755449758
 20
16.2308107006
 10
10.4533800157
 20
16.3413751601
 10
10.424947229
 20
16.4508653309
 10
10.3905169152
 20
16.5582423245
 10
10.3500323012
 20
16.6634861238
 10
10.3035501601
 20
16.7666167458
 10
10.2515111102
 20
16.8666553531
 10
10.1940620244
 20
16.9632756664
 10
10.1310560299
 20
17.056803965
 10
10.0624931267
 20
17.1472402488
  0
LWPOLYLINE
  5
66B
100
AcDbEntity
  8
CURVE
100
AcDbPolyline
 62
250
  6
CONTINUOUS
 90
8
 70
0
 10
11.0845053699
 20
6.478913
 10
11.078495549
 20
6.6909273374
 10
11.0718313683
 20
6.8240507102
 10
11.0647096989
 20
6.8721314999
 10
11.0576880213
 20
6.8314059682
 10
11.0508789671
 20
6.7025273761
 10
11.0448155455
 20
6.4955842702
 10
11.0395581617
 20
6.2114121875
  0
LINE
  5
66C
100
AcDbEntity
  8
CURVE
100
AcDbLine
 62
250
  6
CONTINUOUS
 10
11.120535805
 20
0.553349736
 11
11.1201808604
 21
0.566186262
  0
LINE
  5
66D
100
AcDbEntity
  8
CURVE
100
AcDbLine
 62
250
  6
CONTINUOUS
 10
11.0955555718
 20
10.723404251
 11
11.0939194087
 21
10.787234053
  0
LINE
  5
66E
100
AcDbEntity
  8
ASSI
100
AcDbLine
 62
7
  6
CONTINUOUS
 10
10.9475265961
 20
-6.6484663744
 11
10.9455022059
 21
-6.5699854419
  0
LINE
  5
66F
100
AcDbEntity
  8
ASSI
100
AcDbLine
 62
7
  6
CONTINUOUS
 10
10.9475265961
 20
-1.6484663744
 11
10.9455022059
 21
-1.5699854419
  0
LINE
  5
670
100
AcDbEntity
  8
ASSI
100
AcDbLine
 62
7
  6
CONTINUOUS
 10
10.9475265961
 20
3.3515336256
 11
10.9455022059
 21
3.4300145581
  0
LINE
  5
671
100
AcDbEntity
  8
ASSI
100
AcDbLine
 62
7
  6
CONTINUOUS
 10
10.9475265961
 20
8.3515336256
 11
10.9455022059
 21
8.4300145581
  0
LINE
  5
672
100
AcDbEntity
  8
ASSI
100
AcDbLine
 62
7
  6
CONTINUOUS
 10
10.9475265961
 20
13.3515336256
 11
10.9455022059
 21
13.4300145581
  0
LINE
  5
673
100
AcDbEntity
  8
CURVE
100
AcDbLine
 62
250
  6
CONTINUOUS
 10
11.1288242226
 20
11.9680851102
 11
11.1310057713
 21
11.8723404408
  0
LINE
  5
674
100
AcDbEntity
  8
ASSI
100
AcDbLine
 62
7
  6
CONTINUOUS
 10
10.9484759205
 20
-11.6935743286
 11
10.9465350555
 21
-11.6072293266
  0
LINE
  5
675
100
AcDbEntity
  8
CURVE
100
AcDbLine
 62
250
  6
CONTINUOUS
 10
11.1210431727
 20
0.5304596738
 11
11.120535805
 21
0.553349736
  0
LINE
  5
676
100
AcDbEntity
  8
ASSI
100
AcDbLine
 62
7
  6
CONTINUOUS
 10
10.9493687159
 20
-6.7418415343
 11
10.9475265961
 21
-6.6484663744
  0
LINE
  5
677
100
AcDbEntity
  8
ASSI
100
AcDbLine
 62
7
  6
CONTINUOUS
 10
10.9493687159
 20
-1.7418415343
 11
10.9475265961
 21
-1.6484663744
  0
LINE
  5
678
100
AcDbEntity
  8
ASSI
100
AcDbLine
 62
7
  6
CONTINUOUS
 10
10.9493687159
 20
3.2581584657
 11
10.9475265961
 21
3.3515336256
  0
LINE
  5
679
100
AcDbEntity
  8
ASSI
100
AcDbLine
 62
7
  6
CONTINUOUS
 10
10.9493687159
 20
8.2581584657
 11
10.9475265961
 21
8.3515336256
  0
LINE
  5
67A
100
AcDbEntity
  8
ASSI
100
AcDbLine
 62
7
  6
CONTINUOUS
 10
10.9493687159
 20
13.2581584657
 11
10.9475265961
 21
13.3515336256
  0
LWPOLYLINE
  5
67B
100
AcDbEntity
  8
CURVE
100
AcDbPolyline
 62
250
  6
CONTINUOUS
 90
8
 70
0
 10
11.0395581631
 20
3.788588
 10
11.0446792498
 20
3.5103286928
 10
11.0507236911
 20
3.3015706609
 10
11.0575208831
 20
3.1706525303
 10
11.0645387452
 20
3.1278225016
 10
11.0716647068
 20
3.1737675932
 10
11.0783409515
 20
3.3048912481
 10
11.0845053667
 20
3.5210870881
  0
LINE
  5
67C
100
AcDbEntity
  8
CURVE
100
AcDbLine
 62
250
  6
CONTINUOUS
 10
11.0468301583
 20
1.875622
 11
11.1342715663
 21
-3.06101
  0
LINE
  5
67D
100
AcDbEntity
  8
CURVE
100
AcDbLine
 62
250
  6
CONTINUOUS
 10
11.0906470825
 20
10.723404251
 11
11.0928286332
 21
10.5957446806
  0
LINE
  5
67E
100
AcDbEntity
  8
CURVE
100
AcDbLine
 62
250
  6
CONTINUOUS
 10
11.1293696082
 20
11.7446808815
 11
11.1282788339
 21
11.8085106611
  0
LINE
  5
67F
100
AcDbEntity
  8
CURVE
100
AcDbLine
 62
250
  6
CONTINUOUS
 10
11.1218215996
 20
0.4842738012
 11
11.1210431727
 21
0.5304596738
  0
LWPOLYLINE
  5
680
100
AcDbEntity
  8
CURVE
100
AcDbPolyline
 62
250
  6
CONTINUOUS
 90
6
 70
0
 10
11.0572383699
 20
-1.5404527289
 10
11.0579357273
 20
-1.5892714568
 10
11.0587716351
 20
-1.6286140196
 10
11.0597249888
 20
-1.6579041793
 10
11.0607594755
 20
-1.6760262829
 10
11.0618550402
 20
-1.682292
  0
LWPOLYLINE
  5
681
100
AcDbEntity
  8
CURVE
100
AcDbPolyline
 62
250
  6
CONTINUOUS
 90
6
 70
0
 10
11.0598125189
 20
-1.4424570466
 10
11.0601210458
 20
-1.4640555738
 10
11.0604908706
 20
-1.4814616278
 10
11.0609126562
 20
-1.4944202676
 10
11.0613703369
 20
-1.5024379027
 10
11.0618550399
 20
-1.50521
  0
LWPOLYLINE
  5
682
100
AcDbEntity
  8
CURVE
100
AcDbPolyline
 62
250
  6
CONTINUOUS
 90
6
 70
0
 10
11.0638975605
 20
-1.2869429534
 10
11.0635890335
 20
-1.2653444262
 10
11.0632192087
 20
-1.2479383722
 10
11.0627974231
 20
-1.2349797324
 10
11.0623397424
 20
-1.2269620972
 10
11.0618550395
 20
-1.22419
  0
LWPOLYLINE
  5
683
100
AcDbEntity
  8
CURVE
100
AcDbPolyline
 62
250
  6
CONTINUOUS
 90
6
 70
0
 10
11.0664717094
 20
-1.1889472711
 10
11.065774352
 20
-1.1401285431
 10
11.0649384442
 20
-1.1007859804
 10
11.0639850905
 20
-1.0714958207
 10
11.0629506038
 20
-1.0533737171
 10
11.0618550392
 20
-1.047108
  0
LWPOLYLINE
  5
684
100
AcDbEntity
  8
CURVE
100
AcDbPolyline
 62
250
  6
CONTINUOUS
 90
6
 70
0
 10
11.1174435434
 20
-1.8964862513
 10
11.1178664083
 20
-1.9260890381
 10
11.1183732875
 20
-1.9499456511
 10
11.1189513838
 20
-1.96770667
 10
11.1195786777
 20
-1.9786955833
 10
11.1202430081
 20
-1.982495
  0
LWPOLYLINE
  5
685
100
AcDbEntity
  8
CURVE
100
AcDbPolyline
 62
250
  6
CONTINUOUS
 90
6
 70
0
 10
11.1230424722
 20
-1.6833397487
 10
11.1226196074
 20
-1.6537369619
 10
11.1221127282
 20
-1.6298803489
 10
11.1215346319
 20
-1.61211933
 10
11.120907338
 20
-1.6011304166
 10
11.1202430075
 20
-1.597331
  0
LINE
  5
686
100
AcDbEntity
  8
ASSI
100
AcDbLine
 62
7
  6
CONTINUOUS
 10
10.9509823349
 20
-11.8478536022
 11
10.9484759205
 21
-11.6935743286
  0
LINE
  5
687
100
AcDbEntity
  8
CURVE
100
AcDbLine
 62
250
  6
CONTINUOUS
 10
11.0644701819
 20
5.0
 11
11.0845053699
 21
3.521087
  0
LINE
  5
688
100
AcDbEntity
  8
CURVE
100
AcDbLine
 62
250
  6
CONTINUOUS
 10
11.1310057713
 20
11.8723404408
 11
11.1326419344
 21
11.7446808815
  0
LINE
  5
689
100
AcDbEntity
  8
ASSI
100
AcDbLine
 62
7
  6
CONTINUOUS
 10
10.9516936149
 20
-6.9048870053
 11
10.9493687159
 21
-6.7418415343
  0
LINE
  5
68A
100
AcDbEntity
  8
ASSI
100
AcDbLine
 62
7
  6
CONTINUOUS
 10
10.9516936149
 20
-1.9048870053
 11
10.9493687159
 21
-1.7418415343
  0
LINE
  5
68B
100
AcDbEntity
  8
ASSI
100
AcDbLine
 62
7
  6
CONTINUOUS
 10
10.9516936149
 20
3.0951129947
 11
10.9493687159
 21
3.2581584657
  0
LINE
  5
68C
100
AcDbEntity
  8
ASSI
100
AcDbLine
 62
7
  6
CONTINUOUS
 10
10.9516936149
 20
8.0951129947
 11
10.9493687159
 21
8.2581584657
  0
LINE
  5
68D
100
AcDbEntity
  8
ASSI
100
AcDbLine
 62
7
  6
CONTINUOUS
 10
10.9516936149
 20
13.0951129947
 11
10.9493687159
 21
13.2581584657
  0
LWPOLYLINE
  5
68E
100
AcDbEntity
  8
CURVE
100
AcDbPolyline
 62
250
  6
CONTINUOUS
 90
5
 70
0
 10
11.0901311762
 20
-14.9667827394
 10
11.0863114837
 20
-14.6493656747
 10
11.0814782733
 20
-14.3900931857
 10
11.075797987
 20
-14.195199708
 10
11.0694000124
 20
-14.0718735574
  0
LINE
  5
68F
100
AcDbEntity
  8
CURVE
100
AcDbLine
 62
250
  6
CONTINUOUS
 10
11.0939194087
 20
10.787234053
 11
11.0928286332
 21
10.8829787225
  0
LWPOLYLINE
  5
690
100
AcDbEntity
  8
CURVE
100
AcDbPolyline
 62
250
  6
CONTINUOUS
 90
14
 70
0
 10
11.0906313628
 20
-10.6871047723
 10
11.0872774305
 20
-10.3817784884
 10
11.0830031942
 20
-10.1253784414
 10
11.0778338026
 20
-9.9194132315
 10
11.0720472022
 20
-9.7772139604
 10
11.0658797727
 20
-9.7045893973
 10
11.0596916581
 20
-9.7038888051
 10
11.053519268
 20
-9.7751163058
 10
11.0477229056
 20
-9.9160042026
 10
11.0425393495
 20
-10.1207972953
 10
11.0381803453
 20
-10.3811298882
 10
11.0348724994
 20
-10.6807919886
 10
11.0326352745
 20
-11.0180204519
 10
11.031891439
 20
-11.735409967
  0
LINE
  5
691
100
AcDbEntity
  8
CURVE
100
AcDbLine
 62
250
  6
CONTINUOUS
 10
11.123009054
 20
0.3847067152
 11
11.1218215996
 21
0.4842738012
  0
LINE
  5
692
100
AcDbEntity
  8
CURVE
100
AcDbLine
 62
250
  6
CONTINUOUS
 10
11.0890109194
 20
13.5
 11
11.0628323097
 21
16.0980762114
  0
LINE
  5
693
100
AcDbEntity
  8
ASSI
100
AcDbLine
 62
7
  6
CONTINUOUS
 10
10.9529117505
 20
-12.0263008181
 11
10.9509823349
 21
-11.8478536022
  0
LWPOLYLINE
  5
694
100
AcDbEntity
  8
CURVE
100
AcDbPolyline
 62
250
  6
CONTINUOUS
 90
7
 70
0
 10
11.0241327028
 20
4.0473572123
 10
11.0281302465
 20
3.616569272
 10
11.0336194681
 20
3.2322945653
 10
11.0401992836
 20
2.9226111225
 10
11.0477035699
 20
2.6920547765
 10
11.0558464914
 20
2.549407347
 10
11.0644701857
 20
2.500087
  0
LWPOLYLINE
  5
695
100
AcDbEntity
  8
CURVE
100
AcDbPolyline
 62
250
  6
CONTINUOUS
 90
7
 70
0
 10
11.1048076609
 20
5.9526427878
 10
11.1008101172
 20
6.383430728
 10
11.0953208956
 20
6.7677054347
 10
11.0887410801
 20
7.0773888775
 10
11.0812367938
 20
7.3079452235
 10
11.0730938723
 20
7.450592653
 10
11.064470178
 20
7.499913
  0
LINE
  5
696
100
AcDbEntity
  8
CURVE
100
AcDbLine
 62
250
  6
CONTINUOUS
 10
11.0895563071
 20
10.8510638326
 11
11.0906470825
 21
10.723404251
  0
LINE
  5
697
100
AcDbEntity
  8
ASSI
100
AcDbLine
 62
7
  6
CONTINUOUS
 10
10.953839395
 20
-7.1553682873
 11
10.9516936149
 21
-6.9048870053
  0
LINE
  5
698
100
AcDbEntity
  8
ASSI
100
AcDbLine
 62
7
  6
CONTINUOUS
 10
10.953839395
 20
-2.1553682873
 11
10.9516936149
 21
-1.9048870053
  0
LINE
  5
699
100
AcDbEntity
  8
ASSI
100
AcDbLine
 62
7
  6
CONTINUOUS
 10
10.953839395
 20
2.8446317127
 11
10.9516936149
 21
3.0951129947
  0
LINE
  5
69A
100
AcDbEntity
  8
ASSI
100
AcDbLine
 62
7
  6
CONTINUOUS
 10
10.953839395
 20
7.8446317127
 11
10.9516936149
 21
8.0951129947
  0
LINE
  5
69B
100
AcDbEntity
  8
ASSI
100
AcDbLine
 62
7
  6
CONTINUOUS
 10
10.953839395
 20
12.8446317127
 11
10.9516936149
 21
13.0951129947
  0
LINE
  5
69C
100
AcDbEntity
  8
CURVE
100
AcDbLine
 62
250
  6
CONTINUOUS
 10
11.129914997
 20
11.6489362121
 11
11.1293696082
 21
11.7446808815
  0
LINE
  5
69D
100
AcDbEntity
  8
CURVE
100
AcDbLine
 62
250
  6
CONTINUOUS
 10
11.1326419344
 20
11.7446808815
 11
11.1331873232
 21
11.6489362121
  0
LINE
  5
69E
100
AcDbEntity
  8
CURVE
100
AcDbLine
 62
250
  6
CONTINUOUS
 10
11.1246400578
 20
0.1653847117
 11
11.123009054
 21
0.3847067152
  0
LINE
  5
69F
100
AcDbEntity
  8
CURVE
100
AcDbLine
 62
250
  6
CONTINUOUS
 10
11.0564178557
 20
-1.4263872761
 11
11.0572383699
 21
-1.5404527289
  0
LINE
  5
6A0
100
AcDbEntity
  8
CURVE
100
AcDbLine
 62
250
  6
CONTINUOUS
 10
11.0594495045
 20
-1.3919918687
 11
11.0598125189
 21
-1.4424570466
  0
LINE
  5
6A1
100
AcDbEntity
  8
CURVE
100
AcDbLine
 62
250
  6
CONTINUOUS
 10
11.0642605748
 20
-1.3374081313
 11
11.0638975605
 21
-1.2869429534
  0
LINE
  5
6A2
100
AcDbEntity
  8
CURVE
100
AcDbLine
 62
250
  6
CONTINUOUS
 10
11.0672922236
 20
-1.3030127239
 11
11.0664717094
 21
-1.1889472711
  0
LINE
  5
6A3
100
AcDbEntity
  8
CURVE
100
AcDbLine
 62
250
  6
CONTINUOUS
 10
11.1169459986
 20
-1.8273190398
 11
11.1174435434
 21
-1.8964862513
  0
LINE
  5
6A4
100
AcDbEntity
  8
CURVE
100
AcDbLine
 62
250
  6
CONTINUOUS
 10
11.1235400171
 20
-1.7525069602
 11
11.1230424722
 21
-1.6833397487
  0
LINE
  5
6A5
100
AcDbEntity
  8
ASSI
100
AcDbLine
 62
7
  6
CONTINUOUS
 10
10.9544661328
 20
-12.290612472
 11
10.9529117505
 21
-12.0263008181
  0
LINE
  5
6A6
100
AcDbEntity
  8
CURVE
100
AcDbLine
 62
250
  6
CONTINUOUS
 10
11.0208406841
 20
5.0
 11
11.0241327028
 21
4.0473572123
  0
LINE
  5
6A7
100
AcDbEntity
  8
ASSI
100
AcDbLine
 62
7
  6
CONTINUOUS
 10
10.9547803715
 20
-7.4298805564
 11
10.953839395
 21
-7.1553682873
  0
LINE
  5
6A8
100
AcDbEntity
  8
ASSI
100
AcDbLine
 62
7
  6
CONTINUOUS
 10
10.9547803715
 20
-2.4298805564
 11
10.953839395
 21
-2.1553682873
  0
LINE
  5
6A9
100
AcDbEntity
  8
ASSI
100
AcDbLine
 62
7
  6
CONTINUOUS
 10
10.9547803715
 20
2.5701194436
 11
10.953839395
 21
2.8446317127
  0
LINE
  5
6AA
100
AcDbEntity
  8
ASSI
100
AcDbLine
 62
7
  6
CONTINUOUS
 10
10.9547803715
 20
7.5701194436
 11
10.953839395
 21
7.8446317127
  0
LINE
  5
6AB
100
AcDbEntity
  8
ASSI
100
AcDbLine
 62
7
  6
CONTINUOUS
 10
10.9547803715
 20
12.5701194436
 11
10.953839395
 21
12.8446317127
  0
LINE
  5
6AC
100
AcDbEntity
  8
CURVE
100
AcDbLine
 62
250
  6
CONTINUOUS
 10
11.1260186083
 20
-0.3430726704
 11
11.1246400578
 21
0.1653847117
  0
LINE
  5
6AD
100
AcDbEntity
  8
CURVE
100
AcDbLine
 62
250
  6
CONTINUOUS
 10
11.0103594806
 20
-2.592362
 11
11.0103594806
 21
1.592362
  0
LINE
  5
6AE
100
AcDbEntity
  8
CURVE
100
AcDbLine
 62
250
  6
CONTINUOUS
 10
11.0157108124
 20
-8.3
 11
11.0157108124
 21
-3.3
  0
LINE
  5
6AF
100
AcDbEntity
  8
CURVE
100
AcDbLine
 62
250
  6
CONTINUOUS
 10
11.0281436922
 20
1.592362
 11
11.0281436922
 21
-2.592362
  0
LINE
  5
6B0
100
AcDbEntity
  8
CURVE
100
AcDbLine
 62
250
  6
CONTINUOUS
 10
11.0327571
 20
5.275321
 11
11.0327571
 21
4.724679
  0
LINE
  5
6B1
100
AcDbEntity
  8
CURVE
100
AcDbLine
 62
250
  6
CONTINUOUS
 10
11.0375263204
 20
-4.55
 11
11.0375263204
 21
-7.05
  0
LINE
  5
6B2
100
AcDbEntity
  8
CURVE
100
AcDbLine
 62
250
  6
CONTINUOUS
 10
11.0497430049
 20
8.5
 11
11.0497430049
 21
13.5
  0
LINE
  5
6B3
100
AcDbEntity
  8
CURVE
100
AcDbLine
 62
250
  6
CONTINUOUS
 10
11.0560489205
 20
-15.56041
 11
11.0560489205
 21
-14.071874
  0
LINE
  5
6B4
100
AcDbEntity
  8
CURVE
100
AcDbLine
 62
250
  6
CONTINUOUS
 10
11.056312295
 20
0.100497
 11
11.056312295
 21
0.218117
  0
LINE
  5
6B5
100
AcDbEntity
  8
CURVE
100
AcDbLine
 62
250
  6
CONTINUOUS
 10
11.0597407854
 20
0.274826
 11
11.0597407854
 21
-1.071041
  0
LINE
  5
6B6
100
AcDbEntity
  8
CURVE
100
AcDbLine
 62
250
  6
CONTINUOUS
 10
11.0694000114
 20
-15.56041
 11
11.0694000114
 21
-14.071874
  0
LINE
  5
6B7
100
AcDbEntity
  8
CURVE
100
AcDbLine
 62
250
  6
CONTINUOUS
 10
11.0759216146
 20
8.5
 11
11.0759216146
 21
13.5
  0
LINE
  5
6B8
100
AcDbEntity
  8
CURVE
100
AcDbLine
 62
250
  6
CONTINUOUS
 10
11.0811573365
 20
-4.55
 11
11.0811573365
 21
-7.05
  0
LINE
  5
6B9
100
AcDbEntity
  8
CURVE
100
AcDbLine
 62
250
  6
CONTINUOUS
 10
11.0890109194
 20
12.0
 11
11.0895563071
 21
10.8510638326
  0
LINE
  5
6BA
100
AcDbEntity
  8
CURVE
100
AcDbLine
 62
250
  6
CONTINUOUS
 10
11.0928286332
 20
10.8829787225
 11
11.0922832456
 21
12.0
  0
LINE
  5
6BB
100
AcDbEntity
  8
CURVE
100
AcDbLine
 62
250
  6
CONTINUOUS
 10
11.0961832637
 20
5.275321
 11
11.0961832637
 21
4.724679
  0
LINE
  5
6BC
100
AcDbEntity
  8
CURVE
100
AcDbLine
 62
250
  6
CONTINUOUS
 10
11.1002093381
 20
-1.11141
 11
11.1002093381
 21
-0.28807
  0
LINE
  5
6BD
100
AcDbEntity
  8
CURVE
100
AcDbLine
 62
250
  6
CONTINUOUS
 10
11.1029728445
 20
-8.3
 11
11.1029728445
 21
-3.3
  0
LINE
  5
6BE
100
AcDbEntity
  8
CURVE
100
AcDbLine
 62
250
  6
CONTINUOUS
 10
11.1039727052
 20
-0.28807
 11
11.1039727052
 21
-1.11141
  0
LINE
  5
6BF
100
AcDbEntity
  8
CURVE
100
AcDbLine
 62
250
  6
CONTINUOUS
 10
11.1055855868
 20
-1.917947
 11
11.1055855868
 21
-1.567887
  0
LWPOLYLINE
  5
6C0
100
AcDbEntity
  8
CURVE
100
AcDbPolyline
 62
250
  6
CONTINUOUS
 90
18
 70
0
 10
11.1070050257
 20
-11.73541
 10
11.1070261228
 20
-11.2377386725
 10
11.1053597836
 20
-10.7493106204
 10
11.1020694783
 20
-10.2887299166
 10
11.0971824323
 20
-9.866638176
 10
11.0910557302
 20
-9.5138766288
 10
11.0838498991
 20
-9.2360197266
 10
11.0756908789
 20
-9.0410426822
 10
11.0671748296
 20
-8.943192
 10
11.0584892673
 20
-8.9419831631
 10
11.0498162751
 20
-9.0400291121
 10
11.0417895678
 20
-9.2301658649
 10
11.0345602642
 20
-9.5060137176
 10
11.0283050408
 20
-9.8639400838
 10
11.0234809518
 20
-10.2777921433
 10
11.0201516361
 20
-10.7374515432
 10
11.0184286413
 20
-11.2342680971
 10
11.0184439063
 20
-11.7354100894
  0
LWPOLYLINE
  5
6C1
100
AcDbEntity
  8
CURVE
100
AcDbPolyline
 62
250
  6
CONTINUOUS
 90
18
 70
0
 10
11.1070050257
 20
-16.07041
 10
11.1070261228
 20
-15.5727386725
 10
11.1053597836
 20
-15.0843106204
 10
11.1020694783
 20
-14.6237299166
 10
11.0971824323
 20
-14.201638176
 10
11.0910557302
 20
-13.8488766288
 10
11.0838498991
 20
-13.5710197266
 10
11.0756908789
 20
-13.3760426822
 10
11.0671748296
 20
-13.278192
 10
11.0584892673
 20
-13.2769831631
 10
11.0498162751
 20
-13.3750291121
 10
11.0417895678
 20
-13.5651658649
 10
11.0345602642
 20
-13.8410137176
 10
11.0283050408
 20
-14.1989400838
 10
11.0234809518
 20
-14.6127921433
 10
11.0201516361
 20
-15.0724515432
 10
11.0184286413
 20
-15.5692680971
 10
11.0184439063
 20
-16.0704100894
  0
LINE
  5
6C2
100
AcDbEntity
  8
CURVE
100
AcDbLine
 62
250
  6
CONTINUOUS
 10
11.11208598
 20
-1.567887
 11
11.11208598
 21
-1.917947
  0
LINE
  5
6C3
100
AcDbEntity
  8
CURVE
100
AcDbLine
 62
250
  6
CONTINUOUS
 10
11.1130079788
 20
10.5
 11
11.1130079788
 21
12.0
  0
LINE
  5
6C4
100
AcDbEntity
  8
CURVE
100
AcDbLine
 62
250
  6
CONTINUOUS
 10
11.1162803034
 20
11.8404255509
 11
11.1162803034
 21
11.3617021143
  0
LINE
  5
6C5
100
AcDbEntity
  8
CURVE
100
AcDbLine
 62
250
  6
CONTINUOUS
 10
11.1162803034
 20
11.1702127755
 11
11.1162803034
 21
10.5
  0
LINE
  5
6C6
100
AcDbEntity
  8
CURVE
100
AcDbLine
 62
250
  6
CONTINUOUS
 10
11.1184196328
 20
0.809973
 11
11.1184196328
 21
-1.627934
  0
LINE
  5
6C7
100
AcDbEntity
  8
CURVE
100
AcDbLine
 62
250
  6
CONTINUOUS
 10
11.1231237544
 20
-0.916076
 11
11.1231334928
 21
-0.343073
  0
LINE
  5
6C8
100
AcDbEntity
  8
CURVE
100
AcDbLine
 62
250
  6
CONTINUOUS
 10
11.1253066665
 20
0.281784
 11
11.1253066665
 21
0.18241
  0
LINE
  5
6C9
100
AcDbEntity
  8
CURVE
100
AcDbLine
 62
250
  6
CONTINUOUS
 10
11.129914997
 20
11.5531914532
 11
11.129914997
 21
11.6489362121
  0
LINE
  5
6CA
100
AcDbEntity
  8
CURVE
100
AcDbLine
 62
250
  6
CONTINUOUS
 10
11.1331873232
 20
11.6489362121
 11
11.1331873232
 21
11.5212765634
  0
LINE
  5
6CB
100
AcDbEntity
  8
ASSI
100
AcDbLine
 62
7
  6
CONTINUOUS
 10
11.15
 20
-21.8997711479
 11
11.15
 21
21.8997711479
  0
LINE
  5
6CC
100
AcDbEntity
  8
ASSI
100
AcDbLine
 62
7
  6
CONTINUOUS
 10
10.9547803715
 20
-12.5701194434
 11
10.9544661328
 21
-12.290612472
  0
LWPOLYLINE
  5
6CD
100
AcDbEntity
  8
CURVE
100
AcDbPolyline
 62
250
  6
CONTINUOUS
 90
3
 70
0
 10
11.0935574928
 20
-16.07041
 10
11.0938016286
 20
-15.6913052257
 10
11.0901311762
 20
-14.9667827394
  0
LWPOLYLINE
  5
6CE
100
AcDbEntity
  8
CURVE
100
AcDbPolyline
 62
250
  6
CONTINUOUS
 90
3
 70
0
 10
11.0935574928
 20
-11.73541
 10
11.0938288404
 20
-11.3811795075
 10
11.0906313628
 20
-10.6871047723
  0
LINE
  5
6CF
100
AcDbEntity
  8
CURVE
100
AcDbLine
 62
250
  6
CONTINUOUS
 10
11.0564216469
 20
-1.3019256099
 11
11.0564178557
 21
-1.4263872761
  0
LINE
  5
6D0
100
AcDbEntity
  8
CURVE
100
AcDbLine
 62
250
  6
CONTINUOUS
 10
11.0594511818
 20
-1.3369271671
 11
11.0594495045
 21
-1.3919918687
  0
LINE
  5
6D1
100
AcDbEntity
  8
CURVE
100
AcDbLine
 62
250
  6
CONTINUOUS
 10
11.0642588975
 20
-1.3924728329
 11
11.0642605748
 21
-1.3374081313
  0
LINE
  5
6D2
100
AcDbEntity
  8
CURVE
100
AcDbLine
 62
250
  6
CONTINUOUS
 10
11.0672884325
 20
-1.42747439
 11
11.0672922236
 21
-1.3030127239
  0
LINE
  5
6D3
100
AcDbEntity
  8
CURVE
100
AcDbLine
 62
250
  6
CONTINUOUS
 10
11.1169482975
 20
-1.7518477541
 11
11.1169459986
 21
-1.8273190398
  0
LINE
  5
6D4
100
AcDbEntity
  8
CURVE
100
AcDbLine
 62
250
  6
CONTINUOUS
 10
11.1235377182
 20
-1.8279782459
 11
11.1235400171
 21
-1.7525069602
  0
LINE
  5
6D5
100
AcDbEntity
  8
ASSI
100
AcDbLine
 62
7
  6
CONTINUOUS
 10
10.9544661328
 20
12.2906124722
 11
10.9547803715
 21
12.5701194436
  0
LINE
  5
6D6
100
AcDbEntity
  8
ASSI
100
AcDbLine
 62
7
  6
CONTINUOUS
 10
10.9544661328
 20
7.2906124722
 11
10.9547803715
 21
7.5701194436
  0
LINE
  5
6D7
100
AcDbEntity
  8
ASSI
100
AcDbLine
 62
7
  6
CONTINUOUS
 10
10.9544661328
 20
2.2906124722
 11
10.9547803715
 21
2.5701194436
  0
LINE
  5
6D8
100
AcDbEntity
  8
ASSI
100
AcDbLine
 62
7
  6
CONTINUOUS
 10
10.9544661328
 20
-2.7093875278
 11
10.9547803715
 21
-2.4298805564
  0
LINE
  5
6D9
100
AcDbEntity
  8
ASSI
100
AcDbLine
 62
7
  6
CONTINUOUS
 10
10.9544661328
 20
-7.7093875278
 11
10.9547803715
 21
-7.4298805564
  0
LINE
  5
6DA
100
AcDbEntity
  8
CURVE
100
AcDbLine
 62
250
  6
CONTINUOUS
 10
11.1080994894
 20
10.8510638326
 11
11.1086448766
 21
12.0
  0
LINE
  5
6DB
100
AcDbEntity
  8
CURVE
100
AcDbLine
 62
250
  6
CONTINUOUS
 10
11.0201353747
 20
4.1097079503
 11
11.0217014429
 21
5.4941261548
  0
LINE
  5
6DC
100
AcDbEntity
  8
CURVE
100
AcDbLine
 62
250
  6
CONTINUOUS
 10
11.1053725504
 20
12.0
 11
11.1048271632
 21
10.8829787225
  0
LINE
  5
6DD
100
AcDbEntity
  8
CURVE
100
AcDbLine
 62
250
  6
CONTINUOUS
 10
11.1250384363
 20
-1.1694941211
 11
11.1269292865
 21
-0.343073
  0
LINE
  5
6DE
100
AcDbEntity
  8
ASSI
100
AcDbLine
 62
7
  6
CONTINUOUS
 10
10.953839395
 20
-12.8446317126
 11
10.9547803715
 21
-12.5701194434
  0
LINE
  5
6DF
100
AcDbEntity
  8
CURVE
100
AcDbLine
 62
250
  6
CONTINUOUS
 10
11.1293696082
 20
11.4574467838
 11
11.129914997
 21
11.5531914532
  0
LINE
  5
6E0
100
AcDbEntity
  8
CURVE
100
AcDbLine
 62
250
  6
CONTINUOUS
 10
11.1331873232
 20
11.5212765634
 11
11.1326419344
 21
11.425531894
  0
LINE
  5
6E1
100
AcDbEntity
  8
ASSI
100
AcDbLine
 62
7
  6
CONTINUOUS
 10
10.9529117505
 20
12.0263008181
 11
10.9544661328
 21
12.2906124722
  0
LINE
  5
6E2
100
AcDbEntity
  8
ASSI
100
AcDbLine
 62
7
  6
CONTINUOUS
 10
10.9529117505
 20
7.0263008181
 11
10.9544661328
 21
7.2906124722
  0
LINE
  5
6E3
100
AcDbEntity
  8
ASSI
100
AcDbLine
 62
7
  6
CONTINUOUS
 10
10.9529117505
 20
2.0263008181
 11
10.9544661328
 21
2.2906124722
  0
LINE
  5
6E4
100
AcDbEntity
  8
ASSI
100
AcDbLine
 62
7
  6
CONTINUOUS
 10
10.9529117505
 20
-2.9736991819
 11
10.9544661328
 21
-2.7093875278
  0
LINE
  5
6E5
100
AcDbEntity
  8
ASSI
100
AcDbLine
 62
7
  6
CONTINUOUS
 10
10.9529117505
 20
-7.9736991819
 11
10.9544661328
 21
-7.7093875278
  0
LINE
  5
6E6
100
AcDbEntity
  8
CURVE
100
AcDbLine
 62
250
  6
CONTINUOUS
 10
11.1070087135
 20
10.723404251
 11
11.1080994894
 21
10.8510638326
  0
LINE
  5
6E7
100
AcDbEntity
  8
CURVE
100
AcDbLine
 62
250
  6
CONTINUOUS
 10
11.1235570086
 20
-1.4036796753
 11
11.1250384363
 21
-1.1694941211
  0
LINE
  5
6E8
100
AcDbEntity
  8
CURVE
100
AcDbLine
 62
250
  6
CONTINUOUS
 10
11.0181006289
 20
3.8386006114
 11
11.0201353747
 21
4.1097079503
  0
LINE
  5
6E9
100
AcDbEntity
  8
CURVE
100
AcDbLine
 62
250
  6
CONTINUOUS
 10
11.0366537001
 20
13.5
 11
11.0628323097
 21
16.0980762114
  0
LINE
  5
6EA
100
AcDbEntity
  8
ASSI
100
AcDbLine
 62
7
  6
CONTINUOUS
 10
10.9516936149
 20
-13.0951129948
 11
10.953839395
 21
-12.8446317126
  0
LINE
  5
6EB
100
AcDbEntity
  8
CURVE
100
AcDbLine
 62
250
  6
CONTINUOUS
 10
11.1048271632
 20
10.8829787225
 11
11.1037363873
 21
10.787234053
  0
LINE
  5
6EC
100
AcDbEntity
  8
ASSI
100
AcDbLine
 62
7
  6
CONTINUOUS
 10
10.9509823349
 20
11.8478536021
 11
10.9529117505
 21
12.0263008181
  0
LINE
  5
6ED
100
AcDbEntity
  8
ASSI
100
AcDbLine
 62
7
  6
CONTINUOUS
 10
10.9509823349
 20
6.8478536021
 11
10.9529117505
 21
7.0263008181
  0
LINE
  5
6EE
100
AcDbEntity
  8
ASSI
100
AcDbLine
 62
7
  6
CONTINUOUS
 10
10.9509823349
 20
1.8478536021
 11
10.9529117505
 21
2.0263008181
  0
LINE
  5
6EF
100
AcDbEntity
  8
ASSI
100
AcDbLine
 62
7
  6
CONTINUOUS
 10
10.9509823349
 20
-3.1521463979
 11
10.9529117505
 21
-2.9736991819
  0
LINE
  5
6F0
100
AcDbEntity
  8
ASSI
100
AcDbLine
 62
7
  6
CONTINUOUS
 10
10.9509823349
 20
-8.1521463979
 11
10.9529117505
 21
-7.9736991819
  0
LINE
  5
6F1
100
AcDbEntity
  8
CURVE
100
AcDbLine
 62
250
  6
CONTINUOUS
 10
11.1326419344
 20
11.425531894
 11
11.1310057713
 21
11.2978723347
  0
LINE
  5
6F2
100
AcDbEntity
  8
CURVE
100
AcDbLine
 62
250
  6
CONTINUOUS
 10
11.1221709183
 20
-1.5327518397
 11
11.1235570086
 21
-1.4036796753
  0
LINE
  5
6F3
100
AcDbEntity
  8
CURVE
100
AcDbLine
 62
250
  6
CONTINUOUS
 10
11.0845053699
 20
6.478913
 11
11.0644701819
 21
5.0
  0
LINE
  5
6F4
100
AcDbEntity
  8
CURVE
100
AcDbLine
 62
250
  6
CONTINUOUS
 10
11.0148824675
 20
3.608188
 11
11.0181006289
 21
3.8386006114
  0
LINE
  5
6F5
100
AcDbEntity
  8
ASSI
100
AcDbLine
 62
7
  6
CONTINUOUS
 10
10.9493687159
 20
-13.2581584656
 11
10.9516936149
 21
-13.0951129948
  0
LINE
  5
6F6
100
AcDbEntity
  8
CURVE
100
AcDbLine
 62
250
  6
CONTINUOUS
 10
11.1048271632
 20
10.5957446806
 11
11.1070087135
 21
10.723404251
  0
LINE
  5
6F7
100
AcDbEntity
  8
CURVE
100
AcDbLine
 62
250
  6
CONTINUOUS
 10
11.1282788339
 20
11.3936170042
 11
11.1293696082
 21
11.4574467838
  0
LINE
  5
6F8
100
AcDbEntity
  8
CURVE
100
AcDbLine
 62
250
  6
CONTINUOUS
 10
11.1210930376
 20
-1.603542891
 11
11.1221709183
 21
-1.5327518397
  0
LINE
  5
6F9
100
AcDbEntity
  8
CURVE
100
AcDbLine
 62
250
  6
CONTINUOUS
 10
11.1338583806
 20
2.00013
 11
11.0469927623
 21
-2.731556
  0
LINE
  5
6FA
100
AcDbEntity
  8
ASSI
100
AcDbLine
 62
7
  6
CONTINUOUS
 10
10.9484759205
 20
11.6935743287
 11
10.9509823349
 21
11.8478536021
  0
LINE
  5
6FB
100
AcDbEntity
  8
ASSI
100
AcDbLine
 62
7
  6
CONTINUOUS
 10
10.9484759205
 20
6.6935743287
 11
10.9509823349
 21
6.8478536021
  0
LINE
  5
6FC
100
AcDbEntity
  8
ASSI
100
AcDbLine
 62
7
  6
CONTINUOUS
 10
10.9484759205
 20
1.6935743287
 11
10.9509823349
 21
1.8478536021
  0
LINE
  5
6FD
100
AcDbEntity
  8
ASSI
100
AcDbLine
 62
7
  6
CONTINUOUS
 10
10.9484759205
 20
-3.3064256713
 11
10.9509823349
 21
-3.1521463979
  0
LINE
  5
6FE
100
AcDbEntity
  8
ASSI
100
AcDbLine
 62
7
  6
CONTINUOUS
 10
10.9484759205
 20
-8.3064256713
 11
10.9509823349
 21
-8.1521463979
  0
LINE
  5
6FF
100
AcDbEntity
  8
ASSI
100
AcDbLine
 62
7
  6
CONTINUOUS
 10
10.9475265961
 20
-13.3515336254
 11
10.9493687159
 21
-13.2581584656
  0
LINE
  5
700
100
AcDbEntity
  8
CURVE
100
AcDbLine
 62
250
  6
CONTINUOUS
 10
11.1310057713
 20
11.2978723347
 11
11.1288242226
 21
11.2021276653
  0
LINE
  5
701
100
AcDbEntity
  8
CURVE
100
AcDbLine
 62
250
  6
CONTINUOUS
 10
11.1037363873
 20
10.787234053
 11
11.1021002242
 21
10.723404251
  0
LWPOLYLINE
  5
702
100
AcDbEntity
  8
ASSI
100
AcDbPolyline
 62
7
  6
CONTINUOUS
 90
13
 70
0
 10
11.15
 20
-16.1196591663
 10
11.1468151488
 20
-16.2316132155
 10
11.1375215707
 20
-16.3425340886
 10
11.1221192655
 20
-16.4524217853
 10
11.100522693
 20
-16.5616095916
 10
11.0728173935
 20
-16.6697642216
 10
11.039259988
 20
-16.7758858181
 10
10.9997965039
 20
-16.879955629
 10
10.9544809138
 20
-16.9819924065
 10
10.9037317568
 20
-17.0810525493
 10
10.847688546
 20
-17.1768215238
 10
10.7862117682
 20
-17.2696138637
 10
10.7193014235
 20
-17.3594295691
  0
LINE
  5
703
100
AcDbEntity
  8
CURVE
100
AcDbLine
 62
250
  6
CONTINUOUS
 10
11.1026456114
 20
10.5319148926
 11
11.1048271632
 21
10.5957446806
  0
LWPOLYLINE
  5
704
100
AcDbEntity
  8
CURVE
100
AcDbPolyline
 62
250
  6
CONTINUOUS
 90
7
 70
0
 10
11.0560489205
 20
-14.071874
 10
11.0497693008
 20
-14.192081936
 10
11.0440748428
 20
-14.3856126972
 10
11.0392227549
 20
-14.6437248452
 10
11.0353799325
 20
-14.9602238793
 10
11.03284345
 20
-15.3106424312
 10
11.0318914469
 20
-16.0704099717
  0
LWPOLYLINE
  5
705
100
AcDbEntity
  8
CURVE
100
AcDbPolyline
 62
250
  6
CONTINUOUS
 90
7
 70
0
 10
11.0618550397
 20
-1.047108
 10
11.0607784483
 20
-1.0531564903
 10
11.0597428639
 20
-1.0710715761
 10
11.0587877316
 20
-1.1001708773
 10
11.0579357273
 20
-1.1401285431
 10
11.0572491049
 20
-1.1880249629
 10
11.0564216469
 20
-1.3019256099
  0
LWPOLYLINE
  5
706
100
AcDbEntity
  8
CURVE
100
AcDbPolyline
 62
250
  6
CONTINUOUS
 90
7
 70
0
 10
11.0618550397
 20
-1.22419
 10
11.0613787309
 20
-1.2268659911
 10
11.0609205646
 20
-1.2347920368
 10
11.0604979921
 20
-1.2476662365
 10
11.0601210458
 20
-1.2653444262
 10
11.0598172683
 20
-1.2865349031
 10
11.0594511818
 20
-1.3369271671
  0
LWPOLYLINE
  5
707
100
AcDbEntity
  8
CURVE
100
AcDbPolyline
 62
250
  6
CONTINUOUS
 90
7
 70
0
 10
11.0618550397
 20
-1.50521
 10
11.0623313485
 20
-1.5025340089
 10
11.0627895148
 20
-1.4946079632
 10
11.0632120873
 20
-1.4817337635
 10
11.0635890335
 20
-1.4640555738
 10
11.0638928111
 20
-1.4428650969
 10
11.0642588975
 20
-1.3924728329
  0
LWPOLYLINE
  5
708
100
AcDbEntity
  8
CURVE
100
AcDbPolyline
 62
250
  6
CONTINUOUS
 90
7
 70
0
 10
11.0618550397
 20
-1.682292
 10
11.0629316311
 20
-1.6762435097
 10
11.0639672155
 20
-1.6583284239
 10
11.0649223477
 20
-1.6292291227
 10
11.065774352
 20
-1.5892714568
 10
11.0664609744
 20
-1.5413750371
 10
11.0672884325
 20
-1.42747439
  0
LWPOLYLINE
  5
709
100
AcDbEntity
  8
CURVE
100
AcDbPolyline
 62
250
  6
CONTINUOUS
 90
7
 70
0
 10
11.1202430078
 20
-1.597331
 10
11.1195901824
 20
-1.6009986943
 10
11.1189622229
 20
-1.6118620757
 10
11.1183830481
 20
-1.6295073616
 10
11.1178664083
 20
-1.6537369619
 10
11.117450053
 20
-1.6827804778
 10
11.1169482975
 20
-1.7518477541
  0
LWPOLYLINE
  5
70A
100
AcDbEntity
  8
CURVE
100
AcDbPolyline
 62
250
  6
CONTINUOUS
 90
7
 70
0
 10
11.1202430078
 20
-1.982495
 10
11.1208958333
 20
-1.9788273057
 10
11.1215237927
 20
-1.9679639242
 10
11.1221029675
 20
-1.9503186384
 10
11.1226196074
 20
-1.9260890381
 10
11.1230359627
 20
-1.8970455222
 10
11.1235377182
 20
-1.8279782459
  0
LINE
  5
70B
100
AcDbEntity
  8
CURVE
100
AcDbLine
 62
250
  6
CONTINUOUS
 10
11.1184196328
 20
0.568876
 11
11.0597407854
 21
0.274826
  0
LWPOLYLINE
  5
70C
100
AcDbEntity
  8
ASSI
100
AcDbPolyline
 62
7
  6
CONTINUOUS
 90
11
 70
0
 10
10.9361538737
 20
-3.5763271382
 10
10.9374010069
 20
-3.573441586
 10
10.9386271252
 20
-3.5661247605
 10
10.9398322287
 20
-3.5543766616
 10
10.9410195205
 20
-3.5381254616
 10
10.9421857975
 20
-3.5174429882
 10
10.9433214504
 20
-3.4925447244
 10
10.9444271401
 20
-3.4633875364
 10
10.9455022059
 20
-3.430014558
 10
10.9465350555
 20
-3.3927706733
 10
10.9484759205
 20
-3.3064256713
  0
LINE
  5
70D
100
AcDbEntity
  8
CURVE
100
AcDbLine
 62
250
  6
CONTINUOUS
 10
4.086567
 20
-15.399588
 11
3.859809
 21
-15.80816
  0
LINE
  5
70E
100
AcDbEntity
  8
ASSI
100
AcDbLine
 62
7
  6
CONTINUOUS
 10
-1.2470717651
 20
-18.0
 11
-1.2339814634
 21
-17.9869096983
  0
LINE
  5
70F
100
AcDbEntity
  8
ASSI
100
AcDbLine
 62
7
  6
CONTINUOUS
 10
10.5041625977
 20
-8.7344425119
 11
10.9361538737
 21
-8.5763271382
  0
LINE
  5
710
100
AcDbEntity
  8
ASSI
100
AcDbLine
 62
250
  6
CONTINUOUS
 10
-10.5041625977
 20
-15.8937104774
 11
-11.15
 21
-16.119659166
  0
LINE
  5
711
100
AcDbEntity
  8
CURVE
100
AcDbLine
 62
250
  6
CONTINUOUS
 10
11.0999186732
 20
10.6914893612
 11
11.0977371229
 21
10.6914893612
  0
LINE
  5
712
100
AcDbEntity
  8
ASSI
100
AcDbLine
 62
7
  6
CONTINUOUS
 10
3.8
 20
10.75
 11
-1.2
 21
10.75
  0
LINE
  5
713
100
AcDbEntity
  8
CURVE
100
AcDbLine
 62
250
  6
CONTINUOUS
 10
-11.0102257712
 20
10.9428571105
 11
-11.0196999341
 21
10.9428571105
  0
LINE
  5
714
100
AcDbEntity
  8
CURVE
100
AcDbLine
 62
250
  6
CONTINUOUS
 10
11.126097282
 20
11.1702127755
 11
11.1162803034
 21
11.1702127755
  0
LINE
  5
715
100
AcDbEntity
  8
CURVE
100
AcDbLine
 62
250
  6
CONTINUOUS
 10
7.371428588
 20
11.2357143521
 11
7.9285714507
 21
11.2357143521
  0
LINE
  5
716
100
AcDbEntity
  8
IMPORT_IGES
100
AcDbLine
 62
7
  6
CONTINUOUS
 10
2.85
 20
11.25
 11
0.85
 21
11.25
  0
LINE
  5
717
100
AcDbEntity
  8
CURVE
100
AcDbLine
 62
250
  6
CONTINUOUS
 10
11.1162803034
 20
11.3617021143
 11
11.1266426708
 21
11.3617021143
  0
LINE
  5
718
100
AcDbEntity
  8
CURVE
100
AcDbLine
 62
250
  6
CONTINUOUS
 10
7.185714294
 20
11.6071429014
 11
7.5571428627
 21
11.6071429014
  0
LINE
  5
719
100
AcDbEntity
  8
CURVE
100
AcDbLine
 62
250
  6
CONTINUOUS
 10
11.1266426708
 20
11.8404255509
 11
11.1162803034
 21
11.8404255509
  0
LINE
  5
71A
100
AcDbEntity
  8
CURVE
100
AcDbLine
 62
250
  6
CONTINUOUS
 10
11.0922832456
 20
12.0
 11
11.0890109194
 21
12.0
  0
LINE
  5
71B
100
AcDbEntity
  8
CURVE
100
AcDbLine
 62
250
  6
CONTINUOUS
 10
11.1086448766
 20
12.0
 11
11.1053725504
 21
12.0
  0
LINE
  5
71C
100
AcDbEntity
  8
CURVE
100
AcDbLine
 62
250
  6
CONTINUOUS
 10
11.1130079788
 20
12.0
 11
11.126097282
 21
12.0
  0
LINE
  5
71D
100
AcDbEntity
  8
CURVE
100
AcDbLine
 62
250
  6
CONTINUOUS
 10
7.65
 20
12.2571428239
 11
7.185714294
 21
12.2571428239
  0
LINE
  5
71E
100
AcDbEntity
  8
ASSI
100
AcDbLine
 62
250
  6
CONTINUOUS
 10
-10.5041625977
 20
15.8937104774
 11
-11.15
 21
16.119659166
  0
LINE
  5
71F
100
AcDbEntity
  8
ASSI
100
AcDbLine
 62
7
  6
CONTINUOUS
 10
10.5041625977
 20
8.7344425119
 11
10.9361538737
 21
8.5763271382
  0
LWPOLYLINE
  5
720
100
AcDbEntity
  8
ASSI
100
AcDbPolyline
 62
7
  6
CONTINUOUS
 90
11
 70
0
 10
10.9361538737
 20
-8.5763271382
 10
10.9374010069
 20
-8.573441586
 10
10.9386271252
 20
-8.5661247605
 10
10.9398322287
 20
-8.5543766616
 10
10.9410195205
 20
-8.5381254616
 10
10.9421857975
 20
-8.5174429882
 10
10.9433214504
 20
-8.4925447244
 10
10.9444271401
 20
-8.4633875364
 10
10.9455022059
 20
-8.430014558
 10
10.9465350555
 20
-8.3927706733
 10
10.9484759205
 20
-8.3064256713
  0
LINE
  5
721
100
AcDbEntity
  8
ASSI
100
AcDbLine
 62
7
  6
CONTINUOUS
 10
9.5021058917
 20
-8.4660185366
 11
9.7181529861
 21
-8.2499714423
  0
LINE
  5
722
100
AcDbEntity
  8
ASSI
100
AcDbLine
 62
250
  6
CONTINUOUS
 10
-10.0624931237
 20
-17.1472402523
 11
-10.7193014234
 21
-17.3594295691
  0
LINE
  5
723
100
AcDbEntity
  8
ASSI
100
AcDbLine
 62
250
  6
CONTINUOUS
 10
-10.9361538737
 20
11.4236728618
 11
-9.7181529861
 21
11.7500285577
  0
LINE
  5
724
100
AcDbEntity
  8
CURVE
100
AcDbLine
 62
250
  6
CONTINUOUS
 10
-11.0149628526
 20
12.435714221
 11
-11.0196999341
 21
12.435714221
  0
LINE
  5
725
100
AcDbEntity
  8
CURVE
100
AcDbLine
 62
250
  6
CONTINUOUS
 10
8.3
 20
12.628571412
 11
7.0
 21
12.628571412
  0
LINE
  5
726
100
AcDbEntity
  8
CURVE
100
AcDbLine
 62
250
  6
CONTINUOUS
 10
-3.6
 20
12.9
 11
-5.5
 21
12.9
  0
LINE
  5
727
100
AcDbEntity
  8
CURVE
100
AcDbLine
 62
250
  6
CONTINUOUS
 10
-8.314285706
 20
12.9428571373
 11
-7.9428571373
 21
12.9428571373
  0
LINE
  5
728
100
AcDbEntity
  8
CURVE
100
AcDbLine
 62
250
  6
CONTINUOUS
 10
-11.0196999341
 20
12.978571558
 11
-11.0102257712
 21
12.978571558
  0
LINE
  5
729
100
AcDbEntity
  8
CURVE
100
AcDbLine
 62
250
  6
CONTINUOUS
 10
-11.0539971429
 20
13.485381805
 11
-11.1046091144
 21
13.485381805
  0
LINE
  5
72A
100
AcDbEntity
  8
CURVE
100
AcDbLine
 62
250
  6
CONTINUOUS
 10
11.0497430049
 20
13.5
 11
11.0366537001
 21
13.5
  0
LINE
  5
72B
100
AcDbEntity
  8
CURVE
100
AcDbLine
 62
250
  6
CONTINUOUS
 10
-7.7571428239
 20
13.5
 11
-7.2
 21
13.5
  0
LINE
  5
72C
100
AcDbEntity
  8
CURVE
100
AcDbLine
 62
250
  6
CONTINUOUS
 10
11.0759216146
 20
13.5
 11
11.0890109194
 21
13.5
  0
LINE
  5
72D
100
AcDbEntity
  8
IMPORT_IGES
100
AcDbLine
 62
7
  6
CONTINUOUS
 10
2.85
 20
13.75
 11
0.85
 21
13.75
  0
LINE
  5
72E
100
AcDbEntity
  8
CURVE
100
AcDbLine
 62
250
  6
CONTINUOUS
 10
-11.0989383309
 20
13.8712348833
 11
-11.0828471414
 21
13.8712348833
  0
LINE
  5
72F
100
AcDbEntity
  8
CURVE
100
AcDbLine
 62
250
  6
CONTINUOUS
 10
-11.0771763578
 20
13.8712348833
 11
-11.0596679264
 21
13.8712348833
  0
LINE
  5
730
100
AcDbEntity
  8
CURVE
100
AcDbLine
 62
250
  6
CONTINUOUS
 10
-11.0102257712
 20
13.928571558
 11
-11.0196999341
 21
13.928571558
  0
LINE
  5
731
100
AcDbEntity
  8
ASSI
100
AcDbLine
 62
7
  6
CONTINUOUS
 10
10.5041625977
 20
11.2655574881
 11
9.5021058917
 21
11.5339814634
  0
LINE
  5
732
100
AcDbEntity
  8
ASSI
100
AcDbLine
 62
250
  6
CONTINUOUS
 10
10.9361538737
 20
11.4236728618
 11
9.7181529861
 21
11.7500285577
  0
LINE
  5
733
100
AcDbEntity
  8
ASSI
100
AcDbLine
 62
250
  6
CONTINUOUS
 10
-10.0624931237
 20
17.1472402523
 11
-10.7193014234
 21
17.3594295692
  0
LINE
  5
734
100
AcDbEntity
  8
CURVE
100
AcDbLine
 62
250
  6
CONTINUOUS
 10
7.371428588
 20
10.5857143521
 11
7.185714294
 21
10.6785714507
  0
LINE
  5
735
100
AcDbEntity
  8
CURVE
100
AcDbLine
 62
250
  6
CONTINUOUS
 10
7.9285714507
 20
11.2357143521
 11
8.1142857254
 21
11.1428570986
  0
LINE
  5
736
100
AcDbEntity
  8
CURVE
100
AcDbLine
 62
250
  6
CONTINUOUS
 10
7.185714294
 20
10.6785714507
 11
7.0
 21
10.8642856479
  0
LINE
  5
737
100
AcDbEntity
  8
ASSI
100
AcDbLine
 62
7
  6
CONTINUOUS
 10
9.5021058917
 20
8.4660185366
 11
9.7181529861
 21
8.2499714423
  0
LINE
  5
738
100
AcDbEntity
  8
CURVE
100
AcDbLine
 62
250
  6
CONTINUOUS
 10
7.0
 20
11.7928571761
 11
7.185714294
 21
11.6071429014
  0
LINE
  5
739
100
AcDbEntity
  8
CURVE
100
AcDbLine
 62
250
  6
CONTINUOUS
 10
8.1142857254
 20
11.1428570986
 11
8.3
 21
10.9571429014
  0
LINE
  5
73A
100
AcDbEntity
  8
IMPORT_IGES
100
AcDbLine
 62
7
  6
CONTINUOUS
 10
1.736446607
 20
18.0
 11
1.5561165223
 21
18.1803300847
  0
LWPOLYLINE
  5
73B
100
AcDbEntity
  8
ASSI
100
AcDbPolyline
 62
7
  6
CONTINUOUS
 90
10
 70
0
 10
10.9361538737
 20
-13.5763271382
 10
10.9374010069
 20
-13.573441586
 10
10.9386271252
 20
-13.5661247605
 10
10.9398322287
 20
-13.5543766616
 10
10.9410195205
 20
-13.5381254616
 10
10.9421857975
 20
-13.5174429882
 10
10.9433214504
 20
-13.4925447244
 10
10.9444271401
 20
-13.4633875364
 10
10.9455022059
 20
-13.430014558
 10
10.9475265961
 20
-13.3515336254
  0
LINE
  5
73C
100
AcDbEntity
  8
ASSI
100
AcDbLine
 62
7
  6
CONTINUOUS
 10
3.3
 20
-22.4
 11
3.230158461
 21
-22.5048155586
  0
LINE
  5
73D
100
AcDbEntity
  8
ASSI
100
AcDbLine
 62
7
  6
CONTINUOUS
 10
2.5529282349
 20
-18.0
 11
2.5660185366
 21
-17.9869096983
  0
LINE
  5
73E
100
AcDbEntity
  8
CURVE
100
AcDbLine
 62
250
  6
CONTINUOUS
 10
4.426702
 20
-15.09316
 11
4.086567
 21
-15.399588
  0
LINE
  5
73F
100
AcDbEntity
  8
CURVE
100
AcDbLine
 62
250
  6
CONTINUOUS
 10
4.426702
 20
-16.52316
 11
4.653459
 21
-16.318874
  0
LINE
  5
740
100
AcDbEntity
  8
ASSI
100
AcDbLine
 62
7
  6
CONTINUOUS
 10
-1.2
 20
14.25
 11
3.8
 21
14.25
  0
LINE
  5
741
100
AcDbEntity
  8
ASSI
100
AcDbLine
 62
250
  6
CONTINUOUS
 10
-10.6214314094
 20
14.5999200384
 11
-9.5607358321
 21
14.5999200384
  0
LINE
  5
742
100
AcDbEntity
  8
ASSI
100
AcDbLine
 62
7
  6
CONTINUOUS
 10
-10.5041625977
 20
14.6585499788
 11
-9.5021058917
 21
14.6585499788
  0
LINE
  5
743
100
AcDbEntity
  8
ASSI
100
AcDbLine
 62
7
  6
CONTINUOUS
 10
-1.8
 20
14.85
 11
4.4
 21
14.85
  0
LINE
  5
744
100
AcDbEntity
  8
CURVE
100
AcDbLine
 62
250
  6
CONTINUOUS
 10
-11.0828471414
 20
15.3781524675
 11
-11.0771763578
 21
15.3781524675
  0
LINE
  5
745
100
AcDbEntity
  8
CURVE
100
AcDbLine
 62
250
  6
CONTINUOUS
 10
-11.0149628526
 20
15.421428442
 11
-11.0196999341
 21
15.421428442
  0
LINE
  5
746
100
AcDbEntity
  8
CURVE
100
AcDbLine
 62
250
  6
CONTINUOUS
 10
-11.1046091144
 20
15.4877304705
 11
-11.0989383309
 21
15.4877304705
  0
LINE
  5
747
100
AcDbEntity
  8
CURVE
100
AcDbLine
 62
250
  6
CONTINUOUS
 10
-11.0596679264
 20
15.5
 11
-11.0539971429
 21
15.5
  0
LINE
  5
748
100
AcDbEntity
  8
CURVE
100
AcDbLine
 62
250
  6
CONTINUOUS
 10
8.0214285493
 20
12.0714285493
 11
7.65
 21
12.2571428239
  0
LWPOLYLINE
  5
749
100
AcDbEntity
  8
IMPORT_IGES
100
AcDbPolyline
 62
7
  6
CONTINUOUS
 90
10
 70
0
 10
1.5560976387
 20
18.1803280374
 10
1.5085031472
 20
18.2239973338
 10
1.4568622315
 20
18.2637303365
 10
1.401654398
 20
18.2989879321
 10
1.3437871465
 20
18.3292361133
 10
1.2836718131
 20
18.35426045
 10
1.2211726174
 20
18.3740760938
 10
1.1567219923
 20
18.3884755687
 10
1.0913481695
 20
18.3971214283
 10
1.0257983427
 20
18.3999851979
  0
LINE
  5
74A
100
AcDbEntity
  8
CURVE
100
AcDbLine
 62
250
  6
CONTINUOUS
 10
8.3
 20
11.7928571761
 11
8.0214285493
 21
12.0714285493
  0
LINE
  5
74B
100
AcDbEntity
  8
CURVE
100
AcDbLine
 62
250
  6
CONTINUOUS
 10
7.9285714507
 20
13.0
 11
8.3
 21
12.628571412
  0
LINE
  5
74C
100
AcDbEntity
  8
ASSI
100
AcDbLine
 62
7
  6
CONTINUOUS
 10
3.230158461
 20
22.5048155586
 11
3.3
 21
22.4
  0
LWPOLYLINE
  5
74D
100
AcDbEntity
  8
ASSI
100
AcDbPolyline
 62
7
  6
CONTINUOUS
 90
7
 70
0
 10
6.9326502504
 20
-21.1965699136
 10
6.9322610534
 20
-21.1972516316
 10
6.9307449362
 20
-21.1988520829
 10
6.9281018989
 20
-21.2013978692
 10
6.9243330429
 20
-21.2049174116
 10
6.9194372668
 20
-21.2094242374
 10
6.9134112664
 20
-21.2149015874
  0
LINE
  5
74E
100
AcDbEntity
  8
ASSI
100
AcDbLine
 62
7
  6
CONTINUOUS
 10
9.5021058917
 20
-13.4660185366
 11
9.7181529861
 21
-13.2499714423
  0
LWPOLYLINE
  5
74F
100
AcDbEntity
  8
ASSI
100
AcDbPolyline
 62
7
  6
CONTINUOUS
 90
9
 70
0
 10
-4.7401917941
 20
-20.1057323176
 10
-4.7429865037
 20
-20.1070516484
 10
-4.750499724
 20
-20.1083670708
 10
-4.762731455
 20
-20.1096785847
 10
-4.77978277
 20
-20.1109944598
 10
-4.8015525958
 20
-20.1123064264
 10
-4.8277377123
 20
-20.1135896762
 10
-4.8584442229
 20
-20.1148428415
 10
-4.8935660241
 20
-20.11606729
  0
LINE
  5
750
100
AcDbEntity
  8
ASSI
100
AcDbLine
 62
7
  6
CONTINUOUS
 10
10.5041625977
 20
-13.7344425119
 11
10.9361538737
 21
-13.5763271382
  0
LINE
  5
751
100
AcDbEntity
  8
ASSI
100
AcDbLine
 62
7
  6
CONTINUOUS
 10
10.5041625977
 20
13.7344425119
 11
10.9361538737
 21
13.5763271382
  0
LINE
  5
752
100
AcDbEntity
  8
ASSI
100
AcDbLine
 62
7
  6
CONTINUOUS
 10
9.5021058917
 20
13.4660185366
 11
9.7181529861
 21
13.2499714423
  0
LWPOLYLINE
  5
753
100
AcDbEntity
  8
ASSI
100
AcDbPolyline
 62
7
  6
CONTINUOUS
 90
13
 70
0
 10
10.0624931267
 20
-17.1472402488
 10
10.1310560075
 20
-17.0568040018
 10
10.1940619865
 20
-16.963275731
 10
10.2515110637
 20
-16.8666554365
 10
10.3035501146
 20
-16.7666168348
 10
10.3500322636
 20
-16.6634862094
 10
10.3905168847
 20
-16.5582424109
 10
10.4249472016
 20
-16.450865434
 10
10.4533799904
 20
-16.3413752841
 10
10.4755449542
 20
-16.2308108268
 10
10.4913519938
 20
-16.1195183509
 10
10.5008912083
 20
-16.0071515678
 10
10.5041625977
 20
-15.8937104774
  0
LWPOLYLINE
  5
754
100
AcDbEntity
  8
ASSI
100
AcDbPolyline
 62
7
  6
CONTINUOUS
 90
3
 70
0
 10
9.6137609703
 20
-18.0484953956
 10
9.5992871645
 20
-18.066362206
 10
9.5910817885
 20
-18.0763350014
  0
LINE
  5
755
100
AcDbEntity
  8
ASSI
100
AcDbLine
 62
7
  6
CONTINUOUS
 10
9.5910817885
 20
-18.0763350014
 11
9.5727588927
 21
-18.0982939829
  0
LINE
  5
756
100
AcDbEntity
  8
ASSI
100
AcDbLine
 62
7
  6
CONTINUOUS
 10
9.5727588927
 20
-18.0982939829
 11
9.5521880679
 21
-18.122605959
  0
LINE
  5
757
100
AcDbEntity
  8
ASSI
100
AcDbLine
 62
7
  6
CONTINUOUS
 10
9.5521880679
 20
-18.122605959
 11
9.5295571484
 21
-18.1490051927
  0
LINE
  5
758
100
AcDbEntity
  8
ASSI
100
AcDbLine
 62
7
  6
CONTINUOUS
 10
9.5295571484
 20
-18.1490051927
 11
9.5051158606
 21
-18.1772016301
  0
LINE
  5
759
100
AcDbEntity
  8
ASSI
100
AcDbLine
 62
7
  6
CONTINUOUS
 10
9.5051158606
 20
-18.1772016301
 11
9.4787166798
 21
-18.2073225021
  0
LINE
  5
75A
100
AcDbEntity
  8
ASSI
100
AcDbLine
 62
7
  6
CONTINUOUS
 10
9.4787166798
 20
-18.2073225021
 11
9.4504901112
 21
-18.239244835
  0
LINE
  5
75B
100
AcDbEntity
  8
ASSI
100
AcDbLine
 62
7
  6
CONTINUOUS
 10
9.4504901112
 20
-18.239244835
 11
9.4053103694
 21
-18.289756376
  0
LINE
  5
75C
100
AcDbEntity
  8
ASSI
100
AcDbLine
 62
7
  6
CONTINUOUS
 10
9.4053103694
 20
-18.289756376
 11
9.3584839177
 21
-18.3414527896
  0
LINE
  5
75D
100
AcDbEntity
  8
ASSI
100
AcDbLine
 62
7
  6
CONTINUOUS
 10
9.3584839177
 20
-18.3414527896
 11
9.3105480321
 21
-18.3937518541
  0
LINE
  5
75E
100
AcDbEntity
  8
ASSI
100
AcDbLine
 62
7
  6
CONTINUOUS
 10
3.4
 20
-23.4301797403
 11
3.3633443637
 21
-23.4668353766
  0
LWPOLYLINE
  5
75F
100
AcDbEntity
  8
ASSI
100
AcDbPolyline
 62
7
  6
CONTINUOUS
 90
9
 70
0
 10
-0.9401917941
 20
-20.1057323176
 10
-0.9429865037
 20
-20.1070516484
 10
-0.950499724
 20
-20.1083670708
 10
-0.962731455
 20
-20.1096785847
 10
-0.97978277
 20
-20.1109944598
 10
-1.0015525958
 20
-20.1123064264
 10
-1.0277377123
 20
-20.1135896762
 10
-1.0584442229
 20
-20.1148428415
 10
-1.0935660241
 20
-20.11606729
  0
LWPOLYLINE
  5
760
100
AcDbEntity
  8
ASSI
100
AcDbPolyline
 62
7
  6
CONTINUOUS
 90
19
 70
0
 10
-3.3631544652
 20
-21.1965699136
 10
-3.3664609334
 20
-21.1976992592
 10
-3.3696847062
 20
-21.2002662498
 10
-3.3728257835
 20
-21.2042708852
 10
-3.3759051106
 20
-21.2097672282
 10
-3.3789017423
 20
-21.2167012161
 10
-3.3817528428
 20
-21.2249106608
 10
-3.3844565052
 20
-21.2344279606
 10
-3.3870146365
 20
-21.2452207173
 10
-3.3893701215
 20
-21.2570295477
 10
-3.3915173156
 20
-21.2698766054
 10
-3.3934618634
 20
-21.2837397368
 10
-3.3951635838
 20
-21.2982930979
 10
-3.3966162742
 20
-21.3135361116
 10
-3.3978261372
 20
-21.3294693548
 10
-3.3987715986
 20
-21.3457687152
 10
-3.3994454673
 20
-21.3623261552
 10
-3.3998549344
 20
-21.3792497123
 10
-3.4
 20
-21.3965393865
  0
LINE
  5
761
100
AcDbEntity
  8
ASSI
100
AcDbLine
 62
7
  6
CONTINUOUS
 10
-6.9659899778
 20
18.0
 11
-5.0340100222
 21
18.0
  0
LINE
  5
762
100
AcDbEntity
  8
ASSI
100
AcDbLine
 62
7
  6
CONTINUOUS
 10
-3.1659899778
 20
18.0
 11
-1.2340100222
 21
18.0
  0
LINE
  5
763
100
AcDbEntity
  8
ASSI
100
AcDbLine
 62
7
  6
CONTINUOUS
 10
0.6340100222
 20
18.0
 11
2.5659899778
 21
18.0
  0
LINE
  5
764
100
AcDbEntity
  8
ASSI
100
AcDbLine
 62
7
  6
CONTINUOUS
 10
6.95
 20
18.0
 11
9.6470456659
 21
18.0
  0
LINE
  5
765
100
AcDbEntity
  8
IMPORT_IGES
100
AcDbLine
 62
7
  6
CONTINUOUS
 10
-1.35
 20
18.15
 11
-7.8488805267
 21
18.15
  0
LINE
  5
766
100
AcDbEntity
  8
IMPORT_IGES
100
AcDbLine
 62
7
  6
CONTINUOUS
 10
-4.6
 20
18.3999999983
 11
1.0257864376
 21
18.3999999983
  0
LINE
  5
767
100
AcDbEntity
  8
ASSI
100
AcDbLine
 62
250
  6
CONTINUOUS
 10
6.45
 20
18.5
 11
9.211501009
 21
18.5
  0
LWPOLYLINE
  5
768
100
AcDbEntity
  8
ASSI
100
AcDbPolyline
 62
250
  6
CONTINUOUS
 90
22
 70
0
 10
6.95
 20
18.0
 10
6.9179513899
 20
18.0013713652
 10
6.8860001451
 20
18.0054914648
 10
6.8543243587
 20
18.0123578202
 10
6.8230848426
 20
18.0219587984
 10
6.79247882
 20
18.0342574705
 10
6.7627342775
 20
18.0491762367
 10
6.7340295012
 20
18.0666306523
 10
6.7065179286
 20
18.0865325794
 10
6.6803755308
 20
18.1087581386
 10
6.6557549313
 20
18.1331760831
 10
6.6327878357
 20
18.1596542095
 10
6.6116032382
 20
18.1880435253
 10
6.5923188382
 20
18.2181863819
 10
6.5750442234
 20
18.249911574
 10
6.5598790149
 20
18.2830342056
 10
6.5469049167
 20
18.3173734089
 10
6.5361960864
 20
18.3527300843
 10
6.5278162217
 20
18.3888793008
 10
6.5218068781
 20
18.4256077926
 10
6.51819275
 20
18.4627173164
 10
6.5169872981
 20
18.5
  0
LINE
  5
769
100
AcDbEntity
  8
ASSI
100
AcDbLine
 62
7
  6
CONTINUOUS
 10
3.4
 20
23.4301797403
 11
3.3633443637
 21
23.4668353766
  0
LINE
  5
76A
100
AcDbEntity
  8
ASSI
100
AcDbLine
 62
7
  6
CONTINUOUS
 10
9.3108617497
 20
18.3934115183
 11
9.3589377737
 21
18.3409547031
  0
LINE
  5
76B
100
AcDbEntity
  8
ASSI
100
AcDbLine
 62
7
  6
CONTINUOUS
 10
9.3589377737
 20
18.3409547031
 11
9.4058707383
 21
18.2891338464
  0
LINE
  5
76C
100
AcDbEntity
  8
ASSI
100
AcDbLine
 62
7
  6
CONTINUOUS
 10
9.4058707383
 20
18.2891338464
 11
9.4509502657
 21
18.2387268764
  0
LINE
  5
76D
100
AcDbEntity
  8
ASSI
100
AcDbLine
 62
7
  6
CONTINUOUS
 10
9.4509502657
 20
18.2387268764
 11
9.4929043203
 21
18.1911704502
  0
LINE
  5
76E
100
AcDbEntity
  8
ASSI
100
AcDbLine
 62
7
  6
CONTINUOUS
 10
9.4929043203
 20
18.1911704502
 11
9.5185172435
 21
18.1617695552
  0
LINE
  5
76F
100
AcDbEntity
  8
ASSI
100
AcDbLine
 62
7
  6
CONTINUOUS
 10
9.5185172435
 20
18.1617695552
 11
9.5420701522
 21
18.1344554703
  0
LINE
  5
770
100
AcDbEntity
  8
ASSI
100
AcDbLine
 62
7
  6
CONTINUOUS
 10
9.5420701522
 20
18.1344554703
 11
9.5634518438
 21
18.1093442724
  0
LWPOLYLINE
  5
771
100
AcDbEntity
  8
ASSI
100
AcDbPolyline
 62
7
  6
CONTINUOUS
 90
4
 70
0
 10
9.5634518438
 20
18.1093442724
 10
9.5826968025
 20
18.086423389
 10
9.5914582622
 20
18.0758795134
 10
9.599608066
 20
18.0659619749
  0
LWPOLYLINE
  5
772
100
AcDbEntity
  8
ASSI
100
AcDbPolyline
 62
7
  6
CONTINUOUS
 90
14
 70
0
 10
9.599608066
 20
18.0659619749
 10
9.6140258934
 20
18.0481641625
 10
9.6202268371
 20
18.0403709805
 10
9.6257378634
 20
18.0332927631
 10
9.6306384212
 20
18.0269182643
 10
9.6349048092
 20
18.0212479648
 10
9.6385097939
 20
18.0162685215
 10
9.6415311159
 20
18.0119560373
 10
9.643957014
 20
18.0083097344
 10
9.6457554224
 20
18.0053288475
 10
9.6469769941
 20
18.0030035515
 10
9.6476251859
 20
18.0013364796
 10
9.6476550955
 20
18.0003344379
 10
9.6470456659
 20
18.0
  0
LWPOLYLINE
  5
773
100
AcDbEntity
  8
ASSI
100
AcDbPolyline
 62
7
  6
CONTINUOUS
 90
13
 70
0
 10
10.7193014234
 20
17.3594295692
 10
10.7862117895
 20
17.2696138284
 10
10.8476885821
 20
17.1768214615
 10
10.9037318012
 20
17.0810524684
 10
10.9544809575
 20
16.9819923195
 10
10.9997965404
 20
16.8799555444
 10
11.0392600179
 20
16.775885732
 10
11.0728174205
 20
16.6697641187
 10
11.1005227178
 20
16.5616094681
 10
11.1221192867
 20
16.4524216598
 10
11.1375215862
 20
16.3425339868
 10
11.1468151573
 20
16.2316131561
 10
11.15
 20
16.1196591676
  0
LINE
  5
774
100
AcDbEntity
  8
ASSI
100
AcDbLine
 62
7
  6
CONTINUOUS
 10
9.3105480321
 20
-18.3937518541
 11
9.2615472965
 21
-18.4466100385
  0
LWPOLYLINE
  5
775
100
AcDbEntity
  8
ASSI
100
AcDbPolyline
 62
7
  6
CONTINUOUS
 90
3
 70
0
 10
9.2615472965
 20
-18.4466100385
 10
9.2282977355
 20
-18.4821820761
 10
9.211501009
 20
-18.5
  0
LINE
  5
776
100
AcDbEntity
  8
ASSI
100
AcDbLine
 62
7
  6
CONTINUOUS
 10
6.9134112664
 20
-21.2149015874
 11
6.8979102978
 21
-21.228719206
  0
LINE
  5
777
100
AcDbEntity
  8
ASSI
100
AcDbLine
 62
7
  6
CONTINUOUS
 10
6.8979102978
 20
-21.228719206
 11
6.8781365695
 21
-21.2461628647
  0
LINE
  5
778
100
AcDbEntity
  8
ASSI
100
AcDbLine
 62
7
  6
CONTINUOUS
 10
6.8781365695
 20
-21.2461628647
 11
6.8409262158
 21
-21.2785408778
  0
LINE
  5
779
100
AcDbEntity
  8
ASSI
100
AcDbLine
 62
7
  6
CONTINUOUS
 10
6.8409262158
 20
-21.2785408778
 11
6.7953926254
 21
-21.3176784544
  0
LWPOLYLINE
  5
77A
100
AcDbEntity
  8
ASSI
100
AcDbPolyline
 62
7
  6
CONTINUOUS
 90
3
 70
0
 10
6.7953926254
 20
-21.3176784544
 10
6.7225602955
 20
-21.3795939776
 10
6.7022433077
 20
-21.3965394526
  0
LWPOLYLINE
  5
77B
100
AcDbEntity
  8
ASSI
100
AcDbPolyline
 62
7
  6
CONTINUOUS
 90
9
 70
0
 10
2.8598082059
 20
-20.1057323176
 10
2.8570134963
 20
-20.1070516484
 10
2.849500276
 20
-20.1083670708
 10
2.837268545
 20
-20.1096785847
 10
2.82021723
 20
-20.1109944598
 10
2.7984474042
 20
-20.1123064264
 10
2.7722622877
 20
-20.1135896762
 10
2.7415557771
 20
-20.1148428415
 10
2.7064339759
 20
-20.11606729
  0
LINE
  5
77C
100
AcDbEntity
  8
ASSI
100
AcDbLine
 62
7
  6
CONTINUOUS
 10
3.3631544652
 20
21.1965699136
 11
3.298652529
 21
21.190565191
  0
LINE
  5
77D
100
AcDbEntity
  8
ASSI
100
AcDbLine
 62
7
  6
CONTINUOUS
 10
3.1
 20
21.1720718961
 11
2.6175930356
 21
21.1271628567
  0
LINE
  5
77E
100
AcDbEntity
  8
ASSI
100
AcDbLine
 62
7
  6
CONTINUOUS
 10
7.831231143
 20
19.86275824
 11
6.5169872981
 21
19.8230246279
  0
LINE
  5
77F
100
AcDbEntity
  8
ASSI
100
AcDbLine
 62
7
  6
CONTINUOUS
 10
6.45
 20
19.6738174026
 11
3.0145050772
 21
19.6738174026
  0
LINE
  5
780
100
AcDbEntity
  8
ASSI
100
AcDbLine
 62
7
  6
CONTINUOUS
 10
0.1854949228
 20
19.6738174026
 11
-0.7854949228
 21
19.6738174026
  0
LINE
  5
781
100
AcDbEntity
  8
ASSI
100
AcDbLine
 62
7
  6
CONTINUOUS
 10
-3.6145050772
 20
19.6738174026
 11
-4.5854949228
 21
19.6738174026
  0
LINE
  5
782
100
AcDbEntity
  8
ASSI
100
AcDbLine
 62
7
  6
CONTINUOUS
 10
-7.4145050772
 20
19.6738174026
 11
-7.7550288142
 21
19.6738174026
  0
LINE
  5
783
100
AcDbEntity
  8
ASSI
100
AcDbLine
 62
7
  6
CONTINUOUS
 10
-7.9505475557
 20
20.1601175636
 11
7.9505475557
 21
20.1601175636
  0
LINE
  5
784
100
AcDbEntity
  8
ASSI
100
AcDbLine
 62
7
  6
CONTINUOUS
 10
9.65
 20
20.9
 11
7.3804017336
 21
20.9
  0
LINE
  5
785
100
AcDbEntity
  8
ASSI
100
AcDbLine
 62
7
  6
CONTINUOUS
 10
-7.3804017336
 20
20.9
 11
-9.65
 21
20.9
  0
LINE
  5
786
100
AcDbEntity
  8
ASSI
100
AcDbLine
 62
7
  6
CONTINUOUS
 10
-2.6175930356
 20
21.1271628567
 11
-3.1
 21
21.1720718961
  0
LINE
  5
787
100
AcDbEntity
  8
ASSI
100
AcDbLine
 62
7
  6
CONTINUOUS
 10
-3.298652529
 20
21.190565191
 11
-3.3631544652
 21
21.1965699136
  0
LINE
  5
788
100
AcDbEntity
  8
ASSI
100
AcDbLine
 62
7
  6
CONTINUOUS
 10
6.7022433077
 20
21.3965394526
 11
6.7225598692
 21
21.3795943351
  0
LINE
  5
789
100
AcDbEntity
  8
ASSI
100
AcDbLine
 62
7
  6
CONTINUOUS
 10
6.7225598692
 20
21.3795943351
 11
6.8114503158
 21
21.3039146438
  0
LINE
  5
78A
100
AcDbEntity
  8
ASSI
100
AcDbLine
 62
7
  6
CONTINUOUS
 10
6.8114503158
 20
21.3039146438
 11
6.8542698568
 21
21.2669672182
  0
LINE
  5
78B
100
AcDbEntity
  8
ASSI
100
AcDbLine
 62
7
  6
CONTINUOUS
 10
6.8542698568
 20
21.2669672182
 11
6.8885474995
 21
21.2370111818
  0
LWPOLYLINE
  5
78C
100
AcDbEntity
  8
ASSI
100
AcDbPolyline
 62
7
  6
CONTINUOUS
 90
9
 70
0
 10
6.8885474995
 20
21.2370111818
 10
6.9062253201
 20
21.2213369519
 10
6.9134109897
 20
21.2149018367
 10
6.9194372977
 20
21.2094241067
 10
6.9243333735
 20
21.2049169748
 10
6.9281023894
 20
21.2013974007
 10
6.9307454029
 20
21.1988517847
 10
6.9322613566
 20
21.1972515258
 10
6.9326502504
 20
21.1965699136
  0
LINE
  5
78D
100
AcDbEntity
  8
ASSI
100
AcDbLine
 62
7
  6
CONTINUOUS
 10
9.211501009
 20
18.5
 11
9.2450934645
 21
18.4642565189
  0
LWPOLYLINE
  5
78E
100
AcDbEntity
  8
ASSI
100
AcDbPolyline
 62
7
  6
CONTINUOUS
 90
3
 70
0
 10
9.2450934645
 20
18.4642565189
 10
9.2946018461
 20
18.4110316938
 10
9.3108617497
 20
18.3934115183
  0
LWPOLYLINE
  5
78F
100
AcDbEntity
  8
ASSI
100
AcDbPolyline
 62
7
  6
CONTINUOUS
 90
10
 70
0
 10
4.2071270357
 20
-23.2631073618
 10
4.1513051783
 20
-23.2975607327
 10
4.0938707981
 20
-23.328101306
 10
4.0348238951
 20
-23.3547290816
 10
3.9739010778
 20
-23.3775235872
 10
3.9113657378
 20
-23.3964052951
 10
3.8480080499
 20
-23.4111356227
 10
3.784091406
 20
-23.4216350422
 10
3.7193524144
 20
-23.4279830815
 10
3.653791075
 20
-23.4301797403
  0
LWPOLYLINE
  5
790
100
AcDbEntity
  8
ASSI
100
AcDbPolyline
 62
7
  6
CONTINUOUS
 90
10
 70
0
 10
4.2275424871
 20
-23.3333597793
 10
4.1717720746
 20
-23.3677251683
 10
4.1143948191
 20
-23.3981875334
 10
4.0554107206
 20
-23.4247468744
 10
3.9945569791
 20
-23.4474824292
 10
3.9320963945
 20
-23.46631496
 10
3.8688173668
 20
-23.4810067538
 10
3.804982696
 20
-23.4914785729
 10
3.7403295821
 20
-23.4978096549
 10
3.6748580251
 20
-23.5
  0
LINE
  5
791
100
AcDbEntity
  8
ASSI
100
AcDbLine
 62
7
  6
CONTINUOUS
 10
6.9069415429
 20
21.1271628567
 11
2.6175930356
 21
21.1271628567
  0
LINE
  5
792
100
AcDbEntity
  8
ASSI
100
AcDbLine
 62
7
  6
CONTINUOUS
 10
-2.6175930356
 20
21.1271628567
 11
-6.9069415429
 21
21.1271628567
  0
LINE
  5
793
100
AcDbEntity
  8
ASSI
100
AcDbLine
 62
7
  6
CONTINUOUS
 10
3.298652529
 20
21.190565191
 11
3.1
 21
21.190565191
  0
LINE
  5
794
100
AcDbEntity
  8
ASSI
100
AcDbLine
 62
7
  6
CONTINUOUS
 10
-3.1
 20
21.190565191
 11
-3.298652529
 21
21.190565191
  0
LINE
  5
795
100
AcDbEntity
  8
ASSI
100
AcDbLine
 62
250
  6
CONTINUOUS
 10
-6.9326502504
 20
21.1965699136
 11
-3.3631544652
 21
21.1965699136
  0
LINE
  5
796
100
AcDbEntity
  8
ASSI
100
AcDbLine
 62
250
  6
CONTINUOUS
 10
3.3631544652
 20
21.1965699136
 11
6.9326502504
 21
21.1965699136
  0
LINE
  5
797
100
AcDbEntity
  8
ASSI
100
AcDbLine
 62
250
  6
CONTINUOUS
 10
-6.7022433077
 20
21.3965394526
 11
-3.4
 21
21.3965394526
  0
LINE
  5
798
100
AcDbEntity
  8
ASSI
100
AcDbLine
 62
250
  6
CONTINUOUS
 10
3.4
 20
21.3965394526
 11
6.7022433077
 21
21.3965394526
  0
LINE
  5
799
100
AcDbEntity
  8
ASSI
100
AcDbLine
 62
7
  6
CONTINUOUS
 10
2.7167632191
 20
21.6560705017
 11
-2.7167632191
 21
21.6560705017
  0
LINE
  5
79A
100
AcDbEntity
  8
ASSI
100
AcDbLine
 62
7
  6
CONTINUOUS
 10
3.163808999
 20
21.975
 11
3.1
 21
21.975
  0
LINE
  5
79B
100
AcDbEntity
  8
ASSI
100
AcDbLine
 62
7
  6
CONTINUOUS
 10
-3.1
 20
21.975
 11
-3.163808999
 21
21.975
  0
LINE
  5
79C
100
AcDbEntity
  8
ASSI
100
AcDbLine
 62
7
  6
CONTINUOUS
 10
-3.1
 20
22.2
 11
3.1
 21
22.2
  0
LINE
  5
79D
100
AcDbEntity
  8
ASSI
100
AcDbLine
 62
7
  6
CONTINUOUS
 10
10.6503805997
 20
22.4
 11
5.5473532533
 21
22.4
  0
LINE
  5
79E
100
AcDbEntity
  8
ASSI
100
AcDbLine
 62
7
  6
CONTINUOUS
 10
3.3848722771
 20
22.4
 11
3.3
 21
22.4
  0
LINE
  5
79F
100
AcDbEntity
  8
ASSI
100
AcDbLine
 62
7
  6
CONTINUOUS
 10
-3.3
 20
22.4
 11
-3.3848722771
 21
22.4
  0
LINE
  5
7A0
100
AcDbEntity
  8
ASSI
100
AcDbLine
 62
7
  6
CONTINUOUS
 10
-5.5473532533
 20
22.4
 11
-10.6503805997
 21
22.4
  0
LINE
  5
7A1
100
AcDbEntity
  8
ASSI
100
AcDbLine
 62
7
  6
CONTINUOUS
 10
3.3633443637
 20
22.5
 11
3.230158461
 21
22.5
  0
LINE
  5
7A2
100
AcDbEntity
  8
ASSI
100
AcDbLine
 62
7
  6
CONTINUOUS
 10
-3.230158461
 20
22.5
 11
-3.3633443637
 21
22.5
  0
LWPOLYLINE
  5
7A3
100
AcDbEntity
  8
ASSI
100
AcDbPolyline
 62
7
  6
CONTINUOUS
 90
10
 70
0
 10
4.2071270357
 20
23.2631073618
 10
4.1513051783
 20
23.2975607327
 10
4.0938707981
 20
23.328101306
 10
4.0348238951
 20
23.3547290816
 10
3.9739010778
 20
23.3775235872
 10
3.9113657378
 20
23.3964052951
 10
3.8480080499
 20
23.4111356227
 10
3.784091406
 20
23.4216350423
 10
3.7193524144
 20
23.4279830815
 10
3.653791075
 20
23.4301797403
  0
LWPOLYLINE
  5
7A4
100
AcDbEntity
  8
ASSI
100
AcDbPolyline
 62
7
  6
CONTINUOUS
 90
10
 70
0
 10
-3.653791075
 20
23.4301797403
 10
-3.7193524144
 20
23.4279830815
 10
-3.784091406
 20
23.4216350423
 10
-3.8480080499
 20
23.4111356227
 10
-3.9113657378
 20
23.3964052951
 10
-3.9739010778
 20
23.3775235872
 10
-4.0348238951
 20
23.3547290816
 10
-4.0938707981
 20
23.328101306
 10
-4.1513051783
 20
23.2975607327
 10
-4.2071270357
 20
23.2631073618
  0
LINE
  5
7A5
100
AcDbEntity
  8
ASSI
100
AcDbLine
 62
7
  6
CONTINUOUS
 10
-3.230158461
 20
23.375
 11
3.230158461
 21
23.375
  0
LINE
  5
7A6
100
AcDbEntity
  8
ASSI
100
AcDbLine
 62
7
  6
CONTINUOUS
 10
3.653791075
 20
23.4301797403
 11
3.4
 21
23.4301797403
  0
LINE
  5
7A7
100
AcDbEntity
  8
ASSI
100
AcDbLine
 62
7
  6
CONTINUOUS
 10
-3.4
 20
23.4301797403
 11
-3.653791075
 21
23.4301797403
  0
LINE
  5
7A8
100
AcDbEntity
  8
ASSI
100
AcDbLine
 62
7
  6
CONTINUOUS
 10
3.3633443637
 20
23.4668353766
 11
-3.3633443637
 21
23.4668353766
  0
LINE
  5
7A9
100
AcDbEntity
  8
ASSI
100
AcDbLine
 62
7
  6
CONTINUOUS
 10
-3.674857677
 20
23.5
 11
3.674857677
 21
23.5
  0
LWPOLYLINE
  5
7AA
100
AcDbEntity
  8
ASSI
100
AcDbPolyline
 62
7
  6
CONTINUOUS
 90
10
 70
0
 10
3.674857677
 20
23.5
 10
3.7403287489
 20
23.4978098092
 10
3.8049816727
 20
23.4914787877
 10
3.8688164486
 20
23.4810069354
 10
3.9320960973
 20
23.4663149397
 10
3.9945575979
 20
23.4474821133
 10
4.055411888
 20
23.4247463939
 10
4.1143959467
 20
23.3981870942
 10
4.1717727948
 20
23.3677249015
 10
4.2275424324
 20
23.3333598158
  0
ARC
  5
7AB
100
AcDbEntity
  8
ASSI
100
AcDbCircle
 62
7
  6
CONTINUOUS
 10
-6.6
 20
-12.5
 40
1.3019237886
100
AcDbArc
 50
90.0
 51
270.0
  0
ARC
  5
7AC
100
AcDbEntity
  8
ASSI
100
AcDbCircle
 62
7
  6
CONTINUOUS
 10
-6.6
 20
-7.5
 40
1.3019237886
100
AcDbArc
 50
90.0
 51
270.0
  0
ARC
  5
7AD
100
AcDbEntity
  8
ASSI
100
AcDbCircle
 62
7
  6
CONTINUOUS
 10
-6.6
 20
-2.5
 40
1.3019237886
100
AcDbArc
 50
90.0
 51
270.0
  0
ARC
  5
7AE
100
AcDbEntity
  8
ASSI
100
AcDbCircle
 62
7
  6
CONTINUOUS
 10
-6.6
 20
-12.5
 40
0.9
100
AcDbArc
 50
90.0
 51
270.0
  0
ARC
  5
7AF
100
AcDbEntity
  8
ASSI
100
AcDbCircle
 62
7
  6
CONTINUOUS
 10
-6.6
 20
-7.5
 40
0.9
100
AcDbArc
 50
90.0
 51
270.0
  0
ARC
  5
7B0
100
AcDbEntity
  8
ASSI
100
AcDbCircle
 62
7
  6
CONTINUOUS
 10
-6.6
 20
-2.5
 40
0.9
100
AcDbArc
 50
90.0
 51
270.0
  0
ARC
  5
7B1
100
AcDbEntity
  8
CURVE
100
AcDbCircle
 62
250
  6
CONTINUOUS
 10
-8.99
 20
-15.24316
 40
0.565
100
AcDbArc
 50
90.0
 51
270.0
  0
ARC
  5
7B2
100
AcDbEntity
  8
CURVE
100
AcDbCircle
 62
250
  6
CONTINUOUS
 10
-8.99
 20
-16.36816
 40
0.56
100
AcDbArc
 50
270.0
 51
90.0
  0
ARC
  5
7B3
100
AcDbEntity
  8
ASSI
100
AcDbCircle
 62
7
  6
CONTINUOUS
 10
-4.95
 20
-23.1
 40
0.5
100
AcDbArc
 50
350.803718421
 51
119.112422776
  0
ARC
  5
7B4
100
AcDbEntity
  8
ASSI
100
AcDbCircle
 62
7
  6
CONTINUOUS
 10
-3.15
 20
-21.65
 40
0.3
100
AcDbArc
 50
105.4974132242
 51
146.5761052008
  0
ARC
  5
7B5
100
AcDbEntity
  8
ASSI
100
AcDbCircle
 62
7
  6
CONTINUOUS
 10
-3.15
 20
-21.65
 40
0.3
100
AcDbArc
 50
213.4238947992
 51
254.5025867758
  0
ARC
  5
7B6
100
AcDbEntity
  8
ASSI
100
AcDbCircle
 62
7
  6
CONTINUOUS
 10
-11.25
 20
0.0
 40
28.0
100
AcDbArc
 50
38.3146467789
 51
54.0372348486
  0
ARC
  5
7B7
100
AcDbEntity
  8
ASSI
100
AcDbCircle
 62
7
  6
CONTINUOUS
 10
-11.25
 20
0.0
 40
28.0
100
AcDbArc
 50
55.8789063483
 51
56.4427882703
  0
ARC
  5
7B8
100
AcDbEntity
  8
ASSI
100
AcDbCircle
 62
7
  6
CONTINUOUS
 10
-11.25
 20
0.0
 40
28.0
100
AcDbArc
 50
303.5572118642
 51
304.1210936517
  0
ARC
  5
7B9
100
AcDbEntity
  8
ASSI
100
AcDbCircle
 62
7
  6
CONTINUOUS
 10
-11.25
 20
0.0
 40
28.0
100
AcDbArc
 50
305.9627651514
 51
321.6853532213
  0
ARC
  5
7BA
100
AcDbEntity
  8
ASSI
100
AcDbCircle
 62
7
  6
CONTINUOUS
 10
-11.25
 20
0.0
 40
27.9301797403
100
AcDbArc
 50
55.7977423189
 51
56.3980257285
  0
ARC
  5
7BB
100
AcDbEntity
  8
ASSI
100
AcDbCircle
 62
7
  6
CONTINUOUS
 10
-11.25
 20
0.0
 40
27.9301797403
100
AcDbArc
 50
50.0024908487
 51
54.118398878
  0
ARC
  5
7BC
100
AcDbEntity
  8
ASSI
100
AcDbCircle
 62
7
  6
CONTINUOUS
 10
-11.25
 20
0.0
 40
27.9301797403
100
AcDbArc
 50
305.881601122
 51
309.9975091513
  0
ARC
  5
7BD
100
AcDbEntity
  8
ASSI
100
AcDbCircle
 62
7
  6
CONTINUOUS
 10
-11.25
 20
0.0
 40
27.9301797403
100
AcDbArc
 50
303.6019742715
 51
304.2022576811
  0
ARC
  5
7BE
100
AcDbEntity
  8
ASSI
100
AcDbCircle
 62
7
  6
CONTINUOUS
 10
-11.25
 20
0.0
 40
27.3541625977
100
AcDbArc
 50
318.8498075927
 51
321.1811363303
  0
ARC
  5
7BF
100
AcDbEntity
  8
ASSI
100
AcDbCircle
 62
7
  6
CONTINUOUS
 10
-11.25
 20
0.0
 40
27.3541625977
100
AcDbArc
 50
38.8188636697
 51
41.1501924073
  0
ARC
  5
7C0
100
AcDbEntity
  8
ASSI
100
AcDbCircle
 62
7
  6
CONTINUOUS
 10
-6.6
 20
2.5
 40
1.3019237886
100
AcDbArc
 50
90.0
 51
270.0
  0
ARC
  5
7C1
100
AcDbEntity
  8
ASSI
100
AcDbCircle
 62
7
  6
CONTINUOUS
 10
-6.6
 20
2.5
 40
0.9
100
AcDbArc
 50
90.0
 51
270.0
  0
ARC
  5
7C2
100
AcDbEntity
  8
ASSI
100
AcDbCircle
 62
7
  6
CONTINUOUS
 10
-4.95
 20
23.1
 40
0.5
100
AcDbArc
 50
240.887577224
 51
9.196281579
  0
ARC
  5
7C3
100
AcDbEntity
  8
ASSI
100
AcDbCircle
 62
7
  6
CONTINUOUS
 10
-3.15
 20
21.65
 40
0.3
100
AcDbArc
 50
105.4974132242
 51
146.5761052008
  0
ARC
  5
7C4
100
AcDbEntity
  8
ASSI
100
AcDbCircle
 62
7
  6
CONTINUOUS
 10
-3.15
 20
21.65
 40
0.3
100
AcDbArc
 50
213.4238947992
 51
254.5025867758
  0
ARC
  5
7C5
100
AcDbEntity
  8
ASSI
100
AcDbCircle
 62
7
  6
CONTINUOUS
 10
6.6
 20
-12.5
 40
1.3019237886
100
AcDbArc
 50
270.0
 51
90.0
  0
ARC
  5
7C6
100
AcDbEntity
  8
ASSI
100
AcDbCircle
 62
7
  6
CONTINUOUS
 10
6.6
 20
-7.5
 40
1.3019237886
100
AcDbArc
 50
270.0
 51
90.0
  0
ARC
  5
7C7
100
AcDbEntity
  8
ASSI
100
AcDbCircle
 62
7
  6
CONTINUOUS
 10
6.6
 20
-2.5
 40
1.3019237886
100
AcDbArc
 50
270.0
 51
90.0
  0
ARC
  5
7C8
100
AcDbEntity
  8
IMPORT_IGES
100
AcDbCircle
 62
7
  6
CONTINUOUS
 10
6.175
 20
-11.05
 40
0.925
100
AcDbArc
 50
216.8556142737
 51
319.7156880198
  0
ARC
  5
7C9
100
AcDbEntity
  8
IMPORT_IGES
100
AcDbCircle
 62
7
  6
CONTINUOUS
 10
6.175
 20
-2.9
 40
0.925
100
AcDbArc
 50
333.7793573904
 51
212.9409218242
  0
ARC
  5
7CA
100
AcDbEntity
  8
ASSI
100
AcDbCircle
 62
7
  6
CONTINUOUS
 10
6.6
 20
-12.5
 40
0.9
100
AcDbArc
 50
270.0
 51
90.0
  0
ARC
  5
7CB
100
AcDbEntity
  8
ASSI
100
AcDbCircle
 62
7
  6
CONTINUOUS
 10
6.6
 20
-7.5
 40
0.9
100
AcDbArc
 50
270.0
 51
90.0
  0
ARC
  5
7CC
100
AcDbEntity
  8
ASSI
100
AcDbCircle
 62
7
  6
CONTINUOUS
 10
6.6
 20
-2.5
 40
0.9
100
AcDbArc
 50
270.0
 51
90.0
  0
ARC
  5
7CD
100
AcDbEntity
  8
IMPORT_IGES
100
AcDbCircle
 62
250
  6
CONTINUOUS
 10
6.175
 20
-2.9
 40
0.72499081
100
AcDbArc
 50
315.0496246509
 51
225.0525317306
  0
ARC
  5
7CE
100
AcDbEntity
  8
IMPORT_IGES
100
AcDbCircle
 62
250
  6
CONTINUOUS
 10
6.175
 20
-11.05
 40
0.72499081
100
AcDbArc
 50
232.4421630461
 51
308.0973260664
  0
ARC
  5
7CF
100
AcDbEntity
  8
ASSI
100
AcDbCircle
 62
7
  6
CONTINUOUS
 10
4.95
 20
-23.1
 40
0.5
100
AcDbArc
 50
60.887577224
 51
189.1962815791
  0
ARC
  5
7D0
100
AcDbEntity
  8
ASSI
100
AcDbCircle
 62
7
  6
CONTINUOUS
 10
6.95
 20
-18.5
 40
0.5
100
AcDbArc
 50
90.0
 51
180.0
  0
ARC
  5
7D1
100
AcDbEntity
  8
ASSI
100
AcDbCircle
 62
7
  6
CONTINUOUS
 10
3.15
 20
-21.65
 40
0.3
100
AcDbArc
 50
285.4974132242
 51
326.5761052008
  0
ARC
  5
7D2
100
AcDbEntity
  8
ASSI
100
AcDbCircle
 62
7
  6
CONTINUOUS
 10
3.15
 20
-21.65
 40
0.3
100
AcDbArc
 50
33.4238947992
 51
74.5025867758
  0
ARC
  5
7D3
100
AcDbEntity
  8
ASSI
100
AcDbCircle
 62
7
  6
CONTINUOUS
 10
11.25
 20
0.0
 40
28.0
100
AcDbArc
 50
123.5572117297
 51
124.1210936517
  0
ARC
  5
7D4
100
AcDbEntity
  8
ASSI
100
AcDbCircle
 62
7
  6
CONTINUOUS
 10
11.25
 20
0.0
 40
28.0
100
AcDbArc
 50
125.9627651514
 51
141.6853532211
  0
ARC
  5
7D5
100
AcDbEntity
  8
ASSI
100
AcDbCircle
 62
7
  6
CONTINUOUS
 10
11.25
 20
0.0
 40
28.0
100
AcDbArc
 50
218.3146467787
 51
234.0372348486
  0
ARC
  5
7D6
100
AcDbEntity
  8
ASSI
100
AcDbCircle
 62
7
  6
CONTINUOUS
 10
11.25
 20
0.0
 40
28.0
100
AcDbArc
 50
235.8789063483
 51
236.4427881358
  0
ARC
  5
7D7
100
AcDbEntity
  8
ASSI
100
AcDbCircle
 62
7
  6
CONTINUOUS
 10
11.25
 20
0.0
 40
27.9301797403
100
AcDbArc
 50
235.7977423189
 51
236.3980257285
  0
ARC
  5
7D8
100
AcDbEntity
  8
ASSI
100
AcDbCircle
 62
7
  6
CONTINUOUS
 10
11.25
 20
0.0
 40
27.9301797403
100
AcDbArc
 50
230.0024908487
 51
234.118398878
  0
ARC
  5
7D9
100
AcDbEntity
  8
ASSI
100
AcDbCircle
 62
7
  6
CONTINUOUS
 10
11.25
 20
0.0
 40
27.9301797403
100
AcDbArc
 50
125.881601122
 51
129.9975091513
  0
ARC
  5
7DA
100
AcDbEntity
  8
ASSI
100
AcDbCircle
 62
7
  6
CONTINUOUS
 10
11.25
 20
0.0
 40
27.9301797403
100
AcDbArc
 50
123.6019742715
 51
124.2022576811
  0
ARC
  5
7DB
100
AcDbEntity
  8
ASSI
100
AcDbCircle
 62
7
  6
CONTINUOUS
 10
11.25
 20
0.0
 40
27.3541625977
100
AcDbArc
 50
134.0094082635
 51
141.1811363303
  0
ARC
  5
7DC
100
AcDbEntity
  8
ASSI
100
AcDbCircle
 62
7
  6
CONTINUOUS
 10
11.25
 20
0.0
 40
27.3541625977
100
AcDbArc
 50
218.8188636697
 51
225.9905917365
  0
ARC
  5
7DD
100
AcDbEntity
  8
ASSI
100
AcDbCircle
 62
7
  6
CONTINUOUS
 10
6.6
 20
2.5
 40
1.3019237886
100
AcDbArc
 50
270.0
 51
90.0
  0
ARC
  5
7DE
100
AcDbEntity
  8
ASSI
100
AcDbCircle
 62
7
  6
CONTINUOUS
 10
6.6
 20
2.5
 40
0.9
100
AcDbArc
 50
270.0
 51
90.0
  0
ARC
  5
7DF
100
AcDbEntity
  8
ASSI
100
AcDbCircle
 62
7
  6
CONTINUOUS
 10
4.95
 20
23.1
 40
0.5
100
AcDbArc
 50
170.8037184209
 51
299.112422776
  0
ARC
  5
7E0
100
AcDbEntity
  8
ASSI
100
AcDbCircle
 62
7
  6
CONTINUOUS
 10
6.95
 20
18.5
 40
0.5
100
AcDbArc
 50
180.0
 51
270.0
  0
ARC
  5
7E1
100
AcDbEntity
  8
ASSI
100
AcDbCircle
 62
7
  6
CONTINUOUS
 10
3.15
 20
21.65
 40
0.3
100
AcDbArc
 50
285.4974132242
 51
326.5761052008
  0
ARC
  5
7E2
100
AcDbEntity
  8
ASSI
100
AcDbCircle
 62
7
  6
CONTINUOUS
 10
3.15
 20
21.65
 40
0.3
100
AcDbArc
 50
33.4238947992
 51
74.5025867758
  0
ELLIPSE
  5
7E3
100
AcDbEntity
  8
ASSI
100
AcDbEllipse
 62
7
  6
CONTINUOUS
 10
-10.649923836
 20
-21.899313827
 30
0.0
 11
-0.1582391023
 21
-0.4751033573
 31
0.0
 40
0.9984778551
 41
-1.2488325878
 42
0.3210503505
  0
ELLIPSE
  5
7E4
100
AcDbEntity
  8
ASSI
100
AcDbEllipse
 62
7
  6
CONTINUOUS
 10
-10.649923836
 20
21.899313827
 30
0.0
 11
0.1582391023
 21
-0.4751033573
 31
0.0
 40
0.9984778551
 41
2.8205423031
 42
4.3904252414
  0
ELLIPSE
  5
7E5
100
AcDbEntity
  8
ASSI
100
AcDbEllipse
 62
7
  6
CONTINUOUS
 10
10.649923836
 20
-21.899313827
 30
0.0
 11
0.1582391023
 21
-0.4751033573
 31
0.0
 40
0.9984778551
 41
-0.3210503505
 42
1.2488325878
  0
ELLIPSE
  5
7E6
100
AcDbEntity
  8
ASSI
100
AcDbEllipse
 62
7
  6
CONTINUOUS
 10
10.649923836
 20
21.899313827
 30
0.0
 11
-0.1582391023
 21
-0.4751033573
 31
0.0
 40
0.9984778551
 41
1.8927600658
 42
3.4626430041
  0
ELLIPSE
  5
7E7
100
AcDbEntity
  8
ASSI
100
AcDbEllipse
 62
7
  6
CONTINUOUS
 10
-9.5605759059
 20
12.5
 30
0.0
 11
0.0
 21
2.1
 31
0.0
 40
0.0087268678
 41
2.0089446693
 42
3.1328660073
  0
ELLIPSE
  5
7E8
100
AcDbEntity
  8
ASSI
100
AcDbEllipse
 62
7
  6
CONTINUOUS
 10
-9.7180958696
 20
12.5
 30
0.0
 11
0.0
 21
0.75
 31
0.0
 40
0.0087268678
 41
0.0087266463
 42
3.1328660073
  0
ELLIPSE
  5
7E9
100
AcDbEntity
  8
ASSI
100
AcDbEllipse
 62
7
  6
CONTINUOUS
 10
-9.5605759059
 20
12.5
 30
0.0
 11
-0.0
 21
2.1
 31
0.0
 40
0.0087268678
 41
6.2919119534
 42
7.4158332915
  0
ELLIPSE
  5
7EA
100
AcDbEntity
  8
ASSI
100
AcDbEllipse
 62
7
  6
CONTINUOUS
 10
-9.7180958696
 20
-12.5
 30
0.0
 11
0.0
 21
0.75
 31
0.0
 40
0.0087268678
 41
0.0087266463
 42
3.1328660073
  0
ELLIPSE
  5
7EB
100
AcDbEntity
  8
ASSI
100
AcDbEllipse
 62
7
  6
CONTINUOUS
 10
-9.7180958696
 20
-7.5
 30
0.0
 11
-0.0
 21
0.75
 31
0.0
 40
0.0087268678
 41
0.0087266463
 42
3.1328660073
  0
ELLIPSE
  5
7EC
100
AcDbEntity
  8
ASSI
100
AcDbEllipse
 62
7
  6
CONTINUOUS
 10
-9.7180958696
 20
-2.5
 30
0.0
 11
0.0
 21
0.75
 31
0.0
 40
0.0087268678
 41
0.0087266463
 42
3.1328660073
  0
ELLIPSE
  5
7ED
100
AcDbEntity
  8
ASSI
100
AcDbEllipse
 62
7
  6
CONTINUOUS
 10
-9.7180958696
 20
2.5
 30
0.0
 11
-0.0
 21
0.75
 31
0.0
 40
0.0087268678
 41
0.0087266463
 42
3.1328660073
  0
ELLIPSE
  5
7EE
100
AcDbEntity
  8
ASSI
100
AcDbEllipse
 62
7
  6
CONTINUOUS
 10
-9.5605759059
 20
7.5
 30
0.0
 11
0.0
 21
2.1
 31
0.0
 40
0.0087268678
 41
2.0089446693
 42
3.1328660073
  0
ELLIPSE
  5
7EF
100
AcDbEntity
  8
ASSI
100
AcDbEllipse
 62
7
  6
CONTINUOUS
 10
-9.7180958696
 20
7.5
 30
0.0
 11
-0.0
 21
0.75
 31
0.0
 40
0.0087268678
 41
0.0087266463
 42
3.1328660073
  0
ELLIPSE
  5
7F0
100
AcDbEntity
  8
ASSI
100
AcDbEllipse
 62
7
  6
CONTINUOUS
 10
-9.5605759059
 20
7.5
 30
0.0
 11
0.0
 21
2.1
 31
0.0
 40
0.0087268678
 41
6.2919119534
 42
7.4158332915
  0
ELLIPSE
  5
7F1
100
AcDbEntity
  8
ASSI
100
AcDbEllipse
 62
7
  6
CONTINUOUS
 10
9.7180958696
 20
7.5
 30
0.0
 11
-0.0
 21
0.75
 31
0.0
 40
0.0087268678
 41
-3.1328660073
 42
-0.0087266463
  0
ELLIPSE
  5
7F2
100
AcDbEntity
  8
ASSI
100
AcDbEllipse
 62
7
  6
CONTINUOUS
 10
9.7180958696
 20
2.5
 30
0.0
 11
-0.0
 21
0.75
 31
0.0
 40
0.0087268678
 41
-3.1328660073
 42
-0.0087266463
  0
ELLIPSE
  5
7F3
100
AcDbEntity
  8
ASSI
100
AcDbEllipse
 62
7
  6
CONTINUOUS
 10
9.7180958696
 20
-2.5
 30
0.0
 11
-0.0
 21
0.75
 31
0.0
 40
0.0087268678
 41
-3.1328660073
 42
-0.0087266463
  0
ELLIPSE
  5
7F4
100
AcDbEntity
  8
ASSI
100
AcDbEllipse
 62
7
  6
CONTINUOUS
 10
9.7180958696
 20
-7.5
 30
0.0
 11
-0.0
 21
0.75
 31
0.0
 40
0.0087268678
 41
-3.1328660073
 42
-0.0087266463
  0
ELLIPSE
  5
7F5
100
AcDbEntity
  8
ASSI
100
AcDbEllipse
 62
7
  6
CONTINUOUS
 10
9.7180958696
 20
-12.5
 30
0.0
 11
0.0
 21
0.75
 31
0.0
 40
0.0087268678
 41
-3.1328660073
 42
-0.0087266463
  0
ELLIPSE
  5
7F6
100
AcDbEntity
  8
ASSI
100
AcDbEllipse
 62
7
  6
CONTINUOUS
 10
9.7180958696
 20
12.5
 30
0.0
 11
0.0
 21
0.75
 31
0.0
 40
0.0087268678
 41
-3.1328660073
 42
-0.0087266463
  0
ELLIPSE
  5
7F7
100
AcDbEntity
  8
ASSI
100
AcDbEllipse
 62
7
  6
CONTINUOUS
 10
-11.25
 20
-0.4799609489
 30
0.0
 11
-0.0
 21
27.4969443471
 31
0.0
 40
0.9998476487
 41
-2.4202061644
 42
-2.3684531067
  0
ELLIPSE
  5
7F8
100
AcDbEntity
  8
ASSI
100
AcDbEllipse
 62
7
  6
CONTINUOUS
 10
11.25
 20
-0.4799609489
 30
0.0
 11
-0.0
 21
27.4969443471
 31
0.0
 40
0.9998476487
 41
-3.9147322004
 42
-3.8629791428
  0
ELLIPSE
  5
7F9
100
AcDbEntity
  8
ASSI
100
AcDbEllipse
 62
7
  6
CONTINUOUS
 10
6.95
 20
-19.8186608617
 30
0.0
 11
0.5
 21
0.0
 31
0.0
 40
0.0174550649
 41
3.1415926536
 42
3.6651914292
  0
ELLIPSE
  5
7FA
100
AcDbEntity
  8
ASSI
100
AcDbEllipse
 62
7
  6
CONTINUOUS
 10
6.95
 20
19.8186608617
 30
0.0
 11
0.5
 21
-0.0
 31
0.0
 40
0.0174550649
 41
2.617993878
 42
3.1415926536
  0
ELLIPSE
  5
7FB
100
AcDbEntity
  8
ASSI
100
AcDbEllipse
 62
7
  6
CONTINUOUS
 10
-10.6211115327
 20
7.5
 30
0.0
 11
-0.0
 21
2.1
 31
0.0
 40
0.0174550649
 41
0.0087266463
 42
0.9737978514
  0
ELLIPSE
  5
7FC
100
AcDbEntity
  8
ASSI
100
AcDbEllipse
 62
7
  6
CONTINUOUS
 10
-10.6211115327
 20
7.5
 30
0.0
 11
-0.0
 21
2.1
 31
0.0
 40
0.0174550649
 41
-4.115390505
 42
-3.1503192998
  0
ELLIPSE
  5
7FD
100
AcDbEntity
  8
ASSI
100
AcDbEllipse
 62
7
  6
CONTINUOUS
 10
-10.6211115327
 20
12.5
 30
0.0
 11
-0.0
 21
2.1
 31
0.0
 40
0.0174550649
 41
0.0087266463
 42
0.9737978514
  0
ELLIPSE
  5
7FE
100
AcDbEntity
  8
ASSI
100
AcDbEllipse
 62
7
  6
CONTINUOUS
 10
-10.6211115327
 20
12.5
 30
0.0
 11
-0.0
 21
2.1
 31
0.0
 40
0.0174550649
 41
-4.115390505
 42
-3.1503192998
  0
ELLIPSE
  5
7FF
100
AcDbEntity
  8
ASSI
100
AcDbEllipse
 62
7
  6
CONTINUOUS
 10
-10.4339828178
 20
0.0
 30
0.0
 11
26.9908901381
 21
0.0
 31
0.0
 40
0.9995428766
 41
-0.8275010126
 42
-0.7556060469
  0
ELLIPSE
  5
800
100
AcDbEntity
  8
ASSI
100
AcDbEllipse
 62
7
  6
CONTINUOUS
 10
-10.4339828178
 20
0.0
 30
0.0
 11
26.9908901381
 21
-0.0
 31
0.0
 40
0.9995428766
 41
0.7556060469
 42
0.8275010126
  0
ELLIPSE
  5
801
100
AcDbEntity
  8
ASSI
100
AcDbEllipse
 62
7
  6
CONTINUOUS
 10
1.6
 20
20.1059375559
 30
0.0
 11
1.3142698924
 21
0.0
 31
0.0
 40
0.0174552558
 41
-0.0025427294
 42
3.144135383
  0
ELLIPSE
  5
802
100
AcDbEntity
  8
ASSI
100
AcDbEllipse
 62
7
  6
CONTINUOUS
 10
-2.2
 20
20.1059375559
 30
0.0
 11
1.3142698924
 21
0.0
 31
0.0
 40
0.0174552558
 41
-0.0025427294
 42
3.144135383
  0
ELLIPSE
  5
803
100
AcDbEntity
  8
ASSI
100
AcDbEllipse
 62
7
  6
CONTINUOUS
 10
-6.0
 20
20.1059375559
 30
0.0
 11
1.3142698924
 21
0.0
 31
0.0
 40
0.0174552558
 41
-0.0025427294
 42
3.144135383
  0
ELLIPSE
  5
804
100
AcDbEntity
  8
ASSI
100
AcDbEllipse
 62
7
  6
CONTINUOUS
 10
11.25
 20
0.4799609489
 30
0.0
 11
0.0
 21
27.4969443471
 31
0.0
 40
0.9998476487
 41
0.7213864892
 42
0.7731395469
  0
ELLIPSE
  5
805
100
AcDbEntity
  8
ASSI
100
AcDbEllipse
 62
7
  6
CONTINUOUS
 10
-11.25
 20
0.4799609489
 30
0.0
 11
0.0
 21
27.4969443471
 31
0.0
 40
0.9998476487
 41
-0.7731395469
 42
-0.7213864892
  0
ELLIPSE
  5
806
100
AcDbEntity
  8
ASSI
100
AcDbEllipse
 62
7
  6
CONTINUOUS
 10
-6.1725958203
 20
7.5
 30
0.0
 11
7.8400124619
 21
-2.099888098
 31
0.0
 40
0.0027651645
 41
-2.1781182828
 42
-2.0192681499
  0
ELLIPSE
  5
807
100
AcDbEntity
  8
ASSI
100
AcDbEllipse
 62
7
  6
CONTINUOUS
 10
-6.1725958203
 20
7.5
 30
0.0
 11
7.8400124619
 21
2.099888098
 31
0.0
 40
0.0027651645
 41
2.0192681499
 42
2.1781182828
  0
ELLIPSE
  5
808
100
AcDbEntity
  8
ASSI
100
AcDbEllipse
 62
7
  6
CONTINUOUS
 10
-6.1725958203
 20
12.5
 30
0.0
 11
7.8400124619
 21
-2.099888098
 31
0.0
 40
0.0027651645
 41
-2.1781182828
 42
-2.0192681499
  0
ELLIPSE
  5
809
100
AcDbEntity
  8
ASSI
100
AcDbEllipse
 62
7
  6
CONTINUOUS
 10
-6.1725958203
 20
12.5
 30
0.0
 11
7.8400124619
 21
2.099888098
 31
0.0
 40
0.0027651645
 41
2.0192681499
 42
2.1781182828
  0
ENDSEC
  0
SECTION
  2
OBJECTS
  0
DICTIONARY
  5
C
100
AcDbDictionary
280
0
281
1
  3
ACAD_GROUP
350
D
  3
ACAD_MLINESTYLE
350
17
  3
ACAD_LAYOUT
350
1A
  3
ACAD_PLOTSETTINGS
350
19
  3
ACAD_PLOTSTYLENAME
350
E
  0
DICTIONARY
  5
D
102
{ACAD_REACTORS
330
C
102
}
100
AcDbDictionary
280
0
281
1
  0
ACDBDICTIONARYWDFLT
  5
E
102
{ACAD_REACTORS
330
C
102
}
100
AcDbDictionary
281
1
  3
Normal
350
F
100
AcDbDictionaryWithDefault
340
F
  0
DICTIONARY
  5
17
102
{ACAD_REACTORS
330
C
102
}
100
AcDbDictionary
280
0
281
1
  3
Standard
350
18
  0
DICTIONARY
  5
19
102
{ACAD_REACTORS
330
C
102
}
100
AcDbDictionary
281
1
  0
DICTIONARY
  5
1A
102
{ACAD_REACTORS
330
C
102
}
100
AcDbDictionary
281
1
  3
Model
350
80A
  3
Layout1
350
80B
  0
ACDBPLACEHOLDER
  5
F
102
{ACAD_REACTORS
330
E
102
}
  0
MLINESTYLE
  5
18
102
{ACAD_REACTORS
330
17
102
}
100
AcDbMlineStyle
  2
STANDARD
 70
0
  3

 62
256
 51
90.0
 52
90.0
 71
2
 49
0.5
 62
256
  6
BYLAYER
 49
-0.5
 62
256
  6
BYLAYER
  0
LAYOUT
  5
80A
102
{ACAD_REACTORS
330
1A
102
}
100
AcDbPlotSettings
  1

  2
none_device
  4

  6

 40
0.0
 41
0.0
 42
0.0
 43
0.0
 44
210.0
 45
297.0
 46
0.0
 47
0.0
 48
0.0
 49
0.0
140
0.0
141
0.0
142
1.0
143
1.0
 70
1024
 72
1
 73
0
 74
0
  7

 75
0
147
1.0
148
0.0
149
0.0
100
AcDbLayout
  1
Model
 70
0
 71
0
 10
0.0
 20
0.0
 11
210.0
 21
297.0
 12
0.0
 22
0.0
 32
0.0
 14
0.0
 24
0.0
 34
0.0
 15
0.0
 25
0.0
 35
0.0
146
0.0
 13
0.0
 23
0.0
 33
0.0
 16
1.0
 26
0.0
 36
0.0
 17
0.0
 27
1.0
 37
0.0
 76
0
330
258
345
0
346
0
  0
LAYOUT
  5
80B
102
{ACAD_REACTORS
330
1A
102
}
100
AcDbPlotSettings
  1

  2
none_device
  4

  6

 40
0.0
 41
0.0
 42
0.0
 43
0.0
 44
210.0
 45
297.0
 46
0.0
 47
0.0
 48
0.0
 49
0.0
140
0.0
141
0.0
142
1.0
143
1.0
 70
0
 72
1
 73
0
 74
0
  7

 75
0
147
1.0
148
0.0
149
0.0
100
AcDbLayout
  1
Layout1
 70
0
 71
1
 10
0.0
 20
0.0
 11
210.0
 21
297.0
 12
0.0
 22
0.0
 32
0.0
 14
0.0
 24
0.0
 34
0.0
 15
0.0
 25
0.0
 35
0.0
146
0.0
 13
0.0
 23
0.0
 33
0.0
 16
1.0
 26
0.0
 36
0.0
 17
0.0
 27
1.0
 37
0.0
 76
0
330
259
345
0
346
0
  0
ENDSEC
  0
EOF
