  0
SECTION
  2
HEADER
  9
$ACADVER
  1
AC1024
  9
$DWGCODEPAGE
  3
ANSI_1252
  9
$EXTMAX
 10
210.0
 20
297.0
 30
0.0
  9
$EXTMIN
 10
0.0
 20
0.0
 30
0.0
  9
$LIMMIN
 10
0.0
 20
0.0
  9
$LIMMAX
 10
210.0
 20
297.0
  9
$VIEWCTR
 10
105.0
 20
148.5
  9
$VIEWSIZE
 40
297.0
  9
$CLAYER
  8
0
  9
$LTSCALE
 40
19.36
  9
$CELTYPE
  6
BYLAYER
  9
$DIMSCALE
 40
1.0
  9
$DIMASZ
 40
3.0
  9
$DIMEXO
 40
0.5
  9
$DIMDLI
 40
13.376
  9
$DIMEXE
 40
1.5
  9
$DIMCEN
 40
3.168
  9
$DIMLFAC
 40
1.0
  9
$DIMBLK
  1
_FILLED
  9
$DIMALT
 70
0
  9
$DIMALTF
 40
0.0393700787
  9
$DIMTXT
 40
3.0
  9
$DIMTOL
 70
1
  9
$DIMLIM
 70
0
  9
$DIMTFAC
 40
1.0
  9
$DIMTP
 40
0.01
  9
$DIMTM
 40
0.01
  9
$DIMGAP
 40
0.625
  9
$DIMDSEP
 70
44
  9
$AUNITS
 70
0
  9
$PDMODE
 70
3
  9
$PDSIZE
 40
3.0
  9
$HANDSEED
  5
672
  9
$TILEMODE
 70
1
  9
$MEASUREMENT
 70
1
  9
$INSUNITS
 70
4
  0
ENDSEC
  0
SECTION
  2
CLASSES
  0
CLASS
  1
ACDBDICTIONARYWDFLT
  2
AcDbDictionaryWithDefault
  3
AutoCAD 2000
 90
0
 91
1
280
0
281
0
  0
CLASS
  1
ACDBPLACEHOLDER
  2
AcDbPlaceHolder
  3
AutoCAD 2000
 90
0
 91
1
280
0
281
0
  0
CLASS
  1
LAYOUT
  2
AcDbLayout
  3
AutoCAD 2000
 90
0
 91
0
280
0
281
0
  0
ENDSEC
  0
SECTION
  2
TABLES
  0
TABLE
  2
VPORT
  5
8
100
AcDbSymbolTable
 70
2
  0
VPORT
  5
1F4
100
AcDbSymbolTableRecord
100
AcDbViewportTableRecord
  2
*ACTIVE
 70
0
 10
0.0
 20
0.0
 11
1.0
 21
1.0
 12
105.0
 22
148.5
 13
0.0
 23
0.0
 14
1.0
 24
1.0
 15
0.0
 25
0.0
 16
0.0
 26
0.0
 36
1.0
 17
0.0
 27
0.0
 37
0.0
 40
297.0
 41
0.7070707071
 42
50.0
 43
0.0
 44
0.0
 50
0.0
 51
0.0
 71
0
 72
100
 73
1
 74
1
 75
0
 76
0
 77
0
 78
0
  0
ENDTAB
  0
TABLE
  2
LTYPE
  5
5
100
AcDbSymbolTable
 70
6
  0
LTYPE
  5
14
100
AcDbSymbolTableRecord
100
AcDbLinetypeTableRecord
  2
BYBLOCK
 70
0
  3

 72
65
 73
0
 40
0.0
  0
LTYPE
  5
15
100
AcDbSymbolTableRecord
100
AcDbLinetypeTableRecord
  2
BYLAYER
 70
0
  3

 72
65
 73
0
 40
0.0
  0
LTYPE
  5
16
100
AcDbSymbolTableRecord
100
AcDbLinetypeTableRecord
  2
CONTINUOUS
 70
64
  3
Solid line
 72
65
 73
0
 40
0.0
  0
LTYPE
  5
1F5
100
AcDbSymbolTableRecord
100
AcDbLinetypeTableRecord
  2
CENTER
 70
64
  3
____ _ ____ _ ____ _ ____ _ ____ _ ____ _ ____
 72
65
 73
4
 40
0.6
 49
0.375
 74
0
 49
-0.075
 74
0
 49
0.075
 74
0
 49
-0.075
 74
0
  0
LTYPE
  5
1F6
100
AcDbSymbolTableRecord
100
AcDbLinetypeTableRecord
  2
HIDDEN
 70
64
  3
- - - - - - - - - - - - - - - - - - - -
 72
65
 73
2
 40
0.2
 49
0.1
 74
0
 49
-0.1
 74
0
  0
LTYPE
  5
1F7
100
AcDbSymbolTableRecord
100
AcDbLinetypeTableRecord
  2
PHANTOM
 70
64
  3
_____ _ _ _____ _ _ _____ _ _ _____
 72
65
 73
6
 40
0.8
 49
0.45
 74
0
 49
-0.05
 74
0
 49
0.1
 74
0
 49
-0.05
 74
0
 49
0.1
 74
0
 49
-0.05
 74
0
  0
LTYPE
  5
1F8
100
AcDbSymbolTableRecord
100
AcDbLinetypeTableRecord
  2
DOT
 70
64
  3
. . . . . . . . . . . . . . . . . . . .
 72
65
 73
2
 40
0.2
 49
0.1
 74
0
 49
-0.1
 74
0
  0
LTYPE
  5
1F9
100
AcDbSymbolTableRecord
100
AcDbLinetypeTableRecord
  2
DASHED
 70
64
  3
- - - - - - - - - - - - - - - - - - - -
 72
65
 73
2
 40
0.2
 49
0.1
 74
0
 49
-0.1
 74
0
  0
ENDTAB
  0
TABLE
  2
LAYER
  5
2
100
AcDbSymbolTable
 70
36
  0
LAYER
  5
10
100
AcDbSymbolTableRecord
100
AcDbLayerTableRecord
  2
0
 70
0
 62
7
  6
CONTINUOUS
370
-3
390
F
  0
LAYER
  5
1FA
100
AcDbSymbolTableRecord
100
AcDbLayerTableRecord
  2
DEFAULT_1
 70
0
 62
7
  6
CENTER
370
-3
390
F
  0
LAYER
  5
1FB
100
AcDbSymbolTableRecord
100
AcDbLayerTableRecord
  2
DEFAULT_2
 70
0
 62
7
  6
HIDDEN
370
-3
390
F
  0
LAYER
  5
1FC
100
AcDbSymbolTableRecord
100
AcDbLayerTableRecord
  2
DEFAULT_3
 70
0
 62
7
  6
PHANTOM
370
-3
390
F
  0
LAYER
  5
1FD
100
AcDbSymbolTableRecord
100
AcDbLayerTableRecord
  2
ASSI
 70
0
 62
7
  6
CONTINUOUS
370
-3
390
F
  0
LAYER
  5
1FE
100
AcDbSymbolTableRecord
100
AcDbLayerTableRecord
  2
COORDINATE
 70
0
 62
7
  6
CONTINUOUS
370
-3
390
F
  0
LAYER
  5
1FF
100
AcDbSymbolTableRecord
100
AcDbLayerTableRecord
  2
COORD_ORIGINE
 70
0
 62
7
  6
CONTINUOUS
370
-3
390
F
  0
LAYER
  5
200
100
AcDbSymbolTableRecord
100
AcDbLayerTableRecord
  2
COPY_PUBLISH
 70
0
 62
7
  6
CONTINUOUS
370
-3
390
F
  0
LAYER
  5
201
100
AcDbSymbolTableRecord
100
AcDbLayerTableRecord
  2
COSMETIC
 70
0
 62
7
  6
CONTINUOUS
370
-3
390
F
  0
LAYER
  5
202
100
AcDbSymbolTableRecord
100
AcDbLayerTableRecord
  2
CURVE
 70
0
 62
7
  6
CONTINUOUS
370
-3
390
F
  0
LAYER
  5
203
100
AcDbSymbolTableRecord
100
AcDbLayerTableRecord
  2
DRAFT
 70
0
 62
7
  6
CONTINUOUS
370
-3
390
F
  0
LAYER
  5
204
100
AcDbSymbolTableRecord
100
AcDbLayerTableRecord
  2
IMPORT_FEATURES
 70
0
 62
7
  6
CONTINUOUS
370
-3
390
F
  0
LAYER
  5
205
100
AcDbSymbolTableRecord
100
AcDbLayerTableRecord
  2
IMPORT_IGES
 70
0
 62
7
  6
CONTINUOUS
370
-3
390
F
  0
LAYER
  5
206
100
AcDbSymbolTableRecord
100
AcDbLayerTableRecord
  2
INTF_1
 70
0
 62
7
  6
CONTINUOUS
370
-3
390
F
  0
LAYER
  5
207
100
AcDbSymbolTableRecord
100
AcDbLayerTableRecord
  2
INTF_11
 70
0
 62
7
  6
CONTINUOUS
370
-3
390
F
  0
LAYER
  5
208
100
AcDbSymbolTableRecord
100
AcDbLayerTableRecord
  2
INTF_2
 70
0
 62
7
  6
CONTINUOUS
370
-3
390
F
  0
LAYER
  5
209
100
AcDbSymbolTableRecord
100
AcDbLayerTableRecord
  2
INTF_8
 70
0
 62
7
  6
CONTINUOUS
370
-3
390
F
  0
LAYER
  5
20A
100
AcDbSymbolTableRecord
100
AcDbLayerTableRecord
  2
NOTE
 70
0
 62
7
  6
CONTINUOUS
370
-3
390
F
  0
LAYER
  5
20B
100
AcDbSymbolTableRecord
100
AcDbLayerTableRecord
  2
PIANI
 70
0
 62
7
  6
CONTINUOUS
370
-3
390
F
  0
LAYER
  5
20C
100
AcDbSymbolTableRecord
100
AcDbLayerTableRecord
  2
PIANI_ORIGINE
 70
0
 62
7
  6
CONTINUOUS
370
-3
390
F
  0
LAYER
  5
20D
100
AcDbSymbolTableRecord
100
AcDbLayerTableRecord
  2
PUNTI
 70
0
 62
7
  6
CONTINUOUS
370
-3
390
F
  0
LAYER
  5
20E
100
AcDbSymbolTableRecord
100
AcDbLayerTableRecord
  2
RACCORDO
 70
0
 62
7
  6
CONTINUOUS
370
-3
390
F
  0
LAYER
  5
20F
100
AcDbSymbolTableRecord
100
AcDbLayerTableRecord
  2
SMUSSO
 70
0
 62
7
  6
CONTINUOUS
370
-3
390
F
  0
LAYER
  5
210
100
AcDbSymbolTableRecord
100
AcDbLayerTableRecord
  2
SNAPLINE
 70
0
 62
7
  6
CONTINUOUS
370
-3
390
F
  0
LAYER
  5
211
100
AcDbSymbolTableRecord
100
AcDbLayerTableRecord
  2
SUPERFICI
 70
0
 62
7
  6
CONTINUOUS
370
-3
390
F
  0
LAYER
  5
212
100
AcDbSymbolTableRecord
100
AcDbLayerTableRecord
  2
TRASH
 70
0
 62
7
  6
CONTINUOUS
370
-3
390
F
  0
LAYER
  5
213
100
AcDbSymbolTableRecord
100
AcDbLayerTableRecord
  2
XSEC_DATUMS
 70
0
 62
7
  6
CONTINUOUS
370
-3
390
F
  0
ENDTAB
  0
TABLE
  2
STYLE
  5
3
100
AcDbSymbolTable
 70
1
  0
STYLE
  5
11
100
AcDbSymbolTableRecord
100
AcDbTextStyleTableRecord
  2
STANDARD
 70
0
 40
0.0
 41
0.8
 50
0.0
 71
0
 42
0.2
  3
txt
  4

  0
STYLE
  5
214
100
AcDbSymbolTableRecord
100
AcDbTextStyleTableRecord
  2
TEXTSTYLE_1
 70
0
 40
0.0
 41
0.8
 50
0.0
 71
0
 42
0.2
  3
gdt
  4

  0
ENDTAB
  0
TABLE
  2
VIEW
  5
6
100
AcDbSymbolTable
 70
0
  0
ENDTAB
  0
TABLE
  2
UCS
  5
7
100
AcDbSymbolTable
 70
0
  0
ENDTAB
  0
TABLE
  2
APPID
  5
9
100
AcDbSymbolTable
 70
1
  0
APPID
  5
215
100
AcDbSymbolTableRecord
100
AcDbRegAppTableRecord
  2
ACAD
 70
0
  0
ENDTAB
  0
TABLE
  2
BLOCK_RECORD
  5
1
100
AcDbSymbolTable
 70
0
  0
BLOCK_RECORD
  5
216
100
AcDbSymbolTableRecord
100
AcDbBlockTableRecord
  2
*Model_Space
  0
BLOCK_RECORD
  5
217
100
AcDbSymbolTableRecord
100
AcDbBlockTableRecord
  2
*Paper_Space
  0
BLOCK_RECORD
  5
218
100
AcDbSymbolTableRecord
100
AcDbBlockTableRecord
  2
_FILLED
  0
ENDTAB
  0
TABLE
  2
DIMSTYLE
  5
A
100
AcDbSymbolTable
 70
1
100
AcDbDimStyleTable
 71
0
  0
DIMSTYLE
105
219
100
AcDbSymbolTableRecord
100
AcDbDimStyleTableRecord
  2
STANDARD
 70
0
  3

  4

 40
1.0
 41
3.0
 42
0.5
 43
0.38
 44
1.5
 45
0.0
 46
0.0
 47
0.01
 48
0.01
140
3.0
141
0.09
142
0.0
143
25.4
144
1.0
145
0.0
146
1.0
147
0.625
 71
1
 72
0
 73
0
 74
0
 75
0
 76
0
 77
1
 78
8
 79
2
170
0
171
1
172
0
173
0
174
0
175
0
176
0
177
0
178
0
270
2
179
2
271
2
272
2
273
2
274
2
275
0
280
0
281
0
282
0
283
1
284
8
285
0
286
0
287
3
288
0
340
11
278
44
341
218
342
218
343
218
344
218
  0
ENDTAB
  0
ENDSEC
  0
SECTION
  2
BLOCKS
  0
BLOCK
  5
20
100
AcDbEntity
  8
0
100
AcDbBlockBegin
  2
*Model_Space
 70
0
 10
0.0
 20
0.0
 30
0.0
  3
*Model_Space
  1

  0
ENDBLK
  5
21
100
AcDbEntity
  8
0
100
AcDbBlockEnd
  0
BLOCK
  5
1C
100
AcDbEntity
  8
0
100
AcDbBlockBegin
  2
*Paper_Space
 70
0
 10
0.0
 20
0.0
 30
0.0
  3
*Paper_Space
  1

  0
ENDBLK
  5
1D
100
AcDbEntity
  8
0
100
AcDbBlockEnd
  0
BLOCK
  5
21A
100
AcDbEntity
  8
0
100
AcDbBlockBegin
  2
_FILLED
 70
64
 10
0.0
 20
0.0
  3
_FILLED
  1

  0
SOLID
  5
21B
100
AcDbEntity
  8
0
  6
BYBLOCK
 62
0
100
AcDbTrace
 10
0.0
 20
0.0
 11
-1.0
 21
0.3166666667
 12
-1.0
 22
-0.3166666667
 13
-1.0
 23
-0.3166666667
  0
ENDBLK
  5
21C
100
AcDbEntity
  8
0
  6
BYBLOCK
 62
0
100
AcDbBlockEnd
  0
ENDSEC
  0
SECTION
  2
ENTITIES
  0
LINE
  5
21D
100
AcDbEntity
  8
ASSI
100
AcDbLine
 62
7
  6
CONTINUOUS
 10
-3.0
 20
-23.5
 11
-2.7812783412
 21
-23.4781828305
  0
LINE
  5
21E
100
AcDbEntity
  8
DRAFT
100
AcDbLine
 62
7
  6
CONTINUOUS
 10
-3.0
 20
-23.5
 11
-2.7812783412
 21
-23.4781828305
  0
LINE
  5
21F
100
AcDbEntity
  8
ASSI
100
AcDbLine
 62
7
  6
CONTINUOUS
 10
-3.9733373476
 20
-23.5
 11
-3.0
 21
-23.5
  0
LINE
  5
220
100
AcDbEntity
  8
DRAFT
100
AcDbLine
 62
7
  6
CONTINUOUS
 10
-3.9733373476
 20
-23.5
 11
-3.0
 21
-23.5
  0
LINE
  5
221
100
AcDbEntity
  8
ASSI
100
AcDbLine
 62
7
  6
CONTINUOUS
 10
3.0
 20
-23.5
 11
3.9733373476
 21
-23.5
  0
LINE
  5
222
100
AcDbEntity
  8
DRAFT
100
AcDbLine
 62
7
  6
CONTINUOUS
 10
3.0
 20
-23.5
 11
3.9733373476
 21
-23.5
  0
LINE
  5
223
100
AcDbEntity
  8
ASSI
100
AcDbLine
 62
7
  6
CONTINUOUS
 10
2.7812783412
 20
-23.4781828305
 11
-2.7812783412
 21
-23.4781828305
  0
LINE
  5
224
100
AcDbEntity
  8
DRAFT
100
AcDbLine
 62
7
  6
CONTINUOUS
 10
-2.7812783412
 20
-23.4781828305
 11
2.7812783412
 21
-23.4781828305
  0
LINE
  5
225
100
AcDbEntity
  8
ASSI
100
AcDbLine
 62
7
  6
CONTINUOUS
 10
-3.9630152422
 20
-23.4650925288
 11
3.9630152422
 21
-23.4650925288
  0
LINE
  5
226
100
AcDbEntity
  8
DRAFT
100
AcDbLine
 62
7
  6
CONTINUOUS
 10
-3.9630152422
 20
-23.4650925288
 11
3.9630152422
 21
-23.4650925288
  0
LINE
  5
227
100
AcDbEntity
  8
DRAFT
100
AcDbLine
 62
7
  6
CONTINUOUS
 10
3.3821231691
 20
-22.4
 11
-3.3821231691
 21
-22.4
  0
LINE
  5
228
100
AcDbEntity
  8
ASSI
100
AcDbLine
 62
7
  6
CONTINUOUS
 10
-10.6503805997
 20
-22.4
 11
-5.55
 21
-22.4
  0
LINE
  5
229
100
AcDbEntity
  8
DRAFT
100
AcDbLine
 62
7
  6
CONTINUOUS
 10
-10.6503805997
 20
-22.4
 11
-5.55
 21
-22.4
  0
LINE
  5
22A
100
AcDbEntity
  8
ASSI
100
AcDbLine
 62
7
  6
CONTINUOUS
 10
-3.3821231691
 20
-22.4
 11
3.3821231691
 21
-22.4
  0
LINE
  5
22B
100
AcDbEntity
  8
ASSI
100
AcDbLine
 62
7
  6
CONTINUOUS
 10
5.55
 20
-22.4
 11
10.6503805997
 21
-22.4
  0
LINE
  5
22C
100
AcDbEntity
  8
DRAFT
100
AcDbLine
 62
7
  6
CONTINUOUS
 10
5.55
 20
-22.4
 11
10.6503805997
 21
-22.4
  0
LINE
  5
22D
100
AcDbEntity
  8
DRAFT
100
AcDbLine
 62
7
  6
CONTINUOUS
 10
3.0104834329
 20
-22.3955695989
 11
-3.0104834329
 21
-22.3955695989
  0
LINE
  5
22E
100
AcDbEntity
  8
ASSI
100
AcDbLine
 62
7
  6
CONTINUOUS
 10
-3.0104834329
 20
-22.3955695989
 11
3.0104834329
 21
-22.3955695989
  0
LINE
  5
22F
100
AcDbEntity
  8
ASSI
100
AcDbLine
 62
7
  6
CONTINUOUS
 10
3.0
 20
-23.5
 11
2.7812783412
 21
-23.4781828305
  0
LINE
  5
230
100
AcDbEntity
  8
DRAFT
100
AcDbLine
 62
7
  6
CONTINUOUS
 10
3.0
 20
-23.5
 11
2.7812783412
 21
-23.4781828305
  0
LINE
  5
231
100
AcDbEntity
  8
DRAFT
100
AcDbLine
 62
7
  6
CONTINUOUS
 10
7.3830351795
 20
-20.9
 11
7.2322076372
 21
-20.9330083283
  0
LINE
  5
232
100
AcDbEntity
  8
ASSI
100
AcDbLine
 62
7
  6
CONTINUOUS
 10
-3.4452396157
 20
-21.2139629885
 11
-3.2221796168
 21
-21.202894032
  0
LINE
  5
233
100
AcDbEntity
  8
DRAFT
100
AcDbLine
 62
7
  6
CONTINUOUS
 10
-3.4452396157
 20
-21.2139629885
 11
-3.2221796168
 21
-21.202894032
  0
LINE
  5
234
100
AcDbEntity
  8
ASSI
100
AcDbLine
 62
7
  6
CONTINUOUS
 10
-3.0104834329
 20
-22.3955695989
 11
-3.1
 21
-22.4
  0
LINE
  5
235
100
AcDbEntity
  8
DRAFT
100
AcDbLine
 62
7
  6
CONTINUOUS
 10
-3.1
 20
-22.4
 11
-3.0104834329
 21
-22.3955695989
  0
LINE
  5
236
100
AcDbEntity
  8
ASSI
100
AcDbLine
 62
250
  6
CONTINUOUS
 10
-2.6848155072
 20
-21.3292298715
 11
-3.0983838146
 21
-21.349698412
  0
LINE
  5
237
100
AcDbEntity
  8
RACCORDO
100
AcDbLine
 62
250
  6
CONTINUOUS
 10
-2.6848155072
 20
-21.3292298715
 11
-3.0983838146
 21
-21.349698412
  0
LINE
  5
238
100
AcDbEntity
  8
ASSI
100
AcDbLine
 62
250
  6
CONTINUOUS
 10
-2.7904532343
 20
-21.1771527675
 11
-3.2502365039
 21
-21.1999086032
  0
LINE
  5
239
100
AcDbEntity
  8
RACCORDO
100
AcDbLine
 62
250
  6
CONTINUOUS
 10
-2.7904532343
 20
-21.1771527675
 11
-3.2502365039
 21
-21.1999086032
  0
LINE
  5
23A
100
AcDbEntity
  8
ASSI
100
AcDbLine
 62
7
  6
CONTINUOUS
 10
6.9712561167
 20
-21.2139629885
 11
3.4452396157
 21
-21.2139629885
  0
LINE
  5
23B
100
AcDbEntity
  8
DRAFT
100
AcDbLine
 62
7
  6
CONTINUOUS
 10
6.9712561167
 20
-21.2139629885
 11
3.4452396157
 21
-21.2139629885
  0
LINE
  5
23C
100
AcDbEntity
  8
ASSI
100
AcDbLine
 62
7
  6
CONTINUOUS
 10
-3.4452396157
 20
-21.2139629885
 11
-6.9712561167
 21
-21.2139629885
  0
LINE
  5
23D
100
AcDbEntity
  8
DRAFT
100
AcDbLine
 62
7
  6
CONTINUOUS
 10
-3.4452396157
 20
-21.2139629885
 11
-6.9712561167
 21
-21.2139629885
  0
LINE
  5
23E
100
AcDbEntity
  8
ASSI
100
AcDbLine
 62
7
  6
CONTINUOUS
 10
6.9576125104
 20
-21.1771527675
 11
2.7904532343
 21
-21.1771527675
  0
LINE
  5
23F
100
AcDbEntity
  8
RACCORDO
100
AcDbLine
 62
7
  6
CONTINUOUS
 10
6.9576125104
 20
-21.1771527675
 11
2.7904532343
 21
-21.1771527675
  0
LINE
  5
240
100
AcDbEntity
  8
ASSI
100
AcDbLine
 62
7
  6
CONTINUOUS
 10
-2.7904532343
 20
-21.1771527675
 11
-6.9576125104
 21
-21.1771527675
  0
LINE
  5
241
100
AcDbEntity
  8
RACCORDO
100
AcDbLine
 62
7
  6
CONTINUOUS
 10
-2.7904532343
 20
-21.1771527675
 11
-6.9576125104
 21
-21.1771527675
  0
LINE
  5
242
100
AcDbEntity
  8
ASSI
100
AcDbLine
 62
7
  6
CONTINUOUS
 10
-9.65
 20
-20.9
 11
-7.3830351795
 21
-20.9
  0
LINE
  5
243
100
AcDbEntity
  8
DRAFT
100
AcDbLine
 62
7
  6
CONTINUOUS
 10
-9.65
 20
-20.9
 11
-7.3830351795
 21
-20.9
  0
LINE
  5
244
100
AcDbEntity
  8
ASSI
100
AcDbLine
 62
7
  6
CONTINUOUS
 10
7.3830351795
 20
-20.9
 11
9.65
 21
-20.9
  0
LINE
  5
245
100
AcDbEntity
  8
DRAFT
100
AcDbLine
 62
7
  6
CONTINUOUS
 10
7.3830351795
 20
-20.9
 11
9.65
 21
-20.9
  0
LINE
  5
246
100
AcDbEntity
  8
DRAFT
100
AcDbLine
 62
7
  6
CONTINUOUS
 10
9.5103594806
 20
-20.7603594806
 11
7.5226756989
 21
-20.7603594806
  0
LINE
  5
247
100
AcDbEntity
  8
DRAFT
100
AcDbLine
 62
7
  6
CONTINUOUS
 10
-7.5226756989
 20
-20.7603594806
 11
-9.5103594806
 21
-20.7603594806
  0
LINE
  5
248
100
AcDbEntity
  8
ASSI
100
AcDbLine
 62
7
  6
CONTINUOUS
 10
-9.5103594806
 20
-20.7603594806
 11
-7.5226756989
 21
-20.7603594806
  0
LINE
  5
249
100
AcDbEntity
  8
ASSI
100
AcDbLine
 62
7
  6
CONTINUOUS
 10
7.5226756989
 20
-20.7603594806
 11
9.5103594806
 21
-20.7603594806
  0
LINE
  5
24A
100
AcDbEntity
  8
ASSI
100
AcDbLine
 62
7
  6
CONTINUOUS
 10
3.1
 20
-22.4
 11
3.0104834329
 21
-22.3955695989
  0
LINE
  5
24B
100
AcDbEntity
  8
DRAFT
100
AcDbLine
 62
7
  6
CONTINUOUS
 10
3.0104834329
 20
-22.3955695989
 11
3.1
 21
-22.4
  0
LINE
  5
24C
100
AcDbEntity
  8
ASSI
100
AcDbLine
 62
250
  6
CONTINUOUS
 10
3.0983838146
 20
-21.349698412
 11
2.6848155072
 21
-21.3292298715
  0
LINE
  5
24D
100
AcDbEntity
  8
RACCORDO
100
AcDbLine
 62
250
  6
CONTINUOUS
 10
3.0983838146
 20
-21.349698412
 11
2.6848155072
 21
-21.3292298715
  0
LINE
  5
24E
100
AcDbEntity
  8
ASSI
100
AcDbLine
 62
7
  6
CONTINUOUS
 10
3.4452396157
 20
-21.2139629885
 11
3.2221796168
 21
-21.202894032
  0
LINE
  5
24F
100
AcDbEntity
  8
DRAFT
100
AcDbLine
 62
7
  6
CONTINUOUS
 10
3.4452396157
 20
-21.2139629885
 11
3.2221796168
 21
-21.202894032
  0
LINE
  5
250
100
AcDbEntity
  8
ASSI
100
AcDbLine
 62
250
  6
CONTINUOUS
 10
3.2502365039
 20
-21.1999086032
 11
2.7904532343
 21
-21.1771527675
  0
LINE
  5
251
100
AcDbEntity
  8
RACCORDO
100
AcDbLine
 62
250
  6
CONTINUOUS
 10
3.2502365039
 20
-21.1999086032
 11
2.7904532343
 21
-21.1771527675
  0
LINE
  5
252
100
AcDbEntity
  8
DRAFT
100
AcDbLine
 62
7
  6
CONTINUOUS
 10
-7.2322076372
 20
-20.9330083283
 11
-7.3830351795
 21
-20.9
  0
LWPOLYLINE
  5
253
100
AcDbEntity
  8
ASSI
100
AcDbPolyline
 62
7
  6
CONTINUOUS
 90
22
 70
0
 10
-10.0017927407
 20
18.2307790647
 10
-9.985259103
 20
18.2477567752
 10
-9.9674251991
 20
18.2624146761
 10
-9.948291029
 20
18.2747527672
 10
-9.9275678786
 20
18.2848711424
 10
-9.9055444619
 20
18.2926697079
 10
-9.8830869215
 20
18.2978481826
 10
-9.8601791804
 20
18.3003031179
 10
-9.8368373157
 20
18.3001379623
 10
-9.8139757005
 20
18.2973627805
 10
-9.7916138807
 20
18.2918751943
 10
-9.7697323104
 20
18.2837775819
 10
-9.7491867253
 20
18.2733871429
 10
-9.7300292165
 20
18.2606137706
 10
-9.7122076929
 20
18.2455475716
 10
-9.6964216162
 20
18.2287760651
 10
-9.6827503798
 20
18.2102316661
 10
-9.6711145904
 20
18.1899819596
 10
-9.6619755295
 20
18.1688172197
 10
-9.6554869577
 20
18.1470008714
 10
-9.6514951146
 20
18.1242694897
 10
-9.65
 20
18.1006230748
  0
LWPOLYLINE
  5
254
100
AcDbEntity
  8
RACCORDO
100
AcDbPolyline
 62
7
  6
CONTINUOUS
 90
19
 70
0
 10
-10.0017927407
 20
18.2307790647
 10
-9.9821707004
 20
18.2504383448
 10
-9.9609731634
 20
18.2668714725
 10
-9.9382001297
 20
18.2800784479
 10
-9.9133954377
 20
18.2901808016
 10
-9.8870152491
 20
18.2970570029
 10
-9.8604280484
 20
18.3003424598
 10
-9.8336058648
 20
18.2998471389
 10
-9.8065766692
 20
18.2957610735
 10
-9.7807928594
 20
18.2882897721
 10
-9.7563250602
 20
18.2772431013
 10
-9.7331026467
 20
18.2628111944
 10
-9.7123661424
 20
18.2457699601
 10
-9.6942561753
 20
18.2259949019
 10
-9.6786321172
 20
18.2036105163
 10
-9.6663126068
 20
18.179766201
 10
-9.6575705236
 20
18.1548450886
 10
-9.652132988
 20
18.1284640465
 10
-9.65
 20
18.1006230748
  0
LINE
  5
255
100
AcDbEntity
  8
DRAFT
100
AcDbLine
 62
7
  6
CONTINUOUS
 10
-7.3830351795
 20
20.9
 11
-7.5226756989
 21
20.7603594806
  0
LINE
  5
256
100
AcDbEntity
  8
ASSI
100
AcDbLine
 62
7
  6
CONTINUOUS
 10
-7.5226756989
 20
20.7603594806
 11
-7.3830351795
 21
20.9
  0
LINE
  5
257
100
AcDbEntity
  8
ASSI
100
AcDbLine
 62
250
  6
CONTINUOUS
 10
-10.9425612895
 20
17.0730847656
 11
-10.9157929741
 21
17.0863903821
  0
LINE
  5
258
100
AcDbEntity
  8
RACCORDO
100
AcDbLine
 62
250
  6
CONTINUOUS
 10
-10.9425612895
 20
17.0730847656
 11
-10.9157929741
 21
17.0863903821
  0
LINE
  5
259
100
AcDbEntity
  8
ASSI
100
AcDbLine
 62
250
  6
CONTINUOUS
 10
-11.15
 20
16.4632818589
 11
-11.1238174026
 21
16.4758271193
  0
LINE
  5
25A
100
AcDbEntity
  8
RACCORDO
100
AcDbLine
 62
250
  6
CONTINUOUS
 10
-11.15
 20
16.463281859
 11
-11.1238174026
 21
16.4758271193
  0
LINE
  5
25B
100
AcDbEntity
  8
0
100
AcDbLine
 62
7
  6
CONTINUOUS
 10
7.5174524064
 20
-18.8496953671
 11
6.7461929308
 21
-18.8631577513
  0
LINE
  5
25C
100
AcDbEntity
  8
0
100
AcDbLine
 62
7
  6
CONTINUOUS
 10
6.7194099291
 20
-18.8636252504
 11
2.4000007267
 21
-18.9390208184
  0
LINE
  5
25D
100
AcDbEntity
  8
ASSI
100
AcDbLine
 62
7
  6
CONTINUOUS
 10
-7.2084845302
 20
-20.1483339502
 11
7.2084845302
 21
-20.1483339502
  0
LINE
  5
25E
100
AcDbEntity
  8
DRAFT
100
AcDbLine
 62
7
  6
CONTINUOUS
 10
-7.2084845302
 20
-20.1483339502
 11
7.2084845302
 21
-20.1483339502
  0
LINE
  5
25F
100
AcDbEntity
  8
ASSI
100
AcDbLine
 62
7
  6
CONTINUOUS
 10
7.2084845302
 20
-19.8
 11
-7.2084845302
 21
-19.8
  0
LINE
  5
260
100
AcDbEntity
  8
DRAFT
100
AcDbLine
 62
7
  6
CONTINUOUS
 10
-7.2084845302
 20
-19.8
 11
7.2084845302
 21
-19.8
  0
LINE
  5
261
100
AcDbEntity
  8
ASSI
100
AcDbLine
 62
7
  6
CONTINUOUS
 10
2.8136015098
 20
-19.6414213562
 11
-2.8136015098
 21
-19.6414213562
  0
LINE
  5
262
100
AcDbEntity
  8
SMUSSO
100
AcDbLine
 62
7
  6
CONTINUOUS
 10
2.8272050914
 20
-19.6414213562
 11
-2.8272050914
 21
-19.6414213562
  0
LINE
  5
263
100
AcDbEntity
  8
ASSI
100
AcDbLine
 62
7
  6
CONTINUOUS
 10
2.8148356752
 20
-19.5
 11
-2.8148356752
 21
-19.5
  0
LINE
  5
264
100
AcDbEntity
  8
SMUSSO
100
AcDbLine
 62
7
  6
CONTINUOUS
 10
2.8148356752
 20
-19.5
 11
-2.8148356752
 21
-19.5
  0
LINE
  5
265
100
AcDbEntity
  8
ASSI
100
AcDbLine
 62
250
  6
CONTINUOUS
 10
-7.2180848159
 20
-19.25
 11
-7.5226756989
 21
-19.25
  0
LINE
  5
266
100
AcDbEntity
  8
ASSI
100
AcDbLine
 62
250
  6
CONTINUOUS
 10
7.2180848159
 20
-19.25
 11
7.5226756989
 21
-19.25
  0
LINE
  5
267
100
AcDbEntity
  8
DRAFT
100
AcDbLine
 62
7
  6
CONTINUOUS
 10
-6.0830351795
 20
-19.1
 11
-2.8366556363
 21
-19.1
  0
LINE
  5
268
100
AcDbEntity
  8
ASSI
100
AcDbLine
 62
7
  6
CONTINUOUS
 10
-6.120654997
 20
-19.1
 11
-2.40000025
 21
-19.1
  0
LINE
  5
269
100
AcDbEntity
  8
ASSI
100
AcDbLine
 62
7
  6
CONTINUOUS
 10
2.40000025
 20
-19.1
 11
6.120654997
 21
-19.1
  0
LINE
  5
26A
100
AcDbEntity
  8
DRAFT
100
AcDbLine
 62
7
  6
CONTINUOUS
 10
2.8366556363
 20
-19.1
 11
6.0830351795
 21
-19.1
  0
LINE
  5
26B
100
AcDbEntity
  8
ASSI
100
AcDbLine
 62
7
  6
CONTINUOUS
 10
6.923275637
 20
-18.95
 11
6.8330351795
 21
-18.95
  0
LINE
  5
26C
100
AcDbEntity
  8
DRAFT
100
AcDbLine
 62
7
  6
CONTINUOUS
 10
7.5226756989
 20
-18.95
 11
6.8330351795
 21
-18.95
  0
LINE
  5
26D
100
AcDbEntity
  8
ASSI
100
AcDbLine
 62
7
  6
CONTINUOUS
 10
6.6330351795
 20
-18.95
 11
6.3804626182
 21
-18.95
  0
LINE
  5
26E
100
AcDbEntity
  8
DRAFT
100
AcDbLine
 62
7
  6
CONTINUOUS
 10
6.6330351795
 20
-18.95
 11
6.0856534392
 21
-18.95
  0
LINE
  5
26F
100
AcDbEntity
  8
ASSI
100
AcDbLine
 62
7
  6
CONTINUOUS
 10
-6.8330351795
 20
-18.95
 11
-6.923275637
 21
-18.95
  0
LINE
  5
270
100
AcDbEntity
  8
ASSI
100
AcDbLine
 62
7
  6
CONTINUOUS
 10
-6.3804626182
 20
-18.95
 11
-6.6330351795
 21
-18.95
  0
LINE
  5
271
100
AcDbEntity
  8
DRAFT
100
AcDbLine
 62
7
  6
CONTINUOUS
 10
-6.0856534392
 20
-18.95
 11
-6.6330351795
 21
-18.95
  0
LINE
  5
272
100
AcDbEntity
  8
DRAFT
100
AcDbLine
 62
7
  6
CONTINUOUS
 10
-7.5226756989
 20
-18.95
 11
-6.8330351795
 21
-18.95
  0
LINE
  5
273
100
AcDbEntity
  8
0
100
AcDbLine
 62
7
  6
CONTINUOUS
 10
-2.40000025
 20
-18.9390208268
 11
-6.7194099291
 21
-18.8636252504
  0
LINE
  5
274
100
AcDbEntity
  8
0
100
AcDbLine
 62
7
  6
CONTINUOUS
 10
-6.7461929308
 20
-18.8631577513
 11
-7.5174524064
 21
-18.8496953671
  0
LWPOLYLINE
  5
275
100
AcDbEntity
  8
0
100
AcDbPolyline
 62
7
  6
CONTINUOUS
 90
16
 70
0
 10
-2.15000025
 20
-18.8827984638
 10
-2.1754895411
 20
-18.8822191797
 10
-2.2008819597
 20
-18.8824916433
 10
-2.2259011542
 20
-18.8836164212
 10
-2.2502995841
 20
-18.8856873113
 10
-2.2737566399
 20
-18.8886073093
 10
-2.2958994227
 20
-18.8920867531
 10
-2.3164650122
 20
-18.8961496608
 10
-2.3352210518
 20
-18.9007557386
 10
-2.3518961258
 20
-18.9055141421
 10
-2.3662994506
 20
-18.9104223418
 10
-2.3782892941
 20
-18.9154575472
 10
-2.3877309951
 20
-18.9201960473
 10
-2.3945312576
 20
-18.9244867142
 10
-2.3986315237
 20
-18.928451365
 10
-2.40000025
 20
-18.9320750066
  0
LINE
  5
276
100
AcDbEntity
  8
ASSI
100
AcDbLine
 62
250
  6
CONTINUOUS
 10
-11.1238174026
 20
-16.4758271194
 11
-11.15
 21
-16.463281859
  0
LINE
  5
277
100
AcDbEntity
  8
RACCORDO
100
AcDbLine
 62
250
  6
CONTINUOUS
 10
-11.1238174026
 20
-16.4758271193
 11
-11.15
 21
-16.463281859
  0
LINE
  5
278
100
AcDbEntity
  8
ASSI
100
AcDbLine
 62
250
  6
CONTINUOUS
 10
-10.9157929741
 20
-17.0863903822
 11
-10.9425612895
 21
-17.0730847656
  0
LINE
  5
279
100
AcDbEntity
  8
RACCORDO
100
AcDbLine
 62
250
  6
CONTINUOUS
 10
-10.9157929741
 20
-17.0863903821
 11
-10.9425612895
 21
-17.0730847656
  0
LWPOLYLINE
  5
27A
100
AcDbEntity
  8
0
100
AcDbPolyline
 62
250
  6
CONTINUOUS
 90
19
 70
0
 10
-7.5174524064
 20
-18.8496953671
 10
-7.524972607
 20
-18.8457655826
 10
-7.5323031187
 20
-18.8342709242
 10
-7.5393882597
 20
-18.8152987042
 10
-7.5461742121
 20
-18.7889930331
 10
-7.5526094308
 20
-18.7555537257
 10
-7.5586450345
 20
-18.7152347831
 10
-7.5642351775
 20
-18.6683424631
 10
-7.5693373977
 20
-18.6152329541
 10
-7.5739129394
 20
-18.5563096698
 10
-7.5779270471
 20
-18.4920201843
 10
-7.5813492303
 20
-18.4228528329
 10
-7.5841534944
 20
-18.3493330026
 10
-7.5863185386
 20
-18.2720191412
 10
-7.5878279175
 20
-18.1914985156
 10
-7.588670166
 20
-18.108382751
 10
-7.5888388864
 20
-18.0233031846
 10
-7.5883327973
 20
-17.9369060709
 10
-7.5871557427
 20
-17.849847672
  0
LINE
  5
27B
100
AcDbEntity
  8
ASSI
100
AcDbLine
 62
7
  6
CONTINUOUS
 10
-7.3830351795
 20
-20.9
 11
-7.5226756989
 21
-20.7603594806
  0
LINE
  5
27C
100
AcDbEntity
  8
DRAFT
100
AcDbLine
 62
7
  6
CONTINUOUS
 10
-7.3830351795
 20
-20.9
 11
-7.5226756989
 21
-20.7603594806
  0
LWPOLYLINE
  5
27D
100
AcDbEntity
  8
RACCORDO
100
AcDbPolyline
 62
7
  6
CONTINUOUS
 90
19
 70
0
 10
-10.0282352926
 20
-18.1797639505
 10
-10.0086299751
 20
-18.1994807633
 10
-9.9874420005
 20
-18.2159677916
 10
-9.9646713688
 20
-18.2292250354
 10
-9.9398610166
 20
-18.2393746768
 10
-9.9134680073
 20
-18.2462945336
 10
-9.8868635312
 20
-18.2496180596
 10
-9.8600194279
 20
-18.2491548585
 10
-9.8329638579
 20
-18.2450953266
 10
-9.8071524922
 20
-18.2376441055
 10
-9.7826558794
 20
-18.2266104263
 10
-9.7594034708
 20
-18.2121850579
 10
-9.738639292
 20
-18.1951449493
 10
-9.7205044068
 20
-18.1753652631
 10
-9.7048577513
 20
-18.1529708368
 10
-9.6925201593
 20
-18.1291131315
 10
-9.6837652419
 20
-18.1041759677
 10
-9.6783193879
 20
-18.0777755248
 10
-9.6761825974
 20
-18.0499118029
  0
LWPOLYLINE
  5
27E
100
AcDbEntity
  8
ASSI
100
AcDbPolyline
 62
7
  6
CONTINUOUS
 90
22
 70
0
 10
-10.0282352926
 20
-18.1797639505
 10
-10.0117203167
 20
-18.196788376
 10
-9.9938990093
 20
-18.2114914172
 10
-9.9747713705
 20
-18.2238730741
 10
-9.9540481402
 20
-18.2340341301
 10
-9.9320185785
 20
-18.2418738018
 10
-9.9095504648
 20
-18.247089739
 10
-9.8866275238
 20
-18.2495781845
 10
-9.8632660309
 20
-18.2494428955
 10
-9.8403825917
 20
-18.2466927932
 10
-9.8179966983
 20
-18.2412251473
 10
-9.7960888587
 20
-18.233142688
 10
-9.7755172017
 20
-18.222762527
 10
-9.7563339075
 20
-18.2099942202
 10
-9.7384867959
 20
-18.1949282116
 10
-9.722677456
 20
-18.1781529451
 10
-9.7089854989
 20
-18.1596005691
 10
-9.6973313135
 20
-18.1393389352
 10
-9.688177655
 20
-18.1181600417
 10
-9.6816787755
 20
-18.0963278883
 10
-9.6776804229
 20
-18.0735784753
 10
-9.6761825974
 20
-18.0499118029
  0
LINE
  5
27F
100
AcDbEntity
  8
ASSI
100
AcDbLine
 62
250
  6
CONTINUOUS
 10
-10.0282352926
 20
18.1797639505
 11
-10.0017927407
 21
18.2307790647
  0
LINE
  5
280
100
AcDbEntity
  8
RACCORDO
100
AcDbLine
 62
250
  6
CONTINUOUS
 10
-10.0282352926
 20
18.1797639505
 11
-10.0017927407
 21
18.2307790647
  0
LWPOLYLINE
  5
281
100
AcDbEntity
  8
ASSI
100
AcDbPolyline
 62
7
  6
CONTINUOUS
 90
10
 70
0
 10
-10.9157929779
 20
17.086390376
 10
-10.9584956675
 20
17.0264427449
 10
-10.9963946474
 20
16.9642469159
 10
-11.0294899177
 20
16.8998028891
 10
-11.0579061536
 20
16.8327439776
 10
-11.0815186798
 20
16.7634368682
 10
-11.0999534704
 20
16.6929816216
 10
-11.1130858501
 20
16.6217449247
 10
-11.1210404942
 20
16.5493600905
 10
-11.1238174026
 20
16.4758271192
  0
LWPOLYLINE
  5
282
100
AcDbEntity
  8
RACCORDO
100
AcDbPolyline
 62
7
  6
CONTINUOUS
 90
10
 70
0
 10
-10.9157929742
 20
17.086390382
 10
-10.9582685423
 20
17.0269709105
 10
-10.9960422748
 20
16.9650423294
 10
-11.0291141717
 20
16.9006046386
 10
-11.0576690331
 20
16.8331193224
 10
-11.0815220589
 20
16.7631248966
 10
-11.1001188487
 20
16.6922369087
 10
-11.1132746026
 20
16.6209938743
 10
-11.1211741205
 20
16.5488572778
 10
-11.1238174026
 20
16.4758271192
  0
LINE
  5
283
100
AcDbEntity
  8
0
100
AcDbLine
 62
7
  6
CONTINUOUS
 10
-6.9613816519
 20
17.4502030558
 11
-6.8284544786
 21
17.5876381519
  0
LWPOLYLINE
  5
284
100
AcDbEntity
  8
0
100
AcDbPolyline
 62
7
  6
CONTINUOUS
 90
4
 70
0
 10
-6.8284544786
 20
17.5876381519
 10
-6.6859474249
 20
17.7330500187
 10
-6.6369527363
 20
17.782596476
 10
-6.5871557427
 20
17.8325
  0
LINE
  5
285
100
AcDbEntity
  8
ASSI
100
AcDbLine
 62
7
  6
CONTINUOUS
 10
-6.7330351795
 20
18.85
 11
-6.6330351795
 21
18.95
  0
LINE
  5
286
100
AcDbEntity
  8
0
100
AcDbLine
 62
7
  6
CONTINUOUS
 10
-6.7330351795
 20
18.85
 11
-6.6330351795
 21
18.95
  0
LINE
  5
287
100
AcDbEntity
  8
0
100
AcDbLine
 62
250
  6
CONTINUOUS
 10
0.0
 20
-17.9822819681
 11
7.5871557427
 21
-17.849847672
  0
LINE
  5
288
100
AcDbEntity
  8
0
100
AcDbLine
 62
250
  6
CONTINUOUS
 10
8.5
 20
-17.849847672
 11
7.5871557427
 21
-17.849847672
  0
LINE
  5
289
100
AcDbEntity
  8
0
100
AcDbLine
 62
250
  6
CONTINUOUS
 10
-7.5871557427
 20
-17.849847672
 11
-8.5
 21
-17.849847672
  0
LINE
  5
28A
100
AcDbEntity
  8
0
100
AcDbLine
 62
250
  6
CONTINUOUS
 10
-8.5
 20
-17.8325
 11
-6.5871557427
 21
-17.8325
  0
LINE
  5
28B
100
AcDbEntity
  8
0
100
AcDbLine
 62
250
  6
CONTINUOUS
 10
6.5871557427
 20
-17.8325
 11
8.5
 21
-17.8325
  0
LINE
  5
28C
100
AcDbEntity
  8
0
100
AcDbLine
 62
250
  6
CONTINUOUS
 10
-7.5871557427
 20
-17.849847672
 11
0.0
 21
-17.9822819681
  0
LINE
  5
28D
100
AcDbEntity
  8
ASSI
100
AcDbLine
 62
7
  6
CONTINUOUS
 10
-6.6330351795
 20
-18.95
 11
-6.7330351795
 21
-18.85
  0
LINE
  5
28E
100
AcDbEntity
  8
0
100
AcDbLine
 62
7
  6
CONTINUOUS
 10
-6.6330351795
 20
-18.95
 11
-6.7330351795
 21
-18.85
  0
LINE
  5
28F
100
AcDbEntity
  8
0
100
AcDbLine
 62
7
  6
CONTINUOUS
 10
-6.7341436342
 20
-17.6839803418
 11
-6.5871557427
 21
-17.8325
  0
LINE
  5
290
100
AcDbEntity
  8
0
100
AcDbLine
 62
7
  6
CONTINUOUS
 10
-6.8284326207
 20
-17.5876162105
 11
-6.7341436342
 21
-17.6839803418
  0
LWPOLYLINE
  5
291
100
AcDbEntity
  8
0
100
AcDbPolyline
 62
7
  6
CONTINUOUS
 90
3
 70
0
 10
-6.9613775402
 20
-17.4501989283
 10
-6.9183368732
 20
-17.4949639527
 10
-6.8284326207
 20
-17.5876162105
  0
LWPOLYLINE
  5
292
100
AcDbEntity
  8
RACCORDO
100
AcDbPolyline
 62
7
  6
CONTINUOUS
 90
10
 70
0
 10
-10.9425612894
 20
-17.0730847657
 10
-10.9849181826
 20
-17.0137191992
 10
-11.0225862052
 20
-16.9518531464
 10
-11.0555653571
 20
-16.8874866073
 10
-11.0840398601
 20
-16.8200823708
 10
-11.1078254924
 20
-16.7501776479
 10
-11.126369589
 20
-16.6793840721
 10
-11.1394879283
 20
-16.6082388542
 10
-11.147364732
 20
-16.5362047833
 10
-11.15
 20
-16.4632818593
  0
LWPOLYLINE
  5
293
100
AcDbEntity
  8
ASSI
100
AcDbPolyline
 62
7
  6
CONTINUOUS
 90
10
 70
0
 10
-10.9425612894
 20
-17.0730847657
 10
-10.9851465683
 20
-17.0131878127
 10
-11.0229406824
 20
-16.9510522655
 10
-11.0559436316
 20
-16.886678124
 10
-11.0842793739
 20
-16.8197002379
 10
-11.1078239514
 20
-16.7504837575
 10
-11.1262054901
 20
-16.6801241343
 10
-11.1393000321
 20
-16.6089865188
 10
-11.1472315354
 20
-16.5367057604
 10
-11.15
 20
-16.4632818593
  0
LINE
  5
294
100
AcDbEntity
  8
ASSI
100
AcDbLine
 62
250
  6
CONTINUOUS
 10
-10.0017927407
 20
-18.2307790647
 11
-10.0282352926
 21
-18.1797639505
  0
LINE
  5
295
100
AcDbEntity
  8
RACCORDO
100
AcDbLine
 62
250
  6
CONTINUOUS
 10
-10.0017927407
 20
-18.2307790647
 11
-10.0282352926
 21
-18.1797639505
  0
LINE
  5
296
100
AcDbEntity
  8
ASSI
100
AcDbLine
 62
250
  6
CONTINUOUS
 10
-9.6761825974
 20
18.0499118029
 11
-9.65
 21
18.1006230748
  0
LINE
  5
297
100
AcDbEntity
  8
RACCORDO
100
AcDbLine
 62
250
  6
CONTINUOUS
 10
-9.6761825974
 20
18.0499118029
 11
-9.65
 21
18.1006230748
  0
LINE
  5
298
100
AcDbEntity
  8
0
100
AcDbLine
 62
7
  6
CONTINUOUS
 10
-7.2974914295
 20
17.0906269643
 11
-7.2445864957
 21
17.1489164046
  0
LINE
  5
299
100
AcDbEntity
  8
0
100
AcDbLine
 62
7
  6
CONTINUOUS
 10
-7.2445864957
 20
17.1489164046
 11
-7.1844927226
 21
17.2141400686
  0
LINE
  5
29A
100
AcDbEntity
  8
0
100
AcDbLine
 62
7
  6
CONTINUOUS
 10
-7.1844927226
 20
17.2141400686
 11
-7.117163695
 21
17.286261969
  0
LINE
  5
29B
100
AcDbEntity
  8
0
100
AcDbLine
 62
7
  6
CONTINUOUS
 10
-7.117163695
 20
17.286261969
 11
-7.0426192619
 21
17.365120305
  0
LINE
  5
29C
100
AcDbEntity
  8
0
100
AcDbLine
 62
7
  6
CONTINUOUS
 10
-7.0426192619
 20
17.365120305
 11
-6.9613816519
 21
17.4502030558
  0
LINE
  5
29D
100
AcDbEntity
  8
0
100
AcDbLine
 62
7
  6
CONTINUOUS
 10
-7.042651791
 20
-17.3651529585
 11
-6.9613775402
 21
-17.4501989283
  0
LINE
  5
29E
100
AcDbEntity
  8
0
100
AcDbLine
 62
7
  6
CONTINUOUS
 10
-7.117163695
 20
-17.286261969
 11
-7.042651791
 21
-17.3651529585
  0
LINE
  5
29F
100
AcDbEntity
  8
0
100
AcDbLine
 62
7
  6
CONTINUOUS
 10
-7.18450215
 20
-17.2141495321
 11
-7.117163695
 21
-17.286261969
  0
LWPOLYLINE
  5
2A0
100
AcDbEntity
  8
0
100
AcDbPolyline
 62
7
  6
CONTINUOUS
 90
3
 70
0
 10
-7.2719354408
 20
-17.1189209366
 10
-7.2445949095
 20
-17.1489248505
 10
-7.18450215
 20
-17.2141495321
  0
LINE
  5
2A1
100
AcDbEntity
  8
ASSI
100
AcDbLine
 62
250
  6
CONTINUOUS
 10
-9.65
 20
-18.1006230748
 11
-9.6761825974
 21
-18.0499118029
  0
LINE
  5
2A2
100
AcDbEntity
  8
RACCORDO
100
AcDbLine
 62
250
  6
CONTINUOUS
 10
-9.65
 20
-18.1006230748
 11
-9.6761825974
 21
-18.0499118029
  0
LWPOLYLINE
  5
2A3
100
AcDbEntity
  8
0
100
AcDbPolyline
 62
7
  6
CONTINUOUS
 90
5
 70
0
 10
-4.6000004732
 20
13.9794106916
 10
-4.5973333427
 20
13.9803981417
 10
-4.5893509736
 20
13.9813878347
 10
-4.5761102174
 20
13.9823690086
 10
-4.5577053384
 20
13.9833276292
  0
LWPOLYLINE
  5
2A4
100
AcDbEntity
  8
0
100
AcDbPolyline
 62
7
  6
CONTINUOUS
 90
10
 70
0
 10
-0.6961109283
 20
13.7465719425
 10
-0.6925969787
 20
13.7487673434
 10
-0.6890741437
 20
13.7504265102
 10
-0.6855424231
 20
13.7515494429
 10
-0.6819949823
 20
13.7517776354
 10
-0.678438656
 20
13.7514695938
 10
-0.6748939486
 20
13.7517008367
 10
-0.6713676948
 20
13.7528298705
 10
-0.66785306
 20
13.7544981888
 10
-0.6643500441
 20
13.7567057916
  0
LWPOLYLINE
  5
2A5
100
AcDbEntity
  8
0
100
AcDbPolyline
 62
7
  6
CONTINUOUS
 90
10
 70
0
 10
-0.5095477807
 20
13.8277919014
 10
-0.5191010512
 20
13.8225106158
 10
-0.5287025595
 20
13.8173320596
 10
-0.5383556359
 20
13.8122548152
 10
-0.5480592505
 20
13.807279343
 10
-0.5578159632
 20
13.8024050133
 10
-0.5676315951
 20
13.7976300157
 10
-0.5775038007
 20
13.7929548967
 10
-0.587421752
 20
13.7883824242
 10
-0.5973742074
 20
13.7839147132
  0
LWPOLYLINE
  5
2A6
100
AcDbEntity
  8
0
100
AcDbPolyline
 62
7
  6
CONTINUOUS
 90
5
 70
0
 10
-0.5973742074
 20
13.7839147132
 10
-0.6047502876
 20
13.7807098047
 10
-0.6121425273
 20
13.777568586
 10
-0.6195546151
 20
13.7744904152
 10
-0.6269994889
 20
13.7714871825
  0
LINE
  5
2A7
100
AcDbEntity
  8
0
100
AcDbLine
 62
7
  6
CONTINUOUS
 10
-0.6269994889
 20
13.7714871825
 11
-0.6419505845
 21
13.7656346234
  0
LWPOLYLINE
  5
2A8
100
AcDbEntity
  8
0
100
AcDbPolyline
 62
7
  6
CONTINUOUS
 90
3
 70
0
 10
-0.6419505845
 20
13.7656346234
 10
-0.6569265449
 20
13.7598602943
 10
-0.664447349
 20
13.7570060367
  0
LWPOLYLINE
  5
2A9
100
AcDbEntity
  8
0
100
AcDbPolyline
 62
7
  6
CONTINUOUS
 90
16
 70
0
 10
-3.1038575031
 20
12.9787246483
 10
-3.1780248986
 20
12.951370948
 10
-3.249061284
 20
12.9192928254
 10
-3.3168797361
 20
12.8820892275
 10
-3.3819372452
 20
12.8392981529
 10
-3.4438683055
 20
12.7910819286
 10
-3.5015188815
 20
12.7386209766
 10
-3.554741489
 20
12.6819078108
 10
-3.6036516451
 20
12.620885236
 10
-3.6474101496
 20
12.5568070201
 10
-3.6856899298
 20
12.4898275023
 10
-3.7188358763
 20
12.4197412074
 10
-3.7467686276
 20
12.3475739802
 10
-3.7694884218
 20
12.2737768261
 10
-3.7871433056
 20
12.19762564
 10
-3.7994810222
 20
12.1193503852
  0
LINE
  5
2AA
100
AcDbEntity
  8
0
100
AcDbLine
 62
7
  6
CONTINUOUS
 10
-0.1875404549
 20
13.907344399
 11
0.0
 21
13.9685607613
  0
LINE
  5
2AB
100
AcDbEntity
  8
0
100
AcDbLine
 62
7
  6
CONTINUOUS
 10
-0.6961109283
 20
13.7465719425
 11
-3.1038765056
 21
12.9787237856
  0
LINE
  5
2AC
100
AcDbEntity
  8
0
100
AcDbLine
 62
7
  6
CONTINUOUS
 10
-0.2167969283
 20
13.8980142736
 11
-0.1875404549
 21
13.907344399
  0
LINE
  5
2AD
100
AcDbEntity
  8
0
100
AcDbLine
 62
7
  6
CONTINUOUS
 10
-0.6643500441
 20
13.7567057916
 11
-0.3522329036
 21
13.8557370689
  0
LINE
  5
2AE
100
AcDbEntity
  8
0
100
AcDbLine
 62
7
  6
CONTINUOUS
 10
-0.3522329036
 20
13.8557370689
 11
-0.2167969283
 21
13.8980142736
  0
LINE
  5
2AF
100
AcDbEntity
  8
0
100
AcDbLine
 62
7
  6
CONTINUOUS
 10
-3.1038318599
 20
12.9787286108
 11
-3.8000004741
 21
12.779283038
  0
LWPOLYLINE
  5
2B0
100
AcDbEntity
  8
ASSI
100
AcDbPolyline
 62
7
  6
CONTINUOUS
 90
10
 70
0
 10
-11.1238174026
 20
-16.4758271192
 10
-11.1210404941
 20
-16.5493600913
 10
-11.1130858499
 20
-16.6217449262
 10
-11.0999534699
 20
-16.6929816239
 10
-11.0815186789
 20
-16.7634368711
 10
-11.0579061522
 20
-16.8327439812
 10
-11.0294899157
 20
-16.8998028933
 10
-10.9963946449
 20
-16.9642469207
 10
-10.9584956644
 20
-17.0264427503
 10
-10.9157929742
 20
-17.086390382
  0
LWPOLYLINE
  5
2B1
100
AcDbEntity
  8
RACCORDO
100
AcDbPolyline
 62
7
  6
CONTINUOUS
 90
10
 70
0
 10
-11.1238174026
 20
-16.4758271192
 10
-11.1211741205
 20
-16.5488572778
 10
-11.1132746026
 20
-16.6209938743
 10
-11.1001188487
 20
-16.6922369087
 10
-11.0815220589
 20
-16.7631248966
 10
-11.0576690331
 20
-16.8331193224
 10
-11.0291141717
 20
-16.9006046386
 10
-10.9960422748
 20
-16.9650423294
 10
-10.9582685423
 20
-17.0269709105
 10
-10.9157929742
 20
-17.086390382
  0
LINE
  5
2B2
100
AcDbEntity
  8
ASSI
100
AcDbLine
 62
7
  6
CONTINUOUS
 10
-11.15
 20
-21.8997711479
 11
-11.15
 21
21.8997711479
  0
LINE
  5
2B3
100
AcDbEntity
  8
RACCORDO
100
AcDbLine
 62
7
  6
CONTINUOUS
 10
-11.15
 20
-21.8997711479
 11
-11.15
 21
21.8997711479
  0
LINE
  5
2B4
100
AcDbEntity
  8
ASSI
100
AcDbLine
 62
7
  6
CONTINUOUS
 10
-11.1238174026
 20
16.4758271192
 11
-11.1238174026
 21
-16.4758271192
  0
LINE
  5
2B5
100
AcDbEntity
  8
RACCORDO
100
AcDbLine
 62
7
  6
CONTINUOUS
 10
-11.1238174026
 20
-16.4758271192
 11
-11.1238174026
 21
16.4758271192
  0
LWPOLYLINE
  5
2B6
100
AcDbEntity
  8
RACCORDO
100
AcDbPolyline
 62
7
  6
CONTINUOUS
 90
10
 70
0
 10
-11.15
 20
16.4632818593
 10
-11.147364732
 20
16.5362047833
 10
-11.1394879283
 20
16.6082388542
 10
-11.126369589
 20
16.6793840721
 10
-11.1078254924
 20
16.750177648
 10
-11.0840398601
 20
16.8200823708
 10
-11.0555653571
 20
16.8874866073
 10
-11.0225862052
 20
16.9518531464
 10
-10.9849181826
 20
17.0137191992
 10
-10.9425612894
 20
17.0730847657
  0
LWPOLYLINE
  5
2B7
100
AcDbEntity
  8
ASSI
100
AcDbPolyline
 62
7
  6
CONTINUOUS
 90
10
 70
0
 10
-11.15
 20
16.4632818593
 10
-11.1472315354
 20
16.5367057604
 10
-11.1393000321
 20
16.6089865188
 10
-11.1262054901
 20
16.6801241343
 10
-11.1078239514
 20
16.7504837575
 10
-11.0842793739
 20
16.8197002379
 10
-11.0559436316
 20
16.886678124
 10
-11.0229406824
 20
16.9510522655
 10
-10.9851465683
 20
17.0131878127
 10
-10.9425612894
 20
17.0730847657
  0
LWPOLYLINE
  5
2B8
100
AcDbEntity
  8
0
100
AcDbPolyline
 62
7
  6
CONTINUOUS
 90
5
 70
0
 10
-4.6000004732
 20
13.93150348
 10
-4.5973313462
 20
13.935463883
 10
-4.5893436641
 20
13.9393626049
 10
-4.5760953182
 20
13.9431888765
 10
-4.5576822044
 20
13.9469478109
  0
LWPOLYLINE
  5
2B9
100
AcDbEntity
  8
0
100
AcDbPolyline
 62
7
  6
CONTINUOUS
 90
10
 70
0
 10
-0.4201530922
 20
13.8845427788
 10
-0.4296324784
 20
13.8778757618
 10
-0.4392308317
 20
13.8712927247
 10
-0.4489451074
 20
13.8647955286
 10
-0.4587708802
 20
13.8583888888
 10
-0.4687058394
 20
13.8520767833
 10
-0.4787501782
 20
13.8458617723
 10
-0.4889042937
 20
13.8397443604
 10
-0.4991690264
 20
13.8337225955
 10
-0.5095477807
 20
13.8277919014
  0
LWPOLYLINE
  5
2BA
100
AcDbEntity
  8
0
100
AcDbPolyline
 62
250
  6
CONTINUOUS
 90
18
 70
0
 10
7.5
 20
-16.8325
 10
7.5075961235
 20
-16.8363053019
 10
7.5151344359
 20
-16.847692247
 10
7.5225575661
 20
-16.8665741737
 10
7.5298090196
 20
-16.8928073792
 10
7.5368336085
 20
-16.926192213
 10
7.5435778714
 20
-16.9664745962
 10
7.5499904803
 20
-17.0133479557
 10
7.5560226315
 20
-17.0664555569
 10
7.5616284167
 20
-17.1253932188
 10
7.5667651724
 20
-17.1897123903
 10
7.5713938048
 20
-17.2589235636
 10
7.5754790873
 20
-17.3325
 10
7.5789899283
 20
-17.4098817383
 10
7.5818996083
 20
-17.4904798567
 10
7.5841859828
 20
-17.5736809549
 10
7.5858316512
 20
-17.6588518223
 10
7.5868240888
 20
-17.7453442573
  0
LWPOLYLINE
  5
2BB
100
AcDbEntity
  8
ASSI
100
AcDbPolyline
 62
7
  6
CONTINUOUS
 90
22
 70
0
 10
-9.6761825974
 20
18.0499118029
 10
-9.6776804229
 20
18.0735784753
 10
-9.6816787755
 20
18.0963278883
 10
-9.688177655
 20
18.1181600417
 10
-9.6973313135
 20
18.1393389352
 10
-9.7089854989
 20
18.1596005691
 10
-9.722677456
 20
18.1781529451
 10
-9.7384867959
 20
18.1949282116
 10
-9.7563339075
 20
18.2099942202
 10
-9.7755172017
 20
18.222762527
 10
-9.7960888587
 20
18.233142688
 10
-9.8179966983
 20
18.2412251473
 10
-9.8403825917
 20
18.2466927932
 10
-9.8632660309
 20
18.2494428955
 10
-9.8866275238
 20
18.2495781845
 10
-9.9095504648
 20
18.247089739
 10
-9.9320185785
 20
18.2418738018
 10
-9.9540481402
 20
18.2340341301
 10
-9.9747713705
 20
18.2238730741
 10
-9.9938990093
 20
18.2114914172
 10
-10.0117203167
 20
18.196788376
 10
-10.0282352926
 20
18.1797639505
  0
LWPOLYLINE
  5
2BC
100
AcDbEntity
  8
0
100
AcDbPolyline
 62
250
  6
CONTINUOUS
 90
25
 70
0
 10
-8.6910571032
 20
-2.3719358504
 10
-8.6831411673
 20
-2.5722817717
 10
-8.6627481543
 20
-2.7694617645
 10
-8.6298780641
 20
-2.9634774865
 10
-8.5843277279
 20
-3.1548749285
 10
-8.5263003146
 20
-3.3431112076
 10
-8.4564053305
 20
-3.5265558297
 10
-8.3743882316
 20
-3.705530816
 10
-8.2805035618
 20
-3.8797196378
 10
-8.1761244591
 20
-4.0465368064
 10
-8.0611570607
 20
-4.205747185
 10
-7.9356952294
 20
-4.3575946779
 10
-7.8013936909
 20
-4.5002150065
 10
-7.6581508727
 20
-4.6334947557
 10
-7.5060683474
 20
-4.7575571185
 10
-7.3471055582
 20
-4.8708942047
 10
-7.1810092437
 20
-4.9734095889
 10
-7.0080326653
 20
-5.065208943
 10
-6.8308950499
 20
-5.1450881133
 10
-6.649988956
 20
-5.2127651534
 10
-6.4649218252
 20
-5.268529264
 10
-6.277235209
 20
-5.3120327122
 10
-6.087442958
 20
-5.3431608909
 10
-5.8950312217
 20
-5.362032222
 10
-5.7
 20
-5.368647671
  0
LWPOLYLINE
  5
2BD
100
AcDbEntity
  8
0
100
AcDbPolyline
 62
7
  6
CONTINUOUS
 90
28
 70
0
 10
-9.1910498758
 20
-2.3053606474
 10
-9.1878097488
 20
-2.4406547867
 10
-9.1722923855
 20
-2.6515489435
 10
-9.1440951191
 20
-2.8607946561
 10
-9.1031590059
 20
-3.0687732702
 10
-9.0498347058
 20
-3.2736460776
 10
-8.9848647572
 20
-3.473165423
 10
-8.9085464929
 20
-3.667301186
 10
-8.8210206318
 20
-3.8561354035
 10
-8.7222324237
 20
-4.0397743146
 10
-8.6121382303
 20
-4.2180338118
 10
-8.4922254447
 20
-4.3885670149
 10
-8.3630238894
 20
-4.5508526853
 10
-8.2248911492
 20
-4.7046490846
 10
-8.0778312565
 20
-4.8501204178
 10
-7.9214864453
 20
-4.9874116919
 10
-7.7562591392
 20
-5.11586277
 10
-7.5846632516
 20
-5.2335520589
 10
-7.4069413896
 20
-5.3404997102
 10
-7.2229856677
 20
-5.4367436541
 10
-7.0331582693
 20
-5.5220496969
 10
-6.8374160687
 20
-5.5962967637
 10
-6.6377472805
 20
-5.6586372847
 10
-6.4361991761
 20
-5.7085461376
 10
-6.2331746075
 20
-5.746205761
 10
-6.0283545651
 20
-5.7717648955
 10
-5.8219368502
 20
-5.7851121198
 10
-5.700000003
 20
-5.7872348436
  0
LINE
  5
2BE
100
AcDbEntity
  8
ASSI
100
AcDbLine
 62
7
  6
CONTINUOUS
 10
-9.6761825974
 20
-18.0499118029
 11
-9.6761825974
 21
-0.3341768832
  0
LINE
  5
2BF
100
AcDbEntity
  8
RACCORDO
100
AcDbLine
 62
7
  6
CONTINUOUS
 10
-9.6761825974
 20
-18.0499118029
 11
-9.6761825974
 21
-0.3341768832
  0
LINE
  5
2C0
100
AcDbEntity
  8
ASSI
100
AcDbLine
 62
7
  6
CONTINUOUS
 10
-9.6761825974
 20
0.3341768832
 11
-9.6761825974
 21
18.0499118029
  0
LINE
  5
2C1
100
AcDbEntity
  8
RACCORDO
100
AcDbLine
 62
7
  6
CONTINUOUS
 10
-9.6761825974
 20
0.3341768832
 11
-9.6761825974
 21
18.0499118029
  0
LINE
  5
2C2
100
AcDbEntity
  8
ASSI
100
AcDbLine
 62
7
  6
CONTINUOUS
 10
-9.65
 20
20.9
 11
-9.65
 21
18.1006230748
  0
LINE
  5
2C3
100
AcDbEntity
  8
RACCORDO
100
AcDbLine
 62
7
  6
CONTINUOUS
 10
-9.65
 20
20.9
 11
-9.65
 21
18.1006230748
  0
LINE
  5
2C4
100
AcDbEntity
  8
ASSI
100
AcDbLine
 62
7
  6
CONTINUOUS
 10
-9.65
 20
-18.1006230748
 11
-9.65
 21
-20.9
  0
LINE
  5
2C5
100
AcDbEntity
  8
RACCORDO
100
AcDbLine
 62
7
  6
CONTINUOUS
 10
-9.65
 20
-18.1006230748
 11
-9.65
 21
-20.9
  0
LINE
  5
2C6
100
AcDbEntity
  8
ASSI
100
AcDbLine
 62
7
  6
CONTINUOUS
 10
-9.5103594806
 20
20.7603594806
 11
-9.5103594806
 21
0.5
  0
LINE
  5
2C7
100
AcDbEntity
  8
DRAFT
100
AcDbLine
 62
7
  6
CONTINUOUS
 10
-9.5103594806
 20
20.7603594806
 11
-9.5103594806
 21
0.5
  0
LINE
  5
2C8
100
AcDbEntity
  8
ASSI
100
AcDbLine
 62
7
  6
CONTINUOUS
 10
-9.5103594806
 20
-0.5
 11
-9.5103594806
 21
-20.7603594806
  0
LINE
  5
2C9
100
AcDbEntity
  8
DRAFT
100
AcDbLine
 62
7
  6
CONTINUOUS
 10
-9.5103594806
 20
-0.5
 11
-9.5103594806
 21
-20.7603594806
  0
LINE
  5
2CA
100
AcDbEntity
  8
0
100
AcDbLine
 62
7
  6
CONTINUOUS
 10
-8.5
 20
-17.849847672
 11
-8.5
 21
-17.8325
  0
LINE
  5
2CB
100
AcDbEntity
  8
0
100
AcDbLine
 62
7
  6
CONTINUOUS
 10
-8.5
 20
17.849847672
 11
-8.5
 21
17.8325
  0
LWPOLYLINE
  5
2CC
100
AcDbEntity
  8
0
100
AcDbPolyline
 62
7
  6
CONTINUOUS
 90
25
 70
0
 10
-8.6828754488
 20
-2.1357032448
 10
-8.6842553251
 20
-2.3402485169
 10
-8.672405743
 20
-2.5420117504
 10
-8.6473267024
 20
-2.7409943096
 10
-8.6088471494
 20
-2.9377419022
 10
-8.557138138
 20
-3.1317113509
 10
-8.4927128304
 20
-3.3212718786
 10
-8.4152880437
 20
-3.5068587573
 10
-8.3251469609
 20
-3.688041669
 10
-8.2236522939
 20
-3.8618946026
 10
-8.1107071668
 20
-4.0281331769
 10
-7.9864084555
 20
-4.1870507223
 10
-7.8524094987
 20
-4.3365909016
 10
-7.7085537276
 20
-4.4766680339
 10
-7.554997711
 20
-4.6073780846
 10
-7.3938644945
 20
-4.7269389992
 10
-7.2250070813
 20
-4.8351998057
 10
-7.0485724682
 20
-4.932321539
 10
-6.8671246912
 20
-5.0169909503
 10
-6.6807143418
 20
-5.0889947077
 10
-6.4892908284
 20
-5.1485541096
 10
-6.2952664115
 20
-5.1950076351
 10
-6.099445178
 20
-5.2281362837
 10
-5.9010230409
 20
-5.2481633862
 10
-5.7000000003
 20
-5.2550900312
  0
LWPOLYLINE
  5
2CD
100
AcDbEntity
  8
0
100
AcDbPolyline
 62
7
  6
CONTINUOUS
 90
10
 70
0
 10
-8.6828754488
 20
-2.1357032448
 10
-8.680930779
 20
-2.0962740224
 10
-8.6784701723
 20
-2.0569258196
 10
-8.6754961289
 20
-2.0176653595
 10
-8.6720119636
 20
-1.9785066586
 10
-8.668019805
 20
-1.9394489427
 10
-8.6635196304
 20
-1.9004767438
 10
-8.6585123848
 20
-1.8615893197
 10
-8.6530009443
 20
-1.8228005558
 10
-8.6469874405
 20
-1.7841169498
  0
LWPOLYLINE
  5
2CE
100
AcDbEntity
  8
ASSI
100
AcDbPolyline
 62
7
  6
CONTINUOUS
 90
22
 70
0
 10
-9.65
 20
-18.1006230748
 10
-9.6514951146
 20
-18.1242694897
 10
-9.6554869577
 20
-18.1470008714
 10
-9.6619755295
 20
-18.1688172197
 10
-9.6711145904
 20
-18.1899819596
 10
-9.6827503798
 20
-18.2102316661
 10
-9.6964216162
 20
-18.2287760651
 10
-9.7122076929
 20
-18.2455475716
 10
-9.7300292165
 20
-18.2606137706
 10
-9.7491867253
 20
-18.2733871429
 10
-9.7697323104
 20
-18.2837775819
 10
-9.7916138807
 20
-18.2918751943
 10
-9.8139757005
 20
-18.2973627805
 10
-9.8368373157
 20
-18.3001379623
 10
-9.8601791804
 20
-18.3003031179
 10
-9.8830869215
 20
-18.2978481826
 10
-9.9055444619
 20
-18.2926697079
 10
-9.9275678786
 20
-18.2848711424
 10
-9.948291029
 20
-18.2747527672
 10
-9.9674251991
 20
-18.2624146761
 10
-9.985259103
 20
-18.2477567752
 10
-10.0017927407
 20
-18.2307790647
  0
LWPOLYLINE
  5
2CF
100
AcDbEntity
  8
0
100
AcDbPolyline
 62
250
  6
CONTINUOUS
 90
10
 70
0
 10
-8.6828754488
 20
-2.1357032448
 10
-8.6846950159
 20
-2.1619177674
 10
-8.6862877833
 20
-2.1881421293
 10
-8.687653751
 20
-2.2143763283
 10
-8.6887940177
 20
-2.2406222931
 10
-8.6897074846
 20
-2.2668780903
 10
-8.6903908562
 20
-2.2931379256
 10
-8.6908430339
 20
-2.3193998664
 10
-8.6910651162
 20
-2.3456658419
 10
-8.6910571032
 20
-2.3719358504
  0
LWPOLYLINE
  5
2D0
100
AcDbEntity
  8
0
100
AcDbPolyline
 62
7
  6
CONTINUOUS
 90
19
 70
0
 10
-7.5
 20
16.8363053019
 10
-7.499483486
 20
16.8397167816
 10
-7.4978356711
 20
16.844239906
 10
-7.4950531401
 20
16.8498917455
 10
-7.4911575246
 20
16.8566789697
 10
-7.4861200819
 20
16.8646223567
 10
-7.4798614099
 20
16.8737704114
 10
-7.4723854369
 20
16.8841493864
 10
-7.463679683
 20
16.8957793451
 10
-7.4536392956
 20
16.9087192832
 10
-7.4422676206
 20
16.9229957417
 10
-7.4295509014
 20
16.9386360873
 10
-7.4153574986
 20
16.9557182831
 10
-7.399678116
 20
16.9742813518
 10
-7.3825089879
 20
16.9943478703
 10
-7.3637254618
 20
17.0159845112
 10
-7.3433162723
 20
17.0392196614
 10
-7.3212768981
 20
17.0640777838
 10
-7.2974914295
 20
17.0906269643
  0
LWPOLYLINE
  5
2D1
100
AcDbEntity
  8
0
100
AcDbPolyline
 62
7
  6
CONTINUOUS
 90
9
 70
0
 10
-9.1276600013
 20
-1.6248988646
 10
-9.1437112619
 20
-1.7144749304
 10
-9.1569644157
 20
-1.801197485
 10
-9.168373774
 20
-1.8910527528
 10
-9.1777363003
 20
-1.9840551642
 10
-9.1848141157
 20
-2.0801533769
 10
-9.1893612659
 20
-2.17965309
 10
-9.1910828016
 20
-2.2822331128
 10
-9.1910499503
 20
-2.3053395036
  0
LINE
  5
2D2
100
AcDbEntity
  8
0
100
AcDbLine
 62
7
  6
CONTINUOUS
 10
-9.1276690462
 20
-1.62494651
 11
-9.1276600013
 21
-1.6248988646
  0
LWPOLYLINE
  5
2D3
100
AcDbEntity
  8
0
100
AcDbPolyline
 62
250
  6
CONTINUOUS
 90
19
 70
0
 10
-4.6000004732
 20
13.6096416539
 10
-4.5973334337
 20
13.6162905482
 10
-4.5893512982
 20
13.6228877568
 10
-4.576110858
 20
13.6293886
 10
-4.5577063062
 20
13.6357511255
 10
-4.5342685555
 20
13.6419301544
 10
-4.5059642967
 20
13.6478775875
 10
-4.4729948355
 20
13.6535528727
 10
-4.4355946647
 20
13.658917849
 10
-4.3940297761
 20
13.6639307522
 10
-4.3485957801
 20
13.6685572434
 10
-4.2996158131
 20
13.6727663807
 10
-4.2474382331
 20
13.6765253996
 10
-4.1924341197
 20
13.6798083625
 10
-4.1349946761
 20
13.6825935176
 10
-4.0755284613
 20
13.6848591893
 10
-4.014458419
 20
13.6865890972
 10
-3.952218864
 20
13.6877724642
 10
-3.8892524404
 20
13.6884012786
  0
LINE
  5
2D4
100
AcDbEntity
  8
0
100
AcDbLine
 62
7
  6
CONTINUOUS
 10
-0.1924326508
 20
14.1094605009
 11
-0.1960058566
 21
14.1045626253
  0
LWPOLYLINE
  5
2D5
100
AcDbEntity
  8
0
100
AcDbPolyline
 62
7
  6
CONTINUOUS
 90
6
 70
0
 10
-0.1960058566
 20
14.1045626253
 10
-0.1996476606
 20
14.0996197666
 10
-0.2014890712
 20
14.0971536799
 10
-0.203341369
 20
14.0947030071
 10
-0.2052059218
 20
14.0922618149
 10
-0.2070827145
 20
14.0898301002
  0
LWPOLYLINE
  5
2D6
100
AcDbEntity
  8
0
100
AcDbPolyline
 62
7
  6
CONTINUOUS
 90
10
 70
0
 10
-0.2070827145
 20
14.0898301002
 10
-0.2276623046
 20
14.0639608774
 10
-0.2490151385
 20
14.0388333672
 10
-0.2711620324
 20
14.0144631908
 10
-0.2941497637
 20
13.9908339963
 10
-0.3179424283
 20
13.9679430516
 10
-0.3424514302
 20
13.9458450537
 10
-0.3676360027
 20
13.9245863348
 10
-0.3935277595
 20
13.9041571877
 10
-0.4201530922
 20
13.8845427788
  0
LINE
  5
2D7
100
AcDbEntity
  8
ASSI
100
AcDbLine
 62
7
  6
CONTINUOUS
 10
6.7330351795
 20
18.85
 11
6.8330351795
 21
18.95
  0
LINE
  5
2D8
100
AcDbEntity
  8
0
100
AcDbLine
 62
7
  6
CONTINUOUS
 10
6.7330351795
 20
18.85
 11
6.8330351795
 21
18.95
  0
LINE
  5
2D9
100
AcDbEntity
  8
0
100
AcDbLine
 62
7
  6
CONTINUOUS
 10
3.1941074346
 20
-8.4541253917
 11
3.6656413538
 21
-8.4469777328
  0
LINE
  5
2DA
100
AcDbEntity
  8
0
100
AcDbLine
 62
7
  6
CONTINUOUS
 10
-3.6896243156
 20
-8.4466141915
 11
-3.1941074346
 21
-8.4541253917
  0
LINE
  5
2DB
100
AcDbEntity
  8
0
100
AcDbLine
 62
7
  6
CONTINUOUS
 10
-3.7052627366
 20
-8.4330334866
 11
-3.6896243156
 21
-8.4466141915
  0
LINE
  5
2DC
100
AcDbEntity
  8
ASSI
100
AcDbLine
 62
7
  6
CONTINUOUS
 10
6.8330351795
 20
-18.95
 11
6.7330351795
 21
-18.85
  0
LINE
  5
2DD
100
AcDbEntity
  8
0
100
AcDbLine
 62
7
  6
CONTINUOUS
 10
6.8330351795
 20
-18.95
 11
6.7330351795
 21
-18.85
  0
LWPOLYLINE
  5
2DE
100
AcDbEntity
  8
0
100
AcDbPolyline
 62
7
  6
CONTINUOUS
 90
19
 70
0
 10
-7.5
 20
-16.8363053019
 10
-7.4994573404
 20
-16.8396905362
 10
-7.497815194
 20
-16.8442193507
 10
-7.4950531401
 20
-16.8498917455
 10
-7.4911574615
 20
-16.8566789063
 10
-7.486107421
 20
-16.8646096475
 10
-7.4798614099
 20
-16.8737704114
 10
-7.4723897531
 20
-16.8841537191
 10
-7.4636674343
 20
-16.8957670495
 10
-7.4536392956
 20
-16.9087192832
 10
-7.442273492
 20
-16.9230016356
 10
-7.4295377554
 20
-16.9386228911
 10
-7.4153574986
 20
-16.9557182831
 10
-7.3996885398
 20
-16.9742918154
 10
-7.3825006337
 20
-16.9943394841
 10
-7.3637254618
 20
-17.0159845112
 10
-7.3433270126
 20
-17.0392304428
 10
-7.3212728625
 20
-17.0640737327
 10
-7.2719354408
 20
-17.1189209366
  0
LWPOLYLINE
  5
2DF
100
AcDbEntity
  8
RACCORDO
100
AcDbPolyline
 62
7
  6
CONTINUOUS
 90
19
 70
0
 10
-9.6761825974
 20
18.0499118029
 10
-9.6783193879
 20
18.0777755248
 10
-9.6837652419
 20
18.1041759677
 10
-9.6925201593
 20
18.1291131315
 10
-9.7048577513
 20
18.1529708368
 10
-9.7205044068
 20
18.1753652631
 10
-9.738639292
 20
18.1951449493
 10
-9.7594034708
 20
18.2121850579
 10
-9.7826558794
 20
18.2266104263
 10
-9.8071524922
 20
18.2376441055
 10
-9.8329638579
 20
18.2450953266
 10
-9.8600194279
 20
18.2491548585
 10
-9.8868635312
 20
18.2496180596
 10
-9.9134680073
 20
18.2462945336
 10
-9.9398610166
 20
18.2393746768
 10
-9.9646713688
 20
18.2292250354
 10
-9.9874420005
 20
18.2159677916
 10
-10.0086299751
 20
18.1994807633
 10
-10.0282352926
 20
18.1797639505
  0
LINE
  5
2E0
100
AcDbEntity
  8
ASSI
100
AcDbLine
 62
7
  6
CONTINUOUS
 10
-7.2084845302
 20
-19.8
 11
-7.2180848159
 21
-19.25
  0
LINE
  5
2E1
100
AcDbEntity
  8
DRAFT
100
AcDbLine
 62
7
  6
CONTINUOUS
 10
-7.2084845302
 20
-19.8
 11
-7.2233213354
 21
-18.95
  0
LWPOLYLINE
  5
2E2
100
AcDbEntity
  8
0
100
AcDbPolyline
 62
250
  6
CONTINUOUS
 90
19
 70
0
 10
-7.5871557427
 20
17.849847672
 10
-7.5883327973
 20
17.9369060709
 10
-7.5888388864
 20
18.0233031846
 10
-7.588670166
 20
18.108382751
 10
-7.5878279175
 20
18.1914985156
 10
-7.5863185386
 20
18.2720191412
 10
-7.5841534944
 20
18.3493330026
 10
-7.5813492303
 20
18.4228528329
 10
-7.5779270471
 20
18.4920201843
 10
-7.5739129394
 20
18.5563096698
 10
-7.5693373977
 20
18.6152329541
 10
-7.5642351775
 20
18.6683424631
 10
-7.5586450345
 20
18.7152347831
 10
-7.5526094308
 20
18.7555537257
 10
-7.5461742121
 20
18.7889930331
 10
-7.5393882597
 20
18.8152987042
 10
-7.5323031187
 20
18.8342709242
 10
-7.524972607
 20
18.8457655826
 10
-7.5174524064
 20
18.8496953671
  0
LWPOLYLINE
  5
2E3
100
AcDbEntity
  8
0
100
AcDbPolyline
 62
250
  6
CONTINUOUS
 90
32
 70
0
 10
-8.35
 20
-2.2839475992
 10
-8.3495054806
 20
-2.3351345698
 10
-8.3391239497
 20
-2.5237632792
 10
-8.3153272346
 20
-2.7111729585
 10
-8.2782362986
 20
-2.8964109676
 10
-8.2280396823
 20
-3.0785357054
 10
-8.1649925449
 20
-3.2566213961
 10
-8.0894153674
 20
-3.4297627953
 10
-8.0016923233
 20
-3.5970797914
 10
-7.9022693261
 20
-3.7577218791
 10
-7.7916517623
 20
-3.9108724834
 10
-7.6704019228
 20
-4.0557531098
 10
-7.5391361441
 20
-4.1916273014
 10
-7.3985216761
 20
-4.3178043834
 10
-7.2492732895
 20
-4.4336429727
 10
-7.0921496432
 20
-4.5385542392
 10
-6.9279494274
 20
-4.6320048984
 10
-6.7575073041
 20
-4.7135199222
 10
-6.5816896639
 20
-4.7826849537
 10
-6.4013902224
 20
-4.8391484136
 10
-6.2175254769
 20
-4.8826232871
 10
-6.0310300481
 20
-4.9128885828
 10
-5.8428519286
 20
-4.9297904563
 10
-5.6539476648
 20
-4.9332429921
 10
-5.465277494
 20
-4.9232286402
 10
-5.2778004637
 20
-4.8997983056
 10
-5.0924695564
 20
-4.8630710893
 10
-4.9102268454
 20
-4.8132336829
 10
-4.731998706
 20
-4.7505394196
 10
-4.558691107
 20
-4.6753069868
 10
-4.3911850047
 20
-4.5879188056
 10
-4.2303318655
 20
-4.4888190873
  0
LINE
  5
2E4
100
AcDbEntity
  8
0
100
AcDbLine
 62
7
  6
CONTINUOUS
 10
-8.35
 20
-2.2839475992
 11
-8.35
 21
-2.3009249102
  0
LINE
  5
2E5
100
AcDbEntity
  8
0
100
AcDbLine
 62
250
  6
CONTINUOUS
 10
-7.5868240888
 20
17.7453442573
 11
-7.5871557427
 21
17.849847672
  0
LINE
  5
2E6
100
AcDbEntity
  8
ASSI
100
AcDbLine
 62
7
  6
CONTINUOUS
 10
-7.5226756989
 20
-20.7603594806
 11
-7.5226756989
 21
-19.25
  0
LINE
  5
2E7
100
AcDbEntity
  8
DRAFT
100
AcDbLine
 62
7
  6
CONTINUOUS
 10
-7.5226756989
 20
-20.7603594806
 11
-7.5226756989
 21
-18.95
  0
LINE
  5
2E8
100
AcDbEntity
  8
ASSI
100
AcDbLine
 62
7
  6
CONTINUOUS
 10
-7.5226756989
 20
18.95
 11
-7.5226756989
 21
20.7603594806
  0
LINE
  5
2E9
100
AcDbEntity
  8
RACCORDO
100
AcDbLine
 62
7
  6
CONTINUOUS
 10
-7.5226756989
 20
19.25
 11
-7.5226756989
 21
20.7603594806
  0
LINE
  5
2EA
100
AcDbEntity
  8
0
100
AcDbLine
 62
7
  6
CONTINUOUS
 10
-7.5
 20
16.8363053019
 11
-7.5
 21
0.7253904484
  0
LINE
  5
2EB
100
AcDbEntity
  8
0
100
AcDbLine
 62
7
  6
CONTINUOUS
 10
-7.5
 20
-16.8363053019
 11
-7.5
 21
-5.2844998478
  0
LINE
  5
2EC
100
AcDbEntity
  8
ASSI
100
AcDbLine
 62
7
  6
CONTINUOUS
 10
-7.2084845302
 20
20.1483339502
 11
-7.2084845302
 21
19.8
  0
LINE
  5
2ED
100
AcDbEntity
  8
DRAFT
100
AcDbLine
 62
7
  6
CONTINUOUS
 10
-7.2084845302
 20
20.1483339502
 11
-7.2084845302
 21
19.8
  0
LINE
  5
2EE
100
AcDbEntity
  8
ASSI
100
AcDbLine
 62
7
  6
CONTINUOUS
 10
-7.2084845302
 20
-19.8
 11
-7.2084845302
 21
-20.1483339502
  0
LINE
  5
2EF
100
AcDbEntity
  8
DRAFT
100
AcDbLine
 62
7
  6
CONTINUOUS
 10
-7.2084845302
 20
-19.8
 11
-7.2084845302
 21
-20.1483339502
  0
LWPOLYLINE
  5
2F0
100
AcDbEntity
  8
0
100
AcDbPolyline
 62
250
  6
CONTINUOUS
 90
19
 70
0
 10
-7.5871557427
 20
-17.849847672
 10
-7.5868240888
 20
-17.7453442573
 10
-7.5858316512
 20
-17.6588518223
 10
-7.5841859828
 20
-17.5736809549
 10
-7.5818996083
 20
-17.4904798567
 10
-7.5789899283
 20
-17.4098817383
 10
-7.5754790873
 20
-17.3325
 10
-7.5713938048
 20
-17.2589235636
 10
-7.5667651724
 20
-17.1897123903
 10
-7.5616284167
 20
-17.1253932188
 10
-7.5560226315
 20
-17.0664555569
 10
-7.5499904803
 20
-17.0133479557
 10
-7.5435778714
 20
-16.9664745962
 10
-7.5368336085
 20
-16.926192213
 10
-7.5298090196
 20
-16.8928073792
 10
-7.5225575661
 20
-16.8665741737
 10
-7.5151344359
 20
-16.847692247
 10
-7.5075961235
 20
-16.8363053019
 10
-7.5
 20
-16.8325
  0
LINE
  5
2F1
100
AcDbEntity
  8
ASSI
100
AcDbLine
 62
7
  6
CONTINUOUS
 10
-7.2233213354
 20
18.95
 11
-7.2084845302
 21
19.8
  0
LINE
  5
2F2
100
AcDbEntity
  8
RACCORDO
100
AcDbLine
 62
7
  6
CONTINUOUS
 10
-7.2180848159
 20
19.25
 11
-7.2084845302
 21
19.8
  0
LWPOLYLINE
  5
2F3
100
AcDbEntity
  8
RACCORDO
100
AcDbPolyline
 62
7
  6
CONTINUOUS
 90
19
 70
0
 10
-9.65
 20
-18.1006230748
 10
-9.652132988
 20
-18.1284640465
 10
-9.6575705236
 20
-18.1548450886
 10
-9.6663126068
 20
-18.179766201
 10
-9.6786321172
 20
-18.2036105163
 10
-9.6942561753
 20
-18.2259949019
 10
-9.7123661424
 20
-18.2457699601
 10
-9.7331026467
 20
-18.2628111944
 10
-9.7563250602
 20
-18.2772431013
 10
-9.7807928594
 20
-18.2882897721
 10
-9.8065766692
 20
-18.2957610735
 10
-9.8336058648
 20
-18.2998471389
 10
-9.8604280484
 20
-18.3003424598
 10
-9.8870152491
 20
-18.2970570029
 10
-9.9133954377
 20
-18.2901808016
 10
-9.9382001297
 20
-18.2800784479
 10
-9.9609731634
 20
-18.2668714725
 10
-9.9821707004
 20
-18.2504383448
 10
-10.0017927407
 20
-18.2307790647
  0
LWPOLYLINE
  5
2F4
100
AcDbEntity
  8
0
100
AcDbPolyline
 62
7
  6
CONTINUOUS
 90
10
 70
0
 10
-8.6469874405
 20
-1.7841169498
 10
-8.6356559805
 20
-1.7188176532
 10
-8.6228601444
 20
-1.6536808315
 10
-8.6085993536
 20
-1.5887399477
 10
-8.5928652606
 20
-1.5239945453
 10
-8.5756658571
 20
-1.4595128468
 10
-8.5570330326
 20
-1.3954297879
 10
-8.5369868484
 20
-1.3318107825
 10
-8.5155279839
 20
-1.268653655
 10
-8.4926671184
 20
-1.2059898758
  0
LWPOLYLINE
  5
2F5
100
AcDbEntity
  8
0
100
AcDbPolyline
 62
250
  6
CONTINUOUS
 90
19
 70
0
 10
-4.6000004732
 20
12.6127937242
 10
-4.5973438541
 20
12.6265558359
 10
-4.5893309648
 20
12.6403554544
 10
-4.575958536
 20
12.6540307033
 10
-4.5574985837
 20
12.6673465499
 10
-4.5341532955
 20
12.6802158501
 10
-4.5058791949
 20
12.6926893463
 10
-4.4729039553
 20
12.7046323672
 10
-4.435621233
 20
12.7158968179
 10
-4.3940311868
 20
12.7264928052
 10
-4.3485029248
 20
12.7362891612
 10
-4.2995681484
 20
12.7451777247
 10
-4.2472439164
 20
12.7531523462
 10
-4.192102126
 20
12.7601135868
 10
-4.1347416895
 20
12.7659889389
 10
-4.0751568931
 20
12.7707830712
 10
-4.0137958495
 20
12.7744538259
 10
-3.9515959864
 20
12.7769386455
 10
-3.8892523798
 20
12.7782390499
  0
LWPOLYLINE
  5
2F6
100
AcDbEntity
  8
0
100
AcDbPolyline
 62
7
  6
CONTINUOUS
 90
9
 70
0
 10
-8.9305588815
 20
-0.9627860011
 10
-8.940979282
 20
-0.9885609946
 10
-8.9774525742
 20
-1.083792409
 10
-9.0104012371
 20
-1.1778347506
 10
-9.0400488356
 20
-1.2707864282
 10
-9.0664902935
 20
-1.3623595998
 10
-9.0897522055
 20
-1.4519014191
 10
-9.1099954372
 20
-1.5390732063
 10
-9.1276689761
 20
-1.6249461578
  0
LWPOLYLINE
  5
2F7
100
AcDbEntity
  8
0
100
AcDbPolyline
 62
7
  6
CONTINUOUS
 90
19
 70
0
 10
-8.4926671184
 20
-1.2059898758
 10
-8.4158029188
 20
-1.0212971892
 10
-8.32661654
 20
-0.8418859765
 10
-8.2254541614
 20
-0.6685918555
 10
-8.1127191258
 20
-0.5022233038
 10
-7.9888710607
 20
-0.3435736488
 10
-7.8544271857
 20
-0.1934168166
 10
-7.7097817784
 20
-0.0523185238
 10
-7.5557100041
 20
0.0788523443
 10
-7.3934738239
 20
0.1990339973
 10
-7.2242040311
 20
0.3075460608
 10
-7.0484126866
 20
0.4042127284
 10
-6.8665240267
 20
0.4888470125
 10
-6.6790029705
 20
0.5611885145
 10
-6.4870398106
 20
0.6207374476
 10
-6.2921809811
 20
0.667085416
 10
-6.0955653779
 20
0.7001263157
 10
-5.8978743357
 20
0.7199086887
 10
-5.7
 20
0.7264813971
  0
LWPOLYLINE
  5
2F8
100
AcDbEntity
  8
0
100
AcDbPolyline
 62
250
  6
CONTINUOUS
 90
10
 70
0
 10
-0.1905928485
 20
14.1120250362
 10
-0.1591633215
 20
14.157796794
 10
-0.1304172719
 20
14.2051624862
 10
-0.1044041984
 20
14.2539957846
 10
-0.0811691372
 20
14.3042210086
 10
-0.0607733497
 20
14.3556557578
 10
-0.0432632626
 20
14.4079995785
 10
-0.0286570606
 20
14.4610518209
 10
-0.0169757456
 20
14.5147229548
 10
-0.0082420695
 20
14.5688692823
  0
LINE
  5
2F9
100
AcDbEntity
  8
0
100
AcDbLine
 62
7
  6
CONTINUOUS
 10
-0.1906707579
 20
14.1118970415
 11
-0.1924326508
 21
14.1094605009
  0
LINE
  5
2FA
100
AcDbEntity
  8
ASSI
100
AcDbLine
 62
7
  6
CONTINUOUS
 10
9.5103594806
 20
20.7603594806
 11
9.65
 21
20.9
  0
LINE
  5
2FB
100
AcDbEntity
  8
DRAFT
100
AcDbLine
 62
7
  6
CONTINUOUS
 10
9.5103594806
 20
20.7603594806
 11
9.65
 21
20.9
  0
LINE
  5
2FC
100
AcDbEntity
  8
ASSI
100
AcDbLine
 62
7
  6
CONTINUOUS
 10
-9.5103594806
 20
0.5
 11
-9.6761825974
 21
0.3341768832
  0
LINE
  5
2FD
100
AcDbEntity
  8
DRAFT
100
AcDbLine
 62
7
  6
CONTINUOUS
 10
-9.5103594806
 20
0.5
 11
-9.6761825974
 21
0.3341768832
  0
LINE
  5
2FE
100
AcDbEntity
  8
0
100
AcDbLine
 62
7
  6
CONTINUOUS
 10
-3.7386922173
 20
6.1503598399
 11
-3.75
 21
6.1405399558
  0
LINE
  5
2FF
100
AcDbEntity
  8
0
100
AcDbLine
 62
250
  6
CONTINUOUS
 10
4.5964367293
 20
12.0541042612
 11
4.5999281232
 21
12.0567186321
  0
LWPOLYLINE
  5
300
100
AcDbEntity
  8
0
100
AcDbPolyline
 62
7
  6
CONTINUOUS
 90
8
 70
0
 10
-3.1941074346
 20
-8.4541253917
 10
-3.1799813126
 20
-8.4516576677
 10
-3.1577815362
 20
-8.4492163897
 10
-3.1275081056
 20
-8.4468015576
 10
-3.0890405098
 20
-8.4444070397
 10
-3.0424992597
 20
-8.4420389678
 10
-2.9882458882
 20
-8.439715737
 10
-2.9264009061
 20
-8.437443479
  0
LINE
  5
301
100
AcDbEntity
  8
0
100
AcDbLine
 62
7
  6
CONTINUOUS
 10
0.2428015927
 20
-8.3622725162
 11
0.4008674731
 21
-8.3462755929
  0
LWPOLYLINE
  5
302
100
AcDbEntity
  8
0
100
AcDbPolyline
 62
250
  6
CONTINUOUS
 90
18
 70
0
 10
3.889242264
 20
-8.0146823229
 10
3.9522138225
 20
-8.0090462953
 10
4.0144572326
 20
-7.9984215019
 10
4.0755298235
 20
-7.9828837773
 10
4.1349969422
 20
-7.9625440211
 10
4.1924361153
 20
-7.9375470693
 10
4.2474399213
 20
-7.9080703861
 10
4.299617481
 20
-7.8743233846
 10
4.3485973726
 20
-7.8365462315
 10
4.3940312518
 20
-7.7950076112
 10
4.4355959936
 20
-7.750002937
 10
4.4729959905
 20
-7.7018522745
 10
4.5059652543
 20
-7.6508980852
 10
4.5342693082
 20
-7.5975027484
 10
4.5577068542
 20
-7.5420460022
 10
4.576111205
 20
-7.4849222644
 10
4.5893514689
 20
-7.4265377984
 10
4.5973334816
 20
-7.3673078264
  0
LINE
  5
303
100
AcDbEntity
  8
0
100
AcDbLine
 62
7
  6
CONTINUOUS
 10
0.5827426978
 20
-8.344453838
 11
0.6396640443
 21
-8.3408291074
  0
LINE
  5
304
100
AcDbEntity
  8
0
100
AcDbLine
 62
7
  6
CONTINUOUS
 10
0.0022846949
 20
-8.3748812792
 11
0.5004533167
 21
-8.348773368
  0
LINE
  5
305
100
AcDbEntity
  8
0
100
AcDbLine
 62
7
  6
CONTINUOUS
 10
0.5827434005
 20
-8.3444607274
 11
2.0408889784
 21
-8.2680425557
  0
LINE
  5
306
100
AcDbEntity
  8
0
100
AcDbLine
 62
7
  6
CONTINUOUS
 10
3.7019860369
 20
-8.1809881476
 11
3.8892524433
 21
-8.1711739311
  0
LINE
  5
307
100
AcDbEntity
  8
0
100
AcDbLine
 62
250
  6
CONTINUOUS
 10
3.8892524423
 20
-8.0146818195
 11
3.800000475
 21
-8.019097581
  0
LINE
  5
308
100
AcDbEntity
  8
0
100
AcDbLine
 62
7
  6
CONTINUOUS
 10
0.7127867082
 20
-8.3376454461
 11
0.6396640625
 21
-8.3408289867
  0
LINE
  5
309
100
AcDbEntity
  8
0
100
AcDbLine
 62
7
  6
CONTINUOUS
 10
0.5870131778
 20
-8.342502609
 11
0.6396640625
 21
-8.3408289867
  0
LINE
  5
30A
100
AcDbEntity
  8
0
100
AcDbLine
 62
7
  6
CONTINUOUS
 10
-2.9264009061
 20
-8.437443479
 11
-2.7795745778
 21
-8.4330334866
  0
LINE
  5
30B
100
AcDbEntity
  8
0
100
AcDbLine
 62
7
  6
CONTINUOUS
 10
0.5341023751
 20
-8.3439116637
 11
0.5870131778
 21
-8.342502609
  0
LINE
  5
30C
100
AcDbEntity
  8
0
100
AcDbLine
 62
7
  6
CONTINUOUS
 10
0.4809595631
 20
-8.3450560403
 11
0.5341023751
 21
-8.3439116637
  0
LINE
  5
30D
100
AcDbEntity
  8
0
100
AcDbLine
 62
7
  6
CONTINUOUS
 10
0.4276104881
 20
-8.3459352972
 11
0.4809595631
 21
-8.3450560403
  0
LINE
  5
30E
100
AcDbEntity
  8
0
100
AcDbLine
 62
7
  6
CONTINUOUS
 10
0.2677472311
 20
-8.3478303568
 11
0.4276104881
 21
-8.3459352972
  0
LINE
  5
30F
100
AcDbEntity
  8
0
100
AcDbLine
 62
7
  6
CONTINUOUS
 10
0.1340253179
 20
-8.3487413747
 11
0.2677472311
 21
-8.3478303568
  0
LINE
  5
310
100
AcDbEntity
  8
0
100
AcDbLine
 62
250
  6
CONTINUOUS
 10
-3.7052627366
 20
-8.4330334866
 11
-2.7795745778
 21
-8.4330334866
  0
LINE
  5
311
100
AcDbEntity
  8
0
100
AcDbLine
 62
250
  6
CONTINUOUS
 10
2.7795745778
 20
-8.4330334866
 11
3.681698399
 21
-8.4330334866
  0
LINE
  5
312
100
AcDbEntity
  8
0
100
AcDbLine
 62
7
  6
CONTINUOUS
 10
1.7361066896
 20
-8.1750010402
 11
-1.7354015425
 21
-8.1750010402
  0
LINE
  5
313
100
AcDbEntity
  8
0
100
AcDbLine
 62
7
  6
CONTINUOUS
 10
-1.0131016369
 20
-7.9798104872
 11
1.0130875769
 21
-7.9798105345
  0
LINE
  5
314
100
AcDbEntity
  8
0
100
AcDbLine
 62
7
  6
CONTINUOUS
 10
-0.0446890176
 20
-8.3489901791
 11
0.1340253179
 21
-8.3487413747
  0
LINE
  5
315
100
AcDbEntity
  8
0
100
AcDbLine
 62
7
  6
CONTINUOUS
 10
-0.178648009
 20
-8.3485093514
 11
-0.0446890176
 21
-8.3489901791
  0
LINE
  5
316
100
AcDbEntity
  8
0
100
AcDbLine
 62
7
  6
CONTINUOUS
 10
-0.3122033509
 20
-8.3473836184
 11
-0.178648009
 21
-8.3485093514
  0
LINE
  5
317
100
AcDbEntity
  8
0
100
AcDbLine
 62
7
  6
CONTINUOUS
 10
-0.45430835
 20
-8.3455288104
 11
-0.3122033509
 21
-8.3473836184
  0
LINE
  5
318
100
AcDbEntity
  8
0
100
AcDbLine
 62
7
  6
CONTINUOUS
 10
-0.5075573122
 20
-8.344517009
 11
-0.45430835
 21
-8.3455288104
  0
LINE
  5
319
100
AcDbEntity
  8
0
100
AcDbLine
 62
7
  6
CONTINUOUS
 10
-0.5605866226
 20
-8.3432402408
 11
-0.5075573122
 21
-8.344517009
  0
LINE
  5
31A
100
AcDbEntity
  8
0
100
AcDbLine
 62
250
  6
CONTINUOUS
 10
-3.8761750985
 20
-7.5259279089
 11
-3.800000476
 21
-7.5279732681
  0
LWPOLYLINE
  5
31B
100
AcDbEntity
  8
0
100
AcDbPolyline
 62
7
  6
CONTINUOUS
 90
9
 70
0
 10
2.7795745778
 20
-8.4330334866
 10
2.9264009061
 20
-8.437443479
 10
2.9882458882
 20
-8.439715737
 10
3.0424992597
 20
-8.4420389678
 10
3.0890405098
 20
-8.4444070397
 10
3.1275081056
 20
-8.4468015576
 10
3.1577815362
 20
-8.4492163897
 10
3.1799813126
 20
-8.4516576677
 10
3.1941074346
 20
-8.4541253917
  0
LWPOLYLINE
  5
31C
100
AcDbEntity
  8
0
100
AcDbPolyline
 62
7
  6
CONTINUOUS
 90
3
 70
0
 10
-0.6396614426
 20
-8.3408290767
 10
-0.6133705932
 20
-8.3416989477
 10
-0.5605866226
 20
-8.3432402408
  0
LINE
  5
31D
100
AcDbEntity
  8
0
100
AcDbLine
 62
7
  6
CONTINUOUS
 10
-3.8761750985
 20
-8.1728160412
 11
-3.800000476
 21
-8.1754761177
  0
LINE
  5
31E
100
AcDbEntity
  8
0
100
AcDbLine
 62
7
  6
CONTINUOUS
 10
-0.7128011573
 20
-8.3376836924
 11
-0.6396614426
 21
-8.3408290767
  0
LINE
  5
31F
100
AcDbEntity
  8
0
100
AcDbLine
 62
7
  6
CONTINUOUS
 10
-0.0
 20
-8.3750010153
 11
-0.4971366085
 21
-8.3489471987
  0
LINE
  5
320
100
AcDbEntity
  8
0
100
AcDbLine
 62
7
  6
CONTINUOUS
 10
-2.0399742517
 20
-8.2680905054
 11
-0.5928341955
 21
-8.3439319007
  0
LINE
  5
321
100
AcDbEntity
  8
0
100
AcDbLine
 62
7
  6
CONTINUOUS
 10
-3.800000475
 20
-8.1758515058
 11
-3.725563011
 21
-8.1797525955
  0
LINE
  5
322
100
AcDbEntity
  8
0
100
AcDbLine
 62
7
  6
CONTINUOUS
 10
-0.5827425571
 20
-8.3444607811
 11
-0.6396650712
 21
-8.3408290881
  0
LWPOLYLINE
  5
323
100
AcDbEntity
  8
0
100
AcDbPolyline
 62
7
  6
CONTINUOUS
 90
9
 70
0
 10
2.7795745778
 20
-8.4330334866
 10
2.6962847581
 20
-8.4270508263
 10
2.6038426685
 20
-8.4139438268
 10
2.502248309
 20
-8.3941263117
 10
2.3913505625
 20
-8.3678775844
 10
2.2713005461
 20
-8.3356988553
 10
2.1425516115
 20
-8.2986152123
 10
2.0049944481
 20
-8.2572481162
 10
1.70456465
 20
-8.1654095949
  0
LWPOLYLINE
  5
324
100
AcDbEntity
  8
0
100
AcDbPolyline
 62
7
  6
CONTINUOUS
 90
19
 70
0
 10
-3.8000004755
 20
-6.4378734758
 10
-3.938971385
 20
-6.4255514554
 10
-4.0007855827
 20
-6.419701685
 10
-4.061073496
 20
-6.4137073594
 10
-4.1201616126
 20
-6.407534021
 10
-4.177723445
 20
-6.4012161276
 10
-4.2327795299
 20
-6.3948570521
 10
-4.2853736349
 20
-6.3884494115
 10
-4.3354619926
 20
-6.3820005889
 10
-4.3819338375
 20
-6.3756361071
 10
-4.4247539909
 20
-6.3693533784
 10
-4.4639576316
 20
-6.3631549904
 10
-4.4985395304
 20
-6.3571742281
 10
-4.5284225148
 20
-6.3514178335
 10
-4.5536837573
 20
-6.3458790647
 10
-4.5735495459
 20
-6.34067098
 10
-4.5877619766
 20
-6.3358312657
 10
-4.5965789532
 20
-6.3313222357
 10
-4.600000476
 20
-6.3271438899
  0
LINE
  5
325
100
AcDbEntity
  8
0
100
AcDbLine
 62
7
  6
CONTINUOUS
 10
-0.2428013413
 20
-8.3622749483
 11
-0.4008678189
 21
-8.3462755603
  0
LWPOLYLINE
  5
326
100
AcDbEntity
  8
0
100
AcDbPolyline
 62
7
  6
CONTINUOUS
 90
20
 70
0
 10
1.70456465
 20
-8.1654095949
 10
1.5428183841
 20
-8.117397852
 10
1.3731544832
 20
-8.0690933507
 10
1.1953189742
 20
-8.0226872898
 10
1.0079939992
 20
-7.9786120797
 10
0.812497416
 20
-7.9380363093
 10
0.6125288244
 20
-7.9046943476
 10
0.4077346369
 20
-7.8798301071
 10
0.1984684409
 20
-7.8635593622
 10
-0.0105094012
 20
-7.858008535
 10
-0.2191284104
 20
-7.8645658366
 10
-0.4274590657
 20
-7.8818162613
 10
-0.6309524425
 20
-7.9074063809
 10
-0.8291231236
 20
-7.9410988799
 10
-1.0224565262
 20
-7.9817788845
 10
-1.2078599765
 20
-8.0258725719
 10
-1.3842507551
 20
-8.0722486345
 10
-1.5527115814
 20
-8.1204407564
 10
-1.7133979397
 20
-8.1682948608
 10
-2.0122503687
 20
-8.2597708713
  0
LINE
  5
327
100
AcDbEntity
  8
DRAFT
100
AcDbLine
 62
7
  6
CONTINUOUS
 10
9.65
 20
-20.9
 11
9.5103594806
 21
-20.7603594806
  0
LINE
  5
328
100
AcDbEntity
  8
ASSI
100
AcDbLine
 62
7
  6
CONTINUOUS
 10
9.5103594806
 20
-20.7603594806
 11
9.65
 21
-20.9
  0
LINE
  5
329
100
AcDbEntity
  8
ASSI
100
AcDbLine
 62
7
  6
CONTINUOUS
 10
-9.5103594806
 20
-0.5
 11
-9.6761825974
 21
-0.3341768832
  0
LINE
  5
32A
100
AcDbEntity
  8
DRAFT
100
AcDbLine
 62
7
  6
CONTINUOUS
 10
-9.5103594806
 20
-0.5
 11
-9.6761825974
 21
-0.3341768832
  0
LINE
  5
32B
100
AcDbEntity
  8
0
100
AcDbLine
 62
7
  6
CONTINUOUS
 10
-6.3930656429
 20
-3.497306508
 11
-6.9488767304
 21
-2.921982284
  0
LINE
  5
32C
100
AcDbEntity
  8
0
100
AcDbLine
 62
7
  6
CONTINUOUS
 10
-6.3887502064
 20
-3.2631668037
 11
-6.6995500666
 21
-2.9414555381
  0
LINE
  5
32D
100
AcDbEntity
  8
ASSI
100
AcDbLine
 62
7
  6
CONTINUOUS
 10
-7.2322076372
 20
20.9330083283
 11
-7.2084845302
 21
20.1483339502
  0
LINE
  5
32E
100
AcDbEntity
  8
DRAFT
100
AcDbLine
 62
7
  6
CONTINUOUS
 10
-7.2322076372
 20
20.9330083283
 11
-7.2084845302
 21
20.1483339502
  0
LINE
  5
32F
100
AcDbEntity
  8
DRAFT
100
AcDbLine
 62
7
  6
CONTINUOUS
 10
-6.0830351795
 20
-19.1
 11
-6.0856534392
 21
-18.95
  0
LINE
  5
330
100
AcDbEntity
  8
0
100
AcDbLine
 62
250
  6
CONTINUOUS
 10
-6.5871557427
 20
-17.8325
 11
-6.5871557427
 21
-5.6711651406
  0
LINE
  5
331
100
AcDbEntity
  8
0
100
AcDbLine
 62
250
  6
CONTINUOUS
 10
-6.5871557427
 20
1.1107488549
 11
-6.5871557427
 21
17.8325
  0
LINE
  5
332
100
AcDbEntity
  8
0
100
AcDbLine
 62
250
  6
CONTINUOUS
 10
-5.7
 20
-5.7872348724
 11
-5.7
 21
-5.368647671
  0
LINE
  5
333
100
AcDbEntity
  8
0
100
AcDbLine
 62
250
  6
CONTINUOUS
 10
-5.7
 20
0.7264813971
 11
-5.7
 21
1.2087682175
  0
LINE
  5
334
100
AcDbEntity
  8
0
100
AcDbLine
 62
7
  6
CONTINUOUS
 10
-6.3536883928
 20
-1.2346527712
 11
-6.3600256663
 21
-1.6071722516
  0
LINE
  5
335
100
AcDbEntity
  8
0
100
AcDbLine
 62
7
  6
CONTINUOUS
 10
-5.0069343571
 20
-1.046335389
 11
-5.0167239798
 21
-1.6304199342
  0
LINE
  5
336
100
AcDbEntity
  8
ASSI
100
AcDbLine
 62
7
  6
CONTINUOUS
 10
-6.0830351795
 20
19.1
 11
-6.0856534392
 21
18.95
  0
LINE
  5
337
100
AcDbEntity
  8
0
100
AcDbLine
 62
7
  6
CONTINUOUS
 10
-6.3930656429
 20
-3.497306508
 11
-6.3832760202
 21
-2.950319601
  0
LINE
  5
338
100
AcDbEntity
  8
0
100
AcDbLine
 62
7
  6
CONTINUOUS
 10
-5.7063372735
 20
-2.6500449112
 11
-5.6936627265
 21
-1.9178502873
  0
LINE
  5
339
100
AcDbEntity
  8
0
100
AcDbLine
 62
7
  6
CONTINUOUS
 10
-5.0463116072
 20
-3.3332424272
 11
-5.0399743337
 21
-2.9735672837
  0
LINE
  5
33A
100
AcDbEntity
  8
ASSI
100
AcDbLine
 62
7
  6
CONTINUOUS
 10
-7.2322076372
 20
-20.9330083283
 11
-7.2084845302
 21
-20.1483339502
  0
LINE
  5
33B
100
AcDbEntity
  8
DRAFT
100
AcDbLine
 62
7
  6
CONTINUOUS
 10
-7.2322076372
 20
-20.9330083283
 11
-7.2084845302
 21
-20.1483339502
  0
LWPOLYLINE
  5
33C
100
AcDbEntity
  8
0
100
AcDbPolyline
 62
250
  6
CONTINUOUS
 90
19
 70
0
 10
-4.6000004736
 20
16.0129554133
 10
-4.5973334799
 20
16.0760616368
 10
-4.5893514653
 20
16.1387190597
 10
-4.5761111967
 20
16.2004820608
 10
-4.5577068339
 20
16.2609113869
 10
-4.5342692692
 20
16.3195772551
 10
-4.5059652036
 20
16.3760624122
 10
-4.4729959531
 20
16.4299651191
 10
-4.4355959905
 20
16.4809020422
 10
-4.3940312827
 20
16.5285109541
 10
-4.3485974207
 20
16.5724532704
 10
-4.2996175386
 20
16.6124164556
 10
-4.2474399942
 20
16.6481162833
 10
-4.1924358912
 20
16.6792988487
 10
-4.1349964026
 20
16.7057423934
 10
-4.0755300007
 20
16.7272588669
 10
-4.0144595939
 20
16.7436952398
 10
-3.952219524
 20
16.7549346025
 10
-3.8892524408
 20
16.7608970125
  0
LWPOLYLINE
  5
33D
100
AcDbEntity
  8
0
100
AcDbPolyline
 62
7
  6
CONTINUOUS
 90
16
 70
0
 10
-4.6000004735
 20
10.5046326635
 10
-4.5985441363
 20
10.520425036
 10
-4.5954849161
 20
10.5397263037
 10
-4.5908228129
 20
10.5625564515
 10
-4.5841903376
 20
10.5889826105
 10
-4.5759549793
 20
10.6188967265
 10
-4.5672192053
 20
10.6519292725
 10
-4.5579040978
 20
10.6878771361
 10
-4.5480885747
 20
10.7265356542
 10
-4.5391118563
 20
10.7673655066
 10
-4.5311091219
 20
10.810155395
 10
-4.5239451924
 20
10.8544926332
 10
-4.5185537508
 20
10.8994091862
 10
-4.5152460248
 20
10.9443188237
 10
-4.5137107867
 20
10.989084861
 10
-4.5139480366
 20
11.0333889517
  0
LWPOLYLINE
  5
33E
100
AcDbEntity
  8
0
100
AcDbPolyline
 62
7
  6
CONTINUOUS
 90
7
 70
0
 10
-3.7994810222
 20
12.1193503852
 10
-3.8013350611
 20
12.1060034318
 10
-3.8025919283
 20
12.0918916884
 10
-3.8032824564
 20
12.077002474
 10
-3.8034483917
 20
12.061316442
 10
-3.8031419449
 20
12.0448067547
 10
-3.8024246815
 20
12.0274380284
  0
LWPOLYLINE
  5
33F
100
AcDbEntity
  8
0
100
AcDbPolyline
 62
250
  6
CONTINUOUS
 90
37
 70
0
 10
-7.2838623847
 20
-1.3159601009
 10
-7.3498403995
 20
-1.4352869618
 10
-7.4064893354
 20
-1.5576728022
 10
-7.4538091924
 20
-1.6831176222
 10
-7.4919375613
 20
-1.8123171218
 10
-7.5207368513
 20
-1.9445756009
 10
-7.5397942903
 20
-2.0778059593
 10
-7.5489587056
 20
-2.2120187771
 10
-7.5483812699
 20
-2.3472034742
 10
-7.5381027286
 20
-2.4812412095
 10
-7.5179734011
 20
-2.6141115128
 10
-7.4881429681
 20
-2.7458348544
 10
-7.4491012169
 20
-2.8743538049
 10
-7.4007074137
 20
-2.9996156026
 10
-7.3431022924
 20
-3.1216730092
 10
-7.2771978425
 20
-3.2386268803
 10
-7.2028668492
 20
-3.3503983923
 10
-7.1202365273
 20
-3.4570663688
 10
-7.0306005112
 20
-3.5569681365
 10
-6.9338510184
 20
-3.6499996112
 10
-6.8300958314
 20
-3.736264877
 10
-6.7209519315
 20
-3.8144135132
 10
-6.6063361066
 20
-3.8843211352
 10
-6.4863315689
 20
-3.9461121276
 10
-6.3628049363
 20
-3.9988092226
 10
-6.2356985755
 20
-4.0422736157
 10
-6.1050701199
 20
-4.0766441114
 10
-5.9729590881
 20
-4.1013598557
 10
-5.839339812
 20
-4.1162719768
 10
-5.7042379596
 20
-4.1215293466
 10
-5.5697700539
 20
-4.117017726
 10
-5.4359414137
 20
-4.1025856686
 10
-5.30274672
 20
-4.0783846208
 10
-5.1722865388
 20
-4.044754683
 10
-5.0452610586
 20
-4.0018092219
 10
-4.9209700908
 20
-3.9494348707
 10
-4.7994136355
 20
-3.8876316295
  0
LWPOLYLINE
  5
340
100
AcDbEntity
  8
0
100
AcDbPolyline
 62
7
  6
CONTINUOUS
 90
10
 70
0
 10
-7.8529220857
 20
-0.7389416034
 10
-7.954558399
 20
-0.8914120281
 10
-8.0454161839
 20
-1.0505462624
 10
-8.1250576519
 20
-1.2155786261
 10
-8.193101947
 20
-1.3857197657
 10
-8.2492237609
 20
-1.560156076
 10
-8.2931548223
 20
-1.7380536004
 10
-8.3246850646
 20
-1.9185616488
 10
-8.3436636985
 20
-2.1008168576
 10
-8.35
 20
-2.2839475992
  0
LINE
  5
341
100
AcDbEntity
  8
0
100
AcDbLine
 62
7
  6
CONTINUOUS
 10
-7.1696681345
 20
-0.0790761112
 11
-7.169597439
 21
-0.0789963313
  0
LWPOLYLINE
  5
342
100
AcDbEntity
  8
0
100
AcDbPolyline
 62
7
  6
CONTINUOUS
 90
7
 70
0
 10
-7.5411147676
 20
-0.3781958987
 10
-7.597543316
 20
-0.4343548839
 10
-7.6521890708
 20
-0.4921056114
 10
-7.7050520321
 20
-0.5514480812
 10
-7.7561321998
 20
-0.6123822934
 10
-7.805429574
 20
-0.6749082478
 10
-7.8529441547
 20
-0.7390259446
  0
LWPOLYLINE
  5
343
100
AcDbEntity
  8
0
100
AcDbPolyline
 62
7
  6
CONTINUOUS
 90
22
 70
0
 10
-0.0
 20
-5.442933821
 10
0.1496382187
 20
-5.4374051755
 10
0.2982107764
 20
-5.4208781049
 10
0.4448931101
 20
-5.3934952096
 10
0.5887283783
 20
-5.3555058058
 10
0.7290868592
 20
-5.3071441288
 10
0.8656318502
 20
-5.2485192449
 10
0.9978968
 20
-5.1797313266
 10
1.1247828573
 20
-5.1012464881
 10
1.2450725439
 20
-5.0138271461
 10
1.3577849062
 20
-4.9183543496
 10
1.4627568537
 20
-4.8151438441
 10
1.5600073761
 20
-4.7041508594
 10
1.6491816039
 20
-4.5855370782
 10
1.7293752477
 20
-4.4602384575
 10
1.7998083276
 20
-4.329377846
 10
1.8600111938
 20
-4.1939053958
 10
1.9097735818
 20
-4.0543885408
 10
1.9488620664
 20
-3.9114672941
 10
1.9770562063
 20
-3.7658125334
 10
1.9941403873
 20
-3.6183557802
 10
2.0
 20
-3.467014648
  0
LWPOLYLINE
  5
344
100
AcDbEntity
  8
0
100
AcDbPolyline
 62
7
  6
CONTINUOUS
 90
46
 70
0
 10
-5.7
 20
-5.233165219
 10
-5.4939924434
 20
-5.2257767665
 10
-5.2908502051
 20
-5.204415768
 10
-5.0905732849
 20
-5.1690822233
 10
-4.8921460237
 20
-5.1194447315
 10
-4.6965840808
 20
-5.0558346935
 10
-4.5069344336
 20
-4.9792463128
 10
-4.3233048795
 20
-4.889426254
 10
-4.1455876211
 20
-4.7866278525
 10
-3.9765062445
 20
-4.6726053177
 10
-3.8164382926
 20
-4.5474759631
 10
-3.6650062225
 20
-4.4111224753
 10
-3.5238009912
 20
-4.2649471234
 10
-3.3926388901
 20
-4.1085085391
 10
-3.2717036278
 20
-3.9422480908
 10
-3.1631372875
 20
-3.7688921533
 10
-3.0672524774
 20
-3.5883911276
 10
-2.9837365894
 20
-3.4007946126
 10
-2.9137938822
 20
-3.2089777804
 10
-2.8576564316
 20
-3.0129372464
 10
-2.815092162
 20
-2.8126763952
 10
-2.7866091048
 20
-2.6110805524
 10
-2.7723934491
 20
-2.4081742839
 10
-2.7722590058
 20
-2.2039330238
 10
-2.7861552396
 20
-2.0011683994
 10
-2.8142526139
 20
-1.7998930668
 10
-2.8563806652
 20
-1.6000943699
 10
-2.9119774676
 20
-1.4045459678
 10
-2.9812225064
 20
-1.2132812518
 10
-3.0639362963
 20
-1.0262668305
 10
-3.1590184558
 20
-0.8461761884
 10
-3.2667554567
 20
-0.6730075321
 10
-3.3868608271
 20
-0.5067626551
 10
-3.5173747698
 20
-0.3501204228
 10
-3.6581610277
 20
-0.2034564116
 10
-3.8093558578
 20
-0.066395045
 10
-3.969408234
 20
0.0595115405
 10
-4.1387282286
 20
0.1743778859
 10
-4.3169057693
 20
0.2780894502
 10
-4.5011596122
 20
0.3687504744
 10
-4.6916264734
 20
0.4460850274
 10
-4.8881696368
 20
0.5103690403
 10
-5.0875977104
 20
0.5605345479
 10
-5.2888468968
 20
0.5962255617
 10
-5.4929809933
 20
0.6177980701
 10
-5.7
 20
0.6252520732
  0
LWPOLYLINE
  5
345
100
AcDbEntity
  8
0
100
AcDbPolyline
 62
7
  6
CONTINUOUS
 90
43
 70
0
 10
-5.7000000003
 20
-5.2550900312
 10
-5.4929627633
 20
-5.2477785569
 10
-5.2886361758
 20
-5.2265267108
 10
-5.0870202379
 20
-5.191333264
 10
-4.8871046301
 20
-5.1418888554
 10
-4.6898996719
 20
-5.0784979387
 10
-4.4984363213
 20
-5.0020790602
 10
-4.3127873007
 20
-4.9123430604
 10
-4.1328798877
 20
-4.8095702545
 10
-3.9615268737
 20
-4.6955333994
 10
-3.7992197528
 20
-4.5704812617
 10
-3.6454670309
 20
-4.4341545681
 10
-3.5016070173
 20
-4.2875646481
 10
-3.3672648563
 20
-4.1301015739
 10
-3.2428154035
 20
-3.9623632798
 10
-3.1307215355
 20
-3.7871748114
 10
-3.0313622563
 20
-3.604551831
 10
-2.9443585619
 20
-3.4144693525
 10
-2.8710363165
 20
-3.2196951026
 10
-2.8115953767
 20
-3.0202387311
 10
-2.765835886
 20
-2.816084904
 10
-2.734484138
 20
-2.6099678713
 10
-2.7177661283
 20
-2.4016021413
 10
-2.7154558613
 20
-2.1912714995
 10
-2.7276016442
 20
-1.9825688041
 10
-2.754392929
 20
-1.7758574389
 10
-2.7956402635
 20
-1.5707778502
 10
-2.8508235989
 20
-1.3698427902
 10
-2.9202857693
 20
-1.1727675712
 10
-3.0036839405
 20
-0.979843363
 10
-3.0994695601
 20
-0.7944503345
 10
-3.2076215351
 20
-0.6170880701
 10
-3.3281609585
 20
-0.4472667202
 10
-3.4596025576
 20
-0.2868849674
 10
-3.602177908
 20
-0.1358797838
 10
-3.7556554341
 20
0.0056762731
 10
-3.9178551365
 20
0.1356798085
 10
-4.0892130488
 20
0.2540271399
 10
-4.2692931372
 20
0.3608131271
 10
-4.4546073014
 20
0.4542314457
 10
-4.643992841
 20
0.5336774866
 10
-4.8386124563
 20
0.5997489632
 10
-5.0384661473
 20
0.6524433158
  0
LWPOLYLINE
  5
346
100
AcDbEntity
  8
0
100
AcDbPolyline
 62
7
  6
CONTINUOUS
 90
19
 70
0
 10
3.8892524418
 20
-5.7738615431
 10
3.9523066798
 20
-5.7726122652
 10
4.0146046626
 20
-5.7702690534
 10
4.075703705
 20
-5.7668477301
 10
4.135165932
 20
-5.7623662102
 10
4.1925757138
 20
-5.7568582656
 10
4.2475408336
 20
-5.7503725959
 10
4.299672949
 20
-5.7429474502
 10
4.3486029589
 20
-5.7346318386
 10
4.3939944183
 20
-5.7254981342
 10
4.4355248524
 20
-5.7156010683
 10
4.472899451
 20
-5.7050039135
 10
4.5058593208
 20
-5.693798087
 10
4.5341667232
 20
-5.6820516604
 10
4.5576180489
 20
-5.6698384213
 10
4.5760476582
 20
-5.657262814
 10
4.5893176605
 20
-5.6444122185
 10
4.5973236447
 20
-5.6313567386
 10
4.6000004746
 20
-5.6181775439
  0
LWPOLYLINE
  5
347
100
AcDbEntity
  8
0
100
AcDbPolyline
 62
250
  6
CONTINUOUS
 90
19
 70
0
 10
3.8892524418
 20
-5.8840497581
 10
3.9522194271
 20
-5.88296284
 10
4.0144594337
 20
-5.8809141303
 10
4.0755298119
 20
-5.8779181645
 10
4.1349962301
 20
-5.8739961173
 10
4.1924357643
 20
-5.8691758971
 10
4.2474399057
 20
-5.8634919474
 10
4.2996174663
 20
-5.8569845535
 10
4.3485973594
 20
-5.8496999268
 10
4.3940312401
 20
-5.8416901214
 10
4.4355959831
 20
-5.8330119327
 10
4.4729959812
 20
-5.8237269656
 10
4.5059652465
 20
-5.8139015684
 10
4.5342693023
 20
-5.8036054275
 10
4.5577068502
 20
-5.7929116175
 10
4.5761112024
 20
-5.7818965538
 10
4.5893514675
 20
-5.7706385696
 10
4.5973334809
 20
-5.7592173591
 10
4.6000004746
 20
-5.7477139551
  0
LINE
  5
348
100
AcDbEntity
  8
0
100
AcDbLine
 62
7
  6
CONTINUOUS
 10
3.8892524418
 20
-5.7738609602
 11
3.8000004752
 21
-5.7748332377
  0
LINE
  5
349
100
AcDbEntity
  8
0
100
AcDbLine
 62
250
  6
CONTINUOUS
 10
3.8892524418
 20
-5.8840497581
 11
3.8000004752
 21
-5.8848991599
  0
LINE
  5
34A
100
AcDbEntity
  8
0
100
AcDbLine
 62
250
  6
CONTINUOUS
 10
3.7331843727
 20
-5.9360397609
 11
-3.7432512897
 21
-5.9360397609
  0
LINE
  5
34B
100
AcDbEntity
  8
0
100
AcDbLine
 62
7
  6
CONTINUOUS
 10
-5.7
 20
-5.7872348726
 11
-3.7498419926
 21
-5.7872348726
  0
LINE
  5
34C
100
AcDbEntity
  8
0
100
AcDbLine
 62
250
  6
CONTINUOUS
 10
-3.7414425436
 20
-5.368647671
 11
-5.7
 21
-5.368647671
  0
LWPOLYLINE
  5
34D
100
AcDbEntity
  8
0
100
AcDbPolyline
 62
7
  6
CONTINUOUS
 90
21
 70
0
 10
-0.0
 20
-5.4094227569
 10
-0.149638246
 20
-5.4038941058
 10
-0.2982108267
 20
-5.3873670092
 10
-0.4448931787
 20
-5.3599840686
 10
-0.5887284606
 20
-5.3219946042
 10
-0.7290869505
 20
-5.2736328489
 10
-0.8656319454
 20
-5.2150078607
 10
-0.9978968934
 20
-5.1462198141
 10
-1.1247829447
 20
-5.0677348232
 10
-1.2450726235
 20
-4.9803152922
 10
-1.3577849767
 20
-4.8848422709
 10
-1.462756914
 20
-4.7816315046
 10
-1.5600074267
 20
-4.6706382076
 10
-1.6491816456
 20
-4.5520240597
 10
-1.7293752811
 20
-4.4267250206
 10
-1.7998083537
 20
-4.295863931
 10
-1.8600112127
 20
-4.1603909429
 10
-1.9097735948
 20
-4.02087349
 10
-1.9488620762
 20
-3.8779515769
 10
-1.9770562144
 20
-3.7322960747
 10
-1.9941403929
 20
-3.5848385107
  0
LINE
  5
34E
100
AcDbEntity
  8
0
100
AcDbLine
 62
7
  6
CONTINUOUS
 10
-4.600000476
 20
-6.2285827582
 11
-3.8000004766
 21
-6.297109593
  0
LINE
  5
34F
100
AcDbEntity
  8
0
100
AcDbLine
 62
7
  6
CONTINUOUS
 10
-5.8617369573
 20
-2.8001394446
 11
-5.7637324664
 21
-2.8894579772
  0
LINE
  5
350
100
AcDbEntity
  8
0
100
AcDbLine
 62
7
  6
CONTINUOUS
 10
-5.0804564462
 20
-2.2295081438
 11
-5.1784609371
 21
-2.1401896112
  0
LWPOLYLINE
  5
351
100
AcDbEntity
  8
0
100
AcDbPolyline
 62
7
  6
CONTINUOUS
 90
6
 70
0
 10
-7.8010511833
 20
-0.7876661765
 10
-7.8196213697
 20
-0.769418424
 10
-7.8341267317
 20
-0.7554005046
 10
-7.8444640305
 20
-0.7457124848
 10
-7.8507365048
 20
-0.7402542981
 10
-7.8529060351
 20
-0.7389582217
  0
LINE
  5
352
100
AcDbEntity
  8
0
100
AcDbLine
 62
7
  6
CONTINUOUS
 10
-7.7525415778
 20
-0.8360579709
 11
-7.8010511833
 21
-0.7876661765
  0
LINE
  5
353
100
AcDbEntity
  8
0
100
AcDbLine
 62
7
  6
CONTINUOUS
 10
-7.1174305003
 20
-0.1280581573
 11
-7.0687919664
 21
-0.1765835633
  0
LINE
  5
354
100
AcDbEntity
  8
0
100
AcDbLine
 62
7
  6
CONTINUOUS
 10
-7.6532420094
 20
-0.9364967111
 11
-7.7525415778
 21
-0.8360579709
  0
LINE
  5
355
100
AcDbEntity
  8
0
100
AcDbLine
 62
7
  6
CONTINUOUS
 10
-7.0687919664
 20
-0.1765835633
 11
-6.9693895585
 21
-0.2771332544
  0
LINE
  5
356
100
AcDbEntity
  8
0
100
AcDbLine
 62
7
  6
CONTINUOUS
 10
-7.4819244262
 20
-1.1116938611
 11
-7.6532420094
 21
-0.9364967111
  0
LINE
  5
357
100
AcDbEntity
  8
0
100
AcDbLine
 62
7
  6
CONTINUOUS
 10
-6.9693895585
 20
-0.2771332544
 11
-6.7980363188
 21
-0.4523729232
  0
LINE
  5
358
100
AcDbEntity
  8
0
100
AcDbLine
 62
7
  6
CONTINUOUS
 10
-6.3195435538
 20
-2.3141337532
 11
-7.4819244262
 21
-1.1116938611
  0
LINE
  5
359
100
AcDbEntity
  8
0
100
AcDbLine
 62
7
  6
CONTINUOUS
 10
-6.7261650454
 20
-1.5944135378
 11
-6.0661393791
 21
-2.2776110539
  0
LINE
  5
35A
100
AcDbEntity
  8
0
100
AcDbLine
 62
7
  6
CONTINUOUS
 10
-5.7063372735
 20
-2.6500449112
 11
-5.0463116072
 21
-3.3332424272
  0
LINE
  5
35B
100
AcDbEntity
  8
0
100
AcDbLine
 62
7
  6
CONTINUOUS
 10
-5.0454485199
 20
-3.2864144864
 11
-5.7054741862
 21
-2.6032169703
  0
LINE
  5
35C
100
AcDbEntity
  8
0
100
AcDbLine
 62
7
  6
CONTINUOUS
 10
-6.0162740464
 20
-2.2815057047
 11
-6.6762997127
 21
-1.5983081886
  0
LINE
  5
35D
100
AcDbEntity
  8
0
100
AcDbLine
 62
7
  6
CONTINUOUS
 10
-6.3600256663
 20
-1.6071722516
 11
-5.0399743337
 21
-2.9735672837
  0
LINE
  5
35E
100
AcDbEntity
  8
0
100
AcDbLine
 62
7
  6
CONTINUOUS
 10
-6.3545514801
 20
-1.2875440374
 11
-5.6945258138
 21
-1.9707415535
  0
LINE
  5
35F
100
AcDbEntity
  8
0
100
AcDbLine
 62
7
  6
CONTINUOUS
 10
-5.3837259536
 20
-2.2924528191
 11
-4.7237002873
 21
-2.9756503352
  0
LINE
  5
360
100
AcDbEntity
  8
0
100
AcDbLine
 62
7
  6
CONTINUOUS
 10
-4.6738349546
 20
-2.9734816606
 11
-5.3338606209
 21
-2.2902841446
  0
LINE
  5
361
100
AcDbEntity
  8
0
100
AcDbLine
 62
7
  6
CONTINUOUS
 10
-5.6936627265
 20
-1.9178502873
 11
-6.3536883928
 21
-1.2346527712
  0
LINE
  5
362
100
AcDbEntity
  8
0
100
AcDbLine
 62
7
  6
CONTINUOUS
 10
-7.1696681345
 20
-0.0790761112
 11
-5.5382630427
 21
-1.7677557538
  0
LINE
  5
363
100
AcDbEntity
  8
0
100
AcDbLine
 62
7
  6
CONTINUOUS
 10
-5.1784609371
 20
-2.1401896112
 11
-3.5470558453
 21
-3.8288692539
  0
LINE
  5
364
100
AcDbEntity
  8
0
100
AcDbLine
 62
7
  6
CONTINUOUS
 10
-6.7980363188
 20
-0.4523729232
 11
-5.6362675336
 21
-1.6541839198
  0
LINE
  5
365
100
AcDbEntity
  8
0
100
AcDbLine
 62
7
  6
CONTINUOUS
 10
-4.555761744
 20
-4.1409937148
 11
-5.7637324664
 21
-2.8894579772
  0
LINE
  5
366
100
AcDbEntity
  8
0
100
AcDbLine
 62
7
  6
CONTINUOUS
 10
-5.0804564462
 20
-2.2295081438
 11
-3.8718375122
 21
-3.4817213749
  0
LINE
  5
367
100
AcDbEntity
  8
ASSI
100
AcDbLine
 62
7
  6
CONTINUOUS
 10
-8.422427703
 20
0.4335805196
 11
-8.3439341466
 21
0.3513273152
  0
LINE
  5
368
100
AcDbEntity
  8
RACCORDO
100
AcDbLine
 62
7
  6
CONTINUOUS
 10
-8.4852813742
 20
0.5
 11
-8.3439341466
 21
0.3513273152
  0
LINE
  5
369
100
AcDbEntity
  8
0
100
AcDbLine
 62
7
  6
CONTINUOUS
 10
-4.3942730592
 20
-4.3105861734
 11
-4.555761744
 21
-4.1409937148
  0
LINE
  5
36A
100
AcDbEntity
  8
0
100
AcDbLine
 62
7
  6
CONTINUOUS
 10
-3.8718375122
 20
-3.4817213749
 11
-3.7104709249
 21
-3.6511922894
  0
LINE
  5
36B
100
AcDbEntity
  8
ASSI
100
AcDbLine
 62
7
  6
CONTINUOUS
 10
-8.4852813742
 20
0.5
 11
-8.422427703
 21
0.4335805196
  0
LINE
  5
36C
100
AcDbEntity
  8
0
100
AcDbLine
 62
7
  6
CONTINUOUS
 10
-4.3312080336
 20
-4.3774911835
 11
-4.3942730592
 21
-4.3105861734
  0
LINE
  5
36D
100
AcDbEntity
  8
0
100
AcDbLine
 62
7
  6
CONTINUOUS
 10
-3.7104709249
 20
-3.6511922894
 11
-3.6474584222
 21
-3.7180463598
  0
LWPOLYLINE
  5
36E
100
AcDbEntity
  8
0
100
AcDbPolyline
 62
7
  6
CONTINUOUS
 90
7
 70
0
 10
-3.6474584222
 20
-3.7180463598
 10
-3.5989488167
 20
-3.7700798783
 10
-3.5803786303
 20
-3.7902764041
 10
-3.5658732683
 20
-3.8062877027
 10
-3.5555359695
 20
-3.8180001137
 10
-3.5492634952
 20
-3.8255272974
 10
-3.5470558453
 20
-3.8288692539
  0
LINE
  5
36F
100
AcDbEntity
  8
0
100
AcDbLine
 62
7
  6
CONTINUOUS
 10
-6.3195435538
 20
-2.3141337532
 11
-6.2215390629
 21
-2.4277055873
  0
LINE
  5
370
100
AcDbEntity
  8
0
100
AcDbLine
 62
7
  6
CONTINUOUS
 10
-5.5382630427
 20
-1.7677557538
 11
-5.6362675336
 21
-1.6541839198
  0
LWPOLYLINE
  5
371
100
AcDbEntity
  8
0
100
AcDbPolyline
 62
7
  6
CONTINUOUS
 90
7
 70
0
 10
-4.2303318655
 20
-4.4888190873
 10
-4.2325751971
 20
-4.4854358124
 10
-4.2388976771
 20
-4.477853198
 10
-4.2492993056
 20
-4.466071244
 10
-4.2638948284
 20
-4.4499642917
 10
-4.2825694997
 20
-4.4296579998
 10
-4.3312080336
 20
-4.3774911835
  0
LWPOLYLINE
  5
372
100
AcDbEntity
  8
0
100
AcDbPolyline
 62
7
  6
CONTINUOUS
 90
13
 70
0
 10
-4.5139480366
 20
11.0333889517
 10
-4.5172874468
 20
11.0845668648
 10
-4.5223277659
 20
11.1358905266
 10
-4.529068994
 20
11.1868722484
 10
-4.5381313118
 20
11.2372523867
 10
-4.5488945385
 20
11.2862145076
 10
-4.5594981318
 20
11.3325080008
 10
-4.5699162006
 20
11.3757425137
 10
-4.580174636
 20
11.4154891816
 10
-4.5884905679
 20
11.4507879624
 10
-4.5942697065
 20
11.4813728981
 10
-4.5981063416
 20
11.5074541158
 10
-4.6000004734
 20
11.5290748273
  0
LINE
  5
373
100
AcDbEntity
  8
ASSI
100
AcDbLine
 62
7
  6
CONTINUOUS
 10
-3.4452396157
 20
-21.2139629885
 11
-3.3821231691
 21
-22.4
  0
LINE
  5
374
100
AcDbEntity
  8
DRAFT
100
AcDbLine
 62
7
  6
CONTINUOUS
 10
-3.4452396157
 20
-21.2139629885
 11
-3.3821231691
 21
-22.4
  0
LWPOLYLINE
  5
375
100
AcDbEntity
  8
0
100
AcDbPolyline
 62
7
  6
CONTINUOUS
 90
8
 70
0
 10
-3.7402917876
 20
11.801654027
 10
-3.7415259989
 20
11.8472107038
 10
-3.7428293673
 20
11.8860508662
 10
-3.7442002668
 20
11.9183336599
 10
-3.7456060451
 20
11.943295149
 10
-3.747035818
 20
11.9606806883
 10
-3.7485004696
 20
11.9707449231
 10
-3.7497436647
 20
11.9735382976
  0
LINE
  5
376
100
AcDbEntity
  8
0
100
AcDbLine
 62
7
  6
CONTINUOUS
 10
-3.7380537333
 20
11.6921099414
 11
-3.7402917876
 21
11.801654027
  0
LINE
  5
377
100
AcDbEntity
  8
0
100
AcDbLine
 62
7
  6
CONTINUOUS
 10
-3.7354392227
 20
11.4891652275
 11
-3.7380537333
 21
11.6921099414
  0
LWPOLYLINE
  5
378
100
AcDbEntity
  8
0
100
AcDbPolyline
 62
7
  6
CONTINUOUS
 90
3
 70
0
 10
-3.7999985862
 20
12.2138810424
 10
-3.7997679809
 20
12.1822865881
 10
-3.7989451326
 20
12.1193089433
  0
LINE
  5
379
100
AcDbEntity
  8
0
100
AcDbLine
 62
7
  6
CONTINUOUS
 10
-3.7338690199
 20
11.2528037607
 11
-3.7354392227
 21
11.4891652275
  0
LINE
  5
37A
100
AcDbEntity
  8
0
100
AcDbLine
 62
7
  6
CONTINUOUS
 10
-4.65
 20
11.5749886877
 11
-4.65
 21
10.5046325301
  0
LINE
  5
37B
100
AcDbEntity
  8
0
100
AcDbLine
 62
7
  6
CONTINUOUS
 10
-4.600000476
 20
-5.7872348726
 11
-4.6000004752
 21
-7.4232728327
  0
LINE
  5
37C
100
AcDbEntity
  8
0
100
AcDbLine
 62
7
  6
CONTINUOUS
 10
-4.600000476
 20
1.2254331014
 11
-4.6000004733
 21
10.5046325301
  0
LINE
  5
37D
100
AcDbEntity
  8
0
100
AcDbLine
 62
7
  6
CONTINUOUS
 10
-4.6000004733
 20
11.5290748266
 11
-4.6000004762
 21
16.5222029381
  0
LINE
  5
37E
100
AcDbEntity
  8
0
100
AcDbLine
 62
250
  6
CONTINUOUS
 10
-3.8892524434
 20
17.2711750891
 11
-3.8892524408
 21
16.7608970125
  0
LINE
  5
37F
100
AcDbEntity
  8
0
100
AcDbLine
 62
7
  6
CONTINUOUS
 10
-3.8892526319
 20
11.9746407124
 11
-3.8892522044
 21
3.8627758084
  0
LINE
  5
380
100
AcDbEntity
  8
0
100
AcDbLine
 62
7
  6
CONTINUOUS
 10
-3.8892535391
 20
16.7608941097
 11
-3.8892579888
 21
14.5688925915
  0
LINE
  5
381
100
AcDbEntity
  8
0
100
AcDbLine
 62
250
  6
CONTINUOUS
 10
-3.8892481881
 20
11.9746406602
 11
-3.8892513638
 21
14.5688699928
  0
LINE
  5
382
100
AcDbEntity
  8
0
100
AcDbLine
 62
250
  6
CONTINUOUS
 10
-3.8761750985
 20
-8.1728160412
 11
-3.8761750985
 21
-6.431205171
  0
LINE
  5
383
100
AcDbEntity
  8
0
100
AcDbLine
 62
250
  6
CONTINUOUS
 10
-3.8761750934
 20
1.8120523922
 11
-3.8761750732
 21
3.8624026758
  0
LINE
  5
384
100
AcDbEntity
  8
0
100
AcDbLine
 62
7
  6
CONTINUOUS
 10
-3.800000475
 20
13.9915155979
 11
-3.8000004732
 21
12.77928304
  0
LINE
  5
385
100
AcDbEntity
  8
0
100
AcDbLine
 62
7
  6
CONTINUOUS
 10
-3.8000004748
 20
1.2087682351
 11
-3.8000051554
 21
12.0287417012
  0
LINE
  5
386
100
AcDbEntity
  8
0
100
AcDbLine
 62
7
  6
CONTINUOUS
 10
-3.8000004759
 20
-5.7872348726
 11
-3.8000004753
 21
-8.1754760819
  0
LINE
  5
387
100
AcDbEntity
  8
0
100
AcDbLine
 62
7
  6
CONTINUOUS
 10
-3.75
 20
-6.9535311214
 11
-3.75
 21
-5.7871633843
  0
LINE
  5
388
100
AcDbEntity
  8
0
100
AcDbLine
 62
7
  6
CONTINUOUS
 10
-3.75
 20
11.5749886877
 11
-3.75
 21
11.9734878532
  0
LINE
  5
389
100
AcDbEntity
  8
0
100
AcDbLine
 62
7
  6
CONTINUOUS
 10
-3.7334573983
 20
10.9999910616
 11
-3.7338690199
 21
11.2528037607
  0
LINE
  5
38A
100
AcDbEntity
  8
0
100
AcDbLine
 62
7
  6
CONTINUOUS
 10
-3.7399708713
 20
0.6524433158
 11
-3.7386922173
 21
6.1503598399
  0
LINE
  5
38B
100
AcDbEntity
  8
0
100
AcDbLine
 62
250
  6
CONTINUOUS
 10
-3.8000004716
 20
13.9914980672
 11
-3.8000004779
 21
14.5688699928
  0
LINE
  5
38C
100
AcDbEntity
  8
0
100
AcDbLine
 62
7
  6
CONTINUOUS
 10
-3.8000021115
 20
12.4054442735
 11
-3.7999985862
 21
12.2138810424
  0
LINE
  5
38D
100
AcDbEntity
  8
0
100
AcDbLine
 62
7
  6
CONTINUOUS
 10
-3.7500125657
 20
1.208661932
 11
-3.75
 21
10.4751150709
  0
LINE
  5
38E
100
AcDbEntity
  8
0
100
AcDbLine
 62
7
  6
CONTINUOUS
 10
-3.7432512897
 20
-5.9360397609
 11
-3.7414425436
 21
-5.368647671
  0
LINE
  5
38F
100
AcDbEntity
  8
0
100
AcDbLine
 62
7
  6
CONTINUOUS
 10
-3.7430471041
 20
-5.5808945622
 11
-3.7421995711
 21
-5.501085379
  0
LINE
  5
390
100
AcDbEntity
  8
0
100
AcDbLine
 62
7
  6
CONTINUOUS
 10
-3.7441292242
 20
-5.6503358021
 11
-3.7430471041
 21
-5.5808945622
  0
LINE
  5
391
100
AcDbEntity
  8
ASSI
100
AcDbLine
 62
7
  6
CONTINUOUS
 10
-3.4452396157
 20
21.2139629885
 11
-3.3821231691
 21
22.4
  0
LINE
  5
392
100
AcDbEntity
  8
DRAFT
100
AcDbLine
 62
7
  6
CONTINUOUS
 10
-3.4452396157
 20
21.2139629885
 11
-3.3821231691
 21
22.4
  0
LINE
  5
393
100
AcDbEntity
  8
RACCORDO
100
AcDbLine
 62
7
  6
CONTINUOUS
 10
3.0104834329
 20
22.3955695989
 11
2.6848155072
 21
21.3292298715
  0
LINE
  5
394
100
AcDbEntity
  8
ASSI
100
AcDbLine
 62
7
  6
CONTINUOUS
 10
2.6848155072
 20
21.3292298715
 11
3.0104834329
 21
22.3955695989
  0
LWPOLYLINE
  5
395
100
AcDbEntity
  8
0
100
AcDbPolyline
 62
7
  6
CONTINUOUS
 90
18
 70
0
 10
-4.600000476
 20
1.7085426077
 10
-4.59708362
 20
1.7122382639
 10
-4.5889254031
 20
1.7163202761
 10
-4.5755258253
 20
1.7207886442
 10
-4.5567381484
 20
1.7256768218
 10
-4.5327091105
 20
1.7309513553
 10
-4.5038789263
 20
1.7365118841
 10
-4.4701137445
 20
1.7423712149
 10
-4.4315474164
 20
1.748516541
 10
-4.3890217097
 20
1.7548090816
 10
-4.3424191073
 20
1.7612540328
 10
-4.2918571263
 20
1.7678461986
 10
-4.2385300866
 20
1.77443121
 10
-4.1823440634
 20
1.7810100085
 10
-4.1233929814
 20
1.7875816527
 10
-4.0631529345
 20
1.7939889499
 10
-4.002115954
 20
1.8001795026
 10
-3.9397900087
 20
1.8062057084
  0
LWPOLYLINE
  5
396
100
AcDbEntity
  8
0
100
AcDbPolyline
 62
7
  6
CONTINUOUS
 90
7
 70
0
 10
4.6497014257
 20
11.5749949388
 10
4.6482728102
 20
11.5733356529
 10
4.646590565
 20
11.5676063045
 10
4.6449532646
 20
11.5578006427
 10
4.6433499483
 20
11.543734751
 10
4.6417915768
 20
11.5255925458
 10
4.6403110314
 20
11.5039257761
  0
LINE
  5
397
100
AcDbEntity
  8
0
100
AcDbLine
 62
7
  6
CONTINUOUS
 10
-6.3536883928
 20
-1.2346527712
 11
-6.7261650454
 21
-1.5944135378
  0
LINE
  5
398
100
AcDbEntity
  8
0
100
AcDbLine
 62
7
  6
CONTINUOUS
 10
-6.6762997127
 20
-1.5983081886
 11
-6.3545514801
 21
-1.2875440374
  0
LWPOLYLINE
  5
399
100
AcDbEntity
  8
0
100
AcDbPolyline
 62
7
  6
CONTINUOUS
 90
7
 70
0
 10
-7.1696681345
 20
-0.0790761112
 10
-7.2353990959
 20
-0.1243378956
 10
-7.2996007816
 20
-0.1714362855
 10
-7.3622731916
 20
-0.2203712807
 10
-7.423416326
 20
-0.2711428813
 10
-7.4830301846
 20
-0.3237510873
 10
-7.5411147676
 20
-0.3781958987
  0
LINE
  5
39A
100
AcDbEntity
  8
0
100
AcDbLine
 62
250
  6
CONTINUOUS
 10
3.8000005356
 20
-4.638541353
 11
3.8892515829
 21
-4.6375005683
  0
LINE
  5
39B
100
AcDbEntity
  8
0
100
AcDbLine
 62
250
  6
CONTINUOUS
 10
3.7999963063
 20
-3.496017308
 11
3.889247353
 21
-3.495094148
  0
LINE
  5
39C
100
AcDbEntity
  8
0
100
AcDbLine
 62
7
  6
CONTINUOUS
 10
-0.4
 20
-4.7519989052
 11
0.4
 21
-4.7519989052
  0
LINE
  5
39D
100
AcDbEntity
  8
0
100
AcDbLine
 62
7
  6
CONTINUOUS
 10
-0.9230095943
 20
-3.2691197763
 11
-0.65
 21
-3.2691197763
  0
LINE
  5
39E
100
AcDbEntity
  8
0
100
AcDbLine
 62
7
  6
CONTINUOUS
 10
0.65
 20
-3.2691197763
 11
0.9230095943
 21
-3.2691197763
  0
LWPOLYLINE
  5
39F
100
AcDbEntity
  8
0
100
AcDbPolyline
 62
7
  6
CONTINUOUS
 90
16
 70
0
 10
-0.65
 20
-3.2691197763
 10
-0.6232803716
 20
-3.2706359124
 10
-0.5974444036
 20
-3.2747016045
 10
-0.5724920962
 20
-3.2813168142
 10
-0.5481837954
 20
-3.2906121266
 10
-0.524759155
 20
-3.3024568033
 10
-0.5029371367
 20
-3.3164588006
 10
-0.482764466
 20
-3.3326784009
 10
-0.4641944173
 20
-3.3510550765
 10
-0.4478057751
 20
-3.3710155984
 10
-0.4336596538
 20
-3.3926059628
 10
-0.421694939
 20
-3.4157799241
 10
-0.4123070721
 20
-3.4398259766
 10
-0.4056278668
 20
-3.4645069256
 10
-0.4015255095
 20
-3.4900598188
 10
-0.4
 20
-3.5164845712
  0
LINE
  5
3A0
100
AcDbEntity
  8
0
100
AcDbLine
 62
7
  6
CONTINUOUS
 10
-6.9488767304
 20
-2.921982284
 11
-6.6995500666
 21
-2.9414555381
  0
LWPOLYLINE
  5
3A1
100
AcDbEntity
  8
0
100
AcDbPolyline
 62
250
  6
CONTINUOUS
 90
19
 70
0
 10
-8.6469917714
 20
-1.7841173126
 10
-8.6904055272
 20
-1.775506489
 10
-8.7333102857
 20
-1.7664797507
 10
-8.7750995742
 20
-1.7571732316
 10
-8.8148329797
 20
-1.7478145171
 10
-8.8525638792
 20
-1.7384161237
 10
-8.8892022515
 20
-1.7287689049
 10
-8.9245621972
 20
-1.7189123605
 10
-8.9579227999
 20
-1.7090310376
 10
-8.9892267366
 20
-1.6991124597
 10
-9.0180168823
 20
-1.6892567507
 10
-9.0439374633
 20
-1.6795856693
 10
-9.0669040469
 20
-1.6701347419
 10
-9.0864977166
 20
-1.6610649074
 10
-9.1024477082
 20
-1.6524745617
 10
-9.1146807553
 20
-1.6443386142
 10
-9.1230253415
 20
-1.6367208737
 10
-9.1272630684
 20
-1.6297795946
 10
-9.1276690462
 20
-1.62494651
  0
LWPOLYLINE
  5
3A2
100
AcDbEntity
  8
0
100
AcDbPolyline
 62
250
  6
CONTINUOUS
 90
19
 70
0
 10
-8.4926906021
 20
-1.2059829832
 10
-8.5331939709
 20
-1.1891420692
 10
-8.5731056267
 20
-1.1720572924
 10
-8.611900002
 20
-1.1549581474
 10
-8.6487400972
 20
-1.1382275339
 10
-8.6836794977
 20
-1.121867461
 10
-8.7175340441
 20
-1.1055150938
 10
-8.7501289129
 20
-1.0892416009
 10
-8.7807879927
 20
-1.0733642133
 10
-8.8094181042
 20
-1.0578984435
 10
-8.835604691
 20
-1.0430281306
 10
-8.8590497393
 20
-1.0289278901
 10
-8.8796665758
 20
-1.0156515764
 10
-8.8970650699
 20
-1.0034368219
 10
-8.9109963126
 20
-0.9924286589
 10
-8.9214014625
 20
-0.9826098505
 10
-8.9281269304
 20
-0.9740716052
 10
-8.9309816761
 20
-0.9670050851
 10
-8.9305588815
 20
-0.9627860011
  0
LWPOLYLINE
  5
3A3
100
AcDbEntity
  8
0
100
AcDbPolyline
 62
7
  6
CONTINUOUS
 90
6
 70
0
 10
-7.169597439
 20
-0.0789963313
 10
-7.1674248029
 20
-0.0803370148
 10
-7.1611023229
 20
-0.0858432933
 10
-7.1507006944
 20
-0.0955949467
 10
-7.1361051716
 20
-0.1097038646
 10
-7.1174305003
 20
-0.1280581573
  0
LINE
  5
3A4
100
AcDbEntity
  8
0
100
AcDbLine
 62
7
  6
CONTINUOUS
 10
-5.0112497936
 20
-1.3107917201
 11
-4.7004499334
 21
-1.6325029857
  0
LINE
  5
3A5
100
AcDbEntity
  8
0
100
AcDbLine
 62
7
  6
CONTINUOUS
 10
-5.0069343571
 20
-1.046335389
 11
-4.4511232696
 21
-1.621659613
  0
LWPOLYLINE
  5
3A6
100
AcDbEntity
  8
0
100
AcDbPolyline
 62
7
  6
CONTINUOUS
 90
16
 70
0
 10
2.40000025
 20
-18.9320750066
 10
2.3986255048
 20
-18.9284406181
 10
2.3945078402
 20
-18.9244655937
 10
2.3876799646
 20
-18.9201650131
 10
2.3782000925
 20
-18.9154159473
 10
2.3661639966
 20
-18.910370794
 10
2.3517155436
 20
-18.9054568089
 10
2.3350044689
 20
-18.9006981669
 10
2.3162236317
 20
-18.8960957412
 10
2.295647275
 20
-18.8920392041
 10
2.2735120271
 20
-18.8885695901
 10
2.2500811441
 20
-18.8856616758
 10
2.2257219137
 20
-18.8836011098
 10
2.2007520182
 20
-18.8824835057
 10
2.1754198921
 20
-18.8822161896
 10
2.15000025
 20
-18.8827984638
  0
LINE
  5
3A7
100
AcDbEntity
  8
ASSI
100
AcDbLine
 62
7
  6
CONTINUOUS
 10
3.0104834329
 20
-22.3955695989
 11
2.6848155072
 21
-21.3292298715
  0
LINE
  5
3A8
100
AcDbEntity
  8
RACCORDO
100
AcDbLine
 62
7
  6
CONTINUOUS
 10
2.6848155072
 20
-21.3292298715
 11
3.0104834329
 21
-22.3955695989
  0
LWPOLYLINE
  5
3A9
100
AcDbEntity
  8
0
100
AcDbPolyline
 62
7
  6
CONTINUOUS
 90
10
 70
0
 10
-3.8000004741
 20
12.779283038
 10
-3.7964474869
 20
12.7453371857
 10
-3.797362658
 20
12.7080723644
 10
-3.7999792911
 20
12.6680216426
 10
-3.8008778971
 20
12.6273587231
 10
-3.8000009162
 20
12.5864743729
 10
-3.799994756
 20
12.5431675657
 10
-3.800978581
 20
12.4972189112
 10
-3.8010784908
 20
12.450939012
 10
-3.8000021115
 20
12.4054442735
  0
LWPOLYLINE
  5
3AA
100
AcDbEntity
  8
0
100
AcDbPolyline
 62
7
  6
CONTINUOUS
 90
22
 70
0
 10
-1.9987038078
 20
-3.4669746386
 10
-1.994876093
 20
-3.6085507522
 10
-1.9786912677
 20
-3.7550307874
 10
-1.9515100487
 20
-3.8999559505
 10
-1.913434344
 20
-4.0426233971
 10
-1.8646757071
 20
-4.1821302048
 10
-1.8055513281
 20
-4.3175675724
 10
-1.7364555988
 20
-4.4480982901
 10
-1.657748099
 20
-4.5731025203
 10
-1.5697743339
 20
-4.6920304489
 10
-1.4730372241
 20
-4.8041737083
 10
-1.3680311162
 20
-4.9089345874
 10
-1.2550831558
 20
-5.0059141672
 10
-1.1346423042
 20
-5.0945849655
 10
-1.0074419969
 20
-5.1742730669
 10
-0.8742785675
 20
-5.2443972195
 10
-0.7357015067
 20
-5.3045753505
 10
-0.5926469905
 20
-5.3543103529
 10
-0.4466172956
 20
-5.3931062816
 10
-0.2987102998
 20
-5.4208039535
 10
-0.1495540772
 20
-5.4374116504
 10
-0.0
 20
-5.4429337634
  0
LWPOLYLINE
  5
3AB
100
AcDbEntity
  8
0
100
AcDbPolyline
 62
7
  6
CONTINUOUS
 90
34
 70
0
 10
-3.05
 20
-2.2839475992
 10
-3.055667357
 20
-2.1107423459
 10
-3.0726452367
 20
-1.9382775571
 10
-3.1008610853
 20
-1.767290966
 10
-3.1401942613
 20
-1.5985140103
 10
-3.1904765683
 20
-1.4326686305
 10
-3.2514929934
 20
-1.2704641765
 10
-3.3229825773
 20
-1.1125945164
 10
-3.4046395735
 20
-0.9597349337
 10
-3.4961148215
 20
-0.8125391681
 10
-3.597017129
 20
-0.6716368397
 10
-3.7069149335
 20
-0.537630718
 10
-3.825338253
 20
-0.4110940029
 10
-3.95178073
 20
-0.2925678865
 10
-4.085701495
 20
-0.1825595156
 10
-4.2265274757
 20
-0.0815397106
 10
-4.3736563181
 20
0.0100594073
 10
-4.5264587802
 20
0.0918460446
 10
-4.6842810961
 20
0.1634702474
 10
-4.8464482774
 20
0.2246256681
 10
-5.0122667223
 20
0.2750507052
 10
-5.1810269371
 20
0.3145295848
 10
-5.3520072264
 20
0.3428934631
 10
-5.524476236
 20
0.3600209826
 10
-5.6976957705
 20
0.3658388455
 10
-5.8709249076
 20
0.3603222194
 10
-6.0434228358
 20
0.3434947286
 10
-6.214451465
 20
0.3154284137
 10
-6.3832793118
 20
0.2762433674
 10
-6.5491843364
 20
0.2261072111
 10
-6.7114567041
 20
0.1652345005
 10
-6.8694023087
 20
0.0938856829
 10
-7.0223457284
 20
0.0123659213
 10
-7.1696231859
 20
-0.0789696715
  0
LINE
  5
3AC
100
AcDbEntity
  8
SMUSSO
100
AcDbLine
 62
7
  6
CONTINUOUS
 10
-2.8272050914
 20
-19.6414213562
 11
-2.8366556363
 21
-19.1
  0
LINE
  5
3AD
100
AcDbEntity
  8
ASSI
100
AcDbLine
 62
7
  6
CONTINUOUS
 10
-2.8136015098
 20
-19.6414213562
 11
-2.8183264224
 21
-19.1
  0
LINE
  5
3AE
100
AcDbEntity
  8
ASSI
100
AcDbLine
 62
7
  6
CONTINUOUS
 10
-3.0983838146
 20
21.349698412
 11
-3.1
 21
22.4
  0
LINE
  5
3AF
100
AcDbEntity
  8
RACCORDO
100
AcDbLine
 62
7
  6
CONTINUOUS
 10
-3.0983838146
 20
21.349698412
 11
-3.1
 21
22.4
  0
LINE
  5
3B0
100
AcDbEntity
  8
0
100
AcDbLine
 62
7
  6
CONTINUOUS
 10
-3.05
 20
-2.2839475992
 11
-3.05
 21
-2.3009249102
  0
LINE
  5
3B1
100
AcDbEntity
  8
0
100
AcDbLine
 62
7
  6
CONTINUOUS
 10
-2.40000025
 20
-19.5
 11
-2.40000025
 21
-18.9320750066
  0
LINE
  5
3B2
100
AcDbEntity
  8
0
100
AcDbLine
 62
7
  6
CONTINUOUS
 10
-2.40000025
 20
18.9320750066
 11
-2.40000025
 21
19.5
  0
LINE
  5
3B3
100
AcDbEntity
  8
0
100
AcDbLine
 62
7
  6
CONTINUOUS
 10
-2.2
 20
10.1921157854
 11
-2.2
 21
6.8950543263
  0
LINE
  5
3B4
100
AcDbEntity
  8
0
100
AcDbLine
 62
250
  6
CONTINUOUS
 10
-2.15000025
 20
-19.5
 11
-2.15000025
 21
-18.8827984638
  0
LINE
  5
3B5
100
AcDbEntity
  8
0
100
AcDbLine
 62
250
  6
CONTINUOUS
 10
-2.15000025
 20
18.8827984638
 11
-2.15000025
 21
19.5
  0
LINE
  5
3B6
100
AcDbEntity
  8
0
100
AcDbLine
 62
7
  6
CONTINUOUS
 10
-1.5691456434
 20
7.5365524313
 11
-1.5691456434
 21
9.5095206821
  0
LINE
  5
3B7
100
AcDbEntity
  8
ASSI
100
AcDbLine
 62
7
  6
CONTINUOUS
 10
-3.0983838146
 20
-21.349698412
 11
-3.1
 21
-22.4
  0
LINE
  5
3B8
100
AcDbEntity
  8
RACCORDO
100
AcDbLine
 62
7
  6
CONTINUOUS
 10
-3.0983838146
 20
-21.349698412
 11
-3.1
 21
-22.4
  0
LINE
  5
3B9
100
AcDbEntity
  8
SMUSSO
100
AcDbLine
 62
7
  6
CONTINUOUS
 10
-2.8183264224
 20
19.1
 11
-2.8136015098
 21
19.6414213562
  0
LINE
  5
3BA
100
AcDbEntity
  8
ASSI
100
AcDbLine
 62
7
  6
CONTINUOUS
 10
-2.8366556363
 20
19.1
 11
-2.8272050914
 21
19.6414213562
  0
LWPOLYLINE
  5
3BB
100
AcDbEntity
  8
0
100
AcDbPolyline
 62
7
  6
CONTINUOUS
 90
13
 70
0
 10
-3.05
 20
-2.3009249102
 10
-3.0516007735
 20
-2.3930095898
 10
-3.0644763815
 20
-2.5775070414
 10
-3.0901919957
 20
-2.7606570127
 10
-3.1286223322
 20
-2.9415672154
 10
-3.1795801622
 20
-3.1193562732
 10
-3.2428172242
 20
-3.2931580156
 10
-3.3180254338
 20
-3.4621256981
 10
-3.404838384
 20
-3.6254361271
 10
-3.5028331309
 20
-3.7822936706
 10
-3.6115322539
 20
-3.9319341344
 10
-3.7304061819
 20
-4.0736284851
 10
-3.858875773
 20
-4.2066864023
  0
LWPOLYLINE
  5
3BC
100
AcDbEntity
  8
0
100
AcDbPolyline
 62
7
  6
CONTINUOUS
 90
8
 70
0
 10
-3.75
 20
-5.786901005
 10
-3.7491936946
 20
-5.7840073544
 10
-3.7484044709
 20
-5.7769871292
 10
-3.7476323287
 20
-5.7658403294
 10
-3.7468698024
 20
-5.7503906186
 10
-3.7461243578
 20
-5.7308143331
 10
-3.7454183917
 20
-5.707640482
 10
-3.7441292242
 20
-5.6503358021
  0
LINE
  5
3BD
100
AcDbEntity
  8
ASSI
100
AcDbLine
 62
7
  6
CONTINUOUS
 10
3.9733373476
 20
23.5
 11
3.9630152422
 21
23.4650925288
  0
LINE
  5
3BE
100
AcDbEntity
  8
DRAFT
100
AcDbLine
 62
7
  6
CONTINUOUS
 10
3.9733373476
 20
23.5
 11
3.9630152422
 21
23.4650925288
  0
LWPOLYLINE
  5
3BF
100
AcDbEntity
  8
0
100
AcDbPolyline
 62
7
  6
CONTINUOUS
 90
10
 70
0
 10
3.749743543
 20
11.9735304459
 10
3.7485336065
 20
11.9708572637
 10
3.7471013016
 20
11.9612683845
 10
3.7457030854
 20
11.9447212159
 10
3.7443292287
 20
11.9209737412
 10
3.7429894607
 20
11.8902679771
 10
3.7417129683
 20
11.8533299728
 10
3.7405011497
 20
11.8100346821
 10
3.7393526067
 20
11.7605071513
 10
3.7373221373
 20
11.6459552753
  0
LWPOLYLINE
  5
3C0
100
AcDbEntity
  8
0
100
AcDbPolyline
 62
250
  6
CONTINUOUS
 90
37
 70
0
 10
-4.1161376153
 20
-3.2276817961
 10
-4.0501596005
 20
-3.1083549352
 10
-3.9935106646
 20
-2.9859690948
 10
-3.9461908076
 20
-2.8605242748
 10
-3.9080624387
 20
-2.7313247752
 10
-3.8792631487
 20
-2.5990662961
 10
-3.8602057097
 20
-2.4658359377
 10
-3.8510412944
 20
-2.3316231199
 10
-3.8516187301
 20
-2.1964384229
 10
-3.8618972714
 20
-2.0624006875
 10
-3.8820265989
 20
-1.9295303842
 10
-3.9118570319
 20
-1.7978070426
 10
-3.9508987831
 20
-1.6692880922
 10
-3.9992925863
 20
-1.5440262944
 10
-4.0568977076
 20
-1.4219688878
 10
-4.1228021575
 20
-1.3050150167
 10
-4.1971331508
 20
-1.1932435047
 10
-4.2797634727
 20
-1.0865755282
 10
-4.3693994888
 20
-0.9866737605
 10
-4.4661489816
 20
-0.8936422859
 10
-4.5699041686
 20
-0.80737702
 10
-4.6790480685
 20
-0.7292283839
 10
-4.7936638934
 20
-0.6593207618
 10
-4.9136684311
 20
-0.5975297694
 10
-5.0371950637
 20
-0.5448326744
 10
-5.1643014245
 20
-0.5013682813
 10
-5.2949298801
 20
-0.4669977857
 10
-5.4270409119
 20
-0.4422820414
 10
-5.560660188
 20
-0.4273699202
 10
-5.6957620404
 20
-0.4221125505
 10
-5.8302299461
 20
-0.4266241711
 10
-5.9640585863
 20
-0.4410562285
 10
-6.09725328
 20
-0.4652572762
 10
-6.2277134612
 20
-0.498887214
 10
-6.3547389414
 20
-0.5418326751
 10
-6.4790299092
 20
-0.5942070263
 10
-6.6005863645
 20
-0.6560102675
  0
LINE
  5
3C1
100
AcDbEntity
  8
0
100
AcDbLine
 62
7
  6
CONTINUOUS
 10
-6.9488767304
 20
-2.921982284
 11
-6.3195435538
 21
-2.3141337532
  0
LINE
  5
3C2
100
AcDbEntity
  8
0
100
AcDbLine
 62
7
  6
CONTINUOUS
 10
-5.6362675336
 20
-1.6541839198
 11
-5.0069343571
 21
-1.046335389
  0
LINE
  5
3C3
100
AcDbEntity
  8
0
100
AcDbLine
 62
7
  6
CONTINUOUS
 10
-5.5382630427
 20
-1.7677557538
 11
-5.6936627265
 21
-1.9178502873
  0
LINE
  5
3C4
100
AcDbEntity
  8
0
100
AcDbLine
 62
7
  6
CONTINUOUS
 10
-6.0661393791
 20
-2.2776110539
 11
-6.2215390629
 21
-2.4277055873
  0
LINE
  5
3C5
100
AcDbEntity
  8
0
100
AcDbLine
 62
7
  6
CONTINUOUS
 10
-6.6995500666
 20
-2.9414555381
 11
-6.0162740464
 21
-2.2815057047
  0
LINE
  5
3C6
100
AcDbEntity
  8
0
100
AcDbLine
 62
7
  6
CONTINUOUS
 10
-5.6945258138
 20
-1.9707415535
 11
-5.0112497936
 21
-1.3107917201
  0
LINE
  5
3C7
100
AcDbEntity
  8
0
100
AcDbLine
 62
7
  6
CONTINUOUS
 10
-6.3832760202
 20
-2.950319601
 11
-5.0167239798
 21
-1.6304199342
  0
LINE
  5
3C8
100
AcDbEntity
  8
0
100
AcDbLine
 62
7
  6
CONTINUOUS
 10
-4.7004499334
 20
-1.6325029857
 11
-5.3837259536
 21
-2.2924528191
  0
LINE
  5
3C9
100
AcDbEntity
  8
0
100
AcDbLine
 62
7
  6
CONTINUOUS
 10
-5.7054741862
 20
-2.6032169703
 11
-6.3887502064
 21
-3.2631668037
  0
LINE
  5
3CA
100
AcDbEntity
  8
0
100
AcDbLine
 62
7
  6
CONTINUOUS
 10
-5.8617369573
 20
-2.8001394446
 11
-5.7063372735
 21
-2.6500449112
  0
LINE
  5
3CB
100
AcDbEntity
  8
0
100
AcDbLine
 62
7
  6
CONTINUOUS
 10
-5.3338606209
 20
-2.2902841446
 11
-5.1784609371
 21
-2.1401896112
  0
LINE
  5
3CC
100
AcDbEntity
  8
0
100
AcDbLine
 62
7
  6
CONTINUOUS
 10
-4.4511232696
 20
-1.621659613
 11
-5.0804564462
 21
-2.2295081438
  0
LINE
  5
3CD
100
AcDbEntity
  8
0
100
AcDbLine
 62
7
  6
CONTINUOUS
 10
-5.7637324664
 20
-2.8894579772
 11
-6.3930656429
 21
-3.497306508
  0
LINE
  5
3CE
100
AcDbEntity
  8
0
100
AcDbLine
 62
7
  6
CONTINUOUS
 10
-4.6738349546
 20
-2.9734816606
 11
-4.7237002873
 21
-2.9756503352
  0
LINE
  5
3CF
100
AcDbEntity
  8
0
100
AcDbLine
 62
7
  6
CONTINUOUS
 10
-5.3338606209
 20
-2.2902841446
 11
-5.3837259536
 21
-2.2924528191
  0
LINE
  5
3D0
100
AcDbEntity
  8
0
100
AcDbLine
 62
7
  6
CONTINUOUS
 10
3.7999992453
 20
-2.3488966173
 11
3.8892476022
 21
-2.3480233565
  0
LWPOLYLINE
  5
3D1
100
AcDbEntity
  8
0
100
AcDbPolyline
 62
250
  6
CONTINUOUS
 90
19
 70
0
 10
-8.6910570822
 20
-2.3719360536
 10
-8.7351556814
 20
-2.3718698222
 10
-8.7788446613
 20
-2.3712703659
 10
-8.8214903011
 20
-2.3701572182
 10
-8.8621288169
 20
-2.3685755349
 10
-8.9007963173
 20
-2.3665483978
 10
-8.9384043925
 20
-2.3640422516
 10
-8.9747576295
 20
-2.3610635664
 10
-9.0091440661
 20
-2.3576576482
 10
-9.0415396957
 20
-2.3538002697
 10
-9.0714852675
 20
-2.349500686
 10
-9.0985937777
 20
-2.3448100861
 10
-9.1227845124
 20
-2.3397476447
 10
-9.1436339322
 20
-2.3343919802
 10
-9.1608647323
 20
-2.3287896822
 10
-9.1744012913
 20
-2.3229034631
 10
-9.1840667419
 20
-2.3167647344
 10
-9.1896267456
 20
-2.3104890694
 10
-9.1910498758
 20
-2.3053606474
  0
LINE
  5
3D2
100
AcDbEntity
  8
0
100
AcDbLine
 62
7
  6
CONTINUOUS
 10
-4.7237002873
 20
-2.9756503352
 11
-5.0399743337
 21
-2.9735672837
  0
LINE
  5
3D3
100
AcDbEntity
  8
0
100
AcDbLine
 62
7
  6
CONTINUOUS
 10
-5.3837259536
 20
-2.2924528191
 11
-5.7
 21
-2.2903697676
  0
LINE
  5
3D4
100
AcDbEntity
  8
0
100
AcDbLine
 62
7
  6
CONTINUOUS
 10
-4.7004499334
 20
-1.6325029857
 11
-5.0167239798
 21
-1.6304199342
  0
LINE
  5
3D5
100
AcDbEntity
  8
0
100
AcDbLine
 62
7
  6
CONTINUOUS
 10
-6.6995500666
 20
-2.9414555381
 11
-6.3832760202
 21
-2.950319601
  0
LINE
  5
3D6
100
AcDbEntity
  8
0
100
AcDbLine
 62
7
  6
CONTINUOUS
 10
-6.0162740464
 20
-2.2815057047
 11
-5.7
 21
-2.2903697676
  0
LINE
  5
3D7
100
AcDbEntity
  8
0
100
AcDbLine
 62
7
  6
CONTINUOUS
 10
-6.6762997127
 20
-1.5983081886
 11
-6.3600256663
 21
-1.6071722516
  0
LINE
  5
3D8
100
AcDbEntity
  8
0
100
AcDbLine
 62
7
  6
CONTINUOUS
 10
-6.0661393791
 20
-2.2776110539
 11
-6.0162740464
 21
-2.2815057047
  0
LINE
  5
3D9
100
AcDbEntity
  8
0
100
AcDbLine
 62
7
  6
CONTINUOUS
 10
-6.7261650454
 20
-1.5944135378
 11
-6.6762997127
 21
-1.5983081886
  0
LINE
  5
3DA
100
AcDbEntity
  8
ASSI
100
AcDbLine
 62
7
  6
CONTINUOUS
 10
3.9733373476
 20
-23.5
 11
3.9630152422
 21
-23.4650925288
  0
LINE
  5
3DB
100
AcDbEntity
  8
DRAFT
100
AcDbLine
 62
7
  6
CONTINUOUS
 10
3.9733373476
 20
-23.5
 11
3.9630152422
 21
-23.4650925288
  0
LINE
  5
3DC
100
AcDbEntity
  8
0
100
AcDbLine
 62
250
  6
CONTINUOUS
 10
-4.5999281501
 20
12.0567187121
 11
-4.6000004733
 21
12.0571491205
  0
LINE
  5
3DD
100
AcDbEntity
  8
0
100
AcDbLine
 62
7
  6
CONTINUOUS
 10
-0.0000006668
 20
-8.3703243874
 11
-0.0000012198
 21
-8.3702057892
  0
LINE
  5
3DE
100
AcDbEntity
  8
0
100
AcDbLine
 62
7
  6
CONTINUOUS
 10
-0.0000587802
 20
-18.9524995586
 11
0.0
 21
-18.968067914
  0
LINE
  5
3DF
100
AcDbEntity
  8
0
100
AcDbLine
 62
250
  6
CONTINUOUS
 10
0.0002927955
 20
12.9899901372
 11
0.0003233321
 21
12.978200268
  0
LINE
  5
3E0
100
AcDbEntity
  8
0
100
AcDbLine
 62
7
  6
CONTINUOUS
 10
-1.2908093705
 20
9.2818704993
 11
-1.2908093705
 21
8.6748033452
  0
LINE
  5
3E1
100
AcDbEntity
  8
0
100
AcDbLine
 62
7
  6
CONTINUOUS
 10
-1.2908093705
 20
8.4471531624
 11
-1.2908093705
 21
7.7642026141
  0
LINE
  5
3E2
100
AcDbEntity
  8
0
100
AcDbLine
 62
7
  6
CONTINUOUS
 10
-0.9230095943
 20
-3.2356005037
 11
-0.9230095943
 21
-3.2691197763
  0
LINE
  5
3E3
100
AcDbEntity
  8
0
100
AcDbLine
 62
7
  6
CONTINUOUS
 10
-0.4
 20
-4.7519989052
 11
-0.4
 21
-3.5164845712
  0
LINE
  5
3E4
100
AcDbEntity
  8
0
100
AcDbLine
 62
7
  6
CONTINUOUS
 10
-0.2533741715
 20
8.4471531624
 11
-0.2533741715
 21
8.6748033452
  0
LINE
  5
3E5
100
AcDbEntity
  8
0
100
AcDbLine
 62
7
  6
CONTINUOUS
 10
-0.1268576838
 20
7.5365524313
 11
-0.1268576838
 21
7.7642026141
  0
LINE
  5
3E6
100
AcDbEntity
  8
0
100
AcDbLine
 62
7
  6
CONTINUOUS
 10
0.0000000002
 20
-8.3722822383
 11
-0.0
 21
-8.3721994378
  0
LINE
  5
3E7
100
AcDbEntity
  8
0
100
AcDbLine
 62
250
  6
CONTINUOUS
 10
-0.0
 20
-8.1750010391
 11
0.0
 21
-8.3490069907
  0
LINE
  5
3E8
100
AcDbEntity
  8
0
100
AcDbLine
 62
7
  6
CONTINUOUS
 10
0.0
 20
12.0056694076
 11
0.0
 21
11.9735968352
  0
LINE
  5
3E9
100
AcDbEntity
  8
0
100
AcDbLine
 62
7
  6
CONTINUOUS
 10
-0.0
 20
-2.1796769681
 11
-0.0
 21
-2.1461493526
  0
LINE
  5
3EA
100
AcDbEntity
  8
0
100
AcDbLine
 62
250
  6
CONTINUOUS
 10
0.0000000003
 20
12.9327179129
 11
-0.0000000003
 21
12.7577179259
  0
LINE
  5
3EB
100
AcDbEntity
  8
0
100
AcDbLine
 62
7
  6
CONTINUOUS
 10
-0.0000012198
 20
-8.3702057892
 11
-0.0
 21
-8.3490070212
  0
LINE
  5
3EC
100
AcDbEntity
  8
0
100
AcDbLine
 62
7
  6
CONTINUOUS
 10
0.0
 20
-8.3750010153
 11
0.0000152845
 21
-18.8706049888
  0
LINE
  5
3ED
100
AcDbEntity
  8
0
100
AcDbLine
 62
7
  6
CONTINUOUS
 10
0.0000152845
 20
-18.8706049888
 11
-0.0000587802
 21
-18.9524995586
  0
LINE
  5
3EE
100
AcDbEntity
  8
0
100
AcDbLine
 62
7
  6
CONTINUOUS
 10
-0.0000000003
 20
12.7577179259
 11
0.0000576516
 21
12.0214151383
  0
LINE
  5
3EF
100
AcDbEntity
  8
0
100
AcDbLine
 62
7
  6
CONTINUOUS
 10
0.0000003245
 20
16.9644411718
 11
0.0
 21
13.0077179416
  0
LINE
  5
3F0
100
AcDbEntity
  8
0
100
AcDbLine
 62
7
  6
CONTINUOUS
 10
0.0
 20
18.968067914
 11
0.0000343304
 21
16.9670632697
  0
LINE
  5
3F1
100
AcDbEntity
  8
0
100
AcDbLine
 62
7
  6
CONTINUOUS
 10
0.0000576516
 20
12.0214151383
 11
0.0000000237
 21
12.0077178053
  0
LINE
  5
3F2
100
AcDbEntity
  8
0
100
AcDbLine
 62
250
  6
CONTINUOUS
 10
0.0001298406
 20
12.9543165356
 11
0.0000000003
 21
12.9327179129
  0
LINE
  5
3F3
100
AcDbEntity
  8
0
100
AcDbLine
 62
250
  6
CONTINUOUS
 10
0.0003233321
 20
12.978200268
 11
0.0002667077
 21
12.9663123769
  0
LINE
  5
3F4
100
AcDbEntity
  8
0
100
AcDbLine
 62
250
  6
CONTINUOUS
 10
0.0002667077
 20
12.9663123769
 11
0.0001298406
 21
12.9543165356
  0
LINE
  5
3F5
100
AcDbEntity
  8
ASSI
100
AcDbLine
 62
7
  6
CONTINUOUS
 10
6.9712561167
 20
21.2139629885
 11
6.9576125104
 21
21.1771527675
  0
LINE
  5
3F6
100
AcDbEntity
  8
DRAFT
100
AcDbLine
 62
7
  6
CONTINUOUS
 10
6.9712561167
 20
21.2139629885
 11
6.9576125104
 21
21.1771527675
  0
LWPOLYLINE
  5
3F7
100
AcDbEntity
  8
0
100
AcDbPolyline
 62
250
  6
CONTINUOUS
 90
10
 70
0
 10
-3.5470558453
 20
-3.8288692539
 10
-3.4424375636
 20
-3.6715604129
 10
-3.3492949142
 20
-3.507198064
 10
-3.2681013594
 20
-3.3366176934
 10
-3.199269622
 20
-3.1606863943
 10
-3.1431495871
 20
-2.9802984602
 10
-3.1000265238
 20
-2.7963708382
 10
-3.0701196353
 20
-2.6098384684
 10
-3.053580944
 20
-2.4216495315
 10
-3.05
 20
-2.2839475992
  0
LINE
  5
3F8
100
AcDbEntity
  8
0
100
AcDbLine
 62
7
  6
CONTINUOUS
 10
-4.7237002873
 20
-2.9756503352
 11
-5.0454485199
 21
-3.2864144864
  0
LINE
  5
3F9
100
AcDbEntity
  8
0
100
AcDbLine
 62
7
  6
CONTINUOUS
 10
-5.0463116072
 20
-3.3332424272
 11
-4.6738349546
 21
-2.9734816606
  0
LINE
  5
3FA
100
AcDbEntity
  8
0
100
AcDbLine
 62
7
  6
CONTINUOUS
 10
-4.4511232696
 20
-1.621659613
 11
-4.7004499334
 21
-1.6325029857
  0
LWPOLYLINE
  5
3FB
100
AcDbEntity
  8
0
100
AcDbPolyline
 62
7
  6
CONTINUOUS
 90
22
 70
0
 10
-0.0
 20
-1.4855142772
 10
-0.1487570183
 20
-1.4910139452
 10
-0.2968418613
 20
-1.5074944643
 10
-0.4434286488
 20
-1.5348984998
 10
-0.5877385246
 20
-1.5731245664
 10
-0.728913331
 20
-1.6219831724
 10
-0.8660312977
 20
-1.6811661462
 10
-0.9983612493
 20
-1.7503717318
 10
-1.1251209969
 20
-1.8292011521
 10
-1.2453931071
 20
-1.9170399702
 10
-1.3583729891
 20
-2.0132062476
 10
-1.4636568845
 20
-2.1172546466
 10
-1.5609614324
 20
-2.2288772828
 10
-1.6498201133
 20
-2.3476302975
 10
-1.7295856202
 20
-2.4727490307
 10
-1.7997275885
 20
-2.6034314849
 10
-1.8598393072
 20
-2.7389426118
 10
-1.909582322
 20
-2.8785473351
 10
-1.9486507242
 20
-3.0213813536
 10
-1.9768326319
 20
-3.1666493725
 10
-1.9939760569
 20
-3.3135420089
 10
-2.0
 20
-3.4670248241
  0
LINE
  5
3FC
100
AcDbEntity
  8
ASSI
100
AcDbLine
 62
7
  6
CONTINUOUS
 10
8.2045541566
 20
0.3427329858
 11
8.1200188821
 21
0.3406155986
  0
LWPOLYLINE
  5
3FD
100
AcDbEntity
  8
RACCORDO
100
AcDbPolyline
 62
7
  6
CONTINUOUS
 90
3
 70
0
 10
8.1571849287
 20
0.3414643844
 10
8.0452612824
 20
0.3391824423
 10
7.9815172843
 20
0.3381798039
  0
LWPOLYLINE
  5
3FE
100
AcDbEntity
  8
ASSI
100
AcDbPolyline
 62
7
  6
CONTINUOUS
 90
3
 70
0
 10
8.1200188821
 20
0.3406155986
 10
8.0184266273
 20
0.3387399445
 10
7.9621385636
 20
0.337906771
  0
LWPOLYLINE
  5
3FF
100
AcDbEntity
  8
0
100
AcDbPolyline
 62
7
  6
CONTINUOUS
 90
19
 70
0
 10
3.8892531516
 20
-1.1992376053
 10
3.9523634352
 20
-1.1982529726
 10
4.0146982054
 20
-1.1964072104
 10
4.0758147816
 20
-1.1937134758
 10
4.1352703693
 20
-1.1901870015
 10
4.192656979
 20
-1.1858547709
 10
4.2476003822
 20
-1.180754092
 10
4.2997177816
 20
-1.1749146273
 10
4.3486344854
 20
-1.168375376
 10
4.3940134937
 20
-1.1611929883
 10
4.4355326828
 20
-1.1534105466
 10
4.4728975089
 20
-1.145077985
 10
4.5058487918
 20
-1.1362671342
 10
4.5341467931
 20
-1.1270321728
 10
4.5575919759
 20
-1.1174306662
 10
4.5760236648
 20
-1.1075427221
 10
4.5893011722
 20
-1.0974361699
 10
4.5973141734
 20
-1.0871666973
 10
4.5999934763
 20
-1.0767981163
  0
LINE
  5
400
100
AcDbEntity
  8
0
100
AcDbLine
 62
7
  6
CONTINUOUS
 10
3.8892482246
 20
-1.1991723268
 11
3.7999961365
 21
-1.1999849913
  0
LINE
  5
401
100
AcDbEntity
  8
ASSI
100
AcDbLine
 62
7
  6
CONTINUOUS
 10
9.5103594806
 20
-0.5
 11
8.4852813742
 21
-0.5
  0
LINE
  5
402
100
AcDbEntity
  8
DRAFT
100
AcDbLine
 62
7
  6
CONTINUOUS
 10
9.5103594806
 20
-0.5
 11
8.4852813742
 21
-0.5
  0
LINE
  5
403
100
AcDbEntity
  8
ASSI
100
AcDbLine
 62
7
  6
CONTINUOUS
 10
-9.5103594806
 20
-0.5
 11
-8.7157324031
 21
-0.5
  0
LINE
  5
404
100
AcDbEntity
  8
DRAFT
100
AcDbLine
 62
7
  6
CONTINUOUS
 10
-9.5103594806
 20
-0.5
 11
-8.7157324031
 21
-0.5
  0
LINE
  5
405
100
AcDbEntity
  8
ASSI
100
AcDbLine
 62
7
  6
CONTINUOUS
 10
-9.6761825974
 20
-0.3341768832
 11
-8.6127007558
 21
-0.3341768832
  0
LINE
  5
406
100
AcDbEntity
  8
DRAFT
100
AcDbLine
 62
7
  6
CONTINUOUS
 10
-9.6761825974
 20
-0.3341768832
 11
-8.6127007558
 21
-0.3341768832
  0
LINE
  5
407
100
AcDbEntity
  8
ASSI
100
AcDbLine
 62
7
  6
CONTINUOUS
 10
7.5
 20
-0.3341768832
 11
9.6761825974
 21
-0.3341768832
  0
LINE
  5
408
100
AcDbEntity
  8
DRAFT
100
AcDbLine
 62
7
  6
CONTINUOUS
 10
7.5
 20
-0.3341768832
 11
9.6761825974
 21
-0.3341768832
  0
LINE
  5
409
100
AcDbEntity
  8
RACCORDO
100
AcDbLine
 62
7
  6
CONTINUOUS
 10
7.5
 20
-0.3343959907
 11
7.6801409187
 21
-0.3351972911
  0
LINE
  5
40A
100
AcDbEntity
  8
ASSI
100
AcDbLine
 62
7
  6
CONTINUOUS
 10
7.564355192
 20
-0.334605608
 11
7.7738670362
 21
-0.3358700172
  0
LINE
  5
40B
100
AcDbEntity
  8
RACCORDO
100
AcDbLine
 62
7
  6
CONTINUOUS
 10
7.6801409187
 20
-0.3351972911
 11
7.9125929163
 21
-0.337269177
  0
LINE
  5
40C
100
AcDbEntity
  8
ASSI
100
AcDbLine
 62
7
  6
CONTINUOUS
 10
7.7738670362
 20
-0.3358700172
 11
7.9621385636
 21
-0.337906771
  0
LINE
  5
40D
100
AcDbEntity
  8
RACCORDO
100
AcDbLine
 62
7
  6
CONTINUOUS
 10
7.9125929163
 20
-0.337269177
 11
8.0452612824
 21
-0.3391824423
  0
LINE
  5
40E
100
AcDbEntity
  8
ASSI
100
AcDbLine
 62
7
  6
CONTINUOUS
 10
7.9621385636
 20
-0.337906771
 11
8.0713378899
 21
-0.339647793
  0
LWPOLYLINE
  5
40F
100
AcDbEntity
  8
RACCORDO
100
AcDbPolyline
 62
7
  6
CONTINUOUS
 90
10
 70
0
 10
-8.0268435446
 20
0.3388927471
 10
-8.1038132905
 20
0.3402774076
 10
-8.1571849287
 20
0.3414643844
 10
-8.2043131134
 20
0.3427244033
 10
-8.2452104977
 20
0.3440679245
 10
-8.2798644285
 20
0.3454844878
 10
-8.307173863
 20
0.3469237435
 10
-8.3267717871
 20
0.3483689084
 10
-8.339025215
 20
0.3498367656
 10
-8.3439341466
 20
0.3513273152
  0
LINE
  5
410
100
AcDbEntity
  8
ASSI
100
AcDbLine
 62
7
  6
CONTINUOUS
 10
-8.0268523371
 20
0.3388845124
 11
-8.1200188821
 21
0.3406155986
  0
LWPOLYLINE
  5
411
100
AcDbEntity
  8
RACCORDO
100
AcDbPolyline
 62
7
  6
CONTINUOUS
 90
9
 70
0
 10
8.0452612824
 20
-0.3391824423
 10
8.1571849287
 20
-0.3414643844
 10
8.2043131134
 20
-0.3427244033
 10
8.2452104977
 20
-0.3440679245
 10
8.2798644285
 20
-0.3454844878
 10
8.307173863
 20
-0.3469237435
 10
8.3267717871
 20
-0.3483689084
 10
8.339025215
 20
-0.3498367656
 10
8.3439341466
 20
-0.3513273152
  0
LWPOLYLINE
  5
412
100
AcDbEntity
  8
ASSI
100
AcDbPolyline
 62
7
  6
CONTINUOUS
 90
10
 70
0
 10
8.0713378899
 20
-0.339647793
 10
8.1644016546
 20
-0.3416443136
 10
8.2045541566
 20
-0.3427329858
 10
8.2398267657
 20
-0.3438640408
 10
8.2701418773
 20
-0.3450382109
 10
8.295577096
 20
-0.3462547638
 10
8.3157156132
 20
-0.3474939279
 10
8.3304184925
 20
-0.3487491125
 10
8.3398246704
 20
-0.3500269083
 10
8.3439341466
 20
-0.3513273152
  0
LWPOLYLINE
  5
413
100
AcDbEntity
  8
ASSI
100
AcDbPolyline
 62
7
  6
CONTINUOUS
 90
9
 70
0
 10
-8.1200188821
 20
0.3406155986
 10
-8.2045541566
 20
0.3427329858
 10
-8.2398267657
 20
0.3438640408
 10
-8.2701418773
 20
0.3450382109
 10
-8.295577096
 20
0.3462547638
 10
-8.3157156132
 20
0.3474939279
 10
-8.3304184925
 20
0.3487491125
 10
-8.3398246704
 20
0.3500269083
 10
-8.3439341466
 20
0.3513273152
  0
LWPOLYLINE
  5
414
100
AcDbEntity
  8
0
100
AcDbPolyline
 62
7
  6
CONTINUOUS
 90
10
 70
0
 10
-5.4545664281
 20
0.716349215
 10
-5.4064969877
 20
0.7119855591
 10
-5.3588700866
 20
0.7069234031
 10
-5.3116857246
 20
0.7011632517
 10
-5.2649219287
 20
0.6946918011
 10
-5.218600672
 20
0.6875250615
 10
-5.1727878736
 20
0.6797084731
 10
-5.1275055065
 20
0.6712597975
 10
-5.0827315978
 20
0.6621693897
 10
-5.0384661473
 20
0.6524433158
  0
LINE
  5
415
100
AcDbEntity
  8
ASSI
100
AcDbLine
 62
7
  6
CONTINUOUS
 10
6.9712561167
 20
-21.2139629885
 11
6.9576125104
 21
-21.1771527675
  0
LINE
  5
416
100
AcDbEntity
  8
DRAFT
100
AcDbLine
 62
7
  6
CONTINUOUS
 10
6.9712561167
 20
-21.2139629885
 11
6.9576125104
 21
-21.1771527675
  0
LINE
  5
417
100
AcDbEntity
  8
0
100
AcDbLine
 62
7
  6
CONTINUOUS
 10
0.0000685132
 20
16.9644476203
 11
-0.0000341822
 21
16.9670604466
  0
LWPOLYLINE
  5
418
100
AcDbEntity
  8
0
100
AcDbPolyline
 62
7
  6
CONTINUOUS
 90
22
 70
0
 10
2.0
 20
-3.467014648
 10
1.9946314078
 20
-3.3221198885
 10
1.9781092539
 20
-3.1749973313
 10
1.9505334392
 20
-3.0295255407
 10
1.9120659647
 20
-2.8865048558
 10
1.8629322713
 20
-2.7467363208
 10
1.8033871802
 20
-2.6109506911
 10
1.7337296604
 20
-2.4798539204
 10
1.6543658771
 20
-2.3542323748
 10
1.5658023962
 20
-2.2348908681
 10
1.4686560298
 20
-2.1225957856
 10
1.3633938419
 20
-2.0178282404
 10
1.2503307632
 20
-1.9209488349
 10
1.1299275687
 20
-1.8324545734
 10
1.0029381017
 20
-1.7529945104
 10
0.8701414928
 20
-1.6831303161
 10
0.7321206715
 20
-1.6232319447
 10
0.5897820259
 20
-1.5737494392
 10
0.4444960906
 20
-1.5351395893
 10
0.2973028762
 20
-1.5075627507
 10
0.1488580055
 20
-1.4910208899
 10
-0.0
 20
-1.4855142772
  0
LWPOLYLINE
  5
419
100
AcDbEntity
  8
0
100
AcDbPolyline
 62
250
  6
CONTINUOUS
 90
4
 70
0
 10
-0.0000000152
 20
13.0077180293
 10
0.0001439513
 20
13.0017673464
 10
0.0002379518
 20
12.9958677443
 10
0.0002927955
 20
12.9899901372
  0
LINE
  5
41A
100
AcDbEntity
  8
0
100
AcDbLine
 62
7
  6
CONTINUOUS
 10
0.4
 20
-3.5164845712
 11
0.4
 21
-4.7519989052
  0
LINE
  5
41B
100
AcDbEntity
  8
0
100
AcDbLine
 62
7
  6
CONTINUOUS
 10
0.7334544324
 20
7.5365524313
 11
0.7334544324
 21
9.2818704993
  0
LINE
  5
41C
100
AcDbEntity
  8
0
100
AcDbLine
 62
7
  6
CONTINUOUS
 10
0.9230095943
 20
-3.2691197763
 11
0.9230095943
 21
-3.2356005037
  0
LINE
  5
41D
100
AcDbEntity
  8
0
100
AcDbLine
 62
7
  6
CONTINUOUS
 10
1.0117907053
 20
9.2818704993
 11
1.0117907053
 21
7.5365524313
  0
LINE
  5
41E
100
AcDbEntity
  8
0
100
AcDbLine
 62
7
  6
CONTINUOUS
 10
1.6443731437
 20
9.2818704993
 11
1.6443731437
 21
9.5095206821
  0
LWPOLYLINE
  5
41F
100
AcDbEntity
  8
0
100
AcDbPolyline
 62
7
  6
CONTINUOUS
 90
4
 70
0
 10
0.4
 20
-3.5164845712
 10
0.401526228
 20
-3.4900560475
 10
0.405629588
 20
-3.4645001142
 10
0.41231008
 20
-3.4398168561
  0
LINE
  5
420
100
AcDbEntity
  8
ASSI
100
AcDbLine
 62
7
  6
CONTINUOUS
 10
-6.9712561167
 20
-21.2139629885
 11
-6.9576125104
 21
-21.1771527675
  0
LINE
  5
421
100
AcDbEntity
  8
DRAFT
100
AcDbLine
 62
7
  6
CONTINUOUS
 10
-6.9712561167
 20
-21.2139629885
 11
-6.9576125104
 21
-21.1771527675
  0
LWPOLYLINE
  5
422
100
AcDbEntity
  8
0
100
AcDbPolyline
 62
7
  6
CONTINUOUS
 90
13
 70
0
 10
0.41231008
 20
-3.4398168561
 10
0.4216996997
 20
-3.415769258
 10
0.4336664515
 20
-3.3925944824
 10
0.4478143484
 20
-3.3710039387
 10
0.4642044498
 20
-3.3510439658
 10
0.4827756965
 20
-3.3326684744
 10
0.5029489232
 20
-3.3164503171
 10
0.5247707613
 20
-3.3024500761
 10
0.5481945795
 20
-3.2906074147
 10
0.5725013184
 20
-3.2813138366
 10
0.5974512915
 20
-3.2746999005
 10
0.6232841854
 20
-3.2706352009
 10
0.65
 20
-3.2691197763
  0
LWPOLYLINE
  5
423
100
AcDbEntity
  8
0
100
AcDbPolyline
 62
7
  6
CONTINUOUS
 90
10
 70
0
 10
-3.858875773
 20
-4.1897090913
 10
-3.8210574107
 20
-4.1524407792
 10
-3.7840214848
 20
-4.1144540778
 10
-3.7477679954
 20
-4.0757489871
 10
-3.7122829564
 20
-4.0363093225
 10
-3.6775803539
 20
-3.9961512686
 10
-3.6437021457
 20
-3.9553233794
 10
-3.6106623179
 20
-3.9138418395
 10
-3.5784468844
 20
-3.8716904643
 10
-3.5470558453
 20
-3.8288692539
  0
LWPOLYLINE
  5
424
100
AcDbEntity
  8
0
100
AcDbPolyline
 62
7
  6
CONTINUOUS
 90
3
 70
0
 10
-3.858875773
 20
-4.2066864023
 10
-3.9963151362
 20
-4.330459641
 10
-4.1420546808
 20
-4.4443451906
  0
LWPOLYLINE
  5
425
100
AcDbEntity
  8
0
100
AcDbPolyline
 62
7
  6
CONTINUOUS
 90
10
 70
0
 10
-4.2303318655
 20
-4.4888190873
 10
-4.186445057
 20
-4.4589323415
 10
-4.1431992302
 20
-4.4281986092
 10
-4.1005943851
 20
-4.3966178904
 10
-4.0586138609
 20
-4.3641767692
 10
-4.0172743184
 20
-4.3308886616
 10
-3.9766257401
 20
-4.2967938153
 10
-3.9366847869
 20
-4.261905646
 10
-3.8974347978
 20
-4.2262107381
 10
-3.858875773
 20
-4.1897090913
  0
LWPOLYLINE
  5
426
100
AcDbEntity
  8
0
100
AcDbPolyline
 62
7
  6
CONTINUOUS
 90
33
 70
0
 10
-4.1420546808
 20
-4.4443451906
 10
-4.2953843784
 20
-4.547788212
 10
-4.4555572221
 20
-4.6402847412
 10
-4.621792866
 20
-4.7213841445
 10
-4.7932814266
 20
-4.7906913137
 10
-4.969187429
 20
-4.8478685913
 10
-5.1486538767
 20
-4.8926374152
 10
-5.3308064274
 20
-4.9247796764
 10
-5.514757652
 20
-4.9441387809
 10
-5.6996113587
 20
-4.9506204131
 10
-5.8844669589
 20
-4.9441929951
 10
-6.0684238545
 20
-4.9248878408
 10
-6.2505858262
 20
-4.8927990028
 10
-6.4300653991
 20
-4.8480828147
 10
-6.6059881667
 20
-4.7909571294
 10
-6.7774970511
 20
-4.7217002575
 10
-6.9437564781
 20
-4.6406496113
 10
-7.1039564486
 20
-4.5482000616
 10
-7.2573164844
 20
-4.4448020133
 10
-7.4030894309
 20
-4.3309592112
 10
-7.5405650968
 20
-4.2072262861
 10
-7.6690737146
 20
-4.0742060523
 10
-7.7879892031
 20
-3.932546571
 10
-7.8967322182
 20
-3.782937993
 10
-7.9947729747
 20
-3.6261091962
 10
-8.081633828
 20
-3.4628242348
 10
-8.1568916006
 20
-3.2938786166
 10
-8.2201796443
 20
-3.1200954279
 10
-8.2711896261
 20
-2.9423213227
 10
-8.3096730306
 20
-2.7614223986
 10
-8.3354423703
 20
-2.5782799771
 10
-8.3483720997
 20
-2.3937863096
 10
-8.35
 20
-2.3009249102
  0
LINE
  5
427
100
AcDbEntity
  8
0
100
AcDbLine
 62
7
  6
CONTINUOUS
 10
3.75
 20
2.3801404544
 11
3.8000004744
 21
2.3930863009
  0
LINE
  5
428
100
AcDbEntity
  8
0
100
AcDbLine
 62
7
  6
CONTINUOUS
 10
-3.8000004744
 20
1.5978596124
 11
-4.600000476
 21
1.5293327785
  0
LWPOLYLINE
  5
429
100
AcDbEntity
  8
0
100
AcDbPolyline
 62
7
  6
CONTINUOUS
 90
46
 70
0
 10
-5.7
 20
0.6252520732
 10
-5.9060075566
 20
0.6178636207
 10
-6.1091497949
 20
0.5965026222
 10
-6.3094267151
 20
0.5611690775
 10
-6.5078539763
 20
0.5115315857
 10
-6.7034159192
 20
0.4479215477
 10
-6.8930655664
 20
0.3713331671
 10
-7.0766951205
 20
0.2815131083
 10
-7.2544123789
 20
0.1787147067
 10
-7.4234937555
 20
0.0646921719
 10
-7.5835617074
 20
-0.0604371827
 10
-7.7349937775
 20
-0.1967906705
 10
-7.8761990088
 20
-0.3429660223
 10
-8.0073611099
 20
-0.4994046067
 10
-8.1282963722
 20
-0.665665055
 10
-8.2368627125
 20
-0.8390209925
 10
-8.3327475226
 20
-1.0195220182
 10
-8.4162634106
 20
-1.2071185332
 10
-8.4862061178
 20
-1.3989353654
 10
-8.5423435684
 20
-1.5949758993
 10
-8.584907838
 20
-1.7952367505
 10
-8.6133908952
 20
-1.9968325934
 10
-8.6276065509
 20
-2.1997388619
 10
-8.6277409942
 20
-2.403980122
 10
-8.6138447604
 20
-2.6067447464
 10
-8.5857473861
 20
-2.808020079
 10
-8.5436193348
 20
-3.0078187758
 10
-8.4880225324
 20
-3.203367178
 10
-8.4187774936
 20
-3.394631894
 10
-8.3360637037
 20
-3.5816463153
 10
-8.2409815442
 20
-3.7617369573
 10
-8.1332445433
 20
-3.9349056137
 10
-8.0131391729
 20
-4.1011504907
 10
-7.8826252302
 20
-4.257792723
 10
-7.7418389723
 20
-4.4044567342
 10
-7.5906441422
 20
-4.5415181008
 10
-7.430591766
 20
-4.6674246863
 10
-7.2612717714
 20
-4.7822910317
 10
-7.0830942307
 20
-4.886002596
 10
-6.8988403878
 20
-4.9766636202
 10
-6.7083735266
 20
-5.0539981732
 10
-6.5118303632
 20
-5.1182821861
 10
-6.3124022896
 20
-5.1684476937
 10
-6.1111531032
 20
-5.2041387075
 10
-5.9070190067
 20
-5.2257112159
 10
-5.7
 20
-5.233165219
  0
LWPOLYLINE
  5
42A
100
AcDbEntity
  8
0
100
AcDbPolyline
 62
7
  6
CONTINUOUS
 90
22
 70
0
 10
-5.699999994
 20
1.2087630065
 10
-5.8257130038
 20
1.2064821912
 10
-6.0290768084
 20
1.1931327798
 10
-6.2319225465
 20
1.1679029448
 10
-6.4330860841
 20
1.130800076
 10
-6.6318482462
 20
1.0819273989
 10
-6.8276637831
 20
1.0213483154
 10
-7.019984792
 20
0.9491716042
 10
-7.2091231816
 20
0.8651426
 10
-7.3927479035
 20
0.7701914854
 10
-7.5693418533
 20
0.6652040429
 10
-7.7388802042
 20
0.5504254219
 10
-7.9011890332
 20
0.4260857464
 10
-8.0560492884
 20
0.2923325051
 10
-8.2033192438
 20
0.1492159184
 10
-8.3412997795
 20
-0.0015141813
 10
-8.4696499748
 20
-0.1593406504
 10
-8.5880937727
 20
-0.3236661263
 10
-8.6966842242
 20
-0.4942783133
 10
-8.795353121
 20
-0.6711155652
 10
-8.8838267369
 20
-0.8538253126
 10
-8.930541589
 20
-0.9627432555
  0
LINE
  5
42B
100
AcDbEntity
  8
ASSI
100
AcDbLine
 62
7
  6
CONTINUOUS
 10
7.9621385636
 20
0.337906771
 11
7.7738670362
 21
0.3358700172
  0
LINE
  5
42C
100
AcDbEntity
  8
RACCORDO
100
AcDbLine
 62
7
  6
CONTINUOUS
 10
7.9815172843
 20
0.3381798039
 11
7.7619047335
 21
0.3357779206
  0
LWPOLYLINE
  5
42D
100
AcDbEntity
  8
RACCORDO
100
AcDbPolyline
 62
7
  6
CONTINUOUS
 90
3
 70
0
 10
7.7619047335
 20
0.3357779206
 10
7.5139475076
 20
0.3344272765
 10
7.5
 20
0.3343959907
  0
LINE
  5
42E
100
AcDbEntity
  8
ASSI
100
AcDbLine
 62
7
  6
CONTINUOUS
 10
7.7738670362
 20
0.3358700172
 11
7.5
 21
0.3343956761
  0
LINE
  5
42F
100
AcDbEntity
  8
ASSI
100
AcDbLine
 62
7
  6
CONTINUOUS
 10
9.6761825974
 20
0.3341768832
 11
7.5
 21
0.3341768832
  0
LINE
  5
430
100
AcDbEntity
  8
DRAFT
100
AcDbLine
 62
7
  6
CONTINUOUS
 10
9.6761825974
 20
0.3341768832
 11
7.5
 21
0.3341768832
  0
LINE
  5
431
100
AcDbEntity
  8
ASSI
100
AcDbLine
 62
7
  6
CONTINUOUS
 10
-8.0318787994
 20
0.3341768832
 11
-9.6761825974
 21
0.3341768832
  0
LINE
  5
432
100
AcDbEntity
  8
DRAFT
100
AcDbLine
 62
7
  6
CONTINUOUS
 10
-8.0318787994
 20
0.3341768832
 11
-9.6761825974
 21
0.3341768832
  0
LINE
  5
433
100
AcDbEntity
  8
ASSI
100
AcDbLine
 62
7
  6
CONTINUOUS
 10
9.5103594806
 20
0.5
 11
8.4852813742
 21
0.5
  0
LINE
  5
434
100
AcDbEntity
  8
DRAFT
100
AcDbLine
 62
7
  6
CONTINUOUS
 10
9.5103594806
 20
0.5
 11
8.4852813742
 21
0.5
  0
LINE
  5
435
100
AcDbEntity
  8
ASSI
100
AcDbLine
 62
7
  6
CONTINUOUS
 10
-9.5103594806
 20
0.5
 11
-8.4852813742
 21
0.5
  0
LINE
  5
436
100
AcDbEntity
  8
DRAFT
100
AcDbLine
 62
7
  6
CONTINUOUS
 10
-9.5103594806
 20
0.5
 11
-8.4852813742
 21
0.5
  0
LINE
  5
437
100
AcDbEntity
  8
0
100
AcDbLine
 62
250
  6
CONTINUOUS
 10
-5.0384661473
 20
0.6524433158
 11
-3.7399708713
 21
0.6524433158
  0
LINE
  5
438
100
AcDbEntity
  8
0
100
AcDbLine
 62
7
  6
CONTINUOUS
 10
-5.7
 20
1.2087682351
 11
-3.7497872859
 21
1.2087682351
  0
LINE
  5
439
100
AcDbEntity
  8
0
100
AcDbLine
 62
7
  6
CONTINUOUS
 10
-5.7000007125
 20
1.2254330435
 11
-4.600000476
 21
1.2254330435
  0
LINE
  5
43A
100
AcDbEntity
  8
0
100
AcDbLine
 62
250
  6
CONTINUOUS
 10
-3.8000004559
 20
1.8189149054
 11
-3.8761750752
 21
1.8192276123
  0
LWPOLYLINE
  5
43B
100
AcDbEntity
  8
0
100
AcDbPolyline
 62
7
  6
CONTINUOUS
 90
10
 70
0
 10
-5.7
 20
0.7264813971
 10
-5.6729261122
 20
0.72635779
 10
-5.6457994047
 20
0.7259841208
 10
-5.6186198776
 20
0.7253603703
 10
-5.5913826076
 20
0.724487057
 10
-5.5640925179
 20
0.7233635927
 10
-5.5367643781
 20
0.7219882854
 10
-5.5094031115
 20
0.7203605394
 10
-5.4820037948
 20
0.7184808604
 10
-5.4545664281
 20
0.716349215
  0
LINE
  5
43C
100
AcDbEntity
  8
0
100
AcDbLine
 62
7
  6
CONTINUOUS
 10
-3.75
 20
2.3801404544
 11
-3.800000475
 21
2.3930863011
  0
LINE
  5
43D
100
AcDbEntity
  8
ASSI
100
AcDbLine
 62
7
  6
CONTINUOUS
 10
-6.9712561167
 20
21.2139629885
 11
-6.9576125104
 21
21.1771527675
  0
LINE
  5
43E
100
AcDbEntity
  8
DRAFT
100
AcDbLine
 62
7
  6
CONTINUOUS
 10
-6.9712561167
 20
21.2139629885
 11
-6.9576125104
 21
21.1771527675
  0
LINE
  5
43F
100
AcDbEntity
  8
ASSI
100
AcDbLine
 62
7
  6
CONTINUOUS
 10
2.8272050914
 20
19.6414213562
 11
2.8366556363
 21
19.1
  0
LINE
  5
440
100
AcDbEntity
  8
SMUSSO
100
AcDbLine
 62
7
  6
CONTINUOUS
 10
2.8136015098
 20
19.6414213562
 11
2.8183264224
 21
19.1
  0
LINE
  5
441
100
AcDbEntity
  8
ASSI
100
AcDbLine
 62
7
  6
CONTINUOUS
 10
3.0983838146
 20
-21.349698412
 11
3.1
 21
-22.4
  0
LINE
  5
442
100
AcDbEntity
  8
RACCORDO
100
AcDbLine
 62
7
  6
CONTINUOUS
 10
3.0983838146
 20
-21.349698412
 11
3.1
 21
-22.4
  0
LINE
  5
443
100
AcDbEntity
  8
0
100
AcDbLine
 62
250
  6
CONTINUOUS
 10
2.15000025
 20
19.5
 11
2.15000025
 21
18.8827984638
  0
LINE
  5
444
100
AcDbEntity
  8
0
100
AcDbLine
 62
250
  6
CONTINUOUS
 10
2.15000025
 20
-18.8827984638
 11
2.15000025
 21
-19.5
  0
LINE
  5
445
100
AcDbEntity
  8
0
100
AcDbLine
 62
7
  6
CONTINUOUS
 10
2.2
 20
6.8950543263
 11
2.2
 21
10.1921157854
  0
LINE
  5
446
100
AcDbEntity
  8
0
100
AcDbLine
 62
7
  6
CONTINUOUS
 10
2.40000025
 20
19.5
 11
2.40000025
 21
18.9320750066
  0
LINE
  5
447
100
AcDbEntity
  8
0
100
AcDbLine
 62
7
  6
CONTINUOUS
 10
2.40000025
 20
-18.9320750066
 11
2.40000025
 21
-19.5
  0
LINE
  5
448
100
AcDbEntity
  8
ASSI
100
AcDbLine
 62
7
  6
CONTINUOUS
 10
3.0983838146
 20
21.349698412
 11
3.1
 21
22.4
  0
LINE
  5
449
100
AcDbEntity
  8
RACCORDO
100
AcDbLine
 62
7
  6
CONTINUOUS
 10
3.0983838146
 20
21.349698412
 11
3.1
 21
22.4
  0
LINE
  5
44A
100
AcDbEntity
  8
0
100
AcDbLine
 62
7
  6
CONTINUOUS
 10
3.7350019726
 20
11.4396417062
 11
3.7337002764
 21
11.2052364027
  0
LINE
  5
44B
100
AcDbEntity
  8
ASSI
100
AcDbLine
 62
7
  6
CONTINUOUS
 10
2.8183264224
 20
-19.1
 11
2.8136015098
 21
-19.6414213562
  0
LINE
  5
44C
100
AcDbEntity
  8
0
100
AcDbLine
 62
7
  6
CONTINUOUS
 10
3.7406125056
 20
11.1478434192
 11
3.7416711835
 21
11.3056605562
  0
LINE
  5
44D
100
AcDbEntity
  8
0
100
AcDbLine
 62
7
  6
CONTINUOUS
 10
3.7373221373
 20
11.6459552753
 11
3.7350019726
 21
11.4396417062
  0
LINE
  5
44E
100
AcDbEntity
  8
0
100
AcDbLine
 62
7
  6
CONTINUOUS
 10
3.7416711835
 20
11.3056605562
 11
3.7428295141
 21
11.3968302175
  0
LINE
  5
44F
100
AcDbEntity
  8
0
100
AcDbLine
 62
7
  6
CONTINUOUS
 10
3.7989497706
 20
12.3076752285
 11
3.8002587558
 21
12.4054393042
  0
LINE
  5
450
100
AcDbEntity
  8
SMUSSO
100
AcDbLine
 62
7
  6
CONTINUOUS
 10
2.8366556363
 20
-19.1
 11
2.8272050914
 21
-19.6414213562
  0
LWPOLYLINE
  5
451
100
AcDbEntity
  8
0
100
AcDbPolyline
 62
7
  6
CONTINUOUS
 90
8
 70
0
 10
3.7428295141
 20
11.3968302175
 10
3.7443083461
 20
11.4728535498
 10
3.745150878
 20
11.5036902559
 10
3.7460591938
 20
11.5297904836
 10
3.7470014484
 20
11.5500780581
 10
3.7479670268
 20
11.5641942545
 10
3.748966544
 20
11.5724977977
 10
3.7498499654
 20
11.5749885957
  0
LWPOLYLINE
  5
452
100
AcDbEntity
  8
0
100
AcDbPolyline
 62
7
  6
CONTINUOUS
 90
13
 70
0
 10
4.6000004734
 20
11.5290748273
 10
4.5980587316
 20
11.5072802957
 10
4.5941863674
 20
11.4810298101
 10
4.5883833806
 20
11.4503081675
 10
4.5800586907
 20
11.4149640314
 10
4.5698033782
 20
11.3752617868
 10
4.5593906855
 20
11.3320675632
 10
4.5487898276
 20
11.2857352423
 10
4.5380315895
 20
11.2367111928
 10
4.5289815684
 20
11.1863345335
 10
4.5222616301
 20
11.135458515
 10
4.5172499087
 20
11.0843148324
 10
4.5139464043
 20
11.0333889517
  0
LWPOLYLINE
  5
453
100
AcDbEntity
  8
0
100
AcDbPolyline
 62
7
  6
CONTINUOUS
 90
21
 70
0
 10
1.9948760977
 20
-3.5750334345
 10
1.9786912719
 20
-3.7215142981
 10
1.95151005
 20
-3.8664402139
 10
1.9134343467
 20
-4.0091083253
 10
1.8646757175
 20
-4.1486157235
 10
1.8055513481
 20
-4.2840536237
 10
1.736455627
 20
-4.4145848188
 10
1.6577481358
 20
-4.5395894682
 10
1.5697743807
 20
-4.6585177649
 10
1.4730372833
 20
-4.7706613388
 10
1.3680311893
 20
-4.875422482
 10
1.2550832427
 20
-4.9724022891
 10
1.1346424041
 20
-5.0610732782
 10
1.0074421088
 20
-5.1407615333
 10
0.8742786879
 20
-5.2108858158
 10
0.7357016333
 20
-5.2710640522
 10
0.5926471192
 20
-5.3207991349
 10
0.4466174136
 20
-5.3595951289
 10
0.2987103915
 20
-5.3872928519
 10
0.1495541295
 20
-5.4039005792
 10
-0.0
 20
-5.4094226992
  0
LINE
  5
454
100
AcDbEntity
  8
0
100
AcDbLine
 62
250
  6
CONTINUOUS
 10
4.5999281232
 20
12.0567186321
 11
4.6000004733
 21
12.0571491205
  0
LINE
  5
455
100
AcDbEntity
  8
ASSI
100
AcDbLine
 62
7
  6
CONTINUOUS
 10
-3.9733373476
 20
-23.5
 11
-3.9630152422
 21
-23.4650925288
  0
LINE
  5
456
100
AcDbEntity
  8
DRAFT
100
AcDbLine
 62
7
  6
CONTINUOUS
 10
-3.9733373476
 20
-23.5
 11
-3.9630152422
 21
-23.4650925288
  0
LINE
  5
457
100
AcDbEntity
  8
ASSI
100
AcDbLine
 62
7
  6
CONTINUOUS
 10
-3.0104834329
 20
-22.3955695989
 11
-2.6848155072
 21
-21.3292298715
  0
LINE
  5
458
100
AcDbEntity
  8
RACCORDO
100
AcDbLine
 62
7
  6
CONTINUOUS
 10
-2.6848155072
 20
-21.3292298715
 11
-3.0104834329
 21
-22.3955695989
  0
LWPOLYLINE
  5
459
100
AcDbEntity
  8
ASSI
100
AcDbPolyline
 62
7
  6
CONTINUOUS
 90
8
 70
0
 10
8.3439341466
 20
0.3513273152
 10
8.3398246704
 20
0.3500269083
 10
8.3304184925
 20
0.3487491125
 10
8.3157156132
 20
0.3474939279
 10
8.295577096
 20
0.3462547638
 10
8.2701418773
 20
0.3450382109
 10
8.2398267657
 20
0.3438640408
 10
8.2045541566
 20
0.3427329858
  0
LWPOLYLINE
  5
45A
100
AcDbEntity
  8
RACCORDO
100
AcDbPolyline
 62
7
  6
CONTINUOUS
 90
8
 70
0
 10
8.3439341466
 20
0.3513273152
 10
8.339025215
 20
0.3498367656
 10
8.3267717871
 20
0.3483689084
 10
8.307173863
 20
0.3469237435
 10
8.2798644285
 20
0.3454844878
 10
8.2452104977
 20
0.3440679245
 10
8.2043131134
 20
0.3427244033
 10
8.1571849287
 20
0.3414643844
  0
LINE
  5
45B
100
AcDbEntity
  8
0
100
AcDbLine
 62
7
  6
CONTINUOUS
 10
-3.9397900087
 20
1.8062057084
 11
-3.8000004695
 21
1.8189148455
  0
LINE
  5
45C
100
AcDbEntity
  8
0
100
AcDbLine
 62
7
  6
CONTINUOUS
 10
-3.8000004737
 20
3.4448685116
 11
-3.75
 21
3.4448685116
  0
LINE
  5
45D
100
AcDbEntity
  8
0
100
AcDbLine
 62
7
  6
CONTINUOUS
 10
3.8000004744
 20
3.4446063133
 11
3.75
 21
3.4450277927
  0
LINE
  5
45E
100
AcDbEntity
  8
RACCORDO
100
AcDbLine
 62
7
  6
CONTINUOUS
 10
-3.0104834329
 20
22.3955695989
 11
-2.6848155072
 21
21.3292298715
  0
LINE
  5
45F
100
AcDbEntity
  8
ASSI
100
AcDbLine
 62
7
  6
CONTINUOUS
 10
-2.6848155072
 20
21.3292298715
 11
-3.0104834329
 21
22.3955695989
  0
LINE
  5
460
100
AcDbEntity
  8
ASSI
100
AcDbLine
 62
7
  6
CONTINUOUS
 10
-3.9733373476
 20
23.5
 11
-3.9630152422
 21
23.4650925288
  0
LINE
  5
461
100
AcDbEntity
  8
DRAFT
100
AcDbLine
 62
7
  6
CONTINUOUS
 10
-3.9733373476
 20
23.5
 11
-3.9630152422
 21
23.4650925288
  0
LWPOLYLINE
  5
462
100
AcDbEntity
  8
0
100
AcDbPolyline
 62
7
  6
CONTINUOUS
 90
7
 70
0
 10
3.8000080497
 20
12.1242718855
 10
3.8012929352
 20
12.1085976325
 10
3.8023934965
 20
12.0926425475
 10
3.8033097307
 20
12.0764067013
 10
3.8040416349
 20
12.05989018
 10
3.8045892059
 20
12.0430930868
 10
3.8049524402
 20
12.0260155426
  0
LWPOLYLINE
  5
463
100
AcDbEntity
  8
0
100
AcDbPolyline
 62
7
  6
CONTINUOUS
 90
10
 70
0
 10
3.800000475
 20
12.7792830394
 10
3.798816813
 20
12.8012121679
 10
3.7990645085
 20
12.8241313961
 10
3.8000094849
 20
12.8479411965
 10
3.8004591603
 20
12.8724881475
 10
3.80012546
 20
12.8977249204
 10
3.8000198019
 20
12.9237638323
 10
3.8004304297
 20
12.9506356926
 10
3.8005274268
 20
12.9782362507
 10
3.8000004715
 20
13.0065234327
  0
LINE
  5
464
100
AcDbEntity
  8
ASSI
100
AcDbLine
 62
7
  6
CONTINUOUS
 10
3.4452396157
 20
21.2139629885
 11
3.3821231691
 21
22.4
  0
LINE
  5
465
100
AcDbEntity
  8
DRAFT
100
AcDbLine
 62
7
  6
CONTINUOUS
 10
3.4452396157
 20
21.2139629885
 11
3.3821231691
 21
22.4
  0
LWPOLYLINE
  5
466
100
AcDbEntity
  8
0
100
AcDbPolyline
 62
7
  6
CONTINUOUS
 90
6
 70
0
 10
4.6403902638
 20
10.5531855551
 10
4.6387088807
 20
10.58508373
 10
4.6371543722
 20
10.6219233763
 10
4.6357227337
 20
10.6635481926
 10
4.6344601542
 20
10.7086126522
 10
4.6333721594
 20
10.7572294322
  0
LWPOLYLINE
  5
467
100
AcDbEntity
  8
0
100
AcDbPolyline
 62
250
  6
CONTINUOUS
 90
19
 70
0
 10
4.6000004736
 20
16.0129554133
 10
4.5973334927
 20
16.0760606581
 10
4.589351514
 20
16.1387174067
 10
4.5761113002
 20
16.2004800403
 10
4.5577070101
 20
16.2609093991
 10
4.5342695297
 20
16.3195756104
 10
4.5059655418
 20
16.3760611449
 10
4.4729963395
 20
16.42996418
 10
4.4355963952
 20
16.4809014542
 10
4.394031695
 20
16.5285106979
 10
4.3485978433
 20
16.5724533127
 10
4.2996179626
 20
16.6124167765
 10
4.2474403983
 20
16.6481168646
 10
4.1924362399
 20
16.6792997275
 10
4.134996671
 20
16.7057435402
 10
4.0755301889
 20
16.7272600749
 10
4.0144597134
 20
16.7436962468
 10
3.9522195802
 20
16.7549352063
 10
3.8892524408
 20
16.7608970125
  0
LWPOLYLINE
  5
468
100
AcDbEntity
  8
0
100
AcDbPolyline
 62
7
  6
CONTINUOUS
 90
6
 70
0
 10
3.7991605197
 20
12.1193193865
 10
3.7981507257
 20
12.1506504251
 10
3.797535618
 20
12.1822220584
 10
3.7972980695
 20
12.2138766949
 10
3.7975655721
 20
12.2450737675
 10
3.7989497706
 20
12.3076752285
  0
LINE
  5
469
100
AcDbEntity
  8
0
100
AcDbLine
 62
7
  6
CONTINUOUS
 10
3.7451577004
 20
10.5545651294
 11
3.7437966806
 21
10.6108811373
  0
LINE
  5
46A
100
AcDbEntity
  8
0
100
AcDbLine
 62
7
  6
CONTINUOUS
 10
3.7437966806
 20
10.6108811373
 11
3.7426311015
 21
10.6790741274
  0
LINE
  5
46B
100
AcDbEntity
  8
0
100
AcDbLine
 62
7
  6
CONTINUOUS
 10
4.6333721594
 20
10.7572294322
 11
4.6317329591
 21
10.8630983653
  0
LINE
  5
46C
100
AcDbEntity
  8
0
100
AcDbLine
 62
7
  6
CONTINUOUS
 10
3.7426311015
 20
10.6790741274
 11
3.7413016166
 21
10.8002106263
  0
LINE
  5
46D
100
AcDbEntity
  8
0
100
AcDbLine
 62
7
  6
CONTINUOUS
 10
4.6317329591
 20
10.8630983653
 11
4.6309081852
 21
10.9748692716
  0
LINE
  5
46E
100
AcDbEntity
  8
0
100
AcDbLine
 62
7
  6
CONTINUOUS
 10
3.7413016166
 20
10.8002106263
 11
3.7405506479
 21
10.9369186963
  0
LWPOLYLINE
  5
46F
100
AcDbEntity
  8
0
100
AcDbPolyline
 62
7
  6
CONTINUOUS
 90
7
 70
0
 10
3.800321338
 20
12.5771414712
 10
3.7999985224
 20
12.6399739081
 10
3.8004426082
 20
12.6695211033
 10
3.8000946995
 20
12.6984976798
 10
3.7989388574
 20
12.7268522494
 10
3.7985539749
 20
12.7538330515
 10
3.8000004741
 20
12.779283038
  0
LINE
  5
470
100
AcDbEntity
  8
0
100
AcDbLine
 62
7
  6
CONTINUOUS
 10
3.75
 20
0.1246371445
 11
3.75
 21
10.4751150709
  0
LINE
  5
471
100
AcDbEntity
  8
0
100
AcDbLine
 62
7
  6
CONTINUOUS
 10
3.75
 20
11.5749886877
 11
3.75
 21
11.9734878532
  0
LINE
  5
472
100
AcDbEntity
  8
0
100
AcDbLine
 62
7
  6
CONTINUOUS
 10
3.8000004715
 20
13.0065234327
 11
3.800000475
 21
13.9915155979
  0
LINE
  5
473
100
AcDbEntity
  8
0
100
AcDbLine
 62
250
  6
CONTINUOUS
 10
3.8000006341
 20
13.9914980671
 11
3.8000020731
 21
14.5688699928
  0
LINE
  5
474
100
AcDbEntity
  8
0
100
AcDbLine
 62
7
  6
CONTINUOUS
 10
3.8892523644
 20
11.9746754845
 11
3.8892519324
 21
-1.1992351948
  0
LINE
  5
475
100
AcDbEntity
  8
0
100
AcDbLine
 62
250
  6
CONTINUOUS
 10
3.8892525897
 20
16.76089985
 11
3.8892524434
 21
17.271175089
  0
LINE
  5
476
100
AcDbEntity
  8
0
100
AcDbLine
 62
7
  6
CONTINUOUS
 10
3.8892525237
 20
14.5688813439
 11
3.8892524413
 21
16.7608941672
  0
LINE
  5
477
100
AcDbEntity
  8
0
100
AcDbLine
 62
7
  6
CONTINUOUS
 10
4.6000004733
 20
10.5046325659
 11
4.6000004753
 21
-7.4222018285
  0
LINE
  5
478
100
AcDbEntity
  8
0
100
AcDbLine
 62
7
  6
CONTINUOUS
 10
4.6000004733
 20
11.5290748266
 11
4.6000004762
 21
16.5222029381
  0
LINE
  5
479
100
AcDbEntity
  8
0
100
AcDbLine
 62
7
  6
CONTINUOUS
 10
4.65
 20
11.5749886877
 11
4.65
 21
10.5046325659
  0
LINE
  5
47A
100
AcDbEntity
  8
0
100
AcDbLine
 62
7
  6
CONTINUOUS
 10
3.8000004753
 20
-8.1758514454
 11
3.8000121284
 21
12.0260050057
  0
LINE
  5
47B
100
AcDbEntity
  8
0
100
AcDbLine
 62
250
  6
CONTINUOUS
 10
3.8892513638
 20
14.5688699928
 11
3.8892481881
 21
11.9746406602
  0
LINE
  5
47C
100
AcDbEntity
  8
0
100
AcDbLine
 62
250
  6
CONTINUOUS
 10
3.8892482246
 20
-1.1991723268
 11
3.8892524442
 21
-8.171173984
  0
LWPOLYLINE
  5
47D
100
AcDbEntity
  8
0
100
AcDbPolyline
 62
7
  6
CONTINUOUS
 90
3
 70
0
 10
3.7405506479
 20
10.9369186963
 10
3.7404574406
 20
11.0916057941
 10
3.7406125056
 20
11.1478434192
  0
LINE
  5
47E
100
AcDbEntity
  8
0
100
AcDbLine
 62
7
  6
CONTINUOUS
 10
4.6308753117
 20
11.0821120484
 11
4.6309081852
 21
10.9748692716
  0
LINE
  5
47F
100
AcDbEntity
  8
0
100
AcDbLine
 62
7
  6
CONTINUOUS
 10
3.7337002764
 20
11.2052364027
 11
3.7334573983
 21
10.9999910616
  0
LWPOLYLINE
  5
480
100
AcDbEntity
  8
0
100
AcDbPolyline
 62
7
  6
CONTINUOUS
 90
16
 70
0
 10
4.5139464043
 20
11.0333889517
 10
4.5136839769
 20
10.9894751322
 10
4.5151903359
 20
10.9450122637
 10
4.5184654813
 20
10.9003143888
 10
4.5238113647
 20
10.8555180291
 10
4.5309260345
 20
10.8112104066
 10
4.5389036359
 20
10.7683626962
 10
4.5478945067
 20
10.7273835904
 10
4.557748309
 20
10.6885134584
 10
4.5671081746
 20
10.6523429596
 10
4.5758988693
 20
10.6190578778
 10
4.5841956273
 20
10.5889076175
 10
4.5908672832
 20
10.5623694401
 10
4.595536782
 20
10.5395524079
 10
4.5985811787
 20
10.5203238267
 10
4.6000004735
 20
10.5046326635
  0
LINE
  5
481
100
AcDbEntity
  8
0
100
AcDbLine
 62
7
  6
CONTINUOUS
 10
4.63145385
 20
11.1757643294
 11
4.6308753117
 21
11.0821120484
  0
LWPOLYLINE
  5
482
100
AcDbEntity
  8
0
100
AcDbPolyline
 62
7
  6
CONTINUOUS
 90
6
 70
0
 10
3.8002587558
 20
12.4054393042
 10
3.8005430342
 20
12.4409548423
 10
3.8004120314
 20
12.4763931019
 10
3.8000123021
 20
12.5113346659
 10
3.7999956954
 20
12.5448847959
 10
3.800321338
 20
12.5771414712
  0
LINE
  5
483
100
AcDbEntity
  8
0
100
AcDbLine
 62
7
  6
CONTINUOUS
 10
4.6325971205
 20
11.2649532429
 11
4.63145385
 21
11.1757643294
  0
LINE
  5
484
100
AcDbEntity
  8
0
100
AcDbLine
 62
250
  6
CONTINUOUS
 10
4.5973334816
 20
-7.3673078264
 11
4.600000475
 21
-7.3076536306
  0
LINE
  5
485
100
AcDbEntity
  8
ASSI
100
AcDbLine
 62
7
  6
CONTINUOUS
 10
3.4452396157
 20
-21.2139629885
 11
3.3821231691
 21
-22.4
  0
LINE
  5
486
100
AcDbEntity
  8
DRAFT
100
AcDbLine
 62
7
  6
CONTINUOUS
 10
3.4452396157
 20
-21.2139629885
 11
3.3821231691
 21
-22.4
  0
LWPOLYLINE
  5
487
100
AcDbEntity
  8
0
100
AcDbPolyline
 62
7
  6
CONTINUOUS
 90
7
 70
0
 10
4.6403110314
 20
11.5039257761
 10
4.6389106581
 20
11.4787055926
 10
4.6375881109
 20
11.4499608447
 10
4.6363692342
 20
11.4183298298
 10
4.6352563792
 20
11.383782514
 10
4.6342471945
 20
11.3463489312
 10
4.6325971205
 20
11.2649532429
  0
LINE
  5
488
100
AcDbEntity
  8
0
100
AcDbLine
 62
250
  6
CONTINUOUS
 10
-4.5999615548
 20
3.8875955678
 11
-4.5972739723
 21
3.8875604327
  0
LINE
  5
489
100
AcDbEntity
  8
0
100
AcDbLine
 62
7
  6
CONTINUOUS
 10
-3.8762156526
 20
3.8623204556
 11
-3.7999999531
 21
3.8596590592
  0
LWPOLYLINE
  5
48A
100
AcDbEntity
  8
0
100
AcDbPolyline
 62
250
  6
CONTINUOUS
 90
3
 70
0
 10
-4.5972739723
 20
3.8875604327
 10
-4.5759698023
 20
3.8867429604
 10
-3.8762156526
 20
3.8623204556
  0
LWPOLYLINE
  5
48B
100
AcDbEntity
  8
0
100
AcDbPolyline
 62
7
  6
CONTINUOUS
 90
16
 70
0
 10
-2.40000025
 20
18.9320750066
 10
-2.3986255048
 20
18.9284406181
 10
-2.3945078402
 20
18.9244655937
 10
-2.3876799646
 20
18.9201650131
 10
-2.3782000925
 20
18.9154159473
 10
-2.3661639966
 20
18.910370794
 10
-2.3517155436
 20
18.9054568089
 10
-2.3350044689
 20
18.9006981669
 10
-2.3162236317
 20
18.8960957412
 10
-2.295647275
 20
18.8920392041
 10
-2.2735120271
 20
18.8885695901
 10
-2.2500811441
 20
18.8856616758
 10
-2.2257219137
 20
18.8836011098
 10
-2.2007520182
 20
18.8824835057
 10
-2.1754198921
 20
18.8822161896
 10
-2.15000025
 20
18.8827984638
  0
LWPOLYLINE
  5
48C
100
AcDbEntity
  8
0
100
AcDbPolyline
 62
7
  6
CONTINUOUS
 90
3
 70
0
 10
4.6440634373
 20
10.504621337
 10
4.6421945169
 20
10.5260725501
 10
4.6403902638
 20
10.5531855551
  0
LINE
  5
48D
100
AcDbEntity
  8
ASSI
100
AcDbLine
 62
7
  6
CONTINUOUS
 10
7.2322076372
 20
-20.9330083283
 11
7.2084845302
 21
-20.1483339502
  0
LINE
  5
48E
100
AcDbEntity
  8
DRAFT
100
AcDbLine
 62
7
  6
CONTINUOUS
 10
7.2322076372
 20
-20.9330083283
 11
7.2084845302
 21
-20.1483339502
  0
LINE
  5
48F
100
AcDbEntity
  8
ASSI
100
AcDbLine
 62
7
  6
CONTINUOUS
 10
6.0830351795
 20
19.1
 11
6.0856534392
 21
18.95
  0
LINE
  5
490
100
AcDbEntity
  8
0
100
AcDbLine
 62
250
  6
CONTINUOUS
 10
6.5871557427
 20
17.8325
 11
6.5871557427
 21
-17.8325
  0
LINE
  5
491
100
AcDbEntity
  8
DRAFT
100
AcDbLine
 62
7
  6
CONTINUOUS
 10
6.0830351795
 20
-19.1
 11
6.0856534392
 21
-18.95
  0
LINE
  5
492
100
AcDbEntity
  8
ASSI
100
AcDbLine
 62
7
  6
CONTINUOUS
 10
7.2322076372
 20
20.9330083283
 11
7.2084845302
 21
20.1483339502
  0
LINE
  5
493
100
AcDbEntity
  8
DRAFT
100
AcDbLine
 62
7
  6
CONTINUOUS
 10
7.2322076372
 20
20.9330083283
 11
7.2084845302
 21
20.1483339502
  0
LINE
  5
494
100
AcDbEntity
  8
RACCORDO
100
AcDbLine
 62
7
  6
CONTINUOUS
 10
8.4852813742
 20
0.5
 11
8.3439341466
 21
0.3513273152
  0
LINE
  5
495
100
AcDbEntity
  8
ASSI
100
AcDbLine
 62
7
  6
CONTINUOUS
 10
8.4852813742
 20
0.5
 11
8.4067223822
 21
0.4170613323
  0
LINE
  5
496
100
AcDbEntity
  8
ASSI
100
AcDbLine
 62
7
  6
CONTINUOUS
 10
8.4067223822
 20
0.4170613323
 11
8.3439341466
 21
0.3513273152
  0
LINE
  5
497
100
AcDbEntity
  8
ASSI
100
AcDbLine
 62
7
  6
CONTINUOUS
 10
9.5103594806
 20
-0.5
 11
9.6761825974
 21
-0.3341768832
  0
LINE
  5
498
100
AcDbEntity
  8
DRAFT
100
AcDbLine
 62
7
  6
CONTINUOUS
 10
9.5103594806
 20
-0.5
 11
9.6761825974
 21
-0.3341768832
  0
LWPOLYLINE
  5
499
100
AcDbEntity
  8
0
100
AcDbPolyline
 62
7
  6
CONTINUOUS
 90
7
 70
0
 10
-0.0045693961
 20
-8.3747615509
 10
-0.0032437233
 20
-8.3738395288
 10
-0.0015585345
 20
-8.3731311438
 10
0.0
 20
-8.372642685
 10
0.0006148344
 20
-8.3724388021
 10
0.0003060175
 20
-8.3724434603
 10
-0.0
 20
-8.3724434798
  0
LINE
  5
49A
100
AcDbEntity
  8
0
100
AcDbLine
 62
7
  6
CONTINUOUS
 10
2.2
 20
6.8950543263
 11
-2.2
 21
6.8950543263
  0
LINE
  5
49B
100
AcDbEntity
  8
0
100
AcDbLine
 62
7
  6
CONTINUOUS
 10
-2.2
 20
6.9003414857
 11
2.2
 21
6.9003414857
  0
LINE
  5
49C
100
AcDbEntity
  8
0
100
AcDbLine
 62
250
  6
CONTINUOUS
 10
-4.5964369074
 20
12.0541043362
 11
-4.5999281501
 21
12.0567187121
  0
LINE
  5
49D
100
AcDbEntity
  8
ASSI
100
AcDbLine
 62
7
  6
CONTINUOUS
 10
9.5103594806
 20
0.5
 11
9.6761825974
 21
0.3341768832
  0
LINE
  5
49E
100
AcDbEntity
  8
DRAFT
100
AcDbLine
 62
7
  6
CONTINUOUS
 10
9.5103594806
 20
0.5
 11
9.6761825974
 21
0.3341768832
  0
LINE
  5
49F
100
AcDbEntity
  8
RACCORDO
100
AcDbLine
 62
7
  6
CONTINUOUS
 10
8.4852813742
 20
-0.5
 11
8.3439341466
 21
-0.3513273152
  0
LINE
  5
4A0
100
AcDbEntity
  8
ASSI
100
AcDbLine
 62
7
  6
CONTINUOUS
 10
8.422427703
 20
-0.4335805196
 11
8.3439341466
 21
-0.3513273152
  0
LINE
  5
4A1
100
AcDbEntity
  8
ASSI
100
AcDbLine
 62
7
  6
CONTINUOUS
 10
8.4852813742
 20
-0.5
 11
8.422427703
 21
-0.4335805196
  0
LWPOLYLINE
  5
4A2
100
AcDbEntity
  8
0
100
AcDbPolyline
 62
7
  6
CONTINUOUS
 90
7
 70
0
 10
3.75
 20
10.4751150709
 10
3.7491368705
 20
10.4782653843
 10
3.7482961728
 20
10.4854522428
 10
3.747477907
 20
10.4966756466
 10
3.7466765905
 20
10.5121288777
 10
3.7458977058
 20
10.5316186539
 10
3.7451577004
 20
10.5545651294
  0
LWPOLYLINE
  5
4A3
100
AcDbEntity
  8
0
100
AcDbPolyline
 62
250
  6
CONTINUOUS
 90
19
 70
0
 10
4.6000004732
 20
12.6127935024
 10
4.5973436851
 20
12.6265533748
 10
4.5893302003
 20
12.6403560859
 10
4.5759569063
 20
12.6540388486
 10
4.5574960525
 20
12.6673629599
 10
4.5341499975
 20
12.6802346609
 10
4.5058752697
 20
12.6927043725
 10
4.4728995938
 20
12.7046431095
 10
4.4356167498
 20
12.7158993054
 10
4.3940268061
 20
12.7264809423
 10
4.3484988768
 20
12.7362662924
 10
4.2995646842
 20
12.7451485564
 10
4.247241139
 20
12.7531155172
 10
4.1921001283
 20
12.7600736086
 10
4.1347405144
 20
12.7659536595
 10
4.0751563468
 20
12.770753312
 10
4.0137956407
 20
12.7744298514
 10
3.9515958801
 20
12.7769250608
 10
3.8892521462
 20
12.7782390547
  0
LWPOLYLINE
  5
4A4
100
AcDbEntity
  8
RACCORDO
100
AcDbPolyline
 62
7
  6
CONTINUOUS
 90
19
 70
0
 10
9.6761825974
 20
-18.0499118029
 10
9.6783193879
 20
-18.0777755248
 10
9.6837652419
 20
-18.1041759677
 10
9.6925201593
 20
-18.1291131315
 10
9.7048577513
 20
-18.1529708368
 10
9.7205044068
 20
-18.1753652631
 10
9.738639292
 20
-18.1951449493
 10
9.7594034708
 20
-18.2121850579
 10
9.7826558794
 20
-18.2266104263
 10
9.8071524922
 20
-18.2376441055
 10
9.8329638579
 20
-18.2450953266
 10
9.8600194279
 20
-18.2491548585
 10
9.8868635312
 20
-18.2496180596
 10
9.9134680073
 20
-18.2462945336
 10
9.9398610166
 20
-18.2393746768
 10
9.9646713688
 20
-18.2292250354
 10
9.9874420005
 20
-18.2159677916
 10
10.0086299751
 20
-18.1994807633
 10
10.0282352926
 20
-18.1797639505
  0
LWPOLYLINE
  5
4A5
100
AcDbEntity
  8
ASSI
100
AcDbPolyline
 62
7
  6
CONTINUOUS
 90
22
 70
0
 10
9.6761825974
 20
-18.0499118029
 10
9.6776804229
 20
-18.0735784753
 10
9.6816787755
 20
-18.0963278883
 10
9.688177655
 20
-18.1181600417
 10
9.6973313135
 20
-18.1393389352
 10
9.7089854989
 20
-18.1596005691
 10
9.722677456
 20
-18.1781529451
 10
9.7384867959
 20
-18.1949282116
 10
9.7563339075
 20
-18.2099942202
 10
9.7755172017
 20
-18.222762527
 10
9.7960888587
 20
-18.233142688
 10
9.8179966983
 20
-18.2412251473
 10
9.8403825917
 20
-18.2466927932
 10
9.8632660309
 20
-18.2494428955
 10
9.8866275238
 20
-18.2495781845
 10
9.9095504648
 20
-18.247089739
 10
9.9320185785
 20
-18.2418738018
 10
9.9540481402
 20
-18.2340341301
 10
9.9747713705
 20
-18.2238730741
 10
9.9938990093
 20
-18.2114914172
 10
10.0117203167
 20
-18.196788376
 10
10.0282352926
 20
-18.1797639505
  0
LINE
  5
4A6
100
AcDbEntity
  8
ASSI
100
AcDbLine
 62
7
  6
CONTINUOUS
 10
7.2084845302
 20
19.8
 11
7.2233213354
 21
18.95
  0
LINE
  5
4A7
100
AcDbEntity
  8
RACCORDO
100
AcDbLine
 62
7
  6
CONTINUOUS
 10
7.2084845302
 20
19.8
 11
7.2180848159
 21
19.25
  0
LWPOLYLINE
  5
4A8
100
AcDbEntity
  8
0
100
AcDbPolyline
 62
250
  6
CONTINUOUS
 90
19
 70
0
 10
7.5871557427
 20
-17.849847672
 10
7.5883327973
 20
-17.9369060709
 10
7.5888388864
 20
-18.0233031846
 10
7.588670166
 20
-18.108382751
 10
7.5878279175
 20
-18.1914985156
 10
7.5863185386
 20
-18.2720191412
 10
7.5841534944
 20
-18.3493330026
 10
7.5813492303
 20
-18.4228528329
 10
7.5779270471
 20
-18.4920201843
 10
7.5739129394
 20
-18.5563096698
 10
7.5693373977
 20
-18.6152329541
 10
7.5642351775
 20
-18.6683424631
 10
7.5586450345
 20
-18.7152347831
 10
7.5526094308
 20
-18.7555537257
 10
7.5461742121
 20
-18.7889930331
 10
7.5393882597
 20
-18.8152987042
 10
7.5323031187
 20
-18.8342709242
 10
7.524972607
 20
-18.8457655826
 10
7.5174524064
 20
-18.8496953671
  0
LINE
  5
4A9
100
AcDbEntity
  8
ASSI
100
AcDbLine
 62
7
  6
CONTINUOUS
 10
7.2084845302
 20
-20.1483339502
 11
7.2084845302
 21
-19.8
  0
LINE
  5
4AA
100
AcDbEntity
  8
DRAFT
100
AcDbLine
 62
7
  6
CONTINUOUS
 10
7.2084845302
 20
-20.1483339502
 11
7.2084845302
 21
-19.8
  0
LINE
  5
4AB
100
AcDbEntity
  8
ASSI
100
AcDbLine
 62
7
  6
CONTINUOUS
 10
7.2084845302
 20
19.8
 11
7.2084845302
 21
20.1483339502
  0
LINE
  5
4AC
100
AcDbEntity
  8
DRAFT
100
AcDbLine
 62
7
  6
CONTINUOUS
 10
7.2084845302
 20
19.8
 11
7.2084845302
 21
20.1483339502
  0
LINE
  5
4AD
100
AcDbEntity
  8
0
100
AcDbLine
 62
7
  6
CONTINUOUS
 10
7.5
 20
16.8363053019
 11
7.5
 21
-16.8363053019
  0
LINE
  5
4AE
100
AcDbEntity
  8
ASSI
100
AcDbLine
 62
7
  6
CONTINUOUS
 10
7.5226756989
 20
20.7603594806
 11
7.5226756989
 21
18.95
  0
LINE
  5
4AF
100
AcDbEntity
  8
RACCORDO
100
AcDbLine
 62
7
  6
CONTINUOUS
 10
7.5226756989
 20
20.7603594806
 11
7.5226756989
 21
19.25
  0
LINE
  5
4B0
100
AcDbEntity
  8
DRAFT
100
AcDbLine
 62
7
  6
CONTINUOUS
 10
7.5226756989
 20
-18.95
 11
7.5226756989
 21
-20.7603594806
  0
LINE
  5
4B1
100
AcDbEntity
  8
ASSI
100
AcDbLine
 62
7
  6
CONTINUOUS
 10
7.5226756989
 20
-19.25
 11
7.5226756989
 21
-20.7603594806
  0
LINE
  5
4B2
100
AcDbEntity
  8
0
100
AcDbLine
 62
250
  6
CONTINUOUS
 10
7.5868240888
 20
-17.7453442573
 11
7.5871557427
 21
-17.849847672
  0
LINE
  5
4B3
100
AcDbEntity
  8
0
100
AcDbLine
 62
7
  6
CONTINUOUS
 10
8.5
 20
17.849847672
 11
8.5
 21
17.8325
  0
LINE
  5
4B4
100
AcDbEntity
  8
0
100
AcDbLine
 62
7
  6
CONTINUOUS
 10
8.5
 20
-17.849847672
 11
8.5
 21
-17.8325
  0
LWPOLYLINE
  5
4B5
100
AcDbEntity
  8
0
100
AcDbPolyline
 62
250
  6
CONTINUOUS
 90
19
 70
0
 10
7.5871557427
 20
17.849847672
 10
7.5868240888
 20
17.7453442573
 10
7.5858316512
 20
17.6588518223
 10
7.5841859828
 20
17.5736809549
 10
7.5818996083
 20
17.4904798567
 10
7.5789899283
 20
17.4098817383
 10
7.5754790873
 20
17.3325
 10
7.5713938048
 20
17.2589235636
 10
7.5667651724
 20
17.1897123903
 10
7.5616284167
 20
17.1253932188
 10
7.5560226315
 20
17.0664555569
 10
7.5499904803
 20
17.0133479557
 10
7.5435778714
 20
16.9664745962
 10
7.5368336085
 20
16.926192213
 10
7.5298090196
 20
16.8928073792
 10
7.5225575661
 20
16.8665741737
 10
7.5151344359
 20
16.847692247
 10
7.5075961235
 20
16.8363053019
 10
7.5
 20
16.8325
  0
LINE
  5
4B6
100
AcDbEntity
  8
DRAFT
100
AcDbLine
 62
7
  6
CONTINUOUS
 10
7.2233213354
 20
-18.95
 11
7.2084845302
 21
-19.8
  0
LINE
  5
4B7
100
AcDbEntity
  8
ASSI
100
AcDbLine
 62
7
  6
CONTINUOUS
 10
7.2180848159
 20
-19.25
 11
7.2084845302
 21
-19.8
  0
LWPOLYLINE
  5
4B8
100
AcDbEntity
  8
ASSI
100
AcDbPolyline
 62
7
  6
CONTINUOUS
 90
22
 70
0
 10
9.65
 20
18.1006230748
 10
9.6514951146
 20
18.1242694897
 10
9.6554869577
 20
18.1470008714
 10
9.6619755295
 20
18.1688172197
 10
9.6711145904
 20
18.1899819596
 10
9.6827503798
 20
18.2102316661
 10
9.6964216162
 20
18.2287760651
 10
9.7122076929
 20
18.2455475716
 10
9.7300292165
 20
18.2606137706
 10
9.7491867253
 20
18.2733871429
 10
9.7697323104
 20
18.2837775819
 10
9.7916138807
 20
18.2918751943
 10
9.8139757005
 20
18.2973627805
 10
9.8368373157
 20
18.3001379623
 10
9.8601791804
 20
18.3003031179
 10
9.8830869215
 20
18.2978481826
 10
9.9055444619
 20
18.2926697079
 10
9.9275678786
 20
18.2848711424
 10
9.948291029
 20
18.2747527672
 10
9.9674251991
 20
18.2624146761
 10
9.985259103
 20
18.2477567752
 10
10.0017927407
 20
18.2307790647
  0
LWPOLYLINE
  5
4B9
100
AcDbEntity
  8
RACCORDO
100
AcDbPolyline
 62
7
  6
CONTINUOUS
 90
19
 70
0
 10
9.65
 20
18.1006230748
 10
9.652132988
 20
18.1284640465
 10
9.6575705236
 20
18.1548450886
 10
9.6663126068
 20
18.179766201
 10
9.6786321172
 20
18.2036105163
 10
9.6942561753
 20
18.2259949019
 10
9.7123661424
 20
18.2457699601
 10
9.7331026467
 20
18.2628111944
 10
9.7563250602
 20
18.2772431013
 10
9.7807928594
 20
18.2882897721
 10
9.8065766692
 20
18.2957610735
 10
9.8336058648
 20
18.2998471389
 10
9.8604280484
 20
18.3003424598
 10
9.8870152491
 20
18.2970570029
 10
9.9133954377
 20
18.2901808016
 10
9.9382001297
 20
18.2800784479
 10
9.9609731634
 20
18.2668714725
 10
9.9821707004
 20
18.2504383448
 10
10.0017927407
 20
18.2307790647
  0
LINE
  5
4BA
100
AcDbEntity
  8
ASSI
100
AcDbLine
 62
7
  6
CONTINUOUS
 10
-9.5103594806
 20
-20.7603594806
 11
-9.65
 21
-20.9
  0
LINE
  5
4BB
100
AcDbEntity
  8
DRAFT
100
AcDbLine
 62
7
  6
CONTINUOUS
 10
-9.5103594806
 20
-20.7603594806
 11
-9.65
 21
-20.9
  0
LINE
  5
4BC
100
AcDbEntity
  8
ASSI
100
AcDbLine
 62
7
  6
CONTINUOUS
 10
-6.7330351795
 20
-18.85
 11
-6.8330351795
 21
-18.95
  0
LINE
  5
4BD
100
AcDbEntity
  8
0
100
AcDbLine
 62
7
  6
CONTINUOUS
 10
-6.7330351795
 20
-18.85
 11
-6.8330351795
 21
-18.95
  0
LINE
  5
4BE
100
AcDbEntity
  8
0
100
AcDbLine
 62
7
  6
CONTINUOUS
 10
3.6656413538
 20
-8.4469777328
 11
3.681698399
 21
-8.4330334866
  0
LWPOLYLINE
  5
4BF
100
AcDbEntity
  8
0
100
AcDbPolyline
 62
7
  6
CONTINUOUS
 90
8
 70
0
 10
-2.0122503687
 20
-8.2597708713
 10
-2.1489656912
 20
-8.3007976444
 10
-2.276592361
 20
-8.3374163909
 10
-2.3953953729
 20
-8.3690981334
 10
-2.505120521
 20
-8.394888602
 10
-2.6056830703
 20
-8.4143284553
 10
-2.6971677559
 20
-8.4271682792
 10
-2.7795745778
 20
-8.4330334866
  0
LINE
  5
4C0
100
AcDbEntity
  8
0
100
AcDbLine
 62
7
  6
CONTINUOUS
 10
-1.5691456434
 20
7.5365524313
 11
-0.1268576838
 21
7.5365524313
  0
LINE
  5
4C1
100
AcDbEntity
  8
0
100
AcDbLine
 62
7
  6
CONTINUOUS
 10
0.7334544324
 20
7.5365524313
 11
1.0117907053
 21
7.5365524313
  0
LINE
  5
4C2
100
AcDbEntity
  8
0
100
AcDbLine
 62
7
  6
CONTINUOUS
 10
-0.1268576838
 20
7.7642026141
 11
-1.2908093705
 21
7.7642026141
  0
LINE
  5
4C3
100
AcDbEntity
  8
0
100
AcDbLine
 62
7
  6
CONTINUOUS
 10
-1.2908093705
 20
7.770642231
 11
-0.1268576838
 21
7.770642231
  0
LINE
  5
4C4
100
AcDbEntity
  8
0
100
AcDbLine
 62
7
  6
CONTINUOUS
 10
-1.2908093705
 20
8.4471531624
 11
-0.2533741715
 21
8.4471531624
  0
LINE
  5
4C5
100
AcDbEntity
  8
0
100
AcDbLine
 62
7
  6
CONTINUOUS
 10
-0.2533741715
 20
8.6748033452
 11
-1.2908093705
 21
8.6748033452
  0
LINE
  5
4C6
100
AcDbEntity
  8
0
100
AcDbLine
 62
7
  6
CONTINUOUS
 10
-1.2908093705
 20
8.6806840378
 11
-0.2533741715
 21
8.6806840378
  0
LINE
  5
4C7
100
AcDbEntity
  8
DRAFT
100
AcDbLine
 62
7
  6
CONTINUOUS
 10
-9.5103594806
 20
20.7603594806
 11
-9.65
 21
20.9
  0
LINE
  5
4C8
100
AcDbEntity
  8
ASSI
100
AcDbLine
 62
7
  6
CONTINUOUS
 10
-9.65
 20
20.9
 11
-9.5103594806
 21
20.7603594806
  0
LINE
  5
4C9
100
AcDbEntity
  8
ASSI
100
AcDbLine
 62
7
  6
CONTINUOUS
 10
-6.8330351795
 20
18.95
 11
-6.7330351795
 21
18.85
  0
LINE
  5
4CA
100
AcDbEntity
  8
0
100
AcDbLine
 62
7
  6
CONTINUOUS
 10
-6.8330351795
 20
18.95
 11
-6.7330351795
 21
18.85
  0
LWPOLYLINE
  5
4CB
100
AcDbEntity
  8
0
100
AcDbPolyline
 62
7
  6
CONTINUOUS
 90
5
 70
0
 10
0.2070829341
 20
14.08982981
 10
0.2052060437
 20
14.0922616537
 10
0.2033414178
 20
14.0947029426
 10
0.2014890712
 20
14.0971536799
 10
0.1996415313
 20
14.0996281927
  0
LINE
  5
4CC
100
AcDbEntity
  8
0
100
AcDbLine
 62
7
  6
CONTINUOUS
 10
0.1996415313
 20
14.0996281927
 11
0.1960058566
 21
14.1045626253
  0
LWPOLYLINE
  5
4CD
100
AcDbEntity
  8
0
100
AcDbPolyline
 62
7
  6
CONTINUOUS
 90
3
 70
0
 10
0.1960058566
 20
14.1045626253
 10
0.1925243352
 20
14.109334459
 10
0.1908357835
 20
14.111670176
  0
LWPOLYLINE
  5
4CE
100
AcDbEntity
  8
0
100
AcDbPolyline
 62
250
  6
CONTINUOUS
 90
10
 70
0
 10
0.1908357835
 20
14.111670176
 10
0.1589225177
 20
14.1585156471
 10
0.1299878222
 20
14.2064921313
 10
0.1039133453
 20
14.2555617725
 10
0.080754634
 20
14.305865129
 10
0.0604970138
 20
14.3572773729
 10
0.0431360847
 20
14.4093018798
 10
0.0287162161
 20
14.4618130321
 10
0.0172172123
 20
14.5150627555
 10
0.0086126574
 20
14.568864452
  0
LWPOLYLINE
  5
4CF
100
AcDbEntity
  8
0
100
AcDbPolyline
 62
7
  6
CONTINUOUS
 90
4
 70
0
 10
4.65
 20
10.4751150709
 10
4.6479564784
 20
10.4792887011
 10
4.6459776242
 20
10.4891241231
 10
4.6440634373
 20
10.504621337
  0
LWPOLYLINE
  5
4D0
100
AcDbEntity
  8
0
100
AcDbPolyline
 62
250
  6
CONTINUOUS
 90
19
 70
0
 10
4.6000004732
 20
12.8991340493
 10
4.5973282908
 20
12.9079256723
 10
4.5893584041
 20
12.9166410723
 10
4.5762307562
 20
12.9251790481
 10
4.5584615841
 20
12.9333605228
 10
4.5363425051
 20
12.9411805587
 10
4.5095038141
 20
12.9487964687
 10
4.4779107526
 20
12.9561690358
 10
4.4419532245
 20
12.9631725221
 10
4.4014979125
 20
12.9698142519
 10
4.3567497329
 20
12.9760181991
 10
4.3081901768
 20
12.9817011674
 10
4.2559255252
 20
12.9868306485
 10
4.2006393797
 20
12.9913261635
 10
4.1427893488
 20
12.9951515503
 10
4.0820924694
 20
12.9983067646
 10
4.0189211319
 20
13.0007473959
 10
3.9543765934
 20
13.0024117946
 10
3.88925238
 20
13.0032841332
  0
LINE
  5
4D1
100
AcDbEntity
  8
ASSI
100
AcDbLine
 62
7
  6
CONTINUOUS
 10
9.5103594806
 20
-20.7603594806
 11
9.5103594806
 21
-0.5
  0
LINE
  5
4D2
100
AcDbEntity
  8
DRAFT
100
AcDbLine
 62
7
  6
CONTINUOUS
 10
9.5103594806
 20
-20.7603594806
 11
9.5103594806
 21
-0.5
  0
LINE
  5
4D3
100
AcDbEntity
  8
ASSI
100
AcDbLine
 62
7
  6
CONTINUOUS
 10
9.5103594806
 20
0.5
 11
9.5103594806
 21
20.7603594806
  0
LINE
  5
4D4
100
AcDbEntity
  8
DRAFT
100
AcDbLine
 62
7
  6
CONTINUOUS
 10
9.5103594806
 20
0.5
 11
9.5103594806
 21
20.7603594806
  0
LINE
  5
4D5
100
AcDbEntity
  8
ASSI
100
AcDbLine
 62
7
  6
CONTINUOUS
 10
9.65
 20
-20.9
 11
9.65
 21
-18.1006230748
  0
LINE
  5
4D6
100
AcDbEntity
  8
RACCORDO
100
AcDbLine
 62
7
  6
CONTINUOUS
 10
9.65
 20
-20.9
 11
9.65
 21
-18.1006230748
  0
LINE
  5
4D7
100
AcDbEntity
  8
ASSI
100
AcDbLine
 62
7
  6
CONTINUOUS
 10
9.65
 20
18.1006230748
 11
9.65
 21
20.9
  0
LINE
  5
4D8
100
AcDbEntity
  8
RACCORDO
100
AcDbLine
 62
7
  6
CONTINUOUS
 10
9.65
 20
18.1006230748
 11
9.65
 21
20.9
  0
LINE
  5
4D9
100
AcDbEntity
  8
ASSI
100
AcDbLine
 62
7
  6
CONTINUOUS
 10
9.6761825974
 20
18.0499118029
 11
9.6761825974
 21
0.3341768832
  0
LINE
  5
4DA
100
AcDbEntity
  8
RACCORDO
100
AcDbLine
 62
7
  6
CONTINUOUS
 10
9.6761825974
 20
18.0499118029
 11
9.6761825974
 21
0.3341768832
  0
LINE
  5
4DB
100
AcDbEntity
  8
ASSI
100
AcDbLine
 62
7
  6
CONTINUOUS
 10
9.6761825974
 20
-0.3341768832
 11
9.6761825974
 21
-18.0499118029
  0
LINE
  5
4DC
100
AcDbEntity
  8
RACCORDO
100
AcDbLine
 62
7
  6
CONTINUOUS
 10
9.6761825974
 20
-0.3341768832
 11
9.6761825974
 21
-18.0499118029
  0
LWPOLYLINE
  5
4DD
100
AcDbEntity
  8
0
100
AcDbPolyline
 62
7
  6
CONTINUOUS
 90
19
 70
0
 10
7.5
 20
-16.8363053019
 10
7.499483486
 20
-16.8397167816
 10
7.4978356711
 20
-16.844239906
 10
7.4950531401
 20
-16.8498917455
 10
7.4911575246
 20
-16.8566789697
 10
7.4861200819
 20
-16.8646223567
 10
7.4798614099
 20
-16.8737704114
 10
7.4723854369
 20
-16.8841493864
 10
7.463679683
 20
-16.8957793451
 10
7.4536392956
 20
-16.9087192832
 10
7.4422676206
 20
-16.9229957417
 10
7.4295509014
 20
-16.9386360873
 10
7.4153574986
 20
-16.9557182831
 10
7.399678116
 20
-16.9742813518
 10
7.3825089879
 20
-16.9943478703
 10
7.3637254618
 20
-17.0159845112
 10
7.3433162723
 20
-17.0392196614
 10
7.3212768981
 20
-17.0640777838
 10
7.2974914295
 20
-17.0906269643
  0
LINE
  5
4DE
100
AcDbEntity
  8
0
100
AcDbLine
 62
7
  6
CONTINUOUS
 10
4.65
 20
10.4751150709
 11
4.6497014257
 21
10.4751088199
  0
LINE
  5
4DF
100
AcDbEntity
  8
0
100
AcDbLine
 62
7
  6
CONTINUOUS
 10
-4.6496996436
 20
10.4751205669
 11
-4.65
 21
10.4751150709
  0
LINE
  5
4E0
100
AcDbEntity
  8
0
100
AcDbLine
 62
7
  6
CONTINUOUS
 10
-1.2908093705
 20
9.2818704993
 11
0.7334544324
 21
9.2818704993
  0
LINE
  5
4E1
100
AcDbEntity
  8
0
100
AcDbLine
 62
7
  6
CONTINUOUS
 10
1.0117907053
 20
9.2818704993
 11
1.6443731437
 21
9.2818704993
  0
LINE
  5
4E2
100
AcDbEntity
  8
0
100
AcDbLine
 62
7
  6
CONTINUOUS
 10
1.6443731437
 20
9.5095206821
 11
-1.5691456434
 21
9.5095206821
  0
LINE
  5
4E3
100
AcDbEntity
  8
0
100
AcDbLine
 62
7
  6
CONTINUOUS
 10
-1.5691456434
 20
9.5150498786
 11
1.6443731437
 21
9.5150498786
  0
LINE
  5
4E4
100
AcDbEntity
  8
0
100
AcDbLine
 62
7
  6
CONTINUOUS
 10
-2.2
 20
10.1921157854
 11
2.2
 21
10.1921157854
  0
LINE
  5
4E5
100
AcDbEntity
  8
0
100
AcDbLine
 62
7
  6
CONTINUOUS
 10
-4.6497136523
 20
10.4750518793
 11
-4.6000004735
 21
10.4750518793
  0
LINE
  5
4E6
100
AcDbEntity
  8
0
100
AcDbLine
 62
7
  6
CONTINUOUS
 10
-3.8000004734
 20
10.4750518793
 11
-3.749856869
 21
10.4750518793
  0
LINE
  5
4E7
100
AcDbEntity
  8
0
100
AcDbLine
 62
7
  6
CONTINUOUS
 10
3.749856906
 20
10.4750518793
 11
3.8000004734
 21
10.4750518793
  0
LINE
  5
4E8
100
AcDbEntity
  8
0
100
AcDbLine
 62
7
  6
CONTINUOUS
 10
4.6000004735
 20
10.4750518793
 11
4.6497122982
 21
10.4750518793
  0
LWPOLYLINE
  5
4E9
100
AcDbEntity
  8
0
100
AcDbPolyline
 62
250
  6
CONTINUOUS
 90
19
 70
0
 10
4.6000004732
 20
13.6096416539
 10
4.5973246601
 20
13.6163015573
 10
4.5893213656
 20
13.6229064083
 10
4.5760551729
 20
13.6294114671
 10
4.5576298136
 20
13.635774286
 10
4.5341826903
 20
13.6419504805
 10
4.505879445
 20
13.6478938574
 10
4.4729235685
 20
13.6535641903
 10
4.4355524463
 20
13.6589234733
 10
4.3940249693
 20
13.6639313078
 10
4.3486359491
 20
13.6685534759
 10
4.2997076134
 20
13.6727591087
 10
4.2475760857
 20
13.6765162634
 10
4.1926106734
 20
13.679798759
 10
4.1351993527
 20
13.682584623
 10
4.0757330344
 20
13.6848523412
 10
4.014626827
 20
13.6865850184
 10
3.9523190294
 20
13.6877709255
 10
3.8892524404
 20
13.6884012785
  0
LWPOLYLINE
  5
4EA
100
AcDbEntity
  8
0
100
AcDbPolyline
 62
7
  6
CONTINUOUS
 90
19
 70
0
 10
7.5
 20
16.8363053019
 10
7.4994573404
 20
16.8396905362
 10
7.497815194
 20
16.8442193507
 10
7.4950531401
 20
16.8498917455
 10
7.4911574615
 20
16.8566789063
 10
7.486107421
 20
16.8646096475
 10
7.4798614099
 20
16.8737704114
 10
7.4723897531
 20
16.8841537191
 10
7.4636674343
 20
16.8957670495
 10
7.4536392956
 20
16.9087192832
 10
7.442273492
 20
16.9230016356
 10
7.4295377554
 20
16.9386228911
 10
7.4153574986
 20
16.9557182831
 10
7.3996885398
 20
16.9742918154
 10
7.3825006337
 20
16.9943394841
 10
7.3637254618
 20
17.0159845112
 10
7.3433270126
 20
17.0392304428
 10
7.3212728625
 20
17.0640737327
 10
7.2719354408
 20
17.1189209366
  0
LWPOLYLINE
  5
4EB
100
AcDbEntity
  8
ASSI
100
AcDbPolyline
 62
7
  6
CONTINUOUS
 90
10
 70
0
 10
11.1238174026
 20
16.4758271192
 10
11.1210404941
 20
16.5493600913
 10
11.1130858499
 20
16.6217449262
 10
11.0999534699
 20
16.6929816239
 10
11.0815186789
 20
16.7634368711
 10
11.0579061522
 20
16.8327439812
 10
11.0294899157
 20
16.8998028933
 10
10.9963946449
 20
16.9642469207
 10
10.9584956644
 20
17.0264427503
 10
10.9157929742
 20
17.086390382
  0
LWPOLYLINE
  5
4EC
100
AcDbEntity
  8
RACCORDO
100
AcDbPolyline
 62
7
  6
CONTINUOUS
 90
10
 70
0
 10
11.1238174026
 20
16.4758271192
 10
11.1211741205
 20
16.5488572778
 10
11.1132746026
 20
16.6209938743
 10
11.1001188487
 20
16.6922369087
 10
11.0815220589
 20
16.7631248966
 10
11.0576690331
 20
16.8331193224
 10
11.0291141717
 20
16.9006046386
 10
10.9960422748
 20
16.9650423294
 10
10.9582685423
 20
17.0269709105
 10
10.9157929742
 20
17.086390382
  0
LINE
  5
4ED
100
AcDbEntity
  8
ASSI
100
AcDbLine
 62
7
  6
CONTINUOUS
 10
11.1238174026
 20
16.4758271192
 11
11.1238174026
 21
-16.4758271192
  0
LINE
  5
4EE
100
AcDbEntity
  8
RACCORDO
100
AcDbLine
 62
7
  6
CONTINUOUS
 10
11.1238174026
 20
-16.4758271192
 11
11.1238174026
 21
16.4758271192
  0
LINE
  5
4EF
100
AcDbEntity
  8
ASSI
100
AcDbLine
 62
7
  6
CONTINUOUS
 10
11.15
 20
21.8997711479
 11
11.15
 21
-21.8997711479
  0
LINE
  5
4F0
100
AcDbEntity
  8
RACCORDO
100
AcDbLine
 62
7
  6
CONTINUOUS
 10
11.15
 20
21.8997711479
 11
11.15
 21
-21.8997711479
  0
LWPOLYLINE
  5
4F1
100
AcDbEntity
  8
RACCORDO
100
AcDbPolyline
 62
7
  6
CONTINUOUS
 90
10
 70
0
 10
11.15
 20
-16.4632818593
 10
11.147364732
 20
-16.5362047833
 10
11.1394879283
 20
-16.6082388542
 10
11.126369589
 20
-16.6793840721
 10
11.1078254924
 20
-16.750177648
 10
11.0840398601
 20
-16.8200823708
 10
11.0555653571
 20
-16.8874866073
 10
11.0225862052
 20
-16.9518531464
 10
10.9849181826
 20
-17.0137191992
 10
10.9425612894
 20
-17.0730847657
  0
LWPOLYLINE
  5
4F2
100
AcDbEntity
  8
ASSI
100
AcDbPolyline
 62
7
  6
CONTINUOUS
 90
10
 70
0
 10
11.15
 20
-16.4632818593
 10
11.1472315354
 20
-16.5367057604
 10
11.1393000321
 20
-16.6089865188
 10
11.1262054901
 20
-16.6801241343
 10
11.1078239514
 20
-16.7504837575
 10
11.0842793739
 20
-16.8197002379
 10
11.0559436316
 20
-16.886678124
 10
11.0229406824
 20
-16.9510522655
 10
10.9851465683
 20
-17.0131878127
 10
10.9425612894
 20
-17.0730847657
  0
LWPOLYLINE
  5
4F3
100
AcDbEntity
  8
0
100
AcDbPolyline
 62
7
  6
CONTINUOUS
 90
8
 70
0
 10
4.4729857883
 20
11.9806254163
 10
4.505956783
 20
11.9815985675
 10
4.5342626437
 20
11.9826191882
 10
4.5577020011
 20
11.9836851852
 10
4.5761081356
 20
11.9847766613
 10
4.5893499644
 20
11.9858860624
 10
4.5973330699
 20
11.9870181864
 10
4.6000004733
 20
11.9881716201
  0
LWPOLYLINE
  5
4F4
100
AcDbEntity
  8
0
100
AcDbPolyline
 62
250
  6
CONTINUOUS
 90
12
 70
0
 10
4.2444155482
 20
12.0307876096
 10
4.2962867525
 20
12.0322384143
 10
4.3450420054
 20
12.033871633
 10
4.3903463402
 20
12.0356553987
 10
4.4318851875
 20
12.0375917599
 10
4.4693641357
 20
12.0396766812
 10
4.5025174848
 20
12.0418690511
 10
4.5311118787
 20
12.0441696052
 10
4.5549498503
 20
12.0465751967
 10
4.5738665949
 20
12.0490388042
 10
4.587728677
 20
12.0515438607
 10
4.5964367293
 20
12.0541042612
  0
LINE
  5
4F5
100
AcDbEntity
  8
0
100
AcDbLine
 62
7
  6
CONTINUOUS
 10
4.3940182708
 20
11.9788399771
 11
4.4729857883
 21
11.9806254163
  0
LINE
  5
4F6
100
AcDbEntity
  8
0
100
AcDbLine
 62
250
  6
CONTINUOUS
 10
4.1327837129
 20
12.0284431178
 11
4.2444155482
 21
12.0307876096
  0
LINE
  5
4F7
100
AcDbEntity
  8
0
100
AcDbLine
 62
7
  6
CONTINUOUS
 10
4.2996028657
 20
11.9773216022
 11
4.3940182708
 21
11.9788399771
  0
LINE
  5
4F8
100
AcDbEntity
  8
0
100
AcDbLine
 62
250
  6
CONTINUOUS
 10
4.0132831818
 20
12.026905346
 11
4.1327837129
 21
12.0284431178
  0
LINE
  5
4F9
100
AcDbEntity
  8
0
100
AcDbLine
 62
7
  6
CONTINUOUS
 10
-3.800001578
 20
11.9745556934
 11
-0.0000000005
 21
12.0077178054
  0
LINE
  5
4FA
100
AcDbEntity
  8
0
100
AcDbLine
 62
7
  6
CONTINUOUS
 10
4.1349826077
 20
11.9756351482
 11
4.2996028657
 21
11.9773216022
  0
LINE
  5
4FB
100
AcDbEntity
  8
0
100
AcDbLine
 62
250
  6
CONTINUOUS
 10
3.8892524404
 20
12.0261982754
 11
4.0132831818
 21
12.026905346
  0
LINE
  5
4FC
100
AcDbEntity
  8
0
100
AcDbLine
 62
7
  6
CONTINUOUS
 10
3.9522145272
 20
11.9747504059
 11
4.1349826077
 21
11.9756351482
  0
LINE
  5
4FD
100
AcDbEntity
  8
0
100
AcDbLine
 62
7
  6
CONTINUOUS
 10
3.8892567223
 20
12.0261982847
 11
3.8000121284
 21
12.0260050057
  0
LINE
  5
4FE
100
AcDbEntity
  8
0
100
AcDbLine
 62
7
  6
CONTINUOUS
 10
3.9522145272
 20
11.9747504059
 11
3.8000036122
 21
11.9745562647
  0
LINE
  5
4FF
100
AcDbEntity
  8
0
100
AcDbLine
 62
250
  6
CONTINUOUS
 10
3.7334573983
 20
10.9999910616
 11
-3.7334573983
 21
10.9999910616
  0
LINE
  5
500
100
AcDbEntity
  8
0
100
AcDbLine
 62
7
  6
CONTINUOUS
 10
-4.6497136523
 20
11.5750518793
 11
-4.6000004734
 21
11.5750518793
  0
LINE
  5
501
100
AcDbEntity
  8
0
100
AcDbLine
 62
7
  6
CONTINUOUS
 10
-3.8000004733
 20
11.5750518793
 11
-3.749856869
 21
11.5750518793
  0
LINE
  5
502
100
AcDbEntity
  8
0
100
AcDbLine
 62
7
  6
CONTINUOUS
 10
3.7498569058
 20
11.5750518793
 11
3.8000004733
 21
11.5750518793
  0
LINE
  5
503
100
AcDbEntity
  8
0
100
AcDbLine
 62
7
  6
CONTINUOUS
 10
4.6000004734
 20
11.5750518793
 11
4.6497122982
 21
11.5750518793
  0
LINE
  5
504
100
AcDbEntity
  8
0
100
AcDbLine
 62
7
  6
CONTINUOUS
 10
3.749751889
 20
11.9735968352
 11
-3.7497520494
 21
11.9735968352
  0
LINE
  5
505
100
AcDbEntity
  8
0
100
AcDbLine
 62
7
  6
CONTINUOUS
 10
-3.8892571743
 20
12.0289287274
 11
-3.8000051554
 21
12.0287417012
  0
LINE
  5
506
100
AcDbEntity
  8
0
100
AcDbLine
 62
7
  6
CONTINUOUS
 10
-3.7999961862
 20
11.9745562577
 11
-4.0757299974
 21
11.9752479711
  0
LINE
  5
507
100
AcDbEntity
  8
0
100
AcDbLine
 62
250
  6
CONTINUOUS
 10
-3.8892524404
 20
12.0261982754
 11
-4.0132833917
 21
12.026905348
  0
LINE
  5
508
100
AcDbEntity
  8
0
100
AcDbLine
 62
7
  6
CONTINUOUS
 10
3.800001578
 20
11.9745556934
 11
0.0000000005
 21
12.0077178054
  0
LINE
  5
509
100
AcDbEntity
  8
0
100
AcDbLine
 62
7
  6
CONTINUOUS
 10
-4.0757299974
 20
11.9752479711
 11
-4.2475735695
 21
11.9766785653
  0
LINE
  5
50A
100
AcDbEntity
  8
0
100
AcDbLine
 62
7
  6
CONTINUOUS
 10
-4.2475735695
 20
11.9766785653
 11
-4.3486338954
 21
11.9780480033
  0
LINE
  5
50B
100
AcDbEntity
  8
0
100
AcDbLine
 62
250
  6
CONTINUOUS
 10
-4.0132833917
 20
12.026905348
 11
-4.1327841112
 21
12.0284431245
  0
LINE
  5
50C
100
AcDbEntity
  8
0
100
AcDbLine
 62
7
  6
CONTINUOUS
 10
-4.6496996436
 20
11.5749831918
 11
-4.65
 21
11.5749886877
  0
LWPOLYLINE
  5
50D
100
AcDbEntity
  8
0
100
AcDbPolyline
 62
7
  6
CONTINUOUS
 90
10
 70
0
 10
-4.3486338954
 20
11.9780480033
 10
-4.4355507099
 20
11.9796991652
 10
-4.4729219424
 20
11.9806233205
 10
-4.5058779756
 20
11.9815955198
 10
-4.5341813874
 20
11.9826153331
 10
-4.5576287202
 20
11.9836807159
 10
-4.5760544026
 20
11.9847722212
 10
-4.5893209629
 20
11.9858824499
 10
-4.5973245444
 20
11.9870160546
 10
-4.6000004733
 20
11.9881716201
  0
LINE
  5
50E
100
AcDbEntity
  8
0
100
AcDbLine
 62
7
  6
CONTINUOUS
 10
4.65
 20
11.5749886877
 11
4.6497014257
 21
11.5749949388
  0
LWPOLYLINE
  5
50F
100
AcDbEntity
  8
0
100
AcDbPolyline
 62
250
  6
CONTINUOUS
 90
13
 70
0
 10
-4.1327841112
 20
12.0284431245
 10
-4.244416097
 20
12.0307876237
 10
-4.2962873575
 20
12.0322384328
 10
-4.3450426518
 20
12.0338716565
 10
-4.3903470115
 20
12.0356554275
 10
-4.4318858661
 20
12.0375917944
 10
-4.4693648029
 20
12.0396767217
 10
-4.5025181212
 20
12.0418690975
 10
-4.5311124641
 20
12.0441696576
 10
-4.5549503644
 20
12.0465752553
 10
-4.5738670172
 20
12.0490388685
 10
-4.5877289871
 20
12.0515439305
 10
-4.5964369074
 20
12.0541043362
  0
LWPOLYLINE
  5
510
100
AcDbEntity
  8
0
100
AcDbPolyline
 62
250
  6
CONTINUOUS
 90
18
 70
0
 10
-7.5
 20
16.8325
 10
-7.5075961235
 20
16.8363053019
 10
-7.5151344359
 20
16.847692247
 10
-7.5225575661
 20
16.8665741737
 10
-7.5298090196
 20
16.8928073792
 10
-7.5368336085
 20
16.926192213
 10
-7.5435778714
 20
16.9664745962
 10
-7.5499904803
 20
17.0133479557
 10
-7.5560226315
 20
17.0664555569
 10
-7.5616284167
 20
17.1253932188
 10
-7.5667651724
 20
17.1897123903
 10
-7.5713938048
 20
17.2589235636
 10
-7.5754790873
 20
17.3325
 10
-7.5789899283
 20
17.4098817383
 10
-7.5818996083
 20
17.4904798567
 10
-7.5841859828
 20
17.5736809549
 10
-7.5858316512
 20
17.6588518223
 10
-7.5868240888
 20
17.7453442573
  0
LWPOLYLINE
  5
511
100
AcDbEntity
  8
0
100
AcDbPolyline
 62
7
  6
CONTINUOUS
 90
10
 70
0
 10
0.5095477807
 20
13.8277919014
 10
0.4993249541
 20
13.8336439462
 10
0.4891780562
 20
13.8396055169
 10
0.4791037011
 20
13.8456812003
 10
0.469101943
 20
13.8518719049
 10
0.4591712441
 20
13.8581786057
 10
0.4493082901
 20
13.8646026544
 10
0.4395143331
 20
13.8711414076
 10
0.4297948556
 20
13.8777888298
 10
0.4201530922
 20
13.8845427788
  0
LWPOLYLINE
  5
512
100
AcDbEntity
  8
0
100
AcDbPolyline
 62
7
  6
CONTINUOUS
 90
10
 70
0
 10
0.4201530922
 20
13.8845427788
 10
0.39356529
 20
13.9041197007
 10
0.3677099925
 20
13.9245188968
 10
0.3425608676
 20
13.9457552389
 10
0.3180972215
 20
13.9678362423
 10
0.2943486104
 20
13.9907178668
 10
0.2713704696
 20
14.0143522304
 10
0.2491879728
 20
14.0387445069
 10
0.2277658244
 20
14.0639089483
 10
0.2070829341
 20
14.08982981
  0
LWPOLYLINE
  5
513
100
AcDbEntity
  8
0
100
AcDbPolyline
 62
7
  6
CONTINUOUS
 90
5
 70
0
 10
4.6000004732
 20
13.93150348
 10
4.5973313462
 20
13.9354089499
 10
4.5893436641
 20
13.9393194451
 10
4.5760953182
 20
13.9431902554
 10
4.5576822044
 20
13.9469614677
  0
LINE
  5
514
100
AcDbEntity
  8
0
100
AcDbLine
 62
7
  6
CONTINUOUS
 10
-3.800000475
 20
13.9783886748
 11
-0.2070319418
 21
14.0897917046
  0
LINE
  5
515
100
AcDbEntity
  8
0
100
AcDbLine
 62
7
  6
CONTINUOUS
 10
-3.8000004753
 20
13.6888931464
 11
-0.6961570724
 21
13.7464994892
  0
LINE
  5
516
100
AcDbEntity
  8
0
100
AcDbLine
 62
7
  6
CONTINUOUS
 10
-4.4729931858
 20
13.9860178555
 11
-4.3940280736
 21
13.987595722
  0
LWPOLYLINE
  5
517
100
AcDbEntity
  8
0
100
AcDbPolyline
 62
250
  6
CONTINUOUS
 90
19
 70
0
 10
-3.88925238
 20
13.0032841332
 10
-3.9522488912
 20
13.0024529384
 10
-4.0144207582
 20
13.0008900574
 10
-4.0750485363
 20
12.9986202198
 10
-4.1328732233
 20
12.9957244854
 10
-4.1878746139
 20
12.9922436086
 10
-4.2411630676
 20
12.988118018
 10
-4.2924551235
 20
12.9833449407
 10
-4.3408682227
 20
12.977985102
 10
-4.386448001
 20
12.9720196039
 10
-4.4286592101
 20
12.9654808811
 10
-4.4669295803
 20
12.9584401511
 10
-4.5010312193
 20
12.9509138739
 10
-4.5304219666
 20
12.9430011866
 10
-4.5548660545
 20
12.9347675324
 10
-4.5743483318
 20
12.9261736322
 10
-4.5885693773
 20
12.917273527
 10
-4.5971441286
 20
12.908223366
 10
-4.6000004732
 20
12.8991341699
  0
LINE
  5
518
100
AcDbEntity
  8
0
100
AcDbLine
 62
7
  6
CONTINUOUS
 10
-4.3940280736
 20
13.987595722
 11
-4.2996142303
 21
13.9889500392
  0
LINE
  5
519
100
AcDbEntity
  8
0
100
AcDbLine
 62
250
  6
CONTINUOUS
 10
-3.8892524404
 20
12.7782208352
 11
-3.800000475
 21
12.7793012453
  0
LINE
  5
51A
100
AcDbEntity
  8
0
100
AcDbLine
 62
7
  6
CONTINUOUS
 10
-4.2996142303
 20
13.9889500392
 11
-4.1349936314
 21
13.9904792319
  0
LINE
  5
51B
100
AcDbEntity
  8
0
100
AcDbLine
 62
250
  6
CONTINUOUS
 10
-3.1038765056
 20
12.9787237856
 11
0.0
 21
13.0077179415
  0
LINE
  5
51C
100
AcDbEntity
  8
0
100
AcDbLine
 62
7
  6
CONTINUOUS
 10
-3.800000475
 20
13.6888813767
 11
-3.8892524404
 21
13.6884130437
  0
LINE
  5
51D
100
AcDbEntity
  8
0
100
AcDbLine
 62
7
  6
CONTINUOUS
 10
-3.9521821303
 20
13.9777193593
 11
-3.800000475
 21
13.9783886748
  0
LINE
  5
51E
100
AcDbEntity
  8
0
100
AcDbLine
 62
7
  6
CONTINUOUS
 10
-4.1349936314
 20
13.9904792319
 11
-3.8892524404
 21
13.9914378419
  0
LINE
  5
51F
100
AcDbEntity
  8
0
100
AcDbLine
 62
7
  6
CONTINUOUS
 10
-3.8892524404
 20
13.9914378419
 11
-3.800000475
 21
13.9915155979
  0
LINE
  5
520
100
AcDbEntity
  8
0
100
AcDbLine
 62
7
  6
CONTINUOUS
 10
4.0755261792
 20
13.99083969
 11
3.800000475
 21
13.9915155979
  0
LINE
  5
521
100
AcDbEntity
  8
0
100
AcDbLine
 62
7
  6
CONTINUOUS
 10
3.8892524404
 20
13.6884130437
 11
3.800000475
 21
13.6888813767
  0
LWPOLYLINE
  5
522
100
AcDbEntity
  8
0
100
AcDbPolyline
 62
250
  6
CONTINUOUS
 90
3
 70
0
 10
0.6782383389
 20
13.0023479598
 10
0.5271953693
 20
13.0031563825
 10
0.5064967203
 20
13.0033348973
  0
LINE
  5
523
100
AcDbEntity
  8
0
100
AcDbLine
 62
250
  6
CONTINUOUS
 10
3.103828587
 20
12.9787251217
 11
2.9759328786
 21
12.9794757218
  0
LINE
  5
524
100
AcDbEntity
  8
0
100
AcDbLine
 62
250
  6
CONTINUOUS
 10
2.6549380378
 20
12.9834292989
 11
2.3075970877
 21
12.9854142248
  0
LINE
  5
525
100
AcDbEntity
  8
0
100
AcDbLine
 62
250
  6
CONTINUOUS
 10
1.7640176109
 20
12.9920650254
 11
1.3314696356
 21
12.9946949095
  0
LWPOLYLINE
  5
526
100
AcDbEntity
  8
0
100
AcDbPolyline
 62
250
  6
CONTINUOUS
 90
3
 70
0
 10
0.1259895635
 20
13.0070752365
 10
0.0838299462
 20
13.007419406
 10
0.0
 20
13.0077179416
  0
LINE
  5
527
100
AcDbEntity
  8
0
100
AcDbLine
 62
250
  6
CONTINUOUS
 10
0.2962686266
 20
13.0049095391
 11
0.2534469917
 21
13.0052631208
  0
LWPOLYLINE
  5
528
100
AcDbEntity
  8
0
100
AcDbPolyline
 62
250
  6
CONTINUOUS
 90
3
 70
0
 10
0.4444409015
 20
13.0042171709
 10
0.4237624179
 20
13.0043953991
 10
0.2962686266
 20
13.0049095391
  0
LINE
  5
529
100
AcDbEntity
  8
0
100
AcDbLine
 62
7
  6
CONTINUOUS
 10
4.2474352099
 20
13.9895311924
 11
4.0755261792
 21
13.99083969
  0
LINE
  5
52A
100
AcDbEntity
  8
0
100
AcDbLine
 62
250
  6
CONTINUOUS
 10
0.8968413542
 20
13.0004072839
 11
0.6782383389
 21
13.0023479598
  0
LINE
  5
52B
100
AcDbEntity
  8
0
100
AcDbLine
 62
250
  6
CONTINUOUS
 10
3.8892524408
 20
12.7782568615
 11
3.800000475
 21
12.7792830394
  0
LINE
  5
52C
100
AcDbEntity
  8
0
100
AcDbLine
 62
7
  6
CONTINUOUS
 10
4.348592928
 20
13.9883048683
 11
4.2474352099
 21
13.9895311924
  0
LWPOLYLINE
  5
52D
100
AcDbEntity
  8
0
100
AcDbPolyline
 62
250
  6
CONTINUOUS
 90
4
 70
0
 10
2.3075970877
 20
12.9854142248
 10
2.0897483937
 20
12.9878829313
 10
1.9810378759
 20
12.989608097
 10
1.7640176109
 20
12.9920650254
  0
LWPOLYLINE
  5
52E
100
AcDbEntity
  8
0
100
AcDbPolyline
 62
250
  6
CONTINUOUS
 90
4
 70
0
 10
2.9759328786
 20
12.9794757218
 10
2.8477535052
 20
12.980942186
 10
2.7835576191
 20
12.981956576
 10
2.6549380378
 20
12.9834292989
  0
LWPOLYLINE
  5
52F
100
AcDbEntity
  8
0
100
AcDbPolyline
 62
250
  6
CONTINUOUS
 90
3
 70
0
 10
1.3314696356
 20
12.9946949095
 10
1.1145750877
 20
12.9972338526
 10
0.8968413542
 20
13.0004072839
  0
LINE
  5
530
100
AcDbEntity
  8
0
100
AcDbLine
 62
250
  6
CONTINUOUS
 10
0.5064967203
 20
13.0033348973
 11
0.4444409015
 21
13.0042171709
  0
LINE
  5
531
100
AcDbEntity
  8
0
100
AcDbLine
 62
250
  6
CONTINUOUS
 10
0.2534469917
 20
13.0052631208
 11
0.1259895635
 21
13.0070752365
  0
LINE
  5
532
100
AcDbEntity
  8
0
100
AcDbLine
 62
7
  6
CONTINUOUS
 10
3.800000473
 20
13.6888931459
 11
0.6961570884
 21
13.7464969619
  0
LINE
  5
533
100
AcDbEntity
  8
0
100
AcDbLine
 62
7
  6
CONTINUOUS
 10
3.8000004747
 20
13.9783886743
 11
0.2071338349
 21
14.0898674729
  0
LINE
  5
534
100
AcDbEntity
  8
0
100
AcDbLine
 62
7
  6
CONTINUOUS
 10
3.1038318655
 20
12.978728609
 11
3.800000475
 21
12.7792830394
  0
LINE
  5
535
100
AcDbEntity
  8
0
100
AcDbLine
 62
7
  6
CONTINUOUS
 10
0.2563903532
 20
13.8857504051
 11
0.5422099149
 21
13.7959893234
  0
LINE
  5
536
100
AcDbEntity
  8
0
100
AcDbLine
 62
7
  6
CONTINUOUS
 10
0.5422099149
 20
13.7959893234
 11
0.6644675975
 21
13.7570433715
  0
LINE
  5
537
100
AcDbEntity
  8
0
100
AcDbLine
 62
7
  6
CONTINUOUS
 10
0.1502230432
 20
13.9195390626
 11
0.2563903532
 21
13.8857504051
  0
LINE
  5
538
100
AcDbEntity
  8
0
100
AcDbLine
 62
7
  6
CONTINUOUS
 10
3.103828587
 20
12.9787251217
 11
0.6926352439
 21
13.7476852392
  0
LINE
  5
539
100
AcDbEntity
  8
0
100
AcDbLine
 62
7
  6
CONTINUOUS
 10
0.6926352439
 20
13.7476852392
 11
0.6855831915
 21
13.7499948639
  0
LWPOLYLINE
  5
53A
100
AcDbEntity
  8
0
100
AcDbPolyline
 62
7
  6
CONTINUOUS
 90
3
 70
0
 10
0.0
 20
13.9685629845
 10
0.0488748063
 20
13.9524506599
 10
0.1502230432
 20
13.9195390626
  0
LINE
  5
53B
100
AcDbEntity
  8
0
100
AcDbLine
 62
7
  6
CONTINUOUS
 10
0.6750403622
 20
13.7535522251
 11
0.6644675975
 21
13.7570433715
  0
LWPOLYLINE
  5
53C
100
AcDbEntity
  8
0
100
AcDbPolyline
 62
7
  6
CONTINUOUS
 90
31
 70
0
 10
3.1038619511
 20
12.9788244637
 10
3.1398988613
 20
12.9666413346
 10
3.1757016486
 20
12.9529682243
 10
3.211203958
 20
12.937798196
 10
3.2463731056
 20
12.9211102409
 10
3.2811038684
 20
12.9029177638
 10
3.3152258573
 20
12.8832814165
 10
3.3486767894
 20
12.862211107
 10
3.3813921985
 20
12.8397308596
 10
3.4132129914
 20
12.8159567288
 10
3.4440886153
 20
12.7909397681
 10
3.4739654591
 20
12.7647187172
 10
3.502700975
 20
12.7374218973
 10
3.5302392518
 20
12.7091302078
 10
3.5565698174
 20
12.6798797163
 10
3.5816352232
 20
12.6497411334
 10
3.6053947781
 20
12.6187924689
 10
3.627844848
 20
12.5870736389
 10
3.6489851268
 20
12.554592651
 10
3.668794711
 20
12.5213947211
 10
3.6872527061
 20
12.4875422046
 10
3.7043540491
 20
12.4530623956
 10
3.7200811124
 20
12.4179967679
 10
3.7344160523
 20
12.3824103951
 10
3.7473541624
 20
12.3463663995
 10
3.7587059401
 20
12.3100980314
 10
3.7686551733
 20
12.2734799361
 10
3.7776955583
 20
12.2360585325
 10
3.7859197712
 20
12.1977470586
 10
3.7930928185
 20
12.1588036818
 10
3.7991605197
 20
12.1193193865
  0
LINE
  5
53D
100
AcDbEntity
  8
0
100
AcDbLine
 62
7
  6
CONTINUOUS
 10
0.6855831915
 20
13.7499948639
 11
0.6750403622
 21
13.7535522251
  0
LWPOLYLINE
  5
53E
100
AcDbEntity
  8
0
100
AcDbPolyline
 62
7
  6
CONTINUOUS
 90
10
 70
0
 10
0.6644676763
 20
13.7570435222
 10
0.6567914991
 20
13.759905283
 10
0.6491800433
 20
13.7627908584
 10
0.6416248801
 20
13.7657022714
 10
0.634111387
 20
13.768636343
 10
0.6266418466
 20
13.771599057
 10
0.6192347788
 20
13.7746062823
 10
0.6118938158
 20
13.7776631479
 10
0.6046076418
 20
13.7807647082
 10
0.5973729008
 20
13.7839117064
  0
LWPOLYLINE
  5
53F
100
AcDbEntity
  8
0
100
AcDbPolyline
 62
7
  6
CONTINUOUS
 90
10
 70
0
 10
0.5973729008
 20
13.7839117064
 10
0.5876601522
 20
13.7882432097
 10
0.5779209945
 20
13.792713374
 10
0.568166036
 20
13.7973197122
 10
0.5584042864
 20
13.8020577298
 10
0.5486400324
 20
13.8069279756
 10
0.5388730024
 20
13.8119360268
 10
0.5291027394
 20
13.8170835028
 10
0.5193287757
 20
13.8223683477
 10
0.5095477807
 20
13.8277919014
  0
LWPOLYLINE
  5
540
100
AcDbEntity
  8
0
100
AcDbPolyline
 62
7
  6
CONTINUOUS
 90
14
 70
0
 10
-4.5576822044
 20
13.9469478109
 10
-4.5342360288
 20
13.950613309
 10
-4.5059219487
 20
13.9541281203
 10
-4.4729387813
 20
13.9574806554
 10
-4.4355226578
 20
13.9606635205
 10
-4.393944508
 20
13.9636264329
 10
-4.3485044777
 20
13.9663580698
 10
-4.2995240738
 20
13.9688540916
 10
-4.2473476355
 20
13.9710756363
 10
-4.1923422288
 20
13.9730130393
 10
-4.134902591
 20
13.9746644709
 10
-4.0754444292
 20
13.976003995
 10
-4.0143935866
 20
13.9770208363
 10
-3.9521821303
 20
13.9777193593
  0
LWPOLYLINE
  5
541
100
AcDbEntity
  8
0
100
AcDbPolyline
 62
7
  6
CONTINUOUS
 90
4
 70
0
 10
-4.5577053384
 20
13.9833276292
 10
-4.5342673024
 20
13.9842567439
 10
-4.5059628062
 20
13.9851565555
 10
-4.4729931858
 20
13.9860178555
  0
LINE
  5
542
100
AcDbEntity
  8
0
100
AcDbLine
 62
7
  6
CONTINUOUS
 10
-3.800000473
 20
13.991515598
 11
-0.1905928485
 21
14.1120250362
  0
LINE
  5
543
100
AcDbEntity
  8
0
100
AcDbLine
 62
7
  6
CONTINUOUS
 10
0.0000005559
 20
14.8503569597
 11
-3.8892541119
 21
14.7900396243
  0
LINE
  5
544
100
AcDbEntity
  8
0
100
AcDbLine
 62
7
  6
CONTINUOUS
 10
0.0000003752
 20
14.5688698515
 11
-0.0082423171
 21
14.568826298
  0
LINE
  5
545
100
AcDbEntity
  8
0
100
AcDbLine
 62
7
  6
CONTINUOUS
 10
3.8000060386
 20
14.5688926146
 11
0.0000004949
 21
14.5688698423
  0
LINE
  5
546
100
AcDbEntity
  8
0
100
AcDbLine
 62
7
  6
CONTINUOUS
 10
-0.0082423171
 20
14.568826298
 11
-3.798501927
 21
14.5688700193
  0
LINE
  5
547
100
AcDbEntity
  8
0
100
AcDbLine
 62
250
  6
CONTINUOUS
 10
3.8000060386
 20
14.5688926146
 11
3.8892525237
 21
14.5688813439
  0
LINE
  5
548
100
AcDbEntity
  8
0
100
AcDbLine
 62
250
  6
CONTINUOUS
 10
-3.8892579888
 20
14.5688925915
 11
-3.798501927
 21
14.5688700193
  0
LINE
  5
549
100
AcDbEntity
  8
0
100
AcDbLine
 62
7
  6
CONTINUOUS
 10
0.0000003239
 20
14.8503576354
 11
3.8892523128
 21
14.7900401383
  0
LINE
  5
54A
100
AcDbEntity
  8
0
100
AcDbLine
 62
7
  6
CONTINUOUS
 10
3.800000475
 20
13.9915155979
 11
0.1905827266
 21
14.1120180565
  0
LWPOLYLINE
  5
54B
100
AcDbEntity
  8
0
100
AcDbPolyline
 62
7
  6
CONTINUOUS
 90
6
 70
0
 10
4.557705299
 20
13.9833277636
 10
4.5342671582
 20
13.9842568561
 10
4.5059625152
 20
13.9851566444
 10
4.472992708
 20
13.9860179248
 10
4.4355922543
 20
13.9868309422
 10
4.348592928
 20
13.9883048683
  0
LWPOLYLINE
  5
54C
100
AcDbEntity
  8
0
100
AcDbPolyline
 62
7
  6
CONTINUOUS
 90
15
 70
0
 10
4.5576822044
 20
13.9469614677
 10
4.5342360288
 20
13.9506058684
 10
4.5059219487
 20
13.9541291932
 10
4.4729387813
 20
13.957493442
 10
4.4355226578
 20
13.9606578028
 10
4.393944508
 20
13.963626596
 10
4.3485044777
 20
13.9663687602
 10
4.2995240738
 20
13.9688503317
 10
4.2473476355
 20
13.971075204
 10
4.1923422288
 20
13.9730217138
 10
4.134902591
 20
13.9746638038
 10
4.0754444292
 20
13.9760036466
 10
4.0143935866
 20
13.9770331239
 10
3.9521821303
 20
13.9777337383
 10
3.800000475
 20
13.9783886748
  0
LWPOLYLINE
  5
54D
100
AcDbEntity
  8
0
100
AcDbPolyline
 62
7
  6
CONTINUOUS
 90
5
 70
0
 10
4.6000004732
 20
13.9794106916
 10
4.5973333502
 20
13.9803982072
 10
4.5893509906
 20
13.9813879456
 10
4.5761102271
 20
13.9823691447
 10
4.557705299
 20
13.9833277636
  0
LINE
  5
54E
100
AcDbEntity
  8
ASSI
100
AcDbLine
 62
250
  6
CONTINUOUS
 10
9.6761825974
 20
-18.0499118029
 11
9.65
 21
-18.1006230748
  0
LINE
  5
54F
100
AcDbEntity
  8
RACCORDO
100
AcDbLine
 62
250
  6
CONTINUOUS
 10
9.6761825974
 20
-18.0499118029
 11
9.65
 21
-18.1006230748
  0
LINE
  5
550
100
AcDbEntity
  8
ASSI
100
AcDbLine
 62
250
  6
CONTINUOUS
 10
10.0282352926
 20
-18.1797639505
 11
10.0017927407
 21
-18.2307790647
  0
LINE
  5
551
100
AcDbEntity
  8
RACCORDO
100
AcDbLine
 62
250
  6
CONTINUOUS
 10
10.0282352926
 20
-18.1797639505
 11
10.0017927407
 21
-18.2307790647
  0
LINE
  5
552
100
AcDbEntity
  8
0
100
AcDbLine
 62
7
  6
CONTINUOUS
 10
7.2974914295
 20
-17.0906269643
 11
7.2445864957
 21
-17.1489164046
  0
LINE
  5
553
100
AcDbEntity
  8
0
100
AcDbLine
 62
7
  6
CONTINUOUS
 10
7.2445864957
 20
-17.1489164046
 11
7.1844927226
 21
-17.2141400686
  0
LINE
  5
554
100
AcDbEntity
  8
0
100
AcDbLine
 62
7
  6
CONTINUOUS
 10
7.1844927226
 20
-17.2141400686
 11
7.117163695
 21
-17.286261969
  0
LINE
  5
555
100
AcDbEntity
  8
0
100
AcDbLine
 62
7
  6
CONTINUOUS
 10
7.117163695
 20
-17.286261969
 11
7.0426192619
 21
-17.365120305
  0
LINE
  5
556
100
AcDbEntity
  8
0
100
AcDbLine
 62
7
  6
CONTINUOUS
 10
7.0426192619
 20
-17.365120305
 11
6.9613816519
 21
-17.4502030558
  0
LINE
  5
557
100
AcDbEntity
  8
0
100
AcDbLine
 62
7
  6
CONTINUOUS
 10
6.9613816519
 20
-17.4502030558
 11
6.8284544786
 21
-17.5876381519
  0
LWPOLYLINE
  5
558
100
AcDbEntity
  8
0
100
AcDbPolyline
 62
7
  6
CONTINUOUS
 90
4
 70
0
 10
6.8284544786
 20
-17.5876381519
 10
6.6859474249
 20
-17.7330500187
 10
6.6369527363
 20
-17.782596476
 10
6.5871557427
 20
-17.8325
  0
LINE
  5
559
100
AcDbEntity
  8
0
100
AcDbLine
 62
7
  6
CONTINUOUS
 10
0.0
 20
17.4750021727
 11
-3.8892524434
 21
17.2711750891
  0
LINE
  5
55A
100
AcDbEntity
  8
0
100
AcDbLine
 62
250
  6
CONTINUOUS
 10
-3.8892524408
 20
16.7608970125
 11
0.0000685132
 21
16.9644476203
  0
LINE
  5
55B
100
AcDbEntity
  8
0
100
AcDbLine
 62
250
  6
CONTINUOUS
 10
-0.0000683642
 20
16.964450458
 11
3.8892525897
 21
16.76089985
  0
LINE
  5
55C
100
AcDbEntity
  8
0
100
AcDbLine
 62
7
  6
CONTINUOUS
 10
0.0000004398
 20
17.4750021497
 11
3.8892524437
 21
17.2711750891
  0
LINE
  5
55D
100
AcDbEntity
  8
0
100
AcDbLine
 62
7
  6
CONTINUOUS
 10
6.7817404702
 20
17.6355034439
 11
6.5871557427
 21
17.8325
  0
LINE
  5
55E
100
AcDbEntity
  8
0
100
AcDbLine
 62
7
  6
CONTINUOUS
 10
6.9183368732
 20
17.4949639527
 11
6.7817404702
 21
17.6355034439
  0
LINE
  5
55F
100
AcDbEntity
  8
0
100
AcDbLine
 62
7
  6
CONTINUOUS
 10
7.042651791
 20
17.3651529585
 11
6.9183368732
 21
17.4949639527
  0
LINE
  5
560
100
AcDbEntity
  8
0
100
AcDbLine
 62
7
  6
CONTINUOUS
 10
7.117163695
 20
17.286261969
 11
7.042651791
 21
17.3651529585
  0
LINE
  5
561
100
AcDbEntity
  8
0
100
AcDbLine
 62
7
  6
CONTINUOUS
 10
7.18450215
 20
17.2141495321
 11
7.117163695
 21
17.286261969
  0
LWPOLYLINE
  5
562
100
AcDbEntity
  8
0
100
AcDbPolyline
 62
7
  6
CONTINUOUS
 90
3
 70
0
 10
7.2719354408
 20
17.1189209366
 10
7.2445949095
 20
17.1489248505
 10
7.18450215
 20
17.2141495321
  0
LINE
  5
563
100
AcDbEntity
  8
ASSI
100
AcDbLine
 62
250
  6
CONTINUOUS
 10
10.0017927407
 20
18.2307790647
 11
10.0282352926
 21
18.1797639505
  0
LINE
  5
564
100
AcDbEntity
  8
RACCORDO
100
AcDbLine
 62
250
  6
CONTINUOUS
 10
10.0017927407
 20
18.2307790647
 11
10.0282352926
 21
18.1797639505
  0
LINE
  5
565
100
AcDbEntity
  8
ASSI
100
AcDbLine
 62
250
  6
CONTINUOUS
 10
9.65
 20
18.1006230748
 11
9.6761825974
 21
18.0499118029
  0
LINE
  5
566
100
AcDbEntity
  8
RACCORDO
100
AcDbLine
 62
250
  6
CONTINUOUS
 10
9.65
 20
18.1006230748
 11
9.6761825974
 21
18.0499118029
  0
LWPOLYLINE
  5
567
100
AcDbEntity
  8
ASSI
100
AcDbPolyline
 62
7
  6
CONTINUOUS
 90
10
 70
0
 10
10.9157929742
 20
-17.086390382
 10
10.9584956644
 20
-17.0264427503
 10
10.9963946449
 20
-16.9642469207
 10
11.0294899157
 20
-16.8998028933
 10
11.0579061522
 20
-16.8327439812
 10
11.0815186789
 20
-16.7634368711
 10
11.0999534699
 20
-16.6929816239
 10
11.1130858499
 20
-16.6217449262
 10
11.1210404941
 20
-16.5493600913
 10
11.1238174026
 20
-16.4758271192
  0
LWPOLYLINE
  5
568
100
AcDbEntity
  8
RACCORDO
100
AcDbPolyline
 62
7
  6
CONTINUOUS
 90
10
 70
0
 10
10.9157929779
 20
-17.086390376
 10
10.9582685444
 20
-17.0269709071
 10
10.9960422757
 20
-16.965042328
 10
11.0291141717
 20
-16.9006046386
 10
11.0576690328
 20
-16.8331193229
 10
11.0815220587
 20
-16.7631248969
 10
11.1001188487
 20
-16.6922369087
 10
11.1132746026
 20
-16.6209938743
 10
11.1211741205
 20
-16.5488572778
 10
11.1238174026
 20
-16.4758271192
  0
LINE
  5
569
100
AcDbEntity
  8
ASSI
100
AcDbLine
 62
7
  6
CONTINUOUS
 10
6.7330351795
 20
-18.85
 11
6.6330351795
 21
-18.95
  0
LINE
  5
56A
100
AcDbEntity
  8
0
100
AcDbLine
 62
7
  6
CONTINUOUS
 10
6.7330351795
 20
-18.85
 11
6.6330351795
 21
-18.95
  0
LINE
  5
56B
100
AcDbEntity
  8
0
100
AcDbLine
 62
250
  6
CONTINUOUS
 10
-0.0
 20
17.9822819681
 11
-7.5871557427
 21
17.849847672
  0
LINE
  5
56C
100
AcDbEntity
  8
0
100
AcDbLine
 62
7
  6
CONTINUOUS
 10
-7.5174524064
 20
18.8496953671
 11
-6.7461929308
 21
18.8631577513
  0
LINE
  5
56D
100
AcDbEntity
  8
0
100
AcDbLine
 62
7
  6
CONTINUOUS
 10
-6.7194099291
 20
18.8636252504
 11
-2.4000007267
 21
18.9390208184
  0
LINE
  5
56E
100
AcDbEntity
  8
0
100
AcDbLine
 62
250
  6
CONTINUOUS
 10
8.5
 20
17.8325
 11
6.5871557427
 21
17.8325
  0
LINE
  5
56F
100
AcDbEntity
  8
0
100
AcDbLine
 62
250
  6
CONTINUOUS
 10
-6.5871557427
 20
17.8325
 11
-8.5
 21
17.8325
  0
LINE
  5
570
100
AcDbEntity
  8
0
100
AcDbLine
 62
250
  6
CONTINUOUS
 10
-8.5
 20
17.849847672
 11
-7.5871557427
 21
17.849847672
  0
LINE
  5
571
100
AcDbEntity
  8
0
100
AcDbLine
 62
250
  6
CONTINUOUS
 10
7.5871557427
 20
17.849847672
 11
8.5
 21
17.849847672
  0
LINE
  5
572
100
AcDbEntity
  8
ASSI
100
AcDbLine
 62
7
  6
CONTINUOUS
 10
-7.5226756989
 20
18.95
 11
-6.8330351795
 21
18.95
  0
LINE
  5
573
100
AcDbEntity
  8
RACCORDO
100
AcDbLine
 62
7
  6
CONTINUOUS
 10
-6.6330351795
 20
18.95
 11
-6.3804626182
 21
18.95
  0
LINE
  5
574
100
AcDbEntity
  8
RACCORDO
100
AcDbLine
 62
7
  6
CONTINUOUS
 10
-6.923275637
 20
18.95
 11
-6.8330351795
 21
18.95
  0
LINE
  5
575
100
AcDbEntity
  8
ASSI
100
AcDbLine
 62
7
  6
CONTINUOUS
 10
-6.6330351795
 20
18.95
 11
-6.0856534392
 21
18.95
  0
LINE
  5
576
100
AcDbEntity
  8
ASSI
100
AcDbLine
 62
7
  6
CONTINUOUS
 10
6.0856534392
 20
18.95
 11
6.6330351795
 21
18.95
  0
LINE
  5
577
100
AcDbEntity
  8
RACCORDO
100
AcDbLine
 62
7
  6
CONTINUOUS
 10
6.3804626182
 20
18.95
 11
6.6330351795
 21
18.95
  0
LINE
  5
578
100
AcDbEntity
  8
ASSI
100
AcDbLine
 62
7
  6
CONTINUOUS
 10
6.8330351795
 20
18.95
 11
7.5226756989
 21
18.95
  0
LINE
  5
579
100
AcDbEntity
  8
RACCORDO
100
AcDbLine
 62
7
  6
CONTINUOUS
 10
6.8330351795
 20
18.95
 11
6.923275637
 21
18.95
  0
LINE
  5
57A
100
AcDbEntity
  8
ASSI
100
AcDbLine
 62
7
  6
CONTINUOUS
 10
6.0830351795
 20
19.1
 11
2.8366556363
 21
19.1
  0
LINE
  5
57B
100
AcDbEntity
  8
ASSI
100
AcDbLine
 62
7
  6
CONTINUOUS
 10
-2.8366556363
 20
19.1
 11
-6.0830351795
 21
19.1
  0
LINE
  5
57C
100
AcDbEntity
  8
RACCORDO
100
AcDbLine
 62
7
  6
CONTINUOUS
 10
-6.120654997
 20
19.1
 11
-2.40000025
 21
19.1
  0
LINE
  5
57D
100
AcDbEntity
  8
RACCORDO
100
AcDbLine
 62
7
  6
CONTINUOUS
 10
2.40000025
 20
19.1
 11
6.120654997
 21
19.1
  0
LINE
  5
57E
100
AcDbEntity
  8
RACCORDO
100
AcDbLine
 62
250
  6
CONTINUOUS
 10
-7.2180848159
 20
19.25
 11
-7.5226756989
 21
19.25
  0
LINE
  5
57F
100
AcDbEntity
  8
RACCORDO
100
AcDbLine
 62
250
  6
CONTINUOUS
 10
7.2180848159
 20
19.25
 11
7.5226756989
 21
19.25
  0
LINE
  5
580
100
AcDbEntity
  8
0
100
AcDbLine
 62
250
  6
CONTINUOUS
 10
7.5871557427
 20
17.849847672
 11
-0.0
 21
17.9822819681
  0
LINE
  5
581
100
AcDbEntity
  8
0
100
AcDbLine
 62
7
  6
CONTINUOUS
 10
2.40000025
 20
18.9390208268
 11
6.7194099291
 21
18.8636252504
  0
LINE
  5
582
100
AcDbEntity
  8
0
100
AcDbLine
 62
7
  6
CONTINUOUS
 10
6.7461929308
 20
18.8631577513
 11
7.5174524064
 21
18.8496953671
  0
LWPOLYLINE
  5
583
100
AcDbEntity
  8
0
100
AcDbPolyline
 62
7
  6
CONTINUOUS
 90
16
 70
0
 10
2.15000025
 20
18.8827984638
 10
2.1754895411
 20
18.8822191797
 10
2.2008819597
 20
18.8824916433
 10
2.2259011542
 20
18.8836164212
 10
2.2502995841
 20
18.8856873113
 10
2.2737566399
 20
18.8886073093
 10
2.2958994227
 20
18.8920867531
 10
2.3164650122
 20
18.8961496608
 10
2.3352210518
 20
18.9007557386
 10
2.3518961258
 20
18.9055141421
 10
2.3662994506
 20
18.9104223418
 10
2.3782892941
 20
18.9154575472
 10
2.3877309951
 20
18.9201960473
 10
2.3945312576
 20
18.9244867142
 10
2.3986315237
 20
18.928451365
 10
2.40000025
 20
18.9320750066
  0
LINE
  5
584
100
AcDbEntity
  8
ASSI
100
AcDbLine
 62
7
  6
CONTINUOUS
 10
6.6330351795
 20
18.95
 11
6.7330351795
 21
18.85
  0
LINE
  5
585
100
AcDbEntity
  8
0
100
AcDbLine
 62
7
  6
CONTINUOUS
 10
6.6330351795
 20
18.95
 11
6.7330351795
 21
18.85
  0
LWPOLYLINE
  5
586
100
AcDbEntity
  8
RACCORDO
100
AcDbPolyline
 62
7
  6
CONTINUOUS
 90
10
 70
0
 10
10.9425612894
 20
17.0730847657
 10
10.9849181826
 20
17.0137191992
 10
11.0225862052
 20
16.9518531464
 10
11.0555653571
 20
16.8874866073
 10
11.0840398601
 20
16.8200823708
 10
11.1078254924
 20
16.7501776479
 10
11.126369589
 20
16.6793840721
 10
11.1394879283
 20
16.6082388542
 10
11.147364732
 20
16.5362047833
 10
11.15
 20
16.4632818593
  0
LWPOLYLINE
  5
587
100
AcDbEntity
  8
ASSI
100
AcDbPolyline
 62
7
  6
CONTINUOUS
 90
10
 70
0
 10
10.9425612894
 20
17.0730847657
 10
10.9851465683
 20
17.0131878127
 10
11.0229406824
 20
16.9510522655
 10
11.0559436316
 20
16.886678124
 10
11.0842793739
 20
16.8197002379
 10
11.1078239514
 20
16.7504837575
 10
11.1262054901
 20
16.6801241343
 10
11.1393000321
 20
16.6089865188
 10
11.1472315354
 20
16.5367057604
 10
11.15
 20
16.4632818593
  0
LWPOLYLINE
  5
588
100
AcDbEntity
  8
ASSI
100
AcDbPolyline
 62
7
  6
CONTINUOUS
 90
22
 70
0
 10
10.0017927407
 20
-18.2307790647
 10
9.985259103
 20
-18.2477567752
 10
9.9674251991
 20
-18.2624146761
 10
9.948291029
 20
-18.2747527672
 10
9.9275678786
 20
-18.2848711424
 10
9.9055444619
 20
-18.2926697079
 10
9.8830869215
 20
-18.2978481826
 10
9.8601791804
 20
-18.3003031179
 10
9.8368373157
 20
-18.3001379623
 10
9.8139757005
 20
-18.2973627805
 10
9.7916138807
 20
-18.2918751943
 10
9.7697323104
 20
-18.2837775819
 10
9.7491867253
 20
-18.2733871429
 10
9.7300292165
 20
-18.2606137706
 10
9.7122076929
 20
-18.2455475716
 10
9.6964216162
 20
-18.2287760651
 10
9.6827503798
 20
-18.2102316661
 10
9.6711145904
 20
-18.1899819596
 10
9.6619755295
 20
-18.1688172197
 10
9.6554869577
 20
-18.1470008714
 10
9.6514951146
 20
-18.1242694897
 10
9.65
 20
-18.1006230748
  0
LWPOLYLINE
  5
589
100
AcDbEntity
  8
RACCORDO
100
AcDbPolyline
 62
7
  6
CONTINUOUS
 90
19
 70
0
 10
10.0017927407
 20
-18.2307790647
 10
9.9821707004
 20
-18.2504383448
 10
9.9609731634
 20
-18.2668714725
 10
9.9382001297
 20
-18.2800784479
 10
9.9133954377
 20
-18.2901808016
 10
9.8870152491
 20
-18.2970570029
 10
9.8604280484
 20
-18.3003424598
 10
9.8336058648
 20
-18.2998471389
 10
9.8065766692
 20
-18.2957610735
 10
9.7807928594
 20
-18.2882897721
 10
9.7563250602
 20
-18.2772431013
 10
9.7331026467
 20
-18.2628111944
 10
9.7123661424
 20
-18.2457699601
 10
9.6942561753
 20
-18.2259949019
 10
9.6786321172
 20
-18.2036105163
 10
9.6663126068
 20
-18.179766201
 10
9.6575705236
 20
-18.1548450886
 10
9.652132988
 20
-18.1284640465
 10
9.65
 20
-18.1006230748
  0
LINE
  5
58A
100
AcDbEntity
  8
DRAFT
100
AcDbLine
 62
7
  6
CONTINUOUS
 10
7.5226756989
 20
-20.7603594806
 11
7.3830351795
 21
-20.9
  0
LINE
  5
58B
100
AcDbEntity
  8
ASSI
100
AcDbLine
 62
7
  6
CONTINUOUS
 10
7.3830351795
 20
-20.9
 11
7.5226756989
 21
-20.7603594806
  0
LINE
  5
58C
100
AcDbEntity
  8
ASSI
100
AcDbLine
 62
250
  6
CONTINUOUS
 10
10.9425612895
 20
-17.0730847656
 11
10.9157929741
 21
-17.0863903821
  0
LINE
  5
58D
100
AcDbEntity
  8
RACCORDO
100
AcDbLine
 62
250
  6
CONTINUOUS
 10
10.9425612895
 20
-17.0730847656
 11
10.9157929741
 21
-17.0863903821
  0
LINE
  5
58E
100
AcDbEntity
  8
ASSI
100
AcDbLine
 62
250
  6
CONTINUOUS
 10
11.15
 20
-16.463281859
 11
11.1238174026
 21
-16.4758271193
  0
LINE
  5
58F
100
AcDbEntity
  8
RACCORDO
100
AcDbLine
 62
250
  6
CONTINUOUS
 10
11.15
 20
-16.4632818589
 11
11.1238174026
 21
-16.4758271193
  0
LINE
  5
590
100
AcDbEntity
  8
ASSI
100
AcDbLine
 62
7
  6
CONTINUOUS
 10
3.4452396157
 20
21.2139629885
 11
3.2221796168
 21
21.202894032
  0
LINE
  5
591
100
AcDbEntity
  8
DRAFT
100
AcDbLine
 62
7
  6
CONTINUOUS
 10
3.4452396157
 20
21.2139629885
 11
3.2221796168
 21
21.202894032
  0
LINE
  5
592
100
AcDbEntity
  8
ASSI
100
AcDbLine
 62
250
  6
CONTINUOUS
 10
2.7904532343
 20
21.1771527675
 11
3.2502365039
 21
21.1999086032
  0
LINE
  5
593
100
AcDbEntity
  8
RACCORDO
100
AcDbLine
 62
250
  6
CONTINUOUS
 10
2.7904532343
 20
21.1771527675
 11
3.2502365039
 21
21.1999086032
  0
LINE
  5
594
100
AcDbEntity
  8
ASSI
100
AcDbLine
 62
7
  6
CONTINUOUS
 10
-2.8148356752
 20
19.5
 11
2.8148356752
 21
19.5
  0
LINE
  5
595
100
AcDbEntity
  8
SMUSSO
100
AcDbLine
 62
7
  6
CONTINUOUS
 10
-2.8148356752
 20
19.5
 11
2.8148356752
 21
19.5
  0
LINE
  5
596
100
AcDbEntity
  8
SMUSSO
100
AcDbLine
 62
7
  6
CONTINUOUS
 10
-2.8136015098
 20
19.6414213562
 11
2.8136015098
 21
19.6414213562
  0
LINE
  5
597
100
AcDbEntity
  8
ASSI
100
AcDbLine
 62
7
  6
CONTINUOUS
 10
-2.8272050914
 20
19.6414213562
 11
2.8272050914
 21
19.6414213562
  0
LINE
  5
598
100
AcDbEntity
  8
ASSI
100
AcDbLine
 62
7
  6
CONTINUOUS
 10
7.2084845302
 20
19.8
 11
-7.2084845302
 21
19.8
  0
LINE
  5
599
100
AcDbEntity
  8
DRAFT
100
AcDbLine
 62
7
  6
CONTINUOUS
 10
-7.2084845302
 20
19.8
 11
7.2084845302
 21
19.8
  0
LINE
  5
59A
100
AcDbEntity
  8
ASSI
100
AcDbLine
 62
7
  6
CONTINUOUS
 10
7.2084845302
 20
20.1483339502
 11
-7.2084845302
 21
20.1483339502
  0
LINE
  5
59B
100
AcDbEntity
  8
DRAFT
100
AcDbLine
 62
7
  6
CONTINUOUS
 10
7.2084845302
 20
20.1483339502
 11
-7.2084845302
 21
20.1483339502
  0
LINE
  5
59C
100
AcDbEntity
  8
DRAFT
100
AcDbLine
 62
7
  6
CONTINUOUS
 10
9.5103594806
 20
20.7603594806
 11
7.5226756989
 21
20.7603594806
  0
LINE
  5
59D
100
AcDbEntity
  8
DRAFT
100
AcDbLine
 62
7
  6
CONTINUOUS
 10
-7.5226756989
 20
20.7603594806
 11
-9.5103594806
 21
20.7603594806
  0
LINE
  5
59E
100
AcDbEntity
  8
ASSI
100
AcDbLine
 62
7
  6
CONTINUOUS
 10
-9.5103594806
 20
20.7603594806
 11
-7.5226756989
 21
20.7603594806
  0
LINE
  5
59F
100
AcDbEntity
  8
ASSI
100
AcDbLine
 62
7
  6
CONTINUOUS
 10
7.5226756989
 20
20.7603594806
 11
9.5103594806
 21
20.7603594806
  0
LINE
  5
5A0
100
AcDbEntity
  8
ASSI
100
AcDbLine
 62
7
  6
CONTINUOUS
 10
9.65
 20
20.9
 11
7.3830351795
 21
20.9
  0
LINE
  5
5A1
100
AcDbEntity
  8
DRAFT
100
AcDbLine
 62
7
  6
CONTINUOUS
 10
9.65
 20
20.9
 11
7.3830351795
 21
20.9
  0
LINE
  5
5A2
100
AcDbEntity
  8
ASSI
100
AcDbLine
 62
7
  6
CONTINUOUS
 10
-7.3830351795
 20
20.9
 11
-9.65
 21
20.9
  0
LINE
  5
5A3
100
AcDbEntity
  8
DRAFT
100
AcDbLine
 62
7
  6
CONTINUOUS
 10
-7.3830351795
 20
20.9
 11
-9.65
 21
20.9
  0
LINE
  5
5A4
100
AcDbEntity
  8
ASSI
100
AcDbLine
 62
250
  6
CONTINUOUS
 10
-3.2502365039
 20
21.1999086032
 11
-2.7904532343
 21
21.1771527675
  0
LINE
  5
5A5
100
AcDbEntity
  8
RACCORDO
100
AcDbLine
 62
250
  6
CONTINUOUS
 10
-3.2502365039
 20
21.1999086032
 11
-2.7904532343
 21
21.1771527675
  0
LINE
  5
5A6
100
AcDbEntity
  8
ASSI
100
AcDbLine
 62
7
  6
CONTINUOUS
 10
-3.4452396157
 20
21.2139629885
 11
-3.2221796168
 21
21.202894032
  0
LINE
  5
5A7
100
AcDbEntity
  8
DRAFT
100
AcDbLine
 62
7
  6
CONTINUOUS
 10
-3.4452396157
 20
21.2139629885
 11
-3.2221796168
 21
21.202894032
  0
LINE
  5
5A8
100
AcDbEntity
  8
ASSI
100
AcDbLine
 62
250
  6
CONTINUOUS
 10
11.1238174026
 20
16.4758271193
 11
11.15
 21
16.463281859
  0
LINE
  5
5A9
100
AcDbEntity
  8
RACCORDO
100
AcDbLine
 62
250
  6
CONTINUOUS
 10
11.1238174026
 20
16.4758271194
 11
11.15
 21
16.463281859
  0
LINE
  5
5AA
100
AcDbEntity
  8
ASSI
100
AcDbLine
 62
250
  6
CONTINUOUS
 10
10.9157929741
 20
17.0863903821
 11
10.9425612895
 21
17.0730847656
  0
LINE
  5
5AB
100
AcDbEntity
  8
RACCORDO
100
AcDbLine
 62
250
  6
CONTINUOUS
 10
10.9157929741
 20
17.0863903822
 11
10.9425612895
 21
17.0730847656
  0
LWPOLYLINE
  5
5AC
100
AcDbEntity
  8
0
100
AcDbPolyline
 62
250
  6
CONTINUOUS
 90
19
 70
0
 10
7.5174524064
 20
18.8496953671
 10
7.524972607
 20
18.8457655826
 10
7.5323031187
 20
18.8342709242
 10
7.5393882597
 20
18.8152987042
 10
7.5461742121
 20
18.7889930331
 10
7.5526094308
 20
18.7555537257
 10
7.5586450345
 20
18.7152347831
 10
7.5642351775
 20
18.6683424631
 10
7.5693373977
 20
18.6152329541
 10
7.5739129394
 20
18.5563096698
 10
7.5779270471
 20
18.4920201843
 10
7.5813492303
 20
18.4228528329
 10
7.5841534944
 20
18.3493330026
 10
7.5863185386
 20
18.2720191412
 10
7.5878279175
 20
18.1914985156
 10
7.588670166
 20
18.108382751
 10
7.5888388864
 20
18.0233031846
 10
7.5883327973
 20
17.9369060709
 10
7.5871557427
 20
17.849847672
  0
LINE
  5
5AD
100
AcDbEntity
  8
ASSI
100
AcDbLine
 62
7
  6
CONTINUOUS
 10
7.3830351795
 20
20.9
 11
7.5226756989
 21
20.7603594806
  0
LINE
  5
5AE
100
AcDbEntity
  8
DRAFT
100
AcDbLine
 62
7
  6
CONTINUOUS
 10
7.3830351795
 20
20.9
 11
7.5226756989
 21
20.7603594806
  0
LWPOLYLINE
  5
5AF
100
AcDbEntity
  8
RACCORDO
100
AcDbPolyline
 62
7
  6
CONTINUOUS
 90
19
 70
0
 10
10.0282352926
 20
18.1797639505
 10
10.0086299751
 20
18.1994807633
 10
9.9874420005
 20
18.2159677916
 10
9.9646713688
 20
18.2292250354
 10
9.9398610166
 20
18.2393746768
 10
9.9134680073
 20
18.2462945336
 10
9.8868635312
 20
18.2496180596
 10
9.8600194279
 20
18.2491548585
 10
9.8329638579
 20
18.2450953266
 10
9.8071524922
 20
18.2376441055
 10
9.7826558794
 20
18.2266104263
 10
9.7594034708
 20
18.2121850579
 10
9.738639292
 20
18.1951449493
 10
9.7205044068
 20
18.1753652631
 10
9.7048577513
 20
18.1529708368
 10
9.6925201593
 20
18.1291131315
 10
9.6837652419
 20
18.1041759677
 10
9.6783193879
 20
18.0777755248
 10
9.6761825974
 20
18.0499118029
  0
LWPOLYLINE
  5
5B0
100
AcDbEntity
  8
ASSI
100
AcDbPolyline
 62
7
  6
CONTINUOUS
 90
22
 70
0
 10
10.0282352926
 20
18.1797639505
 10
10.0117203167
 20
18.196788376
 10
9.9938990093
 20
18.2114914172
 10
9.9747713705
 20
18.2238730741
 10
9.9540481402
 20
18.2340341301
 10
9.9320185785
 20
18.2418738018
 10
9.9095504648
 20
18.247089739
 10
9.8866275238
 20
18.2495781845
 10
9.8632660309
 20
18.2494428955
 10
9.8403825917
 20
18.2466927932
 10
9.8179966983
 20
18.2412251473
 10
9.7960888587
 20
18.233142688
 10
9.7755172017
 20
18.222762527
 10
9.7563339075
 20
18.2099942202
 10
9.7384867959
 20
18.1949282116
 10
9.722677456
 20
18.1781529451
 10
9.7089854989
 20
18.1596005691
 10
9.6973313135
 20
18.1393389352
 10
9.688177655
 20
18.1181600417
 10
9.6816787755
 20
18.0963278883
 10
9.6776804229
 20
18.0735784753
 10
9.6761825974
 20
18.0499118029
  0
LINE
  5
5B1
100
AcDbEntity
  8
DRAFT
100
AcDbLine
 62
7
  6
CONTINUOUS
 10
-7.3830351795
 20
20.9
 11
-7.2322076372
 21
20.9330083283
  0
LINE
  5
5B2
100
AcDbEntity
  8
ASSI
100
AcDbLine
 62
250
  6
CONTINUOUS
 10
2.6848155072
 20
21.3292298715
 11
3.0983838146
 21
21.349698412
  0
LINE
  5
5B3
100
AcDbEntity
  8
RACCORDO
100
AcDbLine
 62
250
  6
CONTINUOUS
 10
2.6848155072
 20
21.3292298715
 11
3.0983838146
 21
21.349698412
  0
LINE
  5
5B4
100
AcDbEntity
  8
ASSI
100
AcDbLine
 62
7
  6
CONTINUOUS
 10
3.1
 20
22.4
 11
3.0104834329
 21
22.3955695989
  0
LINE
  5
5B5
100
AcDbEntity
  8
DRAFT
100
AcDbLine
 62
7
  6
CONTINUOUS
 10
3.0104834329
 20
22.3955695989
 11
3.1
 21
22.4
  0
LINE
  5
5B6
100
AcDbEntity
  8
ASSI
100
AcDbLine
 62
7
  6
CONTINUOUS
 10
-6.9576125104
 20
21.1771527675
 11
-2.7904532343
 21
21.1771527675
  0
LINE
  5
5B7
100
AcDbEntity
  8
RACCORDO
100
AcDbLine
 62
7
  6
CONTINUOUS
 10
-6.9576125104
 20
21.1771527675
 11
-2.7904532343
 21
21.1771527675
  0
LINE
  5
5B8
100
AcDbEntity
  8
ASSI
100
AcDbLine
 62
7
  6
CONTINUOUS
 10
2.7904532343
 20
21.1771527675
 11
6.9576125104
 21
21.1771527675
  0
LINE
  5
5B9
100
AcDbEntity
  8
RACCORDO
100
AcDbLine
 62
7
  6
CONTINUOUS
 10
2.7904532343
 20
21.1771527675
 11
6.9576125104
 21
21.1771527675
  0
LINE
  5
5BA
100
AcDbEntity
  8
ASSI
100
AcDbLine
 62
7
  6
CONTINUOUS
 10
-6.9712561167
 20
21.2139629885
 11
-3.4452396157
 21
21.2139629885
  0
LINE
  5
5BB
100
AcDbEntity
  8
DRAFT
100
AcDbLine
 62
7
  6
CONTINUOUS
 10
-6.9712561167
 20
21.2139629885
 11
-3.4452396157
 21
21.2139629885
  0
LINE
  5
5BC
100
AcDbEntity
  8
ASSI
100
AcDbLine
 62
7
  6
CONTINUOUS
 10
3.4452396157
 20
21.2139629885
 11
6.9712561167
 21
21.2139629885
  0
LINE
  5
5BD
100
AcDbEntity
  8
DRAFT
100
AcDbLine
 62
7
  6
CONTINUOUS
 10
3.4452396157
 20
21.2139629885
 11
6.9712561167
 21
21.2139629885
  0
LINE
  5
5BE
100
AcDbEntity
  8
DRAFT
100
AcDbLine
 62
7
  6
CONTINUOUS
 10
3.0104834329
 20
22.3955695989
 11
-3.0104834329
 21
22.3955695989
  0
LINE
  5
5BF
100
AcDbEntity
  8
ASSI
100
AcDbLine
 62
7
  6
CONTINUOUS
 10
-3.0104834329
 20
22.3955695989
 11
3.0104834329
 21
22.3955695989
  0
LINE
  5
5C0
100
AcDbEntity
  8
ASSI
100
AcDbLine
 62
7
  6
CONTINUOUS
 10
10.6503805997
 20
22.4
 11
5.55
 21
22.4
  0
LINE
  5
5C1
100
AcDbEntity
  8
DRAFT
100
AcDbLine
 62
7
  6
CONTINUOUS
 10
10.6503805997
 20
22.4
 11
5.55
 21
22.4
  0
LINE
  5
5C2
100
AcDbEntity
  8
ASSI
100
AcDbLine
 62
7
  6
CONTINUOUS
 10
-5.55
 20
22.4
 11
-10.6503805997
 21
22.4
  0
LINE
  5
5C3
100
AcDbEntity
  8
DRAFT
100
AcDbLine
 62
7
  6
CONTINUOUS
 10
-5.55
 20
22.4
 11
-10.6503805997
 21
22.4
  0
LINE
  5
5C4
100
AcDbEntity
  8
ASSI
100
AcDbLine
 62
7
  6
CONTINUOUS
 10
-3.3821231691
 20
22.4
 11
3.3821231691
 21
22.4
  0
LINE
  5
5C5
100
AcDbEntity
  8
DRAFT
100
AcDbLine
 62
7
  6
CONTINUOUS
 10
-3.3821231691
 20
22.4
 11
3.3821231691
 21
22.4
  0
LINE
  5
5C6
100
AcDbEntity
  8
ASSI
100
AcDbLine
 62
250
  6
CONTINUOUS
 10
-3.0983838146
 20
21.349698412
 11
-2.6848155072
 21
21.3292298715
  0
LINE
  5
5C7
100
AcDbEntity
  8
RACCORDO
100
AcDbLine
 62
250
  6
CONTINUOUS
 10
-3.0983838146
 20
21.349698412
 11
-2.6848155072
 21
21.3292298715
  0
LINE
  5
5C8
100
AcDbEntity
  8
ASSI
100
AcDbLine
 62
7
  6
CONTINUOUS
 10
-3.0104834329
 20
22.3955695989
 11
-3.1
 21
22.4
  0
LINE
  5
5C9
100
AcDbEntity
  8
DRAFT
100
AcDbLine
 62
7
  6
CONTINUOUS
 10
-3.1
 20
22.4
 11
-3.0104834329
 21
22.3955695989
  0
LINE
  5
5CA
100
AcDbEntity
  8
DRAFT
100
AcDbLine
 62
7
  6
CONTINUOUS
 10
7.2322076372
 20
20.9330083283
 11
7.3830351795
 21
20.9
  0
LINE
  5
5CB
100
AcDbEntity
  8
ASSI
100
AcDbLine
 62
7
  6
CONTINUOUS
 10
3.0
 20
23.5
 11
2.7812783412
 21
23.4781828305
  0
LINE
  5
5CC
100
AcDbEntity
  8
DRAFT
100
AcDbLine
 62
7
  6
CONTINUOUS
 10
3.0
 20
23.5
 11
2.7812783412
 21
23.4781828305
  0
LINE
  5
5CD
100
AcDbEntity
  8
ASSI
100
AcDbLine
 62
7
  6
CONTINUOUS
 10
3.9630152422
 20
23.4650925288
 11
-3.9630152422
 21
23.4650925288
  0
LINE
  5
5CE
100
AcDbEntity
  8
DRAFT
100
AcDbLine
 62
7
  6
CONTINUOUS
 10
3.9630152422
 20
23.4650925288
 11
-3.9630152422
 21
23.4650925288
  0
LINE
  5
5CF
100
AcDbEntity
  8
ASSI
100
AcDbLine
 62
7
  6
CONTINUOUS
 10
2.7812783412
 20
23.4781828305
 11
-2.7812783412
 21
23.4781828305
  0
LINE
  5
5D0
100
AcDbEntity
  8
DRAFT
100
AcDbLine
 62
7
  6
CONTINUOUS
 10
-2.7812783412
 20
23.4781828305
 11
2.7812783412
 21
23.4781828305
  0
LINE
  5
5D1
100
AcDbEntity
  8
ASSI
100
AcDbLine
 62
7
  6
CONTINUOUS
 10
3.9733373476
 20
23.5
 11
3.0
 21
23.5
  0
LINE
  5
5D2
100
AcDbEntity
  8
DRAFT
100
AcDbLine
 62
7
  6
CONTINUOUS
 10
3.9733373476
 20
23.5
 11
3.0
 21
23.5
  0
LINE
  5
5D3
100
AcDbEntity
  8
ASSI
100
AcDbLine
 62
7
  6
CONTINUOUS
 10
-3.0
 20
23.5
 11
-3.9733373476
 21
23.5
  0
LINE
  5
5D4
100
AcDbEntity
  8
DRAFT
100
AcDbLine
 62
7
  6
CONTINUOUS
 10
-3.0
 20
23.5
 11
-3.9733373476
 21
23.5
  0
LINE
  5
5D5
100
AcDbEntity
  8
ASSI
100
AcDbLine
 62
7
  6
CONTINUOUS
 10
-3.0
 20
23.5
 11
-2.7812783412
 21
23.4781828305
  0
LINE
  5
5D6
100
AcDbEntity
  8
DRAFT
100
AcDbLine
 62
7
  6
CONTINUOUS
 10
-3.0
 20
23.5
 11
-2.7812783412
 21
23.4781828305
  0
ARC
  5
5D7
100
AcDbEntity
  8
0
100
AcDbCircle
 62
7
  6
CONTINUOUS
 10
-7.5
 20
-17.8325
 40
1.0
100
AcDbArc
 50
90.0
 51
180.0
  0
ARC
  5
5D8
100
AcDbEntity
  8
0
100
AcDbCircle
 62
7
  6
CONTINUOUS
 10
-7.5
 20
-17.849847672
 40
1.0
100
AcDbArc
 50
180.0
 51
269.0
  0
ARC
  5
5D9
100
AcDbEntity
  8
ASSI
100
AcDbCircle
 62
7
  6
CONTINUOUS
 10
-6.3804626182
 20
-19.25
 40
0.3
100
AcDbArc
 50
30.0
 51
90.0
  0
ARC
  5
5DA
100
AcDbEntity
  8
0
100
AcDbCircle
 62
7
  6
CONTINUOUS
 10
-5.7000007125
 20
-2.2746249404
 40
3.5000004375
100
AcDbArc
 50
90.0
 51
210.1398926043
  0
ARC
  5
5DB
100
AcDbEntity
  8
ASSI
100
AcDbCircle
 62
7
  6
CONTINUOUS
 10
-4.95
 20
-23.1
 40
0.5
100
AcDbArc
 50
350.803718421
 51
354.2920411313
  0
ARC
  5
5DC
100
AcDbEntity
  8
ASSI
100
AcDbCircle
 62
7
  6
CONTINUOUS
 10
-4.95
 20
-23.1
 40
0.5
100
AcDbArc
 50
355.3020088931
 51
119.112422776
  0
ARC
  5
5DD
100
AcDbEntity
  8
DRAFT
100
AcDbCircle
 62
7
  6
CONTINUOUS
 10
-4.95
 20
-23.1
 40
0.5
100
AcDbArc
 50
115.6241001199
 51
119.112422776
  0
ARC
  5
5DE
100
AcDbEntity
  8
DRAFT
100
AcDbCircle
 62
7
  6
CONTINUOUS
 10
-4.95
 20
-23.1
 40
0.5
100
AcDbArc
 50
350.803718421
 51
114.6141323038
  0
ARC
  5
5DF
100
AcDbEntity
  8
0
100
AcDbCircle
 62
7
  6
CONTINUOUS
 10
-3.850000476
 20
-7.423272921
 40
0.75
100
AcDbArc
 50
180.0
 51
268.0
  0
ARC
  5
5E0
100
AcDbEntity
  8
ASSI
100
AcDbCircle
 62
7
  6
CONTINUOUS
 10
-11.25
 20
0.0
 40
28.0
100
AcDbArc
 50
302.9352304972
 51
304.1210936517
  0
ARC
  5
5E1
100
AcDbEntity
  8
ASSI
100
AcDbCircle
 62
7
  6
CONTINUOUS
 10
-11.25
 20
0.0
 40
28.0
100
AcDbArc
 50
55.8789063483
 51
57.0647695028
  0
ARC
  5
5E2
100
AcDbEntity
  8
ASSI
100
AcDbCircle
 62
7
  6
CONTINUOUS
 10
-11.25
 20
0.0
 40
28.0
100
AcDbArc
 50
37.5716473762
 51
40.6245321462
  0
ARC
  5
5E3
100
AcDbEntity
  8
ASSI
100
AcDbCircle
 62
7
  6
CONTINUOUS
 10
-11.25
 20
0.0
 40
28.0
100
AcDbArc
 50
305.9627651514
 51
311.7180504312
  0
ARC
  5
5E4
100
AcDbEntity
  8
ASSI
100
AcDbCircle
 62
7
  6
CONTINUOUS
 10
-11.25
 20
0.0
 40
28.0
100
AcDbArc
 50
48.2819495688
 51
54.0372348486
  0
ARC
  5
5E5
100
AcDbEntity
  8
ASSI
100
AcDbCircle
 62
7
  6
CONTINUOUS
 10
-11.25
 20
0.0
 40
28.0
100
AcDbArc
 50
319.3754678538
 51
322.4283526238
  0
ARC
  5
5E6
100
AcDbEntity
  8
DRAFT
100
AcDbCircle
 62
7
  6
CONTINUOUS
 10
-11.25
 20
0.0
 40
28.0
100
AcDbArc
 50
55.8789063483
 51
57.0647695028
  0
ARC
  5
5E7
100
AcDbEntity
  8
DRAFT
100
AcDbCircle
 62
7
  6
CONTINUOUS
 10
-11.25
 20
0.0
 40
28.0
100
AcDbArc
 50
302.9352304972
 51
304.1210936517
  0
ARC
  5
5E8
100
AcDbEntity
  8
RACCORDO
100
AcDbCircle
 62
7
  6
CONTINUOUS
 10
-11.25
 20
0.0
 40
28.0
100
AcDbArc
 50
319.3754678538
 51
322.4283526238
  0
ARC
  5
5E9
100
AcDbEntity
  8
RACCORDO
100
AcDbCircle
 62
7
  6
CONTINUOUS
 10
-11.25
 20
0.0
 40
28.0
100
AcDbArc
 50
37.5716473762
 51
40.6245321462
  0
ARC
  5
5EA
100
AcDbEntity
  8
DRAFT
100
AcDbCircle
 62
7
  6
CONTINUOUS
 10
-11.25
 20
0.0
 40
28.0
100
AcDbArc
 50
48.2819495688
 51
54.0372348486
  0
ARC
  5
5EB
100
AcDbEntity
  8
DRAFT
100
AcDbCircle
 62
7
  6
CONTINUOUS
 10
-11.25
 20
0.0
 40
28.0
100
AcDbArc
 50
305.9627651514
 51
311.7180504312
  0
ARC
  5
5EC
100
AcDbEntity
  8
ASSI
100
AcDbCircle
 62
7
  6
CONTINUOUS
 10
-11.25
 20
0.0
 40
27.9869096983
100
AcDbArc
 50
37.6266524505
 51
40.5100162577
  0
ARC
  5
5ED
100
AcDbEntity
  8
ASSI
100
AcDbCircle
 62
7
  6
CONTINUOUS
 10
-11.25
 20
0.0
 40
27.9869096983
100
AcDbArc
 50
319.4899837423
 51
322.3733475495
  0
ARC
  5
5EE
100
AcDbEntity
  8
RACCORDO
100
AcDbCircle
 62
7
  6
CONTINUOUS
 10
-11.25
 20
0.0
 40
27.9869096983
100
AcDbArc
 50
37.6266524505
 51
40.5100162577
  0
ARC
  5
5EF
100
AcDbEntity
  8
RACCORDO
100
AcDbCircle
 62
7
  6
CONTINUOUS
 10
-11.25
 20
0.0
 40
27.9869096983
100
AcDbArc
 50
319.4899837423
 51
322.3733475638
  0
ARC
  5
5F0
100
AcDbEntity
  8
ASSI
100
AcDbCircle
 62
7
  6
CONTINUOUS
 10
-11.25
 20
0.0
 40
27.9650925288
100
AcDbArc
 50
55.8421853344
 51
57.0436344285
  0
ARC
  5
5F1
100
AcDbEntity
  8
ASSI
100
AcDbCircle
 62
7
  6
CONTINUOUS
 10
-11.25
 20
0.0
 40
27.9650925288
100
AcDbArc
 50
49.3398118699
 51
54.0739558625
  0
ARC
  5
5F2
100
AcDbEntity
  8
ASSI
100
AcDbCircle
 62
7
  6
CONTINUOUS
 10
-11.25
 20
0.0
 40
27.9650925288
100
AcDbArc
 50
302.9563655715
 51
304.1578146656
  0
ARC
  5
5F3
100
AcDbEntity
  8
ASSI
100
AcDbCircle
 62
7
  6
CONTINUOUS
 10
-11.25
 20
0.0
 40
27.9650925288
100
AcDbArc
 50
305.9260441375
 51
310.6601881301
  0
ARC
  5
5F4
100
AcDbEntity
  8
DRAFT
100
AcDbCircle
 62
7
  6
CONTINUOUS
 10
-11.25
 20
0.0
 40
27.9650925288
100
AcDbArc
 50
305.9260441375
 51
310.6601881301
  0
ARC
  5
5F5
100
AcDbEntity
  8
DRAFT
100
AcDbCircle
 62
7
  6
CONTINUOUS
 10
-11.25
 20
0.0
 40
27.9650925288
100
AcDbArc
 50
302.9563655715
 51
304.1578146656
  0
ARC
  5
5F6
100
AcDbEntity
  8
DRAFT
100
AcDbCircle
 62
7
  6
CONTINUOUS
 10
-11.25
 20
0.0
 40
27.9650925288
100
AcDbArc
 50
55.8421853344
 51
57.0436344285
  0
ARC
  5
5F7
100
AcDbEntity
  8
DRAFT
100
AcDbCircle
 62
7
  6
CONTINUOUS
 10
-11.25
 20
0.0
 40
27.9650925288
100
AcDbArc
 50
49.3398118699
 51
54.0739558625
  0
ARC
  5
5F8
100
AcDbEntity
  8
0
100
AcDbCircle
 62
7
  6
CONTINUOUS
 10
-7.5
 20
17.849847672
 40
1.0
100
AcDbArc
 50
91.0
 51
180.0
  0
ARC
  5
5F9
100
AcDbEntity
  8
0
100
AcDbCircle
 62
7
  6
CONTINUOUS
 10
-7.5
 20
17.8325
 40
1.0
100
AcDbArc
 50
180.0
 51
270.0
  0
ARC
  5
5FA
100
AcDbEntity
  8
RACCORDO
100
AcDbCircle
 62
7
  6
CONTINUOUS
 10
-6.3804626182
 20
19.25
 40
0.3
100
AcDbArc
 50
270.0
 51
330.0
  0
ARC
  5
5FB
100
AcDbEntity
  8
0
100
AcDbCircle
 62
7
  6
CONTINUOUS
 10
-3.8500004762
 20
16.522202938
 40
0.75
100
AcDbArc
 50
93.0000000699
 51
179.9999999939
  0
ARC
  5
5FC
100
AcDbEntity
  8
ASSI
100
AcDbCircle
 62
7
  6
CONTINUOUS
 10
-4.95
 20
23.1
 40
0.5
100
AcDbArc
 50
5.7079588687
 51
9.196281579
  0
ARC
  5
5FD
100
AcDbEntity
  8
ASSI
100
AcDbCircle
 62
7
  6
CONTINUOUS
 10
-4.95
 20
23.1
 40
0.5
100
AcDbArc
 50
240.887577224
 51
4.6979911069
  0
ARC
  5
5FE
100
AcDbEntity
  8
DRAFT
100
AcDbCircle
 62
7
  6
CONTINUOUS
 10
-4.95
 20
23.1
 40
0.5
100
AcDbArc
 50
240.887577224
 51
244.8798318889
  0
ARC
  5
5FF
100
AcDbEntity
  8
DRAFT
100
AcDbCircle
 62
7
  6
CONTINUOUS
 10
-4.95
 20
23.1
 40
0.5
100
AcDbArc
 50
245.3858676962
 51
9.196281579
  0
ARC
  5
600
100
AcDbEntity
  8
ASSI
100
AcDbCircle
 62
7
  6
CONTINUOUS
 10
4.95
 20
-23.1
 40
0.5
100
AcDbArc
 50
60.887577224
 51
64.3758999345
  0
ARC
  5
601
100
AcDbEntity
  8
ASSI
100
AcDbCircle
 62
7
  6
CONTINUOUS
 10
4.95
 20
-23.1
 40
0.5
100
AcDbArc
 50
65.3858676962
 51
189.196281579
  0
ARC
  5
602
100
AcDbEntity
  8
DRAFT
100
AcDbCircle
 62
7
  6
CONTINUOUS
 10
4.95
 20
-23.1
 40
0.5
100
AcDbArc
 50
185.707958923
 51
189.196281579
  0
ARC
  5
603
100
AcDbEntity
  8
DRAFT
100
AcDbCircle
 62
7
  6
CONTINUOUS
 10
4.95
 20
-23.1
 40
0.5
100
AcDbArc
 50
60.887577224
 51
184.6979911069
  0
ARC
  5
604
100
AcDbEntity
  8
0
100
AcDbCircle
 62
7
  6
CONTINUOUS
 10
3.8500004701
 20
-7.4222018277
 40
0.7500000052
100
AcDbArc
 50
273.000000511
 51
359.9999947629
  0
ARC
  5
605
100
AcDbEntity
  8
0
100
AcDbCircle
 62
7
  6
CONTINUOUS
 10
7.5
 20
-17.8325
 40
1.0
100
AcDbArc
 50
0.0
 51
90.0
  0
ARC
  5
606
100
AcDbEntity
  8
0
100
AcDbCircle
 62
7
  6
CONTINUOUS
 10
7.5
 20
-17.849847672
 40
1.0
100
AcDbArc
 50
271.0
 51
360.0
  0
ARC
  5
607
100
AcDbEntity
  8
ASSI
100
AcDbCircle
 62
7
  6
CONTINUOUS
 10
6.3804626182
 20
-19.25
 40
0.3
100
AcDbArc
 50
90.0
 51
150.0
  0
ARC
  5
608
100
AcDbEntity
  8
ASSI
100
AcDbCircle
 62
7
  6
CONTINUOUS
 10
0.0
 20
0.0
 40
8.5
100
AcDbArc
 50
151.9561255358
 51
176.6277133166
  0
ARC
  5
609
100
AcDbEntity
  8
ASSI
100
AcDbCircle
 62
7
  6
CONTINUOUS
 10
0.0
 20
0.0
 40
8.5
100
AcDbArc
 50
3.3722866834
 51
28.0438744642
  0
ARC
  5
60A
100
AcDbEntity
  8
ASSI
100
AcDbCircle
 62
7
  6
CONTINUOUS
 10
0.0
 20
0.0
 40
8.5
100
AcDbArc
 50
331.9561255358
 51
356.6277133166
  0
ARC
  5
60B
100
AcDbEntity
  8
DRAFT
100
AcDbCircle
 62
7
  6
CONTINUOUS
 10
0.0
 20
0.0
 40
8.5
100
AcDbArc
 50
331.965545768
 51
356.6277133166
  0
ARC
  5
60C
100
AcDbEntity
  8
DRAFT
100
AcDbCircle
 62
7
  6
CONTINUOUS
 10
0.0
 20
0.0
 40
8.5
100
AcDbArc
 50
151.965545768
 51
176.6277133166
  0
ARC
  5
60D
100
AcDbEntity
  8
DRAFT
100
AcDbCircle
 62
7
  6
CONTINUOUS
 10
0.0
 20
0.0
 40
8.5
100
AcDbArc
 50
3.3722866834
 51
28.034454232
  0
ARC
  5
60E
100
AcDbEntity
  8
ASSI
100
AcDbCircle
 62
250
  6
CONTINUOUS
 10
0.0
 20
0.0
 40
8.3513273152
100
AcDbArc
 50
153.9292381016
 51
177.5889443964
  0
ARC
  5
60F
100
AcDbEntity
  8
ASSI
100
AcDbCircle
 62
250
  6
CONTINUOUS
 10
0.0
 20
0.0
 40
8.3513273152
100
AcDbArc
 50
2.4110556036
 51
26.0707620291
  0
ARC
  5
610
100
AcDbEntity
  8
ASSI
100
AcDbCircle
 62
250
  6
CONTINUOUS
 10
0.0
 20
0.0
 40
8.3513273152
100
AcDbArc
 50
333.9292379701
 51
357.5889443964
  0
ARC
  5
611
100
AcDbEntity
  8
RACCORDO
100
AcDbCircle
 62
250
  6
CONTINUOUS
 10
0.0
 20
0.0
 40
8.3513273152
100
AcDbArc
 50
333.9406626865
 51
357.5889443964
  0
ARC
  5
612
100
AcDbEntity
  8
RACCORDO
100
AcDbCircle
 62
250
  6
CONTINUOUS
 10
0.0
 20
0.0
 40
8.3513273152
100
AcDbArc
 50
153.9370209833
 51
177.5889443964
  0
ARC
  5
613
100
AcDbEntity
  8
RACCORDO
100
AcDbCircle
 62
250
  6
CONTINUOUS
 10
0.0
 20
0.0
 40
8.3513273152
100
AcDbArc
 50
2.4110556036
 51
26.0593362682
  0
ARC
  5
614
100
AcDbEntity
  8
0
100
AcDbCircle
 62
7
  6
CONTINUOUS
 10
3.8500004762
 20
16.522202938
 40
0.75
100
AcDbArc
 50
0.0000000061
 51
86.9999999301
  0
ARC
  5
615
100
AcDbEntity
  8
ASSI
100
AcDbCircle
 62
7
  6
CONTINUOUS
 10
4.95
 20
23.1
 40
0.5
100
AcDbArc
 50
295.6241000655
 51
299.112422776
  0
ARC
  5
616
100
AcDbEntity
  8
ASSI
100
AcDbCircle
 62
7
  6
CONTINUOUS
 10
4.95
 20
23.1
 40
0.5
100
AcDbArc
 50
170.8037184209
 51
294.6141323038
  0
ARC
  5
617
100
AcDbEntity
  8
DRAFT
100
AcDbCircle
 62
7
  6
CONTINUOUS
 10
4.95
 20
23.1
 40
0.5
100
AcDbArc
 50
170.803718421
 51
174.7959730858
  0
ARC
  5
618
100
AcDbEntity
  8
DRAFT
100
AcDbCircle
 62
7
  6
CONTINUOUS
 10
4.95
 20
23.1
 40
0.5
100
AcDbArc
 50
175.3020088931
 51
299.112422776
  0
ARC
  5
619
100
AcDbEntity
  8
ASSI
100
AcDbCircle
 62
7
  6
CONTINUOUS
 10
11.25
 20
0.0
 40
28.0
100
AcDbArc
 50
235.8789063483
 51
237.0647695028
  0
ARC
  5
61A
100
AcDbEntity
  8
ASSI
100
AcDbCircle
 62
7
  6
CONTINUOUS
 10
11.25
 20
0.0
 40
28.0
100
AcDbArc
 50
122.9352304972
 51
124.1210936517
  0
ARC
  5
61B
100
AcDbEntity
  8
ASSI
100
AcDbCircle
 62
7
  6
CONTINUOUS
 10
11.25
 20
0.0
 40
28.0
100
AcDbArc
 50
228.2819495688
 51
234.0372348486
  0
ARC
  5
61C
100
AcDbEntity
  8
ASSI
100
AcDbCircle
 62
7
  6
CONTINUOUS
 10
11.25
 20
0.0
 40
28.0
100
AcDbArc
 50
139.3754678538
 51
142.4283526238
  0
ARC
  5
61D
100
AcDbEntity
  8
ASSI
100
AcDbCircle
 62
7
  6
CONTINUOUS
 10
11.25
 20
0.0
 40
28.0
100
AcDbArc
 50
125.9627651514
 51
131.7180504312
  0
ARC
  5
61E
100
AcDbEntity
  8
ASSI
100
AcDbCircle
 62
7
  6
CONTINUOUS
 10
11.25
 20
0.0
 40
28.0
100
AcDbArc
 50
217.5716473762
 51
220.6245321462
  0
ARC
  5
61F
100
AcDbEntity
  8
DRAFT
100
AcDbCircle
 62
7
  6
CONTINUOUS
 10
11.25
 20
0.0
 40
28.0
100
AcDbArc
 50
122.9352304972
 51
124.1210936517
  0
ARC
  5
620
100
AcDbEntity
  8
DRAFT
100
AcDbCircle
 62
7
  6
CONTINUOUS
 10
11.25
 20
0.0
 40
28.0
100
AcDbArc
 50
235.8789063483
 51
237.0647695028
  0
ARC
  5
621
100
AcDbEntity
  8
DRAFT
100
AcDbCircle
 62
7
  6
CONTINUOUS
 10
11.25
 20
0.0
 40
28.0
100
AcDbArc
 50
125.9627651514
 51
131.7180504312
  0
ARC
  5
622
100
AcDbEntity
  8
DRAFT
100
AcDbCircle
 62
7
  6
CONTINUOUS
 10
11.25
 20
0.0
 40
28.0
100
AcDbArc
 50
228.2819495688
 51
234.0372348486
  0
ARC
  5
623
100
AcDbEntity
  8
RACCORDO
100
AcDbCircle
 62
7
  6
CONTINUOUS
 10
11.25
 20
0.0
 40
28.0
100
AcDbArc
 50
139.3754678538
 51
142.4283526238
  0
ARC
  5
624
100
AcDbEntity
  8
RACCORDO
100
AcDbCircle
 62
7
  6
CONTINUOUS
 10
11.25
 20
0.0
 40
28.0
100
AcDbArc
 50
217.5716473762
 51
220.6245321462
  0
ARC
  5
625
100
AcDbEntity
  8
ASSI
100
AcDbCircle
 62
7
  6
CONTINUOUS
 10
11.25
 20
0.0
 40
27.9869096983
100
AcDbArc
 50
217.6266524505
 51
220.5100162577
  0
ARC
  5
626
100
AcDbEntity
  8
ASSI
100
AcDbCircle
 62
7
  6
CONTINUOUS
 10
11.25
 20
0.0
 40
27.9869096983
100
AcDbArc
 50
139.4899837423
 51
142.3733475638
  0
ARC
  5
627
100
AcDbEntity
  8
RACCORDO
100
AcDbCircle
 62
7
  6
CONTINUOUS
 10
11.25
 20
0.0
 40
27.9869096983
100
AcDbArc
 50
217.6266524505
 51
220.5100162577
  0
ARC
  5
628
100
AcDbEntity
  8
RACCORDO
100
AcDbCircle
 62
7
  6
CONTINUOUS
 10
11.25
 20
0.0
 40
27.9869096983
100
AcDbArc
 50
139.4899837423
 51
142.3733475495
  0
ARC
  5
629
100
AcDbEntity
  8
ASSI
100
AcDbCircle
 62
7
  6
CONTINUOUS
 10
11.25
 20
0.0
 40
27.9650925288
100
AcDbArc
 50
125.9260441375
 51
130.6601881301
  0
ARC
  5
62A
100
AcDbEntity
  8
ASSI
100
AcDbCircle
 62
7
  6
CONTINUOUS
 10
11.25
 20
0.0
 40
27.9650925288
100
AcDbArc
 50
122.9563655715
 51
124.1578146656
  0
ARC
  5
62B
100
AcDbEntity
  8
ASSI
100
AcDbCircle
 62
7
  6
CONTINUOUS
 10
11.25
 20
0.0
 40
27.9650925288
100
AcDbArc
 50
235.8421853344
 51
237.0436344285
  0
ARC
  5
62C
100
AcDbEntity
  8
ASSI
100
AcDbCircle
 62
7
  6
CONTINUOUS
 10
11.25
 20
0.0
 40
27.9650925288
100
AcDbArc
 50
229.3398118699
 51
234.0739558625
  0
ARC
  5
62D
100
AcDbEntity
  8
DRAFT
100
AcDbCircle
 62
7
  6
CONTINUOUS
 10
11.25
 20
0.0
 40
27.9650925288
100
AcDbArc
 50
235.8421853344
 51
237.0436344285
  0
ARC
  5
62E
100
AcDbEntity
  8
DRAFT
100
AcDbCircle
 62
7
  6
CONTINUOUS
 10
11.25
 20
0.0
 40
27.9650925288
100
AcDbArc
 50
229.3398118699
 51
234.0739558625
  0
ARC
  5
62F
100
AcDbEntity
  8
DRAFT
100
AcDbCircle
 62
7
  6
CONTINUOUS
 10
11.25
 20
0.0
 40
27.9650925288
100
AcDbArc
 50
122.9563655715
 51
124.1578146656
  0
ARC
  5
630
100
AcDbEntity
  8
DRAFT
100
AcDbCircle
 62
7
  6
CONTINUOUS
 10
11.25
 20
0.0
 40
27.9650925288
100
AcDbArc
 50
125.9260441375
 51
130.6601881301
  0
ARC
  5
631
100
AcDbEntity
  8
0
100
AcDbCircle
 62
7
  6
CONTINUOUS
 10
7.5
 20
17.849847672
 40
1.0
100
AcDbArc
 50
0.0
 51
89.0
  0
ARC
  5
632
100
AcDbEntity
  8
0
100
AcDbCircle
 62
7
  6
CONTINUOUS
 10
7.5
 20
17.8325
 40
1.0
100
AcDbArc
 50
270.0
 51
360.0
  0
ARC
  5
633
100
AcDbEntity
  8
RACCORDO
100
AcDbCircle
 62
7
  6
CONTINUOUS
 10
6.3804626182
 20
19.25
 40
0.3
100
AcDbArc
 50
210.0
 51
270.0
  0
ELLIPSE
  5
634
100
AcDbEntity
  8
0
100
AcDbEllipse
 62
7
  6
CONTINUOUS
 10
1.6737454247
 20
14.1704239485
 30
0.0
 11
0.0317603958
 21
119.9999999987
 31
0.0
 40
0.0174530582
 41
-1.7391396378
 42
-1.6881088579
  0
ELLIPSE
  5
635
100
AcDbEntity
  8
0
100
AcDbEllipse
 62
7
  6
CONTINUOUS
 10
3.681698399
 20
-5.4333781681
 30
0.0
 11
0.0007940099
 21
3.0
 31
0.0
 40
0.0174530582
 41
-3.1264291403
 42
-1.7391396378
  0
ELLIPSE
  5
636
100
AcDbEntity
  8
0
100
AcDbEllipse
 62
7
  6
CONTINUOUS
 10
-3.7052627366
 20
-5.4333781681
 30
0.0
 11
-0.0007940099
 21
3.0
 31
0.0
 40
0.0174530582
 41
-4.1810204226
 42
-3.1567561668
  0
ELLIPSE
  5
637
100
AcDbEntity
  8
0
100
AcDbEllipse
 62
7
  6
CONTINUOUS
 10
-3.75
 20
11.0250518793
 30
0.0
 11
0.0001455685
 21
0.55
 31
0.0
 40
0.0174530582
 41
-3.1264291403
 42
-0.0004762221
  0
ELLIPSE
  5
638
100
AcDbEntity
  8
0
100
AcDbEllipse
 62
7
  6
CONTINUOUS
 10
-5.8262545753
 20
14.1704239485
 30
0.0
 11
0.0317603958
 21
119.9999999987
 31
0.0
 40
0.0174530582
 41
-1.6376754305
 42
-1.5972150562
  0
ELLIPSE
  5
639
100
AcDbEntity
  8
0
100
AcDbEllipse
 62
7
  6
CONTINUOUS
 10
5.8262545753
 20
14.1704239485
 30
0.0
 11
-0.0317603958
 21
119.9999999987
 31
0.0
 40
0.0174530582
 41
-4.685970251
 42
-4.5950764493
  0
ELLIPSE
  5
63A
100
AcDbEntity
  8
0
100
AcDbEllipse
 62
7
  6
CONTINUOUS
 10
-3.1885785985
 20
14.1704239485
 30
0.0
 11
100.0326544058
 21
119.511433647
 31
0.0
 40
0.0830735513
 41
-1.6471828618
 42
-1.6379974789
  0
ELLIPSE
  5
63B
100
AcDbEntity
  8
0
100
AcDbEllipse
 62
7
  6
CONTINUOUS
 10
3.1885785985
 20
14.1704239485
 30
0.0
 11
-100.0326544058
 21
119.511433647
 31
0.0
 40
0.0830735513
 41
-4.6451878283
 42
-4.6360024453
  0
ELLIPSE
  5
63C
100
AcDbEntity
  8
0
100
AcDbEllipse
 62
7
  6
CONTINUOUS
 10
3.1885785985
 20
14.1704239485
 30
0.0
 11
-100.1996538288
 21
119.7109519002
 31
0.0
 40
0.0830735513
 41
-4.6451349358
 42
-4.6359648732
  0
ELLIPSE
  5
63D
100
AcDbEntity
  8
0
100
AcDbEllipse
 62
7
  6
CONTINUOUS
 10
-3.1885785985
 20
14.1704239485
 30
0.0
 11
100.1996538288
 21
119.7109519002
 31
0.0
 40
0.0830735513
 41
-1.647220434
 42
-1.6380503713
  0
ELLIPSE
  5
63E
100
AcDbEntity
  8
0
100
AcDbEllipse
 62
7
  6
CONTINUOUS
 10
-4.65
 20
11.0250518793
 30
0.0
 11
0.0002914924
 21
0.5499999999
 31
0.0
 40
0.0349167475
 41
3.1567700529
 42
6.2827217912
  0
ELLIPSE
  5
63F
100
AcDbEntity
  8
0
100
AcDbEllipse
 62
7
  6
CONTINUOUS
 10
-3.7947372634
 20
-5.4333781681
 30
0.0
 11
0.0007940099
 21
3.0
 31
0.0
 40
0.0174530582
 41
-2.1021648846
 42
-1.7391396378
  0
ELLIPSE
  5
640
100
AcDbEntity
  8
0
100
AcDbEllipse
 62
7
  6
CONTINUOUS
 10
-1.2720762509
 20
18.0029648325
 30
0.0
 11
11.6098058587
 21
-0.2551757844
 31
0.0
 40
0.0859953286
 41
1.273485338
 42
1.4628970883
  0
ELLIPSE
  5
641
100
AcDbEntity
  8
0
100
AcDbEllipse
 62
7
  6
CONTINUOUS
 10
1.2720762509
 20
18.0029648325
 30
0.0
 11
11.6098058587
 21
0.2551757844
 31
0.0
 40
0.0859953286
 41
1.6786955653
 42
1.8681073156
  0
ELLIPSE
  5
642
100
AcDbEntity
  8
0
100
AcDbEllipse
 62
7
  6
CONTINUOUS
 10
1.2720762509
 20
-18.0029648325
 30
0.0
 11
11.6098058587
 21
-0.2551757844
 31
0.0
 40
0.0859953286
 41
-1.8681073156
 42
-1.6786955653
  0
ELLIPSE
  5
643
100
AcDbEntity
  8
0
100
AcDbEllipse
 62
7
  6
CONTINUOUS
 10
-1.2720762509
 20
-18.0029648325
 30
0.0
 11
11.6098058587
 21
0.2551757844
 31
0.0
 40
0.0859953286
 41
-1.4628970883
 42
-1.273485338
  0
ELLIPSE
  5
644
100
AcDbEntity
  8
ASSI
100
AcDbEllipse
 62
7
  6
CONTINUOUS
 10
-10.649923836
 20
-21.899313827
 30
0.0
 11
-0.1582391023
 21
-0.4751033573
 31
0.0
 40
0.9984778551
 41
-1.2488325878
 42
0.3210503505
  0
ELLIPSE
  5
645
100
AcDbEntity
  8
ASSI
100
AcDbEllipse
 62
7
  6
CONTINUOUS
 10
-10.649923836
 20
21.899313827
 30
0.0
 11
0.1582391023
 21
-0.4751033573
 31
0.0
 40
0.9984778551
 41
2.8205423031
 42
4.3904252414
  0
ELLIPSE
  5
646
100
AcDbEntity
  8
ASSI
100
AcDbEllipse
 62
7
  6
CONTINUOUS
 10
10.649923836
 20
-21.899313827
 30
0.0
 11
0.1582391023
 21
-0.4751033573
 31
0.0
 40
0.9984778551
 41
-0.3210503505
 42
1.2488325878
  0
ELLIPSE
  5
647
100
AcDbEntity
  8
ASSI
100
AcDbEllipse
 62
7
  6
CONTINUOUS
 10
10.649923836
 20
21.899313827
 30
0.0
 11
-0.1582391023
 21
-0.4751033573
 31
0.0
 40
0.9984778551
 41
1.8927600658
 42
3.4626430041
  0
ELLIPSE
  5
648
100
AcDbEntity
  8
ASSI
100
AcDbEllipse
 62
7
  6
CONTINUOUS
 10
-3.2506981562
 20
-21.34992574
 30
0.0
 11
0.1515997661
 21
0.0149686682
 31
0.0
 40
0.9846221255
 41
6.1847546189
 42
7.7540355981
  0
ELLIPSE
  5
649
100
AcDbEntity
  8
ASSI
100
AcDbEllipse
 62
7
  6
CONTINUOUS
 10
3.2506981562
 20
-21.34992574
 30
0.0
 11
0.1515997661
 21
-0.0149686682
 31
0.0
 40
0.9846221255
 41
7.9539276698
 42
9.523208649
  0
ELLIPSE
  5
64A
100
AcDbEntity
  8
ASSI
100
AcDbEllipse
 62
7
  6
CONTINUOUS
 10
3.2506981562
 20
21.34992574
 30
0.0
 11
0.1515997661
 21
0.0149686682
 31
0.0
 40
0.9846221255
 41
3.0431619653
 42
4.6124429445
  0
ELLIPSE
  5
64B
100
AcDbEntity
  8
ASSI
100
AcDbEllipse
 62
7
  6
CONTINUOUS
 10
-3.2506981562
 20
21.34992574
 30
0.0
 11
0.1515997661
 21
-0.0149686682
 31
0.0
 40
0.9846221255
 41
4.8123350162
 42
6.3816159955
  0
ELLIPSE
  5
64C
100
AcDbEntity
  8
ASSI
100
AcDbEllipse
 62
7
  6
CONTINUOUS
 10
-1.2045470032
 20
0.0
 30
0.0
 11
24.9109911832
 21
-0.0
 31
0.0
 40
0.8660473877
 41
-1.8214348428
 42
-1.8151898521
  0
ELLIPSE
  5
64D
100
AcDbEntity
  8
ASSI
100
AcDbEllipse
 62
7
  6
CONTINUOUS
 10
1.2045470032
 20
-0.0
 30
0.0
 11
24.9109911832
 21
-0.0
 31
0.0
 40
0.8660473877
 41
1.3201578108
 42
1.3264028015
  0
ELLIPSE
  5
64E
100
AcDbEntity
  8
ASSI
100
AcDbEllipse
 62
7
  6
CONTINUOUS
 10
1.2045470032
 20
-0.0
 30
0.0
 11
24.9109911832
 21
-0.0
 31
0.0
 40
0.8660473877
 41
-1.3264028015
 42
-1.3201578108
  0
ELLIPSE
  5
64F
100
AcDbEntity
  8
ASSI
100
AcDbEllipse
 62
7
  6
CONTINUOUS
 10
-11.25
 20
0.4174034785
 30
0.0
 11
0.0
 21
27.6144908417
 31
0.0
 40
0.9998857561
 41
-0.73336084
 42
-0.7200539912
  0
ELLIPSE
  5
650
100
AcDbEntity
  8
ASSI
100
AcDbEllipse
 62
7
  6
CONTINUOUS
 10
11.25
 20
0.4174034785
 30
0.0
 11
-0.0
 21
27.6144908417
 31
0.0
 40
0.9998857561
 41
0.7200539912
 42
0.73336084
  0
ELLIPSE
  5
651
100
AcDbEntity
  8
ASSI
100
AcDbEllipse
 62
7
  6
CONTINUOUS
 10
11.25
 20
-0.4174034785
 30
0.0
 11
-0.0
 21
27.6144908417
 31
0.0
 40
0.9998857561
 41
-3.8749534936
 42
-3.8616466448
  0
ELLIPSE
  5
652
100
AcDbEntity
  8
ASSI
100
AcDbEllipse
 62
7
  6
CONTINUOUS
 10
-11.25
 20
-0.4174034785
 30
0.0
 11
-0.0
 21
27.6144908417
 31
0.0
 40
0.9998857561
 41
-2.4215386624
 42
-2.4082318136
  0
ELLIPSE
  5
653
100
AcDbEntity
  8
ASSI
100
AcDbEllipse
 62
7
  6
CONTINUOUS
 10
7.2226300005
 20
-19.25
 30
0.0
 11
0.3000456984
 21
0.0
 31
0.0
 40
0.9998476952
 41
0.0
 42
0.8380557858
  0
ELLIPSE
  5
654
100
AcDbEntity
  8
ASSI
100
AcDbEllipse
 62
7
  6
CONTINUOUS
 10
-2.8371999868
 20
-21.3294606708
 30
0.0
 11
0.1346769129
 21
0.1155713785
 31
0.0
 40
0.7365893675
 41
-0.8599548088
 42
0.7093261704
  0
ELLIPSE
  5
655
100
AcDbEntity
  8
ASSI
100
AcDbEllipse
 62
7
  6
CONTINUOUS
 10
2.8371999868
 20
-21.3294606708
 30
0.0
 11
-0.1346769129
 21
0.1155713785
 31
0.0
 40
0.7365893675
 41
-0.7093261704
 42
0.8599548088
  0
ELLIPSE
  5
656
100
AcDbEntity
  8
ASSI
100
AcDbEllipse
 62
7
  6
CONTINUOUS
 10
2.8371999868
 20
21.3294606708
 30
0.0
 11
0.1346769129
 21
0.1155713785
 31
0.0
 40
0.7365893675
 41
-4.0015474624
 42
-2.4322664832
  0
ELLIPSE
  5
657
100
AcDbEntity
  8
ASSI
100
AcDbEllipse
 62
7
  6
CONTINUOUS
 10
-2.8371999868
 20
21.3294606708
 30
0.0
 11
-0.1346769129
 21
0.1155713785
 31
0.0
 40
0.7365893675
 41
-3.850918824
 42
-2.2816378448
  0
ELLIPSE
  5
658
100
AcDbEntity
  8
ASSI
100
AcDbEllipse
 62
7
  6
CONTINUOUS
 10
6.9180391175
 20
-19.25
 30
0.0
 11
0.2158671264
 21
0.2121320344
 31
0.0
 40
0.9826972631
 41
5.4977871438
 42
7.0685834706
  0
ELLIPSE
  5
659
100
AcDbEntity
  8
ASSI
100
AcDbEllipse
 62
7
  6
CONTINUOUS
 10
-6.9180391175
 20
-19.25
 30
0.0
 11
-0.2158671264
 21
0.2121320344
 31
0.0
 40
0.9826972631
 41
5.4977871438
 42
7.0685834706
  0
ELLIPSE
  5
65A
100
AcDbEntity
  8
ASSI
100
AcDbEllipse
 62
7
  6
CONTINUOUS
 10
-7.2226300005
 20
-19.25
 30
0.0
 11
0.3000456984
 21
-0.0
 31
0.0
 40
0.9998476952
 41
2.3035368678
 42
3.1415926536
  0
ELLIPSE
  5
65B
100
AcDbEntity
  8
ASSI
100
AcDbEllipse
 62
7
  6
CONTINUOUS
 10
-1.2045470032
 20
0.0
 30
0.0
 11
24.9109911832
 21
-0.0
 31
0.0
 40
0.8660473877
 41
1.8151898521
 42
1.8214348428
  0
ELLIPSE
  5
65C
100
AcDbEntity
  8
0
100
AcDbEllipse
 62
7
  6
CONTINUOUS
 10
10.649923836
 20
21.899313827
 30
0.0
 11
0.1582391023
 21
0.4751033573
 31
0.0
 40
0.9984778551
 41
5.0343527194
 42
6.6042356577
  0
ELLIPSE
  5
65D
100
AcDbEntity
  8
0
100
AcDbEllipse
 62
7
  6
CONTINUOUS
 10
10.649923836
 20
-21.899313827
 30
0.0
 11
-0.1582391023
 21
0.4751033573
 31
0.0
 40
0.9984778551
 41
9.1037276102
 42
10.6736105485
  0
ELLIPSE
  5
65E
100
AcDbEntity
  8
RACCORDO
100
AcDbEllipse
 62
7
  6
CONTINUOUS
 10
3.2506981562
 20
21.34992574
 30
0.0
 11
0.1515997661
 21
0.0149686682
 31
0.0
 40
0.9846221255
 41
3.0431619653
 42
4.6124429445
  0
ELLIPSE
  5
65F
100
AcDbEntity
  8
0
100
AcDbEllipse
 62
7
  6
CONTINUOUS
 10
-10.649923836
 20
21.899313827
 30
0.0
 11
-0.1582391023
 21
0.4751033573
 31
0.0
 40
0.9984778551
 41
5.9621349567
 42
7.5320178949
  0
ELLIPSE
  5
660
100
AcDbEntity
  8
RACCORDO
100
AcDbEllipse
 62
7
  6
CONTINUOUS
 10
-3.2506981562
 20
21.34992574
 30
0.0
 11
0.1515997661
 21
-0.0149686682
 31
0.0
 40
0.9846221255
 41
4.8123350162
 42
6.3816159955
  0
ELLIPSE
  5
661
100
AcDbEntity
  8
RACCORDO
100
AcDbEllipse
 62
7
  6
CONTINUOUS
 10
-3.2506981562
 20
-21.34992574
 30
0.0
 11
0.1515997661
 21
0.0149686682
 31
0.0
 40
0.9846221255
 41
6.1847546189
 42
7.7540355981
  0
ELLIPSE
  5
662
100
AcDbEntity
  8
RACCORDO
100
AcDbEllipse
 62
7
  6
CONTINUOUS
 10
3.2506981562
 20
-21.34992574
 30
0.0
 11
0.1515997661
 21
-0.0149686682
 31
0.0
 40
0.9846221255
 41
7.9539276698
 42
9.523208649
  0
ELLIPSE
  5
663
100
AcDbEntity
  8
0
100
AcDbEllipse
 62
7
  6
CONTINUOUS
 10
-10.649923836
 20
-21.899313827
 30
0.0
 11
0.1582391023
 21
0.4751033573
 31
0.0
 40
0.9984778551
 41
8.175945373
 42
9.7458283113
  0
ELLIPSE
  5
664
100
AcDbEntity
  8
RACCORDO
100
AcDbEllipse
 62
7
  6
CONTINUOUS
 10
7.2226300005
 20
19.25
 30
0.0
 11
0.3000456984
 21
-0.0
 31
0.0
 40
0.9998476952
 41
-1.5707963268
 42
0.0
  0
ELLIPSE
  5
665
100
AcDbEntity
  8
RACCORDO
100
AcDbEllipse
 62
7
  6
CONTINUOUS
 10
2.8371999868
 20
21.3294606708
 30
0.0
 11
0.1346769129
 21
0.1155713785
 31
0.0
 40
0.7365893675
 41
-4.0015474624
 42
-2.4322664832
  0
ELLIPSE
  5
666
100
AcDbEntity
  8
RACCORDO
100
AcDbEllipse
 62
7
  6
CONTINUOUS
 10
-2.8371999868
 20
21.3294606708
 30
0.0
 11
-0.1346769129
 21
0.1155713785
 31
0.0
 40
0.7365893675
 41
-3.850918824
 42
-2.2816378448
  0
ELLIPSE
  5
667
100
AcDbEntity
  8
RACCORDO
100
AcDbEllipse
 62
7
  6
CONTINUOUS
 10
-7.2226300005
 20
19.25
 30
0.0
 11
0.3000456984
 21
0.0
 31
0.0
 40
0.9998476952
 41
3.1415926536
 42
4.7123889804
  0
ELLIPSE
  5
668
100
AcDbEntity
  8
RACCORDO
100
AcDbEllipse
 62
7
  6
CONTINUOUS
 10
-2.8371999868
 20
-21.3294606708
 30
0.0
 11
0.1346769129
 21
0.1155713785
 31
0.0
 40
0.7365893675
 41
-0.8599548088
 42
0.7093261704
  0
ELLIPSE
  5
669
100
AcDbEntity
  8
RACCORDO
100
AcDbEllipse
 62
7
  6
CONTINUOUS
 10
2.8371999868
 20
-21.3294606708
 30
0.0
 11
-0.1346769129
 21
0.1155713785
 31
0.0
 40
0.7365893675
 41
-0.7093261704
 42
0.8599548088
  0
ELLIPSE
  5
66A
100
AcDbEntity
  8
DRAFT
100
AcDbEllipse
 62
7
  6
CONTINUOUS
 10
11.25
 20
-0.4174034785
 30
0.0
 11
-0.0
 21
27.6144908417
 31
0.0
 40
0.9998857561
 41
-3.8749534936
 42
-3.8616466448
  0
ELLIPSE
  5
66B
100
AcDbEntity
  8
DRAFT
100
AcDbEllipse
 62
7
  6
CONTINUOUS
 10
-11.25
 20
-0.4174034785
 30
0.0
 11
-0.0
 21
27.6144908417
 31
0.0
 40
0.9998857561
 41
-2.4215386624
 42
-2.4082318136
  0
ELLIPSE
  5
66C
100
AcDbEntity
  8
DRAFT
100
AcDbEllipse
 62
7
  6
CONTINUOUS
 10
-11.25
 20
0.4174034785
 30
0.0
 11
0.0
 21
27.6144908417
 31
0.0
 40
0.9998857561
 41
-0.73336084
 42
-0.7200539912
  0
ELLIPSE
  5
66D
100
AcDbEntity
  8
DRAFT
100
AcDbEllipse
 62
7
  6
CONTINUOUS
 10
11.25
 20
0.4174034785
 30
0.0
 11
-0.0
 21
27.6144908417
 31
0.0
 40
0.9998857561
 41
0.7200539912
 42
0.73336084
  0
ELLIPSE
  5
66E
100
AcDbEntity
  8
RACCORDO
100
AcDbEllipse
 62
7
  6
CONTINUOUS
 10
-6.9180391175
 20
19.25
 30
0.0
 11
0.2158671264
 21
0.2121320344
 31
0.0
 40
0.9826972631
 41
2.3561944902
 42
3.926990817
  0
ELLIPSE
  5
66F
100
AcDbEntity
  8
RACCORDO
100
AcDbEllipse
 62
7
  6
CONTINUOUS
 10
6.9180391175
 20
19.25
 30
0.0
 11
-0.2158671264
 21
0.2121320344
 31
0.0
 40
0.9826972631
 41
-3.926990817
 42
-2.3561944902
  0
ENDSEC
  0
SECTION
  2
OBJECTS
  0
DICTIONARY
  5
C
100
AcDbDictionary
280
0
281
1
  3
ACAD_GROUP
350
D
  3
ACAD_MLINESTYLE
350
17
  3
ACAD_LAYOUT
350
1A
  3
ACAD_PLOTSETTINGS
350
19
  3
ACAD_PLOTSTYLENAME
350
E
  0
DICTIONARY
  5
D
102
{ACAD_REACTORS
330
C
102
}
100
AcDbDictionary
280
0
281
1
  0
ACDBDICTIONARYWDFLT
  5
E
102
{ACAD_REACTORS
330
C
102
}
100
AcDbDictionary
281
1
  3
Normal
350
F
100
AcDbDictionaryWithDefault
340
F
  0
DICTIONARY
  5
17
102
{ACAD_REACTORS
330
C
102
}
100
AcDbDictionary
280
0
281
1
  3
Standard
350
18
  0
DICTIONARY
  5
19
102
{ACAD_REACTORS
330
C
102
}
100
AcDbDictionary
281
1
  0
DICTIONARY
  5
1A
102
{ACAD_REACTORS
330
C
102
}
100
AcDbDictionary
281
1
  3
Model
350
670
  3
Layout1
350
671
  0
ACDBPLACEHOLDER
  5
F
102
{ACAD_REACTORS
330
E
102
}
  0
MLINESTYLE
  5
18
102
{ACAD_REACTORS
330
17
102
}
100
AcDbMlineStyle
  2
STANDARD
 70
0
  3

 62
256
 51
90.0
 52
90.0
 71
2
 49
0.5
 62
256
  6
BYLAYER
 49
-0.5
 62
256
  6
BYLAYER
  0
LAYOUT
  5
670
102
{ACAD_REACTORS
330
1A
102
}
100
AcDbPlotSettings
  1

  2
none_device
  4

  6

 40
0.0
 41
0.0
 42
0.0
 43
0.0
 44
210.0
 45
297.0
 46
0.0
 47
0.0
 48
0.0
 49
0.0
140
0.0
141
0.0
142
1.0
143
1.0
 70
1024
 72
1
 73
0
 74
0
  7

 75
0
147
1.0
148
0.0
149
0.0
100
AcDbLayout
  1
Model
 70
0
 71
0
 10
0.0
 20
0.0
 11
210.0
 21
297.0
 12
0.0
 22
0.0
 32
0.0
 14
0.0
 24
0.0
 34
0.0
 15
0.0
 25
0.0
 35
0.0
146
0.0
 13
0.0
 23
0.0
 33
0.0
 16
1.0
 26
0.0
 36
0.0
 17
0.0
 27
1.0
 37
0.0
 76
0
330
216
345
0
346
0
  0
LAYOUT
  5
671
102
{ACAD_REACTORS
330
1A
102
}
100
AcDbPlotSettings
  1

  2
none_device
  4

  6

 40
0.0
 41
0.0
 42
0.0
 43
0.0
 44
210.0
 45
297.0
 46
0.0
 47
0.0
 48
0.0
 49
0.0
140
0.0
141
0.0
142
1.0
143
1.0
 70
0
 72
1
 73
0
 74
0
  7

 75
0
147
1.0
148
0.0
149
0.0
100
AcDbLayout
  1
Layout1
 70
0
 71
1
 10
0.0
 20
0.0
 11
210.0
 21
297.0
 12
0.0
 22
0.0
 32
0.0
 14
0.0
 24
0.0
 34
0.0
 15
0.0
 25
0.0
 35
0.0
146
0.0
 13
0.0
 23
0.0
 33
0.0
 16
1.0
 26
0.0
 36
0.0
 17
0.0
 27
1.0
 37
0.0
 76
0
330
217
345
0
346
0
  0
ENDSEC
  0
EOF
