  0
SECTION
  2
HEADER
  9
$ACADVER
  1
AC1024
  9
$DWGCODEPAGE
  3
ANSI_1252
  9
$EXTMAX
 10
558.8
 20
431.8
 30
0.0
  9
$EXTMIN
 10
0.0
 20
0.0
 30
0.0
  9
$LIMMIN
 10
0.0
 20
0.0
  9
$LIMMAX
 10
558.8
 20
431.8
  9
$VIEWCTR
 10
279.4
 20
215.9
  9
$VIEWSIZE
 40
431.8
  9
$CLAYER
  8
0
  9
$LTSCALE
 40
30.734
  9
$CELTYPE
  6
BYLAYER
  9
$DIMSCALE
 40
1.0
  9
$DIMASZ
 40
3.0
  9
$DIMEXO
 40
0.5
  9
$DIMDLI
 40
21.2344
  9
$DIMEXE
 40
1.5
  9
$DIMCEN
 40
5.0292
  9
$DIMLFAC
 40
1.0
  9
$DIMBLK
  1
_FILLED
  9
$DIMALT
 70
0
  9
$DIMALTF
 40
0.0393700787
  9
$DIMTXT
 40
3.0
  9
$DIMTOL
 70
1
  9
$DIMLIM
 70
0
  9
$DIMTFAC
 40
1.0
  9
$DIMTP
 40
0.01
  9
$DIMTM
 40
0.01
  9
$DIMGAP
 40
0.625
  9
$DIMDSEP
 70
44
  9
$AUNITS
 70
0
  9
$PDMODE
 70
3
  9
$PDSIZE
 40
3.0
  9
$HANDSEED
  5
688
  9
$TILEMODE
 70
1
  9
$MEASUREMENT
 70
1
  9
$INSUNITS
 70
4
  0
ENDSEC
  0
SECTION
  2
CLASSES
  0
CLASS
  1
ACDBDICTIONARYWDFLT
  2
AcDbDictionaryWithDefault
  3
AutoCAD 2000
 90
0
 91
1
280
0
281
0
  0
CLASS
  1
ACDBPLACEHOLDER
  2
AcDbPlaceHolder
  3
AutoCAD 2000
 90
0
 91
1
280
0
281
0
  0
CLASS
  1
LAYOUT
  2
AcDbLayout
  3
AutoCAD 2000
 90
0
 91
0
280
0
281
0
  0
ENDSEC
  0
SECTION
  2
TABLES
  0
TABLE
  2
VPORT
  5
8
100
AcDbSymbolTable
 70
2
  0
VPORT
  5
1F4
100
AcDbSymbolTableRecord
100
AcDbViewportTableRecord
  2
*ACTIVE
 70
0
 10
0.0
 20
0.0
 11
1.0
 21
1.0
 12
279.4
 22
215.9
 13
0.0
 23
0.0
 14
1.0
 24
1.0
 15
0.0
 25
0.0
 16
0.0
 26
0.0
 36
1.0
 17
0.0
 27
0.0
 37
0.0
 40
431.8
 41
1.2941176471
 42
50.0
 43
0.0
 44
0.0
 50
0.0
 51
0.0
 71
0
 72
100
 73
1
 74
1
 75
0
 76
0
 77
0
 78
0
  0
ENDTAB
  0
TABLE
  2
LTYPE
  5
5
100
AcDbSymbolTable
 70
6
  0
LTYPE
  5
14
100
AcDbSymbolTableRecord
100
AcDbLinetypeTableRecord
  2
BYBLOCK
 70
0
  3

 72
65
 73
0
 40
0.0
  0
LTYPE
  5
15
100
AcDbSymbolTableRecord
100
AcDbLinetypeTableRecord
  2
BYLAYER
 70
0
  3

 72
65
 73
0
 40
0.0
  0
LTYPE
  5
16
100
AcDbSymbolTableRecord
100
AcDbLinetypeTableRecord
  2
CONTINUOUS
 70
64
  3
Solid line
 72
65
 73
0
 40
0.0
  0
LTYPE
  5
1F5
100
AcDbSymbolTableRecord
100
AcDbLinetypeTableRecord
  2
CENTER
 70
64
  3
____ _ ____ _ ____ _ ____ _ ____ _ ____ _ ____
 72
65
 73
4
 40
0.6
 49
0.375
 74
0
 49
-0.075
 74
0
 49
0.075
 74
0
 49
-0.075
 74
0
  0
LTYPE
  5
1F6
100
AcDbSymbolTableRecord
100
AcDbLinetypeTableRecord
  2
HIDDEN
 70
64
  3
- - - - - - - - - - - - - - - - - - - -
 72
65
 73
2
 40
0.2
 49
0.1
 74
0
 49
-0.1
 74
0
  0
LTYPE
  5
1F7
100
AcDbSymbolTableRecord
100
AcDbLinetypeTableRecord
  2
PHANTOM
 70
64
  3
_____ _ _ _____ _ _ _____ _ _ _____
 72
65
 73
6
 40
0.8
 49
0.45
 74
0
 49
-0.05
 74
0
 49
0.1
 74
0
 49
-0.05
 74
0
 49
0.1
 74
0
 49
-0.05
 74
0
  0
LTYPE
  5
1F8
100
AcDbSymbolTableRecord
100
AcDbLinetypeTableRecord
  2
DOT
 70
64
  3
. . . . . . . . . . . . . . . . . . . .
 72
65
 73
2
 40
0.2
 49
0.1
 74
0
 49
-0.1
 74
0
  0
LTYPE
  5
1F9
100
AcDbSymbolTableRecord
100
AcDbLinetypeTableRecord
  2
DASHED
 70
64
  3
- - - - - - - - - - - - - - - - - - - -
 72
65
 73
2
 40
0.2
 49
0.1
 74
0
 49
-0.1
 74
0
  0
ENDTAB
  0
TABLE
  2
LAYER
  5
2
100
AcDbSymbolTable
 70
36
  0
LAYER
  5
10
100
AcDbSymbolTableRecord
100
AcDbLayerTableRecord
  2
0
 70
0
 62
7
  6
CONTINUOUS
370
-3
390
F
  0
LAYER
  5
1FA
100
AcDbSymbolTableRecord
100
AcDbLayerTableRecord
  2
DEFAULT_1
 70
0
 62
7
  6
CENTER
370
-3
390
F
  0
LAYER
  5
1FB
100
AcDbSymbolTableRecord
100
AcDbLayerTableRecord
  2
DEFAULT_2
 70
0
 62
7
  6
HIDDEN
370
-3
390
F
  0
LAYER
  5
1FC
100
AcDbSymbolTableRecord
100
AcDbLayerTableRecord
  2
DEFAULT_3
 70
0
 62
7
  6
PHANTOM
370
-3
390
F
  0
LAYER
  5
1FD
100
AcDbSymbolTableRecord
100
AcDbLayerTableRecord
  2
ASSI
 70
0
 62
7
  6
CONTINUOUS
370
-3
390
F
  0
LAYER
  5
1FE
100
AcDbSymbolTableRecord
100
AcDbLayerTableRecord
  2
COORDINATE
 70
0
 62
7
  6
CONTINUOUS
370
-3
390
F
  0
LAYER
  5
1FF
100
AcDbSymbolTableRecord
100
AcDbLayerTableRecord
  2
COORD_ORIGINE
 70
0
 62
7
  6
CONTINUOUS
370
-3
390
F
  0
LAYER
  5
200
100
AcDbSymbolTableRecord
100
AcDbLayerTableRecord
  2
COPY_PUBLISH
 70
0
 62
7
  6
CONTINUOUS
370
-3
390
F
  0
LAYER
  5
201
100
AcDbSymbolTableRecord
100
AcDbLayerTableRecord
  2
COSMETIC
 70
0
 62
7
  6
CONTINUOUS
370
-3
390
F
  0
LAYER
  5
202
100
AcDbSymbolTableRecord
100
AcDbLayerTableRecord
  2
CURVE
 70
0
 62
7
  6
CONTINUOUS
370
-3
390
F
  0
LAYER
  5
203
100
AcDbSymbolTableRecord
100
AcDbLayerTableRecord
  2
DRAFT
 70
0
 62
7
  6
CONTINUOUS
370
-3
390
F
  0
LAYER
  5
204
100
AcDbSymbolTableRecord
100
AcDbLayerTableRecord
  2
IMPORT_FEATURES
 70
0
 62
7
  6
CONTINUOUS
370
-3
390
F
  0
LAYER
  5
205
100
AcDbSymbolTableRecord
100
AcDbLayerTableRecord
  2
IMPORT_IGES
 70
0
 62
7
  6
CONTINUOUS
370
-3
390
F
  0
LAYER
  5
206
100
AcDbSymbolTableRecord
100
AcDbLayerTableRecord
  2
INTF_1
 70
0
 62
7
  6
CONTINUOUS
370
-3
390
F
  0
LAYER
  5
207
100
AcDbSymbolTableRecord
100
AcDbLayerTableRecord
  2
INTF_11
 70
0
 62
7
  6
CONTINUOUS
370
-3
390
F
  0
LAYER
  5
208
100
AcDbSymbolTableRecord
100
AcDbLayerTableRecord
  2
INTF_2
 70
0
 62
7
  6
CONTINUOUS
370
-3
390
F
  0
LAYER
  5
209
100
AcDbSymbolTableRecord
100
AcDbLayerTableRecord
  2
INTF_8
 70
0
 62
7
  6
CONTINUOUS
370
-3
390
F
  0
LAYER
  5
20A
100
AcDbSymbolTableRecord
100
AcDbLayerTableRecord
  2
PIANI
 70
0
 62
7
  6
CONTINUOUS
370
-3
390
F
  0
LAYER
  5
20B
100
AcDbSymbolTableRecord
100
AcDbLayerTableRecord
  2
PIANI_ORIGINE
 70
0
 62
7
  6
CONTINUOUS
370
-3
390
F
  0
LAYER
  5
20C
100
AcDbSymbolTableRecord
100
AcDbLayerTableRecord
  2
PUNTI
 70
0
 62
7
  6
CONTINUOUS
370
-3
390
F
  0
LAYER
  5
20D
100
AcDbSymbolTableRecord
100
AcDbLayerTableRecord
  2
RACCORDO
 70
0
 62
7
  6
CONTINUOUS
370
-3
390
F
  0
LAYER
  5
20E
100
AcDbSymbolTableRecord
100
AcDbLayerTableRecord
  2
SMUSSO
 70
0
 62
7
  6
CONTINUOUS
370
-3
390
F
  0
LAYER
  5
20F
100
AcDbSymbolTableRecord
100
AcDbLayerTableRecord
  2
SNAPLINE
 70
0
 62
7
  6
CONTINUOUS
370
-3
390
F
  0
LAYER
  5
210
100
AcDbSymbolTableRecord
100
AcDbLayerTableRecord
  2
SUPERFICI
 70
0
 62
7
  6
CONTINUOUS
370
-3
390
F
  0
LAYER
  5
211
100
AcDbSymbolTableRecord
100
AcDbLayerTableRecord
  2
TRASH
 70
0
 62
7
  6
CONTINUOUS
370
-3
390
F
  0
LAYER
  5
212
100
AcDbSymbolTableRecord
100
AcDbLayerTableRecord
  2
XSEC_DATUMS
 70
0
 62
7
  6
CONTINUOUS
370
-3
390
F
  0
LAYER
  5
213
100
AcDbSymbolTableRecord
100
AcDbLayerTableRecord
  2
___SHELL
 70
0
 62
7
  6
CONTINUOUS
370
-3
390
F
  0
ENDTAB
  0
TABLE
  2
STYLE
  5
3
100
AcDbSymbolTable
 70
1
  0
STYLE
  5
11
100
AcDbSymbolTableRecord
100
AcDbTextStyleTableRecord
  2
STANDARD
 70
0
 40
0.0
 41
0.8
 50
0.0
 71
0
 42
0.2
  3
txt
  4

  0
STYLE
  5
214
100
AcDbSymbolTableRecord
100
AcDbTextStyleTableRecord
  2
TEXTSTYLE_1
 70
0
 40
0.0
 41
0.8
 50
0.0
 71
0
 42
0.2
  3
gdt
  4

  0
ENDTAB
  0
TABLE
  2
VIEW
  5
6
100
AcDbSymbolTable
 70
0
  0
ENDTAB
  0
TABLE
  2
UCS
  5
7
100
AcDbSymbolTable
 70
0
  0
ENDTAB
  0
TABLE
  2
APPID
  5
9
100
AcDbSymbolTable
 70
1
  0
APPID
  5
215
100
AcDbSymbolTableRecord
100
AcDbRegAppTableRecord
  2
ACAD
 70
0
  0
ENDTAB
  0
TABLE
  2
BLOCK_RECORD
  5
1
100
AcDbSymbolTable
 70
0
  0
BLOCK_RECORD
  5
216
100
AcDbSymbolTableRecord
100
AcDbBlockTableRecord
  2
*Model_Space
  0
BLOCK_RECORD
  5
217
100
AcDbSymbolTableRecord
100
AcDbBlockTableRecord
  2
*Paper_Space
  0
BLOCK_RECORD
  5
218
100
AcDbSymbolTableRecord
100
AcDbBlockTableRecord
  2
_FILLED
  0
ENDTAB
  0
TABLE
  2
DIMSTYLE
  5
A
100
AcDbSymbolTable
 70
1
100
AcDbDimStyleTable
 71
0
  0
DIMSTYLE
105
219
100
AcDbSymbolTableRecord
100
AcDbDimStyleTableRecord
  2
STANDARD
 70
0
  3

  4

 40
1.0
 41
3.0
 42
0.5
 43
0.38
 44
1.5
 45
0.0
 46
0.0
 47
0.01
 48
0.01
140
3.0
141
0.09
142
0.0
143
25.4
144
1.0
145
0.0
146
1.0
147
0.625
 71
1
 72
0
 73
0
 74
0
 75
0
 76
0
 77
1
 78
8
 79
2
170
0
171
1
172
0
173
0
174
0
175
0
176
0
177
0
178
0
270
2
179
2
271
2
272
2
273
2
274
2
275
0
280
0
281
0
282
0
283
1
284
8
285
0
286
0
287
3
288
0
340
11
278
44
341
218
342
218
343
218
344
218
  0
ENDTAB
  0
ENDSEC
  0
SECTION
  2
BLOCKS
  0
BLOCK
  5
20
100
AcDbEntity
  8
0
100
AcDbBlockBegin
  2
*Model_Space
 70
0
 10
0.0
 20
0.0
 30
0.0
  3
*Model_Space
  1

  0
ENDBLK
  5
21
100
AcDbEntity
  8
0
100
AcDbBlockEnd
  0
BLOCK
  5
1C
100
AcDbEntity
  8
0
100
AcDbBlockBegin
  2
*Paper_Space
 70
0
 10
0.0
 20
0.0
 30
0.0
  3
*Paper_Space
  1

  0
ENDBLK
  5
1D
100
AcDbEntity
  8
0
100
AcDbBlockEnd
  0
BLOCK
  5
21A
100
AcDbEntity
  8
0
100
AcDbBlockBegin
  2
_FILLED
 70
64
 10
0.0
 20
0.0
  3
_FILLED
  1

  0
SOLID
  5
21B
100
AcDbEntity
  8
0
  6
BYBLOCK
 62
0
100
AcDbTrace
 10
0.0
 20
0.0
 11
-1.0
 21
0.3166666667
 12
-1.0
 22
-0.3166666667
 13
-1.0
 23
-0.3166666667
  0
ENDBLK
  5
21C
100
AcDbEntity
  8
0
  6
BYBLOCK
 62
0
100
AcDbBlockEnd
  0
ENDSEC
  0
SECTION
  2
ENTITIES
  0
LINE
  5
21D
100
AcDbEntity
  8
ASSI
100
AcDbLine
 62
7
  6
CONTINUOUS
 10
-3.0
 20
-23.5
 11
-2.7812783412
 21
-23.4781828305
  0
LINE
  5
21E
100
AcDbEntity
  8
DRAFT
100
AcDbLine
 62
7
  6
CONTINUOUS
 10
-3.0
 20
-23.5
 11
-2.7812783412
 21
-23.4781828305
  0
LINE
  5
21F
100
AcDbEntity
  8
ASSI
100
AcDbLine
 62
7
  6
CONTINUOUS
 10
-3.9733373476
 20
-23.5
 11
-3.0
 21
-23.5
  0
LINE
  5
220
100
AcDbEntity
  8
DRAFT
100
AcDbLine
 62
7
  6
CONTINUOUS
 10
-3.9733373476
 20
-23.5
 11
-3.0
 21
-23.5
  0
LINE
  5
221
100
AcDbEntity
  8
ASSI
100
AcDbLine
 62
7
  6
CONTINUOUS
 10
3.0
 20
-23.5
 11
3.9733373476
 21
-23.5
  0
LINE
  5
222
100
AcDbEntity
  8
DRAFT
100
AcDbLine
 62
7
  6
CONTINUOUS
 10
3.0
 20
-23.5
 11
3.9733373476
 21
-23.5
  0
LINE
  5
223
100
AcDbEntity
  8
ASSI
100
AcDbLine
 62
7
  6
CONTINUOUS
 10
2.7812783412
 20
-23.4781828305
 11
-2.7812783412
 21
-23.4781828305
  0
LINE
  5
224
100
AcDbEntity
  8
DRAFT
100
AcDbLine
 62
7
  6
CONTINUOUS
 10
2.7812783412
 20
-23.4781828305
 11
-2.7812783412
 21
-23.4781828305
  0
LINE
  5
225
100
AcDbEntity
  8
ASSI
100
AcDbLine
 62
7
  6
CONTINUOUS
 10
-3.9630152422
 20
-23.4650925288
 11
3.9630152422
 21
-23.4650925288
  0
LINE
  5
226
100
AcDbEntity
  8
DRAFT
100
AcDbLine
 62
7
  6
CONTINUOUS
 10
-3.9630152422
 20
-23.4650925288
 11
3.9630152422
 21
-23.4650925288
  0
LINE
  5
227
100
AcDbEntity
  8
ASSI
100
AcDbLine
 62
7
  6
CONTINUOUS
 10
-10.6503805997
 20
-22.4
 11
-5.55
 21
-22.4
  0
LINE
  5
228
100
AcDbEntity
  8
DRAFT
100
AcDbLine
 62
7
  6
CONTINUOUS
 10
-10.6503805997
 20
-22.4
 11
-5.55
 21
-22.4
  0
LINE
  5
229
100
AcDbEntity
  8
ASSI
100
AcDbLine
 62
7
  6
CONTINUOUS
 10
3.3821231691
 20
-22.4
 11
-3.3821231691
 21
-22.4
  0
LINE
  5
22A
100
AcDbEntity
  8
DRAFT
100
AcDbLine
 62
7
  6
CONTINUOUS
 10
3.3821231691
 20
-22.4
 11
-3.3821231691
 21
-22.4
  0
LINE
  5
22B
100
AcDbEntity
  8
ASSI
100
AcDbLine
 62
7
  6
CONTINUOUS
 10
5.55
 20
-22.4
 11
10.6503805997
 21
-22.4
  0
LINE
  5
22C
100
AcDbEntity
  8
DRAFT
100
AcDbLine
 62
7
  6
CONTINUOUS
 10
5.55
 20
-22.4
 11
10.6503805997
 21
-22.4
  0
LINE
  5
22D
100
AcDbEntity
  8
ASSI
100
AcDbLine
 62
7
  6
CONTINUOUS
 10
-3.0104834329
 20
-22.3955695989
 11
3.0104834329
 21
-22.3955695989
  0
LINE
  5
22E
100
AcDbEntity
  8
DRAFT
100
AcDbLine
 62
7
  6
CONTINUOUS
 10
-3.0104834329
 20
-22.3955695989
 11
3.0104834329
 21
-22.3955695989
  0
LINE
  5
22F
100
AcDbEntity
  8
ASSI
100
AcDbLine
 62
7
  6
CONTINUOUS
 10
3.0
 20
-23.5
 11
2.7812783412
 21
-23.4781828305
  0
LINE
  5
230
100
AcDbEntity
  8
DRAFT
100
AcDbLine
 62
7
  6
CONTINUOUS
 10
3.0
 20
-23.5
 11
2.7812783412
 21
-23.4781828305
  0
LINE
  5
231
100
AcDbEntity
  8
DRAFT
100
AcDbLine
 62
7
  6
CONTINUOUS
 10
7.3830351795
 20
-20.9
 11
7.2322076372
 21
-20.9330083283
  0
LINE
  5
232
100
AcDbEntity
  8
ASSI
100
AcDbLine
 62
7
  6
CONTINUOUS
 10
-3.4452396157
 20
-21.2139629885
 11
-3.2221796168
 21
-21.202894032
  0
LINE
  5
233
100
AcDbEntity
  8
DRAFT
100
AcDbLine
 62
7
  6
CONTINUOUS
 10
-3.4452396157
 20
-21.2139629885
 11
-3.2221796168
 21
-21.202894032
  0
LINE
  5
234
100
AcDbEntity
  8
ASSI
100
AcDbLine
 62
7
  6
CONTINUOUS
 10
-3.0104834329
 20
-22.3955695989
 11
-3.1
 21
-22.4
  0
LINE
  5
235
100
AcDbEntity
  8
DRAFT
100
AcDbLine
 62
7
  6
CONTINUOUS
 10
-3.0104834329
 20
-22.3955695989
 11
-3.1
 21
-22.4
  0
LINE
  5
236
100
AcDbEntity
  8
ASSI
100
AcDbLine
 62
250
  6
CONTINUOUS
 10
-2.6848155072
 20
-21.3292298715
 11
-3.0983838146
 21
-21.349698412
  0
LINE
  5
237
100
AcDbEntity
  8
RACCORDO
100
AcDbLine
 62
250
  6
CONTINUOUS
 10
-2.6848155072
 20
-21.3292298715
 11
-3.0983838146
 21
-21.349698412
  0
LINE
  5
238
100
AcDbEntity
  8
ASSI
100
AcDbLine
 62
250
  6
CONTINUOUS
 10
-2.7904532343
 20
-21.1771527675
 11
-3.2502365039
 21
-21.1999086032
  0
LINE
  5
239
100
AcDbEntity
  8
RACCORDO
100
AcDbLine
 62
250
  6
CONTINUOUS
 10
-2.7904532343
 20
-21.1771527675
 11
-3.2502365039
 21
-21.1999086032
  0
LINE
  5
23A
100
AcDbEntity
  8
ASSI
100
AcDbLine
 62
7
  6
CONTINUOUS
 10
6.9712561167
 20
-21.2139629885
 11
3.4452396157
 21
-21.2139629885
  0
LINE
  5
23B
100
AcDbEntity
  8
DRAFT
100
AcDbLine
 62
7
  6
CONTINUOUS
 10
6.9712561167
 20
-21.2139629885
 11
3.4452396157
 21
-21.2139629885
  0
LINE
  5
23C
100
AcDbEntity
  8
ASSI
100
AcDbLine
 62
7
  6
CONTINUOUS
 10
-3.4452396157
 20
-21.2139629885
 11
-6.9712561167
 21
-21.2139629885
  0
LINE
  5
23D
100
AcDbEntity
  8
DRAFT
100
AcDbLine
 62
7
  6
CONTINUOUS
 10
-3.4452396157
 20
-21.2139629885
 11
-6.9712561167
 21
-21.2139629885
  0
LINE
  5
23E
100
AcDbEntity
  8
ASSI
100
AcDbLine
 62
7
  6
CONTINUOUS
 10
6.9576125104
 20
-21.1771527675
 11
2.7904532343
 21
-21.1771527675
  0
LINE
  5
23F
100
AcDbEntity
  8
RACCORDO
100
AcDbLine
 62
7
  6
CONTINUOUS
 10
6.9576125104
 20
-21.1771527675
 11
2.7904532343
 21
-21.1771527675
  0
LINE
  5
240
100
AcDbEntity
  8
ASSI
100
AcDbLine
 62
7
  6
CONTINUOUS
 10
-2.7904532343
 20
-21.1771527675
 11
-6.9576125104
 21
-21.1771527675
  0
LINE
  5
241
100
AcDbEntity
  8
RACCORDO
100
AcDbLine
 62
7
  6
CONTINUOUS
 10
-2.7904532343
 20
-21.1771527675
 11
-6.9576125104
 21
-21.1771527675
  0
LINE
  5
242
100
AcDbEntity
  8
ASSI
100
AcDbLine
 62
7
  6
CONTINUOUS
 10
-9.65
 20
-20.9
 11
-7.3830351795
 21
-20.9
  0
LINE
  5
243
100
AcDbEntity
  8
DRAFT
100
AcDbLine
 62
7
  6
CONTINUOUS
 10
-9.65
 20
-20.9
 11
-7.3830351795
 21
-20.9
  0
LINE
  5
244
100
AcDbEntity
  8
ASSI
100
AcDbLine
 62
7
  6
CONTINUOUS
 10
7.3830351795
 20
-20.9
 11
9.65
 21
-20.9
  0
LINE
  5
245
100
AcDbEntity
  8
DRAFT
100
AcDbLine
 62
7
  6
CONTINUOUS
 10
7.3830351795
 20
-20.9
 11
9.65
 21
-20.9
  0
LINE
  5
246
100
AcDbEntity
  8
ASSI
100
AcDbLine
 62
7
  6
CONTINUOUS
 10
-9.5103594806
 20
-20.7603594806
 11
-7.5226756989
 21
-20.7603594806
  0
LINE
  5
247
100
AcDbEntity
  8
DRAFT
100
AcDbLine
 62
7
  6
CONTINUOUS
 10
-9.5103594806
 20
-20.7603594806
 11
-7.5226756989
 21
-20.7603594806
  0
LINE
  5
248
100
AcDbEntity
  8
ASSI
100
AcDbLine
 62
7
  6
CONTINUOUS
 10
7.5226756989
 20
-20.7603594806
 11
9.5103594806
 21
-20.7603594806
  0
LINE
  5
249
100
AcDbEntity
  8
DRAFT
100
AcDbLine
 62
7
  6
CONTINUOUS
 10
7.5226756989
 20
-20.7603594806
 11
9.5103594806
 21
-20.7603594806
  0
LINE
  5
24A
100
AcDbEntity
  8
ASSI
100
AcDbLine
 62
7
  6
CONTINUOUS
 10
3.1
 20
-22.4
 11
3.0104834329
 21
-22.3955695989
  0
LINE
  5
24B
100
AcDbEntity
  8
DRAFT
100
AcDbLine
 62
7
  6
CONTINUOUS
 10
3.1
 20
-22.4
 11
3.0104834329
 21
-22.3955695989
  0
LINE
  5
24C
100
AcDbEntity
  8
ASSI
100
AcDbLine
 62
250
  6
CONTINUOUS
 10
3.0983838146
 20
-21.349698412
 11
2.6848155072
 21
-21.3292298715
  0
LINE
  5
24D
100
AcDbEntity
  8
RACCORDO
100
AcDbLine
 62
250
  6
CONTINUOUS
 10
3.0983838146
 20
-21.349698412
 11
2.6848155072
 21
-21.3292298715
  0
LINE
  5
24E
100
AcDbEntity
  8
ASSI
100
AcDbLine
 62
7
  6
CONTINUOUS
 10
3.4452396157
 20
-21.2139629885
 11
3.2221796168
 21
-21.202894032
  0
LINE
  5
24F
100
AcDbEntity
  8
DRAFT
100
AcDbLine
 62
7
  6
CONTINUOUS
 10
3.4452396157
 20
-21.2139629885
 11
3.2221796168
 21
-21.202894032
  0
LINE
  5
250
100
AcDbEntity
  8
ASSI
100
AcDbLine
 62
250
  6
CONTINUOUS
 10
3.2502365039
 20
-21.1999086032
 11
2.7904532343
 21
-21.1771527675
  0
LINE
  5
251
100
AcDbEntity
  8
RACCORDO
100
AcDbLine
 62
250
  6
CONTINUOUS
 10
3.2502365039
 20
-21.1999086032
 11
2.7904532343
 21
-21.1771527675
  0
LINE
  5
252
100
AcDbEntity
  8
DRAFT
100
AcDbLine
 62
7
  6
CONTINUOUS
 10
-7.2322076372
 20
-20.9330083283
 11
-7.3830351795
 21
-20.9
  0
LWPOLYLINE
  5
253
100
AcDbEntity
  8
0
100
AcDbPolyline
 62
7
  6
CONTINUOUS
 90
10
 70
0
 10
-9.8830457335
 20
18.4169542737
 10
-9.9130542962
 20
18.3840579589
 10
-9.9397480228
 20
18.3493020537
 10
-9.9631269133
 20
18.3126865582
 10
-9.9833134305
 20
18.2739052081
 10
-10.0001851115
 20
18.2332642677
 10
-10.0133745675
 20
18.19168253
 10
-10.0227593356
 20
18.1494662595
 10
-10.0284618788
 20
18.1063091917
 10
-10.030482197
 20
18.0622113267
  0
LINE
  5
254
100
AcDbEntity
  8
ASSI
100
AcDbLine
 62
7
  6
CONTINUOUS
 10
-10.0117718897
 20
18.1967352121
 11
-10.0282352926
 21
18.1797639505
  0
LINE
  5
255
100
AcDbEntity
  8
RACCORDO
100
AcDbLine
 62
7
  6
CONTINUOUS
 10
-10.011964828
 20
18.196126945
 11
-10.0282352926
 21
18.1797639505
  0
LINE
  5
256
100
AcDbEntity
  8
0
100
AcDbLine
 62
7
  6
CONTINUOUS
 10
-9.8830457335
 20
18.4169542737
 11
-8.5462459115
 21
19.7537540927
  0
LINE
  5
257
100
AcDbEntity
  8
ASSI
100
AcDbLine
 62
7
  6
CONTINUOUS
 10
-7.5226756989
 20
20.7603594806
 11
-7.3830351795
 21
20.9
  0
LINE
  5
258
100
AcDbEntity
  8
DRAFT
100
AcDbLine
 62
7
  6
CONTINUOUS
 10
-7.5226756989
 20
20.7603594806
 11
-7.3830351795
 21
20.9
  0
LINE
  5
259
100
AcDbEntity
  8
ASSI
100
AcDbLine
 62
250
  6
CONTINUOUS
 10
-10.9425612895
 20
17.0730847656
 11
-10.9157929741
 21
17.0863903821
  0
LINE
  5
25A
100
AcDbEntity
  8
RACCORDO
100
AcDbLine
 62
250
  6
CONTINUOUS
 10
-10.9425612895
 20
17.0730847656
 11
-10.9157929741
 21
17.0863903821
  0
LINE
  5
25B
100
AcDbEntity
  8
ASSI
100
AcDbLine
 62
250
  6
CONTINUOUS
 10
-11.15
 20
16.4632818589
 11
-11.1238174026
 21
16.4758271193
  0
LINE
  5
25C
100
AcDbEntity
  8
RACCORDO
100
AcDbLine
 62
250
  6
CONTINUOUS
 10
-11.15
 20
16.4632818589
 11
-11.1238174026
 21
16.4758271193
  0
LINE
  5
25D
100
AcDbEntity
  8
ASSI
100
AcDbLine
 62
7
  6
CONTINUOUS
 10
-7.2084845302
 20
-20.1483339502
 11
7.2084845302
 21
-20.1483339502
  0
LINE
  5
25E
100
AcDbEntity
  8
DRAFT
100
AcDbLine
 62
7
  6
CONTINUOUS
 10
-7.2084845302
 20
-20.1483339502
 11
7.2084845302
 21
-20.1483339502
  0
LINE
  5
25F
100
AcDbEntity
  8
0
100
AcDbLine
 62
7
  6
CONTINUOUS
 10
-8.1931770515
 20
-19.9
 11
-7.8993147674
 21
-19.9
  0
LINE
  5
260
100
AcDbEntity
  8
0
100
AcDbLine
 62
7
  6
CONTINUOUS
 10
7.8993147674
 20
-19.9
 11
8.1931770515
 21
-19.9
  0
LINE
  5
261
100
AcDbEntity
  8
ASSI
100
AcDbLine
 62
7
  6
CONTINUOUS
 10
7.2084845302
 20
-19.8
 11
-7.2084845302
 21
-19.8
  0
LINE
  5
262
100
AcDbEntity
  8
DRAFT
100
AcDbLine
 62
7
  6
CONTINUOUS
 10
7.2084845302
 20
-19.8
 11
-7.2084845302
 21
-19.8
  0
LINE
  5
263
100
AcDbEntity
  8
ASSI
100
AcDbLine
 62
7
  6
CONTINUOUS
 10
2.8136015098
 20
-19.6414213562
 11
-2.8136015098
 21
-19.6414213562
  0
LINE
  5
264
100
AcDbEntity
  8
SMUSSO
100
AcDbLine
 62
7
  6
CONTINUOUS
 10
2.8136015098
 20
-19.6414213562
 11
-2.8136015098
 21
-19.6414213562
  0
LINE
  5
265
100
AcDbEntity
  8
ASSI
100
AcDbLine
 62
7
  6
CONTINUOUS
 10
2.8148356752
 20
-19.5
 11
-2.8148356752
 21
-19.5
  0
LINE
  5
266
100
AcDbEntity
  8
SMUSSO
100
AcDbLine
 62
7
  6
CONTINUOUS
 10
2.8148356752
 20
-19.5
 11
-2.8148356752
 21
-19.5
  0
LINE
  5
267
100
AcDbEntity
  8
ASSI
100
AcDbLine
 62
250
  6
CONTINUOUS
 10
7.2180848159
 20
-19.25
 11
7.4
 21
-19.25
  0
LINE
  5
268
100
AcDbEntity
  8
RACCORDO
100
AcDbLine
 62
250
  6
CONTINUOUS
 10
7.2180848159
 20
-19.25
 11
7.4
 21
-19.25
  0
LINE
  5
269
100
AcDbEntity
  8
ASSI
100
AcDbLine
 62
250
  6
CONTINUOUS
 10
-7.2180848159
 20
-19.25
 11
-7.4
 21
-19.25
  0
LINE
  5
26A
100
AcDbEntity
  8
RACCORDO
100
AcDbLine
 62
250
  6
CONTINUOUS
 10
-7.2180848159
 20
-19.25
 11
-7.4
 21
-19.25
  0
LINE
  5
26B
100
AcDbEntity
  8
ASSI
100
AcDbLine
 62
7
  6
CONTINUOUS
 10
6.120654997
 20
-19.1
 11
2.8183264224
 21
-19.1
  0
LINE
  5
26C
100
AcDbEntity
  8
ASSI
100
AcDbLine
 62
7
  6
CONTINUOUS
 10
-2.8151349644
 20
-19.1
 11
-1.9
 21
-19.1
  0
LINE
  5
26D
100
AcDbEntity
  8
RACCORDO
100
AcDbLine
 62
7
  6
CONTINUOUS
 10
-2.8151349644
 20
-19.1
 11
-1.9
 21
-19.1
  0
LINE
  5
26E
100
AcDbEntity
  8
ASSI
100
AcDbLine
 62
7
  6
CONTINUOUS
 10
1.9
 20
-19.1
 11
2.8151349644
 21
-19.1
  0
LINE
  5
26F
100
AcDbEntity
  8
RACCORDO
100
AcDbLine
 62
7
  6
CONTINUOUS
 10
1.9
 20
-19.1
 11
6.120654997
 21
-19.1
  0
LINE
  5
270
100
AcDbEntity
  8
ASSI
100
AcDbLine
 62
7
  6
CONTINUOUS
 10
-2.8183264224
 20
-19.1
 11
-6.120654997
 21
-19.1
  0
LINE
  5
271
100
AcDbEntity
  8
RACCORDO
100
AcDbLine
 62
7
  6
CONTINUOUS
 10
-2.8183264224
 20
-19.1
 11
-6.120654997
 21
-19.1
  0
LINE
  5
272
100
AcDbEntity
  8
ASSI
100
AcDbLine
 62
7
  6
CONTINUOUS
 10
6.6330351795
 20
-18.95
 11
6.3804626182
 21
-18.95
  0
LINE
  5
273
100
AcDbEntity
  8
RACCORDO
100
AcDbLine
 62
7
  6
CONTINUOUS
 10
6.6330351795
 20
-18.95
 11
6.3804626182
 21
-18.95
  0
LINE
  5
274
100
AcDbEntity
  8
ASSI
100
AcDbLine
 62
7
  6
CONTINUOUS
 10
-6.3804626182
 20
-18.95
 11
-6.6330351795
 21
-18.95
  0
LINE
  5
275
100
AcDbEntity
  8
RACCORDO
100
AcDbLine
 62
7
  6
CONTINUOUS
 10
-6.3804626182
 20
-18.95
 11
-6.6330351795
 21
-18.95
  0
LINE
  5
276
100
AcDbEntity
  8
ASSI
100
AcDbLine
 62
7
  6
CONTINUOUS
 10
-6.8330351795
 20
-18.95
 11
-7.2226300005
 21
-18.95
  0
LINE
  5
277
100
AcDbEntity
  8
ASSI
100
AcDbLine
 62
7
  6
CONTINUOUS
 10
6.8330351795
 20
-18.95
 11
7.2226300005
 21
-18.95
  0
LINE
  5
278
100
AcDbEntity
  8
RACCORDO
100
AcDbLine
 62
7
  6
CONTINUOUS
 10
6.8330351795
 20
-18.95
 11
7.2226300005
 21
-18.95
  0
LINE
  5
279
100
AcDbEntity
  8
RACCORDO
100
AcDbLine
 62
7
  6
CONTINUOUS
 10
-6.8330351795
 20
-18.95
 11
-7.2226300005
 21
-18.95
  0
LINE
  5
27A
100
AcDbEntity
  8
0
100
AcDbLine
 62
7
  6
CONTINUOUS
 10
-7.4
 20
-18.9
 11
-6.7830351795
 21
-18.9
  0
LINE
  5
27B
100
AcDbEntity
  8
0
100
AcDbLine
 62
7
  6
CONTINUOUS
 10
-6.6830351795
 20
-18.9
 11
-1.9
 21
-18.9
  0
LINE
  5
27C
100
AcDbEntity
  8
0
100
AcDbLine
 62
7
  6
CONTINUOUS
 10
1.9
 20
-18.9
 11
6.6830351795
 21
-18.9
  0
LINE
  5
27D
100
AcDbEntity
  8
0
100
AcDbLine
 62
7
  6
CONTINUOUS
 10
6.7830351795
 20
-18.9
 11
7.4
 21
-18.9
  0
LINE
  5
27E
100
AcDbEntity
  8
ASSI
100
AcDbLine
 62
250
  6
CONTINUOUS
 10
-11.1238174026
 20
-16.4758271194
 11
-11.15
 21
-16.463281859
  0
LINE
  5
27F
100
AcDbEntity
  8
RACCORDO
100
AcDbLine
 62
250
  6
CONTINUOUS
 10
-11.1238174026
 20
-16.4758271194
 11
-11.15
 21
-16.463281859
  0
LINE
  5
280
100
AcDbEntity
  8
RACCORDO
100
AcDbLine
 62
250
  6
CONTINUOUS
 10
-10.9157929741
 20
-17.0863903822
 11
-10.9425612895
 21
-17.0730847656
  0
LINE
  5
281
100
AcDbEntity
  8
0
100
AcDbLine
 62
7
  6
CONTINUOUS
 10
-8.5462459094
 20
-19.7537540906
 11
-9.8830108391
 21
-18.4169891609
  0
LINE
  5
282
100
AcDbEntity
  8
ASSI
100
AcDbLine
 62
7
  6
CONTINUOUS
 10
-7.3830351795
 20
-20.9
 11
-7.5226756989
 21
-20.7603594806
  0
LINE
  5
283
100
AcDbEntity
  8
DRAFT
100
AcDbLine
 62
7
  6
CONTINUOUS
 10
-7.3830351795
 20
-20.9
 11
-7.5226756989
 21
-20.7603594806
  0
LINE
  5
284
100
AcDbEntity
  8
RACCORDO
100
AcDbLine
 62
7
  6
CONTINUOUS
 10
-10.0282352926
 20
-18.1797639505
 11
-10.0119656923
 21
-18.1961260759
  0
LINE
  5
285
100
AcDbEntity
  8
ASSI
100
AcDbLine
 62
7
  6
CONTINUOUS
 10
-10.0282352926
 20
-18.1797639505
 11
-10.0117727068
 21
-18.1967343698
  0
LINE
  5
286
100
AcDbEntity
  8
ASSI
100
AcDbLine
 62
250
  6
CONTINUOUS
 10
-10.0282352926
 20
18.1797639505
 11
-10.0017927407
 21
18.2307790647
  0
LWPOLYLINE
  5
287
100
AcDbEntity
  8
ASSI
100
AcDbPolyline
 62
7
  6
CONTINUOUS
 90
10
 70
0
 10
-10.9157929779
 20
17.086390376
 10
-10.9584956675
 20
17.0264427449
 10
-10.9963946474
 20
16.9642469159
 10
-11.0294899177
 20
16.8998028891
 10
-11.0579061536
 20
16.8327439776
 10
-11.0815186798
 20
16.7634368682
 10
-11.0999534704
 20
16.6929816216
 10
-11.1130858501
 20
16.6217449247
 10
-11.1210404942
 20
16.5493600905
 10
-11.1238174026
 20
16.4758271192
  0
LWPOLYLINE
  5
288
100
AcDbEntity
  8
RACCORDO
100
AcDbPolyline
 62
7
  6
CONTINUOUS
 90
10
 70
0
 10
-10.9157929779
 20
17.086390376
 10
-10.9582685444
 20
17.0269709071
 10
-10.9960422757
 20
16.965042328
 10
-11.0291141717
 20
16.9006046386
 10
-11.0576690328
 20
16.8331193229
 10
-11.0815220587
 20
16.7631248969
 10
-11.1001188487
 20
16.6922369087
 10
-11.1132746026
 20
16.6209938743
 10
-11.1211741205
 20
16.5488572778
 10
-11.1238174026
 20
16.4758271192
  0
LINE
  5
289
100
AcDbEntity
  8
ASSI
100
AcDbLine
 62
7
  6
CONTINUOUS
 10
-6.7330351795
 20
18.85
 11
-6.6330351795
 21
18.95
  0
LINE
  5
28A
100
AcDbEntity
  8
0
100
AcDbLine
 62
7
  6
CONTINUOUS
 10
-6.7330351795
 20
18.85
 11
-6.6330351795
 21
18.95
  0
LWPOLYLINE
  5
28B
100
AcDbEntity
  8
0
100
AcDbPolyline
 62
7
  6
CONTINUOUS
 90
19
 70
0
 10
9.0308961432
 20
-17.5055501127
 10
9.1185120597
 20
-17.5015219635
 10
9.2041322763
 20
-17.4903318783
 10
9.2877567932
 20
-17.4719798571
 10
9.3699569286
 20
-17.446212018
 10
9.4501613641
 20
-17.413282243
 10
9.526656145
 20
-17.3739521777
 10
9.5993600076
 20
-17.3280968703
 10
9.6683542155
 20
-17.2758412725
 10
9.7321686051
 20
-17.2183218853
 10
9.7906999184
 20
-17.1554337085
 10
9.8440514133
 20
-17.0872817423
 10
9.8910627005
 20
-17.0153174883
 10
9.931610001
 20
-16.9394575891
 10
9.9658170939
 20
-16.859785402
 10
9.9928949269
 20
-16.7780025008
 10
10.0125804826
 20
-16.6946760766
 10
10.0251367784
 20
-16.6092389383
 10
10.0305638143
 20
-16.5216910858
  0
LWPOLYLINE
  5
28C
100
AcDbEntity
  8
0
100
AcDbPolyline
 62
250
  6
CONTINUOUS
 90
19
 70
0
 10
8.9607642519
 20
-17.4156773025
 10
9.0486647905
 20
-17.4117662812
 10
9.1349099556
 20
-17.4003176556
 10
9.218880487
 20
-17.381673562
 10
9.2995457329
 20
-17.3563882264
 10
9.3768898897
 20
-17.3247950367
 10
9.4517568365
 20
-17.2866170721
 10
9.5239115369
 20
-17.2417756019
 10
9.5923824705
 20
-17.1906645449
 10
9.6567460622
 20
-17.1334097539
 10
9.7165232209
 20
-17.0701639328
 10
9.770987753
 20
-17.0013953291
 10
9.819405299
 20
-16.9278053565
 10
9.8612442933
 20
-16.8500667138
 10
9.8961936523
 20
-16.7686000169
 10
9.9239378447
 20
-16.6838315017
 10
9.9441273779
 20
-16.5963304007
 10
9.9564337064
 20
-16.5068263867
 10
9.960608839
 20
-16.4160302708
  0
LWPOLYLINE
  5
28D
100
AcDbEntity
  8
0
100
AcDbPolyline
 62
7
  6
CONTINUOUS
 90
19
 70
0
 10
9.000329602
 20
-17.4749999898
 10
9.0882510801
 20
-17.4711235079
 10
9.1752108402
 20
-17.4595811542
 10
9.2605498259
 20
-17.4405349247
 10
9.3436253912
 20
-17.414204123
 10
9.4238357165
 20
-17.3808577591
 10
9.5006217575
 20
-17.3408060366
 10
9.5731835023
 20
-17.2945885137
 10
9.6413024035
 20
-17.2424713469
 10
9.705196513
 20
-17.1842176516
 10
9.764669115
 20
-17.1196539948
 10
9.818649052
 20
-17.0495535073
 10
9.8661108573
 20
-16.975143721
 10
9.9066015208
 20
-16.897318686
 10
9.9400396686
 20
-16.8164476812
 10
9.9662274449
 20
-16.7331476288
 10
9.985014614
 20
-16.6480604591
 10
9.996305342
 20
-16.5618506164
 10
10.000064192
 20
-16.4751759394
  0
LINE
  5
28E
100
AcDbEntity
  8
0
100
AcDbLine
 62
7
  6
CONTINUOUS
 10
-9.0308058616
 20
-17.5055427862
 11
9.0308961432
 21
-17.5055501127
  0
LINE
  5
28F
100
AcDbEntity
  8
0
100
AcDbLine
 62
7
  6
CONTINUOUS
 10
-9.0002916983
 20
-17.4750000031
 11
9.0003111929
 21
-17.475000001
  0
LINE
  5
290
100
AcDbEntity
  8
0
100
AcDbLine
 62
250
  6
CONTINUOUS
 10
-8.960761811
 20
-17.4156773035
 11
8.9607607557
 21
-17.4156773041
  0
LWPOLYLINE
  5
291
100
AcDbEntity
  8
0
100
AcDbPolyline
 62
250
  6
CONTINUOUS
 90
19
 70
0
 10
-8.9607550335
 20
-17.4156773066
 10
-9.046853218
 20
-17.4119253055
 10
-9.1328546825
 20
-17.4006798486
 10
-9.2180938128
 20
-17.3818837506
 10
-9.3021107044
 20
-17.3554595281
 10
-9.3839788316
 20
-17.3215141403
 10
-9.4623902423
 20
-17.2805329439
 10
-9.5365943869
 20
-17.2329822479
 10
-9.6062089973
 20
-17.1791847581
 10
-9.6706259311
 20
-17.119683474
 10
-9.7293325012
 20
-17.0550732425
 10
-9.7820181765
 20
-16.9858278221
 10
-9.8284362823
 20
-16.9123544157
 10
-9.8682909953
 20
-16.8351505823
 10
-9.9012595727
 20
-16.7548756189
 10
-9.9271050546
 20
-16.6721910993
 10
-9.9456672654
 20
-16.5877452105
 10
-9.9568503203
 20
-16.5021624966
 10
-9.9606088115
 20
-16.4160858033
  0
LWPOLYLINE
  5
292
100
AcDbEntity
  8
0
100
AcDbPolyline
 62
7
  6
CONTINUOUS
 90
19
 70
0
 10
-9.0308058616
 20
-17.5055427862
 10
-9.119187255
 20
-17.5014605602
 10
-9.2055575009
 20
-17.4900720374
 10
-9.2899165995
 20
-17.4713772179
 10
-9.3728611945
 20
-17.4451191068
 10
-9.4537946421
 20
-17.4115546988
 10
-9.5309270106
 20
-17.3714549788
 10
-9.604175525
 20
-17.3246791063
 10
-9.6736229602
 20
-17.2713679216
 10
-9.7377277103
 20
-17.212714931
 10
-9.7963736138
 20
-17.1486039098
 10
-9.8496768321
 20
-17.0791510826
 10
-9.8964442428
 20
-17.005898629
 10
-9.9365350748
 20
-16.9287640145
 10
-9.9700900992
 20
-16.8478297736
 10
-9.9963385063
 20
-16.7648856897
 10
-10.0150233596
 20
-16.680528357
 10
-10.0264015956
 20
-16.5941611812
 10
-10.0304732142
 20
-16.5057841622
  0
LINE
  5
293
100
AcDbEntity
  8
ASSI
100
AcDbLine
 62
7
  6
CONTINUOUS
 10
-6.6330351795
 20
-18.95
 11
-6.7330351795
 21
-18.85
  0
LINE
  5
294
100
AcDbEntity
  8
0
100
AcDbLine
 62
7
  6
CONTINUOUS
 10
-6.6330351795
 20
-18.95
 11
-6.7330351795
 21
-18.85
  0
LWPOLYLINE
  5
295
100
AcDbEntity
  8
RACCORDO
100
AcDbPolyline
 62
7
  6
CONTINUOUS
 90
10
 70
0
 10
-10.9425612894
 20
-17.0730847657
 10
-10.9849181826
 20
-17.0137191992
 10
-11.0225862052
 20
-16.9518531464
 10
-11.0555653571
 20
-16.8874866073
 10
-11.0840398601
 20
-16.8200823708
 10
-11.1078254924
 20
-16.7501776479
 10
-11.126369589
 20
-16.6793840721
 10
-11.1394879283
 20
-16.6082388542
 10
-11.147364732
 20
-16.5362047833
 10
-11.15
 20
-16.4632818593
  0
LWPOLYLINE
  5
296
100
AcDbEntity
  8
ASSI
100
AcDbPolyline
 62
7
  6
CONTINUOUS
 90
10
 70
0
 10
-10.9425612894
 20
-17.0730847657
 10
-10.9851465683
 20
-17.0131878127
 10
-11.0229406824
 20
-16.9510522655
 10
-11.0559436316
 20
-16.886678124
 10
-11.0842793739
 20
-16.8197002379
 10
-11.1078239514
 20
-16.7504837575
 10
-11.1262054901
 20
-16.6801241343
 10
-11.1393000321
 20
-16.6089865188
 10
-11.1472315354
 20
-16.5367057604
 10
-11.15
 20
-16.4632818593
  0
LINE
  5
297
100
AcDbEntity
  8
ASSI
100
AcDbLine
 62
250
  6
CONTINUOUS
 10
-10.0017927407
 20
-18.2307790647
 11
-10.0282352926
 21
-18.1797639505
  0
LINE
  5
298
100
AcDbEntity
  8
0
100
AcDbLine
 62
250
  6
CONTINUOUS
 10
-7.0140516176
 20
13.635947676
 11
-7.0157476448
 21
13.6342235118
  0
LINE
  5
299
100
AcDbEntity
  8
0
100
AcDbLine
 62
250
  6
CONTINUOUS
 10
2.3732786529
 20
-14.9165339916
 11
9.9351102337
 21
-14.9165339923
  0
LINE
  5
29A
100
AcDbEntity
  8
0
100
AcDbLine
 62
250
  6
CONTINUOUS
 10
-2.3730119729
 20
-14.9164309981
 11
-9.9351104892
 21
-14.9165339853
  0
LINE
  5
29B
100
AcDbEntity
  8
0
100
AcDbLine
 62
250
  6
CONTINUOUS
 10
1.4603014636
 20
-14.0000148588
 11
2.5441081201
 21
-14.0
  0
LINE
  5
29C
100
AcDbEntity
  8
0
100
AcDbLine
 62
250
  6
CONTINUOUS
 10
-1.4603022077
 20
-14.0002524722
 11
-2.5437666695
 21
-14.0
  0
LINE
  5
29D
100
AcDbEntity
  8
0
100
AcDbLine
 62
250
  6
CONTINUOUS
 10
1.6740636038
 20
-14.646508436
 11
2.3730119716
 21
-14.9164310015
  0
LWPOLYLINE
  5
29E
100
AcDbEntity
  8
0
100
AcDbPolyline
 62
7
  6
CONTINUOUS
 90
16
 70
0
 10
-9.8442288605
 20
-7.750328568
 10
-9.8428207031
 20
-7.7764018519
 10
-9.8387053442
 20
-7.802163962
 10
-9.8319349471
 20
-7.8273355821
 10
-9.8226094858
 20
-7.8516022379
 10
-9.8108268201
 20
-7.874750131
 10
-9.7966377862
 20
-7.8966467386
 10
-9.7800755229
 20
-7.917134459
 10
-9.7613629942
 20
-7.9358453381
 10
-9.7408989094
 20
-7.9523878867
 10
-9.7190948209
 20
-7.9665253917
 10
-9.6960778926
 20
-7.9782639729
 10
-9.6718556743
 20
-7.987604589
 10
-9.646586677
 20
-7.9944297649
 10
-9.6206208583
 20
-7.9985898317
 10
-9.5942395164
 20
-8.0000001412
  0
LWPOLYLINE
  5
29F
100
AcDbEntity
  8
0
100
AcDbPolyline
 62
7
  6
CONTINUOUS
 90
10
 70
0
 10
-10.0304838701
 20
-18.0622282508
 10
-10.0284622019
 20
-18.1063249824
 10
-10.022757493
 20
-18.1494823922
 10
-10.0133697436
 20
-18.1917004802
 10
-10.0001763075
 20
-18.2332864348
 10
-9.9832998308
 20
-18.2739330676
 10
-9.9631082517
 20
-18.3127188132
 10
-9.9397242165
 20
-18.349336483
 10
-9.9130250789
 20
-18.3840932656
 10
-9.8830108391
 20
-18.4169891609
  0
LWPOLYLINE
  5
2A0
100
AcDbEntity
  8
0
100
AcDbPolyline
 62
7
  6
CONTINUOUS
 90
19
 70
0
 10
-9.9999357894
 20
-16.475223828
 10
-9.9962454649
 20
-16.5610686696
 10
-9.9850476219
 20
-16.6471459398
 10
-9.9661993019
 20
-16.7327778263
 10
-9.9394442198
 20
-16.8177355325
 10
-9.9048582479
 20
-16.9007721607
 10
-9.8632763108
 20
-16.979804466
 10
-9.8155447732
 20
-17.0537733557
 10
-9.7619105426
 20
-17.1227630812
 10
-9.7026730645
 20
-17.1865925409
 10
-9.6382374627
 20
-17.2449166128
 10
-9.5692292035
 20
-17.2972516218
 10
-9.4962612579
 20
-17.3432398369
 10
-9.4202429772
 20
-17.3824708315
 10
-9.3414851634
 20
-17.4149376408
 10
-9.2596347765
 20
-17.4407465436
 10
-9.1749195452
 20
-17.4596098043
 10
-9.0882527853
 20
-17.4711117697
 10
-9.0002747376
 20
-17.475000006
  0
LWPOLYLINE
  5
2A1
100
AcDbEntity
  8
ASSI
100
AcDbPolyline
 62
7
  6
CONTINUOUS
 90
10
 70
0
 10
-11.1238174026
 20
-16.4758271192
 10
-11.1210404941
 20
-16.5493600913
 10
-11.1130858499
 20
-16.6217449262
 10
-11.0999534699
 20
-16.6929816239
 10
-11.0815186789
 20
-16.7634368711
 10
-11.0579061522
 20
-16.8327439812
 10
-11.0294899157
 20
-16.8998028933
 10
-10.9963946449
 20
-16.9642469207
 10
-10.9584956644
 20
-17.0264427503
 10
-10.9157929742
 20
-17.086390382
  0
LWPOLYLINE
  5
2A2
100
AcDbEntity
  8
RACCORDO
100
AcDbPolyline
 62
7
  6
CONTINUOUS
 90
10
 70
0
 10
-11.1238174026
 20
-16.4758271192
 10
-11.1211741205
 20
-16.5488572778
 10
-11.1132746026
 20
-16.6209938743
 10
-11.1001188487
 20
-16.6922369087
 10
-11.0815220589
 20
-16.7631248966
 10
-11.0576690331
 20
-16.8331193224
 10
-11.0291141717
 20
-16.9006046386
 10
-10.9960422748
 20
-16.9650423294
 10
-10.9582685423
 20
-17.0269709105
 10
-10.9157929742
 20
-17.086390382
  0
LINE
  5
2A3
100
AcDbEntity
  8
ASSI
100
AcDbLine
 62
7
  6
CONTINUOUS
 10
-11.15
 20
-21.8997711479
 11
-11.15
 21
21.8997711479
  0
LINE
  5
2A4
100
AcDbEntity
  8
RACCORDO
100
AcDbLine
 62
7
  6
CONTINUOUS
 10
-11.15
 20
-21.8997711479
 11
-11.15
 21
21.8997711479
  0
LINE
  5
2A5
100
AcDbEntity
  8
ASSI
100
AcDbLine
 62
7
  6
CONTINUOUS
 10
-11.1238174026
 20
16.4758271192
 11
-11.1238174026
 21
-16.4758271192
  0
LINE
  5
2A6
100
AcDbEntity
  8
RACCORDO
100
AcDbLine
 62
7
  6
CONTINUOUS
 10
-11.1238174026
 20
16.4758271192
 11
-11.1238174026
 21
-16.4758271192
  0
LWPOLYLINE
  5
2A7
100
AcDbEntity
  8
RACCORDO
100
AcDbPolyline
 62
7
  6
CONTINUOUS
 90
10
 70
0
 10
-11.15
 20
16.4632818593
 10
-11.147364732
 20
16.5362047833
 10
-11.1394879283
 20
16.6082388542
 10
-11.126369589
 20
16.6793840721
 10
-11.1078254924
 20
16.750177648
 10
-11.0840398601
 20
16.8200823708
 10
-11.0555653571
 20
16.8874866073
 10
-11.0225862052
 20
16.9518531464
 10
-10.9849181826
 20
17.0137191992
 10
-10.9425612894
 20
17.0730847657
  0
LWPOLYLINE
  5
2A8
100
AcDbEntity
  8
ASSI
100
AcDbPolyline
 62
7
  6
CONTINUOUS
 90
10
 70
0
 10
-11.15
 20
16.4632818593
 10
-11.1472315354
 20
16.5367057604
 10
-11.1393000321
 20
16.6089865188
 10
-11.1262054901
 20
16.6801241343
 10
-11.1078239514
 20
16.7504837575
 10
-11.0842793739
 20
16.8197002379
 10
-11.0559436316
 20
16.886678124
 10
-11.0229406824
 20
16.9510522655
 10
-10.9851465683
 20
17.0131878127
 10
-10.9425612894
 20
17.0730847657
  0
LWPOLYLINE
  5
2A9
100
AcDbEntity
  8
0
100
AcDbPolyline
 62
7
  6
CONTINUOUS
 90
19
 70
0
 10
-10.0000000157
 20
16.4751781371
 10
-9.9962227986
 20
16.5619561242
 10
-9.984903741
 20
16.6482338852
 10
-9.9660869593
 20
16.7333533481
 10
-9.9398962838
 20
16.8165983674
 10
-9.9064799269
 20
16.8973864467
 10
-9.865957917
 20
16.9752523306
 10
-9.8183213563
 20
17.0498929473
 10
-9.7640396925
 20
17.1202964989
 10
-9.7042144825
 20
17.1851093991
 10
-9.6398602416
 20
17.2436081178
 10
-9.5712378994
 20
17.2958950378
 10
-9.4984783861
 20
17.3420041963
 10
-9.4221766119
 20
17.3816056525
 10
-9.342878917
 20
17.4144597416
 10
-9.2605210145
 20
17.4405328538
 10
-9.1754496011
 20
17.459534003
 10
-9.0884941783
 20
17.4711005996
 10
-9.0003045923
 20
17.475
  0
LWPOLYLINE
  5
2AA
100
AcDbEntity
  8
0
100
AcDbPolyline
 62
7
  6
CONTINUOUS
 90
19
 70
0
 10
-10.030485215
 20
16.5129308084
 10
-10.0258493561
 20
16.600461835
 10
-10.0140504563
 20
16.6859853583
 10
-9.9950885154
 20
16.7695013783
 10
-9.9687123654
 20
16.8515903378
 10
-9.9351731744
 20
16.931671794
 10
-9.8952244466
 20
17.0080044183
 10
-9.8487297189
 20
17.080507132
 10
-9.7958254545
 20
17.1492610138
 10
-9.7376745464
 20
17.2127679707
 10
-9.6741652151
 20
17.2709162331
 10
-9.6054092402
 20
17.3238175705
 10
-9.5329048537
 20
17.3703091991
 10
-9.4565710321
 20
17.4102549756
 10
-9.376488799
 20
17.4437910432
 10
-9.2943994567
 20
17.4701630485
 10
-9.2108834395
 20
17.4891195402
 10
-9.1253603131
 20
17.5009119695
 10
-9.0378300776
 20
17.5055403364
  0
LWPOLYLINE
  5
2AB
100
AcDbEntity
  8
0
100
AcDbPolyline
 62
250
  6
CONTINUOUS
 90
16
 70
0
 10
-9.7702960922
 20
16.1309687577
 10
-9.7686401806
 20
16.1493389373
 10
-9.7643153599
 20
16.1675016941
 10
-9.7573721834
 20
16.1852623035
 10
-9.7478957864
 20
16.2024191031
 10
-9.7359880599
 20
16.2188017934
 10
-9.7217517063
 20
16.2342681939
 10
-9.7053072372
 20
16.2486724711
 10
-9.6868412026
 20
16.2618276718
 10
-9.6665911076
 20
16.2735496288
 10
-9.6448127657
 20
16.2836972867
 10
-9.6217155854
 20
16.2921878369
 10
-9.5974952752
 20
16.2989471747
 10
-9.572389547
 20
16.3038977838
 10
-9.5466845228
 20
16.3069723982
 10
-9.5206570591
 20
16.3081293641
  0
LWPOLYLINE
  5
2AC
100
AcDbEntity
  8
0
100
AcDbPolyline
 62
7
  6
CONTINUOUS
 90
3
 70
0
 10
-8.1999679282
 20
-8.0217708401
 10
-8.1933352551
 20
-8.0286868217
 10
-8.1741282665
 20
-8.0355117517
  0
LINE
  5
2AD
100
AcDbEntity
  8
0
100
AcDbLine
 62
7
  6
CONTINUOUS
 10
-8.200010996
 20
-8.0217709239
 11
-8.2108930979
 21
-8.0000000192
  0
LWPOLYLINE
  5
2AE
100
AcDbEntity
  8
0
100
AcDbPolyline
 62
7
  6
CONTINUOUS
 90
3
 70
0
 10
-8.9295510288
 20
-7.5618770273
 10
-8.9315009423
 20
-7.5251317078
 10
-8.9334064338
 20
-7.4852179704
  0
LINE
  5
2AF
100
AcDbEntity
  8
0
100
AcDbLine
 62
7
  6
CONTINUOUS
 10
-8.9334064338
 20
-7.4852179704
 11
-8.93708561
 21
-7.3960283231
  0
LWPOLYLINE
  5
2B0
100
AcDbEntity
  8
0
100
AcDbPolyline
 62
7
  6
CONTINUOUS
 90
5
 70
0
 10
-8.8421011992
 20
-7.511453791
 10
-8.8385008936
 20
-7.6139401914
 10
-8.8348141032
 20
-7.7046084619
 10
-8.831030846
 20
-7.7838143235
 10
-8.8271511221
 20
-7.8515577764
  0
LWPOLYLINE
  5
2B1
100
AcDbEntity
  8
0
100
AcDbPolyline
 62
7
  6
CONTINUOUS
 90
3
 70
0
 10
-9.1892022283
 20
-7.5366256989
 10
-9.1855968432
 20
-7.643661738
 10
-9.1818770294
 20
-7.7372194889
  0
LINE
  5
2B2
100
AcDbEntity
  8
0
100
AcDbLine
 62
7
  6
CONTINUOUS
 10
-8.93708561
 20
-7.3960283231
 11
-8.9405841802
 21
-7.2946158039
  0
LINE
  5
2B3
100
AcDbEntity
  8
0
100
AcDbLine
 62
7
  6
CONTINUOUS
 10
-8.9405841802
 20
-7.2946158039
 11
-8.9438846354
 21
-7.1813171132
  0
LINE
  5
2B4
100
AcDbEntity
  8
0
100
AcDbLine
 62
7
  6
CONTINUOUS
 10
-8.8489824648
 20
-7.2731609269
 11
-8.8421011992
 21
-7.511453791
  0
LINE
  5
2B5
100
AcDbEntity
  8
0
100
AcDbLine
 62
7
  6
CONTINUOUS
 10
-9.1960810507
 20
-7.2837144914
 11
-9.1892022283
 21
-7.5366256989
  0
LINE
  5
2B6
100
AcDbEntity
  8
0
100
AcDbLine
 62
7
  6
CONTINUOUS
 10
-8.9438846354
 20
-7.1813171132
 11
-8.9484945335
 21
-6.9939504159
  0
LINE
  5
2B7
100
AcDbEntity
  8
0
100
AcDbLine
 62
7
  6
CONTINUOUS
 10
-8.8553559681
 20
-6.9931338853
 11
-8.8489824648
 21
-7.2731609269
  0
LINE
  5
2B8
100
AcDbEntity
  8
0
100
AcDbLine
 62
7
  6
CONTINUOUS
 10
-9.2024794816
 20
-6.9821003744
 11
-9.1960810507
 21
-7.2837144914
  0
LINE
  5
2B9
100
AcDbEntity
  8
0
100
AcDbLine
 62
7
  6
CONTINUOUS
 10
-8.9484945335
 20
-6.9939504159
 11
-8.9568154857
 21
-6.5552648271
  0
LINE
  5
2BA
100
AcDbEntity
  8
0
100
AcDbLine
 62
7
  6
CONTINUOUS
 10
-8.8638050856
 20
-6.5027739215
 11
-8.8553559681
 21
-6.9931338853
  0
LINE
  5
2BB
100
AcDbEntity
  8
0
100
AcDbLine
 62
7
  6
CONTINUOUS
 10
-9.210929785
 20
-6.4477914394
 11
-9.2024794816
 21
-6.9821003744
  0
LINE
  5
2BC
100
AcDbEntity
  8
0
100
AcDbLine
 62
250
  6
CONTINUOUS
 10
-9.770584862
 20
16.130968792
 11
-9.7645749842
 21
15.713572578
  0
LINE
  5
2BD
100
AcDbEntity
  8
0
100
AcDbLine
 62
7
  6
CONTINUOUS
 10
-8.9568154857
 20
-6.5552648271
 11
-8.9659645417
 21
-5.8498414466
  0
LINE
  5
2BE
100
AcDbEntity
  8
0
100
AcDbLine
 62
7
  6
CONTINUOUS
 10
-9.5141829428
 20
15.8024202371
 11
-9.5206570205
 21
16.3080661627
  0
LINE
  5
2BF
100
AcDbEntity
  8
0
100
AcDbLine
 62
7
  6
CONTINUOUS
 10
-8.8726694079
 20
-5.7380167935
 11
-8.8638050856
 21
-6.5027739215
  0
LINE
  5
2C0
100
AcDbEntity
  8
0
100
AcDbLine
 62
7
  6
CONTINUOUS
 10
-9.2196634319
 20
-5.6093963858
 11
-9.210929785
 21
-6.4477914394
  0
LINE
  5
2C1
100
AcDbEntity
  8
0
100
AcDbLine
 62
250
  6
CONTINUOUS
 10
-9.7645749842
 20
15.713572578
 11
-9.758996563
 21
15.0679859656
  0
LINE
  5
2C2
100
AcDbEntity
  8
0
100
AcDbLine
 62
7
  6
CONTINUOUS
 10
-8.9659645417
 20
-5.8498414466
 11
-8.9724486027
 21
-5.0403011438
  0
LINE
  5
2C3
100
AcDbEntity
  8
0
100
AcDbLine
 62
7
  6
CONTINUOUS
 10
-9.5086983061
 20
15.0663831352
 11
-9.5141829428
 21
15.8024202371
  0
LINE
  5
2C4
100
AcDbEntity
  8
0
100
AcDbLine
 62
7
  6
CONTINUOUS
 10
-8.8793146903
 20
-4.6545858309
 11
-8.8726694079
 21
-5.7380167935
  0
LINE
  5
2C5
100
AcDbEntity
  8
0
100
AcDbLine
 62
7
  6
CONTINUOUS
 10
-9.2258818273
 20
-4.4256543863
 11
-9.2196634319
 21
-5.6093963858
  0
LINE
  5
2C6
100
AcDbEntity
  8
0
100
AcDbLine
 62
7
  6
CONTINUOUS
 10
-8.9724486027
 20
-5.0403011438
 11
-8.9795972586
 21
-2.6455355754
  0
LINE
  5
2C7
100
AcDbEntity
  8
0
100
AcDbLine
 62
7
  6
CONTINUOUS
 10
-8.8878973375
 20
-0.9251869761
 11
-8.8793146903
 21
-4.6545858309
  0
LINE
  5
2C8
100
AcDbEntity
  8
0
100
AcDbLine
 62
250
  6
CONTINUOUS
 10
-9.758996563
 20
15.0679859656
 11
-9.7565355123
 21
14.3623715542
  0
LINE
  5
2C9
100
AcDbEntity
  8
0
100
AcDbLine
 62
7
  6
CONTINUOUS
 10
-8.9795972586
 20
-2.6455355754
 11
-8.9893231764
 21
2.6068427118
  0
LINE
  5
2CA
100
AcDbEntity
  8
0
100
AcDbLine
 62
7
  6
CONTINUOUS
 10
-9.2393591414
 20
2.5868163413
 11
-9.2258819305
 21
-4.4256527851
  0
LINE
  5
2CB
100
AcDbEntity
  8
0
100
AcDbLine
 62
7
  6
CONTINUOUS
 10
-9.5086983061
 20
15.0663831352
 11
-9.5064790936
 21
14.1806859851
  0
LINE
  5
2CC
100
AcDbEntity
  8
0
100
AcDbLine
 62
7
  6
CONTINUOUS
 10
-8.8977657118
 20
6.108452083
 11
-8.8878973375
 21
-0.9251869761
  0
LINE
  5
2CD
100
AcDbEntity
  8
0
100
AcDbLine
 62
7
  6
CONTINUOUS
 10
-8.9893231764
 20
2.6068427118
 11
-8.9945621621
 21
7.8795622011
  0
LWPOLYLINE
  5
2CE
100
AcDbEntity
  8
0
100
AcDbPolyline
 62
7
  6
CONTINUOUS
 90
3
 70
0
 10
-9.2456246474
 20
11.4000019061
 10
-9.2453145693
 20
9.63554577
 10
-9.2393591414
 20
2.5868163413
  0
LINE
  5
2CF
100
AcDbEntity
  8
0
100
AcDbLine
 62
7
  6
CONTINUOUS
 10
-10.0304838998
 20
18.0622113267
 11
-10.0304837016
 21
-18.0622282508
  0
LINE
  5
2D0
100
AcDbEntity
  8
0
100
AcDbLine
 62
7
  6
CONTINUOUS
 10
-9.999935791
 20
16.4752210225
 11
-9.999935791
 21
-16.4752115737
  0
LINE
  5
2D1
100
AcDbEntity
  8
ASSI
100
AcDbLine
 62
7
  6
CONTINUOUS
 10
-9.65
 20
20.9
 11
-9.65
 21
18.6500000067
  0
LINE
  5
2D2
100
AcDbEntity
  8
RACCORDO
100
AcDbLine
 62
7
  6
CONTINUOUS
 10
-9.65
 20
20.9
 11
-9.65
 21
18.6500000067
  0
LINE
  5
2D3
100
AcDbEntity
  8
ASSI
100
AcDbLine
 62
7
  6
CONTINUOUS
 10
-9.65
 20
-18.65
 11
-9.65
 21
-20.9
  0
LINE
  5
2D4
100
AcDbEntity
  8
RACCORDO
100
AcDbLine
 62
7
  6
CONTINUOUS
 10
-9.65
 20
-18.65
 11
-9.65
 21
-20.9
  0
LINE
  5
2D5
100
AcDbEntity
  8
ASSI
100
AcDbLine
 62
7
  6
CONTINUOUS
 10
-9.5103594806
 20
20.7603594806
 11
-9.5103594806
 21
18.7896405258
  0
LINE
  5
2D6
100
AcDbEntity
  8
DRAFT
100
AcDbLine
 62
7
  6
CONTINUOUS
 10
-9.5103594806
 20
20.7603594806
 11
-9.5103594806
 21
18.7896405258
  0
LINE
  5
2D7
100
AcDbEntity
  8
ASSI
100
AcDbLine
 62
7
  6
CONTINUOUS
 10
-9.5103594806
 20
-18.7896405194
 11
-9.5103594806
 21
-20.7603594806
  0
LINE
  5
2D8
100
AcDbEntity
  8
DRAFT
100
AcDbLine
 62
7
  6
CONTINUOUS
 10
-9.5103594806
 20
-18.7896405194
 11
-9.5103594806
 21
-20.7603594806
  0
LINE
  5
2D9
100
AcDbEntity
  8
0
100
AcDbLine
 62
250
  6
CONTINUOUS
 10
-9.506529369
 20
14.1806898922
 11
-9.506529369
 21
11.4000000037
  0
LINE
  5
2DA
100
AcDbEntity
  8
0
100
AcDbLine
 62
250
  6
CONTINUOUS
 10
-9.2456440649
 20
11.4000038085
 11
-9.2456634824
 21
14.1806859851
  0
LINE
  5
2DB
100
AcDbEntity
  8
0
100
AcDbLine
 62
7
  6
CONTINUOUS
 10
-8.8977657118
 20
6.108452083
 11
-8.8999881721
 21
12.1252364038
  0
LINE
  5
2DC
100
AcDbEntity
  8
0
100
AcDbLine
 62
250
  6
CONTINUOUS
 10
-9.7565355123
 20
14.3623715542
 11
-9.7566704823
 21
9.6388015547
  0
LINE
  5
2DD
100
AcDbEntity
  8
0
100
AcDbLine
 62
7
  6
CONTINUOUS
 10
-8.9945621621
 20
7.8795622011
 11
-8.9954781267
 21
14.3718659499
  0
LINE
  5
2DE
100
AcDbEntity
  8
0
100
AcDbLine
 62
250
  6
CONTINUOUS
 10
-9.7566704823
 20
9.6388015547
 11
-9.7603615396
 21
4.3628817456
  0
LINE
  5
2DF
100
AcDbEntity
  8
0
100
AcDbLine
 62
7
  6
CONTINUOUS
 10
-9.5105974962
 20
4.3467230963
 11
-9.5065797939
 21
11.4000000036
  0
LINE
  5
2E0
100
AcDbEntity
  8
0
100
AcDbLine
 62
250
  6
CONTINUOUS
 10
-9.7603615396
 20
4.3628817456
 11
-9.7684835417
 21
-0.8971982031
  0
LINE
  5
2E1
100
AcDbEntity
  8
0
100
AcDbLine
 62
7
  6
CONTINUOUS
 10
-9.5221743201
 20
-2.6775179381
 11
-9.5105974962
 21
4.3467230963
  0
LINE
  5
2E2
100
AcDbEntity
  8
0
100
AcDbLine
 62
250
  6
CONTINUOUS
 10
-9.7684835417
 20
-0.8971982031
 11
-9.7763527467
 21
-4.3897039094
  0
LINE
  5
2E3
100
AcDbEntity
  8
0
100
AcDbLine
 62
250
  6
CONTINUOUS
 10
-9.93510981
 20
-7.9318936476
 11
-9.9357707791
 21
-15.2504473658
  0
LINE
  5
2E4
100
AcDbEntity
  8
0
100
AcDbLine
 62
7
  6
CONTINUOUS
 10
-8.8936439382
 20
14.9771008618
 11
-8.8933322959
 21
15.2093458607
  0
LINE
  5
2E5
100
AcDbEntity
  8
0
100
AcDbLine
 62
7
  6
CONTINUOUS
 10
-8.8974758771
 20
13.6048817935
 11
-8.8999885751
 21
12.1252364038
  0
LINE
  5
2E6
100
AcDbEntity
  8
0
100
AcDbLine
 62
250
  6
CONTINUOUS
 10
-8.9371995685
 20
-15.8585270072
 11
-8.9352669428
 21
-8.1475087336
  0
LINE
  5
2E7
100
AcDbEntity
  8
0
100
AcDbLine
 62
7
  6
CONTINUOUS
 10
-9.2433543744
 20
15.1152058706
 11
-9.2456635688
 21
14.180682078
  0
LINE
  5
2E8
100
AcDbEntity
  8
0
100
AcDbLine
 62
7
  6
CONTINUOUS
 10
-8.8957009663
 20
13.9637401722
 11
-8.8974758771
 21
13.6048817935
  0
LINE
  5
2E9
100
AcDbEntity
  8
0
100
AcDbLine
 62
7
  6
CONTINUOUS
 10
-8.9954781267
 20
14.3718659499
 11
-8.9927677599
 21
15.1181541348
  0
LINE
  5
2EA
100
AcDbEntity
  8
0
100
AcDbLine
 62
7
  6
CONTINUOUS
 10
-9.5305703919
 20
-5.3822405525
 11
-9.5221743201
 21
-2.6775179381
  0
LINE
  5
2EB
100
AcDbEntity
  8
0
100
AcDbLine
 62
7
  6
CONTINUOUS
 10
-9.7763527467
 20
-4.3897039094
 11
-9.7805934757
 21
-5.2902955745
  0
LINE
  5
2EC
100
AcDbEntity
  8
0
100
AcDbLine
 62
250
  6
CONTINUOUS
 10
-9.9357707791
 20
-15.2504473658
 11
-9.9376493547
 21
-15.5606055085
  0
LINE
  5
2ED
100
AcDbEntity
  8
0
100
AcDbLine
 62
7
  6
CONTINUOUS
 10
-8.8933322959
 20
15.2093458607
 11
-8.8923696074
 21
15.3600095642
  0
LINE
  5
2EE
100
AcDbEntity
  8
0
100
AcDbLine
 62
250
  6
CONTINUOUS
 10
-8.9415655198
 20
-16.5422946261
 11
-8.9371995685
 21
-15.8585270072
  0
LINE
  5
2EF
100
AcDbEntity
  8
0
100
AcDbLine
 62
7
  6
CONTINUOUS
 10
-9.2380847869
 20
15.7999943839
 11
-9.2433543744
 21
15.1152058706
  0
LWPOLYLINE
  5
2F0
100
AcDbEntity
  8
0
100
AcDbPolyline
 62
7
  6
CONTINUOUS
 90
3
 70
0
 10
-8.9927677599
 20
15.1181541348
 10
-8.9885651761
 20
15.633517137
 10
-8.9867646515
 20
15.792333221
  0
LINE
  5
2F1
100
AcDbEntity
  8
0
100
AcDbLine
 62
7
  6
CONTINUOUS
 10
-9.5384596568
 20
-6.2506017861
 11
-9.5305703919
 21
-5.3822405525
  0
LINE
  5
2F2
100
AcDbEntity
  8
0
100
AcDbLine
 62
7
  6
CONTINUOUS
 10
-9.7805934757
 20
-5.2902955745
 11
-9.7884149033
 21
-6.1075925443
  0
LINE
  5
2F3
100
AcDbEntity
  8
0
100
AcDbLine
 62
250
  6
CONTINUOUS
 10
-8.9451997872
 20
-16.8763074254
 11
-8.9415655198
 21
-16.5422946261
  0
LINE
  5
2F4
100
AcDbEntity
  8
0
100
AcDbLine
 62
250
  6
CONTINUOUS
 10
-9.9376493547
 20
-15.5606055085
 11
-9.9406558017
 21
-15.8393824213
  0
LINE
  5
2F5
100
AcDbEntity
  8
0
100
AcDbLine
 62
7
  6
CONTINUOUS
 10
-8.8923696074
 20
15.3600095642
 11
-8.8908234758
 21
15.4937866563
  0
LINE
  5
2F6
100
AcDbEntity
  8
0
100
AcDbLine
 62
7
  6
CONTINUOUS
 10
-9.5464405629
 20
-6.8145964832
 11
-9.5384596568
 21
-6.2506017861
  0
LINE
  5
2F7
100
AcDbEntity
  8
0
100
AcDbLine
 62
250
  6
CONTINUOUS
 10
-8.9479631291
 20
-17.0592533295
 11
-8.9451997872
 21
-16.8763074254
  0
LINE
  5
2F8
100
AcDbEntity
  8
0
100
AcDbLine
 62
7
  6
CONTINUOUS
 10
-9.7884149033
 20
-6.1075925443
 11
-9.7963621142
 21
-6.6377512231
  0
LINE
  5
2F9
100
AcDbEntity
  8
0
100
AcDbLine
 62
250
  6
CONTINUOUS
 10
-9.9406558017
 20
-15.8393824213
 11
-9.9432212713
 21
-16.0016150934
  0
LWPOLYLINE
  5
2FA
100
AcDbEntity
  8
0
100
AcDbPolyline
 62
7
  6
CONTINUOUS
 90
3
 70
0
 10
-8.8908234758
 20
15.4937866563
 10
-8.8895153199
 20
15.5695421458
 10
-8.8887780215
 20
15.6033911191
  0
LINE
  5
2FB
100
AcDbEntity
  8
0
100
AcDbLine
 62
7
  6
CONTINUOUS
 10
-9.552602456
 20
-7.1389442013
 11
-9.5464405629
 21
-6.8145964832
  0
LINE
  5
2FC
100
AcDbEntity
  8
0
100
AcDbLine
 62
7
  6
CONTINUOUS
 10
-9.7963621142
 20
-6.6377512231
 11
-9.8025107143
 21
-6.94222365
  0
LWPOLYLINE
  5
2FD
100
AcDbEntity
  8
0
100
AcDbPolyline
 62
250
  6
CONTINUOUS
 90
10
 70
0
 10
-9.9432212713
 20
-16.0016150934
 10
-9.9461621003
 20
-16.1404581948
 10
-9.9477654844
 20
-16.200629789
 10
-9.9494330953
 20
-16.2537147104
 10
-9.9511617376
 20
-16.2995971232
 10
-9.9529546067
 20
-16.3383928631
 10
-9.9547972006
 20
-16.3694969526
 10
-9.956684685
 20
-16.3927077325
 10
-9.9586218942
 20
-16.4082268621
 10
-9.9606088281
 20
-16.4160543412
  0
LWPOLYLINE
  5
2FE
100
AcDbEntity
  8
0
100
AcDbPolyline
 62
7
  6
CONTINUOUS
 90
11
 70
0
 10
-9.8025107143
 20
-6.94222365
 10
-9.8092573814
 20
-7.2033427848
 10
-9.8128170475
 20
-7.3159633213
 10
-9.816500108
 20
-7.4167032714
 10
-9.8202685365
 20
-7.5044925506
 10
-9.8241232444
 20
-7.579203484
 10
-9.8280633202
 20
-7.6409637466
 10
-9.8320480023
 20
-7.6890862788
 10
-9.8360637035
 20
-7.7233420607
 10
-9.840124011
 20
-7.7439601122
 10
-9.8442289248
 20
-7.7509404333
  0
LWPOLYLINE
  5
2FF
100
AcDbEntity
  8
0
100
AcDbPolyline
 62
7
  6
CONTINUOUS
 90
31
 70
0
 10
-8.9293105281
 20
-7.5618987779
 10
-8.9298225587
 20
-7.5731036864
 10
-8.9307584703
 20
-7.5841826534
 10
-8.9321182631
 20
-7.5951356788
 10
-8.9338660562
 20
-7.6059836321
 10
-8.9360377304
 20
-7.6167056439
 10
-8.9387409277
 20
-7.6272391063
 10
-8.9420079439
 20
-7.6376019147
 10
-8.9458064832
 20
-7.6477761736
 10
-8.9501473
 20
-7.6576455895
 10
-8.9550241262
 20
-7.6671945352
 10
-8.9604432299
 20
-7.6764386378
 10
-8.9664341703
 20
-7.6853084844
 10
-8.9729894553
 20
-7.6938102725
 10
-8.9801165771
 20
-7.7019378045
 10
-8.9878675716
 20
-7.7096030757
 10
-8.9962420124
 20
-7.7168236472
 10
-9.005240326
 20
-7.7235819577
 10
-9.0149158283
 20
-7.7297373194
 10
-9.0252923306
 20
-7.7353097514
 10
-9.0363460215
 20
-7.7402792344
 10
-9.0480587834
 20
-7.7444450225
 10
-9.060433085
 20
-7.7478096751
 10
-9.0734664575
 20
-7.7503706327
 10
-9.0871333766
 20
-7.7519194714
 10
-9.1014440208
 20
-7.7524697
 10
-9.1163882116
 20
-7.7520078097
 10
-9.1319098886
 20
-7.7502848499
 10
-9.147990365
 20
-7.7472178371
 10
-9.1646483277
 20
-7.7428897548
 10
-9.1818837765
 20
-7.737300603
  0
LWPOLYLINE
  5
300
100
AcDbEntity
  8
0
100
AcDbPolyline
 62
7
  6
CONTINUOUS
 90
13
 70
0
 10
-6.7999999638
 20
15.6759497751
 10
-6.7984964563
 20
15.6837069118
 10
-6.7948115443
 20
15.6919660655
 10
-6.7898085422
 20
15.6976356151
 10
-6.7834840308
 20
15.7031537537
 10
-6.7751724866
 20
15.7086464867
 10
-6.7647566784
 20
15.7135106384
 10
-6.7532532212
 20
15.7175091279
 10
-6.7413642077
 20
15.7207881239
 10
-6.7295265609
 20
15.7233772969
 10
-6.7182063079
 20
15.7252662158
 10
-6.7079895453
 20
15.7264471221
 10
-6.6992556347
 20
15.7269528167
  0
LINE
  5
301
100
AcDbEntity
  8
ASSI
100
AcDbLine
 62
7
  6
CONTINUOUS
 10
6.7330351795
 20
18.85
 11
6.8330351795
 21
18.95
  0
LINE
  5
302
100
AcDbEntity
  8
0
100
AcDbLine
 62
7
  6
CONTINUOUS
 10
6.7330351795
 20
18.85
 11
6.8330351795
 21
18.95
  0
LWPOLYLINE
  5
303
100
AcDbEntity
  8
0
100
AcDbPolyline
 62
7
  6
CONTINUOUS
 90
11
 70
0
 10
8.1741008188
 20
-8.0355051405
 10
8.1423238646
 20
-8.0422365889
 10
8.0977112147
 20
-8.0489065112
 10
8.0405160503
 20
-8.0554871982
 10
7.9714979149
 20
-8.0618955224
 10
7.8905136279
 20
-8.0681292872
 10
7.79770637
 20
-8.0741906891
 10
7.6942652272
 20
-8.0800031902
 10
7.5800581293
 20
-8.0855636599
 10
7.4552171466
 20
-8.0908752289
 10
7.3213275754
 20
-8.0958707515
  0
LWPOLYLINE
  5
304
100
AcDbEntity
  8
0
100
AcDbPolyline
 62
7
  6
CONTINUOUS
 90
12
 70
0
 10
-8.1741282665
 20
-8.0355117517
 10
-8.1423469622
 20
-8.0422456302
 10
-8.0977360804
 20
-8.0489158832
 10
-8.040550883
 20
-8.0554950846
 10
-7.9715571555
 20
-8.0619009568
 10
-7.8906129236
 20
-8.0681312587
 10
-7.7978601616
 20
-8.0741882313
 10
-7.6944905782
 20
-8.0799963199
 10
-7.5803766012
 20
-8.0855524869
 10
-7.4556458027
 20
-8.0908597699
 10
-7.321872608
 20
-8.0958517271
 10
-7.0269801834
 20
-8.1048820306
  0
LWPOLYLINE
  5
305
100
AcDbEntity
  8
0
100
AcDbPolyline
 62
7
  6
CONTINUOUS
 90
7
 70
0
 10
-8.2108931246
 20
-8.0
 10
-8.2124767625
 20
-7.9996085103
 10
-8.2137248285
 20
-7.9984507224
 10
-8.2146372966
 20
-7.9965515919
 10
-8.2152231648
 20
-7.9939358002
 10
-8.215473435
 20
-7.990628061
 10
-8.2154740987
 20
-7.9891476266
  0
LWPOLYLINE
  5
306
100
AcDbEntity
  8
0
100
AcDbPolyline
 62
7
  6
CONTINUOUS
 90
10
 70
0
 10
-8.8271633925
 20
-7.8516314932
 10
-8.8668332252
 20
-7.8405609477
 10
-8.9064405344
 20
-7.8290816677
 10
-8.9459853202
 20
-7.8171936534
 10
-8.9854697036
 20
-7.8048962211
 10
-9.0248915635
 20
-7.7921900544
 10
-9.064244537
 20
-7.7790772041
 10
-9.1035265032
 20
-7.7655583539
 10
-9.142739583
 20
-7.7516328202
 10
-9.1818837765
 20
-7.737300603
  0
LINE
  5
307
100
AcDbEntity
  8
ASSI
100
AcDbLine
 62
7
  6
CONTINUOUS
 10
6.8330351795
 20
-18.95
 11
6.7330351795
 21
-18.85
  0
LINE
  5
308
100
AcDbEntity
  8
0
100
AcDbLine
 62
7
  6
CONTINUOUS
 10
6.8330351795
 20
-18.95
 11
6.7330351795
 21
-18.85
  0
LWPOLYLINE
  5
309
100
AcDbEntity
  8
0
100
AcDbPolyline
 62
250
  6
CONTINUOUS
 90
34
 70
0
 10
-2.3732786557
 20
-14.9165339879
 10
-2.3243622131
 20
-15.0131744974
 10
-2.2621046597
 20
-15.1126208119
 10
-2.1865059957
 20
-15.2146941206
 10
-2.0985202847
 20
-15.3203490322
 10
-1.997193463
 20
-15.4281651652
 10
-1.8796633394
 20
-15.5344395588
 10
-1.7431686878
 20
-15.6404740999
 10
-1.5904707343
 20
-15.7445626748
 10
-1.4269909657
 20
-15.8389168401
 10
-1.2503110196
 20
-15.9227541608
 10
-1.0628492584
 20
-15.9973603379
 10
-0.8772822558
 20
-16.0586373379
 10
-0.699036207
 20
-16.1049776112
 10
-0.5226849169
 20
-16.1388698336
 10
-0.3446263736
 20
-16.1624308094
 10
-0.1629422163
 20
-16.1765287223
 10
0.0204491943
 20
-16.1805836422
 10
0.2033947872
 20
-16.1743842225
 10
0.3844306983
 20
-16.1583321659
 10
0.5650207917
 20
-16.1318464768
 10
0.747403589
 20
-16.0930883147
 10
0.9349643302
 20
-16.0407377201
 10
1.1243177753
 20
-15.9753440897
 10
1.3075467256
 20
-15.8977895632
 10
1.4857671108
 20
-15.8051011144
 10
1.6578630012
 20
-15.6993570609
 10
1.8125694097
 20
-15.5895382952
 10
1.9453839374
 20
-15.4773769205
 10
2.0608089831
 20
-15.3614610646
 10
2.1610867565
 20
-15.2466647058
 10
2.2469646609
 20
-15.1348524508
 10
2.3176952931
 20
-15.0247311611
 10
2.3732786529
 20
-14.9165339935
  0
LINE
  5
30A
100
AcDbEntity
  8
ASSI
100
AcDbLine
 62
7
  6
CONTINUOUS
 10
-7.2084845302
 20
-19.8
 11
-7.2180848159
 21
-19.25
  0
LINE
  5
30B
100
AcDbEntity
  8
RACCORDO
100
AcDbLine
 62
7
  6
CONTINUOUS
 10
-7.2084845302
 20
-19.8
 11
-7.2180848159
 21
-19.25
  0
LINE
  5
30C
100
AcDbEntity
  8
0
100
AcDbLine
 62
7
  6
CONTINUOUS
 10
-8.2000098254
 20
-7.9728121978
 11
-8.200010996
 21
-8.0217709239
  0
LINE
  5
30D
100
AcDbEntity
  8
0
100
AcDbLine
 62
7
  6
CONTINUOUS
 10
-7.925
 20
6.860254706
 11
-7.925
 21
10.1318587994
  0
LINE
  5
30E
100
AcDbEntity
  8
ASSI
100
AcDbLine
 62
7
  6
CONTINUOUS
 10
-7.5226756989
 20
-20.7603594806
 11
-7.5226756989
 21
-19.7279478839
  0
LINE
  5
30F
100
AcDbEntity
  8
RACCORDO
100
AcDbLine
 62
7
  6
CONTINUOUS
 10
-7.5226756989
 20
-20.7603594806
 11
-7.5226756989
 21
-19.7279478839
  0
LINE
  5
310
100
AcDbEntity
  8
ASSI
100
AcDbLine
 62
7
  6
CONTINUOUS
 10
-7.5226756989
 20
19.7279268575
 11
-7.5226756989
 21
20.7603594806
  0
LINE
  5
311
100
AcDbEntity
  8
DRAFT
100
AcDbLine
 62
7
  6
CONTINUOUS
 10
-7.5226756989
 20
19.7279268575
 11
-7.5226756989
 21
20.7603594806
  0
LINE
  5
312
100
AcDbEntity
  8
0
100
AcDbLine
 62
7
  6
CONTINUOUS
 10
-7.4
 20
-19.4006852326
 11
-7.4
 21
-18.9
  0
LINE
  5
313
100
AcDbEntity
  8
0
100
AcDbLine
 62
7
  6
CONTINUOUS
 10
-7.3999999975
 20
18.9
 11
-7.3999999975
 21
19.4007065797
  0
LINE
  5
314
100
AcDbEntity
  8
0
100
AcDbLine
 62
7
  6
CONTINUOUS
 10
-7.2465977891
 20
9.5478052248
 11
-7.2465977891
 21
7.5194801825
  0
LINE
  5
315
100
AcDbEntity
  8
ASSI
100
AcDbLine
 62
7
  6
CONTINUOUS
 10
-7.2084845302
 20
20.1483339502
 11
-7.2084845302
 21
19.8
  0
LINE
  5
316
100
AcDbEntity
  8
DRAFT
100
AcDbLine
 62
7
  6
CONTINUOUS
 10
-7.2084845302
 20
20.1483339502
 11
-7.2084845302
 21
19.8
  0
LINE
  5
317
100
AcDbEntity
  8
ASSI
100
AcDbLine
 62
7
  6
CONTINUOUS
 10
-7.2084845302
 20
-19.8
 11
-7.2084845302
 21
-20.1483339502
  0
LINE
  5
318
100
AcDbEntity
  8
DRAFT
100
AcDbLine
 62
7
  6
CONTINUOUS
 10
-7.2084845302
 20
-19.8
 11
-7.2084845302
 21
-20.1483339502
  0
LINE
  5
319
100
AcDbEntity
  8
0
100
AcDbLine
 62
7
  6
CONTINUOUS
 10
-7.0140535118
 20
13.963740626
 11
-7.0140516176
 21
13.635947676
  0
LINE
  5
31A
100
AcDbEntity
  8
0
100
AcDbLine
 62
7
  6
CONTINUOUS
 10
-6.9674395314
 20
7.7491397483
 11
-6.9674395314
 21
8.4385360929
  0
LINE
  5
31B
100
AcDbEntity
  8
0
100
AcDbLine
 62
7
  6
CONTINUOUS
 10
-6.9674395314
 20
8.6684739851
 11
-6.9674395314
 21
9.2819830565
  0
LINE
  5
31C
100
AcDbEntity
  8
0
100
AcDbLine
 62
7
  6
CONTINUOUS
 10
-6.8
 20
15.6759497752
 11
-6.8
 21
14.6989202192
  0
LINE
  5
31D
100
AcDbEntity
  8
0
100
AcDbLine
 62
7
  6
CONTINUOUS
 10
-6.7950342742
 20
13.6500003588
 11
-6.7950409283
 21
14.2000000019
  0
LINE
  5
31E
100
AcDbEntity
  8
0
100
AcDbLine
 62
7
  6
CONTINUOUS
 10
-7.0116733032
 20
15.2093492301
 11
-7.0119850066
 21
14.9771008657
  0
LINE
  5
31F
100
AcDbEntity
  8
0
100
AcDbLine
 62
7
  6
CONTINUOUS
 10
-7.0157476448
 20
13.6342235118
 11
-7.0140535118
 21
13.963740626
  0
LWPOLYLINE
  5
320
100
AcDbEntity
  8
0
100
AcDbPolyline
 62
7
  6
CONTINUOUS
 90
3
 70
0
 10
-7.0071183489
 20
15.6033911249
 10
-7.007792819
 20
15.5374081076
 10
-7.0119850066
 20
14.9771008657
  0
LINE
  5
321
100
AcDbEntity
  8
0
100
AcDbLine
 62
7
  6
CONTINUOUS
 10
-7.0091641578
 20
15.493783756
 11
-7.0107104875
 21
15.3600089655
  0
LINE
  5
322
100
AcDbEntity
  8
ASSI
100
AcDbLine
 62
7
  6
CONTINUOUS
 10
-7.2233213354
 20
18.95
 11
-7.2084845302
 21
19.8
  0
LINE
  5
323
100
AcDbEntity
  8
DRAFT
100
AcDbLine
 62
7
  6
CONTINUOUS
 10
-7.2233213354
 20
18.95
 11
-7.2084845302
 21
19.8
  0
LWPOLYLINE
  5
324
100
AcDbEntity
  8
0
100
AcDbPolyline
 62
7
  6
CONTINUOUS
 90
3
 70
0
 10
-7.0071183489
 20
15.6033911249
 10
-7.0078557829
 20
15.5695406043
 10
-7.0091641578
 20
15.493783756
  0
LWPOLYLINE
  5
325
100
AcDbEntity
  8
0
100
AcDbPolyline
 62
7
  6
CONTINUOUS
 90
22
 70
0
 10
-7.7499999805
 20
-1.8485399904
 10
-7.7467341196
 20
-1.7421577815
 10
-7.7337592504
 20
-1.6120461584
 10
-7.7107405844
 20
-1.4821749153
 10
-7.677230833
 20
-1.3522217621
 10
-7.633338942
 20
-1.2241674184
 10
-7.5805501263
 20
-1.101933767
 10
-7.5208124015
 20
-0.9880429762
 10
-7.4540618531
 20
-0.8807174897
 10
-7.3788599067
 20
-0.7774534173
 10
-7.2945836413
 20
-0.6780988699
 10
-7.2021372425
 20
-0.5843681867
 10
-7.1017936398
 20
-0.4969785551
 10
-6.9932549827
 20
-0.4162031402
 10
-6.8775804854
 20
-0.3433341232
 10
-6.7574807032
 20
-0.2801328773
 10
-6.6343639551
 20
-0.2269892156
 10
-6.5085207268
 20
-0.1836867907
 10
-6.3813177454
 20
-0.1503810098
 10
-6.25375593
 20
-0.1269388568
 10
-6.1264187379
 20
-0.1130808323
 10
-6.000027266
 20
-0.1085307881
  0
LWPOLYLINE
  5
326
100
AcDbEntity
  8
0
100
AcDbPolyline
 62
7
  6
CONTINUOUS
 90
5
 70
0
 10
-8.2154740987
 20
-7.9891476266
 10
-8.2153611136
 20
-7.9866534161
 10
-8.2148772027
 20
-7.9820366447
 10
-8.2140307001
 20
-7.9768019414
 10
-8.2128216058
 20
-7.9709734419
  0
LWPOLYLINE
  5
327
100
AcDbEntity
  8
0
100
AcDbPolyline
 62
7
  6
CONTINUOUS
 90
13
 70
0
 10
-6.7999999725
 20
15.6759497752
 10
-6.7991720893
 20
15.6888573683
 10
-6.796669942
 20
15.7016004375
 10
-6.7925161255
 20
15.7139599355
 10
-6.7867580057
 20
15.7257261738
 10
-6.779478531
 20
15.7366802376
 10
-6.7708049966
 20
15.7466041459
 10
-6.7608637205
 20
15.7553323064
 10
-6.749834742
 20
15.7626868263
 10
-6.7379885083
 20
15.7684951515
 10
-6.7255708025
 20
15.7726706008
 10
-6.7127768518
 20
15.7751801065
 10
-6.6998288236
 20
15.7760051716
  0
LINE
  5
328
100
AcDbEntity
  8
ASSI
100
AcDbLine
 62
7
  6
CONTINUOUS
 10
9.5103594806
 20
20.7603594806
 11
9.65
 21
20.9
  0
LINE
  5
329
100
AcDbEntity
  8
DRAFT
100
AcDbLine
 62
7
  6
CONTINUOUS
 10
9.5103594806
 20
20.7603594806
 11
9.65
 21
20.9
  0
LINE
  5
32A
100
AcDbEntity
  8
0
100
AcDbLine
 62
7
  6
CONTINUOUS
 10
9.0380304308
 20
17.5055481091
 11
9.0003024346
 21
17.475
  0
LWPOLYLINE
  5
32B
100
AcDbEntity
  8
0
100
AcDbPolyline
 62
7
  6
CONTINUOUS
 90
3
 70
0
 10
2.2689554186
 20
-7.94830819
 10
2.2745585073
 20
-7.9467636151
 10
2.3012965088
 20
-7.938752506
  0
LWPOLYLINE
  5
32C
100
AcDbEntity
  8
0
100
AcDbPolyline
 62
7
  6
CONTINUOUS
 90
6
 70
0
 10
2.1201927524
 20
-7.9875846478
 10
2.1256465148
 20
-7.9861195721
 10
2.1528945629
 20
-7.9781811416
 10
2.1833507153
 20
-7.9683907512
 10
2.2170396979
 20
-7.9567176261
 10
2.2539367847
 20
-7.9431310889
  0
LINE
  5
32D
100
AcDbEntity
  8
0
100
AcDbLine
 62
7
  6
CONTINUOUS
 10
2.2648907089
 20
-7.9493950825
 11
2.3272106364
 21
-7.9325439306
  0
LINE
  5
32E
100
AcDbEntity
  8
0
100
AcDbLine
 62
7
  6
CONTINUOUS
 10
1.7733516803
 20
-8.0543089486
 11
1.7722409338
 21
-8.0545937416
  0
LINE
  5
32F
100
AcDbEntity
  8
0
100
AcDbLine
 62
7
  6
CONTINUOUS
 10
1.7957954785
 20
-8.0486616755
 11
1.7733516803
 21
-8.0543089486
  0
LWPOLYLINE
  5
330
100
AcDbEntity
  8
0
100
AcDbPolyline
 62
7
  6
CONTINUOUS
 90
7
 70
0
 10
1.9758056306
 20
-8.0117729918
 10
1.9428163348
 20
-8.0177399141
 10
1.9111053613
 20
-8.0237618484
 10
1.8806834517
 20
-8.0298366498
 10
1.8515828317
 20
-8.0359578833
 10
1.8238142429
 20
-8.042123404
 10
1.7960167425
 20
-8.048662336
  0
LWPOLYLINE
  5
331
100
AcDbEntity
  8
0
100
AcDbPolyline
 62
7
  6
CONTINUOUS
 90
3
 70
0
 10
2.0456514141
 20
-7.9999977485
 10
2.0100839903
 20
-8.0058589366
 10
1.9758056306
 20
-8.0117729918
  0
LWPOLYLINE
  5
332
100
AcDbEntity
  8
0
100
AcDbPolyline
 62
7
  6
CONTINUOUS
 90
4
 70
0
 10
-1.7313551361
 20
-8.0836585901
 10
-1.7166684703
 20
-8.0827056208
 10
-1.6994648428
 20
-8.0818181953
 10
-1.6796531342
 20
-8.0809987761
  0
LWPOLYLINE
  5
333
100
AcDbEntity
  8
0
100
AcDbPolyline
 62
7
  6
CONTINUOUS
 90
5
 70
0
 10
2.0457610589
 20
-8.0
 10
2.0613452265
 20
-7.9991488605
 10
2.0798718466
 20
-7.9965727123
 10
2.1013357055
 20
-7.9922397518
 10
2.1201927524
 20
-7.9875846478
  0
LINE
  5
334
100
AcDbEntity
  8
0
100
AcDbLine
 62
7
  6
CONTINUOUS
 10
-9.6737469303
 20
-8.1588833965
 11
-9.6249056022
 21
-8.1571438104
  0
LWPOLYLINE
  5
335
100
AcDbEntity
  8
0
100
AcDbPolyline
 62
7
  6
CONTINUOUS
 90
4
 70
0
 10
-1.6796531342
 20
-8.0809987761
 10
-1.6573244639
 20
-8.0802449007
 10
-1.6331905139
 20
-8.0795809267
 10
-1.6071775191
 20
-8.0790100708
  0
LWPOLYLINE
  5
336
100
AcDbEntity
  8
0
100
AcDbPolyline
 62
7
  6
CONTINUOUS
 90
11
 70
0
 10
-2.0705941174
 20
-8.1416251781
 10
-2.0228848904
 20
-8.140149234
 10
-1.9790186788
 20
-8.1385343773
 10
-1.9389168214
 20
-8.1367834405
 10
-1.9034390426
 20
-8.1349336048
 10
-1.8726806355
 20
-8.1329828233
 10
-1.8465463071
 20
-8.1309331429
 10
-1.8256099031
 20
-8.1288278854
 10
-1.8100627056
 20
-8.1266814914
 10
-1.7997134327
 20
-8.1244795204
 10
-1.7945620842
 20
-8.1222219723
  0
LINE
  5
337
100
AcDbEntity
  8
0
100
AcDbLine
 62
7
  6
CONTINUOUS
 10
7.3213275754
 20
-8.0958707515
 11
7.0261760974
 21
-8.1049057844
  0
LINE
  5
338
100
AcDbEntity
  8
0
100
AcDbLine
 62
7
  6
CONTINUOUS
 10
-3.0789743958
 20
-8.0958812936
 11
-3.3741035639
 21
-8.1049132817
  0
LINE
  5
339
100
AcDbEntity
  8
0
100
AcDbLine
 62
7
  6
CONTINUOUS
 10
-9.6249056022
 20
-8.1571438104
 11
-9.5188553517
 21
-8.1540710843
  0
LINE
  5
33A
100
AcDbEntity
  8
0
100
AcDbLine
 62
7
  6
CONTINUOUS
 10
7.0261760974
 20
-8.1049057844
 11
6.7005145945
 21
-8.1125060036
  0
LINE
  5
33B
100
AcDbEntity
  8
0
100
AcDbLine
 62
7
  6
CONTINUOUS
 10
-2.1762099248
 20
-8.1441401429
 11
-2.0705941174
 21
-8.1416251781
  0
LINE
  5
33C
100
AcDbEntity
  8
0
100
AcDbLine
 62
7
  6
CONTINUOUS
 10
-3.3741035639
 20
-8.1049132817
 11
-3.6997225334
 21
-8.1125107976
  0
LINE
  5
33D
100
AcDbEntity
  8
0
100
AcDbLine
 62
7
  6
CONTINUOUS
 10
-9.5188553517
 20
-8.1540710843
 11
-9.4010746822
 21
-8.1515288832
  0
LINE
  5
33E
100
AcDbEntity
  8
0
100
AcDbLine
 62
7
  6
CONTINUOUS
 10
6.7005145945
 20
-8.1125060036
 11
6.3484667489
 21
-8.1185745917
  0
LINE
  5
33F
100
AcDbEntity
  8
0
100
AcDbLine
 62
7
  6
CONTINUOUS
 10
-3.6997225334
 20
-8.1125107976
 11
-4.051711894
 21
-8.1185771745
  0
LINE
  5
340
100
AcDbEntity
  8
0
100
AcDbLine
 62
7
  6
CONTINUOUS
 10
-2.292612386
 20
-8.1459892282
 11
-2.1762099248
 21
-8.1441401429
  0
LINE
  5
341
100
AcDbEntity
  8
0
100
AcDbLine
 62
7
  6
CONTINUOUS
 10
-9.4010746822
 20
-8.1515288832
 11
-9.2746915661
 21
-8.1495820737
  0
LINE
  5
342
100
AcDbEntity
  8
0
100
AcDbLine
 62
7
  6
CONTINUOUS
 10
-1.6071775191
 20
-8.0790100708
 11
-1.5506686674
 21
-8.0781527708
  0
LINE
  5
343
100
AcDbEntity
  8
0
100
AcDbLine
 62
7
  6
CONTINUOUS
 10
6.3484667489
 20
-8.1185745917
 11
5.9765918193
 21
-8.1229810528
  0
LINE
  5
344
100
AcDbEntity
  8
0
100
AcDbLine
 62
7
  6
CONTINUOUS
 10
-4.051711894
 20
-8.1185771745
 11
-4.4235213615
 21
-8.1229822343
  0
LINE
  5
345
100
AcDbEntity
  8
0
100
AcDbLine
 62
7
  6
CONTINUOUS
 10
-9.2746915661
 20
-8.1495820737
 11
-9.1415078092
 21
-8.1482584142
  0
LINE
  5
346
100
AcDbEntity
  8
0
100
AcDbLine
 62
7
  6
CONTINUOUS
 10
-2.4154766963
 20
-8.1471177817
 11
-2.292612386
 21
-8.1459892282
  0
LWPOLYLINE
  5
347
100
AcDbEntity
  8
0
100
AcDbPolyline
 62
7
  6
CONTINUOUS
 90
22
 70
0
 10
-9.673762145
 20
-8.1588829121
 10
-9.6901803804
 20
-8.1590065543
 10
-9.7067311762
 20
-8.1581114671
 10
-9.7233423354
 20
-8.1561691933
 10
-9.7399120457
 20
-8.1531608765
 10
-9.7563867576
 20
-8.1490665546
 10
-9.7727564981
 20
-8.1438492311
 10
-9.7889266419
 20
-8.1374887179
 10
-9.8048010582
 20
-8.129970768
 10
-9.8203474653
 20
-8.121248316
 10
-9.8354628304
 20
-8.1113009135
 10
-9.8500092663
 20
-8.1001350714
 10
-9.8638810061
 20
-8.0877396688
 10
-9.8769702306
 20
-8.0741030182
 10
-9.8891017032
 20
-8.0592851523
 10
-9.9000780737
 20
-8.0434126483
 10
-9.9097717818
 20
-8.0265760685
 10
-9.9180720815
 20
-8.0088533384
 10
-9.9248446415
 20
-7.9903918378
 10
-9.9299914447
 20
-7.9713278867
 10
-9.9334375296
 20
-7.9517805448
 10
-9.9351097977
 20
-7.9318936476
  0
LINE
  5
348
100
AcDbEntity
  8
0
100
AcDbLine
 62
7
  6
CONTINUOUS
 10
5.9765918193
 20
-8.1229810528
 11
5.5929829885
 21
-8.1256511557
  0
LINE
  5
349
100
AcDbEntity
  8
0
100
AcDbLine
 62
7
  6
CONTINUOUS
 10
-4.4235213615
 20
-8.1229822343
 11
-4.8070695008
 21
-8.1256510456
  0
LINE
  5
34A
100
AcDbEntity
  8
0
100
AcDbLine
 62
7
  6
CONTINUOUS
 10
-1.5506686674
 20
-8.0781527708
 11
-1.4912925899
 21
-8.077723712
  0
LINE
  5
34B
100
AcDbEntity
  8
0
100
AcDbLine
 62
7
  6
CONTINUOUS
 10
-9.1415078092
 20
-8.1482584142
 11
-9.0050020602
 21
-8.1475948181
  0
LINE
  5
34C
100
AcDbEntity
  8
0
100
AcDbLine
 62
7
  6
CONTINUOUS
 10
-2.5435390362
 20
-8.1475073598
 11
-2.4154766963
 21
-8.1471177817
  0
LINE
  5
34D
100
AcDbEntity
  8
0
100
AcDbLine
 62
7
  6
CONTINUOUS
 10
5.5929829885
 20
-8.1256511557
 11
5.2000299739
 21
-8.1265594293
  0
LINE
  5
34E
100
AcDbEntity
  8
0
100
AcDbLine
 62
7
  6
CONTINUOUS
 10
-4.8070695008
 20
-8.1256510456
 11
-5.1999700188
 21
-8.1265579719
  0
LINE
  5
34F
100
AcDbEntity
  8
0
100
AcDbLine
 62
7
  6
CONTINUOUS
 10
-9.0050020602
 20
-8.1475948181
 11
-2.5437097566
 21
-8.1475100833
  0
LINE
  5
350
100
AcDbEntity
  8
0
100
AcDbLine
 62
7
  6
CONTINUOUS
 10
-1.4912925899
 20
-8.077723712
 11
1.4602960659
 21
-8.0776660962
  0
LINE
  5
351
100
AcDbEntity
  8
0
100
AcDbLine
 62
7
  6
CONTINUOUS
 10
-1.772430279
 20
-8.054598583
 11
1.7723531593
 21
-8.0546017504
  0
LINE
  5
352
100
AcDbEntity
  8
0
100
AcDbLine
 62
7
  6
CONTINUOUS
 10
2.2000878081
 20
-8.0217928666
 11
1.9214718951
 21
-8.021793237
  0
LINE
  5
353
100
AcDbEntity
  8
0
100
AcDbLine
 62
7
  6
CONTINUOUS
 10
-1.9212556455
 20
-8.0217928784
 11
-2.2000331291
 21
-8.0217930517
  0
LINE
  5
354
100
AcDbEntity
  8
0
100
AcDbLine
 62
7
  6
CONTINUOUS
 10
9.5945160585
 20
-8.0000000743
 11
8.2108930838
 21
-8.0000000738
  0
LINE
  5
355
100
AcDbEntity
  8
0
100
AcDbLine
 62
7
  6
CONTINUOUS
 10
2.0457626854
 20
-8.0
 11
-2.045390587
 21
-8.0
  0
LINE
  5
356
100
AcDbEntity
  8
0
100
AcDbLine
 62
7
  6
CONTINUOUS
 10
-8.2108931171
 20
-8.0
 11
-9.5942394627
 21
-8.0
  0
LINE
  5
357
100
AcDbEntity
  8
0
100
AcDbLine
 62
7
  6
CONTINUOUS
 10
8.8403282993
 20
-7.5618971329
 11
8.9295790774
 21
-7.5618972241
  0
LINE
  5
358
100
AcDbEntity
  8
0
100
AcDbLine
 62
7
  6
CONTINUOUS
 10
-8.9295510283
 20
-7.5619050569
 11
-8.8403291139
 21
-7.5618980204
  0
LINE
  5
359
100
AcDbEntity
  8
0
100
AcDbLine
 62
7
  6
CONTINUOUS
 10
6.9613475329
 20
-7.4392216256
 11
3.4502740285
 21
-7.4392245156
  0
LINE
  5
35A
100
AcDbEntity
  8
0
100
AcDbLine
 62
7
  6
CONTINUOUS
 10
-3.4192088977
 20
-7.4392216829
 11
-6.9779821101
 21
-7.4392245156
  0
LINE
  5
35B
100
AcDbEntity
  8
0
100
AcDbLine
 62
7
  6
CONTINUOUS
 10
-5.5936608939
 20
-8.1256454261
 11
-5.1999700188
 21
-8.1265579719
  0
LINE
  5
35C
100
AcDbEntity
  8
0
100
AcDbLine
 62
7
  6
CONTINUOUS
 10
5.2000299739
 20
-8.1265594293
 11
4.8071244293
 21
-8.125651642
  0
LINE
  5
35D
100
AcDbEntity
  8
0
100
AcDbLine
 62
7
  6
CONTINUOUS
 10
2.4793962447
 20
-8.1474060856
 11
9.0737451294
 21
-8.147845031
  0
LINE
  5
35E
100
AcDbEntity
  8
0
100
AcDbLine
 62
7
  6
CONTINUOUS
 10
1.4602960659
 20
-8.0776660962
 11
1.5212749904
 21
-8.0778847969
  0
LINE
  5
35F
100
AcDbEntity
  8
0
100
AcDbLine
 62
7
  6
CONTINUOUS
 10
2.3541125395
 20
-8.1466533117
 11
2.4793962447
 21
-8.1474060856
  0
LINE
  5
360
100
AcDbEntity
  8
0
100
AcDbLine
 62
7
  6
CONTINUOUS
 10
-5.9776619077
 20
-8.1229684045
 11
-5.5936608939
 21
-8.1256454261
  0
LINE
  5
361
100
AcDbEntity
  8
0
100
AcDbLine
 62
7
  6
CONTINUOUS
 10
4.8071244293
 20
-8.125651642
 11
4.4235626678
 21
-8.1229825043
  0
LINE
  5
362
100
AcDbEntity
  8
0
100
AcDbLine
 62
7
  6
CONTINUOUS
 10
9.0737451294
 20
-8.147845031
 11
9.2085885234
 21
-8.1488385597
  0
LINE
  5
363
100
AcDbEntity
  8
0
100
AcDbLine
 62
7
  6
CONTINUOUS
 10
4.4235626678
 20
-8.1229825043
 11
4.0517326001
 21
-8.1185774752
  0
LWPOLYLINE
  5
364
100
AcDbEntity
  8
0
100
AcDbPolyline
 62
7
  6
CONTINUOUS
 90
6
 70
0
 10
1.5212749904
 20
-8.0778847969
 10
1.5791231257
 20
-8.0785255442
 10
1.6069118934
 20
-8.0790047811
 10
1.632910567
 20
-8.0795740409
 10
1.657048103
 20
-8.0802365084
 10
1.679395545
 20
-8.0809889989
  0
LINE
  5
365
100
AcDbEntity
  8
0
100
AcDbLine
 62
7
  6
CONTINUOUS
 10
-6.3496162234
 20
-8.1185538261
 11
-5.9776619077
 21
-8.1229684045
  0
LINE
  5
366
100
AcDbEntity
  8
0
100
AcDbLine
 62
7
  6
CONTINUOUS
 10
9.2085885234
 20
-8.1488385597
 11
9.3388550852
 21
-8.1504780187
  0
LINE
  5
367
100
AcDbEntity
  8
0
100
AcDbLine
 62
7
  6
CONTINUOUS
 10
2.2335881879
 20
-8.1451551942
 11
2.3541125395
 21
-8.1466533117
  0
LINE
  5
368
100
AcDbEntity
  8
0
100
AcDbLine
 62
7
  6
CONTINUOUS
 10
-6.7015391582
 20
-8.1124816072
 11
-6.3496162234
 21
-8.1185538261
  0
LINE
  5
369
100
AcDbEntity
  8
0
100
AcDbLine
 62
7
  6
CONTINUOUS
 10
4.0517326001
 20
-8.1185774752
 11
3.6997211677
 21
-8.1125107649
  0
LINE
  5
36A
100
AcDbEntity
  8
0
100
AcDbLine
 62
7
  6
CONTINUOUS
 10
9.3388550852
 20
-8.1504780187
 11
9.4613516639
 21
-8.152732077
  0
LINE
  5
36B
100
AcDbEntity
  8
0
100
AcDbLine
 62
7
  6
CONTINUOUS
 10
-7.0269801834
 20
-8.1048820306
 11
-6.7015391582
 21
-8.1124816072
  0
LINE
  5
36C
100
AcDbEntity
  8
0
100
AcDbLine
 62
7
  6
CONTINUOUS
 10
3.6997211677
 20
-8.1125107649
 11
3.3740831746
 21
-8.1049127331
  0
LWPOLYLINE
  5
36D
100
AcDbEntity
  8
0
100
AcDbPolyline
 62
7
  6
CONTINUOUS
 90
4
 70
0
 10
9.4613516639
 20
-8.152732077
 10
9.573266404
 20
-8.1555394332
 10
9.6248972938
 20
-8.1571434705
 10
9.6737394077
 20
-8.1588829814
  0
LWPOLYLINE
  5
36E
100
AcDbEntity
  8
0
100
AcDbPolyline
 62
7
  6
CONTINUOUS
 90
14
 70
0
 10
3.3740831746
 20
-8.1049127331
 10
3.0789400796
 20
-8.0958800961
 10
2.9450479536
 20
-8.0908857787
 10
2.8202001357
 20
-8.0855754207
 10
2.7059821539
 20
-8.0800161133
 10
2.6025259516
 20
-8.0742047335
 10
2.5096995854
 20
-8.0681444043
 10
2.4286927525
 20
-8.0619115862
 10
2.3596484459
 20
-8.0555040797
 10
2.3024236725
 20
-8.0489240843
 10
2.2577791503
 20
-8.0422546594
 10
2.2259684518
 20
-8.0355234912
 10
2.2067380044
 20
-8.0287028934
 10
2.2000878081
 20
-8.021792866
  0
LWPOLYLINE
  5
36F
100
AcDbEntity
  8
0
100
AcDbPolyline
 62
7
  6
CONTINUOUS
 90
8
 70
0
 10
1.679395545
 20
-8.0809889989
 10
1.6992361185
 20
-8.0818076609
 10
1.716482423
 20
-8.0826950926
 10
1.731221859
 20
-8.0836486958
 10
1.7429998535
 20
-8.084636824
 10
1.7516648823
 20
-8.0856489283
 10
1.7573684697
 20
-8.0866955576
 10
1.7592859741
 20
-8.0874515779
  0
LWPOLYLINE
  5
370
100
AcDbEntity
  8
0
100
AcDbPolyline
 62
7
  6
CONTINUOUS
 90
3
 70
0
 10
-1.9755424709
 20
-8.0117734096
 10
-2.0098118018
 20
-8.0058605951
 10
-2.0453838916
 20
-8.0000011648
  0
LWPOLYLINE
  5
371
100
AcDbEntity
  8
0
100
AcDbPolyline
 62
7
  6
CONTINUOUS
 90
6
 70
0
 10
-1.8238029498
 20
-8.0421249163
 10
-1.8514927361
 20
-8.0359585104
 10
-1.8805291148
 20
-8.0298366021
 10
-1.9109011274
 20
-8.0237614131
 10
-1.9425758989
 20
-8.0177396084
 10
-1.9755424709
 20
-8.0117734096
  0
LWPOLYLINE
  5
372
100
AcDbEntity
  8
0
100
AcDbPolyline
 62
7
  6
CONTINUOUS
 90
3
 70
0
 10
-1.7724303117
 20
-8.0545978777
 10
-1.7974487974
 20
-8.0483380416
 10
-1.8238029498
 20
-8.0421249163
  0
LWPOLYLINE
  5
373
100
AcDbEntity
  8
0
100
AcDbPolyline
 62
7
  6
CONTINUOUS
 90
5
 70
0
 10
-2.1518338042
 20
-7.9838282032
 10
-2.1411529291
 20
-7.9866068342
 10
-2.1077361062
 20
-7.9938813864
 10
-2.0758131873
 20
-7.9984286154
 10
-2.0453901368
 20
-8.0
  0
LINE
  5
374
100
AcDbEntity
  8
0
100
AcDbLine
 62
7
  6
CONTINUOUS
 10
-2.3383089604
 20
-7.93350913
 11
-2.1518058476
 21
-7.9838274014
  0
LWPOLYLINE
  5
375
100
AcDbEntity
  8
0
100
AcDbPolyline
 62
7
  6
CONTINUOUS
 90
8
 70
0
 10
-3.3573871637
 20
-7.463022898
 10
-3.289625894
 20
-7.4899752777
 10
-3.2056690685
 20
-7.5242934149
 10
-3.1243709256
 20
-7.5583966155
 10
-3.0457733014
 20
-7.5921868157
 10
-2.9698343598
 20
-7.6255406202
 10
-2.8970108314
 20
-7.6580455372
 10
-2.8274955583
 20
-7.6895495072
  0
LINE
  5
376
100
AcDbEntity
  8
0
100
AcDbLine
 62
7
  6
CONTINUOUS
 10
-3.4114559568
 20
-7.4439783052
 11
-3.3304041967
 21
-7.4791618618
  0
LWPOLYLINE
  5
377
100
AcDbEntity
  8
0
100
AcDbPolyline
 62
7
  6
CONTINUOUS
 90
13
 70
0
 10
1.7946295182
 20
-8.1222364117
 10
1.7997950677
 20
-8.1244943746
 10
1.8101654074
 20
-8.1266966095
 10
1.8257405374
 20
-8.1288431164
 10
1.8467141616
 20
-8.1309483365
 10
1.872892576
 20
-8.1329978286
 10
1.9036946685
 20
-8.1349482691
 10
1.9392137828
 20
-8.1367976079
 10
1.9793565752
 20
-8.138547895
 10
2.0232619032
 20
-8.1401619567
 10
2.0710083597
 20
-8.1416369547
 10
2.1225173518
 20
-8.1429757272
 10
2.2335881879
 20
-8.1451551942
  0
LWPOLYLINE
  5
378
100
AcDbEntity
  8
0
100
AcDbPolyline
 62
7
  6
CONTINUOUS
 90
4
 70
0
 10
-3.3304041967
 20
-7.4791618618
 10
-3.2513339312
 20
-7.5146570368
 10
-3.1748164813
 20
-7.549665691
 10
-3.1009170721
 20
-7.5841580889
  0
LWPOLYLINE
  5
379
100
AcDbEntity
  8
0
100
AcDbPolyline
 62
7
  6
CONTINUOUS
 90
8
 70
0
 10
-2.4242052845
 20
-7.8764111625
 10
-2.3773414284
 20
-7.8975068321
 10
-2.3328035992
 20
-7.9170112045
 10
-2.2905985041
 20
-7.9347975661
 10
-2.2503668217
 20
-7.9508204817
 10
-2.2121486144
 20
-7.9649016891
 10
-2.1759038198
 20
-7.9768721823
 10
-2.1518338042
 20
-7.9838282032
  0
LINE
  5
37A
100
AcDbEntity
  8
0
100
AcDbLine
 62
7
  6
CONTINUOUS
 10
-2.8274955583
 20
-7.6895495072
 11
-2.6976894565
 21
-7.7494059627
  0
LINE
  5
37B
100
AcDbEntity
  8
0
100
AcDbLine
 62
7
  6
CONTINUOUS
 10
-2.5253106427
 20
-7.8298017868
 11
-2.4242052845
 21
-7.8764111625
  0
LINE
  5
37C
100
AcDbEntity
  8
0
100
AcDbLine
 62
7
  6
CONTINUOUS
 10
-2.6976894565
 20
-7.7494059627
 11
-2.5253106427
 21
-7.8298017868
  0
LWPOLYLINE
  5
37D
100
AcDbEntity
  8
0
100
AcDbPolyline
 62
7
  6
CONTINUOUS
 90
10
 70
0
 10
-2.6694977401
 20
-7.7938122611
 10
-2.6207662667
 20
-7.8172361709
 10
-2.5751997573
 20
-7.8387116232
 10
-2.5327009715
 20
-7.8582911583
 10
-2.4931546556
 20
-7.8758850846
 10
-2.4565081079
 20
-7.8914674858
 10
-2.4226789372
 20
-7.9050642781
 10
-2.3915262966
 20
-7.9166635192
 10
-2.3629859628
 20
-7.9262573907
 10
-2.3383088233
 20
-7.9335034838
  0
LINE
  5
37E
100
AcDbEntity
  8
0
100
AcDbLine
 62
7
  6
CONTINUOUS
 10
-3.1009170721
 20
-7.5841580889
 11
-2.961608614
 21
-7.6509743892
  0
LINE
  5
37F
100
AcDbEntity
  8
0
100
AcDbLine
 62
7
  6
CONTINUOUS
 10
-2.961608614
 20
-7.6509743892
 11
-2.6694977401
 21
-7.7938122611
  0
LINE
  5
380
100
AcDbEntity
  8
ASSI
100
AcDbLine
 62
7
  6
CONTINUOUS
 10
9.5103594806
 20
-20.7603594806
 11
9.65
 21
-20.9
  0
LINE
  5
381
100
AcDbEntity
  8
DRAFT
100
AcDbLine
 62
7
  6
CONTINUOUS
 10
9.5103594806
 20
-20.7603594806
 11
9.65
 21
-20.9
  0
LWPOLYLINE
  5
382
100
AcDbEntity
  8
0
100
AcDbPolyline
 62
7
  6
CONTINUOUS
 90
16
 70
0
 10
-7.3999999952
 20
19.4007065797
 10
-7.4028999033
 20
19.4535877854
 10
-7.4109860535
 20
19.5048778908
 10
-7.4242584457
 20
19.5545768957
 10
-7.44295641
 20
19.6032111233
 10
-7.4668406163
 20
19.6502542504
 10
-7.4951930747
 20
19.6941273079
 10
-7.5282155599
 20
19.7347400644
 10
-7.5657062972
 20
19.7721827514
 10
-7.6063419722
 20
19.8051470943
 10
-7.6502090434
 20
19.8334292918
 10
-7.6972210524
 20
19.8572331452
 10
-7.7457953096
 20
19.8758617852
 10
-7.7954042519
 20
19.8890829217
 10
-7.8465754424
 20
19.8971288448
 10
-7.8993088812
 20
19.8999995543
  0
LWPOLYLINE
  5
383
100
AcDbEntity
  8
0
100
AcDbPolyline
 62
250
  6
CONTINUOUS
 90
13
 70
0
 10
-6.5000000014
 20
14.2000000551
 10
-6.5063317325
 20
14.3359857619
 10
-6.5163792031
 20
14.4710766688
 10
-6.5301424132
 20
14.605003245
 10
-6.5487356175
 20
14.7373968402
 10
-6.5710445614
 20
14.8681150821
 10
-6.5937264803
 20
14.9972324456
 10
-6.6168415383
 20
15.1245540738
 10
-6.6403295713
 20
15.249789749
 10
-6.6606673237
 20
15.3728641786
 10
-6.6766803768
 20
15.493594348
 10
-6.6895431493
 20
15.6116982159
 10
-6.699255641
 20
15.7269531039
  0
LWPOLYLINE
  5
384
100
AcDbEntity
  8
0
100
AcDbPolyline
 62
7
  6
CONTINUOUS
 90
10
 70
0
 10
-6.7950342742
 20
13.6500003588
 10
-6.7893314095
 20
13.4752333609
 10
-6.773977398
 20
13.3039749188
 10
-6.74897224
 20
13.1362250325
 10
-6.7139797319
 20
12.9714908948
 10
-6.6693360771
 20
12.8102653128
 10
-6.6160498859
 20
12.6540267078
 10
-6.5544573617
 20
12.5032678867
 10
-6.484222301
 20
12.3574960425
 10
-6.405344704
 20
12.2167111752
  0
LINE
  5
385
100
AcDbEntity
  8
ASSI
100
AcDbLine
 62
7
  6
CONTINUOUS
 10
-7.2322076372
 20
20.9330083283
 11
-7.2084845302
 21
20.1483339502
  0
LINE
  5
386
100
AcDbEntity
  8
DRAFT
100
AcDbLine
 62
7
  6
CONTINUOUS
 10
-7.2322076372
 20
20.9330083283
 11
-7.2084845302
 21
20.1483339502
  0
LINE
  5
387
100
AcDbEntity
  8
0
100
AcDbLine
 62
7
  6
CONTINUOUS
 10
-6.7999996943
 20
14.6989202192
 11
-6.7950409283
 21
14.2000000019
  0
LINE
  5
388
100
AcDbEntity
  8
0
100
AcDbLine
 62
250
  6
CONTINUOUS
 10
-6.6993972172
 20
15.7660181793
 11
-6.699255641
 21
15.7269531039
  0
LINE
  5
389
100
AcDbEntity
  8
0
100
AcDbLine
 62
7
  6
CONTINUOUS
 10
-6.65
 20
-1.8369263228
 11
-6.65
 21
-1.8722803023
  0
LINE
  5
38A
100
AcDbEntity
  8
0
100
AcDbLine
 62
250
  6
CONTINUOUS
 10
-6.5000000014
 20
14.2000000551
 11
-6.500000002
 21
13.650000354
  0
LINE
  5
38B
100
AcDbEntity
  8
0
100
AcDbLine
 62
250
  6
CONTINUOUS
 10
-6.5
 20
-1.8369263228
 11
-6.5
 21
-1.8722803023
  0
LINE
  5
38C
100
AcDbEntity
  8
0
100
AcDbLine
 62
7
  6
CONTINUOUS
 10
-6.25
 20
-0.7198292179
 11
-6.25
 21
-1.6239977632
  0
LINE
  5
38D
100
AcDbEntity
  8
0
100
AcDbLine
 62
250
  6
CONTINUOUS
 10
-6.0000157342
 20
-3.54867933
 11
-6.0000157342
 21
-3.5840259188
  0
LINE
  5
38E
100
AcDbEntity
  8
0
100
AcDbLine
 62
7
  6
CONTINUOUS
 10
-5.9269405707
 20
8.4385366158
 11
-5.9269405707
 21
8.7040685345
  0
LINE
  5
38F
100
AcDbEntity
  8
0
100
AcDbLine
 62
7
  6
CONTINUOUS
 10
-5.8000504536
 20
7.5194806638
 11
-5.8000504536
 21
7.7846959632
  0
LINE
  5
390
100
AcDbEntity
  8
0
100
AcDbLine
 62
7
  6
CONTINUOUS
 10
-5.75
 20
-1.6239977632
 11
-5.75
 21
-0.719829218
  0
LINE
  5
391
100
AcDbEntity
  8
0
100
AcDbLine
 62
250
  6
CONTINUOUS
 10
-5.5
 20
-1.8722803023
 11
-5.5
 21
-1.8369263228
  0
LINE
  5
392
100
AcDbEntity
  8
0
100
AcDbLine
 62
7
  6
CONTINUOUS
 10
-5.35
 20
-1.8722803023
 11
-5.35
 21
-1.8369263228
  0
LINE
  5
393
100
AcDbEntity
  8
0
100
AcDbLine
 62
250
  6
CONTINUOUS
 10
-5.1999520448
 20
-8.1265610411
 11
-5.1999520448
 21
-7.4392304971
  0
LINE
  5
394
100
AcDbEntity
  8
ASSI
100
AcDbLine
 62
7
  6
CONTINUOUS
 10
-6.0830351795
 20
19.1
 11
-6.0856534392
 21
18.95
  0
LINE
  5
395
100
AcDbEntity
  8
DRAFT
100
AcDbLine
 62
7
  6
CONTINUOUS
 10
-6.0830351795
 20
19.1
 11
-6.0856534392
 21
18.95
  0
LINE
  5
396
100
AcDbEntity
  8
ASSI
100
AcDbLine
 62
7
  6
CONTINUOUS
 10
-7.2322076372
 20
-20.9330083283
 11
-7.2084845302
 21
-20.1483339502
  0
LINE
  5
397
100
AcDbEntity
  8
DRAFT
100
AcDbLine
 62
7
  6
CONTINUOUS
 10
-7.2322076372
 20
-20.9330083283
 11
-7.2084845302
 21
-20.1483339502
  0
LWPOLYLINE
  5
398
100
AcDbEntity
  8
0
100
AcDbPolyline
 62
7
  6
CONTINUOUS
 90
16
 70
0
 10
-6.25
 20
-1.6239977632
 10
-6.251378709
 20
-1.6500428663
 10
-6.2554936244
 20
-1.6757697678
 10
-6.2622905425
 20
-1.7008977697
 10
-6.2716789215
 20
-1.7251388933
 10
-6.2835513067
 20
-1.7482485003
 10
-6.2978012014
 20
-1.7700197735
 10
-6.31428443
 20
-1.7902171846
 10
-6.3328221114
 20
-1.8086084822
 10
-6.3532393588
 20
-1.8250020948
 10
-6.3753918634
 20
-1.8392449673
 10
-6.3989814806
 20
-1.851111357
 10
-6.4235473359
 20
-1.8603878205
 10
-6.4487297754
 20
-1.8670041932
 10
-6.4743079958
 20
-1.8709661541
 10
-6.5
 20
-1.8722803023
  0
LWPOLYLINE
  5
399
100
AcDbEntity
  8
0
100
AcDbPolyline
 62
250
  6
CONTINUOUS
 90
8
 70
0
 10
-8.960761811
 20
-17.4156773038
 10
-8.9590680695
 20
-17.4062782777
 10
-8.9573980569
 20
-17.3865533153
 10
-8.9557517732
 20
-17.3565917012
 10
-8.9541226281
 20
-17.3165262362
 10
-8.9525172118
 20
-17.2665295612
 10
-8.9509552956
 20
-17.2068107612
 10
-8.9479631291
 20
-17.0592533295
  0
LINE
  5
39A
100
AcDbEntity
  8
0
100
AcDbLine
 62
250
  6
CONTINUOUS
 10
-9.6737469303
 20
-8.1588833965
 11
-9.5942394887
 21
-8.0000001631
  0
LINE
  5
39B
100
AcDbEntity
  8
0
100
AcDbLine
 62
250
  6
CONTINUOUS
 10
-9.8442289248
 20
-7.7509404333
 11
-9.93510981
 21
-7.9318936476
  0
LINE
  5
39C
100
AcDbEntity
  8
0
100
AcDbLine
 62
7
  6
CONTINUOUS
 10
-8.1000078838
 20
-7.9431957611
 11
-8.0284276308
 21
-7.9233694013
  0
LINE
  5
39D
100
AcDbEntity
  8
0
100
AcDbLine
 62
7
  6
CONTINUOUS
 10
-8.1000019693
 20
-7.9431956861
 11
-8.2125676774
 21
-7.9728118975
  0
LWPOLYLINE
  5
39E
100
AcDbEntity
  8
0
100
AcDbPolyline
 62
7
  6
CONTINUOUS
 90
6
 70
0
 10
-8.2128216058
 20
-7.9709734419
 10
-8.2019325479
 20
-7.9683447331
 10
-8.1914021276
 20
-7.9655226087
 10
-8.1812303448
 20
-7.9624971592
 10
-8.1716480936
 20
-7.9592486417
 10
-8.1624244799
 20
-7.9557754105
  0
LINE
  5
39F
100
AcDbEntity
  8
0
100
AcDbLine
 62
7
  6
CONTINUOUS
 10
8.099841162
 20
-7.9398414366
 11
8.2184902975
 21
-7.9708015831
  0
LINE
  5
3A0
100
AcDbEntity
  8
0
100
AcDbLine
 62
7
  6
CONTINUOUS
 10
8.0284163795
 20
-7.9199887433
 11
8.0998975782
 21
-7.9398414842
  0
LINE
  5
3A1
100
AcDbEntity
  8
0
100
AcDbLine
 62
250
  6
CONTINUOUS
 10
9.0003111929
 20
-17.475000001
 11
9.0308961432
 21
-17.5055481084
  0
LWPOLYLINE
  5
3A2
100
AcDbEntity
  8
0
100
AcDbPolyline
 62
7
  6
CONTINUOUS
 90
13
 70
0
 10
-5.7379039673
 20
-1.6649453061
 10
-5.7285722553
 20
-1.68922121
 10
-5.7167041641
 20
-1.7124526034
 10
-5.7024385134
 20
-1.7343365869
 10
-5.6859310545
 20
-1.7546248252
 10
-5.66735605
 20
-1.7730952956
 10
-5.6469368199
 20
-1.7895217587
 10
-5.6248934989
 20
-1.8037287615
 10
-5.6014768243
 20
-1.8155567762
 10
-5.5769957302
 20
-1.8248607252
 10
-5.5517428759
 20
-1.8315518736
 10
-5.5259832491
 20
-1.8355823056
 10
-5.5
 20
-1.8369263228
  0
LINE
  5
3A3
100
AcDbEntity
  8
ASSI
100
AcDbLine
 62
7
  6
CONTINUOUS
 10
-3.4452396157
 20
-21.2139629885
 11
-3.3821231691
 21
-22.4
  0
LINE
  5
3A4
100
AcDbEntity
  8
DRAFT
100
AcDbLine
 62
7
  6
CONTINUOUS
 10
-3.4452396157
 20
-21.2139629885
 11
-3.3821231691
 21
-22.4
  0
LINE
  5
3A5
100
AcDbEntity
  8
0
100
AcDbLine
 62
7
  6
CONTINUOUS
 10
-4.9371976569
 20
9.2819830565
 11
-4.9371976569
 21
7.5194801825
  0
LINE
  5
3A6
100
AcDbEntity
  8
0
100
AcDbLine
 62
7
  6
CONTINUOUS
 10
-4.6580393992
 20
7.5194801825
 11
-4.6580393992
 21
9.2819830565
  0
LINE
  5
3A7
100
AcDbEntity
  8
0
100
AcDbLine
 62
7
  6
CONTINUOUS
 10
-4.0235888134
 20
9.2819835547
 11
-4.0235888134
 21
9.5478052248
  0
LINE
  5
3A8
100
AcDbEntity
  8
0
100
AcDbLine
 62
250
  6
CONTINUOUS
 10
-3.9999999989
 20
10.95
 11
-4.0000008318
 21
10.85
  0
LINE
  5
3A9
100
AcDbEntity
  8
0
100
AcDbLine
 62
250
  6
CONTINUOUS
 10
-4.0
 20
10.6134313985
 11
-4.0
 21
10.6220075758
  0
LINE
  5
3AA
100
AcDbEntity
  8
0
100
AcDbLine
 62
7
  6
CONTINUOUS
 10
-3.425
 20
10.1318587994
 11
-3.425
 21
6.860254706
  0
LWPOLYLINE
  5
3AB
100
AcDbEntity
  8
0
100
AcDbPolyline
 62
7
  6
CONTINUOUS
 90
22
 70
0
 10
-4.2512976021
 20
-1.8482366159
 10
-4.2546390997
 20
-1.974718694
 10
-4.2690523346
 20
-2.1039630078
 10
-4.2931851006
 20
-2.2318510845
 10
-4.326956067
 20
-2.3577641579
 10
-4.3701814382
 20
-2.4808853202
 10
-4.4225571557
 20
-2.6003443653
 10
-4.4837538466
 20
-2.7154484679
 10
-4.5534222639
 20
-2.825593178
 10
-4.6310984797
 20
-2.9301047197
 10
-4.7161527721
 20
-3.0282479077
 10
-4.8082169012
 20
-3.1197004685
 10
-4.9072431601
 20
-3.2043775228
 10
-5.013091766
 20
-3.2819664628
 10
-5.1249160586
 20
-3.3516642315
 10
-5.2415622923
 20
-3.4127216298
 10
-5.3622266851
 20
-3.4647812188
 10
-5.4863236
 20
-3.5076507862
 10
-5.6129043877
 20
-3.5410782822
 10
-5.7411557498
 20
-3.5649569502
 10
-5.8704239194
 20
-3.5792682406
 10
-5.9999842651
 20
-3.5840259188
  0
LINE
  5
3AC
100
AcDbEntity
  8
ASSI
100
AcDbLine
 62
7
  6
CONTINUOUS
 10
-3.4452396157
 20
21.2139629885
 11
-3.3821231691
 21
22.4
  0
LINE
  5
3AD
100
AcDbEntity
  8
DRAFT
100
AcDbLine
 62
7
  6
CONTINUOUS
 10
-3.4452396157
 20
21.2139629885
 11
-3.3821231691
 21
22.4
  0
LWPOLYLINE
  5
3AE
100
AcDbEntity
  8
0
100
AcDbPolyline
 62
7
  6
CONTINUOUS
 90
21
 70
0
 10
-4.2545678265
 20
-1.937490035
 10
-4.2687567088
 20
-2.0663984905
 10
-4.2924659273
 20
-2.1933994552
 10
-4.3259086008
 20
-2.3186059614
 10
-4.3688716105
 20
-2.4419062436
 10
-4.420606378
 20
-2.5609736082
 10
-4.4813072821
 20
-2.6756746807
 10
-4.550779944
 20
-2.7861460846
 10
-4.6276926491
 20
-2.8904678282
 10
-4.711912172
 20
-2.9883576376
 10
-4.8035717381
 20
-3.0801021706
 10
-4.9017393087
 20
-3.1646357919
 10
-5.0067979795
 20
-3.2421251621
 10
-5.1183646548
 20
-3.3124078033
 10
-5.234358008
 20
-3.3739248849
 10
-5.3547922529
 20
-3.4264265087
 10
-5.4796531757
 20
-3.4701663175
 10
-5.6068168086
 20
-3.5043409223
 10
-5.7355751623
 20
-3.528683287
 10
-5.8666362261
 20
-3.5434625779
 10
-6.0
 20
-3.54867933
  0
LINE
  5
3AF
100
AcDbEntity
  8
ASSI
100
AcDbLine
 62
7
  6
CONTINUOUS
 10
2.6848155072
 20
21.3292298715
 11
3.0104834329
 21
22.3955695989
  0
LINE
  5
3B0
100
AcDbEntity
  8
RACCORDO
100
AcDbLine
 62
7
  6
CONTINUOUS
 10
2.6848155072
 20
21.3292298715
 11
3.0104834329
 21
22.3955695989
  0
LWPOLYLINE
  5
3B1
100
AcDbEntity
  8
0
100
AcDbPolyline
 62
7
  6
CONTINUOUS
 90
11
 70
0
 10
-9.5942394622
 20
-8.0
 10
-9.5901499711
 20
-7.9926142295
 10
-9.5861040285
 20
-7.9704888475
 10
-9.5821016607
 20
-7.9337110587
 10
-9.5781298373
 20
-7.8824210679
 10
-9.5742015889
 20
-7.8168082559
 10
-9.570356007
 20
-7.7371072808
 10
-9.5665933029
 20
-7.6436052194
 10
-9.5629132654
 20
-7.536637826
 10
-9.5593543533
 20
-7.4165800062
 10
-9.552602456
 20
-7.1389442013
  0
LWPOLYLINE
  5
3B2
100
AcDbEntity
  8
0
100
AcDbPolyline
 62
7
  6
CONTINUOUS
 90
10
 70
0
 10
6.0321531906
 20
11.4000123573
 10
6.1068642074
 20
11.4703677568
 10
6.1791057514
 20
11.5432619924
 10
6.2488778225
 20
11.6186950643
 10
6.3161912707
 20
11.6966435446
 10
6.381035246
 20
11.7771308611
 10
6.443377199
 20
11.8602272968
 10
6.50320628
 20
11.9459562794
 10
6.5605333386
 20
12.0342943812
 10
6.6153583749
 20
12.1252416022
  0
LWPOLYLINE
  5
3B3
100
AcDbEntity
  8
0
100
AcDbPolyline
 62
7
  6
CONTINUOUS
 90
13
 70
0
 10
6.0209384231
 20
11.400004535
 10
5.8798378746
 20
11.2801977578
 10
5.7329940384
 20
11.16999889
 10
5.5804069147
 20
11.0694079978
 10
5.4216768718
 20
10.9782062136
 10
5.2572035414
 20
10.8966124061
 10
5.0881858181
 20
10.8252831848
 10
4.9143212972
 20
10.7641472175
 10
4.7359123836
 20
10.7132756947
 10
4.5550651861
 20
10.6735389831
 10
4.3724817412
 20
10.6452271573
 10
4.1874600125
 20
10.6280500138
 10
4.0
 20
10.6220075167
  0
LWPOLYLINE
  5
3B4
100
AcDbEntity
  8
0
100
AcDbPolyline
 62
7
  6
CONTINUOUS
 90
16
 70
0
 10
-9.2258644253
 20
-4.4256244765
 10
-9.1997255774
 20
-4.4253792253
 10
-9.1741369518
 20
-4.424751809
 10
-9.1493597471
 20
-4.4237613334
 10
-9.1257777763
 20
-4.4224396912
 10
-9.1034450688
 20
-4.4208065055
 10
-9.0821547542
 20
-4.4188483486
 10
-9.06204079
 20
-4.4165638191
 10
-9.0434748615
 20
-4.4139805601
 10
-9.0266697778
 20
-4.4111152637
 10
-9.0118435522
 20
-4.4079882601
 10
-8.9992379699
 20
-4.4046310837
 10
-8.989074478
 20
-4.4010833542
 10
-8.9815236253
 20
-4.3973844607
 10
-8.9767182288
 20
-4.3935720117
 10
-8.97476999
 20
-4.3896886456
  0
LINE
  5
3B5
100
AcDbEntity
  8
0
100
AcDbLine
 62
250
  6
CONTINUOUS
 10
9.2258393552
 20
-4.4256558722
 11
9.5262209519
 21
-4.4256544368
  0
LINE
  5
3B6
100
AcDbEntity
  8
0
100
AcDbLine
 62
250
  6
CONTINUOUS
 10
8.8800161726
 20
-4.4256802878
 11
1.4435862459
 21
-4.4256683859
  0
LINE
  5
3B7
100
AcDbEntity
  8
0
100
AcDbLine
 62
250
  6
CONTINUOUS
 10
-1.4435862459
 20
-4.4256532509
 11
-8.8800129458
 21
-4.4256586907
  0
LINE
  5
3B8
100
AcDbEntity
  8
0
100
AcDbLine
 62
250
  6
CONTINUOUS
 10
-9.2258819305
 20
-4.4256527851
 11
-9.5262466155
 21
-4.4256559593
  0
LINE
  5
3B9
100
AcDbEntity
  8
0
100
AcDbLine
 62
250
  6
CONTINUOUS
 10
-1.4959266949
 20
-4.3896845898
 11
1.4959266949
 21
-4.3896845898
  0
LINE
  5
3BA
100
AcDbEntity
  8
0
100
AcDbLine
 62
250
  6
CONTINUOUS
 10
-8.9753604105
 20
-4.3896927723
 11
-8.8757683234
 21
-4.3897077741
  0
LINE
  5
3BB
100
AcDbEntity
  8
0
100
AcDbLine
 62
250
  6
CONTINUOUS
 10
8.97543101
 20
-4.3896868653
 11
8.8757711178
 21
-4.3896545066
  0
LWPOLYLINE
  5
3BC
100
AcDbEntity
  8
0
100
AcDbPolyline
 62
7
  6
CONTINUOUS
 90
13
 70
0
 10
-9.5260489217
 20
-4.4256556254
 10
-9.5584385082
 20
-4.4252724469
 10
-9.5902433018
 20
-4.4242908055
 10
-9.6209314695
 20
-4.4227293336
 10
-9.6499814927
 20
-4.4206171766
 10
-9.6769273547
 20
-4.4179911187
 10
-9.7013567506
 20
-4.4148928259
 10
-9.7228677195
 20
-4.4113728967
 10
-9.7410938704
 20
-4.4074907895
 10
-9.7557359603
 20
-4.4033096443
 10
-9.7665459952
 20
-4.3988983781
 10
-9.7733361595
 20
-4.3943309767
 10
-9.7759877694
 20
-4.3896836999
  0
LWPOLYLINE
  5
3BD
100
AcDbEntity
  8
0
100
AcDbPolyline
 62
7
  6
CONTINUOUS
 90
10
 70
0
 10
0.0
 20
-4.7602305002
 10
-0.1656106182
 20
-4.7560455183
 10
-0.3302785832
 20
-4.7436021741
 10
-0.4940038949
 20
-4.7228834639
 10
-0.6572670646
 20
-4.6937546599
 10
-0.819587581
 20
-4.6562860738
 10
-0.9795239107
 20
-4.6107568987
 10
-1.1365955425
 20
-4.5572284671
 10
-1.2912829876
 20
-4.4955448172
 10
-1.4435862459
 20
-4.4256586907
  0
LWPOLYLINE
  5
3BE
100
AcDbEntity
  8
0
100
AcDbPolyline
 62
7
  6
CONTINUOUS
 90
10
 70
0
 10
-0.0000000027
 20
-4.7514824768
 10
-0.1721037995
 20
-4.7469432473
 10
-0.3431374622
 20
-4.7334818232
 10
-0.5131009907
 20
-4.7110758524
 10
-0.6825307795
 20
-4.6795597969
 10
-0.8508904341
 20
-4.639014993
 10
-1.0165707713
 20
-4.5897752144
 10
-1.1790353966
 20
-4.5319117298
 10
-1.3388207045
 20
-4.4652340424
 10
-1.4959266949
 20
-4.3896845898
  0
LWPOLYLINE
  5
3BF
100
AcDbEntity
  8
0
100
AcDbPolyline
 62
7
  6
CONTINUOUS
 90
23
 70
0
 10
-6.0000157342
 20
-3.5840259188
 10
-6.1312578333
 20
-3.5791446154
 10
-6.2616951116
 20
-3.5645336454
 10
-6.3905953261
 20
-3.5402897682
 10
-6.5174892171
 20
-3.5064868186
 10
-6.6414038969
 20
-3.4633678895
 10
-6.7609324081
 20
-3.4115290357
 10
-6.8749947583
 20
-3.3517147336
 10
-6.9835884521
 20
-3.2842081101
 10
-7.0869466372
 20
-3.2089621428
 10
-7.1845796838
 20
-3.1263048859
 10
-7.2758729824
 20
-3.0367264375
 10
-7.360714997
 20
-2.9402193523
 10
-7.438855528
 20
-2.8367475803
 10
-7.509351974
 20
-2.7272067919
 10
-7.5712037568
 20
-2.6130948393
 10
-7.6239956379
 20
-2.4954648117
 10
-7.6677285917
 20
-2.3746504528
 10
-7.7022827849
 20
-2.2512063886
 10
-7.7274669484
 20
-2.1261954617
 10
-7.7433215097
 20
-1.9999370146
 10
-7.7498392899
 20
-1.8718299475
 10
-7.7499999805
 20
-1.8485399904
  0
LWPOLYLINE
  5
3C0
100
AcDbEntity
  8
0
100
AcDbPolyline
 62
7
  6
CONTINUOUS
 90
23
 70
0
 10
5.9999842656
 20
-3.5840259188
 10
5.868492556
 20
-3.5791256243
 10
5.7376182454
 20
-3.5644299374
 10
5.6081059346
 20
-3.5399937453
 10
5.4802756642
 20
-3.5057988112
 10
5.3553020359
 20
-3.4620777586
 10
5.235099197
 20
-3.4096241323
 10
5.1210749931
 20
-3.3494600039
 10
5.0128250748
 20
-3.2817875674
 10
4.9095454108
 20
-3.2062006674
 10
4.8114551866
 20
-3.1226797988
 10
4.7195840281
 20
-3.0319104816
 10
4.6344972854
 20
-2.9343227176
 10
4.5565943871
 20
-2.8301971915
 10
4.4865481651
 20
-2.7202390689
 10
4.4251457316
 20
-2.6056660823
 10
4.3727433871
 20
-2.4873474544
 10
4.3294565603
 20
-2.3657842302
 10
4.2954744549
 20
-2.2417550959
 10
4.2709850864
 20
-2.1165425003
 10
4.2558531509
 20
-1.9902757837
 10
4.2500542604
 20
-1.8619646996
 10
4.2500000102
 20
-1.8484684781
  0
LWPOLYLINE
  5
3C1
100
AcDbEntity
  8
0
100
AcDbPolyline
 62
7
  6
CONTINUOUS
 90
22
 70
0
 10
-6.0
 20
-3.54867933
 10
-6.1328956847
 20
-3.5435127912
 10
-6.2635407207
 20
-3.5288287452
 10
-6.3919351079
 20
-3.5046266628
 10
-6.51880281
 20
-3.4706325456
 10
-6.6434198634
 20
-3.427118283
 10
-6.7636143775
 20
-3.3749018053
 10
-6.8793490285
 20
-3.3137291673
 10
-6.9906611402
 20
-3.243850615
 10
-7.095490793
 20
-3.1668405043
 10
-7.1934419042
 20
-3.0828832685
 10
-7.2849105565
 20
-2.9917903659
 10
-7.3690250789
 20
-2.8945771914
 10
-7.4459328444
 20
-2.7909640585
 10
-7.5154864801
 20
-2.6812263157
 10
-7.576372196
 20
-2.5672128178
 10
-7.6284128234
 20
-2.448802411
 10
-7.6717855311
 20
-2.3261129804
 10
-7.7057080352
 20
-2.2013535539
 10
-7.7299893379
 20
-2.0746054796
 10
-7.7448204371
 20
-1.9457859927
 10
-7.7486104711
 20
-1.8484858662
  0
LWPOLYLINE
  5
3C2
100
AcDbEntity
  8
0
100
AcDbPolyline
 62
7
  6
CONTINUOUS
 90
22
 70
0
 10
6.0
 20
-3.54867933
 10
5.8669938301
 20
-3.543512271
 10
5.7362310912
 20
-3.5288028734
 10
5.6077117834
 20
-3.5045506057
 10
5.480712698
 20
-3.4704855194
 10
5.3559570437
 20
-3.4268754445
 10
5.2356144462
 20
-3.3745261401
 10
5.1197057727
 20
-3.3131726053
 10
5.008210156
 20
-3.2430761144
 10
4.9032346205
 20
-3.1658319798
 10
4.8051821074
 20
-3.0816100479
 10
4.7136496755
 20
-2.9902363395
 10
4.6295355247
 20
-2.8927909577
 10
4.5527125478
 20
-2.7889981152
 10
4.4833078521
 20
-2.67912929
 10
4.4226009586
 20
-2.5650864375
 10
4.370780138
 20
-2.4467574696
 10
4.3276571198
 20
-2.3242512929
 10
4.2939466137
 20
-2.199803005
 10
4.2698313619
 20
-2.0735500772
 10
4.2551286223
 20
-1.9453537505
 10
4.2513752107
 20
-1.848415231
  0
LWPOLYLINE
  5
3C3
100
AcDbEntity
  8
0
100
AcDbPolyline
 62
7
  6
CONTINUOUS
 90
6
 70
0
 10
8.0284210314
 20
-7.9199887433
 10
7.9732376815
 20
-7.9002118867
 10
7.9080305772
 20
-7.8737321014
 10
7.8320713805
 20
-7.8405493873
 10
7.7438349974
 20
-7.7999226096
 10
7.5330381673
 20
-7.7007836726
  0
LWPOLYLINE
  5
3C4
100
AcDbEntity
  8
0
100
AcDbPolyline
 62
7
  6
CONTINUOUS
 90
3
 70
0
 10
7.9646544975
 20
-7.8878573891
 10
8.0372205899
 20
-7.9171569508
 10
8.0998993978
 20
-7.9398349306
  0
LWPOLYLINE
  5
3C5
100
AcDbEntity
  8
0
100
AcDbPolyline
 62
7
  6
CONTINUOUS
 90
4
 70
0
 10
7.0279100414
 20
-7.4630790753
 10
7.1219479351
 20
-7.5011058874
 10
7.2069043761
 20
-7.5365577155
 10
7.2902834761
 20
-7.5721795018
  0
LWPOLYLINE
  5
3C6
100
AcDbEntity
  8
0
100
AcDbPolyline
 62
7
  6
CONTINUOUS
 90
7
 70
0
 10
7.9682156191
 20
-7.871908539
 10
8.0179235863
 20
-7.8931999075
 10
8.0642781014
 20
-7.9126258948
 10
8.1075241485
 20
-7.9300778602
 10
8.1477433889
 20
-7.9455379788
 10
8.1848541612
 20
-7.9590461895
 10
8.2188564655
 20
-7.9706116896
  0
LWPOLYLINE
  5
3C7
100
AcDbEntity
  8
0
100
AcDbPolyline
 62
7
  6
CONTINUOUS
 90
4
 70
0
 10
7.0375439713
 20
-7.4682688334
 10
7.1862940969
 20
-7.5326423973
 10
7.3256678109
 20
-7.5953093526
 10
7.4557762528
 20
-7.6552631097
  0
LINE
  5
3C8
100
AcDbEntity
  8
0
100
AcDbLine
 62
7
  6
CONTINUOUS
 10
7.9150704286
 20
-7.8487838558
 11
7.9682156191
 21
-7.871908539
  0
LINE
  5
3C9
100
AcDbEntity
  8
0
100
AcDbLine
 62
7
  6
CONTINUOUS
 10
7.148748826
 20
-7.520702242
 11
7.0059175725
 21
-7.4581241794
  0
LINE
  5
3CA
100
AcDbEntity
  8
0
100
AcDbLine
 62
7
  6
CONTINUOUS
 10
7.2902834761
 20
-7.5721795018
 11
7.4498578146
 21
-7.6417590483
  0
LWPOLYLINE
  5
3CB
100
AcDbEntity
  8
0
100
AcDbPolyline
 62
7
  6
CONTINUOUS
 90
3
 70
0
 10
7.4498578146
 20
-7.6417590483
 10
7.7354648595
 20
-7.7689862382
 10
7.9150704286
 20
-7.8487838558
  0
LWPOLYLINE
  5
3CC
100
AcDbEntity
  8
0
100
AcDbPolyline
 62
7
  6
CONTINUOUS
 90
5
 70
0
 10
7.4557762528
 20
-7.6552631097
 10
7.6880359509
 20
-7.76366563
 10
7.7899789765
 20
-7.8107079271
 10
7.882223762
 20
-7.852251429
 10
7.9646544975
 20
-7.8878573891
  0
LWPOLYLINE
  5
3CD
100
AcDbEntity
  8
0
100
AcDbPolyline
 62
7
  6
CONTINUOUS
 90
3
 70
0
 10
7.5330381673
 20
-7.7007836726
 10
7.2849320422
 20
-7.5826569945
 10
7.148748826
 20
-7.520702242
  0
LWPOLYLINE
  5
3CE
100
AcDbEntity
  8
0
100
AcDbPolyline
 62
7
  6
CONTINUOUS
 90
43
 70
0
 10
-1.4435862459
 20
-4.4256532509
 10
-1.6274242616
 20
-4.328220565
 10
-1.8039087541
 20
-4.2197455787
 10
-1.9730397233
 20
-4.1002236557
 10
-2.1356265899
 20
-3.9690532125
 10
-2.2908599333
 20
-3.8268251363
 10
-2.4363114915
 20
-3.6753238963
 10
-2.5719072742
 20
-3.5140325021
 10
-2.6977212718
 20
-3.3434573761
 10
-2.8115471935
 20
-3.1669208895
 10
-2.9127448449
 20
-2.9852160033
 10
-3.0019544205
 20
-2.7975432731
 10
-3.0788902128
 20
-2.6048391645
 10
-3.1437644463
 20
-2.4064246896
 10
-3.1963648966
 20
-2.2029728977
 10
-3.2357691826
 20
-1.9974510376
 10
-3.2617291231
 20
-1.7900397836
 10
-3.2744928993
 20
-1.5805572064
 10
-3.2738826737
 20
-1.3714304421
 10
-3.2596993937
 20
-1.162510482
 10
-3.2321421119
 20
-0.9539483394
 10
-3.1916301487
 20
-0.7486247144
 10
-3.1381094452
 20
-0.5468866764
 10
-3.0716340603
 20
-0.3483927864
 10
-2.9927854915
 20
-0.1549937937
 10
-2.9012644948
 20
0.03359795
 10
-2.7973703141
 20
0.2170880556
 10
-2.6825821785
 20
0.3927504764
 10
-2.5567909831
 20
0.5603128539
 10
-2.4201058328
 20
0.7200391754
 10
-2.2743332711
 20
0.8700061087
 10
-2.1196511181
 20
1.0099482165
 10
-1.9558815539
 20
1.1401228804
 10
-1.7842976621
 20
1.2593903237
 10
-1.6042975543
 20
1.3679300302
 10
-1.4164831189
 20
1.4655559876
 10
-1.223933105
 20
1.550579946
 10
-1.0267605537
 20
1.6226188425
 10
-0.8248524238
 20
1.6820507266
 10
-0.6209483409
 20
1.728329176
 10
-0.4159615136
 20
1.7612711757
 10
-0.2089787334
 20
1.7810571957
 10
-0.0000000002
 20
1.7876866087
  0
LWPOLYLINE
  5
3CF
100
AcDbEntity
  8
0
100
AcDbPolyline
 62
7
  6
CONTINUOUS
 90
43
 70
0
 10
-1.4959266949
 20
-4.3896845898
 10
-1.6797270386
 20
-4.2871803357
 10
-1.8550688017
 20
-4.1745019708
 10
-2.0219519841
 20
-4.051645069
 10
-2.180902511
 20
-3.9180312223
 10
-2.3313944572
 20
-3.7742287797
 10
-2.4718500472
 20
-3.6219539271
 10
-2.6021989849
 20
-3.4610901851
 10
-2.7225115665
 20
-3.2917445614
 10
-2.8314209043
 20
-3.1159704823
 10
-2.9287806585
 20
-2.9337747966
 10
-3.0147371689
 20
-2.7451432129
 10
-3.088362568
 20
-2.5521000562
 10
-3.1495694227
 20
-2.3544880283
 10
-3.1984451661
 20
-2.1524595879
 10
-3.2343242292
 20
-1.9485068345
 10
-3.2570256937
 20
-1.7425809452
 10
-3.2667304778
 20
-1.5347295747
 10
-3.2633157674
 20
-1.3275931207
 10
-3.2466685152
 20
-1.1213696086
 10
-3.2169017684
 20
-0.9158635983
 10
-3.1742318544
 20
-0.7131283845
 10
-3.1183902384
 20
-0.5128558564
 10
-3.0496454551
 20
-0.315358838
 10
-2.9690194355
 20
-0.123624973
 10
-2.8763761245
 20
0.0620479744
 10
-2.7718515772
 20
0.2419501744
 10
-2.6568758903
 20
0.4139733667
 10
-2.5314047694
 20
0.5779429106
 10
-2.395482509
 20
0.734025247
 10
-2.2506720891
 20
0.8806224246
 10
-2.0968564512
 20
1.0176798589
 10
-1.9341526539
 20
1.1452445048
 10
-1.7644748538
 20
1.2618700755
 10
-1.587749976
 20
1.3674314992
 10
-1.4040510955
 20
1.4620473888
 10
-1.2155115931
 20
1.5446368142
 10
-1.0223569769
 20
1.6150710786
 10
-0.8243617389
 20
1.6734742239
 10
-0.6229827365
 20
1.7191446668
 10
-0.4187055888
 20
1.7518476939
 10
-0.2110446767
 20
1.7718155641
 10
-0.0000000001
 20
1.779047661
  0
LINE
  5
3D0
100
AcDbEntity
  8
0
100
AcDbLine
 62
7
  6
CONTINUOUS
 10
1.7601099081
 20
-8.0877767119
 11
1.7945703858
 21
-8.1222375566
  0
LINE
  5
3D1
100
AcDbEntity
  8
0
100
AcDbLine
 62
250
  6
CONTINUOUS
 10
10.0305949138
 20
-16.5057380189
 11
10.0000642163
 21
-16.4751449474
  0
LINE
  5
3D2
100
AcDbEntity
  8
ASSI
100
AcDbLine
 62
7
  6
CONTINUOUS
 10
3.0104834329
 20
-22.3955695989
 11
2.6848155072
 21
-21.3292298715
  0
LINE
  5
3D3
100
AcDbEntity
  8
RACCORDO
100
AcDbLine
 62
7
  6
CONTINUOUS
 10
3.0104834329
 20
-22.3955695989
 11
2.6848155072
 21
-21.3292298715
  0
LWPOLYLINE
  5
3D4
100
AcDbEntity
  8
0
100
AcDbPolyline
 62
250
  6
CONTINUOUS
 90
10
 70
0
 10
-2.5437097566
 20
-14.0
 10
-2.5415090074
 20
-14.1041461454
 10
-2.535077806
 20
-14.2079048343
 10
-2.5244161524
 20
-14.3112760668
 10
-2.5094720007
 20
-14.4145167272
 10
-2.4902973968
 20
-14.517369931
 10
-2.4670484784
 20
-14.6190650254
 10
-2.4397772911
 20
-14.7193451258
 10
-2.4084317893
 20
-14.8184671167
 10
-2.3730119729
 20
-14.9164309981
  0
LWPOLYLINE
  5
3D5
100
AcDbEntity
  8
0
100
AcDbPolyline
 62
7
  6
CONTINUOUS
 90
21
 70
0
 10
-1.9230973891
 20
4.7257085538
 10
-1.9223499388
 20
4.6779047673
 10
-1.9140239988
 20
4.5603395057
 10
-1.8955835692
 20
4.4389372064
 10
-1.8666900355
 20
4.317287987
 10
-1.828417511
 20
4.2001682449
 10
-1.7824479603
 20
4.0903751808
 10
-1.7288163963
 20
3.9861435777
 10
-1.666504844
 20
3.8853781785
 10
-1.5950099581
 20
3.7880639597
 10
-1.5150457794
 20
3.6958893356
 10
-1.4268850356
 20
3.609657693
 10
-1.3302310805
 20
3.5296688872
 10
-1.2261253146
 20
3.457333738
 10
-1.1173269212
 20
3.394595289
 10
-1.0054292909
 20
3.3419311949
 10
-0.8906903789
 20
3.2990330521
 10
-0.7742303671
 20
3.2659730714
 10
-0.6569889411
 20
3.2426456241
 10
-0.5396949855
 20
3.22883941
 10
-0.4231154188
 20
3.2243062057
  0
LINE
  5
3D6
100
AcDbEntity
  8
ASSI
100
AcDbLine
 62
7
  6
CONTINUOUS
 10
-2.8136015098
 20
-19.6414213562
 11
-2.8183264224
 21
-19.1
  0
LINE
  5
3D7
100
AcDbEntity
  8
SMUSSO
100
AcDbLine
 62
7
  6
CONTINUOUS
 10
-2.8136015098
 20
-19.6414213562
 11
-2.8183264224
 21
-19.1
  0
LINE
  5
3D8
100
AcDbEntity
  8
ASSI
100
AcDbLine
 62
7
  6
CONTINUOUS
 10
-3.0983838146
 20
21.349698412
 11
-3.1
 21
22.4
  0
LINE
  5
3D9
100
AcDbEntity
  8
RACCORDO
100
AcDbLine
 62
7
  6
CONTINUOUS
 10
-3.0983838146
 20
21.349698412
 11
-3.1
 21
22.4
  0
LINE
  5
3DA
100
AcDbEntity
  8
0
100
AcDbLine
 62
250
  6
CONTINUOUS
 10
-2.5437097566
 20
-8.1475100833
 11
-2.5437097566
 21
-14.0
  0
LINE
  5
3DB
100
AcDbEntity
  8
0
100
AcDbLine
 62
7
  6
CONTINUOUS
 10
-1.9
 20
19.5
 11
-1.9
 21
18.9
  0
LINE
  5
3DC
100
AcDbEntity
  8
0
100
AcDbLine
 62
7
  6
CONTINUOUS
 10
-1.9
 20
-18.9
 11
-1.9
 21
-19.5
  0
LINE
  5
3DD
100
AcDbEntity
  8
0
100
AcDbLine
 62
250
  6
CONTINUOUS
 10
-1.7945598468
 20
-8.1222219322
 11
-1.7945638098
 21
-14.0000059742
  0
LINE
  5
3DE
100
AcDbEntity
  8
0
100
AcDbLine
 62
250
  6
CONTINUOUS
 10
-1.7601099081
 20
-8.0877767119
 11
-1.7601099081
 21
-14.000007914
  0
LINE
  5
3DF
100
AcDbEntity
  8
0
100
AcDbLine
 62
7
  6
CONTINUOUS
 10
-2.2000331291
 20
-8.0217930517
 11
-2.2000113085
 21
-7.9708119209
  0
LINE
  5
3E0
100
AcDbEntity
  8
ASSI
100
AcDbLine
 62
7
  6
CONTINUOUS
 10
-3.0983838146
 20
-21.349698412
 11
-3.1
 21
-22.4
  0
LINE
  5
3E1
100
AcDbEntity
  8
RACCORDO
100
AcDbLine
 62
7
  6
CONTINUOUS
 10
-3.0983838146
 20
-21.349698412
 11
-3.1
 21
-22.4
  0
LINE
  5
3E2
100
AcDbEntity
  8
ASSI
100
AcDbLine
 62
7
  6
CONTINUOUS
 10
-2.8366556363
 20
19.1
 11
-2.8272050914
 21
19.6414213562
  0
LINE
  5
3E3
100
AcDbEntity
  8
SMUSSO
100
AcDbLine
 62
7
  6
CONTINUOUS
 10
-2.8366556363
 20
19.1
 11
-2.8272050914
 21
19.6414213562
  0
LWPOLYLINE
  5
3E4
100
AcDbEntity
  8
0
100
AcDbPolyline
 62
7
  6
CONTINUOUS
 90
21
 70
0
 10
-1.9230974338
 20
4.7541476406
 10
-1.9220995163
 20
4.8090191501
 10
-1.9128557721
 20
4.9295184565
 10
-1.8938513579
 20
5.0495287971
 10
-1.8651445821
 20
5.1679484313
 10
-1.8269879118
 20
5.2835862785
 10
-1.7797116186
 20
5.3955657326
 10
-1.7236008964
 20
5.5033119579
 10
-1.6590134327
 20
5.60614171
 10
-1.5864424773
 20
5.7033153843
 10
-1.5063150532
 20
5.7943031517
 10
-1.4188935095
 20
5.8787303709
 10
-1.3244445024
 20
5.9561836544
 10
-1.2237602499
 20
6.0258719325
 10
-1.1179871056
 20
6.0869740978
 10
-1.0079267655
 20
6.1391120658
 10
-0.8942677564
 20
6.1820501048
 10
-0.778130599
 20
6.2154716249
 10
-0.6604300325
 20
6.2392834577
 10
-0.5418350502
 20
6.2535233156
 10
-0.4231154188
 20
6.258249316
  0
LWPOLYLINE
  5
3E5
100
AcDbEntity
  8
0
100
AcDbPolyline
 62
7
  6
CONTINUOUS
 90
21
 70
0
 10
-1.6230974339
 20
4.7252813555
 10
-1.6222841886
 20
4.7695890437
 10
-1.6148167493
 20
4.8663193962
 10
-1.5995561355
 20
4.9622970546
 10
-1.5765829549
 20
5.0568322644
 10
-1.5460688301
 20
5.1491719134
 10
-1.5082240922
 20
5.2387141568
 10
-1.4633004539
 20
5.3248918551
 10
-1.4116512422
 20
5.4070495802
 10
-1.3537732786
 20
5.4845080972
 10
-1.2899585669
 20
5.5569762696
 10
-1.2202329387
 20
5.6243532449
 10
-1.1446426646
 20
5.6863865296
 10
-1.0639149975
 20
5.7422880633
 10
-0.9791677235
 20
5.791251116
 10
-0.8911818296
 20
5.8329354113
 10
-0.80039951
 20
5.8672444903
 10
-0.7075616644
 20
5.8939849366
 10
-0.6133392919
 20
5.9130730169
 10
-0.5183172116
 20
5.9245022399
 10
-0.4231118221
 20
5.9282999704
  0
LINE
  5
3E6
100
AcDbEntity
  8
ASSI
100
AcDbLine
 62
7
  6
CONTINUOUS
 10
3.9733373476
 20
23.5
 11
3.9630152422
 21
23.4650925288
  0
LINE
  5
3E7
100
AcDbEntity
  8
DRAFT
100
AcDbLine
 62
7
  6
CONTINUOUS
 10
3.9733373476
 20
23.5
 11
3.9630152422
 21
23.4650925288
  0
LINE
  5
3E8
100
AcDbEntity
  8
0
100
AcDbLine
 62
250
  6
CONTINUOUS
 10
9.0003024346
 20
17.475
 11
8.8034366067
 21
17.179661279
  0
LINE
  5
3E9
100
AcDbEntity
  8
0
100
AcDbLine
 62
7
  6
CONTINUOUS
 10
10.0000642163
 20
16.4752110041
 11
10.0305945608
 21
16.5119582028
  0
LINE
  5
3EA
100
AcDbEntity
  8
0
100
AcDbLine
 62
7
  6
CONTINUOUS
 10
6.25
 20
-2.9397891191
 11
5.75
 21
-2.9397891191
  0
LINE
  5
3EB
100
AcDbEntity
  8
0
100
AcDbLine
 62
7
  6
CONTINUOUS
 10
5.3500000008
 20
-1.8739346323
 11
5.5
 21
-1.8739346323
  0
LINE
  5
3EC
100
AcDbEntity
  8
0
100
AcDbLine
 62
7
  6
CONTINUOUS
 10
6.5
 20
-1.8739346322
 11
6.65
 21
-1.8739346322
  0
LINE
  5
3ED
100
AcDbEntity
  8
0
100
AcDbLine
 62
7
  6
CONTINUOUS
 10
-5.3500000008
 20
-1.8722803023
 11
-5.5
 21
-1.8722803023
  0
LINE
  5
3EE
100
AcDbEntity
  8
0
100
AcDbLine
 62
7
  6
CONTINUOUS
 10
-6.5
 20
-1.8722803023
 11
-6.65
 21
-1.8722803023
  0
LINE
  5
3EF
100
AcDbEntity
  8
0
100
AcDbLine
 62
7
  6
CONTINUOUS
 10
-6.65
 20
-1.8369263228
 11
-6.5
 21
-1.8369263228
  0
LINE
  5
3F0
100
AcDbEntity
  8
0
100
AcDbLine
 62
7
  6
CONTINUOUS
 10
-5.5
 20
-1.8369263228
 11
-5.35
 21
-1.8369263228
  0
LWPOLYLINE
  5
3F1
100
AcDbEntity
  8
0
100
AcDbPolyline
 62
7
  6
CONTINUOUS
 90
16
 70
0
 10
-5.5
 20
-1.8722803023
 10
-5.5261853325
 20
-1.8709163898
 10
-5.5520644403
 20
-1.866840225
 10
-5.5773539411
 20
-1.8601021342
 10
-5.6017742639
 20
-1.8507825109
 10
-5.6250639769
 20
-1.8389880565
 10
-5.6469807397
 20
-1.824846783
 10
-5.667285633
 20
-1.808514608
 10
-5.6857587036
 20
-1.7901708134
 10
-5.7022079147
 20
-1.770007311
 10
-5.716451834
 20
-1.7482418563
 10
-5.7283327343
 20
-1.725110557
 10
-5.7377228114
 20
-1.700854332
 10
-5.7445140205
 20
-1.6757321246
 10
-5.7486236394
 20
-1.6500202134
 10
-5.75
 20
-1.6239995134
  0
LWPOLYLINE
  5
3F2
100
AcDbEntity
  8
0
100
AcDbPolyline
 62
7
  6
CONTINUOUS
 90
16
 70
0
 10
5.5
 20
-1.8739346322
 10
5.5261865312
 20
-1.8753026766
 10
5.5520665799
 20
-1.8793817402
 10
5.5773567431
 20
-1.8861214214
 10
5.6017773106
 20
-1.8954411659
 10
5.6250670088
 20
-1.9072342556
 10
5.6469838828
 20
-1.9213729439
 10
5.6672892505
 20
-1.9377015759
 10
5.6857627651
 20
-1.9560407452
 10
5.7022119066
 20
-1.976198178
 10
5.7164552379
 20
-1.9979557726
 10
5.7283353145
 20
-2.0210775383
 10
5.7377244722
 20
-2.0453227691
 10
5.7445148296
 20
-2.0704325824
 10
5.7486238382
 20
-2.0961306138
 10
5.75
 20
-2.1221362763
  0
LINE
  5
3F3
100
AcDbEntity
  8
0
100
AcDbLine
 62
7
  6
CONTINUOUS
 10
-0.8866073694
 20
-2.5938132256
 11
-0.1476249523
 21
-2.900252432
  0
LINE
  5
3F4
100
AcDbEntity
  8
0
100
AcDbLine
 62
7
  6
CONTINUOUS
 10
-0.2429612503
 20
-2.669832384
 11
-0.6561873214
 21
-2.4984769276
  0
LINE
  5
3F5
100
AcDbEntity
  8
0
100
AcDbLine
 62
7
  6
CONTINUOUS
 10
2.2262855766
 20
-2.9374106351
 11
0.0572403913
 21
-2.0379569133
  0
LINE
  5
3F6
100
AcDbEntity
  8
0
100
AcDbLine
 62
7
  6
CONTINUOUS
 10
-1.2159163936
 20
-1.2761060093
 11
-0.3383747733
 21
-1.640002567
  0
LINE
  5
3F7
100
AcDbEntity
  8
0
100
AcDbLine
 62
7
  6
CONTINUOUS
 10
0.140002567
 20
-1.8383747733
 11
1.0175441872
 21
-2.202271331
  0
LINE
  5
3F8
100
AcDbEntity
  8
0
100
AcDbLine
 62
7
  6
CONTINUOUS
 10
0.9984769276
 20
-2.1561873214
 11
0.1209353074
 21
-1.7922907637
  0
LINE
  5
3F9
100
AcDbEntity
  8
0
100
AcDbLine
 62
7
  6
CONTINUOUS
 10
-0.2922907637
 20
-1.6209353074
 11
-1.169832384
 21
-1.2570387497
  0
LINE
  5
3FA
100
AcDbEntity
  8
0
100
AcDbLine
 62
7
  6
CONTINUOUS
 10
-2.5901839672
 20
-0.9401302251
 11
-0.421136949
 21
-1.839584707
  0
LINE
  5
3FB
100
AcDbEntity
  8
0
100
AcDbLine
 62
250
  6
CONTINUOUS
 10
8.9607607557
 20
-17.4156773041
 11
9.0003111929
 21
-17.4749999987
  0
LINE
  5
3FC
100
AcDbEntity
  8
ASSI
100
AcDbLine
 62
7
  6
CONTINUOUS
 10
3.9733373476
 20
-23.5
 11
3.9630152422
 21
-23.4650925288
  0
LINE
  5
3FD
100
AcDbEntity
  8
DRAFT
100
AcDbLine
 62
7
  6
CONTINUOUS
 10
3.9733373476
 20
-23.5
 11
3.9630152422
 21
-23.4650925288
  0
LWPOLYLINE
  5
3FE
100
AcDbEntity
  8
0
100
AcDbPolyline
 62
250
  6
CONTINUOUS
 90
5
 70
0
 10
-6.6997845827
 20
15.776053443
 10
-6.6996712916
 20
15.7756366626
 10
-6.6995450961
 20
15.7737918499
 10
-6.6994502377
 20
15.7705471928
 10
-6.6993972172
 20
15.7660181793
  0
LWPOLYLINE
  5
3FF
100
AcDbEntity
  8
0
100
AcDbPolyline
 62
7
  6
CONTINUOUS
 90
20
 70
0
 10
-1.6223033106
 20
4.7104876201
 10
-1.6148710909
 20
4.6137163293
 10
-1.5996294314
 20
4.5176884529
 10
-1.576656538
 20
4.4231145303
 10
-1.5461498941
 20
4.3308214186
 10
-1.5083641812
 20
4.2414686835
 10
-1.4635469702
 20
4.1555495089
 10
-1.4119968191
 20
4.0736005738
 10
-1.3541613537
 20
3.9962603625
 10
-1.290351858
 20
3.9238783446
 10
-1.2206283819
 20
3.8565919244
 10
-1.145062716
 20
3.7946718167
 10
-1.064361958
 20
3.7388829579
 10
-0.979615198
 20
3.6900038655
 10
-0.8915813933
 20
3.6483711426
 10
-0.8007187226
 20
3.6141004808
 10
-0.7077959091
 20
3.587392009
 10
-0.613495508
 20
3.5683286623
 10
-0.5183948102
 20
3.5569159459
 10
-0.4231118221
 20
3.5531260592
  0
LINE
  5
400
100
AcDbEntity
  8
0
100
AcDbLine
 62
250
  6
CONTINUOUS
 10
-1.4603022077
 20
-8.0776660962
 11
-1.4603005366
 21
-14.0003721118
  0
LINE
  5
401
100
AcDbEntity
  8
0
100
AcDbLine
 62
7
  6
CONTINUOUS
 10
-0.4230974353
 20
3.224306217
 11
-0.4230974353
 21
3.5531260477
  0
LINE
  5
402
100
AcDbEntity
  8
0
100
AcDbLine
 62
7
  6
CONTINUOUS
 10
-0.4230974353
 20
5.9282999877
 11
-0.4230974353
 21
6.2582493086
  0
LINE
  5
403
100
AcDbEntity
  8
0
100
AcDbLine
 62
250
  6
CONTINUOUS
 10
-0.0000295706
 20
1.7876868376
 11
-0.0000294929
 21
1.7790487032
  0
LINE
  5
404
100
AcDbEntity
  8
0
100
AcDbLine
 62
250
  6
CONTINUOUS
 10
-0.0000292475
 20
-4.7514848404
 11
-0.0000293248
 21
-4.7602306789
  0
LINE
  5
405
100
AcDbEntity
  8
ASSI
100
AcDbLine
 62
7
  6
CONTINUOUS
 10
6.9712561167
 20
21.2139629885
 11
6.9576125104
 21
21.1771527675
  0
LINE
  5
406
100
AcDbEntity
  8
DRAFT
100
AcDbLine
 62
7
  6
CONTINUOUS
 10
6.9712561167
 20
21.2139629885
 11
6.9576125104
 21
21.1771527675
  0
LINE
  5
407
100
AcDbEntity
  8
0
100
AcDbLine
 62
7
  6
CONTINUOUS
 10
-1.0175441872
 20
-0.797728669
 11
-1.2159163936
 21
-1.2761060093
  0
LINE
  5
408
100
AcDbEntity
  8
0
100
AcDbLine
 62
7
  6
CONTINUOUS
 10
-1.169832384
 20
-1.2570387497
 11
-0.9984769276
 21
-0.8438126786
  0
LINE
  5
409
100
AcDbEntity
  8
0
100
AcDbLine
 62
7
  6
CONTINUOUS
 10
0.1476249523
 20
-0.099747568
 11
-0.1875429297
 21
-0.9080095867
  0
LINE
  5
40A
100
AcDbEntity
  8
0
100
AcDbLine
 62
7
  6
CONTINUOUS
 10
-0.5514394874
 20
-1.7855512069
 11
-0.8866073694
 21
-2.5938132256
  0
LWPOLYLINE
  5
40B
100
AcDbEntity
  8
0
100
AcDbPolyline
 62
7
  6
CONTINUOUS
 90
10
 70
0
 10
6.4059400624
 20
12.2177107778
 10
6.4845407467
 20
12.35818958
 10
6.5545273894
 20
12.5036446499
 10
6.6158999906
 20
12.6540759874
 10
6.6689625185
 20
12.8098970851
 10
6.7134110048
 20
12.9706944504
 10
6.748333545
 20
13.1352276061
 10
6.7734261708
 20
13.3030830597
 10
6.7889928503
 20
13.4746743038
 10
6.7950335837
 20
13.6500013382
  0
LINE
  5
40C
100
AcDbEntity
  8
0
100
AcDbLine
 62
250
  6
CONTINUOUS
 10
9.7705842643
 20
16.1310212097
 11
10.0000000102
 21
16.4752110041
  0
LWPOLYLINE
  5
40D
100
AcDbEntity
  8
0
100
AcDbPolyline
 62
7
  6
CONTINUOUS
 90
15
 70
0
 10
-6.5
 20
-1.8369263228
 10
-6.4740933042
 20
-1.8355902551
 10
-6.4483986155
 20
-1.8315815674
 10
-6.4231973662
 20
-1.8249227078
 10
-6.3987542161
 20
-1.8156585284
 10
-6.375360607
 20
-1.8038740845
 10
-6.3533237791
 20
-1.7897094988
 10
-6.3328958973
 20
-1.7733204349
 10
-6.3142991902
 20
-1.754878852
 10
-6.2977582927
 20
-1.7346059197
 10
-6.2834505748
 20
-1.7127193547
 10
-6.2715374915
 20
-1.6894668596
 10
-6.2621636184
 20
-1.6651528623
 10
-6.25541942
 20
-1.640066118
 10
-6.2513557158
 20
-1.6144690301
  0
LINE
  5
40E
100
AcDbEntity
  8
0
100
AcDbLine
 62
7
  6
CONTINUOUS
 10
-6.25
 20
-0.7551927941
 11
-5.75
 21
-0.7551927941
  0
LINE
  5
40F
100
AcDbEntity
  8
0
100
AcDbLine
 62
7
  6
CONTINUOUS
 10
-6.25
 20
-0.7198292179
 11
-5.75
 21
-0.7198292179
  0
LWPOLYLINE
  5
410
100
AcDbEntity
  8
0
100
AcDbPolyline
 62
7
  6
CONTINUOUS
 90
22
 70
0
 10
-6.0000196699
 20
-0.108530788
 10
-5.8705568891
 20
-0.11330414
 10
-5.7414642592
 20
-0.1276447433
 10
-5.613461467
 20
-0.1515490183
 10
-5.4872010804
 20
-0.1849837361
 10
-5.3634795065
 20
-0.227823436
 10
-5.2432146589
 20
-0.2797985163
 10
-5.1269780316
 20
-0.3407111388
 10
-5.0155605272
 20
-0.4101940403
 10
-4.9100888685
 20
-0.4874843519
 10
-4.8114362423
 20
-0.5717430048
 10
-4.7196833573
 20
-0.6626893582
 10
-4.6347514247
 20
-0.7603599005
 10
-4.5569752509
 20
-0.8645316147
 10
-4.4870653444
 20
-0.9744314785
 10
-4.4255468611
 20
-1.0893144296
 10
-4.3727951608
 20
-1.2085431492
 10
-4.3291279071
 20
-1.3314745539
 10
-4.2948503989
 20
-1.4572825645
 10
-4.2701599786
 20
-1.5852250706
 10
-4.2551833292
 20
-1.7146228235
 10
-4.25
 20
-1.8482841598
  0
LWPOLYLINE
  5
411
100
AcDbEntity
  8
0
100
AcDbPolyline
 62
7
  6
CONTINUOUS
 90
22
 70
0
 10
5.9999820237
 20
-0.1085307637
 10
6.129427093
 20
-0.11330293
 10
6.2585116683
 20
-0.1276411521
 10
6.3865159653
 20
-0.1515439404
 10
6.5127912184
 20
-0.1849814076
 10
6.6365358705
 20
-0.227829424
 10
6.7568189994
 20
-0.2798145781
 10
6.8730659897
 20
-0.3407363469
 10
6.9844895061
 20
-0.4102279086
 10
7.089961307
 20
-0.4875240841
 10
7.1886065638
 20
-0.5717823986
 10
7.2803482767
 20
-0.6627231175
 10
7.3652710783
 20
-0.7603878047
 10
7.4430415049
 20
-0.864555897
 10
7.5129470945
 20
-0.9744527498
 10
7.5744623835
 20
-1.089333367
 10
7.6272119103
 20
-1.2085609056
 10
7.6708776072
 20
-1.3314921505
 10
7.705153657
 20
-1.4573000184
 10
7.7298426634
 20
-1.5852422093
 10
7.7448179806
 20
-1.7146396865
 10
7.75
 20
-1.8482841676
  0
LINE
  5
412
100
AcDbEntity
  8
0
100
AcDbLine
 62
7
  6
CONTINUOUS
 10
0.8775416203
 20
-1.8638965577
 11
-0.8775416203
 21
-1.1361034423
  0
LINE
  5
413
100
AcDbEntity
  8
0
100
AcDbLine
 62
7
  6
CONTINUOUS
 10
-0.9984769276
 20
-0.8438126786
 11
-0.1209353074
 21
-1.2077092363
  0
LINE
  5
414
100
AcDbEntity
  8
0
100
AcDbLine
 62
7
  6
CONTINUOUS
 10
0.2922907637
 20
-1.3790646926
 11
1.169832384
 21
-1.7429612503
  0
LINE
  5
415
100
AcDbEntity
  8
0
100
AcDbLine
 62
7
  6
CONTINUOUS
 10
1.2159163936
 20
-1.7238939907
 11
0.3383747733
 21
-1.359997433
  0
LINE
  5
416
100
AcDbEntity
  8
0
100
AcDbLine
 62
7
  6
CONTINUOUS
 10
-0.140002567
 20
-1.1616252267
 11
-1.0175441872
 21
-0.797728669
  0
LINE
  5
417
100
AcDbEntity
  8
0
100
AcDbLine
 62
7
  6
CONTINUOUS
 10
2.5901839672
 20
-2.0598697749
 11
0.4211369491
 21
-1.1604152931
  0
LINE
  5
418
100
AcDbEntity
  8
0
100
AcDbLine
 62
7
  6
CONTINUOUS
 10
0.2429612503
 20
-0.330167616
 11
0.6561873214
 21
-0.5015230724
  0
LINE
  5
419
100
AcDbEntity
  8
0
100
AcDbLine
 62
7
  6
CONTINUOUS
 10
0.8866073694
 20
-0.4061867744
 11
0.1476249523
 21
-0.099747568
  0
LINE
  5
41A
100
AcDbEntity
  8
0
100
AcDbLine
 62
7
  6
CONTINUOUS
 10
-0.0572403913
 20
-0.9620430867
 11
-2.2262855766
 21
-0.0625893649
  0
LINE
  5
41B
100
AcDbEntity
  8
0
100
AcDbLine
 62
250
  6
CONTINUOUS
 10
10.0000000042
 20
-16.4751449474
 11
9.9606088421
 21
-16.4160239382
  0
LWPOLYLINE
  5
41C
100
AcDbEntity
  8
0
100
AcDbPolyline
 62
7
  6
CONTINUOUS
 90
10
 70
0
 10
-6.6153883206
 20
12.125231698
 10
-6.7037519935
 20
12.2905135837
 10
-6.7811832434
 20
12.459201108
 10
-6.8472480006
 20
12.6300107882
 10
-6.9016334453
 20
12.8019634123
 10
-6.9444497221
 20
12.9738733999
 10
-6.9767149132
 20
13.14415739
 10
-6.9991375676
 20
13.3115704592
 10
-7.0120190974
 20
13.4752368009
 10
-7.0157499065
 20
13.6342320076
  0
LINE
  5
41D
100
AcDbEntity
  8
0
100
AcDbLine
 62
7
  6
CONTINUOUS
 10
-0.3638965577
 20
-2.3775416203
 11
-0.1476249523
 21
-2.900252432
  0
LINE
  5
41E
100
AcDbEntity
  8
0
100
AcDbLine
 62
7
  6
CONTINUOUS
 10
-0.8775416203
 20
-1.1361034423
 11
-1.0175441872
 21
-0.797728669
  0
LINE
  5
41F
100
AcDbEntity
  8
0
100
AcDbLine
 62
7
  6
CONTINUOUS
 10
0.140002567
 20
-1.8383747733
 11
-0.140002567
 21
-1.1616252267
  0
LINE
  5
420
100
AcDbEntity
  8
0
100
AcDbLine
 62
7
  6
CONTINUOUS
 10
1.0175441872
 20
-2.202271331
 11
0.8775416203
 21
-1.8638965577
  0
LINE
  5
421
100
AcDbEntity
  8
0
100
AcDbLine
 62
7
  6
CONTINUOUS
 10
0.3638965577
 20
-0.6224583797
 11
0.1476249523
 21
-0.099747568
  0
LINE
  5
422
100
AcDbEntity
  8
ASSI
100
AcDbLine
 62
7
  6
CONTINUOUS
 10
6.9712561167
 20
-21.2139629885
 11
6.9576125104
 21
-21.1771527675
  0
LINE
  5
423
100
AcDbEntity
  8
DRAFT
100
AcDbLine
 62
7
  6
CONTINUOUS
 10
6.9712561167
 20
-21.2139629885
 11
6.9576125104
 21
-21.1771527675
  0
LINE
  5
424
100
AcDbEntity
  8
0
100
AcDbLine
 62
250
  6
CONTINUOUS
 10
1.4602960659
 20
-8.0776660962
 11
1.4602993391
 21
-14.0001678484
  0
LINE
  5
425
100
AcDbEntity
  8
0
100
AcDbLine
 62
250
  6
CONTINUOUS
 10
1.7601099081
 20
-14.000007914
 11
1.7601099081
 21
-8.0877767119
  0
LINE
  5
426
100
AcDbEntity
  8
0
100
AcDbLine
 62
250
  6
CONTINUOUS
 10
1.7945703858
 20
-8.1222375566
 11
1.7945676433
 21
-14.0000040344
  0
LINE
  5
427
100
AcDbEntity
  8
0
100
AcDbLine
 62
7
  6
CONTINUOUS
 10
1.9
 20
-19.5
 11
1.9
 21
-18.9
  0
LINE
  5
428
100
AcDbEntity
  8
0
100
AcDbLine
 62
7
  6
CONTINUOUS
 10
1.9
 20
18.9
 11
1.9
 21
19.5
  0
LWPOLYLINE
  5
429
100
AcDbEntity
  8
0
100
AcDbPolyline
 62
7
  6
CONTINUOUS
 90
21
 70
0
 10
0.6993809812
 20
4.7541476407
 10
0.7003788987
 20
4.8090191517
 10
0.7096226431
 20
4.9295184582
 10
0.7286270574
 20
5.0495287987
 10
0.7573338333
 20
5.1679484327
 10
0.7954905036
 20
5.2835862797
 10
0.8427667969
 20
5.3955657338
 10
0.8988775192
 20
5.5033119591
 10
0.9634649832
 20
5.6061417112
 10
1.0360359387
 20
5.7033153856
 10
1.1161633631
 20
5.7943031532
 10
1.2035849075
 20
5.8787303728
 10
1.2980339162
 20
5.9561836571
 10
1.3987181706
 20
6.025871936
 10
1.5044913167
 20
6.0869741017
 10
1.6145516584
 20
6.1391120696
 10
1.7282106685
 20
6.1820501081
 10
1.8443478258
 20
6.2154716273
 10
1.9620483904
 20
6.239283459
 10
2.0806433695
 20
6.2535233159
 10
2.1993629961
 20
6.2582493159
  0
LWPOLYLINE
  5
42A
100
AcDbEntity
  8
0
100
AcDbPolyline
 62
7
  6
CONTINUOUS
 90
21
 70
0
 10
0.699494929
 20
4.7259826359
 10
0.7020773643
 20
4.8108927347
 10
0.7143580213
 20
4.9354649402
 10
0.7372126863
 20
5.0585598296
 10
0.7702366916
 20
5.1797219572
 10
0.8115167024
 20
5.295327617
 10
0.8608540999
 20
5.4042995822
 10
0.918447503
 20
5.5077128311
 10
0.9829794323
 20
5.6051713479
 10
1.0543921112
 20
5.6968004946
 10
1.1327433164
 20
5.7824731612
 10
1.2168888993
 20
5.8614145884
 10
1.3067308848
 20
5.9336754966
 10
1.402367248
 20
5.9992036986
 10
1.5029477661
 20
6.0570700205
 10
1.6085290759
 20
6.1074141295
 10
1.7190545406
 20
6.1500952399
 10
1.833504027
 20
6.1837634754
 10
1.9515374907
 20
6.2079686204
 10
2.0734949762
 20
6.2231602
 10
2.1993764834
 20
6.229338038
  0
LINE
  5
42B
100
AcDbEntity
  8
ASSI
100
AcDbLine
 62
7
  6
CONTINUOUS
 10
-6.9712561167
 20
-21.2139629885
 11
-6.9576125104
 21
-21.1771527675
  0
LINE
  5
42C
100
AcDbEntity
  8
DRAFT
100
AcDbLine
 62
7
  6
CONTINUOUS
 10
-6.9712561167
 20
-21.2139629885
 11
-6.9576125104
 21
-21.1771527675
  0
LINE
  5
42D
100
AcDbEntity
  8
0
100
AcDbLine
 62
7
  6
CONTINUOUS
 10
-0.0572403913
 20
-0.9620430868
 11
-0.140002567
 21
-1.1616252267
  0
LINE
  5
42E
100
AcDbEntity
  8
0
100
AcDbLine
 62
7
  6
CONTINUOUS
 10
-0.3383747733
 20
-1.640002567
 11
-0.4211369489
 21
-1.8395847069
  0
LINE
  5
42F
100
AcDbEntity
  8
0
100
AcDbLine
 62
7
  6
CONTINUOUS
 10
-0.6561873214
 20
-2.4984769276
 11
-0.2922907637
 21
-1.6209353074
  0
LINE
  5
430
100
AcDbEntity
  8
0
100
AcDbLine
 62
7
  6
CONTINUOUS
 10
-0.1209353074
 20
-1.2077092363
 11
0.2429612503
 21
-0.330167616
  0
LINE
  5
431
100
AcDbEntity
  8
0
100
AcDbLine
 62
7
  6
CONTINUOUS
 10
-0.3638965577
 20
-2.3775416203
 11
0.3638965577
 21
-0.6224583797
  0
LINE
  5
432
100
AcDbEntity
  8
0
100
AcDbLine
 62
7
  6
CONTINUOUS
 10
0.6561873214
 20
-0.5015230724
 11
0.2922907637
 21
-1.3790646926
  0
LINE
  5
433
100
AcDbEntity
  8
0
100
AcDbLine
 62
7
  6
CONTINUOUS
 10
0.1209353074
 20
-1.7922907637
 11
-0.2429612503
 21
-2.669832384
  0
LINE
  5
434
100
AcDbEntity
  8
0
100
AcDbLine
 62
7
  6
CONTINUOUS
 10
0.0572403914
 20
-2.0379569132
 11
0.140002567
 21
-1.8383747733
  0
LINE
  5
435
100
AcDbEntity
  8
0
100
AcDbLine
 62
7
  6
CONTINUOUS
 10
-0.1476249523
 20
-2.900252432
 11
0.1875429297
 21
-2.0919904133
  0
LINE
  5
436
100
AcDbEntity
  8
0
100
AcDbLine
 62
7
  6
CONTINUOUS
 10
0.5514394874
 20
-1.2144487931
 11
0.8866073694
 21
-0.4061867744
  0
LINE
  5
437
100
AcDbEntity
  8
0
100
AcDbLine
 62
7
  6
CONTINUOUS
 10
1.169832384
 20
-1.7429612503
 11
0.9984769276
 21
-2.1561873214
  0
LINE
  5
438
100
AcDbEntity
  8
0
100
AcDbLine
 62
7
  6
CONTINUOUS
 10
1.0175441872
 20
-2.202271331
 11
1.2159163936
 21
-1.7238939907
  0
LINE
  5
439
100
AcDbEntity
  8
0
100
AcDbLine
 62
7
  6
CONTINUOUS
 10
0.3383747733
 20
-1.359997433
 11
0.4211369491
 21
-1.1604152931
  0
LINE
  5
43A
100
AcDbEntity
  8
0
100
AcDbLine
 62
250
  6
CONTINUOUS
 10
-9.9606088281
 20
-16.4160543412
 11
-10.0000000051
 21
-16.4752115737
  0
LINE
  5
43B
100
AcDbEntity
  8
0
100
AcDbLine
 62
7
  6
CONTINUOUS
 10
-0.8775416203
 20
-1.1361034423
 11
-1.2159163936
 21
-1.2761060093
  0
LINE
  5
43C
100
AcDbEntity
  8
0
100
AcDbLine
 62
7
  6
CONTINUOUS
 10
0.3638965577
 20
-0.6224583797
 11
0.8866073694
 21
-0.4061867744
  0
LINE
  5
43D
100
AcDbEntity
  8
0
100
AcDbLine
 62
7
  6
CONTINUOUS
 10
-0.3383747733
 20
-1.640002567
 11
0.3383747733
 21
-1.359997433
  0
LWPOLYLINE
  5
43E
100
AcDbEntity
  8
0
100
AcDbPolyline
 62
7
  6
CONTINUOUS
 90
43
 70
0
 10
-0.0000000002
 20
1.7876866087
 10
0.2092622558
 20
1.7809521589
 10
0.4162708574
 20
1.7611611576
 10
0.6210258045
 20
1.7283142275
 10
0.8243772706
 20
1.6822086982
 10
1.0254750821
 20
1.6230497587
 10
1.2217687193
 20
1.5514503691
 10
1.4133932541
 20
1.4670557153
 10
1.6002136146
 20
1.370225522
 10
1.7792740647
 20
1.262644696
 10
1.9499303842
 20
1.1445887617
 10
2.1128267934
 20
1.0157885435
 10
2.2669402171
 20
0.8771117497
 10
2.4125811277
 20
0.7282159047
 10
2.5494390529
 20
0.5694515658
 10
2.6755595002
 20
0.4027254324
 10
2.7908267217
 20
0.2277156517
 10
2.8953564654
 20
0.0447525336
 10
2.9875414828
 20
-0.1432808351
 10
3.0670277581
 20
-0.3360269629
 10
3.134169307
 20
-0.5338366932
 10
3.1884209294
 20
-0.7348917369
 10
3.2297411938
 20
-0.9395054638
 10
3.2581715316
 20
-1.1473589182
 10
3.2732910368
 20
-1.3556880269
 10
3.2749352353
 20
-1.5643206297
 10
3.2632686012
 20
-1.7734267485
 10
3.2383636501
 20
-1.9807588969
 10
3.2000319558
 20
-2.1864941791
 10
3.1484619446
 20
-2.3904563309
 10
3.0842914112
 20
-2.5898713427
 10
3.0075963081
 20
-2.7843299333
 10
2.9183006827
 20
-2.974246536
 10
2.8168144726
 20
-3.158085735
 10
2.7024927939
 20
-3.3364870746
 10
2.5759805304
 20
-3.5088177548
 10
2.4396222707
 20
-3.6716370573
 10
2.2933036079
 20
-3.8244162349
 10
2.1371389488
 20
-3.9676949642
 10
1.9738161022
 20
-4.0996380608
 10
1.8042310043
 20
-4.2196378554
 10
1.6274877188
 20
-4.3283130425
 10
1.4435862459
 20
-4.4256683859
  0
LWPOLYLINE
  5
43F
100
AcDbEntity
  8
0
100
AcDbPolyline
 62
7
  6
CONTINUOUS
 90
43
 70
0
 10
-0.0000000001
 20
1.779047661
 10
0.2094868991
 20
1.7722072195
 10
0.416490474
 20
1.7523638283
 10
0.6210107244
 20
1.7195181124
 10
0.8238175673
 20
1.6734679017
 10
1.0241410858
 20
1.6144178868
 10
1.2196715293
 20
1.542979531
 10
1.4103921909
 20
1.4590146474
 10
1.5963197776
 20
1.362666293
 10
1.7751946601
 20
1.2549680896
 10
1.9472921818
 20
1.1353143487
 10
2.1123369993
 20
1.0043177128
 10
2.2672434531
 20
0.8648386877
 10
2.4111227058
 20
0.7174526874
 10
2.5448635949
 20
0.561591109
 10
2.6680469725
 20
0.3983974032
 10
2.7808564666
 20
0.2277852028
 10
2.8831084493
 20
0.0498484831
 10
2.9738328893
 20
-0.1339996027
 10
3.0531031183
 20
-0.3243698618
 10
3.1208458046
 20
-0.5206437014
 10
3.1758709217
 20
-0.7195661652
 10
3.2178645372
 20
-0.9205419573
 10
3.2471405835
 20
-1.124161987
 10
3.2634508311
 20
-1.3289533257
 10
3.2667318478
 20
-1.5353894364
 10
3.2570470657
 20
-1.7429935778
 10
3.2343385516
 20
-1.948870383
 10
3.1983438162
 20
-2.1529984902
 10
3.1493253488
 20
-2.3554001428
 10
3.0880126847
 20
-2.5532493677
 10
3.0143480454
 20
-2.7462341857
 10
2.9283892094
 20
-2.9346716778
 10
2.8310390473
 20
-3.1166827332
 10
2.7222405927
 20
-3.2922534108
 10
2.602050812
 20
-3.4614050889
 10
2.4715434748
 20
-3.622313999
 10
2.330263601
 20
-3.7751757983
 10
2.1786661707
 20
-3.9198039121
 10
2.019189894
 20
-4.0538034899
 10
1.8526476741
 20
-4.1763802783
 10
1.6782266077
 20
-4.2883391132
 10
1.4959266949
 20
-4.3896845898
  0
LINE
  5
440
100
AcDbEntity
  8
0
100
AcDbLine
 62
250
  6
CONTINUOUS
 10
-10.0000000016
 20
16.4752210225
 11
-9.770584862
 21
16.130968792
  0
LWPOLYLINE
  5
441
100
AcDbEntity
  8
0
100
AcDbPolyline
 62
7
  6
CONTINUOUS
 90
10
 70
0
 10
-6.6153792176
 20
12.1252366749
 10
-6.562077866
 20
12.0358986484
 10
-6.5058446087
 20
11.9486742812
 10
-6.4466794455
 20
11.8635635732
 10
-6.3845036525
 20
11.7804672973
 10
-6.3193959537
 20
11.6994846807
 10
-6.2515925212
 20
11.6209134047
 10
-6.1811720791
 20
11.5448526964
 10
-6.1080559034
 20
11.4712033287
 10
-6.032243994
 20
11.3999653016
  0
LINE
  5
442
100
AcDbEntity
  8
ASSI
100
AcDbLine
 62
7
  6
CONTINUOUS
 10
-6.9712561167
 20
21.2139629885
 11
-6.9576125104
 21
21.1771527675
  0
LINE
  5
443
100
AcDbEntity
  8
DRAFT
100
AcDbLine
 62
7
  6
CONTINUOUS
 10
-6.9712561167
 20
21.2139629885
 11
-6.9576125104
 21
21.1771527675
  0
LWPOLYLINE
  5
444
100
AcDbEntity
  8
0
100
AcDbPolyline
 62
7
  6
CONTINUOUS
 90
19
 70
0
 10
1.0135515639
 20
4.5759080542
 10
1.0260108959
 20
4.5024267738
 10
1.0507968188
 20
4.4062072725
 10
1.0821143247
 20
4.3157452691
 10
1.1182853185
 20
4.2327029407
 10
1.1587987761
 20
4.1557675143
 10
1.2053085576
 20
4.0811819703
 10
1.2582909599
 20
4.0087588791
 10
1.3171870392
 20
3.93979118
 10
1.3832516878
 20
3.8734996742
 10
1.4574068667
 20
3.8100926228
 10
1.5388957401
 20
3.7513085157
 10
1.6264545629
 20
3.6987713607
 10
1.7208849982
 20
3.6526876075
 10
1.8205398232
 20
3.6145133377
 10
1.9196611789
 20
3.5861785276
 10
2.0155246006
 20
3.5672758218
 10
2.1089889216
 20
3.5565155208
 10
2.1993809797
 20
3.5531260592
  0
LINE
  5
445
100
AcDbEntity
  8
ASSI
100
AcDbLine
 62
7
  6
CONTINUOUS
 10
2.8272050914
 20
19.6414213562
 11
2.8366556363
 21
19.1
  0
LINE
  5
446
100
AcDbEntity
  8
SMUSSO
100
AcDbLine
 62
7
  6
CONTINUOUS
 10
2.8272050914
 20
19.6414213562
 11
2.8366556363
 21
19.1
  0
LINE
  5
447
100
AcDbEntity
  8
ASSI
100
AcDbLine
 62
7
  6
CONTINUOUS
 10
3.0983838146
 20
-21.349698412
 11
3.1
 21
-22.4
  0
LINE
  5
448
100
AcDbEntity
  8
RACCORDO
100
AcDbLine
 62
7
  6
CONTINUOUS
 10
3.0983838146
 20
-21.349698412
 11
3.1
 21
-22.4
  0
LINE
  5
449
100
AcDbEntity
  8
0
100
AcDbLine
 62
7
  6
CONTINUOUS
 10
2.2000249147
 20
-7.9665036166
 11
2.2000878081
 21
-8.0217928666
  0
LINE
  5
44A
100
AcDbEntity
  8
0
100
AcDbLine
 62
7
  6
CONTINUOUS
 10
2.1993809797
 20
3.224306217
 11
2.1993809797
 21
3.5531260536
  0
LINE
  5
44B
100
AcDbEntity
  8
0
100
AcDbLine
 62
7
  6
CONTINUOUS
 10
2.1993809797
 20
4.5751011834
 11
2.1993809797
 21
4.9044827207
  0
LINE
  5
44C
100
AcDbEntity
  8
0
100
AcDbLine
 62
7
  6
CONTINUOUS
 10
2.1993809797
 20
5.9282999858
 11
2.1993809797
 21
6.2582493006
  0
LINE
  5
44D
100
AcDbEntity
  8
0
100
AcDbLine
 62
250
  6
CONTINUOUS
 10
2.5438222418
 20
-14.0
 11
2.5441267026
 21
-8.1475077334
  0
LINE
  5
44E
100
AcDbEntity
  8
ASSI
100
AcDbLine
 62
7
  6
CONTINUOUS
 10
3.0983838146
 20
21.349698412
 11
3.1
 21
22.4
  0
LINE
  5
44F
100
AcDbEntity
  8
RACCORDO
100
AcDbLine
 62
7
  6
CONTINUOUS
 10
3.0983838146
 20
21.349698412
 11
3.1
 21
22.4
  0
LINE
  5
450
100
AcDbEntity
  8
ASSI
100
AcDbLine
 62
7
  6
CONTINUOUS
 10
2.8183264224
 20
-19.1
 11
2.8136015098
 21
-19.6414213562
  0
LINE
  5
451
100
AcDbEntity
  8
SMUSSO
100
AcDbLine
 62
7
  6
CONTINUOUS
 10
2.8183264224
 20
-19.1
 11
2.8136015098
 21
-19.6414213562
  0
LINE
  5
452
100
AcDbEntity
  8
ASSI
100
AcDbLine
 62
7
  6
CONTINUOUS
 10
-3.9733373476
 20
-23.5
 11
-3.9630152422
 21
-23.4650925288
  0
LINE
  5
453
100
AcDbEntity
  8
DRAFT
100
AcDbLine
 62
7
  6
CONTINUOUS
 10
-3.9733373476
 20
-23.5
 11
-3.9630152422
 21
-23.4650925288
  0
LINE
  5
454
100
AcDbEntity
  8
ASSI
100
AcDbLine
 62
7
  6
CONTINUOUS
 10
-3.0104834329
 20
-22.3955695989
 11
-2.6848155072
 21
-21.3292298715
  0
LINE
  5
455
100
AcDbEntity
  8
RACCORDO
100
AcDbLine
 62
7
  6
CONTINUOUS
 10
-3.0104834329
 20
-22.3955695989
 11
-2.6848155072
 21
-21.3292298715
  0
LINE
  5
456
100
AcDbEntity
  8
0
100
AcDbLine
 62
250
  6
CONTINUOUS
 10
-9.0002916983
 20
-17.4750000012
 11
-8.960761811
 21
-17.4156773035
  0
LWPOLYLINE
  5
457
100
AcDbEntity
  8
0
100
AcDbPolyline
 62
7
  6
CONTINUOUS
 90
10
 70
0
 10
-7.4698455461
 20
-7.6670970343
 10
-7.7072440155
 20
-7.7829783597
 10
-7.7583263549
 20
-7.8076466211
 10
-7.8061720347
 20
-7.8303355682
 10
-7.8508603229
 20
-7.8510062896
 10
-7.8924336799
 20
-7.8696976967
 10
-7.9308914719
 20
-7.8862915368
 10
-7.9662982661
 20
-7.9007483921
 10
-7.9987682138
 20
-7.9131076802
 10
-8.0283937825
 20
-7.9233694013
  0
LINE
  5
458
100
AcDbEntity
  8
0
100
AcDbLine
 62
7
  6
CONTINUOUS
 10
-0.8866073694
 20
-2.5938132256
 11
-0.3638965577
 21
-2.3775416203
  0
LINE
  5
459
100
AcDbEntity
  8
0
100
AcDbLine
 62
7
  6
CONTINUOUS
 10
0.8775416203
 20
-1.8638965577
 11
1.2159163936
 21
-1.7238939907
  0
LWPOLYLINE
  5
45A
100
AcDbEntity
  8
0
100
AcDbPolyline
 62
7
  6
CONTINUOUS
 90
19
 70
0
 10
2.1993809797
 20
3.5242754946
 10
2.1071264573
 20
3.5278204444
 10
2.013951257
 20
3.5386839776
 10
1.9204651974
 20
3.557141871
 10
1.826816464
 20
3.5835891347
 10
1.7342488517
 20
3.6181120366
 10
1.6449441502
 20
3.6600728626
 10
1.5596295997
 20
3.7090808027
 10
1.4787146836
 20
3.7648432147
 10
1.4035661335
 20
3.8262107064
 10
1.3349727264
 20
3.8920488143
 10
1.2725964343
 20
3.9621595539
 10
1.2160326207
 20
4.0367227361
 10
1.1658616123
 20
4.1147688624
 10
1.1219763472
 20
4.1962407054
 10
1.0835985856
 20
4.2831043822
 10
1.0512313766
 20
4.3758993388
 10
1.0260417898
 20
4.4734075313
 10
1.0087928897
 20
4.5751011834
  0
LWPOLYLINE
  5
45B
100
AcDbEntity
  8
0
100
AcDbPolyline
 62
7
  6
CONTINUOUS
 90
21
 70
0
 10
-0.4231118221
 20
3.5242754946
 10
-0.5187658036
 20
3.528095718
 10
-0.6140430181
 20
3.5395665694
 10
-0.7083274036
 20
3.5586707498
 10
-0.8010302708
 20
3.585351842
 10
-0.8915073161
 20
3.6194873131
 10
-0.9790712957
 20
3.6608660763
 10
-1.0632967295
 20
3.7093558214
 10
-1.1434397513
 20
3.7645959378
 10
-1.2184615574
 20
3.8258120976
 10
-1.2876254571
 20
3.8921772027
 10
-1.3509515227
 20
3.9634674697
 10
-1.4085625525
 20
4.0397667407
 10
-1.4601892654
 20
4.1208768253
 10
-1.5052716226
 20
4.2060945064
 10
-1.5434335678
 20
4.2948016905
 10
-1.5743995185
 20
4.3864614907
 10
-1.5979276863
 20
4.4804826392
 10
-1.6138124346
 20
4.5761122964
 10
-1.6219447301
 20
4.6726644286
 10
-1.6230974339
 20
4.7252813555
  0
LWPOLYLINE
  5
45C
100
AcDbEntity
  8
0
100
AcDbPolyline
 62
7
  6
CONTINUOUS
 90
21
 70
0
 10
2.1993809797
 20
3.2243062185
 10
2.0763353518
 20
3.2297599612
 10
1.9561494164
 20
3.2444233674
 10
1.8388231734
 20
3.2682967105
 10
1.7239510254
 20
3.3015291535
 10
1.6119385698
 20
3.3439725959
 10
1.5040025991
 20
3.3951816287
 10
1.399641344
 20
3.4557506495
 10
1.2993565738
 20
3.5250872204
 10
1.2058703894
 20
3.6009655471
 10
1.1198035264
 20
3.6828412414
 10
1.0405352492
 20
3.7712605502
 10
0.9689254522
 20
3.8656333249
 10
0.905004883
 20
3.9656730127
 10
0.8487427939
 20
4.0716681402
 10
0.8009068363
 20
4.1838911881
 10
0.7609387136
 20
4.3044019274
 10
0.7293967222
 20
4.4311432008
 10
0.7087234033
 20
4.558210895
 10
0.6999660476
 20
4.6843887912
 10
0.699494929
 20
4.7259826359
  0
LINE
  5
45D
100
AcDbEntity
  8
0
100
AcDbLine
 62
7
  6
CONTINUOUS
 10
-10.0304838684
 20
16.5129307457
 11
-10.0001981342
 21
16.4754009586
  0
LINE
  5
45E
100
AcDbEntity
  8
0
100
AcDbLine
 62
250
  6
CONTINUOUS
 10
-8.8034371041
 20
17.179661279
 11
-9.0003045923
 21
17.475
  0
LINE
  5
45F
100
AcDbEntity
  8
ASSI
100
AcDbLine
 62
7
  6
CONTINUOUS
 10
-2.6848155072
 20
21.3292298715
 11
-3.0104834329
 21
22.3955695989
  0
LINE
  5
460
100
AcDbEntity
  8
RACCORDO
100
AcDbLine
 62
7
  6
CONTINUOUS
 10
-2.6848155072
 20
21.3292298715
 11
-3.0104834329
 21
22.3955695989
  0
LINE
  5
461
100
AcDbEntity
  8
ASSI
100
AcDbLine
 62
7
  6
CONTINUOUS
 10
-3.9733373476
 20
23.5
 11
-3.9630152422
 21
23.4650925288
  0
LINE
  5
462
100
AcDbEntity
  8
DRAFT
100
AcDbLine
 62
7
  6
CONTINUOUS
 10
-3.9733373476
 20
23.5
 11
-3.9630152422
 21
23.4650925288
  0
LINE
  5
463
100
AcDbEntity
  8
ASSI
100
AcDbLine
 62
7
  6
CONTINUOUS
 10
3.4452396157
 20
21.2139629885
 11
3.3821231691
 21
22.4
  0
LINE
  5
464
100
AcDbEntity
  8
DRAFT
100
AcDbLine
 62
7
  6
CONTINUOUS
 10
3.4452396157
 20
21.2139629885
 11
3.3821231691
 21
22.4
  0
LINE
  5
465
100
AcDbEntity
  8
0
100
AcDbLine
 62
250
  6
CONTINUOUS
 10
5.1996657595
 20
-7.4392245156
 11
5.1998541392
 21
-8.1265614695
  0
LINE
  5
466
100
AcDbEntity
  8
0
100
AcDbLine
 62
250
  6
CONTINUOUS
 10
4.0
 20
10.6220075426
 11
4.0
 21
10.6134313985
  0
LINE
  5
467
100
AcDbEntity
  8
0
100
AcDbLine
 62
250
  6
CONTINUOUS
 10
4.0
 20
10.85
 11
3.9999999996
 21
10.95
  0
LINE
  5
468
100
AcDbEntity
  8
0
100
AcDbLine
 62
7
  6
CONTINUOUS
 10
5.35
 20
-1.8739346322
 11
5.35
 21
-1.8385806641
  0
LWPOLYLINE
  5
469
100
AcDbEntity
  8
0
100
AcDbPolyline
 62
7
  6
CONTINUOUS
 90
22
 70
0
 10
4.2500000102
 20
-1.8484684781
 10
4.2539516235
 20
-1.7315571107
 10
4.2678704845
 20
-1.6005315898
 10
4.2919005589
 20
-1.4702005961
 10
4.3263100653
 20
-1.3405535646
 10
4.3709392541
 20
-1.2132231903
 10
4.4243540195
 20
-1.0917626553
 10
4.4846859133
 20
-0.9785124228
 10
4.5519424055
 20
-0.871863625
 10
4.6274522489
 20
-0.7694721993
 10
4.7117041373
 20
-0.671262276
 10
4.8038380825
 20
-0.5787775833
 10
4.9037430377
 20
-0.4925338082
 10
5.011837518
 20
-0.4127220945
 10
5.1269783793
 20
-0.340710695
 10
5.2463360188
 20
-0.2783105068
 10
5.3682973024
 20
-0.2259577914
 10
5.4927783197
 20
-0.1832928306
 10
5.618942092
 20
-0.1503234264
 10
5.7460028545
 20
-0.12697528
 10
5.8732342115
 20
-0.113107222
 10
5.999926461
 20
-0.1085307652
  0
LINE
  5
46A
100
AcDbEntity
  8
ASSI
100
AcDbLine
 62
7
  6
CONTINUOUS
 10
3.4452396157
 20
-21.2139629885
 11
3.3821231691
 21
-22.4
  0
LINE
  5
46B
100
AcDbEntity
  8
DRAFT
100
AcDbLine
 62
7
  6
CONTINUOUS
 10
3.4452396157
 20
-21.2139629885
 11
3.3821231691
 21
-22.4
  0
LWPOLYLINE
  5
46C
100
AcDbEntity
  8
0
100
AcDbPolyline
 62
250
  6
CONTINUOUS
 90
5
 70
0
 10
6.5477592395
 20
14.7286826281
 10
6.5288244377
 20
14.59712825
 10
6.5151749652
 20
14.4649996
 10
6.5055668209
 20
14.332536508
 10
6.5000000047
 20
14.2000000015
  0
LWPOLYLINE
  5
46D
100
AcDbEntity
  8
0
100
AcDbPolyline
 62
7
  6
CONTINUOUS
 90
5
 70
0
 10
6.6995828521
 20
15.7760534563
 10
6.6995282277
 20
15.7756780665
 10
6.6994593189
 20
15.7739552443
 10
6.6993970961
 20
15.7708581039
 10
6.6992955446
 20
15.7607381856
  0
LINE
  5
46E
100
AcDbEntity
  8
0
100
AcDbLine
 62
7
  6
CONTINUOUS
 10
-2.2000778031
 20
-8.0217928658
 11
-2.2067352217
 21
-8.0287036929
  0
LINE
  5
46F
100
AcDbEntity
  8
0
100
AcDbLine
 62
250
  6
CONTINUOUS
 10
-9.999935791
 20
-16.4752115737
 11
-10.0304838637
 21
-16.5057841622
  0
LINE
  5
470
100
AcDbEntity
  8
0
100
AcDbLine
 62
7
  6
CONTINUOUS
 10
-1.7945598468
 20
-8.1222219322
 11
-1.7601099081
 21
-8.0877767119
  0
LWPOLYLINE
  5
471
100
AcDbEntity
  8
0
100
AcDbPolyline
 62
7
  6
CONTINUOUS
 90
10
 70
0
 10
1.4959266949
 20
-4.3896845898
 10
1.3388272698
 20
-4.4652386504
 10
1.1790466377
 20
-4.5319193879
 10
1.0165847986
 20
-4.58978438
 10
0.8509050272
 20
-4.6390236322
 10
0.6825440487
 20
-4.6795663967
 10
0.5131120389
 20
-4.7110804205
 10
0.3431457231
 20
-4.733484868
 10
0.1721083759
 20
-4.7469447703
 10
-0.0000000027
 20
-4.7514824768
  0
LINE
  5
472
100
AcDbEntity
  8
0
100
AcDbLine
 62
7
  6
CONTINUOUS
 10
-7.941081368
 20
-7.8611364802
 11
-7.6551380918
 21
-7.7285433448
  0
LWPOLYLINE
  5
473
100
AcDbEntity
  8
0
100
AcDbPolyline
 62
7
  6
CONTINUOUS
 90
10
 70
0
 10
1.4435862459
 20
-4.4256564834
 10
1.2911600642
 20
-4.4955790011
 10
1.1364108828
 20
-4.5572826426
 10
0.9793387019
 20
-4.6108147993
 10
0.8195036185
 20
-4.656321997
 10
0.6573455354
 20
-4.6937525971
 10
0.4941841612
 20
-4.7228560372
 10
0.3304593987
 20
-4.7435714325
 10
0.1657313449
 20
-4.7560239236
 10
0.0
 20
-4.7602305002
  0
LWPOLYLINE
  5
474
100
AcDbEntity
  8
0
100
AcDbPolyline
 62
7
  6
CONTINUOUS
 90
8
 70
0
 10
-7.6551380918
 20
-7.7285433448
 10
-7.5203771216
 20
-7.6669814842
 10
-7.4484773785
 20
-7.6347901087
 10
-7.3733393702
 20
-7.6017194172
 10
-7.2951595714
 20
-7.5679283741
 10
-7.2144405504
 20
-7.5338414512
 10
-7.1310694995
 20
-7.4995664898
 10
-7.0414729275
 20
-7.4637740308
  0
LWPOLYLINE
  5
475
100
AcDbEntity
  8
0
100
AcDbPolyline
 62
7
  6
CONTINUOUS
 90
5
 70
0
 10
-7.1009313081
 20
-7.4941718681
 10
-7.1804472257
 20
-7.5301958153
 10
-7.2571933096
 20
-7.5655829454
 10
-7.3310974129
 20
-7.6002916439
 10
-7.4698455461
 20
-7.6670970343
  0
LINE
  5
476
100
AcDbEntity
  8
0
100
AcDbLine
 62
7
  6
CONTINUOUS
 10
-7.0192385589
 20
-7.4583375025
 11
-7.1009313081
 21
-7.4941718681
  0
LWPOLYLINE
  5
477
100
AcDbEntity
  8
0
100
AcDbPolyline
 62
7
  6
CONTINUOUS
 90
5
 70
0
 10
-8.1214969022
 20
-7.9398015683
 10
-8.0802662924
 20
-7.9227710421
 10
-8.036441759
 20
-7.9039198683
 10
-7.9900233019
 20
-7.8833421496
 10
-7.941081368
 20
-7.8611364802
  0
LWPOLYLINE
  5
478
100
AcDbEntity
  8
0
100
AcDbPolyline
 62
7
  6
CONTINUOUS
 90
42
 70
0
 10
-7.0414729275
 20
-7.4637740308
 10
-6.9575507222
 20
-7.4313244651
 10
-6.8683153576
 20
-7.3980674144
 10
-6.7773817622
 20
-7.365520171
 10
-6.6853768165
 20
-7.3340336136
 10
-6.5922819864
 20
-7.3037619616
 10
-6.4981158059
 20
-7.2747982196
 10
-6.4035607579
 20
-7.2474128738
 10
-6.3085984184
 20
-7.2217546907
 10
-6.2132472113
 20
-7.1978839554
 10
-6.1182448911
 20
-7.1759345982
 10
-6.0235841792
 20
-7.1560304898
 10
-5.9292723541
 20
-7.1382039536
 10
-5.8360690055
 20
-7.1224374681
 10
-5.744291609
 20
-7.1088218238
 10
-5.6536226891
 20
-7.0973664334
 10
-5.5638694083
 20
-7.0879143229
 10
-5.4751569586
 20
-7.0804444026
 10
-5.387360148
 20
-7.0750280601
 10
-5.2999105638
 20
-7.0716339365
 10
-5.2129156278
 20
-7.0702494041
 10
-5.1262679181
 20
-7.0709008093
 10
-5.039076756
 20
-7.0736060492
 10
-4.9512671707
 20
-7.0783235881
 10
-4.8629141329
 20
-7.0850734421
 10
-4.7733518761
 20
-7.0939556299
 10
-4.682237295
 20
-7.1049396608
 10
-4.5899134949
 20
-7.1179934857
 10
-4.4967440255
 20
-7.1332007304
 10
-4.4026291037
 20
-7.1505344065
 10
-4.3076685124
 20
-7.1699082237
 10
-4.2125251502
 20
-7.1913005815
 10
-4.117179879
 20
-7.2146668561
 10
-4.0216518369
 20
-7.239882625
 10
-3.9266613356
 20
-7.2667937955
 10
-3.8322184106
 20
-7.295332475
 10
-3.7383130264
 20
-7.3253456411
 10
-3.645635389
 20
-7.3565494917
 10
-3.554132668
 20
-7.3888800606
 10
-3.4638576937
 20
-7.4221428245
 10
-3.3756591627
 20
-7.4558801334
 10
-3.3573871637
 20
-7.463022898
  0
LWPOLYLINE
  5
479
100
AcDbEntity
  8
0
100
AcDbPolyline
 62
7
  6
CONTINUOUS
 90
4
 70
0
 10
-8.1624244799
 20
-7.9557754105
 10
-8.1427442262
 20
-7.9482196296
 10
-8.1322875862
 20
-7.9441233313
 10
-8.1214969022
 20
-7.9398015683
  0
LINE
  5
47A
100
AcDbEntity
  8
0
100
AcDbLine
 62
7
  6
CONTINUOUS
 10
1.0087928897
 20
4.5751011834
 11
2.1993809797
 21
4.5751011834
  0
LINE
  5
47B
100
AcDbEntity
  8
0
100
AcDbLine
 62
7
  6
CONTINUOUS
 10
2.1993809797
 20
4.8756040284
 11
1.0087928897
 21
4.8756040284
  0
LINE
  5
47C
100
AcDbEntity
  8
0
100
AcDbLine
 62
7
  6
CONTINUOUS
 10
1.0087928897
 20
4.9044827207
 11
2.1993809797
 21
4.9044827207
  0
LWPOLYLINE
  5
47D
100
AcDbEntity
  8
0
100
AcDbPolyline
 62
7
  6
CONTINUOUS
 90
13
 70
0
 10
-6.0322396372
 20
11.3999797167
 10
-5.8899089632
 20
11.2784024169
 10
-5.7417885398
 20
11.1666177135
 10
-5.587878367
 20
11.0646256752
 10
-5.4276337326
 20
10.9721766113
 10
-5.2615993489
 20
10.889520213
 10
-5.0914093526
 20
10.8174055567
 10
-4.9170999299
 20
10.7558658672
 10
-4.7386348948
 20
10.70486777
 10
-4.5575398263
 20
10.6650604164
 10
-4.3743232508
 20
10.6366601428
 10
-4.1884766421
 20
10.6194504822
 10
-4.0
 20
10.6134313985
  0
LWPOLYLINE
  5
47E
100
AcDbEntity
  8
0
100
AcDbPolyline
 62
7
  6
CONTINUOUS
 90
16
 70
0
 10
-6.0210822744
 20
11.4000009386
 10
-6.1416544749
 20
11.5156474947
 10
-6.2552777974
 20
11.6372433519
 10
-6.361952242
 20
11.7647885101
 10
-6.4620595607
 20
11.8987672321
 10
-6.5552180014
 20
12.0386952552
 10
-6.6402823084
 20
12.1831197912
 10
-6.7171260419
 20
12.3320036732
 10
-6.7858756417
 20
12.4853840682
 10
-6.8457651706
 20
12.6419196891
 10
-6.8966675539
 20
12.8014879926
 10
-6.9387098665
 20
12.964211522
 10
-6.9715073956
 20
13.1291166207
 10
-6.9949319037
 20
13.2958787365
 10
-7.0091116285
 20
13.4648224216
 10
-7.0140465698
 20
13.635947676
  0
LWPOLYLINE
  5
47F
100
AcDbEntity
  8
0
100
AcDbPolyline
 62
7
  6
CONTINUOUS
 90
9
 70
0
 10
9.844228919
 20
-7.7507583503
 10
9.8401238605
 20
-7.7438571082
 10
9.8360634266
 20
-7.7232976245
 10
9.8320476176
 20
-7.6890798993
 10
9.8280628471
 20
-7.6409681233
 10
9.8241227013
 20
-7.5791981057
 10
9.8202679391
 20
-7.5044772742
 10
9.8164994716
 20
-7.4166846162
 10
9.8128163876
 20
-7.3159411443
  0
LINE
  5
480
100
AcDbEntity
  8
0
100
AcDbLine
 62
7
  6
CONTINUOUS
 10
9.9351102369
 20
-7.9318934925
 11
9.844228919
 21
-7.7507583503
  0
LINE
  5
481
100
AcDbEntity
  8
0
100
AcDbLine
 62
250
  6
CONTINUOUS
 10
9.5945160585
 20
-8.0000000743
 11
9.6737394077
 21
-8.1588829814
  0
LINE
  5
482
100
AcDbEntity
  8
ASSI
100
AcDbLine
 62
7
  6
CONTINUOUS
 10
7.2322076372
 20
-20.9330083283
 11
7.2084845302
 21
-20.1483339502
  0
LINE
  5
483
100
AcDbEntity
  8
DRAFT
100
AcDbLine
 62
7
  6
CONTINUOUS
 10
7.2322076372
 20
-20.9330083283
 11
7.2084845302
 21
-20.1483339502
  0
LINE
  5
484
100
AcDbEntity
  8
ASSI
100
AcDbLine
 62
7
  6
CONTINUOUS
 10
6.0830351795
 20
19.1
 11
6.0856534392
 21
18.95
  0
LINE
  5
485
100
AcDbEntity
  8
DRAFT
100
AcDbLine
 62
7
  6
CONTINUOUS
 10
6.0830351795
 20
19.1
 11
6.0856534392
 21
18.95
  0
LWPOLYLINE
  5
486
100
AcDbEntity
  8
0
100
AcDbPolyline
 62
7
  6
CONTINUOUS
 90
56
 70
0
 10
6.7999999947
 20
15.6760608303
 10
6.7999600231
 20
15.6787758659
 10
6.7997866169
 20
15.6823864593
 10
6.7994850662
 20
15.6859206156
 10
6.7990634945
 20
15.6893844671
 10
6.7985300577
 20
15.6927738688
 10
6.7978921733
 20
15.6960873605
 10
6.7971534284
 20
15.6993374117
 10
6.7963204793
 20
15.7025177832
 10
6.7953975002
 20
15.705631573
 10
6.7943799383
 20
15.7087045453
 10
6.7932669603
 20
15.7117423518
 10
6.7920635796
 20
15.7147337774
 10
6.7907714772
 20
15.7176774824
 10
6.7893922071
 20
15.7205718574
 10
6.7879287393
 20
15.7234122774
 10
6.7863853361
 20
15.7261923888
 10
6.784765785
 20
15.7289076223
 10
6.7830718631
 20
15.7315570414
 10
6.7813052516
 20
15.7341395489
 10
6.7794688944
 20
15.736652134
 10
6.7775654021
 20
15.7390924487
 10
6.7755960725
 20
15.7414597989
 10
6.7735621461
 20
15.7437533017
 10
6.7714683504
 20
15.7459683
 10
6.7693214219
 20
15.7480989614
 10
6.7671260725
 20
15.7501434688
 10
6.7648857512
 20
15.7521029934
 10
6.7626052092
 20
15.7539775954
 10
6.7602926293
 20
15.7557648482
 10
6.7579478143
 20
15.7574689369
 10
6.7555620318
 20
15.7590989131
 10
6.7531309944
 20
15.7606590259
 10
6.7506652293
 20
15.7621437822
 10
6.7481788271
 20
15.7635469601
 10
6.7456738951
 20
15.7648700606
 10
6.7431565841
 20
15.7661124868
 10
6.7406501522
 20
15.7672664396
 10
6.7381720822
 20
15.7683290174
 10
6.7357163469
 20
15.7693079336
 10
6.7332757347
 20
15.7702100682
 10
6.7308745004
 20
15.7710307231
 10
6.7285029733
 20
15.7717777135
 10
6.7261121994
 20
15.7724683942
 10
6.7237017352
 20
15.7731028077
 10
6.7212966724
 20
15.773675291
 10
6.718894964
 20
15.7741882387
 10
6.7165040289
 20
15.7746422619
 10
6.7141402945
 20
15.7750371366
 10
6.7118264762
 20
15.7753725859
 10
6.7096431833
 20
15.7756424359
 10
6.7075576347
 20
15.7758561796
 10
6.7055060829
 20
15.7760176047
 10
6.7035562398
 20
15.7761099117
 10
6.7018285824
 20
15.7761252448
 10
6.7003907362
 20
15.776071229
  0
LINE
  5
487
100
AcDbEntity
  8
0
100
AcDbLine
 62
7
  6
CONTINUOUS
 10
7.0119850067
 20
14.9771008593
 11
7.0071183487
 21
15.603391119
  0
LINE
  5
488
100
AcDbEntity
  8
0
100
AcDbLine
 62
7
  6
CONTINUOUS
 10
7.0140517224
 20
13.9637407764
 11
7.0157496984
 21
13.6342197541
  0
LINE
  5
489
100
AcDbEntity
  8
0
100
AcDbLine
 62
7
  6
CONTINUOUS
 10
7.0119617415
 20
15.1040817703
 11
7.0110982073
 21
15.3113620913
  0
LINE
  5
48A
100
AcDbEntity
  8
0
100
AcDbLine
 62
7
  6
CONTINUOUS
 10
5.75
 20
-2.1221348147
 11
5.75
 21
-2.9397891191
  0
LINE
  5
48B
100
AcDbEntity
  8
0
100
AcDbLine
 62
250
  6
CONTINUOUS
 10
5.9999842656
 20
-3.54867933
 11
5.9999842656
 21
-3.5840259188
  0
LINE
  5
48C
100
AcDbEntity
  8
0
100
AcDbLine
 62
7
  6
CONTINUOUS
 10
6.0
 20
-0.719829218
 11
5.9999999503
 21
-0.7551928801
  0
LINE
  5
48D
100
AcDbEntity
  8
0
100
AcDbLine
 62
7
  6
CONTINUOUS
 10
6.25
 20
-2.9397891191
 11
6.25
 21
-2.1221348148
  0
LINE
  5
48E
100
AcDbEntity
  8
0
100
AcDbLine
 62
250
  6
CONTINUOUS
 10
6.500000005
 20
13.6500005748
 11
6.5000000047
 21
14.2000000551
  0
LINE
  5
48F
100
AcDbEntity
  8
0
100
AcDbLine
 62
7
  6
CONTINUOUS
 10
6.65
 20
-1.8385806641
 11
6.65
 21
-1.8739346322
  0
LINE
  5
490
100
AcDbEntity
  8
0
100
AcDbLine
 62
7
  6
CONTINUOUS
 10
6.8
 20
14.6989234078
 11
6.8
 21
15.6760299388
  0
LINE
  5
491
100
AcDbEntity
  8
0
100
AcDbLine
 62
7
  6
CONTINUOUS
 10
7.0140471344
 20
13.6352292997
 11
7.0140517224
 21
13.9637407764
  0
LINE
  5
492
100
AcDbEntity
  8
0
100
AcDbLine
 62
7
  6
CONTINUOUS
 10
7.0119617415
 20
15.1040817703
 11
7.0119850067
 21
14.9771008593
  0
LINE
  5
493
100
AcDbEntity
  8
0
100
AcDbLine
 62
7
  6
CONTINUOUS
 10
6.7950407946
 20
14.2000000025
 11
6.7950335837
 21
13.6500013382
  0
LINE
  5
494
100
AcDbEntity
  8
0
100
AcDbLine
 62
7
  6
CONTINUOUS
 10
6.6992955446
 20
15.7607381856
 11
6.6991258762
 21
15.7269533912
  0
LINE
  5
495
100
AcDbEntity
  8
0
100
AcDbLine
 62
7
  6
CONTINUOUS
 10
6.7957117719
 20
14.3085990252
 11
6.7950327418
 21
14.199999824
  0
LINE
  5
496
100
AcDbEntity
  8
0
100
AcDbLine
 62
7
  6
CONTINUOUS
 10
6.7999999961
 20
14.6989235098
 11
6.7985831107
 21
14.5299783887
  0
LWPOLYLINE
  5
497
100
AcDbEntity
  8
0
100
AcDbPolyline
 62
7
  6
CONTINUOUS
 90
3
 70
0
 10
6.7985831107
 20
14.5299783887
 10
6.7969715518
 20
14.4186538098
 10
6.7957117719
 20
14.3085990252
  0
LWPOLYLINE
  5
498
100
AcDbEntity
  8
0
100
AcDbPolyline
 62
7
  6
CONTINUOUS
 90
10
 70
0
 10
7.0157499381
 20
13.6342197541
 10
7.0120489909
 20
13.4758852213
 10
6.9992760914
 20
13.3127760111
 10
6.9770286531
 20
13.1458067646
 10
6.9450251988
 20
12.975951668
 10
6.9025366183
 20
12.8043513101
 10
6.8484026656
 20
12.632302537
 10
6.782381587
 20
12.4610340144
 10
6.704664513
 20
12.2916775103
 10
6.6153568276
 20
12.1252424958
  0
LWPOLYLINE
  5
499
100
AcDbEntity
  8
0
100
AcDbPolyline
 62
7
  6
CONTINUOUS
 90
16
 70
0
 10
7.0140533804
 20
13.6352292996
 10
7.009214561
 20
13.466565242
 10
6.9951722591
 20
13.2994528341
 10
6.9719264744
 20
13.1338920757
 10
6.9393478892
 20
12.9693791129
 10
6.8975658214
 20
12.8064177997
 10
6.8469682246
 20
12.6465196983
 10
6.7874732409
 20
12.4897133795
 10
6.7191627283
 20
12.3359702724
 10
6.6426702146
 20
12.1867162271
 10
6.5579193092
 20
12.0419931977
 10
6.4649864028
 20
11.90175923
 10
6.3647341947
 20
11.7673143108
 10
6.2574502515
 20
11.6390917691
 10
6.1428470066
 20
11.5166582758
 10
6.0209244601
 20
11.400013831
  0
LINE
  5
49A
100
AcDbEntity
  8
ASSI
100
AcDbLine
 62
7
  6
CONTINUOUS
 10
7.2322076372
 20
20.9330083283
 11
7.2084845302
 21
20.1483339502
  0
LINE
  5
49B
100
AcDbEntity
  8
DRAFT
100
AcDbLine
 62
7
  6
CONTINUOUS
 10
7.2322076372
 20
20.9330083283
 11
7.2084845302
 21
20.1483339502
  0
LWPOLYLINE
  5
49C
100
AcDbEntity
  8
0
100
AcDbPolyline
 62
250
  6
CONTINUOUS
 90
25
 70
0
 10
6.500000005
 20
13.6500005748
 10
6.4925211808
 20
13.4544626478
 10
6.4740480943
 20
13.2639767699
 10
6.4445807454
 20
13.078542941
 10
6.4039584769
 20
12.8978875441
 10
6.3523419461
 20
12.7222841963
 10
6.2902131248
 20
12.5525537485
 10
6.2171785439
 20
12.3883620386
 10
6.1336316725
 20
12.2300432287
 10
6.0412348896
 20
12.0794206567
 10
5.9393471759
 20
11.9362604468
 10
5.8286095508
 20
11.8007964747
 10
5.7126074514
 20
11.6755537058
 10
5.5924256843
 20
11.5616009225
 10
5.4669794429
 20
11.4578693424
 10
5.3365997449
 20
11.3636775839
 10
5.200927432
 20
11.2788071405
 10
5.0603216624
 20
11.2034765188
 10
4.9161909287
 20
11.1376598564
 10
4.7682713679
 20
11.0810708031
 10
4.6168268429
 20
11.0339957091
 10
4.4640574355
 20
10.9972677629
 10
4.310696506
 20
10.9711646941
 10
4.1560106941
 20
10.9554087731
 10
3.9999999996
 20
10.95
  0
LWPOLYLINE
  5
49D
100
AcDbEntity
  8
0
100
AcDbPolyline
 62
7
  6
CONTINUOUS
 90
4
 70
0
 10
6.25
 20
-2.1221348147
 10
6.2513516219
 20
-2.0963622884
 10
6.2554055316
 20
-2.0708054256
 10
6.2621380133
 20
-2.0457442846
  0
LWPOLYLINE
  5
49E
100
AcDbEntity
  8
0
100
AcDbPolyline
 62
250
  6
CONTINUOUS
 90
8
 70
0
 10
6.6991258762
 20
15.7269531039
 10
6.6901793603
 20
15.6097514434
 10
6.6778044474
 20
15.4898879504
 10
6.6620011373
 20
15.3676138099
 10
6.6415235227
 20
15.243204644
 10
6.617617511
 20
15.1168966892
 10
6.5940208245
 20
14.9888829406
 10
6.5477592395
 20
14.7286826281
  0
LWPOLYLINE
  5
49F
100
AcDbEntity
  8
0
100
AcDbPolyline
 62
7
  6
CONTINUOUS
 90
13
 70
0
 10
6.2621380133
 20
-2.0457442846
 10
6.2715074222
 20
-2.0214294693
 10
6.2834239289
 20
-1.9981644331
 10
6.2977223395
 20
-1.976288437
 10
6.3142079947
 20
-1.9560726293
 10
6.3327175265
 20
-1.9376941432
 10
6.3530838346
 20
-1.9213218541
 10
6.3751337408
 20
-1.9071162586
 10
6.3985896654
 20
-1.8952755066
 10
6.4230952631
 20
-1.8859720761
 10
6.4483375212
 20
-1.8792934095
 10
6.4740667738
 20
-1.8752743015
 10
6.5
 20
-1.8739346323
  0
LINE
  5
4A0
100
AcDbEntity
  8
0
100
AcDbLine
 62
250
  6
CONTINUOUS
 10
-9.0308058614
 20
-17.5055481084
 11
-9.0002916983
 21
-17.4750000031
  0
LWPOLYLINE
  5
4A1
100
AcDbEntity
  8
0
100
AcDbPolyline
 62
7
  6
CONTINUOUS
 90
5
 70
0
 10
-1.7601106157
 20
-8.0877767119
 10
-1.7573912017
 20
-8.0866991284
 10
-1.7517165018
 20
-8.0856553439
 10
-1.7430865159
 20
-8.0846453584
 10
-1.7313551361
 20
-8.0836585901
  0
LWPOLYLINE
  5
4A2
100
AcDbEntity
  8
0
100
AcDbPolyline
 62
7
  6
CONTINUOUS
 90
12
 70
0
 10
-2.2067352217
 20
-8.0287036929
 10
-2.225972729
 20
-8.035524944
 10
-2.2577903251
 20
-8.0422566191
 10
-2.3024418395
 20
-8.0489263945
 10
-2.3596734425
 20
-8.0555065938
 10
-2.4287236455
 20
-8.0619141887
 10
-2.5097355851
 20
-8.0681469739
 10
-2.6025661247
 20
-8.0742071546
 10
-2.7060243654
 20
-8.0800183181
 10
-2.8202416896
 20
-8.085577332
 10
-2.945086715
 20
-8.0908873287
 10
-3.0789743958
 20
-8.0958812936
  0
LWPOLYLINE
  5
4A3
100
AcDbEntity
  8
0
100
AcDbPolyline
 62
7
  6
CONTINUOUS
 90
19
 70
0
 10
2.1993809797
 20
5.9282999877
 10
2.1011665553
 20
5.9240190721
 10
2.0050795033
 20
5.9122675259
 10
1.9111198236
 20
5.8930454685
 10
1.8187455422
 20
5.8660779563
 10
1.7284986332
 20
5.8316404122
 10
1.6420050187
 20
5.7905585837
 10
1.5594182338
 20
5.7428216361
 10
1.4805847434
 20
5.6884412402
 10
1.4066698648
 20
5.6282768993
 10
1.3376302629
 20
5.5621637021
 10
1.2735092727
 20
5.4902676572
 10
1.2156022167
 20
5.4139445301
 10
1.164061249
 20
5.3332825922
 10
1.1187342156
 20
5.2481946774
 10
1.0804599769
 20
5.1597731772
 10
1.049518153
 20
5.0683825081
 10
1.025629124
 20
4.9736592684
 10
1.0087928897
 20
4.8756040284
  0
LWPOLYLINE
  5
4A4
100
AcDbEntity
  8
0
100
AcDbPolyline
 62
7
  6
CONTINUOUS
 90
21
 70
0
 10
-0.4231154188
 20
6.2293380265
 10
-0.5429421041
 20
6.2245172737
 10
-0.6619951508
 20
6.2101125823
 10
-0.7795139212
 20
6.1862165295
 10
-0.8946743365
 20
6.153001328
 10
-1.0068184898
 20
6.1106697784
 10
-1.1154375614
 20
6.0593966003
 10
-1.2200051722
 20
5.9993333113
 10
-1.3196108847
 20
5.9309080419
 10
-1.413242509
 20
5.8548340548
 10
-1.5000980168
 20
5.7718751677
 10
-1.5799259367
 20
5.6823943781
 10
-1.6525731897
 20
5.5865652267
 10
-1.7175821872
 20
5.4848249445
 10
-1.7743788676
 20
5.377888399
 10
-1.8225735754
 20
5.2663110544
 10
-1.8619768654
 20
5.1499945369
 10
-1.8918680421
 20
5.0303975713
 10
-1.9116558287
 20
4.9105902938
 10
-1.9215517029
 20
4.7935387734
 10
-1.9230973891
 20
4.7257085538
  0
LINE
  5
4A5
100
AcDbEntity
  8
0
100
AcDbLine
 62
7
  6
CONTINUOUS
 10
-3.425
 20
6.860254706
 11
-7.925
 21
6.860254706
  0
LINE
  5
4A6
100
AcDbEntity
  8
0
100
AcDbLine
 62
7
  6
CONTINUOUS
 10
-7.925
 20
6.8957839611
 11
-3.425
 21
6.8957839611
  0
LWPOLYLINE
  5
4A7
100
AcDbEntity
  8
0
100
AcDbPolyline
 62
7
  6
CONTINUOUS
 90
16
 70
0
 10
8.9747701833
 20
-4.3896875578
 10
8.9765913548
 20
-4.3934288544
 10
8.9810917745
 20
-4.3971254826
 10
8.9882180308
 20
-4.4007376448
 10
8.9978867814
 20
-4.4042254474
 10
9.0099903256
 20
-4.4075526946
 10
9.0244017869
 20
-4.41068703
 10
9.0409652058
 20
-4.4135953206
 10
9.0595019647
 20
-4.416245869
 10
9.079823343
 20
-4.418611469
 10
9.1017161342
 20
-4.4206665727
 10
9.1249434814
 20
-4.4223882677
 10
9.1492586387
 20
-4.4237576941
 10
9.1744014081
 20
-4.4247595631
 10
9.2001005755
 20
-4.4253824329
 10
9.2260789116
 20
-4.4256189897
  0
LWPOLYLINE
  5
4A8
100
AcDbEntity
  8
0
100
AcDbPolyline
 62
250
  6
CONTINUOUS
 90
8
 70
0
 10
9.9606088421
 20
-16.4160239382
 10
9.9586223878
 20
-16.4082043877
 10
9.9566856337
 20
-16.392696976
 10
9.9547985801
 20
-16.3695017032
 10
9.9529564077
 20
-16.3384182093
 10
9.9511639356
 20
-16.2996468542
 10
9.9494356211
 20
-16.2537887179
 10
9.9477682614
 20
-16.200727028
  0
LWPOLYLINE
  5
4A9
100
AcDbEntity
  8
0
100
AcDbPolyline
 62
7
  6
CONTINUOUS
 90
31
 70
0
 10
8.9293705865
 20
-7.5618896207
 10
8.9298540377
 20
-7.5730887524
 10
8.9307694221
 20
-7.5841670624
 10
8.9321167399
 20
-7.5951245505
 10
8.9338619131
 20
-7.6059832039
 10
8.9360390196
 20
-7.6167210355
 10
8.9387502934
 20
-7.6272720841
 10
8.9420271506
 20
-7.6376553921
 10
8.9458381751
 20
-7.6478519172
 10
8.9501913525
 20
-7.6577385713
 10
8.955078943
 20
-7.6672960392
 10
8.9605086864
 20
-7.6765436363
 10
8.9665117874
 20
-7.6854162206
 10
8.9730815563
 20
-7.6939218404
 10
8.9802246828
 20
-7.7020524474
 10
8.987992441
 20
-7.7097187548
 10
8.9963842111
 20
-7.7169379543
 10
9.0054006129
 20
-7.7236928541
 10
9.01509478
 20
-7.7298425918
 10
9.025490479
 20
-7.7354071828
 10
9.0365639433
 20
-7.7403666116
 10
9.0482970065
 20
-7.7445199687
 10
9.0606920637
 20
-7.7478699198
 10
9.0737467198
 20
-7.7504137992
 10
9.0874356235
 20
-7.7519426998
 10
9.1017690121
 20
-7.7524702453
 10
9.1167366483
 20
-7.751982812
 10
9.132282469
 20
-7.7502306219
 10
9.1483877863
 20
-7.7471304157
 10
9.1650712881
 20
-7.7427654527
 10
9.1823329742
 20
-7.7371357328
  0
LWPOLYLINE
  5
4AA
100
AcDbEntity
  8
0
100
AcDbPolyline
 62
250
  6
CONTINUOUS
 90
6
 70
0
 10
8.9528700091
 20
-17.2665257597
 10
8.9544175287
 20
-17.3165235161
 10
8.9559822584
 20
-17.3565899793
 10
8.9575578801
 20
-17.3865524436
 10
8.9591507119
 20
-17.4062780057
 10
8.9607607538
 20
-17.4156773041
  0
LINE
  5
4AB
100
AcDbEntity
  8
0
100
AcDbLine
 62
250
  6
CONTINUOUS
 10
8.9498839156
 20
-17.1376154321
 11
8.9528700091
 21
-17.2665257597
  0
LINE
  5
4AC
100
AcDbEntity
  8
0
100
AcDbLine
 62
7
  6
CONTINUOUS
 10
7.0085377147
 20
15.5330050652
 11
7.0071183487
 21
15.603391119
  0
LINE
  5
4AD
100
AcDbEntity
  8
ASSI
100
AcDbLine
 62
7
  6
CONTINUOUS
 10
7.2084845302
 20
19.8
 11
7.2233213354
 21
18.95
  0
LINE
  5
4AE
100
AcDbEntity
  8
DRAFT
100
AcDbLine
 62
7
  6
CONTINUOUS
 10
7.2084845302
 20
19.8
 11
7.2233213354
 21
18.95
  0
LINE
  5
4AF
100
AcDbEntity
  8
0
100
AcDbLine
 62
250
  6
CONTINUOUS
 10
8.9470605289
 20
-16.9720183607
 11
8.9498839156
 21
-17.1376154321
  0
LWPOLYLINE
  5
4B0
100
AcDbEntity
  8
0
100
AcDbPolyline
 62
7
  6
CONTINUOUS
 90
3
 70
0
 10
7.0102567597
 20
15.406747053
 10
7.0097382044
 20
15.4516082268
 10
7.0085377147
 20
15.5330050652
  0
LINE
  5
4B1
100
AcDbEntity
  8
0
100
AcDbLine
 62
250
  6
CONTINUOUS
 10
8.9421092132
 20
-16.5422778345
 11
8.9470605289
 21
-16.9720183607
  0
LINE
  5
4B2
100
AcDbEntity
  8
0
100
AcDbLine
 62
250
  6
CONTINUOUS
 10
8.9369759556
 20
-15.7076357378
 11
8.9421092132
 21
-16.5422778345
  0
LINE
  5
4B3
100
AcDbEntity
  8
0
100
AcDbLine
 62
250
  6
CONTINUOUS
 10
8.9356545645
 20
-15.2377348886
 11
8.9369759556
 21
-15.7076357378
  0
LINE
  5
4B4
100
AcDbEntity
  8
ASSI
100
AcDbLine
 62
7
  6
CONTINUOUS
 10
7.2084845302
 20
-20.1483339502
 11
7.2084845302
 21
-19.8
  0
LINE
  5
4B5
100
AcDbEntity
  8
DRAFT
100
AcDbLine
 62
7
  6
CONTINUOUS
 10
7.2084845302
 20
-20.1483339502
 11
7.2084845302
 21
-19.8
  0
LINE
  5
4B6
100
AcDbEntity
  8
ASSI
100
AcDbLine
 62
7
  6
CONTINUOUS
 10
7.2084845302
 20
19.8
 11
7.2084845302
 21
20.1483339502
  0
LINE
  5
4B7
100
AcDbEntity
  8
DRAFT
100
AcDbLine
 62
7
  6
CONTINUOUS
 10
7.2084845302
 20
19.8
 11
7.2084845302
 21
20.1483339502
  0
LINE
  5
4B8
100
AcDbEntity
  8
0
100
AcDbLine
 62
7
  6
CONTINUOUS
 10
7.4
 20
-18.9
 11
7.4
 21
-19.4006852326
  0
LINE
  5
4B9
100
AcDbEntity
  8
0
100
AcDbLine
 62
7
  6
CONTINUOUS
 10
7.3999999973
 20
19.4006911031
 11
7.4
 21
18.9
  0
LINE
  5
4BA
100
AcDbEntity
  8
ASSI
100
AcDbLine
 62
7
  6
CONTINUOUS
 10
7.5226756989
 20
20.7603594806
 11
7.5226756989
 21
19.72795565
  0
LINE
  5
4BB
100
AcDbEntity
  8
DRAFT
100
AcDbLine
 62
7
  6
CONTINUOUS
 10
7.5226756989
 20
20.7603594806
 11
7.5226756989
 21
19.72795565
  0
LINE
  5
4BC
100
AcDbEntity
  8
ASSI
100
AcDbLine
 62
7
  6
CONTINUOUS
 10
7.5226756989
 20
-19.7279754644
 11
7.5226756989
 21
-20.7603594806
  0
LINE
  5
4BD
100
AcDbEntity
  8
RACCORDO
100
AcDbLine
 62
7
  6
CONTINUOUS
 10
7.5226756989
 20
-19.7279754644
 11
7.5226756989
 21
-20.7603594806
  0
LINE
  5
4BE
100
AcDbEntity
  8
0
100
AcDbLine
 62
7
  6
CONTINUOUS
 10
8.2000083158
 20
-7.9708018894
 11
8.2000091607
 21
-8.0217747927
  0
LINE
  5
4BF
100
AcDbEntity
  8
0
100
AcDbLine
 62
7
  6
CONTINUOUS
 10
8.8936439382
 20
14.9771008602
 11
8.8936588866
 21
15.0500000001
  0
LINE
  5
4C0
100
AcDbEntity
  8
0
100
AcDbLine
 62
7
  6
CONTINUOUS
 10
8.8999622821
 20
12.3573802591
 11
8.8990000539
 21
7.8709370122
  0
LINE
  5
4C1
100
AcDbEntity
  8
0
100
AcDbLine
 62
7
  6
CONTINUOUS
 10
8.8990000539
 20
7.8709370122
 11
8.8938157007
 21
2.586651568
  0
LINE
  5
4C2
100
AcDbEntity
  8
0
100
AcDbLine
 62
7
  6
CONTINUOUS
 10
8.8938157007
 20
2.586651568
 11
8.8842008782
 21
-2.676781949
  0
LINE
  5
4C3
100
AcDbEntity
  8
0
100
AcDbLine
 62
7
  6
CONTINUOUS
 10
8.8772876378
 20
-5.1002161536
 11
8.8842008782
 21
-2.676781949
  0
LINE
  5
4C4
100
AcDbEntity
  8
ASSI
100
AcDbLine
 62
7
  6
CONTINUOUS
 10
7.2180848159
 20
-19.25
 11
7.2084845302
 21
-19.8
  0
LINE
  5
4C5
100
AcDbEntity
  8
RACCORDO
100
AcDbLine
 62
7
  6
CONTINUOUS
 10
7.2180848159
 20
-19.25
 11
7.2084845302
 21
-19.8
  0
LWPOLYLINE
  5
4C6
100
AcDbEntity
  8
0
100
AcDbPolyline
 62
7
  6
CONTINUOUS
 90
22
 70
0
 10
7.7489674464
 20
-1.8482526234
 10
7.7467071571
 20
-1.92223987
 10
7.7339148942
 20
-2.0495792304
 10
7.7113680364
 20
-2.1759940432
 10
7.6787843928
 20
-2.3023838755
 10
7.6364461542
 20
-2.427849346
 10
7.5850220035
 20
-2.5491394904
 10
7.5241821691
 20
-2.6659538032
 10
7.4542564225
 20
-2.7785960837
 10
7.3769027606
 20
-2.8847241329
 10
7.2923919393
 20
-2.9838263757
 10
7.2004532027
 20
-3.0764191562
 10
7.1019322805
 20
-3.1617031893
 10
6.9963389366
 20
-3.2399517874
 10
6.8841634072
 20
-3.3108958946
 10
6.7677221303
 20
-3.372923111
 10
6.64719935
 20
-3.4257203824
 10
6.5224108223
 20
-3.4696046073
 10
6.3951202529
 20
-3.5039084273
 10
6.2659155437
 20
-3.5284101455
 10
6.1342087927
 20
-3.5433335993
 10
6.0
 20
-3.54867933
  0
LWPOLYLINE
  5
4C7
100
AcDbEntity
  8
0
100
AcDbPolyline
 62
7
  6
CONTINUOUS
 90
22
 70
0
 10
7.75
 20
-1.8482841676
 10
7.7453598203
 20
-1.9747333891
 10
7.730945741
 20
-2.1039758466
 10
7.7068124438
 20
-2.2318618508
 10
7.6730413331
 20
-2.357772568
 10
7.6298162246
 20
-2.4808912504
 10
7.5774409821
 20
-2.6003482111
 10
7.516244767
 20
-2.715450854
 10
7.4465768453
 20
-2.8255944758
 10
7.3689012369
 20
-2.9301050727
 10
7.2838477976
 20
-3.0282472982
 10
7.1917846117
 20
-3.119699074
 10
7.0927590282
 20
-3.2043757888
 10
6.9869104916
 20
-3.2819649346
 10
6.875085824
 20
-3.3516631541
 10
6.7584391761
 20
-3.4127209302
 10
6.6377744864
 20
-3.4647807646
 10
6.5136772621
 20
-3.507650524
 10
6.3870961923
 20
-3.5410781519
 10
6.258844594
 20
-3.5649568993
 10
6.1295762296
 20
-3.5792682297
 10
6.0000157351
 20
-3.5840259188
  0
LWPOLYLINE
  5
4C8
100
AcDbEntity
  8
0
100
AcDbPolyline
 62
250
  6
CONTINUOUS
 90
10
 70
0
 10
2.3732786529
 20
-14.9165339916
 10
2.4085799446
 20
-14.8185243366
 10
2.4398365528
 20
-14.7193680153
 10
2.4670484778
 20
-14.6190650278
 10
2.4902734761
 20
-14.5173623042
 10
2.5094537911
 20
-14.4145129143
 10
2.5244161522
 20
-14.311276068
 10
2.5351028026
 20
-14.2079048352
 10
2.5415714992
 20
-14.1041461458
 10
2.5438222418
 20
-14.0
  0
LWPOLYLINE
  5
4C9
100
AcDbEntity
  8
0
100
AcDbPolyline
 62
250
  6
CONTINUOUS
 90
37
 70
0
 10
1.6740623912
 20
-14.6465115318
 10
1.6310910246
 20
-14.7486618001
 10
1.5804511416
 20
-14.8511014061
 10
1.5217398361
 20
-14.9531586123
 10
1.4544184903
 20
-15.0543767797
 10
1.3783260298
 20
-15.1536289651
 10
1.2938856408
 20
-15.2492503111
 10
1.2003982675
 20
-15.3411155982
 10
1.0985579092
 20
-15.4275943498
 10
0.9917638083
 20
-15.5054794062
 10
0.8821233482
 20
-15.5738373878
 10
0.7691607951
 20
-15.6335358452
 10
0.652937515
 20
-15.6846759924
 10
0.5331917499
 20
-15.7274247069
 10
0.4114904885
 20
-15.7613242076
 10
0.2907284237
 20
-15.7859346248
 10
0.1734572085
 20
-15.8015554295
 10
0.0585270375
 20
-15.8091618351
 10
-0.0567388371
 20
-15.8092226789
 10
-0.1721735286
 20
-15.8016842869
 10
-0.2869188006
 20
-15.7865618723
 10
-0.4026039652
 20
-15.7634458369
 10
-0.519923663
 20
-15.7315957508
 10
-0.6368365801
 20
-15.6909726376
 10
-0.7508879374
 20
-15.642236002
 10
-0.861075584
 20
-15.5857855499
 10
-0.9672833212
 20
-15.5216913
 10
-1.06862572
 20
-15.4506261252
 10
-1.1652710462
 20
-15.3724428681
 10
-1.2561127203
 20
-15.2879816216
 10
-1.3389019365
 20
-15.1999379371
 10
-1.413236744
 20
-15.1098229662
 10
-1.4798923296
 20
-15.0177579581
 10
-1.5389630086
 20
-14.9247318863
 10
-1.590739496
 20
-14.8315075745
 10
-1.6356406943
 20
-14.7385879852
 10
-1.674063439
 20
-14.6465095515
  0
LINE
  5
4CA
100
AcDbEntity
  8
ASSI
100
AcDbLine
 62
7
  6
CONTINUOUS
 10
-9.5103594806
 20
-20.7603594806
 11
-9.65
 21
-20.9
  0
LINE
  5
4CB
100
AcDbEntity
  8
DRAFT
100
AcDbLine
 62
7
  6
CONTINUOUS
 10
-9.5103594806
 20
-20.7603594806
 11
-9.65
 21
-20.9
  0
LINE
  5
4CC
100
AcDbEntity
  8
ASSI
100
AcDbLine
 62
7
  6
CONTINUOUS
 10
-6.7330351795
 20
-18.85
 11
-6.8330351795
 21
-18.95
  0
LINE
  5
4CD
100
AcDbEntity
  8
0
100
AcDbLine
 62
7
  6
CONTINUOUS
 10
-6.7330351795
 20
-18.85
 11
-6.8330351795
 21
-18.95
  0
LWPOLYLINE
  5
4CE
100
AcDbEntity
  8
0
100
AcDbPolyline
 62
7
  6
CONTINUOUS
 90
12
 70
0
 10
2.9768753548
 20
-7.6468278626
 10
2.6835756833
 20
-7.7862170837
 10
2.6341389934
 20
-7.8092496428
 10
2.5876861445
 20
-7.8304747817
 10
2.544171921
 20
-7.8499404877
 10
2.5035125684
 20
-7.8675938985
 10
2.4656715539
 20
-7.883420323
 10
2.43060309
 20
-7.8974344523
 10
2.3982207788
 20
-7.9096274966
 10
2.3684843693
 20
-7.9200012503
 10
2.3413514006
 20
-7.9285539191
 10
2.3272109386
 20
-7.9325574082
  0
LWPOLYLINE
  5
4CF
100
AcDbEntity
  8
0
100
AcDbPolyline
 62
7
  6
CONTINUOUS
 90
6
 70
0
 10
2.6680701522
 20
-7.7859504382
 10
2.976374423
 20
-7.642758005
 10
3.0472968811
 20
-7.610286113
 10
3.1208907427
 20
-7.5770163822
 10
3.1971725811
 20
-7.5430751229
 10
3.2603152858
 20
-7.5154590838
  0
LWPOLYLINE
  5
4D0
100
AcDbEntity
  8
0
100
AcDbPolyline
 62
7
  6
CONTINUOUS
 90
3
 70
0
 10
3.1898326889
 20
-7.5477462823
 10
3.1160596311
 20
-7.581547767
 10
2.9768753548
 20
-7.6468278626
  0
LINE
  5
4D1
100
AcDbEntity
  8
0
100
AcDbLine
 62
7
  6
CONTINUOUS
 10
3.2931750949
 20
-7.5013496004
 11
3.1898326889
 21
-7.5477462823
  0
LWPOLYLINE
  5
4D2
100
AcDbEntity
  8
0
100
AcDbPolyline
 62
7
  6
CONTINUOUS
 90
7
 70
0
 10
2.5479324515
 20
-7.8197218563
 10
2.8858277633
 20
-7.6684088722
 10
2.9623764471
 20
-7.6346585334
 10
3.0415432402
 20
-7.6002469745
 10
3.1233531995
 20
-7.5652912273
 10
3.2077812682
 20
-7.5299213378
 10
3.2944545245
 20
-7.4945259459
  0
LINE
  5
4D3
100
AcDbEntity
  8
0
100
AcDbLine
 62
7
  6
CONTINUOUS
 10
3.2603152858
 20
-7.5154590838
 11
3.3570129729
 21
-7.4741304178
  0
LWPOLYLINE
  5
4D4
100
AcDbEntity
  8
0
100
AcDbPolyline
 62
7
  6
CONTINUOUS
 90
4
 70
0
 10
2.3851030785
 20
-7.8905045163
 10
2.435769744
 20
-7.868966631
 10
2.4900850667
 20
-7.8453552916
 10
2.5479324515
 20
-7.8197218563
  0
LINE
  5
4D5
100
AcDbEntity
  8
0
100
AcDbLine
 62
7
  6
CONTINUOUS
 10
2.337968475
 20
-7.910057217
 11
2.3851030785
 21
-7.8905045163
  0
LWPOLYLINE
  5
4D6
100
AcDbEntity
  8
0
100
AcDbPolyline
 62
7
  6
CONTINUOUS
 90
7
 70
0
 10
2.3978354812
 20
-7.9039627965
 10
2.4355996886
 20
-7.8887626964
 10
2.4762243881
 20
-7.8717595295
 10
2.5197320764
 20
-7.8529647984
 10
2.5661800207
 20
-7.832378359
 10
2.6156178414
 20
-7.8100199524
 10
2.6680701522
 20
-7.7859504382
  0
LINE
  5
4D7
100
AcDbEntity
  8
0
100
AcDbLine
 62
7
  6
CONTINUOUS
 10
2.294238664
 20
-7.9275943992
 11
2.337968475
 21
-7.910057217
  0
LWPOLYLINE
  5
4D8
100
AcDbEntity
  8
0
100
AcDbPolyline
 62
7
  6
CONTINUOUS
 90
3
 70
0
 10
3.2944545245
 20
-7.4945259459
 10
3.3835610008
 20
-7.4592109621
 10
3.4502740285
 20
-7.4334820314
  0
LINE
  5
4D9
100
AcDbEntity
  8
0
100
AcDbLine
 62
7
  6
CONTINUOUS
 10
2.2539367847
 20
-7.9431310889
 11
2.294238664
 21
-7.9275943992
  0
LWPOLYLINE
  5
4DA
100
AcDbEntity
  8
0
100
AcDbPolyline
 62
7
  6
CONTINUOUS
 90
3
 70
0
 10
3.4502740285
 20
-7.4334820314
 10
3.4749126647
 20
-7.4241404942
 10
3.5675724977
 20
-7.3898428248
  0
LWPOLYLINE
  5
4DB
100
AcDbEntity
  8
0
100
AcDbPolyline
 62
7
  6
CONTINUOUS
 90
39
 70
0
 10
3.5675724977
 20
-7.3898428248
 10
3.6615650699
 20
-7.3565285906
 10
3.7568658112
 20
-7.3242808585
 10
3.8524639924
 20
-7.2934714254
 10
3.9484577514
 20
-7.264262754
 10
4.0447489503
 20
-7.2367529106
 10
4.1400324466
 20
-7.2112244176
 10
4.2340505146
 20
-7.1878943482
 10
4.3270608801
 20
-7.1667562614
 10
4.4185315774
 20
-7.1477431049
 10
4.5080690508
 20
-7.130971782
 10
4.5960668562
 20
-7.1164602149
 10
4.6831736958
 20
-7.1039670887
 10
4.769286459
 20
-7.0934734038
 10
4.8545082565
 20
-7.0850699299
 10
4.9397971229
 20
-7.0786617635
 10
5.0252076431
 20
-7.0742521143
 10
5.1106852322
 20
-7.0718690713
 10
5.1970241702
 20
-7.0714444272
 10
5.2843277945
 20
-7.0729151176
 10
5.3724927678
 20
-7.0763413375
 10
5.4620033583
 20
-7.0818307721
 10
5.5532015181
 20
-7.0893566221
 10
5.6457452951
 20
-7.0989070882
 10
5.7390931017
 20
-7.1106003948
 10
5.8333876338
 20
-7.124444437
 10
5.9284861955
 20
-7.1403470671
 10
6.0234191113
 20
-7.1582630317
 10
6.1179528115
 20
-7.178129629
 10
6.2123208658
 20
-7.1998792753
 10
6.3062543081
 20
-7.2234467771
 10
6.3997288619
 20
-7.2487336276
 10
6.4927688038
 20
-7.2756575263
 10
6.5851779965
 20
-7.3041616682
 10
6.677040958
 20
-7.334151853
 10
6.7682731705
 20
-7.3654796711
 10
6.8584249435
 20
-7.3979910063
 10
6.947512014
 20
-7.4316103712
 10
7.0279100414
 20
-7.4630790753
  0
LWPOLYLINE
  5
4DC
100
AcDbEntity
  8
0
100
AcDbPolyline
 62
7
  6
CONTINUOUS
 90
4
 70
0
 10
2.3012965088
 20
-7.938752506
 10
2.3307324566
 20
-7.9289515441
 10
2.3629012647
 20
-7.9173553611
 10
2.3978354812
 20
-7.9039627965
  0
LINE
  5
4DD
100
AcDbEntity
  8
0
100
AcDbLine
 62
7
  6
CONTINUOUS
 10
-4.9371976569
 20
7.5194801825
 11
-4.6580393992
 21
7.5194801825
  0
LINE
  5
4DE
100
AcDbEntity
  8
0
100
AcDbLine
 62
7
  6
CONTINUOUS
 10
-7.2465977891
 20
7.5194802377
 11
-5.8000504536
 21
7.5194804313
  0
LINE
  5
4DF
100
AcDbEntity
  8
0
100
AcDbLine
 62
7
  6
CONTINUOUS
 10
-5.8000504536
 20
7.7491397333
 11
-6.9674395314
 21
7.7491397333
  0
LINE
  5
4E0
100
AcDbEntity
  8
0
100
AcDbLine
 62
7
  6
CONTINUOUS
 10
-6.9674395314
 20
7.7846996105
 11
-5.8000504536
 21
7.7846994569
  0
LINE
  5
4E1
100
AcDbEntity
  8
0
100
AcDbLine
 62
7
  6
CONTINUOUS
 10
-6.9674395314
 20
8.4385361525
 11
-5.9269405707
 21
8.4385363615
  0
LINE
  5
4E2
100
AcDbEntity
  8
0
100
AcDbLine
 62
7
  6
CONTINUOUS
 10
-6.9674395314
 20
8.6684739719
 11
-5.9269405707
 21
8.6684739719
  0
LINE
  5
4E3
100
AcDbEntity
  8
0
100
AcDbLine
 62
7
  6
CONTINUOUS
 10
-6.9674395314
 20
8.7040685346
 11
-5.9269405707
 21
8.7040685346
  0
LINE
  5
4E4
100
AcDbEntity
  8
0
100
AcDbLine
 62
250
  6
CONTINUOUS
 10
-9.999935791
 20
16.4752210225
 11
-10.0001981342
 21
16.4754009586
  0
LINE
  5
4E5
100
AcDbEntity
  8
0
100
AcDbLine
 62
7
  6
CONTINUOUS
 10
-9.0003045923
 20
17.475
 11
-9.0378300776
 21
17.5055481031
  0
LINE
  5
4E6
100
AcDbEntity
  8
ASSI
100
AcDbLine
 62
7
  6
CONTINUOUS
 10
-9.65
 20
20.9
 11
-9.5103594806
 21
20.7603594806
  0
LINE
  5
4E7
100
AcDbEntity
  8
DRAFT
100
AcDbLine
 62
7
  6
CONTINUOUS
 10
-9.65
 20
20.9
 11
-9.5103594806
 21
20.7603594806
  0
LINE
  5
4E8
100
AcDbEntity
  8
ASSI
100
AcDbLine
 62
7
  6
CONTINUOUS
 10
-6.8330351795
 20
18.95
 11
-6.7330351795
 21
18.85
  0
LINE
  5
4E9
100
AcDbEntity
  8
0
100
AcDbLine
 62
7
  6
CONTINUOUS
 10
-6.8330351795
 20
18.95
 11
-6.7330351795
 21
18.85
  0
LWPOLYLINE
  5
4EA
100
AcDbEntity
  8
0
100
AcDbPolyline
 62
7
  6
CONTINUOUS
 90
9
 70
0
 10
9.5635420972
 20
-7.5366295447
 10
9.5672054925
 20
-7.6435986085
 10
9.5709442369
 20
-7.737102211
 10
9.5747591373
 20
-7.8168045617
 10
9.5786493868
 20
-7.8824185699
 10
9.582574272
 20
-7.9337095492
 10
9.5865202216
 20
-7.9704880965
 10
9.5905008069
 20
-7.9926139879
 10
9.5945160278
 20
-8.0
  0
LINE
  5
4EB
100
AcDbEntity
  8
0
100
AcDbLine
 62
7
  6
CONTINUOUS
 10
9.8128163876
 20
-7.3159411443
 11
9.8058216872
 21
-7.078695023
  0
LINE
  5
4EC
100
AcDbEntity
  8
0
100
AcDbLine
 62
7
  6
CONTINUOUS
 10
9.5565574304
 20
-7.2838468249
 11
9.5635420972
 21
-7.5366295447
  0
LINE
  5
4ED
100
AcDbEntity
  8
0
100
AcDbLine
 62
250
  6
CONTINUOUS
 10
9.9477682614
 20
-16.200727028
 11
9.9446500798
 21
-16.0742947019
  0
LINE
  5
4EE
100
AcDbEntity
  8
0
100
AcDbLine
 62
7
  6
CONTINUOUS
 10
9.8058216872
 20
-7.078695023
 11
9.7993561637
 21
-6.7952342387
  0
LINE
  5
4EF
100
AcDbEntity
  8
0
100
AcDbLine
 62
7
  6
CONTINUOUS
 10
9.5500632267
 20
-6.9823244591
 11
9.5565574304
 21
-7.2838468249
  0
LINE
  5
4F0
100
AcDbEntity
  8
0
100
AcDbLine
 62
7
  6
CONTINUOUS
 10
8.8901968972
 20
15.5330259892
 11
8.8887780216
 21
15.6033911229
  0
LINE
  5
4F1
100
AcDbEntity
  8
0
100
AcDbLine
 62
250
  6
CONTINUOUS
 10
9.9446500798
 20
-16.0742947019
 11
9.941886751
 21
-15.9231279939
  0
LINE
  5
4F2
100
AcDbEntity
  8
0
100
AcDbLine
 62
7
  6
CONTINUOUS
 10
9.7993561637
 20
-6.7952342387
 11
9.7908749987
 21
-6.2930517819
  0
LINE
  5
4F3
100
AcDbEntity
  8
0
100
AcDbLine
 62
7
  6
CONTINUOUS
 10
9.5414691633
 20
-6.4480704582
 11
9.5500632267
 21
-6.9823244591
  0
LINE
  5
4F4
100
AcDbEntity
  8
0
100
AcDbLine
 62
7
  6
CONTINUOUS
 10
8.8913971752
 20
15.451633302
 11
8.8901968972
 21
15.5330259892
  0
LINE
  5
4F5
100
AcDbEntity
  8
0
100
AcDbLine
 62
250
  6
CONTINUOUS
 10
9.941886751
 20
-15.9231279939
 11
9.9385335911
 21
-15.6577002427
  0
LINE
  5
4F6
100
AcDbEntity
  8
0
100
AcDbLine
 62
7
  6
CONTINUOUS
 10
9.7908749987
 20
-6.2930517819
 11
9.7840793434
 21
-5.7124160683
  0
LINE
  5
4F7
100
AcDbEntity
  8
0
100
AcDbLine
 62
7
  6
CONTINUOUS
 10
10.0306108453
 20
16.521643319
 11
10.0307093545
 21
16.5119582028
  0
LINE
  5
4F8
100
AcDbEntity
  8
0
100
AcDbLine
 62
7
  6
CONTINUOUS
 10
9.5325492149
 20
-5.6095796582
 11
9.5414691633
 21
-6.4480704582
  0
LINE
  5
4F9
100
AcDbEntity
  8
0
100
AcDbLine
 62
7
  6
CONTINUOUS
 10
8.9867675414
 20
15.7923332106
 11
8.9915369715
 21
15.2956109646
  0
LINE
  5
4FA
100
AcDbEntity
  8
0
100
AcDbLine
 62
7
  6
CONTINUOUS
 10
8.8927571469
 20
15.3113698373
 11
8.8913971752
 21
15.451633302
  0
LINE
  5
4FB
100
AcDbEntity
  8
0
100
AcDbLine
 62
250
  6
CONTINUOUS
 10
9.9385335911
 20
-15.6577002427
 11
9.93626601
 21
-15.3569381129
  0
LINE
  5
4FC
100
AcDbEntity
  8
0
100
AcDbLine
 62
7
  6
CONTINUOUS
 10
9.2433970787
 20
15.1152086709
 11
9.2381454121
 21
15.7999940296
  0
LINE
  5
4FD
100
AcDbEntity
  8
0
100
AcDbLine
 62
7
  6
CONTINUOUS
 10
9.7840793434
 20
-5.7124160683
 11
9.7780117432
 21
-4.8486311652
  0
LINE
  5
4FE
100
AcDbEntity
  8
0
100
AcDbLine
 62
7
  6
CONTINUOUS
 10
9.5262209519
 20
-4.4256544368
 11
9.5325492149
 21
-5.6095796582
  0
LINE
  5
4FF
100
AcDbEntity
  8
0
100
AcDbLine
 62
7
  6
CONTINUOUS
 10
8.9915369715
 20
15.2956109646
 11
8.9950979062
 21
14.5621251987
  0
LINE
  5
500
100
AcDbEntity
  8
0
100
AcDbLine
 62
7
  6
CONTINUOUS
 10
9.7780117432
 20
-4.8486311652
 11
9.7763521634
 21
-4.389709843
  0
LINE
  5
501
100
AcDbEntity
  8
0
100
AcDbLine
 62
250
  6
CONTINUOUS
 10
9.7763521634
 20
-4.389709843
 11
9.765286125
 21
0.8531404529
  0
LINE
  5
502
100
AcDbEntity
  8
0
100
AcDbLine
 62
7
  6
CONTINUOUS
 10
9.5128362277
 20
2.58681614
 11
9.5262208051
 21
-4.4256528923
  0
LINE
  5
503
100
AcDbEntity
  8
0
100
AcDbLine
 62
250
  6
CONTINUOUS
 10
9.765286125
 20
0.8531404529
 11
9.7586382112
 21
6.1204742431
  0
LWPOLYLINE
  5
504
100
AcDbEntity
  8
0
100
AcDbPolyline
 62
7
  6
CONTINUOUS
 90
3
 70
0
 10
8.8936588866
 20
15.0500000001
 10
8.8936206599
 20
15.1040764829
 10
8.8927571469
 20
15.3113698373
  0
LINE
  5
505
100
AcDbEntity
  8
0
100
AcDbLine
 62
250
  6
CONTINUOUS
 10
9.93626601
 20
-15.3569381129
 11
9.9351116269
 21
-14.9165339923
  0
LWPOLYLINE
  5
506
100
AcDbEntity
  8
0
100
AcDbPolyline
 62
7
  6
CONTINUOUS
 90
3
 70
0
 10
8.8999622821
 20
12.3573802591
 10
8.8998260346
 20
12.5826322932
 10
8.8957009663
 20
13.9637403221
  0
LINE
  5
507
100
AcDbEntity
  8
0
100
AcDbLine
 62
7
  6
CONTINUOUS
 10
9.2456527792
 20
14.1806814142
 11
9.2433970787
 21
15.1152086709
  0
LWPOLYLINE
  5
508
100
AcDbEntity
  8
0
100
AcDbPolyline
 62
7
  6
CONTINUOUS
 90
3
 70
0
 10
9.5065077723
 20
11.4000038099
 10
9.5068466628
 20
9.6355467258
 10
9.5128362277
 20
2.58681614
  0
LINE
  5
509
100
AcDbEntity
  8
0
100
AcDbLine
 62
250
  6
CONTINUOUS
 10
9.7586382112
 20
6.1204742431
 11
9.7564237207
 21
11.4000031366
  0
LINE
  5
50A
100
AcDbEntity
  8
0
100
AcDbLine
 62
250
  6
CONTINUOUS
 10
8.9356545645
 20
-15.2377348886
 11
8.9352690314
 21
-8.1475080583
  0
LINE
  5
50B
100
AcDbEntity
  8
0
100
AcDbLine
 62
250
  6
CONTINUOUS
 10
9.2455974005
 20
14.1806894679
 11
9.2455974005
 21
11.4000002977
  0
LINE
  5
50C
100
AcDbEntity
  8
0
100
AcDbLine
 62
250
  6
CONTINUOUS
 10
9.5064613635
 20
14.1806814142
 11
9.5064896062
 21
11.4000038105
  0
LINE
  5
50D
100
AcDbEntity
  8
ASSI
100
AcDbLine
 62
7
  6
CONTINUOUS
 10
9.5103594806
 20
-20.7603594806
 11
9.5103594806
 21
-18.7896405194
  0
LINE
  5
50E
100
AcDbEntity
  8
DRAFT
100
AcDbLine
 62
7
  6
CONTINUOUS
 10
9.5103594806
 20
-20.7603594806
 11
9.5103594806
 21
-18.7896405194
  0
LINE
  5
50F
100
AcDbEntity
  8
ASSI
100
AcDbLine
 62
7
  6
CONTINUOUS
 10
9.5103594806
 20
18.789636347
 11
9.5103594806
 21
20.7603594806
  0
LINE
  5
510
100
AcDbEntity
  8
DRAFT
100
AcDbLine
 62
7
  6
CONTINUOUS
 10
9.5103594806
 20
18.789636347
 11
9.5103594806
 21
20.7603594806
  0
LINE
  5
511
100
AcDbEntity
  8
ASSI
100
AcDbLine
 62
7
  6
CONTINUOUS
 10
9.65
 20
-20.9
 11
9.65
 21
-18.65
  0
LINE
  5
512
100
AcDbEntity
  8
RACCORDO
100
AcDbLine
 62
7
  6
CONTINUOUS
 10
9.65
 20
-20.9
 11
9.65
 21
-18.65
  0
LINE
  5
513
100
AcDbEntity
  8
ASSI
100
AcDbLine
 62
7
  6
CONTINUOUS
 10
9.65
 20
18.6499952233
 11
9.65
 21
20.9
  0
LINE
  5
514
100
AcDbEntity
  8
RACCORDO
100
AcDbLine
 62
7
  6
CONTINUOUS
 10
9.65
 20
18.6499952233
 11
9.65
 21
20.9
  0
LINE
  5
515
100
AcDbEntity
  8
0
100
AcDbLine
 62
250
  6
CONTINUOUS
 10
9.9351116269
 20
-14.9165339923
 11
9.9351102369
 21
-7.9318934925
  0
LINE
  5
516
100
AcDbEntity
  8
0
100
AcDbLine
 62
7
  6
CONTINUOUS
 10
10.0000642163
 20
-16.4751449474
 11
10.0000642163
 21
16.4752110041
  0
LINE
  5
517
100
AcDbEntity
  8
0
100
AcDbLine
 62
7
  6
CONTINUOUS
 10
10.0306008901
 20
18.0621906153
 11
10.0305740769
 21
16.521643319
  0
LINE
  5
518
100
AcDbEntity
  8
0
100
AcDbLine
 62
7
  6
CONTINUOUS
 10
10.0306143262
 20
-18.0620997717
 11
10.0306143262
 21
-16.521691111
  0
LINE
  5
519
100
AcDbEntity
  8
0
100
AcDbLine
 62
7
  6
CONTINUOUS
 10
10.0307074484
 20
-16.5057380189
 11
10.0307093545
 21
16.5119582028
  0
LINE
  5
51A
100
AcDbEntity
  8
0
100
AcDbLine
 62
7
  6
CONTINUOUS
 10
8.9950979062
 20
14.5621251987
 11
8.9952917912
 21
9.6395537156
  0
LINE
  5
51B
100
AcDbEntity
  8
0
100
AcDbLine
 62
7
  6
CONTINUOUS
 10
8.9952917912
 20
9.6395537156
 11
8.9915889639
 21
4.3627546722
  0
LINE
  5
51C
100
AcDbEntity
  8
0
100
AcDbLine
 62
7
  6
CONTINUOUS
 10
9.2415287676
 20
4.3467233266
 11
9.2455419194
 21
11.4000002977
  0
LINE
  5
51D
100
AcDbEntity
  8
0
100
AcDbLine
 62
7
  6
CONTINUOUS
 10
8.9915889639
 20
4.3627546722
 11
8.9833899104
 21
-0.8977453394
  0
LINE
  5
51E
100
AcDbEntity
  8
0
100
AcDbLine
 62
7
  6
CONTINUOUS
 10
9.2299524448
 20
-2.6775170948
 11
9.2415287676
 21
4.3467233266
  0
LINE
  5
51F
100
AcDbEntity
  8
0
100
AcDbLine
 62
250
  6
CONTINUOUS
 10
9.7564237207
 20
11.4000031366
 11
9.7580751962
 21
14.8945241054
  0
LINE
  5
520
100
AcDbEntity
  8
0
100
AcDbLine
 62
7
  6
CONTINUOUS
 10
8.9833899104
 20
-0.8977453394
 11
8.9736078025
 21
-4.826424136
  0
LINE
  5
521
100
AcDbEntity
  8
0
100
AcDbLine
 62
7
  6
CONTINUOUS
 10
9.5090971046
 20
15.1486002035
 11
9.5064614825
 21
14.1806733604
  0
LINE
  5
522
100
AcDbEntity
  8
0
100
AcDbLine
 62
7
  6
CONTINUOUS
 10
9.2299524448
 20
-2.6775170948
 11
9.2228528476
 21
-5.1492015717
  0
LINE
  5
523
100
AcDbEntity
  8
0
100
AcDbLine
 62
7
  6
CONTINUOUS
 10
10.0306143262
 20
-16.521691111
 11
10.0307074484
 21
-16.5057380189
  0
LINE
  5
524
100
AcDbEntity
  8
0
100
AcDbLine
 62
7
  6
CONTINUOUS
 10
8.9736078025
 20
-4.826424136
 11
8.9677772334
 21
-5.6556650001
  0
LINE
  5
525
100
AcDbEntity
  8
0
100
AcDbLine
 62
250
  6
CONTINUOUS
 10
9.7580751962
 20
14.8945241054
 11
9.7629077307
 21
15.5604936727
  0
LINE
  5
526
100
AcDbEntity
  8
0
100
AcDbLine
 62
7
  6
CONTINUOUS
 10
8.8707326566
 20
-5.9393661071
 11
8.8772876378
 21
-5.1002161536
  0
LINE
  5
527
100
AcDbEntity
  8
0
100
AcDbLine
 62
7
  6
CONTINUOUS
 10
9.2228528476
 20
-5.1492015717
 11
9.2158353525
 21
-6.0441910854
  0
LINE
  5
528
100
AcDbEntity
  8
0
100
AcDbLine
 62
7
  6
CONTINUOUS
 10
9.5146970307
 20
15.852963243
 11
9.5090971046
 21
15.1486002035
  0
LINE
  5
529
100
AcDbEntity
  8
0
100
AcDbLine
 62
7
  6
CONTINUOUS
 10
8.8638050193
 20
-6.5027802476
 11
8.8707326566
 21
-5.9393661071
  0
LINE
  5
52A
100
AcDbEntity
  8
0
100
AcDbLine
 62
7
  6
CONTINUOUS
 10
8.9677772334
 20
-5.6556650001
 11
8.9592377624
 21
-6.3907592398
  0
LINE
  5
52B
100
AcDbEntity
  8
0
100
AcDbLine
 62
7
  6
CONTINUOUS
 10
9.2158353525
 20
-6.0441910854
 11
9.2085103607
 21
-6.6358978641
  0
LWPOLYLINE
  5
52C
100
AcDbEntity
  8
0
100
AcDbPolyline
 62
250
  6
CONTINUOUS
 90
3
 70
0
 10
9.7629077307
 20
15.5604936727
 10
9.7684096448
 20
15.9984599463
 10
9.7705842643
 20
16.1310212097
  0
LINE
  5
52D
100
AcDbEntity
  8
0
100
AcDbLine
 62
7
  6
CONTINUOUS
 10
9.5206405716
 20
16.3082449605
 11
9.5146970307
 21
15.852963243
  0
LINE
  5
52E
100
AcDbEntity
  8
0
100
AcDbLine
 62
7
  6
CONTINUOUS
 10
8.9592377624
 20
-6.3907592398
 11
8.9513230251
 21
-6.8573444355
  0
LINE
  5
52F
100
AcDbEntity
  8
0
100
AcDbLine
 62
7
  6
CONTINUOUS
 10
8.8553557896
 20
-6.9931333359
 11
8.8638050193
 21
-6.5027802476
  0
LINE
  5
530
100
AcDbEntity
  8
0
100
AcDbLine
 62
7
  6
CONTINUOUS
 10
9.2085103607
 20
-6.6358978641
 11
9.1996694131
 21
-7.1385968391
  0
LINE
  5
531
100
AcDbEntity
  8
0
100
AcDbLine
 62
7
  6
CONTINUOUS
 10
8.9513230251
 20
-6.8573444355
 11
8.9454306348
 21
-7.1203296661
  0
LINE
  5
532
100
AcDbEntity
  8
0
100
AcDbLine
 62
7
  6
CONTINUOUS
 10
8.8489822225
 20
-7.2731551988
 11
8.8553557896
 21
-6.9931333359
  0
LWPOLYLINE
  5
533
100
AcDbEntity
  8
0
100
AcDbPolyline
 62
7
  6
CONTINUOUS
 90
5
 70
0
 10
9.1996694131
 20
-7.1385968391
 10
9.1930650233
 20
-7.4163282273
 10
9.1896020623
 20
-7.5364532889
 10
9.186024424
 20
-7.6434905048
 10
9.1823321085
 20
-7.7370542551
  0
LINE
  5
534
100
AcDbEntity
  8
0
100
AcDbLine
 62
7
  6
CONTINUOUS
 10
8.9454306348
 20
-7.1203296661
 11
8.9422158848
 21
-7.2394177221
  0
LINE
  5
535
100
AcDbEntity
  8
0
100
AcDbLine
 62
7
  6
CONTINUOUS
 10
8.9422158848
 20
-7.2394177221
 11
8.9388185131
 21
-7.3468125929
  0
LWPOLYLINE
  5
536
100
AcDbEntity
  8
0
100
AcDbPolyline
 62
7
  6
CONTINUOUS
 90
3
 70
0
 10
8.8385005745
 20
-7.6139259419
 10
8.8421008751
 20
-7.5114382183
 10
8.8489822225
 20
-7.2731551988
  0
LWPOLYLINE
  5
537
100
AcDbEntity
  8
0
100
AcDbPolyline
 62
7
  6
CONTINUOUS
 90
5
 70
0
 10
8.9388185131
 20
-7.3468125929
 10
8.9352430687
 20
-7.4421464431
 10
8.9333957719
 20
-7.4851871311
 10
8.9315077478
 20
-7.5250933867
 10
8.9295789964
 20
-7.5618309109
  0
LWPOLYLINE
  5
538
100
AcDbEntity
  8
0
100
AcDbPolyline
 62
7
  6
CONTINUOUS
 90
16
 70
0
 10
9.8442277591
 20
-7.7507599013
 10
9.842790884
 20
-7.7767322231
 10
9.8386622208
 20
-7.8024235198
 10
9.8318837182
 20
-7.8275553289
 10
9.8225398869
 20
-7.8518240784
 10
9.8107220751
 20
-7.8749992415
 10
9.7964962593
 20
-7.8969103187
 10
9.7799041526
 20
-7.9173940308
 10
9.7611665542
 20
-7.9360908614
 10
9.7406950433
 20
-7.9526019863
 10
9.7189090803
 20
-7.9666944085
 10
9.6959348727
 20
-7.9783833443
 10
9.671780972
 20
-7.9876748949
 10
9.6466058616
 20
-7.9944585018
 10
9.6207581161
 20
-7.9985926258
 10
9.5945160141
 20
-8.0000000157
  0
LWPOLYLINE
  5
539
100
AcDbEntity
  8
0
100
AcDbPolyline
 62
7
  6
CONTINUOUS
 90
4
 70
0
 10
8.8271511272
 20
-7.8515916789
 10
8.8310306984
 20
-7.7838258783
 10
8.8348138475
 20
-7.704603966
 10
8.8385005745
 20
-7.6139259419
  0
LWPOLYLINE
  5
53A
100
AcDbEntity
  8
0
100
AcDbPolyline
 62
7
  6
CONTINUOUS
 90
22
 70
0
 10
9.9351082863
 20
-7.9322335894
 10
9.9334212853
 20
-7.9519628527
 10
9.9299819133
 20
-7.9713860707
 10
9.9248544499
 20
-7.9903610035
 10
9.9181025759
 20
-8.0087766969
 10
9.9098173276
 20
-8.0264870893
 10
9.9001367867
 20
-8.0433197993
 10
9.8891739527
 20
-8.0591892525
 10
9.8770514374
 20
-8.0740114476
 10
9.8639656311
 20
-8.0876580492
 10
9.8500887658
 20
-8.1000692725
 10
9.8355292133
 20
-8.1112537351
 10
9.8203988126
 20
-8.1212170879
 10
9.8048363736
 20
-8.1299525653
 10
9.7889448698
 20
-8.1374808729
 10
9.772762955
 20
-8.1438469368
 10
9.7563936163
 20
-8.1490645152
 10
9.7399262642
 20
-8.1531576928
 10
9.7233587407
 20
-8.156166749
 10
9.7067401332
 20
-8.1581109672
 10
9.6901762681
 20
-8.1590072382
 10
9.6737394077
 20
-8.1588829805
  0
LWPOLYLINE
  5
53B
100
AcDbEntity
  8
0
100
AcDbPolyline
 62
7
  6
CONTINUOUS
 90
10
 70
0
 10
8.2195248076
 20
-7.9708018925
 10
8.2185814534
 20
-7.9768527999
 10
8.2176341937
 20
-7.9822072842
 10
8.2166830283
 20
-7.9868653453
 10
8.2157279922
 20
-7.990833975
 10
8.2147690504
 20
-7.9941061814
 10
8.2138060984
 20
-7.9966609897
 10
8.2128391011
 20
-7.9984914082
 10
8.2118680936
 20
-7.9996044286
 10
8.2108930757
 20
-8.0000000508
  0
LWPOLYLINE
  5
53C
100
AcDbEntity
  8
0
100
AcDbPolyline
 62
7
  6
CONTINUOUS
 90
10
 70
0
 10
9.1823329742
 20
-7.7371357328
 10
9.1431387224
 20
-7.7514932562
 10
9.1038751158
 20
-7.7654413739
 10
9.0645421542
 20
-7.7789800858
 10
9.0251376827
 20
-7.7921100285
 10
8.9856638563
 20
-7.8048305656
 10
8.9461271404
 20
-7.8171397874
 10
8.9065296902
 20
-7.8290370573
 10
8.8668693506
 20
-7.840523012
 10
8.8271461215
 20
-7.8515976514
  0
LWPOLYLINE
  5
53D
100
AcDbEntity
  8
0
100
AcDbPolyline
 62
7
  6
CONTINUOUS
 90
13
 70
0
 10
4.0
 20
10.6134313985
 10
4.1896620463
 20
10.6192702049
 10
4.3765109413
 20
10.6364785319
 10
4.5605466849
 20
10.6650564162
 10
4.7422420087
 20
10.7052434516
 10
4.9211241812
 20
10.7568001783
 10
5.0957750075
 20
10.8190080695
 10
5.2664562786
 20
10.8921640896
 10
5.4329062034
 20
10.9759714277
 10
5.5929212138
 20
11.0688208595
 10
5.7457667871
 20
11.1701759694
 10
5.8921774461
 20
11.2805731584
 10
6.0321531906
 20
11.4000123573
  0
LINE
  5
53E
100
AcDbEntity
  8
0
100
AcDbLine
 62
7
  6
CONTINUOUS
 10
-6.9674395314
 20
9.2819830565
 11
-4.9371976569
 21
9.2819830565
  0
LINE
  5
53F
100
AcDbEntity
  8
0
100
AcDbLine
 62
7
  6
CONTINUOUS
 10
-4.6580393992
 20
9.2819833116
 11
-4.0235888134
 21
9.2819833116
  0
LINE
  5
540
100
AcDbEntity
  8
0
100
AcDbLine
 62
7
  6
CONTINUOUS
 10
-4.0235888134
 20
9.5121767998
 11
-7.2465977891
 21
9.5121767998
  0
LINE
  5
541
100
AcDbEntity
  8
0
100
AcDbLine
 62
7
  6
CONTINUOUS
 10
-7.2465977891
 20
9.5478052248
 11
-4.0235888134
 21
9.5478052248
  0
LINE
  5
542
100
AcDbEntity
  8
0
100
AcDbLine
 62
7
  6
CONTINUOUS
 10
-7.925
 20
10.1318587994
 11
-3.425
 21
10.1318587994
  0
LINE
  5
543
100
AcDbEntity
  8
0
100
AcDbLine
 62
7
  6
CONTINUOUS
 10
4.0
 20
10.6134313985
 11
-4.0
 21
10.6134313985
  0
LINE
  5
544
100
AcDbEntity
  8
0
100
AcDbLine
 62
7
  6
CONTINUOUS
 10
-4.0
 20
10.6220075758
 11
4.0
 21
10.6220075426
  0
LWPOLYLINE
  5
545
100
AcDbEntity
  8
0
100
AcDbPolyline
 62
7
  6
CONTINUOUS
 90
13
 70
0
 10
-4.0
 20
10.6220075472
 10
-4.1883239999
 20
10.6281479987
 10
-4.3740356319
 20
10.6454501903
 10
-4.557134896
 20
10.6739141579
 10
-4.7383144357
 20
10.7138568105
 10
-4.9168816074
 20
10.7649613692
 10
-5.0907584811
 20
10.8262773522
 10
-5.2596333517
 20
10.8977367599
 10
-5.4238179243
 20
10.9794077324
 10
-5.5821693843
 20
11.0705439688
 10
-5.7343067936
 20
11.170896702
 10
-5.8806110903
 20
11.2807146957
 10
-6.0210822744
 20
11.3999978837
  0
LWPOLYLINE
  5
546
100
AcDbEntity
  8
0
100
AcDbPolyline
 62
7
  6
CONTINUOUS
 90
19
 70
0
 10
10.0305740769
 20
16.521643319
 10
10.0241595755
 20
16.613650722
 10
10.0106586826
 20
16.7023531768
 10
9.9900713983
 20
16.7877506834
 10
9.9619992822
 20
16.8701690944
 10
9.9268407748
 20
16.9492825572
 10
9.8857911964
 20
17.0241135146
 10
9.8388738197
 20
17.0946393449
 10
9.7860653722
 20
17.1608826697
 10
9.7284913564
 20
17.221933797
 10
9.6661608328
 20
17.2777626566
 10
9.599064741
 20
17.3283993187
 10
9.5283014027
 20
17.3730243016
 10
9.4538989773
 20
17.4116367666
 10
9.3758293053
 20
17.4442375526
 10
9.2951062304
 20
17.4700096942
 10
9.2120677002
 20
17.4886808698
 10
9.126375767
 20
17.5005234011
 10
9.0380304308
 20
17.5055372881
  0
LWPOLYLINE
  5
547
100
AcDbEntity
  8
0
100
AcDbPolyline
 62
7
  6
CONTINUOUS
 90
10
 70
0
 10
10.0306008901
 20
18.0621906153
 10
10.0285747503
 20
18.1062872928
 10
10.0228666888
 20
18.149441093
 10
10.0134767056
 20
18.1916520159
 10
10.0002818385
 20
18.2332259631
 10
9.9834050497
 20
18.2738570331
 10
9.9632152255
 20
18.3126275209
 10
9.9398353281
 20
18.3492315251
 10
9.9131423954
 20
18.3839749471
 10
9.8831364273
 20
18.416857787
  0
LWPOLYLINE
  5
548
100
AcDbEntity
  8
ASSI
100
AcDbPolyline
 62
7
  6
CONTINUOUS
 90
10
 70
0
 10
11.1238174026
 20
16.4758271192
 10
11.1210404941
 20
16.5493600913
 10
11.1130858499
 20
16.6217449262
 10
11.0999534699
 20
16.6929816239
 10
11.0815186789
 20
16.7634368711
 10
11.0579061522
 20
16.8327439812
 10
11.0294899157
 20
16.8998028933
 10
10.9963946449
 20
16.9642469207
 10
10.9584956644
 20
17.0264427503
 10
10.9157929742
 20
17.086390382
  0
LWPOLYLINE
  5
549
100
AcDbEntity
  8
RACCORDO
100
AcDbPolyline
 62
7
  6
CONTINUOUS
 90
10
 70
0
 10
11.1238174026
 20
16.4758271192
 10
11.1211741205
 20
16.5488572778
 10
11.1132746026
 20
16.6209938743
 10
11.1001188487
 20
16.6922369087
 10
11.0815220589
 20
16.7631248966
 10
11.0576690331
 20
16.8331193224
 10
11.0291141717
 20
16.9006046386
 10
10.9960422748
 20
16.9650423294
 10
10.9582685423
 20
17.0269709105
 10
10.9157929742
 20
17.086390382
  0
LINE
  5
54A
100
AcDbEntity
  8
ASSI
100
AcDbLine
 62
7
  6
CONTINUOUS
 10
11.1238174026
 20
16.4758271192
 11
11.1238174026
 21
-16.4758271192
  0
LINE
  5
54B
100
AcDbEntity
  8
RACCORDO
100
AcDbLine
 62
7
  6
CONTINUOUS
 10
11.1238174026
 20
16.4758271192
 11
11.1238174026
 21
-16.4758271192
  0
LINE
  5
54C
100
AcDbEntity
  8
ASSI
100
AcDbLine
 62
7
  6
CONTINUOUS
 10
11.15
 20
21.8997711479
 11
11.15
 21
-21.8997711479
  0
LINE
  5
54D
100
AcDbEntity
  8
RACCORDO
100
AcDbLine
 62
7
  6
CONTINUOUS
 10
11.15
 20
21.8997711479
 11
11.15
 21
-21.8997711479
  0
LWPOLYLINE
  5
54E
100
AcDbEntity
  8
RACCORDO
100
AcDbPolyline
 62
7
  6
CONTINUOUS
 90
10
 70
0
 10
11.15
 20
-16.4632818593
 10
11.147364732
 20
-16.5362047833
 10
11.1394879283
 20
-16.6082388542
 10
11.126369589
 20
-16.6793840721
 10
11.1078254924
 20
-16.750177648
 10
11.0840398601
 20
-16.8200823708
 10
11.0555653571
 20
-16.8874866073
 10
11.0225862052
 20
-16.9518531464
 10
10.9849181826
 20
-17.0137191992
 10
10.9425612894
 20
-17.0730847657
  0
LWPOLYLINE
  5
54F
100
AcDbEntity
  8
ASSI
100
AcDbPolyline
 62
7
  6
CONTINUOUS
 90
10
 70
0
 10
11.15
 20
-16.4632818593
 10
11.1472315354
 20
-16.5367057604
 10
11.1393000321
 20
-16.6089865188
 10
11.1262054901
 20
-16.6801241343
 10
11.1078239514
 20
-16.7504837575
 10
11.0842793739
 20
-16.8197002379
 10
11.0559436316
 20
-16.886678124
 10
11.0229406824
 20
-16.9510522655
 10
10.9851465683
 20
-17.0131878127
 10
10.9425612894
 20
-17.0730847657
  0
LINE
  5
550
100
AcDbEntity
  8
0
100
AcDbLine
 62
7
  6
CONTINUOUS
 10
8.2108930757
 20
-8.0000000508
 11
8.2000091607
 21
-8.0217747927
  0
LWPOLYLINE
  5
551
100
AcDbEntity
  8
0
100
AcDbPolyline
 62
7
  6
CONTINUOUS
 90
13
 70
0
 10
9.7759824849
 20
-4.3897268067
 10
9.7733399426
 20
-4.394332197
 10
9.7666730215
 20
-4.3988409076
 10
9.7561399744
 20
-4.4031810056
 10
9.7420422647
 20
-4.4072634144
 10
9.7246030423
 20
-4.4110501959
 10
9.7037878296
 20
-4.4145391112
 10
9.6796584522
 20
-4.4176811067
 10
9.6526538678
 20
-4.420383627
 10
9.6232874112
 20
-4.4225755046
 10
9.5920739731
 20
-4.4242059004
 10
9.5594886826
 20
-4.4252381896
 10
9.5260906365
 20
-4.425641807
  0
LWPOLYLINE
  5
552
100
AcDbEntity
  8
0
100
AcDbPolyline
 62
7
  6
CONTINUOUS
 90
3
 70
0
 10
8.1999066622
 20
-8.0217855054
 10
8.1932952584
 20
-8.028684457
 10
8.1741008188
 20
-8.0355051405
  0
LINE
  5
553
100
AcDbEntity
  8
0
100
AcDbLine
 62
7
  6
CONTINUOUS
 10
4.0000007246
 20
10.85
 11
-4.0000015261
 21
10.85
  0
LINE
  5
554
100
AcDbEntity
  8
0
100
AcDbLine
 62
250
  6
CONTINUOUS
 10
3.9999999996
 20
10.95
 11
-3.9999999989
 21
10.95
  0
LINE
  5
555
100
AcDbEntity
  8
0
100
AcDbLine
 62
250
  6
CONTINUOUS
 10
5.6665974957
 20
11.4000104917
 11
6.0209244601
 21
11.400013831
  0
LINE
  5
556
100
AcDbEntity
  8
0
100
AcDbLine
 62
250
  6
CONTINUOUS
 10
-5.666592339
 20
11.4000066721
 11
-6.0210822744
 21
11.4000009386
  0
LINE
  5
557
100
AcDbEntity
  8
0
100
AcDbLine
 62
250
  6
CONTINUOUS
 10
-6.032243994
 20
11.3999653016
 11
-9.7564254335
 21
11.4000000212
  0
LINE
  5
558
100
AcDbEntity
  8
0
100
AcDbLine
 62
250
  6
CONTINUOUS
 10
6.0321531906
 20
11.4000123573
 11
9.7564253031
 21
11.4000031361
  0
LINE
  5
559
100
AcDbEntity
  8
0
100
AcDbLine
 62
250
  6
CONTINUOUS
 10
-8.8999881721
 20
12.1252364038
 11
-6.6153792176
 21
12.1252366749
  0
LINE
  5
55A
100
AcDbEntity
  8
0
100
AcDbLine
 62
250
  6
CONTINUOUS
 10
6.6153583749
 20
12.1252416022
 11
8.8999883935
 21
12.125240983
  0
LWPOLYLINE
  5
55B
100
AcDbEntity
  8
0
100
AcDbPolyline
 62
250
  6
CONTINUOUS
 90
25
 70
0
 10
-3.9999999989
 20
10.95
 10
-4.1653660498
 20
10.9565823723
 10
-4.3276457958
 20
10.9738517263
 10
-4.486839237
 20
11.0018080619
 10
-4.643464806
 20
11.0409165219
 10
-4.7970040702
 20
11.0907119636
 10
-4.9459017314
 20
11.149798959
 10
-5.089807485
 20
11.2176962158
 10
-5.2290716355
 20
11.2948850262
 10
-5.3631897987
 20
11.3814138389
 10
-5.4921559422
 20
11.4772116576
 10
-5.6159760983
 20
11.5823494786
 10
-5.7341639794
 20
11.6970887394
 10
-5.8476439042
 20
11.8224058349
 10
-5.9554915541
 20
11.9573243703
 10
-6.0544476857
 20
12.0991765983
 10
-6.143795987
 20
12.2474445038
 10
-6.22425277
 20
12.402646102
 10
-6.2947077272
 20
12.563667691
 10
-6.354982553
 20
12.7301302325
 10
-6.4052555531
 20
12.9024127648
 10
-6.444951337
 20
13.0805387017
 10
-6.4738781081
 20
13.2645158478
 10
-6.4922276631
 20
13.4543363986
 10
-6.500000002
 20
13.650000354
  0
LINE
  5
55C
100
AcDbEntity
  8
0
100
AcDbLine
 62
250
  6
CONTINUOUS
 10
-2.373278654
 20
-14.9165339913
 11
-1.6740636148
 21
-14.6465084349
  0
LINE
  5
55D
100
AcDbEntity
  8
0
100
AcDbLine
 62
250
  6
CONTINUOUS
 10
6.5000000038
 20
13.65
 11
6.7950333527
 21
13.6500013382
  0
LINE
  5
55E
100
AcDbEntity
  8
0
100
AcDbLine
 62
250
  6
CONTINUOUS
 10
-6.7950333086
 20
13.65
 11
-6.5
 21
13.65
  0
LINE
  5
55F
100
AcDbEntity
  8
0
100
AcDbLine
 62
7
  6
CONTINUOUS
 10
8.8957007216
 20
13.9637403221
 11
7.0140473005
 21
13.9637405493
  0
LINE
  5
560
100
AcDbEntity
  8
0
100
AcDbLine
 62
7
  6
CONTINUOUS
 10
-7.0140475581
 20
13.9637406261
 11
-8.8957004068
 21
13.9637403991
  0
LWPOLYLINE
  5
561
100
AcDbEntity
  8
0
100
AcDbPolyline
 62
7
  6
CONTINUOUS
 90
11
 70
0
 10
9.0363787256
 20
15.7968698989
 10
9.0278568549
 20
15.7964904695
 10
9.0199886584
 20
15.7960901374
 10
9.012779475
 20
15.7956698134
 10
9.0063941903
 20
15.7952337241
 10
9.0008487509
 20
15.7947818869
 10
8.9961272102
 20
15.7943142844
 10
8.9923466143
 20
15.7938350918
 10
8.9895459786
 20
15.7933457008
 10
8.9876862876
 20
15.7928447197
 10
8.9867675414
 20
15.7923321484
  0
LINE
  5
562
100
AcDbEntity
  8
0
100
AcDbLine
 62
7
  6
CONTINUOUS
 10
9.0552506379
 20
15.7975672877
 11
9.0363787256
 21
15.7968698989
  0
LINE
  5
563
100
AcDbEntity
  8
0
100
AcDbLine
 62
7
  6
CONTINUOUS
 10
9.07616604
 20
15.7981783351
 11
9.0552506379
 21
15.7975672877
  0
LINE
  5
564
100
AcDbEntity
  8
0
100
AcDbLine
 62
7
  6
CONTINUOUS
 10
9.0986453647
 20
15.7987003014
 11
9.07616604
 21
15.7981783351
  0
LINE
  5
565
100
AcDbEntity
  8
0
100
AcDbLine
 62
7
  6
CONTINUOUS
 10
9.1224330006
 20
15.7991327111
 11
9.0986453647
 21
15.7987003014
  0
LWPOLYLINE
  5
566
100
AcDbEntity
  8
0
100
AcDbPolyline
 62
250
  6
CONTINUOUS
 90
3
 70
0
 10
-9.7501778098
 20
14.1806532739
 10
-9.754633438
 20
14.180598875
 10
-9.7564260439
 20
14.1805263433
  0
LINE
  5
567
100
AcDbEntity
  8
0
100
AcDbLine
 62
7
  6
CONTINUOUS
 10
9.1599210781
 20
15.7996170385
 11
9.1224330006
 21
15.7991327111
  0
LINE
  5
568
100
AcDbEntity
  8
0
100
AcDbLine
 62
7
  6
CONTINUOUS
 10
9.198738071
 20
15.799905427
 11
9.1599210781
 21
15.7996170385
  0
LINE
  5
569
100
AcDbEntity
  8
0
100
AcDbLine
 62
250
  6
CONTINUOUS
 10
-9.7335192262
 20
14.1807016283
 11
-9.7501778098
 21
14.1806532739
  0
LINE
  5
56A
100
AcDbEntity
  8
0
100
AcDbLine
 62
250
  6
CONTINUOUS
 10
-6.7950429412
 20
14.2000001082
 11
6.7950407946
 21
14.2000000025
  0
LINE
  5
56B
100
AcDbEntity
  8
0
100
AcDbLine
 62
7
  6
CONTINUOUS
 10
8.8936440376
 20
14.9771005715
 11
7.0119849426
 21
14.9771005711
  0
LINE
  5
56C
100
AcDbEntity
  8
0
100
AcDbLine
 62
7
  6
CONTINUOUS
 10
-7.0119849761
 20
14.9771005758
 11
-8.8936439226
 21
14.9771005741
  0
LINE
  5
56D
100
AcDbEntity
  8
0
100
AcDbLine
 62
250
  6
CONTINUOUS
 10
7.0119954216
 20
15.0499999995
 11
8.8936572673
 21
15.0499999978
  0
LINE
  5
56E
100
AcDbEntity
  8
0
100
AcDbLine
 62
250
  6
CONTINUOUS
 10
-7.0119983864
 20
15.0499999996
 11
-8.8936588826
 21
15.0499999996
  0
LINE
  5
56F
100
AcDbEntity
  8
0
100
AcDbLine
 62
7
  6
CONTINUOUS
 10
-8.8887779939
 20
15.6033913311
 11
-7.0071184658
 21
15.6033913311
  0
LINE
  5
570
100
AcDbEntity
  8
0
100
AcDbLine
 62
7
  6
CONTINUOUS
 10
7.0071183211
 20
15.6033913307
 11
8.8887780929
 21
15.6033913307
  0
LINE
  5
571
100
AcDbEntity
  8
0
100
AcDbLine
 62
250
  6
CONTINUOUS
 10
6.6991258762
 20
15.7269533912
 11
-6.699255641
 21
15.7269531039
  0
LINE
  5
572
100
AcDbEntity
  8
0
100
AcDbLine
 62
7
  6
CONTINUOUS
 10
6.6995853056
 20
15.7760534563
 11
-6.6997958081
 21
15.7760534563
  0
LINE
  5
573
100
AcDbEntity
  8
0
100
AcDbLine
 62
7
  6
CONTINUOUS
 10
8.9867675414
 20
15.7923321484
 11
-8.9867646515
 21
15.7923321472
  0
LINE
  5
574
100
AcDbEntity
  8
0
100
AcDbLine
 62
7
  6
CONTINUOUS
 10
-9.2380847869
 20
15.8000005096
 11
9.2381454863
 21
15.8000005237
  0
LINE
  5
575
100
AcDbEntity
  8
0
100
AcDbLine
 62
250
  6
CONTINUOUS
 10
-6.7950352393
 20
14.1806845009
 11
-9.7335192262
 21
14.1807016283
  0
LWPOLYLINE
  5
576
100
AcDbEntity
  8
0
100
AcDbPolyline
 62
250
  6
CONTINUOUS
 90
4
 70
0
 10
6.7950342332
 20
14.1806892947
 10
9.7463904347
 20
14.1806199589
 10
9.7535952937
 20
14.1805758581
 10
9.7564253031
 20
14.1805170571
  0
LINE
  5
577
100
AcDbEntity
  8
0
100
AcDbLine
 62
7
  6
CONTINUOUS
 10
-9.1986909367
 20
15.7999051966
 11
-9.1598877064
 21
15.7996167023
  0
LINE
  5
578
100
AcDbEntity
  8
0
100
AcDbLine
 62
7
  6
CONTINUOUS
 10
-9.1598877064
 20
15.7996167023
 11
-9.1224035967
 21
15.7991322415
  0
LINE
  5
579
100
AcDbEntity
  8
0
100
AcDbLine
 62
7
  6
CONTINUOUS
 10
-9.1224035967
 20
15.7991322415
 11
-9.0986205239
 21
15.7986997924
  0
LINE
  5
57A
100
AcDbEntity
  8
0
100
AcDbLine
 62
7
  6
CONTINUOUS
 10
-9.0986205239
 20
15.7986997924
 11
-9.0761454101
 21
15.7981777959
  0
LINE
  5
57B
100
AcDbEntity
  8
0
100
AcDbLine
 62
7
  6
CONTINUOUS
 10
-9.0761454101
 20
15.7981777959
 11
-9.0552337093
 21
15.7975667319
  0
LWPOLYLINE
  5
57C
100
AcDbEntity
  8
0
100
AcDbPolyline
 62
7
  6
CONTINUOUS
 90
12
 70
0
 10
-9.0552337093
 20
15.7975667319
 10
-9.0363666302
 20
15.796869397
 10
-9.0278470198
 20
15.7964900029
 10
-9.0199806777
 20
15.7960897011
 10
-9.0127731101
 20
15.795669409
 10
-9.0063892998
 20
15.7952333608
 10
-9.0008453769
 20
15.7947815795
 10
-8.9961252114
 20
15.7943140422
 10
-8.9923453967
 20
15.7938349137
 10
-8.9895447974
 20
15.7933455826
 10
-8.987684549
 20
15.7928446604
 10
-8.9867646515
 20
15.7923321472
  0
LINE
  5
57D
100
AcDbEntity
  8
0
100
AcDbLine
 62
250
  6
CONTINUOUS
 10
7.0157496984
 20
13.6342197541
 11
7.0140471344
 21
13.6352292997
  0
LINE
  5
57E
100
AcDbEntity
  8
ASSI
100
AcDbLine
 62
250
  6
CONTINUOUS
 10
10.0282352926
 20
-18.1797639505
 11
10.0017927407
 21
-18.2307790647
  0
LINE
  5
57F
100
AcDbEntity
  8
0
100
AcDbLine
 62
250
  6
CONTINUOUS
 10
-8.8034371041
 20
17.179661279
 11
8.8034366067
 21
17.179661279
  0
LINE
  5
580
100
AcDbEntity
  8
0
100
AcDbLine
 62
7
  6
CONTINUOUS
 10
-9.0003045923
 20
17.475
 11
9.0003024346
 21
17.475
  0
LINE
  5
581
100
AcDbEntity
  8
0
100
AcDbLine
 62
7
  6
CONTINUOUS
 10
-9.0378300776
 20
17.5055481031
 11
9.0380304308
 21
17.5055481091
  0
LWPOLYLINE
  5
582
100
AcDbEntity
  8
0
100
AcDbPolyline
 62
250
  6
CONTINUOUS
 90
16
 70
0
 10
9.5206406444
 20
16.3083082045
 10
9.5465534959
 20
16.3071061983
 10
9.5721842653
 20
16.3040065277
 10
9.5972567292
 20
16.2990424316
 10
9.6214780844
 20
16.2922745
 10
9.6446118896
 20
16.2837715512
 10
9.6664693179
 20
16.2735937408
 10
9.6868637199
 20
16.2617970743
 10
9.705484612
 20
16.2485282853
 10
9.7220060461
 20
16.2340248143
 10
9.7362297392
 20
16.218511348
 10
9.7480856827
 20
16.2021220903
 10
9.7574993829
 20
16.1849911709
 10
9.7643834292
 20
16.1672857569
 10
9.7686616649
 20
16.1492124007
 10
9.7702964727
 20
16.1309642857
  0
LWPOLYLINE
  5
583
100
AcDbEntity
  8
0
100
AcDbPolyline
 62
7
  6
CONTINUOUS
 90
13
 70
0
 10
6.7238570115
 20
15.7235883054
 10
6.7325334077
 20
15.722635728
 10
6.7412574912
 20
15.7215984096
 10
6.7499260582
 20
15.7198603889
 10
6.7583205535
 20
15.7171714603
 10
6.7663404958
 20
15.7137901957
 10
6.7739785253
 20
15.7098505673
 10
6.78098743
 20
15.7054513641
 10
6.7871886197
 20
15.7005550764
 10
6.7924911735
 20
15.6950669059
 10
6.796564614
 20
15.6890242685
 10
6.7991190898
 20
15.6826170028
 10
6.7999999946
 20
15.6760390195
  0
LWPOLYLINE
  5
584
100
AcDbEntity
  8
0
100
AcDbPolyline
 62
7
  6
CONTINUOUS
 90
3
 70
0
 10
6.6991258763
 20
15.7269533433
 10
6.7070556771
 20
15.7258052072
 10
6.7238570115
 20
15.7235883054
  0
LINE
  5
585
100
AcDbEntity
  8
ASSI
100
AcDbLine
 62
250
  6
CONTINUOUS
 10
10.0017927407
 20
18.2307790647
 11
10.0282352926
 21
18.1797639505
  0
LWPOLYLINE
  5
586
100
AcDbEntity
  8
ASSI
100
AcDbPolyline
 62
7
  6
CONTINUOUS
 90
10
 70
0
 10
10.9157929742
 20
-17.086390382
 10
10.9584956644
 20
-17.0264427503
 10
10.9963946449
 20
-16.9642469207
 10
11.0294899157
 20
-16.8998028933
 10
11.0579061522
 20
-16.8327439812
 10
11.0815186789
 20
-16.7634368711
 10
11.0999534699
 20
-16.6929816239
 10
11.1130858499
 20
-16.6217449262
 10
11.1210404941
 20
-16.5493600913
 10
11.1238174026
 20
-16.4758271192
  0
LWPOLYLINE
  5
587
100
AcDbEntity
  8
RACCORDO
100
AcDbPolyline
 62
7
  6
CONTINUOUS
 90
10
 70
0
 10
10.9157929742
 20
-17.086390382
 10
10.9582685423
 20
-17.0269709105
 10
10.9960422748
 20
-16.9650423294
 10
11.0291141717
 20
-16.9006046386
 10
11.0576690331
 20
-16.8331193224
 10
11.0815220589
 20
-16.7631248966
 10
11.1001188487
 20
-16.6922369087
 10
11.1132746026
 20
-16.6209938743
 10
11.1211741205
 20
-16.5488572778
 10
11.1238174026
 20
-16.4758271192
  0
LINE
  5
588
100
AcDbEntity
  8
ASSI
100
AcDbLine
 62
7
  6
CONTINUOUS
 10
6.7330351795
 20
-18.85
 11
6.6330351795
 21
-18.95
  0
LINE
  5
589
100
AcDbEntity
  8
0
100
AcDbLine
 62
7
  6
CONTINUOUS
 10
6.7330351795
 20
-18.85
 11
6.6330351795
 21
-18.95
  0
LWPOLYLINE
  5
58A
100
AcDbEntity
  8
0
100
AcDbPolyline
 62
250
  6
CONTINUOUS
 90
16
 70
0
 10
-8.8034371041
 20
17.1796612769
 10
-8.8926848395
 20
17.1685634046
 10
-8.9739346093
 20
17.1473477208
 10
-9.0471864135
 20
17.1184564858
 10
-9.1103644067
 20
17.0856005421
 10
-9.1655444343
 20
17.0498876807
 10
-9.2189540326
 20
17.0073124224
 10
-9.2735803211
 20
16.9553336333
 10
-9.3264361803
 20
16.8951614797
 10
-9.374787789
 20
16.8261032123
 10
-9.4193602999
 20
16.744778355
 10
-9.4594285603
 20
16.6531776036
 10
-9.4900832905
 20
16.5609098625
 10
-9.509688064
 20
16.4732301899
 10
-9.5198793073
 20
16.3885215277
 10
-9.5206570205
 20
16.3080661627
  0
LWPOLYLINE
  5
58B
100
AcDbEntity
  8
0
100
AcDbPolyline
 62
250
  6
CONTINUOUS
 90
19
 70
0
 10
-8.8034371041
 20
17.1796612769
 10
-8.908671691
 20
17.1697143402
 10
-9.0063481482
 20
17.1498456541
 10
-9.0957468165
 20
17.1222102428
 10
-9.1751343213
 20
17.0894896496
 10
-9.2459438049
 20
17.053150124
 10
-9.3121903024
 20
17.0122920031
 10
-9.3741141702
 20
16.9672176022
 10
-9.4311341493
 20
16.9188368515
 10
-9.485271339
 20
16.8655965909
 10
-9.5354159009
 20
16.8083974805
 10
-9.581875745
 20
16.7467448972
 10
-9.6273081964
 20
16.6756641719
 10
-9.6723781207
 20
16.5895179918
 10
-9.7116653063
 20
16.492723912
 10
-9.740264146
 20
16.3961901398
 10
-9.7584329246
 20
16.3048395508
 10
-9.7682332601
 20
16.2161681975
 10
-9.7705848618
 20
16.1309687935
  0
LINE
  5
58C
100
AcDbEntity
  8
0
100
AcDbLine
 62
7
  6
CONTINUOUS
 10
7.3999999994
 20
18.9
 11
6.7830351795
 21
18.9
  0
LINE
  5
58D
100
AcDbEntity
  8
0
100
AcDbLine
 62
7
  6
CONTINUOUS
 10
6.6830351795
 20
18.9
 11
1.9
 21
18.9
  0
LINE
  5
58E
100
AcDbEntity
  8
0
100
AcDbLine
 62
7
  6
CONTINUOUS
 10
-1.9
 20
18.9
 11
-6.6830351795
 21
18.9
  0
LINE
  5
58F
100
AcDbEntity
  8
0
100
AcDbLine
 62
7
  6
CONTINUOUS
 10
-6.7830351795
 20
18.9
 11
-7.3999999981
 21
18.9
  0
LINE
  5
590
100
AcDbEntity
  8
ASSI
100
AcDbLine
 62
7
  6
CONTINUOUS
 10
-7.3999999975
 20
18.95
 11
-6.8330351795
 21
18.95
  0
LINE
  5
591
100
AcDbEntity
  8
DRAFT
100
AcDbLine
 62
7
  6
CONTINUOUS
 10
-7.3999999975
 20
18.95
 11
-6.8330351795
 21
18.95
  0
LINE
  5
592
100
AcDbEntity
  8
ASSI
100
AcDbLine
 62
7
  6
CONTINUOUS
 10
-6.6330351795
 20
18.95
 11
-6.0856534392
 21
18.95
  0
LINE
  5
593
100
AcDbEntity
  8
DRAFT
100
AcDbLine
 62
7
  6
CONTINUOUS
 10
-6.6330351795
 20
18.95
 11
-6.0856534392
 21
18.95
  0
LINE
  5
594
100
AcDbEntity
  8
ASSI
100
AcDbLine
 62
7
  6
CONTINUOUS
 10
6.0856534392
 20
18.95
 11
6.6330351795
 21
18.95
  0
LINE
  5
595
100
AcDbEntity
  8
DRAFT
100
AcDbLine
 62
7
  6
CONTINUOUS
 10
6.0856534392
 20
18.95
 11
6.6330351795
 21
18.95
  0
LINE
  5
596
100
AcDbEntity
  8
ASSI
100
AcDbLine
 62
7
  6
CONTINUOUS
 10
6.8330351795
 20
18.95
 11
7.3999999997
 21
18.95
  0
LINE
  5
597
100
AcDbEntity
  8
DRAFT
100
AcDbLine
 62
7
  6
CONTINUOUS
 10
6.8330351795
 20
18.95
 11
7.4
 21
18.95
  0
LINE
  5
598
100
AcDbEntity
  8
ASSI
100
AcDbLine
 62
7
  6
CONTINUOUS
 10
6.0830351795
 20
19.1
 11
2.8366556363
 21
19.1
  0
LINE
  5
599
100
AcDbEntity
  8
DRAFT
100
AcDbLine
 62
7
  6
CONTINUOUS
 10
6.0830351795
 20
19.1
 11
2.8366556363
 21
19.1
  0
LINE
  5
59A
100
AcDbEntity
  8
ASSI
100
AcDbLine
 62
7
  6
CONTINUOUS
 10
2.8334640208
 20
19.1
 11
1.9
 21
19.1
  0
LINE
  5
59B
100
AcDbEntity
  8
RACCORDO
100
AcDbLine
 62
7
  6
CONTINUOUS
 10
2.8334640208
 20
19.1
 11
1.9
 21
19.1
  0
LINE
  5
59C
100
AcDbEntity
  8
RACCORDO
100
AcDbLine
 62
7
  6
CONTINUOUS
 10
-1.9
 20
19.1
 11
-2.8334640208
 21
19.1
  0
LINE
  5
59D
100
AcDbEntity
  8
ASSI
100
AcDbLine
 62
7
  6
CONTINUOUS
 10
-1.9
 20
19.1
 11
-6.0830351795
 21
19.1
  0
LINE
  5
59E
100
AcDbEntity
  8
DRAFT
100
AcDbLine
 62
7
  6
CONTINUOUS
 10
-2.8366556363
 20
19.1
 11
-6.0830351795
 21
19.1
  0
LWPOLYLINE
  5
59F
100
AcDbEntity
  8
0
100
AcDbPolyline
 62
7
  6
CONTINUOUS
 90
19
 70
0
 10
9.0003032628
 20
17.4749999996
 10
9.088605209
 20
17.4710904011
 10
9.1754713985
 20
17.4595296459
 10
9.260260976
 20
17.4406025589
 10
9.342051848
 20
17.4147610975
 10
9.4206408779
 20
17.3823196688
 10
9.4964339628
 20
17.3431774395
 10
9.5691117063
 20
17.297372089
 10
9.6378064253
 20
17.2453154733
 10
9.7020137132
 20
17.1872879593
 10
9.761127504
 20
17.1237321323
 10
9.8147114289
 20
17.0550009033
 10
9.8624713497
 20
16.9812431398
 10
9.9041332231
 20
16.9023900264
 10
9.9388522621
 20
16.8194613649
 10
9.9658038592
 20
16.7344143798
 10
9.984867665
 20
16.6484441638
 10
9.9962356217
 20
16.5618149797
 10
10.0000000056
 20
16.475211001
  0
LWPOLYLINE
  5
5A0
100
AcDbEntity
  8
0
100
AcDbPolyline
 62
250
  6
CONTINUOUS
 90
19
 70
0
 10
8.8034366067
 20
17.1796612811
 10
8.90813765
 20
17.1697937764
 10
9.0054316026
 20
17.1500800248
 10
9.0946019827
 20
17.1226227185
 10
9.1739415191
 20
17.0900402458
 10
9.2448353633
 20
17.0537727539
 10
9.3111929992
 20
17.01295776
 10
9.3731766896
 20
16.9679499279
 10
9.4302810651
 20
16.9196083265
 10
9.4846411175
 20
16.8662564864
 10
9.5352617822
 20
16.8085831027
 10
9.5822367566
 20
16.7462261662
 10
9.6278979626
 20
16.6746501481
 10
9.6728227856
 20
16.5885536957
 10
9.7118631177
 20
16.4921451706
 10
9.7403176075
 20
16.3959582992
 10
9.7584431813
 20
16.304758804
 10
9.7682327436
 20
16.2161647362
 10
9.770585255
 20
16.1309643031
  0
LWPOLYLINE
  5
5A1
100
AcDbEntity
  8
0
100
AcDbPolyline
 62
250
  6
CONTINUOUS
 90
16
 70
0
 10
8.8034366067
 20
17.179661279
 10
8.8967694798
 20
17.1677500834
 10
8.9812442575
 20
17.1448875354
 10
9.0568609397
 20
17.1139116129
 10
9.1213327074
 20
17.0790762868
 10
9.1769463796
 20
17.0416490189
 10
9.2305624138
 20
16.9971144883
 10
9.2855850795
 20
16.9422634993
 10
9.3386101072
 20
16.8787938946
 10
9.3862851462
 20
16.8073806325
 10
9.4287016479
 20
16.7257889768
 10
9.4657681609
 20
16.6357863891
 10
9.4938579802
 20
16.546355489
 10
9.5117622043
 20
16.4624031257
 10
9.5206897348
 20
16.3826104733
 10
9.5206405716
 20
16.3082449605
  0
LINE
  5
5A2
100
AcDbEntity
  8
ASSI
100
AcDbLine
 62
7
  6
CONTINUOUS
 10
6.6330351795
 20
18.95
 11
6.7330351795
 21
18.85
  0
LINE
  5
5A3
100
AcDbEntity
  8
0
100
AcDbLine
 62
7
  6
CONTINUOUS
 10
6.6330351795
 20
18.95
 11
6.7330351795
 21
18.85
  0
LWPOLYLINE
  5
5A4
100
AcDbEntity
  8
RACCORDO
100
AcDbPolyline
 62
7
  6
CONTINUOUS
 90
10
 70
0
 10
10.9425612894
 20
17.0730847657
 10
10.9849181826
 20
17.0137191992
 10
11.0225862052
 20
16.9518531464
 10
11.0555653571
 20
16.8874866073
 10
11.0840398601
 20
16.8200823708
 10
11.1078254924
 20
16.7501776479
 10
11.126369589
 20
16.6793840721
 10
11.1394879283
 20
16.6082388542
 10
11.147364732
 20
16.5362047833
 10
11.15
 20
16.4632818593
  0
LWPOLYLINE
  5
5A5
100
AcDbEntity
  8
ASSI
100
AcDbPolyline
 62
7
  6
CONTINUOUS
 90
10
 70
0
 10
10.9425612894
 20
17.0730847657
 10
10.9851465683
 20
17.0131878127
 10
11.0229406824
 20
16.9510522655
 10
11.0559436316
 20
16.886678124
 10
11.0842793739
 20
16.8197002379
 10
11.1078239514
 20
16.7504837575
 10
11.1262054901
 20
16.6801241343
 10
11.1393000321
 20
16.6089865188
 10
11.1472315354
 20
16.5367057604
 10
11.15
 20
16.4632818593
  0
LWPOLYLINE
  5
5A6
100
AcDbEntity
  8
0
100
AcDbPolyline
 62
7
  6
CONTINUOUS
 90
10
 70
0
 10
9.8831393161
 20
-18.4168606839
 10
9.9131206948
 20
-18.384014007
 10
9.9397978301
 20
-18.3492952548
 10
9.9631707221
 20
-18.3127044273
 10
9.9833663876
 20
-18.2739358246
 10
10.0002578097
 20
-18.2332951466
 10
10.0134639379
 20
-18.1916994924
 10
10.0228577554
 20
-18.1494545617
 10
10.0285662789
 20
-18.1062546548
 10
10.0305895084
 20
-18.0620997717
  0
LINE
  5
5A7
100
AcDbEntity
  8
ASSI
100
AcDbLine
 62
7
  6
CONTINUOUS
 10
10.0119105314
 20
-18.1965922936
 11
10.0282352926
 21
-18.1797639505
  0
LINE
  5
5A8
100
AcDbEntity
  8
RACCORDO
100
AcDbLine
 62
7
  6
CONTINUOUS
 10
10.0121021061
 20
-18.1959888863
 11
10.0282352926
 21
-18.1797639505
  0
LINE
  5
5A9
100
AcDbEntity
  8
ASSI
100
AcDbLine
 62
7
  6
CONTINUOUS
 10
7.3830351795
 20
-20.9
 11
7.5226756989
 21
-20.7603594806
  0
LINE
  5
5AA
100
AcDbEntity
  8
DRAFT
100
AcDbLine
 62
7
  6
CONTINUOUS
 10
7.3830351795
 20
-20.9
 11
7.5226756989
 21
-20.7603594806
  0
LINE
  5
5AB
100
AcDbEntity
  8
0
100
AcDbLine
 62
7
  6
CONTINUOUS
 10
9.8831393161
 20
-18.4168606839
 11
8.5462459094
 21
-19.7537540906
  0
LINE
  5
5AC
100
AcDbEntity
  8
ASSI
100
AcDbLine
 62
250
  6
CONTINUOUS
 10
10.9425612895
 20
-17.0730847656
 11
10.9157929741
 21
-17.0863903821
  0
LINE
  5
5AD
100
AcDbEntity
  8
RACCORDO
100
AcDbLine
 62
250
  6
CONTINUOUS
 10
10.9425612895
 20
-17.0730847656
 11
10.9157929741
 21
-17.0863903821
  0
LINE
  5
5AE
100
AcDbEntity
  8
ASSI
100
AcDbLine
 62
250
  6
CONTINUOUS
 10
11.15
 20
-16.463281859
 11
11.1238174026
 21
-16.4758271193
  0
LINE
  5
5AF
100
AcDbEntity
  8
RACCORDO
100
AcDbLine
 62
250
  6
CONTINUOUS
 10
11.15
 20
-16.463281859
 11
11.1238174026
 21
-16.4758271193
  0
LWPOLYLINE
  5
5B0
100
AcDbEntity
  8
0
100
AcDbPolyline
 62
7
  6
CONTINUOUS
 90
16
 70
0
 10
7.8992934366
 20
19.9000000067
 10
7.8464120992
 20
19.8971000699
 10
7.7951218954
 20
19.889013889
 10
7.7454228249
 20
19.875741464
 10
7.6967885709
 20
19.8570434596
 10
7.6497454503
 20
19.8331592111
 10
7.6058724143
 20
19.8048067237
 10
7.5652596944
 20
19.7717842285
 10
7.527817059
 20
19.7342934944
 10
7.4948527648
 20
19.6936578333
 10
7.4665706095
 20
19.6497907905
 10
7.4427667953
 20
19.6027788206
 10
7.4241381855
 20
19.5542045994
 10
7.4109170678
 20
19.5045956853
 10
7.4028711546
 20
19.4534245199
 10
7.4000004457
 20
19.400691103
  0
LINE
  5
5B1
100
AcDbEntity
  8
ASSI
100
AcDbLine
 62
7
  6
CONTINUOUS
 10
3.4452396157
 20
21.2139629885
 11
3.2221796168
 21
21.202894032
  0
LINE
  5
5B2
100
AcDbEntity
  8
DRAFT
100
AcDbLine
 62
7
  6
CONTINUOUS
 10
3.4452396157
 20
21.2139629885
 11
3.2221796168
 21
21.202894032
  0
LINE
  5
5B3
100
AcDbEntity
  8
ASSI
100
AcDbLine
 62
250
  6
CONTINUOUS
 10
2.7904532343
 20
21.1771527675
 11
3.2502365039
 21
21.1999086032
  0
LINE
  5
5B4
100
AcDbEntity
  8
RACCORDO
100
AcDbLine
 62
250
  6
CONTINUOUS
 10
2.7904532343
 20
21.1771527675
 11
3.2502365039
 21
21.1999086032
  0
LWPOLYLINE
  5
5B5
100
AcDbEntity
  8
0
100
AcDbPolyline
 62
7
  6
CONTINUOUS
 90
10
 70
0
 10
-8.1931770515
 20
19.9000000006
 10
-8.2372302453
 20
19.8979833133
 10
-8.2803063499
 20
19.8923136733
 10
-8.3224053653
 20
19.8829910806
 10
-8.3638322793
 20
19.8698892176
 10
-8.404282104
 20
19.8531344018
 10
-8.442839876
 20
19.8331055862
 10
-8.4792006073
 20
19.8099290882
 10
-8.5136692858
 20
19.7834785904
 10
-8.5462459115
 20
19.7537540927
  0
LINE
  5
5B6
100
AcDbEntity
  8
ASSI
100
AcDbLine
 62
7
  6
CONTINUOUS
 10
-2.8296736104
 20
19.5
 11
2.8296736104
 21
19.5
  0
LINE
  5
5B7
100
AcDbEntity
  8
SMUSSO
100
AcDbLine
 62
7
  6
CONTINUOUS
 10
-2.8296736104
 20
19.5
 11
2.8296736104
 21
19.5
  0
LINE
  5
5B8
100
AcDbEntity
  8
ASSI
100
AcDbLine
 62
7
  6
CONTINUOUS
 10
-2.8272050914
 20
19.6414213562
 11
2.8272050914
 21
19.6414213562
  0
LINE
  5
5B9
100
AcDbEntity
  8
SMUSSO
100
AcDbLine
 62
7
  6
CONTINUOUS
 10
-2.8272050914
 20
19.6414213562
 11
2.8272050914
 21
19.6414213562
  0
LINE
  5
5BA
100
AcDbEntity
  8
ASSI
100
AcDbLine
 62
7
  6
CONTINUOUS
 10
7.2084845302
 20
19.8
 11
-7.2084845302
 21
19.8
  0
LINE
  5
5BB
100
AcDbEntity
  8
DRAFT
100
AcDbLine
 62
7
  6
CONTINUOUS
 10
7.2084845302
 20
19.8
 11
-7.2084845302
 21
19.8
  0
LINE
  5
5BC
100
AcDbEntity
  8
0
100
AcDbLine
 62
7
  6
CONTINUOUS
 10
8.1931770515
 20
19.9000000019
 11
7.8992934366
 21
19.9000000049
  0
LINE
  5
5BD
100
AcDbEntity
  8
0
100
AcDbLine
 62
7
  6
CONTINUOUS
 10
-7.8993088812
 20
19.9000000027
 11
-8.1931770515
 21
19.9
  0
LINE
  5
5BE
100
AcDbEntity
  8
ASSI
100
AcDbLine
 62
7
  6
CONTINUOUS
 10
7.2084845302
 20
20.1483339502
 11
-7.2084845302
 21
20.1483339502
  0
LINE
  5
5BF
100
AcDbEntity
  8
DRAFT
100
AcDbLine
 62
7
  6
CONTINUOUS
 10
7.2084845302
 20
20.1483339502
 11
-7.2084845302
 21
20.1483339502
  0
LINE
  5
5C0
100
AcDbEntity
  8
ASSI
100
AcDbLine
 62
7
  6
CONTINUOUS
 10
-9.5103594806
 20
20.7603594806
 11
-7.5226756989
 21
20.7603594806
  0
LINE
  5
5C1
100
AcDbEntity
  8
DRAFT
100
AcDbLine
 62
7
  6
CONTINUOUS
 10
-9.5103594806
 20
20.7603594806
 11
-7.5226756989
 21
20.7603594806
  0
LINE
  5
5C2
100
AcDbEntity
  8
ASSI
100
AcDbLine
 62
7
  6
CONTINUOUS
 10
7.5226756989
 20
20.7603594806
 11
9.5103594806
 21
20.7603594806
  0
LINE
  5
5C3
100
AcDbEntity
  8
DRAFT
100
AcDbLine
 62
7
  6
CONTINUOUS
 10
7.5226756989
 20
20.7603594806
 11
9.5103594806
 21
20.7603594806
  0
LINE
  5
5C4
100
AcDbEntity
  8
ASSI
100
AcDbLine
 62
7
  6
CONTINUOUS
 10
9.65
 20
20.9
 11
7.3830351795
 21
20.9
  0
LINE
  5
5C5
100
AcDbEntity
  8
DRAFT
100
AcDbLine
 62
7
  6
CONTINUOUS
 10
9.65
 20
20.9
 11
7.3830351795
 21
20.9
  0
LINE
  5
5C6
100
AcDbEntity
  8
ASSI
100
AcDbLine
 62
7
  6
CONTINUOUS
 10
-7.3830351795
 20
20.9
 11
-9.65
 21
20.9
  0
LINE
  5
5C7
100
AcDbEntity
  8
DRAFT
100
AcDbLine
 62
7
  6
CONTINUOUS
 10
-7.3830351795
 20
20.9
 11
-9.65
 21
20.9
  0
LINE
  5
5C8
100
AcDbEntity
  8
ASSI
100
AcDbLine
 62
250
  6
CONTINUOUS
 10
-3.2502365039
 20
21.1999086032
 11
-2.7904532343
 21
21.1771527675
  0
LINE
  5
5C9
100
AcDbEntity
  8
RACCORDO
100
AcDbLine
 62
250
  6
CONTINUOUS
 10
-3.2502365039
 20
21.1999086032
 11
-2.7904532343
 21
21.1771527675
  0
LINE
  5
5CA
100
AcDbEntity
  8
ASSI
100
AcDbLine
 62
7
  6
CONTINUOUS
 10
-3.4452396157
 20
21.2139629885
 11
-3.2221796168
 21
21.202894032
  0
LINE
  5
5CB
100
AcDbEntity
  8
DRAFT
100
AcDbLine
 62
7
  6
CONTINUOUS
 10
-3.4452396157
 20
21.2139629885
 11
-3.2221796168
 21
21.202894032
  0
LINE
  5
5CC
100
AcDbEntity
  8
ASSI
100
AcDbLine
 62
250
  6
CONTINUOUS
 10
11.1238174026
 20
16.4758271193
 11
11.15
 21
16.463281859
  0
LINE
  5
5CD
100
AcDbEntity
  8
RACCORDO
100
AcDbLine
 62
250
  6
CONTINUOUS
 10
11.1238174026
 20
16.4758271193
 11
11.15
 21
16.463281859
  0
LINE
  5
5CE
100
AcDbEntity
  8
ASSI
100
AcDbLine
 62
250
  6
CONTINUOUS
 10
10.9157929741
 20
17.0863903821
 11
10.9425612895
 21
17.0730847656
  0
LINE
  5
5CF
100
AcDbEntity
  8
RACCORDO
100
AcDbLine
 62
250
  6
CONTINUOUS
 10
10.9157929741
 20
17.0863903821
 11
10.9425612895
 21
17.0730847656
  0
LWPOLYLINE
  5
5D0
100
AcDbEntity
  8
0
100
AcDbPolyline
 62
7
  6
CONTINUOUS
 90
10
 70
0
 10
8.5462459094
 20
19.7537540906
 10
8.5136695323
 20
19.7834784242
 10
8.4792010458
 20
19.8099288123
 10
8.4428404499
 20
19.8331052548
 10
8.4042827639
 20
19.853134087
 10
8.3638329685
 20
19.8698889736
 10
8.3224060054
 20
19.8829909091
 10
8.2803068551
 20
19.8923135585
 10
8.2372305372
 20
19.8979832569
 10
8.1931770515
 20
19.9000000043
  0
LINE
  5
5D1
100
AcDbEntity
  8
ASSI
100
AcDbLine
 62
7
  6
CONTINUOUS
 10
7.3830351795
 20
20.9
 11
7.5226756989
 21
20.7603594806
  0
LINE
  5
5D2
100
AcDbEntity
  8
DRAFT
100
AcDbLine
 62
7
  6
CONTINUOUS
 10
7.3830351795
 20
20.9
 11
7.5226756989
 21
20.7603594806
  0
LINE
  5
5D3
100
AcDbEntity
  8
0
100
AcDbLine
 62
7
  6
CONTINUOUS
 10
8.5462459094
 20
19.7537540906
 11
9.8831364273
 21
18.416857787
  0
LINE
  5
5D4
100
AcDbEntity
  8
RACCORDO
100
AcDbLine
 62
7
  6
CONTINUOUS
 10
10.0282352926
 20
18.1797639505
 11
10.0120993891
 21
18.1959916188
  0
LINE
  5
5D5
100
AcDbEntity
  8
ASSI
100
AcDbLine
 62
7
  6
CONTINUOUS
 10
10.0282352926
 20
18.1797639505
 11
10.0119078764
 21
18.1965950305
  0
LINE
  5
5D6
100
AcDbEntity
  8
DRAFT
100
AcDbLine
 62
7
  6
CONTINUOUS
 10
-7.3830351795
 20
20.9
 11
-7.2322076372
 21
20.9330083283
  0
LINE
  5
5D7
100
AcDbEntity
  8
ASSI
100
AcDbLine
 62
250
  6
CONTINUOUS
 10
2.6848155072
 20
21.3292298715
 11
3.0983838146
 21
21.349698412
  0
LINE
  5
5D8
100
AcDbEntity
  8
RACCORDO
100
AcDbLine
 62
250
  6
CONTINUOUS
 10
2.6848155072
 20
21.3292298715
 11
3.0983838146
 21
21.349698412
  0
LINE
  5
5D9
100
AcDbEntity
  8
ASSI
100
AcDbLine
 62
7
  6
CONTINUOUS
 10
3.1
 20
22.4
 11
3.0104834329
 21
22.3955695989
  0
LINE
  5
5DA
100
AcDbEntity
  8
DRAFT
100
AcDbLine
 62
7
  6
CONTINUOUS
 10
3.1
 20
22.4
 11
3.0104834329
 21
22.3955695989
  0
LINE
  5
5DB
100
AcDbEntity
  8
ASSI
100
AcDbLine
 62
7
  6
CONTINUOUS
 10
-6.9576125104
 20
21.1771527675
 11
-2.7904532343
 21
21.1771527675
  0
LINE
  5
5DC
100
AcDbEntity
  8
RACCORDO
100
AcDbLine
 62
7
  6
CONTINUOUS
 10
-6.9576125104
 20
21.1771527675
 11
-2.7904532343
 21
21.1771527675
  0
LINE
  5
5DD
100
AcDbEntity
  8
ASSI
100
AcDbLine
 62
7
  6
CONTINUOUS
 10
2.7904532343
 20
21.1771527675
 11
6.9576125104
 21
21.1771527675
  0
LINE
  5
5DE
100
AcDbEntity
  8
RACCORDO
100
AcDbLine
 62
7
  6
CONTINUOUS
 10
2.7904532343
 20
21.1771527675
 11
6.9576125104
 21
21.1771527675
  0
LINE
  5
5DF
100
AcDbEntity
  8
ASSI
100
AcDbLine
 62
7
  6
CONTINUOUS
 10
-6.9712561167
 20
21.2139629885
 11
-3.4452396157
 21
21.2139629885
  0
LINE
  5
5E0
100
AcDbEntity
  8
DRAFT
100
AcDbLine
 62
7
  6
CONTINUOUS
 10
-6.9712561167
 20
21.2139629885
 11
-3.4452396157
 21
21.2139629885
  0
LINE
  5
5E1
100
AcDbEntity
  8
ASSI
100
AcDbLine
 62
7
  6
CONTINUOUS
 10
3.4452396157
 20
21.2139629885
 11
6.9712561167
 21
21.2139629885
  0
LINE
  5
5E2
100
AcDbEntity
  8
DRAFT
100
AcDbLine
 62
7
  6
CONTINUOUS
 10
3.4452396157
 20
21.2139629885
 11
6.9712561167
 21
21.2139629885
  0
LINE
  5
5E3
100
AcDbEntity
  8
ASSI
100
AcDbLine
 62
7
  6
CONTINUOUS
 10
-3.0104834329
 20
22.3955695989
 11
3.0104834329
 21
22.3955695989
  0
LINE
  5
5E4
100
AcDbEntity
  8
DRAFT
100
AcDbLine
 62
7
  6
CONTINUOUS
 10
-3.0104834329
 20
22.3955695989
 11
3.0104834329
 21
22.3955695989
  0
LINE
  5
5E5
100
AcDbEntity
  8
ASSI
100
AcDbLine
 62
7
  6
CONTINUOUS
 10
10.6503805997
 20
22.4
 11
5.55
 21
22.4
  0
LINE
  5
5E6
100
AcDbEntity
  8
DRAFT
100
AcDbLine
 62
7
  6
CONTINUOUS
 10
10.6503805997
 20
22.4
 11
5.55
 21
22.4
  0
LINE
  5
5E7
100
AcDbEntity
  8
ASSI
100
AcDbLine
 62
7
  6
CONTINUOUS
 10
-3.3821231691
 20
22.4
 11
3.3821231691
 21
22.4
  0
LINE
  5
5E8
100
AcDbEntity
  8
DRAFT
100
AcDbLine
 62
7
  6
CONTINUOUS
 10
-3.3821231691
 20
22.4
 11
3.3821231691
 21
22.4
  0
LINE
  5
5E9
100
AcDbEntity
  8
ASSI
100
AcDbLine
 62
7
  6
CONTINUOUS
 10
-5.55
 20
22.4
 11
-10.6503805997
 21
22.4
  0
LINE
  5
5EA
100
AcDbEntity
  8
DRAFT
100
AcDbLine
 62
7
  6
CONTINUOUS
 10
-5.55
 20
22.4
 11
-10.6503805997
 21
22.4
  0
LINE
  5
5EB
100
AcDbEntity
  8
ASSI
100
AcDbLine
 62
250
  6
CONTINUOUS
 10
-3.0983838146
 20
21.349698412
 11
-2.6848155072
 21
21.3292298715
  0
LINE
  5
5EC
100
AcDbEntity
  8
RACCORDO
100
AcDbLine
 62
250
  6
CONTINUOUS
 10
-3.0983838146
 20
21.349698412
 11
-2.6848155072
 21
21.3292298715
  0
LINE
  5
5ED
100
AcDbEntity
  8
ASSI
100
AcDbLine
 62
7
  6
CONTINUOUS
 10
-3.0104834329
 20
22.3955695989
 11
-3.1
 21
22.4
  0
LINE
  5
5EE
100
AcDbEntity
  8
DRAFT
100
AcDbLine
 62
7
  6
CONTINUOUS
 10
-3.0104834329
 20
22.3955695989
 11
-3.1
 21
22.4
  0
LINE
  5
5EF
100
AcDbEntity
  8
DRAFT
100
AcDbLine
 62
7
  6
CONTINUOUS
 10
7.2322076372
 20
20.9330083283
 11
7.3830351795
 21
20.9
  0
LINE
  5
5F0
100
AcDbEntity
  8
ASSI
100
AcDbLine
 62
7
  6
CONTINUOUS
 10
3.0
 20
23.5
 11
2.7812783412
 21
23.4781828305
  0
LINE
  5
5F1
100
AcDbEntity
  8
DRAFT
100
AcDbLine
 62
7
  6
CONTINUOUS
 10
3.0
 20
23.5
 11
2.7812783412
 21
23.4781828305
  0
LINE
  5
5F2
100
AcDbEntity
  8
ASSI
100
AcDbLine
 62
7
  6
CONTINUOUS
 10
3.9630152422
 20
23.4650925288
 11
-3.9630152422
 21
23.4650925288
  0
LINE
  5
5F3
100
AcDbEntity
  8
DRAFT
100
AcDbLine
 62
7
  6
CONTINUOUS
 10
3.9630152422
 20
23.4650925288
 11
-3.9630152422
 21
23.4650925288
  0
LINE
  5
5F4
100
AcDbEntity
  8
ASSI
100
AcDbLine
 62
7
  6
CONTINUOUS
 10
2.7812783412
 20
23.4781828305
 11
-2.7812783412
 21
23.4781828305
  0
LINE
  5
5F5
100
AcDbEntity
  8
DRAFT
100
AcDbLine
 62
7
  6
CONTINUOUS
 10
2.7812783412
 20
23.4781828305
 11
-2.7812783412
 21
23.4781828305
  0
LINE
  5
5F6
100
AcDbEntity
  8
ASSI
100
AcDbLine
 62
7
  6
CONTINUOUS
 10
3.9733373476
 20
23.5
 11
3.0
 21
23.5
  0
LINE
  5
5F7
100
AcDbEntity
  8
DRAFT
100
AcDbLine
 62
7
  6
CONTINUOUS
 10
3.9733373476
 20
23.5
 11
3.0
 21
23.5
  0
LINE
  5
5F8
100
AcDbEntity
  8
ASSI
100
AcDbLine
 62
7
  6
CONTINUOUS
 10
-3.0
 20
23.5
 11
-3.9733373476
 21
23.5
  0
LINE
  5
5F9
100
AcDbEntity
  8
DRAFT
100
AcDbLine
 62
7
  6
CONTINUOUS
 10
-3.0
 20
23.5
 11
-3.9733373476
 21
23.5
  0
LINE
  5
5FA
100
AcDbEntity
  8
ASSI
100
AcDbLine
 62
7
  6
CONTINUOUS
 10
-3.0
 20
23.5
 11
-2.7812783412
 21
23.4781828305
  0
LINE
  5
5FB
100
AcDbEntity
  8
DRAFT
100
AcDbLine
 62
7
  6
CONTINUOUS
 10
-3.0
 20
23.5
 11
-2.7812783412
 21
23.4781828305
  0
ARC
  5
5FC
100
AcDbEntity
  8
ASSI
100
AcDbCircle
 62
7
  6
CONTINUOUS
 10
-4.95
 20
-23.1
 40
0.5
100
AcDbArc
 50
350.803718421
 51
354.5883596193
  0
ARC
  5
5FD
100
AcDbEntity
  8
ASSI
100
AcDbCircle
 62
7
  6
CONTINUOUS
 10
-4.95
 20
-23.1
 40
0.5
100
AcDbArc
 50
115.7260823632
 51
119.112422776
  0
ARC
  5
5FE
100
AcDbEntity
  8
ASSI
100
AcDbCircle
 62
7
  6
CONTINUOUS
 10
-4.95
 20
-23.1
 40
0.5
100
AcDbArc
 50
355.3020088931
 51
114.6141323038
  0
ARC
  5
5FF
100
AcDbEntity
  8
DRAFT
100
AcDbCircle
 62
7
  6
CONTINUOUS
 10
-4.95
 20
-23.1
 40
0.5
100
AcDbArc
 50
350.803718421
 51
354.5883456736
  0
ARC
  5
600
100
AcDbEntity
  8
DRAFT
100
AcDbCircle
 62
7
  6
CONTINUOUS
 10
-4.95
 20
-23.1
 40
0.5
100
AcDbArc
 50
115.7260920266
 51
119.112422776
  0
ARC
  5
601
100
AcDbEntity
  8
DRAFT
100
AcDbCircle
 62
7
  6
CONTINUOUS
 10
-4.95
 20
-23.1
 40
0.5
100
AcDbArc
 50
355.3020088931
 51
114.6141323038
  0
ARC
  5
602
100
AcDbEntity
  8
ASSI
100
AcDbCircle
 62
7
  6
CONTINUOUS
 10
-6.3804626182
 20
-19.25
 40
0.3
100
AcDbArc
 50
30.0
 51
90.0
  0
ARC
  5
603
100
AcDbEntity
  8
RACCORDO
100
AcDbCircle
 62
7
  6
CONTINUOUS
 10
-6.3804626182
 20
-19.25
 40
0.3
100
AcDbArc
 50
30.0
 51
90.0
  0
ARC
  5
604
100
AcDbEntity
  8
ASSI
100
AcDbCircle
 62
7
  6
CONTINUOUS
 10
-11.25
 20
0.0
 40
28.0
100
AcDbArc
 50
302.9352304972
 51
304.1210936517
  0
ARC
  5
605
100
AcDbEntity
  8
ASSI
100
AcDbCircle
 62
7
  6
CONTINUOUS
 10
-11.25
 20
0.0
 40
28.0
100
AcDbArc
 50
55.8789063483
 51
57.0647695028
  0
ARC
  5
606
100
AcDbEntity
  8
ASSI
100
AcDbCircle
 62
7
  6
CONTINUOUS
 10
-11.25
 20
0.0
 40
28.0
100
AcDbArc
 50
37.5716473762
 51
40.6245321462
  0
ARC
  5
607
100
AcDbEntity
  8
ASSI
100
AcDbCircle
 62
7
  6
CONTINUOUS
 10
-11.25
 20
0.0
 40
28.0
100
AcDbArc
 50
305.9627651514
 51
311.7180504312
  0
ARC
  5
608
100
AcDbEntity
  8
ASSI
100
AcDbCircle
 62
7
  6
CONTINUOUS
 10
-11.25
 20
0.0
 40
28.0
100
AcDbArc
 50
48.2819495688
 51
54.0372348486
  0
ARC
  5
609
100
AcDbEntity
  8
ASSI
100
AcDbCircle
 62
7
  6
CONTINUOUS
 10
-11.25
 20
0.0
 40
28.0
100
AcDbArc
 50
319.3754678538
 51
322.4283526238
  0
ARC
  5
60A
100
AcDbEntity
  8
DRAFT
100
AcDbCircle
 62
7
  6
CONTINUOUS
 10
-11.25
 20
0.0
 40
28.0
100
AcDbArc
 50
302.9352304972
 51
304.1210936517
  0
ARC
  5
60B
100
AcDbEntity
  8
DRAFT
100
AcDbCircle
 62
7
  6
CONTINUOUS
 10
-11.25
 20
0.0
 40
28.0
100
AcDbArc
 50
55.8789063483
 51
57.0647695028
  0
ARC
  5
60C
100
AcDbEntity
  8
DRAFT
100
AcDbCircle
 62
7
  6
CONTINUOUS
 10
-11.25
 20
0.0
 40
28.0
100
AcDbArc
 50
305.9627651514
 51
311.7180504312
  0
ARC
  5
60D
100
AcDbEntity
  8
DRAFT
100
AcDbCircle
 62
7
  6
CONTINUOUS
 10
-11.25
 20
0.0
 40
28.0
100
AcDbArc
 50
48.2819495688
 51
54.0372348486
  0
ARC
  5
60E
100
AcDbEntity
  8
RACCORDO
100
AcDbCircle
 62
7
  6
CONTINUOUS
 10
-11.25
 20
0.0
 40
28.0
100
AcDbArc
 50
319.3754678538
 51
322.4283526238
  0
ARC
  5
60F
100
AcDbEntity
  8
RACCORDO
100
AcDbCircle
 62
7
  6
CONTINUOUS
 10
-11.25
 20
0.0
 40
28.0
100
AcDbArc
 50
37.5716473762
 51
40.6245321462
  0
ARC
  5
610
100
AcDbEntity
  8
ASSI
100
AcDbCircle
 62
7
  6
CONTINUOUS
 10
-11.25
 20
0.0
 40
27.9869096983
100
AcDbArc
 50
37.6266524505
 51
40.5100162577
  0
ARC
  5
611
100
AcDbEntity
  8
ASSI
100
AcDbCircle
 62
7
  6
CONTINUOUS
 10
-11.25
 20
0.0
 40
27.9869096983
100
AcDbArc
 50
319.4899837423
 51
322.3733475495
  0
ARC
  5
612
100
AcDbEntity
  8
RACCORDO
100
AcDbCircle
 62
7
  6
CONTINUOUS
 10
-11.25
 20
0.0
 40
27.9869096983
100
AcDbArc
 50
37.6266524505
 51
40.5100162577
  0
ARC
  5
613
100
AcDbEntity
  8
RACCORDO
100
AcDbCircle
 62
7
  6
CONTINUOUS
 10
-11.25
 20
0.0
 40
27.9869096983
100
AcDbArc
 50
319.4899837423
 51
322.3733475495
  0
ARC
  5
614
100
AcDbEntity
  8
ASSI
100
AcDbCircle
 62
7
  6
CONTINUOUS
 10
-11.25
 20
0.0
 40
27.9650925288
100
AcDbArc
 50
55.8421853344
 51
57.0436344285
  0
ARC
  5
615
100
AcDbEntity
  8
ASSI
100
AcDbCircle
 62
7
  6
CONTINUOUS
 10
-11.25
 20
0.0
 40
27.9650925288
100
AcDbArc
 50
49.3398118699
 51
54.0739558625
  0
ARC
  5
616
100
AcDbEntity
  8
ASSI
100
AcDbCircle
 62
7
  6
CONTINUOUS
 10
-11.25
 20
0.0
 40
27.9650925288
100
AcDbArc
 50
302.9563655715
 51
304.1578146656
  0
ARC
  5
617
100
AcDbEntity
  8
ASSI
100
AcDbCircle
 62
7
  6
CONTINUOUS
 10
-11.25
 20
0.0
 40
27.9650925288
100
AcDbArc
 50
305.9260441375
 51
310.6601881301
  0
ARC
  5
618
100
AcDbEntity
  8
DRAFT
100
AcDbCircle
 62
7
  6
CONTINUOUS
 10
-11.25
 20
0.0
 40
27.9650925288
100
AcDbArc
 50
55.8421853344
 51
57.0436344285
  0
ARC
  5
619
100
AcDbEntity
  8
DRAFT
100
AcDbCircle
 62
7
  6
CONTINUOUS
 10
-11.25
 20
0.0
 40
27.9650925288
100
AcDbArc
 50
49.3398118699
 51
54.0739558625
  0
ARC
  5
61A
100
AcDbEntity
  8
DRAFT
100
AcDbCircle
 62
7
  6
CONTINUOUS
 10
-11.25
 20
0.0
 40
27.9650925288
100
AcDbArc
 50
302.9563655715
 51
304.1578146656
  0
ARC
  5
61B
100
AcDbEntity
  8
DRAFT
100
AcDbCircle
 62
7
  6
CONTINUOUS
 10
-11.25
 20
0.0
 40
27.9650925288
100
AcDbArc
 50
305.9260441375
 51
310.6601881301
  0
ARC
  5
61C
100
AcDbEntity
  8
0
100
AcDbCircle
 62
7
  6
CONTINUOUS
 10
-4.0
 20
13.65
 40
2.8
100
AcDbArc
 50
210.7897282577
 51
269.9999687713
  0
ARC
  5
61D
100
AcDbEntity
  8
ASSI
100
AcDbCircle
 62
7
  6
CONTINUOUS
 10
-4.95
 20
23.1
 40
0.5
100
AcDbArc
 50
5.4116403703
 51
9.196281579
  0
ARC
  5
61E
100
AcDbEntity
  8
ASSI
100
AcDbCircle
 62
7
  6
CONTINUOUS
 10
-4.95
 20
23.1
 40
0.5
100
AcDbArc
 50
240.887577224
 51
244.2739175664
  0
ARC
  5
61F
100
AcDbEntity
  8
ASSI
100
AcDbCircle
 62
7
  6
CONTINUOUS
 10
-4.95
 20
23.1
 40
0.5
100
AcDbArc
 50
245.3858676962
 51
4.6979911069
  0
ARC
  5
620
100
AcDbEntity
  8
DRAFT
100
AcDbCircle
 62
7
  6
CONTINUOUS
 10
-4.95
 20
23.1
 40
0.5
100
AcDbArc
 50
5.411654316
 51
9.196281579
  0
ARC
  5
621
100
AcDbEntity
  8
DRAFT
100
AcDbCircle
 62
7
  6
CONTINUOUS
 10
-4.95
 20
23.1
 40
0.5
100
AcDbArc
 50
240.887577224
 51
244.2739079029
  0
ARC
  5
622
100
AcDbEntity
  8
DRAFT
100
AcDbCircle
 62
7
  6
CONTINUOUS
 10
-4.95
 20
23.1
 40
0.5
100
AcDbArc
 50
245.3858676962
 51
4.6979911069
  0
ARC
  5
623
100
AcDbEntity
  8
0
100
AcDbCircle
 62
250
  6
CONTINUOUS
 10
-0.0
 20
-14.0
 40
1.7945646109
100
AcDbArc
 50
180.0010304609
 51
201.1161513261
  0
ARC
  5
624
100
AcDbEntity
  8
0
100
AcDbCircle
 62
250
  6
CONTINUOUS
 10
-0.0
 20
-14.0
 40
1.794564591
100
AcDbArc
 50
338.8837776417
 51
359.9992921631
  0
ARC
  5
625
100
AcDbEntity
  8
0
100
AcDbCircle
 62
250
  6
CONTINUOUS
 10
0.0
 20
-14.0
 40
1.7601048577
100
AcDbArc
 50
180.0007078368
 51
359.9989695389
  0
ARC
  5
626
100
AcDbEntity
  8
0
100
AcDbCircle
 62
250
  6
CONTINUOUS
 10
0.0
 20
-14.0
 40
1.4602837464
100
AcDbArc
 50
180.0146000341
 51
359.9934143597
  0
CIRCLE
  5
627
100
AcDbEntity
  8
0
100
AcDbCircle
 62
7
  6
CONTINUOUS
 10
0.0
 20
-1.5
 40
2.65
  0
ARC
  5
628
100
AcDbEntity
  8
0
100
AcDbCircle
 62
250
  6
CONTINUOUS
 10
-0.0
 20
-1.5
 40
1.850084982
100
AcDbArc
 50
352.3546284484
 51
142.6000991882
  0
ARC
  5
629
100
AcDbEntity
  8
0
100
AcDbCircle
 62
250
  6
CONTINUOUS
 10
0.0
 20
-1.5
 40
1.85
100
AcDbArc
 50
172.3549329649
 51
322.5999346422
  0
ARC
  5
62A
100
AcDbEntity
  8
ASSI
100
AcDbCircle
 62
7
  6
CONTINUOUS
 10
4.95
 20
-23.1
 40
0.5
100
AcDbArc
 50
185.4116403825
 51
189.196281579
  0
ARC
  5
62B
100
AcDbEntity
  8
ASSI
100
AcDbCircle
 62
7
  6
CONTINUOUS
 10
4.95
 20
-23.1
 40
0.5
100
AcDbArc
 50
60.887577224
 51
64.2739175495
  0
ARC
  5
62C
100
AcDbEntity
  8
ASSI
100
AcDbCircle
 62
7
  6
CONTINUOUS
 10
4.95
 20
-23.1
 40
0.5
100
AcDbArc
 50
65.3858676962
 51
184.6979911069
  0
ARC
  5
62D
100
AcDbEntity
  8
DRAFT
100
AcDbCircle
 62
7
  6
CONTINUOUS
 10
4.95
 20
-23.1
 40
0.5
100
AcDbArc
 50
185.4116543281
 51
189.196281579
  0
ARC
  5
62E
100
AcDbEntity
  8
DRAFT
100
AcDbCircle
 62
7
  6
CONTINUOUS
 10
4.95
 20
-23.1
 40
0.5
100
AcDbArc
 50
60.887577224
 51
64.2739078861
  0
ARC
  5
62F
100
AcDbEntity
  8
DRAFT
100
AcDbCircle
 62
7
  6
CONTINUOUS
 10
4.95
 20
-23.1
 40
0.5
100
AcDbArc
 50
65.3858676962
 51
184.6979911069
  0
ARC
  5
630
100
AcDbEntity
  8
ASSI
100
AcDbCircle
 62
7
  6
CONTINUOUS
 10
6.3804626182
 20
-19.25
 40
0.3
100
AcDbArc
 50
90.0
 51
150.0
  0
ARC
  5
631
100
AcDbEntity
  8
RACCORDO
100
AcDbCircle
 62
7
  6
CONTINUOUS
 10
6.3804626182
 20
-19.25
 40
0.3
100
AcDbArc
 50
90.0
 51
150.0
  0
ARC
  5
632
100
AcDbEntity
  8
0
100
AcDbCircle
 62
7
  6
CONTINUOUS
 10
4.0
 20
13.65
 40
2.8
100
AcDbArc
 50
270.0000568618
 51
329.2340795234
  0
ARC
  5
633
100
AcDbEntity
  8
ASSI
100
AcDbCircle
 62
7
  6
CONTINUOUS
 10
4.95
 20
23.1
 40
0.5
100
AcDbArc
 50
170.8037184209
 51
174.5883596297
  0
ARC
  5
634
100
AcDbEntity
  8
ASSI
100
AcDbCircle
 62
7
  6
CONTINUOUS
 10
4.95
 20
23.1
 40
0.5
100
AcDbArc
 50
295.7260824488
 51
299.112422776
  0
ARC
  5
635
100
AcDbEntity
  8
ASSI
100
AcDbCircle
 62
7
  6
CONTINUOUS
 10
4.95
 20
23.1
 40
0.5
100
AcDbArc
 50
175.3020088931
 51
294.6141323038
  0
ARC
  5
636
100
AcDbEntity
  8
DRAFT
100
AcDbCircle
 62
7
  6
CONTINUOUS
 10
4.95
 20
23.1
 40
0.5
100
AcDbArc
 50
170.8037184209
 51
174.588345684
  0
ARC
  5
637
100
AcDbEntity
  8
DRAFT
100
AcDbCircle
 62
7
  6
CONTINUOUS
 10
4.95
 20
23.1
 40
0.5
100
AcDbArc
 50
295.7260921122
 51
299.112422776
  0
ARC
  5
638
100
AcDbEntity
  8
DRAFT
100
AcDbCircle
 62
7
  6
CONTINUOUS
 10
4.95
 20
23.1
 40
0.5
100
AcDbArc
 50
175.3020088931
 51
294.6141323038
  0
ARC
  5
639
100
AcDbEntity
  8
ASSI
100
AcDbCircle
 62
7
  6
CONTINUOUS
 10
11.25
 20
0.0
 40
28.0
100
AcDbArc
 50
235.8789063483
 51
237.0647695028
  0
ARC
  5
63A
100
AcDbEntity
  8
ASSI
100
AcDbCircle
 62
7
  6
CONTINUOUS
 10
11.25
 20
0.0
 40
28.0
100
AcDbArc
 50
122.9352304972
 51
124.1210936517
  0
ARC
  5
63B
100
AcDbEntity
  8
ASSI
100
AcDbCircle
 62
7
  6
CONTINUOUS
 10
11.25
 20
0.0
 40
28.0
100
AcDbArc
 50
228.2819495688
 51
234.0372348486
  0
ARC
  5
63C
100
AcDbEntity
  8
ASSI
100
AcDbCircle
 62
7
  6
CONTINUOUS
 10
11.25
 20
0.0
 40
28.0
100
AcDbArc
 50
139.3754678538
 51
142.4283526238
  0
ARC
  5
63D
100
AcDbEntity
  8
ASSI
100
AcDbCircle
 62
7
  6
CONTINUOUS
 10
11.25
 20
0.0
 40
28.0
100
AcDbArc
 50
125.9627651514
 51
131.7180504312
  0
ARC
  5
63E
100
AcDbEntity
  8
ASSI
100
AcDbCircle
 62
7
  6
CONTINUOUS
 10
11.25
 20
0.0
 40
28.0
100
AcDbArc
 50
217.5716473762
 51
220.6245321462
  0
ARC
  5
63F
100
AcDbEntity
  8
DRAFT
100
AcDbCircle
 62
7
  6
CONTINUOUS
 10
11.25
 20
0.0
 40
28.0
100
AcDbArc
 50
235.8789063483
 51
237.0647695028
  0
ARC
  5
640
100
AcDbEntity
  8
DRAFT
100
AcDbCircle
 62
7
  6
CONTINUOUS
 10
11.25
 20
0.0
 40
28.0
100
AcDbArc
 50
122.9352304972
 51
124.1210936517
  0
ARC
  5
641
100
AcDbEntity
  8
RACCORDO
100
AcDbCircle
 62
7
  6
CONTINUOUS
 10
11.25
 20
0.0
 40
28.0
100
AcDbArc
 50
139.3754678538
 51
142.4283526238
  0
ARC
  5
642
100
AcDbEntity
  8
RACCORDO
100
AcDbCircle
 62
7
  6
CONTINUOUS
 10
11.25
 20
0.0
 40
28.0
100
AcDbArc
 50
217.5716473762
 51
220.6245321462
  0
ARC
  5
643
100
AcDbEntity
  8
DRAFT
100
AcDbCircle
 62
7
  6
CONTINUOUS
 10
11.25
 20
0.0
 40
28.0
100
AcDbArc
 50
228.2819495688
 51
234.0372348486
  0
ARC
  5
644
100
AcDbEntity
  8
DRAFT
100
AcDbCircle
 62
7
  6
CONTINUOUS
 10
11.25
 20
0.0
 40
28.0
100
AcDbArc
 50
125.9627651514
 51
131.7180504312
  0
ARC
  5
645
100
AcDbEntity
  8
ASSI
100
AcDbCircle
 62
7
  6
CONTINUOUS
 10
11.25
 20
0.0
 40
27.9869096983
100
AcDbArc
 50
217.6266524505
 51
220.5100162577
  0
ARC
  5
646
100
AcDbEntity
  8
ASSI
100
AcDbCircle
 62
7
  6
CONTINUOUS
 10
11.25
 20
0.0
 40
27.9869096983
100
AcDbArc
 50
139.4899837423
 51
142.3733475638
  0
ARC
  5
647
100
AcDbEntity
  8
RACCORDO
100
AcDbCircle
 62
7
  6
CONTINUOUS
 10
11.25
 20
0.0
 40
27.9869096983
100
AcDbArc
 50
217.6266524505
 51
220.5100162577
  0
ARC
  5
648
100
AcDbEntity
  8
RACCORDO
100
AcDbCircle
 62
7
  6
CONTINUOUS
 10
11.25
 20
0.0
 40
27.9869096983
100
AcDbArc
 50
139.4899837423
 51
142.3733475638
  0
ARC
  5
649
100
AcDbEntity
  8
ASSI
100
AcDbCircle
 62
7
  6
CONTINUOUS
 10
11.25
 20
0.0
 40
27.9650925288
100
AcDbArc
 50
125.9260441375
 51
130.6601881301
  0
ARC
  5
64A
100
AcDbEntity
  8
ASSI
100
AcDbCircle
 62
7
  6
CONTINUOUS
 10
11.25
 20
0.0
 40
27.9650925288
100
AcDbArc
 50
122.9563655715
 51
124.1578146656
  0
ARC
  5
64B
100
AcDbEntity
  8
ASSI
100
AcDbCircle
 62
7
  6
CONTINUOUS
 10
11.25
 20
0.0
 40
27.9650925288
100
AcDbArc
 50
235.8421853344
 51
237.0436344285
  0
ARC
  5
64C
100
AcDbEntity
  8
ASSI
100
AcDbCircle
 62
7
  6
CONTINUOUS
 10
11.25
 20
0.0
 40
27.9650925288
100
AcDbArc
 50
229.3398118699
 51
234.0739558625
  0
ARC
  5
64D
100
AcDbEntity
  8
DRAFT
100
AcDbCircle
 62
7
  6
CONTINUOUS
 10
11.25
 20
0.0
 40
27.9650925288
100
AcDbArc
 50
125.9260441375
 51
130.6601881301
  0
ARC
  5
64E
100
AcDbEntity
  8
DRAFT
100
AcDbCircle
 62
7
  6
CONTINUOUS
 10
11.25
 20
0.0
 40
27.9650925288
100
AcDbArc
 50
122.9563655715
 51
124.1578146656
  0
ARC
  5
64F
100
AcDbEntity
  8
DRAFT
100
AcDbCircle
 62
7
  6
CONTINUOUS
 10
11.25
 20
0.0
 40
27.9650925288
100
AcDbArc
 50
235.8421853344
 51
237.0436344285
  0
ARC
  5
650
100
AcDbEntity
  8
DRAFT
100
AcDbCircle
 62
7
  6
CONTINUOUS
 10
11.25
 20
0.0
 40
27.9650925288
100
AcDbArc
 50
229.3398118699
 51
234.0739558625
  0
ELLIPSE
  5
651
100
AcDbEntity
  8
ASSI
100
AcDbEllipse
 62
7
  6
CONTINUOUS
 10
-10.649923836
 20
-21.899313827
 30
0.0
 11
-0.1582391023
 21
-0.4751033573
 31
0.0
 40
0.9984778551
 41
-1.2488325878
 42
0.3210503505
  0
ELLIPSE
  5
652
100
AcDbEntity
  8
ASSI
100
AcDbEllipse
 62
7
  6
CONTINUOUS
 10
-10.649923836
 20
21.899313827
 30
0.0
 11
0.1582391023
 21
-0.4751033573
 31
0.0
 40
0.9984778551
 41
2.8205423031
 42
4.3904252414
  0
ELLIPSE
  5
653
100
AcDbEntity
  8
ASSI
100
AcDbEllipse
 62
7
  6
CONTINUOUS
 10
10.649923836
 20
-21.899313827
 30
0.0
 11
0.1582391023
 21
-0.4751033573
 31
0.0
 40
0.9984778551
 41
-0.3210503505
 42
1.2488325878
  0
ELLIPSE
  5
654
100
AcDbEntity
  8
ASSI
100
AcDbEllipse
 62
7
  6
CONTINUOUS
 10
10.649923836
 20
21.899313827
 30
0.0
 11
-0.1582391023
 21
-0.4751033573
 31
0.0
 40
0.9984778551
 41
1.8927600658
 42
3.4626430041
  0
ELLIPSE
  5
655
100
AcDbEntity
  8
ASSI
100
AcDbEllipse
 62
7
  6
CONTINUOUS
 10
-3.2506981562
 20
-21.34992574
 30
0.0
 11
0.1515997661
 21
0.0149686682
 31
0.0
 40
0.9846221255
 41
6.1847546189
 42
7.7540355981
  0
ELLIPSE
  5
656
100
AcDbEntity
  8
ASSI
100
AcDbEllipse
 62
7
  6
CONTINUOUS
 10
3.2506981562
 20
-21.34992574
 30
0.0
 11
0.1515997661
 21
-0.0149686682
 31
0.0
 40
0.9846221255
 41
7.9539276698
 42
9.523208649
  0
ELLIPSE
  5
657
100
AcDbEntity
  8
ASSI
100
AcDbEllipse
 62
7
  6
CONTINUOUS
 10
3.2506981562
 20
21.34992574
 30
0.0
 11
0.1515997661
 21
0.0149686682
 31
0.0
 40
0.9846221255
 41
3.0431619653
 42
4.6124429445
  0
ELLIPSE
  5
658
100
AcDbEntity
  8
ASSI
100
AcDbEllipse
 62
7
  6
CONTINUOUS
 10
-3.2506981562
 20
21.34992574
 30
0.0
 11
0.1515997661
 21
-0.0149686682
 31
0.0
 40
0.9846221255
 41
4.8123350162
 42
6.3816159955
  0
ELLIPSE
  5
659
100
AcDbEntity
  8
ASSI
100
AcDbEllipse
 62
7
  6
CONTINUOUS
 10
-7.2226300005
 20
-19.25
 30
0.0
 11
0.3000456984
 21
0.0
 31
0.0
 40
0.9998476952
 41
1.5707963268
 42
2.2034293494
  0
ELLIPSE
  5
65A
100
AcDbEntity
  8
ASSI
100
AcDbEllipse
 62
7
  6
CONTINUOUS
 10
-1.2045470032
 20
-0.0
 30
0.0
 11
24.9109911832
 21
0.0
 31
0.0
 40
0.8660473877
 41
1.8151898521
 42
1.8214348428
  0
ELLIPSE
  5
65B
100
AcDbEntity
  8
ASSI
100
AcDbEllipse
 62
7
  6
CONTINUOUS
 10
-1.2045470032
 20
0.0
 30
0.0
 11
24.9109911832
 21
0.0
 31
0.0
 40
0.8660473877
 41
-1.8214348428
 42
-1.8151898521
  0
ELLIPSE
  5
65C
100
AcDbEntity
  8
ASSI
100
AcDbEllipse
 62
7
  6
CONTINUOUS
 10
1.2045470032
 20
0.0
 30
0.0
 11
24.9109911832
 21
0.0
 31
0.0
 40
0.8660473877
 41
1.3201578108
 42
1.3264028015
  0
ELLIPSE
  5
65D
100
AcDbEntity
  8
ASSI
100
AcDbEllipse
 62
7
  6
CONTINUOUS
 10
1.2045470032
 20
0.0
 30
0.0
 11
24.9109911832
 21
0.0
 31
0.0
 40
0.8660473877
 41
-1.3264028015
 42
-1.3201578108
  0
ELLIPSE
  5
65E
100
AcDbEntity
  8
ASSI
100
AcDbEllipse
 62
7
  6
CONTINUOUS
 10
-11.25
 20
0.4174034785
 30
0.0
 11
-0.0
 21
27.6144908417
 31
0.0
 40
0.9998857561
 41
-0.73336084
 42
-0.7200539912
  0
ELLIPSE
  5
65F
100
AcDbEntity
  8
ASSI
100
AcDbEllipse
 62
7
  6
CONTINUOUS
 10
11.25
 20
0.4174034785
 30
0.0
 11
-0.0
 21
27.6144908417
 31
0.0
 40
0.9998857561
 41
0.7200539912
 42
0.73336084
  0
ELLIPSE
  5
660
100
AcDbEntity
  8
ASSI
100
AcDbEllipse
 62
7
  6
CONTINUOUS
 10
11.25
 20
-0.4174034785
 30
0.0
 11
0.0
 21
27.6144908417
 31
0.0
 40
0.9998857561
 41
-3.8749534936
 42
-3.8616466448
  0
ELLIPSE
  5
661
100
AcDbEntity
  8
ASSI
100
AcDbEllipse
 62
7
  6
CONTINUOUS
 10
-11.25
 20
-0.4174034785
 30
0.0
 11
-0.0
 21
27.6144908417
 31
0.0
 40
0.9998857561
 41
-2.4215386624
 42
-2.4082318136
  0
ELLIPSE
  5
662
100
AcDbEntity
  8
ASSI
100
AcDbEllipse
 62
7
  6
CONTINUOUS
 10
7.2226300005
 20
-19.25
 30
0.0
 11
0.3000456984
 21
0.0
 31
0.0
 40
0.9998476952
 41
0.9381633042
 42
1.5707963268
  0
ELLIPSE
  5
663
100
AcDbEntity
  8
ASSI
100
AcDbEllipse
 62
7
  6
CONTINUOUS
 10
-2.8371999868
 20
-21.3294606708
 30
0.0
 11
0.1346769129
 21
0.1155713785
 31
0.0
 40
0.7365893675
 41
-0.8599548088
 42
0.7093261704
  0
ELLIPSE
  5
664
100
AcDbEntity
  8
ASSI
100
AcDbEllipse
 62
7
  6
CONTINUOUS
 10
2.8371999868
 20
-21.3294606708
 30
0.0
 11
-0.1346769129
 21
0.1155713785
 31
0.0
 40
0.7365893675
 41
-0.7093261704
 42
0.8599548088
  0
ELLIPSE
  5
665
100
AcDbEntity
  8
ASSI
100
AcDbEllipse
 62
7
  6
CONTINUOUS
 10
2.8371999868
 20
21.3294606708
 30
0.0
 11
0.1346769129
 21
0.1155713785
 31
0.0
 40
0.7365893675
 41
-4.0015474624
 42
-2.4322664832
  0
ELLIPSE
  5
666
100
AcDbEntity
  8
ASSI
100
AcDbEllipse
 62
7
  6
CONTINUOUS
 10
-2.8371999868
 20
21.3294606708
 30
0.0
 11
-0.1346769129
 21
0.1155713785
 31
0.0
 40
0.7365893675
 41
-3.850918824
 42
-2.2816378448
  0
ELLIPSE
  5
667
100
AcDbEntity
  8
ASSI
100
AcDbEllipse
 62
7
  6
CONTINUOUS
 10
6.9180391175
 20
-19.25
 30
0.0
 11
0.2158671264
 21
0.2121320344
 31
0.0
 40
0.9826972631
 41
5.4977871438
 42
7.0685834706
  0
ELLIPSE
  5
668
100
AcDbEntity
  8
ASSI
100
AcDbEllipse
 62
7
  6
CONTINUOUS
 10
-6.9180391175
 20
-19.25
 30
0.0
 11
-0.2158671264
 21
0.2121320344
 31
0.0
 40
0.9826972631
 41
5.4977871438
 42
7.0685834706
  0
ELLIPSE
  5
669
100
AcDbEntity
  8
0
100
AcDbEllipse
 62
7
  6
CONTINUOUS
 10
-10.649923836
 20
-21.899313827
 30
0.0
 11
-0.1582391023
 21
-0.4751033573
 31
0.0
 40
0.9984778551
 41
5.0343527194
 42
6.6042356577
  0
ELLIPSE
  5
66A
100
AcDbEntity
  8
0
100
AcDbEllipse
 62
7
  6
CONTINUOUS
 10
-10.649923836
 20
21.899313827
 30
0.0
 11
0.1582391023
 21
-0.4751033573
 31
0.0
 40
0.9984778551
 41
9.1037276102
 42
10.6736105485
  0
ELLIPSE
  5
66B
100
AcDbEntity
  8
RACCORDO
100
AcDbEllipse
 62
7
  6
CONTINUOUS
 10
-3.2506981562
 20
-21.34992574
 30
0.0
 11
0.1515997661
 21
0.0149686682
 31
0.0
 40
0.9846221255
 41
6.1847546189
 42
7.7540355981
  0
ELLIPSE
  5
66C
100
AcDbEntity
  8
0
100
AcDbEllipse
 62
7
  6
CONTINUOUS
 10
10.649923836
 20
-21.899313827
 30
0.0
 11
0.1582391023
 21
-0.4751033573
 31
0.0
 40
0.9984778551
 41
5.9621349567
 42
7.5320178949
  0
ELLIPSE
  5
66D
100
AcDbEntity
  8
RACCORDO
100
AcDbEllipse
 62
7
  6
CONTINUOUS
 10
3.2506981562
 20
-21.34992574
 30
0.0
 11
0.1515997661
 21
-0.0149686682
 31
0.0
 40
0.9846221255
 41
7.9539276698
 42
9.523208649
  0
ELLIPSE
  5
66E
100
AcDbEntity
  8
RACCORDO
100
AcDbEllipse
 62
7
  6
CONTINUOUS
 10
3.2506981562
 20
21.34992574
 30
0.0
 11
0.1515997661
 21
0.0149686682
 31
0.0
 40
0.9846221255
 41
3.0431619653
 42
4.6124429445
  0
ELLIPSE
  5
66F
100
AcDbEntity
  8
RACCORDO
100
AcDbEllipse
 62
7
  6
CONTINUOUS
 10
-3.2506981562
 20
21.34992574
 30
0.0
 11
0.1515997661
 21
-0.0149686682
 31
0.0
 40
0.9846221255
 41
4.8123350162
 42
6.3816159955
  0
ELLIPSE
  5
670
100
AcDbEntity
  8
0
100
AcDbEllipse
 62
7
  6
CONTINUOUS
 10
10.649923836
 20
21.899313827
 30
0.0
 11
-0.1582391023
 21
-0.4751033573
 31
0.0
 40
0.9984778551
 41
8.175945373
 42
9.7458283113
  0
ELLIPSE
  5
671
100
AcDbEntity
  8
RACCORDO
100
AcDbEllipse
 62
7
  6
CONTINUOUS
 10
-7.2226300005
 20
-19.25
 30
0.0
 11
0.3000456984
 21
0.0
 31
0.0
 40
0.9998476952
 41
1.5707963268
 42
2.2260474411
  0
ELLIPSE
  5
672
100
AcDbEntity
  8
RACCORDO
100
AcDbEllipse
 62
7
  6
CONTINUOUS
 10
-2.8371999868
 20
-21.3294606708
 30
0.0
 11
0.1346769129
 21
0.1155713785
 31
0.0
 40
0.7365893675
 41
-0.8599548088
 42
0.7093261704
  0
ELLIPSE
  5
673
100
AcDbEntity
  8
RACCORDO
100
AcDbEllipse
 62
7
  6
CONTINUOUS
 10
2.8371999868
 20
-21.3294606708
 30
0.0
 11
-0.1346769129
 21
0.1155713785
 31
0.0
 40
0.7365893675
 41
-0.7093261704
 42
0.8599548088
  0
ELLIPSE
  5
674
100
AcDbEntity
  8
RACCORDO
100
AcDbEllipse
 62
7
  6
CONTINUOUS
 10
2.8371999868
 20
21.3294606708
 30
0.0
 11
0.1346769129
 21
0.1155713785
 31
0.0
 40
0.7365893675
 41
-4.0015474624
 42
-2.4322664832
  0
ELLIPSE
  5
675
100
AcDbEntity
  8
RACCORDO
100
AcDbEllipse
 62
7
  6
CONTINUOUS
 10
-2.8371999868
 20
21.3294606708
 30
0.0
 11
-0.1346769129
 21
0.1155713785
 31
0.0
 40
0.7365893675
 41
-3.850918824
 42
-2.2816378448
  0
ELLIPSE
  5
676
100
AcDbEntity
  8
DRAFT
100
AcDbEllipse
 62
7
  6
CONTINUOUS
 10
-11.25
 20
0.4174034785
 30
0.0
 11
-0.0
 21
27.6144908417
 31
0.0
 40
0.9998857561
 41
-0.73336084
 42
-0.7200539912
  0
ELLIPSE
  5
677
100
AcDbEntity
  8
DRAFT
100
AcDbEllipse
 62
7
  6
CONTINUOUS
 10
11.25
 20
0.4174034785
 30
0.0
 11
-0.0
 21
27.6144908417
 31
0.0
 40
0.9998857561
 41
0.7200539912
 42
0.73336084
  0
ELLIPSE
  5
678
100
AcDbEntity
  8
DRAFT
100
AcDbEllipse
 62
7
  6
CONTINUOUS
 10
11.25
 20
-0.4174034785
 30
0.0
 11
0.0
 21
27.6144908417
 31
0.0
 40
0.9998857561
 41
-3.8749534936
 42
-3.8616466448
  0
ELLIPSE
  5
679
100
AcDbEntity
  8
DRAFT
100
AcDbEllipse
 62
7
  6
CONTINUOUS
 10
-11.25
 20
-0.4174034785
 30
0.0
 11
-0.0
 21
27.6144908417
 31
0.0
 40
0.9998857561
 41
-2.4215386624
 42
-2.4082318136
  0
ELLIPSE
  5
67A
100
AcDbEntity
  8
RACCORDO
100
AcDbEllipse
 62
7
  6
CONTINUOUS
 10
6.9180391175
 20
-19.25
 30
0.0
 11
0.2158671264
 21
0.2121320344
 31
0.0
 40
0.9826972631
 41
5.4977871438
 42
7.0685834706
  0
ELLIPSE
  5
67B
100
AcDbEntity
  8
RACCORDO
100
AcDbEllipse
 62
7
  6
CONTINUOUS
 10
-6.9180391175
 20
-19.25
 30
0.0
 11
-0.2158671264
 21
0.2121320344
 31
0.0
 40
0.9826972631
 41
-0.7853981634
 42
0.7853981634
  0
ELLIPSE
  5
67C
100
AcDbEntity
  8
0
100
AcDbEllipse
 62
7
  6
CONTINUOUS
 10
-7.900686173
 20
-19.399313827
 30
0.0
 11
-0.3545231217
 21
0.3545231217
 31
0.0
 40
0.9972646886
 41
2.3575640181
 42
3.9256212892
  0
ELLIPSE
  5
67D
100
AcDbEntity
  8
0
100
AcDbEllipse
 62
7
  6
CONTINUOUS
 10
-8.1926089967
 20
-19.399313827
 30
0.0
 11
0.1916493199
 21
0.4626823873
 31
0.0
 40
0.9983949659
 41
2.7494611705
 42
3.5337241367
  0
ELLIPSE
  5
67E
100
AcDbEntity
  8
0
100
AcDbEllipse
 62
7
  6
CONTINUOUS
 10
-5.1628421095
 20
11.4000000015
 30
0.0
 11
-63.135304005
 21
109.9291088827
 31
0.0
 40
0.0625410312
 41
-4.6273407902
 42
-4.6171041864
  0
ELLIPSE
  5
67F
100
AcDbEntity
  8
0
100
AcDbEllipse
 62
7
  6
CONTINUOUS
 10
-6.8371578906
 20
11.4000000015
 30
0.0
 11
63.1353040049
 21
109.9291088827
 31
0.0
 40
0.0625410312
 41
-1.6660811207
 42
-1.655844517
  0
ELLIPSE
  5
680
100
AcDbEntity
  8
0
100
AcDbEllipse
 62
7
  6
CONTINUOUS
 10
7.900686173
 20
-19.399313827
 30
0.0
 11
0.3545231217
 21
0.3545231217
 31
0.0
 40
0.9972646886
 41
2.3575640181
 42
3.9256212891
  0
ELLIPSE
  5
681
100
AcDbEntity
  8
0
100
AcDbEllipse
 62
7
  6
CONTINUOUS
 10
8.1926089967
 20
-19.399313827
 30
0.0
 11
-0.1916493199
 21
0.4626823872
 31
0.0
 40
0.9983949659
 41
2.7494611704
 42
3.5337241367
  0
ELLIPSE
  5
682
100
AcDbEntity
  8
0
100
AcDbEllipse
 62
7
  6
CONTINUOUS
 10
3.8638040043
 20
11.3999999945
 30
0.0
 11
63.135303973
 21
109.9291088271
 31
0.0
 40
0.0625410312
 41
-1.6558596671
 42
-1.6456206126
  0
ELLIPSE
  5
683
100
AcDbEntity
  8
0
100
AcDbEllipse
 62
7
  6
CONTINUOUS
 10
3.8641664171
 20
11.3999999988
 30
0.0
 11
62.9918146639
 21
109.6792699749
 31
0.0
 40
0.0625410312
 41
-1.6558120671
 42
-1.6455496707
  0
ELLIPSE
  5
684
100
AcDbEntity
  8
0
100
AcDbEllipse
 62
7
  6
CONTINUOUS
 10
8.1361959955
 20
11.3999999945
 30
0.0
 11
-63.135303973
 21
109.9291088271
 31
0.0
 40
0.0625410312
 41
-4.6375646946
 42
-4.6273256401
  0
ELLIPSE
  5
685
100
AcDbEntity
  8
0
100
AcDbEllipse
 62
7
  6
CONTINUOUS
 10
8.1358335828
 20
11.3999999988
 30
0.0
 11
-62.9918146639
 21
109.6792699749
 31
0.0
 40
0.0625410312
 41
-4.6376356365
 42
-4.6273732401
  0
ENDSEC
  0
SECTION
  2
OBJECTS
  0
DICTIONARY
  5
C
100
AcDbDictionary
280
0
281
1
  3
ACAD_GROUP
350
D
  3
ACAD_MLINESTYLE
350
17
  3
ACAD_LAYOUT
350
1A
  3
ACAD_PLOTSETTINGS
350
19
  3
ACAD_PLOTSTYLENAME
350
E
  0
DICTIONARY
  5
D
102
{ACAD_REACTORS
330
C
102
}
100
AcDbDictionary
280
0
281
1
  0
ACDBDICTIONARYWDFLT
  5
E
102
{ACAD_REACTORS
330
C
102
}
100
AcDbDictionary
281
1
  3
Normal
350
F
100
AcDbDictionaryWithDefault
340
F
  0
DICTIONARY
  5
17
102
{ACAD_REACTORS
330
C
102
}
100
AcDbDictionary
280
0
281
1
  3
Standard
350
18
  0
DICTIONARY
  5
19
102
{ACAD_REACTORS
330
C
102
}
100
AcDbDictionary
281
1
  0
DICTIONARY
  5
1A
102
{ACAD_REACTORS
330
C
102
}
100
AcDbDictionary
281
1
  3
Model
350
686
  3
Layout1
350
687
  0
ACDBPLACEHOLDER
  5
F
102
{ACAD_REACTORS
330
E
102
}
  0
MLINESTYLE
  5
18
102
{ACAD_REACTORS
330
17
102
}
100
AcDbMlineStyle
  2
STANDARD
 70
0
  3

 62
256
 51
90.0
 52
90.0
 71
2
 49
0.5
 62
256
  6
BYLAYER
 49
-0.5
 62
256
  6
BYLAYER
  0
LAYOUT
  5
686
102
{ACAD_REACTORS
330
1A
102
}
100
AcDbPlotSettings
  1

  2
none_device
  4
ANSI_C_(22.00_x_17.00_Inches)
  6

 40
0.0
 41
0.0
 42
0.0
 43
0.0
 44
558.8
 45
431.8
 46
0.0
 47
0.0
 48
0.0
 49
0.0
140
0.0
141
0.0
142
1.0
143
1.0
 70
1024
 72
1
 73
0
 74
0
  7

 75
0
147
1.0
148
0.0
149
0.0
100
AcDbLayout
  1
Model
 70
0
 71
0
 10
0.0
 20
0.0
 11
558.8
 21
431.8
 12
0.0
 22
0.0
 32
0.0
 14
0.0
 24
0.0
 34
0.0
 15
0.0
 25
0.0
 35
0.0
146
0.0
 13
0.0
 23
0.0
 33
0.0
 16
1.0
 26
0.0
 36
0.0
 17
0.0
 27
1.0
 37
0.0
 76
0
330
216
345
0
346
0
  0
LAYOUT
  5
687
102
{ACAD_REACTORS
330
1A
102
}
100
AcDbPlotSettings
  1

  2
none_device
  4
ANSI_C_(22.00_x_17.00_Inches)
  6

 40
0.0
 41
0.0
 42
0.0
 43
0.0
 44
558.8
 45
431.8
 46
0.0
 47
0.0
 48
0.0
 49
0.0
140
0.0
141
0.0
142
1.0
143
1.0
 70
0
 72
1
 73
0
 74
0
  7

 75
0
147
1.0
148
0.0
149
0.0
100
AcDbLayout
  1
Layout1
 70
0
 71
1
 10
0.0
 20
0.0
 11
558.8
 21
431.8
 12
0.0
 22
0.0
 32
0.0
 14
0.0
 24
0.0
 34
0.0
 15
0.0
 25
0.0
 35
0.0
146
0.0
 13
0.0
 23
0.0
 33
0.0
 16
1.0
 26
0.0
 36
0.0
 17
0.0
 27
1.0
 37
0.0
 76
0
330
217
345
0
346
0
  0
ENDSEC
  0
EOF
