  0
SECTION
  2
HEADER
  9
$ACADVER
  1
AC1015
  9
$DWGCODEPAGE
  3
ANSI_1252
  9
$EXTMAX
 10
558.8
 20
431.8
 30
0.0
  9
$EXTMIN
 10
0.0
 20
0.0
 30
0.0
  9
$LIMMIN
 10
0.0
 20
0.0
  9
$LIMMAX
 10
558.8
 20
431.8
  9
$VIEWCTR
 10
279.4
 20
215.9
  9
$VIEWSIZE
 40
431.8
  9
$CLAYER
  8
0
  9
$LTSCALE
 40
30.734
  9
$CELTYPE
  6
BYLAYER
  9
$DIMSCALE
 40
1.0
  9
$DIMASZ
 40
3.0
  9
$DIMEXO
 40
3.4925
  9
$DIMDLI
 40
21.2344
  9
$DIMEXE
 40
10.0584
  9
$DIMCEN
 40
5.0292
  9
$DIMLFAC
 40
1.0
  9
$DIMBLK
  1
_FILLED
  9
$DIMTXT
 40
3.0
  9
$DIMTOL
 70
1
  9
$DIMLIM
 70
0
  9
$DIMTFAC
 40
1.0
  9
$DIMTP
 40
0.01
  9
$DIMTM
 40
0.01
  9
$PDMODE
 70
3
  9
$PDSIZE
 40
3.0
  9
$HANDSEED
  5
771
  9
$TILEMODE
 70
1
  9
$MEASUREMENT
 70
1
  9
$INSUNITS
 70
4
  0
ENDSEC
  0
SECTION
  2
CLASSES
  0
CLASS
  1
ACDBDICTIONARYWDFLT
  2
AcDbDictionaryWithDefault
  3
AutoCAD 2000
 90
0
280
0
281
0
  0
CLASS
  1
ACDBPLACEHOLDER
  2
AcDbPlaceHolder
  3
AutoCAD 2000
 90
0
280
0
281
0
  0
CLASS
  1
LAYOUT
  2
AcDbLayout
  3
AutoCAD 2000
 90
0
280
0
281
0
  0
ENDSEC
  0
SECTION
  2
TABLES
  0
TABLE
  2
VPORT
  5
8
100
AcDbSymbolTable
 70
2
  0
VPORT
  5
1F4
100
AcDbSymbolTableRecord
100
AcDbViewportTableRecord
  2
*ACTIVE
 70
0
 10
0.0
 20
0.0
 11
1.0
 21
1.0
 12
279.4
 22
215.9
 13
0.0
 23
0.0
 14
1.0
 24
1.0
 15
0.0
 25
0.0
 16
0.0
 26
0.0
 36
1.0
 17
0.0
 27
0.0
 37
0.0
 40
431.8
 41
1.2941176471
 42
50.0
 43
0.0
 44
0.0
 50
0.0
 51
0.0
 71
0
 72
100
 73
1
 74
1
 75
0
 76
0
 77
0
 78
0
  0
ENDTAB
  0
TABLE
  2
LTYPE
  5
5
100
AcDbSymbolTable
 70
6
  0
LTYPE
  5
14
100
AcDbSymbolTableRecord
100
AcDbLinetypeTableRecord
  2
BYBLOCK
 70
0
  3

 72
65
 73
0
 40
0.0
  0
LTYPE
  5
15
100
AcDbSymbolTableRecord
100
AcDbLinetypeTableRecord
  2
BYLAYER
 70
0
  3

 72
65
 73
0
 40
0.0
  0
LTYPE
  5
16
100
AcDbSymbolTableRecord
100
AcDbLinetypeTableRecord
  2
CONTINUOUS
 70
64
  3
Solid line
 72
65
 73
0
 40
0.0
  0
LTYPE
  5
1F5
100
AcDbSymbolTableRecord
100
AcDbLinetypeTableRecord
  2
CENTER
 70
64
  3
____ _ ____ _ ____ _ ____ _ ____ _ ____ _ ____
 72
65
 73
4
 40
0.6
 49
0.375
 74
0
 49
-0.075
 74
0
 49
0.075
 74
0
 49
-0.075
 74
0
  0
LTYPE
  5
1F6
100
AcDbSymbolTableRecord
100
AcDbLinetypeTableRecord
  2
HIDDEN
 70
64
  3
- - - - - - - - - - - - - - - - - - - -
 72
65
 73
2
 40
0.2
 49
0.1
 74
0
 49
-0.1
 74
0
  0
LTYPE
  5
1F7
100
AcDbSymbolTableRecord
100
AcDbLinetypeTableRecord
  2
PHANTOM
 70
64
  3
_____ _ _ _____ _ _ _____ _ _ _____
 72
65
 73
6
 40
0.8
 49
0.45
 74
0
 49
-0.05
 74
0
 49
0.1
 74
0
 49
-0.05
 74
0
 49
0.1
 74
0
 49
-0.05
 74
0
  0
LTYPE
  5
1F8
100
AcDbSymbolTableRecord
100
AcDbLinetypeTableRecord
  2
DOT
 70
64
  3
. . . . . . . . . . . . . . . . . . . .
 72
65
 73
2
 40
0.2
 49
0.1
 74
0
 49
-0.1
 74
0
  0
LTYPE
  5
1F9
100
AcDbSymbolTableRecord
100
AcDbLinetypeTableRecord
  2
DASHED
 70
64
  3
- - - - - - - - - - - - - - - - - - - -
 72
65
 73
2
 40
0.2
 49
0.1
 74
0
 49
-0.1
 74
0
  0
ENDTAB
  0
TABLE
  2
LAYER
  5
2
100
AcDbSymbolTable
 70
36
  0
LAYER
  5
10
100
AcDbSymbolTableRecord
100
AcDbLayerTableRecord
  2
0
 70
0
 62
7
  6
CONTINUOUS
370
-3
390
F
  0
LAYER
  5
1FA
100
AcDbSymbolTableRecord
100
AcDbLayerTableRecord
  2
DEFAULT_1
 70
0
 62
7
  6
CENTER
370
-3
390
F
  0
LAYER
  5
1FB
100
AcDbSymbolTableRecord
100
AcDbLayerTableRecord
  2
DEFAULT_2
 70
0
 62
7
  6
HIDDEN
370
-3
390
F
  0
LAYER
  5
1FC
100
AcDbSymbolTableRecord
100
AcDbLayerTableRecord
  2
DEFAULT_3
 70
0
 62
7
  6
PHANTOM
370
-3
390
F
  0
LAYER
  5
1FD
100
AcDbSymbolTableRecord
100
AcDbLayerTableRecord
  2
ASSI
 70
0
 62
7
  6
CONTINUOUS
370
-3
390
F
  0
LAYER
  5
1FE
100
AcDbSymbolTableRecord
100
AcDbLayerTableRecord
  2
COORDINATE
 70
0
 62
7
  6
CONTINUOUS
370
-3
390
F
  0
LAYER
  5
1FF
100
AcDbSymbolTableRecord
100
AcDbLayerTableRecord
  2
COPY_PUBLISH
 70
0
 62
7
  6
CONTINUOUS
370
-3
390
F
  0
LAYER
  5
200
100
AcDbSymbolTableRecord
100
AcDbLayerTableRecord
  2
COSMETIC
 70
0
 62
7
  6
CONTINUOUS
370
-3
390
F
  0
LAYER
  5
201
100
AcDbSymbolTableRecord
100
AcDbLayerTableRecord
  2
CURVE
 70
0
 62
7
  6
CONTINUOUS
370
-3
390
F
  0
LAYER
  5
202
100
AcDbSymbolTableRecord
100
AcDbLayerTableRecord
  2
DRAFT
 70
0
 62
7
  6
CONTINUOUS
370
-3
390
F
  0
LAYER
  5
203
100
AcDbSymbolTableRecord
100
AcDbLayerTableRecord
  2
IMPORT_IGES
 70
0
 62
7
  6
CONTINUOUS
370
-3
390
F
  0
LAYER
  5
204
100
AcDbSymbolTableRecord
100
AcDbLayerTableRecord
  2
PIANI
 70
0
 62
7
  6
CONTINUOUS
370
-3
390
F
  0
LAYER
  5
205
100
AcDbSymbolTableRecord
100
AcDbLayerTableRecord
  2
PUNTI
 70
0
 62
7
  6
CONTINUOUS
370
-3
390
F
  0
LAYER
  5
206
100
AcDbSymbolTableRecord
100
AcDbLayerTableRecord
  2
RACCORDO
 70
0
 62
7
  6
CONTINUOUS
370
-3
390
F
  0
LAYER
  5
207
100
AcDbSymbolTableRecord
100
AcDbLayerTableRecord
  2
SNAPLINE
 70
0
 62
7
  6
CONTINUOUS
370
-3
390
F
  0
LAYER
  5
208
100
AcDbSymbolTableRecord
100
AcDbLayerTableRecord
  2
TRASH
 70
0
 62
7
  6
CONTINUOUS
370
-3
390
F
  0
ENDTAB
  0
TABLE
  2
STYLE
  5
3
100
AcDbSymbolTable
 70
1
  0
STYLE
  5
11
100
AcDbSymbolTableRecord
100
AcDbTextStyleTableRecord
  2
STANDARD
 70
0
 40
0.0
 41
0.8
 50
0.0
 71
0
 42
0.2
  3
txt
  4

  0
STYLE
  5
209
100
AcDbSymbolTableRecord
100
AcDbTextStyleTableRecord
  2
TEXTSTYLE_1
 70
0
 40
0.0
 41
0.8
 50
0.0
 71
0
 42
0.2
  3
gdt
  4

  0
ENDTAB
  0
TABLE
  2
VIEW
  5
6
100
AcDbSymbolTable
 70
0
  0
ENDTAB
  0
TABLE
  2
UCS
  5
7
100
AcDbSymbolTable
 70
0
  0
ENDTAB
  0
TABLE
  2
APPID
  5
9
100
AcDbSymbolTable
 70
1
  0
APPID
  5
20A
100
AcDbSymbolTableRecord
100
AcDbRegAppTableRecord
  2
ACAD
 70
0
  0
ENDTAB
  0
TABLE
  2
BLOCK_RECORD
  5
1
100
AcDbSymbolTable
 70
0
  0
BLOCK_RECORD
  5
20B
100
AcDbSymbolTableRecord
100
AcDbBlockTableRecord
  2
*Model_Space
  0
BLOCK_RECORD
  5
20C
100
AcDbSymbolTableRecord
100
AcDbBlockTableRecord
  2
*Paper_Space
  0
ENDTAB
  0
TABLE
  2
DIMSTYLE
  5
A
100
AcDbSymbolTable
 70
1
100
AcDbDimStyleTable
 71
0
  0
DIMSTYLE
105
20D
100
AcDbSymbolTableRecord
100
AcDbDimStyleTableRecord
  2
STANDARD
 70
0
  3

  4

 40
1.0
 41
3.0
 42
0.0625
 43
0.38
 44
0.18
 45
0.0
 46
0.0
 47
0.01
 48
0.01
140
3.0
141
0.09
142
0.0
143
25.4
144
1.0
145
0.0
146
1.0
147
0.09
 71
1.0
 72
0.0
 73
0
 74
0
 75
0
 76
0
 77
1
 78
8
170
0
171
2
172
0
173
0
174
0
175
0
176
0
177
0
178
0
270
2
271
2
272
2
273
2
274
2
275
0
280
0
281
0
282
0
283
1
284
8
285
0
286
0
287
3
288
0
340
11
  0
ENDTAB
  0
ENDSEC
  0
SECTION
  2
BLOCKS
  0
BLOCK
  5
20
100
AcDbEntity
  8
0
100
AcDbBlockBegin
  2
*Model_Space
 70
0
 10
0.0
 20
0.0
 30
0.0
  3
*Model_Space
  1

  0
ENDBLK
  5
21
100
AcDbEntity
  8
0
100
AcDbBlockEnd
  0
BLOCK
  5
1C
100
AcDbEntity
  8
0
100
AcDbBlockBegin
  2
*Paper_Space
 70
0
 10
0.0
 20
0.0
 30
0.0
  3
*Paper_Space
  1

  0
ENDBLK
  5
1D
100
AcDbEntity
  8
0
100
AcDbBlockEnd
  0
ENDSEC
  0
SECTION
  2
ENTITIES
  0
LINE
  5
20E
100
AcDbEntity
  8
DRAFT
100
AcDbLine
 62
7
  6
CONTINUOUS
 10
-18.7726756989
 20
20.7603594806
 11
-18.6330351795
 21
20.9
  0
LINE
  5
20F
100
AcDbEntity
  8
ASSI
100
AcDbLine
 62
7
  6
CONTINUOUS
 10
-18.7726756989
 20
20.7603594806
 11
-18.6330351795
 21
20.9
  0
LINE
  5
210
100
AcDbEntity
  8
DRAFT
100
AcDbLine
 62
7
  6
CONTINUOUS
 10
-18.7726756989
 20
-20.7603594806
 11
-18.6330351795
 21
-20.9
  0
LINE
  5
211
100
AcDbEntity
  8
ASSI
100
AcDbLine
 62
7
  6
CONTINUOUS
 10
-18.7726756989
 20
-20.7603594806
 11
-18.6330351795
 21
-20.9
  0
LINE
  5
212
100
AcDbEntity
  8
DRAFT
100
AcDbLine
 62
7
  6
CONTINUOUS
 10
-17.9830351795
 20
18.8430942654
 11
-17.8109317497
 21
19.0173482781
  0
LINE
  5
213
100
AcDbEntity
  8
ASSI
100
AcDbLine
 62
7
  6
CONTINUOUS
 10
-17.9830351795
 20
18.8430942654
 11
-17.8109317497
 21
19.0173482781
  0
LINE
  5
214
100
AcDbEntity
  8
DRAFT
100
AcDbLine
 62
7
  6
CONTINUOUS
 10
-17.9830351795
 20
18.6327542795
 11
-17.748694703
 21
18.867094756
  0
LINE
  5
215
100
AcDbEntity
  8
ASSI
100
AcDbLine
 62
7
  6
CONTINUOUS
 10
-17.9830351795
 20
18.6327542795
 11
-17.748694703
 21
18.867094756
  0
LINE
  5
216
100
AcDbEntity
  8
DRAFT
100
AcDbLine
 62
7
  6
CONTINUOUS
 10
-17.748694703
 20
-18.867094756
 11
-17.9830351795
 21
-18.6327542795
  0
LINE
  5
217
100
AcDbEntity
  8
ASSI
100
AcDbLine
 62
7
  6
CONTINUOUS
 10
-17.748694703
 20
-18.867094756
 11
-17.9830351795
 21
-18.6327542795
  0
LINE
  5
218
100
AcDbEntity
  8
DRAFT
100
AcDbLine
 62
7
  6
CONTINUOUS
 10
-17.8109317497
 20
-19.0173482781
 11
-17.9830351795
 21
-18.8430942654
  0
LINE
  5
219
100
AcDbEntity
  8
ASSI
100
AcDbLine
 62
7
  6
CONTINUOUS
 10
-17.8109317497
 20
-19.0173482781
 11
-17.9830351795
 21
-18.8430942654
  0
LINE
  5
21A
100
AcDbEntity
  8
DRAFT
100
AcDbLine
 62
7
  6
CONTINUOUS
 10
-18.2173756559
 20
18.867094756
 11
-18.1551386093
 21
19.0173482781
  0
LINE
  5
21B
100
AcDbEntity
  8
ASSI
100
AcDbLine
 62
7
  6
CONTINUOUS
 10
-18.2173756559
 20
18.867094756
 11
-18.1551386093
 21
19.0173482781
  0
LINE
  5
21C
100
AcDbEntity
  8
DRAFT
100
AcDbLine
 62
7
  6
CONTINUOUS
 10
-18.4721457668
 20
19.0173482781
 11
-18.7726756989
 21
18.867094756
  0
LINE
  5
21D
100
AcDbEntity
  8
ASSI
100
AcDbLine
 62
7
  6
CONTINUOUS
 10
-18.4721457668
 20
19.0173482781
 11
-18.7726756989
 21
18.867094756
  0
LINE
  5
21E
100
AcDbEntity
  8
DRAFT
100
AcDbLine
 62
7
  6
CONTINUOUS
 10
18.6330351795
 20
-20.9
 11
18.4864808301
 21
-20.9320850844
  0
LINE
  5
21F
100
AcDbEntity
  8
ASSI
100
AcDbLine
 62
7
  6
CONTINUOUS
 10
18.6330351795
 20
-20.9
 11
18.4864808301
 21
-20.9320850844
  0
LINE
  5
220
100
AcDbEntity
  8
DRAFT
100
AcDbLine
 62
7
  6
CONTINUOUS
 10
-18.4864808301
 20
-20.9320850844
 11
-18.6330351795
 21
-20.9
  0
LINE
  5
221
100
AcDbEntity
  8
ASSI
100
AcDbLine
 62
7
  6
CONTINUOUS
 10
-18.4864808301
 20
-20.9320850844
 11
-18.6330351795
 21
-20.9
  0
LINE
  5
222
100
AcDbEntity
  8
DRAFT
100
AcDbLine
 62
7
  6
CONTINUOUS
 10
-18.7726756989
 20
-18.867094756
 11
-18.4721457668
 21
-19.0173482781
  0
LINE
  5
223
100
AcDbEntity
  8
ASSI
100
AcDbLine
 62
7
  6
CONTINUOUS
 10
-18.7726756989
 20
-18.867094756
 11
-18.4721457668
 21
-19.0173482781
  0
LINE
  5
224
100
AcDbEntity
  8
DRAFT
100
AcDbLine
 62
7
  6
CONTINUOUS
 10
-18.2173756559
 20
-18.867094756
 11
-18.1551386093
 21
-19.0173482781
  0
LINE
  5
225
100
AcDbEntity
  8
ASSI
100
AcDbLine
 62
7
  6
CONTINUOUS
 10
-18.2173756559
 20
-18.867094756
 11
-18.1551386093
 21
-19.0173482781
  0
LINE
  5
226
100
AcDbEntity
  8
RACCORDO
100
AcDbLine
 62
7
  6
CONTINUOUS
 10
-22.4
 20
-21.8997711479
 11
-22.4
 21
-16.4633443086
  0
LINE
  5
227
100
AcDbEntity
  8
ASSI
100
AcDbLine
 62
7
  6
CONTINUOUS
 10
-22.4
 20
-21.8997711479
 11
-22.4
 21
-16.4633443086
  0
LINE
  5
228
100
AcDbEntity
  8
RACCORDO
100
AcDbLine
 62
7
  6
CONTINUOUS
 10
-22.4
 20
16.4633443086
 11
-22.4
 21
21.8997711479
  0
LINE
  5
229
100
AcDbEntity
  8
ASSI
100
AcDbLine
 62
7
  6
CONTINUOUS
 10
-22.4
 20
16.4633443086
 11
-22.4
 21
21.8997711479
  0
LINE
  5
22A
100
AcDbEntity
  8
RACCORDO
100
AcDbLine
 62
7
  6
CONTINUOUS
 10
-22.3738174026
 20
16.4544358981
 11
-22.3738174026
 21
-16.4544358981
  0
LINE
  5
22B
100
AcDbEntity
  8
ASSI
100
AcDbLine
 62
7
  6
CONTINUOUS
 10
-22.3738174026
 20
16.4544358981
 11
-22.3738174026
 21
-16.4544358981
  0
LINE
  5
22C
100
AcDbEntity
  8
DRAFT
100
AcDbLine
 62
7
  6
CONTINUOUS
 10
8.0959942472
 20
-21.1851643248
 11
7.797027879
 21
-21.2
  0
LINE
  5
22D
100
AcDbEntity
  8
ASSI
100
AcDbLine
 62
7
  6
CONTINUOUS
 10
8.0959942472
 20
-21.1851643248
 11
7.797027879
 21
-21.2
  0
LINE
  5
22E
100
AcDbEntity
  8
DRAFT
100
AcDbLine
 62
7
  6
CONTINUOUS
 10
8.15
 20
-22.1851643248
 11
8.2441170282
 21
-22.1805062352
  0
LINE
  5
22F
100
AcDbEntity
  8
ASSI
100
AcDbLine
 62
7
  6
CONTINUOUS
 10
8.15
 20
-22.1851643248
 11
8.2441170282
 21
-22.1805062352
  0
LINE
  5
230
100
AcDbEntity
  8
DRAFT
100
AcDbLine
 62
7
  6
CONTINUOUS
 10
-14.35
 20
-22.1851643248
 11
-14.2558829718
 21
-22.1805062352
  0
LINE
  5
231
100
AcDbEntity
  8
ASSI
100
AcDbLine
 62
7
  6
CONTINUOUS
 10
-14.35
 20
-22.1851643248
 11
-14.2558829718
 21
-22.1805062352
  0
LINE
  5
232
100
AcDbEntity
  8
DRAFT
100
AcDbLine
 62
7
  6
CONTINUOUS
 10
-15.2233373476
 20
-23.5
 11
-14.25
 21
-23.5
  0
LINE
  5
233
100
AcDbEntity
  8
ASSI
100
AcDbLine
 62
7
  6
CONTINUOUS
 10
-15.2233373476
 20
-23.5
 11
-14.25
 21
-23.5
  0
LINE
  5
234
100
AcDbEntity
  8
DRAFT
100
AcDbLine
 62
7
  6
CONTINUOUS
 10
-8.25
 20
-23.5
 11
-7.2766626524
 21
-23.5
  0
LINE
  5
235
100
AcDbEntity
  8
ASSI
100
AcDbLine
 62
7
  6
CONTINUOUS
 10
-8.25
 20
-23.5
 11
-7.2766626524
 21
-23.5
  0
LINE
  5
236
100
AcDbEntity
  8
DRAFT
100
AcDbLine
 62
7
  6
CONTINUOUS
 10
7.2766626524
 20
-23.5
 11
8.25
 21
-23.5
  0
LINE
  5
237
100
AcDbEntity
  8
ASSI
100
AcDbLine
 62
7
  6
CONTINUOUS
 10
7.2766626524
 20
-23.5
 11
8.25
 21
-23.5
  0
LINE
  5
238
100
AcDbEntity
  8
DRAFT
100
AcDbLine
 62
7
  6
CONTINUOUS
 10
14.25
 20
-23.5
 11
15.2233373476
 21
-23.5
  0
LINE
  5
239
100
AcDbEntity
  8
ASSI
100
AcDbLine
 62
7
  6
CONTINUOUS
 10
14.25
 20
-23.5
 11
15.2233373476
 21
-23.5
  0
LINE
  5
23A
100
AcDbEntity
  8
DRAFT
100
AcDbLine
 62
7
  6
CONTINUOUS
 10
-15.2130152422
 20
-23.4650925288
 11
-7.2869847578
 21
-23.4650925288
  0
LINE
  5
23B
100
AcDbEntity
  8
ASSI
100
AcDbLine
 62
7
  6
CONTINUOUS
 10
-15.2130152422
 20
-23.4650925288
 11
-7.2869847578
 21
-23.4650925288
  0
LINE
  5
23C
100
AcDbEntity
  8
DRAFT
100
AcDbLine
 62
7
  6
CONTINUOUS
 10
7.2869847578
 20
-23.4650925288
 11
15.2130152422
 21
-23.4650925288
  0
LINE
  5
23D
100
AcDbEntity
  8
ASSI
100
AcDbLine
 62
7
  6
CONTINUOUS
 10
7.2869847578
 20
-23.4650925288
 11
15.2130152422
 21
-23.4650925288
  0
LINE
  5
23E
100
AcDbEntity
  8
DRAFT
100
AcDbLine
 62
7
  6
CONTINUOUS
 10
-21.9003805997
 20
-22.4
 11
-16.8
 21
-22.4
  0
LINE
  5
23F
100
AcDbEntity
  8
ASSI
100
AcDbLine
 62
7
  6
CONTINUOUS
 10
-21.9003805997
 20
-22.4
 11
-16.8
 21
-22.4
  0
LINE
  5
240
100
AcDbEntity
  8
DRAFT
100
AcDbLine
 62
7
  6
CONTINUOUS
 10
-5.7
 20
-22.4
 11
5.7
 21
-22.4
  0
LINE
  5
241
100
AcDbEntity
  8
ASSI
100
AcDbLine
 62
7
  6
CONTINUOUS
 10
-5.7
 20
-22.4
 11
5.7
 21
-22.4
  0
LINE
  5
242
100
AcDbEntity
  8
DRAFT
100
AcDbLine
 62
7
  6
CONTINUOUS
 10
16.8
 20
-22.4
 11
21.9003805997
 21
-22.4
  0
LINE
  5
243
100
AcDbEntity
  8
ASSI
100
AcDbLine
 62
7
  6
CONTINUOUS
 10
16.8
 20
-22.4
 11
21.9003805997
 21
-22.4
  0
LINE
  5
244
100
AcDbEntity
  8
DRAFT
100
AcDbLine
 62
7
  6
CONTINUOUS
 10
7.8502441328
 20
-22.2
 11
14.6497558672
 21
-22.2
  0
LINE
  5
245
100
AcDbEntity
  8
ASSI
100
AcDbLine
 62
7
  6
CONTINUOUS
 10
7.8502441328
 20
-22.2
 11
14.6497558672
 21
-22.2
  0
LINE
  5
246
100
AcDbEntity
  8
DRAFT
100
AcDbLine
 62
7
  6
CONTINUOUS
 10
-7.8502441328
 20
-22.2
 11
-14.6497558672
 21
-22.2
  0
LINE
  5
247
100
AcDbEntity
  8
ASSI
100
AcDbLine
 62
7
  6
CONTINUOUS
 10
-7.8502441328
 20
-22.2
 11
-14.6497558672
 21
-22.2
  0
LINE
  5
248
100
AcDbEntity
  8
DRAFT
100
AcDbLine
 62
7
  6
CONTINUOUS
 10
14.2558829718
 20
-22.1805062352
 11
8.2441170282
 21
-22.1805062352
  0
LINE
  5
249
100
AcDbEntity
  8
ASSI
100
AcDbLine
 62
7
  6
CONTINUOUS
 10
14.2558829718
 20
-22.1805062352
 11
8.2441170282
 21
-22.1805062352
  0
LINE
  5
24A
100
AcDbEntity
  8
DRAFT
100
AcDbLine
 62
7
  6
CONTINUOUS
 10
-8.2441170282
 20
-22.1805062352
 11
-14.2558829718
 21
-22.1805062352
  0
LINE
  5
24B
100
AcDbEntity
  8
ASSI
100
AcDbLine
 62
7
  6
CONTINUOUS
 10
-8.2441170282
 20
-22.1805062352
 11
-14.2558829718
 21
-22.1805062352
  0
LINE
  5
24C
100
AcDbEntity
  8
DRAFT
100
AcDbLine
 62
7
  6
CONTINUOUS
 10
-8.2441170282
 20
-22.1805062352
 11
-8.15
 21
-22.1851643248
  0
LINE
  5
24D
100
AcDbEntity
  8
ASSI
100
AcDbLine
 62
7
  6
CONTINUOUS
 10
-8.2441170282
 20
-22.1805062352
 11
-8.15
 21
-22.1851643248
  0
LINE
  5
24E
100
AcDbEntity
  8
DRAFT
100
AcDbLine
 62
7
  6
CONTINUOUS
 10
-7.797027879
 20
-21.2
 11
-8.0959942472
 21
-21.1851643248
  0
LINE
  5
24F
100
AcDbEntity
  8
ASSI
100
AcDbLine
 62
7
  6
CONTINUOUS
 10
-7.797027879
 20
-21.2
 11
-8.0959942472
 21
-21.1851643248
  0
LINE
  5
250
100
AcDbEntity
  8
DRAFT
100
AcDbLine
 62
7
  6
CONTINUOUS
 10
14.2558829718
 20
-22.1805062352
 11
14.35
 21
-22.1851643248
  0
LINE
  5
251
100
AcDbEntity
  8
ASSI
100
AcDbLine
 62
7
  6
CONTINUOUS
 10
14.2558829718
 20
-22.1805062352
 11
14.35
 21
-22.1851643248
  0
LINE
  5
252
100
AcDbEntity
  8
RACCORDO
100
AcDbLine
 62
7
  6
CONTINUOUS
 10
-20.9261825974
 20
-18.029762091
 11
-20.9261825974
 21
-0.317094756
  0
LINE
  5
253
100
AcDbEntity
  8
ASSI
100
AcDbLine
 62
7
  6
CONTINUOUS
 10
-20.9261825974
 20
-18.029762091
 11
-20.9261825974
 21
-0.317094756
  0
LINE
  5
254
100
AcDbEntity
  8
RACCORDO
100
AcDbLine
 62
7
  6
CONTINUOUS
 10
-20.9261825974
 20
0.317094756
 11
-20.9261825974
 21
18.029762091
  0
LINE
  5
255
100
AcDbEntity
  8
ASSI
100
AcDbLine
 62
7
  6
CONTINUOUS
 10
-20.9261825974
 20
0.317094756
 11
-20.9261825974
 21
18.029762091
  0
LINE
  5
256
100
AcDbEntity
  8
RACCORDO
100
AcDbLine
 62
7
  6
CONTINUOUS
 10
-20.9
 20
20.9
 11
-20.9
 21
18.1006347748
  0
LINE
  5
257
100
AcDbEntity
  8
ASSI
100
AcDbLine
 62
7
  6
CONTINUOUS
 10
-20.9
 20
20.9
 11
-20.9
 21
18.1006347748
  0
LINE
  5
258
100
AcDbEntity
  8
RACCORDO
100
AcDbLine
 62
7
  6
CONTINUOUS
 10
-20.9
 20
-18.1006347748
 11
-20.9
 21
-20.9
  0
LINE
  5
259
100
AcDbEntity
  8
ASSI
100
AcDbLine
 62
7
  6
CONTINUOUS
 10
-20.9
 20
-18.1006347748
 11
-20.9
 21
-20.9
  0
LINE
  5
25A
100
AcDbEntity
  8
DRAFT
100
AcDbLine
 62
7
  6
CONTINUOUS
 10
-20.7603594806
 20
20.7603594806
 11
-20.7603594806
 21
0.4
  0
LINE
  5
25B
100
AcDbEntity
  8
ASSI
100
AcDbLine
 62
7
  6
CONTINUOUS
 10
-20.7603594806
 20
20.7603594806
 11
-20.7603594806
 21
0.4
  0
LINE
  5
25C
100
AcDbEntity
  8
DRAFT
100
AcDbLine
 62
7
  6
CONTINUOUS
 10
-20.7603594806
 20
-0.4
 11
-20.7603594806
 21
-20.7603594806
  0
LINE
  5
25D
100
AcDbEntity
  8
ASSI
100
AcDbLine
 62
7
  6
CONTINUOUS
 10
-20.7603594806
 20
-0.4
 11
-20.7603594806
 21
-20.7603594806
  0
LINE
  5
25E
100
AcDbEntity
  8
0
100
AcDbLine
 62
7
  6
CONTINUOUS
 10
-19.2116602847
 20
14.5126344479
 11
-19.2116586239
 21
-14.5118169454
  0
LINE
  5
25F
100
AcDbEntity
  8
RACCORDO
100
AcDbLine
 62
7
  6
CONTINUOUS
 10
-3.9
 20
19.8965739699
 11
-4.0415154698
 21
19.8258216238
  0
LINE
  5
260
100
AcDbEntity
  8
ASSI
100
AcDbLine
 62
7
  6
CONTINUOUS
 10
-3.9
 20
19.8965739699
 11
-4.0415154698
 21
19.8258216238
  0
LINE
  5
261
100
AcDbEntity
  8
DRAFT
100
AcDbLine
 62
7
  6
CONTINUOUS
 10
-3.8669648205
 20
-20.9
 11
-4.0135191699
 21
-20.9320850844
  0
LINE
  5
262
100
AcDbEntity
  8
ASSI
100
AcDbLine
 62
7
  6
CONTINUOUS
 10
-3.8669648205
 20
-20.9
 11
-4.0135191699
 21
-20.9320850844
  0
LINE
  5
263
100
AcDbEntity
  8
RACCORDO
100
AcDbLine
 62
7
  6
CONTINUOUS
 10
3.9
 20
-19.8255982314
 11
4.0415154698
 21
-19.8127991157
  0
LINE
  5
264
100
AcDbEntity
  8
ASSI
100
AcDbLine
 62
7
  6
CONTINUOUS
 10
3.9
 20
-19.8255982314
 11
4.0415154698
 21
-19.8127991157
  0
LINE
  5
265
100
AcDbEntity
  8
DRAFT
100
AcDbLine
 62
7
  6
CONTINUOUS
 10
-14.4040057528
 20
-21.1851643248
 11
-14.702972121
 21
-21.2
  0
LINE
  5
266
100
AcDbEntity
  8
ASSI
100
AcDbLine
 62
7
  6
CONTINUOUS
 10
-14.4040057528
 20
-21.1851643248
 11
-14.702972121
 21
-21.2
  0
LINE
  5
267
100
AcDbEntity
  8
DRAFT
100
AcDbLine
 62
7
  6
CONTINUOUS
 10
-18.2374998327
 20
-21.2
 11
-14.702972121
 21
-21.2
  0
LINE
  5
268
100
AcDbEntity
  8
ASSI
100
AcDbLine
 62
7
  6
CONTINUOUS
 10
-18.2374998327
 20
-21.2
 11
-14.702972121
 21
-21.2
  0
LINE
  5
269
100
AcDbEntity
  8
DRAFT
100
AcDbLine
 62
7
  6
CONTINUOUS
 10
-7.797027879
 20
-21.2
 11
-4.2625001673
 21
-21.2
  0
LINE
  5
26A
100
AcDbEntity
  8
ASSI
100
AcDbLine
 62
7
  6
CONTINUOUS
 10
-7.797027879
 20
-21.2
 11
-4.2625001673
 21
-21.2
  0
LINE
  5
26B
100
AcDbEntity
  8
DRAFT
100
AcDbLine
 62
7
  6
CONTINUOUS
 10
4.2625001673
 20
-21.2
 11
7.797027879
 21
-21.2
  0
LINE
  5
26C
100
AcDbEntity
  8
ASSI
100
AcDbLine
 62
7
  6
CONTINUOUS
 10
4.2625001673
 20
-21.2
 11
7.797027879
 21
-21.2
  0
LINE
  5
26D
100
AcDbEntity
  8
DRAFT
100
AcDbLine
 62
7
  6
CONTINUOUS
 10
14.702972121
 20
-21.2
 11
18.2374998327
 21
-21.2
  0
LINE
  5
26E
100
AcDbEntity
  8
ASSI
100
AcDbLine
 62
7
  6
CONTINUOUS
 10
14.702972121
 20
-21.2
 11
18.2374998327
 21
-21.2
  0
LINE
  5
26F
100
AcDbEntity
  8
DRAFT
100
AcDbLine
 62
7
  6
CONTINUOUS
 10
14.4040057528
 20
-21.1851643248
 11
14.35
 21
-21.1851643248
  0
LINE
  5
270
100
AcDbEntity
  8
DRAFT
100
AcDbLine
 62
7
  6
CONTINUOUS
 10
-14.4040057528
 20
-21.1851643248
 11
-14.35
 21
-21.1851643248
  0
LINE
  5
271
100
AcDbEntity
  8
ASSI
100
AcDbLine
 62
7
  6
CONTINUOUS
 10
14.4040057528
 20
-21.1851643248
 11
14.35
 21
-21.1851643248
  0
LINE
  5
272
100
AcDbEntity
  8
ASSI
100
AcDbLine
 62
7
  6
CONTINUOUS
 10
-14.4040057528
 20
-21.1851643248
 11
-14.35
 21
-21.1851643248
  0
LINE
  5
273
100
AcDbEntity
  8
DRAFT
100
AcDbLine
 62
7
  6
CONTINUOUS
 10
-8.0959942472
 20
-21.1851643248
 11
-8.15
 21
-21.1851643248
  0
LINE
  5
274
100
AcDbEntity
  8
DRAFT
100
AcDbLine
 62
7
  6
CONTINUOUS
 10
8.0959942472
 20
-21.1851643248
 11
8.15
 21
-21.1851643248
  0
LINE
  5
275
100
AcDbEntity
  8
ASSI
100
AcDbLine
 62
7
  6
CONTINUOUS
 10
-8.0959942472
 20
-21.1851643248
 11
-8.15
 21
-21.1851643248
  0
LINE
  5
276
100
AcDbEntity
  8
ASSI
100
AcDbLine
 62
7
  6
CONTINUOUS
 10
8.0959942472
 20
-21.1851643248
 11
8.15
 21
-21.1851643248
  0
LINE
  5
277
100
AcDbEntity
  8
DRAFT
100
AcDbLine
 62
7
  6
CONTINUOUS
 10
-18.2245711414
 20
-21.1651588757
 11
-13.945788487
 21
-21.1651588757
  0
LINE
  5
278
100
AcDbEntity
  8
ASSI
100
AcDbLine
 62
7
  6
CONTINUOUS
 10
-18.2245711414
 20
-21.1651588757
 11
-13.945788487
 21
-21.1651588757
  0
LINE
  5
279
100
AcDbEntity
  8
DRAFT
100
AcDbLine
 62
7
  6
CONTINUOUS
 10
-8.554211513
 20
-21.1651588757
 11
-4.2754288586
 21
-21.1651588757
  0
LINE
  5
27A
100
AcDbEntity
  8
ASSI
100
AcDbLine
 62
7
  6
CONTINUOUS
 10
-8.554211513
 20
-21.1651588757
 11
-4.2754288586
 21
-21.1651588757
  0
LINE
  5
27B
100
AcDbEntity
  8
DRAFT
100
AcDbLine
 62
7
  6
CONTINUOUS
 10
4.2754288586
 20
-21.1651588757
 11
8.554211513
 21
-21.1651588757
  0
LINE
  5
27C
100
AcDbEntity
  8
ASSI
100
AcDbLine
 62
7
  6
CONTINUOUS
 10
4.2754288586
 20
-21.1651588757
 11
8.554211513
 21
-21.1651588757
  0
LINE
  5
27D
100
AcDbEntity
  8
DRAFT
100
AcDbLine
 62
7
  6
CONTINUOUS
 10
13.945788487
 20
-21.1651588757
 11
18.2245711414
 21
-21.1651588757
  0
LINE
  5
27E
100
AcDbEntity
  8
ASSI
100
AcDbLine
 62
7
  6
CONTINUOUS
 10
13.945788487
 20
-21.1651588757
 11
18.2245711414
 21
-21.1651588757
  0
LINE
  5
27F
100
AcDbEntity
  8
DRAFT
100
AcDbLine
 62
7
  6
CONTINUOUS
 10
-20.9
 20
-20.9
 11
-18.6330351795
 21
-20.9
  0
LINE
  5
280
100
AcDbEntity
  8
ASSI
100
AcDbLine
 62
7
  6
CONTINUOUS
 10
-20.9
 20
-20.9
 11
-18.6330351795
 21
-20.9
  0
LINE
  5
281
100
AcDbEntity
  8
DRAFT
100
AcDbLine
 62
7
  6
CONTINUOUS
 10
-3.8669648205
 20
-20.9
 11
3.8669648205
 21
-20.9
  0
LINE
  5
282
100
AcDbEntity
  8
ASSI
100
AcDbLine
 62
7
  6
CONTINUOUS
 10
-3.8669648205
 20
-20.9
 11
3.8669648205
 21
-20.9
  0
LINE
  5
283
100
AcDbEntity
  8
DRAFT
100
AcDbLine
 62
7
  6
CONTINUOUS
 10
18.6330351795
 20
-20.9
 11
20.9
 21
-20.9
  0
LINE
  5
284
100
AcDbEntity
  8
ASSI
100
AcDbLine
 62
7
  6
CONTINUOUS
 10
18.6330351795
 20
-20.9
 11
20.9
 21
-20.9
  0
LINE
  5
285
100
AcDbEntity
  8
DRAFT
100
AcDbLine
 62
7
  6
CONTINUOUS
 10
20.7603594806
 20
-20.7603594806
 11
18.7726756989
 21
-20.7603594806
  0
LINE
  5
286
100
AcDbEntity
  8
ASSI
100
AcDbLine
 62
7
  6
CONTINUOUS
 10
20.7603594806
 20
-20.7603594806
 11
18.7726756989
 21
-20.7603594806
  0
LINE
  5
287
100
AcDbEntity
  8
DRAFT
100
AcDbLine
 62
7
  6
CONTINUOUS
 10
3.7273243011
 20
-20.7603594806
 11
-3.7273243011
 21
-20.7603594806
  0
LINE
  5
288
100
AcDbEntity
  8
ASSI
100
AcDbLine
 62
7
  6
CONTINUOUS
 10
3.7273243011
 20
-20.7603594806
 11
-3.7273243011
 21
-20.7603594806
  0
LINE
  5
289
100
AcDbEntity
  8
DRAFT
100
AcDbLine
 62
7
  6
CONTINUOUS
 10
-18.7726756989
 20
-20.7603594806
 11
-20.7603594806
 21
-20.7603594806
  0
LINE
  5
28A
100
AcDbEntity
  8
ASSI
100
AcDbLine
 62
7
  6
CONTINUOUS
 10
-18.7726756989
 20
-20.7603594806
 11
-20.7603594806
 21
-20.7603594806
  0
LINE
  5
28B
100
AcDbEntity
  8
DRAFT
100
AcDbLine
 62
7
  6
CONTINUOUS
 10
18.4584845302
 20
-20.0060689771
 11
4.0415154698
 21
-20.0060689771
  0
LINE
  5
28C
100
AcDbEntity
  8
ASSI
100
AcDbLine
 62
7
  6
CONTINUOUS
 10
18.4584845302
 20
-20.0060689771
 11
4.0415154698
 21
-20.0060689771
  0
LINE
  5
28D
100
AcDbEntity
  8
DRAFT
100
AcDbLine
 62
7
  6
CONTINUOUS
 10
-4.0415154698
 20
-20.0060689771
 11
-18.4584845302
 21
-20.0060689771
  0
LINE
  5
28E
100
AcDbEntity
  8
ASSI
100
AcDbLine
 62
7
  6
CONTINUOUS
 10
-4.0415154698
 20
-20.0060689771
 11
-18.4584845302
 21
-20.0060689771
  0
LINE
  5
28F
100
AcDbEntity
  8
DRAFT
100
AcDbLine
 62
7
  6
CONTINUOUS
 10
18.4584845302
 20
-19.8
 11
4.0415154698
 21
-19.8
  0
LINE
  5
290
100
AcDbEntity
  8
ASSI
100
AcDbLine
 62
7
  6
CONTINUOUS
 10
18.4584845302
 20
-19.8
 11
4.0415154698
 21
-19.8
  0
LINE
  5
291
100
AcDbEntity
  8
DRAFT
100
AcDbLine
 62
7
  6
CONTINUOUS
 10
-4.0415154698
 20
-19.8
 11
-18.4584845302
 21
-19.8
  0
LINE
  5
292
100
AcDbEntity
  8
ASSI
100
AcDbLine
 62
7
  6
CONTINUOUS
 10
-4.0415154698
 20
-19.8
 11
-18.4584845302
 21
-19.8
  0
LINE
  5
293
100
AcDbEntity
  8
RACCORDO
100
AcDbLine
 62
7
  6
CONTINUOUS
 10
4.0340172901
 20
-19.3704295719
 11
3.9
 21
-19.3704295719
  0
LINE
  5
294
100
AcDbEntity
  8
ASSI
100
AcDbLine
 62
7
  6
CONTINUOUS
 10
4.0340172901
 20
-19.3704295719
 11
3.9
 21
-19.3704295719
  0
LINE
  5
295
100
AcDbEntity
  8
RACCORDO
100
AcDbLine
 62
7
  6
CONTINUOUS
 10
-3.9
 20
-19.3704295719
 11
-4.0340172901
 21
-19.3704295719
  0
LINE
  5
296
100
AcDbEntity
  8
ASSI
100
AcDbLine
 62
7
  6
CONTINUOUS
 10
-3.9
 20
-19.3704295719
 11
-4.0340172901
 21
-19.3704295719
  0
LINE
  5
297
100
AcDbEntity
  8
DRAFT
100
AcDbLine
 62
7
  6
CONTINUOUS
 10
14.702972121
 20
-21.2
 11
14.4040057528
 21
-21.1851643248
  0
LINE
  5
298
100
AcDbEntity
  8
ASSI
100
AcDbLine
 62
7
  6
CONTINUOUS
 10
14.702972121
 20
-21.2
 11
14.4040057528
 21
-21.1851643248
  0
LINE
  5
299
100
AcDbEntity
  8
RACCORDO
100
AcDbLine
 62
7
  6
CONTINUOUS
 10
-4.0415154698
 20
-19.8127991157
 11
-3.9
 21
-19.8255982314
  0
LINE
  5
29A
100
AcDbEntity
  8
ASSI
100
AcDbLine
 62
7
  6
CONTINUOUS
 10
-4.0415154698
 20
-19.8127991157
 11
-3.9
 21
-19.8255982314
  0
LINE
  5
29B
100
AcDbEntity
  8
DRAFT
100
AcDbLine
 62
7
  6
CONTINUOUS
 10
4.0135191699
 20
-20.9320850844
 11
3.8669648205
 21
-20.9
  0
LINE
  5
29C
100
AcDbEntity
  8
ASSI
100
AcDbLine
 62
7
  6
CONTINUOUS
 10
4.0135191699
 20
-20.9320850844
 11
3.8669648205
 21
-20.9
  0
LINE
  5
29D
100
AcDbEntity
  8
RACCORDO
100
AcDbLine
 62
7
  6
CONTINUOUS
 10
-3.9
 20
-19.8965739699
 11
-4.0415154698
 21
-19.8258216238
  0
LINE
  5
29E
100
AcDbEntity
  8
ASSI
100
AcDbLine
 62
7
  6
CONTINUOUS
 10
-3.9
 20
-19.8965739699
 11
-4.0415154698
 21
-19.8258216238
  0
LINE
  5
29F
100
AcDbEntity
  8
DRAFT
100
AcDbLine
 62
7
  6
CONTINUOUS
 10
-18.4864808301
 20
20.9320850844
 11
-18.4584845302
 21
20.0060689771
  0
LINE
  5
2A0
100
AcDbEntity
  8
ASSI
100
AcDbLine
 62
7
  6
CONTINUOUS
 10
-18.4864808301
 20
20.9320850844
 11
-18.4584845302
 21
20.0060689771
  0
LINE
  5
2A1
100
AcDbEntity
  8
DRAFT
100
AcDbLine
 62
7
  6
CONTINUOUS
 10
-18.4721457668
 20
-19.0173482781
 11
-18.4584845302
 21
-19.8
  0
LINE
  5
2A2
100
AcDbEntity
  8
ASSI
100
AcDbLine
 62
7
  6
CONTINUOUS
 10
-18.4721457668
 20
-19.0173482781
 11
-18.4584845302
 21
-19.8
  0
LINE
  5
2A3
100
AcDbEntity
  8
0
100
AcDbLine
 62
253
  6
CONTINUOUS
 10
-19.1026969097
 20
-14.4005628724
 11
-19.1026969097
 21
14.4006150918
  0
LINE
  5
2A4
100
AcDbEntity
  8
DRAFT
100
AcDbLine
 62
7
  6
CONTINUOUS
 10
-18.7726756989
 20
-20.7603594806
 11
-18.7726756989
 21
-18.867094756
  0
LINE
  5
2A5
100
AcDbEntity
  8
ASSI
100
AcDbLine
 62
7
  6
CONTINUOUS
 10
-18.7726756989
 20
-20.7603594806
 11
-18.7726756989
 21
-18.867094756
  0
LINE
  5
2A6
100
AcDbEntity
  8
DRAFT
100
AcDbLine
 62
7
  6
CONTINUOUS
 10
-18.7726756989
 20
18.867094756
 11
-18.7726756989
 21
20.7603594806
  0
LINE
  5
2A7
100
AcDbEntity
  8
ASSI
100
AcDbLine
 62
7
  6
CONTINUOUS
 10
-18.7726756989
 20
18.867094756
 11
-18.7726756989
 21
20.7603594806
  0
LINE
  5
2A8
100
AcDbEntity
  8
DRAFT
100
AcDbLine
 62
7
  6
CONTINUOUS
 10
-18.4584845302
 20
20.0060689771
 11
-18.4584845302
 21
19.8
  0
LINE
  5
2A9
100
AcDbEntity
  8
ASSI
100
AcDbLine
 62
7
  6
CONTINUOUS
 10
-18.4584845302
 20
20.0060689771
 11
-18.4584845302
 21
19.8
  0
LINE
  5
2AA
100
AcDbEntity
  8
DRAFT
100
AcDbLine
 62
7
  6
CONTINUOUS
 10
-18.4584845302
 20
-19.8
 11
-18.4584845302
 21
-20.0060689771
  0
LINE
  5
2AB
100
AcDbEntity
  8
ASSI
100
AcDbLine
 62
7
  6
CONTINUOUS
 10
-18.4584845302
 20
-19.8
 11
-18.4584845302
 21
-20.0060689771
  0
LINE
  5
2AC
100
AcDbEntity
  8
DRAFT
100
AcDbLine
 62
7
  6
CONTINUOUS
 10
-17.9830351795
 20
18.8430942654
 11
-17.9830351795
 21
18.6327542795
  0
LINE
  5
2AD
100
AcDbEntity
  8
ASSI
100
AcDbLine
 62
7
  6
CONTINUOUS
 10
-17.9830351795
 20
18.8430942654
 11
-17.9830351795
 21
18.6327542795
  0
LINE
  5
2AE
100
AcDbEntity
  8
DRAFT
100
AcDbLine
 62
7
  6
CONTINUOUS
 10
-17.9830351795
 20
-18.8430942654
 11
-17.9830351795
 21
-18.6327542795
  0
LINE
  5
2AF
100
AcDbEntity
  8
ASSI
100
AcDbLine
 62
7
  6
CONTINUOUS
 10
-17.9830351795
 20
-18.8430942654
 11
-17.9830351795
 21
-18.6327542795
  0
LINE
  5
2B0
100
AcDbEntity
  8
DRAFT
100
AcDbLine
 62
7
  6
CONTINUOUS
 10
-17.3330351795
 20
19.1
 11
-17.3330351795
 21
18.867094756
  0
LINE
  5
2B1
100
AcDbEntity
  8
ASSI
100
AcDbLine
 62
7
  6
CONTINUOUS
 10
-17.3330351795
 20
19.1
 11
-17.3330351795
 21
18.867094756
  0
LINE
  5
2B2
100
AcDbEntity
  8
DRAFT
100
AcDbLine
 62
7
  6
CONTINUOUS
 10
-17.3330351795
 20
-19.1
 11
-17.3330351795
 21
-18.867094756
  0
LINE
  5
2B3
100
AcDbEntity
  8
ASSI
100
AcDbLine
 62
7
  6
CONTINUOUS
 10
-17.3330351795
 20
-19.1
 11
-17.3330351795
 21
-18.867094756
  0
LINE
  5
2B4
100
AcDbEntity
  8
DRAFT
100
AcDbLine
 62
7
  6
CONTINUOUS
 10
-18.4584845302
 20
19.8
 11
-18.4721457668
 21
19.0173482781
  0
LINE
  5
2B5
100
AcDbEntity
  8
ASSI
100
AcDbLine
 62
7
  6
CONTINUOUS
 10
-18.4584845302
 20
19.8
 11
-18.4721457668
 21
19.0173482781
  0
LINE
  5
2B6
100
AcDbEntity
  8
DRAFT
100
AcDbLine
 62
7
  6
CONTINUOUS
 10
-18.4584845302
 20
-20.0060689771
 11
-18.4864808301
 21
-20.9320850844
  0
LINE
  5
2B7
100
AcDbEntity
  8
ASSI
100
AcDbLine
 62
7
  6
CONTINUOUS
 10
-18.4584845302
 20
-20.0060689771
 11
-18.4864808301
 21
-20.9320850844
  0
LINE
  5
2B8
100
AcDbEntity
  8
0
100
AcDbLine
 62
7
  6
CONTINUOUS
 10
17.3330351795
 20
-19.1
 11
5.1669648205
 21
-19.1
  0
LINE
  5
2B9
100
AcDbEntity
  8
ASSI
100
AcDbLine
 62
7
  6
CONTINUOUS
 10
17.3330351795
 20
-19.1
 11
5.1669648205
 21
-19.1
  0
LINE
  5
2BA
100
AcDbEntity
  8
0
100
AcDbLine
 62
7
  6
CONTINUOUS
 10
-5.1669648205
 20
-19.1
 11
-17.3330351795
 21
-19.1
  0
LINE
  5
2BB
100
AcDbEntity
  8
ASSI
100
AcDbLine
 62
7
  6
CONTINUOUS
 10
-5.1669648205
 20
-19.1
 11
-17.3330351795
 21
-19.1
  0
LINE
  5
2BC
100
AcDbEntity
  8
DRAFT
100
AcDbLine
 62
7
  6
CONTINUOUS
 10
18.4721457668
 20
-19.0173482781
 11
18.1551386093
 21
-19.0173482781
  0
LINE
  5
2BD
100
AcDbEntity
  8
ASSI
100
AcDbLine
 62
7
  6
CONTINUOUS
 10
18.4721457668
 20
-19.0173482781
 11
18.1551386093
 21
-19.0173482781
  0
LINE
  5
2BE
100
AcDbEntity
  8
DRAFT
100
AcDbLine
 62
7
  6
CONTINUOUS
 10
17.8109317497
 20
-19.0173482781
 11
17.3330351795
 21
-19.0173482781
  0
LINE
  5
2BF
100
AcDbEntity
  8
ASSI
100
AcDbLine
 62
7
  6
CONTINUOUS
 10
17.8109317497
 20
-19.0173482781
 11
17.3330351795
 21
-19.0173482781
  0
LINE
  5
2C0
100
AcDbEntity
  8
DRAFT
100
AcDbLine
 62
7
  6
CONTINUOUS
 10
5.1669648205
 20
-19.0173482781
 11
4.6890682503
 21
-19.0173482781
  0
LINE
  5
2C1
100
AcDbEntity
  8
ASSI
100
AcDbLine
 62
7
  6
CONTINUOUS
 10
5.1669648205
 20
-19.0173482781
 11
4.6890682503
 21
-19.0173482781
  0
LINE
  5
2C2
100
AcDbEntity
  8
DRAFT
100
AcDbLine
 62
7
  6
CONTINUOUS
 10
4.3448613907
 20
-19.0173482781
 11
4.0278542332
 21
-19.0173482781
  0
LINE
  5
2C3
100
AcDbEntity
  8
ASSI
100
AcDbLine
 62
7
  6
CONTINUOUS
 10
4.3448613907
 20
-19.0173482781
 11
4.0278542332
 21
-19.0173482781
  0
LINE
  5
2C4
100
AcDbEntity
  8
DRAFT
100
AcDbLine
 62
7
  6
CONTINUOUS
 10
-4.0278542332
 20
-19.0173482781
 11
-4.3448613907
 21
-19.0173482781
  0
LINE
  5
2C5
100
AcDbEntity
  8
ASSI
100
AcDbLine
 62
7
  6
CONTINUOUS
 10
-4.0278542332
 20
-19.0173482781
 11
-4.3448613907
 21
-19.0173482781
  0
LINE
  5
2C6
100
AcDbEntity
  8
DRAFT
100
AcDbLine
 62
7
  6
CONTINUOUS
 10
-4.6890682503
 20
-19.0173482781
 11
-5.1669648205
 21
-19.0173482781
  0
LINE
  5
2C7
100
AcDbEntity
  8
ASSI
100
AcDbLine
 62
7
  6
CONTINUOUS
 10
-4.6890682503
 20
-19.0173482781
 11
-5.1669648205
 21
-19.0173482781
  0
LINE
  5
2C8
100
AcDbEntity
  8
DRAFT
100
AcDbLine
 62
7
  6
CONTINUOUS
 10
-17.3330351795
 20
-19.0173482781
 11
-17.8109317497
 21
-19.0173482781
  0
LINE
  5
2C9
100
AcDbEntity
  8
ASSI
100
AcDbLine
 62
7
  6
CONTINUOUS
 10
-17.3330351795
 20
-19.0173482781
 11
-17.8109317497
 21
-19.0173482781
  0
LINE
  5
2CA
100
AcDbEntity
  8
DRAFT
100
AcDbLine
 62
7
  6
CONTINUOUS
 10
-18.1551386093
 20
-19.0173482781
 11
-18.4721457668
 21
-19.0173482781
  0
LINE
  5
2CB
100
AcDbEntity
  8
ASSI
100
AcDbLine
 62
7
  6
CONTINUOUS
 10
-18.1551386093
 20
-19.0173482781
 11
-18.4721457668
 21
-19.0173482781
  0
LINE
  5
2CC
100
AcDbEntity
  8
0
100
AcDbLine
 62
7
  6
CONTINUOUS
 10
-10.0
 20
-18.9
 11
-3.5
 21
-18.9
  0
LINE
  5
2CD
100
AcDbEntity
  8
0
100
AcDbLine
 62
7
  6
CONTINUOUS
 10
-2.5
 20
-18.9
 11
2.5
 21
-18.9
  0
LINE
  5
2CE
100
AcDbEntity
  8
0
100
AcDbLine
 62
7
  6
CONTINUOUS
 10
5.1669648205
 20
-18.9
 11
10.0
 21
-18.9
  0
LINE
  5
2CF
100
AcDbEntity
  8
DRAFT
100
AcDbLine
 62
7
  6
CONTINUOUS
 10
18.7726756989
 20
-18.867094756
 11
18.2173756559
 21
-18.867094756
  0
LINE
  5
2D0
100
AcDbEntity
  8
ASSI
100
AcDbLine
 62
7
  6
CONTINUOUS
 10
18.7726756989
 20
-18.867094756
 11
18.2173756559
 21
-18.867094756
  0
LINE
  5
2D1
100
AcDbEntity
  8
DRAFT
100
AcDbLine
 62
7
  6
CONTINUOUS
 10
17.748694703
 20
-18.867094756
 11
17.3330351795
 21
-18.867094756
  0
LINE
  5
2D2
100
AcDbEntity
  8
ASSI
100
AcDbLine
 62
7
  6
CONTINUOUS
 10
17.748694703
 20
-18.867094756
 11
17.3330351795
 21
-18.867094756
  0
LINE
  5
2D3
100
AcDbEntity
  8
DRAFT
100
AcDbLine
 62
7
  6
CONTINUOUS
 10
-17.3330351795
 20
-18.867094756
 11
-17.748694703
 21
-18.867094756
  0
LINE
  5
2D4
100
AcDbEntity
  8
ASSI
100
AcDbLine
 62
7
  6
CONTINUOUS
 10
-17.3330351795
 20
-18.867094756
 11
-17.748694703
 21
-18.867094756
  0
LINE
  5
2D5
100
AcDbEntity
  8
DRAFT
100
AcDbLine
 62
7
  6
CONTINUOUS
 10
-18.2173756559
 20
-18.867094756
 11
-18.7726756989
 21
-18.867094756
  0
LINE
  5
2D6
100
AcDbEntity
  8
ASSI
100
AcDbLine
 62
7
  6
CONTINUOUS
 10
-18.2173756559
 20
-18.867094756
 11
-18.7726756989
 21
-18.867094756
  0
LINE
  5
2D7
100
AcDbEntity
  8
0
100
AcDbLine
 62
7
  6
CONTINUOUS
 10
-16.2126883141
 20
-17.5116602902
 11
16.2126883133
 21
-17.5116602902
  0
LINE
  5
2D8
100
AcDbEntity
  8
0
100
AcDbLine
 62
253
  6
CONTINUOUS
 10
16.1037248735
 20
-17.3996230171
 11
-16.1037248735
 21
-17.3996230171
  0
LINE
  5
2D9
100
AcDbEntity
  8
DRAFT
100
AcDbLine
 62
7
  6
CONTINUOUS
 10
-14.702972121
 20
-21.2
 11
-14.6497558672
 21
-22.2
  0
LINE
  5
2DA
100
AcDbEntity
  8
ASSI
100
AcDbLine
 62
7
  6
CONTINUOUS
 10
-14.702972121
 20
-21.2
 11
-14.6497558672
 21
-22.2
  0
LINE
  5
2DB
100
AcDbEntity
  8
0
100
AcDbLine
 62
253
  6
CONTINUOUS
 10
-16.1037248735
 20
17.399622858
 11
-16.1037248735
 21
-17.3996230171
  0
LINE
  5
2DC
100
AcDbEntity
  8
DRAFT
100
AcDbLine
 62
7
  6
CONTINUOUS
 10
-14.702972121
 20
21.2
 11
-14.6497558672
 21
22.2
  0
LINE
  5
2DD
100
AcDbEntity
  8
ASSI
100
AcDbLine
 62
7
  6
CONTINUOUS
 10
-14.702972121
 20
21.2
 11
-14.6497558672
 21
22.2
  0
LINE
  5
2DE
100
AcDbEntity
  8
DRAFT
100
AcDbLine
 62
7
  6
CONTINUOUS
 10
-4.5169648205
 20
18.8430942654
 11
-4.3448613907
 21
19.0173482781
  0
LINE
  5
2DF
100
AcDbEntity
  8
ASSI
100
AcDbLine
 62
7
  6
CONTINUOUS
 10
-4.5169648205
 20
18.8430942654
 11
-4.3448613907
 21
19.0173482781
  0
LINE
  5
2E0
100
AcDbEntity
  8
DRAFT
100
AcDbLine
 62
7
  6
CONTINUOUS
 10
-4.5169648205
 20
18.6327542795
 11
-4.2826243441
 21
18.867094756
  0
LINE
  5
2E1
100
AcDbEntity
  8
ASSI
100
AcDbLine
 62
7
  6
CONTINUOUS
 10
-4.5169648205
 20
18.6327542795
 11
-4.2826243441
 21
18.867094756
  0
LINE
  5
2E2
100
AcDbEntity
  8
RACCORDO
100
AcDbLine
 62
7
  6
CONTINUOUS
 10
3.9
 20
19.3034260301
 11
4.0340172901
 21
19.3704295719
  0
LINE
  5
2E3
100
AcDbEntity
  8
ASSI
100
AcDbLine
 62
7
  6
CONTINUOUS
 10
3.9
 20
19.3034260301
 11
4.0340172901
 21
19.3704295719
  0
LINE
  5
2E4
100
AcDbEntity
  8
DRAFT
100
AcDbLine
 62
7
  6
CONTINUOUS
 10
4.0278542332
 20
19.0173482781
 11
3.7931398015
 21
18.9
  0
LINE
  5
2E5
100
AcDbEntity
  8
ASSI
100
AcDbLine
 62
7
  6
CONTINUOUS
 10
4.0278542332
 20
19.0173482781
 11
3.7931398015
 21
18.9
  0
LINE
  5
2E6
100
AcDbEntity
  8
RACCORDO
100
AcDbLine
 62
7
  6
CONTINUOUS
 10
3.9
 20
-19.3034260301
 11
4.0340172901
 21
-19.3704295719
  0
LINE
  5
2E7
100
AcDbEntity
  8
ASSI
100
AcDbLine
 62
7
  6
CONTINUOUS
 10
3.9
 20
-19.3034260301
 11
4.0340172901
 21
-19.3704295719
  0
LINE
  5
2E8
100
AcDbEntity
  8
DRAFT
100
AcDbLine
 62
7
  6
CONTINUOUS
 10
3.7931398015
 20
-18.9
 11
4.0278542332
 21
-19.0173482781
  0
LINE
  5
2E9
100
AcDbEntity
  8
ASSI
100
AcDbLine
 62
7
  6
CONTINUOUS
 10
3.7931398015
 20
-18.9
 11
4.0278542332
 21
-19.0173482781
  0
LINE
  5
2EA
100
AcDbEntity
  8
DRAFT
100
AcDbLine
 62
7
  6
CONTINUOUS
 10
-4.2826243441
 20
-18.867094756
 11
-4.5169648205
 21
-18.6327542795
  0
LINE
  5
2EB
100
AcDbEntity
  8
ASSI
100
AcDbLine
 62
7
  6
CONTINUOUS
 10
-4.2826243441
 20
-18.867094756
 11
-4.5169648205
 21
-18.6327542795
  0
LINE
  5
2EC
100
AcDbEntity
  8
DRAFT
100
AcDbLine
 62
7
  6
CONTINUOUS
 10
-4.3448613907
 20
-19.0173482781
 11
-4.5169648205
 21
-18.8430942654
  0
LINE
  5
2ED
100
AcDbEntity
  8
ASSI
100
AcDbLine
 62
7
  6
CONTINUOUS
 10
-4.3448613907
 20
-19.0173482781
 11
-4.5169648205
 21
-18.8430942654
  0
LINE
  5
2EE
100
AcDbEntity
  8
DRAFT
100
AcDbLine
 62
7
  6
CONTINUOUS
 10
-14.35
 20
-21.1851643248
 11
-14.35
 21
-22.1851643248
  0
LINE
  5
2EF
100
AcDbEntity
  8
ASSI
100
AcDbLine
 62
7
  6
CONTINUOUS
 10
-14.35
 20
-21.1851643248
 11
-14.35
 21
-22.1851643248
  0
LINE
  5
2F0
100
AcDbEntity
  8
DRAFT
100
AcDbLine
 62
7
  6
CONTINUOUS
 10
-14.35
 20
21.1851643248
 11
-14.35
 21
22.1851643248
  0
LINE
  5
2F1
100
AcDbEntity
  8
ASSI
100
AcDbLine
 62
7
  6
CONTINUOUS
 10
-14.35
 20
21.1851643248
 11
-14.35
 21
22.1851643248
  0
LINE
  5
2F2
100
AcDbEntity
  8
0
100
AcDbLine
 62
7
  6
CONTINUOUS
 10
-13.15
 20
-17.5116602902
 11
-13.15
 21
-19.1
  0
LINE
  5
2F3
100
AcDbEntity
  8
0
100
AcDbLine
 62
7
  6
CONTINUOUS
 10
-13.15
 20
17.5116602902
 11
-13.15
 21
19.1
  0
LINE
  5
2F4
100
AcDbEntity
  8
0
100
AcDbLine
 62
253
  6
CONTINUOUS
 10
-12.8468421667
 20
-7.8676784032
 11
-12.8468421667
 21
14.4006510419
  0
LINE
  5
2F5
100
AcDbEntity
  8
DRAFT
100
AcDbLine
 62
7
  6
CONTINUOUS
 10
-8.2441170282
 20
22.1805062352
 11
-8.554211513
 21
21.1651588757
  0
LINE
  5
2F6
100
AcDbEntity
  8
ASSI
100
AcDbLine
 62
7
  6
CONTINUOUS
 10
-8.2441170282
 20
22.1805062352
 11
-8.554211513
 21
21.1651588757
  0
LINE
  5
2F7
100
AcDbEntity
  8
0
100
AcDbLine
 62
253
  6
CONTINUOUS
 10
-7.0157498771
 20
13.6342293142
 11
-7.0140423495
 21
13.6359512972
  0
LINE
  5
2F8
100
AcDbEntity
  8
0
100
AcDbLine
 62
253
  6
CONTINUOUS
 10
-19.1026969097
 20
-14.4006510421
 11
-6.5076873419
 21
-14.4006510421
  0
LINE
  5
2F9
100
AcDbEntity
  8
0
100
AcDbLine
 62
253
  6
CONTINUOUS
 10
-3.8923128363
 20
-14.4006510421
 11
3.8923126567
 21
-14.4006510421
  0
LINE
  5
2FA
100
AcDbEntity
  8
0
100
AcDbLine
 62
253
  6
CONTINUOUS
 10
6.5076871651
 20
-14.4006510421
 11
19.1026969016
 21
-14.4006510421
  0
LINE
  5
2FB
100
AcDbEntity
  8
DRAFT
100
AcDbLine
 62
7
  6
CONTINUOUS
 10
-8.554211513
 20
-21.1651588757
 11
-8.2441170282
 21
-22.1805062352
  0
LINE
  5
2FC
100
AcDbEntity
  8
ASSI
100
AcDbLine
 62
7
  6
CONTINUOUS
 10
-8.554211513
 20
-21.1651588757
 11
-8.2441170282
 21
-22.1805062352
  0
LINE
  5
2FD
100
AcDbEntity
  8
DRAFT
100
AcDbLine
 62
7
  6
CONTINUOUS
 10
-4.2625001673
 20
21.2
 11
-4.2754288586
 21
21.1651588757
  0
LINE
  5
2FE
100
AcDbEntity
  8
ASSI
100
AcDbLine
 62
7
  6
CONTINUOUS
 10
-4.2625001673
 20
21.2
 11
-4.2754288586
 21
21.1651588757
  0
LINE
  5
2FF
100
AcDbEntity
  8
DRAFT
100
AcDbLine
 62
7
  6
CONTINUOUS
 10
-4.7376754986
 20
18.9
 11
-4.6890682503
 21
19.0173482781
  0
LINE
  5
300
100
AcDbEntity
  8
ASSI
100
AcDbLine
 62
7
  6
CONTINUOUS
 10
-4.7376754986
 20
18.9
 11
-4.6890682503
 21
19.0173482781
  0
LINE
  5
301
100
AcDbEntity
  8
DRAFT
100
AcDbLine
 62
7
  6
CONTINUOUS
 10
3.7273243011
 20
20.7603594806
 11
3.8669648205
 21
20.9
  0
LINE
  5
302
100
AcDbEntity
  8
ASSI
100
AcDbLine
 62
7
  6
CONTINUOUS
 10
3.7273243011
 20
20.7603594806
 11
3.8669648205
 21
20.9
  0
LINE
  5
303
100
AcDbEntity
  8
DRAFT
100
AcDbLine
 62
7
  6
CONTINUOUS
 10
3.7273243011
 20
-20.7603594806
 11
3.8669648205
 21
-20.9
  0
LINE
  5
304
100
AcDbEntity
  8
ASSI
100
AcDbLine
 62
7
  6
CONTINUOUS
 10
3.7273243011
 20
-20.7603594806
 11
3.8669648205
 21
-20.9
  0
LINE
  5
305
100
AcDbEntity
  8
0
100
AcDbLine
 62
7
  6
CONTINUOUS
 10
-8.1999999999
 20
-8.0217928653
 11
-8.2108931094
 21
-8.0000000032
  0
LINE
  5
306
100
AcDbEntity
  8
DRAFT
100
AcDbLine
 62
7
  6
CONTINUOUS
 10
-4.7376754986
 20
-18.9
 11
-4.6890682503
 21
-19.0173482781
  0
LINE
  5
307
100
AcDbEntity
  8
ASSI
100
AcDbLine
 62
7
  6
CONTINUOUS
 10
-4.7376754986
 20
-18.9
 11
-4.6890682503
 21
-19.0173482781
  0
LINE
  5
308
100
AcDbEntity
  8
DRAFT
100
AcDbLine
 62
7
  6
CONTINUOUS
 10
-4.2625001673
 20
-21.2
 11
-4.2754288586
 21
-21.1651588757
  0
LINE
  5
309
100
AcDbEntity
  8
ASSI
100
AcDbLine
 62
7
  6
CONTINUOUS
 10
-4.2625001673
 20
-21.2
 11
-4.2754288586
 21
-21.1651588757
  0
LINE
  5
30A
100
AcDbEntity
  8
0
100
AcDbLine
 62
7
  6
CONTINUOUS
 10
-10.0
 20
-18.9
 11
-10.0
 21
-19.1
  0
LINE
  5
30B
100
AcDbEntity
  8
0
100
AcDbLine
 62
7
  6
CONTINUOUS
 10
-10.0
 20
18.9
 11
-10.0
 21
19.1
  0
LINE
  5
30C
100
AcDbEntity
  8
0
100
AcDbLine
 62
253
  6
CONTINUOUS
 10
-9.8473092999
 20
14.400588038
 11
-9.8473092999
 21
-7.756175442
  0
LINE
  5
30D
100
AcDbEntity
  8
0
100
AcDbLine
 62
253
  6
CONTINUOUS
 10
-9.7564263441
 20
11.3999999167
 11
-9.7564261127
 21
14.1772442975
  0
LINE
  5
30E
100
AcDbEntity
  8
0
100
AcDbLine
 62
253
  6
CONTINUOUS
 10
-9.5064643338
 20
14.1806947349
 11
-9.5064643338
 21
11.3999999921
  0
LINE
  5
30F
100
AcDbEntity
  8
0
100
AcDbLine
 62
253
  6
CONTINUOUS
 10
-9.2456107821
 20
11.3999999921
 11
-9.2456107821
 21
14.1806947349
  0
LINE
  5
310
100
AcDbEntity
  8
0
100
AcDbLine
 62
7
  6
CONTINUOUS
 10
-8.9955688813
 20
14.1806883944
 11
-8.9955688813
 21
11.4000000033
  0
LINE
  5
311
100
AcDbEntity
  8
0
100
AcDbLine
 62
7
  6
CONTINUOUS
 10
-8.8999885753
 20
12.1252365122
 11
-8.8999885753
 21
11.3999997812
  0
LINE
  5
312
100
AcDbEntity
  8
0
100
AcDbLine
 62
7
  6
CONTINUOUS
 10
-9.2456500939
 20
14.1806947349
 11
-9.2456411592
 21
14.3358865411
  0
LINE
  5
313
100
AcDbEntity
  8
0
100
AcDbLine
 62
7
  6
CONTINUOUS
 10
-9.5064773126
 20
11.3999999921
 11
-9.5065166967
 21
11.3796465642
  0
LINE
  5
314
100
AcDbEntity
  8
DRAFT
100
AcDbLine
 62
7
  6
CONTINUOUS
 10
-18.2374998327
 20
-21.2
 11
-18.2245711414
 21
-21.1651588757
  0
LINE
  5
315
100
AcDbEntity
  8
ASSI
100
AcDbLine
 62
7
  6
CONTINUOUS
 10
-18.2374998327
 20
-21.2
 11
-18.2245711414
 21
-21.1651588757
  0
LINE
  5
316
100
AcDbEntity
  8
DRAFT
100
AcDbLine
 62
7
  6
CONTINUOUS
 10
-17.748694703
 20
-18.867094756
 11
-17.8109317497
 21
-19.0173482781
  0
LINE
  5
317
100
AcDbEntity
  8
ASSI
100
AcDbLine
 62
7
  6
CONTINUOUS
 10
-17.748694703
 20
-18.867094756
 11
-17.8109317497
 21
-19.0173482781
  0
LINE
  5
318
100
AcDbEntity
  8
DRAFT
100
AcDbLine
 62
7
  6
CONTINUOUS
 10
4.5169648205
 20
18.8430942654
 11
4.6890682503
 21
19.0173482781
  0
LINE
  5
319
100
AcDbEntity
  8
ASSI
100
AcDbLine
 62
7
  6
CONTINUOUS
 10
4.5169648205
 20
18.8430942654
 11
4.6890682503
 21
19.0173482781
  0
LINE
  5
31A
100
AcDbEntity
  8
DRAFT
100
AcDbLine
 62
7
  6
CONTINUOUS
 10
4.5169648205
 20
18.6327542795
 11
4.751305297
 21
18.867094756
  0
LINE
  5
31B
100
AcDbEntity
  8
ASSI
100
AcDbLine
 62
7
  6
CONTINUOUS
 10
4.5169648205
 20
18.6327542795
 11
4.751305297
 21
18.867094756
  0
LINE
  5
31C
100
AcDbEntity
  8
RACCORDO
100
AcDbLine
 62
7
  6
CONTINUOUS
 10
-19.7405830189
 20
-0.4
 11
-19.5932920569
 21
-0.3248118626
  0
LINE
  5
31D
100
AcDbEntity
  8
ASSI
100
AcDbLine
 62
7
  6
CONTINUOUS
 10
-19.7405830189
 20
-0.4
 11
-19.5932920569
 21
-0.3248118626
  0
LINE
  5
31E
100
AcDbEntity
  8
DRAFT
100
AcDbLine
 62
7
  6
CONTINUOUS
 10
-20.7603594806
 20
0.4
 11
-20.9261825974
 21
0.317094756
  0
LINE
  5
31F
100
AcDbEntity
  8
ASSI
100
AcDbLine
 62
7
  6
CONTINUOUS
 10
-20.7603594806
 20
0.4
 11
-20.9261825974
 21
0.317094756
  0
LINE
  5
320
100
AcDbEntity
  8
DRAFT
100
AcDbLine
 62
7
  6
CONTINUOUS
 10
-20.9261825974
 20
-0.317094756
 11
-20.7603594806
 21
-0.4
  0
LINE
  5
321
100
AcDbEntity
  8
ASSI
100
AcDbLine
 62
7
  6
CONTINUOUS
 10
-20.9261825974
 20
-0.317094756
 11
-20.7603594806
 21
-0.4
  0
LINE
  5
322
100
AcDbEntity
  8
RACCORDO
100
AcDbLine
 62
7
  6
CONTINUOUS
 10
-19.5932920569
 20
0.3248118626
 11
-19.7405830189
 21
0.4
  0
LINE
  5
323
100
AcDbEntity
  8
ASSI
100
AcDbLine
 62
7
  6
CONTINUOUS
 10
-19.5932920569
 20
0.3248118626
 11
-19.7405830189
 21
0.4
  0
LINE
  5
324
100
AcDbEntity
  8
DRAFT
100
AcDbLine
 62
7
  6
CONTINUOUS
 10
4.751305297
 20
-18.867094756
 11
4.5169648205
 21
-18.6327542795
  0
LINE
  5
325
100
AcDbEntity
  8
ASSI
100
AcDbLine
 62
7
  6
CONTINUOUS
 10
4.751305297
 20
-18.867094756
 11
4.5169648205
 21
-18.6327542795
  0
LINE
  5
326
100
AcDbEntity
  8
DRAFT
100
AcDbLine
 62
7
  6
CONTINUOUS
 10
4.6890682503
 20
-19.0173482781
 11
4.5169648205
 21
-18.8430942654
  0
LINE
  5
327
100
AcDbEntity
  8
ASSI
100
AcDbLine
 62
7
  6
CONTINUOUS
 10
4.6890682503
 20
-19.0173482781
 11
4.5169648205
 21
-18.8430942654
  0
LINE
  5
328
100
AcDbEntity
  8
DRAFT
100
AcDbLine
 62
7
  6
CONTINUOUS
 10
-17.748694703
 20
18.867094756
 11
-17.8109317497
 21
19.0173482781
  0
LINE
  5
329
100
AcDbEntity
  8
ASSI
100
AcDbLine
 62
7
  6
CONTINUOUS
 10
-17.748694703
 20
18.867094756
 11
-17.8109317497
 21
19.0173482781
  0
LINE
  5
32A
100
AcDbEntity
  8
DRAFT
100
AcDbLine
 62
7
  6
CONTINUOUS
 10
-18.2374998327
 20
21.2
 11
-18.2245711414
 21
21.1651588757
  0
LINE
  5
32B
100
AcDbEntity
  8
ASSI
100
AcDbLine
 62
7
  6
CONTINUOUS
 10
-18.2374998327
 20
21.2
 11
-18.2245711414
 21
21.1651588757
  0
LINE
  5
32C
100
AcDbEntity
  8
DRAFT
100
AcDbLine
 62
7
  6
CONTINUOUS
 10
-7.797027879
 20
21.2
 11
-7.8502441328
 21
22.2
  0
LINE
  5
32D
100
AcDbEntity
  8
ASSI
100
AcDbLine
 62
7
  6
CONTINUOUS
 10
-7.797027879
 20
21.2
 11
-7.8502441328
 21
22.2
  0
LINE
  5
32E
100
AcDbEntity
  8
0
100
AcDbLine
 62
7
  6
CONTINUOUS
 10
-8.1999999999
 20
-8.0217928653
 11
-8.1999999999
 21
-7.9739186125
  0
LINE
  5
32F
100
AcDbEntity
  8
DRAFT
100
AcDbLine
 62
7
  6
CONTINUOUS
 10
-8.15
 20
-21.1851643248
 11
-8.15
 21
-22.1851643248
  0
LINE
  5
330
100
AcDbEntity
  8
ASSI
100
AcDbLine
 62
7
  6
CONTINUOUS
 10
-8.15
 20
-21.1851643248
 11
-8.15
 21
-22.1851643248
  0
LINE
  5
331
100
AcDbEntity
  8
DRAFT
100
AcDbLine
 62
7
  6
CONTINUOUS
 10
-8.15
 20
21.1851643248
 11
-8.15
 21
22.1851643248
  0
LINE
  5
332
100
AcDbEntity
  8
ASSI
100
AcDbLine
 62
7
  6
CONTINUOUS
 10
-8.15
 20
21.1851643248
 11
-8.15
 21
22.1851643248
  0
LINE
  5
333
100
AcDbEntity
  8
0
100
AcDbLine
 62
7
  6
CONTINUOUS
 10
-7.925
 20
6.860254706
 11
-7.925
 21
10.1318587994
  0
LINE
  5
334
100
AcDbEntity
  8
0
100
AcDbLine
 62
253
  6
CONTINUOUS
 10
-7.3794495785
 20
-14.4006510421
 11
-7.3794495785
 21
-8.1090947965
  0
LINE
  5
335
100
AcDbEntity
  8
0
100
AcDbLine
 62
7
  6
CONTINUOUS
 10
-7.2465977891
 20
9.5478052248
 11
-7.2465977891
 21
7.5194801825
  0
LINE
  5
336
100
AcDbEntity
  8
0
100
AcDbLine
 62
7
  6
CONTINUOUS
 10
-7.0140423495
 20
13.9637400208
 11
-7.0140423495
 21
13.6359512972
  0
LINE
  5
337
100
AcDbEntity
  8
0
100
AcDbLine
 62
7
  6
CONTINUOUS
 10
-6.9674395314
 20
7.7491398461
 11
-6.9674395314
 21
8.4385360929
  0
LINE
  5
338
100
AcDbEntity
  8
0
100
AcDbLine
 62
7
  6
CONTINUOUS
 10
-6.9674395314
 20
8.6684740941
 11
-6.9674395314
 21
9.2819830565
  0
LINE
  5
339
100
AcDbEntity
  8
0
100
AcDbLine
 62
7
  6
CONTINUOUS
 10
-6.8
 20
14.699023212
 11
-6.8
 21
15.675938089
  0
LINE
  5
33A
100
AcDbEntity
  8
0
100
AcDbLine
 62
7
  6
CONTINUOUS
 10
-6.7950342327
 20
13.6497953674
 11
-6.7950342327
 21
14.1806883944
  0
LINE
  5
33B
100
AcDbEntity
  8
0
100
AcDbLine
 62
7
  6
CONTINUOUS
 10
-6.65
 20
-1.8369263228
 11
-6.65
 21
-1.8722803023
  0
LINE
  5
33C
100
AcDbEntity
  8
0
100
AcDbLine
 62
253
  6
CONTINUOUS
 10
-6.5076873419
 20
-8.1160785894
 11
-6.5076873419
 21
-14.4006510421
  0
LINE
  5
33D
100
AcDbEntity
  8
0
100
AcDbLine
 62
253
  6
CONTINUOUS
 10
-6.5000000069
 20
14.2000001522
 11
-6.5000000069
 21
13.6500004119
  0
LINE
  5
33E
100
AcDbEntity
  8
0
100
AcDbLine
 62
253
  6
CONTINUOUS
 10
-6.4999976014
 20
-1.8722803024
 11
-6.4999976014
 21
-1.8369263239
  0
LINE
  5
33F
100
AcDbEntity
  8
0
100
AcDbLine
 62
7
  6
CONTINUOUS
 10
-6.25
 20
-0.7198292179
 11
-6.25
 21
-1.6239965619
  0
LINE
  5
340
100
AcDbEntity
  8
DRAFT
100
AcDbLine
 62
7
  6
CONTINUOUS
 10
-7.797027879
 20
-21.2
 11
-7.8502441328
 21
-22.2
  0
LINE
  5
341
100
AcDbEntity
  8
ASSI
100
AcDbLine
 62
7
  6
CONTINUOUS
 10
-7.797027879
 20
-21.2
 11
-7.8502441328
 21
-22.2
  0
LINE
  5
342
100
AcDbEntity
  8
DRAFT
100
AcDbLine
 62
7
  6
CONTINUOUS
 10
-13.945788487
 20
-21.1651588757
 11
-14.2558829718
 21
-22.1805062352
  0
LINE
  5
343
100
AcDbEntity
  8
ASSI
100
AcDbLine
 62
7
  6
CONTINUOUS
 10
-13.945788487
 20
-21.1651588757
 11
-14.2558829718
 21
-22.1805062352
  0
LINE
  5
344
100
AcDbEntity
  8
0
100
AcDbLine
 62
7
  6
CONTINUOUS
 10
2.1257537488
 20
-7.9860952896
 11
2.3157872888
 21
-7.9377225466
  0
LINE
  5
345
100
AcDbEntity
  8
0
100
AcDbLine
 62
7
  6
CONTINUOUS
 10
-11.6180030217
 20
-8.1090947965
 11
-7.3794495785
 21
-8.1090947965
  0
LINE
  5
346
100
AcDbEntity
  8
0
100
AcDbLine
 62
7
  6
CONTINUOUS
 10
11.6180013225
 20
-8.1090947887
 11
7.3794495009
 21
-8.1090947887
  0
LINE
  5
347
100
AcDbEntity
  8
0
100
AcDbLine
 62
7
  6
CONTINUOUS
 10
3.0205505282
 20
-8.1090947887
 11
-3.0205505282
 21
-8.1090947887
  0
LINE
  5
348
100
AcDbEntity
  8
0
100
AcDbLine
 62
7
  6
CONTINUOUS
 10
-1.7724286514
 20
-8.0545987005
 11
1.7724086498
 21
-8.0545987005
  0
LINE
  5
349
100
AcDbEntity
  8
0
100
AcDbLine
 62
7
  6
CONTINUOUS
 10
2.2
 20
-8.021792865
 11
1.921230478
 21
-8.021792865
  0
LINE
  5
34A
100
AcDbEntity
  8
0
100
AcDbLine
 62
7
  6
CONTINUOUS
 10
-1.9212457783
 20
-8.021792865
 11
-2.2
 21
-8.021792865
  0
LINE
  5
34B
100
AcDbEntity
  8
0
100
AcDbLine
 62
7
  6
CONTINUOUS
 10
-9.5942440366
 20
-8.0
 11
-8.2108931126
 21
-8.0
  0
LINE
  5
34C
100
AcDbEntity
  8
0
100
AcDbLine
 62
7
  6
CONTINUOUS
 10
-2.0453765713
 20
-8.0
 11
2.0456301367
 21
-8.0
  0
LINE
  5
34D
100
AcDbEntity
  8
0
100
AcDbLine
 62
7
  6
CONTINUOUS
 10
8.2108931126
 20
-8.0
 11
9.5943194008
 21
-8.0
  0
LINE
  5
34E
100
AcDbEntity
  8
0
100
AcDbLine
 62
7
  6
CONTINUOUS
 10
8.9297011297
 20
-7.5618972242
 11
8.840331056
 21
-7.5618971329
  0
LINE
  5
34F
100
AcDbEntity
  8
0
100
AcDbLine
 62
7
  6
CONTINUOUS
 10
-8.8403310538
 20
-7.5618971752
 11
-8.9297008012
 21
-7.5618975979
  0
LINE
  5
350
100
AcDbEntity
  8
0
100
AcDbLine
 62
7
  6
CONTINUOUS
 10
6.9617468598
 20
-7.4392304845
 11
3.4363670635
 21
-7.4392304845
  0
LINE
  5
351
100
AcDbEntity
  8
0
100
AcDbLine
 62
7
  6
CONTINUOUS
 10
-3.4188335685
 20
-7.4392304845
 11
-6.9781195252
 21
-7.4392304845
  0
LINE
  5
352
100
AcDbEntity
  8
0
100
AcDbLine
 62
7
  6
CONTINUOUS
 10
-2.3383080239
 20
-7.9335090087
 11
-2.1520627372
 21
-7.9837577889
  0
LINE
  5
353
100
AcDbEntity
  8
DRAFT
100
AcDbLine
 62
7
  6
CONTINUOUS
 10
-14.2558829718
 20
22.1805062352
 11
-13.945788487
 21
21.1651588757
  0
LINE
  5
354
100
AcDbEntity
  8
ASSI
100
AcDbLine
 62
7
  6
CONTINUOUS
 10
-14.2558829718
 20
22.1805062352
 11
-13.945788487
 21
21.1651588757
  0
LINE
  5
355
100
AcDbEntity
  8
DRAFT
100
AcDbLine
 62
7
  6
CONTINUOUS
 10
-4.0135191699
 20
-20.9320850844
 11
-4.0415154698
 21
-20.0060689771
  0
LINE
  5
356
100
AcDbEntity
  8
ASSI
100
AcDbLine
 62
7
  6
CONTINUOUS
 10
-4.0135191699
 20
-20.9320850844
 11
-4.0415154698
 21
-20.0060689771
  0
LINE
  5
357
100
AcDbEntity
  8
0
100
AcDbLine
 62
7
  6
CONTINUOUS
 10
-5.9269405707
 20
8.4385360929
 11
-5.9269405707
 21
8.7040685346
  0
LINE
  5
358
100
AcDbEntity
  8
0
100
AcDbLine
 62
7
  6
CONTINUOUS
 10
-5.8000504536
 20
7.5194801825
 11
-5.8000504536
 21
7.7846998931
  0
LINE
  5
359
100
AcDbEntity
  8
0
100
AcDbLine
 62
7
  6
CONTINUOUS
 10
-5.75
 20
-1.6239965859
 11
-5.75
 21
-0.7198292179
  0
LINE
  5
35A
100
AcDbEntity
  8
0
100
AcDbLine
 62
253
  6
CONTINUOUS
 10
-5.5000023958
 20
-1.8369263236
 11
-5.5000023958
 21
-1.8722803023
  0
LINE
  5
35B
100
AcDbEntity
  8
0
100
AcDbLine
 62
7
  6
CONTINUOUS
 10
-5.35
 20
-1.8722803023
 11
-5.35
 21
-1.8369263228
  0
LINE
  5
35C
100
AcDbEntity
  8
DRAFT
100
AcDbLine
 62
7
  6
CONTINUOUS
 10
-5.1669648205
 20
19.1
 11
-5.1669648205
 21
18.9
  0
LINE
  5
35D
100
AcDbEntity
  8
ASSI
100
AcDbLine
 62
7
  6
CONTINUOUS
 10
-5.1669648205
 20
19.1
 11
-5.1669648205
 21
18.9
  0
LINE
  5
35E
100
AcDbEntity
  8
DRAFT
100
AcDbLine
 62
7
  6
CONTINUOUS
 10
-5.1669648205
 20
-19.1
 11
-5.1669648205
 21
-18.9
  0
LINE
  5
35F
100
AcDbEntity
  8
ASSI
100
AcDbLine
 62
7
  6
CONTINUOUS
 10
-5.1669648205
 20
-19.1
 11
-5.1669648205
 21
-18.9
  0
LINE
  5
360
100
AcDbEntity
  8
0
100
AcDbLine
 62
7
  6
CONTINUOUS
 10
-4.9371976569
 20
9.2819830565
 11
-4.9371976569
 21
7.5194801825
  0
LINE
  5
361
100
AcDbEntity
  8
0
100
AcDbLine
 62
7
  6
CONTINUOUS
 10
-4.6580393992
 20
7.5194801825
 11
-4.6580393992
 21
9.2819830565
  0
LINE
  5
362
100
AcDbEntity
  8
DRAFT
100
AcDbLine
 62
7
  6
CONTINUOUS
 10
-4.5169648205
 20
18.8430942654
 11
-4.5169648205
 21
18.6327542795
  0
LINE
  5
363
100
AcDbEntity
  8
ASSI
100
AcDbLine
 62
7
  6
CONTINUOUS
 10
-4.5169648205
 20
18.8430942654
 11
-4.5169648205
 21
18.6327542795
  0
LINE
  5
364
100
AcDbEntity
  8
DRAFT
100
AcDbLine
 62
7
  6
CONTINUOUS
 10
-4.5169648205
 20
-18.8430942654
 11
-4.5169648205
 21
-18.6327542795
  0
LINE
  5
365
100
AcDbEntity
  8
ASSI
100
AcDbLine
 62
7
  6
CONTINUOUS
 10
-4.5169648205
 20
-18.8430942654
 11
-4.5169648205
 21
-18.6327542795
  0
LINE
  5
366
100
AcDbEntity
  8
DRAFT
100
AcDbLine
 62
7
  6
CONTINUOUS
 10
-4.0415154698
 20
-20.0060689771
 11
-4.0415154698
 21
-19.8258216238
  0
LINE
  5
367
100
AcDbEntity
  8
ASSI
100
AcDbLine
 62
7
  6
CONTINUOUS
 10
-4.0415154698
 20
-20.0060689771
 11
-4.0415154698
 21
-19.8258216238
  0
LINE
  5
368
100
AcDbEntity
  8
DRAFT
100
AcDbLine
 62
7
  6
CONTINUOUS
 10
-4.0415154698
 20
19.8258216238
 11
-4.0415154698
 21
20.0060689771
  0
LINE
  5
369
100
AcDbEntity
  8
ASSI
100
AcDbLine
 62
7
  6
CONTINUOUS
 10
-4.0415154698
 20
19.8258216238
 11
-4.0415154698
 21
20.0060689771
  0
LINE
  5
36A
100
AcDbEntity
  8
DRAFT
100
AcDbLine
 62
7
  6
CONTINUOUS
 10
-4.0415154698
 20
20.0060689771
 11
-4.0135191699
 21
20.9320850844
  0
LINE
  5
36B
100
AcDbEntity
  8
ASSI
100
AcDbLine
 62
7
  6
CONTINUOUS
 10
-4.0415154698
 20
20.0060689771
 11
-4.0135191699
 21
20.9320850844
  0
LINE
  5
36C
100
AcDbEntity
  8
0
100
AcDbLine
 62
253
  6
CONTINUOUS
 10
-9.8473092999
 20
-7.756175442
 11
-9.8442287451
 21
-7.7504179375
  0
LINE
  5
36D
100
AcDbEntity
  8
0
100
AcDbLine
 62
253
  6
CONTINUOUS
 10
8.8800135203
 20
-4.4256684229
 11
1.4435528628
 21
-4.4256684229
  0
LINE
  5
36E
100
AcDbEntity
  8
0
100
AcDbLine
 62
253
  6
CONTINUOUS
 10
-1.443552609
 20
-4.4256684226
 11
-8.8800135203
 21
-4.4256684226
  0
LINE
  5
36F
100
AcDbEntity
  8
0
100
AcDbLine
 62
253
  6
CONTINUOUS
 10
-9.526206285
 20
-4.4256492113
 11
-9.2258650844
 21
-4.4256492113
  0
LINE
  5
370
100
AcDbEntity
  8
0
100
AcDbLine
 62
253
  6
CONTINUOUS
 10
9.2259284822
 20
-4.4256489612
 11
9.5262415262
 21
-4.4256489612
  0
LINE
  5
371
100
AcDbEntity
  8
0
100
AcDbLine
 62
253
  6
CONTINUOUS
 10
-8.9754601958
 20
-4.3896881644
 11
-8.8757715625
 21
-4.3896881644
  0
LINE
  5
372
100
AcDbEntity
  8
0
100
AcDbLine
 62
253
  6
CONTINUOUS
 10
-1.4959195731
 20
-4.3896881644
 11
1.4959195731
 21
-4.3896881644
  0
LINE
  5
373
100
AcDbEntity
  8
0
100
AcDbLine
 62
253
  6
CONTINUOUS
 10
8.8757715593
 20
-4.3896881644
 11
8.9751931203
 21
-4.3896881644
  0
LINE
  5
374
100
AcDbEntity
  8
0
100
AcDbLine
 62
7
  6
CONTINUOUS
 10
8.1
 20
-7.9398263992
 11
8.2190620653
 21
-7.9709211052
  0
LINE
  5
375
100
AcDbEntity
  8
0
100
AcDbLine
 62
7
  6
CONTINUOUS
 10
8.0295734774
 20
-7.9203163366
 11
8.1
 21
-7.9398263992
  0
LINE
  5
376
100
AcDbEntity
  8
DRAFT
100
AcDbLine
 62
7
  6
CONTINUOUS
 10
-4.0278542332
 20
19.0173482781
 11
-4.0340172901
 21
19.3704295719
  0
LINE
  5
377
100
AcDbEntity
  8
ASSI
100
AcDbLine
 62
7
  6
CONTINUOUS
 10
-4.0278542332
 20
19.0173482781
 11
-4.0340172901
 21
19.3704295719
  0
LINE
  5
378
100
AcDbEntity
  8
0
100
AcDbLine
 62
7
  6
CONTINUOUS
 10
-4.0235888134
 20
9.2819830565
 11
-4.0235888134
 21
9.5478052248
  0
LINE
  5
379
100
AcDbEntity
  8
0
100
AcDbLine
 62
253
  6
CONTINUOUS
 10
-4.0
 20
10.95
 11
-4.0
 21
10.85
  0
LINE
  5
37A
100
AcDbEntity
  8
0
100
AcDbLine
 62
253
  6
CONTINUOUS
 10
-4.0
 20
10.622007317
 11
-4.0
 21
10.6134313985
  0
LINE
  5
37B
100
AcDbEntity
  8
RACCORDO
100
AcDbLine
 62
253
  6
CONTINUOUS
 10
-3.9
 20
19.8965739699
 11
-3.9
 21
19.8255982314
  0
LINE
  5
37C
100
AcDbEntity
  8
ASSI
100
AcDbLine
 62
253
  6
CONTINUOUS
 10
-3.9
 20
19.8965739699
 11
-3.9
 21
19.8255982314
  0
LINE
  5
37D
100
AcDbEntity
  8
RACCORDO
100
AcDbLine
 62
253
  6
CONTINUOUS
 10
-3.9
 20
-19.3034260301
 11
-3.9
 21
-19.3704295719
  0
LINE
  5
37E
100
AcDbEntity
  8
RACCORDO
100
AcDbLine
 62
253
  6
CONTINUOUS
 10
-3.9
 20
-19.8965739699
 11
-3.9
 21
-19.8255982314
  0
LINE
  5
37F
100
AcDbEntity
  8
ASSI
100
AcDbLine
 62
253
  6
CONTINUOUS
 10
-3.9
 20
-19.3034260301
 11
-3.9
 21
-19.3704295719
  0
LINE
  5
380
100
AcDbEntity
  8
ASSI
100
AcDbLine
 62
253
  6
CONTINUOUS
 10
-3.9
 20
-19.8965739699
 11
-3.9
 21
-19.8255982314
  0
LINE
  5
381
100
AcDbEntity
  8
RACCORDO
100
AcDbLine
 62
253
  6
CONTINUOUS
 10
-3.9
 20
19.3034260301
 11
-3.9
 21
19.3704295719
  0
LINE
  5
382
100
AcDbEntity
  8
ASSI
100
AcDbLine
 62
253
  6
CONTINUOUS
 10
-3.9
 20
19.3034260301
 11
-3.9
 21
19.3704295719
  0
LINE
  5
383
100
AcDbEntity
  8
0
100
AcDbLine
 62
253
  6
CONTINUOUS
 10
-3.8923128363
 20
-14.4006510421
 11
-3.8923128363
 21
-8.1160785929
  0
LINE
  5
384
100
AcDbEntity
  8
RACCORDO
100
AcDbLine
 62
7
  6
CONTINUOUS
 10
-3.7273243011
 20
-20.7603594806
 11
-3.7273243011
 21
-19.9417594606
  0
LINE
  5
385
100
AcDbEntity
  8
ASSI
100
AcDbLine
 62
7
  6
CONTINUOUS
 10
-3.7273243011
 20
-20.7603594806
 11
-3.7273243011
 21
-19.9417594606
  0
LINE
  5
386
100
AcDbEntity
  8
RACCORDO
100
AcDbLine
 62
7
  6
CONTINUOUS
 10
-3.7273243011
 20
-19.2582405394
 11
-3.7273243011
 21
-18.867094756
  0
LINE
  5
387
100
AcDbEntity
  8
ASSI
100
AcDbLine
 62
7
  6
CONTINUOUS
 10
-3.7273243011
 20
-19.2582405394
 11
-3.7273243011
 21
-18.867094756
  0
LINE
  5
388
100
AcDbEntity
  8
RACCORDO
100
AcDbLine
 62
7
  6
CONTINUOUS
 10
-3.7273243011
 20
18.867094756
 11
-3.7273243011
 21
19.2582405394
  0
LINE
  5
389
100
AcDbEntity
  8
ASSI
100
AcDbLine
 62
7
  6
CONTINUOUS
 10
-3.7273243011
 20
18.867094756
 11
-3.7273243011
 21
19.2582405394
  0
LINE
  5
38A
100
AcDbEntity
  8
RACCORDO
100
AcDbLine
 62
7
  6
CONTINUOUS
 10
-3.7273243011
 20
19.9417594606
 11
-3.7273243011
 21
20.7603594806
  0
LINE
  5
38B
100
AcDbEntity
  8
ASSI
100
AcDbLine
 62
7
  6
CONTINUOUS
 10
-3.7273243011
 20
19.9417594606
 11
-3.7273243011
 21
20.7603594806
  0
LINE
  5
38C
100
AcDbEntity
  8
0
100
AcDbLine
 62
7
  6
CONTINUOUS
 10
-3.5
 20
19.399450985
 11
-3.5
 21
18.9
  0
LINE
  5
38D
100
AcDbEntity
  8
0
100
AcDbLine
 62
7
  6
CONTINUOUS
 10
-3.5
 20
-18.9
 11
-3.5
 21
-19.399450985
  0
LINE
  5
38E
100
AcDbEntity
  8
0
100
AcDbLine
 62
7
  6
CONTINUOUS
 10
-3.425
 20
10.1318587994
 11
-3.425
 21
6.860254706
  0
LINE
  5
38F
100
AcDbEntity
  8
0
100
AcDbLine
 62
253
  6
CONTINUOUS
 10
-3.0205504215
 20
-8.1090947887
 11
-3.0205504215
 21
-14.4006510421
  0
LINE
  5
390
100
AcDbEntity
  8
0
100
AcDbLine
 62
7
  6
CONTINUOUS
 10
-2.5
 20
19.399450985
 11
-2.5
 21
18.9
  0
LINE
  5
391
100
AcDbEntity
  8
0
100
AcDbLine
 62
7
  6
CONTINUOUS
 10
-2.5
 20
-18.9
 11
-2.5
 21
-19.3990616547
  0
LINE
  5
392
100
AcDbEntity
  8
0
100
AcDbLine
 62
7
  6
CONTINUOUS
 10
-2.2
 20
-7.9708147049
 11
-2.2
 21
-8.021792865
  0
LINE
  5
393
100
AcDbEntity
  8
DRAFT
100
AcDbLine
 62
7
  6
CONTINUOUS
 10
-4.0340172901
 20
-19.3704295719
 11
-4.0278542332
 21
-19.0173482781
  0
LINE
  5
394
100
AcDbEntity
  8
ASSI
100
AcDbLine
 62
7
  6
CONTINUOUS
 10
-4.0340172901
 20
-19.3704295719
 11
-4.0278542332
 21
-19.0173482781
  0
LINE
  5
395
100
AcDbEntity
  8
DRAFT
100
AcDbLine
 62
7
  6
CONTINUOUS
 10
4.2962541424
 20
18.9
 11
4.3448613907
 21
19.0173482781
  0
LINE
  5
396
100
AcDbEntity
  8
ASSI
100
AcDbLine
 62
7
  6
CONTINUOUS
 10
4.2962541424
 20
18.9
 11
4.3448613907
 21
19.0173482781
  0
LINE
  5
397
100
AcDbEntity
  8
0
100
AcDbLine
 62
253
  6
CONTINUOUS
 10
-19.1026969097
 20
-14.4005628724
 11
-19.1780738074
 21
-14.4755176312
  0
LINE
  5
398
100
AcDbEntity
  8
0
100
AcDbLine
 62
253
  6
CONTINUOUS
 10
-19.1750020823
 20
-14.4755176312
 11
-19.2116602987
 21
-14.5118169318
  0
LINE
  5
399
100
AcDbEntity
  8
0
100
AcDbLine
 62
7
  6
CONTINUOUS
 10
6.25
 20
-2.9397891191
 11
5.75
 21
-2.9397891191
  0
LINE
  5
39A
100
AcDbEntity
  8
0
100
AcDbLine
 62
7
  6
CONTINUOUS
 10
6.65
 20
-1.8739346325
 11
6.4999972853
 21
-1.8739346325
  0
LINE
  5
39B
100
AcDbEntity
  8
0
100
AcDbLine
 62
7
  6
CONTINUOUS
 10
5.5000039803
 20
-1.8739346327
 11
5.35
 21
-1.8739346327
  0
LINE
  5
39C
100
AcDbEntity
  8
0
100
AcDbLine
 62
7
  6
CONTINUOUS
 10
-0.8866073694
 20
-2.5938132256
 11
-0.1476249523
 21
-2.900252432
  0
LINE
  5
39D
100
AcDbEntity
  8
0
100
AcDbLine
 62
7
  6
CONTINUOUS
 10
-0.6561873214
 20
-2.4984769276
 11
-0.2429612503
 21
-2.669832384
  0
LINE
  5
39E
100
AcDbEntity
  8
0
100
AcDbLine
 62
253
  6
CONTINUOUS
 10
-19.1780738074
 20
14.4758750654
 11
-19.1026969097
 21
14.4006150918
  0
LINE
  5
39F
100
AcDbEntity
  8
0
100
AcDbLine
 62
253
  6
CONTINUOUS
 10
-19.2116602987
 20
14.5126344616
 11
-19.1750020823
 21
14.4758750654
  0
LINE
  5
3A0
100
AcDbEntity
  8
DRAFT
100
AcDbLine
 62
7
  6
CONTINUOUS
 10
4.2962541424
 20
-18.9
 11
4.3448613907
 21
-19.0173482781
  0
LINE
  5
3A1
100
AcDbEntity
  8
ASSI
100
AcDbLine
 62
7
  6
CONTINUOUS
 10
4.2962541424
 20
-18.9
 11
4.3448613907
 21
-19.0173482781
  0
LINE
  5
3A2
100
AcDbEntity
  8
0
100
AcDbLine
 62
7
  6
CONTINUOUS
 10
-0.4230974353
 20
3.2243062056
 11
-0.4230974353
 21
3.5531260592
  0
LINE
  5
3A3
100
AcDbEntity
  8
0
100
AcDbLine
 62
7
  6
CONTINUOUS
 10
-0.4230974353
 20
5.9282999703
 11
-0.4230974353
 21
6.2582493161
  0
LINE
  5
3A4
100
AcDbEntity
  8
0
100
AcDbLine
 62
7
  6
CONTINUOUS
 10
-1.0175441872
 20
-0.797728669
 11
-1.2159163936
 21
-1.2761060093
  0
LINE
  5
3A5
100
AcDbEntity
  8
0
100
AcDbLine
 62
7
  6
CONTINUOUS
 10
-0.9984769276
 20
-0.8438126786
 11
-1.169832384
 21
-1.2570387497
  0
LINE
  5
3A6
100
AcDbEntity
  8
0
100
AcDbLine
 62
7
  6
CONTINUOUS
 10
0.1476249523
 20
-0.099747568
 11
-0.1875429297
 21
-0.9080095866
  0
LINE
  5
3A7
100
AcDbEntity
  8
0
100
AcDbLine
 62
7
  6
CONTINUOUS
 10
-0.5514394874
 20
-1.7855512069
 11
-0.8866073694
 21
-2.5938132256
  0
LINE
  5
3A8
100
AcDbEntity
  8
0
100
AcDbLine
 62
253
  6
CONTINUOUS
 10
9.6077835632
 20
17.2615339754
 11
9.5532094015
 21
17.1796612752
  0
LINE
  5
3A9
100
AcDbEntity
  8
0
100
AcDbLine
 62
253
  6
CONTINUOUS
 10
9.8031014758
 20
16.9296365558
 11
9.857746371
 21
17.0116165822
  0
LINE
  5
3AA
100
AcDbEntity
  8
DRAFT
100
AcDbLine
 62
7
  6
CONTINUOUS
 10
17.9830351795
 20
18.8430942654
 11
18.1551386093
 21
19.0173482781
  0
LINE
  5
3AB
100
AcDbEntity
  8
ASSI
100
AcDbLine
 62
7
  6
CONTINUOUS
 10
17.9830351795
 20
18.8430942654
 11
18.1551386093
 21
19.0173482781
  0
LINE
  5
3AC
100
AcDbEntity
  8
0
100
AcDbLine
 62
253
  6
CONTINUOUS
 10
16.1787341809
 20
17.4750000556
 11
16.1036472192
 21
17.3996230637
  0
LINE
  5
3AD
100
AcDbEntity
  8
DRAFT
100
AcDbLine
 62
7
  6
CONTINUOUS
 10
17.9830351795
 20
18.6327542795
 11
18.2173756559
 21
18.867094756
  0
LINE
  5
3AE
100
AcDbEntity
  8
ASSI
100
AcDbLine
 62
7
  6
CONTINUOUS
 10
17.9830351795
 20
18.6327542795
 11
18.2173756559
 21
18.867094756
  0
LINE
  5
3AF
100
AcDbEntity
  8
DRAFT
100
AcDbLine
 62
7
  6
CONTINUOUS
 10
-20.7603594806
 20
-20.7603594806
 11
-20.9
 21
-20.9
  0
LINE
  5
3B0
100
AcDbEntity
  8
ASSI
100
AcDbLine
 62
7
  6
CONTINUOUS
 10
-20.7603594806
 20
-20.7603594806
 11
-20.9
 21
-20.9
  0
LINE
  5
3B1
100
AcDbEntity
  8
DRAFT
100
AcDbLine
 62
7
  6
CONTINUOUS
 10
20.7603594806
 20
20.7603594806
 11
20.9
 21
20.9
  0
LINE
  5
3B2
100
AcDbEntity
  8
ASSI
100
AcDbLine
 62
7
  6
CONTINUOUS
 10
20.7603594806
 20
20.7603594806
 11
20.9
 21
20.9
  0
LINE
  5
3B3
100
AcDbEntity
  8
0
100
AcDbLine
 62
7
  6
CONTINUOUS
 10
-6.65
 20
-1.8722803024
 11
-6.4999976014
 21
-1.8722803024
  0
LINE
  5
3B4
100
AcDbEntity
  8
0
100
AcDbLine
 62
7
  6
CONTINUOUS
 10
-5.5000023958
 20
-1.8722803023
 11
-5.35
 21
-1.8722803023
  0
LINE
  5
3B5
100
AcDbEntity
  8
0
100
AcDbLine
 62
7
  6
CONTINUOUS
 10
-5.35
 20
-1.8369263236
 11
-5.5000023958
 21
-1.8369263236
  0
LINE
  5
3B6
100
AcDbEntity
  8
0
100
AcDbLine
 62
7
  6
CONTINUOUS
 10
-6.4999976014
 20
-1.8369263239
 11
-6.65
 21
-1.8369263239
  0
LINE
  5
3B7
100
AcDbEntity
  8
0
100
AcDbLine
 62
7
  6
CONTINUOUS
 10
-6.25
 20
-0.7551927941
 11
-5.75
 21
-0.7551927941
  0
LINE
  5
3B8
100
AcDbEntity
  8
0
100
AcDbLine
 62
7
  6
CONTINUOUS
 10
-5.75
 20
-0.7198292179
 11
-6.25
 21
-0.7198292179
  0
LINE
  5
3B9
100
AcDbEntity
  8
DRAFT
100
AcDbLine
 62
7
  6
CONTINUOUS
 10
20.7603594806
 20
-0.4
 11
19.7405830189
 21
-0.4
  0
LINE
  5
3BA
100
AcDbEntity
  8
ASSI
100
AcDbLine
 62
7
  6
CONTINUOUS
 10
20.7603594806
 20
-0.4
 11
19.7405830189
 21
-0.4
  0
LINE
  5
3BB
100
AcDbEntity
  8
DRAFT
100
AcDbLine
 62
7
  6
CONTINUOUS
 10
-19.7405830189
 20
-0.4
 11
-20.7603594806
 21
-0.4
  0
LINE
  5
3BC
100
AcDbEntity
  8
ASSI
100
AcDbLine
 62
7
  6
CONTINUOUS
 10
-19.7405830189
 20
-0.4
 11
-20.7603594806
 21
-0.4
  0
LINE
  5
3BD
100
AcDbEntity
  8
RACCORDO
100
AcDbLine
 62
7
  6
CONTINUOUS
 10
-20.9261825974
 20
-0.317094756
 11
-19.2116594362
 21
-0.317094756
  0
LINE
  5
3BE
100
AcDbEntity
  8
ASSI
100
AcDbLine
 62
7
  6
CONTINUOUS
 10
-20.9261825974
 20
-0.317094756
 11
-19.2116594362
 21
-0.317094756
  0
LINE
  5
3BF
100
AcDbEntity
  8
RACCORDO
100
AcDbLine
 62
7
  6
CONTINUOUS
 10
19.2116585033
 20
-0.317094756
 11
20.9261825974
 21
-0.317094756
  0
LINE
  5
3C0
100
AcDbEntity
  8
ASSI
100
AcDbLine
 62
7
  6
CONTINUOUS
 10
19.2116585033
 20
-0.317094756
 11
20.9261825974
 21
-0.317094756
  0
LINE
  5
3C1
100
AcDbEntity
  8
0
100
AcDbLine
 62
7
  6
CONTINUOUS
 10
2.2262861431
 20
-2.93741087
 11
0.0572403913
 21
-2.0379569133
  0
LINE
  5
3C2
100
AcDbEntity
  8
0
100
AcDbLine
 62
7
  6
CONTINUOUS
 10
-0.421136949
 20
-1.839584707
 11
-2.5901827007
 21
-0.9401307503
  0
LINE
  5
3C3
100
AcDbEntity
  8
0
100
AcDbLine
 62
7
  6
CONTINUOUS
 10
1.0175441872
 20
-2.202271331
 11
0.140002567
 21
-1.8383747733
  0
LINE
  5
3C4
100
AcDbEntity
  8
0
100
AcDbLine
 62
7
  6
CONTINUOUS
 10
-0.3383747733
 20
-1.640002567
 11
-1.2159163936
 21
-1.2761060093
  0
LINE
  5
3C5
100
AcDbEntity
  8
0
100
AcDbLine
 62
7
  6
CONTINUOUS
 10
-1.169832384
 20
-1.2570387497
 11
-0.2922907637
 21
-1.6209353074
  0
LINE
  5
3C6
100
AcDbEntity
  8
0
100
AcDbLine
 62
7
  6
CONTINUOUS
 10
0.1209353074
 20
-1.7922907637
 11
0.9984769276
 21
-2.1561873214
  0
LINE
  5
3C7
100
AcDbEntity
  8
0
100
AcDbLine
 62
7
  6
CONTINUOUS
 10
0.8775416203
 20
-1.8638965577
 11
-0.8775416203
 21
-1.1361034423
  0
LINE
  5
3C8
100
AcDbEntity
  8
0
100
AcDbLine
 62
7
  6
CONTINUOUS
 10
1.169832384
 20
-1.7429612503
 11
0.2922907637
 21
-1.3790646926
  0
LINE
  5
3C9
100
AcDbEntity
  8
0
100
AcDbLine
 62
7
  6
CONTINUOUS
 10
-0.1209353074
 20
-1.2077092363
 11
-0.9984769276
 21
-0.8438126786
  0
LINE
  5
3CA
100
AcDbEntity
  8
0
100
AcDbLine
 62
7
  6
CONTINUOUS
 10
-1.0175441872
 20
-0.797728669
 11
-0.140002567
 21
-1.1616252267
  0
LINE
  5
3CB
100
AcDbEntity
  8
0
100
AcDbLine
 62
7
  6
CONTINUOUS
 10
0.3383747733
 20
-1.359997433
 11
1.2159163936
 21
-1.7238939907
  0
LINE
  5
3CC
100
AcDbEntity
  8
0
100
AcDbLine
 62
7
  6
CONTINUOUS
 10
2.5901827007
 20
-2.0598692497
 11
0.421136949
 21
-1.160415293
  0
LINE
  5
3CD
100
AcDbEntity
  8
0
100
AcDbLine
 62
7
  6
CONTINUOUS
 10
-0.0572403913
 20
-0.9620430867
 11
-2.2262861431
 21
-0.06258913
  0
LINE
  5
3CE
100
AcDbEntity
  8
0
100
AcDbLine
 62
7
  6
CONTINUOUS
 10
0.6561873214
 20
-0.5015230724
 11
0.2429612503
 21
-0.330167616
  0
LINE
  5
3CF
100
AcDbEntity
  8
0
100
AcDbLine
 62
7
  6
CONTINUOUS
 10
0.8866073694
 20
-0.4061867744
 11
0.1476249523
 21
-0.099747568
  0
LINE
  5
3D0
100
AcDbEntity
  8
DRAFT
100
AcDbLine
 62
7
  6
CONTINUOUS
 10
18.2173756559
 20
-18.867094756
 11
17.9830351795
 21
-18.6327542795
  0
LINE
  5
3D1
100
AcDbEntity
  8
ASSI
100
AcDbLine
 62
7
  6
CONTINUOUS
 10
18.2173756559
 20
-18.867094756
 11
17.9830351795
 21
-18.6327542795
  0
LINE
  5
3D2
100
AcDbEntity
  8
DRAFT
100
AcDbLine
 62
7
  6
CONTINUOUS
 10
-20.9
 20
20.9
 11
-20.7603594806
 21
20.7603594806
  0
LINE
  5
3D3
100
AcDbEntity
  8
ASSI
100
AcDbLine
 62
7
  6
CONTINUOUS
 10
-20.9
 20
20.9
 11
-20.7603594806
 21
20.7603594806
  0
LINE
  5
3D4
100
AcDbEntity
  8
DRAFT
100
AcDbLine
 62
7
  6
CONTINUOUS
 10
20.9
 20
-20.9
 11
20.7603594806
 21
-20.7603594806
  0
LINE
  5
3D5
100
AcDbEntity
  8
ASSI
100
AcDbLine
 62
7
  6
CONTINUOUS
 10
20.9
 20
-20.9
 11
20.7603594806
 21
-20.7603594806
  0
LINE
  5
3D6
100
AcDbEntity
  8
DRAFT
100
AcDbLine
 62
7
  6
CONTINUOUS
 10
18.1551386093
 20
-19.0173482781
 11
17.9830351795
 21
-18.8430942654
  0
LINE
  5
3D7
100
AcDbEntity
  8
ASSI
100
AcDbLine
 62
7
  6
CONTINUOUS
 10
18.1551386093
 20
-19.0173482781
 11
17.9830351795
 21
-18.8430942654
  0
LINE
  5
3D8
100
AcDbEntity
  8
0
100
AcDbLine
 62
253
  6
CONTINUOUS
 10
16.1037248735
 20
-17.3996230171
 11
16.177734037
 21
-17.474999525
  0
LINE
  5
3D9
100
AcDbEntity
  8
0
100
AcDbLine
 62
253
  6
CONTINUOUS
 10
16.177734037
 20
-17.474999525
 11
16.2126883141
 21
-17.5116602902
  0
LINE
  5
3DA
100
AcDbEntity
  8
0
100
AcDbLine
 62
7
  6
CONTINUOUS
 10
-0.3638965577
 20
-2.3775416203
 11
-0.1476249523
 21
-2.900252432
  0
LINE
  5
3DB
100
AcDbEntity
  8
0
100
AcDbLine
 62
7
  6
CONTINUOUS
 10
-0.8775416203
 20
-1.1361034423
 11
-1.0175441872
 21
-0.797728669
  0
LINE
  5
3DC
100
AcDbEntity
  8
0
100
AcDbLine
 62
7
  6
CONTINUOUS
 10
0.140002567
 20
-1.8383747733
 11
-0.140002567
 21
-1.1616252267
  0
LINE
  5
3DD
100
AcDbEntity
  8
0
100
AcDbLine
 62
7
  6
CONTINUOUS
 10
0.8775416203
 20
-1.8638965577
 11
1.0175441872
 21
-2.202271331
  0
LINE
  5
3DE
100
AcDbEntity
  8
0
100
AcDbLine
 62
7
  6
CONTINUOUS
 10
0.3638965577
 20
-0.6224583797
 11
0.1476249523
 21
-0.099747568
  0
LINE
  5
3DF
100
AcDbEntity
  8
0
100
AcDbLine
 62
7
  6
CONTINUOUS
 10
2.1993809797
 20
3.2243062056
 11
2.1993809797
 21
3.5531260592
  0
LINE
  5
3E0
100
AcDbEntity
  8
0
100
AcDbLine
 62
7
  6
CONTINUOUS
 10
2.1993809797
 20
4.5751011834
 11
2.1993809797
 21
4.9044827207
  0
LINE
  5
3E1
100
AcDbEntity
  8
0
100
AcDbLine
 62
7
  6
CONTINUOUS
 10
2.1993809797
 20
5.9282999703
 11
2.1993809797
 21
6.2582493161
  0
LINE
  5
3E2
100
AcDbEntity
  8
0
100
AcDbLine
 62
7
  6
CONTINUOUS
 10
2.2
 20
-8.021792865
 11
2.2
 21
-7.9670941966
  0
LINE
  5
3E3
100
AcDbEntity
  8
0
100
AcDbLine
 62
7
  6
CONTINUOUS
 10
-0.0572403913
 20
-0.9620430867
 11
-0.140002567
 21
-1.1616252267
  0
LINE
  5
3E4
100
AcDbEntity
  8
0
100
AcDbLine
 62
7
  6
CONTINUOUS
 10
-0.3383747733
 20
-1.640002567
 11
-0.421136949
 21
-1.839584707
  0
LINE
  5
3E5
100
AcDbEntity
  8
0
100
AcDbLine
 62
7
  6
CONTINUOUS
 10
0.2429612503
 20
-0.330167616
 11
-0.1209353074
 21
-1.2077092363
  0
LINE
  5
3E6
100
AcDbEntity
  8
0
100
AcDbLine
 62
7
  6
CONTINUOUS
 10
-0.2922907637
 20
-1.6209353074
 11
-0.6561873214
 21
-2.4984769276
  0
LINE
  5
3E7
100
AcDbEntity
  8
0
100
AcDbLine
 62
7
  6
CONTINUOUS
 10
-0.3638965577
 20
-2.3775416203
 11
0.3638965577
 21
-0.6224583797
  0
LINE
  5
3E8
100
AcDbEntity
  8
0
100
AcDbLine
 62
7
  6
CONTINUOUS
 10
-0.2429612503
 20
-2.669832384
 11
0.1209353074
 21
-1.7922907637
  0
LINE
  5
3E9
100
AcDbEntity
  8
0
100
AcDbLine
 62
7
  6
CONTINUOUS
 10
0.2922907637
 20
-1.3790646926
 11
0.6561873214
 21
-0.5015230724
  0
LINE
  5
3EA
100
AcDbEntity
  8
0
100
AcDbLine
 62
7
  6
CONTINUOUS
 10
0.421136949
 20
-1.160415293
 11
0.3383747733
 21
-1.359997433
  0
LINE
  5
3EB
100
AcDbEntity
  8
0
100
AcDbLine
 62
7
  6
CONTINUOUS
 10
0.140002567
 20
-1.8383747733
 11
0.0572403913
 21
-2.0379569133
  0
LINE
  5
3EC
100
AcDbEntity
  8
0
100
AcDbLine
 62
7
  6
CONTINUOUS
 10
-0.1476249523
 20
-2.900252432
 11
0.1875429297
 21
-2.0919904134
  0
LINE
  5
3ED
100
AcDbEntity
  8
0
100
AcDbLine
 62
7
  6
CONTINUOUS
 10
0.5514394874
 20
-1.2144487931
 11
0.8866073694
 21
-0.4061867744
  0
LINE
  5
3EE
100
AcDbEntity
  8
0
100
AcDbLine
 62
7
  6
CONTINUOUS
 10
0.9984769276
 20
-2.1561873214
 11
1.169832384
 21
-1.7429612503
  0
LINE
  5
3EF
100
AcDbEntity
  8
0
100
AcDbLine
 62
7
  6
CONTINUOUS
 10
1.2159163936
 20
-1.7238939907
 11
1.0175441872
 21
-2.202271331
  0
LINE
  5
3F0
100
AcDbEntity
  8
0
100
AcDbLine
 62
253
  6
CONTINUOUS
 10
-16.2126883148
 20
-17.5116602902
 11
-16.1775650933
 21
-17.4749998976
  0
LINE
  5
3F1
100
AcDbEntity
  8
0
100
AcDbLine
 62
253
  6
CONTINUOUS
 10
-16.1775650933
 20
-17.4749998976
 11
-16.1037248735
 21
-17.3996230171
  0
LINE
  5
3F2
100
AcDbEntity
  8
DRAFT
100
AcDbLine
 62
7
  6
CONTINUOUS
 10
-17.9830351795
 20
-18.8430942654
 11
-18.1551386093
 21
-19.0173482781
  0
LINE
  5
3F3
100
AcDbEntity
  8
ASSI
100
AcDbLine
 62
7
  6
CONTINUOUS
 10
-17.9830351795
 20
-18.8430942654
 11
-18.1551386093
 21
-19.0173482781
  0
LINE
  5
3F4
100
AcDbEntity
  8
DRAFT
100
AcDbLine
 62
7
  6
CONTINUOUS
 10
-17.9830351795
 20
-18.6327542795
 11
-18.2173756559
 21
-18.867094756
  0
LINE
  5
3F5
100
AcDbEntity
  8
ASSI
100
AcDbLine
 62
7
  6
CONTINUOUS
 10
-17.9830351795
 20
-18.6327542795
 11
-18.2173756559
 21
-18.867094756
  0
LINE
  5
3F6
100
AcDbEntity
  8
0
100
AcDbLine
 62
7
  6
CONTINUOUS
 10
-0.8775416203
 20
-1.1361034423
 11
-1.2159163936
 21
-1.2761060093
  0
LINE
  5
3F7
100
AcDbEntity
  8
0
100
AcDbLine
 62
7
  6
CONTINUOUS
 10
0.3638965577
 20
-0.6224583797
 11
0.8866073694
 21
-0.4061867744
  0
LINE
  5
3F8
100
AcDbEntity
  8
0
100
AcDbLine
 62
7
  6
CONTINUOUS
 10
-0.3383747733
 20
-1.640002567
 11
0.3383747733
 21
-1.359997433
  0
LINE
  5
3F9
100
AcDbEntity
  8
0
100
AcDbLine
 62
7
  6
CONTINUOUS
 10
-0.3638965577
 20
-2.3775416203
 11
-0.8866073694
 21
-2.5938132256
  0
LINE
  5
3FA
100
AcDbEntity
  8
0
100
AcDbLine
 62
7
  6
CONTINUOUS
 10
0.8775416203
 20
-1.8638965577
 11
1.2159163936
 21
-1.7238939907
  0
LINE
  5
3FB
100
AcDbEntity
  8
RACCORDO
100
AcDbLine
 62
7
  6
CONTINUOUS
 10
20.9261825974
 20
0.317094756
 11
19.2116584971
 21
0.317094756
  0
LINE
  5
3FC
100
AcDbEntity
  8
ASSI
100
AcDbLine
 62
7
  6
CONTINUOUS
 10
20.9261825974
 20
0.317094756
 11
19.2116584971
 21
0.317094756
  0
LINE
  5
3FD
100
AcDbEntity
  8
RACCORDO
100
AcDbLine
 62
7
  6
CONTINUOUS
 10
-19.2116594724
 20
0.317094756
 11
-20.9261825974
 21
0.317094756
  0
LINE
  5
3FE
100
AcDbEntity
  8
ASSI
100
AcDbLine
 62
7
  6
CONTINUOUS
 10
-19.2116594724
 20
0.317094756
 11
-20.9261825974
 21
0.317094756
  0
LINE
  5
3FF
100
AcDbEntity
  8
DRAFT
100
AcDbLine
 62
7
  6
CONTINUOUS
 10
20.7603594806
 20
0.4
 11
19.7405830189
 21
0.4
  0
LINE
  5
400
100
AcDbEntity
  8
ASSI
100
AcDbLine
 62
7
  6
CONTINUOUS
 10
20.7603594806
 20
0.4
 11
19.7405830189
 21
0.4
  0
LINE
  5
401
100
AcDbEntity
  8
DRAFT
100
AcDbLine
 62
7
  6
CONTINUOUS
 10
-19.7405830189
 20
0.4
 11
-20.7603594806
 21
0.4
  0
LINE
  5
402
100
AcDbEntity
  8
ASSI
100
AcDbLine
 62
7
  6
CONTINUOUS
 10
-19.7405830189
 20
0.4
 11
-20.7603594806
 21
0.4
  0
LINE
  5
403
100
AcDbEntity
  8
DRAFT
100
AcDbLine
 62
7
  6
CONTINUOUS
 10
-18.2173756559
 20
18.867094756
 11
-17.9830351795
 21
18.6327542795
  0
LINE
  5
404
100
AcDbEntity
  8
ASSI
100
AcDbLine
 62
7
  6
CONTINUOUS
 10
-18.2173756559
 20
18.867094756
 11
-17.9830351795
 21
18.6327542795
  0
LINE
  5
405
100
AcDbEntity
  8
DRAFT
100
AcDbLine
 62
7
  6
CONTINUOUS
 10
-18.1551386093
 20
19.0173482781
 11
-17.9830351795
 21
18.8430942654
  0
LINE
  5
406
100
AcDbEntity
  8
ASSI
100
AcDbLine
 62
7
  6
CONTINUOUS
 10
-18.1551386093
 20
19.0173482781
 11
-17.9830351795
 21
18.8430942654
  0
LINE
  5
407
100
AcDbEntity
  8
0
100
AcDbLine
 62
253
  6
CONTINUOUS
 10
-16.1037247568
 20
17.399622858
 11
-16.1777345242
 21
17.4750000487
  0
LINE
  5
408
100
AcDbEntity
  8
0
100
AcDbLine
 62
253
  6
CONTINUOUS
 10
-9.8577463941
 20
17.0116214091
 11
-9.8031024759
 21
16.9296432446
  0
LINE
  5
409
100
AcDbEntity
  8
0
100
AcDbLine
 62
253
  6
CONTINUOUS
 10
-9.5532094756
 20
17.1796612752
 11
-9.6077835579
 21
17.2615339754
  0
LINE
  5
40A
100
AcDbEntity
  8
DRAFT
100
AcDbLine
 62
7
  6
CONTINUOUS
 10
4.0278542332
 20
-19.0173482781
 11
4.0340172901
 21
-19.3704295719
  0
LINE
  5
40B
100
AcDbEntity
  8
ASSI
100
AcDbLine
 62
7
  6
CONTINUOUS
 10
4.0278542332
 20
-19.0173482781
 11
4.0340172901
 21
-19.3704295719
  0
LINE
  5
40C
100
AcDbEntity
  8
0
100
AcDbLine
 62
7
  6
CONTINUOUS
 10
2.5
 20
19.399450985
 11
2.5
 21
18.9
  0
LINE
  5
40D
100
AcDbEntity
  8
0
100
AcDbLine
 62
7
  6
CONTINUOUS
 10
2.5
 20
-18.9
 11
2.5
 21
-19.399450985
  0
LINE
  5
40E
100
AcDbEntity
  8
0
100
AcDbLine
 62
253
  6
CONTINUOUS
 10
3.020550422
 20
-14.4006510421
 11
3.020550422
 21
-8.1090947887
  0
LINE
  5
40F
100
AcDbEntity
  8
0
100
AcDbLine
 62
7
  6
CONTINUOUS
 10
3.5
 20
19.399450985
 11
3.5
 21
18.9
  0
LINE
  5
410
100
AcDbEntity
  8
0
100
AcDbLine
 62
7
  6
CONTINUOUS
 10
3.5
 20
-18.9
 11
3.5
 21
-19.399450985
  0
LINE
  5
411
100
AcDbEntity
  8
RACCORDO
100
AcDbLine
 62
7
  6
CONTINUOUS
 10
3.7273243011
 20
20.7603594806
 11
3.7273243011
 21
19.9417594606
  0
LINE
  5
412
100
AcDbEntity
  8
ASSI
100
AcDbLine
 62
7
  6
CONTINUOUS
 10
3.7273243011
 20
20.7603594806
 11
3.7273243011
 21
19.9417594606
  0
LINE
  5
413
100
AcDbEntity
  8
RACCORDO
100
AcDbLine
 62
7
  6
CONTINUOUS
 10
3.7273243011
 20
19.2582405394
 11
3.7273243011
 21
18.867094756
  0
LINE
  5
414
100
AcDbEntity
  8
ASSI
100
AcDbLine
 62
7
  6
CONTINUOUS
 10
3.7273243011
 20
19.2582405394
 11
3.7273243011
 21
18.867094756
  0
LINE
  5
415
100
AcDbEntity
  8
RACCORDO
100
AcDbLine
 62
7
  6
CONTINUOUS
 10
3.7273243011
 20
-18.867094756
 11
3.7273243011
 21
-19.2582405394
  0
LINE
  5
416
100
AcDbEntity
  8
ASSI
100
AcDbLine
 62
7
  6
CONTINUOUS
 10
3.7273243011
 20
-18.867094756
 11
3.7273243011
 21
-19.2582405394
  0
LINE
  5
417
100
AcDbEntity
  8
RACCORDO
100
AcDbLine
 62
7
  6
CONTINUOUS
 10
3.7273243011
 20
-19.9417594606
 11
3.7273243011
 21
-20.7603594806
  0
LINE
  5
418
100
AcDbEntity
  8
ASSI
100
AcDbLine
 62
7
  6
CONTINUOUS
 10
3.7273243011
 20
-19.9417594606
 11
3.7273243011
 21
-20.7603594806
  0
LINE
  5
419
100
AcDbEntity
  8
0
100
AcDbLine
 62
253
  6
CONTINUOUS
 10
3.8923126567
 20
-8.1160785894
 11
3.8923126567
 21
-14.4006510421
  0
LINE
  5
41A
100
AcDbEntity
  8
RACCORDO
100
AcDbLine
 62
253
  6
CONTINUOUS
 10
3.9
 20
19.8965739699
 11
3.9
 21
19.8255982314
  0
LINE
  5
41B
100
AcDbEntity
  8
ASSI
100
AcDbLine
 62
253
  6
CONTINUOUS
 10
3.9
 20
19.8965739699
 11
3.9
 21
19.8255982314
  0
LINE
  5
41C
100
AcDbEntity
  8
RACCORDO
100
AcDbLine
 62
253
  6
CONTINUOUS
 10
3.9
 20
-19.8965739699
 11
3.9
 21
-19.8255982314
  0
LINE
  5
41D
100
AcDbEntity
  8
RACCORDO
100
AcDbLine
 62
253
  6
CONTINUOUS
 10
3.9
 20
-19.3034260301
 11
3.9
 21
-19.3704295719
  0
LINE
  5
41E
100
AcDbEntity
  8
ASSI
100
AcDbLine
 62
253
  6
CONTINUOUS
 10
3.9
 20
-19.8965739699
 11
3.9
 21
-19.8255982314
  0
LINE
  5
41F
100
AcDbEntity
  8
ASSI
100
AcDbLine
 62
253
  6
CONTINUOUS
 10
3.9
 20
-19.3034260301
 11
3.9
 21
-19.3704295719
  0
LINE
  5
420
100
AcDbEntity
  8
RACCORDO
100
AcDbLine
 62
253
  6
CONTINUOUS
 10
3.9
 20
19.3034260301
 11
3.9
 21
19.3704295719
  0
LINE
  5
421
100
AcDbEntity
  8
ASSI
100
AcDbLine
 62
253
  6
CONTINUOUS
 10
3.9
 20
19.3034260301
 11
3.9
 21
19.3704295719
  0
LINE
  5
422
100
AcDbEntity
  8
0
100
AcDbLine
 62
253
  6
CONTINUOUS
 10
4.0
 20
10.6134313985
 11
4.0
 21
10.622007317
  0
LINE
  5
423
100
AcDbEntity
  8
0
100
AcDbLine
 62
253
  6
CONTINUOUS
 10
4.0
 20
10.85
 11
4.0
 21
10.95
  0
LINE
  5
424
100
AcDbEntity
  8
DRAFT
100
AcDbLine
 62
7
  6
CONTINUOUS
 10
4.0415154698
 20
20.0060689771
 11
4.0415154698
 21
19.8258216238
  0
LINE
  5
425
100
AcDbEntity
  8
ASSI
100
AcDbLine
 62
7
  6
CONTINUOUS
 10
4.0415154698
 20
20.0060689771
 11
4.0415154698
 21
19.8258216238
  0
LINE
  5
426
100
AcDbEntity
  8
DRAFT
100
AcDbLine
 62
7
  6
CONTINUOUS
 10
4.0415154698
 20
-19.8258216238
 11
4.0415154698
 21
-20.0060689771
  0
LINE
  5
427
100
AcDbEntity
  8
ASSI
100
AcDbLine
 62
7
  6
CONTINUOUS
 10
4.0415154698
 20
-19.8258216238
 11
4.0415154698
 21
-20.0060689771
  0
LINE
  5
428
100
AcDbEntity
  8
DRAFT
100
AcDbLine
 62
7
  6
CONTINUOUS
 10
4.5169648205
 20
18.8430942654
 11
4.5169648205
 21
18.6327542795
  0
LINE
  5
429
100
AcDbEntity
  8
ASSI
100
AcDbLine
 62
7
  6
CONTINUOUS
 10
4.5169648205
 20
18.8430942654
 11
4.5169648205
 21
18.6327542795
  0
LINE
  5
42A
100
AcDbEntity
  8
DRAFT
100
AcDbLine
 62
7
  6
CONTINUOUS
 10
4.5169648205
 20
-18.8430942654
 11
4.5169648205
 21
-18.6327542795
  0
LINE
  5
42B
100
AcDbEntity
  8
ASSI
100
AcDbLine
 62
7
  6
CONTINUOUS
 10
4.5169648205
 20
-18.8430942654
 11
4.5169648205
 21
-18.6327542795
  0
LINE
  5
42C
100
AcDbEntity
  8
DRAFT
100
AcDbLine
 62
7
  6
CONTINUOUS
 10
4.0340172901
 20
19.3704295719
 11
4.0278542332
 21
19.0173482781
  0
LINE
  5
42D
100
AcDbEntity
  8
ASSI
100
AcDbLine
 62
7
  6
CONTINUOUS
 10
4.0340172901
 20
19.3704295719
 11
4.0278542332
 21
19.0173482781
  0
LINE
  5
42E
100
AcDbEntity
  8
DRAFT
100
AcDbLine
 62
7
  6
CONTINUOUS
 10
-4.2962541424
 20
-18.9
 11
-4.3448613907
 21
-19.0173482781
  0
LINE
  5
42F
100
AcDbEntity
  8
ASSI
100
AcDbLine
 62
7
  6
CONTINUOUS
 10
-4.2962541424
 20
-18.9
 11
-4.3448613907
 21
-19.0173482781
  0
LINE
  5
430
100
AcDbEntity
  8
0
100
AcDbLine
 62
253
  6
CONTINUOUS
 10
19.1750010483
 20
14.4760280202
 11
19.2116603003
 21
14.5126882791
  0
LINE
  5
431
100
AcDbEntity
  8
0
100
AcDbLine
 62
253
  6
CONTINUOUS
 10
19.1026969016
 20
14.4006510907
 11
19.1780727734
 21
14.4760280202
  0
LINE
  5
432
100
AcDbEntity
  8
0
100
AcDbLine
 62
7
  6
CONTINUOUS
 10
2.1993809797
 20
4.5751011834
 11
1.0087928897
 21
4.5751011834
  0
LINE
  5
433
100
AcDbEntity
  8
0
100
AcDbLine
 62
253
  6
CONTINUOUS
 10
19.1780727734
 20
-14.4751284674
 11
19.1026969016
 21
-14.4005226272
  0
LINE
  5
434
100
AcDbEntity
  8
0
100
AcDbLine
 62
253
  6
CONTINUOUS
 10
19.2116603003
 20
-14.511659951
 11
19.1750010483
 21
-14.4751284674
  0
LINE
  5
435
100
AcDbEntity
  8
DRAFT
100
AcDbLine
 62
7
  6
CONTINUOUS
 10
-4.2962541424
 20
18.9
 11
-4.3448613907
 21
19.0173482781
  0
LINE
  5
436
100
AcDbEntity
  8
ASSI
100
AcDbLine
 62
7
  6
CONTINUOUS
 10
-4.2962541424
 20
18.9
 11
-4.3448613907
 21
19.0173482781
  0
LINE
  5
437
100
AcDbEntity
  8
DRAFT
100
AcDbLine
 62
7
  6
CONTINUOUS
 10
7.797027879
 20
-21.2
 11
7.8502441328
 21
-22.2
  0
LINE
  5
438
100
AcDbEntity
  8
ASSI
100
AcDbLine
 62
7
  6
CONTINUOUS
 10
7.797027879
 20
-21.2
 11
7.8502441328
 21
-22.2
  0
LINE
  5
439
100
AcDbEntity
  8
DRAFT
100
AcDbLine
 62
7
  6
CONTINUOUS
 10
4.0135191699
 20
20.9320850844
 11
4.0415154698
 21
20.0060689771
  0
LINE
  5
43A
100
AcDbEntity
  8
ASSI
100
AcDbLine
 62
7
  6
CONTINUOUS
 10
4.0135191699
 20
20.9320850844
 11
4.0415154698
 21
20.0060689771
  0
LINE
  5
43B
100
AcDbEntity
  8
DRAFT
100
AcDbLine
 62
7
  6
CONTINUOUS
 10
5.1669648205
 20
19.1
 11
5.1669648205
 21
18.9
  0
LINE
  5
43C
100
AcDbEntity
  8
ASSI
100
AcDbLine
 62
7
  6
CONTINUOUS
 10
5.1669648205
 20
19.1
 11
5.1669648205
 21
18.9
  0
LINE
  5
43D
100
AcDbEntity
  8
DRAFT
100
AcDbLine
 62
7
  6
CONTINUOUS
 10
5.1669648205
 20
-19.1
 11
5.1669648205
 21
-18.9
  0
LINE
  5
43E
100
AcDbEntity
  8
ASSI
100
AcDbLine
 62
7
  6
CONTINUOUS
 10
5.1669648205
 20
-19.1
 11
5.1669648205
 21
-18.9
  0
LINE
  5
43F
100
AcDbEntity
  8
0
100
AcDbLine
 62
7
  6
CONTINUOUS
 10
5.35
 20
-1.8739346322
 11
5.35
 21
-1.8385806641
  0
LINE
  5
440
100
AcDbEntity
  8
0
100
AcDbLine
 62
7
  6
CONTINUOUS
 10
5.75
 20
-2.1221387031
 11
5.75
 21
-2.9397891191
  0
LINE
  5
441
100
AcDbEntity
  8
0
100
AcDbLine
 62
7
  6
CONTINUOUS
 10
6.0
 20
-0.7198292179
 11
6.0
 21
-0.7551927941
  0
LINE
  5
442
100
AcDbEntity
  8
0
100
AcDbLine
 62
7
  6
CONTINUOUS
 10
6.25
 20
-2.9397891191
 11
6.25
 21
-2.1221357016
  0
LINE
  5
443
100
AcDbEntity
  8
0
100
AcDbLine
 62
253
  6
CONTINUOUS
 10
6.500000003
 20
13.6500001034
 11
6.500000003
 21
14.2000001522
  0
LINE
  5
444
100
AcDbEntity
  8
0
100
AcDbLine
 62
253
  6
CONTINUOUS
 10
6.5076871651
 20
-14.4006510421
 11
6.5076871651
 21
-8.1160785929
  0
LINE
  5
445
100
AcDbEntity
  8
0
100
AcDbLine
 62
7
  6
CONTINUOUS
 10
6.65
 20
-1.8385806641
 11
6.65
 21
-1.8739346322
  0
LINE
  5
446
100
AcDbEntity
  8
DRAFT
100
AcDbLine
 62
7
  6
CONTINUOUS
 10
4.0415154698
 20
-20.0060689771
 11
4.0135191699
 21
-20.9320850844
  0
LINE
  5
447
100
AcDbEntity
  8
ASSI
100
AcDbLine
 62
7
  6
CONTINUOUS
 10
4.0415154698
 20
-20.0060689771
 11
4.0135191699
 21
-20.9320850844
  0
LINE
  5
448
100
AcDbEntity
  8
DRAFT
100
AcDbLine
 62
7
  6
CONTINUOUS
 10
7.797027879
 20
21.2
 11
7.8502441328
 21
22.2
  0
LINE
  5
449
100
AcDbEntity
  8
ASSI
100
AcDbLine
 62
7
  6
CONTINUOUS
 10
7.797027879
 20
21.2
 11
7.8502441328
 21
22.2
  0
LINE
  5
44A
100
AcDbEntity
  8
0
100
AcDbLine
 62
7
  6
CONTINUOUS
 10
1.0087928897
 20
4.8756040284
 11
2.1993809797
 21
4.8756040284
  0
LINE
  5
44B
100
AcDbEntity
  8
0
100
AcDbLine
 62
7
  6
CONTINUOUS
 10
2.1993809797
 20
4.9044827207
 11
1.0087928897
 21
4.9044827207
  0
LINE
  5
44C
100
AcDbEntity
  8
0
100
AcDbLine
 62
253
  6
CONTINUOUS
 10
9.8442287647
 20
-7.7504179613
 11
9.8473092998
 21
-7.7561852915
  0
LINE
  5
44D
100
AcDbEntity
  8
0
100
AcDbLine
 62
7
  6
CONTINUOUS
 10
6.7950339536
 20
14.1806889413
 11
6.7950339536
 21
13.650008489
  0
LINE
  5
44E
100
AcDbEntity
  8
0
100
AcDbLine
 62
7
  6
CONTINUOUS
 10
6.8
 20
15.6760312296
 11
6.8
 21
14.6986174941
  0
LINE
  5
44F
100
AcDbEntity
  8
0
100
AcDbLine
 62
7
  6
CONTINUOUS
 10
7.014042361
 20
13.6340869129
 11
7.014042361
 21
13.963737953
  0
LINE
  5
450
100
AcDbEntity
  8
0
100
AcDbLine
 62
253
  6
CONTINUOUS
 10
7.379449578
 20
-8.1090947899
 11
7.379449578
 21
-14.4006510421
  0
LINE
  5
451
100
AcDbEntity
  8
DRAFT
100
AcDbLine
 62
7
  6
CONTINUOUS
 10
8.15
 20
-21.1851643248
 11
8.15
 21
-22.1851643248
  0
LINE
  5
452
100
AcDbEntity
  8
ASSI
100
AcDbLine
 62
7
  6
CONTINUOUS
 10
8.15
 20
-21.1851643248
 11
8.15
 21
-22.1851643248
  0
LINE
  5
453
100
AcDbEntity
  8
DRAFT
100
AcDbLine
 62
7
  6
CONTINUOUS
 10
8.15
 20
21.1851643248
 11
8.15
 21
22.1851643248
  0
LINE
  5
454
100
AcDbEntity
  8
ASSI
100
AcDbLine
 62
7
  6
CONTINUOUS
 10
8.15
 20
21.1851643248
 11
8.15
 21
22.1851643248
  0
LINE
  5
455
100
AcDbEntity
  8
0
100
AcDbLine
 62
7
  6
CONTINUOUS
 10
8.1999999999
 20
-7.9709211052
 11
8.1999999999
 21
-8.0217928653
  0
LINE
  5
456
100
AcDbEntity
  8
0
100
AcDbLine
 62
7
  6
CONTINUOUS
 10
8.8999885756
 20
11.4000004353
 11
8.8999885756
 21
12.1252415308
  0
LINE
  5
457
100
AcDbEntity
  8
DRAFT
100
AcDbLine
 62
7
  6
CONTINUOUS
 10
14.2558829718
 20
22.1805062352
 11
13.945788487
 21
21.1651588757
  0
LINE
  5
458
100
AcDbEntity
  8
ASSI
100
AcDbLine
 62
7
  6
CONTINUOUS
 10
14.2558829718
 20
22.1805062352
 11
13.945788487
 21
21.1651588757
  0
LINE
  5
459
100
AcDbEntity
  8
RACCORDO
100
AcDbLine
 62
7
  6
CONTINUOUS
 10
19.7405830189
 20
0.4
 11
19.5932920569
 21
0.3248118626
  0
LINE
  5
45A
100
AcDbEntity
  8
ASSI
100
AcDbLine
 62
7
  6
CONTINUOUS
 10
19.7405830189
 20
0.4
 11
19.5932920569
 21
0.3248118626
  0
LINE
  5
45B
100
AcDbEntity
  8
0
100
AcDbLine
 62
7
  6
CONTINUOUS
 10
-7.925
 20
6.860254706
 11
-3.425
 21
6.860254706
  0
LINE
  5
45C
100
AcDbEntity
  8
0
100
AcDbLine
 62
7
  6
CONTINUOUS
 10
-3.425
 20
6.8957839611
 11
-7.925
 21
6.8957839611
  0
LINE
  5
45D
100
AcDbEntity
  8
0
100
AcDbLine
 62
7
  6
CONTINUOUS
 10
-4.6580393992
 20
7.5194801825
 11
-4.9371976569
 21
7.5194801825
  0
LINE
  5
45E
100
AcDbEntity
  8
0
100
AcDbLine
 62
7
  6
CONTINUOUS
 10
-5.8000504536
 20
7.5194801825
 11
-7.2465977891
 21
7.5194801825
  0
LINE
  5
45F
100
AcDbEntity
  8
0
100
AcDbLine
 62
7
  6
CONTINUOUS
 10
-6.9674395314
 20
7.7491398461
 11
-5.8000504536
 21
7.7491398461
  0
LINE
  5
460
100
AcDbEntity
  8
0
100
AcDbLine
 62
7
  6
CONTINUOUS
 10
-5.8000504536
 20
7.7846998931
 11
-6.9674395314
 21
7.7846998931
  0
LINE
  5
461
100
AcDbEntity
  8
0
100
AcDbLine
 62
7
  6
CONTINUOUS
 10
-5.9269405707
 20
8.4385360929
 11
-6.9674395314
 21
8.4385360929
  0
LINE
  5
462
100
AcDbEntity
  8
0
100
AcDbLine
 62
7
  6
CONTINUOUS
 10
-6.9674395314
 20
8.6684740941
 11
-5.9269405707
 21
8.6684740941
  0
LINE
  5
463
100
AcDbEntity
  8
0
100
AcDbLine
 62
7
  6
CONTINUOUS
 10
-5.9269405707
 20
8.7040685346
 11
-6.9674395314
 21
8.7040685346
  0
LINE
  5
464
100
AcDbEntity
  8
RACCORDO
100
AcDbLine
 62
7
  6
CONTINUOUS
 10
19.5932920569
 20
-0.3248118626
 11
19.7405830189
 21
-0.4
  0
LINE
  5
465
100
AcDbEntity
  8
ASSI
100
AcDbLine
 62
7
  6
CONTINUOUS
 10
19.5932920569
 20
-0.3248118626
 11
19.7405830189
 21
-0.4
  0
LINE
  5
466
100
AcDbEntity
  8
DRAFT
100
AcDbLine
 62
7
  6
CONTINUOUS
 10
13.945788487
 20
-21.1651588757
 11
14.2558829718
 21
-22.1805062352
  0
LINE
  5
467
100
AcDbEntity
  8
ASSI
100
AcDbLine
 62
7
  6
CONTINUOUS
 10
13.945788487
 20
-21.1651588757
 11
14.2558829718
 21
-22.1805062352
  0
LINE
  5
468
100
AcDbEntity
  8
0
100
AcDbLine
 62
7
  6
CONTINUOUS
 10
8.9955688795
 20
11.4000000034
 11
8.9955688795
 21
14.1806889413
  0
LINE
  5
469
100
AcDbEntity
  8
0
100
AcDbLine
 62
253
  6
CONTINUOUS
 10
9.2456722125
 20
14.18069899
 11
9.2456722125
 21
11.3999999921
  0
LINE
  5
46A
100
AcDbEntity
  8
0
100
AcDbLine
 62
7
  6
CONTINUOUS
 10
9.2456521894
 20
14.3309841908
 11
9.2456651752
 21
14.1806989902
  0
LINE
  5
46B
100
AcDbEntity
  8
0
100
AcDbLine
 62
253
  6
CONTINUOUS
 10
9.5065173327
 20
11.3999999921
 11
9.5065173327
 21
14.18069899
  0
LINE
  5
46C
100
AcDbEntity
  8
0
100
AcDbLine
 62
253
  6
CONTINUOUS
 10
9.7564260197
 20
14.177010122
 11
9.7564262925
 21
11.4000000141
  0
LINE
  5
46D
100
AcDbEntity
  8
0
100
AcDbLine
 62
253
  6
CONTINUOUS
 10
9.8473092998
 20
-7.7561852915
 11
9.8473092998
 21
14.400590753
  0
LINE
  5
46E
100
AcDbEntity
  8
0
100
AcDbLine
 62
7
  6
CONTINUOUS
 10
10.0
 20
-18.9
 11
10.0
 21
-19.1
  0
LINE
  5
46F
100
AcDbEntity
  8
0
100
AcDbLine
 62
7
  6
CONTINUOUS
 10
10.0
 20
18.9
 11
10.0
 21
19.1
  0
LINE
  5
470
100
AcDbEntity
  8
0
100
AcDbLine
 62
7
  6
CONTINUOUS
 10
9.2456283504
 20
11.3999999921
 11
9.245605236
 21
11.3837874054
  0
LINE
  5
471
100
AcDbEntity
  8
DRAFT
100
AcDbLine
 62
7
  6
CONTINUOUS
 10
18.2374998327
 20
21.2
 11
18.2245711414
 21
21.1651588757
  0
LINE
  5
472
100
AcDbEntity
  8
ASSI
100
AcDbLine
 62
7
  6
CONTINUOUS
 10
18.2374998327
 20
21.2
 11
18.2245711414
 21
21.1651588757
  0
LINE
  5
473
100
AcDbEntity
  8
DRAFT
100
AcDbLine
 62
7
  6
CONTINUOUS
 10
17.748694703
 20
18.867094756
 11
17.8109317497
 21
19.0173482781
  0
LINE
  5
474
100
AcDbEntity
  8
ASSI
100
AcDbLine
 62
7
  6
CONTINUOUS
 10
17.748694703
 20
18.867094756
 11
17.8109317497
 21
19.0173482781
  0
LINE
  5
475
100
AcDbEntity
  8
0
100
AcDbLine
 62
7
  6
CONTINUOUS
 10
8.2108930829
 20
-8.0000000297
 11
8.1999999999
 21
-8.0217928653
  0
LINE
  5
476
100
AcDbEntity
  8
DRAFT
100
AcDbLine
 62
7
  6
CONTINUOUS
 10
-4.5169648205
 20
-18.8430942654
 11
-4.6890682503
 21
-19.0173482781
  0
LINE
  5
477
100
AcDbEntity
  8
ASSI
100
AcDbLine
 62
7
  6
CONTINUOUS
 10
-4.5169648205
 20
-18.8430942654
 11
-4.6890682503
 21
-19.0173482781
  0
LINE
  5
478
100
AcDbEntity
  8
DRAFT
100
AcDbLine
 62
7
  6
CONTINUOUS
 10
-4.5169648205
 20
-18.6327542795
 11
-4.751305297
 21
-18.867094756
  0
LINE
  5
479
100
AcDbEntity
  8
ASSI
100
AcDbLine
 62
7
  6
CONTINUOUS
 10
-4.5169648205
 20
-18.6327542795
 11
-4.751305297
 21
-18.867094756
  0
LINE
  5
47A
100
AcDbEntity
  8
DRAFT
100
AcDbLine
 62
7
  6
CONTINUOUS
 10
20.7603594806
 20
-0.4
 11
20.9261825974
 21
-0.317094756
  0
LINE
  5
47B
100
AcDbEntity
  8
ASSI
100
AcDbLine
 62
7
  6
CONTINUOUS
 10
20.7603594806
 20
-0.4
 11
20.9261825974
 21
-0.317094756
  0
LINE
  5
47C
100
AcDbEntity
  8
0
100
AcDbLine
 62
7
  6
CONTINUOUS
 10
-4.0235888134
 20
9.2819830565
 11
-4.6580393992
 21
9.2819830565
  0
LINE
  5
47D
100
AcDbEntity
  8
0
100
AcDbLine
 62
7
  6
CONTINUOUS
 10
-4.9371976569
 20
9.2819830565
 11
-6.9674395314
 21
9.2819830565
  0
LINE
  5
47E
100
AcDbEntity
  8
0
100
AcDbLine
 62
7
  6
CONTINUOUS
 10
-7.2465977891
 20
9.5121769306
 11
-4.0235888134
 21
9.5121769306
  0
LINE
  5
47F
100
AcDbEntity
  8
0
100
AcDbLine
 62
7
  6
CONTINUOUS
 10
-4.0235888134
 20
9.5478052248
 11
-7.2465977891
 21
9.5478052248
  0
LINE
  5
480
100
AcDbEntity
  8
0
100
AcDbLine
 62
7
  6
CONTINUOUS
 10
-3.425
 20
10.1318587994
 11
-7.925
 21
10.1318587994
  0
LINE
  5
481
100
AcDbEntity
  8
0
100
AcDbLine
 62
7
  6
CONTINUOUS
 10
-4.0
 20
10.6134313985
 11
4.0
 21
10.6134313985
  0
LINE
  5
482
100
AcDbEntity
  8
0
100
AcDbLine
 62
7
  6
CONTINUOUS
 10
4.0
 20
10.622007317
 11
-4.0
 21
10.622007317
  0
LINE
  5
483
100
AcDbEntity
  8
0
100
AcDbLine
 62
7
  6
CONTINUOUS
 10
4.0000005234
 20
10.85
 11
-3.9999999989
 21
10.85
  0
LINE
  5
484
100
AcDbEntity
  8
0
100
AcDbLine
 62
253
  6
CONTINUOUS
 10
-3.9999999986
 20
10.95
 11
3.9999999994
 21
10.95
  0
LINE
  5
485
100
AcDbEntity
  8
DRAFT
100
AcDbLine
 62
7
  6
CONTINUOUS
 10
20.9261825974
 20
0.317094756
 11
20.7603594806
 21
0.4
  0
LINE
  5
486
100
AcDbEntity
  8
ASSI
100
AcDbLine
 62
7
  6
CONTINUOUS
 10
20.9261825974
 20
0.317094756
 11
20.7603594806
 21
0.4
  0
LINE
  5
487
100
AcDbEntity
  8
DRAFT
100
AcDbLine
 62
7
  6
CONTINUOUS
 10
-4.751305297
 20
18.867094756
 11
-4.5169648205
 21
18.6327542795
  0
LINE
  5
488
100
AcDbEntity
  8
ASSI
100
AcDbLine
 62
7
  6
CONTINUOUS
 10
-4.751305297
 20
18.867094756
 11
-4.5169648205
 21
18.6327542795
  0
LINE
  5
489
100
AcDbEntity
  8
DRAFT
100
AcDbLine
 62
7
  6
CONTINUOUS
 10
-4.6890682503
 20
19.0173482781
 11
-4.5169648205
 21
18.8430942654
  0
LINE
  5
48A
100
AcDbEntity
  8
ASSI
100
AcDbLine
 62
7
  6
CONTINUOUS
 10
-4.6890682503
 20
19.0173482781
 11
-4.5169648205
 21
18.8430942654
  0
LINE
  5
48B
100
AcDbEntity
  8
DRAFT
100
AcDbLine
 62
7
  6
CONTINUOUS
 10
17.748694703
 20
-18.867094756
 11
17.8109317497
 21
-19.0173482781
  0
LINE
  5
48C
100
AcDbEntity
  8
ASSI
100
AcDbLine
 62
7
  6
CONTINUOUS
 10
17.748694703
 20
-18.867094756
 11
17.8109317497
 21
-19.0173482781
  0
LINE
  5
48D
100
AcDbEntity
  8
DRAFT
100
AcDbLine
 62
7
  6
CONTINUOUS
 10
18.2374998327
 20
-21.2
 11
18.2245711414
 21
-21.1651588757
  0
LINE
  5
48E
100
AcDbEntity
  8
ASSI
100
AcDbLine
 62
7
  6
CONTINUOUS
 10
18.2374998327
 20
-21.2
 11
18.2245711414
 21
-21.1651588757
  0
LINE
  5
48F
100
AcDbEntity
  8
0
100
AcDbLine
 62
253
  6
CONTINUOUS
 10
12.8468513971
 20
14.4006510406
 11
12.846850235
 21
-7.8676745864
  0
LINE
  5
490
100
AcDbEntity
  8
0
100
AcDbLine
 62
7
  6
CONTINUOUS
 10
13.15
 20
-17.5116602902
 11
13.15
 21
-19.1
  0
LINE
  5
491
100
AcDbEntity
  8
0
100
AcDbLine
 62
7
  6
CONTINUOUS
 10
13.15
 20
17.5116602902
 11
13.15
 21
19.1
  0
LINE
  5
492
100
AcDbEntity
  8
DRAFT
100
AcDbLine
 62
7
  6
CONTINUOUS
 10
4.2625001673
 20
-21.2
 11
4.2754288586
 21
-21.1651588757
  0
LINE
  5
493
100
AcDbEntity
  8
ASSI
100
AcDbLine
 62
7
  6
CONTINUOUS
 10
4.2625001673
 20
-21.2
 11
4.2754288586
 21
-21.1651588757
  0
LINE
  5
494
100
AcDbEntity
  8
DRAFT
100
AcDbLine
 62
7
  6
CONTINUOUS
 10
4.7376754986
 20
-18.9
 11
4.6890682503
 21
-19.0173482781
  0
LINE
  5
495
100
AcDbEntity
  8
ASSI
100
AcDbLine
 62
7
  6
CONTINUOUS
 10
4.7376754986
 20
-18.9
 11
4.6890682503
 21
-19.0173482781
  0
LINE
  5
496
100
AcDbEntity
  8
DRAFT
100
AcDbLine
 62
7
  6
CONTINUOUS
 10
-3.7273243011
 20
-20.7603594806
 11
-3.8669648205
 21
-20.9
  0
LINE
  5
497
100
AcDbEntity
  8
ASSI
100
AcDbLine
 62
7
  6
CONTINUOUS
 10
-3.7273243011
 20
-20.7603594806
 11
-3.8669648205
 21
-20.9
  0
LINE
  5
498
100
AcDbEntity
  8
0
100
AcDbLine
 62
253
  6
CONTINUOUS
 10
5.6665754196
 20
11.3999926621
 11
6.0208113014
 21
11.3999926621
  0
LINE
  5
499
100
AcDbEntity
  8
0
100
AcDbLine
 62
253
  6
CONTINUOUS
 10
-6.0210839262
 20
11.3999980724
 11
-5.6665806317
 21
11.3999980724
  0
LINE
  5
49A
100
AcDbEntity
  8
0
100
AcDbLine
 62
253
  6
CONTINUOUS
 10
-9.7564261111
 20
11.4000000002
 11
-6.0322803201
 21
11.3999829639
  0
LINE
  5
49B
100
AcDbEntity
  8
0
100
AcDbLine
 62
253
  6
CONTINUOUS
 10
6.0321315356
 20
11.4000117265
 11
9.7564260187
 21
11.4
  0
LINE
  5
49C
100
AcDbEntity
  8
0
100
AcDbLine
 62
253
  6
CONTINUOUS
 10
-6.6153987633
 20
12.1252348015
 11
-8.899988295
 21
12.1252348015
  0
LINE
  5
49D
100
AcDbEntity
  8
0
100
AcDbLine
 62
253
  6
CONTINUOUS
 10
8.8999891714
 20
12.1252417339
 11
6.6153555152
 21
12.1252417339
  0
LINE
  5
49E
100
AcDbEntity
  8
DRAFT
100
AcDbLine
 62
7
  6
CONTINUOUS
 10
-3.7273243011
 20
20.7603594806
 11
-3.8669648205
 21
20.9
  0
LINE
  5
49F
100
AcDbEntity
  8
ASSI
100
AcDbLine
 62
7
  6
CONTINUOUS
 10
-3.7273243011
 20
20.7603594806
 11
-3.8669648205
 21
20.9
  0
LINE
  5
4A0
100
AcDbEntity
  8
DRAFT
100
AcDbLine
 62
7
  6
CONTINUOUS
 10
4.7376754986
 20
18.9
 11
4.6890682503
 21
19.0173482781
  0
LINE
  5
4A1
100
AcDbEntity
  8
ASSI
100
AcDbLine
 62
7
  6
CONTINUOUS
 10
4.7376754986
 20
18.9
 11
4.6890682503
 21
19.0173482781
  0
LINE
  5
4A2
100
AcDbEntity
  8
DRAFT
100
AcDbLine
 62
7
  6
CONTINUOUS
 10
4.2625001673
 20
21.2
 11
4.2754288586
 21
21.1651588757
  0
LINE
  5
4A3
100
AcDbEntity
  8
ASSI
100
AcDbLine
 62
7
  6
CONTINUOUS
 10
4.2625001673
 20
21.2
 11
4.2754288586
 21
21.1651588757
  0
LINE
  5
4A4
100
AcDbEntity
  8
DRAFT
100
AcDbLine
 62
7
  6
CONTINUOUS
 10
14.35
 20
-21.1851643248
 11
14.35
 21
-22.1851643248
  0
LINE
  5
4A5
100
AcDbEntity
  8
ASSI
100
AcDbLine
 62
7
  6
CONTINUOUS
 10
14.35
 20
-21.1851643248
 11
14.35
 21
-22.1851643248
  0
LINE
  5
4A6
100
AcDbEntity
  8
DRAFT
100
AcDbLine
 62
7
  6
CONTINUOUS
 10
14.35
 20
21.1851643248
 11
14.35
 21
22.1851643248
  0
LINE
  5
4A7
100
AcDbEntity
  8
ASSI
100
AcDbLine
 62
7
  6
CONTINUOUS
 10
14.35
 20
21.1851643248
 11
14.35
 21
22.1851643248
  0
LINE
  5
4A8
100
AcDbEntity
  8
DRAFT
100
AcDbLine
 62
7
  6
CONTINUOUS
 10
8.554211513
 20
-21.1651588757
 11
8.2441170282
 21
-22.1805062352
  0
LINE
  5
4A9
100
AcDbEntity
  8
ASSI
100
AcDbLine
 62
7
  6
CONTINUOUS
 10
8.554211513
 20
-21.1651588757
 11
8.2441170282
 21
-22.1805062352
  0
LINE
  5
4AA
100
AcDbEntity
  8
DRAFT
100
AcDbLine
 62
7
  6
CONTINUOUS
 10
-4.0278542332
 20
-19.0173482781
 11
-3.7931398015
 21
-18.9
  0
LINE
  5
4AB
100
AcDbEntity
  8
ASSI
100
AcDbLine
 62
7
  6
CONTINUOUS
 10
-4.0278542332
 20
-19.0173482781
 11
-3.7931398015
 21
-18.9
  0
LINE
  5
4AC
100
AcDbEntity
  8
0
100
AcDbLine
 62
7
  6
CONTINUOUS
 10
-9.5064643339
 20
14.1807083087
 11
-9.7564261111
 21
14.1806702348
  0
LINE
  5
4AD
100
AcDbEntity
  8
0
100
AcDbLine
 62
253
  6
CONTINUOUS
 10
-6.7950333439
 20
13.65
 11
-6.5000000069
 21
13.65
  0
LINE
  5
4AE
100
AcDbEntity
  8
0
100
AcDbLine
 62
253
  6
CONTINUOUS
 10
6.500000003
 20
13.65
 11
6.7950333298
 21
13.65
  0
LINE
  5
4AF
100
AcDbEntity
  8
0
100
AcDbLine
 62
7
  6
CONTINUOUS
 10
-8.8957007373
 20
13.9637400207
 11
-7.0140423487
 21
13.9637400207
  0
LINE
  5
4B0
100
AcDbEntity
  8
0
100
AcDbLine
 62
7
  6
CONTINUOUS
 10
7.0140422153
 20
13.9637400207
 11
8.8957014577
 21
13.9637400207
  0
LINE
  5
4B1
100
AcDbEntity
  8
0
100
AcDbLine
 62
253
  6
CONTINUOUS
 10
-6.7950342327
 20
14.1806883944
 11
-9.5064643338
 21
14.1806947349
  0
LINE
  5
4B2
100
AcDbEntity
  8
0
100
AcDbLine
 62
253
  6
CONTINUOUS
 10
9.5065173327
 20
14.18069899
 11
6.7950339536
 21
14.1806889413
  0
LINE
  5
4B3
100
AcDbEntity
  8
0
100
AcDbLine
 62
253
  6
CONTINUOUS
 10
6.7950457072
 20
14.2
 11
-6.7950457555
 21
14.2
  0
LINE
  5
4B4
100
AcDbEntity
  8
0
100
AcDbLine
 62
253
  6
CONTINUOUS
 10
19.1026969016
 20
14.4006510421
 11
9.8473092998
 21
14.4006510421
  0
LINE
  5
4B5
100
AcDbEntity
  8
0
100
AcDbLine
 62
253
  6
CONTINUOUS
 10
-9.8473092999
 20
14.4006510421
 11
-19.1026969097
 21
14.4006510421
  0
LINE
  5
4B6
100
AcDbEntity
  8
0
100
AcDbLine
 62
7
  6
CONTINUOUS
 10
8.8936543849
 20
14.9771014889
 11
7.0119953994
 21
14.9771014885
  0
LINE
  5
4B7
100
AcDbEntity
  8
0
100
AcDbLine
 62
7
  6
CONTINUOUS
 10
-7.0119954558
 20
14.977101489
 11
-8.893654328
 21
14.977101489
  0
LINE
  5
4B8
100
AcDbEntity
  8
0
100
AcDbLine
 62
7
  6
CONTINUOUS
 10
-8.893654328
 20
15.0500000243
 11
-7.0119954558
 21
15.0500000243
  0
LINE
  5
4B9
100
AcDbEntity
  8
0
100
AcDbLine
 62
253
  6
CONTINUOUS
 10
7.0119953994
 20
15.0500000241
 11
8.8936543849
 21
15.0500000244
  0
LINE
  5
4BA
100
AcDbEntity
  8
0
100
AcDbLine
 62
7
  6
CONTINUOUS
 10
9.7564260187
 20
14.1806701336
 11
9.5065173392
 21
14.1807081855
  0
LINE
  5
4BB
100
AcDbEntity
  8
DRAFT
100
AcDbLine
 62
7
  6
CONTINUOUS
 10
-3.7931398015
 20
18.9
 11
-4.0278542332
 21
19.0173482781
  0
LINE
  5
4BC
100
AcDbEntity
  8
ASSI
100
AcDbLine
 62
7
  6
CONTINUOUS
 10
-3.7931398015
 20
18.9
 11
-4.0278542332
 21
19.0173482781
  0
LINE
  5
4BD
100
AcDbEntity
  8
DRAFT
100
AcDbLine
 62
7
  6
CONTINUOUS
 10
8.2441170282
 20
22.1805062352
 11
8.554211513
 21
21.1651588757
  0
LINE
  5
4BE
100
AcDbEntity
  8
ASSI
100
AcDbLine
 62
7
  6
CONTINUOUS
 10
8.2441170282
 20
22.1805062352
 11
8.554211513
 21
21.1651588757
  0
LINE
  5
4BF
100
AcDbEntity
  8
DRAFT
100
AcDbLine
 62
7
  6
CONTINUOUS
 10
14.702972121
 20
21.2
 11
14.6497558672
 21
22.2
  0
LINE
  5
4C0
100
AcDbEntity
  8
ASSI
100
AcDbLine
 62
7
  6
CONTINUOUS
 10
14.702972121
 20
21.2
 11
14.6497558672
 21
22.2
  0
LINE
  5
4C1
100
AcDbEntity
  8
0
100
AcDbLine
 62
253
  6
CONTINUOUS
 10
16.1037248735
 20
-17.3996230171
 11
16.1037248735
 21
17.3996230637
  0
LINE
  5
4C2
100
AcDbEntity
  8
DRAFT
100
AcDbLine
 62
7
  6
CONTINUOUS
 10
17.3330351795
 20
19.1
 11
17.3330351795
 21
18.867094756
  0
LINE
  5
4C3
100
AcDbEntity
  8
ASSI
100
AcDbLine
 62
7
  6
CONTINUOUS
 10
17.3330351795
 20
19.1
 11
17.3330351795
 21
18.867094756
  0
LINE
  5
4C4
100
AcDbEntity
  8
DRAFT
100
AcDbLine
 62
7
  6
CONTINUOUS
 10
17.3330351795
 20
-19.1
 11
17.3330351795
 21
-18.867094756
  0
LINE
  5
4C5
100
AcDbEntity
  8
ASSI
100
AcDbLine
 62
7
  6
CONTINUOUS
 10
17.3330351795
 20
-19.1
 11
17.3330351795
 21
-18.867094756
  0
LINE
  5
4C6
100
AcDbEntity
  8
DRAFT
100
AcDbLine
 62
7
  6
CONTINUOUS
 10
14.702972121
 20
-21.2
 11
14.6497558672
 21
-22.2
  0
LINE
  5
4C7
100
AcDbEntity
  8
ASSI
100
AcDbLine
 62
7
  6
CONTINUOUS
 10
14.702972121
 20
-21.2
 11
14.6497558672
 21
-22.2
  0
LINE
  5
4C8
100
AcDbEntity
  8
DRAFT
100
AcDbLine
 62
7
  6
CONTINUOUS
 10
4.5169648205
 20
-18.8430942654
 11
4.3448613907
 21
-19.0173482781
  0
LINE
  5
4C9
100
AcDbEntity
  8
ASSI
100
AcDbLine
 62
7
  6
CONTINUOUS
 10
4.5169648205
 20
-18.8430942654
 11
4.3448613907
 21
-19.0173482781
  0
LINE
  5
4CA
100
AcDbEntity
  8
DRAFT
100
AcDbLine
 62
7
  6
CONTINUOUS
 10
4.5169648205
 20
-18.6327542795
 11
4.2826243441
 21
-18.867094756
  0
LINE
  5
4CB
100
AcDbEntity
  8
ASSI
100
AcDbLine
 62
7
  6
CONTINUOUS
 10
4.5169648205
 20
-18.6327542795
 11
4.2826243441
 21
-18.867094756
  0
LINE
  5
4CC
100
AcDbEntity
  8
RACCORDO
100
AcDbLine
 62
7
  6
CONTINUOUS
 10
-3.9
 20
-19.3034260301
 11
-4.0340172901
 21
-19.3704295719
  0
LINE
  5
4CD
100
AcDbEntity
  8
ASSI
100
AcDbLine
 62
7
  6
CONTINUOUS
 10
-3.9
 20
-19.3034260301
 11
-4.0340172901
 21
-19.3704295719
  0
LINE
  5
4CE
100
AcDbEntity
  8
0
100
AcDbLine
 62
7
  6
CONTINUOUS
 10
8.888778016
 20
15.6033911211
 11
7.007118368
 21
15.6033911211
  0
LINE
  5
4CF
100
AcDbEntity
  8
0
100
AcDbLine
 62
7
  6
CONTINUOUS
 10
-7.0071183432
 20
15.6033911211
 11
-8.8887780407
 21
15.6033911211
  0
LINE
  5
4D0
100
AcDbEntity
  8
0
100
AcDbLine
 62
253
  6
CONTINUOUS
 10
6.699088145
 20
15.7269552878
 11
-6.6992554909
 21
15.7269552878
  0
LINE
  5
4D1
100
AcDbEntity
  8
0
100
AcDbLine
 62
7
  6
CONTINUOUS
 10
-6.6997205981
 20
15.7760534563
 11
6.6996385018
 21
15.7760534563
  0
LINE
  5
4D2
100
AcDbEntity
  8
0
100
AcDbLine
 62
7
  6
CONTINUOUS
 10
-8.9855932973
 20
15.8846819787
 11
8.9855932733
 21
15.8846819787
  0
LINE
  5
4D3
100
AcDbEntity
  8
0
100
AcDbLine
 62
7
  6
CONTINUOUS
 10
9.2370840709
 20
15.8925597609
 11
-9.2370749604
 21
15.8925597609
  0
LINE
  5
4D4
100
AcDbEntity
  8
0
100
AcDbLine
 62
253
  6
CONTINUOUS
 10
-9.5532094756
 20
17.1796612752
 11
9.5532094015
 21
17.1796612752
  0
LINE
  5
4D5
100
AcDbEntity
  8
0
100
AcDbLine
 62
253
  6
CONTINUOUS
 10
-16.1037247568
 20
17.399622858
 11
-12.9488289979
 21
17.399622858
  0
LINE
  5
4D6
100
AcDbEntity
  8
0
100
AcDbLine
 62
253
  6
CONTINUOUS
 10
12.9488317715
 20
17.3996230637
 11
16.1036472192
 21
17.3996230637
  0
LINE
  5
4D7
100
AcDbEntity
  8
0
100
AcDbLine
 62
7
  6
CONTINUOUS
 10
16.2118850937
 20
17.5116602706
 11
-16.2118851215
 21
17.5116602706
  0
LWPOLYLINE
  5
4D8
100
AcDbEntity
  8
0
100
AcDbPolyline
 62
7
  6
CONTINUOUS
 90
10
 70
0
 10
6.7142534971
 20
15.7747563035
 10
6.7132530101
 20
15.7749244002
 10
6.7119406052
 20
15.7751279424
 10
6.7102809433
 20
15.7753582645
 10
6.7085487589
 20
15.7755653388
 10
6.7068211575
 20
15.7757370963
 10
6.7050190624
 20
15.7758783833
 10
6.70318527
 20
15.7759816271
 10
6.7013233284
 20
15.7760439333
 10
6.6995787388
 20
15.7760629785
  0
LINE
  5
4D9
100
AcDbEntity
  8
0
100
AcDbLine
 62
7
  6
CONTINUOUS
 10
6.7149264868
 20
15.7746358799
 11
6.7142534971
 21
15.7747563035
  0
LINE
  5
4DA
100
AcDbEntity
  8
RACCORDO
100
AcDbLine
 62
7
  6
CONTINUOUS
 10
-3.9
 20
19.3034260301
 11
-4.0340172901
 21
19.3704295719
  0
LINE
  5
4DB
100
AcDbEntity
  8
ASSI
100
AcDbLine
 62
7
  6
CONTINUOUS
 10
-3.9
 20
19.3034260301
 11
-4.0340172901
 21
19.3704295719
  0
LINE
  5
4DC
100
AcDbEntity
  8
DRAFT
100
AcDbLine
 62
7
  6
CONTINUOUS
 10
4.2826243441
 20
18.867094756
 11
4.5169648205
 21
18.6327542795
  0
LINE
  5
4DD
100
AcDbEntity
  8
ASSI
100
AcDbLine
 62
7
  6
CONTINUOUS
 10
4.2826243441
 20
18.867094756
 11
4.5169648205
 21
18.6327542795
  0
LINE
  5
4DE
100
AcDbEntity
  8
DRAFT
100
AcDbLine
 62
7
  6
CONTINUOUS
 10
4.3448613907
 20
19.0173482781
 11
4.5169648205
 21
18.8430942654
  0
LINE
  5
4DF
100
AcDbEntity
  8
ASSI
100
AcDbLine
 62
7
  6
CONTINUOUS
 10
4.3448613907
 20
19.0173482781
 11
4.5169648205
 21
18.8430942654
  0
LINE
  5
4E0
100
AcDbEntity
  8
DRAFT
100
AcDbLine
 62
7
  6
CONTINUOUS
 10
18.4864808301
 20
-20.9320850844
 11
18.4584845302
 21
-20.0060689771
  0
LINE
  5
4E1
100
AcDbEntity
  8
ASSI
100
AcDbLine
 62
7
  6
CONTINUOUS
 10
18.4864808301
 20
-20.9320850844
 11
18.4584845302
 21
-20.0060689771
  0
LINE
  5
4E2
100
AcDbEntity
  8
DRAFT
100
AcDbLine
 62
7
  6
CONTINUOUS
 10
18.4721457668
 20
19.0173482781
 11
18.4584845302
 21
19.8
  0
LINE
  5
4E3
100
AcDbEntity
  8
ASSI
100
AcDbLine
 62
7
  6
CONTINUOUS
 10
18.4721457668
 20
19.0173482781
 11
18.4584845302
 21
19.8
  0
LINE
  5
4E4
100
AcDbEntity
  8
DRAFT
100
AcDbLine
 62
7
  6
CONTINUOUS
 10
17.9830351795
 20
18.8430942654
 11
17.9830351795
 21
18.6327542795
  0
LINE
  5
4E5
100
AcDbEntity
  8
ASSI
100
AcDbLine
 62
7
  6
CONTINUOUS
 10
17.9830351795
 20
18.8430942654
 11
17.9830351795
 21
18.6327542795
  0
LINE
  5
4E6
100
AcDbEntity
  8
DRAFT
100
AcDbLine
 62
7
  6
CONTINUOUS
 10
17.9830351795
 20
-18.8430942654
 11
17.9830351795
 21
-18.6327542795
  0
LINE
  5
4E7
100
AcDbEntity
  8
ASSI
100
AcDbLine
 62
7
  6
CONTINUOUS
 10
17.9830351795
 20
-18.8430942654
 11
17.9830351795
 21
-18.6327542795
  0
LINE
  5
4E8
100
AcDbEntity
  8
DRAFT
100
AcDbLine
 62
7
  6
CONTINUOUS
 10
18.4584845302
 20
-20.0060689771
 11
18.4584845302
 21
-19.8
  0
LINE
  5
4E9
100
AcDbEntity
  8
ASSI
100
AcDbLine
 62
7
  6
CONTINUOUS
 10
18.4584845302
 20
-20.0060689771
 11
18.4584845302
 21
-19.8
  0
LINE
  5
4EA
100
AcDbEntity
  8
DRAFT
100
AcDbLine
 62
7
  6
CONTINUOUS
 10
18.4584845302
 20
19.8
 11
18.4584845302
 21
20.0060689771
  0
LINE
  5
4EB
100
AcDbEntity
  8
ASSI
100
AcDbLine
 62
7
  6
CONTINUOUS
 10
18.4584845302
 20
19.8
 11
18.4584845302
 21
20.0060689771
  0
LINE
  5
4EC
100
AcDbEntity
  8
DRAFT
100
AcDbLine
 62
7
  6
CONTINUOUS
 10
18.7726756989
 20
20.7603594806
 11
18.7726756989
 21
18.867094756
  0
LINE
  5
4ED
100
AcDbEntity
  8
ASSI
100
AcDbLine
 62
7
  6
CONTINUOUS
 10
18.7726756989
 20
20.7603594806
 11
18.7726756989
 21
18.867094756
  0
LINE
  5
4EE
100
AcDbEntity
  8
DRAFT
100
AcDbLine
 62
7
  6
CONTINUOUS
 10
18.7726756989
 20
-18.867094756
 11
18.7726756989
 21
-20.7603594806
  0
LINE
  5
4EF
100
AcDbEntity
  8
ASSI
100
AcDbLine
 62
7
  6
CONTINUOUS
 10
18.7726756989
 20
-18.867094756
 11
18.7726756989
 21
-20.7603594806
  0
LINE
  5
4F0
100
AcDbEntity
  8
0
100
AcDbLine
 62
253
  6
CONTINUOUS
 10
19.1026969016
 20
14.4006510907
 11
19.1026969016
 21
-14.4005226272
  0
LINE
  5
4F1
100
AcDbEntity
  8
0
100
AcDbLine
 62
7
  6
CONTINUOUS
 10
19.2116586419
 20
-14.5116599611
 11
19.2116583585
 21
14.512688269
  0
LINE
  5
4F2
100
AcDbEntity
  8
DRAFT
100
AcDbLine
 62
7
  6
CONTINUOUS
 10
18.4584845302
 20
-19.8
 11
18.4721457668
 21
-19.0173482781
  0
LINE
  5
4F3
100
AcDbEntity
  8
ASSI
100
AcDbLine
 62
7
  6
CONTINUOUS
 10
18.4584845302
 20
-19.8
 11
18.4721457668
 21
-19.0173482781
  0
LINE
  5
4F4
100
AcDbEntity
  8
DRAFT
100
AcDbLine
 62
7
  6
CONTINUOUS
 10
18.4584845302
 20
20.0060689771
 11
18.4864808301
 21
20.9320850844
  0
LINE
  5
4F5
100
AcDbEntity
  8
ASSI
100
AcDbLine
 62
7
  6
CONTINUOUS
 10
18.4584845302
 20
20.0060689771
 11
18.4864808301
 21
20.9320850844
  0
LINE
  5
4F6
100
AcDbEntity
  8
RACCORDO
100
AcDbLine
 62
7
  6
CONTINUOUS
 10
3.9
 20
-19.8965739699
 11
4.0415154698
 21
-19.8258216238
  0
LINE
  5
4F7
100
AcDbEntity
  8
ASSI
100
AcDbLine
 62
7
  6
CONTINUOUS
 10
3.9
 20
-19.8965739699
 11
4.0415154698
 21
-19.8258216238
  0
LINE
  5
4F8
100
AcDbEntity
  8
DRAFT
100
AcDbLine
 62
7
  6
CONTINUOUS
 10
3.8669648205
 20
20.9
 11
4.0135191699
 21
20.9320850844
  0
LINE
  5
4F9
100
AcDbEntity
  8
ASSI
100
AcDbLine
 62
7
  6
CONTINUOUS
 10
3.8669648205
 20
20.9
 11
4.0135191699
 21
20.9320850844
  0
LINE
  5
4FA
100
AcDbEntity
  8
DRAFT
100
AcDbLine
 62
7
  6
CONTINUOUS
 10
-18.7726756989
 20
18.867094756
 11
-18.2173756559
 21
18.867094756
  0
LINE
  5
4FB
100
AcDbEntity
  8
ASSI
100
AcDbLine
 62
7
  6
CONTINUOUS
 10
-18.7726756989
 20
18.867094756
 11
-18.2173756559
 21
18.867094756
  0
LINE
  5
4FC
100
AcDbEntity
  8
DRAFT
100
AcDbLine
 62
7
  6
CONTINUOUS
 10
-17.748694703
 20
18.867094756
 11
-17.3330351795
 21
18.867094756
  0
LINE
  5
4FD
100
AcDbEntity
  8
ASSI
100
AcDbLine
 62
7
  6
CONTINUOUS
 10
-17.748694703
 20
18.867094756
 11
-17.3330351795
 21
18.867094756
  0
LINE
  5
4FE
100
AcDbEntity
  8
DRAFT
100
AcDbLine
 62
7
  6
CONTINUOUS
 10
17.3330351795
 20
18.867094756
 11
17.748694703
 21
18.867094756
  0
LINE
  5
4FF
100
AcDbEntity
  8
ASSI
100
AcDbLine
 62
7
  6
CONTINUOUS
 10
17.3330351795
 20
18.867094756
 11
17.748694703
 21
18.867094756
  0
LINE
  5
500
100
AcDbEntity
  8
DRAFT
100
AcDbLine
 62
7
  6
CONTINUOUS
 10
18.2173756559
 20
18.867094756
 11
18.7726756989
 21
18.867094756
  0
LINE
  5
501
100
AcDbEntity
  8
ASSI
100
AcDbLine
 62
7
  6
CONTINUOUS
 10
18.2173756559
 20
18.867094756
 11
18.7726756989
 21
18.867094756
  0
LINE
  5
502
100
AcDbEntity
  8
0
100
AcDbLine
 62
7
  6
CONTINUOUS
 10
-10.0
 20
18.9
 11
-3.5
 21
18.9
  0
LINE
  5
503
100
AcDbEntity
  8
0
100
AcDbLine
 62
7
  6
CONTINUOUS
 10
-2.5
 20
18.9
 11
2.5
 21
18.9
  0
LINE
  5
504
100
AcDbEntity
  8
0
100
AcDbLine
 62
7
  6
CONTINUOUS
 10
5.1669648205
 20
18.9
 11
10.0
 21
18.9
  0
LINE
  5
505
100
AcDbEntity
  8
DRAFT
100
AcDbLine
 62
7
  6
CONTINUOUS
 10
-18.4721457668
 20
19.0173482781
 11
-18.1551386093
 21
19.0173482781
  0
LINE
  5
506
100
AcDbEntity
  8
ASSI
100
AcDbLine
 62
7
  6
CONTINUOUS
 10
-18.4721457668
 20
19.0173482781
 11
-18.1551386093
 21
19.0173482781
  0
LINE
  5
507
100
AcDbEntity
  8
DRAFT
100
AcDbLine
 62
7
  6
CONTINUOUS
 10
-17.8109317497
 20
19.0173482781
 11
-17.3330351795
 21
19.0173482781
  0
LINE
  5
508
100
AcDbEntity
  8
ASSI
100
AcDbLine
 62
7
  6
CONTINUOUS
 10
-17.8109317497
 20
19.0173482781
 11
-17.3330351795
 21
19.0173482781
  0
LINE
  5
509
100
AcDbEntity
  8
DRAFT
100
AcDbLine
 62
7
  6
CONTINUOUS
 10
-5.1669648205
 20
19.0173482781
 11
-4.6890682503
 21
19.0173482781
  0
LINE
  5
50A
100
AcDbEntity
  8
ASSI
100
AcDbLine
 62
7
  6
CONTINUOUS
 10
-5.1669648205
 20
19.0173482781
 11
-4.6890682503
 21
19.0173482781
  0
LINE
  5
50B
100
AcDbEntity
  8
DRAFT
100
AcDbLine
 62
7
  6
CONTINUOUS
 10
-4.3448613907
 20
19.0173482781
 11
-4.0278542332
 21
19.0173482781
  0
LINE
  5
50C
100
AcDbEntity
  8
ASSI
100
AcDbLine
 62
7
  6
CONTINUOUS
 10
-4.3448613907
 20
19.0173482781
 11
-4.0278542332
 21
19.0173482781
  0
LINE
  5
50D
100
AcDbEntity
  8
DRAFT
100
AcDbLine
 62
7
  6
CONTINUOUS
 10
4.0278542332
 20
19.0173482781
 11
4.3448613907
 21
19.0173482781
  0
LINE
  5
50E
100
AcDbEntity
  8
ASSI
100
AcDbLine
 62
7
  6
CONTINUOUS
 10
4.0278542332
 20
19.0173482781
 11
4.3448613907
 21
19.0173482781
  0
LINE
  5
50F
100
AcDbEntity
  8
DRAFT
100
AcDbLine
 62
7
  6
CONTINUOUS
 10
4.6890682503
 20
19.0173482781
 11
5.1669648205
 21
19.0173482781
  0
LINE
  5
510
100
AcDbEntity
  8
ASSI
100
AcDbLine
 62
7
  6
CONTINUOUS
 10
4.6890682503
 20
19.0173482781
 11
5.1669648205
 21
19.0173482781
  0
LINE
  5
511
100
AcDbEntity
  8
DRAFT
100
AcDbLine
 62
7
  6
CONTINUOUS
 10
17.3330351795
 20
19.0173482781
 11
17.8109317497
 21
19.0173482781
  0
LINE
  5
512
100
AcDbEntity
  8
ASSI
100
AcDbLine
 62
7
  6
CONTINUOUS
 10
17.3330351795
 20
19.0173482781
 11
17.8109317497
 21
19.0173482781
  0
LINE
  5
513
100
AcDbEntity
  8
DRAFT
100
AcDbLine
 62
7
  6
CONTINUOUS
 10
18.1551386093
 20
19.0173482781
 11
18.4721457668
 21
19.0173482781
  0
LINE
  5
514
100
AcDbEntity
  8
ASSI
100
AcDbLine
 62
7
  6
CONTINUOUS
 10
18.1551386093
 20
19.0173482781
 11
18.4721457668
 21
19.0173482781
  0
LINE
  5
515
100
AcDbEntity
  8
0
100
AcDbLine
 62
7
  6
CONTINUOUS
 10
17.3330351795
 20
19.1
 11
5.1669648205
 21
19.1
  0
LINE
  5
516
100
AcDbEntity
  8
ASSI
100
AcDbLine
 62
7
  6
CONTINUOUS
 10
17.3330351795
 20
19.1
 11
5.1669648205
 21
19.1
  0
LINE
  5
517
100
AcDbEntity
  8
0
100
AcDbLine
 62
7
  6
CONTINUOUS
 10
-5.1669648205
 20
19.1
 11
-17.3330351795
 21
19.1
  0
LINE
  5
518
100
AcDbEntity
  8
ASSI
100
AcDbLine
 62
7
  6
CONTINUOUS
 10
-5.1669648205
 20
19.1
 11
-17.3330351795
 21
19.1
  0
LINE
  5
519
100
AcDbEntity
  8
RACCORDO
100
AcDbLine
 62
7
  6
CONTINUOUS
 10
-4.0340172901
 20
19.3704295719
 11
-3.9
 21
19.3704295719
  0
LINE
  5
51A
100
AcDbEntity
  8
ASSI
100
AcDbLine
 62
7
  6
CONTINUOUS
 10
-4.0340172901
 20
19.3704295719
 11
-3.9
 21
19.3704295719
  0
LINE
  5
51B
100
AcDbEntity
  8
RACCORDO
100
AcDbLine
 62
7
  6
CONTINUOUS
 10
3.9
 20
19.3704295719
 11
4.0340172901
 21
19.3704295719
  0
LINE
  5
51C
100
AcDbEntity
  8
ASSI
100
AcDbLine
 62
7
  6
CONTINUOUS
 10
3.9
 20
19.3704295719
 11
4.0340172901
 21
19.3704295719
  0
LINE
  5
51D
100
AcDbEntity
  8
DRAFT
100
AcDbLine
 62
7
  6
CONTINUOUS
 10
-4.0135191699
 20
20.9320850844
 11
-3.8669648205
 21
20.9
  0
LINE
  5
51E
100
AcDbEntity
  8
ASSI
100
AcDbLine
 62
7
  6
CONTINUOUS
 10
-4.0135191699
 20
20.9320850844
 11
-3.8669648205
 21
20.9
  0
LINE
  5
51F
100
AcDbEntity
  8
RACCORDO
100
AcDbLine
 62
7
  6
CONTINUOUS
 10
3.9
 20
19.8965739699
 11
4.0415154698
 21
19.8258216238
  0
LINE
  5
520
100
AcDbEntity
  8
ASSI
100
AcDbLine
 62
7
  6
CONTINUOUS
 10
3.9
 20
19.8965739699
 11
4.0415154698
 21
19.8258216238
  0
LINE
  5
521
100
AcDbEntity
  8
DRAFT
100
AcDbLine
 62
7
  6
CONTINUOUS
 10
20.7603594806
 20
-20.7603594806
 11
20.7603594806
 21
-0.4
  0
LINE
  5
522
100
AcDbEntity
  8
ASSI
100
AcDbLine
 62
7
  6
CONTINUOUS
 10
20.7603594806
 20
-20.7603594806
 11
20.7603594806
 21
-0.4
  0
LINE
  5
523
100
AcDbEntity
  8
DRAFT
100
AcDbLine
 62
7
  6
CONTINUOUS
 10
20.7603594806
 20
0.4
 11
20.7603594806
 21
20.7603594806
  0
LINE
  5
524
100
AcDbEntity
  8
ASSI
100
AcDbLine
 62
7
  6
CONTINUOUS
 10
20.7603594806
 20
0.4
 11
20.7603594806
 21
20.7603594806
  0
LINE
  5
525
100
AcDbEntity
  8
RACCORDO
100
AcDbLine
 62
7
  6
CONTINUOUS
 10
20.9
 20
-20.9
 11
20.9
 21
-18.1006347748
  0
LINE
  5
526
100
AcDbEntity
  8
ASSI
100
AcDbLine
 62
7
  6
CONTINUOUS
 10
20.9
 20
-20.9
 11
20.9
 21
-18.1006347748
  0
LINE
  5
527
100
AcDbEntity
  8
RACCORDO
100
AcDbLine
 62
7
  6
CONTINUOUS
 10
20.9
 20
18.1006347748
 11
20.9
 21
20.9
  0
LINE
  5
528
100
AcDbEntity
  8
ASSI
100
AcDbLine
 62
7
  6
CONTINUOUS
 10
20.9
 20
18.1006347748
 11
20.9
 21
20.9
  0
LINE
  5
529
100
AcDbEntity
  8
RACCORDO
100
AcDbLine
 62
7
  6
CONTINUOUS
 10
20.9261825974
 20
18.029762091
 11
20.9261825974
 21
0.317094756
  0
LINE
  5
52A
100
AcDbEntity
  8
ASSI
100
AcDbLine
 62
7
  6
CONTINUOUS
 10
20.9261825974
 20
18.029762091
 11
20.9261825974
 21
0.317094756
  0
LINE
  5
52B
100
AcDbEntity
  8
RACCORDO
100
AcDbLine
 62
7
  6
CONTINUOUS
 10
20.9261825974
 20
-0.317094756
 11
20.9261825974
 21
-18.029762091
  0
LINE
  5
52C
100
AcDbEntity
  8
ASSI
100
AcDbLine
 62
7
  6
CONTINUOUS
 10
20.9261825974
 20
-0.317094756
 11
20.9261825974
 21
-18.029762091
  0
LINE
  5
52D
100
AcDbEntity
  8
RACCORDO
100
AcDbLine
 62
7
  6
CONTINUOUS
 10
-3.9
 20
19.8255982314
 11
-4.0415154698
 21
19.8127991157
  0
LINE
  5
52E
100
AcDbEntity
  8
ASSI
100
AcDbLine
 62
7
  6
CONTINUOUS
 10
-3.9
 20
19.8255982314
 11
-4.0415154698
 21
19.8127991157
  0
LINE
  5
52F
100
AcDbEntity
  8
DRAFT
100
AcDbLine
 62
7
  6
CONTINUOUS
 10
14.702972121
 20
21.2
 11
14.4040057528
 21
21.1851643248
  0
LINE
  5
530
100
AcDbEntity
  8
ASSI
100
AcDbLine
 62
7
  6
CONTINUOUS
 10
14.702972121
 20
21.2
 11
14.4040057528
 21
21.1851643248
  0
LINE
  5
531
100
AcDbEntity
  8
DRAFT
100
AcDbLine
 62
7
  6
CONTINUOUS
 10
-7.797027879
 20
21.2
 11
-8.0959942472
 21
21.1851643248
  0
LINE
  5
532
100
AcDbEntity
  8
ASSI
100
AcDbLine
 62
7
  6
CONTINUOUS
 10
-7.797027879
 20
21.2
 11
-8.0959942472
 21
21.1851643248
  0
LINE
  5
533
100
AcDbEntity
  8
DRAFT
100
AcDbLine
 62
7
  6
CONTINUOUS
 10
14.35
 20
22.1851643248
 11
14.2558829718
 21
22.1805062352
  0
LINE
  5
534
100
AcDbEntity
  8
ASSI
100
AcDbLine
 62
7
  6
CONTINUOUS
 10
14.35
 20
22.1851643248
 11
14.2558829718
 21
22.1805062352
  0
LINE
  5
535
100
AcDbEntity
  8
DRAFT
100
AcDbLine
 62
7
  6
CONTINUOUS
 10
18.4584845302
 20
19.8
 11
4.0415154698
 21
19.8
  0
LINE
  5
536
100
AcDbEntity
  8
ASSI
100
AcDbLine
 62
7
  6
CONTINUOUS
 10
18.4584845302
 20
19.8
 11
4.0415154698
 21
19.8
  0
LINE
  5
537
100
AcDbEntity
  8
DRAFT
100
AcDbLine
 62
7
  6
CONTINUOUS
 10
-4.0415154698
 20
19.8
 11
-18.4584845302
 21
19.8
  0
LINE
  5
538
100
AcDbEntity
  8
ASSI
100
AcDbLine
 62
7
  6
CONTINUOUS
 10
-4.0415154698
 20
19.8
 11
-18.4584845302
 21
19.8
  0
LINE
  5
539
100
AcDbEntity
  8
DRAFT
100
AcDbLine
 62
7
  6
CONTINUOUS
 10
18.4584845302
 20
20.0060689771
 11
4.0415154698
 21
20.0060689771
  0
LINE
  5
53A
100
AcDbEntity
  8
ASSI
100
AcDbLine
 62
7
  6
CONTINUOUS
 10
18.4584845302
 20
20.0060689771
 11
4.0415154698
 21
20.0060689771
  0
LINE
  5
53B
100
AcDbEntity
  8
DRAFT
100
AcDbLine
 62
7
  6
CONTINUOUS
 10
-4.0415154698
 20
20.0060689771
 11
-18.4584845302
 21
20.0060689771
  0
LINE
  5
53C
100
AcDbEntity
  8
ASSI
100
AcDbLine
 62
7
  6
CONTINUOUS
 10
-4.0415154698
 20
20.0060689771
 11
-18.4584845302
 21
20.0060689771
  0
LINE
  5
53D
100
AcDbEntity
  8
DRAFT
100
AcDbLine
 62
7
  6
CONTINUOUS
 10
20.7603594806
 20
20.7603594806
 11
18.7726756989
 21
20.7603594806
  0
LINE
  5
53E
100
AcDbEntity
  8
ASSI
100
AcDbLine
 62
7
  6
CONTINUOUS
 10
20.7603594806
 20
20.7603594806
 11
18.7726756989
 21
20.7603594806
  0
LINE
  5
53F
100
AcDbEntity
  8
DRAFT
100
AcDbLine
 62
7
  6
CONTINUOUS
 10
3.7273243011
 20
20.7603594806
 11
-3.7273243011
 21
20.7603594806
  0
LINE
  5
540
100
AcDbEntity
  8
ASSI
100
AcDbLine
 62
7
  6
CONTINUOUS
 10
3.7273243011
 20
20.7603594806
 11
-3.7273243011
 21
20.7603594806
  0
LINE
  5
541
100
AcDbEntity
  8
DRAFT
100
AcDbLine
 62
7
  6
CONTINUOUS
 10
-18.7726756989
 20
20.7603594806
 11
-20.7603594806
 21
20.7603594806
  0
LINE
  5
542
100
AcDbEntity
  8
ASSI
100
AcDbLine
 62
7
  6
CONTINUOUS
 10
-18.7726756989
 20
20.7603594806
 11
-20.7603594806
 21
20.7603594806
  0
LINE
  5
543
100
AcDbEntity
  8
DRAFT
100
AcDbLine
 62
7
  6
CONTINUOUS
 10
20.9
 20
20.9
 11
18.6330351795
 21
20.9
  0
LINE
  5
544
100
AcDbEntity
  8
ASSI
100
AcDbLine
 62
7
  6
CONTINUOUS
 10
20.9
 20
20.9
 11
18.6330351795
 21
20.9
  0
LINE
  5
545
100
AcDbEntity
  8
DRAFT
100
AcDbLine
 62
7
  6
CONTINUOUS
 10
3.8669648205
 20
20.9
 11
-3.8669648205
 21
20.9
  0
LINE
  5
546
100
AcDbEntity
  8
ASSI
100
AcDbLine
 62
7
  6
CONTINUOUS
 10
3.8669648205
 20
20.9
 11
-3.8669648205
 21
20.9
  0
LINE
  5
547
100
AcDbEntity
  8
DRAFT
100
AcDbLine
 62
7
  6
CONTINUOUS
 10
-18.6330351795
 20
20.9
 11
-20.9
 21
20.9
  0
LINE
  5
548
100
AcDbEntity
  8
ASSI
100
AcDbLine
 62
7
  6
CONTINUOUS
 10
-18.6330351795
 20
20.9
 11
-20.9
 21
20.9
  0
LINE
  5
549
100
AcDbEntity
  8
DRAFT
100
AcDbLine
 62
7
  6
CONTINUOUS
 10
18.2245711414
 20
21.1651588757
 11
13.945788487
 21
21.1651588757
  0
LINE
  5
54A
100
AcDbEntity
  8
ASSI
100
AcDbLine
 62
7
  6
CONTINUOUS
 10
18.2245711414
 20
21.1651588757
 11
13.945788487
 21
21.1651588757
  0
LINE
  5
54B
100
AcDbEntity
  8
DRAFT
100
AcDbLine
 62
7
  6
CONTINUOUS
 10
8.554211513
 20
21.1651588757
 11
4.2754288586
 21
21.1651588757
  0
LINE
  5
54C
100
AcDbEntity
  8
ASSI
100
AcDbLine
 62
7
  6
CONTINUOUS
 10
8.554211513
 20
21.1651588757
 11
4.2754288586
 21
21.1651588757
  0
LINE
  5
54D
100
AcDbEntity
  8
DRAFT
100
AcDbLine
 62
7
  6
CONTINUOUS
 10
-4.2754288586
 20
21.1651588757
 11
-8.554211513
 21
21.1651588757
  0
LINE
  5
54E
100
AcDbEntity
  8
ASSI
100
AcDbLine
 62
7
  6
CONTINUOUS
 10
-4.2754288586
 20
21.1651588757
 11
-8.554211513
 21
21.1651588757
  0
LINE
  5
54F
100
AcDbEntity
  8
DRAFT
100
AcDbLine
 62
7
  6
CONTINUOUS
 10
-13.945788487
 20
21.1651588757
 11
-18.2245711414
 21
21.1651588757
  0
LINE
  5
550
100
AcDbEntity
  8
ASSI
100
AcDbLine
 62
7
  6
CONTINUOUS
 10
-13.945788487
 20
21.1651588757
 11
-18.2245711414
 21
21.1651588757
  0
LINE
  5
551
100
AcDbEntity
  8
DRAFT
100
AcDbLine
 62
7
  6
CONTINUOUS
 10
-14.4040057528
 20
21.1851643248
 11
-14.35
 21
21.1851643248
  0
LINE
  5
552
100
AcDbEntity
  8
DRAFT
100
AcDbLine
 62
7
  6
CONTINUOUS
 10
14.4040057528
 20
21.1851643248
 11
14.35
 21
21.1851643248
  0
LINE
  5
553
100
AcDbEntity
  8
ASSI
100
AcDbLine
 62
7
  6
CONTINUOUS
 10
-14.4040057528
 20
21.1851643248
 11
-14.35
 21
21.1851643248
  0
LINE
  5
554
100
AcDbEntity
  8
ASSI
100
AcDbLine
 62
7
  6
CONTINUOUS
 10
14.4040057528
 20
21.1851643248
 11
14.35
 21
21.1851643248
  0
LINE
  5
555
100
AcDbEntity
  8
DRAFT
100
AcDbLine
 62
7
  6
CONTINUOUS
 10
8.0959942472
 20
21.1851643248
 11
8.15
 21
21.1851643248
  0
LINE
  5
556
100
AcDbEntity
  8
DRAFT
100
AcDbLine
 62
7
  6
CONTINUOUS
 10
-8.0959942472
 20
21.1851643248
 11
-8.15
 21
21.1851643248
  0
LINE
  5
557
100
AcDbEntity
  8
ASSI
100
AcDbLine
 62
7
  6
CONTINUOUS
 10
8.0959942472
 20
21.1851643248
 11
8.15
 21
21.1851643248
  0
LINE
  5
558
100
AcDbEntity
  8
ASSI
100
AcDbLine
 62
7
  6
CONTINUOUS
 10
-8.0959942472
 20
21.1851643248
 11
-8.15
 21
21.1851643248
  0
LINE
  5
559
100
AcDbEntity
  8
DRAFT
100
AcDbLine
 62
7
  6
CONTINUOUS
 10
18.2374998327
 20
21.2
 11
14.702972121
 21
21.2
  0
LINE
  5
55A
100
AcDbEntity
  8
ASSI
100
AcDbLine
 62
7
  6
CONTINUOUS
 10
18.2374998327
 20
21.2
 11
14.702972121
 21
21.2
  0
LINE
  5
55B
100
AcDbEntity
  8
DRAFT
100
AcDbLine
 62
7
  6
CONTINUOUS
 10
7.797027879
 20
21.2
 11
4.2625001673
 21
21.2
  0
LINE
  5
55C
100
AcDbEntity
  8
ASSI
100
AcDbLine
 62
7
  6
CONTINUOUS
 10
7.797027879
 20
21.2
 11
4.2625001673
 21
21.2
  0
LINE
  5
55D
100
AcDbEntity
  8
DRAFT
100
AcDbLine
 62
7
  6
CONTINUOUS
 10
-4.2625001673
 20
21.2
 11
-7.797027879
 21
21.2
  0
LINE
  5
55E
100
AcDbEntity
  8
ASSI
100
AcDbLine
 62
7
  6
CONTINUOUS
 10
-4.2625001673
 20
21.2
 11
-7.797027879
 21
21.2
  0
LINE
  5
55F
100
AcDbEntity
  8
DRAFT
100
AcDbLine
 62
7
  6
CONTINUOUS
 10
-14.702972121
 20
21.2
 11
-18.2374998327
 21
21.2
  0
LINE
  5
560
100
AcDbEntity
  8
ASSI
100
AcDbLine
 62
7
  6
CONTINUOUS
 10
-14.702972121
 20
21.2
 11
-18.2374998327
 21
21.2
  0
LINE
  5
561
100
AcDbEntity
  8
DRAFT
100
AcDbLine
 62
7
  6
CONTINUOUS
 10
-14.4040057528
 20
21.1851643248
 11
-14.702972121
 21
21.2
  0
LINE
  5
562
100
AcDbEntity
  8
ASSI
100
AcDbLine
 62
7
  6
CONTINUOUS
 10
-14.4040057528
 20
21.1851643248
 11
-14.702972121
 21
21.2
  0
LINE
  5
563
100
AcDbEntity
  8
DRAFT
100
AcDbLine
 62
7
  6
CONTINUOUS
 10
-14.2558829718
 20
22.1805062352
 11
-14.35
 21
22.1851643248
  0
LINE
  5
564
100
AcDbEntity
  8
ASSI
100
AcDbLine
 62
7
  6
CONTINUOUS
 10
-14.2558829718
 20
22.1805062352
 11
-14.35
 21
22.1851643248
  0
LINE
  5
565
100
AcDbEntity
  8
DRAFT
100
AcDbLine
 62
7
  6
CONTINUOUS
 10
8.0959942472
 20
21.1851643248
 11
7.797027879
 21
21.2
  0
LINE
  5
566
100
AcDbEntity
  8
ASSI
100
AcDbLine
 62
7
  6
CONTINUOUS
 10
8.0959942472
 20
21.1851643248
 11
7.797027879
 21
21.2
  0
LINE
  5
567
100
AcDbEntity
  8
RACCORDO
100
AcDbLine
 62
7
  6
CONTINUOUS
 10
4.0415154698
 20
19.8127991157
 11
3.9
 21
19.8255982314
  0
LINE
  5
568
100
AcDbEntity
  8
ASSI
100
AcDbLine
 62
7
  6
CONTINUOUS
 10
4.0415154698
 20
19.8127991157
 11
3.9
 21
19.8255982314
  0
LINE
  5
569
100
AcDbEntity
  8
RACCORDO
100
AcDbLine
 62
7
  6
CONTINUOUS
 10
22.3738174026
 20
-16.4544358981
 11
22.3738174026
 21
16.4544358981
  0
LINE
  5
56A
100
AcDbEntity
  8
ASSI
100
AcDbLine
 62
7
  6
CONTINUOUS
 10
22.3738174026
 20
-16.4544358981
 11
22.3738174026
 21
16.4544358981
  0
LINE
  5
56B
100
AcDbEntity
  8
RACCORDO
100
AcDbLine
 62
7
  6
CONTINUOUS
 10
22.4
 20
21.8997711479
 11
22.4
 21
16.4633443086
  0
LINE
  5
56C
100
AcDbEntity
  8
ASSI
100
AcDbLine
 62
7
  6
CONTINUOUS
 10
22.4
 20
21.8997711479
 11
22.4
 21
16.4633443086
  0
LINE
  5
56D
100
AcDbEntity
  8
RACCORDO
100
AcDbLine
 62
7
  6
CONTINUOUS
 10
22.4
 20
-16.4633443086
 11
22.4
 21
-21.8997711479
  0
LINE
  5
56E
100
AcDbEntity
  8
ASSI
100
AcDbLine
 62
7
  6
CONTINUOUS
 10
22.4
 20
-16.4633443086
 11
22.4
 21
-21.8997711479
  0
LINE
  5
56F
100
AcDbEntity
  8
DRAFT
100
AcDbLine
 62
7
  6
CONTINUOUS
 10
18.2173756559
 20
-18.867094756
 11
18.1551386093
 21
-19.0173482781
  0
LINE
  5
570
100
AcDbEntity
  8
ASSI
100
AcDbLine
 62
7
  6
CONTINUOUS
 10
18.2173756559
 20
-18.867094756
 11
18.1551386093
 21
-19.0173482781
  0
LINE
  5
571
100
AcDbEntity
  8
DRAFT
100
AcDbLine
 62
7
  6
CONTINUOUS
 10
-8.15
 20
22.1851643248
 11
-8.2441170282
 21
22.1805062352
  0
LINE
  5
572
100
AcDbEntity
  8
ASSI
100
AcDbLine
 62
7
  6
CONTINUOUS
 10
-8.15
 20
22.1851643248
 11
-8.2441170282
 21
22.1805062352
  0
LINE
  5
573
100
AcDbEntity
  8
DRAFT
100
AcDbLine
 62
7
  6
CONTINUOUS
 10
-14.2558829718
 20
22.1805062352
 11
-8.2441170282
 21
22.1805062352
  0
LINE
  5
574
100
AcDbEntity
  8
ASSI
100
AcDbLine
 62
7
  6
CONTINUOUS
 10
-14.2558829718
 20
22.1805062352
 11
-8.2441170282
 21
22.1805062352
  0
LINE
  5
575
100
AcDbEntity
  8
DRAFT
100
AcDbLine
 62
7
  6
CONTINUOUS
 10
8.2441170282
 20
22.1805062352
 11
14.2558829718
 21
22.1805062352
  0
LINE
  5
576
100
AcDbEntity
  8
ASSI
100
AcDbLine
 62
7
  6
CONTINUOUS
 10
8.2441170282
 20
22.1805062352
 11
14.2558829718
 21
22.1805062352
  0
LINE
  5
577
100
AcDbEntity
  8
DRAFT
100
AcDbLine
 62
7
  6
CONTINUOUS
 10
7.8502441328
 20
22.2
 11
14.6497558672
 21
22.2
  0
LINE
  5
578
100
AcDbEntity
  8
ASSI
100
AcDbLine
 62
7
  6
CONTINUOUS
 10
7.8502441328
 20
22.2
 11
14.6497558672
 21
22.2
  0
LINE
  5
579
100
AcDbEntity
  8
DRAFT
100
AcDbLine
 62
7
  6
CONTINUOUS
 10
-7.8502441328
 20
22.2
 11
-14.6497558672
 21
22.2
  0
LINE
  5
57A
100
AcDbEntity
  8
ASSI
100
AcDbLine
 62
7
  6
CONTINUOUS
 10
-7.8502441328
 20
22.2
 11
-14.6497558672
 21
22.2
  0
LINE
  5
57B
100
AcDbEntity
  8
DRAFT
100
AcDbLine
 62
7
  6
CONTINUOUS
 10
21.9003805997
 20
22.4
 11
16.8
 21
22.4
  0
LINE
  5
57C
100
AcDbEntity
  8
ASSI
100
AcDbLine
 62
7
  6
CONTINUOUS
 10
21.9003805997
 20
22.4
 11
16.8
 21
22.4
  0
LINE
  5
57D
100
AcDbEntity
  8
DRAFT
100
AcDbLine
 62
7
  6
CONTINUOUS
 10
5.7
 20
22.4
 11
-5.7
 21
22.4
  0
LINE
  5
57E
100
AcDbEntity
  8
ASSI
100
AcDbLine
 62
7
  6
CONTINUOUS
 10
5.7
 20
22.4
 11
-5.7
 21
22.4
  0
LINE
  5
57F
100
AcDbEntity
  8
DRAFT
100
AcDbLine
 62
7
  6
CONTINUOUS
 10
-16.8
 20
22.4
 11
-21.9003805997
 21
22.4
  0
LINE
  5
580
100
AcDbEntity
  8
ASSI
100
AcDbLine
 62
7
  6
CONTINUOUS
 10
-16.8
 20
22.4
 11
-21.9003805997
 21
22.4
  0
LINE
  5
581
100
AcDbEntity
  8
DRAFT
100
AcDbLine
 62
7
  6
CONTINUOUS
 10
15.2130152422
 20
23.4650925288
 11
7.2869847578
 21
23.4650925288
  0
LINE
  5
582
100
AcDbEntity
  8
ASSI
100
AcDbLine
 62
7
  6
CONTINUOUS
 10
15.2130152422
 20
23.4650925288
 11
7.2869847578
 21
23.4650925288
  0
LINE
  5
583
100
AcDbEntity
  8
DRAFT
100
AcDbLine
 62
7
  6
CONTINUOUS
 10
-7.2869847578
 20
23.4650925288
 11
-15.2130152422
 21
23.4650925288
  0
LINE
  5
584
100
AcDbEntity
  8
ASSI
100
AcDbLine
 62
7
  6
CONTINUOUS
 10
-7.2869847578
 20
23.4650925288
 11
-15.2130152422
 21
23.4650925288
  0
LINE
  5
585
100
AcDbEntity
  8
DRAFT
100
AcDbLine
 62
7
  6
CONTINUOUS
 10
15.2233373476
 20
23.5
 11
14.25
 21
23.5
  0
LINE
  5
586
100
AcDbEntity
  8
ASSI
100
AcDbLine
 62
7
  6
CONTINUOUS
 10
15.2233373476
 20
23.5
 11
14.25
 21
23.5
  0
LINE
  5
587
100
AcDbEntity
  8
DRAFT
100
AcDbLine
 62
7
  6
CONTINUOUS
 10
8.25
 20
23.5
 11
7.2766626524
 21
23.5
  0
LINE
  5
588
100
AcDbEntity
  8
ASSI
100
AcDbLine
 62
7
  6
CONTINUOUS
 10
8.25
 20
23.5
 11
7.2766626524
 21
23.5
  0
LINE
  5
589
100
AcDbEntity
  8
DRAFT
100
AcDbLine
 62
7
  6
CONTINUOUS
 10
-7.2766626524
 20
23.5
 11
-8.25
 21
23.5
  0
LINE
  5
58A
100
AcDbEntity
  8
ASSI
100
AcDbLine
 62
7
  6
CONTINUOUS
 10
-7.2766626524
 20
23.5
 11
-8.25
 21
23.5
  0
LINE
  5
58B
100
AcDbEntity
  8
DRAFT
100
AcDbLine
 62
7
  6
CONTINUOUS
 10
-14.25
 20
23.5
 11
-15.2233373476
 21
23.5
  0
LINE
  5
58C
100
AcDbEntity
  8
ASSI
100
AcDbLine
 62
7
  6
CONTINUOUS
 10
-14.25
 20
23.5
 11
-15.2233373476
 21
23.5
  0
LINE
  5
58D
100
AcDbEntity
  8
DRAFT
100
AcDbLine
 62
7
  6
CONTINUOUS
 10
8.2441170282
 20
22.1805062352
 11
8.15
 21
22.1851643248
  0
LINE
  5
58E
100
AcDbEntity
  8
ASSI
100
AcDbLine
 62
7
  6
CONTINUOUS
 10
8.2441170282
 20
22.1805062352
 11
8.15
 21
22.1851643248
  0
LINE
  5
58F
100
AcDbEntity
  8
DRAFT
100
AcDbLine
 62
7
  6
CONTINUOUS
 10
18.2173756559
 20
18.867094756
 11
18.1551386093
 21
19.0173482781
  0
LINE
  5
590
100
AcDbEntity
  8
ASSI
100
AcDbLine
 62
7
  6
CONTINUOUS
 10
18.2173756559
 20
18.867094756
 11
18.1551386093
 21
19.0173482781
  0
LINE
  5
591
100
AcDbEntity
  8
DRAFT
100
AcDbLine
 62
7
  6
CONTINUOUS
 10
17.9830351795
 20
-18.8430942654
 11
17.8109317497
 21
-19.0173482781
  0
LINE
  5
592
100
AcDbEntity
  8
ASSI
100
AcDbLine
 62
7
  6
CONTINUOUS
 10
17.9830351795
 20
-18.8430942654
 11
17.8109317497
 21
-19.0173482781
  0
LINE
  5
593
100
AcDbEntity
  8
DRAFT
100
AcDbLine
 62
7
  6
CONTINUOUS
 10
17.9830351795
 20
-18.6327542795
 11
17.748694703
 21
-18.867094756
  0
LINE
  5
594
100
AcDbEntity
  8
ASSI
100
AcDbLine
 62
7
  6
CONTINUOUS
 10
17.9830351795
 20
-18.6327542795
 11
17.748694703
 21
-18.867094756
  0
LINE
  5
595
100
AcDbEntity
  8
DRAFT
100
AcDbLine
 62
7
  6
CONTINUOUS
 10
18.4721457668
 20
-19.0173482781
 11
18.7726756989
 21
-18.867094756
  0
LINE
  5
596
100
AcDbEntity
  8
ASSI
100
AcDbLine
 62
7
  6
CONTINUOUS
 10
18.4721457668
 20
-19.0173482781
 11
18.7726756989
 21
-18.867094756
  0
LINE
  5
597
100
AcDbEntity
  8
DRAFT
100
AcDbLine
 62
7
  6
CONTINUOUS
 10
-18.6330351795
 20
20.9
 11
-18.4864808301
 21
20.9320850844
  0
LINE
  5
598
100
AcDbEntity
  8
ASSI
100
AcDbLine
 62
7
  6
CONTINUOUS
 10
-18.6330351795
 20
20.9
 11
-18.4864808301
 21
20.9320850844
  0
LINE
  5
599
100
AcDbEntity
  8
DRAFT
100
AcDbLine
 62
7
  6
CONTINUOUS
 10
18.4864808301
 20
20.9320850844
 11
18.6330351795
 21
20.9
  0
LINE
  5
59A
100
AcDbEntity
  8
ASSI
100
AcDbLine
 62
7
  6
CONTINUOUS
 10
18.4864808301
 20
20.9320850844
 11
18.6330351795
 21
20.9
  0
LINE
  5
59B
100
AcDbEntity
  8
DRAFT
100
AcDbLine
 62
7
  6
CONTINUOUS
 10
18.7726756989
 20
18.867094756
 11
18.4721457668
 21
19.0173482781
  0
LINE
  5
59C
100
AcDbEntity
  8
ASSI
100
AcDbLine
 62
7
  6
CONTINUOUS
 10
18.7726756989
 20
18.867094756
 11
18.4721457668
 21
19.0173482781
  0
LINE
  5
59D
100
AcDbEntity
  8
DRAFT
100
AcDbLine
 62
7
  6
CONTINUOUS
 10
17.748694703
 20
18.867094756
 11
17.9830351795
 21
18.6327542795
  0
LINE
  5
59E
100
AcDbEntity
  8
ASSI
100
AcDbLine
 62
7
  6
CONTINUOUS
 10
17.748694703
 20
18.867094756
 11
17.9830351795
 21
18.6327542795
  0
LINE
  5
59F
100
AcDbEntity
  8
DRAFT
100
AcDbLine
 62
7
  6
CONTINUOUS
 10
17.8109317497
 20
19.0173482781
 11
17.9830351795
 21
18.8430942654
  0
LINE
  5
5A0
100
AcDbEntity
  8
ASSI
100
AcDbLine
 62
7
  6
CONTINUOUS
 10
17.8109317497
 20
19.0173482781
 11
17.9830351795
 21
18.8430942654
  0
LINE
  5
5A1
100
AcDbEntity
  8
DRAFT
100
AcDbLine
 62
7
  6
CONTINUOUS
 10
18.7726756989
 20
-20.7603594806
 11
18.6330351795
 21
-20.9
  0
LINE
  5
5A2
100
AcDbEntity
  8
ASSI
100
AcDbLine
 62
7
  6
CONTINUOUS
 10
18.7726756989
 20
-20.7603594806
 11
18.6330351795
 21
-20.9
  0
LINE
  5
5A3
100
AcDbEntity
  8
DRAFT
100
AcDbLine
 62
7
  6
CONTINUOUS
 10
18.7726756989
 20
20.7603594806
 11
18.6330351795
 21
20.9
  0
LINE
  5
5A4
100
AcDbEntity
  8
ASSI
100
AcDbLine
 62
7
  6
CONTINUOUS
 10
18.7726756989
 20
20.7603594806
 11
18.6330351795
 21
20.9
  0
ARC
  5
5A5
100
AcDbEntity
  8
DRAFT
100
AcDbCircle
 62
7
  6
CONTINUOUS
 10
-16.2
 20
-23.1
 40
0.5
100
AcDbArc
 50
355.3020088931
 51
114.6141323038
  0
ARC
  5
5A6
100
AcDbEntity
  8
ASSI
100
AcDbCircle
 62
7
  6
CONTINUOUS
 10
-16.2
 20
-23.1
 40
0.5
100
AcDbArc
 50
355.3020088931
 51
114.6141323038
  0
ARC
  5
5A7
100
AcDbEntity
  8
0
100
AcDbCircle
 62
7
  6
CONTINUOUS
 10
-6533.609178226
 20
11.6092166348
 40
6524.1026655684
100
AcDbArc
 50
359.8591789385
 51
359.9979838766
  0
ARC
  5
5A8
100
AcDbEntity
  8
0
100
AcDbCircle
 62
7
  6
CONTINUOUS
 10
-6506.4838854048
 20
11.5931500429
 40
6515.7294940044
100
AcDbArc
 50
359.8591392566
 51
359.9981589789
  0
ARC
  5
5A9
100
AcDbEntity
  8
0
100
AcDbCircle
 62
7
  6
CONTINUOUS
 10
-6250.1031787945
 20
11.3872112793
 40
6259.0031673831
100
AcDbArc
 50
359.8552457346
 51
0.0001170737
  0
ARC
  5
5AA
100
AcDbEntity
  8
0
100
AcDbCircle
 62
253
  6
CONTINUOUS
 10
-6256.3283467055
 20
11.3906550478
 40
6246.5719203684
100
AcDbArc
 50
359.8552695729
 51
0.0000857145
  0
ARC
  5
5AB
100
AcDbEntity
  8
0
100
AcDbCircle
 62
7
  6
CONTINUOUS
 10
-6061.307796251
 20
11.1869647316
 40
6070.3032414384
100
AcDbArc
 50
359.8529763801
 51
0.0020107763
  0
ARC
  5
5AC
100
AcDbEntity
  8
DRAFT
100
AcDbCircle
 62
7
  6
CONTINUOUS
 10
-22.5
 20
0.0
 40
28.0
100
AcDbArc
 50
302.9352304972
 51
304.1210936517
  0
ARC
  5
5AD
100
AcDbEntity
  8
DRAFT
100
AcDbCircle
 62
7
  6
CONTINUOUS
 10
-22.5
 20
-0.0
 40
28.0
100
AcDbArc
 50
55.8789063483
 51
57.0647695028
  0
ARC
  5
5AE
100
AcDbEntity
  8
DRAFT
100
AcDbCircle
 62
7
  6
CONTINUOUS
 10
-22.5
 20
-0.0
 40
28.0
100
AcDbArc
 50
48.2819495688
 51
54.0372348486
  0
ARC
  5
5AF
100
AcDbEntity
  8
DRAFT
100
AcDbCircle
 62
7
  6
CONTINUOUS
 10
-22.5
 20
0.0
 40
28.0
100
AcDbArc
 50
305.9627651514
 51
311.7180504312
  0
ARC
  5
5B0
100
AcDbEntity
  8
ASSI
100
AcDbCircle
 62
7
  6
CONTINUOUS
 10
-22.5
 20
0.0
 40
28.0
100
AcDbArc
 50
302.9352304972
 51
304.1210936517
  0
ARC
  5
5B1
100
AcDbEntity
  8
ASSI
100
AcDbCircle
 62
7
  6
CONTINUOUS
 10
-22.5
 20
-0.0
 40
28.0
100
AcDbArc
 50
55.8789063483
 51
57.0647695028
  0
ARC
  5
5B2
100
AcDbEntity
  8
ASSI
100
AcDbCircle
 62
7
  6
CONTINUOUS
 10
-22.5
 20
-0.0
 40
28.0
100
AcDbArc
 50
48.2819495688
 51
54.0372348486
  0
ARC
  5
5B3
100
AcDbEntity
  8
ASSI
100
AcDbCircle
 62
7
  6
CONTINUOUS
 10
-22.5
 20
0.0
 40
28.0
100
AcDbArc
 50
305.9627651514
 51
311.7180504312
  0
ARC
  5
5B4
100
AcDbEntity
  8
DRAFT
100
AcDbCircle
 62
7
  6
CONTINUOUS
 10
-22.5
 20
-0.0
 40
27.9650925288
100
AcDbArc
 50
49.2959255525
 51
54.0739558625
  0
ARC
  5
5B5
100
AcDbEntity
  8
DRAFT
100
AcDbCircle
 62
7
  6
CONTINUOUS
 10
-22.5
 20
-0.0
 40
27.9650925288
100
AcDbArc
 50
55.8421853344
 51
57.0436344285
  0
ARC
  5
5B6
100
AcDbEntity
  8
DRAFT
100
AcDbCircle
 62
7
  6
CONTINUOUS
 10
-22.5
 20
0.0
 40
27.9650925288
100
AcDbArc
 50
302.9563655715
 51
304.1578146656
  0
ARC
  5
5B7
100
AcDbEntity
  8
DRAFT
100
AcDbCircle
 62
7
  6
CONTINUOUS
 10
-22.5
 20
0.0
 40
27.9650925288
100
AcDbArc
 50
305.9260441375
 51
310.7040744475
  0
ARC
  5
5B8
100
AcDbEntity
  8
ASSI
100
AcDbCircle
 62
7
  6
CONTINUOUS
 10
-22.5
 20
-0.0
 40
27.9650925288
100
AcDbArc
 50
49.2959255525
 51
54.0739558625
  0
ARC
  5
5B9
100
AcDbEntity
  8
ASSI
100
AcDbCircle
 62
7
  6
CONTINUOUS
 10
-22.5
 20
-0.0
 40
27.9650925288
100
AcDbArc
 50
55.8421853344
 51
57.0436344285
  0
ARC
  5
5BA
100
AcDbEntity
  8
ASSI
100
AcDbCircle
 62
7
  6
CONTINUOUS
 10
-22.5
 20
0.0
 40
27.9650925288
100
AcDbArc
 50
302.9563655715
 51
304.1578146656
  0
ARC
  5
5BB
100
AcDbEntity
  8
ASSI
100
AcDbCircle
 62
7
  6
CONTINUOUS
 10
-22.5
 20
0.0
 40
27.9650925288
100
AcDbArc
 50
305.9260441375
 51
310.7040744475
  0
ARC
  5
5BC
100
AcDbEntity
  8
0
100
AcDbCircle
 62
7
  6
CONTINUOUS
 10
-15.2441857043
 20
-14.5168651784
 40
3.9674761314
100
AcDbArc
 50
179.9270965933
 51
180.0895856363
  0
ARC
  5
5BD
100
AcDbEntity
  8
0
100
AcDbCircle
 62
7
  6
CONTINUOUS
 10
-16.2152747025
 20
-13.6085374715
 40
3.9031236756
100
AcDbArc
 50
269.8855717839
 51
270.0379668091
  0
ARC
  5
5BE
100
AcDbEntity
  8
0
100
AcDbCircle
 62
253
  6
CONTINUOUS
 10
-16.1012589461
 20
-14.3981851556
 40
3.001454728
100
AcDbArc
 50
180.0413612474
 51
269.9529268286
  0
ARC
  5
5BF
100
AcDbEntity
  8
RACCORDO
100
AcDbCircle
 62
7
  6
CONTINUOUS
 10
-21.1000260797
 20
-18.1004784258
 40
0.1999895766
100
AcDbArc
 50
220.6692181972
 51
359.9552151674
  0
ARC
  5
5C0
100
AcDbEntity
  8
ASSI
100
AcDbCircle
 62
7
  6
CONTINUOUS
 10
-21.1000260797
 20
-18.1004784258
 40
0.1999895766
100
AcDbArc
 50
220.6692181972
 51
359.9552151674
  0
ARC
  5
5C1
100
AcDbEntity
  8
RACCORDO
100
AcDbCircle
 62
7
  6
CONTINUOUS
 10
-21.1262133446
 20
-18.029612284
 40
0.1999857846
100
AcDbArc
 50
220.5225691677
 51
359.957090057
  0
ARC
  5
5C2
100
AcDbEntity
  8
ASSI
100
AcDbCircle
 62
7
  6
CONTINUOUS
 10
-21.1262133446
 20
-18.029612284
 40
0.1999857846
100
AcDbArc
 50
220.5225691677
 51
359.957090057
  0
ARC
  5
5C3
100
AcDbEntity
  8
0
100
AcDbCircle
 62
7
  6
CONTINUOUS
 10
-361.2510068939
 20
12.1811334704
 40
370.1510031796
100
AcDbArc
 50
359.9913484707
 51
0.2759312502
  0
ARC
  5
5C4
100
AcDbEntity
  8
0
100
AcDbCircle
 62
253
  6
CONTINUOUS
 10
-331.6283780449
 20
14.4200011138
 40
321.7810697241
100
AcDbArc
 50
359.9965433446
 51
0.4614703122
  0
ARC
  5
5C5
100
AcDbEntity
  8
0
100
AcDbCircle
 62
7
  6
CONTINUOUS
 10
-145.6389325236
 20
14.2619500099
 40
154.8846000977
100
AcDbArc
 50
0.025537512
 51
0.6032122162
  0
ARC
  5
5C6
100
AcDbEntity
  8
0
100
AcDbCircle
 62
7
  6
CONTINUOUS
 10
-119.0421068176
 20
14.2808200322
 40
128.0377552457
100
AcDbArc
 50
359.9551923661
 51
0.7177330277
  0
ARC
  5
5C7
100
AcDbEntity
  8
0
100
AcDbCircle
 62
7
  6
CONTINUOUS
 10
-115.2174705803
 20
14.3404703822
 40
122.231113525
100
AcDbArc
 50
0.2984230008
 51
0.5920030496
  0
ARC
  5
5C8
100
AcDbEntity
  8
0
100
AcDbCircle
 62
7
  6
CONTINUOUS
 10
-15.313479539
 20
18.2368700344
 40
27.155664226
100
AcDbArc
 50
285.4048613458
 51
285.561352869
  0
ARC
  5
5C9
100
AcDbEntity
  8
0
100
AcDbCircle
 62
7
  6
CONTINUOUS
 10
-16.2150603795
 20
13.6012446467
 40
3.910416913
100
AcDbArc
 50
89.9534758302
 51
90.1172817813
  0
ARC
  5
5CA
100
AcDbEntity
  8
0
100
AcDbCircle
 62
7
  6
CONTINUOUS
 10
-15.3273944507
 20
14.5152717074
 40
3.8842667293
100
AcDbArc
 50
179.8849765089
 51
180.0389015115
  0
ARC
  5
5CB
100
AcDbEntity
  8
0
100
AcDbCircle
 62
253
  6
CONTINUOUS
 10
-16.1012589283
 20
14.3981851098
 40
3.0014547787
100
AcDbArc
 50
90.0470742634
 51
179.9547294427
  0
ARC
  5
5CC
100
AcDbEntity
  8
DRAFT
100
AcDbCircle
 62
7
  6
CONTINUOUS
 10
-16.2
 20
23.1
 40
0.5
100
AcDbArc
 50
245.3858676962
 51
4.6979911069
  0
ARC
  5
5CD
100
AcDbEntity
  8
ASSI
100
AcDbCircle
 62
7
  6
CONTINUOUS
 10
-16.2
 20
23.1
 40
0.5
100
AcDbArc
 50
245.3858676962
 51
4.6979911069
  0
ARC
  5
5CE
100
AcDbEntity
  8
RACCORDO
100
AcDbCircle
 62
7
  6
CONTINUOUS
 10
-21.1000282811
 20
18.1004789931
 40
0.1999897575
100
AcDbArc
 50
0.0446218561
 51
139.330494105
  0
ARC
  5
5CF
100
AcDbEntity
  8
ASSI
100
AcDbCircle
 62
7
  6
CONTINUOUS
 10
-21.1000282811
 20
18.1004789931
 40
0.1999897575
100
AcDbArc
 50
0.0446218561
 51
139.330494105
  0
ARC
  5
5D0
100
AcDbEntity
  8
RACCORDO
100
AcDbCircle
 62
7
  6
CONTINUOUS
 10
-21.1262029602
 20
18.0296084982
 40
0.1999857552
100
AcDbArc
 50
0.0439965967
 51
139.478539189
  0
ARC
  5
5D1
100
AcDbEntity
  8
ASSI
100
AcDbCircle
 62
7
  6
CONTINUOUS
 10
-21.1262029602
 20
18.0296084982
 40
0.1999857552
100
AcDbArc
 50
0.0439965967
 51
139.478539189
  0
ARC
  5
5D2
100
AcDbEntity
  8
0
100
AcDbCircle
 62
7
  6
CONTINUOUS
 10
3.0275000931
 20
-61.6520688493
 40
53.5429745116
100
AcDbArc
 50
89.0746815278
 51
90.0074366571
  0
ARC
  5
5D3
100
AcDbEntity
  8
0
100
AcDbCircle
 62
7
  6
CONTINUOUS
 10
-7.3724976512
 20
-61.651850121
 40
53.5427557754
100
AcDbArc
 50
89.0746801609
 51
90.007435934
  0
ARC
  5
5D4
100
AcDbEntity
  8
0
100
AcDbCircle
 62
7
  6
CONTINUOUS
 10
7.3505540807
 20
-58.91230765
 40
50.8032210788
100
AcDbArc
 50
89.9674117963
 51
90.9504695344
  0
ARC
  5
5D5
100
AcDbEntity
  8
0
100
AcDbCircle
 62
7
  6
CONTINUOUS
 10
-3.0494459318
 20
-58.9123067619
 40
50.8032201906
100
AcDbArc
 50
89.9674118145
 51
90.9504695374
  0
ARC
  5
5D6
100
AcDbEntity
  8
DRAFT
100
AcDbCircle
 62
7
  6
CONTINUOUS
 10
6.3
 20
-23.1
 40
0.5
100
AcDbArc
 50
355.3020088931
 51
114.6141323038
  0
ARC
  5
5D7
100
AcDbEntity
  8
DRAFT
100
AcDbCircle
 62
7
  6
CONTINUOUS
 10
16.2
 20
-23.1
 40
0.5
100
AcDbArc
 50
65.3858676962
 51
184.6979911069
  0
ARC
  5
5D8
100
AcDbEntity
  8
DRAFT
100
AcDbCircle
 62
7
  6
CONTINUOUS
 10
-6.3
 20
-23.1
 40
0.5
100
AcDbArc
 50
65.3858676962
 51
184.6979911069
  0
ARC
  5
5D9
100
AcDbEntity
  8
ASSI
100
AcDbCircle
 62
7
  6
CONTINUOUS
 10
6.3
 20
-23.1
 40
0.5
100
AcDbArc
 50
355.3020088931
 51
114.6141323038
  0
ARC
  5
5DA
100
AcDbEntity
  8
ASSI
100
AcDbCircle
 62
7
  6
CONTINUOUS
 10
16.2
 20
-23.1
 40
0.5
100
AcDbArc
 50
65.3858676962
 51
184.6979911069
  0
ARC
  5
5DB
100
AcDbEntity
  8
ASSI
100
AcDbCircle
 62
7
  6
CONTINUOUS
 10
-6.3
 20
-23.1
 40
0.5
100
AcDbArc
 50
65.3858676962
 51
184.6979911069
  0
ARC
  5
5DC
100
AcDbEntity
  8
RACCORDO
100
AcDbCircle
 62
7
  6
CONTINUOUS
 10
-3.9
 20
-19.6
 40
0.382905244
100
AcDbArc
 50
296.8054190002
 51
63.1945809998
  0
ARC
  5
5DD
100
AcDbEntity
  8
RACCORDO
100
AcDbCircle
 62
7
  6
CONTINUOUS
 10
3.9
 20
-19.6
 40
0.382905244
100
AcDbArc
 50
116.8054190002
 51
243.1945809998
  0
ARC
  5
5DE
100
AcDbEntity
  8
ASSI
100
AcDbCircle
 62
7
  6
CONTINUOUS
 10
-3.9
 20
-19.6
 40
0.382905244
100
AcDbArc
 50
26.8461550933
 51
63.1945809998
  0
ARC
  5
5DF
100
AcDbEntity
  8
ASSI
100
AcDbCircle
 62
7
  6
CONTINUOUS
 10
-3.9
 20
-19.6
 40
0.382905244
100
AcDbArc
 50
296.8054190002
 51
338.5605006257
  0
ARC
  5
5E0
100
AcDbEntity
  8
ASSI
100
AcDbCircle
 62
7
  6
CONTINUOUS
 10
3.9
 20
-19.6
 40
0.382905244
100
AcDbArc
 50
116.8054190002
 51
243.1945809998
  0
ARC
  5
5E1
100
AcDbEntity
  8
RACCORDO
100
AcDbCircle
 62
7
  6
CONTINUOUS
 10
3.8997966843
 20
-19.5980119705
 40
0.2276222695
100
AcDbArc
 50
89.9488135669
 51
270.0511855645
  0
ARC
  5
5E2
100
AcDbEntity
  8
ASSI
100
AcDbCircle
 62
7
  6
CONTINUOUS
 10
3.8997966843
 20
-19.5980119705
 40
0.2276222695
100
AcDbArc
 50
89.9488135669
 51
270.0511855645
  0
ARC
  5
5E3
100
AcDbEntity
  8
RACCORDO
100
AcDbCircle
 62
7
  6
CONTINUOUS
 10
-3.8997971503
 20
-19.5980145841
 40
0.2276221841
100
AcDbArc
 50
269.9489311726
 51
90.0510685211
  0
ARC
  5
5E4
100
AcDbEntity
  8
ASSI
100
AcDbCircle
 62
7
  6
CONTINUOUS
 10
-3.8997971503
 20
-19.5980145841
 40
0.2276221841
100
AcDbArc
 50
269.9489311726
 51
90.0510685211
  0
ARC
  5
5E5
100
AcDbEntity
  8
0
100
AcDbCircle
 62
7
  6
CONTINUOUS
 10
3.3422282327
 20
-15.8576280554
 40
9.1640250286
100
AcDbArc
 50
66.3346937578
 51
66.6081452695
  0
ARC
  5
5E6
100
AcDbEntity
  8
0
100
AcDbCircle
 62
7
  6
CONTINUOUS
 10
-6.7934349568
 20
-15.3289908132
 40
8.5796929175
100
AcDbArc
 50
65.6669715694
 51
66.8104384782
  0
ARC
  5
5E7
100
AcDbEntity
  8
0
100
AcDbCircle
 62
7
  6
CONTINUOUS
 10
-3.7034086273
 20
-15.1119554456
 40
8.3410067596
100
AcDbArc
 50
113.2586585594
 51
113.8514849906
  0
ARC
  5
5E8
100
AcDbEntity
  8
0
100
AcDbCircle
 62
7
  6
CONTINUOUS
 10
-4.079910511
 20
-15.0225330643
 40
8.1183057928
100
AcDbArc
 50
110.6711040815
 51
111.395922518
  0
ARC
  5
5E9
100
AcDbEntity
  8
0
100
AcDbCircle
 62
7
  6
CONTINUOUS
 10
-6.2369317112
 20
-14.7920163637
 40
7.8743810995
100
AcDbArc
 50
68.5500299613
 51
69.3193862329
  0
ARC
  5
5EA
100
AcDbEntity
  8
0
100
AcDbCircle
 62
7
  6
CONTINUOUS
 10
4.1324788927
 20
-14.7148879051
 40
7.8081336567
100
AcDbArc
 50
68.2811847222
 51
68.9864711599
  0
ARC
  5
5EB
100
AcDbEntity
  8
0
100
AcDbCircle
 62
7
  6
CONTINUOUS
 10
2.8196533979
 20
-12.8162569939
 40
4.8780553899
100
AcDbArc
 50
99.1298367264
 51
99.9633455959
  0
ARC
  5
5EC
100
AcDbEntity
  8
0
100
AcDbCircle
 62
7
  6
CONTINUOUS
 10
-2.7873623003
 20
-12.6156587518
 40
4.6749161833
100
AcDbArc
 50
80.0061199435
 51
80.8676499838
  0
ARC
  5
5ED
100
AcDbEntity
  8
0
100
AcDbCircle
 62
7
  6
CONTINUOUS
 10
2.2760456194
 20
-10.0149729368
 40
2.0240236411
100
AcDbArc
 50
102.9112871948
 51
104.4069396045
  0
ARC
  5
5EE
100
AcDbEntity
  8
0
100
AcDbCircle
 62
7
  6
CONTINUOUS
 10
-2.2725036135
 20
-10.0022154807
 40
2.0107889772
100
AcDbArc
 50
75.6000499872
 51
77.1190619946
  0
ARC
  5
5EF
100
AcDbEntity
  8
0
100
AcDbCircle
 62
7
  6
CONTINUOUS
 10
-14.0048995213
 20
-6.7620568134
 40
22.8592912891
100
AcDbArc
 50
357.9911941948
 51
358.1188642891
  0
ARC
  5
5F0
100
AcDbEntity
  8
0
100
AcDbCircle
 62
7
  6
CONTINUOUS
 10
-9.5942246723
 20
-7.7500024372
 40
0.25000154
100
AcDbArc
 50
180.0816614979
 51
268.1100505934
  0
ARC
  5
5F1
100
AcDbEntity
  8
0
100
AcDbCircle
 62
7
  6
CONTINUOUS
 10
-8.0050030934
 20
-7.9400745344
 40
0.2168831959
100
AcDbArc
 50
188.4324277523
 51
189.0171660902
  0
ARC
  5
5F2
100
AcDbEntity
  8
DRAFT
100
AcDbCircle
 62
7
  6
CONTINUOUS
 10
-11.25
 20
0.0
 40
8.5
100
AcDbArc
 50
159.6997589192
 51
177.3027318661
  0
ARC
  5
5F3
100
AcDbEntity
  8
DRAFT
100
AcDbCircle
 62
7
  6
CONTINUOUS
 10
-11.25
 20
0.0
 40
8.5
100
AcDbArc
 50
182.6972681339
 51
200.3002432163
  0
ARC
  5
5F4
100
AcDbEntity
  8
ASSI
100
AcDbCircle
 62
7
  6
CONTINUOUS
 10
-11.25
 20
0.0
 40
8.5
100
AcDbArc
 50
159.6997589192
 51
177.3027318661
  0
ARC
  5
5F5
100
AcDbEntity
  8
ASSI
100
AcDbCircle
 62
7
  6
CONTINUOUS
 10
-11.25
 20
0.0
 40
8.5
100
AcDbArc
 50
182.6972681339
 51
200.3002432163
  0
ARC
  5
5F6
100
AcDbEntity
  8
RACCORDO
100
AcDbCircle
 62
253
  6
CONTINUOUS
 10
-11.25
 20
0.0
 40
8.349612272
100
AcDbArc
 50
182.2294503462
 51
197.3012348932
  0
ARC
  5
5F7
100
AcDbEntity
  8
RACCORDO
100
AcDbCircle
 62
253
  6
CONTINUOUS
 10
-11.25
 20
0.0
 40
8.349612272
100
AcDbArc
 50
162.6987793378
 51
177.7705496538
  0
ARC
  5
5F8
100
AcDbEntity
  8
ASSI
100
AcDbCircle
 62
253
  6
CONTINUOUS
 10
-11.25
 20
0.0
 40
8.349612272
100
AcDbArc
 50
182.2294503462
 51
197.3012348932
  0
ARC
  5
5F9
100
AcDbEntity
  8
ASSI
100
AcDbCircle
 62
253
  6
CONTINUOUS
 10
-11.25
 20
0.0
 40
8.349612272
100
AcDbArc
 50
162.6987793378
 51
177.7705496538
  0
ARC
  5
5FA
100
AcDbEntity
  8
0
100
AcDbCircle
 62
7
  6
CONTINUOUS
 10
-7.7198237911
 20
-3.8099363639
 40
4.1906490812
100
AcDbArc
 50
249.5802601098
 51
254.6783387828
  0
ARC
  5
5FB
100
AcDbEntity
  8
DRAFT
100
AcDbCircle
 62
7
  6
CONTINUOUS
 10
-0.0
 20
0.0
 40
28.0
100
AcDbArc
 50
235.8789063483
 51
237.0647695028
  0
ARC
  5
5FC
100
AcDbEntity
  8
DRAFT
100
AcDbCircle
 62
7
  6
CONTINUOUS
 10
-0.0
 20
0.0
 40
28.0
100
AcDbArc
 50
122.9352304972
 51
124.1210936517
  0
ARC
  5
5FD
100
AcDbEntity
  8
DRAFT
100
AcDbCircle
 62
7
  6
CONTINUOUS
 10
-0.0
 20
0.0
 40
28.0
100
AcDbArc
 50
302.9352304972
 51
304.1210936517
  0
ARC
  5
5FE
100
AcDbEntity
  8
DRAFT
100
AcDbCircle
 62
7
  6
CONTINUOUS
 10
-0.0
 20
0.0
 40
28.0
100
AcDbArc
 50
55.8789063483
 51
57.0647695028
  0
ARC
  5
5FF
100
AcDbEntity
  8
DRAFT
100
AcDbCircle
 62
7
  6
CONTINUOUS
 10
-0.0
 20
0.0
 40
28.0
100
AcDbArc
 50
125.9627651514
 51
131.7180504312
  0
ARC
  5
600
100
AcDbEntity
  8
RACCORDO
100
AcDbCircle
 62
7
  6
CONTINUOUS
 10
-0.0
 20
0.0
 40
28.0
100
AcDbArc
 50
37.5714323886
 51
40.6246834582
  0
ARC
  5
601
100
AcDbEntity
  8
DRAFT
100
AcDbCircle
 62
7
  6
CONTINUOUS
 10
-0.0
 20
0.0
 40
28.0
100
AcDbArc
 50
48.2819495688
 51
54.0372348486
  0
ARC
  5
602
100
AcDbEntity
  8
RACCORDO
100
AcDbCircle
 62
7
  6
CONTINUOUS
 10
-0.0
 20
0.0
 40
28.0
100
AcDbArc
 50
319.3753165418
 51
322.4285676114
  0
ARC
  5
603
100
AcDbEntity
  8
DRAFT
100
AcDbCircle
 62
7
  6
CONTINUOUS
 10
-0.0
 20
0.0
 40
28.0
100
AcDbArc
 50
305.9627651514
 51
311.7180504312
  0
ARC
  5
604
100
AcDbEntity
  8
RACCORDO
100
AcDbCircle
 62
7
  6
CONTINUOUS
 10
-0.0
 20
0.0
 40
28.0
100
AcDbArc
 50
217.5714323886
 51
220.6246834582
  0
ARC
  5
605
100
AcDbEntity
  8
DRAFT
100
AcDbCircle
 62
7
  6
CONTINUOUS
 10
-0.0
 20
0.0
 40
28.0
100
AcDbArc
 50
228.2819495688
 51
234.0372348486
  0
ARC
  5
606
100
AcDbEntity
  8
RACCORDO
100
AcDbCircle
 62
7
  6
CONTINUOUS
 10
-0.0
 20
0.0
 40
28.0
100
AcDbArc
 50
139.3753165418
 51
142.4285676114
  0
ARC
  5
607
100
AcDbEntity
  8
ASSI
100
AcDbCircle
 62
7
  6
CONTINUOUS
 10
-0.0
 20
0.0
 40
28.0
100
AcDbArc
 50
235.8789063483
 51
237.0647695028
  0
ARC
  5
608
100
AcDbEntity
  8
ASSI
100
AcDbCircle
 62
7
  6
CONTINUOUS
 10
-0.0
 20
0.0
 40
28.0
100
AcDbArc
 50
122.9352304972
 51
124.1210936517
  0
ARC
  5
609
100
AcDbEntity
  8
ASSI
100
AcDbCircle
 62
7
  6
CONTINUOUS
 10
-0.0
 20
0.0
 40
28.0
100
AcDbArc
 50
302.9352304972
 51
304.1210936517
  0
ARC
  5
60A
100
AcDbEntity
  8
ASSI
100
AcDbCircle
 62
7
  6
CONTINUOUS
 10
-0.0
 20
0.0
 40
28.0
100
AcDbArc
 50
55.8789063483
 51
57.0647695028
  0
ARC
  5
60B
100
AcDbEntity
  8
ASSI
100
AcDbCircle
 62
7
  6
CONTINUOUS
 10
-0.0
 20
0.0
 40
28.0
100
AcDbArc
 50
228.2819495688
 51
234.0372348486
  0
ARC
  5
60C
100
AcDbEntity
  8
ASSI
100
AcDbCircle
 62
7
  6
CONTINUOUS
 10
-0.0
 20
0.0
 40
28.0
100
AcDbArc
 50
139.3753165418
 51
142.4285676114
  0
ARC
  5
60D
100
AcDbEntity
  8
ASSI
100
AcDbCircle
 62
7
  6
CONTINUOUS
 10
-0.0
 20
0.0
 40
28.0
100
AcDbArc
 50
125.9627651514
 51
131.7180504312
  0
ARC
  5
60E
100
AcDbEntity
  8
ASSI
100
AcDbCircle
 62
7
  6
CONTINUOUS
 10
-0.0
 20
0.0
 40
28.0
100
AcDbArc
 50
37.5714323886
 51
40.6246834582
  0
ARC
  5
60F
100
AcDbEntity
  8
ASSI
100
AcDbCircle
 62
7
  6
CONTINUOUS
 10
-0.0
 20
0.0
 40
28.0
100
AcDbArc
 50
48.2819495688
 51
54.0372348486
  0
ARC
  5
610
100
AcDbEntity
  8
ASSI
100
AcDbCircle
 62
7
  6
CONTINUOUS
 10
-0.0
 20
0.0
 40
28.0
100
AcDbArc
 50
319.3753165418
 51
322.4285676114
  0
ARC
  5
611
100
AcDbEntity
  8
ASSI
100
AcDbCircle
 62
7
  6
CONTINUOUS
 10
-0.0
 20
0.0
 40
28.0
100
AcDbArc
 50
305.9627651514
 51
311.7180504312
  0
ARC
  5
612
100
AcDbEntity
  8
ASSI
100
AcDbCircle
 62
7
  6
CONTINUOUS
 10
-0.0
 20
0.0
 40
28.0
100
AcDbArc
 50
217.5714323886
 51
220.6246834582
  0
ARC
  5
613
100
AcDbEntity
  8
RACCORDO
100
AcDbCircle
 62
7
  6
CONTINUOUS
 10
-0.0
 20
0.0
 40
27.9738174026
100
AcDbArc
 50
319.5214537946
 51
322.4096543117
  0
ARC
  5
614
100
AcDbEntity
  8
RACCORDO
100
AcDbCircle
 62
7
  6
CONTINUOUS
 10
-0.0
 20
0.0
 40
27.9738174026
100
AcDbArc
 50
37.5903456883
 51
40.4785462054
  0
ARC
  5
615
100
AcDbEntity
  8
RACCORDO
100
AcDbCircle
 62
7
  6
CONTINUOUS
 10
-0.0
 20
0.0
 40
27.9738174026
100
AcDbArc
 50
139.5214537946
 51
142.4096543117
  0
ARC
  5
616
100
AcDbEntity
  8
RACCORDO
100
AcDbCircle
 62
7
  6
CONTINUOUS
 10
-0.0
 20
0.0
 40
27.9738174026
100
AcDbArc
 50
217.5903456883
 51
220.4785462054
  0
ARC
  5
617
100
AcDbEntity
  8
ASSI
100
AcDbCircle
 62
7
  6
CONTINUOUS
 10
-0.0
 20
0.0
 40
27.9738174026
100
AcDbArc
 50
319.5214537946
 51
322.4096543117
  0
ARC
  5
618
100
AcDbEntity
  8
ASSI
100
AcDbCircle
 62
7
  6
CONTINUOUS
 10
-0.0
 20
0.0
 40
27.9738174026
100
AcDbArc
 50
37.5903456883
 51
40.4785462054
  0
ARC
  5
619
100
AcDbEntity
  8
ASSI
100
AcDbCircle
 62
7
  6
CONTINUOUS
 10
-0.0
 20
0.0
 40
27.9738174026
100
AcDbArc
 50
139.5214537946
 51
142.4096543117
  0
ARC
  5
61A
100
AcDbEntity
  8
ASSI
100
AcDbCircle
 62
7
  6
CONTINUOUS
 10
-0.0
 20
0.0
 40
27.9738174026
100
AcDbArc
 50
217.5903456883
 51
220.4785462054
  0
ARC
  5
61B
100
AcDbEntity
  8
DRAFT
100
AcDbCircle
 62
7
  6
CONTINUOUS
 10
-0.0
 20
0.0
 40
27.9650925288
100
AcDbArc
 50
125.9260441375
 51
130.7040744475
  0
ARC
  5
61C
100
AcDbEntity
  8
DRAFT
100
AcDbCircle
 62
7
  6
CONTINUOUS
 10
-0.0
 20
0.0
 40
27.9650925288
100
AcDbArc
 50
122.9563655715
 51
124.1578146656
  0
ARC
  5
61D
100
AcDbEntity
  8
DRAFT
100
AcDbCircle
 62
7
  6
CONTINUOUS
 10
-0.0
 20
0.0
 40
27.9650925288
100
AcDbArc
 50
235.8421853344
 51
237.0436344285
  0
ARC
  5
61E
100
AcDbEntity
  8
DRAFT
100
AcDbCircle
 62
7
  6
CONTINUOUS
 10
-0.0
 20
0.0
 40
27.9650925288
100
AcDbArc
 50
229.2959255525
 51
234.0739558625
  0
ARC
  5
61F
100
AcDbEntity
  8
DRAFT
100
AcDbCircle
 62
7
  6
CONTINUOUS
 10
-0.0
 20
0.0
 40
27.9650925288
100
AcDbArc
 50
49.2959255525
 51
54.0739558625
  0
ARC
  5
620
100
AcDbEntity
  8
DRAFT
100
AcDbCircle
 62
7
  6
CONTINUOUS
 10
-0.0
 20
0.0
 40
27.9650925288
100
AcDbArc
 50
55.8421853344
 51
57.0436344285
  0
ARC
  5
621
100
AcDbEntity
  8
DRAFT
100
AcDbCircle
 62
7
  6
CONTINUOUS
 10
-0.0
 20
0.0
 40
27.9650925288
100
AcDbArc
 50
302.9563655715
 51
304.1578146656
  0
ARC
  5
622
100
AcDbEntity
  8
DRAFT
100
AcDbCircle
 62
7
  6
CONTINUOUS
 10
-0.0
 20
0.0
 40
27.9650925288
100
AcDbArc
 50
305.9260441375
 51
310.7040744475
  0
ARC
  5
623
100
AcDbEntity
  8
ASSI
100
AcDbCircle
 62
7
  6
CONTINUOUS
 10
-0.0
 20
0.0
 40
27.9650925288
100
AcDbArc
 50
235.8421853344
 51
237.0436344285
  0
ARC
  5
624
100
AcDbEntity
  8
ASSI
100
AcDbCircle
 62
7
  6
CONTINUOUS
 10
-0.0
 20
0.0
 40
27.9650925288
100
AcDbArc
 50
229.2959255525
 51
234.0739558625
  0
ARC
  5
625
100
AcDbEntity
  8
ASSI
100
AcDbCircle
 62
7
  6
CONTINUOUS
 10
-0.0
 20
0.0
 40
27.9650925288
100
AcDbArc
 50
49.2959255525
 51
54.0739558625
  0
ARC
  5
626
100
AcDbEntity
  8
ASSI
100
AcDbCircle
 62
7
  6
CONTINUOUS
 10
-0.0
 20
0.0
 40
27.9650925288
100
AcDbArc
 50
55.8421853344
 51
57.0436344285
  0
ARC
  5
627
100
AcDbEntity
  8
ASSI
100
AcDbCircle
 62
7
  6
CONTINUOUS
 10
-0.0
 20
0.0
 40
27.9650925288
100
AcDbArc
 50
302.9563655715
 51
304.1578146656
  0
ARC
  5
628
100
AcDbEntity
  8
ASSI
100
AcDbCircle
 62
7
  6
CONTINUOUS
 10
-0.0
 20
0.0
 40
27.9650925288
100
AcDbArc
 50
305.9260441375
 51
310.7040744475
  0
ARC
  5
629
100
AcDbEntity
  8
ASSI
100
AcDbCircle
 62
7
  6
CONTINUOUS
 10
-0.0
 20
0.0
 40
27.9650925288
100
AcDbArc
 50
125.9260441375
 51
130.7040744475
  0
ARC
  5
62A
100
AcDbEntity
  8
ASSI
100
AcDbCircle
 62
7
  6
CONTINUOUS
 10
-0.0
 20
0.0
 40
27.9650925288
100
AcDbArc
 50
122.9563655715
 51
124.1578146656
  0
ARC
  5
62B
100
AcDbEntity
  8
0
100
AcDbCircle
 62
7
  6
CONTINUOUS
 10
-0.0000140904
 20
-1.4785751143
 40
3.2816715533
100
AcDbArc
 50
243.9036337357
 51
296.096811969
  0
ARC
  5
62C
100
AcDbEntity
  8
0
100
AcDbCircle
 62
7
  6
CONTINUOUS
 10
0.0000529847
 20
-1.4884417695
 40
3.2760473699
100
AcDbArc
 50
359.7977445021
 51
180.2051655938
  0
ARC
  5
62D
100
AcDbEntity
  8
0
100
AcDbCircle
 62
7
  6
CONTINUOUS
 10
-0.0008214462
 20
-1.485678327
 40
3.274957763
100
AcDbArc
 50
180.2535666999
 51
243.8615877005
  0
ARC
  5
62E
100
AcDbEntity
  8
0
100
AcDbCircle
 62
7
  6
CONTINUOUS
 10
0.0000089309
 20
-1.4778345852
 40
3.2736676199
100
AcDbArc
 50
242.8087323685
 51
297.190989558
  0
ARC
  5
62F
100
AcDbEntity
  8
0
100
AcDbCircle
 62
7
  6
CONTINUOUS
 10
0.0023557698
 20
-1.4865511831
 40
3.2734152458
100
AcDbArc
 50
296.121037663
 51
359.7645102283
  0
ARC
  5
630
100
AcDbEntity
  8
0
100
AcDbCircle
 62
7
  6
CONTINUOUS
 10
0.0000027729
 20
-1.4883459506
 40
3.2673902762
100
AcDbArc
 50
359.7955282242
 51
180.206650181
  0
ARC
  5
631
100
AcDbEntity
  8
0
100
AcDbCircle
 62
7
  6
CONTINUOUS
 10
-0.0001435503
 20
-1.4852862736
 40
3.2671125865
100
AcDbArc
 50
180.260318262
 51
242.751391484
  0
ARC
  5
632
100
AcDbEntity
  8
0
100
AcDbCircle
 62
7
  6
CONTINUOUS
 10
0.0025819285
 20
-1.4866385744
 40
3.2646216384
100
AcDbArc
 50
297.2214292123
 51
359.7653999747
  0
CIRCLE
  5
633
100
AcDbEntity
  8
0
100
AcDbCircle
 62
7
  6
CONTINUOUS
 10
0.0
 20
-1.5
 40
2.65
  0
ARC
  5
634
100
AcDbEntity
  8
0
100
AcDbCircle
 62
253
  6
CONTINUOUS
 10
0.0
 20
-1.5
 40
1.85
100
AcDbArc
 50
172.3550326257
 51
322.5996202025
  0
ARC
  5
635
100
AcDbEntity
  8
0
100
AcDbCircle
 62
253
  6
CONTINUOUS
 10
0.0
 20
-1.5
 40
1.85
100
AcDbArc
 50
352.3550326256
 51
142.5996202025
  0
ARC
  5
636
100
AcDbEntity
  8
0
100
AcDbCircle
 62
7
  6
CONTINUOUS
 10
6.9370086386
 20
-15.6923301677
 40
8.9649679502
100
AcDbArc
 50
113.1562499236
 51
114.2145904176
  0
ARC
  5
637
100
AcDbEntity
  8
0
100
AcDbCircle
 62
7
  6
CONTINUOUS
 10
6.4443563103
 20
-15.3237748995
 40
8.4393825481
100
AcDbArc
 50
110.8013581353
 51
111.572347233
  0
ARC
  5
638
100
AcDbEntity
  8
0
100
AcDbCircle
 62
7
  6
CONTINUOUS
 10
15.2856245753
 20
-14.5168111124
 40
3.9260374459
100
AcDbArc
 50
359.9086157692
 51
0.0751748595
  0
ARC
  5
639
100
AcDbEntity
  8
0
100
AcDbCircle
 62
7
  6
CONTINUOUS
 10
16.2152579001
 20
-13.6085369385
 40
3.9031241975
100
AcDbArc
 50
269.9622798346
 51
270.1145932841
  0
ARC
  5
63A
100
AcDbEntity
  8
0
100
AcDbCircle
 62
253
  6
CONTINUOUS
 10
16.1012587274
 20
-14.3981849135
 40
3.0014547705
100
AcDbArc
 50
270.047077344
 51
359.955373702
  0
ARC
  5
63B
100
AcDbEntity
  8
0
100
AcDbCircle
 62
7
  6
CONTINUOUS
 10
16.2131383865
 20
-14.5131385712
 40
2.998505688
100
AcDbArc
 50
270.1896636303
 51
359.8102443738
  0
ARC
  5
63C
100
AcDbEntity
  8
RACCORDO
100
AcDbCircle
 62
7
  6
CONTINUOUS
 10
21.1000282782
 20
-18.1004789045
 40
0.1999898219
100
AcDbArc
 50
180.0446472126
 51
319.3304754108
  0
ARC
  5
63D
100
AcDbEntity
  8
ASSI
100
AcDbCircle
 62
7
  6
CONTINUOUS
 10
21.1000282782
 20
-18.1004789045
 40
0.1999898219
100
AcDbArc
 50
180.0446472126
 51
319.3304754108
  0
ARC
  5
63E
100
AcDbEntity
  8
RACCORDO
100
AcDbCircle
 62
7
  6
CONTINUOUS
 10
21.1262029618
 20
-18.0296084984
 40
0.1999857554
100
AcDbArc
 50
180.0439965503
 51
319.4785389225
  0
ARC
  5
63F
100
AcDbEntity
  8
ASSI
100
AcDbCircle
 62
7
  6
CONTINUOUS
 10
21.1262029618
 20
-18.0296084984
 40
0.1999857554
100
AcDbArc
 50
180.0439965503
 51
319.4785389225
  0
ARC
  5
640
100
AcDbEntity
  8
0
100
AcDbCircle
 62
7
  6
CONTINUOUS
 10
9.5942265869
 20
-7.7500058677
 40
0.2499994332
100
AcDbArc
 50
270.0231514442
 51
359.9191113863
  0
ARC
  5
641
100
AcDbEntity
  8
0
100
AcDbCircle
 62
253
  6
CONTINUOUS
 10
9.5964832039
 20
-7.7646257516
 40
0.2414317423
100
AcDbArc
 50
276.1233821186
 51
288.263784272
  0
ARC
  5
642
100
AcDbEntity
  8
0
100
AcDbCircle
 62
253
  6
CONTINUOUS
 10
9.5971869462
 20
-7.7691915254
 40
0.2368170461
100
AcDbArc
 50
270.0348158865
 51
276.0719220408
  0
ARC
  5
643
100
AcDbEntity
  8
DRAFT
100
AcDbCircle
 62
7
  6
CONTINUOUS
 10
11.25
 20
-0.0
 40
8.5
100
AcDbArc
 50
2.6972681339
 51
20.3002602025
  0
ARC
  5
644
100
AcDbEntity
  8
DRAFT
100
AcDbCircle
 62
7
  6
CONTINUOUS
 10
11.25
 20
-0.0
 40
8.5
100
AcDbArc
 50
339.6997361035
 51
357.3027318661
  0
ARC
  5
645
100
AcDbEntity
  8
ASSI
100
AcDbCircle
 62
7
  6
CONTINUOUS
 10
11.25
 20
-0.0
 40
8.5
100
AcDbArc
 50
2.6972681339
 51
20.3002602025
  0
ARC
  5
646
100
AcDbEntity
  8
ASSI
100
AcDbCircle
 62
7
  6
CONTINUOUS
 10
11.25
 20
-0.0
 40
8.5
100
AcDbArc
 50
339.6997361035
 51
357.3027318661
  0
ARC
  5
647
100
AcDbEntity
  8
RACCORDO
100
AcDbCircle
 62
253
  6
CONTINUOUS
 10
11.25
 20
-0.0
 40
8.349612272
100
AcDbArc
 50
342.6987539666
 51
357.7705496538
  0
ARC
  5
648
100
AcDbEntity
  8
RACCORDO
100
AcDbCircle
 62
253
  6
CONTINUOUS
 10
11.25
 20
-0.0
 40
8.349612272
100
AcDbArc
 50
2.2294503462
 51
17.3012546924
  0
ARC
  5
649
100
AcDbEntity
  8
ASSI
100
AcDbCircle
 62
253
  6
CONTINUOUS
 10
11.25
 20
-0.0
 40
8.349612272
100
AcDbArc
 50
342.6987539666
 51
357.7705496538
  0
ARC
  5
64A
100
AcDbEntity
  8
ASSI
100
AcDbCircle
 62
253
  6
CONTINUOUS
 10
11.25
 20
-0.0
 40
8.349612272
100
AcDbArc
 50
2.2294503462
 51
17.3012546924
  0
ARC
  5
64B
100
AcDbEntity
  8
0
100
AcDbCircle
 62
7
  6
CONTINUOUS
 10
7.7143011867
 20
-3.7927994463
 40
4.2086368283
100
AcDbArc
 50
285.3325243202
 51
290.4027526013
  0
ARC
  5
64C
100
AcDbEntity
  8
0
100
AcDbCircle
 62
7
  6
CONTINUOUS
 10
5.5016519766
 20
-2.1224373623
 40
0.2483482069
100
AcDbArc
 50
0.0696354516
 51
18.1165857263
  0
ARC
  5
64D
100
AcDbEntity
  8
0
100
AcDbCircle
 62
7
  6
CONTINUOUS
 10
6.4955460546
 20
-2.1221924358
 40
0.2455460616
100
AcDbArc
 50
173.7858224609
 51
179.9863341505
  0
ARC
  5
64E
100
AcDbEntity
  8
0
100
AcDbCircle
 62
7
  6
CONTINUOUS
 10
14.0048175463
 20
-6.7620596237
 40
22.859209266
100
AcDbArc
 50
181.8811411852
 51
182.0088061153
  0
ARC
  5
64F
100
AcDbEntity
  8
DRAFT
100
AcDbCircle
 62
7
  6
CONTINUOUS
 10
22.5
 20
0.0
 40
28.0
100
AcDbArc
 50
235.8789063483
 51
237.0647695028
  0
ARC
  5
650
100
AcDbEntity
  8
DRAFT
100
AcDbCircle
 62
7
  6
CONTINUOUS
 10
22.5
 20
-0.0
 40
28.0
100
AcDbArc
 50
122.9352304972
 51
124.1210936517
  0
ARC
  5
651
100
AcDbEntity
  8
DRAFT
100
AcDbCircle
 62
7
  6
CONTINUOUS
 10
22.5
 20
0.0
 40
28.0
100
AcDbArc
 50
228.2819495688
 51
234.0372348486
  0
ARC
  5
652
100
AcDbEntity
  8
DRAFT
100
AcDbCircle
 62
7
  6
CONTINUOUS
 10
22.5
 20
-0.0
 40
28.0
100
AcDbArc
 50
125.9627651514
 51
131.7180504312
  0
ARC
  5
653
100
AcDbEntity
  8
ASSI
100
AcDbCircle
 62
7
  6
CONTINUOUS
 10
22.5
 20
0.0
 40
28.0
100
AcDbArc
 50
235.8789063483
 51
237.0647695028
  0
ARC
  5
654
100
AcDbEntity
  8
ASSI
100
AcDbCircle
 62
7
  6
CONTINUOUS
 10
22.5
 20
-0.0
 40
28.0
100
AcDbArc
 50
122.9352304972
 51
124.1210936517
  0
ARC
  5
655
100
AcDbEntity
  8
ASSI
100
AcDbCircle
 62
7
  6
CONTINUOUS
 10
22.5
 20
0.0
 40
28.0
100
AcDbArc
 50
228.2819495688
 51
234.0372348486
  0
ARC
  5
656
100
AcDbEntity
  8
ASSI
100
AcDbCircle
 62
7
  6
CONTINUOUS
 10
22.5
 20
-0.0
 40
28.0
100
AcDbArc
 50
125.9627651514
 51
131.7180504312
  0
ARC
  5
657
100
AcDbEntity
  8
DRAFT
100
AcDbCircle
 62
7
  6
CONTINUOUS
 10
22.5
 20
-0.0
 40
27.9650925288
100
AcDbArc
 50
125.9260441375
 51
130.7040744475
  0
ARC
  5
658
100
AcDbEntity
  8
DRAFT
100
AcDbCircle
 62
7
  6
CONTINUOUS
 10
22.5
 20
-0.0
 40
27.9650925288
100
AcDbArc
 50
122.9563655715
 51
124.1578146656
  0
ARC
  5
659
100
AcDbEntity
  8
DRAFT
100
AcDbCircle
 62
7
  6
CONTINUOUS
 10
22.5
 20
0.0
 40
27.9650925288
100
AcDbArc
 50
235.8421853344
 51
237.0436344285
  0
ARC
  5
65A
100
AcDbEntity
  8
DRAFT
100
AcDbCircle
 62
7
  6
CONTINUOUS
 10
22.5
 20
0.0
 40
27.9650925288
100
AcDbArc
 50
229.2959255525
 51
234.0739558625
  0
ARC
  5
65B
100
AcDbEntity
  8
ASSI
100
AcDbCircle
 62
7
  6
CONTINUOUS
 10
22.5
 20
-0.0
 40
27.9650925288
100
AcDbArc
 50
125.9260441375
 51
130.7040744475
  0
ARC
  5
65C
100
AcDbEntity
  8
ASSI
100
AcDbCircle
 62
7
  6
CONTINUOUS
 10
22.5
 20
-0.0
 40
27.9650925288
100
AcDbArc
 50
122.9563655715
 51
124.1578146656
  0
ARC
  5
65D
100
AcDbEntity
  8
ASSI
100
AcDbCircle
 62
7
  6
CONTINUOUS
 10
22.5
 20
0.0
 40
27.9650925288
100
AcDbArc
 50
235.8421853344
 51
237.0436344285
  0
ARC
  5
65E
100
AcDbEntity
  8
ASSI
100
AcDbCircle
 62
7
  6
CONTINUOUS
 10
22.5
 20
0.0
 40
27.9650925288
100
AcDbArc
 50
229.2959255525
 51
234.0739558625
  0
ARC
  5
65F
100
AcDbEntity
  8
0
100
AcDbCircle
 62
7
  6
CONTINUOUS
 10
16.2150480053
 20
13.6012988319
 40
3.9103627178
100
AcDbArc
 50
89.8824692515
 51
90.0463439116
  0
ARC
  5
660
100
AcDbEntity
  8
0
100
AcDbCircle
 62
7
  6
CONTINUOUS
 10
-4.000250787
 20
13.631529812
 40
3.0181300007
100
AcDbArc
 50
227.679211809
 51
270.0047609575
  0
ARC
  5
661
100
AcDbEntity
  8
0
100
AcDbCircle
 62
7
  6
CONTINUOUS
 10
4.0003553383
 20
13.6360846696
 40
3.013706562
100
AcDbArc
 50
312.0998841827
 51
359.9518909268
  0
ARC
  5
662
100
AcDbEntity
  8
0
100
AcDbCircle
 62
7
  6
CONTINUOUS
 10
-4.0159327357
 20
13.622504781
 40
2.9998400538
100
AcDbArc
 50
179.7760650334
 51
209.9415649655
  0
ARC
  5
663
100
AcDbEntity
  8
0
100
AcDbCircle
 62
7
  6
CONTINUOUS
 10
4.0195690687
 20
13.6207398081
 40
2.9959840784
100
AcDbArc
 50
330.0526688321
 51
0.2579003127
  0
ARC
  5
664
100
AcDbEntity
  8
0
100
AcDbCircle
 62
7
  6
CONTINUOUS
 10
-4.0346876351
 20
13.6031374093
 40
2.9739310761
100
AcDbArc
 50
209.7985857768
 51
227.8015096828
  0
ARC
  5
665
100
AcDbEntity
  8
0
100
AcDbCircle
 62
7
  6
CONTINUOUS
 10
-4.0
 20
13.65
 40
2.8
100
AcDbArc
 50
210.7893371912
 51
270.0
  0
ARC
  5
666
100
AcDbEntity
  8
0
100
AcDbCircle
 62
7
  6
CONTINUOUS
 10
4.0
 20
13.65
 40
2.8
100
AcDbArc
 50
270.0
 51
329.2344321726
  0
ARC
  5
667
100
AcDbEntity
  8
0
100
AcDbCircle
 62
7
  6
CONTINUOUS
 10
2.1994796476
 20
4.724347004
 40
1.5000648051
100
AcDbArc
 50
179.9623225452
 51
269.9962312641
  0
ARC
  5
668
100
AcDbEntity
  8
0
100
AcDbCircle
 62
7
  6
CONTINUOUS
 10
-0.4229987674
 20
4.724347004
 40
1.500064805
100
AcDbArc
 50
179.9623225433
 51
269.9962312659
  0
ARC
  5
669
100
AcDbEntity
  8
0
100
AcDbCircle
 62
7
  6
CONTINUOUS
 10
2.2010543563
 20
4.7269893874
 40
1.2014035532
100
AcDbArc
 50
90.0798106318
 51
172.8947650398
  0
ARC
  5
66A
100
AcDbEntity
  8
0
100
AcDbCircle
 62
7
  6
CONTINUOUS
 10
2.2002095561
 20
4.7536168122
 40
1.2005973862
100
AcDbArc
 50
188.5165851057
 51
269.9604545663
  0
ARC
  5
66B
100
AcDbEntity
  8
0
100
AcDbCircle
 62
7
  6
CONTINUOUS
 10
-0.4228317449
 20
4.7244691935
 40
1.2002216471
100
AcDbArc
 50
179.9581389338
 51
269.9873162666
  0
ARC
  5
66C
100
AcDbEntity
  8
0
100
AcDbCircle
 62
7
  6
CONTINUOUS
 10
-0.4227529223
 20
4.7532345227
 40
1.2001834201
100
AcDbArc
 50
182.4856725019
 51
269.9835522041
  0
ARC
  5
66D
100
AcDbEntity
  8
0
100
AcDbCircle
 62
7
  6
CONTINUOUS
 10
2.1995345187
 20
4.724288673
 40
1.2000296587
100
AcDbArc
 50
187.1413508452
 51
269.9926691289
  0
ARC
  5
66E
100
AcDbEntity
  8
0
100
AcDbCircle
 62
7
  6
CONTINUOUS
 10
15.307341246
 20
14.5171640239
 40
3.904319678
100
AcDbArc
 50
359.9343184106
 51
0.0866341411
  0
ARC
  5
66F
100
AcDbEntity
  8
0
100
AcDbCircle
 62
253
  6
CONTINUOUS
 10
16.1012587617
 20
14.3981848999
 40
3.0014547465
100
AcDbArc
 50
0.0470772695
 51
89.9571719259
  0
ARC
  5
670
100
AcDbEntity
  8
0
100
AcDbCircle
 62
7
  6
CONTINUOUS
 10
16.2131382597
 20
14.5131380751
 40
2.9985056868
100
AcDbArc
 50
0.1896726221
 51
89.8102372976
  0
ARC
  5
671
100
AcDbEntity
  8
0
100
AcDbCircle
 62
7
  6
CONTINUOUS
 10
5.0335301435
 20
15.7323275658
 40
1.6655666657
100
AcDbArc
 50
359.8151923913
 51
0.1579471982
  0
ARC
  5
672
100
AcDbEntity
  8
0
100
AcDbCircle
 62
7
  6
CONTINUOUS
 10
9.5530849449
 20
16.9295722691
 40
0.2500888358
100
AcDbArc
 50
0.0387419117
 51
89.971568013
  0
ARC
  5
673
100
AcDbEntity
  8
0
100
AcDbCircle
 62
7
  6
CONTINUOUS
 10
-9.5530849655
 20
16.9295723017
 40
0.2500888171
100
AcDbArc
 50
90.0283385839
 51
179.9601222826
  0
ARC
  5
674
100
AcDbEntity
  8
0
100
AcDbCircle
 62
253
  6
CONTINUOUS
 10
-9.6076718416
 20
17.0114570607
 40
0.250076046
100
AcDbArc
 50
90.0255893801
 51
179.9628833781
  0
ARC
  5
675
100
AcDbEntity
  8
0
100
AcDbCircle
 62
253
  6
CONTINUOUS
 10
9.6076718426
 20
17.0114569416
 40
0.250076044
100
AcDbArc
 50
0.0360005644
 51
89.9743221578
  0
ARC
  5
676
100
AcDbEntity
  8
RACCORDO
100
AcDbCircle
 62
7
  6
CONTINUOUS
 10
21.100026016
 20
18.1004783656
 40
0.1999896041
100
AcDbArc
 50
40.6692193892
 51
179.9551979135
  0
ARC
  5
677
100
AcDbEntity
  8
ASSI
100
AcDbCircle
 62
7
  6
CONTINUOUS
 10
21.100026016
 20
18.1004783656
 40
0.1999896041
100
AcDbArc
 50
40.6692193892
 51
179.9551979135
  0
ARC
  5
678
100
AcDbEntity
  8
RACCORDO
100
AcDbCircle
 62
7
  6
CONTINUOUS
 10
21.126213346
 20
18.0296122848
 40
0.1999857844
100
AcDbArc
 50
40.5225692428
 51
179.9570902954
  0
ARC
  5
679
100
AcDbEntity
  8
ASSI
100
AcDbCircle
 62
7
  6
CONTINUOUS
 10
21.126213346
 20
18.0296122848
 40
0.1999857844
100
AcDbArc
 50
40.5225692428
 51
179.9570902954
  0
ARC
  5
67A
100
AcDbEntity
  8
0
100
AcDbCircle
 62
7
  6
CONTINUOUS
 10
6.6996668698
 20
15.6759149088
 40
0.1003331977
100
AcDbArc
 50
0.0664255845
 51
13.5372849398
  0
ARC
  5
67B
100
AcDbEntity
  8
0
100
AcDbCircle
 62
7
  6
CONTINUOUS
 10
-6.6999937963
 20
15.6759941119
 40
0.1000056382
100
AcDbArc
 50
89.8635797321
 51
179.9404280714
  0
ARC
  5
67C
100
AcDbEntity
  8
DRAFT
100
AcDbCircle
 62
7
  6
CONTINUOUS
 10
6.3
 20
23.1
 40
0.5
100
AcDbArc
 50
245.3858676962
 51
4.6979911069
  0
ARC
  5
67D
100
AcDbEntity
  8
DRAFT
100
AcDbCircle
 62
7
  6
CONTINUOUS
 10
16.2
 20
23.1
 40
0.5
100
AcDbArc
 50
175.3020088931
 51
294.6141323038
  0
ARC
  5
67E
100
AcDbEntity
  8
DRAFT
100
AcDbCircle
 62
7
  6
CONTINUOUS
 10
-6.3
 20
23.1
 40
0.5
100
AcDbArc
 50
175.3020088931
 51
294.6141323038
  0
ARC
  5
67F
100
AcDbEntity
  8
ASSI
100
AcDbCircle
 62
7
  6
CONTINUOUS
 10
6.3
 20
23.1
 40
0.5
100
AcDbArc
 50
245.3858676962
 51
4.6979911069
  0
ARC
  5
680
100
AcDbEntity
  8
ASSI
100
AcDbCircle
 62
7
  6
CONTINUOUS
 10
16.2
 20
23.1
 40
0.5
100
AcDbArc
 50
175.3020088931
 51
294.6141323038
  0
ARC
  5
681
100
AcDbEntity
  8
ASSI
100
AcDbCircle
 62
7
  6
CONTINUOUS
 10
-6.3
 20
23.1
 40
0.5
100
AcDbArc
 50
175.3020088931
 51
294.6141323038
  0
ARC
  5
682
100
AcDbEntity
  8
RACCORDO
100
AcDbCircle
 62
7
  6
CONTINUOUS
 10
3.9
 20
19.6
 40
0.382905244
100
AcDbArc
 50
116.8054190002
 51
243.1945809998
  0
ARC
  5
683
100
AcDbEntity
  8
RACCORDO
100
AcDbCircle
 62
7
  6
CONTINUOUS
 10
-3.9
 20
19.6
 40
0.382905244
100
AcDbArc
 50
296.8054190002
 51
63.1945809998
  0
ARC
  5
684
100
AcDbEntity
  8
ASSI
100
AcDbCircle
 62
7
  6
CONTINUOUS
 10
3.9
 20
19.6
 40
0.382905244
100
AcDbArc
 50
206.8422471694
 51
243.1945809998
  0
ARC
  5
685
100
AcDbEntity
  8
ASSI
100
AcDbCircle
 62
7
  6
CONTINUOUS
 10
3.9
 20
19.6
 40
0.382905244
100
AcDbArc
 50
116.8054190002
 51
158.5914420661
  0
ARC
  5
686
100
AcDbEntity
  8
ASSI
100
AcDbCircle
 62
7
  6
CONTINUOUS
 10
-3.9
 20
19.6
 40
0.382905244
100
AcDbArc
 50
296.8054190002
 51
63.1945809998
  0
ARC
  5
687
100
AcDbEntity
  8
RACCORDO
100
AcDbCircle
 62
7
  6
CONTINUOUS
 10
-3.8997966843
 20
19.5980119723
 40
0.2276222693
100
AcDbArc
 50
269.9488135672
 51
90.0511855649
  0
ARC
  5
688
100
AcDbEntity
  8
ASSI
100
AcDbCircle
 62
7
  6
CONTINUOUS
 10
-3.8997966843
 20
19.5980119723
 40
0.2276222693
100
AcDbArc
 50
269.9488135672
 51
90.0511855649
  0
ARC
  5
689
100
AcDbEntity
  8
RACCORDO
100
AcDbCircle
 62
7
  6
CONTINUOUS
 10
3.8997971501
 20
19.5980145858
 40
0.2276221841
100
AcDbArc
 50
89.9489311194
 51
270.0510685736
  0
ARC
  5
68A
100
AcDbEntity
  8
ASSI
100
AcDbCircle
 62
7
  6
CONTINUOUS
 10
3.8997971501
 20
19.5980145858
 40
0.2276221841
100
AcDbArc
 50
89.9489311194
 51
270.0510685736
  0
ARC
  5
68B
100
AcDbEntity
  8
0
100
AcDbCircle
 62
7
  6
CONTINUOUS
 10
130.2584748351
 20
14.3473851469
 40
139.5041164682
100
AcDbArc
 50
179.3653714548
 51
180.004722596
  0
ARC
  5
68C
100
AcDbEntity
  8
0
100
AcDbCircle
 62
7
  6
CONTINUOUS
 10
108.5247295532
 20
14.3924752216
 40
115.5381936634
100
AcDbArc
 50
179.3994926841
 51
179.7100829609
  0
ARC
  5
68D
100
AcDbEntity
  8
0
100
AcDbCircle
 62
7
  6
CONTINUOUS
 10
279.7086978592
 20
12.3714689806
 40
288.6087898356
100
AcDbArc
 50
179.6838943396
 51
180.0488830674
  0
ARC
  5
68E
100
AcDbEntity
  8
0
100
AcDbCircle
 62
253
  6
CONTINUOUS
 10
315.302930398
 20
14.4852519224
 40
305.455633223
100
AcDbArc
 50
179.5261060048
 51
180.0158802987
  0
ARC
  5
68F
100
AcDbEntity
  8
0
100
AcDbCircle
 62
7
  6
CONTINUOUS
 10
6503.36284826
 20
11.557433414
 40
6493.8562978471
100
AcDbArc
 50
180.0013890468
 51
180.1410200729
  0
ARC
  5
690
100
AcDbEntity
  8
0
100
AcDbCircle
 62
7
  6
CONTINUOUS
 10
6482.1599635035
 20
11.5308487032
 40
6491.4055496571
100
AcDbArc
 50
180.0011549238
 51
180.1408386674
  0
ARC
  5
691
100
AcDbEntity
  8
0
100
AcDbCircle
 62
7
  6
CONTINUOUS
 10
6217.5063996587
 20
11.3460675708
 40
6226.4063884676
100
AcDbArc
 50
179.9995037124
 51
180.1451334832
  0
ARC
  5
692
100
AcDbEntity
  8
0
100
AcDbCircle
 62
253
  6
CONTINUOUS
 10
6222.7914304426
 20
11.3485071644
 40
6213.0350043635
100
AcDbArc
 50
179.9995251398
 51
180.1451162586
  0
ARC
  5
693
100
AcDbEntity
  8
0
100
AcDbCircle
 62
7
  6
CONTINUOUS
 10
6060.9981151989
 20
11.1866064819
 40
6069.9936474375
100
AcDbArc
 50
179.9979857396
 51
180.1470277315
  0
SPLINE
  5
694
100
AcDbEntity
  8
0
100
AcDbSpline
 62
7
  6
CONTINUOUS
 70
0
 71
3
 72
15
 73
11
 74
9
 42
0.0000001
 43
0.0000001
 44
0.0000000001
 12
-0.0
 22
-1.5623743696
 32
0.0
 13
-0.0
 23
1.5623743696
 33
0.0
 40
0.0
 40
0.0
 40
0.0
 40
0.0
 40
0.1250171919
 40
0.2500010523
 40
0.3749937709
 40
0.4999914874
 40
0.624988476
 40
0.7499856234
 40
0.874978032
 40
1.0
 40
1.0
 40
1.0
 40
1.0
 10
-2.5
 20
-19.3990616547
 30
0.0
 10
-2.5
 20
-19.4641695402
 30
0.0
 10
-2.525744504
 20
-19.5958335983
 30
0.0
 10
-2.6369435033
 20
-19.7623267465
 30
0.0
 10
-2.8034530741
 20
-19.8738484788
 30
0.0
 10
-2.9999843811
 20
-19.9129546436
 30
0.0
 10
-3.1965211659
 20
-19.8738608772
 30
0.0
 10
-3.3630402406
 20
-19.762341242
 30
0.0
 10
-3.4742524523
 20
-19.5958451675
 30
0.0
 10
-3.5
 20
-19.4641737255
 30
0.0
 10
-3.5
 20
-19.3990633527
 30
0.0
 11
-2.5
 21
-19.3990616547
 31
0.0
 11
-2.5378485888
 21
-19.5906831959
 31
0.0
 11
-2.6461593825
 21
-19.7531632316
 31
0.0
 11
-2.8084532822
 21
-19.86177762
 31
0.0
 11
-2.9999852887
 21
-19.8999212376
 31
0.0
 11
-3.1915185388
 21
-19.8617896888
 31
0.0
 11
-3.3538230046
 21
-19.7531786479
 31
0.0
 11
-3.462147569
 21
-19.5906917413
 31
0.0
 11
-3.5
 21
-19.3990633527
 31
0.0
  0
SPLINE
  5
695
100
AcDbEntity
  8
0
100
AcDbSpline
 62
7
  6
CONTINUOUS
 70
0
 71
3
 72
11
 73
7
 74
5
 42
0.0000001
 43
0.0000001
 44
0.0000000001
 12
0.0000273848
 22
2.7230151456
 32
0.0
 13
2.7230151457
 23
0.000019496
 33
0.0
 40
0.0
 40
0.0
 40
0.0
 40
0.0
 40
0.2491442056
 40
0.4988685869
 40
0.7492303385
 40
1.0
 40
1.0
 40
1.0
 40
1.0
 10
-7.7499999857
 20
-1.8482796185
 30
0.0
 10
-7.7499977115
 20
-1.6221384701
 30
0.0
 10
-7.6586414623
 20
-1.1643603545
 30
0.0
 10
-7.2689385967
 20
-0.586222248
 30
0.0
 10
-6.6874384106
 20
-0.199058366
 30
0.0
 10
-6.2276291176
 20
-0.1085325257
 30
0.0
 10
-6.0000125888
 20
-0.108530896
 30
0.0
 11
-7.7499999857
 21
-1.8482796185
 31
0.0
 11
-7.6168143996
 21
-1.183057873
 31
0.0
 11
-7.2375565979
 21
-0.6186396144
 31
0.0
 11
-6.6698564573
 21
-0.2411685578
 31
0.0
 11
-6.0000125888
 21
-0.108530896
 31
0.0
  0
SPLINE
  5
696
100
AcDbEntity
  8
0
100
AcDbSpline
 62
7
  6
CONTINUOUS
 70
0
 71
3
 72
9
 73
5
 74
3
 42
0.0000001
 43
0.0000001
 44
0.0000000001
 12
-0.0959798568
 22
0.2926074956
 32
0.0
 13
-0.3079468775
 23
0.0000048684
 33
0.0
 40
0.0
 40
0.0
 40
0.0
 40
0.0
 40
0.4989525033
 40
1.0
 40
1.0
 40
1.0
 40
1.0
 10
5.7376885095
 20
-2.0452130981
 30
0.0
 10
5.7217253795
 20
-1.9965473506
 30
0.0
 10
5.6567685937
 20
-1.90707758
 30
0.0
 10
5.5514346555
 20
-1.8739354454
 30
0.0
 10
5.5000026515
 20
-1.8739346323
 30
0.0
 11
5.7376885095
 21
-2.0452130981
 31
0.0
 11
5.6468526403
 21
-1.9212879864
 31
0.0
 11
5.5000026515
 21
-1.8739346323
 31
0.0
  0
SPLINE
  5
697
100
AcDbEntity
  8
0
100
AcDbSpline
 62
7
  6
CONTINUOUS
 70
0
 71
3
 72
11
 73
7
 74
5
 42
0.0000001
 43
0.0000001
 44
0.0000000001
 12
0.0000273848
 22
2.7230151456
 32
0.0
 13
2.7230151457
 23
0.000019496
 33
0.0
 40
0.0
 40
0.0
 40
0.0
 40
0.0
 40
0.2491442056
 40
0.4988685869
 40
0.7492303385
 40
1.0
 40
1.0
 40
1.0
 40
1.0
 10
4.2500000143
 20
-1.8482796185
 30
0.0
 10
4.2500022885
 20
-1.6221384701
 30
0.0
 10
4.3413585377
 20
-1.1643603545
 30
0.0
 10
4.7310614033
 20
-0.586222248
 30
0.0
 10
5.3125615894
 20
-0.199058366
 30
0.0
 10
5.7723708824
 20
-0.1085325257
 30
0.0
 10
5.9999874112
 20
-0.108530896
 30
0.0
 11
4.2500000143
 21
-1.8482796185
 31
0.0
 11
4.3831856004
 21
-1.183057873
 31
0.0
 11
4.7624434021
 21
-0.6186396144
 31
0.0
 11
5.3301435427
 21
-0.2411685578
 31
0.0
 11
5.9999874112
 21
-0.108530896
 31
0.0
  0
SPLINE
  5
698
100
AcDbEntity
  8
0
100
AcDbSpline
 62
7
  6
CONTINUOUS
 70
0
 71
3
 72
11
 73
7
 74
5
 42
0.0000001
 43
0.0000001
 44
0.0000000001
 12
-0.000007718
 22
1.8750542236
 32
0.0
 13
1.8750542236
 23
0.0
 33
0.0
 40
0.0
 40
0.0
 40
0.0
 40
0.0
 40
0.249793251
 40
0.4997338026
 40
0.7498179347
 40
1.0
 40
1.0
 40
1.0
 40
1.0
 10
-1.6230870741
 20
4.7253461163
 30
0.0
 10
-1.6230877167
 20
4.8814714131
 30
0.0
 10
-1.5608224811
 20
5.1972007941
 30
0.0
 10
-1.2943890326
 20
5.5969356213
 30
0.0
 10
-0.8955904304
 20
5.8653835872
 30
0.0
 10
-0.579465748
 20
5.9282999703
 30
0.0
 10
-0.4230974353
 20
5.9282999703
 30
0.0
 11
-1.6230870741
 21
4.7253461163
 31
0.0
 11
-1.5320314244
 21
5.1847858221
 31
0.0
 11
-1.2724198557
 21
5.5749609264
 31
0.0
 11
-0.8830997247
 21
5.8363361908
 31
0.0
 11
-0.4230974353
 21
5.9282999703
 31
0.0
  0
SPLINE
  5
699
100
AcDbEntity
  8
0
100
AcDbSpline
 62
7
  6
CONTINUOUS
 70
0
 71
3
 72
9
 73
5
 74
3
 42
0.0000001
 43
0.0000001
 44
0.0000000001
 12
-0.0282766307
 22
0.1176203135
 32
0.0
 13
-0.1202811406
 23
0.0129055492
 33
0.0
 40
0.0
 40
0.0
 40
0.0
 40
0.0
 40
0.4997020538
 40
1.0
 40
1.0
 40
1.0
 40
1.0
 10
6.7972125906
 20
15.699400711
 30
0.0
 10
6.7925026271
 20
15.7189924151
 30
0.0
 10
6.770373848
 20
15.7562128304
 30
0.0
 10
6.730596276
 20
15.7732740539
 30
0.0
 10
6.7105374735
 20
15.7754262605
 30
0.0
 11
6.7972125906
 21
15.699400711
 31
0.0
 11
6.765980093
 21
15.7511568576
 31
0.0
 11
6.7105374735
 21
15.7754262605
 31
0.0
  0
SPLINE
  5
69A
100
AcDbEntity
  8
0
100
AcDbSpline
 62
7
  6
CONTINUOUS
 70
0
 71
3
 72
11
 73
7
 74
5
 42
0.0000001
 43
0.0000001
 44
0.0000000001
 12
1.0135243456
 22
-0.4441287165
 32
0.0
 13
1.0496631736
 23
-0.3502700929
 33
0.0
 40
0.0
 40
0.0
 40
0.0
 40
0.0
 40
0.3166976404
 40
0.5953174077
 40
0.8265245674
 40
1.0
 40
1.0
 40
1.0
 40
1.0
 10
7.0206060285
 20
-7.4642442612
 30
0.0
 10
7.1275996181
 20
-7.5111291
 30
0.0
 10
7.3272875589
 20
-7.6025281501
 30
0.0
 10
7.6022136747
 20
-7.7343326533
 30
0.0
 10
7.8297782504
 20
-7.8425338924
 30
0.0
 10
7.9678248288
 20
-7.900015389
 30
0.0
 10
8.0285217532
 20
-7.9202698076
 30
0.0
 11
7.0206060285
 21
-7.4642442612
 31
0.0
 11
7.3395879943
 21
-7.6093747282
 31
0.0
 11
7.6180465102
 21
-7.7417232476
 31
0.0
 11
7.850073231
 21
-7.8495213243
 31
0.0
 11
8.0285217532
 21
-7.9202698076
 31
0.0
  0
SPLINE
  5
69B
100
AcDbEntity
  8
0
100
AcDbSpline
 62
7
  6
CONTINUOUS
 70
0
 71
3
 72
15
 73
11
 74
9
 42
0.0000001
 43
0.0000001
 44
0.0000000001
 12
-3.3393582446
 22
1.2822666822
 32
0.0
 13
-3.3440380587
 23
-1.2700121228
 33
0.0
 40
0.0
 40
0.0
 40
0.0
 40
0.0
 40
0.1167531071
 40
0.2406882141
 40
0.3694417057
 40
0.5007708996
 40
0.6320398656
 40
0.7603273136
 40
0.8835373041
 40
1.0
 40
1.0
 40
1.0
 40
1.0
 10
6.9323848851
 20
-7.4260280742
 30
0.0
 10
6.8024247348
 20
-7.3761252011
 30
0.0
 10
6.5313600641
 20
-7.2811271922
 30
0.0
 10
6.1050072887
 20
-7.1681242989
 30
0.0
 10
5.6527485846
 20
-7.0924702877
 30
0.0
 10
5.1861582308
 20
-7.060819224
 30
0.0
 10
4.7196120007
 20
-7.0896594471
 30
0.0
 10
4.269941007
 20
-7.1725678048
 30
0.0
 10
3.8470003269
 20
-7.2907357625
 30
0.0
 10
3.5771043638
 20
-7.3851914289
 30
0.0
 10
3.4472858012
 20
-7.4344944408
 30
0.0
 11
6.9323848851
 21
-7.4260280742
 31
0.0
 11
6.5378718018
 21
-7.2889920802
 31
0.0
 11
6.1091299548
 21
-7.1762157777
 31
0.0
 11
5.6548545285
 21
-7.1003797668
 31
0.0
 11
5.1860004746
 21
-7.0709722389
 31
0.0
 11
4.7172994738
 21
-7.0993611077
 31
0.0
 11
4.2656363852
 21
-7.1805085838
 31
0.0
 11
3.8407217698
 21
-7.2975238083
 31
0.0
 11
3.4472858012
 21
-7.4344944408
 31
0.0
  0
SPLINE
  5
69C
100
AcDbEntity
  8
0
100
AcDbSpline
 62
7
  6
CONTINUOUS
 70
0
 71
3
 72
11
 73
7
 74
5
 42
0.0000001
 43
0.0000001
 44
0.0000000001
 12
1.0060821927
 22
0.2387845192
 32
0.0
 13
0.9431114619
 23
0.4239813623
 33
0.0
 40
0.0
 40
0.0
 40
0.0
 40
0.0
 40
0.160362502
 40
0.3877557665
 40
0.6710563396
 40
1.0
 40
1.0
 40
1.0
 40
1.0
 10
2.3157865577
 20
-7.9360257098
 30
0.0
 10
2.3695658436
 20
-7.9232616821
 30
0.0
 10
2.4945093987
 20
-7.8736952594
 30
0.0
 10
2.7044561873
 20
-7.7774193123
 30
0.0
 10
2.9657925297
 20
-7.6527951631
 30
0.0
 10
3.1565694062
 20
-7.5626273132
 30
0.0
 10
3.259979585
 20
-7.5161386528
 30
0.0
 11
2.3157865577
 21
-7.9360257098
 31
0.0
 11
2.4722896905
 21
-7.8812264636
 31
0.0
 11
2.6868018905
 21
-7.7849384072
 31
0.0
 11
2.9516325117
 21
-7.6597207826
 31
0.0
 11
3.259979585
 21
-7.5161386528
 31
0.0
  0
SPLINE
  5
69D
100
AcDbEntity
  8
0
100
AcDbSpline
 62
7
  6
CONTINUOUS
 70
0
 71
3
 72
9
 73
5
 74
3
 42
0.0000001
 43
0.0000001
 44
0.0000000001
 12
-0.0795696665
 22
-0.0215107281
 32
0.0
 13
-0.0824259865
 23
0.0000000027
 33
0.0
 40
0.0
 40
0.0
 40
0.0
 40
0.0
 40
0.3005169208
 40
1.0
 40
1.0
 40
1.0
 40
1.0
 10
2.1267739272
 20
-7.9861038585
 30
0.0
 10
2.1188032502
 20
-7.9882586378
 30
0.0
 10
2.0921943698
 20
-7.9949082526
 30
0.0
 10
2.0648485868
 20
-8.0000000006
 30
0.0
 10
2.0456300592
 20
-8.0
 30
0.0
 11
2.1267739272
 21
-7.9861038585
 31
0.0
 11
2.1027438626
 21
-7.9921145897
 31
0.0
 11
2.0456300592
 21
-8.0
 31
0.0
  0
SPLINE
  5
69E
100
AcDbEntity
  8
0
100
AcDbSpline
 62
7
  6
CONTINUOUS
 70
0
 71
3
 72
11
 73
7
 74
5
 42
0.0000001
 43
0.0000001
 44
0.0000000001
 12
3.3456761057
 22
1.2620791725
 32
0.0
 13
3.3455161918
 23
-1.2625030107
 33
0.0
 40
0.0
 40
0.0
 40
0.0
 40
0.0
 40
0.2404727334
 40
0.4998734911
 40
0.7593053702
 40
1.0
 40
1.0
 40
1.0
 40
1.0
 10
-6.9456970329
 20
-7.4268661051
 30
0.0
 10
-6.6775157403
 20
-7.3257008956
 30
0.0
 10
-6.1074854222
 20
-7.1459124741
 30
0.0
 10
-5.2014772254
 20
-7.0313466947
 30
0.0
 10
-4.2952510586
 20
-7.1452855973
 30
0.0
 10
-3.7244444956
 20
-7.3237396525
 30
0.0
 10
-3.4560285685
 20
-7.4250322174
 30
0.0
 11
-6.9456970329
 21
-7.4268661051
 31
0.0
 11
-6.122955241
 21
-7.1768733212
 31
0.0
 11
-5.2015223506
 21
-7.07037528
 31
0.0
 11
-4.279868607
 21
-7.1759273525
 31
0.0
 11
-3.4560285685
 21
-7.4250322174
 31
0.0
  0
SPLINE
  5
69F
100
AcDbEntity
  8
0
100
AcDbSpline
 62
7
  6
CONTINUOUS
 70
0
 71
3
 72
11
 73
7
 74
5
 42
0.0000001
 43
0.0000001
 44
0.0000000001
 12
-0.9596749769
 22
-0.4242081803
 32
0.0
 13
-0.9974681512
 23
-0.3255548018
 33
0.0
 40
0.0
 40
0.0
 40
0.0
 40
0.0
 40
0.3155637208
 40
0.5936163444
 40
0.8251834771
 40
1.0
 40
1.0
 40
1.0
 40
1.0
 10
-7.0762390113
 20
-7.4832983577
 30
0.0
 10
-7.1771852135
 20
-7.5279199283
 30
0.0
 10
-7.3654682993
 20
-7.6154799442
 30
0.0
 10
-7.6244793099
 20
-7.7429047239
 30
0.0
 10
-7.8396378053
 20
-7.8475139289
 30
0.0
 10
-7.9703024863
 20
-7.9043983005
 30
0.0
 10
-8.0284271242
 20
-7.9233690867
 30
0.0
 11
-7.0762390113
 21
-7.4832983577
 31
0.0
 11
-7.376813011
 21
-7.6221733135
 31
0.0
 11
-7.6391424888
 21
-7.749843314
 31
0.0
 11
-7.8584241714
 21
-7.8544903933
 31
0.0
 11
-8.0284271242
 21
-7.9233690867
 31
0.0
  0
SPLINE
  5
6A0
100
AcDbEntity
  8
0
100
AcDbSpline
 62
7
  6
CONTINUOUS
 70
0
 71
3
 72
9
 73
5
 74
3
 42
0.0000001
 43
0.0000001
 44
0.0000000001
 12
0.1044282116
 22
-0.0281141759
 32
0.0
 13
0.1081464667
 23
0.0000000054
 33
0.0
 40
0.0
 40
0.0
 40
0.0
 40
0.0
 40
0.2749756862
 40
1.0
 40
1.0
 40
1.0
 40
1.0
 10
-2.152147518
 20
-7.9838395747
 30
0.0
 10
-2.1425757783
 20
-7.9864164796
 30
0.0
 10
-2.1075859653
 20
-7.9949924209
 30
0.0
 10
-2.0715128099
 20
-8.0000000013
 30
0.0
 10
-2.0453765373
 20
-8.0
 30
0.0
 11
-2.152147518
 21
-7.9838395747
 31
0.0
 11
-2.1232511693
 21
-7.9908630207
 31
0.0
 11
-2.0453765373
 21
-8.0
 31
0.0
  0
SPLINE
  5
6A1
100
AcDbEntity
  8
0
100
AcDbSpline
 62
7
  6
CONTINUOUS
 70
0
 71
3
 72
12
 73
8
 74
6
 42
0.0000001
 43
0.0000001
 44
0.0000000001
 12
-0.9779092091
 22
0.2635688247
 32
0.0
 13
-0.922896045
 23
0.4171784232
 33
0.0
 40
0.0
 40
0.0
 40
0.0
 40
0.0
 40
0.0752454331
 40
0.1672713079
 40
0.396769595
 40
0.6776731615
 40
1.0
 40
1.0
 40
1.0
 40
1.0
 10
-2.3383086907
 20
-7.933508137
 30
0.0
 10
-2.3628364247
 20
-7.9268973536
 30
0.0
 10
-2.4163368749
 20
-7.9084900644
 30
0.0
 10
-2.5399171143
 20
-7.8567572284
 30
0.0
 10
-2.7230768381
 20
-7.7681410452
 30
0.0
 10
-2.9750309594
 20
-7.6435158043
 30
0.0
 10
-3.1591030374
 20
-7.5562897456
 30
0.0
 10
-3.2582610922
 20
-7.5114671449
 30
0.0
 11
-2.3383086907
 21
-7.933508137
 31
0.0
 11
-2.410686252
 21
-7.909648163
 31
0.0
 11
-2.49690343
 21
-7.8742413596
 31
0.0
 11
-2.7072959311
 21
-7.7754384657
 31
0.0
 11
-2.9628351555
 21
-7.6503771311
 31
0.0
 11
-3.2582610922
 21
-7.5114671449
 31
0.0
  0
SPLINE
  5
6A2
100
AcDbEntity
  8
0
100
AcDbSpline
 62
7
  6
CONTINUOUS
 70
0
 71
3
 72
9
 73
5
 74
3
 42
0.0000001
 43
0.0000001
 44
0.0000000001
 12
0.1524693791
 22
-0.0269264847
 32
0.0
 13
0.1509224977
 23
-0.0345593231
 33
0.0
 40
0.0
 40
0.0
 40
0.0
 40
0.0
 40
0.2693825436
 40
1.0
 40
1.0
 40
1.0
 40
1.0
 10
-1.9760633854
 20
-8.0116783662
 30
0.0
 10
-1.9623725224
 20
-8.0140962078
 30
0.0
 10
-1.9115961303
 20
-8.02332805
 30
0.0
 10
-1.8610023974
 20
-8.0336106267
 30
0.0
 10
-1.8242468603
 20
-8.0420271749
 30
0.0
 11
-1.9760633854
 21
-8.0116783662
 31
0.0
 11
-1.9350292301
 21
-8.0191462507
 31
0.0
 11
-1.8242468603
 21
-8.0420271749
 31
0.0
  0
SPLINE
  5
6A3
100
AcDbEntity
  8
0
100
AcDbSpline
 62
7
  6
CONTINUOUS
 70
0
 71
3
 72
9
 73
5
 74
3
 42
0.0000001
 43
0.0000001
 44
0.0000000001
 12
-0.119381042
 22
-0.0315627199
 32
0.0
 13
-0.119418714
 23
-0.0314198861
 33
0.0
 40
0.0
 40
0.0
 40
0.0
 40
0.0
 40
0.5005074195
 40
1.0
 40
1.0
 40
1.0
 40
1.0
 10
-8.0999527345
 20
-7.9431690926
 30
0.0
 10
-8.1198697669
 20
-7.9484348844
 30
0.0
 10
-8.1595225925
 20
-7.959501602
 30
0.0
 10
-8.1996587521
 20
-7.9686872792
 30
0.0
 10
-8.2195416726
 20
-7.9739186125
 30
0.0
 11
-8.0999527345
 21
-7.9431690926
 31
0.0
 11
-8.1596839126
 21
-7.9590416179
 31
0.0
 11
-8.2195416726
 21
-7.9739186125
 31
0.0
  0
SPLINE
  5
6A4
100
AcDbEntity
  8
0
100
AcDbSpline
 62
7
  6
CONTINUOUS
 70
0
 71
3
 72
11
 73
7
 74
5
 42
0.0000001
 43
0.0000001
 44
0.0000000001
 12
2.7230441964
 22
0.0000194962
 32
0.0
 13
-0.0000414348
 23
-2.7230441962
 33
0.0
 40
0.0
 40
0.0
 40
0.0
 40
0.0
 40
0.2507655197
 40
0.5011250909
 40
0.7508502888
 40
1.0
 40
1.0
 40
1.0
 40
1.0
 10
-6.0000125888
 20
-0.1085309092
 30
0.0
 10
-5.7723973911
 20
-0.1085292795
 30
0.0
 10
-5.3125880154
 20
-0.1990474644
 30
0.0
 10
-4.7310781012
 20
-0.5862030729
 30
0.0
 10
-4.3413664507
 20
-1.1643470079
 30
0.0
 10
-4.2499966033
 20
-1.6221358368
 30
0.0
 10
-4.2500000445
 20
-1.8482843952
 30
0.0
 11
-6.0000125888
 21
-0.1085309092
 31
0.0
 11
-5.3301705319
 21
-0.2411571611
 31
0.0
 11
-4.7624631673
 21
-0.6186197656
 31
0.0
 11
-4.3831936779
 21
-1.1830415897
 31
0.0
 11
-4.2500000445
 21
-1.8482843952
 31
0.0
  0
SPLINE
  5
6A5
100
AcDbEntity
  8
0
100
AcDbSpline
 62
7
  6
CONTINUOUS
 70
0
 71
3
 72
11
 73
7
 74
5
 42
0.0000001
 43
0.0000001
 44
0.0000000001
 12
-0.3626644034
 22
-0.0000039104
 32
0.0
 13
-0.0391994765
 23
-0.3605396934
 33
0.0
 40
0.0
 40
0.0
 40
0.0
 40
0.0
 40
0.2508019612
 40
0.5010943229
 40
0.7507228146
 40
1.0
 40
1.0
 40
1.0
 40
1.0
 10
6.4999980613
 20
-1.8739346323
 30
0.0
 10
6.4696790801
 20
-1.8739349592
 30
0.0
 10
6.4085303826
 20
-1.8851177473
 30
0.0
 10
6.3293125509
 20
-1.9332836257
 30
0.0
 10
6.2724671884
 20
-2.0063268768
 30
0.0
 10
6.2546999486
 20
-2.0656551098
 30
0.0
 10
6.2514427702
 20
-2.0956132165
 30
0.0
 11
6.4999980613
 21
-1.8739346323
 31
0.0
 11
6.4105404502
 21
-1.8903815597
 31
0.0
 11
6.3329576501
 21
-1.9375036215
 31
0.0
 11
6.2774694085
 21
-2.0090367162
 31
0.0
 11
6.2514427702
 21
-2.0956132165
 31
0.0
  0
SPLINE
  5
6A6
100
AcDbEntity
  8
0
100
AcDbSpline
 62
7
  6
CONTINUOUS
 70
0
 71
3
 72
11
 73
7
 74
5
 42
0.0000001
 43
0.0000001
 44
0.0000000001
 12
2.7230441964
 22
0.0000194962
 32
0.0
 13
-0.0000414348
 23
-2.7230441962
 33
0.0
 40
0.0
 40
0.0
 40
0.0
 40
0.0
 40
0.2507655197
 40
0.5011250909
 40
0.7508502888
 40
1.0
 40
1.0
 40
1.0
 40
1.0
 10
5.9999874112
 20
-0.1085309092
 30
0.0
 10
6.2276026089
 20
-0.1085292795
 30
0.0
 10
6.6874119846
 20
-0.1990474644
 30
0.0
 10
7.2689218988
 20
-0.5862030729
 30
0.0
 10
7.6586335493
 20
-1.1643470079
 30
0.0
 10
7.7500033967
 20
-1.6221358368
 30
0.0
 10
7.7499999555
 20
-1.8482843952
 30
0.0
 11
5.9999874112
 21
-0.1085309092
 31
0.0
 11
6.6698294681
 21
-0.2411571611
 31
0.0
 11
7.2375368327
 21
-0.6186197656
 31
0.0
 11
7.6168063221
 21
-1.1830415897
 31
0.0
 11
7.7499999555
 21
-1.8482843952
 31
0.0
  0
LINE
  5
6A7
100
AcDbEntity
  8
0
100
AcDbLine
 62
7
  6
CONTINUOUS
 10
-8.8936591227
 20
15.0499991289
 11
-8.8936439304
 21
14.9771038936
  0
SPLINE
  5
6A8
100
AcDbEntity
  8
0
100
AcDbSpline
 62
7
  6
CONTINUOUS
 70
0
 71
3
 72
9
 73
5
 74
3
 42
0.0000001
 43
0.0000001
 44
0.0000000001
 12
0.0
 22
0.5534128997
 32
0.0
 13
0.0131065829
 23
0.5532576751
 33
0.0
 40
0.0
 40
0.0
 40
0.0
 40
0.0
 40
0.2879459835
 40
1.0
 40
1.0
 40
1.0
 40
1.0
 10
-8.8936591227
 20
15.0499991289
 30
0.0
 10
-8.8936591227
 20
15.1031168028
 30
0.0
 10
-8.8932199676
 20
15.2875848915
 30
0.0
 10
-8.8918889672
 20
15.4720689262
 30
0.0
 10
-8.8887781022
 20
15.6033853761
 30
0.0
 11
-8.8936591227
 21
15.0499991289
 31
0.0
 11
-8.8933322713
 21
15.2093518154
 31
0.0
 11
-8.8887781022
 21
15.6033853761
 31
0.0
  0
LINE
  5
6A9
100
AcDbEntity
  8
0
100
AcDbLine
 62
7
  6
CONTINUOUS
 10
8.8936439432
 20
14.9770968356
 11
8.8936591387
 21
15.0500032273
  0
SPLINE
  5
6AA
100
AcDbEntity
  8
0
100
AcDbSpline
 62
7
  6
CONTINUOUS
 70
0
 71
3
 72
9
 73
5
 74
3
 42
0.0000001
 43
0.0000001
 44
0.0000000001
 12
0.0131066912
 22
-0.5532622456
 32
0.0
 13
0.0
 23
-0.5534174715
 33
0.0
 40
0.0
 40
0.0
 40
0.0
 40
0.0
 40
0.1980633366
 40
1.0
 40
1.0
 40
1.0
 40
1.0
 10
8.8887780011
 20
15.603392555
 30
0.0
 10
8.8896433194
 20
15.5668655662
 30
0.0
 10
8.8928618437
 20
15.3824186784
 30
0.0
 10
8.8936591387
 20
15.1979384809
 30
0.0
 10
8.8936591387
 20
15.0500032273
 30
0.0
 11
8.8887780011
 21
15.603392555
 31
0.0
 11
8.8908232801
 21
15.4937999275
 31
0.0
 11
8.8936591387
 21
15.0500032273
 31
0.0
  0
SPLINE
  5
6AB
100
AcDbEntity
  8
0
100
AcDbSpline
 62
7
  6
CONTINUOUS
 70
0
 71
3
 72
9
 73
5
 74
3
 42
0.0000001
 43
0.0000001
 44
0.0000000001
 12
-0.115353665
 22
-0.0023432654
 32
0.0
 13
-0.0168821381
 23
-0.1141356751
 33
0.0
 40
0.0
 40
0.0
 40
0.0
 40
0.0
 40
0.5099438706
 40
1.0
 40
1.0
 40
1.0
 40
1.0
 10
-6.6992554975
 20
15.7269585076
 30
0.0
 10
-6.7188634623
 20
15.7265601963
 30
0.0
 10
-6.7549499918
 20
15.7218512527
 30
0.0
 10
-6.7969847994
 20
15.6982219102
 30
0.0
 10
-6.7997425311
 20
15.6795776144
 30
0.0
 11
-6.6992554975
 21
15.7269585076
 31
0.0
 11
-6.7572144779
 21
15.7168374899
 31
0.0
 11
-6.7997425311
 21
15.6795776144
 31
0.0
  0
SPLINE
  5
6AC
100
AcDbEntity
  8
0
100
AcDbSpline
 62
7
  6
CONTINUOUS
 70
0
 71
3
 72
9
 73
5
 74
3
 42
0.0000001
 43
0.0000001
 44
0.0000000001
 12
-0.1525318742
 22
-0.0268694829
 32
0.0
 13
-0.1509559205
 23
-0.0346446507
 33
0.0
 40
0.0
 40
0.0
 40
0.0
 40
0.0
 40
0.2698136926
 40
1.0
 40
1.0
 40
1.0
 40
1.0
 10
1.9756614191
 20
-8.0117693078
 30
0.0
 10
1.9619430231
 20
-8.0141858926
 30
0.0
 10
1.9111454565
 20
-8.0233973416
 30
0.0
 10
1.860535431
 20
-8.0336899403
 30
0.0
 10
1.8237934489
 20
-8.0421222902
 30
0.0
 11
1.9756614191
 21
-8.0117693078
 31
0.0
 11
1.9345449179
 21
-8.0192353498
 31
0.0
 11
1.8237934489
 21
-8.0421222902
 31
0.0
  0
SPLINE
  5
6AD
100
AcDbEntity
  8
0
100
AcDbSpline
 62
7
  6
CONTINUOUS
 70
0
 71
3
 72
9
 73
5
 74
3
 42
0.0000001
 43
0.0000001
 44
0.0000000001
 12
-0.0183510256
 22
0.2880084115
 32
0.0
 13
-0.010124447
 23
0.2884148068
 33
0.0
 40
0.0
 40
0.0
 40
0.0
 40
0.0
 40
0.2020055356
 40
1.0
 40
1.0
 40
1.0
 40
1.0
 10
-8.8271512292
 20
-7.8516309319
 30
0.0
 10
-8.8283868987
 20
-7.8322378341
 30
0.0
 10
-8.8338763835
 20
-7.7361952422
 30
0.0
 10
-8.8376505384
 20
-7.6400635411
 30
0.0
 10
-8.8403436226
 20
-7.5633457347
 30
0.0
 11
-8.8271512292
 21
-7.8516309319
 31
0.0
 11
-8.8305347152
 21
-7.7934319274
 31
0.0
 11
-8.8403436226
 21
-7.5633457347
 31
0.0
  0
SPLINE
  5
6AE
100
AcDbEntity
  8
0
100
AcDbSpline
 62
7
  6
CONTINUOUS
 70
0
 71
3
 72
10
 73
6
 74
4
 42
0.0000001
 43
0.0000001
 44
0.0000000001
 12
-0.1014239513
 22
3.0853249307
 32
0.0
 13
-0.00783386
 23
3.0869815964
 33
0.0
 40
0.0
 40
0.0
 40
0.0
 40
0.0
 40
0.1801717655
 40
0.4158839188
 40
1.0
 40
1.0
 40
1.0
 40
1.0
 10
-8.8420723152
 20
-7.512440808
 30
0.0
 10
-8.8481635593
 20
-7.3271446613
 30
0.0
 10
-8.8580791437
 20
-6.8993012366
 30
0.0
 10
-8.8734702022
 20
-5.8704176744
 30
0.0
 10
-8.8784880351
 20
-5.0268105655
 30
0.0
 10
-8.8800133297
 20
-4.4257587013
 30
0.0
 11
-8.8420723152
 21
-7.512440808
 31
0.0
 11
-8.8560952849
 21
-6.9564288987
 31
0.0
 11
-8.8674796322
 21
-6.2288765391
 31
0.0
 11
-8.8800133297
 21
-4.4257587013
 31
0.0
  0
SPLINE
  5
6AF
100
AcDbEntity
  8
0
100
AcDbSpline
 62
7
  6
CONTINUOUS
 70
0
 71
3
 72
10
 73
6
 74
4
 42
0.0000001
 43
0.0000001
 44
0.0000000001
 12
-0.0078338542
 22
-3.0869792922
 32
0.0
 13
-0.1014235881
 23
-3.0853226372
 33
0.0
 40
0.0
 40
0.0
 40
0.0
 40
0.0
 40
0.5841158708
 40
0.8198280586
 40
1.0
 40
1.0
 40
1.0
 40
1.0
 10
8.8800133296
 20
-4.4257587036
 30
0.0
 10
8.8784880368
 20
-5.0268099028
 30
0.0
 10
8.8734702102
 20
-5.8704162009
 30
0.0
 10
8.8580791841
 20
-6.8992989955
 30
0.0
 10
8.8481636191
 20
-7.3271423176
 30
0.0
 10
8.8420723908
 20
-7.5124385073
 30
0.0
 11
8.8800133296
 21
-4.4257587036
 31
0.0
 11
8.8674796567
 21
-6.2288745462
 31
0.0
 11
8.856095333
 21
-6.9564264696
 31
0.0
 11
8.8420723908
 21
-7.5124385073
 31
0.0
  0
SPLINE
  5
6B0
100
AcDbEntity
  8
0
100
AcDbSpline
 62
7
  6
CONTINUOUS
 70
0
 71
3
 72
9
 73
5
 74
3
 42
0.0000001
 43
0.0000001
 44
0.0000000001
 12
-0.0101244039
 22
-0.2884136038
 32
0.0
 13
-0.0183509524
 23
-0.2880072099
 33
0.0
 40
0.0
 40
0.0
 40
0.0
 40
0.0
 40
0.2973671078
 40
1.0
 40
1.0
 40
1.0
 40
1.0
 10
8.8403436246
 20
-7.5633456759
 30
0.0
 10
8.8393400697
 20
-7.5919339157
 30
0.0
 10
8.8357454059
 20
-7.6880620872
 30
0.0
 10
8.8314492234
 20
-7.7841764853
 30
0.0
 10
8.8271512292
 20
-7.8516309316
 30
0.0
 11
8.8403436246
 21
-7.5633456759
 31
0.0
 11
8.8371401668
 21
-7.6491034104
 31
0.0
 11
8.8271512292
 21
-7.8516309316
 31
0.0
  0
SPLINE
  5
6B1
100
AcDbEntity
  8
0
100
AcDbSpline
 62
7
  6
CONTINUOUS
 70
0
 71
3
 72
15
 73
11
 74
9
 42
0.0000001
 43
0.0000001
 44
0.0000000001
 12
-0.0001952856
 22
-4.6884828214
 32
0.0
 13
4.6884828216
 23
0.0001905181
 33
0.0
 40
0.0
 40
0.0
 40
0.0
 40
0.0
 40
0.125001727
 40
0.2500021203
 40
0.375001378
 40
0.4999999999
 40
0.6249986221
 40
0.7499978795
 40
0.874998273
 40
1.0
 40
1.0
 40
1.0
 40
1.0
 10
-19.2116533671
 20
-14.5230658786
 30
0.0
 10
-19.2116615041
 20
-14.7184220286
 30
0.0
 10
-19.1733873031
 20
-15.1102120555
 30
0.0
 10
-19.002857704
 20
-15.6746748189
 30
0.0
 10
-18.7253604215
 20
-16.195224789
 30
0.0
 10
-18.3513359098
 20
-16.6513334257
 30
0.0
 10
-17.8952277147
 20
-17.0253584825
 30
0.0
 10
-17.3746780491
 20
-17.3028563315
 30
0.0
 10
-16.8102155063
 20
-17.4733866472
 30
0.0
 10
-16.418425516
 20
-17.5116613016
 30
0.0
 10
-16.2230693661
 20
-17.5116533633
 30
0.0
 11
-19.2116533671
 21
-14.5230658786
 31
0.0
 11
-19.1545337116
 21
-15.106344177
 31
0.0
 11
-18.9850287858
 21
-15.6673584185
 31
0.0
 11
-18.7092717657
 21
-16.1844857953
 31
0.0
 11
-18.3376553193
 21
-16.637652852
 31
0.0
 11
-17.8844886977
 21
-17.0092698305
 31
0.0
 11
-17.3673616352
 21
-17.2850274381
 31
0.0
 11
-16.8063476
 21
-17.4545330496
 31
0.0
 11
-16.2230693661
 21
-17.5116533633
 31
0.0
  0
SPLINE
  5
6B2
100
AcDbEntity
  8
0
100
AcDbSpline
 62
7
  6
CONTINUOUS
 70
0
 71
3
 72
15
 73
11
 74
9
 42
0.0000001
 43
0.0000001
 44
0.0000000001
 12
-4.6884829849
 22
0.0001953735
 32
0.0
 13
0.0001908521
 23
-4.6884829851
 33
0.0
 40
0.0
 40
0.0
 40
0.0
 40
0.0
 40
0.125001727
 40
0.2500021203
 40
0.375001378
 40
0.5
 40
0.6249986221
 40
0.7499978796
 40
0.8749982731
 40
1.0
 40
1.0
 40
1.0
 40
1.0
 10
-16.2230658209
 20
17.511653367
 30
0.0
 10
-16.4184219777
 20
17.5116615077
 30
0.0
 10
-16.810212019
 20
17.4733873115
 30
0.0
 10
-17.3746748041
 20
17.3028577118
 30
0.0
 10
-17.8952247933
 20
17.0253604205
 30
0.0
 10
-18.3513334437
 20
16.6513358929
 30
0.0
 10
-18.7253585102
 20
16.1952276784
 30
0.0
 10
-19.0028563557
 20
15.6746779875
 30
0.0
 10
-19.1733866688
 20
15.1102154223
 30
0.0
 10
-19.2116613052
 20
14.7184254152
 30
0.0
 10
-19.2116533529
 20
14.5230692586
 30
0.0
 11
-16.2230658209
 21
17.511653367
 31
0.0
 11
-16.8063441405
 21
17.4545337186
 31
0.0
 11
-17.3673584032
 21
17.2850287922
 31
0.0
 11
-17.8844857986
 21
17.0092717635
 31
0.0
 11
-18.3376528694
 21
16.6376553018
 31
0.0
 11
-18.709269856
 21
16.1844886604
 31
0.0
 11
-18.9850274625
 21
15.6673615741
 31
0.0
 11
-19.1545330672
 21
15.1063475154
 31
0.0
 11
-19.2116533529
 21
14.5230692586
 31
0.0
  0
LINE
  5
6B3
100
AcDbEntity
  8
0
100
AcDbLine
 62
7
  6
CONTINUOUS
 10
-6.7997425311
 20
15.6795776144
 11
-6.7999997528
 21
15.6759723905
  0
SPLINE
  5
6B4
100
AcDbEntity
  8
0
100
AcDbSpline
 62
7
  6
CONTINUOUS
 70
0
 71
3
 72
11
 73
7
 74
5
 42
0.0000001
 43
0.0000001
 44
0.0000000001
 12
-0.0000413942
 22
-2.7203800238
 32
0.0
 13
-2.7203800241
 23
0.0
 33
0.0
 40
0.0
 40
0.0
 40
0.0
 40
0.0
 40
0.2491701825
 40
0.4987348785
 40
0.7490591392
 40
1.0
 40
1.0
 40
1.0
 40
1.0
 10
7.7499999555
 20
-1.8482843952
 30
0.0
 10
7.7499965175
 20
-2.0742302575
 30
0.0
 10
7.6588052123
 20
-2.5315073619
 30
0.0
 10
7.2687698543
 20
-3.1085703355
 30
0.0
 10
6.6870160873
 20
-3.4940837537
 30
0.0
 10
6.2275515016
 20
-3.5840259248
 30
0.0
 10
6.0
 20
-3.5840259248
 30
0.0
 11
7.7499999555
 21
-1.8482843952
 31
0.0
 11
7.6168189346
 21
-2.5129095603
 31
0.0
 11
7.237504591
 21
-3.0759730753
 31
0.0
 11
6.6697682409
 21
-3.4520119993
 31
0.0
 11
6.0
 21
-3.5840259248
 31
0.0
  0
SPLINE
  5
6B5
100
AcDbEntity
  8
0
100
AcDbSpline
 62
7
  6
CONTINUOUS
 70
0
 71
3
 72
13
 73
9
 74
7
 42
0.0000001
 43
0.0000001
 44
0.0000000001
 12
-0.0546570986
 22
-2.6915052407
 32
0.0
 13
-2.6920601515
 23
0.0
 33
0.0
 40
0.0
 40
0.0
 40
0.0
 40
0.0
 40
0.1248687908
 40
0.2497756345
 40
0.4987673682
 40
0.7484985
 40
0.8742157891
 40
1.0
 40
1.0
 40
1.0
 40
1.0
 10
7.74959144
 20
-1.8482556387
 30
0.0
 10
7.7473164514
 20
-1.9602839736
 30
0.0
 10
7.7207722228
 20
-2.1846169267
 30
0.0
 10
7.5821652866
 20
-2.6125637826
 30
0.0
 10
7.2554840502
 20
-3.0856873236
 30
0.0
 10
6.7725253976
 20
-3.3983941085
 30
0.0
 10
6.3392590261
 20
-3.5271070075
 30
0.0
 10
6.1128728873
 20
-3.5486793301
 30
0.0
 10
6.0
 20
-3.5486793301
 30
0.0
 11
7.74959144
 21
-1.8482556387
 31
0.0
 11
7.7100624914
 21
-2.1820777063
 31
0.0
 11
7.6063859961
 21
-2.5019523338
 31
0.0
 11
7.2248447479
 21
-3.0530687797
 31
0.0
 11
6.6614979341
 21
-3.4199691246
 31
0.0
 11
6.3370711195
 21
-3.5163426852
 31
0.0
 11
6.0
 21
-3.5486793301
 31
0.0
  0
SPLINE
  5
6B6
100
AcDbEntity
  8
0
100
AcDbSpline
 62
7
  6
CONTINUOUS
 70
0
 71
3
 72
11
 73
7
 74
5
 42
0.0000001
 43
0.0000001
 44
0.0000000001
 12
-2.720384482
 22
0.0
 32
0.0
 13
0.0000273584
 23
2.7203844819
 33
0.0
 40
0.0
 40
0.0
 40
0.0
 40
0.0
 40
0.2509358018
 40
0.501257906
 40
0.7508251456
 40
1.0
 40
1.0
 40
1.0
 40
1.0
 10
6.0
 20
-3.5840259235
 30
0.0
 10
5.7724527129
 20
-3.5840259235
 30
0.0
 10
5.312994426
 20
-3.4940870338
 30
0.0
 10
4.7312387397
 20
-3.1085807736
 30
0.0
 10
4.3412006393
 20
-2.5315144698
 30
0.0
 10
4.2499977419
 20
-2.0742300876
 30
0.0
 10
4.2500000143
 20
-1.8482796185
 30
0.0
 11
6.0
 21
-3.5840259235
 31
0.0
 11
5.3302436229
 21
-3.4520171889
 31
0.0
 11
4.7625079722
 21
-3.0759858116
 31
0.0
 11
4.3831857206
 21
-2.5129179397
 31
0.0
 11
4.2500000143
 21
-1.8482796185
 31
0.0
  0
SPLINE
  5
6B7
100
AcDbEntity
  8
0
100
AcDbSpline
 62
7
  6
CONTINUOUS
 70
0
 71
3
 72
11
 73
7
 74
5
 42
0.0000001
 43
0.0000001
 44
0.0000000001
 12
-2.6856880816
 22
0.0
 32
0.0
 13
-0.0556377134
 23
2.685111714
 33
0.0
 40
0.0
 40
0.0
 40
0.0
 40
0.0
 40
0.2509253068
 40
0.5012412241
 40
0.7508239046
 40
1.0
 40
1.0
 40
1.0
 40
1.0
 10
6.0
 20
-3.5486793301
 30
0.0
 10
5.7753642981
 20
-3.5486793301
 30
0.0
 10
5.3219445592
 20
-3.460941136
 30
0.0
 10
4.7450133135
 20
-3.0851544371
 30
0.0
 10
4.3530090322
 20
-2.520683489
 30
0.0
 10
4.2550442434
 20
-2.0712675617
 30
0.0
 10
4.2504230474
 20
-1.8482456775
 30
0.0
 11
6.0
 21
-3.5486793301
 31
0.0
 11
5.3385016359
 21
-3.4199520934
 31
0.0
 11
4.7751685412
 21
-3.0530687098
 31
0.0
 11
4.3936239084
 21
-2.5019539917
 31
0.0
 11
4.2504230474
 21
-1.8482456775
 31
0.0
  0
SPLINE
  5
6B8
100
AcDbEntity
  8
0
100
AcDbSpline
 62
7
  6
CONTINUOUS
 70
0
 71
3
 72
11
 73
7
 74
5
 42
0.0000001
 43
0.0000001
 44
0.0000000001
 12
-2.3440309647
 22
0.0
 32
0.0
 13
0.0000403371
 23
-2.3440309644
 33
0.0
 40
0.0
 40
0.0
 40
0.0
 40
0.0
 40
0.2501668357
 40
0.5002487496
 40
0.7501970088
 40
1.0
 40
1.0
 40
1.0
 40
1.0
 10
2.1993809797
 20
6.2293380263
 30
0.0
 10
2.0039147099
 20
6.2293380263
 30
0.0
 10
1.6087338732
 20
6.1506537618
 30
0.0
 10
1.1102616411
 20
5.8149678617
 30
0.0
 10
0.7772459134
 20
5.3152196712
 30
0.0
 10
0.6993776599
 20
4.9205154446
 30
0.0
 10
0.6993810187
 20
4.7253334625
 30
0.0
 11
2.1993809797
 21
6.2293380263
 31
0.0
 11
1.6243691178
 21
6.1143383642
 31
0.0
 11
1.1377311396
 21
5.7875148262
 31
0.0
 11
0.8132226292
 21
5.2997062883
 31
0.0
 11
0.6993810187
 21
4.7253334625
 31
0.0
  0
SPLINE
  5
6B9
100
AcDbEntity
  8
0
100
AcDbSpline
 62
7
  6
CONTINUOUS
 70
0
 71
3
 72
11
 73
7
 74
5
 42
0.0000001
 43
0.0000001
 44
0.0000000001
 12
-2.3440309647
 22
0.0
 32
0.0
 13
0.0000403371
 23
-2.3440309644
 33
0.0
 40
0.0
 40
0.0
 40
0.0
 40
0.0
 40
0.2501668357
 40
0.5002487496
 40
0.7501970088
 40
1.0
 40
1.0
 40
1.0
 40
1.0
 10
-0.4230974353
 20
6.2293380263
 30
0.0
 10
-0.618563705
 20
6.2293380263
 30
0.0
 10
-1.0137445418
 20
6.1506537618
 30
0.0
 10
-1.5122167738
 20
5.8149678617
 30
0.0
 10
-1.8452325016
 20
5.3152196712
 30
0.0
 10
-1.923100755
 20
4.9205154446
 30
0.0
 10
-1.9230973963
 20
4.7253334625
 30
0.0
 11
-0.4230974353
 21
6.2293380263
 31
0.0
 11
-0.9981092971
 21
6.1143383642
 31
0.0
 11
-1.4847472753
 21
5.7875148262
 31
0.0
 11
-1.8092557857
 21
5.2997062883
 31
0.0
 11
-1.9230973963
 21
4.7253334625
 31
0.0
  0
LINE
  5
6BA
100
AcDbEntity
  8
0
100
AcDbLine
 62
7
  6
CONTINUOUS
 10
-7.0157498771
 20
13.6342293142
 11
-7.0140423495
 21
13.9637400208
  0
SPLINE
  5
6BB
100
AcDbEntity
  8
0
100
AcDbSpline
 62
7
  6
CONTINUOUS
 70
0
 71
3
 72
11
 73
7
 74
5
 42
0.0000001
 43
0.0000001
 44
0.0000000001
 12
0.0000002886
 22
-0.3888326067
 32
0.0
 13
0.3888326067
 23
0.0
 33
0.0
 40
0.0
 40
0.0
 40
0.0
 40
0.0
 40
0.2492224945
 40
0.4988392073
 40
0.7491366187
 40
1.0
 40
1.0
 40
1.0
 40
1.0
 10
-5.75
 20
-1.624000274
 30
0.0
 10
-5.749999976
 20
-1.6563022181
 30
0.0
 10
-5.7369747885
 20
-1.7216780002
 30
0.0
 10
-5.6812467158
 20
-1.8041753998
 30
0.0
 10
-5.5981777672
 20
-1.8593789667
 30
0.0
 10
-5.5325158172
 20
-1.8722803023
 30
0.0
 10
-5.5000011963
 20
-1.8722803023
 30
0.0
 11
-5.75
 21
-1.624000274
 31
0.0
 11
-5.7309737625
 21
-1.7190199699
 31
0.0
 11
-5.6767786913
 21
-1.7995393245
 31
0.0
 11
-5.5956932593
 21
-1.8533637965
 31
0.0
 11
-5.5000011963
 21
-1.8722803023
 31
0.0
  0
SPLINE
  5
6BC
100
AcDbEntity
  8
0
100
AcDbSpline
 62
253
  6
CONTINUOUS
 70
0
 71
3
 72
20
 73
16
 74
14
 42
0.0000001
 43
0.0000001
 44
0.0000000001
 12
-0.8793419508
 22
3.0035232211
 32
0.0
 13
-3.1284180779
 23
0.0859903237
 33
0.0
 40
0.0
 40
0.0
 40
0.0
 40
0.0
 40
0.0045481943
 40
0.0110588279
 40
0.0312490544
 40
0.0611616005
 40
0.1005047419
 40
0.1487403604
 40
0.2048963074
 40
0.2677868848
 40
0.3358015895
 40
0.4828034242
 40
0.6447003812
 40
0.8205223589
 40
1.0
 40
1.0
 40
1.0
 40
1.0
 10
-9.8577454541
 20
17.0116199342
 30
0.0
 10
-9.8590785934
 20
17.0161734699
 30
0.0
 10
-9.8666793523
 20
17.0256791437
 30
0.0
 10
-9.8942781517
 20
17.0430769324
 30
0.0
 10
-9.9503169139
 20
17.0633020374
 30
0.0
 10
-10.0401911647
 20
17.0878112071
 30
0.0
 10
-10.1600678324
 20
17.1139117904
 30
0.0
 10
-10.3074514943
 20
17.1414021203
 30
0.0
 10
-10.4796469412
 20
17.1698441098
 30
0.0
 10
-10.672634052
 20
17.1987789962
 30
0.0
 10
-10.9598105002
 20
17.2385504351
 30
0.0
 10
-11.3500392221
 20
17.287003512
 30
0.0
 10
-11.8532314751
 20
17.3374626639
 30
0.0
 10
-12.3913489965
 20
17.3773716841
 30
0.0
 10
-12.761680642
 20
17.394478577
 30
0.0
 10
-12.9488410077
 20
17.3996230239
 30
0.0
 11
-9.8577454541
 21
17.0116199342
 31
0.0
 11
-9.8656969771
 21
17.0234258994
 31
0.0
 11
-9.8823658232
 21
17.0351441661
 31
0.0
 11
-9.940814826
 21
17.0591515024
 31
0.0
 11
-10.0309158399
 21
17.08455708
 31
0.0
 11
-10.1510846767
 21
17.1113903506
 31
0.0
 11
-10.2994189036
 21
17.1394140504
 31
0.0
 11
-10.4727756296
 21
17.1682926393
 31
0.0
 11
-10.6673982144
 21
17.1976367838
 31
0.0
 11
-10.8782312756
 21
17.2269333276
 31
0.0
 11
-11.3348124121
 21
17.2833780717
 31
0.0
 11
-11.8389576639
 21
17.3339226082
 31
0.0
 11
-12.3877070619
 21
17.3745649895
 31
0.0
 11
-12.9488410077
 21
17.3996230239
 31
0.0
  0
SPLINE
  5
6BD
100
AcDbEntity
  8
0
100
AcDbSpline
 62
253
  6
CONTINUOUS
 70
0
 71
3
 72
21
 73
17
 74
15
 42
0.0000001
 43
0.0000001
 44
0.0000000001
 12
-0.0000008408
 22
-3.5181151754
 32
0.0
 13
-0.0000018456
 23
3.5181151754
 33
0.0
 40
0.0
 40
0.0
 40
0.0
 40
0.0
 40
0.0878555412
 40
0.1597633821
 40
0.2212886016
 40
0.2785993302
 40
0.3343370695
 40
0.3898372915
 40
0.5000468626
 40
0.6101874986
 40
0.6656617356
 40
0.7211927606
 40
0.7784569896
 40
0.839977658
 40
0.9119459113
 40
1.0
 40
1.0
 40
1.0
 40
1.0
 10
-3.8923301617
 20
-14.400651065
 30
0.0
 10
-3.8923301863
 20
-14.5036797026
 30
0.0
 10
-3.928701236
 20
-14.6936189854
 30
0.0
 10
-4.0706791476
 20
-14.9167569294
 30
0.0
 10
-4.2456308239
 20
-15.0605722171
 30
0.0
 10
-4.4305417518
 20
-15.1512532322
 30
0.0
 10
-4.620258583
 20
-15.2087732897
 30
0.0
 10
-4.876127195
 20
-15.2553609157
 30
0.0
 10
-5.2000784484
 20
-15.2742092973
 30
0.0
 10
-5.5239959411
 20
-15.2553406985
 30
0.0
 10
-5.7795158191
 20
-15.2088118072
 30
0.0
 10
-5.9689254448
 20
-15.1514301818
 30
0.0
 10
-6.1536288289
 20
-15.0610292558
 30
0.0
 10
-6.3287514634
 20
-14.9174129376
 30
0.0
 10
-6.4711524774
 20
-14.6941750021
 30
0.0
 10
-6.5076697841
 20
-14.5039125346
 30
0.0
 10
-6.5076698383
 20
-14.4006510594
 30
0.0
 11
-3.8923301617
 21
-14.400651065
 31
0.0
 11
-3.9523303889
 21
-14.7038573878
 31
0.0
 11
-4.0880209729
 21
-14.9173684634
 31
0.0
 11
-4.2540198047
 21
-15.056279248
 31
0.0
 11
-4.4341363917
 21
-15.146893572
 31
0.0
 11
-4.6213594825
 21
-15.2051988294
 31
0.0
 11
-4.8132659953
 21
-15.2412108203
 31
0.0
 11
-5.2001587555
 21
-15.2666768276
 31
0.0
 11
-5.5868077902
 21
-15.2412005163
 31
0.0
 11
-5.7786239735
 21
-15.2052028302
 31
0.0
 11
-5.96516896
 21
-15.1471660118
 31
0.0
 11
-6.145211627
 21
-15.0567689039
 31
0.0
 11
-6.3113547122
 21
-14.9180556663
 31
0.0
 11
-6.4473947162
 21
-14.7045150093
 31
0.0
 11
-6.5076698383
 21
-14.4006510594
 31
0.0
  0
LINE
  5
6BE
100
AcDbEntity
  8
0
100
AcDbLine
 62
7
  6
CONTINUOUS
 10
-7.0119850125
 20
14.9770967829
 11
-7.0120002096
 21
15.049993216
  0
SPLINE
  5
6BF
100
AcDbEntity
  8
0
100
AcDbSpline
 62
7
  6
CONTINUOUS
 70
0
 71
3
 72
9
 73
5
 74
3
 42
0.0000001
 43
0.0000001
 44
0.0000000001
 12
0.0
 22
0.5534226444
 32
0.0
 13
0.0131088097
 23
0.5532673697
 33
0.0
 40
0.0
 40
0.0
 40
0.0
 40
0.0
 40
0.2879435527
 40
1.0
 40
1.0
 40
1.0
 40
1.0
 10
-7.0120002096
 20
15.049993216
 30
0.0
 10
-7.0120002096
 20
15.1031113768
 30
0.0
 10
-7.0115607582
 20
15.2875827122
 30
0.0
 10
-7.0102297646
 20
15.472070001
 30
0.0
 10
-7.0071183605
 20
15.6033892003
 30
0.0
 11
-7.0120002096
 21
15.049993216
 31
0.0
 11
-7.0116732161
 21
15.2093473629
 31
0.0
 11
-7.0071183605
 21
15.6033892003
 31
0.0
  0
SPLINE
  5
6C0
100
AcDbEntity
  8
0
100
AcDbSpline
 62
7
  6
CONTINUOUS
 70
0
 71
3
 72
9
 73
5
 74
3
 42
0.0000001
 43
0.0000001
 44
0.0000000001
 12
0.0131084531
 22
-0.5532523213
 32
0.0
 13
-0.0
 23
-0.5534075917
 33
0.0
 40
0.0
 40
0.0
 40
0.0
 40
0.0
 40
0.198066628
 40
1.0
 40
1.0
 40
1.0
 40
1.0
 10
7.0071183951
 20
15.6033889611
 30
0.0
 10
7.0079838442
 20
15.5668620205
 30
0.0
 10
7.0112025234
 20
15.3824184283
 30
0.0
 10
7.0120001951
 20
15.1979415257
 30
0.0
 10
7.0120001951
 20
15.0500095204
 30
0.0
 11
7.0071183951
 21
15.6033889611
 31
0.0
 11
7.009163893
 21
15.493796473
 31
0.0
 11
7.0120001951
 21
15.0500095204
 31
0.0
  0
LINE
  5
6C1
100
AcDbEntity
  8
0
100
AcDbLine
 62
7
  6
CONTINUOUS
 10
7.0120001951
 20
15.0500095204
 11
7.0119849997
 21
14.9771038494
  0
SPLINE
  5
6C2
100
AcDbEntity
  8
0
100
AcDbSpline
 62
253
  6
CONTINUOUS
 70
0
 71
3
 72
12
 73
8
 74
6
 42
0.0000001
 43
0.0000001
 44
0.0000000001
 12
0.0000000239
 22
0.1204759616
 32
0.0
 13
-0.1102004736
 23
0.0486858598
 33
0.0
 40
0.0
 40
0.0
 40
0.0
 40
0.0
 40
0.1779927841
 40
0.3970509387
 40
0.6780973774
 40
0.8363871165
 40
1.0
 40
1.0
 40
1.0
 40
1.0
 10
6.8
 20
15.6760312296
 30
0.0
 10
6.8000000014
 20
15.6831791802
 30
0.0
 10
6.7909634304
 20
15.6981794434
 30
0.0
 10
6.7686786549
 20
15.7145271534
 30
0.0
 10
6.7418362289
 20
15.718806498
 30
0.0
 10
6.7180240085
 20
15.7219108916
 30
0.0
 10
6.7050981994
 20
15.7242968357
 30
0.0
 10
6.699088127
 20
15.726952047
 30
0.0
 11
6.8
 21
15.6760312296
 31
0.0
 11
6.791091793
 21
15.6955371935
 31
0.0
 11
6.7699572293
 21
15.7113431375
 31
0.0
 11
6.7370610138
 21
15.7193614857
 31
0.0
 11
6.7181827476
 21
15.7220596526
 31
0.0
 11
6.699088127
 21
15.726952047
 31
0.0
  0
SPLINE
  5
6C3
100
AcDbEntity
  8
0
100
AcDbSpline
 62
7
  6
CONTINUOUS
 70
0
 71
3
 72
9
 73
5
 74
3
 42
0.0000001
 43
0.0000001
 44
0.0000000001
 12
0.2461120672
 22
0.0794765369
 32
0.0
 13
0.236490713
 23
0.1046891217
 33
0.0
 40
0.0
 40
0.0
 40
0.0
 40
0.0
 40
0.2145064108
 40
1.0
 40
1.0
 40
1.0
 40
1.0
 10
-8.2159043801
 20
-7.9713939076
 30
0.0
 10
-8.1983068414
 20
-7.9657111654
 30
0.0
 10
-8.1168261175
 20
-7.9374889407
 30
0.0
 10
-8.037347255
 20
-7.9038246005
 30
0.0
 10
-7.9754266087
 20
-7.8764137225
 30
0.0
 11
-8.2159043801
 21
-7.9713939076
 31
0.0
 11
-8.1634426778
 21
-7.9533530611
 31
0.0
 11
-7.9754266087
 21
-7.8764137225
 31
0.0
  0
SPLINE
  5
6C4
100
AcDbEntity
  8
0
100
AcDbSpline
 62
7
  6
CONTINUOUS
 70
0
 71
3
 72
10
 73
6
 74
4
 42
0.0000001
 43
0.0000001
 44
0.0000000001
 12
0.9336943668
 22
0.4133255045
 32
0.0
 13
0.9507388026
 23
0.3724498254
 33
0.0
 40
0.0
 40
0.0
 40
0.0
 40
0.0
 40
0.2052359587
 40
0.4427605581
 40
1.0
 40
1.0
 40
1.0
 40
1.0
 10
-7.9754266087
 20
-7.8764137225
 30
0.0
 10
-7.9115507225
 20
-7.8481373038
 30
0.0
 10
-7.7748250354
 20
-7.7847284175
 30
0.0
 10
-7.4664093591
 20
-7.6408235902
 30
0.0
 10
-7.2181502908
 20
-7.5329076993
 30
0.0
 10
-7.0415539043
 20
-7.463726455
 30
0.0
 11
-7.9754266087
 21
-7.8764137225
 31
0.0
 11
-7.7848326831
 21
-7.7892867017
 31
0.0
 11
-7.5647338456
 21
-7.687408604
 31
0.0
 11
-7.0415539043
 21
-7.463726455
 31
0.0
  0
SPLINE
  5
6C5
100
AcDbEntity
  8
0
100
AcDbSpline
 62
7
  6
CONTINUOUS
 70
0
 71
3
 72
9
 73
5
 74
3
 42
0.0000001
 43
0.0000001
 44
0.0000000001
 12
0.0957402515
 22
-0.29296857
 32
0.0
 13
0.3082154746
 23
0.0
 33
0.0
 40
0.0
 40
0.0
 40
0.0
 40
0.0
 40
0.4990071497
 40
1.0
 40
1.0
 40
1.0
 40
1.0
 10
-5.737761769
 20
-1.6653785408
 30
0.0
 10
-5.7218367456
 20
-1.7141096778
 30
0.0
 10
-5.6569151971
 20
-1.803747972
 30
0.0
 10
-5.5514712497
 20
-1.836926336
 30
0.0
 10
-5.5
 20
-1.836926336
 30
0.0
 11
-5.737761769
 21
-1.6653785408
 31
0.0
 11
-5.6469537049
 21
-1.7895109952
 31
0.0
 11
-5.5
 21
-1.836926336
 31
0.0
  0
SPLINE
  5
6C6
100
AcDbEntity
  8
0
100
AcDbSpline
 62
253
  6
CONTINUOUS
 70
0
 71
3
 72
11
 73
7
 74
5
 42
0.0000001
 43
0.0000001
 44
0.0000000001
 12
-0.0199165205
 22
1.5410806063
 32
0.0
 13
-0.0637292188
 23
1.5398911292
 33
0.0
 40
0.0
 40
0.0
 40
0.0
 40
0.0
 40
0.2617363792
 40
0.5195118386
 40
0.7673004677
 40
1.0
 40
1.0
 40
1.0
 40
1.0
 10
-6.5000000193
 20
14.2000001521
 30
0.0
 10
-6.5017376453
 20
14.3344524381
 30
0.0
 10
-6.5235925069
 20
14.6011908877
 30
0.0
 10
-6.5911556592
 20
14.9896970976
 30
0.0
 10
-6.662898725
 20
15.3619606345
 30
0.0
 10
-6.6943124878
 20
15.6075112873
 30
0.0
 10
-6.6992557409
 20
15.7269552692
 30
0.0
 11
-6.5000000193
 21
14.2000001521
 31
0.0
 11
-6.5298229898
 21
14.6022867656
 31
0.0
 11
-6.5932343705
 21
14.9944794619
 31
0.0
 11
-6.6603015843
 21
15.3704383992
 31
0.0
 11
-6.6992557409
 21
15.7269552692
 31
0.0
  0
SPLINE
  5
6C7
100
AcDbEntity
  8
0
100
AcDbSpline
 62
253
  6
CONTINUOUS
 70
0
 71
3
 72
12
 73
8
 74
6
 42
0.0000001
 43
0.0000001
 44
0.0000000001
 12
-0.1046444848
 22
-1.5376987679
 32
0.0
 13
-0.0361557242
 23
-1.5408311824
 33
0.0
 40
0.0
 40
0.0
 40
0.0
 40
0.0
 40
0.2342966224
 40
0.3568893127
 40
0.4823860695
 40
0.7390832808
 40
1.0
 40
1.0
 40
1.0
 40
1.0
 10
6.6990883484
 20
15.7269552973
 30
0.0
 10
6.6909157319
 20
15.6068627547
 30
0.0
 10
6.6705244565
 20
15.4244271325
 30
0.0
 10
6.6311612577
 20
15.1797185346
 30
0.0
 10
6.5824741274
 20
14.9250159838
 30
0.0
 10
6.5212647285
 20
14.6000325606
 30
0.0
 10
6.5031445487
 20
14.3340096913
 30
0.0
 10
6.5000000044
 20
14.2000001523
 30
0.0
 11
6.6990883484
 21
15.7269552973
 31
0.0
 11
6.6603790596
 21
15.3679250968
 31
0.0
 11
6.6304986443
 21
15.1813560956
 31
0.0
 11
6.5951810217
 21
14.9911852613
 31
0.0
 11
6.5293261036
 21
14.6010687028
 31
0.0
 11
6.5000000044
 21
14.2000001523
 31
0.0
  0
SPLINE
  5
6C8
100
AcDbEntity
  8
0
100
AcDbSpline
 62
7
  6
CONTINUOUS
 70
0
 71
3
 72
9
 73
5
 74
3
 42
0.0000001
 43
0.0000001
 44
0.0000000001
 12
0.0000000022
 22
-0.0274642213
 32
0.0
 13
0.026457536
 23
-0.0073676481
 33
0.0
 40
0.0
 40
0.0
 40
0.0
 40
0.0
 40
0.3194374357
 40
1.0
 40
1.0
 40
1.0
 40
1.0
 10
-8.1999903339
 20
-8.0217928652
 30
0.0
 10
-8.1999903337
 20
-8.024717232
 30
0.0
 10
-8.1906067621
 20
-8.0310389469
 30
0.0
 10
-8.1826219069
 20
-8.0331743415
 30
0.0
 10
-8.176619904
 20
-8.0348457233
 30
0.0
 11
-8.1999903339
 21
-8.0217928652
 31
0.0
 11
-8.194138131
 21
-8.0283288435
 31
0.0
 11
-8.176619904
 21
-8.0348457233
 31
0.0
  0
SPLINE
  5
6C9
100
AcDbEntity
  8
0
100
AcDbSpline
 62
7
  6
CONTINUOUS
 70
0
 71
3
 72
14
 73
10
 74
8
 42
0.0000001
 43
0.0000001
 44
0.0000000001
 12
1.6106256903
 22
-0.4485120336
 32
0.0
 13
1.6716694595
 23
-0.0282732507
 33
0.0
 40
0.0
 40
0.0
 40
0.0
 40
0.0
 40
0.0421564146
 40
0.1108704292
 40
0.2052551183
 40
0.3239083223
 40
0.4650166732
 40
0.6264218473
 40
1.0
 40
1.0
 40
1.0
 40
1.0
 10
-8.176619904
 20
-8.0348457233
 30
0.0
 10
-8.1539871692
 20
-8.0411482764
 30
0.0
 10
-8.0926086546
 20
-8.0501834974
 30
0.0
 10
-7.9789511798
 20
-8.0620387438
 30
0.0
 10
-7.8222472343
 20
-8.0731685612
 30
0.0
 10
-7.6251925253
 20
-8.0839172111
 30
0.0
 10
-7.390667592
 20
-8.0937479259
 30
0.0
 10
-7.0140832121
 20
-8.1061141212
 30
0.0
 10
-6.7159926714
 20
-8.1125559097
 30
0.0
 10
-6.5078262752
 20
-8.1160766659
 30
0.0
 11
-8.176619904
 21
-8.0348457233
 31
0.0
 11
-8.1073089842
 21
-8.0476387736
 31
0.0
 11
-7.9930953762
 21
-8.0600275293
 31
0.0
 11
-7.8357345888
 21
-8.0718272272
 31
0.0
 11
-7.6376640814
 21
-8.0828557893
 31
0.0
 11
-7.401959517
 21
-8.0929417118
 31
0.0
 11
-7.1322545269
 21
-8.1019289955
 31
0.0
 11
-6.5078262752
 21
-8.1160766659
 31
0.0
  0
SPLINE
  5
6CA
100
AcDbEntity
  8
0
100
AcDbSpline
 62
7
  6
CONTINUOUS
 70
0
 71
3
 72
9
 73
5
 74
3
 42
0.0000001
 43
0.0000001
 44
0.0000000001
 12
-0.0016022749
 22
-0.4986376387
 32
0.0
 13
-0.0010799087
 23
-0.4986390436
 33
0.0
 40
0.0
 40
0.0
 40
0.0
 40
0.0
 40
0.2480452108
 40
1.0
 40
1.0
 40
1.0
 40
1.0
 10
6.8000054189
 20
14.6986173222
 30
0.0
 10
6.79987294
 20
14.6573890961
 30
0.0
 10
6.7989162782
 20
14.4911773641
 30
0.0
 10
6.7953108803
 20
14.3249876482
 30
0.0
 10
6.7950401995
 20
14.2000029759
 30
0.0
 11
6.8000054189
 21
14.6986173222
 31
0.0
 11
6.799235382
 21
14.5749344025
 31
0.0
 11
6.7950401995
 21
14.2000029759
 31
0.0
  0
SPLINE
  5
6CB
100
AcDbEntity
  8
0
100
AcDbSpline
 62
7
  6
CONTINUOUS
 70
0
 71
3
 72
20
 73
16
 74
14
 42
0.0000001
 43
0.0000001
 44
0.0000000001
 12
2.0270768604
 22
0.0290392421
 32
0.0
 13
0.9710264449
 23
1.7796043153
 33
0.0
 40
0.0
 40
0.0
 40
0.0
 40
0.0
 40
0.210296912
 40
0.4016405469
 40
0.5716850396
 40
0.7170900898
 40
0.7794768752
 40
0.834550622
 40
0.8820527054
 40
0.9217248825
 40
0.9533470672
 40
0.976846338
 40
0.9922456634
 40
0.9969986715
 40
1.0
 40
1.0
 40
1.0
 40
1.0
 10
-11.6180024405
 20
-8.1090948026
 30
0.0
 10
-11.4759064391
 20
-8.1070591816
 30
0.0
 10
-11.2045308149
 20
-8.102421427
 30
0.0
 10
-10.8183143968
 20
-8.0932010689
 30
0.0
 10
-10.4760154447
 20
-8.0822061076
 30
0.0
 10
-10.2209114335
 20
-8.0713455357
 30
0.0
 10
-10.0435391263
 20
-8.0616400549
 30
0.0
 10
-9.9322957812
 20
-8.0544523916
 30
0.0
 10
-9.8364453899
 20
-8.0470458892
 30
0.0
 10
-9.7565406694
 20
-8.039461748
 30
0.0
 10
-9.6928775761
 20
-8.0318209972
 30
0.0
 10
-9.6459523164
 20
-8.0241011751
 30
0.0
 10
-9.6169796481
 20
-8.0172919098
 30
0.0
 10
-9.6027051076
 20
-8.0111297828
 30
0.0
 10
-9.5983188599
 20
-8.0077889106
 30
0.0
 10
-9.5973474035
 20
-8.0060085182
 30
0.0
 11
-11.6180024405
 21
-8.1090948026
 31
0.0
 11
-11.1917348658
 21
-8.1016981177
 31
0.0
 11
-10.8039408328
 21
-8.0922935756
 31
0.0
 11
-10.4593964189
 21
-8.0810254209
 31
0.0
 11
-10.1649012853
 21
-8.0681271732
 31
0.0
 11
-10.0386181148
 21
-8.0611497054
 31
0.0
 11
-9.9272054348
 21
-8.0538712587
 31
0.0
 11
-9.8312006417
 21
-8.0463334444
 31
0.0
 11
-9.751148656
 21
-8.0385777771
 31
0.0
 11
-9.6875344807
 21
-8.0306426206
 31
0.0
 11
-9.6405864525
 21
-8.0225540383
 31
0.0
 11
-9.6104689772
 21
-8.0143350145
 31
0.0
 11
-9.6017733536
 21
-8.0101837651
 31
0.0
 11
-9.5973474035
 21
-8.0060085182
 31
0.0
  0
SPLINE
  5
6CC
100
AcDbEntity
  8
0
100
AcDbSpline
 62
7
  6
CONTINUOUS
 70
0
 71
3
 72
9
 73
5
 74
3
 42
0.0000001
 43
0.0000001
 44
0.0000000001
 12
-0.0616373284
 22
0.0203768599
 32
0.0
 13
-0.0608913504
 23
0.0225082233
 33
0.0
 40
0.0
 40
0.0
 40
0.0
 40
0.0
 40
0.2355313962
 40
1.0
 40
1.0
 40
1.0
 40
1.0
 10
8.2192248652
 20
-7.970576646
 30
0.0
 10
8.2143856898
 20
-7.9689768492
 30
0.0
 10
8.1938762541
 20
-7.9620746788
 30
0.0
 10
8.1735018104
 20
-7.9547751926
 30
0.0
 10
8.1579853019
 20
-7.9490395826
 30
0.0
 11
8.2192248652
 21
-7.970576646
 31
0.0
 11
8.2047319464
 21
-7.9657034524
 31
0.0
 11
8.1579853019
 21
-7.9490395826
 31
0.0
  0
SPLINE
  5
6CD
100
AcDbEntity
  8
0
100
AcDbSpline
 62
7
  6
CONTINUOUS
 70
0
 71
3
 72
9
 73
5
 74
3
 42
0.0000001
 43
0.0000001
 44
0.0000000001
 12
-0.154914121
 22
0.0572633323
 32
0.0
 13
-0.1521583145
 23
0.0642286653
 33
0.0
 40
0.0
 40
0.0
 40
0.0
 40
0.0
 40
0.2283698962
 40
1.0
 40
1.0
 40
1.0
 40
1.0
 10
8.1579853019
 20
-7.9490395826
 30
0.0
 10
8.146192728
 20
-7.9446805088
 30
0.0
 10
8.0947046531
 20
-7.925186993
 30
0.0
 10
8.0437367468
 20
-7.9043412884
 30
0.0
 10
8.0046001014
 20
-7.8878210312
 30
0.0
 11
8.1579853019
 21
-7.9490395826
 31
0.0
 11
8.1227032036
 21
-7.935706524
 31
0.0
 11
8.0046001014
 21
-7.8878210312
 31
0.0
  0
SPLINE
  5
6CE
100
AcDbEntity
  8
0
100
AcDbSpline
 62
7
  6
CONTINUOUS
 70
0
 71
3
 72
11
 73
7
 74
5
 42
0.0000001
 43
0.0000001
 44
0.0000000001
 12
-0.9870959792
 22
0.4166703443
 32
0.0
 13
-0.9954263071
 23
0.3963573072
 33
0.0
 40
0.0
 40
0.0
 40
0.0
 40
0.0
 40
0.2050206519
 40
0.4432338487
 40
0.7098840423
 40
1.0
 40
1.0
 40
1.0
 40
1.0
 10
8.0046001014
 20
-7.8878210312
 30
0.0
 10
7.9371417477
 20
-7.8593456893
 30
0.0
 10
7.792474615
 20
-7.7950434873
 30
0.0
 10
7.561370096
 20
-7.6908016721
 30
0.0
 10
7.3015150896
 20
-7.5763916235
 30
0.0
 10
7.1181562461
 20
-7.4993749212
 30
0.0
 10
7.0218932273
 20
-7.4610450612
 30
0.0
 11
8.0046001014
 21
-7.8878210312
 31
0.0
 11
7.8033877643
 21
-7.799691203
 31
0.0
 11
7.5704797311
 21
-7.6953065246
 31
0.0
 11
7.3088714263
 21
-7.5804822239
 31
0.0
 11
7.0218932273
 21
-7.4610450612
 31
0.0
  0
LINE
  5
6CF
100
AcDbEntity
  8
0
100
AcDbLine
 62
7
  6
CONTINUOUS
 10
6.7950457072
 20
14.2
 11
6.7950333338
 21
14.1806891488
  0
SPLINE
  5
6D0
100
AcDbEntity
  8
0
100
AcDbSpline
 62
7
  6
CONTINUOUS
 70
0
 71
3
 72
11
 73
7
 74
5
 42
0.0000001
 43
0.0000001
 44
0.0000000001
 12
0.0078530949
 22
-3.311967941
 32
0.0
 13
0.1479849639
 23
-3.3086694854
 33
0.0
 40
0.0
 40
0.0
 40
0.0
 40
0.0
 40
0.3232308093
 40
0.6105675413
 40
0.8416194923
 40
1.0
 40
1.0
 40
1.0
 40
1.0
 10
-9.2258650844
 20
-4.4256492113
 30
0.0
 10
-9.2250189637
 20
-4.7824925706
 30
0.0
 10
-9.22200323
 20
-5.4565481703
 30
0.0
 10
-9.213289364
 20
-6.3856622598
 30
0.0
 10
-9.2008334844
 20
-7.1326944849
 30
0.0
 10
-9.1897371888
 20
-7.5625258816
 30
0.0
 10
-9.1819245442
 20
-7.7372021326
 30
0.0
 11
-9.2258650844
 21
-4.4256492113
 31
0.0
 11
-9.220899438
 21
-5.4961707819
 31
0.0
 11
-9.2114243112
 21
-6.4477763312
 31
0.0
 11
-9.1981129873
 21
-7.2128993526
 31
0.0
 11
-9.1819245442
 21
-7.7372021326
 31
0.0
  0
SPLINE
  5
6D1
100
AcDbEntity
  8
0
100
AcDbSpline
 62
7
  6
CONTINUOUS
 70
0
 71
3
 72
9
 73
5
 74
3
 42
0.0000001
 43
0.0000001
 44
0.0000000001
 12
0.0234283837
 22
0.5205899815
 32
0.0
 13
0.0121213049
 23
0.5209759034
 33
0.0
 40
0.0
 40
0.0
 40
0.0
 40
0.0
 40
0.2026513474
 40
1.0
 40
1.0
 40
1.0
 40
1.0
 10
9.1816139733
 20
-7.7373180491
 30
0.0
 10
9.1831965712
 20
-7.702151962
 30
0.0
 10
9.1901226991
 20
-7.5285824765
 30
0.0
 10
9.1947074997
 20
-7.3549288916
 30
0.0
 10
9.1979291351
 20
-7.2164624134
 30
0.0
 11
9.1816139733
 21
-7.7373180491
 31
0.0
 11
9.1859075969
 21
-7.631800328
 31
0.0
 11
9.1979291351
 21
-7.2164624134
 31
0.0
  0
SPLINE
  5
6D2
100
AcDbEntity
  8
0
100
AcDbSpline
 62
7
  6
CONTINUOUS
 70
0
 71
3
 72
9
 73
5
 74
3
 42
0.0000001
 43
0.0000001
 44
0.0000000001
 12
0.0652857422
 22
2.7902213494
 32
0.0
 13
0.0064153397
 23
2.7909776514
 33
0.0
 40
0.0
 40
0.0
 40
0.0
 40
0.0
 40
0.4380982271
 40
1.0
 40
1.0
 40
1.0
 40
1.0
 10
9.1979291351
 20
-7.2164624134
 30
0.0
 10
9.207462991
 20
-6.808998738
 30
0.0
 10
9.2195648685
 20
-5.878714758
 30
0.0
 10
9.2247268853
 20
-4.9484007247
 30
0.0
 10
9.2259284822
 20
-4.4256489612
 30
0.0
 11
9.1979291351
 21
-7.2164624134
 31
0.0
 11
9.2167346453
 21
-5.9938814453
 31
0.0
 11
9.2259284822
 21
-4.4256489612
 31
0.0
  0
SPLINE
  5
6D3
100
AcDbEntity
  8
0
100
AcDbSpline
 62
7
  6
CONTINUOUS
 70
0
 71
3
 72
23
 73
19
 74
17
 42
0.0000001
 43
0.0000001
 44
0.0000000001
 12
0.0088642192
 22
-3.5769068322
 32
0.0
 13
3.5769178158
 23
-0.0000007341
 33
0.0
 40
0.0
 40
0.0
 40
0.0
 40
0.0
 40
0.2022147734
 40
0.3926924209
 40
0.5653947472
 40
0.6433417466
 40
0.7148494559
 40
0.7793441443
 40
0.8363242952
 40
0.8853281218
 40
0.9259798688
 40
0.9579497392
 40
0.9706043633
 40
0.9810045204
 40
0.9891294567
 40
0.9949749187
 40
0.9985551383
 40
1.0
 40
1.0
 40
1.0
 40
1.0
 10
9.5262415262
 20
-4.4256489612
 30
0.0
 10
9.5268390183
 20
-4.666750096
 30
0.0
 10
9.5286409727
 20
-5.1349569997
 30
0.0
 10
9.5334286356
 20
-5.8090646953
 30
0.0
 10
9.5391052173
 20
-6.334994107
 30
0.0
 10
9.5446617083
 20
-6.7190641607
 30
0.0
 10
9.5490674801
 20
-6.974119389
 30
0.0
 10
9.553817688
 20
-7.2041659549
 30
0.0
 10
9.5588655437
 20
-7.4073641523
 30
0.0
 10
9.5641608779
 20
-7.5821274388
 30
0.0
 10
9.569650726
 20
-7.7270184638
 30
0.0
 10
9.5746286472
 20
-7.8286253227
 30
0.0
 10
9.5788494565
 20
-7.8940221377
 30
0.0
 10
9.5817963786
 20
-7.9312415576
 30
0.0
 10
9.5846423643
 20
-7.9597482776
 30
0.0
 10
9.5876100593
 20
-7.9814227023
 30
0.0
 10
9.5900360035
 20
-7.9924193511
 30
0.0
 10
9.5925966829
 20
-7.9999999996
 30
0.0
 10
9.5943194001
 20
-8.0
 30
0.0
 11
9.5262415262
 21
-4.4256489612
 31
0.0
 11
9.52909876
 21
-5.1489489432
 31
0.0
 11
9.5340187684
 21
-5.8302540696
 31
0.0
 11
9.5408456923
 21
-6.4479583728
 31
0.0
 11
9.5449087474
 21
-6.7267387769
 31
0.0
 11
9.5493631178
 21
-6.9824771867
 31
0.0
 11
9.5541737025
 21
-7.2131192241
 31
0.0
 11
9.559300914
 21
-7.4168680397
 31
0.0
 11
9.5647042236
 21
-7.5920673983
 31
0.0
 11
9.5703438156
 21
-7.7373659506
 31
0.0
 11
9.5761760653
 21
-7.851570725
 31
0.0
 11
9.5791460757
 21
-7.8967377322
 31
0.0
 11
9.5821414221
 21
-7.9338174523
 31
0.0
 11
9.5851557599
 21
-7.9627229354
 31
0.0
 11
9.5881891204
 21
-7.9834104682
 31
0.0
 11
9.5912431262
 21
-7.99584713
 31
0.0
 11
9.5943194001
 21
-8.0
 31
0.0
  0
SPLINE
  5
6D4
100
AcDbEntity
  8
0
100
AcDbSpline
 62
7
  6
CONTINUOUS
 70
0
 71
3
 72
10
 73
6
 74
4
 42
0.0000001
 43
0.0000001
 44
0.0000000001
 12
1.1972810252
 22
-0.376753415
 32
0.0
 13
1.2549705794
 23
-0.0217677233
 33
0.0
 40
0.0
 40
0.0
 40
0.0
 40
0.0
 40
0.2501168685
 40
0.5002840562
 40
1.0
 40
1.0
 40
1.0
 40
1.0
 10
-12.8468421667
 20
-7.8676784032
 30
0.0
 10
-12.7470221065
 20
-7.899089198
 30
0.0
 10
-12.5456570778
 20
-7.9567644349
 30
0.0
 10
-12.1396241548
 20
-8.0563643152
 30
0.0
 10
-11.8270459575
 20
-8.1054689037
 30
0.0
 10
-11.6180030217
 20
-8.1090947965
 30
0.0
 11
-12.8468421667
 21
-7.8676784032
 31
0.0
 11
-12.545235728
 21
-7.9547972773
 31
0.0
 11
-12.240047574
 21
-8.0286619671
 31
0.0
 11
-11.6180030217
 21
-8.1090947965
 31
0.0
  0
LINE
  5
6D5
100
AcDbEntity
  8
0
100
AcDbLine
 62
7
  6
CONTINUOUS
 10
8.219152475
 20
-7.9711827007
 11
8.0295673346
 21
-7.9203385347
  0
SPLINE
  5
6D6
100
AcDbEntity
  8
0
100
AcDbSpline
 62
7
  6
CONTINUOUS
 70
0
 71
3
 72
9
 73
5
 74
3
 42
0.0000001
 43
0.0000001
 44
0.0000000001
 12
0.0000125493
 22
1.7040279168
 32
0.0
 13
0.0225252126
 23
1.7038790321
 33
0.0
 40
0.0
 40
0.0
 40
0.0
 40
0.0
 40
0.2683723307
 40
1.0
 40
1.0
 40
1.0
 40
1.0
 10
-8.9955998873
 20
14.1806893013
 30
0.0
 10
-8.9955987647
 20
14.3331272825
 30
0.0
 10
-8.99461836
 20
14.9011349781
 30
0.0
 10
-8.9910866534
 20
15.4691469963
 30
0.0
 10
-8.9855932972
 20
15.8846820113
 30
0.0
 11
-8.9955998873
 21
14.1806893013
 31
0.0
 11
-8.9948887835
 21
14.6380026921
 31
0.0
 11
-8.9855932972
 21
15.8846820113
 31
0.0
  0
SPLINE
  5
6D7
100
AcDbEntity
  8
0
100
AcDbSpline
 62
7
  6
CONTINUOUS
 70
0
 71
3
 72
9
 73
5
 74
3
 42
0.0000001
 43
0.0000001
 44
0.0000000001
 12
0.0018350887
 22
-0.4990484289
 32
0.0
 13
0.0010667876
 23
-0.4990506627
 33
0.0
 40
0.0
 40
0.0
 40
0.0
 40
0.0
 40
0.2480467147
 40
1.0
 40
1.0
 40
1.0
 40
1.0
 10
-6.7999995069
 20
14.6990270241
 30
0.0
 10
-6.7998477776
 20
14.6577645831
 30
0.0
 10
-6.7983854979
 20
14.4914195325
 30
0.0
 10
-6.7953078564
 20
14.3250878011
 30
0.0
 10
-6.7950404649
 20
14.200000206
 30
0.0
 11
-6.7999995069
 21
14.6990270241
 31
0.0
 11
-6.7990229616
 21
14.5752427159
 31
0.0
 11
-6.7950404649
 21
14.200000206
 31
0.0
  0
SPLINE
  5
6D8
100
AcDbEntity
  8
0
100
AcDbSpline
 62
7
  6
CONTINUOUS
 70
0
 71
3
 72
13
 73
9
 74
7
 42
0.0000001
 43
0.0000001
 44
0.0000000001
 12
0.0309120867
 22
-0.2563100973
 32
0.0
 13
0.2581671517
 23
-0.0003806135
 33
0.0
 40
0.0
 40
0.0
 40
0.0
 40
0.0
 40
0.034593332
 40
0.097708358
 40
0.192024756
 40
0.3153446939
 40
0.631061206
 40
1.0
 40
1.0
 40
1.0
 40
1.0
 10
-9.7778957342
 20
-4.3896734507
 30
0.0
 10
-9.7775392835
 20
-4.3926289908
 30
0.0
 10
-9.7702114705
 20
-4.3989098965
 30
0.0
 10
-9.7551757791
 20
-4.404441771
 30
0.0
 10
-9.7314816544
 20
-4.4104880274
 30
0.0
 10
-9.6862802164
 20
-4.4178590293
 30
0.0
 10
-9.6168552214
 20
-4.423956205
 30
0.0
 10
-9.5579574232
 20
-4.4256031098
 30
0.0
 10
-9.5262081306
 20
-4.4256499175
 30
0.0
 11
-9.7778957342
 21
-4.3896734507
 31
0.0
 11
-9.7723100396
 21
-4.396641986
 31
0.0
 11
-9.7574646588
 21
-4.4033589097
 31
0.0
 11
-9.7339149428
 21
-4.4095480327
 31
0.0
 11
-9.7025450452
 21
-4.4149827637
 31
0.0
 11
-9.6214136497
 21
-4.4228061447
 31
0.0
 11
-9.5262081306
 21
-4.4256499175
 31
0.0
  0
SPLINE
  5
6D9
100
AcDbEntity
  8
0
100
AcDbSpline
 62
253
  6
CONTINUOUS
 70
0
 71
3
 72
23
 73
19
 74
17
 42
0.0000001
 43
0.0000001
 44
0.0000000001
 12
-0.0086420575
 22
-3.3648063134
 32
0.0
 13
-3.3630927947
 23
-0.1077175283
 33
0.0
 40
0.0
 40
0.0
 40
0.0
 40
0.0
 40
0.2023030201
 40
0.3928669604
 40
0.5656365649
 40
0.6436066273
 40
0.7151289121
 40
0.7796291319
 40
0.8366015911
 40
0.8855827497
 40
0.9262076855
 40
0.9581494391
 40
0.9707771692
 40
0.9811332302
 40
0.9891959212
 40
0.9949806457
 40
0.9985277725
 40
1.0
 40
1.0
 40
1.0
 40
1.0
 10
-9.776355357
 20
-4.388309273
 30
0.0
 10
-9.7769381285
 20
-4.6152127661
 30
0.0
 10
-9.7787252013
 20
-5.055851933
 30
0.0
 10
-9.7834778705
 20
-5.690256623
 30
0.0
 10
-9.789128667
 20
-6.1851949142
 30
0.0
 10
-9.7946655668
 20
-6.5466038862
 30
0.0
 10
-9.7990574242
 20
-6.7865792138
 30
0.0
 10
-9.8037937217
 20
-7.0029929262
 30
0.0
 10
-9.808829074
 20
-7.1941072503
 30
0.0
 10
-9.814115324
 20
-7.358433275
 30
0.0
 10
-9.8195956145
 20
-7.4946357362
 30
0.0
 10
-9.8245556872
 20
-7.5901067799
 30
0.0
 10
-9.8287678657
 20
-7.6515071248
 30
0.0
 10
-9.8317152442
 20
-7.686336902
 30
0.0
 10
-9.834562125
 20
-7.7129977013
 30
0.0
 10
-9.8375576026
 20
-7.7330665857
 30
0.0
 10
-9.8399681164
 20
-7.7435121577
 30
0.0
 10
-9.8425783325
 20
-7.7503650759
 30
0.0
 10
-9.8442287451
 20
-7.7504179375
 30
0.0
 11
-9.776355357
 21
-4.388309273
 31
0.0
 11
-9.7791800384
 21
-5.0690161367
 31
0.0
 11
-9.7840674019
 21
-5.7102103749
 31
0.0
 11
-9.7908635652
 21
-6.2915088216
 31
0.0
 11
-9.7949122578
 21
-6.5538326032
 31
0.0
 11
-9.7993526331
 21
-6.7944510644
 31
0.0
 11
-9.8041496978
 21
-7.0114295059
 31
0.0
 11
-9.8092649872
 21
-7.2030631692
 31
0.0
 11
-9.8146582773
 21
-7.3677875564
 31
0.0
 11
-9.8202858042
 21
-7.5043671608
 31
0.0
 11
-9.8261029333
 21
-7.6116877913
 31
0.0
 11
-9.8290686632
 21
-7.6540741694
 31
0.0
 11
-9.8320650732
 21
-7.6887913552
 31
0.0
 11
-9.8350863167
 21
-7.7157520847
 31
0.0
 11
-9.8381254695
 21
-7.734977899
 31
0.0
 11
-9.841175342
 21
-7.7465170869
 31
0.0
 11
-9.8442287451
 21
-7.7504179375
 31
0.0
  0
SPLINE
  5
6DA
100
AcDbEntity
  8
0
100
AcDbSpline
 62
253
  6
CONTINUOUS
 70
0
 71
3
 72
21
 73
17
 74
15
 42
0.0000001
 43
0.0000001
 44
0.0000000001
 12
1.4782380546
 22
-2.3233156669
 32
0.0
 13
0.0001515708
 23
-2.7537217381
 33
0.0
 40
0.0
 40
0.0
 40
0.0
 40
0.0
 40
0.0026137152
 40
0.0074703452
 40
0.0146074015
 40
0.0240320894
 40
0.0496930327
 40
0.084190795
 40
0.1271868578
 40
0.1782745111
 40
0.2370024583
 40
0.3028124619
 40
0.453187872
 40
0.6238208411
 40
0.8083789979
 40
1.0
 40
1.0
 40
1.0
 40
1.0
 10
-9.8031024759
 20
16.9296432446
 30
0.0
 10
-9.8018145781
 20
16.9276190827
 30
0.0
 10
-9.8002882189
 20
16.9207380144
 30
0.0
 10
-9.7980219035
 20
16.9076487515
 30
0.0
 10
-9.795907941
 20
16.8880317832
 30
0.0
 10
-9.7925772213
 20
16.8494539012
 30
0.0
 10
-9.7888391521
 20
16.7856573154
 30
0.0
 10
-9.7846430541
 20
16.6910762786
 30
0.0
 10
-9.7806139154
 20
16.573112399
 30
0.0
 10
-9.7767559116
 20
16.4328997274
 30
0.0
 10
-9.7731415284
 20
16.2717310576
 30
0.0
 10
-9.7684784669
 20
16.0194289427
 30
0.0
 10
-9.7636780042
 20
15.6643957762
 30
0.0
 10
-9.7595414119
 20
15.2003499298
 30
0.0
 10
-9.7569915817
 20
14.6984324543
 30
0.0
 10
-9.7564357941
 20
14.3531346039
 30
0.0
 10
-9.7564261127
 20
14.1772442975
 30
0.0
 11
-9.8031024759
 21
16.9296432446
 31
0.0
 11
-9.8007914656
 21
16.9228269085
 31
0.0
 11
-9.7984867227
 21
16.9096531889
 31
0.0
 11
-9.796194667
 21
16.8901338331
 31
0.0
 11
-9.7939217181
 21
16.8642805886
 31
0.0
 11
-9.7894566383
 21
16.7937587026
 31
0.0
 11
-9.7851322193
 21
16.6988599425
 31
0.0
 11
-9.7809871016
 21
16.5805333314
 31
0.0
 11
-9.7770597173
 21
16.4399069808
 31
0.0
 11
-9.7733874781
 21
16.2782282544
 31
0.0
 11
-9.7700040483
 21
16.0970374038
 31
0.0
 11
-9.7642272375
 21
15.6829856641
 31
0.0
 11
-9.7599438082
 21
15.2131294717
 31
0.0
 11
-9.7573129639
 21
14.7049144721
 31
0.0
 11
-9.7564261127
 21
14.1772442975
 31
0.0
  0
LINE
  5
6DB
100
AcDbEntity
  8
0
100
AcDbLine
 62
7
  6
CONTINUOUS
 10
-9.6024695317
 20
-7.9998632535
 11
-9.5942581405
 21
-7.9999290911
  0
SPLINE
  5
6DC
100
AcDbEntity
  8
0
100
AcDbSpline
 62
253
  6
CONTINUOUS
 70
0
 71
3
 72
11
 73
7
 74
5
 42
0.0000001
 43
0.0000001
 44
0.0000000001
 12
0.0002609165
 22
-0.3885767126
 32
0.0
 13
0.3885767282
 23
-0.0002365662
 33
0.0
 40
0.0
 40
0.0
 40
0.0
 40
0.0
 40
0.2519762151
 40
0.4999259215
 40
0.7479170107
 40
1.0
 40
1.0
 40
1.0
 40
1.0
 10
-9.8473093179
 20
-7.7561754764
 30
0.0
 10
-9.847287403
 20
-7.7888128395
 30
0.0
 10
-9.8332610682
 20
-7.8542527364
 30
0.0
 10
-9.7769751277
 20
-7.9357285592
 30
0.0
 10
-9.6954582425
 20
-7.9919772291
 30
0.0
 10
-9.6299985979
 20
-8.0059886401
 30
0.0
 10
-9.5973474035
 20
-8.0060085182
 30
0.0
 11
-9.8473093179
 21
-7.7561754764
 31
0.0
 11
-9.8271535494
 21
-7.8519905408
 31
0.0
 11
-9.7727982339
 21
-7.931541412
 31
0.0
 11
-9.6932079818
 21
-7.9858675759
 31
0.0
 11
-9.5973474035
 21
-8.0060085182
 31
0.0
  0
SPLINE
  5
6DD
100
AcDbEntity
  8
0
100
AcDbSpline
 62
253
  6
CONTINUOUS
 70
0
 71
3
 72
22
 73
18
 74
16
 42
0.0000001
 43
0.0000001
 44
0.0000000001
 12
-1.2470264952
 22
-2.7359409657
 32
0.0
 13
-3.0067337771
 23
-0.0002027001
 33
0.0
 40
0.0
 40
0.0
 40
0.0
 40
0.0
 40
0.0027454717
 40
0.0074988675
 40
0.0144567252
 40
0.0236574888
 40
0.0487786673
 40
0.0827653779
 40
0.1254029729
 40
0.1762389807
 40
0.2347625322
 40
0.30046657
 40
0.3727834825
 40
0.4510035504
 40
0.622079052
 40
0.8073966492
 40
1.0
 40
1.0
 40
1.0
 40
1.0
 10
-9.8473093248
 20
-7.7561624444
 30
0.0
 10
-9.8484505501
 20
-7.7586662606
 30
0.0
 10
-9.85520026
 20
-7.7631901676
 30
0.0
 10
-9.8685231847
 20
-7.7681677658
 30
0.0
 10
-9.8889738658
 20
-7.7734541893
 30
0.0
 10
-9.9295416714
 20
-7.7812464899
 30
0.0
 10
-9.9975077086
 20
-7.7902311409
 30
0.0
 10
-10.0989750584
 20
-7.8001506832
 30
0.0
 10
-10.2263804199
 20
-7.8097470533
 30
0.0
 10
-10.3784398032
 20
-7.8189492657
 30
0.0
 10
-10.5536867849
 20
-7.8276101615
 30
0.0
 10
-10.7505111766
 20
-7.8356170721
 30
0.0
 10
-10.9671180879
 20
-7.842864696
 30
0.0
 10
-11.2893327823
 20
-7.8517009749
 30
0.0
 10
-11.7248460865
 20
-7.8601883871
 30
0.0
 10
-12.275045965
 20
-7.8662882999
 30
0.0
 10
-12.6538167465
 20
-7.8676610682
 30
0.0
 10
-12.8468524132
 20
-7.8676740818
 30
0.0
 11
-9.8473093248
 21
-7.7561624444
 31
0.0
 11
-9.8534145195
 21
-7.7617185231
 31
0.0
 11
-9.8666003615
 21
-7.767232182
 31
0.0
 11
-9.8867948595
 21
-7.7726953739
 31
0.0
 11
-9.9139260226
 21
-7.7781000518
 31
0.0
 11
-9.988711008
 21
-7.78870166
 31
0.0
 11
-10.090382532
 21
-7.7989725465
 31
0.0
 11
-10.2182018894
 21
-7.8088429869
 31
0.0
 11
-10.3707641917
 21
-7.8182222688
 31
0.0
 11
-10.5465091576
 21
-7.8270141101
 31
0.0
 11
-10.7438972676
 21
-7.8351217845
 31
0.0
 11
-10.9612112118
 21
-7.8424569588
 31
0.0
 11
-11.1963083541
 21
-7.8489547562
 31
0.0
 11
-11.7105844243
 21
-7.859219006
 31
0.0
 11
-12.2677493891
 21
-7.8655277486
 31
0.0
 11
-12.8468524132
 21
-7.8676740818
 31
0.0
  0
SPLINE
  5
6DE
100
AcDbEntity
  8
0
100
AcDbSpline
 62
253
  6
CONTINUOUS
 70
0
 71
3
 72
21
 73
17
 74
15
 42
0.0000001
 43
0.0000001
 44
0.0000000001
 12
2.4139360579
 22
-1.7891447268
 32
0.0
 13
0.0001841196
 23
-3.0046840285
 33
0.0
 40
0.0
 40
0.0
 40
0.0
 40
0.0
 40
0.0029563166
 40
0.0079836306
 40
0.0152225592
 40
0.0247026233
 40
0.0503667837
 40
0.0848227527
 40
0.1277825847
 40
0.1788124072
 40
0.2374343095
 40
0.3031354354
 40
0.4533832664
 40
0.6238572344
 40
0.8083598394
 40
1.0
 40
1.0
 40
1.0
 40
1.0
 10
-12.9488435404
 20
17.3996228124
 30
0.0
 10
-12.946464754
 20
17.3978597197
 30
0.0
 10
-12.9425208158
 20
17.3904302958
 30
0.0
 10
-12.9378306908
 20
17.3761218523
 30
0.0
 10
-12.9330251086
 20
17.3547561771
 30
0.0
 10
-12.9258681876
 20
17.3129603249
 30
0.0
 10
-12.9176592986
 20
17.2436640055
 30
0.0
 10
-12.9085693523
 20
17.1408404873
 30
0.0
 10
-12.8997806202
 20
17.0124797258
 30
0.0
 10
-12.8913594978
 20
16.8598622726
 30
0.0
 10
-12.8834417345
 20
16.6844107637
 30
0.0
 10
-12.8732262613
 20
16.4095992117
 30
0.0
 10
-12.8627455167
 20
16.0227054755
 30
0.0
 10
-12.8536801143
 20
15.5167684861
 30
0.0
 10
-12.8481360127
 20
14.9693215149
 30
0.0
 10
-12.8468669798
 20
14.5925904172
 30
0.0
 10
-12.8468552182
 20
14.4006510407
 30
0.0
 11
-12.9488435404
 21
17.3996228124
 31
0.0
 11
-12.9437474021
 21
17.3923472739
 31
0.0
 11
-12.9386916024
 21
17.378112994
 31
0.0
 11
-12.9336837267
 21
17.3569466568
 31
0.0
 11
-12.928731284
 21
17.3288958887
 31
0.0
 11
-12.9190222726
 21
17.2523968524
 31
0.0
 11
-12.9096222779
 21
17.1492951744
 31
0.0
 11
-12.9005928468
 21
17.020530653
 31
0.0
 11
-12.8920165489
 21
16.8674422019
 31
0.0
 11
-12.8839810853
 21
16.691485291
 31
0.0
 11
-12.8765733873
 21
16.4942132
 31
0.0
 11
-12.8639401858
 21
16.042942738
 31
0.0
 11
-12.8545704692
 21
15.5308080324
 31
0.0
 11
-12.8488209848
 21
14.976465816
 31
0.0
 11
-12.8468552182
 21
14.4006510407
 31
0.0
  0
SPLINE
  5
6DF
100
AcDbEntity
  8
0
100
AcDbSpline
 62
253
  6
CONTINUOUS
 70
0
 71
3
 72
8
 73
4
 74
2
 42
0.0000001
 43
0.0000001
 44
0.0000000001
 12
-0.0303636968
 22
-0.0316978969
 32
0.0
 13
-0.0298663304
 23
-0.032166956
 33
0.0
 40
0.0
 40
0.0
 40
0.0
 40
0.0
 40
1.0
 40
1.0
 40
1.0
 40
1.0
 10
16.2119068047
 20
17.511660296
 30
0.0
 10
16.2017855724
 20
17.5010943304
 30
0.0
 10
16.1924789592
 20
17.4897738263
 30
0.0
 10
16.1825235157
 20
17.4790515076
 30
0.0
 11
16.2119068047
 21
17.511660296
 31
0.0
 11
16.1825235157
 21
17.4790515076
 31
0.0
  0
LINE
  5
6E0
100
AcDbEntity
  8
0
100
AcDbLine
 62
253
  6
CONTINUOUS
 10
16.1825235157
 20
17.4790515076
 11
16.1787341809
 21
17.4750000556
  0
SPLINE
  5
6E1
100
AcDbEntity
  8
0
100
AcDbSpline
 62
253
  6
CONTINUOUS
 70
0
 71
3
 72
23
 73
19
 74
17
 42
0.0000001
 43
0.0000001
 44
0.0000000001
 12
-3.3459053141
 22
-0.0778163112
 32
0.0
 13
-1.8563140768
 23
-2.7848223997
 33
0.0
 40
0.0
 40
0.0
 40
0.0
 40
0.0
 40
0.1793349406
 40
0.3541072385
 40
0.5197783422
 40
0.5977355882
 40
0.6710363828
 40
0.7389079079
 40
0.8007591137
 40
0.8559683759
 40
0.9038122332
 40
0.9428487989
 40
0.9587599774
 40
0.9721956716
 40
0.9830933385
 40
0.991383166
 40
0.9970081497
 40
1.0
 40
1.0
 40
1.0
 40
1.0
 10
12.9488368501
 20
17.399622914
 30
0.0
 10
12.7488242732
 20
17.3949711862
 30
0.0
 10
12.3538877846
 20
17.3857868488
 30
0.0
 10
11.7741955394
 20
17.3715645694
 30
0.0
 10
11.3075981597
 20
17.3588558355
 30
0.0
 10
10.9541984785
 20
17.3479582182
 30
0.0
 10
10.7098768289
 20
17.3396726331
 30
0.0
 10
10.4835441807
 20
17.3311068011
 30
0.0
 10
10.2774234469
 20
17.3222421582
 30
0.0
 10
10.0936802147
 20
17.3130730367
 30
0.0
 10
9.9354492563
 20
17.3036187724
 30
0.0
 10
9.8210676386
 20
17.2951426828
 30
0.0
 10
9.7451308705
 20
17.2879868627
 30
0.0
 10
9.7004692263
 20
17.2829844432
 30
0.0
 10
9.6645280036
 20
17.2779670411
 30
0.0
 10
9.636995869
 20
17.273066234
 30
0.0
 10
9.6193138908
 20
17.2681950717
 30
0.0
 10
9.6096349066
 20
17.2643112326
 30
0.0
 10
9.6077836353
 20
17.2615339754
 30
0.0
 11
12.9488368501
 21
17.399622914
 31
0.0
 11
12.3488021263
 21
17.3855390322
 31
0.0
 11
11.7640520324
 21
17.3710452653
 31
0.0
 11
11.2097935977
 21
17.3557397505
 31
0.0
 11
10.9490106229
 21
17.3476604412
 31
0.0
 11
10.7038292625
 21
17.3393006436
 31
0.0
 11
10.4768409821
 21
17.3306488479
 31
0.0
 11
10.2700314258
 21
17.3216731845
 31
0.0
 11
10.0854923715
 21
17.3123400806
 31
0.0
 11
9.9256637697
 21
17.3026132715
 31
0.0
 11
9.7953985076
 21
17.2926205738
 31
0.0
 11
9.7423879845
 21
17.2875582388
 31
0.0
 11
9.6977123439
 21
17.2824501326
 31
0.0
 11
9.6616060266
 21
17.2772953881
 31
0.0
 11
9.6343537776
 21
17.2720924083
 31
0.0
 11
9.6162757762
 21
17.2668393324
 31
0.0
 11
9.6077836353
 21
17.2615339754
 31
0.0
  0
SPLINE
  5
6E2
100
AcDbEntity
  8
0
100
AcDbSpline
 62
253
  6
CONTINUOUS
 70
0
 71
3
 72
23
 73
19
 74
17
 42
0.0000001
 43
0.0000001
 44
0.0000000001
 12
-1.8563109245
 22
2.78481792
 32
0.0
 13
-3.3458998398
 23
0.077816182
 33
0.0
 40
0.0
 40
0.0
 40
0.0
 40
0.0
 40
0.0029918503
 40
0.008616832
 40
0.016906656
 40
0.0278043178
 40
0.0412400056
 40
0.0571511764
 40
0.096187723
 40
0.144031563
 40
0.1992408082
 40
0.2610919972
 40
0.3289635063
 40
0.4022642866
 40
0.4802215276
 40
0.6458926411
 40
0.820664974
 40
1.0
 40
1.0
 40
1.0
 40
1.0
 10
-9.6077836594
 20
17.2615339753
 30
0.0
 10
-9.6096349276
 20
17.2643112281
 30
0.0
 10
-9.6193138911
 20
17.2681950641
 30
0.0
 10
-9.6369958346
 20
17.2730662204
 30
0.0
 10
-9.6645279111
 20
17.2779670225
 30
0.0
 10
-9.7004690578
 20
17.282984419
 30
0.0
 10
-9.745130607
 20
17.287986833
 30
0.0
 10
-9.8210672133
 20
17.2951426453
 30
0.0
 10
-9.9354485941
 20
17.3036187264
 30
0.0
 10
-10.0936792336
 20
17.3130729816
 30
0.0
 10
-10.2774221078
 20
17.3222420949
 30
0.0
 10
-10.4835424485
 20
17.3311067302
 30
0.0
 10
-10.7098746735
 20
17.339672555
 30
0.0
 10
-10.9541958838
 20
17.3479581336
 30
0.0
 10
-11.307594976
 20
17.3588557433
 30
0.0
 10
-11.7741916364
 20
17.3715644684
 30
0.0
 10
-12.3538830781
 20
17.3857867369
 30
0.0
 10
-12.7488190546
 20
17.3949710649
 30
0.0
 10
-12.9488313995
 20
17.3996227873
 30
0.0
 11
-9.6077836594
 21
17.2615339753
 31
0.0
 11
-9.6162757847
 21
17.2668393264
 31
0.0
 11
-9.634353749
 21
17.2720923963
 31
0.0
 11
-9.6616059408
 21
17.2772953703
 31
0.0
 11
-9.6977121815
 21
17.282450109
 31
0.0
 11
-9.742387727
 21
17.2875582096
 31
0.0
 11
-9.7953981372
 21
17.2926205391
 31
0.0
 11
-9.9256631214
 21
17.302613226
 31
0.0
 11
-10.0854914034
 21
17.312340026
 31
0.0
 11
-10.2700300986
 21
17.3216731216
 31
0.0
 11
-10.4768392599
 21
17.3306487772
 31
0.0
 11
-10.7038271151
 21
17.3393005657
 31
0.0
 11
-10.9490080264
 21
17.3476603564
 31
0.0
 11
-11.2097905576
 21
17.3557396598
 31
0.0
 11
-11.764048118
 21
17.3710451635
 31
0.0
 11
-12.3487973718
 21
17.3855389183
 31
0.0
 11
-12.9488313995
 21
17.3996227873
 31
0.0
  0
LINE
  5
6E3
100
AcDbEntity
  8
0
100
AcDbLine
 62
253
  6
CONTINUOUS
 10
-16.1777345242
 20
17.4750000487
 11
-16.2119068051
 21
17.511660296
  0
SPLINE
  5
6E4
100
AcDbEntity
  8
0
100
AcDbSpline
 62
7
  6
CONTINUOUS
 70
0
 71
3
 72
16
 73
12
 74
10
 42
0.0000001
 43
0.0000001
 44
0.0000000001
 12
0.1370266402
 22
0.2113737985
 32
0.0
 13
0.2519031219
 23
0.0000045398
 33
0.0
 40
0.0
 40
0.0
 40
0.0
 40
0.0
 40
0.0062574156
 40
0.0197408214
 40
0.0408254378
 40
0.0696913474
 40
0.1513182433
 40
0.2653627061
 40
0.4115152977
 40
0.5873414151
 40
1.0
 40
1.0
 40
1.0
 40
1.0
 10
8.9855932733
 20
15.8846819787
 30
0.0
 10
8.9858790842
 20
15.8851228632
 30
0.0
 10
8.9876918074
 20
15.8855608147
 30
0.0
 10
8.9908828444
 20
15.8862667084
 30
0.0
 10
8.9962634489
 20
15.88688605
 30
0.0
 10
9.0072127793
 20
15.8879087782
 30
0.0
 10
9.0260779598
 20
15.8889958692
 30
0.0
 10
9.0547377559
 20
15.8901583361
 30
0.0
 10
9.0913445507
 20
15.8911533894
 30
0.0
 10
9.1530174273
 20
15.892259549
 30
0.0
 10
9.2024340756
 20
15.8925591364
 30
0.0
 10
9.2370840709
 20
15.8925597609
 30
0.0
 11
8.9855932733
 21
15.8846819787
 31
0.0
 11
8.9870011722
 21
15.8853907975
 31
0.0
 11
8.9903237339
 21
15.8860956931
 31
0.0
 11
8.9955891265
 21
15.8867923591
 31
0.0
 11
9.0028282768
 21
15.8874765706
 31
0.0
 11
9.0233483641
 21
15.8887898622
 31
0.0
 11
9.0520513061
 21
15.8899932262
 31
0.0
 11
9.0888528816
 21
15.8910341643
 31
0.0
 11
9.1331365042
 21
15.8918505887
 31
0.0
 11
9.2370840709
 21
15.8925597609
 31
0.0
  0
SPLINE
  5
6E5
100
AcDbEntity
  8
0
100
AcDbSpline
 62
253
  6
CONTINUOUS
 70
0
 71
3
 72
23
 73
19
 74
17
 42
0.0000001
 43
0.0000001
 44
0.0000000001
 12
0.0000021494
 22
-7.6903369948
 32
0.0
 13
0.0000008992
 23
7.6903369948
 33
0.0
 40
0.0
 40
0.0
 40
0.0
 40
0.0
 40
0.1192548957
 40
0.2076205787
 40
0.2726175473
 40
0.3252107343
 40
0.3715468437
 40
0.4154254335
 40
0.4579932051
 40
0.4999650387
 40
0.5419494975
 40
0.5845568742
 40
0.6284557968
 40
0.6749712997
 40
0.7276332136
 40
0.7926770574
 40
0.8810066221
 40
1.0
 40
1.0
 40
1.0
 40
1.0
 10
-7.3794498193
 20
-14.4006510421
 30
0.0
 10
-7.3794497338
 20
-14.7063544875
 30
0.0
 10
-7.3255596102
 20
-15.2411365908
 30
0.0
 10
-7.1013710768
 20
-15.9096768029
 30
0.0
 10
-6.8110717764
 20
-16.3576287784
 30
0.0
 10
-6.4968085874
 20
-16.6429745618
 30
0.0
 10
-6.1743485903
 20
-16.8217343563
 30
0.0
 10
-5.8498312817
 20
-16.9293355721
 30
0.0
 10
-5.5247484193
 20
-16.9867017739
 30
0.0
 10
-5.2002327072
 20
-17.0046851603
 30
0.0
 10
-4.8756124047
 20
-16.9867504098
 30
0.0
 10
-4.5503373011
 20
-16.9293887125
 30
0.0
 10
-4.2252322262
 20
-16.8216041994
 30
0.0
 10
-3.9022160606
 20
-16.6423679065
 30
0.0
 10
-3.5876772238
 20
-16.3561772597
 30
0.0
 10
-3.2977548937
 20
-15.9077438503
 30
0.0
 10
-3.07425654
 20
-15.2396818089
 30
0.0
 10
-3.0205502164
 20
-14.7056841007
 30
0.0
 10
-3.0205501807
 20
-14.4006510421
 30
0.0
 11
-7.3794498193
 21
-14.4006510421
 31
0.0
 11
-7.2789912964
 21
-15.3122427564
 31
0.0
 11
-7.0522579672
 21
-15.9528646011
 31
0.0
 11
-6.775352828
 21
-16.3690041922
 31
0.0
 11
-6.4752817087
 21
-16.6401954054
 31
0.0
 11
-6.1643733807
 21
-16.8143057676
 31
0.0
 11
-5.8446797158
 21
-16.9222987549
 31
0.0
 11
-5.5225236366
 21
-16.9804396474
 31
0.0
 11
-5.2002645898
 21
-16.9987276299
 31
0.0
 11
-4.8779054992
 21
-16.9804890063
 31
0.0
 11
-4.5554432544
 21
-16.9223296656
 31
0.0
 11
-4.2355990405
 21
-16.8142937626
 31
0.0
 11
-3.9235605387
 21
-16.6393780825
 31
0.0
 11
-3.6233662202
 21
-16.3675352195
 31
0.0
 11
-3.3467015036
 21
-15.9508029842
 31
0.0
 11
-3.1205505425
 21
-15.3102698795
 31
0.0
 11
-3.0205501807
 21
-14.4006510421
 31
0.0
  0
SPLINE
  5
6E6
100
AcDbEntity
  8
0
100
AcDbSpline
 62
253
  6
CONTINUOUS
 70
0
 71
3
 72
20
 73
16
 74
14
 42
0.0000001
 43
0.0000001
 44
0.0000000001
 12
-3.1284197846
 22
-0.0859919429
 32
0.0
 13
-0.879343493
 23
-3.0035245936
 33
0.0
 40
0.0
 40
0.0
 40
0.0
 40
0.0
 40
0.1794187198
 40
0.3552194578
 40
0.5171379199
 40
0.664178749
 40
0.7322077707
 40
0.7951069774
 40
0.8512609903
 40
0.8994982048
 40
0.9388573605
 40
0.9687790589
 40
0.9889551728
 40
0.9954566586
 40
1.0
 40
1.0
 40
1.0
 40
1.0
 10
12.9488418019
 20
17.3996230041
 30
0.0
 10
12.7617427776
 20
17.3944801493
 30
0.0
 10
12.3914944494
 20
17.3773792533
 30
0.0
 10
11.8534371174
 20
17.3374811223
 30
0.0
 10
11.3502038213
 20
17.2870188766
 30
0.0
 10
10.9598960891
 20
17.2385658269
 30
0.0
 10
10.6726572395
 20
17.1987729883
 30
0.0
 10
10.4796471748
 20
17.1698426696
 30
0.0
 10
10.3074423935
 20
17.1414040698
 30
0.0
 10
10.1600424446
 20
17.1139091001
 30
0.0
 10
10.0401430664
 20
17.0877839894
 30
0.0
 10
9.9502539271
 20
17.063283251
 30
0.0
 10
9.8942331418
 20
17.0430539018
 30
0.0
 10
9.8666618361
 20
17.0256641688
 30
0.0
 10
9.8590771726
 20
17.0161665968
 30
0.0
 10
9.8577454534
 20
17.0116179176
 30
0.0
 11
12.9488418019
 21
17.3996230041
 31
0.0
 11
12.3878916284
 21
17.3745760982
 31
0.0
 11
11.8392078
 21
17.3339441948
 31
0.0
 11
11.3349948758
 21
17.2833971397
 31
0.0
 11
10.8782920406
 21
17.2269400495
 31
0.0
 11
10.6674151234
 21
17.1976327012
 31
0.0
 11
10.4727650035
 21
17.1682893004
 31
0.0
 11
10.2994134907
 21
17.1394156578
 31
0.0
 11
10.15107512
 21
17.1113865304
 31
0.0
 11
10.0308594459
 21
17.0845327233
 31
0.0
 11
9.9407302631
 21
17.0591213117
 31
0.0
 11
9.8823260596
 21
17.0351210609
 31
0.0
 11
9.8656841781
 21
17.0234142
 31
0.0
 11
9.8577454534
 21
17.0116179176
 31
0.0
  0
SPLINE
  5
6E7
100
AcDbEntity
  8
0
100
AcDbSpline
 62
7
  6
CONTINUOUS
 70
0
 71
3
 72
21
 73
17
 74
15
 42
0.0000001
 43
0.0000001
 44
0.0000000001
 12
-0.0003825366
 22
3.0001876595
 32
0.0
 13
-1.5717424364
 23
2.5555335749
 33
0.0
 40
0.0
 40
0.0
 40
0.0
 40
0.0
 40
0.1918792638
 40
0.3766270021
 40
0.547377903
 40
0.6977886946
 40
0.7635828383
 40
0.8222750214
 40
0.8733078424
 40
0.916220138
 40
0.9506024545
 40
0.9761545453
 40
0.9855394655
 40
0.9926401275
 40
0.9974523889
 40
1.0
 40
1.0
 40
1.0
 40
1.0
 10
-9.5064403929
 20
14.1806947349
 30
0.0
 10
-9.5064648598
 20
14.3725860014
 30
0.0
 10
-9.5070633877
 20
14.7492367598
 30
0.0
 10
-9.5096625437
 20
15.2966437651
 30
0.0
 10
-9.5138361598
 20
15.8025686161
 30
0.0
 10
-9.518655821
 20
16.189520701
 30
0.0
 10
-9.5233277692
 20
16.4643954812
 30
0.0
 10
-9.5269431847
 20
16.6398895709
 30
0.0
 10
-9.5307962406
 20
16.7924863098
 30
0.0
 10
-9.5348162118
 20
16.920766098
 30
0.0
 10
-9.5390122858
 20
17.0235194651
 30
0.0
 10
-9.5427351019
 20
17.0927809614
 30
0.0
 10
-9.5460468639
 20
17.1346499002
 30
0.0
 10
-9.54812032
 20
17.1559275742
 30
0.0
 10
-9.5504037875
 20
17.1700643192
 30
0.0
 10
-9.5518747621
 20
17.1774911066
 30
0.0
 10
-9.5532094916
 20
17.1796612752
 30
0.0
 11
-9.5064403929
 21
14.1806947349
 31
0.0
 11
-9.5073835522
 21
14.7563677664
 31
0.0
 11
-9.5100651739
 21
15.3106391685
 31
0.0
 11
-9.5143857549
 21
15.8229056983
 31
0.0
 11
-9.5201848019
 21
16.27412904
 31
0.0
 11
-9.5235737643
 21
16.4714947259
 31
0.0
 11
-9.5272467771
 21
16.647543979
 31
0.0
 11
-9.5311698529
 21
16.8006017514
 31
0.0
 11
-9.5353091154
 21
16.9292801346
 31
0.0
 11
-9.5396271104
 21
17.032343122
 31
0.0
 11
-9.5440719805
 21
17.108875223
 31
0.0
 11
-9.5463260562
 21
17.1369413748
 31
0.0
 11
-9.5485993968
 21
17.1581230487
 31
0.0
 11
-9.550893407
 21
17.1723773227
 31
0.0
 11
-9.5532094916
 21
17.1796612752
 31
0.0
  0
SPLINE
  5
6E8
100
AcDbEntity
  8
0
100
AcDbSpline
 62
7
  6
CONTINUOUS
 70
0
 71
3
 72
21
 73
17
 74
15
 42
0.0000001
 43
0.0000001
 44
0.0000000001
 12
-1.5783237126
 22
-2.5514793385
 32
0.0
 13
-0.0000008808
 23
-3.0001920866
 33
0.0
 40
0.0
 40
0.0
 40
0.0
 40
0.0
 40
0.0025489116
 40
0.0073617835
 40
0.0144627997
 40
0.0238479386
 40
0.0494002317
 40
0.0837825686
 40
0.1266947727
 40
0.1777274298
 40
0.2364194025
 40
0.3022133069
 40
0.4526235801
 40
0.6233739588
 40
0.8081211988
 40
1.0
 40
1.0
 40
1.0
 40
1.0
 10
9.5531400197
 20
17.1796612752
 30
0.0
 10
9.5517990171
 20
17.1774934434
 30
0.0
 10
9.5503179329
 20
17.1700649525
 30
0.0
 10
9.5480239206
 20
17.1559286505
 30
0.0
 10
9.545939926
 20
17.1346501961
 30
0.0
 10
9.5426139887
 20
17.09278182
 30
0.0
 10
9.5388773172
 20
17.0235202264
 30
0.0
 10
9.5346692385
 20
16.9207671642
 30
0.0
 10
9.5306413651
 20
16.7924876109
 30
0.0
 10
9.5267845575
 20
16.6398912166
 30
0.0
 10
9.5231696935
 20
16.4643974606
 30
0.0
 10
9.5185045603
 20
16.1895231261
 30
0.0
 10
9.5137050106
 20
15.8025714796
 30
0.0
 10
9.5095703691
 20
15.2966470926
 30
0.0
 10
9.5070250445
 20
14.7492405028
 30
0.0
 10
9.5064701314
 20
14.3725900772
 30
0.0
 10
9.5064700751
 20
14.1806989902
 30
0.0
 11
9.5531400197
 21
17.1796612752
 31
0.0
 11
9.5508109787
 21
17.172377347
 31
0.0
 11
9.5485050069
 21
17.1581231262
 31
0.0
 11
9.5462206965
 21
17.1369415322
 31
0.0
 11
9.5439566396
 21
17.1088754842
 31
0.0
 11
9.5394947983
 21
17.0323436498
 31
0.0
 11
9.5351639748
 21
16.9292809879
 31
0.0
 11
9.5310162003
 21
16.8006029647
 31
0.0
 11
9.5270889953
 21
16.6475455652
 31
0.0
 11
9.5234162652
 21
16.4714966794
 31
0.0
 11
9.520031988
 21
16.2741313412
 31
0.0
 11
9.514255315
 21
15.8229086057
 31
0.0
 11
9.509973669
 21
15.3106425639
 31
0.0
 11
9.5073460902
 21
14.7563715846
 31
0.0
 11
9.5064700751
 21
14.1806989902
 31
0.0
  0
SPLINE
  5
6E9
100
AcDbEntity
  8
0
100
AcDbSpline
 62
253
  6
CONTINUOUS
 70
0
 71
3
 72
23
 73
19
 74
17
 42
0.0000001
 43
0.0000001
 44
0.0000000001
 12
0.0000021493
 22
-7.6903369883
 32
0.0
 13
0.0000008991
 23
7.6903369883
 33
0.0
 40
0.0
 40
0.0
 40
0.0
 40
0.0
 40
0.1192548956
 40
0.2076205787
 40
0.2726175473
 40
0.3252107343
 40
0.3715468437
 40
0.4154254335
 40
0.4579932051
 40
0.4999650387
 40
0.5419494975
 40
0.5845568742
 40
0.6284557968
 40
0.6749712997
 40
0.7276332137
 40
0.7926770574
 40
0.8810066222
 40
1.0
 40
1.0
 40
1.0
 40
1.0
 10
3.0205501824
 20
-14.4006510421
 30
0.0
 10
3.0205502679
 20
-14.7063544871
 30
0.0
 10
3.0744403915
 20
-15.2411365899
 30
0.0
 10
3.2986289248
 20
-15.9096768013
 30
0.0
 10
3.588928225
 20
-16.3576287765
 30
0.0
 10
3.9031914137
 20
-16.6429745598
 30
0.0
 10
4.2256514105
 20
-16.8217343542
 30
0.0
 10
4.5501687188
 20
-16.9293355702
 30
0.0
 10
4.875251581
 20
-16.986701772
 30
0.0
 10
5.1997672928
 20
-17.0046851584
 30
0.0
 10
5.5243875951
 20
-16.9867504079
 30
0.0
 10
5.8496626984
 20
-16.9293887105
 30
0.0
 10
6.174767773
 20
-16.8216041973
 30
0.0
 10
6.4977839383
 20
-16.6423679045
 30
0.0
 10
6.8123227748
 20
-16.3561772578
 30
0.0
 10
7.1022451047
 20
-15.9077438487
 30
0.0
 10
7.3257434583
 20
-15.239681808
 30
0.0
 10
7.3794497819
 20
-14.7056841004
 30
0.0
 10
7.3794498176
 20
-14.4006510421
 30
0.0
 11
3.0205501824
 21
-14.4006510421
 31
0.0
 11
3.1210087052
 21
-15.3122427554
 31
0.0
 11
3.3477420344
 21
-15.9528645994
 31
0.0
 11
3.6246471733
 21
-16.3690041903
 31
0.0
 11
3.9247182924
 21
-16.6401954033
 31
0.0
 11
4.2356266202
 21
-16.8143057655
 31
0.0
 11
4.5553202847
 21
-16.922298753
 31
0.0
 11
4.8774763637
 21
-16.9804396455
 31
0.0
 11
5.1997354102
 21
-16.998727628
 31
0.0
 11
5.5220945005
 21
-16.9804890044
 31
0.0
 11
5.8445567451
 21
-16.9223296636
 31
0.0
 11
6.1644009587
 21
-16.8142937606
 31
0.0
 11
6.4764394602
 21
-16.6393780804
 31
0.0
 11
6.7766337785
 21
-16.3675352176
 31
0.0
 11
7.0532984949
 21
-15.9508029825
 31
0.0
 11
7.2794494559
 21
-15.3102698784
 31
0.0
 11
7.3794498176
 21
-14.4006510421
 31
0.0
  0
SPLINE
  5
6EA
100
AcDbEntity
  8
0
100
AcDbSpline
 62
7
  6
CONTINUOUS
 70
0
 71
3
 72
16
 73
12
 74
10
 42
0.0000001
 43
0.0000001
 44
0.0000000001
 12
0.2518939895
 22
-0.0000045344
 32
0.0
 13
0.1370215535
 23
-0.2113662126
 33
0.0
 40
0.0
 40
0.0
 40
0.0
 40
0.0
 40
0.4126617295
 40
0.588487126
 40
0.7346388333
 40
0.8486826562
 40
0.930309009
 40
0.9591747739
 40
0.9802592798
 40
0.9937425935
 40
1.0
 40
1.0
 40
1.0
 40
1.0
 10
-9.2370749604
 20
15.8925597609
 30
0.0
 10
-9.2024259573
 20
15.8925591372
 30
0.0
 10
-9.1530108973
 20
15.8922594649
 30
0.0
 10
-9.0913401283
 20
15.8911532888
 30
0.0
 10
-9.0547348504
 20
15.8901582361
 30
0.0
 10
-9.0260762675
 20
15.8889957851
 30
0.0
 10
-9.0072118854
 20
15.8879087095
 30
0.0
 10
-8.9962630185
 20
15.8868860051
 30
0.0
 10
-8.9908826432
 20
15.8862666724
 30
0.0
 10
-8.9876917346
 20
15.8855608013
 30
0.0
 10
-8.9858790972
 20
15.8851228468
 30
0.0
 10
-8.9855932973
 20
15.8846819787
 30
0.0
 11
-9.2370749604
 21
15.8925597609
 31
0.0
 11
-9.1331303708
 21
15.8918505013
 31
0.0
 11
-9.088848536
 21
15.8910340639
 31
0.0
 11
-9.0520485185
 21
15.88999313
 31
0.0
 11
-9.0233467797
 21
15.8887897807
 31
0.0
 11
-9.0028275749
 21
15.8874765129
 31
0.0
 11
-8.9955887247
 21
15.8867923149
 31
0.0
 11
-8.9903235525
 21
15.8860956632
 31
0.0
 11
-8.9870011373
 21
15.8853907825
 31
0.0
 11
-8.9855932973
 21
15.8846819787
 31
0.0
  0
SPLINE
  5
6EB
100
AcDbEntity
  8
0
100
AcDbSpline
 62
7
  6
CONTINUOUS
 70
0
 71
3
 72
11
 73
7
 74
5
 42
0.0000001
 43
0.0000001
 44
0.0000000001
 12
-0.164120597
 22
3.1683647095
 32
0.0
 13
-0.0078822027
 23
3.1726027759
 33
0.0
 40
0.0
 40
0.0
 40
0.0
 40
0.0
 40
0.1497735837
 40
0.3789422801
 40
0.6698345263
 40
1.0
 40
1.0
 40
1.0
 40
1.0
 10
-8.9299338613
 20
-7.5618212471
 30
0.0
 10
-8.9381275046
 20
-7.4036421348
 30
0.0
 10
-8.9492366418
 20
-7.0029876254
 30
0.0
 10
-8.962051065
 20
-6.2947509945
 30
0.0
 10
-8.9710686528
 20
-5.3956313945
 30
0.0
 10
-8.9745927188
 20
-4.7388494639
 30
0.0
 10
-8.9754601958
 20
-4.3896881644
 30
0.0
 11
-8.9299338613
 21
-7.5618212471
 31
0.0
 11
-8.9463061366
 21
-7.0869298333
 31
0.0
 11
-8.9600093899
 21
-6.3599954938
 31
0.0
 11
-8.969980165
 21
-5.437160961
 31
0.0
 11
-8.9754601958
 21
-4.3896881644
 31
0.0
  0
SPLINE
  5
6EC
100
AcDbEntity
  8
0
100
AcDbSpline
 62
7
  6
CONTINUOUS
 70
0
 71
3
 72
12
 73
8
 74
6
 42
0.0000001
 43
0.0000001
 44
0.0000000001
 12
0.0001273752
 22
-0.3671337776
 32
0.0
 13
-0.3443936708
 23
0.1272015188
 33
0.0
 40
0.0
 40
0.0
 40
0.0
 40
0.0
 40
0.1550076965
 40
0.3017237754
 40
0.5537740847
 40
0.7771736505
 40
1.0
 40
1.0
 40
1.0
 40
1.0
 10
-8.9295714838
 20
-7.5618574964
 30
0.0
 10
-8.9295649024
 20
-7.5808270168
 30
0.0
 10
-8.9341669445
 20
-7.6178739525
 30
0.0
 10
-8.9575899962
 20
-7.6820937356
 30
0.0
 10
-9.0147559315
 20
-7.7396548242
 30
0.0
 10
-9.1017088108
 20
-7.7584274265
 30
0.0
 10
-9.1563400758
 20
-7.7467007248
 30
0.0
 10
-9.1819200706
 20
-7.7372527748
 30
0.0
 11
-8.9295714838
 21
-7.5618574964
 31
0.0
 11
-8.9364470764
 21
-7.6183491856
 31
0.0
 11
-8.9558112845
 21
-7.6686125363
 31
0.0
 11
-9.0217501515
 21
-7.733535659
 31
0.0
 11
-9.1015458302
 21
-7.7524968071
 31
0.0
 11
-9.1819200706
 21
-7.7372527748
 31
0.0
  0
SPLINE
  5
6ED
100
AcDbEntity
  8
0
100
AcDbSpline
 62
7
  6
CONTINUOUS
 70
0
 71
3
 72
13
 73
9
 74
7
 42
0.0000001
 43
0.0000001
 44
0.0000000001
 12
0.2575485741
 22
0.0004580245
 32
0.0
 13
0.0321961664
 23
0.2555286377
 33
0.0
 40
0.0
 40
0.0
 40
0.0
 40
0.0
 40
0.3689506911
 40
0.6845619561
 40
0.8078468162
 40
0.9021667045
 40
0.9653331788
 40
1.0
 40
1.0
 40
1.0
 40
1.0
 10
-9.2258643586
 20
-4.4256197071
 30
0.0
 10
-9.1941901171
 20
-4.4255633777
 30
0.0
 10
-9.1354418746
 20
-4.4239062817
 30
0.0
 10
-9.06619558
 20
-4.4178135824
 30
0.0
 10
-9.0211147992
 20
-4.4104535514
 30
0.0
 10
-8.9974766468
 20
-4.4044244139
 30
0.0
 10
-8.9824655875
 20
-4.3988950335
 30
0.0
 10
-8.9751422092
 20
-4.392642817
 30
0.0
 10
-8.974770163
 20
-4.3896900284
 30
0.0
 11
-9.2258643586
 21
-4.4256197071
 31
0.0
 11
-9.1308845608
 21
-4.4227588115
 31
0.0
 11
-9.0499759208
 21
-4.4149420551
 31
0.0
 11
-9.0186907483
 21
-4.409517987
 31
0.0
 11
-8.9951967155
 21
-4.4033429359
 31
0.0
 11
-8.9803723288
 21
-4.3966421608
 31
0.0
 11
-8.974770163
 21
-4.3896900284
 31
0.0
  0
SPLINE
  5
6EE
100
AcDbEntity
  8
0
100
AcDbSpline
 62
7
  6
CONTINUOUS
 70
0
 71
3
 72
9
 73
5
 74
3
 42
0.0000001
 43
0.0000001
 44
0.0000000001
 12
1.2548229923
 22
0.0217579659
 32
0.0
 13
1.2005685089
 23
0.3656356199
 33
0.0
 40
0.0
 40
0.0
 40
0.0
 40
0.0
 40
0.4986753049
 40
1.0
 40
1.0
 40
1.0
 40
1.0
 10
11.6180013315
 20
-8.1090947981
 30
0.0
 10
11.8265844109
 20
-8.105478078
 30
0.0
 10
12.2431291675
 20
-8.0401410068
 30
0.0
 10
12.6462250086
 20
-7.9287741727
 30
0.0
 10
12.8468498891
 20
-7.8676734508
 30
0.0
 11
11.6180013315
 21
-8.1090947981
 31
0.0
 11
12.2386811411
 21
-8.0288675641
 31
0.0
 11
12.8468498891
 21
-7.8676734508
 31
0.0
  0
SPLINE
  5
6EF
100
AcDbEntity
  8
0
100
AcDbSpline
 62
7
  6
CONTINUOUS
 70
0
 71
3
 72
18
 73
14
 74
12
 42
0.0000001
 43
0.0000001
 44
0.0000000001
 12
1.6990822103
 22
0.0287368828
 32
0.0
 13
0.0
 23
1.699325209
 33
0.0
 40
0.0
 40
0.0
 40
0.0
 40
0.0
 40
0.2141756214
 40
0.409206839
 40
0.5811426843
 40
0.7267378799
 40
0.8431399586
 40
0.8896833051
 40
0.9281484128
 40
0.9583850162
 40
0.9802827952
 40
0.9939006154
 40
1.0
 40
1.0
 40
1.0
 40
1.0
 10
6.5078271006
 20
-8.1160766558
 30
0.0
 10
6.6291277633
 20
-8.1140250759
 30
0.0
 10
6.8608767135
 20
-8.1094366286
 30
0.0
 10
7.1899428129
 20
-8.1006343457
 30
0.0
 10
7.4801113247
 20
-8.0903842596
 30
0.0
 10
7.7256250336
 20
-8.0789273633
 30
0.0
 10
7.9001197239
 20
-8.067976338
 30
0.0
 10
8.01372848
 20
-8.0583974524
 30
0.0
 10
8.0788241275
 20
-8.0515055387
 30
0.0
 10
8.1292640514
 20
-8.0449096374
 30
0.0
 10
8.1669136076
 20
-8.037574476
 30
0.0
 10
8.1877658186
 20
-8.0321679371
 30
0.0
 10
8.1999904439
 20
-8.0252478112
 30
0.0
 10
8.1999904439
 20
-8.0217928652
 30
0.0
 11
6.5078271006
 21
-8.1160766558
 31
0.0
 11
6.8717080037
 21
-8.1087810271
 31
0.0
 11
7.2030072628
 21
-8.0997816877
 31
0.0
 11
7.4949927105
 21
-8.0892612319
 31
0.0
 11
7.7421228252
 21
-8.0774210871
 31
0.0
 11
7.9395049182
 21
-8.0644935136
 31
0.0
 11
8.0183050096
 21
-8.0577012631
 31
0.0
 11
8.0832972974
 21
-8.0507334738
 31
0.0
 11
8.1341847396
 21
-8.0436229254
 31
0.0
 11
8.1706890263
 21
-8.0364028904
 31
0.0
 11
8.1926516177
 21
-8.0291121205
 31
0.0
 11
8.1999904439
 21
-8.0217928652
 31
0.0
  0
SPLINE
  5
6F0
100
AcDbEntity
  8
0
100
AcDbSpline
 62
7
  6
CONTINUOUS
 70
0
 71
3
 72
9
 73
5
 74
3
 42
0.0000001
 43
0.0000001
 44
0.0000000001
 12
0.0185999418
 22
-0.0340594371
 32
0.0
 13
0.0377869458
 23
-0.0088402386
 33
0.0
 40
0.0
 40
0.0
 40
0.0
 40
0.0
 40
0.340519505
 40
1.0
 40
1.0
 40
1.0
 40
1.0
 10
9.5973470777
 20
-8.0060085179
 30
0.0
 10
9.599458292
 20
-8.0098744855
 30
0.0
 10
9.6126069196
 20
-8.0155235409
 30
0.0
 10
9.624467849
 20
-8.0188744466
 30
0.0
 10
9.6327744336
 20
-8.0208177682
 30
0.0
 11
9.5973470777
 21
-8.0060085179
 31
0.0
 11
9.6082637072
 21
-8.013455234
 31
0.0
 11
9.6327744336
 21
-8.0208177682
 31
0.0
  0
SPLINE
  5
6F1
100
AcDbEntity
  8
0
100
AcDbSpline
 62
7
  6
CONTINUOUS
 70
0
 71
3
 72
9
 73
5
 74
3
 42
0.0000001
 43
0.0000001
 44
0.0000000001
 12
0.0373566955
 22
-0.0087395817
 32
0.0
 13
0.0378736961
 23
-0.006122592
 33
0.0
 40
0.0
 40
0.0
 40
0.0
 40
0.0
 40
0.218350674
 40
1.0
 40
1.0
 40
1.0
 40
1.0
 10
9.6327744336
 20
-8.0208177682
 30
0.0
 10
9.6354933868
 20
-8.0214538661
 30
0.0
 10
9.6479832259
 20
-8.0242063954
 30
0.0
 10
9.6605830911
 20
-8.026435549
 30
0.0
 10
9.6704510741
 20
-8.028030789
 30
0.0
 11
9.6327744336
 21
-8.0208177682
 31
0.0
 11
9.6409529621
 21
-8.0226309464
 31
0.0
 11
9.6704510741
 21
-8.028030789
 31
0.0
  0
SPLINE
  5
6F2
100
AcDbEntity
  8
0
100
AcDbSpline
 62
7
  6
CONTINUOUS
 70
0
 71
3
 72
13
 73
9
 74
7
 42
0.0000001
 43
0.0000001
 44
0.0000000001
 12
1.9249742811
 22
-0.3111878016
 32
0.0
 13
1.9497650082
 23
-0.0279328391
 33
0.0
 40
0.0
 40
0.0
 40
0.0
 40
0.0
 40
0.0548577008
 40
0.1327005341
 40
0.2323756172
 40
0.3525445149
 40
0.6465991983
 40
1.0
 40
1.0
 40
1.0
 40
1.0
 10
9.6704510741
 20
-8.028030789
 30
0.0
 10
9.7056509618
 20
-8.0337211381
 30
0.0
 10
9.7914265475
 20
-8.0433836549
 30
0.0
 10
9.9419720477
 20
-8.0555159043
 30
0.0
 10
10.1351377934
 20
-8.067066358
 30
0.0
 10
10.4688125938
 20
-8.0824818838
 30
0.0
 10
10.9675485068
 20
-8.097894942
 30
0.0
 10
11.3883183579
 20
-8.105804321
 30
0.0
 10
11.618001197
 20
-8.1090948169
 30
0.0
 11
9.6704510741
 21
-8.028030789
 31
0.0
 11
9.776602636
 21
-8.0412427317
 31
0.0
 11
9.9278632655
 21
-8.0539183405
 31
0.0
 11
10.1218581809
 21
-8.0658733397
 31
0.0
 11
10.3559228065
 21
-8.076920026
 31
0.0
 11
10.9290130769
 21
-8.0956532528
 31
0.0
 11
11.618001197
 21
-8.1090948169
 31
0.0
  0
SPLINE
  5
6F3
100
AcDbEntity
  8
0
100
AcDbSpline
 62
7
  6
CONTINUOUS
 70
0
 71
3
 72
18
 73
14
 74
12
 42
0.0000001
 43
0.0000001
 44
0.0000000001
 12
1.6990736318
 22
0.0287367377
 32
0.0
 13
-0.0
 23
1.6993166292
 33
0.0
 40
0.0
 40
0.0
 40
0.0
 40
0.0
 40
0.2141766518
 40
0.4092087948
 40
0.5811455198
 40
0.7267414108
 40
0.8431438998
 40
0.8896878513
 40
0.928153698
 40
0.9583902061
 40
0.9802862031
 40
0.993901546
 40
1.0
 40
1.0
 40
1.0
 40
1.0
 10
-3.8921728999
 20
-8.1160766558
 30
0.0
 10
-3.770872266
 20
-8.1140250764
 30
0.0
 10
-3.5391233787
 20
-8.1094366305
 30
0.0
 10
-3.2100573334
 20
-8.1006343509
 30
0.0
 10
-2.9198888763
 20
-8.0903842609
 30
0.0
 10
-2.6743752677
 20
-8.078927408
 30
0.0
 10
-2.4998805289
 20
-8.0679762888
 30
0.0
 10
-2.386271301
 20
-8.0583974609
 30
0.0
 10
-2.3211753738
 20
-8.0515055695
 30
0.0
 10
-2.2707360337
 20
-8.044910023
 30
0.0
 10
-2.2330899329
 20
-8.0375746425
 30
0.0
 10
-2.2122392588
 20
-8.032168355
 30
0.0
 10
-2.2000191118
 20
-8.0252472664
 30
0.0
 10
-2.2000191118
 20
-8.021792865
 30
0.0
 11
-3.8921728999
 21
-8.1160766558
 31
0.0
 11
-3.5282920834
 21
-8.1087810293
 31
0.0
 11
-3.1969929249
 21
-8.0997816928
 31
0.0
 11
-2.9050074574
 21
-8.089261241
 31
0.0
 11
-2.65787741
 21
-8.0774211002
 31
0.0
 11
-2.460495619
 21
-8.0644935302
 31
0.0
 11
-2.3816948961
 21
-8.057701284
 31
0.0
 11
-2.3167016767
 21
-8.0507335
 31
0.0
 11
-2.2658146598
 21
-8.0436229524
 31
0.0
 11
-2.2293136533
 21
-8.0364029088
 31
0.0
 11
-2.2073556249
 21
-8.0291121259
 31
0.0
 11
-2.2000191118
 21
-8.021792865
 31
0.0
  0
SPLINE
  5
6F4
100
AcDbEntity
  8
0
100
AcDbSpline
 62
253
  6
CONTINUOUS
 70
0
 71
3
 72
21
 73
17
 74
15
 42
0.0000001
 43
0.0000001
 44
0.0000000001
 12
-0.0000008433
 22
-3.518115194
 32
0.0
 13
-0.0000018475
 23
3.518115194
 33
0.0
 40
0.0
 40
0.0
 40
0.0
 40
0.0
 40
0.0878555415
 40
0.1597633827
 40
0.2212886022
 40
0.2785993308
 40
0.33433707
 40
0.3898372918
 40
0.5000468626
 40
0.6101874982
 40
0.665661735
 40
0.72119276
 40
0.778456989
 40
0.8399776574
 40
0.911945911
 40
1.0
 40
1.0
 40
1.0
 40
1.0
 10
6.5076698422
 20
-14.4006510656
 30
0.0
 10
6.5076698175
 20
-14.5036797041
 30
0.0
 10
6.4712987676
 20
-14.6936189886
 30
0.0
 10
6.3293208554
 20
-14.9167569347
 30
0.0
 10
6.1543691784
 20
-15.060572224
 30
0.0
 10
5.9694582498
 20
-15.1512532401
 30
0.0
 10
5.7797414181
 20
-15.2087732985
 30
0.0
 10
5.5238728056
 20
-15.2553609251
 30
0.0
 10
5.1999215516
 20
-15.274209307
 30
0.0
 10
4.8760040582
 20
-15.2553407079
 30
0.0
 10
4.6204841797
 20
-15.2088118159
 30
0.0
 10
4.4310745535
 20
-15.1514301898
 30
0.0
 10
4.2463711687
 20
-15.0610292626
 30
0.0
 10
4.0712485336
 20
-14.9174129428
 30
0.0
 10
3.928847519
 20
-14.6941750051
 30
0.0
 10
3.892330212
 20
-14.503912536
 30
0.0
 10
3.8923301578
 20
-14.4006510598
 30
0.0
 11
6.5076698422
 21
-14.4006510656
 31
0.0
 11
6.4476696145
 21
-14.7038573912
 31
0.0
 11
6.3119790298
 21
-14.9173684689
 31
0.0
 11
6.1459801974
 21
-15.0562792549
 31
0.0
 11
5.9658636098
 21
-15.14689358
 31
0.0
 11
5.7786405186
 21
-15.2051988381
 31
0.0
 11
5.5867340054
 21
-15.2412108296
 31
0.0
 11
5.1998412444
 21
-15.2666768372
 31
0.0
 11
4.8131922091
 21
-15.2412005255
 31
0.0
 11
4.6213760254
 21
-15.2052028389
 31
0.0
 11
4.4348310384
 21
-15.1471660197
 31
0.0
 11
4.2547883707
 21
-15.0567689108
 31
0.0
 11
4.088645285
 21
-14.9180556717
 31
0.0
 11
3.9526052804
 21
-14.7045150126
 31
0.0
 11
3.8923301578
 21
-14.4006510598
 31
0.0
  0
SPLINE
  5
6F5
100
AcDbEntity
  8
0
100
AcDbSpline
 62
7
  6
CONTINUOUS
 70
0
 71
3
 72
12
 73
8
 74
6
 42
0.0000001
 43
0.0000001
 44
0.0000000001
 12
-0.0397895588
 22
-0.0003507817
 32
0.0
 13
0.0000666001
 23
-0.0397910493
 33
0.0
 40
0.0
 40
0.0
 40
0.0
 40
0.0
 40
0.0285513771
 40
0.0803862454
 40
0.276373001
 40
0.5874183266
 40
1.0
 40
1.0
 40
1.0
 40
1.0
 10
6.6988588352
 20
15.7760551432
 30
0.0
 10
6.698480153
 20
15.7760518048
 30
0.0
 10
6.6974035467
 20
15.7751233742
 30
0.0
 10
6.7000124062
 20
15.7715300202
 30
0.0
 10
6.699719225
 20
15.7642091239
 30
0.0
 10
6.6990764514
 20
15.7519779258
 30
0.0
 10
6.6990813212
 20
15.742391378
 30
0.0
 10
6.6990904805
 20
15.7369190254
 30
0.0
 11
6.6988588352
 21
15.7760551432
 31
0.0
 11
6.697946921
 21
15.7753775631
 31
0.0
 11
6.6985436344
 21
15.7734031988
 31
0.0
 11
6.6997663757
 21
15.7657011233
 31
0.0
 11
6.6992417723
 21
15.753335409
 31
0.0
 11
6.6990904805
 21
15.7369190254
 31
0.0
  0
SPLINE
  5
6F6
100
AcDbEntity
  8
0
100
AcDbSpline
 62
7
  6
CONTINUOUS
 70
0
 71
3
 72
11
 73
7
 74
5
 42
0.0000001
 43
0.0000001
 44
0.0000000001
 12
-2.3439268648
 22
0.0
 32
0.0
 13
-0.0004222786
 23
-2.3439268268
 33
0.0
 40
0.0
 40
0.0
 40
0.0
 40
0.0
 40
0.2501656452
 40
0.5002398727
 40
0.7501930486
 40
1.0
 40
1.0
 40
1.0
 40
1.0
 10
2.1993809797
 20
6.2582493161
 30
0.0
 10
2.0039243209
 20
6.2582493161
 30
0.0
 10
1.6088047258
 20
6.1794355817
 30
0.0
 10
1.1102817953
 20
5.8439199984
 30
0.0
 10
0.7772815677
 20
5.3441490177
 30
0.0
 10
0.6994705779
 20
4.9494643291
 30
0.0
 10
0.6994354152
 20
4.7542879241
 30
0.0
 11
2.1993809797
 21
6.2582493161
 31
0.0
 11
1.6244125223
 21
6.1431796756
 31
0.0
 11
1.1377696823
 21
5.8164423941
 31
0.0
 11
0.8132706376
 21
5.3286449688
 31
0.0
 11
0.6994354152
 21
4.7542879241
 31
0.0
  0
SPLINE
  5
6F7
100
AcDbEntity
  8
0
100
AcDbSpline
 62
7
  6
CONTINUOUS
 70
0
 71
3
 72
9
 73
5
 74
3
 42
0.0000001
 43
0.0000001
 44
0.0000000001
 12
-0.9790763889
 22
-0.3869910821
 32
0.0
 13
-0.9709222742
 23
-0.40701672
 33
0.0
 40
0.0
 40
0.0
 40
0.0
 40
0.0
 40
0.5586803589
 40
1.0
 40
1.0
 40
1.0
 40
1.0
 10
3.3413998328
 20
-7.4755369513
 30
0.0
 10
3.1590695833
 20
-7.5476050569
 30
0.0
 10
2.83723936
 20
-7.6878608263
 30
0.0
 10
2.5185816959
 20
-7.8349764614
 30
0.0
 10
2.3757526727
 20
-7.8948512857
 30
0.0
 11
3.3413998328
 21
-7.4755369513
 31
0.0
 11
2.800459365
 21
-7.706462471
 31
0.0
 11
2.3757526727
 21
-7.8948512857
 31
0.0
  0
SPLINE
  5
6F8
100
AcDbEntity
  8
0
100
AcDbSpline
 62
7
  6
CONTINUOUS
 70
0
 71
3
 72
9
 73
5
 74
3
 42
0.0000001
 43
0.0000001
 44
0.0000000001
 12
-0.2446682893
 22
-0.1025664847
 32
0.0
 13
-0.256103546
 23
-0.0692345964
 33
0.0
 40
0.0
 40
0.0
 40
0.0
 40
0.0
 40
0.5647114467
 40
1.0
 40
1.0
 40
1.0
 40
1.0
 10
2.3757526727
 20
-7.8948512857
 30
0.0
 10
2.3296970114
 20
-7.9141581084
 30
0.0
 10
2.2476772062
 20
-7.9471983967
 30
0.0
 10
2.1639335746
 20
-7.9760581827
 30
0.0
 10
2.1267739272
 20
-7.9861038585
 30
0.0
 11
2.3757526727
 21
-7.8948512857
 31
0.0
 11
2.2365122392
 21
-7.9501414083
 31
0.0
 11
2.1267739272
 21
-7.9861038585
 31
0.0
  0
SPLINE
  5
6F9
100
AcDbEntity
  8
0
100
AcDbSpline
 62
7
  6
CONTINUOUS
 70
0
 71
3
 72
11
 73
7
 74
5
 42
0.0000001
 43
0.0000001
 44
0.0000000001
 12
-2.3439268648
 22
0.0
 32
0.0
 13
-0.0004222786
 23
-2.3439268268
 33
0.0
 40
0.0
 40
0.0
 40
0.0
 40
0.0
 40
0.2501656452
 40
0.5002398727
 40
0.7501930486
 40
1.0
 40
1.0
 40
1.0
 40
1.0
 10
-0.4230974353
 20
6.2582493161
 30
0.0
 10
-0.6185540941
 20
6.2582493161
 30
0.0
 10
-1.0136736892
 20
6.1794355817
 30
0.0
 10
-1.5121966196
 20
5.8439199984
 30
0.0
 10
-1.8451968472
 20
5.3441490177
 30
0.0
 10
-1.923007837
 20
4.9494643291
 30
0.0
 10
-1.9230429997
 20
4.7542879241
 30
0.0
 11
-0.4230974353
 21
6.2582493161
 31
0.0
 11
-0.9980658927
 21
6.1431796756
 31
0.0
 11
-1.4847087326
 21
5.8164423941
 31
0.0
 11
-1.8092077773
 21
5.3286449688
 31
0.0
 11
-1.9230429997
 21
4.7542879241
 31
0.0
  0
SPLINE
  5
6FA
100
AcDbEntity
  8
0
100
AcDbSpline
 62
7
  6
CONTINUOUS
 70
0
 71
3
 72
11
 73
7
 74
5
 42
0.0000001
 43
0.0000001
 44
0.0000000001
 12
2.226151463
 22
0.0057136699
 32
0.0
 13
1.6478399174
 23
1.4967987802
 33
0.0
 40
0.0
 40
0.0
 40
0.0
 40
0.0
 40
0.2498601678
 40
0.4984828775
 40
0.749888029
 40
1.0
 40
1.0
 40
1.0
 40
1.0
 10
3.9999999974
 20
10.6134327445
 30
0.0
 10
4.1854088567
 20
10.6139086174
 30
0.0
 10
4.5562678828
 20
10.6467663108
 30
0.0
 10
5.0944977714
 20
10.8002968136
 30
0.0
 10
5.5950620368
 20
11.050480396
 30
0.0
 10
5.8947490144
 20
11.2752218276
 30
0.0
 10
6.032130511
 20
11.4000109253
 30
0.0
 11
3.9999999974
 21
10.6134327445
 31
0.0
 11
4.5539036645
 21
10.6642340399
 31
0.0
 11
5.086263776
 21
10.8156466322
 31
0.0
 11
5.5871366483
 21
11.0653552625
 31
0.0
 11
6.032130511
 21
11.4000109253
 31
0.0
  0
SPLINE
  5
6FB
100
AcDbEntity
  8
0
100
AcDbSpline
 62
7
  6
CONTINUOUS
 70
0
 71
3
 72
9
 73
5
 74
3
 42
0.0000001
 43
0.0000001
 44
0.0000000001
 12
0.6909851508
 22
0.627635663
 32
0.0
 13
0.4667641081
 23
0.8084047696
 33
0.0
 40
0.0
 40
0.0
 40
0.0
 40
0.0
 40
0.4999889921
 40
1.0
 40
1.0
 40
1.0
 40
1.0
 10
6.0321315356
 20
11.4000117265
 30
0.0
 10
6.147293192
 20
11.5046153674
 30
0.0
 10
6.3616715223
 20
11.7321585453
 30
0.0
 10
6.5375597845
 20
11.9905046394
 30
0.0
 10
6.6153555152
 20
12.1252417339
 30
0.0
 11
6.0321315356
 21
11.4000117265
 31
0.0
 11
6.3520447093
 21
11.7398539257
 31
0.0
 11
6.6153555152
 21
12.1252417339
 31
0.0
  0
LINE
  5
6FC
100
AcDbEntity
  8
0
100
AcDbLine
 62
7
  6
CONTINUOUS
 10
7.014042361
 20
13.963737953
 11
7.0157498708
 21
13.6342263181
  0
LINE
  5
6FD
100
AcDbEntity
  8
0
100
AcDbLine
 62
253
  6
CONTINUOUS
 10
7.0140419337
 20
13.6349930423
 11
7.0157494489
 21
13.6333250202
  0
SPLINE
  5
6FE
100
AcDbEntity
  8
0
100
AcDbSpline
 62
7
  6
CONTINUOUS
 70
0
 71
3
 72
9
 73
5
 74
3
 42
0.0000001
 43
0.0000001
 44
0.0000000001
 12
-0.7688507948
 22
1.2860183669
 32
0.0
 13
-0.0027316517
 23
1.4983215018
 33
0.0
 40
0.0
 40
0.0
 40
0.0
 40
0.0
 40
0.4999110286
 40
1.0
 40
1.0
 40
1.0
 40
1.0
 10
-6.4055581584
 20
12.2170335937
 30
0.0
 10
-6.5336771556
 20
12.4313318486
 30
0.0
 10
-6.7305836139
 20
12.8982852969
 30
0.0
 10
-6.7945788764
 20
13.4000306812
 30
0.0
 10
-6.7950342327
 20
13.6497953674
 30
0.0
 11
-6.4055581584
 21
12.2170335937
 31
0.0
 11
-6.6973326011
 21
12.9068970947
 31
0.0
 11
-6.7950342327
 21
13.6497953674
 31
0.0
  0
SPLINE
  5
6FF
100
AcDbEntity
  8
0
100
AcDbSpline
 62
7
  6
CONTINUOUS
 70
0
 71
3
 72
11
 73
7
 74
5
 42
0.0000001
 43
0.0000001
 44
0.0000000001
 12
-1.8630694352
 22
1.6888400688
 32
0.0
 13
-0.0014485481
 23
2.5145986558
 33
0.0
 40
0.0
 40
0.0
 40
0.0
 40
0.0
 40
0.2500049934
 40
0.5000117299
 40
0.7499846622
 40
1.0
 40
1.0
 40
1.0
 40
1.0
 10
-6.0210839262
 20
11.3999980724
 30
0.0
 10
-6.1763428135
 20
11.5407375558
 30
0.0
 10
-6.4581685237
 20
11.8557216388
 30
0.0
 10
-6.7746653758
 20
12.4038482241
 30
0.0
 10
-6.9710214995
 20
13.0058796631
 30
0.0
 10
-7.0139216289
 20
13.4263885635
 30
0.0
 10
-7.0140423487
 20
13.6359513076
 30
0.0
 11
-6.0210839262
 21
11.3999980724
 31
0.0
 11
-6.4404630287
 21
11.8683328743
 31
0.0
 11
-6.7546534322
 21
12.4128567214
 31
0.0
 11
-6.9490136906
 21
13.0106351489
 31
0.0
 11
-7.0140423487
 21
13.6359513076
 31
0.0
  0
LINE
  5
700
100
AcDbEntity
  8
0
100
AcDbLine
 62
7
  6
CONTINUOUS
 10
-6.7950333439
 20
14.1806649291
 11
-6.7950457555
 21
14.2
  0
SPLINE
  5
701
100
AcDbEntity
  8
0
100
AcDbSpline
 62
253
  6
CONTINUOUS
 70
0
 71
3
 72
15
 73
11
 74
9
 42
0.0000001
 43
0.0000001
 44
0.0000000001
 12
-4.0834602143
 22
0.0050097874
 32
0.0
 13
-0.0236064196
 23
4.0833950527
 33
0.0
 40
0.0
 40
0.0
 40
0.0
 40
0.0
 40
0.1265361237
 40
0.2506100667
 40
0.3721101793
 40
0.4944266509
 40
0.6202520571
 40
0.7454747142
 40
0.8715130606
 40
1.0
 40
1.0
 40
1.0
 40
1.0
 10
-3.9999999986
 20
10.9499999999
 30
0.0
 10
-4.1722350742
 20
10.9502113062
 30
0.0
 10
-4.5145810415
 20
10.9888220413
 30
0.0
 10
-4.9967898576
 20
11.1545523522
 30
0.0
 10
-5.4319722803
 20
11.4093898711
 30
0.0
 10
-5.8059816892
 20
11.7508863702
 30
0.0
 10
-6.1125797708
 20
12.1600865718
 30
0.0
 10
-6.3355469665
 20
12.6259771233
 30
0.0
 10
-6.4696709291
 20
13.1279709678
 30
0.0
 10
-6.4989889639
 20
13.4751127677
 30
0.0
 10
-6.5000000028
 20
13.6500004119
 30
0.0
 11
-3.9999999986
 21
10.9499999999
 31
0.0
 11
-4.5134611183
 21
11.0078132498
 31
0.0
 11
-4.9930438538
 21
11.1712024535
 31
0.0
 11
-5.4206472147
 21
11.4228202287
 31
0.0
 11
-5.7909370187
 21
11.7580224935
 31
0.0
 11
-6.0985772077
 21
12.1695458532
 31
0.0
 11
-6.3202054639
 21
12.6303621753
 31
0.0
 11
-6.4539515229
 21
13.1273533702
 31
0.0
 11
-6.5000000028
 21
13.6500004119
 31
0.0
  0
SPLINE
  5
702
100
AcDbEntity
  8
0
100
AcDbSpline
 62
253
  6
CONTINUOUS
 70
0
 71
3
 72
16
 73
12
 74
10
 42
0.0000001
 43
0.0000001
 44
0.0000000001
 12
-0.0220328363
 22
-4.083981317
 32
0.0
 13
-4.0840147809
 23
0.0145640952
 33
0.0
 40
0.0
 40
0.0
 40
0.0
 40
0.0
 40
0.1270891432
 40
0.2530812766
 40
0.3791613542
 40
0.5061006922
 40
0.6291662246
 40
0.750976509
 40
0.8128385638
 40
0.8749888688
 40
1.0
 40
1.0
 40
1.0
 40
1.0
 10
6.5000000007
 20
13.6500001034
 30
0.0
 10
6.4990666226
 20
13.4769902079
 30
0.0
 10
6.4701812706
 20
13.1317838296
 30
0.0
 10
6.3372203601
 20
12.6302467862
 30
0.0
 10
6.1137905138
 20
12.1615243387
 30
0.0
 10
5.8047016223
 20
11.7493301899
 30
0.0
 10
5.4280259954
 20
11.4063633797
 30
0.0
 10
5.0644131326
 20
11.1943744023
 30
0.0
 10
4.7526228901
 20
11.0714918752
 30
0.0
 10
4.4261755199
 20
10.9786758869
 30
0.0
 10
4.1701824352
 20
10.9493931086
 30
0.0
 10
3.9999999994
 20
10.9499999999
 30
0.0
 11
6.5000000007
 21
13.6500001034
 31
0.0
 11
6.4549603099
 21
13.1329207262
 31
0.0
 11
6.3222107426
 21
12.63578245
 31
0.0
 11
6.0996992832
 21
12.1714255639
 31
0.0
 11
5.7891936213
 21
11.7562735924
 31
0.0
 11
5.4160950142
 21
11.419511269
 31
0.0
 11
4.9866495214
 21
11.1683915888
 31
0.0
 11
4.7516752676
 21
11.0755601079
 31
0.0
 11
4.5074069958
 21
11.0065686134
 31
0.0
 11
3.9999999994
 21
10.9499999999
 31
0.0
  0
SPLINE
  5
703
100
AcDbEntity
  8
0
100
AcDbSpline
 62
7
  6
CONTINUOUS
 70
0
 71
3
 72
10
 73
6
 74
4
 42
0.0000001
 43
0.0000001
 44
0.0000000001
 12
0.0309116804
 22
-0.0000000218
 32
0.0
 13
0.0044731235
 23
0.030586323
 33
0.0
 40
0.0
 40
0.0
 40
0.0
 40
0.0
 40
0.0917073847
 40
0.2851229227
 40
1.0
 40
1.0
 40
1.0
 40
1.0
 10
8.2108931296
 20
-8.0000000297
 30
0.0
 10
8.2118380727
 20
-8.0000000304
 30
0.0
 10
8.2139474848
 20
-7.9971187788
 30
0.0
 10
8.2166686072
 20
-7.9877647576
 30
0.0
 10
8.2184644551
 20
-7.9782095922
 30
0.0
 10
8.2195303662
 20
-7.9709211052
 30
0.0
 11
8.2108931296
 21
-8.0000000297
 31
0.0
 11
8.213057061
 21
-7.9981687301
 31
0.0
 11
8.2152190056
 21
-7.9925945004
 31
0.0
 11
8.2195303662
 21
-7.9709211052
 31
0.0
  0
SPLINE
  5
704
100
AcDbEntity
  8
0
100
AcDbSpline
 62
7
  6
CONTINUOUS
 70
0
 71
3
 72
11
 73
7
 74
5
 42
0.0000001
 43
0.0000001
 44
0.0000000001
 12
-2.2120723134
 22
0.0043376481
 32
0.0
 13
-1.6389409692
 23
1.4856497684
 33
0.0
 40
0.0
 40
0.0
 40
0.0
 40
0.0
 40
0.2483741029
 40
0.4966906952
 40
0.7473273572
 40
1.0
 40
1.0
 40
1.0
 40
1.0
 10
-4.0000000002
 20
10.6220071627
 30
0.0
 10
-4.1831404923
 20
10.6223662825
 30
0.0
 10
-4.5502535259
 20
10.6553639685
 30
0.0
 10
-5.0836142826
 20
10.8054442433
 30
0.0
 10
-5.5836474938
 20
11.0512541753
 30
0.0
 10
-5.8830488464
 20
11.2748715843
 30
0.0
 10
-6.0210873618
 20
11.3999992687
 30
0.0
 11
-4.0000000002
 21
10.6220071627
 31
0.0
 11
-4.5471379544
 21
10.6720589201
 31
0.0
 11
-5.075974408
 21
10.8205760854
 31
0.0
 11
-5.573505896
 21
11.0652232934
 31
0.0
 11
-6.0210873618
 21
11.3999992687
 31
0.0
  0
SPLINE
  5
705
100
AcDbEntity
  8
0
100
AcDbSpline
 62
7
  6
CONTINUOUS
 70
0
 71
3
 72
11
 73
7
 74
5
 42
0.0000001
 43
0.0000001
 44
0.0000000001
 12
-1.6395993744
 22
-1.4846949143
 32
0.0
 13
-2.2119191113
 23
-0.0043522738
 33
0.0
 40
0.0
 40
0.0
 40
0.0
 40
0.0
 40
0.2526783968
 40
0.5033124472
 40
0.7516263864
 40
1.0
 40
1.0
 40
1.0
 40
1.0
 10
6.0209333844
 20
11.3999416757
 30
0.0
 10
5.8828362707
 20
11.2748915654
 30
0.0
 10
5.5836150716
 20
11.0510881426
 30
0.0
 10
5.0835130674
 20
10.8054532501
 30
0.0
 10
4.5502187403
 20
10.6553487123
 30
0.0
 10
4.1831274485
 20
10.6223670625
 30
0.0
 10
4.0000000009
 20
10.6220067325
 30
0.0
 11
6.0209333844
 21
11.3999416757
 31
0.0
 11
5.5734114544
 21
11.0651294772
 31
0.0
 11
5.0758949846
 21
10.8205518273
 31
0.0
 11
4.5470992564
 21
10.6720520278
 31
0.0
 11
4.0000000009
 21
10.6220067325
 31
0.0
  0
SPLINE
  5
706
100
AcDbEntity
  8
0
100
AcDbSpline
 62
7
  6
CONTINUOUS
 70
0
 71
3
 72
9
 73
5
 74
3
 42
0.0000001
 43
0.0000001
 44
0.0000000001
 12
0.7681872348
 22
1.2855295491
 32
0.0
 13
0.0052047925
 23
1.497554927
 33
0.0
 40
0.0
 40
0.0
 40
0.0
 40
0.0
 40
0.499908012
 40
1.0
 40
1.0
 40
1.0
 40
1.0
 10
6.4059353201
 20
12.2176977616
 30
0.0
 10
6.5339429712
 20
12.4319132687
 30
0.0
 10
6.729377897
 20
12.8991835026
 30
0.0
 10
6.7941663286
 20
13.4003700822
 30
0.0
 10
6.7950339536
 20
13.650008489
 30
0.0
 11
6.4059353201
 21
12.2176977616
 31
0.0
 11
6.6966923349
 21
12.9075735029
 31
0.0
 11
6.7950339536
 21
13.650008489
 31
0.0
  0
SPLINE
  5
707
100
AcDbEntity
  8
0
100
AcDbSpline
 62
7
  6
CONTINUOUS
 70
0
 71
3
 72
11
 73
7
 74
5
 42
0.0000001
 43
0.0000001
 44
0.0000000001
 12
-0.0078822381
 22
-3.1725994997
 32
0.0
 13
-0.1641198002
 23
-3.1683614703
 33
0.0
 40
0.0
 40
0.0
 40
0.0
 40
0.0
 40
0.33016538
 40
0.6210576364
 40
0.8502264402
 40
1.0
 40
1.0
 40
1.0
 40
1.0
 10
8.9751931203
 20
-4.3896881644
 30
0.0
 10
8.9743256396
 20
-4.7388490042
 30
0.0
 10
8.9707642437
 20
-5.3956299003
 30
0.0
 10
8.9617576089
 20
-6.2947489274
 30
0.0
 10
8.94893287
 20
-7.0029841032
 30
0.0
 10
8.9378907092
 20
-7.4036406572
 30
0.0
 10
8.9296971069
 20
-7.5618195825
 30
0.0
 11
8.9751931203
 21
-4.3896881644
 31
0.0
 11
8.9696862077
 21
-5.4371594409
 31
0.0
 11
8.9597121288
 21
-6.3599930175
 31
0.0
 11
8.9460277691
 21
-7.0869273028
 31
0.0
 11
8.9296971069
 21
-7.5618195825
 31
0.0
  0
SPLINE
  5
708
100
AcDbEntity
  8
0
100
AcDbSpline
 62
7
  6
CONTINUOUS
 70
0
 71
3
 72
9
 73
5
 74
3
 42
0.0000001
 43
0.0000001
 44
0.0000000001
 12
-0.021729805
 22
0.0686132885
 32
0.0
 13
0.0000250191
 23
0.0719719887
 33
0.0
 40
0.0
 40
0.0
 40
0.0
 40
0.0
 40
0.2455373813
 40
1.0
 40
1.0
 40
1.0
 40
1.0
 10
8.9405460012
 20
-7.6328325904
 30
0.0
 10
8.9387675081
 20
-7.6272168814
 30
0.0
 10
8.93245575
 20
-7.6040637742
 30
0.0
 10
8.9295696958
 20
-7.5799558206
 30
0.0
 10
8.9295759878
 20
-7.5618557622
 30
0.0
 11
8.9405460012
 21
-7.6328325904
 31
0.0
 11
8.9358744939
 21
-7.6157894084
 31
0.0
 11
8.9295759878
 21
-7.5618557622
 31
0.0
  0
SPLINE
  5
709
100
AcDbEntity
  8
0
100
AcDbSpline
 62
7
  6
CONTINUOUS
 70
0
 71
3
 72
11
 73
7
 74
5
 42
0.0000001
 43
0.0000001
 44
0.0000000001
 12
-0.2770915532
 22
-0.1019943445
 32
0.0
 13
-0.089147085
 23
0.2814877837
 33
0.0
 40
0.0
 40
0.0
 40
0.0
 40
0.0
 40
0.2335065354
 40
0.4649328801
 40
0.7122257764
 40
1.0
 40
1.0
 40
1.0
 40
1.0
 10
9.1815038507
 20
-7.737408463
 30
0.0
 10
9.1599362879
 20
-7.745347245
 30
0.0
 10
9.1146931398
 20
-7.7560282996
 30
0.0
 10
9.0432981519
 20
-7.7484225432
 30
0.0
 10
8.9762262812
 20
-7.7079863458
 30
0.0
 10
8.9490974123
 20
-7.6598342332
 30
0.0
 10
8.9405460012
 20
-7.6328325904
 30
0.0
 11
9.1815038507
 21
-7.737408463
 31
0.0
 11
9.1141469869
 21
-7.7521295073
 31
0.0
 11
9.0463136666
 21
-7.743884609
 31
0.0
 11
8.9839748744
 21
-7.7058659464
 31
0.0
 11
8.9405460012
 21
-7.6328325904
 31
0.0
  0
SPLINE
  5
70A
100
AcDbEntity
  8
0
100
AcDbSpline
 62
7
  6
CONTINUOUS
 70
0
 71
3
 72
13
 73
9
 74
7
 42
0.0000001
 43
0.0000001
 44
0.0000000001
 12
0.0322004614
 22
-0.255591797
 32
0.0
 13
0.2576117913
 23
-0.0004487622
 33
0.0
 40
0.0
 40
0.0
 40
0.0
 40
0.0
 40
0.0346654542
 40
0.0978338055
 40
0.1921576277
 40
0.3154472528
 40
0.6310619609
 40
1.0
 40
1.0
 40
1.0
 40
1.0
 10
8.9747701835
 20
-4.3896896748
 30
0.0
 10
8.9751422647
 20
-4.3926430767
 30
0.0
 10
8.9824682289
 20
-4.398896371
 30
0.0
 10
8.9974833992
 20
-4.4044262799
 30
0.0
 10
9.021128598
 20
-4.4104561709
 30
0.0
 10
9.0662216693
 20
-4.4178165383
 30
0.0
 10
9.1354847819
 20
-4.4239086914
 30
0.0
 10
9.1942467019
 20
-4.4255643321
 30
0.0
 10
9.2259276316
 20
-4.4256195206
 30
0.0
 11
8.9747701835
 21
-4.3896896748
 31
0.0
 11
8.9803739025
 21
-4.3966429172
 31
0.0
 11
8.9952027597
 21
-4.4033446683
 31
0.0
 11
9.01870381
 21
-4.4095204571
 31
0.0
 11
9.0499980672
 21
-4.4149449227
 31
0.0
 11
9.1309276904
 21
-4.422761138
 31
0.0
 11
9.2259276316
 21
-4.4256195206
 31
0.0
  0
SPLINE
  5
70B
100
AcDbEntity
  8
0
100
AcDbSpline
 62
253
  6
CONTINUOUS
 70
0
 71
3
 72
22
 73
18
 74
16
 42
0.0000001
 43
0.0000001
 44
0.0000000001
 12
-3.006733372
 22
0.000201847
 32
0.0
 13
-1.2470287035
 23
2.7359395138
 33
0.0
 40
0.0
 40
0.0
 40
0.0
 40
0.0
 40
0.1925755303
 40
0.3778895964
 40
0.5489781705
 40
0.6272073525
 40
0.6995329499
 40
0.7652438699
 40
0.8237720556
 40
0.8746105763
 40
0.9172473489
 40
0.9512296521
 40
0.9763478854
 40
0.9855490505
 40
0.9925062658
 40
0.9972564865
 40
1.0
 40
1.0
 40
1.0
 40
1.0
 10
12.8468502367
 20
-7.8676491465
 30
0.0
 10
12.6538424788
 20
-7.8676361895
 30
0.0
 10
12.27510317
 20
-7.8662637287
 30
0.0
 10
11.724921683
 20
-7.8601641463
 30
0.0
 10
11.2893897405
 20
-7.8516765342
 30
0.0
 10
10.9671441559
 20
-7.8428395591
 30
0.0
 10
10.7505125513
 20
-7.8355911007
 30
0.0
 10
10.5536679647
 20
-7.8275830852
 30
0.0
 10
10.3784069947
 20
-7.8189209635
 30
0.0
 10
10.2263413179
 20
-7.8097178234
 30
0.0
 10
10.0989387998
 20
-7.8001208803
 30
0.0
 10
9.9974795996
 20
-7.7902006706
 30
0.0
 10
9.9295210485
 20
-7.7812150238
 30
0.0
 10
9.8889558452
 20
-7.773424406
 30
0.0
 10
9.8685089339
 20
-7.7681397104
 30
0.0
 10
9.8551901942
 20
-7.7631625798
 30
0.0
 10
9.8484497453
 20
-7.7586370104
 30
0.0
 10
9.8473093319
 20
-7.7561349814
 30
0.0
 11
12.8468502367
 21
-7.8676491465
 31
0.0
 11
12.2678309377
 21
-7.865503393
 31
0.0
 11
11.7106766616
 21
-7.8591950197
 31
0.0
 11
11.1963613584
 21
-7.8489302248
 31
0.0
 11
10.9612368519
 21
-7.8424317641
 31
0.0
 11
10.7438968403
 21
-7.8350956645
 31
0.0
 11
10.5464880938
 21
-7.8269868407
 31
0.0
 11
10.3707292611
 21
-7.818193789
 31
0.0
 11
10.2181594758
 21
-7.8088134232
 31
0.0
 11
10.0903426757
 21
-7.7989422085
 31
0.0
 11
9.9886845147
 21
-7.7886710293
 31
0.0
 11
9.9139084374
 21
-7.7780697453
 31
0.0
 11
9.8867759615
 21
-7.7726654974
 31
0.0
 11
9.8665833018
 21
-7.767202918
 31
0.0
 11
9.8534074768
 21
-7.761690056
 31
0.0
 11
9.8473093319
 21
-7.7561349814
 31
0.0
  0
SPLINE
  5
70C
100
AcDbEntity
  8
0
100
AcDbSpline
 62
253
  6
CONTINUOUS
 70
0
 71
3
 72
9
 73
5
 74
3
 42
0.0000001
 43
0.0000001
 44
0.0000000001
 12
0.2255007046
 22
0.0743451705
 32
0.0
 13
0.0737925375
 23
0.2256821517
 33
0.0
 40
0.0
 40
0.0
 40
0.0
 40
0.0
 40
0.5000410563
 40
1.0
 40
1.0
 40
1.0
 40
1.0
 10
9.6721460474
 20
-7.9938950699
 30
0.0
 10
9.7097325842
 20
-7.9815031907
 30
0.0
 10
9.7796477069
 20
-7.9379117575
 30
0.0
 10
9.8231006353
 20
-7.8679025432
 30
0.0
 10
9.8353983817
 20
-7.8302919398
 30
0.0
 11
9.6721460474
 21
-7.9938950699
 31
0.0
 11
9.7730368127
 21
-7.9313026482
 31
0.0
 11
9.8353983817
 21
-7.8302919398
 31
0.0
  0
SPLINE
  5
70D
100
AcDbEntity
  8
0
100
AcDbSpline
 62
253
  6
CONTINUOUS
 70
0
 71
3
 72
9
 73
5
 74
3
 42
0.0000001
 43
0.0000001
 44
0.0000000001
 12
0.0233821839
 22
0.0715105043
 32
0.0
 13
0.0000536536
 23
0.0752361341
 33
0.0
 40
0.0
 40
0.0
 40
0.0
 40
0.0
 40
0.7462051316
 40
1.0
 40
1.0
 40
1.0
 40
1.0
 10
9.8353983817
 20
-7.8302919398
 30
0.0
 10
9.8412143502
 20
-7.8125047714
 30
0.0
 10
9.8462782545
 20
-7.7876206879
 30
0.0
 10
9.8473047721
 20
-7.7625501635
 30
0.0
 10
9.8473093111
 20
-7.7561853153
 30
0.0
 11
9.8353983817
 21
-7.8302919398
 31
0.0
 11
9.8465236668
 21
-7.7752636954
 31
0.0
 11
9.8473093111
 21
-7.7561853153
 31
0.0
  0
SPLINE
  5
70E
100
AcDbEntity
  8
0
100
AcDbSpline
 62
7
  6
CONTINUOUS
 70
0
 71
3
 72
13
 73
9
 74
7
 42
0.0000001
 43
0.0000001
 44
0.0000000001
 12
0.2581314362
 22
0.0003857642
 32
0.0
 13
0.0309095256
 23
0.2562744397
 33
0.0
 40
0.0
 40
0.0
 40
0.0
 40
0.0
 40
0.3689472149
 40
0.6846631033
 40
0.8079806075
 40
0.9022944604
 40
0.9654075675
 40
1.0
 40
1.0
 40
1.0
 40
1.0
 10
9.5262431942
 20
-4.4256161364
 30
0.0
 10
9.557988819
 20
-4.4255686942
 30
0.0
 10
9.6168791136
 20
-4.4239210703
 30
0.0
 10
9.6862948697
 20
-4.4178238894
 30
0.0
 10
9.7314895354
 20
-4.4104534975
 30
0.0
 10
9.7551796557
 20
-4.4044078827
 30
0.0
 10
9.7702129218
 20
-4.3988768214
 30
0.0
 10
9.7775392427
 20
-4.3925967906
 30
0.0
 10
9.7778956546
 20
-4.3896417385
 30
0.0
 11
9.5262431942
 21
-4.4256161364
 31
0.0
 11
9.6214376707
 21
-4.4227711108
 31
0.0
 11
9.7025575883
 21
-4.414947831
 31
0.0
 11
9.7339224645
 21
-4.409513592
 31
0.0
 11
9.7574682098
 21
-4.4033251948
 31
0.0
 11
9.7723110089
 21
-4.396609234
 31
0.0
 11
9.7778956546
 21
-4.3896417385
 31
0.0
  0
SPLINE
  5
70F
100
AcDbEntity
  8
0
100
AcDbSpline
 62
253
  6
CONTINUOUS
 70
0
 71
3
 72
23
 73
19
 74
17
 42
0.0000001
 43
0.0000001
 44
0.0000000001
 12
-3.3638098179
 22
0.1080820196
 32
0.0
 13
-0.0086257518
 23
3.3655346991
 33
0.0
 40
0.0
 40
0.0
 40
0.0
 40
0.0
 40
0.0014722642
 40
0.0050195223
 40
0.010804456
 40
0.0188674471
 40
0.0292239174
 40
0.0418521624
 40
0.0737951974
 40
0.1144216535
 40
0.1634044612
 40
0.2203786012
 40
0.2848803991
 40
0.3564040096
 40
0.434374988
 40
0.6071445173
 40
0.7977045787
 40
1.0
 40
1.0
 40
1.0
 40
1.0
 10
9.8442287647
 20
-7.7504179613
 30
0.0
 10
9.8425779591
 20
-7.7503649196
 30
0.0
 10
9.8399677591
 20
-7.7435100946
 30
0.0
 10
9.8375566464
 20
-7.7330619101
 30
0.0
 10
9.8345609368
 20
-7.7129878482
 30
0.0
 10
9.831713622
 20
-7.6863202466
 30
0.0
 10
9.8287659023
 20
-7.651481517
 30
0.0
 10
9.8245531987
 20
-7.5900653802
 30
0.0
 10
9.8195925607
 20
-7.4945699164
 30
0.0
 10
9.8141116788
 20
-7.3583329538
 30
0.0
 10
9.8088249238
 20
-7.1939658946
 30
0.0
 10
9.8037891681
 20
-7.0028046766
 30
0.0
 10
9.7990525835
 20
-6.7863389592
 30
0.0
 10
9.7946605696
 20
-6.5463073866
 30
0.0
 10
9.7891236675
 20
-6.1848177357
 30
0.0
 10
9.7834732615
 20
-5.6897757013
 30
0.0
 10
9.7787216503
 20
-5.0552466353
 30
0.0
 10
9.7769355796
 20
-4.6145249581
 30
0.0
 10
9.7763539295
 20
-4.3875808714
 30
0.0
 11
9.8442287647
 21
-7.7504179613
 31
0.0
 11
9.8411749639
 21
-7.7465159039
 31
0.0
 11
9.8381246946
 21
-7.7349736912
 31
0.0
 11
9.8350851491
 21
-7.7157429606
 31
0.0
 11
9.8320635195
 21
-7.688775349
 31
0.0
 11
9.8290667331
 21
-7.6540492424
 31
0.0
 11
9.826100639
 21
-7.6116519327
 31
0.0
 11
9.8202828262
 21
-7.5043037215
 31
0.0
 11
9.8146546891
 21
-7.3676894076
 31
0.0
 11
9.8092608782
 21
-7.2029237901
 31
0.0
 11
9.8041451733
 21
-7.0112429688
 31
0.0
 11
9.7993478125
 21
-6.794212232
 31
0.0
 11
9.7949072733
 21
-6.5535372097
 31
0.0
 11
9.7908585573
 21
-6.2911535496
 31
0.0
 11
9.7840628078
 21
-5.7097295074
 31
0.0
 11
9.7791764986
 21
-5.0684095166
 31
0.0
 11
9.7763539295
 21
-4.3875808714
 31
0.0
  0
SPLINE
  5
710
100
AcDbEntity
  8
0
100
AcDbSpline
 62
253
  6
CONTINUOUS
 70
0
 71
3
 72
21
 73
17
 74
15
 42
0.0000001
 43
0.0000001
 44
0.0000000001
 12
0.0001493571
 22
2.7539491671
 32
0.0
 13
1.478875206
 23
2.3231797525
 33
0.0
 40
0.0
 40
0.0
 40
0.0
 40
0.0
 40
0.1916144848
 40
0.3761690748
 40
0.5468008257
 40
0.6971769086
 40
0.7629877985
 40
0.8217169311
 40
0.8728060127
 40
0.9158036536
 40
0.9503030929
 40
0.9759659191
 40
0.9853916234
 40
0.9925295178
 40
0.9973865521
 40
1.0
 40
1.0
 40
1.0
 40
1.0
 10
9.7564260197
 20
14.177010122
 30
0.0
 10
9.7564355593
 20
14.3529089722
 30
0.0
 10
9.7569908687
 20
14.6982260843
 30
0.0
 10
9.7595401777
 20
15.2001746414
 30
0.0
 10
9.7636764192
 20
15.664255044
 30
0.0
 10
9.7684767212
 20
16.0193178531
 30
0.0
 10
9.7731397392
 20
16.2716433327
 30
0.0
 10
9.7767541418
 20
16.4328285344
 30
0.0
 10
9.7806122048
 20
16.5730566396
 30
0.0
 10
9.7846414295
 20
16.6910345802
 30
0.0
 10
9.7888376813
 20
16.7856281352
 30
0.0
 10
9.7925758477
 20
16.849434259
 30
0.0
 10
9.79590671
 20
16.8880187088
 30
0.0
 10
9.7980205699
 20
16.9076395423
 30
0.0
 10
9.8002871789
 20
16.9207305239
 30
0.0
 10
9.8018131548
 20
16.9276127195
 30
0.0
 10
9.8031014758
 20
16.9296365558
 30
0.0
 11
9.7564260197
 21
14.177010122
 31
0.0
 11
9.7573122616
 21
14.7047059293
 31
0.0
 11
9.7599425647
 21
15.2129530834
 31
0.0
 11
9.7642256377
 21
15.6828447326
 31
0.0
 11
9.7700022751
 21
16.0969325305
 31
0.0
 11
9.7733856837
 21
16.2781407925
 31
0.0
 11
9.7770579424
 21
16.4398361436
 31
0.0
 11
9.7809853841
 21
16.5804780512
 31
0.0
 11
9.7851305931
 21
16.6988187923
 31
0.0
 11
9.7894551325
 21
16.7937300239
 31
0.0
 11
9.7939203591
 21
16.864262944
 31
0.0
 11
9.7961933907
 21
16.8901211429
 31
0.0
 11
9.7984855346
 21
16.9096444466
 31
0.0
 11
9.80079037
 21
16.9228204019
 31
0.0
 11
9.8031014758
 21
16.9296365558
 31
0.0
  0
SPLINE
  5
711
100
AcDbEntity
  8
0
100
AcDbSpline
 62
253
  6
CONTINUOUS
 70
0
 71
3
 72
21
 73
17
 74
15
 42
0.0000001
 43
0.0000001
 44
0.0000000001
 12
0.0001805702
 22
3.0046842546
 32
0.0
 13
2.4140246787
 23
1.7890255318
 33
0.0
 40
0.0
 40
0.0
 40
0.0
 40
0.0
 40
0.1916170612
 40
0.3761170275
 40
0.5466023338
 40
0.6968654454
 40
0.7625724766
 40
0.8211983512
 40
0.8722300238
 40
0.9151893975
 40
0.9496426722
 40
0.9753030115
 40
0.984781167
 40
0.9920184133
 40
0.9970444369
 40
1.0
 40
1.0
 40
1.0
 40
1.0
 10
12.8468767627
 20
14.4006510387
 30
0.0
 10
12.8468882962
 20
14.5925672943
 30
0.0
 10
12.8481569044
 20
14.969272643
 30
0.0
 10
12.8537002482
 20
15.5167052399
 30
0.0
 10
12.8627654517
 20
16.0226662917
 30
0.0
 10
12.8732464563
 20
16.4095926392
 30
0.0
 10
12.8834628176
 20
16.6844293945
 30
0.0
 10
12.8913812516
 20
16.8598926452
 30
0.0
 10
12.8998029391
 20
17.0125154594
 30
0.0
 10
12.9085919658
 20
17.1408749051
 30
0.0
 10
12.9176819433
 20
17.2436914198
 30
0.0
 10
12.925890614
 20
17.312979271
 30
0.0
 10
12.9330470763
 20
17.3547676912
 30
0.0
 10
12.9378521595
 20
17.3761284332
 30
0.0
 10
12.9425416377
 20
17.3904332466
 30
0.0
 10
12.9464850372
 20
17.3978605068
 30
0.0
 10
12.9488633046
 20
17.3996230327
 30
0.0
 11
12.8468767627
 21
14.4006510387
 31
0.0
 11
12.8488416653
 21
14.9763964536
 31
0.0
 11
12.8545903938
 21
15.5307307906
 31
0.0
 11
12.8639600335
 21
16.0428996098
 31
0.0
 11
12.8765939615
 21
16.4942160168
 31
0.0
 11
12.8840023008
 21
16.6915058546
 31
0.0
 11
12.8920384605
 21
16.8674746948
 31
0.0
 11
12.9006153624
 21
17.0205686915
 31
0.0
 11
12.9096451572
 21
17.1493318165
 31
0.0
 11
12.9190451398
 21
17.2524253747
 31
0.0
 11
12.9287536784
 21
17.3289129033
 31
0.0
 11
12.9337056882
 21
17.3569579265
 31
0.0
 11
12.9387129875
 21
17.3781192075
 31
0.0
 11
12.9437680579
 21
17.3923496331
 31
0.0
 11
12.9488633046
 21
17.3996230327
 31
0.0
  0
SPLINE
  5
712
100
AcDbEntity
  8
0
100
AcDbSpline
 62
253
  6
CONTINUOUS
 70
0
 71
3
 72
13
 73
9
 74
7
 42
0.0000001
 43
0.0000001
 44
0.0000000001
 12
0.0491139754
 22
0.0004098566
 32
0.0
 13
0.0000857542
 23
-0.0491156106
 33
0.0
 40
0.0
 40
0.0
 40
0.0
 40
0.0
 40
0.0173396402
 40
0.068132567
 40
0.1519151804
 40
0.2673649301
 40
0.5855527657
 40
1.0
 40
1.0
 40
1.0
 40
1.0
 10
-6.699707923
 20
15.7760524266
 30
0.0
 10
-6.6994240501
 20
15.7760547955
 30
0.0
 10
-6.6997346879
 20
15.7742882663
 30
0.0
 10
-6.6992544444
 20
15.772424346
 30
0.0
 10
-6.6994198687
 20
15.7679842617
 30
0.0
 10
-6.6992616217
 20
15.7597174119
 30
0.0
 10
-6.6993367782
 20
15.7456847346
 30
0.0
 10
-6.6992673378
 20
15.7337405641
 30
0.0
 10
-6.6992554909
 20
15.7269552878
 30
0.0
 11
-6.699707923
 21
15.7760524266
 31
0.0
 11
-6.6995480936
 21
15.7752159103
 31
0.0
 11
-6.6994320213
 21
15.7727238826
 31
0.0
 11
-6.6993648301
 21
15.7686093907
 31
0.0
 11
-6.6993357512
 21
15.7629390717
 31
0.0
 11
-6.6993029035
 21
15.7473110926
 31
0.0
 11
-6.6992554909
 21
15.7269552878
 31
0.0
  0
SPLINE
  5
713
100
AcDbEntity
  8
0
100
AcDbSpline
 62
7
  6
CONTINUOUS
 70
0
 71
3
 72
10
 73
6
 74
4
 42
0.0000001
 43
0.0000001
 44
0.0000000001
 12
-0.0277716909
 22
-0.0000000203
 32
0.0
 13
-0.0043552221
 23
0.0274280669
 33
0.0
 40
0.0
 40
0.0
 40
0.0
 40
0.0
 40
0.0964357431
 40
0.2999582818
 40
1.0
 40
1.0
 40
1.0
 40
1.0
 10
-8.2108931374
 20
-8.0000000032
 30
0.0
 10
-8.2117858653
 20
-8.0000000039
 30
0.0
 10
-8.2138506261
 20
-7.9973649031
 30
0.0
 10
-8.2162695922
 20
-7.9888916029
 30
0.0
 10
-8.2181896436
 20
-7.9804669826
 30
0.0
 10
-8.2192059226
 20
-7.9740667189
 30
0.0
 11
-8.2108931374
 21
-8.0000000032
 31
0.0
 11
-8.2129750774
 21
-7.9983153094
 31
0.0
 11
-8.2150550519
 21
-7.9930597718
 31
0.0
 11
-8.2192059226
 21
-7.9740667189
 31
0.0
  0
SPLINE
  5
714
100
AcDbEntity
  8
0
100
AcDbSpline
 62
7
  6
CONTINUOUS
 70
0
 71
3
 72
23
 73
19
 74
17
 42
0.0000001
 43
0.0000001
 44
0.0000000001
 12
3.57691699
 22
0.0000004334
 32
0.0
 13
0.0088212525
 23
3.5769061127
 33
0.0
 40
0.0
 40
0.0
 40
0.0
 40
0.0
 40
0.0014448796
 40
0.0050250996
 40
0.0108705579
 40
0.0189954888
 40
0.0293956397
 40
0.0420502573
 40
0.074020115
 40
0.1146718505
 40
0.1636756676
 40
0.2206558113
 40
0.2851504952
 40
0.3566582026
 40
0.4346052029
 40
0.6073075391
 40
0.7977852047
 40
1.0
 40
1.0
 40
1.0
 40
1.0
 10
-9.5942440362
 20
-8.0
 30
0.0
 10
-9.5925212981
 20
-7.9999999998
 30
0.0
 10
-9.5899604589
 20
-7.9924194332
 30
0.0
 10
-9.5875346157
 20
-7.9814226756
 30
0.0
 10
-9.5845669832
 20
-7.9597483012
 30
0.0
 10
-9.5817212275
 20
-7.9312415627
 30
0.0
 10
-9.578774609
 20
-7.8940221567
 30
0.0
 10
-9.5745544029
 20
-7.8286253443
 30
0.0
 10
-9.5695774905
 20
-7.7270184981
 30
0.0
 10
-9.5640891629
 20
-7.582127488
 30
0.0
 10
-9.5587957229
 20
-7.4073642185
 30
0.0
 10
-9.5537501193
 20
-7.2041660372
 30
0.0
 10
-9.5490025014
 20
-6.9741194871
 30
0.0
 10
-9.5445996347
 20
-6.7190642741
 30
0.0
 10
-9.5390475564
 20
-6.3349942346
 30
0.0
 10
-9.5333770799
 20
-5.809064844
 30
0.0
 10
-9.5285973376
 20
-5.1349571883
 30
0.0
 10
-9.5268008809
 20
-4.6667503238
 30
0.0
 10
-9.526206285
 20
-4.4256492113
 30
0.0
 11
-9.5942440362
 21
-8.0
 31
0.0
 11
-9.5911676556
 21
-7.9958471309
 31
0.0
 11
-9.5881136459
 21
-7.9834104715
 31
0.0
 11
-9.5850803849
 21
-7.9627229424
 31
0.0
 11
-9.5820662507
 21
-7.9338174644
 31
0.0
 11
-9.5790712122
 21
-7.8967377504
 31
0.0
 11
-9.5761016126
 21
-7.8515707495
 31
0.0
 11
-9.5702704871
 21
-7.7373659899
 31
0.0
 11
-9.5646324121
 21
-7.5920674533
 31
0.0
 11
-9.5592309969
 21
-7.4168681108
 31
0.0
 11
-9.5541060403
 21
-7.2131193114
 31
0.0
 11
-9.5492980499
 21
-6.9824772894
 31
0.0
 11
-9.5448465906
 21
-6.7267388947
 31
0.0
 11
-9.5407867371
 21
-6.4479585049
 31
0.0
 11
-9.5339669806
 21
-5.8302542301
 31
0.0
 11
-9.5290549596
 21
-5.1489491386
 31
0.0
 11
-9.526206285
 21
-4.4256492113
 31
0.0
  0
SPLINE
  5
715
100
AcDbEntity
  8
0
100
AcDbSpline
 62
7
  6
CONTINUOUS
 70
0
 71
3
 72
11
 73
7
 74
5
 42
0.0000001
 43
0.0000001
 44
0.0000000001
 12
0.3888337222
 22
0.0
 32
0.0
 13
0.0000001923
 23
0.3888337222
 33
0.0
 40
0.0
 40
0.0
 40
0.0
 40
0.0
 40
0.2508636231
 40
0.5011610957
 40
0.7507777659
 40
1.0
 40
1.0
 40
1.0
 40
1.0
 10
-6.4999986725
 20
-1.8722803023
 30
0.0
 10
-6.4674839271
 20
-1.8722803023
 30
0.0
 10
-6.4018217323
 20
-1.859378861
 30
0.0
 10
-6.3187526913
 20
-1.8041748702
 30
0.0
 10
-6.2630246539
 20
-1.7216770566
 30
0.0
 10
-6.250000016
 20
-1.6563010467
 30
0.0
 10
-6.25
 20
-1.6239990438
 30
0.0
 11
-6.4999986725
 21
-1.8722803023
 31
0.0
 11
-6.4043062604
 21
-1.8533636349
 31
0.0
 11
-6.3232207199
 21
-1.7995387788
 31
0.0
 11
-6.2690257981
 21
-1.7190190078
 31
0.0
 11
-6.25
 21
-1.6239990438
 31
0.0
  0
SPLINE
  5
716
100
AcDbEntity
  8
0
100
AcDbSpline
 62
7
  6
CONTINUOUS
 70
0
 71
3
 72
11
 73
7
 74
5
 42
0.0000001
 43
0.0000001
 44
0.0000000001
 12
-0.0000413942
 22
-2.7203800238
 32
0.0
 13
-2.7203800241
 23
0.0
 33
0.0
 40
0.0
 40
0.0
 40
0.0
 40
0.0
 40
0.2491701825
 40
0.4987348785
 40
0.7490591392
 40
1.0
 40
1.0
 40
1.0
 40
1.0
 10
-4.2500000445
 20
-1.8482843952
 30
0.0
 10
-4.2500034825
 20
-2.0742302575
 30
0.0
 10
-4.3411947877
 20
-2.5315073619
 30
0.0
 10
-4.7312301457
 20
-3.1085703355
 30
0.0
 10
-5.3129839127
 20
-3.4940837537
 30
0.0
 10
-5.7724484984
 20
-3.5840259248
 30
0.0
 10
-6.0
 20
-3.5840259248
 30
0.0
 11
-4.2500000445
 21
-1.8482843952
 31
0.0
 11
-4.3831810654
 21
-2.5129095603
 31
0.0
 11
-4.762495409
 21
-3.0759730753
 31
0.0
 11
-5.3302317591
 21
-3.4520119993
 31
0.0
 11
-6.0
 21
-3.5840259248
 31
0.0
  0
SPLINE
  5
717
100
AcDbEntity
  8
0
100
AcDbSpline
 62
7
  6
CONTINUOUS
 70
0
 71
3
 72
13
 73
9
 74
7
 42
0.0000001
 43
0.0000001
 44
0.0000000001
 12
-0.0546570986
 22
-2.6915052407
 32
0.0
 13
-2.6920601515
 23
0.0
 33
0.0
 40
0.0
 40
0.0
 40
0.0
 40
0.0
 40
0.1248687908
 40
0.2497756345
 40
0.4987673682
 40
0.7484985
 40
0.8742157891
 40
1.0
 40
1.0
 40
1.0
 40
1.0
 10
-4.25040856
 20
-1.8482556387
 30
0.0
 10
-4.2526835486
 20
-1.9602839736
 30
0.0
 10
-4.2792277772
 20
-2.1846169267
 30
0.0
 10
-4.4178347134
 20
-2.6125637826
 30
0.0
 10
-4.7445159498
 20
-3.0856873236
 30
0.0
 10
-5.2274746024
 20
-3.3983941085
 30
0.0
 10
-5.6607409739
 20
-3.5271070075
 30
0.0
 10
-5.8871271127
 20
-3.5486793301
 30
0.0
 10
-6.0
 20
-3.5486793301
 30
0.0
 11
-4.25040856
 21
-1.8482556387
 31
0.0
 11
-4.2899375086
 21
-2.1820777063
 31
0.0
 11
-4.3936140039
 21
-2.5019523338
 31
0.0
 11
-4.7751552521
 21
-3.0530687797
 31
0.0
 11
-5.3385020659
 21
-3.4199691246
 31
0.0
 11
-5.6629288805
 21
-3.5163426852
 31
0.0
 11
-6.0
 21
-3.5486793301
 31
0.0
  0
SPLINE
  5
718
100
AcDbEntity
  8
0
100
AcDbSpline
 62
7
  6
CONTINUOUS
 70
0
 71
3
 72
11
 73
7
 74
5
 42
0.0000001
 43
0.0000001
 44
0.0000000001
 12
0.3633077783
 22
0.0
 32
0.0
 13
0.0384009393
 23
0.3612726251
 33
0.0
 40
0.0
 40
0.0
 40
0.0
 40
0.0
 40
0.2507605204
 40
0.501033274
 40
0.7506738573
 40
1.0
 40
1.0
 40
1.0
 40
1.0
 10
-6.5
 20
-1.8369263461
 30
0.0
 10
-6.4696322508
 20
-1.8369263461
 30
0.0
 10
-6.4083764845
 20
-1.825728406
 30
0.0
 10
-6.3290642518
 20
-1.7773899565
 30
0.0
 10
-6.2722403439
 20
-1.7041082594
 30
0.0
 10
-6.2545720449
 20
-1.644624125
 30
0.0
 10
-6.2513805922
 20
-1.6145992216
 30
0.0
 11
-6.5
 21
-1.8369263461
 31
0.0
 11
-6.4104007117
 21
-1.8204409206
 31
0.0
 11
-6.3327328183
 21
-1.7731625668
 31
0.0
 11
-6.2772664533
 21
-1.7014038524
 31
0.0
 11
-6.2513805922
 21
-1.6145992216
 31
0.0
  0
SPLINE
  5
719
100
AcDbEntity
  8
0
100
AcDbSpline
 62
7
  6
CONTINUOUS
 70
0
 71
3
 72
18
 73
14
 74
12
 42
0.0000001
 43
0.0000001
 44
0.0000000001
 12
0.0
 22
-1.6993172319
 32
0.0
 13
1.6990742343
 23
-0.0287367527
 33
0.0
 40
0.0
 40
0.0
 40
0.0
 40
0.0
 40
0.006098454
 40
0.0197137994
 40
0.0416098006
 40
0.0718463082
 40
0.1103121532
 40
0.1568561052
 40
0.2732585928
 40
0.4188544833
 40
0.5907912151
 40
0.7858233723
 40
1.0
 40
1.0
 40
1.0
 40
1.0
 10
2.2000193318
 20
-8.021792865
 30
0.0
 10
2.2000193318
 20
-8.0252472677
 30
0.0
 10
2.2122394877
 20
-8.0321683567
 30
0.0
 10
2.2330901718
 20
-8.037574644
 30
0.0
 10
2.2707362911
 20
-8.0449100235
 30
0.0
 10
2.3211756499
 20
-8.0515055714
 30
0.0
 10
2.3862715996
 20
-8.0583974636
 30
0.0
 10
2.4998808664
 20
-8.0679762924
 30
0.0
 10
2.6743756665
 20
-8.078927413
 30
0.0
 10
2.9198893652
 20
-8.0903842676
 30
0.0
 10
3.2100579369
 20
-8.1006343573
 30
0.0
 10
3.5391240972
 20
-8.1094366374
 30
0.0
 10
3.7708730611
 20
-8.1140250857
 30
0.0
 10
3.8921737243
 20
-8.1160766659
 30
0.0
 11
2.2000193318
 21
-8.021792865
 31
0.0
 11
2.2073558491
 21
-8.0291121269
 31
0.0
 11
2.2293138903
 21
-8.0364029102
 31
0.0
 11
2.2658149177
 21
-8.0436229539
 31
0.0
 11
2.316701952
 21
-8.0507335018
 31
0.0
 11
2.3816951917
 21
-8.0577012865
 31
0.0
 11
2.4604959436
 21
-8.0644935335
 31
0.0
 11
2.6578778024
 21
-8.077421105
 31
0.0
 11
2.9050079368
 21
-8.089261247
 31
0.0
 11
3.1969935197
 21
-8.0997816993
 31
0.0
 11
3.5282928197
 21
-8.1087810372
 31
0.0
 11
3.8921737243
 21
-8.1160766659
 31
0.0
  0
SPLINE
  5
71A
100
AcDbEntity
  8
0
100
AcDbSpline
 62
7
  6
CONTINUOUS
 70
0
 71
3
 72
9
 73
5
 74
3
 42
0.0000001
 43
0.0000001
 44
0.0000000001
 12
0.9376754736
 22
-0.368310433
 32
0.0
 13
0.9158745313
 23
-0.4195970825
 33
0.0
 40
0.0
 40
0.0
 40
0.0
 40
0.0
 40
0.5569534403
 40
1.0
 40
1.0
 40
1.0
 40
1.0
 10
-3.3573598538
 20
-7.4630366517
 30
0.0
 10
-3.1832793268
 20
-7.531413906
 30
0.0
 10
-2.8746884067
 20
-7.6643915482
 30
0.0
 10
-2.571694765
 20
-7.8091640988
 30
0.0
 10
-2.4364364116
 20
-7.8711311134
 30
0.0
 11
-3.3573598538
 21
-7.4630366517
 31
0.0
 11
-2.8412740374
 21
-7.6831973634
 31
0.0
 11
-2.4364364116
 21
-7.8711311134
 31
0.0
  0
SPLINE
  5
71B
100
AcDbEntity
  8
0
100
AcDbSpline
 62
7
  6
CONTINUOUS
 70
0
 71
3
 72
9
 73
5
 74
3
 42
0.0000001
 43
0.0000001
 44
0.0000000001
 12
0.278233613
 22
-0.1274694386
 32
0.0
 13
0.2955208649
 23
-0.0795601634
 33
0.0
 40
0.0
 40
0.0
 40
0.0
 40
0.0
 40
0.5605204546
 40
1.0
 40
1.0
 40
1.0
 40
1.0
 10
-2.4364364116
 20
-7.8711311134
 30
0.0
 10
-2.3844512012
 20
-7.8949475226
 30
0.0
 10
-2.2913898642
 20
-7.9366438617
 30
0.0
 10
-2.1954393098
 20
-7.9721845532
 30
0.0
 10
-2.152147518
 20
-7.9838395747
 30
0.0
 11
-2.4364364116
 21
-7.8711311134
 31
0.0
 11
-2.2792178918
 21
-7.9397568236
 31
0.0
 11
-2.152147518
 21
-7.9838395747
 31
0.0
  0
SPLINE
  5
71C
100
AcDbEntity
  8
0
100
AcDbSpline
 62
7
  6
CONTINUOUS
 70
0
 71
3
 72
11
 73
7
 74
5
 42
0.0000001
 43
0.0000001
 44
0.0000000001
 12
-2.720384482
 22
0.0
 32
0.0
 13
0.0000273584
 23
2.7203844819
 33
0.0
 40
0.0
 40
0.0
 40
0.0
 40
0.0
 40
0.2509358018
 40
0.501257906
 40
0.7508251456
 40
1.0
 40
1.0
 40
1.0
 40
1.0
 10
-6.0
 20
-3.5840259235
 30
0.0
 10
-6.2275472871
 20
-3.5840259235
 30
0.0
 10
-6.687005574
 20
-3.4940870338
 30
0.0
 10
-7.2687612603
 20
-3.1085807736
 30
0.0
 10
-7.6587993607
 20
-2.5315144698
 30
0.0
 10
-7.7500022581
 20
-2.0742300876
 30
0.0
 10
-7.7499999857
 20
-1.8482796185
 30
0.0
 11
-6.0
 21
-3.5840259235
 31
0.0
 11
-6.6697563771
 21
-3.4520171889
 31
0.0
 11
-7.2374920278
 21
-3.0759858116
 31
0.0
 11
-7.6168142794
 21
-2.5129179397
 31
0.0
 11
-7.7499999857
 21
-1.8482796185
 31
0.0
  0
SPLINE
  5
71D
100
AcDbEntity
  8
0
100
AcDbSpline
 62
7
  6
CONTINUOUS
 70
0
 71
3
 72
11
 73
7
 74
5
 42
0.0000001
 43
0.0000001
 44
0.0000000001
 12
-2.6856880816
 22
0.0
 32
0.0
 13
-0.0556377134
 23
2.685111714
 33
0.0
 40
0.0
 40
0.0
 40
0.0
 40
0.0
 40
0.2509253068
 40
0.5012412241
 40
0.7508239046
 40
1.0
 40
1.0
 40
1.0
 40
1.0
 10
-6.0
 20
-3.5486793301
 30
0.0
 10
-6.2246357019
 20
-3.5486793301
 30
0.0
 10
-6.6780554408
 20
-3.460941136
 30
0.0
 10
-7.2549866865
 20
-3.0851544371
 30
0.0
 10
-7.6469909678
 20
-2.520683489
 30
0.0
 10
-7.7449557566
 20
-2.0712675617
 30
0.0
 10
-7.7495769526
 20
-1.8482456775
 30
0.0
 11
-6.0
 21
-3.5486793301
 31
0.0
 11
-6.6614983641
 21
-3.4199520934
 31
0.0
 11
-7.2248314588
 21
-3.0530687098
 31
0.0
 11
-7.6063760916
 21
-2.5019539917
 31
0.0
 11
-7.7495769526
 21
-1.8482456775
 31
0.0
  0
LINE
  5
71E
100
AcDbEntity
  8
RACCORDO
100
AcDbLine
 62
253
  6
CONTINUOUS
 10
-20.9261825974
 20
-18.029762091
 11
-20.9
 21
-18.1006347748
  0
LINE
  5
71F
100
AcDbEntity
  8
RACCORDO
100
AcDbLine
 62
253
  6
CONTINUOUS
 10
-20.9261825974
 20
18.029762091
 11
-20.9
 21
18.1006347748
  0
LINE
  5
720
100
AcDbEntity
  8
RACCORDO
100
AcDbLine
 62
253
  6
CONTINUOUS
 10
20.9261825974
 20
-18.029762091
 11
20.9
 21
-18.1006347748
  0
LINE
  5
721
100
AcDbEntity
  8
RACCORDO
100
AcDbLine
 62
253
  6
CONTINUOUS
 10
20.9261825974
 20
18.029762091
 11
20.9
 21
18.1006347748
  0
SPLINE
  5
722
100
AcDbEntity
  8
RACCORDO
100
AcDbSpline
 62
7
  6
CONTINUOUS
 70
0
 71
3
 72
12
 73
8
 74
6
 42
0.0000001
 43
0.0000001
 44
0.0000000001
 12
0.3792529965
 22
-0.0023448087
 32
0.0
 13
0.3379278376
 23
-0.1721717459
 33
0.0
 40
0.0
 40
0.0
 40
0.0
 40
0.0
 40
0.4116430515
 40
0.7257913016
 40
0.8405032118
 40
0.9251688882
 40
1.0
 40
1.0
 40
1.0
 40
1.0
 10
19.214124165
 20
-0.3185420575
 30
0.0
 10
19.2661631186
 20
-0.3188637989
 30
0.0
 10
19.3580076275
 20
-0.3192599449
 30
0.0
 10
19.4639872471
 20
-0.3213646635
 30
0.0
 10
19.5292718513
 20
-0.3213555965
 30
0.0
 10
19.5632156397
 20
-0.3245446078
 30
0.0
 10
19.584862885
 20
-0.3205172616
 30
0.0
 10
19.5932920569
 20
-0.3248118626
 30
0.0
 11
19.214124165
 21
-0.3185420575
 31
0.0
 11
19.3702391776
 21
-0.3197703629
 31
0.0
 11
19.4893735077
 21
-0.321283766
 31
0.0
 11
19.5328710642
 21
-0.322123797
 31
0.0
 11
19.5649693923
 21
-0.3230014729
 31
0.0
 11
19.5932920569
 21
-0.3248118626
 31
0.0
  0
SPLINE
  5
723
100
AcDbEntity
  8
RACCORDO
100
AcDbSpline
 62
7
  6
CONTINUOUS
 70
0
 71
3
 72
12
 73
8
 74
6
 42
0.0000001
 43
0.0000001
 44
0.0000000001
 12
-0.3379278416
 22
-0.1721717518
 32
0.0
 13
-0.3792530028
 23
-0.0023448087
 33
0.0
 40
0.0
 40
0.0
 40
0.0
 40
0.0
 40
0.0748311118
 40
0.1594967882
 40
0.2742086985
 40
0.5883569488
 40
1.0
 40
1.0
 40
1.0
 40
1.0
 10
19.5932920569
 20
0.3248118626
 30
0.0
 10
19.5848628849
 20
0.3205172614
 30
0.0
 10
19.5632156392
 20
0.3245446079
 30
0.0
 10
19.5292718502
 20
0.3213555965
 30
0.0
 10
19.4639872449
 20
0.3213646635
 30
0.0
 10
19.3580076236
 20
0.3192599448
 30
0.0
 10
19.2661631132
 20
0.3188637988
 30
0.0
 10
19.2141241588
 20
0.3185420574
 30
0.0
 11
19.5932920569
 21
0.3248118626
 31
0.0
 11
19.5649693919
 21
0.3230014729
 31
0.0
 11
19.5328710632
 21
0.3221237969
 31
0.0
 11
19.4893735059
 21
0.321283766
 31
0.0
 11
19.3702391738
 21
0.3197703628
 31
0.0
 11
19.2141241588
 21
0.3185420574
 31
0.0
  0
SPLINE
  5
724
100
AcDbEntity
  8
RACCORDO
100
AcDbSpline
 62
7
  6
CONTINUOUS
 70
0
 71
3
 72
12
 73
8
 74
6
 42
0.0000001
 43
0.0000001
 44
0.0000000001
 12
0.3379270032
 22
0.1721713247
 32
0.0
 13
0.3792520618
 23
0.0023448093
 33
0.0
 40
0.0
 40
0.0
 40
0.0
 40
0.0
 40
0.074831108
 40
0.1594967742
 40
0.2742086712
 40
0.5883569055
 40
1.0
 40
1.0
 40
1.0
 40
1.0
 10
-19.5932920569
 20
-0.3248118626
 30
0.0
 10
-19.5848629062
 20
-0.3205172723
 30
0.0
 10
-19.5632157163
 20
-0.3245446055
 30
0.0
 10
-19.5292720149
 20
-0.3213556021
 30
0.0
 10
-19.4639875766
 20
-0.3213646668
 30
0.0
 10
-19.3580082165
 20
-0.3192599515
 30
0.0
 10
-19.2661639305
 20
-0.3188638048
 30
0.0
 10
-19.2141250998
 20
-0.3185420632
 30
0.0
 11
-19.5932920569
 21
-0.3248118626
 31
0.0
 11
-19.5649694637
 21
-0.3230014753
 31
0.0
 11
-19.5328712186
 21
-0.3221238005
 31
0.0
 11
-19.4893737743
 21
-0.3212837704
 31
0.0
 11
-19.3702397438
 21
-0.3197703685
 31
0.0
 11
-19.2141250998
 21
-0.3185420632
 31
0.0
  0
SPLINE
  5
725
100
AcDbEntity
  8
RACCORDO
100
AcDbSpline
 62
7
  6
CONTINUOUS
 70
0
 71
3
 72
12
 73
8
 74
6
 42
0.0000001
 43
0.0000001
 44
0.0000000001
 12
-0.3792520253
 22
0.0023448094
 32
0.0
 13
-0.3379269722
 23
0.172171305
 33
0.0
 40
0.0
 40
0.0
 40
0.0
 40
0.0
 40
0.4116430962
 40
0.7257913299
 40
0.8405032263
 40
0.9251688921
 40
1.0
 40
1.0
 40
1.0
 40
1.0
 10
-19.2141251363
 20
0.3185420635
 30
0.0
 10
-19.2661639623
 20
0.318863805
 30
0.0
 10
-19.3580082395
 20
0.3192599517
 30
0.0
 10
-19.4639875895
 20
0.3213646669
 30
0.0
 10
-19.5292720212
 20
0.3213556023
 30
0.0
 10
-19.5632157193
 20
0.3245446054
 30
0.0
 10
-19.584862907
 20
0.3205172728
 30
0.0
 10
-19.5932920569
 20
0.3248118626
 30
0.0
 11
-19.2141251363
 21
0.3185420635
 31
0.0
 11
-19.370239766
 21
0.3197703687
 31
0.0
 11
-19.4893737847
 21
0.3212837706
 31
0.0
 11
-19.5328712246
 21
0.3221238006
 31
0.0
 11
-19.5649694665
 21
0.3230014754
 31
0.0
 11
-19.5932920569
 21
0.3248118626
 31
0.0
  0
SPLINE
  5
726
100
AcDbEntity
  8
RACCORDO
100
AcDbSpline
 62
7
  6
CONTINUOUS
 70
0
 71
3
 72
9
 73
5
 74
3
 42
0.0000001
 43
0.0000001
 44
0.0000000001
 12
-0.1789512959
 22
0.0098242942
 32
0.0
 13
-0.1603023681
 23
0.0801450799
 33
0.0
 40
0.0
 40
0.0
 40
0.0
 40
0.0
 40
0.7376375379
 40
1.0
 40
1.0
 40
1.0
 40
1.0
 10
-3.7273243011
 20
-19.9417594606
 30
0.0
 10
-3.7713246989
 20
-19.9393438712
 30
0.0
 10
-3.8310615905
 20
-19.927273675
 30
0.0
 10
-3.885980892
 20
-19.9035829901
 30
0.0
 10
-3.9
 20
-19.8965739699
 30
0.0
 11
-3.7273243011
 21
-19.9417594606
 31
0.0
 11
-3.8568317514
 21
-19.9152141975
 31
0.0
 11
-3.9
 21
-19.8965739699
 31
0.0
  0
SPLINE
  5
727
100
AcDbEntity
  8
RACCORDO
100
AcDbSpline
 62
7
  6
CONTINUOUS
 70
0
 71
3
 72
9
 73
5
 74
3
 42
0.0000001
 43
0.0000001
 44
0.0000000001
 12
0.1603023679
 22
0.0801450798
 32
0.0
 13
0.1789512956
 23
0.0098242942
 33
0.0
 40
0.0
 40
0.0
 40
0.0
 40
0.0
 40
0.26236246
 40
1.0
 40
1.0
 40
1.0
 40
1.0
 10
-3.9
 20
-19.3034260301
 30
0.0
 10
-3.8859808921
 20
-19.29641701
 30
0.0
 10
-3.8310615896
 20
-19.2727263277
 30
0.0
 10
-3.7713246989
 20
-19.2606561288
 30
0.0
 10
-3.7273243011
 20
-19.2582405394
 30
0.0
 11
-3.9
 21
-19.3034260301
 31
0.0
 11
-3.8568317514
 21
-19.2847858037
 31
0.0
 11
-3.7273243011
 21
-19.2582405394
 31
0.0
  0
SPLINE
  5
728
100
AcDbEntity
  8
RACCORDO
100
AcDbSpline
 62
7
  6
CONTINUOUS
 70
0
 71
3
 72
9
 73
5
 74
3
 42
0.0000001
 43
0.0000001
 44
0.0000000001
 12
0.1789512959
 22
-0.0098242942
 32
0.0
 13
0.1603023681
 23
-0.0801450799
 33
0.0
 40
0.0
 40
0.0
 40
0.0
 40
0.0
 40
0.7376375379
 40
1.0
 40
1.0
 40
1.0
 40
1.0
 10
3.7273243011
 20
-19.2582405394
 30
0.0
 10
3.7713246989
 20
-19.2606561288
 30
0.0
 10
3.8310615905
 20
-19.272726325
 30
0.0
 10
3.885980892
 20
-19.2964170099
 30
0.0
 10
3.9
 20
-19.3034260301
 30
0.0
 11
3.7273243011
 21
-19.2582405394
 31
0.0
 11
3.8568317514
 21
-19.2847858025
 31
0.0
 11
3.9
 21
-19.3034260301
 31
0.0
  0
SPLINE
  5
729
100
AcDbEntity
  8
RACCORDO
100
AcDbSpline
 62
7
  6
CONTINUOUS
 70
0
 71
3
 72
9
 73
5
 74
3
 42
0.0000001
 43
0.0000001
 44
0.0000000001
 12
-0.1603023679
 22
-0.0801450798
 32
0.0
 13
-0.1789512956
 23
-0.0098242942
 33
0.0
 40
0.0
 40
0.0
 40
0.0
 40
0.0
 40
0.2623624598
 40
1.0
 40
1.0
 40
1.0
 40
1.0
 10
3.9
 20
-19.8965739699
 30
0.0
 10
3.8859808921
 20
-19.90358299
 30
0.0
 10
3.8310615896
 20
-19.9272736721
 30
0.0
 10
3.7713246989
 20
-19.9393438712
 30
0.0
 10
3.7273243011
 20
-19.9417594606
 30
0.0
 11
3.9
 21
-19.8965739699
 31
0.0
 11
3.8568317514
 21
-19.9152141962
 31
0.0
 11
3.7273243011
 21
-19.9417594606
 31
0.0
  0
SPLINE
  5
72A
100
AcDbEntity
  8
RACCORDO
100
AcDbSpline
 62
7
  6
CONTINUOUS
 70
0
 71
3
 72
9
 73
5
 74
3
 42
0.0000001
 43
0.0000001
 44
0.0000000001
 12
0.1789512958
 22
-0.0098242942
 32
0.0
 13
0.1603023681
 23
-0.0801450799
 33
0.0
 40
0.0
 40
0.0
 40
0.0
 40
0.0
 40
0.7376375382
 40
1.0
 40
1.0
 40
1.0
 40
1.0
 10
3.7273243011
 20
19.9417594606
 30
0.0
 10
3.7713246989
 20
19.9393438712
 30
0.0
 10
3.8310615904
 20
19.9272736747
 30
0.0
 10
3.885980892
 20
19.90358299
 30
0.0
 10
3.9
 20
19.8965739699
 30
0.0
 11
3.7273243011
 21
19.9417594606
 31
0.0
 11
3.8568317514
 21
19.9152141974
 31
0.0
 11
3.9
 21
19.8965739699
 31
0.0
  0
SPLINE
  5
72B
100
AcDbEntity
  8
RACCORDO
100
AcDbSpline
 62
7
  6
CONTINUOUS
 70
0
 71
3
 72
9
 73
5
 74
3
 42
0.0000001
 43
0.0000001
 44
0.0000000001
 12
-0.1603023679
 22
-0.0801450798
 32
0.0
 13
-0.1789512956
 23
-0.0098242942
 33
0.0
 40
0.0
 40
0.0
 40
0.0
 40
0.0
 40
0.2623624597
 40
1.0
 40
1.0
 40
1.0
 40
1.0
 10
3.9
 20
19.3034260301
 30
0.0
 10
3.8859808922
 20
19.29641701
 30
0.0
 10
3.8310615895
 20
19.2727263281
 30
0.0
 10
3.7713246989
 20
19.2606561288
 30
0.0
 10
3.7273243011
 20
19.2582405394
 30
0.0
 11
3.9
 21
19.3034260301
 31
0.0
 11
3.8568317514
 21
19.2847858038
 31
0.0
 11
3.7273243011
 21
19.2582405394
 31
0.0
  0
SPLINE
  5
72C
100
AcDbEntity
  8
RACCORDO
100
AcDbSpline
 62
7
  6
CONTINUOUS
 70
0
 71
3
 72
9
 73
5
 74
3
 42
0.0000001
 43
0.0000001
 44
0.0000000001
 12
-0.1789512958
 22
0.0098242942
 32
0.0
 13
-0.160302368
 23
0.0801450798
 33
0.0
 40
0.0
 40
0.0
 40
0.0
 40
0.0
 40
0.7376375386
 40
1.0
 40
1.0
 40
1.0
 40
1.0
 10
-3.7273243011
 20
19.2582405394
 30
0.0
 10
-3.7713246989
 20
19.2606561288
 30
0.0
 10
-3.8310615902
 20
19.2727263258
 30
0.0
 10
-3.8859808921
 20
19.29641701
 30
0.0
 10
-3.9
 20
19.3034260301
 30
0.0
 11
-3.7273243011
 21
19.2582405394
 31
0.0
 11
-3.8568317514
 21
19.2847858029
 31
0.0
 11
-3.9
 21
19.3034260301
 31
0.0
  0
SPLINE
  5
72D
100
AcDbEntity
  8
RACCORDO
100
AcDbSpline
 62
7
  6
CONTINUOUS
 70
0
 71
3
 72
9
 73
5
 74
3
 42
0.0000001
 43
0.0000001
 44
0.0000000001
 12
0.160302368
 22
0.0801450798
 32
0.0
 13
0.1789512957
 23
0.0098242942
 33
0.0
 40
0.0
 40
0.0
 40
0.0
 40
0.0
 40
0.2623624606
 40
1.0
 40
1.0
 40
1.0
 40
1.0
 10
-3.9
 20
19.8965739699
 30
0.0
 10
-3.8859808921
 20
19.90358299
 30
0.0
 10
-3.8310615899
 20
19.9272736731
 30
0.0
 10
-3.7713246989
 20
19.9393438712
 30
0.0
 10
-3.7273243011
 20
19.9417594606
 30
0.0
 11
-3.9
 21
19.8965739699
 31
0.0
 11
-3.8568317514
 21
19.9152141967
 31
0.0
 11
-3.7273243011
 21
19.9417594606
 31
0.0
  0
LINE
  5
72E
100
AcDbEntity
  8
RACCORDO
100
AcDbLine
 62
253
  6
CONTINUOUS
 10
21.2782587846
 20
18.1595749722
 11
21.2517445951
 21
18.2308351883
  0
LINE
  5
72F
100
AcDbEntity
  8
RACCORDO
100
AcDbLine
 62
253
  6
CONTINUOUS
 10
21.2782587846
 20
-18.1595749722
 11
21.2517445951
 21
-18.2308351883
  0
LINE
  5
730
100
AcDbEntity
  8
RACCORDO
100
AcDbLine
 62
253
  6
CONTINUOUS
 10
-21.2782587846
 20
-18.1595749722
 11
-21.2517445951
 21
-18.2308351883
  0
LINE
  5
731
100
AcDbEntity
  8
RACCORDO
100
AcDbLine
 62
253
  6
CONTINUOUS
 10
-21.2782587846
 20
18.1595749722
 11
-21.2517445951
 21
18.2308351883
  0
SPLINE
  5
732
100
AcDbEntity
  8
RACCORDO
100
AcDbSpline
 62
7
  6
CONTINUOUS
 70
0
 71
3
 72
8
 73
4
 74
2
 42
0.0000001
 43
0.0000001
 44
0.0000000001
 12
0.3930144886
 22
0.5105176395
 32
0.0
 13
-0.0
 23
0.6442737373
 33
0.0
 40
0.0
 40
0.0
 40
0.0
 40
0.0
 40
1.0
 40
1.0
 40
1.0
 40
1.0
 10
22.1662414635
 20
-17.0643546451
 30
0.0
 10
22.2972462931
 20
-16.8941820986
 30
0.0
 10
22.3738174026
 20
-16.6691938105
 30
0.0
 10
22.3738174026
 20
-16.4544358981
 30
0.0
 11
22.1662414635
 21
-17.0643546451
 31
0.0
 11
22.3738174026
 21
-16.4544358981
 31
0.0
  0
SPLINE
  5
733
100
AcDbEntity
  8
RACCORDO
100
AcDbSpline
 62
7
  6
CONTINUOUS
 70
0
 71
3
 72
8
 73
4
 74
2
 42
0.0000001
 43
0.0000001
 44
0.0000000001
 12
0.0
 22
0.6442737373
 32
0.0
 13
-0.3930144886
 23
0.5105176395
 33
0.0
 40
0.0
 40
0.0
 40
0.0
 40
0.0
 40
1.0
 40
1.0
 40
1.0
 40
1.0
 10
22.3738174026
 20
16.4544358981
 30
0.0
 10
22.3738174026
 20
16.6691938105
 30
0.0
 10
22.2972462931
 20
16.8941820986
 30
0.0
 10
22.1662414635
 20
17.0643546451
 30
0.0
 11
22.3738174026
 21
16.4544358981
 31
0.0
 11
22.1662414635
 21
17.0643546451
 31
0.0
  0
SPLINE
  5
734
100
AcDbEntity
  8
RACCORDO
100
AcDbSpline
 62
7
  6
CONTINUOUS
 70
0
 71
3
 72
8
 73
4
 74
2
 42
0.0000001
 43
0.0000001
 44
0.0000000001
 12
-0.3930144886
 22
-0.5105176395
 32
0.0
 13
0.0
 23
-0.6442737373
 33
0.0
 40
0.0
 40
0.0
 40
0.0
 40
0.0
 40
1.0
 40
1.0
 40
1.0
 40
1.0
 10
-22.1662414635
 20
17.0643546451
 30
0.0
 10
-22.2972462931
 20
16.8941820986
 30
0.0
 10
-22.3738174026
 20
16.6691938105
 30
0.0
 10
-22.3738174026
 20
16.4544358981
 30
0.0
 11
-22.1662414635
 21
17.0643546451
 31
0.0
 11
-22.3738174026
 21
16.4544358981
 31
0.0
  0
SPLINE
  5
735
100
AcDbEntity
  8
RACCORDO
100
AcDbSpline
 62
7
  6
CONTINUOUS
 70
0
 71
3
 72
8
 73
4
 74
2
 42
0.0000001
 43
0.0000001
 44
0.0000000001
 12
-0.0
 22
-0.6442737373
 32
0.0
 13
0.3930144886
 23
-0.5105176395
 33
0.0
 40
0.0
 40
0.0
 40
0.0
 40
0.0
 40
1.0
 40
1.0
 40
1.0
 40
1.0
 10
-22.3738174026
 20
-16.4544358981
 30
0.0
 10
-22.3738174026
 20
-16.6691938105
 30
0.0
 10
-22.2972462931
 20
-16.8941820986
 30
0.0
 10
-22.1662414635
 20
-17.0643546451
 30
0.0
 11
-22.3738174026
 21
-16.4544358981
 31
0.0
 11
-22.1662414635
 21
-17.0643546451
 31
0.0
  0
LINE
  5
736
100
AcDbEntity
  8
ASSI
100
AcDbLine
 62
253
  6
CONTINUOUS
 10
-20.9261825974
 20
-18.029762091
 11
-20.9
 21
-18.1006347748
  0
LINE
  5
737
100
AcDbEntity
  8
ASSI
100
AcDbLine
 62
253
  6
CONTINUOUS
 10
-20.9261825974
 20
18.029762091
 11
-20.9
 21
18.1006347748
  0
SPLINE
  5
738
100
AcDbEntity
  8
ASSI
100
AcDbSpline
 62
7
  6
CONTINUOUS
 70
0
 71
3
 72
9
 73
5
 74
3
 42
0.0000001
 43
0.0000001
 44
0.0000000001
 12
-0.1789512959
 22
0.0098242942
 32
0.0
 13
-0.1603023681
 23
0.0801450799
 33
0.0
 40
0.0
 40
0.0
 40
0.0
 40
0.0
 40
0.7376375379
 40
1.0
 40
1.0
 40
1.0
 40
1.0
 10
-3.7273243011
 20
-19.9417594606
 30
0.0
 10
-3.7713246989
 20
-19.9393438712
 30
0.0
 10
-3.8310615905
 20
-19.927273675
 30
0.0
 10
-3.885980892
 20
-19.9035829901
 30
0.0
 10
-3.9
 20
-19.8965739699
 30
0.0
 11
-3.7273243011
 21
-19.9417594606
 31
0.0
 11
-3.8568317514
 21
-19.9152141975
 31
0.0
 11
-3.9
 21
-19.8965739699
 31
0.0
  0
SPLINE
  5
739
100
AcDbEntity
  8
ASSI
100
AcDbSpline
 62
7
  6
CONTINUOUS
 70
0
 71
3
 72
9
 73
5
 74
3
 42
0.0000001
 43
0.0000001
 44
0.0000000001
 12
0.1603023679
 22
0.0801450798
 32
0.0
 13
0.1789512956
 23
0.0098242942
 33
0.0
 40
0.0
 40
0.0
 40
0.0
 40
0.0
 40
0.26236246
 40
1.0
 40
1.0
 40
1.0
 40
1.0
 10
-3.9
 20
-19.3034260301
 30
0.0
 10
-3.8859808921
 20
-19.29641701
 30
0.0
 10
-3.8310615896
 20
-19.2727263277
 30
0.0
 10
-3.7713246989
 20
-19.2606561288
 30
0.0
 10
-3.7273243011
 20
-19.2582405394
 30
0.0
 11
-3.9
 21
-19.3034260301
 31
0.0
 11
-3.8568317514
 21
-19.2847858037
 31
0.0
 11
-3.7273243011
 21
-19.2582405394
 31
0.0
  0
SPLINE
  5
73A
100
AcDbEntity
  8
ASSI
100
AcDbSpline
 62
7
  6
CONTINUOUS
 70
0
 71
3
 72
9
 73
5
 74
3
 42
0.0000001
 43
0.0000001
 44
0.0000000001
 12
0.1789512959
 22
-0.0098242942
 32
0.0
 13
0.1603023681
 23
-0.0801450799
 33
0.0
 40
0.0
 40
0.0
 40
0.0
 40
0.0
 40
0.7376375379
 40
1.0
 40
1.0
 40
1.0
 40
1.0
 10
3.7273243011
 20
-19.2582405394
 30
0.0
 10
3.7713246989
 20
-19.2606561288
 30
0.0
 10
3.8310615905
 20
-19.272726325
 30
0.0
 10
3.885980892
 20
-19.2964170099
 30
0.0
 10
3.9
 20
-19.3034260301
 30
0.0
 11
3.7273243011
 21
-19.2582405394
 31
0.0
 11
3.8568317514
 21
-19.2847858025
 31
0.0
 11
3.9
 21
-19.3034260301
 31
0.0
  0
SPLINE
  5
73B
100
AcDbEntity
  8
ASSI
100
AcDbSpline
 62
7
  6
CONTINUOUS
 70
0
 71
3
 72
9
 73
5
 74
3
 42
0.0000001
 43
0.0000001
 44
0.0000000001
 12
-0.1603023679
 22
-0.0801450798
 32
0.0
 13
-0.1789512956
 23
-0.0098242942
 33
0.0
 40
0.0
 40
0.0
 40
0.0
 40
0.0
 40
0.2623624598
 40
1.0
 40
1.0
 40
1.0
 40
1.0
 10
3.9
 20
-19.8965739699
 30
0.0
 10
3.8859808921
 20
-19.90358299
 30
0.0
 10
3.8310615896
 20
-19.9272736721
 30
0.0
 10
3.7713246989
 20
-19.9393438712
 30
0.0
 10
3.7273243011
 20
-19.9417594606
 30
0.0
 11
3.9
 21
-19.8965739699
 31
0.0
 11
3.8568317514
 21
-19.9152141962
 31
0.0
 11
3.7273243011
 21
-19.9417594606
 31
0.0
  0
SPLINE
  5
73C
100
AcDbEntity
  8
ASSI
100
AcDbSpline
 62
7
  6
CONTINUOUS
 70
0
 71
3
 72
9
 73
5
 74
3
 42
0.0000001
 43
0.0000001
 44
0.0000000001
 12
0.1789512958
 22
-0.0098242942
 32
0.0
 13
0.1603023681
 23
-0.0801450799
 33
0.0
 40
0.0
 40
0.0
 40
0.0
 40
0.0
 40
0.7376375382
 40
1.0
 40
1.0
 40
1.0
 40
1.0
 10
3.7273243011
 20
19.9417594606
 30
0.0
 10
3.7713246989
 20
19.9393438712
 30
0.0
 10
3.8310615904
 20
19.9272736747
 30
0.0
 10
3.885980892
 20
19.90358299
 30
0.0
 10
3.9
 20
19.8965739699
 30
0.0
 11
3.7273243011
 21
19.9417594606
 31
0.0
 11
3.8568317514
 21
19.9152141974
 31
0.0
 11
3.9
 21
19.8965739699
 31
0.0
  0
SPLINE
  5
73D
100
AcDbEntity
  8
ASSI
100
AcDbSpline
 62
7
  6
CONTINUOUS
 70
0
 71
3
 72
9
 73
5
 74
3
 42
0.0000001
 43
0.0000001
 44
0.0000000001
 12
-0.1603023679
 22
-0.0801450798
 32
0.0
 13
-0.1789512956
 23
-0.0098242942
 33
0.0
 40
0.0
 40
0.0
 40
0.0
 40
0.0
 40
0.2623624597
 40
1.0
 40
1.0
 40
1.0
 40
1.0
 10
3.9
 20
19.3034260301
 30
0.0
 10
3.8859808922
 20
19.29641701
 30
0.0
 10
3.8310615895
 20
19.2727263281
 30
0.0
 10
3.7713246989
 20
19.2606561288
 30
0.0
 10
3.7273243011
 20
19.2582405394
 30
0.0
 11
3.9
 21
19.3034260301
 31
0.0
 11
3.8568317514
 21
19.2847858038
 31
0.0
 11
3.7273243011
 21
19.2582405394
 31
0.0
  0
SPLINE
  5
73E
100
AcDbEntity
  8
ASSI
100
AcDbSpline
 62
7
  6
CONTINUOUS
 70
0
 71
3
 72
9
 73
5
 74
3
 42
0.0000001
 43
0.0000001
 44
0.0000000001
 12
-0.1789512958
 22
0.0098242942
 32
0.0
 13
-0.160302368
 23
0.0801450798
 33
0.0
 40
0.0
 40
0.0
 40
0.0
 40
0.0
 40
0.7376375386
 40
1.0
 40
1.0
 40
1.0
 40
1.0
 10
-3.7273243011
 20
19.2582405394
 30
0.0
 10
-3.7713246989
 20
19.2606561288
 30
0.0
 10
-3.8310615902
 20
19.2727263258
 30
0.0
 10
-3.8859808921
 20
19.29641701
 30
0.0
 10
-3.9
 20
19.3034260301
 30
0.0
 11
-3.7273243011
 21
19.2582405394
 31
0.0
 11
-3.8568317514
 21
19.2847858029
 31
0.0
 11
-3.9
 21
19.3034260301
 31
0.0
  0
SPLINE
  5
73F
100
AcDbEntity
  8
ASSI
100
AcDbSpline
 62
7
  6
CONTINUOUS
 70
0
 71
3
 72
9
 73
5
 74
3
 42
0.0000001
 43
0.0000001
 44
0.0000000001
 12
0.160302368
 22
0.0801450798
 32
0.0
 13
0.1789512957
 23
0.0098242942
 33
0.0
 40
0.0
 40
0.0
 40
0.0
 40
0.0
 40
0.2623624606
 40
1.0
 40
1.0
 40
1.0
 40
1.0
 10
-3.9
 20
19.8965739699
 30
0.0
 10
-3.8859808921
 20
19.90358299
 30
0.0
 10
-3.8310615899
 20
19.9272736731
 30
0.0
 10
-3.7713246989
 20
19.9393438712
 30
0.0
 10
-3.7273243011
 20
19.9417594606
 30
0.0
 11
-3.9
 21
19.8965739699
 31
0.0
 11
-3.8568317514
 21
19.9152141967
 31
0.0
 11
-3.7273243011
 21
19.9417594606
 31
0.0
  0
SPLINE
  5
740
100
AcDbEntity
  8
ASSI
100
AcDbSpline
 62
7
  6
CONTINUOUS
 70
0
 71
3
 72
12
 73
8
 74
6
 42
0.0000001
 43
0.0000001
 44
0.0000000001
 12
0.3792529965
 22
-0.0023448087
 32
0.0
 13
0.3379278376
 23
-0.1721717459
 33
0.0
 40
0.0
 40
0.0
 40
0.0
 40
0.0
 40
0.4116430515
 40
0.7257913016
 40
0.8405032118
 40
0.9251688882
 40
1.0
 40
1.0
 40
1.0
 40
1.0
 10
19.214124165
 20
-0.3185420575
 30
0.0
 10
19.2661631186
 20
-0.3188637989
 30
0.0
 10
19.3580076275
 20
-0.3192599449
 30
0.0
 10
19.4639872471
 20
-0.3213646635
 30
0.0
 10
19.5292718513
 20
-0.3213555965
 30
0.0
 10
19.5632156397
 20
-0.3245446078
 30
0.0
 10
19.584862885
 20
-0.3205172616
 30
0.0
 10
19.5932920569
 20
-0.3248118626
 30
0.0
 11
19.214124165
 21
-0.3185420575
 31
0.0
 11
19.3702391776
 21
-0.3197703629
 31
0.0
 11
19.4893735077
 21
-0.321283766
 31
0.0
 11
19.5328710642
 21
-0.322123797
 31
0.0
 11
19.5649693923
 21
-0.3230014729
 31
0.0
 11
19.5932920569
 21
-0.3248118626
 31
0.0
  0
SPLINE
  5
741
100
AcDbEntity
  8
ASSI
100
AcDbSpline
 62
7
  6
CONTINUOUS
 70
0
 71
3
 72
12
 73
8
 74
6
 42
0.0000001
 43
0.0000001
 44
0.0000000001
 12
-0.3379278416
 22
-0.1721717518
 32
0.0
 13
-0.3792530028
 23
-0.0023448087
 33
0.0
 40
0.0
 40
0.0
 40
0.0
 40
0.0
 40
0.0748311118
 40
0.1594967882
 40
0.2742086985
 40
0.5883569488
 40
1.0
 40
1.0
 40
1.0
 40
1.0
 10
19.5932920569
 20
0.3248118626
 30
0.0
 10
19.5848628849
 20
0.3205172614
 30
0.0
 10
19.5632156392
 20
0.3245446079
 30
0.0
 10
19.5292718502
 20
0.3213555965
 30
0.0
 10
19.4639872449
 20
0.3213646635
 30
0.0
 10
19.3580076236
 20
0.3192599448
 30
0.0
 10
19.2661631132
 20
0.3188637988
 30
0.0
 10
19.2141241588
 20
0.3185420574
 30
0.0
 11
19.5932920569
 21
0.3248118626
 31
0.0
 11
19.5649693919
 21
0.3230014729
 31
0.0
 11
19.5328710632
 21
0.3221237969
 31
0.0
 11
19.4893735059
 21
0.321283766
 31
0.0
 11
19.3702391738
 21
0.3197703628
 31
0.0
 11
19.2141241588
 21
0.3185420574
 31
0.0
  0
SPLINE
  5
742
100
AcDbEntity
  8
ASSI
100
AcDbSpline
 62
7
  6
CONTINUOUS
 70
0
 71
3
 72
12
 73
8
 74
6
 42
0.0000001
 43
0.0000001
 44
0.0000000001
 12
0.3379270032
 22
0.1721713247
 32
0.0
 13
0.3792520618
 23
0.0023448093
 33
0.0
 40
0.0
 40
0.0
 40
0.0
 40
0.0
 40
0.074831108
 40
0.1594967742
 40
0.2742086712
 40
0.5883569055
 40
1.0
 40
1.0
 40
1.0
 40
1.0
 10
-19.5932920569
 20
-0.3248118626
 30
0.0
 10
-19.5848629062
 20
-0.3205172723
 30
0.0
 10
-19.5632157163
 20
-0.3245446055
 30
0.0
 10
-19.5292720149
 20
-0.3213556021
 30
0.0
 10
-19.4639875766
 20
-0.3213646668
 30
0.0
 10
-19.3580082165
 20
-0.3192599515
 30
0.0
 10
-19.2661639305
 20
-0.3188638048
 30
0.0
 10
-19.2141250998
 20
-0.3185420632
 30
0.0
 11
-19.5932920569
 21
-0.3248118626
 31
0.0
 11
-19.5649694637
 21
-0.3230014753
 31
0.0
 11
-19.5328712186
 21
-0.3221238005
 31
0.0
 11
-19.4893737743
 21
-0.3212837704
 31
0.0
 11
-19.3702397438
 21
-0.3197703685
 31
0.0
 11
-19.2141250998
 21
-0.3185420632
 31
0.0
  0
SPLINE
  5
743
100
AcDbEntity
  8
ASSI
100
AcDbSpline
 62
7
  6
CONTINUOUS
 70
0
 71
3
 72
12
 73
8
 74
6
 42
0.0000001
 43
0.0000001
 44
0.0000000001
 12
-0.3792520253
 22
0.0023448094
 32
0.0
 13
-0.3379269722
 23
0.172171305
 33
0.0
 40
0.0
 40
0.0
 40
0.0
 40
0.0
 40
0.4116430962
 40
0.7257913299
 40
0.8405032263
 40
0.9251688921
 40
1.0
 40
1.0
 40
1.0
 40
1.0
 10
-19.2141251363
 20
0.3185420635
 30
0.0
 10
-19.2661639623
 20
0.318863805
 30
0.0
 10
-19.3580082395
 20
0.3192599517
 30
0.0
 10
-19.4639875895
 20
0.3213646669
 30
0.0
 10
-19.5292720212
 20
0.3213556023
 30
0.0
 10
-19.5632157193
 20
0.3245446054
 30
0.0
 10
-19.584862907
 20
0.3205172728
 30
0.0
 10
-19.5932920569
 20
0.3248118626
 30
0.0
 11
-19.2141251363
 21
0.3185420635
 31
0.0
 11
-19.370239766
 21
0.3197703687
 31
0.0
 11
-19.4893737847
 21
0.3212837706
 31
0.0
 11
-19.5328712246
 21
0.3221238006
 31
0.0
 11
-19.5649694665
 21
0.3230014754
 31
0.0
 11
-19.5932920569
 21
0.3248118626
 31
0.0
  0
LINE
  5
744
100
AcDbEntity
  8
ASSI
100
AcDbLine
 62
253
  6
CONTINUOUS
 10
21.2782587846
 20
18.1595749722
 11
21.2517445951
 21
18.2308351883
  0
LINE
  5
745
100
AcDbEntity
  8
ASSI
100
AcDbLine
 62
253
  6
CONTINUOUS
 10
21.2782587846
 20
-18.1595749722
 11
21.2517445951
 21
-18.2308351883
  0
LINE
  5
746
100
AcDbEntity
  8
ASSI
100
AcDbLine
 62
253
  6
CONTINUOUS
 10
-21.2782587846
 20
-18.1595749722
 11
-21.2517445951
 21
-18.2308351883
  0
LINE
  5
747
100
AcDbEntity
  8
ASSI
100
AcDbLine
 62
253
  6
CONTINUOUS
 10
-21.2782587846
 20
18.1595749722
 11
-21.2517445951
 21
18.2308351883
  0
SPLINE
  5
748
100
AcDbEntity
  8
ASSI
100
AcDbSpline
 62
7
  6
CONTINUOUS
 70
0
 71
3
 72
8
 73
4
 74
2
 42
0.0000001
 43
0.0000001
 44
0.0000000001
 12
0.3930144886
 22
0.5105176395
 32
0.0
 13
-0.0
 23
0.6442737373
 33
0.0
 40
0.0
 40
0.0
 40
0.0
 40
0.0
 40
1.0
 40
1.0
 40
1.0
 40
1.0
 10
22.1662414635
 20
-17.0643546451
 30
0.0
 10
22.2972462931
 20
-16.8941820986
 30
0.0
 10
22.3738174026
 20
-16.6691938105
 30
0.0
 10
22.3738174026
 20
-16.4544358981
 30
0.0
 11
22.1662414635
 21
-17.0643546451
 31
0.0
 11
22.3738174026
 21
-16.4544358981
 31
0.0
  0
SPLINE
  5
749
100
AcDbEntity
  8
ASSI
100
AcDbSpline
 62
7
  6
CONTINUOUS
 70
0
 71
3
 72
8
 73
4
 74
2
 42
0.0000001
 43
0.0000001
 44
0.0000000001
 12
0.0
 22
0.6442737373
 32
0.0
 13
-0.3930144886
 23
0.5105176395
 33
0.0
 40
0.0
 40
0.0
 40
0.0
 40
0.0
 40
1.0
 40
1.0
 40
1.0
 40
1.0
 10
22.3738174026
 20
16.4544358981
 30
0.0
 10
22.3738174026
 20
16.6691938105
 30
0.0
 10
22.2972462931
 20
16.8941820986
 30
0.0
 10
22.1662414635
 20
17.0643546451
 30
0.0
 11
22.3738174026
 21
16.4544358981
 31
0.0
 11
22.1662414635
 21
17.0643546451
 31
0.0
  0
SPLINE
  5
74A
100
AcDbEntity
  8
ASSI
100
AcDbSpline
 62
7
  6
CONTINUOUS
 70
0
 71
3
 72
8
 73
4
 74
2
 42
0.0000001
 43
0.0000001
 44
0.0000000001
 12
-0.3930144886
 22
-0.5105176395
 32
0.0
 13
0.0
 23
-0.6442737373
 33
0.0
 40
0.0
 40
0.0
 40
0.0
 40
0.0
 40
1.0
 40
1.0
 40
1.0
 40
1.0
 10
-22.1662414635
 20
17.0643546451
 30
0.0
 10
-22.2972462931
 20
16.8941820986
 30
0.0
 10
-22.3738174026
 20
16.6691938105
 30
0.0
 10
-22.3738174026
 20
16.4544358981
 30
0.0
 11
-22.1662414635
 21
17.0643546451
 31
0.0
 11
-22.3738174026
 21
16.4544358981
 31
0.0
  0
SPLINE
  5
74B
100
AcDbEntity
  8
ASSI
100
AcDbSpline
 62
7
  6
CONTINUOUS
 70
0
 71
3
 72
8
 73
4
 74
2
 42
0.0000001
 43
0.0000001
 44
0.0000000001
 12
-0.0
 22
-0.6442737373
 32
0.0
 13
0.3930144886
 23
-0.5105176395
 33
0.0
 40
0.0
 40
0.0
 40
0.0
 40
0.0
 40
1.0
 40
1.0
 40
1.0
 40
1.0
 10
-22.3738174026
 20
-16.4544358981
 30
0.0
 10
-22.3738174026
 20
-16.6691938105
 30
0.0
 10
-22.2972462931
 20
-16.8941820986
 30
0.0
 10
-22.1662414635
 20
-17.0643546451
 30
0.0
 11
-22.3738174026
 21
-16.4544358981
 31
0.0
 11
-22.1662414635
 21
-17.0643546451
 31
0.0
  0
LINE
  5
74C
100
AcDbEntity
  8
ASSI
100
AcDbLine
 62
253
  6
CONTINUOUS
 10
20.9261825974
 20
-18.029762091
 11
20.9
 21
-18.1006347748
  0
LINE
  5
74D
100
AcDbEntity
  8
ASSI
100
AcDbLine
 62
253
  6
CONTINUOUS
 10
20.9261825974
 20
18.029762091
 11
20.9
 21
18.1006347748
  0
ELLIPSE
  5
74E
100
AcDbEntity
  8
0
100
AcDbEllipse
 62
7
  6
CONTINUOUS
 10
3.0
 20
-19.399450985
 30
0.0
 11
0.0
 21
0.500549015
 31
0.0
 40
0.9989031744
 41
7.853981634
 42
10.9955742876
  0
ELLIPSE
  5
74F
100
AcDbEntity
  8
0
100
AcDbEllipse
 62
7
  6
CONTINUOUS
 10
-5.1628421097
 20
11.4
 30
0.0
 11
-63.1353039964
 21
109.9291088678
 31
0.0
 40
0.0625410312
 41
-4.6273407902
 42
-4.6171041857
  0
ELLIPSE
  5
750
100
AcDbEntity
  8
0
100
AcDbEllipse
 62
7
  6
CONTINUOUS
 10
-6.8371578903
 20
11.4
 30
0.0
 11
63.1353039964
 21
109.9291088678
 31
0.0
 40
0.0625410312
 41
-1.6660811215
 42
-1.655844517
  0
ELLIPSE
  5
751
100
AcDbEntity
  8
0
100
AcDbEllipse
 62
7
  6
CONTINUOUS
 10
3.0
 20
19.399450985
 30
0.0
 11
-0.0
 21
-0.500549015
 31
0.0
 40
0.9989031744
 41
7.853981634
 42
10.9955742876
  0
ELLIPSE
  5
752
100
AcDbEntity
  8
0
100
AcDbEllipse
 62
7
  6
CONTINUOUS
 10
-3.0
 20
19.399450985
 30
0.0
 11
-0.0
 21
-0.500549015
 31
0.0
 40
0.9989031744
 41
7.853981634
 42
10.9955742876
  0
ELLIPSE
  5
753
100
AcDbEntity
  8
0
100
AcDbEllipse
 62
7
  6
CONTINUOUS
 10
8.136195996
 20
11.4
 30
0.0
 11
-63.1353039963
 21
109.9291088678
 31
0.0
 40
0.0625410312
 41
-4.6375646953
 42
-4.6273256401
  0
ELLIPSE
  5
754
100
AcDbEntity
  8
0
100
AcDbEllipse
 62
7
  6
CONTINUOUS
 10
3.863804004
 20
11.4
 30
0.0
 11
63.1353039964
 21
109.9291088678
 31
0.0
 40
0.0625410312
 41
-1.6558596671
 42
-1.6456206118
  0
ELLIPSE
  5
755
100
AcDbEntity
  8
0
100
AcDbEllipse
 62
7
  6
CONTINUOUS
 10
3.864166417
 20
11.4
 30
0.0
 11
62.991814669
 21
109.6792699839
 31
0.0
 40
0.0625410312
 41
-1.6558120671
 42
-1.6455496707
  0
ELLIPSE
  5
756
100
AcDbEntity
  8
0
100
AcDbEllipse
 62
7
  6
CONTINUOUS
 10
8.135833583
 20
11.4
 30
0.0
 11
-62.991814669
 21
109.6792699839
 31
0.0
 40
0.0625410312
 41
-4.6376356365
 42
-4.6273732401
  0
ELLIPSE
  5
757
100
AcDbEntity
  8
0
100
AcDbEllipse
 62
7
  6
CONTINUOUS
 10
-21.899923836
 20
-21.899313827
 30
0.0
 11
-0.1582391023
 21
-0.4751033573
 31
0.0
 40
0.9984778551
 41
-1.2488325878
 42
0.3210503505
  0
ELLIPSE
  5
758
100
AcDbEntity
  8
0
100
AcDbEllipse
 62
7
  6
CONTINUOUS
 10
-21.899923836
 20
21.899313827
 30
0.0
 11
0.1582391023
 21
-0.4751033573
 31
0.0
 40
0.9984778551
 41
2.8205423031
 42
4.3904252414
  0
ELLIPSE
  5
759
100
AcDbEntity
  8
0
100
AcDbEllipse
 62
7
  6
CONTINUOUS
 10
21.899923836
 20
-21.899313827
 30
0.0
 11
0.1582391023
 21
-0.4751033573
 31
0.0
 40
0.9984778551
 41
-0.3210503505
 42
1.2488325878
  0
ELLIPSE
  5
75A
100
AcDbEntity
  8
0
100
AcDbEllipse
 62
7
  6
CONTINUOUS
 10
21.899923836
 20
21.899313827
 30
0.0
 11
-0.1582391023
 21
-0.4751033573
 31
0.0
 40
0.9984778551
 41
1.8927600658
 42
3.4626430041
  0
ELLIPSE
  5
75B
100
AcDbEntity
  8
DRAFT
100
AcDbEllipse
 62
7
  6
CONTINUOUS
 10
-0.0
 20
0.4174359899
 30
0.0
 11
0.0
 21
27.6166417221
 31
0.0
 40
0.9998857561
 41
0.72080285
 42
0.733498974
  0
ELLIPSE
  5
75C
100
AcDbEntity
  8
DRAFT
100
AcDbEllipse
 62
7
  6
CONTINUOUS
 10
-22.5
 20
0.4174359899
 30
0.0
 11
-0.0
 21
27.6166417221
 31
0.0
 40
0.9998857561
 41
-0.733498974
 42
-0.72080285
  0
ELLIPSE
  5
75D
100
AcDbEntity
  8
DRAFT
100
AcDbEllipse
 62
7
  6
CONTINUOUS
 10
-22.5
 20
-0.4174359899
 30
0.0
 11
-0.0
 21
27.6166417221
 31
0.0
 40
0.9998857561
 41
-2.4207898036
 42
-2.4080936796
  0
ELLIPSE
  5
75E
100
AcDbEntity
  8
DRAFT
100
AcDbEllipse
 62
7
  6
CONTINUOUS
 10
-0.0
 20
-0.4174359899
 30
0.0
 11
-0.0
 21
27.6166417221
 31
0.0
 40
0.9998857561
 41
-3.8750916276
 42
-3.8623955036
  0
ELLIPSE
  5
75F
100
AcDbEntity
  8
DRAFT
100
AcDbEllipse
 62
7
  6
CONTINUOUS
 10
22.5
 20
0.4174359899
 30
0.0
 11
-0.0
 21
27.6166417221
 31
0.0
 40
0.9998857561
 41
0.72080285
 42
0.733498974
  0
ELLIPSE
  5
760
100
AcDbEntity
  8
DRAFT
100
AcDbEllipse
 62
7
  6
CONTINUOUS
 10
-0.0
 20
0.4174359899
 30
0.0
 11
-0.0
 21
27.6166417221
 31
0.0
 40
0.9998857561
 41
-0.733498974
 42
-0.72080285
  0
ELLIPSE
  5
761
100
AcDbEntity
  8
DRAFT
100
AcDbEllipse
 62
7
  6
CONTINUOUS
 10
0.0
 20
-0.4174359899
 30
0.0
 11
0.0
 21
27.6166417221
 31
0.0
 40
0.9998857561
 41
-2.4207898036
 42
-2.4080936796
  0
ELLIPSE
  5
762
100
AcDbEntity
  8
DRAFT
100
AcDbEllipse
 62
7
  6
CONTINUOUS
 10
22.5
 20
-0.4174359899
 30
0.0
 11
-0.0
 21
27.6166417221
 31
0.0
 40
0.9998857561
 41
-3.8750916276
 42
-3.8623955036
  0
ELLIPSE
  5
763
100
AcDbEntity
  8
ASSI
100
AcDbEllipse
 62
7
  6
CONTINUOUS
 10
-21.899923836
 20
-21.899313827
 30
0.0
 11
-0.1582391023
 21
-0.4751033573
 31
0.0
 40
0.9984778551
 41
-1.2488325878
 42
0.3210503505
  0
ELLIPSE
  5
764
100
AcDbEntity
  8
ASSI
100
AcDbEllipse
 62
7
  6
CONTINUOUS
 10
-21.899923836
 20
21.899313827
 30
0.0
 11
0.1582391023
 21
-0.4751033573
 31
0.0
 40
0.9984778551
 41
2.8205423031
 42
4.3904252414
  0
ELLIPSE
  5
765
100
AcDbEntity
  8
ASSI
100
AcDbEllipse
 62
7
  6
CONTINUOUS
 10
21.899923836
 20
-21.899313827
 30
0.0
 11
0.1582391023
 21
-0.4751033573
 31
0.0
 40
0.9984778551
 41
-0.3210503505
 42
1.2488325878
  0
ELLIPSE
  5
766
100
AcDbEntity
  8
ASSI
100
AcDbEllipse
 62
7
  6
CONTINUOUS
 10
21.899923836
 20
21.899313827
 30
0.0
 11
-0.1582391023
 21
-0.4751033573
 31
0.0
 40
0.9984778551
 41
1.8927600658
 42
3.4626430041
  0
ELLIPSE
  5
767
100
AcDbEntity
  8
ASSI
100
AcDbEllipse
 62
7
  6
CONTINUOUS
 10
-0.0
 20
-0.4174359899
 30
0.0
 11
-0.0
 21
27.6166417221
 31
0.0
 40
0.9998857561
 41
-3.8750916276
 42
-3.8623955036
  0
ELLIPSE
  5
768
100
AcDbEntity
  8
ASSI
100
AcDbEllipse
 62
7
  6
CONTINUOUS
 10
22.5
 20
0.4174359899
 30
0.0
 11
-0.0
 21
27.6166417221
 31
0.0
 40
0.9998857561
 41
0.72080285
 42
0.733498974
  0
ELLIPSE
  5
769
100
AcDbEntity
  8
ASSI
100
AcDbEllipse
 62
7
  6
CONTINUOUS
 10
-0.0
 20
0.4174359899
 30
0.0
 11
-0.0
 21
27.6166417221
 31
0.0
 40
0.9998857561
 41
-0.733498974
 42
-0.72080285
  0
ELLIPSE
  5
76A
100
AcDbEntity
  8
ASSI
100
AcDbEllipse
 62
7
  6
CONTINUOUS
 10
0.0
 20
-0.4174359899
 30
0.0
 11
0.0
 21
27.6166417221
 31
0.0
 40
0.9998857561
 41
-2.4207898036
 42
-2.4080936796
  0
ELLIPSE
  5
76B
100
AcDbEntity
  8
ASSI
100
AcDbEllipse
 62
7
  6
CONTINUOUS
 10
22.5
 20
-0.4174359899
 30
0.0
 11
-0.0
 21
27.6166417221
 31
0.0
 40
0.9998857561
 41
-3.8750916276
 42
-3.8623955036
  0
ELLIPSE
  5
76C
100
AcDbEntity
  8
ASSI
100
AcDbEllipse
 62
7
  6
CONTINUOUS
 10
-0.0
 20
0.4174359899
 30
0.0
 11
0.0
 21
27.6166417221
 31
0.0
 40
0.9998857561
 41
0.72080285
 42
0.733498974
  0
ELLIPSE
  5
76D
100
AcDbEntity
  8
ASSI
100
AcDbEllipse
 62
7
  6
CONTINUOUS
 10
-22.5
 20
0.4174359899
 30
0.0
 11
-0.0
 21
27.6166417221
 31
0.0
 40
0.9998857561
 41
-0.733498974
 42
-0.72080285
  0
ELLIPSE
  5
76E
100
AcDbEntity
  8
ASSI
100
AcDbEllipse
 62
7
  6
CONTINUOUS
 10
-22.5
 20
-0.4174359899
 30
0.0
 11
-0.0
 21
27.6166417221
 31
0.0
 40
0.9998857561
 41
-2.4207898036
 42
-2.4080936796
  0
ENDSEC
  0
SECTION
  2
OBJECTS
  0
DICTIONARY
  5
C
100
AcDbDictionary
280
0
281
1
  3
ACAD_GROUP
350
D
  3
ACAD_MLINESTYLE
350
17
  3
ACAD_LAYOUT
350
1A
  3
ACAD_PLOTSETTINGS
350
19
  3
ACAD_PLOTSTYLENAME
350
E
  0
DICTIONARY
  5
D
102
{ACAD_REACTORS
330
C
102
}
100
AcDbDictionary
280
0
281
1
  0
ACDBDICTIONARYWDFLT
  5
E
102
{ACAD_REACTORS
330
C
102
}
100
AcDbDictionary
281
1
  3
Normal
350
F
100
AcDbDictionaryWithDefault
340
F
  0
DICTIONARY
  5
17
102
{ACAD_REACTORS
330
C
102
}
100
AcDbDictionary
280
0
281
1
  3
Standard
350
18
  0
DICTIONARY
  5
19
102
{ACAD_REACTORS
330
C
102
}
100
AcDbDictionary
281
1
  0
DICTIONARY
  5
1A
102
{ACAD_REACTORS
330
C
102
}
100
AcDbDictionary
281
1
  3
Model
350
76F
  3
Layout1
350
770
  0
ACDBPLACEHOLDER
  5
F
102
{ACAD_REACTORS
330
E
102
}
  0
MLINESTYLE
  5
18
102
{ACAD_REACTORS
330
17
102
}
100
AcDbMlineStyle
  2
STANDARD
 70
0
  3

 62
256
 51
90.0
 52
90.0
 71
2
 49
0.5
 62
256
  6
BYLAYER
 49
-0.5
 62
256
  6
BYLAYER
  0
LAYOUT
  5
76F
102
{ACAD_REACTORS
330
1A
102
}
100
AcDbPlotSettings
  1

  2
none_device
  4
ANSI_C_(22.00_x_17.00_Inches)
  6

 40
0.0
 41
0.0
 42
0.0
 43
0.0
 44
558.8
 45
431.8
 46
0.0
 47
0.0
 48
0.0
 49
0.0
140
0.0
141
0.0
142
1.0
143
1.0
 70
1024
 72
1
 73
0
 74
0
  7

 75
0
147
1.0
148
0.0
149
0.0
100
AcDbLayout
  1
Model
 70
0
 71
0
 10
0.0
 20
0.0
 11
558.8
 21
431.8
 12
0.0
 22
0.0
 32
0.0
 14
0.0
 24
0.0
 34
0.0
 15
0.0
 25
0.0
 35
0.0
146
0.0
 13
0.0
 23
0.0
 33
0.0
 16
1.0
 26
0.0
 36
0.0
 17
0.0
 27
1.0
 37
0.0
 76
0
330
20B
345
0
346
0
  0
LAYOUT
  5
770
102
{ACAD_REACTORS
330
1A
102
}
100
AcDbPlotSettings
  1

  2
none_device
  4
ANSI_C_(22.00_x_17.00_Inches)
  6

 40
0.0
 41
0.0
 42
0.0
 43
0.0
 44
558.8
 45
431.8
 46
0.0
 47
0.0
 48
0.0
 49
0.0
140
0.0
141
0.0
142
1.0
143
1.0
 70
0
 72
1
 73
0
 74
0
  7

 75
0
147
1.0
148
0.0
149
0.0
100
AcDbLayout
  1
Layout1
 70
0
 71
1
 10
0.0
 20
0.0
 11
558.8
 21
431.8
 12
0.0
 22
0.0
 32
0.0
 14
0.0
 24
0.0
 34
0.0
 15
0.0
 25
0.0
 35
0.0
146
0.0
 13
0.0
 23
0.0
 33
0.0
 16
1.0
 26
0.0
 36
0.0
 17
0.0
 27
1.0
 37
0.0
 76
0
330
20C
345
0
346
0
  0
ENDSEC
  0
EOF
